  0
SECTION
  2
HEADER
  9
$ACADVER
  1
AC1021
  9
$ACADMAINTVER
 70
    25
  9
$DWGCODEPAGE
  3
ANSI_1252
  9
$INSBASE
 10
0.0
 20
0.0
 30
0.0
  9
$EXTMIN
 10
82.0388
 20
-115.1579
 30
0.0
  9
$EXTMAX
 10
196.689
 20
133.8053
 30
0.0
  9
$LIMMIN
 10
0.0
 20
0.0
  9
$LIMMAX
 10
12.0
 20
9.0
  9
$ORTHOMODE
 70
     0
  9
$REGENMODE
 70
     1
  9
$FILLMODE
 70
     1
  9
$QTEXTMODE
 70
     0
  9
$MIRRTEXT
 70
     1
  9
$LTSCALE
 40
1.0
  9
$ATTMODE
 70
     1
  9
$TEXTSIZE
 40
0.2
  9
$TRACEWID
 40
0.05
  9
$TEXTSTYLE
  7
Standard
  9
$CLAYER
  8
0
  9
$CELTYPE
  6
ByLayer
  9
$CECOLOR
 62
   256
  9
$CELTSCALE
 40
1.0
  9
$DISPSILH
 70
     0
  9
$DIMSCALE
 40
1.0
  9
$DIMASZ
 40
0.18
  9
$DIMEXO
 40
0.0625
  9
$DIMDLI
 40
0.38
  9
$DIMRND
 40
0.0
  9
$DIMDLE
 40
0.0
  9
$DIMEXE
 40
0.18
  9
$DIMTP
 40
0.0
  9
$DIMTM
 40
0.0
  9
$DIMTXT
 40
0.18
  9
$DIMCEN
 40
0.09
  9
$DIMTSZ
 40
0.0
  9
$DIMTOL
 70
     0
  9
$DIMLIM
 70
     0
  9
$DIMTIH
 70
     1
  9
$DIMTOH
 70
     1
  9
$DIMSE1
 70
     0
  9
$DIMSE2
 70
     0
  9
$DIMTAD
 70
     0
  9
$DIMZIN
 70
     0
  9
$DIMBLK
  1

  9
$DIMASO
 70
     1
  9
$DIMSHO
 70
     1
  9
$DIMPOST
  1

  9
$DIMAPOST
  1

  9
$DIMALT
 70
     0
  9
$DIMALTD
 70
     2
  9
$DIMALTF
 40
25.4
  9
$DIMLFAC
 40
1.0
  9
$DIMTOFL
 70
     0
  9
$DIMTVP
 40
0.0
  9
$DIMTIX
 70
     0
  9
$DIMSOXD
 70
     0
  9
$DIMSAH
 70
     0
  9
$DIMBLK1
  1

  9
$DIMBLK2
  1

  9
$DIMSTYLE
  2
Standard
  9
$DIMCLRD
 70
     0
  9
$DIMCLRE
 70
     0
  9
$DIMCLRT
 70
     0
  9
$DIMTFAC
 40
1.0
  9
$DIMGAP
 40
0.09
  9
$DIMJUST
 70
     0
  9
$DIMSD1
 70
     0
  9
$DIMSD2
 70
     0
  9
$DIMTOLJ
 70
     1
  9
$DIMTZIN
 70
     0
  9
$DIMALTZ
 70
     0
  9
$DIMALTTZ
 70
     0
  9
$DIMUPT
 70
     0
  9
$DIMDEC
 70
     4
  9
$DIMTDEC
 70
     4
  9
$DIMALTU
 70
     2
  9
$DIMALTTD
 70
     2
  9
$DIMTXSTY
  7
Standard
  9
$DIMAUNIT
 70
     0
  9
$DIMADEC
 70
     0
  9
$DIMALTRND
 40
0.0
  9
$DIMAZIN
 70
     0
  9
$DIMDSEP
 70
    46
  9
$DIMATFIT
 70
     3
  9
$DIMFRAC
 70
     0
  9
$DIMLDRBLK
  1

  9
$DIMLUNIT
 70
     2
  9
$DIMLWD
 70
    -2
  9
$DIMLWE
 70
    -2
  9
$DIMTMOVE
 70
     0
  9
$DIMFXL
 40
1.0
  9
$DIMFXLON
 70
     0
  9
$DIMJOGANG
 40
0.7853981633974483
  9
$DIMTFILL
 70
     0
  9
$DIMTFILLCLR
 70
     0
  9
$DIMARCSYM
 70
     0
  9
$DIMLTYPE
  6

  9
$DIMLTEX1
  6

  9
$DIMLTEX2
  6

  9
$LUNITS
 70
     2
  9
$LUPREC
 70
     4
  9
$SKETCHINC
 40
0.1
  9
$FILLETRAD
 40
0.5
  9
$AUNITS
 70
     0
  9
$AUPREC
 70
     0
  9
$MENU
  1
.
  9
$ELEVATION
 40
0.0
  9
$PELEVATION
 40
0.0
  9
$THICKNESS
 40
0.0
  9
$LIMCHECK
 70
     0
  9
$CHAMFERA
 40
0.5
  9
$CHAMFERB
 40
0.5
  9
$CHAMFERC
 40
1.0
  9
$CHAMFERD
 40
0.0
  9
$SKPOLY
 70
     0
  9
$TDCREATE
 40
2458492.865490162
  9
$TDUCREATE
 40
2458492.865490162
  9
$TDUPDATE
 40
2458492.865490428
  9
$TDUUPDATE
 40
2458492.865490428
  9
$TDINDWG
 40
0.0000000116
  9
$TDUSRTIMER
 40
0.0000000116
  9
$USRTIMER
 70
     1
  9
$ANGBASE
 50
0.0
  9
$ANGDIR
 70
     0
  9
$PDMODE
 70
     0
  9
$PDSIZE
 40
0.0
  9
$PLINEWID
 40
0.0
  9
$SPLFRAME
 70
     0
  9
$SPLINETYPE
 70
     6
  9
$SPLINESEGS
 70
     8
  9
$HANDSEED
  5
12C
  9
$SURFTAB1
 70
     6
  9
$SURFTAB2
 70
     6
  9
$SURFTYPE
 70
     6
  9
$SURFU
 70
     6
  9
$SURFV
 70
     6
  9
$UCSBASE
  2

  9
$UCSNAME
  2

  9
$UCSORG
 10
0.0
 20
0.0
 30
0.0
  9
$UCSXDIR
 10
1.0
 20
0.0
 30
0.0
  9
$UCSYDIR
 10
0.0
 20
1.0
 30
0.0
  9
$UCSORTHOREF
  2

  9
$UCSORTHOVIEW
 70
     0
  9
$UCSORGTOP
 10
0.0
 20
0.0
 30
0.0
  9
$UCSORGBOTTOM
 10
0.0
 20
0.0
 30
0.0
  9
$UCSORGLEFT
 10
0.0
 20
0.0
 30
0.0
  9
$UCSORGRIGHT
 10
0.0
 20
0.0
 30
0.0
  9
$UCSORGFRONT
 10
0.0
 20
0.0
 30
0.0
  9
$UCSORGBACK
 10
0.0
 20
0.0
 30
0.0
  9
$PUCSBASE
  2

  9
$PUCSNAME
  2

  9
$PUCSORG
 10
0.0
 20
0.0
 30
0.0
  9
$PUCSXDIR
 10
1.0
 20
0.0
 30
0.0
  9
$PUCSYDIR
 10
0.0
 20
1.0
 30
0.0
  9
$PUCSORTHOREF
  2

  9
$PUCSORTHOVIEW
 70
     0
  9
$PUCSORGTOP
 10
0.0
 20
0.0
 30
0.0
  9
$PUCSORGBOTTOM
 10
0.0
 20
0.0
 30
0.0
  9
$PUCSORGLEFT
 10
0.0
 20
0.0
 30
0.0
  9
$PUCSORGRIGHT
 10
0.0
 20
0.0
 30
0.0
  9
$PUCSORGFRONT
 10
0.0
 20
0.0
 30
0.0
  9
$PUCSORGBACK
 10
0.0
 20
0.0
 30
0.0
  9
$USERI1
 70
     0
  9
$USERI2
 70
     0
  9
$USERI3
 70
     0
  9
$USERI4
 70
     0
  9
$USERI5
 70
     0
  9
$USERR1
 40
0.0
  9
$USERR2
 40
0.0
  9
$USERR3
 40
0.0
  9
$USERR4
 40
0.0
  9
$USERR5
 40
0.0
  9
$WORLDVIEW
 70
     1
  9
$SHADEDGE
 70
     3
  9
$SHADEDIF
 70
    70
  9
$TILEMODE
 70
     1
  9
$MAXACTVP
 70
    64
  9
$PINSBASE
 10
0.0
 20
0.0
 30
0.0
  9
$PLIMCHECK
 70
     0
  9
$PEXTMIN
 10
1.000000000000000E+20
 20
1.000000000000000E+20
 30
1.000000000000000E+20
  9
$PEXTMAX
 10
-1.000000000000000E+20
 20
-1.000000000000000E+20
 30
-1.000000000000000E+20
  9
$PLIMMIN
 10
0.0
 20
0.0
  9
$PLIMMAX
 10
12.0
 20
9.0
  9
$UNITMODE
 70
     0
  9
$VISRETAIN
 70
     1
  9
$PLINEGEN
 70
     0
  9
$PSLTSCALE
 70
     1
  9
$TREEDEPTH
 70
  3020
  9
$CMLSTYLE
  2
Standard
  9
$CMLJUST
 70
     0
  9
$CMLSCALE
 40
1.0
  9
$PROXYGRAPHICS
 70
     1
  9
$MEASUREMENT
 70
     0
  9
$CELWEIGHT
370
    -1
  9
$ENDCAPS
280
     0
  9
$JOINSTYLE
280
     0
  9
$LWDISPLAY
290
     0
  9
$INSUNITS
 70
     4
  9
$HYPERLINKBASE
  1

  9
$STYLESHEET
  1

  9
$XEDIT
290
     1
  9
$CEPSNTYPE
380
     0
  9
$PSTYLEMODE
290
     1
  9
$FINGERPRINTGUID
  2
{0E256D03-EDD0-40FE-ADF6-07FE72550A5F}
  9
$VERSIONGUID
  2
{FAEB1C32-E019-11D5-929B-00C0DF256EC4}
  9
$EXTNAMES
290
     1
  9
$PSVPSCALE
 40
0.0
  9
$OLESTARTUP
290
     0
  9
$SORTENTS
280
   127
  9
$INDEXCTL
280
     0
  9
$HIDETEXT
280
     1
  9
$XCLIPFRAME
290
     0
  9
$HALOGAP
280
     0
  9
$OBSCOLOR
 70
   257
  9
$OBSLTYPE
280
     0
  9
$INTERSECTIONDISPLAY
280
     0
  9
$INTERSECTIONCOLOR
 70
   257
  9
$DIMASSOC
280
     2
  9
$PROJECTNAME
  1

  9
$CAMERADISPLAY
290
     0
  9
$LENSLENGTH
 40
50.0
  9
$CAMERAHEIGHT
 40
0.0
  9
$STEPSPERSEC
 40
2.0
  9
$STEPSIZE
 40
6.0
  9
$3DDWFPREC
 40
2.0
  9
$PSOLWIDTH
 40
0.25
  9
$PSOLHEIGHT
 40
4.0
  9
$LOFTANG1
 40
1.570796326794897
  9
$LOFTANG2
 40
1.570796326794897
  9
$LOFTMAG1
 40
0.0
  9
$LOFTMAG2
 40
0.0
  9
$LOFTPARAM
 70
     7
  9
$LOFTNORMALS
280
     1
  9
$LATITUDE
 40
37.795
  9
$LONGITUDE
 40
-122.394
  9
$NORTHDIRECTION
 40
0.0
  9
$TIMEZONE
 70
 -8000
  9
$LIGHTGLYPHDISPLAY
280
     1
  9
$TILEMODELIGHTSYNCH
280
     1
  9
$SOLIDHIST
280
     1
  9
$SHOWHIST
280
     1
  9
$DWFFRAME
280
     2
  9
$DGNFRAME
280
     2
  9
$REALWORLDSCALE
290
     1
  9
$INTERFERECOLOR
 62
   256
  9
$CSHADOW
280
     0
  9
$SHADOWPLANELOCATION
 40
0.0
  0
ENDSEC
  0
SECTION
  2
CLASSES
  0
CLASS
  1
ACDBDICTIONARYWDFLT
  2
AcDbDictionaryWithDefault
  3
ObjectDBX Classes
 90
        0
 91
        4
280
     0
281
     0
  0
CLASS
  1
VISUALSTYLE
  2
AcDbVisualStyle
  3
ObjectDBX Classes
 90
     4095
 91
        4
280
     0
281
     0
  0
CLASS
  1
MATERIAL
  2
AcDbMaterial
  3
ObjectDBX Classes
 90
     1153
 91
        4
280
     0
281
     0
  0
ENDSEC
  0
SECTION
  2
TABLES
  0
TABLE
  2
VPORT
  5
8
330
0
100
AcDbSymbolTable
 70
     1
  0
VPORT
  5
29
330
8
100
AcDbSymbolTableRecord
100
AcDbViewportTableRecord
  2
*Active
 70
     0
 10
0.0
 20
0.0
 11
1.0
 21
1.0
 12
10.42990654205607
 22
4.5
 13
0.0
 23
0.0
 14
0.5
 24
0.5
 15
0.5
 25
0.5
 16
0.0
 26
0.0
 36
1.0
 17
0.0
 27
0.0
 37
0.0
 40
9.0
 41
1.972972972850329
 42
50.0
 43
0.0
 44
0.0
 50
0.0
 51
0.0
 71
     0
 72
   100
 73
     1
 74
     3
 75
     0
 76
     0
 77
     0
 78
     0
281
     0
 65
     1
110
0.0
120
0.0
130
0.0
111
1.0
121
0.0
131
0.0
112
0.0
122
1.0
132
0.0
 79
     0
146
0.0
 60
     3
 61
     5
292
     1
282
     1
141
0.0
142
0.0
 63
   250
  0
ENDTAB
  0
TABLE
  2
LTYPE
  5
5
330
0
100
AcDbSymbolTable
 70
     1
  0
LTYPE
  5
14
330
5
100
AcDbSymbolTableRecord
100
AcDbLinetypeTableRecord
  2
ByBlock
 70
     0
  3

 72
    65
 73
     0
 40
0.0
  0
LTYPE
  5
15
330
5
100
AcDbSymbolTableRecord
100
AcDbLinetypeTableRecord
  2
ByLayer
 70
     0
  3

 72
    65
 73
     0
 40
0.0
  0
LTYPE
  5
16
330
5
100
AcDbSymbolTableRecord
100
AcDbLinetypeTableRecord
  2
Continuous
 70
     0
  3
Solid line
 72
    65
 73
     0
 40
0.0
  0
ENDTAB
  0
TABLE
  2
LAYER
  5
2
330
0
100
AcDbSymbolTable
 70
     3
  0
LAYER
  5
10
330
2
100
AcDbSymbolTableRecord
100
AcDbLayerTableRecord
  2
0
 70
     0
 62
     7
  6
Continuous
370
    -3
390
F
347
3E
  0
LAYER
  5
40
330
2
100
AcDbSymbolTableRecord
100
AcDbLayerTableRecord
  2
layer 1
 70
     0
 62
     7
  6
Continuous
370
    -3
390
F
347
3E
  0
LAYER
  5
109
330
2
100
AcDbSymbolTableRecord
100
AcDbLayerTableRecord
  2
Master Guides
 70
     0
 62
     7
  6
Continuous
370
    -3
390
F
347
3E
  0
ENDTAB
  0
TABLE
  2
STYLE
  5
3
330
0
100
AcDbSymbolTable
 70
     1
  0
STYLE
  5
11
330
3
100
AcDbSymbolTableRecord
100
AcDbTextStyleTableRecord
  2
Standard
 70
     0
 40
0.0
 41
1.0
 50
0.0
 71
     0
 42
0.2
  3
txt
  4

  0
ENDTAB
  0
TABLE
  2
VIEW
  5
6
330
0
100
AcDbSymbolTable
 70
     0
  0
ENDTAB
  0
TABLE
  2
UCS
  5
7
330
0
100
AcDbSymbolTable
 70
     0
  0
ENDTAB
  0
TABLE
  2
APPID
  5
9
330
0
100
AcDbSymbolTable
 70
     2
  0
APPID
  5
12
330
9
100
AcDbSymbolTableRecord
100
AcDbRegAppTableRecord
  2
ACAD
 70
     0
  0
APPID
  5
3F
330
9
100
AcDbSymbolTableRecord
100
AcDbRegAppTableRecord
  2
ODA
 70
     0
  0
ENDTAB
  0
TABLE
  2
DIMSTYLE
  5
A
330
0
100
AcDbSymbolTable
 70
     1
100
AcDbDimStyleTable
  0
DIMSTYLE
105
27
330
A
100
AcDbSymbolTableRecord
100
AcDbDimStyleTableRecord
  2
Standard
 70
     0
178
     0
340
11
  0
ENDTAB
  0
TABLE
  2
BLOCK_RECORD
  5
1
330
0
100
AcDbSymbolTable
 70
     1
  0
BLOCK_RECORD
  5
1F
330
1
100
AcDbSymbolTableRecord
100
AcDbBlockTableRecord
  2
*Model_Space
340
22
 70
     0
280
     1
281
     0
  0
BLOCK_RECORD
  5
1B
330
1
100
AcDbSymbolTableRecord
100
AcDbBlockTableRecord
  2
*Paper_Space
340
1E
 70
     0
280
     1
281
     0
  0
BLOCK_RECORD
  5
23
330
1
100
AcDbSymbolTableRecord
100
AcDbBlockTableRecord
  2
*Paper_Space0
340
26
 70
     0
280
     1
281
     0
  0
ENDTAB
  0
ENDSEC
  0
SECTION
  2
BLOCKS
  0
BLOCK
  5
20
330
1F
100
AcDbEntity
  8
0
100
AcDbBlockBegin
  2
*Model_Space
 70
     0
 10
0.0
 20
0.0
 30
0.0
  3
*Model_Space
  1

  0
ENDBLK
  5
21
330
1F
100
AcDbEntity
  8
0
100
AcDbBlockEnd
  0
BLOCK
  5
1C
330
1B
100
AcDbEntity
 67
     1
  8
0
100
AcDbBlockBegin
  2
*Paper_Space
 70
     0
 10
0.0
 20
0.0
 30
0.0
  3
*Paper_Space
  1

  0
ENDBLK
  5
1D
330
1B
100
AcDbEntity
 67
     1
  8
0
100
AcDbBlockEnd
  0
BLOCK
  5
24
330
23
100
AcDbEntity
  8
0
100
AcDbBlockBegin
  2
*Paper_Space0
 70
     0
 10
0.0
 20
0.0
 30
0.0
  3
*Paper_Space0
  1

  0
ENDBLK
  5
25
330
23
100
AcDbEntity
  8
0
100
AcDbBlockEnd
  0
ENDSEC
  0
SECTION
  2
ENTITIES
  0
SPLINE
  5
41
330
1F
100
AcDbEntity
  8
layer 1
 62
   250
100
AcDbSpline
210
0.0
220
0.0
230
1.0
 70
    11
 71
     3
 72
    48
 73
    44
 74
     0
 42
0.0000000001
 43
0.0000000001
 12
1.0
 22
0.0
 32
0.0
 13
1.0
 23
0.0
 33
0.0
 40
0.0
 40
0.0
 40
0.0
 40
0.0
 40
0.0833333333333333
 40
0.0833333333333333
 40
0.0833333333333333
 40
0.0833333333333333
 40
0.1666666666666667
 40
0.1666666666666667
 40
0.1666666666666667
 40
0.1666666666666667
 40
0.25
 40
0.25
 40
0.25
 40
0.25
 40
0.3333333333333333
 40
0.3333333333333333
 40
0.3333333333333333
 40
0.3333333333333333
 40
0.4166666666666667
 40
0.4166666666666667
 40
0.4166666666666667
 40
0.4166666666666667
 40
0.5
 40
0.5
 40
0.5
 40
0.5
 40
0.5833333333333334
 40
0.5833333333333334
 40
0.5833333333333334
 40
0.5833333333333334
 40
0.6666666666666666
 40
0.6666666666666666
 40
0.6666666666666666
 40
0.6666666666666666
 40
0.75
 40
0.75
 40
0.75
 40
0.75
 40
0.8333333333333334
 40
0.8333333333333334
 40
0.8333333333333334
 40
0.8333333333333334
 40
1.0
 40
1.0
 40
1.0
 40
1.0
 10
196.689
 20
-115.1579
 30
0.0
 10
196.689
 20
-115.1579
 30
0.0
 10
196.689
 20
87.2665
 30
0.0
 10
196.689
 20
87.2665
 30
0.0
 10
196.689
 20
87.2665
 30
0.0
 10
196.689
 20
87.2665
 30
0.0
 10
186.4655
 20
87.2665
 30
0.0
 10
186.4655
 20
87.2665
 30
0.0
 10
186.4655
 20
87.2665
 30
0.0
 10
186.2141
 20
103.897
 30
0.0
 10
178.3397
 20
111.9517
 30
0.0
 10
165.2246
 20
113.3363
 30
0.0
 10
165.2246
 20
113.3363
 30
0.0
 10
165.2246
 20
113.3363
 30
0.0
 10
167.835
 20
118.2892
 30
0.0
 10
167.835
 20
118.2892
 30
0.0
 10
167.835
 20
118.2892
 30
0.0
 10
159.0858
 20
118.7607
 30
0.0
 10
146.7348
 20
120.9931
 30
0.0
 10
139.3639
 20
133.8053
 30
0.0
 10
139.3639
 20
133.8053
 30
0.0
 10
131.993
 20
120.9931
 30
0.0
 10
119.642
 20
118.7607
 30
0.0
 10
110.8928
 20
118.2892
 30
0.0
 10
110.8928
 20
118.2892
 30
0.0
 10
110.8928
 20
118.2892
 30
0.0
 10
113.5032
 20
113.3363
 30
0.0
 10
113.5032
 20
113.3363
 30
0.0
 10
113.5032
 20
113.3363
 30
0.0
 10
100.3881
 20
111.9517
 30
0.0
 10
92.5137
 20
103.897
 30
0.0
 10
92.2623
 20
87.2665
 30
0.0
 10
92.2623
 20
87.2665
 30
0.0
 10
92.2623
 20
87.2665
 30
0.0
 10
82.0388
 20
87.2665
 30
0.0
 10
82.0388
 20
87.2665
 30
0.0
 10
82.0388
 20
87.2665
 30
0.0
 10
82.0388
 20
87.2665
 30
0.0
 10
82.0388
 20
-115.1579
 30
0.0
 10
82.0388
 20
-115.1579
 30
0.0
 10
82.0388
 20
-115.1579
 30
0.0
 10
82.0388
 20
-115.1579
 30
0.0
 10
196.689
 20
-115.1579
 30
0.0
 10
196.689
 20
-115.1579
 30
0.0
  0
SPLINE
  5
42
330
1F
100
AcDbEntity
  8
layer 1
 62
   250
100
AcDbSpline
210
0.0
220
0.0
230
1.0
 70
    11
 71
     3
 72
    20
 73
    16
 74
     0
 42
0.0000000001
 43
0.0000000001
 12
1.0
 22
0.0
 32
0.0
 13
1.0
 23
0.0
 33
0.0
 40
0.0
 40
0.0
 40
0.0
 40
0.0
 40
0.2
 40
0.2
 40
0.2
 40
0.2
 40
0.4
 40
0.4
 40
0.4
 40
0.4
 40
0.6
 40
0.6
 40
0.6
 40
0.6
 40
1.0
 40
1.0
 40
1.0
 40
1.0
 10
155.9919
 20
117.5859
 30
0.0
 10
159.2123
 20
116.3857
 30
0.0
 10
161.5055
 20
116.2188
 30
0.0
 10
163.954
 20
116.3069
 30
0.0
 10
163.954
 20
116.3069
 30
0.0
 10
163.2833
 20
114.9123
 30
0.0
 10
162.4729
 20
113.5186
 30
0.0
 10
161.4994
 20
112.2064
 30
0.0
 10
161.4994
 20
112.2064
 30
0.0
 10
161.0517
 20
112.318
 30
0.0
 10
160.7468
 20
112.4325
 30
0.0
 10
160.1615
 20
112.544
 30
0.0
 10
160.1615
 20
112.544
 30
0.0
 10
159.8052
 20
114.9132
 30
0.0
 10
158.0206
 20
116.6382
 30
0.0
 10
155.9919
 20
117.5859
 30
0.0
  0
SPLINE
  5
43
330
1F
100
AcDbEntity
  8
layer 1
 62
   250
100
AcDbSpline
210
0.0
220
0.0
230
1.0
 70
    11
 71
     3
 72
    20
 73
    16
 74
     0
 42
0.0000000001
 43
0.0000000001
 12
1.0
 22
0.0
 32
0.0
 13
1.0
 23
0.0
 33
0.0
 40
0.0
 40
0.0
 40
0.0
 40
0.0
 40
0.2
 40
0.2
 40
0.2
 40
0.2
 40
0.4
 40
0.4
 40
0.4
 40
0.4
 40
0.6
 40
0.6
 40
0.6
 40
0.6
 40
1.0
 40
1.0
 40
1.0
 40
1.0
 10
152.7572
 20
118.5883
 30
0.0
 10
150.7447
 20
118.6197
 30
0.0
 10
149.3259
 20
118.1989
 30
0.0
 10
148.3168
 20
117.4776
 30
0.0
 10
148.3168
 20
117.4776
 30
0.0
 10
147.8611
 20
120.8463
 30
0.0
 10
145.28
 20
122.1608
 30
0.0
 10
143.7462
 20
121.9371
 30
0.0
 10
143.7462
 20
121.9371
 30
0.0
 10
144.2905
 20
123.5491
 30
0.0
 10
142.6044
 20
124.4175
 30
0.0
 10
142.2125
 20
125.5889
 30
0.0
 10
142.2125
 20
125.5889
 30
0.0
 10
145.2126
 20
122.4257
 30
0.0
 10
148.9988
 20
120.2122
 30
0.0
 10
152.7572
 20
118.5883
 30
0.0
  0
SPLINE
  5
44
330
1F
100
AcDbEntity
  8
layer 1
 62
   250
100
AcDbSpline
210
0.0
220
0.0
230
1.0
 70
    11
 71
     3
 72
    20
 73
    16
 74
     0
 42
0.0000000001
 43
0.0000000001
 12
1.0
 22
0.0
 32
0.0
 13
1.0
 23
0.0
 33
0.0
 40
0.0
 40
0.0
 40
0.0
 40
0.0
 40
0.2
 40
0.2
 40
0.2
 40
0.2
 40
0.4
 40
0.4
 40
0.4
 40
0.4
 40
0.6
 40
0.6
 40
0.6
 40
0.6
 40
1.0
 40
1.0
 40
1.0
 40
1.0
 10
123.1718
 20
117.4758
 30
0.0
 10
119.9513
 20
116.2756
 30
0.0
 10
117.3828
 20
116.2188
 30
0.0
 10
114.9343
 20
116.3069
 30
0.0
 10
114.9343
 20
116.3069
 30
0.0
 10
115.605
 20
114.9123
 30
0.0
 10
116.4154
 20
113.5186
 30
0.0
 10
117.3889
 20
112.2064
 30
0.0
 10
117.3889
 20
112.2064
 30
0.0
 10
117.8366
 20
112.318
 30
0.0
 10
118.4169
 20
112.4325
 30
0.0
 10
119.0022
 20
112.544
 30
0.0
 10
119.0022
 20
112.544
 30
0.0
 10
119.3585
 20
114.9132
 30
0.0
 10
121.1431
 20
116.5281
 30
0.0
 10
123.1718
 20
117.4758
 30
0.0
  0
SPLINE
  5
45
330
1F
100
AcDbEntity
  8
layer 1
 62
   250
100
AcDbSpline
210
0.0
220
0.0
230
1.0
 70
    11
 71
     3
 72
    20
 73
    16
 74
     0
 42
0.0000000001
 43
0.0000000001
 12
1.0
 22
0.0
 32
0.0
 13
1.0
 23
0.0
 33
0.0
 40
0.0
 40
0.0
 40
0.0
 40
0.0
 40
0.2
 40
0.2
 40
0.2
 40
0.2
 40
0.4
 40
0.4
 40
0.4
 40
0.4
 40
0.6
 40
0.6
 40
0.6
 40
0.6
 40
1.0
 40
1.0
 40
1.0
 40
1.0
 10
126.1311
 20
118.5883
 30
0.0
 10
128.1437
 20
118.6197
 30
0.0
 10
129.5624
 20
118.1989
 30
0.0
 10
130.5715
 20
117.4776
 30
0.0
 10
130.5715
 20
117.4776
 30
0.0
 10
131.0272
 20
120.8463
 30
0.0
 10
133.6083
 20
122.1608
 30
0.0
 10
135.1421
 20
121.9371
 30
0.0
 10
135.1421
 20
121.9371
 30
0.0
 10
134.5979
 20
123.5491
 30
0.0
 10
136.2839
 20
124.4175
 30
0.0
 10
136.6759
 20
125.5889
 30
0.0
 10
136.6759
 20
125.5889
 30
0.0
 10
133.6757
 20
122.4257
 30
0.0
 10
129.8895
 20
120.2122
 30
0.0
 10
126.1311
 20
118.5883
 30
0.0
  0
SPLINE
  5
46
330
1F
100
AcDbEntity
  8
layer 1
 62
   250
100
AcDbSpline
210
0.0
220
0.0
230
1.0
 70
    11
 71
     3
 72
    36
 73
    32
 74
     0
 42
0.0000000001
 43
0.0000000001
 12
1.0
 22
0.0
 32
0.0
 13
1.0
 23
0.0
 33
0.0
 40
0.0
 40
0.0
 40
0.0
 40
0.0
 40
0.1111111111111111
 40
0.1111111111111111
 40
0.1111111111111111
 40
0.1111111111111111
 40
0.2222222222222222
 40
0.2222222222222222
 40
0.2222222222222222
 40
0.2222222222222222
 40
0.3333333333333333
 40
0.3333333333333333
 40
0.3333333333333333
 40
0.3333333333333333
 40
0.4444444444444444
 40
0.4444444444444444
 40
0.4444444444444444
 40
0.4444444444444444
 40
0.5555555555555556
 40
0.5555555555555556
 40
0.5555555555555556
 40
0.5555555555555556
 40
0.6666666666666666
 40
0.6666666666666666
 40
0.6666666666666666
 40
0.6666666666666666
 40
0.7777777777777778
 40
0.7777777777777778
 40
0.7777777777777778
 40
0.7777777777777778
 40
1.0
 40
1.0
 40
1.0
 40
1.0
 10
146.948
 20
109.8206
 30
0.0
 10
145.9628
 20
109.0496
 30
0.0
 10
145.0419
 20
108.2786
 30
0.0
 10
144.2173
 20
107.4433
 30
0.0
 10
144.2173
 20
107.4433
 30
0.0
 10
141.9073
 20
109.5134
 30
0.0
 10
140.1501
 20
112.4705
 30
0.0
 10
141.5029
 20
114.8041
 30
0.0
 10
141.5029
 20
114.8041
 30
0.0
 10
141.8611
 20
115.422
 30
0.0
 10
144.4138
 20
116.7813
 30
0.0
 10
144.3137
 20
113.5471
 30
0.0
 10
144.3137
 20
113.5471
 30
0.0
 10
145.4381
 20
113.4507
 30
0.0
 10
146.8195
 20
113.7399
 30
0.0
 10
147.3977
 20
114.6715
 30
0.0
 10
147.3977
 20
114.6715
 30
0.0
 10
150.2783
 20
115.9244
 30
0.0
 10
153.2552
 20
115.6031
 30
0.0
 10
154.0155
 20
112.4227
 30
0.0
 10
154.0155
 20
112.4227
 30
0.0
 10
152.6984
 20
112.4763
 30
0.0
 10
151.317
 20
112.1443
 30
0.0
 10
150.4175
 20
111.716
 30
0.0
 10
150.4175
 20
111.716
 30
0.0
 10
150.9681
 20
113.5064
 30
0.0
 10
148.6153
 20
114.1756
 30
0.0
 10
147.2074
 20
113.3563
 30
0.0
 10
147.2074
 20
113.3563
 30
0.0
 10
145.8316
 20
112.5557
 30
0.0
 10
145.4194
 20
110.411
 30
0.0
 10
146.948
 20
109.8206
 30
0.0
  0
SPLINE
  5
47
330
1F
100
AcDbEntity
  8
layer 1
 62
   250
100
AcDbSpline
210
0.0
220
0.0
230
1.0
 70
    11
 71
     3
 72
    36
 73
    32
 74
     0
 42
0.0000000001
 43
0.0000000001
 12
1.0
 22
0.0
 32
0.0
 13
1.0
 23
0.0
 33
0.0
 40
0.0
 40
0.0
 40
0.0
 40
0.0
 40
0.1111111111111111
 40
0.1111111111111111
 40
0.1111111111111111
 40
0.1111111111111111
 40
0.2222222222222222
 40
0.2222222222222222
 40
0.2222222222222222
 40
0.2222222222222222
 40
0.3333333333333333
 40
0.3333333333333333
 40
0.3333333333333333
 40
0.3333333333333333
 40
0.4444444444444444
 40
0.4444444444444444
 40
0.4444444444444444
 40
0.4444444444444444
 40
0.5555555555555556
 40
0.5555555555555556
 40
0.5555555555555556
 40
0.5555555555555556
 40
0.6666666666666666
 40
0.6666666666666666
 40
0.6666666666666666
 40
0.6666666666666666
 40
0.7777777777777778
 40
0.7777777777777778
 40
0.7777777777777778
 40
0.7777777777777778
 40
1.0
 40
1.0
 40
1.0
 40
1.0
 10
131.9346
 20
109.8206
 30
0.0
 10
132.9198
 20
109.0496
 30
0.0
 10
133.8407
 20
108.2786
 30
0.0
 10
134.6652
 20
107.4433
 30
0.0
 10
134.6652
 20
107.4433
 30
0.0
 10
136.9752
 20
109.5134
 30
0.0
 10
138.7325
 20
112.4705
 30
0.0
 10
137.3796
 20
114.8041
 30
0.0
 10
137.3796
 20
114.8041
 30
0.0
 10
137.0214
 20
115.422
 30
0.0
 10
134.4688
 20
116.7813
 30
0.0
 10
134.5688
 20
113.5471
 30
0.0
 10
134.5688
 20
113.5471
 30
0.0
 10
133.4445
 20
113.4507
 30
0.0
 10
132.0631
 20
113.7399
 30
0.0
 10
131.4848
 20
114.6715
 30
0.0
 10
131.4848
 20
114.6715
 30
0.0
 10
128.6043
 20
115.9244
 30
0.0
 10
125.6274
 20
115.6031
 30
0.0
 10
124.8671
 20
112.4227
 30
0.0
 10
124.8671
 20
112.4227
 30
0.0
 10
126.1842
 20
112.4763
 30
0.0
 10
127.5656
 20
112.1443
 30
0.0
 10
128.4651
 20
111.716
 30
0.0
 10
128.4651
 20
111.716
 30
0.0
 10
127.9144
 20
113.5064
 30
0.0
 10
130.2673
 20
114.1756
 30
0.0
 10
131.6751
 20
113.3563
 30
0.0
 10
131.6751
 20
113.3563
 30
0.0
 10
133.0509
 20
112.5557
 30
0.0
 10
133.4632
 20
110.411
 30
0.0
 10
131.9346
 20
109.8206
 30
0.0
  0
SPLINE
  5
48
330
1F
100
AcDbEntity
  8
layer 1
 62
   250
100
AcDbSpline
210
0.0
220
0.0
230
1.0
 70
    11
 71
     3
 72
    36
 73
    32
 74
     0
 42
0.0000000001
 43
0.0000000001
 12
1.0
 22
0.0
 32
0.0
 13
1.0
 23
0.0
 33
0.0
 40
0.0
 40
0.0
 40
0.0
 40
0.0
 40
0.1111111111111111
 40
0.1111111111111111
 40
0.1111111111111111
 40
0.1111111111111111
 40
0.2222222222222222
 40
0.2222222222222222
 40
0.2222222222222222
 40
0.2222222222222222
 40
0.3333333333333333
 40
0.3333333333333333
 40
0.3333333333333333
 40
0.3333333333333333
 40
0.4444444444444444
 40
0.4444444444444444
 40
0.4444444444444444
 40
0.4444444444444444
 40
0.5555555555555556
 40
0.5555555555555556
 40
0.5555555555555556
 40
0.5555555555555556
 40
0.6666666666666666
 40
0.6666666666666666
 40
0.6666666666666666
 40
0.6666666666666666
 40
0.7777777777777778
 40
0.7777777777777778
 40
0.7777777777777778
 40
0.7777777777777778
 40
1.0
 40
1.0
 40
1.0
 40
1.0
 10
145.8236
 20
105.1625
 30
0.0
 10
147.6333
 20
102.9994
 30
0.0
 10
148.2866
 20
99.0051
 30
0.0
 10
147.5584
 20
97.0991
 30
0.0
 10
147.5584
 20
97.0991
 30
0.0
 10
148.2972
 20
97.6024
 30
0.0
 10
149.2931
 20
98.1699
 30
0.0
 10
149.9677
 20
98.4162
 30
0.0
 10
149.9677
 20
98.4162
 30
0.0
 10
150.0567
 20
100.7673
 30
0.0
 10
150.42
 20
102.4538
 30
0.0
 10
151.5477
 20
104.0
 30
0.0
 10
151.5477
 20
104.0
 30
0.0
 10
152.7586
 20
105.6602
 30
0.0
 10
154.2464
 20
108.0236
 30
0.0
 10
154.4331
 20
109.8849
 30
0.0
 10
154.4331
 20
109.8849
 30
0.0
 10
153.2659
 20
110.0348
 30
0.0
 10
152.2272
 20
109.5743
 30
0.0
 10
151.317
 20
109.1781
 30
0.0
 10
151.317
 20
109.1781
 30
0.0
 10
153.1333
 20
108.5032
 30
0.0
 10
152.1156
 20
106.6425
 30
0.0
 10
151.2049
 20
106.1272
 30
0.0
 10
151.2049
 20
106.1272
 30
0.0
 10
150.2355
 20
105.5786
 30
0.0
 10
148.0915
 20
105.6654
 30
0.0
 10
148.3936
 20
107.4755
 30
0.0
 10
148.3936
 20
107.4755
 30
0.0
 10
147.7511
 20
107.1114
 30
0.0
 10
146.6267
 20
105.9763
 30
0.0
 10
145.8236
 20
105.1625
 30
0.0
  0
SPLINE
  5
49
330
1F
100
AcDbEntity
  8
layer 1
 62
   250
100
AcDbSpline
210
0.0
220
0.0
230
1.0
 70
    11
 71
     3
 72
    36
 73
    32
 74
     0
 42
0.0000000001
 43
0.0000000001
 12
1.0
 22
0.0
 32
0.0
 13
1.0
 23
0.0
 33
0.0
 40
0.0
 40
0.0
 40
0.0
 40
0.0
 40
0.1111111111111111
 40
0.1111111111111111
 40
0.1111111111111111
 40
0.1111111111111111
 40
0.2222222222222222
 40
0.2222222222222222
 40
0.2222222222222222
 40
0.2222222222222222
 40
0.3333333333333333
 40
0.3333333333333333
 40
0.3333333333333333
 40
0.3333333333333333
 40
0.4444444444444444
 40
0.4444444444444444
 40
0.4444444444444444
 40
0.4444444444444444
 40
0.5555555555555556
 40
0.5555555555555556
 40
0.5555555555555556
 40
0.5555555555555556
 40
0.6666666666666666
 40
0.6666666666666666
 40
0.6666666666666666
 40
0.6666666666666666
 40
0.7777777777777778
 40
0.7777777777777778
 40
0.7777777777777778
 40
0.7777777777777778
 40
1.0
 40
1.0
 40
1.0
 40
1.0
 10
133.0378
 20
105.1625
 30
0.0
 10
131.2281
 20
102.9994
 30
0.0
 10
130.5749
 20
99.0051
 30
0.0
 10
131.3031
 20
97.0991
 30
0.0
 10
131.3031
 20
97.0991
 30
0.0
 10
130.5642
 20
97.6024
 30
0.0
 10
129.5683
 20
98.1699
 30
0.0
 10
128.8937
 20
98.4162
 30
0.0
 10
128.8937
 20
98.4162
 30
0.0
 10
128.8047
 20
100.7673
 30
0.0
 10
128.4414
 20
102.4538
 30
0.0
 10
127.3137
 20
104.0
 30
0.0
 10
127.3137
 20
104.0
 30
0.0
 10
126.1029
 20
105.6602
 30
0.0
 10
124.615
 20
108.0236
 30
0.0
 10
124.4283
 20
109.8849
 30
0.0
 10
124.4283
 20
109.8849
 30
0.0
 10
125.5955
 20
110.0348
 30
0.0
 10
126.6343
 20
109.5743
 30
0.0
 10
127.5444
 20
109.1781
 30
0.0
 10
127.5444
 20
109.1781
 30
0.0
 10
125.7281
 20
108.5032
 30
0.0
 10
126.7458
 20
106.6425
 30
0.0
 10
127.6565
 20
106.1272
 30
0.0
 10
127.6565
 20
106.1272
 30
0.0
 10
128.6259
 20
105.5786
 30
0.0
 10
130.77
 20
105.6654
 30
0.0
 10
130.4678
 20
107.4755
 30
0.0
 10
130.4678
 20
107.4755
 30
0.0
 10
131.1103
 20
107.1114
 30
0.0
 10
132.2347
 20
105.9763
 30
0.0
 10
133.0378
 20
105.1625
 30
0.0
  0
SPLINE
  5
4A
330
1F
100
AcDbEntity
  8
layer 1
 62
   250
100
AcDbSpline
210
0.0
220
0.0
230
1.0
 70
    11
 71
     3
 72
    16
 73
    12
 74
     0
 42
0.0000000001
 43
0.0000000001
 12
1.0
 22
0.0
 32
0.0
 13
1.0
 23
0.0
 33
0.0
 40
0.0
 40
0.0
 40
0.0
 40
0.0
 40
0.25
 40
0.25
 40
0.25
 40
0.25
 40
0.5
 40
0.5
 40
0.5
 40
0.5
 40
1.0
 40
1.0
 40
1.0
 40
1.0
 10
160.4084
 20
99.5406
 30
0.0
 10
158.5772
 20
99.9689
 30
0.0
 10
155.2684
 20
99.819
 30
0.0
 10
153.1481
 20
99.4442
 30
0.0
 10
153.1481
 20
99.4442
 30
0.0
 10
153.6514
 20
101.8429
 30
0.0
 10
156.1312
 20
103.2164
 30
0.0
 10
158.256
 20
103.1386
 30
0.0
 10
158.256
 20
103.1386
 30
0.0
 10
159.6709
 20
103.0868
 30
0.0
 10
161.3293
 20
102.0142
 30
0.0
 10
160.4084
 20
99.5406
 30
0.0
  0
SPLINE
  5
4B
330
1F
100
AcDbEntity
  8
layer 1
 62
   250
100
AcDbSpline
210
0.0
220
0.0
230
1.0
 70
    11
 71
     3
 72
    16
 73
    12
 74
     0
 42
0.0000000001
 43
0.0000000001
 12
1.0
 22
0.0
 32
0.0
 13
1.0
 23
0.0
 33
0.0
 40
0.0
 40
0.0
 40
0.0
 40
0.0
 40
0.25
 40
0.25
 40
0.25
 40
0.25
 40
0.5
 40
0.5
 40
0.5
 40
0.5
 40
1.0
 40
1.0
 40
1.0
 40
1.0
 10
118.6137
 20
99.5406
 30
0.0
 10
120.4448
 20
99.9689
 30
0.0
 10
123.7537
 20
99.819
 30
0.0
 10
125.8739
 20
99.4442
 30
0.0
 10
125.8739
 20
99.4442
 30
0.0
 10
125.3707
 20
101.8429
 30
0.0
 10
122.8908
 20
103.2164
 30
0.0
 10
120.766
 20
103.1386
 30
0.0
 10
120.766
 20
103.1386
 30
0.0
 10
119.3512
 20
103.0868
 30
0.0
 10
117.6928
 20
102.0142
 30
0.0
 10
118.6137
 20
99.5406
 30
0.0
  0
SPLINE
  5
4C
330
1F
100
AcDbEntity
  8
layer 1
 62
   250
100
AcDbSpline
210
0.0
220
0.0
230
1.0
 70
    11
 71
     3
 72
    16
 73
    12
 74
     0
 42
0.0000000001
 43
0.0000000001
 12
1.0
 22
0.0
 32
0.0
 13
1.0
 23
0.0
 33
0.0
 40
0.0
 40
0.0
 40
0.0
 40
0.0
 40
0.25
 40
0.25
 40
0.25
 40
0.25
 40
0.5
 40
0.5
 40
0.5
 40
0.5
 40
1.0
 40
1.0
 40
1.0
 40
1.0
 10
170.3993
 20
107.7325
 30
0.0
 10
169.0179
 20
108.964
 30
0.0
 10
166.6085
 20
110.3561
 30
0.0
 10
163.4603
 20
111.2662
 30
0.0
 10
163.4603
 20
111.2662
 30
0.0
 10
166.48
 20
111.1377
 30
0.0
 10
169.1464
 20
110.688
 30
0.0
 10
171.9413
 20
109.5315
 30
0.0
 10
171.9413
 20
109.5315
 30
0.0
 10
170.9775
 20
109.9063
 30
0.0
 10
170.0138
 20
108.5784
 30
0.0
 10
170.3993
 20
107.7325
 30
0.0
  0
SPLINE
  5
4D
330
1F
100
AcDbEntity
  8
layer 1
 62
   250
100
AcDbSpline
210
0.0
220
0.0
230
1.0
 70
    11
 71
     3
 72
    16
 73
    12
 74
     0
 42
0.0000000001
 43
0.0000000001
 12
1.0
 22
0.0
 32
0.0
 13
1.0
 23
0.0
 33
0.0
 40
0.0
 40
0.0
 40
0.0
 40
0.0
 40
0.25
 40
0.25
 40
0.25
 40
0.25
 40
0.5
 40
0.5
 40
0.5
 40
0.5
 40
1.0
 40
1.0
 40
1.0
 40
1.0
 10
108.7513
 20
107.7967
 30
0.0
 10
110.1326
 20
109.0282
 30
0.0
 10
112.6063
 20
110.4203
 30
0.0
 10
115.7545
 20
111.3305
 30
0.0
 10
115.7545
 20
111.3305
 30
0.0
 10
112.7348
 20
111.202
 30
0.0
 10
110.1969
 20
110.8165
 30
0.0
 10
107.402
 20
109.66
 30
0.0
 10
107.402
 20
109.66
 30
0.0
 10
108.173
 20
109.5208
 30
0.0
 10
108.7834
 20
108.964
 30
0.0
 10
108.7513
 20
107.7967
 30
0.0
  0
SPLINE
  5
4E
330
1F
100
AcDbEntity
  8
layer 1
 62
   250
100
AcDbSpline
210
0.0
220
0.0
230
1.0
 70
    11
 71
     3
 72
    16
 73
    12
 74
     0
 42
0.0000000001
 43
0.0000000001
 12
1.0
 22
0.0
 32
0.0
 13
1.0
 23
0.0
 33
0.0
 40
0.0
 40
0.0
 40
0.0
 40
0.0
 40
0.25
 40
0.25
 40
0.25
 40
0.25
 40
0.5
 40
0.5
 40
0.5
 40
0.5
 40
1.0
 40
1.0
 40
1.0
 40
1.0
 10
173.3227
 20
104.8733
 30
0.0
 10
176.5673
 20
101.9606
 30
0.0
 10
179.9083
 20
98.6304
 30
0.0
 10
183.2493
 20
95.2679
 30
0.0
 10
183.2493
 20
95.2679
 30
0.0
 10
181.9215
 20
99.9689
 30
0.0
 10
180.0154
 20
104.2844
 30
0.0
 10
175.6999
 20
107.3148
 30
0.0
 10
175.6999
 20
107.3148
 30
0.0
 10
176.1604
 20
105.8799
 30
0.0
 10
175.4322
 20
104.2522
 30
0.0
 10
173.3227
 20
104.8733
 30
0.0
  0
SPLINE
  5
4F
330
1F
100
AcDbEntity
  8
layer 1
 62
   250
100
AcDbSpline
210
0.0
220
0.0
230
1.0
 70
    11
 71
     3
 72
    16
 73
    12
 74
     0
 42
0.0000000001
 43
0.0000000001
 12
1.0
 22
0.0
 32
0.0
 13
1.0
 23
0.0
 33
0.0
 40
0.0
 40
0.0
 40
0.0
 40
0.0
 40
0.25
 40
0.25
 40
0.25
 40
0.25
 40
0.5
 40
0.5
 40
0.5
 40
0.5
 40
1.0
 40
1.0
 40
1.0
 40
1.0
 10
105.86
 20
104.8412
 30
0.0
 10
102.6154
 20
101.9285
 30
0.0
 10
98.8568
 20
98.3412
 30
0.0
 10
95.6764
 20
94.9788
 30
0.0
 10
95.6764
 20
94.9788
 30
0.0
 10
97.0042
 20
99.6798
 30
0.0
 10
99.3279
 20
104.6699
 30
0.0
 10
103.6434
 20
107.7003
 30
0.0
 10
103.6434
 20
107.7003
 30
0.0
 10
102.9259
 20
106.0405
 30
0.0
 10
104.2002
 20
104.5414
 30
0.0
 10
105.86
 20
104.8412
 30
0.0
  0
SPLINE
  5
50
330
1F
100
AcDbEntity
  8
layer 1
 62
   250
100
AcDbSpline
210
0.0
220
0.0
230
1.0
 70
    11
 71
     3
 72
    40
 73
    36
 74
     0
 42
0.0000000001
 43
0.0000000001
 12
1.0
 22
0.0
 32
0.0
 13
1.0
 23
0.0
 33
0.0
 40
0.0
 40
0.0
 40
0.0
 40
0.0
 40
0.1
 40
0.1
 40
0.1
 40
0.1
 40
0.2
 40
0.2
 40
0.2
 40
0.2
 40
0.3
 40
0.3
 40
0.3
 40
0.3
 40
0.4
 40
0.4
 40
0.4
 40
0.4
 40
0.5
 40
0.5
 40
0.5
 40
0.5
 40
0.6
 40
0.6
 40
0.6
 40
0.6
 40
0.7
 40
0.7
 40
0.7
 40
0.7
 40
0.8
 40
0.8
 40
0.8
 40
0.8
 40
1.0
 40
1.0
 40
1.0
 40
1.0
 10
167.1225
 20
97.6452
 30
0.0
 10
168.354
 20
96.9706
 30
0.0
 10
169.3606
 20
96.2317
 30
0.0
 10
170.4956
 20
95.3643
 30
0.0
 10
170.4956
 20
95.3643
 30
0.0
 10
170.6134
 20
96.2531
 30
0.0
 10
170.6027
 20
96.8849
 30
0.0
 10
170.592
 20
97.9665
 30
0.0
 10
170.592
 20
97.9665
 30
0.0
 10
168.429
 20
98.6839
 30
0.0
 10
166.5871
 20
100.7185
 30
0.0
 10
167.0583
 20
103.0743
 30
0.0
 10
167.0583
 20
103.0743
 30
0.0
 10
168.3998
 20
102.3334
 30
0.0
 10
169.0643
 20
102.9387
 30
0.0
 10
169.0935
 20
103.4766
 30
0.0
 10
169.0935
 20
103.4766
 30
0.0
 10
169.2228
 20
105.8601
 30
0.0
 10
163.0476
 20
109.5546
 30
0.0
 10
159.8944
 20
109.8527
 30
0.0
 10
159.8944
 20
109.8527
 30
0.0
 10
159.7873
 20
109.146
 30
0.0
 10
159.6802
 20
108.8247
 30
0.0
 10
159.541
 20
108.5035
 30
0.0
 10
159.541
 20
108.5035
 30
0.0
 10
163.6158
 20
109.1216
 30
0.0
 10
164.2733
 20
106.3993
 30
0.0
 10
164.5789
 20
105.1903
 30
0.0
 10
164.5789
 20
105.1903
 30
0.0
 10
164.9827
 20
103.5935
 30
0.0
 10
164.5475
 20
101.6792
 30
0.0
 10
163.653
 20
100.151
 30
0.0
 10
163.653
 20
100.151
 30
0.0
 10
165.5484
 20
100.9005
 30
0.0
 10
167.5401
 20
99.3371
 30
0.0
 10
167.1225
 20
97.6452
 30
0.0
  0
SPLINE
  5
51
330
1F
100
AcDbEntity
  8
layer 1
 62
   250
100
AcDbSpline
210
0.0
220
0.0
230
1.0
 70
    11
 71
     3
 72
    40
 73
    36
 74
     0
 42
0.0000000001
 43
0.0000000001
 12
1.0
 22
0.0
 32
0.0
 13
1.0
 23
0.0
 33
0.0
 40
0.0
 40
0.0
 40
0.0
 40
0.0
 40
0.1
 40
0.1
 40
0.1
 40
0.1
 40
0.2
 40
0.2
 40
0.2
 40
0.2
 40
0.3
 40
0.3
 40
0.3
 40
0.3
 40
0.4
 40
0.4
 40
0.4
 40
0.4
 40
0.5
 40
0.5
 40
0.5
 40
0.5
 40
0.6
 40
0.6
 40
0.6
 40
0.6
 40
0.7
 40
0.7
 40
0.7
 40
0.7
 40
0.8
 40
0.8
 40
0.8
 40
0.8
 40
1.0
 40
1.0
 40
1.0
 40
1.0
 10
111.8674
 20
97.6131
 30
0.0
 10
110.6359
 20
96.9384
 30
0.0
 10
109.9184
 20
96.4244
 30
0.0
 10
108.7834
 20
95.5571
 30
0.0
 10
108.7834
 20
95.5571
 30
0.0
 10
108.6656
 20
96.4458
 30
0.0
 10
108.6121
 20
96.8527
 30
0.0
 10
108.6228
 20
97.9343
 30
0.0
 10
108.6228
 20
97.9343
 30
0.0
 10
110.7858
 20
98.6518
 30
0.0
 10
112.6598
 20
100.7827
 30
0.0
 10
112.1887
 20
103.1386
 30
0.0
 10
112.1887
 20
103.1386
 30
0.0
 10
110.8471
 20
102.3977
 30
0.0
 10
110.0573
 20
102.938
 30
0.0
 10
110.0571
 20
103.4766
 30
0.0
 10
110.0571
 20
103.4766
 30
0.0
 10
110.0563
 20
105.4425
 30
0.0
 10
115.364
 20
109.3297
 30
0.0
 10
119.2562
 20
109.8527
 30
0.0
 10
119.2562
 20
109.8527
 30
0.0
 10
119.3632
 20
109.146
 30
0.0
 10
119.4703
 20
108.8247
 30
0.0
 10
119.6095
 20
108.5035
 30
0.0
 10
119.6095
 20
108.5035
 30
0.0
 10
115.7596
 20
109.0895
 30
0.0
 10
114.7809
 20
106.3993
 30
0.0
 10
114.4752
 20
105.1903
 30
0.0
 10
114.4752
 20
105.1903
 30
0.0
 10
114.0715
 20
103.5935
 30
0.0
 10
114.603
 20
101.6792
 30
0.0
 10
115.4975
 20
100.151
 30
0.0
 10
115.4975
 20
100.151
 30
0.0
 10
113.6022
 20
100.9005
 30
0.0
 10
111.6104
 20
99.305
 30
0.0
 10
111.8674
 20
97.6131
 30
0.0
  0
SPLINE
  5
52
330
1F
100
AcDbEntity
  8
layer 1
 62
   250
100
AcDbSpline
210
0.0
220
0.0
230
1.0
 70
    11
 71
     3
 72
    36
 73
    32
 74
     0
 42
0.0000000001
 43
0.0000000001
 12
1.0
 22
0.0
 32
0.0
 13
1.0
 23
0.0
 33
0.0
 40
0.0
 40
0.0
 40
0.0
 40
0.0
 40
0.1111111111111111
 40
0.1111111111111111
 40
0.1111111111111111
 40
0.1111111111111111
 40
0.2222222222222222
 40
0.2222222222222222
 40
0.2222222222222222
 40
0.2222222222222222
 40
0.3333333333333333
 40
0.3333333333333333
 40
0.3333333333333333
 40
0.3333333333333333
 40
0.4444444444444444
 40
0.4444444444444444
 40
0.4444444444444444
 40
0.4444444444444444
 40
0.5555555555555556
 40
0.5555555555555556
 40
0.5555555555555556
 40
0.5555555555555556
 40
0.6666666666666666
 40
0.6666666666666666
 40
0.6666666666666666
 40
0.6666666666666666
 40
0.7777777777777778
 40
0.7777777777777778
 40
0.7777777777777778
 40
0.7777777777777778
 40
1.0
 40
1.0
 40
1.0
 40
1.0
 10
178.7197
 20
92.6016
 30
0.0
 10
177.6381
 20
92.9335
 30
0.0
 10
175.0788
 20
92.4945
 30
0.0
 10
174.8968
 20
89.9352
 30
0.0
 10
174.8968
 20
89.9352
 30
0.0
 10
174.2864
 20
91.1666
 30
0.0
 10
173.4833
 20
92.2375
 30
0.0
 10
172.6159
 20
93.2441
 30
0.0
 10
172.6159
 20
93.2441
 30
0.0
 10
172.6802
 20
94.5612
 30
0.0
 10
172.8087
 20
95.9426
 30
0.0
 10
172.7765
 20
97.1955
 30
0.0
 10
172.7765
 20
97.1955
 30
0.0
 10
174.4881
 20
97.1071
 30
0.0
 10
178.3046
 20
95.83
 30
0.0
 10
180.1164
 20
95.0029
 30
0.0
 10
180.1164
 20
95.0029
 30
0.0
 10
181.099
 20
94.5543
 30
0.0
 10
183.1191
 20
94.0123
 30
0.0
 10
183.4099
 20
94.6254
 30
0.0
 10
183.4099
 20
94.6254
 30
0.0
 10
183.9453
 20
92.8478
 30
0.0
 10
184.0952
 20
90.0422
 30
0.0
 10
184.0524
 20
87.7507
 30
0.0
 10
184.0524
 20
87.7507
 30
0.0
 10
183.5003
 20
89.1807
 30
0.0
 10
181.6845
 20
89.8499
 30
0.0
 10
180.2165
 20
90.005
 30
0.0
 10
180.2165
 20
90.005
 30
0.0
 10
178.993
 20
90.1343
 30
0.0
 10
178.2425
 20
91.3049
 30
0.0
 10
178.7197
 20
92.6016
 30
0.0
  0
SPLINE
  5
53
330
1F
100
AcDbEntity
  8
layer 1
 62
   250
100
AcDbSpline
210
0.0
220
0.0
230
1.0
 70
    11
 71
     3
 72
    36
 73
    32
 74
     0
 42
0.0000000001
 43
0.0000000001
 12
1.0
 22
0.0
 32
0.0
 13
1.0
 23
0.0
 33
0.0
 40
0.0
 40
0.0
 40
0.0
 40
0.0
 40
0.1111111111111111
 40
0.1111111111111111
 40
0.1111111111111111
 40
0.1111111111111111
 40
0.2222222222222222
 40
0.2222222222222222
 40
0.2222222222222222
 40
0.2222222222222222
 40
0.3333333333333333
 40
0.3333333333333333
 40
0.3333333333333333
 40
0.3333333333333333
 40
0.4444444444444444
 40
0.4444444444444444
 40
0.4444444444444444
 40
0.4444444444444444
 40
0.5555555555555556
 40
0.5555555555555556
 40
0.5555555555555556
 40
0.5555555555555556
 40
0.6666666666666666
 40
0.6666666666666666
 40
0.6666666666666666
 40
0.6666666666666666
 40
0.7777777777777778
 40
0.7777777777777778
 40
0.7777777777777778
 40
0.7777777777777778
 40
1.0
 40
1.0
 40
1.0
 40
1.0
 10
100.4309
 20
92.7301
 30
0.0
 10
101.5125
 20
93.062
 30
0.0
 10
103.9754
 20
92.6872
 30
0.0
 10
104.318
 20
90.1601
 30
0.0
 10
104.318
 20
90.1601
 30
0.0
 10
104.9284
 20
91.3915
 30
0.0
 10
105.7636
 20
92.2375
 30
0.0
 10
106.631
 20
93.2441
 30
0.0
 10
106.631
 20
93.2441
 30
0.0
 10
106.4704
 20
94.5612
 30
0.0
 10
106.3419
 20
95.9426
 30
0.0
 10
106.374
 20
97.1955
 30
0.0
 10
106.374
 20
97.1955
 30
0.0
 10
104.6624
 20
97.1071
 30
0.0
 10
100.6853
 20
95.7335
 30
0.0
 10
98.8735
 20
94.9065
 30
0.0
 10
98.8735
 20
94.9065
 30
0.0
 10
97.891
 20
94.458
 30
0.0
 10
95.8708
 20
93.8838
 30
0.0
 10
95.58
 20
94.4969
 30
0.0
 10
95.58
 20
94.4969
 30
0.0
 10
95.0446
 20
92.7193
 30
0.0
 10
94.8947
 20
89.9459
 30
0.0
 10
94.9375
 20
87.6543
 30
0.0
 10
94.9375
 20
87.6543
 30
0.0
 10
95.4897
 20
89.0844
 30
0.0
 10
97.3698
 20
89.9143
 30
0.0
 10
98.8377
 20
90.0693
 30
0.0
 10
98.8377
 20
90.0693
 30
0.0
 10
100.061
 20
90.1985
 30
0.0
 10
100.9723
 20
91.0479
 30
0.0
 10
100.4309
 20
92.7301
 30
0.0
  0
SPLINE
  5
54
330
1F
100
AcDbEntity
  8
layer 1
 62
   250
100
AcDbSpline
210
0.0
220
0.0
230
1.0
 70
    11
 71
     3
 72
    36
 73
    32
 74
     0
 42
0.0000000001
 43
0.0000000001
 12
1.0
 22
0.0
 32
0.0
 13
1.0
 23
0.0
 33
0.0
 40
0.0
 40
0.0
 40
0.0
 40
0.0
 40
0.1111111111111111
 40
0.1111111111111111
 40
0.1111111111111111
 40
0.1111111111111111
 40
0.2222222222222222
 40
0.2222222222222222
 40
0.2222222222222222
 40
0.2222222222222222
 40
0.3333333333333333
 40
0.3333333333333333
 40
0.3333333333333333
 40
0.3333333333333333
 40
0.4444444444444444
 40
0.4444444444444444
 40
0.4444444444444444
 40
0.4444444444444444
 40
0.5555555555555556
 40
0.5555555555555556
 40
0.5555555555555556
 40
0.5555555555555556
 40
0.6666666666666666
 40
0.6666666666666666
 40
0.6666666666666666
 40
0.6666666666666666
 40
0.7777777777777778
 40
0.7777777777777778
 40
0.7777777777777778
 40
0.7777777777777778
 40
1.0
 40
1.0
 40
1.0
 40
1.0
 10
158.5772
 20
94.1436
 30
0.0
 10
160.0121
 20
91.4772
 30
0.0
 10
155.8252
 20
91.8306
 30
0.0
 10
154.401
 20
91.2523
 30
0.0
 10
154.401
 20
91.2523
 30
0.0
 10
153.3302
 20
92.6122
 30
0.0
 10
152.5163
 20
94.6468
 30
0.0
 10
152.6341
 20
96.6172
 30
0.0
 10
152.6341
 20
96.6172
 30
0.0
 10
154.9257
 20
97.3667
 30
0.0
 10
157.9883
 20
97.4417
 30
0.0
 10
160.1835
 20
97.2918
 30
0.0
 10
160.1835
 20
97.2918
 30
0.0
 10
160.3869
 20
93.5546
 30
0.0
 10
165.3449
 20
93.6724
 30
0.0
 10
166.223
 20
95.3001
 30
0.0
 10
166.223
 20
95.3001
 30
0.0
 10
167.5937
 20
94.7753
 30
0.0
 10
168.7716
 20
93.9936
 30
0.0
 10
169.7568
 20
92.9228
 30
0.0
 10
169.7568
 20
92.9228
 30
0.0
 10
169.0393
 20
90.9417
 30
0.0
 10
167.4223
 20
89.7318
 30
0.0
 10
166.0945
 20
89.1321
 30
0.0
 10
166.0945
 20
89.1321
 30
0.0
 10
165.5534
 20
90.4688
 30
0.0
 10
164.3285
 20
91.2141
 30
0.0
 10
163.1711
 20
91.3166
 30
0.0
 10
163.1711
 20
91.3166
 30
0.0
 10
163.1069
 20
93.6402
 30
0.0
 10
160.055
 20
94.5505
 30
0.0
 10
158.5772
 20
94.1436
 30
0.0
  0
SPLINE
  5
55
330
1F
100
AcDbEntity
  8
layer 1
 62
   250
100
AcDbSpline
210
0.0
220
0.0
230
1.0
 70
    11
 71
     3
 72
    20
 73
    16
 74
     0
 42
0.0000000001
 43
0.0000000001
 12
1.0
 22
0.0
 32
0.0
 13
1.0
 23
0.0
 33
0.0
 40
0.0
 40
0.0
 40
0.0
 40
0.0
 40
0.2
 40
0.2
 40
0.2
 40
0.2
 40
0.4
 40
0.4
 40
0.4
 40
0.4
 40
0.6
 40
0.6
 40
0.6
 40
0.6
 40
1.0
 40
1.0
 40
1.0
 40
1.0
 10
171.4915
 20
91.0274
 30
0.0
 10
170.5706
 20
89.0892
 30
0.0
 10
168.8465
 20
87.4401
 30
0.0
 10
166.6728
 20
86.7227
 30
0.0
 10
166.6728
 20
86.7227
 30
0.0
 10
167.0689
 20
86.3908
 30
0.0
 10
167.4009
 20
85.9624
 30
0.0
 10
167.508
 20
85.5983
 30
0.0
 10
167.508
 20
85.5983
 30
0.0
 10
169.2642
 20
85.8982
 30
0.0
 10
171.9519
 20
85.8768
 30
0.0
 10
174.0615
 20
85.7268
 30
0.0
 10
174.0615
 20
85.7268
 30
0.0
 10
173.5368
 20
87.4722
 30
0.0
 10
172.7551
 20
89.3783
 30
0.0
 10
171.4915
 20
91.0274
 30
0.0
  0
SPLINE
  5
56
330
1F
100
AcDbEntity
  8
layer 1
 62
   250
100
AcDbSpline
210
0.0
220
0.0
230
1.0
 70
    11
 71
     3
 72
    36
 73
    32
 74
     0
 42
0.0000000001
 43
0.0000000001
 12
1.0
 22
0.0
 32
0.0
 13
1.0
 23
0.0
 33
0.0
 40
0.0
 40
0.0
 40
0.0
 40
0.0
 40
0.1111111111111111
 40
0.1111111111111111
 40
0.1111111111111111
 40
0.1111111111111111
 40
0.2222222222222222
 40
0.2222222222222222
 40
0.2222222222222222
 40
0.2222222222222222
 40
0.3333333333333333
 40
0.3333333333333333
 40
0.3333333333333333
 40
0.3333333333333333
 40
0.4444444444444444
 40
0.4444444444444444
 40
0.4444444444444444
 40
0.4444444444444444
 40
0.5555555555555556
 40
0.5555555555555556
 40
0.5555555555555556
 40
0.5555555555555556
 40
0.6666666666666666
 40
0.6666666666666666
 40
0.6666666666666666
 40
0.6666666666666666
 40
0.7777777777777778
 40
0.7777777777777778
 40
0.7777777777777778
 40
0.7777777777777778
 40
1.0
 40
1.0
 40
1.0
 40
1.0
 10
120.7682
 20
94.2306
 30
0.0
 10
119.3333
 20
91.5642
 30
0.0
 10
123.3028
 20
91.9175
 30
0.0
 10
124.727
 20
91.3393
 30
0.0
 10
124.727
 20
91.3393
 30
0.0
 10
125.7978
 20
92.6992
 30
0.0
 10
126.3942
 20
94.6468
 30
0.0
 10
126.2764
 20
96.6172
 30
0.0
 10
126.2764
 20
96.6172
 30
0.0
 10
123.9848
 20
97.3667
 30
0.0
 10
121.1397
 20
97.5287
 30
0.0
 10
118.9445
 20
97.3788
 30
0.0
 10
118.9445
 20
97.3788
 30
0.0
 10
118.741
 20
93.6416
 30
0.0
 10
113.8266
 20
93.5854
 30
0.0
 10
112.9484
 20
95.2131
 30
0.0
 10
112.9484
 20
95.2131
 30
0.0
 10
111.5778
 20
94.6884
 30
0.0
 10
110.4869
 20
93.9066
 30
0.0
 10
109.5017
 20
92.8358
 30
0.0
 10
109.5017
 20
92.8358
 30
0.0
 10
110.2192
 20
90.8548
 30
0.0
 10
111.7926
 20
89.8622
 30
0.0
 10
113.1204
 20
89.2625
 30
0.0
 10
113.1204
 20
89.2625
 30
0.0
 10
113.6616
 20
90.5993
 30
0.0
 10
115.0604
 20
91.301
 30
0.0
 10
116.2178
 20
91.4035
 30
0.0
 10
116.2178
 20
91.4035
 30
0.0
 10
116.282
 20
93.7272
 30
0.0
 10
119.2904
 20
94.6375
 30
0.0
 10
120.7682
 20
94.2306
 30
0.0
  0
SPLINE
  5
57
330
1F
100
AcDbEntity
  8
layer 1
 62
   250
100
AcDbSpline
210
0.0
220
0.0
230
1.0
 70
    11
 71
     3
 72
    20
 73
    16
 74
     0
 42
0.0000000001
 43
0.0000000001
 12
1.0
 22
0.0
 32
0.0
 13
1.0
 23
0.0
 33
0.0
 40
0.0
 40
0.0
 40
0.0
 40
0.0
 40
0.2
 40
0.2
 40
0.2
 40
0.2
 40
0.4
 40
0.4
 40
0.4
 40
0.4
 40
0.6
 40
0.6
 40
0.6
 40
0.6
 40
1.0
 40
1.0
 40
1.0
 40
1.0
 10
107.7234
 20
90.9405
 30
0.0
 10
108.6444
 20
89.0022
 30
0.0
 10
110.2814
 20
87.5271
 30
0.0
 10
112.4552
 20
86.8097
 30
0.0
 10
112.4552
 20
86.8097
 30
0.0
 10
112.059
 20
86.4777
 30
0.0
 10
111.7271
 20
86.0494
 30
0.0
 10
111.62
 20
85.6853
 30
0.0
 10
111.62
 20
85.6853
 30
0.0
 10
109.8638
 20
85.9851
 30
0.0
 10
107.176
 20
85.9637
 30
0.0
 10
105.0664
 20
85.8138
 30
0.0
 10
105.0664
 20
85.8138
 30
0.0
 10
105.5912
 20
87.5592
 30
0.0
 10
106.4599
 20
89.2914
 30
0.0
 10
107.7234
 20
90.9405
 30
0.0
  0
SPLINE
  5
58
330
1F
100
AcDbEntity
  8
layer 1
 62
   250
100
AcDbSpline
210
0.0
220
0.0
230
1.0
 70
    11
 71
     3
 72
    16
 73
    12
 74
     0
 42
0.0000000001
 43
0.0000000001
 12
1.0
 22
0.0
 32
0.0
 13
1.0
 23
0.0
 33
0.0
 40
0.0
 40
0.0
 40
0.0
 40
0.0
 40
0.25
 40
0.25
 40
0.25
 40
0.25
 40
0.5
 40
0.5
 40
0.5
 40
0.5
 40
1.0
 40
1.0
 40
1.0
 40
1.0
 10
160.8711
 20
83.9166
 30
0.0
 10
157.7687
 20
83.2062
 30
0.0
 10
154.0574
 20
80.2343
 30
0.0
 10
152.1728
 20
77.1319
 30
0.0
 10
152.1728
 20
77.1319
 30
0.0
 10
151.216
 20
77.7553
 30
0.0
 10
150.0852
 20
78.4656
 30
0.0
 10
149.1284
 20
79.089
 30
0.0
 10
149.1284
 20
79.089
 30
0.0
 10
150.752
 20
83.6556
 30
0.0
 10
156.6379
 20
85.8302
 30
0.0
 10
160.8711
 20
83.9166
 30
0.0
  0
SPLINE
  5
59
330
1F
100
AcDbEntity
  8
layer 1
 62
   250
100
AcDbSpline
210
0.0
220
0.0
230
1.0
 70
    11
 71
     3
 72
    40
 73
    36
 74
     0
 42
0.0000000001
 43
0.0000000001
 12
1.0
 22
0.0
 32
0.0
 13
1.0
 23
0.0
 33
0.0
 40
0.0
 40
0.0
 40
0.0
 40
0.0
 40
0.1
 40
0.1
 40
0.1
 40
0.1
 40
0.2
 40
0.2
 40
0.2
 40
0.2
 40
0.3
 40
0.3
 40
0.3
 40
0.3
 40
0.4
 40
0.4
 40
0.4
 40
0.4
 40
0.5
 40
0.5
 40
0.5
 40
0.5
 40
0.6
 40
0.6
 40
0.6
 40
0.6
 40
0.7
 40
0.7
 40
0.7
 40
0.7
 40
0.8
 40
0.8
 40
0.8
 40
0.8
 40
1.0
 40
1.0
 40
1.0
 40
1.0
 10
168.0907
 20
76.0011
 30
0.0
 10
163.2486
 20
74.8703
 30
0.0
 10
159.4503
 20
74.131
 30
0.0
 10
154.5213
 20
75.8707
 30
0.0
 10
154.5213
 20
75.8707
 30
0.0
 10
156.203
 20
78.5671
 30
0.0
 10
159.3199
 20
81.4376
 30
0.0
 10
163.0892
 20
82.003
 30
0.0
 10
163.0892
 20
82.003
 30
0.0
 10
163.9445
 20
80.5387
 30
0.0
 10
164.1474
 20
78.9875
 30
0.0
 10
164.2199
 20
77.4798
 30
0.0
 10
164.2199
 20
77.4798
 30
0.0
 10
166.1626
 20
77.6973
 30
0.0
 10
168.2791
 20
79.0455
 30
0.0
 10
168.0907
 20
83.0468
 30
0.0
 10
168.0907
 20
83.0468
 30
0.0
 10
170.4247
 20
83.6266
 30
0.0
 10
172.4543
 20
83.4237
 30
0.0
 10
174.7014
 20
83.1337
 30
0.0
 10
174.7014
 20
83.1337
 30
0.0
 10
175.1508
 20
80.8432
 30
0.0
 10
174.9913
 20
78.6396
 30
0.0
 10
174.8754
 20
76.61
 30
0.0
 10
174.8754
 20
76.61
 30
0.0
 10
174.0056
 20
76.639
 30
0.0
 10
173.2662
 20
76.7549
 30
0.0
 10
172.3964
 20
76.6535
 30
0.0
 10
172.3964
 20
76.6535
 30
0.0
 10
173.2976
 20
78.7984
 30
0.0
 10
171.4538
 20
79.4267
 30
0.0
 10
169.7288
 20
79.3304
 30
0.0
 10
169.7288
 20
79.3304
 30
0.0
 10
167.8161
 20
79.2238
 30
0.0
 10
166.9722
 20
77.3534
 30
0.0
 10
168.0907
 20
76.0011
 30
0.0
  0
SPLINE
  5
5A
330
1F
100
AcDbEntity
  8
layer 1
 62
   250
100
AcDbSpline
210
0.0
220
0.0
230
1.0
 70
    11
 71
     3
 72
    20
 73
    16
 74
     0
 42
0.0000000001
 43
0.0000000001
 12
1.0
 22
0.0
 32
0.0
 13
1.0
 23
0.0
 33
0.0
 40
0.0
 40
0.0
 40
0.0
 40
0.0
 40
0.2
 40
0.2
 40
0.2
 40
0.2
 40
0.4
 40
0.4
 40
0.4
 40
0.4
 40
0.6
 40
0.6
 40
0.6
 40
0.6
 40
1.0
 40
1.0
 40
1.0
 40
1.0
 10
161.5235
 20
69.8688
 30
0.0
 10
158.508
 20
70.5647
 30
0.0
 10
155.2751
 20
70.7821
 30
0.0
 10
151.7814
 20
69.8688
 30
0.0
 10
151.7814
 20
69.8688
 30
0.0
 10
151.9118
 20
71.2315
 30
0.0
 10
152.4337
 20
72.3768
 30
0.0
 10
153.0861
 20
73.5656
 30
0.0
 10
153.0861
 20
73.5656
 30
0.0
 10
156.261
 20
72.3333
 30
0.0
 10
159.7403
 20
71.9709
 30
0.0
 10
163.1327
 20
72.3478
 30
0.0
 10
163.1327
 20
72.3478
 30
0.0
 10
162.4513
 20
71.6085
 30
0.0
 10
161.8569
 20
70.7386
 30
0.0
 10
161.5235
 20
69.8688
 30
0.0
  0
SPLINE
  5
5B
330
1F
100
AcDbEntity
  8
layer 1
 62
   250
100
AcDbSpline
210
0.0
220
0.0
230
1.0
 70
    11
 71
     3
 72
    16
 73
    12
 74
     0
 42
0.0000000001
 43
0.0000000001
 12
1.0
 22
0.0
 32
0.0
 13
1.0
 23
0.0
 33
0.0
 40
0.0
 40
0.0
 40
0.0
 40
0.0
 40
0.25
 40
0.25
 40
0.25
 40
0.25
 40
0.5
 40
0.5
 40
0.5
 40
0.5
 40
1.0
 40
1.0
 40
1.0
 40
1.0
 10
182.4429
 20
80.9157
 30
0.0
 10
180.2973
 20
80.5822
 30
0.0
 10
178.1082
 20
78.6831
 30
0.0
 10
177.3544
 20
76.784
 30
0.0
 10
177.3544
 20
76.784
 30
0.0
 10
177.5139
 20
78.1757
 30
0.0
 10
177.6734
 20
80.9157
 30
0.0
 10
177.2239
 20
82.6118
 30
0.0
 10
177.2239
 20
82.6118
 30
0.0
 10
179.2536
 20
82.3364
 30
0.0
 10
181.2831
 20
81.539
 30
0.0
 10
182.4429
 20
80.9157
 30
0.0
  0
SPLINE
  5
5C
330
1F
100
AcDbEntity
  8
layer 1
 62
   250
100
AcDbSpline
210
0.0
220
0.0
230
1.0
 70
    11
 71
     3
 72
    16
 73
    12
 74
     0
 42
0.0000000001
 43
0.0000000001
 12
1.0
 22
0.0
 32
0.0
 13
1.0
 23
0.0
 33
0.0
 40
0.0
 40
0.0
 40
0.0
 40
0.0
 40
0.25
 40
0.25
 40
0.25
 40
0.25
 40
0.5
 40
0.5
 40
0.5
 40
0.5
 40
1.0
 40
1.0
 40
1.0
 40
1.0
 10
118.28
 20
84.0475
 30
0.0
 10
121.3825
 20
83.3371
 30
0.0
 10
125.1494
 20
80.3096
 30
0.0
 10
127.034
 20
77.2072
 30
0.0
 10
127.034
 20
77.2072
 30
0.0
 10
128.0186
 20
77.6915
 30
0.0
 10
129.3718
 20
78.4853
 30
0.0
 10
130.1896
 20
79.2199
 30
0.0
 10
130.1896
 20
79.2199
 30
0.0
 10
128.5659
 20
83.7865
 30
0.0
 10
122.5132
 20
85.9611
 30
0.0
 10
118.28
 20
84.0475
 30
0.0
  0
SPLINE
  5
5D
330
1F
100
AcDbEntity
  8
layer 1
 62
   250
100
AcDbSpline
210
0.0
220
0.0
230
1.0
 70
    11
 71
     3
 72
    40
 73
    36
 74
     0
 42
0.0000000001
 43
0.0000000001
 12
1.0
 22
0.0
 32
0.0
 13
1.0
 23
0.0
 33
0.0
 40
0.0
 40
0.0
 40
0.0
 40
0.0
 40
0.1
 40
0.1
 40
0.1
 40
0.1
 40
0.2
 40
0.2
 40
0.2
 40
0.2
 40
0.3
 40
0.3
 40
0.3
 40
0.3
 40
0.4
 40
0.4
 40
0.4
 40
0.4
 40
0.5
 40
0.5
 40
0.5
 40
0.5
 40
0.6
 40
0.6
 40
0.6
 40
0.6
 40
0.7
 40
0.7
 40
0.7
 40
0.7
 40
0.8
 40
0.8
 40
0.8
 40
0.8
 40
1.0
 40
1.0
 40
1.0
 40
1.0
 10
111.116
 20
76.0764
 30
0.0
 10
115.9581
 20
74.6954
 30
0.0
 10
119.951
 20
74.3175
 30
0.0
 10
124.88
 20
76.0572
 30
0.0
 10
124.88
 20
76.0572
 30
0.0
 10
123.1984
 20
78.7536
 30
0.0
 10
120.0133
 20
81.5129
 30
0.0
 10
116.244
 20
82.0783
 30
0.0
 10
116.244
 20
82.0783
 30
0.0
 10
115.3887
 20
80.614
 30
0.0
 10
115.1647
 20
79.1261
 30
0.0
 10
115.0922
 20
77.6184
 30
0.0
 10
115.0922
 20
77.6184
 30
0.0
 10
113.1496
 20
77.8358
 30
0.0
 10
110.9276
 20
79.1208
 30
0.0
 10
111.116
 20
83.1221
 30
0.0
 10
111.116
 20
83.1221
 30
0.0
 10
108.782
 20
83.7019
 30
0.0
 10
106.7524
 20
83.499
 30
0.0
 10
104.5053
 20
83.209
 30
0.0
 10
104.5053
 20
83.209
 30
0.0
 10
104.0559
 20
80.9184
 30
0.0
 10
104.2154
 20
78.7149
 30
0.0
 10
104.3314
 20
76.6853
 30
0.0
 10
104.3314
 20
76.6853
 30
0.0
 10
105.2012
 20
76.7143
 30
0.0
 10
105.9405
 20
76.8302
 30
0.0
 10
106.8104
 20
76.7288
 30
0.0
 10
106.8104
 20
76.7288
 30
0.0
 10
105.9091
 20
78.8737
 30
0.0
 10
107.7529
 20
79.502
 30
0.0
 10
109.478
 20
79.4057
 30
0.0
 10
109.478
 20
79.4057
 30
0.0
 10
111.3907
 20
79.2991
 30
0.0
 10
112.2345
 20
77.4287
 30
0.0
 10
111.116
 20
76.0764
 30
0.0
  0
SPLINE
  5
5E
330
1F
100
AcDbEntity
  8
layer 1
 62
   250
100
AcDbSpline
210
0.0
220
0.0
230
1.0
 70
    11
 71
     3
 72
    20
 73
    16
 74
     0
 42
0.0000000001
 43
0.0000000001
 12
1.0
 22
0.0
 32
0.0
 13
1.0
 23
0.0
 33
0.0
 40
0.0
 40
0.0
 40
0.0
 40
0.0
 40
0.2
 40
0.2
 40
0.2
 40
0.2
 40
0.4
 40
0.4
 40
0.4
 40
0.4
 40
0.6
 40
0.6
 40
0.6
 40
0.6
 40
1.0
 40
1.0
 40
1.0
 40
1.0
 10
117.6833
 20
69.9441
 30
0.0
 10
120.6987
 20
70.64
 30
0.0
 10
123.9316
 20
70.8574
 30
0.0
 10
127.4254
 20
69.9441
 30
0.0
 10
127.4254
 20
69.9441
 30
0.0
 10
127.2949
 20
71.3068
 30
0.0
 10
126.773
 20
72.4521
 30
0.0
 10
126.1206
 20
73.6409
 30
0.0
 10
126.1206
 20
73.6409
 30
0.0
 10
122.9457
 20
72.4086
 30
0.0
 10
119.4664
 20
72.0462
 30
0.0
 10
116.0741
 20
72.4231
 30
0.0
 10
116.0741
 20
72.4231
 30
0.0
 10
116.7555
 20
71.6838
 30
0.0
 10
117.3498
 20
70.8139
 30
0.0
 10
117.6833
 20
69.9441
 30
0.0
  0
SPLINE
  5
5F
330
1F
100
AcDbEntity
  8
layer 1
 62
   250
100
AcDbSpline
210
0.0
220
0.0
230
1.0
 70
    11
 71
     3
 72
    16
 73
    12
 74
     0
 42
0.0000000001
 43
0.0000000001
 12
1.0
 22
0.0
 32
0.0
 13
1.0
 23
0.0
 33
0.0
 40
0.0
 40
0.0
 40
0.0
 40
0.0
 40
0.25
 40
0.25
 40
0.25
 40
0.25
 40
0.5
 40
0.5
 40
0.5
 40
0.5
 40
1.0
 40
1.0
 40
1.0
 40
1.0
 10
96.7638
 20
80.991
 30
0.0
 10
98.9094
 20
80.6575
 30
0.0
 10
101.0985
 20
78.7584
 30
0.0
 10
101.8523
 20
76.8593
 30
0.0
 10
101.8523
 20
76.8593
 30
0.0
 10
101.6928
 20
78.251
 30
0.0
 10
101.5334
 20
80.991
 30
0.0
 10
101.9828
 20
82.6871
 30
0.0
 10
101.9828
 20
82.6871
 30
0.0
 10
99.9532
 20
82.4117
 30
0.0
 10
97.9236
 20
81.6143
 30
0.0
 10
96.7638
 20
80.991
 30
0.0
  0
SPLINE
  5
60
330
1F
100
AcDbEntity
  8
layer 1
 62
   250
100
AcDbSpline
210
0.0
220
0.0
230
1.0
 70
    11
 71
     3
 72
    36
 73
    32
 74
     0
 42
0.0000000001
 43
0.0000000001
 12
1.0
 22
0.0
 32
0.0
 13
1.0
 23
0.0
 33
0.0
 40
0.0
 40
0.0
 40
0.0
 40
0.0
 40
0.1111111111111111
 40
0.1111111111111111
 40
0.1111111111111111
 40
0.1111111111111111
 40
0.2222222222222222
 40
0.2222222222222222
 40
0.2222222222222222
 40
0.2222222222222222
 40
0.3333333333333333
 40
0.3333333333333333
 40
0.3333333333333333
 40
0.3333333333333333
 40
0.4444444444444444
 40
0.4444444444444444
 40
0.4444444444444444
 40
0.4444444444444444
 40
0.5555555555555556
 40
0.5555555555555556
 40
0.5555555555555556
 40
0.5555555555555556
 40
0.6666666666666666
 40
0.6666666666666666
 40
0.6666666666666666
 40
0.6666666666666666
 40
0.7777777777777778
 40
0.7777777777777778
 40
0.7777777777777778
 40
0.7777777777777778
 40
1.0
 40
1.0
 40
1.0
 40
1.0
 10
144.9189
 20
67.0525
 30
0.0
 10
144.6358
 20
66.9027
 30
0.0
 10
144.3528
 20
66.7528
 30
0.0
 10
144.0697
 20
66.603
 30
0.0
 10
144.0697
 20
66.603
 30
0.0
 10
142.6046
 20
69.167
 30
0.0
 10
141.2893
 20
71.9808
 30
0.0
 10
141.0229
 20
75.5438
 30
0.0
 10
141.0229
 20
75.5438
 30
0.0
 10
142.488
 20
74.6031
 30
0.0
 10
144.5226
 20
75.4027
 30
0.0
 10
144.3195
 20
77.9164
 30
0.0
 10
144.3195
 20
77.9164
 30
0.0
 10
144.1664
 20
79.8107
 30
0.0
 10
142.4547
 20
81.0798
 30
0.0
 10
141.1228
 20
80.189
 30
0.0
 10
141.1228
 20
80.189
 30
0.0
 10
141.1394
 20
81.2879
 30
0.0
 10
141.1061
 20
82.4867
 30
0.0
 10
141.6223
 20
84.085
 30
0.0
 10
141.6223
 20
84.085
 30
0.0
 10
142.871
 20
81.8207
 30
0.0
 10
144.5193
 20
79.6562
 30
0.0
 10
146.1176
 20
78.0912
 30
0.0
 10
146.1176
 20
78.0912
 30
0.0
 10
145.8679
 20
76.2597
 30
0.0
 10
145.8179
 20
74.5781
 30
0.0
 10
145.9178
 20
72.9964
 30
0.0
 10
145.9178
 20
72.9964
 30
0.0
 10
143.8699
 20
72.7134
 30
0.0
 10
142.6212
 20
68.9339
 30
0.0
 10
144.9189
 20
67.0525
 30
0.0
  0
SPLINE
  5
61
330
1F
100
AcDbEntity
  8
layer 1
 62
   250
100
AcDbSpline
210
0.0
220
0.0
230
1.0
 70
    11
 71
     3
 72
    36
 73
    32
 74
     0
 42
0.0000000001
 43
0.0000000001
 12
1.0
 22
0.0
 32
0.0
 13
1.0
 23
0.0
 33
0.0
 40
0.0
 40
0.0
 40
0.0
 40
0.0
 40
0.1111111111111111
 40
0.1111111111111111
 40
0.1111111111111111
 40
0.1111111111111111
 40
0.2222222222222222
 40
0.2222222222222222
 40
0.2222222222222222
 40
0.2222222222222222
 40
0.3333333333333333
 40
0.3333333333333333
 40
0.3333333333333333
 40
0.3333333333333333
 40
0.4444444444444444
 40
0.4444444444444444
 40
0.4444444444444444
 40
0.4444444444444444
 40
0.5555555555555556
 40
0.5555555555555556
 40
0.5555555555555556
 40
0.5555555555555556
 40
0.6666666666666666
 40
0.6666666666666666
 40
0.6666666666666666
 40
0.6666666666666666
 40
0.7777777777777778
 40
0.7777777777777778
 40
0.7777777777777778
 40
0.7777777777777778
 40
1.0
 40
1.0
 40
1.0
 40
1.0
 10
134.13
 20
67.0026
 30
0.0
 10
134.413
 20
66.8527
 30
0.0
 10
134.8288
 20
66.6144
 30
0.0
 10
135.1118
 20
66.4646
 30
0.0
 10
135.1118
 20
66.4646
 30
0.0
 10
136.3115
 20
69.0728
 30
0.0
 10
137.8595
 20
72.1306
 30
0.0
 10
137.8262
 20
75.4439
 30
0.0
 10
137.8262
 20
75.4439
 30
0.0
 10
136.4609
 20
74.7529
 30
0.0
 10
134.849
 20
75.4056
 30
0.0
 10
134.7293
 20
77.8664
 30
0.0
 10
134.7293
 20
77.8664
 30
0.0
 10
134.6321
 20
79.8668
 30
0.0
 10
136.3943
 20
81.0298
 30
0.0
 10
137.7263
 20
80.1391
 30
0.0
 10
137.7263
 20
80.1391
 30
0.0
 10
137.7596
 20
81.2379
 30
0.0
 10
137.7429
 20
82.4867
 30
0.0
 10
137.2767
 20
83.9352
 30
0.0
 10
137.2767
 20
83.9352
 30
0.0
 10
136.028
 20
81.6708
 30
0.0
 10
134.6794
 20
79.8843
 30
0.0
 10
133.081
 20
78.3193
 30
0.0
 10
133.081
 20
78.3193
 30
0.0
 10
133.3308
 20
76.4878
 30
0.0
 10
133.4307
 20
74.5282
 30
0.0
 10
133.3308
 20
72.9465
 30
0.0
 10
133.3308
 20
72.9465
 30
0.0
 10
135.3787
 20
72.6634
 30
0.0
 10
136.4276
 20
68.884
 30
0.0
 10
134.13
 20
67.0026
 30
0.0
  0
SPLINE
  5
62
330
1F
100
AcDbEntity
  8
layer 1
 62
   250
100
AcDbSpline
210
0.0
220
0.0
230
1.0
 70
    11
 71
     3
 72
    16
 73
    12
 74
     0
 42
0.0000000001
 43
0.0000000001
 12
1.0
 22
0.0
 32
0.0
 13
1.0
 23
0.0
 33
0.0
 40
0.0
 40
0.0
 40
0.0
 40
0.0
 40
0.25
 40
0.25
 40
0.25
 40
0.25
 40
0.5
 40
0.5
 40
0.5
 40
0.5
 40
1.0
 40
1.0
 40
1.0
 40
1.0
 10
141.0728
 20
102.4161
 30
0.0
 10
140.1904
 20
100.8511
 30
0.0
 10
139.8075
 20
99.1861
 30
0.0
 10
139.6243
 20
97.0716
 30
0.0
 10
139.6243
 20
97.0716
 30
0.0
 10
139.4911
 20
99.336
 30
0.0
 10
138.8584
 20
100.901
 30
0.0
 10
138.0759
 20
102.6159
 30
0.0
 10
138.0759
 20
102.6159
 30
0.0
 10
139.0416
 20
102.7658
 30
0.0
 10
140.1071
 20
102.6659
 30
0.0
 10
141.0728
 20
102.4161
 30
0.0
  0
SPLINE
  5
63
330
1F
100
AcDbEntity
  8
layer 1
 62
   250
100
AcDbSpline
210
0.0
220
0.0
230
1.0
 70
    11
 71
     3
 72
    16
 73
    12
 74
     0
 42
0.0000000001
 43
0.0000000001
 12
1.0
 22
0.0
 32
0.0
 13
1.0
 23
0.0
 33
0.0
 40
0.0
 40
0.0
 40
0.0
 40
0.0
 40
0.25
 40
0.25
 40
0.25
 40
0.25
 40
0.5
 40
0.5
 40
0.5
 40
0.5
 40
1.0
 40
1.0
 40
1.0
 40
1.0
 10
144.3195
 20
96.5722
 30
0.0
 10
143.8658
 20
94.6744
 30
0.0
 10
143.204
 20
92.8427
 30
0.0
 10
142.0718
 20
91.4774
 30
0.0
 10
142.0718
 20
91.4774
 30
0.0
 10
141.7555
 20
94.824
 30
0.0
 10
142.4381
 20
98.3204
 30
0.0
 10
143.5203
 20
101.1175
 30
0.0
 10
143.5203
 20
101.1175
 30
0.0
 10
144.4693
 20
100.2351
 30
0.0
 10
144.7505
 20
98.3752
 30
0.0
 10
144.3195
 20
96.5722
 30
0.0
  0
SPLINE
  5
64
330
1F
100
AcDbEntity
  8
layer 1
 62
   250
100
AcDbSpline
210
0.0
220
0.0
230
1.0
 70
    11
 71
     3
 72
    16
 73
    12
 74
     0
 42
0.0000000001
 43
0.0000000001
 12
1.0
 22
0.0
 32
0.0
 13
1.0
 23
0.0
 33
0.0
 40
0.0
 40
0.0
 40
0.0
 40
0.0
 40
0.25
 40
0.25
 40
0.25
 40
0.25
 40
0.5
 40
0.5
 40
0.5
 40
0.5
 40
1.0
 40
1.0
 40
1.0
 40
1.0
 10
134.7399
 20
96.5572
 30
0.0
 10
135.21
 20
94.5907
 30
0.0
 10
135.9458
 20
92.3926
 30
0.0
 10
137.119
 20
90.9779
 30
0.0
 10
137.119
 20
90.9779
 30
0.0
 10
137.6966
 20
94.5457
 30
0.0
 10
136.7395
 20
98.5186
 30
0.0
 10
135.618
 20
101.4172
 30
0.0
 10
135.618
 20
101.4172
 30
0.0
 10
134.6346
 20
100.5028
 30
0.0
 10
134.2933
 20
98.4255
 30
0.0
 10
134.7399
 20
96.5572
 30
0.0
  0
SPLINE
  5
65
330
1F
100
AcDbEntity
  8
layer 1
 62
   250
100
AcDbSpline
210
0.0
220
0.0
230
1.0
 70
    11
 71
     3
 72
    20
 73
    16
 74
     0
 42
0.0000000001
 43
0.0000000001
 12
1.0
 22
0.0
 32
0.0
 13
1.0
 23
0.0
 33
0.0
 40
0.0
 40
0.0
 40
0.0
 40
0.0
 40
0.2
 40
0.2
 40
0.2
 40
0.2
 40
0.4
 40
0.4
 40
0.4
 40
0.4
 40
0.6
 40
0.6
 40
0.6
 40
0.6
 40
1.0
 40
1.0
 40
1.0
 40
1.0
 10
140.2237
 20
87.3816
 30
0.0
 10
139.974
 20
86.9321
 30
0.0
 10
139.7742
 20
86.4825
 30
0.0
 10
139.5244
 20
85.9831
 30
0.0
 10
139.5244
 20
85.9831
 30
0.0
 10
139.3579
 20
86.4659
 30
0.0
 10
139.0915
 20
87.0486
 30
0.0
 10
138.925
 20
87.5315
 30
0.0
 10
138.925
 20
87.5315
 30
0.0
 10
139.1748
 20
88.1808
 30
0.0
 10
139.4745
 20
89.1798
 30
0.0
 10
139.6243
 20
90.3785
 30
0.0
 10
139.6243
 20
90.3785
 30
0.0
 10
139.7908
 20
89.1465
 30
0.0
 10
139.9074
 20
88.3639
 30
0.0
 10
140.2237
 20
87.3816
 30
0.0
  0
SPLINE
  5
66
330
1F
100
AcDbEntity
  8
layer 1
 62
   250
100
AcDbSpline
210
0.0
220
0.0
230
1.0
 70
    11
 71
     3
 72
    32
 73
    28
 74
     0
 42
0.0000000001
 43
0.0000000001
 12
1.0
 22
0.0
 32
0.0
 13
1.0
 23
0.0
 33
0.0
 40
0.0
 40
0.0
 40
0.0
 40
0.0
 40
0.125
 40
0.125
 40
0.125
 40
0.125
 40
0.25
 40
0.25
 40
0.25
 40
0.25
 40
0.375
 40
0.375
 40
0.375
 40
0.375
 40
0.5
 40
0.5
 40
0.5
 40
0.5
 40
0.625
 40
0.625
 40
0.625
 40
0.625
 40
0.75
 40
0.75
 40
0.75
 40
0.75
 40
1.0
 40
1.0
 40
1.0
 40
1.0
 10
151.0625
 20
85.6834
 30
0.0
 10
148.9481
 20
84.8509
 30
0.0
 10
147.5828
 20
82.7697
 30
0.0
 10
146.8169
 20
81.0881
 30
0.0
 10
146.8169
 20
81.0881
 30
0.0
 10
145.3351
 20
82.5866
 30
0.0
 10
143.8033
 20
84.9841
 30
0.0
 10
142.821
 20
87.3816
 30
0.0
 10
142.821
 20
87.3816
 30
0.0
 10
142.9209
 20
87.4482
 30
0.0
 10
143.0208
 20
87.5148
 30
0.0
 10
143.1207
 20
87.5814
 30
0.0
 10
143.1207
 20
87.5814
 30
0.0
 10
146.5505
 20
84.5012
 30
0.0
 10
151.229
 20
89.7126
 30
0.0
 10
146.5172
 20
92.5763
 30
0.0
 10
146.5172
 20
92.5763
 30
0.0
 10
147.3663
 20
93.7417
 30
0.0
 10
148.5651
 20
94.7574
 30
0.0
 10
150.1135
 20
95.4733
 30
0.0
 10
150.1135
 20
95.4733
 30
0.0
 10
150.33
 20
93.5253
 30
0.0
 10
150.946
 20
91.7771
 30
0.0
 10
151.9616
 20
90.0788
 30
0.0
 10
151.9616
 20
90.0788
 30
0.0
 10
150.1135
 20
89.313
 30
0.0
 10
149.2144
 20
86.5991
 30
0.0
 10
151.0625
 20
85.6834
 30
0.0
  0
SPLINE
  5
67
330
1F
100
AcDbEntity
  8
layer 1
 62
   250
100
AcDbSpline
210
0.0
220
0.0
230
1.0
 70
    11
 71
     3
 72
    32
 73
    28
 74
     0
 42
0.0000000001
 43
0.0000000001
 12
1.0
 22
0.0
 32
0.0
 13
1.0
 23
0.0
 33
0.0
 40
0.0
 40
0.0
 40
0.0
 40
0.0
 40
0.125
 40
0.125
 40
0.125
 40
0.125
 40
0.25
 40
0.25
 40
0.25
 40
0.25
 40
0.375
 40
0.375
 40
0.375
 40
0.375
 40
0.5
 40
0.5
 40
0.5
 40
0.5
 40
0.625
 40
0.625
 40
0.625
 40
0.625
 40
0.75
 40
0.75
 40
0.75
 40
0.75
 40
1.0
 40
1.0
 40
1.0
 40
1.0
 10
128.1361
 20
85.8332
 30
0.0
 10
130.1008
 20
84.701
 30
0.0
 10
131.5603
 20
82.6863
 30
0.0
 10
132.3262
 20
81.0047
 30
0.0
 10
132.3262
 20
81.0047
 30
0.0
 10
133.808
 20
82.5031
 30
0.0
 10
135.1955
 20
84.5845
 30
0.0
 10
136.1779
 20
86.982
 30
0.0
 10
136.1779
 20
86.982
 30
0.0
 10
136.078
 20
87.0486
 30
0.0
 10
135.7283
 20
87.6147
 30
0.0
 10
135.6284
 20
87.6813
 30
0.0
 10
135.6284
 20
87.6813
 30
0.0
 10
132.1986
 20
84.0517
 30
0.0
 10
128.0196
 20
89.9123
 30
0.0
 10
132.2319
 20
92.5263
 30
0.0
 10
132.2319
 20
92.5263
 30
0.0
 10
131.5326
 20
93.7417
 30
0.0
 10
130.5337
 20
94.6075
 30
0.0
 10
128.9853
 20
95.3234
 30
0.0
 10
128.9853
 20
95.3234
 30
0.0
 10
128.7688
 20
93.3754
 30
0.0
 10
128.1528
 20
91.877
 30
0.0
 10
127.1372
 20
90.1787
 30
0.0
 10
127.1372
 20
90.1787
 30
0.0
 10
128.7355
 20
89.4628
 30
0.0
 10
129.8843
 20
86.8488
 30
0.0
 10
128.1361
 20
85.8332
 30
0.0
  0
SPLINE
  5
68
330
1F
100
AcDbEntity
  8
layer 1
 62
   250
100
AcDbSpline
210
0.0
220
0.0
230
1.0
 70
    11
 71
     3
 72
    36
 73
    32
 74
     0
 42
0.0000000001
 43
0.0000000001
 12
1.0
 22
0.0
 32
0.0
 13
1.0
 23
0.0
 33
0.0
 40
0.0
 40
0.0
 40
0.0
 40
0.0
 40
0.1111111111111111
 40
0.1111111111111111
 40
0.1111111111111111
 40
0.1111111111111111
 40
0.2222222222222222
 40
0.2222222222222222
 40
0.2222222222222222
 40
0.2222222222222222
 40
0.3333333333333333
 40
0.3333333333333333
 40
0.3333333333333333
 40
0.3333333333333333
 40
0.4444444444444444
 40
0.4444444444444444
 40
0.4444444444444444
 40
0.4444444444444444
 40
0.5555555555555556
 40
0.5555555555555556
 40
0.5555555555555556
 40
0.5555555555555556
 40
0.6666666666666666
 40
0.6666666666666666
 40
0.6666666666666666
 40
0.6666666666666666
 40
0.7777777777777778
 40
0.7777777777777778
 40
0.7777777777777778
 40
0.7777777777777778
 40
1.0
 40
1.0
 40
1.0
 40
1.0
 10
177.785
 20
58.1617
 30
0.0
 10
176.9692
 20
60.0764
 30
0.0
 10
175.8537
 20
61.7413
 30
0.0
 10
174.3386
 20
63.1565
 30
0.0
 10
174.3386
 20
63.1565
 30
0.0
 10
178.4177
 20
63.0733
 30
0.0
 10
181.7476
 20
65.0379
 30
0.0
 10
182.73
 20
69.5
 30
0.0
 10
182.73
 20
69.5
 30
0.0
 10
183.5045
 20
68.6198
 30
0.0
 10
184.4804
 20
66.8122
 30
0.0
 10
184.7279
 20
65.2544
 30
0.0
 10
184.7279
 20
65.2544
 30
0.0
 10
182.9225
 20
66.0401
 30
0.0
 10
181.9471
 20
64.4185
 30
0.0
 10
182.0181
 20
62.7959
 30
0.0
 10
182.0181
 20
62.7959
 30
0.0
 10
182.0561
 20
61.93
 30
0.0
 10
182.5395
 20
59.6632
 30
0.0
 10
184.5781
 20
60.5592
 30
0.0
 10
184.5781
 20
60.5592
 30
0.0
 10
184.2277
 20
58.7777
 30
0.0
 10
183.503
 20
57.3213
 30
0.0
 10
182.8798
 20
56.0638
 30
0.0
 10
182.8798
 20
56.0638
 30
0.0
 10
182.0307
 20
57.0628
 30
0.0
 10
181.6311
 20
58.3115
 30
0.0
 10
182.3304
 20
59.5103
 30
0.0
 10
182.3304
 20
59.5103
 30
0.0
 10
180.8819
 20
60.1596
 30
0.0
 10
178.7341
 20
59.5103
 30
0.0
 10
177.785
 20
58.1617
 30
0.0
  0
SPLINE
  5
69
330
1F
100
AcDbEntity
  8
layer 1
 62
   250
100
AcDbSpline
210
0.0
220
0.0
230
1.0
 70
    11
 71
     3
 72
    16
 73
    12
 74
     0
 42
0.0000000001
 43
0.0000000001
 12
1.0
 22
0.0
 32
0.0
 13
1.0
 23
0.0
 33
0.0
 40
0.0
 40
0.0
 40
0.0
 40
0.0
 40
0.25
 40
0.25
 40
0.25
 40
0.25
 40
0.5
 40
0.5
 40
0.5
 40
0.5
 40
1.0
 40
1.0
 40
1.0
 40
1.0
 10
179.0934
 20
68.1858
 30
0.0
 10
177.7381
 20
66.2281
 30
0.0
 10
174.9521
 20
65.5504
 30
0.0
 10
172.392
 20
66.0022
 30
0.0
 10
172.392
 20
66.0022
 30
0.0
 10
174.3246
 20
67.6085
 30
0.0
 10
175.429
 20
69.2148
 30
0.0
 10
176.0816
 20
71.4989
 30
0.0
 10
176.0816
 20
71.4989
 30
0.0
 10
175.7302
 20
68.9889
 30
0.0
 10
177.1859
 20
67.6838
 30
0.0
 10
179.0934
 20
68.1858
 30
0.0
  0
SPLINE
  5
6A
330
1F
100
AcDbEntity
  8
layer 1
 62
   250
100
AcDbSpline
210
0.0
220
0.0
230
1.0
 70
    11
 71
     3
 72
    16
 73
    12
 74
     0
 42
0.0000000001
 43
0.0000000001
 12
1.0
 22
0.0
 32
0.0
 13
1.0
 23
0.0
 33
0.0
 40
0.0
 40
0.0
 40
0.0
 40
0.0
 40
0.25
 40
0.25
 40
0.25
 40
0.25
 40
0.5
 40
0.5
 40
0.5
 40
0.5
 40
1.0
 40
1.0
 40
1.0
 40
1.0
 10
174.397
 20
74.0875
 30
0.0
 10
173.5561
 20
70.8836
 30
0.0
 10
171.367
 20
68.5496
 30
0.0
 10
169.6129
 20
67.0419
 30
0.0
 10
169.6129
 20
67.0419
 30
0.0
 10
170.5118
 20
69.8253
 30
0.0
 10
168.4531
 20
71.9564
 30
0.0
 10
165.5247
 20
71.0866
 30
0.0
 10
165.5247
 20
71.0866
 30
0.0
 10
167.5543
 20
73.2901
 30
0.0
 10
171.2366
 20
74.6239
 30
0.0
 10
174.397
 20
74.0875
 30
0.0
  0
SPLINE
  5
6B
330
1F
100
AcDbEntity
  8
layer 1
 62
   250
100
AcDbSpline
210
0.0
220
0.0
230
1.0
 70
    11
 71
     3
 72
    36
 73
    32
 74
     0
 42
0.0000000001
 43
0.0000000001
 12
1.0
 22
0.0
 32
0.0
 13
1.0
 23
0.0
 33
0.0
 40
0.0
 40
0.0
 40
0.0
 40
0.0
 40
0.1111111111111111
 40
0.1111111111111111
 40
0.1111111111111111
 40
0.1111111111111111
 40
0.2222222222222222
 40
0.2222222222222222
 40
0.2222222222222222
 40
0.2222222222222222
 40
0.3333333333333333
 40
0.3333333333333333
 40
0.3333333333333333
 40
0.3333333333333333
 40
0.4444444444444444
 40
0.4444444444444444
 40
0.4444444444444444
 40
0.4444444444444444
 40
0.5555555555555556
 40
0.5555555555555556
 40
0.5555555555555556
 40
0.5555555555555556
 40
0.6666666666666666
 40
0.6666666666666666
 40
0.6666666666666666
 40
0.6666666666666666
 40
0.7777777777777778
 40
0.7777777777777778
 40
0.7777777777777778
 40
0.7777777777777778
 40
1.0
 40
1.0
 40
1.0
 40
1.0
 10
101.4604
 20
58.0864
 30
0.0
 10
102.2762
 20
60.0011
 30
0.0
 10
103.3917
 20
61.666
 30
0.0
 10
104.9068
 20
63.0812
 30
0.0
 10
104.9068
 20
63.0812
 30
0.0
 10
100.8277
 20
62.998
 30
0.0
 10
97.4978
 20
64.9626
 30
0.0
 10
96.5155
 20
69.4247
 30
0.0
 10
96.5155
 20
69.4247
 30
0.0
 10
95.7409
 20
68.5445
 30
0.0
 10
94.765
 20
66.7369
 30
0.0
 10
94.5175
 20
65.1791
 30
0.0
 10
94.5175
 20
65.1791
 30
0.0
 10
96.3229
 20
65.9648
 30
0.0
 10
97.2984
 20
64.3432
 30
0.0
 10
97.2273
 20
62.7206
 30
0.0
 10
97.2273
 20
62.7206
 30
0.0
 10
97.1893
 20
61.8547
 30
0.0
 10
96.7059
 20
59.5879
 30
0.0
 10
94.6674
 20
60.4839
 30
0.0
 10
94.6674
 20
60.4839
 30
0.0
 10
95.0178
 20
58.7024
 30
0.0
 10
95.7424
 20
57.246
 30
0.0
 10
96.3656
 20
55.9885
 30
0.0
 10
96.3656
 20
55.9885
 30
0.0
 10
97.2147
 20
56.9875
 30
0.0
 10
97.6143
 20
58.2362
 30
0.0
 10
96.9151
 20
59.435
 30
0.0
 10
96.9151
 20
59.435
 30
0.0
 10
98.3636
 20
60.0843
 30
0.0
 10
100.5114
 20
59.435
 30
0.0
 10
101.4604
 20
58.0864
 30
0.0
  0
SPLINE
  5
6C
330
1F
100
AcDbEntity
  8
layer 1
 62
   250
100
AcDbSpline
210
0.0
220
0.0
230
1.0
 70
    11
 71
     3
 72
    16
 73
    12
 74
     0
 42
0.0000000001
 43
0.0000000001
 12
1.0
 22
0.0
 32
0.0
 13
1.0
 23
0.0
 33
0.0
 40
0.0
 40
0.0
 40
0.0
 40
0.0
 40
0.25
 40
0.25
 40
0.25
 40
0.25
 40
0.5
 40
0.5
 40
0.5
 40
0.5
 40
1.0
 40
1.0
 40
1.0
 40
1.0
 10
100.152
 20
68.1105
 30
0.0
 10
101.5073
 20
66.1528
 30
0.0
 10
104.2933
 20
65.4752
 30
0.0
 10
106.8534
 20
65.9269
 30
0.0
 10
106.8534
 20
65.9269
 30
0.0
 10
104.9208
 20
67.5332
 30
0.0
 10
103.8164
 20
69.1395
 30
0.0
 10
103.1639
 20
71.4236
 30
0.0
 10
103.1639
 20
71.4236
 30
0.0
 10
103.5153
 20
68.9137
 30
0.0
 10
102.0595
 20
67.6085
 30
0.0
 10
100.152
 20
68.1105
 30
0.0
  0
SPLINE
  5
6D
330
1F
100
AcDbEntity
  8
layer 1
 62
   250
100
AcDbSpline
210
0.0
220
0.0
230
1.0
 70
    11
 71
     3
 72
    16
 73
    12
 74
     0
 42
0.0000000001
 43
0.0000000001
 12
1.0
 22
0.0
 32
0.0
 13
1.0
 23
0.0
 33
0.0
 40
0.0
 40
0.0
 40
0.0
 40
0.0
 40
0.25
 40
0.25
 40
0.25
 40
0.25
 40
0.5
 40
0.5
 40
0.5
 40
0.5
 40
1.0
 40
1.0
 40
1.0
 40
1.0
 10
104.8485
 20
74.0122
 30
0.0
 10
105.6893
 20
70.8083
 30
0.0
 10
107.8784
 20
68.4743
 30
0.0
 10
109.6325
 20
66.9666
 30
0.0
 10
109.6325
 20
66.9666
 30
0.0
 10
108.7337
 20
69.75
 30
0.0
 10
110.7923
 20
71.8811
 30
0.0
 10
113.7207
 20
71.0113
 30
0.0
 10
113.7207
 20
71.0113
 30
0.0
 10
111.6911
 20
73.2148
 30
0.0
 10
108.0089
 20
74.5486
 30
0.0
 10
104.8485
 20
74.0122
 30
0.0
  0
SPLINE
  5
6E
330
1F
100
AcDbEntity
  8
layer 1
 62
   250
100
AcDbSpline
210
0.0
220
0.0
230
1.0
 70
    11
 71
     3
 72
    24
 73
    20
 74
     0
 42
0.0000000001
 43
0.0000000001
 12
1.0
 22
0.0
 32
0.0
 13
1.0
 23
0.0
 33
0.0
 40
0.0
 40
0.0
 40
0.0
 40
0.0
 40
0.1666666666666667
 40
0.1666666666666667
 40
0.1666666666666667
 40
0.1666666666666667
 40
0.3333333333333333
 40
0.3333333333333333
 40
0.3333333333333333
 40
0.3333333333333333
 40
0.5
 40
0.5
 40
0.5
 40
0.5
 40
0.6666666666666666
 40
0.6666666666666666
 40
0.6666666666666666
 40
0.6666666666666666
 40
1.0
 40
1.0
 40
1.0
 40
1.0
 10
186.3219
 20
81.6639
 30
0.0
 10
185.6693
 20
82.3667
 30
0.0
 10
184.8661
 20
83.0694
 30
0.0
 10
184.063
 20
83.5463
 30
0.0
 10
184.063
 20
83.5463
 30
0.0
 10
184.816
 20
83.9591
 30
0.0
 10
185.0418
 20
84.4471
 30
0.0
 10
185.2677
 20
85.2364
 30
0.0
 10
185.2677
 20
85.2364
 30
0.0
 10
185.2677
 20
85.2364
 30
0.0
 10
187.9784
 20
85.2364
 30
0.0
 10
187.9784
 20
85.2364
 30
0.0
 10
187.9784
 20
85.2364
 30
0.0
 10
187.3509
 20
83.9954
 30
0.0
 10
187.4011
 20
82.905
 30
0.0
 10
188.129
 20
81.7392
 30
0.0
 10
188.129
 20
81.7392
 30
0.0
 10
187.5266
 20
81.8145
 30
0.0
 10
186.9996
 20
81.6639
 30
0.0
 10
186.3219
 20
81.6639
 30
0.0
  0
SPLINE
  5
6F
330
1F
100
AcDbEntity
  8
layer 1
 62
   250
100
AcDbSpline
210
0.0
220
0.0
230
1.0
 70
    11
 71
     3
 72
    16
 73
    12
 74
     0
 42
0.0000000001
 43
0.0000000001
 12
1.0
 22
0.0
 32
0.0
 13
1.0
 23
0.0
 33
0.0
 40
0.0
 40
0.0
 40
0.0
 40
0.0
 40
0.25
 40
0.25
 40
0.25
 40
0.25
 40
0.5
 40
0.5
 40
0.5
 40
0.5
 40
1.0
 40
1.0
 40
1.0
 40
1.0
 10
194.1421
 20
73.0801
 30
0.0
 10
193.4177
 20
75.5398
 30
0.0
 10
191.7146
 20
77.5477
 30
0.0
 10
190.3879
 20
78.652
 30
0.0
 10
190.3879
 20
78.652
 30
0.0
 10
191.7146
 20
78.8277
 30
0.0
 10
193.1918
 20
79.3046
 30
0.0
 10
194.1421
 20
80.7603
 30
0.0
 10
194.1421
 20
80.7603
 30
0.0
 10
194.1421
 20
80.7603
 30
0.0
 10
194.1421
 20
73.0801
 30
0.0
 10
194.1421
 20
73.0801
 30
0.0
  0
SPLINE
  5
70
330
1F
100
AcDbEntity
  8
layer 1
 62
   250
100
AcDbSpline
210
0.0
220
0.0
230
1.0
 70
    11
 71
     3
 72
    24
 73
    20
 74
     0
 42
0.0000000001
 43
0.0000000001
 12
1.0
 22
0.0
 32
0.0
 13
1.0
 23
0.0
 33
0.0
 40
0.0
 40
0.0
 40
0.0
 40
0.0
 40
0.1666666666666667
 40
0.1666666666666667
 40
0.1666666666666667
 40
0.1666666666666667
 40
0.3333333333333333
 40
0.3333333333333333
 40
0.3333333333333333
 40
0.3333333333333333
 40
0.5
 40
0.5
 40
0.5
 40
0.5
 40
0.6666666666666666
 40
0.6666666666666666
 40
0.6666666666666666
 40
0.6666666666666666
 40
1.0
 40
1.0
 40
1.0
 40
1.0
 10
93.0619
 20
81.6639
 30
0.0
 10
93.7145
 20
82.3667
 30
0.0
 10
94.5177
 20
83.0694
 30
0.0
 10
95.3208
 20
83.5463
 30
0.0
 10
95.3208
 20
83.5463
 30
0.0
 10
94.5678
 20
83.9591
 30
0.0
 10
94.342
 20
84.4471
 30
0.0
 10
94.1161
 20
85.2364
 30
0.0
 10
94.1161
 20
85.2364
 30
0.0
 10
94.1161
 20
85.2364
 30
0.0
 10
91.4054
 20
85.2364
 30
0.0
 10
91.4054
 20
85.2364
 30
0.0
 10
91.4054
 20
85.2364
 30
0.0
 10
92.0329
 20
83.9954
 30
0.0
 10
91.9827
 20
82.905
 30
0.0
 10
91.2548
 20
81.7392
 30
0.0
 10
91.2548
 20
81.7392
 30
0.0
 10
91.8572
 20
81.8145
 30
0.0
 10
92.3842
 20
81.6639
 30
0.0
 10
93.0619
 20
81.6639
 30
0.0
  0
SPLINE
  5
71
330
1F
100
AcDbEntity
  8
layer 1
 62
   250
100
AcDbSpline
210
0.0
220
0.0
230
1.0
 70
    11
 71
     3
 72
    16
 73
    12
 74
     0
 42
0.0000000001
 43
0.0000000001
 12
1.0
 22
0.0
 32
0.0
 13
1.0
 23
0.0
 33
0.0
 40
0.0
 40
0.0
 40
0.0
 40
0.0
 40
0.25
 40
0.25
 40
0.25
 40
0.25
 40
0.5
 40
0.5
 40
0.5
 40
0.5
 40
1.0
 40
1.0
 40
1.0
 40
1.0
 10
85.2417
 20
73.0801
 30
0.0
 10
85.9661
 20
75.5398
 30
0.0
 10
87.6692
 20
77.5477
 30
0.0
 10
88.9959
 20
78.652
 30
0.0
 10
88.9959
 20
78.652
 30
0.0
 10
87.6692
 20
78.8277
 30
0.0
 10
86.192
 20
79.3046
 30
0.0
 10
85.2417
 20
80.7603
 30
0.0
 10
85.2417
 20
80.7603
 30
0.0
 10
85.2417
 20
80.7603
 30
0.0
 10
85.2417
 20
73.0801
 30
0.0
 10
85.2417
 20
73.0801
 30
0.0
  0
SPLINE
  5
72
330
1F
100
AcDbEntity
  8
layer 1
 62
   250
100
AcDbSpline
210
0.0
220
0.0
230
1.0
 70
    11
 71
     3
 72
    56
 73
    52
 74
     0
 42
0.0000000001
 43
0.0000000001
 12
1.0
 22
0.0
 32
0.0
 13
1.0
 23
0.0
 33
0.0
 40
0.0
 40
0.0
 40
0.0
 40
0.0
 40
0.0714285714285714
 40
0.0714285714285714
 40
0.0714285714285714
 40
0.0714285714285714
 40
0.1428571428571428
 40
0.1428571428571428
 40
0.1428571428571428
 40
0.1428571428571428
 40
0.2142857142857143
 40
0.2142857142857143
 40
0.2142857142857143
 40
0.2142857142857143
 40
0.2857142857142857
 40
0.2857142857142857
 40
0.2857142857142857
 40
0.2857142857142857
 40
0.3571428571428572
 40
0.3571428571428572
 40
0.3571428571428572
 40
0.3571428571428572
 40
0.4285714285714285
 40
0.4285714285714285
 40
0.4285714285714285
 40
0.4285714285714285
 40
0.5
 40
0.5
 40
0.5
 40
0.5
 40
0.5714285714285714
 40
0.5714285714285714
 40
0.5714285714285714
 40
0.5714285714285714
 40
0.6428571428571429
 40
0.6428571428571429
 40
0.6428571428571429
 40
0.6428571428571429
 40
0.7142857142857143
 40
0.7142857142857143
 40
0.7142857142857143
 40
0.7142857142857143
 40
0.7857142857142857
 40
0.7857142857142857
 40
0.7857142857142857
 40
0.7857142857142857
 40
0.8571428571428571
 40
0.8571428571428571
 40
0.8571428571428571
 40
0.8571428571428571
 40
1.0
 40
1.0
 40
1.0
 40
1.0
 10
185.0036
 20
41.9152
 30
0.0
 10
186.0893
 20
42.5555
 30
0.0
 10
187.9266
 20
42.7782
 30
0.0
 10
189.4299
 20
42.0822
 30
0.0
 10
189.4299
 20
42.0822
 30
0.0
 10
185.2594
 20
46.2083
 30
0.0
 10
185.3121
 20
50.187
 30
0.0
 10
185.8599
 20
53.914
 30
0.0
 10
185.8599
 20
53.914
 30
0.0
 10
186.3833
 20
57.4753
 30
0.0
 10
190.5077
 20
60.6642
 30
0.0
 10
191.2672
 20
63.1279
 30
0.0
 10
191.2672
 20
63.1279
 30
0.0
 10
190.1432
 20
62.8025
 30
0.0
 10
187.8745
 20
63.0695
 30
0.0
 10
188.3886
 20
66.6958
 30
0.0
 10
188.3886
 20
66.6958
 30
0.0
 10
188.8097
 20
69.6661
 30
0.0
 10
191.1497
 20
69.976
 30
0.0
 10
191.6847
 20
69.1409
 30
0.0
 10
191.6847
 20
69.1409
 30
0.0
 10
191.5455
 20
73.5115
 30
0.0
 10
188.901
 20
76.2953
 30
0.0
 10
186.5068
 20
77.6594
 30
0.0
 10
186.5068
 20
77.6594
 30
0.0
 10
184.6695
 20
77.5759
 30
0.0
 10
183.7509
 20
75.0705
 30
0.0
 10
183.5003
 20
73.4002
 30
0.0
 10
183.5003
 20
73.4002
 30
0.0
 10
183.7509
 20
73.0661
 30
0.0
 10
184.0014
 20
72.7321
 30
0.0
 10
184.252
 20
72.398
 30
0.0
 10
184.252
 20
72.398
 30
0.0
 10
186.4512
 20
74.1518
 30
0.0
 10
189.068
 20
73.9013
 30
0.0
 10
189.8474
 20
70.6442
 30
0.0
 10
189.8474
 20
70.6442
 30
0.0
 10
187.4725
 20
69.9774
 30
0.0
 10
187.4319
 20
67.4646
 30
0.0
 10
187.8044
 20
64.7059
 30
0.0
 10
187.8044
 20
64.7059
 30
0.0
 10
188.2692
 20
61.2644
 30
0.0
 10
186.8043
 20
56.3923
 30
0.0
 10
184.8366
 20
53.7743
 30
0.0
 10
184.8366
 20
53.7743
 30
0.0
 10
185.7009
 20
52.214
 30
0.0
 10
185.0337
 20
50.2644
 30
0.0
 10
184.419
 20
49.348
 30
0.0
 10
184.419
 20
49.348
 30
0.0
 10
186.2006
 20
46.7868
 30
0.0
 10
185.0593
 20
44.3928
 30
0.0
 10
185.0036
 20
41.9152
 30
0.0
  0
SPLINE
  5
73
330
1F
100
AcDbEntity
  8
layer 1
 62
   250
100
AcDbSpline
210
0.0
220
0.0
230
1.0
 70
    11
 71
     3
 72
    56
 73
    52
 74
     0
 42
0.0000000001
 43
0.0000000001
 12
1.0
 22
0.0
 32
0.0
 13
1.0
 23
0.0
 33
0.0
 40
0.0
 40
0.0
 40
0.0
 40
0.0
 40
0.0714285714285714
 40
0.0714285714285714
 40
0.0714285714285714
 40
0.0714285714285714
 40
0.1428571428571428
 40
0.1428571428571428
 40
0.1428571428571428
 40
0.1428571428571428
 40
0.2142857142857143
 40
0.2142857142857143
 40
0.2142857142857143
 40
0.2142857142857143
 40
0.2857142857142857
 40
0.2857142857142857
 40
0.2857142857142857
 40
0.2857142857142857
 40
0.3571428571428572
 40
0.3571428571428572
 40
0.3571428571428572
 40
0.3571428571428572
 40
0.4285714285714285
 40
0.4285714285714285
 40
0.4285714285714285
 40
0.4285714285714285
 40
0.5
 40
0.5
 40
0.5
 40
0.5
 40
0.5714285714285714
 40
0.5714285714285714
 40
0.5714285714285714
 40
0.5714285714285714
 40
0.6428571428571429
 40
0.6428571428571429
 40
0.6428571428571429
 40
0.6428571428571429
 40
0.7142857142857143
 40
0.7142857142857143
 40
0.7142857142857143
 40
0.7142857142857143
 40
0.7857142857142857
 40
0.7857142857142857
 40
0.7857142857142857
 40
0.7857142857142857
 40
0.8571428571428571
 40
0.8571428571428571
 40
0.8571428571428571
 40
0.8571428571428571
 40
1.0
 40
1.0
 40
1.0
 40
1.0
 10
94.3068
 20
41.9152
 30
0.0
 10
93.2212
 20
42.5555
 30
0.0
 10
91.3838
 20
42.7782
 30
0.0
 10
89.8806
 20
42.0822
 30
0.0
 10
89.8806
 20
42.0822
 30
0.0
 10
94.0511
 20
46.2083
 30
0.0
 10
93.9983
 20
50.187
 30
0.0
 10
93.4506
 20
53.914
 30
0.0
 10
93.4506
 20
53.914
 30
0.0
 10
92.9272
 20
57.4753
 30
0.0
 10
88.8027
 20
60.6642
 30
0.0
 10
88.0433
 20
63.1279
 30
0.0
 10
88.0433
 20
63.1279
 30
0.0
 10
89.1672
 20
62.8025
 30
0.0
 10
91.4359
 20
63.0695
 30
0.0
 10
90.9219
 20
66.6958
 30
0.0
 10
90.9219
 20
66.6958
 30
0.0
 10
90.5008
 20
69.6661
 30
0.0
 10
88.1607
 20
69.976
 30
0.0
 10
87.6257
 20
69.1409
 30
0.0
 10
87.6257
 20
69.1409
 30
0.0
 10
87.7649
 20
73.5115
 30
0.0
 10
90.4095
 20
76.2953
 30
0.0
 10
92.8036
 20
77.6594
 30
0.0
 10
92.8036
 20
77.6594
 30
0.0
 10
94.6409
 20
77.5759
 30
0.0
 10
95.5596
 20
75.0705
 30
0.0
 10
95.8101
 20
73.4002
 30
0.0
 10
95.8101
 20
73.4002
 30
0.0
 10
95.5596
 20
73.0661
 30
0.0
 10
95.309
 20
72.7321
 30
0.0
 10
95.0585
 20
72.398
 30
0.0
 10
95.0585
 20
72.398
 30
0.0
 10
92.8592
 20
74.1518
 30
0.0
 10
90.2424
 20
73.9013
 30
0.0
 10
89.463
 20
70.6442
 30
0.0
 10
89.463
 20
70.6442
 30
0.0
 10
91.8379
 20
69.9774
 30
0.0
 10
91.8786
 20
67.4646
 30
0.0
 10
91.506
 20
64.7059
 30
0.0
 10
91.506
 20
64.7059
 30
0.0
 10
91.0412
 20
61.2644
 30
0.0
 10
92.5061
 20
56.3923
 30
0.0
 10
94.4739
 20
53.7743
 30
0.0
 10
94.4739
 20
53.7743
 30
0.0
 10
93.6095
 20
52.214
 30
0.0
 10
94.2767
 20
50.2644
 30
0.0
 10
94.8914
 20
49.348
 30
0.0
 10
94.8914
 20
49.348
 30
0.0
 10
93.1098
 20
46.7868
 30
0.0
 10
94.2511
 20
44.3928
 30
0.0
 10
94.3068
 20
41.9152
 30
0.0
  0
SPLINE
  5
74
330
1F
100
AcDbEntity
  8
layer 1
 62
   250
100
AcDbSpline
210
0.0
220
0.0
230
1.0
 70
    11
 71
     3
 72
    16
 73
    12
 74
     0
 42
0.0000000001
 43
0.0000000001
 12
1.0
 22
0.0
 32
0.0
 13
1.0
 23
0.0
 33
0.0
 40
0.0
 40
0.0
 40
0.0
 40
0.0
 40
0.25
 40
0.25
 40
0.25
 40
0.25
 40
0.5
 40
0.5
 40
0.5
 40
0.5
 40
1.0
 40
1.0
 40
1.0
 40
1.0
 10
190.9331
 20
49.2645
 30
0.0
 10
191.0414
 20
45.1549
 30
0.0
 10
193.5178
 20
44.0309
 30
0.0
 10
194.1421
 20
41.9987
 30
0.0
 10
194.1421
 20
41.9987
 30
0.0
 10
194.1421
 20
41.9987
 30
0.0
 10
194.1421
 20
54.86
 30
0.0
 10
194.1421
 20
54.86
 30
0.0
 10
194.1421
 20
54.86
 30
0.0
 10
191.8107
 20
53.792
 30
0.0
 10
190.8744
 20
51.495
 30
0.0
 10
190.9331
 20
49.2645
 30
0.0
  0
SPLINE
  5
75
330
1F
100
AcDbEntity
  8
layer 1
 62
   250
100
AcDbSpline
210
0.0
220
0.0
230
1.0
 70
    11
 71
     3
 72
    16
 73
    12
 74
     0
 42
0.0000000001
 43
0.0000000001
 12
1.0
 22
0.0
 32
0.0
 13
1.0
 23
0.0
 33
0.0
 40
0.0
 40
0.0
 40
0.0
 40
0.0
 40
0.25
 40
0.25
 40
0.25
 40
0.25
 40
0.5
 40
0.5
 40
0.5
 40
0.5
 40
1.0
 40
1.0
 40
1.0
 40
1.0
 10
88.4507
 20
49.2645
 30
0.0
 10
88.3424
 20
45.1549
 30
0.0
 10
85.866
 20
44.0309
 30
0.0
 10
85.2417
 20
41.9987
 30
0.0
 10
85.2417
 20
41.9987
 30
0.0
 10
85.2417
 20
41.9987
 30
0.0
 10
85.2417
 20
54.86
 30
0.0
 10
85.2417
 20
54.86
 30
0.0
 10
85.2417
 20
54.86
 30
0.0
 10
87.5731
 20
53.792
 30
0.0
 10
88.5094
 20
51.495
 30
0.0
 10
88.4507
 20
49.2645
 30
0.0
  0
SPLINE
  5
76
330
1F
100
AcDbEntity
  8
layer 1
 62
   250
100
AcDbSpline
210
0.0
220
0.0
230
1.0
 70
    11
 71
     3
 72
    20
 73
    16
 74
     0
 42
0.0000000001
 43
0.0000000001
 12
1.0
 22
0.0
 32
0.0
 13
1.0
 23
0.0
 33
0.0
 40
0.0
 40
0.0
 40
0.0
 40
0.0
 40
0.2
 40
0.2
 40
0.2
 40
0.2
 40
0.4
 40
0.4
 40
0.4
 40
0.4
 40
0.6
 40
0.6
 40
0.6
 40
0.6
 40
1.0
 40
1.0
 40
1.0
 40
1.0
 10
194.1421
 20
24.2698
 30
0.0
 10
193.0565
 20
29.9903
 30
0.0
 10
187.3581
 20
35.8867
 30
0.0
 10
184.3045
 20
37.4657
 30
0.0
 10
184.3045
 20
37.4657
 30
0.0
 10
185.7969
 20
38.5708
 30
0.0
 10
187.9312
 20
37.522
 30
0.0
 10
188.9873
 20
34.9318
 30
0.0
 10
188.9873
 20
34.9318
 30
0.0
 10
189.986
 20
32.4825
 30
0.0
 10
193.4009
 20
31.8194
 30
0.0
 10
194.1421
 20
32.6535
 30
0.0
 10
194.1421
 20
32.6535
 30
0.0
 10
194.1421
 20
32.6535
 30
0.0
 10
194.1421
 20
24.2698
 30
0.0
 10
194.1421
 20
24.2698
 30
0.0
  0
SPLINE
  5
77
330
1F
100
AcDbEntity
  8
layer 1
 62
   250
100
AcDbSpline
210
0.0
220
0.0
230
1.0
 70
    11
 71
     3
 72
    20
 73
    16
 74
     0
 42
0.0000000001
 43
0.0000000001
 12
1.0
 22
0.0
 32
0.0
 13
1.0
 23
0.0
 33
0.0
 40
0.0
 40
0.0
 40
0.0
 40
0.0
 40
0.2
 40
0.2
 40
0.2
 40
0.2
 40
0.4
 40
0.4
 40
0.4
 40
0.4
 40
0.6
 40
0.6
 40
0.6
 40
0.6
 40
1.0
 40
1.0
 40
1.0
 40
1.0
 10
85.2417
 20
26.8639
 30
0.0
 10
86.7164
 20
31.8264
 30
0.0
 10
91.8753
 20
35.8867
 30
0.0
 10
94.9289
 20
37.4657
 30
0.0
 10
94.9289
 20
37.4657
 30
0.0
 10
93.4365
 20
38.5708
 30
0.0
 10
91.227
 20
37.6723
 30
0.0
 10
90.1709
 20
35.0822
 30
0.0
 10
90.1709
 20
35.0822
 30
0.0
 10
89.1723
 20
32.6329
 30
0.0
 10
85.9829
 20
31.8194
 30
0.0
 10
85.2417
 20
32.6535
 30
0.0
 10
85.2417
 20
32.6535
 30
0.0
 10
85.2417
 20
32.6535
 30
0.0
 10
85.2417
 20
26.8639
 30
0.0
 10
85.2417
 20
26.8639
 30
0.0
  0
SPLINE
  5
78
330
1F
100
AcDbEntity
  8
layer 1
 62
   250
100
AcDbSpline
210
0.0
220
0.0
230
1.0
 70
    11
 71
     3
 72
    52
 73
    48
 74
     0
 42
0.0000000001
 43
0.0000000001
 12
1.0
 22
0.0
 32
0.0
 13
1.0
 23
0.0
 33
0.0
 40
0.0
 40
0.0
 40
0.0
 40
0.0
 40
0.0769230769230769
 40
0.0769230769230769
 40
0.0769230769230769
 40
0.0769230769230769
 40
0.1538461538461539
 40
0.1538461538461539
 40
0.1538461538461539
 40
0.1538461538461539
 40
0.2307692307692308
 40
0.2307692307692308
 40
0.2307692307692308
 40
0.2307692307692308
 40
0.3076923076923077
 40
0.3076923076923077
 40
0.3076923076923077
 40
0.3076923076923077
 40
0.3846153846153846
 40
0.3846153846153846
 40
0.3846153846153846
 40
0.3846153846153846
 40
0.4615384615384616
 40
0.4615384615384616
 40
0.4615384615384616
 40
0.4615384615384616
 40
0.5384615384615384
 40
0.5384615384615384
 40
0.5384615384615384
 40
0.5384615384615384
 40
0.6153846153846154
 40
0.6153846153846154
 40
0.6153846153846154
 40
0.6153846153846154
 40
0.6923076923076923
 40
0.6923076923076923
 40
0.6923076923076923
 40
0.6923076923076923
 40
0.7692307692307693
 40
0.7692307692307693
 40
0.7692307692307693
 40
0.7692307692307693
 40
0.8461538461538461
 40
0.8461538461538461
 40
0.8461538461538461
 40
0.8461538461538461
 40
1.0
 40
1.0
 40
1.0
 40
1.0
 10
143.3268
 20
47.7304
 30
0.0
 10
142.9581
 20
48.8069
 30
0.0
 10
142.1029
 20
49.3968
 30
0.0
 10
141.0264
 20
49.2788
 30
0.0
 10
141.0264
 20
49.2788
 30
0.0
 10
140.8347
 20
51.2253
 30
0.0
 10
140.7757
 20
53.393
 30
0.0
 10
140.8494
 20
55.3837
 30
0.0
 10
140.8494
 20
55.3837
 30
0.0
 10
143.3466
 20
54.5512
 30
0.0
 10
144.4525
 20
55.4759
 30
0.0
 10
145.2017
 20
56.9013
 30
0.0
 10
145.2017
 20
56.9013
 30
0.0
 10
146.1059
 20
58.6216
 30
0.0
 10
146.1527
 20
61.265
 30
0.0
 10
145.0964
 20
63.7891
 30
0.0
 10
145.0964
 20
63.7891
 30
0.0
 10
146.0991
 20
64.6296
 30
0.0
 10
147.2345
 20
65.3817
 30
0.0
 10
148.4143
 20
65.9125
 30
0.0
 10
148.4143
 20
65.9125
 30
0.0
 10
148.5617
 20
65.7503
 30
0.0
 10
148.7091
 20
65.5881
 30
0.0
 10
148.8566
 20
65.4259
 30
0.0
 10
148.8566
 20
65.4259
 30
0.0
 10
148.6437
 20
62.3867
 30
0.0
 10
149.4301
 20
59.5391
 30
0.0
 10
150.5377
 20
57.0205
 30
0.0
 10
150.5377
 20
57.0205
 30
0.0
 10
150.405
 20
56.9321
 30
0.0
 10
150.1838
 20
56.7994
 30
0.0
 10
150.0511
 20
56.7109
 30
0.0
 10
150.0511
 20
56.7109
 30
0.0
 10
148.8714
 20
58.0675
 30
0.0
 10
146.6742
 20
57.4334
 30
0.0
 10
145.9369
 20
56.0473
 30
0.0
 10
145.9369
 20
56.0473
 30
0.0
 10
147.8096
 20
55.5164
 30
0.0
 10
147.3265
 20
53.3817
 30
0.0
 10
146.5451
 20
52.4252
 30
0.0
 10
146.5451
 20
52.4252
 30
0.0
 10
145.6464
 20
51.3252
 30
0.0
 10
145.2143
 20
50.1856
 30
0.0
 10
145.1848
 20
48.9691
 30
0.0
 10
145.1848
 20
48.9691
 30
0.0
 10
144.4622
 20
48.7627
 30
0.0
 10
143.9609
 20
48.2023
 30
0.0
 10
143.3268
 20
47.7304
 30
0.0
  0
SPLINE
  5
79
330
1F
100
AcDbEntity
  8
layer 1
 62
   250
100
AcDbSpline
210
0.0
220
0.0
230
1.0
 70
    11
 71
     3
 72
    52
 73
    48
 74
     0
 42
0.0000000001
 43
0.0000000001
 12
1.0
 22
0.0
 32
0.0
 13
1.0
 23
0.0
 33
0.0
 40
0.0
 40
0.0
 40
0.0
 40
0.0
 40
0.0769230769230769
 40
0.0769230769230769
 40
0.0769230769230769
 40
0.0769230769230769
 40
0.1538461538461539
 40
0.1538461538461539
 40
0.1538461538461539
 40
0.1538461538461539
 40
0.2307692307692308
 40
0.2307692307692308
 40
0.2307692307692308
 40
0.2307692307692308
 40
0.3076923076923077
 40
0.3076923076923077
 40
0.3076923076923077
 40
0.3076923076923077
 40
0.3846153846153846
 40
0.3846153846153846
 40
0.3846153846153846
 40
0.3846153846153846
 40
0.4615384615384616
 40
0.4615384615384616
 40
0.4615384615384616
 40
0.4615384615384616
 40
0.5384615384615384
 40
0.5384615384615384
 40
0.5384615384615384
 40
0.5384615384615384
 40
0.6153846153846154
 40
0.6153846153846154
 40
0.6153846153846154
 40
0.6153846153846154
 40
0.6923076923076923
 40
0.6923076923076923
 40
0.6923076923076923
 40
0.6923076923076923
 40
0.7692307692307693
 40
0.7692307692307693
 40
0.7692307692307693
 40
0.7692307692307693
 40
0.8461538461538461
 40
0.8461538461538461
 40
0.8461538461538461
 40
0.8461538461538461
 40
1.0
 40
1.0
 40
1.0
 40
1.0
 10
135.478
 20
47.6862
 30
0.0
 10
135.8467
 20
48.7627
 30
0.0
 10
136.8347
 20
49.3525
 30
0.0
 10
137.9112
 20
49.2345
 30
0.0
 10
137.9112
 20
49.2345
 30
0.0
 10
138.1029
 20
51.181
 30
0.0
 10
138.1176
 20
53.3487
 30
0.0
 10
138.0439
 20
55.3395
 30
0.0
 10
138.0439
 20
55.3395
 30
0.0
 10
135.5467
 20
54.507
 30
0.0
 10
134.5293
 20
55.476
 30
0.0
 10
133.7801
 20
56.9013
 30
0.0
 10
133.7801
 20
56.9013
 30
0.0
 10
132.8759
 20
58.6216
 30
0.0
 10
132.9175
 20
61.2207
 30
0.0
 10
133.9739
 20
63.7448
 30
0.0
 10
133.9739
 20
63.7448
 30
0.0
 10
132.9712
 20
64.5854
 30
0.0
 10
131.9242
 20
65.3817
 30
0.0
 10
130.7445
 20
65.9125
 30
0.0
 10
130.7445
 20
65.9125
 30
0.0
 10
130.5971
 20
65.7503
 30
0.0
 10
130.4496
 20
65.5881
 30
0.0
 10
130.3021
 20
65.4259
 30
0.0
 10
130.3021
 20
65.4259
 30
0.0
 10
130.515
 20
62.3867
 30
0.0
 10
129.9056
 20
59.4949
 30
0.0
 10
128.6653
 20
56.9763
 30
0.0
 10
128.6653
 20
56.9763
 30
0.0
 10
128.798
 20
56.8878
 30
0.0
 10
128.8422
 20
56.8436
 30
0.0
 10
128.975
 20
56.7551
 30
0.0
 10
128.975
 20
56.7551
 30
0.0
 10
130.4201
 20
57.8463
 30
0.0
 10
131.998
 20
57.3007
 30
0.0
 10
132.7352
 20
55.9146
 30
0.0
 10
132.7352
 20
55.9146
 30
0.0
 10
130.8625
 20
55.3837
 30
0.0
 10
131.5227
 20
53.3816
 30
0.0
 10
132.304
 20
52.4252
 30
0.0
 10
132.304
 20
52.4252
 30
0.0
 10
133.2026
 20
51.3253
 30
0.0
 10
133.5021
 20
50.1414
 30
0.0
 10
133.5315
 20
48.9249
 30
0.0
 10
133.5315
 20
48.9249
 30
0.0
 10
134.2541
 20
48.7185
 30
0.0
 10
134.844
 20
48.1581
 30
0.0
 10
135.478
 20
47.6862
 30
0.0
  0
SPLINE
  5
7A
330
1F
100
AcDbEntity
  8
layer 1
 62
   250
100
AcDbSpline
210
0.0
220
0.0
230
1.0
 70
    11
 71
     3
 72
    20
 73
    16
 74
     0
 42
0.0000000001
 43
0.0000000001
 12
1.0
 22
0.0
 32
0.0
 13
1.0
 23
0.0
 33
0.0
 40
0.0
 40
0.0
 40
0.0
 40
0.0
 40
0.2
 40
0.2
 40
0.2
 40
0.2
 40
0.4
 40
0.4
 40
0.4
 40
0.4
 40
0.6
 40
0.6
 40
0.6
 40
0.6
 40
1.0
 40
1.0
 40
1.0
 40
1.0
 10
160.7126
 20
67.4166
 30
0.0
 10
160.3734
 20
66.2369
 30
0.0
 10
160.2554
 20
65.0572
 30
0.0
 10
160.2702
 20
63.9218
 30
0.0
 10
160.2702
 20
63.9218
 30
0.0
 10
157.7929
 20
63.7891
 30
0.0
 10
154.121
 20
64.3199
 30
0.0
 10
151.3782
 20
66.4876
 30
0.0
 10
151.3782
 20
66.4876
 30
0.0
 10
151.3782
 20
66.6793
 30
0.0
 10
151.3782
 20
66.9595
 30
0.0
 10
151.3782
 20
67.1512
 30
0.0
 10
151.3782
 20
67.1512
 30
0.0
 10
153.3543
 20
68.0949
 30
0.0
 10
158.3827
 20
68.3751
 30
0.0
 10
160.7126
 20
67.4166
 30
0.0
  0
SPLINE
  5
7B
330
1F
100
AcDbEntity
  8
layer 1
 62
   250
100
AcDbSpline
210
0.0
220
0.0
230
1.0
 70
    11
 71
     3
 72
    20
 73
    16
 74
     0
 42
0.0000000001
 43
0.0000000001
 12
1.0
 22
0.0
 32
0.0
 13
1.0
 23
0.0
 33
0.0
 40
0.0
 40
0.0
 40
0.0
 40
0.0
 40
0.2
 40
0.2
 40
0.2
 40
0.2
 40
0.4
 40
0.4
 40
0.4
 40
0.4
 40
0.6
 40
0.6
 40
0.6
 40
0.6
 40
1.0
 40
1.0
 40
1.0
 40
1.0
 10
118.5089
 20
67.4166
 30
0.0
 10
118.8481
 20
66.2369
 30
0.0
 10
118.9661
 20
65.0572
 30
0.0
 10
118.9513
 20
63.9218
 30
0.0
 10
118.9513
 20
63.9218
 30
0.0
 10
121.4287
 20
63.7891
 30
0.0
 10
125.1005
 20
64.3199
 30
0.0
 10
127.8433
 20
66.4876
 30
0.0
 10
127.8433
 20
66.4876
 30
0.0
 10
127.8433
 20
66.6793
 30
0.0
 10
127.8433
 20
66.9595
 30
0.0
 10
127.8433
 20
67.1512
 30
0.0
 10
127.8433
 20
67.1512
 30
0.0
 10
125.8673
 20
68.0949
 30
0.0
 10
120.8388
 20
68.3751
 30
0.0
 10
118.5089
 20
67.4166
 30
0.0
  0
SPLINE
  5
7C
330
1F
100
AcDbEntity
  8
layer 1
 62
   250
100
AcDbSpline
210
0.0
220
0.0
230
1.0
 70
    11
 71
     3
 72
    32
 73
    28
 74
     0
 42
0.0000000001
 43
0.0000000001
 12
1.0
 22
0.0
 32
0.0
 13
1.0
 23
0.0
 33
0.0
 40
0.0
 40
0.0
 40
0.0
 40
0.0
 40
0.125
 40
0.125
 40
0.125
 40
0.125
 40
0.25
 40
0.25
 40
0.25
 40
0.25
 40
0.375
 40
0.375
 40
0.375
 40
0.375
 40
0.5
 40
0.5
 40
0.5
 40
0.5
 40
0.625
 40
0.625
 40
0.625
 40
0.625
 40
0.75
 40
0.75
 40
0.75
 40
0.75
 40
1.0
 40
1.0
 40
1.0
 40
1.0
 10
168.3659
 20
54.8529
 30
0.0
 10
165.1659
 20
54.0123
 30
0.0
 10
166.3899
 20
49.5885
 30
0.0
 10
168.1889
 20
49.2788
 30
0.0
 10
168.1889
 20
49.2788
 30
0.0
 10
165.0185
 20
49.2935
 30
0.0
 10
159.8131
 20
51.0335
 30
0.0
 10
156.6869
 20
53.9681
 30
0.0
 10
156.6869
 20
53.9681
 30
0.0
 10
157.9993
 20
55.251
 30
0.0
 10
160.9486
 20
55.3837
 30
0.0
 10
163.4112
 20
55.0298
 30
0.0
 10
163.4112
 20
55.0298
 30
0.0
 10
163.9273
 20
58.0675
 30
0.0
 10
156.7459
 20
59.203
 30
0.0
 10
152.7496
 20
57.9938
 30
0.0
 10
152.7496
 20
57.9938
 30
0.0
 10
151.9239
 20
59.7338
 30
0.0
 10
151.3635
 20
61.4739
 30
0.0
 10
151.334
 20
63.3909
 30
0.0
 10
151.334
 20
63.3909
 30
0.0
 10
153.9146
 20
61.8131
 30
0.0
 10
157.9993
 20
61.3854
 30
0.0
 10
160.6684
 20
61.4887
 30
0.0
 10
160.6684
 20
61.4887
 30
0.0
 10
161.155
 20
58.0085
 30
0.0
 10
165.0922
 20
55.4574
 30
0.0
 10
168.3659
 20
54.8529
 30
0.0
  0
SPLINE
  5
7D
330
1F
100
AcDbEntity
  8
layer 1
 62
   250
100
AcDbSpline
210
0.0
220
0.0
230
1.0
 70
    11
 71
     3
 72
    32
 73
    28
 74
     0
 42
0.0000000001
 43
0.0000000001
 12
1.0
 22
0.0
 32
0.0
 13
1.0
 23
0.0
 33
0.0
 40
0.0
 40
0.0
 40
0.0
 40
0.0
 40
0.125
 40
0.125
 40
0.125
 40
0.125
 40
0.25
 40
0.25
 40
0.25
 40
0.25
 40
0.375
 40
0.375
 40
0.375
 40
0.375
 40
0.5
 40
0.5
 40
0.5
 40
0.5
 40
0.625
 40
0.625
 40
0.625
 40
0.625
 40
0.75
 40
0.75
 40
0.75
 40
0.75
 40
1.0
 40
1.0
 40
1.0
 40
1.0
 10
110.7671
 20
54.8971
 30
0.0
 10
113.9671
 20
54.0566
 30
0.0
 10
112.7874
 20
49.7654
 30
0.0
 10
111.1653
 20
49.2788
 30
0.0
 10
111.1653
 20
49.2788
 30
0.0
 10
114.3357
 20
49.2935
 30
0.0
 10
119.4527
 20
50.9893
 30
0.0
 10
122.5789
 20
53.9238
 30
0.0
 10
122.5789
 20
53.9238
 30
0.0
 10
121.2664
 20
55.2068
 30
0.0
 10
118.0517
 20
55.6491
 30
0.0
 10
115.5007
 20
55.1625
 30
0.0
 10
115.5007
 20
55.1625
 30
0.0
 10
114.9845
 20
58.2002
 30
0.0
 10
122.6083
 20
59.203
 30
0.0
 10
126.6046
 20
57.9938
 30
0.0
 10
126.6046
 20
57.9938
 30
0.0
 10
127.4303
 20
59.7338
 30
0.0
 10
127.9907
 20
61.6066
 30
0.0
 10
128.0202
 20
63.5236
 30
0.0
 10
128.0202
 20
63.5236
 30
0.0
 10
125.4396
 20
61.9458
 30
0.0
 10
121.3107
 20
61.3412
 30
0.0
 10
118.6416
 20
61.4444
 30
0.0
 10
118.6416
 20
61.4444
 30
0.0
 10
117.8896
 20
57.9643
 30
0.0
 10
115.1025
 20
55.8556
 30
0.0
 10
110.7671
 20
54.8971
 30
0.0
  0
SPLINE
  5
7E
330
1F
100
AcDbEntity
  8
layer 1
 62
   250
100
AcDbSpline
210
0.0
220
0.0
230
1.0
 70
    11
 71
     3
 72
    36
 73
    32
 74
     0
 42
0.0000000001
 43
0.0000000001
 12
1.0
 22
0.0
 32
0.0
 13
1.0
 23
0.0
 33
0.0
 40
0.0
 40
0.0
 40
0.0
 40
0.0
 40
0.1111111111111111
 40
0.1111111111111111
 40
0.1111111111111111
 40
0.1111111111111111
 40
0.2222222222222222
 40
0.2222222222222222
 40
0.2222222222222222
 40
0.2222222222222222
 40
0.3333333333333333
 40
0.3333333333333333
 40
0.3333333333333333
 40
0.3333333333333333
 40
0.4444444444444444
 40
0.4444444444444444
 40
0.4444444444444444
 40
0.4444444444444444
 40
0.5555555555555556
 40
0.5555555555555556
 40
0.5555555555555556
 40
0.5555555555555556
 40
0.6666666666666666
 40
0.6666666666666666
 40
0.6666666666666666
 40
0.6666666666666666
 40
0.7777777777777778
 40
0.7777777777777778
 40
0.7777777777777778
 40
0.7777777777777778
 40
1.0
 40
1.0
 40
1.0
 40
1.0
 10
167.1714
 20
62.6831
 30
0.0
 10
166.336
 20
60.3451
 30
0.0
 10
166.7727
 20
58.4644
 30
0.0
 10
170.1904
 20
57.2871
 30
0.0
 10
170.1904
 20
57.2871
 30
0.0
 10
174.9468
 20
55.6487
 30
0.0
 10
174.6035
 20
51.2897
 30
0.0
 10
172.4801
 20
49.9866
 30
0.0
 10
172.4801
 20
49.9866
 30
0.0
 10
173.9252
 20
50.2815
 30
0.0
 10
175.503
 20
50.7534
 30
0.0
 10
176.4173
 20
51.4022
 30
0.0
 10
176.4173
 20
51.4022
 30
0.0
 10
176.2369
 20
54.2497
 30
0.0
 10
175.5326
 20
56.8613
 30
0.0
 10
173.8957
 20
59.2325
 30
0.0
 10
173.8957
 20
59.2325
 30
0.0
 10
173.6524
 20
58.1929
 30
0.0
 10
172.1395
 20
57.0678
 30
0.0
 10
170.3566
 20
58.8398
 30
0.0
 10
170.3566
 20
58.8398
 30
0.0
 10
169.0826
 20
60.106
 30
0.0
 10
169.9806
 20
62.0638
 30
0.0
 10
171.0645
 20
62.285
 30
0.0
 10
171.0645
 20
62.285
 30
0.0
 10
170.5336
 20
62.8895
 30
0.0
 10
170.0027
 20
63.4499
 30
0.0
 10
169.3391
 20
63.966
 30
0.0
 10
169.3391
 20
63.966
 30
0.0
 10
168.7493
 20
63.4941
 30
0.0
 10
167.9383
 20
63.0222
 30
0.0
 10
167.1714
 20
62.6831
 30
0.0
  0
SPLINE
  5
7F
330
1F
100
AcDbEntity
  8
layer 1
 62
   250
100
AcDbSpline
210
0.0
220
0.0
230
1.0
 70
    11
 71
     3
 72
    36
 73
    32
 74
     0
 42
0.0000000001
 43
0.0000000001
 12
1.0
 22
0.0
 32
0.0
 13
1.0
 23
0.0
 33
0.0
 40
0.0
 40
0.0
 40
0.0
 40
0.0
 40
0.1111111111111111
 40
0.1111111111111111
 40
0.1111111111111111
 40
0.1111111111111111
 40
0.2222222222222222
 40
0.2222222222222222
 40
0.2222222222222222
 40
0.2222222222222222
 40
0.3333333333333333
 40
0.3333333333333333
 40
0.3333333333333333
 40
0.3333333333333333
 40
0.4444444444444444
 40
0.4444444444444444
 40
0.4444444444444444
 40
0.4444444444444444
 40
0.5555555555555556
 40
0.5555555555555556
 40
0.5555555555555556
 40
0.5555555555555556
 40
0.6666666666666666
 40
0.6666666666666666
 40
0.6666666666666666
 40
0.6666666666666666
 40
0.7777777777777778
 40
0.7777777777777778
 40
0.7777777777777778
 40
0.7777777777777778
 40
1.0
 40
1.0
 40
1.0
 40
1.0
 10
112.0041
 20
62.7583
 30
0.0
 10
113.1402
 20
60.7963
 30
0.0
 10
112.5531
 20
58.5395
 30
0.0
 10
109.1355
 20
57.3623
 30
0.0
 10
109.1355
 20
57.3623
 30
0.0
 10
104.3791
 20
55.7239
 30
0.0
 10
104.8727
 20
51.4401
 30
0.0
 10
106.545
 20
50.0618
 30
0.0
 10
106.545
 20
50.0618
 30
0.0
 10
105.1
 20
50.3567
 30
0.0
 10
103.8228
 20
50.8286
 30
0.0
 10
102.9086
 20
51.4774
 30
0.0
 10
102.9086
 20
51.4774
 30
0.0
 10
103.089
 20
54.3249
 30
0.0
 10
103.9437
 20
57.162
 30
0.0
 10
105.2046
 20
58.7062
 30
0.0
 10
105.2046
 20
58.7062
 30
0.0
 10
105.7486
 20
57.6666
 30
0.0
 10
107.4414
 20
56.979
 30
0.0
 10
109.0445
 20
58.915
 30
0.0
 10
109.0445
 20
58.915
 30
0.0
 10
110.0928
 20
60.1811
 30
0.0
 10
109.3453
 20
62.1389
 30
0.0
 10
108.2614
 20
62.3601
 30
0.0
 10
108.2614
 20
62.3601
 30
0.0
 10
108.7923
 20
62.9647
 30
0.0
 10
109.1728
 20
63.2995
 30
0.0
 10
109.8364
 20
63.8156
 30
0.0
 10
109.8364
 20
63.8156
 30
0.0
 10
110.4262
 20
63.3437
 30
0.0
 10
111.162
 20
63.0222
 30
0.0
 10
112.0041
 20
62.7583
 30
0.0
  0
SPLINE
  5
80
330
1F
100
AcDbEntity
  8
layer 1
 62
   250
100
AcDbSpline
210
0.0
220
0.0
230
1.0
 70
    11
 71
     3
 72
    24
 73
    20
 74
     0
 42
0.0000000001
 43
0.0000000001
 12
1.0
 22
0.0
 32
0.0
 13
1.0
 23
0.0
 33
0.0
 40
0.0
 40
0.0
 40
0.0
 40
0.0
 40
0.1666666666666667
 40
0.1666666666666667
 40
0.1666666666666667
 40
0.1666666666666667
 40
0.3333333333333333
 40
0.3333333333333333
 40
0.3333333333333333
 40
0.3333333333333333
 40
0.5
 40
0.5
 40
0.5
 40
0.5
 40
0.6666666666666666
 40
0.6666666666666666
 40
0.6666666666666666
 40
0.6666666666666666
 40
1.0
 40
1.0
 40
1.0
 40
1.0
 10
148.2879
 20
74.1025
 30
0.0
 10
148.4523
 20
74.3016
 30
0.0
 10
148.5884
 20
74.6743
 30
0.0
 10
148.4775
 20
75.2471
 30
0.0
 10
148.4775
 20
75.2471
 30
0.0
 10
149.1153
 20
75.3426
 30
0.0
 10
150.2577
 20
74.3925
 30
0.0
 10
150.3938
 20
73.4193
 30
0.0
 10
150.3938
 20
73.4193
 30
0.0
 10
150.5606
 20
73.8734
 30
0.0
 10
150.7552
 20
74.3275
 30
0.0
 10
150.922
 20
74.7817
 30
0.0
 10
150.922
 20
74.7817
 30
0.0
 10
150.0787
 20
75.3099
 30
0.0
 10
149.2354
 20
75.7825
 30
0.0
 10
148.3642
 20
76.422
 30
0.0
 10
148.3642
 20
76.422
 30
0.0
 10
148.2994
 20
76.0976
 30
0.0
 10
148.1969
 20
74.9276
 30
0.0
 10
148.2879
 20
74.1025
 30
0.0
  0
SPLINE
  5
81
330
1F
100
AcDbEntity
  8
layer 1
 62
   250
100
AcDbSpline
210
0.0
220
0.0
230
1.0
 70
    11
 71
     3
 72
    24
 73
    20
 74
     0
 42
0.0000000001
 43
0.0000000001
 12
1.0
 22
0.0
 32
0.0
 13
1.0
 23
0.0
 33
0.0
 40
0.0
 40
0.0
 40
0.0
 40
0.0
 40
0.1666666666666667
 40
0.1666666666666667
 40
0.1666666666666667
 40
0.1666666666666667
 40
0.3333333333333333
 40
0.3333333333333333
 40
0.3333333333333333
 40
0.3333333333333333
 40
0.5
 40
0.5
 40
0.5
 40
0.5
 40
0.6666666666666666
 40
0.6666666666666666
 40
0.6666666666666666
 40
0.6666666666666666
 40
1.0
 40
1.0
 40
1.0
 40
1.0
 10
130.8355
 20
73.9439
 30
0.0
 10
130.6608
 20
74.1845
 30
0.0
 10
130.4979
 20
74.6438
 30
0.0
 10
130.5428
 20
75.1448
 30
0.0
 10
130.5428
 20
75.1448
 30
0.0
 10
129.9229
 20
75.2136
 30
0.0
 10
128.9382
 20
74.4203
 30
0.0
 10
128.8021
 20
73.4471
 30
0.0
 10
128.8021
 20
73.4471
 30
0.0
 10
128.6353
 20
73.9012
 30
0.0
 10
128.4407
 20
74.3553
 30
0.0
 10
128.2739
 20
74.8095
 30
0.0
 10
128.2739
 20
74.8095
 30
0.0
 10
129.1172
 20
75.3377
 30
0.0
 10
129.9916
 20
75.8207
 30
0.0
 10
130.8628
 20
76.4602
 30
0.0
 10
130.8628
 20
76.4602
 30
0.0
 10
131.0104
 20
75.7527
 30
0.0
 10
130.9783
 20
74.4999
 30
0.0
 10
130.8355
 20
73.9439
 30
0.0
  0
SPLINE
  5
82
330
1F
100
AcDbEntity
  8
layer 1
 62
   250
100
AcDbSpline
210
0.0
220
0.0
230
1.0
 70
    11
 71
     3
 72
    20
 73
    16
 74
     0
 42
0.0000000001
 43
0.0000000001
 12
1.0
 22
0.0
 32
0.0
 13
1.0
 23
0.0
 33
0.0
 40
0.0
 40
0.0
 40
0.0
 40
0.0
 40
0.2
 40
0.2
 40
0.2
 40
0.2
 40
0.4
 40
0.4
 40
0.4
 40
0.4
 40
0.6
 40
0.6
 40
0.6
 40
0.6
 40
1.0
 40
1.0
 40
1.0
 40
1.0
 10
173.9643
 20
42.1182
 30
0.0
 10
174.0229
 20
45.6466
 30
0.0
 10
169.545
 20
46.7837
 30
0.0
 10
167.9508
 20
45.3184
 30
0.0
 10
167.9508
 20
45.3184
 30
0.0
 10
167.5991
 20
45.9982
 30
0.0
 10
167.1068
 20
46.5375
 30
0.0
 10
166.4386
 20
47.1119
 30
0.0
 10
166.4386
 20
47.1119
 30
0.0
 10
168.8768
 20
46.8071
 30
0.0
 10
172.7569
 20
46.8188
 30
0.0
 10
176.3205
 20
48.3427
 30
0.0
 10
176.3205
 20
48.3427
 30
0.0
 10
176.1446
 20
46.1272
 30
0.0
 10
175.0896
 20
43.5952
 30
0.0
 10
173.9643
 20
42.1182
 30
0.0
  0
SPLINE
  5
83
330
1F
100
AcDbEntity
  8
layer 1
 62
   250
100
AcDbSpline
210
0.0
220
0.0
230
1.0
 70
    11
 71
     3
 72
    20
 73
    16
 74
     0
 42
0.0000000001
 43
0.0000000001
 12
1.0
 22
0.0
 32
0.0
 13
1.0
 23
0.0
 33
0.0
 40
0.0
 40
0.0
 40
0.0
 40
0.0
 40
0.2
 40
0.2
 40
0.2
 40
0.2
 40
0.4
 40
0.4
 40
0.4
 40
0.4
 40
0.6
 40
0.6
 40
0.6
 40
0.6
 40
1.0
 40
1.0
 40
1.0
 40
1.0
 10
181.3142
 20
38.7422
 30
0.0
 10
180.4584
 20
39.4221
 30
0.0
 10
177.8795
 20
40.4185
 30
0.0
 10
176.5666
 20
40.817
 30
0.0
 10
176.5666
 20
40.817
 30
0.0
 10
177.3051
 20
42.1299
 30
0.0
 10
178.6063
 20
45.5176
 30
0.0
 10
178.747
 20
47.4636
 30
0.0
 10
178.747
 20
47.4636
 30
0.0
 10
180.1653
 20
46.4554
 30
0.0
 10
182.7443
 20
42.9505
 30
0.0
 10
183.7758
 20
40.817
 30
0.0
 10
183.7758
 20
40.817
 30
0.0
 10
182.9318
 20
40.3247
 30
0.0
 10
182.0175
 20
39.5862
 30
0.0
 10
181.3142
 20
38.7422
 30
0.0
  0
SPLINE
  5
84
330
1F
100
AcDbEntity
  8
layer 1
 62
   250
100
AcDbSpline
210
0.0
220
0.0
230
1.0
 70
    11
 71
     3
 72
    20
 73
    16
 74
     0
 42
0.0000000001
 43
0.0000000001
 12
1.0
 22
0.0
 32
0.0
 13
1.0
 23
0.0
 33
0.0
 40
0.0
 40
0.0
 40
0.0
 40
0.0
 40
0.2
 40
0.2
 40
0.2
 40
0.2
 40
0.4
 40
0.4
 40
0.4
 40
0.4
 40
0.6
 40
0.6
 40
0.6
 40
0.6
 40
1.0
 40
1.0
 40
1.0
 40
1.0
 10
105.2835
 20
42.083
 30
0.0
 10
105.4008
 20
45.928
 30
0.0
 10
109.738
 20
46.643
 30
0.0
 10
111.3322
 20
45.1777
 30
0.0
 10
111.3322
 20
45.1777
 30
0.0
 10
111.6839
 20
45.8576
 30
0.0
 10
112.2114
 20
46.5375
 30
0.0
 10
112.9851
 20
47.1119
 30
0.0
 10
112.9851
 20
47.1119
 30
0.0
 10
110.5469
 20
46.8071
 30
0.0
 10
106.6668
 20
46.8188
 30
0.0
 10
103.1032
 20
48.3427
 30
0.0
 10
103.1032
 20
48.3427
 30
0.0
 10
103.279
 20
46.1272
 30
0.0
 10
104.1582
 20
43.56
 30
0.0
 10
105.2835
 20
42.083
 30
0.0
  0
SPLINE
  5
85
330
1F
100
AcDbEntity
  8
layer 1
 62
   250
100
AcDbSpline
210
0.0
220
0.0
230
1.0
 70
    11
 71
     3
 72
    20
 73
    16
 74
     0
 42
0.0000000001
 43
0.0000000001
 12
1.0
 22
0.0
 32
0.0
 13
1.0
 23
0.0
 33
0.0
 40
0.0
 40
0.0
 40
0.0
 40
0.0
 40
0.2
 40
0.2
 40
0.2
 40
0.2
 40
0.4
 40
0.4
 40
0.4
 40
0.4
 40
0.6
 40
0.6
 40
0.6
 40
0.6
 40
1.0
 40
1.0
 40
1.0
 40
1.0
 10
98.1095
 20
38.7422
 30
0.0
 10
98.9652
 20
39.4221
 30
0.0
 10
101.5442
 20
40.4185
 30
0.0
 10
102.857
 20
40.817
 30
0.0
 10
102.857
 20
40.817
 30
0.0
 10
102.1185
 20
42.1299
 30
0.0
 10
100.7118
 20
45.5176
 30
0.0
 10
100.5712
 20
47.4636
 30
0.0
 10
100.5712
 20
47.4636
 30
0.0
 10
99.1528
 20
46.4554
 30
0.0
 10
96.6794
 20
42.9505
 30
0.0
 10
95.6478
 20
40.817
 30
0.0
 10
95.6478
 20
40.817
 30
0.0
 10
96.4918
 20
40.3247
 30
0.0
 10
97.4062
 20
39.5862
 30
0.0
 10
98.1095
 20
38.7422
 30
0.0
  0
SPLINE
  5
86
330
1F
100
AcDbEntity
  8
layer 1
 62
   250
100
AcDbSpline
210
0.0
220
0.0
230
1.0
 70
    11
 71
     3
 72
    28
 73
    24
 74
     0
 42
0.0000000001
 43
0.0000000001
 12
1.0
 22
0.0
 32
0.0
 13
1.0
 23
0.0
 33
0.0
 40
0.0
 40
0.0
 40
0.0
 40
0.0
 40
0.1428571428571428
 40
0.1428571428571428
 40
0.1428571428571428
 40
0.1428571428571428
 40
0.2857142857142857
 40
0.2857142857142857
 40
0.2857142857142857
 40
0.2857142857142857
 40
0.4285714285714285
 40
0.4285714285714285
 40
0.4285714285714285
 40
0.4285714285714285
 40
0.5714285714285714
 40
0.5714285714285714
 40
0.5714285714285714
 40
0.5714285714285714
 40
0.7142857142857143
 40
0.7142857142857143
 40
0.7142857142857143
 40
0.7142857142857143
 40
1.0
 40
1.0
 40
1.0
 40
1.0
 10
154.0605
 20
35.9702
 30
0.0
 10
153.0996
 20
35.1132
 30
0.0
 10
152.3724
 20
34.2951
 30
0.0
 10
151.6063
 20
33.2433
 30
0.0
 10
151.6063
 20
33.2433
 30
0.0
 10
146.2175
 20
34.5808
 30
0.0
 10
142.4648
 20
39.658
 30
0.0
 10
141.5947
 20
44.1898
 30
0.0
 10
141.5947
 20
44.1898
 30
0.0
 10
142.2444
 20
44.1037
 30
0.0
 10
142.7608
 20
44.1985
 30
0.0
 10
143.5552
 20
44.5857
 30
0.0
 10
143.5552
 20
44.5857
 30
0.0
 10
144.8513
 20
45.2176
 30
0.0
 10
145.6973
 20
44.9612
 30
0.0
 10
145.9554
 20
41.9182
 30
0.0
 10
145.9554
 20
41.9182
 30
0.0
 10
146.2597
 20
38.3289
 30
0.0
 10
150.333
 20
37.6282
 30
0.0
 10
151.2168
 20
40.0605
 30
0.0
 10
151.2168
 20
40.0605
 30
0.0
 10
151.7751
 20
38.6971
 30
0.0
 10
152.9957
 20
36.9441
 30
0.0
 10
154.0605
 20
35.9702
 30
0.0
  0
SPLINE
  5
87
330
1F
100
AcDbEntity
  8
layer 1
 62
   250
100
AcDbSpline
210
0.0
220
0.0
230
1.0
 70
    11
 71
     3
 72
    28
 73
    24
 74
     0
 42
0.0000000001
 43
0.0000000001
 12
1.0
 22
0.0
 32
0.0
 13
1.0
 23
0.0
 33
0.0
 40
0.0
 40
0.0
 40
0.0
 40
0.0
 40
0.1428571428571428
 40
0.1428571428571428
 40
0.1428571428571428
 40
0.1428571428571428
 40
0.2857142857142857
 40
0.2857142857142857
 40
0.2857142857142857
 40
0.2857142857142857
 40
0.4285714285714285
 40
0.4285714285714285
 40
0.4285714285714285
 40
0.4285714285714285
 40
0.5714285714285714
 40
0.5714285714285714
 40
0.5714285714285714
 40
0.5714285714285714
 40
0.7142857142857143
 40
0.7142857142857143
 40
0.7142857142857143
 40
0.7142857142857143
 40
1.0
 40
1.0
 40
1.0
 40
1.0
 10
125.1432
 20
36.1346
 30
0.0
 10
126.1041
 20
35.2775
 30
0.0
 10
126.9135
 20
34.4184
 30
0.0
 10
127.6796
 20
33.3666
 30
0.0
 10
127.6796
 20
33.3666
 30
0.0
 10
133.1095
 20
34.6219
 30
0.0
 10
136.5335
 20
39.658
 30
0.0
 10
137.4035
 20
44.1898
 30
0.0
 10
137.4035
 20
44.1898
 30
0.0
 10
136.7539
 20
44.1037
 30
0.0
 10
136.0729
 20
44.1986
 30
0.0
 10
135.2787
 20
44.5857
 30
0.0
 10
135.2787
 20
44.5857
 30
0.0
 10
133.9826
 20
45.2175
 30
0.0
 10
133.3008
 20
44.7145
 30
0.0
 10
132.9607
 20
41.7538
 30
0.0
 10
132.9607
 20
41.7538
 30
0.0
 10
132.5496
 20
38.1753
 30
0.0
 10
128.7474
 20
37.8337
 30
0.0
 10
127.6582
 20
39.8551
 30
0.0
 10
127.6582
 20
39.8551
 30
0.0
 10
127.0999
 20
38.4916
 30
0.0
 10
126.208
 20
37.1085
 30
0.0
 10
125.1432
 20
36.1346
 30
0.0
  0
SPLINE
  5
88
330
1F
100
AcDbEntity
  8
layer 1
 62
   250
100
AcDbSpline
210
0.0
220
0.0
230
1.0
 70
    11
 71
     3
 72
    32
 73
    28
 74
     0
 42
0.0000000001
 43
0.0000000001
 12
1.0
 22
0.0
 32
0.0
 13
1.0
 23
0.0
 33
0.0
 40
0.0
 40
0.0
 40
0.0
 40
0.0
 40
0.125
 40
0.125
 40
0.125
 40
0.125
 40
0.25
 40
0.25
 40
0.25
 40
0.25
 40
0.375
 40
0.375
 40
0.375
 40
0.375
 40
0.5
 40
0.5
 40
0.5
 40
0.5
 40
0.625
 40
0.625
 40
0.625
 40
0.625
 40
0.75
 40
0.75
 40
0.75
 40
0.75
 40
1.0
 40
1.0
 40
1.0
 40
1.0
 10
162.6564
 20
40.3685
 30
0.0
 10
160.2594
 20
39.9027
 30
0.0
 10
157.646
 20
38.7257
 30
0.0
 10
156.0488
 20
37.5284
 30
0.0
 10
156.0488
 20
37.5284
 30
0.0
 10
152.2959
 20
41.6374
 30
0.0
 10
152.0277
 20
48.5865
 30
0.0
 10
154.6438
 20
52.1613
 30
0.0
 10
154.6438
 20
52.1613
 30
0.0
 10
155.2328
 20
51.3669
 30
0.0
 10
156.2326
 20
50.9012
 30
0.0
 10
157.0681
 20
50.2712
 30
0.0
 10
157.0681
 20
50.2712
 30
0.0
 10
154.998
 20
49.9157
 30
0.0
 10
154.3659
 20
46.8148
 30
0.0
 10
156.7844
 20
45.2951
 30
0.0
 10
156.7844
 20
45.2951
 30
0.0
 10
159.6898
 20
43.4695
 30
0.0
 10
161.8294
 20
45.9798
 30
0.0
 10
161.095
 20
47.9701
 30
0.0
 10
161.095
 20
47.9701
 30
0.0
 10
163.122
 20
47.2716
 30
0.0
 10
164.9437
 20
45.8745
 30
0.0
 10
166.0669
 20
44.0255
 30
0.0
 10
166.0669
 20
44.0255
 30
0.0
 10
164.0671
 20
44.4911
 30
0.0
 10
162.2729
 20
42.5325
 30
0.0
 10
162.6564
 20
40.3685
 30
0.0
  0
SPLINE
  5
89
330
1F
100
AcDbEntity
  8
layer 1
 62
   250
100
AcDbSpline
210
0.0
220
0.0
230
1.0
 70
    11
 71
     3
 72
    32
 73
    28
 74
     0
 42
0.0000000001
 43
0.0000000001
 12
1.0
 22
0.0
 32
0.0
 13
1.0
 23
0.0
 33
0.0
 40
0.0
 40
0.0
 40
0.0
 40
0.0
 40
0.125
 40
0.125
 40
0.125
 40
0.125
 40
0.25
 40
0.25
 40
0.25
 40
0.25
 40
0.375
 40
0.375
 40
0.375
 40
0.375
 40
0.5
 40
0.5
 40
0.5
 40
0.5
 40
0.625
 40
0.625
 40
0.625
 40
0.625
 40
0.75
 40
0.75
 40
0.75
 40
0.75
 40
1.0
 40
1.0
 40
1.0
 40
1.0
 10
116.4772
 20
40.4917
 30
0.0
 10
118.34
 20
40.1904
 30
0.0
 10
121.4354
 20
39.1083
 30
0.0
 10
122.9694
 20
37.8619
 30
0.0
 10
122.9694
 20
37.8619
 30
0.0
 10
126.7223
 20
41.971
 30
0.0
 10
127.0237
 20
48.5043
 30
0.0
 10
124.4076
 20
52.0792
 30
0.0
 10
124.4076
 20
52.0792
 30
0.0
 10
123.8186
 20
51.408
 30
0.0
 10
123.3119
 20
50.9834
 30
0.0
 10
122.4764
 20
50.4766
 30
0.0
 10
122.4764
 20
50.4766
 30
0.0
 10
124.1766
 20
50.1212
 30
0.0
 10
125.0078
 20
46.6456
 30
0.0
 10
122.5135
 20
45.254
 30
0.0
 10
122.5135
 20
45.254
 30
0.0
 10
119.9781
 20
43.8395
 30
0.0
 10
117.3042
 20
45.8566
 30
0.0
 10
118.0386
 20
47.8469
 30
0.0
 10
118.0386
 20
47.8469
 30
0.0
 10
116.0115
 20
47.1483
 30
0.0
 10
114.6008
 20
46.1211
 30
0.0
 10
113.4776
 20
44.272
 30
0.0
 10
113.4776
 20
44.272
 30
0.0
 10
115.4774
 20
44.4911
 30
0.0
 10
116.8607
 20
42.6558
 30
0.0
 10
116.4772
 20
40.4917
 30
0.0
  0
SPLINE
  5
8A
330
1F
100
AcDbEntity
  8
layer 1
 62
   250
100
AcDbSpline
210
0.0
220
0.0
230
1.0
 70
    11
 71
     3
 72
    36
 73
    32
 74
     0
 42
0.0000000001
 43
0.0000000001
 12
1.0
 22
0.0
 32
0.0
 13
1.0
 23
0.0
 33
0.0
 40
0.0
 40
0.0
 40
0.0
 40
0.0
 40
0.1111111111111111
 40
0.1111111111111111
 40
0.1111111111111111
 40
0.1111111111111111
 40
0.2222222222222222
 40
0.2222222222222222
 40
0.2222222222222222
 40
0.2222222222222222
 40
0.3333333333333333
 40
0.3333333333333333
 40
0.3333333333333333
 40
0.3333333333333333
 40
0.4444444444444444
 40
0.4444444444444444
 40
0.4444444444444444
 40
0.4444444444444444
 40
0.5555555555555556
 40
0.5555555555555556
 40
0.5555555555555556
 40
0.5555555555555556
 40
0.6666666666666666
 40
0.6666666666666666
 40
0.6666666666666666
 40
0.6666666666666666
 40
0.7777777777777778
 40
0.7777777777777778
 40
0.7777777777777778
 40
0.7777777777777778
 40
1.0
 40
1.0
 40
1.0
 40
1.0
 10
143.2207
 20
26.1923
 30
0.0
 10
143.6148
 20
27.0771
 30
0.0
 10
143.5268
 20
29.3194
 30
0.0
 10
141.8238
 20
30.7299
 30
0.0
 10
141.8238
 20
30.7299
 30
0.0
 10
139.6692
 20
32.5144
 30
0.0
 10
140.7634
 20
33.8935
 30
0.0
 10
139.3459
 20
33.9815
 30
0.0
 10
139.3459
 20
33.9815
 30
0.0
 10
137.8917
 20
34.0717
 30
0.0
 10
138.7277
 20
32.1504
 30
0.0
 10
137.4913
 20
31.2287
 30
0.0
 10
137.4913
 20
31.2287
 30
0.0
 10
135.6975
 20
29.8914
 30
0.0
 10
134.9979
 20
27.8098
 30
0.0
 10
135.3725
 20
26.6032
 30
0.0
 10
135.3725
 20
26.6032
 30
0.0
 10
134.7836
 20
27.2743
 30
0.0
 10
134.2357
 20
27.9044
 30
0.0
 10
133.4823
 20
28.5756
 30
0.0
 10
133.4823
 20
28.5756
 30
0.0
 10
136.0847
 20
31.3423
 30
0.0
 10
138.7693
 20
36.1635
 30
0.0
 10
139.5226
 20
40.6561
 30
0.0
 10
139.5226
 20
40.6561
 30
0.0
 10
140.18
 20
35.8622
 30
0.0
 10
143.1385
 20
31.3971
 30
0.0
 10
145.7272
 20
28.4523
 30
0.0
 10
145.7272
 20
28.4523
 30
0.0
 10
144.8917
 20
27.699
 30
0.0
 10
144.0562
 20
26.9456
 30
0.0
 10
143.2207
 20
26.1923
 30
0.0
  0
SPLINE
  5
8B
330
1F
100
AcDbEntity
  8
layer 1
 62
   250
100
AcDbSpline
210
0.0
220
0.0
230
1.0
 70
    11
 71
     3
 72
    48
 73
    44
 74
     0
 42
0.0000000001
 43
0.0000000001
 12
1.0
 22
0.0
 32
0.0
 13
1.0
 23
0.0
 33
0.0
 40
0.0
 40
0.0
 40
0.0
 40
0.0
 40
0.0833333333333333
 40
0.0833333333333333
 40
0.0833333333333333
 40
0.0833333333333333
 40
0.1666666666666667
 40
0.1666666666666667
 40
0.1666666666666667
 40
0.1666666666666667
 40
0.25
 40
0.25
 40
0.25
 40
0.25
 40
0.3333333333333333
 40
0.3333333333333333
 40
0.3333333333333333
 40
0.3333333333333333
 40
0.4166666666666667
 40
0.4166666666666667
 40
0.4166666666666667
 40
0.4166666666666667
 40
0.5
 40
0.5
 40
0.5
 40
0.5
 40
0.5833333333333334
 40
0.5833333333333334
 40
0.5833333333333334
 40
0.5833333333333334
 40
0.6666666666666666
 40
0.6666666666666666
 40
0.6666666666666666
 40
0.6666666666666666
 40
0.75
 40
0.75
 40
0.75
 40
0.75
 40
0.8333333333333334
 40
0.8333333333333334
 40
0.8333333333333334
 40
0.8333333333333334
 40
1.0
 40
1.0
 40
1.0
 40
1.0
 10
165.9847
 20
30.0137
 30
0.0
 10
162.8618
 20
31.4519
 30
0.0
 10
157.931
 20
32.4791
 30
0.0
 10
154.3973
 20
32.6024
 30
0.0
 10
154.3973
 20
32.6024
 30
0.0
 10
154.7534
 20
33.2188
 30
0.0
 10
155.5614
 20
33.8762
 30
0.0
 10
156.2463
 20
34.4104
 30
0.0
 10
156.2463
 20
34.4104
 30
0.0
 10
161.9168
 20
32.5065
 30
0.0
 10
165.4505
 20
32.7804
 30
0.0
 10
169.7239
 20
34.4926
 30
0.0
 10
169.7239
 20
34.4926
 30
0.0
 10
170.2948
 20
34.2071
 30
0.0
 10
171.7046
 20
33.4782
 30
0.0
 10
172.1151
 20
32.4645
 30
0.0
 10
172.1151
 20
32.4645
 30
0.0
 10
172.6039
 20
31.2572
 30
0.0
 10
174.1708
 20
31.8271
 30
0.0
 10
174.0165
 20
32.7708
 30
0.0
 10
174.0165
 20
32.7708
 30
0.0
 10
173.7277
 20
34.5366
 30
0.0
 10
174.2193
 20
37.4762
 30
0.0
 10
174.2438
 20
38.1496
 30
0.0
 10
174.2438
 20
38.1496
 30
0.0
 10
176.1613
 20
38.0811
 30
0.0
 10
178.2426
 20
37.4373
 30
0.0
 10
180.037
 20
36.6292
 30
0.0
 10
180.037
 20
36.6292
 30
0.0
 10
178.971
 20
34.6837
 30
0.0
 10
178.9281
 20
32.4928
 30
0.0
 10
179.4212
 20
30.4246
 30
0.0
 10
179.4212
 20
30.4246
 30
0.0
 10
179.0925
 20
30.2329
 30
0.0
 10
178.8459
 20
29.7535
 30
0.0
 10
178.8459
 20
29.4385
 30
0.0
 10
178.8459
 20
29.4385
 30
0.0
 10
176.9283
 20
30.5342
 30
0.0
 10
174.0247
 20
30.9314
 30
0.0
 10
171.6551
 20
30.5479
 30
0.0
 10
171.6551
 20
30.5479
 30
0.0
 10
170.7785
 20
32.7531
 30
0.0
 10
166.6147
 20
33.1914
 30
0.0
 10
165.9847
 20
30.0137
 30
0.0
  0
SPLINE
  5
8C
330
1F
100
AcDbEntity
  8
layer 1
 62
   250
100
AcDbSpline
210
0.0
220
0.0
230
1.0
 70
    11
 71
     3
 72
    48
 73
    44
 74
     0
 42
0.0000000001
 43
0.0000000001
 12
1.0
 22
0.0
 32
0.0
 13
1.0
 23
0.0
 33
0.0
 40
0.0
 40
0.0
 40
0.0
 40
0.0
 40
0.0833333333333333
 40
0.0833333333333333
 40
0.0833333333333333
 40
0.0833333333333333
 40
0.1666666666666667
 40
0.1666666666666667
 40
0.1666666666666667
 40
0.1666666666666667
 40
0.25
 40
0.25
 40
0.25
 40
0.25
 40
0.3333333333333333
 40
0.3333333333333333
 40
0.3333333333333333
 40
0.3333333333333333
 40
0.4166666666666667
 40
0.4166666666666667
 40
0.4166666666666667
 40
0.4166666666666667
 40
0.5
 40
0.5
 40
0.5
 40
0.5
 40
0.5833333333333334
 40
0.5833333333333334
 40
0.5833333333333334
 40
0.5833333333333334
 40
0.6666666666666666
 40
0.6666666666666666
 40
0.6666666666666666
 40
0.6666666666666666
 40
0.75
 40
0.75
 40
0.75
 40
0.75
 40
0.8333333333333334
 40
0.8333333333333334
 40
0.8333333333333334
 40
0.8333333333333334
 40
1.0
 40
1.0
 40
1.0
 40
1.0
 10
113.1427
 20
30.0137
 30
0.0
 10
116.2655
 20
31.4519
 30
0.0
 10
121.1964
 20
32.4791
 30
0.0
 10
124.7301
 20
32.6024
 30
0.0
 10
124.7301
 20
32.6024
 30
0.0
 10
124.374
 20
33.2188
 30
0.0
 10
123.5659
 20
33.8762
 30
0.0
 10
122.8811
 20
34.4104
 30
0.0
 10
122.8811
 20
34.4104
 30
0.0
 10
117.2106
 20
32.5065
 30
0.0
 10
113.6769
 20
32.7804
 30
0.0
 10
109.4035
 20
34.4926
 30
0.0
 10
109.4035
 20
34.4926
 30
0.0
 10
108.8325
 20
34.2071
 30
0.0
 10
107.4228
 20
33.4782
 30
0.0
 10
107.0123
 20
32.4645
 30
0.0
 10
107.0123
 20
32.4645
 30
0.0
 10
106.5235
 20
31.2572
 30
0.0
 10
104.9566
 20
31.8271
 30
0.0
 10
105.1109
 20
32.7708
 30
0.0
 10
105.1109
 20
32.7708
 30
0.0
 10
105.3997
 20
34.5366
 30
0.0
 10
104.9081
 20
37.4762
 30
0.0
 10
104.8836
 20
38.1496
 30
0.0
 10
104.8836
 20
38.1496
 30
0.0
 10
102.966
 20
38.0811
 30
0.0
 10
100.8431
 20
37.4373
 30
0.0
 10
99.0488
 20
36.6292
 30
0.0
 10
99.0488
 20
36.6292
 30
0.0
 10
100.2815
 20
34.7254
 30
0.0
 10
100.1993
 20
32.4928
 30
0.0
 10
99.7062
 20
30.4246
 30
0.0
 10
99.7062
 20
30.4246
 30
0.0
 10
100.0349
 20
30.2329
 30
0.0
 10
100.2815
 20
29.7535
 30
0.0
 10
100.2815
 20
29.4385
 30
0.0
 10
100.2815
 20
29.4385
 30
0.0
 10
102.199
 20
30.5342
 30
0.0
 10
105.1027
 20
30.9314
 30
0.0
 10
107.4722
 20
30.5479
 30
0.0
 10
107.4722
 20
30.5479
 30
0.0
 10
108.3489
 20
32.7531
 30
0.0
 10
112.5127
 20
33.1914
 30
0.0
 10
113.1427
 20
30.0137
 30
0.0
  0
SPLINE
  5
8D
330
1F
100
AcDbEntity
  8
layer 1
 62
   250
100
AcDbSpline
210
0.0
220
0.0
230
1.0
 70
    11
 71
     3
 72
    16
 73
    12
 74
     0
 42
0.0000000001
 43
0.0000000001
 12
1.0
 22
0.0
 32
0.0
 13
1.0
 23
0.0
 33
0.0
 40
0.0
 40
0.0
 40
0.0
 40
0.0
 40
0.25
 40
0.25
 40
0.25
 40
0.25
 40
0.5
 40
0.5
 40
0.5
 40
0.5
 40
1.0
 40
1.0
 40
1.0
 40
1.0
 10
166.6613
 20
35.803
 30
0.0
 10
164.6383
 20
34.9518
 30
0.0
 10
161.3535
 20
34.9718
 30
0.0
 10
158.5194
 20
36.1335
 30
0.0
 10
158.5194
 20
36.1335
 30
0.0
 10
159.5609
 20
36.8846
 30
0.0
 10
161.714
 20
37.7559
 30
0.0
 10
163.2964
 20
38.0263
 30
0.0
 10
163.2964
 20
38.0263
 30
0.0
 10
164.0374
 20
37.0748
 30
0.0
 10
165.4695
 20
36.2737
 30
0.0
 10
166.6613
 20
35.803
 30
0.0
  0
SPLINE
  5
8E
330
1F
100
AcDbEntity
  8
layer 1
 62
   250
100
AcDbSpline
210
0.0
220
0.0
230
1.0
 70
    11
 71
     3
 72
    16
 73
    12
 74
     0
 42
0.0000000001
 43
0.0000000001
 12
1.0
 22
0.0
 32
0.0
 13
1.0
 23
0.0
 33
0.0
 40
0.0
 40
0.0
 40
0.0
 40
0.0
 40
0.25
 40
0.25
 40
0.25
 40
0.25
 40
0.5
 40
0.5
 40
0.5
 40
0.5
 40
1.0
 40
1.0
 40
1.0
 40
1.0
 10
112.5523
 20
35.773
 30
0.0
 10
114.5752
 20
34.9218
 30
0.0
 10
117.8601
 20
34.9418
 30
0.0
 10
120.6942
 20
36.1034
 30
0.0
 10
120.6942
 20
36.1034
 30
0.0
 10
119.6527
 20
36.8545
 30
0.0
 10
117.4995
 20
37.7258
 30
0.0
 10
115.9172
 20
37.9962
 30
0.0
 10
115.9172
 20
37.9962
 30
0.0
 10
115.1761
 20
37.0448
 30
0.0
 10
113.7441
 20
36.2436
 30
0.0
 10
112.5523
 20
35.773
 30
0.0
  0
SPLINE
  5
8F
330
1F
100
AcDbEntity
  8
layer 1
 62
   250
100
AcDbSpline
210
0.0
220
0.0
230
1.0
 70
    11
 71
     3
 72
    20
 73
    16
 74
     0
 42
0.0000000001
 43
0.0000000001
 12
1.0
 22
0.0
 32
0.0
 13
1.0
 23
0.0
 33
0.0
 40
0.0
 40
0.0
 40
0.0
 40
0.0
 40
0.2
 40
0.2
 40
0.2
 40
0.2
 40
0.4
 40
0.4
 40
0.4
 40
0.4
 40
0.6
 40
0.6
 40
0.6
 40
0.6
 40
1.0
 40
1.0
 40
1.0
 40
1.0
 10
182.2972
 20
23.0224
 30
0.0
 10
179.8534
 20
25.4889
 30
0.0
 10
176.2843
 20
25.739
 30
0.0
 10
173.4996
 20
23.7043
 30
0.0
 10
173.4996
 20
23.7043
 30
0.0
 10
172.6016
 20
24.7614
 30
0.0
 10
171.6354
 20
25.8185
 30
0.0
 10
170.7375
 20
26.8756
 30
0.0
 10
170.7375
 20
26.8756
 30
0.0
 10
171.3513
 20
27.0234
 30
0.0
 10
171.8628
 20
27.5462
 30
0.0
 10
171.9651
 20
28.1032
 30
0.0
 10
171.9651
 20
28.1032
 30
0.0
 10
176.0911
 20
29.0693
 30
0.0
 10
180.3877
 20
26.6255
 30
0.0
 10
182.2972
 20
23.0224
 30
0.0
  0
SPLINE
  5
90
330
1F
100
AcDbEntity
  8
layer 1
 62
   250
100
AcDbSpline
210
0.0
220
0.0
230
1.0
 70
    11
 71
     3
 72
    20
 73
    16
 74
     0
 42
0.0000000001
 43
0.0000000001
 12
1.0
 22
0.0
 32
0.0
 13
1.0
 23
0.0
 33
0.0
 40
0.0
 40
0.0
 40
0.0
 40
0.0
 40
0.2
 40
0.2
 40
0.2
 40
0.2
 40
0.4
 40
0.4
 40
0.4
 40
0.4
 40
0.6
 40
0.6
 40
0.6
 40
0.6
 40
1.0
 40
1.0
 40
1.0
 40
1.0
 10
96.6392
 20
23.0906
 30
0.0
 10
99.083
 20
25.5571
 30
0.0
 10
102.6521
 20
25.8072
 30
0.0
 10
105.4369
 20
23.7725
 30
0.0
 10
105.4369
 20
23.7725
 30
0.0
 10
106.3348
 20
24.8296
 30
0.0
 10
107.301
 20
25.8867
 30
0.0
 10
108.199
 20
26.9438
 30
0.0
 10
108.199
 20
26.9438
 30
0.0
 10
107.5852
 20
27.0916
 30
0.0
 10
107.0737
 20
27.6144
 30
0.0
 10
106.9714
 20
28.1714
 30
0.0
 10
106.9714
 20
28.1714
 30
0.0
 10
102.8453
 20
29.1375
 30
0.0
 10
98.5488
 20
26.6937
 30
0.0
 10
96.6392
 20
23.0906
 30
0.0
  0
SPLINE
  5
91
330
1F
100
AcDbEntity
  8
layer 1
 62
   250
100
AcDbSpline
210
0.0
220
0.0
230
1.0
 70
    11
 71
     3
 72
    56
 73
    52
 74
     0
 42
0.0000000001
 43
0.0000000001
 12
1.0
 22
0.0
 32
0.0
 13
1.0
 23
0.0
 33
0.0
 40
0.0
 40
0.0
 40
0.0
 40
0.0
 40
0.0714285714285714
 40
0.0714285714285714
 40
0.0714285714285714
 40
0.0714285714285714
 40
0.1428571428571428
 40
0.1428571428571428
 40
0.1428571428571428
 40
0.1428571428571428
 40
0.2142857142857143
 40
0.2142857142857143
 40
0.2142857142857143
 40
0.2142857142857143
 40
0.2857142857142857
 40
0.2857142857142857
 40
0.2857142857142857
 40
0.2857142857142857
 40
0.3571428571428572
 40
0.3571428571428572
 40
0.3571428571428572
 40
0.3571428571428572
 40
0.4285714285714285
 40
0.4285714285714285
 40
0.4285714285714285
 40
0.4285714285714285
 40
0.5
 40
0.5
 40
0.5
 40
0.5
 40
0.5714285714285714
 40
0.5714285714285714
 40
0.5714285714285714
 40
0.5714285714285714
 40
0.6428571428571429
 40
0.6428571428571429
 40
0.6428571428571429
 40
0.6428571428571429
 40
0.7142857142857143
 40
0.7142857142857143
 40
0.7142857142857143
 40
0.7142857142857143
 40
0.7857142857142857
 40
0.7857142857142857
 40
0.7857142857142857
 40
0.7857142857142857
 40
0.8571428571428571
 40
0.8571428571428571
 40
0.8571428571428571
 40
0.8571428571428571
 40
1.0
 40
1.0
 40
1.0
 40
1.0
 10
187.9734
 20
27.2648
 30
0.0
 10
187.5263
 20
26.149
 30
0.0
 10
188.0377
 20
25.6971
 30
0.0
 10
188.4316
 20
25.7729
 30
0.0
 10
188.4316
 20
25.7729
 30
0.0
 10
188.878
 20
25.8588
 30
0.0
 10
189.3146
 20
26.1116
 30
0.0
 10
189.2265
 20
27.3102
 30
0.0
 10
189.2265
 20
27.3102
 30
0.0
 10
188.9883
 20
30.5472
 30
0.0
 10
184.6674
 20
34.4788
 30
0.0
 10
182.2911
 20
35.722
 30
0.0
 10
182.2911
 20
35.722
 30
0.0
 10
181.6328
 20
34.7168
 30
0.0
 10
181.1654
 20
32.9192
 30
0.0
 10
181.6815
 20
31.2149
 30
0.0
 10
181.6815
 20
31.2149
 30
0.0
 10
181.9084
 20
31.3668
 30
0.0
 10
181.9747
 20
31.6025
 30
0.0
 10
182.0898
 20
31.922
 30
0.0
 10
182.0898
 20
31.922
 30
0.0
 10
184.6036
 20
31.0209
 30
0.0
 10
185.7536
 20
27.163
 30
0.0
 10
183.1672
 20
26.4842
 30
0.0
 10
183.1672
 20
26.4842
 30
0.0
 10
184.1874
 20
24.7033
 30
0.0
 10
185.1844
 20
22.726
 30
0.0
 10
185.7014
 20
20.5535
 30
0.0
 10
185.7014
 20
20.5535
 30
0.0
 10
188.0274
 20
20.3187
 30
0.0
 10
188.1166
 20
16.4104
 30
0.0
 10
186.2774
 20
16.2165
 30
0.0
 10
186.2774
 20
16.2165
 30
0.0
 10
188.6671
 20
15.0812
 30
0.0
 10
190.1235
 20
13.6905
 30
0.0
 10
191.4786
 20
11.5764
 30
0.0
 10
191.4786
 20
11.5764
 30
0.0
 10
191.8077
 20
13.1048
 30
0.0
 10
191.5634
 20
15.4516
 30
0.0
 10
190.4314
 20
16.941
 30
0.0
 10
190.4314
 20
16.941
 30
0.0
 10
189.0379
 20
18.7743
 30
0.0
 10
189.0603
 20
20.1988
 30
0.0
 10
189.684
 20
21.4818
 30
0.0
 10
189.684
 20
21.4818
 30
0.0
 10
188.533
 20
20.7477
 30
0.0
 10
186.6302
 20
21.3199
 30
0.0
 10
185.928
 20
22.5265
 30
0.0
 10
185.928
 20
22.5265
 30
0.0
 10
184.7148
 20
24.6112
 30
0.0
 10
186.0286
 20
27.4516
 30
0.0
 10
187.9734
 20
27.2648
 30
0.0
  0
SPLINE
  5
92
330
1F
100
AcDbEntity
  8
layer 1
 62
   250
100
AcDbSpline
210
0.0
220
0.0
230
1.0
 70
    11
 71
     3
 72
    56
 73
    52
 74
     0
 42
0.0000000001
 43
0.0000000001
 12
1.0
 22
0.0
 32
0.0
 13
1.0
 23
0.0
 33
0.0
 40
0.0
 40
0.0
 40
0.0
 40
0.0
 40
0.0714285714285714
 40
0.0714285714285714
 40
0.0714285714285714
 40
0.0714285714285714
 40
0.1428571428571428
 40
0.1428571428571428
 40
0.1428571428571428
 40
0.1428571428571428
 40
0.2142857142857143
 40
0.2142857142857143
 40
0.2142857142857143
 40
0.2142857142857143
 40
0.2857142857142857
 40
0.2857142857142857
 40
0.2857142857142857
 40
0.2857142857142857
 40
0.3571428571428572
 40
0.3571428571428572
 40
0.3571428571428572
 40
0.3571428571428572
 40
0.4285714285714285
 40
0.4285714285714285
 40
0.4285714285714285
 40
0.4285714285714285
 40
0.5
 40
0.5
 40
0.5
 40
0.5
 40
0.5714285714285714
 40
0.5714285714285714
 40
0.5714285714285714
 40
0.5714285714285714
 40
0.6428571428571429
 40
0.6428571428571429
 40
0.6428571428571429
 40
0.6428571428571429
 40
0.7142857142857143
 40
0.7142857142857143
 40
0.7142857142857143
 40
0.7142857142857143
 40
0.7857142857142857
 40
0.7857142857142857
 40
0.7857142857142857
 40
0.7857142857142857
 40
0.8571428571428571
 40
0.8571428571428571
 40
0.8571428571428571
 40
0.8571428571428571
 40
1.0
 40
1.0
 40
1.0
 40
1.0
 10
91.3067
 20
27.2113
 30
0.0
 10
91.7539
 20
26.0955
 30
0.0
 10
91.0284
 20
25.697
 30
0.0
 10
90.6344
 20
25.7729
 30
0.0
 10
90.6344
 20
25.7729
 30
0.0
 10
90.1879
 20
25.8589
 30
0.0
 10
89.6443
 20
26.1114
 30
0.0
 10
89.7325
 20
27.3102
 30
0.0
 10
89.7325
 20
27.3102
 30
0.0
 10
89.9708
 20
30.5473
 30
0.0
 10
94.2715
 20
34.7089
 30
0.0
 10
96.882
 20
35.936
 30
0.0
 10
96.882
 20
35.936
 30
0.0
 10
97.5403
 20
34.9309
 30
0.0
 10
98.1147
 20
32.9192
 30
0.0
 10
97.5986
 20
31.2149
 30
0.0
 10
97.5986
 20
31.2149
 30
0.0
 10
97.3717
 20
31.3668
 30
0.0
 10
97.3174
 20
31.66
 30
0.0
 10
97.2024
 20
31.9795
 30
0.0
 10
97.2024
 20
31.9795
 30
0.0
 10
94.9949
 20
31.2197
 30
0.0
 10
93.7182
 20
27.646
 30
0.0
 10
95.9631
 20
26.4307
 30
0.0
 10
95.9631
 20
26.4307
 30
0.0
 10
94.9429
 20
24.6497
 30
0.0
 10
94.0049
 20
22.7075
 30
0.0
 10
93.4879
 20
20.535
 30
0.0
 10
93.4879
 20
20.535
 30
0.0
 10
91.5521
 20
20.1051
 30
0.0
 10
90.9505
 20
16.8446
 30
0.0
 10
92.7896
 20
16.163
 30
0.0
 10
92.7896
 20
16.163
 30
0.0
 10
90.3999
 20
15.0276
 30
0.0
 10
88.8883
 20
13.4233
 30
0.0
 10
87.5331
 20
11.3092
 30
0.0
 10
87.5331
 20
11.3092
 30
0.0
 10
86.9601
 20
12.8376
 30
0.0
 10
87.3419
 20
15.505
 30
0.0
 10
88.4741
 20
16.9945
 30
0.0
 10
88.4741
 20
16.9945
 30
0.0
 10
89.8677
 20
18.828
 30
0.0
 10
90.0057
 20
20.1908
 30
0.0
 10
89.382
 20
21.4738
 30
0.0
 10
89.382
 20
21.4738
 30
0.0
 10
90.5331
 20
20.7397
 30
0.0
 10
92.2217
 20
21.4268
 30
0.0
 10
92.924
 20
22.6335
 30
0.0
 10
92.924
 20
22.6335
 30
0.0
 10
94.1373
 20
24.7183
 30
0.0
 10
93.0374
 20
27.184
 30
0.0
 10
91.3067
 20
27.2113
 30
0.0
  0
SPLINE
  5
93
330
1F
100
AcDbEntity
  8
layer 1
 62
   250
100
AcDbSpline
210
0.0
220
0.0
230
1.0
 70
    11
 71
     3
 72
    28
 73
    24
 74
     0
 42
0.0000000001
 43
0.0000000001
 12
1.0
 22
0.0
 32
0.0
 13
1.0
 23
0.0
 33
0.0
 40
0.0
 40
0.0
 40
0.0
 40
0.0
 40
0.1428571428571428
 40
0.1428571428571428
 40
0.1428571428571428
 40
0.1428571428571428
 40
0.2857142857142857
 40
0.2857142857142857
 40
0.2857142857142857
 40
0.2857142857142857
 40
0.4285714285714285
 40
0.4285714285714285
 40
0.4285714285714285
 40
0.4285714285714285
 40
0.5714285714285714
 40
0.5714285714285714
 40
0.5714285714285714
 40
0.5714285714285714
 40
0.7142857142857143
 40
0.7142857142857143
 40
0.7142857142857143
 40
0.7142857142857143
 40
1.0
 40
1.0
 40
1.0
 40
1.0
 10
182.3872
 20
18.1483
 30
0.0
 10
180.5241
 20
21.1106
 30
0.0
 10
176.8252
 20
20.4788
 30
0.0
 10
176.7525
 20
18.2053
 30
0.0
 10
176.7525
 20
18.2053
 30
0.0
 10
176.7309
 20
17.5285
 30
0.0
 10
177.2689
 20
16.4766
 30
0.0
 10
178.3732
 20
16.3089
 30
0.0
 10
178.3732
 20
16.3089
 30
0.0
 10
179.4795
 20
16.1409
 30
0.0
 10
180.9699
 20
17.1544
 30
0.0
 10
181.9199
 20
16.7192
 30
0.0
 10
181.9199
 20
16.7192
 30
0.0
 10
181.7276
 20
16.6642
 30
0.0
 10
181.4802
 20
16.4993
 30
0.0
 10
181.2604
 20
16.3069
 30
0.0
 10
181.2604
 20
16.3069
 30
0.0
 10
179.5509
 20
15.8659
 30
0.0
 10
175.5541
 20
14.7855
 30
0.0
 10
175.6315
 20
18.571
 30
0.0
 10
175.6315
 20
18.571
 30
0.0
 10
175.6746
 20
20.6789
 30
0.0
 10
180.0767
 20
22.9164
 30
0.0
 10
182.3872
 20
18.1483
 30
0.0
  0
SPLINE
  5
94
330
1F
100
AcDbEntity
  8
layer 1
 62
   250
100
AcDbSpline
210
0.0
220
0.0
230
1.0
 70
    11
 71
     3
 72
    28
 73
    24
 74
     0
 42
0.0000000001
 43
0.0000000001
 12
1.0
 22
0.0
 32
0.0
 13
1.0
 23
0.0
 33
0.0
 40
0.0
 40
0.0
 40
0.0
 40
0.0
 40
0.1428571428571428
 40
0.1428571428571428
 40
0.1428571428571428
 40
0.1428571428571428
 40
0.2857142857142857
 40
0.2857142857142857
 40
0.2857142857142857
 40
0.2857142857142857
 40
0.4285714285714285
 40
0.4285714285714285
 40
0.4285714285714285
 40
0.4285714285714285
 40
0.5714285714285714
 40
0.5714285714285714
 40
0.5714285714285714
 40
0.5714285714285714
 40
0.7142857142857143
 40
0.7142857142857143
 40
0.7142857142857143
 40
0.7142857142857143
 40
1.0
 40
1.0
 40
1.0
 40
1.0
 10
96.5421
 20
18.1483
 30
0.0
 10
98.4052
 20
21.1106
 30
0.0
 10
102.2984
 20
20.4799
 30
0.0
 10
102.2867
 20
18.2053
 30
0.0
 10
102.2867
 20
18.2053
 30
0.0
 10
102.2808
 20
17.0614
 30
0.0
 10
101.7153
 20
16.4765
 30
0.0
 10
100.6111
 20
16.3089
 30
0.0
 10
100.6111
 20
16.3089
 30
0.0
 10
99.5049
 20
16.1409
 30
0.0
 10
98.0144
 20
17.1544
 30
0.0
 10
97.0643
 20
16.7192
 30
0.0
 10
97.0643
 20
16.7192
 30
0.0
 10
97.2567
 20
16.6642
 30
0.0
 10
97.504
 20
16.4993
 30
0.0
 10
97.7239
 20
16.3069
 30
0.0
 10
97.7239
 20
16.3069
 30
0.0
 10
99.4334
 20
15.8659
 30
0.0
 10
103.4301
 20
14.7855
 30
0.0
 10
103.3528
 20
18.571
 30
0.0
 10
103.3528
 20
18.571
 30
0.0
 10
103.3096
 20
20.6789
 30
0.0
 10
98.8526
 20
22.9164
 30
0.0
 10
96.5421
 20
18.1483
 30
0.0
  0
SPLINE
  5
95
330
1F
100
AcDbEntity
  8
layer 1
 62
   250
100
AcDbSpline
210
0.0
220
0.0
230
1.0
 70
    11
 71
     3
 72
    36
 73
    32
 74
     0
 42
0.0000000001
 43
0.0000000001
 12
1.0
 22
0.0
 32
0.0
 13
1.0
 23
0.0
 33
0.0
 40
0.0
 40
0.0
 40
0.0
 40
0.0
 40
0.1111111111111111
 40
0.1111111111111111
 40
0.1111111111111111
 40
0.1111111111111111
 40
0.2222222222222222
 40
0.2222222222222222
 40
0.2222222222222222
 40
0.2222222222222222
 40
0.3333333333333333
 40
0.3333333333333333
 40
0.3333333333333333
 40
0.3333333333333333
 40
0.4444444444444444
 40
0.4444444444444444
 40
0.4444444444444444
 40
0.4444444444444444
 40
0.5555555555555556
 40
0.5555555555555556
 40
0.5555555555555556
 40
0.5555555555555556
 40
0.6666666666666666
 40
0.6666666666666666
 40
0.6666666666666666
 40
0.6666666666666666
 40
0.7777777777777778
 40
0.7777777777777778
 40
0.7777777777777778
 40
0.7777777777777778
 40
1.0
 40
1.0
 40
1.0
 40
1.0
 10
169.3042
 20
9.9475
 30
0.0
 10
170.5449
 20
9.3993
 30
0.0
 10
172.1751
 20
8.3318
 30
0.0
 10
173.0262
 20
7.6538
 30
0.0
 10
173.0262
 20
7.6538
 30
0.0
 10
173.6321
 20
8.9665
 30
0.0
 10
173.9783
 20
11.4045
 30
0.0
 10
173.6321
 20
13.2799
 30
0.0
 10
173.6321
 20
13.2799
 30
0.0
 10
171.6724
 20
13.6579
 30
0.0
 10
172.0804
 20
17.8289
 30
0.0
 10
167.5139
 20
19.7298
 30
0.0
 10
167.5139
 20
19.7298
 30
0.0
 10
166.7348
 20
20.0541
 30
0.0
 10
166.6039
 20
21.5299
 30
0.0
 10
167.6929
 20
21.6411
 30
0.0
 10
167.6929
 20
21.6411
 30
0.0
 10
168.6962
 20
21.7437
 30
0.0
 10
169.9847
 20
22.0065
 30
0.0
 10
170.6459
 20
22.3683
 30
0.0
 10
170.6459
 20
22.3683
 30
0.0
 10
169.8669
 20
24.0129
 30
0.0
 10
168.2223
 20
25.5709
 30
0.0
 10
166.4912
 20
26.4365
 30
0.0
 10
166.4912
 20
26.4365
 30
0.0
 10
161.1479
 20
22.0952
 30
0.0
 10
162.6008
 20
16.7798
 30
0.0
 10
165.856
 20
15.0343
 30
0.0
 10
165.856
 20
15.0343
 30
0.0
 10
168.0551
 20
13.8551
 30
0.0
 10
169.5732
 20
11.6198
 30
0.0
 10
169.3042
 20
9.9475
 30
0.0
  0
SPLINE
  5
96
330
1F
100
AcDbEntity
  8
layer 1
 62
   250
100
AcDbSpline
210
0.0
220
0.0
230
1.0
 70
    11
 71
     3
 72
    36
 73
    32
 74
     0
 42
0.0000000001
 43
0.0000000001
 12
1.0
 22
0.0
 32
0.0
 13
1.0
 23
0.0
 33
0.0
 40
0.0
 40
0.0
 40
0.0
 40
0.0
 40
0.1111111111111111
 40
0.1111111111111111
 40
0.1111111111111111
 40
0.1111111111111111
 40
0.2222222222222222
 40
0.2222222222222222
 40
0.2222222222222222
 40
0.2222222222222222
 40
0.3333333333333333
 40
0.3333333333333333
 40
0.3333333333333333
 40
0.3333333333333333
 40
0.4444444444444444
 40
0.4444444444444444
 40
0.4444444444444444
 40
0.4444444444444444
 40
0.5555555555555556
 40
0.5555555555555556
 40
0.5555555555555556
 40
0.5555555555555556
 40
0.6666666666666666
 40
0.6666666666666666
 40
0.6666666666666666
 40
0.6666666666666666
 40
0.7777777777777778
 40
0.7777777777777778
 40
0.7777777777777778
 40
0.7777777777777778
 40
1.0
 40
1.0
 40
1.0
 40
1.0
 10
109.8121
 20
9.9475
 30
0.0
 10
108.5715
 20
9.3993
 30
0.0
 10
106.9413
 20
8.3318
 30
0.0
 10
106.0902
 20
7.6538
 30
0.0
 10
106.0902
 20
7.6538
 30
0.0
 10
105.4843
 20
8.9665
 30
0.0
 10
105.1381
 20
11.4045
 30
0.0
 10
105.4843
 20
13.2799
 30
0.0
 10
105.4843
 20
13.2799
 30
0.0
 10
107.444
 20
13.6579
 30
0.0
 10
107.0359
 20
17.8289
 30
0.0
 10
111.6025
 20
19.7298
 30
0.0
 10
111.6025
 20
19.7298
 30
0.0
 10
112.3816
 20
20.0541
 30
0.0
 10
112.5125
 20
21.5299
 30
0.0
 10
111.4235
 20
21.6411
 30
0.0
 10
111.4235
 20
21.6411
 30
0.0
 10
110.4202
 20
21.7437
 30
0.0
 10
109.1317
 20
22.0065
 30
0.0
 10
108.4705
 20
22.3683
 30
0.0
 10
108.4705
 20
22.3683
 30
0.0
 10
109.2495
 20
24.0129
 30
0.0
 10
110.8941
 20
25.5709
 30
0.0
 10
112.6252
 20
26.4365
 30
0.0
 10
112.6252
 20
26.4365
 30
0.0
 10
117.9684
 20
22.0952
 30
0.0
 10
116.5156
 20
16.7798
 30
0.0
 10
113.2604
 20
15.0343
 30
0.0
 10
113.2604
 20
15.0343
 30
0.0
 10
111.0613
 20
13.8551
 30
0.0
 10
109.5432
 20
11.6198
 30
0.0
 10
109.8121
 20
9.9475
 30
0.0
  0
SPLINE
  5
97
330
1F
100
AcDbEntity
  8
layer 1
 62
   250
100
AcDbSpline
210
0.0
220
0.0
230
1.0
 70
    11
 71
     3
 72
    28
 73
    24
 74
     0
 42
0.0000000001
 43
0.0000000001
 12
1.0
 22
0.0
 32
0.0
 13
1.0
 23
0.0
 33
0.0
 40
0.0
 40
0.0
 40
0.0
 40
0.0
 40
0.1428571428571428
 40
0.1428571428571428
 40
0.1428571428571428
 40
0.1428571428571428
 40
0.2857142857142857
 40
0.2857142857142857
 40
0.2857142857142857
 40
0.2857142857142857
 40
0.4285714285714285
 40
0.4285714285714285
 40
0.4285714285714285
 40
0.4285714285714285
 40
0.5714285714285714
 40
0.5714285714285714
 40
0.5714285714285714
 40
0.5714285714285714
 40
0.7142857142857143
 40
0.7142857142857143
 40
0.7142857142857143
 40
0.7142857142857143
 40
1.0
 40
1.0
 40
1.0
 40
1.0
 10
145.4807
 20
16.6407
 30
0.0
 10
148.9672
 20
13.4332
 30
0.0
 10
146.5964
 20
10.6963
 30
0.0
 10
146.3697
 20
8.1164
 30
0.0
 10
146.3697
 20
8.1164
 30
0.0
 10
147.5899
 20
9.3366
 30
0.0
 10
148.6533
 20
10.1908
 30
0.0
 10
150.0828
 20
10.7835
 30
0.0
 10
150.0828
 20
10.7835
 30
0.0
 10
148.3395
 20
14.3048
 30
0.0
 10
147.4331
 20
20.3363
 30
0.0
 10
148.8277
 20
26.1064
 30
0.0
 10
148.8277
 20
26.1064
 30
0.0
 10
148.479
 20
26.333
 30
0.0
 10
148.1304
 20
26.5596
 30
0.0
 10
147.7817
 20
26.7863
 30
0.0
 10
147.7817
 20
26.7863
 30
0.0
 10
145.5678
 20
25.4614
 30
0.0
 10
144.0861
 20
23.0906
 30
0.0
 10
143.4411
 20
20.9291
 30
0.0
 10
143.4411
 20
20.9291
 30
0.0
 10
145.655
 20
21.33
 30
0.0
 10
147.0322
 20
18.9592
 30
0.0
 10
145.4807
 20
16.6407
 30
0.0
  0
SPLINE
  5
98
330
1F
100
AcDbEntity
  8
layer 1
 62
   250
100
AcDbSpline
210
0.0
220
0.0
230
1.0
 70
    11
 71
     3
 72
    28
 73
    24
 74
     0
 42
0.0000000001
 43
0.0000000001
 12
1.0
 22
0.0
 32
0.0
 13
1.0
 23
0.0
 33
0.0
 40
0.0
 40
0.0
 40
0.0
 40
0.0
 40
0.1428571428571428
 40
0.1428571428571428
 40
0.1428571428571428
 40
0.1428571428571428
 40
0.2857142857142857
 40
0.2857142857142857
 40
0.2857142857142857
 40
0.2857142857142857
 40
0.4285714285714285
 40
0.4285714285714285
 40
0.4285714285714285
 40
0.4285714285714285
 40
0.5714285714285714
 40
0.5714285714285714
 40
0.5714285714285714
 40
0.5714285714285714
 40
0.7142857142857143
 40
0.7142857142857143
 40
0.7142857142857143
 40
0.7142857142857143
 40
1.0
 40
1.0
 40
1.0
 40
1.0
 10
133.6093
 20
16.5361
 30
0.0
 10
130.1229
 20
13.3286
 30
0.0
 10
132.4937
 20
10.5917
 30
0.0
 10
132.7203
 20
8.0118
 30
0.0
 10
132.7203
 20
8.0118
 30
0.0
 10
131.5001
 20
9.232
 30
0.0
 10
130.4367
 20
10.0862
 30
0.0
 10
129.0072
 20
10.6789
 30
0.0
 10
129.0072
 20
10.6789
 30
0.0
 10
130.7505
 20
14.2002
 30
0.0
 10
131.6047
 20
20.4409
 30
0.0
 10
130.2101
 20
26.211
 30
0.0
 10
130.2101
 20
26.211
 30
0.0
 10
130.5587
 20
26.4376
 30
0.0
 10
130.8028
 20
26.5596
 30
0.0
 10
131.1514
 20
26.7863
 30
0.0
 10
131.1514
 20
26.7863
 30
0.0
 10
133.1038
 20
25.2522
 30
0.0
 10
135.0039
 20
22.986
 30
0.0
 10
135.6489
 20
20.8245
 30
0.0
 10
135.6489
 20
20.8245
 30
0.0
 10
133.435
 20
21.2254
 30
0.0
 10
132.0578
 20
18.8546
 30
0.0
 10
133.6093
 20
16.5361
 30
0.0
  0
SPLINE
  5
99
330
1F
100
AcDbEntity
  8
layer 1
 62
   250
100
AcDbSpline
210
0.0
220
0.0
230
1.0
 70
    11
 71
     3
 72
    44
 73
    40
 74
     0
 42
0.0000000001
 43
0.0000000001
 12
1.0
 22
0.0
 32
0.0
 13
1.0
 23
0.0
 33
0.0
 40
0.0
 40
0.0
 40
0.0
 40
0.0
 40
0.0909090909090909
 40
0.0909090909090909
 40
0.0909090909090909
 40
0.0909090909090909
 40
0.1818181818181818
 40
0.1818181818181818
 40
0.1818181818181818
 40
0.1818181818181818
 40
0.2727272727272727
 40
0.2727272727272727
 40
0.2727272727272727
 40
0.2727272727272727
 40
0.3636363636363636
 40
0.3636363636363636
 40
0.3636363636363636
 40
0.3636363636363636
 40
0.4545454545454545
 40
0.4545454545454545
 40
0.4545454545454545
 40
0.4545454545454545
 40
0.5454545454545454
 40
0.5454545454545454
 40
0.5454545454545454
 40
0.5454545454545454
 40
0.6363636363636364
 40
0.6363636363636364
 40
0.6363636363636364
 40
0.6363636363636364
 40
0.7272727272727273
 40
0.7272727272727273
 40
0.7272727272727273
 40
0.7272727272727273
 40
0.8181818181818182
 40
0.8181818181818182
 40
0.8181818181818182
 40
0.8181818181818182
 40
1.0
 40
1.0
 40
1.0
 40
1.0
 10
151.4542
 20
15.7634
 30
0.0
 10
153.8231
 20
17.5997
 30
0.0
 10
156.6673
 20
15.2873
 30
0.0
 10
155.051
 20
12.1955
 30
0.0
 10
155.051
 20
12.1955
 30
0.0
 10
156.9585
 20
12.5985
 30
0.0
 10
160.7281
 20
12.6838
 30
0.0
 10
163.3661
 20
12.3001
 30
0.0
 10
163.3661
 20
12.3001
 30
0.0
 10
158.6363
 20
14.1651
 30
0.0
 10
156.2101
 20
16.6737
 30
0.0
 10
155.8727
 20
20.2616
 30
0.0
 10
155.8727
 20
20.2616
 30
0.0
 10
155.6214
 20
22.9328
 30
0.0
 10
156.9474
 20
26.6563
 30
0.0
 10
159.1038
 20
26.8973
 30
0.0
 10
159.1038
 20
26.8973
 30
0.0
 10
159.9477
 20
26.9916
 30
0.0
 10
161.3632
 20
26.7515
 30
0.0
 10
161.9541
 20
25.6357
 30
0.0
 10
161.9541
 20
25.6357
 30
0.0
 10
162.6688
 20
26.4628
 30
0.0
 10
163.0464
 20
27.009
 30
0.0
 10
163.9297
 20
27.6675
 30
0.0
 10
163.9297
 20
27.6675
 30
0.0
 10
162.2336
 20
28.9147
 30
0.0
 10
158.4449
 20
30.297
 30
0.0
 10
156.6618
 20
29.6076
 30
0.0
 10
156.6618
 20
29.6076
 30
0.0
 10
155.6738
 20
29.2256
 30
0.0
 10
156.5844
 20
27.8209
 30
0.0
 10
157.8054
 20
28.882
 30
0.0
 10
157.8054
 20
28.882
 30
0.0
 10
157.8393
 20
25.4516
 30
0.0
 10
155.4039
 20
24.5944
 30
0.0
 10
151.4058
 20
25.2697
 30
0.0
 10
151.4058
 20
25.2697
 30
0.0
 10
150.6911
 20
22.0447
 30
0.0
 10
150.9021
 20
18.7268
 30
0.0
 10
151.4542
 20
15.7634
 30
0.0
  0
SPLINE
  5
9A
330
1F
100
AcDbEntity
  8
layer 1
 62
   250
100
AcDbSpline
210
0.0
220
0.0
230
1.0
 70
    11
 71
     3
 72
    44
 73
    40
 74
     0
 42
0.0000000001
 43
0.0000000001
 12
1.0
 22
0.0
 32
0.0
 13
1.0
 23
0.0
 33
0.0
 40
0.0
 40
0.0
 40
0.0
 40
0.0
 40
0.0909090909090909
 40
0.0909090909090909
 40
0.0909090909090909
 40
0.0909090909090909
 40
0.1818181818181818
 40
0.1818181818181818
 40
0.1818181818181818
 40
0.1818181818181818
 40
0.2727272727272727
 40
0.2727272727272727
 40
0.2727272727272727
 40
0.2727272727272727
 40
0.3636363636363636
 40
0.3636363636363636
 40
0.3636363636363636
 40
0.3636363636363636
 40
0.4545454545454545
 40
0.4545454545454545
 40
0.4545454545454545
 40
0.4545454545454545
 40
0.5454545454545454
 40
0.5454545454545454
 40
0.5454545454545454
 40
0.5454545454545454
 40
0.6363636363636364
 40
0.6363636363636364
 40
0.6363636363636364
 40
0.6363636363636364
 40
0.7272727272727273
 40
0.7272727272727273
 40
0.7272727272727273
 40
0.7272727272727273
 40
0.8181818181818182
 40
0.8181818181818182
 40
0.8181818181818182
 40
0.8181818181818182
 40
1.0
 40
1.0
 40
1.0
 40
1.0
 10
127.7449
 20
15.7634
 30
0.0
 10
125.376
 20
17.5997
 30
0.0
 10
122.307
 20
15.2311
 30
0.0
 10
123.9234
 20
12.1393
 30
0.0
 10
123.9234
 20
12.1393
 30
0.0
 10
121.7911
 20
12.5423
 30
0.0
 10
118.471
 20
12.6838
 30
0.0
 10
115.833
 20
12.3001
 30
0.0
 10
115.833
 20
12.3001
 30
0.0
 10
120.619
 20
13.8279
 30
0.0
 10
123.0852
 20
16.5688
 30
0.0
 10
123.495
 20
20.1492
 30
0.0
 10
123.495
 20
20.1492
 30
0.0
 10
123.8586
 20
23.3261
 30
0.0
 10
122.1536
 20
26.2106
 30
0.0
 10
120.0953
 20
26.8973
 30
0.0
 10
120.0953
 20
26.8973
 30
0.0
 10
118.9704
 20
27.2725
 30
0.0
 10
117.7235
 20
26.7515
 30
0.0
 10
117.245
 20
25.6357
 30
0.0
 10
117.245
 20
25.6357
 30
0.0
 10
116.5303
 20
26.4628
 30
0.0
 10
115.928
 20
27.2337
 30
0.0
 10
115.0446
 20
27.8923
 30
0.0
 10
115.0446
 20
27.8923
 30
0.0
 10
116.7408
 20
29.1395
 30
0.0
 10
120.6419
 20
30.3531
 30
0.0
 10
122.425
 20
29.6638
 30
0.0
 10
122.425
 20
29.6638
 30
0.0
 10
123.4129
 20
29.2819
 30
0.0
 10
122.5585
 20
27.2028
 30
0.0
 10
121.1689
 20
28.8258
 30
0.0
 10
121.1689
 20
28.8258
 30
0.0
 10
121.1351
 20
25.3954
 30
0.0
 10
123.7952
 20
24.5944
 30
0.0
 10
127.7933
 20
25.2697
 30
0.0
 10
127.7933
 20
25.2697
 30
0.0
 10
128.508
 20
22.0447
 30
0.0
 10
128.297
 20
18.7268
 30
0.0
 10
127.7449
 20
15.7634
 30
0.0
  0
SPLINE
  5
9B
330
1F
100
AcDbEntity
  8
layer 1
 62
   250
100
AcDbSpline
210
0.0
220
0.0
230
1.0
 70
    11
 71
     3
 72
    20
 73
    16
 74
     0
 42
0.0000000001
 43
0.0000000001
 12
1.0
 22
0.0
 32
0.0
 13
1.0
 23
0.0
 33
0.0
 40
0.0
 40
0.0
 40
0.0
 40
0.0
 40
0.2
 40
0.2
 40
0.2
 40
0.2
 40
0.4
 40
0.4
 40
0.4
 40
0.4
 40
0.6
 40
0.6
 40
0.6
 40
0.6
 40
1.0
 40
1.0
 40
1.0
 40
1.0
 10
182.168
 20
11.8468
 30
0.0
 10
181.3252
 20
9.2807
 30
0.0
 10
179.7518
 20
7.5575
 30
0.0
 10
178.1222
 20
6.2276
 30
0.0
 10
178.1222
 20
6.2276
 30
0.0
 10
178.3844
 20
8.082
 30
0.0
 10
178.2533
 20
9.8239
 30
0.0
 10
177.8412
 20
11.7345
 30
0.0
 10
177.8412
 20
11.7345
 30
0.0
 10
178.8527
 20
11.8656
 30
0.0
 10
179.9204
 20
12.3338
 30
0.0
 10
180.6508
 20
12.9707
 30
0.0
 10
180.6508
 20
12.9707
 30
0.0
 10
180.9505
 20
12.5399
 30
0.0
 10
181.3626
 20
12.1091
 30
0.0
 10
182.168
 20
11.8468
 30
0.0
  0
SPLINE
  5
9C
330
1F
100
AcDbEntity
  8
layer 1
 62
   250
100
AcDbSpline
210
0.0
220
0.0
230
1.0
 70
    11
 71
     3
 72
    32
 73
    28
 74
     0
 42
0.0000000001
 43
0.0000000001
 12
1.0
 22
0.0
 32
0.0
 13
1.0
 23
0.0
 33
0.0
 40
0.0
 40
0.0
 40
0.0
 40
0.0
 40
0.125
 40
0.125
 40
0.125
 40
0.125
 40
0.25
 40
0.25
 40
0.25
 40
0.25
 40
0.375
 40
0.375
 40
0.375
 40
0.375
 40
0.5
 40
0.5
 40
0.5
 40
0.5
 40
0.625
 40
0.625
 40
0.625
 40
0.625
 40
0.75
 40
0.75
 40
0.75
 40
0.75
 40
1.0
 40
1.0
 40
1.0
 40
1.0
 10
180.8756
 20
4.2047
 30
0.0
 10
184.1851
 20
3.7973
 30
0.0
 10
183.1303
 20
0.5655
 30
0.0
 10
181.614
 20
-1.5123
 30
0.0
 10
181.614
 20
-1.5123
 30
0.0
 10
180.5371
 20
-2.9878
 30
0.0
 10
180.4688
 20
-5.2251
 30
0.0
 10
180.3699
 20
-6.6404
 30
0.0
 10
180.3699
 20
-6.6404
 30
0.0
 10
180.4448
 20
-3.4374
 30
0.0
 10
179.6769
 20
0.4398
 30
0.0
 10
177.785
 20
2.9123
 30
0.0
 10
177.785
 20
2.9123
 30
0.0
 10
181.0255
 20
4.7292
 30
0.0
 10
185.165
 20
9.4118
 30
0.0
 10
185.2024
 20
13.7012
 30
0.0
 10
185.2024
 20
13.7012
 30
0.0
 10
187.5625
 20
12.5773
 30
0.0
 10
189.0235
 20
10.5544
 30
0.0
 10
190.2597
 20
8.3629
 30
0.0
 10
190.2597
 20
8.3629
 30
0.0
 10
188.7238
 20
5.6282
 30
0.0
 10
187.3564
 20
5.5908
 30
0.0
 10
186.2701
 20
4.4857
 30
0.0
 10
186.2701
 20
4.4857
 30
0.0
 10
185.1275
 20
6.1902
 30
0.0
 10
182.2992
 20
6.4337
 30
0.0
 10
180.8756
 20
4.2047
 30
0.0
  0
SPLINE
  5
9D
330
1F
100
AcDbEntity
  8
layer 1
 62
   250
100
AcDbSpline
210
0.0
220
0.0
230
1.0
 70
    11
 71
     3
 72
    20
 73
    16
 74
     0
 42
0.0000000001
 43
0.0000000001
 12
1.0
 22
0.0
 32
0.0
 13
1.0
 23
0.0
 33
0.0
 40
0.0
 40
0.0
 40
0.0
 40
0.0
 40
0.2
 40
0.2
 40
0.2
 40
0.2
 40
0.4
 40
0.4
 40
0.4
 40
0.4
 40
0.6
 40
0.6
 40
0.6
 40
0.6
 40
1.0
 40
1.0
 40
1.0
 40
1.0
 10
97.0482
 20
11.7906
 30
0.0
 10
97.8911
 20
9.2245
 30
0.0
 10
99.5768
 20
7.5575
 30
0.0
 10
101.2064
 20
6.2276
 30
0.0
 10
101.2064
 20
6.2276
 30
0.0
 10
100.9442
 20
8.082
 30
0.0
 10
101.0191
 20
10.442
 30
0.0
 10
101.4312
 20
11.7345
 30
0.0
 10
101.4312
 20
11.7345
 30
0.0
 10
100.4197
 20
11.8656
 30
0.0
 10
99.1273
 20
12.3338
 30
0.0
 10
98.3968
 20
12.9707
 30
0.0
 10
98.3968
 20
12.9707
 30
0.0
 10
98.0971
 20
12.5399
 30
0.0
 10
97.685
 20
11.9967
 30
0.0
 10
97.0482
 20
11.7906
 30
0.0
  0
SPLINE
  5
9E
330
1F
100
AcDbEntity
  8
layer 1
 62
   250
100
AcDbSpline
210
0.0
220
0.0
230
1.0
 70
    11
 71
     3
 72
    32
 73
    28
 74
     0
 42
0.0000000001
 43
0.0000000001
 12
1.0
 22
0.0
 32
0.0
 13
1.0
 23
0.0
 33
0.0
 40
0.0
 40
0.0
 40
0.0
 40
0.0
 40
0.125
 40
0.125
 40
0.125
 40
0.125
 40
0.25
 40
0.25
 40
0.25
 40
0.25
 40
0.375
 40
0.375
 40
0.375
 40
0.375
 40
0.5
 40
0.5
 40
0.5
 40
0.5
 40
0.625
 40
0.625
 40
0.625
 40
0.625
 40
0.75
 40
0.75
 40
0.75
 40
0.75
 40
1.0
 40
1.0
 40
1.0
 40
1.0
 10
98.0597
 20
4.0923
 30
0.0
 10
94.7502
 20
3.6849
 30
0.0
 10
95.9174
 20
0.734
 30
0.0
 10
97.4337
 20
-1.3437
 30
0.0
 10
97.4337
 20
-1.3437
 30
0.0
 10
98.5105
 20
-2.8192
 30
0.0
 10
98.6351
 20
-5.1689
 30
0.0
 10
98.734
 20
-6.5842
 30
0.0
 10
98.734
 20
-6.5842
 30
0.0
 10
98.659
 20
-3.3812
 30
0.0
 10
99.5956
 20
0.2712
 30
0.0
 10
101.4874
 20
2.7437
 30
0.0
 10
101.4874
 20
2.7437
 30
0.0
 10
98.247
 20
4.5606
 30
0.0
 10
93.7703
 20
9.5804
 30
0.0
 10
93.7329
 20
13.8698
 30
0.0
 10
93.7329
 20
13.8698
 30
0.0
 10
91.7099
 20
12.5211
 30
0.0
 10
90.0804
 20
10.723
 30
0.0
 10
88.8441
 20
8.5315
 30
0.0
 10
88.8441
 20
8.5315
 30
0.0
 10
90.3801
 20
5.7968
 30
0.0
 10
91.916
 20
5.7032
 30
0.0
 10
93.0024
 20
4.598
 30
0.0
 10
93.0024
 20
4.598
 30
0.0
 10
94.1449
 20
6.3025
 30
0.0
 10
96.6923
 20
6.4898
 30
0.0
 10
98.0597
 20
4.0923
 30
0.0
  0
SPLINE
  5
9F
330
1F
100
AcDbEntity
  8
layer 1
 62
   250
100
AcDbSpline
210
0.0
220
0.0
230
1.0
 70
    11
 71
     3
 72
    16
 73
    12
 74
     0
 42
0.0000000001
 43
0.0000000001
 12
1.0
 22
0.0
 32
0.0
 13
1.0
 23
0.0
 33
0.0
 40
0.0
 40
0.0
 40
0.0
 40
0.0
 40
0.25
 40
0.25
 40
0.25
 40
0.25
 40
0.5
 40
0.5
 40
0.5
 40
0.5
 40
1.0
 40
1.0
 40
1.0
 40
1.0
 10
194.1421
 20
11.3411
 30
0.0
 10
194.1421
 20
11.3411
 30
0.0
 10
194.1421
 20
7.6886
 30
0.0
 10
194.1421
 20
7.6886
 30
0.0
 10
194.1421
 20
7.6886
 30
0.0
 10
193.9586
 20
8.1007
 30
0.0
 10
193.6517
 20
8.559
 30
0.0
 10
193.4527
 20
8.8786
 30
0.0
 10
193.4527
 20
8.8786
 30
0.0
 10
193.7442
 20
9.576
 30
0.0
 10
194.0048
 20
10.4277
 30
0.0
 10
194.1421
 20
11.3411
 30
0.0
  0
SPLINE
  5
A0
330
1F
100
AcDbEntity
  8
layer 1
 62
   250
100
AcDbSpline
210
0.0
220
0.0
230
1.0
 70
    11
 71
     3
 72
    16
 73
    12
 74
     0
 42
0.0000000001
 43
0.0000000001
 12
1.0
 22
0.0
 32
0.0
 13
1.0
 23
0.0
 33
0.0
 40
0.0
 40
0.0
 40
0.0
 40
0.0
 40
0.25
 40
0.25
 40
0.25
 40
0.25
 40
0.5
 40
0.5
 40
0.5
 40
0.5
 40
1.0
 40
1.0
 40
1.0
 40
1.0
 10
85.2417
 20
10.3232
 30
0.0
 10
85.2417
 20
10.3232
 30
0.0
 10
85.2417
 20
7.6886
 30
0.0
 10
85.2417
 20
7.6886
 30
0.0
 10
85.2417
 20
7.6886
 30
0.0
 10
85.4252
 20
8.1007
 30
0.0
 10
85.5779
 20
8.2506
 30
0.0
 10
85.7768
 20
8.5701
 30
0.0
 10
85.7768
 20
8.5701
 30
0.0
 10
85.5779
 20
8.9283
 30
0.0
 10
85.3481
 20
9.5332
 30
0.0
 10
85.2417
 20
10.3232
 30
0.0
  0
SPLINE
  5
A1
330
1F
100
AcDbEntity
  8
layer 1
 62
   250
100
AcDbSpline
210
0.0
220
0.0
230
1.0
 70
    11
 71
     3
 72
    28
 73
    24
 74
     0
 42
0.0000000001
 43
0.0000000001
 12
1.0
 22
0.0
 32
0.0
 13
1.0
 23
0.0
 33
0.0
 40
0.0
 40
0.0
 40
0.0
 40
0.0
 40
0.1428571428571428
 40
0.1428571428571428
 40
0.1428571428571428
 40
0.1428571428571428
 40
0.2857142857142857
 40
0.2857142857142857
 40
0.2857142857142857
 40
0.2857142857142857
 40
0.4285714285714285
 40
0.4285714285714285
 40
0.4285714285714285
 40
0.4285714285714285
 40
0.5714285714285714
 40
0.5714285714285714
 40
0.5714285714285714
 40
0.5714285714285714
 40
0.7142857142857143
 40
0.7142857142857143
 40
0.7142857142857143
 40
0.7142857142857143
 40
1.0
 40
1.0
 40
1.0
 40
1.0
 10
191.8693
 20
5.3869
 30
0.0
 10
190.4223
 20
3.4522
 30
0.0
 10
187.351
 20
-0.4848
 30
0.0
 10
187.2601
 20
-4.6851
 30
0.0
 10
187.2601
 20
-4.6851
 30
0.0
 10
187.1545
 20
-9.5584
 30
0.0
 10
189.3655
 20
-13.5539
 30
0.0
 10
191.5279
 20
-16.8543
 30
0.0
 10
191.5279
 20
-16.8543
 30
0.0
 10
191.983
 20
-15.9601
 30
0.0
 10
192.292
 20
-14.7733
 30
0.0
 10
192.4546
 20
-13.4888
 30
0.0
 10
192.4546
 20
-13.4888
 30
0.0
 10
190.3691
 20
-13.2853
 30
0.0
 10
188.8782
 20
-11.7145
 30
0.0
 10
188.8831
 20
-9.0478
 30
0.0
 10
188.8831
 20
-9.0478
 30
0.0
 10
188.887
 20
-6.9317
 30
0.0
 10
189.4618
 20
-4.7585
 30
0.0
 10
190.9356
 20
-2.9228
 30
0.0
 10
190.9356
 20
-2.9228
 30
0.0
 10
191.9023
 20
-1.7189
 30
0.0
 10
192.8292
 20
1.8153
 30
0.0
 10
191.8693
 20
5.3869
 30
0.0
  0
SPLINE
  5
A2
330
1F
100
AcDbEntity
  8
layer 1
 62
   250
100
AcDbSpline
210
0.0
220
0.0
230
1.0
 70
    11
 71
     3
 72
    28
 73
    24
 74
     0
 42
0.0000000001
 43
0.0000000001
 12
1.0
 22
0.0
 32
0.0
 13
1.0
 23
0.0
 33
0.0
 40
0.0
 40
0.0
 40
0.0
 40
0.0
 40
0.1428571428571428
 40
0.1428571428571428
 40
0.1428571428571428
 40
0.1428571428571428
 40
0.2857142857142857
 40
0.2857142857142857
 40
0.2857142857142857
 40
0.2857142857142857
 40
0.4285714285714285
 40
0.4285714285714285
 40
0.4285714285714285
 40
0.4285714285714285
 40
0.5714285714285714
 40
0.5714285714285714
 40
0.5714285714285714
 40
0.5714285714285714
 40
0.7142857142857143
 40
0.7142857142857143
 40
0.7142857142857143
 40
0.7142857142857143
 40
1.0
 40
1.0
 40
1.0
 40
1.0
 10
87.3389
 20
5.3869
 30
0.0
 10
88.7859
 20
3.4522
 30
0.0
 10
91.8572
 20
-0.4848
 30
0.0
 10
91.9481
 20
-4.6851
 30
0.0
 10
91.9481
 20
-4.6851
 30
0.0
 10
92.0537
 20
-9.5584
 30
0.0
 10
89.8427
 20
-13.5539
 30
0.0
 10
87.6803
 20
-16.8543
 30
0.0
 10
87.6803
 20
-16.8543
 30
0.0
 10
87.2251
 20
-15.9601
 30
0.0
 10
86.9162
 20
-14.7733
 30
0.0
 10
86.7536
 20
-13.4888
 30
0.0
 10
86.7536
 20
-13.4888
 30
0.0
 10
88.8391
 20
-13.2853
 30
0.0
 10
90.33
 20
-11.7145
 30
0.0
 10
90.325
 20
-9.0478
 30
0.0
 10
90.325
 20
-9.0478
 30
0.0
 10
90.3211
 20
-6.9317
 30
0.0
 10
89.7464
 20
-4.7585
 30
0.0
 10
88.2726
 20
-2.9228
 30
0.0
 10
88.2726
 20
-2.9228
 30
0.0
 10
87.3059
 20
-1.7189
 30
0.0
 10
86.3789
 20
1.8153
 30
0.0
 10
87.3389
 20
5.3869
 30
0.0
  0
SPLINE
  5
A3
330
1F
100
AcDbEntity
  8
layer 1
 62
   250
100
AcDbSpline
210
0.0
220
0.0
230
1.0
 70
    11
 71
     3
 72
    36
 73
    32
 74
     0
 42
0.0000000001
 43
0.0000000001
 12
1.0
 22
0.0
 32
0.0
 13
1.0
 23
0.0
 33
0.0
 40
0.0
 40
0.0
 40
0.0
 40
0.0
 40
0.1111111111111111
 40
0.1111111111111111
 40
0.1111111111111111
 40
0.1111111111111111
 40
0.2222222222222222
 40
0.2222222222222222
 40
0.2222222222222222
 40
0.2222222222222222
 40
0.3333333333333333
 40
0.3333333333333333
 40
0.3333333333333333
 40
0.3333333333333333
 40
0.4444444444444444
 40
0.4444444444444444
 40
0.4444444444444444
 40
0.4444444444444444
 40
0.5555555555555556
 40
0.5555555555555556
 40
0.5555555555555556
 40
0.5555555555555556
 40
0.6666666666666666
 40
0.6666666666666666
 40
0.6666666666666666
 40
0.6666666666666666
 40
0.7777777777777778
 40
0.7777777777777778
 40
0.7777777777777778
 40
0.7777777777777778
 40
1.0
 40
1.0
 40
1.0
 40
1.0
 10
158.8897
 20
0.1195
 30
0.0
 10
158.0498
 20
1.1173
 30
0.0
 10
156.1368
 20
1.7636
 30
0.0
 10
152.8912
 20
1.8993
 30
0.0
 10
152.8912
 20
1.8993
 30
0.0
 10
150.1655
 20
2.0133
 30
0.0
 10
147.5947
 20
3.5695
 30
0.0
 10
147.0715
 20
4.6467
 30
0.0
 10
147.0715
 20
4.6467
 30
0.0
 10
148.2946
 20
6.1478
 30
0.0
 10
149.9942
 20
7.4372
 30
0.0
 10
151.6463
 20
8.1731
 30
0.0
 10
151.6463
 20
8.1731
 30
0.0
 10
152.1387
 20
7.6171
 30
0.0
 10
152.6311
 20
7.0611
 30
0.0
 10
153.1236
 20
6.5052
 30
0.0
 10
153.1236
 20
6.5052
 30
0.0
 10
151.8662
 20
6.2267
 30
0.0
 10
151.616
 20
4.1805
 30
0.0
 10
152.8959
 20
3.2619
 30
0.0
 10
152.8959
 20
3.2619
 30
0.0
 10
155.2583
 20
1.5664
 30
0.0
 10
156.5979
 20
3.1605
 30
0.0
 10
156.2211
 20
4.0748
 30
0.0
 10
156.2211
 20
4.0748
 30
0.0
 10
158.4608
 20
2.4864
 30
0.0
 10
161.1771
 20
1.708
 30
0.0
 10
164.0363
 20
1.4538
 30
0.0
 10
164.0363
 20
1.4538
 30
0.0
 10
161.8601
 20
1.438
 30
0.0
 10
159.9698
 20
1.0409
 30
0.0
 10
158.8897
 20
0.1195
 30
0.0
  0
SPLINE
  5
A4
330
1F
100
AcDbEntity
  8
layer 1
 62
   250
100
AcDbSpline
210
0.0
220
0.0
230
1.0
 70
    11
 71
     3
 72
    36
 73
    32
 74
     0
 42
0.0000000001
 43
0.0000000001
 12
1.0
 22
0.0
 32
0.0
 13
1.0
 23
0.0
 33
0.0
 40
0.0
 40
0.0
 40
0.0
 40
0.0
 40
0.1111111111111111
 40
0.1111111111111111
 40
0.1111111111111111
 40
0.1111111111111111
 40
0.2222222222222222
 40
0.2222222222222222
 40
0.2222222222222222
 40
0.2222222222222222
 40
0.3333333333333333
 40
0.3333333333333333
 40
0.3333333333333333
 40
0.3333333333333333
 40
0.4444444444444444
 40
0.4444444444444444
 40
0.4444444444444444
 40
0.4444444444444444
 40
0.5555555555555556
 40
0.5555555555555556
 40
0.5555555555555556
 40
0.5555555555555556
 40
0.6666666666666666
 40
0.6666666666666666
 40
0.6666666666666666
 40
0.6666666666666666
 40
0.7777777777777778
 40
0.7777777777777778
 40
0.7777777777777778
 40
0.7777777777777778
 40
1.0
 40
1.0
 40
1.0
 40
1.0
 10
120.147
 20
-0.0234
 30
0.0
 10
120.9869
 20
0.9743
 30
0.0
 10
122.9475
 20
1.5729
 30
0.0
 10
126.1932
 20
1.7087
 30
0.0
 10
126.1932
 20
1.7087
 30
0.0
 10
128.9189
 20
1.8228
 30
0.0
 10
131.6803
 20
3.6648
 30
0.0
 10
132.2035
 20
4.742
 30
0.0
 10
132.2035
 20
4.742
 30
0.0
 10
130.7898
 20
6.2431
 30
0.0
 10
129.0902
 20
7.4372
 30
0.0
 10
127.4381
 20
8.1731
 30
0.0
 10
127.4381
 20
8.1731
 30
0.0
 10
126.9457
 20
7.6171
 30
0.0
 10
126.4532
 20
7.0611
 30
0.0
 10
125.9608
 20
6.5052
 30
0.0
 10
125.9608
 20
6.5052
 30
0.0
 10
127.2182
 20
6.2267
 30
0.0
 10
127.7829
 20
4.0982
 30
0.0
 10
126.1408
 20
3.0713
 30
0.0
 10
126.1408
 20
3.0713
 30
0.0
 10
124.2742
 20
1.904
 30
0.0
 10
122.7248
 20
3.3034
 30
0.0
 10
122.8633
 20
4.0748
 30
0.0
 10
122.8633
 20
4.0748
 30
0.0
 10
120.6236
 20
2.4864
 30
0.0
 10
117.9073
 20
1.708
 30
0.0
 10
115.0481
 20
1.4538
 30
0.0
 10
115.0481
 20
1.4538
 30
0.0
 10
117.2243
 20
1.438
 30
0.0
 10
119.0669
 20
0.8979
 30
0.0
 10
120.147
 20
-0.0234
 30
0.0
  0
SPLINE
  5
A5
330
1F
100
AcDbEntity
  8
layer 1
 62
   250
100
AcDbSpline
210
0.0
220
0.0
230
1.0
 70
    11
 71
     3
 72
    32
 73
    28
 74
     0
 42
0.0000000001
 43
0.0000000001
 12
1.0
 22
0.0
 32
0.0
 13
1.0
 23
0.0
 33
0.0
 40
0.0
 40
0.0
 40
0.0
 40
0.0
 40
0.125
 40
0.125
 40
0.125
 40
0.125
 40
0.25
 40
0.25
 40
0.25
 40
0.25
 40
0.375
 40
0.375
 40
0.375
 40
0.375
 40
0.5
 40
0.5
 40
0.5
 40
0.5
 40
0.625
 40
0.625
 40
0.625
 40
0.625
 40
0.75
 40
0.75
 40
0.75
 40
0.75
 40
1.0
 40
1.0
 40
1.0
 40
1.0
 10
129.7191
 20
-10.2036
 30
0.0
 10
130.4683
 20
-10.607
 30
0.0
 10
130.9486
 20
-10.8279
 30
0.0
 10
131.5682
 20
-11.3178
 30
0.0
 10
131.5682
 20
-11.3178
 30
0.0
 10
132.2643
 20
-10.2917
 30
0.0
 10
133.9363
 20
-8.9138
 30
0.0
 10
134.7464
 20
-7.4382
 30
0.0
 10
134.7464
 20
-7.4382
 30
0.0
 10
136.1908
 20
-4.8074
 30
0.0
 10
136.1497
 20
-1.4874
 30
0.0
 10
134.8437
 20
1.3279
 30
0.0
 10
134.8437
 20
1.3279
 30
0.0
 10
132.6152
 20
-1.3777
 30
0.0
 10
126.7069
 20
-1.0228
 30
0.0
 10
125.2574
 20
-0.9871
 30
0.0
 10
125.2574
 20
-0.9871
 30
0.0
 10
126.7414
 20
-2.3703
 30
0.0
 10
126.386
 20
-4.4451
 30
0.0
 10
125.5791
 20
-5.5209
 30
0.0
 10
125.5791
 20
-5.5209
 30
0.0
 10
125.7088
 20
-6.1981
 30
0.0
 10
126.0258
 20
-6.9329
 30
0.0
 10
126.1555
 20
-7.6101
 30
0.0
 10
126.1555
 20
-7.6101
 30
0.0
 10
127.6251
 20
-6.9185
 30
0.0
 10
129.6327
 20
-7.6533
 30
0.0
 10
129.7191
 20
-10.2036
 30
0.0
  0
SPLINE
  5
A6
330
1F
100
AcDbEntity
  8
layer 1
 62
   250
100
AcDbSpline
210
0.0
220
0.0
230
1.0
 70
    11
 71
     3
 72
    40
 73
    36
 74
     0
 42
0.0000000001
 43
0.0000000001
 12
1.0
 22
0.0
 32
0.0
 13
1.0
 23
0.0
 33
0.0
 40
0.0
 40
0.0
 40
0.0
 40
0.0
 40
0.1
 40
0.1
 40
0.1
 40
0.1
 40
0.2
 40
0.2
 40
0.2
 40
0.2
 40
0.3
 40
0.3
 40
0.3
 40
0.3
 40
0.4
 40
0.4
 40
0.4
 40
0.4
 40
0.5
 40
0.5
 40
0.5
 40
0.5
 40
0.6
 40
0.6
 40
0.6
 40
0.6
 40
0.7
 40
0.7
 40
0.7
 40
0.7
 40
0.8
 40
0.8
 40
0.8
 40
0.8
 40
1.0
 40
1.0
 40
1.0
 40
1.0
 10
117.7913
 20
-7.384
 30
0.0
 10
119.1301
 20
-7.0971
 30
0.0
 10
122.146
 20
-7.3398
 30
0.0
 10
123.6225
 20
-7.694
 30
0.0
 10
123.6225
 20
-7.694
 30
0.0
 10
123.6277
 20
-7.3923
 30
0.0
 10
123.405
 20
-6.8365
 30
0.0
 10
123.2537
 20
-6.5013
 30
0.0
 10
123.2537
 20
-6.5013
 30
0.0
 10
120.7946
 20
-6.5286
 30
0.0
 10
118.7436
 20
-5.3463
 30
0.0
 10
118.9485
 20
-2.4692
 30
0.0
 10
118.9485
 20
-2.4692
 30
0.0
 10
114.7314
 20
-0.5944
 30
0.0
 10
109.5254
 20
-0.8908
 30
0.0
 10
109.1019
 20
-6.6831
 30
0.0
 10
109.1019
 20
-6.6831
 30
0.0
 10
105.6319
 20
-5.0165
 30
0.0
 10
104.044
 20
-2.6425
 30
0.0
 10
103.0331
 20
0.0077
 30
0.0
 10
103.0331
 20
0.0077
 30
0.0
 10
101.749
 20
-2.1644
 30
0.0
 10
101.2173
 20
-5.0521
 30
0.0
 10
101.2856
 20
-8.2078
 30
0.0
 10
101.2856
 20
-8.2078
 30
0.0
 10
102.7494
 20
-9.7505
 30
0.0
 10
103.3642
 20
-11.6421
 30
0.0
 10
103.5281
 20
-13.6503
 30
0.0
 10
103.5281
 20
-13.6503
 30
0.0
 10
105.1538
 20
-11.5875
 30
0.0
 10
107.8534
 20
-9.8115
 30
0.0
 10
110.3397
 20
-8.5684
 30
0.0
 10
110.3397
 20
-8.5684
 30
0.0
 10
110.3534
 20
-3.9372
 30
0.0
 10
116.3432
 20
-3.2857
 30
0.0
 10
117.7913
 20
-7.384
 30
0.0
  0
SPLINE
  5
A7
330
1F
100
AcDbEntity
  8
layer 1
 62
   250
100
AcDbSpline
210
0.0
220
0.0
230
1.0
 70
    11
 71
     3
 72
    32
 73
    28
 74
     0
 42
0.0000000001
 43
0.0000000001
 12
1.0
 22
0.0
 32
0.0
 13
1.0
 23
0.0
 33
0.0
 40
0.0
 40
0.0
 40
0.0
 40
0.0
 40
0.125
 40
0.125
 40
0.125
 40
0.125
 40
0.25
 40
0.25
 40
0.25
 40
0.25
 40
0.375
 40
0.375
 40
0.375
 40
0.375
 40
0.5
 40
0.5
 40
0.5
 40
0.5
 40
0.625
 40
0.625
 40
0.625
 40
0.625
 40
0.75
 40
0.75
 40
0.75
 40
0.75
 40
1.0
 40
1.0
 40
1.0
 40
1.0
 10
149.6025
 20
-10.1805
 30
0.0
 10
148.8533
 20
-10.5839
 30
0.0
 10
148.104
 20
-11.0738
 30
0.0
 10
147.4845
 20
-11.5637
 30
0.0
 10
147.4845
 20
-11.5637
 30
0.0
 10
146.7884
 20
-10.5376
 30
0.0
 10
145.2509
 20
-8.8908
 30
0.0
 10
144.4407
 20
-7.4151
 30
0.0
 10
144.4407
 20
-7.4151
 30
0.0
 10
142.9963
 20
-4.7843
 30
0.0
 10
142.7012
 20
-1.8005
 30
0.0
 10
144.2426
 20
1.0147
 30
0.0
 10
144.2426
 20
1.0147
 30
0.0
 10
146.4711
 20
-1.6908
 30
0.0
 10
152.7492
 20
-1.1006
 30
0.0
 10
153.7953
 20
-1.233
 30
0.0
 10
153.7953
 20
-1.233
 30
0.0
 10
152.3113
 20
-2.6162
 30
0.0
 10
152.5994
 20
-4.691
 30
0.0
 10
153.7089
 20
-5.5987
 30
0.0
 10
153.7089
 20
-5.5987
 30
0.0
 10
153.5792
 20
-6.2759
 30
0.0
 10
153.3631
 20
-6.9098
 30
0.0
 10
153.2334
 20
-7.587
 30
0.0
 10
153.2334
 20
-7.587
 30
0.0
 10
151.7637
 20
-6.8954
 30
0.0
 10
149.689
 20
-7.6302
 30
0.0
 10
149.6025
 20
-10.1805
 30
0.0
  0
SPLINE
  5
A8
330
1F
100
AcDbEntity
  8
layer 1
 62
   250
100
AcDbSpline
210
0.0
220
0.0
230
1.0
 70
    11
 71
     3
 72
    40
 73
    36
 74
     0
 42
0.0000000001
 43
0.0000000001
 12
1.0
 22
0.0
 32
0.0
 13
1.0
 23
0.0
 33
0.0
 40
0.0
 40
0.0
 40
0.0
 40
0.0
 40
0.1
 40
0.1
 40
0.1
 40
0.1
 40
0.2
 40
0.2
 40
0.2
 40
0.2
 40
0.3
 40
0.3
 40
0.3
 40
0.3
 40
0.4
 40
0.4
 40
0.4
 40
0.4
 40
0.5
 40
0.5
 40
0.5
 40
0.5
 40
0.6
 40
0.6
 40
0.6
 40
0.6
 40
0.7
 40
0.7
 40
0.7
 40
0.7
 40
0.8
 40
0.8
 40
0.8
 40
0.8
 40
1.0
 40
1.0
 40
1.0
 40
1.0
 10
161.6312
 20
-7.4618
 30
0.0
 10
160.2924
 20
-7.1749
 30
0.0
 10
157.4782
 20
-7.2159
 30
0.0
 10
155.9345
 20
-7.5028
 30
0.0
 10
155.9345
 20
-7.5028
 30
0.0
 10
156.0301
 20
-7.134
 30
0.0
 10
156.0847
 20
-6.8471
 30
0.0
 10
156.3033
 20
-6.4782
 30
0.0
 10
156.3033
 20
-6.4782
 30
0.0
 10
158.7623
 20
-6.5055
 30
0.0
 10
160.0738
 20
-4.8525
 30
0.0
 10
159.8689
 20
-2.7487
 30
0.0
 10
159.8689
 20
-2.7487
 30
0.0
 10
163.8169
 20
-0.6722
 30
0.0
 10
169.5273
 20
-1.1367
 30
0.0
 10
169.9508
 20
-6.929
 30
0.0
 10
169.9508
 20
-6.929
 30
0.0
 10
173.4207
 20
-5.2624
 30
0.0
 10
175.2103
 20
-2.6531
 30
0.0
 10
176.2213
 20
-0.0028
 30
0.0
 10
176.2213
 20
-0.0028
 30
0.0
 10
177.5054
 20
-2.175
 30
0.0
 10
177.9699
 20
-4.9618
 30
0.0
 10
177.9016
 20
-8.1176
 30
0.0
 10
177.9016
 20
-8.1176
 30
0.0
 10
176.3032
 20
-9.593
 30
0.0
 10
175.6885
 20
-11.888
 30
0.0
 10
175.5246
 20
-13.8962
 30
0.0
 10
175.5246
 20
-13.8962
 30
0.0
 10
173.8989
 20
-11.8334
 30
0.0
 10
171.5355
 20
-10.0574
 30
0.0
 10
169.0492
 20
-8.8143
 30
0.0
 10
169.0492
 20
-8.8143
 30
0.0
 10
169.0355
 20
-4.1831
 30
0.0
 10
163.0792
 20
-3.3635
 30
0.0
 10
161.6312
 20
-7.4618
 30
0.0
  0
SPLINE
  5
A9
330
1F
100
AcDbEntity
  8
layer 1
 62
   250
100
AcDbSpline
210
0.0
220
0.0
230
1.0
 70
    11
 71
     3
 72
    24
 73
    20
 74
     0
 42
0.0000000001
 43
0.0000000001
 12
1.0
 22
0.0
 32
0.0
 13
1.0
 23
0.0
 33
0.0
 40
0.0
 40
0.0
 40
0.0
 40
0.0
 40
0.1666666666666667
 40
0.1666666666666667
 40
0.1666666666666667
 40
0.1666666666666667
 40
0.3333333333333333
 40
0.3333333333333333
 40
0.3333333333333333
 40
0.3333333333333333
 40
0.5
 40
0.5
 40
0.5
 40
0.5
 40
0.6666666666666666
 40
0.6666666666666666
 40
0.6666666666666666
 40
0.6666666666666666
 40
1.0
 40
1.0
 40
1.0
 40
1.0
 10
169.1439
 20
-20.574
 30
0.0
 10
169.6989
 20
-15.8566
 30
0.0
 10
167.257
 20
-13.5701
 30
0.0
 10
165.1148
 20
-11.7164
 30
0.0
 10
165.1148
 20
-11.7164
 30
0.0
 10
166.5133
 20
-11.9273
 30
0.0
 10
167.5456
 20
-11.5721
 30
0.0
 10
167.9119
 20
-11.1503
 30
0.0
 10
167.9119
 20
-11.1503
 30
0.0
 10
169.2327
 20
-11.6276
 30
0.0
 10
170.7534
 20
-12.5045
 30
0.0
 10
171.9078
 20
-13.6145
 30
0.0
 10
171.9078
 20
-13.6145
 30
0.0
 10
169.599
 20
-15.235
 30
0.0
 10
171.2196
 20
-19.2198
 30
0.0
 10
173.6393
 20
-18.3429
 30
0.0
 10
173.6393
 20
-18.3429
 30
0.0
 10
172.9733
 20
-19.353
 30
0.0
 10
170.9421
 20
-20.3631
 30
0.0
 10
169.1439
 20
-20.574
 30
0.0
  0
SPLINE
  5
AA
330
1F
100
AcDbEntity
  8
layer 1
 62
   250
100
AcDbSpline
210
0.0
220
0.0
230
1.0
 70
    11
 71
     3
 72
    28
 73
    24
 74
     0
 42
0.0000000001
 43
0.0000000001
 12
1.0
 22
0.0
 32
0.0
 13
1.0
 23
0.0
 33
0.0
 40
0.0
 40
0.0
 40
0.0
 40
0.0
 40
0.1428571428571428
 40
0.1428571428571428
 40
0.1428571428571428
 40
0.1428571428571428
 40
0.2857142857142857
 40
0.2857142857142857
 40
0.2857142857142857
 40
0.2857142857142857
 40
0.4285714285714285
 40
0.4285714285714285
 40
0.4285714285714285
 40
0.4285714285714285
 40
0.5714285714285714
 40
0.5714285714285714
 40
0.5714285714285714
 40
0.5714285714285714
 40
0.7142857142857143
 40
0.7142857142857143
 40
0.7142857142857143
 40
0.7142857142857143
 40
1.0
 40
1.0
 40
1.0
 40
1.0
 10
184.8944
 20
-20.907
 30
0.0
 10
186.5673
 20
-19.9659
 30
0.0
 10
185.8745
 20
-17.6379
 30
0.0
 10
183.6619
 20
-16.9896
 30
0.0
 10
183.6619
 20
-16.9896
 30
0.0
 10
181.8445
 20
-16.4572
 30
0.0
 10
180.1878
 20
-17.8986
 30
0.0
 10
181.2315
 20
-19.7082
 30
0.0
 10
181.2315
 20
-19.7082
 30
0.0
 10
180.2991
 20
-19.1754
 30
0.0
 10
178.8007
 20
-18.0432
 30
0.0
 10
177.7684
 20
-16.6447
 30
0.0
 10
177.7684
 20
-16.6447
 30
0.0
 10
178.4443
 20
-15.0407
 30
0.0
 10
179.6878
 20
-12.493
 30
0.0
 10
182.2584
 20
-12.8349
 30
0.0
 10
182.2584
 20
-12.8349
 30
0.0
 10
185.2647
 20
-13.2347
 30
0.0
 10
188.6749
 20
-16.9067
 30
0.0
 10
189.9892
 20
-19.3086
 30
0.0
 10
189.9892
 20
-19.3086
 30
0.0
 10
188.7571
 20
-20.4075
 30
0.0
 10
186.8923
 20
-20.907
 30
0.0
 10
184.8944
 20
-20.907
 30
0.0
  0
SPLINE
  5
AB
330
1F
100
AcDbEntity
  8
layer 1
 62
   250
100
AcDbSpline
210
0.0
220
0.0
230
1.0
 70
    11
 71
     3
 72
    24
 73
    20
 74
     0
 42
0.0000000001
 43
0.0000000001
 12
1.0
 22
0.0
 32
0.0
 13
1.0
 23
0.0
 33
0.0
 40
0.0
 40
0.0
 40
0.0
 40
0.0
 40
0.1666666666666667
 40
0.1666666666666667
 40
0.1666666666666667
 40
0.1666666666666667
 40
0.3333333333333333
 40
0.3333333333333333
 40
0.3333333333333333
 40
0.3333333333333333
 40
0.5
 40
0.5
 40
0.5
 40
0.5
 40
0.6666666666666666
 40
0.6666666666666666
 40
0.6666666666666666
 40
0.6666666666666666
 40
1.0
 40
1.0
 40
1.0
 40
1.0
 10
110.0296
 20
-20.6021
 30
0.0
 10
109.4746
 20
-15.8848
 30
0.0
 10
111.9447
 20
-13.5701
 30
0.0
 10
114.0869
 20
-11.7164
 30
0.0
 10
114.0869
 20
-11.7164
 30
0.0
 10
112.6884
 20
-11.9273
 30
0.0
 10
111.4588
 20
-11.4594
 30
0.0
 10
111.0926
 20
-11.0376
 30
0.0
 10
111.0926
 20
-11.0376
 30
0.0
 10
109.7717
 20
-11.684
 30
0.0
 10
108.2792
 20
-12.5045
 30
0.0
 10
107.1248
 20
-13.6145
 30
0.0
 10
107.1248
 20
-13.6145
 30
0.0
 10
110.1943
 20
-15.0096
 30
0.0
 10
108.0666
 20
-19.5297
 30
0.0
 10
105.3933
 20
-18.3429
 30
0.0
 10
105.3933
 20
-18.3429
 30
0.0
 10
106.0593
 20
-19.353
 30
0.0
 10
108.2314
 20
-20.3913
 30
0.0
 10
110.0296
 20
-20.6021
 30
0.0
  0
SPLINE
  5
AC
330
1F
100
AcDbEntity
  8
layer 1
 62
   250
100
AcDbSpline
210
0.0
220
0.0
230
1.0
 70
    11
 71
     3
 72
    28
 73
    24
 74
     0
 42
0.0000000001
 43
0.0000000001
 12
1.0
 22
0.0
 32
0.0
 13
1.0
 23
0.0
 33
0.0
 40
0.0
 40
0.0
 40
0.0
 40
0.0
 40
0.1428571428571428
 40
0.1428571428571428
 40
0.1428571428571428
 40
0.1428571428571428
 40
0.2857142857142857
 40
0.2857142857142857
 40
0.2857142857142857
 40
0.2857142857142857
 40
0.4285714285714285
 40
0.4285714285714285
 40
0.4285714285714285
 40
0.4285714285714285
 40
0.5714285714285714
 40
0.5714285714285714
 40
0.5714285714285714
 40
0.5714285714285714
 40
0.7142857142857143
 40
0.7142857142857143
 40
0.7142857142857143
 40
0.7142857142857143
 40
1.0
 40
1.0
 40
1.0
 40
1.0
 10
94.1382
 20
-20.907
 30
0.0
 10
92.4653
 20
-19.9659
 30
0.0
 10
93.2145
 20
-17.4969
 30
0.0
 10
95.4271
 20
-16.8487
 30
0.0
 10
95.4271
 20
-16.8487
 30
0.0
 10
97.2443
 20
-16.3163
 30
0.0
 10
98.8166
 20
-17.8704
 30
0.0
 10
97.9983
 20
-19.68
 30
0.0
 10
97.9983
 20
-19.68
 30
0.0
 10
98.9307
 20
-19.1472
 30
0.0
 10
100.2319
 20
-18.0432
 30
0.0
 10
101.2642
 20
-16.6447
 30
0.0
 10
101.2642
 20
-16.6447
 30
0.0
 10
100.5883
 20
-15.0407
 30
0.0
 10
99.3448
 20
-12.493
 30
0.0
 10
96.7742
 20
-12.8349
 30
0.0
 10
96.7742
 20
-12.8349
 30
0.0
 10
93.7679
 20
-13.2346
 30
0.0
 10
90.4704
 20
-16.7658
 30
0.0
 10
89.1562
 20
-19.1677
 30
0.0
 10
89.1562
 20
-19.1677
 30
0.0
 10
90.3882
 20
-20.2666
 30
0.0
 10
92.1403
 20
-20.907
 30
0.0
 10
94.1382
 20
-20.907
 30
0.0
  0
SPLINE
  5
AD
330
1F
100
AcDbEntity
  8
layer 1
 62
   250
100
AcDbSpline
210
0.0
220
0.0
230
1.0
 70
    11
 71
     3
 72
    20
 73
    16
 74
     0
 42
0.0000000001
 43
0.0000000001
 12
1.0
 22
0.0
 32
0.0
 13
1.0
 23
0.0
 33
0.0
 40
0.0
 40
0.0
 40
0.0
 40
0.0
 40
0.2
 40
0.2
 40
0.2
 40
0.2
 40
0.4
 40
0.4
 40
0.4
 40
0.4
 40
0.6
 40
0.6
 40
0.6
 40
0.6
 40
1.0
 40
1.0
 40
1.0
 40
1.0
 10
142.0856
 20
3.01
 30
0.0
 10
140.8295
 20
0.8921
 30
0.0
 10
139.5462
 20
-3.6802
 30
0.0
 10
139.4332
 20
-7.0536
 30
0.0
 10
139.4332
 20
-7.0536
 30
0.0
 10
139.2032
 20
-3.1484
 30
0.0
 10
138.2928
 20
1.03
 30
0.0
 10
136.7836
 20
3.1658
 30
0.0
 10
136.7836
 20
3.1658
 30
0.0
 10
137.7676
 20
4.368
 30
0.0
 10
138.9692
 20
6.7692
 30
0.0
 10
139.436
 20
8.2137
 30
0.0
 10
139.436
 20
8.2137
 30
0.0
 10
139.9654
 20
6.5065
 30
0.0
 10
141.148
 20
4.3085
 30
0.0
 10
142.0856
 20
3.01
 30
0.0
  0
SPLINE
  5
AE
330
1F
100
AcDbEntity
  8
layer 1
 62
   250
100
AcDbSpline
210
0.0
220
0.0
230
1.0
 70
    11
 71
     3
 72
    24
 73
    20
 74
     0
 42
0.0000000001
 43
0.0000000001
 12
1.0
 22
0.0
 32
0.0
 13
1.0
 23
0.0
 33
0.0
 40
0.0
 40
0.0
 40
0.0
 40
0.0
 40
0.1666666666666667
 40
0.1666666666666667
 40
0.1666666666666667
 40
0.1666666666666667
 40
0.3333333333333333
 40
0.3333333333333333
 40
0.3333333333333333
 40
0.3333333333333333
 40
0.5
 40
0.5
 40
0.5
 40
0.5
 40
0.6666666666666666
 40
0.6666666666666666
 40
0.6666666666666666
 40
0.6666666666666666
 40
1.0
 40
1.0
 40
1.0
 40
1.0
 10
141.9766
 20
-18.5002
 30
0.0
 10
140.7205
 20
-16.3748
 30
0.0
 10
139.6552
 20
-12.994
 30
0.0
 10
139.4332
 20
-8.8515
 30
0.0
 10
139.4332
 20
-8.8515
 30
0.0
 10
139.3121
 20
-13.4738
 30
0.0
 10
138.2383
 20
-16.5162
 30
0.0
 10
137.3285
 20
-18.331
 30
0.0
 10
137.3285
 20
-18.331
 30
0.0
 10
137.6586
 20
-19.6428
 30
0.0
 10
138.043
 20
-20.9013
 30
0.0
 10
138.5098
 20
-21.9682
 30
0.0
 10
138.5098
 20
-21.9682
 30
0.0
 10
138.8496
 20
-20.6105
 30
0.0
 10
140.1071
 20
-20.7065
 30
0.0
 10
140.5779
 20
-21.9825
 30
0.0
 10
140.5779
 20
-21.9825
 30
0.0
 10
140.8865
 20
-20.9367
 30
0.0
 10
141.5445
 20
-19.4266
 30
0.0
 10
141.9766
 20
-18.5002
 30
0.0
  0
SPLINE
  5
AF
330
1F
100
AcDbEntity
  8
layer 1
 62
   250
100
AcDbSpline
210
0.0
220
0.0
230
1.0
 70
    11
 71
     3
 72
    20
 73
    16
 74
     0
 42
0.0000000001
 43
0.0000000001
 12
1.0
 22
0.0
 32
0.0
 13
1.0
 23
0.0
 33
0.0
 40
0.0
 40
0.0
 40
0.0
 40
0.0
 40
0.2
 40
0.2
 40
0.2
 40
0.2
 40
0.4
 40
0.4
 40
0.4
 40
0.4
 40
0.6
 40
0.6
 40
0.6
 40
0.6
 40
1.0
 40
1.0
 40
1.0
 40
1.0
 10
150.828
 20
-27.7081
 30
0.0
 10
148.6474
 20
-28.0762
 30
0.0
 10
146.3395
 20
-29.3364
 30
0.0
 10
144.7961
 20
-30.7665
 30
0.0
 10
144.7961
 20
-30.7665
 30
0.0
 10
143.7767
 20
-29.4214
 30
0.0
 10
142.9271
 20
-28.2462
 30
0.0
 10
141.9501
 20
-26.6886
 30
0.0
 10
141.9501
 20
-26.6886
 30
0.0
 10
142.4174
 20
-24.763
 30
0.0
 10
143.0121
 20
-22.8373
 30
0.0
 10
143.6917
 20
-21.2515
 30
0.0
 10
143.6917
 20
-21.2515
 30
0.0
 10
145.4474
 20
-23.8568
 30
0.0
 10
147.7978
 20
-26.1647
 30
0.0
 10
150.828
 20
-27.7081
 30
0.0
  0
SPLINE
  5
B0
330
1F
100
AcDbEntity
  8
layer 1
 62
   250
100
AcDbSpline
210
0.0
220
0.0
230
1.0
 70
    11
 71
     3
 72
    16
 73
    12
 74
     0
 42
0.0000000001
 43
0.0000000001
 12
1.0
 22
0.0
 32
0.0
 13
1.0
 23
0.0
 33
0.0
 40
0.0
 40
0.0
 40
0.0
 40
0.0
 40
0.25
 40
0.25
 40
0.25
 40
0.25
 40
0.5
 40
0.5
 40
0.5
 40
0.5
 40
1.0
 40
1.0
 40
1.0
 40
1.0
 10
156.8597
 20
-34.8443
 30
0.0
 10
156.1235
 20
-33.6125
 30
0.0
 10
155.6421
 20
-31.7859
 30
0.0
 10
155.543
 20
-30.1718
 30
0.0
 10
155.543
 20
-30.1718
 30
0.0
 10
156.8881
 20
-30.0585
 30
0.0
 10
159.2527
 20
-31.1771
 30
0.0
 10
161.2775
 20
-31.2337
 30
0.0
 10
161.2775
 20
-31.2337
 30
0.0
 10
159.5642
 20
-31.9417
 30
0.0
 10
157.9783
 20
-33.2018
 30
0.0
 10
156.8597
 20
-34.8443
 30
0.0
  0
SPLINE
  5
B1
330
1F
100
AcDbEntity
  8
layer 1
 62
   250
100
AcDbSpline
210
0.0
220
0.0
230
1.0
 70
    11
 71
     3
 72
    56
 73
    52
 74
     0
 42
0.0000000001
 43
0.0000000001
 12
1.0
 22
0.0
 32
0.0
 13
1.0
 23
0.0
 33
0.0
 40
0.0
 40
0.0
 40
0.0
 40
0.0
 40
0.0714285714285714
 40
0.0714285714285714
 40
0.0714285714285714
 40
0.0714285714285714
 40
0.1428571428571428
 40
0.1428571428571428
 40
0.1428571428571428
 40
0.1428571428571428
 40
0.2142857142857143
 40
0.2142857142857143
 40
0.2142857142857143
 40
0.2142857142857143
 40
0.2857142857142857
 40
0.2857142857142857
 40
0.2857142857142857
 40
0.2857142857142857
 40
0.3571428571428572
 40
0.3571428571428572
 40
0.3571428571428572
 40
0.3571428571428572
 40
0.4285714285714285
 40
0.4285714285714285
 40
0.4285714285714285
 40
0.4285714285714285
 40
0.5
 40
0.5
 40
0.5
 40
0.5
 40
0.5714285714285714
 40
0.5714285714285714
 40
0.5714285714285714
 40
0.5714285714285714
 40
0.6428571428571429
 40
0.6428571428571429
 40
0.6428571428571429
 40
0.6428571428571429
 40
0.7142857142857143
 40
0.7142857142857143
 40
0.7142857142857143
 40
0.7142857142857143
 40
0.7857142857142857
 40
0.7857142857142857
 40
0.7857142857142857
 40
0.7857142857142857
 40
0.8571428571428571
 40
0.8571428571428571
 40
0.8571428571428571
 40
0.8571428571428571
 40
1.0
 40
1.0
 40
1.0
 40
1.0
 10
161.5323
 20
-28.8975
 30
0.0
 10
159.7483
 20
-28.7275
 30
0.0
 10
157.6669
 20
-28.0479
 30
0.0
 10
155.6704
 20
-27.2408
 30
0.0
 10
155.6704
 20
-27.2408
 30
0.0
 10
156.1934
 20
-24.7639
 30
0.0
 10
158.0413
 20
-22.7337
 30
0.0
 10
159.2162
 20
-22.7733
 30
0.0
 10
159.2162
 20
-22.7733
 30
0.0
 10
160.2989
 20
-22.8099
 30
0.0
 10
161.642
 20
-23.64
 30
0.0
 10
159.4509
 20
-24.9895
 30
0.0
 10
159.4509
 20
-24.9895
 30
0.0
 10
161.7164
 20
-27.9205
 30
0.0
 10
166.5729
 20
-27.0284
 30
0.0
 10
168.4562
 20
-23.078
 30
0.0
 10
168.4562
 20
-23.078
 30
0.0
 10
171.911
 20
-23.0639
 30
0.0
 10
174.9411
 20
-21.3082
 30
0.0
 10
176.2296
 20
-19.0851
 30
0.0
 10
176.2296
 20
-19.0851
 30
0.0
 10
177.2773
 20
-22.2709
 30
0.0
 10
177.4756
 20
-25.7116
 30
0.0
 10
177.0792
 20
-29.4072
 30
0.0
 10
177.0792
 20
-29.4072
 30
0.0
 10
176.0172
 20
-29.1806
 30
0.0
 10
175.0402
 20
-29.039
 30
0.0
 10
173.9358
 20
-28.9399
 30
0.0
 10
173.9358
 20
-28.9399
 30
0.0
 10
174.9221
 20
-28.3274
 30
0.0
 10
176.4148
 20
-26.7137
 30
0.0
 10
176.3754
 20
-25.0775
 30
0.0
 10
176.3754
 20
-25.0775
 30
0.0
 10
176.3448
 20
-23.8048
 30
0.0
 10
175.7626
 20
-22.6043
 30
0.0
 10
173.8097
 20
-22.3214
 30
0.0
 10
173.8097
 20
-22.3214
 30
0.0
 10
171.1987
 20
-21.9431
 30
0.0
 10
169.9641
 20
-26.6851
 30
0.0
 10
173.1287
 20
-26.6037
 30
0.0
 10
173.1287
 20
-26.6037
 30
0.0
 10
171.996
 20
-27.3824
 30
0.0
 10
170.8632
 20
-28.1611
 30
0.0
 10
169.7305
 20
-28.9399
 30
0.0
 10
169.7305
 20
-28.9399
 30
0.0
 10
168.4704
 20
-28.8125
 30
0.0
 10
164.619
 20
-29.6621
 30
0.0
 10
165.95
 20
-27.4107
 30
0.0
 10
165.95
 20
-27.4107
 30
0.0
 10
165.4953
 20
-26.7559
 30
0.0
 10
162.0678
 20
-26.9093
 30
0.0
 10
161.5323
 20
-28.8975
 30
0.0
  0
SPLINE
  5
B2
330
1F
100
AcDbEntity
  8
layer 1
 62
   250
100
AcDbSpline
210
0.0
220
0.0
230
1.0
 70
    11
 71
     3
 72
    32
 73
    28
 74
     0
 42
0.0000000001
 43
0.0000000001
 12
1.0
 22
0.0
 32
0.0
 13
1.0
 23
0.0
 33
0.0
 40
0.0
 40
0.0
 40
0.0
 40
0.0
 40
0.125
 40
0.125
 40
0.125
 40
0.125
 40
0.25
 40
0.25
 40
0.25
 40
0.25
 40
0.375
 40
0.375
 40
0.375
 40
0.375
 40
0.5
 40
0.5
 40
0.5
 40
0.5
 40
0.625
 40
0.625
 40
0.625
 40
0.625
 40
0.75
 40
0.75
 40
0.75
 40
0.75
 40
1.0
 40
1.0
 40
1.0
 40
1.0
 10
153.4191
 20
-26.0515
 30
0.0
 10
151.8049
 20
-25.4143
 30
0.0
 10
149.1288
 20
-23.8001
 30
0.0
 10
148.3218
 20
-21.4639
 30
0.0
 10
148.3218
 20
-21.4639
 30
0.0
 10
151.1961
 20
-21.5063
 30
0.0
 10
151.2245
 20
-16.5789
 30
0.0
 10
148.1519
 20
-16.1542
 30
0.0
 10
148.1519
 20
-16.1542
 30
0.0
 10
148.2085
 20
-15.5312
 30
0.0
 10
148.2652
 20
-14.9931
 30
0.0
 10
148.1943
 20
-14.3701
 30
0.0
 10
148.1943
 20
-14.3701
 30
0.0
 10
149.0297
 20
-13.6763
 30
0.0
 10
149.8226
 20
-13.11
 30
0.0
 10
150.7005
 20
-12.671
 30
0.0
 10
150.7005
 20
-12.671
 30
0.0
 10
151.6067
 20
-13.1524
 30
0.0
 10
152.6828
 20
-13.0391
 30
0.0
 10
153.2917
 20
-12.586
 30
0.0
 10
153.2917
 20
-12.586
 30
0.0
 10
153.5748
 20
-15.6161
 30
0.0
 10
155.6421
 20
-18.6887
 30
0.0
 10
157.8368
 20
-20.1471
 30
0.0
 10
157.8368
 20
-20.1471
 30
0.0
 10
155.5996
 20
-21.0532
 30
0.0
 10
154.0421
 20
-23.701
 30
0.0
 10
153.4191
 20
-26.0515
 30
0.0
  0
SPLINE
  5
B3
330
1F
100
AcDbEntity
  8
layer 1
 62
   250
100
AcDbSpline
210
0.0
220
0.0
230
1.0
 70
    11
 71
     3
 72
    16
 73
    12
 74
     0
 42
0.0000000001
 43
0.0000000001
 12
1.0
 22
0.0
 32
0.0
 13
1.0
 23
0.0
 33
0.0
 40
0.0
 40
0.0
 40
0.0
 40
0.0
 40
0.25
 40
0.25
 40
0.25
 40
0.25
 40
0.5
 40
0.5
 40
0.5
 40
0.5
 40
1.0
 40
1.0
 40
1.0
 40
1.0
 10
166.1187
 20
-38.4974
 30
0.0
 10
164.2089
 20
-38.7948
 30
0.0
 10
161.2776
 20
-38.2425
 30
0.0
 10
159.0261
 20
-36.5434
 30
0.0
 10
159.0261
 20
-36.5434
 30
0.0
 10
160.8383
 20
-34.2496
 30
0.0
 10
163.6274
 20
-32.5081
 30
0.0
 10
166.927
 20
-31.8284
 30
0.0
 10
166.927
 20
-31.8284
 30
0.0
 10
165.625
 20
-33.7399
 30
0.0
 10
165.3843
 20
-36.7133
 30
0.0
 10
166.1187
 20
-38.4974
 30
0.0
  0
SPLINE
  5
B4
330
1F
100
AcDbEntity
  8
layer 1
 62
   250
100
AcDbSpline
210
0.0
220
0.0
230
1.0
 70
    11
 71
     3
 72
    16
 73
    12
 74
     0
 42
0.0000000001
 43
0.0000000001
 12
1.0
 22
0.0
 32
0.0
 13
1.0
 23
0.0
 33
0.0
 40
0.0
 40
0.0
 40
0.0
 40
0.0
 40
0.25
 40
0.25
 40
0.25
 40
0.25
 40
0.5
 40
0.5
 40
0.5
 40
0.5
 40
1.0
 40
1.0
 40
1.0
 40
1.0
 10
172.1576
 20
-36.6709
 30
0.0
 10
173.8663
 20
-35.7788
 30
0.0
 10
175.8039
 20
-32.678
 30
0.0
 10
176.272
 20
-31.616
 30
0.0
 10
176.272
 20
-31.616
 30
0.0
 10
175.5395
 20
-31.4036
 30
0.0
 10
173.425
 20
-31.1913
 30
0.0
 10
172.1092
 20
-31.2762
 30
0.0
 10
172.1092
 20
-31.2762
 30
0.0
 10
170.9644
 20
-33.3576
 30
0.0
 10
171.5087
 20
-36.2461
 30
0.0
 10
172.1576
 20
-36.6709
 30
0.0
  0
SPLINE
  5
B5
330
1F
100
AcDbEntity
  8
layer 1
 62
   250
100
AcDbSpline
210
0.0
220
0.0
230
1.0
 70
    11
 71
     3
 72
    20
 73
    16
 74
     0
 42
0.0000000001
 43
0.0000000001
 12
1.0
 22
0.0
 32
0.0
 13
1.0
 23
0.0
 33
0.0
 40
0.0
 40
0.0
 40
0.0
 40
0.0
 40
0.2
 40
0.2
 40
0.2
 40
0.2
 40
0.4
 40
0.4
 40
0.4
 40
0.4
 40
0.6
 40
0.6
 40
0.6
 40
0.6
 40
1.0
 40
1.0
 40
1.0
 40
1.0
 10
160.2285
 20
-19.1184
 30
0.0
 10
157.7263
 20
-17.5163
 30
0.0
 10
155.3321
 20
-13.3219
 30
0.0
 10
155.3142
 20
-10.2617
 30
0.0
 10
155.3142
 20
-10.2617
 30
0.0
 10
157.0783
 20
-9.5777
 30
0.0
 10
159.5985
 20
-9.5417
 30
0.0
 10
161.5786
 20
-9.6677
 30
0.0
 10
161.5786
 20
-9.6677
 30
0.0
 10
161.2504
 20
-11.8574
 30
0.0
 10
164.2191
 20
-13.7649
 30
0.0
 10
163.8881
 20
-15.9127
 30
0.0
 10
163.8881
 20
-15.9127
 30
0.0
 10
163.6753
 20
-17.2942
 30
0.0
 10
163.3746
 20
-18.4819
 30
0.0
 10
160.2285
 20
-19.1184
 30
0.0
  0
SPLINE
  5
B6
330
1F
100
AcDbEntity
  8
layer 1
 62
   250
100
AcDbSpline
210
0.0
220
0.0
230
1.0
 70
    11
 71
     3
 72
    20
 73
    16
 74
     0
 42
0.0000000001
 43
0.0000000001
 12
1.0
 22
0.0
 32
0.0
 13
1.0
 23
0.0
 33
0.0
 40
0.0
 40
0.0
 40
0.0
 40
0.0
 40
0.2
 40
0.2
 40
0.2
 40
0.2
 40
0.4
 40
0.4
 40
0.4
 40
0.4
 40
0.6
 40
0.6
 40
0.6
 40
0.6
 40
1.0
 40
1.0
 40
1.0
 40
1.0
 10
128.3199
 20
-27.7081
 30
0.0
 10
130.5005
 20
-28.0762
 30
0.0
 10
132.4738
 20
-29.2695
 30
0.0
 10
134.0172
 20
-30.6996
 30
0.0
 10
134.0172
 20
-30.6996
 30
0.0
 10
135.0366
 20
-29.3545
 30
0.0
 10
136.1204
 20
-27.9785
 30
0.0
 10
137.0974
 20
-26.4209
 30
0.0
 10
137.0974
 20
-26.4209
 30
0.0
 10
136.6301
 20
-24.4953
 30
0.0
 10
136.1358
 20
-22.8373
 30
0.0
 10
135.4562
 20
-21.2515
 30
0.0
 10
135.4562
 20
-21.2515
 30
0.0
 10
133.7004
 20
-23.8568
 30
0.0
 10
131.35
 20
-26.1647
 30
0.0
 10
128.3199
 20
-27.7081
 30
0.0
  0
SPLINE
  5
B7
330
1F
100
AcDbEntity
  8
layer 1
 62
   250
100
AcDbSpline
210
0.0
220
0.0
230
1.0
 70
    11
 71
     3
 72
    16
 73
    12
 74
     0
 42
0.0000000001
 43
0.0000000001
 12
1.0
 22
0.0
 32
0.0
 13
1.0
 23
0.0
 33
0.0
 40
0.0
 40
0.0
 40
0.0
 40
0.0
 40
0.25
 40
0.25
 40
0.25
 40
0.25
 40
0.5
 40
0.5
 40
0.5
 40
0.5
 40
1.0
 40
1.0
 40
1.0
 40
1.0
 10
122.4099
 20
-34.6008
 30
0.0
 10
123.1462
 20
-33.3689
 30
0.0
 10
123.5058
 20
-31.7859
 30
0.0
 10
123.6049
 20
-30.1718
 30
0.0
 10
123.6049
 20
-30.1718
 30
0.0
 10
122.2598
 20
-30.0585
 30
0.0
 10
120.1735
 20
-31.0379
 30
0.0
 10
118.1488
 20
-31.0946
 30
0.0
 10
118.1488
 20
-31.0946
 30
0.0
 10
119.8621
 20
-31.8025
 30
0.0
 10
121.2913
 20
-32.9583
 30
0.0
 10
122.4099
 20
-34.6008
 30
0.0
  0
SPLINE
  5
B8
330
1F
100
AcDbEntity
  8
layer 1
 62
   250
100
AcDbSpline
210
0.0
220
0.0
230
1.0
 70
    11
 71
     3
 72
    56
 73
    52
 74
     0
 42
0.0000000001
 43
0.0000000001
 12
1.0
 22
0.0
 32
0.0
 13
1.0
 23
0.0
 33
0.0
 40
0.0
 40
0.0
 40
0.0
 40
0.0
 40
0.0714285714285714
 40
0.0714285714285714
 40
0.0714285714285714
 40
0.0714285714285714
 40
0.1428571428571428
 40
0.1428571428571428
 40
0.1428571428571428
 40
0.1428571428571428
 40
0.2142857142857143
 40
0.2142857142857143
 40
0.2142857142857143
 40
0.2142857142857143
 40
0.2857142857142857
 40
0.2857142857142857
 40
0.2857142857142857
 40
0.2857142857142857
 40
0.3571428571428572
 40
0.3571428571428572
 40
0.3571428571428572
 40
0.3571428571428572
 40
0.4285714285714285
 40
0.4285714285714285
 40
0.4285714285714285
 40
0.4285714285714285
 40
0.5
 40
0.5
 40
0.5
 40
0.5
 40
0.5714285714285714
 40
0.5714285714285714
 40
0.5714285714285714
 40
0.5714285714285714
 40
0.6428571428571429
 40
0.6428571428571429
 40
0.6428571428571429
 40
0.6428571428571429
 40
0.7142857142857143
 40
0.7142857142857143
 40
0.7142857142857143
 40
0.7142857142857143
 40
0.7857142857142857
 40
0.7857142857142857
 40
0.7857142857142857
 40
0.7857142857142857
 40
0.8571428571428571
 40
0.8571428571428571
 40
0.8571428571428571
 40
0.8571428571428571
 40
1.0
 40
1.0
 40
1.0
 40
1.0
 10
117.7828
 20
-28.8305
 30
0.0
 10
119.5669
 20
-28.6606
 30
0.0
 10
121.481
 20
-28.0479
 30
0.0
 10
123.4775
 20
-27.2408
 30
0.0
 10
123.4775
 20
-27.2408
 30
0.0
 10
122.9545
 20
-24.7639
 30
0.0
 10
121.1066
 20
-22.7337
 30
0.0
 10
119.9317
 20
-22.7733
 30
0.0
 10
119.9317
 20
-22.7733
 30
0.0
 10
118.849
 20
-22.8099
 30
0.0
 10
117.5058
 20
-23.64
 30
0.0
 10
119.697
 20
-24.9895
 30
0.0
 10
119.697
 20
-24.9895
 30
0.0
 10
117.4315
 20
-27.9205
 30
0.0
 10
112.508
 20
-26.8946
 30
0.0
 10
110.6248
 20
-22.9442
 30
0.0
 10
110.6248
 20
-22.9442
 30
0.0
 10
107.1699
 20
-22.93
 30
0.0
 10
104.3072
 20
-21.3751
 30
0.0
 10
103.0187
 20
-19.152
 30
0.0
 10
103.0187
 20
-19.152
 30
0.0
 10
101.6698
 20
-22.1371
 30
0.0
 10
101.6054
 20
-25.5109
 30
0.0
 10
102.0018
 20
-29.2064
 30
0.0
 10
102.0018
 20
-29.2064
 30
0.0
 10
103.0637
 20
-28.9799
 30
0.0
 10
103.9069
 20
-28.9052
 30
0.0
 10
105.0113
 20
-28.8061
 30
0.0
 10
105.0113
 20
-28.8061
 30
0.0
 10
104.025
 20
-28.1935
 30
0.0
 10
103.0343
 20
-26.6801
 30
0.0
 10
103.0736
 20
-25.044
 30
0.0
 10
103.0736
 20
-25.044
 30
0.0
 10
103.1041
 20
-23.7715
 30
0.0
 10
103.6074
 20
-22.4671
 30
0.0
 10
105.5724
 20
-22.2879
 30
0.0
 10
105.5724
 20
-22.2879
 30
0.0
 10
108.6182
 20
-22.0101
 30
0.0
 10
109.6187
 20
-26.6851
 30
0.0
 10
106.4541
 20
-26.6037
 30
0.0
 10
106.4541
 20
-26.6037
 30
0.0
 10
107.5869
 20
-27.3824
 30
0.0
 10
108.5858
 20
-28.0942
 30
0.0
 10
109.7185
 20
-28.873
 30
0.0
 10
109.7185
 20
-28.873
 30
0.0
 10
110.9787
 20
-28.7456
 30
0.0
 10
114.9973
 20
-29.8628
 30
0.0
 10
113.5994
 20
-27.1431
 30
0.0
 10
113.5994
 20
-27.1431
 30
0.0
 10
114.0875
 20
-26.8228
 30
0.0
 10
117.2474
 20
-26.8424
 30
0.0
 10
117.7828
 20
-28.8305
 30
0.0
  0
SPLINE
  5
B9
330
1F
100
AcDbEntity
  8
layer 1
 62
   250
100
AcDbSpline
210
0.0
220
0.0
230
1.0
 70
    11
 71
     3
 72
    32
 73
    28
 74
     0
 42
0.0000000001
 43
0.0000000001
 12
1.0
 22
0.0
 32
0.0
 13
1.0
 23
0.0
 33
0.0
 40
0.0
 40
0.0
 40
0.0
 40
0.0
 40
0.125
 40
0.125
 40
0.125
 40
0.125
 40
0.25
 40
0.25
 40
0.25
 40
0.25
 40
0.375
 40
0.375
 40
0.375
 40
0.375
 40
0.5
 40
0.5
 40
0.5
 40
0.5
 40
0.625
 40
0.625
 40
0.625
 40
0.625
 40
0.75
 40
0.75
 40
0.75
 40
0.75
 40
1.0
 40
1.0
 40
1.0
 40
1.0
 10
125.7957
 20
-25.9845
 30
0.0
 10
127.546
 20
-25.1805
 30
0.0
 10
129.7547
 20
-23.7333
 30
0.0
 10
130.525
 20
-21.3969
 30
0.0
 10
130.525
 20
-21.3969
 30
0.0
 10
127.6506
 20
-21.4394
 30
0.0
 10
127.5888
 20
-16.5789
 30
0.0
 10
130.6614
 20
-16.1542
 30
0.0
 10
130.6614
 20
-16.1542
 30
0.0
 10
130.5378
 20
-15.5312
 30
0.0
 10
130.4478
 20
-14.6251
 30
0.0
 10
130.5186
 20
-14.002
 30
0.0
 10
130.5186
 20
-14.002
 30
0.0
 10
129.6832
 20
-13.3083
 30
0.0
 10
129.2249
 20
-12.9092
 30
0.0
 10
128.6481
 20
-12.5706
 30
0.0
 10
128.6481
 20
-12.5706
 30
0.0
 10
127.7419
 20
-13.0521
 30
0.0
 10
126.5655
 20
-13.0391
 30
0.0
 10
125.9566
 20
-12.586
 30
0.0
 10
125.9566
 20
-12.586
 30
0.0
 10
125.6734
 20
-15.6161
 30
0.0
 10
123.7066
 20
-18.6552
 30
0.0
 10
121.5119
 20
-20.1136
 30
0.0
 10
121.5119
 20
-20.1136
 30
0.0
 10
123.749
 20
-21.0198
 30
0.0
 10
125.1727
 20
-23.6341
 30
0.0
 10
125.7957
 20
-25.9845
 30
0.0
  0
SPLINE
  5
BA
330
1F
100
AcDbEntity
  8
layer 1
 62
   250
100
AcDbSpline
210
0.0
220
0.0
230
1.0
 70
    11
 71
     3
 72
    16
 73
    12
 74
     0
 42
0.0000000001
 43
0.0000000001
 12
1.0
 22
0.0
 32
0.0
 13
1.0
 23
0.0
 33
0.0
 40
0.0
 40
0.0
 40
0.0
 40
0.0
 40
0.25
 40
0.25
 40
0.25
 40
0.25
 40
0.5
 40
0.5
 40
0.5
 40
0.5
 40
1.0
 40
1.0
 40
1.0
 40
1.0
 10
113.4293
 20
-38.5148
 30
0.0
 10
115.3391
 20
-38.8121
 30
0.0
 10
118.5836
 20
-38.2947
 30
0.0
 10
120.835
 20
-36.5956
 30
0.0
 10
120.835
 20
-36.5956
 30
0.0
 10
119.0229
 20
-34.3018
 30
0.0
 10
115.8336
 20
-32.4559
 30
0.0
 10
112.534
 20
-31.7762
 30
0.0
 10
112.534
 20
-31.7762
 30
0.0
 10
113.836
 20
-33.6877
 30
0.0
 10
113.955
 20
-36.696
 30
0.0
 10
113.4293
 20
-38.5148
 30
0.0
  0
SPLINE
  5
BB
330
1F
100
AcDbEntity
  8
layer 1
 62
   250
100
AcDbSpline
210
0.0
220
0.0
230
1.0
 70
    11
 71
     3
 72
    16
 73
    12
 74
     0
 42
0.0000000001
 43
0.0000000001
 12
1.0
 22
0.0
 32
0.0
 13
1.0
 23
0.0
 33
0.0
 40
0.0
 40
0.0
 40
0.0
 40
0.0
 40
0.25
 40
0.25
 40
0.25
 40
0.25
 40
0.5
 40
0.5
 40
0.5
 40
0.5
 40
1.0
 40
1.0
 40
1.0
 40
1.0
 10
107.4252
 20
-36.7405
 30
0.0
 10
105.7165
 20
-35.8484
 30
0.0
 10
103.7093
 20
-32.6084
 30
0.0
 10
103.2412
 20
-31.5464
 30
0.0
 10
103.2412
 20
-31.5464
 30
0.0
 10
103.9737
 20
-31.3341
 30
0.0
 10
106.0709
 20
-31.1217
 30
0.0
 10
107.3866
 20
-31.2066
 30
0.0
 10
107.3866
 20
-31.2066
 30
0.0
 10
108.5314
 20
-33.288
 30
0.0
 10
108.0741
 20
-35.9677
 30
0.0
 10
107.4252
 20
-36.7405
 30
0.0
  0
SPLINE
  5
BC
330
1F
100
AcDbEntity
  8
layer 1
 62
   250
100
AcDbSpline
210
0.0
220
0.0
230
1.0
 70
    11
 71
     3
 72
    20
 73
    16
 74
     0
 42
0.0000000001
 43
0.0000000001
 12
1.0
 22
0.0
 32
0.0
 13
1.0
 23
0.0
 33
0.0
 40
0.0
 40
0.0
 40
0.0
 40
0.0
 40
0.2
 40
0.2
 40
0.2
 40
0.2
 40
0.4
 40
0.4
 40
0.4
 40
0.4
 40
0.6
 40
0.6
 40
0.6
 40
0.6
 40
1.0
 40
1.0
 40
1.0
 40
1.0
 10
119.3406
 20
-18.9846
 30
0.0
 10
121.8429
 20
-17.3824
 30
0.0
 10
124.0363
 20
-13.7562
 30
0.0
 10
123.9341
 20
-10.3956
 30
0.0
 10
123.9341
 20
-10.3956
 30
0.0
 10
122.17
 20
-9.7115
 30
0.0
 10
119.7502
 20
-9.5751
 30
0.0
 10
117.77
 20
-9.7011
 30
0.0
 10
117.77
 20
-9.7011
 30
0.0
 10
117.6967
 20
-12.3258
 30
0.0
 10
115.297
 20
-13.8988
 30
0.0
 10
115.494
 20
-15.9796
 30
0.0
 10
115.494
 20
-15.9796
 30
0.0
 10
115.6257
 20
-17.371
 30
0.0
 10
116.1946
 20
-18.3481
 30
0.0
 10
119.3406
 20
-18.9846
 30
0.0
  0
SPLINE
  5
BD
330
1F
100
AcDbEntity
  8
layer 1
 62
   250
100
AcDbSpline
210
0.0
220
0.0
230
1.0
 70
    11
 71
     3
 72
    16
 73
    12
 74
     0
 42
0.0000000001
 43
0.0000000001
 12
1.0
 22
0.0
 32
0.0
 13
1.0
 23
0.0
 33
0.0
 40
0.0
 40
0.0
 40
0.0
 40
0.0
 40
0.25
 40
0.25
 40
0.25
 40
0.25
 40
0.5
 40
0.5
 40
0.5
 40
0.5
 40
1.0
 40
1.0
 40
1.0
 40
1.0
 10
194.1421
 20
-23.774
 30
0.0
 10
193.9048
 20
-22.1516
 30
0.0
 10
193.5474
 20
-20.9499
 30
0.0
 10
193.19
 20
-19.688
 30
0.0
 10
193.19
 20
-19.688
 30
0.0
 10
193.6075
 20
-19.0671
 30
0.0
 10
193.8448
 20
-18.5063
 30
0.0
 10
194.1421
 20
-17.645
 30
0.0
 10
194.1421
 20
-17.645
 30
0.0
 10
194.1421
 20
-17.645
 30
0.0
 10
194.1421
 20
-23.774
 30
0.0
 10
194.1421
 20
-23.774
 30
0.0
  0
SPLINE
  5
BE
330
1F
100
AcDbEntity
  8
layer 1
 62
   250
100
AcDbSpline
210
0.0
220
0.0
230
1.0
 70
    11
 71
     3
 72
    16
 73
    12
 74
     0
 42
0.0000000001
 43
0.0000000001
 12
1.0
 22
0.0
 32
0.0
 13
1.0
 23
0.0
 33
0.0
 40
0.0
 40
0.0
 40
0.0
 40
0.0
 40
0.25
 40
0.25
 40
0.25
 40
0.25
 40
0.5
 40
0.5
 40
0.5
 40
0.5
 40
1.0
 40
1.0
 40
1.0
 40
1.0
 10
194.1421
 20
-50.2727
 30
0.0
 10
192.7432
 20
-48.5902
 30
0.0
 10
191.8555
 20
-47.0016
 30
0.0
 10
191.808
 20
-45.5258
 30
0.0
 10
191.808
 20
-45.5258
 30
0.0
 10
191.7648
 20
-44.1839
 30
0.0
 10
192.6831
 20
-42.4813
 30
0.0
 10
194.1421
 20
-41.9806
 30
0.0
 10
194.1421
 20
-41.9806
 30
0.0
 10
194.1421
 20
-41.9806
 30
0.0
 10
194.1421
 20
-50.2727
 30
0.0
 10
194.1421
 20
-50.2727
 30
0.0
  0
SPLINE
  5
BF
330
1F
100
AcDbEntity
  8
layer 1
 62
   250
100
AcDbSpline
210
0.0
220
0.0
230
1.0
 70
    11
 71
     3
 72
    16
 73
    12
 74
     0
 42
0.0000000001
 43
0.0000000001
 12
1.0
 22
0.0
 32
0.0
 13
1.0
 23
0.0
 33
0.0
 40
0.0
 40
0.0
 40
0.0
 40
0.0
 40
0.25
 40
0.25
 40
0.25
 40
0.25
 40
0.5
 40
0.5
 40
0.5
 40
0.5
 40
1.0
 40
1.0
 40
1.0
 40
1.0
 10
85.2417
 20
-22.6474
 30
0.0
 10
85.5516
 20
-21.2068
 30
0.0
 10
85.7637
 20
-20.4048
 30
0.0
 10
85.9757
 20
-19.7607
 30
0.0
 10
85.9757
 20
-19.7607
 30
0.0
 10
85.8126
 20
-19.3942
 30
0.0
 10
85.539
 20
-18.9061
 30
0.0
 10
85.2417
 20
-18.3719
 30
0.0
 10
85.2417
 20
-18.3719
 30
0.0
 10
85.2417
 20
-18.3719
 30
0.0
 10
85.2417
 20
-22.6474
 30
0.0
 10
85.2417
 20
-22.6474
 30
0.0
  0
SPLINE
  5
C0
330
1F
100
AcDbEntity
  8
layer 1
 62
   250
100
AcDbSpline
210
0.0
220
0.0
230
1.0
 70
    11
 71
     3
 72
    16
 73
    12
 74
     0
 42
0.0000000001
 43
0.0000000001
 12
1.0
 22
0.0
 32
0.0
 13
1.0
 23
0.0
 33
0.0
 40
0.0
 40
0.0
 40
0.0
 40
0.0
 40
0.25
 40
0.25
 40
0.25
 40
0.25
 40
0.5
 40
0.5
 40
0.5
 40
0.5
 40
1.0
 40
1.0
 40
1.0
 40
1.0
 10
85.2417
 20
-49.8366
 30
0.0
 10
86.6406
 20
-48.1541
 30
0.0
 10
87.4194
 20
-47.0379
 30
0.0
 10
87.4668
 20
-45.5621
 30
0.0
 10
87.4668
 20
-45.5621
 30
0.0
 10
87.5099
 20
-44.2204
 30
0.0
 10
86.7007
 20
-42.6994
 30
0.0
 10
85.2417
 20
-42.1986
 30
0.0
 10
85.2417
 20
-42.1986
 30
0.0
 10
85.2417
 20
-42.1986
 30
0.0
 10
85.2417
 20
-49.8366
 30
0.0
 10
85.2417
 20
-49.8366
 30
0.0
  0
SPLINE
  5
C1
330
1F
100
AcDbEntity
  8
layer 1
 62
   250
100
AcDbSpline
210
0.0
220
0.0
230
1.0
 70
    11
 71
     3
 72
    36
 73
    32
 74
     0
 42
0.0000000001
 43
0.0000000001
 12
1.0
 22
0.0
 32
0.0
 13
1.0
 23
0.0
 33
0.0
 40
0.0
 40
0.0
 40
0.0
 40
0.0
 40
0.1111111111111111
 40
0.1111111111111111
 40
0.1111111111111111
 40
0.1111111111111111
 40
0.2222222222222222
 40
0.2222222222222222
 40
0.2222222222222222
 40
0.2222222222222222
 40
0.3333333333333333
 40
0.3333333333333333
 40
0.3333333333333333
 40
0.3333333333333333
 40
0.4444444444444444
 40
0.4444444444444444
 40
0.4444444444444444
 40
0.4444444444444444
 40
0.5555555555555556
 40
0.5555555555555556
 40
0.5555555555555556
 40
0.5555555555555556
 40
0.6666666666666666
 40
0.6666666666666666
 40
0.6666666666666666
 40
0.6666666666666666
 40
0.7777777777777778
 40
0.7777777777777778
 40
0.7777777777777778
 40
0.7777777777777778
 40
1.0
 40
1.0
 40
1.0
 40
1.0
 10
189.3129
 20
-31.0576
 30
0.0
 10
189.527
 20
-27.1504
 30
0.0
 10
182.0871
 20
-26.1334
 30
0.0
 10
180.4814
 20
-30.2548
 30
0.0
 10
180.4814
 20
-30.2548
 30
0.0
 10
180.2495
 20
-30.2012
 30
0.0
 10
180.0176
 20
-30.0407
 30
0.0
 10
179.7856
 20
-29.9871
 30
0.0
 10
179.7856
 20
-29.9871
 30
0.0
 10
179.8391
 20
-27.6856
 30
0.0
 10
179.8927
 20
-24.3671
 30
0.0
 10
179.1433
 20
-21.2092
 30
0.0
 10
179.1433
 20
-21.2092
 30
0.0
 10
183.675
 20
-24.3493
 30
0.0
 10
188.4743
 20
-23.3145
 30
0.0
 10
191.0256
 20
-21.5304
 30
0.0
 10
191.0256
 20
-21.5304
 30
0.0
 10
191.734
 20
-23.6851
 30
0.0
 10
192.4133
 20
-27.1111
 30
0.0
 10
191.7934
 20
-30.5474
 30
0.0
 10
191.7934
 20
-30.5474
 30
0.0
 10
191.3553
 20
-32.9756
 30
0.0
 10
189.9999
 20
-35.115
 30
0.0
 10
189.3129
 20
-36.9988
 30
0.0
 10
189.3129
 20
-36.9988
 30
0.0
 10
188.4921
 20
-36.1067
 30
0.0
 10
187.6179
 20
-35.1076
 30
0.0
 10
186.5296
 20
-34.2155
 30
0.0
 10
186.5296
 20
-34.2155
 30
0.0
 10
186.6902
 20
-32.7704
 30
0.0
 10
186.8508
 20
-30.2012
 30
0.0
 10
189.3129
 20
-31.0576
 30
0.0
  0
SPLINE
  5
C2
330
1F
100
AcDbEntity
  8
layer 1
 62
   250
100
AcDbSpline
210
0.0
220
0.0
230
1.0
 70
    11
 71
     3
 72
    36
 73
    32
 74
     0
 42
0.0000000001
 43
0.0000000001
 12
1.0
 22
0.0
 32
0.0
 13
1.0
 23
0.0
 33
0.0
 40
0.0
 40
0.0
 40
0.0
 40
0.0
 40
0.1111111111111111
 40
0.1111111111111111
 40
0.1111111111111111
 40
0.1111111111111111
 40
0.2222222222222222
 40
0.2222222222222222
 40
0.2222222222222222
 40
0.2222222222222222
 40
0.3333333333333333
 40
0.3333333333333333
 40
0.3333333333333333
 40
0.3333333333333333
 40
0.4444444444444444
 40
0.4444444444444444
 40
0.4444444444444444
 40
0.4444444444444444
 40
0.5555555555555556
 40
0.5555555555555556
 40
0.5555555555555556
 40
0.5555555555555556
 40
0.6666666666666666
 40
0.6666666666666666
 40
0.6666666666666666
 40
0.6666666666666666
 40
0.7777777777777778
 40
0.7777777777777778
 40
0.7777777777777778
 40
0.7777777777777778
 40
1.0
 40
1.0
 40
1.0
 40
1.0
 10
90.0259
 20
-31.1647
 30
0.0
 10
89.8118
 20
-26.8292
 30
0.0
 10
96.9305
 20
-25.7052
 30
0.0
 10
98.6968
 20
-30.2548
 30
0.0
 10
98.6968
 20
-30.2548
 30
0.0
 10
98.9287
 20
-30.2012
 30
0.0
 10
98.8395
 20
-30.0942
 30
0.0
 10
99.0714
 20
-30.0407
 30
0.0
 10
99.0714
 20
-30.0407
 30
0.0
 10
99.0179
 20
-27.7391
 30
0.0
 10
98.8038
 20
-24.4207
 30
0.0
 10
99.5532
 20
-21.2627
 30
0.0
 10
99.5532
 20
-21.2627
 30
0.0
 10
95.0215
 20
-24.4028
 30
0.0
 10
90.4362
 20
-23.3145
 30
0.0
 10
87.8849
 20
-21.5304
 30
0.0
 10
87.8849
 20
-21.5304
 30
0.0
 10
87.1766
 20
-23.6851
 30
0.0
 10
86.6579
 20
-27.1647
 30
0.0
 10
87.2777
 20
-30.6009
 30
0.0
 10
87.2777
 20
-30.6009
 30
0.0
 10
87.7158
 20
-33.0291
 30
0.0
 10
89.1783
 20
-35.3827
 30
0.0
 10
89.8653
 20
-37.2664
 30
0.0
 10
89.8653
 20
-37.2664
 30
0.0
 10
90.6325
 20
-36.2138
 30
0.0
 10
92.042
 20
-34.7329
 30
0.0
 10
92.8627
 20
-34.1085
 30
0.0
 10
92.8627
 20
-34.1085
 30
0.0
 10
92.7021
 20
-32.6633
 30
0.0
 10
92.488
 20
-30.3083
 30
0.0
 10
90.0259
 20
-31.1647
 30
0.0
  0
SPLINE
  5
C3
330
1F
100
AcDbEntity
  8
layer 1
 62
   250
100
AcDbSpline
210
0.0
220
0.0
230
1.0
 70
    11
 71
     3
 72
    36
 73
    32
 74
     0
 42
0.0000000001
 43
0.0000000001
 12
1.0
 22
0.0
 32
0.0
 13
1.0
 23
0.0
 33
0.0
 40
0.0
 40
0.0
 40
0.0
 40
0.0
 40
0.1111111111111111
 40
0.1111111111111111
 40
0.1111111111111111
 40
0.1111111111111111
 40
0.2222222222222222
 40
0.2222222222222222
 40
0.2222222222222222
 40
0.2222222222222222
 40
0.3333333333333333
 40
0.3333333333333333
 40
0.3333333333333333
 40
0.3333333333333333
 40
0.4444444444444444
 40
0.4444444444444444
 40
0.4444444444444444
 40
0.4444444444444444
 40
0.5555555555555556
 40
0.5555555555555556
 40
0.5555555555555556
 40
0.5555555555555556
 40
0.6666666666666666
 40
0.6666666666666666
 40
0.6666666666666666
 40
0.6666666666666666
 40
0.7777777777777778
 40
0.7777777777777778
 40
0.7777777777777778
 40
0.7777777777777778
 40
1.0
 40
1.0
 40
1.0
 40
1.0
 10
151.6855
 20
-44.4921
 30
0.0
 10
150.6686
 20
-45.0631
 30
0.0
 10
149.6516
 20
-45.6876
 30
0.0
 10
148.6346
 20
-46.2584
 30
0.0
 10
148.6346
 20
-46.2584
 30
0.0
 10
149.1732
 20
-44.2212
 30
0.0
 10
149.2509
 20
-41.7347
 30
0.0
 10
149.1744
 20
-39.5888
 30
0.0
 10
149.1744
 20
-39.5888
 30
0.0
 10
149.1259
 20
-38.2299
 30
0.0
 10
149.8194
 20
-36.4602
 30
0.0
 10
151.3644
 20
-36.9453
 30
0.0
 10
151.3644
 20
-36.9453
 30
0.0
 10
151.223
 20
-35.2446
 30
0.0
 10
150.0768
 20
-32.9144
 30
0.0
 10
147.0825
 20
-34.1085
 30
0.0
 10
147.0825
 20
-34.1085
 30
0.0
 10
146.9041
 20
-33.6625
 30
0.0
 10
146.6186
 20
-33.1094
 30
0.0
 10
146.3331
 20
-32.6633
 30
0.0
 10
146.3331
 20
-32.6633
 30
0.0
 10
147.6534
 20
-31.3252
 30
0.0
 10
150.3652
 20
-30.1477
 30
0.0
 10
152.863
 20
-30.0407
 30
0.0
 10
152.863
 20
-30.0407
 30
0.0
 10
153.202
 20
-32.3601
 30
0.0
 10
153.8086
 20
-34.84
 30
0.0
 10
155.111
 20
-36.7312
 30
0.0
 10
155.111
 20
-36.7312
 30
0.0
 10
152.2743
 20
-36.303
 30
0.0
 10
149.4375
 20
-41.0131
 30
0.0
 10
151.6855
 20
-44.4921
 30
0.0
  0
SPLINE
  5
C4
330
1F
100
AcDbEntity
  8
layer 1
 62
   250
100
AcDbSpline
210
0.0
220
0.0
230
1.0
 70
    11
 71
     3
 72
    36
 73
    32
 74
     0
 42
0.0000000001
 43
0.0000000001
 12
1.0
 22
0.0
 32
0.0
 13
1.0
 23
0.0
 33
0.0
 40
0.0
 40
0.0
 40
0.0
 40
0.0
 40
0.1111111111111111
 40
0.1111111111111111
 40
0.1111111111111111
 40
0.1111111111111111
 40
0.2222222222222222
 40
0.2222222222222222
 40
0.2222222222222222
 40
0.2222222222222222
 40
0.3333333333333333
 40
0.3333333333333333
 40
0.3333333333333333
 40
0.3333333333333333
 40
0.4444444444444444
 40
0.4444444444444444
 40
0.4444444444444444
 40
0.4444444444444444
 40
0.5555555555555556
 40
0.5555555555555556
 40
0.5555555555555556
 40
0.5555555555555556
 40
0.6666666666666666
 40
0.6666666666666666
 40
0.6666666666666666
 40
0.6666666666666666
 40
0.7777777777777778
 40
0.7777777777777778
 40
0.7777777777777778
 40
0.7777777777777778
 40
1.0
 40
1.0
 40
1.0
 40
1.0
 10
127.5997
 20
-44.4921
 30
0.0
 10
128.6167
 20
-45.0631
 30
0.0
 10
129.3125
 20
-45.527
 30
0.0
 10
130.2224
 20
-46.2049
 30
0.0
 10
130.2224
 20
-46.2049
 30
0.0
 10
129.6838
 20
-44.1677
 30
0.0
 10
129.6063
 20
-41.5205
 30
0.0
 10
129.6827
 20
-39.3747
 30
0.0
 10
129.6827
 20
-39.3747
 30
0.0
 10
129.7311
 20
-38.0159
 30
0.0
 10
129.1982
 20
-36.4067
 30
0.0
 10
127.6532
 20
-36.8917
 30
0.0
 10
127.6532
 20
-36.8917
 30
0.0
 10
127.7946
 20
-35.1911
 30
0.0
 10
128.8338
 20
-32.8609
 30
0.0
 10
131.8281
 20
-34.055
 30
0.0
 10
131.8281
 20
-34.055
 30
0.0
 10
132.0065
 20
-33.609
 30
0.0
 10
132.292
 20
-33.0559
 30
0.0
 10
132.5775
 20
-32.6098
 30
0.0
 10
132.5775
 20
-32.6098
 30
0.0
 10
131.2572
 20
-31.2182
 30
0.0
 10
128.9735
 20
-29.9336
 30
0.0
 10
126.4757
 20
-29.8266
 30
0.0
 10
126.4757
 20
-29.8266
 30
0.0
 10
126.4044
 20
-32.146
 30
0.0
 10
125.4231
 20
-34.84
 30
0.0
 10
124.1207
 20
-36.7312
 30
0.0
 10
124.1207
 20
-36.7312
 30
0.0
 10
127.2251
 20
-36.2495
 30
0.0
 10
130.2224
 20
-40.6919
 30
0.0
 10
127.5997
 20
-44.4921
 30
0.0
  0
SPLINE
  5
C5
330
1F
100
AcDbEntity
  8
layer 1
 62
   250
100
AcDbSpline
210
0.0
220
0.0
230
1.0
 70
    11
 71
     3
 72
    16
 73
    12
 74
     0
 42
0.0000000001
 43
0.0000000001
 12
1.0
 22
0.0
 32
0.0
 13
1.0
 23
0.0
 33
0.0
 40
0.0
 40
0.0
 40
0.0
 40
0.0
 40
0.25
 40
0.25
 40
0.25
 40
0.25
 40
0.5
 40
0.5
 40
0.5
 40
0.5
 40
1.0
 40
1.0
 40
1.0
 40
1.0
 10
140.394
 20
-36.0465
 30
0.0
 10
139.9893
 20
-36.7716
 30
0.0
 10
139.7364
 20
-37.345
 30
0.0
 10
139.4328
 20
-38.323
 30
0.0
 10
139.4328
 20
-38.323
 30
0.0
 10
139.1799
 20
-37.4967
 30
0.0
 10
138.8764
 20
-36.8728
 30
0.0
 10
138.4211
 20
-36.0465
 30
0.0
 10
138.4211
 20
-36.0465
 30
0.0
 10
139.0787
 20
-35.9959
 30
0.0
 10
139.787
 20
-36.0465
 30
0.0
 10
140.394
 20
-36.0465
 30
0.0
  0
SPLINE
  5
C6
330
1F
100
AcDbEntity
  8
layer 1
 62
   250
100
AcDbSpline
210
0.0
220
0.0
230
1.0
 70
    11
 71
     3
 72
    48
 73
    44
 74
     0
 42
0.0000000001
 43
0.0000000001
 12
1.0
 22
0.0
 32
0.0
 13
1.0
 23
0.0
 33
0.0
 40
0.0
 40
0.0
 40
0.0
 40
0.0
 40
0.0833333333333333
 40
0.0833333333333333
 40
0.0833333333333333
 40
0.0833333333333333
 40
0.1666666666666667
 40
0.1666666666666667
 40
0.1666666666666667
 40
0.1666666666666667
 40
0.25
 40
0.25
 40
0.25
 40
0.25
 40
0.3333333333333333
 40
0.3333333333333333
 40
0.3333333333333333
 40
0.3333333333333333
 40
0.4166666666666667
 40
0.4166666666666667
 40
0.4166666666666667
 40
0.4166666666666667
 40
0.5
 40
0.5
 40
0.5
 40
0.5
 40
0.5833333333333334
 40
0.5833333333333334
 40
0.5833333333333334
 40
0.5833333333333334
 40
0.6666666666666666
 40
0.6666666666666666
 40
0.6666666666666666
 40
0.6666666666666666
 40
0.75
 40
0.75
 40
0.75
 40
0.75
 40
0.8333333333333334
 40
0.8333333333333334
 40
0.8333333333333334
 40
0.8333333333333334
 40
1.0
 40
1.0
 40
1.0
 40
1.0
 10
143.0247
 20
-36.8053
 30
0.0
 10
145.6979
 20
-38.127
 30
0.0
 10
146.3464
 20
-40.9368
 30
0.0
 10
146.178
 20
-43.0584
 30
0.0
 10
146.178
 20
-43.0584
 30
0.0
 10
145.7476
 20
-48.4803
 30
0.0
 10
141.2846
 20
-51.5478
 30
0.0
 10
139.5846
 20
-58.0527
 30
0.0
 10
139.5846
 20
-58.0527
 30
0.0
 10
138.2738
 20
-52.5536
 30
0.0
 10
132.7936
 20
-48.0438
 30
0.0
 10
132.7541
 20
-42.9315
 30
0.0
 10
132.7541
 20
-42.9315
 30
0.0
 10
132.7368
 20
-40.6975
 30
0.0
 10
133.5424
 20
-37.5116
 30
0.0
 10
135.8916
 20
-36.7042
 30
0.0
 10
135.8916
 20
-36.7042
 30
0.0
 10
136.5155
 20
-37.7497
 30
0.0
 10
137.3418
 20
-38.9975
 30
0.0
 10
137.6116
 20
-40.296
 30
0.0
 10
137.6116
 20
-40.296
 30
0.0
 10
136.4987
 20
-39.7127
 30
0.0
 10
134.0687
 20
-39.8983
 30
0.0
 10
133.9991
 20
-42.7716
 30
0.0
 10
133.9991
 20
-42.7716
 30
0.0
 10
133.8816
 20
-47.6281
 30
0.0
 10
136.9387
 20
-47.9507
 30
0.0
 10
138.3661
 20
-52.3551
 30
0.0
 10
138.3661
 20
-52.3551
 30
0.0
 10
138.6644
 20
-53.2754
 30
0.0
 10
140.2418
 20
-53.231
 30
0.0
 10
140.4916
 20
-52.3948
 30
0.0
 10
140.4916
 20
-52.3948
 30
0.0
 10
141.624
 20
-48.6038
 30
0.0
 10
144.7618
 20
-47.6343
 30
0.0
 10
144.788
 20
-43.0024
 30
0.0
 10
144.788
 20
-43.0024
 30
0.0
 10
144.7998
 20
-40.9161
 30
0.0
 10
143.3448
 20
-39.6139
 30
0.0
 10
141.4058
 20
-40.1948
 30
0.0
 10
141.4058
 20
-40.1948
 30
0.0
 10
141.6925
 20
-39.0144
 30
0.0
 10
142.3333
 20
-37.6316
 30
0.0
 10
143.0247
 20
-36.8053
 30
0.0
  0
SPLINE
  5
C7
330
1F
100
AcDbEntity
  8
layer 1
 62
   250
100
AcDbSpline
210
0.0
220
0.0
230
1.0
 70
    11
 71
     3
 72
    44
 73
    40
 74
     0
 42
0.0000000001
 43
0.0000000001
 12
1.0
 22
0.0
 32
0.0
 13
1.0
 23
0.0
 33
0.0
 40
0.0
 40
0.0
 40
0.0
 40
0.0
 40
0.0909090909090909
 40
0.0909090909090909
 40
0.0909090909090909
 40
0.0909090909090909
 40
0.1818181818181818
 40
0.1818181818181818
 40
0.1818181818181818
 40
0.1818181818181818
 40
0.2727272727272727
 40
0.2727272727272727
 40
0.2727272727272727
 40
0.2727272727272727
 40
0.3636363636363636
 40
0.3636363636363636
 40
0.3636363636363636
 40
0.3636363636363636
 40
0.4545454545454545
 40
0.4545454545454545
 40
0.4545454545454545
 40
0.4545454545454545
 40
0.5454545454545454
 40
0.5454545454545454
 40
0.5454545454545454
 40
0.5454545454545454
 40
0.6363636363636364
 40
0.6363636363636364
 40
0.6363636363636364
 40
0.6363636363636364
 40
0.7272727272727273
 40
0.7272727272727273
 40
0.7272727272727273
 40
0.7272727272727273
 40
0.8181818181818182
 40
0.8181818181818182
 40
0.8181818181818182
 40
0.8181818181818182
 40
1.0
 40
1.0
 40
1.0
 40
1.0
 10
149.1713
 20
-66.5011
 30
0.0
 10
147.6031
 20
-67.4285
 30
0.0
 10
145.9082
 20
-68.5584
 30
0.0
 10
144.3906
 20
-70.0423
 30
0.0
 10
144.3906
 20
-70.0423
 30
0.0
 10
140.6976
 20
-65.2363
 30
0.0
 10
141.4564
 20
-59.621
 30
0.0
 10
143.6823
 20
-55.7762
 30
0.0
 10
143.6823
 20
-55.7762
 30
0.0
 10
144.5115
 20
-58.636
 30
0.0
 10
148.5208
 20
-58.8281
 30
0.0
 10
150.3492
 20
-56.1624
 30
0.0
 10
150.3492
 20
-56.1624
 30
0.0
 10
152.1301
 20
-53.5659
 30
0.0
 10
150.6683
 20
-50.0904
 30
0.0
 10
147.6283
 20
-50.1102
 30
0.0
 10
147.6283
 20
-50.1102
 30
0.0
 10
148.64
 20
-48.9467
 30
0.0
 10
151.2707
 20
-47.429
 30
0.0
 10
152.586
 20
-47.0243
 30
0.0
 10
152.586
 20
-47.0243
 30
0.0
 10
152.1644
 20
-50.262
 30
0.0
 10
152.957
 20
-53.5503
 30
0.0
 10
154.1036
 20
-56.4845
 30
0.0
 10
154.1036
 20
-56.4845
 30
0.0
 10
152.7546
 20
-56.9229
 30
0.0
 10
151.6079
 20
-57.8672
 30
0.0
 10
150.8154
 20
-59.2669
 30
0.0
 10
150.8154
 20
-59.2669
 30
0.0
 10
149.1965
 20
-58.8115
 30
0.0
 10
147.6283
 20
-61.6951
 30
0.0
 10
145.6553
 20
-59.9245
 30
0.0
 10
145.6553
 20
-59.9245
 30
0.0
 10
143.8847
 20
-62.6226
 30
0.0
 10
146.4141
 20
-65.6242
 30
0.0
 10
149.1459
 20
-65.3375
 30
0.0
 10
149.1459
 20
-65.3375
 30
0.0
 10
149.1333
 20
-65.7254
 30
0.0
 10
149.1713
 20
-66.1132
 30
0.0
 10
149.1713
 20
-66.5011
 30
0.0
  0
SPLINE
  5
C8
330
1F
100
AcDbEntity
  8
layer 1
 62
   250
100
AcDbSpline
210
0.0
220
0.0
230
1.0
 70
    11
 71
     3
 72
    44
 73
    40
 74
     0
 42
0.0000000001
 43
0.0000000001
 12
1.0
 22
0.0
 32
0.0
 13
1.0
 23
0.0
 33
0.0
 40
0.0
 40
0.0
 40
0.0
 40
0.0
 40
0.0909090909090909
 40
0.0909090909090909
 40
0.0909090909090909
 40
0.0909090909090909
 40
0.1818181818181818
 40
0.1818181818181818
 40
0.1818181818181818
 40
0.1818181818181818
 40
0.2727272727272727
 40
0.2727272727272727
 40
0.2727272727272727
 40
0.2727272727272727
 40
0.3636363636363636
 40
0.3636363636363636
 40
0.3636363636363636
 40
0.3636363636363636
 40
0.4545454545454545
 40
0.4545454545454545
 40
0.4545454545454545
 40
0.4545454545454545
 40
0.5454545454545454
 40
0.5454545454545454
 40
0.5454545454545454
 40
0.5454545454545454
 40
0.6363636363636364
 40
0.6363636363636364
 40
0.6363636363636364
 40
0.6363636363636364
 40
0.7272727272727273
 40
0.7272727272727273
 40
0.7272727272727273
 40
0.7272727272727273
 40
0.8181818181818182
 40
0.8181818181818182
 40
0.8181818181818182
 40
0.8181818181818182
 40
1.0
 40
1.0
 40
1.0
 40
1.0
 10
130.5257
 20
-66.5595
 30
0.0
 10
132.094
 20
-67.4285
 30
0.0
 10
133.4014
 20
-68.2662
 30
0.0
 10
134.8607
 20
-69.7501
 30
0.0
 10
134.8607
 20
-69.7501
 30
0.0
 10
138.5537
 20
-64.9442
 30
0.0
 10
137.4442
 20
-59.3872
 30
0.0
 10
135.2183
 20
-55.5425
 30
0.0
 10
135.2183
 20
-55.5425
 30
0.0
 10
134.4476
 20
-58.227
 30
0.0
 10
130.3798
 20
-58.6527
 30
0.0
 10
128.7852
 20
-56.3377
 30
0.0
 10
128.7852
 20
-56.3377
 30
0.0
 10
126.9992
 20
-53.7448
 30
0.0
 10
128.2323
 20
-50.1489
 30
0.0
 10
131.2724
 20
-50.1687
 30
0.0
 10
131.2724
 20
-50.1687
 30
0.0
 10
130.2606
 20
-49.0051
 30
0.0
 10
127.9806
 20
-47.4875
 30
0.0
 10
126.6653
 20
-47.0828
 30
0.0
 10
126.6653
 20
-47.0828
 30
0.0
 10
127.0868
 20
-50.3204
 30
0.0
 10
126.6449
 20
-53.375
 30
0.0
 10
125.4982
 20
-56.3092
 30
0.0
 10
125.4982
 20
-56.3092
 30
0.0
 10
126.8472
 20
-56.9229
 30
0.0
 10
128.1108
 20
-57.8088
 30
0.0
 10
128.9033
 20
-59.2084
 30
0.0
 10
128.9033
 20
-59.2084
 30
0.0
 10
130.5222
 20
-58.7531
 30
0.0
 10
131.9152
 20
-61.7536
 30
0.0
 10
133.8881
 20
-59.9829
 30
0.0
 10
133.8881
 20
-59.9829
 30
0.0
 10
135.6587
 20
-62.681
 30
0.0
 10
133.246
 20
-65.6826
 30
0.0
 10
130.5142
 20
-65.396
 30
0.0
 10
130.5142
 20
-65.396
 30
0.0
 10
130.5648
 20
-65.7838
 30
0.0
 10
130.5257
 20
-66.1717
 30
0.0
 10
130.5257
 20
-66.5595
 30
0.0
  0
SPLINE
  5
C9
330
1F
100
AcDbEntity
  8
layer 1
 62
   250
100
AcDbSpline
210
0.0
220
0.0
230
1.0
 70
    11
 71
     3
 72
    52
 73
    48
 74
     0
 42
0.0000000001
 43
0.0000000001
 12
1.0
 22
0.0
 32
0.0
 13
1.0
 23
0.0
 33
0.0
 40
0.0
 40
0.0
 40
0.0
 40
0.0
 40
0.0769230769230769
 40
0.0769230769230769
 40
0.0769230769230769
 40
0.0769230769230769
 40
0.1538461538461539
 40
0.1538461538461539
 40
0.1538461538461539
 40
0.1538461538461539
 40
0.2307692307692308
 40
0.2307692307692308
 40
0.2307692307692308
 40
0.2307692307692308
 40
0.3076923076923077
 40
0.3076923076923077
 40
0.3076923076923077
 40
0.3076923076923077
 40
0.3846153846153846
 40
0.3846153846153846
 40
0.3846153846153846
 40
0.3846153846153846
 40
0.4615384615384616
 40
0.4615384615384616
 40
0.4615384615384616
 40
0.4615384615384616
 40
0.5384615384615384
 40
0.5384615384615384
 40
0.5384615384615384
 40
0.5384615384615384
 40
0.6153846153846154
 40
0.6153846153846154
 40
0.6153846153846154
 40
0.6153846153846154
 40
0.6923076923076923
 40
0.6923076923076923
 40
0.6923076923076923
 40
0.6923076923076923
 40
0.7692307692307693
 40
0.7692307692307693
 40
0.7692307692307693
 40
0.7692307692307693
 40
0.8461538461538461
 40
0.8461538461538461
 40
0.8461538461538461
 40
0.8461538461538461
 40
1.0
 40
1.0
 40
1.0
 40
1.0
 10
163.9163
 20
-50.5308
 30
0.0
 10
166.1757
 20
-58.4193
 30
0.0
 10
158.3262
 20
-55.4977
 30
0.0
 10
156.3784
 20
-56.1989
 30
0.0
 10
156.3784
 20
-56.1989
 30
0.0
 10
155.3071
 20
-53.1798
 30
0.0
 10
154.7033
 20
-49.3427
 30
0.0
 10
155.2682
 20
-46.0314
 30
0.0
 10
155.2682
 20
-46.0314
 30
0.0
 10
156.4563
 20
-45.973
 30
0.0
 10
159.2806
 20
-45.7393
 30
0.0
 10
158.1898
 20
-48.7778
 30
0.0
 10
158.1898
 20
-48.7778
 30
0.0
 10
160.3324
 20
-48.5635
 30
0.0
 10
161.2478
 20
-46.8885
 30
0.0
 10
161.2284
 20
-45.564
 30
0.0
 10
161.2284
 20
-45.564
 30
0.0
 10
162.6892
 20
-45.3497
 30
0.0
 10
164.3253
 20
-45.4861
 30
0.0
 10
165.7862
 20
-45.973
 30
0.0
 10
165.7862
 20
-45.973
 30
0.0
 10
165.3187
 20
-48.2324
 30
0.0
 10
166.0199
 20
-50.784
 30
0.0
 10
168.9416
 20
-51.6995
 30
0.0
 10
168.9416
 20
-51.6995
 30
0.0
 10
168.8123
 20
-50.2326
 30
0.0
 10
168.794
 20
-48.4704
 30
0.0
 10
169.7597
 20
-47.9013
 30
0.0
 10
169.7597
 20
-47.9013
 30
0.0
 10
171.649
 20
-48.8168
 30
0.0
 10
173.4799
 20
-50.5503
 30
0.0
 10
174.3759
 20
-52.4007
 30
0.0
 10
174.3759
 20
-52.4007
 30
0.0
 10
172.2242
 20
-51.6599
 30
0.0
 10
170.9516
 20
-53.862
 30
0.0
 10
171.2504
 20
-56.3967
 30
0.0
 10
171.2504
 20
-56.3967
 30
0.0
 10
171.5564
 20
-58.9921
 30
0.0
 10
174.1367
 20
-60.7585
 30
0.0
 10
174.6681
 20
-62.7434
 30
0.0
 10
174.6681
 20
-62.7434
 30
0.0
 10
172.3892
 20
-63.4641
 30
0.0
 10
168.8247
 20
-63.8342
 30
0.0
 10
165.6693
 20
-62.9187
 30
0.0
 10
165.6693
 20
-62.9187
 30
0.0
 10
170.1297
 20
-60.0165
 30
0.0
 10
169.3896
 20
-51.5047
 30
0.0
 10
163.9163
 20
-50.5308
 30
0.0
  0
SPLINE
  5
CA
330
1F
100
AcDbEntity
  8
layer 1
 62
   250
100
AcDbSpline
210
0.0
220
0.0
230
1.0
 70
    11
 71
     3
 72
    52
 73
    48
 74
     0
 42
0.0000000001
 43
0.0000000001
 12
1.0
 22
0.0
 32
0.0
 13
1.0
 23
0.0
 33
0.0
 40
0.0
 40
0.0
 40
0.0
 40
0.0
 40
0.0769230769230769
 40
0.0769230769230769
 40
0.0769230769230769
 40
0.0769230769230769
 40
0.1538461538461539
 40
0.1538461538461539
 40
0.1538461538461539
 40
0.1538461538461539
 40
0.2307692307692308
 40
0.2307692307692308
 40
0.2307692307692308
 40
0.2307692307692308
 40
0.3076923076923077
 40
0.3076923076923077
 40
0.3076923076923077
 40
0.3076923076923077
 40
0.3846153846153846
 40
0.3846153846153846
 40
0.3846153846153846
 40
0.3846153846153846
 40
0.4615384615384616
 40
0.4615384615384616
 40
0.4615384615384616
 40
0.4615384615384616
 40
0.5384615384615384
 40
0.5384615384615384
 40
0.5384615384615384
 40
0.5384615384615384
 40
0.6153846153846154
 40
0.6153846153846154
 40
0.6153846153846154
 40
0.6153846153846154
 40
0.6923076923076923
 40
0.6923076923076923
 40
0.6923076923076923
 40
0.6923076923076923
 40
0.7692307692307693
 40
0.7692307692307693
 40
0.7692307692307693
 40
0.7692307692307693
 40
0.8461538461538461
 40
0.8461538461538461
 40
0.8461538461538461
 40
0.8461538461538461
 40
1.0
 40
1.0
 40
1.0
 40
1.0
 10
115.7063
 20
-50.6199
 30
0.0
 10
113.4469
 20
-58.5084
 30
0.0
 10
121.2519
 20
-55.3194
 30
0.0
 10
123.1997
 20
-56.0206
 30
0.0
 10
123.1997
 20
-56.0206
 30
0.0
 10
124.271
 20
-53.0016
 30
0.0
 10
124.7857
 20
-49.3872
 30
0.0
 10
123.9089
 20
-46.0314
 30
0.0
 10
123.9089
 20
-46.0314
 30
0.0
 10
122.7208
 20
-45.973
 30
0.0
 10
120.1638
 20
-45.7393
 30
0.0
 10
121.2546
 20
-48.7778
 30
0.0
 10
121.2546
 20
-48.7778
 30
0.0
 10
119.2457
 20
-48.2962
 30
0.0
 10
118.2411
 20
-46.7993
 30
0.0
 10
118.2606
 20
-45.4748
 30
0.0
 10
118.2606
 20
-45.4748
 30
0.0
 10
116.7998
 20
-45.2606
 30
0.0
 10
115.1967
 20
-45.3768
 30
0.0
 10
113.7359
 20
-45.8638
 30
0.0
 10
113.7359
 20
-45.8638
 30
0.0
 10
114.2034
 20
-48.1232
 30
0.0
 10
113.4245
 20
-50.9551
 30
0.0
 10
110.5474
 20
-51.5658
 30
0.0
 10
110.5474
 20
-51.5658
 30
0.0
 10
110.8549
 20
-50.0989
 30
0.0
 10
110.6504
 20
-48.2921
 30
0.0
 10
109.6848
 20
-47.7231
 30
0.0
 10
109.6848
 20
-47.7231
 30
0.0
 10
107.7954
 20
-48.6385
 30
0.0
 10
105.8754
 20
-50.4612
 30
0.0
 10
104.9348
 20
-52.267
 30
0.0
 10
104.9348
 20
-52.267
 30
0.0
 10
107.0865
 20
-51.5263
 30
0.0
 10
108.5373
 20
-53.7729
 30
0.0
 10
108.1049
 20
-56.3967
 30
0.0
 10
108.1049
 20
-56.3967
 30
0.0
 10
107.6799
 20
-58.9752
 30
0.0
 10
105.1295
 20
-60.8031
 30
0.0
 10
104.5981
 20
-62.788
 30
0.0
 10
104.5981
 20
-62.788
 30
0.0
 10
106.6097
 20
-63.6869
 30
0.0
 10
111.1544
 20
-63.8342
 30
0.0
 10
114.1316
 20
-62.785
 30
0.0
 10
114.1316
 20
-62.785
 30
0.0
 10
109.6712
 20
-59.8828
 30
0.0
 10
109.9657
 20
-51.2373
 30
0.0
 10
115.7063
 20
-50.6199
 30
0.0
  0
SPLINE
  5
CB
330
1F
100
AcDbEntity
  8
layer 1
 62
   250
100
AcDbSpline
210
0.0
220
0.0
230
1.0
 70
    11
 71
     3
 72
    40
 73
    36
 74
     0
 42
0.0000000001
 43
0.0000000001
 12
1.0
 22
0.0
 32
0.0
 13
1.0
 23
0.0
 33
0.0
 40
0.0
 40
0.0
 40
0.0
 40
0.0
 40
0.1
 40
0.1
 40
0.1
 40
0.1
 40
0.2
 40
0.2
 40
0.2
 40
0.2
 40
0.3
 40
0.3
 40
0.3
 40
0.3
 40
0.4
 40
0.4
 40
0.4
 40
0.4
 40
0.5
 40
0.5
 40
0.5
 40
0.5
 40
0.6
 40
0.6
 40
0.6
 40
0.6
 40
0.7
 40
0.7
 40
0.7
 40
0.7
 40
0.8
 40
0.8
 40
0.8
 40
0.8
 40
1.0
 40
1.0
 40
1.0
 40
1.0
 10
179.3547
 20
-40.8797
 30
0.0
 10
177.6528
 20
-39.9597
 30
0.0
 10
176.1578
 20
-39.2467
 30
0.0
 10
174.3178
 20
-38.3267
 30
0.0
 10
174.3178
 20
-38.3267
 30
0.0
 10
175.9048
 20
-37.1077
 30
0.0
 10
177.0778
 20
-35.8197
 30
0.0
 10
177.9058
 20
-34.3937
 30
0.0
 10
177.9058
 20
-34.3937
 30
0.0
 10
178.3428
 20
-38.2117
 30
0.0
 10
183.1957
 20
-38.7177
 30
0.0
 10
185.2887
 20
-36.6017
 30
0.0
 10
185.2887
 20
-36.6017
 30
0.0
 10
186.2087
 20
-37.4987
 30
0.0
 10
187.1977
 20
-38.6717
 30
0.0
 10
188.0487
 20
-40.1207
 30
0.0
 10
188.0487
 20
-40.1207
 30
0.0
 10
186.7607
 20
-43.4327
 30
0.0
 10
186.9217
 20
-47.5726
 30
0.0
 10
190.3947
 20
-50.2636
 30
0.0
 10
190.3947
 20
-50.2636
 30
0.0
 10
187.7267
 20
-49.7116
 30
0.0
 10
186.3697
 20
-51.5056
 30
0.0
 10
184.8747
 20
-54.6106
 30
0.0
 10
184.8747
 20
-54.6106
 30
0.0
 10
186.1397
 20
-50.2636
 30
0.0
 10
185.4037
 20
-47.4346
 30
0.0
 10
183.6327
 20
-44.1227
 30
0.0
 10
183.6327
 20
-44.1227
 30
0.0
 10
184.9092
 20
-44.4907
 30
0.0
 10
186.2782
 20
-41.3359
 30
0.0
 10
183.3135
 20
-39.2495
 30
0.0
 10
183.3135
 20
-39.2495
 30
0.0
 10
180.913
 20
-37.5602
 30
0.0
 10
178.9408
 20
-39.4422
 30
0.0
 10
179.3547
 20
-40.8797
 30
0.0
  0
SPLINE
  5
CC
330
1F
100
AcDbEntity
  8
layer 1
 62
   250
100
AcDbSpline
210
0.0
220
0.0
230
1.0
 70
    11
 71
     3
 72
    40
 73
    36
 74
     0
 42
0.0000000001
 43
0.0000000001
 12
1.0
 22
0.0
 32
0.0
 13
1.0
 23
0.0
 33
0.0
 40
0.0
 40
0.0
 40
0.0
 40
0.0
 40
0.1
 40
0.1
 40
0.1
 40
0.1
 40
0.2
 40
0.2
 40
0.2
 40
0.2
 40
0.3
 40
0.3
 40
0.3
 40
0.3
 40
0.4
 40
0.4
 40
0.4
 40
0.4
 40
0.5
 40
0.5
 40
0.5
 40
0.5
 40
0.6
 40
0.6
 40
0.6
 40
0.6
 40
0.7
 40
0.7
 40
0.7
 40
0.7
 40
0.8
 40
0.8
 40
0.8
 40
0.8
 40
1.0
 40
1.0
 40
1.0
 40
1.0
 10
100.0743
 20
-40.6727
 30
0.0
 10
101.7763
 20
-39.7527
 30
0.0
 10
103.4093
 20
-39.1087
 30
0.0
 10
105.2493
 20
-38.3267
 30
0.0
 10
105.2493
 20
-38.3267
 30
0.0
 10
103.6623
 20
-37.1077
 30
0.0
 10
102.4893
 20
-35.4747
 30
0.0
 10
101.5923
 20
-34.3247
 30
0.0
 10
101.5923
 20
-34.3247
 30
0.0
 10
101.1553
 20
-38.1427
 30
0.0
 10
96.3713
 20
-38.7177
 30
0.0
 10
94.2783
 20
-36.6017
 30
0.0
 10
94.2783
 20
-36.6017
 30
0.0
 10
93.3583
 20
-37.4987
 30
0.0
 10
92.3694
 20
-38.6717
 30
0.0
 10
91.5184
 20
-40.1207
 30
0.0
 10
91.5184
 20
-40.1207
 30
0.0
 10
92.2544
 20
-43.5017
 30
0.0
 10
92.2314
 20
-46.9516
 30
0.0
 10
89.3104
 20
-49.8496
 30
0.0
 10
89.3104
 20
-49.8496
 30
0.0
 10
91.1504
 20
-50.0566
 30
0.0
 10
93.1974
 20
-51.2296
 30
0.0
 10
94.4163
 20
-54.7486
 30
0.0
 10
94.4163
 20
-54.7486
 30
0.0
 10
93.4273
 20
-50.2636
 30
0.0
 10
94.1633
 20
-47.4346
 30
0.0
 10
95.9343
 20
-44.1227
 30
0.0
 10
95.9343
 20
-44.1227
 30
0.0
 10
94.7959
 20
-43.5937
 30
0.0
 10
93.3579
 20
-41.2669
 30
0.0
 10
96.3225
 20
-39.1805
 30
0.0
 10
96.3225
 20
-39.1805
 30
0.0
 10
98.723
 20
-37.4912
 30
0.0
 10
100.4883
 20
-39.2352
 30
0.0
 10
100.0743
 20
-40.6727
 30
0.0
  0
SPLINE
  5
CD
330
1F
100
AcDbEntity
  8
layer 1
 62
   250
100
AcDbSpline
210
0.0
220
0.0
230
1.0
 70
    11
 71
     3
 72
    28
 73
    24
 74
     0
 42
0.0000000001
 43
0.0000000001
 12
1.0
 22
0.0
 32
0.0
 13
1.0
 23
0.0
 33
0.0
 40
0.0
 40
0.0
 40
0.0
 40
0.0
 40
0.1428571428571428
 40
0.1428571428571428
 40
0.1428571428571428
 40
0.1428571428571428
 40
0.2857142857142857
 40
0.2857142857142857
 40
0.2857142857142857
 40
0.2857142857142857
 40
0.4285714285714285
 40
0.4285714285714285
 40
0.4285714285714285
 40
0.4285714285714285
 40
0.5714285714285714
 40
0.5714285714285714
 40
0.5714285714285714
 40
0.5714285714285714
 40
0.7142857142857143
 40
0.7142857142857143
 40
0.7142857142857143
 40
0.7142857142857143
 40
1.0
 40
1.0
 40
1.0
 40
1.0
 10
178.3198
 20
-54.8866
 30
0.0
 10
179.8794
 20
-55.5033
 30
0.0
 10
180.8257
 20
-53.8595
 30
0.0
 10
180.0413
 20
-51.6521
 30
0.0
 10
180.0413
 20
-51.6521
 30
0.0
 10
179.5299
 20
-50.2133
 30
0.0
 10
177.6642
 20
-49.0949
 30
0.0
 10
176.5258
 20
-50.8156
 30
0.0
 10
176.5258
 20
-50.8156
 30
0.0
 10
175.7208
 20
-49.5736
 30
0.0
 10
174.8468
 20
-48.5386
 30
0.0
 10
173.6968
 20
-47.5036
 30
0.0
 10
173.6968
 20
-47.5036
 30
0.0
 10
178.0438
 20
-47.8716
 30
0.0
 10
178.8718
 20
-44.9277
 30
0.0
 10
177.6298
 20
-43.5707
 30
0.0
 10
177.6298
 20
-43.5707
 30
0.0
 10
182.7127
 20
-44.7437
 30
0.0
 10
185.2427
 20
-54.0586
 30
0.0
 10
179.0097
 20
-60.5445
 30
0.0
 10
179.0097
 20
-60.5445
 30
0.0
 10
179.1017
 20
-58.5206
 30
0.0
 10
178.6418
 20
-56.3586
 30
0.0
 10
178.3198
 20
-54.8866
 30
0.0
  0
SPLINE
  5
CE
330
1F
100
AcDbEntity
  8
layer 1
 62
   250
100
AcDbSpline
210
0.0
220
0.0
230
1.0
 70
    11
 71
     3
 72
    28
 73
    24
 74
     0
 42
0.0000000001
 43
0.0000000001
 12
1.0
 22
0.0
 32
0.0
 13
1.0
 23
0.0
 33
0.0
 40
0.0
 40
0.0
 40
0.0
 40
0.0
 40
0.1428571428571428
 40
0.1428571428571428
 40
0.1428571428571428
 40
0.1428571428571428
 40
0.2857142857142857
 40
0.2857142857142857
 40
0.2857142857142857
 40
0.2857142857142857
 40
0.4285714285714285
 40
0.4285714285714285
 40
0.4285714285714285
 40
0.4285714285714285
 40
0.5714285714285714
 40
0.5714285714285714
 40
0.5714285714285714
 40
0.5714285714285714
 40
0.7142857142857143
 40
0.7142857142857143
 40
0.7142857142857143
 40
0.7142857142857143
 40
1.0
 40
1.0
 40
1.0
 40
1.0
 10
101.1093
 20
-54.8866
 30
0.0
 10
99.8946
 20
-55.0893
 30
0.0
 10
98.8104
 20
-53.8595
 30
0.0
 10
99.5948
 20
-51.6521
 30
0.0
 10
99.5948
 20
-51.6521
 30
0.0
 10
100.1061
 20
-50.2133
 30
0.0
 10
101.9028
 20
-49.1639
 30
0.0
 10
103.0413
 20
-50.8846
 30
0.0
 10
103.0413
 20
-50.8846
 30
0.0
 10
103.8463
 20
-49.6426
 30
0.0
 10
104.8583
 20
-48.5386
 30
0.0
 10
106.0083
 20
-47.5036
 30
0.0
 10
106.0083
 20
-47.5036
 30
0.0
 10
102.4203
 20
-48.2166
 30
0.0
 10
100.6263
 20
-45.4106
 30
0.0
 10
101.7303
 20
-43.7087
 30
0.0
 10
101.7303
 20
-43.7087
 30
0.0
 10
96.8543
 20
-44.8817
 30
0.0
 10
94.3243
 20
-53.9896
 30
0.0
 10
100.2123
 20
-60.1305
 30
0.0
 10
100.2123
 20
-60.1305
 30
0.0
 10
100.3273
 20
-58.3136
 30
0.0
 10
100.5803
 20
-56.2206
 30
0.0
 10
101.1093
 20
-54.8866
 30
0.0
  0
SPLINE
  5
CF
330
1F
100
AcDbEntity
  8
layer 1
 62
   250
100
AcDbSpline
210
0.0
220
0.0
230
1.0
 70
    11
 71
     3
 72
    24
 73
    20
 74
     0
 42
0.0000000001
 43
0.0000000001
 12
1.0
 22
0.0
 32
0.0
 13
1.0
 23
0.0
 33
0.0
 40
0.0
 40
0.0
 40
0.0
 40
0.0
 40
0.1666666666666667
 40
0.1666666666666667
 40
0.1666666666666667
 40
0.1666666666666667
 40
0.3333333333333333
 40
0.3333333333333333
 40
0.3333333333333333
 40
0.3333333333333333
 40
0.5
 40
0.5
 40
0.5
 40
0.5
 40
0.6666666666666666
 40
0.6666666666666666
 40
0.6666666666666666
 40
0.6666666666666666
 40
1.0
 40
1.0
 40
1.0
 40
1.0
 10
161.2769
 20
-43.0187
 30
0.0
 10
161.0469
 20
-42.1217
 30
0.0
 10
160.6789
 20
-41.2247
 30
0.0
 10
159.9659
 20
-40.3277
 30
0.0
 10
159.9659
 20
-40.3277
 30
0.0
 10
161.9439
 20
-41.0867
 30
0.0
 10
165.5778
 20
-41.4317
 30
0.0
 10
167.3488
 20
-40.9487
 30
0.0
 10
167.3488
 20
-40.9487
 30
0.0
 10
167.7628
 20
-41.2707
 30
0.0
 10
168.4528
 20
-41.7307
 30
0.0
 10
169.0048
 20
-41.9147
 30
0.0
 10
169.0048
 20
-41.9147
 30
0.0
 10
168.1538
 20
-42.3057
 30
0.0
 10
167.5098
 20
-42.9727
 30
0.0
 10
166.8658
 20
-43.7087
 30
0.0
 10
166.8658
 20
-43.7087
 30
0.0
 10
165.2788
 20
-43.2027
 30
0.0
 10
163.2089
 20
-42.9727
 30
0.0
 10
161.2769
 20
-43.0187
 30
0.0
  0
SPLINE
  5
D0
330
1F
100
AcDbEntity
  8
layer 1
 62
   250
100
AcDbSpline
210
0.0
220
0.0
230
1.0
 70
    11
 71
     3
 72
    24
 73
    20
 74
     0
 42
0.0000000001
 43
0.0000000001
 12
1.0
 22
0.0
 32
0.0
 13
1.0
 23
0.0
 33
0.0
 40
0.0
 40
0.0
 40
0.0
 40
0.0
 40
0.1666666666666667
 40
0.1666666666666667
 40
0.1666666666666667
 40
0.1666666666666667
 40
0.3333333333333333
 40
0.3333333333333333
 40
0.3333333333333333
 40
0.3333333333333333
 40
0.5
 40
0.5
 40
0.5
 40
0.5
 40
0.6666666666666666
 40
0.6666666666666666
 40
0.6666666666666666
 40
0.6666666666666666
 40
1.0
 40
1.0
 40
1.0
 40
1.0
 10
118.2902
 20
-42.9497
 30
0.0
 10
118.5202
 20
-42.0527
 30
0.0
 10
118.8882
 20
-41.1557
 30
0.0
 10
119.6012
 20
-40.2587
 30
0.0
 10
119.6012
 20
-40.2587
 30
0.0
 10
117.6232
 20
-41.0177
 30
0.0
 10
113.9892
 20
-41.3627
 30
0.0
 10
112.2182
 20
-40.8797
 30
0.0
 10
112.2182
 20
-40.8797
 30
0.0
 10
111.8042
 20
-41.2017
 30
0.0
 10
111.1142
 20
-41.6617
 30
0.0
 10
110.5622
 20
-41.8457
 30
0.0
 10
110.5622
 20
-41.8457
 30
0.0
 10
111.4132
 20
-42.2367
 30
0.0
 10
112.0572
 20
-42.9037
 30
0.0
 10
112.7012
 20
-43.6397
 30
0.0
 10
112.7012
 20
-43.6397
 30
0.0
 10
114.2882
 20
-43.1337
 30
0.0
 10
116.3582
 20
-42.9037
 30
0.0
 10
118.2902
 20
-42.9497
 30
0.0
  0
SPLINE
  5
D1
330
1F
100
AcDbEntity
  8
layer 1
 62
   250
100
AcDbSpline
210
0.0
220
0.0
230
1.0
 70
    11
 71
     3
 72
    24
 73
    20
 74
     0
 42
0.0000000001
 43
0.0000000001
 12
1.0
 22
0.0
 32
0.0
 13
1.0
 23
0.0
 33
0.0
 40
0.0
 40
0.0
 40
0.0
 40
0.0
 40
0.1666666666666667
 40
0.1666666666666667
 40
0.1666666666666667
 40
0.1666666666666667
 40
0.3333333333333333
 40
0.3333333333333333
 40
0.3333333333333333
 40
0.3333333333333333
 40
0.5
 40
0.5
 40
0.5
 40
0.5
 40
0.6666666666666666
 40
0.6666666666666666
 40
0.6666666666666666
 40
0.6666666666666666
 40
1.0
 40
1.0
 40
1.0
 40
1.0
 10
185.2657
 20
-67.1026
 30
0.0
 10
182.8608
 20
-66.4932
 30
0.0
 10
180.0112
 20
-67.8109
 30
0.0
 10
177.0628
 20
-69.4251
 30
0.0
 10
177.0628
 20
-69.4251
 30
0.0
 10
178.0017
 20
-67.7944
 30
0.0
 10
178.5453
 20
-65.6201
 30
0.0
 10
178.8912
 20
-63.693
 30
0.0
 10
178.8912
 20
-63.693
 30
0.0
 10
182.169
 20
-61.2387
 30
0.0
 10
183.8656
 20
-58.1915
 30
0.0
 10
184.5245
 20
-55.836
 30
0.0
 10
184.5245
 20
-55.836
 30
0.0
 10
183.8985
 20
-59.4598
 30
0.0
 10
184.2609
 20
-62.8365
 30
0.0
 10
186.4023
 20
-65.2742
 30
0.0
 10
186.4023
 20
-65.2742
 30
0.0
 10
186.0069
 20
-65.8508
 30
0.0
 10
185.661
 20
-66.5261
 30
0.0
 10
185.2657
 20
-67.1026
 30
0.0
  0
SPLINE
  5
D2
330
1F
100
AcDbEntity
  8
layer 1
 62
   250
100
AcDbSpline
210
0.0
220
0.0
230
1.0
 70
    11
 71
     3
 72
    24
 73
    20
 74
     0
 42
0.0000000001
 43
0.0000000001
 12
1.0
 22
0.0
 32
0.0
 13
1.0
 23
0.0
 33
0.0
 40
0.0
 40
0.0
 40
0.0
 40
0.0
 40
0.1666666666666667
 40
0.1666666666666667
 40
0.1666666666666667
 40
0.1666666666666667
 40
0.3333333333333333
 40
0.3333333333333333
 40
0.3333333333333333
 40
0.3333333333333333
 40
0.5
 40
0.5
 40
0.5
 40
0.5
 40
0.6666666666666666
 40
0.6666666666666666
 40
0.6666666666666666
 40
0.6666666666666666
 40
1.0
 40
1.0
 40
1.0
 40
1.0
 10
93.7986
 20
-66.9049
 30
0.0
 10
96.2035
 20
-66.2955
 30
0.0
 10
99.2013
 20
-67.6626
 30
0.0
 10
102.1497
 20
-69.2769
 30
0.0
 10
102.1497
 20
-69.2769
 30
0.0
 10
101.2108
 20
-67.6462
 30
0.0
 10
100.7167
 20
-65.5213
 30
0.0
 10
100.3708
 20
-63.5941
 30
0.0
 10
100.3708
 20
-63.5941
 30
0.0
 10
97.093
 20
-61.1399
 30
0.0
 10
95.2481
 20
-57.9938
 30
0.0
 10
94.5892
 20
-55.6383
 30
0.0
 10
94.5892
 20
-55.6383
 30
0.0
 10
95.2152
 20
-59.2621
 30
0.0
 10
94.754
 20
-62.7376
 30
0.0
 10
92.6126
 20
-65.1754
 30
0.0
 10
92.6126
 20
-65.1754
 30
0.0
 10
93.008
 20
-65.752
 30
0.0
 10
93.4033
 20
-66.3284
 30
0.0
 10
93.7986
 20
-66.9049
 30
0.0
  0
SPLINE
  5
D3
330
1F
100
AcDbEntity
  8
layer 1
 62
   250
100
AcDbSpline
210
0.0
220
0.0
230
1.0
 70
    11
 71
     3
 72
    16
 73
    12
 74
     0
 42
0.0000000001
 43
0.0000000001
 12
1.0
 22
0.0
 32
0.0
 13
1.0
 23
0.0
 33
0.0
 40
0.0
 40
0.0
 40
0.0
 40
0.0
 40
0.25
 40
0.25
 40
0.25
 40
0.25
 40
0.5
 40
0.5
 40
0.5
 40
0.5
 40
1.0
 40
1.0
 40
1.0
 40
1.0
 10
193.0239
 20
-56.5278
 30
0.0
 10
192.3815
 20
-59.6903
 30
0.0
 10
190.0095
 20
-61.914
 30
0.0
 10
188.4777
 20
-63.0506
 30
0.0
 10
188.4777
 20
-63.0506
 30
0.0
 10
187.3905
 20
-61.1728
 30
0.0
 10
187.3771
 20
-59.2967
 30
0.0
 10
188.3788
 20
-57.7137
 30
0.0
 10
188.3788
 20
-57.7137
 30
0.0
 10
189.3371
 20
-56.1995
 30
0.0
 10
192.085
 20
-57.9114
 30
0.0
 10
193.0239
 20
-56.5278
 30
0.0
  0
SPLINE
  5
D4
330
1F
100
AcDbEntity
  8
layer 1
 62
   250
100
AcDbSpline
210
0.0
220
0.0
230
1.0
 70
    11
 71
     3
 72
    16
 73
    12
 74
     0
 42
0.0000000001
 43
0.0000000001
 12
1.0
 22
0.0
 32
0.0
 13
1.0
 23
0.0
 33
0.0
 40
0.0
 40
0.0
 40
0.0
 40
0.0
 40
0.25
 40
0.25
 40
0.25
 40
0.25
 40
0.5
 40
0.5
 40
0.5
 40
0.5
 40
1.0
 40
1.0
 40
1.0
 40
1.0
 10
86.2136
 20
-56.676
 30
0.0
 10
86.856
 20
-59.8386
 30
0.0
 10
89.2279
 20
-62.0623
 30
0.0
 10
90.7597
 20
-63.1988
 30
0.0
 10
90.7597
 20
-63.1988
 30
0.0
 10
91.8469
 20
-61.321
 30
0.0
 10
91.6793
 20
-59.3953
 30
0.0
 10
90.7597
 20
-57.7632
 30
0.0
 10
90.7597
 20
-57.7632
 30
0.0
 10
89.8509
 20
-56.15
 30
0.0
 10
87.1524
 20
-58.0597
 30
0.0
 10
86.2136
 20
-56.676
 30
0.0
  0
SPLINE
  5
D5
330
1F
100
AcDbEntity
  8
layer 1
 62
   250
100
AcDbSpline
210
0.0
220
0.0
230
1.0
 70
    11
 71
     3
 72
    16
 73
    12
 74
     0
 42
0.0000000001
 43
0.0000000001
 12
1.0
 22
0.0
 32
0.0
 13
1.0
 23
0.0
 33
0.0
 40
0.0
 40
0.0
 40
0.0
 40
0.0
 40
0.25
 40
0.25
 40
0.25
 40
0.25
 40
0.5
 40
0.5
 40
0.5
 40
0.5
 40
1.0
 40
1.0
 40
1.0
 40
1.0
 10
194.1421
 20
-59.8386
 30
0.0
 10
194.1421
 20
-59.8386
 30
0.0
 10
194.1421
 20
-71.8464
 30
0.0
 10
194.1421
 20
-71.8464
 30
0.0
 10
194.1421
 20
-71.8464
 30
0.0
 10
193.2752
 20
-69.3757
 30
0.0
 10
191.9142
 20
-67.3991
 30
0.0
 10
190.4049
 20
-65.7684
 30
0.0
 10
190.4049
 20
-65.7684
 30
0.0
 10
191.4694
 20
-63.7094
 30
0.0
 10
193.4729
 20
-61.7988
 30
0.0
 10
194.1421
 20
-59.8386
 30
0.0
  0
SPLINE
  5
D6
330
1F
100
AcDbEntity
  8
layer 1
 62
   250
100
AcDbSpline
210
0.0
220
0.0
230
1.0
 70
    11
 71
     3
 72
    16
 73
    12
 74
     0
 42
0.0000000001
 43
0.0000000001
 12
1.0
 22
0.0
 32
0.0
 13
1.0
 23
0.0
 33
0.0
 40
0.0
 40
0.0
 40
0.0
 40
0.0
 40
0.25
 40
0.25
 40
0.25
 40
0.25
 40
0.5
 40
0.5
 40
0.5
 40
0.5
 40
1.0
 40
1.0
 40
1.0
 40
1.0
 10
85.2417
 20
-60.8269
 30
0.0
 10
85.2417
 20
-60.8269
 30
0.0
 10
85.2417
 20
-71.3523
 30
0.0
 10
85.2417
 20
-71.3523
 30
0.0
 10
85.2417
 20
-71.3523
 30
0.0
 10
86.1086
 20
-68.8815
 30
0.0
 10
87.2226
 20
-67.3991
 30
0.0
 10
88.7319
 20
-65.7684
 30
0.0
 10
88.7319
 20
-65.7684
 30
0.0
 10
87.6673
 20
-63.7094
 30
0.0
 10
85.9109
 20
-62.3917
 30
0.0
 10
85.2417
 20
-60.8269
 30
0.0
  0
SPLINE
  5
D7
330
1F
100
AcDbEntity
  8
layer 1
 62
   250
100
AcDbSpline
210
0.0
220
0.0
230
1.0
 70
    11
 71
     3
 72
    28
 73
    24
 74
     0
 42
0.0000000001
 43
0.0000000001
 12
1.0
 22
0.0
 32
0.0
 13
1.0
 23
0.0
 33
0.0
 40
0.0
 40
0.0
 40
0.0
 40
0.0
 40
0.1428571428571428
 40
0.1428571428571428
 40
0.1428571428571428
 40
0.1428571428571428
 40
0.2857142857142857
 40
0.2857142857142857
 40
0.2857142857142857
 40
0.2857142857142857
 40
0.4285714285714285
 40
0.4285714285714285
 40
0.4285714285714285
 40
0.4285714285714285
 40
0.5714285714285714
 40
0.5714285714285714
 40
0.5714285714285714
 40
0.5714285714285714
 40
0.7142857142857143
 40
0.7142857142857143
 40
0.7142857142857143
 40
0.7142857142857143
 40
1.0
 40
1.0
 40
1.0
 40
1.0
 10
141.7311
 20
-74.4654
 30
0.0
 10
141.4346
 20
-73.8724
 30
0.0
 10
140.9882
 20
-71.6915
 30
0.0
 10
139.5569
 20
-71.5994
 30
0.0
 10
139.5569
 20
-71.5994
 30
0.0
 10
138.4196
 20
-71.5261
 30
0.0
 10
137.7779
 20
-72.6865
 30
0.0
 10
137.3332
 20
-74.0701
 30
0.0
 10
137.3332
 20
-74.0701
 30
0.0
 10
137.0697
 20
-73.4607
 30
0.0
 10
136.8313
 20
-72.9795
 30
0.0
 10
136.5677
 20
-72.37
 30
0.0
 10
136.5677
 20
-72.37
 30
0.0
 10
138.0502
 20
-70.5582
 30
0.0
 10
139.1121
 20
-68.4698
 30
0.0
 10
139.4086
 20
-66.0155
 30
0.0
 10
139.4086
 20
-66.0155
 30
0.0
 10
139.8863
 20
-68.3215
 30
0.0
 10
141.1546
 20
-70.677
 30
0.0
 10
142.6206
 20
-72.6371
 30
0.0
 10
142.6206
 20
-72.6371
 30
0.0
 10
142.3076
 20
-73.296
 30
0.0
 10
142.044
 20
-73.8066
 30
0.0
 10
141.7311
 20
-74.4654
 30
0.0
  0
SPLINE
  5
D8
330
1F
100
AcDbEntity
  8
layer 1
 62
   250
100
AcDbSpline
210
0.0
220
0.0
230
1.0
 70
    11
 71
     3
 72
    16
 73
    12
 74
     0
 42
0.0000000001
 43
0.0000000001
 12
1.0
 22
0.0
 32
0.0
 13
1.0
 23
0.0
 33
0.0
 40
0.0
 40
0.0
 40
0.0
 40
0.0
 40
0.25
 40
0.25
 40
0.25
 40
0.25
 40
0.5
 40
0.5
 40
0.5
 40
0.5
 40
1.0
 40
1.0
 40
1.0
 40
1.0
 10
151.3575
 20
-62.6705
 30
0.0
 10
152.4712
 20
-62.5331
 30
0.0
 10
152.1995
 20
-64.5641
 30
0.0
 10
151.2112
 20
-65.1735
 30
0.0
 10
151.2112
 20
-65.1735
 30
0.0
 10
151.1948
 20
-64.8606
 30
0.0
 10
151.1973
 20
-64.5001
 30
0.0
 10
151.2188
 20
-64.1871
 30
0.0
 10
151.2188
 20
-64.1871
 30
0.0
 10
151.4994
 20
-63.8488
 30
0.0
 10
151.5312
 20
-63.1057
 30
0.0
 10
151.3575
 20
-62.6705
 30
0.0
  0
SPLINE
  5
D9
330
1F
100
AcDbEntity
  8
layer 1
 62
   250
100
AcDbSpline
210
0.0
220
0.0
230
1.0
 70
    11
 71
     3
 72
    16
 73
    12
 74
     0
 42
0.0000000001
 43
0.0000000001
 12
1.0
 22
0.0
 32
0.0
 13
1.0
 23
0.0
 33
0.0
 40
0.0
 40
0.0
 40
0.0
 40
0.0
 40
0.25
 40
0.25
 40
0.25
 40
0.25
 40
0.5
 40
0.5
 40
0.5
 40
0.5
 40
1.0
 40
1.0
 40
1.0
 40
1.0
 10
128.0475
 20
-62.8268
 30
0.0
 10
126.9338
 20
-62.6894
 30
0.0
 10
127.2056
 20
-64.7204
 30
0.0
 10
128.1939
 20
-65.3297
 30
0.0
 10
128.1939
 20
-65.3297
 30
0.0
 10
128.2103
 20
-65.0168
 30
0.0
 10
128.2078
 20
-64.6563
 30
0.0
 10
128.1863
 20
-64.3434
 30
0.0
 10
128.1863
 20
-64.3434
 30
0.0
 10
127.9057
 20
-64.005
 30
0.0
 10
127.8739
 20
-63.262
 30
0.0
 10
128.0475
 20
-62.8268
 30
0.0
  0
SPLINE
  5
DA
330
1F
100
AcDbEntity
  8
layer 1
 62
   250
100
AcDbSpline
210
0.0
220
0.0
230
1.0
 70
    11
 71
     3
 72
    36
 73
    32
 74
     0
 42
0.0000000001
 43
0.0000000001
 12
1.0
 22
0.0
 32
0.0
 13
1.0
 23
0.0
 33
0.0
 40
0.0
 40
0.0
 40
0.0
 40
0.0
 40
0.1111111111111111
 40
0.1111111111111111
 40
0.1111111111111111
 40
0.1111111111111111
 40
0.2222222222222222
 40
0.2222222222222222
 40
0.2222222222222222
 40
0.2222222222222222
 40
0.3333333333333333
 40
0.3333333333333333
 40
0.3333333333333333
 40
0.3333333333333333
 40
0.4444444444444444
 40
0.4444444444444444
 40
0.4444444444444444
 40
0.4444444444444444
 40
0.5555555555555556
 40
0.5555555555555556
 40
0.5555555555555556
 40
0.5555555555555556
 40
0.6666666666666666
 40
0.6666666666666666
 40
0.6666666666666666
 40
0.6666666666666666
 40
0.7777777777777778
 40
0.7777777777777778
 40
0.7777777777777778
 40
0.7777777777777778
 40
1.0
 40
1.0
 40
1.0
 40
1.0
 10
163.9928
 20
-64.8617
 30
0.0
 10
163.7251
 20
-66.8242
 30
0.0
 10
161.3163
 20
-66.9333
 30
0.0
 10
158.9131
 20
-66.1346
 30
0.0
 10
158.9131
 20
-66.1346
 30
0.0
 10
157.1562
 20
-65.5507
 30
0.0
 10
155.0921
 20
-65.5594
 30
0.0
 10
153.6804
 20
-65.5649
 30
0.0
 10
153.6804
 20
-65.5649
 30
0.0
 10
155.1387
 20
-63.755
 30
0.0
 10
154.6439
 20
-60.9685
 30
0.0
 10
153.0163
 20
-60.018
 30
0.0
 10
153.0163
 20
-60.018
 30
0.0
 10
153.7064
 20
-59.367
 30
0.0
 10
154.5137
 20
-58.9894
 30
0.0
 10
155.321
 20
-58.768
 30
0.0
 10
155.321
 20
-58.768
 30
0.0
 10
155.8418
 20
-59.6274
 30
0.0
 10
156.7533
 20
-60.4477
 30
0.0
 10
157.5866
 20
-61.2289
 30
0.0
 10
157.5866
 20
-61.2289
 30
0.0
 10
157.1309
 20
-61.0857
 30
0.0
 10
156.558
 20
-60.9425
 30
0.0
 10
156.1022
 20
-60.7992
 30
0.0
 10
156.1022
 20
-60.7992
 30
0.0
 10
156.2217
 20
-63.7044
 30
0.0
 10
159.6184
 20
-64.679
 30
0.0
 10
162.3913
 20
-63.9242
 30
0.0
 10
162.3913
 20
-63.9242
 30
0.0
 10
162.834
 20
-64.2628
 30
0.0
 10
163.5111
 20
-64.6404
 30
0.0
 10
163.9928
 20
-64.8617
 30
0.0
  0
SPLINE
  5
DB
330
1F
100
AcDbEntity
  8
layer 1
 62
   250
100
AcDbSpline
210
0.0
220
0.0
230
1.0
 70
    11
 71
     3
 72
    36
 73
    32
 74
     0
 42
0.0000000001
 43
0.0000000001
 12
1.0
 22
0.0
 32
0.0
 13
1.0
 23
0.0
 33
0.0
 40
0.0
 40
0.0
 40
0.0
 40
0.0
 40
0.1111111111111111
 40
0.1111111111111111
 40
0.1111111111111111
 40
0.1111111111111111
 40
0.2222222222222222
 40
0.2222222222222222
 40
0.2222222222222222
 40
0.2222222222222222
 40
0.3333333333333333
 40
0.3333333333333333
 40
0.3333333333333333
 40
0.3333333333333333
 40
0.4444444444444444
 40
0.4444444444444444
 40
0.4444444444444444
 40
0.4444444444444444
 40
0.5555555555555556
 40
0.5555555555555556
 40
0.5555555555555556
 40
0.5555555555555556
 40
0.6666666666666666
 40
0.6666666666666666
 40
0.6666666666666666
 40
0.6666666666666666
 40
0.7777777777777778
 40
0.7777777777777778
 40
0.7777777777777778
 40
0.7777777777777778
 40
1.0
 40
1.0
 40
1.0
 40
1.0
 10
115.4774
 20
-64.7445
 30
0.0
 10
115.667
 20
-66.9023
 30
0.0
 10
118.1149
 20
-66.7379
 30
0.0
 10
120.5181
 20
-65.9393
 30
0.0
 10
120.5181
 20
-65.9393
 30
0.0
 10
122.2748
 20
-65.3555
 30
0.0
 10
124.261
 20
-65.325
 30
0.0
 10
125.6336
 20
-65.4086
 30
0.0
 10
125.6336
 20
-65.4086
 30
0.0
 10
124.1753
 20
-63.5987
 30
0.0
 10
124.7872
 20
-60.8513
 30
0.0
 10
126.4148
 20
-59.9008
 30
0.0
 10
126.4148
 20
-59.9008
 30
0.0
 10
125.6466
 20
-59.2888
 30
0.0
 10
125.0346
 20
-58.9503
 30
0.0
 10
124.2273
 20
-58.8461
 30
0.0
 10
124.2273
 20
-58.8461
 30
0.0
 10
123.7065
 20
-59.7055
 30
0.0
 10
122.8732
 20
-60.4086
 30
0.0
 10
122.0398
 20
-61.1899
 30
0.0
 10
122.0398
 20
-61.1899
 30
0.0
 10
122.5745
 20
-61.1121
 30
0.0
 10
123.2252
 20
-60.9818
 30
0.0
 10
123.5633
 20
-60.7992
 30
0.0
 10
123.5633
 20
-60.7992
 30
0.0
 10
123.4047
 20
-63.5872
 30
0.0
 10
119.5393
 20
-64.64
 30
0.0
 10
116.7664
 20
-63.8852
 30
0.0
 10
116.7664
 20
-63.8852
 30
0.0
 10
116.3237
 20
-64.2237
 30
0.0
 10
115.9982
 20
-64.6013
 30
0.0
 10
115.4774
 20
-64.7445
 30
0.0
  0
SPLINE
  5
DC
330
1F
100
AcDbEntity
  8
layer 1
 62
   250
100
AcDbSpline
210
0.0
220
0.0
230
1.0
 70
    11
 71
     3
 72
    32
 73
    28
 74
     0
 42
0.0000000001
 43
0.0000000001
 12
1.0
 22
0.0
 32
0.0
 13
1.0
 23
0.0
 33
0.0
 40
0.0
 40
0.0
 40
0.0
 40
0.0
 40
0.125
 40
0.125
 40
0.125
 40
0.125
 40
0.25
 40
0.25
 40
0.25
 40
0.25
 40
0.375
 40
0.375
 40
0.375
 40
0.375
 40
0.5
 40
0.5
 40
0.5
 40
0.5
 40
0.625
 40
0.625
 40
0.625
 40
0.625
 40
0.75
 40
0.75
 40
0.75
 40
0.75
 40
1.0
 40
1.0
 40
1.0
 40
1.0
 10
185.5943
 20
-82.4007
 30
0.0
 10
184.5657
 20
-82.1013
 30
0.0
 10
183.1863
 20
-82.0759
 30
0.0
 10
182.0396
 20
-82.2054
 30
0.0
 10
182.0396
 20
-82.2054
 30
0.0
 10
182.1697
 20
-82.1077
 30
0.0
 10
182.2813
 20
-81.9867
 30
0.0
 10
182.3521
 20
-81.8148
 30
0.0
 10
182.3521
 20
-81.8148
 30
0.0
 10
176.3365
 20
-80.708
 30
0.0
 10
175.399
 20
-70.9294
 30
0.0
 10
184.2271
 20
-69.4711
 30
0.0
 10
184.2271
 20
-69.4711
 30
0.0
 10
183.5631
 20
-71.294
 30
0.0
 10
183.2506
 20
-72.9216
 30
0.0
 10
183.2896
 20
-74.7055
 30
0.0
 10
183.2896
 20
-74.7055
 30
0.0
 10
182.1127
 20
-73.7434
 30
0.0
 10
180.5548
 20
-75.0878
 30
0.0
 10
180.8508
 20
-76.7259
 30
0.0
 10
180.8508
 20
-76.7259
 30
0.0
 10
181.3537
 20
-79.5092
 30
0.0
 10
183.6274
 20
-79.0145
 30
0.0
 10
183.6803
 20
-78.182
 30
0.0
 10
183.6803
 20
-78.182
 30
0.0
 10
184.0058
 20
-79.7445
 30
0.0
 10
184.8001
 20
-81.1117
 30
0.0
 10
185.5943
 20
-82.4007
 30
0.0
  0
SPLINE
  5
DD
330
1F
100
AcDbEntity
  8
layer 1
 62
   250
100
AcDbSpline
210
0.0
220
0.0
230
1.0
 70
    11
 71
     3
 72
    32
 73
    28
 74
     0
 42
0.0000000001
 43
0.0000000001
 12
1.0
 22
0.0
 32
0.0
 13
1.0
 23
0.0
 33
0.0
 40
0.0
 40
0.0
 40
0.0
 40
0.0
 40
0.125
 40
0.125
 40
0.125
 40
0.125
 40
0.25
 40
0.25
 40
0.25
 40
0.25
 40
0.375
 40
0.375
 40
0.375
 40
0.375
 40
0.5
 40
0.5
 40
0.5
 40
0.5
 40
0.625
 40
0.625
 40
0.625
 40
0.625
 40
0.75
 40
0.75
 40
0.75
 40
0.75
 40
1.0
 40
1.0
 40
1.0
 40
1.0
 10
93.6408
 20
-82.4398
 30
0.0
 10
94.6694
 20
-82.1403
 30
0.0
 10
96.0487
 20
-82.1149
 30
0.0
 10
97.1954
 20
-82.2445
 30
0.0
 10
97.1954
 20
-82.2445
 30
0.0
 10
97.0654
 20
-82.1467
 30
0.0
 10
96.9538
 20
-82.0258
 30
0.0
 10
96.8829
 20
-81.8539
 30
0.0
 10
96.8829
 20
-81.8539
 30
0.0
 10
103.0548
 20
-81.0596
 30
0.0
 10
104.1095
 20
-70.656
 30
0.0
 10
95.0079
 20
-69.393
 30
0.0
 10
95.0079
 20
-69.393
 30
0.0
 10
95.672
 20
-71.2159
 30
0.0
 10
95.9845
 20
-72.9607
 30
0.0
 10
95.9454
 20
-74.7445
 30
0.0
 10
95.9454
 20
-74.7445
 30
0.0
 10
97.1224
 20
-73.7825
 30
0.0
 10
98.5604
 20
-75.0418
 30
0.0
 10
98.3061
 20
-76.6869
 30
0.0
 10
98.3061
 20
-76.6869
 30
0.0
 10
97.9615
 20
-78.9165
 30
0.0
 10
96.0745
 20
-78.975
 30
0.0
 10
95.4772
 20
-78.3373
 30
0.0
 10
95.4772
 20
-78.3373
 30
0.0
 10
95.1516
 20
-79.8998
 30
0.0
 10
94.435
 20
-81.1507
 30
0.0
 10
93.6408
 20
-82.4398
 30
0.0
  0
SPLINE
  5
DE
330
1F
100
AcDbEntity
  8
layer 1
 62
   250
100
AcDbSpline
210
0.0
220
0.0
230
1.0
 70
    11
 71
     3
 72
    16
 73
    12
 74
     0
 42
0.0000000001
 43
0.0000000001
 12
1.0
 22
0.0
 32
0.0
 13
1.0
 23
0.0
 33
0.0
 40
0.0
 40
0.0
 40
0.0
 40
0.0
 40
0.25
 40
0.25
 40
0.25
 40
0.25
 40
0.5
 40
0.5
 40
0.5
 40
0.5
 40
1.0
 40
1.0
 40
1.0
 40
1.0
 10
108.2508
 20
-65.9164
 30
0.0
 10
109.1493
 20
-67.6872
 30
0.0
 10
108.6414
 20
-70.044
 30
0.0
 10
105.7899
 20
-70.2523
 30
0.0
 10
105.7899
 20
-70.2523
 30
0.0
 10
104.6441
 20
-68.781
 30
0.0
 10
104.3185
 20
-66.9581
 30
0.0
 10
104.1883
 20
-65.2914
 30
0.0
 10
104.1883
 20
-65.2914
 30
0.0
 10
105.256
 20
-65.7341
 30
0.0
 10
107.3003
 20
-65.9425
 30
0.0
 10
108.2508
 20
-65.9164
 30
0.0
  0
SPLINE
  5
DF
330
1F
100
AcDbEntity
  8
layer 1
 62
   250
100
AcDbSpline
210
0.0
220
0.0
230
1.0
 70
    11
 71
     3
 72
    16
 73
    12
 74
     0
 42
0.0000000001
 43
0.0000000001
 12
1.0
 22
0.0
 32
0.0
 13
1.0
 23
0.0
 33
0.0
 40
0.0
 40
0.0
 40
0.0
 40
0.0
 40
0.25
 40
0.25
 40
0.25
 40
0.25
 40
0.5
 40
0.5
 40
0.5
 40
0.5
 40
1.0
 40
1.0
 40
1.0
 40
1.0
 10
171.0631
 20
-65.8383
 30
0.0
 10
170.1647
 20
-67.6091
 30
0.0
 10
170.6725
 20
-69.9659
 30
0.0
 10
173.524
 20
-70.1742
 30
0.0
 10
173.524
 20
-70.1742
 30
0.0
 10
174.6699
 20
-68.7029
 30
0.0
 10
174.9954
 20
-66.88
 30
0.0
 10
175.1256
 20
-65.2133
 30
0.0
 10
175.1256
 20
-65.2133
 30
0.0
 10
174.0579
 20
-65.656
 30
0.0
 10
172.0136
 20
-65.8643
 30
0.0
 10
171.0631
 20
-65.8383
 30
0.0
  0
SPLINE
  5
E0
330
1F
100
AcDbEntity
  8
layer 1
 62
   250
100
AcDbSpline
210
0.0
220
0.0
230
1.0
 70
    11
 71
     3
 72
    20
 73
    16
 74
     0
 42
0.0000000001
 43
0.0000000001
 12
1.0
 22
0.0
 32
0.0
 13
1.0
 23
0.0
 33
0.0
 40
0.0
 40
0.0
 40
0.0
 40
0.0
 40
0.2
 40
0.2
 40
0.2
 40
0.2
 40
0.4
 40
0.4
 40
0.4
 40
0.4
 40
0.6
 40
0.6
 40
0.6
 40
0.6
 40
1.0
 40
1.0
 40
1.0
 40
1.0
 10
151.6203
 20
-73.6993
 30
0.0
 10
150.7583
 20
-73.563
 30
0.0
 10
150.3784
 20
-74.7391
 30
0.0
 10
150.524
 20
-75.6987
 30
0.0
 10
150.524
 20
-75.6987
 30
0.0
 10
149.1212
 20
-74.6416
 30
0.0
 10
147.0303
 20
-73.0022
 30
0.0
 10
145.5947
 20
-72.0842
 30
0.0
 10
145.5947
 20
-72.0842
 30
0.0
 10
146.5339
 20
-70.8363
 30
0.0
 10
148.0527
 20
-69.4918
 30
0.0
 10
149.4266
 20
-69.0165
 30
0.0
 10
149.4266
 20
-69.0165
 30
0.0
 10
149.9979
 20
-70.729
 30
0.0
 10
150.566
 20
-72.2282
 30
0.0
 10
151.6203
 20
-73.6993
 30
0.0
  0
SPLINE
  5
E1
330
1F
100
AcDbEntity
  8
layer 1
 62
   250
100
AcDbSpline
210
0.0
220
0.0
230
1.0
 70
    11
 71
     3
 72
    56
 73
    52
 74
     0
 42
0.0000000001
 43
0.0000000001
 12
1.0
 22
0.0
 32
0.0
 13
1.0
 23
0.0
 33
0.0
 40
0.0
 40
0.0
 40
0.0
 40
0.0
 40
0.0714285714285714
 40
0.0714285714285714
 40
0.0714285714285714
 40
0.0714285714285714
 40
0.1428571428571428
 40
0.1428571428571428
 40
0.1428571428571428
 40
0.1428571428571428
 40
0.2142857142857143
 40
0.2142857142857143
 40
0.2142857142857143
 40
0.2142857142857143
 40
0.2857142857142857
 40
0.2857142857142857
 40
0.2857142857142857
 40
0.2857142857142857
 40
0.3571428571428572
 40
0.3571428571428572
 40
0.3571428571428572
 40
0.3571428571428572
 40
0.4285714285714285
 40
0.4285714285714285
 40
0.4285714285714285
 40
0.4285714285714285
 40
0.5
 40
0.5
 40
0.5
 40
0.5
 40
0.5714285714285714
 40
0.5714285714285714
 40
0.5714285714285714
 40
0.5714285714285714
 40
0.6428571428571429
 40
0.6428571428571429
 40
0.6428571428571429
 40
0.6428571428571429
 40
0.7142857142857143
 40
0.7142857142857143
 40
0.7142857142857143
 40
0.7142857142857143
 40
0.7857142857142857
 40
0.7857142857142857
 40
0.7857142857142857
 40
0.7857142857142857
 40
0.8571428571428571
 40
0.8571428571428571
 40
0.8571428571428571
 40
0.8571428571428571
 40
1.0
 40
1.0
 40
1.0
 40
1.0
 10
152.3447
 20
-77.2731
 30
0.0
 10
153.5922
 20
-77.7959
 30
0.0
 10
154.6013
 20
-77.5661
 30
0.0
 10
154.4
 20
-75.7708
 30
0.0
 10
154.4
 20
-75.7708
 30
0.0
 10
157.7667
 20
-77.6556
 30
0.0
 10
159.9744
 20
-77.8984
 30
0.0
 10
162.9066
 20
-77.8514
 30
0.0
 10
162.9066
 20
-77.8514
 30
0.0
 10
162.7003
 20
-81.264
 30
0.0
 10
160.1759
 20
-82.8415
 30
0.0
 10
157.555
 20
-82.8253
 30
0.0
 10
157.555
 20
-82.8253
 30
0.0
 10
158.2943
 20
-87.0468
 30
0.0
 10
164.6278
 20
-86.5069
 30
0.0
 10
166.1476
 20
-83.6577
 30
0.0
 10
166.1476
 20
-83.6577
 30
0.0
 10
169.5038
 20
-85.4037
 30
0.0
 10
173.7776
 20
-84.4453
 30
0.0
 10
173.4634
 20
-80.1545
 30
0.0
 10
173.4634
 20
-80.1545
 30
0.0
 10
174.5384
 20
-82.3199
 30
0.0
 10
176.0963
 20
-82.9883
 30
0.0
 10
178.1372
 20
-83.1737
 30
0.0
 10
178.1372
 20
-83.1737
 30
0.0
 10
176.841
 20
-83.6676
 30
0.0
 10
175.9728
 20
-84.3614
 30
0.0
 10
175.1112
 20
-85.2417
 30
0.0
 10
175.1112
 20
-85.2417
 30
0.0
 10
172.9614
 20
-84.8945
 30
0.0
 10
170.3697
 20
-85.0697
 30
0.0
 10
168.6368
 20
-86.1713
 30
0.0
 10
168.6368
 20
-86.1713
 30
0.0
 10
166.5083
 20
-87.5243
 30
0.0
 10
164.0264
 20
-89.9417
 30
0.0
 10
161.2708
 20
-87.2379
 30
0.0
 10
161.2708
 20
-87.2379
 30
0.0
 10
160.0649
 20
-88.8632
 30
0.0
 10
161.5634
 20
-91.4061
 30
0.0
 10
163.5932
 20
-91.5343
 30
0.0
 10
163.5932
 20
-91.5343
 30
0.0
 10
163.3513
 20
-92.0181
 30
0.0
 10
163.1094
 20
-92.5019
 30
0.0
 10
162.8675
 20
-92.9858
 30
0.0
 10
162.8675
 20
-92.9858
 30
0.0
 10
161.3093
 20
-91.5837
 30
0.0
 10
159.9925
 20
-90.4714
 30
0.0
 10
157.9514
 20
-90.2285
 30
0.0
 10
157.9514
 20
-90.2285
 30
0.0
 10
158.8653
 20
-85.764
 30
0.0
 10
156.9479
 20
-81.6643
 30
0.0
 10
152.3447
 20
-77.2731
 30
0.0
  0
SPLINE
  5
E2
330
1F
100
AcDbEntity
  8
layer 1
 62
   250
100
AcDbSpline
210
0.0
220
0.0
230
1.0
 70
    11
 71
     3
 72
    20
 73
    16
 74
     0
 42
0.0000000001
 43
0.0000000001
 12
1.0
 22
0.0
 32
0.0
 13
1.0
 23
0.0
 33
0.0
 40
0.0
 40
0.0
 40
0.0
 40
0.0
 40
0.2
 40
0.2
 40
0.2
 40
0.2
 40
0.4
 40
0.4
 40
0.4
 40
0.4
 40
0.6
 40
0.6
 40
0.6
 40
0.6
 40
1.0
 40
1.0
 40
1.0
 40
1.0
 10
127.645
 20
-73.6058
 30
0.0
 10
128.507
 20
-73.4695
 30
0.0
 10
128.8635
 20
-74.482
 30
0.0
 10
128.7179
 20
-75.4416
 30
0.0
 10
128.7179
 20
-75.4416
 30
0.0
 10
130.1207
 20
-74.3845
 30
0.0
 10
132.1181
 20
-72.7451
 30
0.0
 10
133.5537
 20
-71.8271
 30
0.0
 10
133.5537
 20
-71.8271
 30
0.0
 10
132.6145
 20
-70.5792
 30
0.0
 10
131.3294
 20
-69.3749
 30
0.0
 10
129.9555
 20
-68.8997
 30
0.0
 10
129.9555
 20
-68.8997
 30
0.0
 10
129.6414
 20
-70.6122
 30
0.0
 10
128.746
 20
-72.462
 30
0.0
 10
127.645
 20
-73.6058
 30
0.0
  0
SPLINE
  5
E3
330
1F
100
AcDbEntity
  8
layer 1
 62
   250
100
AcDbSpline
210
0.0
220
0.0
230
1.0
 70
    11
 71
     3
 72
    56
 73
    52
 74
     0
 42
0.0000000001
 43
0.0000000001
 12
1.0
 22
0.0
 32
0.0
 13
1.0
 23
0.0
 33
0.0
 40
0.0
 40
0.0
 40
0.0
 40
0.0
 40
0.0714285714285714
 40
0.0714285714285714
 40
0.0714285714285714
 40
0.0714285714285714
 40
0.1428571428571428
 40
0.1428571428571428
 40
0.1428571428571428
 40
0.1428571428571428
 40
0.2142857142857143
 40
0.2142857142857143
 40
0.2142857142857143
 40
0.2142857142857143
 40
0.2857142857142857
 40
0.2857142857142857
 40
0.2857142857142857
 40
0.2857142857142857
 40
0.3571428571428572
 40
0.3571428571428572
 40
0.3571428571428572
 40
0.3571428571428572
 40
0.4285714285714285
 40
0.4285714285714285
 40
0.4285714285714285
 40
0.4285714285714285
 40
0.5
 40
0.5
 40
0.5
 40
0.5
 40
0.5714285714285714
 40
0.5714285714285714
 40
0.5714285714285714
 40
0.5714285714285714
 40
0.6428571428571429
 40
0.6428571428571429
 40
0.6428571428571429
 40
0.6428571428571429
 40
0.7142857142857143
 40
0.7142857142857143
 40
0.7142857142857143
 40
0.7142857142857143
 40
0.7857142857142857
 40
0.7857142857142857
 40
0.7857142857142857
 40
0.7857142857142857
 40
0.8571428571428571
 40
0.8571428571428571
 40
0.8571428571428571
 40
0.8571428571428571
 40
1.0
 40
1.0
 40
1.0
 40
1.0
 10
127.0141
 20
-77.0393
 30
0.0
 10
125.7666
 20
-77.5621
 30
0.0
 10
124.7107
 20
-76.6078
 30
0.0
 10
125.1925
 20
-75.5838
 30
0.0
 10
125.1925
 20
-75.5838
 30
0.0
 10
121.8258
 20
-77.4686
 30
0.0
 10
119.5761
 20
-77.8984
 30
0.0
 10
116.644
 20
-77.8514
 30
0.0
 10
116.644
 20
-77.8514
 30
0.0
 10
116.8503
 20
-81.264
 30
0.0
 10
119.2296
 20
-82.8415
 30
0.0
 10
121.8505
 20
-82.8253
 30
0.0
 10
121.8505
 20
-82.8253
 30
0.0
 10
121.1113
 20
-87.0468
 30
0.0
 10
114.142
 20
-86.6803
 30
0.0
 10
113.2579
 20
-83.6577
 30
0.0
 10
113.2579
 20
-83.6577
 30
0.0
 10
109.9017
 20
-85.4037
 30
0.0
 10
105.6279
 20
-84.4453
 30
0.0
 10
105.9421
 20
-80.1545
 30
0.0
 10
105.9421
 20
-80.1545
 30
0.0
 10
104.8671
 20
-82.3199
 30
0.0
 10
103.3092
 20
-82.9883
 30
0.0
 10
101.2683
 20
-83.1737
 30
0.0
 10
101.2683
 20
-83.1737
 30
0.0
 10
102.5645
 20
-83.6676
 30
0.0
 10
103.571
 20
-84.4996
 30
0.0
 10
104.4325
 20
-85.3799
 30
0.0
 10
104.4325
 20
-85.3799
 30
0.0
 10
106.5823
 20
-85.0327
 30
0.0
 10
109.2469
 20
-85.0718
 30
0.0
 10
110.9798
 20
-86.1733
 30
0.0
 10
110.9798
 20
-86.1733
 30
0.0
 10
113.1083
 20
-87.5263
 30
0.0
 10
115.7176
 20
-89.9417
 30
0.0
 10
118.4731
 20
-87.2379
 30
0.0
 10
118.4731
 20
-87.2379
 30
0.0
 10
119.6791
 20
-88.8632
 30
0.0
 10
118.1322
 20
-91.3577
 30
0.0
 10
116.1024
 20
-91.4859
 30
0.0
 10
116.1024
 20
-91.4859
 30
0.0
 10
116.255
 20
-91.7017
 30
0.0
 10
116.4114
 20
-92.0073
 30
0.0
 10
116.5788
 20
-92.3422
 30
0.0
 10
116.5788
 20
-92.3422
 30
0.0
 10
117.4119
 20
-91.3269
 30
0.0
 10
119.5097
 20
-90.3264
 30
0.0
 10
120.9223
 20
-90.2285
 30
0.0
 10
120.9223
 20
-90.2285
 30
0.0
 10
120.0084
 20
-85.764
 30
0.0
 10
122.4109
 20
-81.4305
 30
0.0
 10
127.0141
 20
-77.0393
 30
0.0
  0
SPLINE
  5
E4
330
1F
100
AcDbEntity
  8
layer 1
 62
   250
100
AcDbSpline
210
0.0
220
0.0
230
1.0
 70
    11
 71
     3
 72
    16
 73
    12
 74
     0
 42
0.0000000001
 43
0.0000000001
 12
1.0
 22
0.0
 32
0.0
 13
1.0
 23
0.0
 33
0.0
 40
0.0
 40
0.0
 40
0.0
 40
0.0
 40
0.25
 40
0.25
 40
0.25
 40
0.25
 40
0.5
 40
0.5
 40
0.5
 40
0.5
 40
1.0
 40
1.0
 40
1.0
 40
1.0
 10
158.5971
 20
-69.1304
 30
0.0
 10
156.6896
 20
-67.9453
 30
0.0
 10
153.7301
 20
-67.6961
 30
0.0
 10
151.7801
 20
-68.4536
 30
0.0
 10
151.7801
 20
-68.4536
 30
0.0
 10
153.295
 20
-73.5623
 30
0.0
 10
157.5173
 20
-75.4317
 30
0.0
 10
162.9484
 20
-75.6574
 30
0.0
 10
162.9484
 20
-75.6574
 30
0.0
 10
162.4166
 20
-72.3053
 30
0.0
 10
160.8758
 20
-70.5461
 30
0.0
 10
158.5971
 20
-69.1304
 30
0.0
  0
SPLINE
  5
E5
330
1F
100
AcDbEntity
  8
layer 1
 62
   250
100
AcDbSpline
210
0.0
220
0.0
230
1.0
 70
    11
 71
     3
 72
    16
 73
    12
 74
     0
 42
0.0000000001
 43
0.0000000001
 12
1.0
 22
0.0
 32
0.0
 13
1.0
 23
0.0
 33
0.0
 40
0.0
 40
0.0
 40
0.0
 40
0.0
 40
0.25
 40
0.25
 40
0.25
 40
0.25
 40
0.5
 40
0.5
 40
0.5
 40
0.5
 40
1.0
 40
1.0
 40
1.0
 40
1.0
 10
120.9826
 20
-69.0337
 30
0.0
 10
122.8901
 20
-67.8486
 30
0.0
 10
125.8496
 20
-67.5994
 30
0.0
 10
127.7996
 20
-68.3569
 30
0.0
 10
127.7996
 20
-68.3569
 30
0.0
 10
126.2847
 20
-73.4656
 30
0.0
 10
122.0624
 20
-75.335
 30
0.0
 10
116.6313
 20
-75.5607
 30
0.0
 10
116.6313
 20
-75.5607
 30
0.0
 10
117.1631
 20
-72.2086
 30
0.0
 10
118.7039
 20
-70.4494
 30
0.0
 10
120.9826
 20
-69.0337
 30
0.0
  0
SPLINE
  5
E6
330
1F
100
AcDbEntity
  8
layer 1
 62
   250
100
AcDbSpline
210
0.0
220
0.0
230
1.0
 70
    11
 71
     3
 72
    24
 73
    20
 74
     0
 42
0.0000000001
 43
0.0000000001
 12
1.0
 22
0.0
 32
0.0
 13
1.0
 23
0.0
 33
0.0
 40
0.0
 40
0.0
 40
0.0
 40
0.0
 40
0.1666666666666667
 40
0.1666666666666667
 40
0.1666666666666667
 40
0.1666666666666667
 40
0.3333333333333333
 40
0.3333333333333333
 40
0.3333333333333333
 40
0.3333333333333333
 40
0.5
 40
0.5
 40
0.5
 40
0.5
 40
0.6666666666666666
 40
0.6666666666666666
 40
0.6666666666666666
 40
0.6666666666666666
 40
1.0
 40
1.0
 40
1.0
 40
1.0
 10
169.5237
 20
-73.9168
 30
0.0
 10
168.5567
 20
-74.4164
 30
0.0
 10
167.5898
 20
-74.771
 30
0.0
 10
166.3811
 20
-75.0288
 30
0.0
 10
166.3811
 20
-75.0288
 30
0.0
 10
165.7042
 20
-73.4495
 30
0.0
 10
165.1724
 20
-72.1119
 30
0.0
 10
164.012
 20
-70.5809
 30
0.0
 10
164.012
 20
-70.5809
 30
0.0
 10
167.1708
 20
-70.4842
 30
0.0
 10
167.5737
 20
-66.568
 30
0.0
 10
165.5592
 20
-65.3593
 30
0.0
 10
165.5592
 20
-65.3593
 30
0.0
 10
167.0257
 20
-65.7461
 30
0.0
 10
168.3472
 20
-65.8428
 30
0.0
 10
169.7654
 20
-65.8428
 30
0.0
 10
169.7654
 20
-65.8428
 30
0.0
 10
166.8323
 20
-67.6961
 30
0.0
 10
167.3319
 20
-72.1602
 30
0.0
 10
169.5237
 20
-73.9168
 30
0.0
  0
SPLINE
  5
E7
330
1F
100
AcDbEntity
  8
layer 1
 62
   250
100
AcDbSpline
210
0.0
220
0.0
230
1.0
 70
    11
 71
     3
 72
    24
 73
    20
 74
     0
 42
0.0000000001
 43
0.0000000001
 12
1.0
 22
0.0
 32
0.0
 13
1.0
 23
0.0
 33
0.0
 40
0.0
 40
0.0
 40
0.0
 40
0.0
 40
0.1666666666666667
 40
0.1666666666666667
 40
0.1666666666666667
 40
0.1666666666666667
 40
0.3333333333333333
 40
0.3333333333333333
 40
0.3333333333333333
 40
0.3333333333333333
 40
0.5
 40
0.5
 40
0.5
 40
0.5
 40
0.6666666666666666
 40
0.6666666666666666
 40
0.6666666666666666
 40
0.6666666666666666
 40
1.0
 40
1.0
 40
1.0
 40
1.0
 10
109.7659
 20
-73.9168
 30
0.0
 10
110.7329
 20
-74.4164
 30
0.0
 10
111.8932
 20
-74.771
 30
0.0
 10
113.1019
 20
-75.0288
 30
0.0
 10
113.1019
 20
-75.0288
 30
0.0
 10
113.7788
 20
-73.4495
 30
0.0
 10
114.4073
 20
-72.1119
 30
0.0
 10
115.5677
 20
-70.5809
 30
0.0
 10
115.5677
 20
-70.5809
 30
0.0
 10
112.4089
 20
-70.4842
 30
0.0
 10
112.006
 20
-66.5196
 30
0.0
 10
114.0205
 20
-65.311
 30
0.0
 10
114.0205
 20
-65.311
 30
0.0
 10
112.554
 20
-65.6977
 30
0.0
 10
111.0391
 20
-65.9878
 30
0.0
 10
109.6209
 20
-65.9878
 30
0.0
 10
109.6209
 20
-65.9878
 30
0.0
 10
112.554
 20
-67.8411
 30
0.0
 10
111.9577
 20
-72.1602
 30
0.0
 10
109.7659
 20
-73.9168
 30
0.0
  0
SPLINE
  5
E8
330
1F
100
AcDbEntity
  8
layer 1
 62
   250
100
AcDbSpline
210
0.0
220
0.0
230
1.0
 70
    11
 71
     3
 72
    24
 73
    20
 74
     0
 42
0.0000000001
 43
0.0000000001
 12
1.0
 22
0.0
 32
0.0
 13
1.0
 23
0.0
 33
0.0
 40
0.0
 40
0.0
 40
0.0
 40
0.0
 40
0.1666666666666667
 40
0.1666666666666667
 40
0.1666666666666667
 40
0.1666666666666667
 40
0.3333333333333333
 40
0.3333333333333333
 40
0.3333333333333333
 40
0.3333333333333333
 40
0.5
 40
0.5
 40
0.5
 40
0.5
 40
0.6666666666666666
 40
0.6666666666666666
 40
0.6666666666666666
 40
0.6666666666666666
 40
1.0
 40
1.0
 40
1.0
 40
1.0
 10
172.1345
 20
-78.0264
 30
0.0
 10
171.3609
 20
-81.2979
 30
0.0
 10
167.3678
 20
-79.9764
 30
0.0
 10
166.9924
 20
-77.3025
 30
0.0
 10
166.9924
 20
-77.3025
 30
0.0
 10
168.9263
 20
-76.8673
 30
0.0
 10
171.0225
 20
-75.9958
 30
0.0
 10
172.1345
 20
-75.0772
 30
0.0
 10
172.1345
 20
-75.0772
 30
0.0
 10
172.3117
 20
-75.0772
 30
0.0
 10
172.5373
 20
-75.2222
 30
0.0
 10
172.7146
 20
-75.2222
 30
0.0
 10
172.7146
 20
-75.2222
 30
0.0
 10
172.6018
 20
-76.1247
 30
0.0
 10
172.7136
 20
-77.8491
 30
0.0
 10
173.1326
 20
-79.2351
 30
0.0
 10
173.1326
 20
-79.2351
 30
0.0
 10
172.89
 20
-78.6838
 30
0.0
 10
172.5043
 20
-78.2808
 30
0.0
 10
172.1345
 20
-78.0264
 30
0.0
  0
SPLINE
  5
E9
330
1F
100
AcDbEntity
  8
layer 1
 62
   250
100
AcDbSpline
210
0.0
220
0.0
230
1.0
 70
    11
 71
     3
 72
    24
 73
    20
 74
     0
 42
0.0000000001
 43
0.0000000001
 12
1.0
 22
0.0
 32
0.0
 13
1.0
 23
0.0
 33
0.0
 40
0.0
 40
0.0
 40
0.0
 40
0.0
 40
0.1666666666666667
 40
0.1666666666666667
 40
0.1666666666666667
 40
0.1666666666666667
 40
0.3333333333333333
 40
0.3333333333333333
 40
0.3333333333333333
 40
0.3333333333333333
 40
0.5
 40
0.5
 40
0.5
 40
0.5
 40
0.6666666666666666
 40
0.6666666666666666
 40
0.6666666666666666
 40
0.6666666666666666
 40
1.0
 40
1.0
 40
1.0
 40
1.0
 10
107.1691
 20
-78.0264
 30
0.0
 10
107.9427
 20
-81.2979
 30
0.0
 10
112.0809
 20
-80.3149
 30
0.0
 10
112.3595
 20
-77.4475
 30
0.0
 10
112.3595
 20
-77.4475
 30
0.0
 10
110.4256
 20
-77.0124
 30
0.0
 10
108.2811
 20
-75.9958
 30
0.0
 10
107.1691
 20
-75.0772
 30
0.0
 10
107.1691
 20
-75.0772
 30
0.0
 10
106.9919
 20
-75.0772
 30
0.0
 10
106.7662
 20
-75.2222
 30
0.0
 10
106.589
 20
-75.2222
 30
0.0
 10
106.589
 20
-75.2222
 30
0.0
 10
106.7018
 20
-76.1247
 30
0.0
 10
106.59
 20
-77.8491
 30
0.0
 10
106.171
 20
-79.2351
 30
0.0
 10
106.171
 20
-79.2351
 30
0.0
 10
106.4136
 20
-78.6838
 30
0.0
 10
106.7993
 20
-78.2808
 30
0.0
 10
107.1691
 20
-78.0264
 30
0.0
  0
SPLINE
  5
EA
330
1F
100
AcDbEntity
  8
layer 1
 62
   250
100
AcDbSpline
210
0.0
220
0.0
230
1.0
 70
    11
 71
     3
 72
    20
 73
    16
 74
     0
 42
0.0000000001
 43
0.0000000001
 12
1.0
 22
0.0
 32
0.0
 13
1.0
 23
0.0
 33
0.0
 40
0.0
 40
0.0
 40
0.0
 40
0.0
 40
0.2
 40
0.2
 40
0.2
 40
0.2
 40
0.4
 40
0.4
 40
0.4
 40
0.4
 40
0.6
 40
0.6
 40
0.6
 40
0.6
 40
1.0
 40
1.0
 40
1.0
 40
1.0
 10
189.0526
 20
-70.2583
 30
0.0
 10
194.9708
 20
-73.8039
 30
0.0
 10
193.0201
 20
-81.1852
 30
0.0
 10
190.9902
 20
-84.4541
 30
0.0
 10
190.9902
 20
-84.4541
 30
0.0
 10
189.2767
 20
-82.7537
 30
0.0
 10
187.2073
 20
-81.2116
 30
0.0
 10
186.601
 20
-79.1158
 30
0.0
 10
186.601
 20
-79.1158
 30
0.0
 10
188.097
 20
-80.6843
 30
0.0
 10
190.5916
 20
-79.4452
 30
0.0
 10
191.1138
 20
-77.4501
 30
0.0
 10
191.1138
 20
-77.4501
 30
0.0
 10
191.636
 20
-75.4549
 30
0.0
 10
189.3953
 20
-72.1102
 30
0.0
 10
189.0526
 20
-70.2583
 30
0.0
  0
SPLINE
  5
EB
330
1F
100
AcDbEntity
  8
layer 1
 62
   250
100
AcDbSpline
210
0.0
220
0.0
230
1.0
 70
    11
 71
     3
 72
    20
 73
    16
 74
     0
 42
0.0000000001
 43
0.0000000001
 12
1.0
 22
0.0
 32
0.0
 13
1.0
 23
0.0
 33
0.0
 40
0.0
 40
0.0
 40
0.0
 40
0.0
 40
0.2
 40
0.2
 40
0.2
 40
0.2
 40
0.4
 40
0.4
 40
0.4
 40
0.4
 40
0.6
 40
0.6
 40
0.6
 40
0.6
 40
1.0
 40
1.0
 40
1.0
 40
1.0
 10
90.0163
 20
-70.2187
 30
0.0
 10
84.0981
 20
-73.7644
 30
0.0
 10
85.9698
 20
-81.027
 30
0.0
 10
88.1974
 20
-84.375
 30
0.0
 10
88.1974
 20
-84.375
 30
0.0
 10
89.9109
 20
-82.6747
 30
0.0
 10
91.9803
 20
-81.1325
 30
0.0
 10
92.5866
 20
-79.0367
 30
0.0
 10
92.5866
 20
-79.0367
 30
0.0
 10
91.0906
 20
-80.6053
 30
0.0
 10
88.5959
 20
-79.3661
 30
0.0
 10
88.0738
 20
-77.371
 30
0.0
 10
88.0738
 20
-77.371
 30
0.0
 10
87.5516
 20
-75.3759
 30
0.0
 10
89.7923
 20
-72.0706
 30
0.0
 10
90.0163
 20
-70.2187
 30
0.0
  0
SPLINE
  5
EC
330
1F
100
AcDbEntity
  8
layer 1
 62
   250
100
AcDbSpline
210
0.0
220
0.0
230
1.0
 70
    11
 71
     3
 72
    20
 73
    16
 74
     0
 42
0.0000000001
 43
0.0000000001
 12
1.0
 22
0.0
 32
0.0
 13
1.0
 23
0.0
 33
0.0
 40
0.0
 40
0.0
 40
0.0
 40
0.0
 40
0.2
 40
0.2
 40
0.2
 40
0.2
 40
0.4
 40
0.4
 40
0.4
 40
0.4
 40
0.6
 40
0.6
 40
0.6
 40
0.6
 40
1.0
 40
1.0
 40
1.0
 40
1.0
 10
145.3935
 20
-84.0191
 30
0.0
 10
147.4009
 20
-81.1589
 30
0.0
 10
145.4104
 20
-77.8241
 30
0.0
 10
143.3468
 20
-76.6246
 30
0.0
 10
143.3468
 20
-76.6246
 30
0.0
 10
143.5376
 20
-75.8733
 30
0.0
 10
143.8516
 20
-75.0034
 30
0.0
 10
144.216
 20
-74.4498
 30
0.0
 10
144.216
 20
-74.4498
 30
0.0
 10
148.1522
 20
-77.6264
 30
0.0
 10
152.5651
 20
-82.8987
 30
0.0
 10
151.4829
 20
-88.6456
 30
0.0
 10
151.4829
 20
-88.6456
 30
0.0
 10
151.2025
 20
-84.9681
 30
0.0
 10
148.8922
 20
-83.6237
 30
0.0
 10
145.3935
 20
-84.0191
 30
0.0
  0
SPLINE
  5
ED
330
1F
100
AcDbEntity
  8
layer 1
 62
   250
100
AcDbSpline
210
0.0
220
0.0
230
1.0
 70
    11
 71
     3
 72
    20
 73
    16
 74
     0
 42
0.0000000001
 43
0.0000000001
 12
1.0
 22
0.0
 32
0.0
 13
1.0
 23
0.0
 33
0.0
 40
0.0
 40
0.0
 40
0.0
 40
0.0
 40
0.2
 40
0.2
 40
0.2
 40
0.2
 40
0.4
 40
0.4
 40
0.4
 40
0.4
 40
0.6
 40
0.6
 40
0.6
 40
0.6
 40
1.0
 40
1.0
 40
1.0
 40
1.0
 10
133.4271
 20
-84.0191
 30
0.0
 10
131.5818
 20
-81.0007
 30
0.0
 10
133.6116
 20
-77.4682
 30
0.0
 10
135.681
 20
-76.2687
 30
0.0
 10
135.681
 20
-76.2687
 30
0.0
 10
135.4833
 20
-75.5174
 30
0.0
 10
135.3252
 20
-75.1616
 30
0.0
 10
134.9693
 20
-74.608
 30
0.0
 10
134.9693
 20
-74.608
 30
0.0
 10
131.0282
 20
-77.7845
 30
0.0
 10
126.494
 20
-82.7801
 30
0.0
 10
127.3375
 20
-88.2897
 30
0.0
 10
127.3375
 20
-88.2897
 30
0.0
 10
127.6275
 20
-84.6122
 30
0.0
 10
130.2505
 20
-83.8214
 30
0.0
 10
133.4271
 20
-84.0191
 30
0.0
  0
SPLINE
  5
EE
330
1F
100
AcDbEntity
  8
layer 1
 62
   250
100
AcDbSpline
210
0.0
220
0.0
230
1.0
 70
    11
 71
     3
 72
    20
 73
    16
 74
     0
 42
0.0000000001
 43
0.0000000001
 12
1.0
 22
0.0
 32
0.0
 13
1.0
 23
0.0
 33
0.0
 40
0.0
 40
0.0
 40
0.0
 40
0.0
 40
0.2
 40
0.2
 40
0.2
 40
0.2
 40
0.4
 40
0.4
 40
0.4
 40
0.4
 40
0.6
 40
0.6
 40
0.6
 40
0.6
 40
1.0
 40
1.0
 40
1.0
 40
1.0
 10
141.4037
 20
-85.6404
 30
0.0
 10
140.4943
 20
-86.2599
 30
0.0
 10
139.7825
 20
-87.2748
 30
0.0
 10
139.5057
 20
-88.2106
 30
0.0
 10
139.5057
 20
-88.2106
 30
0.0
 10
139.1366
 20
-87.2616
 30
0.0
 10
138.6094
 20
-86.3917
 30
0.0
 10
137.8844
 20
-85.8776
 30
0.0
 10
137.8844
 20
-85.8776
 30
0.0
 10
134.0342
 20
-80.8417
 30
0.0
 10
138.1368
 20
-80.8001
 30
0.0
 10
139.2585
 20
-80.8044
 30
0.0
 10
139.2585
 20
-80.8044
 30
0.0
 10
140.4525
 20
-80.8088
 30
0.0
 10
144.7692
 20
-81.0028
 30
0.0
 10
141.4037
 20
-85.6404
 30
0.0
  0
SPLINE
  5
EF
330
1F
100
AcDbEntity
  8
layer 1
 62
   250
100
AcDbSpline
210
0.0
220
0.0
230
1.0
 70
    11
 71
     3
 72
    28
 73
    24
 74
     0
 42
0.0000000001
 43
0.0000000001
 12
1.0
 22
0.0
 32
0.0
 13
1.0
 23
0.0
 33
0.0
 40
0.0
 40
0.0
 40
0.0
 40
0.0
 40
0.1428571428571428
 40
0.1428571428571428
 40
0.1428571428571428
 40
0.1428571428571428
 40
0.2857142857142857
 40
0.2857142857142857
 40
0.2857142857142857
 40
0.2857142857142857
 40
0.4285714285714285
 40
0.4285714285714285
 40
0.4285714285714285
 40
0.4285714285714285
 40
0.5714285714285714
 40
0.5714285714285714
 40
0.5714285714285714
 40
0.5714285714285714
 40
0.7142857142857143
 40
0.7142857142857143
 40
0.7142857142857143
 40
0.7142857142857143
 40
1.0
 40
1.0
 40
1.0
 40
1.0
 10
127.8008
 20
-89.9505
 30
0.0
 10
129.2507
 20
-92.7449
 30
0.0
 10
132.6777
 20
-94.9856
 30
0.0
 10
135.1953
 20
-97.0682
 30
0.0
 10
135.1953
 20
-97.0682
 30
0.0
 10
136.4202
 20
-95.4811
 30
0.0
 10
137.2917
 20
-93.7519
 30
0.0
 10
137.4153
 20
-92.2068
 30
0.0
 10
137.4153
 20
-92.2068
 30
0.0
 10
137.5129
 20
-90.9869
 30
0.0
 10
137.0669
 20
-89.7897
 30
0.0
 10
136.2568
 20
-89.7181
 30
0.0
 10
136.2568
 20
-89.7181
 30
0.0
 10
135.3471
 20
-89.6377
 30
0.0
 10
134.8872
 20
-90.4262
 30
0.0
 10
136.0257
 20
-91.2554
 30
0.0
 10
136.0257
 20
-91.2554
 30
0.0
 10
135.4377
 20
-93.5427
 30
0.0
 10
131.3074
 20
-93.3571
 30
0.0
 10
130.8623
 20
-90.7795
 30
0.0
 10
130.8623
 20
-90.7795
 30
0.0
 10
130.5253
 20
-88.8276
 30
0.0
 10
128.9838
 20
-87.9715
 30
0.0
 10
127.8008
 20
-89.9505
 30
0.0
  0
SPLINE
  5
F0
330
1F
100
AcDbEntity
  8
layer 1
 62
   250
100
AcDbSpline
210
0.0
220
0.0
230
1.0
 70
    11
 71
     3
 72
    28
 73
    24
 74
     0
 42
0.0000000001
 43
0.0000000001
 12
1.0
 22
0.0
 32
0.0
 13
1.0
 23
0.0
 33
0.0
 40
0.0
 40
0.0
 40
0.0
 40
0.0
 40
0.1428571428571428
 40
0.1428571428571428
 40
0.1428571428571428
 40
0.1428571428571428
 40
0.2857142857142857
 40
0.2857142857142857
 40
0.2857142857142857
 40
0.2857142857142857
 40
0.4285714285714285
 40
0.4285714285714285
 40
0.4285714285714285
 40
0.4285714285714285
 40
0.5714285714285714
 40
0.5714285714285714
 40
0.5714285714285714
 40
0.5714285714285714
 40
0.7142857142857143
 40
0.7142857142857143
 40
0.7142857142857143
 40
0.7142857142857143
 40
1.0
 40
1.0
 40
1.0
 40
1.0
 10
151.0521
 20
-90.0691
 30
0.0
 10
149.6022
 20
-92.8635
 30
0.0
 10
146.2938
 20
-95.0251
 30
0.0
 10
143.7763
 20
-97.1077
 30
0.0
 10
143.7763
 20
-97.1077
 30
0.0
 10
142.4327
 20
-95.4811
 30
0.0
 10
141.5218
 20
-93.4752
 30
0.0
 10
141.3981
 20
-91.93
 30
0.0
 10
141.3981
 20
-91.93
 30
0.0
 10
141.3004
 20
-90.71
 30
0.0
 10
141.7068
 20
-89.8293
 30
0.0
 10
142.5171
 20
-89.7576
 30
0.0
 10
142.5171
 20
-89.7576
 30
0.0
 10
143.4268
 20
-89.6771
 30
0.0
 10
143.768
 20
-90.2285
 30
0.0
 10
142.8273
 20
-91.374
 30
0.0
 10
142.8273
 20
-91.374
 30
0.0
 10
143.4152
 20
-93.6613
 30
0.0
 10
147.6246
 20
-93.1595
 30
0.0
 10
147.9511
 20
-90.8586
 30
0.0
 10
147.9511
 20
-90.8586
 30
0.0
 10
148.2293
 20
-88.8975
 30
0.0
 10
150.0669
 20
-87.8133
 30
0.0
 10
151.0521
 20
-90.0691
 30
0.0
  0
SPLINE
  5
F1
330
1F
100
AcDbEntity
  8
layer 1
 62
   250
100
AcDbSpline
210
0.0
220
0.0
230
1.0
 70
    11
 71
     3
 72
    20
 73
    16
 74
     0
 42
0.0000000001
 43
0.0000000001
 12
1.0
 22
0.0
 32
0.0
 13
1.0
 23
0.0
 33
0.0
 40
0.0
 40
0.0
 40
0.0
 40
0.0
 40
0.2
 40
0.2
 40
0.2
 40
0.2
 40
0.4
 40
0.4
 40
0.4
 40
0.4
 40
0.6
 40
0.6
 40
0.6
 40
0.6
 40
1.0
 40
1.0
 40
1.0
 40
1.0
 10
141.7201
 20
-98.9662
 30
0.0
 10
140.7579
 20
-99.9153
 30
0.0
 10
140.1515
 20
-101.0224
 30
0.0
 10
139.4661
 20
-102.2087
 30
0.0
 10
139.4661
 20
-102.2087
 30
0.0
 10
138.8598
 20
-101.0752
 30
0.0
 10
138.1349
 20
-99.9021
 30
0.0
 10
137.2913
 20
-98.9662
 30
0.0
 10
137.2913
 20
-98.9662
 30
0.0
 10
137.924
 20
-97.9249
 30
0.0
 10
139.0312
 20
-96.3301
 30
0.0
 10
139.3475
 20
-94.8142
 30
0.0
 10
139.3475
 20
-94.8142
 30
0.0
 10
139.8879
 20
-96.396
 30
0.0
 10
140.7051
 20
-97.5031
 30
0.0
 10
141.7201
 20
-98.9662
 30
0.0
  0
SPLINE
  5
F2
330
1F
100
AcDbEntity
  8
layer 1
 62
   250
100
AcDbSpline
210
0.0
220
0.0
230
1.0
 70
    11
 71
     3
 72
    16
 73
    12
 74
     0
 42
0.0000000001
 43
0.0000000001
 12
1.0
 22
0.0
 32
0.0
 13
1.0
 23
0.0
 33
0.0
 40
0.0
 40
0.0
 40
0.0
 40
0.0
 40
0.25
 40
0.25
 40
0.25
 40
0.25
 40
0.5
 40
0.5
 40
0.5
 40
0.5
 40
1.0
 40
1.0
 40
1.0
 40
1.0
 10
144.8439
 20
-105.9653
 30
0.0
 10
145.3446
 20
-104.4184
 30
0.0
 10
144.1322
 20
-102.5514
 30
0.0
 10
143.3018
 20
-101.4179
 30
0.0
 10
143.3018
 20
-101.4179
 30
0.0
 10
142.5241
 20
-102.736
 30
0.0
 10
141.7682
 20
-104.499
 30
0.0
 10
142.3132
 20
-106.0048
 30
0.0
 10
142.3132
 20
-106.0048
 30
0.0
 10
142.6318
 20
-106.8849
 30
0.0
 10
144.3834
 20
-107.3883
 30
0.0
 10
144.8439
 20
-105.9653
 30
0.0
  0
SPLINE
  5
F3
330
1F
100
AcDbEntity
  8
layer 1
 62
   250
100
AcDbSpline
210
0.0
220
0.0
230
1.0
 70
    11
 71
     3
 72
    16
 73
    12
 74
     0
 42
0.0000000001
 43
0.0000000001
 12
1.0
 22
0.0
 32
0.0
 13
1.0
 23
0.0
 33
0.0
 40
0.0
 40
0.0
 40
0.0
 40
0.0
 40
0.25
 40
0.25
 40
0.25
 40
0.25
 40
0.5
 40
0.5
 40
0.5
 40
0.5
 40
1.0
 40
1.0
 40
1.0
 40
1.0
 10
134.0745
 20
-105.8466
 30
0.0
 10
133.5739
 20
-104.2997
 30
0.0
 10
134.7863
 20
-102.4328
 30
0.0
 10
135.6167
 20
-101.2992
 30
0.0
 10
135.6167
 20
-101.2992
 30
0.0
 10
136.3944
 20
-102.6173
 30
0.0
 10
137.1503
 20
-104.3804
 30
0.0
 10
136.6053
 20
-105.8862
 30
0.0
 10
136.6053
 20
-105.8862
 30
0.0
 10
136.2867
 20
-106.7663
 30
0.0
 10
134.5351
 20
-107.2697
 30
0.0
 10
134.0745
 20
-105.8466
 30
0.0
  0
SPLINE
  5
F4
330
1F
100
AcDbEntity
  8
layer 1
 62
   250
100
AcDbSpline
210
0.0
220
0.0
230
1.0
 70
    11
 71
     3
 72
    40
 73
    36
 74
     0
 42
0.0000000001
 43
0.0000000001
 12
1.0
 22
0.0
 32
0.0
 13
1.0
 23
0.0
 33
0.0
 40
0.0
 40
0.0
 40
0.0
 40
0.0
 40
0.1
 40
0.1
 40
0.1
 40
0.1
 40
0.2
 40
0.2
 40
0.2
 40
0.2
 40
0.3
 40
0.3
 40
0.3
 40
0.3
 40
0.4
 40
0.4
 40
0.4
 40
0.4
 40
0.5
 40
0.5
 40
0.5
 40
0.5
 40
0.6
 40
0.6
 40
0.6
 40
0.6
 40
0.7
 40
0.7
 40
0.7
 40
0.7
 40
0.8
 40
0.8
 40
0.8
 40
0.8
 40
1.0
 40
1.0
 40
1.0
 40
1.0
 10
163.5872
 20
-100.7061
 30
0.0
 10
165.8806
 20
-102.9469
 30
0.0
 10
167.9764
 20
-105.6621
 30
0.0
 10
170.8235
 20
-107.3097
 30
0.0
 10
170.8235
 20
-107.3097
 30
0.0
 10
162.5195
 20
-108.5751
 30
0.0
 10
152.1198
 20
-107.0329
 30
0.0
 10
145.1998
 20
-99.1244
 30
0.0
 10
145.1998
 20
-99.1244
 30
0.0
 10
147.1734
 20
-97.0729
 30
0.0
 10
152.8685
 20
-95.8553
 30
0.0
 10
156.4297
 20
-96.3887
 30
0.0
 10
156.4297
 20
-96.3887
 30
0.0
 10
158.4274
 20
-96.6879
 30
0.0
 10
160.2141
 20
-97.5009
 30
0.0
 10
161.5309
 20
-98.9267
 30
0.0
 10
161.5309
 20
-98.9267
 30
0.0
 10
161.7418
 20
-100.5348
 30
0.0
 10
160.7269
 20
-103.0523
 30
0.0
 10
159.3166
 20
-103.395
 30
0.0
 10
159.3166
 20
-103.395
 30
0.0
 10
161.135
 20
-101.7511
 30
0.0
 10
159.4003
 20
-98.9709
 30
0.0
 10
157.1736
 20
-98.9914
 30
0.0
 10
157.1736
 20
-98.9914
 30
0.0
 10
154.4386
 20
-99.0167
 30
0.0
 10
153.8528
 20
-101.117
 30
0.0
 10
153.9275
 20
-102.1656
 30
0.0
 10
153.9275
 20
-102.1656
 30
0.0
 10
154.0694
 20
-104.1536
 30
0.0
 10
155.6609
 20
-105.7208
 30
0.0
 10
158.4808
 20
-105.5709
 30
0.0
 10
158.4808
 20
-105.5709
 30
0.0
 10
160.7204
 20
-105.4518
 30
0.0
 10
163.1572
 20
-103.8168
 30
0.0
 10
163.5872
 20
-100.7061
 30
0.0
  0
SPLINE
  5
F5
330
1F
100
AcDbEntity
  8
layer 1
 62
   250
100
AcDbSpline
210
0.0
220
0.0
230
1.0
 70
    11
 71
     3
 72
    40
 73
    36
 74
     0
 42
0.0000000001
 43
0.0000000001
 12
1.0
 22
0.0
 32
0.0
 13
1.0
 23
0.0
 33
0.0
 40
0.0
 40
0.0
 40
0.0
 40
0.0
 40
0.1
 40
0.1
 40
0.1
 40
0.1
 40
0.2
 40
0.2
 40
0.2
 40
0.2
 40
0.3
 40
0.3
 40
0.3
 40
0.3
 40
0.4
 40
0.4
 40
0.4
 40
0.4
 40
0.5
 40
0.5
 40
0.5
 40
0.5
 40
0.6
 40
0.6
 40
0.6
 40
0.6
 40
0.7
 40
0.7
 40
0.7
 40
0.7
 40
0.8
 40
0.8
 40
0.8
 40
0.8
 40
1.0
 40
1.0
 40
1.0
 40
1.0
 10
115.1079
 20
-100.8643
 30
0.0
 10
112.8144
 20
-103.105
 30
0.0
 10
111.3118
 20
-105.5039
 30
0.0
 10
108.4647
 20
-107.1516
 30
0.0
 10
108.4647
 20
-107.1516
 30
0.0
 10
116.7687
 20
-108.4169
 30
0.0
 10
126.5752
 20
-106.9143
 30
0.0
 10
133.4952
 20
-99.0058
 30
0.0
 10
133.4952
 20
-99.0058
 30
0.0
 10
131.5216
 20
-96.9543
 30
0.0
 10
125.9847
 20
-95.8553
 30
0.0
 10
122.4235
 20
-96.3887
 30
0.0
 10
122.4235
 20
-96.3887
 30
0.0
 10
120.4259
 20
-96.6879
 30
0.0
 10
118.6391
 20
-97.5009
 30
0.0
 10
117.3223
 20
-98.9267
 30
0.0
 10
117.3223
 20
-98.9267
 30
0.0
 10
117.1114
 20
-100.5348
 30
0.0
 10
118.1263
 20
-103.0523
 30
0.0
 10
119.5366
 20
-103.395
 30
0.0
 10
119.5366
 20
-103.395
 30
0.0
 10
117.7182
 20
-101.7511
 30
0.0
 10
119.4529
 20
-98.9709
 30
0.0
 10
121.6796
 20
-98.9914
 30
0.0
 10
121.6796
 20
-98.9914
 30
0.0
 10
124.4146
 20
-99.0167
 30
0.0
 10
125.0004
 20
-101.117
 30
0.0
 10
124.9257
 20
-102.1656
 30
0.0
 10
124.9257
 20
-102.1656
 30
0.0
 10
124.7838
 20
-104.1536
 30
0.0
 10
123.1923
 20
-105.7207
 30
0.0
 10
120.3724
 20
-105.5709
 30
0.0
 10
120.3724
 20
-105.5709
 30
0.0
 10
118.1328
 20
-105.4518
 30
0.0
 10
115.5379
 20
-103.975
 30
0.0
 10
115.1079
 20
-100.8643
 30
0.0
  0
SPLINE
  5
F6
330
1F
100
AcDbEntity
  8
layer 1
 62
   250
100
AcDbSpline
210
0.0
220
0.0
230
1.0
 70
    11
 71
     3
 72
    36
 73
    32
 74
     0
 42
0.0000000001
 43
0.0000000001
 12
1.0
 22
0.0
 32
0.0
 13
1.0
 23
0.0
 33
0.0
 40
0.0
 40
0.0
 40
0.0
 40
0.0
 40
0.1111111111111111
 40
0.1111111111111111
 40
0.1111111111111111
 40
0.1111111111111111
 40
0.2222222222222222
 40
0.2222222222222222
 40
0.2222222222222222
 40
0.2222222222222222
 40
0.3333333333333333
 40
0.3333333333333333
 40
0.3333333333333333
 40
0.3333333333333333
 40
0.4444444444444444
 40
0.4444444444444444
 40
0.4444444444444444
 40
0.4444444444444444
 40
0.5555555555555556
 40
0.5555555555555556
 40
0.5555555555555556
 40
0.5555555555555556
 40
0.6666666666666666
 40
0.6666666666666666
 40
0.6666666666666666
 40
0.6666666666666666
 40
0.7777777777777778
 40
0.7777777777777778
 40
0.7777777777777778
 40
0.7777777777777778
 40
1.0
 40
1.0
 40
1.0
 40
1.0
 10
173.8287
 20
-106.4398
 30
0.0
 10
170.8894
 20
-104.779
 30
0.0
 10
168.8991
 20
-102.5646
 30
0.0
 10
164.5362
 20
-95.2888
 30
0.0
 10
164.5362
 20
-95.2888
 30
0.0
 10
165.2897
 20
-94.091
 30
0.0
 10
166.205
 20
-93.1716
 30
0.0
 10
168.0003
 20
-92.732
 30
0.0
 10
168.0003
 20
-92.732
 30
0.0
 10
169.3105
 20
-92.4113
 30
0.0
 10
171.0268
 20
-92.7284
 30
0.0
 10
172.0493
 20
-92.0858
 30
0.0
 10
172.0493
 20
-92.0858
 30
0.0
 10
171.9043
 20
-93.8652
 30
0.0
 10
171.9966
 20
-95.4469
 30
0.0
 10
172.6029
 20
-97.2264
 30
0.0
 10
172.6029
 20
-97.2264
 30
0.0
 10
171.8267
 20
-96.4059
 30
0.0
 10
169.5753
 20
-97.6401
 30
0.0
 10
170.9287
 20
-100.2689
 30
0.0
 10
170.9287
 20
-100.2689
 30
0.0
 10
172.3598
 20
-103.0484
 30
0.0
 10
175.3752
 20
-101.602
 30
0.0
 10
174.7777
 20
-99.9548
 30
0.0
 10
174.7777
 20
-99.9548
 30
0.0
 10
176.6494
 20
-101.7342
 30
0.0
 10
179.1142
 20
-101.5365
 30
0.0
 10
181.1441
 20
-100.8247
 30
0.0
 10
181.1441
 20
-100.8247
 30
0.0
 10
179.3779
 20
-103.8168
 30
0.0
 10
176.544
 20
-105.4249
 30
0.0
 10
173.8287
 20
-106.4398
 30
0.0
  0
SPLINE
  5
F7
330
1F
100
AcDbEntity
  8
layer 1
 62
   250
100
AcDbSpline
210
0.0
220
0.0
230
1.0
 70
    11
 71
     3
 72
    36
 73
    32
 74
     0
 42
0.0000000001
 43
0.0000000001
 12
1.0
 22
0.0
 32
0.0
 13
1.0
 23
0.0
 33
0.0
 40
0.0
 40
0.0
 40
0.0
 40
0.0
 40
0.1111111111111111
 40
0.1111111111111111
 40
0.1111111111111111
 40
0.1111111111111111
 40
0.2222222222222222
 40
0.2222222222222222
 40
0.2222222222222222
 40
0.2222222222222222
 40
0.3333333333333333
 40
0.3333333333333333
 40
0.3333333333333333
 40
0.3333333333333333
 40
0.4444444444444444
 40
0.4444444444444444
 40
0.4444444444444444
 40
0.4444444444444444
 40
0.5555555555555556
 40
0.5555555555555556
 40
0.5555555555555556
 40
0.5555555555555556
 40
0.6666666666666666
 40
0.6666666666666666
 40
0.6666666666666666
 40
0.6666666666666666
 40
0.7777777777777778
 40
0.7777777777777778
 40
0.7777777777777778
 40
0.7777777777777778
 40
1.0
 40
1.0
 40
1.0
 40
1.0
 10
105.027
 20
-106.4398
 30
0.0
 10
108.5397
 20
-104.4417
 30
0.0
 10
110.2939
 20
-101.7552
 30
0.0
 10
114.6568
 20
-94.4793
 30
0.0
 10
114.6568
 20
-94.4793
 30
0.0
 10
113.6334
 20
-93.4164
 30
0.0
 10
112.8255
 20
-92.8157
 30
0.0
 10
111.395
 20
-92.5971
 30
0.0
 10
111.395
 20
-92.5971
 30
0.0
 10
110.1245
 20
-92.403
 30
0.0
 10
108.4023
 20
-92.6272
 30
0.0
 10
107.3798
 20
-91.9846
 30
0.0
 10
107.3798
 20
-91.9846
 30
0.0
 10
107.7271
 20
-93.4942
 30
0.0
 10
107.6348
 20
-95.683
 30
0.0
 10
106.8262
 20
-97.2264
 30
0.0
 10
106.8262
 20
-97.2264
 30
0.0
 10
107.6023
 20
-96.4059
 30
0.0
 10
109.7713
 20
-97.6332
 30
0.0
 10
108.6352
 20
-100.2689
 30
0.0
 10
108.6352
 20
-100.2689
 30
0.0
 10
107.535
 20
-102.8214
 30
0.0
 10
104.1213
 20
-101.5008
 30
0.0
 10
104.7188
 20
-99.8536
 30
0.0
 10
104.7188
 20
-99.8536
 30
0.0
 10
102.8471
 20
-101.633
 30
0.0
 10
99.7415
 20
-101.7389
 30
0.0
 10
97.543
 20
-100.6224
 30
0.0
 10
97.543
 20
-100.6224
 30
0.0
 10
99.3092
 20
-103.6144
 30
0.0
 10
102.3117
 20
-105.4249
 30
0.0
 10
105.027
 20
-106.4398
 30
0.0
  0
SPLINE
  5
F8
330
1F
100
AcDbEntity
  8
layer 1
 62
   250
100
AcDbSpline
210
0.0
220
0.0
230
1.0
 70
    11
 71
     3
 72
    24
 73
    20
 74
     0
 42
0.0000000001
 43
0.0000000001
 12
1.0
 22
0.0
 32
0.0
 13
1.0
 23
0.0
 33
0.0
 40
0.0
 40
0.0
 40
0.0
 40
0.0
 40
0.1666666666666667
 40
0.1666666666666667
 40
0.1666666666666667
 40
0.1666666666666667
 40
0.3333333333333333
 40
0.3333333333333333
 40
0.3333333333333333
 40
0.3333333333333333
 40
0.5
 40
0.5
 40
0.5
 40
0.5
 40
0.6666666666666666
 40
0.6666666666666666
 40
0.6666666666666666
 40
0.6666666666666666
 40
1.0
 40
1.0
 40
1.0
 40
1.0
 10
187.0371
 20
-106.7024
 30
0.0
 10
185.7442
 20
-107.4669
 30
0.0
 10
183.1755
 20
-108.1527
 30
0.0
 10
181.5792
 20
-108.1415
 30
0.0
 10
181.5792
 20
-108.1415
 30
0.0
 10
181.3936
 20
-107.2815
 30
0.0
 10
181.1013
 20
-106.3427
 30
0.0
 10
180.157
 20
-105.7581
 30
0.0
 10
180.157
 20
-105.7581
 30
0.0
 10
182.293
 20
-104.1955
 30
0.0
 10
183.2485
 20
-101.756
 30
0.0
 10
183.6982
 20
-100.1259
 30
0.0
 10
183.6982
 20
-100.1259
 30
0.0
 10
184.6019
 20
-99.8703
 30
0.0
 10
186.366
 20
-100.0751
 30
0.0
 10
187.0032
 20
-101.7252
 30
0.0
 10
187.0032
 20
-101.7252
 30
0.0
 10
187.5313
 20
-103.0925
 30
0.0
 10
186.4274
 20
-104.7685
 30
0.0
 10
187.0371
 20
-106.7024
 30
0.0
  0
SPLINE
  5
F9
330
1F
100
AcDbEntity
  8
layer 1
 62
   250
100
AcDbSpline
210
0.0
220
0.0
230
1.0
 70
    11
 71
     3
 72
    24
 73
    20
 74
     0
 42
0.0000000001
 43
0.0000000001
 12
1.0
 22
0.0
 32
0.0
 13
1.0
 23
0.0
 33
0.0
 40
0.0
 40
0.0
 40
0.0
 40
0.0
 40
0.1666666666666667
 40
0.1666666666666667
 40
0.1666666666666667
 40
0.1666666666666667
 40
0.3333333333333333
 40
0.3333333333333333
 40
0.3333333333333333
 40
0.3333333333333333
 40
0.5
 40
0.5
 40
0.5
 40
0.5
 40
0.6666666666666666
 40
0.6666666666666666
 40
0.6666666666666666
 40
0.6666666666666666
 40
1.0
 40
1.0
 40
1.0
 40
1.0
 10
92.402
 20
-106.9048
 30
0.0
 10
93.7623
 20
-107.6018
 30
0.0
 10
95.7971
 20
-107.9616
 30
0.0
 10
97.3597
 20
-108.0515
 30
0.0
 10
97.3597
 20
-108.0515
 30
0.0
 10
97.5958
 20
-107.1297
 30
0.0
 10
97.8993
 20
-106.309
 30
0.0
 10
98.7087
 20
-105.7244
 30
0.0
 10
98.7087
 20
-105.7244
 30
0.0
 10
96.5727
 20
-104.1618
 30
0.0
 10
95.6172
 20
-101.8234
 30
0.0
 10
95.1675
 20
-100.1933
 30
0.0
 10
95.1675
 20
-100.1933
 30
0.0
 10
94.3312
 20
-100.1739
 30
0.0
 10
92.9041
 20
-100.2778
 30
0.0
 10
92.537
 20
-101.7252
 30
0.0
 10
92.537
 20
-101.7252
 30
0.0
 10
92.1768
 20
-103.1456
 30
0.0
 10
93.1803
 20
-104.8359
 30
0.0
 10
92.402
 20
-106.9048
 30
0.0
  0
SPLINE
  5
FA
330
1F
100
AcDbEntity
  8
layer 1
 62
   250
100
AcDbSpline
210
0.0
220
0.0
230
1.0
 70
    11
 71
     3
 72
    52
 73
    48
 74
     0
 42
0.0000000001
 43
0.0000000001
 12
1.0
 22
0.0
 32
0.0
 13
1.0
 23
0.0
 33
0.0
 40
0.0
 40
0.0
 40
0.0
 40
0.0
 40
0.0769230769230769
 40
0.0769230769230769
 40
0.0769230769230769
 40
0.0769230769230769
 40
0.1538461538461539
 40
0.1538461538461539
 40
0.1538461538461539
 40
0.1538461538461539
 40
0.2307692307692308
 40
0.2307692307692308
 40
0.2307692307692308
 40
0.2307692307692308
 40
0.3076923076923077
 40
0.3076923076923077
 40
0.3076923076923077
 40
0.3076923076923077
 40
0.3846153846153846
 40
0.3846153846153846
 40
0.3846153846153846
 40
0.3846153846153846
 40
0.4615384615384616
 40
0.4615384615384616
 40
0.4615384615384616
 40
0.4615384615384616
 40
0.5384615384615384
 40
0.5384615384615384
 40
0.5384615384615384
 40
0.5384615384615384
 40
0.6153846153846154
 40
0.6153846153846154
 40
0.6153846153846154
 40
0.6153846153846154
 40
0.6923076923076923
 40
0.6923076923076923
 40
0.6923076923076923
 40
0.6923076923076923
 40
0.7692307692307693
 40
0.7692307692307693
 40
0.7692307692307693
 40
0.7692307692307693
 40
0.8461538461538461
 40
0.8461538461538461
 40
0.8461538461538461
 40
0.8461538461538461
 40
1.0
 40
1.0
 40
1.0
 40
1.0
 10
181.1419
 20
-87.8651
 30
0.0
 10
180.3675
 20
-87.1068
 30
0.0
 10
179.1575
 20
-86.3485
 30
0.0
 10
177.8022
 20
-85.9291
 30
0.0
 10
177.8022
 20
-85.9291
 30
0.0
 10
180.19
 20
-84.1383
 30
0.0
 10
186.0626
 20
-83.1218
 30
0.0
 10
189.9025
 20
-86.7519
 30
0.0
 10
189.9025
 20
-86.7519
 30
0.0
 10
187.6922
 20
-91.2371
 30
0.0
 10
188.9667
 20
-95.577
 30
0.0
 10
192.9518
 20
-94.5445
 30
0.0
 10
192.9518
 20
-94.5445
 30
0.0
 10
193.097
 20
-97.2711
 30
0.0
 10
192.3225
 20
-100.7237
 30
0.0
 10
190.6769
 20
-103.5955
 30
0.0
 10
190.6769
 20
-103.5955
 30
0.0
 10
190.1445
 20
-103.7084
 30
0.0
 10
189.5153
 20
-104.2569
 30
0.0
 10
189.2249
 20
-105.3863
 30
0.0
 10
189.2249
 20
-105.3863
 30
0.0
 10
189.241
 20
-103.652
 30
0.0
 10
191.0684
 20
-101.7239
 30
0.0
 10
190.9249
 20
-99.8807
 30
0.0
 10
190.9249
 20
-99.8807
 30
0.0
 10
190.7777
 20
-97.989
 30
0.0
 10
189.8138
 20
-96.4724
 30
0.0
 10
188.3053
 20
-95.8513
 30
0.0
 10
188.3053
 20
-95.8513
 30
0.0
 10
190.0799
 20
-94.6897
 30
0.0
 10
189.0958
 20
-91.7856
 30
0.0
 10
187.434
 20
-91.7856
 30
0.0
 10
187.434
 20
-91.7856
 30
0.0
 10
187.3372
 20
-93.8669
 30
0.0
 10
185.3528
 20
-93.3829
 30
0.0
 10
184.3364
 20
-93.4313
 30
0.0
 10
184.3364
 20
-93.4313
 30
0.0
 10
184.1266
 20
-92.5278
 30
0.0
 10
183.9169
 20
-91.8663
 30
0.0
 10
183.4652
 20
-90.9628
 30
0.0
 10
183.4652
 20
-90.9628
 30
0.0
 10
185.5827
 20
-91.0384
 30
0.0
 10
185.5684
 20
-89.0812
 30
0.0
 10
184.8808
 20
-87.85
 30
0.0
 10
184.8808
 20
-87.85
 30
0.0
 10
184.1254
 20
-86.4972
 30
0.0
 10
181.5492
 20
-85.924
 30
0.0
 10
181.1419
 20
-87.8651
 30
0.0
  0
SPLINE
  5
FB
330
1F
100
AcDbEntity
  8
layer 1
 62
   250
100
AcDbSpline
210
0.0
220
0.0
230
1.0
 70
    11
 71
     3
 72
    20
 73
    16
 74
     0
 42
0.0000000001
 43
0.0000000001
 12
1.0
 22
0.0
 32
0.0
 13
1.0
 23
0.0
 33
0.0
 40
0.0
 40
0.0
 40
0.0
 40
0.0
 40
0.2
 40
0.2
 40
0.2
 40
0.2
 40
0.4
 40
0.4
 40
0.4
 40
0.4
 40
0.6
 40
0.6
 40
0.6
 40
0.6
 40
1.0
 40
1.0
 40
1.0
 40
1.0
 10
179.2543
 20
-98.5134
 30
0.0
 10
174.8982
 20
-99.0135
 30
0.0
 10
173.7365
 20
-94.8187
 30
0.0
 10
174.6078
 20
-91.35
 30
0.0
 10
174.6078
 20
-91.35
 30
0.0
 10
177.4634
 20
-92.6569
 30
0.0
 10
178.7219
 20
-90.4788
 30
0.0
 10
178.1894
 20
-88.7364
 30
0.0
 10
178.1894
 20
-88.7364
 30
0.0
 10
180.077
 20
-89.2688
 30
0.0
 10
181.1419
 20
-90.9144
 30
0.0
 10
181.7227
 20
-92.9473
 30
0.0
 10
181.7227
 20
-92.9473
 30
0.0
 10
179.5447
 20
-92.8343
 30
0.0
 10
176.931
 20
-95.7706
 30
0.0
 10
179.2543
 20
-98.5134
 30
0.0
  0
SPLINE
  5
FC
330
1F
100
AcDbEntity
  8
layer 1
 62
   250
100
AcDbSpline
210
0.0
220
0.0
230
1.0
 70
    11
 71
     3
 72
    52
 73
    48
 74
     0
 42
0.0000000001
 43
0.0000000001
 12
1.0
 22
0.0
 32
0.0
 13
1.0
 23
0.0
 33
0.0
 40
0.0
 40
0.0
 40
0.0
 40
0.0
 40
0.0769230769230769
 40
0.0769230769230769
 40
0.0769230769230769
 40
0.0769230769230769
 40
0.1538461538461539
 40
0.1538461538461539
 40
0.1538461538461539
 40
0.1538461538461539
 40
0.2307692307692308
 40
0.2307692307692308
 40
0.2307692307692308
 40
0.2307692307692308
 40
0.3076923076923077
 40
0.3076923076923077
 40
0.3076923076923077
 40
0.3076923076923077
 40
0.3846153846153846
 40
0.3846153846153846
 40
0.3846153846153846
 40
0.3846153846153846
 40
0.4615384615384616
 40
0.4615384615384616
 40
0.4615384615384616
 40
0.4615384615384616
 40
0.5384615384615384
 40
0.5384615384615384
 40
0.5384615384615384
 40
0.5384615384615384
 40
0.6153846153846154
 40
0.6153846153846154
 40
0.6153846153846154
 40
0.6153846153846154
 40
0.6923076923076923
 40
0.6923076923076923
 40
0.6923076923076923
 40
0.6923076923076923
 40
0.7692307692307693
 40
0.7692307692307693
 40
0.7692307692307693
 40
0.7692307692307693
 40
0.8461538461538461
 40
0.8461538461538461
 40
0.8461538461538461
 40
0.8461538461538461
 40
1.0
 40
1.0
 40
1.0
 40
1.0
 10
98.6629
 20
-87.962
 30
0.0
 10
99.4374
 20
-87.2037
 30
0.0
 10
100.3086
 20
-86.639
 30
0.0
 10
101.6638
 20
-86.2195
 30
0.0
 10
101.6638
 20
-86.2195
 30
0.0
 10
99.276
 20
-84.4287
 30
0.0
 10
93.113
 20
-82.9766
 30
0.0
 10
89.2731
 20
-86.6067
 30
0.0
 10
89.2731
 20
-86.6067
 30
0.0
 10
91.4835
 20
-91.0919
 30
0.0
 10
90.2089
 20
-95.4802
 30
0.0
 10
86.2239
 20
-94.4477
 30
0.0
 10
86.2239
 20
-94.4477
 30
0.0
 10
86.0787
 20
-97.1743
 30
0.0
 10
86.8531
 20
-100.5785
 30
0.0
 10
88.4987
 20
-103.4503
 30
0.0
 10
88.4987
 20
-103.4503
 30
0.0
 10
89.0795
 20
-103.4664
 30
0.0
 10
89.8055
 20
-103.8697
 30
0.0
 10
90.0959
 20
-105.1927
 30
0.0
 10
90.0959
 20
-105.1927
 30
0.0
 10
90.6606
 20
-103.7488
 30
0.0
 10
88.3009
 20
-102.3046
 30
0.0
 10
88.5411
 20
-99.7355
 30
0.0
 10
88.5411
 20
-99.7355
 30
0.0
 10
88.7177
 20
-97.8465
 30
0.0
 10
89.3619
 20
-96.424
 30
0.0
 10
90.8704
 20
-95.8029
 30
0.0
 10
90.8704
 20
-95.8029
 30
0.0
 10
89.4829
 20
-94.1089
 30
0.0
 10
90.5154
 20
-91.7856
 30
0.0
 10
92.1772
 20
-91.7856
 30
0.0
 10
92.1772
 20
-91.7856
 30
0.0
 10
92.274
 20
-93.8669
 30
0.0
 10
94.5004
 20
-93.1893
 30
0.0
 10
95.5169
 20
-93.2377
 30
0.0
 10
95.5169
 20
-93.2377
 30
0.0
 10
95.7266
 20
-92.3342
 30
0.0
 10
95.9364
 20
-91.8179
 30
0.0
 10
96.3881
 20
-90.9144
 30
0.0
 10
96.3881
 20
-90.9144
 30
0.0
 10
94.2705
 20
-90.99
 30
0.0
 10
94.3817
 20
-89.1294
 30
0.0
 10
95.0692
 20
-87.8984
 30
0.0
 10
95.0692
 20
-87.8984
 30
0.0
 10
95.8246
 20
-86.5457
 30
0.0
 10
98.2556
 20
-86.0208
 30
0.0
 10
98.6629
 20
-87.962
 30
0.0
  0
SPLINE
  5
FD
330
1F
100
AcDbEntity
  8
layer 1
 62
   250
100
AcDbSpline
210
0.0
220
0.0
230
1.0
 70
    11
 71
     3
 72
    20
 73
    16
 74
     0
 42
0.0000000001
 43
0.0000000001
 12
1.0
 22
0.0
 32
0.0
 13
1.0
 23
0.0
 33
0.0
 40
0.0
 40
0.0
 40
0.0
 40
0.0
 40
0.2
 40
0.2
 40
0.2
 40
0.2
 40
0.4
 40
0.4
 40
0.4
 40
0.4
 40
0.6
 40
0.6
 40
0.6
 40
0.6
 40
1.0
 40
1.0
 40
1.0
 40
1.0
 10
100.4538
 20
-98.3198
 30
0.0
 10
104.8099
 20
-98.8199
 30
0.0
 10
105.9715
 20
-94.9639
 30
0.0
 10
105.1003
 20
-91.4952
 30
0.0
 10
105.1003
 20
-91.4952
 30
0.0
 10
102.777
 20
-92.3664
 30
0.0
 10
101.0346
 20
-90.7208
 30
0.0
 10
101.7606
 20
-88.7364
 30
0.0
 10
101.7606
 20
-88.7364
 30
0.0
 10
99.873
 20
-89.2688
 30
0.0
 10
98.6629
 20
-91.3016
 30
0.0
 10
98.0821
 20
-93.3345
 30
0.0
 10
98.0821
 20
-93.3345
 30
0.0
 10
100.2602
 20
-93.2215
 30
0.0
 10
102.1962
 20
-95.8674
 30
0.0
 10
100.4538
 20
-98.3198
 30
0.0
  0
SPLINE
  5
FE
330
1F
100
AcDbEntity
  8
layer 1
 62
   250
100
AcDbSpline
210
0.0
220
0.0
230
1.0
 70
    11
 71
     3
 72
    16
 73
    12
 74
     0
 42
0.0000000001
 43
0.0000000001
 12
1.0
 22
0.0
 32
0.0
 13
1.0
 23
0.0
 33
0.0
 40
0.0
 40
0.0
 40
0.0
 40
0.0
 40
0.25
 40
0.25
 40
0.25
 40
0.25
 40
0.5
 40
0.5
 40
0.5
 40
0.5
 40
1.0
 40
1.0
 40
1.0
 40
1.0
 10
194.1421
 20
-101.369
 30
0.0
 10
194.1421
 20
-101.369
 30
0.0
 10
194.1421
 20
-105.0735
 30
0.0
 10
194.1421
 20
-105.0735
 30
0.0
 10
194.1421
 20
-105.0735
 30
0.0
 10
193.9612
 20
-104.5387
 30
0.0
 10
193.5868
 20
-104.1527
 30
0.0
 10
193.2124
 20
-103.9454
 30
0.0
 10
193.2124
 20
-103.9454
 30
0.0
 10
193.5868
 20
-103.2107
 30
0.0
 10
193.9464
 20
-102.2378
 30
0.0
 10
194.1421
 20
-101.369
 30
0.0
  0
SPLINE
  5
FF
330
1F
100
AcDbEntity
  8
layer 1
 62
   250
100
AcDbSpline
210
0.0
220
0.0
230
1.0
 70
    11
 71
     3
 72
    16
 73
    12
 74
     0
 42
0.0000000001
 43
0.0000000001
 12
1.0
 22
0.0
 32
0.0
 13
1.0
 23
0.0
 33
0.0
 40
0.0
 40
0.0
 40
0.0
 40
0.0
 40
0.25
 40
0.25
 40
0.25
 40
0.25
 40
0.5
 40
0.5
 40
0.5
 40
0.5
 40
1.0
 40
1.0
 40
1.0
 40
1.0
 10
85.2417
 20
-102.3833
 30
0.0
 10
85.2417
 20
-102.3833
 30
0.0
 10
85.2417
 20
-105.7596
 30
0.0
 10
85.2417
 20
-105.7596
 30
0.0
 10
85.2417
 20
-105.7596
 30
0.0
 10
85.512
 20
-105.0458
 30
0.0
 10
85.797
 20
-104.451
 30
0.0
 10
86.0819
 20
-104.2139
 30
0.0
 10
86.0819
 20
-104.2139
 30
0.0
 10
85.7373
 20
-103.7178
 30
0.0
 10
85.4673
 20
-103.0432
 30
0.0
 10
85.2417
 20
-102.3833
 30
0.0
  0
SPLINE
  5
100
330
1F
100
AcDbEntity
  8
layer 1
 62
   250
100
AcDbSpline
210
0.0
220
0.0
230
1.0
 70
    11
 71
     3
 72
    16
 73
    12
 74
     0
 42
0.0000000001
 43
0.0000000001
 12
1.0
 22
0.0
 32
0.0
 13
1.0
 23
0.0
 33
0.0
 40
0.0
 40
0.0
 40
0.0
 40
0.0
 40
0.25
 40
0.25
 40
0.25
 40
0.25
 40
0.5
 40
0.5
 40
0.5
 40
0.5
 40
1.0
 40
1.0
 40
1.0
 40
1.0
 10
175.6373
 20
-111.3238
 30
0.0
 10
175.6373
 20
-111.3238
 30
0.0
 10
166.2208
 20
-111.2957
 30
0.0
 10
166.2208
 20
-111.2957
 30
0.0
 10
166.2208
 20
-111.2957
 30
0.0
 10
168.9837
 20
-110.8355
 30
0.0
 10
172.2076
 20
-110.0448
 30
0.0
 10
174.8135
 20
-109.015
 30
0.0
 10
174.8135
 20
-109.015
 30
0.0
 10
174.6615
 20
-109.8708
 30
0.0
 10
175.0263
 20
-110.7747
 30
0.0
 10
175.6373
 20
-111.3238
 30
0.0
  0
SPLINE
  5
101
330
1F
100
AcDbEntity
  8
layer 1
 62
   250
100
AcDbSpline
210
0.0
220
0.0
230
1.0
 70
    11
 71
     3
 72
    24
 73
    20
 74
     0
 42
0.0000000001
 43
0.0000000001
 12
1.0
 22
0.0
 32
0.0
 13
1.0
 23
0.0
 33
0.0
 40
0.0
 40
0.0
 40
0.0
 40
0.0
 40
0.1666666666666667
 40
0.1666666666666667
 40
0.1666666666666667
 40
0.1666666666666667
 40
0.3333333333333333
 40
0.3333333333333333
 40
0.3333333333333333
 40
0.3333333333333333
 40
0.5
 40
0.5
 40
0.5
 40
0.5
 40
0.6666666666666666
 40
0.6666666666666666
 40
0.6666666666666666
 40
0.6666666666666666
 40
1.0
 40
1.0
 40
1.0
 40
1.0
 10
194.1421
 20
-111.3238
 30
0.0
 10
194.1421
 20
-111.3238
 30
0.0
 10
180.6196
 20
-111.2957
 30
0.0
 10
180.6196
 20
-111.2957
 30
0.0
 10
180.6196
 20
-111.2957
 30
0.0
 10
180.9892
 20
-110.962
 30
0.0
 10
181.256
 20
-110.6099
 30
0.0
 10
181.3884
 20
-110.0949
 30
0.0
 10
181.3884
 20
-110.0949
 30
0.0
 10
183.9589
 20
-109.9787
 30
0.0
 10
186.9231
 20
-109.2437
 30
0.0
 10
188.3687
 20
-108.4244
 30
0.0
 10
188.3687
 20
-108.4244
 30
0.0
 10
190.5556
 20
-110.5339
 30
0.0
 10
193.8956
 20
-109.6904
 30
0.0
 10
194.1421
 20
-107.1597
 30
0.0
 10
194.1421
 20
-107.1597
 30
0.0
 10
194.1421
 20
-107.1597
 30
0.0
 10
194.1421
 20
-111.3238
 30
0.0
 10
194.1421
 20
-111.3238
 30
0.0
  0
SPLINE
  5
102
330
1F
100
AcDbEntity
  8
layer 1
 62
   250
100
AcDbSpline
210
0.0
220
0.0
230
1.0
 70
    11
 71
     3
 72
    16
 73
    12
 74
     0
 42
0.0000000001
 43
0.0000000001
 12
1.0
 22
0.0
 32
0.0
 13
1.0
 23
0.0
 33
0.0
 40
0.0
 40
0.0
 40
0.0
 40
0.0
 40
0.25
 40
0.25
 40
0.25
 40
0.25
 40
0.5
 40
0.5
 40
0.5
 40
0.5
 40
1.0
 40
1.0
 40
1.0
 40
1.0
 10
103.2376
 20
-111.3238
 30
0.0
 10
103.2376
 20
-111.3238
 30
0.0
 10
113.0676
 20
-111.2957
 30
0.0
 10
113.0676
 20
-111.2957
 30
0.0
 10
113.0676
 20
-111.2957
 30
0.0
 10
109.8276
 20
-110.8355
 30
0.0
 10
106.5719
 20
-110.0448
 30
0.0
 10
103.966
 20
-109.015
 30
0.0
 10
103.966
 20
-109.015
 30
0.0
 10
104.118
 20
-109.8708
 30
0.0
 10
103.8486
 20
-110.7747
 30
0.0
 10
103.2376
 20
-111.3238
 30
0.0
  0
SPLINE
  5
103
330
1F
100
AcDbEntity
  8
layer 1
 62
   250
100
AcDbSpline
210
0.0
220
0.0
230
1.0
 70
    11
 71
     3
 72
    24
 73
    20
 74
     0
 42
0.0000000001
 43
0.0000000001
 12
1.0
 22
0.0
 32
0.0
 13
1.0
 23
0.0
 33
0.0
 40
0.0
 40
0.0
 40
0.0
 40
0.0
 40
0.1666666666666667
 40
0.1666666666666667
 40
0.1666666666666667
 40
0.1666666666666667
 40
0.3333333333333333
 40
0.3333333333333333
 40
0.3333333333333333
 40
0.3333333333333333
 40
0.5
 40
0.5
 40
0.5
 40
0.5
 40
0.6666666666666666
 40
0.6666666666666666
 40
0.6666666666666666
 40
0.6666666666666666
 40
1.0
 40
1.0
 40
1.0
 40
1.0
 10
85.2417
 20
-111.3238
 30
0.0
 10
85.2417
 20
-111.3238
 30
0.0
 10
98.4779
 20
-111.2957
 30
0.0
 10
98.4779
 20
-111.2957
 30
0.0
 10
98.4779
 20
-111.2957
 30
0.0
 10
98.1083
 20
-110.962
 30
0.0
 10
97.7143
 20
-110.5463
 30
0.0
 10
97.5819
 20
-110.0313
 30
0.0
 10
97.5819
 20
-110.0313
 30
0.0
 10
95.0115
 20
-109.9151
 30
0.0
 10
92.4289
 20
-109.3392
 30
0.0
 10
90.9833
 20
-108.5198
 30
0.0
 10
90.9833
 20
-108.5198
 30
0.0
 10
88.7964
 20
-110.5021
 30
0.0
 10
85.5279
 20
-109.9131
 30
0.0
 10
85.2417
 20
-106.5872
 30
0.0
 10
85.2417
 20
-106.5872
 30
0.0
 10
85.2417
 20
-106.5872
 30
0.0
 10
85.2417
 20
-111.3238
 30
0.0
 10
85.2417
 20
-111.3238
 30
0.0
  0
SPLINE
  5
104
330
1F
100
AcDbEntity
  8
layer 1
 62
   250
100
AcDbSpline
210
0.0
220
0.0
230
1.0
 70
    11
 71
     3
 72
    16
 73
    12
 74
     0
 42
0.0000000001
 43
0.0000000001
 12
1.0
 22
0.0
 32
0.0
 13
1.0
 23
0.0
 33
0.0
 40
0.0
 40
0.0
 40
0.0
 40
0.0
 40
0.25
 40
0.25
 40
0.25
 40
0.25
 40
0.5
 40
0.5
 40
0.5
 40
0.5
 40
1.0
 40
1.0
 40
1.0
 40
1.0
 10
155.0038
 20
-111.3238
 30
0.0
 10
155.0038
 20
-111.3238
 30
0.0
 10
146.5311
 20
-111.2866
 30
0.0
 10
146.5311
 20
-111.2866
 30
0.0
 10
146.5311
 20
-111.2866
 30
0.0
 10
147.5546
 20
-110.8571
 30
0.0
 10
148.2336
 20
-110.0025
 30
0.0
 10
148.6365
 20
-109.1697
 30
0.0
 10
148.6365
 20
-109.1697
 30
0.0
 10
150.46
 20
-110.0552
 30
0.0
 10
152.4806
 20
-110.8835
 30
0.0
 10
155.0038
 20
-111.3238
 30
0.0
  0
SPLINE
  5
105
330
1F
100
AcDbEntity
  8
layer 1
 62
   250
100
AcDbSpline
210
0.0
220
0.0
230
1.0
 70
    11
 71
     3
 72
    16
 73
    12
 74
     0
 42
0.0000000001
 43
0.0000000001
 12
1.0
 22
0.0
 32
0.0
 13
1.0
 23
0.0
 33
0.0
 40
0.0
 40
0.0
 40
0.0
 40
0.0
 40
0.25
 40
0.25
 40
0.25
 40
0.25
 40
0.5
 40
0.5
 40
0.5
 40
0.5
 40
1.0
 40
1.0
 40
1.0
 40
1.0
 10
136.432
 20
-111.3238
 30
0.0
 10
136.432
 20
-111.3238
 30
0.0
 10
142.1483
 20
-111.3238
 30
0.0
 10
142.1483
 20
-111.3238
 30
0.0
 10
142.1483
 20
-111.3238
 30
0.0
 10
140.9014
 20
-110.8199
 30
0.0
 10
139.8126
 20
-110.0398
 30
0.0
 10
139.4842
 20
-109.0207
 30
0.0
 10
139.4842
 20
-109.0207
 30
0.0
 10
139.0389
 20
-110.0552
 30
0.0
 10
138.0612
 20
-110.958
 30
0.0
 10
136.432
 20
-111.3238
 30
0.0
  0
SPLINE
  5
106
330
1F
100
AcDbEntity
  8
layer 1
 62
   250
100
AcDbSpline
210
0.0
220
0.0
230
1.0
 70
    11
 71
     3
 72
    16
 73
    12
 74
     0
 42
0.0000000001
 43
0.0000000001
 12
1.0
 22
0.0
 32
0.0
 13
1.0
 23
0.0
 33
0.0
 40
0.0
 40
0.0
 40
0.0
 40
0.0
 40
0.25
 40
0.25
 40
0.25
 40
0.25
 40
0.5
 40
0.5
 40
0.5
 40
0.5
 40
1.0
 40
1.0
 40
1.0
 40
1.0
 10
123.5571
 20
-111.3238
 30
0.0
 10
123.5571
 20
-111.3238
 30
0.0
 10
132.663
 20
-111.3238
 30
0.0
 10
132.663
 20
-111.3238
 30
0.0
 10
132.663
 20
-111.3238
 30
0.0
 10
131.714
 20
-110.9316
 30
0.0
 10
130.588
 20
-110.0398
 30
0.0
 10
130.1851
 20
-109.2814
 30
0.0
 10
130.1851
 20
-109.2814
 30
0.0
 10
128.3989
 20
-110.2415
 30
0.0
 10
126.0803
 20
-110.8835
 30
0.0
 10
123.5571
 20
-111.3238
 30
0.0
  0
SPLINE
  5
107
330
1F
100
AcDbEntity
  8
layer 1
 62
   250
100
AcDbSpline
210
0.0
220
0.0
230
1.0
 70
    11
 71
     3
 72
    24
 73
    20
 74
     0
 42
0.0000000001
 43
0.0000000001
 12
1.0
 22
0.0
 32
0.0
 13
1.0
 23
0.0
 33
0.0
 40
0.0
 40
0.0
 40
0.0
 40
0.0
 40
0.1666666666666667
 40
0.1666666666666667
 40
0.1666666666666667
 40
0.1666666666666667
 40
0.3333333333333333
 40
0.3333333333333333
 40
0.3333333333333333
 40
0.3333333333333333
 40
0.5
 40
0.5
 40
0.5
 40
0.5
 40
0.6666666666666666
 40
0.6666666666666666
 40
0.6666666666666666
 40
0.6666666666666666
 40
1.0
 40
1.0
 40
1.0
 40
1.0
 10
169.8599
 20
3.2289
 30
0.0
 10
163.0045
 20
3.321
 30
0.0
 10
156.9232
 20
5.514
 30
0.0
 10
154.3248
 20
9.3655
 30
0.0
 10
154.3248
 20
9.3655
 30
0.0
 10
156.444
 20
10.1026
 30
0.0
 10
159.6137
 20
10.5633
 30
0.0
 10
162.0094
 20
9.9737
 30
0.0
 10
162.0094
 20
9.9737
 30
0.0
 10
161.6592
 20
5.5693
 30
0.0
 10
167.3905
 20
5.0902
 30
0.0
 10
168.5883
 20
7.8175
 30
0.0
 10
168.5883
 20
7.8175
 30
0.0
 10
169.7493
 20
7.2094
 30
0.0
 10
170.9103
 20
6.546
 30
0.0
 10
171.9054
 20
5.4403
 30
0.0
 10
171.9054
 20
5.4403
 30
0.0
 10
171.4078
 20
4.6479
 30
0.0
 10
170.6891
 20
3.9108
 30
0.0
 10
169.8599
 20
3.2289
 30
0.0
  0
SPLINE
  5
108
330
1F
100
AcDbEntity
  8
layer 1
 62
   250
100
AcDbSpline
210
0.0
220
0.0
230
1.0
 70
    11
 71
     3
 72
    24
 73
    20
 74
     0
 42
0.0000000001
 43
0.0000000001
 12
1.0
 22
0.0
 32
0.0
 13
1.0
 23
0.0
 33
0.0
 40
0.0
 40
0.0
 40
0.0
 40
0.0
 40
0.1666666666666667
 40
0.1666666666666667
 40
0.1666666666666667
 40
0.1666666666666667
 40
0.3333333333333333
 40
0.3333333333333333
 40
0.3333333333333333
 40
0.3333333333333333
 40
0.5
 40
0.5
 40
0.5
 40
0.5
 40
0.6666666666666666
 40
0.6666666666666666
 40
0.6666666666666666
 40
0.6666666666666666
 40
1.0
 40
1.0
 40
1.0
 40
1.0
 10
109.3228
 20
3.2842
 30
0.0
 10
116.1781
 20
3.3763
 30
0.0
 10
122.1489
 20
5.4588
 30
0.0
 10
124.7473
 20
9.3102
 30
0.0
 10
124.7473
 20
9.3102
 30
0.0
 10
122.6834
 20
9.9368
 30
0.0
 10
119.7901
 20
10.508
 30
0.0
 10
117.3391
 20
10.0289
 30
0.0
 10
117.3391
 20
10.0289
 30
0.0
 10
117.7999
 20
5.514
 30
0.0
 10
111.6816
 20
5.0349
 30
0.0
 10
110.4838
 20
7.7623
 30
0.0
 10
110.4838
 20
7.7623
 30
0.0
 10
109.3228
 20
7.1541
 30
0.0
 10
108.3277
 20
6.6566
 30
0.0
 10
107.3325
 20
5.5509
 30
0.0
 10
107.3325
 20
5.5509
 30
0.0
 10
107.8301
 20
4.7585
 30
0.0
 10
108.4935
 20
3.9661
 30
0.0
 10
109.3228
 20
3.2842
 30
0.0
  0
ENDSEC
  0
SECTION
  2
OBJECTS
  0
DICTIONARY
  5
C
330
0
100
AcDbDictionary
281
     1
  3
ACAD_GROUP
350
D
  3
ACAD_LAYOUT
350
1A
  3
ACAD_MATERIAL
350
3B
  3
ACAD_MLEADERSTYLE
350
12B
  3
ACAD_MLINESTYLE
350
17
  3
ACAD_PLOTSETTINGS
350
19
  3
ACAD_PLOTSTYLENAME
350
E
  3
ACAD_TABLESTYLE
350
12A
  3
ACAD_VISUALSTYLE
350
2A
  0
DICTIONARY
  5
D
102
{ACAD_REACTORS
330
C
102
}
330
C
100
AcDbDictionary
281
     1
  0
DICTIONARY
  5
1A
102
{ACAD_REACTORS
330
C
102
}
330
C
100
AcDbDictionary
281
     1
  3
Layout1
350
1E
  3
Layout2
350
26
  3
Model
350
22
  0
DICTIONARY
  5
3B
102
{ACAD_REACTORS
330
C
102
}
330
C
100
AcDbDictionary
281
     1
  3
ByBlock
350
3D
  3
ByLayer
350
3C
  3
Global
350
3E
  0
DICTIONARY
  5
12B
102
{ACAD_REACTORS
330
C
102
}
330
C
100
AcDbDictionary
281
     1
  0
DICTIONARY
  5
17
102
{ACAD_REACTORS
330
C
102
}
330
C
100
AcDbDictionary
281
     1
  3
Standard
350
18
  0
DICTIONARY
  5
19
102
{ACAD_REACTORS
330
C
102
}
330
C
100
AcDbDictionary
281
     1
  0
ACDBDICTIONARYWDFLT
  5
E
102
{ACAD_REACTORS
330
C
102
}
330
C
100
AcDbDictionary
281
     1
  3
Normal
350
F
100
AcDbDictionaryWithDefault
340
F
  0
DICTIONARY
  5
12A
102
{ACAD_REACTORS
330
C
102
}
330
C
100
AcDbDictionary
281
     1
  0
DICTIONARY
  5
2A
102
{ACAD_REACTORS
330
C
102
}
330
C
100
AcDbDictionary
281
     1
  3
2dWireframe
350
2F
  3
3D Hidden
350
31
  3
3dWireframe
350
30
  3
Basic
350
32
  3
Brighten
350
36
  3
ColorChange
350
3A
  3
Conceptual
350
34
  3
Dim
350
35
  3
Facepattern
350
39
  3
Flat
350
2B
  3
FlatWithEdges
350
2C
  3
Gouraud
350
2D
  3
GouraudWithEdges
350
2E
  3
Linepattern
350
38
  3
Realistic
350
33
  3
Thicken
350
37
  0
LAYOUT
  5
1E
102
{ACAD_REACTORS
330
1A
102
}
330
1A
100
AcDbPlotSettings
  1

  2
none_device
  4

  6

 40
0.0
 41
0.0
 42
0.0
 43
0.0
 44
0.0
 45
0.0
 46
0.0
 47
0.0
 48
0.0
 49
0.0
140
0.0
141
0.0
142
1.0
143
1.0
 70
   688
 72
     0
 73
     0
 74
     5
  7

 75
    16
 76
     0
 77
     2
 78
   300
147
1.0
148
0.0
149
0.0
100
AcDbLayout
  1
Layout1
 70
     1
 71
     1
 10
0.0
 20
0.0
 11
12.0
 21
9.0
 12
0.0
 22
0.0
 32
0.0
 14
1.000000000000000E+20
 24
1.000000000000000E+20
 34
1.000000000000000E+20
 15
-1.000000000000000E+20
 25
-1.000000000000000E+20
 35
-1.000000000000000E+20
146
0.0
 13
0.0
 23
0.0
 33
0.0
 16
1.0
 26
0.0
 36
0.0
 17
0.0
 27
1.0
 37
0.0
 76
     0
330
1B
  0
LAYOUT
  5
26
102
{ACAD_REACTORS
330
1A
102
}
330
1A
100
AcDbPlotSettings
  1

  2
none_device
  4

  6

 40
0.0
 41
0.0
 42
0.0
 43
0.0
 44
0.0
 45
0.0
 46
0.0
 47
0.0
 48
0.0
 49
0.0
140
0.0
141
0.0
142
1.0
143
1.0
 70
   688
 72
     0
 73
     0
 74
     5
  7

 75
    16
 76
     0
 77
     2
 78
   300
147
1.0
148
0.0
149
0.0
100
AcDbLayout
  1
Layout2
 70
     1
 71
     2
 10
0.0
 20
0.0
 11
0.0
 21
0.0
 12
0.0
 22
0.0
 32
0.0
 14
0.0
 24
0.0
 34
0.0
 15
0.0
 25
0.0
 35
0.0
146
0.0
 13
0.0
 23
0.0
 33
0.0
 16
1.0
 26
0.0
 36
0.0
 17
0.0
 27
1.0
 37
0.0
 76
     0
330
23
  0
LAYOUT
  5
22
102
{ACAD_REACTORS
330
1A
102
}
330
1A
100
AcDbPlotSettings
  1

  2
none_device
  4

  6

 40
0.0
 41
0.0
 42
0.0
 43
0.0
 44
0.0
 45
0.0
 46
0.0
 47
0.0
 48
0.0
 49
0.0
140
0.0
141
0.0
142
1.0
143
1.0
 70
  1712
 72
     0
 73
     0
 74
     0
  7

 75
     0
 76
     0
 77
     2
 78
   300
147
1.0
148
0.0
149
0.0
100
AcDbLayout
  1
Model
 70
     1
 71
     0
 10
0.0
 20
0.0
 11
12.0
 21
9.0
 12
0.0
 22
0.0
 32
0.0
 14
82.0388
 24
-115.1579
 34
0.0
 15
196.689
 25
133.8053
 35
0.0
146
0.0
 13
0.0
 23
0.0
 33
0.0
 16
1.0
 26
0.0
 36
0.0
 17
0.0
 27
1.0
 37
0.0
 76
     0
330
1F
331
29
  0
MATERIAL
  5
3D
102
{ACAD_REACTORS
330
3B
102
}
330
3B
100
AcDbMaterial
  1
ByBlock
 72
     1
 94
      127
  0
MATERIAL
  5
3C
102
{ACAD_REACTORS
330
3B
102
}
330
3B
100
AcDbMaterial
  1
ByLayer
 72
     1
 94
      127
  0
MATERIAL
  5
3E
102
{ACAD_REACTORS
330
3B
102
}
330
3B
100
AcDbMaterial
  1
Global
 72
     1
 94
      127
  0
MLINESTYLE
  5
18
102
{ACAD_REACTORS
330
17
102
}
330
17
100
AcDbMlineStyle
  2
Standard
 70
     0
  3

 62
   256
 51
90.0
 52
90.0
 71
     2
 49
0.5
 62
   256
  6
BYLAYER
 49
-0.5
 62
   256
  6
BYLAYER
  0
ACDBPLACEHOLDER
  5
F
102
{ACAD_REACTORS
330
E
102
}
330
E
  0
VISUALSTYLE
  5
2F
102
{ACAD_REACTORS
330
2A
102
}
102
{ACAD_XDICTIONARY
360
112
102
}
330
2A
100
AcDbVisualStyle
  2
2dWireframe
 70
     4
 71
     0
 72
     2
 73
     0
 90
        0
 40
-0.6
 41
-30.0
 62
     5
 63
     7
421
 16777215
 74
     1
 91
        4
 64
     7
 65
   257
 75
     1
175
     1
 42
1.0
 92
        0
 66
   257
 43
1.0
 76
     1
 77
     6
 78
     2
 67
     7
 79
     5
170
     0
171
     0
290
     0
174
     0
 93
        1
 44
0.0
173
     0
291
     0
 45
0.0
  0
VISUALSTYLE
  5
31
102
{ACAD_REACTORS
330
2A
102
}
102
{ACAD_XDICTIONARY
360
116
102
}
330
2A
100
AcDbVisualStyle
  2
3D Hidden
 70
     6
 71
     1
 72
     2
 73
     2
 90
        0
 40
-0.6
 41
-30.0
 62
     5
 63
     7
421
 16777215
 74
     2
 91
        2
 64
     7
 65
   257
 75
     2
175
     1
 42
40.0
 92
        0
 66
   257
 43
1.0
 76
     1
 77
     6
 78
     2
 67
     7
 79
     3
170
     0
171
     0
290
     0
174
     0
 93
        1
 44
0.0
173
     0
291
     0
 45
0.0
  0
VISUALSTYLE
  5
30
102
{ACAD_REACTORS
330
2A
102
}
102
{ACAD_XDICTIONARY
360
114
102
}
330
2A
100
AcDbVisualStyle
  2
3dWireframe
 70
     5
 71
     0
 72
     2
 73
     0
 90
        0
 40
-0.6
 41
-30.0
 62
     5
 63
     7
421
 16777215
 74
     1
 91
        4
 64
     7
 65
   257
 75
     1
175
     1
 42
1.0
 92
        0
 66
   257
 43
1.0
 76
     1
 77
     6
 78
     2
 67
     7
 79
     5
170
     0
171
     0
290
     0
174
     0
 93
        1
 44
0.0
173
     0
291
     0
 45
0.0
  0
VISUALSTYLE
  5
32
102
{ACAD_REACTORS
330
2A
102
}
102
{ACAD_XDICTIONARY
360
118
102
}
330
2A
100
AcDbVisualStyle
  2
Basic
 70
     7
 71
     1
 72
     0
 73
     1
 90
        0
 40
-0.6
 41
-30.0
 62
     5
 63
     7
421
 16777215
 74
     0
 91
        4
 64
     7
 65
   257
 75
     1
175
     1
 42
1.0
 92
        8
 66
     7
 43
1.0
 76
     1
 77
     6
 78
     2
 67
     7
 79
     5
170
     0
171
     0
290
     0
174
     0
 93
        1
 44
0.0
173
     0
291
     1
 45
0.0
  0
VISUALSTYLE
  5
36
102
{ACAD_REACTORS
330
2A
102
}
102
{ACAD_XDICTIONARY
360
120
102
}
330
2A
100
AcDbVisualStyle
  2
Brighten
 70
    12
 71
     2
 72
     2
 73
     0
 90
        0
 40
-0.6
 41
-30.0
 62
     5
 63
     7
421
 16777215
 74
     1
 91
        4
 64
     7
 65
   257
 75
     1
175
     1
 42
1.0
 92
        8
 66
     7
 43
1.0
 76
     1
 77
     6
 78
     2
 67
     7
 79
     5
170
     0
171
     0
290
     0
174
     0
 93
        1
 44
50.0
173
     0
291
     1
 45
0.0
  0
VISUALSTYLE
  5
3A
102
{ACAD_REACTORS
330
2A
102
}
102
{ACAD_XDICTIONARY
360
128
102
}
330
2A
100
AcDbVisualStyle
  2
ColorChange
 70
    16
 71
     2
 72
     2
 73
     3
 90
        0
 40
-0.6
 41
-30.0
 62
     5
 63
     8
421
  8421504
 74
     1
 91
        4
 64
     7
 65
   257
 75
     1
175
     1
 42
1.0
 92
        8
 66
     8
424
  8421504
 43
1.0
 76
     1
 77
     6
 78
     2
 67
     7
 79
     5
170
     0
171
     0
290
     0
174
     0
 93
        1
 44
0.0
173
     0
291
     1
 45
0.0
  0
VISUALSTYLE
  5
34
102
{ACAD_REACTORS
330
2A
102
}
102
{ACAD_XDICTIONARY
360
11C
102
}
330
2A
100
AcDbVisualStyle
  2
Conceptual
 70
     9
 71
     3
 72
     2
 73
     0
 90
        0
 40
-0.6
 41
-30.0
 62
     5
 63
     7
421
 16777215
 74
     2
 91
        2
 64
     7
 65
   257
 75
     1
175
     1
 42
40.0
 92
        8
 66
     7
 43
1.0
 76
     1
 77
     6
 78
     2
 67
     7
 79
     3
170
     0
171
     0
290
     0
174
     0
 93
        1
 44
0.0
173
     0
291
     0
 45
0.0
  0
VISUALSTYLE
  5
35
102
{ACAD_REACTORS
330
2A
102
}
102
{ACAD_XDICTIONARY
360
11E
102
}
330
2A
100
AcDbVisualStyle
  2
Dim
 70
    11
 71
     2
 72
     2
 73
     0
 90
        0
 40
-0.6
 41
-30.0
 62
     5
 63
     7
421
 16777215
 74
     1
 91
        4
 64
     7
 65
   257
 75
     1
175
     1
 42
1.0
 92
        8
 66
     7
 43
1.0
 76
     1
 77
     6
 78
     2
 67
     7
 79
     5
170
     0
171
     0
290
     0
174
     0
 93
        1
 44
-50.0
173
     0
291
     1
 45
0.0
  0
VISUALSTYLE
  5
39
102
{ACAD_REACTORS
330
2A
102
}
102
{ACAD_XDICTIONARY
360
126
102
}
330
2A
100
AcDbVisualStyle
  2
Facepattern
 70
    15
 71
     2
 72
     2
 73
     0
 90
        0
 40
-0.6
 41
-30.0
 62
     5
 63
     7
421
 16777215
 74
     1
 91
        4
 64
     7
 65
   257
 75
     1
175
     1
 42
1.0
 92
        8
 66
     7
 43
1.0
 76
     1
 77
     6
 78
     2
 67
     7
 79
     5
170
     0
171
     0
290
     0
174
     0
 93
        1
 44
0.0
173
     0
291
     1
 45
0.0
  0
VISUALSTYLE
  5
2B
102
{ACAD_REACTORS
330
2A
102
}
102
{ACAD_XDICTIONARY
360
10A
102
}
330
2A
100
AcDbVisualStyle
  2
Flat
 70
     0
 71
     2
 72
     1
 73
     1
 90
        2
 40
-0.6
 41
30.0
 62
     5
 63
     7
421
 16777215
 74
     0
 91
        4
 64
     7
 65
   257
 75
     1
175
     1
 42
1.0
 92
        8
 66
     7
 43
1.0
 76
     1
 77
     6
 78
     2
 67
     7
 79
     5
170
     0
171
     0
290
     0
174
     0
 93
       13
 44
0.0
173
     0
291
     1
 45
0.0
  0
VISUALSTYLE
  5
2C
102
{ACAD_REACTORS
330
2A
102
}
102
{ACAD_XDICTIONARY
360
10C
102
}
330
2A
100
AcDbVisualStyle
  2
FlatWithEdges
 70
     1
 71
     2
 72
     1
 73
     1
 90
        2
 40
-0.6
 41
30.0
 62
     5
 63
     7
421
 16777215
 74
     1
 91
        4
 64
     7
 65
   257
 75
     1
175
     1
 42
1.0
 92
        0
 66
   257
 43
1.0
 76
     1
 77
     6
 78
     2
 67
     7
 79
     5
170
     0
171
     0
290
     0
174
     0
 93
       13
 44
0.0
173
     0
291
     1
 45
0.0
  0
VISUALSTYLE
  5
2D
102
{ACAD_REACTORS
330
2A
102
}
102
{ACAD_XDICTIONARY
360
10E
102
}
330
2A
100
AcDbVisualStyle
  2
Gouraud
 70
     2
 71
     2
 72
     2
 73
     1
 90
        2
 40
-0.6
 41
30.0
 62
     5
 63
     7
421
 16777215
 74
     0
 91
        4
 64
     7
 65
   257
 75
     1
175
     1
 42
1.0
 92
        0
 66
     7
 43
1.0
 76
     1
 77
     6
 78
     2
 67
     7
 79
     5
170
     0
171
     0
290
     0
174
     0
 93
       13
 44
0.0
173
     0
291
     1
 45
0.0
  0
VISUALSTYLE
  5
2E
102
{ACAD_REACTORS
330
2A
102
}
102
{ACAD_XDICTIONARY
360
110
102
}
330
2A
100
AcDbVisualStyle
  2
GouraudWithEdges
 70
     3
 71
     2
 72
     2
 73
     1
 90
        2
 40
-0.6
 41
30.0
 62
     5
 63
     7
421
 16777215
 74
     1
 91
        4
 64
     7
 65
   257
 75
     1
175
     1
 42
1.0
 92
        0
 66
   257
 43
1.0
 76
     1
 77
     6
 78
     2
 67
     7
 79
     5
170
     0
171
     0
290
     0
174
     0
 93
       13
 44
0.0
173
     0
291
     1
 45
0.0
  0
VISUALSTYLE
  5
38
102
{ACAD_REACTORS
330
2A
102
}
102
{ACAD_XDICTIONARY
360
124
102
}
330
2A
100
AcDbVisualStyle
  2
Linepattern
 70
    14
 71
     2
 72
     2
 73
     0
 90
        0
 40
-0.6
 41
-30.0
 62
     5
 63
     7
421
 16777215
 74
     1
 91
        4
 64
     7
 65
   257
 75
     7
175
     7
 42
1.0
 92
        8
 66
     7
 43
1.0
 76
     1
 77
     6
 78
     2
 67
     7
 79
     5
170
     0
171
     0
290
     0
174
     0
 93
        1
 44
0.0
173
     0
291
     1
 45
0.0
  0
VISUALSTYLE
  5
33
102
{ACAD_REACTORS
330
2A
102
}
102
{ACAD_XDICTIONARY
360
11A
102
}
330
2A
100
AcDbVisualStyle
  2
Realistic
 70
     8
 71
     2
 72
     2
 73
     0
 90
        0
 40
-0.6
 41
-30.0
 62
     5
 63
     7
421
 16777215
 74
     1
 91
        0
 64
     7
 65
   257
 75
     1
175
     1
 42
1.0
 92
        8
 66
     8
424
  7895160
 43
1.0
 76
     1
 77
     6
 78
     2
 67
     7
 79
     5
170
     0
171
     0
290
     0
174
     0
 93
       13
 44
0.0
173
     0
291
     0
 45
0.0
  0
VISUALSTYLE
  5
37
102
{ACAD_REACTORS
330
2A
102
}
102
{ACAD_XDICTIONARY
360
122
102
}
330
2A
100
AcDbVisualStyle
  2
Thicken
 70
    13
 71
     2
 72
     2
 73
     0
 90
        0
 40
-0.6
 41
-30.0
 62
     5
 63
     7
421
 16777215
 74
     1
 91
        4
 64
     7
 65
   257
 75
     1
175
     1
 42
1.0
 92
       12
 66
     7
 43
1.0
 76
     1
 77
     6
 78
     2
 67
     7
 79
     5
170
     0
171
     0
290
     0
174
     0
 93
        1
 44
0.0
173
     0
291
     1
 45
0.0
  0
DICTIONARY
  5
112
330
2F
100
AcDbDictionary
280
     1
281
     1
  3
ACAD_XREC_ROUNDTRIP
360
113
  0
DICTIONARY
  5
116
330
31
100
AcDbDictionary
280
     1
281
     1
  3
ACAD_XREC_ROUNDTRIP
360
117
  0
DICTIONARY
  5
114
330
30
100
AcDbDictionary
280
     1
281
     1
  3
ACAD_XREC_ROUNDTRIP
360
115
  0
DICTIONARY
  5
118
330
32
100
AcDbDictionary
280
     1
281
     1
  3
ACAD_XREC_ROUNDTRIP
360
119
  0
DICTIONARY
  5
120
330
36
100
AcDbDictionary
280
     1
281
     1
  3
ACAD_XREC_ROUNDTRIP
360
121
  0
DICTIONARY
  5
128
330
3A
100
AcDbDictionary
280
     1
281
     1
  3
ACAD_XREC_ROUNDTRIP
360
129
  0
DICTIONARY
  5
11C
330
34
100
AcDbDictionary
280
     1
281
     1
  3
ACAD_XREC_ROUNDTRIP
360
11D
  0
DICTIONARY
  5
11E
330
35
100
AcDbDictionary
280
     1
281
     1
  3
ACAD_XREC_ROUNDTRIP
360
11F
  0
DICTIONARY
  5
126
330
39
100
AcDbDictionary
280
     1
281
     1
  3
ACAD_XREC_ROUNDTRIP
360
127
  0
DICTIONARY
  5
10A
330
2B
100
AcDbDictionary
280
     1
281
     1
  3
ACAD_XREC_ROUNDTRIP
360
10B
  0
DICTIONARY
  5
10C
330
2C
100
AcDbDictionary
280
     1
281
     1
  3
ACAD_XREC_ROUNDTRIP
360
10D
  0
DICTIONARY
  5
10E
330
2D
100
AcDbDictionary
280
     1
281
     1
  3
ACAD_XREC_ROUNDTRIP
360
10F
  0
DICTIONARY
  5
110
330
2E
100
AcDbDictionary
280
     1
281
     1
  3
ACAD_XREC_ROUNDTRIP
360
111
  0
DICTIONARY
  5
124
330
38
100
AcDbDictionary
280
     1
281
     1
  3
ACAD_XREC_ROUNDTRIP
360
125
  0
DICTIONARY
  5
11A
330
33
100
AcDbDictionary
280
     1
281
     1
  3
ACAD_XREC_ROUNDTRIP
360
11B
  0
DICTIONARY
  5
122
330
37
100
AcDbDictionary
280
     1
281
     1
  3
ACAD_XREC_ROUNDTRIP
360
123
  0
XRECORD
  5
113
102
{ACAD_REACTORS
330
112
102
}
330
112
100
AcDbXrecord
280
     1
102
RTVSPropertyOp0
 70
     1
102
RTVSPropertyOp1
 70
     1
102
RTVSPropertyOp2
 70
     1
102
RTVSPropertyOp3
 70
     1
102
RTVSPropertyOp4
 70
     1
102
RTVSPropertyOp5
 70
     1
102
RTVSPropertyOp6
 70
     1
102
RTVSPropertyOp7
 70
     1
102
RTVSPropertyOp8
 70
     1
102
RTVSPropertyOp9
 70
     1
102
RTVSPropertyOp10
 70
     1
102
RTVSPropertyOp11
 70
     1
102
RTVSPropertyOp12
 70
     1
102
RTVSPropertyOp13
 70
     1
102
RTVSPropertyOp14
 70
     1
102
RTVSPropertyOp15
 70
     1
102
RTVSPropertyOp16
 70
     1
102
RTVSPropertyOp17
 70
     1
102
RTVSPropertyOp18
 70
     1
102
RTVSPropertyOp19
 70
     1
102
RTVSPropertyOp20
 70
     1
102
RTVSPropertyOp21
 70
     1
102
RTVSPropertyOp22
 70
     1
102
RTVSPropertyOp23
 70
     1
102
RTVSPropertyOp24
 70
     1
102
RTVSPropertyOp25
 70
     1
102
RTVSPropertyOp26
 70
     1
102
RTVSPropertyOp27
 70
     1
102
RTVSPropertyOp28
 70
     1
102
RTVSPropertyOp29
 70
     1
102
RTVSPropertyOp30
 70
     1
102
RTVSPropertyOp31
 70
     1
102
RTVSPropertyOp32
 70
     1
  0
XRECORD
  5
117
102
{ACAD_REACTORS
330
116
102
}
330
116
100
AcDbXrecord
280
     1
102
RTVSPropertyOp0
 70
     1
102
RTVSPropertyOp1
 70
     1
102
RTVSPropertyOp2
 70
     1
102
RTVSPropertyOp3
 70
     1
102
RTVSPropertyOp4
 70
     1
102
RTVSPropertyOp5
 70
     1
102
RTVSPropertyOp6
 70
     1
102
RTVSPropertyOp7
 70
     1
102
RTVSPropertyOp8
 70
     1
102
RTVSPropertyOp9
 70
     1
102
RTVSPropertyOp10
 70
     1
102
RTVSPropertyOp11
 70
     1
102
RTVSPropertyOp12
 70
     1
102
RTVSPropertyOp13
 70
     1
102
RTVSPropertyOp14
 70
     1
102
RTVSPropertyOp15
 70
     1
102
RTVSPropertyOp16
 70
     1
102
RTVSPropertyOp17
 70
     1
102
RTVSPropertyOp18
 70
     1
102
RTVSPropertyOp19
 70
     1
102
RTVSPropertyOp20
 70
     1
102
RTVSPropertyOp21
 70
     1
102
RTVSPropertyOp22
 70
     1
102
RTVSPropertyOp23
 70
     1
102
RTVSPropertyOp24
 70
     1
102
RTVSPropertyOp25
 70
     1
102
RTVSPropertyOp26
 70
     1
102
RTVSPropertyOp27
 70
     1
102
RTVSPropertyOp28
 70
     1
102
RTVSPropertyOp29
 70
     1
102
RTVSPropertyOp30
 70
     1
102
RTVSPropertyOp31
 70
     1
102
RTVSPropertyOp32
 70
     1
  0
XRECORD
  5
115
102
{ACAD_REACTORS
330
114
102
}
330
114
100
AcDbXrecord
280
     1
102
RTVSPropertyOp0
 70
     1
102
RTVSPropertyOp1
 70
     1
102
RTVSPropertyOp2
 70
     1
102
RTVSPropertyOp3
 70
     1
102
RTVSPropertyOp4
 70
     1
102
RTVSPropertyOp5
 70
     1
102
RTVSPropertyOp6
 70
     1
102
RTVSPropertyOp7
 70
     1
102
RTVSPropertyOp8
 70
     1
102
RTVSPropertyOp9
 70
     1
102
RTVSPropertyOp10
 70
     1
102
RTVSPropertyOp11
 70
     1
102
RTVSPropertyOp12
 70
     1
102
RTVSPropertyOp13
 70
     1
102
RTVSPropertyOp14
 70
     1
102
RTVSPropertyOp15
 70
     1
102
RTVSPropertyOp16
 70
     1
102
RTVSPropertyOp17
 70
     1
102
RTVSPropertyOp18
 70
     1
102
RTVSPropertyOp19
 70
     1
102
RTVSPropertyOp20
 70
     1
102
RTVSPropertyOp21
 70
     1
102
RTVSPropertyOp22
 70
     1
102
RTVSPropertyOp23
 70
     1
102
RTVSPropertyOp24
 70
     1
102
RTVSPropertyOp25
 70
     1
102
RTVSPropertyOp26
 70
     1
102
RTVSPropertyOp27
 70
     1
102
RTVSPropertyOp28
 70
     1
102
RTVSPropertyOp29
 70
     1
102
RTVSPropertyOp30
 70
     1
102
RTVSPropertyOp31
 70
     1
102
RTVSPropertyOp32
 70
     1
  0
XRECORD
  5
119
102
{ACAD_REACTORS
330
118
102
}
330
118
100
AcDbXrecord
280
     1
102
RTVSPropertyOp0
 70
     1
102
RTVSPropertyOp1
 70
     1
102
RTVSPropertyOp2
 70
     1
102
RTVSPropertyOp3
 70
     1
102
RTVSPropertyOp4
 70
     1
102
RTVSPropertyOp5
 70
     1
102
RTVSPropertyOp6
 70
     1
102
RTVSPropertyOp7
 70
     1
102
RTVSPropertyOp8
 70
     1
102
RTVSPropertyOp9
 70
     1
102
RTVSPropertyOp10
 70
     1
102
RTVSPropertyOp11
 70
     1
102
RTVSPropertyOp12
 70
     1
102
RTVSPropertyOp13
 70
     1
102
RTVSPropertyOp14
 70
     1
102
RTVSPropertyOp15
 70
     1
102
RTVSPropertyOp16
 70
     1
102
RTVSPropertyOp17
 70
     1
102
RTVSPropertyOp18
 70
     1
102
RTVSPropertyOp19
 70
     1
102
RTVSPropertyOp20
 70
     1
102
RTVSPropertyOp21
 70
     1
102
RTVSPropertyOp22
 70
     1
102
RTVSPropertyOp23
 70
     1
102
RTVSPropertyOp24
 70
     1
102
RTVSPropertyOp25
 70
     1
102
RTVSPropertyOp26
 70
     1
102
RTVSPropertyOp27
 70
     1
102
RTVSPropertyOp28
 70
     1
102
RTVSPropertyOp29
 70
     1
102
RTVSPropertyOp30
 70
     1
102
RTVSPropertyOp31
 70
     1
102
RTVSPropertyOp32
 70
     1
  0
XRECORD
  5
121
102
{ACAD_REACTORS
330
120
102
}
330
120
100
AcDbXrecord
280
     1
102
RTVSPropertyOp0
 70
     1
102
RTVSPropertyOp1
 70
     1
102
RTVSPropertyOp2
 70
     1
102
RTVSPropertyOp3
 70
     1
102
RTVSPropertyOp4
 70
     1
102
RTVSPropertyOp5
 70
     1
102
RTVSPropertyOp6
 70
     1
102
RTVSPropertyOp7
 70
     1
102
RTVSPropertyOp8
 70
     1
102
RTVSPropertyOp9
 70
     1
102
RTVSPropertyOp10
 70
     1
102
RTVSPropertyOp11
 70
     1
102
RTVSPropertyOp12
 70
     1
102
RTVSPropertyOp13
 70
     1
102
RTVSPropertyOp14
 70
     1
102
RTVSPropertyOp15
 70
     1
102
RTVSPropertyOp16
 70
     1
102
RTVSPropertyOp17
 70
     1
102
RTVSPropertyOp18
 70
     1
102
RTVSPropertyOp19
 70
     1
102
RTVSPropertyOp20
 70
     1
102
RTVSPropertyOp21
 70
     1
102
RTVSPropertyOp22
 70
     1
102
RTVSPropertyOp23
 70
     1
102
RTVSPropertyOp24
 70
     1
102
RTVSPropertyOp25
 70
     1
102
RTVSPropertyOp26
 70
     1
102
RTVSPropertyOp27
 70
     1
102
RTVSPropertyOp28
 70
     1
102
RTVSPropertyOp29
 70
     1
102
RTVSPropertyOp30
 70
     1
102
RTVSPropertyOp31
 70
     1
102
RTVSPropertyOp32
 70
     1
  0
XRECORD
  5
129
102
{ACAD_REACTORS
330
128
102
}
330
128
100
AcDbXrecord
280
     1
102
RTVSPropertyOp0
 70
     1
102
RTVSPropertyOp1
 70
     1
102
RTVSPropertyOp2
 70
     1
102
RTVSPropertyOp3
 70
     1
102
RTVSPropertyOp4
 70
     1
102
RTVSPropertyOp5
 70
     1
102
RTVSPropertyOp6
 70
     1
102
RTVSPropertyOp7
 70
     1
102
RTVSPropertyOp8
 70
     1
102
RTVSPropertyOp9
 70
     1
102
RTVSPropertyOp10
 70
     1
102
RTVSPropertyOp11
 70
     1
102
RTVSPropertyOp12
 70
     1
102
RTVSPropertyOp13
 70
     1
102
RTVSPropertyOp14
 70
     1
102
RTVSPropertyOp15
 70
     1
102
RTVSPropertyOp16
 70
     1
102
RTVSPropertyOp17
 70
     1
102
RTVSPropertyOp18
 70
     1
102
RTVSPropertyOp19
 70
     1
102
RTVSPropertyOp20
 70
     1
102
RTVSPropertyOp21
 70
     1
102
RTVSPropertyOp22
 70
     1
102
RTVSPropertyOp23
 70
     1
102
RTVSPropertyOp24
 70
     1
102
RTVSPropertyOp25
 70
     1
102
RTVSPropertyOp26
 70
     1
102
RTVSPropertyOp27
 70
     1
102
RTVSPropertyOp28
 70
     1
102
RTVSPropertyOp29
 70
     1
102
RTVSPropertyOp30
 70
     1
102
RTVSPropertyOp31
 70
     1
102
RTVSPropertyOp32
 70
     1
  0
XRECORD
  5
11D
102
{ACAD_REACTORS
330
11C
102
}
330
11C
100
AcDbXrecord
280
     1
102
RTVSPropertyOp0
 70
     1
102
RTVSPropertyOp1
 70
     1
102
RTVSPropertyOp2
 70
     1
102
RTVSPropertyOp3
 70
     1
102
RTVSPropertyOp4
 70
     1
102
RTVSPropertyOp5
 70
     1
102
RTVSPropertyOp6
 70
     1
102
RTVSPropertyOp7
 70
     1
102
RTVSPropertyOp8
 70
     1
102
RTVSPropertyOp9
 70
     1
102
RTVSPropertyOp10
 70
     1
102
RTVSPropertyOp11
 70
     1
102
RTVSPropertyOp12
 70
     1
102
RTVSPropertyOp13
 70
     1
102
RTVSPropertyOp14
 70
     1
102
RTVSPropertyOp15
 70
     1
102
RTVSPropertyOp16
 70
     1
102
RTVSPropertyOp17
 70
     1
102
RTVSPropertyOp18
 70
     1
102
RTVSPropertyOp19
 70
     1
102
RTVSPropertyOp20
 70
     1
102
RTVSPropertyOp21
 70
     1
102
RTVSPropertyOp22
 70
     1
102
RTVSPropertyOp23
 70
     1
102
RTVSPropertyOp24
 70
     1
102
RTVSPropertyOp25
 70
     1
102
RTVSPropertyOp26
 70
     1
102
RTVSPropertyOp27
 70
     1
102
RTVSPropertyOp28
 70
     1
102
RTVSPropertyOp29
 70
     1
102
RTVSPropertyOp30
 70
     1
102
RTVSPropertyOp31
 70
     1
102
RTVSPropertyOp32
 70
     1
  0
XRECORD
  5
11F
102
{ACAD_REACTORS
330
11E
102
}
330
11E
100
AcDbXrecord
280
     1
102
RTVSPropertyOp0
 70
     1
102
RTVSPropertyOp1
 70
     1
102
RTVSPropertyOp2
 70
     1
102
RTVSPropertyOp3
 70
     1
102
RTVSPropertyOp4
 70
     1
102
RTVSPropertyOp5
 70
     1
102
RTVSPropertyOp6
 70
     1
102
RTVSPropertyOp7
 70
     1
102
RTVSPropertyOp8
 70
     1
102
RTVSPropertyOp9
 70
     1
102
RTVSPropertyOp10
 70
     1
102
RTVSPropertyOp11
 70
     1
102
RTVSPropertyOp12
 70
     1
102
RTVSPropertyOp13
 70
     1
102
RTVSPropertyOp14
 70
     1
102
RTVSPropertyOp15
 70
     1
102
RTVSPropertyOp16
 70
     1
102
RTVSPropertyOp17
 70
     1
102
RTVSPropertyOp18
 70
     1
102
RTVSPropertyOp19
 70
     1
102
RTVSPropertyOp20
 70
     1
102
RTVSPropertyOp21
 70
     1
102
RTVSPropertyOp22
 70
     1
102
RTVSPropertyOp23
 70
     1
102
RTVSPropertyOp24
 70
     1
102
RTVSPropertyOp25
 70
     1
102
RTVSPropertyOp26
 70
     1
102
RTVSPropertyOp27
 70
     1
102
RTVSPropertyOp28
 70
     1
102
RTVSPropertyOp29
 70
     1
102
RTVSPropertyOp30
 70
     1
102
RTVSPropertyOp31
 70
     1
102
RTVSPropertyOp32
 70
     1
  0
XRECORD
  5
127
102
{ACAD_REACTORS
330
126
102
}
330
126
100
AcDbXrecord
280
     1
102
RTVSPropertyOp0
 70
     1
102
RTVSPropertyOp1
 70
     1
102
RTVSPropertyOp2
 70
     1
102
RTVSPropertyOp3
 70
     1
102
RTVSPropertyOp4
 70
     1
102
RTVSPropertyOp5
 70
     1
102
RTVSPropertyOp6
 70
     1
102
RTVSPropertyOp7
 70
     1
102
RTVSPropertyOp8
 70
     1
102
RTVSPropertyOp9
 70
     1
102
RTVSPropertyOp10
 70
     1
102
RTVSPropertyOp11
 70
     1
102
RTVSPropertyOp12
 70
     1
102
RTVSPropertyOp13
 70
     1
102
RTVSPropertyOp14
 70
     1
102
RTVSPropertyOp15
 70
     1
102
RTVSPropertyOp16
 70
     1
102
RTVSPropertyOp17
 70
     1
102
RTVSPropertyOp18
 70
     1
102
RTVSPropertyOp19
 70
     1
102
RTVSPropertyOp20
 70
     1
102
RTVSPropertyOp21
 70
     1
102
RTVSPropertyOp22
 70
     1
102
RTVSPropertyOp23
 70
     1
102
RTVSPropertyOp24
 70
     1
102
RTVSPropertyOp25
 70
     1
102
RTVSPropertyOp26
 70
     1
102
RTVSPropertyOp27
 70
     1
102
RTVSPropertyOp28
 70
     1
102
RTVSPropertyOp29
 70
     1
102
RTVSPropertyOp30
 70
     1
102
RTVSPropertyOp31
 70
     1
102
RTVSPropertyOp32
 70
     1
  0
XRECORD
  5
10B
102
{ACAD_REACTORS
330
10A
102
}
330
10A
100
AcDbXrecord
280
     1
102
RTVSPropertyOp0
 70
     1
102
RTVSPropertyOp1
 70
     1
102
RTVSPropertyOp2
 70
     1
102
RTVSPropertyOp3
 70
     1
102
RTVSPropertyOp4
 70
     1
102
RTVSPropertyOp5
 70
     1
102
RTVSPropertyOp6
 70
     1
102
RTVSPropertyOp7
 70
     1
102
RTVSPropertyOp8
 70
     1
102
RTVSPropertyOp9
 70
     1
102
RTVSPropertyOp10
 70
     1
102
RTVSPropertyOp11
 70
     1
102
RTVSPropertyOp12
 70
     1
102
RTVSPropertyOp13
 70
     1
102
RTVSPropertyOp14
 70
     1
102
RTVSPropertyOp15
 70
     1
102
RTVSPropertyOp16
 70
     1
102
RTVSPropertyOp17
 70
     1
102
RTVSPropertyOp18
 70
     1
102
RTVSPropertyOp19
 70
     1
102
RTVSPropertyOp20
 70
     1
102
RTVSPropertyOp21
 70
     1
102
RTVSPropertyOp22
 70
     1
102
RTVSPropertyOp23
 70
     1
102
RTVSPropertyOp24
 70
     1
102
RTVSPropertyOp25
 70
     1
102
RTVSPropertyOp26
 70
     1
102
RTVSPropertyOp27
 70
     1
102
RTVSPropertyOp28
 70
     1
102
RTVSPropertyOp29
 70
     1
102
RTVSPropertyOp30
 70
     1
102
RTVSPropertyOp31
 70
     1
102
RTVSPropertyOp32
 70
     1
  0
XRECORD
  5
10D
102
{ACAD_REACTORS
330
10C
102
}
330
10C
100
AcDbXrecord
280
     1
102
RTVSPropertyOp0
 70
     1
102
RTVSPropertyOp1
 70
     1
102
RTVSPropertyOp2
 70
     1
102
RTVSPropertyOp3
 70
     1
102
RTVSPropertyOp4
 70
     1
102
RTVSPropertyOp5
 70
     1
102
RTVSPropertyOp6
 70
     1
102
RTVSPropertyOp7
 70
     1
102
RTVSPropertyOp8
 70
     1
102
RTVSPropertyOp9
 70
     1
102
RTVSPropertyOp10
 70
     1
102
RTVSPropertyOp11
 70
     1
102
RTVSPropertyOp12
 70
     1
102
RTVSPropertyOp13
 70
     1
102
RTVSPropertyOp14
 70
     1
102
RTVSPropertyOp15
 70
     1
102
RTVSPropertyOp16
 70
     1
102
RTVSPropertyOp17
 70
     1
102
RTVSPropertyOp18
 70
     1
102
RTVSPropertyOp19
 70
     1
102
RTVSPropertyOp20
 70
     1
102
RTVSPropertyOp21
 70
     1
102
RTVSPropertyOp22
 70
     1
102
RTVSPropertyOp23
 70
     1
102
RTVSPropertyOp24
 70
     1
102
RTVSPropertyOp25
 70
     1
102
RTVSPropertyOp26
 70
     1
102
RTVSPropertyOp27
 70
     1
102
RTVSPropertyOp28
 70
     1
102
RTVSPropertyOp29
 70
     1
102
RTVSPropertyOp30
 70
     1
102
RTVSPropertyOp31
 70
     1
102
RTVSPropertyOp32
 70
     1
  0
XRECORD
  5
10F
102
{ACAD_REACTORS
330
10E
102
}
330
10E
100
AcDbXrecord
280
     1
102
RTVSPropertyOp0
 70
     1
102
RTVSPropertyOp1
 70
     1
102
RTVSPropertyOp2
 70
     1
102
RTVSPropertyOp3
 70
     1
102
RTVSPropertyOp4
 70
     1
102
RTVSPropertyOp5
 70
     1
102
RTVSPropertyOp6
 70
     1
102
RTVSPropertyOp7
 70
     1
102
RTVSPropertyOp8
 70
     1
102
RTVSPropertyOp9
 70
     1
102
RTVSPropertyOp10
 70
     1
102
RTVSPropertyOp11
 70
     1
102
RTVSPropertyOp12
 70
     1
102
RTVSPropertyOp13
 70
     1
102
RTVSPropertyOp14
 70
     1
102
RTVSPropertyOp15
 70
     1
102
RTVSPropertyOp16
 70
     1
102
RTVSPropertyOp17
 70
     1
102
RTVSPropertyOp18
 70
     1
102
RTVSPropertyOp19
 70
     1
102
RTVSPropertyOp20
 70
     1
102
RTVSPropertyOp21
 70
     1
102
RTVSPropertyOp22
 70
     1
102
RTVSPropertyOp23
 70
     1
102
RTVSPropertyOp24
 70
     1
102
RTVSPropertyOp25
 70
     1
102
RTVSPropertyOp26
 70
     1
102
RTVSPropertyOp27
 70
     1
102
RTVSPropertyOp28
 70
     1
102
RTVSPropertyOp29
 70
     1
102
RTVSPropertyOp30
 70
     1
102
RTVSPropertyOp31
 70
     1
102
RTVSPropertyOp32
 70
     1
  0
XRECORD
  5
111
102
{ACAD_REACTORS
330
110
102
}
330
110
100
AcDbXrecord
280
     1
102
RTVSPropertyOp0
 70
     1
102
RTVSPropertyOp1
 70
     1
102
RTVSPropertyOp2
 70
     1
102
RTVSPropertyOp3
 70
     1
102
RTVSPropertyOp4
 70
     1
102
RTVSPropertyOp5
 70
     1
102
RTVSPropertyOp6
 70
     1
102
RTVSPropertyOp7
 70
     1
102
RTVSPropertyOp8
 70
     1
102
RTVSPropertyOp9
 70
     1
102
RTVSPropertyOp10
 70
     1
102
RTVSPropertyOp11
 70
     1
102
RTVSPropertyOp12
 70
     1
102
RTVSPropertyOp13
 70
     1
102
RTVSPropertyOp14
 70
     1
102
RTVSPropertyOp15
 70
     1
102
RTVSPropertyOp16
 70
     1
102
RTVSPropertyOp17
 70
     1
102
RTVSPropertyOp18
 70
     1
102
RTVSPropertyOp19
 70
     1
102
RTVSPropertyOp20
 70
     1
102
RTVSPropertyOp21
 70
     1
102
RTVSPropertyOp22
 70
     1
102
RTVSPropertyOp23
 70
     1
102
RTVSPropertyOp24
 70
     1
102
RTVSPropertyOp25
 70
     1
102
RTVSPropertyOp26
 70
     1
102
RTVSPropertyOp27
 70
     1
102
RTVSPropertyOp28
 70
     1
102
RTVSPropertyOp29
 70
     1
102
RTVSPropertyOp30
 70
     1
102
RTVSPropertyOp31
 70
     1
102
RTVSPropertyOp32
 70
     1
  0
XRECORD
  5
125
102
{ACAD_REACTORS
330
124
102
}
330
124
100
AcDbXrecord
280
     1
102
RTVSPropertyOp0
 70
     1
102
RTVSPropertyOp1
 70
     1
102
RTVSPropertyOp2
 70
     1
102
RTVSPropertyOp3
 70
     1
102
RTVSPropertyOp4
 70
     1
102
RTVSPropertyOp5
 70
     1
102
RTVSPropertyOp6
 70
     1
102
RTVSPropertyOp7
 70
     1
102
RTVSPropertyOp8
 70
     1
102
RTVSPropertyOp9
 70
     1
102
RTVSPropertyOp10
 70
     1
102
RTVSPropertyOp11
 70
     1
102
RTVSPropertyOp12
 70
     1
102
RTVSPropertyOp13
 70
     1
102
RTVSPropertyOp14
 70
     1
102
RTVSPropertyOp15
 70
     1
102
RTVSPropertyOp16
 70
     1
102
RTVSPropertyOp17
 70
     1
102
RTVSPropertyOp18
 70
     1
102
RTVSPropertyOp19
 70
     1
102
RTVSPropertyOp20
 70
     1
102
RTVSPropertyOp21
 70
     1
102
RTVSPropertyOp22
 70
     1
102
RTVSPropertyOp23
 70
     1
102
RTVSPropertyOp24
 70
     1
102
RTVSPropertyOp25
 70
     1
102
RTVSPropertyOp26
 70
     1
102
RTVSPropertyOp27
 70
     1
102
RTVSPropertyOp28
 70
     1
102
RTVSPropertyOp29
 70
     1
102
RTVSPropertyOp30
 70
     1
102
RTVSPropertyOp31
 70
     1
102
RTVSPropertyOp32
 70
     1
  0
XRECORD
  5
11B
102
{ACAD_REACTORS
330
11A
102
}
330
11A
100
AcDbXrecord
280
     1
102
RTVSPropertyOp0
 70
     1
102
RTVSPropertyOp1
 70
     1
102
RTVSPropertyOp2
 70
     1
102
RTVSPropertyOp3
 70
     1
102
RTVSPropertyOp4
 70
     1
102
RTVSPropertyOp5
 70
     1
102
RTVSPropertyOp6
 70
     1
102
RTVSPropertyOp7
 70
     1
102
RTVSPropertyOp8
 70
     1
102
RTVSPropertyOp9
 70
     1
102
RTVSPropertyOp10
 70
     1
102
RTVSPropertyOp11
 70
     1
102
RTVSPropertyOp12
 70
     1
102
RTVSPropertyOp13
 70
     1
102
RTVSPropertyOp14
 70
     1
102
RTVSPropertyOp15
 70
     1
102
RTVSPropertyOp16
 70
     1
102
RTVSPropertyOp17
 70
     1
102
RTVSPropertyOp18
 70
     1
102
RTVSPropertyOp19
 70
     1
102
RTVSPropertyOp20
 70
     1
102
RTVSPropertyOp21
 70
     1
102
RTVSPropertyOp22
 70
     1
102
RTVSPropertyOp23
 70
     1
102
RTVSPropertyOp24
 70
     1
102
RTVSPropertyOp25
 70
     1
102
RTVSPropertyOp26
 70
     1
102
RTVSPropertyOp27
 70
     1
102
RTVSPropertyOp28
 70
     1
102
RTVSPropertyOp29
 70
     1
102
RTVSPropertyOp30
 70
     1
102
RTVSPropertyOp31
 70
     1
102
RTVSPropertyOp32
 70
     1
  0
XRECORD
  5
123
102
{ACAD_REACTORS
330
122
102
}
330
122
100
AcDbXrecord
280
     1
102
RTVSPropertyOp0
 70
     1
102
RTVSPropertyOp1
 70
     1
102
RTVSPropertyOp2
 70
     1
102
RTVSPropertyOp3
 70
     1
102
RTVSPropertyOp4
 70
     1
102
RTVSPropertyOp5
 70
     1
102
RTVSPropertyOp6
 70
     1
102
RTVSPropertyOp7
 70
     1
102
RTVSPropertyOp8
 70
     1
102
RTVSPropertyOp9
 70
     1
102
RTVSPropertyOp10
 70
     1
102
RTVSPropertyOp11
 70
     1
102
RTVSPropertyOp12
 70
     1
102
RTVSPropertyOp13
 70
     1
102
RTVSPropertyOp14
 70
     1
102
RTVSPropertyOp15
 70
     1
102
RTVSPropertyOp16
 70
     1
102
RTVSPropertyOp17
 70
     1
102
RTVSPropertyOp18
 70
     1
102
RTVSPropertyOp19
 70
     1
102
RTVSPropertyOp20
 70
     1
102
RTVSPropertyOp21
 70
     1
102
RTVSPropertyOp22
 70
     1
102
RTVSPropertyOp23
 70
     1
102
RTVSPropertyOp24
 70
     1
102
RTVSPropertyOp25
 70
     1
102
RTVSPropertyOp26
 70
     1
102
RTVSPropertyOp27
 70
     1
102
RTVSPropertyOp28
 70
     1
102
RTVSPropertyOp29
 70
     1
102
RTVSPropertyOp30
 70
     1
102
RTVSPropertyOp31
 70
     1
102
RTVSPropertyOp32
 70
     1
  0
ENDSEC
  0
EOF
