  0
SECTION
  2
HEADER
  9
$ACADVER
  1
AC1021
  9
$ACADMAINTVER
 70
    25
  9
$DWGCODEPAGE
  3
ANSI_1252
  9
$INSBASE
 10
0.0
 20
0.0
 30
0.0
  9
$EXTMIN
 10
16.9952
 20
-115.0151
 30
0.0
  9
$EXTMAX
 10
196.1477
 20
131.796
 30
0.0
  9
$LIMMIN
 10
0.0
 20
0.0
  9
$LIMMAX
 10
12.0
 20
9.0
  9
$ORTHOMODE
 70
     0
  9
$REGENMODE
 70
     1
  9
$FILLMODE
 70
     1
  9
$QTEXTMODE
 70
     0
  9
$MIRRTEXT
 70
     1
  9
$LTSCALE
 40
1.0
  9
$ATTMODE
 70
     1
  9
$TEXTSIZE
 40
0.2
  9
$TRACEWID
 40
0.05
  9
$TEXTSTYLE
  7
Standard
  9
$CLAYER
  8
0
  9
$CELTYPE
  6
ByLayer
  9
$CECOLOR
 62
   256
  9
$CELTSCALE
 40
1.0
  9
$DISPSILH
 70
     0
  9
$DIMSCALE
 40
1.0
  9
$DIMASZ
 40
0.18
  9
$DIMEXO
 40
0.0625
  9
$DIMDLI
 40
0.38
  9
$DIMRND
 40
0.0
  9
$DIMDLE
 40
0.0
  9
$DIMEXE
 40
0.18
  9
$DIMTP
 40
0.0
  9
$DIMTM
 40
0.0
  9
$DIMTXT
 40
0.18
  9
$DIMCEN
 40
0.09
  9
$DIMTSZ
 40
0.0
  9
$DIMTOL
 70
     0
  9
$DIMLIM
 70
     0
  9
$DIMTIH
 70
     1
  9
$DIMTOH
 70
     1
  9
$DIMSE1
 70
     0
  9
$DIMSE2
 70
     0
  9
$DIMTAD
 70
     0
  9
$DIMZIN
 70
     0
  9
$DIMBLK
  1

  9
$DIMASO
 70
     1
  9
$DIMSHO
 70
     1
  9
$DIMPOST
  1

  9
$DIMAPOST
  1

  9
$DIMALT
 70
     0
  9
$DIMALTD
 70
     2
  9
$DIMALTF
 40
25.4
  9
$DIMLFAC
 40
1.0
  9
$DIMTOFL
 70
     0
  9
$DIMTVP
 40
0.0
  9
$DIMTIX
 70
     0
  9
$DIMSOXD
 70
     0
  9
$DIMSAH
 70
     0
  9
$DIMBLK1
  1

  9
$DIMBLK2
  1

  9
$DIMSTYLE
  2
Standard
  9
$DIMCLRD
 70
     0
  9
$DIMCLRE
 70
     0
  9
$DIMCLRT
 70
     0
  9
$DIMTFAC
 40
1.0
  9
$DIMGAP
 40
0.09
  9
$DIMJUST
 70
     0
  9
$DIMSD1
 70
     0
  9
$DIMSD2
 70
     0
  9
$DIMTOLJ
 70
     1
  9
$DIMTZIN
 70
     0
  9
$DIMALTZ
 70
     0
  9
$DIMALTTZ
 70
     0
  9
$DIMUPT
 70
     0
  9
$DIMDEC
 70
     4
  9
$DIMTDEC
 70
     4
  9
$DIMALTU
 70
     2
  9
$DIMALTTD
 70
     2
  9
$DIMTXSTY
  7
Standard
  9
$DIMAUNIT
 70
     0
  9
$DIMADEC
 70
     0
  9
$DIMALTRND
 40
0.0
  9
$DIMAZIN
 70
     0
  9
$DIMDSEP
 70
    46
  9
$DIMATFIT
 70
     3
  9
$DIMFRAC
 70
     0
  9
$DIMLDRBLK
  1

  9
$DIMLUNIT
 70
     2
  9
$DIMLWD
 70
    -2
  9
$DIMLWE
 70
    -2
  9
$DIMTMOVE
 70
     0
  9
$DIMFXL
 40
1.0
  9
$DIMFXLON
 70
     0
  9
$DIMJOGANG
 40
0.7853981633974483
  9
$DIMTFILL
 70
     0
  9
$DIMTFILLCLR
 70
     0
  9
$DIMARCSYM
 70
     0
  9
$DIMLTYPE
  6

  9
$DIMLTEX1
  6

  9
$DIMLTEX2
  6

  9
$LUNITS
 70
     2
  9
$LUPREC
 70
     4
  9
$SKETCHINC
 40
0.1
  9
$FILLETRAD
 40
0.5
  9
$AUNITS
 70
     0
  9
$AUPREC
 70
     0
  9
$MENU
  1
.
  9
$ELEVATION
 40
0.0
  9
$PELEVATION
 40
0.0
  9
$THICKNESS
 40
0.0
  9
$LIMCHECK
 70
     0
  9
$CHAMFERA
 40
0.5
  9
$CHAMFERB
 40
0.5
  9
$CHAMFERC
 40
1.0
  9
$CHAMFERD
 40
0.0
  9
$SKPOLY
 70
     0
  9
$TDCREATE
 40
2458492.863924548
  9
$TDUCREATE
 40
2458492.863924548
  9
$TDUPDATE
 40
2458492.863924803
  9
$TDUUPDATE
 40
2458492.863924803
  9
$TDINDWG
 40
0.0000000116
  9
$TDUSRTIMER
 40
0.0000000116
  9
$USRTIMER
 70
     1
  9
$ANGBASE
 50
0.0
  9
$ANGDIR
 70
     0
  9
$PDMODE
 70
     0
  9
$PDSIZE
 40
0.0
  9
$PLINEWID
 40
0.0
  9
$SPLFRAME
 70
     0
  9
$SPLINETYPE
 70
     6
  9
$SPLINESEGS
 70
     8
  9
$HANDSEED
  5
8A
  9
$SURFTAB1
 70
     6
  9
$SURFTAB2
 70
     6
  9
$SURFTYPE
 70
     6
  9
$SURFU
 70
     6
  9
$SURFV
 70
     6
  9
$UCSBASE
  2

  9
$UCSNAME
  2

  9
$UCSORG
 10
0.0
 20
0.0
 30
0.0
  9
$UCSXDIR
 10
1.0
 20
0.0
 30
0.0
  9
$UCSYDIR
 10
0.0
 20
1.0
 30
0.0
  9
$UCSORTHOREF
  2

  9
$UCSORTHOVIEW
 70
     0
  9
$UCSORGTOP
 10
0.0
 20
0.0
 30
0.0
  9
$UCSORGBOTTOM
 10
0.0
 20
0.0
 30
0.0
  9
$UCSORGLEFT
 10
0.0
 20
0.0
 30
0.0
  9
$UCSORGRIGHT
 10
0.0
 20
0.0
 30
0.0
  9
$UCSORGFRONT
 10
0.0
 20
0.0
 30
0.0
  9
$UCSORGBACK
 10
0.0
 20
0.0
 30
0.0
  9
$PUCSBASE
  2

  9
$PUCSNAME
  2

  9
$PUCSORG
 10
0.0
 20
0.0
 30
0.0
  9
$PUCSXDIR
 10
1.0
 20
0.0
 30
0.0
  9
$PUCSYDIR
 10
0.0
 20
1.0
 30
0.0
  9
$PUCSORTHOREF
  2

  9
$PUCSORTHOVIEW
 70
     0
  9
$PUCSORGTOP
 10
0.0
 20
0.0
 30
0.0
  9
$PUCSORGBOTTOM
 10
0.0
 20
0.0
 30
0.0
  9
$PUCSORGLEFT
 10
0.0
 20
0.0
 30
0.0
  9
$PUCSORGRIGHT
 10
0.0
 20
0.0
 30
0.0
  9
$PUCSORGFRONT
 10
0.0
 20
0.0
 30
0.0
  9
$PUCSORGBACK
 10
0.0
 20
0.0
 30
0.0
  9
$USERI1
 70
     0
  9
$USERI2
 70
     0
  9
$USERI3
 70
     0
  9
$USERI4
 70
     0
  9
$USERI5
 70
     0
  9
$USERR1
 40
0.0
  9
$USERR2
 40
0.0
  9
$USERR3
 40
0.0
  9
$USERR4
 40
0.0
  9
$USERR5
 40
0.0
  9
$WORLDVIEW
 70
     1
  9
$SHADEDGE
 70
     3
  9
$SHADEDIF
 70
    70
  9
$TILEMODE
 70
     1
  9
$MAXACTVP
 70
    64
  9
$PINSBASE
 10
0.0
 20
0.0
 30
0.0
  9
$PLIMCHECK
 70
     0
  9
$PEXTMIN
 10
1.000000000000000E+20
 20
1.000000000000000E+20
 30
1.000000000000000E+20
  9
$PEXTMAX
 10
-1.000000000000000E+20
 20
-1.000000000000000E+20
 30
-1.000000000000000E+20
  9
$PLIMMIN
 10
0.0
 20
0.0
  9
$PLIMMAX
 10
12.0
 20
9.0
  9
$UNITMODE
 70
     0
  9
$VISRETAIN
 70
     1
  9
$PLINEGEN
 70
     0
  9
$PSLTSCALE
 70
     1
  9
$TREEDEPTH
 70
  3020
  9
$CMLSTYLE
  2
Standard
  9
$CMLJUST
 70
     0
  9
$CMLSCALE
 40
1.0
  9
$PROXYGRAPHICS
 70
     1
  9
$MEASUREMENT
 70
     0
  9
$CELWEIGHT
370
    -1
  9
$ENDCAPS
280
     0
  9
$JOINSTYLE
280
     0
  9
$LWDISPLAY
290
     0
  9
$INSUNITS
 70
     4
  9
$HYPERLINKBASE
  1

  9
$STYLESHEET
  1

  9
$XEDIT
290
     1
  9
$CEPSNTYPE
380
     0
  9
$PSTYLEMODE
290
     1
  9
$FINGERPRINTGUID
  2
{A3872353-7FF7-4DA2-A656-5019B566E006}
  9
$VERSIONGUID
  2
{FAEB1C32-E019-11D5-929B-00C0DF256EC4}
  9
$EXTNAMES
290
     1
  9
$PSVPSCALE
 40
0.0
  9
$OLESTARTUP
290
     0
  9
$SORTENTS
280
   127
  9
$INDEXCTL
280
     0
  9
$HIDETEXT
280
     1
  9
$XCLIPFRAME
290
     0
  9
$HALOGAP
280
     0
  9
$OBSCOLOR
 70
   257
  9
$OBSLTYPE
280
     0
  9
$INTERSECTIONDISPLAY
280
     0
  9
$INTERSECTIONCOLOR
 70
   257
  9
$DIMASSOC
280
     2
  9
$PROJECTNAME
  1

  9
$CAMERADISPLAY
290
     0
  9
$LENSLENGTH
 40
50.0
  9
$CAMERAHEIGHT
 40
0.0
  9
$STEPSPERSEC
 40
2.0
  9
$STEPSIZE
 40
6.0
  9
$3DDWFPREC
 40
2.0
  9
$PSOLWIDTH
 40
0.25
  9
$PSOLHEIGHT
 40
4.0
  9
$LOFTANG1
 40
1.570796326794897
  9
$LOFTANG2
 40
1.570796326794897
  9
$LOFTMAG1
 40
0.0
  9
$LOFTMAG2
 40
0.0
  9
$LOFTPARAM
 70
     7
  9
$LOFTNORMALS
280
     1
  9
$LATITUDE
 40
37.795
  9
$LONGITUDE
 40
-122.394
  9
$NORTHDIRECTION
 40
0.0
  9
$TIMEZONE
 70
 -8000
  9
$LIGHTGLYPHDISPLAY
280
     1
  9
$TILEMODELIGHTSYNCH
280
     1
  9
$SOLIDHIST
280
     1
  9
$SHOWHIST
280
     1
  9
$DWFFRAME
280
     2
  9
$DGNFRAME
280
     2
  9
$REALWORLDSCALE
290
     1
  9
$INTERFERECOLOR
 62
   256
  9
$CSHADOW
280
     0
  9
$SHADOWPLANELOCATION
 40
0.0
  0
ENDSEC
  0
SECTION
  2
CLASSES
  0
CLASS
  1
ACDBDICTIONARYWDFLT
  2
AcDbDictionaryWithDefault
  3
ObjectDBX Classes
 90
        0
 91
        4
280
     0
281
     0
  0
CLASS
  1
VISUALSTYLE
  2
AcDbVisualStyle
  3
ObjectDBX Classes
 90
     4095
 91
        4
280
     0
281
     0
  0
CLASS
  1
MATERIAL
  2
AcDbMaterial
  3
ObjectDBX Classes
 90
     1153
 91
        4
280
     0
281
     0
  0
ENDSEC
  0
SECTION
  2
TABLES
  0
TABLE
  2
VPORT
  5
8
330
0
100
AcDbSymbolTable
 70
     1
  0
VPORT
  5
29
330
8
100
AcDbSymbolTableRecord
100
AcDbViewportTableRecord
  2
*Active
 70
     0
 10
0.0
 20
0.0
 11
1.0
 21
1.0
 12
10.42990654205607
 22
4.5
 13
0.0
 23
0.0
 14
0.5
 24
0.5
 15
0.5
 25
0.5
 16
0.0
 26
0.0
 36
1.0
 17
0.0
 27
0.0
 37
0.0
 40
9.0
 41
1.972972972850329
 42
50.0
 43
0.0
 44
0.0
 50
0.0
 51
0.0
 71
     0
 72
   100
 73
     1
 74
     3
 75
     0
 76
     0
 77
     0
 78
     0
281
     0
 65
     1
110
0.0
120
0.0
130
0.0
111
1.0
121
0.0
131
0.0
112
0.0
122
1.0
132
0.0
 79
     0
146
0.0
 60
     3
 61
     5
292
     1
282
     1
141
0.0
142
0.0
 63
   250
  0
ENDTAB
  0
TABLE
  2
LTYPE
  5
5
330
0
100
AcDbSymbolTable
 70
     1
  0
LTYPE
  5
14
330
5
100
AcDbSymbolTableRecord
100
AcDbLinetypeTableRecord
  2
ByBlock
 70
     0
  3

 72
    65
 73
     0
 40
0.0
  0
LTYPE
  5
15
330
5
100
AcDbSymbolTableRecord
100
AcDbLinetypeTableRecord
  2
ByLayer
 70
     0
  3

 72
    65
 73
     0
 40
0.0
  0
LTYPE
  5
16
330
5
100
AcDbSymbolTableRecord
100
AcDbLinetypeTableRecord
  2
Continuous
 70
     0
  3
Solid line
 72
    65
 73
     0
 40
0.0
  0
ENDTAB
  0
TABLE
  2
LAYER
  5
2
330
0
100
AcDbSymbolTable
 70
     3
  0
LAYER
  5
10
330
2
100
AcDbSymbolTableRecord
100
AcDbLayerTableRecord
  2
0
 70
     0
 62
     7
  6
Continuous
370
    -3
390
F
347
3E
  0
LAYER
  5
40
330
2
100
AcDbSymbolTableRecord
100
AcDbLayerTableRecord
  2
layer 1
 70
     0
 62
     7
  6
Continuous
370
    -3
390
F
347
3E
  0
LAYER
  5
67
330
2
100
AcDbSymbolTableRecord
100
AcDbLayerTableRecord
  2
Master Guides
 70
     0
 62
     7
  6
Continuous
370
    -3
390
F
347
3E
  0
ENDTAB
  0
TABLE
  2
STYLE
  5
3
330
0
100
AcDbSymbolTable
 70
     1
  0
STYLE
  5
11
330
3
100
AcDbSymbolTableRecord
100
AcDbTextStyleTableRecord
  2
Standard
 70
     0
 40
0.0
 41
1.0
 50
0.0
 71
     0
 42
0.2
  3
txt
  4

  0
ENDTAB
  0
TABLE
  2
VIEW
  5
6
330
0
100
AcDbSymbolTable
 70
     0
  0
ENDTAB
  0
TABLE
  2
UCS
  5
7
330
0
100
AcDbSymbolTable
 70
     0
  0
ENDTAB
  0
TABLE
  2
APPID
  5
9
330
0
100
AcDbSymbolTable
 70
     2
  0
APPID
  5
12
330
9
100
AcDbSymbolTableRecord
100
AcDbRegAppTableRecord
  2
ACAD
 70
     0
  0
APPID
  5
3F
330
9
100
AcDbSymbolTableRecord
100
AcDbRegAppTableRecord
  2
ODA
 70
     0
  0
ENDTAB
  0
TABLE
  2
DIMSTYLE
  5
A
330
0
100
AcDbSymbolTable
 70
     1
100
AcDbDimStyleTable
  0
DIMSTYLE
105
27
330
A
100
AcDbSymbolTableRecord
100
AcDbDimStyleTableRecord
  2
Standard
 70
     0
178
     0
340
11
  0
ENDTAB
  0
TABLE
  2
BLOCK_RECORD
  5
1
330
0
100
AcDbSymbolTable
 70
     1
  0
BLOCK_RECORD
  5
1F
330
1
100
AcDbSymbolTableRecord
100
AcDbBlockTableRecord
  2
*Model_Space
340
22
 70
     0
280
     1
281
     0
  0
BLOCK_RECORD
  5
1B
330
1
100
AcDbSymbolTableRecord
100
AcDbBlockTableRecord
  2
*Paper_Space
340
1E
 70
     0
280
     1
281
     0
  0
BLOCK_RECORD
  5
23
330
1
100
AcDbSymbolTableRecord
100
AcDbBlockTableRecord
  2
*Paper_Space0
340
26
 70
     0
280
     1
281
     0
  0
ENDTAB
  0
ENDSEC
  0
SECTION
  2
BLOCKS
  0
BLOCK
  5
20
330
1F
100
AcDbEntity
  8
0
100
AcDbBlockBegin
  2
*Model_Space
 70
     0
 10
0.0
 20
0.0
 30
0.0
  3
*Model_Space
  1

  0
ENDBLK
  5
21
330
1F
100
AcDbEntity
  8
0
100
AcDbBlockEnd
  0
BLOCK
  5
1C
330
1B
100
AcDbEntity
 67
     1
  8
0
100
AcDbBlockBegin
  2
*Paper_Space
 70
     0
 10
0.0
 20
0.0
 30
0.0
  3
*Paper_Space
  1

  0
ENDBLK
  5
1D
330
1B
100
AcDbEntity
 67
     1
  8
0
100
AcDbBlockEnd
  0
BLOCK
  5
24
330
23
100
AcDbEntity
  8
0
100
AcDbBlockBegin
  2
*Paper_Space0
 70
     0
 10
0.0
 20
0.0
 30
0.0
  3
*Paper_Space0
  1

  0
ENDBLK
  5
25
330
23
100
AcDbEntity
  8
0
100
AcDbBlockEnd
  0
ENDSEC
  0
SECTION
  2
ENTITIES
  0
SPLINE
  5
41
330
1F
100
AcDbEntity
  8
layer 1
 62
   250
100
AcDbSpline
210
0.0
220
0.0
230
1.0
 70
    11
 71
     3
 72
    36
 73
    32
 74
     0
 42
0.0000000001
 43
0.0000000001
 12
1.0
 22
0.0
 32
0.0
 13
1.0
 23
0.0
 33
0.0
 40
0.0
 40
0.0
 40
0.0
 40
0.0
 40
0.1111111111111111
 40
0.1111111111111111
 40
0.1111111111111111
 40
0.1111111111111111
 40
0.2222222222222222
 40
0.2222222222222222
 40
0.2222222222222222
 40
0.2222222222222222
 40
0.3333333333333333
 40
0.3333333333333333
 40
0.3333333333333333
 40
0.3333333333333333
 40
0.4444444444444444
 40
0.4444444444444444
 40
0.4444444444444444
 40
0.4444444444444444
 40
0.5555555555555556
 40
0.5555555555555556
 40
0.5555555555555556
 40
0.5555555555555556
 40
0.6666666666666666
 40
0.6666666666666666
 40
0.6666666666666666
 40
0.6666666666666666
 40
0.7777777777777778
 40
0.7777777777777778
 40
0.7777777777777778
 40
0.7777777777777778
 40
1.0
 40
1.0
 40
1.0
 40
1.0
 10
16.9952
 20
8.3904
 30
0.0
 10
16.9952
 20
8.3904
 30
0.0
 10
16.9952
 20
131.796
 30
0.0
 10
16.9952
 20
131.796
 30
0.0
 10
16.9952
 20
131.796
 30
0.0
 10
16.9952
 20
131.796
 30
0.0
 10
106.5715
 20
131.796
 30
0.0
 10
106.5715
 20
131.796
 30
0.0
 10
106.5715
 20
131.796
 30
0.0
 10
106.5715
 20
131.796
 30
0.0
 10
196.1477
 20
131.796
 30
0.0
 10
196.1477
 20
131.796
 30
0.0
 10
196.1477
 20
131.796
 30
0.0
 10
196.1477
 20
131.796
 30
0.0
 10
196.1477
 20
8.3904
 30
0.0
 10
196.1477
 20
8.3904
 30
0.0
 10
196.1477
 20
8.3904
 30
0.0
 10
196.1477
 20
8.3904
 30
0.0
 10
196.1477
 20
-115.0151
 30
0.0
 10
196.1477
 20
-115.0151
 30
0.0
 10
196.1477
 20
-115.0151
 30
0.0
 10
196.1477
 20
-115.0151
 30
0.0
 10
106.5715
 20
-115.0151
 30
0.0
 10
106.5715
 20
-115.0151
 30
0.0
 10
106.5715
 20
-115.0151
 30
0.0
 10
106.5715
 20
-115.0151
 30
0.0
 10
16.9952
 20
-115.0151
 30
0.0
 10
16.9952
 20
-115.0151
 30
0.0
 10
16.9952
 20
-115.0151
 30
0.0
 10
16.9952
 20
-115.0151
 30
0.0
 10
16.9952
 20
8.3904
 30
0.0
 10
16.9952
 20
8.3904
 30
0.0
  0
SPLINE
  5
42
330
1F
100
AcDbEntity
  8
layer 1
 62
     7
100
AcDbSpline
210
0.0
220
0.0
230
1.0
 70
    11
 71
     3
 72
    20
 73
    16
 74
     0
 42
0.0000000001
 43
0.0000000001
 12
1.0
 22
0.0
 32
0.0
 13
1.0
 23
0.0
 33
0.0
 40
0.0
 40
0.0
 40
0.0
 40
0.0
 40
0.2
 40
0.2
 40
0.2
 40
0.2
 40
0.4
 40
0.4
 40
0.4
 40
0.4
 40
0.6
 40
0.6
 40
0.6
 40
0.6
 40
1.0
 40
1.0
 40
1.0
 40
1.0
 10
45.8843
 20
-83.6867
 30
0.0
 10
40.439
 20
-78.9972
 30
0.0
 10
31.1767
 20
-80.8402
 30
0.0
 10
27.1991
 20
-85.8697
 30
0.0
 10
27.1991
 20
-85.8697
 30
0.0
 10
27.1991
 20
-85.8697
 30
0.0
 10
27.1991
 20
-104.8744
 30
0.0
 10
27.1991
 20
-104.8744
 30
0.0
 10
27.1991
 20
-104.8744
 30
0.0
 10
27.1991
 20
-104.8744
 30
0.0
 10
52.5088
 20
-104.8744
 30
0.0
 10
52.5088
 20
-104.8744
 30
0.0
 10
52.5088
 20
-104.8744
 30
0.0
 10
54.8527
 20
-97.1902
 30
0.0
 10
49.9875
 20
-87.8632
 30
0.0
 10
45.8843
 20
-83.6867
 30
0.0
  0
SPLINE
  5
43
330
1F
100
AcDbEntity
  8
layer 1
 62
     7
100
AcDbSpline
210
0.0
220
0.0
230
1.0
 70
    11
 71
     3
 72
    20
 73
    16
 74
     0
 42
0.0000000001
 43
0.0000000001
 12
1.0
 22
0.0
 32
0.0
 13
1.0
 23
0.0
 33
0.0
 40
0.0
 40
0.0
 40
0.0
 40
0.0
 40
0.2
 40
0.2
 40
0.2
 40
0.2
 40
0.4
 40
0.4
 40
0.4
 40
0.4
 40
0.6
 40
0.6
 40
0.6
 40
0.6
 40
1.0
 40
1.0
 40
1.0
 40
1.0
 10
57.7758
 20
-102.0421
 30
0.0
 10
57.1143
 20
-102.7546
 30
0.0
 10
56.7788
 20
-103.3999
 30
0.0
 10
56.5754
 20
-104.6309
 30
0.0
 10
56.5754
 20
-104.6309
 30
0.0
 10
56.5754
 20
-104.6309
 30
0.0
 10
60.0952
 20
-104.7892
 30
0.0
 10
60.0952
 20
-104.7892
 30
0.0
 10
60.0952
 20
-104.7892
 30
0.0
 10
58.7608
 20
-103.6414
 30
0.0
 10
58.7832
 20
-103.4137
 30
0.0
 10
57.7757
 20
-102.0422
 30
0.0
 10
57.7757
 20
-102.0422
 30
0.0
 10
57.7757
 20
-102.0422
 30
0.0
 10
57.7758
 20
-102.0421
 30
0.0
 10
57.7758
 20
-102.0421
 30
0.0
  0
SPLINE
  5
44
330
1F
100
AcDbEntity
  8
layer 1
 62
     7
100
AcDbSpline
210
0.0
220
0.0
230
1.0
 70
    11
 71
     3
 72
    32
 73
    28
 74
     0
 42
0.0000000001
 43
0.0000000001
 12
1.0
 22
0.0
 32
0.0
 13
1.0
 23
0.0
 33
0.0
 40
0.0
 40
0.0
 40
0.0
 40
0.0
 40
0.125
 40
0.125
 40
0.125
 40
0.125
 40
0.25
 40
0.25
 40
0.25
 40
0.25
 40
0.375
 40
0.375
 40
0.375
 40
0.375
 40
0.5
 40
0.5
 40
0.5
 40
0.5
 40
0.625
 40
0.625
 40
0.625
 40
0.625
 40
0.75
 40
0.75
 40
0.75
 40
0.75
 40
1.0
 40
1.0
 40
1.0
 40
1.0
 10
88.7543
 20
-99.3258
 30
0.0
 10
75.3679
 20
-94.748
 30
0.0
 10
66.3685
 20
-80.6955
 30
0.0
 10
64.785
 20
-68.6627
 30
0.0
 10
64.785
 20
-68.6627
 30
0.0
 10
55.4804
 20
-74.2011
 30
0.0
 10
57.2032
 20
-96.1038
 30
0.0
 10
61.2876
 20
-100.2685
 30
0.0
 10
61.2876
 20
-100.2685
 30
0.0
 10
61.7429
 20
-90.3441
 30
0.0
 10
66.4414
 20
-91.117
 30
0.0
 10
68.6519
 20
-85.0346
 30
0.0
 10
68.6519
 20
-85.0346
 30
0.0
 10
68.2979
 20
-93.4692
 30
0.0
 10
73.8013
 20
-94.5561
 30
0.0
 10
73.029
 20
-104.8743
 30
0.0
 10
73.029
 20
-104.8743
 30
0.0
 10
73.029
 20
-104.8743
 30
0.0
 10
85.6188
 20
-104.8743
 30
0.0
 10
85.6188
 20
-104.8743
 30
0.0
 10
85.6188
 20
-104.8743
 30
0.0
 10
87.1013
 20
-103.2399
 30
0.0
 10
88.0538
 20
-101.0463
 30
0.0
 10
88.7542
 20
-99.3258
 30
0.0
 10
88.7542
 20
-99.3258
 30
0.0
 10
88.7542
 20
-99.3258
 30
0.0
 10
88.7543
 20
-99.3258
 30
0.0
 10
88.7543
 20
-99.3258
 30
0.0
  0
SPLINE
  5
45
330
1F
100
AcDbEntity
  8
layer 1
 62
     7
100
AcDbSpline
210
0.0
220
0.0
230
1.0
 70
    11
 71
     3
 72
    24
 73
    20
 74
     0
 42
0.0000000001
 43
0.0000000001
 12
1.0
 22
0.0
 32
0.0
 13
1.0
 23
0.0
 33
0.0
 40
0.0
 40
0.0
 40
0.0
 40
0.0
 40
0.1666666666666667
 40
0.1666666666666667
 40
0.1666666666666667
 40
0.1666666666666667
 40
0.3333333333333333
 40
0.3333333333333333
 40
0.3333333333333333
 40
0.3333333333333333
 40
0.5
 40
0.5
 40
0.5
 40
0.5
 40
0.6666666666666666
 40
0.6666666666666666
 40
0.6666666666666666
 40
0.6666666666666666
 40
1.0
 40
1.0
 40
1.0
 40
1.0
 10
149.6073
 20
-104.3184
 30
0.0
 10
149.5483
 20
-99.8323
 30
0.0
 10
151.3787
 20
-94.5825
 30
0.0
 10
153.5711
 20
-91.5331
 30
0.0
 10
153.5711
 20
-91.5331
 30
0.0
 10
141.0307
 20
-96.3308
 30
0.0
 10
126.593
 20
-96.5006
 30
0.0
 10
116.9704
 20
-89.9619
 30
0.0
 10
116.9704
 20
-89.9619
 30
0.0
 10
110.8275
 20
-97.4112
 30
0.0
 10
104.209
 20
-99.824
 30
0.0
 10
92.7068
 20
-99.8853
 30
0.0
 10
92.7068
 20
-99.8853
 30
0.0
 10
92.172
 20
-101.7991
 30
0.0
 10
91.5739
 20
-103.1876
 30
0.0
 10
90.7154
 20
-104.8743
 30
0.0
 10
90.7154
 20
-104.8743
 30
0.0
 10
90.7154
 20
-104.8743
 30
0.0
 10
149.6073
 20
-104.3184
 30
0.0
 10
149.6073
 20
-104.3184
 30
0.0
  0
SPLINE
  5
46
330
1F
100
AcDbEntity
  8
layer 1
 62
     7
100
AcDbSpline
210
0.0
220
0.0
230
1.0
 70
    11
 71
     3
 72
    32
 73
    28
 74
     0
 42
0.0000000001
 43
0.0000000001
 12
1.0
 22
0.0
 32
0.0
 13
1.0
 23
0.0
 33
0.0
 40
0.0
 40
0.0
 40
0.0
 40
0.0
 40
0.125
 40
0.125
 40
0.125
 40
0.125
 40
0.25
 40
0.25
 40
0.25
 40
0.25
 40
0.375
 40
0.375
 40
0.375
 40
0.375
 40
0.5
 40
0.5
 40
0.5
 40
0.5
 40
0.625
 40
0.625
 40
0.625
 40
0.625
 40
0.75
 40
0.75
 40
0.75
 40
0.75
 40
1.0
 40
1.0
 40
1.0
 40
1.0
 10
186.0307
 20
-83.6189
 30
0.0
 10
180.6124
 20
-81.4867
 30
0.0
 10
175.0132
 20
-81.8812
 30
0.0
 10
169.4232
 20
-83.6408
 30
0.0
 10
169.4232
 20
-83.6408
 30
0.0
 10
175.494
 20
-88.1247
 30
0.0
 10
174.8618
 20
-99.3403
 30
0.0
 10
167.1984
 20
-103.4877
 30
0.0
 10
167.1984
 20
-103.4877
 30
0.0
 10
166.3346
 20
-103.9344
 30
0.0
 10
166.2187
 20
-103.9134
 30
0.0
 10
165.1808
 20
-103.1217
 30
0.0
 10
165.1808
 20
-103.1217
 30
0.0
 10
161.3753
 20
-99.3953
 30
0.0
 10
160.4281
 20
-93.4668
 30
0.0
 10
162.0901
 20
-88.4535
 30
0.0
 10
162.0901
 20
-88.4535
 30
0.0
 10
157.6575
 20
-90.2113
 30
0.0
 10
154.0866
 20
-97.5291
 30
0.0
 10
153.7948
 20
-104.5791
 30
0.0
 10
153.7948
 20
-104.5791
 30
0.0
 10
153.7948
 20
-104.5791
 30
0.0
 10
185.8633
 20
-104.7156
 30
0.0
 10
185.8633
 20
-104.7156
 30
0.0
 10
185.8633
 20
-104.7156
 30
0.0
 10
185.8633
 20
-104.7156
 30
0.0
 10
186.0307
 20
-83.6189
 30
0.0
 10
186.0307
 20
-83.6189
 30
0.0
  0
SPLINE
  5
47
330
1F
100
AcDbEntity
  8
layer 1
 62
     7
100
AcDbSpline
210
0.0
220
0.0
230
1.0
 70
    11
 71
     3
 72
    92
 73
    88
 74
     0
 42
0.0000000001
 43
0.0000000001
 12
1.0
 22
0.0
 32
0.0
 13
1.0
 23
0.0
 33
0.0
 40
0.0
 40
0.0
 40
0.0
 40
0.0
 40
0.0434782608695652
 40
0.0434782608695652
 40
0.0434782608695652
 40
0.0434782608695652
 40
0.0869565217391304
 40
0.0869565217391304
 40
0.0869565217391304
 40
0.0869565217391304
 40
0.1304347826086956
 40
0.1304347826086956
 40
0.1304347826086956
 40
0.1304347826086956
 40
0.1739130434782609
 40
0.1739130434782609
 40
0.1739130434782609
 40
0.1739130434782609
 40
0.2173913043478261
 40
0.2173913043478261
 40
0.2173913043478261
 40
0.2173913043478261
 40
0.2608695652173913
 40
0.2608695652173913
 40
0.2608695652173913
 40
0.2608695652173913
 40
0.3043478260869565
 40
0.3043478260869565
 40
0.3043478260869565
 40
0.3043478260869565
 40
0.3478260869565217
 40
0.3478260869565217
 40
0.3478260869565217
 40
0.3478260869565217
 40
0.391304347826087
 40
0.391304347826087
 40
0.391304347826087
 40
0.391304347826087
 40
0.4347826086956522
 40
0.4347826086956522
 40
0.4347826086956522
 40
0.4347826086956522
 40
0.4782608695652174
 40
0.4782608695652174
 40
0.4782608695652174
 40
0.4782608695652174
 40
0.5217391304347826
 40
0.5217391304347826
 40
0.5217391304347826
 40
0.5217391304347826
 40
0.5652173913043478
 40
0.5652173913043478
 40
0.5652173913043478
 40
0.5652173913043478
 40
0.6086956521739131
 40
0.6086956521739131
 40
0.6086956521739131
 40
0.6086956521739131
 40
0.6521739130434783
 40
0.6521739130434783
 40
0.6521739130434783
 40
0.6521739130434783
 40
0.6956521739130435
 40
0.6956521739130435
 40
0.6956521739130435
 40
0.6956521739130435
 40
0.7391304347826086
 40
0.7391304347826086
 40
0.7391304347826086
 40
0.7391304347826086
 40
0.782608695652174
 40
0.782608695652174
 40
0.782608695652174
 40
0.782608695652174
 40
0.8260869565217391
 40
0.8260869565217391
 40
0.8260869565217391
 40
0.8260869565217391
 40
0.8695652173913043
 40
0.8695652173913043
 40
0.8695652173913043
 40
0.8695652173913043
 40
0.9130434782608695
 40
0.9130434782608695
 40
0.9130434782608695
 40
0.9130434782608695
 40
1.0
 40
1.0
 40
1.0
 40
1.0
 10
117.1183
 20
-76.1722
 30
0.0
 10
117.3978
 20
-64.2173
 30
0.0
 10
104.1463
 20
-56.3555
 30
0.0
 10
96.5309
 20
-63.9957
 30
0.0
 10
96.5309
 20
-63.9957
 30
0.0
 10
93.113
 20
-67.4625
 30
0.0
 10
91.8231
 20
-73.4814
 30
0.0
 10
93.4374
 20
-76.6039
 30
0.0
 10
93.4374
 20
-76.6039
 30
0.0
 10
95.2337
 20
-80.4526
 30
0.0
 10
99.2885
 20
-80.1938
 30
0.0
 10
102.5922
 20
-78.8134
 30
0.0
 10
102.5922
 20
-78.8134
 30
0.0
 10
102.5922
 20
-78.8134
 30
0.0
 10
101.6338
 20
-77.788
 30
0.0
 10
101.6338
 20
-77.788
 30
0.0
 10
101.6338
 20
-77.788
 30
0.0
 10
98.8138
 20
-74.7711
 30
0.0
 10
99.6774
 20
-70.4353
 30
0.0
 10
103.4751
 20
-68.5429
 30
0.0
 10
103.4751
 20
-68.5429
 30
0.0
 10
108.0517
 20
-66.2623
 30
0.0
 10
113.2924
 20
-69.1646
 30
0.0
 10
113.2758
 20
-73.9706
 30
0.0
 10
113.2758
 20
-73.9706
 30
0.0
 10
113.2662
 20
-76.7832
 30
0.0
 10
111.314
 20
-79.069
 30
0.0
 10
108.2663
 20
-79.8364
 30
0.0
 10
108.2663
 20
-79.8364
 30
0.0
 10
107.5006
 20
-80.0292
 30
0.0
 10
106.802
 20
-80.3746
 30
0.0
 10
106.714
 20
-80.6039
 30
0.0
 10
106.714
 20
-80.6039
 30
0.0
 10
106.4191
 20
-81.3724
 30
0.0
 10
103.5918
 20
-82.9295
 30
0.0
 10
101.5338
 20
-83.4567
 30
0.0
 10
101.5338
 20
-83.4567
 30
0.0
 10
96.4821
 20
-84.7509
 30
0.0
 10
91.2115
 20
-82.1272
 30
0.0
 10
89.4979
 20
-77.4654
 30
0.0
 10
89.4979
 20
-77.4654
 30
0.0
 10
87.1921
 20
-71.1925
 30
0.0
 10
91.149
 20
-62.2675
 30
0.0
 10
97.6574
 20
-59.0611
 30
0.0
 10
97.6574
 20
-59.0611
 30
0.0
 10
107.749
 20
-54.7953
 30
0.0
 10
117.1499
 20
-60.5068
 30
0.0
 10
120.4712
 20
-71.8851
 30
0.0
 10
120.4712
 20
-71.8851
 30
0.0
 10
122.5659
 20
-69.7843
 30
0.0
 10
124.0343
 20
-66.9349
 30
0.0
 10
124.4471
 20
-64.6288
 30
0.0
 10
124.4471
 20
-64.6288
 30
0.0
 10
124.031
 20
-46.5818
 30
0.0
 10
104.4267
 20
-37.999
 30
0.0
 10
93.1554
 20
-39.0381
 30
0.0
 10
93.1554
 20
-39.0381
 30
0.0
 10
94.8429
 20
-41.7036
 30
0.0
 10
96.4969
 20
-44.8767
 30
0.0
 10
96.6945
 20
-47.547
 30
0.0
 10
96.6945
 20
-47.547
 30
0.0
 10
96.2225
 20
-53.3857
 30
0.0
 10
92.3275
 20
-53.9459
 30
0.0
 10
90.2186
 20
-63.7597
 30
0.0
 10
90.2186
 20
-63.7597
 30
0.0
 10
87.4268
 20
-53.4086
 30
0.0
 10
78.0001
 20
-57.7904
 30
0.0
 10
88.8221
 20
-40.2408
 30
0.0
 10
88.8221
 20
-40.2408
 30
0.0
 10
81.9377
 20
-42.4153
 30
0.0
 10
69.0159
 20
-52.3882
 30
0.0
 10
66.5657
 20
-56.8797
 30
0.0
 10
66.5657
 20
-56.8797
 30
0.0
 10
66.7255
 20
-63.561
 30
0.0
 10
70.0897
 20
-74.3219
 30
0.0
 10
73.4612
 20
-81.1601
 30
0.0
 10
73.4612
 20
-81.1601
 30
0.0
 10
79.341
 20
-90.6914
 30
0.0
 10
85.8247
 20
-95.7384
 30
0.0
 10
95.3338
 20
-95.5187
 30
0.0
 10
95.3338
 20
-95.5187
 30
0.0
 10
106.3799
 20
-95.6908
 30
0.0
 10
116.5763
 20
-87.0915
 30
0.0
 10
117.118
 20
-76.1722
 30
0.0
 10
117.118
 20
-76.1722
 30
0.0
 10
117.118
 20
-76.1722
 30
0.0
 10
117.1183
 20
-76.1722
 30
0.0
 10
117.1183
 20
-76.1722
 30
0.0
  0
SPLINE
  5
48
330
1F
100
AcDbEntity
  8
layer 1
 62
     7
100
AcDbSpline
210
0.0
220
0.0
230
1.0
 70
    11
 71
     3
 72
    52
 73
    48
 74
     0
 42
0.0000000001
 43
0.0000000001
 12
1.0
 22
0.0
 32
0.0
 13
1.0
 23
0.0
 33
0.0
 40
0.0
 40
0.0
 40
0.0
 40
0.0
 40
0.0769230769230769
 40
0.0769230769230769
 40
0.0769230769230769
 40
0.0769230769230769
 40
0.1538461538461539
 40
0.1538461538461539
 40
0.1538461538461539
 40
0.1538461538461539
 40
0.2307692307692308
 40
0.2307692307692308
 40
0.2307692307692308
 40
0.2307692307692308
 40
0.3076923076923077
 40
0.3076923076923077
 40
0.3076923076923077
 40
0.3076923076923077
 40
0.3846153846153846
 40
0.3846153846153846
 40
0.3846153846153846
 40
0.3846153846153846
 40
0.4615384615384616
 40
0.4615384615384616
 40
0.4615384615384616
 40
0.4615384615384616
 40
0.5384615384615384
 40
0.5384615384615384
 40
0.5384615384615384
 40
0.5384615384615384
 40
0.6153846153846154
 40
0.6153846153846154
 40
0.6153846153846154
 40
0.6153846153846154
 40
0.6923076923076923
 40
0.6923076923076923
 40
0.6923076923076923
 40
0.6923076923076923
 40
0.7692307692307693
 40
0.7692307692307693
 40
0.7692307692307693
 40
0.7692307692307693
 40
0.8461538461538461
 40
0.8461538461538461
 40
0.8461538461538461
 40
0.8461538461538461
 40
1.0
 40
1.0
 40
1.0
 40
1.0
 10
142.06
 20
-90.2572
 30
0.0
 10
157.0216
 20
-87.6994
 30
0.0
 10
168.6678
 20
-80.1676
 30
0.0
 10
171.4151
 20
-71.2727
 30
0.0
 10
171.4151
 20
-71.2727
 30
0.0
 10
172.3031
 20
-68.398
 30
0.0
 10
172.2459
 20
-64.3247
 30
0.0
 10
171.2228
 20
-57.5451
 30
0.0
 10
171.2228
 20
-57.5451
 30
0.0
 10
170.1922
 20
-50.7166
 30
0.0
 10
170.296
 20
-51.0755
 30
0.0
 10
169.4212
 20
-51.3138
 30
0.0
 10
169.4212
 20
-51.3138
 30
0.0
 10
163.5742
 20
-52.7129
 30
0.0
 10
159.8568
 20
-52.3772
 30
0.0
 10
154.5798
 20
-51.1922
 30
0.0
 10
154.5798
 20
-51.1922
 30
0.0
 10
156.9489
 20
-66.0257
 30
0.0
 10
140.191
 20
-74.5357
 30
0.0
 10
129.5025
 20
-65.3533
 30
0.0
 10
129.5025
 20
-65.3533
 30
0.0
 10
128.8355
 20
-64.5496
 30
0.0
 10
128.6157
 20
-64.7469
 30
0.0
 10
128.2035
 20
-66.5185
 30
0.0
 10
128.2035
 20
-66.5185
 30
0.0
 10
126.7075
 20
-71.2128
 30
0.0
 10
125.1302
 20
-73.6556
 30
0.0
 10
121.2222
 20
-76.6163
 30
0.0
 10
121.2222
 20
-76.6163
 30
0.0
 10
121.2948
 20
-79.6097
 30
0.0
 10
120.9013
 20
-82.9
 30
0.0
 10
119.7849
 20
-85.3107
 30
0.0
 10
119.7849
 20
-85.3107
 30
0.0
 10
119.7849
 20
-85.3107
 30
0.0
 10
119.2084
 20
-86.5255
 30
0.0
 10
119.2084
 20
-86.5255
 30
0.0
 10
119.2084
 20
-86.5255
 30
0.0
 10
119.2084
 20
-86.5255
 30
0.0
 10
119.977
 20
-87.1276
 30
0.0
 10
119.977
 20
-87.1276
 30
0.0
 10
119.977
 20
-87.1276
 30
0.0
 10
124.2993
 20
-90.5135
 30
0.0
 10
133.1898
 20
-91.7735
 30
0.0
 10
142.0598
 20
-90.2571
 30
0.0
 10
142.0598
 20
-90.2571
 30
0.0
 10
142.0598
 20
-90.2571
 30
0.0
 10
142.06
 20
-90.2572
 30
0.0
 10
142.06
 20
-90.2572
 30
0.0
  0
SPLINE
  5
49
330
1F
100
AcDbEntity
  8
layer 1
 62
     7
100
AcDbSpline
210
0.0
220
0.0
230
1.0
 70
    11
 71
     3
 72
    24
 73
    20
 74
     0
 42
0.0000000001
 43
0.0000000001
 12
1.0
 22
0.0
 32
0.0
 13
1.0
 23
0.0
 33
0.0
 40
0.0
 40
0.0
 40
0.0
 40
0.0
 40
0.1666666666666667
 40
0.1666666666666667
 40
0.1666666666666667
 40
0.1666666666666667
 40
0.3333333333333333
 40
0.3333333333333333
 40
0.3333333333333333
 40
0.3333333333333333
 40
0.5
 40
0.5
 40
0.5
 40
0.5
 40
0.6666666666666666
 40
0.6666666666666666
 40
0.6666666666666666
 40
0.6666666666666666
 40
1.0
 40
1.0
 40
1.0
 40
1.0
 10
55.6472
 20
-73.1834
 30
0.0
 10
53.4166
 20
-74.1212
 30
0.0
 10
51.4071
 20
-74.4483
 30
0.0
 10
49.0742
 20
-73.9638
 30
0.0
 10
49.0742
 20
-73.9638
 30
0.0
 10
48.026
 20
-75.6084
 30
0.0
 10
46.4055
 20
-76.8319
 30
0.0
 10
44.6438
 20
-77.9643
 30
0.0
 10
44.6438
 20
-77.9643
 30
0.0
 10
48.424
 20
-80.0336
 30
0.0
 10
50.8593
 20
-82.4694
 30
0.0
 10
53.4047
 20
-86.9272
 30
0.0
 10
53.4047
 20
-86.9272
 30
0.0
 10
53.7516
 20
-81.3097
 30
0.0
 10
54.1324
 20
-77.8202
 30
0.0
 10
55.6471
 20
-73.1833
 30
0.0
 10
55.6471
 20
-73.1833
 30
0.0
 10
55.6471
 20
-73.1833
 30
0.0
 10
55.6472
 20
-73.1834
 30
0.0
 10
55.6472
 20
-73.1834
 30
0.0
  0
SPLINE
  5
4A
330
1F
100
AcDbEntity
  8
layer 1
 62
     7
100
AcDbSpline
210
0.0
220
0.0
230
1.0
 70
    11
 71
     3
 72
    16
 73
    12
 74
     0
 42
0.0000000001
 43
0.0000000001
 12
1.0
 22
0.0
 32
0.0
 13
1.0
 23
0.0
 33
0.0
 40
0.0
 40
0.0
 40
0.0
 40
0.0
 40
0.25
 40
0.25
 40
0.25
 40
0.25
 40
0.5
 40
0.5
 40
0.5
 40
0.5
 40
1.0
 40
1.0
 40
1.0
 40
1.0
 10
31.5904
 20
-77.2096
 30
0.0
 10
29.8972
 20
-75.9921
 30
0.0
 10
28.7367
 20
-74.7973
 30
0.0
 10
27.1989
 20
-73.3307
 30
0.0
 10
27.1989
 20
-73.3307
 30
0.0
 10
27.1989
 20
-73.3307
 30
0.0
 10
27.3263
 20
-80.098
 30
0.0
 10
27.3263
 20
-80.098
 30
0.0
 10
27.3263
 20
-80.098
 30
0.0
 10
28.4356
 20
-78.8827
 30
0.0
 10
29.911
 20
-78.046
 30
0.0
 10
31.5904
 20
-77.2096
 30
0.0
  0
SPLINE
  5
4B
330
1F
100
AcDbEntity
  8
layer 1
 62
     7
100
AcDbSpline
210
0.0
220
0.0
230
1.0
 70
    11
 71
     3
 72
    24
 73
    20
 74
     0
 42
0.0000000001
 43
0.0000000001
 12
1.0
 22
0.0
 32
0.0
 13
1.0
 23
0.0
 33
0.0
 40
0.0
 40
0.0
 40
0.0
 40
0.0
 40
0.1666666666666667
 40
0.1666666666666667
 40
0.1666666666666667
 40
0.1666666666666667
 40
0.3333333333333333
 40
0.3333333333333333
 40
0.3333333333333333
 40
0.3333333333333333
 40
0.5
 40
0.5
 40
0.5
 40
0.5
 40
0.6666666666666666
 40
0.6666666666666666
 40
0.6666666666666666
 40
0.6666666666666666
 40
1.0
 40
1.0
 40
1.0
 40
1.0
 10
185.8633
 20
-36.104
 30
0.0
 10
183.7303
 20
-41.3952
 30
0.0
 10
179.6624
 20
-45.6424
 30
0.0
 10
175.7596
 20
-48.1866
 30
0.0
 10
175.7596
 20
-48.1866
 30
0.0
 10
173.9432
 20
-49.3341
 30
0.0
 10
173.9369
 20
-49.408
 30
0.0
 10
175.0733
 20
-56.1264
 30
0.0
 10
175.0733
 20
-56.1264
 30
0.0
 10
176.5481
 20
-65.1545
 30
0.0
 10
175.8968
 20
-71.4407
 30
0.0
 10
172.4312
 20
-78.5482
 30
0.0
 10
172.4312
 20
-78.5482
 30
0.0
 10
176.4297
 20
-77.3804
 30
0.0
 10
181.7916
 20
-77.4373
 30
0.0
 10
185.7861
 20
-79.1626
 30
0.0
 10
185.7861
 20
-79.1626
 30
0.0
 10
185.7861
 20
-79.1626
 30
0.0
 10
185.8633
 20
-36.104
 30
0.0
 10
185.8633
 20
-36.104
 30
0.0
  0
SPLINE
  5
4C
330
1F
100
AcDbEntity
  8
layer 1
 62
     7
100
AcDbSpline
210
0.0
220
0.0
230
1.0
 70
    11
 71
     3
 72
    56
 73
    52
 74
     0
 42
0.0000000001
 43
0.0000000001
 12
1.0
 22
0.0
 32
0.0
 13
1.0
 23
0.0
 33
0.0
 40
0.0
 40
0.0
 40
0.0
 40
0.0
 40
0.0714285714285714
 40
0.0714285714285714
 40
0.0714285714285714
 40
0.0714285714285714
 40
0.1428571428571428
 40
0.1428571428571428
 40
0.1428571428571428
 40
0.1428571428571428
 40
0.2142857142857143
 40
0.2142857142857143
 40
0.2142857142857143
 40
0.2142857142857143
 40
0.2857142857142857
 40
0.2857142857142857
 40
0.2857142857142857
 40
0.2857142857142857
 40
0.3571428571428572
 40
0.3571428571428572
 40
0.3571428571428572
 40
0.3571428571428572
 40
0.4285714285714285
 40
0.4285714285714285
 40
0.4285714285714285
 40
0.4285714285714285
 40
0.5
 40
0.5
 40
0.5
 40
0.5
 40
0.5714285714285714
 40
0.5714285714285714
 40
0.5714285714285714
 40
0.5714285714285714
 40
0.6428571428571429
 40
0.6428571428571429
 40
0.6428571428571429
 40
0.6428571428571429
 40
0.7142857142857143
 40
0.7142857142857143
 40
0.7142857142857143
 40
0.7142857142857143
 40
0.7857142857142857
 40
0.7857142857142857
 40
0.7857142857142857
 40
0.7857142857142857
 40
0.8571428571428571
 40
0.8571428571428571
 40
0.8571428571428571
 40
0.8571428571428571
 40
1.0
 40
1.0
 40
1.0
 40
1.0
 10
45.4601
 20
-70.3559
 30
0.0
 10
43.9827
 20
-67.5233
 30
0.0
 10
46.0648
 20
-63.2402
 30
0.0
 10
49.3647
 20
-62.3237
 30
0.0
 10
49.3647
 20
-62.3237
 30
0.0
 10
54.6541
 20
-60.8972
 30
0.0
 10
57.7122
 20
-63.4457
 30
0.0
 10
58.5199
 20
-68.3449
 30
0.0
 10
58.5199
 20
-68.3449
 30
0.0
 10
60.082
 20
-67.3792
 30
0.0
 10
61.1417
 20
-65.8142
 30
0.0
 10
62.9844
 20
-65.1071
 30
0.0
 10
62.9844
 20
-65.1071
 30
0.0
 10
64.1035
 20
-64.7023
 30
0.0
 10
64.1072
 20
-64.6947
 30
0.0
 10
63.9067
 20
-63.1835
 30
0.0
 10
63.9067
 20
-63.1835
 30
0.0
 10
63.5953
 20
-60.8357
 30
0.0
 10
62.2458
 20
-56.478
 30
0.0
 10
61.1064
 20
-54.1402
 30
0.0
 10
61.1064
 20
-54.1402
 30
0.0
 10
57.1099
 20
-45.7947
 30
0.0
 10
44.5519
 20
-43.8244
 30
0.0
 10
38.6343
 20
-48.9422
 30
0.0
 10
38.6343
 20
-48.9422
 30
0.0
 10
40.7053
 20
-50.3334
 30
0.0
 10
43.1348
 20
-51.7849
 30
0.0
 10
44.1684
 20
-53.8031
 30
0.0
 10
44.1684
 20
-53.8031
 30
0.0
 10
46.346
 20
-58.5862
 30
0.0
 10
43.5036
 20
-60.5947
 30
0.0
 10
43.8671
 20
-65.668
 30
0.0
 10
43.8671
 20
-65.668
 30
0.0
 10
44.1147
 20
-68.9094
 30
0.0
 10
44.175
 20
-70.4175
 30
0.0
 10
38.2201
 20
-64.6029
 30
0.0
 10
38.2201
 20
-64.6029
 30
0.0
 10
34.3319
 20
-60.8516
 30
0.0
 10
32.4265
 20
-61.74
 30
0.0
 10
31.7134
 20
-55.2482
 30
0.0
 10
31.7134
 20
-55.2482
 30
0.0
 10
27.112
 20
-60.1819
 30
0.0
 10
28.3165
 20
-68.0456
 30
0.0
 10
31.5508
 20
-71.8429
 30
0.0
 10
31.5508
 20
-71.8429
 30
0.0
 10
35.236
 20
-75.947
 30
0.0
 10
41.9627
 20
-75.938
 30
0.0
 10
44.9702
 20
-72.4478
 30
0.0
 10
44.9702
 20
-72.4478
 30
0.0
 10
46.244
 20
-71.1341
 30
0.0
 10
45.6636
 20
-70.7462
 30
0.0
 10
45.4601
 20
-70.3559
 30
0.0
  0
SPLINE
  5
4D
330
1F
100
AcDbEntity
  8
layer 1
 62
     7
100
AcDbSpline
210
0.0
220
0.0
230
1.0
 70
    11
 71
     3
 72
    44
 73
    40
 74
     0
 42
0.0000000001
 43
0.0000000001
 12
1.0
 22
0.0
 32
0.0
 13
1.0
 23
0.0
 33
0.0
 40
0.0
 40
0.0
 40
0.0
 40
0.0
 40
0.0909090909090909
 40
0.0909090909090909
 40
0.0909090909090909
 40
0.0909090909090909
 40
0.1818181818181818
 40
0.1818181818181818
 40
0.1818181818181818
 40
0.1818181818181818
 40
0.2727272727272727
 40
0.2727272727272727
 40
0.2727272727272727
 40
0.2727272727272727
 40
0.3636363636363636
 40
0.3636363636363636
 40
0.3636363636363636
 40
0.3636363636363636
 40
0.4545454545454545
 40
0.4545454545454545
 40
0.4545454545454545
 40
0.4545454545454545
 40
0.5454545454545454
 40
0.5454545454545454
 40
0.5454545454545454
 40
0.5454545454545454
 40
0.6363636363636364
 40
0.6363636363636364
 40
0.6363636363636364
 40
0.6363636363636364
 40
0.7272727272727273
 40
0.7272727272727273
 40
0.7272727272727273
 40
0.7272727272727273
 40
0.8181818181818182
 40
0.8181818181818182
 40
0.8181818181818182
 40
0.8181818181818182
 40
1.0
 40
1.0
 40
1.0
 40
1.0
 10
142.0408
 20
-64.044
 30
0.0
 10
146.4377
 20
-62.9075
 30
0.0
 10
149.499
 20
-59.4982
 30
0.0
 10
150.216
 20
-54.9392
 30
0.0
 10
150.216
 20
-54.9392
 30
0.0
 10
150.216
 20
-54.9392
 30
0.0
 10
150.401
 20
-53.7628
 30
0.0
 10
150.401
 20
-53.7628
 30
0.0
 10
150.401
 20
-53.7628
 30
0.0
 10
146.8825
 20
-60.1207
 30
0.0
 10
139.8504
 20
-56.9238
 30
0.0
 10
135.4195
 20
-55.9694
 30
0.0
 10
135.4195
 20
-55.9694
 30
0.0
 10
142.7304
 20
-49.4849
 30
0.0
 10
137.9714
 20
-44.7412
 30
0.0
 10
144.9958
 20
-43.2284
 30
0.0
 10
144.9958
 20
-43.2284
 30
0.0
 10
146.6183
 20
-42.7423
 30
0.0
 10
146.3927
 20
-42.3488
 30
0.0
 10
143.717
 20
-40.998
 30
0.0
 10
143.717
 20
-40.998
 30
0.0
 10
137.6892
 20
-38.7242
 30
0.0
 10
134.5229
 20
-37.8559
 30
0.0
 10
130.2598
 20
-42.1392
 30
0.0
 10
130.2598
 20
-42.1392
 30
0.0
 10
130.2598
 20
-42.1392
 30
0.0
 10
129.5098
 20
-47.5565
 30
0.0
 10
129.5098
 20
-47.5565
 30
0.0
 10
129.5098
 20
-47.5565
 30
0.0
 10
128.2691
 20
-56.5185
 30
0.0
 10
128.7941
 20
-59.7881
 30
0.0
 10
131.848
 20
-62.1174
 30
0.0
 10
131.848
 20
-62.1174
 30
0.0
 10
134.7648
 20
-64.3421
 30
0.0
 10
138.3012
 20
-65.0105
 30
0.0
 10
142.041
 20
-64.0438
 30
0.0
 10
142.041
 20
-64.0438
 30
0.0
 10
142.041
 20
-64.0438
 30
0.0
 10
142.0408
 20
-64.044
 30
0.0
 10
142.0408
 20
-64.044
 30
0.0
  0
SPLINE
  5
4E
330
1F
100
AcDbEntity
  8
layer 1
 62
     7
100
AcDbSpline
210
0.0
220
0.0
230
1.0
 70
    11
 71
     3
 72
    20
 73
    16
 74
     0
 42
0.0000000001
 43
0.0000000001
 12
1.0
 22
0.0
 32
0.0
 13
1.0
 23
0.0
 33
0.0
 40
0.0
 40
0.0
 40
0.0
 40
0.0
 40
0.2
 40
0.2
 40
0.2
 40
0.2
 40
0.4
 40
0.4
 40
0.4
 40
0.4
 40
0.6
 40
0.6
 40
0.6
 40
0.6
 40
1.0
 40
1.0
 40
1.0
 40
1.0
 10
39.1886
 20
-44.1674
 30
0.0
 10
35.4379
 20
-35.9896
 30
0.0
 10
34.5057
 20
-24.6787
 30
0.0
 10
37.5633
 20
-17.2978
 30
0.0
 10
37.5633
 20
-17.2978
 30
0.0
 10
33.8907
 20
-19.8831
 30
0.0
 10
30.5075
 20
-22.8205
 30
0.0
 10
27.1989
 20
-25.8443
 30
0.0
 10
27.1989
 20
-25.8443
 30
0.0
 10
27.1989
 20
-25.8443
 30
0.0
 10
27.3136
 20
-54.6863
 30
0.0
 10
27.3136
 20
-54.6863
 30
0.0
 10
27.3136
 20
-54.6863
 30
0.0
 10
30.3177
 20
-49.1644
 30
0.0
 10
34.0316
 20
-46.3152
 30
0.0
 10
39.1886
 20
-44.1674
 30
0.0
  0
SPLINE
  5
4F
330
1F
100
AcDbEntity
  8
layer 1
 62
     7
100
AcDbSpline
210
0.0
220
0.0
230
1.0
 70
    11
 71
     3
 72
    68
 73
    64
 74
     0
 42
0.0000000001
 43
0.0000000001
 12
1.0
 22
0.0
 32
0.0
 13
1.0
 23
0.0
 33
0.0
 40
0.0
 40
0.0
 40
0.0
 40
0.0
 40
0.0588235294117647
 40
0.0588235294117647
 40
0.0588235294117647
 40
0.0588235294117647
 40
0.1176470588235294
 40
0.1176470588235294
 40
0.1176470588235294
 40
0.1176470588235294
 40
0.1764705882352941
 40
0.1764705882352941
 40
0.1764705882352941
 40
0.1764705882352941
 40
0.2352941176470588
 40
0.2352941176470588
 40
0.2352941176470588
 40
0.2352941176470588
 40
0.2941176470588235
 40
0.2941176470588235
 40
0.2941176470588235
 40
0.2941176470588235
 40
0.3529411764705883
 40
0.3529411764705883
 40
0.3529411764705883
 40
0.3529411764705883
 40
0.4117647058823529
 40
0.4117647058823529
 40
0.4117647058823529
 40
0.4117647058823529
 40
0.4705882352941176
 40
0.4705882352941176
 40
0.4705882352941176
 40
0.4705882352941176
 40
0.5294117647058824
 40
0.5294117647058824
 40
0.5294117647058824
 40
0.5294117647058824
 40
0.5882352941176471
 40
0.5882352941176471
 40
0.5882352941176471
 40
0.5882352941176471
 40
0.6470588235294118
 40
0.6470588235294118
 40
0.6470588235294118
 40
0.6470588235294118
 40
0.7058823529411765
 40
0.7058823529411765
 40
0.7058823529411765
 40
0.7058823529411765
 40
0.7647058823529411
 40
0.7647058823529411
 40
0.7647058823529411
 40
0.7647058823529411
 40
0.8235294117647058
 40
0.8235294117647058
 40
0.8235294117647058
 40
0.8235294117647058
 40
0.8823529411764706
 40
0.8823529411764706
 40
0.8823529411764706
 40
0.8823529411764706
 40
1.0
 40
1.0
 40
1.0
 40
1.0
 10
93.3657
 20
-26.2946
 30
0.0
 10
91.9937
 20
-26.8229
 30
0.0
 10
84.7186
 20
-27.8125
 30
0.0
 10
82.8524
 20
-27.4123
 30
0.0
 10
82.8524
 20
-27.4123
 30
0.0
 10
81.2961
 20
-27.0786
 30
0.0
 10
81.0994
 20
-27.1074
 30
0.0
 10
79.9988
 20
-27.8311
 30
0.0
 10
79.9988
 20
-27.8311
 30
0.0
 10
77.0781
 20
-29.7514
 30
0.0
 10
73.4182
 20
-29.4349
 30
0.0
 10
71.0399
 20
-27.0566
 30
0.0
 10
71.0399
 20
-27.0566
 30
0.0
 10
68.5388
 20
-24.0553
 30
0.0
 10
69.2297
 20
-19.3393
 30
0.0
 10
72.7496
 20
-17.6467
 30
0.0
 10
72.7496
 20
-17.6467
 30
0.0
 10
76.8638
 20
-15.731
 30
0.0
 10
81.29
 20
-17.5728
 30
0.0
 10
82.4824
 20
-21.6967
 30
0.0
 10
82.4824
 20
-21.6967
 30
0.0
 10
82.9659
 20
-23.3693
 30
0.0
 10
82.998
 20
-23.4014
 30
0.0
 10
84.3894
 20
-23.6035
 30
0.0
 10
84.3894
 20
-23.6035
 30
0.0
 10
88.2155
 20
-23.8176
 30
0.0
 10
91.2553
 20
-22.8983
 30
0.0
 10
94.6224
 20
-21.5503
 30
0.0
 10
94.6224
 20
-21.5503
 30
0.0
 10
94.2535
 20
-13.73
 30
0.0
 10
89.7125
 20
-5.3855
 30
0.0
 10
83.9418
 20
-2.4436
 30
0.0
 10
83.9418
 20
-2.4436
 30
0.0
 10
74.1909
 20
1.811
 30
0.0
 10
59.4002
 20
-0.765
 30
0.0
 10
51.1132
 20
-6.7304
 30
0.0
 10
51.1132
 20
-6.7304
 30
0.0
 10
50.4145
 20
-7.2679
 30
0.0
 10
50.4253
 20
-7.2789
 30
0.0
 10
52.7822
 20
-8.4438
 30
0.0
 10
52.7822
 20
-8.4438
 30
0.0
 10
65.1524
 20
-13.8855
 30
0.0
 10
62.9865
 20
-26.3332
 30
0.0
 10
62.1789
 20
-35.1507
 30
0.0
 10
62.1789
 20
-35.1507
 30
0.0
 10
56.8884
 20
-26.4592
 30
0.0
 10
46.2505
 20
-31.2315
 30
0.0
 10
43.3221
 20
-14.9385
 30
0.0
 10
43.3221
 20
-14.9385
 30
0.0
 10
39.4393
 20
-20.78
 30
0.0
 10
39.2119
 20
-35.7845
 30
0.0
 10
43.8755
 20
-42.7139
 30
0.0
 10
43.8755
 20
-42.7139
 30
0.0
 10
52.6666
 20
-41.9616
 30
0.0
 10
59.2024
 20
-43.4756
 30
0.0
 10
64.6922
 20
-51.8205
 30
0.0
 10
64.6922
 20
-51.8205
 30
0.0
 10
70.4875
 20
-43.4249
 30
0.0
 10
81.5123
 20
-37.393
 30
0.0
 10
90.7282
 20
-35.5174
 30
0.0
 10
90.7282
 20
-35.5174
 30
0.0
 10
90.7282
 20
-35.5176
 30
0.0
 10
90.7422
 20
-30.2384
 30
0.0
 10
93.3657
 20
-26.2946
 30
0.0
  0
SPLINE
  5
50
330
1F
100
AcDbEntity
  8
layer 1
 62
     7
100
AcDbSpline
210
0.0
220
0.0
230
1.0
 70
    11
 71
     3
 72
    24
 73
    20
 74
     0
 42
0.0000000001
 43
0.0000000001
 12
1.0
 22
0.0
 32
0.0
 13
1.0
 23
0.0
 33
0.0
 40
0.0
 40
0.0
 40
0.0
 40
0.0
 40
0.1666666666666667
 40
0.1666666666666667
 40
0.1666666666666667
 40
0.1666666666666667
 40
0.3333333333333333
 40
0.3333333333333333
 40
0.3333333333333333
 40
0.3333333333333333
 40
0.5
 40
0.5
 40
0.5
 40
0.5
 40
0.6666666666666666
 40
0.6666666666666666
 40
0.6666666666666666
 40
0.6666666666666666
 40
1.0
 40
1.0
 40
1.0
 40
1.0
 10
120.295
 20
-26.3316
 30
0.0
 10
112.271
 20
-19.2956
 30
0.0
 10
96.722
 20
-22.1372
 30
0.0
 10
94.864
 20
-31.9354
 30
0.0
 10
94.864
 20
-31.9354
 30
0.0
 10
94.4007
 20
-34.7822
 30
0.0
 10
94.5569
 20
-34.9923
 30
0.0
 10
97.1368
 20
-34.9923
 30
0.0
 10
97.1368
 20
-34.9923
 30
0.0
 10
109.9654
 20
-35.4622
 30
0.0
 10
117.8334
 20
-42.0249
 30
0.0
 10
124.8762
 20
-50.8746
 30
0.0
 10
124.8762
 20
-50.8746
 30
0.0
 10
126.3772
 20
-41.7114
 30
0.0
 10
127.2588
 20
-32.9583
 30
0.0
 10
120.295
 20
-26.3317
 30
0.0
 10
120.295
 20
-26.3317
 30
0.0
 10
120.295
 20
-26.3317
 30
0.0
 10
120.295
 20
-26.3316
 30
0.0
 10
120.295
 20
-26.3316
 30
0.0
  0
SPLINE
  5
51
330
1F
100
AcDbEntity
  8
layer 1
 62
     7
100
AcDbSpline
210
0.0
220
0.0
230
1.0
 70
    11
 71
     3
 72
    56
 73
    52
 74
     0
 42
0.0000000001
 43
0.0000000001
 12
1.0
 22
0.0
 32
0.0
 13
1.0
 23
0.0
 33
0.0
 40
0.0
 40
0.0
 40
0.0
 40
0.0
 40
0.0714285714285714
 40
0.0714285714285714
 40
0.0714285714285714
 40
0.0714285714285714
 40
0.1428571428571428
 40
0.1428571428571428
 40
0.1428571428571428
 40
0.1428571428571428
 40
0.2142857142857143
 40
0.2142857142857143
 40
0.2142857142857143
 40
0.2142857142857143
 40
0.2857142857142857
 40
0.2857142857142857
 40
0.2857142857142857
 40
0.2857142857142857
 40
0.3571428571428572
 40
0.3571428571428572
 40
0.3571428571428572
 40
0.3571428571428572
 40
0.4285714285714285
 40
0.4285714285714285
 40
0.4285714285714285
 40
0.4285714285714285
 40
0.5
 40
0.5
 40
0.5
 40
0.5
 40
0.5714285714285714
 40
0.5714285714285714
 40
0.5714285714285714
 40
0.5714285714285714
 40
0.6428571428571429
 40
0.6428571428571429
 40
0.6428571428571429
 40
0.6428571428571429
 40
0.7142857142857143
 40
0.7142857142857143
 40
0.7142857142857143
 40
0.7142857142857143
 40
0.7857142857142857
 40
0.7857142857142857
 40
0.7857142857142857
 40
0.7857142857142857
 40
0.8571428571428571
 40
0.8571428571428571
 40
0.8571428571428571
 40
0.8571428571428571
 40
1.0
 40
1.0
 40
1.0
 40
1.0
 10
166.7588
 20
-47.8359
 30
0.0
 10
180.7306
 20
-45.0362
 30
0.0
 10
187.5718
 20
-29.3284
 30
0.0
 10
184.0345
 20
-14.9805
 30
0.0
 10
184.0345
 20
-14.9805
 30
0.0
 10
182.1724
 20
-8.0751
 30
0.0
 10
177.4331
 20
-2.7152
 30
0.0
 10
171.6311
 20
-0.9529
 30
0.0
 10
171.6311
 20
-0.9529
 30
0.0
 10
158.1693
 20
0.6687
 30
0.0
 10
144.0982
 20
-9.8572
 30
0.0
 10
137.4307
 20
-16.3921
 30
0.0
 10
137.4307
 20
-16.3921
 30
0.0
 10
137.2689
 20
-26.1873
 30
0.0
 10
133.4668
 20
-31.0804
 30
0.0
 10
130.1135
 20
-36.5206
 30
0.0
 10
130.1135
 20
-36.5206
 30
0.0
 10
136.3721
 20
-33.9633
 30
0.0
 10
141.6487
 20
-34.4285
 30
0.0
 10
147.12
 20
-38.1687
 30
0.0
 10
147.12
 20
-38.1687
 30
0.0
 10
143.3068
 20
-20.0642
 30
0.0
 10
164.0647
 20
-9.6886
 30
0.0
 10
173.3507
 20
-25.0408
 30
0.0
 10
173.3507
 20
-25.0408
 30
0.0
 10
173.9435
 20
-26.2636
 30
0.0
 10
174.9324
 20
-27.6751
 30
0.0
 10
175.6173
 20
-28.2764
 30
0.0
 10
175.6173
 20
-28.2764
 30
0.0
 10
177.4251
 20
-29.8631
 30
0.0
 10
178.1813
 20
-31.5553
 30
0.0
 10
178.0093
 20
-33.6294
 30
0.0
 10
178.0093
 20
-33.6294
 30
0.0
 10
177.4364
 20
-40.5385
 30
0.0
 10
166.5077
 20
-42.1795
 30
0.0
 10
163.512
 20
-35.8062
 30
0.0
 10
163.512
 20
-35.8062
 30
0.0
 10
161.5756
 20
-30.8149
 30
0.0
 10
165.4469
 20
-27.2351
 30
0.0
 10
169.5046
 20
-26.4615
 30
0.0
 10
169.5046
 20
-26.4615
 30
0.0
 10
163.8682
 20
-15.9899
 30
0.0
 10
151.3595
 20
-23.9157
 30
0.0
 10
151.1858
 20
-33.3015
 30
0.0
 10
151.1858
 20
-33.3015
 30
0.0
 10
150.2195
 20
-42.8951
 30
0.0
 10
156.6213
 20
-48.889
 30
0.0
 10
166.7588
 20
-47.836
 30
0.0
 10
166.7588
 20
-47.836
 30
0.0
 10
166.7588
 20
-47.836
 30
0.0
 10
166.7588
 20
-47.8359
 30
0.0
 10
166.7588
 20
-47.8359
 30
0.0
  0
SPLINE
  5
52
330
1F
100
AcDbEntity
  8
layer 1
 62
     7
100
AcDbSpline
210
0.0
220
0.0
230
1.0
 70
    11
 71
     3
 72
    44
 73
    40
 74
     0
 42
0.0000000001
 43
0.0000000001
 12
1.0
 22
0.0
 32
0.0
 13
1.0
 23
0.0
 33
0.0
 40
0.0
 40
0.0
 40
0.0
 40
0.0
 40
0.0909090909090909
 40
0.0909090909090909
 40
0.0909090909090909
 40
0.0909090909090909
 40
0.1818181818181818
 40
0.1818181818181818
 40
0.1818181818181818
 40
0.1818181818181818
 40
0.2727272727272727
 40
0.2727272727272727
 40
0.2727272727272727
 40
0.2727272727272727
 40
0.3636363636363636
 40
0.3636363636363636
 40
0.3636363636363636
 40
0.3636363636363636
 40
0.4545454545454545
 40
0.4545454545454545
 40
0.4545454545454545
 40
0.4545454545454545
 40
0.5454545454545454
 40
0.5454545454545454
 40
0.5454545454545454
 40
0.5454545454545454
 40
0.6363636363636364
 40
0.6363636363636364
 40
0.6363636363636364
 40
0.6363636363636364
 40
0.7272727272727273
 40
0.7272727272727273
 40
0.7272727272727273
 40
0.7272727272727273
 40
0.8181818181818182
 40
0.8181818181818182
 40
0.8181818181818182
 40
0.8181818181818182
 40
1.0
 40
1.0
 40
1.0
 40
1.0
 10
128.2003
 20
0.9019
 30
0.0
 10
131.2523
 20
-16.166
 30
0.0
 10
114.1642
 20
-8.9206
 30
0.0
 10
103.7518
 20
-16.4362
 30
0.0
 10
103.7518
 20
-16.4362
 30
0.0
 10
111.25
 20
-8.3833
 30
0.0
 10
105.5882
 20
2.6859
 30
0.0
 10
117.8078
 20
6.1131
 30
0.0
 10
117.8078
 20
6.1131
 30
0.0
 10
121.3081
 20
7.0333
 30
0.0
 10
122.1149
 20
7.8126
 30
0.0
 10
122.3969
 20
10.5458
 30
0.0
 10
122.3969
 20
10.5458
 30
0.0
 10
121.6218
 20
16.064
 30
0.0
 10
119.747
 20
22.9008
 30
0.0
 10
114.7035
 20
24.6716
 30
0.0
 10
114.7035
 20
24.6716
 30
0.0
 10
110.036
 20
16.9596
 30
0.0
 10
100.2591
 20
11.6628
 30
0.0
 10
90.3118
 20
13.1313
 30
0.0
 10
90.3118
 20
13.1313
 30
0.0
 10
89.542
 20
8.5375
 30
0.0
 10
86.7408
 20
4.2961
 30
0.0
 10
83.2637
 20
2.2842
 30
0.0
 10
83.2637
 20
2.2842
 30
0.0
 10
91.298
 20
1.5628
 30
0.0
 10
98.4998
 20
-7.0555
 30
0.0
 10
99.278
 20
-20.2107
 30
0.0
 10
99.278
 20
-20.2107
 30
0.0
 10
111.293
 20
-17.0212
 30
0.0
 10
118.3574
 20
-19.07
 30
0.0
 10
126.5183
 20
-26.7017
 30
0.0
 10
126.5183
 20
-26.7017
 30
0.0
 10
132.7861
 20
-24.6315
 30
0.0
 10
138.4496
 20
-7.8175
 30
0.0
 10
128.2004
 20
0.9019
 30
0.0
 10
128.2004
 20
0.9019
 30
0.0
 10
128.2004
 20
0.9019
 30
0.0
 10
128.2003
 20
0.9019
 30
0.0
 10
128.2003
 20
0.9019
 30
0.0
  0
SPLINE
  5
53
330
1F
100
AcDbEntity
  8
layer 1
 62
     7
100
AcDbSpline
210
0.0
220
0.0
230
1.0
 70
    11
 71
     3
 72
    16
 73
    12
 74
     0
 42
0.0000000001
 43
0.0000000001
 12
1.0
 22
0.0
 32
0.0
 13
1.0
 23
0.0
 33
0.0
 40
0.0
 40
0.0
 40
0.0
 40
0.0
 40
0.25
 40
0.25
 40
0.25
 40
0.25
 40
0.5
 40
0.5
 40
0.5
 40
0.5
 40
1.0
 40
1.0
 40
1.0
 40
1.0
 10
45.4568
 20
10.4313
 30
0.0
 10
40.4514
 20
3.872
 30
0.0
 10
32.9567
 20
2.5119
 30
0.0
 10
27.3194
 20
8.2077
 30
0.0
 10
27.3194
 20
8.2077
 30
0.0
 10
27.3194
 20
8.2077
 30
0.0
 10
27.3514
 20
-20.0628
 30
0.0
 10
27.3514
 20
-20.0628
 30
0.0
 10
27.3514
 20
-20.0628
 30
0.0
 10
36.4533
 20
-11.0634
 30
0.0
 10
46.2596
 20
-5.5066
 30
0.0
 10
45.4568
 20
10.4313
 30
0.0
  0
SPLINE
  5
54
330
1F
100
AcDbEntity
  8
layer 1
 62
     7
100
AcDbSpline
210
0.0
220
0.0
230
1.0
 70
    11
 71
     3
 72
    48
 73
    44
 74
     0
 42
0.0000000001
 43
0.0000000001
 12
1.0
 22
0.0
 32
0.0
 13
1.0
 23
0.0
 33
0.0
 40
0.0
 40
0.0
 40
0.0
 40
0.0
 40
0.0833333333333333
 40
0.0833333333333333
 40
0.0833333333333333
 40
0.0833333333333333
 40
0.1666666666666667
 40
0.1666666666666667
 40
0.1666666666666667
 40
0.1666666666666667
 40
0.25
 40
0.25
 40
0.25
 40
0.25
 40
0.3333333333333333
 40
0.3333333333333333
 40
0.3333333333333333
 40
0.3333333333333333
 40
0.4166666666666667
 40
0.4166666666666667
 40
0.4166666666666667
 40
0.4166666666666667
 40
0.5
 40
0.5
 40
0.5
 40
0.5
 40
0.5833333333333334
 40
0.5833333333333334
 40
0.5833333333333334
 40
0.5833333333333334
 40
0.6666666666666666
 40
0.6666666666666666
 40
0.6666666666666666
 40
0.6666666666666666
 40
0.75
 40
0.75
 40
0.75
 40
0.75
 40
0.8333333333333334
 40
0.8333333333333334
 40
0.8333333333333334
 40
0.8333333333333334
 40
1.0
 40
1.0
 40
1.0
 40
1.0
 10
180.8302
 20
22.8378
 30
0.0
 10
183.4681
 20
26.3639
 30
0.0
 10
183.7987
 20
29.5855
 30
0.0
 10
183.7987
 20
31.7226
 30
0.0
 10
183.7987
 20
31.7226
 30
0.0
 10
183.7987
 20
35.7698
 30
0.0
 10
181.2592
 20
38.8888
 30
0.0
 10
175.8388
 20
41.4986
 30
0.0
 10
175.8388
 20
41.4986
 30
0.0
 10
169.2238
 20
45.2184
 30
0.0
 10
158.4394
 20
45.5639
 30
0.0
 10
152.5015
 20
42.4989
 30
0.0
 10
152.5015
 20
42.4989
 30
0.0
 10
165.8698
 20
37.1126
 30
0.0
 10
164.1257
 20
24.3389
 30
0.0
 10
159.9886
 20
15.3184
 30
0.0
 10
159.9886
 20
15.3184
 30
0.0
 10
157.9907
 20
11.214
 30
0.0
 10
157.4497
 20
10.7057
 30
0.0
 10
155.8997
 20
11.4767
 30
0.0
 10
155.8997
 20
11.4767
 30
0.0
 10
155.3744
 20
11.7379
 30
0.0
 10
154.9054
 20
12.48
 30
0.0
 10
154.4322
 20
13.7981
 30
0.0
 10
154.4322
 20
13.7981
 30
0.0
 10
152.1952
 20
22.8336
 30
0.0
 10
144.0013
 20
21.5956
 30
0.0
 10
145.3903
 20
37.5899
 30
0.0
 10
145.3903
 20
37.5899
 30
0.0
 10
136.0039
 20
28.3268
 30
0.0
 10
147.6311
 20
15.5771
 30
0.0
 10
132.4071
 20
2.5223
 30
0.0
 10
132.4071
 20
2.5223
 30
0.0
 10
135.6987
 20
-2.0184
 30
0.0
 10
137.5999
 20
-5.571
 30
0.0
 10
137.6436
 20
-10.5324
 30
0.0
 10
137.6436
 20
-10.5324
 30
0.0
 10
146.563
 20
-1.7127
 30
0.0
 10
157.9311
 20
3.2491
 30
0.0
 10
170.0258
 20
3.8375
 30
0.0
 10
170.0258
 20
3.8375
 30
0.0
 10
172.9198
 20
10.5382
 30
0.0
 10
176.9229
 20
17.6148
 30
0.0
 10
180.8302
 20
22.8378
 30
0.0
  0
SPLINE
  5
55
330
1F
100
AcDbEntity
  8
layer 1
 62
     7
100
AcDbSpline
210
0.0
220
0.0
230
1.0
 70
    11
 71
     3
 72
    16
 73
    12
 74
     0
 42
0.0000000001
 43
0.0000000001
 12
1.0
 22
0.0
 32
0.0
 13
1.0
 23
0.0
 33
0.0
 40
0.0
 40
0.0
 40
0.0
 40
0.0
 40
0.25
 40
0.25
 40
0.25
 40
0.25
 40
0.5
 40
0.5
 40
0.5
 40
0.5
 40
1.0
 40
1.0
 40
1.0
 40
1.0
 10
185.9783
 20
22.7958
 30
0.0
 10
180.6844
 20
16.0096
 30
0.0
 10
177.1853
 20
9.9252
 30
0.0
 10
173.9517
 20
2.6954
 30
0.0
 10
173.9517
 20
2.6954
 30
0.0
 10
180.5571
 20
0.2544
 30
0.0
 10
183.3874
 20
-2.6818
 30
0.0
 10
185.9783
 20
-8.2558
 30
0.0
 10
185.9783
 20
-8.2558
 30
0.0
 10
185.9783
 20
-8.2558
 30
0.0
 10
185.9783
 20
22.7958
 30
0.0
 10
185.9783
 20
22.7958
 30
0.0
  0
SPLINE
  5
56
330
1F
100
AcDbEntity
  8
layer 1
 62
     7
100
AcDbSpline
210
0.0
220
0.0
230
1.0
 70
    11
 71
     3
 72
    32
 73
    28
 74
     0
 42
0.0000000001
 43
0.0000000001
 12
1.0
 22
0.0
 32
0.0
 13
1.0
 23
0.0
 33
0.0
 40
0.0
 40
0.0
 40
0.0
 40
0.0
 40
0.125
 40
0.125
 40
0.125
 40
0.125
 40
0.25
 40
0.25
 40
0.25
 40
0.25
 40
0.375
 40
0.375
 40
0.375
 40
0.375
 40
0.5
 40
0.5
 40
0.5
 40
0.5
 40
0.625
 40
0.625
 40
0.625
 40
0.625
 40
0.75
 40
0.75
 40
0.75
 40
0.75
 40
1.0
 40
1.0
 40
1.0
 40
1.0
 10
63.9512
 20
3.2425
 30
0.0
 10
51.0154
 20
10.2967
 30
0.0
 10
49.8453
 20
28.736
 30
0.0
 10
53.8812
 20
40.8143
 30
0.0
 10
53.8812
 20
40.8143
 30
0.0
 10
52.308
 20
39.4501
 30
0.0
 10
50.3101
 20
39.4981
 30
0.0
 10
48.7222
 20
39.9092
 30
0.0
 10
48.7222
 20
39.9092
 30
0.0
 10
47.6053
 20
40.2176
 30
0.0
 10
47.545
 20
40.1894
 30
0.0
 10
46.6939
 20
38.9612
 30
0.0
 10
46.6939
 20
38.9612
 30
0.0
 10
45.5056
 20
37.4226
 30
0.0
 10
44.0923
 20
36.4606
 30
0.0
 10
42.5366
 20
35.3466
 30
0.0
 10
42.5366
 20
35.3466
 30
0.0
 10
50.3707
 20
23.3386
 30
0.0
 10
51.2951
 20
7.1313
 30
0.0
 10
48.3898
 20
-3.5452
 30
0.0
 10
48.3898
 20
-3.5452
 30
0.0
 10
53.7284
 20
0.7657
 30
0.0
 10
57.85
 20
2.5667
 30
0.0
 10
63.9512
 20
3.2423
 30
0.0
 10
63.9512
 20
3.2423
 30
0.0
 10
63.9512
 20
3.2423
 30
0.0
 10
63.9512
 20
3.2425
 30
0.0
 10
63.9512
 20
3.2425
 30
0.0
  0
SPLINE
  5
57
330
1F
100
AcDbEntity
  8
layer 1
 62
     7
100
AcDbSpline
210
0.0
220
0.0
230
1.0
 70
    11
 71
     3
 72
    28
 73
    24
 74
     0
 42
0.0000000001
 43
0.0000000001
 12
1.0
 22
0.0
 32
0.0
 13
1.0
 23
0.0
 33
0.0
 40
0.0
 40
0.0
 40
0.0
 40
0.0
 40
0.1428571428571428
 40
0.1428571428571428
 40
0.1428571428571428
 40
0.1428571428571428
 40
0.2857142857142857
 40
0.2857142857142857
 40
0.2857142857142857
 40
0.2857142857142857
 40
0.4285714285714285
 40
0.4285714285714285
 40
0.4285714285714285
 40
0.4285714285714285
 40
0.5714285714285714
 40
0.5714285714285714
 40
0.5714285714285714
 40
0.5714285714285714
 40
0.7142857142857143
 40
0.7142857142857143
 40
0.7142857142857143
 40
0.7142857142857143
 40
1.0
 40
1.0
 40
1.0
 40
1.0
 10
85.8223
 20
12.3868
 30
0.0
 10
86.2214
 20
13.518
 30
0.0
 10
86.2114
 20
13.6525
 30
0.0
 10
85.7161
 20
13.8233
 30
0.0
 10
85.7161
 20
13.8233
 30
0.0
 10
70.9095
 20
19.144
 30
0.0
 10
66.1924
 20
30.113
 30
0.0
 10
62.7538
 20
45.3724
 30
0.0
 10
62.7538
 20
45.3724
 30
0.0
 10
53.0558
 20
39.217
 30
0.0
 10
55.0844
 20
18.3427
 30
0.0
 10
59.3529
 20
12.8136
 30
0.0
 10
59.3529
 20
12.8136
 30
0.0
 10
60.3185
 20
23.7719
 30
0.0
 10
65.102
 20
23.2053
 30
0.0
 10
66.746
 20
28.6558
 30
0.0
 10
66.746
 20
28.6558
 30
0.0
 10
67.498
 20
12.4631
 30
0.0
 10
74.464
 20
16.3567
 30
0.0
 10
70.8147
 20
4.8414
 30
0.0
 10
70.8147
 20
4.8414
 30
0.0
 10
77.9557
 20
3.145
 30
0.0
 10
83.5366
 20
6.1691
 30
0.0
 10
85.8223
 20
12.3868
 30
0.0
  0
SPLINE
  5
58
330
1F
100
AcDbEntity
  8
layer 1
 62
     7
100
AcDbSpline
210
0.0
220
0.0
230
1.0
 70
    11
 71
     3
 72
    44
 73
    40
 74
     0
 42
0.0000000001
 43
0.0000000001
 12
1.0
 22
0.0
 32
0.0
 13
1.0
 23
0.0
 33
0.0
 40
0.0
 40
0.0
 40
0.0
 40
0.0
 40
0.0909090909090909
 40
0.0909090909090909
 40
0.0909090909090909
 40
0.0909090909090909
 40
0.1818181818181818
 40
0.1818181818181818
 40
0.1818181818181818
 40
0.1818181818181818
 40
0.2727272727272727
 40
0.2727272727272727
 40
0.2727272727272727
 40
0.2727272727272727
 40
0.3636363636363636
 40
0.3636363636363636
 40
0.3636363636363636
 40
0.3636363636363636
 40
0.4545454545454545
 40
0.4545454545454545
 40
0.4545454545454545
 40
0.4545454545454545
 40
0.5454545454545454
 40
0.5454545454545454
 40
0.5454545454545454
 40
0.5454545454545454
 40
0.6363636363636364
 40
0.6363636363636364
 40
0.6363636363636364
 40
0.6363636363636364
 40
0.7272727272727273
 40
0.7272727272727273
 40
0.7272727272727273
 40
0.7272727272727273
 40
0.8181818181818182
 40
0.8181818181818182
 40
0.8181818181818182
 40
0.8181818181818182
 40
1.0
 40
1.0
 40
1.0
 40
1.0
 10
136.1658
 20
22.0685
 30
0.0
 10
136.1659
 20
39.6706
 30
0.0
 10
142.5421
 20
47.4165
 30
0.0
 10
160.8441
 20
48.6097
 30
0.0
 10
160.8441
 20
48.6097
 30
0.0
 10
159.1767
 20
51.4228
 30
0.0
 10
155.9991
 20
57.7375
 30
0.0
 10
156.9275
 20
60.3421
 30
0.0
 10
156.9275
 20
60.3421
 30
0.0
 10
157.2991
 20
61.2381
 30
0.0
 10
157.0754
 20
62.5253
 30
0.0
 10
155.4124
 20
62.5253
 30
0.0
 10
155.4124
 20
62.5253
 30
0.0
 10
154.4579
 20
62.5253
 30
0.0
 10
151.8385
 20
63.1294
 30
0.0
 10
150.7522
 20
63.6001
 30
0.0
 10
150.7522
 20
63.6001
 30
0.0
 10
151.4882
 20
47.0341
 30
0.0
 10
136.758
 20
40.0431
 30
0.0
 10
125.1264
 20
49.4635
 30
0.0
 10
125.1264
 20
49.4635
 30
0.0
 10
124.6466
 20
44.4492
 30
0.0
 10
121.3629
 20
40.1442
 30
0.0
 10
118.0456
 20
37.4092
 30
0.0
 10
118.0456
 20
37.4092
 30
0.0
 10
118.2107
 20
34.2664
 30
0.0
 10
117.4134
 20
30.9499
 30
0.0
 10
116.7494
 20
28.3782
 30
0.0
 10
116.7494
 20
28.3782
 30
0.0
 10
124.9014
 20
25.5304
 30
0.0
 10
128.0387
 20
13.818
 30
0.0
 10
125.7778
 20
7.0797
 30
0.0
 10
125.7778
 20
7.0797
 30
0.0
 10
126.4204
 20
6.2005
 30
0.0
 10
128.0438
 20
5.9113
 30
0.0
 10
128.9265
 20
5.2515
 30
0.0
 10
128.9265
 20
5.2515
 30
0.0
 10
133.025
 20
9.6216
 30
0.0
 10
136.0821
 20
16.1847
 30
0.0
 10
136.1658
 20
22.0685
 30
0.0
  0
SPLINE
  5
59
330
1F
100
AcDbEntity
  8
layer 1
 62
     7
100
AcDbSpline
210
0.0
220
0.0
230
1.0
 70
    11
 71
     3
 72
    28
 73
    24
 74
     0
 42
0.0000000001
 43
0.0000000001
 12
1.0
 22
0.0
 32
0.0
 13
1.0
 23
0.0
 33
0.0
 40
0.0
 40
0.0
 40
0.0
 40
0.0
 40
0.1428571428571428
 40
0.1428571428571428
 40
0.1428571428571428
 40
0.1428571428571428
 40
0.2857142857142857
 40
0.2857142857142857
 40
0.2857142857142857
 40
0.2857142857142857
 40
0.4285714285714285
 40
0.4285714285714285
 40
0.4285714285714285
 40
0.4285714285714285
 40
0.5714285714285714
 40
0.5714285714285714
 40
0.5714285714285714
 40
0.5714285714285714
 40
0.7142857142857143
 40
0.7142857142857143
 40
0.7142857142857143
 40
0.7142857142857143
 40
1.0
 40
1.0
 40
1.0
 40
1.0
 10
44.1568
 20
19.1366
 30
0.0
 10
45.2813
 20
21.1402
 30
0.0
 10
40.9202
 20
30.9098
 30
0.0
 10
38.9245
 20
33.1361
 30
0.0
 10
38.9245
 20
33.1361
 30
0.0
 10
37.9701
 20
34.1716
 30
0.0
 10
37.4734
 20
34.4553
 30
0.0
 10
36.5109
 20
34.515
 30
0.0
 10
36.5109
 20
34.515
 30
0.0
 10
32.3528
 20
35.281
 30
0.0
 10
30.0183
 20
36.8194
 30
0.0
 10
27.1991
 20
39.4181
 30
0.0
 10
27.1991
 20
39.4181
 30
0.0
 10
27.1991
 20
39.4181
 30
0.0
 10
27.1121
 20
12.0418
 30
0.0
 10
27.1121
 20
12.0418
 30
0.0
 10
27.1121
 20
12.0418
 30
0.0
 10
31.8266
 20
18.6505
 30
0.0
 10
38.095
 20
21.3033
 30
0.0
 10
44.1566
 20
19.1367
 30
0.0
 10
44.1566
 20
19.1367
 30
0.0
 10
44.1566
 20
19.1367
 30
0.0
 10
44.1568
 20
19.1366
 30
0.0
 10
44.1568
 20
19.1366
 30
0.0
  0
SPLINE
  5
5A
330
1F
100
AcDbEntity
  8
layer 1
 62
     7
100
AcDbSpline
210
0.0
220
0.0
230
1.0
 70
    11
 71
     3
 72
   104
 73
   100
 74
     0
 42
0.0000000001
 43
0.0000000001
 12
1.0
 22
0.0
 32
0.0
 13
1.0
 23
0.0
 33
0.0
 40
0.0
 40
0.0
 40
0.0
 40
0.0
 40
0.0384615384615385
 40
0.0384615384615385
 40
0.0384615384615385
 40
0.0384615384615385
 40
0.0769230769230769
 40
0.0769230769230769
 40
0.0769230769230769
 40
0.0769230769230769
 40
0.1153846153846154
 40
0.1153846153846154
 40
0.1153846153846154
 40
0.1153846153846154
 40
0.1538461538461539
 40
0.1538461538461539
 40
0.1538461538461539
 40
0.1538461538461539
 40
0.1923076923076923
 40
0.1923076923076923
 40
0.1923076923076923
 40
0.1923076923076923
 40
0.2307692307692308
 40
0.2307692307692308
 40
0.2307692307692308
 40
0.2307692307692308
 40
0.2692307692307692
 40
0.2692307692307692
 40
0.2692307692307692
 40
0.2692307692307692
 40
0.3076923076923077
 40
0.3076923076923077
 40
0.3076923076923077
 40
0.3076923076923077
 40
0.3461538461538461
 40
0.3461538461538461
 40
0.3461538461538461
 40
0.3461538461538461
 40
0.3846153846153846
 40
0.3846153846153846
 40
0.3846153846153846
 40
0.3846153846153846
 40
0.4230769230769231
 40
0.4230769230769231
 40
0.4230769230769231
 40
0.4230769230769231
 40
0.4615384615384616
 40
0.4615384615384616
 40
0.4615384615384616
 40
0.4615384615384616
 40
0.5
 40
0.5
 40
0.5
 40
0.5
 40
0.5384615384615384
 40
0.5384615384615384
 40
0.5384615384615384
 40
0.5384615384615384
 40
0.5769230769230769
 40
0.5769230769230769
 40
0.5769230769230769
 40
0.5769230769230769
 40
0.6153846153846154
 40
0.6153846153846154
 40
0.6153846153846154
 40
0.6153846153846154
 40
0.6538461538461539
 40
0.6538461538461539
 40
0.6538461538461539
 40
0.6538461538461539
 40
0.6923076923076923
 40
0.6923076923076923
 40
0.6923076923076923
 40
0.6923076923076923
 40
0.7307692307692307
 40
0.7307692307692307
 40
0.7307692307692307
 40
0.7307692307692307
 40
0.7692307692307693
 40
0.7692307692307693
 40
0.7692307692307693
 40
0.7692307692307693
 40
0.8076923076923077
 40
0.8076923076923077
 40
0.8076923076923077
 40
0.8076923076923077
 40
0.8461538461538461
 40
0.8461538461538461
 40
0.8461538461538461
 40
0.8461538461538461
 40
0.8846153846153846
 40
0.8846153846153846
 40
0.8846153846153846
 40
0.8846153846153846
 40
0.9230769230769231
 40
0.9230769230769231
 40
0.9230769230769231
 40
0.9230769230769231
 40
1.0
 40
1.0
 40
1.0
 40
1.0
 10
104.3871
 20
20.5894
 30
0.0
 10
112.6162
 20
26.4531
 30
0.0
 10
116.1983
 20
35.1033
 30
0.0
 10
112.2604
 20
43.3077
 30
0.0
 10
112.2604
 20
43.3077
 30
0.0
 10
108.4929
 20
51.0258
 30
0.0
 10
101.0408
 20
54.7008
 30
0.0
 10
95.9694
 20
51.3417
 30
0.0
 10
95.9694
 20
51.3417
 30
0.0
 10
91.3254
 20
48.2656
 30
0.0
 10
88.8302
 20
40.6602
 30
0.0
 10
91.1604
 20
36.684
 30
0.0
 10
91.1604
 20
36.684
 30
0.0
 10
92.6631
 20
33.9418
 30
0.0
 10
96.467
 20
32.0042
 30
0.0
 10
99.5806
 20
34.759
 30
0.0
 10
99.5806
 20
34.759
 30
0.0
 10
95.2909
 20
38.2502
 30
0.0
 10
97.1136
 20
43.604
 30
0.0
 10
100.6162
 20
45.4921
 30
0.0
 10
100.6162
 20
45.4921
 30
0.0
 10
103.5551
 20
46.9566
 30
0.0
 10
106.6443
 20
46.3883
 30
0.0
 10
108.744
 20
43.9969
 30
0.0
 10
108.744
 20
43.9969
 30
0.0
 10
111.8295
 20
40.4827
 30
0.0
 10
110.1357
 20
35.2446
 30
0.0
 10
105.4988
 20
33.9616
 30
0.0
 10
105.4988
 20
33.9616
 30
0.0
 10
104.7999
 20
33.7682
 30
0.0
 10
103.739
 20
33.1161
 30
0.0
 10
103.1411
 20
32.5122
 30
0.0
 10
103.1411
 20
32.5122
 30
0.0
 10
99.011
 20
28.9709
 30
0.0
 10
92.6088
 20
29.2717
 30
0.0
 10
89.2381
 20
32.5684
 30
0.0
 10
89.2381
 20
32.5684
 30
0.0
 10
85.2095
 20
37.2885
 30
0.0
 10
85.9433
 20
43.5348
 30
0.0
 10
88.2268
 20
48.163
 30
0.0
 10
88.2268
 20
48.163
 30
0.0
 10
92.7204
 20
57.1065
 30
0.0
 10
101.4063
 20
59.1982
 30
0.0
 10
109.3012
 20
53.2379
 30
0.0
 10
109.3012
 20
53.2379
 30
0.0
 10
112.7401
 20
50.5397
 30
0.0
 10
115.6631
 20
46.7006
 30
0.0
 10
117.1038
 20
42.587
 30
0.0
 10
117.1038
 20
42.587
 30
0.0
 10
125.914
 20
52.1532
 30
0.0
 10
118.186
 20
64.7793
 30
0.0
 10
111.568
 20
69.5135
 30
0.0
 10
111.568
 20
69.5135
 30
0.0
 10
106.0035
 20
73.5482
 30
0.0
 10
97.8661
 20
76.3997
 30
0.0
 10
90.9098
 20
76.1536
 30
0.0
 10
90.9098
 20
76.1536
 30
0.0
 10
90.8056
 20
76.0495
 30
0.0
 10
91.2912
 20
74.9774
 30
0.0
 10
91.9888
 20
73.7712
 30
0.0
 10
91.9888
 20
73.7712
 30
0.0
 10
94.9607
 20
68.6333
 30
0.0
 10
94.896
 20
64.8517
 30
0.0
 10
91.7315
 20
58.7351
 30
0.0
 10
91.7315
 20
58.7351
 30
0.0
 10
90.5126
 20
56.3791
 30
0.0
 10
89.5558
 20
54.003
 30
0.0
 10
89.1097
 20
52.2245
 30
0.0
 10
89.1097
 20
52.2245
 30
0.0
 10
88.4095
 20
49.4329
 30
0.0
 10
88.4055
 20
49.4264
 30
0.0
 10
87.8473
 20
50.1664
 30
0.0
 10
87.8473
 20
50.1664
 30
0.0
 10
86.667
 20
51.7311
 30
0.0
 10
83.4297
 20
58.3367
 30
0.0
 10
82.9608
 20
60.1372
 30
0.0
 10
82.9608
 20
60.1372
 30
0.0
 10
80.8352
 20
66.5995
 30
0.0
 10
83.2708
 20
71.3052
 30
0.0
 10
86.1567
 20
75.1439
 30
0.0
 10
86.1567
 20
75.1439
 30
0.0
 10
78.625
 20
74.3127
 30
0.0
 10
68.5381
 20
65.2108
 30
0.0
 10
65.6043
 20
59.6069
 30
0.0
 10
65.6043
 20
59.6069
 30
0.0
 10
64.6754
 20
57.7667
 30
0.0
 10
64.6711
 20
57.733
 30
0.0
 10
65.1301
 20
55.9286
 30
0.0
 10
65.1301
 20
55.9286
 30
0.0
 10
66.7343
 20
45.5112
 30
0.0
 10
69.6515
 20
33.5542
 30
0.0
 10
75.1057
 20
25.9653
 30
0.0
 10
75.1057
 20
25.9653
 30
0.0
 10
82.6879
 20
15.9844
 30
0.0
 10
94.2187
 20
14.6794
 30
0.0
 10
104.3872
 20
20.5893
 30
0.0
 10
104.3872
 20
20.5893
 30
0.0
 10
104.3872
 20
20.5893
 30
0.0
 10
104.3871
 20
20.5894
 30
0.0
 10
104.3871
 20
20.5894
 30
0.0
  0
SPLINE
  5
5B
330
1F
100
AcDbEntity
  8
layer 1
 62
     7
100
AcDbSpline
210
0.0
220
0.0
230
1.0
 70
    11
 71
     3
 72
    48
 73
    44
 74
     0
 42
0.0000000001
 43
0.0000000001
 12
1.0
 22
0.0
 32
0.0
 13
1.0
 23
0.0
 33
0.0
 40
0.0
 40
0.0
 40
0.0
 40
0.0
 40
0.0833333333333333
 40
0.0833333333333333
 40
0.0833333333333333
 40
0.0833333333333333
 40
0.1666666666666667
 40
0.1666666666666667
 40
0.1666666666666667
 40
0.1666666666666667
 40
0.25
 40
0.25
 40
0.25
 40
0.25
 40
0.3333333333333333
 40
0.3333333333333333
 40
0.3333333333333333
 40
0.3333333333333333
 40
0.4166666666666667
 40
0.4166666666666667
 40
0.4166666666666667
 40
0.4166666666666667
 40
0.5
 40
0.5
 40
0.5
 40
0.5
 40
0.5833333333333334
 40
0.5833333333333334
 40
0.5833333333333334
 40
0.5833333333333334
 40
0.6666666666666666
 40
0.6666666666666666
 40
0.6666666666666666
 40
0.6666666666666666
 40
0.75
 40
0.75
 40
0.75
 40
0.75
 40
0.8333333333333334
 40
0.8333333333333334
 40
0.8333333333333334
 40
0.8333333333333334
 40
1.0
 40
1.0
 40
1.0
 40
1.0
 10
45.1874
 20
50.141
 30
0.0
 10
50.919
 20
54.9475
 30
0.0
 10
56.1456
 20
50.747
 30
0.0
 10
56.8243
 20
45.6866
 30
0.0
 10
56.8243
 20
45.6866
 30
0.0
 10
58.0749
 20
46.8288
 30
0.0
 10
59.3457
 20
48.07
 30
0.0
 10
60.838
 20
48.8503
 30
0.0
 10
60.838
 20
48.8503
 30
0.0
 10
62.3609
 20
49.6273
 30
0.0
 10
62.3755
 20
49.7279
 30
0.0
 10
61.5185
 20
53.555
 30
0.0
 10
61.5185
 20
53.555
 30
0.0
 10
58.4491
 20
67.1424
 30
0.0
 10
47.8141
 20
71.3549
 30
0.0
 10
36.9139
 20
65.9389
 30
0.0
 10
36.9139
 20
65.9389
 30
0.0
 10
39.5071
 20
64.7062
 30
0.0
 10
42.4347
 20
62.3991
 30
0.0
 10
43.2192
 20
59.9558
 30
0.0
 10
43.2192
 20
59.9558
 30
0.0
 10
44.7411
 20
55.4514
 30
0.0
 10
42.8884
 20
51.0856
 30
0.0
 10
41.6584
 20
46.6874
 30
0.0
 10
41.6584
 20
46.6874
 30
0.0
 10
36.3812
 20
52.1343
 30
0.0
 10
31.0932
 20
50.0977
 30
0.0
 10
31.0108
 20
58.5141
 30
0.0
 10
31.0108
 20
58.5141
 30
0.0
 10
31.0108
 20
60.7565
 30
0.0
 10
28.6897
 20
55.3293
 30
0.0
 10
28.1437
 20
51.8102
 30
0.0
 10
28.1437
 20
51.8102
 30
0.0
 10
27.5572
 20
48.0301
 30
0.0
 10
28.2986
 20
44.1588
 30
0.0
 10
30.6909
 20
41.7705
 30
0.0
 10
30.6909
 20
41.7705
 30
0.0
 10
36.023
 20
37.5193
 30
0.0
 10
40.7858
 20
37.9428
 30
0.0
 10
44.455
 20
42.5761
 30
0.0
 10
44.455
 20
42.5761
 30
0.0
 10
43.7121
 20
43.6687
 30
0.0
 10
42.4428
 20
47.3256
 30
0.0
 10
45.1874
 20
50.141
 30
0.0
  0
SPLINE
  5
5C
330
1F
100
AcDbEntity
  8
layer 1
 62
     7
100
AcDbSpline
210
0.0
220
0.0
230
1.0
 70
    11
 71
     3
 72
    36
 73
    32
 74
     0
 42
0.0000000001
 43
0.0000000001
 12
1.0
 22
0.0
 32
0.0
 13
1.0
 23
0.0
 33
0.0
 40
0.0
 40
0.0
 40
0.0
 40
0.0
 40
0.1111111111111111
 40
0.1111111111111111
 40
0.1111111111111111
 40
0.1111111111111111
 40
0.2222222222222222
 40
0.2222222222222222
 40
0.2222222222222222
 40
0.2222222222222222
 40
0.3333333333333333
 40
0.3333333333333333
 40
0.3333333333333333
 40
0.3333333333333333
 40
0.4444444444444444
 40
0.4444444444444444
 40
0.4444444444444444
 40
0.4444444444444444
 40
0.5555555555555556
 40
0.5555555555555556
 40
0.5555555555555556
 40
0.5555555555555556
 40
0.6666666666666666
 40
0.6666666666666666
 40
0.6666666666666666
 40
0.6666666666666666
 40
0.7777777777777778
 40
0.7777777777777778
 40
0.7777777777777778
 40
0.7777777777777778
 40
1.0
 40
1.0
 40
1.0
 40
1.0
 10
185.8906
 20
50.3745
 30
0.0
 10
183.1731
 20
45.6458
 30
0.0
 10
169.7066
 20
47.1526
 30
0.0
 10
170.6094
 20
54.5624
 30
0.0
 10
170.6094
 20
54.5624
 30
0.0
 10
172.9886
 20
62.2141
 30
0.0
 10
181.7471
 20
59.5865
 30
0.0
 10
181.6351
 20
52.9194
 30
0.0
 10
181.6351
 20
52.9194
 30
0.0
 10
182.7512
 20
53.2113
 30
0.0
 10
184.3684
 20
55.023
 30
0.0
 10
184.5961
 20
56.2369
 30
0.0
 10
184.5961
 20
56.2369
 30
0.0
 10
185.9783
 20
69.0478
 30
0.0
 10
167.457
 20
67.8931
 30
0.0
 10
162.0285
 20
61.7409
 30
0.0
 10
162.0285
 20
61.7409
 30
0.0
 10
161.0521
 20
60.8199
 30
0.0
 10
160.9282
 20
60.5204
 30
0.0
 10
160.9282
 20
59.0795
 30
0.0
 10
160.9282
 20
59.0795
 30
0.0
 10
161.7528
 20
54.2996
 30
0.0
 10
163.1613
 20
52.6811
 30
0.0
 10
165.5341
 20
48.5902
 30
0.0
 10
165.5341
 20
48.5902
 30
0.0
 10
173.7934
 20
47.4774
 30
0.0
 10
181.1217
 20
44.5385
 30
0.0
 10
185.8634
 20
38.6351
 30
0.0
 10
185.8634
 20
38.6351
 30
0.0
 10
185.8634
 20
38.6351
 30
0.0
 10
185.8906
 20
50.3745
 30
0.0
 10
185.8906
 20
50.3745
 30
0.0
  0
SPLINE
  5
5D
330
1F
100
AcDbEntity
  8
layer 1
 62
     7
100
AcDbSpline
210
0.0
220
0.0
230
1.0
 70
    11
 71
     3
 72
    32
 73
    28
 74
     0
 42
0.0000000001
 43
0.0000000001
 12
1.0
 22
0.0
 32
0.0
 13
1.0
 23
0.0
 33
0.0
 40
0.0
 40
0.0
 40
0.0
 40
0.0
 40
0.125
 40
0.125
 40
0.125
 40
0.125
 40
0.25
 40
0.25
 40
0.25
 40
0.25
 40
0.375
 40
0.375
 40
0.375
 40
0.375
 40
0.5
 40
0.5
 40
0.5
 40
0.5
 40
0.625
 40
0.625
 40
0.625
 40
0.625
 40
0.75
 40
0.75
 40
0.75
 40
0.75
 40
1.0
 40
1.0
 40
1.0
 40
1.0
 10
146.2267
 20
60.815
 30
0.0
 10
141.0748
 20
55.6752
 30
0.0
 10
136.4913
 20
55.087
 30
0.0
 10
131.3955
 20
58.7881
 30
0.0
 10
131.3955
 20
58.7881
 30
0.0
 10
136.6724
 20
63.176
 30
0.0
 10
134.966
 20
71.2395
 30
0.0
 10
142.0155
 20
72.0547
 30
0.0
 10
142.0155
 20
72.0547
 30
0.0
 10
142.9046
 20
72.0547
 30
0.0
 10
142.5271
 20
72.5395
 30
0.0
 10
140.7013
 20
73.7418
 30
0.0
 10
140.7013
 20
73.7418
 30
0.0
 10
137.5652
 20
75.3524
 30
0.0
 10
131.9525
 20
77.5219
 30
0.0
 10
128.9611
 20
75.365
 30
0.0
 10
128.9611
 20
75.365
 30
0.0
 10
127.1579
 20
74.0188
 30
0.0
 10
126.8722
 20
73.2842
 30
0.0
 10
126.1027
 20
68.0178
 30
0.0
 10
126.1027
 20
68.0178
 30
0.0
 10
125.2393
 20
62.1095
 30
0.0
 10
124.6171
 20
60.2973
 30
0.0
 10
125.8345
 20
55.837
 30
0.0
 10
125.8345
 20
55.837
 30
0.0
 10
130.1274
 20
45.8418
 30
0.0
 10
147.6784
 20
48.4551
 30
0.0
 10
146.2267
 20
60.815
 30
0.0
  0
SPLINE
  5
5E
330
1F
100
AcDbEntity
  8
layer 1
 62
     7
100
AcDbSpline
210
0.0
220
0.0
230
1.0
 70
    11
 71
     3
 72
    20
 73
    16
 74
     0
 42
0.0000000001
 43
0.0000000001
 12
1.0
 22
0.0
 32
0.0
 13
1.0
 23
0.0
 33
0.0
 40
0.0
 40
0.0
 40
0.0
 40
0.0
 40
0.2
 40
0.2
 40
0.2
 40
0.2
 40
0.4
 40
0.4
 40
0.4
 40
0.4
 40
0.6
 40
0.6
 40
0.6
 40
0.6
 40
1.0
 40
1.0
 40
1.0
 40
1.0
 10
37.9399
 20
70.9192
 30
0.0
 10
34.0019
 20
80.1787
 30
0.0
 10
33.1855
 20
93.1075
 30
0.0
 10
37.9601
 20
102.5396
 30
0.0
 10
37.9601
 20
102.5396
 30
0.0
 10
33.9936
 20
100.7185
 30
0.0
 10
31.0407
 20
100.1031
 30
0.0
 10
27.1991
 20
100.0075
 30
0.0
 10
27.1991
 20
100.0075
 30
0.0
 10
27.1991
 20
100.0075
 30
0.0
 10
27.1121
 20
61.6333
 30
0.0
 10
27.1121
 20
61.6333
 30
0.0
 10
27.1121
 20
61.6333
 30
0.0
 10
30.5123
 20
66.0494
 30
0.0
 10
33.3919
 20
68.5594
 30
0.0
 10
37.9399
 20
70.9192
 30
0.0
  0
SPLINE
  5
5F
330
1F
100
AcDbEntity
  8
layer 1
 62
     7
100
AcDbSpline
210
0.0
220
0.0
230
1.0
 70
    11
 71
     3
 72
    60
 73
    56
 74
     0
 42
0.0000000001
 43
0.0000000001
 12
1.0
 22
0.0
 32
0.0
 13
1.0
 23
0.0
 33
0.0
 40
0.0
 40
0.0
 40
0.0
 40
0.0
 40
0.0666666666666667
 40
0.0666666666666667
 40
0.0666666666666667
 40
0.0666666666666667
 40
0.1333333333333333
 40
0.1333333333333333
 40
0.1333333333333333
 40
0.1333333333333333
 40
0.2
 40
0.2
 40
0.2
 40
0.2
 40
0.2666666666666667
 40
0.2666666666666667
 40
0.2666666666666667
 40
0.2666666666666667
 40
0.3333333333333333
 40
0.3333333333333333
 40
0.3333333333333333
 40
0.3333333333333333
 40
0.4
 40
0.4
 40
0.4
 40
0.4
 40
0.4666666666666667
 40
0.4666666666666667
 40
0.4666666666666667
 40
0.4666666666666667
 40
0.5333333333333333
 40
0.5333333333333333
 40
0.5333333333333333
 40
0.5333333333333333
 40
0.6
 40
0.6
 40
0.6
 40
0.6
 40
0.6666666666666666
 40
0.6666666666666666
 40
0.6666666666666666
 40
0.6666666666666666
 40
0.7333333333333333
 40
0.7333333333333333
 40
0.7333333333333333
 40
0.7333333333333333
 40
0.8
 40
0.8
 40
0.8
 40
0.8
 40
0.8666666666666667
 40
0.8666666666666667
 40
0.8666666666666667
 40
0.8666666666666667
 40
1.0
 40
1.0
 40
1.0
 40
1.0
 10
89.5833
 20
88.5464
 30
0.0
 10
86.2863
 20
88.1761
 30
0.0
 10
82.4668
 20
87.4471
 30
0.0
 10
79.2975
 20
88.7283
 30
0.0
 10
79.2975
 20
88.7283
 30
0.0
 10
76.9785
 20
87.3071
 30
0.0
 10
75.3698
 20
86.551
 30
0.0
 10
72.9912
 20
86.7689
 30
0.0
 10
72.9912
 20
86.7689
 30
0.0
 10
66.9185
 20
87.3957
 30
0.0
 10
65.9138
 20
95.3087
 30
0.0
 10
70.2078
 20
98.2405
 30
0.0
 10
70.2078
 20
98.2405
 30
0.0
 10
77.9287
 20
102.5807
 30
0.0
 10
81.0637
 20
95.7686
 30
0.0
 10
81.2056
 20
92.349
 30
0.0
 10
81.2056
 20
92.349
 30
0.0
 10
85.4762
 20
91.8875
 30
0.0
 10
88.5526
 20
92.2281
 30
0.0
 10
92.0747
 20
94.4338
 30
0.0
 10
92.0747
 20
94.4338
 30
0.0
 10
91.8869
 20
98.526
 30
0.0
 10
90.8982
 20
102.9153
 30
0.0
 10
89.4958
 20
105.8839
 30
0.0
 10
89.4958
 20
105.8839
 30
0.0
 10
83.1693
 20
118.3951
 30
0.0
 10
60.078
 20
118.3179
 30
0.0
 10
48.7992
 20
109.1396
 30
0.0
 10
48.7992
 20
109.1396
 30
0.0
 10
61.3136
 20
105.3716
 30
0.0
 10
62.021
 20
93.0695
 30
0.0
 10
60.2343
 20
80.2913
 30
0.0
 10
60.2343
 20
80.2913
 30
0.0
 10
55.5267
 20
89.518
 30
0.0
 10
44.3001
 20
90.7519
 30
0.0
 10
41.9262
 20
101.3243
 30
0.0
 10
41.9262
 20
101.3243
 30
0.0
 10
38.0175
 20
94.9257
 30
0.0
 10
37.3356
 20
81.0593
 30
0.0
 10
40.5414
 20
74.5936
 30
0.0
 10
40.5414
 20
74.5936
 30
0.0
 10
41.5334
 20
72.6491
 30
0.0
 10
42.2853
 20
72.305
 30
0.0
 10
45.0356
 20
72.5368
 30
0.0
 10
45.0356
 20
72.5368
 30
0.0
 10
54.1413
 20
73.1911
 30
0.0
 10
59.4052
 20
69.1765
 30
0.0
 10
62.7921
 20
63.0911
 30
0.0
 10
62.7921
 20
63.0911
 30
0.0
 10
68.0194
 20
72.3545
 30
0.0
 10
78.4662
 20
78.8193
 30
0.0
 10
88.0284
 20
79.9212
 30
0.0
 10
88.0284
 20
79.9212
 30
0.0
 10
87.2894
 20
80.6602
 30
0.0
 10
88.8963
 20
87.6172
 30
0.0
 10
89.5833
 20
88.5464
 30
0.0
  0
SPLINE
  5
60
330
1F
100
AcDbEntity
  8
layer 1
 62
     7
100
AcDbSpline
210
0.0
220
0.0
230
1.0
 70
    11
 71
     3
 72
    20
 73
    16
 74
     0
 42
0.0000000001
 43
0.0000000001
 12
1.0
 22
0.0
 32
0.0
 13
1.0
 23
0.0
 33
0.0
 40
0.0
 40
0.0
 40
0.0
 40
0.0
 40
0.2
 40
0.2
 40
0.2
 40
0.2
 40
0.4
 40
0.4
 40
0.4
 40
0.4
 40
0.6
 40
0.6
 40
0.6
 40
0.6
 40
1.0
 40
1.0
 40
1.0
 40
1.0
 10
103.2176
 20
93.6716
 30
0.0
 10
95.7354
 20
91.1656
 30
0.0
 10
92.3713
 20
86.9748
 30
0.0
 10
92.1576
 20
80.4722
 30
0.0
 10
92.1576
 20
80.4722
 30
0.0
 10
106.5185
 20
80.1581
 30
0.0
 10
114.2838
 20
74.2648
 30
0.0
 10
121.3876
 20
64.1729
 30
0.0
 10
121.3876
 20
64.1729
 30
0.0
 10
122.7189
 20
70.8491
 30
0.0
 10
123.2207
 20
78.8797
 30
0.0
 10
120.6134
 20
84.284
 30
0.0
 10
120.6134
 20
84.284
 30
0.0
 10
120.6135
 20
84.284
 30
0.0
 10
116.6945
 20
95.9447
 30
0.0
 10
103.2176
 20
93.6716
 30
0.0
  0
SPLINE
  5
61
330
1F
100
AcDbEntity
  8
layer 1
 62
     7
100
AcDbSpline
210
0.0
220
0.0
230
1.0
 70
    11
 71
     3
 72
    52
 73
    48
 74
     0
 42
0.0000000001
 43
0.0000000001
 12
1.0
 22
0.0
 32
0.0
 13
1.0
 23
0.0
 33
0.0
 40
0.0
 40
0.0
 40
0.0
 40
0.0
 40
0.0769230769230769
 40
0.0769230769230769
 40
0.0769230769230769
 40
0.0769230769230769
 40
0.1538461538461539
 40
0.1538461538461539
 40
0.1538461538461539
 40
0.1538461538461539
 40
0.2307692307692308
 40
0.2307692307692308
 40
0.2307692307692308
 40
0.2307692307692308
 40
0.3076923076923077
 40
0.3076923076923077
 40
0.3076923076923077
 40
0.3076923076923077
 40
0.3846153846153846
 40
0.3846153846153846
 40
0.3846153846153846
 40
0.3846153846153846
 40
0.4615384615384616
 40
0.4615384615384616
 40
0.4615384615384616
 40
0.4615384615384616
 40
0.5384615384615384
 40
0.5384615384615384
 40
0.5384615384615384
 40
0.5384615384615384
 40
0.6153846153846154
 40
0.6153846153846154
 40
0.6153846153846154
 40
0.6153846153846154
 40
0.6923076923076923
 40
0.6923076923076923
 40
0.6923076923076923
 40
0.6923076923076923
 40
0.7692307692307693
 40
0.7692307692307693
 40
0.7692307692307693
 40
0.7692307692307693
 40
0.8461538461538461
 40
0.8461538461538461
 40
0.8461538461538461
 40
0.8461538461538461
 40
1.0
 40
1.0
 40
1.0
 40
1.0
 10
185.9114
 20
82.6164
 30
0.0
 10
185.9114
 20
82.6164
 30
0.0
 10
185.7261
 20
100.1664
 30
0.0
 10
185.7261
 20
100.1664
 30
0.0
 10
185.7261
 20
100.1664
 30
0.0
 10
185.7261
 20
100.1664
 30
0.0
 10
184.574
 20
100.9045
 30
0.0
 10
184.574
 20
100.9045
 30
0.0
 10
184.574
 20
100.9045
 30
0.0
 10
183.9404
 20
101.3104
 30
0.0
 10
183.3712
 20
101.5918
 30
0.0
 10
183.3091
 20
101.5297
 30
0.0
 10
183.3091
 20
101.5297
 30
0.0
 10
183.2471
 20
101.4676
 30
0.0
 10
183.3477
 20
100.3493
 30
0.0
 10
183.5325
 20
99.0446
 30
0.0
 10
183.5325
 20
99.0446
 30
0.0
 10
183.9551
 20
96.063
 30
0.0
 10
183.6927
 20
89.4633
 30
0.0
 10
183.0296
 20
86.4003
 30
0.0
 10
183.0296
 20
86.4003
 30
0.0
 10
181.8436
 20
80.9209
 30
0.0
 10
179.5953
 20
75.8926
 30
0.0
 10
176.5955
 20
72.0101
 30
0.0
 10
176.5955
 20
72.0101
 30
0.0
 10
175.6654
 20
70.8065
 30
0.0
 10
174.9045
 20
69.769
 30
0.0
 10
174.9045
 20
69.7046
 30
0.0
 10
174.9045
 20
69.7046
 30
0.0
 10
174.9045
 20
69.6403
 30
0.0
 10
175.8168
 20
69.5294
 30
0.0
 10
176.9319
 20
69.4585
 30
0.0
 10
176.9319
 20
69.4585
 30
0.0
 10
179.3018
 20
69.3076
 30
0.0
 10
183.0504
 20
67.6309
 30
0.0
 10
184.5727
 20
66.041
 30
0.0
 10
184.5727
 20
66.041
 30
0.0
 10
185.0858
 20
65.5051
 30
0.0
 10
185.6387
 20
65.0665
 30
0.0
 10
185.8012
 20
65.0665
 30
0.0
 10
185.8012
 20
65.0665
 30
0.0
 10
185.9822
 20
65.0665
 30
0.0
 10
186.0249
 20
71.8708
 30
0.0
 10
185.9113
 20
82.6164
 30
0.0
 10
185.9113
 20
82.6164
 30
0.0
 10
185.9113
 20
82.6164
 30
0.0
 10
185.9114
 20
82.6164
 30
0.0
 10
185.9114
 20
82.6164
 30
0.0
  0
SPLINE
  5
62
330
1F
100
AcDbEntity
  8
layer 1
 62
     7
100
AcDbSpline
210
0.0
220
0.0
230
1.0
 70
    11
 71
     3
 72
    68
 73
    64
 74
     0
 42
0.0000000001
 43
0.0000000001
 12
1.0
 22
0.0
 32
0.0
 13
1.0
 23
0.0
 33
0.0
 40
0.0
 40
0.0
 40
0.0
 40
0.0
 40
0.0588235294117647
 40
0.0588235294117647
 40
0.0588235294117647
 40
0.0588235294117647
 40
0.1176470588235294
 40
0.1176470588235294
 40
0.1176470588235294
 40
0.1176470588235294
 40
0.1764705882352941
 40
0.1764705882352941
 40
0.1764705882352941
 40
0.1764705882352941
 40
0.2352941176470588
 40
0.2352941176470588
 40
0.2352941176470588
 40
0.2352941176470588
 40
0.2941176470588235
 40
0.2941176470588235
 40
0.2941176470588235
 40
0.2941176470588235
 40
0.3529411764705883
 40
0.3529411764705883
 40
0.3529411764705883
 40
0.3529411764705883
 40
0.4117647058823529
 40
0.4117647058823529
 40
0.4117647058823529
 40
0.4117647058823529
 40
0.4705882352941176
 40
0.4705882352941176
 40
0.4705882352941176
 40
0.4705882352941176
 40
0.5294117647058824
 40
0.5294117647058824
 40
0.5294117647058824
 40
0.5294117647058824
 40
0.5882352941176471
 40
0.5882352941176471
 40
0.5882352941176471
 40
0.5882352941176471
 40
0.6470588235294118
 40
0.6470588235294118
 40
0.6470588235294118
 40
0.6470588235294118
 40
0.7058823529411765
 40
0.7058823529411765
 40
0.7058823529411765
 40
0.7058823529411765
 40
0.7647058823529411
 40
0.7647058823529411
 40
0.7647058823529411
 40
0.7647058823529411
 40
0.8235294117647058
 40
0.8235294117647058
 40
0.8235294117647058
 40
0.8235294117647058
 40
0.8823529411764706
 40
0.8823529411764706
 40
0.8823529411764706
 40
0.8823529411764706
 40
1.0
 40
1.0
 40
1.0
 40
1.0
 10
179.0437
 20
87.2747
 30
0.0
 10
179.718
 20
92.7933
 30
0.0
 10
180.2823
 20
97.0909
 30
0.0
 10
178.744
 20
102.4942
 30
0.0
 10
178.744
 20
102.4942
 30
0.0
 10
175.8692
 20
110.2207
 30
0.0
 10
170.3201
 20
116.1743
 30
0.0
 10
163.4588
 20
116.4699
 30
0.0
 10
163.4588
 20
116.4699
 30
0.0
 10
154.0646
 20
117.362
 30
0.0
 10
143.7047
 20
110.4622
 30
0.0
 10
133.6146
 20
99.5513
 30
0.0
 10
133.6146
 20
99.5513
 30
0.0
 10
132.7959
 20
94.4455
 30
0.0
 10
129.7539
 20
87.5244
 30
0.0
 10
124.8035
 20
85.2297
 30
0.0
 10
124.8035
 20
85.2297
 30
0.0
 10
125.5101
 20
83.15
 30
0.0
 10
126.234
 20
80.7769
 30
0.0
 10
126.6724
 20
78.7377
 30
0.0
 10
126.6724
 20
78.7377
 30
0.0
 10
131.6544
 20
81.285
 30
0.0
 10
139.5931
 20
80.9941
 30
0.0
 10
143.0608
 20
77.2058
 30
0.0
 10
143.0608
 20
77.2058
 30
0.0
 10
142.2651
 20
92.0176
 30
0.0
 10
149.3376
 20
97.9094
 30
0.0
 10
157.4342
 20
98.5384
 30
0.0
 10
157.4342
 20
98.5384
 30
0.0
 10
163.8887
 20
98.5918
 30
0.0
 10
168.0641
 20
94.5063
 30
0.0
 10
169.3361
 20
89.5699
 30
0.0
 10
169.3361
 20
89.5699
 30
0.0
 10
169.4421
 20
89.0874
 30
0.0
 10
170.1796
 20
88.0803
 30
0.0
 10
170.975
 20
87.3317
 30
0.0
 10
170.975
 20
87.3317
 30
0.0
 10
174.7144
 20
82.241
 30
0.0
 10
170.7027
 20
75.6572
 30
0.0
 10
165.8925
 20
75.5556
 30
0.0
 10
165.8925
 20
75.5556
 30
0.0
 10
161.5158
 20
75.5713
 30
0.0
 10
158.559
 20
78.342
 30
0.0
 10
158.5806
 20
82.4073
 30
0.0
 10
158.5806
 20
82.4073
 30
0.0
 10
159.4037
 20
87.0215
 30
0.0
 10
160.9881
 20
89.0425
 30
0.0
 10
165.0231
 20
89.4138
 30
0.0
 10
165.0231
 20
89.4138
 30
0.0
 10
163.0239
 20
93.704
 30
0.0
 10
158.358
 20
96.2387
 30
0.0
 10
153.5246
 20
93.5482
 30
0.0
 10
153.5246
 20
93.5482
 30
0.0
 10
146.9947
 20
88.6272
 30
0.0
 10
145.7376
 20
80.0482
 30
0.0
 10
148.1851
 20
72.5607
 30
0.0
 10
148.1851
 20
72.5607
 30
0.0
 10
150.0321
 20
67.3059
 30
0.0
 10
154.3972
 20
65.3726
 30
0.0
 10
161.1891
 20
66.8013
 30
0.0
 10
161.1891
 20
66.8013
 30
0.0
 10
172.6196
 20
69.1773
 30
0.0
 10
178.1345
 20
83.028
 30
0.0
 10
179.0437
 20
87.2747
 30
0.0
  0
SPLINE
  5
63
330
1F
100
AcDbEntity
  8
layer 1
 62
     7
100
AcDbSpline
210
0.0
220
0.0
230
1.0
 70
    11
 71
     3
 72
    36
 73
    32
 74
     0
 42
0.0000000001
 43
0.0000000001
 12
1.0
 22
0.0
 32
0.0
 13
1.0
 23
0.0
 33
0.0
 40
0.0
 40
0.0
 40
0.0
 40
0.0
 40
0.1111111111111111
 40
0.1111111111111111
 40
0.1111111111111111
 40
0.1111111111111111
 40
0.2222222222222222
 40
0.2222222222222222
 40
0.2222222222222222
 40
0.2222222222222222
 40
0.3333333333333333
 40
0.3333333333333333
 40
0.3333333333333333
 40
0.3333333333333333
 40
0.4444444444444444
 40
0.4444444444444444
 40
0.4444444444444444
 40
0.4444444444444444
 40
0.5555555555555556
 40
0.5555555555555556
 40
0.5555555555555556
 40
0.5555555555555556
 40
0.6666666666666666
 40
0.6666666666666666
 40
0.6666666666666666
 40
0.6666666666666666
 40
0.7777777777777778
 40
0.7777777777777778
 40
0.7777777777777778
 40
0.7777777777777778
 40
1.0
 40
1.0
 40
1.0
 40
1.0
 10
123.7238
 20
89.3458
 30
0.0
 10
130.647
 20
97.7032
 30
0.0
 10
130.4604
 20
110.1691
 30
0.0
 10
124.8951
 20
117.9409
 30
0.0
 10
124.8951
 20
117.9409
 30
0.0
 10
123.9334
 20
102.8533
 30
0.0
 10
111.6882
 20
101.488
 30
0.0
 10
100.893
 20
99.8369
 30
0.0
 10
100.893
 20
99.8369
 30
0.0
 10
106.4877
 20
107.9518
 30
0.0
 10
102.1317
 20
114.8615
 30
0.0
 10
111.1214
 20
121.6075
 30
0.0
 10
111.1214
 20
121.6075
 30
0.0
 10
111.1214
 20
121.6075
 30
0.0
 10
50.5122
 20
121.6075
 30
0.0
 10
50.5122
 20
121.6075
 30
0.0
 10
50.5122
 20
121.6075
 30
0.0
 10
50.1582
 20
118.9495
 30
0.0
 10
48.6797
 20
116.0889
 30
0.0
 10
47.6435
 20
113.763
 30
0.0
 10
47.6435
 20
113.763
 30
0.0
 10
68.3684
 20
125.8079
 30
0.0
 10
95.8964
 20
121.6554
 30
0.0
 10
96.4151
 20
95.6741
 30
0.0
 10
96.4151
 20
95.6741
 30
0.0
 10
106.893
 20
98.7651
 30
0.0
 10
116.7217
 20
98.434
 30
0.0
 10
122.0957
 20
89.7942
 30
0.0
 10
122.0957
 20
89.7942
 30
0.0
 10
122.7205
 20
88.7365
 30
0.0
 10
122.6063
 20
88.7679
 30
0.0
 10
123.7238
 20
89.3458
 30
0.0
  0
SPLINE
  5
64
330
1F
100
AcDbEntity
  8
layer 1
 62
     7
100
AcDbSpline
210
0.0
220
0.0
230
1.0
 70
    11
 71
     3
 72
    16
 73
    12
 74
     0
 42
0.0000000001
 43
0.0000000001
 12
1.0
 22
0.0
 32
0.0
 13
1.0
 23
0.0
 33
0.0
 40
0.0
 40
0.0
 40
0.0
 40
0.0
 40
0.25
 40
0.25
 40
0.25
 40
0.25
 40
0.5
 40
0.5
 40
0.5
 40
0.5
 40
1.0
 40
1.0
 40
1.0
 40
1.0
 10
46.2578
 20
121.6554
 30
0.0
 10
46.2578
 20
121.6554
 30
0.0
 10
27.1991
 20
121.6075
 30
0.0
 10
27.1991
 20
121.6075
 30
0.0
 10
27.1991
 20
121.6075
 30
0.0
 10
27.1991
 20
121.6075
 30
0.0
 10
27.1991
 20
104.0573
 30
0.0
 10
27.1991
 20
104.0573
 30
0.0
 10
27.1991
 20
104.0573
 30
0.0
 10
38.1223
 20
105.6585
 30
0.0
 10
44.3729
 20
112.8265
 30
0.0
 10
46.2578
 20
121.6554
 30
0.0
  0
SPLINE
  5
65
330
1F
100
AcDbEntity
  8
layer 1
 62
     7
100
AcDbSpline
210
0.0
220
0.0
230
1.0
 70
    11
 71
     3
 72
    16
 73
    12
 74
     0
 42
0.0000000001
 43
0.0000000001
 12
1.0
 22
0.0
 32
0.0
 13
1.0
 23
0.0
 33
0.0
 40
0.0
 40
0.0
 40
0.0
 40
0.0
 40
0.25
 40
0.25
 40
0.25
 40
0.25
 40
0.5
 40
0.5
 40
0.5
 40
0.5
 40
1.0
 40
1.0
 40
1.0
 40
1.0
 10
185.758
 20
121.4487
 30
0.0
 10
185.758
 20
121.4487
 30
0.0
 10
181.7489
 20
121.4487
 30
0.0
 10
181.7489
 20
121.4487
 30
0.0
 10
181.7489
 20
121.4487
 30
0.0
 10
180.8253
 20
117.2185
 30
0.0
 10
179.3561
 20
106.9762
 30
0.0
 10
185.9783
 20
105.3537
 30
0.0
 10
185.9783
 20
105.3537
 30
0.0
 10
185.9783
 20
105.3537
 30
0.0
 10
185.758
 20
121.4487
 30
0.0
 10
185.758
 20
121.4487
 30
0.0
  0
SPLINE
  5
66
330
1F
100
AcDbEntity
  8
layer 1
 62
     7
100
AcDbSpline
210
0.0
220
0.0
230
1.0
 70
    11
 71
     3
 72
    20
 73
    16
 74
     0
 42
0.0000000001
 43
0.0000000001
 12
1.0
 22
0.0
 32
0.0
 13
1.0
 23
0.0
 33
0.0
 40
0.0
 40
0.0
 40
0.0
 40
0.0
 40
0.2
 40
0.2
 40
0.2
 40
0.2
 40
0.4
 40
0.4
 40
0.4
 40
0.4
 40
0.6
 40
0.6
 40
0.6
 40
0.6
 40
1.0
 40
1.0
 40
1.0
 40
1.0
 10
176.5021
 20
114.6192
 30
0.0
 10
177.1196
 20
117.2357
 30
0.0
 10
177.1598
 20
119.1563
 30
0.0
 10
177.5294
 20
121.6074
 30
0.0
 10
177.5294
 20
121.6074
 30
0.0
 10
177.5294
 20
121.6074
 30
0.0
 10
126.9399
 20
121.5037
 30
0.0
 10
126.9399
 20
121.5037
 30
0.0
 10
126.9399
 20
121.5037
 30
0.0
 10
130.6359
 20
117.244
 30
0.0
 10
132.6787
 20
113.9176
 30
0.0
 10
133.5009
 20
105.5161
 30
0.0
 10
133.5009
 20
105.5161
 30
0.0
 10
144.8025
 20
119.22
 30
0.0
 10
165.2126
 20
125.3036
 30
0.0
 10
176.5021
 20
114.6192
 30
0.0
  0
ENDSEC
  0
SECTION
  2
OBJECTS
  0
DICTIONARY
  5
C
330
0
100
AcDbDictionary
281
     1
  3
ACAD_GROUP
350
D
  3
ACAD_LAYOUT
350
1A
  3
ACAD_MATERIAL
350
3B
  3
ACAD_MLEADERSTYLE
350
89
  3
ACAD_MLINESTYLE
350
17
  3
ACAD_PLOTSETTINGS
350
19
  3
ACAD_PLOTSTYLENAME
350
E
  3
ACAD_TABLESTYLE
350
88
  3
ACAD_VISUALSTYLE
350
2A
  0
DICTIONARY
  5
D
102
{ACAD_REACTORS
330
C
102
}
330
C
100
AcDbDictionary
281
     1
  0
DICTIONARY
  5
1A
102
{ACAD_REACTORS
330
C
102
}
330
C
100
AcDbDictionary
281
     1
  3
Layout1
350
1E
  3
Layout2
350
26
  3
Model
350
22
  0
DICTIONARY
  5
3B
102
{ACAD_REACTORS
330
C
102
}
330
C
100
AcDbDictionary
281
     1
  3
ByBlock
350
3D
  3
ByLayer
350
3C
  3
Global
350
3E
  0
DICTIONARY
  5
89
102
{ACAD_REACTORS
330
C
102
}
330
C
100
AcDbDictionary
281
     1
  0
DICTIONARY
  5
17
102
{ACAD_REACTORS
330
C
102
}
330
C
100
AcDbDictionary
281
     1
  3
Standard
350
18
  0
DICTIONARY
  5
19
102
{ACAD_REACTORS
330
C
102
}
330
C
100
AcDbDictionary
281
     1
  0
ACDBDICTIONARYWDFLT
  5
E
102
{ACAD_REACTORS
330
C
102
}
330
C
100
AcDbDictionary
281
     1
  3
Normal
350
F
100
AcDbDictionaryWithDefault
340
F
  0
DICTIONARY
  5
88
102
{ACAD_REACTORS
330
C
102
}
330
C
100
AcDbDictionary
281
     1
  0
DICTIONARY
  5
2A
102
{ACAD_REACTORS
330
C
102
}
330
C
100
AcDbDictionary
281
     1
  3
2dWireframe
350
2F
  3
3D Hidden
350
31
  3
3dWireframe
350
30
  3
Basic
350
32
  3
Brighten
350
36
  3
ColorChange
350
3A
  3
Conceptual
350
34
  3
Dim
350
35
  3
Facepattern
350
39
  3
Flat
350
2B
  3
FlatWithEdges
350
2C
  3
Gouraud
350
2D
  3
GouraudWithEdges
350
2E
  3
Linepattern
350
38
  3
Realistic
350
33
  3
Thicken
350
37
  0
LAYOUT
  5
1E
102
{ACAD_REACTORS
330
1A
102
}
330
1A
100
AcDbPlotSettings
  1

  2
none_device
  4

  6

 40
0.0
 41
0.0
 42
0.0
 43
0.0
 44
0.0
 45
0.0
 46
0.0
 47
0.0
 48
0.0
 49
0.0
140
0.0
141
0.0
142
1.0
143
1.0
 70
   688
 72
     0
 73
     0
 74
     5
  7

 75
    16
 76
     0
 77
     2
 78
   300
147
1.0
148
0.0
149
0.0
100
AcDbLayout
  1
Layout1
 70
     1
 71
     1
 10
0.0
 20
0.0
 11
12.0
 21
9.0
 12
0.0
 22
0.0
 32
0.0
 14
1.000000000000000E+20
 24
1.000000000000000E+20
 34
1.000000000000000E+20
 15
-1.000000000000000E+20
 25
-1.000000000000000E+20
 35
-1.000000000000000E+20
146
0.0
 13
0.0
 23
0.0
 33
0.0
 16
1.0
 26
0.0
 36
0.0
 17
0.0
 27
1.0
 37
0.0
 76
     0
330
1B
  0
LAYOUT
  5
26
102
{ACAD_REACTORS
330
1A
102
}
330
1A
100
AcDbPlotSettings
  1

  2
none_device
  4

  6

 40
0.0
 41
0.0
 42
0.0
 43
0.0
 44
0.0
 45
0.0
 46
0.0
 47
0.0
 48
0.0
 49
0.0
140
0.0
141
0.0
142
1.0
143
1.0
 70
   688
 72
     0
 73
     0
 74
     5
  7

 75
    16
 76
     0
 77
     2
 78
   300
147
1.0
148
0.0
149
0.0
100
AcDbLayout
  1
Layout2
 70
     1
 71
     2
 10
0.0
 20
0.0
 11
0.0
 21
0.0
 12
0.0
 22
0.0
 32
0.0
 14
0.0
 24
0.0
 34
0.0
 15
0.0
 25
0.0
 35
0.0
146
0.0
 13
0.0
 23
0.0
 33
0.0
 16
1.0
 26
0.0
 36
0.0
 17
0.0
 27
1.0
 37
0.0
 76
     0
330
23
  0
LAYOUT
  5
22
102
{ACAD_REACTORS
330
1A
102
}
330
1A
100
AcDbPlotSettings
  1

  2
none_device
  4

  6

 40
0.0
 41
0.0
 42
0.0
 43
0.0
 44
0.0
 45
0.0
 46
0.0
 47
0.0
 48
0.0
 49
0.0
140
0.0
141
0.0
142
1.0
143
1.0
 70
  1712
 72
     0
 73
     0
 74
     0
  7

 75
     0
 76
     0
 77
     2
 78
   300
147
1.0
148
0.0
149
0.0
100
AcDbLayout
  1
Model
 70
     1
 71
     0
 10
0.0
 20
0.0
 11
12.0
 21
9.0
 12
0.0
 22
0.0
 32
0.0
 14
16.9952
 24
-115.0151
 34
0.0
 15
196.1477
 25
131.796
 35
0.0
146
0.0
 13
0.0
 23
0.0
 33
0.0
 16
1.0
 26
0.0
 36
0.0
 17
0.0
 27
1.0
 37
0.0
 76
     0
330
1F
331
29
  0
MATERIAL
  5
3D
102
{ACAD_REACTORS
330
3B
102
}
330
3B
100
AcDbMaterial
  1
ByBlock
 72
     1
 94
      127
  0
MATERIAL
  5
3C
102
{ACAD_REACTORS
330
3B
102
}
330
3B
100
AcDbMaterial
  1
ByLayer
 72
     1
 94
      127
  0
MATERIAL
  5
3E
102
{ACAD_REACTORS
330
3B
102
}
330
3B
100
AcDbMaterial
  1
Global
 72
     1
 94
      127
  0
MLINESTYLE
  5
18
102
{ACAD_REACTORS
330
17
102
}
330
17
100
AcDbMlineStyle
  2
Standard
 70
     0
  3

 62
   256
 51
90.0
 52
90.0
 71
     2
 49
0.5
 62
   256
  6
BYLAYER
 49
-0.5
 62
   256
  6
BYLAYER
  0
ACDBPLACEHOLDER
  5
F
102
{ACAD_REACTORS
330
E
102
}
330
E
  0
VISUALSTYLE
  5
2F
102
{ACAD_REACTORS
330
2A
102
}
102
{ACAD_XDICTIONARY
360
70
102
}
330
2A
100
AcDbVisualStyle
  2
2dWireframe
 70
     4
 71
     0
 72
     2
 73
     0
 90
        0
 40
-0.6
 41
-30.0
 62
     5
 63
     7
421
 16777215
 74
     1
 91
        4
 64
     7
 65
   257
 75
     1
175
     1
 42
1.0
 92
        0
 66
   257
 43
1.0
 76
     1
 77
     6
 78
     2
 67
     7
 79
     5
170
     0
171
     0
290
     0
174
     0
 93
        1
 44
0.0
173
     0
291
     0
 45
0.0
  0
VISUALSTYLE
  5
31
102
{ACAD_REACTORS
330
2A
102
}
102
{ACAD_XDICTIONARY
360
74
102
}
330
2A
100
AcDbVisualStyle
  2
3D Hidden
 70
     6
 71
     1
 72
     2
 73
     2
 90
        0
 40
-0.6
 41
-30.0
 62
     5
 63
     7
421
 16777215
 74
     2
 91
        2
 64
     7
 65
   257
 75
     2
175
     1
 42
40.0
 92
        0
 66
   257
 43
1.0
 76
     1
 77
     6
 78
     2
 67
     7
 79
     3
170
     0
171
     0
290
     0
174
     0
 93
        1
 44
0.0
173
     0
291
     0
 45
0.0
  0
VISUALSTYLE
  5
30
102
{ACAD_REACTORS
330
2A
102
}
102
{ACAD_XDICTIONARY
360
72
102
}
330
2A
100
AcDbVisualStyle
  2
3dWireframe
 70
     5
 71
     0
 72
     2
 73
     0
 90
        0
 40
-0.6
 41
-30.0
 62
     5
 63
     7
421
 16777215
 74
     1
 91
        4
 64
     7
 65
   257
 75
     1
175
     1
 42
1.0
 92
        0
 66
   257
 43
1.0
 76
     1
 77
     6
 78
     2
 67
     7
 79
     5
170
     0
171
     0
290
     0
174
     0
 93
        1
 44
0.0
173
     0
291
     0
 45
0.0
  0
VISUALSTYLE
  5
32
102
{ACAD_REACTORS
330
2A
102
}
102
{ACAD_XDICTIONARY
360
76
102
}
330
2A
100
AcDbVisualStyle
  2
Basic
 70
     7
 71
     1
 72
     0
 73
     1
 90
        0
 40
-0.6
 41
-30.0
 62
     5
 63
     7
421
 16777215
 74
     0
 91
        4
 64
     7
 65
   257
 75
     1
175
     1
 42
1.0
 92
        8
 66
     7
 43
1.0
 76
     1
 77
     6
 78
     2
 67
     7
 79
     5
170
     0
171
     0
290
     0
174
     0
 93
        1
 44
0.0
173
     0
291
     1
 45
0.0
  0
VISUALSTYLE
  5
36
102
{ACAD_REACTORS
330
2A
102
}
102
{ACAD_XDICTIONARY
360
7E
102
}
330
2A
100
AcDbVisualStyle
  2
Brighten
 70
    12
 71
     2
 72
     2
 73
     0
 90
        0
 40
-0.6
 41
-30.0
 62
     5
 63
     7
421
 16777215
 74
     1
 91
        4
 64
     7
 65
   257
 75
     1
175
     1
 42
1.0
 92
        8
 66
     7
 43
1.0
 76
     1
 77
     6
 78
     2
 67
     7
 79
     5
170
     0
171
     0
290
     0
174
     0
 93
        1
 44
50.0
173
     0
291
     1
 45
0.0
  0
VISUALSTYLE
  5
3A
102
{ACAD_REACTORS
330
2A
102
}
102
{ACAD_XDICTIONARY
360
86
102
}
330
2A
100
AcDbVisualStyle
  2
ColorChange
 70
    16
 71
     2
 72
     2
 73
     3
 90
        0
 40
-0.6
 41
-30.0
 62
     5
 63
     8
421
  8421504
 74
     1
 91
        4
 64
     7
 65
   257
 75
     1
175
     1
 42
1.0
 92
        8
 66
     8
424
  8421504
 43
1.0
 76
     1
 77
     6
 78
     2
 67
     7
 79
     5
170
     0
171
     0
290
     0
174
     0
 93
        1
 44
0.0
173
     0
291
     1
 45
0.0
  0
VISUALSTYLE
  5
34
102
{ACAD_REACTORS
330
2A
102
}
102
{ACAD_XDICTIONARY
360
7A
102
}
330
2A
100
AcDbVisualStyle
  2
Conceptual
 70
     9
 71
     3
 72
     2
 73
     0
 90
        0
 40
-0.6
 41
-30.0
 62
     5
 63
     7
421
 16777215
 74
     2
 91
        2
 64
     7
 65
   257
 75
     1
175
     1
 42
40.0
 92
        8
 66
     7
 43
1.0
 76
     1
 77
     6
 78
     2
 67
     7
 79
     3
170
     0
171
     0
290
     0
174
     0
 93
        1
 44
0.0
173
     0
291
     0
 45
0.0
  0
VISUALSTYLE
  5
35
102
{ACAD_REACTORS
330
2A
102
}
102
{ACAD_XDICTIONARY
360
7C
102
}
330
2A
100
AcDbVisualStyle
  2
Dim
 70
    11
 71
     2
 72
     2
 73
     0
 90
        0
 40
-0.6
 41
-30.0
 62
     5
 63
     7
421
 16777215
 74
     1
 91
        4
 64
     7
 65
   257
 75
     1
175
     1
 42
1.0
 92
        8
 66
     7
 43
1.0
 76
     1
 77
     6
 78
     2
 67
     7
 79
     5
170
     0
171
     0
290
     0
174
     0
 93
        1
 44
-50.0
173
     0
291
     1
 45
0.0
  0
VISUALSTYLE
  5
39
102
{ACAD_REACTORS
330
2A
102
}
102
{ACAD_XDICTIONARY
360
84
102
}
330
2A
100
AcDbVisualStyle
  2
Facepattern
 70
    15
 71
     2
 72
     2
 73
     0
 90
        0
 40
-0.6
 41
-30.0
 62
     5
 63
     7
421
 16777215
 74
     1
 91
        4
 64
     7
 65
   257
 75
     1
175
     1
 42
1.0
 92
        8
 66
     7
 43
1.0
 76
     1
 77
     6
 78
     2
 67
     7
 79
     5
170
     0
171
     0
290
     0
174
     0
 93
        1
 44
0.0
173
     0
291
     1
 45
0.0
  0
VISUALSTYLE
  5
2B
102
{ACAD_REACTORS
330
2A
102
}
102
{ACAD_XDICTIONARY
360
68
102
}
330
2A
100
AcDbVisualStyle
  2
Flat
 70
     0
 71
     2
 72
     1
 73
     1
 90
        2
 40
-0.6
 41
30.0
 62
     5
 63
     7
421
 16777215
 74
     0
 91
        4
 64
     7
 65
   257
 75
     1
175
     1
 42
1.0
 92
        8
 66
     7
 43
1.0
 76
     1
 77
     6
 78
     2
 67
     7
 79
     5
170
     0
171
     0
290
     0
174
     0
 93
       13
 44
0.0
173
     0
291
     1
 45
0.0
  0
VISUALSTYLE
  5
2C
102
{ACAD_REACTORS
330
2A
102
}
102
{ACAD_XDICTIONARY
360
6A
102
}
330
2A
100
AcDbVisualStyle
  2
FlatWithEdges
 70
     1
 71
     2
 72
     1
 73
     1
 90
        2
 40
-0.6
 41
30.0
 62
     5
 63
     7
421
 16777215
 74
     1
 91
        4
 64
     7
 65
   257
 75
     1
175
     1
 42
1.0
 92
        0
 66
   257
 43
1.0
 76
     1
 77
     6
 78
     2
 67
     7
 79
     5
170
     0
171
     0
290
     0
174
     0
 93
       13
 44
0.0
173
     0
291
     1
 45
0.0
  0
VISUALSTYLE
  5
2D
102
{ACAD_REACTORS
330
2A
102
}
102
{ACAD_XDICTIONARY
360
6C
102
}
330
2A
100
AcDbVisualStyle
  2
Gouraud
 70
     2
 71
     2
 72
     2
 73
     1
 90
        2
 40
-0.6
 41
30.0
 62
     5
 63
     7
421
 16777215
 74
     0
 91
        4
 64
     7
 65
   257
 75
     1
175
     1
 42
1.0
 92
        0
 66
     7
 43
1.0
 76
     1
 77
     6
 78
     2
 67
     7
 79
     5
170
     0
171
     0
290
     0
174
     0
 93
       13
 44
0.0
173
     0
291
     1
 45
0.0
  0
VISUALSTYLE
  5
2E
102
{ACAD_REACTORS
330
2A
102
}
102
{ACAD_XDICTIONARY
360
6E
102
}
330
2A
100
AcDbVisualStyle
  2
GouraudWithEdges
 70
     3
 71
     2
 72
     2
 73
     1
 90
        2
 40
-0.6
 41
30.0
 62
     5
 63
     7
421
 16777215
 74
     1
 91
        4
 64
     7
 65
   257
 75
     1
175
     1
 42
1.0
 92
        0
 66
   257
 43
1.0
 76
     1
 77
     6
 78
     2
 67
     7
 79
     5
170
     0
171
     0
290
     0
174
     0
 93
       13
 44
0.0
173
     0
291
     1
 45
0.0
  0
VISUALSTYLE
  5
38
102
{ACAD_REACTORS
330
2A
102
}
102
{ACAD_XDICTIONARY
360
82
102
}
330
2A
100
AcDbVisualStyle
  2
Linepattern
 70
    14
 71
     2
 72
     2
 73
     0
 90
        0
 40
-0.6
 41
-30.0
 62
     5
 63
     7
421
 16777215
 74
     1
 91
        4
 64
     7
 65
   257
 75
     7
175
     7
 42
1.0
 92
        8
 66
     7
 43
1.0
 76
     1
 77
     6
 78
     2
 67
     7
 79
     5
170
     0
171
     0
290
     0
174
     0
 93
        1
 44
0.0
173
     0
291
     1
 45
0.0
  0
VISUALSTYLE
  5
33
102
{ACAD_REACTORS
330
2A
102
}
102
{ACAD_XDICTIONARY
360
78
102
}
330
2A
100
AcDbVisualStyle
  2
Realistic
 70
     8
 71
     2
 72
     2
 73
     0
 90
        0
 40
-0.6
 41
-30.0
 62
     5
 63
     7
421
 16777215
 74
     1
 91
        0
 64
     7
 65
   257
 75
     1
175
     1
 42
1.0
 92
        8
 66
     8
424
  7895160
 43
1.0
 76
     1
 77
     6
 78
     2
 67
     7
 79
     5
170
     0
171
     0
290
     0
174
     0
 93
       13
 44
0.0
173
     0
291
     0
 45
0.0
  0
VISUALSTYLE
  5
37
102
{ACAD_REACTORS
330
2A
102
}
102
{ACAD_XDICTIONARY
360
80
102
}
330
2A
100
AcDbVisualStyle
  2
Thicken
 70
    13
 71
     2
 72
     2
 73
     0
 90
        0
 40
-0.6
 41
-30.0
 62
     5
 63
     7
421
 16777215
 74
     1
 91
        4
 64
     7
 65
   257
 75
     1
175
     1
 42
1.0
 92
       12
 66
     7
 43
1.0
 76
     1
 77
     6
 78
     2
 67
     7
 79
     5
170
     0
171
     0
290
     0
174
     0
 93
        1
 44
0.0
173
     0
291
     1
 45
0.0
  0
DICTIONARY
  5
70
330
2F
100
AcDbDictionary
280
     1
281
     1
  3
ACAD_XREC_ROUNDTRIP
360
71
  0
DICTIONARY
  5
74
330
31
100
AcDbDictionary
280
     1
281
     1
  3
ACAD_XREC_ROUNDTRIP
360
75
  0
DICTIONARY
  5
72
330
30
100
AcDbDictionary
280
     1
281
     1
  3
ACAD_XREC_ROUNDTRIP
360
73
  0
DICTIONARY
  5
76
330
32
100
AcDbDictionary
280
     1
281
     1
  3
ACAD_XREC_ROUNDTRIP
360
77
  0
DICTIONARY
  5
7E
330
36
100
AcDbDictionary
280
     1
281
     1
  3
ACAD_XREC_ROUNDTRIP
360
7F
  0
DICTIONARY
  5
86
330
3A
100
AcDbDictionary
280
     1
281
     1
  3
ACAD_XREC_ROUNDTRIP
360
87
  0
DICTIONARY
  5
7A
330
34
100
AcDbDictionary
280
     1
281
     1
  3
ACAD_XREC_ROUNDTRIP
360
7B
  0
DICTIONARY
  5
7C
330
35
100
AcDbDictionary
280
     1
281
     1
  3
ACAD_XREC_ROUNDTRIP
360
7D
  0
DICTIONARY
  5
84
330
39
100
AcDbDictionary
280
     1
281
     1
  3
ACAD_XREC_ROUNDTRIP
360
85
  0
DICTIONARY
  5
68
330
2B
100
AcDbDictionary
280
     1
281
     1
  3
ACAD_XREC_ROUNDTRIP
360
69
  0
DICTIONARY
  5
6A
330
2C
100
AcDbDictionary
280
     1
281
     1
  3
ACAD_XREC_ROUNDTRIP
360
6B
  0
DICTIONARY
  5
6C
330
2D
100
AcDbDictionary
280
     1
281
     1
  3
ACAD_XREC_ROUNDTRIP
360
6D
  0
DICTIONARY
  5
6E
330
2E
100
AcDbDictionary
280
     1
281
     1
  3
ACAD_XREC_ROUNDTRIP
360
6F
  0
DICTIONARY
  5
82
330
38
100
AcDbDictionary
280
     1
281
     1
  3
ACAD_XREC_ROUNDTRIP
360
83
  0
DICTIONARY
  5
78
330
33
100
AcDbDictionary
280
     1
281
     1
  3
ACAD_XREC_ROUNDTRIP
360
79
  0
DICTIONARY
  5
80
330
37
100
AcDbDictionary
280
     1
281
     1
  3
ACAD_XREC_ROUNDTRIP
360
81
  0
XRECORD
  5
71
102
{ACAD_REACTORS
330
70
102
}
330
70
100
AcDbXrecord
280
     1
102
RTVSPropertyOp0
 70
     1
102
RTVSPropertyOp1
 70
     1
102
RTVSPropertyOp2
 70
     1
102
RTVSPropertyOp3
 70
     1
102
RTVSPropertyOp4
 70
     1
102
RTVSPropertyOp5
 70
     1
102
RTVSPropertyOp6
 70
     1
102
RTVSPropertyOp7
 70
     1
102
RTVSPropertyOp8
 70
     1
102
RTVSPropertyOp9
 70
     1
102
RTVSPropertyOp10
 70
     1
102
RTVSPropertyOp11
 70
     1
102
RTVSPropertyOp12
 70
     1
102
RTVSPropertyOp13
 70
     1
102
RTVSPropertyOp14
 70
     1
102
RTVSPropertyOp15
 70
     1
102
RTVSPropertyOp16
 70
     1
102
RTVSPropertyOp17
 70
     1
102
RTVSPropertyOp18
 70
     1
102
RTVSPropertyOp19
 70
     1
102
RTVSPropertyOp20
 70
     1
102
RTVSPropertyOp21
 70
     1
102
RTVSPropertyOp22
 70
     1
102
RTVSPropertyOp23
 70
     1
102
RTVSPropertyOp24
 70
     1
102
RTVSPropertyOp25
 70
     1
102
RTVSPropertyOp26
 70
     1
102
RTVSPropertyOp27
 70
     1
102
RTVSPropertyOp28
 70
     1
102
RTVSPropertyOp29
 70
     1
102
RTVSPropertyOp30
 70
     1
102
RTVSPropertyOp31
 70
     1
102
RTVSPropertyOp32
 70
     1
  0
XRECORD
  5
75
102
{ACAD_REACTORS
330
74
102
}
330
74
100
AcDbXrecord
280
     1
102
RTVSPropertyOp0
 70
     1
102
RTVSPropertyOp1
 70
     1
102
RTVSPropertyOp2
 70
     1
102
RTVSPropertyOp3
 70
     1
102
RTVSPropertyOp4
 70
     1
102
RTVSPropertyOp5
 70
     1
102
RTVSPropertyOp6
 70
     1
102
RTVSPropertyOp7
 70
     1
102
RTVSPropertyOp8
 70
     1
102
RTVSPropertyOp9
 70
     1
102
RTVSPropertyOp10
 70
     1
102
RTVSPropertyOp11
 70
     1
102
RTVSPropertyOp12
 70
     1
102
RTVSPropertyOp13
 70
     1
102
RTVSPropertyOp14
 70
     1
102
RTVSPropertyOp15
 70
     1
102
RTVSPropertyOp16
 70
     1
102
RTVSPropertyOp17
 70
     1
102
RTVSPropertyOp18
 70
     1
102
RTVSPropertyOp19
 70
     1
102
RTVSPropertyOp20
 70
     1
102
RTVSPropertyOp21
 70
     1
102
RTVSPropertyOp22
 70
     1
102
RTVSPropertyOp23
 70
     1
102
RTVSPropertyOp24
 70
     1
102
RTVSPropertyOp25
 70
     1
102
RTVSPropertyOp26
 70
     1
102
RTVSPropertyOp27
 70
     1
102
RTVSPropertyOp28
 70
     1
102
RTVSPropertyOp29
 70
     1
102
RTVSPropertyOp30
 70
     1
102
RTVSPropertyOp31
 70
     1
102
RTVSPropertyOp32
 70
     1
  0
XRECORD
  5
73
102
{ACAD_REACTORS
330
72
102
}
330
72
100
AcDbXrecord
280
     1
102
RTVSPropertyOp0
 70
     1
102
RTVSPropertyOp1
 70
     1
102
RTVSPropertyOp2
 70
     1
102
RTVSPropertyOp3
 70
     1
102
RTVSPropertyOp4
 70
     1
102
RTVSPropertyOp5
 70
     1
102
RTVSPropertyOp6
 70
     1
102
RTVSPropertyOp7
 70
     1
102
RTVSPropertyOp8
 70
     1
102
RTVSPropertyOp9
 70
     1
102
RTVSPropertyOp10
 70
     1
102
RTVSPropertyOp11
 70
     1
102
RTVSPropertyOp12
 70
     1
102
RTVSPropertyOp13
 70
     1
102
RTVSPropertyOp14
 70
     1
102
RTVSPropertyOp15
 70
     1
102
RTVSPropertyOp16
 70
     1
102
RTVSPropertyOp17
 70
     1
102
RTVSPropertyOp18
 70
     1
102
RTVSPropertyOp19
 70
     1
102
RTVSPropertyOp20
 70
     1
102
RTVSPropertyOp21
 70
     1
102
RTVSPropertyOp22
 70
     1
102
RTVSPropertyOp23
 70
     1
102
RTVSPropertyOp24
 70
     1
102
RTVSPropertyOp25
 70
     1
102
RTVSPropertyOp26
 70
     1
102
RTVSPropertyOp27
 70
     1
102
RTVSPropertyOp28
 70
     1
102
RTVSPropertyOp29
 70
     1
102
RTVSPropertyOp30
 70
     1
102
RTVSPropertyOp31
 70
     1
102
RTVSPropertyOp32
 70
     1
  0
XRECORD
  5
77
102
{ACAD_REACTORS
330
76
102
}
330
76
100
AcDbXrecord
280
     1
102
RTVSPropertyOp0
 70
     1
102
RTVSPropertyOp1
 70
     1
102
RTVSPropertyOp2
 70
     1
102
RTVSPropertyOp3
 70
     1
102
RTVSPropertyOp4
 70
     1
102
RTVSPropertyOp5
 70
     1
102
RTVSPropertyOp6
 70
     1
102
RTVSPropertyOp7
 70
     1
102
RTVSPropertyOp8
 70
     1
102
RTVSPropertyOp9
 70
     1
102
RTVSPropertyOp10
 70
     1
102
RTVSPropertyOp11
 70
     1
102
RTVSPropertyOp12
 70
     1
102
RTVSPropertyOp13
 70
     1
102
RTVSPropertyOp14
 70
     1
102
RTVSPropertyOp15
 70
     1
102
RTVSPropertyOp16
 70
     1
102
RTVSPropertyOp17
 70
     1
102
RTVSPropertyOp18
 70
     1
102
RTVSPropertyOp19
 70
     1
102
RTVSPropertyOp20
 70
     1
102
RTVSPropertyOp21
 70
     1
102
RTVSPropertyOp22
 70
     1
102
RTVSPropertyOp23
 70
     1
102
RTVSPropertyOp24
 70
     1
102
RTVSPropertyOp25
 70
     1
102
RTVSPropertyOp26
 70
     1
102
RTVSPropertyOp27
 70
     1
102
RTVSPropertyOp28
 70
     1
102
RTVSPropertyOp29
 70
     1
102
RTVSPropertyOp30
 70
     1
102
RTVSPropertyOp31
 70
     1
102
RTVSPropertyOp32
 70
     1
  0
XRECORD
  5
7F
102
{ACAD_REACTORS
330
7E
102
}
330
7E
100
AcDbXrecord
280
     1
102
RTVSPropertyOp0
 70
     1
102
RTVSPropertyOp1
 70
     1
102
RTVSPropertyOp2
 70
     1
102
RTVSPropertyOp3
 70
     1
102
RTVSPropertyOp4
 70
     1
102
RTVSPropertyOp5
 70
     1
102
RTVSPropertyOp6
 70
     1
102
RTVSPropertyOp7
 70
     1
102
RTVSPropertyOp8
 70
     1
102
RTVSPropertyOp9
 70
     1
102
RTVSPropertyOp10
 70
     1
102
RTVSPropertyOp11
 70
     1
102
RTVSPropertyOp12
 70
     1
102
RTVSPropertyOp13
 70
     1
102
RTVSPropertyOp14
 70
     1
102
RTVSPropertyOp15
 70
     1
102
RTVSPropertyOp16
 70
     1
102
RTVSPropertyOp17
 70
     1
102
RTVSPropertyOp18
 70
     1
102
RTVSPropertyOp19
 70
     1
102
RTVSPropertyOp20
 70
     1
102
RTVSPropertyOp21
 70
     1
102
RTVSPropertyOp22
 70
     1
102
RTVSPropertyOp23
 70
     1
102
RTVSPropertyOp24
 70
     1
102
RTVSPropertyOp25
 70
     1
102
RTVSPropertyOp26
 70
     1
102
RTVSPropertyOp27
 70
     1
102
RTVSPropertyOp28
 70
     1
102
RTVSPropertyOp29
 70
     1
102
RTVSPropertyOp30
 70
     1
102
RTVSPropertyOp31
 70
     1
102
RTVSPropertyOp32
 70
     1
  0
XRECORD
  5
87
102
{ACAD_REACTORS
330
86
102
}
330
86
100
AcDbXrecord
280
     1
102
RTVSPropertyOp0
 70
     1
102
RTVSPropertyOp1
 70
     1
102
RTVSPropertyOp2
 70
     1
102
RTVSPropertyOp3
 70
     1
102
RTVSPropertyOp4
 70
     1
102
RTVSPropertyOp5
 70
     1
102
RTVSPropertyOp6
 70
     1
102
RTVSPropertyOp7
 70
     1
102
RTVSPropertyOp8
 70
     1
102
RTVSPropertyOp9
 70
     1
102
RTVSPropertyOp10
 70
     1
102
RTVSPropertyOp11
 70
     1
102
RTVSPropertyOp12
 70
     1
102
RTVSPropertyOp13
 70
     1
102
RTVSPropertyOp14
 70
     1
102
RTVSPropertyOp15
 70
     1
102
RTVSPropertyOp16
 70
     1
102
RTVSPropertyOp17
 70
     1
102
RTVSPropertyOp18
 70
     1
102
RTVSPropertyOp19
 70
     1
102
RTVSPropertyOp20
 70
     1
102
RTVSPropertyOp21
 70
     1
102
RTVSPropertyOp22
 70
     1
102
RTVSPropertyOp23
 70
     1
102
RTVSPropertyOp24
 70
     1
102
RTVSPropertyOp25
 70
     1
102
RTVSPropertyOp26
 70
     1
102
RTVSPropertyOp27
 70
     1
102
RTVSPropertyOp28
 70
     1
102
RTVSPropertyOp29
 70
     1
102
RTVSPropertyOp30
 70
     1
102
RTVSPropertyOp31
 70
     1
102
RTVSPropertyOp32
 70
     1
  0
XRECORD
  5
7B
102
{ACAD_REACTORS
330
7A
102
}
330
7A
100
AcDbXrecord
280
     1
102
RTVSPropertyOp0
 70
     1
102
RTVSPropertyOp1
 70
     1
102
RTVSPropertyOp2
 70
     1
102
RTVSPropertyOp3
 70
     1
102
RTVSPropertyOp4
 70
     1
102
RTVSPropertyOp5
 70
     1
102
RTVSPropertyOp6
 70
     1
102
RTVSPropertyOp7
 70
     1
102
RTVSPropertyOp8
 70
     1
102
RTVSPropertyOp9
 70
     1
102
RTVSPropertyOp10
 70
     1
102
RTVSPropertyOp11
 70
     1
102
RTVSPropertyOp12
 70
     1
102
RTVSPropertyOp13
 70
     1
102
RTVSPropertyOp14
 70
     1
102
RTVSPropertyOp15
 70
     1
102
RTVSPropertyOp16
 70
     1
102
RTVSPropertyOp17
 70
     1
102
RTVSPropertyOp18
 70
     1
102
RTVSPropertyOp19
 70
     1
102
RTVSPropertyOp20
 70
     1
102
RTVSPropertyOp21
 70
     1
102
RTVSPropertyOp22
 70
     1
102
RTVSPropertyOp23
 70
     1
102
RTVSPropertyOp24
 70
     1
102
RTVSPropertyOp25
 70
     1
102
RTVSPropertyOp26
 70
     1
102
RTVSPropertyOp27
 70
     1
102
RTVSPropertyOp28
 70
     1
102
RTVSPropertyOp29
 70
     1
102
RTVSPropertyOp30
 70
     1
102
RTVSPropertyOp31
 70
     1
102
RTVSPropertyOp32
 70
     1
  0
XRECORD
  5
7D
102
{ACAD_REACTORS
330
7C
102
}
330
7C
100
AcDbXrecord
280
     1
102
RTVSPropertyOp0
 70
     1
102
RTVSPropertyOp1
 70
     1
102
RTVSPropertyOp2
 70
     1
102
RTVSPropertyOp3
 70
     1
102
RTVSPropertyOp4
 70
     1
102
RTVSPropertyOp5
 70
     1
102
RTVSPropertyOp6
 70
     1
102
RTVSPropertyOp7
 70
     1
102
RTVSPropertyOp8
 70
     1
102
RTVSPropertyOp9
 70
     1
102
RTVSPropertyOp10
 70
     1
102
RTVSPropertyOp11
 70
     1
102
RTVSPropertyOp12
 70
     1
102
RTVSPropertyOp13
 70
     1
102
RTVSPropertyOp14
 70
     1
102
RTVSPropertyOp15
 70
     1
102
RTVSPropertyOp16
 70
     1
102
RTVSPropertyOp17
 70
     1
102
RTVSPropertyOp18
 70
     1
102
RTVSPropertyOp19
 70
     1
102
RTVSPropertyOp20
 70
     1
102
RTVSPropertyOp21
 70
     1
102
RTVSPropertyOp22
 70
     1
102
RTVSPropertyOp23
 70
     1
102
RTVSPropertyOp24
 70
     1
102
RTVSPropertyOp25
 70
     1
102
RTVSPropertyOp26
 70
     1
102
RTVSPropertyOp27
 70
     1
102
RTVSPropertyOp28
 70
     1
102
RTVSPropertyOp29
 70
     1
102
RTVSPropertyOp30
 70
     1
102
RTVSPropertyOp31
 70
     1
102
RTVSPropertyOp32
 70
     1
  0
XRECORD
  5
85
102
{ACAD_REACTORS
330
84
102
}
330
84
100
AcDbXrecord
280
     1
102
RTVSPropertyOp0
 70
     1
102
RTVSPropertyOp1
 70
     1
102
RTVSPropertyOp2
 70
     1
102
RTVSPropertyOp3
 70
     1
102
RTVSPropertyOp4
 70
     1
102
RTVSPropertyOp5
 70
     1
102
RTVSPropertyOp6
 70
     1
102
RTVSPropertyOp7
 70
     1
102
RTVSPropertyOp8
 70
     1
102
RTVSPropertyOp9
 70
     1
102
RTVSPropertyOp10
 70
     1
102
RTVSPropertyOp11
 70
     1
102
RTVSPropertyOp12
 70
     1
102
RTVSPropertyOp13
 70
     1
102
RTVSPropertyOp14
 70
     1
102
RTVSPropertyOp15
 70
     1
102
RTVSPropertyOp16
 70
     1
102
RTVSPropertyOp17
 70
     1
102
RTVSPropertyOp18
 70
     1
102
RTVSPropertyOp19
 70
     1
102
RTVSPropertyOp20
 70
     1
102
RTVSPropertyOp21
 70
     1
102
RTVSPropertyOp22
 70
     1
102
RTVSPropertyOp23
 70
     1
102
RTVSPropertyOp24
 70
     1
102
RTVSPropertyOp25
 70
     1
102
RTVSPropertyOp26
 70
     1
102
RTVSPropertyOp27
 70
     1
102
RTVSPropertyOp28
 70
     1
102
RTVSPropertyOp29
 70
     1
102
RTVSPropertyOp30
 70
     1
102
RTVSPropertyOp31
 70
     1
102
RTVSPropertyOp32
 70
     1
  0
XRECORD
  5
69
102
{ACAD_REACTORS
330
68
102
}
330
68
100
AcDbXrecord
280
     1
102
RTVSPropertyOp0
 70
     1
102
RTVSPropertyOp1
 70
     1
102
RTVSPropertyOp2
 70
     1
102
RTVSPropertyOp3
 70
     1
102
RTVSPropertyOp4
 70
     1
102
RTVSPropertyOp5
 70
     1
102
RTVSPropertyOp6
 70
     1
102
RTVSPropertyOp7
 70
     1
102
RTVSPropertyOp8
 70
     1
102
RTVSPropertyOp9
 70
     1
102
RTVSPropertyOp10
 70
     1
102
RTVSPropertyOp11
 70
     1
102
RTVSPropertyOp12
 70
     1
102
RTVSPropertyOp13
 70
     1
102
RTVSPropertyOp14
 70
     1
102
RTVSPropertyOp15
 70
     1
102
RTVSPropertyOp16
 70
     1
102
RTVSPropertyOp17
 70
     1
102
RTVSPropertyOp18
 70
     1
102
RTVSPropertyOp19
 70
     1
102
RTVSPropertyOp20
 70
     1
102
RTVSPropertyOp21
 70
     1
102
RTVSPropertyOp22
 70
     1
102
RTVSPropertyOp23
 70
     1
102
RTVSPropertyOp24
 70
     1
102
RTVSPropertyOp25
 70
     1
102
RTVSPropertyOp26
 70
     1
102
RTVSPropertyOp27
 70
     1
102
RTVSPropertyOp28
 70
     1
102
RTVSPropertyOp29
 70
     1
102
RTVSPropertyOp30
 70
     1
102
RTVSPropertyOp31
 70
     1
102
RTVSPropertyOp32
 70
     1
  0
XRECORD
  5
6B
102
{ACAD_REACTORS
330
6A
102
}
330
6A
100
AcDbXrecord
280
     1
102
RTVSPropertyOp0
 70
     1
102
RTVSPropertyOp1
 70
     1
102
RTVSPropertyOp2
 70
     1
102
RTVSPropertyOp3
 70
     1
102
RTVSPropertyOp4
 70
     1
102
RTVSPropertyOp5
 70
     1
102
RTVSPropertyOp6
 70
     1
102
RTVSPropertyOp7
 70
     1
102
RTVSPropertyOp8
 70
     1
102
RTVSPropertyOp9
 70
     1
102
RTVSPropertyOp10
 70
     1
102
RTVSPropertyOp11
 70
     1
102
RTVSPropertyOp12
 70
     1
102
RTVSPropertyOp13
 70
     1
102
RTVSPropertyOp14
 70
     1
102
RTVSPropertyOp15
 70
     1
102
RTVSPropertyOp16
 70
     1
102
RTVSPropertyOp17
 70
     1
102
RTVSPropertyOp18
 70
     1
102
RTVSPropertyOp19
 70
     1
102
RTVSPropertyOp20
 70
     1
102
RTVSPropertyOp21
 70
     1
102
RTVSPropertyOp22
 70
     1
102
RTVSPropertyOp23
 70
     1
102
RTVSPropertyOp24
 70
     1
102
RTVSPropertyOp25
 70
     1
102
RTVSPropertyOp26
 70
     1
102
RTVSPropertyOp27
 70
     1
102
RTVSPropertyOp28
 70
     1
102
RTVSPropertyOp29
 70
     1
102
RTVSPropertyOp30
 70
     1
102
RTVSPropertyOp31
 70
     1
102
RTVSPropertyOp32
 70
     1
  0
XRECORD
  5
6D
102
{ACAD_REACTORS
330
6C
102
}
330
6C
100
AcDbXrecord
280
     1
102
RTVSPropertyOp0
 70
     1
102
RTVSPropertyOp1
 70
     1
102
RTVSPropertyOp2
 70
     1
102
RTVSPropertyOp3
 70
     1
102
RTVSPropertyOp4
 70
     1
102
RTVSPropertyOp5
 70
     1
102
RTVSPropertyOp6
 70
     1
102
RTVSPropertyOp7
 70
     1
102
RTVSPropertyOp8
 70
     1
102
RTVSPropertyOp9
 70
     1
102
RTVSPropertyOp10
 70
     1
102
RTVSPropertyOp11
 70
     1
102
RTVSPropertyOp12
 70
     1
102
RTVSPropertyOp13
 70
     1
102
RTVSPropertyOp14
 70
     1
102
RTVSPropertyOp15
 70
     1
102
RTVSPropertyOp16
 70
     1
102
RTVSPropertyOp17
 70
     1
102
RTVSPropertyOp18
 70
     1
102
RTVSPropertyOp19
 70
     1
102
RTVSPropertyOp20
 70
     1
102
RTVSPropertyOp21
 70
     1
102
RTVSPropertyOp22
 70
     1
102
RTVSPropertyOp23
 70
     1
102
RTVSPropertyOp24
 70
     1
102
RTVSPropertyOp25
 70
     1
102
RTVSPropertyOp26
 70
     1
102
RTVSPropertyOp27
 70
     1
102
RTVSPropertyOp28
 70
     1
102
RTVSPropertyOp29
 70
     1
102
RTVSPropertyOp30
 70
     1
102
RTVSPropertyOp31
 70
     1
102
RTVSPropertyOp32
 70
     1
  0
XRECORD
  5
6F
102
{ACAD_REACTORS
330
6E
102
}
330
6E
100
AcDbXrecord
280
     1
102
RTVSPropertyOp0
 70
     1
102
RTVSPropertyOp1
 70
     1
102
RTVSPropertyOp2
 70
     1
102
RTVSPropertyOp3
 70
     1
102
RTVSPropertyOp4
 70
     1
102
RTVSPropertyOp5
 70
     1
102
RTVSPropertyOp6
 70
     1
102
RTVSPropertyOp7
 70
     1
102
RTVSPropertyOp8
 70
     1
102
RTVSPropertyOp9
 70
     1
102
RTVSPropertyOp10
 70
     1
102
RTVSPropertyOp11
 70
     1
102
RTVSPropertyOp12
 70
     1
102
RTVSPropertyOp13
 70
     1
102
RTVSPropertyOp14
 70
     1
102
RTVSPropertyOp15
 70
     1
102
RTVSPropertyOp16
 70
     1
102
RTVSPropertyOp17
 70
     1
102
RTVSPropertyOp18
 70
     1
102
RTVSPropertyOp19
 70
     1
102
RTVSPropertyOp20
 70
     1
102
RTVSPropertyOp21
 70
     1
102
RTVSPropertyOp22
 70
     1
102
RTVSPropertyOp23
 70
     1
102
RTVSPropertyOp24
 70
     1
102
RTVSPropertyOp25
 70
     1
102
RTVSPropertyOp26
 70
     1
102
RTVSPropertyOp27
 70
     1
102
RTVSPropertyOp28
 70
     1
102
RTVSPropertyOp29
 70
     1
102
RTVSPropertyOp30
 70
     1
102
RTVSPropertyOp31
 70
     1
102
RTVSPropertyOp32
 70
     1
  0
XRECORD
  5
83
102
{ACAD_REACTORS
330
82
102
}
330
82
100
AcDbXrecord
280
     1
102
RTVSPropertyOp0
 70
     1
102
RTVSPropertyOp1
 70
     1
102
RTVSPropertyOp2
 70
     1
102
RTVSPropertyOp3
 70
     1
102
RTVSPropertyOp4
 70
     1
102
RTVSPropertyOp5
 70
     1
102
RTVSPropertyOp6
 70
     1
102
RTVSPropertyOp7
 70
     1
102
RTVSPropertyOp8
 70
     1
102
RTVSPropertyOp9
 70
     1
102
RTVSPropertyOp10
 70
     1
102
RTVSPropertyOp11
 70
     1
102
RTVSPropertyOp12
 70
     1
102
RTVSPropertyOp13
 70
     1
102
RTVSPropertyOp14
 70
     1
102
RTVSPropertyOp15
 70
     1
102
RTVSPropertyOp16
 70
     1
102
RTVSPropertyOp17
 70
     1
102
RTVSPropertyOp18
 70
     1
102
RTVSPropertyOp19
 70
     1
102
RTVSPropertyOp20
 70
     1
102
RTVSPropertyOp21
 70
     1
102
RTVSPropertyOp22
 70
     1
102
RTVSPropertyOp23
 70
     1
102
RTVSPropertyOp24
 70
     1
102
RTVSPropertyOp25
 70
     1
102
RTVSPropertyOp26
 70
     1
102
RTVSPropertyOp27
 70
     1
102
RTVSPropertyOp28
 70
     1
102
RTVSPropertyOp29
 70
     1
102
RTVSPropertyOp30
 70
     1
102
RTVSPropertyOp31
 70
     1
102
RTVSPropertyOp32
 70
     1
  0
XRECORD
  5
79
102
{ACAD_REACTORS
330
78
102
}
330
78
100
AcDbXrecord
280
     1
102
RTVSPropertyOp0
 70
     1
102
RTVSPropertyOp1
 70
     1
102
RTVSPropertyOp2
 70
     1
102
RTVSPropertyOp3
 70
     1
102
RTVSPropertyOp4
 70
     1
102
RTVSPropertyOp5
 70
     1
102
RTVSPropertyOp6
 70
     1
102
RTVSPropertyOp7
 70
     1
102
RTVSPropertyOp8
 70
     1
102
RTVSPropertyOp9
 70
     1
102
RTVSPropertyOp10
 70
     1
102
RTVSPropertyOp11
 70
     1
102
RTVSPropertyOp12
 70
     1
102
RTVSPropertyOp13
 70
     1
102
RTVSPropertyOp14
 70
     1
102
RTVSPropertyOp15
 70
     1
102
RTVSPropertyOp16
 70
     1
102
RTVSPropertyOp17
 70
     1
102
RTVSPropertyOp18
 70
     1
102
RTVSPropertyOp19
 70
     1
102
RTVSPropertyOp20
 70
     1
102
RTVSPropertyOp21
 70
     1
102
RTVSPropertyOp22
 70
     1
102
RTVSPropertyOp23
 70
     1
102
RTVSPropertyOp24
 70
     1
102
RTVSPropertyOp25
 70
     1
102
RTVSPropertyOp26
 70
     1
102
RTVSPropertyOp27
 70
     1
102
RTVSPropertyOp28
 70
     1
102
RTVSPropertyOp29
 70
     1
102
RTVSPropertyOp30
 70
     1
102
RTVSPropertyOp31
 70
     1
102
RTVSPropertyOp32
 70
     1
  0
XRECORD
  5
81
102
{ACAD_REACTORS
330
80
102
}
330
80
100
AcDbXrecord
280
     1
102
RTVSPropertyOp0
 70
     1
102
RTVSPropertyOp1
 70
     1
102
RTVSPropertyOp2
 70
     1
102
RTVSPropertyOp3
 70
     1
102
RTVSPropertyOp4
 70
     1
102
RTVSPropertyOp5
 70
     1
102
RTVSPropertyOp6
 70
     1
102
RTVSPropertyOp7
 70
     1
102
RTVSPropertyOp8
 70
     1
102
RTVSPropertyOp9
 70
     1
102
RTVSPropertyOp10
 70
     1
102
RTVSPropertyOp11
 70
     1
102
RTVSPropertyOp12
 70
     1
102
RTVSPropertyOp13
 70
     1
102
RTVSPropertyOp14
 70
     1
102
RTVSPropertyOp15
 70
     1
102
RTVSPropertyOp16
 70
     1
102
RTVSPropertyOp17
 70
     1
102
RTVSPropertyOp18
 70
     1
102
RTVSPropertyOp19
 70
     1
102
RTVSPropertyOp20
 70
     1
102
RTVSPropertyOp21
 70
     1
102
RTVSPropertyOp22
 70
     1
102
RTVSPropertyOp23
 70
     1
102
RTVSPropertyOp24
 70
     1
102
RTVSPropertyOp25
 70
     1
102
RTVSPropertyOp26
 70
     1
102
RTVSPropertyOp27
 70
     1
102
RTVSPropertyOp28
 70
     1
102
RTVSPropertyOp29
 70
     1
102
RTVSPropertyOp30
 70
     1
102
RTVSPropertyOp31
 70
     1
102
RTVSPropertyOp32
 70
     1
  0
ENDSEC
  0
EOF
