  0
SECTION
  2
HEADER
  9
$ACADVER
  1
AC1021
  9
$ACADMAINTVER
 70
    25
  9
$DWGCODEPAGE
  3
ANSI_1252
  9
$INSBASE
 10
0.0
 20
0.0
 30
0.0
  9
$EXTMIN
 10
-187.4927
 20
-115.1093
 30
0.0
  9
$EXTMAX
 10
-34.4401
 20
131.6885
 30
0.0
  9
$LIMMIN
 10
0.0
 20
0.0
  9
$LIMMAX
 10
12.0
 20
9.0
  9
$ORTHOMODE
 70
     0
  9
$REGENMODE
 70
     1
  9
$FILLMODE
 70
     1
  9
$QTEXTMODE
 70
     0
  9
$MIRRTEXT
 70
     1
  9
$LTSCALE
 40
1.0
  9
$ATTMODE
 70
     1
  9
$TEXTSIZE
 40
0.2
  9
$TRACEWID
 40
0.05
  9
$TEXTSTYLE
  7
Standard
  9
$CLAYER
  8
0
  9
$CELTYPE
  6
ByLayer
  9
$CECOLOR
 62
   256
  9
$CELTSCALE
 40
1.0
  9
$DISPSILH
 70
     0
  9
$DIMSCALE
 40
1.0
  9
$DIMASZ
 40
0.18
  9
$DIMEXO
 40
0.0625
  9
$DIMDLI
 40
0.38
  9
$DIMRND
 40
0.0
  9
$DIMDLE
 40
0.0
  9
$DIMEXE
 40
0.18
  9
$DIMTP
 40
0.0
  9
$DIMTM
 40
0.0
  9
$DIMTXT
 40
0.18
  9
$DIMCEN
 40
0.09
  9
$DIMTSZ
 40
0.0
  9
$DIMTOL
 70
     0
  9
$DIMLIM
 70
     0
  9
$DIMTIH
 70
     1
  9
$DIMTOH
 70
     1
  9
$DIMSE1
 70
     0
  9
$DIMSE2
 70
     0
  9
$DIMTAD
 70
     0
  9
$DIMZIN
 70
     0
  9
$DIMBLK
  1

  9
$DIMASO
 70
     1
  9
$DIMSHO
 70
     1
  9
$DIMPOST
  1

  9
$DIMAPOST
  1

  9
$DIMALT
 70
     0
  9
$DIMALTD
 70
     2
  9
$DIMALTF
 40
25.4
  9
$DIMLFAC
 40
1.0
  9
$DIMTOFL
 70
     0
  9
$DIMTVP
 40
0.0
  9
$DIMTIX
 70
     0
  9
$DIMSOXD
 70
     0
  9
$DIMSAH
 70
     0
  9
$DIMBLK1
  1

  9
$DIMBLK2
  1

  9
$DIMSTYLE
  2
Standard
  9
$DIMCLRD
 70
     0
  9
$DIMCLRE
 70
     0
  9
$DIMCLRT
 70
     0
  9
$DIMTFAC
 40
1.0
  9
$DIMGAP
 40
0.09
  9
$DIMJUST
 70
     0
  9
$DIMSD1
 70
     0
  9
$DIMSD2
 70
     0
  9
$DIMTOLJ
 70
     1
  9
$DIMTZIN
 70
     0
  9
$DIMALTZ
 70
     0
  9
$DIMALTTZ
 70
     0
  9
$DIMUPT
 70
     0
  9
$DIMDEC
 70
     4
  9
$DIMTDEC
 70
     4
  9
$DIMALTU
 70
     2
  9
$DIMALTTD
 70
     2
  9
$DIMTXSTY
  7
Standard
  9
$DIMAUNIT
 70
     0
  9
$DIMADEC
 70
     0
  9
$DIMALTRND
 40
0.0
  9
$DIMAZIN
 70
     0
  9
$DIMDSEP
 70
    46
  9
$DIMATFIT
 70
     3
  9
$DIMFRAC
 70
     0
  9
$DIMLDRBLK
  1

  9
$DIMLUNIT
 70
     2
  9
$DIMLWD
 70
    -2
  9
$DIMLWE
 70
    -2
  9
$DIMTMOVE
 70
     0
  9
$DIMFXL
 40
1.0
  9
$DIMFXLON
 70
     0
  9
$DIMJOGANG
 40
0.7853981633974483
  9
$DIMTFILL
 70
     0
  9
$DIMTFILLCLR
 70
     0
  9
$DIMARCSYM
 70
     0
  9
$DIMLTYPE
  6

  9
$DIMLTEX1
  6

  9
$DIMLTEX2
  6

  9
$LUNITS
 70
     2
  9
$LUPREC
 70
     4
  9
$SKETCHINC
 40
0.1
  9
$FILLETRAD
 40
0.5
  9
$AUNITS
 70
     0
  9
$AUPREC
 70
     0
  9
$MENU
  1
.
  9
$ELEVATION
 40
0.0
  9
$PELEVATION
 40
0.0
  9
$THICKNESS
 40
0.0
  9
$LIMCHECK
 70
     0
  9
$CHAMFERA
 40
0.5
  9
$CHAMFERB
 40
0.5
  9
$CHAMFERC
 40
1.0
  9
$CHAMFERD
 40
0.0
  9
$SKPOLY
 70
     0
  9
$TDCREATE
 40
2458492.863780254
  9
$TDUCREATE
 40
2458492.863780254
  9
$TDUPDATE
 40
2458492.863780405
  9
$TDUUPDATE
 40
2458492.863780405
  9
$TDINDWG
 40
0.0000000116
  9
$TDUSRTIMER
 40
0.0000000116
  9
$USRTIMER
 70
     1
  9
$ANGBASE
 50
0.0
  9
$ANGDIR
 70
     0
  9
$PDMODE
 70
     0
  9
$PDSIZE
 40
0.0
  9
$PLINEWID
 40
0.0
  9
$SPLFRAME
 70
     0
  9
$SPLINETYPE
 70
     6
  9
$SPLINESEGS
 70
     8
  9
$HANDSEED
  5
C9
  9
$SURFTAB1
 70
     6
  9
$SURFTAB2
 70
     6
  9
$SURFTYPE
 70
     6
  9
$SURFU
 70
     6
  9
$SURFV
 70
     6
  9
$UCSBASE
  2

  9
$UCSNAME
  2

  9
$UCSORG
 10
0.0
 20
0.0
 30
0.0
  9
$UCSXDIR
 10
1.0
 20
0.0
 30
0.0
  9
$UCSYDIR
 10
0.0
 20
1.0
 30
0.0
  9
$UCSORTHOREF
  2

  9
$UCSORTHOVIEW
 70
     0
  9
$UCSORGTOP
 10
0.0
 20
0.0
 30
0.0
  9
$UCSORGBOTTOM
 10
0.0
 20
0.0
 30
0.0
  9
$UCSORGLEFT
 10
0.0
 20
0.0
 30
0.0
  9
$UCSORGRIGHT
 10
0.0
 20
0.0
 30
0.0
  9
$UCSORGFRONT
 10
0.0
 20
0.0
 30
0.0
  9
$UCSORGBACK
 10
0.0
 20
0.0
 30
0.0
  9
$PUCSBASE
  2

  9
$PUCSNAME
  2

  9
$PUCSORG
 10
0.0
 20
0.0
 30
0.0
  9
$PUCSXDIR
 10
1.0
 20
0.0
 30
0.0
  9
$PUCSYDIR
 10
0.0
 20
1.0
 30
0.0
  9
$PUCSORTHOREF
  2

  9
$PUCSORTHOVIEW
 70
     0
  9
$PUCSORGTOP
 10
0.0
 20
0.0
 30
0.0
  9
$PUCSORGBOTTOM
 10
0.0
 20
0.0
 30
0.0
  9
$PUCSORGLEFT
 10
0.0
 20
0.0
 30
0.0
  9
$PUCSORGRIGHT
 10
0.0
 20
0.0
 30
0.0
  9
$PUCSORGFRONT
 10
0.0
 20
0.0
 30
0.0
  9
$PUCSORGBACK
 10
0.0
 20
0.0
 30
0.0
  9
$USERI1
 70
     0
  9
$USERI2
 70
     0
  9
$USERI3
 70
     0
  9
$USERI4
 70
     0
  9
$USERI5
 70
     0
  9
$USERR1
 40
0.0
  9
$USERR2
 40
0.0
  9
$USERR3
 40
0.0
  9
$USERR4
 40
0.0
  9
$USERR5
 40
0.0
  9
$WORLDVIEW
 70
     1
  9
$SHADEDGE
 70
     3
  9
$SHADEDIF
 70
    70
  9
$TILEMODE
 70
     1
  9
$MAXACTVP
 70
    64
  9
$PINSBASE
 10
0.0
 20
0.0
 30
0.0
  9
$PLIMCHECK
 70
     0
  9
$PEXTMIN
 10
1.000000000000000E+20
 20
1.000000000000000E+20
 30
1.000000000000000E+20
  9
$PEXTMAX
 10
-1.000000000000000E+20
 20
-1.000000000000000E+20
 30
-1.000000000000000E+20
  9
$PLIMMIN
 10
0.0
 20
0.0
  9
$PLIMMAX
 10
12.0
 20
9.0
  9
$UNITMODE
 70
     0
  9
$VISRETAIN
 70
     1
  9
$PLINEGEN
 70
     0
  9
$PSLTSCALE
 70
     1
  9
$TREEDEPTH
 70
  3020
  9
$CMLSTYLE
  2
Standard
  9
$CMLJUST
 70
     0
  9
$CMLSCALE
 40
1.0
  9
$PROXYGRAPHICS
 70
     1
  9
$MEASUREMENT
 70
     0
  9
$CELWEIGHT
370
    -1
  9
$ENDCAPS
280
     0
  9
$JOINSTYLE
280
     0
  9
$LWDISPLAY
290
     0
  9
$INSUNITS
 70
     4
  9
$HYPERLINKBASE
  1

  9
$STYLESHEET
  1

  9
$XEDIT
290
     1
  9
$CEPSNTYPE
380
     0
  9
$PSTYLEMODE
290
     1
  9
$FINGERPRINTGUID
  2
{97602BF1-1E4A-40E3-ADAB-830219239C4B}
  9
$VERSIONGUID
  2
{FAEB1C32-E019-11D5-929B-00C0DF256EC4}
  9
$EXTNAMES
290
     1
  9
$PSVPSCALE
 40
0.0
  9
$OLESTARTUP
290
     0
  9
$SORTENTS
280
   127
  9
$INDEXCTL
280
     0
  9
$HIDETEXT
280
     1
  9
$XCLIPFRAME
290
     0
  9
$HALOGAP
280
     0
  9
$OBSCOLOR
 70
   257
  9
$OBSLTYPE
280
     0
  9
$INTERSECTIONDISPLAY
280
     0
  9
$INTERSECTIONCOLOR
 70
   257
  9
$DIMASSOC
280
     2
  9
$PROJECTNAME
  1

  9
$CAMERADISPLAY
290
     0
  9
$LENSLENGTH
 40
50.0
  9
$CAMERAHEIGHT
 40
0.0
  9
$STEPSPERSEC
 40
2.0
  9
$STEPSIZE
 40
6.0
  9
$3DDWFPREC
 40
2.0
  9
$PSOLWIDTH
 40
0.25
  9
$PSOLHEIGHT
 40
4.0
  9
$LOFTANG1
 40
1.570796326794897
  9
$LOFTANG2
 40
1.570796326794897
  9
$LOFTMAG1
 40
0.0
  9
$LOFTMAG2
 40
0.0
  9
$LOFTPARAM
 70
     7
  9
$LOFTNORMALS
280
     1
  9
$LATITUDE
 40
37.795
  9
$LONGITUDE
 40
-122.394
  9
$NORTHDIRECTION
 40
0.0
  9
$TIMEZONE
 70
 -8000
  9
$LIGHTGLYPHDISPLAY
280
     1
  9
$TILEMODELIGHTSYNCH
280
     1
  9
$SOLIDHIST
280
     1
  9
$SHOWHIST
280
     1
  9
$DWFFRAME
280
     2
  9
$DGNFRAME
280
     2
  9
$REALWORLDSCALE
290
     1
  9
$INTERFERECOLOR
 62
   256
  9
$CSHADOW
280
     0
  9
$SHADOWPLANELOCATION
 40
0.0
  0
ENDSEC
  0
SECTION
  2
CLASSES
  0
CLASS
  1
ACDBDICTIONARYWDFLT
  2
AcDbDictionaryWithDefault
  3
ObjectDBX Classes
 90
        0
 91
        4
280
     0
281
     0
  0
CLASS
  1
VISUALSTYLE
  2
AcDbVisualStyle
  3
ObjectDBX Classes
 90
     4095
 91
        4
280
     0
281
     0
  0
CLASS
  1
MATERIAL
  2
AcDbMaterial
  3
ObjectDBX Classes
 90
     1153
 91
        4
280
     0
281
     0
  0
ENDSEC
  0
SECTION
  2
TABLES
  0
TABLE
  2
VPORT
  5
8
330
0
100
AcDbSymbolTable
 70
     1
  0
VPORT
  5
29
330
8
100
AcDbSymbolTableRecord
100
AcDbViewportTableRecord
  2
*Active
 70
     0
 10
0.0
 20
0.0
 11
1.0
 21
1.0
 12
10.42990654205607
 22
4.5
 13
0.0
 23
0.0
 14
0.5
 24
0.5
 15
0.5
 25
0.5
 16
0.0
 26
0.0
 36
1.0
 17
0.0
 27
0.0
 37
0.0
 40
9.0
 41
1.972972972850329
 42
50.0
 43
0.0
 44
0.0
 50
0.0
 51
0.0
 71
     0
 72
   100
 73
     1
 74
     3
 75
     0
 76
     0
 77
     0
 78
     0
281
     0
 65
     1
110
0.0
120
0.0
130
0.0
111
1.0
121
0.0
131
0.0
112
0.0
122
1.0
132
0.0
 79
     0
146
0.0
 60
     3
 61
     5
292
     1
282
     1
141
0.0
142
0.0
 63
   250
  0
ENDTAB
  0
TABLE
  2
LTYPE
  5
5
330
0
100
AcDbSymbolTable
 70
     1
  0
LTYPE
  5
14
330
5
100
AcDbSymbolTableRecord
100
AcDbLinetypeTableRecord
  2
ByBlock
 70
     0
  3

 72
    65
 73
     0
 40
0.0
  0
LTYPE
  5
15
330
5
100
AcDbSymbolTableRecord
100
AcDbLinetypeTableRecord
  2
ByLayer
 70
     0
  3

 72
    65
 73
     0
 40
0.0
  0
LTYPE
  5
16
330
5
100
AcDbSymbolTableRecord
100
AcDbLinetypeTableRecord
  2
Continuous
 70
     0
  3
Solid line
 72
    65
 73
     0
 40
0.0
  0
ENDTAB
  0
TABLE
  2
LAYER
  5
2
330
0
100
AcDbSymbolTable
 70
     3
  0
LAYER
  5
10
330
2
100
AcDbSymbolTableRecord
100
AcDbLayerTableRecord
  2
0
 70
     0
 62
     7
  6
Continuous
370
    -3
390
F
347
3E
  0
LAYER
  5
40
330
2
100
AcDbSymbolTableRecord
100
AcDbLayerTableRecord
  2
layer 1
 70
     0
 62
     7
  6
Continuous
370
    -3
390
F
347
3E
  0
LAYER
  5
A6
330
2
100
AcDbSymbolTableRecord
100
AcDbLayerTableRecord
  2
Master Guides
 70
     0
 62
     7
  6
Continuous
370
    -3
390
F
347
3E
  0
ENDTAB
  0
TABLE
  2
STYLE
  5
3
330
0
100
AcDbSymbolTable
 70
     1
  0
STYLE
  5
11
330
3
100
AcDbSymbolTableRecord
100
AcDbTextStyleTableRecord
  2
Standard
 70
     0
 40
0.0
 41
1.0
 50
0.0
 71
     0
 42
0.2
  3
txt
  4

  0
ENDTAB
  0
TABLE
  2
VIEW
  5
6
330
0
100
AcDbSymbolTable
 70
     0
  0
ENDTAB
  0
TABLE
  2
UCS
  5
7
330
0
100
AcDbSymbolTable
 70
     0
  0
ENDTAB
  0
TABLE
  2
APPID
  5
9
330
0
100
AcDbSymbolTable
 70
     2
  0
APPID
  5
12
330
9
100
AcDbSymbolTableRecord
100
AcDbRegAppTableRecord
  2
ACAD
 70
     0
  0
APPID
  5
3F
330
9
100
AcDbSymbolTableRecord
100
AcDbRegAppTableRecord
  2
ODA
 70
     0
  0
ENDTAB
  0
TABLE
  2
DIMSTYLE
  5
A
330
0
100
AcDbSymbolTable
 70
     1
100
AcDbDimStyleTable
  0
DIMSTYLE
105
27
330
A
100
AcDbSymbolTableRecord
100
AcDbDimStyleTableRecord
  2
Standard
 70
     0
178
     0
340
11
  0
ENDTAB
  0
TABLE
  2
BLOCK_RECORD
  5
1
330
0
100
AcDbSymbolTable
 70
     1
  0
BLOCK_RECORD
  5
1F
330
1
100
AcDbSymbolTableRecord
100
AcDbBlockTableRecord
  2
*Model_Space
340
22
 70
     0
280
     1
281
     0
  0
BLOCK_RECORD
  5
1B
330
1
100
AcDbSymbolTableRecord
100
AcDbBlockTableRecord
  2
*Paper_Space
340
1E
 70
     0
280
     1
281
     0
  0
BLOCK_RECORD
  5
23
330
1
100
AcDbSymbolTableRecord
100
AcDbBlockTableRecord
  2
*Paper_Space0
340
26
 70
     0
280
     1
281
     0
  0
ENDTAB
  0
ENDSEC
  0
SECTION
  2
BLOCKS
  0
BLOCK
  5
20
330
1F
100
AcDbEntity
  8
0
100
AcDbBlockBegin
  2
*Model_Space
 70
     0
 10
0.0
 20
0.0
 30
0.0
  3
*Model_Space
  1

  0
ENDBLK
  5
21
330
1F
100
AcDbEntity
  8
0
100
AcDbBlockEnd
  0
BLOCK
  5
1C
330
1B
100
AcDbEntity
 67
     1
  8
0
100
AcDbBlockBegin
  2
*Paper_Space
 70
     0
 10
0.0
 20
0.0
 30
0.0
  3
*Paper_Space
  1

  0
ENDBLK
  5
1D
330
1B
100
AcDbEntity
 67
     1
  8
0
100
AcDbBlockEnd
  0
BLOCK
  5
24
330
23
100
AcDbEntity
  8
0
100
AcDbBlockBegin
  2
*Paper_Space0
 70
     0
 10
0.0
 20
0.0
 30
0.0
  3
*Paper_Space0
  1

  0
ENDBLK
  5
25
330
23
100
AcDbEntity
  8
0
100
AcDbBlockEnd
  0
ENDSEC
  0
SECTION
  2
ENTITIES
  0
SPLINE
  5
41
330
1F
100
AcDbEntity
  8
layer 1
 62
     7
100
AcDbSpline
210
0.0
220
0.0
230
1.0
 70
    11
 71
     3
 72
   204
 73
   200
 74
     0
 42
0.0000000001
 43
0.0000000001
 12
1.0
 22
0.0
 32
0.0
 13
1.0
 23
0.0
 33
0.0
 40
0.0
 40
0.0
 40
0.0
 40
0.0
 40
0.0196078431372549
 40
0.0196078431372549
 40
0.0196078431372549
 40
0.0196078431372549
 40
0.0392156862745098
 40
0.0392156862745098
 40
0.0392156862745098
 40
0.0392156862745098
 40
0.0588235294117647
 40
0.0588235294117647
 40
0.0588235294117647
 40
0.0588235294117647
 40
0.0784313725490196
 40
0.0784313725490196
 40
0.0784313725490196
 40
0.0784313725490196
 40
0.0980392156862745
 40
0.0980392156862745
 40
0.0980392156862745
 40
0.0980392156862745
 40
0.1176470588235294
 40
0.1176470588235294
 40
0.1176470588235294
 40
0.1176470588235294
 40
0.1372549019607843
 40
0.1372549019607843
 40
0.1372549019607843
 40
0.1372549019607843
 40
0.1568627450980392
 40
0.1568627450980392
 40
0.1568627450980392
 40
0.1568627450980392
 40
0.1764705882352941
 40
0.1764705882352941
 40
0.1764705882352941
 40
0.1764705882352941
 40
0.196078431372549
 40
0.196078431372549
 40
0.196078431372549
 40
0.196078431372549
 40
0.2156862745098039
 40
0.2156862745098039
 40
0.2156862745098039
 40
0.2156862745098039
 40
0.2352941176470588
 40
0.2352941176470588
 40
0.2352941176470588
 40
0.2352941176470588
 40
0.2549019607843137
 40
0.2549019607843137
 40
0.2549019607843137
 40
0.2549019607843137
 40
0.2745098039215687
 40
0.2745098039215687
 40
0.2745098039215687
 40
0.2745098039215687
 40
0.2941176470588235
 40
0.2941176470588235
 40
0.2941176470588235
 40
0.2941176470588235
 40
0.3137254901960784
 40
0.3137254901960784
 40
0.3137254901960784
 40
0.3137254901960784
 40
0.3333333333333333
 40
0.3333333333333333
 40
0.3333333333333333
 40
0.3333333333333333
 40
0.3529411764705883
 40
0.3529411764705883
 40
0.3529411764705883
 40
0.3529411764705883
 40
0.3725490196078431
 40
0.3725490196078431
 40
0.3725490196078431
 40
0.3725490196078431
 40
0.392156862745098
 40
0.392156862745098
 40
0.392156862745098
 40
0.392156862745098
 40
0.4117647058823529
 40
0.4117647058823529
 40
0.4117647058823529
 40
0.4117647058823529
 40
0.4313725490196079
 40
0.4313725490196079
 40
0.4313725490196079
 40
0.4313725490196079
 40
0.4509803921568628
 40
0.4509803921568628
 40
0.4509803921568628
 40
0.4509803921568628
 40
0.4705882352941176
 40
0.4705882352941176
 40
0.4705882352941176
 40
0.4705882352941176
 40
0.4901960784313725
 40
0.4901960784313725
 40
0.4901960784313725
 40
0.4901960784313725
 40
0.5098039215686274
 40
0.5098039215686274
 40
0.5098039215686274
 40
0.5098039215686274
 40
0.5294117647058824
 40
0.5294117647058824
 40
0.5294117647058824
 40
0.5294117647058824
 40
0.5490196078431373
 40
0.5490196078431373
 40
0.5490196078431373
 40
0.5490196078431373
 40
0.5686274509803921
 40
0.5686274509803921
 40
0.5686274509803921
 40
0.5686274509803921
 40
0.5882352941176471
 40
0.5882352941176471
 40
0.5882352941176471
 40
0.5882352941176471
 40
0.6078431372549019
 40
0.6078431372549019
 40
0.6078431372549019
 40
0.6078431372549019
 40
0.6274509803921569
 40
0.6274509803921569
 40
0.6274509803921569
 40
0.6274509803921569
 40
0.6470588235294118
 40
0.6470588235294118
 40
0.6470588235294118
 40
0.6470588235294118
 40
0.6666666666666666
 40
0.6666666666666666
 40
0.6666666666666666
 40
0.6666666666666666
 40
0.6862745098039216
 40
0.6862745098039216
 40
0.6862745098039216
 40
0.6862745098039216
 40
0.7058823529411765
 40
0.7058823529411765
 40
0.7058823529411765
 40
0.7058823529411765
 40
0.7254901960784313
 40
0.7254901960784313
 40
0.7254901960784313
 40
0.7254901960784313
 40
0.7450980392156863
 40
0.7450980392156863
 40
0.7450980392156863
 40
0.7450980392156863
 40
0.7647058823529411
 40
0.7647058823529411
 40
0.7647058823529411
 40
0.7647058823529411
 40
0.7843137254901961
 40
0.7843137254901961
 40
0.7843137254901961
 40
0.7843137254901961
 40
0.803921568627451
 40
0.803921568627451
 40
0.803921568627451
 40
0.803921568627451
 40
0.8235294117647058
 40
0.8235294117647058
 40
0.8235294117647058
 40
0.8235294117647058
 40
0.8431372549019608
 40
0.8431372549019608
 40
0.8431372549019608
 40
0.8431372549019608
 40
0.8627450980392157
 40
0.8627450980392157
 40
0.8627450980392157
 40
0.8627450980392157
 40
0.8823529411764706
 40
0.8823529411764706
 40
0.8823529411764706
 40
0.8823529411764706
 40
0.9019607843137255
 40
0.9019607843137255
 40
0.9019607843137255
 40
0.9019607843137255
 40
0.9215686274509803
 40
0.9215686274509803
 40
0.9215686274509803
 40
0.9215686274509803
 40
0.9411764705882353
 40
0.9411764705882353
 40
0.9411764705882353
 40
0.9411764705882353
 40
0.9607843137254902
 40
0.9607843137254902
 40
0.9607843137254902
 40
0.9607843137254902
 40
1.0
 40
1.0
 40
1.0
 40
1.0
 10
-98.1394
 20
34.5052
 30
0.0
 10
-98.7731
 20
34.5932
 30
0.0
 10
-99.6892
 20
32.2817
 30
0.0
 10
-99.9723
 20
30.393
 30
0.0
 10
-99.9723
 20
30.393
 30
0.0
 10
-100.2554
 20
28.504
 30
0.0
 10
-101.1709
 20
26.8609
 30
0.0
 10
-101.7278
 20
26.5845
 30
0.0
 10
-101.7278
 20
26.5845
 30
0.0
 10
-103.4404
 20
25.7345
 30
0.0
 10
-102.4862
 20
25.579
 30
0.0
 10
-101.263
 20
23.107
 30
0.0
 10
-101.263
 20
23.107
 30
0.0
 10
-100.3799
 20
21.3219
 30
0.0
 10
-99.9705
 20
20.1691
 30
0.0
 10
-99.9729
 20
17.9586
 30
0.0
 10
-99.9729
 20
17.9586
 30
0.0
 10
-100.7284
 20
21.3366
 30
0.0
 10
-106.5336
 20
19.9881
 30
0.0
 10
-109.7153
 20
16.9912
 30
0.0
 10
-109.7153
 20
16.9912
 30
0.0
 10
-86.3231
 20
54.6496
 30
0.0
 10
-108.9912
 20
75.7009
 30
0.0
 10
-118.1591
 20
79.9298
 30
0.0
 10
-118.1591
 20
79.9298
 30
0.0
 10
-119.774
 20
84.7329
 30
0.0
 10
-120.96
 20
93.3865
 30
0.0
 10
-119.5484
 20
97.736
 30
0.0
 10
-119.5484
 20
97.736
 30
0.0
 10
-117.1298
 20
104.8345
 30
0.0
 10
-110.3238
 20
107.3018
 30
0.0
 10
-105.1466
 20
103.5643
 30
0.0
 10
-105.1466
 20
103.5643
 30
0.0
 10
-104.1285
 20
102.6055
 30
0.0
 10
-103.7699
 20
101.9303
 30
0.0
 10
-103.3104
 20
100.5278
 30
0.0
 10
-103.3104
 20
100.5278
 30
0.0
 10
-104.2851
 20
100.5258
 30
0.0
 10
-103.98
 20
100.5149
 30
0.0
 10
-104.7523
 20
100.4627
 30
0.0
 10
-104.7523
 20
100.4627
 30
0.0
 10
-105.3746
 20
99.8961
 30
0.0
 10
-105.4702
 20
98.4214
 30
0.0
 10
-104.7423
 20
97.5711
 30
0.0
 10
-104.7423
 20
97.5711
 30
0.0
 10
-103.7503
 20
97.5996
 30
0.0
 10
-104.0965
 20
97.5823
 30
0.0
 10
-103.4428
 20
97.5321
 30
0.0
 10
-103.4428
 20
97.5321
 30
0.0
 10
-104.2364
 20
94.681
 30
0.0
 10
-110.4491
 20
92.878
 30
0.0
 10
-111.9496
 20
95.796
 30
0.0
 10
-111.9496
 20
95.796
 30
0.0
 10
-105.2522
 20
97.7645
 30
0.0
 10
-110.7229
 20
106.3954
 30
0.0
 10
-115.3159
 20
100.274
 30
0.0
 10
-115.3159
 20
100.274
 30
0.0
 10
-119.1009
 20
92.4816
 30
0.0
 10
-104.8329
 20
85.7801
 30
0.0
 10
-101.2322
 20
97.6459
 30
0.0
 10
-101.2322
 20
97.6459
 30
0.0
 10
-100.6762
 20
97.6536
 30
0.0
 10
-99.7839
 20
97.6809
 30
0.0
 10
-99.1434
 20
97.6809
 30
0.0
 10
-99.1434
 20
97.6809
 30
0.0
 10
-99.2127
 20
95.4242
 30
0.0
 10
-99.7757
 20
93.8648
 30
0.0
 10
-100.283
 20
92.5878
 30
0.0
 10
-100.283
 20
92.5878
 30
0.0
 10
-102.0127
 20
88.2348
 30
0.0
 10
-104.6716
 20
85.6786
 30
0.0
 10
-107.9366
 20
86.0046
 30
0.0
 10
-107.9366
 20
86.0046
 30
0.0
 10
-109.9001
 20
86.2006
 30
0.0
 10
-110.3447
 20
85.9368
 30
0.0
 10
-110.5553
 20
84.4513
 30
0.0
 10
-110.5553
 20
84.4513
 30
0.0
 10
-110.903
 20
81.9978
 30
0.0
 10
-109.3878
 20
80.4183
 30
0.0
 10
-106.6858
 20
80.4183
 30
0.0
 10
-106.6858
 20
80.4183
 30
0.0
 10
-104.7825
 20
80.4183
 30
0.0
 10
-104.5357
 20
80.2033
 30
0.0
 10
-105.1261
 20
79.0598
 30
0.0
 10
-105.1261
 20
79.0598
 30
0.0
 10
-105.5119
 20
78.3125
 30
0.0
 10
-106.0641
 20
76.3913
 30
0.0
 10
-106.3531
 20
74.7901
 30
0.0
 10
-106.3531
 20
74.7901
 30
0.0
 10
-106.9464
 20
71.5042
 30
0.0
 10
-106.2563
 20
71.1642
 30
0.0
 10
-102.7289
 20
73.0041
 30
0.0
 10
-102.7289
 20
73.0041
 30
0.0
 10
-100.6422
 20
74.0927
 30
0.0
 10
-101.743
 20
73.5467
 30
0.0
 10
-100.9825
 20
73.8753
 30
0.0
 10
-100.9825
 20
73.8753
 30
0.0
 10
-102.9457
 20
68.5731
 30
0.0
 10
-99.7261
 20
60.7724
 30
0.0
 10
-98.1394
 20
60.7255
 30
0.0
 10
-98.1394
 20
60.7255
 30
0.0
 10
-96.5526
 20
60.7724
 30
0.0
 10
-93.3826
 20
68.5731
 30
0.0
 10
-95.3458
 20
73.8753
 30
0.0
 10
-95.3458
 20
73.8753
 30
0.0
 10
-94.5853
 20
73.5467
 30
0.0
 10
-95.6862
 20
74.0927
 30
0.0
 10
-93.5994
 20
73.0041
 30
0.0
 10
-93.5994
 20
73.0041
 30
0.0
 10
-90.072
 20
71.1642
 30
0.0
 10
-89.3819
 20
71.5042
 30
0.0
 10
-89.9752
 20
74.7901
 30
0.0
 10
-89.9752
 20
74.7901
 30
0.0
 10
-90.2642
 20
76.3913
 30
0.0
 10
-90.8164
 20
78.3125
 30
0.0
 10
-91.2023
 20
79.0598
 30
0.0
 10
-91.2023
 20
79.0598
 30
0.0
 10
-91.7926
 20
80.2033
 30
0.0
 10
-91.5458
 20
80.4183
 30
0.0
 10
-89.6425
 20
80.4183
 30
0.0
 10
-89.6425
 20
80.4183
 30
0.0
 10
-86.9405
 20
80.4183
 30
0.0
 10
-85.4253
 20
81.9978
 30
0.0
 10
-85.773
 20
84.4513
 30
0.0
 10
-85.773
 20
84.4513
 30
0.0
 10
-85.9837
 20
85.9368
 30
0.0
 10
-86.4282
 20
86.2006
 30
0.0
 10
-88.3917
 20
86.0046
 30
0.0
 10
-88.3917
 20
86.0046
 30
0.0
 10
-91.6568
 20
85.6786
 30
0.0
 10
-94.3156
 20
88.2348
 30
0.0
 10
-96.0453
 20
92.5878
 30
0.0
 10
-96.0453
 20
92.5878
 30
0.0
 10
-96.5526
 20
93.8648
 30
0.0
 10
-97.1157
 20
95.4242
 30
0.0
 10
-97.1849
 20
97.6809
 30
0.0
 10
-97.1849
 20
97.6809
 30
0.0
 10
-96.5444
 20
97.6809
 30
0.0
 10
-95.6521
 20
97.6536
 30
0.0
 10
-95.0961
 20
97.6459
 30
0.0
 10
-95.0961
 20
97.6459
 30
0.0
 10
-91.4954
 20
85.7801
 30
0.0
 10
-77.2274
 20
92.4816
 30
0.0
 10
-81.0124
 20
100.274
 30
0.0
 10
-81.0124
 20
100.274
 30
0.0
 10
-85.6055
 20
106.3954
 30
0.0
 10
-91.0761
 20
97.7645
 30
0.0
 10
-84.3787
 20
95.796
 30
0.0
 10
-84.3787
 20
95.796
 30
0.0
 10
-85.8792
 20
92.878
 30
0.0
 10
-92.0919
 20
94.681
 30
0.0
 10
-92.8856
 20
97.5321
 30
0.0
 10
-92.8856
 20
97.5321
 30
0.0
 10
-92.2318
 20
97.5823
 30
0.0
 10
-92.5781
 20
97.5996
 30
0.0
 10
-91.586
 20
97.5711
 30
0.0
 10
-91.586
 20
97.5711
 30
0.0
 10
-90.8581
 20
98.4214
 30
0.0
 10
-90.9537
 20
99.8961
 30
0.0
 10
-91.5761
 20
100.4627
 30
0.0
 10
-91.5761
 20
100.4627
 30
0.0
 10
-92.3483
 20
100.5149
 30
0.0
 10
-92.0432
 20
100.5258
 30
0.0
 10
-93.0179
 20
100.5278
 30
0.0
 10
-93.0179
 20
100.5278
 30
0.0
 10
-92.5584
 20
101.9303
 30
0.0
 10
-92.1999
 20
102.6055
 30
0.0
 10
-91.1817
 20
103.5643
 30
0.0
 10
-91.1817
 20
103.5643
 30
0.0
 10
-86.0045
 20
107.3018
 30
0.0
 10
-79.1985
 20
104.8345
 30
0.0
 10
-76.78
 20
97.736
 30
0.0
 10
-76.78
 20
97.736
 30
0.0
 10
-75.3684
 20
93.3865
 30
0.0
 10
-76.5543
 20
84.7329
 30
0.0
 10
-78.1693
 20
79.9298
 30
0.0
 10
-78.1693
 20
79.9298
 30
0.0
 10
-87.3372
 20
75.7009
 30
0.0
 10
-110.0052
 20
54.6496
 30
0.0
 10
-86.613
 20
16.9912
 30
0.0
 10
-86.613
 20
16.9912
 30
0.0
 10
-89.7948
 20
19.9881
 30
0.0
 10
-95.5999
 20
21.3366
 30
0.0
 10
-96.3554
 20
17.9586
 30
0.0
 10
-96.3554
 20
17.9586
 30
0.0
 10
-96.3578
 20
20.1691
 30
0.0
 10
-95.9485
 20
21.3219
 30
0.0
 10
-95.0653
 20
23.107
 30
0.0
 10
-95.0653
 20
23.107
 30
0.0
 10
-93.8421
 20
25.579
 30
0.0
 10
-92.8879
 20
25.7345
 30
0.0
 10
-94.6005
 20
26.5845
 30
0.0
 10
-94.6005
 20
26.5845
 30
0.0
 10
-95.1574
 20
26.8609
 30
0.0
 10
-96.0729
 20
28.504
 30
0.0
 10
-96.356
 20
30.393
 30
0.0
 10
-96.356
 20
30.393
 30
0.0
 10
-96.6392
 20
32.2817
 30
0.0
 10
-97.5056
 20
34.5932
 30
0.0
 10
-98.1394
 20
34.5052
 30
0.0
  0
SPLINE
  5
42
330
1F
100
AcDbEntity
  8
layer 1
 62
     7
100
AcDbSpline
210
0.0
220
0.0
230
1.0
 70
    11
 71
     3
 72
    32
 73
    28
 74
     0
 42
0.0000000001
 43
0.0000000001
 12
1.0
 22
0.0
 32
0.0
 13
1.0
 23
0.0
 33
0.0
 40
0.0
 40
0.0
 40
0.0
 40
0.0
 40
0.125
 40
0.125
 40
0.125
 40
0.125
 40
0.25
 40
0.25
 40
0.25
 40
0.25
 40
0.375
 40
0.375
 40
0.375
 40
0.375
 40
0.5
 40
0.5
 40
0.5
 40
0.5
 40
0.625
 40
0.625
 40
0.625
 40
0.625
 40
0.75
 40
0.75
 40
0.75
 40
0.75
 40
1.0
 40
1.0
 40
1.0
 40
1.0
 10
-149.2095
 20
33.8394
 30
0.0
 10
-148.7239
 20
33.8394
 30
0.0
 10
-147.8763
 20
33.1185
 30
0.0
 10
-147.3261
 20
32.2377
 30
0.0
 10
-147.3261
 20
32.2377
 30
0.0
 10
-145.9007
 20
29.9552
 30
0.0
 10
-142.9775
 20
30.5157
 30
0.0
 10
-142.6735
 20
33.1296
 30
0.0
 10
-142.6735
 20
33.1296
 30
0.0
 10
-142.5394
 20
34.2842
 30
0.0
 10
-142.9807
 20
35.5855
 30
0.0
 10
-143.7125
 20
36.1929
 30
0.0
 10
-143.7125
 20
36.1929
 30
0.0
 10
-147.0729
 20
38.9817
 30
0.0
 10
-153.7715
 20
36.3692
 30
0.0
 10
-152.8003
 20
32.3947
 30
0.0
 10
-152.8003
 20
32.3947
 30
0.0
 10
-152.391
 20
30.7196
 30
0.0
 10
-152.2032
 20
30.6987
 30
0.0
 10
-151.1578
 20
32.2547
 30
0.0
 10
-151.1578
 20
32.2547
 30
0.0
 10
-150.5718
 20
33.1264
 30
0.0
 10
-149.6954
 20
33.8397
 30
0.0
 10
-149.2095
 20
33.8397
 30
0.0
 10
-149.2095
 20
33.8397
 30
0.0
 10
-149.2095
 20
33.8397
 30
0.0
 10
-149.2095
 20
33.8394
 30
0.0
 10
-149.2095
 20
33.8394
 30
0.0
  0
SPLINE
  5
43
330
1F
100
AcDbEntity
  8
layer 1
 62
     7
100
AcDbSpline
210
0.0
220
0.0
230
1.0
 70
    11
 71
     3
 72
    56
 73
    52
 74
     0
 42
0.0000000001
 43
0.0000000001
 12
1.0
 22
0.0
 32
0.0
 13
1.0
 23
0.0
 33
0.0
 40
0.0
 40
0.0
 40
0.0
 40
0.0
 40
0.0714285714285714
 40
0.0714285714285714
 40
0.0714285714285714
 40
0.0714285714285714
 40
0.1428571428571428
 40
0.1428571428571428
 40
0.1428571428571428
 40
0.1428571428571428
 40
0.2142857142857143
 40
0.2142857142857143
 40
0.2142857142857143
 40
0.2142857142857143
 40
0.2857142857142857
 40
0.2857142857142857
 40
0.2857142857142857
 40
0.2857142857142857
 40
0.3571428571428572
 40
0.3571428571428572
 40
0.3571428571428572
 40
0.3571428571428572
 40
0.4285714285714285
 40
0.4285714285714285
 40
0.4285714285714285
 40
0.4285714285714285
 40
0.5
 40
0.5
 40
0.5
 40
0.5
 40
0.5714285714285714
 40
0.5714285714285714
 40
0.5714285714285714
 40
0.5714285714285714
 40
0.6428571428571429
 40
0.6428571428571429
 40
0.6428571428571429
 40
0.6428571428571429
 40
0.7142857142857143
 40
0.7142857142857143
 40
0.7142857142857143
 40
0.7142857142857143
 40
0.7857142857142857
 40
0.7857142857142857
 40
0.7857142857142857
 40
0.7857142857142857
 40
0.8571428571428571
 40
0.8571428571428571
 40
0.8571428571428571
 40
0.8571428571428571
 40
1.0
 40
1.0
 40
1.0
 40
1.0
 10
-125.6944
 20
45.4362
 30
0.0
 10
-122.0016
 20
47.1127
 30
0.0
 10
-120.1314
 20
49.5424
 30
0.0
 10
-119.4897
 20
53.4964
 30
0.0
 10
-119.4897
 20
53.4964
 30
0.0
 10
-118.6769
 20
59.4374
 30
0.0
 10
-124.9609
 20
62.253
 30
0.0
 10
-128.1016
 20
59.0143
 30
0.0
 10
-128.1016
 20
59.0143
 30
0.0
 10
-129.6496
 20
57.4663
 30
0.0
 10
-129.6734
 20
54.5058
 30
0.0
 10
-128.1473
 20
53.2394
 30
0.0
 10
-128.1473
 20
53.2394
 30
0.0
 10
-126.425
 20
51.8099
 30
0.0
 10
-128.13
 20
50.1422
 30
0.0
 10
-131.3138
 20
50.1422
 30
0.0
 10
-131.3138
 20
50.1422
 30
0.0
 10
-141.0601
 20
51.1562
 30
0.0
 10
-140.0123
 20
66.3493
 30
0.0
 10
-130.8391
 20
67.8181
 30
0.0
 10
-130.8391
 20
67.8181
 30
0.0
 10
-130.8391
 20
67.8181
 30
0.0
 10
-133.3794
 20
68.2688
 30
0.0
 10
-133.3794
 20
68.2688
 30
0.0
 10
-133.3794
 20
68.2688
 30
0.0
 10
-142.5218
 20
69.8908
 30
0.0
 10
-143.8516
 20
69.8303
 30
0.0
 10
-145.2288
 20
67.7286
 30
0.0
 10
-145.2288
 20
67.7286
 30
0.0
 10
-146.7701
 20
65.3766
 30
0.0
 10
-147.5764
 20
60.3804
 30
0.0
 10
-146.8696
 20
57.564
 30
0.0
 10
-146.8696
 20
57.564
 30
0.0
 10
-146.4999
 20
56.0911
 30
0.0
 10
-145.8655
 20
55.5764
 30
0.0
 10
-144.4205
 20
55.5764
 30
0.0
 10
-144.4205
 20
55.5764
 30
0.0
 10
-142.0753
 20
55.5764
 30
0.0
 10
-141.1325
 20
53.6264
 30
0.0
 10
-142.4543
 20
51.5098
 30
0.0
 10
-142.4543
 20
51.5098
 30
0.0
 10
-143.2662
 20
50.21
 30
0.0
 10
-143.1433
 20
49.6924
 30
0.0
 10
-141.6445
 20
48.0971
 30
0.0
 10
-141.6445
 20
48.0971
 30
0.0
 10
-136.7804
 20
44.3925
 30
0.0
 10
-130.9447
 20
43.0974
 30
0.0
 10
-125.6944
 20
45.4365
 30
0.0
 10
-125.6944
 20
45.4365
 30
0.0
 10
-125.6944
 20
45.4365
 30
0.0
 10
-125.6944
 20
45.4362
 30
0.0
 10
-125.6944
 20
45.4362
 30
0.0
  0
SPLINE
  5
44
330
1F
100
AcDbEntity
  8
layer 1
 62
     7
100
AcDbSpline
210
0.0
220
0.0
230
1.0
 70
    11
 71
     3
 72
    32
 73
    28
 74
     0
 42
0.0000000001
 43
0.0000000001
 12
1.0
 22
0.0
 32
0.0
 13
1.0
 23
0.0
 33
0.0
 40
0.0
 40
0.0
 40
0.0
 40
0.0
 40
0.125
 40
0.125
 40
0.125
 40
0.125
 40
0.25
 40
0.25
 40
0.25
 40
0.25
 40
0.375
 40
0.375
 40
0.375
 40
0.375
 40
0.5
 40
0.5
 40
0.5
 40
0.5
 40
0.625
 40
0.625
 40
0.625
 40
0.625
 40
0.75
 40
0.75
 40
0.75
 40
0.75
 40
1.0
 40
1.0
 40
1.0
 40
1.0
 10
-117.721
 20
70.2367
 30
0.0
 10
-119.0766
 20
77.1271
 30
0.0
 10
-119.607
 20
77.6036
 30
0.0
 10
-125.9805
 20
77.6565
 30
0.0
 10
-125.9805
 20
77.6565
 30
0.0
 10
-130.4946
 20
77.694
 30
0.0
 10
-132.1072
 20
77.3231
 30
0.0
 10
-135.9119
 20
75.3723
 30
0.0
 10
-135.9119
 20
75.3723
 30
0.0
 10
-138.4103
 20
74.0912
 30
0.0
 10
-140.5841
 20
72.6491
 30
0.0
 10
-140.7432
 20
72.1673
 30
0.0
 10
-140.7432
 20
72.1673
 30
0.0
 10
-136.0615
 20
72.3064
 30
0.0
 10
-131.0371
 20
70.5674
 30
0.0
 10
-126.575
 20
69.5938
 30
0.0
 10
-126.575
 20
69.5938
 30
0.0
 10
-122.9824
 20
68.8101
 30
0.0
 10
-119.8776
 20
68.2846
 30
0.0
 10
-117.0403
 20
65.2716
 30
0.0
 10
-117.0403
 20
65.2716
 30
0.0
 10
-116.9039
 20
65.4069
 30
0.0
 10
-117.2102
 20
67.6412
 30
0.0
 10
-117.7207
 20
70.2367
 30
0.0
 10
-117.7207
 20
70.2367
 30
0.0
 10
-117.7207
 20
70.2367
 30
0.0
 10
-117.721
 20
70.2367
 30
0.0
 10
-117.721
 20
70.2367
 30
0.0
  0
SPLINE
  5
45
330
1F
100
AcDbEntity
  8
layer 1
 62
     7
100
AcDbSpline
210
0.0
220
0.0
230
1.0
 70
    11
 71
     3
 72
    20
 73
    16
 74
     0
 42
0.0000000001
 43
0.0000000001
 12
1.0
 22
0.0
 32
0.0
 13
1.0
 23
0.0
 33
0.0
 40
0.0
 40
0.0
 40
0.0
 40
0.0
 40
0.2
 40
0.2
 40
0.2
 40
0.2
 40
0.4
 40
0.4
 40
0.4
 40
0.4
 40
0.6
 40
0.6
 40
0.6
 40
0.6
 40
1.0
 40
1.0
 40
1.0
 40
1.0
 10
-98.2743
 20
76.9584
 30
0.0
 10
-98.7614
 20
76.8552
 30
0.0
 10
-99.0313
 20
77.3082
 30
0.0
 10
-99.5671
 20
77.8439
 30
0.0
 10
-99.5671
 20
77.8439
 30
0.0
 10
-100.7757
 20
79.0528
 30
0.0
 10
-99.6942
 20
86.2689
 30
0.0
 10
-98.2154
 20
86.2279
 30
0.0
 10
-98.2154
 20
86.2279
 30
0.0
 10
-96.7366
 20
86.2689
 30
0.0
 10
-95.6876
 20
79.0528
 30
0.0
 10
-96.8962
 20
77.8439
 30
0.0
 10
-96.8962
 20
77.8439
 30
0.0
 10
-97.432
 20
77.3082
 30
0.0
 10
-97.7873
 20
76.8552
 30
0.0
 10
-98.2743
 20
76.9584
 30
0.0
  0
SPLINE
  5
46
330
1F
100
AcDbEntity
  8
layer 1
 62
     7
100
AcDbSpline
210
0.0
220
0.0
230
1.0
 70
    11
 71
     3
 72
    32
 73
    28
 74
     0
 42
0.0000000001
 43
0.0000000001
 12
1.0
 22
0.0
 32
0.0
 13
1.0
 23
0.0
 33
0.0
 40
0.0
 40
0.0
 40
0.0
 40
0.0
 40
0.125
 40
0.125
 40
0.125
 40
0.125
 40
0.25
 40
0.25
 40
0.25
 40
0.25
 40
0.375
 40
0.375
 40
0.375
 40
0.375
 40
0.5
 40
0.5
 40
0.5
 40
0.5
 40
0.625
 40
0.625
 40
0.625
 40
0.625
 40
0.75
 40
0.75
 40
0.75
 40
0.75
 40
1.0
 40
1.0
 40
1.0
 40
1.0
 10
-78.6073
 20
-53.8446
 30
0.0
 10
-77.2518
 20
-60.735
 30
0.0
 10
-76.7213
 20
-61.2115
 30
0.0
 10
-70.3478
 20
-61.2643
 30
0.0
 10
-70.3478
 20
-61.2643
 30
0.0
 10
-65.8337
 20
-61.3019
 30
0.0
 10
-64.2211
 20
-60.931
 30
0.0
 10
-60.4165
 20
-58.9801
 30
0.0
 10
-60.4165
 20
-58.9801
 30
0.0
 10
-57.9181
 20
-57.6991
 30
0.0
 10
-55.7442
 20
-56.257
 30
0.0
 10
-55.5852
 20
-55.7752
 30
0.0
 10
-55.5852
 20
-55.7752
 30
0.0
 10
-60.2668
 20
-55.9143
 30
0.0
 10
-65.2912
 20
-54.1753
 30
0.0
 10
-69.7534
 20
-53.2017
 30
0.0
 10
-69.7534
 20
-53.2017
 30
0.0
 10
-73.3459
 20
-52.418
 30
0.0
 10
-76.4508
 20
-51.8925
 30
0.0
 10
-79.288
 20
-48.8795
 30
0.0
 10
-79.288
 20
-48.8795
 30
0.0
 10
-79.4245
 20
-49.0148
 30
0.0
 10
-79.1181
 20
-51.2491
 30
0.0
 10
-78.6076
 20
-53.8446
 30
0.0
 10
-78.6076
 20
-53.8446
 30
0.0
 10
-78.6076
 20
-53.8446
 30
0.0
 10
-78.6073
 20
-53.8446
 30
0.0
 10
-78.6073
 20
-53.8446
 30
0.0
  0
SPLINE
  5
47
330
1F
100
AcDbEntity
  8
layer 1
 62
     7
100
AcDbSpline
210
0.0
220
0.0
230
1.0
 70
    11
 71
     3
 72
    56
 73
    52
 74
     0
 42
0.0000000001
 43
0.0000000001
 12
1.0
 22
0.0
 32
0.0
 13
1.0
 23
0.0
 33
0.0
 40
0.0
 40
0.0
 40
0.0
 40
0.0
 40
0.0714285714285714
 40
0.0714285714285714
 40
0.0714285714285714
 40
0.0714285714285714
 40
0.1428571428571428
 40
0.1428571428571428
 40
0.1428571428571428
 40
0.1428571428571428
 40
0.2142857142857143
 40
0.2142857142857143
 40
0.2142857142857143
 40
0.2142857142857143
 40
0.2857142857142857
 40
0.2857142857142857
 40
0.2857142857142857
 40
0.2857142857142857
 40
0.3571428571428572
 40
0.3571428571428572
 40
0.3571428571428572
 40
0.3571428571428572
 40
0.4285714285714285
 40
0.4285714285714285
 40
0.4285714285714285
 40
0.4285714285714285
 40
0.5
 40
0.5
 40
0.5
 40
0.5
 40
0.5714285714285714
 40
0.5714285714285714
 40
0.5714285714285714
 40
0.5714285714285714
 40
0.6428571428571429
 40
0.6428571428571429
 40
0.6428571428571429
 40
0.6428571428571429
 40
0.7142857142857143
 40
0.7142857142857143
 40
0.7142857142857143
 40
0.7142857142857143
 40
0.7857142857142857
 40
0.7857142857142857
 40
0.7857142857142857
 40
0.7857142857142857
 40
0.8571428571428571
 40
0.8571428571428571
 40
0.8571428571428571
 40
0.8571428571428571
 40
1.0
 40
1.0
 40
1.0
 40
1.0
 10
-70.6339
 20
-29.0441
 30
0.0
 10
-74.3268
 20
-30.7206
 30
0.0
 10
-76.197
 20
-33.1503
 30
0.0
 10
-76.8386
 20
-37.1043
 30
0.0
 10
-76.8386
 20
-37.1043
 30
0.0
 10
-77.6514
 20
-43.0453
 30
0.0
 10
-71.3674
 20
-45.8609
 30
0.0
 10
-68.2267
 20
-42.6222
 30
0.0
 10
-68.2267
 20
-42.6222
 30
0.0
 10
-66.6787
 20
-41.0742
 30
0.0
 10
-66.6549
 20
-38.1137
 30
0.0
 10
-68.181
 20
-36.8473
 30
0.0
 10
-68.181
 20
-36.8473
 30
0.0
 10
-69.9033
 20
-35.4178
 30
0.0
 10
-68.1983
 20
-33.7501
 30
0.0
 10
-65.0145
 20
-33.7501
 30
0.0
 10
-65.0145
 20
-33.7501
 30
0.0
 10
-55.2683
 20
-34.7641
 30
0.0
 10
-56.316
 20
-49.9572
 30
0.0
 10
-65.4892
 20
-51.426
 30
0.0
 10
-65.4892
 20
-51.426
 30
0.0
 10
-65.4892
 20
-51.426
 30
0.0
 10
-62.9489
 20
-51.8767
 30
0.0
 10
-62.9489
 20
-51.8767
 30
0.0
 10
-62.9489
 20
-51.8767
 30
0.0
 10
-53.8065
 20
-53.4987
 30
0.0
 10
-52.4768
 20
-53.4382
 30
0.0
 10
-51.0995
 20
-51.3365
 30
0.0
 10
-51.0995
 20
-51.3365
 30
0.0
 10
-49.5582
 20
-48.9845
 30
0.0
 10
-48.7519
 20
-43.9883
 30
0.0
 10
-49.4587
 20
-41.1719
 30
0.0
 10
-49.4587
 20
-41.1719
 30
0.0
 10
-49.8284
 20
-39.699
 30
0.0
 10
-50.4628
 20
-39.1843
 30
0.0
 10
-51.9078
 20
-39.1843
 30
0.0
 10
-51.9078
 20
-39.1843
 30
0.0
 10
-54.2531
 20
-39.1843
 30
0.0
 10
-55.1958
 20
-37.2343
 30
0.0
 10
-53.874
 20
-35.1177
 30
0.0
 10
-53.874
 20
-35.1177
 30
0.0
 10
-53.0621
 20
-33.8178
 30
0.0
 10
-53.1851
 20
-33.3003
 30
0.0
 10
-54.6838
 20
-31.705
 30
0.0
 10
-54.6838
 20
-31.705
 30
0.0
 10
-59.548
 20
-28.0004
 30
0.0
 10
-65.3836
 20
-26.7053
 30
0.0
 10
-70.6339
 20
-29.0443
 30
0.0
 10
-70.6339
 20
-29.0443
 30
0.0
 10
-70.6339
 20
-29.0443
 30
0.0
 10
-70.6339
 20
-29.0441
 30
0.0
 10
-70.6339
 20
-29.0441
 30
0.0
  0
SPLINE
  5
48
330
1F
100
AcDbEntity
  8
layer 1
 62
     7
100
AcDbSpline
210
0.0
220
0.0
230
1.0
 70
    11
 71
     3
 72
    20
 73
    16
 74
     0
 42
0.0000000001
 43
0.0000000001
 12
1.0
 22
0.0
 32
0.0
 13
1.0
 23
0.0
 33
0.0
 40
0.0
 40
0.0
 40
0.0
 40
0.0
 40
0.2
 40
0.2
 40
0.2
 40
0.2
 40
0.4
 40
0.4
 40
0.4
 40
0.4
 40
0.6
 40
0.6
 40
0.6
 40
0.6
 40
1.0
 40
1.0
 40
1.0
 40
1.0
 10
-98.2154
 20
-69.8358
 30
0.0
 10
-99.6942
 20
-69.8768
 30
0.0
 10
-100.7757
 20
-62.6607
 30
0.0
 10
-99.5671
 20
-61.4518
 30
0.0
 10
-99.5671
 20
-61.4518
 30
0.0
 10
-99.0313
 20
-60.9161
 30
0.0
 10
-98.7614
 20
-60.463
 30
0.0
 10
-98.2743
 20
-60.5663
 30
0.0
 10
-98.2743
 20
-60.5663
 30
0.0
 10
-97.7873
 20
-60.463
 30
0.0
 10
-97.432
 20
-60.9161
 30
0.0
 10
-96.8962
 20
-61.4518
 30
0.0
 10
-96.8962
 20
-61.4518
 30
0.0
 10
-95.6876
 20
-62.6607
 30
0.0
 10
-96.7366
 20
-69.8768
 30
0.0
 10
-98.2154
 20
-69.8358
 30
0.0
  0
SPLINE
  5
49
330
1F
100
AcDbEntity
  8
layer 1
 62
     7
100
AcDbSpline
210
0.0
220
0.0
230
1.0
 70
    11
 71
     3
 72
    32
 73
    28
 74
     0
 42
0.0000000001
 43
0.0000000001
 12
1.0
 22
0.0
 32
0.0
 13
1.0
 23
0.0
 33
0.0
 40
0.0
 40
0.0
 40
0.0
 40
0.0
 40
0.125
 40
0.125
 40
0.125
 40
0.125
 40
0.25
 40
0.25
 40
0.25
 40
0.25
 40
0.375
 40
0.375
 40
0.375
 40
0.375
 40
0.5
 40
0.5
 40
0.5
 40
0.5
 40
0.625
 40
0.625
 40
0.625
 40
0.625
 40
0.75
 40
0.75
 40
0.75
 40
0.75
 40
1.0
 40
1.0
 40
1.0
 40
1.0
 10
-117.721
 20
-53.8446
 30
0.0
 10
-119.0766
 20
-60.735
 30
0.0
 10
-119.607
 20
-61.2115
 30
0.0
 10
-125.9805
 20
-61.2643
 30
0.0
 10
-125.9805
 20
-61.2643
 30
0.0
 10
-130.4946
 20
-61.3019
 30
0.0
 10
-132.1072
 20
-60.931
 30
0.0
 10
-135.9119
 20
-58.9801
 30
0.0
 10
-135.9119
 20
-58.9801
 30
0.0
 10
-138.4103
 20
-57.6991
 30
0.0
 10
-140.5841
 20
-56.257
 30
0.0
 10
-140.7432
 20
-55.7752
 30
0.0
 10
-140.7432
 20
-55.7752
 30
0.0
 10
-136.0615
 20
-55.9143
 30
0.0
 10
-131.0371
 20
-54.1753
 30
0.0
 10
-126.575
 20
-53.2017
 30
0.0
 10
-126.575
 20
-53.2017
 30
0.0
 10
-122.9824
 20
-52.418
 30
0.0
 10
-119.8776
 20
-51.8925
 30
0.0
 10
-117.0403
 20
-48.8795
 30
0.0
 10
-117.0403
 20
-48.8795
 30
0.0
 10
-116.9039
 20
-49.0148
 30
0.0
 10
-117.2102
 20
-51.2491
 30
0.0
 10
-117.7207
 20
-53.8446
 30
0.0
 10
-117.7207
 20
-53.8446
 30
0.0
 10
-117.7207
 20
-53.8446
 30
0.0
 10
-117.721
 20
-53.8446
 30
0.0
 10
-117.721
 20
-53.8446
 30
0.0
  0
SPLINE
  5
4A
330
1F
100
AcDbEntity
  8
layer 1
 62
     7
100
AcDbSpline
210
0.0
220
0.0
230
1.0
 70
    11
 71
     3
 72
    56
 73
    52
 74
     0
 42
0.0000000001
 43
0.0000000001
 12
1.0
 22
0.0
 32
0.0
 13
1.0
 23
0.0
 33
0.0
 40
0.0
 40
0.0
 40
0.0
 40
0.0
 40
0.0714285714285714
 40
0.0714285714285714
 40
0.0714285714285714
 40
0.0714285714285714
 40
0.1428571428571428
 40
0.1428571428571428
 40
0.1428571428571428
 40
0.1428571428571428
 40
0.2142857142857143
 40
0.2142857142857143
 40
0.2142857142857143
 40
0.2142857142857143
 40
0.2857142857142857
 40
0.2857142857142857
 40
0.2857142857142857
 40
0.2857142857142857
 40
0.3571428571428572
 40
0.3571428571428572
 40
0.3571428571428572
 40
0.3571428571428572
 40
0.4285714285714285
 40
0.4285714285714285
 40
0.4285714285714285
 40
0.4285714285714285
 40
0.5
 40
0.5
 40
0.5
 40
0.5
 40
0.5714285714285714
 40
0.5714285714285714
 40
0.5714285714285714
 40
0.5714285714285714
 40
0.6428571428571429
 40
0.6428571428571429
 40
0.6428571428571429
 40
0.6428571428571429
 40
0.7142857142857143
 40
0.7142857142857143
 40
0.7142857142857143
 40
0.7142857142857143
 40
0.7857142857142857
 40
0.7857142857142857
 40
0.7857142857142857
 40
0.7857142857142857
 40
0.8571428571428571
 40
0.8571428571428571
 40
0.8571428571428571
 40
0.8571428571428571
 40
1.0
 40
1.0
 40
1.0
 40
1.0
 10
-125.6944
 20
-29.0441
 30
0.0
 10
-122.0016
 20
-30.7206
 30
0.0
 10
-120.1314
 20
-33.1503
 30
0.0
 10
-119.4897
 20
-37.1043
 30
0.0
 10
-119.4897
 20
-37.1043
 30
0.0
 10
-118.6769
 20
-43.0453
 30
0.0
 10
-124.9609
 20
-45.8609
 30
0.0
 10
-128.1016
 20
-42.6222
 30
0.0
 10
-128.1016
 20
-42.6222
 30
0.0
 10
-129.6496
 20
-41.0742
 30
0.0
 10
-129.6734
 20
-38.1137
 30
0.0
 10
-128.1473
 20
-36.8473
 30
0.0
 10
-128.1473
 20
-36.8473
 30
0.0
 10
-126.425
 20
-35.4178
 30
0.0
 10
-128.13
 20
-33.7501
 30
0.0
 10
-131.3138
 20
-33.7501
 30
0.0
 10
-131.3138
 20
-33.7501
 30
0.0
 10
-141.0601
 20
-34.7641
 30
0.0
 10
-140.0123
 20
-49.9572
 30
0.0
 10
-130.8391
 20
-51.426
 30
0.0
 10
-130.8391
 20
-51.426
 30
0.0
 10
-130.8391
 20
-51.426
 30
0.0
 10
-133.3794
 20
-51.8767
 30
0.0
 10
-133.3794
 20
-51.8767
 30
0.0
 10
-133.3794
 20
-51.8767
 30
0.0
 10
-142.5218
 20
-53.4987
 30
0.0
 10
-143.8516
 20
-53.4382
 30
0.0
 10
-145.2288
 20
-51.3365
 30
0.0
 10
-145.2288
 20
-51.3365
 30
0.0
 10
-146.7701
 20
-48.9845
 30
0.0
 10
-147.5764
 20
-43.9883
 30
0.0
 10
-146.8696
 20
-41.1719
 30
0.0
 10
-146.8696
 20
-41.1719
 30
0.0
 10
-146.4999
 20
-39.699
 30
0.0
 10
-145.8655
 20
-39.1843
 30
0.0
 10
-144.4205
 20
-39.1843
 30
0.0
 10
-144.4205
 20
-39.1843
 30
0.0
 10
-142.0753
 20
-39.1843
 30
0.0
 10
-141.1325
 20
-37.2343
 30
0.0
 10
-142.4543
 20
-35.1177
 30
0.0
 10
-142.4543
 20
-35.1177
 30
0.0
 10
-143.2662
 20
-33.8178
 30
0.0
 10
-143.1433
 20
-33.3003
 30
0.0
 10
-141.6445
 20
-31.705
 30
0.0
 10
-141.6445
 20
-31.705
 30
0.0
 10
-136.7804
 20
-28.0004
 30
0.0
 10
-130.9447
 20
-26.7053
 30
0.0
 10
-125.6944
 20
-29.0443
 30
0.0
 10
-125.6944
 20
-29.0443
 30
0.0
 10
-125.6944
 20
-29.0443
 30
0.0
 10
-125.6944
 20
-29.0441
 30
0.0
 10
-125.6944
 20
-29.0441
 30
0.0
  0
SPLINE
  5
4B
330
1F
100
AcDbEntity
  8
layer 1
 62
     7
100
AcDbSpline
210
0.0
220
0.0
230
1.0
 70
    11
 71
     3
 72
   204
 73
   200
 74
     0
 42
0.0000000001
 43
0.0000000001
 12
1.0
 22
0.0
 32
0.0
 13
1.0
 23
0.0
 33
0.0
 40
0.0
 40
0.0
 40
0.0
 40
0.0
 40
0.0196078431372549
 40
0.0196078431372549
 40
0.0196078431372549
 40
0.0196078431372549
 40
0.0392156862745098
 40
0.0392156862745098
 40
0.0392156862745098
 40
0.0392156862745098
 40
0.0588235294117647
 40
0.0588235294117647
 40
0.0588235294117647
 40
0.0588235294117647
 40
0.0784313725490196
 40
0.0784313725490196
 40
0.0784313725490196
 40
0.0784313725490196
 40
0.0980392156862745
 40
0.0980392156862745
 40
0.0980392156862745
 40
0.0980392156862745
 40
0.1176470588235294
 40
0.1176470588235294
 40
0.1176470588235294
 40
0.1176470588235294
 40
0.1372549019607843
 40
0.1372549019607843
 40
0.1372549019607843
 40
0.1372549019607843
 40
0.1568627450980392
 40
0.1568627450980392
 40
0.1568627450980392
 40
0.1568627450980392
 40
0.1764705882352941
 40
0.1764705882352941
 40
0.1764705882352941
 40
0.1764705882352941
 40
0.196078431372549
 40
0.196078431372549
 40
0.196078431372549
 40
0.196078431372549
 40
0.2156862745098039
 40
0.2156862745098039
 40
0.2156862745098039
 40
0.2156862745098039
 40
0.2352941176470588
 40
0.2352941176470588
 40
0.2352941176470588
 40
0.2352941176470588
 40
0.2549019607843137
 40
0.2549019607843137
 40
0.2549019607843137
 40
0.2549019607843137
 40
0.2745098039215687
 40
0.2745098039215687
 40
0.2745098039215687
 40
0.2745098039215687
 40
0.2941176470588235
 40
0.2941176470588235
 40
0.2941176470588235
 40
0.2941176470588235
 40
0.3137254901960784
 40
0.3137254901960784
 40
0.3137254901960784
 40
0.3137254901960784
 40
0.3333333333333333
 40
0.3333333333333333
 40
0.3333333333333333
 40
0.3333333333333333
 40
0.3529411764705883
 40
0.3529411764705883
 40
0.3529411764705883
 40
0.3529411764705883
 40
0.3725490196078431
 40
0.3725490196078431
 40
0.3725490196078431
 40
0.3725490196078431
 40
0.392156862745098
 40
0.392156862745098
 40
0.392156862745098
 40
0.392156862745098
 40
0.4117647058823529
 40
0.4117647058823529
 40
0.4117647058823529
 40
0.4117647058823529
 40
0.4313725490196079
 40
0.4313725490196079
 40
0.4313725490196079
 40
0.4313725490196079
 40
0.4509803921568628
 40
0.4509803921568628
 40
0.4509803921568628
 40
0.4509803921568628
 40
0.4705882352941176
 40
0.4705882352941176
 40
0.4705882352941176
 40
0.4705882352941176
 40
0.4901960784313725
 40
0.4901960784313725
 40
0.4901960784313725
 40
0.4901960784313725
 40
0.5098039215686274
 40
0.5098039215686274
 40
0.5098039215686274
 40
0.5098039215686274
 40
0.5294117647058824
 40
0.5294117647058824
 40
0.5294117647058824
 40
0.5294117647058824
 40
0.5490196078431373
 40
0.5490196078431373
 40
0.5490196078431373
 40
0.5490196078431373
 40
0.5686274509803921
 40
0.5686274509803921
 40
0.5686274509803921
 40
0.5686274509803921
 40
0.5882352941176471
 40
0.5882352941176471
 40
0.5882352941176471
 40
0.5882352941176471
 40
0.6078431372549019
 40
0.6078431372549019
 40
0.6078431372549019
 40
0.6078431372549019
 40
0.6274509803921569
 40
0.6274509803921569
 40
0.6274509803921569
 40
0.6274509803921569
 40
0.6470588235294118
 40
0.6470588235294118
 40
0.6470588235294118
 40
0.6470588235294118
 40
0.6666666666666666
 40
0.6666666666666666
 40
0.6666666666666666
 40
0.6666666666666666
 40
0.6862745098039216
 40
0.6862745098039216
 40
0.6862745098039216
 40
0.6862745098039216
 40
0.7058823529411765
 40
0.7058823529411765
 40
0.7058823529411765
 40
0.7058823529411765
 40
0.7254901960784313
 40
0.7254901960784313
 40
0.7254901960784313
 40
0.7254901960784313
 40
0.7450980392156863
 40
0.7450980392156863
 40
0.7450980392156863
 40
0.7450980392156863
 40
0.7647058823529411
 40
0.7647058823529411
 40
0.7647058823529411
 40
0.7647058823529411
 40
0.7843137254901961
 40
0.7843137254901961
 40
0.7843137254901961
 40
0.7843137254901961
 40
0.803921568627451
 40
0.803921568627451
 40
0.803921568627451
 40
0.803921568627451
 40
0.8235294117647058
 40
0.8235294117647058
 40
0.8235294117647058
 40
0.8235294117647058
 40
0.8431372549019608
 40
0.8431372549019608
 40
0.8431372549019608
 40
0.8431372549019608
 40
0.8627450980392157
 40
0.8627450980392157
 40
0.8627450980392157
 40
0.8627450980392157
 40
0.8823529411764706
 40
0.8823529411764706
 40
0.8823529411764706
 40
0.8823529411764706
 40
0.9019607843137255
 40
0.9019607843137255
 40
0.9019607843137255
 40
0.9019607843137255
 40
0.9215686274509803
 40
0.9215686274509803
 40
0.9215686274509803
 40
0.9215686274509803
 40
0.9411764705882353
 40
0.9411764705882353
 40
0.9411764705882353
 40
0.9411764705882353
 40
0.9607843137254902
 40
0.9607843137254902
 40
0.9607843137254902
 40
0.9607843137254902
 40
1.0
 40
1.0
 40
1.0
 40
1.0
 10
-98.1394
 20
-18.113
 30
0.0
 10
-98.7731
 20
-18.2011
 30
0.0
 10
-99.6892
 20
-15.8896
 30
0.0
 10
-99.9723
 20
-14.0009
 30
0.0
 10
-99.9723
 20
-14.0009
 30
0.0
 10
-100.2554
 20
-12.1119
 30
0.0
 10
-101.1709
 20
-10.4688
 30
0.0
 10
-101.7278
 20
-10.1924
 30
0.0
 10
-101.7278
 20
-10.1924
 30
0.0
 10
-103.4404
 20
-9.3424
 30
0.0
 10
-102.4862
 20
-9.1869
 30
0.0
 10
-101.263
 20
-6.7149
 30
0.0
 10
-101.263
 20
-6.7149
 30
0.0
 10
-100.3799
 20
-4.9298
 30
0.0
 10
-99.9705
 20
-3.777
 30
0.0
 10
-99.9729
 20
-1.5664
 30
0.0
 10
-99.9729
 20
-1.5664
 30
0.0
 10
-100.7284
 20
-4.9445
 30
0.0
 10
-106.5336
 20
-3.596
 30
0.0
 10
-109.7153
 20
-0.5991
 30
0.0
 10
-109.7153
 20
-0.5991
 30
0.0
 10
-86.3231
 20
-38.2574
 30
0.0
 10
-108.9912
 20
-59.3088
 30
0.0
 10
-118.1591
 20
-63.5377
 30
0.0
 10
-118.1591
 20
-63.5377
 30
0.0
 10
-119.774
 20
-68.3408
 30
0.0
 10
-120.96
 20
-76.9944
 30
0.0
 10
-119.5484
 20
-81.3439
 30
0.0
 10
-119.5484
 20
-81.3439
 30
0.0
 10
-117.1298
 20
-88.4424
 30
0.0
 10
-110.3238
 20
-90.9097
 30
0.0
 10
-105.1466
 20
-87.1722
 30
0.0
 10
-105.1466
 20
-87.1722
 30
0.0
 10
-104.1285
 20
-86.2133
 30
0.0
 10
-103.7699
 20
-85.5382
 30
0.0
 10
-103.3104
 20
-84.1357
 30
0.0
 10
-103.3104
 20
-84.1357
 30
0.0
 10
-104.2851
 20
-84.1336
 30
0.0
 10
-103.98
 20
-84.1228
 30
0.0
 10
-104.7523
 20
-84.0706
 30
0.0
 10
-104.7523
 20
-84.0706
 30
0.0
 10
-105.3746
 20
-83.504
 30
0.0
 10
-105.4702
 20
-82.0293
 30
0.0
 10
-104.7423
 20
-81.179
 30
0.0
 10
-104.7423
 20
-81.179
 30
0.0
 10
-103.7503
 20
-81.2075
 30
0.0
 10
-104.0965
 20
-81.1902
 30
0.0
 10
-103.4428
 20
-81.14
 30
0.0
 10
-103.4428
 20
-81.14
 30
0.0
 10
-104.2364
 20
-78.2889
 30
0.0
 10
-110.4491
 20
-76.4859
 30
0.0
 10
-111.9496
 20
-79.4039
 30
0.0
 10
-111.9496
 20
-79.4039
 30
0.0
 10
-105.2522
 20
-81.3724
 30
0.0
 10
-110.7229
 20
-90.0033
 30
0.0
 10
-115.3159
 20
-83.8819
 30
0.0
 10
-115.3159
 20
-83.8819
 30
0.0
 10
-119.1009
 20
-76.0895
 30
0.0
 10
-104.8329
 20
-69.388
 30
0.0
 10
-101.2322
 20
-81.2538
 30
0.0
 10
-101.2322
 20
-81.2538
 30
0.0
 10
-100.6762
 20
-81.2615
 30
0.0
 10
-99.7839
 20
-81.2887
 30
0.0
 10
-99.1434
 20
-81.2887
 30
0.0
 10
-99.1434
 20
-81.2887
 30
0.0
 10
-99.2127
 20
-79.0321
 30
0.0
 10
-99.7757
 20
-77.4726
 30
0.0
 10
-100.283
 20
-76.1957
 30
0.0
 10
-100.283
 20
-76.1957
 30
0.0
 10
-102.0127
 20
-71.8427
 30
0.0
 10
-104.6716
 20
-69.2865
 30
0.0
 10
-107.9366
 20
-69.6125
 30
0.0
 10
-107.9366
 20
-69.6125
 30
0.0
 10
-109.9001
 20
-69.8085
 30
0.0
 10
-110.3447
 20
-69.5447
 30
0.0
 10
-110.5553
 20
-68.0592
 30
0.0
 10
-110.5553
 20
-68.0592
 30
0.0
 10
-110.903
 20
-65.6057
 30
0.0
 10
-109.3878
 20
-64.0262
 30
0.0
 10
-106.6858
 20
-64.0262
 30
0.0
 10
-106.6858
 20
-64.0262
 30
0.0
 10
-104.7825
 20
-64.0262
 30
0.0
 10
-104.5357
 20
-63.8112
 30
0.0
 10
-105.1261
 20
-62.6677
 30
0.0
 10
-105.1261
 20
-62.6677
 30
0.0
 10
-105.5119
 20
-61.9204
 30
0.0
 10
-106.0641
 20
-59.9992
 30
0.0
 10
-106.3531
 20
-58.398
 30
0.0
 10
-106.3531
 20
-58.398
 30
0.0
 10
-106.9464
 20
-55.1121
 30
0.0
 10
-106.2563
 20
-54.7721
 30
0.0
 10
-102.7289
 20
-56.612
 30
0.0
 10
-102.7289
 20
-56.612
 30
0.0
 10
-100.6422
 20
-57.7006
 30
0.0
 10
-101.743
 20
-57.1545
 30
0.0
 10
-100.9825
 20
-57.4832
 30
0.0
 10
-100.9825
 20
-57.4832
 30
0.0
 10
-102.9457
 20
-52.1809
 30
0.0
 10
-99.7261
 20
-44.3803
 30
0.0
 10
-98.1394
 20
-44.3334
 30
0.0
 10
-98.1394
 20
-44.3334
 30
0.0
 10
-96.5526
 20
-44.3803
 30
0.0
 10
-93.3826
 20
-52.1809
 30
0.0
 10
-95.3458
 20
-57.4832
 30
0.0
 10
-95.3458
 20
-57.4832
 30
0.0
 10
-94.5853
 20
-57.1545
 30
0.0
 10
-95.6862
 20
-57.7006
 30
0.0
 10
-93.5994
 20
-56.612
 30
0.0
 10
-93.5994
 20
-56.612
 30
0.0
 10
-90.072
 20
-54.7721
 30
0.0
 10
-89.3819
 20
-55.1121
 30
0.0
 10
-89.9752
 20
-58.398
 30
0.0
 10
-89.9752
 20
-58.398
 30
0.0
 10
-90.2642
 20
-59.9992
 30
0.0
 10
-90.8164
 20
-61.9204
 30
0.0
 10
-91.2023
 20
-62.6677
 30
0.0
 10
-91.2023
 20
-62.6677
 30
0.0
 10
-91.7926
 20
-63.8112
 30
0.0
 10
-91.5458
 20
-64.0262
 30
0.0
 10
-89.6425
 20
-64.0262
 30
0.0
 10
-89.6425
 20
-64.0262
 30
0.0
 10
-86.9405
 20
-64.0262
 30
0.0
 10
-85.4253
 20
-65.6057
 30
0.0
 10
-85.773
 20
-68.0592
 30
0.0
 10
-85.773
 20
-68.0592
 30
0.0
 10
-85.9837
 20
-69.5447
 30
0.0
 10
-86.4282
 20
-69.8085
 30
0.0
 10
-88.3917
 20
-69.6125
 30
0.0
 10
-88.3917
 20
-69.6125
 30
0.0
 10
-91.6568
 20
-69.2865
 30
0.0
 10
-94.3156
 20
-71.8427
 30
0.0
 10
-96.0453
 20
-76.1957
 30
0.0
 10
-96.0453
 20
-76.1957
 30
0.0
 10
-96.5526
 20
-77.4726
 30
0.0
 10
-97.1157
 20
-79.0321
 30
0.0
 10
-97.1849
 20
-81.2887
 30
0.0
 10
-97.1849
 20
-81.2887
 30
0.0
 10
-96.5444
 20
-81.2887
 30
0.0
 10
-95.6521
 20
-81.2615
 30
0.0
 10
-95.0961
 20
-81.2538
 30
0.0
 10
-95.0961
 20
-81.2538
 30
0.0
 10
-91.4954
 20
-69.388
 30
0.0
 10
-77.2274
 20
-76.0895
 30
0.0
 10
-81.0124
 20
-83.8819
 30
0.0
 10
-81.0124
 20
-83.8819
 30
0.0
 10
-85.6055
 20
-90.0033
 30
0.0
 10
-91.0761
 20
-81.3724
 30
0.0
 10
-84.3787
 20
-79.4039
 30
0.0
 10
-84.3787
 20
-79.4039
 30
0.0
 10
-85.8792
 20
-76.4859
 30
0.0
 10
-92.0919
 20
-78.2889
 30
0.0
 10
-92.8856
 20
-81.14
 30
0.0
 10
-92.8856
 20
-81.14
 30
0.0
 10
-92.2318
 20
-81.1902
 30
0.0
 10
-92.5781
 20
-81.2075
 30
0.0
 10
-91.586
 20
-81.179
 30
0.0
 10
-91.586
 20
-81.179
 30
0.0
 10
-90.8581
 20
-82.0293
 30
0.0
 10
-90.9537
 20
-83.504
 30
0.0
 10
-91.5761
 20
-84.0706
 30
0.0
 10
-91.5761
 20
-84.0706
 30
0.0
 10
-92.3483
 20
-84.1228
 30
0.0
 10
-92.0432
 20
-84.1336
 30
0.0
 10
-93.0179
 20
-84.1357
 30
0.0
 10
-93.0179
 20
-84.1357
 30
0.0
 10
-92.5584
 20
-85.5382
 30
0.0
 10
-92.1999
 20
-86.2133
 30
0.0
 10
-91.1817
 20
-87.1722
 30
0.0
 10
-91.1817
 20
-87.1722
 30
0.0
 10
-86.0045
 20
-90.9097
 30
0.0
 10
-79.1985
 20
-88.4424
 30
0.0
 10
-76.78
 20
-81.3439
 30
0.0
 10
-76.78
 20
-81.3439
 30
0.0
 10
-75.3684
 20
-76.9944
 30
0.0
 10
-76.5543
 20
-68.3408
 30
0.0
 10
-78.1693
 20
-63.5377
 30
0.0
 10
-78.1693
 20
-63.5377
 30
0.0
 10
-87.3372
 20
-59.3088
 30
0.0
 10
-110.0052
 20
-38.2574
 30
0.0
 10
-86.613
 20
-0.5991
 30
0.0
 10
-86.613
 20
-0.5991
 30
0.0
 10
-89.7948
 20
-3.596
 30
0.0
 10
-95.5999
 20
-4.9445
 30
0.0
 10
-96.3554
 20
-1.5664
 30
0.0
 10
-96.3554
 20
-1.5664
 30
0.0
 10
-96.3578
 20
-3.777
 30
0.0
 10
-95.9485
 20
-4.9298
 30
0.0
 10
-95.0653
 20
-6.7149
 30
0.0
 10
-95.0653
 20
-6.7149
 30
0.0
 10
-93.8421
 20
-9.1869
 30
0.0
 10
-92.8879
 20
-9.3424
 30
0.0
 10
-94.6005
 20
-10.1924
 30
0.0
 10
-94.6005
 20
-10.1924
 30
0.0
 10
-95.1574
 20
-10.4688
 30
0.0
 10
-96.0729
 20
-12.1119
 30
0.0
 10
-96.356
 20
-14.0009
 30
0.0
 10
-96.356
 20
-14.0009
 30
0.0
 10
-96.6392
 20
-15.8896
 30
0.0
 10
-97.5056
 20
-18.2011
 30
0.0
 10
-98.1394
 20
-18.113
 30
0.0
  0
SPLINE
  5
4C
330
1F
100
AcDbEntity
  8
layer 1
 62
     7
100
AcDbSpline
210
0.0
220
0.0
230
1.0
 70
    11
 71
     3
 72
    32
 73
    28
 74
     0
 42
0.0000000001
 43
0.0000000001
 12
1.0
 22
0.0
 32
0.0
 13
1.0
 23
0.0
 33
0.0
 40
0.0
 40
0.0
 40
0.0
 40
0.0
 40
0.125
 40
0.125
 40
0.125
 40
0.125
 40
0.25
 40
0.25
 40
0.25
 40
0.25
 40
0.375
 40
0.375
 40
0.375
 40
0.375
 40
0.5
 40
0.5
 40
0.5
 40
0.5
 40
0.625
 40
0.625
 40
0.625
 40
0.625
 40
0.75
 40
0.75
 40
0.75
 40
0.75
 40
1.0
 40
1.0
 40
1.0
 40
1.0
 10
-47.1188
 20
33.8394
 30
0.0
 10
-47.6044
 20
33.8394
 30
0.0
 10
-48.452
 20
33.1185
 30
0.0
 10
-49.0022
 20
32.2377
 30
0.0
 10
-49.0022
 20
32.2377
 30
0.0
 10
-50.4276
 20
29.9552
 30
0.0
 10
-53.3508
 20
30.5157
 30
0.0
 10
-53.6548
 20
33.1296
 30
0.0
 10
-53.6548
 20
33.1296
 30
0.0
 10
-53.7889
 20
34.2842
 30
0.0
 10
-53.3476
 20
35.5855
 30
0.0
 10
-52.6158
 20
36.1929
 30
0.0
 10
-52.6158
 20
36.1929
 30
0.0
 10
-49.2554
 20
38.9817
 30
0.0
 10
-42.5568
 20
36.3692
 30
0.0
 10
-43.528
 20
32.3947
 30
0.0
 10
-43.528
 20
32.3947
 30
0.0
 10
-43.9373
 20
30.7196
 30
0.0
 10
-44.1251
 20
30.6987
 30
0.0
 10
-45.1705
 20
32.2547
 30
0.0
 10
-45.1705
 20
32.2547
 30
0.0
 10
-45.7565
 20
33.1264
 30
0.0
 10
-46.6329
 20
33.8397
 30
0.0
 10
-47.1188
 20
33.8397
 30
0.0
 10
-47.1188
 20
33.8397
 30
0.0
 10
-47.1188
 20
33.8397
 30
0.0
 10
-47.1188
 20
33.8394
 30
0.0
 10
-47.1188
 20
33.8394
 30
0.0
  0
SPLINE
  5
4D
330
1F
100
AcDbEntity
  8
layer 1
 62
     7
100
AcDbSpline
210
0.0
220
0.0
230
1.0
 70
    11
 71
     3
 72
    56
 73
    52
 74
     0
 42
0.0000000001
 43
0.0000000001
 12
1.0
 22
0.0
 32
0.0
 13
1.0
 23
0.0
 33
0.0
 40
0.0
 40
0.0
 40
0.0
 40
0.0
 40
0.0714285714285714
 40
0.0714285714285714
 40
0.0714285714285714
 40
0.0714285714285714
 40
0.1428571428571428
 40
0.1428571428571428
 40
0.1428571428571428
 40
0.1428571428571428
 40
0.2142857142857143
 40
0.2142857142857143
 40
0.2142857142857143
 40
0.2142857142857143
 40
0.2857142857142857
 40
0.2857142857142857
 40
0.2857142857142857
 40
0.2857142857142857
 40
0.3571428571428572
 40
0.3571428571428572
 40
0.3571428571428572
 40
0.3571428571428572
 40
0.4285714285714285
 40
0.4285714285714285
 40
0.4285714285714285
 40
0.4285714285714285
 40
0.5
 40
0.5
 40
0.5
 40
0.5
 40
0.5714285714285714
 40
0.5714285714285714
 40
0.5714285714285714
 40
0.5714285714285714
 40
0.6428571428571429
 40
0.6428571428571429
 40
0.6428571428571429
 40
0.6428571428571429
 40
0.7142857142857143
 40
0.7142857142857143
 40
0.7142857142857143
 40
0.7142857142857143
 40
0.7857142857142857
 40
0.7857142857142857
 40
0.7857142857142857
 40
0.7857142857142857
 40
0.8571428571428571
 40
0.8571428571428571
 40
0.8571428571428571
 40
0.8571428571428571
 40
1.0
 40
1.0
 40
1.0
 40
1.0
 10
-70.6339
 20
45.4362
 30
0.0
 10
-74.3268
 20
47.1127
 30
0.0
 10
-76.197
 20
49.5424
 30
0.0
 10
-76.8386
 20
53.4964
 30
0.0
 10
-76.8386
 20
53.4964
 30
0.0
 10
-77.6514
 20
59.4374
 30
0.0
 10
-71.3674
 20
62.253
 30
0.0
 10
-68.2267
 20
59.0143
 30
0.0
 10
-68.2267
 20
59.0143
 30
0.0
 10
-66.6787
 20
57.4663
 30
0.0
 10
-66.6549
 20
54.5058
 30
0.0
 10
-68.181
 20
53.2394
 30
0.0
 10
-68.181
 20
53.2394
 30
0.0
 10
-69.9033
 20
51.8099
 30
0.0
 10
-68.1983
 20
50.1422
 30
0.0
 10
-65.0145
 20
50.1422
 30
0.0
 10
-65.0145
 20
50.1422
 30
0.0
 10
-55.2683
 20
51.1562
 30
0.0
 10
-56.316
 20
66.3493
 30
0.0
 10
-65.4892
 20
67.8181
 30
0.0
 10
-65.4892
 20
67.8181
 30
0.0
 10
-65.4892
 20
67.8181
 30
0.0
 10
-62.9489
 20
68.2688
 30
0.0
 10
-62.9489
 20
68.2688
 30
0.0
 10
-62.9489
 20
68.2688
 30
0.0
 10
-53.8065
 20
69.8908
 30
0.0
 10
-52.4768
 20
69.8303
 30
0.0
 10
-51.0995
 20
67.7286
 30
0.0
 10
-51.0995
 20
67.7286
 30
0.0
 10
-49.5582
 20
65.3766
 30
0.0
 10
-48.7519
 20
60.3804
 30
0.0
 10
-49.4587
 20
57.564
 30
0.0
 10
-49.4587
 20
57.564
 30
0.0
 10
-49.8284
 20
56.0911
 30
0.0
 10
-50.4628
 20
55.5764
 30
0.0
 10
-51.9078
 20
55.5764
 30
0.0
 10
-51.9078
 20
55.5764
 30
0.0
 10
-54.2531
 20
55.5764
 30
0.0
 10
-55.1958
 20
53.6264
 30
0.0
 10
-53.874
 20
51.5098
 30
0.0
 10
-53.874
 20
51.5098
 30
0.0
 10
-53.0621
 20
50.21
 30
0.0
 10
-53.1851
 20
49.6924
 30
0.0
 10
-54.6838
 20
48.0971
 30
0.0
 10
-54.6838
 20
48.0971
 30
0.0
 10
-59.548
 20
44.3925
 30
0.0
 10
-65.3836
 20
43.0974
 30
0.0
 10
-70.6339
 20
45.4365
 30
0.0
 10
-70.6339
 20
45.4365
 30
0.0
 10
-70.6339
 20
45.4365
 30
0.0
 10
-70.6339
 20
45.4362
 30
0.0
 10
-70.6339
 20
45.4362
 30
0.0
  0
SPLINE
  5
4E
330
1F
100
AcDbEntity
  8
layer 1
 62
     7
100
AcDbSpline
210
0.0
220
0.0
230
1.0
 70
    11
 71
     3
 72
    32
 73
    28
 74
     0
 42
0.0000000001
 43
0.0000000001
 12
1.0
 22
0.0
 32
0.0
 13
1.0
 23
0.0
 33
0.0
 40
0.0
 40
0.0
 40
0.0
 40
0.0
 40
0.125
 40
0.125
 40
0.125
 40
0.125
 40
0.25
 40
0.25
 40
0.25
 40
0.25
 40
0.375
 40
0.375
 40
0.375
 40
0.375
 40
0.5
 40
0.5
 40
0.5
 40
0.5
 40
0.625
 40
0.625
 40
0.625
 40
0.625
 40
0.75
 40
0.75
 40
0.75
 40
0.75
 40
1.0
 40
1.0
 40
1.0
 40
1.0
 10
-78.6073
 20
70.2367
 30
0.0
 10
-77.2518
 20
77.1271
 30
0.0
 10
-76.7213
 20
77.6036
 30
0.0
 10
-70.3478
 20
77.6565
 30
0.0
 10
-70.3478
 20
77.6565
 30
0.0
 10
-65.8337
 20
77.694
 30
0.0
 10
-64.2211
 20
77.3231
 30
0.0
 10
-60.4165
 20
75.3723
 30
0.0
 10
-60.4165
 20
75.3723
 30
0.0
 10
-57.9181
 20
74.0912
 30
0.0
 10
-55.7442
 20
72.6491
 30
0.0
 10
-55.5852
 20
72.1673
 30
0.0
 10
-55.5852
 20
72.1673
 30
0.0
 10
-60.2668
 20
72.3064
 30
0.0
 10
-65.2912
 20
70.5674
 30
0.0
 10
-69.7534
 20
69.5938
 30
0.0
 10
-69.7534
 20
69.5938
 30
0.0
 10
-73.3459
 20
68.8101
 30
0.0
 10
-76.4508
 20
68.2846
 30
0.0
 10
-79.288
 20
65.2716
 30
0.0
 10
-79.288
 20
65.2716
 30
0.0
 10
-79.4245
 20
65.4069
 30
0.0
 10
-79.1181
 20
67.6412
 30
0.0
 10
-78.6076
 20
70.2367
 30
0.0
 10
-78.6076
 20
70.2367
 30
0.0
 10
-78.6076
 20
70.2367
 30
0.0
 10
-78.6073
 20
70.2367
 30
0.0
 10
-78.6073
 20
70.2367
 30
0.0
  0
SPLINE
  5
4F
330
1F
100
AcDbEntity
  8
layer 1
100
AcDbSpline
210
0.0
220
0.0
230
1.0
 70
    11
 71
     3
 72
    20
 73
    16
 74
     0
 42
0.0000000001
 43
0.0000000001
 12
1.0
 22
0.0
 32
0.0
 13
1.0
 23
0.0
 33
0.0
 40
0.0
 40
0.0
 40
0.0
 40
0.0
 40
0.2
 40
0.2
 40
0.2
 40
0.2
 40
0.4
 40
0.4
 40
0.4
 40
0.4
 40
0.6
 40
0.6
 40
0.6
 40
0.6
 40
1.0
 40
1.0
 40
1.0
 40
1.0
 10
-187.4927
 20
-115.1093
 30
0.0
 10
-187.4927
 20
-115.1093
 30
0.0
 10
-187.4927
 20
131.6885
 30
0.0
 10
-187.4927
 20
131.6885
 30
0.0
 10
-187.4927
 20
131.6885
 30
0.0
 10
-187.4927
 20
131.6885
 30
0.0
 10
-34.4401
 20
131.6885
 30
0.0
 10
-34.4401
 20
131.6885
 30
0.0
 10
-34.4401
 20
131.6885
 30
0.0
 10
-34.4401
 20
131.6885
 30
0.0
 10
-34.4401
 20
-115.1093
 30
0.0
 10
-34.4401
 20
-115.1093
 30
0.0
 10
-34.4401
 20
-115.1093
 30
0.0
 10
-34.4401
 20
-115.1093
 30
0.0
 10
-187.4927
 20
-115.1093
 30
0.0
 10
-187.4927
 20
-115.1093
 30
0.0
  0
SPLINE
  5
50
330
1F
100
AcDbEntity
  8
layer 1
 62
     7
100
AcDbSpline
210
0.0
220
0.0
230
1.0
 70
    11
 71
     3
 72
    20
 73
    16
 74
     0
 42
0.0000000001
 43
0.0000000001
 12
1.0
 22
0.0
 32
0.0
 13
1.0
 23
0.0
 33
0.0
 40
0.0
 40
0.0
 40
0.0
 40
0.0
 40
0.2
 40
0.2
 40
0.2
 40
0.2
 40
0.4
 40
0.4
 40
0.4
 40
0.4
 40
0.6
 40
0.6
 40
0.6
 40
0.6
 40
1.0
 40
1.0
 40
1.0
 40
1.0
 10
-180.6342
 20
-97.0728
 30
0.0
 10
-175.429
 20
-91.5355
 30
0.0
 10
-172.0808
 20
-88.7361
 30
0.0
 10
-166.3527
 20
-85.2408
 30
0.0
 10
-166.3527
 20
-85.2408
 30
0.0
 10
-177.3471
 20
-88.3027
 30
0.0
 10
-180.6341
 20
-86.2995
 30
0.0
 10
-178.4887
 20
-83.1194
 30
0.0
 10
-178.4887
 20
-83.1194
 30
0.0
 10
-179.3744
 20
-83.1676
 30
0.0
 10
-179.8905
 20
-83.2028
 30
0.0
 10
-180.6341
 20
-83.2354
 30
0.0
 10
-180.6341
 20
-83.2354
 30
0.0
 10
-180.6341
 20
-83.2354
 30
0.0
 10
-180.6342
 20
-97.0728
 30
0.0
 10
-180.6342
 20
-97.0728
 30
0.0
  0
SPLINE
  5
51
330
1F
100
AcDbEntity
  8
layer 1
 62
     7
100
AcDbSpline
210
0.0
220
0.0
230
1.0
 70
    11
 71
     3
 72
    40
 73
    36
 74
     0
 42
0.0000000001
 43
0.0000000001
 12
1.0
 22
0.0
 32
0.0
 13
1.0
 23
0.0
 33
0.0
 40
0.0
 40
0.0
 40
0.0
 40
0.0
 40
0.1
 40
0.1
 40
0.1
 40
0.1
 40
0.2
 40
0.2
 40
0.2
 40
0.2
 40
0.3
 40
0.3
 40
0.3
 40
0.3
 40
0.4
 40
0.4
 40
0.4
 40
0.4
 40
0.5
 40
0.5
 40
0.5
 40
0.5
 40
0.6
 40
0.6
 40
0.6
 40
0.6
 40
0.7
 40
0.7
 40
0.7
 40
0.7
 40
0.8
 40
0.8
 40
0.8
 40
0.8
 40
1.0
 40
1.0
 40
1.0
 40
1.0
 10
-180.6342
 20
-61.5444
 30
0.0
 10
-180.1789
 20
-62.0299
 30
0.0
 10
-177.3622
 20
-62.9269
 30
0.0
 10
-175.8399
 20
-61.096
 30
0.0
 10
-175.8399
 20
-61.096
 30
0.0
 10
-174.9391
 20
-65.8729
 30
0.0
 10
-171.2472
 20
-62.1676
 30
0.0
 10
-171.1011
 20
-60.0378
 30
0.0
 10
-171.1011
 20
-60.0378
 30
0.0
 10
-170.235
 20
-57.2428
 30
0.0
 10
-168.2859
 20
-53.6821
 30
0.0
 10
-165.0358
 20
-50.7779
 30
0.0
 10
-165.0358
 20
-50.7779
 30
0.0
 10
-166.8493
 20
-55.7905
 30
0.0
 10
-166.6236
 20
-62.1592
 30
0.0
 10
-165.4799
 20
-63.705
 30
0.0
 10
-165.4799
 20
-63.705
 30
0.0
 10
-168.0476
 20
-63.0292
 30
0.0
 10
-168.1852
 20
-66.5157
 30
0.0
 10
-168.0104
 20
-67.3006
 30
0.0
 10
-168.0104
 20
-67.3006
 30
0.0
 10
-172.1223
 20
-66.824
 30
0.0
 10
-168.8286
 20
-75.2179
 30
0.0
 10
-165.6092
 20
-80.0182
 30
0.0
 10
-165.6092
 20
-80.0182
 30
0.0
 10
-176.9334
 20
-72.5848
 30
0.0
 10
-180.6341
 20
-76.4865
 30
0.0
 10
-178.4887
 20
-79.6638
 30
0.0
 10
-178.4887
 20
-79.6638
 30
0.0
 10
-179.3744
 20
-79.6156
 30
0.0
 10
-179.8905
 20
-79.5832
 30
0.0
 10
-180.6341
 20
-79.548
 30
0.0
 10
-180.6341
 20
-79.548
 30
0.0
 10
-180.6341
 20
-79.548
 30
0.0
 10
-180.6342
 20
-61.5444
 30
0.0
 10
-180.6342
 20
-61.5444
 30
0.0
  0
SPLINE
  5
52
330
1F
100
AcDbEntity
  8
layer 1
 62
     7
100
AcDbSpline
210
0.0
220
0.0
230
1.0
 70
    11
 71
     3
 72
    20
 73
    16
 74
     0
 42
0.0000000001
 43
0.0000000001
 12
1.0
 22
0.0
 32
0.0
 13
1.0
 23
0.0
 33
0.0
 40
0.0
 40
0.0
 40
0.0
 40
0.0
 40
0.2
 40
0.2
 40
0.2
 40
0.2
 40
0.4
 40
0.4
 40
0.4
 40
0.4
 40
0.6
 40
0.6
 40
0.6
 40
0.6
 40
1.0
 40
1.0
 40
1.0
 40
1.0
 10
-180.6342
 20
-52.5013
 30
0.0
 10
-176.903
 20
-49.5221
 30
0.0
 10
-173.9441
 20
-47.9763
 30
0.0
 10
-168.2423
 20
-46.8717
 30
0.0
 10
-168.2423
 20
-46.8717
 30
0.0
 10
-175.2604
 20
-45.7609
 30
0.0
 10
-180.133
 20
-43.952
 30
0.0
 10
-177.8499
 20
-40.3284
 30
0.0
 10
-177.8499
 20
-40.3284
 30
0.0
 10
-179.0967
 20
-40.4879
 30
0.0
 10
-180.0591
 20
-39.9102
 30
0.0
 10
-180.6341
 20
-38.6639
 30
0.0
 10
-180.6341
 20
-38.6639
 30
0.0
 10
-180.6341
 20
-38.6639
 30
0.0
 10
-180.6342
 20
-52.5013
 30
0.0
 10
-180.6342
 20
-52.5013
 30
0.0
  0
SPLINE
  5
53
330
1F
100
AcDbEntity
  8
layer 1
 62
     7
100
AcDbSpline
210
0.0
220
0.0
230
1.0
 70
    11
 71
     3
 72
    56
 73
    52
 74
     0
 42
0.0000000001
 43
0.0000000001
 12
1.0
 22
0.0
 32
0.0
 13
1.0
 23
0.0
 33
0.0
 40
0.0
 40
0.0
 40
0.0
 40
0.0
 40
0.0714285714285714
 40
0.0714285714285714
 40
0.0714285714285714
 40
0.0714285714285714
 40
0.1428571428571428
 40
0.1428571428571428
 40
0.1428571428571428
 40
0.1428571428571428
 40
0.2142857142857143
 40
0.2142857142857143
 40
0.2142857142857143
 40
0.2142857142857143
 40
0.2857142857142857
 40
0.2857142857142857
 40
0.2857142857142857
 40
0.2857142857142857
 40
0.3571428571428572
 40
0.3571428571428572
 40
0.3571428571428572
 40
0.3571428571428572
 40
0.4285714285714285
 40
0.4285714285714285
 40
0.4285714285714285
 40
0.4285714285714285
 40
0.5
 40
0.5
 40
0.5
 40
0.5
 40
0.5714285714285714
 40
0.5714285714285714
 40
0.5714285714285714
 40
0.5714285714285714
 40
0.6428571428571429
 40
0.6428571428571429
 40
0.6428571428571429
 40
0.6428571428571429
 40
0.7142857142857143
 40
0.7142857142857143
 40
0.7142857142857143
 40
0.7142857142857143
 40
0.7857142857142857
 40
0.7857142857142857
 40
0.7857142857142857
 40
0.7857142857142857
 40
0.8571428571428571
 40
0.8571428571428571
 40
0.8571428571428571
 40
0.8571428571428571
 40
1.0
 40
1.0
 40
1.0
 40
1.0
 10
-180.6342
 20
-35.4295
 30
0.0
 10
-180.0765
 20
-34.9832
 30
0.0
 10
-177.393
 20
-35.4882
 30
0.0
 10
-176.4261
 20
-37.2687
 30
0.0
 10
-176.4261
 20
-37.2687
 30
0.0
 10
-175.724
 20
-33.4939
 30
0.0
 10
-171.98
 20
-36.2754
 30
0.0
 10
-171.0703
 20
-37.0038
 30
0.0
 10
-171.0703
 20
-37.0038
 30
0.0
 10
-168.3716
 20
-39.6767
 30
0.0
 10
-166.5167
 20
-41.4
 30
0.0
 10
-165.4121
 20
-43.2476
 30
0.0
 10
-165.4121
 20
-43.2476
 30
0.0
 10
-163.5225
 20
-27.7132
 30
0.0
 10
-161.6352
 20
-26.4602
 30
0.0
 10
-158.8032
 20
-29.9662
 30
0.0
 10
-158.8032
 20
-29.9662
 30
0.0
 10
-158.1841
 20
-27.9998
 30
0.0
 10
-156.9702
 20
-27.1555
 30
0.0
 10
-155.1836
 20
-26.8079
 30
0.0
 10
-155.1836
 20
-26.8079
 30
0.0
 10
-157.9416
 20
-23.4071
 30
0.0
 10
-159.1991
 20
-21.1457
 30
0.0
 10
-161.3883
 20
-17.3051
 30
0.0
 10
-161.3883
 20
-17.3051
 30
0.0
 10
-161.1805
 20
-24.3124
 30
0.0
 10
-163.3803
 20
-29.8805
 30
0.0
 10
-166.6567
 20
-25.9131
 30
0.0
 10
-166.6567
 20
-25.9131
 30
0.0
 10
-169.9114
 20
-31.0595
 30
0.0
 10
-174.285
 20
-28.3016
 30
0.0
 10
-171.0327
 20
-23.3438
 30
0.0
 10
-171.0327
 20
-23.3438
 30
0.0
 10
-173.4626
 20
-23.5101
 30
0.0
 10
-175.5448
 20
-22.134
 30
0.0
 10
-172.5926
 20
-19.1313
 30
0.0
 10
-172.5926
 20
-19.1313
 30
0.0
 10
-171.4466
 20
-17.9656
 30
0.0
 10
-169.7775
 20
-16.4523
 30
0.0
 10
-167.5575
 20
-14.1081
 30
0.0
 10
-167.5575
 20
-14.1081
 30
0.0
 10
-177.4955
 20
-19.7679
 30
0.0
 10
-181.848
 20
-16.0933
 30
0.0
 10
-176.5117
 20
-13.5763
 30
0.0
 10
-176.5117
 20
-13.5763
 30
0.0
 10
-177.7602
 20
-13.7358
 30
0.0
 10
-179.665
 20
-14.5756
 30
0.0
 10
-180.6341
 20
-13.3293
 30
0.0
 10
-180.6341
 20
-13.3293
 30
0.0
 10
-180.6341
 20
-13.3293
 30
0.0
 10
-180.6342
 20
-35.4295
 30
0.0
 10
-180.6342
 20
-35.4295
 30
0.0
  0
SPLINE
  5
54
330
1F
100
AcDbEntity
  8
layer 1
 62
     7
100
AcDbSpline
210
0.0
220
0.0
230
1.0
 70
    11
 71
     3
 72
    48
 73
    44
 74
     0
 42
0.0000000001
 43
0.0000000001
 12
1.0
 22
0.0
 32
0.0
 13
1.0
 23
0.0
 33
0.0
 40
0.0
 40
0.0
 40
0.0
 40
0.0
 40
0.0833333333333333
 40
0.0833333333333333
 40
0.0833333333333333
 40
0.0833333333333333
 40
0.1666666666666667
 40
0.1666666666666667
 40
0.1666666666666667
 40
0.1666666666666667
 40
0.25
 40
0.25
 40
0.25
 40
0.25
 40
0.3333333333333333
 40
0.3333333333333333
 40
0.3333333333333333
 40
0.3333333333333333
 40
0.4166666666666667
 40
0.4166666666666667
 40
0.4166666666666667
 40
0.4166666666666667
 40
0.5
 40
0.5
 40
0.5
 40
0.5
 40
0.5833333333333334
 40
0.5833333333333334
 40
0.5833333333333334
 40
0.5833333333333334
 40
0.6666666666666666
 40
0.6666666666666666
 40
0.6666666666666666
 40
0.6666666666666666
 40
0.75
 40
0.75
 40
0.75
 40
0.75
 40
0.8333333333333334
 40
0.8333333333333334
 40
0.8333333333333334
 40
0.8333333333333334
 40
1.0
 40
1.0
 40
1.0
 40
1.0
 10
-175.9759
 20
2.8065
 30
0.0
 10
-180.5665
 20
2.6995
 30
0.0
 10
-179.0922
 20
0.0859
 30
0.0
 10
-176.3236
 20
-2.4597
 30
0.0
 10
-176.3236
 20
-2.4597
 30
0.0
 10
-174.2128
 20
-4.4043
 30
0.0
 10
-172.1133
 20
-5.2788
 30
0.0
 10
-169.8082
 20
-7.9254
 30
0.0
 10
-169.8082
 20
-7.9254
 30
0.0
 10
-179.7551
 20
-3.2559
 30
0.0
 10
-178.2765
 20
-8.6291
 30
0.0
 10
-176.7234
 20
-9.587
 30
0.0
 10
-176.7234
 20
-9.587
 30
0.0
 10
-178.762
 20
-8.7124
 30
0.0
 10
-179.7002
 20
-8.8087
 30
0.0
 10
-180.6341
 20
-9.3664
 30
0.0
 10
-180.6341
 20
-9.3664
 30
0.0
 10
-180.6341
 20
-9.3664
 30
0.0
 10
-180.6342
 20
25.9474
 30
0.0
 10
-180.6342
 20
25.9474
 30
0.0
 10
-180.6342
 20
25.9474
 30
0.0
 10
-179.7002
 20
25.3875
 30
0.0
 10
-178.7618
 20
25.2934
 30
0.0
 10
-176.7234
 20
26.1663
 30
0.0
 10
-176.7234
 20
26.1663
 30
0.0
 10
-178.2765
 20
25.2083
 30
0.0
 10
-179.7551
 20
19.8347
 30
0.0
 10
-169.8082
 20
24.504
 30
0.0
 10
-169.8082
 20
24.504
 30
0.0
 10
-172.1133
 20
21.8603
 30
0.0
 10
-174.2128
 20
20.9829
 30
0.0
 10
-176.3236
 20
19.0407
 30
0.0
 10
-176.3236
 20
19.0407
 30
0.0
 10
-179.0922
 20
16.4933
 30
0.0
 10
-180.5663
 20
13.8797
 30
0.0
 10
-175.9759
 20
13.7723
 30
0.0
 10
-175.9759
 20
13.7723
 30
0.0
 10
-177.2244
 20
13.9318
 30
0.0
 10
-179.385
 20
10.2692
 30
0.0
 10
-178.6129
 20
8.2893
 30
0.0
 10
-178.6129
 20
8.2893
 30
0.0
 10
-179.385
 20
6.3102
 30
0.0
 10
-177.2244
 20
2.6468
 30
0.0
 10
-175.9759
 20
2.8065
 30
0.0
  0
SPLINE
  5
55
330
1F
100
AcDbEntity
  8
layer 1
 62
     7
100
AcDbSpline
210
0.0
220
0.0
230
1.0
 70
    11
 71
     3
 72
    24
 73
    20
 74
     0
 42
0.0000000001
 43
0.0000000001
 12
1.0
 22
0.0
 32
0.0
 13
1.0
 23
0.0
 33
0.0
 40
0.0
 40
0.0
 40
0.0
 40
0.0
 40
0.1666666666666667
 40
0.1666666666666667
 40
0.1666666666666667
 40
0.1666666666666667
 40
0.3333333333333333
 40
0.3333333333333333
 40
0.3333333333333333
 40
0.3333333333333333
 40
0.5
 40
0.5
 40
0.5
 40
0.5
 40
0.6666666666666666
 40
0.6666666666666666
 40
0.6666666666666666
 40
0.6666666666666666
 40
1.0
 40
1.0
 40
1.0
 40
1.0
 10
-140.4516
 20
-37.4131
 30
0.0
 10
-150.1208
 20
-36.997
 30
0.0
 10
-155.5555
 20
-40.19
 30
0.0
 10
-160.9572
 20
-44.125
 30
0.0
 10
-160.9572
 20
-44.125
 30
0.0
 10
-159.3851
 20
-41.942
 30
0.0
 10
-156.4517
 20
-38.3531
 30
0.0
 10
-153.5169
 20
-35.8773
 30
0.0
 10
-153.5169
 20
-35.8773
 30
0.0
 10
-151.1133
 20
-33.8478
 30
0.0
 10
-152.0932
 20
-31.1425
 30
0.0
 10
-155.6209
 20
-31.6457
 30
0.0
 10
-155.6209
 20
-31.6457
 30
0.0
 10
-154.6305
 20
-31.0355
 30
0.0
 10
-153.4972
 20
-29.9879
 30
0.0
 10
-153.775
 20
-28.5726
 30
0.0
 10
-153.775
 20
-28.5726
 30
0.0
 10
-149.9325
 20
-32.5118
 30
0.0
 10
-146.3023
 20
-34.8629
 30
0.0
 10
-140.4516
 20
-37.4131
 30
0.0
  0
SPLINE
  5
56
330
1F
100
AcDbEntity
  8
layer 1
 62
     7
100
AcDbSpline
210
0.0
220
0.0
230
1.0
 70
    11
 71
     3
 72
    40
 73
    36
 74
     0
 42
0.0000000001
 43
0.0000000001
 12
1.0
 22
0.0
 32
0.0
 13
1.0
 23
0.0
 33
0.0
 40
0.0
 40
0.0
 40
0.0
 40
0.0
 40
0.1
 40
0.1
 40
0.1
 40
0.1
 40
0.2
 40
0.2
 40
0.2
 40
0.2
 40
0.3
 40
0.3
 40
0.3
 40
0.3
 40
0.4
 40
0.4
 40
0.4
 40
0.4
 40
0.5
 40
0.5
 40
0.5
 40
0.5
 40
0.6
 40
0.6
 40
0.6
 40
0.6
 40
0.7
 40
0.7
 40
0.7
 40
0.7
 40
0.8
 40
0.8
 40
0.8
 40
0.8
 40
1.0
 40
1.0
 40
1.0
 40
1.0
 10
-134.645
 20
-21.0164
 30
0.0
 10
-138.5928
 20
-22.48
 30
0.0
 10
-140.6201
 20
-23.3545
 30
0.0
 10
-143.2796
 20
-24.8768
 30
0.0
 10
-143.2796
 20
-24.8768
 30
0.0
 10
-144.3361
 20
-25.4825
 30
0.0
 10
-147.2972
 20
-28.3234
 30
0.0
 10
-143.1658
 20
-28.7568
 30
0.0
 10
-143.1658
 20
-28.7568
 30
0.0
 10
-145.0863
 20
-30.1015
 30
0.0
 10
-145.4602
 20
-31.2191
 30
0.0
 10
-144.8063
 20
-32.8965
 30
0.0
 10
-144.8063
 20
-32.8965
 30
0.0
 10
-152.3669
 20
-27.7613
 30
0.0
 10
-156.542
 20
-23.5297
 30
0.0
 10
-160.6576
 20
-15.0638
 30
0.0
 10
-160.6576
 20
-15.0638
 30
0.0
 10
-148.0122
 20
-22.799
 30
0.0
 10
-149.1234
 20
-16.6426
 30
0.0
 10
-149.4012
 20
-15.2255
 30
0.0
 10
-149.4012
 20
-15.2255
 30
0.0
 10
-148.5262
 20
-15.9427
 30
0.0
 10
-145.8622
 20
-16.3582
 30
0.0
 10
-146.1623
 20
-14.668
 30
0.0
 10
-146.1623
 20
-14.668
 30
0.0
 10
-145.4316
 20
-15.2866
 30
0.0
 10
-144.9087
 20
-15.4222
 30
0.0
 10
-144.2789
 20
-15.2866
 30
0.0
 10
-144.2789
 20
-15.2866
 30
0.0
 10
-146.4462
 20
-17.2725
 30
0.0
 10
-145.108
 20
-18.5496
 30
0.0
 10
-142.6871
 20
-19.409
 30
0.0
 10
-142.6871
 20
-19.409
 30
0.0
 10
-140.2875
 20
-20.26
 30
0.0
 10
-138.6235
 20
-19.8928
 30
0.0
 10
-134.645
 20
-21.0164
 30
0.0
  0
SPLINE
  5
57
330
1F
100
AcDbEntity
  8
layer 1
 62
     7
100
AcDbSpline
210
0.0
220
0.0
230
1.0
 70
    11
 71
     3
 72
    44
 73
    40
 74
     0
 42
0.0000000001
 43
0.0000000001
 12
1.0
 22
0.0
 32
0.0
 13
1.0
 23
0.0
 33
0.0
 40
0.0
 40
0.0
 40
0.0
 40
0.0
 40
0.0909090909090909
 40
0.0909090909090909
 40
0.0909090909090909
 40
0.0909090909090909
 40
0.1818181818181818
 40
0.1818181818181818
 40
0.1818181818181818
 40
0.1818181818181818
 40
0.2727272727272727
 40
0.2727272727272727
 40
0.2727272727272727
 40
0.2727272727272727
 40
0.3636363636363636
 40
0.3636363636363636
 40
0.3636363636363636
 40
0.3636363636363636
 40
0.4545454545454545
 40
0.4545454545454545
 40
0.4545454545454545
 40
0.4545454545454545
 40
0.5454545454545454
 40
0.5454545454545454
 40
0.5454545454545454
 40
0.5454545454545454
 40
0.6363636363636364
 40
0.6363636363636364
 40
0.6363636363636364
 40
0.6363636363636364
 40
0.7272727272727273
 40
0.7272727272727273
 40
0.7272727272727273
 40
0.7272727272727273
 40
0.8181818181818182
 40
0.8181818181818182
 40
0.8181818181818182
 40
0.8181818181818182
 40
1.0
 40
1.0
 40
1.0
 40
1.0
 10
-131.2947
 20
-17.2943
 30
0.0
 10
-131.1811
 20
-15.1881
 30
0.0
 10
-131.3317
 20
-12.2247
 30
0.0
 10
-131.4414
 20
-8.8479
 30
0.0
 10
-131.4414
 20
-8.8479
 30
0.0
 10
-131.4806
 20
-7.6319
 30
0.0
 10
-128.9544
 20
-5.4097
 30
0.0
 10
-127.3515
 20
-8.5004
 30
0.0
 10
-127.3515
 20
-8.5004
 30
0.0
 10
-127.3537
 20
-7.0742
 30
0.0
 10
-126.6343
 20
-6.0396
 30
0.0
 10
-125.3701
 20
-5.5851
 30
0.0
 10
-125.3701
 20
-5.5851
 30
0.0
 10
-132.0932
 20
-0.7538
 30
0.0
 10
-141.7549
 20
3.5197
 30
0.0
 10
-151.0982
 20
-1.69
 30
0.0
 10
-151.0982
 20
-1.69
 30
0.0
 10
-151.0132
 20
-4.6203
 30
0.0
 10
-156.9416
 20
-7.9992
 30
0.0
 10
-158.2495
 20
-8.6072
 30
0.0
 10
-158.2495
 20
-8.6072
 30
0.0
 10
-145.5762
 20
-6.6151
 30
0.0
 10
-145.7705
 20
-10.8054
 30
0.0
 10
-149.3004
 20
-11.7045
 30
0.0
 10
-149.3004
 20
-11.7045
 30
0.0
 10
-148.8195
 20
-11.7503
 30
0.0
 10
-148.4432
 20
-11.7543
 30
0.0
 10
-147.9685
 20
-12.2163
 30
0.0
 10
-147.9685
 20
-12.2163
 30
0.0
 10
-147.3191
 20
-10.6043
 30
0.0
 10
-144.4081
 20
-10.1514
 30
0.0
 10
-142.8047
 20
-12.3864
 30
0.0
 10
-142.8047
 20
-12.3864
 30
0.0
 10
-143.461
 20
-9.723
 30
0.0
 10
-141.311
 20
-9.2091
 30
0.0
 10
-139.194
 20
-10.6654
 30
0.0
 10
-139.194
 20
-10.6654
 30
0.0
 10
-137.0945
 20
-12.1065
 30
0.0
 10
-134.1378
 20
-14.808
 30
0.0
 10
-131.2947
 20
-17.2943
 30
0.0
  0
SPLINE
  5
58
330
1F
100
AcDbEntity
  8
layer 1
 62
     7
100
AcDbSpline
210
0.0
220
0.0
230
1.0
 70
    11
 71
     3
 72
    36
 73
    32
 74
     0
 42
0.0000000001
 43
0.0000000001
 12
1.0
 22
0.0
 32
0.0
 13
1.0
 23
0.0
 33
0.0
 40
0.0
 40
0.0
 40
0.0
 40
0.0
 40
0.1111111111111111
 40
0.1111111111111111
 40
0.1111111111111111
 40
0.1111111111111111
 40
0.2222222222222222
 40
0.2222222222222222
 40
0.2222222222222222
 40
0.2222222222222222
 40
0.3333333333333333
 40
0.3333333333333333
 40
0.3333333333333333
 40
0.3333333333333333
 40
0.4444444444444444
 40
0.4444444444444444
 40
0.4444444444444444
 40
0.4444444444444444
 40
0.5555555555555556
 40
0.5555555555555556
 40
0.5555555555555556
 40
0.5555555555555556
 40
0.6666666666666666
 40
0.6666666666666666
 40
0.6666666666666666
 40
0.6666666666666666
 40
0.7777777777777778
 40
0.7777777777777778
 40
0.7777777777777778
 40
0.7777777777777778
 40
1.0
 40
1.0
 40
1.0
 40
1.0
 10
-133.7291
 20
-89.5669
 30
0.0
 10
-139.0894
 20
-90.2556
 30
0.0
 10
-146.8968
 20
-91.4673
 30
0.0
 10
-149.5562
 20
-92.9896
 30
0.0
 10
-149.5562
 20
-92.9896
 30
0.0
 10
-150.6129
 20
-93.5954
 30
0.0
 10
-152.6009
 20
-95.7649
 30
0.0
 10
-150.3502
 20
-97.1382
 30
0.0
 10
-150.3502
 20
-97.1382
 30
0.0
 10
-151.6973
 20
-97.4423
 30
0.0
 10
-152.5439
 20
-97.9193
 30
0.0
 10
-152.8983
 20
-98.8924
 30
0.0
 10
-152.8983
 20
-98.8924
 30
0.0
 10
-154.3417
 20
-92.7141
 30
0.0
 10
-155.1903
 20
-89.4595
 30
0.0
 10
-159.7763
 20
-84.3203
 30
0.0
 10
-159.7763
 20
-84.3203
 30
0.0
 10
-157.6858
 20
-86.9881
 30
0.0
 10
-152.7689
 20
-88.5917
 30
0.0
 10
-150.8575
 20
-89.0659
 30
0.0
 10
-150.8575
 20
-89.0659
 30
0.0
 10
-145.9938
 20
-89.9539
 30
0.0
 10
-147.5878
 20
-87.2333
 30
0.0
 10
-147.4635
 20
-86.5599
 30
0.0
 10
-147.4635
 20
-86.5599
 30
0.0
 10
-146.4704
 20
-87.5374
 30
0.0
 10
-143.7979
 20
-87.4193
 30
0.0
 10
-144.2923
 20
-85.2038
 30
0.0
 10
-144.2923
 20
-85.2038
 30
0.0
 10
-141.7969
 20
-87.5
 30
0.0
 10
-134.4485
 20
-88.6437
 30
0.0
 10
-133.7291
 20
-89.5669
 30
0.0
  0
SPLINE
  5
59
330
1F
100
AcDbEntity
  8
layer 1
 62
     7
100
AcDbSpline
210
0.0
220
0.0
230
1.0
 70
    11
 71
     3
 72
    28
 73
    24
 74
     0
 42
0.0000000001
 43
0.0000000001
 12
1.0
 22
0.0
 32
0.0
 13
1.0
 23
0.0
 33
0.0
 40
0.0
 40
0.0
 40
0.0
 40
0.0
 40
0.1428571428571428
 40
0.1428571428571428
 40
0.1428571428571428
 40
0.1428571428571428
 40
0.2857142857142857
 40
0.2857142857142857
 40
0.2857142857142857
 40
0.2857142857142857
 40
0.4285714285714285
 40
0.4285714285714285
 40
0.4285714285714285
 40
0.4285714285714285
 40
0.5714285714285714
 40
0.5714285714285714
 40
0.5714285714285714
 40
0.5714285714285714
 40
0.7142857142857143
 40
0.7142857142857143
 40
0.7142857142857143
 40
0.7142857142857143
 40
1.0
 40
1.0
 40
1.0
 40
1.0
 10
-117.6522
 20
0.6549
 30
0.0
 10
-122.2426
 20
-0.474
 30
0.0
 10
-123.0976
 20
-1.8231
 30
0.0
 10
-123.6792
 20
-3.7392
 30
0.0
 10
-123.6792
 20
-3.7392
 30
0.0
 10
-129.0989
 20
-1.3137
 30
0.0
 10
-137.9696
 20
3.1066
 30
0.0
 10
-144.056
 20
8.2893
 30
0.0
 10
-144.056
 20
8.2893
 30
0.0
 10
-137.9696
 20
13.475
 30
0.0
 10
-129.0989
 20
17.8929
 30
0.0
 10
-123.6792
 20
20.3207
 30
0.0
 10
-123.6792
 20
20.3207
 30
0.0
 10
-123.0976
 20
18.4048
 30
0.0
 10
-122.2426
 20
17.0532
 30
0.0
 10
-117.6522
 20
15.9267
 30
0.0
 10
-117.6522
 20
15.9267
 30
0.0
 10
-122.929
 20
14.7258
 30
0.0
 10
-120.4778
 20
9.8313
 30
0.0
 10
-124.6591
 20
8.2893
 30
0.0
 10
-124.6591
 20
8.2893
 30
0.0
 10
-120.4778
 20
6.7475
 30
0.0
 10
-122.929
 20
1.853
 30
0.0
 10
-117.6522
 20
0.6549
 30
0.0
  0
SPLINE
  5
5A
330
1F
100
AcDbEntity
  8
layer 1
 62
     7
100
AcDbSpline
210
0.0
220
0.0
230
1.0
 70
    11
 71
     3
 72
    16
 73
    12
 74
     0
 42
0.0000000001
 43
0.0000000001
 12
1.0
 22
0.0
 32
0.0
 13
1.0
 23
0.0
 33
0.0
 40
0.0
 40
0.0
 40
0.0
 40
0.0
 40
0.25
 40
0.25
 40
0.25
 40
0.25
 40
0.5
 40
0.5
 40
0.5
 40
0.5
 40
1.0
 40
1.0
 40
1.0
 40
1.0
 10
-104.9909
 20
-14.8056
 30
0.0
 10
-109.7018
 20
-10.7549
 30
0.0
 10
-111.7577
 20
-8.9179
 30
0.0
 10
-114.7407
 20
-2.696
 30
0.0
 10
-114.7407
 20
-2.696
 30
0.0
 10
-115.6965
 20
-4.9417
 30
0.0
 10
-117.3722
 20
-5.5805
 30
0.0
 10
-120.2807
 20
-5.996
 30
0.0
 10
-120.2807
 20
-5.996
 30
0.0
 10
-114.0408
 20
-10.1447
 30
0.0
 10
-110.0238
 20
-11.7986
 30
0.0
 10
-104.9909
 20
-14.8056
 30
0.0
  0
SPLINE
  5
5B
330
1F
100
AcDbEntity
  8
layer 1
 62
     7
100
AcDbSpline
210
0.0
220
0.0
230
1.0
 70
    11
 71
     3
 72
   108
 73
   104
 74
     0
 42
0.0000000001
 43
0.0000000001
 12
1.0
 22
0.0
 32
0.0
 13
1.0
 23
0.0
 33
0.0
 40
0.0
 40
0.0
 40
0.0
 40
0.0
 40
0.037037037037037
 40
0.037037037037037
 40
0.037037037037037
 40
0.037037037037037
 40
0.0740740740740741
 40
0.0740740740740741
 40
0.0740740740740741
 40
0.0740740740740741
 40
0.1111111111111111
 40
0.1111111111111111
 40
0.1111111111111111
 40
0.1111111111111111
 40
0.1481481481481481
 40
0.1481481481481481
 40
0.1481481481481481
 40
0.1481481481481481
 40
0.1851851851851852
 40
0.1851851851851852
 40
0.1851851851851852
 40
0.1851851851851852
 40
0.2222222222222222
 40
0.2222222222222222
 40
0.2222222222222222
 40
0.2222222222222222
 40
0.2592592592592592
 40
0.2592592592592592
 40
0.2592592592592592
 40
0.2592592592592592
 40
0.2962962962962963
 40
0.2962962962962963
 40
0.2962962962962963
 40
0.2962962962962963
 40
0.3333333333333333
 40
0.3333333333333333
 40
0.3333333333333333
 40
0.3333333333333333
 40
0.3703703703703703
 40
0.3703703703703703
 40
0.3703703703703703
 40
0.3703703703703703
 40
0.4074074074074074
 40
0.4074074074074074
 40
0.4074074074074074
 40
0.4074074074074074
 40
0.4444444444444444
 40
0.4444444444444444
 40
0.4444444444444444
 40
0.4444444444444444
 40
0.4814814814814815
 40
0.4814814814814815
 40
0.4814814814814815
 40
0.4814814814814815
 40
0.5185185185185185
 40
0.5185185185185185
 40
0.5185185185185185
 40
0.5185185185185185
 40
0.5555555555555556
 40
0.5555555555555556
 40
0.5555555555555556
 40
0.5555555555555556
 40
0.5925925925925926
 40
0.5925925925925926
 40
0.5925925925925926
 40
0.5925925925925926
 40
0.6296296296296297
 40
0.6296296296296297
 40
0.6296296296296297
 40
0.6296296296296297
 40
0.6666666666666666
 40
0.6666666666666666
 40
0.6666666666666666
 40
0.6666666666666666
 40
0.7037037037037037
 40
0.7037037037037037
 40
0.7037037037037037
 40
0.7037037037037037
 40
0.7407407407407407
 40
0.7407407407407407
 40
0.7407407407407407
 40
0.7407407407407407
 40
0.7777777777777778
 40
0.7777777777777778
 40
0.7777777777777778
 40
0.7777777777777778
 40
0.8148148148148148
 40
0.8148148148148148
 40
0.8148148148148148
 40
0.8148148148148148
 40
0.8518518518518519
 40
0.8518518518518519
 40
0.8518518518518519
 40
0.8518518518518519
 40
0.8888888888888888
 40
0.8888888888888888
 40
0.8888888888888888
 40
0.8888888888888888
 40
0.9259259259259259
 40
0.9259259259259259
 40
0.9259259259259259
 40
0.9259259259259259
 40
1.0
 40
1.0
 40
1.0
 40
1.0
 10
-92.0505
 20
4.8517
 30
0.0
 10
-95.2677
 20
4.9782
 30
0.0
 10
-95.1869
 20
2.9704
 30
0.0
 10
-93.411
 20
0.7046
 30
0.0
 10
-93.411
 20
0.7046
 30
0.0
 10
-92.0158
 20
-1.0796
 30
0.0
 10
-89.3233
 20
-2.4116
 30
0.0
 10
-86.8588
 20
-4.2223
 30
0.0
 10
-86.8588
 20
-4.2223
 30
0.0
 10
-93.8461
 20
-3.061
 30
0.0
 10
-100.9078
 20
-3.9273
 30
0.0
 10
-97.3234
 20
-7.0261
 30
0.0
 10
-97.3234
 20
-7.0261
 30
0.0
 10
-102.8064
 20
-7.6213
 30
0.0
 10
-102.4916
 20
-12.868
 30
0.0
 10
-96.3986
 20
-10.7616
 30
0.0
 10
-96.3986
 20
-10.7616
 30
0.0
 10
-96.4987
 20
-14.4534
 30
0.0
 10
-91.0029
 20
-12.3406
 30
0.0
 10
-86.9046
 20
-8.437
 30
0.0
 10
-86.9046
 20
-8.437
 30
0.0
 10
-87.9959
 20
-11.0808
 30
0.0
 10
-89.8088
 20
-12.798
 30
0.0
 10
-90.3384
 20
-14.495
 30
0.0
 10
-90.3384
 20
-14.495
 30
0.0
 10
-90.9699
 20
-16.5312
 30
0.0
 10
-90.4627
 20
-17.6533
 30
0.0
 10
-87.8905
 20
-16.2424
 30
0.0
 10
-87.8905
 20
-16.2424
 30
0.0
 10
-87.8296
 20
-17.432
 30
0.0
 10
-87.5368
 20
-18.1034
 30
0.0
 10
-87.2847
 20
-18.6022
 30
0.0
 10
-87.2847
 20
-18.6022
 30
0.0
 10
-101.0876
 20
-18.867
 30
0.0
 10
-110.8832
 20
-5.3247
 30
0.0
 10
-113.317
 20
-1.6328
 30
0.0
 10
-113.317
 20
-1.6328
 30
0.0
 10
-108.2501
 20
-2.0067
 30
0.0
 10
-106.8503
 20
2.1307
 30
0.0
 10
-102.4586
 20
2.7605
 30
0.0
 10
-102.4586
 20
2.7605
 30
0.0
 10
-105.8421
 20
7.4653
 30
0.0
 10
-113.2778
 20
6.8746
 30
0.0
 10
-113.9513
 20
2.7959
 30
0.0
 10
-113.9513
 20
2.7959
 30
0.0
 10
-113.7504
 20
5.724
 30
0.0
 10
-115.1478
 20
8.2501
 30
0.0
 10
-116.5105
 20
8.2893
 30
0.0
 10
-116.5105
 20
8.2893
 30
0.0
 10
-115.1478
 20
8.3291
 30
0.0
 10
-113.7502
 20
10.8548
 30
0.0
 10
-113.9513
 20
13.7834
 30
0.0
 10
-113.9513
 20
13.7834
 30
0.0
 10
-113.2778
 20
9.7046
 30
0.0
 10
-105.8421
 20
9.1141
 30
0.0
 10
-102.4586
 20
13.8204
 30
0.0
 10
-102.4586
 20
13.8204
 30
0.0
 10
-106.8503
 20
14.4503
 30
0.0
 10
-108.2501
 20
18.5862
 30
0.0
 10
-113.317
 20
18.2121
 30
0.0
 10
-113.317
 20
18.2121
 30
0.0
 10
-110.8832
 20
21.9039
 30
0.0
 10
-101.0876
 20
35.4458
 30
0.0
 10
-87.2847
 20
35.1838
 30
0.0
 10
-87.2847
 20
35.1838
 30
0.0
 10
-87.5368
 20
34.6826
 30
0.0
 10
-87.8296
 20
34.0113
 30
0.0
 10
-87.8905
 20
32.8216
 30
0.0
 10
-87.8905
 20
32.8216
 30
0.0
 10
-90.4627
 20
34.232
 30
0.0
 10
-90.9699
 20
33.11
 30
0.0
 10
-90.3384
 20
31.0743
 30
0.0
 10
-90.3384
 20
31.0743
 30
0.0
 10
-89.8088
 20
29.3767
 30
0.0
 10
-87.9959
 20
27.66
 30
0.0
 10
-86.9046
 20
25.0158
 30
0.0
 10
-86.9046
 20
25.0158
 30
0.0
 10
-91.0029
 20
28.9198
 30
0.0
 10
-96.4987
 20
31.0344
 30
0.0
 10
-96.3986
 20
27.3409
 30
0.0
 10
-96.3986
 20
27.3409
 30
0.0
 10
-102.4916
 20
29.4467
 30
0.0
 10
-102.8064
 20
24.2001
 30
0.0
 10
-97.3234
 20
23.6076
 30
0.0
 10
-97.3234
 20
23.6076
 30
0.0
 10
-100.9078
 20
20.5065
 30
0.0
 10
-93.846
 20
19.6403
 30
0.0
 10
-86.8588
 20
20.8015
 30
0.0
 10
-86.8588
 20
20.8015
 30
0.0
 10
-89.3233
 20
18.9909
 30
0.0
 10
-92.0158
 20
17.659
 30
0.0
 10
-93.411
 20
15.8762
 30
0.0
 10
-93.411
 20
15.8762
 30
0.0
 10
-95.187
 20
13.6082
 30
0.0
 10
-95.2675
 20
11.6028
 30
0.0
 10
-92.0505
 20
11.7275
 30
0.0
 10
-92.0505
 20
11.7275
 30
0.0
 10
-93.4962
 20
10.9164
 30
0.0
 10
-93.9664
 20
9.5451
 30
0.0
 10
-93.4916
 20
8.2893
 30
0.0
 10
-93.4916
 20
8.2893
 30
0.0
 10
-93.9664
 20
7.0363
 30
0.0
 10
-93.4962
 20
5.6629
 30
0.0
 10
-92.0505
 20
4.8517
 30
0.0
  0
SPLINE
  5
5C
330
1F
100
AcDbEntity
  8
layer 1
 62
     7
100
AcDbSpline
210
0.0
220
0.0
230
1.0
 70
    11
 71
     3
 72
    24
 73
    20
 74
     0
 42
0.0000000001
 43
0.0000000001
 12
1.0
 22
0.0
 32
0.0
 13
1.0
 23
0.0
 33
0.0
 40
0.0
 40
0.0
 40
0.0
 40
0.0
 40
0.1666666666666667
 40
0.1666666666666667
 40
0.1666666666666667
 40
0.1666666666666667
 40
0.3333333333333333
 40
0.3333333333333333
 40
0.3333333333333333
 40
0.3333333333333333
 40
0.5
 40
0.5
 40
0.5
 40
0.5
 40
0.6666666666666666
 40
0.6666666666666666
 40
0.6666666666666666
 40
0.6666666666666666
 40
1.0
 40
1.0
 40
1.0
 40
1.0
 10
-71.6193
 20
-16.2205
 30
0.0
 10
-75.2234
 20
-15.2406
 30
0.0
 10
-77.8939
 20
-14.635
 30
0.0
 10
-82.5348
 20
-10.1319
 30
0.0
 10
-82.5348
 20
-10.1319
 30
0.0
 10
-82.0886
 20
-12.1636
 30
0.0
 10
-81.1087
 20
-13.9637
 30
0.0
 10
-80.8289
 20
-15.8834
 30
0.0
 10
-80.8289
 20
-15.8834
 30
0.0
 10
-80.5293
 20
-17.9483
 30
0.0
 10
-82.5302
 20
-17.7098
 30
0.0
 10
-84.0173
 20
-15.6275
 30
0.0
 10
-84.0173
 20
-15.6275
 30
0.0
 10
-83.7027
 20
-16.8089
 30
0.0
 10
-83.1692
 20
-18.5082
 30
0.0
 10
-84.2032
 20
-18.6571
 30
0.0
 10
-84.2032
 20
-18.6571
 30
0.0
 10
-79.7465
 20
-18.6872
 30
0.0
 10
-75.6062
 20
-18.2524
 30
0.0
 10
-71.6193
 20
-16.2205
 30
0.0
  0
SPLINE
  5
5D
330
1F
100
AcDbEntity
  8
layer 1
 62
     7
100
AcDbSpline
210
0.0
220
0.0
230
1.0
 70
    11
 71
     3
 72
   108
 73
   104
 74
     0
 42
0.0000000001
 43
0.0000000001
 12
1.0
 22
0.0
 32
0.0
 13
1.0
 23
0.0
 33
0.0
 40
0.0
 40
0.0
 40
0.0
 40
0.0
 40
0.037037037037037
 40
0.037037037037037
 40
0.037037037037037
 40
0.037037037037037
 40
0.0740740740740741
 40
0.0740740740740741
 40
0.0740740740740741
 40
0.0740740740740741
 40
0.1111111111111111
 40
0.1111111111111111
 40
0.1111111111111111
 40
0.1111111111111111
 40
0.1481481481481481
 40
0.1481481481481481
 40
0.1481481481481481
 40
0.1481481481481481
 40
0.1851851851851852
 40
0.1851851851851852
 40
0.1851851851851852
 40
0.1851851851851852
 40
0.2222222222222222
 40
0.2222222222222222
 40
0.2222222222222222
 40
0.2222222222222222
 40
0.2592592592592592
 40
0.2592592592592592
 40
0.2592592592592592
 40
0.2592592592592592
 40
0.2962962962962963
 40
0.2962962962962963
 40
0.2962962962962963
 40
0.2962962962962963
 40
0.3333333333333333
 40
0.3333333333333333
 40
0.3333333333333333
 40
0.3333333333333333
 40
0.3703703703703703
 40
0.3703703703703703
 40
0.3703703703703703
 40
0.3703703703703703
 40
0.4074074074074074
 40
0.4074074074074074
 40
0.4074074074074074
 40
0.4074074074074074
 40
0.4444444444444444
 40
0.4444444444444444
 40
0.4444444444444444
 40
0.4444444444444444
 40
0.4814814814814815
 40
0.4814814814814815
 40
0.4814814814814815
 40
0.4814814814814815
 40
0.5185185185185185
 40
0.5185185185185185
 40
0.5185185185185185
 40
0.5185185185185185
 40
0.5555555555555556
 40
0.5555555555555556
 40
0.5555555555555556
 40
0.5555555555555556
 40
0.5925925925925926
 40
0.5925925925925926
 40
0.5925925925925926
 40
0.5925925925925926
 40
0.6296296296296297
 40
0.6296296296296297
 40
0.6296296296296297
 40
0.6296296296296297
 40
0.6666666666666666
 40
0.6666666666666666
 40
0.6666666666666666
 40
0.6666666666666666
 40
0.7037037037037037
 40
0.7037037037037037
 40
0.7037037037037037
 40
0.7037037037037037
 40
0.7407407407407407
 40
0.7407407407407407
 40
0.7407407407407407
 40
0.7407407407407407
 40
0.7777777777777778
 40
0.7777777777777778
 40
0.7777777777777778
 40
0.7777777777777778
 40
0.8148148148148148
 40
0.8148148148148148
 40
0.8148148148148148
 40
0.8148148148148148
 40
0.8518518518518519
 40
0.8518518518518519
 40
0.8518518518518519
 40
0.8518518518518519
 40
0.8888888888888888
 40
0.8888888888888888
 40
0.8888888888888888
 40
0.8888888888888888
 40
0.9259259259259259
 40
0.9259259259259259
 40
0.9259259259259259
 40
0.9259259259259259
 40
1.0
 40
1.0
 40
1.0
 40
1.0
 10
-52.0325
 20
-4.0256
 30
0.0
 10
-57.4539
 20
-13.1216
 30
0.0
 10
-67.9689
 20
-14.2346
 30
0.0
 10
-72.8701
 20
-13.6793
 30
0.0
 10
-72.8701
 20
-13.6793
 30
0.0
 10
-71.7504
 20
-13.2877
 30
0.0
 10
-72.5006
 20
-11.9778
 30
0.0
 10
-73.1328
 20
-11.1727
 30
0.0
 10
-73.1328
 20
-11.1727
 30
0.0
 10
-68.5574
 20
-11.4571
 30
0.0
 10
-68.1856
 20
-7.5054
 30
0.0
 10
-73.135
 20
-8.1285
 30
0.0
 10
-73.135
 20
-8.1285
 30
0.0
 10
-69.7953
 20
-7.2909
 30
0.0
 10
-72.7195
 20
-5.0425
 30
0.0
 10
-74.5654
 20
-5.1169
 30
0.0
 10
-74.5654
 20
-5.1169
 30
0.0
 10
-76.5491
 20
-5.1998
 30
0.0
 10
-79.1077
 20
-5.701
 30
0.0
 10
-81.7078
 20
-5.1191
 30
0.0
 10
-81.7078
 20
-5.1191
 30
0.0
 10
-79.7443
 20
-4.6119
 30
0.0
 10
-77.4131
 20
-3.8746
 30
0.0
 10
-74.8297
 20
-3.0001
 30
0.0
 10
-74.8297
 20
-3.0001
 30
0.0
 10
-71.5668
 20
-2.0745
 30
0.0
 10
-71.49
 20
2.144
 30
0.0
 10
-74.2329
 20
1.9274
 30
0.0
 10
-74.2329
 20
1.9274
 30
0.0
 10
-70.7292
 20
3.7644
 30
0.0
 10
-72.846
 20
7.3555
 30
0.0
 10
-76.3105
 20
4.4513
 30
0.0
 10
-76.3105
 20
4.4513
 30
0.0
 10
-75.4534
 20
5.9098
 30
0.0
 10
-77.8849
 20
7.1327
 30
0.0
 10
-79.2891
 20
5.1798
 30
0.0
 10
-79.2891
 20
5.1798
 30
0.0
 10
-81.9291
 20
1.6408
 30
0.0
 10
-82.3858
 20
-0.2091
 30
0.0
 10
-83.3634
 20
-2.4705
 30
0.0
 10
-83.3634
 20
-2.4705
 30
0.0
 10
-86.7467
 20
1.4091
 30
0.0
 10
-83.7223
 20
10.7981
 30
0.0
 10
-88.9364
 20
6.168
 30
0.0
 10
-88.9364
 20
6.168
 30
0.0
 10
-89.1486
 20
7.0319
 30
0.0
 10
-89.3082
 20
8.2501
 30
0.0
 10
-89.914
 20
8.2893
 30
0.0
 10
-89.914
 20
8.2893
 30
0.0
 10
-89.3082
 20
8.3291
 30
0.0
 10
-89.1486
 20
9.5469
 30
0.0
 10
-88.9364
 20
10.4107
 30
0.0
 10
-88.9364
 20
10.4107
 30
0.0
 10
-83.7223
 20
5.7833
 30
0.0
 10
-86.7467
 20
15.1719
 30
0.0
 10
-83.3634
 20
19.0497
 30
0.0
 10
-83.3634
 20
19.0497
 30
0.0
 10
-82.3858
 20
16.7883
 30
0.0
 10
-81.9291
 20
14.938
 30
0.0
 10
-79.2891
 20
11.3995
 30
0.0
 10
-79.2891
 20
11.3995
 30
0.0
 10
-77.8849
 20
9.4466
 30
0.0
 10
-75.4534
 20
10.6688
 30
0.0
 10
-76.3105
 20
12.1279
 30
0.0
 10
-76.3105
 20
12.1279
 30
0.0
 10
-72.846
 20
9.2233
 30
0.0
 10
-70.7292
 20
12.8143
 30
0.0
 10
-74.2329
 20
14.6518
 30
0.0
 10
-74.2329
 20
14.6518
 30
0.0
 10
-71.49
 20
14.4352
 30
0.0
 10
-71.5668
 20
18.6538
 30
0.0
 10
-74.8297
 20
19.5787
 30
0.0
 10
-74.8297
 20
19.5787
 30
0.0
 10
-77.4131
 20
20.454
 30
0.0
 10
-79.7443
 20
21.1929
 30
0.0
 10
-81.7078
 20
21.6985
 30
0.0
 10
-81.7078
 20
21.6985
 30
0.0
 10
-79.1077
 20
22.2824
 30
0.0
 10
-76.5491
 20
21.7792
 30
0.0
 10
-74.5654
 20
21.6985
 30
0.0
 10
-74.5654
 20
21.6985
 30
0.0
 10
-72.7195
 20
21.6217
 30
0.0
 10
-69.7953
 20
23.8696
 30
0.0
 10
-73.135
 20
24.7078
 30
0.0
 10
-73.135
 20
24.7078
 30
0.0
 10
-68.1856
 20
24.0842
 30
0.0
 10
-68.5574
 20
28.0363
 30
0.0
 10
-73.1328
 20
27.7519
 30
0.0
 10
-73.1328
 20
27.7519
 30
0.0
 10
-72.5006
 20
28.557
 30
0.0
 10
-71.7504
 20
29.8665
 30
0.0
 10
-72.8701
 20
30.2585
 30
0.0
 10
-72.8701
 20
30.2585
 30
0.0
 10
-67.9689
 20
30.814
 30
0.0
 10
-57.4539
 20
29.7026
 30
0.0
 10
-52.0325
 20
20.6044
 30
0.0
 10
-52.0325
 20
20.6044
 30
0.0
 10
-58.9151
 20
17.3175
 30
0.0
 10
-57.6638
 20
10.2316
 30
0.0
 10
-55.2647
 20
8.2893
 30
0.0
 10
-55.2647
 20
8.2893
 30
0.0
 10
-57.6638
 20
6.3477
 30
0.0
 10
-58.9151
 20
-0.7365
 30
0.0
 10
-52.0325
 20
-4.0256
 30
0.0
  0
SPLINE
  5
5E
330
1F
100
AcDbEntity
  8
layer 1
 62
     7
100
AcDbSpline
210
0.0
220
0.0
230
1.0
 70
    11
 71
     3
 72
    16
 73
    12
 74
     0
 42
0.0000000001
 43
0.0000000001
 12
1.0
 22
0.0
 32
0.0
 13
1.0
 23
0.0
 33
0.0
 40
0.0
 40
0.0
 40
0.0
 40
0.0
 40
0.25
 40
0.25
 40
0.25
 40
0.25
 40
0.5
 40
0.5
 40
0.5
 40
0.5
 40
1.0
 40
1.0
 40
1.0
 40
1.0
 10
-68.3805
 20
-43.3724
 30
0.0
 10
-64.2536
 20
-36.3369
 30
0.0
 10
-55.4266
 20
-20.8026
 30
0.0
 10
-51.7263
 20
-12.3142
 30
0.0
 10
-51.7263
 20
-12.3142
 30
0.0
 10
-57.432
 20
-16.4393
 30
0.0
 10
-67.5603
 20
-21.3865
 30
0.0
 10
-70.5236
 20
-26.6068
 30
0.0
 10
-70.5236
 20
-26.6068
 30
0.0
 10
-73.673
 20
-32.4682
 30
0.0
 10
-71.2016
 20
-40.3631
 30
0.0
 10
-68.3805
 20
-43.3724
 30
0.0
  0
SPLINE
  5
5F
330
1F
100
AcDbEntity
  8
layer 1
 62
     7
100
AcDbSpline
210
0.0
220
0.0
230
1.0
 70
    11
 71
     3
 72
    16
 73
    12
 74
     0
 42
0.0000000001
 43
0.0000000001
 12
1.0
 22
0.0
 32
0.0
 13
1.0
 23
0.0
 33
0.0
 40
0.0
 40
0.0
 40
0.0
 40
0.0
 40
0.25
 40
0.25
 40
0.25
 40
0.25
 40
0.5
 40
0.5
 40
0.5
 40
0.5
 40
1.0
 40
1.0
 40
1.0
 40
1.0
 10
-41.2986
 20
-34.8253
 30
0.0
 10
-41.2986
 20
-34.8253
 30
0.0
 10
-41.2986
 20
-2.6081
 30
0.0
 10
-41.2986
 20
-2.6081
 30
0.0
 10
-41.2986
 20
-2.6081
 30
0.0
 10
-43.0286
 20
-8.5569
 30
0.0
 10
-50.088
 20
-16.0453
 30
0.0
 10
-49.3507
 20
-23.3635
 30
0.0
 10
-49.3507
 20
-23.3635
 30
0.0
 10
-48.9112
 20
-29.0607
 30
0.0
 10
-46.3284
 20
-31.8183
 30
0.0
 10
-41.2986
 20
-34.8253
 30
0.0
  0
SPLINE
  5
60
330
1F
100
AcDbEntity
  8
layer 1
 62
     7
100
AcDbSpline
210
0.0
220
0.0
230
1.0
 70
    11
 71
     3
 72
    16
 73
    12
 74
     0
 42
0.0000000001
 43
0.0000000001
 12
1.0
 22
0.0
 32
0.0
 13
1.0
 23
0.0
 33
0.0
 40
0.0
 40
0.0
 40
0.0
 40
0.0
 40
0.25
 40
0.25
 40
0.25
 40
0.25
 40
0.5
 40
0.5
 40
0.5
 40
0.5
 40
1.0
 40
1.0
 40
1.0
 40
1.0
 10
-85.6556
 20
-66.1394
 30
0.0
 10
-81.05
 20
-61.0936
 30
0.0
 10
-74.5324
 20
-53.8394
 30
0.0
 10
-69.9548
 20
-45.5089
 30
0.0
 10
-69.9548
 20
-45.5089
 30
0.0
 10
-74.5475
 20
-40.6385
 30
0.0
 10
-76.3958
 20
-32.8506
 30
0.0
 10
-74.9809
 20
-28.6756
 30
0.0
 10
-74.9809
 20
-28.6756
 30
0.0
 10
-90.3121
 20
-42.4189
 30
0.0
 10
-87.9191
 20
-61.5377
 30
0.0
 10
-85.6556
 20
-66.1394
 30
0.0
  0
SPLINE
  5
61
330
1F
100
AcDbEntity
  8
layer 1
 62
     7
100
AcDbSpline
210
0.0
220
0.0
230
1.0
 70
    11
 71
     3
 72
    16
 73
    12
 74
     0
 42
0.0000000001
 43
0.0000000001
 12
1.0
 22
0.0
 32
0.0
 13
1.0
 23
0.0
 33
0.0
 40
0.0
 40
0.0
 40
0.0
 40
0.0
 40
0.25
 40
0.25
 40
0.25
 40
0.25
 40
0.5
 40
0.5
 40
0.5
 40
0.5
 40
1.0
 40
1.0
 40
1.0
 40
1.0
 10
-73.7935
 20
-55.8997
 30
0.0
 10
-73.4519
 20
-55.1103
 30
0.0
 10
-71.3854
 20
-54.8892
 30
0.0
 10
-70.1345
 20
-54.9333
 30
0.0
 10
-70.1345
 20
-54.9333
 30
0.0
 10
-71.7223
 20
-54.5089
 30
0.0
 10
-71.6916
 20
-53.2907
 30
0.0
 10
-71.5863
 20
-52.6368
 30
0.0
 10
-71.5863
 20
-52.6368
 30
0.0
 10
-72.7173
 20
-54.7867
 30
0.0
 10
-73.2139
 20
-54.8673
 30
0.0
 10
-73.7935
 20
-55.8997
 30
0.0
  0
SPLINE
  5
62
330
1F
100
AcDbEntity
  8
layer 1
 62
     7
100
AcDbSpline
210
0.0
220
0.0
230
1.0
 70
    11
 71
     3
 72
    16
 73
    12
 74
     0
 42
0.0000000001
 43
0.0000000001
 12
1.0
 22
0.0
 32
0.0
 13
1.0
 23
0.0
 33
0.0
 40
0.0
 40
0.0
 40
0.0
 40
0.0
 40
0.25
 40
0.25
 40
0.25
 40
0.25
 40
0.5
 40
0.5
 40
0.5
 40
0.5
 40
1.0
 40
1.0
 40
1.0
 40
1.0
 10
-70.7163
 20
-51.4034
 30
0.0
 10
-68.3564
 20
-50.9504
 30
0.0
 10
-64.5095
 20
-50.8977
 30
0.0
 10
-61.4782
 20
-51.2063
 30
0.0
 10
-61.4782
 20
-51.2063
 30
0.0
 10
-63.066
 20
-50.7819
 30
0.0
 10
-66.8582
 20
-48.9863
 30
0.0
 10
-67.8598
 20
-47.0358
 30
0.0
 10
-67.8598
 20
-47.0358
 30
0.0
 10
-69.1588
 20
-49.0894
 30
0.0
 10
-69.8479
 20
-50.1542
 30
0.0
 10
-70.7163
 20
-51.4034
 30
0.0
  0
SPLINE
  5
63
330
1F
100
AcDbEntity
  8
layer 1
 62
     7
100
AcDbSpline
210
0.0
220
0.0
230
1.0
 70
    11
 71
     3
 72
    16
 73
    12
 74
     0
 42
0.0000000001
 43
0.0000000001
 12
1.0
 22
0.0
 32
0.0
 13
1.0
 23
0.0
 33
0.0
 40
0.0
 40
0.0
 40
0.0
 40
0.0
 40
0.25
 40
0.25
 40
0.25
 40
0.25
 40
0.5
 40
0.5
 40
0.5
 40
0.5
 40
1.0
 40
1.0
 40
1.0
 40
1.0
 10
-66.7009
 20
-45.201
 30
0.0
 10
-65.9266
 20
-46.0951
 30
0.0
 10
-63.9316
 20
-47.6527
 30
0.0
 10
-62.0795
 20
-48.3459
 30
0.0
 10
-62.0795
 20
-48.3459
 30
0.0
 10
-63.7637
 20
-46.8868
 30
0.0
 10
-65.3908
 20
-45.4524
 30
0.0
 10
-65.5503
 20
-43.4054
 30
0.0
 10
-65.5503
 20
-43.4054
 30
0.0
 10
-66.1538
 20
-44.3763
 30
0.0
 10
-66.2411
 20
-44.5292
 30
0.0
 10
-66.7009
 20
-45.201
 30
0.0
  0
SPLINE
  5
64
330
1F
100
AcDbEntity
  8
layer 1
 62
     7
100
AcDbSpline
210
0.0
220
0.0
230
1.0
 70
    11
 71
     3
 72
    16
 73
    12
 74
     0
 42
0.0000000001
 43
0.0000000001
 12
1.0
 22
0.0
 32
0.0
 13
1.0
 23
0.0
 33
0.0
 40
0.0
 40
0.0
 40
0.0
 40
0.0
 40
0.25
 40
0.25
 40
0.25
 40
0.25
 40
0.5
 40
0.5
 40
0.5
 40
0.5
 40
1.0
 40
1.0
 40
1.0
 40
1.0
 10
-64.8964
 20
-42.0975
 30
0.0
 10
-64.4131
 20
-41.9599
 30
0.0
 10
-63.3544
 20
-42.2421
 30
0.0
 10
-62.6328
 20
-42.6463
 30
0.0
 10
-62.6328
 20
-42.6463
 30
0.0
 10
-63.3303
 20
-41.8372
 30
0.0
 10
-63.6366
 20
-41.3406
 30
0.0
 10
-63.748
 20
-40.4225
 30
0.0
 10
-63.748
 20
-40.4225
 30
0.0
 10
-64.35
 20
-41.3955
 30
0.0
 10
-64.4373
 20
-41.4263
 30
0.0
 10
-64.8964
 20
-42.0975
 30
0.0
  0
SPLINE
  5
65
330
1F
100
AcDbEntity
  8
layer 1
 62
     7
100
AcDbSpline
210
0.0
220
0.0
230
1.0
 70
    11
 71
     3
 72
    56
 73
    52
 74
     0
 42
0.0000000001
 43
0.0000000001
 12
1.0
 22
0.0
 32
0.0
 13
1.0
 23
0.0
 33
0.0
 40
0.0
 40
0.0
 40
0.0
 40
0.0
 40
0.0714285714285714
 40
0.0714285714285714
 40
0.0714285714285714
 40
0.0714285714285714
 40
0.1428571428571428
 40
0.1428571428571428
 40
0.1428571428571428
 40
0.1428571428571428
 40
0.2142857142857143
 40
0.2142857142857143
 40
0.2142857142857143
 40
0.2142857142857143
 40
0.2857142857142857
 40
0.2857142857142857
 40
0.2857142857142857
 40
0.2857142857142857
 40
0.3571428571428572
 40
0.3571428571428572
 40
0.3571428571428572
 40
0.3571428571428572
 40
0.4285714285714285
 40
0.4285714285714285
 40
0.4285714285714285
 40
0.4285714285714285
 40
0.5
 40
0.5
 40
0.5
 40
0.5
 40
0.5714285714285714
 40
0.5714285714285714
 40
0.5714285714285714
 40
0.5714285714285714
 40
0.6428571428571429
 40
0.6428571428571429
 40
0.6428571428571429
 40
0.6428571428571429
 40
0.7142857142857143
 40
0.7142857142857143
 40
0.7142857142857143
 40
0.7142857142857143
 40
0.7857142857142857
 40
0.7857142857142857
 40
0.7857142857142857
 40
0.7857142857142857
 40
0.8571428571428571
 40
0.8571428571428571
 40
0.8571428571428571
 40
0.8571428571428571
 40
1.0
 40
1.0
 40
1.0
 40
1.0
 10
-84.8051
 20
-69.9426
 30
0.0
 10
-80.9078
 20
-79.0122
 30
0.0
 10
-64.1724
 20
-85.1384
 30
0.0
 10
-62.9194
 20
-85.1821
 30
0.0
 10
-62.9194
 20
-85.1821
 30
0.0
 10
-65.15
 20
-80.3418
 30
0.0
 10
-66.8101
 20
-78.319
 30
0.0
 10
-68.5114
 20
-75.0168
 30
0.0
 10
-68.5114
 20
-75.0168
 30
0.0
 10
-69.3249
 20
-73.4375
 30
0.0
 10
-70.2829
 20
-68.4181
 30
0.0
 10
-66.4187
 20
-69.6671
 30
0.0
 10
-66.4187
 20
-69.6671
 30
0.0
 10
-67.0945
 20
-65.982
 30
0.0
 10
-63.4071
 20
-65.4658
 30
0.0
 10
-62.5214
 20
-68.7506
 30
0.0
 10
-62.5214
 20
-68.7506
 30
0.0
 10
-55.9254
 20
-67.7009
 30
0.0
 10
-60.26
 20
-76.5038
 30
0.0
 10
-59.7769
 20
-80.6307
 30
0.0
 10
-59.7769
 20
-80.6307
 30
0.0
 10
-59.3676
 20
-80.2982
 30
0.0
 10
-56.7192
 20
-73.5864
 30
0.0
 10
-54.0704
 20
-72.1715
 30
0.0
 10
-54.0704
 20
-72.1715
 30
0.0
 10
-55.1136
 20
-71.2091
 30
0.0
 10
-55.4921
 20
-69.6823
 30
0.0
 10
-55.2407
 20
-68.3375
 30
0.0
 10
-55.2407
 20
-68.3375
 30
0.0
 10
-58.0732
 20
-69.1269
 30
0.0
 10
-58.6307
 20
-67.5481
 30
0.0
 10
-58.6021
 20
-65.5487
 30
0.0
 10
-58.6021
 20
-65.5487
 30
0.0
 10
-58.7751
 20
-62.0779
 30
0.0
 10
-57.9897
 20
-59.8099
 30
0.0
 10
-57.8933
 20
-55.8629
 30
0.0
 10
-57.8933
 20
-55.8629
 30
0.0
 10
-60.7718
 20
-58.0716
 30
0.0
 10
-62.2503
 20
-59.5961
 30
0.0
 10
-65.4276
 20
-61.2471
 30
0.0
 10
-65.4276
 20
-61.2471
 30
0.0
 10
-69.6093
 20
-63.4189
 30
0.0
 10
-70.4297
 20
-59.9153
 30
0.0
 10
-69.4649
 20
-59.0687
 30
0.0
 10
-69.4649
 20
-59.0687
 30
0.0
 10
-72.354
 20
-59.7248
 30
0.0
 10
-74.8297
 20
-59.2109
 30
0.0
 10
-75.145
 20
-57.8308
 30
0.0
 10
-75.145
 20
-57.8308
 30
0.0
 10
-76.2753
 20
-59.9806
 30
0.0
 10
-84.2273
 20
-68.9102
 30
0.0
 10
-84.8051
 20
-69.9426
 30
0.0
  0
SPLINE
  5
66
330
1F
100
AcDbEntity
  8
layer 1
 62
     7
100
AcDbSpline
210
0.0
220
0.0
230
1.0
 70
    11
 71
     3
 72
    20
 73
    16
 74
     0
 42
0.0000000001
 43
0.0000000001
 12
1.0
 22
0.0
 32
0.0
 13
1.0
 23
0.0
 33
0.0
 40
0.0
 40
0.0
 40
0.0
 40
0.0
 40
0.2
 40
0.2
 40
0.2
 40
0.2
 40
0.4
 40
0.4
 40
0.4
 40
0.4
 40
0.6
 40
0.6
 40
0.6
 40
0.6
 40
1.0
 40
1.0
 40
1.0
 40
1.0
 10
-102.1155
 20
-108.4411
 30
0.0
 10
-102.1155
 20
-108.4411
 30
0.0
 10
-88.8816
 20
-108.4411
 30
0.0
 10
-88.8816
 20
-108.4411
 30
0.0
 10
-88.8816
 20
-108.4411
 30
0.0
 10
-89.3625
 20
-108.3117
 30
0.0
 10
-90.4979
 20
-107.0587
 30
0.0
 10
-89.586
 20
-105.5521
 30
0.0
 10
-89.586
 20
-105.5521
 30
0.0
 10
-94.6774
 20
-109.6594
 30
0.0
 10
-91.9609
 20
-99.4018
 30
0.0
 10
-92.3808
 20
-97.3443
 30
0.0
 10
-92.3808
 20
-97.3443
 30
0.0
 10
-93.8437
 20
-100.2333
 30
0.0
 10
-98.5524
 20
-106.7043
 30
0.0
 10
-102.1155
 20
-108.4411
 30
0.0
  0
SPLINE
  5
67
330
1F
100
AcDbEntity
  8
layer 1
 62
     7
100
AcDbSpline
210
0.0
220
0.0
230
1.0
 70
    11
 71
     3
 72
    36
 73
    32
 74
     0
 42
0.0000000001
 43
0.0000000001
 12
1.0
 22
0.0
 32
0.0
 13
1.0
 23
0.0
 33
0.0
 40
0.0
 40
0.0
 40
0.0
 40
0.0
 40
0.1111111111111111
 40
0.1111111111111111
 40
0.1111111111111111
 40
0.1111111111111111
 40
0.2222222222222222
 40
0.2222222222222222
 40
0.2222222222222222
 40
0.2222222222222222
 40
0.3333333333333333
 40
0.3333333333333333
 40
0.3333333333333333
 40
0.3333333333333333
 40
0.4444444444444444
 40
0.4444444444444444
 40
0.4444444444444444
 40
0.4444444444444444
 40
0.5555555555555556
 40
0.5555555555555556
 40
0.5555555555555556
 40
0.5555555555555556
 40
0.6666666666666666
 40
0.6666666666666666
 40
0.6666666666666666
 40
0.6666666666666666
 40
0.7777777777777778
 40
0.7777777777777778
 40
0.7777777777777778
 40
0.7777777777777778
 40
1.0
 40
1.0
 40
1.0
 40
1.0
 10
-111.7907
 20
-108.4411
 30
0.0
 10
-111.7907
 20
-108.4411
 30
0.0
 10
-129.3307
 20
-108.4411
 30
0.0
 10
-129.3307
 20
-108.4411
 30
0.0
 10
-129.3307
 20
-108.4411
 30
0.0
 10
-128.8497
 20
-108.3117
 30
0.0
 10
-128.0513
 20
-107.94
 30
0.0
 10
-128.9633
 20
-106.4334
 30
0.0
 10
-128.9633
 20
-106.4334
 30
0.0
 10
-126.7457
 20
-108.2222
 30
0.0
 10
-124.5191
 20
-106.5079
 30
0.0
 10
-124.0555
 20
-103.9463
 30
0.0
 10
-124.0555
 20
-103.9463
 30
0.0
 10
-123.4542
 20
-100.6313
 30
0.0
 10
-124.6438
 20
-96.4714
 30
0.0
 10
-124.7446
 20
-94.6647
 30
0.0
 10
-124.7446
 20
-94.6647
 30
0.0
 10
-122.8814
 20
-97.0161
 30
0.0
 10
-118.6381
 20
-109.0927
 30
0.0
 10
-115.603
 20
-102.4901
 30
0.0
 10
-115.603
 20
-102.4901
 30
0.0
 10
-115.1523
 20
-103.7718
 30
0.0
 10
-112.5057
 20
-104.5634
 30
0.0
 10
-111.6071
 20
-101.6173
 30
0.0
 10
-111.6071
 20
-101.6173
 30
0.0
 10
-111.6726
 20
-102.8506
 30
0.0
 10
-110.9375
 20
-104.0013
 30
0.0
 10
-109.5603
 20
-104.0735
 30
0.0
 10
-109.5603
 20
-104.0735
 30
0.0
 10
-114.7934
 20
-105.0487
 30
0.0
 10
-113.1422
 20
-108.0452
 30
0.0
 10
-111.7907
 20
-108.4411
 30
0.0
  0
SPLINE
  5
68
330
1F
100
AcDbEntity
  8
layer 1
 62
     7
100
AcDbSpline
210
0.0
220
0.0
230
1.0
 70
    11
 71
     3
 72
    28
 73
    24
 74
     0
 42
0.0000000001
 43
0.0000000001
 12
1.0
 22
0.0
 32
0.0
 13
1.0
 23
0.0
 33
0.0
 40
0.0
 40
0.0
 40
0.0
 40
0.0
 40
0.1428571428571428
 40
0.1428571428571428
 40
0.1428571428571428
 40
0.1428571428571428
 40
0.2857142857142857
 40
0.2857142857142857
 40
0.2857142857142857
 40
0.2857142857142857
 40
0.4285714285714285
 40
0.4285714285714285
 40
0.4285714285714285
 40
0.4285714285714285
 40
0.5714285714285714
 40
0.5714285714285714
 40
0.5714285714285714
 40
0.5714285714285714
 40
0.7142857142857143
 40
0.7142857142857143
 40
0.7142857142857143
 40
0.7142857142857143
 40
1.0
 40
1.0
 40
1.0
 40
1.0
 10
-95.0207
 20
-93.8428
 30
0.0
 10
-101.7281
 20
-96.9395
 30
0.0
 10
-109.9359
 20
-96.0779
 30
0.0
 10
-111.9834
 20
-99.614
 30
0.0
 10
-111.9834
 20
-99.614
 30
0.0
 10
-109.5618
 20
-95.3757
 30
0.0
 10
-117.2646
 20
-89.9388
 30
0.0
 10
-124.3466
 20
-89.1561
 30
0.0
 10
-124.3466
 20
-89.1561
 30
0.0
 10
-118.4197
 20
-88.4623
 30
0.0
 10
-114.6382
 20
-87.1349
 30
0.0
 10
-108.9388
 20
-84.738
 30
0.0
 10
-108.9388
 20
-84.738
 30
0.0
 10
-108.7024
 20
-86.3039
 30
0.0
 10
-107.9808
 20
-87.1808
 30
0.0
 10
-106.6118
 20
-87.6203
 30
0.0
 10
-106.6118
 20
-87.6203
 30
0.0
 10
-109.2624
 20
-88.6001
 30
0.0
 10
-107.9197
 20
-90.4113
 30
0.0
 10
-106.2687
 20
-91.4498
 30
0.0
 10
-106.2687
 20
-91.4498
 30
0.0
 10
-101.9755
 20
-94.35
 30
0.0
 10
-95.7401
 20
-92.9196
 30
0.0
 10
-95.0207
 20
-93.8428
 30
0.0
  0
SPLINE
  5
69
330
1F
100
AcDbEntity
  8
layer 1
 62
     7
100
AcDbSpline
210
0.0
220
0.0
230
1.0
 70
    11
 71
     3
 72
    40
 73
    36
 74
     0
 42
0.0000000001
 43
0.0000000001
 12
1.0
 22
0.0
 32
0.0
 13
1.0
 23
0.0
 33
0.0
 40
0.0
 40
0.0
 40
0.0
 40
0.0
 40
0.1
 40
0.1
 40
0.1
 40
0.1
 40
0.2
 40
0.2
 40
0.2
 40
0.2
 40
0.3
 40
0.3
 40
0.3
 40
0.3
 40
0.4
 40
0.4
 40
0.4
 40
0.4
 40
0.5
 40
0.5
 40
0.5
 40
0.5
 40
0.6
 40
0.6
 40
0.6
 40
0.6
 40
0.7
 40
0.7
 40
0.7
 40
0.7
 40
0.8
 40
0.8
 40
0.8
 40
0.8
 40
1.0
 40
1.0
 40
1.0
 40
1.0
 10
-93.5593
 20
-81.6608
 30
0.0
 10
-95.823
 20
-79.2703
 30
0.0
 10
-96.6762
 20
-81.0854
 30
0.0
 10
-95.7687
 20
-83.1698
 30
0.0
 10
-95.7687
 20
-83.1698
 30
0.0
 10
-94.4367
 20
-86.2228
 30
0.0
 10
-94.4389
 20
-87.5066
 30
0.0
 10
-93.8528
 20
-90.3849
 30
0.0
 10
-93.8528
 20
-90.3849
 30
0.0
 10
-95.7401
 20
-88.3359
 30
0.0
 10
-97.8968
 20
-85.1646
 30
0.0
 10
-100.3261
 20
-83.6793
 30
0.0
 10
-100.3261
 20
-83.6793
 30
0.0
 10
-102.4739
 20
-82.3714
 30
0.0
 10
-104.2957
 20
-82.2774
 30
0.0
 10
-104.1254
 20
-85.066
 30
0.0
 10
-104.1254
 20
-85.066
 30
0.0
 10
-104.6281
 20
-84.1933
 30
0.0
 10
-105.6997
 20
-83.677
 30
0.0
 10
-106.9965
 20
-83.6597
 30
0.0
 10
-106.9965
 20
-83.6597
 30
0.0
 10
-99.5064
 20
-81.1862
 30
0.0
 10
-92.2957
 20
-75.6925
 30
0.0
 10
-87.2893
 20
-71.863
 30
0.0
 10
-87.2893
 20
-71.863
 30
0.0
 10
-86.0995
 20
-75.7295
 30
0.0
 10
-85.6382
 20
-79.7757
 30
0.0
 10
-86.2244
 20
-82.9951
 30
0.0
 10
-86.2244
 20
-82.9951
 30
0.0
 10
-87.0951
 20
-79.2399
 30
0.0
 10
-89.4414
 20
-79.8805
 30
0.0
 10
-89.7018
 20
-81.3111
 30
0.0
 10
-89.7018
 20
-81.3111
 30
0.0
 10
-90.0518
 20
-75.57
 30
0.0
 10
-94.8874
 20
-77.571
 30
0.0
 10
-93.5593
 20
-81.6608
 30
0.0
  0
SPLINE
  5
6A
330
1F
100
AcDbEntity
  8
layer 1
 62
     7
100
AcDbSpline
210
0.0
220
0.0
230
1.0
 70
    11
 71
     3
 72
    36
 73
    32
 74
     0
 42
0.0000000001
 43
0.0000000001
 12
1.0
 22
0.0
 32
0.0
 13
1.0
 23
0.0
 33
0.0
 40
0.0
 40
0.0
 40
0.0
 40
0.0
 40
0.1111111111111111
 40
0.1111111111111111
 40
0.1111111111111111
 40
0.1111111111111111
 40
0.2222222222222222
 40
0.2222222222222222
 40
0.2222222222222222
 40
0.2222222222222222
 40
0.3333333333333333
 40
0.3333333333333333
 40
0.3333333333333333
 40
0.3333333333333333
 40
0.4444444444444444
 40
0.4444444444444444
 40
0.4444444444444444
 40
0.4444444444444444
 40
0.5555555555555556
 40
0.5555555555555556
 40
0.5555555555555556
 40
0.5555555555555556
 40
0.6666666666666666
 40
0.6666666666666666
 40
0.6666666666666666
 40
0.6666666666666666
 40
0.7777777777777778
 40
0.7777777777777778
 40
0.7777777777777778
 40
0.7777777777777778
 40
1.0
 40
1.0
 40
1.0
 40
1.0
 10
-41.2986
 20
-108.4411
 30
0.0
 10
-41.2986
 20
-108.4411
 30
0.0
 10
-51.7806
 20
-108.4411
 30
0.0
 10
-51.7806
 20
-108.4411
 30
0.0
 10
-51.7806
 20
-108.4411
 30
0.0
 10
-50.8557
 20
-106.4837
 30
0.0
 10
-51.3237
 20
-104.3142
 30
0.0
 10
-53.1344
 20
-102.6978
 30
0.0
 10
-53.1344
 20
-102.6978
 30
0.0
 10
-52.1853
 20
-103.129
 30
0.0
 10
-48.4129
 20
-103.4128
 30
0.0
 10
-50.5606
 20
-98.866
 30
0.0
 10
-50.5606
 20
-98.866
 30
0.0
 10
-51.855
 20
-96.3578
 30
0.0
 10
-53.0274
 20
-94.6209
 30
0.0
 10
-56.0301
 20
-90.2383
 30
0.0
 10
-56.0301
 20
-90.2383
 30
0.0
 10
-53.351
 20
-91.2595
 30
0.0
 10
-50.2627
 20
-93.9452
 30
0.0
 10
-47.2405
 20
-96.2396
 30
0.0
 10
-47.2405
 20
-96.2396
 30
0.0
 10
-44.6181
 20
-98.2277
 30
0.0
 10
-43.1662
 20
-95.7212
 30
0.0
 10
-44.3297
 20
-93.9806
 30
0.0
 10
-44.3297
 20
-93.9806
 30
0.0
 10
-43.8745
 20
-94.6608
 30
0.0
 10
-42.3287
 20
-95.0123
 30
0.0
 10
-41.2986
 20
-94.3914
 30
0.0
 10
-41.2986
 20
-94.3914
 30
0.0
 10
-41.2986
 20
-94.3914
 30
0.0
 10
-41.2986
 20
-108.4411
 30
0.0
 10
-41.2986
 20
-108.4411
 30
0.0
  0
SPLINE
  5
6B
330
1F
100
AcDbEntity
  8
layer 1
 62
     7
100
AcDbSpline
210
0.0
220
0.0
230
1.0
 70
    11
 71
     3
 72
    60
 73
    56
 74
     0
 42
0.0000000001
 43
0.0000000001
 12
1.0
 22
0.0
 32
0.0
 13
1.0
 23
0.0
 33
0.0
 40
0.0
 40
0.0
 40
0.0
 40
0.0
 40
0.0666666666666667
 40
0.0666666666666667
 40
0.0666666666666667
 40
0.0666666666666667
 40
0.1333333333333333
 40
0.1333333333333333
 40
0.1333333333333333
 40
0.1333333333333333
 40
0.2
 40
0.2
 40
0.2
 40
0.2
 40
0.2666666666666667
 40
0.2666666666666667
 40
0.2666666666666667
 40
0.2666666666666667
 40
0.3333333333333333
 40
0.3333333333333333
 40
0.3333333333333333
 40
0.3333333333333333
 40
0.4
 40
0.4
 40
0.4
 40
0.4
 40
0.4666666666666667
 40
0.4666666666666667
 40
0.4666666666666667
 40
0.4666666666666667
 40
0.5333333333333333
 40
0.5333333333333333
 40
0.5333333333333333
 40
0.5333333333333333
 40
0.6
 40
0.6
 40
0.6
 40
0.6
 40
0.6666666666666666
 40
0.6666666666666666
 40
0.6666666666666666
 40
0.6666666666666666
 40
0.7333333333333333
 40
0.7333333333333333
 40
0.7333333333333333
 40
0.7333333333333333
 40
0.8
 40
0.8
 40
0.8
 40
0.8
 40
0.8666666666666667
 40
0.8666666666666667
 40
0.8666666666666667
 40
0.8666666666666667
 40
1.0
 40
1.0
 40
1.0
 40
1.0
 10
-41.2986
 20
-90.984
 30
0.0
 10
-41.9586
 20
-90.291
 30
0.0
 10
-42.626
 20
-89.978
 30
0.0
 10
-43.2778
 20
-89.908
 30
0.0
 10
-43.2778
 20
-89.908
 30
0.0
 10
-41.7269
 20
-88.2283
 30
0.0
 10
-41.2986
 20
-85.7486
 30
0.0
 10
-44.6661
 20
-84.9984
 30
0.0
 10
-44.6661
 20
-84.9984
 30
0.0
 10
-47.3956
 20
-84.7005
 30
0.0
 10
-51.7784
 20
-84.0471
 30
0.0
 10
-55.2821
 20
-84.6002
 30
0.0
 10
-55.2821
 20
-84.6002
 30
0.0
 10
-54.598
 20
-83.6905
 30
0.0
 10
-49.7644
 20
-81.9538
 30
0.0
 10
-47.3541
 20
-80.5215
 30
0.0
 10
-47.3541
 20
-80.5215
 30
0.0
 10
-45.7512
 20
-79.5983
 30
0.0
 10
-46.1315
 20
-76.8711
 30
0.0
 10
-48.0736
 20
-77.324
 30
0.0
 10
-48.0736
 20
-77.324
 30
0.0
 10
-42.0572
 20
-72.3132
 30
0.0
 10
-46.6717
 20
-69.7612
 30
0.0
 10
-50.9587
 20
-73.6081
 30
0.0
 10
-50.9587
 20
-73.6081
 30
0.0
 10
-50.9323
 20
-72.7616
 30
0.0
 10
-51.5948
 20
-72.0315
 30
0.0
 10
-52.3561
 20
-71.6878
 30
0.0
 10
-52.3561
 20
-71.6878
 30
0.0
 10
-51.1686
 20
-71.5019
 30
0.0
 10
-50.4727
 20
-69.324
 30
0.0
 10
-51.7873
 20
-67.4584
 30
0.0
 10
-51.7873
 20
-67.4584
 30
0.0
 10
-51.0152
 20
-67.712
 30
0.0
 10
-48.0563
 20
-68.0794
 30
0.0
 10
-49.7185
 20
-63.7425
 30
0.0
 10
-49.7185
 20
-63.7425
 30
0.0
 10
-51.0829
 20
-60.2214
 30
0.0
 10
-51.6495
 20
-59.3334
 30
0.0
 10
-53.3443
 20
-56.3068
 30
0.0
 10
-53.3443
 20
-56.3068
 30
0.0
 10
-50.9784
 20
-57.2647
 30
0.0
 10
-47.7914
 20
-59.7467
 30
0.0
 10
-45.4909
 20
-61.0132
 30
0.0
 10
-45.4909
 20
-61.0132
 30
0.0
 10
-43.7961
 20
-61.9426
 30
0.0
 10
-41.878
 20
-60.5361
 30
0.0
 10
-44.356
 20
-58.5743
 30
0.0
 10
-44.356
 20
-58.5743
 30
0.0
 10
-43.1837
 20
-58.9024
 30
0.0
 10
-41.7358
 20
-58.9135
 30
0.0
 10
-41.2986
 20
-58.3318
 30
0.0
 10
-41.2986
 20
-58.3318
 30
0.0
 10
-41.2986
 20
-58.3318
 30
0.0
 10
-41.2986
 20
-90.984
 30
0.0
 10
-41.2986
 20
-90.984
 30
0.0
  0
SPLINE
  5
6C
330
1F
100
AcDbEntity
  8
layer 1
 62
     7
100
AcDbSpline
210
0.0
220
0.0
230
1.0
 70
    11
 71
     3
 72
    60
 73
    56
 74
     0
 42
0.0000000001
 43
0.0000000001
 12
1.0
 22
0.0
 32
0.0
 13
1.0
 23
0.0
 33
0.0
 40
0.0
 40
0.0
 40
0.0
 40
0.0
 40
0.0666666666666667
 40
0.0666666666666667
 40
0.0666666666666667
 40
0.0666666666666667
 40
0.1333333333333333
 40
0.1333333333333333
 40
0.1333333333333333
 40
0.1333333333333333
 40
0.2
 40
0.2
 40
0.2
 40
0.2
 40
0.2666666666666667
 40
0.2666666666666667
 40
0.2666666666666667
 40
0.2666666666666667
 40
0.3333333333333333
 40
0.3333333333333333
 40
0.3333333333333333
 40
0.3333333333333333
 40
0.4
 40
0.4
 40
0.4
 40
0.4
 40
0.4666666666666667
 40
0.4666666666666667
 40
0.4666666666666667
 40
0.4666666666666667
 40
0.5333333333333333
 40
0.5333333333333333
 40
0.5333333333333333
 40
0.5333333333333333
 40
0.6
 40
0.6
 40
0.6
 40
0.6
 40
0.6666666666666666
 40
0.6666666666666666
 40
0.6666666666666666
 40
0.6666666666666666
 40
0.7333333333333333
 40
0.7333333333333333
 40
0.7333333333333333
 40
0.7333333333333333
 40
0.8
 40
0.8
 40
0.8
 40
0.8
 40
0.8666666666666667
 40
0.8666666666666667
 40
0.8666666666666667
 40
0.8666666666666667
 40
1.0
 40
1.0
 40
1.0
 40
1.0
 10
-41.2986
 20
-54.3534
 30
0.0
 10
-42.0045
 20
-53.6338
 30
0.0
 10
-42.9564
 20
-53.5421
 30
0.0
 10
-43.9686
 20
-53.892
 30
0.0
 10
-43.9686
 20
-53.892
 30
0.0
 10
-40.5768
 20
-52.7113
 30
0.0
 10
-41.2986
 20
-49.4483
 30
0.0
 10
-45.1018
 20
-50.2528
 30
0.0
 10
-45.1018
 20
-50.2528
 30
0.0
 10
-48.3889
 20
-51.134
 30
0.0
 10
-50.1032
 20
-51.764
 30
0.0
 10
-52.308
 20
-51.764
 30
0.0
 10
-52.308
 20
-51.764
 30
0.0
 10
-50.9828
 20
-50.83
 30
0.0
 10
-45.8739
 20
-47.4053
 30
0.0
 10
-44.4517
 20
-44.5531
 30
0.0
 10
-44.4517
 20
-44.5531
 30
0.0
 10
-42.9474
 20
-41.1087
 30
0.0
 10
-46.114
 20
-41.6099
 30
0.0
 10
-46.768
 20
-41.8042
 30
0.0
 10
-46.768
 20
-41.8042
 30
0.0
 10
-44.7277
 20
-36.5817
 30
0.0
 10
-48.7343
 20
-37.2249
 30
0.0
 10
-50.1602
 20
-40.8859
 30
0.0
 10
-50.1602
 20
-40.8859
 30
0.0
 10
-50.4749
 20
-39.335
 30
0.0
 10
-51.8181
 20
-37.7015
 30
0.0
 10
-53.388
 20
-40.9364
 30
0.0
 10
-53.388
 20
-40.9364
 30
0.0
 10
-54.318
 20
-42.8478
 30
0.0
 10
-54.7311
 20
-45.8415
 30
0.0
 10
-55.3588
 20
-49.8155
 30
0.0
 10
-55.3588
 20
-49.8155
 30
0.0
 10
-55.9579
 20
-46.1432
 30
0.0
 10
-56.0346
 20
-43.5454
 30
0.0
 10
-55.9141
 20
-41.4039
 30
0.0
 10
-55.9141
 20
-41.4039
 30
0.0
 10
-55.8073
 20
-39.4841
 30
0.0
 10
-59.0832
 20
-36.8488
 30
0.0
 10
-59.8205
 20
-40.0372
 30
0.0
 10
-59.8205
 20
-40.0372
 30
0.0
 10
-59.6347
 20
-39.1868
 30
0.0
 10
-60.7672
 20
-37.8437
 30
0.0
 10
-61.9659
 20
-37.787
 30
0.0
 10
-61.9659
 20
-37.787
 30
0.0
 10
-60.2819
 20
-34.959
 30
0.0
 10
-54.5823
 20
-24.7016
 30
0.0
 10
-52.7235
 20
-22.5303
 30
0.0
 10
-52.7235
 20
-22.5303
 30
0.0
 10
-52.3164
 20
-27.6213
 30
0.0
 10
-49.1889
 20
-34.7861
 30
0.0
 10
-41.2986
 20
-37.4741
 30
0.0
 10
-41.2986
 20
-37.4741
 30
0.0
 10
-41.2986
 20
-37.4741
 30
0.0
 10
-41.2986
 20
-54.3534
 30
0.0
 10
-41.2986
 20
-54.3534
 30
0.0
  0
SPLINE
  5
6D
330
1F
100
AcDbEntity
  8
layer 1
 62
     7
100
AcDbSpline
210
0.0
220
0.0
230
1.0
 70
    11
 71
     3
 72
    16
 73
    12
 74
     0
 42
0.0000000001
 43
0.0000000001
 12
1.0
 22
0.0
 32
0.0
 13
1.0
 23
0.0
 33
0.0
 40
0.0
 40
0.0
 40
0.0
 40
0.0
 40
0.25
 40
0.25
 40
0.25
 40
0.25
 40
0.5
 40
0.5
 40
0.5
 40
0.5
 40
1.0
 40
1.0
 40
1.0
 40
1.0
 10
-41.2986
 20
4.565
 30
0.0
 10
-42.1708
 20
7.0101
 30
0.0
 10
-43.3409
 20
7.8084
 30
0.0
 10
-44.7474
 20
8.2893
 30
0.0
 10
-44.7474
 20
8.2893
 30
0.0
 10
-43.3409
 20
8.7708
 30
0.0
 10
-42.1708
 20
9.5693
 30
0.0
 10
-41.2986
 20
12.0165
 30
0.0
 10
-41.2986
 20
12.0165
 30
0.0
 10
-41.2986
 20
12.0165
 30
0.0
 10
-41.2986
 20
4.565
 30
0.0
 10
-41.2986
 20
4.565
 30
0.0
  0
SPLINE
  5
6E
330
1F
100
AcDbEntity
  8
layer 1
 62
     7
100
AcDbSpline
210
0.0
220
0.0
230
1.0
 70
    11
 71
     3
 72
    40
 73
    36
 74
     0
 42
0.0000000001
 43
0.0000000001
 12
1.0
 22
0.0
 32
0.0
 13
1.0
 23
0.0
 33
0.0
 40
0.0
 40
0.0
 40
0.0
 40
0.0
 40
0.1
 40
0.1
 40
0.1
 40
0.1
 40
0.2
 40
0.2
 40
0.2
 40
0.2
 40
0.3
 40
0.3
 40
0.3
 40
0.3
 40
0.4
 40
0.4
 40
0.4
 40
0.4
 40
0.5
 40
0.5
 40
0.5
 40
0.5
 40
0.6
 40
0.6
 40
0.6
 40
0.6
 40
0.7
 40
0.7
 40
0.7
 40
0.7
 40
0.8
 40
0.8
 40
0.8
 40
0.8
 40
1.0
 40
1.0
 40
1.0
 40
1.0
 10
-94.2245
 20
-47.4338
 30
0.0
 10
-89.7802
 20
-42.8432
 30
0.0
 10
-86.9919
 20
-35.0857
 30
0.0
 10
-81.1441
 20
-28.431
 30
0.0
 10
-81.1441
 20
-28.431
 30
0.0
 10
-87.8077
 20
-30.7863
 30
0.0
 10
-112.8494
 20
-41.2225
 30
0.0
 10
-117.9125
 20
-43.6831
 30
0.0
 10
-117.9125
 20
-43.6831
 30
0.0
 10
-116.4165
 20
-43.7487
 30
0.0
 10
-114.7257
 20
-44.1272
 30
0.0
 10
-113.313
 20
-46.7166
 30
0.0
 10
-113.313
 20
-46.7166
 30
0.0
 10
-114.1613
 20
-43.9956
 30
0.0
 10
-111.6855
 20
-41.8199
 30
0.0
 10
-108.8883
 20
-46.0801
 30
0.0
 10
-108.8883
 20
-46.0801
 30
0.0
 10
-107.1606
 20
-49.0306
 30
0.0
 10
-107.6964
 20
-50.6027
 30
0.0
 10
-104.8818
 20
-55.0531
 30
0.0
 10
-104.8818
 20
-55.0531
 30
0.0
 10
-104.8511
 20
-52.0639
 30
0.0
 10
-105.0789
 20
-47.9915
 30
0.0
 10
-104.2082
 20
-44.3018
 30
0.0
 10
-104.2082
 20
-44.3018
 30
0.0
 10
-103.8321
 20
-41.8439
 30
0.0
 10
-101.2382
 20
-40.8423
 30
0.0
 10
-100.5797
 20
-43.5892
 30
0.0
 10
-100.5797
 20
-43.5892
 30
0.0
 10
-99.2786
 20
-38.8911
 30
0.0
 10
-95.2765
 20
-40.9907
 30
0.0
 10
-97.2866
 20
-45.0694
 30
0.0
 10
-97.2866
 20
-45.0694
 30
0.0
 10
-94.5789
 20
-43.5846
 30
0.0
 10
-93.3713
 20
-45.3673
 30
0.0
 10
-94.2245
 20
-47.4338
 30
0.0
  0
SPLINE
  5
6F
330
1F
100
AcDbEntity
  8
layer 1
 62
     7
100
AcDbSpline
210
0.0
220
0.0
230
1.0
 70
    11
 71
     3
 72
    80
 73
    76
 74
     0
 42
0.0000000001
 43
0.0000000001
 12
1.0
 22
0.0
 32
0.0
 13
1.0
 23
0.0
 33
0.0
 40
0.0
 40
0.0
 40
0.0
 40
0.0
 40
0.05
 40
0.05
 40
0.05
 40
0.05
 40
0.1
 40
0.1
 40
0.1
 40
0.1
 40
0.15
 40
0.15
 40
0.15
 40
0.15
 40
0.2
 40
0.2
 40
0.2
 40
0.2
 40
0.25
 40
0.25
 40
0.25
 40
0.25
 40
0.3
 40
0.3
 40
0.3
 40
0.3
 40
0.35
 40
0.35
 40
0.35
 40
0.35
 40
0.4
 40
0.4
 40
0.4
 40
0.4
 40
0.45
 40
0.45
 40
0.45
 40
0.45
 40
0.5
 40
0.5
 40
0.5
 40
0.5
 40
0.55
 40
0.55
 40
0.55
 40
0.55
 40
0.6
 40
0.6
 40
0.6
 40
0.6
 40
0.65
 40
0.65
 40
0.65
 40
0.65
 40
0.7
 40
0.7
 40
0.7
 40
0.7
 40
0.75
 40
0.75
 40
0.75
 40
0.75
 40
0.8
 40
0.8
 40
0.8
 40
0.8
 40
0.85
 40
0.85
 40
0.85
 40
0.85
 40
0.9
 40
0.9
 40
0.9
 40
0.9
 40
1.0
 40
1.0
 40
1.0
 40
1.0
 10
-110.452
 20
-69.8334
 30
0.0
 10
-110.5876
 20
-69.9756
 30
0.0
 10
-104.6719
 20
-61.4482
 30
0.0
 10
-106.496
 20
-60.4856
 30
0.0
 10
-106.496
 20
-60.4856
 30
0.0
 10
-106.9708
 20
-60.2365
 30
0.0
 10
-110.2467
 20
-65.1837
 30
0.0
 10
-115.2856
 20
-67.7182
 30
0.0
 10
-115.2856
 20
-67.7182
 30
0.0
 10
-118.4808
 20
-70.1812
 30
0.0
 10
-119.4235
 20
-68.1034
 30
0.0
 10
-118.0458
 20
-65.7699
 30
0.0
 10
-118.0458
 20
-65.7699
 30
0.0
 10
-121.9168
 20
-67.0099
 30
0.0
 10
-125.3129
 20
-64.4749
 30
0.0
 10
-119.5719
 20
-61.9973
 30
0.0
 10
-119.5719
 20
-61.9973
 30
0.0
 10
-120.0098
 20
-61.4458
 30
0.0
 10
-120.5719
 20
-61.0238
 30
0.0
 10
-121.3892
 20
-60.1952
 30
0.0
 10
-121.3892
 20
-60.1952
 30
0.0
 10
-122.0215
 20
-62.7167
 30
0.0
 10
-125.2782
 20
-63.7094
 30
0.0
 10
-127.2266
 20
-64.0532
 30
0.0
 10
-127.2266
 20
-64.0532
 30
0.0
 10
-125.1512
 20
-65.8812
 30
0.0
 10
-124.3813
 20
-69.8418
 30
0.0
 10
-125.4793
 20
-70.8396
 30
0.0
 10
-125.4793
 20
-70.8396
 30
0.0
 10
-124.3747
 20
-71.2158
 30
0.0
 10
-124.1495
 20
-71.8412
 30
0.0
 10
-123.7319
 20
-72.5232
 30
0.0
 10
-123.7319
 20
-72.5232
 30
0.0
 10
-119.1655
 20
-66.2883
 30
0.0
 10
-117.6673
 20
-72.3507
 30
0.0
 10
-119.0474
 20
-74.5443
 30
0.0
 10
-119.0474
 20
-74.5443
 30
0.0
 10
-113.457
 20
-78.1309
 30
0.0
 10
-120.237
 20
-84.1344
 30
0.0
 10
-124.3248
 20
-87.3319
 30
0.0
 10
-124.3248
 20
-87.3319
 30
0.0
 10
-114.8091
 20
-86.3236
 30
0.0
 10
-94.9988
 20
-75.093
 30
0.0
 10
-88.3503
 20
-68.8274
 30
0.0
 10
-88.3503
 20
-68.8274
 30
0.0
 10
-88.8945
 20
-66.463
 30
0.0
 10
-89.555
 20
-63.7863
 30
0.0
 10
-90.1761
 20
-60.0882
 30
0.0
 10
-90.1761
 20
-60.0882
 30
0.0
 10
-90.1761
 20
-60.0882
 30
0.0
 10
-91.0097
 20
-60.8619
 30
0.0
 10
-91.985
 20
-60.8032
 30
0.0
 10
-91.985
 20
-60.8032
 30
0.0
 10
-90.3798
 20
-62.5287
 30
0.0
 10
-90.9548
 20
-63.6507
 30
0.0
 10
-93.4524
 20
-63.7207
 30
0.0
 10
-93.4524
 20
-63.7207
 30
0.0
 10
-97.9074
 20
-63.4581
 30
0.0
 10
-101.2779
 20
-61.2141
 30
0.0
 10
-102.9397
 20
-60.6391
 30
0.0
 10
-102.9397
 20
-60.6391
 30
0.0
 10
-101.7018
 20
-63.9677
 30
0.0
 10
-99.9498
 20
-69.5995
 30
0.0
 10
-100.3899
 20
-71.4583
 30
0.0
 10
-100.3899
 20
-71.4583
 30
0.0
 10
-99.9722
 20
-73.3613
 30
0.0
 10
-103.3594
 20
-74.9988
 30
0.0
 10
-104.0179
 20
-72.2521
 30
0.0
 10
-104.0179
 20
-72.2521
 30
0.0
 10
-105.3191
 20
-76.9501
 30
0.0
 10
-109.4001
 20
-75.9614
 30
0.0
 10
-107.3923
 20
-71.8804
 30
0.0
 10
-107.3923
 20
-71.8804
 30
0.0
 10
-110.0999
 20
-73.3651
 30
0.0
 10
-111.3054
 20
-71.9022
 30
0.0
 10
-110.452
 20
-69.8334
 30
0.0
  0
SPLINE
  5
70
330
1F
100
AcDbEntity
  8
layer 1
 62
     7
100
AcDbSpline
210
0.0
220
0.0
230
1.0
 70
    11
 71
     3
 72
    16
 73
    12
 74
     0
 42
0.0000000001
 43
0.0000000001
 12
1.0
 22
0.0
 32
0.0
 13
1.0
 23
0.0
 33
0.0
 40
0.0
 40
0.0
 40
0.0
 40
0.0
 40
0.25
 40
0.25
 40
0.25
 40
0.25
 40
0.5
 40
0.5
 40
0.5
 40
0.5
 40
1.0
 40
1.0
 40
1.0
 40
1.0
 10
-97.7608
 20
-54.3164
 30
0.0
 10
-94.7888
 20
-52.5797
 30
0.0
 10
-93.0656
 20
-50.7057
 30
0.0
 10
-90.0164
 20
-46.758
 30
0.0
 10
-90.0164
 20
-46.758
 30
0.0
 10
-90.7668
 20
-50.1279
 30
0.0
 10
-90.596
 20
-51.9436
 30
0.0
 10
-90.4868
 20
-54.3315
 30
0.0
 10
-90.4868
 20
-54.3315
 30
0.0
 10
-92.088
 20
-53.4156
 30
0.0
 10
-93.9272
 20
-53.3826
 30
0.0
 10
-97.7608
 20
-54.3164
 30
0.0
  0
SPLINE
  5
71
330
1F
100
AcDbEntity
  8
layer 1
 62
     7
100
AcDbSpline
210
0.0
220
0.0
230
1.0
 70
    11
 71
     3
 72
    52
 73
    48
 74
     0
 42
0.0000000001
 43
0.0000000001
 12
1.0
 22
0.0
 32
0.0
 13
1.0
 23
0.0
 33
0.0
 40
0.0
 40
0.0
 40
0.0
 40
0.0
 40
0.0769230769230769
 40
0.0769230769230769
 40
0.0769230769230769
 40
0.0769230769230769
 40
0.1538461538461539
 40
0.1538461538461539
 40
0.1538461538461539
 40
0.1538461538461539
 40
0.2307692307692308
 40
0.2307692307692308
 40
0.2307692307692308
 40
0.2307692307692308
 40
0.3076923076923077
 40
0.3076923076923077
 40
0.3076923076923077
 40
0.3076923076923077
 40
0.3846153846153846
 40
0.3846153846153846
 40
0.3846153846153846
 40
0.3846153846153846
 40
0.4615384615384616
 40
0.4615384615384616
 40
0.4615384615384616
 40
0.4615384615384616
 40
0.5384615384615384
 40
0.5384615384615384
 40
0.5384615384615384
 40
0.5384615384615384
 40
0.6153846153846154
 40
0.6153846153846154
 40
0.6153846153846154
 40
0.6153846153846154
 40
0.6923076923076923
 40
0.6923076923076923
 40
0.6923076923076923
 40
0.6923076923076923
 40
0.7692307692307693
 40
0.7692307692307693
 40
0.7692307692307693
 40
0.7692307692307693
 40
0.8461538461538461
 40
0.8461538461538461
 40
0.8461538461538461
 40
0.8461538461538461
 40
1.0
 40
1.0
 40
1.0
 40
1.0
 10
-133.8842
 20
-67.4781
 30
0.0
 10
-134.5577
 20
-71.3227
 30
0.0
 10
-131.4476
 20
-73.7851
 30
0.0
 10
-127.8107
 20
-74.9049
 30
0.0
 10
-127.8107
 20
-74.9049
 30
0.0
 10
-128.7181
 20
-74.743
 30
0.0
 10
-129.8995
 20
-79.0692
 30
0.0
 10
-129.2998
 20
-85.1008
 30
0.0
 10
-129.2998
 20
-85.1008
 30
0.0
 10
-130.7108
 20
-83.4391
 30
0.0
 10
-140.5327
 20
-68.941
 30
0.0
 10
-140.9852
 20
-77.291
 30
0.0
 10
-140.9852
 20
-77.291
 30
0.0
 10
-151.1487
 20
-73.7895
 30
0.0
 10
-148.4191
 20
-80.3049
 30
0.0
 10
-142.7571
 20
-81.7197
 30
0.0
 10
-142.7571
 20
-81.7197
 30
0.0
 10
-144.0975
 20
-81.8356
 30
0.0
 10
-145.038
 20
-82.9184
 30
0.0
 10
-144.8673
 20
-84.1541
 30
0.0
 10
-144.8673
 20
-84.1541
 30
0.0
 10
-145.4362
 20
-84.1278
 30
0.0
 10
-146.0442
 20
-84.0556
 30
0.0
 10
-146.674
 20
-83.9486
 30
0.0
 10
-146.674
 20
-83.9486
 30
0.0
 10
-145.1321
 20
-82.634
 30
0.0
 10
-146.7809
 20
-80.2982
 30
0.0
 10
-148.7037
 20
-79.6705
 30
0.0
 10
-148.7037
 20
-79.6705
 30
0.0
 10
-152.0584
 20
-78.5772
 30
0.0
 10
-158.7899
 20
-80.1957
 30
0.0
 10
-159.3346
 20
-80.7835
 30
0.0
 10
-159.3346
 20
-80.7835
 30
0.0
 10
-157.9439
 20
-74.4524
 30
0.0
 10
-142.1161
 20
-57.7019
 30
0.0
 10
-131.0125
 20
-50.3994
 30
0.0
 10
-131.0125
 20
-50.3994
 30
0.0
 10
-134.5449
 20
-54.0252
 30
0.0
 10
-135.2552
 20
-58.8984
 30
0.0
 10
-134.6714
 20
-60.5472
 30
0.0
 10
-134.6714
 20
-60.5472
 30
0.0
 10
-141.8709
 20
-60.0311
 30
0.0
 10
-141.0377
 20
-68.8252
 30
0.0
 10
-146.2844
 20
-69.5798
 30
0.0
 10
-146.2844
 20
-69.5798
 30
0.0
 10
-143.2689
 20
-69.9909
 30
0.0
 10
-136.0251
 20
-72.3854
 30
0.0
 10
-133.8842
 20
-67.4781
 30
0.0
  0
SPLINE
  5
72
330
1F
100
AcDbEntity
  8
layer 1
 62
     7
100
AcDbSpline
210
0.0
220
0.0
230
1.0
 70
    11
 71
     3
 72
    68
 73
    64
 74
     0
 42
0.0000000001
 43
0.0000000001
 12
1.0
 22
0.0
 32
0.0
 13
1.0
 23
0.0
 33
0.0
 40
0.0
 40
0.0
 40
0.0
 40
0.0
 40
0.0588235294117647
 40
0.0588235294117647
 40
0.0588235294117647
 40
0.0588235294117647
 40
0.1176470588235294
 40
0.1176470588235294
 40
0.1176470588235294
 40
0.1176470588235294
 40
0.1764705882352941
 40
0.1764705882352941
 40
0.1764705882352941
 40
0.1764705882352941
 40
0.2352941176470588
 40
0.2352941176470588
 40
0.2352941176470588
 40
0.2352941176470588
 40
0.2941176470588235
 40
0.2941176470588235
 40
0.2941176470588235
 40
0.2941176470588235
 40
0.3529411764705883
 40
0.3529411764705883
 40
0.3529411764705883
 40
0.3529411764705883
 40
0.4117647058823529
 40
0.4117647058823529
 40
0.4117647058823529
 40
0.4117647058823529
 40
0.4705882352941176
 40
0.4705882352941176
 40
0.4705882352941176
 40
0.4705882352941176
 40
0.5294117647058824
 40
0.5294117647058824
 40
0.5294117647058824
 40
0.5294117647058824
 40
0.5882352941176471
 40
0.5882352941176471
 40
0.5882352941176471
 40
0.5882352941176471
 40
0.6470588235294118
 40
0.6470588235294118
 40
0.6470588235294118
 40
0.6470588235294118
 40
0.7058823529411765
 40
0.7058823529411765
 40
0.7058823529411765
 40
0.7058823529411765
 40
0.7647058823529411
 40
0.7647058823529411
 40
0.7647058823529411
 40
0.7647058823529411
 40
0.8235294117647058
 40
0.8235294117647058
 40
0.8235294117647058
 40
0.8235294117647058
 40
0.8823529411764706
 40
0.8823529411764706
 40
0.8823529411764706
 40
0.8823529411764706
 40
1.0
 40
1.0
 40
1.0
 40
1.0
 10
-55.8857
 20
-108.4411
 30
0.0
 10
-55.8857
 20
-108.4411
 30
0.0
 10
-85.5531
 20
-108.4411
 30
0.0
 10
-85.5531
 20
-108.4411
 30
0.0
 10
-85.5531
 20
-108.4411
 30
0.0
 10
-85.0106
 20
-107.1987
 30
0.0
 10
-85.4304
 20
-106.0813
 30
0.0
 10
-86.4298
 20
-104.8914
 30
0.0
 10
-86.4298
 20
-104.8914
 30
0.0
 10
-85.4809
 20
-105.3242
 30
0.0
 10
-81.9922
 20
-105.5123
 30
0.0
 10
-84.1422
 20
-100.9655
 30
0.0
 10
-84.1422
 20
-100.9655
 30
0.0
 10
-85.4372
 20
-98.4573
 30
0.0
 10
-85.8459
 20
-98.8682
 30
0.0
 10
-88.8485
 20
-94.4856
 30
0.0
 10
-88.8485
 20
-94.4856
 30
0.0
 10
-83.3528
 20
-94.3607
 30
0.0
 10
-83.9172
 20
-94.8965
 30
0.0
 10
-80.582
 20
-94.6625
 30
0.0
 10
-80.582
 20
-94.6625
 30
0.0
 10
-76.6102
 20
-94.387
 30
0.0
 10
-76.4131
 20
-91.4257
 30
0.0
 10
-79.1996
 20
-91.0691
 30
0.0
 10
-79.1996
 20
-91.0691
 30
0.0
 10
-75.5951
 20
-90.4135
 30
0.0
 10
-73.7625
 20
-85.2301
 30
0.0
 10
-79.9363
 20
-86.6125
 30
0.0
 10
-79.9363
 20
-86.6125
 30
0.0
 10
-79.9363
 20
-86.8045
 30
0.0
 10
-80.3239
 20
-79.1958
 30
0.0
 10
-85.9159
 20
-86.9316
 30
0.0
 10
-85.9159
 20
-86.9316
 30
0.0
 10
-83.7816
 20
-83.4498
 30
0.0
 10
-83.845
 20
-77.9428
 30
0.0
 10
-84.0022
 20
-76.0531
 30
0.0
 10
-84.0022
 20
-76.0531
 30
0.0
 10
-80.1093
 20
-79.7449
 30
0.0
 10
-74.2374
 20
-84.3971
 30
0.0
 10
-64.146
 20
-86.9489
 30
0.0
 10
-64.146
 20
-86.9489
 30
0.0
 10
-66.8934
 20
-88.8256
 30
0.0
 10
-80.0876
 20
-88.8431
 30
0.0
 10
-74.6943
 20
-93.9429
 30
0.0
 10
-74.6943
 20
-93.9429
 30
0.0
 10
-79.0882
 20
-96.7122
 30
0.0
 10
-77.507
 20
-100.8016
 30
0.0
 10
-72.1026
 20
-98.2121
 30
0.0
 10
-72.1026
 20
-98.2121
 30
0.0
 10
-71.8949
 20
-105.1624
 30
0.0
 10
-63.7788
 20
-95.9596
 30
0.0
 10
-62.1563
 20
-91.1134
 30
0.0
 10
-62.1563
 20
-91.1134
 30
0.0
 10
-62.7442
 20
-99.1398
 30
0.0
 10
-62.1692
 20
-102.5908
 30
0.0
 10
-61.6726
 20
-104.0147
 30
0.0
 10
-61.6726
 20
-104.0147
 30
0.0
 10
-61.0516
 20
-105.79
 30
0.0
 10
-58.974
 20
-108.4411
 30
0.0
 10
-57.6811
 20
-104.5897
 30
0.0
 10
-57.6811
 20
-104.5897
 30
0.0
 10
-56.6734
 20
-105.5958
 30
0.0
 10
-55.8857
 20
-107.6886
 30
0.0
 10
-55.8857
 20
-108.4411
 30
0.0
  0
SPLINE
  5
73
330
1F
100
AcDbEntity
  8
layer 1
 62
     7
100
AcDbSpline
210
0.0
220
0.0
230
1.0
 70
    11
 71
     3
 72
    48
 73
    44
 74
     0
 42
0.0000000001
 43
0.0000000001
 12
1.0
 22
0.0
 32
0.0
 13
1.0
 23
0.0
 33
0.0
 40
0.0
 40
0.0
 40
0.0
 40
0.0
 40
0.0833333333333333
 40
0.0833333333333333
 40
0.0833333333333333
 40
0.0833333333333333
 40
0.1666666666666667
 40
0.1666666666666667
 40
0.1666666666666667
 40
0.1666666666666667
 40
0.25
 40
0.25
 40
0.25
 40
0.25
 40
0.3333333333333333
 40
0.3333333333333333
 40
0.3333333333333333
 40
0.3333333333333333
 40
0.4166666666666667
 40
0.4166666666666667
 40
0.4166666666666667
 40
0.4166666666666667
 40
0.5
 40
0.5
 40
0.5
 40
0.5
 40
0.5833333333333334
 40
0.5833333333333334
 40
0.5833333333333334
 40
0.5833333333333334
 40
0.6666666666666666
 40
0.6666666666666666
 40
0.6666666666666666
 40
0.6666666666666666
 40
0.75
 40
0.75
 40
0.75
 40
0.75
 40
0.8333333333333334
 40
0.8333333333333334
 40
0.8333333333333334
 40
0.8333333333333334
 40
1.0
 40
1.0
 40
1.0
 40
1.0
 10
-133.495
 20
-108.4411
 30
0.0
 10
-133.495
 20
-108.4411
 30
0.0
 10
-180.6342
 20
-108.4411
 30
0.0
 10
-180.6342
 20
-108.4411
 30
0.0
 10
-180.6342
 20
-108.4411
 30
0.0
 10
-180.6342
 20
-108.4411
 30
0.0
 10
-180.6342
 20
-106.7156
 30
0.0
 10
-180.6342
 20
-106.7156
 30
0.0
 10
-180.6342
 20
-106.7156
 30
0.0
 10
-177.0341
 20
-107.94
 30
0.0
 10
-173.9767
 20
-105.2323
 30
0.0
 10
-173.3993
 20
-103.4918
 30
0.0
 10
-173.3993
 20
-103.4918
 30
0.0
 10
-169.4651
 20
-108.4411
 30
0.0
 10
-164.8701
 20
-92.5719
 30
0.0
 10
-162.779
 20
-87.8723
 30
0.0
 10
-162.779
 20
-87.8723
 30
0.0
 10
-161.1957
 20
-92.6552
 30
0.0
 10
-166.2542
 20
-103.7891
 30
0.0
 10
-159.5641
 20
-102.5534
 30
0.0
 10
-159.5641
 20
-102.5534
 30
0.0
 10
-159.5536
 20
-107.061
 30
0.0
 10
-154.0948
 20
-106.7593
 30
0.0
 10
-155.6977
 20
-101.2891
 30
0.0
 10
-155.6977
 20
-101.2891
 30
0.0
 10
-154.5426
 20
-101.8535
 30
0.0
 10
-154.0813
 20
-101.6111
 30
0.0
 10
-153.0427
 20
-101.2041
 30
0.0
 10
-153.0427
 20
-101.2041
 30
0.0
 10
-151.999
 20
-102.1206
 30
0.0
 10
-150.3434
 20
-101.7662
 30
0.0
 10
-148.7843
 20
-101.2191
 30
0.0
 10
-148.7843
 20
-101.2191
 30
0.0
 10
-149.1168
 20
-109.506
 30
0.0
 10
-134.0565
 20
-96.7709
 30
0.0
 10
-130.6513
 20
-94.2951
 30
0.0
 10
-130.6513
 20
-94.2951
 30
0.0
 10
-133.3679
 20
-99.3453
 30
0.0
 10
-141.6457
 20
-105.5913
 30
0.0
 10
-133.0354
 20
-105.9105
 30
0.0
 10
-133.0354
 20
-105.9105
 30
0.0
 10
-133.569
 20
-107.3039
 30
0.0
 10
-134.0091
 20
-107.7518
 30
0.0
 10
-133.495
 20
-108.4411
 30
0.0
  0
SPLINE
  5
74
330
1F
100
AcDbEntity
  8
layer 1
 62
     7
100
AcDbSpline
210
0.0
220
0.0
230
1.0
 70
    11
 71
     3
 72
    64
 73
    60
 74
     0
 42
0.0000000001
 43
0.0000000001
 12
1.0
 22
0.0
 32
0.0
 13
1.0
 23
0.0
 33
0.0
 40
0.0
 40
0.0
 40
0.0
 40
0.0
 40
0.0625
 40
0.0625
 40
0.0625
 40
0.0625
 40
0.125
 40
0.125
 40
0.125
 40
0.125
 40
0.1875
 40
0.1875
 40
0.1875
 40
0.1875
 40
0.25
 40
0.25
 40
0.25
 40
0.25
 40
0.3125
 40
0.3125
 40
0.3125
 40
0.3125
 40
0.375
 40
0.375
 40
0.375
 40
0.375
 40
0.4375
 40
0.4375
 40
0.4375
 40
0.4375
 40
0.5
 40
0.5
 40
0.5
 40
0.5
 40
0.5625
 40
0.5625
 40
0.5625
 40
0.5625
 40
0.625
 40
0.625
 40
0.625
 40
0.625
 40
0.6875
 40
0.6875
 40
0.6875
 40
0.6875
 40
0.75
 40
0.75
 40
0.75
 40
0.75
 40
0.8125
 40
0.8125
 40
0.8125
 40
0.8125
 40
0.875
 40
0.875
 40
0.875
 40
0.875
 40
1.0
 40
1.0
 40
1.0
 40
1.0
 10
-158.3195
 20
-44.7155
 30
0.0
 10
-155.6802
 20
-44.4048
 30
0.0
 10
-151.4985
 20
-44.3717
 30
0.0
 10
-148.8151
 20
-44.8399
 30
0.0
 10
-148.8151
 20
-44.8399
 30
0.0
 10
-147.678
 20
-45.0391
 30
0.0
 10
-145.7222
 20
-45.4787
 30
0.0
 10
-147.4109
 20
-47.491
 30
0.0
 10
-147.4109
 20
-47.491
 30
0.0
 10
-141.9806
 20
-48.6565
 30
0.0
 10
-143.9944
 20
-52.2499
 30
0.0
 10
-148.5021
 20
-51.3529
 30
0.0
 10
-148.5021
 20
-51.3529
 30
0.0
 10
-147.5419
 20
-54.4894
 30
0.0
 10
-150.0395
 20
-54.2336
 30
0.0
 10
-150.923
 20
-54.0584
 30
0.0
 10
-150.923
 20
-54.0584
 30
0.0
 10
-153.2046
 20
-53.448
 30
0.0
 10
-155.8505
 20
-52.5645
 30
0.0
 10
-161.769
 20
-49.4567
 30
0.0
 10
-161.769
 20
-49.4567
 30
0.0
 10
-157.9764
 20
-54.5745
 30
0.0
 10
-153.3814
 20
-62.194
 30
0.0
 10
-159.3083
 20
-61.9795
 30
0.0
 10
-159.3083
 20
-61.9795
 30
0.0
 10
-156.4977
 20
-66.1416
 30
0.0
 10
-161.012
 20
-68.3833
 30
0.0
 10
-162.1273
 20
-63.8343
 30
0.0
 10
-162.1273
 20
-63.8343
 30
0.0
 10
-162.5668
 20
-64.519
 30
0.0
 10
-163.5141
 20
-64.9451
 30
0.0
 10
-164.144
 20
-64.8382
 30
0.0
 10
-164.144
 20
-64.8382
 30
0.0
 10
-163.9183
 20
-65.4417
 30
0.0
 10
-163.7784
 20
-66.1024
 30
0.0
 10
-163.7303
 20
-66.8701
 30
0.0
 10
-163.7303
 20
-66.8701
 30
0.0
 10
-158.0967
 20
-64.9081
 30
0.0
 10
-159.6168
 20
-77.9495
 30
0.0
 10
-160.161
 20
-78.538
 30
0.0
 10
-160.161
 20
-78.538
 30
0.0
 10
-152.9268
 20
-65.1334
 30
0.0
 10
-136.0318
 20
-46.2681
 30
0.0
 10
-114.8174
 20
-38.9069
 30
0.0
 10
-114.8174
 20
-38.9069
 30
0.0
 10
-120.338
 20
-39.578
 30
0.0
 10
-127.441
 20
-39.5014
 30
0.0
 10
-133.2432
 20
-40.0524
 30
0.0
 10
-133.2432
 20
-40.0524
 30
0.0
 10
-141.0815
 20
-41.078
 30
0.0
 10
-139.4018
 20
-47.4383
 30
0.0
 10
-142.2605
 20
-47.0358
 30
0.0
 10
-142.2605
 20
-47.0358
 30
0.0
 10
-144.2548
 20
-46.7031
 30
0.0
 10
-142.2408
 20
-41.382
 30
0.0
 10
-140.4168
 20
-39.8777
 30
0.0
 10
-140.4168
 20
-39.8777
 30
0.0
 10
-142.8423
 20
-39.2367
 30
0.0
 10
-155.3101
 20
-41.5814
 30
0.0
 10
-158.3195
 20
-44.7155
 30
0.0
  0
SPLINE
  5
75
330
1F
100
AcDbEntity
  8
layer 1
 62
     7
100
AcDbSpline
210
0.0
220
0.0
230
1.0
 70
    11
 71
     3
 72
    24
 73
    20
 74
     0
 42
0.0000000001
 43
0.0000000001
 12
1.0
 22
0.0
 32
0.0
 13
1.0
 23
0.0
 33
0.0
 40
0.0
 40
0.0
 40
0.0
 40
0.0
 40
0.1666666666666667
 40
0.1666666666666667
 40
0.1666666666666667
 40
0.1666666666666667
 40
0.3333333333333333
 40
0.3333333333333333
 40
0.3333333333333333
 40
0.3333333333333333
 40
0.5
 40
0.5
 40
0.5
 40
0.5
 40
0.6666666666666666
 40
0.6666666666666666
 40
0.6666666666666666
 40
0.6666666666666666
 40
1.0
 40
1.0
 40
1.0
 40
1.0
 10
-112.9978
 20
-13.9019
 30
0.0
 10
-118.1242
 20
-9.7795
 30
0.0
 10
-120.1799
 20
-8.5704
 30
0.0
 10
-122.1177
 20
-7.151
 30
0.0
 10
-122.1177
 20
-7.151
 30
0.0
 10
-122.0238
 20
-8.1611
 30
0.0
 10
-122.4615
 20
-8.894
 30
0.0
 10
-123.8719
 20
-10.0047
 30
0.0
 10
-123.8719
 20
-10.0047
 30
0.0
 10
-121.0483
 20
-8.6313
 30
0.0
 10
-120.1279
 20
-10.1866
 30
0.0
 10
-120.742
 20
-12.0801
 30
0.0
 10
-120.742
 20
-12.0801
 30
0.0
 10
-121.2801
 20
-13.738
 30
0.0
 10
-123.1742
 20
-15.6539
 30
0.0
 10
-123.6227
 20
-16.0873
 30
0.0
 10
-123.6227
 20
-16.0873
 30
0.0
 10
-120.3748
 20
-13.8343
 30
0.0
 10
-117.1924
 20
-13.9568
 30
0.0
 10
-112.9978
 20
-13.9019
 30
0.0
  0
SPLINE
  5
76
330
1F
100
AcDbEntity
  8
layer 1
 62
     7
100
AcDbSpline
210
0.0
220
0.0
230
1.0
 70
    11
 71
     3
 72
    24
 73
    20
 74
     0
 42
0.0000000001
 43
0.0000000001
 12
1.0
 22
0.0
 32
0.0
 13
1.0
 23
0.0
 33
0.0
 40
0.0
 40
0.0
 40
0.0
 40
0.0
 40
0.1666666666666667
 40
0.1666666666666667
 40
0.1666666666666667
 40
0.1666666666666667
 40
0.3333333333333333
 40
0.3333333333333333
 40
0.3333333333333333
 40
0.3333333333333333
 40
0.5
 40
0.5
 40
0.5
 40
0.5
 40
0.6666666666666666
 40
0.6666666666666666
 40
0.6666666666666666
 40
0.6666666666666666
 40
1.0
 40
1.0
 40
1.0
 40
1.0
 10
-130.0675
 20
-36.7916
 30
0.0
 10
-134.6887
 20
-36.9624
 30
0.0
 10
-140.0317
 20
-35.0751
 30
0.0
 10
-142.317
 20
-33.8327
 30
0.0
 10
-142.317
 20
-33.8327
 30
0.0
 10
-141.5059
 20
-33.2223
 30
0.0
 10
-139.7276
 20
-32.9598
 30
0.0
 10
-139.8547
 20
-31.1687
 30
0.0
 10
-139.8547
 20
-31.1687
 30
0.0
 10
-138.969
 20
-34.1825
 30
0.0
 10
-137.5038
 20
-34.3752
 30
0.0
 10
-136.1456
 20
-32.9206
 30
0.0
 10
-136.1456
 20
-32.9206
 30
0.0
 10
-134.7963
 20
-31.4772
 30
0.0
 10
-133.1227
 20
-25.8633
 30
0.0
 10
-131.5025
 20
-23.9866
 30
0.0
 10
-131.5025
 20
-23.9866
 30
0.0
 10
-130.9818
 20
-27.9035
 30
0.0
 10
-131.8808
 20
-34.5588
 30
0.0
 10
-130.0675
 20
-36.7916
 30
0.0
  0
SPLINE
  5
77
330
1F
100
AcDbEntity
  8
layer 1
 62
     7
100
AcDbSpline
210
0.0
220
0.0
230
1.0
 70
    11
 71
     3
 72
    40
 73
    36
 74
     0
 42
0.0000000001
 43
0.0000000001
 12
1.0
 22
0.0
 32
0.0
 13
1.0
 23
0.0
 33
0.0
 40
0.0
 40
0.0
 40
0.0
 40
0.0
 40
0.1
 40
0.1
 40
0.1
 40
0.1
 40
0.2
 40
0.2
 40
0.2
 40
0.2
 40
0.3
 40
0.3
 40
0.3
 40
0.3
 40
0.4
 40
0.4
 40
0.4
 40
0.4
 40
0.5
 40
0.5
 40
0.5
 40
0.5
 40
0.6
 40
0.6
 40
0.6
 40
0.6
 40
0.7
 40
0.7
 40
0.7
 40
0.7
 40
0.8
 40
0.8
 40
0.8
 40
0.8
 40
1.0
 40
1.0
 40
1.0
 40
1.0
 10
-76.8133
 20
-21.8322
 30
0.0
 10
-87.7618
 20
-28.9644
 30
0.0
 10
-107.7994
 20
-35.5732
 30
0.0
 10
-123.92
 20
-36.8751
 30
0.0
 10
-123.92
 20
-36.8751
 30
0.0
 10
-123.43
 20
-35.7418
 30
0.0
 10
-123.5875
 20
-34.2525
 30
0.0
 10
-124.5039
 20
-33.1877
 30
0.0
 10
-124.5039
 20
-33.1877
 30
0.0
 10
-118.5116
 20
-32.6081
 30
0.0
 10
-125.1142
 20
-26.2434
 30
0.0
 10
-128.1062
 20
-22.9564
 30
0.0
 10
-128.1062
 20
-22.9564
 30
0.0
 10
-128.6504
 20
-21.1065
 30
0.0
 10
-124.467
 20
-25.7273
 30
0.0
 10
-121.0395
 20
-27.5229
 30
0.0
 10
-121.0395
 20
-27.5229
 30
0.0
 10
-118.3867
 20
-28.9141
 30
0.0
 10
-116.2546
 20
-27.2345
 30
0.0
 10
-118.1767
 20
-24.9536
 30
0.0
 10
-118.1767
 20
-24.9536
 30
0.0
 10
-114.5179
 20
-27.1207
 30
0.0
 10
-111.4319
 20
-21.6576
 30
0.0
 10
-117.5468
 20
-21.6049
 30
0.0
 10
-117.5468
 20
-21.6049
 30
0.0
 10
-113.4833
 20
-15.1533
 30
0.0
 10
-122.4592
 20
-20.1464
 30
0.0
 10
-124.0073
 20
-17.782
 30
0.0
 10
-124.0073
 20
-17.782
 30
0.0
 10
-114.6842
 20
-14.5604
 30
0.0
 10
-109.081
 20
-16.3319
 30
0.0
 10
-105.3544
 20
-17.572
 30
0.0
 10
-105.3544
 20
-17.572
 30
0.0
 10
-96.9187
 20
-21.3797
 30
0.0
 10
-87.0491
 20
-22.2129
 30
0.0
 10
-76.8133
 20
-21.8322
 30
0.0
  0
SPLINE
  5
78
330
1F
100
AcDbEntity
  8
layer 1
 62
     7
100
AcDbSpline
210
0.0
220
0.0
230
1.0
 70
    11
 71
     3
 72
    16
 73
    12
 74
     0
 42
0.0000000001
 43
0.0000000001
 12
1.0
 22
0.0
 32
0.0
 13
1.0
 23
0.0
 33
0.0
 40
0.0
 40
0.0
 40
0.0
 40
0.0
 40
0.25
 40
0.25
 40
0.25
 40
0.25
 40
0.5
 40
0.5
 40
0.5
 40
0.5
 40
1.0
 40
1.0
 40
1.0
 40
1.0
 10
-92.934
 20
-57.6275
 30
0.0
 10
-91.6306
 20
-56.9517
 30
0.0
 10
-90.9918
 20
-56.72
 30
0.0
 10
-90.4957
 20
-55.9832
 30
0.0
 10
-90.4957
 20
-55.9832
 30
0.0
 10
-90.5898
 20
-56.8773
 30
0.0
 10
-90.4693
 20
-57.3258
 30
0.0
 10
-90.4363
 20
-57.8946
 30
0.0
 10
-90.4363
 20
-57.8946
 30
0.0
 10
-90.8848
 20
-57.4506
 30
0.0
 10
-91.6133
 20
-57.3695
 30
0.0
 10
-92.934
 20
-57.6275
 30
0.0
  0
SPLINE
  5
79
330
1F
100
AcDbEntity
  8
layer 1
 62
     7
100
AcDbSpline
210
0.0
220
0.0
230
1.0
 70
    11
 71
     3
 72
    16
 73
    12
 74
     0
 42
0.0000000001
 43
0.0000000001
 12
1.0
 22
0.0
 32
0.0
 13
1.0
 23
0.0
 33
0.0
 40
0.0
 40
0.0
 40
0.0
 40
0.0
 40
0.25
 40
0.25
 40
0.25
 40
0.25
 40
0.5
 40
0.5
 40
0.5
 40
0.5
 40
1.0
 40
1.0
 40
1.0
 40
1.0
 10
-177.9943
 20
-99.0541
 30
0.0
 10
-179.2978
 20
-99.3123
 30
0.0
 10
-180.6341
 20
-99.4018
 30
0.0
 10
-180.6341
 20
-98.5229
 30
0.0
 10
-180.6341
 20
-98.5229
 30
0.0
 10
-180.5401
 20
-99.4175
 30
0.0
 10
-180.601
 20
-101.731
 30
0.0
 10
-180.6341
 20
-102.2998
 30
0.0
 10
-180.6341
 20
-102.2998
 30
0.0
 10
-180.0435
 20
-100.7075
 30
0.0
 10
-179.7439
 20
-100.0888
 30
0.0
 10
-177.9943
 20
-99.0541
 30
0.0
  0
SPLINE
  5
7A
330
1F
100
AcDbEntity
  8
layer 1
 62
     7
100
AcDbSpline
210
0.0
220
0.0
230
1.0
 70
    11
 71
     3
 72
    16
 73
    12
 74
     0
 42
0.0000000001
 43
0.0000000001
 12
1.0
 22
0.0
 32
0.0
 13
1.0
 23
0.0
 33
0.0
 40
0.0
 40
0.0
 40
0.0
 40
0.0
 40
0.25
 40
0.25
 40
0.25
 40
0.25
 40
0.5
 40
0.5
 40
0.5
 40
0.5
 40
1.0
 40
1.0
 40
1.0
 40
1.0
 10
-177.9943
 20
-55.631
 30
0.0
 10
-179.2978
 20
-55.889
 30
0.0
 10
-180.6341
 20
-55.9787
 30
0.0
 10
-180.6341
 20
-55.0992
 30
0.0
 10
-180.6341
 20
-55.0992
 30
0.0
 10
-180.5401
 20
-55.9916
 30
0.0
 10
-180.601
 20
-58.3077
 30
0.0
 10
-180.6341
 20
-58.876
 30
0.0
 10
-180.6341
 20
-58.876
 30
0.0
 10
-180.0435
 20
-57.2842
 30
0.0
 10
-179.7439
 20
-56.6651
 30
0.0
 10
-177.9943
 20
-55.631
 30
0.0
  0
SPLINE
  5
7B
330
1F
100
AcDbEntity
  8
layer 1
 62
     7
100
AcDbSpline
210
0.0
220
0.0
230
1.0
 70
    11
 71
     3
 72
    32
 73
    28
 74
     0
 42
0.0000000001
 43
0.0000000001
 12
1.0
 22
0.0
 32
0.0
 13
1.0
 23
0.0
 33
0.0
 40
0.0
 40
0.0
 40
0.0
 40
0.0
 40
0.125
 40
0.125
 40
0.125
 40
0.125
 40
0.25
 40
0.25
 40
0.25
 40
0.25
 40
0.375
 40
0.375
 40
0.375
 40
0.375
 40
0.5
 40
0.5
 40
0.5
 40
0.5
 40
0.625
 40
0.625
 40
0.625
 40
0.625
 40
0.75
 40
0.75
 40
0.75
 40
0.75
 40
1.0
 40
1.0
 40
1.0
 40
1.0
 10
-107.104
 20
-58.2506
 30
0.0
 10
-109.8161
 20
-55.6483
 30
0.0
 10
-113.3259
 20
-53.892
 30
0.0
 10
-116.6371
 20
-53.341
 30
0.0
 10
-116.6371
 20
-53.341
 30
0.0
 10
-118.1353
 20
-53.0914
 30
0.0
 10
-122.6776
 20
-50.6598
 30
0.0
 10
-117.3503
 20
-49.4981
 30
0.0
 10
-117.3503
 20
-49.4981
 30
0.0
 10
-118.8744
 20
-48.5098
 30
0.0
 10
-119.5502
 20
-46.281
 30
0.0
 10
-118.918
 20
-44.5666
 30
0.0
 10
-118.918
 20
-44.5666
 30
0.0
 10
-124.005
 20
-46.4103
 30
0.0
 10
-133.6283
 20
-54.1871
 30
0.0
 10
-132.854
 20
-59.0468
 30
0.0
 10
-132.854
 20
-59.0468
 30
0.0
 10
-130.7304
 20
-56.6018
 30
0.0
 10
-122.6625
 20
-57.7524
 30
0.0
 10
-120.7051
 20
-56.8246
 30
0.0
 10
-120.7051
 20
-56.8246
 30
0.0
 10
-120.1039
 20
-56.5408
 30
0.0
 10
-120.8277
 20
-57.9863
 30
0.0
 10
-120.1934
 20
-57.8308
 30
0.0
 10
-120.1934
 20
-57.8308
 30
0.0
 10
-115.7295
 20
-56.7329
 30
0.0
 10
-109.339
 20
-56.9148
 30
0.0
 10
-107.104
 20
-58.2506
 30
0.0
  0
SPLINE
  5
7C
330
1F
100
AcDbEntity
  8
layer 1
 62
     7
100
AcDbSpline
210
0.0
220
0.0
230
1.0
 70
    11
 71
     3
 72
    16
 73
    12
 74
     0
 42
0.0000000001
 43
0.0000000001
 12
1.0
 22
0.0
 32
0.0
 13
1.0
 23
0.0
 33
0.0
 40
0.0
 40
0.0
 40
0.0
 40
0.0
 40
0.25
 40
0.25
 40
0.25
 40
0.25
 40
0.5
 40
0.5
 40
0.5
 40
0.5
 40
1.0
 40
1.0
 40
1.0
 40
1.0
 10
-126.0022
 20
-36.9557
 30
0.0
 10
-127.0301
 20
-37.0648
 30
0.0
 10
-127.7669
 20
-37.0346
 30
0.0
 10
-128.642
 20
-36.9668
 30
0.0
 10
-128.642
 20
-36.9668
 30
0.0
 10
-128.0054
 20
-36.3212
 30
0.0
 10
-127.7059
 20
-35.5672
 30
0.0
 10
-127.7383
 20
-34.9982
 30
0.0
 10
-127.7383
 20
-34.9982
 30
0.0
 10
-127.441
 20
-35.9345
 30
0.0
 10
-126.8022
 20
-36.6674
 30
0.0
 10
-126.0022
 20
-36.9557
 30
0.0
  0
SPLINE
  5
7D
330
1F
100
AcDbEntity
  8
layer 1
 62
     7
100
AcDbSpline
210
0.0
220
0.0
230
1.0
 70
    11
 71
     3
 72
    20
 73
    16
 74
     0
 42
0.0000000001
 43
0.0000000001
 12
1.0
 22
0.0
 32
0.0
 13
1.0
 23
0.0
 33
0.0
 40
0.0
 40
0.0
 40
0.0
 40
0.0
 40
0.2
 40
0.2
 40
0.2
 40
0.2
 40
0.4
 40
0.4
 40
0.4
 40
0.4
 40
0.6
 40
0.6
 40
0.6
 40
0.6
 40
1.0
 40
1.0
 40
1.0
 40
1.0
 10
-180.6342
 20
113.6543
 30
0.0
 10
-175.429
 20
108.1143
 30
0.0
 10
-172.0808
 20
105.3171
 30
0.0
 10
-166.3527
 20
101.82
 30
0.0
 10
-166.3527
 20
101.82
 30
0.0
 10
-177.3471
 20
104.8821
 30
0.0
 10
-180.6341
 20
102.8787
 30
0.0
 10
-178.4887
 20
99.6986
 30
0.0
 10
-178.4887
 20
99.6986
 30
0.0
 10
-179.3744
 20
99.7468
 30
0.0
 10
-179.8905
 20
99.7816
 30
0.0
 10
-180.6341
 20
99.8146
 30
0.0
 10
-180.6341
 20
99.8146
 30
0.0
 10
-180.6341
 20
99.8146
 30
0.0
 10
-180.6342
 20
113.6543
 30
0.0
 10
-180.6342
 20
113.6543
 30
0.0
  0
SPLINE
  5
7E
330
1F
100
AcDbEntity
  8
layer 1
 62
     7
100
AcDbSpline
210
0.0
220
0.0
230
1.0
 70
    11
 71
     3
 72
    40
 73
    36
 74
     0
 42
0.0000000001
 43
0.0000000001
 12
1.0
 22
0.0
 32
0.0
 13
1.0
 23
0.0
 33
0.0
 40
0.0
 40
0.0
 40
0.0
 40
0.0
 40
0.1
 40
0.1
 40
0.1
 40
0.1
 40
0.2
 40
0.2
 40
0.2
 40
0.2
 40
0.3
 40
0.3
 40
0.3
 40
0.3
 40
0.4
 40
0.4
 40
0.4
 40
0.4
 40
0.5
 40
0.5
 40
0.5
 40
0.5
 40
0.6
 40
0.6
 40
0.6
 40
0.6
 40
0.7
 40
0.7
 40
0.7
 40
0.7
 40
0.8
 40
0.8
 40
0.8
 40
0.8
 40
1.0
 40
1.0
 40
1.0
 40
1.0
 10
-180.6342
 20
78.1238
 30
0.0
 10
-180.1789
 20
78.6093
 30
0.0
 10
-177.3622
 20
79.5061
 30
0.0
 10
-175.8399
 20
77.6753
 30
0.0
 10
-175.8399
 20
77.6753
 30
0.0
 10
-174.9391
 20
82.4515
 30
0.0
 10
-171.2472
 20
78.7469
 30
0.0
 10
-171.1011
 20
76.6165
 30
0.0
 10
-171.1011
 20
76.6165
 30
0.0
 10
-170.235
 20
73.8216
 30
0.0
 10
-168.2859
 20
70.2613
 30
0.0
 10
-165.0358
 20
67.3567
 30
0.0
 10
-165.0358
 20
67.3567
 30
0.0
 10
-166.8493
 20
72.3693
 30
0.0
 10
-166.6236
 20
78.738
 30
0.0
 10
-165.4799
 20
80.2842
 30
0.0
 10
-165.4799
 20
80.2842
 30
0.0
 10
-168.0476
 20
79.6085
 30
0.0
 10
-168.1852
 20
83.0949
 30
0.0
 10
-168.0104
 20
83.8799
 30
0.0
 10
-168.0104
 20
83.8799
 30
0.0
 10
-172.1223
 20
83.4035
 30
0.0
 10
-168.8286
 20
91.7971
 30
0.0
 10
-165.6092
 20
96.5997
 30
0.0
 10
-165.6092
 20
96.5997
 30
0.0
 10
-176.9334
 20
89.164
 30
0.0
 10
-180.6341
 20
93.0652
 30
0.0
 10
-178.4887
 20
96.2453
 30
0.0
 10
-178.4887
 20
96.2453
 30
0.0
 10
-179.3744
 20
96.195
 30
0.0
 10
-179.8905
 20
96.1625
 30
0.0
 10
-180.6341
 20
96.1272
 30
0.0
 10
-180.6341
 20
96.1272
 30
0.0
 10
-180.6341
 20
96.1272
 30
0.0
 10
-180.6342
 20
78.1238
 30
0.0
 10
-180.6342
 20
78.1238
 30
0.0
  0
SPLINE
  5
7F
330
1F
100
AcDbEntity
  8
layer 1
 62
     7
100
AcDbSpline
210
0.0
220
0.0
230
1.0
 70
    11
 71
     3
 72
    20
 73
    16
 74
     0
 42
0.0000000001
 43
0.0000000001
 12
1.0
 22
0.0
 32
0.0
 13
1.0
 23
0.0
 33
0.0
 40
0.0
 40
0.0
 40
0.0
 40
0.0
 40
0.2
 40
0.2
 40
0.2
 40
0.2
 40
0.4
 40
0.4
 40
0.4
 40
0.4
 40
0.6
 40
0.6
 40
0.6
 40
0.6
 40
1.0
 40
1.0
 40
1.0
 40
1.0
 10
-180.6342
 20
69.0801
 30
0.0
 10
-176.903
 20
66.1015
 30
0.0
 10
-173.9441
 20
64.555
 30
0.0
 10
-168.2423
 20
63.4509
 30
0.0
 10
-168.2423
 20
63.4509
 30
0.0
 10
-175.2604
 20
62.3397
 30
0.0
 10
-180.133
 20
60.5312
 30
0.0
 10
-177.8499
 20
56.907
 30
0.0
 10
-177.8499
 20
56.907
 30
0.0
 10
-179.0967
 20
57.0668
 30
0.0
 10
-180.0591
 20
56.4894
 30
0.0
 10
-180.6341
 20
55.2431
 30
0.0
 10
-180.6341
 20
55.2431
 30
0.0
 10
-180.6341
 20
55.2431
 30
0.0
 10
-180.6342
 20
69.0801
 30
0.0
 10
-180.6342
 20
69.0801
 30
0.0
  0
SPLINE
  5
80
330
1F
100
AcDbEntity
  8
layer 1
 62
     7
100
AcDbSpline
210
0.0
220
0.0
230
1.0
 70
    11
 71
     3
 72
    56
 73
    52
 74
     0
 42
0.0000000001
 43
0.0000000001
 12
1.0
 22
0.0
 32
0.0
 13
1.0
 23
0.0
 33
0.0
 40
0.0
 40
0.0
 40
0.0
 40
0.0
 40
0.0714285714285714
 40
0.0714285714285714
 40
0.0714285714285714
 40
0.0714285714285714
 40
0.1428571428571428
 40
0.1428571428571428
 40
0.1428571428571428
 40
0.1428571428571428
 40
0.2142857142857143
 40
0.2142857142857143
 40
0.2142857142857143
 40
0.2142857142857143
 40
0.2857142857142857
 40
0.2857142857142857
 40
0.2857142857142857
 40
0.2857142857142857
 40
0.3571428571428572
 40
0.3571428571428572
 40
0.3571428571428572
 40
0.3571428571428572
 40
0.4285714285714285
 40
0.4285714285714285
 40
0.4285714285714285
 40
0.4285714285714285
 40
0.5
 40
0.5
 40
0.5
 40
0.5
 40
0.5714285714285714
 40
0.5714285714285714
 40
0.5714285714285714
 40
0.5714285714285714
 40
0.6428571428571429
 40
0.6428571428571429
 40
0.6428571428571429
 40
0.6428571428571429
 40
0.7142857142857143
 40
0.7142857142857143
 40
0.7142857142857143
 40
0.7142857142857143
 40
0.7857142857142857
 40
0.7857142857142857
 40
0.7857142857142857
 40
0.7857142857142857
 40
0.8571428571428571
 40
0.8571428571428571
 40
0.8571428571428571
 40
0.8571428571428571
 40
1.0
 40
1.0
 40
1.0
 40
1.0
 10
-180.6342
 20
52.0082
 30
0.0
 10
-180.0765
 20
51.5619
 30
0.0
 10
-177.393
 20
52.0674
 30
0.0
 10
-176.4261
 20
53.8495
 30
0.0
 10
-176.4261
 20
53.8495
 30
0.0
 10
-175.724
 20
50.0728
 30
0.0
 10
-171.98
 20
52.8546
 30
0.0
 10
-171.0703
 20
53.5831
 30
0.0
 10
-171.0703
 20
53.5831
 30
0.0
 10
-168.3716
 20
56.2577
 30
0.0
 10
-166.5167
 20
57.9787
 30
0.0
 10
-165.4121
 20
59.8291
 30
0.0
 10
-165.4121
 20
59.8291
 30
0.0
 10
-163.5225
 20
44.2924
 30
0.0
 10
-161.6352
 20
43.0394
 30
0.0
 10
-158.8032
 20
46.5448
 30
0.0
 10
-158.8032
 20
46.5448
 30
0.0
 10
-158.1841
 20
44.579
 30
0.0
 10
-156.9702
 20
43.7347
 30
0.0
 10
-155.1836
 20
43.3871
 30
0.0
 10
-155.1836
 20
43.3871
 30
0.0
 10
-157.9416
 20
39.9864
 30
0.0
 10
-159.1991
 20
37.7267
 30
0.0
 10
-161.3883
 20
33.8843
 30
0.0
 10
-161.3883
 20
33.8843
 30
0.0
 10
-161.1805
 20
40.8918
 30
0.0
 10
-163.3803
 20
46.4597
 30
0.0
 10
-166.6567
 20
42.4924
 30
0.0
 10
-166.6567
 20
42.4924
 30
0.0
 10
-169.9114
 20
47.6389
 30
0.0
 10
-174.285
 20
44.8809
 30
0.0
 10
-171.0327
 20
39.9226
 30
0.0
 10
-171.0327
 20
39.9226
 30
0.0
 10
-173.4626
 20
40.0889
 30
0.0
 10
-175.5448
 20
38.7155
 30
0.0
 10
-172.5926
 20
35.7105
 30
0.0
 10
-172.5926
 20
35.7105
 30
0.0
 10
-171.4466
 20
34.545
 30
0.0
 10
-169.7775
 20
33.0316
 30
0.0
 10
-167.5575
 20
30.6869
 30
0.0
 10
-167.5575
 20
30.6869
 30
0.0
 10
-177.4955
 20
36.3473
 30
0.0
 10
-181.848
 20
32.6727
 30
0.0
 10
-176.5117
 20
30.1555
 30
0.0
 10
-176.5117
 20
30.1555
 30
0.0
 10
-177.7602
 20
30.315
 30
0.0
 10
-179.665
 20
31.1549
 30
0.0
 10
-180.6341
 20
29.9086
 30
0.0
 10
-180.6341
 20
29.9086
 30
0.0
 10
-180.6341
 20
29.9086
 30
0.0
 10
-180.6342
 20
52.0082
 30
0.0
 10
-180.6342
 20
52.0082
 30
0.0
  0
SPLINE
  5
81
330
1F
100
AcDbEntity
  8
layer 1
 62
     7
100
AcDbSpline
210
0.0
220
0.0
230
1.0
 70
    11
 71
     3
 72
    68
 73
    64
 74
     0
 42
0.0000000001
 43
0.0000000001
 12
1.0
 22
0.0
 32
0.0
 13
1.0
 23
0.0
 33
0.0
 40
0.0
 40
0.0
 40
0.0
 40
0.0
 40
0.0588235294117647
 40
0.0588235294117647
 40
0.0588235294117647
 40
0.0588235294117647
 40
0.1176470588235294
 40
0.1176470588235294
 40
0.1176470588235294
 40
0.1176470588235294
 40
0.1764705882352941
 40
0.1764705882352941
 40
0.1764705882352941
 40
0.1764705882352941
 40
0.2352941176470588
 40
0.2352941176470588
 40
0.2352941176470588
 40
0.2352941176470588
 40
0.2941176470588235
 40
0.2941176470588235
 40
0.2941176470588235
 40
0.2941176470588235
 40
0.3529411764705883
 40
0.3529411764705883
 40
0.3529411764705883
 40
0.3529411764705883
 40
0.4117647058823529
 40
0.4117647058823529
 40
0.4117647058823529
 40
0.4117647058823529
 40
0.4705882352941176
 40
0.4705882352941176
 40
0.4705882352941176
 40
0.4705882352941176
 40
0.5294117647058824
 40
0.5294117647058824
 40
0.5294117647058824
 40
0.5294117647058824
 40
0.5882352941176471
 40
0.5882352941176471
 40
0.5882352941176471
 40
0.5882352941176471
 40
0.6470588235294118
 40
0.6470588235294118
 40
0.6470588235294118
 40
0.6470588235294118
 40
0.7058823529411765
 40
0.7058823529411765
 40
0.7058823529411765
 40
0.7058823529411765
 40
0.7647058823529411
 40
0.7647058823529411
 40
0.7647058823529411
 40
0.7647058823529411
 40
0.8235294117647058
 40
0.8235294117647058
 40
0.8235294117647058
 40
0.8235294117647058
 40
0.8823529411764706
 40
0.8823529411764706
 40
0.8823529411764706
 40
0.8823529411764706
 40
1.0
 40
1.0
 40
1.0
 40
1.0
 10
-140.5697
 20
13.7723
 30
0.0
 10
-145.2526
 20
14.3041
 30
0.0
 10
-149.67
 20
15.126
 30
0.0
 10
-154.3942
 20
17.814
 30
0.0
 10
-154.3942
 20
17.814
 30
0.0
 10
-150.0093
 20
12.1649
 30
0.0
 10
-157.1102
 20
10.9729
 30
0.0
 10
-158.4836
 20
15.5504
 30
0.0
 10
-158.4836
 20
15.5504
 30
0.0
 10
-158.7636
 20
12.5982
 30
0.0
 10
-161.2091
 20
12.8821
 30
0.0
 10
-161.9963
 20
14.8399
 30
0.0
 10
-161.9963
 20
14.8399
 30
0.0
 10
-162.8926
 20
17.0683
 30
0.0
 10
-163.5314
 20
20.9196
 30
0.0
 10
-164.7363
 20
22.208
 30
0.0
 10
-164.7363
 20
22.208
 30
0.0
 10
-165.4475
 20
20.4298
 30
0.0
 10
-165.3292
 20
14.7083
 30
0.0
 10
-166.7838
 20
11.6072
 30
0.0
 10
-166.7838
 20
11.6072
 30
0.0
 10
-169.3072
 20
6.2274
 30
0.0
 10
-171.7046
 20
10.6274
 30
0.0
 10
-171.947
 20
10.7718
 30
0.0
 10
-171.947
 20
10.7718
 30
0.0
 10
-172.6077
 20
9.6258
 30
0.0
 10
-173.644
 20
8.3291
 30
0.0
 10
-174.4447
 20
8.2893
 30
0.0
 10
-174.4447
 20
8.2893
 30
0.0
 10
-173.644
 20
8.2503
 30
0.0
 10
-172.6077
 20
6.9535
 30
0.0
 10
-171.947
 20
5.8075
 30
0.0
 10
-171.947
 20
5.8075
 30
0.0
 10
-171.7046
 20
5.9519
 30
0.0
 10
-169.3072
 20
10.3542
 30
0.0
 10
-166.7838
 20
4.972
 30
0.0
 10
-166.7838
 20
4.972
 30
0.0
 10
-165.3292
 20
1.8709
 30
0.0
 10
-165.4473
 20
-3.8506
 30
0.0
 10
-164.7363
 20
-5.6287
 30
0.0
 10
-164.7363
 20
-5.6287
 30
0.0
 10
-163.5314
 20
-4.3404
 30
0.0
 10
-162.8926
 20
-0.489
 30
0.0
 10
-161.9963
 20
1.7393
 30
0.0
 10
-161.9963
 20
1.7393
 30
0.0
 10
-161.2091
 20
3.6989
 30
0.0
 10
-158.7636
 20
3.9811
 30
0.0
 10
-158.4836
 20
1.0288
 30
0.0
 10
-158.4836
 20
1.0288
 30
0.0
 10
-157.1102
 20
5.6059
 30
0.0
 10
-150.0092
 20
4.4139
 30
0.0
 10
-154.3942
 20
-1.2348
 30
0.0
 10
-154.3942
 20
-1.2348
 30
0.0
 10
-149.67
 20
1.4527
 30
0.0
 10
-145.2524
 20
2.2751
 30
0.0
 10
-140.5697
 20
2.8065
 30
0.0
 10
-140.5697
 20
2.8065
 30
0.0
 10
-142.853
 20
4.578
 30
0.0
 10
-144.4978
 20
6.0281
 30
0.0
 10
-147.3079
 20
8.2893
 30
0.0
 10
-147.3079
 20
8.2893
 30
0.0
 10
-144.4978
 20
10.5507
 30
0.0
 10
-142.8528
 20
12.0008
 30
0.0
 10
-140.5697
 20
13.7723
 30
0.0
  0
SPLINE
  5
82
330
1F
100
AcDbEntity
  8
layer 1
 62
     7
100
AcDbSpline
210
0.0
220
0.0
230
1.0
 70
    11
 71
     3
 72
    24
 73
    20
 74
     0
 42
0.0000000001
 43
0.0000000001
 12
1.0
 22
0.0
 32
0.0
 13
1.0
 23
0.0
 33
0.0
 40
0.0
 40
0.0
 40
0.0
 40
0.0
 40
0.1666666666666667
 40
0.1666666666666667
 40
0.1666666666666667
 40
0.1666666666666667
 40
0.3333333333333333
 40
0.3333333333333333
 40
0.3333333333333333
 40
0.3333333333333333
 40
0.5
 40
0.5
 40
0.5
 40
0.5
 40
0.6666666666666666
 40
0.6666666666666666
 40
0.6666666666666666
 40
0.6666666666666666
 40
1.0
 40
1.0
 40
1.0
 40
1.0
 10
-140.4516
 20
53.9917
 30
0.0
 10
-150.1208
 20
53.5764
 30
0.0
 10
-155.5555
 20
56.7694
 30
0.0
 10
-160.9572
 20
60.7042
 30
0.0
 10
-160.9572
 20
60.7042
 30
0.0
 10
-159.3851
 20
58.5214
 30
0.0
 10
-156.4517
 20
54.9324
 30
0.0
 10
-153.5169
 20
52.4566
 30
0.0
 10
-153.5169
 20
52.4566
 30
0.0
 10
-151.1133
 20
50.4293
 30
0.0
 10
-152.0932
 20
47.7217
 30
0.0
 10
-155.6209
 20
48.2245
 30
0.0
 10
-155.6209
 20
48.2245
 30
0.0
 10
-154.6305
 20
47.6148
 30
0.0
 10
-153.4972
 20
46.5689
 30
0.0
 10
-153.775
 20
45.1518
 30
0.0
 10
-153.775
 20
45.1518
 30
0.0
 10
-149.9325
 20
49.0906
 30
0.0
 10
-146.3023
 20
51.4421
 30
0.0
 10
-140.4516
 20
53.9917
 30
0.0
  0
SPLINE
  5
83
330
1F
100
AcDbEntity
  8
layer 1
 62
     7
100
AcDbSpline
210
0.0
220
0.0
230
1.0
 70
    11
 71
     3
 72
    40
 73
    36
 74
     0
 42
0.0000000001
 43
0.0000000001
 12
1.0
 22
0.0
 32
0.0
 13
1.0
 23
0.0
 33
0.0
 40
0.0
 40
0.0
 40
0.0
 40
0.0
 40
0.1
 40
0.1
 40
0.1
 40
0.1
 40
0.2
 40
0.2
 40
0.2
 40
0.2
 40
0.3
 40
0.3
 40
0.3
 40
0.3
 40
0.4
 40
0.4
 40
0.4
 40
0.4
 40
0.5
 40
0.5
 40
0.5
 40
0.5
 40
0.6
 40
0.6
 40
0.6
 40
0.6
 40
0.7
 40
0.7
 40
0.7
 40
0.7
 40
0.8
 40
0.8
 40
0.8
 40
0.8
 40
1.0
 40
1.0
 40
1.0
 40
1.0
 10
-134.645
 20
37.5958
 30
0.0
 10
-138.5928
 20
39.0588
 30
0.0
 10
-140.6201
 20
39.9337
 30
0.0
 10
-143.2796
 20
41.456
 30
0.0
 10
-143.2796
 20
41.456
 30
0.0
 10
-144.3361
 20
42.062
 30
0.0
 10
-147.2972
 20
44.9026
 30
0.0
 10
-143.1658
 20
45.3354
 30
0.0
 10
-143.1658
 20
45.3354
 30
0.0
 10
-145.0863
 20
46.6832
 30
0.0
 10
-145.4602
 20
47.7984
 30
0.0
 10
-144.8063
 20
49.4757
 30
0.0
 10
-144.8063
 20
49.4757
 30
0.0
 10
-152.3669
 20
44.3407
 30
0.0
 10
-156.542
 20
40.1107
 30
0.0
 10
-160.6576
 20
31.6424
 30
0.0
 10
-160.6576
 20
31.6424
 30
0.0
 10
-148.0122
 20
39.3784
 30
0.0
 10
-149.1234
 20
33.2219
 30
0.0
 10
-149.4012
 20
31.8043
 30
0.0
 10
-149.4012
 20
31.8043
 30
0.0
 10
-148.5262
 20
32.5221
 30
0.0
 10
-145.8622
 20
32.9375
 30
0.0
 10
-146.1623
 20
31.2466
 30
0.0
 10
-146.1623
 20
31.2466
 30
0.0
 10
-145.4316
 20
31.8659
 30
0.0
 10
-144.9087
 20
32.0014
 30
0.0
 10
-144.2789
 20
31.8659
 30
0.0
 10
-144.2789
 20
31.8659
 30
0.0
 10
-146.4462
 20
33.8518
 30
0.0
 10
-145.108
 20
35.1289
 30
0.0
 10
-142.6871
 20
35.9883
 30
0.0
 10
-142.6871
 20
35.9883
 30
0.0
 10
-140.2875
 20
36.8393
 30
0.0
 10
-138.6235
 20
36.4715
 30
0.0
 10
-134.645
 20
37.5958
 30
0.0
  0
SPLINE
  5
84
330
1F
100
AcDbEntity
  8
layer 1
 62
     7
100
AcDbSpline
210
0.0
220
0.0
230
1.0
 70
    11
 71
     3
 72
    44
 73
    40
 74
     0
 42
0.0000000001
 43
0.0000000001
 12
1.0
 22
0.0
 32
0.0
 13
1.0
 23
0.0
 33
0.0
 40
0.0
 40
0.0
 40
0.0
 40
0.0
 40
0.0909090909090909
 40
0.0909090909090909
 40
0.0909090909090909
 40
0.0909090909090909
 40
0.1818181818181818
 40
0.1818181818181818
 40
0.1818181818181818
 40
0.1818181818181818
 40
0.2727272727272727
 40
0.2727272727272727
 40
0.2727272727272727
 40
0.2727272727272727
 40
0.3636363636363636
 40
0.3636363636363636
 40
0.3636363636363636
 40
0.3636363636363636
 40
0.4545454545454545
 40
0.4545454545454545
 40
0.4545454545454545
 40
0.4545454545454545
 40
0.5454545454545454
 40
0.5454545454545454
 40
0.5454545454545454
 40
0.5454545454545454
 40
0.6363636363636364
 40
0.6363636363636364
 40
0.6363636363636364
 40
0.6363636363636364
 40
0.7272727272727273
 40
0.7272727272727273
 40
0.7272727272727273
 40
0.7272727272727273
 40
0.8181818181818182
 40
0.8181818181818182
 40
0.8181818181818182
 40
0.8181818181818182
 40
1.0
 40
1.0
 40
1.0
 40
1.0
 10
-131.2947
 20
33.8759
 30
0.0
 10
-131.1811
 20
31.7673
 30
0.0
 10
-131.3317
 20
28.804
 30
0.0
 10
-131.4414
 20
25.4273
 30
0.0
 10
-131.4414
 20
25.4273
 30
0.0
 10
-131.4806
 20
24.2112
 30
0.0
 10
-128.9544
 20
21.9891
 30
0.0
 10
-127.3515
 20
25.0796
 30
0.0
 10
-127.3515
 20
25.0796
 30
0.0
 10
-127.3537
 20
23.6536
 30
0.0
 10
-126.6343
 20
22.6189
 30
0.0
 10
-125.3701
 20
22.1643
 30
0.0
 10
-125.3701
 20
22.1643
 30
0.0
 10
-132.0932
 20
17.3354
 30
0.0
 10
-141.7549
 20
13.0595
 30
0.0
 10
-151.0982
 20
18.2692
 30
0.0
 10
-151.0982
 20
18.2692
 30
0.0
 10
-151.0132
 20
21.1997
 30
0.0
 10
-156.9416
 20
24.5808
 30
0.0
 10
-158.2495
 20
25.1866
 30
0.0
 10
-158.2495
 20
25.1866
 30
0.0
 10
-145.5762
 20
23.1939
 30
0.0
 10
-145.7705
 20
27.3847
 30
0.0
 10
-149.3004
 20
28.2855
 30
0.0
 10
-149.3004
 20
28.2855
 30
0.0
 10
-148.8195
 20
28.3291
 30
0.0
 10
-148.4432
 20
28.3358
 30
0.0
 10
-147.9685
 20
28.7971
 30
0.0
 10
-147.9685
 20
28.7971
 30
0.0
 10
-147.3191
 20
27.1831
 30
0.0
 10
-144.4081
 20
26.7306
 30
0.0
 10
-142.8047
 20
28.9657
 30
0.0
 10
-142.8047
 20
28.9657
 30
0.0
 10
-143.461
 20
26.3018
 30
0.0
 10
-141.311
 20
25.7878
 30
0.0
 10
-139.194
 20
27.2447
 30
0.0
 10
-139.194
 20
27.2447
 30
0.0
 10
-137.0945
 20
28.6857
 30
0.0
 10
-134.1378
 20
31.3866
 30
0.0
 10
-131.2947
 20
33.8759
 30
0.0
  0
SPLINE
  5
85
330
1F
100
AcDbEntity
  8
layer 1
 62
     7
100
AcDbSpline
210
0.0
220
0.0
230
1.0
 70
    11
 71
     3
 72
    36
 73
    32
 74
     0
 42
0.0000000001
 43
0.0000000001
 12
1.0
 22
0.0
 32
0.0
 13
1.0
 23
0.0
 33
0.0
 40
0.0
 40
0.0
 40
0.0
 40
0.0
 40
0.1111111111111111
 40
0.1111111111111111
 40
0.1111111111111111
 40
0.1111111111111111
 40
0.2222222222222222
 40
0.2222222222222222
 40
0.2222222222222222
 40
0.2222222222222222
 40
0.3333333333333333
 40
0.3333333333333333
 40
0.3333333333333333
 40
0.3333333333333333
 40
0.4444444444444444
 40
0.4444444444444444
 40
0.4444444444444444
 40
0.4444444444444444
 40
0.5555555555555556
 40
0.5555555555555556
 40
0.5555555555555556
 40
0.5555555555555556
 40
0.6666666666666666
 40
0.6666666666666666
 40
0.6666666666666666
 40
0.6666666666666666
 40
0.7777777777777778
 40
0.7777777777777778
 40
0.7777777777777778
 40
0.7777777777777778
 40
1.0
 40
1.0
 40
1.0
 40
1.0
 10
-133.7291
 20
106.1463
 30
0.0
 10
-139.0894
 20
106.8348
 30
0.0
 10
-146.8968
 20
108.0465
 30
0.0
 10
-149.5562
 20
109.5711
 30
0.0
 10
-149.5562
 20
109.5711
 30
0.0
 10
-150.6129
 20
110.1746
 30
0.0
 10
-152.6009
 20
112.3441
 30
0.0
 10
-150.3502
 20
113.7176
 30
0.0
 10
-150.3502
 20
113.7176
 30
0.0
 10
-151.6973
 20
114.0217
 30
0.0
 10
-152.5439
 20
114.5002
 30
0.0
 10
-152.8983
 20
115.4716
 30
0.0
 10
-152.8983
 20
115.4716
 30
0.0
 10
-154.3417
 20
109.2935
 30
0.0
 10
-155.1903
 20
106.0387
 30
0.0
 10
-159.7763
 20
100.8995
 30
0.0
 10
-159.7763
 20
100.8995
 30
0.0
 10
-157.6858
 20
103.5675
 30
0.0
 10
-152.7689
 20
105.1703
 30
0.0
 10
-150.8575
 20
105.6452
 30
0.0
 10
-150.8575
 20
105.6452
 30
0.0
 10
-145.9938
 20
106.5331
 30
0.0
 10
-147.5878
 20
103.8127
 30
0.0
 10
-147.4635
 20
103.1392
 30
0.0
 10
-147.4635
 20
103.1392
 30
0.0
 10
-146.4704
 20
104.1167
 30
0.0
 10
-143.7979
 20
104.0008
 30
0.0
 10
-144.2923
 20
101.783
 30
0.0
 10
-144.2923
 20
101.783
 30
0.0
 10
-141.7969
 20
104.0814
 30
0.0
 10
-134.4485
 20
105.223
 30
0.0
 10
-133.7291
 20
106.1463
 30
0.0
  0
SPLINE
  5
86
330
1F
100
AcDbEntity
  8
layer 1
 62
     7
100
AcDbSpline
210
0.0
220
0.0
230
1.0
 70
    11
 71
     3
 72
    16
 73
    12
 74
     0
 42
0.0000000001
 43
0.0000000001
 12
1.0
 22
0.0
 32
0.0
 13
1.0
 23
0.0
 33
0.0
 40
0.0
 40
0.0
 40
0.0
 40
0.0
 40
0.25
 40
0.25
 40
0.25
 40
0.25
 40
0.5
 40
0.5
 40
0.5
 40
0.5
 40
1.0
 40
1.0
 40
1.0
 40
1.0
 10
-104.9909
 20
31.3866
 30
0.0
 10
-109.7018
 20
27.3342
 30
0.0
 10
-111.7577
 20
25.4973
 30
0.0
 10
-114.7407
 20
19.2748
 30
0.0
 10
-114.7407
 20
19.2748
 30
0.0
 10
-115.6965
 20
21.5211
 30
0.0
 10
-117.3722
 20
22.1597
 30
0.0
 10
-120.2807
 20
22.5752
 30
0.0
 10
-120.2807
 20
22.5752
 30
0.0
 10
-114.0408
 20
26.724
 30
0.0
 10
-110.0238
 20
28.3772
 30
0.0
 10
-104.9909
 20
31.3866
 30
0.0
  0
SPLINE
  5
87
330
1F
100
AcDbEntity
  8
layer 1
 62
     7
100
AcDbSpline
210
0.0
220
0.0
230
1.0
 70
    11
 71
     3
 72
    24
 73
    20
 74
     0
 42
0.0000000001
 43
0.0000000001
 12
1.0
 22
0.0
 32
0.0
 13
1.0
 23
0.0
 33
0.0
 40
0.0
 40
0.0
 40
0.0
 40
0.0
 40
0.1666666666666667
 40
0.1666666666666667
 40
0.1666666666666667
 40
0.1666666666666667
 40
0.3333333333333333
 40
0.3333333333333333
 40
0.3333333333333333
 40
0.3333333333333333
 40
0.5
 40
0.5
 40
0.5
 40
0.5
 40
0.6666666666666666
 40
0.6666666666666666
 40
0.6666666666666666
 40
0.6666666666666666
 40
1.0
 40
1.0
 40
1.0
 40
1.0
 10
-71.6193
 20
32.7999
 30
0.0
 10
-75.2234
 20
31.8222
 30
0.0
 10
-77.8939
 20
31.2142
 30
0.0
 10
-82.5348
 20
26.7111
 30
0.0
 10
-82.5348
 20
26.7111
 30
0.0
 10
-82.0886
 20
28.7429
 30
0.0
 10
-81.1087
 20
30.5423
 30
0.0
 10
-80.8289
 20
32.465
 30
0.0
 10
-80.8289
 20
32.465
 30
0.0
 10
-80.5293
 20
34.5275
 30
0.0
 10
-82.5302
 20
34.289
 30
0.0
 10
-84.0173
 20
32.2092
 30
0.0
 10
-84.0173
 20
32.2092
 30
0.0
 10
-83.7027
 20
33.3899
 30
0.0
 10
-83.1692
 20
35.0875
 30
0.0
 10
-84.2032
 20
35.2358
 30
0.0
 10
-84.2032
 20
35.2358
 30
0.0
 10
-79.7465
 20
35.2689
 30
0.0
 10
-75.6062
 20
34.8316
 30
0.0
 10
-71.6193
 20
32.7999
 30
0.0
  0
SPLINE
  5
88
330
1F
100
AcDbEntity
  8
layer 1
 62
     7
100
AcDbSpline
210
0.0
220
0.0
230
1.0
 70
    11
 71
     3
 72
    16
 73
    12
 74
     0
 42
0.0000000001
 43
0.0000000001
 12
1.0
 22
0.0
 32
0.0
 13
1.0
 23
0.0
 33
0.0
 40
0.0
 40
0.0
 40
0.0
 40
0.0
 40
0.25
 40
0.25
 40
0.25
 40
0.25
 40
0.5
 40
0.5
 40
0.5
 40
0.5
 40
1.0
 40
1.0
 40
1.0
 40
1.0
 10
-68.3805
 20
59.9518
 30
0.0
 10
-64.2536
 20
52.9159
 30
0.0
 10
-55.4266
 20
37.3812
 30
0.0
 10
-51.7263
 20
28.8935
 30
0.0
 10
-51.7263
 20
28.8935
 30
0.0
 10
-57.432
 20
33.0181
 30
0.0
 10
-67.5603
 20
37.9675
 30
0.0
 10
-70.5236
 20
43.1856
 30
0.0
 10
-70.5236
 20
43.1856
 30
0.0
 10
-73.673
 20
49.0491
 30
0.0
 10
-71.2016
 20
56.9424
 30
0.0
 10
-68.3805
 20
59.9518
 30
0.0
  0
SPLINE
  5
89
330
1F
100
AcDbEntity
  8
layer 1
 62
     7
100
AcDbSpline
210
0.0
220
0.0
230
1.0
 70
    11
 71
     3
 72
    16
 73
    12
 74
     0
 42
0.0000000001
 43
0.0000000001
 12
1.0
 22
0.0
 32
0.0
 13
1.0
 23
0.0
 33
0.0
 40
0.0
 40
0.0
 40
0.0
 40
0.0
 40
0.25
 40
0.25
 40
0.25
 40
0.25
 40
0.5
 40
0.5
 40
0.5
 40
0.5
 40
1.0
 40
1.0
 40
1.0
 40
1.0
 10
-41.2986
 20
51.4047
 30
0.0
 10
-41.2986
 20
51.4047
 30
0.0
 10
-41.2986
 20
19.1897
 30
0.0
 10
-41.2986
 20
19.1897
 30
0.0
 10
-41.2986
 20
19.1897
 30
0.0
 10
-43.0286
 20
25.1361
 30
0.0
 10
-50.088
 20
32.6245
 30
0.0
 10
-49.3507
 20
39.9428
 30
0.0
 10
-49.3507
 20
39.9428
 30
0.0
 10
-48.9112
 20
45.6395
 30
0.0
 10
-46.3284
 20
48.3975
 30
0.0
 10
-41.2986
 20
51.4047
 30
0.0
  0
SPLINE
  5
8A
330
1F
100
AcDbEntity
  8
layer 1
 62
     7
100
AcDbSpline
210
0.0
220
0.0
230
1.0
 70
    11
 71
     3
 72
    16
 73
    12
 74
     0
 42
0.0000000001
 43
0.0000000001
 12
1.0
 22
0.0
 32
0.0
 13
1.0
 23
0.0
 33
0.0
 40
0.0
 40
0.0
 40
0.0
 40
0.0
 40
0.25
 40
0.25
 40
0.25
 40
0.25
 40
0.5
 40
0.5
 40
0.5
 40
0.5
 40
1.0
 40
1.0
 40
1.0
 40
1.0
 10
-85.6556
 20
82.7186
 30
0.0
 10
-81.05
 20
77.6753
 30
0.0
 10
-74.5324
 20
70.4186
 30
0.0
 10
-69.9548
 20
62.0905
 30
0.0
 10
-69.9548
 20
62.0905
 30
0.0
 10
-74.5475
 20
57.2201
 30
0.0
 10
-76.3958
 20
49.4299
 30
0.0
 10
-74.9809
 20
45.2548
 30
0.0
 10
-74.9809
 20
45.2548
 30
0.0
 10
-90.3121
 20
59.0005
 30
0.0
 10
-87.9191
 20
78.117
 30
0.0
 10
-85.6556
 20
82.7186
 30
0.0
  0
SPLINE
  5
8B
330
1F
100
AcDbEntity
  8
layer 1
 62
     7
100
AcDbSpline
210
0.0
220
0.0
230
1.0
 70
    11
 71
     3
 72
    16
 73
    12
 74
     0
 42
0.0000000001
 43
0.0000000001
 12
1.0
 22
0.0
 32
0.0
 13
1.0
 23
0.0
 33
0.0
 40
0.0
 40
0.0
 40
0.0
 40
0.0
 40
0.25
 40
0.25
 40
0.25
 40
0.25
 40
0.5
 40
0.5
 40
0.5
 40
0.5
 40
1.0
 40
1.0
 40
1.0
 40
1.0
 10
-73.7935
 20
72.4791
 30
0.0
 10
-73.4519
 20
71.6919
 30
0.0
 10
-71.3854
 20
71.4707
 30
0.0
 10
-70.1345
 20
71.5143
 30
0.0
 10
-70.1345
 20
71.5143
 30
0.0
 10
-71.7223
 20
71.0877
 30
0.0
 10
-71.6916
 20
69.87
 30
0.0
 10
-71.5863
 20
69.2183
 30
0.0
 10
-71.5863
 20
69.2183
 30
0.0
 10
-72.7173
 20
71.3677
 30
0.0
 10
-73.2139
 20
71.4465
 30
0.0
 10
-73.7935
 20
72.4791
 30
0.0
  0
SPLINE
  5
8C
330
1F
100
AcDbEntity
  8
layer 1
 62
     7
100
AcDbSpline
210
0.0
220
0.0
230
1.0
 70
    11
 71
     3
 72
    16
 73
    12
 74
     0
 42
0.0000000001
 43
0.0000000001
 12
1.0
 22
0.0
 32
0.0
 13
1.0
 23
0.0
 33
0.0
 40
0.0
 40
0.0
 40
0.0
 40
0.0
 40
0.25
 40
0.25
 40
0.25
 40
0.25
 40
0.5
 40
0.5
 40
0.5
 40
0.5
 40
1.0
 40
1.0
 40
1.0
 40
1.0
 10
-70.7163
 20
67.9826
 30
0.0
 10
-68.3564
 20
67.5319
 30
0.0
 10
-64.5095
 20
67.4792
 30
0.0
 10
-61.4782
 20
67.7877
 30
0.0
 10
-61.4782
 20
67.7877
 30
0.0
 10
-63.066
 20
67.3613
 30
0.0
 10
-66.8582
 20
65.5657
 30
0.0
 10
-67.8598
 20
63.615
 30
0.0
 10
-67.8598
 20
63.615
 30
0.0
 10
-69.1588
 20
65.6687
 30
0.0
 10
-69.8479
 20
66.7358
 30
0.0
 10
-70.7163
 20
67.9826
 30
0.0
  0
SPLINE
  5
8D
330
1F
100
AcDbEntity
  8
layer 1
 62
     7
100
AcDbSpline
210
0.0
220
0.0
230
1.0
 70
    11
 71
     3
 72
    16
 73
    12
 74
     0
 42
0.0000000001
 43
0.0000000001
 12
1.0
 22
0.0
 32
0.0
 13
1.0
 23
0.0
 33
0.0
 40
0.0
 40
0.0
 40
0.0
 40
0.0
 40
0.25
 40
0.25
 40
0.25
 40
0.25
 40
0.5
 40
0.5
 40
0.5
 40
0.5
 40
1.0
 40
1.0
 40
1.0
 40
1.0
 10
-66.7009
 20
61.7798
 30
0.0
 10
-65.9266
 20
62.6744
 30
0.0
 10
-63.9316
 20
64.2314
 30
0.0
 10
-62.0795
 20
64.9251
 30
0.0
 10
-62.0795
 20
64.9251
 30
0.0
 10
-63.7637
 20
63.4662
 30
0.0
 10
-65.3908
 20
62.0316
 30
0.0
 10
-65.5503
 20
59.9842
 30
0.0
 10
-65.5503
 20
59.9842
 30
0.0
 10
-66.1538
 20
60.9556
 30
0.0
 10
-66.2411
 20
61.1084
 30
0.0
 10
-66.7009
 20
61.7798
 30
0.0
  0
SPLINE
  5
8E
330
1F
100
AcDbEntity
  8
layer 1
 62
     7
100
AcDbSpline
210
0.0
220
0.0
230
1.0
 70
    11
 71
     3
 72
    16
 73
    12
 74
     0
 42
0.0000000001
 43
0.0000000001
 12
1.0
 22
0.0
 32
0.0
 13
1.0
 23
0.0
 33
0.0
 40
0.0
 40
0.0
 40
0.0
 40
0.0
 40
0.25
 40
0.25
 40
0.25
 40
0.25
 40
0.5
 40
0.5
 40
0.5
 40
0.5
 40
1.0
 40
1.0
 40
1.0
 40
1.0
 10
-64.8964
 20
58.6786
 30
0.0
 10
-64.4131
 20
58.5387
 30
0.0
 10
-63.3544
 20
58.8229
 30
0.0
 10
-62.6328
 20
59.2278
 30
0.0
 10
-62.6328
 20
59.2278
 30
0.0
 10
-63.3303
 20
58.4166
 30
0.0
 10
-63.6366
 20
57.9199
 30
0.0
 10
-63.748
 20
57.0033
 30
0.0
 10
-63.748
 20
57.0033
 30
0.0
 10
-64.35
 20
57.9749
 30
0.0
 10
-64.4373
 20
58.0073
 30
0.0
 10
-64.8964
 20
58.6786
 30
0.0
  0
SPLINE
  5
8F
330
1F
100
AcDbEntity
  8
layer 1
 62
     7
100
AcDbSpline
210
0.0
220
0.0
230
1.0
 70
    11
 71
     3
 72
    56
 73
    52
 74
     0
 42
0.0000000001
 43
0.0000000001
 12
1.0
 22
0.0
 32
0.0
 13
1.0
 23
0.0
 33
0.0
 40
0.0
 40
0.0
 40
0.0
 40
0.0
 40
0.0714285714285714
 40
0.0714285714285714
 40
0.0714285714285714
 40
0.0714285714285714
 40
0.1428571428571428
 40
0.1428571428571428
 40
0.1428571428571428
 40
0.1428571428571428
 40
0.2142857142857143
 40
0.2142857142857143
 40
0.2142857142857143
 40
0.2142857142857143
 40
0.2857142857142857
 40
0.2857142857142857
 40
0.2857142857142857
 40
0.2857142857142857
 40
0.3571428571428572
 40
0.3571428571428572
 40
0.3571428571428572
 40
0.3571428571428572
 40
0.4285714285714285
 40
0.4285714285714285
 40
0.4285714285714285
 40
0.4285714285714285
 40
0.5
 40
0.5
 40
0.5
 40
0.5
 40
0.5714285714285714
 40
0.5714285714285714
 40
0.5714285714285714
 40
0.5714285714285714
 40
0.6428571428571429
 40
0.6428571428571429
 40
0.6428571428571429
 40
0.6428571428571429
 40
0.7142857142857143
 40
0.7142857142857143
 40
0.7142857142857143
 40
0.7142857142857143
 40
0.7857142857142857
 40
0.7857142857142857
 40
0.7857142857142857
 40
0.7857142857142857
 40
0.8571428571428571
 40
0.8571428571428571
 40
0.8571428571428571
 40
0.8571428571428571
 40
1.0
 40
1.0
 40
1.0
 40
1.0
 10
-84.8051
 20
86.5219
 30
0.0
 10
-80.9078
 20
95.5914
 30
0.0
 10
-64.1724
 20
101.717
 30
0.0
 10
-62.9194
 20
101.7613
 30
0.0
 10
-62.9194
 20
101.7613
 30
0.0
 10
-65.15
 20
96.9211
 30
0.0
 10
-66.8101
 20
94.8982
 30
0.0
 10
-68.5114
 20
91.5955
 30
0.0
 10
-68.5114
 20
91.5955
 30
0.0
 10
-69.3249
 20
90.019
 30
0.0
 10
-70.2829
 20
84.9996
 30
0.0
 10
-66.4187
 20
86.2465
 30
0.0
 10
-66.4187
 20
86.2465
 30
0.0
 10
-67.0945
 20
82.5614
 30
0.0
 10
-63.4071
 20
82.0451
 30
0.0
 10
-62.5214
 20
85.3322
 30
0.0
 10
-62.5214
 20
85.3322
 30
0.0
 10
-55.9254
 20
84.2824
 30
0.0
 10
-60.26
 20
93.0848
 30
0.0
 10
-59.7769
 20
97.2101
 30
0.0
 10
-59.7769
 20
97.2101
 30
0.0
 10
-59.3676
 20
96.8776
 30
0.0
 10
-56.7192
 20
90.1656
 30
0.0
 10
-54.0704
 20
88.7525
 30
0.0
 10
-54.0704
 20
88.7525
 30
0.0
 10
-55.1136
 20
87.7883
 30
0.0
 10
-55.4921
 20
86.2616
 30
0.0
 10
-55.2407
 20
84.9167
 30
0.0
 10
-55.2407
 20
84.9167
 30
0.0
 10
-58.0732
 20
85.7063
 30
0.0
 10
-58.6307
 20
84.1267
 30
0.0
 10
-58.6021
 20
82.1302
 30
0.0
 10
-58.6021
 20
82.1302
 30
0.0
 10
-58.7751
 20
78.6572
 30
0.0
 10
-57.9897
 20
76.3915
 30
0.0
 10
-57.8933
 20
72.4415
 30
0.0
 10
-57.8933
 20
72.4415
 30
0.0
 10
-60.7718
 20
74.6508
 30
0.0
 10
-62.2503
 20
76.1747
 30
0.0
 10
-65.4276
 20
77.8264
 30
0.0
 10
-65.4276
 20
77.8264
 30
0.0
 10
-69.6093
 20
80.0
 30
0.0
 10
-70.4297
 20
76.4945
 30
0.0
 10
-69.4649
 20
75.648
 30
0.0
 10
-69.4649
 20
75.648
 30
0.0
 10
-72.354
 20
76.3064
 30
0.0
 10
-74.8297
 20
75.7902
 30
0.0
 10
-75.145
 20
74.4101
 30
0.0
 10
-75.145
 20
74.4101
 30
0.0
 10
-76.2753
 20
76.56
 30
0.0
 10
-84.2273
 20
85.4895
 30
0.0
 10
-84.8051
 20
86.5219
 30
0.0
  0
SPLINE
  5
90
330
1F
100
AcDbEntity
  8
layer 1
 62
     7
100
AcDbSpline
210
0.0
220
0.0
230
1.0
 70
    11
 71
     3
 72
    20
 73
    16
 74
     0
 42
0.0000000001
 43
0.0000000001
 12
1.0
 22
0.0
 32
0.0
 13
1.0
 23
0.0
 33
0.0
 40
0.0
 40
0.0
 40
0.0
 40
0.0
 40
0.2
 40
0.2
 40
0.2
 40
0.2
 40
0.4
 40
0.4
 40
0.4
 40
0.4
 40
0.6
 40
0.6
 40
0.6
 40
0.6
 40
1.0
 40
1.0
 40
1.0
 40
1.0
 10
-102.1155
 20
125.0203
 30
0.0
 10
-102.1155
 20
125.0203
 30
0.0
 10
-88.8816
 20
125.0203
 30
0.0
 10
-88.8816
 20
125.0203
 30
0.0
 10
-88.8816
 20
125.0203
 30
0.0
 10
-89.3625
 20
124.8911
 30
0.0
 10
-90.4979
 20
123.638
 30
0.0
 10
-89.586
 20
122.1307
 30
0.0
 10
-89.586
 20
122.1307
 30
0.0
 10
-94.6774
 20
126.2382
 30
0.0
 10
-91.9609
 20
115.981
 30
0.0
 10
-92.3808
 20
113.9229
 30
0.0
 10
-92.3808
 20
113.9229
 30
0.0
 10
-93.8437
 20
116.812
 30
0.0
 10
-98.5524
 20
123.2836
 30
0.0
 10
-102.1155
 20
125.0203
 30
0.0
  0
SPLINE
  5
91
330
1F
100
AcDbEntity
  8
layer 1
 62
     7
100
AcDbSpline
210
0.0
220
0.0
230
1.0
 70
    11
 71
     3
 72
    36
 73
    32
 74
     0
 42
0.0000000001
 43
0.0000000001
 12
1.0
 22
0.0
 32
0.0
 13
1.0
 23
0.0
 33
0.0
 40
0.0
 40
0.0
 40
0.0
 40
0.0
 40
0.1111111111111111
 40
0.1111111111111111
 40
0.1111111111111111
 40
0.1111111111111111
 40
0.2222222222222222
 40
0.2222222222222222
 40
0.2222222222222222
 40
0.2222222222222222
 40
0.3333333333333333
 40
0.3333333333333333
 40
0.3333333333333333
 40
0.3333333333333333
 40
0.4444444444444444
 40
0.4444444444444444
 40
0.4444444444444444
 40
0.4444444444444444
 40
0.5555555555555556
 40
0.5555555555555556
 40
0.5555555555555556
 40
0.5555555555555556
 40
0.6666666666666666
 40
0.6666666666666666
 40
0.6666666666666666
 40
0.6666666666666666
 40
0.7777777777777778
 40
0.7777777777777778
 40
0.7777777777777778
 40
0.7777777777777778
 40
1.0
 40
1.0
 40
1.0
 40
1.0
 10
-111.7907
 20
125.0203
 30
0.0
 10
-111.7907
 20
125.0203
 30
0.0
 10
-129.3307
 20
125.0203
 30
0.0
 10
-129.3307
 20
125.0203
 30
0.0
 10
-129.3307
 20
125.0203
 30
0.0
 10
-128.8497
 20
124.8911
 30
0.0
 10
-128.0513
 20
124.5193
 30
0.0
 10
-128.9633
 20
123.0127
 30
0.0
 10
-128.9633
 20
123.0127
 30
0.0
 10
-126.7457
 20
124.8015
 30
0.0
 10
-124.5191
 20
123.0865
 30
0.0
 10
-124.0555
 20
120.5256
 30
0.0
 10
-124.0555
 20
120.5256
 30
0.0
 10
-123.4542
 20
117.2102
 30
0.0
 10
-124.6438
 20
113.0507
 30
0.0
 10
-124.7446
 20
111.2462
 30
0.0
 10
-124.7446
 20
111.2462
 30
0.0
 10
-122.8814
 20
113.5949
 30
0.0
 10
-118.6381
 20
125.6743
 30
0.0
 10
-115.603
 20
119.0693
 30
0.0
 10
-115.603
 20
119.0693
 30
0.0
 10
-115.1523
 20
120.351
 30
0.0
 10
-112.5057
 20
121.1426
 30
0.0
 10
-111.6071
 20
118.1966
 30
0.0
 10
-111.6071
 20
118.1966
 30
0.0
 10
-111.6726
 20
119.43
 30
0.0
 10
-110.9375
 20
120.5805
 30
0.0
 10
-109.5603
 20
120.6549
 30
0.0
 10
-109.5603
 20
120.6549
 30
0.0
 10
-114.7934
 20
121.6281
 30
0.0
 10
-113.1422
 20
124.6245
 30
0.0
 10
-111.7907
 20
125.0203
 30
0.0
  0
SPLINE
  5
92
330
1F
100
AcDbEntity
  8
layer 1
 62
     7
100
AcDbSpline
210
0.0
220
0.0
230
1.0
 70
    11
 71
     3
 72
    28
 73
    24
 74
     0
 42
0.0000000001
 43
0.0000000001
 12
1.0
 22
0.0
 32
0.0
 13
1.0
 23
0.0
 33
0.0
 40
0.0
 40
0.0
 40
0.0
 40
0.0
 40
0.1428571428571428
 40
0.1428571428571428
 40
0.1428571428571428
 40
0.1428571428571428
 40
0.2857142857142857
 40
0.2857142857142857
 40
0.2857142857142857
 40
0.2857142857142857
 40
0.4285714285714285
 40
0.4285714285714285
 40
0.4285714285714285
 40
0.4285714285714285
 40
0.5714285714285714
 40
0.5714285714285714
 40
0.5714285714285714
 40
0.5714285714285714
 40
0.7142857142857143
 40
0.7142857142857143
 40
0.7142857142857143
 40
0.7142857142857143
 40
1.0
 40
1.0
 40
1.0
 40
1.0
 10
-95.0207
 20
110.4216
 30
0.0
 10
-101.7281
 20
113.5205
 30
0.0
 10
-109.9359
 20
112.6571
 30
0.0
 10
-111.9834
 20
116.1932
 30
0.0
 10
-111.9834
 20
116.1932
 30
0.0
 10
-109.5618
 20
111.955
 30
0.0
 10
-117.2646
 20
106.518
 30
0.0
 10
-124.3466
 20
105.7347
 30
0.0
 10
-124.3466
 20
105.7347
 30
0.0
 10
-118.4197
 20
105.0416
 30
0.0
 10
-114.6382
 20
103.7142
 30
0.0
 10
-108.9388
 20
101.3195
 30
0.0
 10
-108.9388
 20
101.3195
 30
0.0
 10
-108.7024
 20
102.8829
 30
0.0
 10
-107.9808
 20
103.76
 30
0.0
 10
-106.6118
 20
104.2017
 30
0.0
 10
-106.6118
 20
104.2017
 30
0.0
 10
-109.2624
 20
105.1795
 30
0.0
 10
-107.9197
 20
106.99
 30
0.0
 10
-106.2687
 20
108.0313
 30
0.0
 10
-106.2687
 20
108.0313
 30
0.0
 10
-101.9755
 20
110.9293
 30
0.0
 10
-95.7401
 20
109.5011
 30
0.0
 10
-95.0207
 20
110.4216
 30
0.0
  0
SPLINE
  5
93
330
1F
100
AcDbEntity
  8
layer 1
 62
     7
100
AcDbSpline
210
0.0
220
0.0
230
1.0
 70
    11
 71
     3
 72
    40
 73
    36
 74
     0
 42
0.0000000001
 43
0.0000000001
 12
1.0
 22
0.0
 32
0.0
 13
1.0
 23
0.0
 33
0.0
 40
0.0
 40
0.0
 40
0.0
 40
0.0
 40
0.1
 40
0.1
 40
0.1
 40
0.1
 40
0.2
 40
0.2
 40
0.2
 40
0.2
 40
0.3
 40
0.3
 40
0.3
 40
0.3
 40
0.4
 40
0.4
 40
0.4
 40
0.4
 40
0.5
 40
0.5
 40
0.5
 40
0.5
 40
0.6
 40
0.6
 40
0.6
 40
0.6
 40
0.7
 40
0.7
 40
0.7
 40
0.7
 40
0.8
 40
0.8
 40
0.8
 40
0.8
 40
1.0
 40
1.0
 40
1.0
 40
1.0
 10
-93.5593
 20
98.242
 30
0.0
 10
-95.823
 20
95.8497
 30
0.0
 10
-96.6762
 20
97.6646
 30
0.0
 10
-95.7687
 20
99.7491
 30
0.0
 10
-95.7687
 20
99.7491
 30
0.0
 10
-94.4367
 20
102.8023
 30
0.0
 10
-94.4389
 20
104.0881
 30
0.0
 10
-93.8528
 20
106.9659
 30
0.0
 10
-93.8528
 20
106.9659
 30
0.0
 10
-95.7401
 20
104.9169
 30
0.0
 10
-97.8968
 20
101.7434
 30
0.0
 10
-100.3261
 20
100.2607
 30
0.0
 10
-100.3261
 20
100.2607
 30
0.0
 10
-102.4739
 20
98.9508
 30
0.0
 10
-104.2957
 20
98.8567
 30
0.0
 10
-104.1254
 20
101.6453
 30
0.0
 10
-104.1254
 20
101.6453
 30
0.0
 10
-104.6281
 20
100.7726
 30
0.0
 10
-105.6997
 20
100.2585
 30
0.0
 10
-106.9965
 20
100.239
 30
0.0
 10
-106.9965
 20
100.239
 30
0.0
 10
-99.5064
 20
97.7676
 30
0.0
 10
-92.2957
 20
92.2713
 30
0.0
 10
-87.2893
 20
88.4424
 30
0.0
 10
-87.2893
 20
88.4424
 30
0.0
 10
-86.0995
 20
92.3089
 30
0.0
 10
-85.6382
 20
96.3545
 30
0.0
 10
-86.2244
 20
99.5739
 30
0.0
 10
-86.2244
 20
99.5739
 30
0.0
 10
-87.0951
 20
95.8211
 30
0.0
 10
-89.4414
 20
96.4597
 30
0.0
 10
-89.7018
 20
97.8903
 30
0.0
 10
-89.7018
 20
97.8903
 30
0.0
 10
-90.0518
 20
92.1493
 30
0.0
 10
-94.8874
 20
94.1502
 30
0.0
 10
-93.5593
 20
98.242
 30
0.0
  0
SPLINE
  5
94
330
1F
100
AcDbEntity
  8
layer 1
 62
     7
100
AcDbSpline
210
0.0
220
0.0
230
1.0
 70
    11
 71
     3
 72
    36
 73
    32
 74
     0
 42
0.0000000001
 43
0.0000000001
 12
1.0
 22
0.0
 32
0.0
 13
1.0
 23
0.0
 33
0.0
 40
0.0
 40
0.0
 40
0.0
 40
0.0
 40
0.1111111111111111
 40
0.1111111111111111
 40
0.1111111111111111
 40
0.1111111111111111
 40
0.2222222222222222
 40
0.2222222222222222
 40
0.2222222222222222
 40
0.2222222222222222
 40
0.3333333333333333
 40
0.3333333333333333
 40
0.3333333333333333
 40
0.3333333333333333
 40
0.4444444444444444
 40
0.4444444444444444
 40
0.4444444444444444
 40
0.4444444444444444
 40
0.5555555555555556
 40
0.5555555555555556
 40
0.5555555555555556
 40
0.5555555555555556
 40
0.6666666666666666
 40
0.6666666666666666
 40
0.6666666666666666
 40
0.6666666666666666
 40
0.7777777777777778
 40
0.7777777777777778
 40
0.7777777777777778
 40
0.7777777777777778
 40
1.0
 40
1.0
 40
1.0
 40
1.0
 10
-41.2986
 20
125.0203
 30
0.0
 10
-41.2986
 20
125.0203
 30
0.0
 10
-51.7806
 20
125.0203
 30
0.0
 10
-51.7806
 20
125.0203
 30
0.0
 10
-51.7806
 20
125.0203
 30
0.0
 10
-50.8557
 20
123.0625
 30
0.0
 10
-51.3237
 20
120.8952
 30
0.0
 10
-53.1344
 20
119.2771
 30
0.0
 10
-53.1344
 20
119.2771
 30
0.0
 10
-52.1853
 20
119.7078
 30
0.0
 10
-48.4129
 20
119.992
 30
0.0
 10
-50.5606
 20
115.4453
 30
0.0
 10
-50.5606
 20
115.4453
 30
0.0
 10
-51.855
 20
112.9371
 30
0.0
 10
-53.0274
 20
111.2003
 30
0.0
 10
-56.0301
 20
106.8197
 30
0.0
 10
-56.0301
 20
106.8197
 30
0.0
 10
-53.351
 20
107.8389
 30
0.0
 10
-50.2627
 20
110.5268
 30
0.0
 10
-47.2405
 20
112.8188
 30
0.0
 10
-47.2405
 20
112.8188
 30
0.0
 10
-44.6181
 20
114.8066
 30
0.0
 10
-43.1662
 20
112.3005
 30
0.0
 10
-44.3297
 20
110.5614
 30
0.0
 10
-44.3297
 20
110.5614
 30
0.0
 10
-43.8745
 20
111.2395
 30
0.0
 10
-42.3287
 20
111.5916
 30
0.0
 10
-41.2986
 20
110.9707
 30
0.0
 10
-41.2986
 20
110.9707
 30
0.0
 10
-41.2986
 20
110.9707
 30
0.0
 10
-41.2986
 20
125.0203
 30
0.0
 10
-41.2986
 20
125.0203
 30
0.0
  0
SPLINE
  5
95
330
1F
100
AcDbEntity
  8
layer 1
 62
     7
100
AcDbSpline
210
0.0
220
0.0
230
1.0
 70
    11
 71
     3
 72
    60
 73
    56
 74
     0
 42
0.0000000001
 43
0.0000000001
 12
1.0
 22
0.0
 32
0.0
 13
1.0
 23
0.0
 33
0.0
 40
0.0
 40
0.0
 40
0.0
 40
0.0
 40
0.0666666666666667
 40
0.0666666666666667
 40
0.0666666666666667
 40
0.0666666666666667
 40
0.1333333333333333
 40
0.1333333333333333
 40
0.1333333333333333
 40
0.1333333333333333
 40
0.2
 40
0.2
 40
0.2
 40
0.2
 40
0.2666666666666667
 40
0.2666666666666667
 40
0.2666666666666667
 40
0.2666666666666667
 40
0.3333333333333333
 40
0.3333333333333333
 40
0.3333333333333333
 40
0.3333333333333333
 40
0.4
 40
0.4
 40
0.4
 40
0.4
 40
0.4666666666666667
 40
0.4666666666666667
 40
0.4666666666666667
 40
0.4666666666666667
 40
0.5333333333333333
 40
0.5333333333333333
 40
0.5333333333333333
 40
0.5333333333333333
 40
0.6
 40
0.6
 40
0.6
 40
0.6
 40
0.6666666666666666
 40
0.6666666666666666
 40
0.6666666666666666
 40
0.6666666666666666
 40
0.7333333333333333
 40
0.7333333333333333
 40
0.7333333333333333
 40
0.7333333333333333
 40
0.8
 40
0.8
 40
0.8
 40
0.8
 40
0.8666666666666667
 40
0.8666666666666667
 40
0.8666666666666667
 40
0.8666666666666667
 40
1.0
 40
1.0
 40
1.0
 40
1.0
 10
-41.2986
 20
107.5633
 30
0.0
 10
-41.9586
 20
106.8702
 30
0.0
 10
-42.626
 20
106.5572
 30
0.0
 10
-43.2778
 20
106.4872
 30
0.0
 10
-43.2778
 20
106.4872
 30
0.0
 10
-41.7269
 20
104.8077
 30
0.0
 10
-41.2986
 20
102.3272
 30
0.0
 10
-44.6661
 20
101.577
 30
0.0
 10
-44.6661
 20
101.577
 30
0.0
 10
-47.3956
 20
101.2798
 30
0.0
 10
-51.7784
 20
100.6259
 30
0.0
 10
-55.2821
 20
101.1812
 30
0.0
 10
-55.2821
 20
101.1812
 30
0.0
 10
-54.598
 20
100.2698
 30
0.0
 10
-49.7644
 20
98.5331
 30
0.0
 10
-47.3541
 20
97.1003
 30
0.0
 10
-47.3541
 20
97.1003
 30
0.0
 10
-45.7512
 20
96.1775
 30
0.0
 10
-46.1315
 20
93.4503
 30
0.0
 10
-48.0736
 20
93.9028
 30
0.0
 10
-48.0736
 20
93.9028
 30
0.0
 10
-42.0572
 20
88.8926
 30
0.0
 10
-46.6717
 20
86.3405
 30
0.0
 10
-50.9587
 20
90.1897
 30
0.0
 10
-50.9587
 20
90.1897
 30
0.0
 10
-50.9323
 20
89.341
 30
0.0
 10
-51.5948
 20
88.6103
 30
0.0
 10
-52.3561
 20
88.2692
 30
0.0
 10
-52.3561
 20
88.2692
 30
0.0
 10
-51.1686
 20
88.0813
 30
0.0
 10
-50.4727
 20
85.905
 30
0.0
 10
-51.7873
 20
84.0372
 30
0.0
 10
-51.7873
 20
84.0372
 30
0.0
 10
-51.0152
 20
84.2909
 30
0.0
 10
-48.0563
 20
84.6609
 30
0.0
 10
-49.7185
 20
80.3219
 30
0.0
 10
-49.7185
 20
80.3219
 30
0.0
 10
-51.0829
 20
76.8026
 30
0.0
 10
-51.6495
 20
75.9127
 30
0.0
 10
-53.3443
 20
72.8855
 30
0.0
 10
-53.3443
 20
72.8855
 30
0.0
 10
-50.9784
 20
73.8457
 30
0.0
 10
-47.7914
 20
76.3282
 30
0.0
 10
-45.4909
 20
77.5924
 30
0.0
 10
-45.4909
 20
77.5924
 30
0.0
 10
-43.7961
 20
78.524
 30
0.0
 10
-41.878
 20
77.1154
 30
0.0
 10
-44.356
 20
75.1536
 30
0.0
 10
-44.356
 20
75.1536
 30
0.0
 10
-43.1837
 20
75.4816
 30
0.0
 10
-41.7358
 20
75.4951
 30
0.0
 10
-41.2986
 20
74.9111
 30
0.0
 10
-41.2986
 20
74.9111
 30
0.0
 10
-41.2986
 20
74.9111
 30
0.0
 10
-41.2986
 20
107.5633
 30
0.0
 10
-41.2986
 20
107.5633
 30
0.0
  0
SPLINE
  5
96
330
1F
100
AcDbEntity
  8
layer 1
 62
     7
100
AcDbSpline
210
0.0
220
0.0
230
1.0
 70
    11
 71
     3
 72
    60
 73
    56
 74
     0
 42
0.0000000001
 43
0.0000000001
 12
1.0
 22
0.0
 32
0.0
 13
1.0
 23
0.0
 33
0.0
 40
0.0
 40
0.0
 40
0.0
 40
0.0
 40
0.0666666666666667
 40
0.0666666666666667
 40
0.0666666666666667
 40
0.0666666666666667
 40
0.1333333333333333
 40
0.1333333333333333
 40
0.1333333333333333
 40
0.1333333333333333
 40
0.2
 40
0.2
 40
0.2
 40
0.2
 40
0.2666666666666667
 40
0.2666666666666667
 40
0.2666666666666667
 40
0.2666666666666667
 40
0.3333333333333333
 40
0.3333333333333333
 40
0.3333333333333333
 40
0.3333333333333333
 40
0.4
 40
0.4
 40
0.4
 40
0.4
 40
0.4666666666666667
 40
0.4666666666666667
 40
0.4666666666666667
 40
0.4666666666666667
 40
0.5333333333333333
 40
0.5333333333333333
 40
0.5333333333333333
 40
0.5333333333333333
 40
0.6
 40
0.6
 40
0.6
 40
0.6
 40
0.6666666666666666
 40
0.6666666666666666
 40
0.6666666666666666
 40
0.6666666666666666
 40
0.7333333333333333
 40
0.7333333333333333
 40
0.7333333333333333
 40
0.7333333333333333
 40
0.8
 40
0.8
 40
0.8
 40
0.8
 40
0.8666666666666667
 40
0.8666666666666667
 40
0.8666666666666667
 40
0.8666666666666667
 40
1.0
 40
1.0
 40
1.0
 40
1.0
 10
-41.2986
 20
70.9326
 30
0.0
 10
-42.0045
 20
70.2132
 30
0.0
 10
-42.9564
 20
70.1236
 30
0.0
 10
-43.9686
 20
70.4735
 30
0.0
 10
-43.9686
 20
70.4735
 30
0.0
 10
-40.5768
 20
69.29
 30
0.0
 10
-41.2986
 20
66.0269
 30
0.0
 10
-45.1018
 20
66.832
 30
0.0
 10
-45.1018
 20
66.832
 30
0.0
 10
-48.3889
 20
67.7133
 30
0.0
 10
-50.1032
 20
68.3432
 30
0.0
 10
-52.308
 20
68.3432
 30
0.0
 10
-52.308
 20
68.3432
 30
0.0
 10
-50.9828
 20
67.4094
 30
0.0
 10
-45.8739
 20
63.9845
 30
0.0
 10
-44.4517
 20
61.1325
 30
0.0
 10
-44.4517
 20
61.1325
 30
0.0
 10
-42.9474
 20
57.6904
 30
0.0
 10
-46.114
 20
58.1887
 30
0.0
 10
-46.768
 20
58.3834
 30
0.0
 10
-46.768
 20
58.3834
 30
0.0
 10
-44.7277
 20
53.1609
 30
0.0
 10
-48.7343
 20
53.8059
 30
0.0
 10
-50.1602
 20
57.4669
 30
0.0
 10
-50.1602
 20
57.4669
 30
0.0
 10
-50.4749
 20
55.9167
 30
0.0
 10
-51.8181
 20
54.2807
 30
0.0
 10
-53.388
 20
57.5152
 30
0.0
 10
-53.388
 20
57.5152
 30
0.0
 10
-54.318
 20
59.4266
 30
0.0
 10
-54.7311
 20
62.4208
 30
0.0
 10
-55.3588
 20
66.3948
 30
0.0
 10
-55.3588
 20
66.3948
 30
0.0
 10
-55.9579
 20
62.7226
 30
0.0
 10
-56.0346
 20
60.1241
 30
0.0
 10
-55.9141
 20
57.9832
 30
0.0
 10
-55.9141
 20
57.9832
 30
0.0
 10
-55.8073
 20
56.0628
 30
0.0
 10
-59.0832
 20
53.4274
 30
0.0
 10
-59.8205
 20
56.6166
 30
0.0
 10
-59.8205
 20
56.6166
 30
0.0
 10
-59.6347
 20
55.7654
 30
0.0
 10
-60.7672
 20
54.4252
 30
0.0
 10
-61.9659
 20
54.3658
 30
0.0
 10
-61.9659
 20
54.3658
 30
0.0
 10
-60.2819
 20
51.538
 30
0.0
 10
-54.5823
 20
41.2808
 30
0.0
 10
-52.7235
 20
39.1091
 30
0.0
 10
-52.7235
 20
39.1091
 30
0.0
 10
-52.3164
 20
44.2007
 30
0.0
 10
-49.1889
 20
51.3653
 30
0.0
 10
-41.2986
 20
54.0533
 30
0.0
 10
-41.2986
 20
54.0533
 30
0.0
 10
-41.2986
 20
54.0533
 30
0.0
 10
-41.2986
 20
70.9326
 30
0.0
 10
-41.2986
 20
70.9326
 30
0.0
  0
SPLINE
  5
97
330
1F
100
AcDbEntity
  8
layer 1
 62
     7
100
AcDbSpline
210
0.0
220
0.0
230
1.0
 70
    11
 71
     3
 72
    40
 73
    36
 74
     0
 42
0.0000000001
 43
0.0000000001
 12
1.0
 22
0.0
 32
0.0
 13
1.0
 23
0.0
 33
0.0
 40
0.0
 40
0.0
 40
0.0
 40
0.0
 40
0.1
 40
0.1
 40
0.1
 40
0.1
 40
0.2
 40
0.2
 40
0.2
 40
0.2
 40
0.3
 40
0.3
 40
0.3
 40
0.3
 40
0.4
 40
0.4
 40
0.4
 40
0.4
 40
0.5
 40
0.5
 40
0.5
 40
0.5
 40
0.6
 40
0.6
 40
0.6
 40
0.6
 40
0.7
 40
0.7
 40
0.7
 40
0.7
 40
0.8
 40
0.8
 40
0.8
 40
0.8
 40
1.0
 40
1.0
 40
1.0
 40
1.0
 10
-94.2245
 20
64.0131
 30
0.0
 10
-89.7802
 20
59.4244
 30
0.0
 10
-86.9919
 20
51.6649
 30
0.0
 10
-81.1441
 20
45.0096
 30
0.0
 10
-81.1441
 20
45.0096
 30
0.0
 10
-87.8077
 20
47.3651
 30
0.0
 10
-112.8494
 20
57.804
 30
0.0
 10
-117.9125
 20
60.2619
 30
0.0
 10
-117.9125
 20
60.2619
 30
0.0
 10
-116.4165
 20
60.3303
 30
0.0
 10
-114.7257
 20
60.7058
 30
0.0
 10
-113.313
 20
63.2952
 30
0.0
 10
-113.313
 20
63.2952
 30
0.0
 10
-114.1613
 20
60.575
 30
0.0
 10
-111.6855
 20
58.3985
 30
0.0
 10
-108.8883
 20
62.6593
 30
0.0
 10
-108.8883
 20
62.6593
 30
0.0
 10
-107.1606
 20
65.6093
 30
0.0
 10
-107.6964
 20
67.1842
 30
0.0
 10
-104.8818
 20
71.6325
 30
0.0
 10
-104.8818
 20
71.6325
 30
0.0
 10
-104.8511
 20
68.6427
 30
0.0
 10
-105.0789
 20
64.5708
 30
0.0
 10
-104.2082
 20
60.8812
 30
0.0
 10
-104.2082
 20
60.8812
 30
0.0
 10
-103.8321
 20
58.4249
 30
0.0
 10
-101.2382
 20
57.421
 30
0.0
 10
-100.5797
 20
60.1684
 30
0.0
 10
-100.5797
 20
60.1684
 30
0.0
 10
-99.2786
 20
55.4706
 30
0.0
 10
-95.2765
 20
57.5699
 30
0.0
 10
-97.2866
 20
61.6487
 30
0.0
 10
-97.2866
 20
61.6487
 30
0.0
 10
-94.5789
 20
60.164
 30
0.0
 10
-93.3713
 20
61.9459
 30
0.0
 10
-94.2245
 20
64.0131
 30
0.0
  0
SPLINE
  5
98
330
1F
100
AcDbEntity
  8
layer 1
 62
     7
100
AcDbSpline
210
0.0
220
0.0
230
1.0
 70
    11
 71
     3
 72
    80
 73
    76
 74
     0
 42
0.0000000001
 43
0.0000000001
 12
1.0
 22
0.0
 32
0.0
 13
1.0
 23
0.0
 33
0.0
 40
0.0
 40
0.0
 40
0.0
 40
0.0
 40
0.05
 40
0.05
 40
0.05
 40
0.05
 40
0.1
 40
0.1
 40
0.1
 40
0.1
 40
0.15
 40
0.15
 40
0.15
 40
0.15
 40
0.2
 40
0.2
 40
0.2
 40
0.2
 40
0.25
 40
0.25
 40
0.25
 40
0.25
 40
0.3
 40
0.3
 40
0.3
 40
0.3
 40
0.35
 40
0.35
 40
0.35
 40
0.35
 40
0.4
 40
0.4
 40
0.4
 40
0.4
 40
0.45
 40
0.45
 40
0.45
 40
0.45
 40
0.5
 40
0.5
 40
0.5
 40
0.5
 40
0.55
 40
0.55
 40
0.55
 40
0.55
 40
0.6
 40
0.6
 40
0.6
 40
0.6
 40
0.65
 40
0.65
 40
0.65
 40
0.65
 40
0.7
 40
0.7
 40
0.7
 40
0.7
 40
0.75
 40
0.75
 40
0.75
 40
0.75
 40
0.8
 40
0.8
 40
0.8
 40
0.8
 40
0.85
 40
0.85
 40
0.85
 40
0.85
 40
0.9
 40
0.9
 40
0.9
 40
0.9
 40
1.0
 40
1.0
 40
1.0
 40
1.0
 10
-110.452
 20
86.4146
 30
0.0
 10
-110.5876
 20
86.5546
 30
0.0
 10
-104.6719
 20
78.0274
 30
0.0
 10
-106.496
 20
77.0649
 30
0.0
 10
-106.496
 20
77.0649
 30
0.0
 10
-106.9708
 20
76.8159
 30
0.0
 10
-110.2467
 20
81.7629
 30
0.0
 10
-115.2856
 20
84.2997
 30
0.0
 10
-115.2856
 20
84.2997
 30
0.0
 10
-118.4808
 20
86.7626
 30
0.0
 10
-119.4235
 20
84.6826
 30
0.0
 10
-118.0458
 20
82.3492
 30
0.0
 10
-118.0458
 20
82.3492
 30
0.0
 10
-121.9168
 20
83.5893
 30
0.0
 10
-125.3129
 20
81.0541
 30
0.0
 10
-119.5719
 20
78.5783
 30
0.0
 10
-119.5719
 20
78.5783
 30
0.0
 10
-120.0098
 20
78.0252
 30
0.0
 10
-120.5719
 20
77.6031
 30
0.0
 10
-121.3892
 20
76.7745
 30
0.0
 10
-121.3892
 20
76.7745
 30
0.0
 10
-122.0215
 20
79.2961
 30
0.0
 10
-125.2782
 20
80.2887
 30
0.0
 10
-127.2266
 20
80.632
 30
0.0
 10
-127.2266
 20
80.632
 30
0.0
 10
-125.1512
 20
82.4606
 30
0.0
 10
-124.3813
 20
86.4211
 30
0.0
 10
-125.4793
 20
87.4205
 30
0.0
 10
-125.4793
 20
87.4205
 30
0.0
 10
-124.3747
 20
87.7945
 30
0.0
 10
-124.1495
 20
88.4222
 30
0.0
 10
-123.7319
 20
89.1024
 30
0.0
 10
-123.7319
 20
89.1024
 30
0.0
 10
-119.1655
 20
82.8672
 30
0.0
 10
-117.6673
 20
88.9299
 30
0.0
 10
-119.0474
 20
91.1236
 30
0.0
 10
-119.0474
 20
91.1236
 30
0.0
 10
-113.457
 20
94.7125
 30
0.0
 10
-120.237
 20
100.7132
 30
0.0
 10
-124.3248
 20
103.9107
 30
0.0
 10
-124.3248
 20
103.9107
 30
0.0
 10
-114.8091
 20
102.903
 30
0.0
 10
-94.9988
 20
91.6722
 30
0.0
 10
-88.3503
 20
85.4089
 30
0.0
 10
-88.3503
 20
85.4089
 30
0.0
 10
-88.8945
 20
83.0424
 30
0.0
 10
-89.555
 20
80.3677
 30
0.0
 10
-90.1761
 20
76.6669
 30
0.0
 10
-90.1761
 20
76.6669
 30
0.0
 10
-90.1761
 20
76.6669
 30
0.0
 10
-91.0097
 20
77.4412
 30
0.0
 10
-91.985
 20
77.3825
 30
0.0
 10
-91.985
 20
77.3825
 30
0.0
 10
-90.3798
 20
79.1103
 30
0.0
 10
-90.9548
 20
80.2317
 30
0.0
 10
-93.4524
 20
80.3
 30
0.0
 10
-93.4524
 20
80.3
 30
0.0
 10
-97.9074
 20
80.0375
 30
0.0
 10
-101.2779
 20
77.7956
 30
0.0
 10
-102.9397
 20
77.2184
 30
0.0
 10
-102.9397
 20
77.2184
 30
0.0
 10
-101.7018
 20
80.5469
 30
0.0
 10
-99.9498
 20
86.1787
 30
0.0
 10
-100.3899
 20
88.0397
 30
0.0
 10
-100.3899
 20
88.0397
 30
0.0
 10
-99.9722
 20
89.9423
 30
0.0
 10
-103.3594
 20
91.5782
 30
0.0
 10
-104.0179
 20
88.8314
 30
0.0
 10
-104.0179
 20
88.8314
 30
0.0
 10
-105.3191
 20
93.5289
 30
0.0
 10
-109.4001
 20
92.5406
 30
0.0
 10
-107.3923
 20
88.4597
 30
0.0
 10
-107.3923
 20
88.4597
 30
0.0
 10
-110.0999
 20
89.9467
 30
0.0
 10
-111.3054
 20
88.4814
 30
0.0
 10
-110.452
 20
86.4146
 30
0.0
  0
SPLINE
  5
99
330
1F
100
AcDbEntity
  8
layer 1
 62
     7
100
AcDbSpline
210
0.0
220
0.0
230
1.0
 70
    11
 71
     3
 72
    16
 73
    12
 74
     0
 42
0.0000000001
 43
0.0000000001
 12
1.0
 22
0.0
 32
0.0
 13
1.0
 23
0.0
 33
0.0
 40
0.0
 40
0.0
 40
0.0
 40
0.0
 40
0.25
 40
0.25
 40
0.25
 40
0.25
 40
0.5
 40
0.5
 40
0.5
 40
0.5
 40
1.0
 40
1.0
 40
1.0
 40
1.0
 10
-97.7608
 20
70.8958
 30
0.0
 10
-94.7888
 20
69.1589
 30
0.0
 10
-93.0656
 20
67.2845
 30
0.0
 10
-90.0164
 20
63.3373
 30
0.0
 10
-90.0164
 20
63.3373
 30
0.0
 10
-90.7668
 20
66.7073
 30
0.0
 10
-90.596
 20
68.5224
 30
0.0
 10
-90.4868
 20
70.9107
 30
0.0
 10
-90.4868
 20
70.9107
 30
0.0
 10
-92.088
 20
69.9942
 30
0.0
 10
-93.9272
 20
69.9641
 30
0.0
 10
-97.7608
 20
70.8958
 30
0.0
  0
SPLINE
  5
9A
330
1F
100
AcDbEntity
  8
layer 1
 62
     7
100
AcDbSpline
210
0.0
220
0.0
230
1.0
 70
    11
 71
     3
 72
    52
 73
    48
 74
     0
 42
0.0000000001
 43
0.0000000001
 12
1.0
 22
0.0
 32
0.0
 13
1.0
 23
0.0
 33
0.0
 40
0.0
 40
0.0
 40
0.0
 40
0.0
 40
0.0769230769230769
 40
0.0769230769230769
 40
0.0769230769230769
 40
0.0769230769230769
 40
0.1538461538461539
 40
0.1538461538461539
 40
0.1538461538461539
 40
0.1538461538461539
 40
0.2307692307692308
 40
0.2307692307692308
 40
0.2307692307692308
 40
0.2307692307692308
 40
0.3076923076923077
 40
0.3076923076923077
 40
0.3076923076923077
 40
0.3076923076923077
 40
0.3846153846153846
 40
0.3846153846153846
 40
0.3846153846153846
 40
0.3846153846153846
 40
0.4615384615384616
 40
0.4615384615384616
 40
0.4615384615384616
 40
0.4615384615384616
 40
0.5384615384615384
 40
0.5384615384615384
 40
0.5384615384615384
 40
0.5384615384615384
 40
0.6153846153846154
 40
0.6153846153846154
 40
0.6153846153846154
 40
0.6153846153846154
 40
0.6923076923076923
 40
0.6923076923076923
 40
0.6923076923076923
 40
0.6923076923076923
 40
0.7692307692307693
 40
0.7692307692307693
 40
0.7692307692307693
 40
0.7692307692307693
 40
0.8461538461538461
 40
0.8461538461538461
 40
0.8461538461538461
 40
0.8461538461538461
 40
1.0
 40
1.0
 40
1.0
 40
1.0
 10
-133.8842
 20
84.0568
 30
0.0
 10
-134.5577
 20
87.9044
 30
0.0
 10
-131.4476
 20
90.3643
 30
0.0
 10
-127.8107
 20
91.4864
 30
0.0
 10
-127.8107
 20
91.4864
 30
0.0
 10
-128.7181
 20
91.3224
 30
0.0
 10
-129.8995
 20
95.6484
 30
0.0
 10
-129.2998
 20
101.68
 30
0.0
 10
-129.2998
 20
101.68
 30
0.0
 10
-130.7108
 20
100.0201
 30
0.0
 10
-140.5327
 20
85.5203
 30
0.0
 10
-140.9852
 20
93.8703
 30
0.0
 10
-140.9852
 20
93.8703
 30
0.0
 10
-151.1487
 20
90.3689
 30
0.0
 10
-148.4191
 20
96.8841
 30
0.0
 10
-142.7571
 20
98.299
 30
0.0
 10
-142.7571
 20
98.299
 30
0.0
 10
-144.0975
 20
98.4148
 30
0.0
 10
-145.038
 20
99.4999
 30
0.0
 10
-144.8673
 20
100.7334
 30
0.0
 10
-144.8673
 20
100.7334
 30
0.0
 10
-145.4362
 20
100.7072
 30
0.0
 10
-146.0442
 20
100.6348
 30
0.0
 10
-146.674
 20
100.5274
 30
0.0
 10
-146.674
 20
100.5274
 30
0.0
 10
-145.1321
 20
99.2134
 30
0.0
 10
-146.7809
 20
96.8774
 30
0.0
 10
-148.7037
 20
96.2498
 30
0.0
 10
-148.7037
 20
96.2498
 30
0.0
 10
-152.0584
 20
95.1564
 30
0.0
 10
-158.7899
 20
96.7744
 30
0.0
 10
-159.3346
 20
97.3629
 30
0.0
 10
-159.3346
 20
97.3629
 30
0.0
 10
-157.9439
 20
91.0318
 30
0.0
 10
-142.1161
 20
74.2812
 30
0.0
 10
-131.0125
 20
66.9788
 30
0.0
 10
-131.0125
 20
66.9788
 30
0.0
 10
-134.5449
 20
70.6046
 30
0.0
 10
-135.2552
 20
75.4772
 30
0.0
 10
-134.6714
 20
77.1266
 30
0.0
 10
-134.6714
 20
77.1266
 30
0.0
 10
-141.8709
 20
76.6127
 30
0.0
 10
-141.0377
 20
85.4044
 30
0.0
 10
-146.2844
 20
86.1586
 30
0.0
 10
-146.2844
 20
86.1586
 30
0.0
 10
-143.2689
 20
86.5701
 30
0.0
 10
-136.0251
 20
88.9669
 30
0.0
 10
-133.8842
 20
84.0568
 30
0.0
  0
SPLINE
  5
9B
330
1F
100
AcDbEntity
  8
layer 1
 62
     7
100
AcDbSpline
210
0.0
220
0.0
230
1.0
 70
    11
 71
     3
 72
    68
 73
    64
 74
     0
 42
0.0000000001
 43
0.0000000001
 12
1.0
 22
0.0
 32
0.0
 13
1.0
 23
0.0
 33
0.0
 40
0.0
 40
0.0
 40
0.0
 40
0.0
 40
0.0588235294117647
 40
0.0588235294117647
 40
0.0588235294117647
 40
0.0588235294117647
 40
0.1176470588235294
 40
0.1176470588235294
 40
0.1176470588235294
 40
0.1176470588235294
 40
0.1764705882352941
 40
0.1764705882352941
 40
0.1764705882352941
 40
0.1764705882352941
 40
0.2352941176470588
 40
0.2352941176470588
 40
0.2352941176470588
 40
0.2352941176470588
 40
0.2941176470588235
 40
0.2941176470588235
 40
0.2941176470588235
 40
0.2941176470588235
 40
0.3529411764705883
 40
0.3529411764705883
 40
0.3529411764705883
 40
0.3529411764705883
 40
0.4117647058823529
 40
0.4117647058823529
 40
0.4117647058823529
 40
0.4117647058823529
 40
0.4705882352941176
 40
0.4705882352941176
 40
0.4705882352941176
 40
0.4705882352941176
 40
0.5294117647058824
 40
0.5294117647058824
 40
0.5294117647058824
 40
0.5294117647058824
 40
0.5882352941176471
 40
0.5882352941176471
 40
0.5882352941176471
 40
0.5882352941176471
 40
0.6470588235294118
 40
0.6470588235294118
 40
0.6470588235294118
 40
0.6470588235294118
 40
0.7058823529411765
 40
0.7058823529411765
 40
0.7058823529411765
 40
0.7058823529411765
 40
0.7647058823529411
 40
0.7647058823529411
 40
0.7647058823529411
 40
0.7647058823529411
 40
0.8235294117647058
 40
0.8235294117647058
 40
0.8235294117647058
 40
0.8235294117647058
 40
0.8823529411764706
 40
0.8823529411764706
 40
0.8823529411764706
 40
0.8823529411764706
 40
1.0
 40
1.0
 40
1.0
 40
1.0
 10
-55.8857
 20
125.0203
 30
0.0
 10
-55.8857
 20
125.0203
 30
0.0
 10
-85.5531
 20
125.0203
 30
0.0
 10
-85.5531
 20
125.0203
 30
0.0
 10
-85.5531
 20
125.0203
 30
0.0
 10
-85.0106
 20
123.7781
 30
0.0
 10
-85.4304
 20
122.6605
 30
0.0
 10
-86.4298
 20
121.4729
 30
0.0
 10
-86.4298
 20
121.4729
 30
0.0
 10
-85.4809
 20
121.9036
 30
0.0
 10
-81.9922
 20
122.0917
 30
0.0
 10
-84.1422
 20
117.5448
 30
0.0
 10
-84.1422
 20
117.5448
 30
0.0
 10
-85.4372
 20
115.0367
 30
0.0
 10
-85.8459
 20
115.4475
 30
0.0
 10
-88.8485
 20
111.067
 30
0.0
 10
-88.8485
 20
111.067
 30
0.0
 10
-83.3528
 20
110.9401
 30
0.0
 10
-83.9172
 20
111.4757
 30
0.0
 10
-80.582
 20
111.244
 30
0.0
 10
-80.582
 20
111.244
 30
0.0
 10
-76.6102
 20
110.9664
 30
0.0
 10
-76.4131
 20
108.0073
 30
0.0
 10
-79.1996
 20
107.6507
 30
0.0
 10
-79.1996
 20
107.6507
 30
0.0
 10
-75.5951
 20
106.9924
 30
0.0
 10
-73.7625
 20
101.8094
 30
0.0
 10
-79.9363
 20
103.1912
 30
0.0
 10
-79.9363
 20
103.1912
 30
0.0
 10
-79.9363
 20
103.3839
 30
0.0
 10
-80.3239
 20
95.7751
 30
0.0
 10
-85.9159
 20
103.5109
 30
0.0
 10
-85.9159
 20
103.5109
 30
0.0
 10
-83.7816
 20
100.029
 30
0.0
 10
-83.845
 20
94.5221
 30
0.0
 10
-84.0022
 20
92.6324
 30
0.0
 10
-84.0022
 20
92.6324
 30
0.0
 10
-80.1093
 20
96.3266
 30
0.0
 10
-74.2374
 20
100.9757
 30
0.0
 10
-64.146
 20
103.5282
 30
0.0
 10
-64.146
 20
103.5282
 30
0.0
 10
-66.8934
 20
105.4044
 30
0.0
 10
-80.0876
 20
105.4246
 30
0.0
 10
-74.6943
 20
110.5222
 30
0.0
 10
-74.6943
 20
110.5222
 30
0.0
 10
-79.0882
 20
113.291
 30
0.0
 10
-77.507
 20
117.3808
 30
0.0
 10
-72.1026
 20
114.7914
 30
0.0
 10
-72.1026
 20
114.7914
 30
0.0
 10
-71.8949
 20
121.7418
 30
0.0
 10
-63.7788
 20
112.5389
 30
0.0
 10
-62.1563
 20
107.6921
 30
0.0
 10
-62.1563
 20
107.6921
 30
0.0
 10
-62.7442
 20
115.7209
 30
0.0
 10
-62.1692
 20
119.1696
 30
0.0
 10
-61.6726
 20
120.5934
 30
0.0
 10
-61.6726
 20
120.5934
 30
0.0
 10
-61.0516
 20
122.3717
 30
0.0
 10
-58.974
 20
125.0203
 30
0.0
 10
-57.6811
 20
121.169
 30
0.0
 10
-57.6811
 20
121.169
 30
0.0
 10
-56.6734
 20
122.175
 30
0.0
 10
-55.8857
 20
124.2679
 30
0.0
 10
-55.8857
 20
125.0203
 30
0.0
  0
SPLINE
  5
9C
330
1F
100
AcDbEntity
  8
layer 1
 62
     7
100
AcDbSpline
210
0.0
220
0.0
230
1.0
 70
    11
 71
     3
 72
    48
 73
    44
 74
     0
 42
0.0000000001
 43
0.0000000001
 12
1.0
 22
0.0
 32
0.0
 13
1.0
 23
0.0
 33
0.0
 40
0.0
 40
0.0
 40
0.0
 40
0.0
 40
0.0833333333333333
 40
0.0833333333333333
 40
0.0833333333333333
 40
0.0833333333333333
 40
0.1666666666666667
 40
0.1666666666666667
 40
0.1666666666666667
 40
0.1666666666666667
 40
0.25
 40
0.25
 40
0.25
 40
0.25
 40
0.3333333333333333
 40
0.3333333333333333
 40
0.3333333333333333
 40
0.3333333333333333
 40
0.4166666666666667
 40
0.4166666666666667
 40
0.4166666666666667
 40
0.4166666666666667
 40
0.5
 40
0.5
 40
0.5
 40
0.5
 40
0.5833333333333334
 40
0.5833333333333334
 40
0.5833333333333334
 40
0.5833333333333334
 40
0.6666666666666666
 40
0.6666666666666666
 40
0.6666666666666666
 40
0.6666666666666666
 40
0.75
 40
0.75
 40
0.75
 40
0.75
 40
0.8333333333333334
 40
0.8333333333333334
 40
0.8333333333333334
 40
0.8333333333333334
 40
1.0
 40
1.0
 40
1.0
 40
1.0
 10
-133.495
 20
125.0203
 30
0.0
 10
-133.495
 20
125.0203
 30
0.0
 10
-180.6342
 20
125.0203
 30
0.0
 10
-180.6342
 20
125.0203
 30
0.0
 10
-180.6342
 20
125.0203
 30
0.0
 10
-180.6342
 20
125.0203
 30
0.0
 10
-180.6342
 20
123.2949
 30
0.0
 10
-180.6342
 20
123.2949
 30
0.0
 10
-180.6342
 20
123.2949
 30
0.0
 10
-177.0341
 20
124.5193
 30
0.0
 10
-173.9767
 20
121.8117
 30
0.0
 10
-173.3993
 20
120.0711
 30
0.0
 10
-173.3993
 20
120.0711
 30
0.0
 10
-169.4651
 20
125.0203
 30
0.0
 10
-164.8701
 20
109.1534
 30
0.0
 10
-162.779
 20
104.4509
 30
0.0
 10
-162.779
 20
104.4509
 30
0.0
 10
-161.1957
 20
109.234
 30
0.0
 10
-166.2542
 20
120.3683
 30
0.0
 10
-159.5641
 20
119.1326
 30
0.0
 10
-159.5641
 20
119.1326
 30
0.0
 10
-159.5536
 20
123.6404
 30
0.0
 10
-154.0948
 20
123.3385
 30
0.0
 10
-155.6977
 20
117.8684
 30
0.0
 10
-155.6977
 20
117.8684
 30
0.0
 10
-154.5426
 20
118.4329
 30
0.0
 10
-154.0813
 20
118.1898
 30
0.0
 10
-153.0427
 20
117.7833
 30
0.0
 10
-153.0427
 20
117.7833
 30
0.0
 10
-151.999
 20
118.6994
 30
0.0
 10
-150.3434
 20
118.3454
 30
0.0
 10
-148.7843
 20
117.8008
 30
0.0
 10
-148.7843
 20
117.8008
 30
0.0
 10
-149.1168
 20
126.0852
 30
0.0
 10
-134.0565
 20
113.3502
 30
0.0
 10
-130.6513
 20
110.8744
 30
0.0
 10
-130.6513
 20
110.8744
 30
0.0
 10
-133.3679
 20
115.9263
 30
0.0
 10
-141.6457
 20
122.1706
 30
0.0
 10
-133.0354
 20
122.4897
 30
0.0
 10
-133.0354
 20
122.4897
 30
0.0
 10
-133.569
 20
123.8829
 30
0.0
 10
-134.0091
 20
124.3334
 30
0.0
 10
-133.495
 20
125.0203
 30
0.0
  0
SPLINE
  5
9D
330
1F
100
AcDbEntity
  8
layer 1
 62
     7
100
AcDbSpline
210
0.0
220
0.0
230
1.0
 70
    11
 71
     3
 72
    64
 73
    60
 74
     0
 42
0.0000000001
 43
0.0000000001
 12
1.0
 22
0.0
 32
0.0
 13
1.0
 23
0.0
 33
0.0
 40
0.0
 40
0.0
 40
0.0
 40
0.0
 40
0.0625
 40
0.0625
 40
0.0625
 40
0.0625
 40
0.125
 40
0.125
 40
0.125
 40
0.125
 40
0.1875
 40
0.1875
 40
0.1875
 40
0.1875
 40
0.25
 40
0.25
 40
0.25
 40
0.25
 40
0.3125
 40
0.3125
 40
0.3125
 40
0.3125
 40
0.375
 40
0.375
 40
0.375
 40
0.375
 40
0.4375
 40
0.4375
 40
0.4375
 40
0.4375
 40
0.5
 40
0.5
 40
0.5
 40
0.5
 40
0.5625
 40
0.5625
 40
0.5625
 40
0.5625
 40
0.625
 40
0.625
 40
0.625
 40
0.625
 40
0.6875
 40
0.6875
 40
0.6875
 40
0.6875
 40
0.75
 40
0.75
 40
0.75
 40
0.75
 40
0.8125
 40
0.8125
 40
0.8125
 40
0.8125
 40
0.875
 40
0.875
 40
0.875
 40
0.875
 40
1.0
 40
1.0
 40
1.0
 40
1.0
 10
-158.3195
 20
61.2944
 30
0.0
 10
-155.6802
 20
60.9842
 30
0.0
 10
-151.4985
 20
60.9511
 30
0.0
 10
-148.8151
 20
61.4192
 30
0.0
 10
-148.8151
 20
61.4192
 30
0.0
 10
-147.678
 20
61.618
 30
0.0
 10
-145.7222
 20
62.058
 30
0.0
 10
-147.4109
 20
64.0696
 30
0.0
 10
-147.4109
 20
64.0696
 30
0.0
 10
-141.9806
 20
65.2353
 30
0.0
 10
-143.9944
 20
68.8285
 30
0.0
 10
-148.5021
 20
67.9322
 30
0.0
 10
-148.5021
 20
67.9322
 30
0.0
 10
-147.5419
 20
71.0682
 30
0.0
 10
-150.0395
 20
70.8122
 30
0.0
 10
-150.923
 20
70.6376
 30
0.0
 10
-150.923
 20
70.6376
 30
0.0
 10
-153.2046
 20
70.0296
 30
0.0
 10
-155.8505
 20
69.1437
 30
0.0
 10
-161.769
 20
66.0359
 30
0.0
 10
-161.769
 20
66.0359
 30
0.0
 10
-157.9764
 20
71.1539
 30
0.0
 10
-153.3814
 20
78.7732
 30
0.0
 10
-159.3083
 20
78.5588
 30
0.0
 10
-159.3083
 20
78.5588
 30
0.0
 10
-156.4977
 20
82.7232
 30
0.0
 10
-161.012
 20
84.9626
 30
0.0
 10
-162.1273
 20
80.4136
 30
0.0
 10
-162.1273
 20
80.4136
 30
0.0
 10
-162.5668
 20
81.0978
 30
0.0
 10
-163.5141
 20
81.5266
 30
0.0
 10
-164.144
 20
81.4174
 30
0.0
 10
-164.144
 20
81.4174
 30
0.0
 10
-163.9183
 20
82.0232
 30
0.0
 10
-163.7784
 20
82.6812
 30
0.0
 10
-163.7303
 20
83.4493
 30
0.0
 10
-163.7303
 20
83.4493
 30
0.0
 10
-158.0967
 20
81.4876
 30
0.0
 10
-159.6168
 20
94.5287
 30
0.0
 10
-160.161
 20
95.1166
 30
0.0
 10
-160.161
 20
95.1166
 30
0.0
 10
-152.9268
 20
81.7126
 30
0.0
 10
-136.0318
 20
62.8474
 30
0.0
 10
-114.8174
 20
55.4855
 30
0.0
 10
-114.8174
 20
55.4855
 30
0.0
 10
-120.338
 20
56.157
 30
0.0
 10
-127.441
 20
56.0828
 30
0.0
 10
-133.2432
 20
56.6316
 30
0.0
 10
-133.2432
 20
56.6316
 30
0.0
 10
-141.0815
 20
57.6574
 30
0.0
 10
-139.4018
 20
64.0193
 30
0.0
 10
-142.2605
 20
63.615
 30
0.0
 10
-142.2605
 20
63.615
 30
0.0
 10
-144.2548
 20
63.2848
 30
0.0
 10
-142.2408
 20
57.9613
 30
0.0
 10
-140.4168
 20
56.4591
 30
0.0
 10
-140.4168
 20
56.4591
 30
0.0
 10
-142.8423
 20
55.8159
 30
0.0
 10
-155.3101
 20
58.1606
 30
0.0
 10
-158.3195
 20
61.2944
 30
0.0
  0
SPLINE
  5
9E
330
1F
100
AcDbEntity
  8
layer 1
 62
     7
100
AcDbSpline
210
0.0
220
0.0
230
1.0
 70
    11
 71
     3
 72
    24
 73
    20
 74
     0
 42
0.0000000001
 43
0.0000000001
 12
1.0
 22
0.0
 32
0.0
 13
1.0
 23
0.0
 33
0.0
 40
0.0
 40
0.0
 40
0.0
 40
0.0
 40
0.1666666666666667
 40
0.1666666666666667
 40
0.1666666666666667
 40
0.1666666666666667
 40
0.3333333333333333
 40
0.3333333333333333
 40
0.3333333333333333
 40
0.3333333333333333
 40
0.5
 40
0.5
 40
0.5
 40
0.5
 40
0.6666666666666666
 40
0.6666666666666666
 40
0.6666666666666666
 40
0.6666666666666666
 40
1.0
 40
1.0
 40
1.0
 40
1.0
 10
-112.9978
 20
30.4813
 30
0.0
 10
-118.1242
 20
26.3612
 30
0.0
 10
-120.1799
 20
25.1496
 30
0.0
 10
-122.1177
 20
23.7297
 30
0.0
 10
-122.1177
 20
23.7297
 30
0.0
 10
-122.0238
 20
24.7403
 30
0.0
 10
-122.4615
 20
25.4732
 30
0.0
 10
-123.8719
 20
26.5862
 30
0.0
 10
-123.8719
 20
26.5862
 30
0.0
 10
-121.0483
 20
25.2107
 30
0.0
 10
-120.1279
 20
26.7654
 30
0.0
 10
-120.742
 20
28.6594
 30
0.0
 10
-120.742
 20
28.6594
 30
0.0
 10
-121.2801
 20
30.3172
 30
0.0
 10
-123.1742
 20
32.2331
 30
0.0
 10
-123.6227
 20
32.6681
 30
0.0
 10
-123.6227
 20
32.6681
 30
0.0
 10
-120.3748
 20
30.4136
 30
0.0
 10
-117.1924
 20
30.5362
 30
0.0
 10
-112.9978
 20
30.4813
 30
0.0
  0
SPLINE
  5
9F
330
1F
100
AcDbEntity
  8
layer 1
 62
     7
100
AcDbSpline
210
0.0
220
0.0
230
1.0
 70
    11
 71
     3
 72
    24
 73
    20
 74
     0
 42
0.0000000001
 43
0.0000000001
 12
1.0
 22
0.0
 32
0.0
 13
1.0
 23
0.0
 33
0.0
 40
0.0
 40
0.0
 40
0.0
 40
0.0
 40
0.1666666666666667
 40
0.1666666666666667
 40
0.1666666666666667
 40
0.1666666666666667
 40
0.3333333333333333
 40
0.3333333333333333
 40
0.3333333333333333
 40
0.3333333333333333
 40
0.5
 40
0.5
 40
0.5
 40
0.5
 40
0.6666666666666666
 40
0.6666666666666666
 40
0.6666666666666666
 40
0.6666666666666666
 40
1.0
 40
1.0
 40
1.0
 40
1.0
 10
-130.0675
 20
53.3709
 30
0.0
 10
-134.6887
 20
53.5418
 30
0.0
 10
-140.0317
 20
51.6537
 30
0.0
 10
-142.317
 20
50.412
 30
0.0
 10
-142.317
 20
50.412
 30
0.0
 10
-141.5059
 20
49.8017
 30
0.0
 10
-139.7276
 20
49.5391
 30
0.0
 10
-139.8547
 20
47.7503
 30
0.0
 10
-139.8547
 20
47.7503
 30
0.0
 10
-138.969
 20
50.7617
 30
0.0
 10
-137.5038
 20
50.9562
 30
0.0
 10
-136.1456
 20
49.5021
 30
0.0
 10
-136.1456
 20
49.5021
 30
0.0
 10
-134.7963
 20
48.0566
 30
0.0
 10
-133.1227
 20
42.4421
 30
0.0
 10
-131.5025
 20
40.5658
 30
0.0
 10
-131.5025
 20
40.5658
 30
0.0
 10
-130.9818
 20
44.4829
 30
0.0
 10
-131.8808
 20
51.138
 30
0.0
 10
-130.0675
 20
53.3709
 30
0.0
  0
SPLINE
  5
A0
330
1F
100
AcDbEntity
  8
layer 1
 62
     7
100
AcDbSpline
210
0.0
220
0.0
230
1.0
 70
    11
 71
     3
 72
    40
 73
    36
 74
     0
 42
0.0000000001
 43
0.0000000001
 12
1.0
 22
0.0
 32
0.0
 13
1.0
 23
0.0
 33
0.0
 40
0.0
 40
0.0
 40
0.0
 40
0.0
 40
0.1
 40
0.1
 40
0.1
 40
0.1
 40
0.2
 40
0.2
 40
0.2
 40
0.2
 40
0.3
 40
0.3
 40
0.3
 40
0.3
 40
0.4
 40
0.4
 40
0.4
 40
0.4
 40
0.5
 40
0.5
 40
0.5
 40
0.5
 40
0.6
 40
0.6
 40
0.6
 40
0.6
 40
0.7
 40
0.7
 40
0.7
 40
0.7
 40
0.8
 40
0.8
 40
0.8
 40
0.8
 40
1.0
 40
1.0
 40
1.0
 40
1.0
 10
-76.8133
 20
38.4116
 30
0.0
 10
-87.7618
 20
45.5432
 30
0.0
 10
-107.7994
 20
52.1549
 30
0.0
 10
-123.92
 20
53.4559
 30
0.0
 10
-123.92
 20
53.4559
 30
0.0
 10
-123.43
 20
52.3212
 30
0.0
 10
-123.5875
 20
50.8319
 30
0.0
 10
-124.5039
 20
49.7663
 30
0.0
 10
-124.5039
 20
49.7663
 30
0.0
 10
-118.5116
 20
49.1891
 30
0.0
 10
-125.1142
 20
42.825
 30
0.0
 10
-128.1062
 20
39.5357
 30
0.0
 10
-128.1062
 20
39.5357
 30
0.0
 10
-128.6504
 20
37.6875
 30
0.0
 10
-124.467
 20
42.3065
 30
0.0
 10
-121.0395
 20
44.1021
 30
0.0
 10
-121.0395
 20
44.1021
 30
0.0
 10
-118.3867
 20
45.4933
 30
0.0
 10
-116.2546
 20
43.8138
 30
0.0
 10
-118.1767
 20
41.5344
 30
0.0
 10
-118.1767
 20
41.5344
 30
0.0
 10
-114.5179
 20
43.6995
 30
0.0
 10
-111.4319
 20
38.2368
 30
0.0
 10
-117.5468
 20
38.1864
 30
0.0
 10
-117.5468
 20
38.1864
 30
0.0
 10
-113.4833
 20
31.7321
 30
0.0
 10
-122.4592
 20
36.7251
 30
0.0
 10
-124.0073
 20
34.3634
 30
0.0
 10
-124.0073
 20
34.3634
 30
0.0
 10
-114.6842
 20
31.1398
 30
0.0
 10
-109.081
 20
32.9133
 30
0.0
 10
-105.3544
 20
34.1513
 30
0.0
 10
-105.3544
 20
34.1513
 30
0.0
 10
-96.9187
 20
37.9591
 30
0.0
 10
-87.0491
 20
38.7921
 30
0.0
 10
-76.8133
 20
38.4116
 30
0.0
  0
SPLINE
  5
A1
330
1F
100
AcDbEntity
  8
layer 1
 62
     7
100
AcDbSpline
210
0.0
220
0.0
230
1.0
 70
    11
 71
     3
 72
    16
 73
    12
 74
     0
 42
0.0000000001
 43
0.0000000001
 12
1.0
 22
0.0
 32
0.0
 13
1.0
 23
0.0
 33
0.0
 40
0.0
 40
0.0
 40
0.0
 40
0.0
 40
0.25
 40
0.25
 40
0.25
 40
0.25
 40
0.5
 40
0.5
 40
0.5
 40
0.5
 40
1.0
 40
1.0
 40
1.0
 40
1.0
 10
-92.934
 20
74.2068
 30
0.0
 10
-91.6306
 20
73.5311
 30
0.0
 10
-90.9918
 20
73.2993
 30
0.0
 10
-90.4957
 20
72.5619
 30
0.0
 10
-90.4957
 20
72.5619
 30
0.0
 10
-90.5898
 20
73.4567
 30
0.0
 10
-90.4693
 20
73.9051
 30
0.0
 10
-90.4363
 20
74.4732
 30
0.0
 10
-90.4363
 20
74.4732
 30
0.0
 10
-90.8848
 20
74.0293
 30
0.0
 10
-91.6133
 20
73.9487
 30
0.0
 10
-92.934
 20
74.2068
 30
0.0
  0
SPLINE
  5
A2
330
1F
100
AcDbEntity
  8
layer 1
 62
     7
100
AcDbSpline
210
0.0
220
0.0
230
1.0
 70
    11
 71
     3
 72
    16
 73
    12
 74
     0
 42
0.0000000001
 43
0.0000000001
 12
1.0
 22
0.0
 32
0.0
 13
1.0
 23
0.0
 33
0.0
 40
0.0
 40
0.0
 40
0.0
 40
0.0
 40
0.25
 40
0.25
 40
0.25
 40
0.25
 40
0.5
 40
0.5
 40
0.5
 40
0.5
 40
1.0
 40
1.0
 40
1.0
 40
1.0
 10
-177.9943
 20
115.6335
 30
0.0
 10
-179.2978
 20
115.8915
 30
0.0
 10
-180.6341
 20
115.9833
 30
0.0
 10
-180.6341
 20
115.1021
 30
0.0
 10
-180.6341
 20
115.1021
 30
0.0
 10
-180.5401
 20
115.9963
 30
0.0
 10
-180.601
 20
118.3124
 30
0.0
 10
-180.6341
 20
118.879
 30
0.0
 10
-180.6341
 20
118.879
 30
0.0
 10
-180.0435
 20
117.2891
 30
0.0
 10
-179.7439
 20
116.6681
 30
0.0
 10
-177.9943
 20
115.6335
 30
0.0
  0
SPLINE
  5
A3
330
1F
100
AcDbEntity
  8
layer 1
 62
     7
100
AcDbSpline
210
0.0
220
0.0
230
1.0
 70
    11
 71
     3
 72
    16
 73
    12
 74
     0
 42
0.0000000001
 43
0.0000000001
 12
1.0
 22
0.0
 32
0.0
 13
1.0
 23
0.0
 33
0.0
 40
0.0
 40
0.0
 40
0.0
 40
0.0
 40
0.25
 40
0.25
 40
0.25
 40
0.25
 40
0.5
 40
0.5
 40
0.5
 40
0.5
 40
1.0
 40
1.0
 40
1.0
 40
1.0
 10
-177.9943
 20
72.2098
 30
0.0
 10
-179.2978
 20
72.468
 30
0.0
 10
-180.6341
 20
72.5573
 30
0.0
 10
-180.6341
 20
71.6784
 30
0.0
 10
-180.6341
 20
71.6784
 30
0.0
 10
-180.5401
 20
72.573
 30
0.0
 10
-180.601
 20
74.887
 30
0.0
 10
-180.6341
 20
75.4553
 30
0.0
 10
-180.6341
 20
75.4553
 30
0.0
 10
-180.0435
 20
73.863
 30
0.0
 10
-179.7439
 20
73.2444
 30
0.0
 10
-177.9943
 20
72.2098
 30
0.0
  0
SPLINE
  5
A4
330
1F
100
AcDbEntity
  8
layer 1
 62
     7
100
AcDbSpline
210
0.0
220
0.0
230
1.0
 70
    11
 71
     3
 72
    32
 73
    28
 74
     0
 42
0.0000000001
 43
0.0000000001
 12
1.0
 22
0.0
 32
0.0
 13
1.0
 23
0.0
 33
0.0
 40
0.0
 40
0.0
 40
0.0
 40
0.0
 40
0.125
 40
0.125
 40
0.125
 40
0.125
 40
0.25
 40
0.25
 40
0.25
 40
0.25
 40
0.375
 40
0.375
 40
0.375
 40
0.375
 40
0.5
 40
0.5
 40
0.5
 40
0.5
 40
0.625
 40
0.625
 40
0.625
 40
0.625
 40
0.75
 40
0.75
 40
0.75
 40
0.75
 40
1.0
 40
1.0
 40
1.0
 40
1.0
 10
-107.104
 20
74.83
 30
0.0
 10
-109.8161
 20
72.2275
 30
0.0
 10
-113.3259
 20
70.4713
 30
0.0
 10
-116.6371
 20
69.9198
 30
0.0
 10
-116.6371
 20
69.9198
 30
0.0
 10
-118.1353
 20
69.6706
 30
0.0
 10
-122.6776
 20
67.2386
 30
0.0
 10
-117.3503
 20
66.0774
 30
0.0
 10
-117.3503
 20
66.0774
 30
0.0
 10
-118.8744
 20
65.0893
 30
0.0
 10
-119.5502
 20
62.8602
 30
0.0
 10
-118.918
 20
61.1481
 30
0.0
 10
-118.918
 20
61.1481
 30
0.0
 10
-124.005
 20
62.9897
 30
0.0
 10
-133.6283
 20
70.7685
 30
0.0
 10
-132.854
 20
75.6261
 30
0.0
 10
-132.854
 20
75.6261
 30
0.0
 10
-130.7304
 20
73.1812
 30
0.0
 10
-122.6625
 20
74.331
 30
0.0
 10
-120.7051
 20
73.4039
 30
0.0
 10
-120.7051
 20
73.4039
 30
0.0
 10
-120.1039
 20
73.1196
 30
0.0
 10
-120.8277
 20
74.5651
 30
0.0
 10
-120.1934
 20
74.4101
 30
0.0
 10
-120.1934
 20
74.4101
 30
0.0
 10
-115.7295
 20
73.3123
 30
0.0
 10
-109.339
 20
73.4935
 30
0.0
 10
-107.104
 20
74.83
 30
0.0
  0
SPLINE
  5
A5
330
1F
100
AcDbEntity
  8
layer 1
 62
     7
100
AcDbSpline
210
0.0
220
0.0
230
1.0
 70
    11
 71
     3
 72
    16
 73
    12
 74
     0
 42
0.0000000001
 43
0.0000000001
 12
1.0
 22
0.0
 32
0.0
 13
1.0
 23
0.0
 33
0.0
 40
0.0
 40
0.0
 40
0.0
 40
0.0
 40
0.25
 40
0.25
 40
0.25
 40
0.25
 40
0.5
 40
0.5
 40
0.5
 40
0.5
 40
1.0
 40
1.0
 40
1.0
 40
1.0
 10
-126.0022
 20
53.535
 30
0.0
 10
-127.0301
 20
53.6464
 30
0.0
 10
-127.7669
 20
53.6134
 30
0.0
 10
-128.642
 20
53.5456
 30
0.0
 10
-128.642
 20
53.5456
 30
0.0
 10
-128.0054
 20
52.9028
 30
0.0
 10
-127.7059
 20
52.1458
 30
0.0
 10
-127.7383
 20
51.5777
 30
0.0
 10
-127.7383
 20
51.5777
 30
0.0
 10
-127.441
 20
52.5139
 30
0.0
 10
-126.8022
 20
53.246
 30
0.0
 10
-126.0022
 20
53.535
 30
0.0
  0
ENDSEC
  0
SECTION
  2
OBJECTS
  0
DICTIONARY
  5
C
330
0
100
AcDbDictionary
281
     1
  3
ACAD_GROUP
350
D
  3
ACAD_LAYOUT
350
1A
  3
ACAD_MATERIAL
350
3B
  3
ACAD_MLEADERSTYLE
350
C8
  3
ACAD_MLINESTYLE
350
17
  3
ACAD_PLOTSETTINGS
350
19
  3
ACAD_PLOTSTYLENAME
350
E
  3
ACAD_TABLESTYLE
350
C7
  3
ACAD_VISUALSTYLE
350
2A
  0
DICTIONARY
  5
D
102
{ACAD_REACTORS
330
C
102
}
330
C
100
AcDbDictionary
281
     1
  0
DICTIONARY
  5
1A
102
{ACAD_REACTORS
330
C
102
}
330
C
100
AcDbDictionary
281
     1
  3
Layout1
350
1E
  3
Layout2
350
26
  3
Model
350
22
  0
DICTIONARY
  5
3B
102
{ACAD_REACTORS
330
C
102
}
330
C
100
AcDbDictionary
281
     1
  3
ByBlock
350
3D
  3
ByLayer
350
3C
  3
Global
350
3E
  0
DICTIONARY
  5
C8
102
{ACAD_REACTORS
330
C
102
}
330
C
100
AcDbDictionary
281
     1
  0
DICTIONARY
  5
17
102
{ACAD_REACTORS
330
C
102
}
330
C
100
AcDbDictionary
281
     1
  3
Standard
350
18
  0
DICTIONARY
  5
19
102
{ACAD_REACTORS
330
C
102
}
330
C
100
AcDbDictionary
281
     1
  0
ACDBDICTIONARYWDFLT
  5
E
102
{ACAD_REACTORS
330
C
102
}
330
C
100
AcDbDictionary
281
     1
  3
Normal
350
F
100
AcDbDictionaryWithDefault
340
F
  0
DICTIONARY
  5
C7
102
{ACAD_REACTORS
330
C
102
}
330
C
100
AcDbDictionary
281
     1
  0
DICTIONARY
  5
2A
102
{ACAD_REACTORS
330
C
102
}
330
C
100
AcDbDictionary
281
     1
  3
2dWireframe
350
2F
  3
3D Hidden
350
31
  3
3dWireframe
350
30
  3
Basic
350
32
  3
Brighten
350
36
  3
ColorChange
350
3A
  3
Conceptual
350
34
  3
Dim
350
35
  3
Facepattern
350
39
  3
Flat
350
2B
  3
FlatWithEdges
350
2C
  3
Gouraud
350
2D
  3
GouraudWithEdges
350
2E
  3
Linepattern
350
38
  3
Realistic
350
33
  3
Thicken
350
37
  0
LAYOUT
  5
1E
102
{ACAD_REACTORS
330
1A
102
}
330
1A
100
AcDbPlotSettings
  1

  2
none_device
  4

  6

 40
0.0
 41
0.0
 42
0.0
 43
0.0
 44
0.0
 45
0.0
 46
0.0
 47
0.0
 48
0.0
 49
0.0
140
0.0
141
0.0
142
1.0
143
1.0
 70
   688
 72
     0
 73
     0
 74
     5
  7

 75
    16
 76
     0
 77
     2
 78
   300
147
1.0
148
0.0
149
0.0
100
AcDbLayout
  1
Layout1
 70
     1
 71
     1
 10
0.0
 20
0.0
 11
12.0
 21
9.0
 12
0.0
 22
0.0
 32
0.0
 14
1.000000000000000E+20
 24
1.000000000000000E+20
 34
1.000000000000000E+20
 15
-1.000000000000000E+20
 25
-1.000000000000000E+20
 35
-1.000000000000000E+20
146
0.0
 13
0.0
 23
0.0
 33
0.0
 16
1.0
 26
0.0
 36
0.0
 17
0.0
 27
1.0
 37
0.0
 76
     0
330
1B
  0
LAYOUT
  5
26
102
{ACAD_REACTORS
330
1A
102
}
330
1A
100
AcDbPlotSettings
  1

  2
none_device
  4

  6

 40
0.0
 41
0.0
 42
0.0
 43
0.0
 44
0.0
 45
0.0
 46
0.0
 47
0.0
 48
0.0
 49
0.0
140
0.0
141
0.0
142
1.0
143
1.0
 70
   688
 72
     0
 73
     0
 74
     5
  7

 75
    16
 76
     0
 77
     2
 78
   300
147
1.0
148
0.0
149
0.0
100
AcDbLayout
  1
Layout2
 70
     1
 71
     2
 10
0.0
 20
0.0
 11
0.0
 21
0.0
 12
0.0
 22
0.0
 32
0.0
 14
0.0
 24
0.0
 34
0.0
 15
0.0
 25
0.0
 35
0.0
146
0.0
 13
0.0
 23
0.0
 33
0.0
 16
1.0
 26
0.0
 36
0.0
 17
0.0
 27
1.0
 37
0.0
 76
     0
330
23
  0
LAYOUT
  5
22
102
{ACAD_REACTORS
330
1A
102
}
330
1A
100
AcDbPlotSettings
  1

  2
none_device
  4

  6

 40
0.0
 41
0.0
 42
0.0
 43
0.0
 44
0.0
 45
0.0
 46
0.0
 47
0.0
 48
0.0
 49
0.0
140
0.0
141
0.0
142
1.0
143
1.0
 70
  1712
 72
     0
 73
     0
 74
     0
  7

 75
     0
 76
     0
 77
     2
 78
   300
147
1.0
148
0.0
149
0.0
100
AcDbLayout
  1
Model
 70
     1
 71
     0
 10
0.0
 20
0.0
 11
12.0
 21
9.0
 12
0.0
 22
0.0
 32
0.0
 14
-187.4927
 24
-115.1093
 34
0.0
 15
-34.4401
 25
131.6885
 35
0.0
146
0.0
 13
0.0
 23
0.0
 33
0.0
 16
1.0
 26
0.0
 36
0.0
 17
0.0
 27
1.0
 37
0.0
 76
     0
330
1F
331
29
  0
MATERIAL
  5
3D
102
{ACAD_REACTORS
330
3B
102
}
330
3B
100
AcDbMaterial
  1
ByBlock
 72
     1
 94
      127
  0
MATERIAL
  5
3C
102
{ACAD_REACTORS
330
3B
102
}
330
3B
100
AcDbMaterial
  1
ByLayer
 72
     1
 94
      127
  0
MATERIAL
  5
3E
102
{ACAD_REACTORS
330
3B
102
}
330
3B
100
AcDbMaterial
  1
Global
 72
     1
 94
      127
  0
MLINESTYLE
  5
18
102
{ACAD_REACTORS
330
17
102
}
330
17
100
AcDbMlineStyle
  2
Standard
 70
     0
  3

 62
   256
 51
90.0
 52
90.0
 71
     2
 49
0.5
 62
   256
  6
BYLAYER
 49
-0.5
 62
   256
  6
BYLAYER
  0
ACDBPLACEHOLDER
  5
F
102
{ACAD_REACTORS
330
E
102
}
330
E
  0
VISUALSTYLE
  5
2F
102
{ACAD_REACTORS
330
2A
102
}
102
{ACAD_XDICTIONARY
360
AF
102
}
330
2A
100
AcDbVisualStyle
  2
2dWireframe
 70
     4
 71
     0
 72
     2
 73
     0
 90
        0
 40
-0.6
 41
-30.0
 62
     5
 63
     7
421
 16777215
 74
     1
 91
        4
 64
     7
 65
   257
 75
     1
175
     1
 42
1.0
 92
        0
 66
   257
 43
1.0
 76
     1
 77
     6
 78
     2
 67
     7
 79
     5
170
     0
171
     0
290
     0
174
     0
 93
        1
 44
0.0
173
     0
291
     0
 45
0.0
  0
VISUALSTYLE
  5
31
102
{ACAD_REACTORS
330
2A
102
}
102
{ACAD_XDICTIONARY
360
B3
102
}
330
2A
100
AcDbVisualStyle
  2
3D Hidden
 70
     6
 71
     1
 72
     2
 73
     2
 90
        0
 40
-0.6
 41
-30.0
 62
     5
 63
     7
421
 16777215
 74
     2
 91
        2
 64
     7
 65
   257
 75
     2
175
     1
 42
40.0
 92
        0
 66
   257
 43
1.0
 76
     1
 77
     6
 78
     2
 67
     7
 79
     3
170
     0
171
     0
290
     0
174
     0
 93
        1
 44
0.0
173
     0
291
     0
 45
0.0
  0
VISUALSTYLE
  5
30
102
{ACAD_REACTORS
330
2A
102
}
102
{ACAD_XDICTIONARY
360
B1
102
}
330
2A
100
AcDbVisualStyle
  2
3dWireframe
 70
     5
 71
     0
 72
     2
 73
     0
 90
        0
 40
-0.6
 41
-30.0
 62
     5
 63
     7
421
 16777215
 74
     1
 91
        4
 64
     7
 65
   257
 75
     1
175
     1
 42
1.0
 92
        0
 66
   257
 43
1.0
 76
     1
 77
     6
 78
     2
 67
     7
 79
     5
170
     0
171
     0
290
     0
174
     0
 93
        1
 44
0.0
173
     0
291
     0
 45
0.0
  0
VISUALSTYLE
  5
32
102
{ACAD_REACTORS
330
2A
102
}
102
{ACAD_XDICTIONARY
360
B5
102
}
330
2A
100
AcDbVisualStyle
  2
Basic
 70
     7
 71
     1
 72
     0
 73
     1
 90
        0
 40
-0.6
 41
-30.0
 62
     5
 63
     7
421
 16777215
 74
     0
 91
        4
 64
     7
 65
   257
 75
     1
175
     1
 42
1.0
 92
        8
 66
     7
 43
1.0
 76
     1
 77
     6
 78
     2
 67
     7
 79
     5
170
     0
171
     0
290
     0
174
     0
 93
        1
 44
0.0
173
     0
291
     1
 45
0.0
  0
VISUALSTYLE
  5
36
102
{ACAD_REACTORS
330
2A
102
}
102
{ACAD_XDICTIONARY
360
BD
102
}
330
2A
100
AcDbVisualStyle
  2
Brighten
 70
    12
 71
     2
 72
     2
 73
     0
 90
        0
 40
-0.6
 41
-30.0
 62
     5
 63
     7
421
 16777215
 74
     1
 91
        4
 64
     7
 65
   257
 75
     1
175
     1
 42
1.0
 92
        8
 66
     7
 43
1.0
 76
     1
 77
     6
 78
     2
 67
     7
 79
     5
170
     0
171
     0
290
     0
174
     0
 93
        1
 44
50.0
173
     0
291
     1
 45
0.0
  0
VISUALSTYLE
  5
3A
102
{ACAD_REACTORS
330
2A
102
}
102
{ACAD_XDICTIONARY
360
C5
102
}
330
2A
100
AcDbVisualStyle
  2
ColorChange
 70
    16
 71
     2
 72
     2
 73
     3
 90
        0
 40
-0.6
 41
-30.0
 62
     5
 63
     8
421
  8421504
 74
     1
 91
        4
 64
     7
 65
   257
 75
     1
175
     1
 42
1.0
 92
        8
 66
     8
424
  8421504
 43
1.0
 76
     1
 77
     6
 78
     2
 67
     7
 79
     5
170
     0
171
     0
290
     0
174
     0
 93
        1
 44
0.0
173
     0
291
     1
 45
0.0
  0
VISUALSTYLE
  5
34
102
{ACAD_REACTORS
330
2A
102
}
102
{ACAD_XDICTIONARY
360
B9
102
}
330
2A
100
AcDbVisualStyle
  2
Conceptual
 70
     9
 71
     3
 72
     2
 73
     0
 90
        0
 40
-0.6
 41
-30.0
 62
     5
 63
     7
421
 16777215
 74
     2
 91
        2
 64
     7
 65
   257
 75
     1
175
     1
 42
40.0
 92
        8
 66
     7
 43
1.0
 76
     1
 77
     6
 78
     2
 67
     7
 79
     3
170
     0
171
     0
290
     0
174
     0
 93
        1
 44
0.0
173
     0
291
     0
 45
0.0
  0
VISUALSTYLE
  5
35
102
{ACAD_REACTORS
330
2A
102
}
102
{ACAD_XDICTIONARY
360
BB
102
}
330
2A
100
AcDbVisualStyle
  2
Dim
 70
    11
 71
     2
 72
     2
 73
     0
 90
        0
 40
-0.6
 41
-30.0
 62
     5
 63
     7
421
 16777215
 74
     1
 91
        4
 64
     7
 65
   257
 75
     1
175
     1
 42
1.0
 92
        8
 66
     7
 43
1.0
 76
     1
 77
     6
 78
     2
 67
     7
 79
     5
170
     0
171
     0
290
     0
174
     0
 93
        1
 44
-50.0
173
     0
291
     1
 45
0.0
  0
VISUALSTYLE
  5
39
102
{ACAD_REACTORS
330
2A
102
}
102
{ACAD_XDICTIONARY
360
C3
102
}
330
2A
100
AcDbVisualStyle
  2
Facepattern
 70
    15
 71
     2
 72
     2
 73
     0
 90
        0
 40
-0.6
 41
-30.0
 62
     5
 63
     7
421
 16777215
 74
     1
 91
        4
 64
     7
 65
   257
 75
     1
175
     1
 42
1.0
 92
        8
 66
     7
 43
1.0
 76
     1
 77
     6
 78
     2
 67
     7
 79
     5
170
     0
171
     0
290
     0
174
     0
 93
        1
 44
0.0
173
     0
291
     1
 45
0.0
  0
VISUALSTYLE
  5
2B
102
{ACAD_REACTORS
330
2A
102
}
102
{ACAD_XDICTIONARY
360
A7
102
}
330
2A
100
AcDbVisualStyle
  2
Flat
 70
     0
 71
     2
 72
     1
 73
     1
 90
        2
 40
-0.6
 41
30.0
 62
     5
 63
     7
421
 16777215
 74
     0
 91
        4
 64
     7
 65
   257
 75
     1
175
     1
 42
1.0
 92
        8
 66
     7
 43
1.0
 76
     1
 77
     6
 78
     2
 67
     7
 79
     5
170
     0
171
     0
290
     0
174
     0
 93
       13
 44
0.0
173
     0
291
     1
 45
0.0
  0
VISUALSTYLE
  5
2C
102
{ACAD_REACTORS
330
2A
102
}
102
{ACAD_XDICTIONARY
360
A9
102
}
330
2A
100
AcDbVisualStyle
  2
FlatWithEdges
 70
     1
 71
     2
 72
     1
 73
     1
 90
        2
 40
-0.6
 41
30.0
 62
     5
 63
     7
421
 16777215
 74
     1
 91
        4
 64
     7
 65
   257
 75
     1
175
     1
 42
1.0
 92
        0
 66
   257
 43
1.0
 76
     1
 77
     6
 78
     2
 67
     7
 79
     5
170
     0
171
     0
290
     0
174
     0
 93
       13
 44
0.0
173
     0
291
     1
 45
0.0
  0
VISUALSTYLE
  5
2D
102
{ACAD_REACTORS
330
2A
102
}
102
{ACAD_XDICTIONARY
360
AB
102
}
330
2A
100
AcDbVisualStyle
  2
Gouraud
 70
     2
 71
     2
 72
     2
 73
     1
 90
        2
 40
-0.6
 41
30.0
 62
     5
 63
     7
421
 16777215
 74
     0
 91
        4
 64
     7
 65
   257
 75
     1
175
     1
 42
1.0
 92
        0
 66
     7
 43
1.0
 76
     1
 77
     6
 78
     2
 67
     7
 79
     5
170
     0
171
     0
290
     0
174
     0
 93
       13
 44
0.0
173
     0
291
     1
 45
0.0
  0
VISUALSTYLE
  5
2E
102
{ACAD_REACTORS
330
2A
102
}
102
{ACAD_XDICTIONARY
360
AD
102
}
330
2A
100
AcDbVisualStyle
  2
GouraudWithEdges
 70
     3
 71
     2
 72
     2
 73
     1
 90
        2
 40
-0.6
 41
30.0
 62
     5
 63
     7
421
 16777215
 74
     1
 91
        4
 64
     7
 65
   257
 75
     1
175
     1
 42
1.0
 92
        0
 66
   257
 43
1.0
 76
     1
 77
     6
 78
     2
 67
     7
 79
     5
170
     0
171
     0
290
     0
174
     0
 93
       13
 44
0.0
173
     0
291
     1
 45
0.0
  0
VISUALSTYLE
  5
38
102
{ACAD_REACTORS
330
2A
102
}
102
{ACAD_XDICTIONARY
360
C1
102
}
330
2A
100
AcDbVisualStyle
  2
Linepattern
 70
    14
 71
     2
 72
     2
 73
     0
 90
        0
 40
-0.6
 41
-30.0
 62
     5
 63
     7
421
 16777215
 74
     1
 91
        4
 64
     7
 65
   257
 75
     7
175
     7
 42
1.0
 92
        8
 66
     7
 43
1.0
 76
     1
 77
     6
 78
     2
 67
     7
 79
     5
170
     0
171
     0
290
     0
174
     0
 93
        1
 44
0.0
173
     0
291
     1
 45
0.0
  0
VISUALSTYLE
  5
33
102
{ACAD_REACTORS
330
2A
102
}
102
{ACAD_XDICTIONARY
360
B7
102
}
330
2A
100
AcDbVisualStyle
  2
Realistic
 70
     8
 71
     2
 72
     2
 73
     0
 90
        0
 40
-0.6
 41
-30.0
 62
     5
 63
     7
421
 16777215
 74
     1
 91
        0
 64
     7
 65
   257
 75
     1
175
     1
 42
1.0
 92
        8
 66
     8
424
  7895160
 43
1.0
 76
     1
 77
     6
 78
     2
 67
     7
 79
     5
170
     0
171
     0
290
     0
174
     0
 93
       13
 44
0.0
173
     0
291
     0
 45
0.0
  0
VISUALSTYLE
  5
37
102
{ACAD_REACTORS
330
2A
102
}
102
{ACAD_XDICTIONARY
360
BF
102
}
330
2A
100
AcDbVisualStyle
  2
Thicken
 70
    13
 71
     2
 72
     2
 73
     0
 90
        0
 40
-0.6
 41
-30.0
 62
     5
 63
     7
421
 16777215
 74
     1
 91
        4
 64
     7
 65
   257
 75
     1
175
     1
 42
1.0
 92
       12
 66
     7
 43
1.0
 76
     1
 77
     6
 78
     2
 67
     7
 79
     5
170
     0
171
     0
290
     0
174
     0
 93
        1
 44
0.0
173
     0
291
     1
 45
0.0
  0
DICTIONARY
  5
AF
330
2F
100
AcDbDictionary
280
     1
281
     1
  3
ACAD_XREC_ROUNDTRIP
360
B0
  0
DICTIONARY
  5
B3
330
31
100
AcDbDictionary
280
     1
281
     1
  3
ACAD_XREC_ROUNDTRIP
360
B4
  0
DICTIONARY
  5
B1
330
30
100
AcDbDictionary
280
     1
281
     1
  3
ACAD_XREC_ROUNDTRIP
360
B2
  0
DICTIONARY
  5
B5
330
32
100
AcDbDictionary
280
     1
281
     1
  3
ACAD_XREC_ROUNDTRIP
360
B6
  0
DICTIONARY
  5
BD
330
36
100
AcDbDictionary
280
     1
281
     1
  3
ACAD_XREC_ROUNDTRIP
360
BE
  0
DICTIONARY
  5
C5
330
3A
100
AcDbDictionary
280
     1
281
     1
  3
ACAD_XREC_ROUNDTRIP
360
C6
  0
DICTIONARY
  5
B9
330
34
100
AcDbDictionary
280
     1
281
     1
  3
ACAD_XREC_ROUNDTRIP
360
BA
  0
DICTIONARY
  5
BB
330
35
100
AcDbDictionary
280
     1
281
     1
  3
ACAD_XREC_ROUNDTRIP
360
BC
  0
DICTIONARY
  5
C3
330
39
100
AcDbDictionary
280
     1
281
     1
  3
ACAD_XREC_ROUNDTRIP
360
C4
  0
DICTIONARY
  5
A7
330
2B
100
AcDbDictionary
280
     1
281
     1
  3
ACAD_XREC_ROUNDTRIP
360
A8
  0
DICTIONARY
  5
A9
330
2C
100
AcDbDictionary
280
     1
281
     1
  3
ACAD_XREC_ROUNDTRIP
360
AA
  0
DICTIONARY
  5
AB
330
2D
100
AcDbDictionary
280
     1
281
     1
  3
ACAD_XREC_ROUNDTRIP
360
AC
  0
DICTIONARY
  5
AD
330
2E
100
AcDbDictionary
280
     1
281
     1
  3
ACAD_XREC_ROUNDTRIP
360
AE
  0
DICTIONARY
  5
C1
330
38
100
AcDbDictionary
280
     1
281
     1
  3
ACAD_XREC_ROUNDTRIP
360
C2
  0
DICTIONARY
  5
B7
330
33
100
AcDbDictionary
280
     1
281
     1
  3
ACAD_XREC_ROUNDTRIP
360
B8
  0
DICTIONARY
  5
BF
330
37
100
AcDbDictionary
280
     1
281
     1
  3
ACAD_XREC_ROUNDTRIP
360
C0
  0
XRECORD
  5
B0
102
{ACAD_REACTORS
330
AF
102
}
330
AF
100
AcDbXrecord
280
     1
102
RTVSPropertyOp0
 70
     1
102
RTVSPropertyOp1
 70
     1
102
RTVSPropertyOp2
 70
     1
102
RTVSPropertyOp3
 70
     1
102
RTVSPropertyOp4
 70
     1
102
RTVSPropertyOp5
 70
     1
102
RTVSPropertyOp6
 70
     1
102
RTVSPropertyOp7
 70
     1
102
RTVSPropertyOp8
 70
     1
102
RTVSPropertyOp9
 70
     1
102
RTVSPropertyOp10
 70
     1
102
RTVSPropertyOp11
 70
     1
102
RTVSPropertyOp12
 70
     1
102
RTVSPropertyOp13
 70
     1
102
RTVSPropertyOp14
 70
     1
102
RTVSPropertyOp15
 70
     1
102
RTVSPropertyOp16
 70
     1
102
RTVSPropertyOp17
 70
     1
102
RTVSPropertyOp18
 70
     1
102
RTVSPropertyOp19
 70
     1
102
RTVSPropertyOp20
 70
     1
102
RTVSPropertyOp21
 70
     1
102
RTVSPropertyOp22
 70
     1
102
RTVSPropertyOp23
 70
     1
102
RTVSPropertyOp24
 70
     1
102
RTVSPropertyOp25
 70
     1
102
RTVSPropertyOp26
 70
     1
102
RTVSPropertyOp27
 70
     1
102
RTVSPropertyOp28
 70
     1
102
RTVSPropertyOp29
 70
     1
102
RTVSPropertyOp30
 70
     1
102
RTVSPropertyOp31
 70
     1
102
RTVSPropertyOp32
 70
     1
  0
XRECORD
  5
B4
102
{ACAD_REACTORS
330
B3
102
}
330
B3
100
AcDbXrecord
280
     1
102
RTVSPropertyOp0
 70
     1
102
RTVSPropertyOp1
 70
     1
102
RTVSPropertyOp2
 70
     1
102
RTVSPropertyOp3
 70
     1
102
RTVSPropertyOp4
 70
     1
102
RTVSPropertyOp5
 70
     1
102
RTVSPropertyOp6
 70
     1
102
RTVSPropertyOp7
 70
     1
102
RTVSPropertyOp8
 70
     1
102
RTVSPropertyOp9
 70
     1
102
RTVSPropertyOp10
 70
     1
102
RTVSPropertyOp11
 70
     1
102
RTVSPropertyOp12
 70
     1
102
RTVSPropertyOp13
 70
     1
102
RTVSPropertyOp14
 70
     1
102
RTVSPropertyOp15
 70
     1
102
RTVSPropertyOp16
 70
     1
102
RTVSPropertyOp17
 70
     1
102
RTVSPropertyOp18
 70
     1
102
RTVSPropertyOp19
 70
     1
102
RTVSPropertyOp20
 70
     1
102
RTVSPropertyOp21
 70
     1
102
RTVSPropertyOp22
 70
     1
102
RTVSPropertyOp23
 70
     1
102
RTVSPropertyOp24
 70
     1
102
RTVSPropertyOp25
 70
     1
102
RTVSPropertyOp26
 70
     1
102
RTVSPropertyOp27
 70
     1
102
RTVSPropertyOp28
 70
     1
102
RTVSPropertyOp29
 70
     1
102
RTVSPropertyOp30
 70
     1
102
RTVSPropertyOp31
 70
     1
102
RTVSPropertyOp32
 70
     1
  0
XRECORD
  5
B2
102
{ACAD_REACTORS
330
B1
102
}
330
B1
100
AcDbXrecord
280
     1
102
RTVSPropertyOp0
 70
     1
102
RTVSPropertyOp1
 70
     1
102
RTVSPropertyOp2
 70
     1
102
RTVSPropertyOp3
 70
     1
102
RTVSPropertyOp4
 70
     1
102
RTVSPropertyOp5
 70
     1
102
RTVSPropertyOp6
 70
     1
102
RTVSPropertyOp7
 70
     1
102
RTVSPropertyOp8
 70
     1
102
RTVSPropertyOp9
 70
     1
102
RTVSPropertyOp10
 70
     1
102
RTVSPropertyOp11
 70
     1
102
RTVSPropertyOp12
 70
     1
102
RTVSPropertyOp13
 70
     1
102
RTVSPropertyOp14
 70
     1
102
RTVSPropertyOp15
 70
     1
102
RTVSPropertyOp16
 70
     1
102
RTVSPropertyOp17
 70
     1
102
RTVSPropertyOp18
 70
     1
102
RTVSPropertyOp19
 70
     1
102
RTVSPropertyOp20
 70
     1
102
RTVSPropertyOp21
 70
     1
102
RTVSPropertyOp22
 70
     1
102
RTVSPropertyOp23
 70
     1
102
RTVSPropertyOp24
 70
     1
102
RTVSPropertyOp25
 70
     1
102
RTVSPropertyOp26
 70
     1
102
RTVSPropertyOp27
 70
     1
102
RTVSPropertyOp28
 70
     1
102
RTVSPropertyOp29
 70
     1
102
RTVSPropertyOp30
 70
     1
102
RTVSPropertyOp31
 70
     1
102
RTVSPropertyOp32
 70
     1
  0
XRECORD
  5
B6
102
{ACAD_REACTORS
330
B5
102
}
330
B5
100
AcDbXrecord
280
     1
102
RTVSPropertyOp0
 70
     1
102
RTVSPropertyOp1
 70
     1
102
RTVSPropertyOp2
 70
     1
102
RTVSPropertyOp3
 70
     1
102
RTVSPropertyOp4
 70
     1
102
RTVSPropertyOp5
 70
     1
102
RTVSPropertyOp6
 70
     1
102
RTVSPropertyOp7
 70
     1
102
RTVSPropertyOp8
 70
     1
102
RTVSPropertyOp9
 70
     1
102
RTVSPropertyOp10
 70
     1
102
RTVSPropertyOp11
 70
     1
102
RTVSPropertyOp12
 70
     1
102
RTVSPropertyOp13
 70
     1
102
RTVSPropertyOp14
 70
     1
102
RTVSPropertyOp15
 70
     1
102
RTVSPropertyOp16
 70
     1
102
RTVSPropertyOp17
 70
     1
102
RTVSPropertyOp18
 70
     1
102
RTVSPropertyOp19
 70
     1
102
RTVSPropertyOp20
 70
     1
102
RTVSPropertyOp21
 70
     1
102
RTVSPropertyOp22
 70
     1
102
RTVSPropertyOp23
 70
     1
102
RTVSPropertyOp24
 70
     1
102
RTVSPropertyOp25
 70
     1
102
RTVSPropertyOp26
 70
     1
102
RTVSPropertyOp27
 70
     1
102
RTVSPropertyOp28
 70
     1
102
RTVSPropertyOp29
 70
     1
102
RTVSPropertyOp30
 70
     1
102
RTVSPropertyOp31
 70
     1
102
RTVSPropertyOp32
 70
     1
  0
XRECORD
  5
BE
102
{ACAD_REACTORS
330
BD
102
}
330
BD
100
AcDbXrecord
280
     1
102
RTVSPropertyOp0
 70
     1
102
RTVSPropertyOp1
 70
     1
102
RTVSPropertyOp2
 70
     1
102
RTVSPropertyOp3
 70
     1
102
RTVSPropertyOp4
 70
     1
102
RTVSPropertyOp5
 70
     1
102
RTVSPropertyOp6
 70
     1
102
RTVSPropertyOp7
 70
     1
102
RTVSPropertyOp8
 70
     1
102
RTVSPropertyOp9
 70
     1
102
RTVSPropertyOp10
 70
     1
102
RTVSPropertyOp11
 70
     1
102
RTVSPropertyOp12
 70
     1
102
RTVSPropertyOp13
 70
     1
102
RTVSPropertyOp14
 70
     1
102
RTVSPropertyOp15
 70
     1
102
RTVSPropertyOp16
 70
     1
102
RTVSPropertyOp17
 70
     1
102
RTVSPropertyOp18
 70
     1
102
RTVSPropertyOp19
 70
     1
102
RTVSPropertyOp20
 70
     1
102
RTVSPropertyOp21
 70
     1
102
RTVSPropertyOp22
 70
     1
102
RTVSPropertyOp23
 70
     1
102
RTVSPropertyOp24
 70
     1
102
RTVSPropertyOp25
 70
     1
102
RTVSPropertyOp26
 70
     1
102
RTVSPropertyOp27
 70
     1
102
RTVSPropertyOp28
 70
     1
102
RTVSPropertyOp29
 70
     1
102
RTVSPropertyOp30
 70
     1
102
RTVSPropertyOp31
 70
     1
102
RTVSPropertyOp32
 70
     1
  0
XRECORD
  5
C6
102
{ACAD_REACTORS
330
C5
102
}
330
C5
100
AcDbXrecord
280
     1
102
RTVSPropertyOp0
 70
     1
102
RTVSPropertyOp1
 70
     1
102
RTVSPropertyOp2
 70
     1
102
RTVSPropertyOp3
 70
     1
102
RTVSPropertyOp4
 70
     1
102
RTVSPropertyOp5
 70
     1
102
RTVSPropertyOp6
 70
     1
102
RTVSPropertyOp7
 70
     1
102
RTVSPropertyOp8
 70
     1
102
RTVSPropertyOp9
 70
     1
102
RTVSPropertyOp10
 70
     1
102
RTVSPropertyOp11
 70
     1
102
RTVSPropertyOp12
 70
     1
102
RTVSPropertyOp13
 70
     1
102
RTVSPropertyOp14
 70
     1
102
RTVSPropertyOp15
 70
     1
102
RTVSPropertyOp16
 70
     1
102
RTVSPropertyOp17
 70
     1
102
RTVSPropertyOp18
 70
     1
102
RTVSPropertyOp19
 70
     1
102
RTVSPropertyOp20
 70
     1
102
RTVSPropertyOp21
 70
     1
102
RTVSPropertyOp22
 70
     1
102
RTVSPropertyOp23
 70
     1
102
RTVSPropertyOp24
 70
     1
102
RTVSPropertyOp25
 70
     1
102
RTVSPropertyOp26
 70
     1
102
RTVSPropertyOp27
 70
     1
102
RTVSPropertyOp28
 70
     1
102
RTVSPropertyOp29
 70
     1
102
RTVSPropertyOp30
 70
     1
102
RTVSPropertyOp31
 70
     1
102
RTVSPropertyOp32
 70
     1
  0
XRECORD
  5
BA
102
{ACAD_REACTORS
330
B9
102
}
330
B9
100
AcDbXrecord
280
     1
102
RTVSPropertyOp0
 70
     1
102
RTVSPropertyOp1
 70
     1
102
RTVSPropertyOp2
 70
     1
102
RTVSPropertyOp3
 70
     1
102
RTVSPropertyOp4
 70
     1
102
RTVSPropertyOp5
 70
     1
102
RTVSPropertyOp6
 70
     1
102
RTVSPropertyOp7
 70
     1
102
RTVSPropertyOp8
 70
     1
102
RTVSPropertyOp9
 70
     1
102
RTVSPropertyOp10
 70
     1
102
RTVSPropertyOp11
 70
     1
102
RTVSPropertyOp12
 70
     1
102
RTVSPropertyOp13
 70
     1
102
RTVSPropertyOp14
 70
     1
102
RTVSPropertyOp15
 70
     1
102
RTVSPropertyOp16
 70
     1
102
RTVSPropertyOp17
 70
     1
102
RTVSPropertyOp18
 70
     1
102
RTVSPropertyOp19
 70
     1
102
RTVSPropertyOp20
 70
     1
102
RTVSPropertyOp21
 70
     1
102
RTVSPropertyOp22
 70
     1
102
RTVSPropertyOp23
 70
     1
102
RTVSPropertyOp24
 70
     1
102
RTVSPropertyOp25
 70
     1
102
RTVSPropertyOp26
 70
     1
102
RTVSPropertyOp27
 70
     1
102
RTVSPropertyOp28
 70
     1
102
RTVSPropertyOp29
 70
     1
102
RTVSPropertyOp30
 70
     1
102
RTVSPropertyOp31
 70
     1
102
RTVSPropertyOp32
 70
     1
  0
XRECORD
  5
BC
102
{ACAD_REACTORS
330
BB
102
}
330
BB
100
AcDbXrecord
280
     1
102
RTVSPropertyOp0
 70
     1
102
RTVSPropertyOp1
 70
     1
102
RTVSPropertyOp2
 70
     1
102
RTVSPropertyOp3
 70
     1
102
RTVSPropertyOp4
 70
     1
102
RTVSPropertyOp5
 70
     1
102
RTVSPropertyOp6
 70
     1
102
RTVSPropertyOp7
 70
     1
102
RTVSPropertyOp8
 70
     1
102
RTVSPropertyOp9
 70
     1
102
RTVSPropertyOp10
 70
     1
102
RTVSPropertyOp11
 70
     1
102
RTVSPropertyOp12
 70
     1
102
RTVSPropertyOp13
 70
     1
102
RTVSPropertyOp14
 70
     1
102
RTVSPropertyOp15
 70
     1
102
RTVSPropertyOp16
 70
     1
102
RTVSPropertyOp17
 70
     1
102
RTVSPropertyOp18
 70
     1
102
RTVSPropertyOp19
 70
     1
102
RTVSPropertyOp20
 70
     1
102
RTVSPropertyOp21
 70
     1
102
RTVSPropertyOp22
 70
     1
102
RTVSPropertyOp23
 70
     1
102
RTVSPropertyOp24
 70
     1
102
RTVSPropertyOp25
 70
     1
102
RTVSPropertyOp26
 70
     1
102
RTVSPropertyOp27
 70
     1
102
RTVSPropertyOp28
 70
     1
102
RTVSPropertyOp29
 70
     1
102
RTVSPropertyOp30
 70
     1
102
RTVSPropertyOp31
 70
     1
102
RTVSPropertyOp32
 70
     1
  0
XRECORD
  5
C4
102
{ACAD_REACTORS
330
C3
102
}
330
C3
100
AcDbXrecord
280
     1
102
RTVSPropertyOp0
 70
     1
102
RTVSPropertyOp1
 70
     1
102
RTVSPropertyOp2
 70
     1
102
RTVSPropertyOp3
 70
     1
102
RTVSPropertyOp4
 70
     1
102
RTVSPropertyOp5
 70
     1
102
RTVSPropertyOp6
 70
     1
102
RTVSPropertyOp7
 70
     1
102
RTVSPropertyOp8
 70
     1
102
RTVSPropertyOp9
 70
     1
102
RTVSPropertyOp10
 70
     1
102
RTVSPropertyOp11
 70
     1
102
RTVSPropertyOp12
 70
     1
102
RTVSPropertyOp13
 70
     1
102
RTVSPropertyOp14
 70
     1
102
RTVSPropertyOp15
 70
     1
102
RTVSPropertyOp16
 70
     1
102
RTVSPropertyOp17
 70
     1
102
RTVSPropertyOp18
 70
     1
102
RTVSPropertyOp19
 70
     1
102
RTVSPropertyOp20
 70
     1
102
RTVSPropertyOp21
 70
     1
102
RTVSPropertyOp22
 70
     1
102
RTVSPropertyOp23
 70
     1
102
RTVSPropertyOp24
 70
     1
102
RTVSPropertyOp25
 70
     1
102
RTVSPropertyOp26
 70
     1
102
RTVSPropertyOp27
 70
     1
102
RTVSPropertyOp28
 70
     1
102
RTVSPropertyOp29
 70
     1
102
RTVSPropertyOp30
 70
     1
102
RTVSPropertyOp31
 70
     1
102
RTVSPropertyOp32
 70
     1
  0
XRECORD
  5
A8
102
{ACAD_REACTORS
330
A7
102
}
330
A7
100
AcDbXrecord
280
     1
102
RTVSPropertyOp0
 70
     1
102
RTVSPropertyOp1
 70
     1
102
RTVSPropertyOp2
 70
     1
102
RTVSPropertyOp3
 70
     1
102
RTVSPropertyOp4
 70
     1
102
RTVSPropertyOp5
 70
     1
102
RTVSPropertyOp6
 70
     1
102
RTVSPropertyOp7
 70
     1
102
RTVSPropertyOp8
 70
     1
102
RTVSPropertyOp9
 70
     1
102
RTVSPropertyOp10
 70
     1
102
RTVSPropertyOp11
 70
     1
102
RTVSPropertyOp12
 70
     1
102
RTVSPropertyOp13
 70
     1
102
RTVSPropertyOp14
 70
     1
102
RTVSPropertyOp15
 70
     1
102
RTVSPropertyOp16
 70
     1
102
RTVSPropertyOp17
 70
     1
102
RTVSPropertyOp18
 70
     1
102
RTVSPropertyOp19
 70
     1
102
RTVSPropertyOp20
 70
     1
102
RTVSPropertyOp21
 70
     1
102
RTVSPropertyOp22
 70
     1
102
RTVSPropertyOp23
 70
     1
102
RTVSPropertyOp24
 70
     1
102
RTVSPropertyOp25
 70
     1
102
RTVSPropertyOp26
 70
     1
102
RTVSPropertyOp27
 70
     1
102
RTVSPropertyOp28
 70
     1
102
RTVSPropertyOp29
 70
     1
102
RTVSPropertyOp30
 70
     1
102
RTVSPropertyOp31
 70
     1
102
RTVSPropertyOp32
 70
     1
  0
XRECORD
  5
AA
102
{ACAD_REACTORS
330
A9
102
}
330
A9
100
AcDbXrecord
280
     1
102
RTVSPropertyOp0
 70
     1
102
RTVSPropertyOp1
 70
     1
102
RTVSPropertyOp2
 70
     1
102
RTVSPropertyOp3
 70
     1
102
RTVSPropertyOp4
 70
     1
102
RTVSPropertyOp5
 70
     1
102
RTVSPropertyOp6
 70
     1
102
RTVSPropertyOp7
 70
     1
102
RTVSPropertyOp8
 70
     1
102
RTVSPropertyOp9
 70
     1
102
RTVSPropertyOp10
 70
     1
102
RTVSPropertyOp11
 70
     1
102
RTVSPropertyOp12
 70
     1
102
RTVSPropertyOp13
 70
     1
102
RTVSPropertyOp14
 70
     1
102
RTVSPropertyOp15
 70
     1
102
RTVSPropertyOp16
 70
     1
102
RTVSPropertyOp17
 70
     1
102
RTVSPropertyOp18
 70
     1
102
RTVSPropertyOp19
 70
     1
102
RTVSPropertyOp20
 70
     1
102
RTVSPropertyOp21
 70
     1
102
RTVSPropertyOp22
 70
     1
102
RTVSPropertyOp23
 70
     1
102
RTVSPropertyOp24
 70
     1
102
RTVSPropertyOp25
 70
     1
102
RTVSPropertyOp26
 70
     1
102
RTVSPropertyOp27
 70
     1
102
RTVSPropertyOp28
 70
     1
102
RTVSPropertyOp29
 70
     1
102
RTVSPropertyOp30
 70
     1
102
RTVSPropertyOp31
 70
     1
102
RTVSPropertyOp32
 70
     1
  0
XRECORD
  5
AC
102
{ACAD_REACTORS
330
AB
102
}
330
AB
100
AcDbXrecord
280
     1
102
RTVSPropertyOp0
 70
     1
102
RTVSPropertyOp1
 70
     1
102
RTVSPropertyOp2
 70
     1
102
RTVSPropertyOp3
 70
     1
102
RTVSPropertyOp4
 70
     1
102
RTVSPropertyOp5
 70
     1
102
RTVSPropertyOp6
 70
     1
102
RTVSPropertyOp7
 70
     1
102
RTVSPropertyOp8
 70
     1
102
RTVSPropertyOp9
 70
     1
102
RTVSPropertyOp10
 70
     1
102
RTVSPropertyOp11
 70
     1
102
RTVSPropertyOp12
 70
     1
102
RTVSPropertyOp13
 70
     1
102
RTVSPropertyOp14
 70
     1
102
RTVSPropertyOp15
 70
     1
102
RTVSPropertyOp16
 70
     1
102
RTVSPropertyOp17
 70
     1
102
RTVSPropertyOp18
 70
     1
102
RTVSPropertyOp19
 70
     1
102
RTVSPropertyOp20
 70
     1
102
RTVSPropertyOp21
 70
     1
102
RTVSPropertyOp22
 70
     1
102
RTVSPropertyOp23
 70
     1
102
RTVSPropertyOp24
 70
     1
102
RTVSPropertyOp25
 70
     1
102
RTVSPropertyOp26
 70
     1
102
RTVSPropertyOp27
 70
     1
102
RTVSPropertyOp28
 70
     1
102
RTVSPropertyOp29
 70
     1
102
RTVSPropertyOp30
 70
     1
102
RTVSPropertyOp31
 70
     1
102
RTVSPropertyOp32
 70
     1
  0
XRECORD
  5
AE
102
{ACAD_REACTORS
330
AD
102
}
330
AD
100
AcDbXrecord
280
     1
102
RTVSPropertyOp0
 70
     1
102
RTVSPropertyOp1
 70
     1
102
RTVSPropertyOp2
 70
     1
102
RTVSPropertyOp3
 70
     1
102
RTVSPropertyOp4
 70
     1
102
RTVSPropertyOp5
 70
     1
102
RTVSPropertyOp6
 70
     1
102
RTVSPropertyOp7
 70
     1
102
RTVSPropertyOp8
 70
     1
102
RTVSPropertyOp9
 70
     1
102
RTVSPropertyOp10
 70
     1
102
RTVSPropertyOp11
 70
     1
102
RTVSPropertyOp12
 70
     1
102
RTVSPropertyOp13
 70
     1
102
RTVSPropertyOp14
 70
     1
102
RTVSPropertyOp15
 70
     1
102
RTVSPropertyOp16
 70
     1
102
RTVSPropertyOp17
 70
     1
102
RTVSPropertyOp18
 70
     1
102
RTVSPropertyOp19
 70
     1
102
RTVSPropertyOp20
 70
     1
102
RTVSPropertyOp21
 70
     1
102
RTVSPropertyOp22
 70
     1
102
RTVSPropertyOp23
 70
     1
102
RTVSPropertyOp24
 70
     1
102
RTVSPropertyOp25
 70
     1
102
RTVSPropertyOp26
 70
     1
102
RTVSPropertyOp27
 70
     1
102
RTVSPropertyOp28
 70
     1
102
RTVSPropertyOp29
 70
     1
102
RTVSPropertyOp30
 70
     1
102
RTVSPropertyOp31
 70
     1
102
RTVSPropertyOp32
 70
     1
  0
XRECORD
  5
C2
102
{ACAD_REACTORS
330
C1
102
}
330
C1
100
AcDbXrecord
280
     1
102
RTVSPropertyOp0
 70
     1
102
RTVSPropertyOp1
 70
     1
102
RTVSPropertyOp2
 70
     1
102
RTVSPropertyOp3
 70
     1
102
RTVSPropertyOp4
 70
     1
102
RTVSPropertyOp5
 70
     1
102
RTVSPropertyOp6
 70
     1
102
RTVSPropertyOp7
 70
     1
102
RTVSPropertyOp8
 70
     1
102
RTVSPropertyOp9
 70
     1
102
RTVSPropertyOp10
 70
     1
102
RTVSPropertyOp11
 70
     1
102
RTVSPropertyOp12
 70
     1
102
RTVSPropertyOp13
 70
     1
102
RTVSPropertyOp14
 70
     1
102
RTVSPropertyOp15
 70
     1
102
RTVSPropertyOp16
 70
     1
102
RTVSPropertyOp17
 70
     1
102
RTVSPropertyOp18
 70
     1
102
RTVSPropertyOp19
 70
     1
102
RTVSPropertyOp20
 70
     1
102
RTVSPropertyOp21
 70
     1
102
RTVSPropertyOp22
 70
     1
102
RTVSPropertyOp23
 70
     1
102
RTVSPropertyOp24
 70
     1
102
RTVSPropertyOp25
 70
     1
102
RTVSPropertyOp26
 70
     1
102
RTVSPropertyOp27
 70
     1
102
RTVSPropertyOp28
 70
     1
102
RTVSPropertyOp29
 70
     1
102
RTVSPropertyOp30
 70
     1
102
RTVSPropertyOp31
 70
     1
102
RTVSPropertyOp32
 70
     1
  0
XRECORD
  5
B8
102
{ACAD_REACTORS
330
B7
102
}
330
B7
100
AcDbXrecord
280
     1
102
RTVSPropertyOp0
 70
     1
102
RTVSPropertyOp1
 70
     1
102
RTVSPropertyOp2
 70
     1
102
RTVSPropertyOp3
 70
     1
102
RTVSPropertyOp4
 70
     1
102
RTVSPropertyOp5
 70
     1
102
RTVSPropertyOp6
 70
     1
102
RTVSPropertyOp7
 70
     1
102
RTVSPropertyOp8
 70
     1
102
RTVSPropertyOp9
 70
     1
102
RTVSPropertyOp10
 70
     1
102
RTVSPropertyOp11
 70
     1
102
RTVSPropertyOp12
 70
     1
102
RTVSPropertyOp13
 70
     1
102
RTVSPropertyOp14
 70
     1
102
RTVSPropertyOp15
 70
     1
102
RTVSPropertyOp16
 70
     1
102
RTVSPropertyOp17
 70
     1
102
RTVSPropertyOp18
 70
     1
102
RTVSPropertyOp19
 70
     1
102
RTVSPropertyOp20
 70
     1
102
RTVSPropertyOp21
 70
     1
102
RTVSPropertyOp22
 70
     1
102
RTVSPropertyOp23
 70
     1
102
RTVSPropertyOp24
 70
     1
102
RTVSPropertyOp25
 70
     1
102
RTVSPropertyOp26
 70
     1
102
RTVSPropertyOp27
 70
     1
102
RTVSPropertyOp28
 70
     1
102
RTVSPropertyOp29
 70
     1
102
RTVSPropertyOp30
 70
     1
102
RTVSPropertyOp31
 70
     1
102
RTVSPropertyOp32
 70
     1
  0
XRECORD
  5
C0
102
{ACAD_REACTORS
330
BF
102
}
330
BF
100
AcDbXrecord
280
     1
102
RTVSPropertyOp0
 70
     1
102
RTVSPropertyOp1
 70
     1
102
RTVSPropertyOp2
 70
     1
102
RTVSPropertyOp3
 70
     1
102
RTVSPropertyOp4
 70
     1
102
RTVSPropertyOp5
 70
     1
102
RTVSPropertyOp6
 70
     1
102
RTVSPropertyOp7
 70
     1
102
RTVSPropertyOp8
 70
     1
102
RTVSPropertyOp9
 70
     1
102
RTVSPropertyOp10
 70
     1
102
RTVSPropertyOp11
 70
     1
102
RTVSPropertyOp12
 70
     1
102
RTVSPropertyOp13
 70
     1
102
RTVSPropertyOp14
 70
     1
102
RTVSPropertyOp15
 70
     1
102
RTVSPropertyOp16
 70
     1
102
RTVSPropertyOp17
 70
     1
102
RTVSPropertyOp18
 70
     1
102
RTVSPropertyOp19
 70
     1
102
RTVSPropertyOp20
 70
     1
102
RTVSPropertyOp21
 70
     1
102
RTVSPropertyOp22
 70
     1
102
RTVSPropertyOp23
 70
     1
102
RTVSPropertyOp24
 70
     1
102
RTVSPropertyOp25
 70
     1
102
RTVSPropertyOp26
 70
     1
102
RTVSPropertyOp27
 70
     1
102
RTVSPropertyOp28
 70
     1
102
RTVSPropertyOp29
 70
     1
102
RTVSPropertyOp30
 70
     1
102
RTVSPropertyOp31
 70
     1
102
RTVSPropertyOp32
 70
     1
  0
ENDSEC
  0
EOF
