  0
SECTION
  2
HEADER
  9
$ACADVER
  1
AC1021
  9
$ACADMAINTVER
 70
    25
  9
$DWGCODEPAGE
  3
ANSI_1252
  9
$INSBASE
 10
0.0
 20
0.0
 30
0.0
  9
$EXTMIN
 10
-7.2336
 20
-115.1289
 30
0.0
  9
$EXTMAX
 10
196.4047
 20
131.65
 30
0.0
  9
$LIMMIN
 10
0.0
 20
0.0
  9
$LIMMAX
 10
12.0
 20
9.0
  9
$ORTHOMODE
 70
     0
  9
$REGENMODE
 70
     1
  9
$FILLMODE
 70
     1
  9
$QTEXTMODE
 70
     0
  9
$MIRRTEXT
 70
     1
  9
$LTSCALE
 40
1.0
  9
$ATTMODE
 70
     1
  9
$TEXTSIZE
 40
0.2
  9
$TRACEWID
 40
0.05
  9
$TEXTSTYLE
  7
Standard
  9
$CLAYER
  8
0
  9
$CELTYPE
  6
ByLayer
  9
$CECOLOR
 62
   256
  9
$CELTSCALE
 40
1.0
  9
$DISPSILH
 70
     0
  9
$DIMSCALE
 40
1.0
  9
$DIMASZ
 40
0.18
  9
$DIMEXO
 40
0.0625
  9
$DIMDLI
 40
0.38
  9
$DIMRND
 40
0.0
  9
$DIMDLE
 40
0.0
  9
$DIMEXE
 40
0.18
  9
$DIMTP
 40
0.0
  9
$DIMTM
 40
0.0
  9
$DIMTXT
 40
0.18
  9
$DIMCEN
 40
0.09
  9
$DIMTSZ
 40
0.0
  9
$DIMTOL
 70
     0
  9
$DIMLIM
 70
     0
  9
$DIMTIH
 70
     1
  9
$DIMTOH
 70
     1
  9
$DIMSE1
 70
     0
  9
$DIMSE2
 70
     0
  9
$DIMTAD
 70
     0
  9
$DIMZIN
 70
     0
  9
$DIMBLK
  1

  9
$DIMASO
 70
     1
  9
$DIMSHO
 70
     1
  9
$DIMPOST
  1

  9
$DIMAPOST
  1

  9
$DIMALT
 70
     0
  9
$DIMALTD
 70
     2
  9
$DIMALTF
 40
25.4
  9
$DIMLFAC
 40
1.0
  9
$DIMTOFL
 70
     0
  9
$DIMTVP
 40
0.0
  9
$DIMTIX
 70
     0
  9
$DIMSOXD
 70
     0
  9
$DIMSAH
 70
     0
  9
$DIMBLK1
  1

  9
$DIMBLK2
  1

  9
$DIMSTYLE
  2
Standard
  9
$DIMCLRD
 70
     0
  9
$DIMCLRE
 70
     0
  9
$DIMCLRT
 70
     0
  9
$DIMTFAC
 40
1.0
  9
$DIMGAP
 40
0.09
  9
$DIMJUST
 70
     0
  9
$DIMSD1
 70
     0
  9
$DIMSD2
 70
     0
  9
$DIMTOLJ
 70
     1
  9
$DIMTZIN
 70
     0
  9
$DIMALTZ
 70
     0
  9
$DIMALTTZ
 70
     0
  9
$DIMUPT
 70
     0
  9
$DIMDEC
 70
     4
  9
$DIMTDEC
 70
     4
  9
$DIMALTU
 70
     2
  9
$DIMALTTD
 70
     2
  9
$DIMTXSTY
  7
Standard
  9
$DIMAUNIT
 70
     0
  9
$DIMADEC
 70
     0
  9
$DIMALTRND
 40
0.0
  9
$DIMAZIN
 70
     0
  9
$DIMDSEP
 70
    46
  9
$DIMATFIT
 70
     3
  9
$DIMFRAC
 70
     0
  9
$DIMLDRBLK
  1

  9
$DIMLUNIT
 70
     2
  9
$DIMLWD
 70
    -2
  9
$DIMLWE
 70
    -2
  9
$DIMTMOVE
 70
     0
  9
$DIMFXL
 40
1.0
  9
$DIMFXLON
 70
     0
  9
$DIMJOGANG
 40
0.7853981633974483
  9
$DIMTFILL
 70
     0
  9
$DIMTFILLCLR
 70
     0
  9
$DIMARCSYM
 70
     0
  9
$DIMLTYPE
  6

  9
$DIMLTEX1
  6

  9
$DIMLTEX2
  6

  9
$LUNITS
 70
     2
  9
$LUPREC
 70
     4
  9
$SKETCHINC
 40
0.1
  9
$FILLETRAD
 40
0.5
  9
$AUNITS
 70
     0
  9
$AUPREC
 70
     0
  9
$MENU
  1
.
  9
$ELEVATION
 40
0.0
  9
$PELEVATION
 40
0.0
  9
$THICKNESS
 40
0.0
  9
$LIMCHECK
 70
     0
  9
$CHAMFERA
 40
0.5
  9
$CHAMFERB
 40
0.5
  9
$CHAMFERC
 40
1.0
  9
$CHAMFERD
 40
0.0
  9
$SKPOLY
 70
     0
  9
$TDCREATE
 40
2458492.863111586
  9
$TDUCREATE
 40
2458492.863111586
  9
$TDUPDATE
 40
2458492.863111817
  9
$TDUUPDATE
 40
2458492.863111817
  9
$TDINDWG
 40
0.0000000116
  9
$TDUSRTIMER
 40
0.0000000116
  9
$USRTIMER
 70
     1
  9
$ANGBASE
 50
0.0
  9
$ANGDIR
 70
     0
  9
$PDMODE
 70
     0
  9
$PDSIZE
 40
0.0
  9
$PLINEWID
 40
0.0
  9
$SPLFRAME
 70
     0
  9
$SPLINETYPE
 70
     6
  9
$SPLINESEGS
 70
     8
  9
$HANDSEED
  5
8E
  9
$SURFTAB1
 70
     6
  9
$SURFTAB2
 70
     6
  9
$SURFTYPE
 70
     6
  9
$SURFU
 70
     6
  9
$SURFV
 70
     6
  9
$UCSBASE
  2

  9
$UCSNAME
  2

  9
$UCSORG
 10
0.0
 20
0.0
 30
0.0
  9
$UCSXDIR
 10
1.0
 20
0.0
 30
0.0
  9
$UCSYDIR
 10
0.0
 20
1.0
 30
0.0
  9
$UCSORTHOREF
  2

  9
$UCSORTHOVIEW
 70
     0
  9
$UCSORGTOP
 10
0.0
 20
0.0
 30
0.0
  9
$UCSORGBOTTOM
 10
0.0
 20
0.0
 30
0.0
  9
$UCSORGLEFT
 10
0.0
 20
0.0
 30
0.0
  9
$UCSORGRIGHT
 10
0.0
 20
0.0
 30
0.0
  9
$UCSORGFRONT
 10
0.0
 20
0.0
 30
0.0
  9
$UCSORGBACK
 10
0.0
 20
0.0
 30
0.0
  9
$PUCSBASE
  2

  9
$PUCSNAME
  2

  9
$PUCSORG
 10
0.0
 20
0.0
 30
0.0
  9
$PUCSXDIR
 10
1.0
 20
0.0
 30
0.0
  9
$PUCSYDIR
 10
0.0
 20
1.0
 30
0.0
  9
$PUCSORTHOREF
  2

  9
$PUCSORTHOVIEW
 70
     0
  9
$PUCSORGTOP
 10
0.0
 20
0.0
 30
0.0
  9
$PUCSORGBOTTOM
 10
0.0
 20
0.0
 30
0.0
  9
$PUCSORGLEFT
 10
0.0
 20
0.0
 30
0.0
  9
$PUCSORGRIGHT
 10
0.0
 20
0.0
 30
0.0
  9
$PUCSORGFRONT
 10
0.0
 20
0.0
 30
0.0
  9
$PUCSORGBACK
 10
0.0
 20
0.0
 30
0.0
  9
$USERI1
 70
     0
  9
$USERI2
 70
     0
  9
$USERI3
 70
     0
  9
$USERI4
 70
     0
  9
$USERI5
 70
     0
  9
$USERR1
 40
0.0
  9
$USERR2
 40
0.0
  9
$USERR3
 40
0.0
  9
$USERR4
 40
0.0
  9
$USERR5
 40
0.0
  9
$WORLDVIEW
 70
     1
  9
$SHADEDGE
 70
     3
  9
$SHADEDIF
 70
    70
  9
$TILEMODE
 70
     1
  9
$MAXACTVP
 70
    64
  9
$PINSBASE
 10
0.0
 20
0.0
 30
0.0
  9
$PLIMCHECK
 70
     0
  9
$PEXTMIN
 10
1.000000000000000E+20
 20
1.000000000000000E+20
 30
1.000000000000000E+20
  9
$PEXTMAX
 10
-1.000000000000000E+20
 20
-1.000000000000000E+20
 30
-1.000000000000000E+20
  9
$PLIMMIN
 10
0.0
 20
0.0
  9
$PLIMMAX
 10
12.0
 20
9.0
  9
$UNITMODE
 70
     0
  9
$VISRETAIN
 70
     1
  9
$PLINEGEN
 70
     0
  9
$PSLTSCALE
 70
     1
  9
$TREEDEPTH
 70
  3020
  9
$CMLSTYLE
  2
Standard
  9
$CMLJUST
 70
     0
  9
$CMLSCALE
 40
1.0
  9
$PROXYGRAPHICS
 70
     1
  9
$MEASUREMENT
 70
     0
  9
$CELWEIGHT
370
    -1
  9
$ENDCAPS
280
     0
  9
$JOINSTYLE
280
     0
  9
$LWDISPLAY
290
     0
  9
$INSUNITS
 70
     4
  9
$HYPERLINKBASE
  1

  9
$STYLESHEET
  1

  9
$XEDIT
290
     1
  9
$CEPSNTYPE
380
     0
  9
$PSTYLEMODE
290
     1
  9
$FINGERPRINTGUID
  2
{FE33AEF4-493A-4A7B-9232-8F05C7ACAB68}
  9
$VERSIONGUID
  2
{FAEB1C32-E019-11D5-929B-00C0DF256EC4}
  9
$EXTNAMES
290
     1
  9
$PSVPSCALE
 40
0.0
  9
$OLESTARTUP
290
     0
  9
$SORTENTS
280
   127
  9
$INDEXCTL
280
     0
  9
$HIDETEXT
280
     1
  9
$XCLIPFRAME
290
     0
  9
$HALOGAP
280
     0
  9
$OBSCOLOR
 70
   257
  9
$OBSLTYPE
280
     0
  9
$INTERSECTIONDISPLAY
280
     0
  9
$INTERSECTIONCOLOR
 70
   257
  9
$DIMASSOC
280
     2
  9
$PROJECTNAME
  1

  9
$CAMERADISPLAY
290
     0
  9
$LENSLENGTH
 40
50.0
  9
$CAMERAHEIGHT
 40
0.0
  9
$STEPSPERSEC
 40
2.0
  9
$STEPSIZE
 40
6.0
  9
$3DDWFPREC
 40
2.0
  9
$PSOLWIDTH
 40
0.25
  9
$PSOLHEIGHT
 40
4.0
  9
$LOFTANG1
 40
1.570796326794897
  9
$LOFTANG2
 40
1.570796326794897
  9
$LOFTMAG1
 40
0.0
  9
$LOFTMAG2
 40
0.0
  9
$LOFTPARAM
 70
     7
  9
$LOFTNORMALS
280
     1
  9
$LATITUDE
 40
37.795
  9
$LONGITUDE
 40
-122.394
  9
$NORTHDIRECTION
 40
0.0
  9
$TIMEZONE
 70
 -8000
  9
$LIGHTGLYPHDISPLAY
280
     1
  9
$TILEMODELIGHTSYNCH
280
     1
  9
$SOLIDHIST
280
     1
  9
$SHOWHIST
280
     1
  9
$DWFFRAME
280
     2
  9
$DGNFRAME
280
     2
  9
$REALWORLDSCALE
290
     1
  9
$INTERFERECOLOR
 62
   256
  9
$CSHADOW
280
     0
  9
$SHADOWPLANELOCATION
 40
0.0
  0
ENDSEC
  0
SECTION
  2
CLASSES
  0
CLASS
  1
ACDBDICTIONARYWDFLT
  2
AcDbDictionaryWithDefault
  3
ObjectDBX Classes
 90
        0
 91
        4
280
     0
281
     0
  0
CLASS
  1
VISUALSTYLE
  2
AcDbVisualStyle
  3
ObjectDBX Classes
 90
     4095
 91
        4
280
     0
281
     0
  0
CLASS
  1
MATERIAL
  2
AcDbMaterial
  3
ObjectDBX Classes
 90
     1153
 91
        4
280
     0
281
     0
  0
ENDSEC
  0
SECTION
  2
TABLES
  0
TABLE
  2
VPORT
  5
8
330
0
100
AcDbSymbolTable
 70
     1
  0
VPORT
  5
29
330
8
100
AcDbSymbolTableRecord
100
AcDbViewportTableRecord
  2
*Active
 70
     0
 10
0.0
 20
0.0
 11
1.0
 21
1.0
 12
10.42990654205607
 22
4.5
 13
0.0
 23
0.0
 14
0.5
 24
0.5
 15
0.5
 25
0.5
 16
0.0
 26
0.0
 36
1.0
 17
0.0
 27
0.0
 37
0.0
 40
9.0
 41
1.972972972850329
 42
50.0
 43
0.0
 44
0.0
 50
0.0
 51
0.0
 71
     0
 72
   100
 73
     1
 74
     3
 75
     0
 76
     0
 77
     0
 78
     0
281
     0
 65
     1
110
0.0
120
0.0
130
0.0
111
1.0
121
0.0
131
0.0
112
0.0
122
1.0
132
0.0
 79
     0
146
0.0
 60
     3
 61
     5
292
     1
282
     1
141
0.0
142
0.0
 63
   250
  0
ENDTAB
  0
TABLE
  2
LTYPE
  5
5
330
0
100
AcDbSymbolTable
 70
     1
  0
LTYPE
  5
14
330
5
100
AcDbSymbolTableRecord
100
AcDbLinetypeTableRecord
  2
ByBlock
 70
     0
  3

 72
    65
 73
     0
 40
0.0
  0
LTYPE
  5
15
330
5
100
AcDbSymbolTableRecord
100
AcDbLinetypeTableRecord
  2
ByLayer
 70
     0
  3

 72
    65
 73
     0
 40
0.0
  0
LTYPE
  5
16
330
5
100
AcDbSymbolTableRecord
100
AcDbLinetypeTableRecord
  2
Continuous
 70
     0
  3
Solid line
 72
    65
 73
     0
 40
0.0
  0
ENDTAB
  0
TABLE
  2
LAYER
  5
2
330
0
100
AcDbSymbolTable
 70
     3
  0
LAYER
  5
10
330
2
100
AcDbSymbolTableRecord
100
AcDbLayerTableRecord
  2
0
 70
     0
 62
     7
  6
Continuous
370
    -3
390
F
347
3E
  0
LAYER
  5
40
330
2
100
AcDbSymbolTableRecord
100
AcDbLayerTableRecord
  2
layer 1
 70
     0
 62
     7
  6
Continuous
370
    -3
390
F
347
3E
  0
LAYER
  5
6B
330
2
100
AcDbSymbolTableRecord
100
AcDbLayerTableRecord
  2
Master Guides
 70
     0
 62
     7
  6
Continuous
370
    -3
390
F
347
3E
  0
ENDTAB
  0
TABLE
  2
STYLE
  5
3
330
0
100
AcDbSymbolTable
 70
     1
  0
STYLE
  5
11
330
3
100
AcDbSymbolTableRecord
100
AcDbTextStyleTableRecord
  2
Standard
 70
     0
 40
0.0
 41
1.0
 50
0.0
 71
     0
 42
0.2
  3
txt
  4

  0
ENDTAB
  0
TABLE
  2
VIEW
  5
6
330
0
100
AcDbSymbolTable
 70
     0
  0
ENDTAB
  0
TABLE
  2
UCS
  5
7
330
0
100
AcDbSymbolTable
 70
     0
  0
ENDTAB
  0
TABLE
  2
APPID
  5
9
330
0
100
AcDbSymbolTable
 70
     2
  0
APPID
  5
12
330
9
100
AcDbSymbolTableRecord
100
AcDbRegAppTableRecord
  2
ACAD
 70
     0
  0
APPID
  5
3F
330
9
100
AcDbSymbolTableRecord
100
AcDbRegAppTableRecord
  2
ODA
 70
     0
  0
ENDTAB
  0
TABLE
  2
DIMSTYLE
  5
A
330
0
100
AcDbSymbolTable
 70
     1
100
AcDbDimStyleTable
  0
DIMSTYLE
105
27
330
A
100
AcDbSymbolTableRecord
100
AcDbDimStyleTableRecord
  2
Standard
 70
     0
178
     0
340
11
  0
ENDTAB
  0
TABLE
  2
BLOCK_RECORD
  5
1
330
0
100
AcDbSymbolTable
 70
     1
  0
BLOCK_RECORD
  5
1F
330
1
100
AcDbSymbolTableRecord
100
AcDbBlockTableRecord
  2
*Model_Space
340
22
 70
     0
280
     1
281
     0
  0
BLOCK_RECORD
  5
1B
330
1
100
AcDbSymbolTableRecord
100
AcDbBlockTableRecord
  2
*Paper_Space
340
1E
 70
     0
280
     1
281
     0
  0
BLOCK_RECORD
  5
23
330
1
100
AcDbSymbolTableRecord
100
AcDbBlockTableRecord
  2
*Paper_Space0
340
26
 70
     0
280
     1
281
     0
  0
ENDTAB
  0
ENDSEC
  0
SECTION
  2
BLOCKS
  0
BLOCK
  5
20
330
1F
100
AcDbEntity
  8
0
100
AcDbBlockBegin
  2
*Model_Space
 70
     0
 10
0.0
 20
0.0
 30
0.0
  3
*Model_Space
  1

  0
ENDBLK
  5
21
330
1F
100
AcDbEntity
  8
0
100
AcDbBlockEnd
  0
BLOCK
  5
1C
330
1B
100
AcDbEntity
 67
     1
  8
0
100
AcDbBlockBegin
  2
*Paper_Space
 70
     0
 10
0.0
 20
0.0
 30
0.0
  3
*Paper_Space
  1

  0
ENDBLK
  5
1D
330
1B
100
AcDbEntity
 67
     1
  8
0
100
AcDbBlockEnd
  0
BLOCK
  5
24
330
23
100
AcDbEntity
  8
0
100
AcDbBlockBegin
  2
*Paper_Space0
 70
     0
 10
0.0
 20
0.0
 30
0.0
  3
*Paper_Space0
  1

  0
ENDBLK
  5
25
330
23
100
AcDbEntity
  8
0
100
AcDbBlockEnd
  0
ENDSEC
  0
SECTION
  2
ENTITIES
  0
LWPOLYLINE
  5
41
330
1F
100
AcDbEntity
  8
layer 1
 62
   250
100
AcDbPolyline
 90
        5
 70
     1
 43
0.0
 10
-7.2336
 20
-115.1288
 10
196.4046
 20
-115.1288
 10
196.4046
 20
131.65
 10
-7.2336
 20
131.65
 10
-7.2336
 20
-115.1288
  0
SPLINE
  5
42
330
1F
100
AcDbEntity
  8
layer 1
 62
     7
100
AcDbSpline
210
0.0
220
0.0
230
1.0
 70
    11
 71
     3
 72
   108
 73
   104
 74
     0
 42
0.0000000001
 43
0.0000000001
 12
1.0
 22
0.0
 32
0.0
 13
1.0
 23
0.0
 33
0.0
 40
0.0
 40
0.0
 40
0.0
 40
0.0
 40
0.037037037037037
 40
0.037037037037037
 40
0.037037037037037
 40
0.037037037037037
 40
0.0740740740740741
 40
0.0740740740740741
 40
0.0740740740740741
 40
0.0740740740740741
 40
0.1111111111111111
 40
0.1111111111111111
 40
0.1111111111111111
 40
0.1111111111111111
 40
0.1481481481481481
 40
0.1481481481481481
 40
0.1481481481481481
 40
0.1481481481481481
 40
0.1851851851851852
 40
0.1851851851851852
 40
0.1851851851851852
 40
0.1851851851851852
 40
0.2222222222222222
 40
0.2222222222222222
 40
0.2222222222222222
 40
0.2222222222222222
 40
0.2592592592592592
 40
0.2592592592592592
 40
0.2592592592592592
 40
0.2592592592592592
 40
0.2962962962962963
 40
0.2962962962962963
 40
0.2962962962962963
 40
0.2962962962962963
 40
0.3333333333333333
 40
0.3333333333333333
 40
0.3333333333333333
 40
0.3333333333333333
 40
0.3703703703703703
 40
0.3703703703703703
 40
0.3703703703703703
 40
0.3703703703703703
 40
0.4074074074074074
 40
0.4074074074074074
 40
0.4074074074074074
 40
0.4074074074074074
 40
0.4444444444444444
 40
0.4444444444444444
 40
0.4444444444444444
 40
0.4444444444444444
 40
0.4814814814814815
 40
0.4814814814814815
 40
0.4814814814814815
 40
0.4814814814814815
 40
0.5185185185185185
 40
0.5185185185185185
 40
0.5185185185185185
 40
0.5185185185185185
 40
0.5555555555555556
 40
0.5555555555555556
 40
0.5555555555555556
 40
0.5555555555555556
 40
0.5925925925925926
 40
0.5925925925925926
 40
0.5925925925925926
 40
0.5925925925925926
 40
0.6296296296296297
 40
0.6296296296296297
 40
0.6296296296296297
 40
0.6296296296296297
 40
0.6666666666666666
 40
0.6666666666666666
 40
0.6666666666666666
 40
0.6666666666666666
 40
0.7037037037037037
 40
0.7037037037037037
 40
0.7037037037037037
 40
0.7037037037037037
 40
0.7407407407407407
 40
0.7407407407407407
 40
0.7407407407407407
 40
0.7407407407407407
 40
0.7777777777777778
 40
0.7777777777777778
 40
0.7777777777777778
 40
0.7777777777777778
 40
0.8148148148148148
 40
0.8148148148148148
 40
0.8148148148148148
 40
0.8148148148148148
 40
0.8518518518518519
 40
0.8518518518518519
 40
0.8518518518518519
 40
0.8518518518518519
 40
0.8888888888888888
 40
0.8888888888888888
 40
0.8888888888888888
 40
0.8888888888888888
 40
0.9259259259259259
 40
0.9259259259259259
 40
0.9259259259259259
 40
0.9259259259259259
 40
1.0
 40
1.0
 40
1.0
 40
1.0
 10
138.1157
 20
59.5296
 30
0.0
 10
140.3265
 20
61.8722
 30
0.0
 10
142.3416
 20
67.2511
 30
0.0
 10
141.9776
 20
68.5605
 30
0.0
 10
141.9776
 20
68.5605
 30
0.0
 10
141.5993
 20
69.9211
 30
0.0
 10
139.4902
 20
68.8668
 30
0.0
 10
137.4208
 20
68.5924
 30
0.0
 10
137.4208
 20
68.5924
 30
0.0
 10
130.2862
 20
69.6233
 30
0.0
 10
138.9186
 20
77.26
 30
0.0
 10
130.804
 20
79.7317
 30
0.0
 10
130.804
 20
79.7317
 30
0.0
 10
136.4791
 20
82.4909
 30
0.0
 10
139.4137
 20
79.9851
 30
0.0
 10
139.4055
 20
75.7851
 30
0.0
 10
139.4055
 20
75.7851
 30
0.0
 10
139.5966
 20
72.5569
 30
0.0
 10
140.8029
 20
71.8896
 30
0.0
 10
141.6903
 20
73.2905
 30
0.0
 10
141.6903
 20
73.2905
 30
0.0
 10
142.7162
 20
74.9102
 30
0.0
 10
142.32
 20
76.7766
 30
0.0
 10
140.3081
 20
79.8032
 30
0.0
 10
140.3081
 20
79.8032
 30
0.0
 10
138.1972
 20
82.9785
 30
0.0
 10
137.9022
 20
84.9717
 30
0.0
 10
139.0539
 20
88.2757
 30
0.0
 10
139.0539
 20
88.2757
 30
0.0
 10
139.9114
 20
90.7356
 30
0.0
 10
140.4259
 20
90.8719
 30
0.0
 10
141.3055
 20
88.8725
 30
0.0
 10
141.3055
 20
88.8725
 30
0.0
 10
141.6634
 20
88.0586
 30
0.0
 10
142.4495
 20
87.3001
 30
0.0
 10
143.0523
 20
87.187
 30
0.0
 10
143.0523
 20
87.187
 30
0.0
 10
143.9581
 20
87.0168
 30
0.0
 10
144.0966
 20
87.4167
 30
0.0
 10
143.85
 20
89.4907
 30
0.0
 10
143.85
 20
89.4907
 30
0.0
 10
143.6426
 20
91.2345
 30
0.0
 10
144.0122
 20
92.9611
 30
0.0
 10
145.0615
 20
95.1494
 30
0.0
 10
145.0615
 20
95.1494
 30
0.0
 10
145.0615
 20
95.1494
 30
0.0
 10
146.5715
 20
98.2983
 30
0.0
 10
146.5715
 20
98.2983
 30
0.0
 10
146.5715
 20
98.2983
 30
0.0
 10
146.5715
 20
98.2983
 30
0.0
 10
148.5169
 20
95.8429
 30
0.0
 10
148.5169
 20
95.8429
 30
0.0
 10
148.5169
 20
95.8429
 30
0.0
 10
150.0394
 20
93.9209
 30
0.0
 10
150.5228
 20
92.5502
 30
0.0
 10
150.7409
 20
89.5343
 30
0.0
 10
150.7409
 20
89.5343
 30
0.0
 10
151.0504
 20
85.2573
 30
0.0
 10
151.8627
 20
84.8825
 30
0.0
 10
153.5669
 20
88.2306
 30
0.0
 10
153.5669
 20
88.2306
 30
0.0
 10
154.8683
 20
90.7874
 30
0.0
 10
155.4721
 20
90.3264
 30
0.0
 10
155.4721
 20
86.7763
 30
0.0
 10
155.4721
 20
86.7763
 30
0.0
 10
155.4721
 20
82.83
 30
0.0
 10
154.5985
 20
80.3975
 30
0.0
 10
151.9222
 20
76.8915
 30
0.0
 10
151.9222
 20
76.8915
 30
0.0
 10
147.9964
 20
71.7483
 30
0.0
 10
148.9605
 20
69.1907
 30
0.0
 10
153.5671
 20
72.528
 30
0.0
 10
153.5671
 20
72.528
 30
0.0
 10
157.1698
 20
75.1377
 30
0.0
 10
159.0843
 20
75.1278
 30
0.0
 10
160.4476
 20
72.4914
 30
0.0
 10
160.4476
 20
72.4914
 30
0.0
 10
161.775
 20
69.9243
 30
0.0
 10
161.3389
 20
68.6647
 30
0.0
 10
159.2607
 20
69.0619
 30
0.0
 10
159.2607
 20
69.0619
 30
0.0
 10
158.0218
 20
69.2986
 30
0.0
 10
157.0118
 20
68.6779
 30
0.0
 10
154.6842
 20
66.2491
 30
0.0
 10
154.6842
 20
66.2491
 30
0.0
 10
152.1343
 20
63.5883
 30
0.0
 10
151.4401
 20
63.1969
 30
0.0
 10
149.9385
 20
63.5739
 30
0.0
 10
149.9385
 20
63.5739
 30
0.0
 10
148.6682
 20
63.8926
 30
0.0
 10
148.0709
 20
64.5596
 30
0.0
 10
147.7878
 20
65.9755
 30
0.0
 10
147.7878
 20
65.9755
 30
0.0
 10
147.1761
 20
69.0345
 30
0.0
 10
145.2147
 20
68.5411
 30
0.0
 10
143.5021
 20
64.8975
 30
0.0
 10
143.5021
 20
64.8975
 30
0.0
 10
142.0718
 20
61.8553
 30
0.0
 10
138.0734
 20
57.3869
 30
0.0
 10
136.7811
 20
57.3869
 30
0.0
 10
136.7811
 20
57.3869
 30
0.0
 10
136.4031
 20
57.3869
 30
0.0
 10
137.0036
 20
58.3512
 30
0.0
 10
138.1157
 20
59.5296
 30
0.0
  0
SPLINE
  5
43
330
1F
100
AcDbEntity
  8
layer 1
 62
     7
100
AcDbSpline
210
0.0
220
0.0
230
1.0
 70
    11
 71
     3
 72
    20
 73
    16
 74
     0
 42
0.0000000001
 43
0.0000000001
 12
1.0
 22
0.0
 32
0.0
 13
1.0
 23
0.0
 33
0.0
 40
0.0
 40
0.0
 40
0.0
 40
0.0
 40
0.2
 40
0.2
 40
0.2
 40
0.2
 40
0.4
 40
0.4
 40
0.4
 40
0.4
 40
0.6
 40
0.6
 40
0.6
 40
0.6
 40
1.0
 40
1.0
 40
1.0
 40
1.0
 10
171.6229
 20
99.1974
 30
0.0
 10
167.9278
 20
103.3358
 30
0.0
 10
168.9539
 20
101.3144
 30
0.0
 10
173.7029
 20
95.101
 30
0.0
 10
173.7029
 20
95.101
 30
0.0
 10
178.2642
 20
89.1329
 30
0.0
 10
181.5153
 20
83.1011
 30
0.0
 10
182.3034
 20
79.1438
 30
0.0
 10
182.3034
 20
79.1438
 30
0.0
 10
182.5905
 20
77.7031
 30
0.0
 10
182.9481
 20
77.4621
 30
0.0
 10
183.0181
 20
79.3664
 30
0.0
 10
183.0181
 20
79.3664
 30
0.0
 10
180.9872
 20
86.2057
 30
0.0
 10
176.3958
 20
93.7629
 30
0.0
 10
171.6229
 20
99.1974
 30
0.0
  0
SPLINE
  5
44
330
1F
100
AcDbEntity
  8
layer 1
 62
     7
100
AcDbSpline
210
0.0
220
0.0
230
1.0
 70
    11
 71
     3
 72
    24
 73
    20
 74
     0
 42
0.0000000001
 43
0.0000000001
 12
1.0
 22
0.0
 32
0.0
 13
1.0
 23
0.0
 33
0.0
 40
0.0
 40
0.0
 40
0.0
 40
0.0
 40
0.1666666666666667
 40
0.1666666666666667
 40
0.1666666666666667
 40
0.1666666666666667
 40
0.3333333333333333
 40
0.3333333333333333
 40
0.3333333333333333
 40
0.3333333333333333
 40
0.5
 40
0.5
 40
0.5
 40
0.5
 40
0.6666666666666666
 40
0.6666666666666666
 40
0.6666666666666666
 40
0.6666666666666666
 40
1.0
 40
1.0
 40
1.0
 40
1.0
 10
180.2354
 20
63.0267
 30
0.0
 10
181.0448
 20
68.424
 30
0.0
 10
178.6743
 20
78.4845
 30
0.0
 10
176.5931
 20
78.4845
 30
0.0
 10
176.5931
 20
78.4845
 30
0.0
 10
176.2027
 20
78.4845
 30
0.0
 10
176.553
 20
77.2236
 30
0.0
 10
177.3718
 20
75.6824
 30
0.0
 10
177.3718
 20
75.6824
 30
0.0
 10
178.621
 20
73.3306
 30
0.0
 10
178.8617
 20
71.8475
 30
0.0
 10
178.8687
 20
66.4529
 30
0.0
 10
178.8687
 20
66.4529
 30
0.0
 10
178.8776
 20
59.6171
 30
0.0
 10
179.4929
 20
58.0747
 30
0.0
 10
180.2354
 20
63.0264
 30
0.0
 10
180.2354
 20
63.0264
 30
0.0
 10
180.2354
 20
63.0264
 30
0.0
 10
180.2354
 20
63.0267
 30
0.0
 10
180.2354
 20
63.0267
 30
0.0
  0
SPLINE
  5
45
330
1F
100
AcDbEntity
  8
layer 1
 62
     7
100
AcDbSpline
210
0.0
220
0.0
230
1.0
 70
    11
 71
     3
 72
   124
 73
   120
 74
     0
 42
0.0000000001
 43
0.0000000001
 12
1.0
 22
0.0
 32
0.0
 13
1.0
 23
0.0
 33
0.0
 40
0.0
 40
0.0
 40
0.0
 40
0.0
 40
0.032258064516129
 40
0.032258064516129
 40
0.032258064516129
 40
0.032258064516129
 40
0.0645161290322581
 40
0.0645161290322581
 40
0.0645161290322581
 40
0.0645161290322581
 40
0.0967741935483871
 40
0.0967741935483871
 40
0.0967741935483871
 40
0.0967741935483871
 40
0.1290322580645161
 40
0.1290322580645161
 40
0.1290322580645161
 40
0.1290322580645161
 40
0.1612903225806452
 40
0.1612903225806452
 40
0.1612903225806452
 40
0.1612903225806452
 40
0.1935483870967742
 40
0.1935483870967742
 40
0.1935483870967742
 40
0.1935483870967742
 40
0.2258064516129032
 40
0.2258064516129032
 40
0.2258064516129032
 40
0.2258064516129032
 40
0.2580645161290323
 40
0.2580645161290323
 40
0.2580645161290323
 40
0.2580645161290323
 40
0.2903225806451613
 40
0.2903225806451613
 40
0.2903225806451613
 40
0.2903225806451613
 40
0.3225806451612903
 40
0.3225806451612903
 40
0.3225806451612903
 40
0.3225806451612903
 40
0.3548387096774194
 40
0.3548387096774194
 40
0.3548387096774194
 40
0.3548387096774194
 40
0.3870967741935484
 40
0.3870967741935484
 40
0.3870967741935484
 40
0.3870967741935484
 40
0.4193548387096774
 40
0.4193548387096774
 40
0.4193548387096774
 40
0.4193548387096774
 40
0.4516129032258064
 40
0.4516129032258064
 40
0.4516129032258064
 40
0.4516129032258064
 40
0.4838709677419355
 40
0.4838709677419355
 40
0.4838709677419355
 40
0.4838709677419355
 40
0.5161290322580645
 40
0.5161290322580645
 40
0.5161290322580645
 40
0.5161290322580645
 40
0.5483870967741935
 40
0.5483870967741935
 40
0.5483870967741935
 40
0.5483870967741935
 40
0.5806451612903226
 40
0.5806451612903226
 40
0.5806451612903226
 40
0.5806451612903226
 40
0.6129032258064516
 40
0.6129032258064516
 40
0.6129032258064516
 40
0.6129032258064516
 40
0.6451612903225806
 40
0.6451612903225806
 40
0.6451612903225806
 40
0.6451612903225806
 40
0.6774193548387096
 40
0.6774193548387096
 40
0.6774193548387096
 40
0.6774193548387096
 40
0.7096774193548387
 40
0.7096774193548387
 40
0.7096774193548387
 40
0.7096774193548387
 40
0.7419354838709677
 40
0.7419354838709677
 40
0.7419354838709677
 40
0.7419354838709677
 40
0.7741935483870968
 40
0.7741935483870968
 40
0.7741935483870968
 40
0.7741935483870968
 40
0.8064516129032258
 40
0.8064516129032258
 40
0.8064516129032258
 40
0.8064516129032258
 40
0.8387096774193549
 40
0.8387096774193549
 40
0.8387096774193549
 40
0.8387096774193549
 40
0.8709677419354839
 40
0.8709677419354839
 40
0.8709677419354839
 40
0.8709677419354839
 40
0.9032258064516129
 40
0.9032258064516129
 40
0.9032258064516129
 40
0.9032258064516129
 40
0.9354838709677419
 40
0.9354838709677419
 40
0.9354838709677419
 40
0.9354838709677419
 40
1.0
 40
1.0
 40
1.0
 40
1.0
 10
171.6471
 20
61.3424
 30
0.0
 10
169.1585
 20
61.3424
 30
0.0
 10
168.7112
 20
61.9965
 30
0.0
 10
170.299
 20
63.3142
 30
0.0
 10
170.299
 20
63.3142
 30
0.0
 10
170.9217
 20
63.831
 30
0.0
 10
172.127
 20
63.9703
 30
0.0
 10
173.5955
 20
63.6947
 30
0.0
 10
173.5955
 20
63.6947
 30
0.0
 10
176.394
 20
63.1697
 30
0.0
 10
176.4426
 20
63.6235
 30
0.0
 10
173.9054
 20
66.5917
 30
0.0
 10
173.9054
 20
66.5917
 30
0.0
 10
171.9668
 20
68.9301
 30
0.0
 10
171.7936
 20
71.0377
 30
0.0
 10
171.9982
 20
73.5392
 30
0.0
 10
171.9982
 20
73.5392
 30
0.0
 10
173.0109
 20
72.3404
 30
0.0
 10
174.0624
 20
71.1214
 30
0.0
 10
174.7868
 20
69.7394
 30
0.0
 10
174.7868
 20
69.7394
 30
0.0
 10
175.0131
 20
69.1227
 30
0.0
 10
175.2829
 20
69.109
 30
0.0
 10
175.8952
 20
69.6839
 30
0.0
 10
175.8952
 20
69.6839
 30
0.0
 10
176.5293
 20
70.2791
 30
0.0
 10
176.3896
 20
70.8692
 30
0.0
 10
175.2498
 20
72.4109
 30
0.0
 10
175.2498
 20
72.4109
 30
0.0
 10
174.2209
 20
73.8026
 30
0.0
 10
173.7671
 20
75.4128
 30
0.0
 10
173.6989
 20
77.9146
 30
0.0
 10
173.6989
 20
77.9146
 30
0.0
 10
173.6109
 20
81.1406
 30
0.0
 10
173.2003
 20
81.2021
 30
0.0
 10
173.9638
 20
82.6491
 30
0.0
 10
173.9638
 20
82.6491
 30
0.0
 10
177.1491
 20
81.8221
 30
0.0
 10
177.3419
 20
81.1458
 30
0.0
 10
179.0052
 20
79.3823
 30
0.0
 10
179.0052
 20
79.3823
 30
0.0
 10
181.0488
 20
77.2154
 30
0.0
 10
181.296
 20
77.0988
 30
0.0
 10
180.8582
 20
78.5072
 30
0.0
 10
180.8582
 20
78.5072
 30
0.0
 10
180.5803
 20
79.401
 30
0.0
 10
178.0182
 20
82.5731
 30
0.0
 10
175.1648
 20
85.5561
 30
0.0
 10
175.1648
 20
85.5561
 30
0.0
 10
169.7857
 20
91.1794
 30
0.0
 10
168.8931
 20
92.9743
 30
0.0
 10
171.46
 20
93.0084
 30
0.0
 10
171.46
 20
93.0084
 30
0.0
 10
172.7722
 20
93.0258
 30
0.0
 10
172.6222
 20
93.3112
 30
0.0
 10
170.1615
 20
95.4808
 30
0.0
 10
170.1615
 20
95.4808
 30
0.0
 10
166.6258
 20
98.0992
 30
0.0
 10
164.0316
 20
106.0611
 30
0.0
 10
167.0863
 20
111.739
 30
0.0
 10
167.0863
 20
111.739
 30
0.0
 10
169.5049
 20
110.2828
 30
0.0
 10
170.15
 20
104.1419
 30
0.0
 10
171.2399
 20
101.8527
 30
0.0
 10
171.2399
 20
101.8527
 30
0.0
 10
171.7059
 20
100.8739
 30
0.0
 10
172.4711
 20
101.2212
 30
0.0
 10
172.6204
 20
100.7794
 30
0.0
 10
172.6204
 20
100.7794
 30
0.0
 10
172.9994
 20
102.374
 30
0.0
 10
174.7527
 20
102.9239
 30
0.0
 10
175.5722
 20
101.061
 30
0.0
 10
175.5722
 20
101.061
 30
0.0
 10
175.9301
 20
100.2472
 30
0.0
 10
176.4494
 20
99.5814
 30
0.0
 10
176.7259
 20
99.5814
 30
0.0
 10
176.7259
 20
99.5814
 30
0.0
 10
177.8956
 20
99.5814
 30
0.0
 10
177.0529
 20
101.2731
 30
0.0
 10
174.5075
 20
104.0345
 30
0.0
 10
174.5075
 20
104.0345
 30
0.0
 10
171.7934
 20
106.9791
 30
0.0
 10
171.3408
 20
108.4259
 30
0.0
 10
172.2957
 20
111.9516
 30
0.0
 10
172.2957
 20
111.9516
 30
0.0
 10
173.6062
 20
115.9858
 30
0.0
 10
172.6291
 20
118.3698
 30
0.0
 10
171.8619
 20
121.9844
 30
0.0
 10
171.8619
 20
121.9844
 30
0.0
 10
174.9201
 20
121.0914
 30
0.0
 10
175.9104
 20
117.601
 30
0.0
 10
175.9104
 20
116.1767
 30
0.0
 10
175.9104
 20
116.1767
 30
0.0
 10
175.9104
 20
114.0933
 30
0.0
 10
177.793
 20
114.4025
 30
0.0
 10
178.234
 20
116.5582
 30
0.0
 10
178.234
 20
116.5582
 30
0.0
 10
178.3706
 20
118.7024
 30
0.0
 10
180.6837
 20
123.1429
 30
0.0
 10
184.1023
 20
123.9149
 30
0.0
 10
184.1023
 20
123.9149
 30
0.0
 10
184.2682
 20
123.7489
 30
0.0
 10
183.5072
 20
121.804
 30
0.0
 10
182.4113
 20
119.5928
 30
0.0
 10
182.4113
 20
119.5928
 30
0.0
 10
178.229
 20
111.1549
 30
0.0
 10
178.7585
 20
99.5839
 30
0.0
 10
184.2097
 20
80.2829
 30
0.0
 10
184.2097
 20
80.2829
 30
0.0
 10
186.6741
 20
73.1727
 30
0.0
 10
186.159
 20
64.2629
 30
0.0
 10
181.2038
 20
58.7248
 30
0.0
 10
181.2038
 20
58.7248
 30
0.0
 10
178.7271
 20
56.0735
 30
0.0
 10
177.0327
 20
56.1629
 30
0.0
 10
175.3385
 20
59.0343
 30
0.0
 10
175.3385
 20
59.0343
 30
0.0
 10
174.7704
 20
60.7387
 30
0.0
 10
173.2603
 20
61.3424
 30
0.0
 10
171.6471
 20
61.3424
 30
0.0
  0
SPLINE
  5
46
330
1F
100
AcDbEntity
  8
layer 1
 62
     7
100
AcDbSpline
210
0.0
220
0.0
230
1.0
 70
    11
 71
     3
 72
    36
 73
    32
 74
     0
 42
0.0000000001
 43
0.0000000001
 12
1.0
 22
0.0
 32
0.0
 13
1.0
 23
0.0
 33
0.0
 40
0.0
 40
0.0
 40
0.0
 40
0.0
 40
0.1111111111111111
 40
0.1111111111111111
 40
0.1111111111111111
 40
0.1111111111111111
 40
0.2222222222222222
 40
0.2222222222222222
 40
0.2222222222222222
 40
0.2222222222222222
 40
0.3333333333333333
 40
0.3333333333333333
 40
0.3333333333333333
 40
0.3333333333333333
 40
0.4444444444444444
 40
0.4444444444444444
 40
0.4444444444444444
 40
0.4444444444444444
 40
0.5555555555555556
 40
0.5555555555555556
 40
0.5555555555555556
 40
0.5555555555555556
 40
0.6666666666666666
 40
0.6666666666666666
 40
0.6666666666666666
 40
0.6666666666666666
 40
0.7777777777777778
 40
0.7777777777777778
 40
0.7777777777777778
 40
0.7777777777777778
 40
1.0
 40
1.0
 40
1.0
 40
1.0
 10
122.1775
 20
50.794
 30
0.0
 10
121.5448
 20
51.8179
 30
0.0
 10
122.4366
 20
52.7715
 30
0.0
 10
124.0294
 20
52.7743
 30
0.0
 10
124.0294
 20
52.7743
 30
0.0
 10
127.8808
 20
52.7808
 30
0.0
 10
131.7372
 20
57.2165
 30
0.0
 10
131.7372
 20
61.6395
 30
0.0
 10
131.7372
 20
61.6395
 30
0.0
 10
131.7372
 20
62.9265
 30
0.0
 10
132.0235
 20
63.9798
 30
0.0
 10
132.3733
 20
63.9798
 30
0.0
 10
132.3733
 20
63.9798
 30
0.0
 10
134.772
 20
61.7613
 30
0.0
 10
134.3745
 20
59.1885
 30
0.0
 10
134.3745
 20
56.1512
 30
0.0
 10
134.3745
 20
56.1512
 30
0.0
 10
136.9314
 20
56.6605
 30
0.0
 10
142.1376
 20
57.4998
 30
0.0
 10
142.2861
 20
52.6372
 30
0.0
 10
142.2861
 20
52.6372
 30
0.0
 10
142.2861
 20
51.5042
 30
0.0
 10
142.1368
 20
51.5241
 30
0.0
 10
140.2667
 20
52.9068
 30
0.0
 10
140.2667
 20
52.9068
 30
0.0
 10
137.8344
 20
54.8133
 30
0.0
 10
135.1916
 20
53.322
 30
0.0
 10
132.1904
 20
52.2634
 30
0.0
 10
132.1904
 20
52.2634
 30
0.0
 10
125.9957
 20
50.0789
 30
0.0
 10
122.9004
 20
49.6243
 30
0.0
 10
122.1775
 20
50.794
 30
0.0
  0
SPLINE
  5
47
330
1F
100
AcDbEntity
  8
layer 1
 62
     7
100
AcDbSpline
210
0.0
220
0.0
230
1.0
 70
    11
 71
     3
 72
   156
 73
   152
 74
     0
 42
0.0000000001
 43
0.0000000001
 12
1.0
 22
0.0
 32
0.0
 13
1.0
 23
0.0
 33
0.0
 40
0.0
 40
0.0
 40
0.0
 40
0.0
 40
0.0256410256410256
 40
0.0256410256410256
 40
0.0256410256410256
 40
0.0256410256410256
 40
0.0512820512820513
 40
0.0512820512820513
 40
0.0512820512820513
 40
0.0512820512820513
 40
0.0769230769230769
 40
0.0769230769230769
 40
0.0769230769230769
 40
0.0769230769230769
 40
0.1025641025641026
 40
0.1025641025641026
 40
0.1025641025641026
 40
0.1025641025641026
 40
0.1282051282051282
 40
0.1282051282051282
 40
0.1282051282051282
 40
0.1282051282051282
 40
0.1538461538461539
 40
0.1538461538461539
 40
0.1538461538461539
 40
0.1538461538461539
 40
0.1794871794871795
 40
0.1794871794871795
 40
0.1794871794871795
 40
0.1794871794871795
 40
0.2051282051282051
 40
0.2051282051282051
 40
0.2051282051282051
 40
0.2051282051282051
 40
0.2307692307692308
 40
0.2307692307692308
 40
0.2307692307692308
 40
0.2307692307692308
 40
0.2564102564102564
 40
0.2564102564102564
 40
0.2564102564102564
 40
0.2564102564102564
 40
0.282051282051282
 40
0.282051282051282
 40
0.282051282051282
 40
0.282051282051282
 40
0.3076923076923077
 40
0.3076923076923077
 40
0.3076923076923077
 40
0.3076923076923077
 40
0.3333333333333333
 40
0.3333333333333333
 40
0.3333333333333333
 40
0.3333333333333333
 40
0.358974358974359
 40
0.358974358974359
 40
0.358974358974359
 40
0.358974358974359
 40
0.3846153846153846
 40
0.3846153846153846
 40
0.3846153846153846
 40
0.3846153846153846
 40
0.4102564102564102
 40
0.4102564102564102
 40
0.4102564102564102
 40
0.4102564102564102
 40
0.4358974358974359
 40
0.4358974358974359
 40
0.4358974358974359
 40
0.4358974358974359
 40
0.4615384615384616
 40
0.4615384615384616
 40
0.4615384615384616
 40
0.4615384615384616
 40
0.4871794871794872
 40
0.4871794871794872
 40
0.4871794871794872
 40
0.4871794871794872
 40
0.5128205128205128
 40
0.5128205128205128
 40
0.5128205128205128
 40
0.5128205128205128
 40
0.5384615384615384
 40
0.5384615384615384
 40
0.5384615384615384
 40
0.5384615384615384
 40
0.5641025641025641
 40
0.5641025641025641
 40
0.5641025641025641
 40
0.5641025641025641
 40
0.5897435897435898
 40
0.5897435897435898
 40
0.5897435897435898
 40
0.5897435897435898
 40
0.6153846153846154
 40
0.6153846153846154
 40
0.6153846153846154
 40
0.6153846153846154
 40
0.6410256410256411
 40
0.6410256410256411
 40
0.6410256410256411
 40
0.6410256410256411
 40
0.6666666666666666
 40
0.6666666666666666
 40
0.6666666666666666
 40
0.6666666666666666
 40
0.6923076923076923
 40
0.6923076923076923
 40
0.6923076923076923
 40
0.6923076923076923
 40
0.717948717948718
 40
0.717948717948718
 40
0.717948717948718
 40
0.717948717948718
 40
0.7435897435897436
 40
0.7435897435897436
 40
0.7435897435897436
 40
0.7435897435897436
 40
0.7692307692307693
 40
0.7692307692307693
 40
0.7692307692307693
 40
0.7692307692307693
 40
0.7948717948717948
 40
0.7948717948717948
 40
0.7948717948717948
 40
0.7948717948717948
 40
0.8205128205128205
 40
0.8205128205128205
 40
0.8205128205128205
 40
0.8205128205128205
 40
0.8461538461538461
 40
0.8461538461538461
 40
0.8461538461538461
 40
0.8461538461538461
 40
0.8717948717948718
 40
0.8717948717948718
 40
0.8717948717948718
 40
0.8717948717948718
 40
0.8974358974358975
 40
0.8974358974358975
 40
0.8974358974358975
 40
0.8974358974358975
 40
0.9230769230769231
 40
0.9230769230769231
 40
0.9230769230769231
 40
0.9230769230769231
 40
0.9487179487179487
 40
0.9487179487179487
 40
0.9487179487179487
 40
0.9487179487179487
 40
1.0
 40
1.0
 40
1.0
 40
1.0
 10
94.7967
 20
50.4596
 30
0.0
 10
98.1677
 20
50.5052
 30
0.0
 10
98.7523
 20
56.5773
 30
0.0
 10
97.7254
 20
59.0547
 30
0.0
 10
97.7254
 20
59.0547
 30
0.0
 10
96.6252
 20
62.2156
 30
0.0
 10
96.5946
 20
62.6611
 30
0.0
 10
97.4772
 20
62.6611
 30
0.0
 10
97.4772
 20
62.6611
 30
0.0
 10
98.769
 20
63.2828
 30
0.0
 10
99.4425
 20
58.3326
 30
0.0
 10
101.3597
 20
56.7273
 30
0.0
 10
101.3597
 20
56.7273
 30
0.0
 10
104.0352
 20
58.5563
 30
0.0
 10
103.6427
 20
61.6158
 30
0.0
 10
101.7322
 20
64.6491
 30
0.0
 10
101.7322
 20
64.6491
 30
0.0
 10
100.4093
 20
66.5583
 30
0.0
 10
100.0804
 20
67.5292
 30
0.0
 10
100.586
 20
68.0348
 30
0.0
 10
100.586
 20
68.0348
 30
0.0
 10
101.6321
 20
69.0808
 30
0.0
 10
102.6869
 20
68.1412
 30
0.0
 10
104.0581
 20
64.9424
 30
0.0
 10
104.0581
 20
64.9424
 30
0.0
 10
105.5796
 20
61.4807
 30
0.0
 10
109.5818
 20
58.4447
 30
0.0
 10
113.3539
 20
61.8136
 30
0.0
 10
113.3539
 20
61.8136
 30
0.0
 10
113.556
 20
62.1408
 30
0.0
 10
111.8055
 20
62.912
 30
0.0
 10
110.4462
 20
64.2918
 30
0.0
 10
110.4462
 20
64.2918
 30
0.0
 10
108.4642
 20
66.3039
 30
0.0
 10
108.5539
 20
66.9364
 30
0.0
 10
109.4514
 20
67.1247
 30
0.0
 10
109.4514
 20
67.1247
 30
0.0
 10
110.0669
 20
67.2541
 30
0.0
 10
111.1601
 20
67.0443
 30
0.0
 10
111.8805
 20
66.6588
 30
0.0
 10
111.8805
 20
66.6588
 30
0.0
 10
116.904
 20
63.9888
 30
0.0
 10
122.712
 20
67.9936
 30
0.0
 10
119.8975
 20
74.7625
 30
0.0
 10
119.8975
 20
74.7625
 30
0.0
 10
117.7839
 20
71.6853
 30
0.0
 10
114.2647
 20
68.5608
 30
0.0
 10
108.6835
 20
72.2051
 30
0.0
 10
108.6835
 20
72.2051
 30
0.0
 10
105.4924
 20
74.5594
 30
0.0
 10
102.6415
 20
75.373
 30
0.0
 10
100.4726
 20
74.5484
 30
0.0
 10
100.4726
 20
74.5484
 30
0.0
 10
98.288
 20
73.7179
 30
0.0
 10
96.1351
 20
73.667
 30
0.0
 10
96.1351
 20
74.4462
 30
0.0
 10
96.1351
 20
74.4462
 30
0.0
 10
96.1351
 20
74.7635
 30
0.0
 10
97.0506
 20
75.2063
 30
0.0
 10
98.1697
 20
75.43
 30
0.0
 10
98.1697
 20
75.43
 30
0.0
 10
100.6172
 20
75.9194
 30
0.0
 10
100.4395
 20
77.4031
 30
0.0
 10
97.8973
 20
77.7041
 30
0.0
 10
97.8973
 20
77.7041
 30
0.0
 10
95.9118
 20
77.939
 30
0.0
 10
95.6699
 20
78.5959
 30
0.0
 10
97.1241
 20
79.8029
 30
0.0
 10
97.1241
 20
79.8029
 30
0.0
 10
97.6681
 20
80.2545
 30
0.0
 10
98.1131
 20
81.2654
 30
0.0
 10
98.1131
 20
82.0493
 30
0.0
 10
98.1131
 20
82.0493
 30
0.0
 10
98.1131
 20
83.3643
 30
0.0
 10
95.4115
 20
91.287
 30
0.0
 10
94.7967
 20
91.9147
 30
0.0
 10
94.7967
 20
91.9147
 30
0.0
 10
94.182
 20
91.287
 30
0.0
 10
91.5003
 20
83.3643
 30
0.0
 10
91.5003
 20
82.0493
 30
0.0
 10
91.5003
 20
82.0493
 30
0.0
 10
91.5003
 20
81.2654
 30
0.0
 10
91.9453
 20
80.2545
 30
0.0
 10
92.4893
 20
79.8029
 30
0.0
 10
92.4893
 20
79.8029
 30
0.0
 10
93.9435
 20
78.5959
 30
0.0
 10
93.7016
 20
77.939
 30
0.0
 10
91.7161
 20
77.7041
 30
0.0
 10
91.7161
 20
77.7041
 30
0.0
 10
89.1739
 20
77.4031
 30
0.0
 10
88.9962
 20
75.9194
 30
0.0
 10
91.4437
 20
75.43
 30
0.0
 10
91.4437
 20
75.43
 30
0.0
 10
92.5628
 20
75.2063
 30
0.0
 10
93.4783
 20
74.7635
 30
0.0
 10
93.4783
 20
74.4462
 30
0.0
 10
93.4783
 20
74.4462
 30
0.0
 10
93.4783
 20
73.667
 30
0.0
 10
91.3254
 20
73.7179
 30
0.0
 10
89.1408
 20
74.5484
 30
0.0
 10
89.1408
 20
74.5484
 30
0.0
 10
86.9719
 20
75.373
 30
0.0
 10
84.121
 20
74.5594
 30
0.0
 10
80.9299
 20
72.2051
 30
0.0
 10
80.9299
 20
72.2051
 30
0.0
 10
75.3487
 20
68.5608
 30
0.0
 10
71.8295
 20
71.6853
 30
0.0
 10
69.7159
 20
74.7625
 30
0.0
 10
69.7159
 20
74.7625
 30
0.0
 10
66.9014
 20
67.9936
 30
0.0
 10
72.7094
 20
63.9888
 30
0.0
 10
77.7329
 20
66.6588
 30
0.0
 10
77.7329
 20
66.6588
 30
0.0
 10
78.4533
 20
67.0443
 30
0.0
 10
79.5465
 20
67.2541
 30
0.0
 10
80.1619
 20
67.1247
 30
0.0
 10
80.1619
 20
67.1247
 30
0.0
 10
81.0595
 20
66.9364
 30
0.0
 10
81.1492
 20
66.3039
 30
0.0
 10
79.1672
 20
64.2918
 30
0.0
 10
79.1672
 20
64.2918
 30
0.0
 10
77.8079
 20
62.912
 30
0.0
 10
76.0574
 20
62.1408
 30
0.0
 10
76.2595
 20
61.8136
 30
0.0
 10
76.2595
 20
61.8136
 30
0.0
 10
80.0316
 20
58.4447
 30
0.0
 10
84.0338
 20
61.4807
 30
0.0
 10
85.5553
 20
64.9424
 30
0.0
 10
85.5553
 20
64.9424
 30
0.0
 10
86.9265
 20
68.1412
 30
0.0
 10
87.9813
 20
69.0808
 30
0.0
 10
89.0274
 20
68.0348
 30
0.0
 10
89.0274
 20
68.0348
 30
0.0
 10
89.533
 20
67.5292
 30
0.0
 10
89.2041
 20
66.5583
 30
0.0
 10
87.8811
 20
64.6491
 30
0.0
 10
87.8811
 20
64.6491
 30
0.0
 10
85.9707
 20
61.6158
 30
0.0
 10
85.5782
 20
58.5563
 30
0.0
 10
88.2537
 20
56.7273
 30
0.0
 10
88.2537
 20
56.7273
 30
0.0
 10
90.1709
 20
58.3326
 30
0.0
 10
90.8444
 20
63.2828
 30
0.0
 10
92.1362
 20
62.6611
 30
0.0
 10
92.1362
 20
62.6611
 30
0.0
 10
93.0188
 20
62.6611
 30
0.0
 10
92.9882
 20
62.2156
 30
0.0
 10
91.888
 20
59.0547
 30
0.0
 10
91.888
 20
59.0547
 30
0.0
 10
90.8611
 20
56.5773
 30
0.0
 10
91.8995
 20
50.4524
 30
0.0
 10
94.7967
 20
50.4596
 30
0.0
  0
SPLINE
  5
48
330
1F
100
AcDbEntity
  8
layer 1
 62
     7
100
AcDbSpline
210
0.0
220
0.0
230
1.0
 70
    11
 71
     3
 72
   120
 73
   116
 74
     0
 42
0.0000000001
 43
0.0000000001
 12
1.0
 22
0.0
 32
0.0
 13
1.0
 23
0.0
 33
0.0
 40
0.0
 40
0.0
 40
0.0
 40
0.0
 40
0.0333333333333333
 40
0.0333333333333333
 40
0.0333333333333333
 40
0.0333333333333333
 40
0.0666666666666667
 40
0.0666666666666667
 40
0.0666666666666667
 40
0.0666666666666667
 40
0.1
 40
0.1
 40
0.1
 40
0.1
 40
0.1333333333333333
 40
0.1333333333333333
 40
0.1333333333333333
 40
0.1333333333333333
 40
0.1666666666666667
 40
0.1666666666666667
 40
0.1666666666666667
 40
0.1666666666666667
 40
0.2
 40
0.2
 40
0.2
 40
0.2
 40
0.2333333333333333
 40
0.2333333333333333
 40
0.2333333333333333
 40
0.2333333333333333
 40
0.2666666666666667
 40
0.2666666666666667
 40
0.2666666666666667
 40
0.2666666666666667
 40
0.3
 40
0.3
 40
0.3
 40
0.3
 40
0.3333333333333333
 40
0.3333333333333333
 40
0.3333333333333333
 40
0.3333333333333333
 40
0.3666666666666666
 40
0.3666666666666666
 40
0.3666666666666666
 40
0.3666666666666666
 40
0.4
 40
0.4
 40
0.4
 40
0.4
 40
0.4333333333333333
 40
0.4333333333333333
 40
0.4333333333333333
 40
0.4333333333333333
 40
0.4666666666666667
 40
0.4666666666666667
 40
0.4666666666666667
 40
0.4666666666666667
 40
0.5
 40
0.5
 40
0.5
 40
0.5
 40
0.5333333333333333
 40
0.5333333333333333
 40
0.5333333333333333
 40
0.5333333333333333
 40
0.5666666666666667
 40
0.5666666666666667
 40
0.5666666666666667
 40
0.5666666666666667
 40
0.6
 40
0.6
 40
0.6
 40
0.6
 40
0.6333333333333333
 40
0.6333333333333333
 40
0.6333333333333333
 40
0.6333333333333333
 40
0.6666666666666666
 40
0.6666666666666666
 40
0.6666666666666666
 40
0.6666666666666666
 40
0.7
 40
0.7
 40
0.7
 40
0.7
 40
0.7333333333333333
 40
0.7333333333333333
 40
0.7333333333333333
 40
0.7333333333333333
 40
0.7666666666666667
 40
0.7666666666666667
 40
0.7666666666666667
 40
0.7666666666666667
 40
0.8
 40
0.8
 40
0.8
 40
0.8
 40
0.8333333333333334
 40
0.8333333333333334
 40
0.8333333333333334
 40
0.8333333333333334
 40
0.8666666666666667
 40
0.8666666666666667
 40
0.8666666666666667
 40
0.8666666666666667
 40
0.9
 40
0.9
 40
0.9
 40
0.9
 40
0.9333333333333333
 40
0.9333333333333333
 40
0.9333333333333333
 40
0.9333333333333333
 40
1.0
 40
1.0
 40
1.0
 40
1.0
 10
155.962
 20
43.4511
 30
0.0
 10
154.8848
 20
42.8745
 30
0.0
 10
154.6934
 20
42.9106
 30
0.0
 10
155.0136
 20
43.6297
 30
0.0
 10
155.0136
 20
43.6297
 30
0.0
 10
165.9234
 20
62.7713
 30
0.0
 10
169.1563
 20
87.4651
 30
0.0
 10
152.7874
 20
104.35
 30
0.0
 10
152.7874
 20
104.35
 30
0.0
 10
140.4937
 20
116.6437
 30
0.0
 10
117.2818
 20
119.2001
 30
0.0
 10
109.669
 20
105.2789
 30
0.0
 10
109.669
 20
105.2789
 30
0.0
 10
102.9503
 20
92.2526
 30
0.0
 10
116.2492
 20
84.2269
 30
0.0
 10
123.7653
 20
90.8831
 30
0.0
 10
123.7653
 20
90.8831
 30
0.0
 10
128.1372
 20
95.2717
 30
0.0
 10
125.5592
 20
100.4229
 30
0.0
 10
122.483
 20
101.5013
 30
0.0
 10
122.483
 20
101.5013
 30
0.0
 10
119.8524
 20
102.4238
 30
0.0
 10
116.4323
 20
100.8335
 30
0.0
 10
116.8405
 20
97.2049
 30
0.0
 10
116.8405
 20
97.2049
 30
0.0
 10
117.2923
 20
96.032
 30
0.0
 10
117.3613
 20
96.0263
 30
0.0
 10
117.9693
 20
97.1095
 30
0.0
 10
117.9693
 20
97.1095
 30
0.0
 10
119.349
 20
99.5674
 30
0.0
 10
122.5072
 20
98.0103
 30
0.0
 10
122.5072
 20
94.8723
 30
0.0
 10
122.5072
 20
94.8723
 30
0.0
 10
122.5072
 20
91.2574
 30
0.0
 10
118.0483
 20
90.1567
 30
0.0
 10
114.0063
 20
92.6212
 30
0.0
 10
114.0063
 20
92.6212
 30
0.0
 10
110.1257
 20
94.9872
 30
0.0
 10
109.8347
 20
100.4812
 30
0.0
 10
112.7561
 20
104.0106
 30
0.0
 10
112.7561
 20
104.0106
 30
0.0
 10
120.9024
 20
113.1339
 30
0.0
 10
136.575
 20
107.9579
 30
0.0
 10
136.1487
 20
93.1798
 30
0.0
 10
136.1487
 20
93.1798
 30
0.0
 10
135.2412
 20
76.2782
 30
0.0
 10
114.5163
 20
74.0941
 30
0.0
 10
103.8446
 20
81.543
 30
0.0
 10
103.8446
 20
81.543
 30
0.0
 10
95.8077
 20
87.0863
 30
0.0
 10
95.0756
 20
100.99
 30
0.0
 10
99.0154
 20
108.1196
 30
0.0
 10
99.0154
 20
108.1196
 30
0.0
 10
104.5022
 20
118.5482
 30
0.0
 10
118.0176
 20
125.3576
 30
0.0
 10
131.3008
 20
124.3861
 30
0.0
 10
131.3008
 20
124.3861
 30
0.0
 10
143.4687
 20
123.496
 30
0.0
 10
152.597
 20
119.6618
 30
0.0
 10
159.8749
 20
112.3841
 30
0.0
 10
159.8749
 20
112.3841
 30
0.0
 10
163.9152
 20
108.3439
 30
0.0
 10
164.7024
 20
107.2029
 30
0.0
 10
164.7053
 20
105.3826
 30
0.0
 10
164.7053
 20
105.3826
 30
0.0
 10
164.7113
 20
101.976
 30
0.0
 10
165.9804
 20
98.2432
 30
0.0
 10
167.7267
 20
96.4967
 30
0.0
 10
167.7267
 20
96.4967
 30
0.0
 10
168.8896
 20
95.3338
 30
0.0
 10
169.2158
 20
94.4649
 30
0.0
 10
168.9248
 20
93.3049
 30
0.0
 10
168.9248
 20
93.3049
 30
0.0
 10
168.6569
 20
92.2377
 30
0.0
 10
169.0369
 20
90.8874
 30
0.0
 10
170.0745
 20
89.2183
 30
0.0
 10
170.0745
 20
89.2183
 30
0.0
 10
171.3483
 20
87.1695
 30
0.0
 10
171.6331
 20
85.7863
 30
0.0
 10
171.674
 20
81.4513
 30
0.0
 10
171.674
 20
81.4513
 30
0.0
 10
171.7039
 20
78.2824
 30
0.0
 10
171.3371
 20
75.1669
 30
0.0
 10
170.7553
 20
73.6469
 30
0.0
 10
170.7553
 20
73.6469
 30
0.0
 10
169.8866
 20
71.3775
 30
0.0
 10
169.8993
 20
70.8812
 30
0.0
 10
170.8776
 20
68.8294
 30
0.0
 10
170.8776
 20
68.8294
 30
0.0
 10
170.8776
 20
68.8294
 30
0.0
 10
171.9683
 20
66.5419
 30
0.0
 10
171.9683
 20
66.5419
 30
0.0
 10
171.9683
 20
66.5419
 30
0.0
 10
171.9683
 20
66.5419
 30
0.0
 10
169.5986
 20
64.307
 30
0.0
 10
169.5986
 20
64.307
 30
0.0
 10
169.5986
 20
64.307
 30
0.0
 10
167.1406
 20
61.9888
 30
0.0
 10
166.721
 20
59.5237
 30
0.0
 10
168.8463
 20
59.888
 30
0.0
 10
168.8463
 20
59.888
 30
0.0
 10
169.4677
 20
59.9946
 30
0.0
 10
169.9761
 20
59.729
 30
0.0
 10
169.9761
 20
59.2979
 30
0.0
 10
169.9761
 20
59.2979
 30
0.0
 10
169.9761
 20
57.3361
 30
0.0
 10
165.045
 20
48.5641
 30
0.0
 10
162.2073
 20
45.4779
 30
0.0
 10
162.2073
 20
45.4779
 30
0.0
 10
159.4124
 20
42.4384
 30
0.0
 10
158.9677
 20
42.177
 30
0.0
 10
158.188
 20
43.1167
 30
0.0
 10
158.188
 20
43.1167
 30
0.0
 10
157.9308
 20
43.3437
 30
0.0
 10
157.3116
 20
43.9764
 30
0.0
 10
155.962
 20
43.4511
 30
0.0
  0
SPLINE
  5
49
330
1F
100
AcDbEntity
  8
layer 1
 62
     7
100
AcDbSpline
210
0.0
220
0.0
230
1.0
 70
    11
 71
     3
 72
    72
 73
    68
 74
     0
 42
0.0000000001
 43
0.0000000001
 12
1.0
 22
0.0
 32
0.0
 13
1.0
 23
0.0
 33
0.0
 40
0.0
 40
0.0
 40
0.0
 40
0.0
 40
0.0555555555555556
 40
0.0555555555555556
 40
0.0555555555555556
 40
0.0555555555555556
 40
0.1111111111111111
 40
0.1111111111111111
 40
0.1111111111111111
 40
0.1111111111111111
 40
0.1666666666666667
 40
0.1666666666666667
 40
0.1666666666666667
 40
0.1666666666666667
 40
0.2222222222222222
 40
0.2222222222222222
 40
0.2222222222222222
 40
0.2222222222222222
 40
0.2777777777777778
 40
0.2777777777777778
 40
0.2777777777777778
 40
0.2777777777777778
 40
0.3333333333333333
 40
0.3333333333333333
 40
0.3333333333333333
 40
0.3333333333333333
 40
0.3888888888888889
 40
0.3888888888888889
 40
0.3888888888888889
 40
0.3888888888888889
 40
0.4444444444444444
 40
0.4444444444444444
 40
0.4444444444444444
 40
0.4444444444444444
 40
0.5
 40
0.5
 40
0.5
 40
0.5
 40
0.5555555555555556
 40
0.5555555555555556
 40
0.5555555555555556
 40
0.5555555555555556
 40
0.6111111111111112
 40
0.6111111111111112
 40
0.6111111111111112
 40
0.6111111111111112
 40
0.6666666666666666
 40
0.6666666666666666
 40
0.6666666666666666
 40
0.6666666666666666
 40
0.7222222222222222
 40
0.7222222222222222
 40
0.7222222222222222
 40
0.7222222222222222
 40
0.7777777777777778
 40
0.7777777777777778
 40
0.7777777777777778
 40
0.7777777777777778
 40
0.8333333333333334
 40
0.8333333333333334
 40
0.8333333333333334
 40
0.8333333333333334
 40
0.8888888888888888
 40
0.8888888888888888
 40
0.8888888888888888
 40
0.8888888888888888
 40
1.0
 40
1.0
 40
1.0
 40
1.0
 10
123.2348
 20
42.9138
 30
0.0
 10
122.0868
 20
46.7458
 30
0.0
 10
119.344
 20
48.3311
 30
0.0
 10
114.5375
 20
47.9409
 30
0.0
 10
114.5375
 20
47.9409
 30
0.0
 10
110.4432
 20
47.6085
 30
0.0
 10
107.4692
 20
46.3082
 30
0.0
 10
104.111
 20
43.3821
 30
0.0
 10
104.111
 20
43.3821
 30
0.0
 10
102.191
 20
41.7093
 30
0.0
 10
101.7843
 20
41.5762
 30
0.0
 10
101.2899
 20
42.4601
 30
0.0
 10
101.2899
 20
42.4601
 30
0.0
 10
100.4303
 20
43.996
 30
0.0
 10
102.1456
 20
47.5088
 30
0.0
 10
104.9634
 20
49.9827
 30
0.0
 10
104.9634
 20
49.9827
 30
0.0
 10
106.301
 20
51.1571
 30
0.0
 10
110.4923
 20
54.1956
 30
0.0
 10
114.2776
 20
56.7353
 30
0.0
 10
114.2776
 20
56.7353
 30
0.0
 10
121.3053
 20
61.4503
 30
0.0
 10
123.4114
 20
63.8888
 30
0.0
 10
122.7244
 20
66.5157
 30
0.0
 10
122.7244
 20
66.5157
 30
0.0
 10
122.2076
 20
68.492
 30
0.0
 10
123.4491
 20
68.2974
 30
0.0
 10
124.379
 20
66.2561
 30
0.0
 10
124.379
 20
66.2561
 30
0.0
 10
125.5076
 20
63.7792
 30
0.0
 10
125.3182
 20
62.2153
 30
0.0
 10
123.7087
 20
60.7157
 30
0.0
 10
123.7087
 20
60.7157
 30
0.0
 10
122.9193
 20
59.9802
 30
0.0
 10
122.4317
 20
59.2199
 30
0.0
 10
122.6255
 20
59.0263
 30
0.0
 10
122.6255
 20
59.0263
 30
0.0
 10
123.2911
 20
58.3607
 30
0.0
 10
125.2552
 20
59.5493
 30
0.0
 10
125.7877
 20
60.9395
 30
0.0
 10
125.7877
 20
60.9395
 30
0.0
 10
126.303
 20
62.2846
 30
0.0
 10
126.3354
 20
62.2751
 30
0.0
 10
126.758
 20
60.6572
 30
0.0
 10
126.758
 20
60.6572
 30
0.0
 10
127.8696
 20
56.4014
 30
0.0
 10
124.4019
 20
53.4914
 30
0.0
 10
117.6202
 20
52.9888
 30
0.0
 10
117.6202
 20
52.9888
 30
0.0
 10
112.3719
 20
52.5998
 30
0.0
 10
110.6396
 20
52.2233
 30
0.0
 10
110.6396
 20
51.4713
 30
0.0
 10
110.6396
 20
51.4713
 30
0.0
 10
110.6396
 20
51.1222
 30
0.0
 10
112.028
 20
51.02
 30
0.0
 10
113.8453
 20
51.2353
 30
0.0
 10
113.8453
 20
51.2353
 30
0.0
 10
120.9704
 20
52.0793
 30
0.0
 10
126.8998
 20
47.3396
 30
0.0
 10
125.5327
 20
41.8929
 30
0.0
 10
125.5327
 20
41.8929
 30
0.0
 10
124.9352
 20
39.5125
 30
0.0
 10
124.149
 20
39.8616
 30
0.0
 10
123.2348
 20
42.9133
 30
0.0
 10
123.2348
 20
42.9133
 30
0.0
 10
123.2348
 20
42.9133
 30
0.0
 10
123.2348
 20
42.9138
 30
0.0
 10
123.2348
 20
42.9138
 30
0.0
  0
SPLINE
  5
4A
330
1F
100
AcDbEntity
  8
layer 1
 62
     7
100
AcDbSpline
210
0.0
220
0.0
230
1.0
 70
    11
 71
     3
 72
    32
 73
    28
 74
     0
 42
0.0000000001
 43
0.0000000001
 12
1.0
 22
0.0
 32
0.0
 13
1.0
 23
0.0
 33
0.0
 40
0.0
 40
0.0
 40
0.0
 40
0.0
 40
0.125
 40
0.125
 40
0.125
 40
0.125
 40
0.25
 40
0.25
 40
0.25
 40
0.25
 40
0.375
 40
0.375
 40
0.375
 40
0.375
 40
0.5
 40
0.5
 40
0.5
 40
0.5
 40
0.625
 40
0.625
 40
0.625
 40
0.625
 40
0.75
 40
0.75
 40
0.75
 40
0.75
 40
1.0
 40
1.0
 40
1.0
 40
1.0
 10
168.6579
 20
41.0345
 30
0.0
 10
168.6579
 20
41.9435
 30
0.0
 10
169.3987
 20
43.6955
 30
0.0
 10
170.3042
 20
44.9277
 30
0.0
 10
170.3042
 20
44.9277
 30
0.0
 10
171.839
 20
47.0159
 30
0.0
 10
174.4459
 20
50.1489
 30
0.0
 10
175.7145
 20
56.5302
 30
0.0
 10
175.7145
 20
56.5302
 30
0.0
 10
176.5961
 20
55.3553
 30
0.0
 10
177.9011
 20
55.593
 30
0.0
 10
179.2958
 20
55.5352
 30
0.0
 10
179.2958
 20
55.5352
 30
0.0
 10
178.7598
 20
50.8967
 30
0.0
 10
174.1267
 20
44.769
 30
0.0
 10
172.745
 20
43.2124
 30
0.0
 10
172.745
 20
43.2124
 30
0.0
 10
172.1014
 20
42.4872
 30
0.0
 10
170.9182
 20
41.3285
 30
0.0
 10
170.1161
 20
40.6378
 30
0.0
 10
170.1161
 20
40.6378
 30
0.0
 10
168.6649
 20
39.3881
 30
0.0
 10
168.6576
 20
39.3901
 30
0.0
 10
168.6576
 20
41.0348
 30
0.0
 10
168.6576
 20
41.0348
 30
0.0
 10
168.6576
 20
41.0348
 30
0.0
 10
168.6579
 20
41.0345
 30
0.0
 10
168.6579
 20
41.0345
 30
0.0
  0
SPLINE
  5
4B
330
1F
100
AcDbEntity
  8
layer 1
 62
     7
100
AcDbSpline
210
0.0
220
0.0
230
1.0
 70
    11
 71
     3
 72
   192
 73
   188
 74
     0
 42
0.0000000001
 43
0.0000000001
 12
1.0
 22
0.0
 32
0.0
 13
1.0
 23
0.0
 33
0.0
 40
0.0
 40
0.0
 40
0.0
 40
0.0
 40
0.0208333333333333
 40
0.0208333333333333
 40
0.0208333333333333
 40
0.0208333333333333
 40
0.0416666666666667
 40
0.0416666666666667
 40
0.0416666666666667
 40
0.0416666666666667
 40
0.0625
 40
0.0625
 40
0.0625
 40
0.0625
 40
0.0833333333333333
 40
0.0833333333333333
 40
0.0833333333333333
 40
0.0833333333333333
 40
0.1041666666666667
 40
0.1041666666666667
 40
0.1041666666666667
 40
0.1041666666666667
 40
0.125
 40
0.125
 40
0.125
 40
0.125
 40
0.1458333333333333
 40
0.1458333333333333
 40
0.1458333333333333
 40
0.1458333333333333
 40
0.1666666666666667
 40
0.1666666666666667
 40
0.1666666666666667
 40
0.1666666666666667
 40
0.1875
 40
0.1875
 40
0.1875
 40
0.1875
 40
0.2083333333333333
 40
0.2083333333333333
 40
0.2083333333333333
 40
0.2083333333333333
 40
0.2291666666666667
 40
0.2291666666666667
 40
0.2291666666666667
 40
0.2291666666666667
 40
0.25
 40
0.25
 40
0.25
 40
0.25
 40
0.2708333333333333
 40
0.2708333333333333
 40
0.2708333333333333
 40
0.2708333333333333
 40
0.2916666666666667
 40
0.2916666666666667
 40
0.2916666666666667
 40
0.2916666666666667
 40
0.3125
 40
0.3125
 40
0.3125
 40
0.3125
 40
0.3333333333333333
 40
0.3333333333333333
 40
0.3333333333333333
 40
0.3333333333333333
 40
0.3541666666666667
 40
0.3541666666666667
 40
0.3541666666666667
 40
0.3541666666666667
 40
0.375
 40
0.375
 40
0.375
 40
0.375
 40
0.3958333333333333
 40
0.3958333333333333
 40
0.3958333333333333
 40
0.3958333333333333
 40
0.4166666666666667
 40
0.4166666666666667
 40
0.4166666666666667
 40
0.4166666666666667
 40
0.4375
 40
0.4375
 40
0.4375
 40
0.4375
 40
0.4583333333333333
 40
0.4583333333333333
 40
0.4583333333333333
 40
0.4583333333333333
 40
0.4791666666666667
 40
0.4791666666666667
 40
0.4791666666666667
 40
0.4791666666666667
 40
0.5
 40
0.5
 40
0.5
 40
0.5
 40
0.5208333333333334
 40
0.5208333333333334
 40
0.5208333333333334
 40
0.5208333333333334
 40
0.5416666666666666
 40
0.5416666666666666
 40
0.5416666666666666
 40
0.5416666666666666
 40
0.5625
 40
0.5625
 40
0.5625
 40
0.5625
 40
0.5833333333333334
 40
0.5833333333333334
 40
0.5833333333333334
 40
0.5833333333333334
 40
0.6041666666666666
 40
0.6041666666666666
 40
0.6041666666666666
 40
0.6041666666666666
 40
0.625
 40
0.625
 40
0.625
 40
0.625
 40
0.6458333333333334
 40
0.6458333333333334
 40
0.6458333333333334
 40
0.6458333333333334
 40
0.6666666666666666
 40
0.6666666666666666
 40
0.6666666666666666
 40
0.6666666666666666
 40
0.6875
 40
0.6875
 40
0.6875
 40
0.6875
 40
0.7083333333333334
 40
0.7083333333333334
 40
0.7083333333333334
 40
0.7083333333333334
 40
0.7291666666666666
 40
0.7291666666666666
 40
0.7291666666666666
 40
0.7291666666666666
 40
0.75
 40
0.75
 40
0.75
 40
0.75
 40
0.7708333333333334
 40
0.7708333333333334
 40
0.7708333333333334
 40
0.7708333333333334
 40
0.7916666666666666
 40
0.7916666666666666
 40
0.7916666666666666
 40
0.7916666666666666
 40
0.8125
 40
0.8125
 40
0.8125
 40
0.8125
 40
0.8333333333333334
 40
0.8333333333333334
 40
0.8333333333333334
 40
0.8333333333333334
 40
0.8541666666666666
 40
0.8541666666666666
 40
0.8541666666666666
 40
0.8541666666666666
 40
0.875
 40
0.875
 40
0.875
 40
0.875
 40
0.8958333333333334
 40
0.8958333333333334
 40
0.8958333333333334
 40
0.8958333333333334
 40
0.9166666666666666
 40
0.9166666666666666
 40
0.9166666666666666
 40
0.9166666666666666
 40
0.9375
 40
0.9375
 40
0.9375
 40
0.9375
 40
0.9583333333333334
 40
0.9583333333333334
 40
0.9583333333333334
 40
0.9583333333333334
 40
1.0
 40
1.0
 40
1.0
 40
1.0
 10
173.2937
 20
10.1462
 30
0.0
 10
169.9113
 20
11.0191
 30
0.0
 10
167.3395
 20
14.117
 30
0.0
 10
167.3395
 20
17.318
 30
0.0
 10
167.3395
 20
17.318
 30
0.0
 10
167.3395
 20
21.3814
 30
0.0
 10
173.6074
 20
24.8892
 30
0.0
 10
175.9104
 20
22.1145
 30
0.0
 10
175.9104
 20
22.1145
 30
0.0
 10
176.6128
 20
21.268
 30
0.0
 10
176.4038
 20
21.1255
 30
0.0
 10
174.4579
 20
21.1255
 30
0.0
 10
174.4579
 20
21.1255
 30
0.0
 10
172.0749
 20
21.1255
 30
0.0
 10
169.3175
 20
18.9711
 30
0.0
 10
169.3175
 20
17.1092
 30
0.0
 10
169.3175
 20
17.1092
 30
0.0
 10
169.3175
 20
15.6704
 30
0.0
 10
171.23
 20
13.2139
 30
0.0
 10
172.3503
 20
13.2139
 30
0.0
 10
172.3503
 20
13.2139
 30
0.0
 10
173.0757
 20
13.2139
 30
0.0
 10
173.28
 20
13.8471
 30
0.0
 10
173.137
 20
15.65
 30
0.0
 10
173.137
 20
15.65
 30
0.0
 10
172.9508
 20
17.996
 30
0.0
 10
173.053
 20
18.1246
 30
0.0
 10
175.9074
 20
19.1313
 30
0.0
 10
175.9074
 20
19.1313
 30
0.0
 10
178.3402
 20
19.9895
 30
0.0
 10
178.8465
 20
20.1701
 30
0.0
 10
179.1418
 20
21.7774
 30
0.0
 10
179.1418
 20
21.7774
 30
0.0
 10
179.4944
 20
23.6943
 30
0.0
 10
179.6078
 20
24.0624
 30
0.0
 10
180.3879
 20
22.6523
 30
0.0
 10
180.3879
 20
22.6523
 30
0.0
 10
181.6598
 20
20.3535
 30
0.0
 10
181.3832
 20
16.0496
 30
0.0
 10
179.8662
 20
14.5326
 30
0.0
 10
179.8662
 20
14.5326
 30
0.0
 10
179.141
 20
13.8075
 30
0.0
 10
178.1201
 20
13.2139
 30
0.0
 10
177.5976
 20
13.2139
 30
0.0
 10
177.5976
 20
13.2139
 30
0.0
 10
177.0751
 20
13.2139
 30
0.0
 10
176.4643
 20
12.9172
 30
0.0
 10
176.24
 20
12.5546
 30
0.0
 10
176.24
 20
12.5546
 30
0.0
 10
175.343
 20
11.1031
 30
0.0
 10
179.3469
 20
11.9785
 30
0.0
 10
180.8061
 20
13.5528
 30
0.0
 10
180.8061
 20
13.5528
 30
0.0
 10
184.1753
 20
17.1882
 30
0.0
 10
183.4711
 20
22.5543
 30
0.0
 10
179.0578
 20
26.8752
 30
0.0
 10
179.0578
 20
26.8752
 30
0.0
 10
175.5996
 20
30.2606
 30
0.0
 10
172.358
 20
31.6742
 30
0.0
 10
168.0521
 20
31.6742
 30
0.0
 10
168.0521
 20
31.6742
 30
0.0
 10
160.4672
 20
31.6742
 30
0.0
 10
153.4074
 20
29.0655
 30
0.0
 10
139.6859
 20
21.1928
 30
0.0
 10
139.6859
 20
21.1928
 30
0.0
 10
139.6859
 20
21.1928
 30
0.0
 10
130.4479
 20
15.8927
 30
0.0
 10
130.4479
 20
15.8927
 30
0.0
 10
130.4479
 20
15.8927
 30
0.0
 10
130.4479
 20
15.8927
 30
0.0
 10
127.6839
 20
17.0666
 30
0.0
 10
127.6839
 20
17.0666
 30
0.0
 10
127.6839
 20
17.0666
 30
0.0
 10
127.6839
 20
17.0666
 30
0.0
 10
125.9023
 20
18.2405
 30
0.0
 10
125.9023
 20
18.2405
 30
0.0
 10
125.9023
 20
18.2405
 30
0.0
 10
135.0426
 20
25.7815
 30
0.0
 10
144.6396
 20
31.6248
 30
0.0
 10
145.5591
 20
48.5885
 30
0.0
 10
145.5591
 20
48.5885
 30
0.0
 10
145.4345
 20
50.8528
 30
0.0
 10
145.373
 20
53.4493
 30
0.0
 10
143.8392
 20
55.9571
 30
0.0
 10
143.8392
 20
55.9571
 30
0.0
 10
142.5492
 20
57.5975
 30
0.0
 10
142.1921
 20
58.0462
 30
0.0
 10
143.5896
 20
58.0462
 30
0.0
 10
143.5896
 20
58.0462
 30
0.0
 10
148.6089
 20
57.4118
 30
0.0
 10
148.8468
 20
55.3137
 30
0.0
 10
149.1882
 20
52.9213
 30
0.0
 10
149.1882
 20
52.9213
 30
0.0
 10
149.8463
 20
48.1372
 30
0.0
 10
150.4862
 20
47.515
 30
0.0
 10
152.0703
 20
50.1197
 30
0.0
 10
152.0703
 20
50.1197
 30
0.0
 10
152.0703
 20
50.1197
 30
0.0
 10
153.3987
 20
52.3041
 30
0.0
 10
153.3987
 20
52.3041
 30
0.0
 10
153.3987
 20
52.3041
 30
0.0
 10
155.355
 20
47.4826
 30
0.0
 10
152.6855
 20
42.4671
 30
0.0
 10
149.4743
 20
40.1995
 30
0.0
 10
149.4743
 20
40.1995
 30
0.0
 10
148.4132
 20
39.444
 30
0.0
 10
147.7305
 20
38.526
 30
0.0
 10
147.957
 20
38.1597
 30
0.0
 10
147.957
 20
38.1597
 30
0.0
 10
148.2298
 20
37.7181
 30
0.0
 10
148.6106
 20
37.7351
 30
0.0
 10
149.0855
 20
38.21
 30
0.0
 10
149.0855
 20
38.21
 30
0.0
 10
150.1568
 20
39.281
 30
0.0
 10
150.8572
 20
39.0782
 30
0.0
 10
150.8572
 20
37.6964
 30
0.0
 10
150.8572
 20
37.6964
 30
0.0
 10
150.8572
 20
37.0144
 30
0.0
 10
148.5804
 20
34.3277
 30
0.0
 10
145.7477
 20
31.667
 30
0.0
 10
145.7477
 20
31.667
 30
0.0
 10
142.5044
 20
28.6204
 30
0.0
 10
140.9639
 20
26.7538
 30
0.0
 10
141.5298
 20
26.5565
 30
0.0
 10
141.5298
 20
26.5565
 30
0.0
 10
143.0042
 20
26.0419
 30
0.0
 10
147.5713
 20
29.1345
 30
0.0
 10
149.8119
 20
32.6293
 30
0.0
 10
149.8119
 20
32.6293
 30
0.0
 10
154.901
 20
40.5663
 30
0.0
 10
158.1152
 20
44.0028
 30
0.0
 10
157.428
 20
41.1426
 30
0.0
 10
157.428
 20
41.1426
 30
0.0
 10
156.5643
 20
37.5482
 30
0.0
 10
157.4332
 20
38.8935
 30
0.0
 10
160.8206
 20
41.2236
 30
0.0
 10
160.8206
 20
41.2236
 30
0.0
 10
162.674
 20
42.4982
 30
0.0
 10
164.8805
 20
43.5415
 30
0.0
 10
165.7235
 20
43.5415
 30
0.0
 10
165.7235
 20
43.5415
 30
0.0
 10
167.1219
 20
43.5415
 30
0.0
 10
167.2233
 20
43.3247
 30
0.0
 10
166.881
 20
41.0691
 30
0.0
 10
166.881
 20
41.0691
 30
0.0
 10
166.6744
 20
39.7093
 30
0.0
 10
165.9009
 20
37.9304
 30
0.0
 10
165.1616
 20
37.1158
 30
0.0
 10
165.1616
 20
37.1158
 30
0.0
 10
162.9693
 20
34.7
 30
0.0
 10
164.274
 20
34.7384
 30
0.0
 10
169.233
 20
37.2357
 30
0.0
 10
169.233
 20
37.2357
 30
0.0
 10
173.4101
 20
39.3393
 30
0.0
 10
177.8879
 20
40.3261
 30
0.0
 10
177.8879
 20
39.143
 30
0.0
 10
177.8879
 20
39.143
 30
0.0
 10
177.8879
 20
38.8995
 30
0.0
 10
176.2734
 20
37.4849
 30
0.0
 10
175.7192
 20
36.8724
 30
0.0
 10
175.7192
 20
36.8724
 30
0.0
 10
174.7903
 20
35.846
 30
0.0
 10
176.1102
 20
36.4408
 30
0.0
 10
178.9125
 20
36.0568
 30
0.0
 10
178.9125
 20
36.0568
 30
0.0
 10
182.2459
 20
35.5998
 30
0.0
 10
185.7995
 20
33.8117
 30
0.0
 10
185.7995
 20
32.5914
 30
0.0
 10
185.7995
 20
32.5914
 30
0.0
 10
185.7995
 20
31.5763
 30
0.0
 10
184.254
 20
31.0148
 30
0.0
 10
181.4602
 20
31.0148
 30
0.0
 10
181.4602
 20
31.0148
 30
0.0
 10
178.6805
 20
31.0148
 30
0.0
 10
178.6419
 20
30.4798
 30
0.0
 10
181.2434
 20
28.0065
 30
0.0
 10
181.2434
 20
28.0065
 30
0.0
 10
184.0881
 20
25.3021
 30
0.0
 10
185.1521
 20
22.9774
 30
0.0
 10
185.2353
 20
19.2858
 30
0.0
 10
185.2353
 20
19.2858
 30
0.0
 10
185.3998
 20
11.9907
 30
0.0
 10
180.5447
 20
8.2746
 30
0.0
 10
173.2937
 20
10.1457
 30
0.0
 10
173.2937
 20
10.1457
 30
0.0
 10
173.2937
 20
10.1457
 30
0.0
 10
173.2937
 20
10.1462
 30
0.0
 10
173.2937
 20
10.1462
 30
0.0
  0
SPLINE
  5
4C
330
1F
100
AcDbEntity
  8
layer 1
 62
     7
100
AcDbSpline
210
0.0
220
0.0
230
1.0
 70
    11
 71
     3
 72
   108
 73
   104
 74
     0
 42
0.0000000001
 43
0.0000000001
 12
1.0
 22
0.0
 32
0.0
 13
1.0
 23
0.0
 33
0.0
 40
0.0
 40
0.0
 40
0.0
 40
0.0
 40
0.037037037037037
 40
0.037037037037037
 40
0.037037037037037
 40
0.037037037037037
 40
0.0740740740740741
 40
0.0740740740740741
 40
0.0740740740740741
 40
0.0740740740740741
 40
0.1111111111111111
 40
0.1111111111111111
 40
0.1111111111111111
 40
0.1111111111111111
 40
0.1481481481481481
 40
0.1481481481481481
 40
0.1481481481481481
 40
0.1481481481481481
 40
0.1851851851851852
 40
0.1851851851851852
 40
0.1851851851851852
 40
0.1851851851851852
 40
0.2222222222222222
 40
0.2222222222222222
 40
0.2222222222222222
 40
0.2222222222222222
 40
0.2592592592592592
 40
0.2592592592592592
 40
0.2592592592592592
 40
0.2592592592592592
 40
0.2962962962962963
 40
0.2962962962962963
 40
0.2962962962962963
 40
0.2962962962962963
 40
0.3333333333333333
 40
0.3333333333333333
 40
0.3333333333333333
 40
0.3333333333333333
 40
0.3703703703703703
 40
0.3703703703703703
 40
0.3703703703703703
 40
0.3703703703703703
 40
0.4074074074074074
 40
0.4074074074074074
 40
0.4074074074074074
 40
0.4074074074074074
 40
0.4444444444444444
 40
0.4444444444444444
 40
0.4444444444444444
 40
0.4444444444444444
 40
0.4814814814814815
 40
0.4814814814814815
 40
0.4814814814814815
 40
0.4814814814814815
 40
0.5185185185185185
 40
0.5185185185185185
 40
0.5185185185185185
 40
0.5185185185185185
 40
0.5555555555555556
 40
0.5555555555555556
 40
0.5555555555555556
 40
0.5555555555555556
 40
0.5925925925925926
 40
0.5925925925925926
 40
0.5925925925925926
 40
0.5925925925925926
 40
0.6296296296296297
 40
0.6296296296296297
 40
0.6296296296296297
 40
0.6296296296296297
 40
0.6666666666666666
 40
0.6666666666666666
 40
0.6666666666666666
 40
0.6666666666666666
 40
0.7037037037037037
 40
0.7037037037037037
 40
0.7037037037037037
 40
0.7037037037037037
 40
0.7407407407407407
 40
0.7407407407407407
 40
0.7407407407407407
 40
0.7407407407407407
 40
0.7777777777777778
 40
0.7777777777777778
 40
0.7777777777777778
 40
0.7777777777777778
 40
0.8148148148148148
 40
0.8148148148148148
 40
0.8148148148148148
 40
0.8148148148148148
 40
0.8518518518518519
 40
0.8518518518518519
 40
0.8518518518518519
 40
0.8518518518518519
 40
0.8888888888888888
 40
0.8888888888888888
 40
0.8888888888888888
 40
0.8888888888888888
 40
0.9259259259259259
 40
0.9259259259259259
 40
0.9259259259259259
 40
0.9259259259259259
 40
1.0
 40
1.0
 40
1.0
 40
1.0
 10
139.5695
 20
8.5266
 30
0.0
 10
139.5924
 20
9.6506
 30
0.0
 10
140.8211
 20
11.2422
 30
0.0
 10
143.1119
 20
12.1993
 30
0.0
 10
143.1119
 20
12.1993
 30
0.0
 10
146.2638
 20
13.5162
 30
0.0
 10
147.6767
 20
13.4703
 30
0.0
 10
152.7286
 20
11.8868
 30
0.0
 10
152.7286
 20
11.8868
 30
0.0
 10
157.3487
 20
10.4385
 30
0.0
 10
159.4276
 20
10.2367
 30
0.0
 10
159.4276
 20
11.2359
 30
0.0
 10
159.4276
 20
11.2359
 30
0.0
 10
159.4276
 20
11.5985
 30
0.0
 10
158.9679
 20
11.8953
 30
0.0
 10
158.406
 20
11.8953
 30
0.0
 10
158.406
 20
11.8953
 30
0.0
 10
156.4462
 20
11.8953
 30
0.0
 10
153.51
 20
13.9094
 30
0.0
 10
153.1024
 20
15.5333
 30
0.0
 10
153.1024
 20
15.5333
 30
0.0
 10
152.6317
 20
17.4089
 30
0.0
 10
153.2432
 20
20.4662
 30
0.0
 10
154.0889
 20
20.4662
 30
0.0
 10
154.0889
 20
20.4662
 30
0.0
 10
154.4024
 20
20.4662
 30
0.0
 10
154.814
 20
19.8729
 30
0.0
 10
155.0036
 20
19.1475
 30
0.0
 10
155.0036
 20
19.1475
 30
0.0
 10
155.1933
 20
18.4224
 30
0.0
 10
155.7046
 20
17.8288
 30
0.0
 10
156.1399
 20
17.8288
 30
0.0
 10
156.1399
 20
17.8288
 30
0.0
 10
156.6473
 20
17.8288
 30
0.0
 10
156.7494
 20
18.243
 30
0.0
 10
156.4245
 20
18.9825
 30
0.0
 10
156.4245
 20
18.9825
 30
0.0
 10
154.2937
 20
23.8324
 30
0.0
 10
156.2102
 20
27.7181
 30
0.0
 10
160.7329
 20
27.7181
 30
0.0
 10
160.7329
 20
27.7181
 30
0.0
 10
163.9314
 20
27.7181
 30
0.0
 10
164.8539
 20
26.5288
 30
0.0
 10
162.0849
 20
25.9751
 30
0.0
 10
162.0849
 20
25.9751
 30
0.0
 10
158.0061
 20
25.1593
 30
0.0
 10
157.8962
 20
21.1736
 30
0.0
 10
161.8258
 20
16.5829
 30
0.0
 10
161.8258
 20
16.5829
 30
0.0
 10
163.4221
 20
13.7646
 30
0.0
 10
170.4859
 20
11.5222
 30
0.0
 10
170.14
 20
8.5266
 30
0.0
 10
170.14
 20
8.5266
 30
0.0
 10
170.4859
 20
5.5309
 30
0.0
 10
163.4221
 20
3.2925
 30
0.0
 10
161.8258
 20
0.4742
 30
0.0
 10
161.8258
 20
0.4742
 30
0.0
 10
157.8962
 20
-4.1165
 30
0.0
 10
158.0061
 20
-8.1022
 30
0.0
 10
162.0849
 20
-8.918
 30
0.0
 10
162.0849
 20
-8.918
 30
0.0
 10
164.8539
 20
-9.4717
 30
0.0
 10
163.9314
 20
-10.6611
 30
0.0
 10
160.7329
 20
-10.6611
 30
0.0
 10
160.7329
 20
-10.6611
 30
0.0
 10
156.2102
 20
-10.6611
 30
0.0
 10
154.2937
 20
-6.7753
 30
0.0
 10
156.4245
 20
-1.9254
 30
0.0
 10
156.4245
 20
-1.9254
 30
0.0
 10
156.7494
 20
-1.1859
 30
0.0
 10
156.6473
 20
-0.7717
 30
0.0
 10
156.1399
 20
-0.7717
 30
0.0
 10
156.1399
 20
-0.7717
 30
0.0
 10
155.7046
 20
-0.7717
 30
0.0
 10
155.1933
 20
-1.3653
 30
0.0
 10
155.0036
 20
-2.0904
 30
0.0
 10
155.0036
 20
-2.0904
 30
0.0
 10
154.814
 20
-2.8158
 30
0.0
 10
154.4024
 20
-3.4091
 30
0.0
 10
154.0889
 20
-3.4091
 30
0.0
 10
154.0889
 20
-3.4091
 30
0.0
 10
153.2432
 20
-3.4091
 30
0.0
 10
152.6317
 20
-0.3518
 30
0.0
 10
153.1024
 20
1.5238
 30
0.0
 10
153.1024
 20
1.5238
 30
0.0
 10
153.51
 20
3.1477
 30
0.0
 10
156.4462
 20
5.1618
 30
0.0
 10
158.406
 20
5.1618
 30
0.0
 10
158.406
 20
5.1618
 30
0.0
 10
158.9679
 20
5.1618
 30
0.0
 10
159.4276
 20
5.4586
 30
0.0
 10
159.4276
 20
5.8212
 30
0.0
 10
159.4276
 20
5.8212
 30
0.0
 10
159.4276
 20
6.8204
 30
0.0
 10
157.3487
 20
6.6186
 30
0.0
 10
152.7286
 20
5.1703
 30
0.0
 10
152.7286
 20
5.1703
 30
0.0
 10
147.6767
 20
3.5867
 30
0.0
 10
146.2638
 20
3.5409
 30
0.0
 10
143.1119
 20
4.8578
 30
0.0
 10
143.1119
 20
4.8578
 30
0.0
 10
140.8211
 20
5.8149
 30
0.0
 10
139.5924
 20
7.4025
 30
0.0
 10
139.5695
 20
8.5266
 30
0.0
  0
SPLINE
  5
4D
330
1F
100
AcDbEntity
  8
layer 1
 62
     7
100
AcDbSpline
210
0.0
220
0.0
230
1.0
 70
    11
 71
     3
 72
   108
 73
   104
 74
     0
 42
0.0000000001
 43
0.0000000001
 12
1.0
 22
0.0
 32
0.0
 13
1.0
 23
0.0
 33
0.0
 40
0.0
 40
0.0
 40
0.0
 40
0.0
 40
0.037037037037037
 40
0.037037037037037
 40
0.037037037037037
 40
0.037037037037037
 40
0.0740740740740741
 40
0.0740740740740741
 40
0.0740740740740741
 40
0.0740740740740741
 40
0.1111111111111111
 40
0.1111111111111111
 40
0.1111111111111111
 40
0.1111111111111111
 40
0.1481481481481481
 40
0.1481481481481481
 40
0.1481481481481481
 40
0.1481481481481481
 40
0.1851851851851852
 40
0.1851851851851852
 40
0.1851851851851852
 40
0.1851851851851852
 40
0.2222222222222222
 40
0.2222222222222222
 40
0.2222222222222222
 40
0.2222222222222222
 40
0.2592592592592592
 40
0.2592592592592592
 40
0.2592592592592592
 40
0.2592592592592592
 40
0.2962962962962963
 40
0.2962962962962963
 40
0.2962962962962963
 40
0.2962962962962963
 40
0.3333333333333333
 40
0.3333333333333333
 40
0.3333333333333333
 40
0.3333333333333333
 40
0.3703703703703703
 40
0.3703703703703703
 40
0.3703703703703703
 40
0.3703703703703703
 40
0.4074074074074074
 40
0.4074074074074074
 40
0.4074074074074074
 40
0.4074074074074074
 40
0.4444444444444444
 40
0.4444444444444444
 40
0.4444444444444444
 40
0.4444444444444444
 40
0.4814814814814815
 40
0.4814814814814815
 40
0.4814814814814815
 40
0.4814814814814815
 40
0.5185185185185185
 40
0.5185185185185185
 40
0.5185185185185185
 40
0.5185185185185185
 40
0.5555555555555556
 40
0.5555555555555556
 40
0.5555555555555556
 40
0.5555555555555556
 40
0.5925925925925926
 40
0.5925925925925926
 40
0.5925925925925926
 40
0.5925925925925926
 40
0.6296296296296297
 40
0.6296296296296297
 40
0.6296296296296297
 40
0.6296296296296297
 40
0.6666666666666666
 40
0.6666666666666666
 40
0.6666666666666666
 40
0.6666666666666666
 40
0.7037037037037037
 40
0.7037037037037037
 40
0.7037037037037037
 40
0.7037037037037037
 40
0.7407407407407407
 40
0.7407407407407407
 40
0.7407407407407407
 40
0.7407407407407407
 40
0.7777777777777778
 40
0.7777777777777778
 40
0.7777777777777778
 40
0.7777777777777778
 40
0.8148148148148148
 40
0.8148148148148148
 40
0.8148148148148148
 40
0.8148148148148148
 40
0.8518518518518519
 40
0.8518518518518519
 40
0.8518518518518519
 40
0.8518518518518519
 40
0.8888888888888888
 40
0.8888888888888888
 40
0.8888888888888888
 40
0.8888888888888888
 40
0.9259259259259259
 40
0.9259259259259259
 40
0.9259259259259259
 40
0.9259259259259259
 40
1.0
 40
1.0
 40
1.0
 40
1.0
 10
51.4976
 20
59.5296
 30
0.0
 10
49.2869
 20
61.8722
 30
0.0
 10
47.2718
 20
67.2511
 30
0.0
 10
47.6358
 20
68.5605
 30
0.0
 10
47.6358
 20
68.5605
 30
0.0
 10
48.0141
 20
69.9211
 30
0.0
 10
50.1232
 20
68.8668
 30
0.0
 10
52.1926
 20
68.5924
 30
0.0
 10
52.1926
 20
68.5924
 30
0.0
 10
59.3272
 20
69.6233
 30
0.0
 10
50.6948
 20
77.26
 30
0.0
 10
58.8094
 20
79.7317
 30
0.0
 10
58.8094
 20
79.7317
 30
0.0
 10
53.1343
 20
82.4909
 30
0.0
 10
50.1997
 20
79.9851
 30
0.0
 10
50.2079
 20
75.7851
 30
0.0
 10
50.2079
 20
75.7851
 30
0.0
 10
50.0168
 20
72.5569
 30
0.0
 10
48.8105
 20
71.8896
 30
0.0
 10
47.9231
 20
73.2905
 30
0.0
 10
47.9231
 20
73.2905
 30
0.0
 10
46.8972
 20
74.9102
 30
0.0
 10
47.2934
 20
76.7766
 30
0.0
 10
49.3053
 20
79.8032
 30
0.0
 10
49.3053
 20
79.8032
 30
0.0
 10
51.4162
 20
82.9785
 30
0.0
 10
51.7112
 20
84.9717
 30
0.0
 10
50.5595
 20
88.2757
 30
0.0
 10
50.5595
 20
88.2757
 30
0.0
 10
49.702
 20
90.7356
 30
0.0
 10
49.1875
 20
90.8719
 30
0.0
 10
48.3079
 20
88.8725
 30
0.0
 10
48.3079
 20
88.8725
 30
0.0
 10
47.95
 20
88.0586
 30
0.0
 10
47.1639
 20
87.3001
 30
0.0
 10
46.5611
 20
87.187
 30
0.0
 10
46.5611
 20
87.187
 30
0.0
 10
45.6553
 20
87.0168
 30
0.0
 10
45.5168
 20
87.4167
 30
0.0
 10
45.7634
 20
89.4907
 30
0.0
 10
45.7634
 20
89.4907
 30
0.0
 10
45.9708
 20
91.2345
 30
0.0
 10
45.6012
 20
92.9611
 30
0.0
 10
44.5519
 20
95.1494
 30
0.0
 10
44.5519
 20
95.1494
 30
0.0
 10
44.5519
 20
95.1494
 30
0.0
 10
43.0419
 20
98.2983
 30
0.0
 10
43.0419
 20
98.2983
 30
0.0
 10
43.0419
 20
98.2983
 30
0.0
 10
43.0419
 20
98.2983
 30
0.0
 10
41.0965
 20
95.8429
 30
0.0
 10
41.0965
 20
95.8429
 30
0.0
 10
41.0965
 20
95.8429
 30
0.0
 10
39.574
 20
93.9209
 30
0.0
 10
39.0906
 20
92.5502
 30
0.0
 10
38.8725
 20
89.5343
 30
0.0
 10
38.8725
 20
89.5343
 30
0.0
 10
38.563
 20
85.2573
 30
0.0
 10
37.7507
 20
84.8825
 30
0.0
 10
36.0465
 20
88.2306
 30
0.0
 10
36.0465
 20
88.2306
 30
0.0
 10
34.7451
 20
90.7874
 30
0.0
 10
34.1413
 20
90.3264
 30
0.0
 10
34.1413
 20
86.7763
 30
0.0
 10
34.1413
 20
86.7763
 30
0.0
 10
34.1413
 20
82.83
 30
0.0
 10
35.0149
 20
80.3975
 30
0.0
 10
37.6912
 20
76.8915
 30
0.0
 10
37.6912
 20
76.8915
 30
0.0
 10
41.617
 20
71.7483
 30
0.0
 10
40.6529
 20
69.1907
 30
0.0
 10
36.0463
 20
72.528
 30
0.0
 10
36.0463
 20
72.528
 30
0.0
 10
32.4436
 20
75.1377
 30
0.0
 10
30.5291
 20
75.1278
 30
0.0
 10
29.1658
 20
72.4914
 30
0.0
 10
29.1658
 20
72.4914
 30
0.0
 10
27.8384
 20
69.9243
 30
0.0
 10
28.2745
 20
68.6647
 30
0.0
 10
30.3527
 20
69.0619
 30
0.0
 10
30.3527
 20
69.0619
 30
0.0
 10
31.5916
 20
69.2986
 30
0.0
 10
32.6016
 20
68.6779
 30
0.0
 10
34.9292
 20
66.2491
 30
0.0
 10
34.9292
 20
66.2491
 30
0.0
 10
37.4791
 20
63.5883
 30
0.0
 10
38.1733
 20
63.1969
 30
0.0
 10
39.6749
 20
63.5739
 30
0.0
 10
39.6749
 20
63.5739
 30
0.0
 10
40.9452
 20
63.8926
 30
0.0
 10
41.5425
 20
64.5596
 30
0.0
 10
41.8256
 20
65.9755
 30
0.0
 10
41.8256
 20
65.9755
 30
0.0
 10
42.4373
 20
69.0345
 30
0.0
 10
44.3987
 20
68.5411
 30
0.0
 10
46.1113
 20
64.8975
 30
0.0
 10
46.1113
 20
64.8975
 30
0.0
 10
47.5416
 20
61.8553
 30
0.0
 10
51.54
 20
57.3869
 30
0.0
 10
52.8323
 20
57.3869
 30
0.0
 10
52.8323
 20
57.3869
 30
0.0
 10
53.2103
 20
57.3869
 30
0.0
 10
52.6098
 20
58.3512
 30
0.0
 10
51.4976
 20
59.5296
 30
0.0
  0
SPLINE
  5
4E
330
1F
100
AcDbEntity
  8
layer 1
 62
     7
100
AcDbSpline
210
0.0
220
0.0
230
1.0
 70
    11
 71
     3
 72
    20
 73
    16
 74
     0
 42
0.0000000001
 43
0.0000000001
 12
1.0
 22
0.0
 32
0.0
 13
1.0
 23
0.0
 33
0.0
 40
0.0
 40
0.0
 40
0.0
 40
0.0
 40
0.2
 40
0.2
 40
0.2
 40
0.2
 40
0.4
 40
0.4
 40
0.4
 40
0.4
 40
0.6
 40
0.6
 40
0.6
 40
0.6
 40
1.0
 40
1.0
 40
1.0
 40
1.0
 10
17.9905
 20
99.1974
 30
0.0
 10
21.6856
 20
103.3358
 30
0.0
 10
20.6595
 20
101.3144
 30
0.0
 10
15.9105
 20
95.101
 30
0.0
 10
15.9105
 20
95.101
 30
0.0
 10
11.3492
 20
89.1329
 30
0.0
 10
8.0981
 20
83.1011
 30
0.0
 10
7.31
 20
79.1438
 30
0.0
 10
7.31
 20
79.1438
 30
0.0
 10
7.0229
 20
77.7031
 30
0.0
 10
6.6653
 20
77.4621
 30
0.0
 10
6.5953
 20
79.3664
 30
0.0
 10
6.5953
 20
79.3664
 30
0.0
 10
8.6262
 20
86.2057
 30
0.0
 10
13.2176
 20
93.7629
 30
0.0
 10
17.9905
 20
99.1974
 30
0.0
  0
SPLINE
  5
4F
330
1F
100
AcDbEntity
  8
layer 1
 62
     7
100
AcDbSpline
210
0.0
220
0.0
230
1.0
 70
    11
 71
     3
 72
    24
 73
    20
 74
     0
 42
0.0000000001
 43
0.0000000001
 12
1.0
 22
0.0
 32
0.0
 13
1.0
 23
0.0
 33
0.0
 40
0.0
 40
0.0
 40
0.0
 40
0.0
 40
0.1666666666666667
 40
0.1666666666666667
 40
0.1666666666666667
 40
0.1666666666666667
 40
0.3333333333333333
 40
0.3333333333333333
 40
0.3333333333333333
 40
0.3333333333333333
 40
0.5
 40
0.5
 40
0.5
 40
0.5
 40
0.6666666666666666
 40
0.6666666666666666
 40
0.6666666666666666
 40
0.6666666666666666
 40
1.0
 40
1.0
 40
1.0
 40
1.0
 10
9.378
 20
63.0267
 30
0.0
 10
8.5686
 20
68.424
 30
0.0
 10
10.9391
 20
78.4845
 30
0.0
 10
13.0203
 20
78.4845
 30
0.0
 10
13.0203
 20
78.4845
 30
0.0
 10
13.4107
 20
78.4845
 30
0.0
 10
13.0604
 20
77.2236
 30
0.0
 10
12.2416
 20
75.6824
 30
0.0
 10
12.2416
 20
75.6824
 30
0.0
 10
10.9924
 20
73.3306
 30
0.0
 10
10.7517
 20
71.8475
 30
0.0
 10
10.7447
 20
66.4529
 30
0.0
 10
10.7447
 20
66.4529
 30
0.0
 10
10.7358
 20
59.6171
 30
0.0
 10
10.1205
 20
58.0747
 30
0.0
 10
9.378
 20
63.0264
 30
0.0
 10
9.378
 20
63.0264
 30
0.0
 10
9.378
 20
63.0264
 30
0.0
 10
9.378
 20
63.0267
 30
0.0
 10
9.378
 20
63.0267
 30
0.0
  0
SPLINE
  5
50
330
1F
100
AcDbEntity
  8
layer 1
 62
     7
100
AcDbSpline
210
0.0
220
0.0
230
1.0
 70
    11
 71
     3
 72
   124
 73
   120
 74
     0
 42
0.0000000001
 43
0.0000000001
 12
1.0
 22
0.0
 32
0.0
 13
1.0
 23
0.0
 33
0.0
 40
0.0
 40
0.0
 40
0.0
 40
0.0
 40
0.032258064516129
 40
0.032258064516129
 40
0.032258064516129
 40
0.032258064516129
 40
0.0645161290322581
 40
0.0645161290322581
 40
0.0645161290322581
 40
0.0645161290322581
 40
0.0967741935483871
 40
0.0967741935483871
 40
0.0967741935483871
 40
0.0967741935483871
 40
0.1290322580645161
 40
0.1290322580645161
 40
0.1290322580645161
 40
0.1290322580645161
 40
0.1612903225806452
 40
0.1612903225806452
 40
0.1612903225806452
 40
0.1612903225806452
 40
0.1935483870967742
 40
0.1935483870967742
 40
0.1935483870967742
 40
0.1935483870967742
 40
0.2258064516129032
 40
0.2258064516129032
 40
0.2258064516129032
 40
0.2258064516129032
 40
0.2580645161290323
 40
0.2580645161290323
 40
0.2580645161290323
 40
0.2580645161290323
 40
0.2903225806451613
 40
0.2903225806451613
 40
0.2903225806451613
 40
0.2903225806451613
 40
0.3225806451612903
 40
0.3225806451612903
 40
0.3225806451612903
 40
0.3225806451612903
 40
0.3548387096774194
 40
0.3548387096774194
 40
0.3548387096774194
 40
0.3548387096774194
 40
0.3870967741935484
 40
0.3870967741935484
 40
0.3870967741935484
 40
0.3870967741935484
 40
0.4193548387096774
 40
0.4193548387096774
 40
0.4193548387096774
 40
0.4193548387096774
 40
0.4516129032258064
 40
0.4516129032258064
 40
0.4516129032258064
 40
0.4516129032258064
 40
0.4838709677419355
 40
0.4838709677419355
 40
0.4838709677419355
 40
0.4838709677419355
 40
0.5161290322580645
 40
0.5161290322580645
 40
0.5161290322580645
 40
0.5161290322580645
 40
0.5483870967741935
 40
0.5483870967741935
 40
0.5483870967741935
 40
0.5483870967741935
 40
0.5806451612903226
 40
0.5806451612903226
 40
0.5806451612903226
 40
0.5806451612903226
 40
0.6129032258064516
 40
0.6129032258064516
 40
0.6129032258064516
 40
0.6129032258064516
 40
0.6451612903225806
 40
0.6451612903225806
 40
0.6451612903225806
 40
0.6451612903225806
 40
0.6774193548387096
 40
0.6774193548387096
 40
0.6774193548387096
 40
0.6774193548387096
 40
0.7096774193548387
 40
0.7096774193548387
 40
0.7096774193548387
 40
0.7096774193548387
 40
0.7419354838709677
 40
0.7419354838709677
 40
0.7419354838709677
 40
0.7419354838709677
 40
0.7741935483870968
 40
0.7741935483870968
 40
0.7741935483870968
 40
0.7741935483870968
 40
0.8064516129032258
 40
0.8064516129032258
 40
0.8064516129032258
 40
0.8064516129032258
 40
0.8387096774193549
 40
0.8387096774193549
 40
0.8387096774193549
 40
0.8387096774193549
 40
0.8709677419354839
 40
0.8709677419354839
 40
0.8709677419354839
 40
0.8709677419354839
 40
0.9032258064516129
 40
0.9032258064516129
 40
0.9032258064516129
 40
0.9032258064516129
 40
0.9354838709677419
 40
0.9354838709677419
 40
0.9354838709677419
 40
0.9354838709677419
 40
1.0
 40
1.0
 40
1.0
 40
1.0
 10
17.9663
 20
61.3424
 30
0.0
 10
20.4549
 20
61.3424
 30
0.0
 10
20.9022
 20
61.9965
 30
0.0
 10
19.3144
 20
63.3142
 30
0.0
 10
19.3144
 20
63.3142
 30
0.0
 10
18.6917
 20
63.831
 30
0.0
 10
17.4864
 20
63.9703
 30
0.0
 10
16.0179
 20
63.6947
 30
0.0
 10
16.0179
 20
63.6947
 30
0.0
 10
13.2194
 20
63.1697
 30
0.0
 10
13.1708
 20
63.6235
 30
0.0
 10
15.708
 20
66.5917
 30
0.0
 10
15.708
 20
66.5917
 30
0.0
 10
17.6466
 20
68.9301
 30
0.0
 10
17.8198
 20
71.0377
 30
0.0
 10
17.6152
 20
73.5392
 30
0.0
 10
17.6152
 20
73.5392
 30
0.0
 10
16.6025
 20
72.3404
 30
0.0
 10
15.551
 20
71.1214
 30
0.0
 10
14.8266
 20
69.7394
 30
0.0
 10
14.8266
 20
69.7394
 30
0.0
 10
14.6003
 20
69.1227
 30
0.0
 10
14.3305
 20
69.109
 30
0.0
 10
13.7182
 20
69.6839
 30
0.0
 10
13.7182
 20
69.6839
 30
0.0
 10
13.0841
 20
70.2791
 30
0.0
 10
13.2238
 20
70.8692
 30
0.0
 10
14.3636
 20
72.4109
 30
0.0
 10
14.3636
 20
72.4109
 30
0.0
 10
15.3925
 20
73.8026
 30
0.0
 10
15.8463
 20
75.4128
 30
0.0
 10
15.9145
 20
77.9146
 30
0.0
 10
15.9145
 20
77.9146
 30
0.0
 10
16.0025
 20
81.1406
 30
0.0
 10
16.4131
 20
81.2021
 30
0.0
 10
15.6496
 20
82.6491
 30
0.0
 10
15.6496
 20
82.6491
 30
0.0
 10
12.4643
 20
81.8221
 30
0.0
 10
12.2715
 20
81.1458
 30
0.0
 10
10.6082
 20
79.3823
 30
0.0
 10
10.6082
 20
79.3823
 30
0.0
 10
8.5646
 20
77.2154
 30
0.0
 10
8.3174
 20
77.0988
 30
0.0
 10
8.7552
 20
78.5072
 30
0.0
 10
8.7552
 20
78.5072
 30
0.0
 10
9.0331
 20
79.401
 30
0.0
 10
11.5952
 20
82.5731
 30
0.0
 10
14.4486
 20
85.5561
 30
0.0
 10
14.4486
 20
85.5561
 30
0.0
 10
19.8277
 20
91.1794
 30
0.0
 10
20.7203
 20
92.9743
 30
0.0
 10
18.1534
 20
93.0084
 30
0.0
 10
18.1534
 20
93.0084
 30
0.0
 10
16.8412
 20
93.0258
 30
0.0
 10
16.9912
 20
93.3112
 30
0.0
 10
19.4519
 20
95.4808
 30
0.0
 10
19.4519
 20
95.4808
 30
0.0
 10
22.9876
 20
98.0992
 30
0.0
 10
25.5818
 20
106.0611
 30
0.0
 10
22.5271
 20
111.739
 30
0.0
 10
22.5271
 20
111.739
 30
0.0
 10
20.1085
 20
110.2828
 30
0.0
 10
19.4634
 20
104.1419
 30
0.0
 10
18.3735
 20
101.8527
 30
0.0
 10
18.3735
 20
101.8527
 30
0.0
 10
17.9075
 20
100.8739
 30
0.0
 10
17.1423
 20
101.2212
 30
0.0
 10
16.993
 20
100.7794
 30
0.0
 10
16.993
 20
100.7794
 30
0.0
 10
16.614
 20
102.374
 30
0.0
 10
14.8607
 20
102.9239
 30
0.0
 10
14.0412
 20
101.061
 30
0.0
 10
14.0412
 20
101.061
 30
0.0
 10
13.6833
 20
100.2472
 30
0.0
 10
13.164
 20
99.5814
 30
0.0
 10
12.8874
 20
99.5814
 30
0.0
 10
12.8874
 20
99.5814
 30
0.0
 10
11.7178
 20
99.5814
 30
0.0
 10
12.5605
 20
101.2731
 30
0.0
 10
15.1059
 20
104.0345
 30
0.0
 10
15.1059
 20
104.0345
 30
0.0
 10
17.82
 20
106.9791
 30
0.0
 10
18.2725
 20
108.4259
 30
0.0
 10
17.3177
 20
111.9516
 30
0.0
 10
17.3177
 20
111.9516
 30
0.0
 10
16.0072
 20
115.9858
 30
0.0
 10
16.9843
 20
118.3698
 30
0.0
 10
17.7515
 20
121.9844
 30
0.0
 10
17.7515
 20
121.9844
 30
0.0
 10
14.6933
 20
121.0914
 30
0.0
 10
13.703
 20
117.601
 30
0.0
 10
13.703
 20
116.1767
 30
0.0
 10
13.703
 20
116.1767
 30
0.0
 10
13.703
 20
114.0933
 30
0.0
 10
11.8204
 20
114.4025
 30
0.0
 10
11.3794
 20
116.5582
 30
0.0
 10
11.3794
 20
116.5582
 30
0.0
 10
11.2428
 20
118.7024
 30
0.0
 10
8.9297
 20
123.1429
 30
0.0
 10
5.5111
 20
123.9149
 30
0.0
 10
5.5111
 20
123.9149
 30
0.0
 10
5.3452
 20
123.7489
 30
0.0
 10
6.1062
 20
121.804
 30
0.0
 10
7.2021
 20
119.5928
 30
0.0
 10
7.2021
 20
119.5928
 30
0.0
 10
11.3844
 20
111.1549
 30
0.0
 10
10.8549
 20
99.5839
 30
0.0
 10
5.4037
 20
80.2829
 30
0.0
 10
5.4037
 20
80.2829
 30
0.0
 10
2.9393
 20
73.1727
 30
0.0
 10
3.4544
 20
64.2629
 30
0.0
 10
8.4096
 20
58.7248
 30
0.0
 10
8.4096
 20
58.7248
 30
0.0
 10
10.8863
 20
56.0735
 30
0.0
 10
12.5807
 20
56.1629
 30
0.0
 10
14.2749
 20
59.0343
 30
0.0
 10
14.2749
 20
59.0343
 30
0.0
 10
14.843
 20
60.7387
 30
0.0
 10
16.3531
 20
61.3424
 30
0.0
 10
17.9663
 20
61.3424
 30
0.0
  0
SPLINE
  5
51
330
1F
100
AcDbEntity
  8
layer 1
 62
     7
100
AcDbSpline
210
0.0
220
0.0
230
1.0
 70
    11
 71
     3
 72
    36
 73
    32
 74
     0
 42
0.0000000001
 43
0.0000000001
 12
1.0
 22
0.0
 32
0.0
 13
1.0
 23
0.0
 33
0.0
 40
0.0
 40
0.0
 40
0.0
 40
0.0
 40
0.1111111111111111
 40
0.1111111111111111
 40
0.1111111111111111
 40
0.1111111111111111
 40
0.2222222222222222
 40
0.2222222222222222
 40
0.2222222222222222
 40
0.2222222222222222
 40
0.3333333333333333
 40
0.3333333333333333
 40
0.3333333333333333
 40
0.3333333333333333
 40
0.4444444444444444
 40
0.4444444444444444
 40
0.4444444444444444
 40
0.4444444444444444
 40
0.5555555555555556
 40
0.5555555555555556
 40
0.5555555555555556
 40
0.5555555555555556
 40
0.6666666666666666
 40
0.6666666666666666
 40
0.6666666666666666
 40
0.6666666666666666
 40
0.7777777777777778
 40
0.7777777777777778
 40
0.7777777777777778
 40
0.7777777777777778
 40
1.0
 40
1.0
 40
1.0
 40
1.0
 10
67.4359
 20
50.794
 30
0.0
 10
68.0686
 20
51.8179
 30
0.0
 10
67.1768
 20
52.7715
 30
0.0
 10
65.584
 20
52.7743
 30
0.0
 10
65.584
 20
52.7743
 30
0.0
 10
61.7326
 20
52.7808
 30
0.0
 10
57.8762
 20
57.2165
 30
0.0
 10
57.8762
 20
61.6395
 30
0.0
 10
57.8762
 20
61.6395
 30
0.0
 10
57.8762
 20
62.9265
 30
0.0
 10
57.5899
 20
63.9798
 30
0.0
 10
57.2401
 20
63.9798
 30
0.0
 10
57.2401
 20
63.9798
 30
0.0
 10
54.8414
 20
61.7613
 30
0.0
 10
55.2389
 20
59.1885
 30
0.0
 10
55.2389
 20
56.1512
 30
0.0
 10
55.2389
 20
56.1512
 30
0.0
 10
52.682
 20
56.6605
 30
0.0
 10
47.4758
 20
57.4998
 30
0.0
 10
47.3273
 20
52.6372
 30
0.0
 10
47.3273
 20
52.6372
 30
0.0
 10
47.3273
 20
51.5042
 30
0.0
 10
47.4766
 20
51.5241
 30
0.0
 10
49.3467
 20
52.9068
 30
0.0
 10
49.3467
 20
52.9068
 30
0.0
 10
51.779
 20
54.8133
 30
0.0
 10
54.4218
 20
53.322
 30
0.0
 10
57.423
 20
52.2634
 30
0.0
 10
57.423
 20
52.2634
 30
0.0
 10
63.6177
 20
50.0789
 30
0.0
 10
66.713
 20
49.6243
 30
0.0
 10
67.4359
 20
50.794
 30
0.0
  0
SPLINE
  5
52
330
1F
100
AcDbEntity
  8
layer 1
 62
     7
100
AcDbSpline
210
0.0
220
0.0
230
1.0
 70
    11
 71
     3
 72
   120
 73
   116
 74
     0
 42
0.0000000001
 43
0.0000000001
 12
1.0
 22
0.0
 32
0.0
 13
1.0
 23
0.0
 33
0.0
 40
0.0
 40
0.0
 40
0.0
 40
0.0
 40
0.0333333333333333
 40
0.0333333333333333
 40
0.0333333333333333
 40
0.0333333333333333
 40
0.0666666666666667
 40
0.0666666666666667
 40
0.0666666666666667
 40
0.0666666666666667
 40
0.1
 40
0.1
 40
0.1
 40
0.1
 40
0.1333333333333333
 40
0.1333333333333333
 40
0.1333333333333333
 40
0.1333333333333333
 40
0.1666666666666667
 40
0.1666666666666667
 40
0.1666666666666667
 40
0.1666666666666667
 40
0.2
 40
0.2
 40
0.2
 40
0.2
 40
0.2333333333333333
 40
0.2333333333333333
 40
0.2333333333333333
 40
0.2333333333333333
 40
0.2666666666666667
 40
0.2666666666666667
 40
0.2666666666666667
 40
0.2666666666666667
 40
0.3
 40
0.3
 40
0.3
 40
0.3
 40
0.3333333333333333
 40
0.3333333333333333
 40
0.3333333333333333
 40
0.3333333333333333
 40
0.3666666666666666
 40
0.3666666666666666
 40
0.3666666666666666
 40
0.3666666666666666
 40
0.4
 40
0.4
 40
0.4
 40
0.4
 40
0.4333333333333333
 40
0.4333333333333333
 40
0.4333333333333333
 40
0.4333333333333333
 40
0.4666666666666667
 40
0.4666666666666667
 40
0.4666666666666667
 40
0.4666666666666667
 40
0.5
 40
0.5
 40
0.5
 40
0.5
 40
0.5333333333333333
 40
0.5333333333333333
 40
0.5333333333333333
 40
0.5333333333333333
 40
0.5666666666666667
 40
0.5666666666666667
 40
0.5666666666666667
 40
0.5666666666666667
 40
0.6
 40
0.6
 40
0.6
 40
0.6
 40
0.6333333333333333
 40
0.6333333333333333
 40
0.6333333333333333
 40
0.6333333333333333
 40
0.6666666666666666
 40
0.6666666666666666
 40
0.6666666666666666
 40
0.6666666666666666
 40
0.7
 40
0.7
 40
0.7
 40
0.7
 40
0.7333333333333333
 40
0.7333333333333333
 40
0.7333333333333333
 40
0.7333333333333333
 40
0.7666666666666667
 40
0.7666666666666667
 40
0.7666666666666667
 40
0.7666666666666667
 40
0.8
 40
0.8
 40
0.8
 40
0.8
 40
0.8333333333333334
 40
0.8333333333333334
 40
0.8333333333333334
 40
0.8333333333333334
 40
0.8666666666666667
 40
0.8666666666666667
 40
0.8666666666666667
 40
0.8666666666666667
 40
0.9
 40
0.9
 40
0.9
 40
0.9
 40
0.9333333333333333
 40
0.9333333333333333
 40
0.9333333333333333
 40
0.9333333333333333
 40
1.0
 40
1.0
 40
1.0
 40
1.0
 10
33.6514
 20
43.4511
 30
0.0
 10
34.7286
 20
42.8745
 30
0.0
 10
34.92
 20
42.9106
 30
0.0
 10
34.5998
 20
43.6297
 30
0.0
 10
34.5998
 20
43.6297
 30
0.0
 10
23.69
 20
62.7713
 30
0.0
 10
20.4571
 20
87.4651
 30
0.0
 10
36.826
 20
104.35
 30
0.0
 10
36.826
 20
104.35
 30
0.0
 10
49.1197
 20
116.6437
 30
0.0
 10
72.3316
 20
119.2001
 30
0.0
 10
79.9444
 20
105.2789
 30
0.0
 10
79.9444
 20
105.2789
 30
0.0
 10
86.6631
 20
92.2526
 30
0.0
 10
73.3642
 20
84.2269
 30
0.0
 10
65.8481
 20
90.8831
 30
0.0
 10
65.8481
 20
90.8831
 30
0.0
 10
61.4762
 20
95.2717
 30
0.0
 10
64.0542
 20
100.4229
 30
0.0
 10
67.1304
 20
101.5013
 30
0.0
 10
67.1304
 20
101.5013
 30
0.0
 10
69.761
 20
102.4238
 30
0.0
 10
73.1811
 20
100.8335
 30
0.0
 10
72.7729
 20
97.2049
 30
0.0
 10
72.7729
 20
97.2049
 30
0.0
 10
72.3211
 20
96.032
 30
0.0
 10
72.2521
 20
96.0263
 30
0.0
 10
71.6441
 20
97.1095
 30
0.0
 10
71.6441
 20
97.1095
 30
0.0
 10
70.2644
 20
99.5674
 30
0.0
 10
67.1062
 20
98.0103
 30
0.0
 10
67.1062
 20
94.8723
 30
0.0
 10
67.1062
 20
94.8723
 30
0.0
 10
67.1062
 20
91.2574
 30
0.0
 10
71.5651
 20
90.1567
 30
0.0
 10
75.6071
 20
92.6212
 30
0.0
 10
75.6071
 20
92.6212
 30
0.0
 10
79.4877
 20
94.9872
 30
0.0
 10
79.7787
 20
100.4812
 30
0.0
 10
76.8573
 20
104.0106
 30
0.0
 10
76.8573
 20
104.0106
 30
0.0
 10
68.711
 20
113.1339
 30
0.0
 10
53.0383
 20
107.9579
 30
0.0
 10
53.4647
 20
93.1798
 30
0.0
 10
53.4647
 20
93.1798
 30
0.0
 10
54.3722
 20
76.2782
 30
0.0
 10
75.097
 20
74.0941
 30
0.0
 10
85.7688
 20
81.543
 30
0.0
 10
85.7688
 20
81.543
 30
0.0
 10
93.8057
 20
87.0863
 30
0.0
 10
94.5378
 20
100.99
 30
0.0
 10
90.598
 20
108.1196
 30
0.0
 10
90.598
 20
108.1196
 30
0.0
 10
85.1112
 20
118.5482
 30
0.0
 10
71.5958
 20
125.3576
 30
0.0
 10
58.3126
 20
124.3861
 30
0.0
 10
58.3126
 20
124.3861
 30
0.0
 10
46.1447
 20
123.496
 30
0.0
 10
37.0164
 20
119.6618
 30
0.0
 10
29.7385
 20
112.3841
 30
0.0
 10
29.7385
 20
112.3841
 30
0.0
 10
25.6982
 20
108.3439
 30
0.0
 10
24.911
 20
107.2029
 30
0.0
 10
24.908
 20
105.3826
 30
0.0
 10
24.908
 20
105.3826
 30
0.0
 10
24.9021
 20
101.976
 30
0.0
 10
23.633
 20
98.2432
 30
0.0
 10
21.8867
 20
96.4967
 30
0.0
 10
21.8867
 20
96.4967
 30
0.0
 10
20.7238
 20
95.3338
 30
0.0
 10
20.3976
 20
94.4649
 30
0.0
 10
20.6886
 20
93.3049
 30
0.0
 10
20.6886
 20
93.3049
 30
0.0
 10
20.9565
 20
92.2377
 30
0.0
 10
20.5765
 20
90.8874
 30
0.0
 10
19.5389
 20
89.2183
 30
0.0
 10
19.5389
 20
89.2183
 30
0.0
 10
18.2651
 20
87.1695
 30
0.0
 10
17.9803
 20
85.7863
 30
0.0
 10
17.9394
 20
81.4513
 30
0.0
 10
17.9394
 20
81.4513
 30
0.0
 10
17.9095
 20
78.2824
 30
0.0
 10
18.2763
 20
75.1669
 30
0.0
 10
18.8581
 20
73.6469
 30
0.0
 10
18.8581
 20
73.6469
 30
0.0
 10
19.7268
 20
71.3775
 30
0.0
 10
19.7141
 20
70.8812
 30
0.0
 10
18.7358
 20
68.8294
 30
0.0
 10
18.7358
 20
68.8294
 30
0.0
 10
18.7358
 20
68.8294
 30
0.0
 10
17.6451
 20
66.5419
 30
0.0
 10
17.6451
 20
66.5419
 30
0.0
 10
17.6451
 20
66.5419
 30
0.0
 10
17.6451
 20
66.5419
 30
0.0
 10
20.0148
 20
64.307
 30
0.0
 10
20.0148
 20
64.307
 30
0.0
 10
20.0148
 20
64.307
 30
0.0
 10
22.4728
 20
61.9888
 30
0.0
 10
22.8924
 20
59.5237
 30
0.0
 10
20.7671
 20
59.888
 30
0.0
 10
20.7671
 20
59.888
 30
0.0
 10
20.1457
 20
59.9946
 30
0.0
 10
19.6373
 20
59.729
 30
0.0
 10
19.6373
 20
59.2979
 30
0.0
 10
19.6373
 20
59.2979
 30
0.0
 10
19.6373
 20
57.3361
 30
0.0
 10
24.5684
 20
48.5641
 30
0.0
 10
27.4061
 20
45.4779
 30
0.0
 10
27.4061
 20
45.4779
 30
0.0
 10
30.201
 20
42.4384
 30
0.0
 10
30.6457
 20
42.177
 30
0.0
 10
31.4254
 20
43.1167
 30
0.0
 10
31.4254
 20
43.1167
 30
0.0
 10
31.6826
 20
43.3437
 30
0.0
 10
32.3018
 20
43.9764
 30
0.0
 10
33.6514
 20
43.4511
 30
0.0
  0
SPLINE
  5
53
330
1F
100
AcDbEntity
  8
layer 1
 62
     7
100
AcDbSpline
210
0.0
220
0.0
230
1.0
 70
    11
 71
     3
 72
    72
 73
    68
 74
     0
 42
0.0000000001
 43
0.0000000001
 12
1.0
 22
0.0
 32
0.0
 13
1.0
 23
0.0
 33
0.0
 40
0.0
 40
0.0
 40
0.0
 40
0.0
 40
0.0555555555555556
 40
0.0555555555555556
 40
0.0555555555555556
 40
0.0555555555555556
 40
0.1111111111111111
 40
0.1111111111111111
 40
0.1111111111111111
 40
0.1111111111111111
 40
0.1666666666666667
 40
0.1666666666666667
 40
0.1666666666666667
 40
0.1666666666666667
 40
0.2222222222222222
 40
0.2222222222222222
 40
0.2222222222222222
 40
0.2222222222222222
 40
0.2777777777777778
 40
0.2777777777777778
 40
0.2777777777777778
 40
0.2777777777777778
 40
0.3333333333333333
 40
0.3333333333333333
 40
0.3333333333333333
 40
0.3333333333333333
 40
0.3888888888888889
 40
0.3888888888888889
 40
0.3888888888888889
 40
0.3888888888888889
 40
0.4444444444444444
 40
0.4444444444444444
 40
0.4444444444444444
 40
0.4444444444444444
 40
0.5
 40
0.5
 40
0.5
 40
0.5
 40
0.5555555555555556
 40
0.5555555555555556
 40
0.5555555555555556
 40
0.5555555555555556
 40
0.6111111111111112
 40
0.6111111111111112
 40
0.6111111111111112
 40
0.6111111111111112
 40
0.6666666666666666
 40
0.6666666666666666
 40
0.6666666666666666
 40
0.6666666666666666
 40
0.7222222222222222
 40
0.7222222222222222
 40
0.7222222222222222
 40
0.7222222222222222
 40
0.7777777777777778
 40
0.7777777777777778
 40
0.7777777777777778
 40
0.7777777777777778
 40
0.8333333333333334
 40
0.8333333333333334
 40
0.8333333333333334
 40
0.8333333333333334
 40
0.8888888888888888
 40
0.8888888888888888
 40
0.8888888888888888
 40
0.8888888888888888
 40
1.0
 40
1.0
 40
1.0
 40
1.0
 10
66.3786
 20
42.9138
 30
0.0
 10
67.5266
 20
46.7458
 30
0.0
 10
70.2694
 20
48.3311
 30
0.0
 10
75.0759
 20
47.9409
 30
0.0
 10
75.0759
 20
47.9409
 30
0.0
 10
79.1702
 20
47.6085
 30
0.0
 10
82.1442
 20
46.3082
 30
0.0
 10
85.5024
 20
43.3821
 30
0.0
 10
85.5024
 20
43.3821
 30
0.0
 10
87.4224
 20
41.7093
 30
0.0
 10
87.8291
 20
41.5762
 30
0.0
 10
88.3234
 20
42.4601
 30
0.0
 10
88.3234
 20
42.4601
 30
0.0
 10
89.1831
 20
43.996
 30
0.0
 10
87.4678
 20
47.5088
 30
0.0
 10
84.65
 20
49.9827
 30
0.0
 10
84.65
 20
49.9827
 30
0.0
 10
83.3124
 20
51.1571
 30
0.0
 10
79.1211
 20
54.1956
 30
0.0
 10
75.3358
 20
56.7353
 30
0.0
 10
75.3358
 20
56.7353
 30
0.0
 10
68.3081
 20
61.4503
 30
0.0
 10
66.202
 20
63.8888
 30
0.0
 10
66.889
 20
66.5157
 30
0.0
 10
66.889
 20
66.5157
 30
0.0
 10
67.4058
 20
68.492
 30
0.0
 10
66.1643
 20
68.2974
 30
0.0
 10
65.2344
 20
66.2561
 30
0.0
 10
65.2344
 20
66.2561
 30
0.0
 10
64.1058
 20
63.7792
 30
0.0
 10
64.2952
 20
62.2153
 30
0.0
 10
65.9047
 20
60.7157
 30
0.0
 10
65.9047
 20
60.7157
 30
0.0
 10
66.6941
 20
59.9802
 30
0.0
 10
67.1817
 20
59.2199
 30
0.0
 10
66.9879
 20
59.0263
 30
0.0
 10
66.9879
 20
59.0263
 30
0.0
 10
66.3223
 20
58.3607
 30
0.0
 10
64.3582
 20
59.5493
 30
0.0
 10
63.8257
 20
60.9395
 30
0.0
 10
63.8257
 20
60.9395
 30
0.0
 10
63.3104
 20
62.2846
 30
0.0
 10
63.278
 20
62.2751
 30
0.0
 10
62.8554
 20
60.6572
 30
0.0
 10
62.8554
 20
60.6572
 30
0.0
 10
61.7438
 20
56.4014
 30
0.0
 10
65.2115
 20
53.4914
 30
0.0
 10
71.9932
 20
52.9888
 30
0.0
 10
71.9932
 20
52.9888
 30
0.0
 10
77.2415
 20
52.5998
 30
0.0
 10
78.9738
 20
52.2233
 30
0.0
 10
78.9738
 20
51.4713
 30
0.0
 10
78.9738
 20
51.4713
 30
0.0
 10
78.9738
 20
51.1222
 30
0.0
 10
77.5854
 20
51.02
 30
0.0
 10
75.7681
 20
51.2353
 30
0.0
 10
75.7681
 20
51.2353
 30
0.0
 10
68.643
 20
52.0793
 30
0.0
 10
62.7136
 20
47.3396
 30
0.0
 10
64.0807
 20
41.8929
 30
0.0
 10
64.0807
 20
41.8929
 30
0.0
 10
64.6782
 20
39.5125
 30
0.0
 10
65.4644
 20
39.8616
 30
0.0
 10
66.3786
 20
42.9133
 30
0.0
 10
66.3786
 20
42.9133
 30
0.0
 10
66.3786
 20
42.9133
 30
0.0
 10
66.3786
 20
42.9138
 30
0.0
 10
66.3786
 20
42.9138
 30
0.0
  0
SPLINE
  5
54
330
1F
100
AcDbEntity
  8
layer 1
 62
     7
100
AcDbSpline
210
0.0
220
0.0
230
1.0
 70
    11
 71
     3
 72
    32
 73
    28
 74
     0
 42
0.0000000001
 43
0.0000000001
 12
1.0
 22
0.0
 32
0.0
 13
1.0
 23
0.0
 33
0.0
 40
0.0
 40
0.0
 40
0.0
 40
0.0
 40
0.125
 40
0.125
 40
0.125
 40
0.125
 40
0.25
 40
0.25
 40
0.25
 40
0.25
 40
0.375
 40
0.375
 40
0.375
 40
0.375
 40
0.5
 40
0.5
 40
0.5
 40
0.5
 40
0.625
 40
0.625
 40
0.625
 40
0.625
 40
0.75
 40
0.75
 40
0.75
 40
0.75
 40
1.0
 40
1.0
 40
1.0
 40
1.0
 10
20.9555
 20
41.0345
 30
0.0
 10
20.9555
 20
41.9435
 30
0.0
 10
20.2147
 20
43.6955
 30
0.0
 10
19.3092
 20
44.9277
 30
0.0
 10
19.3092
 20
44.9277
 30
0.0
 10
17.7744
 20
47.0159
 30
0.0
 10
15.1675
 20
50.1489
 30
0.0
 10
13.8989
 20
56.5302
 30
0.0
 10
13.8989
 20
56.5302
 30
0.0
 10
13.0173
 20
55.3553
 30
0.0
 10
11.7123
 20
55.593
 30
0.0
 10
10.3176
 20
55.5352
 30
0.0
 10
10.3176
 20
55.5352
 30
0.0
 10
10.8536
 20
50.8967
 30
0.0
 10
15.4867
 20
44.769
 30
0.0
 10
16.8684
 20
43.2124
 30
0.0
 10
16.8684
 20
43.2124
 30
0.0
 10
17.512
 20
42.4872
 30
0.0
 10
18.6952
 20
41.3285
 30
0.0
 10
19.4973
 20
40.6378
 30
0.0
 10
19.4973
 20
40.6378
 30
0.0
 10
20.9485
 20
39.3881
 30
0.0
 10
20.9558
 20
39.3901
 30
0.0
 10
20.9558
 20
41.0348
 30
0.0
 10
20.9558
 20
41.0348
 30
0.0
 10
20.9558
 20
41.0348
 30
0.0
 10
20.9555
 20
41.0345
 30
0.0
 10
20.9555
 20
41.0345
 30
0.0
  0
SPLINE
  5
55
330
1F
100
AcDbEntity
  8
layer 1
 62
     7
100
AcDbSpline
210
0.0
220
0.0
230
1.0
 70
    11
 71
     3
 72
   192
 73
   188
 74
     0
 42
0.0000000001
 43
0.0000000001
 12
1.0
 22
0.0
 32
0.0
 13
1.0
 23
0.0
 33
0.0
 40
0.0
 40
0.0
 40
0.0
 40
0.0
 40
0.0208333333333333
 40
0.0208333333333333
 40
0.0208333333333333
 40
0.0208333333333333
 40
0.0416666666666667
 40
0.0416666666666667
 40
0.0416666666666667
 40
0.0416666666666667
 40
0.0625
 40
0.0625
 40
0.0625
 40
0.0625
 40
0.0833333333333333
 40
0.0833333333333333
 40
0.0833333333333333
 40
0.0833333333333333
 40
0.1041666666666667
 40
0.1041666666666667
 40
0.1041666666666667
 40
0.1041666666666667
 40
0.125
 40
0.125
 40
0.125
 40
0.125
 40
0.1458333333333333
 40
0.1458333333333333
 40
0.1458333333333333
 40
0.1458333333333333
 40
0.1666666666666667
 40
0.1666666666666667
 40
0.1666666666666667
 40
0.1666666666666667
 40
0.1875
 40
0.1875
 40
0.1875
 40
0.1875
 40
0.2083333333333333
 40
0.2083333333333333
 40
0.2083333333333333
 40
0.2083333333333333
 40
0.2291666666666667
 40
0.2291666666666667
 40
0.2291666666666667
 40
0.2291666666666667
 40
0.25
 40
0.25
 40
0.25
 40
0.25
 40
0.2708333333333333
 40
0.2708333333333333
 40
0.2708333333333333
 40
0.2708333333333333
 40
0.2916666666666667
 40
0.2916666666666667
 40
0.2916666666666667
 40
0.2916666666666667
 40
0.3125
 40
0.3125
 40
0.3125
 40
0.3125
 40
0.3333333333333333
 40
0.3333333333333333
 40
0.3333333333333333
 40
0.3333333333333333
 40
0.3541666666666667
 40
0.3541666666666667
 40
0.3541666666666667
 40
0.3541666666666667
 40
0.375
 40
0.375
 40
0.375
 40
0.375
 40
0.3958333333333333
 40
0.3958333333333333
 40
0.3958333333333333
 40
0.3958333333333333
 40
0.4166666666666667
 40
0.4166666666666667
 40
0.4166666666666667
 40
0.4166666666666667
 40
0.4375
 40
0.4375
 40
0.4375
 40
0.4375
 40
0.4583333333333333
 40
0.4583333333333333
 40
0.4583333333333333
 40
0.4583333333333333
 40
0.4791666666666667
 40
0.4791666666666667
 40
0.4791666666666667
 40
0.4791666666666667
 40
0.5
 40
0.5
 40
0.5
 40
0.5
 40
0.5208333333333334
 40
0.5208333333333334
 40
0.5208333333333334
 40
0.5208333333333334
 40
0.5416666666666666
 40
0.5416666666666666
 40
0.5416666666666666
 40
0.5416666666666666
 40
0.5625
 40
0.5625
 40
0.5625
 40
0.5625
 40
0.5833333333333334
 40
0.5833333333333334
 40
0.5833333333333334
 40
0.5833333333333334
 40
0.6041666666666666
 40
0.6041666666666666
 40
0.6041666666666666
 40
0.6041666666666666
 40
0.625
 40
0.625
 40
0.625
 40
0.625
 40
0.6458333333333334
 40
0.6458333333333334
 40
0.6458333333333334
 40
0.6458333333333334
 40
0.6666666666666666
 40
0.6666666666666666
 40
0.6666666666666666
 40
0.6666666666666666
 40
0.6875
 40
0.6875
 40
0.6875
 40
0.6875
 40
0.7083333333333334
 40
0.7083333333333334
 40
0.7083333333333334
 40
0.7083333333333334
 40
0.7291666666666666
 40
0.7291666666666666
 40
0.7291666666666666
 40
0.7291666666666666
 40
0.75
 40
0.75
 40
0.75
 40
0.75
 40
0.7708333333333334
 40
0.7708333333333334
 40
0.7708333333333334
 40
0.7708333333333334
 40
0.7916666666666666
 40
0.7916666666666666
 40
0.7916666666666666
 40
0.7916666666666666
 40
0.8125
 40
0.8125
 40
0.8125
 40
0.8125
 40
0.8333333333333334
 40
0.8333333333333334
 40
0.8333333333333334
 40
0.8333333333333334
 40
0.8541666666666666
 40
0.8541666666666666
 40
0.8541666666666666
 40
0.8541666666666666
 40
0.875
 40
0.875
 40
0.875
 40
0.875
 40
0.8958333333333334
 40
0.8958333333333334
 40
0.8958333333333334
 40
0.8958333333333334
 40
0.9166666666666666
 40
0.9166666666666666
 40
0.9166666666666666
 40
0.9166666666666666
 40
0.9375
 40
0.9375
 40
0.9375
 40
0.9375
 40
0.9583333333333334
 40
0.9583333333333334
 40
0.9583333333333334
 40
0.9583333333333334
 40
1.0
 40
1.0
 40
1.0
 40
1.0
 10
16.3197
 20
10.1462
 30
0.0
 10
19.7021
 20
11.0191
 30
0.0
 10
22.2739
 20
14.117
 30
0.0
 10
22.2739
 20
17.318
 30
0.0
 10
22.2739
 20
17.318
 30
0.0
 10
22.2739
 20
21.3814
 30
0.0
 10
16.006
 20
24.8892
 30
0.0
 10
13.703
 20
22.1145
 30
0.0
 10
13.703
 20
22.1145
 30
0.0
 10
13.0006
 20
21.268
 30
0.0
 10
13.2096
 20
21.1255
 30
0.0
 10
15.1555
 20
21.1255
 30
0.0
 10
15.1555
 20
21.1255
 30
0.0
 10
17.5385
 20
21.1255
 30
0.0
 10
20.2959
 20
18.9711
 30
0.0
 10
20.2959
 20
17.1092
 30
0.0
 10
20.2959
 20
17.1092
 30
0.0
 10
20.2959
 20
15.6704
 30
0.0
 10
18.3834
 20
13.2139
 30
0.0
 10
17.2631
 20
13.2139
 30
0.0
 10
17.2631
 20
13.2139
 30
0.0
 10
16.5377
 20
13.2139
 30
0.0
 10
16.3334
 20
13.8471
 30
0.0
 10
16.4764
 20
15.65
 30
0.0
 10
16.4764
 20
15.65
 30
0.0
 10
16.6626
 20
17.996
 30
0.0
 10
16.5604
 20
18.1246
 30
0.0
 10
13.706
 20
19.1313
 30
0.0
 10
13.706
 20
19.1313
 30
0.0
 10
11.2732
 20
19.9895
 30
0.0
 10
10.7669
 20
20.1701
 30
0.0
 10
10.4716
 20
21.7774
 30
0.0
 10
10.4716
 20
21.7774
 30
0.0
 10
10.119
 20
23.6943
 30
0.0
 10
10.0056
 20
24.0624
 30
0.0
 10
9.2255
 20
22.6523
 30
0.0
 10
9.2255
 20
22.6523
 30
0.0
 10
7.9536
 20
20.3535
 30
0.0
 10
8.2302
 20
16.0496
 30
0.0
 10
9.7472
 20
14.5326
 30
0.0
 10
9.7472
 20
14.5326
 30
0.0
 10
10.4724
 20
13.8075
 30
0.0
 10
11.4933
 20
13.2139
 30
0.0
 10
12.0158
 20
13.2139
 30
0.0
 10
12.0158
 20
13.2139
 30
0.0
 10
12.5383
 20
13.2139
 30
0.0
 10
13.1491
 20
12.9172
 30
0.0
 10
13.3734
 20
12.5546
 30
0.0
 10
13.3734
 20
12.5546
 30
0.0
 10
14.2704
 20
11.1031
 30
0.0
 10
10.2665
 20
11.9785
 30
0.0
 10
8.8073
 20
13.5528
 30
0.0
 10
8.8073
 20
13.5528
 30
0.0
 10
5.4381
 20
17.1882
 30
0.0
 10
6.1423
 20
22.5543
 30
0.0
 10
10.5556
 20
26.8752
 30
0.0
 10
10.5556
 20
26.8752
 30
0.0
 10
14.0138
 20
30.2606
 30
0.0
 10
17.2554
 20
31.6742
 30
0.0
 10
21.5613
 20
31.6742
 30
0.0
 10
21.5613
 20
31.6742
 30
0.0
 10
29.1462
 20
31.6742
 30
0.0
 10
36.206
 20
29.0655
 30
0.0
 10
49.9275
 20
21.1928
 30
0.0
 10
49.9275
 20
21.1928
 30
0.0
 10
49.9275
 20
21.1928
 30
0.0
 10
59.1655
 20
15.8927
 30
0.0
 10
59.1655
 20
15.8927
 30
0.0
 10
59.1655
 20
15.8927
 30
0.0
 10
59.1655
 20
15.8927
 30
0.0
 10
61.9295
 20
17.0666
 30
0.0
 10
61.9295
 20
17.0666
 30
0.0
 10
61.9295
 20
17.0666
 30
0.0
 10
61.9295
 20
17.0666
 30
0.0
 10
63.7111
 20
18.2405
 30
0.0
 10
63.7111
 20
18.2405
 30
0.0
 10
63.7111
 20
18.2405
 30
0.0
 10
54.5708
 20
25.7815
 30
0.0
 10
44.9738
 20
31.6248
 30
0.0
 10
44.0543
 20
48.5885
 30
0.0
 10
44.0543
 20
48.5885
 30
0.0
 10
44.1789
 20
50.8528
 30
0.0
 10
44.2404
 20
53.4493
 30
0.0
 10
45.7742
 20
55.9571
 30
0.0
 10
45.7742
 20
55.9571
 30
0.0
 10
47.0642
 20
57.5975
 30
0.0
 10
47.4213
 20
58.0462
 30
0.0
 10
46.0238
 20
58.0462
 30
0.0
 10
46.0238
 20
58.0462
 30
0.0
 10
41.0045
 20
57.4118
 30
0.0
 10
40.7666
 20
55.3137
 30
0.0
 10
40.4252
 20
52.9213
 30
0.0
 10
40.4252
 20
52.9213
 30
0.0
 10
39.7671
 20
48.1372
 30
0.0
 10
39.1272
 20
47.515
 30
0.0
 10
37.5431
 20
50.1197
 30
0.0
 10
37.5431
 20
50.1197
 30
0.0
 10
37.5431
 20
50.1197
 30
0.0
 10
36.2147
 20
52.3041
 30
0.0
 10
36.2147
 20
52.3041
 30
0.0
 10
36.2147
 20
52.3041
 30
0.0
 10
34.2584
 20
47.4826
 30
0.0
 10
36.9279
 20
42.4671
 30
0.0
 10
40.1391
 20
40.1995
 30
0.0
 10
40.1391
 20
40.1995
 30
0.0
 10
41.2002
 20
39.444
 30
0.0
 10
41.8829
 20
38.526
 30
0.0
 10
41.6564
 20
38.1597
 30
0.0
 10
41.6564
 20
38.1597
 30
0.0
 10
41.3835
 20
37.7181
 30
0.0
 10
41.0028
 20
37.7351
 30
0.0
 10
40.5279
 20
38.21
 30
0.0
 10
40.5279
 20
38.21
 30
0.0
 10
39.4566
 20
39.281
 30
0.0
 10
38.7562
 20
39.0782
 30
0.0
 10
38.7562
 20
37.6964
 30
0.0
 10
38.7562
 20
37.6964
 30
0.0
 10
38.7562
 20
37.0144
 30
0.0
 10
41.0329
 20
34.3277
 30
0.0
 10
43.8657
 20
31.667
 30
0.0
 10
43.8657
 20
31.667
 30
0.0
 10
47.109
 20
28.6204
 30
0.0
 10
48.6495
 20
26.7538
 30
0.0
 10
48.0836
 20
26.5565
 30
0.0
 10
48.0836
 20
26.5565
 30
0.0
 10
46.6092
 20
26.0419
 30
0.0
 10
42.0421
 20
29.1345
 30
0.0
 10
39.8015
 20
32.6293
 30
0.0
 10
39.8015
 20
32.6293
 30
0.0
 10
34.7124
 20
40.5663
 30
0.0
 10
31.4982
 20
44.0028
 30
0.0
 10
32.1854
 20
41.1426
 30
0.0
 10
32.1854
 20
41.1426
 30
0.0
 10
33.0491
 20
37.5482
 30
0.0
 10
32.1802
 20
38.8935
 30
0.0
 10
28.7928
 20
41.2236
 30
0.0
 10
28.7928
 20
41.2236
 30
0.0
 10
26.9394
 20
42.4982
 30
0.0
 10
24.7329
 20
43.5415
 30
0.0
 10
23.8899
 20
43.5415
 30
0.0
 10
23.8899
 20
43.5415
 30
0.0
 10
22.4915
 20
43.5415
 30
0.0
 10
22.3901
 20
43.3247
 30
0.0
 10
22.7324
 20
41.0691
 30
0.0
 10
22.7324
 20
41.0691
 30
0.0
 10
22.939
 20
39.7093
 30
0.0
 10
23.7125
 20
37.9304
 30
0.0
 10
24.4518
 20
37.1158
 30
0.0
 10
24.4518
 20
37.1158
 30
0.0
 10
26.6441
 20
34.7
 30
0.0
 10
25.3394
 20
34.7384
 30
0.0
 10
20.3804
 20
37.2357
 30
0.0
 10
20.3804
 20
37.2357
 30
0.0
 10
16.2033
 20
39.3393
 30
0.0
 10
11.7255
 20
40.3261
 30
0.0
 10
11.7255
 20
39.143
 30
0.0
 10
11.7255
 20
39.143
 30
0.0
 10
11.7255
 20
38.8995
 30
0.0
 10
13.34
 20
37.4849
 30
0.0
 10
13.8941
 20
36.8724
 30
0.0
 10
13.8941
 20
36.8724
 30
0.0
 10
14.8231
 20
35.846
 30
0.0
 10
13.5032
 20
36.4408
 30
0.0
 10
10.7009
 20
36.0568
 30
0.0
 10
10.7009
 20
36.0568
 30
0.0
 10
7.3675
 20
35.5998
 30
0.0
 10
3.8139
 20
33.8117
 30
0.0
 10
3.8139
 20
32.5914
 30
0.0
 10
3.8139
 20
32.5914
 30
0.0
 10
3.8139
 20
31.5763
 30
0.0
 10
5.3594
 20
31.0148
 30
0.0
 10
8.1532
 20
31.0148
 30
0.0
 10
8.1532
 20
31.0148
 30
0.0
 10
10.9329
 20
31.0148
 30
0.0
 10
10.9715
 20
30.4798
 30
0.0
 10
8.37
 20
28.0065
 30
0.0
 10
8.37
 20
28.0065
 30
0.0
 10
5.5253
 20
25.3021
 30
0.0
 10
4.4613
 20
22.9774
 30
0.0
 10
4.3781
 20
19.2858
 30
0.0
 10
4.3781
 20
19.2858
 30
0.0
 10
4.2136
 20
11.9907
 30
0.0
 10
9.0687
 20
8.2746
 30
0.0
 10
16.3197
 20
10.1457
 30
0.0
 10
16.3197
 20
10.1457
 30
0.0
 10
16.3197
 20
10.1457
 30
0.0
 10
16.3197
 20
10.1462
 30
0.0
 10
16.3197
 20
10.1462
 30
0.0
  0
SPLINE
  5
56
330
1F
100
AcDbEntity
  8
layer 1
 62
     7
100
AcDbSpline
210
0.0
220
0.0
230
1.0
 70
    11
 71
     3
 72
   108
 73
   104
 74
     0
 42
0.0000000001
 43
0.0000000001
 12
1.0
 22
0.0
 32
0.0
 13
1.0
 23
0.0
 33
0.0
 40
0.0
 40
0.0
 40
0.0
 40
0.0
 40
0.037037037037037
 40
0.037037037037037
 40
0.037037037037037
 40
0.037037037037037
 40
0.0740740740740741
 40
0.0740740740740741
 40
0.0740740740740741
 40
0.0740740740740741
 40
0.1111111111111111
 40
0.1111111111111111
 40
0.1111111111111111
 40
0.1111111111111111
 40
0.1481481481481481
 40
0.1481481481481481
 40
0.1481481481481481
 40
0.1481481481481481
 40
0.1851851851851852
 40
0.1851851851851852
 40
0.1851851851851852
 40
0.1851851851851852
 40
0.2222222222222222
 40
0.2222222222222222
 40
0.2222222222222222
 40
0.2222222222222222
 40
0.2592592592592592
 40
0.2592592592592592
 40
0.2592592592592592
 40
0.2592592592592592
 40
0.2962962962962963
 40
0.2962962962962963
 40
0.2962962962962963
 40
0.2962962962962963
 40
0.3333333333333333
 40
0.3333333333333333
 40
0.3333333333333333
 40
0.3333333333333333
 40
0.3703703703703703
 40
0.3703703703703703
 40
0.3703703703703703
 40
0.3703703703703703
 40
0.4074074074074074
 40
0.4074074074074074
 40
0.4074074074074074
 40
0.4074074074074074
 40
0.4444444444444444
 40
0.4444444444444444
 40
0.4444444444444444
 40
0.4444444444444444
 40
0.4814814814814815
 40
0.4814814814814815
 40
0.4814814814814815
 40
0.4814814814814815
 40
0.5185185185185185
 40
0.5185185185185185
 40
0.5185185185185185
 40
0.5185185185185185
 40
0.5555555555555556
 40
0.5555555555555556
 40
0.5555555555555556
 40
0.5555555555555556
 40
0.5925925925925926
 40
0.5925925925925926
 40
0.5925925925925926
 40
0.5925925925925926
 40
0.6296296296296297
 40
0.6296296296296297
 40
0.6296296296296297
 40
0.6296296296296297
 40
0.6666666666666666
 40
0.6666666666666666
 40
0.6666666666666666
 40
0.6666666666666666
 40
0.7037037037037037
 40
0.7037037037037037
 40
0.7037037037037037
 40
0.7037037037037037
 40
0.7407407407407407
 40
0.7407407407407407
 40
0.7407407407407407
 40
0.7407407407407407
 40
0.7777777777777778
 40
0.7777777777777778
 40
0.7777777777777778
 40
0.7777777777777778
 40
0.8148148148148148
 40
0.8148148148148148
 40
0.8148148148148148
 40
0.8148148148148148
 40
0.8518518518518519
 40
0.8518518518518519
 40
0.8518518518518519
 40
0.8518518518518519
 40
0.8888888888888888
 40
0.8888888888888888
 40
0.8888888888888888
 40
0.8888888888888888
 40
0.9259259259259259
 40
0.9259259259259259
 40
0.9259259259259259
 40
0.9259259259259259
 40
1.0
 40
1.0
 40
1.0
 40
1.0
 10
138.1157
 20
-42.4725
 30
0.0
 10
140.3265
 20
-44.8151
 30
0.0
 10
142.3416
 20
-50.194
 30
0.0
 10
141.9776
 20
-51.5034
 30
0.0
 10
141.9776
 20
-51.5034
 30
0.0
 10
141.5993
 20
-52.864
 30
0.0
 10
139.4902
 20
-51.8097
 30
0.0
 10
137.4208
 20
-51.5353
 30
0.0
 10
137.4208
 20
-51.5353
 30
0.0
 10
130.2862
 20
-52.5662
 30
0.0
 10
138.9186
 20
-60.2029
 30
0.0
 10
130.804
 20
-62.6746
 30
0.0
 10
130.804
 20
-62.6746
 30
0.0
 10
136.4791
 20
-65.4338
 30
0.0
 10
139.4137
 20
-62.928
 30
0.0
 10
139.4055
 20
-58.728
 30
0.0
 10
139.4055
 20
-58.728
 30
0.0
 10
139.5966
 20
-55.4998
 30
0.0
 10
140.8029
 20
-54.8325
 30
0.0
 10
141.6903
 20
-56.2334
 30
0.0
 10
141.6903
 20
-56.2334
 30
0.0
 10
142.7162
 20
-57.8531
 30
0.0
 10
142.32
 20
-59.7195
 30
0.0
 10
140.3081
 20
-62.7461
 30
0.0
 10
140.3081
 20
-62.7461
 30
0.0
 10
138.1972
 20
-65.9214
 30
0.0
 10
137.9022
 20
-67.9147
 30
0.0
 10
139.0539
 20
-71.2186
 30
0.0
 10
139.0539
 20
-71.2186
 30
0.0
 10
139.9114
 20
-73.6785
 30
0.0
 10
140.4259
 20
-73.8148
 30
0.0
 10
141.3055
 20
-71.8154
 30
0.0
 10
141.3055
 20
-71.8154
 30
0.0
 10
141.6634
 20
-71.0015
 30
0.0
 10
142.4495
 20
-70.243
 30
0.0
 10
143.0523
 20
-70.1299
 30
0.0
 10
143.0523
 20
-70.1299
 30
0.0
 10
143.9581
 20
-69.9597
 30
0.0
 10
144.0966
 20
-70.3596
 30
0.0
 10
143.85
 20
-72.4336
 30
0.0
 10
143.85
 20
-72.4336
 30
0.0
 10
143.6426
 20
-74.1774
 30
0.0
 10
144.0122
 20
-75.904
 30
0.0
 10
145.0615
 20
-78.0923
 30
0.0
 10
145.0615
 20
-78.0923
 30
0.0
 10
145.0615
 20
-78.0923
 30
0.0
 10
146.5715
 20
-81.2412
 30
0.0
 10
146.5715
 20
-81.2412
 30
0.0
 10
146.5715
 20
-81.2412
 30
0.0
 10
146.5715
 20
-81.2412
 30
0.0
 10
148.5169
 20
-78.7858
 30
0.0
 10
148.5169
 20
-78.7858
 30
0.0
 10
148.5169
 20
-78.7858
 30
0.0
 10
150.0394
 20
-76.8638
 30
0.0
 10
150.5228
 20
-75.4931
 30
0.0
 10
150.7409
 20
-72.4772
 30
0.0
 10
150.7409
 20
-72.4772
 30
0.0
 10
151.0504
 20
-68.2002
 30
0.0
 10
151.8627
 20
-67.8254
 30
0.0
 10
153.5669
 20
-71.1735
 30
0.0
 10
153.5669
 20
-71.1735
 30
0.0
 10
154.8683
 20
-73.7303
 30
0.0
 10
155.4721
 20
-73.2694
 30
0.0
 10
155.4721
 20
-69.7192
 30
0.0
 10
155.4721
 20
-69.7192
 30
0.0
 10
155.4721
 20
-65.7729
 30
0.0
 10
154.5985
 20
-63.3404
 30
0.0
 10
151.9222
 20
-59.8344
 30
0.0
 10
151.9222
 20
-59.8344
 30
0.0
 10
147.9964
 20
-54.6912
 30
0.0
 10
148.9605
 20
-52.1336
 30
0.0
 10
153.5671
 20
-55.4709
 30
0.0
 10
153.5671
 20
-55.4709
 30
0.0
 10
157.1698
 20
-58.0806
 30
0.0
 10
159.0843
 20
-58.0707
 30
0.0
 10
160.4476
 20
-55.4343
 30
0.0
 10
160.4476
 20
-55.4343
 30
0.0
 10
161.775
 20
-52.8672
 30
0.0
 10
161.3389
 20
-51.6076
 30
0.0
 10
159.2607
 20
-52.0048
 30
0.0
 10
159.2607
 20
-52.0048
 30
0.0
 10
158.0218
 20
-52.2415
 30
0.0
 10
157.0118
 20
-51.6208
 30
0.0
 10
154.6842
 20
-49.192
 30
0.0
 10
154.6842
 20
-49.192
 30
0.0
 10
152.1343
 20
-46.5312
 30
0.0
 10
151.4401
 20
-46.1398
 30
0.0
 10
149.9385
 20
-46.5168
 30
0.0
 10
149.9385
 20
-46.5168
 30
0.0
 10
148.6682
 20
-46.8355
 30
0.0
 10
148.0709
 20
-47.5026
 30
0.0
 10
147.7878
 20
-48.9184
 30
0.0
 10
147.7878
 20
-48.9184
 30
0.0
 10
147.1761
 20
-51.9774
 30
0.0
 10
145.2147
 20
-51.484
 30
0.0
 10
143.5021
 20
-47.8404
 30
0.0
 10
143.5021
 20
-47.8404
 30
0.0
 10
142.0718
 20
-44.7982
 30
0.0
 10
138.0734
 20
-40.3298
 30
0.0
 10
136.7811
 20
-40.3298
 30
0.0
 10
136.7811
 20
-40.3298
 30
0.0
 10
136.4031
 20
-40.3298
 30
0.0
 10
137.0036
 20
-41.2942
 30
0.0
 10
138.1157
 20
-42.4725
 30
0.0
  0
SPLINE
  5
57
330
1F
100
AcDbEntity
  8
layer 1
 62
     7
100
AcDbSpline
210
0.0
220
0.0
230
1.0
 70
    11
 71
     3
 72
    20
 73
    16
 74
     0
 42
0.0000000001
 43
0.0000000001
 12
1.0
 22
0.0
 32
0.0
 13
1.0
 23
0.0
 33
0.0
 40
0.0
 40
0.0
 40
0.0
 40
0.0
 40
0.2
 40
0.2
 40
0.2
 40
0.2
 40
0.4
 40
0.4
 40
0.4
 40
0.4
 40
0.6
 40
0.6
 40
0.6
 40
0.6
 40
1.0
 40
1.0
 40
1.0
 40
1.0
 10
171.6229
 20
-82.1403
 30
0.0
 10
167.9278
 20
-86.2787
 30
0.0
 10
168.9539
 20
-84.2573
 30
0.0
 10
173.7029
 20
-78.044
 30
0.0
 10
173.7029
 20
-78.044
 30
0.0
 10
178.2642
 20
-72.0758
 30
0.0
 10
181.5153
 20
-66.044
 30
0.0
 10
182.3034
 20
-62.0868
 30
0.0
 10
182.3034
 20
-62.0868
 30
0.0
 10
182.5905
 20
-60.646
 30
0.0
 10
182.9481
 20
-60.405
 30
0.0
 10
183.0181
 20
-62.3093
 30
0.0
 10
183.0181
 20
-62.3093
 30
0.0
 10
180.9872
 20
-69.1486
 30
0.0
 10
176.3958
 20
-76.7058
 30
0.0
 10
171.6229
 20
-82.1403
 30
0.0
  0
SPLINE
  5
58
330
1F
100
AcDbEntity
  8
layer 1
 62
     7
100
AcDbSpline
210
0.0
220
0.0
230
1.0
 70
    11
 71
     3
 72
    24
 73
    20
 74
     0
 42
0.0000000001
 43
0.0000000001
 12
1.0
 22
0.0
 32
0.0
 13
1.0
 23
0.0
 33
0.0
 40
0.0
 40
0.0
 40
0.0
 40
0.0
 40
0.1666666666666667
 40
0.1666666666666667
 40
0.1666666666666667
 40
0.1666666666666667
 40
0.3333333333333333
 40
0.3333333333333333
 40
0.3333333333333333
 40
0.3333333333333333
 40
0.5
 40
0.5
 40
0.5
 40
0.5
 40
0.6666666666666666
 40
0.6666666666666666
 40
0.6666666666666666
 40
0.6666666666666666
 40
1.0
 40
1.0
 40
1.0
 40
1.0
 10
180.2354
 20
-45.9696
 30
0.0
 10
181.0448
 20
-51.3669
 30
0.0
 10
178.6743
 20
-61.4274
 30
0.0
 10
176.5931
 20
-61.4274
 30
0.0
 10
176.5931
 20
-61.4274
 30
0.0
 10
176.2027
 20
-61.4274
 30
0.0
 10
176.553
 20
-60.1665
 30
0.0
 10
177.3718
 20
-58.6254
 30
0.0
 10
177.3718
 20
-58.6254
 30
0.0
 10
178.621
 20
-56.2736
 30
0.0
 10
178.8617
 20
-54.7904
 30
0.0
 10
178.8687
 20
-49.3959
 30
0.0
 10
178.8687
 20
-49.3959
 30
0.0
 10
178.8776
 20
-42.56
 30
0.0
 10
179.4929
 20
-41.0176
 30
0.0
 10
180.2354
 20
-45.9693
 30
0.0
 10
180.2354
 20
-45.9693
 30
0.0
 10
180.2354
 20
-45.9693
 30
0.0
 10
180.2354
 20
-45.9696
 30
0.0
 10
180.2354
 20
-45.9696
 30
0.0
  0
SPLINE
  5
59
330
1F
100
AcDbEntity
  8
layer 1
 62
     7
100
AcDbSpline
210
0.0
220
0.0
230
1.0
 70
    11
 71
     3
 72
   124
 73
   120
 74
     0
 42
0.0000000001
 43
0.0000000001
 12
1.0
 22
0.0
 32
0.0
 13
1.0
 23
0.0
 33
0.0
 40
0.0
 40
0.0
 40
0.0
 40
0.0
 40
0.032258064516129
 40
0.032258064516129
 40
0.032258064516129
 40
0.032258064516129
 40
0.0645161290322581
 40
0.0645161290322581
 40
0.0645161290322581
 40
0.0645161290322581
 40
0.0967741935483871
 40
0.0967741935483871
 40
0.0967741935483871
 40
0.0967741935483871
 40
0.1290322580645161
 40
0.1290322580645161
 40
0.1290322580645161
 40
0.1290322580645161
 40
0.1612903225806452
 40
0.1612903225806452
 40
0.1612903225806452
 40
0.1612903225806452
 40
0.1935483870967742
 40
0.1935483870967742
 40
0.1935483870967742
 40
0.1935483870967742
 40
0.2258064516129032
 40
0.2258064516129032
 40
0.2258064516129032
 40
0.2258064516129032
 40
0.2580645161290323
 40
0.2580645161290323
 40
0.2580645161290323
 40
0.2580645161290323
 40
0.2903225806451613
 40
0.2903225806451613
 40
0.2903225806451613
 40
0.2903225806451613
 40
0.3225806451612903
 40
0.3225806451612903
 40
0.3225806451612903
 40
0.3225806451612903
 40
0.3548387096774194
 40
0.3548387096774194
 40
0.3548387096774194
 40
0.3548387096774194
 40
0.3870967741935484
 40
0.3870967741935484
 40
0.3870967741935484
 40
0.3870967741935484
 40
0.4193548387096774
 40
0.4193548387096774
 40
0.4193548387096774
 40
0.4193548387096774
 40
0.4516129032258064
 40
0.4516129032258064
 40
0.4516129032258064
 40
0.4516129032258064
 40
0.4838709677419355
 40
0.4838709677419355
 40
0.4838709677419355
 40
0.4838709677419355
 40
0.5161290322580645
 40
0.5161290322580645
 40
0.5161290322580645
 40
0.5161290322580645
 40
0.5483870967741935
 40
0.5483870967741935
 40
0.5483870967741935
 40
0.5483870967741935
 40
0.5806451612903226
 40
0.5806451612903226
 40
0.5806451612903226
 40
0.5806451612903226
 40
0.6129032258064516
 40
0.6129032258064516
 40
0.6129032258064516
 40
0.6129032258064516
 40
0.6451612903225806
 40
0.6451612903225806
 40
0.6451612903225806
 40
0.6451612903225806
 40
0.6774193548387096
 40
0.6774193548387096
 40
0.6774193548387096
 40
0.6774193548387096
 40
0.7096774193548387
 40
0.7096774193548387
 40
0.7096774193548387
 40
0.7096774193548387
 40
0.7419354838709677
 40
0.7419354838709677
 40
0.7419354838709677
 40
0.7419354838709677
 40
0.7741935483870968
 40
0.7741935483870968
 40
0.7741935483870968
 40
0.7741935483870968
 40
0.8064516129032258
 40
0.8064516129032258
 40
0.8064516129032258
 40
0.8064516129032258
 40
0.8387096774193549
 40
0.8387096774193549
 40
0.8387096774193549
 40
0.8387096774193549
 40
0.8709677419354839
 40
0.8709677419354839
 40
0.8709677419354839
 40
0.8709677419354839
 40
0.9032258064516129
 40
0.9032258064516129
 40
0.9032258064516129
 40
0.9032258064516129
 40
0.9354838709677419
 40
0.9354838709677419
 40
0.9354838709677419
 40
0.9354838709677419
 40
1.0
 40
1.0
 40
1.0
 40
1.0
 10
171.6471
 20
-44.2854
 30
0.0
 10
169.1585
 20
-44.2854
 30
0.0
 10
168.7112
 20
-44.9395
 30
0.0
 10
170.299
 20
-46.2571
 30
0.0
 10
170.299
 20
-46.2571
 30
0.0
 10
170.9217
 20
-46.7739
 30
0.0
 10
172.127
 20
-46.9132
 30
0.0
 10
173.5955
 20
-46.6376
 30
0.0
 10
173.5955
 20
-46.6376
 30
0.0
 10
176.394
 20
-46.1126
 30
0.0
 10
176.4426
 20
-46.5664
 30
0.0
 10
173.9054
 20
-49.5346
 30
0.0
 10
173.9054
 20
-49.5346
 30
0.0
 10
171.9668
 20
-51.873
 30
0.0
 10
171.7936
 20
-53.9806
 30
0.0
 10
171.9982
 20
-56.4821
 30
0.0
 10
171.9982
 20
-56.4821
 30
0.0
 10
173.0109
 20
-55.2833
 30
0.0
 10
174.0624
 20
-54.0643
 30
0.0
 10
174.7868
 20
-52.6823
 30
0.0
 10
174.7868
 20
-52.6823
 30
0.0
 10
175.0131
 20
-52.0656
 30
0.0
 10
175.2829
 20
-52.0519
 30
0.0
 10
175.8952
 20
-52.6268
 30
0.0
 10
175.8952
 20
-52.6268
 30
0.0
 10
176.5293
 20
-53.2221
 30
0.0
 10
176.3896
 20
-53.8121
 30
0.0
 10
175.2498
 20
-55.3538
 30
0.0
 10
175.2498
 20
-55.3538
 30
0.0
 10
174.2209
 20
-56.7455
 30
0.0
 10
173.7671
 20
-58.3557
 30
0.0
 10
173.6989
 20
-60.8575
 30
0.0
 10
173.6989
 20
-60.8575
 30
0.0
 10
173.6109
 20
-64.0835
 30
0.0
 10
173.2003
 20
-64.145
 30
0.0
 10
173.9638
 20
-65.592
 30
0.0
 10
173.9638
 20
-65.592
 30
0.0
 10
177.1491
 20
-64.765
 30
0.0
 10
177.3419
 20
-64.0887
 30
0.0
 10
179.0052
 20
-62.3252
 30
0.0
 10
179.0052
 20
-62.3252
 30
0.0
 10
181.0488
 20
-60.1583
 30
0.0
 10
181.296
 20
-60.0417
 30
0.0
 10
180.8582
 20
-61.4501
 30
0.0
 10
180.8582
 20
-61.4501
 30
0.0
 10
180.5803
 20
-62.3439
 30
0.0
 10
178.0182
 20
-65.516
 30
0.0
 10
175.1648
 20
-68.499
 30
0.0
 10
175.1648
 20
-68.499
 30
0.0
 10
169.7857
 20
-74.1223
 30
0.0
 10
168.8931
 20
-75.9172
 30
0.0
 10
171.46
 20
-75.9513
 30
0.0
 10
171.46
 20
-75.9513
 30
0.0
 10
172.7722
 20
-75.9688
 30
0.0
 10
172.6222
 20
-76.2541
 30
0.0
 10
170.1615
 20
-78.4237
 30
0.0
 10
170.1615
 20
-78.4237
 30
0.0
 10
166.6258
 20
-81.0421
 30
0.0
 10
164.0316
 20
-89.004
 30
0.0
 10
167.0863
 20
-94.6819
 30
0.0
 10
167.0863
 20
-94.6819
 30
0.0
 10
169.5049
 20
-93.2257
 30
0.0
 10
170.15
 20
-87.0848
 30
0.0
 10
171.2399
 20
-84.7956
 30
0.0
 10
171.2399
 20
-84.7956
 30
0.0
 10
171.7059
 20
-83.8168
 30
0.0
 10
172.4711
 20
-84.1641
 30
0.0
 10
172.6204
 20
-83.7223
 30
0.0
 10
172.6204
 20
-83.7223
 30
0.0
 10
172.9994
 20
-85.3169
 30
0.0
 10
174.7527
 20
-85.8668
 30
0.0
 10
175.5722
 20
-84.0039
 30
0.0
 10
175.5722
 20
-84.0039
 30
0.0
 10
175.9301
 20
-83.1901
 30
0.0
 10
176.4494
 20
-82.5243
 30
0.0
 10
176.7259
 20
-82.5243
 30
0.0
 10
176.7259
 20
-82.5243
 30
0.0
 10
177.8956
 20
-82.5243
 30
0.0
 10
177.0529
 20
-84.216
 30
0.0
 10
174.5075
 20
-86.9774
 30
0.0
 10
174.5075
 20
-86.9774
 30
0.0
 10
171.7934
 20
-89.922
 30
0.0
 10
171.3408
 20
-91.3688
 30
0.0
 10
172.2957
 20
-94.8945
 30
0.0
 10
172.2957
 20
-94.8945
 30
0.0
 10
173.6062
 20
-98.9288
 30
0.0
 10
172.6291
 20
-101.3127
 30
0.0
 10
171.8619
 20
-104.9273
 30
0.0
 10
171.8619
 20
-104.9273
 30
0.0
 10
174.9201
 20
-104.0343
 30
0.0
 10
175.9104
 20
-100.544
 30
0.0
 10
175.9104
 20
-99.1196
 30
0.0
 10
175.9104
 20
-99.1196
 30
0.0
 10
175.9104
 20
-97.0362
 30
0.0
 10
177.793
 20
-97.3454
 30
0.0
 10
178.234
 20
-99.5011
 30
0.0
 10
178.234
 20
-99.5011
 30
0.0
 10
178.3706
 20
-101.6453
 30
0.0
 10
180.6837
 20
-106.0858
 30
0.0
 10
184.1023
 20
-106.8578
 30
0.0
 10
184.1023
 20
-106.8578
 30
0.0
 10
184.2682
 20
-106.6918
 30
0.0
 10
183.5072
 20
-104.7469
 30
0.0
 10
182.4113
 20
-102.5357
 30
0.0
 10
182.4113
 20
-102.5357
 30
0.0
 10
178.229
 20
-94.0978
 30
0.0
 10
178.7585
 20
-82.5268
 30
0.0
 10
184.2097
 20
-63.2258
 30
0.0
 10
184.2097
 20
-63.2258
 30
0.0
 10
186.6741
 20
-56.1156
 30
0.0
 10
186.159
 20
-47.2058
 30
0.0
 10
181.2038
 20
-41.6677
 30
0.0
 10
181.2038
 20
-41.6677
 30
0.0
 10
178.7271
 20
-39.0164
 30
0.0
 10
177.0327
 20
-39.1058
 30
0.0
 10
175.3385
 20
-41.9772
 30
0.0
 10
175.3385
 20
-41.9772
 30
0.0
 10
174.7704
 20
-43.6816
 30
0.0
 10
173.2603
 20
-44.2854
 30
0.0
 10
171.6471
 20
-44.2854
 30
0.0
  0
SPLINE
  5
5A
330
1F
100
AcDbEntity
  8
layer 1
 62
     7
100
AcDbSpline
210
0.0
220
0.0
230
1.0
 70
    11
 71
     3
 72
    36
 73
    32
 74
     0
 42
0.0000000001
 43
0.0000000001
 12
1.0
 22
0.0
 32
0.0
 13
1.0
 23
0.0
 33
0.0
 40
0.0
 40
0.0
 40
0.0
 40
0.0
 40
0.1111111111111111
 40
0.1111111111111111
 40
0.1111111111111111
 40
0.1111111111111111
 40
0.2222222222222222
 40
0.2222222222222222
 40
0.2222222222222222
 40
0.2222222222222222
 40
0.3333333333333333
 40
0.3333333333333333
 40
0.3333333333333333
 40
0.3333333333333333
 40
0.4444444444444444
 40
0.4444444444444444
 40
0.4444444444444444
 40
0.4444444444444444
 40
0.5555555555555556
 40
0.5555555555555556
 40
0.5555555555555556
 40
0.5555555555555556
 40
0.6666666666666666
 40
0.6666666666666666
 40
0.6666666666666666
 40
0.6666666666666666
 40
0.7777777777777778
 40
0.7777777777777778
 40
0.7777777777777778
 40
0.7777777777777778
 40
1.0
 40
1.0
 40
1.0
 40
1.0
 10
122.1775
 20
-33.7369
 30
0.0
 10
121.5448
 20
-34.7608
 30
0.0
 10
122.4366
 20
-35.7144
 30
0.0
 10
124.0294
 20
-35.7172
 30
0.0
 10
124.0294
 20
-35.7172
 30
0.0
 10
127.8808
 20
-35.7237
 30
0.0
 10
131.7372
 20
-40.1594
 30
0.0
 10
131.7372
 20
-44.5824
 30
0.0
 10
131.7372
 20
-44.5824
 30
0.0
 10
131.7372
 20
-45.8694
 30
0.0
 10
132.0235
 20
-46.9227
 30
0.0
 10
132.3733
 20
-46.9227
 30
0.0
 10
132.3733
 20
-46.9227
 30
0.0
 10
134.772
 20
-44.7042
 30
0.0
 10
134.3745
 20
-42.1314
 30
0.0
 10
134.3745
 20
-39.0941
 30
0.0
 10
134.3745
 20
-39.0941
 30
0.0
 10
136.9314
 20
-39.6034
 30
0.0
 10
142.1376
 20
-40.4427
 30
0.0
 10
142.2861
 20
-35.5801
 30
0.0
 10
142.2861
 20
-35.5801
 30
0.0
 10
142.2861
 20
-34.4471
 30
0.0
 10
142.1368
 20
-34.467
 30
0.0
 10
140.2667
 20
-35.8498
 30
0.0
 10
140.2667
 20
-35.8498
 30
0.0
 10
137.8344
 20
-37.7563
 30
0.0
 10
135.1916
 20
-36.2649
 30
0.0
 10
132.1904
 20
-35.2064
 30
0.0
 10
132.1904
 20
-35.2064
 30
0.0
 10
125.9957
 20
-33.0218
 30
0.0
 10
122.9004
 20
-32.5673
 30
0.0
 10
122.1775
 20
-33.7369
 30
0.0
  0
SPLINE
  5
5B
330
1F
100
AcDbEntity
  8
layer 1
 62
     7
100
AcDbSpline
210
0.0
220
0.0
230
1.0
 70
    11
 71
     3
 72
   156
 73
   152
 74
     0
 42
0.0000000001
 43
0.0000000001
 12
1.0
 22
0.0
 32
0.0
 13
1.0
 23
0.0
 33
0.0
 40
0.0
 40
0.0
 40
0.0
 40
0.0
 40
0.0256410256410256
 40
0.0256410256410256
 40
0.0256410256410256
 40
0.0256410256410256
 40
0.0512820512820513
 40
0.0512820512820513
 40
0.0512820512820513
 40
0.0512820512820513
 40
0.0769230769230769
 40
0.0769230769230769
 40
0.0769230769230769
 40
0.0769230769230769
 40
0.1025641025641026
 40
0.1025641025641026
 40
0.1025641025641026
 40
0.1025641025641026
 40
0.1282051282051282
 40
0.1282051282051282
 40
0.1282051282051282
 40
0.1282051282051282
 40
0.1538461538461539
 40
0.1538461538461539
 40
0.1538461538461539
 40
0.1538461538461539
 40
0.1794871794871795
 40
0.1794871794871795
 40
0.1794871794871795
 40
0.1794871794871795
 40
0.2051282051282051
 40
0.2051282051282051
 40
0.2051282051282051
 40
0.2051282051282051
 40
0.2307692307692308
 40
0.2307692307692308
 40
0.2307692307692308
 40
0.2307692307692308
 40
0.2564102564102564
 40
0.2564102564102564
 40
0.2564102564102564
 40
0.2564102564102564
 40
0.282051282051282
 40
0.282051282051282
 40
0.282051282051282
 40
0.282051282051282
 40
0.3076923076923077
 40
0.3076923076923077
 40
0.3076923076923077
 40
0.3076923076923077
 40
0.3333333333333333
 40
0.3333333333333333
 40
0.3333333333333333
 40
0.3333333333333333
 40
0.358974358974359
 40
0.358974358974359
 40
0.358974358974359
 40
0.358974358974359
 40
0.3846153846153846
 40
0.3846153846153846
 40
0.3846153846153846
 40
0.3846153846153846
 40
0.4102564102564102
 40
0.4102564102564102
 40
0.4102564102564102
 40
0.4102564102564102
 40
0.4358974358974359
 40
0.4358974358974359
 40
0.4358974358974359
 40
0.4358974358974359
 40
0.4615384615384616
 40
0.4615384615384616
 40
0.4615384615384616
 40
0.4615384615384616
 40
0.4871794871794872
 40
0.4871794871794872
 40
0.4871794871794872
 40
0.4871794871794872
 40
0.5128205128205128
 40
0.5128205128205128
 40
0.5128205128205128
 40
0.5128205128205128
 40
0.5384615384615384
 40
0.5384615384615384
 40
0.5384615384615384
 40
0.5384615384615384
 40
0.5641025641025641
 40
0.5641025641025641
 40
0.5641025641025641
 40
0.5641025641025641
 40
0.5897435897435898
 40
0.5897435897435898
 40
0.5897435897435898
 40
0.5897435897435898
 40
0.6153846153846154
 40
0.6153846153846154
 40
0.6153846153846154
 40
0.6153846153846154
 40
0.6410256410256411
 40
0.6410256410256411
 40
0.6410256410256411
 40
0.6410256410256411
 40
0.6666666666666666
 40
0.6666666666666666
 40
0.6666666666666666
 40
0.6666666666666666
 40
0.6923076923076923
 40
0.6923076923076923
 40
0.6923076923076923
 40
0.6923076923076923
 40
0.717948717948718
 40
0.717948717948718
 40
0.717948717948718
 40
0.717948717948718
 40
0.7435897435897436
 40
0.7435897435897436
 40
0.7435897435897436
 40
0.7435897435897436
 40
0.7692307692307693
 40
0.7692307692307693
 40
0.7692307692307693
 40
0.7692307692307693
 40
0.7948717948717948
 40
0.7948717948717948
 40
0.7948717948717948
 40
0.7948717948717948
 40
0.8205128205128205
 40
0.8205128205128205
 40
0.8205128205128205
 40
0.8205128205128205
 40
0.8461538461538461
 40
0.8461538461538461
 40
0.8461538461538461
 40
0.8461538461538461
 40
0.8717948717948718
 40
0.8717948717948718
 40
0.8717948717948718
 40
0.8717948717948718
 40
0.8974358974358975
 40
0.8974358974358975
 40
0.8974358974358975
 40
0.8974358974358975
 40
0.9230769230769231
 40
0.9230769230769231
 40
0.9230769230769231
 40
0.9230769230769231
 40
0.9487179487179487
 40
0.9487179487179487
 40
0.9487179487179487
 40
0.9487179487179487
 40
1.0
 40
1.0
 40
1.0
 40
1.0
 10
94.7967
 20
-33.4025
 30
0.0
 10
98.1677
 20
-33.4481
 30
0.0
 10
98.7523
 20
-39.5202
 30
0.0
 10
97.7254
 20
-41.9976
 30
0.0
 10
97.7254
 20
-41.9976
 30
0.0
 10
96.6252
 20
-45.1585
 30
0.0
 10
96.5946
 20
-45.604
 30
0.0
 10
97.4772
 20
-45.604
 30
0.0
 10
97.4772
 20
-45.604
 30
0.0
 10
98.769
 20
-46.2257
 30
0.0
 10
99.4425
 20
-41.2755
 30
0.0
 10
101.3597
 20
-39.6702
 30
0.0
 10
101.3597
 20
-39.6702
 30
0.0
 10
104.0352
 20
-41.4992
 30
0.0
 10
103.6427
 20
-44.5587
 30
0.0
 10
101.7322
 20
-47.592
 30
0.0
 10
101.7322
 20
-47.592
 30
0.0
 10
100.4093
 20
-49.5013
 30
0.0
 10
100.0804
 20
-50.4721
 30
0.0
 10
100.586
 20
-50.9777
 30
0.0
 10
100.586
 20
-50.9777
 30
0.0
 10
101.6321
 20
-52.0237
 30
0.0
 10
102.6869
 20
-51.0841
 30
0.0
 10
104.0581
 20
-47.8853
 30
0.0
 10
104.0581
 20
-47.8853
 30
0.0
 10
105.5796
 20
-44.4236
 30
0.0
 10
109.5818
 20
-41.3876
 30
0.0
 10
113.3539
 20
-44.7566
 30
0.0
 10
113.3539
 20
-44.7566
 30
0.0
 10
113.556
 20
-45.0837
 30
0.0
 10
111.8055
 20
-45.855
 30
0.0
 10
110.4462
 20
-47.2347
 30
0.0
 10
110.4462
 20
-47.2347
 30
0.0
 10
108.4642
 20
-49.2468
 30
0.0
 10
108.5539
 20
-49.8793
 30
0.0
 10
109.4514
 20
-50.0676
 30
0.0
 10
109.4514
 20
-50.0676
 30
0.0
 10
110.0669
 20
-50.197
 30
0.0
 10
111.1601
 20
-49.9872
 30
0.0
 10
111.8805
 20
-49.6017
 30
0.0
 10
111.8805
 20
-49.6017
 30
0.0
 10
116.904
 20
-46.9317
 30
0.0
 10
122.712
 20
-50.9366
 30
0.0
 10
119.8975
 20
-57.7054
 30
0.0
 10
119.8975
 20
-57.7054
 30
0.0
 10
117.7839
 20
-54.6282
 30
0.0
 10
114.2647
 20
-51.5037
 30
0.0
 10
108.6835
 20
-55.148
 30
0.0
 10
108.6835
 20
-55.148
 30
0.0
 10
105.4924
 20
-57.5023
 30
0.0
 10
102.6415
 20
-58.3159
 30
0.0
 10
100.4726
 20
-57.4913
 30
0.0
 10
100.4726
 20
-57.4913
 30
0.0
 10
98.288
 20
-56.6608
 30
0.0
 10
96.1351
 20
-56.61
 30
0.0
 10
96.1351
 20
-57.3892
 30
0.0
 10
96.1351
 20
-57.3892
 30
0.0
 10
96.1351
 20
-57.7064
 30
0.0
 10
97.0506
 20
-58.1492
 30
0.0
 10
98.1697
 20
-58.3729
 30
0.0
 10
98.1697
 20
-58.3729
 30
0.0
 10
100.6172
 20
-58.8623
 30
0.0
 10
100.4395
 20
-60.346
 30
0.0
 10
97.8973
 20
-60.647
 30
0.0
 10
97.8973
 20
-60.647
 30
0.0
 10
95.9118
 20
-60.882
 30
0.0
 10
95.6699
 20
-61.5388
 30
0.0
 10
97.1241
 20
-62.7458
 30
0.0
 10
97.1241
 20
-62.7458
 30
0.0
 10
97.6681
 20
-63.1974
 30
0.0
 10
98.1131
 20
-64.2083
 30
0.0
 10
98.1131
 20
-64.9922
 30
0.0
 10
98.1131
 20
-64.9922
 30
0.0
 10
98.1131
 20
-66.3072
 30
0.0
 10
95.4115
 20
-74.23
 30
0.0
 10
94.7967
 20
-74.8576
 30
0.0
 10
94.7967
 20
-74.8576
 30
0.0
 10
94.182
 20
-74.23
 30
0.0
 10
91.5003
 20
-66.3072
 30
0.0
 10
91.5003
 20
-64.9922
 30
0.0
 10
91.5003
 20
-64.9922
 30
0.0
 10
91.5003
 20
-64.2083
 30
0.0
 10
91.9453
 20
-63.1974
 30
0.0
 10
92.4893
 20
-62.7458
 30
0.0
 10
92.4893
 20
-62.7458
 30
0.0
 10
93.9435
 20
-61.5388
 30
0.0
 10
93.7016
 20
-60.882
 30
0.0
 10
91.7161
 20
-60.647
 30
0.0
 10
91.7161
 20
-60.647
 30
0.0
 10
89.1739
 20
-60.346
 30
0.0
 10
88.9962
 20
-58.8623
 30
0.0
 10
91.4437
 20
-58.3729
 30
0.0
 10
91.4437
 20
-58.3729
 30
0.0
 10
92.5628
 20
-58.1492
 30
0.0
 10
93.4783
 20
-57.7064
 30
0.0
 10
93.4783
 20
-57.3892
 30
0.0
 10
93.4783
 20
-57.3892
 30
0.0
 10
93.4783
 20
-56.61
 30
0.0
 10
91.3254
 20
-56.6608
 30
0.0
 10
89.1408
 20
-57.4913
 30
0.0
 10
89.1408
 20
-57.4913
 30
0.0
 10
86.9719
 20
-58.3159
 30
0.0
 10
84.121
 20
-57.5023
 30
0.0
 10
80.9299
 20
-55.148
 30
0.0
 10
80.9299
 20
-55.148
 30
0.0
 10
75.3487
 20
-51.5037
 30
0.0
 10
71.8295
 20
-54.6282
 30
0.0
 10
69.7159
 20
-57.7054
 30
0.0
 10
69.7159
 20
-57.7054
 30
0.0
 10
66.9014
 20
-50.9366
 30
0.0
 10
72.7094
 20
-46.9317
 30
0.0
 10
77.7329
 20
-49.6017
 30
0.0
 10
77.7329
 20
-49.6017
 30
0.0
 10
78.4533
 20
-49.9872
 30
0.0
 10
79.5465
 20
-50.197
 30
0.0
 10
80.1619
 20
-50.0676
 30
0.0
 10
80.1619
 20
-50.0676
 30
0.0
 10
81.0595
 20
-49.8793
 30
0.0
 10
81.1492
 20
-49.2468
 30
0.0
 10
79.1672
 20
-47.2347
 30
0.0
 10
79.1672
 20
-47.2347
 30
0.0
 10
77.8079
 20
-45.855
 30
0.0
 10
76.0574
 20
-45.0837
 30
0.0
 10
76.2595
 20
-44.7566
 30
0.0
 10
76.2595
 20
-44.7566
 30
0.0
 10
80.0316
 20
-41.3876
 30
0.0
 10
84.0338
 20
-44.4236
 30
0.0
 10
85.5553
 20
-47.8853
 30
0.0
 10
85.5553
 20
-47.8853
 30
0.0
 10
86.9265
 20
-51.0841
 30
0.0
 10
87.9813
 20
-52.0237
 30
0.0
 10
89.0274
 20
-50.9777
 30
0.0
 10
89.0274
 20
-50.9777
 30
0.0
 10
89.533
 20
-50.4721
 30
0.0
 10
89.2041
 20
-49.5013
 30
0.0
 10
87.8811
 20
-47.592
 30
0.0
 10
87.8811
 20
-47.592
 30
0.0
 10
85.9707
 20
-44.5587
 30
0.0
 10
85.5782
 20
-41.4992
 30
0.0
 10
88.2537
 20
-39.6702
 30
0.0
 10
88.2537
 20
-39.6702
 30
0.0
 10
90.1709
 20
-41.2755
 30
0.0
 10
90.8444
 20
-46.2257
 30
0.0
 10
92.1362
 20
-45.604
 30
0.0
 10
92.1362
 20
-45.604
 30
0.0
 10
93.0188
 20
-45.604
 30
0.0
 10
92.9882
 20
-45.1585
 30
0.0
 10
91.888
 20
-41.9976
 30
0.0
 10
91.888
 20
-41.9976
 30
0.0
 10
90.8611
 20
-39.5202
 30
0.0
 10
91.8995
 20
-33.3953
 30
0.0
 10
94.7967
 20
-33.4025
 30
0.0
  0
SPLINE
  5
5C
330
1F
100
AcDbEntity
  8
layer 1
 62
     7
100
AcDbSpline
210
0.0
220
0.0
230
1.0
 70
    11
 71
     3
 72
   120
 73
   116
 74
     0
 42
0.0000000001
 43
0.0000000001
 12
1.0
 22
0.0
 32
0.0
 13
1.0
 23
0.0
 33
0.0
 40
0.0
 40
0.0
 40
0.0
 40
0.0
 40
0.0333333333333333
 40
0.0333333333333333
 40
0.0333333333333333
 40
0.0333333333333333
 40
0.0666666666666667
 40
0.0666666666666667
 40
0.0666666666666667
 40
0.0666666666666667
 40
0.1
 40
0.1
 40
0.1
 40
0.1
 40
0.1333333333333333
 40
0.1333333333333333
 40
0.1333333333333333
 40
0.1333333333333333
 40
0.1666666666666667
 40
0.1666666666666667
 40
0.1666666666666667
 40
0.1666666666666667
 40
0.2
 40
0.2
 40
0.2
 40
0.2
 40
0.2333333333333333
 40
0.2333333333333333
 40
0.2333333333333333
 40
0.2333333333333333
 40
0.2666666666666667
 40
0.2666666666666667
 40
0.2666666666666667
 40
0.2666666666666667
 40
0.3
 40
0.3
 40
0.3
 40
0.3
 40
0.3333333333333333
 40
0.3333333333333333
 40
0.3333333333333333
 40
0.3333333333333333
 40
0.3666666666666666
 40
0.3666666666666666
 40
0.3666666666666666
 40
0.3666666666666666
 40
0.4
 40
0.4
 40
0.4
 40
0.4
 40
0.4333333333333333
 40
0.4333333333333333
 40
0.4333333333333333
 40
0.4333333333333333
 40
0.4666666666666667
 40
0.4666666666666667
 40
0.4666666666666667
 40
0.4666666666666667
 40
0.5
 40
0.5
 40
0.5
 40
0.5
 40
0.5333333333333333
 40
0.5333333333333333
 40
0.5333333333333333
 40
0.5333333333333333
 40
0.5666666666666667
 40
0.5666666666666667
 40
0.5666666666666667
 40
0.5666666666666667
 40
0.6
 40
0.6
 40
0.6
 40
0.6
 40
0.6333333333333333
 40
0.6333333333333333
 40
0.6333333333333333
 40
0.6333333333333333
 40
0.6666666666666666
 40
0.6666666666666666
 40
0.6666666666666666
 40
0.6666666666666666
 40
0.7
 40
0.7
 40
0.7
 40
0.7
 40
0.7333333333333333
 40
0.7333333333333333
 40
0.7333333333333333
 40
0.7333333333333333
 40
0.7666666666666667
 40
0.7666666666666667
 40
0.7666666666666667
 40
0.7666666666666667
 40
0.8
 40
0.8
 40
0.8
 40
0.8
 40
0.8333333333333334
 40
0.8333333333333334
 40
0.8333333333333334
 40
0.8333333333333334
 40
0.8666666666666667
 40
0.8666666666666667
 40
0.8666666666666667
 40
0.8666666666666667
 40
0.9
 40
0.9
 40
0.9
 40
0.9
 40
0.9333333333333333
 40
0.9333333333333333
 40
0.9333333333333333
 40
0.9333333333333333
 40
1.0
 40
1.0
 40
1.0
 40
1.0
 10
155.962
 20
-26.394
 30
0.0
 10
154.8848
 20
-25.8174
 30
0.0
 10
154.6934
 20
-25.8535
 30
0.0
 10
155.0136
 20
-26.5727
 30
0.0
 10
155.0136
 20
-26.5727
 30
0.0
 10
165.9234
 20
-45.7142
 30
0.0
 10
169.1563
 20
-70.408
 30
0.0
 10
152.7874
 20
-87.2929
 30
0.0
 10
152.7874
 20
-87.2929
 30
0.0
 10
140.4937
 20
-99.5866
 30
0.0
 10
117.2818
 20
-102.143
 30
0.0
 10
109.669
 20
-88.2218
 30
0.0
 10
109.669
 20
-88.2218
 30
0.0
 10
102.9503
 20
-75.1955
 30
0.0
 10
116.2492
 20
-67.1698
 30
0.0
 10
123.7653
 20
-73.826
 30
0.0
 10
123.7653
 20
-73.826
 30
0.0
 10
128.1372
 20
-78.2146
 30
0.0
 10
125.5592
 20
-83.3658
 30
0.0
 10
122.483
 20
-84.4442
 30
0.0
 10
122.483
 20
-84.4442
 30
0.0
 10
119.8524
 20
-85.3667
 30
0.0
 10
116.4323
 20
-83.7764
 30
0.0
 10
116.8405
 20
-80.1478
 30
0.0
 10
116.8405
 20
-80.1478
 30
0.0
 10
117.2923
 20
-78.9749
 30
0.0
 10
117.3613
 20
-78.9692
 30
0.0
 10
117.9693
 20
-80.0524
 30
0.0
 10
117.9693
 20
-80.0524
 30
0.0
 10
119.349
 20
-82.5103
 30
0.0
 10
122.5072
 20
-80.9532
 30
0.0
 10
122.5072
 20
-77.8152
 30
0.0
 10
122.5072
 20
-77.8152
 30
0.0
 10
122.5072
 20
-74.2003
 30
0.0
 10
118.0483
 20
-73.0997
 30
0.0
 10
114.0063
 20
-75.5641
 30
0.0
 10
114.0063
 20
-75.5641
 30
0.0
 10
110.1257
 20
-77.9301
 30
0.0
 10
109.8347
 20
-83.4241
 30
0.0
 10
112.7561
 20
-86.9535
 30
0.0
 10
112.7561
 20
-86.9535
 30
0.0
 10
120.9024
 20
-96.0768
 30
0.0
 10
136.575
 20
-90.9008
 30
0.0
 10
136.1487
 20
-76.1228
 30
0.0
 10
136.1487
 20
-76.1228
 30
0.0
 10
135.2412
 20
-59.2211
 30
0.0
 10
114.5163
 20
-57.0371
 30
0.0
 10
103.8446
 20
-64.4859
 30
0.0
 10
103.8446
 20
-64.4859
 30
0.0
 10
95.8077
 20
-70.0292
 30
0.0
 10
95.0756
 20
-83.9329
 30
0.0
 10
99.0154
 20
-91.0625
 30
0.0
 10
99.0154
 20
-91.0625
 30
0.0
 10
104.5022
 20
-101.4911
 30
0.0
 10
118.0176
 20
-108.3005
 30
0.0
 10
131.3008
 20
-107.329
 30
0.0
 10
131.3008
 20
-107.329
 30
0.0
 10
143.4687
 20
-106.4389
 30
0.0
 10
152.597
 20
-102.6047
 30
0.0
 10
159.8749
 20
-95.3271
 30
0.0
 10
159.8749
 20
-95.3271
 30
0.0
 10
163.9152
 20
-91.2868
 30
0.0
 10
164.7024
 20
-90.1458
 30
0.0
 10
164.7053
 20
-88.3255
 30
0.0
 10
164.7053
 20
-88.3255
 30
0.0
 10
164.7113
 20
-84.9189
 30
0.0
 10
165.9804
 20
-81.1862
 30
0.0
 10
167.7267
 20
-79.4396
 30
0.0
 10
167.7267
 20
-79.4396
 30
0.0
 10
168.8896
 20
-78.2767
 30
0.0
 10
169.2158
 20
-77.4078
 30
0.0
 10
168.9248
 20
-76.2478
 30
0.0
 10
168.9248
 20
-76.2478
 30
0.0
 10
168.6569
 20
-75.1806
 30
0.0
 10
169.0369
 20
-73.8303
 30
0.0
 10
170.0745
 20
-72.1612
 30
0.0
 10
170.0745
 20
-72.1612
 30
0.0
 10
171.3483
 20
-70.1125
 30
0.0
 10
171.6331
 20
-68.7292
 30
0.0
 10
171.674
 20
-64.3942
 30
0.0
 10
171.674
 20
-64.3942
 30
0.0
 10
171.7039
 20
-61.2253
 30
0.0
 10
171.3371
 20
-58.1098
 30
0.0
 10
170.7553
 20
-56.5898
 30
0.0
 10
170.7553
 20
-56.5898
 30
0.0
 10
169.8866
 20
-54.3205
 30
0.0
 10
169.8993
 20
-53.8241
 30
0.0
 10
170.8776
 20
-51.7723
 30
0.0
 10
170.8776
 20
-51.7723
 30
0.0
 10
170.8776
 20
-51.7723
 30
0.0
 10
171.9683
 20
-49.4848
 30
0.0
 10
171.9683
 20
-49.4848
 30
0.0
 10
171.9683
 20
-49.4848
 30
0.0
 10
171.9683
 20
-49.4848
 30
0.0
 10
169.5986
 20
-47.2499
 30
0.0
 10
169.5986
 20
-47.2499
 30
0.0
 10
169.5986
 20
-47.2499
 30
0.0
 10
167.1406
 20
-44.9317
 30
0.0
 10
166.721
 20
-42.4666
 30
0.0
 10
168.8463
 20
-42.8309
 30
0.0
 10
168.8463
 20
-42.8309
 30
0.0
 10
169.4677
 20
-42.9375
 30
0.0
 10
169.9761
 20
-42.6719
 30
0.0
 10
169.9761
 20
-42.2408
 30
0.0
 10
169.9761
 20
-42.2408
 30
0.0
 10
169.9761
 20
-40.279
 30
0.0
 10
165.045
 20
-31.507
 30
0.0
 10
162.2073
 20
-28.4208
 30
0.0
 10
162.2073
 20
-28.4208
 30
0.0
 10
159.4124
 20
-25.3813
 30
0.0
 10
158.9677
 20
-25.1199
 30
0.0
 10
158.188
 20
-26.0596
 30
0.0
 10
158.188
 20
-26.0596
 30
0.0
 10
157.9308
 20
-26.2866
 30
0.0
 10
157.3116
 20
-26.9193
 30
0.0
 10
155.962
 20
-26.394
 30
0.0
  0
SPLINE
  5
5D
330
1F
100
AcDbEntity
  8
layer 1
 62
     7
100
AcDbSpline
210
0.0
220
0.0
230
1.0
 70
    11
 71
     3
 72
    72
 73
    68
 74
     0
 42
0.0000000001
 43
0.0000000001
 12
1.0
 22
0.0
 32
0.0
 13
1.0
 23
0.0
 33
0.0
 40
0.0
 40
0.0
 40
0.0
 40
0.0
 40
0.0555555555555556
 40
0.0555555555555556
 40
0.0555555555555556
 40
0.0555555555555556
 40
0.1111111111111111
 40
0.1111111111111111
 40
0.1111111111111111
 40
0.1111111111111111
 40
0.1666666666666667
 40
0.1666666666666667
 40
0.1666666666666667
 40
0.1666666666666667
 40
0.2222222222222222
 40
0.2222222222222222
 40
0.2222222222222222
 40
0.2222222222222222
 40
0.2777777777777778
 40
0.2777777777777778
 40
0.2777777777777778
 40
0.2777777777777778
 40
0.3333333333333333
 40
0.3333333333333333
 40
0.3333333333333333
 40
0.3333333333333333
 40
0.3888888888888889
 40
0.3888888888888889
 40
0.3888888888888889
 40
0.3888888888888889
 40
0.4444444444444444
 40
0.4444444444444444
 40
0.4444444444444444
 40
0.4444444444444444
 40
0.5
 40
0.5
 40
0.5
 40
0.5
 40
0.5555555555555556
 40
0.5555555555555556
 40
0.5555555555555556
 40
0.5555555555555556
 40
0.6111111111111112
 40
0.6111111111111112
 40
0.6111111111111112
 40
0.6111111111111112
 40
0.6666666666666666
 40
0.6666666666666666
 40
0.6666666666666666
 40
0.6666666666666666
 40
0.7222222222222222
 40
0.7222222222222222
 40
0.7222222222222222
 40
0.7222222222222222
 40
0.7777777777777778
 40
0.7777777777777778
 40
0.7777777777777778
 40
0.7777777777777778
 40
0.8333333333333334
 40
0.8333333333333334
 40
0.8333333333333334
 40
0.8333333333333334
 40
0.8888888888888888
 40
0.8888888888888888
 40
0.8888888888888888
 40
0.8888888888888888
 40
1.0
 40
1.0
 40
1.0
 40
1.0
 10
123.2348
 20
-25.8568
 30
0.0
 10
122.0868
 20
-29.6887
 30
0.0
 10
119.344
 20
-31.274
 30
0.0
 10
114.5375
 20
-30.8838
 30
0.0
 10
114.5375
 20
-30.8838
 30
0.0
 10
110.4432
 20
-30.5514
 30
0.0
 10
107.4692
 20
-29.2511
 30
0.0
 10
104.111
 20
-26.325
 30
0.0
 10
104.111
 20
-26.325
 30
0.0
 10
102.191
 20
-24.6522
 30
0.0
 10
101.7843
 20
-24.5191
 30
0.0
 10
101.2899
 20
-25.403
 30
0.0
 10
101.2899
 20
-25.403
 30
0.0
 10
100.4303
 20
-26.939
 30
0.0
 10
102.1456
 20
-30.4517
 30
0.0
 10
104.9634
 20
-32.9256
 30
0.0
 10
104.9634
 20
-32.9256
 30
0.0
 10
106.301
 20
-34.1
 30
0.0
 10
110.4923
 20
-37.1385
 30
0.0
 10
114.2776
 20
-39.6782
 30
0.0
 10
114.2776
 20
-39.6782
 30
0.0
 10
121.3053
 20
-44.3932
 30
0.0
 10
123.4114
 20
-46.8318
 30
0.0
 10
122.7244
 20
-49.4586
 30
0.0
 10
122.7244
 20
-49.4586
 30
0.0
 10
122.2076
 20
-51.4349
 30
0.0
 10
123.4491
 20
-51.2403
 30
0.0
 10
124.379
 20
-49.199
 30
0.0
 10
124.379
 20
-49.199
 30
0.0
 10
125.5076
 20
-46.7221
 30
0.0
 10
125.3182
 20
-45.1582
 30
0.0
 10
123.7087
 20
-43.6587
 30
0.0
 10
123.7087
 20
-43.6587
 30
0.0
 10
122.9193
 20
-42.9231
 30
0.0
 10
122.4317
 20
-42.1628
 30
0.0
 10
122.6255
 20
-41.9692
 30
0.0
 10
122.6255
 20
-41.9692
 30
0.0
 10
123.2911
 20
-41.3036
 30
0.0
 10
125.2552
 20
-42.4922
 30
0.0
 10
125.7877
 20
-43.8824
 30
0.0
 10
125.7877
 20
-43.8824
 30
0.0
 10
126.303
 20
-45.2275
 30
0.0
 10
126.3354
 20
-45.218
 30
0.0
 10
126.758
 20
-43.6001
 30
0.0
 10
126.758
 20
-43.6001
 30
0.0
 10
127.8696
 20
-39.3443
 30
0.0
 10
124.4019
 20
-36.4343
 30
0.0
 10
117.6202
 20
-35.9317
 30
0.0
 10
117.6202
 20
-35.9317
 30
0.0
 10
112.3719
 20
-35.5428
 30
0.0
 10
110.6396
 20
-35.1662
 30
0.0
 10
110.6396
 20
-34.4142
 30
0.0
 10
110.6396
 20
-34.4142
 30
0.0
 10
110.6396
 20
-34.0651
 30
0.0
 10
112.028
 20
-33.9629
 30
0.0
 10
113.8453
 20
-34.1782
 30
0.0
 10
113.8453
 20
-34.1782
 30
0.0
 10
120.9704
 20
-35.0222
 30
0.0
 10
126.8998
 20
-30.2825
 30
0.0
 10
125.5327
 20
-24.8358
 30
0.0
 10
125.5327
 20
-24.8358
 30
0.0
 10
124.9352
 20
-22.4554
 30
0.0
 10
124.149
 20
-22.8045
 30
0.0
 10
123.2348
 20
-25.8563
 30
0.0
 10
123.2348
 20
-25.8563
 30
0.0
 10
123.2348
 20
-25.8563
 30
0.0
 10
123.2348
 20
-25.8568
 30
0.0
 10
123.2348
 20
-25.8568
 30
0.0
  0
SPLINE
  5
5E
330
1F
100
AcDbEntity
  8
layer 1
 62
     7
100
AcDbSpline
210
0.0
220
0.0
230
1.0
 70
    11
 71
     3
 72
    32
 73
    28
 74
     0
 42
0.0000000001
 43
0.0000000001
 12
1.0
 22
0.0
 32
0.0
 13
1.0
 23
0.0
 33
0.0
 40
0.0
 40
0.0
 40
0.0
 40
0.0
 40
0.125
 40
0.125
 40
0.125
 40
0.125
 40
0.25
 40
0.25
 40
0.25
 40
0.25
 40
0.375
 40
0.375
 40
0.375
 40
0.375
 40
0.5
 40
0.5
 40
0.5
 40
0.5
 40
0.625
 40
0.625
 40
0.625
 40
0.625
 40
0.75
 40
0.75
 40
0.75
 40
0.75
 40
1.0
 40
1.0
 40
1.0
 40
1.0
 10
168.6579
 20
-23.9774
 30
0.0
 10
168.6579
 20
-24.8864
 30
0.0
 10
169.3987
 20
-26.6384
 30
0.0
 10
170.3042
 20
-27.8707
 30
0.0
 10
170.3042
 20
-27.8707
 30
0.0
 10
171.839
 20
-29.9588
 30
0.0
 10
174.4459
 20
-33.0918
 30
0.0
 10
175.7145
 20
-39.4731
 30
0.0
 10
175.7145
 20
-39.4731
 30
0.0
 10
176.5961
 20
-38.2982
 30
0.0
 10
177.9011
 20
-38.5359
 30
0.0
 10
179.2958
 20
-38.4781
 30
0.0
 10
179.2958
 20
-38.4781
 30
0.0
 10
178.7598
 20
-33.8396
 30
0.0
 10
174.1267
 20
-27.7119
 30
0.0
 10
172.745
 20
-26.1553
 30
0.0
 10
172.745
 20
-26.1553
 30
0.0
 10
172.1014
 20
-25.4302
 30
0.0
 10
170.9182
 20
-24.2714
 30
0.0
 10
170.1161
 20
-23.5807
 30
0.0
 10
170.1161
 20
-23.5807
 30
0.0
 10
168.6649
 20
-22.3311
 30
0.0
 10
168.6576
 20
-22.3331
 30
0.0
 10
168.6576
 20
-23.9777
 30
0.0
 10
168.6576
 20
-23.9777
 30
0.0
 10
168.6576
 20
-23.9777
 30
0.0
 10
168.6579
 20
-23.9774
 30
0.0
 10
168.6579
 20
-23.9774
 30
0.0
  0
SPLINE
  5
5F
330
1F
100
AcDbEntity
  8
layer 1
 62
     7
100
AcDbSpline
210
0.0
220
0.0
230
1.0
 70
    11
 71
     3
 72
   192
 73
   188
 74
     0
 42
0.0000000001
 43
0.0000000001
 12
1.0
 22
0.0
 32
0.0
 13
1.0
 23
0.0
 33
0.0
 40
0.0
 40
0.0
 40
0.0
 40
0.0
 40
0.0208333333333333
 40
0.0208333333333333
 40
0.0208333333333333
 40
0.0208333333333333
 40
0.0416666666666667
 40
0.0416666666666667
 40
0.0416666666666667
 40
0.0416666666666667
 40
0.0625
 40
0.0625
 40
0.0625
 40
0.0625
 40
0.0833333333333333
 40
0.0833333333333333
 40
0.0833333333333333
 40
0.0833333333333333
 40
0.1041666666666667
 40
0.1041666666666667
 40
0.1041666666666667
 40
0.1041666666666667
 40
0.125
 40
0.125
 40
0.125
 40
0.125
 40
0.1458333333333333
 40
0.1458333333333333
 40
0.1458333333333333
 40
0.1458333333333333
 40
0.1666666666666667
 40
0.1666666666666667
 40
0.1666666666666667
 40
0.1666666666666667
 40
0.1875
 40
0.1875
 40
0.1875
 40
0.1875
 40
0.2083333333333333
 40
0.2083333333333333
 40
0.2083333333333333
 40
0.2083333333333333
 40
0.2291666666666667
 40
0.2291666666666667
 40
0.2291666666666667
 40
0.2291666666666667
 40
0.25
 40
0.25
 40
0.25
 40
0.25
 40
0.2708333333333333
 40
0.2708333333333333
 40
0.2708333333333333
 40
0.2708333333333333
 40
0.2916666666666667
 40
0.2916666666666667
 40
0.2916666666666667
 40
0.2916666666666667
 40
0.3125
 40
0.3125
 40
0.3125
 40
0.3125
 40
0.3333333333333333
 40
0.3333333333333333
 40
0.3333333333333333
 40
0.3333333333333333
 40
0.3541666666666667
 40
0.3541666666666667
 40
0.3541666666666667
 40
0.3541666666666667
 40
0.375
 40
0.375
 40
0.375
 40
0.375
 40
0.3958333333333333
 40
0.3958333333333333
 40
0.3958333333333333
 40
0.3958333333333333
 40
0.4166666666666667
 40
0.4166666666666667
 40
0.4166666666666667
 40
0.4166666666666667
 40
0.4375
 40
0.4375
 40
0.4375
 40
0.4375
 40
0.4583333333333333
 40
0.4583333333333333
 40
0.4583333333333333
 40
0.4583333333333333
 40
0.4791666666666667
 40
0.4791666666666667
 40
0.4791666666666667
 40
0.4791666666666667
 40
0.5
 40
0.5
 40
0.5
 40
0.5
 40
0.5208333333333334
 40
0.5208333333333334
 40
0.5208333333333334
 40
0.5208333333333334
 40
0.5416666666666666
 40
0.5416666666666666
 40
0.5416666666666666
 40
0.5416666666666666
 40
0.5625
 40
0.5625
 40
0.5625
 40
0.5625
 40
0.5833333333333334
 40
0.5833333333333334
 40
0.5833333333333334
 40
0.5833333333333334
 40
0.6041666666666666
 40
0.6041666666666666
 40
0.6041666666666666
 40
0.6041666666666666
 40
0.625
 40
0.625
 40
0.625
 40
0.625
 40
0.6458333333333334
 40
0.6458333333333334
 40
0.6458333333333334
 40
0.6458333333333334
 40
0.6666666666666666
 40
0.6666666666666666
 40
0.6666666666666666
 40
0.6666666666666666
 40
0.6875
 40
0.6875
 40
0.6875
 40
0.6875
 40
0.7083333333333334
 40
0.7083333333333334
 40
0.7083333333333334
 40
0.7083333333333334
 40
0.7291666666666666
 40
0.7291666666666666
 40
0.7291666666666666
 40
0.7291666666666666
 40
0.75
 40
0.75
 40
0.75
 40
0.75
 40
0.7708333333333334
 40
0.7708333333333334
 40
0.7708333333333334
 40
0.7708333333333334
 40
0.7916666666666666
 40
0.7916666666666666
 40
0.7916666666666666
 40
0.7916666666666666
 40
0.8125
 40
0.8125
 40
0.8125
 40
0.8125
 40
0.8333333333333334
 40
0.8333333333333334
 40
0.8333333333333334
 40
0.8333333333333334
 40
0.8541666666666666
 40
0.8541666666666666
 40
0.8541666666666666
 40
0.8541666666666666
 40
0.875
 40
0.875
 40
0.875
 40
0.875
 40
0.8958333333333334
 40
0.8958333333333334
 40
0.8958333333333334
 40
0.8958333333333334
 40
0.9166666666666666
 40
0.9166666666666666
 40
0.9166666666666666
 40
0.9166666666666666
 40
0.9375
 40
0.9375
 40
0.9375
 40
0.9375
 40
0.9583333333333334
 40
0.9583333333333334
 40
0.9583333333333334
 40
0.9583333333333334
 40
1.0
 40
1.0
 40
1.0
 40
1.0
 10
173.2937
 20
6.9108
 30
0.0
 10
169.9113
 20
6.038
 30
0.0
 10
167.3395
 20
2.9401
 30
0.0
 10
167.3395
 20
-0.2609
 30
0.0
 10
167.3395
 20
-0.2609
 30
0.0
 10
167.3395
 20
-4.3243
 30
0.0
 10
173.6074
 20
-7.8321
 30
0.0
 10
175.9104
 20
-5.0574
 30
0.0
 10
175.9104
 20
-5.0574
 30
0.0
 10
176.6128
 20
-4.211
 30
0.0
 10
176.4038
 20
-4.0684
 30
0.0
 10
174.4579
 20
-4.0684
 30
0.0
 10
174.4579
 20
-4.0684
 30
0.0
 10
172.0749
 20
-4.0684
 30
0.0
 10
169.3175
 20
-1.914
 30
0.0
 10
169.3175
 20
-0.0521
 30
0.0
 10
169.3175
 20
-0.0521
 30
0.0
 10
169.3175
 20
1.3867
 30
0.0
 10
171.23
 20
3.8432
 30
0.0
 10
172.3503
 20
3.8432
 30
0.0
 10
172.3503
 20
3.8432
 30
0.0
 10
173.0757
 20
3.8432
 30
0.0
 10
173.28
 20
3.21
 30
0.0
 10
173.137
 20
1.4071
 30
0.0
 10
173.137
 20
1.4071
 30
0.0
 10
172.9508
 20
-0.9389
 30
0.0
 10
173.053
 20
-1.0675
 30
0.0
 10
175.9074
 20
-2.0742
 30
0.0
 10
175.9074
 20
-2.0742
 30
0.0
 10
178.3402
 20
-2.9324
 30
0.0
 10
178.8465
 20
-3.113
 30
0.0
 10
179.1418
 20
-4.7203
 30
0.0
 10
179.1418
 20
-4.7203
 30
0.0
 10
179.4944
 20
-6.6372
 30
0.0
 10
179.6078
 20
-7.0053
 30
0.0
 10
180.3879
 20
-5.5952
 30
0.0
 10
180.3879
 20
-5.5952
 30
0.0
 10
181.6598
 20
-3.2964
 30
0.0
 10
181.3832
 20
1.0074
 30
0.0
 10
179.8662
 20
2.5245
 30
0.0
 10
179.8662
 20
2.5245
 30
0.0
 10
179.141
 20
3.2496
 30
0.0
 10
178.1201
 20
3.8432
 30
0.0
 10
177.5976
 20
3.8432
 30
0.0
 10
177.5976
 20
3.8432
 30
0.0
 10
177.0751
 20
3.8432
 30
0.0
 10
176.4643
 20
4.1399
 30
0.0
 10
176.24
 20
4.5025
 30
0.0
 10
176.24
 20
4.5025
 30
0.0
 10
175.343
 20
5.954
 30
0.0
 10
179.3469
 20
5.0786
 30
0.0
 10
180.8061
 20
3.5043
 30
0.0
 10
180.8061
 20
3.5043
 30
0.0
 10
184.1753
 20
-0.1311
 30
0.0
 10
183.4711
 20
-5.4972
 30
0.0
 10
179.0578
 20
-9.8181
 30
0.0
 10
179.0578
 20
-9.8181
 30
0.0
 10
175.5996
 20
-13.2035
 30
0.0
 10
172.358
 20
-14.6171
 30
0.0
 10
168.0521
 20
-14.6171
 30
0.0
 10
168.0521
 20
-14.6171
 30
0.0
 10
160.4672
 20
-14.6171
 30
0.0
 10
153.4074
 20
-12.0084
 30
0.0
 10
139.6859
 20
-4.1357
 30
0.0
 10
139.6859
 20
-4.1357
 30
0.0
 10
139.6859
 20
-4.1357
 30
0.0
 10
130.4479
 20
1.1644
 30
0.0
 10
130.4479
 20
1.1644
 30
0.0
 10
130.4479
 20
1.1644
 30
0.0
 10
130.4479
 20
1.1644
 30
0.0
 10
127.6839
 20
-0.0095
 30
0.0
 10
127.6839
 20
-0.0095
 30
0.0
 10
127.6839
 20
-0.0095
 30
0.0
 10
127.6839
 20
-0.0095
 30
0.0
 10
125.9023
 20
-1.1834
 30
0.0
 10
125.9023
 20
-1.1834
 30
0.0
 10
125.9023
 20
-1.1834
 30
0.0
 10
135.0426
 20
-8.7244
 30
0.0
 10
144.6396
 20
-14.5678
 30
0.0
 10
145.5591
 20
-31.5314
 30
0.0
 10
145.5591
 20
-31.5314
 30
0.0
 10
145.4345
 20
-33.7957
 30
0.0
 10
145.373
 20
-36.3922
 30
0.0
 10
143.8392
 20
-38.9
 30
0.0
 10
143.8392
 20
-38.9
 30
0.0
 10
142.5492
 20
-40.5404
 30
0.0
 10
142.1921
 20
-40.9892
 30
0.0
 10
143.5896
 20
-40.9892
 30
0.0
 10
143.5896
 20
-40.9892
 30
0.0
 10
148.6089
 20
-40.3547
 30
0.0
 10
148.8468
 20
-38.2566
 30
0.0
 10
149.1882
 20
-35.8642
 30
0.0
 10
149.1882
 20
-35.8642
 30
0.0
 10
149.8463
 20
-31.0801
 30
0.0
 10
150.4862
 20
-30.4579
 30
0.0
 10
152.0703
 20
-33.0626
 30
0.0
 10
152.0703
 20
-33.0626
 30
0.0
 10
152.0703
 20
-33.0626
 30
0.0
 10
153.3987
 20
-35.247
 30
0.0
 10
153.3987
 20
-35.247
 30
0.0
 10
153.3987
 20
-35.247
 30
0.0
 10
155.355
 20
-30.4255
 30
0.0
 10
152.6855
 20
-25.41
 30
0.0
 10
149.4743
 20
-23.1424
 30
0.0
 10
149.4743
 20
-23.1424
 30
0.0
 10
148.4132
 20
-22.3869
 30
0.0
 10
147.7305
 20
-21.4689
 30
0.0
 10
147.957
 20
-21.1026
 30
0.0
 10
147.957
 20
-21.1026
 30
0.0
 10
148.2298
 20
-20.661
 30
0.0
 10
148.6106
 20
-20.678
 30
0.0
 10
149.0855
 20
-21.1529
 30
0.0
 10
149.0855
 20
-21.1529
 30
0.0
 10
150.1568
 20
-22.2239
 30
0.0
 10
150.8572
 20
-22.0211
 30
0.0
 10
150.8572
 20
-20.6394
 30
0.0
 10
150.8572
 20
-20.6394
 30
0.0
 10
150.8572
 20
-19.9573
 30
0.0
 10
148.5804
 20
-17.2706
 30
0.0
 10
145.7477
 20
-14.6099
 30
0.0
 10
145.7477
 20
-14.6099
 30
0.0
 10
142.5044
 20
-11.5634
 30
0.0
 10
140.9639
 20
-9.6967
 30
0.0
 10
141.5298
 20
-9.4994
 30
0.0
 10
141.5298
 20
-9.4994
 30
0.0
 10
143.0042
 20
-8.9848
 30
0.0
 10
147.5713
 20
-12.0774
 30
0.0
 10
149.8119
 20
-15.5722
 30
0.0
 10
149.8119
 20
-15.5722
 30
0.0
 10
154.901
 20
-23.5092
 30
0.0
 10
158.1152
 20
-26.9457
 30
0.0
 10
157.428
 20
-24.0856
 30
0.0
 10
157.428
 20
-24.0856
 30
0.0
 10
156.5643
 20
-20.4911
 30
0.0
 10
157.4332
 20
-21.8364
 30
0.0
 10
160.8206
 20
-24.1665
 30
0.0
 10
160.8206
 20
-24.1665
 30
0.0
 10
162.674
 20
-25.4411
 30
0.0
 10
164.8805
 20
-26.4844
 30
0.0
 10
165.7235
 20
-26.4844
 30
0.0
 10
165.7235
 20
-26.4844
 30
0.0
 10
167.1219
 20
-26.4844
 30
0.0
 10
167.2233
 20
-26.2677
 30
0.0
 10
166.881
 20
-24.012
 30
0.0
 10
166.881
 20
-24.012
 30
0.0
 10
166.6744
 20
-22.6523
 30
0.0
 10
165.9009
 20
-20.8733
 30
0.0
 10
165.1616
 20
-20.0588
 30
0.0
 10
165.1616
 20
-20.0588
 30
0.0
 10
162.9693
 20
-17.6429
 30
0.0
 10
164.274
 20
-17.6813
 30
0.0
 10
169.233
 20
-20.1786
 30
0.0
 10
169.233
 20
-20.1786
 30
0.0
 10
173.4101
 20
-22.2822
 30
0.0
 10
177.8879
 20
-23.269
 30
0.0
 10
177.8879
 20
-22.0859
 30
0.0
 10
177.8879
 20
-22.0859
 30
0.0
 10
177.8879
 20
-21.8424
 30
0.0
 10
176.2734
 20
-20.4278
 30
0.0
 10
175.7192
 20
-19.8153
 30
0.0
 10
175.7192
 20
-19.8153
 30
0.0
 10
174.7903
 20
-18.7889
 30
0.0
 10
176.1102
 20
-19.3837
 30
0.0
 10
178.9125
 20
-18.9997
 30
0.0
 10
178.9125
 20
-18.9997
 30
0.0
 10
182.2459
 20
-18.5427
 30
0.0
 10
185.7995
 20
-16.7546
 30
0.0
 10
185.7995
 20
-15.5343
 30
0.0
 10
185.7995
 20
-15.5343
 30
0.0
 10
185.7995
 20
-14.5192
 30
0.0
 10
184.254
 20
-13.9578
 30
0.0
 10
181.4602
 20
-13.9578
 30
0.0
 10
181.4602
 20
-13.9578
 30
0.0
 10
178.6805
 20
-13.9578
 30
0.0
 10
178.6419
 20
-13.4228
 30
0.0
 10
181.2434
 20
-10.9494
 30
0.0
 10
181.2434
 20
-10.9494
 30
0.0
 10
184.0881
 20
-8.245
 30
0.0
 10
185.1521
 20
-5.9203
 30
0.0
 10
185.2353
 20
-2.2287
 30
0.0
 10
185.2353
 20
-2.2287
 30
0.0
 10
185.3998
 20
5.0664
 30
0.0
 10
180.5447
 20
8.7825
 30
0.0
 10
173.2937
 20
6.9113
 30
0.0
 10
173.2937
 20
6.9113
 30
0.0
 10
173.2937
 20
6.9113
 30
0.0
 10
173.2937
 20
6.9108
 30
0.0
 10
173.2937
 20
6.9108
 30
0.0
  0
SPLINE
  5
60
330
1F
100
AcDbEntity
  8
layer 1
 62
     7
100
AcDbSpline
210
0.0
220
0.0
230
1.0
 70
    11
 71
     3
 72
   580
 73
   576
 74
     0
 42
0.0000000001
 43
0.0000000001
 12
1.0
 22
0.0
 32
0.0
 13
1.0
 23
0.0
 33
0.0
 40
0.0
 40
0.0
 40
0.0
 40
0.0
 40
0.0068965517241379
 40
0.0068965517241379
 40
0.0068965517241379
 40
0.0068965517241379
 40
0.0137931034482759
 40
0.0137931034482759
 40
0.0137931034482759
 40
0.0137931034482759
 40
0.0206896551724138
 40
0.0206896551724138
 40
0.0206896551724138
 40
0.0206896551724138
 40
0.0275862068965517
 40
0.0275862068965517
 40
0.0275862068965517
 40
0.0275862068965517
 40
0.0344827586206897
 40
0.0344827586206897
 40
0.0344827586206897
 40
0.0344827586206897
 40
0.0413793103448276
 40
0.0413793103448276
 40
0.0413793103448276
 40
0.0413793103448276
 40
0.0482758620689655
 40
0.0482758620689655
 40
0.0482758620689655
 40
0.0482758620689655
 40
0.0551724137931034
 40
0.0551724137931034
 40
0.0551724137931034
 40
0.0551724137931034
 40
0.0620689655172414
 40
0.0620689655172414
 40
0.0620689655172414
 40
0.0620689655172414
 40
0.0689655172413793
 40
0.0689655172413793
 40
0.0689655172413793
 40
0.0689655172413793
 40
0.0758620689655172
 40
0.0758620689655172
 40
0.0758620689655172
 40
0.0758620689655172
 40
0.0827586206896552
 40
0.0827586206896552
 40
0.0827586206896552
 40
0.0827586206896552
 40
0.0896551724137931
 40
0.0896551724137931
 40
0.0896551724137931
 40
0.0896551724137931
 40
0.096551724137931
 40
0.096551724137931
 40
0.096551724137931
 40
0.096551724137931
 40
0.103448275862069
 40
0.103448275862069
 40
0.103448275862069
 40
0.103448275862069
 40
0.1103448275862069
 40
0.1103448275862069
 40
0.1103448275862069
 40
0.1103448275862069
 40
0.1172413793103448
 40
0.1172413793103448
 40
0.1172413793103448
 40
0.1172413793103448
 40
0.1241379310344828
 40
0.1241379310344828
 40
0.1241379310344828
 40
0.1241379310344828
 40
0.1310344827586207
 40
0.1310344827586207
 40
0.1310344827586207
 40
0.1310344827586207
 40
0.1379310344827586
 40
0.1379310344827586
 40
0.1379310344827586
 40
0.1379310344827586
 40
0.1448275862068966
 40
0.1448275862068966
 40
0.1448275862068966
 40
0.1448275862068966
 40
0.1517241379310345
 40
0.1517241379310345
 40
0.1517241379310345
 40
0.1517241379310345
 40
0.1586206896551724
 40
0.1586206896551724
 40
0.1586206896551724
 40
0.1586206896551724
 40
0.1655172413793103
 40
0.1655172413793103
 40
0.1655172413793103
 40
0.1655172413793103
 40
0.1724137931034483
 40
0.1724137931034483
 40
0.1724137931034483
 40
0.1724137931034483
 40
0.1793103448275862
 40
0.1793103448275862
 40
0.1793103448275862
 40
0.1793103448275862
 40
0.1862068965517241
 40
0.1862068965517241
 40
0.1862068965517241
 40
0.1862068965517241
 40
0.1931034482758621
 40
0.1931034482758621
 40
0.1931034482758621
 40
0.1931034482758621
 40
0.2
 40
0.2
 40
0.2
 40
0.2
 40
0.2068965517241379
 40
0.2068965517241379
 40
0.2068965517241379
 40
0.2068965517241379
 40
0.2137931034482759
 40
0.2137931034482759
 40
0.2137931034482759
 40
0.2137931034482759
 40
0.2206896551724138
 40
0.2206896551724138
 40
0.2206896551724138
 40
0.2206896551724138
 40
0.2275862068965517
 40
0.2275862068965517
 40
0.2275862068965517
 40
0.2275862068965517
 40
0.2344827586206897
 40
0.2344827586206897
 40
0.2344827586206897
 40
0.2344827586206897
 40
0.2413793103448276
 40
0.2413793103448276
 40
0.2413793103448276
 40
0.2413793103448276
 40
0.2482758620689655
 40
0.2482758620689655
 40
0.2482758620689655
 40
0.2482758620689655
 40
0.2551724137931035
 40
0.2551724137931035
 40
0.2551724137931035
 40
0.2551724137931035
 40
0.2620689655172414
 40
0.2620689655172414
 40
0.2620689655172414
 40
0.2620689655172414
 40
0.2689655172413793
 40
0.2689655172413793
 40
0.2689655172413793
 40
0.2689655172413793
 40
0.2758620689655172
 40
0.2758620689655172
 40
0.2758620689655172
 40
0.2758620689655172
 40
0.2827586206896552
 40
0.2827586206896552
 40
0.2827586206896552
 40
0.2827586206896552
 40
0.2896551724137931
 40
0.2896551724137931
 40
0.2896551724137931
 40
0.2896551724137931
 40
0.296551724137931
 40
0.296551724137931
 40
0.296551724137931
 40
0.296551724137931
 40
0.303448275862069
 40
0.303448275862069
 40
0.303448275862069
 40
0.303448275862069
 40
0.3103448275862069
 40
0.3103448275862069
 40
0.3103448275862069
 40
0.3103448275862069
 40
0.3172413793103449
 40
0.3172413793103449
 40
0.3172413793103449
 40
0.3172413793103449
 40
0.3241379310344827
 40
0.3241379310344827
 40
0.3241379310344827
 40
0.3241379310344827
 40
0.3310344827586207
 40
0.3310344827586207
 40
0.3310344827586207
 40
0.3310344827586207
 40
0.3379310344827586
 40
0.3379310344827586
 40
0.3379310344827586
 40
0.3379310344827586
 40
0.3448275862068966
 40
0.3448275862068966
 40
0.3448275862068966
 40
0.3448275862068966
 40
0.3517241379310345
 40
0.3517241379310345
 40
0.3517241379310345
 40
0.3517241379310345
 40
0.3586206896551724
 40
0.3586206896551724
 40
0.3586206896551724
 40
0.3586206896551724
 40
0.3655172413793104
 40
0.3655172413793104
 40
0.3655172413793104
 40
0.3655172413793104
 40
0.3724137931034483
 40
0.3724137931034483
 40
0.3724137931034483
 40
0.3724137931034483
 40
0.3793103448275862
 40
0.3793103448275862
 40
0.3793103448275862
 40
0.3793103448275862
 40
0.3862068965517241
 40
0.3862068965517241
 40
0.3862068965517241
 40
0.3862068965517241
 40
0.3931034482758621
 40
0.3931034482758621
 40
0.3931034482758621
 40
0.3931034482758621
 40
0.4
 40
0.4
 40
0.4
 40
0.4
 40
0.4068965517241379
 40
0.4068965517241379
 40
0.4068965517241379
 40
0.4068965517241379
 40
0.4137931034482759
 40
0.4137931034482759
 40
0.4137931034482759
 40
0.4137931034482759
 40
0.4206896551724138
 40
0.4206896551724138
 40
0.4206896551724138
 40
0.4206896551724138
 40
0.4275862068965517
 40
0.4275862068965517
 40
0.4275862068965517
 40
0.4275862068965517
 40
0.4344827586206896
 40
0.4344827586206896
 40
0.4344827586206896
 40
0.4344827586206896
 40
0.4413793103448276
 40
0.4413793103448276
 40
0.4413793103448276
 40
0.4413793103448276
 40
0.4482758620689655
 40
0.4482758620689655
 40
0.4482758620689655
 40
0.4482758620689655
 40
0.4551724137931035
 40
0.4551724137931035
 40
0.4551724137931035
 40
0.4551724137931035
 40
0.4620689655172414
 40
0.4620689655172414
 40
0.4620689655172414
 40
0.4620689655172414
 40
0.4689655172413793
 40
0.4689655172413793
 40
0.4689655172413793
 40
0.4689655172413793
 40
0.4758620689655172
 40
0.4758620689655172
 40
0.4758620689655172
 40
0.4758620689655172
 40
0.4827586206896552
 40
0.4827586206896552
 40
0.4827586206896552
 40
0.4827586206896552
 40
0.4896551724137931
 40
0.4896551724137931
 40
0.4896551724137931
 40
0.4896551724137931
 40
0.496551724137931
 40
0.496551724137931
 40
0.496551724137931
 40
0.496551724137931
 40
0.503448275862069
 40
0.503448275862069
 40
0.503448275862069
 40
0.503448275862069
 40
0.5103448275862069
 40
0.5103448275862069
 40
0.5103448275862069
 40
0.5103448275862069
 40
0.5172413793103449
 40
0.5172413793103449
 40
0.5172413793103449
 40
0.5172413793103449
 40
0.5241379310344828
 40
0.5241379310344828
 40
0.5241379310344828
 40
0.5241379310344828
 40
0.5310344827586206
 40
0.5310344827586206
 40
0.5310344827586206
 40
0.5310344827586206
 40
0.5379310344827586
 40
0.5379310344827586
 40
0.5379310344827586
 40
0.5379310344827586
 40
0.5448275862068965
 40
0.5448275862068965
 40
0.5448275862068965
 40
0.5448275862068965
 40
0.5517241379310345
 40
0.5517241379310345
 40
0.5517241379310345
 40
0.5517241379310345
 40
0.5586206896551724
 40
0.5586206896551724
 40
0.5586206896551724
 40
0.5586206896551724
 40
0.5655172413793104
 40
0.5655172413793104
 40
0.5655172413793104
 40
0.5655172413793104
 40
0.5724137931034483
 40
0.5724137931034483
 40
0.5724137931034483
 40
0.5724137931034483
 40
0.5793103448275863
 40
0.5793103448275863
 40
0.5793103448275863
 40
0.5793103448275863
 40
0.5862068965517241
 40
0.5862068965517241
 40
0.5862068965517241
 40
0.5862068965517241
 40
0.593103448275862
 40
0.593103448275862
 40
0.593103448275862
 40
0.593103448275862
 40
0.6
 40
0.6
 40
0.6
 40
0.6
 40
0.6068965517241379
 40
0.6068965517241379
 40
0.6068965517241379
 40
0.6068965517241379
 40
0.6137931034482759
 40
0.6137931034482759
 40
0.6137931034482759
 40
0.6137931034482759
 40
0.6206896551724138
 40
0.6206896551724138
 40
0.6206896551724138
 40
0.6206896551724138
 40
0.6275862068965518
 40
0.6275862068965518
 40
0.6275862068965518
 40
0.6275862068965518
 40
0.6344827586206897
 40
0.6344827586206897
 40
0.6344827586206897
 40
0.6344827586206897
 40
0.6413793103448275
 40
0.6413793103448275
 40
0.6413793103448275
 40
0.6413793103448275
 40
0.6482758620689655
 40
0.6482758620689655
 40
0.6482758620689655
 40
0.6482758620689655
 40
0.6551724137931034
 40
0.6551724137931034
 40
0.6551724137931034
 40
0.6551724137931034
 40
0.6620689655172414
 40
0.6620689655172414
 40
0.6620689655172414
 40
0.6620689655172414
 40
0.6689655172413793
 40
0.6689655172413793
 40
0.6689655172413793
 40
0.6689655172413793
 40
0.6758620689655173
 40
0.6758620689655173
 40
0.6758620689655173
 40
0.6758620689655173
 40
0.6827586206896552
 40
0.6827586206896552
 40
0.6827586206896552
 40
0.6827586206896552
 40
0.6896551724137931
 40
0.6896551724137931
 40
0.6896551724137931
 40
0.6896551724137931
 40
0.696551724137931
 40
0.696551724137931
 40
0.696551724137931
 40
0.696551724137931
 40
0.7034482758620689
 40
0.7034482758620689
 40
0.7034482758620689
 40
0.7034482758620689
 40
0.7103448275862069
 40
0.7103448275862069
 40
0.7103448275862069
 40
0.7103448275862069
 40
0.7172413793103448
 40
0.7172413793103448
 40
0.7172413793103448
 40
0.7172413793103448
 40
0.7241379310344828
 40
0.7241379310344828
 40
0.7241379310344828
 40
0.7241379310344828
 40
0.7310344827586207
 40
0.7310344827586207
 40
0.7310344827586207
 40
0.7310344827586207
 40
0.7379310344827587
 40
0.7379310344827587
 40
0.7379310344827587
 40
0.7379310344827587
 40
0.7448275862068966
 40
0.7448275862068966
 40
0.7448275862068966
 40
0.7448275862068966
 40
0.7517241379310344
 40
0.7517241379310344
 40
0.7517241379310344
 40
0.7517241379310344
 40
0.7586206896551724
 40
0.7586206896551724
 40
0.7586206896551724
 40
0.7586206896551724
 40
0.7655172413793103
 40
0.7655172413793103
 40
0.7655172413793103
 40
0.7655172413793103
 40
0.7724137931034483
 40
0.7724137931034483
 40
0.7724137931034483
 40
0.7724137931034483
 40
0.7793103448275862
 40
0.7793103448275862
 40
0.7793103448275862
 40
0.7793103448275862
 40
0.7862068965517242
 40
0.7862068965517242
 40
0.7862068965517242
 40
0.7862068965517242
 40
0.7931034482758621
 40
0.7931034482758621
 40
0.7931034482758621
 40
0.7931034482758621
 40
0.8
 40
0.8
 40
0.8
 40
0.8
 40
0.8068965517241379
 40
0.8068965517241379
 40
0.8068965517241379
 40
0.8068965517241379
 40
0.8137931034482758
 40
0.8137931034482758
 40
0.8137931034482758
 40
0.8137931034482758
 40
0.8206896551724138
 40
0.8206896551724138
 40
0.8206896551724138
 40
0.8206896551724138
 40
0.8275862068965517
 40
0.8275862068965517
 40
0.8275862068965517
 40
0.8275862068965517
 40
0.8344827586206897
 40
0.8344827586206897
 40
0.8344827586206897
 40
0.8344827586206897
 40
0.8413793103448276
 40
0.8413793103448276
 40
0.8413793103448276
 40
0.8413793103448276
 40
0.8482758620689655
 40
0.8482758620689655
 40
0.8482758620689655
 40
0.8482758620689655
 40
0.8551724137931035
 40
0.8551724137931035
 40
0.8551724137931035
 40
0.8551724137931035
 40
0.8620689655172413
 40
0.8620689655172413
 40
0.8620689655172413
 40
0.8620689655172413
 40
0.8689655172413793
 40
0.8689655172413793
 40
0.8689655172413793
 40
0.8689655172413793
 40
0.8758620689655172
 40
0.8758620689655172
 40
0.8758620689655172
 40
0.8758620689655172
 40
0.8827586206896552
 40
0.8827586206896552
 40
0.8827586206896552
 40
0.8827586206896552
 40
0.8896551724137931
 40
0.8896551724137931
 40
0.8896551724137931
 40
0.8896551724137931
 40
0.896551724137931
 40
0.896551724137931
 40
0.896551724137931
 40
0.896551724137931
 40
0.903448275862069
 40
0.903448275862069
 40
0.903448275862069
 40
0.903448275862069
 40
0.9103448275862069
 40
0.9103448275862069
 40
0.9103448275862069
 40
0.9103448275862069
 40
0.9172413793103448
 40
0.9172413793103448
 40
0.9172413793103448
 40
0.9172413793103448
 40
0.9241379310344827
 40
0.9241379310344827
 40
0.9241379310344827
 40
0.9241379310344827
 40
0.9310344827586207
 40
0.9310344827586207
 40
0.9310344827586207
 40
0.9310344827586207
 40
0.9379310344827586
 40
0.9379310344827586
 40
0.9379310344827586
 40
0.9379310344827586
 40
0.9448275862068966
 40
0.9448275862068966
 40
0.9448275862068966
 40
0.9448275862068966
 40
0.9517241379310345
 40
0.9517241379310345
 40
0.9517241379310345
 40
0.9517241379310345
 40
0.9586206896551724
 40
0.9586206896551724
 40
0.9586206896551724
 40
0.9586206896551724
 40
0.9655172413793104
 40
0.9655172413793104
 40
0.9655172413793104
 40
0.9655172413793104
 40
0.9724137931034482
 40
0.9724137931034482
 40
0.9724137931034482
 40
0.9724137931034482
 40
0.9793103448275862
 40
0.9793103448275862
 40
0.9793103448275862
 40
0.9793103448275862
 40
0.9862068965517241
 40
0.9862068965517241
 40
0.9862068965517241
 40
0.9862068965517241
 40
1.0
 40
1.0
 40
1.0
 40
1.0
 10
137.0448
 20
8.5305
 30
0.0
 10
137.1616
 20
7.2061
 30
0.0
 10
136.1719
 20
6.6926
 30
0.0
 10
134.3506
 20
5.7158
 30
0.0
 10
134.3506
 20
5.7158
 30
0.0
 10
131.8107
 20
4.3537
 30
0.0
 10
128.9221
 20
4.7853
 30
0.0
 10
126.0438
 20
5.1962
 30
0.0
 10
126.0438
 20
5.1962
 30
0.0
 10
126.0438
 20
5.1962
 30
0.0
 10
121.2406
 20
8.5266
 30
0.0
 10
118.6819
 20
6.247
 30
0.0
 10
118.6819
 20
6.247
 30
0.0
 10
123.3818
 20
6.706
 30
0.0
 10
125.5063
 20
4.3719
 30
0.0
 10
125.5063
 20
4.3719
 30
0.0
 10
125.5063
 20
4.3719
 30
0.0
 10
126.0356
 20
2.4654
 30
0.0
 10
127.1998
 20
2.597
 30
0.0
 10
127.6966
 20
2.2828
 30
0.0
 10
127.6966
 20
2.2828
 30
0.0
 10
128.4614
 20
1.7989
 30
0.0
 10
128.4614
 20
1.6234
 30
0.0
 10
127.6966
 20
1.139
 30
0.0
 10
127.6966
 20
1.139
 30
0.0
 10
126.0645
 20
0.1052
 30
0.0
 10
121.5976
 20
0.5467
 30
0.0
 10
116.904
 20
2.206
 30
0.0
 10
116.904
 20
2.206
 30
0.0
 10
111.5992
 20
4.0814
 30
0.0
 10
109.9815
 20
4.2384
 30
0.0
 10
109.9815
 20
2.8776
 30
0.0
 10
109.9815
 20
2.8776
 30
0.0
 10
109.9815
 20
1.4323
 30
0.0
 10
111.802
 20
0.7573
 30
0.0
 10
116.7129
 20
0.3817
 30
0.0
 10
116.7129
 20
0.3817
 30
0.0
 10
121.4738
 20
0.0179
 30
0.0
 10
126.4841
 20
-2.3017
 30
0.0
 10
127.7933
 20
-4.7482
 30
0.0
 10
127.7933
 20
-4.7482
 30
0.0
 10
128.3869
 20
-5.8576
 30
0.0
 10
128.269
 20
-6.0574
 30
0.0
 10
126.9812
 20
-6.1242
 30
0.0
 10
126.9812
 20
-6.1242
 30
0.0
 10
126.1525
 20
-6.167
 30
0.0
 10
125.2519
 20
-6.167
 30
0.0
 10
124.9801
 20
-6.1242
 30
0.0
 10
124.9801
 20
-6.1242
 30
0.0
 10
124.0987
 20
-5.9851
 30
0.0
 10
124.4515
 20
-6.8044
 30
0.0
 10
126.1338
 20
-8.8036
 30
0.0
 10
126.1338
 20
-8.8036
 30
0.0
 10
128.7741
 20
-12.1165
 30
0.0
 10
129.101
 20
-17.1431
 30
0.0
 10
123.7728
 20
-19.8617
 30
0.0
 10
123.7728
 20
-19.8617
 30
0.0
 10
124.4555
 20
-16.2801
 30
0.0
 10
124.7909
 20
-13.8297
 30
0.0
 10
122.0659
 20
-10.2828
 30
0.0
 10
122.0659
 20
-10.2828
 30
0.0
 10
119.1085
 20
-7.325
 30
0.0
 10
116.3464
 20
-5.7252
 30
0.0
 10
110.9959
 20
-3.745
 30
0.0
 10
110.9959
 20
-3.745
 30
0.0
 10
107.5671
 20
-2.4761
 30
0.0
 10
103.0958
 20
0.0334
 30
0.0
 10
100.5058
 20
6.7195
 30
0.0
 10
100.5058
 20
6.7195
 30
0.0
 10
100.5058
 20
6.7195
 30
0.0
 10
97.9895
 20
6.7372
 30
0.0
 10
97.9895
 20
6.7372
 30
0.0
 10
97.9895
 20
6.7372
 30
0.0
 10
97.6078
 20
5.9139
 30
0.0
 10
96.9001
 20
5.2166
 30
0.0
 10
96.1525
 20
5.0716
 30
0.0
 10
96.1525
 20
5.0716
 30
0.0
 10
96.1525
 20
5.0716
 30
0.0
 10
96.1667
 20
3.4178
 30
0.0
 10
96.1667
 20
3.4178
 30
0.0
 10
96.1667
 20
3.4178
 30
0.0
 10
100.9725
 20
2.4991
 30
0.0
 10
106.0374
 20
-2.8026
 30
0.0
 10
106.6967
 20
-7.0606
 30
0.0
 10
106.6967
 20
-7.0606
 30
0.0
 10
109.1514
 20
-14.2411
 30
0.0
 10
115.7132
 20
-20.2708
 30
0.0
 10
120.0353
 20
-19.4308
 30
0.0
 10
120.0353
 20
-19.4308
 30
0.0
 10
122.2253
 20
-19.0052
 30
0.0
 10
122.3106
 20
-19.4094
 30
0.0
 10
120.4053
 20
-21.1843
 30
0.0
 10
120.4053
 20
-21.1843
 30
0.0
 10
118.2621
 20
-23.181
 30
0.0
 10
113.9487
 20
-23.0083
 30
0.0
 10
111.35
 20
-20.8218
 30
0.0
 10
111.35
 20
-20.8218
 30
0.0
 10
111.35
 20
-20.8218
 30
0.0
 10
109.3214
 20
-19.1149
 30
0.0
 10
109.3214
 20
-19.1149
 30
0.0
 10
109.3214
 20
-19.1149
 30
0.0
 10
109.3214
 20
-20.2718
 30
0.0
 10
109.5068
 20
-22.2117
 30
0.0
 10
109.1178
 20
-23.9829
 30
0.0
 10
109.1178
 20
-23.9829
 30
0.0
 10
105.1775
 20
-21.8805
 30
0.0
 10
102.7282
 20
-15.8007
 30
0.0
 10
102.7282
 20
-11.6663
 30
0.0
 10
102.7282
 20
-11.6663
 30
0.0
 10
102.7282
 20
-9.1595
 30
0.0
 10
101.5209
 20
-5.3871
 30
0.0
 10
100.7186
 20
-5.3871
 30
0.0
 10
100.7186
 20
-5.3871
 30
0.0
 10
99.0695
 20
-5.3871
 30
0.0
 10
99.0204
 20
-7.7466
 30
0.0
 10
100.5895
 20
-11.5813
 30
0.0
 10
100.5895
 20
-11.5813
 30
0.0
 10
102.1382
 20
-15.3664
 30
0.0
 10
102.9189
 20
-21.8987
 30
0.0
 10
101.9396
 20
-22.878
 30
0.0
 10
101.9396
 20
-22.878
 30
0.0
 10
101.7111
 20
-23.1065
 30
0.0
 10
101.7143
 20
-21.8267
 30
0.0
 10
100.6508
 20
-20.966
 30
0.0
 10
100.6508
 20
-20.966
 30
0.0
 10
97.003
 20
-19.0468
 30
0.0
 10
98.4839
 20
-16.0793
 30
0.0
 10
97.9531
 20
-13.0604
 30
0.0
 10
97.9531
 20
-13.0604
 30
0.0
 10
97.8452
 20
-12.4462
 30
0.0
 10
97.0419
 20
-12.7819
 30
0.0
 10
96.4899
 20
-12.9281
 30
0.0
 10
96.4899
 20
-12.9281
 30
0.0
 10
95.8059
 20
-17.477
 30
0.0
 10
97.8617
 20
-21.1893
 30
0.0
 10
97.8617
 20
-21.1893
 30
0.0
 10
97.8617
 20
-21.1893
 30
0.0
 10
98.5995
 20
-24.9148
 30
0.0
 10
98.7503
 20
-27.9419
 30
0.0
 10
96.4563
 20
-30.2728
 30
0.0
 10
96.4563
 20
-30.2728
 30
0.0
 10
96.4563
 20
-30.2728
 30
0.0
 10
94.7967
 20
-31.9388
 30
0.0
 10
94.7967
 20
-31.9388
 30
0.0
 10
94.7967
 20
-31.9388
 30
0.0
 10
94.7967
 20
-31.9388
 30
0.0
 10
93.1571
 20
-30.2728
 30
0.0
 10
93.1571
 20
-30.2728
 30
0.0
 10
93.1571
 20
-30.2728
 30
0.0
 10
90.8631
 20
-27.9419
 30
0.0
 10
91.0139
 20
-24.9148
 30
0.0
 10
91.7517
 20
-21.1893
 30
0.0
 10
91.7517
 20
-21.1893
 30
0.0
 10
91.7517
 20
-21.1893
 30
0.0
 10
93.8075
 20
-17.477
 30
0.0
 10
93.1235
 20
-12.9281
 30
0.0
 10
93.1235
 20
-12.9281
 30
0.0
 10
92.5715
 20
-12.7819
 30
0.0
 10
91.7682
 20
-12.4462
 30
0.0
 10
91.6603
 20
-13.0604
 30
0.0
 10
91.6603
 20
-13.0604
 30
0.0
 10
91.1295
 20
-16.0793
 30
0.0
 10
92.6104
 20
-19.0468
 30
0.0
 10
88.9626
 20
-20.966
 30
0.0
 10
88.9626
 20
-20.966
 30
0.0
 10
87.8991
 20
-21.8267
 30
0.0
 10
87.9023
 20
-23.1065
 30
0.0
 10
87.6738
 20
-22.878
 30
0.0
 10
87.6738
 20
-22.878
 30
0.0
 10
86.6945
 20
-21.8987
 30
0.0
 10
87.4752
 20
-15.3664
 30
0.0
 10
89.0239
 20
-11.5813
 30
0.0
 10
89.0239
 20
-11.5813
 30
0.0
 10
90.593
 20
-7.7466
 30
0.0
 10
90.5439
 20
-5.3871
 30
0.0
 10
88.8948
 20
-5.3871
 30
0.0
 10
88.8948
 20
-5.3871
 30
0.0
 10
88.0925
 20
-5.3871
 30
0.0
 10
86.8852
 20
-9.1595
 30
0.0
 10
86.8852
 20
-11.6663
 30
0.0
 10
86.8852
 20
-11.6663
 30
0.0
 10
86.8852
 20
-15.8007
 30
0.0
 10
84.4359
 20
-21.8805
 30
0.0
 10
80.4956
 20
-23.9829
 30
0.0
 10
80.4956
 20
-23.9829
 30
0.0
 10
80.1066
 20
-22.2117
 30
0.0
 10
80.292
 20
-20.2718
 30
0.0
 10
80.292
 20
-19.1149
 30
0.0
 10
80.292
 20
-19.1149
 30
0.0
 10
80.292
 20
-19.1149
 30
0.0
 10
78.2634
 20
-20.8218
 30
0.0
 10
78.2634
 20
-20.8218
 30
0.0
 10
78.2634
 20
-20.8218
 30
0.0
 10
75.6647
 20
-23.0083
 30
0.0
 10
71.3513
 20
-23.181
 30
0.0
 10
69.2081
 20
-21.1843
 30
0.0
 10
69.2081
 20
-21.1843
 30
0.0
 10
67.3028
 20
-19.4094
 30
0.0
 10
67.3881
 20
-19.0052
 30
0.0
 10
69.5781
 20
-19.4308
 30
0.0
 10
69.5781
 20
-19.4308
 30
0.0
 10
73.9002
 20
-20.2708
 30
0.0
 10
80.462
 20
-14.2411
 30
0.0
 10
82.9167
 20
-7.0606
 30
0.0
 10
82.9167
 20
-7.0606
 30
0.0
 10
83.576
 20
-2.8026
 30
0.0
 10
88.6631
 20
2.4901
 30
0.0
 10
93.4688
 20
3.4088
 30
0.0
 10
93.4688
 20
3.4088
 30
0.0
 10
93.4621
 20
3.9937
 30
0.0
 10
93.4616
 20
4.5107
 30
0.0
 10
93.4546
 20
5.0953
 30
0.0
 10
93.4546
 20
5.0953
 30
0.0
 10
92.4081
 20
5.7085
 30
0.0
 10
91.9386
 20
6.0768
 30
0.0
 10
91.576
 20
6.7466
 30
0.0
 10
91.576
 20
6.7466
 30
0.0
 10
91.576
 20
6.7466
 30
0.0
 10
89.1856
 20
6.7267
 30
0.0
 10
89.1856
 20
6.7267
 30
0.0
 10
89.1856
 20
6.7267
 30
0.0
 10
86.5956
 20
0.0406
 30
0.0
 10
82.0463
 20
-2.4761
 30
0.0
 10
78.6175
 20
-3.745
 30
0.0
 10
78.6175
 20
-3.745
 30
0.0
 10
73.267
 20
-5.7252
 30
0.0
 10
70.5049
 20
-7.325
 30
0.0
 10
67.5475
 20
-10.2828
 30
0.0
 10
67.5475
 20
-10.2828
 30
0.0
 10
64.8225
 20
-13.8297
 30
0.0
 10
65.1579
 20
-16.2801
 30
0.0
 10
65.8406
 20
-19.8617
 30
0.0
 10
65.8406
 20
-19.8617
 30
0.0
 10
60.5124
 20
-17.1431
 30
0.0
 10
60.8393
 20
-12.1165
 30
0.0
 10
63.4796
 20
-8.8036
 30
0.0
 10
63.4796
 20
-8.8036
 30
0.0
 10
65.1619
 20
-6.8044
 30
0.0
 10
65.5147
 20
-5.9851
 30
0.0
 10
64.6333
 20
-6.1242
 30
0.0
 10
64.6333
 20
-6.1242
 30
0.0
 10
64.3615
 20
-6.167
 30
0.0
 10
63.4609
 20
-6.167
 30
0.0
 10
62.6322
 20
-6.1242
 30
0.0
 10
62.6322
 20
-6.1242
 30
0.0
 10
61.3444
 20
-6.0574
 30
0.0
 10
61.2265
 20
-5.8576
 30
0.0
 10
61.8201
 20
-4.7482
 30
0.0
 10
61.8201
 20
-4.7482
 30
0.0
 10
63.1293
 20
-2.3017
 30
0.0
 10
68.1396
 20
0.0179
 30
0.0
 10
72.9005
 20
0.3817
 30
0.0
 10
72.9005
 20
0.3817
 30
0.0
 10
77.8114
 20
0.7573
 30
0.0
 10
79.6319
 20
1.4323
 30
0.0
 10
79.6319
 20
2.8776
 30
0.0
 10
79.6319
 20
2.8776
 30
0.0
 10
79.6319
 20
4.2384
 30
0.0
 10
78.0142
 20
4.0814
 30
0.0
 10
72.7094
 20
2.206
 30
0.0
 10
72.7094
 20
2.206
 30
0.0
 10
68.0158
 20
0.5467
 30
0.0
 10
63.5489
 20
0.1052
 30
0.0
 10
61.9167
 20
1.139
 30
0.0
 10
61.9167
 20
1.139
 30
0.0
 10
61.152
 20
1.6234
 30
0.0
 10
61.152
 20
1.7989
 30
0.0
 10
61.9167
 20
2.2828
 30
0.0
 10
61.9167
 20
2.2828
 30
0.0
 10
62.4136
 20
2.597
 30
0.0
 10
63.5778
 20
2.4654
 30
0.0
 10
64.1071
 20
4.3719
 30
0.0
 10
64.1071
 20
4.3719
 30
0.0
 10
64.1071
 20
4.3719
 30
0.0
 10
66.2316
 20
6.706
 30
0.0
 10
70.9315
 20
6.247
 30
0.0
 10
70.9315
 20
6.247
 30
0.0
 10
68.3728
 20
8.5266
 30
0.0
 10
63.5696
 20
5.1962
 30
0.0
 10
63.5696
 20
5.1962
 30
0.0
 10
63.5696
 20
5.1962
 30
0.0
 10
60.6913
 20
4.7853
 30
0.0
 10
57.8027
 20
4.3537
 30
0.0
 10
55.2628
 20
5.7158
 30
0.0
 10
55.2628
 20
5.7158
 30
0.0
 10
53.4415
 20
6.6926
 30
0.0
 10
52.6673
 20
7.1521
 30
0.0
 10
52.5686
 20
8.5305
 30
0.0
 10
52.5686
 20
8.5305
 30
0.0
 10
52.6135
 20
9.8549
 30
0.0
 10
53.4415
 20
10.3645
 30
0.0
 10
55.2628
 20
11.3413
 30
0.0
 10
55.2628
 20
11.3413
 30
0.0
 10
57.8027
 20
12.7034
 30
0.0
 10
60.6913
 20
12.2718
 30
0.0
 10
63.5696
 20
11.8609
 30
0.0
 10
63.5696
 20
11.8609
 30
0.0
 10
63.5696
 20
11.8609
 30
0.0
 10
68.3728
 20
8.5305
 30
0.0
 10
70.9315
 20
10.8101
 30
0.0
 10
70.9315
 20
10.8101
 30
0.0
 10
66.2316
 20
10.3511
 30
0.0
 10
64.1071
 20
12.6852
 30
0.0
 10
64.1071
 20
12.6852
 30
0.0
 10
64.1071
 20
12.6852
 30
0.0
 10
63.5778
 20
14.5917
 30
0.0
 10
62.4136
 20
14.4601
 30
0.0
 10
61.9167
 20
14.7743
 30
0.0
 10
61.9167
 20
14.7743
 30
0.0
 10
61.152
 20
15.2582
 30
0.0
 10
61.152
 20
15.4337
 30
0.0
 10
61.9167
 20
15.9181
 30
0.0
 10
61.9167
 20
15.9181
 30
0.0
 10
63.5489
 20
16.9519
 30
0.0
 10
68.0158
 20
16.5104
 30
0.0
 10
72.7094
 20
14.8511
 30
0.0
 10
72.7094
 20
14.8511
 30
0.0
 10
78.0142
 20
12.9757
 30
0.0
 10
79.6319
 20
12.8187
 30
0.0
 10
79.6319
 20
14.1795
 30
0.0
 10
79.6319
 20
14.1795
 30
0.0
 10
79.6319
 20
15.6248
 30
0.0
 10
77.8114
 20
16.2998
 30
0.0
 10
72.9005
 20
16.6753
 30
0.0
 10
72.9005
 20
16.6753
 30
0.0
 10
68.1396
 20
17.0392
 30
0.0
 10
63.1293
 20
19.3588
 30
0.0
 10
61.8201
 20
21.8053
 30
0.0
 10
61.8201
 20
21.8053
 30
0.0
 10
61.2265
 20
22.9146
 30
0.0
 10
61.3444
 20
23.1145
 30
0.0
 10
62.6322
 20
23.1813
 30
0.0
 10
62.6322
 20
23.1813
 30
0.0
 10
63.4609
 20
23.2241
 30
0.0
 10
64.3615
 20
23.2241
 30
0.0
 10
64.6333
 20
23.1813
 30
0.0
 10
64.6333
 20
23.1813
 30
0.0
 10
65.5147
 20
23.0422
 30
0.0
 10
65.1619
 20
23.8615
 30
0.0
 10
63.4796
 20
25.8607
 30
0.0
 10
63.4796
 20
25.8607
 30
0.0
 10
60.8393
 20
29.1736
 30
0.0
 10
60.5124
 20
34.2002
 30
0.0
 10
65.8406
 20
36.9187
 30
0.0
 10
65.8406
 20
36.9187
 30
0.0
 10
65.1579
 20
33.3372
 30
0.0
 10
64.8225
 20
30.8868
 30
0.0
 10
67.5475
 20
27.3399
 30
0.0
 10
67.5475
 20
27.3399
 30
0.0
 10
70.5049
 20
24.3821
 30
0.0
 10
73.267
 20
22.7823
 30
0.0
 10
78.6175
 20
20.8021
 30
0.0
 10
78.6175
 20
20.8021
 30
0.0
 10
82.0463
 20
19.5332
 30
0.0
 10
86.6295
 20
16.5996
 30
0.0
 10
89.2195
 20
9.9135
 30
0.0
 10
89.2195
 20
9.9135
 30
0.0
 10
89.2195
 20
9.9135
 30
0.0
 10
91.5544
 20
9.907
 30
0.0
 10
91.5544
 20
9.907
 30
0.0
 10
91.5544
 20
9.907
 30
0.0
 10
91.8778
 20
10.6867
 30
0.0
 10
92.9311
 20
11.6775
 30
0.0
 10
93.4636
 20
11.7378
 30
0.0
 10
93.4636
 20
11.7378
 30
0.0
 10
93.4636
 20
11.7378
 30
0.0
 10
93.4467
 20
13.6393
 30
0.0
 10
93.4467
 20
13.6393
 30
0.0
 10
93.4467
 20
13.6393
 30
0.0
 10
88.6409
 20
14.558
 30
0.0
 10
83.576
 20
19.8597
 30
0.0
 10
82.9167
 20
24.1177
 30
0.0
 10
82.9167
 20
24.1177
 30
0.0
 10
80.462
 20
31.2982
 30
0.0
 10
73.9002
 20
37.3279
 30
0.0
 10
69.5781
 20
36.4879
 30
0.0
 10
69.5781
 20
36.4879
 30
0.0
 10
67.3881
 20
36.0623
 30
0.0
 10
67.3028
 20
36.4665
 30
0.0
 10
69.2081
 20
38.2414
 30
0.0
 10
69.2081
 20
38.2414
 30
0.0
 10
71.3513
 20
40.2381
 30
0.0
 10
75.6647
 20
40.0654
 30
0.0
 10
78.2634
 20
37.8788
 30
0.0
 10
78.2634
 20
37.8788
 30
0.0
 10
78.2634
 20
37.8788
 30
0.0
 10
80.292
 20
36.1719
 30
0.0
 10
80.292
 20
36.1719
 30
0.0
 10
80.292
 20
36.1719
 30
0.0
 10
80.292
 20
37.3289
 30
0.0
 10
80.1066
 20
39.2688
 30
0.0
 10
80.4956
 20
41.04
 30
0.0
 10
80.4956
 20
41.04
 30
0.0
 10
84.4359
 20
38.9376
 30
0.0
 10
86.8852
 20
32.8578
 30
0.0
 10
86.8852
 20
28.7234
 30
0.0
 10
86.8852
 20
28.7234
 30
0.0
 10
86.8852
 20
26.2166
 30
0.0
 10
88.0925
 20
22.4442
 30
0.0
 10
88.8948
 20
22.4442
 30
0.0
 10
88.8948
 20
22.4442
 30
0.0
 10
90.5439
 20
22.4442
 30
0.0
 10
90.593
 20
24.8037
 30
0.0
 10
89.0239
 20
28.6384
 30
0.0
 10
89.0239
 20
28.6384
 30
0.0
 10
87.4752
 20
32.4235
 30
0.0
 10
86.6945
 20
38.9558
 30
0.0
 10
87.6738
 20
39.9351
 30
0.0
 10
87.6738
 20
39.9351
 30
0.0
 10
87.9023
 20
40.1636
 30
0.0
 10
87.8991
 20
38.8838
 30
0.0
 10
88.9626
 20
38.0231
 30
0.0
 10
88.9626
 20
38.0231
 30
0.0
 10
92.6104
 20
36.1039
 30
0.0
 10
91.1295
 20
33.1364
 30
0.0
 10
91.6603
 20
30.1175
 30
0.0
 10
91.6603
 20
30.1175
 30
0.0
 10
91.7682
 20
29.5033
 30
0.0
 10
92.5715
 20
29.8389
 30
0.0
 10
93.1235
 20
29.9852
 30
0.0
 10
93.1235
 20
29.9852
 30
0.0
 10
93.8075
 20
34.5341
 30
0.0
 10
91.7517
 20
38.2464
 30
0.0
 10
91.7517
 20
38.2464
 30
0.0
 10
91.7517
 20
38.2464
 30
0.0
 10
91.0139
 20
41.9719
 30
0.0
 10
90.8631
 20
44.999
 30
0.0
 10
93.1571
 20
47.3299
 30
0.0
 10
93.1571
 20
47.3299
 30
0.0
 10
93.1571
 20
47.3299
 30
0.0
 10
94.7967
 20
48.9959
 30
0.0
 10
94.7967
 20
48.9959
 30
0.0
 10
94.7967
 20
48.9959
 30
0.0
 10
94.7967
 20
48.9959
 30
0.0
 10
96.4563
 20
47.3299
 30
0.0
 10
96.4563
 20
47.3299
 30
0.0
 10
96.4563
 20
47.3299
 30
0.0
 10
98.7503
 20
44.999
 30
0.0
 10
98.5995
 20
41.9719
 30
0.0
 10
97.8617
 20
38.2464
 30
0.0
 10
97.8617
 20
38.2464
 30
0.0
 10
97.8617
 20
38.2464
 30
0.0
 10
95.8059
 20
34.5341
 30
0.0
 10
96.4899
 20
29.9852
 30
0.0
 10
96.4899
 20
29.9852
 30
0.0
 10
97.0419
 20
29.8389
 30
0.0
 10
97.8452
 20
29.5033
 30
0.0
 10
97.9531
 20
30.1175
 30
0.0
 10
97.9531
 20
30.1175
 30
0.0
 10
98.4839
 20
33.1364
 30
0.0
 10
97.003
 20
36.1039
 30
0.0
 10
100.6508
 20
38.0231
 30
0.0
 10
100.6508
 20
38.0231
 30
0.0
 10
101.7143
 20
38.8838
 30
0.0
 10
101.7111
 20
40.1636
 30
0.0
 10
101.9396
 20
39.9351
 30
0.0
 10
101.9396
 20
39.9351
 30
0.0
 10
102.9189
 20
38.9558
 30
0.0
 10
102.1382
 20
32.4235
 30
0.0
 10
100.5895
 20
28.6384
 30
0.0
 10
100.5895
 20
28.6384
 30
0.0
 10
99.0204
 20
24.8037
 30
0.0
 10
99.0695
 20
22.4442
 30
0.0
 10
100.7186
 20
22.4442
 30
0.0
 10
100.7186
 20
22.4442
 30
0.0
 10
101.5209
 20
22.4442
 30
0.0
 10
102.7282
 20
26.2166
 30
0.0
 10
102.7282
 20
28.7234
 30
0.0
 10
102.7282
 20
28.7234
 30
0.0
 10
102.7282
 20
32.8578
 30
0.0
 10
105.1775
 20
38.9376
 30
0.0
 10
109.1178
 20
41.04
 30
0.0
 10
109.1178
 20
41.04
 30
0.0
 10
109.5068
 20
39.2688
 30
0.0
 10
109.3214
 20
37.3289
 30
0.0
 10
109.3214
 20
36.1719
 30
0.0
 10
109.3214
 20
36.1719
 30
0.0
 10
109.3214
 20
36.1719
 30
0.0
 10
111.35
 20
37.8788
 30
0.0
 10
111.35
 20
37.8788
 30
0.0
 10
111.35
 20
37.8788
 30
0.0
 10
113.9487
 20
40.0654
 30
0.0
 10
118.2621
 20
40.2381
 30
0.0
 10
120.4053
 20
38.2414
 30
0.0
 10
120.4053
 20
38.2414
 30
0.0
 10
122.3106
 20
36.4665
 30
0.0
 10
122.2253
 20
36.0623
 30
0.0
 10
120.0353
 20
36.4879
 30
0.0
 10
120.0353
 20
36.4879
 30
0.0
 10
115.7132
 20
37.3279
 30
0.0
 10
109.1514
 20
31.2982
 30
0.0
 10
106.6967
 20
24.1177
 30
0.0
 10
106.6967
 20
24.1177
 30
0.0
 10
106.0374
 20
19.8597
 30
0.0
 10
100.9725
 20
14.558
 30
0.0
 10
96.1667
 20
13.6393
 30
0.0
 10
96.1667
 20
13.6393
 30
0.0
 10
96.1652
 20
13.0388
 30
0.0
 10
96.1638
 20
12.4382
 30
0.0
 10
96.1623
 20
11.8379
 30
0.0
 10
96.1623
 20
11.8379
 30
0.0
 10
96.9567
 20
11.4004
 30
0.0
 10
97.7284
 20
10.8273
 30
0.0
 10
98.1061
 20
9.849
 30
0.0
 10
98.1061
 20
9.849
 30
0.0
 10
98.1061
 20
9.849
 30
0.0
 10
100.4729
 20
9.8908
 30
0.0
 10
100.4729
 20
9.8908
 30
0.0
 10
100.4729
 20
9.8908
 30
0.0
 10
103.0629
 20
16.5769
 30
0.0
 10
107.5671
 20
19.5332
 30
0.0
 10
110.9959
 20
20.8021
 30
0.0
 10
110.9959
 20
20.8021
 30
0.0
 10
116.3464
 20
22.7823
 30
0.0
 10
119.1085
 20
24.3821
 30
0.0
 10
122.0659
 20
27.3399
 30
0.0
 10
122.0659
 20
27.3399
 30
0.0
 10
124.7909
 20
30.8868
 30
0.0
 10
124.4555
 20
33.3372
 30
0.0
 10
123.7728
 20
36.9187
 30
0.0
 10
123.7728
 20
36.9187
 30
0.0
 10
129.101
 20
34.2002
 30
0.0
 10
128.7741
 20
29.1736
 30
0.0
 10
126.1338
 20
25.8607
 30
0.0
 10
126.1338
 20
25.8607
 30
0.0
 10
124.4515
 20
23.8615
 30
0.0
 10
124.0987
 20
23.0422
 30
0.0
 10
124.9801
 20
23.1813
 30
0.0
 10
124.9801
 20
23.1813
 30
0.0
 10
125.2519
 20
23.2241
 30
0.0
 10
126.1525
 20
23.2241
 30
0.0
 10
126.9812
 20
23.1813
 30
0.0
 10
126.9812
 20
23.1813
 30
0.0
 10
128.269
 20
23.1145
 30
0.0
 10
128.3869
 20
22.9146
 30
0.0
 10
127.7933
 20
21.8053
 30
0.0
 10
127.7933
 20
21.8053
 30
0.0
 10
126.4841
 20
19.3588
 30
0.0
 10
121.4738
 20
17.0392
 30
0.0
 10
116.7129
 20
16.6753
 30
0.0
 10
116.7129
 20
16.6753
 30
0.0
 10
111.802
 20
16.2998
 30
0.0
 10
109.9815
 20
15.6248
 30
0.0
 10
109.9815
 20
14.1795
 30
0.0
 10
109.9815
 20
14.1795
 30
0.0
 10
109.9815
 20
12.8187
 30
0.0
 10
111.5992
 20
12.9757
 30
0.0
 10
116.904
 20
14.8511
 30
0.0
 10
116.904
 20
14.8511
 30
0.0
 10
121.5976
 20
16.5104
 30
0.0
 10
126.0645
 20
16.9519
 30
0.0
 10
127.6966
 20
15.9181
 30
0.0
 10
127.6966
 20
15.9181
 30
0.0
 10
128.4614
 20
15.4337
 30
0.0
 10
128.4614
 20
15.2582
 30
0.0
 10
127.6966
 20
14.7743
 30
0.0
 10
127.6966
 20
14.7743
 30
0.0
 10
127.1998
 20
14.4601
 30
0.0
 10
126.0356
 20
14.5917
 30
0.0
 10
125.5063
 20
12.6852
 30
0.0
 10
125.5063
 20
12.6852
 30
0.0
 10
125.5063
 20
12.6852
 30
0.0
 10
123.3818
 20
10.3511
 30
0.0
 10
118.6819
 20
10.8101
 30
0.0
 10
118.6819
 20
10.8101
 30
0.0
 10
121.2406
 20
8.5305
 30
0.0
 10
126.0438
 20
11.8609
 30
0.0
 10
126.0438
 20
11.8609
 30
0.0
 10
126.0438
 20
11.8609
 30
0.0
 10
128.9221
 20
12.2718
 30
0.0
 10
131.8107
 20
12.7034
 30
0.0
 10
134.3506
 20
11.3413
 30
0.0
 10
134.3506
 20
11.3413
 30
0.0
 10
136.1719
 20
10.3645
 30
0.0
 10
137.0537
 20
9.7471
 30
0.0
 10
137.0448
 20
8.5305
 30
0.0
  0
SPLINE
  5
61
330
1F
100
AcDbEntity
  8
layer 1
 62
     7
100
AcDbSpline
210
0.0
220
0.0
230
1.0
 70
    11
 71
     3
 72
   108
 73
   104
 74
     0
 42
0.0000000001
 43
0.0000000001
 12
1.0
 22
0.0
 32
0.0
 13
1.0
 23
0.0
 33
0.0
 40
0.0
 40
0.0
 40
0.0
 40
0.0
 40
0.037037037037037
 40
0.037037037037037
 40
0.037037037037037
 40
0.037037037037037
 40
0.0740740740740741
 40
0.0740740740740741
 40
0.0740740740740741
 40
0.0740740740740741
 40
0.1111111111111111
 40
0.1111111111111111
 40
0.1111111111111111
 40
0.1111111111111111
 40
0.1481481481481481
 40
0.1481481481481481
 40
0.1481481481481481
 40
0.1481481481481481
 40
0.1851851851851852
 40
0.1851851851851852
 40
0.1851851851851852
 40
0.1851851851851852
 40
0.2222222222222222
 40
0.2222222222222222
 40
0.2222222222222222
 40
0.2222222222222222
 40
0.2592592592592592
 40
0.2592592592592592
 40
0.2592592592592592
 40
0.2592592592592592
 40
0.2962962962962963
 40
0.2962962962962963
 40
0.2962962962962963
 40
0.2962962962962963
 40
0.3333333333333333
 40
0.3333333333333333
 40
0.3333333333333333
 40
0.3333333333333333
 40
0.3703703703703703
 40
0.3703703703703703
 40
0.3703703703703703
 40
0.3703703703703703
 40
0.4074074074074074
 40
0.4074074074074074
 40
0.4074074074074074
 40
0.4074074074074074
 40
0.4444444444444444
 40
0.4444444444444444
 40
0.4444444444444444
 40
0.4444444444444444
 40
0.4814814814814815
 40
0.4814814814814815
 40
0.4814814814814815
 40
0.4814814814814815
 40
0.5185185185185185
 40
0.5185185185185185
 40
0.5185185185185185
 40
0.5185185185185185
 40
0.5555555555555556
 40
0.5555555555555556
 40
0.5555555555555556
 40
0.5555555555555556
 40
0.5925925925925926
 40
0.5925925925925926
 40
0.5925925925925926
 40
0.5925925925925926
 40
0.6296296296296297
 40
0.6296296296296297
 40
0.6296296296296297
 40
0.6296296296296297
 40
0.6666666666666666
 40
0.6666666666666666
 40
0.6666666666666666
 40
0.6666666666666666
 40
0.7037037037037037
 40
0.7037037037037037
 40
0.7037037037037037
 40
0.7037037037037037
 40
0.7407407407407407
 40
0.7407407407407407
 40
0.7407407407407407
 40
0.7407407407407407
 40
0.7777777777777778
 40
0.7777777777777778
 40
0.7777777777777778
 40
0.7777777777777778
 40
0.8148148148148148
 40
0.8148148148148148
 40
0.8148148148148148
 40
0.8148148148148148
 40
0.8518518518518519
 40
0.8518518518518519
 40
0.8518518518518519
 40
0.8518518518518519
 40
0.8888888888888888
 40
0.8888888888888888
 40
0.8888888888888888
 40
0.8888888888888888
 40
0.9259259259259259
 40
0.9259259259259259
 40
0.9259259259259259
 40
0.9259259259259259
 40
1.0
 40
1.0
 40
1.0
 40
1.0
 10
51.4976
 20
-42.4725
 30
0.0
 10
49.2869
 20
-44.8151
 30
0.0
 10
47.2718
 20
-50.194
 30
0.0
 10
47.6358
 20
-51.5034
 30
0.0
 10
47.6358
 20
-51.5034
 30
0.0
 10
48.0141
 20
-52.864
 30
0.0
 10
50.1232
 20
-51.8097
 30
0.0
 10
52.1926
 20
-51.5353
 30
0.0
 10
52.1926
 20
-51.5353
 30
0.0
 10
59.3272
 20
-52.5662
 30
0.0
 10
50.6948
 20
-60.2029
 30
0.0
 10
58.8094
 20
-62.6746
 30
0.0
 10
58.8094
 20
-62.6746
 30
0.0
 10
53.1343
 20
-65.4338
 30
0.0
 10
50.1997
 20
-62.928
 30
0.0
 10
50.2079
 20
-58.728
 30
0.0
 10
50.2079
 20
-58.728
 30
0.0
 10
50.0168
 20
-55.4998
 30
0.0
 10
48.8105
 20
-54.8325
 30
0.0
 10
47.9231
 20
-56.2334
 30
0.0
 10
47.9231
 20
-56.2334
 30
0.0
 10
46.8972
 20
-57.8531
 30
0.0
 10
47.2934
 20
-59.7195
 30
0.0
 10
49.3053
 20
-62.7461
 30
0.0
 10
49.3053
 20
-62.7461
 30
0.0
 10
51.4162
 20
-65.9214
 30
0.0
 10
51.7112
 20
-67.9147
 30
0.0
 10
50.5595
 20
-71.2186
 30
0.0
 10
50.5595
 20
-71.2186
 30
0.0
 10
49.702
 20
-73.6785
 30
0.0
 10
49.1875
 20
-73.8148
 30
0.0
 10
48.3079
 20
-71.8154
 30
0.0
 10
48.3079
 20
-71.8154
 30
0.0
 10
47.95
 20
-71.0015
 30
0.0
 10
47.1639
 20
-70.243
 30
0.0
 10
46.5611
 20
-70.1299
 30
0.0
 10
46.5611
 20
-70.1299
 30
0.0
 10
45.6553
 20
-69.9597
 30
0.0
 10
45.5168
 20
-70.3596
 30
0.0
 10
45.7634
 20
-72.4336
 30
0.0
 10
45.7634
 20
-72.4336
 30
0.0
 10
45.9708
 20
-74.1774
 30
0.0
 10
45.6012
 20
-75.904
 30
0.0
 10
44.5519
 20
-78.0923
 30
0.0
 10
44.5519
 20
-78.0923
 30
0.0
 10
44.5519
 20
-78.0923
 30
0.0
 10
43.0419
 20
-81.2412
 30
0.0
 10
43.0419
 20
-81.2412
 30
0.0
 10
43.0419
 20
-81.2412
 30
0.0
 10
43.0419
 20
-81.2412
 30
0.0
 10
41.0965
 20
-78.7858
 30
0.0
 10
41.0965
 20
-78.7858
 30
0.0
 10
41.0965
 20
-78.7858
 30
0.0
 10
39.574
 20
-76.8638
 30
0.0
 10
39.0906
 20
-75.4931
 30
0.0
 10
38.8725
 20
-72.4772
 30
0.0
 10
38.8725
 20
-72.4772
 30
0.0
 10
38.563
 20
-68.2002
 30
0.0
 10
37.7507
 20
-67.8254
 30
0.0
 10
36.0465
 20
-71.1735
 30
0.0
 10
36.0465
 20
-71.1735
 30
0.0
 10
34.7451
 20
-73.7303
 30
0.0
 10
34.1413
 20
-73.2694
 30
0.0
 10
34.1413
 20
-69.7192
 30
0.0
 10
34.1413
 20
-69.7192
 30
0.0
 10
34.1413
 20
-65.7729
 30
0.0
 10
35.0149
 20
-63.3404
 30
0.0
 10
37.6912
 20
-59.8344
 30
0.0
 10
37.6912
 20
-59.8344
 30
0.0
 10
41.617
 20
-54.6912
 30
0.0
 10
40.6529
 20
-52.1336
 30
0.0
 10
36.0463
 20
-55.4709
 30
0.0
 10
36.0463
 20
-55.4709
 30
0.0
 10
32.4436
 20
-58.0806
 30
0.0
 10
30.5291
 20
-58.0707
 30
0.0
 10
29.1658
 20
-55.4343
 30
0.0
 10
29.1658
 20
-55.4343
 30
0.0
 10
27.8384
 20
-52.8672
 30
0.0
 10
28.2745
 20
-51.6076
 30
0.0
 10
30.3527
 20
-52.0048
 30
0.0
 10
30.3527
 20
-52.0048
 30
0.0
 10
31.5916
 20
-52.2415
 30
0.0
 10
32.6016
 20
-51.6208
 30
0.0
 10
34.9292
 20
-49.192
 30
0.0
 10
34.9292
 20
-49.192
 30
0.0
 10
37.4791
 20
-46.5312
 30
0.0
 10
38.1733
 20
-46.1398
 30
0.0
 10
39.6749
 20
-46.5168
 30
0.0
 10
39.6749
 20
-46.5168
 30
0.0
 10
40.9452
 20
-46.8355
 30
0.0
 10
41.5425
 20
-47.5026
 30
0.0
 10
41.8256
 20
-48.9184
 30
0.0
 10
41.8256
 20
-48.9184
 30
0.0
 10
42.4373
 20
-51.9774
 30
0.0
 10
44.3987
 20
-51.484
 30
0.0
 10
46.1113
 20
-47.8404
 30
0.0
 10
46.1113
 20
-47.8404
 30
0.0
 10
47.5416
 20
-44.7982
 30
0.0
 10
51.54
 20
-40.3298
 30
0.0
 10
52.8323
 20
-40.3298
 30
0.0
 10
52.8323
 20
-40.3298
 30
0.0
 10
53.2103
 20
-40.3298
 30
0.0
 10
52.6098
 20
-41.2942
 30
0.0
 10
51.4976
 20
-42.4725
 30
0.0
  0
SPLINE
  5
62
330
1F
100
AcDbEntity
  8
layer 1
 62
     7
100
AcDbSpline
210
0.0
220
0.0
230
1.0
 70
    11
 71
     3
 72
    20
 73
    16
 74
     0
 42
0.0000000001
 43
0.0000000001
 12
1.0
 22
0.0
 32
0.0
 13
1.0
 23
0.0
 33
0.0
 40
0.0
 40
0.0
 40
0.0
 40
0.0
 40
0.2
 40
0.2
 40
0.2
 40
0.2
 40
0.4
 40
0.4
 40
0.4
 40
0.4
 40
0.6
 40
0.6
 40
0.6
 40
0.6
 40
1.0
 40
1.0
 40
1.0
 40
1.0
 10
17.9905
 20
-82.1403
 30
0.0
 10
21.6856
 20
-86.2787
 30
0.0
 10
20.6595
 20
-84.2573
 30
0.0
 10
15.9105
 20
-78.044
 30
0.0
 10
15.9105
 20
-78.044
 30
0.0
 10
11.3492
 20
-72.0758
 30
0.0
 10
8.0981
 20
-66.044
 30
0.0
 10
7.31
 20
-62.0868
 30
0.0
 10
7.31
 20
-62.0868
 30
0.0
 10
7.0229
 20
-60.646
 30
0.0
 10
6.6653
 20
-60.405
 30
0.0
 10
6.5953
 20
-62.3093
 30
0.0
 10
6.5953
 20
-62.3093
 30
0.0
 10
8.6262
 20
-69.1486
 30
0.0
 10
13.2176
 20
-76.7058
 30
0.0
 10
17.9905
 20
-82.1403
 30
0.0
  0
SPLINE
  5
63
330
1F
100
AcDbEntity
  8
layer 1
 62
     7
100
AcDbSpline
210
0.0
220
0.0
230
1.0
 70
    11
 71
     3
 72
    24
 73
    20
 74
     0
 42
0.0000000001
 43
0.0000000001
 12
1.0
 22
0.0
 32
0.0
 13
1.0
 23
0.0
 33
0.0
 40
0.0
 40
0.0
 40
0.0
 40
0.0
 40
0.1666666666666667
 40
0.1666666666666667
 40
0.1666666666666667
 40
0.1666666666666667
 40
0.3333333333333333
 40
0.3333333333333333
 40
0.3333333333333333
 40
0.3333333333333333
 40
0.5
 40
0.5
 40
0.5
 40
0.5
 40
0.6666666666666666
 40
0.6666666666666666
 40
0.6666666666666666
 40
0.6666666666666666
 40
1.0
 40
1.0
 40
1.0
 40
1.0
 10
9.378
 20
-45.9696
 30
0.0
 10
8.5686
 20
-51.3669
 30
0.0
 10
10.9391
 20
-61.4274
 30
0.0
 10
13.0203
 20
-61.4274
 30
0.0
 10
13.0203
 20
-61.4274
 30
0.0
 10
13.4107
 20
-61.4274
 30
0.0
 10
13.0604
 20
-60.1665
 30
0.0
 10
12.2416
 20
-58.6254
 30
0.0
 10
12.2416
 20
-58.6254
 30
0.0
 10
10.9924
 20
-56.2736
 30
0.0
 10
10.7517
 20
-54.7904
 30
0.0
 10
10.7447
 20
-49.3959
 30
0.0
 10
10.7447
 20
-49.3959
 30
0.0
 10
10.7358
 20
-42.56
 30
0.0
 10
10.1205
 20
-41.0176
 30
0.0
 10
9.378
 20
-45.9693
 30
0.0
 10
9.378
 20
-45.9693
 30
0.0
 10
9.378
 20
-45.9693
 30
0.0
 10
9.378
 20
-45.9696
 30
0.0
 10
9.378
 20
-45.9696
 30
0.0
  0
SPLINE
  5
64
330
1F
100
AcDbEntity
  8
layer 1
 62
     7
100
AcDbSpline
210
0.0
220
0.0
230
1.0
 70
    11
 71
     3
 72
   124
 73
   120
 74
     0
 42
0.0000000001
 43
0.0000000001
 12
1.0
 22
0.0
 32
0.0
 13
1.0
 23
0.0
 33
0.0
 40
0.0
 40
0.0
 40
0.0
 40
0.0
 40
0.032258064516129
 40
0.032258064516129
 40
0.032258064516129
 40
0.032258064516129
 40
0.0645161290322581
 40
0.0645161290322581
 40
0.0645161290322581
 40
0.0645161290322581
 40
0.0967741935483871
 40
0.0967741935483871
 40
0.0967741935483871
 40
0.0967741935483871
 40
0.1290322580645161
 40
0.1290322580645161
 40
0.1290322580645161
 40
0.1290322580645161
 40
0.1612903225806452
 40
0.1612903225806452
 40
0.1612903225806452
 40
0.1612903225806452
 40
0.1935483870967742
 40
0.1935483870967742
 40
0.1935483870967742
 40
0.1935483870967742
 40
0.2258064516129032
 40
0.2258064516129032
 40
0.2258064516129032
 40
0.2258064516129032
 40
0.2580645161290323
 40
0.2580645161290323
 40
0.2580645161290323
 40
0.2580645161290323
 40
0.2903225806451613
 40
0.2903225806451613
 40
0.2903225806451613
 40
0.2903225806451613
 40
0.3225806451612903
 40
0.3225806451612903
 40
0.3225806451612903
 40
0.3225806451612903
 40
0.3548387096774194
 40
0.3548387096774194
 40
0.3548387096774194
 40
0.3548387096774194
 40
0.3870967741935484
 40
0.3870967741935484
 40
0.3870967741935484
 40
0.3870967741935484
 40
0.4193548387096774
 40
0.4193548387096774
 40
0.4193548387096774
 40
0.4193548387096774
 40
0.4516129032258064
 40
0.4516129032258064
 40
0.4516129032258064
 40
0.4516129032258064
 40
0.4838709677419355
 40
0.4838709677419355
 40
0.4838709677419355
 40
0.4838709677419355
 40
0.5161290322580645
 40
0.5161290322580645
 40
0.5161290322580645
 40
0.5161290322580645
 40
0.5483870967741935
 40
0.5483870967741935
 40
0.5483870967741935
 40
0.5483870967741935
 40
0.5806451612903226
 40
0.5806451612903226
 40
0.5806451612903226
 40
0.5806451612903226
 40
0.6129032258064516
 40
0.6129032258064516
 40
0.6129032258064516
 40
0.6129032258064516
 40
0.6451612903225806
 40
0.6451612903225806
 40
0.6451612903225806
 40
0.6451612903225806
 40
0.6774193548387096
 40
0.6774193548387096
 40
0.6774193548387096
 40
0.6774193548387096
 40
0.7096774193548387
 40
0.7096774193548387
 40
0.7096774193548387
 40
0.7096774193548387
 40
0.7419354838709677
 40
0.7419354838709677
 40
0.7419354838709677
 40
0.7419354838709677
 40
0.7741935483870968
 40
0.7741935483870968
 40
0.7741935483870968
 40
0.7741935483870968
 40
0.8064516129032258
 40
0.8064516129032258
 40
0.8064516129032258
 40
0.8064516129032258
 40
0.8387096774193549
 40
0.8387096774193549
 40
0.8387096774193549
 40
0.8387096774193549
 40
0.8709677419354839
 40
0.8709677419354839
 40
0.8709677419354839
 40
0.8709677419354839
 40
0.9032258064516129
 40
0.9032258064516129
 40
0.9032258064516129
 40
0.9032258064516129
 40
0.9354838709677419
 40
0.9354838709677419
 40
0.9354838709677419
 40
0.9354838709677419
 40
1.0
 40
1.0
 40
1.0
 40
1.0
 10
17.9663
 20
-44.2854
 30
0.0
 10
20.4549
 20
-44.2854
 30
0.0
 10
20.9022
 20
-44.9395
 30
0.0
 10
19.3144
 20
-46.2571
 30
0.0
 10
19.3144
 20
-46.2571
 30
0.0
 10
18.6917
 20
-46.7739
 30
0.0
 10
17.4864
 20
-46.9132
 30
0.0
 10
16.0179
 20
-46.6376
 30
0.0
 10
16.0179
 20
-46.6376
 30
0.0
 10
13.2194
 20
-46.1126
 30
0.0
 10
13.1708
 20
-46.5664
 30
0.0
 10
15.708
 20
-49.5346
 30
0.0
 10
15.708
 20
-49.5346
 30
0.0
 10
17.6466
 20
-51.873
 30
0.0
 10
17.8198
 20
-53.9806
 30
0.0
 10
17.6152
 20
-56.4821
 30
0.0
 10
17.6152
 20
-56.4821
 30
0.0
 10
16.6025
 20
-55.2833
 30
0.0
 10
15.551
 20
-54.0643
 30
0.0
 10
14.8266
 20
-52.6823
 30
0.0
 10
14.8266
 20
-52.6823
 30
0.0
 10
14.6003
 20
-52.0656
 30
0.0
 10
14.3305
 20
-52.0519
 30
0.0
 10
13.7182
 20
-52.6268
 30
0.0
 10
13.7182
 20
-52.6268
 30
0.0
 10
13.0841
 20
-53.2221
 30
0.0
 10
13.2238
 20
-53.8121
 30
0.0
 10
14.3636
 20
-55.3538
 30
0.0
 10
14.3636
 20
-55.3538
 30
0.0
 10
15.3925
 20
-56.7455
 30
0.0
 10
15.8463
 20
-58.3557
 30
0.0
 10
15.9145
 20
-60.8575
 30
0.0
 10
15.9145
 20
-60.8575
 30
0.0
 10
16.0025
 20
-64.0835
 30
0.0
 10
16.4131
 20
-64.145
 30
0.0
 10
15.6496
 20
-65.592
 30
0.0
 10
15.6496
 20
-65.592
 30
0.0
 10
12.4643
 20
-64.765
 30
0.0
 10
12.2715
 20
-64.0887
 30
0.0
 10
10.6082
 20
-62.3252
 30
0.0
 10
10.6082
 20
-62.3252
 30
0.0
 10
8.5646
 20
-60.1583
 30
0.0
 10
8.3174
 20
-60.0417
 30
0.0
 10
8.7552
 20
-61.4501
 30
0.0
 10
8.7552
 20
-61.4501
 30
0.0
 10
9.0331
 20
-62.3439
 30
0.0
 10
11.5952
 20
-65.516
 30
0.0
 10
14.4486
 20
-68.499
 30
0.0
 10
14.4486
 20
-68.499
 30
0.0
 10
19.8277
 20
-74.1223
 30
0.0
 10
20.7203
 20
-75.9172
 30
0.0
 10
18.1534
 20
-75.9513
 30
0.0
 10
18.1534
 20
-75.9513
 30
0.0
 10
16.8412
 20
-75.9688
 30
0.0
 10
16.9912
 20
-76.2541
 30
0.0
 10
19.4519
 20
-78.4237
 30
0.0
 10
19.4519
 20
-78.4237
 30
0.0
 10
22.9876
 20
-81.0421
 30
0.0
 10
25.5818
 20
-89.004
 30
0.0
 10
22.5271
 20
-94.6819
 30
0.0
 10
22.5271
 20
-94.6819
 30
0.0
 10
20.1085
 20
-93.2257
 30
0.0
 10
19.4634
 20
-87.0848
 30
0.0
 10
18.3735
 20
-84.7956
 30
0.0
 10
18.3735
 20
-84.7956
 30
0.0
 10
17.9075
 20
-83.8168
 30
0.0
 10
17.1423
 20
-84.1641
 30
0.0
 10
16.993
 20
-83.7223
 30
0.0
 10
16.993
 20
-83.7223
 30
0.0
 10
16.614
 20
-85.3169
 30
0.0
 10
14.8607
 20
-85.8668
 30
0.0
 10
14.0412
 20
-84.0039
 30
0.0
 10
14.0412
 20
-84.0039
 30
0.0
 10
13.6833
 20
-83.1901
 30
0.0
 10
13.164
 20
-82.5243
 30
0.0
 10
12.8874
 20
-82.5243
 30
0.0
 10
12.8874
 20
-82.5243
 30
0.0
 10
11.7178
 20
-82.5243
 30
0.0
 10
12.5605
 20
-84.216
 30
0.0
 10
15.1059
 20
-86.9774
 30
0.0
 10
15.1059
 20
-86.9774
 30
0.0
 10
17.82
 20
-89.922
 30
0.0
 10
18.2725
 20
-91.3688
 30
0.0
 10
17.3177
 20
-94.8945
 30
0.0
 10
17.3177
 20
-94.8945
 30
0.0
 10
16.0072
 20
-98.9288
 30
0.0
 10
16.9843
 20
-101.3127
 30
0.0
 10
17.7515
 20
-104.9273
 30
0.0
 10
17.7515
 20
-104.9273
 30
0.0
 10
14.6933
 20
-104.0343
 30
0.0
 10
13.703
 20
-100.544
 30
0.0
 10
13.703
 20
-99.1196
 30
0.0
 10
13.703
 20
-99.1196
 30
0.0
 10
13.703
 20
-97.0362
 30
0.0
 10
11.8204
 20
-97.3454
 30
0.0
 10
11.3794
 20
-99.5011
 30
0.0
 10
11.3794
 20
-99.5011
 30
0.0
 10
11.2428
 20
-101.6453
 30
0.0
 10
8.9297
 20
-106.0858
 30
0.0
 10
5.5111
 20
-106.8578
 30
0.0
 10
5.5111
 20
-106.8578
 30
0.0
 10
5.3452
 20
-106.6918
 30
0.0
 10
6.1062
 20
-104.7469
 30
0.0
 10
7.2021
 20
-102.5357
 30
0.0
 10
7.2021
 20
-102.5357
 30
0.0
 10
11.3844
 20
-94.0978
 30
0.0
 10
10.8549
 20
-82.5268
 30
0.0
 10
5.4037
 20
-63.2258
 30
0.0
 10
5.4037
 20
-63.2258
 30
0.0
 10
2.9393
 20
-56.1156
 30
0.0
 10
3.4544
 20
-47.2058
 30
0.0
 10
8.4096
 20
-41.6677
 30
0.0
 10
8.4096
 20
-41.6677
 30
0.0
 10
10.8863
 20
-39.0164
 30
0.0
 10
12.5807
 20
-39.1058
 30
0.0
 10
14.2749
 20
-41.9772
 30
0.0
 10
14.2749
 20
-41.9772
 30
0.0
 10
14.843
 20
-43.6816
 30
0.0
 10
16.3531
 20
-44.2854
 30
0.0
 10
17.9663
 20
-44.2854
 30
0.0
  0
SPLINE
  5
65
330
1F
100
AcDbEntity
  8
layer 1
 62
     7
100
AcDbSpline
210
0.0
220
0.0
230
1.0
 70
    11
 71
     3
 72
    36
 73
    32
 74
     0
 42
0.0000000001
 43
0.0000000001
 12
1.0
 22
0.0
 32
0.0
 13
1.0
 23
0.0
 33
0.0
 40
0.0
 40
0.0
 40
0.0
 40
0.0
 40
0.1111111111111111
 40
0.1111111111111111
 40
0.1111111111111111
 40
0.1111111111111111
 40
0.2222222222222222
 40
0.2222222222222222
 40
0.2222222222222222
 40
0.2222222222222222
 40
0.3333333333333333
 40
0.3333333333333333
 40
0.3333333333333333
 40
0.3333333333333333
 40
0.4444444444444444
 40
0.4444444444444444
 40
0.4444444444444444
 40
0.4444444444444444
 40
0.5555555555555556
 40
0.5555555555555556
 40
0.5555555555555556
 40
0.5555555555555556
 40
0.6666666666666666
 40
0.6666666666666666
 40
0.6666666666666666
 40
0.6666666666666666
 40
0.7777777777777778
 40
0.7777777777777778
 40
0.7777777777777778
 40
0.7777777777777778
 40
1.0
 40
1.0
 40
1.0
 40
1.0
 10
67.4359
 20
-33.7369
 30
0.0
 10
68.0686
 20
-34.7608
 30
0.0
 10
67.1768
 20
-35.7144
 30
0.0
 10
65.584
 20
-35.7172
 30
0.0
 10
65.584
 20
-35.7172
 30
0.0
 10
61.7326
 20
-35.7237
 30
0.0
 10
57.8762
 20
-40.1594
 30
0.0
 10
57.8762
 20
-44.5824
 30
0.0
 10
57.8762
 20
-44.5824
 30
0.0
 10
57.8762
 20
-45.8694
 30
0.0
 10
57.5899
 20
-46.9227
 30
0.0
 10
57.2401
 20
-46.9227
 30
0.0
 10
57.2401
 20
-46.9227
 30
0.0
 10
54.8414
 20
-44.7042
 30
0.0
 10
55.2389
 20
-42.1314
 30
0.0
 10
55.2389
 20
-39.0941
 30
0.0
 10
55.2389
 20
-39.0941
 30
0.0
 10
52.682
 20
-39.6034
 30
0.0
 10
47.4758
 20
-40.4427
 30
0.0
 10
47.3273
 20
-35.5801
 30
0.0
 10
47.3273
 20
-35.5801
 30
0.0
 10
47.3273
 20
-34.4471
 30
0.0
 10
47.4766
 20
-34.467
 30
0.0
 10
49.3467
 20
-35.8498
 30
0.0
 10
49.3467
 20
-35.8498
 30
0.0
 10
51.779
 20
-37.7563
 30
0.0
 10
54.4218
 20
-36.2649
 30
0.0
 10
57.423
 20
-35.2064
 30
0.0
 10
57.423
 20
-35.2064
 30
0.0
 10
63.6177
 20
-33.0218
 30
0.0
 10
66.713
 20
-32.5673
 30
0.0
 10
67.4359
 20
-33.7369
 30
0.0
  0
SPLINE
  5
66
330
1F
100
AcDbEntity
  8
layer 1
 62
     7
100
AcDbSpline
210
0.0
220
0.0
230
1.0
 70
    11
 71
     3
 72
   120
 73
   116
 74
     0
 42
0.0000000001
 43
0.0000000001
 12
1.0
 22
0.0
 32
0.0
 13
1.0
 23
0.0
 33
0.0
 40
0.0
 40
0.0
 40
0.0
 40
0.0
 40
0.0333333333333333
 40
0.0333333333333333
 40
0.0333333333333333
 40
0.0333333333333333
 40
0.0666666666666667
 40
0.0666666666666667
 40
0.0666666666666667
 40
0.0666666666666667
 40
0.1
 40
0.1
 40
0.1
 40
0.1
 40
0.1333333333333333
 40
0.1333333333333333
 40
0.1333333333333333
 40
0.1333333333333333
 40
0.1666666666666667
 40
0.1666666666666667
 40
0.1666666666666667
 40
0.1666666666666667
 40
0.2
 40
0.2
 40
0.2
 40
0.2
 40
0.2333333333333333
 40
0.2333333333333333
 40
0.2333333333333333
 40
0.2333333333333333
 40
0.2666666666666667
 40
0.2666666666666667
 40
0.2666666666666667
 40
0.2666666666666667
 40
0.3
 40
0.3
 40
0.3
 40
0.3
 40
0.3333333333333333
 40
0.3333333333333333
 40
0.3333333333333333
 40
0.3333333333333333
 40
0.3666666666666666
 40
0.3666666666666666
 40
0.3666666666666666
 40
0.3666666666666666
 40
0.4
 40
0.4
 40
0.4
 40
0.4
 40
0.4333333333333333
 40
0.4333333333333333
 40
0.4333333333333333
 40
0.4333333333333333
 40
0.4666666666666667
 40
0.4666666666666667
 40
0.4666666666666667
 40
0.4666666666666667
 40
0.5
 40
0.5
 40
0.5
 40
0.5
 40
0.5333333333333333
 40
0.5333333333333333
 40
0.5333333333333333
 40
0.5333333333333333
 40
0.5666666666666667
 40
0.5666666666666667
 40
0.5666666666666667
 40
0.5666666666666667
 40
0.6
 40
0.6
 40
0.6
 40
0.6
 40
0.6333333333333333
 40
0.6333333333333333
 40
0.6333333333333333
 40
0.6333333333333333
 40
0.6666666666666666
 40
0.6666666666666666
 40
0.6666666666666666
 40
0.6666666666666666
 40
0.7
 40
0.7
 40
0.7
 40
0.7
 40
0.7333333333333333
 40
0.7333333333333333
 40
0.7333333333333333
 40
0.7333333333333333
 40
0.7666666666666667
 40
0.7666666666666667
 40
0.7666666666666667
 40
0.7666666666666667
 40
0.8
 40
0.8
 40
0.8
 40
0.8
 40
0.8333333333333334
 40
0.8333333333333334
 40
0.8333333333333334
 40
0.8333333333333334
 40
0.8666666666666667
 40
0.8666666666666667
 40
0.8666666666666667
 40
0.8666666666666667
 40
0.9
 40
0.9
 40
0.9
 40
0.9
 40
0.9333333333333333
 40
0.9333333333333333
 40
0.9333333333333333
 40
0.9333333333333333
 40
1.0
 40
1.0
 40
1.0
 40
1.0
 10
33.6514
 20
-26.394
 30
0.0
 10
34.7286
 20
-25.8174
 30
0.0
 10
34.92
 20
-25.8535
 30
0.0
 10
34.5998
 20
-26.5727
 30
0.0
 10
34.5998
 20
-26.5727
 30
0.0
 10
23.69
 20
-45.7142
 30
0.0
 10
20.4571
 20
-70.408
 30
0.0
 10
36.826
 20
-87.2929
 30
0.0
 10
36.826
 20
-87.2929
 30
0.0
 10
49.1197
 20
-99.5866
 30
0.0
 10
72.3316
 20
-102.143
 30
0.0
 10
79.9444
 20
-88.2218
 30
0.0
 10
79.9444
 20
-88.2218
 30
0.0
 10
86.6631
 20
-75.1955
 30
0.0
 10
73.3642
 20
-67.1698
 30
0.0
 10
65.8481
 20
-73.826
 30
0.0
 10
65.8481
 20
-73.826
 30
0.0
 10
61.4762
 20
-78.2146
 30
0.0
 10
64.0542
 20
-83.3658
 30
0.0
 10
67.1304
 20
-84.4442
 30
0.0
 10
67.1304
 20
-84.4442
 30
0.0
 10
69.761
 20
-85.3667
 30
0.0
 10
73.1811
 20
-83.7764
 30
0.0
 10
72.7729
 20
-80.1478
 30
0.0
 10
72.7729
 20
-80.1478
 30
0.0
 10
72.3211
 20
-78.9749
 30
0.0
 10
72.2521
 20
-78.9692
 30
0.0
 10
71.6441
 20
-80.0524
 30
0.0
 10
71.6441
 20
-80.0524
 30
0.0
 10
70.2644
 20
-82.5103
 30
0.0
 10
67.1062
 20
-80.9532
 30
0.0
 10
67.1062
 20
-77.8152
 30
0.0
 10
67.1062
 20
-77.8152
 30
0.0
 10
67.1062
 20
-74.2003
 30
0.0
 10
71.5651
 20
-73.0997
 30
0.0
 10
75.6071
 20
-75.5641
 30
0.0
 10
75.6071
 20
-75.5641
 30
0.0
 10
79.4877
 20
-77.9301
 30
0.0
 10
79.7787
 20
-83.4241
 30
0.0
 10
76.8573
 20
-86.9535
 30
0.0
 10
76.8573
 20
-86.9535
 30
0.0
 10
68.711
 20
-96.0768
 30
0.0
 10
53.0383
 20
-90.9008
 30
0.0
 10
53.4647
 20
-76.1228
 30
0.0
 10
53.4647
 20
-76.1228
 30
0.0
 10
54.3722
 20
-59.2211
 30
0.0
 10
75.097
 20
-57.0371
 30
0.0
 10
85.7688
 20
-64.4859
 30
0.0
 10
85.7688
 20
-64.4859
 30
0.0
 10
93.8057
 20
-70.0292
 30
0.0
 10
94.5378
 20
-83.9329
 30
0.0
 10
90.598
 20
-91.0625
 30
0.0
 10
90.598
 20
-91.0625
 30
0.0
 10
85.1112
 20
-101.4911
 30
0.0
 10
71.5958
 20
-108.3005
 30
0.0
 10
58.3126
 20
-107.329
 30
0.0
 10
58.3126
 20
-107.329
 30
0.0
 10
46.1447
 20
-106.4389
 30
0.0
 10
37.0164
 20
-102.6047
 30
0.0
 10
29.7385
 20
-95.3271
 30
0.0
 10
29.7385
 20
-95.3271
 30
0.0
 10
25.6982
 20
-91.2868
 30
0.0
 10
24.911
 20
-90.1458
 30
0.0
 10
24.908
 20
-88.3255
 30
0.0
 10
24.908
 20
-88.3255
 30
0.0
 10
24.9021
 20
-84.9189
 30
0.0
 10
23.633
 20
-81.1862
 30
0.0
 10
21.8867
 20
-79.4396
 30
0.0
 10
21.8867
 20
-79.4396
 30
0.0
 10
20.7238
 20
-78.2767
 30
0.0
 10
20.3976
 20
-77.4078
 30
0.0
 10
20.6886
 20
-76.2478
 30
0.0
 10
20.6886
 20
-76.2478
 30
0.0
 10
20.9565
 20
-75.1806
 30
0.0
 10
20.5765
 20
-73.8303
 30
0.0
 10
19.5389
 20
-72.1612
 30
0.0
 10
19.5389
 20
-72.1612
 30
0.0
 10
18.2651
 20
-70.1125
 30
0.0
 10
17.9803
 20
-68.7292
 30
0.0
 10
17.9394
 20
-64.3942
 30
0.0
 10
17.9394
 20
-64.3942
 30
0.0
 10
17.9095
 20
-61.2253
 30
0.0
 10
18.2763
 20
-58.1098
 30
0.0
 10
18.8581
 20
-56.5898
 30
0.0
 10
18.8581
 20
-56.5898
 30
0.0
 10
19.7268
 20
-54.3205
 30
0.0
 10
19.7141
 20
-53.8241
 30
0.0
 10
18.7358
 20
-51.7723
 30
0.0
 10
18.7358
 20
-51.7723
 30
0.0
 10
18.7358
 20
-51.7723
 30
0.0
 10
17.6451
 20
-49.4848
 30
0.0
 10
17.6451
 20
-49.4848
 30
0.0
 10
17.6451
 20
-49.4848
 30
0.0
 10
17.6451
 20
-49.4848
 30
0.0
 10
20.0148
 20
-47.2499
 30
0.0
 10
20.0148
 20
-47.2499
 30
0.0
 10
20.0148
 20
-47.2499
 30
0.0
 10
22.4728
 20
-44.9317
 30
0.0
 10
22.8924
 20
-42.4666
 30
0.0
 10
20.7671
 20
-42.8309
 30
0.0
 10
20.7671
 20
-42.8309
 30
0.0
 10
20.1457
 20
-42.9375
 30
0.0
 10
19.6373
 20
-42.6719
 30
0.0
 10
19.6373
 20
-42.2408
 30
0.0
 10
19.6373
 20
-42.2408
 30
0.0
 10
19.6373
 20
-40.279
 30
0.0
 10
24.5684
 20
-31.507
 30
0.0
 10
27.4061
 20
-28.4208
 30
0.0
 10
27.4061
 20
-28.4208
 30
0.0
 10
30.201
 20
-25.3813
 30
0.0
 10
30.6457
 20
-25.1199
 30
0.0
 10
31.4254
 20
-26.0596
 30
0.0
 10
31.4254
 20
-26.0596
 30
0.0
 10
31.6826
 20
-26.2866
 30
0.0
 10
32.3018
 20
-26.9193
 30
0.0
 10
33.6514
 20
-26.394
 30
0.0
  0
SPLINE
  5
67
330
1F
100
AcDbEntity
  8
layer 1
 62
     7
100
AcDbSpline
210
0.0
220
0.0
230
1.0
 70
    11
 71
     3
 72
    72
 73
    68
 74
     0
 42
0.0000000001
 43
0.0000000001
 12
1.0
 22
0.0
 32
0.0
 13
1.0
 23
0.0
 33
0.0
 40
0.0
 40
0.0
 40
0.0
 40
0.0
 40
0.0555555555555556
 40
0.0555555555555556
 40
0.0555555555555556
 40
0.0555555555555556
 40
0.1111111111111111
 40
0.1111111111111111
 40
0.1111111111111111
 40
0.1111111111111111
 40
0.1666666666666667
 40
0.1666666666666667
 40
0.1666666666666667
 40
0.1666666666666667
 40
0.2222222222222222
 40
0.2222222222222222
 40
0.2222222222222222
 40
0.2222222222222222
 40
0.2777777777777778
 40
0.2777777777777778
 40
0.2777777777777778
 40
0.2777777777777778
 40
0.3333333333333333
 40
0.3333333333333333
 40
0.3333333333333333
 40
0.3333333333333333
 40
0.3888888888888889
 40
0.3888888888888889
 40
0.3888888888888889
 40
0.3888888888888889
 40
0.4444444444444444
 40
0.4444444444444444
 40
0.4444444444444444
 40
0.4444444444444444
 40
0.5
 40
0.5
 40
0.5
 40
0.5
 40
0.5555555555555556
 40
0.5555555555555556
 40
0.5555555555555556
 40
0.5555555555555556
 40
0.6111111111111112
 40
0.6111111111111112
 40
0.6111111111111112
 40
0.6111111111111112
 40
0.6666666666666666
 40
0.6666666666666666
 40
0.6666666666666666
 40
0.6666666666666666
 40
0.7222222222222222
 40
0.7222222222222222
 40
0.7222222222222222
 40
0.7222222222222222
 40
0.7777777777777778
 40
0.7777777777777778
 40
0.7777777777777778
 40
0.7777777777777778
 40
0.8333333333333334
 40
0.8333333333333334
 40
0.8333333333333334
 40
0.8333333333333334
 40
0.8888888888888888
 40
0.8888888888888888
 40
0.8888888888888888
 40
0.8888888888888888
 40
1.0
 40
1.0
 40
1.0
 40
1.0
 10
66.3786
 20
-25.8568
 30
0.0
 10
67.5266
 20
-29.6887
 30
0.0
 10
70.2694
 20
-31.274
 30
0.0
 10
75.0759
 20
-30.8838
 30
0.0
 10
75.0759
 20
-30.8838
 30
0.0
 10
79.1702
 20
-30.5514
 30
0.0
 10
82.1442
 20
-29.2511
 30
0.0
 10
85.5024
 20
-26.325
 30
0.0
 10
85.5024
 20
-26.325
 30
0.0
 10
87.4224
 20
-24.6522
 30
0.0
 10
87.8291
 20
-24.5191
 30
0.0
 10
88.3234
 20
-25.403
 30
0.0
 10
88.3234
 20
-25.403
 30
0.0
 10
89.1831
 20
-26.939
 30
0.0
 10
87.4678
 20
-30.4517
 30
0.0
 10
84.65
 20
-32.9256
 30
0.0
 10
84.65
 20
-32.9256
 30
0.0
 10
83.3124
 20
-34.1
 30
0.0
 10
79.1211
 20
-37.1385
 30
0.0
 10
75.3358
 20
-39.6782
 30
0.0
 10
75.3358
 20
-39.6782
 30
0.0
 10
68.3081
 20
-44.3932
 30
0.0
 10
66.202
 20
-46.8318
 30
0.0
 10
66.889
 20
-49.4586
 30
0.0
 10
66.889
 20
-49.4586
 30
0.0
 10
67.4058
 20
-51.4349
 30
0.0
 10
66.1643
 20
-51.2403
 30
0.0
 10
65.2344
 20
-49.199
 30
0.0
 10
65.2344
 20
-49.199
 30
0.0
 10
64.1058
 20
-46.7221
 30
0.0
 10
64.2952
 20
-45.1582
 30
0.0
 10
65.9047
 20
-43.6587
 30
0.0
 10
65.9047
 20
-43.6587
 30
0.0
 10
66.6941
 20
-42.9231
 30
0.0
 10
67.1817
 20
-42.1628
 30
0.0
 10
66.9879
 20
-41.9692
 30
0.0
 10
66.9879
 20
-41.9692
 30
0.0
 10
66.3223
 20
-41.3036
 30
0.0
 10
64.3582
 20
-42.4922
 30
0.0
 10
63.8257
 20
-43.8824
 30
0.0
 10
63.8257
 20
-43.8824
 30
0.0
 10
63.3104
 20
-45.2275
 30
0.0
 10
63.278
 20
-45.218
 30
0.0
 10
62.8554
 20
-43.6001
 30
0.0
 10
62.8554
 20
-43.6001
 30
0.0
 10
61.7438
 20
-39.3443
 30
0.0
 10
65.2115
 20
-36.4343
 30
0.0
 10
71.9932
 20
-35.9317
 30
0.0
 10
71.9932
 20
-35.9317
 30
0.0
 10
77.2415
 20
-35.5428
 30
0.0
 10
78.9738
 20
-35.1662
 30
0.0
 10
78.9738
 20
-34.4142
 30
0.0
 10
78.9738
 20
-34.4142
 30
0.0
 10
78.9738
 20
-34.0651
 30
0.0
 10
77.5854
 20
-33.9629
 30
0.0
 10
75.7681
 20
-34.1782
 30
0.0
 10
75.7681
 20
-34.1782
 30
0.0
 10
68.643
 20
-35.0222
 30
0.0
 10
62.7136
 20
-30.2825
 30
0.0
 10
64.0807
 20
-24.8358
 30
0.0
 10
64.0807
 20
-24.8358
 30
0.0
 10
64.6782
 20
-22.4554
 30
0.0
 10
65.4644
 20
-22.8045
 30
0.0
 10
66.3786
 20
-25.8563
 30
0.0
 10
66.3786
 20
-25.8563
 30
0.0
 10
66.3786
 20
-25.8563
 30
0.0
 10
66.3786
 20
-25.8568
 30
0.0
 10
66.3786
 20
-25.8568
 30
0.0
  0
SPLINE
  5
68
330
1F
100
AcDbEntity
  8
layer 1
 62
     7
100
AcDbSpline
210
0.0
220
0.0
230
1.0
 70
    11
 71
     3
 72
    32
 73
    28
 74
     0
 42
0.0000000001
 43
0.0000000001
 12
1.0
 22
0.0
 32
0.0
 13
1.0
 23
0.0
 33
0.0
 40
0.0
 40
0.0
 40
0.0
 40
0.0
 40
0.125
 40
0.125
 40
0.125
 40
0.125
 40
0.25
 40
0.25
 40
0.25
 40
0.25
 40
0.375
 40
0.375
 40
0.375
 40
0.375
 40
0.5
 40
0.5
 40
0.5
 40
0.5
 40
0.625
 40
0.625
 40
0.625
 40
0.625
 40
0.75
 40
0.75
 40
0.75
 40
0.75
 40
1.0
 40
1.0
 40
1.0
 40
1.0
 10
20.9555
 20
-23.9774
 30
0.0
 10
20.9555
 20
-24.8864
 30
0.0
 10
20.2147
 20
-26.6384
 30
0.0
 10
19.3092
 20
-27.8707
 30
0.0
 10
19.3092
 20
-27.8707
 30
0.0
 10
17.7744
 20
-29.9588
 30
0.0
 10
15.1675
 20
-33.0918
 30
0.0
 10
13.8989
 20
-39.4731
 30
0.0
 10
13.8989
 20
-39.4731
 30
0.0
 10
13.0173
 20
-38.2982
 30
0.0
 10
11.7123
 20
-38.5359
 30
0.0
 10
10.3176
 20
-38.4781
 30
0.0
 10
10.3176
 20
-38.4781
 30
0.0
 10
10.8536
 20
-33.8396
 30
0.0
 10
15.4867
 20
-27.7119
 30
0.0
 10
16.8684
 20
-26.1553
 30
0.0
 10
16.8684
 20
-26.1553
 30
0.0
 10
17.512
 20
-25.4302
 30
0.0
 10
18.6952
 20
-24.2714
 30
0.0
 10
19.4973
 20
-23.5807
 30
0.0
 10
19.4973
 20
-23.5807
 30
0.0
 10
20.9485
 20
-22.3311
 30
0.0
 10
20.9558
 20
-22.3331
 30
0.0
 10
20.9558
 20
-23.9777
 30
0.0
 10
20.9558
 20
-23.9777
 30
0.0
 10
20.9558
 20
-23.9777
 30
0.0
 10
20.9555
 20
-23.9774
 30
0.0
 10
20.9555
 20
-23.9774
 30
0.0
  0
SPLINE
  5
69
330
1F
100
AcDbEntity
  8
layer 1
 62
     7
100
AcDbSpline
210
0.0
220
0.0
230
1.0
 70
    11
 71
     3
 72
   192
 73
   188
 74
     0
 42
0.0000000001
 43
0.0000000001
 12
1.0
 22
0.0
 32
0.0
 13
1.0
 23
0.0
 33
0.0
 40
0.0
 40
0.0
 40
0.0
 40
0.0
 40
0.0208333333333333
 40
0.0208333333333333
 40
0.0208333333333333
 40
0.0208333333333333
 40
0.0416666666666667
 40
0.0416666666666667
 40
0.0416666666666667
 40
0.0416666666666667
 40
0.0625
 40
0.0625
 40
0.0625
 40
0.0625
 40
0.0833333333333333
 40
0.0833333333333333
 40
0.0833333333333333
 40
0.0833333333333333
 40
0.1041666666666667
 40
0.1041666666666667
 40
0.1041666666666667
 40
0.1041666666666667
 40
0.125
 40
0.125
 40
0.125
 40
0.125
 40
0.1458333333333333
 40
0.1458333333333333
 40
0.1458333333333333
 40
0.1458333333333333
 40
0.1666666666666667
 40
0.1666666666666667
 40
0.1666666666666667
 40
0.1666666666666667
 40
0.1875
 40
0.1875
 40
0.1875
 40
0.1875
 40
0.2083333333333333
 40
0.2083333333333333
 40
0.2083333333333333
 40
0.2083333333333333
 40
0.2291666666666667
 40
0.2291666666666667
 40
0.2291666666666667
 40
0.2291666666666667
 40
0.25
 40
0.25
 40
0.25
 40
0.25
 40
0.2708333333333333
 40
0.2708333333333333
 40
0.2708333333333333
 40
0.2708333333333333
 40
0.2916666666666667
 40
0.2916666666666667
 40
0.2916666666666667
 40
0.2916666666666667
 40
0.3125
 40
0.3125
 40
0.3125
 40
0.3125
 40
0.3333333333333333
 40
0.3333333333333333
 40
0.3333333333333333
 40
0.3333333333333333
 40
0.3541666666666667
 40
0.3541666666666667
 40
0.3541666666666667
 40
0.3541666666666667
 40
0.375
 40
0.375
 40
0.375
 40
0.375
 40
0.3958333333333333
 40
0.3958333333333333
 40
0.3958333333333333
 40
0.3958333333333333
 40
0.4166666666666667
 40
0.4166666666666667
 40
0.4166666666666667
 40
0.4166666666666667
 40
0.4375
 40
0.4375
 40
0.4375
 40
0.4375
 40
0.4583333333333333
 40
0.4583333333333333
 40
0.4583333333333333
 40
0.4583333333333333
 40
0.4791666666666667
 40
0.4791666666666667
 40
0.4791666666666667
 40
0.4791666666666667
 40
0.5
 40
0.5
 40
0.5
 40
0.5
 40
0.5208333333333334
 40
0.5208333333333334
 40
0.5208333333333334
 40
0.5208333333333334
 40
0.5416666666666666
 40
0.5416666666666666
 40
0.5416666666666666
 40
0.5416666666666666
 40
0.5625
 40
0.5625
 40
0.5625
 40
0.5625
 40
0.5833333333333334
 40
0.5833333333333334
 40
0.5833333333333334
 40
0.5833333333333334
 40
0.6041666666666666
 40
0.6041666666666666
 40
0.6041666666666666
 40
0.6041666666666666
 40
0.625
 40
0.625
 40
0.625
 40
0.625
 40
0.6458333333333334
 40
0.6458333333333334
 40
0.6458333333333334
 40
0.6458333333333334
 40
0.6666666666666666
 40
0.6666666666666666
 40
0.6666666666666666
 40
0.6666666666666666
 40
0.6875
 40
0.6875
 40
0.6875
 40
0.6875
 40
0.7083333333333334
 40
0.7083333333333334
 40
0.7083333333333334
 40
0.7083333333333334
 40
0.7291666666666666
 40
0.7291666666666666
 40
0.7291666666666666
 40
0.7291666666666666
 40
0.75
 40
0.75
 40
0.75
 40
0.75
 40
0.7708333333333334
 40
0.7708333333333334
 40
0.7708333333333334
 40
0.7708333333333334
 40
0.7916666666666666
 40
0.7916666666666666
 40
0.7916666666666666
 40
0.7916666666666666
 40
0.8125
 40
0.8125
 40
0.8125
 40
0.8125
 40
0.8333333333333334
 40
0.8333333333333334
 40
0.8333333333333334
 40
0.8333333333333334
 40
0.8541666666666666
 40
0.8541666666666666
 40
0.8541666666666666
 40
0.8541666666666666
 40
0.875
 40
0.875
 40
0.875
 40
0.875
 40
0.8958333333333334
 40
0.8958333333333334
 40
0.8958333333333334
 40
0.8958333333333334
 40
0.9166666666666666
 40
0.9166666666666666
 40
0.9166666666666666
 40
0.9166666666666666
 40
0.9375
 40
0.9375
 40
0.9375
 40
0.9375
 40
0.9583333333333334
 40
0.9583333333333334
 40
0.9583333333333334
 40
0.9583333333333334
 40
1.0
 40
1.0
 40
1.0
 40
1.0
 10
16.3197
 20
6.9108
 30
0.0
 10
19.7021
 20
6.038
 30
0.0
 10
22.2739
 20
2.9401
 30
0.0
 10
22.2739
 20
-0.2609
 30
0.0
 10
22.2739
 20
-0.2609
 30
0.0
 10
22.2739
 20
-4.3243
 30
0.0
 10
16.006
 20
-7.8321
 30
0.0
 10
13.703
 20
-5.0574
 30
0.0
 10
13.703
 20
-5.0574
 30
0.0
 10
13.0006
 20
-4.211
 30
0.0
 10
13.2096
 20
-4.0684
 30
0.0
 10
15.1555
 20
-4.0684
 30
0.0
 10
15.1555
 20
-4.0684
 30
0.0
 10
17.5385
 20
-4.0684
 30
0.0
 10
20.2959
 20
-1.914
 30
0.0
 10
20.2959
 20
-0.0521
 30
0.0
 10
20.2959
 20
-0.0521
 30
0.0
 10
20.2959
 20
1.3867
 30
0.0
 10
18.3834
 20
3.8432
 30
0.0
 10
17.2631
 20
3.8432
 30
0.0
 10
17.2631
 20
3.8432
 30
0.0
 10
16.5377
 20
3.8432
 30
0.0
 10
16.3334
 20
3.21
 30
0.0
 10
16.4764
 20
1.4071
 30
0.0
 10
16.4764
 20
1.4071
 30
0.0
 10
16.6626
 20
-0.9389
 30
0.0
 10
16.5604
 20
-1.0675
 30
0.0
 10
13.706
 20
-2.0742
 30
0.0
 10
13.706
 20
-2.0742
 30
0.0
 10
11.2732
 20
-2.9324
 30
0.0
 10
10.7669
 20
-3.113
 30
0.0
 10
10.4716
 20
-4.7203
 30
0.0
 10
10.4716
 20
-4.7203
 30
0.0
 10
10.119
 20
-6.6372
 30
0.0
 10
10.0056
 20
-7.0053
 30
0.0
 10
9.2255
 20
-5.5952
 30
0.0
 10
9.2255
 20
-5.5952
 30
0.0
 10
7.9536
 20
-3.2964
 30
0.0
 10
8.2302
 20
1.0074
 30
0.0
 10
9.7472
 20
2.5245
 30
0.0
 10
9.7472
 20
2.5245
 30
0.0
 10
10.4724
 20
3.2496
 30
0.0
 10
11.4933
 20
3.8432
 30
0.0
 10
12.0158
 20
3.8432
 30
0.0
 10
12.0158
 20
3.8432
 30
0.0
 10
12.5383
 20
3.8432
 30
0.0
 10
13.1491
 20
4.1399
 30
0.0
 10
13.3734
 20
4.5025
 30
0.0
 10
13.3734
 20
4.5025
 30
0.0
 10
14.2704
 20
5.954
 30
0.0
 10
10.2665
 20
5.0786
 30
0.0
 10
8.8073
 20
3.5043
 30
0.0
 10
8.8073
 20
3.5043
 30
0.0
 10
5.4381
 20
-0.1311
 30
0.0
 10
6.1423
 20
-5.4972
 30
0.0
 10
10.5556
 20
-9.8181
 30
0.0
 10
10.5556
 20
-9.8181
 30
0.0
 10
14.0138
 20
-13.2035
 30
0.0
 10
17.2554
 20
-14.6171
 30
0.0
 10
21.5613
 20
-14.6171
 30
0.0
 10
21.5613
 20
-14.6171
 30
0.0
 10
29.1462
 20
-14.6171
 30
0.0
 10
36.206
 20
-12.0084
 30
0.0
 10
49.9275
 20
-4.1357
 30
0.0
 10
49.9275
 20
-4.1357
 30
0.0
 10
49.9275
 20
-4.1357
 30
0.0
 10
59.1655
 20
1.1644
 30
0.0
 10
59.1655
 20
1.1644
 30
0.0
 10
59.1655
 20
1.1644
 30
0.0
 10
59.1655
 20
1.1644
 30
0.0
 10
61.9295
 20
-0.0095
 30
0.0
 10
61.9295
 20
-0.0095
 30
0.0
 10
61.9295
 20
-0.0095
 30
0.0
 10
61.9295
 20
-0.0095
 30
0.0
 10
63.7111
 20
-1.1834
 30
0.0
 10
63.7111
 20
-1.1834
 30
0.0
 10
63.7111
 20
-1.1834
 30
0.0
 10
54.5708
 20
-8.7244
 30
0.0
 10
44.9738
 20
-14.5678
 30
0.0
 10
44.0543
 20
-31.5314
 30
0.0
 10
44.0543
 20
-31.5314
 30
0.0
 10
44.1789
 20
-33.7957
 30
0.0
 10
44.2404
 20
-36.3922
 30
0.0
 10
45.7742
 20
-38.9
 30
0.0
 10
45.7742
 20
-38.9
 30
0.0
 10
47.0642
 20
-40.5404
 30
0.0
 10
47.4213
 20
-40.9892
 30
0.0
 10
46.0238
 20
-40.9892
 30
0.0
 10
46.0238
 20
-40.9892
 30
0.0
 10
41.0045
 20
-40.3547
 30
0.0
 10
40.7666
 20
-38.2566
 30
0.0
 10
40.4252
 20
-35.8642
 30
0.0
 10
40.4252
 20
-35.8642
 30
0.0
 10
39.7671
 20
-31.0801
 30
0.0
 10
39.1272
 20
-30.4579
 30
0.0
 10
37.5431
 20
-33.0626
 30
0.0
 10
37.5431
 20
-33.0626
 30
0.0
 10
37.5431
 20
-33.0626
 30
0.0
 10
36.2147
 20
-35.247
 30
0.0
 10
36.2147
 20
-35.247
 30
0.0
 10
36.2147
 20
-35.247
 30
0.0
 10
34.2584
 20
-30.4255
 30
0.0
 10
36.9279
 20
-25.41
 30
0.0
 10
40.1391
 20
-23.1424
 30
0.0
 10
40.1391
 20
-23.1424
 30
0.0
 10
41.2002
 20
-22.3869
 30
0.0
 10
41.8829
 20
-21.4689
 30
0.0
 10
41.6564
 20
-21.1026
 30
0.0
 10
41.6564
 20
-21.1026
 30
0.0
 10
41.3835
 20
-20.661
 30
0.0
 10
41.0028
 20
-20.678
 30
0.0
 10
40.5279
 20
-21.1529
 30
0.0
 10
40.5279
 20
-21.1529
 30
0.0
 10
39.4566
 20
-22.2239
 30
0.0
 10
38.7562
 20
-22.0211
 30
0.0
 10
38.7562
 20
-20.6394
 30
0.0
 10
38.7562
 20
-20.6394
 30
0.0
 10
38.7562
 20
-19.9573
 30
0.0
 10
41.0329
 20
-17.2706
 30
0.0
 10
43.8657
 20
-14.6099
 30
0.0
 10
43.8657
 20
-14.6099
 30
0.0
 10
47.109
 20
-11.5634
 30
0.0
 10
48.6495
 20
-9.6967
 30
0.0
 10
48.0836
 20
-9.4994
 30
0.0
 10
48.0836
 20
-9.4994
 30
0.0
 10
46.6092
 20
-8.9848
 30
0.0
 10
42.0421
 20
-12.0774
 30
0.0
 10
39.8015
 20
-15.5722
 30
0.0
 10
39.8015
 20
-15.5722
 30
0.0
 10
34.7124
 20
-23.5092
 30
0.0
 10
31.4982
 20
-26.9457
 30
0.0
 10
32.1854
 20
-24.0856
 30
0.0
 10
32.1854
 20
-24.0856
 30
0.0
 10
33.0491
 20
-20.4911
 30
0.0
 10
32.1802
 20
-21.8364
 30
0.0
 10
28.7928
 20
-24.1665
 30
0.0
 10
28.7928
 20
-24.1665
 30
0.0
 10
26.9394
 20
-25.4411
 30
0.0
 10
24.7329
 20
-26.4844
 30
0.0
 10
23.8899
 20
-26.4844
 30
0.0
 10
23.8899
 20
-26.4844
 30
0.0
 10
22.4915
 20
-26.4844
 30
0.0
 10
22.3901
 20
-26.2677
 30
0.0
 10
22.7324
 20
-24.012
 30
0.0
 10
22.7324
 20
-24.012
 30
0.0
 10
22.939
 20
-22.6523
 30
0.0
 10
23.7125
 20
-20.8733
 30
0.0
 10
24.4518
 20
-20.0588
 30
0.0
 10
24.4518
 20
-20.0588
 30
0.0
 10
26.6441
 20
-17.6429
 30
0.0
 10
25.3394
 20
-17.6813
 30
0.0
 10
20.3804
 20
-20.1786
 30
0.0
 10
20.3804
 20
-20.1786
 30
0.0
 10
16.2033
 20
-22.2822
 30
0.0
 10
11.7255
 20
-23.269
 30
0.0
 10
11.7255
 20
-22.0859
 30
0.0
 10
11.7255
 20
-22.0859
 30
0.0
 10
11.7255
 20
-21.8424
 30
0.0
 10
13.34
 20
-20.4278
 30
0.0
 10
13.8941
 20
-19.8153
 30
0.0
 10
13.8941
 20
-19.8153
 30
0.0
 10
14.8231
 20
-18.7889
 30
0.0
 10
13.5032
 20
-19.3837
 30
0.0
 10
10.7009
 20
-18.9997
 30
0.0
 10
10.7009
 20
-18.9997
 30
0.0
 10
7.3675
 20
-18.5427
 30
0.0
 10
3.8139
 20
-16.7546
 30
0.0
 10
3.8139
 20
-15.5343
 30
0.0
 10
3.8139
 20
-15.5343
 30
0.0
 10
3.8139
 20
-14.5192
 30
0.0
 10
5.3594
 20
-13.9578
 30
0.0
 10
8.1532
 20
-13.9578
 30
0.0
 10
8.1532
 20
-13.9578
 30
0.0
 10
10.9329
 20
-13.9578
 30
0.0
 10
10.9715
 20
-13.4228
 30
0.0
 10
8.37
 20
-10.9494
 30
0.0
 10
8.37
 20
-10.9494
 30
0.0
 10
5.5253
 20
-8.245
 30
0.0
 10
4.4613
 20
-5.9203
 30
0.0
 10
4.3781
 20
-2.2287
 30
0.0
 10
4.3781
 20
-2.2287
 30
0.0
 10
4.2136
 20
5.0664
 30
0.0
 10
9.0687
 20
8.7825
 30
0.0
 10
16.3197
 20
6.9113
 30
0.0
 10
16.3197
 20
6.9113
 30
0.0
 10
16.3197
 20
6.9113
 30
0.0
 10
16.3197
 20
6.9108
 30
0.0
 10
16.3197
 20
6.9108
 30
0.0
  0
SPLINE
  5
6A
330
1F
100
AcDbEntity
  8
layer 1
 62
     7
100
AcDbSpline
210
0.0
220
0.0
230
1.0
 70
    11
 71
     3
 72
   108
 73
   104
 74
     0
 42
0.0000000001
 43
0.0000000001
 12
1.0
 22
0.0
 32
0.0
 13
1.0
 23
0.0
 33
0.0
 40
0.0
 40
0.0
 40
0.0
 40
0.0
 40
0.037037037037037
 40
0.037037037037037
 40
0.037037037037037
 40
0.037037037037037
 40
0.0740740740740741
 40
0.0740740740740741
 40
0.0740740740740741
 40
0.0740740740740741
 40
0.1111111111111111
 40
0.1111111111111111
 40
0.1111111111111111
 40
0.1111111111111111
 40
0.1481481481481481
 40
0.1481481481481481
 40
0.1481481481481481
 40
0.1481481481481481
 40
0.1851851851851852
 40
0.1851851851851852
 40
0.1851851851851852
 40
0.1851851851851852
 40
0.2222222222222222
 40
0.2222222222222222
 40
0.2222222222222222
 40
0.2222222222222222
 40
0.2592592592592592
 40
0.2592592592592592
 40
0.2592592592592592
 40
0.2592592592592592
 40
0.2962962962962963
 40
0.2962962962962963
 40
0.2962962962962963
 40
0.2962962962962963
 40
0.3333333333333333
 40
0.3333333333333333
 40
0.3333333333333333
 40
0.3333333333333333
 40
0.3703703703703703
 40
0.3703703703703703
 40
0.3703703703703703
 40
0.3703703703703703
 40
0.4074074074074074
 40
0.4074074074074074
 40
0.4074074074074074
 40
0.4074074074074074
 40
0.4444444444444444
 40
0.4444444444444444
 40
0.4444444444444444
 40
0.4444444444444444
 40
0.4814814814814815
 40
0.4814814814814815
 40
0.4814814814814815
 40
0.4814814814814815
 40
0.5185185185185185
 40
0.5185185185185185
 40
0.5185185185185185
 40
0.5185185185185185
 40
0.5555555555555556
 40
0.5555555555555556
 40
0.5555555555555556
 40
0.5555555555555556
 40
0.5925925925925926
 40
0.5925925925925926
 40
0.5925925925925926
 40
0.5925925925925926
 40
0.6296296296296297
 40
0.6296296296296297
 40
0.6296296296296297
 40
0.6296296296296297
 40
0.6666666666666666
 40
0.6666666666666666
 40
0.6666666666666666
 40
0.6666666666666666
 40
0.7037037037037037
 40
0.7037037037037037
 40
0.7037037037037037
 40
0.7037037037037037
 40
0.7407407407407407
 40
0.7407407407407407
 40
0.7407407407407407
 40
0.7407407407407407
 40
0.7777777777777778
 40
0.7777777777777778
 40
0.7777777777777778
 40
0.7777777777777778
 40
0.8148148148148148
 40
0.8148148148148148
 40
0.8148148148148148
 40
0.8148148148148148
 40
0.8518518518518519
 40
0.8518518518518519
 40
0.8518518518518519
 40
0.8518518518518519
 40
0.8888888888888888
 40
0.8888888888888888
 40
0.8888888888888888
 40
0.8888888888888888
 40
0.9259259259259259
 40
0.9259259259259259
 40
0.9259259259259259
 40
0.9259259259259259
 40
1.0
 40
1.0
 40
1.0
 40
1.0
 10
50.0439
 20
8.5305
 30
0.0
 10
50.021
 20
7.4065
 30
0.0
 10
48.7923
 20
5.8149
 30
0.0
 10
46.5015
 20
4.8578
 30
0.0
 10
46.5015
 20
4.8578
 30
0.0
 10
43.3496
 20
3.5409
 30
0.0
 10
41.9367
 20
3.5867
 30
0.0
 10
36.8848
 20
5.1703
 30
0.0
 10
36.8848
 20
5.1703
 30
0.0
 10
32.2647
 20
6.6186
 30
0.0
 10
30.1858
 20
6.8204
 30
0.0
 10
30.1858
 20
5.8212
 30
0.0
 10
30.1858
 20
5.8212
 30
0.0
 10
30.1858
 20
5.4586
 30
0.0
 10
30.6455
 20
5.1618
 30
0.0
 10
31.2074
 20
5.1618
 30
0.0
 10
31.2074
 20
5.1618
 30
0.0
 10
33.1672
 20
5.1618
 30
0.0
 10
36.1034
 20
3.1477
 30
0.0
 10
36.511
 20
1.5238
 30
0.0
 10
36.511
 20
1.5238
 30
0.0
 10
36.9817
 20
-0.3518
 30
0.0
 10
36.3702
 20
-3.4091
 30
0.0
 10
35.5245
 20
-3.4091
 30
0.0
 10
35.5245
 20
-3.4091
 30
0.0
 10
35.211
 20
-3.4091
 30
0.0
 10
34.7994
 20
-2.8158
 30
0.0
 10
34.6098
 20
-2.0904
 30
0.0
 10
34.6098
 20
-2.0904
 30
0.0
 10
34.4201
 20
-1.3653
 30
0.0
 10
33.9088
 20
-0.7717
 30
0.0
 10
33.4735
 20
-0.7717
 30
0.0
 10
33.4735
 20
-0.7717
 30
0.0
 10
32.9661
 20
-0.7717
 30
0.0
 10
32.864
 20
-1.1859
 30
0.0
 10
33.1889
 20
-1.9254
 30
0.0
 10
33.1889
 20
-1.9254
 30
0.0
 10
35.3197
 20
-6.7753
 30
0.0
 10
33.4032
 20
-10.6611
 30
0.0
 10
28.8805
 20
-10.6611
 30
0.0
 10
28.8805
 20
-10.6611
 30
0.0
 10
25.682
 20
-10.6611
 30
0.0
 10
24.7595
 20
-9.4717
 30
0.0
 10
27.5285
 20
-8.918
 30
0.0
 10
27.5285
 20
-8.918
 30
0.0
 10
31.6073
 20
-8.1022
 30
0.0
 10
31.7172
 20
-4.1165
 30
0.0
 10
27.7876
 20
0.4742
 30
0.0
 10
27.7876
 20
0.4742
 30
0.0
 10
26.1913
 20
3.2925
 30
0.0
 10
19.1275
 20
5.5349
 30
0.0
 10
19.4734
 20
8.5305
 30
0.0
 10
19.4734
 20
8.5305
 30
0.0
 10
19.1275
 20
11.5262
 30
0.0
 10
26.1913
 20
13.7646
 30
0.0
 10
27.7876
 20
16.5829
 30
0.0
 10
27.7876
 20
16.5829
 30
0.0
 10
31.7172
 20
21.1736
 30
0.0
 10
31.6073
 20
25.1593
 30
0.0
 10
27.5285
 20
25.9751
 30
0.0
 10
27.5285
 20
25.9751
 30
0.0
 10
24.7595
 20
26.5288
 30
0.0
 10
25.682
 20
27.7181
 30
0.0
 10
28.8805
 20
27.7181
 30
0.0
 10
28.8805
 20
27.7181
 30
0.0
 10
33.4032
 20
27.7181
 30
0.0
 10
35.3197
 20
23.8324
 30
0.0
 10
33.1889
 20
18.9825
 30
0.0
 10
33.1889
 20
18.9825
 30
0.0
 10
32.864
 20
18.243
 30
0.0
 10
32.9661
 20
17.8288
 30
0.0
 10
33.4735
 20
17.8288
 30
0.0
 10
33.4735
 20
17.8288
 30
0.0
 10
33.9088
 20
17.8288
 30
0.0
 10
34.4201
 20
18.4224
 30
0.0
 10
34.6098
 20
19.1475
 30
0.0
 10
34.6098
 20
19.1475
 30
0.0
 10
34.7994
 20
19.8729
 30
0.0
 10
35.211
 20
20.4662
 30
0.0
 10
35.5245
 20
20.4662
 30
0.0
 10
35.5245
 20
20.4662
 30
0.0
 10
36.3702
 20
20.4662
 30
0.0
 10
36.9817
 20
17.4089
 30
0.0
 10
36.511
 20
15.5333
 30
0.0
 10
36.511
 20
15.5333
 30
0.0
 10
36.1034
 20
13.9094
 30
0.0
 10
33.1672
 20
11.8953
 30
0.0
 10
31.2074
 20
11.8953
 30
0.0
 10
31.2074
 20
11.8953
 30
0.0
 10
30.6455
 20
11.8953
 30
0.0
 10
30.1858
 20
11.5985
 30
0.0
 10
30.1858
 20
11.2359
 30
0.0
 10
30.1858
 20
11.2359
 30
0.0
 10
30.1858
 20
10.2367
 30
0.0
 10
32.2647
 20
10.4385
 30
0.0
 10
36.8848
 20
11.8868
 30
0.0
 10
36.8848
 20
11.8868
 30
0.0
 10
41.9367
 20
13.4703
 30
0.0
 10
43.3496
 20
13.5162
 30
0.0
 10
46.5015
 20
12.1993
 30
0.0
 10
46.5015
 20
12.1993
 30
0.0
 10
48.7923
 20
11.2422
 30
0.0
 10
50.021
 20
9.6546
 30
0.0
 10
50.0439
 20
8.5305
 30
0.0
  0
ENDSEC
  0
SECTION
  2
OBJECTS
  0
DICTIONARY
  5
C
330
0
100
AcDbDictionary
281
     1
  3
ACAD_GROUP
350
D
  3
ACAD_LAYOUT
350
1A
  3
ACAD_MATERIAL
350
3B
  3
ACAD_MLEADERSTYLE
350
8D
  3
ACAD_MLINESTYLE
350
17
  3
ACAD_PLOTSETTINGS
350
19
  3
ACAD_PLOTSTYLENAME
350
E
  3
ACAD_TABLESTYLE
350
8C
  3
ACAD_VISUALSTYLE
350
2A
  0
DICTIONARY
  5
D
102
{ACAD_REACTORS
330
C
102
}
330
C
100
AcDbDictionary
281
     1
  0
DICTIONARY
  5
1A
102
{ACAD_REACTORS
330
C
102
}
330
C
100
AcDbDictionary
281
     1
  3
Layout1
350
1E
  3
Layout2
350
26
  3
Model
350
22
  0
DICTIONARY
  5
3B
102
{ACAD_REACTORS
330
C
102
}
330
C
100
AcDbDictionary
281
     1
  3
ByBlock
350
3D
  3
ByLayer
350
3C
  3
Global
350
3E
  0
DICTIONARY
  5
8D
102
{ACAD_REACTORS
330
C
102
}
330
C
100
AcDbDictionary
281
     1
  0
DICTIONARY
  5
17
102
{ACAD_REACTORS
330
C
102
}
330
C
100
AcDbDictionary
281
     1
  3
Standard
350
18
  0
DICTIONARY
  5
19
102
{ACAD_REACTORS
330
C
102
}
330
C
100
AcDbDictionary
281
     1
  0
ACDBDICTIONARYWDFLT
  5
E
102
{ACAD_REACTORS
330
C
102
}
330
C
100
AcDbDictionary
281
     1
  3
Normal
350
F
100
AcDbDictionaryWithDefault
340
F
  0
DICTIONARY
  5
8C
102
{ACAD_REACTORS
330
C
102
}
330
C
100
AcDbDictionary
281
     1
  0
DICTIONARY
  5
2A
102
{ACAD_REACTORS
330
C
102
}
330
C
100
AcDbDictionary
281
     1
  3
2dWireframe
350
2F
  3
3D Hidden
350
31
  3
3dWireframe
350
30
  3
Basic
350
32
  3
Brighten
350
36
  3
ColorChange
350
3A
  3
Conceptual
350
34
  3
Dim
350
35
  3
Facepattern
350
39
  3
Flat
350
2B
  3
FlatWithEdges
350
2C
  3
Gouraud
350
2D
  3
GouraudWithEdges
350
2E
  3
Linepattern
350
38
  3
Realistic
350
33
  3
Thicken
350
37
  0
LAYOUT
  5
1E
102
{ACAD_REACTORS
330
1A
102
}
330
1A
100
AcDbPlotSettings
  1

  2
none_device
  4

  6

 40
0.0
 41
0.0
 42
0.0
 43
0.0
 44
0.0
 45
0.0
 46
0.0
 47
0.0
 48
0.0
 49
0.0
140
0.0
141
0.0
142
1.0
143
1.0
 70
   688
 72
     0
 73
     0
 74
     5
  7

 75
    16
 76
     0
 77
     2
 78
   300
147
1.0
148
0.0
149
0.0
100
AcDbLayout
  1
Layout1
 70
     1
 71
     1
 10
0.0
 20
0.0
 11
12.0
 21
9.0
 12
0.0
 22
0.0
 32
0.0
 14
1.000000000000000E+20
 24
1.000000000000000E+20
 34
1.000000000000000E+20
 15
-1.000000000000000E+20
 25
-1.000000000000000E+20
 35
-1.000000000000000E+20
146
0.0
 13
0.0
 23
0.0
 33
0.0
 16
1.0
 26
0.0
 36
0.0
 17
0.0
 27
1.0
 37
0.0
 76
     0
330
1B
  0
LAYOUT
  5
26
102
{ACAD_REACTORS
330
1A
102
}
330
1A
100
AcDbPlotSettings
  1

  2
none_device
  4

  6

 40
0.0
 41
0.0
 42
0.0
 43
0.0
 44
0.0
 45
0.0
 46
0.0
 47
0.0
 48
0.0
 49
0.0
140
0.0
141
0.0
142
1.0
143
1.0
 70
   688
 72
     0
 73
     0
 74
     5
  7

 75
    16
 76
     0
 77
     2
 78
   300
147
1.0
148
0.0
149
0.0
100
AcDbLayout
  1
Layout2
 70
     1
 71
     2
 10
0.0
 20
0.0
 11
0.0
 21
0.0
 12
0.0
 22
0.0
 32
0.0
 14
0.0
 24
0.0
 34
0.0
 15
0.0
 25
0.0
 35
0.0
146
0.0
 13
0.0
 23
0.0
 33
0.0
 16
1.0
 26
0.0
 36
0.0
 17
0.0
 27
1.0
 37
0.0
 76
     0
330
23
  0
LAYOUT
  5
22
102
{ACAD_REACTORS
330
1A
102
}
330
1A
100
AcDbPlotSettings
  1

  2
none_device
  4

  6

 40
0.0
 41
0.0
 42
0.0
 43
0.0
 44
0.0
 45
0.0
 46
0.0
 47
0.0
 48
0.0
 49
0.0
140
0.0
141
0.0
142
1.0
143
1.0
 70
  1712
 72
     0
 73
     0
 74
     0
  7

 75
     0
 76
     0
 77
     2
 78
   300
147
1.0
148
0.0
149
0.0
100
AcDbLayout
  1
Model
 70
     1
 71
     0
 10
0.0
 20
0.0
 11
12.0
 21
9.0
 12
0.0
 22
0.0
 32
0.0
 14
-7.2336
 24
-115.1289
 34
0.0
 15
196.4047
 25
131.65
 35
0.0
146
0.0
 13
0.0
 23
0.0
 33
0.0
 16
1.0
 26
0.0
 36
0.0
 17
0.0
 27
1.0
 37
0.0
 76
     0
330
1F
331
29
  0
MATERIAL
  5
3D
102
{ACAD_REACTORS
330
3B
102
}
330
3B
100
AcDbMaterial
  1
ByBlock
 72
     1
 94
      127
  0
MATERIAL
  5
3C
102
{ACAD_REACTORS
330
3B
102
}
330
3B
100
AcDbMaterial
  1
ByLayer
 72
     1
 94
      127
  0
MATERIAL
  5
3E
102
{ACAD_REACTORS
330
3B
102
}
330
3B
100
AcDbMaterial
  1
Global
 72
     1
 94
      127
  0
MLINESTYLE
  5
18
102
{ACAD_REACTORS
330
17
102
}
330
17
100
AcDbMlineStyle
  2
Standard
 70
     0
  3

 62
   256
 51
90.0
 52
90.0
 71
     2
 49
0.5
 62
   256
  6
BYLAYER
 49
-0.5
 62
   256
  6
BYLAYER
  0
ACDBPLACEHOLDER
  5
F
102
{ACAD_REACTORS
330
E
102
}
330
E
  0
VISUALSTYLE
  5
2F
102
{ACAD_REACTORS
330
2A
102
}
102
{ACAD_XDICTIONARY
360
74
102
}
330
2A
100
AcDbVisualStyle
  2
2dWireframe
 70
     4
 71
     0
 72
     2
 73
     0
 90
        0
 40
-0.6
 41
-30.0
 62
     5
 63
     7
421
 16777215
 74
     1
 91
        4
 64
     7
 65
   257
 75
     1
175
     1
 42
1.0
 92
        0
 66
   257
 43
1.0
 76
     1
 77
     6
 78
     2
 67
     7
 79
     5
170
     0
171
     0
290
     0
174
     0
 93
        1
 44
0.0
173
     0
291
     0
 45
0.0
  0
VISUALSTYLE
  5
31
102
{ACAD_REACTORS
330
2A
102
}
102
{ACAD_XDICTIONARY
360
78
102
}
330
2A
100
AcDbVisualStyle
  2
3D Hidden
 70
     6
 71
     1
 72
     2
 73
     2
 90
        0
 40
-0.6
 41
-30.0
 62
     5
 63
     7
421
 16777215
 74
     2
 91
        2
 64
     7
 65
   257
 75
     2
175
     1
 42
40.0
 92
        0
 66
   257
 43
1.0
 76
     1
 77
     6
 78
     2
 67
     7
 79
     3
170
     0
171
     0
290
     0
174
     0
 93
        1
 44
0.0
173
     0
291
     0
 45
0.0
  0
VISUALSTYLE
  5
30
102
{ACAD_REACTORS
330
2A
102
}
102
{ACAD_XDICTIONARY
360
76
102
}
330
2A
100
AcDbVisualStyle
  2
3dWireframe
 70
     5
 71
     0
 72
     2
 73
     0
 90
        0
 40
-0.6
 41
-30.0
 62
     5
 63
     7
421
 16777215
 74
     1
 91
        4
 64
     7
 65
   257
 75
     1
175
     1
 42
1.0
 92
        0
 66
   257
 43
1.0
 76
     1
 77
     6
 78
     2
 67
     7
 79
     5
170
     0
171
     0
290
     0
174
     0
 93
        1
 44
0.0
173
     0
291
     0
 45
0.0
  0
VISUALSTYLE
  5
32
102
{ACAD_REACTORS
330
2A
102
}
102
{ACAD_XDICTIONARY
360
7A
102
}
330
2A
100
AcDbVisualStyle
  2
Basic
 70
     7
 71
     1
 72
     0
 73
     1
 90
        0
 40
-0.6
 41
-30.0
 62
     5
 63
     7
421
 16777215
 74
     0
 91
        4
 64
     7
 65
   257
 75
     1
175
     1
 42
1.0
 92
        8
 66
     7
 43
1.0
 76
     1
 77
     6
 78
     2
 67
     7
 79
     5
170
     0
171
     0
290
     0
174
     0
 93
        1
 44
0.0
173
     0
291
     1
 45
0.0
  0
VISUALSTYLE
  5
36
102
{ACAD_REACTORS
330
2A
102
}
102
{ACAD_XDICTIONARY
360
82
102
}
330
2A
100
AcDbVisualStyle
  2
Brighten
 70
    12
 71
     2
 72
     2
 73
     0
 90
        0
 40
-0.6
 41
-30.0
 62
     5
 63
     7
421
 16777215
 74
     1
 91
        4
 64
     7
 65
   257
 75
     1
175
     1
 42
1.0
 92
        8
 66
     7
 43
1.0
 76
     1
 77
     6
 78
     2
 67
     7
 79
     5
170
     0
171
     0
290
     0
174
     0
 93
        1
 44
50.0
173
     0
291
     1
 45
0.0
  0
VISUALSTYLE
  5
3A
102
{ACAD_REACTORS
330
2A
102
}
102
{ACAD_XDICTIONARY
360
8A
102
}
330
2A
100
AcDbVisualStyle
  2
ColorChange
 70
    16
 71
     2
 72
     2
 73
     3
 90
        0
 40
-0.6
 41
-30.0
 62
     5
 63
     8
421
  8421504
 74
     1
 91
        4
 64
     7
 65
   257
 75
     1
175
     1
 42
1.0
 92
        8
 66
     8
424
  8421504
 43
1.0
 76
     1
 77
     6
 78
     2
 67
     7
 79
     5
170
     0
171
     0
290
     0
174
     0
 93
        1
 44
0.0
173
     0
291
     1
 45
0.0
  0
VISUALSTYLE
  5
34
102
{ACAD_REACTORS
330
2A
102
}
102
{ACAD_XDICTIONARY
360
7E
102
}
330
2A
100
AcDbVisualStyle
  2
Conceptual
 70
     9
 71
     3
 72
     2
 73
     0
 90
        0
 40
-0.6
 41
-30.0
 62
     5
 63
     7
421
 16777215
 74
     2
 91
        2
 64
     7
 65
   257
 75
     1
175
     1
 42
40.0
 92
        8
 66
     7
 43
1.0
 76
     1
 77
     6
 78
     2
 67
     7
 79
     3
170
     0
171
     0
290
     0
174
     0
 93
        1
 44
0.0
173
     0
291
     0
 45
0.0
  0
VISUALSTYLE
  5
35
102
{ACAD_REACTORS
330
2A
102
}
102
{ACAD_XDICTIONARY
360
80
102
}
330
2A
100
AcDbVisualStyle
  2
Dim
 70
    11
 71
     2
 72
     2
 73
     0
 90
        0
 40
-0.6
 41
-30.0
 62
     5
 63
     7
421
 16777215
 74
     1
 91
        4
 64
     7
 65
   257
 75
     1
175
     1
 42
1.0
 92
        8
 66
     7
 43
1.0
 76
     1
 77
     6
 78
     2
 67
     7
 79
     5
170
     0
171
     0
290
     0
174
     0
 93
        1
 44
-50.0
173
     0
291
     1
 45
0.0
  0
VISUALSTYLE
  5
39
102
{ACAD_REACTORS
330
2A
102
}
102
{ACAD_XDICTIONARY
360
88
102
}
330
2A
100
AcDbVisualStyle
  2
Facepattern
 70
    15
 71
     2
 72
     2
 73
     0
 90
        0
 40
-0.6
 41
-30.0
 62
     5
 63
     7
421
 16777215
 74
     1
 91
        4
 64
     7
 65
   257
 75
     1
175
     1
 42
1.0
 92
        8
 66
     7
 43
1.0
 76
     1
 77
     6
 78
     2
 67
     7
 79
     5
170
     0
171
     0
290
     0
174
     0
 93
        1
 44
0.0
173
     0
291
     1
 45
0.0
  0
VISUALSTYLE
  5
2B
102
{ACAD_REACTORS
330
2A
102
}
102
{ACAD_XDICTIONARY
360
6C
102
}
330
2A
100
AcDbVisualStyle
  2
Flat
 70
     0
 71
     2
 72
     1
 73
     1
 90
        2
 40
-0.6
 41
30.0
 62
     5
 63
     7
421
 16777215
 74
     0
 91
        4
 64
     7
 65
   257
 75
     1
175
     1
 42
1.0
 92
        8
 66
     7
 43
1.0
 76
     1
 77
     6
 78
     2
 67
     7
 79
     5
170
     0
171
     0
290
     0
174
     0
 93
       13
 44
0.0
173
     0
291
     1
 45
0.0
  0
VISUALSTYLE
  5
2C
102
{ACAD_REACTORS
330
2A
102
}
102
{ACAD_XDICTIONARY
360
6E
102
}
330
2A
100
AcDbVisualStyle
  2
FlatWithEdges
 70
     1
 71
     2
 72
     1
 73
     1
 90
        2
 40
-0.6
 41
30.0
 62
     5
 63
     7
421
 16777215
 74
     1
 91
        4
 64
     7
 65
   257
 75
     1
175
     1
 42
1.0
 92
        0
 66
   257
 43
1.0
 76
     1
 77
     6
 78
     2
 67
     7
 79
     5
170
     0
171
     0
290
     0
174
     0
 93
       13
 44
0.0
173
     0
291
     1
 45
0.0
  0
VISUALSTYLE
  5
2D
102
{ACAD_REACTORS
330
2A
102
}
102
{ACAD_XDICTIONARY
360
70
102
}
330
2A
100
AcDbVisualStyle
  2
Gouraud
 70
     2
 71
     2
 72
     2
 73
     1
 90
        2
 40
-0.6
 41
30.0
 62
     5
 63
     7
421
 16777215
 74
     0
 91
        4
 64
     7
 65
   257
 75
     1
175
     1
 42
1.0
 92
        0
 66
     7
 43
1.0
 76
     1
 77
     6
 78
     2
 67
     7
 79
     5
170
     0
171
     0
290
     0
174
     0
 93
       13
 44
0.0
173
     0
291
     1
 45
0.0
  0
VISUALSTYLE
  5
2E
102
{ACAD_REACTORS
330
2A
102
}
102
{ACAD_XDICTIONARY
360
72
102
}
330
2A
100
AcDbVisualStyle
  2
GouraudWithEdges
 70
     3
 71
     2
 72
     2
 73
     1
 90
        2
 40
-0.6
 41
30.0
 62
     5
 63
     7
421
 16777215
 74
     1
 91
        4
 64
     7
 65
   257
 75
     1
175
     1
 42
1.0
 92
        0
 66
   257
 43
1.0
 76
     1
 77
     6
 78
     2
 67
     7
 79
     5
170
     0
171
     0
290
     0
174
     0
 93
       13
 44
0.0
173
     0
291
     1
 45
0.0
  0
VISUALSTYLE
  5
38
102
{ACAD_REACTORS
330
2A
102
}
102
{ACAD_XDICTIONARY
360
86
102
}
330
2A
100
AcDbVisualStyle
  2
Linepattern
 70
    14
 71
     2
 72
     2
 73
     0
 90
        0
 40
-0.6
 41
-30.0
 62
     5
 63
     7
421
 16777215
 74
     1
 91
        4
 64
     7
 65
   257
 75
     7
175
     7
 42
1.0
 92
        8
 66
     7
 43
1.0
 76
     1
 77
     6
 78
     2
 67
     7
 79
     5
170
     0
171
     0
290
     0
174
     0
 93
        1
 44
0.0
173
     0
291
     1
 45
0.0
  0
VISUALSTYLE
  5
33
102
{ACAD_REACTORS
330
2A
102
}
102
{ACAD_XDICTIONARY
360
7C
102
}
330
2A
100
AcDbVisualStyle
  2
Realistic
 70
     8
 71
     2
 72
     2
 73
     0
 90
        0
 40
-0.6
 41
-30.0
 62
     5
 63
     7
421
 16777215
 74
     1
 91
        0
 64
     7
 65
   257
 75
     1
175
     1
 42
1.0
 92
        8
 66
     8
424
  7895160
 43
1.0
 76
     1
 77
     6
 78
     2
 67
     7
 79
     5
170
     0
171
     0
290
     0
174
     0
 93
       13
 44
0.0
173
     0
291
     0
 45
0.0
  0
VISUALSTYLE
  5
37
102
{ACAD_REACTORS
330
2A
102
}
102
{ACAD_XDICTIONARY
360
84
102
}
330
2A
100
AcDbVisualStyle
  2
Thicken
 70
    13
 71
     2
 72
     2
 73
     0
 90
        0
 40
-0.6
 41
-30.0
 62
     5
 63
     7
421
 16777215
 74
     1
 91
        4
 64
     7
 65
   257
 75
     1
175
     1
 42
1.0
 92
       12
 66
     7
 43
1.0
 76
     1
 77
     6
 78
     2
 67
     7
 79
     5
170
     0
171
     0
290
     0
174
     0
 93
        1
 44
0.0
173
     0
291
     1
 45
0.0
  0
DICTIONARY
  5
74
330
2F
100
AcDbDictionary
280
     1
281
     1
  3
ACAD_XREC_ROUNDTRIP
360
75
  0
DICTIONARY
  5
78
330
31
100
AcDbDictionary
280
     1
281
     1
  3
ACAD_XREC_ROUNDTRIP
360
79
  0
DICTIONARY
  5
76
330
30
100
AcDbDictionary
280
     1
281
     1
  3
ACAD_XREC_ROUNDTRIP
360
77
  0
DICTIONARY
  5
7A
330
32
100
AcDbDictionary
280
     1
281
     1
  3
ACAD_XREC_ROUNDTRIP
360
7B
  0
DICTIONARY
  5
82
330
36
100
AcDbDictionary
280
     1
281
     1
  3
ACAD_XREC_ROUNDTRIP
360
83
  0
DICTIONARY
  5
8A
330
3A
100
AcDbDictionary
280
     1
281
     1
  3
ACAD_XREC_ROUNDTRIP
360
8B
  0
DICTIONARY
  5
7E
330
34
100
AcDbDictionary
280
     1
281
     1
  3
ACAD_XREC_ROUNDTRIP
360
7F
  0
DICTIONARY
  5
80
330
35
100
AcDbDictionary
280
     1
281
     1
  3
ACAD_XREC_ROUNDTRIP
360
81
  0
DICTIONARY
  5
88
330
39
100
AcDbDictionary
280
     1
281
     1
  3
ACAD_XREC_ROUNDTRIP
360
89
  0
DICTIONARY
  5
6C
330
2B
100
AcDbDictionary
280
     1
281
     1
  3
ACAD_XREC_ROUNDTRIP
360
6D
  0
DICTIONARY
  5
6E
330
2C
100
AcDbDictionary
280
     1
281
     1
  3
ACAD_XREC_ROUNDTRIP
360
6F
  0
DICTIONARY
  5
70
330
2D
100
AcDbDictionary
280
     1
281
     1
  3
ACAD_XREC_ROUNDTRIP
360
71
  0
DICTIONARY
  5
72
330
2E
100
AcDbDictionary
280
     1
281
     1
  3
ACAD_XREC_ROUNDTRIP
360
73
  0
DICTIONARY
  5
86
330
38
100
AcDbDictionary
280
     1
281
     1
  3
ACAD_XREC_ROUNDTRIP
360
87
  0
DICTIONARY
  5
7C
330
33
100
AcDbDictionary
280
     1
281
     1
  3
ACAD_XREC_ROUNDTRIP
360
7D
  0
DICTIONARY
  5
84
330
37
100
AcDbDictionary
280
     1
281
     1
  3
ACAD_XREC_ROUNDTRIP
360
85
  0
XRECORD
  5
75
102
{ACAD_REACTORS
330
74
102
}
330
74
100
AcDbXrecord
280
     1
102
RTVSPropertyOp0
 70
     1
102
RTVSPropertyOp1
 70
     1
102
RTVSPropertyOp2
 70
     1
102
RTVSPropertyOp3
 70
     1
102
RTVSPropertyOp4
 70
     1
102
RTVSPropertyOp5
 70
     1
102
RTVSPropertyOp6
 70
     1
102
RTVSPropertyOp7
 70
     1
102
RTVSPropertyOp8
 70
     1
102
RTVSPropertyOp9
 70
     1
102
RTVSPropertyOp10
 70
     1
102
RTVSPropertyOp11
 70
     1
102
RTVSPropertyOp12
 70
     1
102
RTVSPropertyOp13
 70
     1
102
RTVSPropertyOp14
 70
     1
102
RTVSPropertyOp15
 70
     1
102
RTVSPropertyOp16
 70
     1
102
RTVSPropertyOp17
 70
     1
102
RTVSPropertyOp18
 70
     1
102
RTVSPropertyOp19
 70
     1
102
RTVSPropertyOp20
 70
     1
102
RTVSPropertyOp21
 70
     1
102
RTVSPropertyOp22
 70
     1
102
RTVSPropertyOp23
 70
     1
102
RTVSPropertyOp24
 70
     1
102
RTVSPropertyOp25
 70
     1
102
RTVSPropertyOp26
 70
     1
102
RTVSPropertyOp27
 70
     1
102
RTVSPropertyOp28
 70
     1
102
RTVSPropertyOp29
 70
     1
102
RTVSPropertyOp30
 70
     1
102
RTVSPropertyOp31
 70
     1
102
RTVSPropertyOp32
 70
     1
  0
XRECORD
  5
79
102
{ACAD_REACTORS
330
78
102
}
330
78
100
AcDbXrecord
280
     1
102
RTVSPropertyOp0
 70
     1
102
RTVSPropertyOp1
 70
     1
102
RTVSPropertyOp2
 70
     1
102
RTVSPropertyOp3
 70
     1
102
RTVSPropertyOp4
 70
     1
102
RTVSPropertyOp5
 70
     1
102
RTVSPropertyOp6
 70
     1
102
RTVSPropertyOp7
 70
     1
102
RTVSPropertyOp8
 70
     1
102
RTVSPropertyOp9
 70
     1
102
RTVSPropertyOp10
 70
     1
102
RTVSPropertyOp11
 70
     1
102
RTVSPropertyOp12
 70
     1
102
RTVSPropertyOp13
 70
     1
102
RTVSPropertyOp14
 70
     1
102
RTVSPropertyOp15
 70
     1
102
RTVSPropertyOp16
 70
     1
102
RTVSPropertyOp17
 70
     1
102
RTVSPropertyOp18
 70
     1
102
RTVSPropertyOp19
 70
     1
102
RTVSPropertyOp20
 70
     1
102
RTVSPropertyOp21
 70
     1
102
RTVSPropertyOp22
 70
     1
102
RTVSPropertyOp23
 70
     1
102
RTVSPropertyOp24
 70
     1
102
RTVSPropertyOp25
 70
     1
102
RTVSPropertyOp26
 70
     1
102
RTVSPropertyOp27
 70
     1
102
RTVSPropertyOp28
 70
     1
102
RTVSPropertyOp29
 70
     1
102
RTVSPropertyOp30
 70
     1
102
RTVSPropertyOp31
 70
     1
102
RTVSPropertyOp32
 70
     1
  0
XRECORD
  5
77
102
{ACAD_REACTORS
330
76
102
}
330
76
100
AcDbXrecord
280
     1
102
RTVSPropertyOp0
 70
     1
102
RTVSPropertyOp1
 70
     1
102
RTVSPropertyOp2
 70
     1
102
RTVSPropertyOp3
 70
     1
102
RTVSPropertyOp4
 70
     1
102
RTVSPropertyOp5
 70
     1
102
RTVSPropertyOp6
 70
     1
102
RTVSPropertyOp7
 70
     1
102
RTVSPropertyOp8
 70
     1
102
RTVSPropertyOp9
 70
     1
102
RTVSPropertyOp10
 70
     1
102
RTVSPropertyOp11
 70
     1
102
RTVSPropertyOp12
 70
     1
102
RTVSPropertyOp13
 70
     1
102
RTVSPropertyOp14
 70
     1
102
RTVSPropertyOp15
 70
     1
102
RTVSPropertyOp16
 70
     1
102
RTVSPropertyOp17
 70
     1
102
RTVSPropertyOp18
 70
     1
102
RTVSPropertyOp19
 70
     1
102
RTVSPropertyOp20
 70
     1
102
RTVSPropertyOp21
 70
     1
102
RTVSPropertyOp22
 70
     1
102
RTVSPropertyOp23
 70
     1
102
RTVSPropertyOp24
 70
     1
102
RTVSPropertyOp25
 70
     1
102
RTVSPropertyOp26
 70
     1
102
RTVSPropertyOp27
 70
     1
102
RTVSPropertyOp28
 70
     1
102
RTVSPropertyOp29
 70
     1
102
RTVSPropertyOp30
 70
     1
102
RTVSPropertyOp31
 70
     1
102
RTVSPropertyOp32
 70
     1
  0
XRECORD
  5
7B
102
{ACAD_REACTORS
330
7A
102
}
330
7A
100
AcDbXrecord
280
     1
102
RTVSPropertyOp0
 70
     1
102
RTVSPropertyOp1
 70
     1
102
RTVSPropertyOp2
 70
     1
102
RTVSPropertyOp3
 70
     1
102
RTVSPropertyOp4
 70
     1
102
RTVSPropertyOp5
 70
     1
102
RTVSPropertyOp6
 70
     1
102
RTVSPropertyOp7
 70
     1
102
RTVSPropertyOp8
 70
     1
102
RTVSPropertyOp9
 70
     1
102
RTVSPropertyOp10
 70
     1
102
RTVSPropertyOp11
 70
     1
102
RTVSPropertyOp12
 70
     1
102
RTVSPropertyOp13
 70
     1
102
RTVSPropertyOp14
 70
     1
102
RTVSPropertyOp15
 70
     1
102
RTVSPropertyOp16
 70
     1
102
RTVSPropertyOp17
 70
     1
102
RTVSPropertyOp18
 70
     1
102
RTVSPropertyOp19
 70
     1
102
RTVSPropertyOp20
 70
     1
102
RTVSPropertyOp21
 70
     1
102
RTVSPropertyOp22
 70
     1
102
RTVSPropertyOp23
 70
     1
102
RTVSPropertyOp24
 70
     1
102
RTVSPropertyOp25
 70
     1
102
RTVSPropertyOp26
 70
     1
102
RTVSPropertyOp27
 70
     1
102
RTVSPropertyOp28
 70
     1
102
RTVSPropertyOp29
 70
     1
102
RTVSPropertyOp30
 70
     1
102
RTVSPropertyOp31
 70
     1
102
RTVSPropertyOp32
 70
     1
  0
XRECORD
  5
83
102
{ACAD_REACTORS
330
82
102
}
330
82
100
AcDbXrecord
280
     1
102
RTVSPropertyOp0
 70
     1
102
RTVSPropertyOp1
 70
     1
102
RTVSPropertyOp2
 70
     1
102
RTVSPropertyOp3
 70
     1
102
RTVSPropertyOp4
 70
     1
102
RTVSPropertyOp5
 70
     1
102
RTVSPropertyOp6
 70
     1
102
RTVSPropertyOp7
 70
     1
102
RTVSPropertyOp8
 70
     1
102
RTVSPropertyOp9
 70
     1
102
RTVSPropertyOp10
 70
     1
102
RTVSPropertyOp11
 70
     1
102
RTVSPropertyOp12
 70
     1
102
RTVSPropertyOp13
 70
     1
102
RTVSPropertyOp14
 70
     1
102
RTVSPropertyOp15
 70
     1
102
RTVSPropertyOp16
 70
     1
102
RTVSPropertyOp17
 70
     1
102
RTVSPropertyOp18
 70
     1
102
RTVSPropertyOp19
 70
     1
102
RTVSPropertyOp20
 70
     1
102
RTVSPropertyOp21
 70
     1
102
RTVSPropertyOp22
 70
     1
102
RTVSPropertyOp23
 70
     1
102
RTVSPropertyOp24
 70
     1
102
RTVSPropertyOp25
 70
     1
102
RTVSPropertyOp26
 70
     1
102
RTVSPropertyOp27
 70
     1
102
RTVSPropertyOp28
 70
     1
102
RTVSPropertyOp29
 70
     1
102
RTVSPropertyOp30
 70
     1
102
RTVSPropertyOp31
 70
     1
102
RTVSPropertyOp32
 70
     1
  0
XRECORD
  5
8B
102
{ACAD_REACTORS
330
8A
102
}
330
8A
100
AcDbXrecord
280
     1
102
RTVSPropertyOp0
 70
     1
102
RTVSPropertyOp1
 70
     1
102
RTVSPropertyOp2
 70
     1
102
RTVSPropertyOp3
 70
     1
102
RTVSPropertyOp4
 70
     1
102
RTVSPropertyOp5
 70
     1
102
RTVSPropertyOp6
 70
     1
102
RTVSPropertyOp7
 70
     1
102
RTVSPropertyOp8
 70
     1
102
RTVSPropertyOp9
 70
     1
102
RTVSPropertyOp10
 70
     1
102
RTVSPropertyOp11
 70
     1
102
RTVSPropertyOp12
 70
     1
102
RTVSPropertyOp13
 70
     1
102
RTVSPropertyOp14
 70
     1
102
RTVSPropertyOp15
 70
     1
102
RTVSPropertyOp16
 70
     1
102
RTVSPropertyOp17
 70
     1
102
RTVSPropertyOp18
 70
     1
102
RTVSPropertyOp19
 70
     1
102
RTVSPropertyOp20
 70
     1
102
RTVSPropertyOp21
 70
     1
102
RTVSPropertyOp22
 70
     1
102
RTVSPropertyOp23
 70
     1
102
RTVSPropertyOp24
 70
     1
102
RTVSPropertyOp25
 70
     1
102
RTVSPropertyOp26
 70
     1
102
RTVSPropertyOp27
 70
     1
102
RTVSPropertyOp28
 70
     1
102
RTVSPropertyOp29
 70
     1
102
RTVSPropertyOp30
 70
     1
102
RTVSPropertyOp31
 70
     1
102
RTVSPropertyOp32
 70
     1
  0
XRECORD
  5
7F
102
{ACAD_REACTORS
330
7E
102
}
330
7E
100
AcDbXrecord
280
     1
102
RTVSPropertyOp0
 70
     1
102
RTVSPropertyOp1
 70
     1
102
RTVSPropertyOp2
 70
     1
102
RTVSPropertyOp3
 70
     1
102
RTVSPropertyOp4
 70
     1
102
RTVSPropertyOp5
 70
     1
102
RTVSPropertyOp6
 70
     1
102
RTVSPropertyOp7
 70
     1
102
RTVSPropertyOp8
 70
     1
102
RTVSPropertyOp9
 70
     1
102
RTVSPropertyOp10
 70
     1
102
RTVSPropertyOp11
 70
     1
102
RTVSPropertyOp12
 70
     1
102
RTVSPropertyOp13
 70
     1
102
RTVSPropertyOp14
 70
     1
102
RTVSPropertyOp15
 70
     1
102
RTVSPropertyOp16
 70
     1
102
RTVSPropertyOp17
 70
     1
102
RTVSPropertyOp18
 70
     1
102
RTVSPropertyOp19
 70
     1
102
RTVSPropertyOp20
 70
     1
102
RTVSPropertyOp21
 70
     1
102
RTVSPropertyOp22
 70
     1
102
RTVSPropertyOp23
 70
     1
102
RTVSPropertyOp24
 70
     1
102
RTVSPropertyOp25
 70
     1
102
RTVSPropertyOp26
 70
     1
102
RTVSPropertyOp27
 70
     1
102
RTVSPropertyOp28
 70
     1
102
RTVSPropertyOp29
 70
     1
102
RTVSPropertyOp30
 70
     1
102
RTVSPropertyOp31
 70
     1
102
RTVSPropertyOp32
 70
     1
  0
XRECORD
  5
81
102
{ACAD_REACTORS
330
80
102
}
330
80
100
AcDbXrecord
280
     1
102
RTVSPropertyOp0
 70
     1
102
RTVSPropertyOp1
 70
     1
102
RTVSPropertyOp2
 70
     1
102
RTVSPropertyOp3
 70
     1
102
RTVSPropertyOp4
 70
     1
102
RTVSPropertyOp5
 70
     1
102
RTVSPropertyOp6
 70
     1
102
RTVSPropertyOp7
 70
     1
102
RTVSPropertyOp8
 70
     1
102
RTVSPropertyOp9
 70
     1
102
RTVSPropertyOp10
 70
     1
102
RTVSPropertyOp11
 70
     1
102
RTVSPropertyOp12
 70
     1
102
RTVSPropertyOp13
 70
     1
102
RTVSPropertyOp14
 70
     1
102
RTVSPropertyOp15
 70
     1
102
RTVSPropertyOp16
 70
     1
102
RTVSPropertyOp17
 70
     1
102
RTVSPropertyOp18
 70
     1
102
RTVSPropertyOp19
 70
     1
102
RTVSPropertyOp20
 70
     1
102
RTVSPropertyOp21
 70
     1
102
RTVSPropertyOp22
 70
     1
102
RTVSPropertyOp23
 70
     1
102
RTVSPropertyOp24
 70
     1
102
RTVSPropertyOp25
 70
     1
102
RTVSPropertyOp26
 70
     1
102
RTVSPropertyOp27
 70
     1
102
RTVSPropertyOp28
 70
     1
102
RTVSPropertyOp29
 70
     1
102
RTVSPropertyOp30
 70
     1
102
RTVSPropertyOp31
 70
     1
102
RTVSPropertyOp32
 70
     1
  0
XRECORD
  5
89
102
{ACAD_REACTORS
330
88
102
}
330
88
100
AcDbXrecord
280
     1
102
RTVSPropertyOp0
 70
     1
102
RTVSPropertyOp1
 70
     1
102
RTVSPropertyOp2
 70
     1
102
RTVSPropertyOp3
 70
     1
102
RTVSPropertyOp4
 70
     1
102
RTVSPropertyOp5
 70
     1
102
RTVSPropertyOp6
 70
     1
102
RTVSPropertyOp7
 70
     1
102
RTVSPropertyOp8
 70
     1
102
RTVSPropertyOp9
 70
     1
102
RTVSPropertyOp10
 70
     1
102
RTVSPropertyOp11
 70
     1
102
RTVSPropertyOp12
 70
     1
102
RTVSPropertyOp13
 70
     1
102
RTVSPropertyOp14
 70
     1
102
RTVSPropertyOp15
 70
     1
102
RTVSPropertyOp16
 70
     1
102
RTVSPropertyOp17
 70
     1
102
RTVSPropertyOp18
 70
     1
102
RTVSPropertyOp19
 70
     1
102
RTVSPropertyOp20
 70
     1
102
RTVSPropertyOp21
 70
     1
102
RTVSPropertyOp22
 70
     1
102
RTVSPropertyOp23
 70
     1
102
RTVSPropertyOp24
 70
     1
102
RTVSPropertyOp25
 70
     1
102
RTVSPropertyOp26
 70
     1
102
RTVSPropertyOp27
 70
     1
102
RTVSPropertyOp28
 70
     1
102
RTVSPropertyOp29
 70
     1
102
RTVSPropertyOp30
 70
     1
102
RTVSPropertyOp31
 70
     1
102
RTVSPropertyOp32
 70
     1
  0
XRECORD
  5
6D
102
{ACAD_REACTORS
330
6C
102
}
330
6C
100
AcDbXrecord
280
     1
102
RTVSPropertyOp0
 70
     1
102
RTVSPropertyOp1
 70
     1
102
RTVSPropertyOp2
 70
     1
102
RTVSPropertyOp3
 70
     1
102
RTVSPropertyOp4
 70
     1
102
RTVSPropertyOp5
 70
     1
102
RTVSPropertyOp6
 70
     1
102
RTVSPropertyOp7
 70
     1
102
RTVSPropertyOp8
 70
     1
102
RTVSPropertyOp9
 70
     1
102
RTVSPropertyOp10
 70
     1
102
RTVSPropertyOp11
 70
     1
102
RTVSPropertyOp12
 70
     1
102
RTVSPropertyOp13
 70
     1
102
RTVSPropertyOp14
 70
     1
102
RTVSPropertyOp15
 70
     1
102
RTVSPropertyOp16
 70
     1
102
RTVSPropertyOp17
 70
     1
102
RTVSPropertyOp18
 70
     1
102
RTVSPropertyOp19
 70
     1
102
RTVSPropertyOp20
 70
     1
102
RTVSPropertyOp21
 70
     1
102
RTVSPropertyOp22
 70
     1
102
RTVSPropertyOp23
 70
     1
102
RTVSPropertyOp24
 70
     1
102
RTVSPropertyOp25
 70
     1
102
RTVSPropertyOp26
 70
     1
102
RTVSPropertyOp27
 70
     1
102
RTVSPropertyOp28
 70
     1
102
RTVSPropertyOp29
 70
     1
102
RTVSPropertyOp30
 70
     1
102
RTVSPropertyOp31
 70
     1
102
RTVSPropertyOp32
 70
     1
  0
XRECORD
  5
6F
102
{ACAD_REACTORS
330
6E
102
}
330
6E
100
AcDbXrecord
280
     1
102
RTVSPropertyOp0
 70
     1
102
RTVSPropertyOp1
 70
     1
102
RTVSPropertyOp2
 70
     1
102
RTVSPropertyOp3
 70
     1
102
RTVSPropertyOp4
 70
     1
102
RTVSPropertyOp5
 70
     1
102
RTVSPropertyOp6
 70
     1
102
RTVSPropertyOp7
 70
     1
102
RTVSPropertyOp8
 70
     1
102
RTVSPropertyOp9
 70
     1
102
RTVSPropertyOp10
 70
     1
102
RTVSPropertyOp11
 70
     1
102
RTVSPropertyOp12
 70
     1
102
RTVSPropertyOp13
 70
     1
102
RTVSPropertyOp14
 70
     1
102
RTVSPropertyOp15
 70
     1
102
RTVSPropertyOp16
 70
     1
102
RTVSPropertyOp17
 70
     1
102
RTVSPropertyOp18
 70
     1
102
RTVSPropertyOp19
 70
     1
102
RTVSPropertyOp20
 70
     1
102
RTVSPropertyOp21
 70
     1
102
RTVSPropertyOp22
 70
     1
102
RTVSPropertyOp23
 70
     1
102
RTVSPropertyOp24
 70
     1
102
RTVSPropertyOp25
 70
     1
102
RTVSPropertyOp26
 70
     1
102
RTVSPropertyOp27
 70
     1
102
RTVSPropertyOp28
 70
     1
102
RTVSPropertyOp29
 70
     1
102
RTVSPropertyOp30
 70
     1
102
RTVSPropertyOp31
 70
     1
102
RTVSPropertyOp32
 70
     1
  0
XRECORD
  5
71
102
{ACAD_REACTORS
330
70
102
}
330
70
100
AcDbXrecord
280
     1
102
RTVSPropertyOp0
 70
     1
102
RTVSPropertyOp1
 70
     1
102
RTVSPropertyOp2
 70
     1
102
RTVSPropertyOp3
 70
     1
102
RTVSPropertyOp4
 70
     1
102
RTVSPropertyOp5
 70
     1
102
RTVSPropertyOp6
 70
     1
102
RTVSPropertyOp7
 70
     1
102
RTVSPropertyOp8
 70
     1
102
RTVSPropertyOp9
 70
     1
102
RTVSPropertyOp10
 70
     1
102
RTVSPropertyOp11
 70
     1
102
RTVSPropertyOp12
 70
     1
102
RTVSPropertyOp13
 70
     1
102
RTVSPropertyOp14
 70
     1
102
RTVSPropertyOp15
 70
     1
102
RTVSPropertyOp16
 70
     1
102
RTVSPropertyOp17
 70
     1
102
RTVSPropertyOp18
 70
     1
102
RTVSPropertyOp19
 70
     1
102
RTVSPropertyOp20
 70
     1
102
RTVSPropertyOp21
 70
     1
102
RTVSPropertyOp22
 70
     1
102
RTVSPropertyOp23
 70
     1
102
RTVSPropertyOp24
 70
     1
102
RTVSPropertyOp25
 70
     1
102
RTVSPropertyOp26
 70
     1
102
RTVSPropertyOp27
 70
     1
102
RTVSPropertyOp28
 70
     1
102
RTVSPropertyOp29
 70
     1
102
RTVSPropertyOp30
 70
     1
102
RTVSPropertyOp31
 70
     1
102
RTVSPropertyOp32
 70
     1
  0
XRECORD
  5
73
102
{ACAD_REACTORS
330
72
102
}
330
72
100
AcDbXrecord
280
     1
102
RTVSPropertyOp0
 70
     1
102
RTVSPropertyOp1
 70
     1
102
RTVSPropertyOp2
 70
     1
102
RTVSPropertyOp3
 70
     1
102
RTVSPropertyOp4
 70
     1
102
RTVSPropertyOp5
 70
     1
102
RTVSPropertyOp6
 70
     1
102
RTVSPropertyOp7
 70
     1
102
RTVSPropertyOp8
 70
     1
102
RTVSPropertyOp9
 70
     1
102
RTVSPropertyOp10
 70
     1
102
RTVSPropertyOp11
 70
     1
102
RTVSPropertyOp12
 70
     1
102
RTVSPropertyOp13
 70
     1
102
RTVSPropertyOp14
 70
     1
102
RTVSPropertyOp15
 70
     1
102
RTVSPropertyOp16
 70
     1
102
RTVSPropertyOp17
 70
     1
102
RTVSPropertyOp18
 70
     1
102
RTVSPropertyOp19
 70
     1
102
RTVSPropertyOp20
 70
     1
102
RTVSPropertyOp21
 70
     1
102
RTVSPropertyOp22
 70
     1
102
RTVSPropertyOp23
 70
     1
102
RTVSPropertyOp24
 70
     1
102
RTVSPropertyOp25
 70
     1
102
RTVSPropertyOp26
 70
     1
102
RTVSPropertyOp27
 70
     1
102
RTVSPropertyOp28
 70
     1
102
RTVSPropertyOp29
 70
     1
102
RTVSPropertyOp30
 70
     1
102
RTVSPropertyOp31
 70
     1
102
RTVSPropertyOp32
 70
     1
  0
XRECORD
  5
87
102
{ACAD_REACTORS
330
86
102
}
330
86
100
AcDbXrecord
280
     1
102
RTVSPropertyOp0
 70
     1
102
RTVSPropertyOp1
 70
     1
102
RTVSPropertyOp2
 70
     1
102
RTVSPropertyOp3
 70
     1
102
RTVSPropertyOp4
 70
     1
102
RTVSPropertyOp5
 70
     1
102
RTVSPropertyOp6
 70
     1
102
RTVSPropertyOp7
 70
     1
102
RTVSPropertyOp8
 70
     1
102
RTVSPropertyOp9
 70
     1
102
RTVSPropertyOp10
 70
     1
102
RTVSPropertyOp11
 70
     1
102
RTVSPropertyOp12
 70
     1
102
RTVSPropertyOp13
 70
     1
102
RTVSPropertyOp14
 70
     1
102
RTVSPropertyOp15
 70
     1
102
RTVSPropertyOp16
 70
     1
102
RTVSPropertyOp17
 70
     1
102
RTVSPropertyOp18
 70
     1
102
RTVSPropertyOp19
 70
     1
102
RTVSPropertyOp20
 70
     1
102
RTVSPropertyOp21
 70
     1
102
RTVSPropertyOp22
 70
     1
102
RTVSPropertyOp23
 70
     1
102
RTVSPropertyOp24
 70
     1
102
RTVSPropertyOp25
 70
     1
102
RTVSPropertyOp26
 70
     1
102
RTVSPropertyOp27
 70
     1
102
RTVSPropertyOp28
 70
     1
102
RTVSPropertyOp29
 70
     1
102
RTVSPropertyOp30
 70
     1
102
RTVSPropertyOp31
 70
     1
102
RTVSPropertyOp32
 70
     1
  0
XRECORD
  5
7D
102
{ACAD_REACTORS
330
7C
102
}
330
7C
100
AcDbXrecord
280
     1
102
RTVSPropertyOp0
 70
     1
102
RTVSPropertyOp1
 70
     1
102
RTVSPropertyOp2
 70
     1
102
RTVSPropertyOp3
 70
     1
102
RTVSPropertyOp4
 70
     1
102
RTVSPropertyOp5
 70
     1
102
RTVSPropertyOp6
 70
     1
102
RTVSPropertyOp7
 70
     1
102
RTVSPropertyOp8
 70
     1
102
RTVSPropertyOp9
 70
     1
102
RTVSPropertyOp10
 70
     1
102
RTVSPropertyOp11
 70
     1
102
RTVSPropertyOp12
 70
     1
102
RTVSPropertyOp13
 70
     1
102
RTVSPropertyOp14
 70
     1
102
RTVSPropertyOp15
 70
     1
102
RTVSPropertyOp16
 70
     1
102
RTVSPropertyOp17
 70
     1
102
RTVSPropertyOp18
 70
     1
102
RTVSPropertyOp19
 70
     1
102
RTVSPropertyOp20
 70
     1
102
RTVSPropertyOp21
 70
     1
102
RTVSPropertyOp22
 70
     1
102
RTVSPropertyOp23
 70
     1
102
RTVSPropertyOp24
 70
     1
102
RTVSPropertyOp25
 70
     1
102
RTVSPropertyOp26
 70
     1
102
RTVSPropertyOp27
 70
     1
102
RTVSPropertyOp28
 70
     1
102
RTVSPropertyOp29
 70
     1
102
RTVSPropertyOp30
 70
     1
102
RTVSPropertyOp31
 70
     1
102
RTVSPropertyOp32
 70
     1
  0
XRECORD
  5
85
102
{ACAD_REACTORS
330
84
102
}
330
84
100
AcDbXrecord
280
     1
102
RTVSPropertyOp0
 70
     1
102
RTVSPropertyOp1
 70
     1
102
RTVSPropertyOp2
 70
     1
102
RTVSPropertyOp3
 70
     1
102
RTVSPropertyOp4
 70
     1
102
RTVSPropertyOp5
 70
     1
102
RTVSPropertyOp6
 70
     1
102
RTVSPropertyOp7
 70
     1
102
RTVSPropertyOp8
 70
     1
102
RTVSPropertyOp9
 70
     1
102
RTVSPropertyOp10
 70
     1
102
RTVSPropertyOp11
 70
     1
102
RTVSPropertyOp12
 70
     1
102
RTVSPropertyOp13
 70
     1
102
RTVSPropertyOp14
 70
     1
102
RTVSPropertyOp15
 70
     1
102
RTVSPropertyOp16
 70
     1
102
RTVSPropertyOp17
 70
     1
102
RTVSPropertyOp18
 70
     1
102
RTVSPropertyOp19
 70
     1
102
RTVSPropertyOp20
 70
     1
102
RTVSPropertyOp21
 70
     1
102
RTVSPropertyOp22
 70
     1
102
RTVSPropertyOp23
 70
     1
102
RTVSPropertyOp24
 70
     1
102
RTVSPropertyOp25
 70
     1
102
RTVSPropertyOp26
 70
     1
102
RTVSPropertyOp27
 70
     1
102
RTVSPropertyOp28
 70
     1
102
RTVSPropertyOp29
 70
     1
102
RTVSPropertyOp30
 70
     1
102
RTVSPropertyOp31
 70
     1
102
RTVSPropertyOp32
 70
     1
  0
ENDSEC
  0
EOF
