  0
SECTION
  2
HEADER
  9
$ACADVER
  1
AC1021
  9
$ACADMAINTVER
 70
    25
  9
$DWGCODEPAGE
  3
ANSI_1252
  9
$INSBASE
 10
0.0
 20
0.0
 30
0.0
  9
$EXTMIN
 10
-187.7165
 20
-114.8969
 30
0.0
  9
$EXTMAX
 10
-24.6314
 20
131.7692
 30
0.0
  9
$LIMMIN
 10
0.0
 20
0.0
  9
$LIMMAX
 10
12.0
 20
9.0
  9
$ORTHOMODE
 70
     0
  9
$REGENMODE
 70
     1
  9
$FILLMODE
 70
     1
  9
$QTEXTMODE
 70
     0
  9
$MIRRTEXT
 70
     1
  9
$LTSCALE
 40
1.0
  9
$ATTMODE
 70
     1
  9
$TEXTSIZE
 40
0.2
  9
$TRACEWID
 40
0.05
  9
$TEXTSTYLE
  7
Standard
  9
$CLAYER
  8
0
  9
$CELTYPE
  6
ByLayer
  9
$CECOLOR
 62
   256
  9
$CELTSCALE
 40
1.0
  9
$DISPSILH
 70
     0
  9
$DIMSCALE
 40
1.0
  9
$DIMASZ
 40
0.18
  9
$DIMEXO
 40
0.0625
  9
$DIMDLI
 40
0.38
  9
$DIMRND
 40
0.0
  9
$DIMDLE
 40
0.0
  9
$DIMEXE
 40
0.18
  9
$DIMTP
 40
0.0
  9
$DIMTM
 40
0.0
  9
$DIMTXT
 40
0.18
  9
$DIMCEN
 40
0.09
  9
$DIMTSZ
 40
0.0
  9
$DIMTOL
 70
     0
  9
$DIMLIM
 70
     0
  9
$DIMTIH
 70
     1
  9
$DIMTOH
 70
     1
  9
$DIMSE1
 70
     0
  9
$DIMSE2
 70
     0
  9
$DIMTAD
 70
     0
  9
$DIMZIN
 70
     0
  9
$DIMBLK
  1

  9
$DIMASO
 70
     1
  9
$DIMSHO
 70
     1
  9
$DIMPOST
  1

  9
$DIMAPOST
  1

  9
$DIMALT
 70
     0
  9
$DIMALTD
 70
     2
  9
$DIMALTF
 40
25.4
  9
$DIMLFAC
 40
1.0
  9
$DIMTOFL
 70
     0
  9
$DIMTVP
 40
0.0
  9
$DIMTIX
 70
     0
  9
$DIMSOXD
 70
     0
  9
$DIMSAH
 70
     0
  9
$DIMBLK1
  1

  9
$DIMBLK2
  1

  9
$DIMSTYLE
  2
Standard
  9
$DIMCLRD
 70
     0
  9
$DIMCLRE
 70
     0
  9
$DIMCLRT
 70
     0
  9
$DIMTFAC
 40
1.0
  9
$DIMGAP
 40
0.09
  9
$DIMJUST
 70
     0
  9
$DIMSD1
 70
     0
  9
$DIMSD2
 70
     0
  9
$DIMTOLJ
 70
     1
  9
$DIMTZIN
 70
     0
  9
$DIMALTZ
 70
     0
  9
$DIMALTTZ
 70
     0
  9
$DIMUPT
 70
     0
  9
$DIMDEC
 70
     4
  9
$DIMTDEC
 70
     4
  9
$DIMALTU
 70
     2
  9
$DIMALTTD
 70
     2
  9
$DIMTXSTY
  7
Standard
  9
$DIMAUNIT
 70
     0
  9
$DIMADEC
 70
     0
  9
$DIMALTRND
 40
0.0
  9
$DIMAZIN
 70
     0
  9
$DIMDSEP
 70
    46
  9
$DIMATFIT
 70
     3
  9
$DIMFRAC
 70
     0
  9
$DIMLDRBLK
  1

  9
$DIMLUNIT
 70
     2
  9
$DIMLWD
 70
    -2
  9
$DIMLWE
 70
    -2
  9
$DIMTMOVE
 70
     0
  9
$DIMFXL
 40
1.0
  9
$DIMFXLON
 70
     0
  9
$DIMJOGANG
 40
0.7853981633974483
  9
$DIMTFILL
 70
     0
  9
$DIMTFILLCLR
 70
     0
  9
$DIMARCSYM
 70
     0
  9
$DIMLTYPE
  6

  9
$DIMLTEX1
  6

  9
$DIMLTEX2
  6

  9
$LUNITS
 70
     2
  9
$LUPREC
 70
     4
  9
$SKETCHINC
 40
0.1
  9
$FILLETRAD
 40
0.5
  9
$AUNITS
 70
     0
  9
$AUPREC
 70
     0
  9
$MENU
  1
.
  9
$ELEVATION
 40
0.0
  9
$PELEVATION
 40
0.0
  9
$THICKNESS
 40
0.0
  9
$LIMCHECK
 70
     0
  9
$CHAMFERA
 40
0.5
  9
$CHAMFERB
 40
0.5
  9
$CHAMFERC
 40
1.0
  9
$CHAMFERD
 40
0.0
  9
$SKPOLY
 70
     0
  9
$TDCREATE
 40
2458492.860982338
  9
$TDUCREATE
 40
2458492.860982338
  9
$TDUPDATE
 40
2458492.860982419
  9
$TDUUPDATE
 40
2458492.860982419
  9
$TDINDWG
 40
0.0000000116
  9
$TDUSRTIMER
 40
0.0000000116
  9
$USRTIMER
 70
     1
  9
$ANGBASE
 50
0.0
  9
$ANGDIR
 70
     0
  9
$PDMODE
 70
     0
  9
$PDSIZE
 40
0.0
  9
$PLINEWID
 40
0.0
  9
$SPLFRAME
 70
     0
  9
$SPLINETYPE
 70
     6
  9
$SPLINESEGS
 70
     8
  9
$HANDSEED
  5
9B
  9
$SURFTAB1
 70
     6
  9
$SURFTAB2
 70
     6
  9
$SURFTYPE
 70
     6
  9
$SURFU
 70
     6
  9
$SURFV
 70
     6
  9
$UCSBASE
  2

  9
$UCSNAME
  2

  9
$UCSORG
 10
0.0
 20
0.0
 30
0.0
  9
$UCSXDIR
 10
1.0
 20
0.0
 30
0.0
  9
$UCSYDIR
 10
0.0
 20
1.0
 30
0.0
  9
$UCSORTHOREF
  2

  9
$UCSORTHOVIEW
 70
     0
  9
$UCSORGTOP
 10
0.0
 20
0.0
 30
0.0
  9
$UCSORGBOTTOM
 10
0.0
 20
0.0
 30
0.0
  9
$UCSORGLEFT
 10
0.0
 20
0.0
 30
0.0
  9
$UCSORGRIGHT
 10
0.0
 20
0.0
 30
0.0
  9
$UCSORGFRONT
 10
0.0
 20
0.0
 30
0.0
  9
$UCSORGBACK
 10
0.0
 20
0.0
 30
0.0
  9
$PUCSBASE
  2

  9
$PUCSNAME
  2

  9
$PUCSORG
 10
0.0
 20
0.0
 30
0.0
  9
$PUCSXDIR
 10
1.0
 20
0.0
 30
0.0
  9
$PUCSYDIR
 10
0.0
 20
1.0
 30
0.0
  9
$PUCSORTHOREF
  2

  9
$PUCSORTHOVIEW
 70
     0
  9
$PUCSORGTOP
 10
0.0
 20
0.0
 30
0.0
  9
$PUCSORGBOTTOM
 10
0.0
 20
0.0
 30
0.0
  9
$PUCSORGLEFT
 10
0.0
 20
0.0
 30
0.0
  9
$PUCSORGRIGHT
 10
0.0
 20
0.0
 30
0.0
  9
$PUCSORGFRONT
 10
0.0
 20
0.0
 30
0.0
  9
$PUCSORGBACK
 10
0.0
 20
0.0
 30
0.0
  9
$USERI1
 70
     0
  9
$USERI2
 70
     0
  9
$USERI3
 70
     0
  9
$USERI4
 70
     0
  9
$USERI5
 70
     0
  9
$USERR1
 40
0.0
  9
$USERR2
 40
0.0
  9
$USERR3
 40
0.0
  9
$USERR4
 40
0.0
  9
$USERR5
 40
0.0
  9
$WORLDVIEW
 70
     1
  9
$SHADEDGE
 70
     3
  9
$SHADEDIF
 70
    70
  9
$TILEMODE
 70
     1
  9
$MAXACTVP
 70
    64
  9
$PINSBASE
 10
0.0
 20
0.0
 30
0.0
  9
$PLIMCHECK
 70
     0
  9
$PEXTMIN
 10
1.000000000000000E+20
 20
1.000000000000000E+20
 30
1.000000000000000E+20
  9
$PEXTMAX
 10
-1.000000000000000E+20
 20
-1.000000000000000E+20
 30
-1.000000000000000E+20
  9
$PLIMMIN
 10
0.0
 20
0.0
  9
$PLIMMAX
 10
12.0
 20
9.0
  9
$UNITMODE
 70
     0
  9
$VISRETAIN
 70
     1
  9
$PLINEGEN
 70
     0
  9
$PSLTSCALE
 70
     1
  9
$TREEDEPTH
 70
  3020
  9
$CMLSTYLE
  2
Standard
  9
$CMLJUST
 70
     0
  9
$CMLSCALE
 40
1.0
  9
$PROXYGRAPHICS
 70
     1
  9
$MEASUREMENT
 70
     0
  9
$CELWEIGHT
370
    -1
  9
$ENDCAPS
280
     0
  9
$JOINSTYLE
280
     0
  9
$LWDISPLAY
290
     0
  9
$INSUNITS
 70
     4
  9
$HYPERLINKBASE
  1

  9
$STYLESHEET
  1

  9
$XEDIT
290
     1
  9
$CEPSNTYPE
380
     0
  9
$PSTYLEMODE
290
     1
  9
$FINGERPRINTGUID
  2
{4A993B96-0340-4990-AF4C-E3CA8DD915EE}
  9
$VERSIONGUID
  2
{FAEB1C32-E019-11D5-929B-00C0DF256EC4}
  9
$EXTNAMES
290
     1
  9
$PSVPSCALE
 40
0.0
  9
$OLESTARTUP
290
     0
  9
$SORTENTS
280
   127
  9
$INDEXCTL
280
     0
  9
$HIDETEXT
280
     1
  9
$XCLIPFRAME
290
     0
  9
$HALOGAP
280
     0
  9
$OBSCOLOR
 70
   257
  9
$OBSLTYPE
280
     0
  9
$INTERSECTIONDISPLAY
280
     0
  9
$INTERSECTIONCOLOR
 70
   257
  9
$DIMASSOC
280
     2
  9
$PROJECTNAME
  1

  9
$CAMERADISPLAY
290
     0
  9
$LENSLENGTH
 40
50.0
  9
$CAMERAHEIGHT
 40
0.0
  9
$STEPSPERSEC
 40
2.0
  9
$STEPSIZE
 40
6.0
  9
$3DDWFPREC
 40
2.0
  9
$PSOLWIDTH
 40
0.25
  9
$PSOLHEIGHT
 40
4.0
  9
$LOFTANG1
 40
1.570796326794897
  9
$LOFTANG2
 40
1.570796326794897
  9
$LOFTMAG1
 40
0.0
  9
$LOFTMAG2
 40
0.0
  9
$LOFTPARAM
 70
     7
  9
$LOFTNORMALS
280
     1
  9
$LATITUDE
 40
37.795
  9
$LONGITUDE
 40
-122.394
  9
$NORTHDIRECTION
 40
0.0
  9
$TIMEZONE
 70
 -8000
  9
$LIGHTGLYPHDISPLAY
280
     1
  9
$TILEMODELIGHTSYNCH
280
     1
  9
$SOLIDHIST
280
     1
  9
$SHOWHIST
280
     1
  9
$DWFFRAME
280
     2
  9
$DGNFRAME
280
     2
  9
$REALWORLDSCALE
290
     1
  9
$INTERFERECOLOR
 62
   256
  9
$CSHADOW
280
     0
  9
$SHADOWPLANELOCATION
 40
0.0
  0
ENDSEC
  0
SECTION
  2
CLASSES
  0
CLASS
  1
ACDBDICTIONARYWDFLT
  2
AcDbDictionaryWithDefault
  3
ObjectDBX Classes
 90
        0
 91
        4
280
     0
281
     0
  0
CLASS
  1
VISUALSTYLE
  2
AcDbVisualStyle
  3
ObjectDBX Classes
 90
     4095
 91
        4
280
     0
281
     0
  0
CLASS
  1
MATERIAL
  2
AcDbMaterial
  3
ObjectDBX Classes
 90
     1153
 91
        4
280
     0
281
     0
  0
ENDSEC
  0
SECTION
  2
TABLES
  0
TABLE
  2
VPORT
  5
8
330
0
100
AcDbSymbolTable
 70
     1
  0
VPORT
  5
29
330
8
100
AcDbSymbolTableRecord
100
AcDbViewportTableRecord
  2
*Active
 70
     0
 10
0.0
 20
0.0
 11
1.0
 21
1.0
 12
10.42990654205607
 22
4.5
 13
0.0
 23
0.0
 14
0.5
 24
0.5
 15
0.5
 25
0.5
 16
0.0
 26
0.0
 36
1.0
 17
0.0
 27
0.0
 37
0.0
 40
9.0
 41
1.972972972850329
 42
50.0
 43
0.0
 44
0.0
 50
0.0
 51
0.0
 71
     0
 72
   100
 73
     1
 74
     3
 75
     0
 76
     0
 77
     0
 78
     0
281
     0
 65
     1
110
0.0
120
0.0
130
0.0
111
1.0
121
0.0
131
0.0
112
0.0
122
1.0
132
0.0
 79
     0
146
0.0
 60
     3
 61
     5
292
     1
282
     1
141
0.0
142
0.0
 63
   250
  0
ENDTAB
  0
TABLE
  2
LTYPE
  5
5
330
0
100
AcDbSymbolTable
 70
     1
  0
LTYPE
  5
14
330
5
100
AcDbSymbolTableRecord
100
AcDbLinetypeTableRecord
  2
ByBlock
 70
     0
  3

 72
    65
 73
     0
 40
0.0
  0
LTYPE
  5
15
330
5
100
AcDbSymbolTableRecord
100
AcDbLinetypeTableRecord
  2
ByLayer
 70
     0
  3

 72
    65
 73
     0
 40
0.0
  0
LTYPE
  5
16
330
5
100
AcDbSymbolTableRecord
100
AcDbLinetypeTableRecord
  2
Continuous
 70
     0
  3
Solid line
 72
    65
 73
     0
 40
0.0
  0
ENDTAB
  0
TABLE
  2
LAYER
  5
2
330
0
100
AcDbSymbolTable
 70
     3
  0
LAYER
  5
10
330
2
100
AcDbSymbolTableRecord
100
AcDbLayerTableRecord
  2
0
 70
     0
 62
     7
  6
Continuous
370
    -3
390
F
347
3E
  0
LAYER
  5
40
330
2
100
AcDbSymbolTableRecord
100
AcDbLayerTableRecord
  2
layer 1
 70
     0
 62
     7
  6
Continuous
370
    -3
390
F
347
3E
  0
LAYER
  5
78
330
2
100
AcDbSymbolTableRecord
100
AcDbLayerTableRecord
  2
Master Guides
 70
     0
 62
     7
  6
Continuous
370
    -3
390
F
347
3E
  0
ENDTAB
  0
TABLE
  2
STYLE
  5
3
330
0
100
AcDbSymbolTable
 70
     1
  0
STYLE
  5
11
330
3
100
AcDbSymbolTableRecord
100
AcDbTextStyleTableRecord
  2
Standard
 70
     0
 40
0.0
 41
1.0
 50
0.0
 71
     0
 42
0.2
  3
txt
  4

  0
ENDTAB
  0
TABLE
  2
VIEW
  5
6
330
0
100
AcDbSymbolTable
 70
     0
  0
ENDTAB
  0
TABLE
  2
UCS
  5
7
330
0
100
AcDbSymbolTable
 70
     0
  0
ENDTAB
  0
TABLE
  2
APPID
  5
9
330
0
100
AcDbSymbolTable
 70
     2
  0
APPID
  5
12
330
9
100
AcDbSymbolTableRecord
100
AcDbRegAppTableRecord
  2
ACAD
 70
     0
  0
APPID
  5
3F
330
9
100
AcDbSymbolTableRecord
100
AcDbRegAppTableRecord
  2
ODA
 70
     0
  0
ENDTAB
  0
TABLE
  2
DIMSTYLE
  5
A
330
0
100
AcDbSymbolTable
 70
     1
100
AcDbDimStyleTable
  0
DIMSTYLE
105
27
330
A
100
AcDbSymbolTableRecord
100
AcDbDimStyleTableRecord
  2
Standard
 70
     0
178
     0
340
11
  0
ENDTAB
  0
TABLE
  2
BLOCK_RECORD
  5
1
330
0
100
AcDbSymbolTable
 70
     1
  0
BLOCK_RECORD
  5
1F
330
1
100
AcDbSymbolTableRecord
100
AcDbBlockTableRecord
  2
*Model_Space
340
22
 70
     0
280
     1
281
     0
  0
BLOCK_RECORD
  5
1B
330
1
100
AcDbSymbolTableRecord
100
AcDbBlockTableRecord
  2
*Paper_Space
340
1E
 70
     0
280
     1
281
     0
  0
BLOCK_RECORD
  5
23
330
1
100
AcDbSymbolTableRecord
100
AcDbBlockTableRecord
  2
*Paper_Space0
340
26
 70
     0
280
     1
281
     0
  0
ENDTAB
  0
ENDSEC
  0
SECTION
  2
BLOCKS
  0
BLOCK
  5
20
330
1F
100
AcDbEntity
  8
0
100
AcDbBlockBegin
  2
*Model_Space
 70
     0
 10
0.0
 20
0.0
 30
0.0
  3
*Model_Space
  1

  0
ENDBLK
  5
21
330
1F
100
AcDbEntity
  8
0
100
AcDbBlockEnd
  0
BLOCK
  5
1C
330
1B
100
AcDbEntity
 67
     1
  8
0
100
AcDbBlockBegin
  2
*Paper_Space
 70
     0
 10
0.0
 20
0.0
 30
0.0
  3
*Paper_Space
  1

  0
ENDBLK
  5
1D
330
1B
100
AcDbEntity
 67
     1
  8
0
100
AcDbBlockEnd
  0
BLOCK
  5
24
330
23
100
AcDbEntity
  8
0
100
AcDbBlockBegin
  2
*Paper_Space0
 70
     0
 10
0.0
 20
0.0
 30
0.0
  3
*Paper_Space0
  1

  0
ENDBLK
  5
25
330
23
100
AcDbEntity
  8
0
100
AcDbBlockEnd
  0
ENDSEC
  0
SECTION
  2
ENTITIES
  0
LWPOLYLINE
  5
41
330
1F
100
AcDbEntity
  8
layer 1
100
AcDbPolyline
 90
        5
 70
     1
 43
0.0
 10
-187.7165
 20
-114.8969
 10
-24.6315
 20
-114.8969
 10
-24.6315
 20
131.7691
 10
-187.7165
 20
131.7691
 10
-187.7165
 20
-114.8969
  0
SPLINE
  5
42
330
1F
100
AcDbEntity
  8
layer 1
 62
     7
100
AcDbSpline
210
0.0
220
0.0
230
1.0
 70
    11
 71
     3
 72
    60
 73
    56
 74
     0
 42
0.0000000001
 43
0.0000000001
 12
1.0
 22
0.0
 32
0.0
 13
1.0
 23
0.0
 33
0.0
 40
0.0
 40
0.0
 40
0.0
 40
0.0
 40
0.0666666666666667
 40
0.0666666666666667
 40
0.0666666666666667
 40
0.0666666666666667
 40
0.1333333333333333
 40
0.1333333333333333
 40
0.1333333333333333
 40
0.1333333333333333
 40
0.2
 40
0.2
 40
0.2
 40
0.2
 40
0.2666666666666667
 40
0.2666666666666667
 40
0.2666666666666667
 40
0.2666666666666667
 40
0.3333333333333333
 40
0.3333333333333333
 40
0.3333333333333333
 40
0.3333333333333333
 40
0.4
 40
0.4
 40
0.4
 40
0.4
 40
0.4666666666666667
 40
0.4666666666666667
 40
0.4666666666666667
 40
0.4666666666666667
 40
0.5333333333333333
 40
0.5333333333333333
 40
0.5333333333333333
 40
0.5333333333333333
 40
0.6
 40
0.6
 40
0.6
 40
0.6
 40
0.6666666666666666
 40
0.6666666666666666
 40
0.6666666666666666
 40
0.6666666666666666
 40
0.7333333333333333
 40
0.7333333333333333
 40
0.7333333333333333
 40
0.7333333333333333
 40
0.8
 40
0.8
 40
0.8
 40
0.8
 40
0.8666666666666667
 40
0.8666666666666667
 40
0.8666666666666667
 40
0.8666666666666667
 40
1.0
 40
1.0
 40
1.0
 40
1.0
 10
-179.1954
 20
72.6371
 30
0.0
 10
-177.1368
 20
75.0607
 30
0.0
 10
-175.7397
 20
73.9049
 30
0.0
 10
-174.6692
 20
72.5172
 30
0.0
 10
-174.6692
 20
72.5172
 30
0.0
 10
-173.8102
 20
72.417
 30
0.0
 10
-174.1421
 20
76.6896
 30
0.0
 10
-173.1007
 20
76.6315
 30
0.0
 10
-173.1007
 20
76.6315
 30
0.0
 10
-172.136
 20
77.2198
 30
0.0
 10
-171.3506
 20
74.3425
 30
0.0
 10
-169.1685
 20
74.6162
 30
0.0
 10
-169.1685
 20
74.6162
 30
0.0
 10
-168.4229
 20
74.5238
 30
0.0
 10
-168.733
 20
77.3723
 30
0.0
 10
-167.9295
 20
77.3008
 30
0.0
 10
-167.9295
 20
77.3008
 30
0.0
 10
-164.5517
 20
77.2258
 30
0.0
 10
-163.9857
 20
73.9471
 30
0.0
 10
-161.171
 20
74.441
 30
0.0
 10
-161.171
 20
74.441
 30
0.0
 10
-159.9069
 20
74.2816
 30
0.0
 10
-161.1757
 20
77.6355
 30
0.0
 10
-159.9648
 20
77.6297
 30
0.0
 10
-159.9648
 20
77.6297
 30
0.0
 10
-155.8898
 20
76.2361
 30
0.0
 10
-151.8985
 20
68.3395
 30
0.0
 10
-139.3665
 20
60.3761
 30
0.0
 10
-139.3665
 20
60.3761
 30
0.0
 10
-139.6382
 20
64.7168
 30
0.0
 10
-139.8145
 20
71.305
 30
0.0
 10
-140.4439
 20
73.4573
 30
0.0
 10
-140.4439
 20
73.4573
 30
0.0
 10
-160.3613
 20
76.8735
 30
0.0
 10
-163.0153
 20
94.3238
 30
0.0
 10
-158.323
 20
114.0346
 30
0.0
 10
-158.323
 20
114.0346
 30
0.0
 10
-157.9794
 20
115.4782
 30
0.0
 10
-157.2679
 20
118.9328
 30
0.0
 10
-157.4507
 20
120.3719
 30
0.0
 10
-157.4507
 20
120.3719
 30
0.0
 10
-156.3325
 20
118.0145
 30
0.0
 10
-154.7822
 20
117.7801
 30
0.0
 10
-152.724
 20
117.6417
 30
0.0
 10
-152.724
 20
117.6417
 30
0.0
 10
-153.2788
 20
122.3686
 30
0.0
 10
-149.3869
 20
124.7509
 30
0.0
 10
-150.2736
 20
124.7487
 30
0.0
 10
-150.2736
 20
124.7487
 30
0.0
 10
-150.2736
 20
124.7487
 30
0.0
 10
-179.1959
 20
124.6031
 30
0.0
 10
-179.1959
 20
124.6031
 30
0.0
 10
-179.1959
 20
124.6031
 30
0.0
 10
-179.1959
 20
124.6031
 30
0.0
 10
-179.1954
 20
72.6371
 30
0.0
 10
-179.1954
 20
72.6371
 30
0.0
  0
SPLINE
  5
43
330
1F
100
AcDbEntity
  8
layer 1
 62
     7
100
AcDbSpline
210
0.0
220
0.0
230
1.0
 70
    11
 71
     3
 72
   192
 73
   188
 74
     0
 42
0.0000000001
 43
0.0000000001
 12
1.0
 22
0.0
 32
0.0
 13
1.0
 23
0.0
 33
0.0
 40
0.0
 40
0.0
 40
0.0
 40
0.0
 40
0.0208333333333333
 40
0.0208333333333333
 40
0.0208333333333333
 40
0.0208333333333333
 40
0.0416666666666667
 40
0.0416666666666667
 40
0.0416666666666667
 40
0.0416666666666667
 40
0.0625
 40
0.0625
 40
0.0625
 40
0.0625
 40
0.0833333333333333
 40
0.0833333333333333
 40
0.0833333333333333
 40
0.0833333333333333
 40
0.1041666666666667
 40
0.1041666666666667
 40
0.1041666666666667
 40
0.1041666666666667
 40
0.125
 40
0.125
 40
0.125
 40
0.125
 40
0.1458333333333333
 40
0.1458333333333333
 40
0.1458333333333333
 40
0.1458333333333333
 40
0.1666666666666667
 40
0.1666666666666667
 40
0.1666666666666667
 40
0.1666666666666667
 40
0.1875
 40
0.1875
 40
0.1875
 40
0.1875
 40
0.2083333333333333
 40
0.2083333333333333
 40
0.2083333333333333
 40
0.2083333333333333
 40
0.2291666666666667
 40
0.2291666666666667
 40
0.2291666666666667
 40
0.2291666666666667
 40
0.25
 40
0.25
 40
0.25
 40
0.25
 40
0.2708333333333333
 40
0.2708333333333333
 40
0.2708333333333333
 40
0.2708333333333333
 40
0.2916666666666667
 40
0.2916666666666667
 40
0.2916666666666667
 40
0.2916666666666667
 40
0.3125
 40
0.3125
 40
0.3125
 40
0.3125
 40
0.3333333333333333
 40
0.3333333333333333
 40
0.3333333333333333
 40
0.3333333333333333
 40
0.3541666666666667
 40
0.3541666666666667
 40
0.3541666666666667
 40
0.3541666666666667
 40
0.375
 40
0.375
 40
0.375
 40
0.375
 40
0.3958333333333333
 40
0.3958333333333333
 40
0.3958333333333333
 40
0.3958333333333333
 40
0.4166666666666667
 40
0.4166666666666667
 40
0.4166666666666667
 40
0.4166666666666667
 40
0.4375
 40
0.4375
 40
0.4375
 40
0.4375
 40
0.4583333333333333
 40
0.4583333333333333
 40
0.4583333333333333
 40
0.4583333333333333
 40
0.4791666666666667
 40
0.4791666666666667
 40
0.4791666666666667
 40
0.4791666666666667
 40
0.5
 40
0.5
 40
0.5
 40
0.5
 40
0.5208333333333334
 40
0.5208333333333334
 40
0.5208333333333334
 40
0.5208333333333334
 40
0.5416666666666666
 40
0.5416666666666666
 40
0.5416666666666666
 40
0.5416666666666666
 40
0.5625
 40
0.5625
 40
0.5625
 40
0.5625
 40
0.5833333333333334
 40
0.5833333333333334
 40
0.5833333333333334
 40
0.5833333333333334
 40
0.6041666666666666
 40
0.6041666666666666
 40
0.6041666666666666
 40
0.6041666666666666
 40
0.625
 40
0.625
 40
0.625
 40
0.625
 40
0.6458333333333334
 40
0.6458333333333334
 40
0.6458333333333334
 40
0.6458333333333334
 40
0.6666666666666666
 40
0.6666666666666666
 40
0.6666666666666666
 40
0.6666666666666666
 40
0.6875
 40
0.6875
 40
0.6875
 40
0.6875
 40
0.7083333333333334
 40
0.7083333333333334
 40
0.7083333333333334
 40
0.7083333333333334
 40
0.7291666666666666
 40
0.7291666666666666
 40
0.7291666666666666
 40
0.7291666666666666
 40
0.75
 40
0.75
 40
0.75
 40
0.75
 40
0.7708333333333334
 40
0.7708333333333334
 40
0.7708333333333334
 40
0.7708333333333334
 40
0.7916666666666666
 40
0.7916666666666666
 40
0.7916666666666666
 40
0.7916666666666666
 40
0.8125
 40
0.8125
 40
0.8125
 40
0.8125
 40
0.8333333333333334
 40
0.8333333333333334
 40
0.8333333333333334
 40
0.8333333333333334
 40
0.8541666666666666
 40
0.8541666666666666
 40
0.8541666666666666
 40
0.8541666666666666
 40
0.875
 40
0.875
 40
0.875
 40
0.875
 40
0.8958333333333334
 40
0.8958333333333334
 40
0.8958333333333334
 40
0.8958333333333334
 40
0.9166666666666666
 40
0.9166666666666666
 40
0.9166666666666666
 40
0.9166666666666666
 40
0.9375
 40
0.9375
 40
0.9375
 40
0.9375
 40
0.9583333333333334
 40
0.9583333333333334
 40
0.9583333333333334
 40
0.9583333333333334
 40
1.0
 40
1.0
 40
1.0
 40
1.0
 10
-135.7813
 20
74.731
 30
0.0
 10
-134.4529
 20
57.4522
 30
0.0
 10
-132.0949
 20
44.3103
 30
0.0
 10
-127.385
 20
36.1669
 30
0.0
 10
-127.385
 20
36.1669
 30
0.0
 10
-125.102
 20
40.8409
 30
0.0
 10
-123.721
 20
42.6846
 30
0.0
 10
-121.6744
 20
46.898
 30
0.0
 10
-121.6744
 20
46.898
 30
0.0
 10
-141.4811
 20
66.8339
 30
0.0
 10
-110.3761
 20
84.1417
 30
0.0
 10
-108.1941
 20
88.4359
 30
0.0
 10
-108.1941
 20
88.4359
 30
0.0
 10
-104.537
 20
91.9341
 30
0.0
 10
-107.5147
 20
85.1186
 30
0.0
 10
-104.2472
 20
87.8454
 30
0.0
 10
-104.2472
 20
87.8454
 30
0.0
 10
-99.0376
 20
92.1928
 30
0.0
 10
-99.8471
 20
88.4897
 30
0.0
 10
-98.9573
 20
86.6778
 30
0.0
 10
-98.9573
 20
86.6778
 30
0.0
 10
-98.1151
 20
84.9633
 30
0.0
 10
-94.4978
 20
90.8723
 30
0.0
 10
-94.3442
 20
84.9543
 30
0.0
 10
-94.3442
 20
84.9543
 30
0.0
 10
-94.229
 20
80.5085
 30
0.0
 10
-95.3113
 20
76.6407
 30
0.0
 10
-94.4753
 20
76.5471
 30
0.0
 10
-94.4753
 20
76.5471
 30
0.0
 10
-90.7632
 20
78.7917
 30
0.0
 10
-92.1229
 20
76.2087
 30
0.0
 10
-92.3233
 20
73.771
 30
0.0
 10
-92.3233
 20
73.771
 30
0.0
 10
-92.8183
 20
70.0938
 30
0.0
 10
-95.7621
 20
41.788
 30
0.0
 10
-119.0077
 20
44.3786
 30
0.0
 10
-119.0077
 20
44.3786
 30
0.0
 10
-121.8225
 20
40.3098
 30
0.0
 10
-123.7694
 20
34.5778
 30
0.0
 10
-125.9281
 20
29.7118
 30
0.0
 10
-125.9281
 20
29.7118
 30
0.0
 10
-124.8638
 20
26.3718
 30
0.0
 10
-121.1561
 20
19.0884
 30
0.0
 10
-119.5375
 20
13.9199
 30
0.0
 10
-119.5375
 20
13.9199
 30
0.0
 10
-118.4181
 20
18.4408
 30
0.0
 10
-117.9147
 20
21.8534
 30
0.0
 10
-115.8804
 20
29.5111
 30
0.0
 10
-115.8804
 20
29.5111
 30
0.0
 10
-112.7218
 20
23.2882
 30
0.0
 10
-107.4051
 20
12.2538
 30
0.0
 10
-105.9408
 20
5.9722
 30
0.0
 10
-105.9408
 20
5.9722
 30
0.0
 10
-104.3957
 20
9.3821
 30
0.0
 10
-103.6339
 20
11.5124
 30
0.0
 10
-102.2623
 20
13.6402
 30
0.0
 10
-102.2623
 20
13.6402
 30
0.0
 10
-106.6489
 20
21.9523
 30
0.0
 10
-112.5131
 20
39.8033
 30
0.0
 10
-85.6539
 20
52.8124
 30
0.0
 10
-85.6539
 20
52.8124
 30
0.0
 10
-83.4004
 20
53.9038
 30
0.0
 10
-81.3001
 20
55.6097
 30
0.0
 10
-79.6889
 20
58.595
 30
0.0
 10
-79.6889
 20
58.595
 30
0.0
 10
-79.3651
 20
59.9493
 30
0.0
 10
-78.715
 20
55.3025
 30
0.0
 10
-78.987
 20
52.8557
 30
0.0
 10
-78.987
 20
52.8557
 30
0.0
 10
-77.3954
 20
53.8558
 30
0.0
 10
-74.4449
 20
55.8611
 30
0.0
 10
-72.6959
 20
56.7048
 30
0.0
 10
-72.6959
 20
56.7048
 30
0.0
 10
-71.6576
 20
55.3483
 30
0.0
 10
-71.337
 20
52.9459
 30
0.0
 10
-70.8418
 20
50.3867
 30
0.0
 10
-70.8418
 20
50.3867
 30
0.0
 10
-70.0084
 20
50.8513
 30
0.0
 10
-67.8911
 20
52.2426
 30
0.0
 10
-65.6812
 20
52.5565
 30
0.0
 10
-65.6812
 20
52.5565
 30
0.0
 10
-65.3362
 20
50.7272
 30
0.0
 10
-66.7106
 20
47.7591
 30
0.0
 10
-65.5619
 20
48.4735
 30
0.0
 10
-65.5619
 20
48.4735
 30
0.0
 10
-64.6399
 20
49.0468
 30
0.0
 10
-63.8308
 20
49.5207
 30
0.0
 10
-62.728
 20
50.3307
 30
0.0
 10
-62.728
 20
50.3307
 30
0.0
 10
-62.8287
 20
44.6072
 30
0.0
 10
-64.3354
 20
42.2872
 30
0.0
 10
-65.5744
 20
40.5436
 30
0.0
 10
-65.5744
 20
40.5436
 30
0.0
 10
-64.4229
 20
40.5594
 30
0.0
 10
-62.4058
 20
41.128
 30
0.0
 10
-60.7922
 20
42.2465
 30
0.0
 10
-60.7922
 20
42.2465
 30
0.0
 10
-63.1399
 20
37.2013
 30
0.0
 10
-62.1674
 20
35.6336
 30
0.0
 10
-67.9065
 20
25.362
 30
0.0
 10
-67.9065
 20
25.362
 30
0.0
 10
-60.5115
 20
35.5818
 30
0.0
 10
-54.7751
 20
33.1664
 30
0.0
 10
-50.4739
 20
40.715
 30
0.0
 10
-50.4739
 20
40.715
 30
0.0
 10
-49.1121
 20
42.7299
 30
0.0
 10
-47.6252
 20
32.4741
 30
0.0
 10
-46.3634
 20
34.6662
 30
0.0
 10
-46.3634
 20
34.6662
 30
0.0
 10
-43.4857
 20
36.2754
 30
0.0
 10
-41.9513
 20
38.3923
 30
0.0
 10
-40.5718
 20
38.3716
 30
0.0
 10
-40.5718
 20
38.3716
 30
0.0
 10
-38.78
 20
37.6478
 30
0.0
 10
-39.1064
 20
36.425
 30
0.0
 10
-37.5218
 20
35.6586
 30
0.0
 10
-37.5218
 20
35.6586
 30
0.0
 10
-36.9219
 20
36.4578
 30
0.0
 10
-35.4341
 20
37.4602
 30
0.0
 10
-33.2333
 20
36.9077
 30
0.0
 10
-33.2333
 20
36.9077
 30
0.0
 10
-33.2333
 20
36.9077
 30
0.0
 10
-33.1523
 20
76.3886
 30
0.0
 10
-33.1523
 20
76.3886
 30
0.0
 10
-33.1523
 20
76.3886
 30
0.0
 10
-41.8086
 20
76.5116
 30
0.0
 10
-48.1961
 20
59.6631
 30
0.0
 10
-67.5846
 20
73.3269
 30
0.0
 10
-67.5846
 20
73.3269
 30
0.0
 10
-65.4747
 20
70.1456
 30
0.0
 10
-65.5787
 20
68.3045
 30
0.0
 10
-64.3854
 20
64.7684
 30
0.0
 10
-64.3854
 20
64.7684
 30
0.0
 10
-69.8656
 20
68.4656
 30
0.0
 10
-74.6708
 20
72.2647
 30
0.0
 10
-76.6312
 20
78.1733
 30
0.0
 10
-76.6312
 20
78.1733
 30
0.0
 10
-79.0508
 20
77.9793
 30
0.0
 10
-83.5893
 20
80.8963
 30
0.0
 10
-83.5705
 20
84.5958
 30
0.0
 10
-83.5705
 20
84.5958
 30
0.0
 10
-86.1009
 20
84.7038
 30
0.0
 10
-88.7772
 20
85.6875
 30
0.0
 10
-88.9272
 20
88.9604
 30
0.0
 10
-88.9272
 20
88.9604
 30
0.0
 10
-95.1475
 20
90.8107
 30
0.0
 10
-97.7247
 20
101.9056
 30
0.0
 10
-95.4
 20
103.2197
 30
0.0
 10
-95.4
 20
103.2197
 30
0.0
 10
-93.6941
 20
104.1839
 30
0.0
 10
-94.0973
 20
101.5841
 30
0.0
 10
-93.4233
 20
98.1896
 30
0.0
 10
-93.4233
 20
98.1896
 30
0.0
 10
-92.6866
 20
94.4796
 30
0.0
 10
-91.4087
 20
93.6995
 30
0.0
 10
-89.5291
 20
90.9949
 30
0.0
 10
-89.5291
 20
90.9949
 30
0.0
 10
-93.6017
 20
104.997
 30
0.0
 10
-88.092
 20
102.7459
 30
0.0
 10
-87.8793
 20
102.1503
 30
0.0
 10
-87.8793
 20
102.1503
 30
0.0
 10
-90.4587
 20
93.6301
 30
0.0
 10
-85.0837
 20
89.1582
 30
0.0
 10
-82.3685
 20
87.5731
 30
0.0
 10
-82.3685
 20
87.5731
 30
0.0
 10
-90.242
 20
103.2777
 30
0.0
 10
-71.2421
 20
124.7505
 30
0.0
 10
-72.1287
 20
124.7485
 30
0.0
 10
-72.1287
 20
124.7485
 30
0.0
 10
-72.1287
 20
124.7485
 30
0.0
 10
-137.1663
 20
124.6029
 30
0.0
 10
-137.1663
 20
124.6029
 30
0.0
 10
-137.1663
 20
124.6029
 30
0.0
 10
-137.1663
 20
124.6029
 30
0.0
 10
-134.7809
 20
122.6743
 30
0.0
 10
-133.5887
 20
118.4264
 30
0.0
 10
-133.5887
 20
118.4264
 30
0.0
 10
-132.8042
 20
121.356
 30
0.0
 10
-131.4732
 20
121.737
 30
0.0
 10
-130.8809
 20
120.8277
 30
0.0
 10
-130.8809
 20
120.8277
 30
0.0
 10
-113.434
 20
94.0458
 30
0.0
 10
-131.2434
 20
74.8803
 30
0.0
 10
-135.7813
 20
74.7308
 30
0.0
 10
-135.7813
 20
74.7308
 30
0.0
 10
-135.7813
 20
74.7308
 30
0.0
 10
-135.7813
 20
74.731
 30
0.0
 10
-135.7813
 20
74.731
 30
0.0
  0
SPLINE
  5
44
330
1F
100
AcDbEntity
  8
layer 1
 62
     7
100
AcDbSpline
210
0.0
220
0.0
230
1.0
 70
    11
 71
     3
 72
    20
 73
    16
 74
     0
 42
0.0000000001
 43
0.0000000001
 12
1.0
 22
0.0
 32
0.0
 13
1.0
 23
0.0
 33
0.0
 40
0.0
 40
0.0
 40
0.0
 40
0.0
 40
0.2
 40
0.2
 40
0.2
 40
0.2
 40
0.4
 40
0.4
 40
0.4
 40
0.4
 40
0.6
 40
0.6
 40
0.6
 40
0.6
 40
1.0
 40
1.0
 40
1.0
 40
1.0
 10
-33.1634
 20
-18.2131
 30
0.0
 10
-40.8629
 20
-20.7694
 30
0.0
 10
-56.1309
 20
-32.0668
 30
0.0
 10
-68.6517
 20
-44.5669
 30
0.0
 10
-68.6517
 20
-44.5669
 30
0.0
 10
-73.029
 20
-33.6885
 30
0.0
 10
-72.4169
 20
-17.9472
 30
0.0
 10
-64.8138
 20
-9.1116
 30
0.0
 10
-64.8138
 20
-9.1116
 30
0.0
 10
-38.8494
 20
-11.3062
 30
0.0
 10
-41.6403
 20
9.5848
 30
0.0
 10
-33.3287
 20
22.8565
 30
0.0
 10
-33.3287
 20
22.8565
 30
0.0
 10
-33.3287
 20
22.8565
 30
0.0
 10
-33.1634
 20
-18.2131
 30
0.0
 10
-33.1634
 20
-18.2131
 30
0.0
  0
SPLINE
  5
45
330
1F
100
AcDbEntity
  8
layer 1
 62
     7
100
AcDbSpline
210
0.0
220
0.0
230
1.0
 70
    11
 71
     3
 72
    20
 73
    16
 74
     0
 42
0.0000000001
 43
0.0000000001
 12
1.0
 22
0.0
 32
0.0
 13
1.0
 23
0.0
 33
0.0
 40
0.0
 40
0.0
 40
0.0
 40
0.0
 40
0.2
 40
0.2
 40
0.2
 40
0.2
 40
0.4
 40
0.4
 40
0.4
 40
0.4
 40
0.6
 40
0.6
 40
0.6
 40
0.6
 40
1.0
 40
1.0
 40
1.0
 40
1.0
 10
-33.3287
 20
-76.3273
 30
0.0
 10
-41.0282
 20
-78.8835
 30
0.0
 10
-44.7984
 20
-80.5921
 30
0.0
 10
-56.0119
 20
-89.0243
 30
0.0
 10
-56.0119
 20
-89.0243
 30
0.0
 10
-56.4664
 20
-82.9402
 30
0.0
 10
-55.9996
 20
-78.6766
 30
0.0
 10
-56.2421
 20
-74.6355
 30
0.0
 10
-56.2421
 20
-74.6355
 30
0.0
 10
-46.9856
 20
-63.1733
 30
0.0
 10
-38.7347
 20
-41.2654
 30
0.0
 10
-33.3287
 20
-26.9766
 30
0.0
 10
-33.3287
 20
-26.9766
 30
0.0
 10
-33.3287
 20
-26.9766
 30
0.0
 10
-33.3287
 20
-76.3273
 30
0.0
 10
-33.3287
 20
-76.3273
 30
0.0
  0
SPLINE
  5
46
330
1F
100
AcDbEntity
  8
layer 1
 62
     7
100
AcDbSpline
210
0.0
220
0.0
230
1.0
 70
    11
 71
     3
 72
    16
 73
    12
 74
     0
 42
0.0000000001
 43
0.0000000001
 12
1.0
 22
0.0
 32
0.0
 13
1.0
 23
0.0
 33
0.0
 40
0.0
 40
0.0
 40
0.0
 40
0.0
 40
0.25
 40
0.25
 40
0.25
 40
0.25
 40
0.5
 40
0.5
 40
0.5
 40
0.5
 40
1.0
 40
1.0
 40
1.0
 40
1.0
 10
-33.3287
 20
-107.2731
 30
0.0
 10
-39.7483
 20
-107.5899
 30
0.0
 10
-43.4987
 20
-107.5899
 30
0.0
 10
-47.9608
 20
-107.5899
 30
0.0
 10
-47.9608
 20
-107.5899
 30
0.0
 10
-43.2082
 20
-101.9392
 30
0.0
 10
-38.444
 20
-95.0208
 30
0.0
 10
-33.3287
 20
-82.9114
 30
0.0
 10
-33.3287
 20
-82.9114
 30
0.0
 10
-33.3287
 20
-82.9114
 30
0.0
 10
-33.3287
 20
-107.2731
 30
0.0
 10
-33.3287
 20
-107.2731
 30
0.0
  0
SPLINE
  5
47
330
1F
100
AcDbEntity
  8
layer 1
 62
     7
100
AcDbSpline
210
0.0
220
0.0
230
1.0
 70
    11
 71
     3
 72
    16
 73
    12
 74
     0
 42
0.0000000001
 43
0.0000000001
 12
1.0
 22
0.0
 32
0.0
 13
1.0
 23
0.0
 33
0.0
 40
0.0
 40
0.0
 40
0.0
 40
0.0
 40
0.25
 40
0.25
 40
0.25
 40
0.25
 40
0.5
 40
0.5
 40
0.5
 40
0.5
 40
1.0
 40
1.0
 40
1.0
 40
1.0
 10
-67.035
 20
-107.5901
 30
0.0
 10
-69.7184
 20
-107.5901
 30
0.0
 10
-68.4879
 20
-107.5901
 30
0.0
 10
-72.95
 20
-107.5901
 30
0.0
 10
-72.95
 20
-107.5901
 30
0.0
 10
-68.1974
 20
-101.9394
 30
0.0
 10
-46.4197
 20
-86.7145
 30
0.0
 10
-41.7553
 20
-85.3815
 30
0.0
 10
-41.7553
 20
-85.3815
 30
0.0
 10
-52.3459
 20
-92.4751
 30
0.0
 10
-63.3343
 20
-102.9402
 30
0.0
 10
-67.035
 20
-107.5901
 30
0.0
  0
SPLINE
  5
48
330
1F
100
AcDbEntity
  8
layer 1
 62
     7
100
AcDbSpline
210
0.0
220
0.0
230
1.0
 70
    11
 71
     3
 72
    20
 73
    16
 74
     0
 42
0.0000000001
 43
0.0000000001
 12
1.0
 22
0.0
 32
0.0
 13
1.0
 23
0.0
 33
0.0
 40
0.0
 40
0.0
 40
0.0
 40
0.0
 40
0.2
 40
0.2
 40
0.2
 40
0.2
 40
0.4
 40
0.4
 40
0.4
 40
0.4
 40
0.6
 40
0.6
 40
0.6
 40
0.6
 40
1.0
 40
1.0
 40
1.0
 40
1.0
 10
-59.6255
 20
-90.7107
 30
0.0
 10
-66.3078
 20
-95.1557
 30
0.0
 10
-73.5651
 20
-103.4021
 30
0.0
 10
-75.335
 20
-106.0229
 30
0.0
 10
-75.335
 20
-106.0229
 30
0.0
 10
-75.4991
 20
-102.8447
 30
0.0
 10
-75.4681
 20
-104.1018
 30
0.0
 10
-75.7105
 20
-100.0607
 30
0.0
 10
-75.7105
 20
-100.0607
 30
0.0
 10
-69.2143
 20
-93.6835
 30
0.0
 10
-62.1259
 20
-84.5606
 30
0.0
 10
-59.6257
 20
-80.1514
 30
0.0
 10
-59.6257
 20
-80.1514
 30
0.0
 10
-59.6257
 20
-80.1514
 30
0.0
 10
-59.6255
 20
-90.7107
 30
0.0
 10
-59.6255
 20
-90.7107
 30
0.0
  0
SPLINE
  5
49
330
1F
100
AcDbEntity
  8
layer 1
 62
     7
100
AcDbSpline
210
0.0
220
0.0
230
1.0
 70
    11
 71
     3
 72
    12
 73
     8
 74
     0
 42
0.0000000001
 43
0.0000000001
 12
1.0
 22
0.0
 32
0.0
 13
1.0
 23
0.0
 33
0.0
 40
0.0
 40
0.0
 40
0.0
 40
0.0
 40
0.3333333333333333
 40
0.3333333333333333
 40
0.3333333333333333
 40
0.3333333333333333
 40
1.0
 40
1.0
 40
1.0
 40
1.0
 10
-91.8974
 20
-91.0583
 30
0.0
 10
-79.2566
 20
-69.5451
 30
0.0
 10
-60.3102
 20
-48.2085
 30
0.0
 10
-47.4214
 20
-35.6937
 30
0.0
 10
-47.4214
 20
-35.6937
 30
0.0
 10
-61.3407
 20
-59.3579
 30
0.0
 10
-78.4264
 20
-72.8461
 30
0.0
 10
-91.8974
 20
-91.0583
 30
0.0
  0
SPLINE
  5
4A
330
1F
100
AcDbEntity
  8
layer 1
 62
     7
100
AcDbSpline
210
0.0
220
0.0
230
1.0
 70
    11
 71
     3
 72
    12
 73
     8
 74
     0
 42
0.0000000001
 43
0.0000000001
 12
1.0
 22
0.0
 32
0.0
 13
1.0
 23
0.0
 33
0.0
 40
0.0
 40
0.0
 40
0.0
 40
0.0
 40
0.3333333333333333
 40
0.3333333333333333
 40
0.3333333333333333
 40
0.3333333333333333
 40
1.0
 40
1.0
 40
1.0
 40
1.0
 10
-96.1108
 20
-103.4075
 30
0.0
 10
-97.4175
 20
-100.3456
 30
0.0
 10
-81.958
 20
-85.4016
 30
0.0
 10
-69.6501
 20
-70.4169
 30
0.0
 10
-69.6501
 20
-70.4169
 30
0.0
 10
-80.9542
 20
-93.7905
 30
0.0
 10
-86.7077
 20
-93.0408
 30
0.0
 10
-96.1108
 20
-103.4075
 30
0.0
  0
SPLINE
  5
4B
330
1F
100
AcDbEntity
  8
layer 1
 62
     7
100
AcDbSpline
210
0.0
220
0.0
230
1.0
 70
    11
 71
     3
 72
    12
 73
     8
 74
     0
 42
0.0000000001
 43
0.0000000001
 12
1.0
 22
0.0
 32
0.0
 13
1.0
 23
0.0
 33
0.0
 40
0.0
 40
0.0
 40
0.0
 40
0.0
 40
0.3333333333333333
 40
0.3333333333333333
 40
0.3333333333333333
 40
0.3333333333333333
 40
1.0
 40
1.0
 40
1.0
 40
1.0
 10
-106.5712
 20
-96.8698
 30
0.0
 10
-118.0479
 20
-76.3735
 30
0.0
 10
-109.5621
 20
-56.4898
 30
0.0
 10
-111.7828
 20
-39.0353
 30
0.0
 10
-111.7828
 20
-39.0353
 30
0.0
 10
-103.9092
 20
-45.1201
 30
0.0
 10
-115.7647
 20
-65.0006
 30
0.0
 10
-106.5712
 20
-96.8698
 30
0.0
  0
SPLINE
  5
4C
330
1F
100
AcDbEntity
  8
layer 1
 62
     7
100
AcDbSpline
210
0.0
220
0.0
230
1.0
 70
    11
 71
     3
 72
    20
 73
    16
 74
     0
 42
0.0000000001
 43
0.0000000001
 12
1.0
 22
0.0
 32
0.0
 13
1.0
 23
0.0
 33
0.0
 40
0.0
 40
0.0
 40
0.0
 40
0.0
 40
0.2
 40
0.2
 40
0.2
 40
0.2
 40
0.4
 40
0.4
 40
0.4
 40
0.4
 40
0.6
 40
0.6
 40
0.6
 40
0.6
 40
1.0
 40
1.0
 40
1.0
 40
1.0
 10
-105.6997
 20
-82.3412
 30
0.0
 10
-106.8938
 20
-66.5297
 30
0.0
 10
-105.9761
 20
-39.9723
 30
0.0
 10
-107.0381
 20
-20.428
 30
0.0
 10
-107.0381
 20
-20.428
 30
0.0
 10
-107.825
 20
-5.9441
 30
0.0
 10
-113.0949
 20
3.5291
 30
0.0
 10
-113.0906
 20
10.7975
 30
0.0
 10
-113.0906
 20
10.7975
 30
0.0
 10
-101.7408
 20
-13.0227
 30
0.0
 10
-103.1379
 20
-25.6999
 30
0.0
 10
-103.1997
 20
-40.1777
 30
0.0
 10
-103.1997
 20
-40.1777
 30
0.0
 10
-103.2765
 20
-58.1484
 30
0.0
 10
-104.2222
 20
-72.0092
 30
0.0
 10
-105.6997
 20
-82.3412
 30
0.0
  0
SPLINE
  5
4D
330
1F
100
AcDbEntity
  8
layer 1
 62
     7
100
AcDbSpline
210
0.0
220
0.0
230
1.0
 70
    11
 71
     3
 72
    24
 73
    20
 74
     0
 42
0.0000000001
 43
0.0000000001
 12
1.0
 22
0.0
 32
0.0
 13
1.0
 23
0.0
 33
0.0
 40
0.0
 40
0.0
 40
0.0
 40
0.0
 40
0.1666666666666667
 40
0.1666666666666667
 40
0.1666666666666667
 40
0.1666666666666667
 40
0.3333333333333333
 40
0.3333333333333333
 40
0.3333333333333333
 40
0.3333333333333333
 40
0.5
 40
0.5
 40
0.5
 40
0.5
 40
0.6666666666666666
 40
0.6666666666666666
 40
0.6666666666666666
 40
0.6666666666666666
 40
1.0
 40
1.0
 40
1.0
 40
1.0
 10
-84.6145
 20
-67.6102
 30
0.0
 10
-87.6652
 20
-71.4309
 30
0.0
 10
-89.6916
 20
-76.6693
 30
0.0
 10
-91.4616
 20
-79.2901
 30
0.0
 10
-91.4616
 20
-79.2901
 30
0.0
 10
-92.9333
 20
-66.2323
 30
0.0
 10
-95.0814
 20
-56.8836
 30
0.0
 10
-98.2297
 20
-47.7576
 30
0.0
 10
-98.2297
 20
-47.7576
 30
0.0
 10
-97.981
 20
-42.688
 30
0.0
 10
-97.8508
 20
-37.8983
 30
0.0
 10
-97.981
 20
-31.9161
 30
0.0
 10
-97.981
 20
-31.9161
 30
0.0
 10
-93.4619
 20
-37.8474
 30
0.0
 10
-86.6489
 20
-57.1062
 30
0.0
 10
-84.6147
 20
-67.61
 30
0.0
 10
-84.6147
 20
-67.61
 30
0.0
 10
-84.6147
 20
-67.61
 30
0.0
 10
-84.6145
 20
-67.6102
 30
0.0
 10
-84.6145
 20
-67.6102
 30
0.0
  0
SPLINE
  5
4E
330
1F
100
AcDbEntity
  8
layer 1
 62
     7
100
AcDbSpline
210
0.0
220
0.0
230
1.0
 70
    11
 71
     3
 72
    36
 73
    32
 74
     0
 42
0.0000000001
 43
0.0000000001
 12
1.0
 22
0.0
 32
0.0
 13
1.0
 23
0.0
 33
0.0
 40
0.0
 40
0.0
 40
0.0
 40
0.0
 40
0.1111111111111111
 40
0.1111111111111111
 40
0.1111111111111111
 40
0.1111111111111111
 40
0.2222222222222222
 40
0.2222222222222222
 40
0.2222222222222222
 40
0.2222222222222222
 40
0.3333333333333333
 40
0.3333333333333333
 40
0.3333333333333333
 40
0.3333333333333333
 40
0.4444444444444444
 40
0.4444444444444444
 40
0.4444444444444444
 40
0.4444444444444444
 40
0.5555555555555556
 40
0.5555555555555556
 40
0.5555555555555556
 40
0.5555555555555556
 40
0.6666666666666666
 40
0.6666666666666666
 40
0.6666666666666666
 40
0.6666666666666666
 40
0.7777777777777778
 40
0.7777777777777778
 40
0.7777777777777778
 40
0.7777777777777778
 40
1.0
 40
1.0
 40
1.0
 40
1.0
 10
-72.9918
 20
-50.9023
 30
0.0
 10
-76.097
 20
-52.8249
 30
0.0
 10
-78.0073
 20
-55.0079
 30
0.0
 10
-80.2539
 20
-58.9416
 30
0.0
 10
-80.2539
 20
-58.9416
 30
0.0
 10
-86.6103
 20
-40.6591
 30
0.0
 10
-94.5266
 20
-27.03
 30
0.0
 10
-99.4522
 20
-23.2097
 30
0.0
 10
-99.4522
 20
-23.2097
 30
0.0
 10
-100.9239
 20
-10.152
 30
0.0
 10
-100.1664
 20
-13.5885
 30
0.0
 10
-103.3145
 20
-4.4624
 30
0.0
 10
-103.3145
 20
-4.4624
 30
0.0
 10
-103.0658
 20
0.6072
 30
0.0
 10
-100.9016
 20
6.5593
 30
0.0
 10
-98.1259
 20
10.9431
 30
0.0
 10
-98.1259
 20
10.9431
 30
0.0
 10
-95.1812
 20
9.0303
 30
0.0
 10
-83.2921
 20
5.8916
 30
0.0
 10
-73.3266
 20
16.8586
 30
0.0
 10
-73.3266
 20
16.8586
 30
0.0
 10
-75.9516
 20
4.444
 30
0.0
 10
-73.457
 20
-0.9299
 30
0.0
 10
-68.9755
 20
-5.1252
 30
0.0
 10
-68.9755
 20
-5.1252
 30
0.0
 10
-81.4657
 20
-23.817
 30
0.0
 10
-74.0471
 20
-45.4518
 30
0.0
 10
-72.9915
 20
-50.9023
 30
0.0
 10
-72.9915
 20
-50.9023
 30
0.0
 10
-72.9915
 20
-50.9023
 30
0.0
 10
-72.9918
 20
-50.9023
 30
0.0
 10
-72.9918
 20
-50.9023
 30
0.0
  0
SPLINE
  5
4F
330
1F
100
AcDbEntity
  8
layer 1
 62
     7
100
AcDbSpline
210
0.0
220
0.0
230
1.0
 70
    11
 71
     3
 72
    16
 73
    12
 74
     0
 42
0.0000000001
 43
0.0000000001
 12
1.0
 22
0.0
 32
0.0
 13
1.0
 23
0.0
 33
0.0
 40
0.0
 40
0.0
 40
0.0
 40
0.0
 40
0.25
 40
0.25
 40
0.25
 40
0.25
 40
0.5
 40
0.5
 40
0.5
 40
0.5
 40
1.0
 40
1.0
 40
1.0
 40
1.0
 10
-94.9298
 20
-83.4463
 30
0.0
 10
-97.9805
 20
-87.2671
 30
0.0
 10
-97.5371
 20
-87.4204
 30
0.0
 10
-99.3071
 20
-90.0412
 30
0.0
 10
-99.3071
 20
-90.0412
 30
0.0
 10
-99.1374
 20
-80.97
 30
0.0
 10
-98.6878
 20
-72.4914
 30
0.0
 10
-98.9979
 20
-60.9734
 30
0.0
 10
-98.9979
 20
-60.9734
 30
0.0
 10
-96.3675
 20
-66.6141
 30
0.0
 10
-95.802
 20
-73.669
 30
0.0
 10
-94.9298
 20
-83.4463
 30
0.0
  0
SPLINE
  5
50
330
1F
100
AcDbEntity
  8
layer 1
 62
     7
100
AcDbSpline
210
0.0
220
0.0
230
1.0
 70
    11
 71
     3
 72
    20
 73
    16
 74
     0
 42
0.0000000001
 43
0.0000000001
 12
1.0
 22
0.0
 32
0.0
 13
1.0
 23
0.0
 33
0.0
 40
0.0
 40
0.0
 40
0.0
 40
0.0
 40
0.2
 40
0.2
 40
0.2
 40
0.2
 40
0.4
 40
0.4
 40
0.4
 40
0.4
 40
0.6
 40
0.6
 40
0.6
 40
0.6
 40
1.0
 40
1.0
 40
1.0
 40
1.0
 10
-109.1679
 20
-107.5901
 30
0.0
 10
-109.1679
 20
-107.5901
 30
0.0
 10
-123.1341
 20
-107.5901
 30
0.0
 10
-123.1341
 20
-107.5901
 30
0.0
 10
-123.1341
 20
-107.5901
 30
0.0
 10
-117.5887
 20
-102.8775
 30
0.0
 10
-116.4128
 20
-101.6632
 30
0.0
 10
-114.1078
 20
-97.6998
 30
0.0
 10
-114.1078
 20
-97.6998
 30
0.0
 10
-113.2208
 20
-102.7594
 30
0.0
 10
-111.2024
 20
-105.077
 30
0.0
 10
-109.1681
 20
-107.5901
 30
0.0
 10
-109.1681
 20
-107.5901
 30
0.0
 10
-109.1681
 20
-107.5901
 30
0.0
 10
-109.1679
 20
-107.5901
 30
0.0
 10
-109.1679
 20
-107.5901
 30
0.0
  0
SPLINE
  5
51
330
1F
100
AcDbEntity
  8
layer 1
 62
     7
100
AcDbSpline
210
0.0
220
0.0
230
1.0
 70
    11
 71
     3
 72
    16
 73
    12
 74
     0
 42
0.0000000001
 43
0.0000000001
 12
1.0
 22
0.0
 32
0.0
 13
1.0
 23
0.0
 33
0.0
 40
0.0
 40
0.0
 40
0.0
 40
0.0
 40
0.25
 40
0.25
 40
0.25
 40
0.25
 40
0.5
 40
0.5
 40
0.5
 40
0.5
 40
1.0
 40
1.0
 40
1.0
 40
1.0
 10
-97.9808
 20
-107.5901
 30
0.0
 10
-97.9808
 20
-107.5901
 30
0.0
 10
-105.2637
 20
-107.5901
 30
0.0
 10
-105.2637
 20
-107.5901
 30
0.0
 10
-105.2637
 20
-107.5901
 30
0.0
 10
-102.7695
 20
-105.2022
 30
0.0
 10
-100.7216
 20
-101.8083
 30
0.0
 10
-99.2883
 20
-97.1187
 30
0.0
 10
-99.2883
 20
-97.1187
 30
0.0
 10
-98.5467
 20
-101.1614
 30
0.0
 10
-98.8528
 20
-104.2052
 30
0.0
 10
-97.9808
 20
-107.5901
 30
0.0
  0
SPLINE
  5
52
330
1F
100
AcDbEntity
  8
layer 1
 62
     7
100
AcDbSpline
210
0.0
220
0.0
230
1.0
 70
    11
 71
     3
 72
    16
 73
    12
 74
     0
 42
0.0000000001
 43
0.0000000001
 12
1.0
 22
0.0
 32
0.0
 13
1.0
 23
0.0
 33
0.0
 40
0.0
 40
0.0
 40
0.0
 40
0.0
 40
0.25
 40
0.25
 40
0.25
 40
0.25
 40
0.5
 40
0.5
 40
0.5
 40
0.5
 40
1.0
 40
1.0
 40
1.0
 40
1.0
 10
-78.3672
 20
-107.5901
 30
0.0
 10
-78.3672
 20
-107.5901
 30
0.0
 10
-85.6501
 20
-107.5901
 30
0.0
 10
-85.6501
 20
-107.5901
 30
0.0
 10
-85.6501
 20
-107.5901
 30
0.0
 10
-83.156
 20
-105.2022
 30
0.0
 10
-81.2534
 20
-104.7142
 30
0.0
 10
-79.6748
 20
-102.6397
 30
0.0
 10
-79.6748
 20
-102.6397
 30
0.0
 10
-78.9331
 20
-106.6824
 30
0.0
 10
-79.2392
 20
-104.6412
 30
0.0
 10
-78.3672
 20
-107.5901
 30
0.0
  0
SPLINE
  5
53
330
1F
100
AcDbEntity
  8
layer 1
 62
     7
100
AcDbSpline
210
0.0
220
0.0
230
1.0
 70
    11
 71
     3
 72
    24
 73
    20
 74
     0
 42
0.0000000001
 43
0.0000000001
 12
1.0
 22
0.0
 32
0.0
 13
1.0
 23
0.0
 33
0.0
 40
0.0
 40
0.0
 40
0.0
 40
0.0
 40
0.1666666666666667
 40
0.1666666666666667
 40
0.1666666666666667
 40
0.1666666666666667
 40
0.3333333333333333
 40
0.3333333333333333
 40
0.3333333333333333
 40
0.3333333333333333
 40
0.5
 40
0.5
 40
0.5
 40
0.5
 40
0.6666666666666666
 40
0.6666666666666666
 40
0.6666666666666666
 40
0.6666666666666666
 40
1.0
 40
1.0
 40
1.0
 40
1.0
 10
-115.9963
 20
-92.7445
 30
0.0
 10
-117.8845
 20
-95.1849
 30
0.0
 10
-122.817
 20
-101.3679
 30
0.0
 10
-125.6037
 20
-103.6979
 30
0.0
 10
-125.6037
 20
-103.6979
 30
0.0
 10
-127.6565
 20
-100.6648
 30
0.0
 10
-129.6595
 20
-98.7259
 30
0.0
 10
-131.0642
 20
-96.864
 30
0.0
 10
-131.0642
 20
-96.864
 30
0.0
 10
-125.5851
 20
-90.4868
 30
0.0
 10
-120.7332
 20
-82.9367
 30
0.0
 10
-119.6283
 20
-79.7149
 30
0.0
 10
-119.6283
 20
-79.7149
 30
0.0
 10
-118.9595
 20
-84.7745
 30
0.0
 10
-118.757
 20
-89.4322
 30
0.0
 10
-115.9963
 20
-92.7443
 30
0.0
 10
-115.9963
 20
-92.7443
 30
0.0
 10
-115.9963
 20
-92.7443
 30
0.0
 10
-115.9963
 20
-92.7445
 30
0.0
 10
-115.9963
 20
-92.7445
 30
0.0
  0
SPLINE
  5
54
330
1F
100
AcDbEntity
  8
layer 1
 62
     7
100
AcDbSpline
210
0.0
220
0.0
230
1.0
 70
    11
 71
     3
 72
    16
 73
    12
 74
     0
 42
0.0000000001
 43
0.0000000001
 12
1.0
 22
0.0
 32
0.0
 13
1.0
 23
0.0
 33
0.0
 40
0.0
 40
0.0
 40
0.0
 40
0.0
 40
0.25
 40
0.25
 40
0.25
 40
0.25
 40
0.5
 40
0.5
 40
0.5
 40
0.5
 40
1.0
 40
1.0
 40
1.0
 40
1.0
 10
-179.1954
 20
-107.5901
 30
0.0
 10
-172.7758
 20
-107.9069
 30
0.0
 10
-153.1893
 20
-107.9069
 30
0.0
 10
-148.7272
 20
-107.9069
 30
0.0
 10
-148.7272
 20
-107.9069
 30
0.0
 10
-155.6591
 20
-102.5466
 30
0.0
 10
-173.4989
 20
-80.9546
 30
0.0
 10
-179.1954
 20
-71.0244
 30
0.0
 10
-179.1954
 20
-71.0244
 30
0.0
 10
-179.1954
 20
-71.0244
 30
0.0
 10
-179.1954
 20
-107.5901
 30
0.0
 10
-179.1954
 20
-107.5901
 30
0.0
  0
SPLINE
  5
55
330
1F
100
AcDbEntity
  8
layer 1
 62
     7
100
AcDbSpline
210
0.0
220
0.0
230
1.0
 70
    11
 71
     3
 72
    32
 73
    28
 74
     0
 42
0.0000000001
 43
0.0000000001
 12
1.0
 22
0.0
 32
0.0
 13
1.0
 23
0.0
 33
0.0
 40
0.0
 40
0.0
 40
0.0
 40
0.0
 40
0.125
 40
0.125
 40
0.125
 40
0.125
 40
0.25
 40
0.25
 40
0.25
 40
0.25
 40
0.375
 40
0.375
 40
0.375
 40
0.375
 40
0.5
 40
0.5
 40
0.5
 40
0.5
 40
0.625
 40
0.625
 40
0.625
 40
0.625
 40
0.75
 40
0.75
 40
0.75
 40
0.75
 40
1.0
 40
1.0
 40
1.0
 40
1.0
 10
-179.1954
 20
6.854
 30
0.0
 10
-177.9544
 20
6.7928
 30
0.0
 10
-175.838
 20
6.4644
 30
0.0
 10
-176.3773
 20
12.3371
 30
0.0
 10
-176.3773
 20
12.3371
 30
0.0
 10
-176.4847
 20
13.5074
 30
0.0
 10
-172.4195
 20
11.9707
 30
0.0
 10
-171.7056
 20
12.7639
 30
0.0
 10
-171.7056
 20
12.7639
 30
0.0
 10
-170.6112
 20
13.9795
 30
0.0
 10
-172.2478
 20
17.464
 30
0.0
 10
-170.5965
 20
16.2875
 30
0.0
 10
-170.5965
 20
16.2875
 30
0.0
 10
-159.1521
 20
8.1332
 30
0.0
 10
-153.4623
 20
13.2618
 30
0.0
 10
-138.865
 20
-2.2977
 30
0.0
 10
-138.865
 20
-2.2977
 30
0.0
 10
-139.3341
 20
6.4531
 30
0.0
 10
-140.9591
 20
20.578
 30
0.0
 10
-146.6893
 20
31.3135
 30
0.0
 10
-146.6893
 20
31.3135
 30
0.0
 10
-168.4378
 20
16.6423
 30
0.0
 10
-165.5641
 20
46.5006
 30
0.0
 10
-179.1954
 20
59.2404
 30
0.0
 10
-179.1954
 20
59.2404
 30
0.0
 10
-179.1954
 20
59.2404
 30
0.0
 10
-179.1954
 20
6.854
 30
0.0
 10
-179.1954
 20
6.854
 30
0.0
  0
SPLINE
  5
56
330
1F
100
AcDbEntity
  8
layer 1
 62
     7
100
AcDbSpline
210
0.0
220
0.0
230
1.0
 70
    11
 71
     3
 72
    44
 73
    40
 74
     0
 42
0.0000000001
 43
0.0000000001
 12
1.0
 22
0.0
 32
0.0
 13
1.0
 23
0.0
 33
0.0
 40
0.0
 40
0.0
 40
0.0
 40
0.0
 40
0.0909090909090909
 40
0.0909090909090909
 40
0.0909090909090909
 40
0.0909090909090909
 40
0.1818181818181818
 40
0.1818181818181818
 40
0.1818181818181818
 40
0.1818181818181818
 40
0.2727272727272727
 40
0.2727272727272727
 40
0.2727272727272727
 40
0.2727272727272727
 40
0.3636363636363636
 40
0.3636363636363636
 40
0.3636363636363636
 40
0.3636363636363636
 40
0.4545454545454545
 40
0.4545454545454545
 40
0.4545454545454545
 40
0.4545454545454545
 40
0.5454545454545454
 40
0.5454545454545454
 40
0.5454545454545454
 40
0.5454545454545454
 40
0.6363636363636364
 40
0.6363636363636364
 40
0.6363636363636364
 40
0.6363636363636364
 40
0.7272727272727273
 40
0.7272727272727273
 40
0.7272727272727273
 40
0.7272727272727273
 40
0.8181818181818182
 40
0.8181818181818182
 40
0.8181818181818182
 40
0.8181818181818182
 40
1.0
 40
1.0
 40
1.0
 40
1.0
 10
-179.1954
 20
-46.2953
 30
0.0
 10
-177.9544
 20
-46.3564
 30
0.0
 10
-177.5266
 20
-44.8968
 30
0.0
 10
-172.7019
 20
-44.2887
 30
0.0
 10
-172.7019
 20
-44.2887
 30
0.0
 10
-173.5226
 20
-42.2544
 30
0.0
 10
-173.6867
 20
-41.2734
 30
0.0
 10
-175.0827
 20
-39.4912
 30
0.0
 10
-175.0827
 20
-39.4912
 30
0.0
 10
-173.1935
 20
-40.2621
 30
0.0
 10
-165.1402
 20
-40.4088
 30
0.0
 10
-163.1465
 20
-40.0402
 30
0.0
 10
-163.1465
 20
-40.0402
 30
0.0
 10
-146.9182
 20
-37.0413
 30
0.0
 10
-128.9589
 20
-37.9495
 30
0.0
 10
-129.0549
 20
-58.6918
 30
0.0
 10
-129.0549
 20
-58.6918
 30
0.0
 10
-126.8224
 20
-60.3668
 30
0.0
 10
-124.7796
 20
-60.3606
 30
0.0
 10
-122.7733
 20
-62.4993
 30
0.0
 10
-122.7733
 20
-62.4993
 30
0.0
 10
-124.0369
 20
-54.7418
 30
0.0
 10
-124.47
 20
-49.3581
 30
0.0
 10
-124.5385
 20
-39.0199
 30
0.0
 10
-124.5385
 20
-39.0199
 30
0.0
 10
-131.1332
 20
-34.4893
 30
0.0
 10
-138.0486
 20
-28.148
 30
0.0
 10
-143.0396
 20
-24.8653
 30
0.0
 10
-143.0396
 20
-24.8653
 30
0.0
 10
-166.3984
 20
-36.5738
 30
0.0
 10
-166.1486
 20
-14.1305
 30
0.0
 10
-179.1954
 20
-7.815
 30
0.0
 10
-179.1954
 20
-7.815
 30
0.0
 10
-179.1954
 20
-17.8892
 30
0.0
 10
-179.1954
 20
-46.295
 30
0.0
 10
-179.1954
 20
-46.295
 30
0.0
 10
-179.1954
 20
-46.295
 30
0.0
 10
-179.1954
 20
-46.295
 30
0.0
 10
-179.1954
 20
-46.2953
 30
0.0
 10
-179.1954
 20
-46.2953
 30
0.0
  0
SPLINE
  5
57
330
1F
100
AcDbEntity
  8
layer 1
 62
     7
100
AcDbSpline
210
0.0
220
0.0
230
1.0
 70
    11
 71
     3
 72
    32
 73
    28
 74
     0
 42
0.0000000001
 43
0.0000000001
 12
1.0
 22
0.0
 32
0.0
 13
1.0
 23
0.0
 33
0.0
 40
0.0
 40
0.0
 40
0.0
 40
0.0
 40
0.125
 40
0.125
 40
0.125
 40
0.125
 40
0.25
 40
0.25
 40
0.25
 40
0.25
 40
0.375
 40
0.375
 40
0.375
 40
0.375
 40
0.5
 40
0.5
 40
0.5
 40
0.5
 40
0.625
 40
0.625
 40
0.625
 40
0.625
 40
0.75
 40
0.75
 40
0.75
 40
0.75
 40
1.0
 40
1.0
 40
1.0
 40
1.0
 10
-133.9307
 20
-94.3339
 30
0.0
 10
-143.9643
 20
-85.5498
 30
0.0
 10
-170.846
 20
-68.2907
 30
0.0
 10
-179.1954
 20
-64.5615
 30
0.0
 10
-179.1954
 20
-64.5615
 30
0.0
 10
-179.1954
 20
-61.429
 30
0.0
 10
-179.1954
 20
-58.6953
 30
0.0
 10
-179.1954
 20
-56.8336
 30
0.0
 10
-179.1954
 20
-56.8336
 30
0.0
 10
-171.1983
 20
-56.1853
 30
0.0
 10
-165.8374
 20
-68.8363
 30
0.0
 10
-154.4092
 20
-73.9488
 30
0.0
 10
-154.4092
 20
-73.9488
 30
0.0
 10
-135.8172
 20
-80.8798
 30
0.0
 10
-130.0678
 20
-67.2244
 30
0.0
 10
-128.3608
 20
-64.5251
 30
0.0
 10
-128.3608
 20
-64.5251
 30
0.0
 10
-125.1851
 20
-66.8875
 30
0.0
 10
-123.45
 20
-67.4868
 30
0.0
 10
-122.1993
 20
-68.2594
 30
0.0
 10
-122.1993
 20
-68.2594
 30
0.0
 10
-121.7838
 20
-70.7949
 30
0.0
 10
-121.3121
 20
-71.4229
 30
0.0
 10
-121.2726
 20
-74.6493
 30
0.0
 10
-121.2726
 20
-74.6493
 30
0.0
 10
-124.6763
 20
-81.4969
 30
0.0
 10
-128.2483
 20
-85.9559
 30
0.0
 10
-133.9307
 20
-94.3339
 30
0.0
  0
SPLINE
  5
58
330
1F
100
AcDbEntity
  8
layer 1
 62
     7
100
AcDbSpline
210
0.0
220
0.0
230
1.0
 70
    11
 71
     3
 72
    28
 73
    24
 74
     0
 42
0.0000000001
 43
0.0000000001
 12
1.0
 22
0.0
 32
0.0
 13
1.0
 23
0.0
 33
0.0
 40
0.0
 40
0.0
 40
0.0
 40
0.0
 40
0.1428571428571428
 40
0.1428571428571428
 40
0.1428571428571428
 40
0.1428571428571428
 40
0.2857142857142857
 40
0.2857142857142857
 40
0.2857142857142857
 40
0.2857142857142857
 40
0.4285714285714285
 40
0.4285714285714285
 40
0.4285714285714285
 40
0.4285714285714285
 40
0.5714285714285714
 40
0.5714285714285714
 40
0.5714285714285714
 40
0.5714285714285714
 40
0.7142857142857143
 40
0.7142857142857143
 40
0.7142857142857143
 40
0.7142857142857143
 40
1.0
 40
1.0
 40
1.0
 40
1.0
 10
-33.3287
 20
123.7012
 30
0.0
 10
-39.7483
 20
124.018
 30
0.0
 10
-58.3391
 20
124.018
 30
0.0
 10
-62.8012
 20
124.018
 30
0.0
 10
-62.8012
 20
124.018
 30
0.0
 10
-56.5122
 20
118.7841
 30
0.0
 10
-56.1369
 20
115.1853
 30
0.0
 10
-58.1716
 20
110.0512
 30
0.0
 10
-58.1716
 20
110.0512
 30
0.0
 10
-51.3841
 20
106.0467
 30
0.0
 10
-51.6567
 20
93.9436
 30
0.0
 10
-58.9376
 20
89.6562
 30
0.0
 10
-58.9376
 20
89.6562
 30
0.0
 10
-52.1751
 20
93.0677
 30
0.0
 10
-48.2707
 20
90.063
 30
0.0
 10
-47.0167
 20
86.4387
 30
0.0
 10
-47.0167
 20
86.4387
 30
0.0
 10
-42.2145
 20
89.562
 30
0.0
 10
-42.1002
 20
82.3584
 30
0.0
 10
-33.3289
 20
80.4335
 30
0.0
 10
-33.3289
 20
80.4335
 30
0.0
 10
-33.3289
 20
80.4335
 30
0.0
 10
-33.3287
 20
123.7012
 30
0.0
 10
-33.3287
 20
123.7012
 30
0.0
  0
SPLINE
  5
59
330
1F
100
AcDbEntity
  8
layer 1
 62
     7
100
AcDbSpline
210
0.0
220
0.0
230
1.0
 70
    11
 71
     3
 72
    16
 73
    12
 74
     0
 42
0.0000000001
 43
0.0000000001
 12
1.0
 22
0.0
 32
0.0
 13
1.0
 23
0.0
 33
0.0
 40
0.0
 40
0.0
 40
0.0
 40
0.0
 40
0.25
 40
0.25
 40
0.25
 40
0.25
 40
0.5
 40
0.5
 40
0.5
 40
0.5
 40
1.0
 40
1.0
 40
1.0
 40
1.0
 10
-126.9052
 20
-107.5901
 30
0.0
 10
-126.9052
 20
-107.5901
 30
0.0
 10
-132.2271
 20
-107.5901
 30
0.0
 10
-132.2271
 20
-107.5901
 30
0.0
 10
-132.2271
 20
-107.5901
 30
0.0
 10
-140.0411
 20
-97.8258
 30
0.0
 10
-151.4383
 20
-87.4059
 30
0.0
 10
-165.7481
 20
-77.2683
 30
0.0
 10
-165.7481
 20
-77.2683
 30
0.0
 10
-152.4001
 20
-83.3383
 30
0.0
 10
-133.3179
 20
-99.015
 30
0.0
 10
-126.9052
 20
-107.5901
 30
0.0
  0
SPLINE
  5
5A
330
1F
100
AcDbEntity
  8
layer 1
 62
     7
100
AcDbSpline
210
0.0
220
0.0
230
1.0
 70
    11
 71
     3
 72
    24
 73
    20
 74
     0
 42
0.0000000001
 43
0.0000000001
 12
1.0
 22
0.0
 32
0.0
 13
1.0
 23
0.0
 33
0.0
 40
0.0
 40
0.0
 40
0.0
 40
0.0
 40
0.1666666666666667
 40
0.1666666666666667
 40
0.1666666666666667
 40
0.1666666666666667
 40
0.3333333333333333
 40
0.3333333333333333
 40
0.3333333333333333
 40
0.3333333333333333
 40
0.5
 40
0.5
 40
0.5
 40
0.5
 40
0.6666666666666666
 40
0.6666666666666666
 40
0.6666666666666666
 40
0.6666666666666666
 40
1.0
 40
1.0
 40
1.0
 40
1.0
 10
-130.4831
 20
-60.7213
 30
0.0
 10
-147.8235
 20
-48.9517
 30
0.0
 10
-158.7876
 20
-51.4263
 30
0.0
 10
-171.6033
 20
-51.324
 30
0.0
 10
-171.6033
 20
-51.324
 30
0.0
 10
-169.5947
 20
-50.4051
 30
0.0
 10
-166.995
 20
-50.1202
 30
0.0
 10
-166.4221
 20
-49.0502
 30
0.0
 10
-166.4221
 20
-49.0502
 30
0.0
 10
-165.8349
 20
-47.9536
 30
0.0
 10
-169.8515
 20
-45.5103
 30
0.0
 10
-170.0468
 20
-43.9748
 30
0.0
 10
-170.0468
 20
-43.9748
 30
0.0
 10
-168.0116
 20
-45.6286
 30
0.0
 10
-164.8196
 20
-48.5474
 30
0.0
 10
-161.5945
 20
-48.2945
 30
0.0
 10
-161.5945
 20
-48.2945
 30
0.0
 10
-149.3204
 20
-47.332
 30
0.0
 10
-137.388
 20
-49.0194
 30
0.0
 10
-130.4831
 20
-60.7213
 30
0.0
  0
SPLINE
  5
5B
330
1F
100
AcDbEntity
  8
layer 1
 62
     7
100
AcDbSpline
210
0.0
220
0.0
230
1.0
 70
    11
 71
     3
 72
    16
 73
    12
 74
     0
 42
0.0000000001
 43
0.0000000001
 12
1.0
 22
0.0
 32
0.0
 13
1.0
 23
0.0
 33
0.0
 40
0.0
 40
0.0
 40
0.0
 40
0.0
 40
0.25
 40
0.25
 40
0.25
 40
0.25
 40
0.5
 40
0.5
 40
0.5
 40
0.5
 40
1.0
 40
1.0
 40
1.0
 40
1.0
 10
-128.833
 20
-32.1427
 30
0.0
 10
-133.9044
 20
-26.9824
 30
0.0
 10
-137.7271
 20
-23.2068
 30
0.0
 10
-140.5073
 20
-21.2248
 30
0.0
 10
-140.5073
 20
-21.2248
 30
0.0
 10
-138.0924
 20
-17.7668
 30
0.0
 10
-136.1833
 20
-15.5747
 30
0.0
 10
-136.8301
 20
-8.2103
 30
0.0
 10
-136.8301
 20
-8.2103
 30
0.0
 10
-131.5055
 20
-16.4331
 30
0.0
 10
-133.6343
 20
-19.671
 30
0.0
 10
-128.833
 20
-32.1427
 30
0.0
  0
SPLINE
  5
5C
330
1F
100
AcDbEntity
  8
layer 1
 62
     7
100
AcDbSpline
210
0.0
220
0.0
230
1.0
 70
    11
 71
     3
 72
    28
 73
    24
 74
     0
 42
0.0000000001
 43
0.0000000001
 12
1.0
 22
0.0
 32
0.0
 13
1.0
 23
0.0
 33
0.0
 40
0.0
 40
0.0
 40
0.0
 40
0.0
 40
0.1428571428571428
 40
0.1428571428571428
 40
0.1428571428571428
 40
0.1428571428571428
 40
0.2857142857142857
 40
0.2857142857142857
 40
0.2857142857142857
 40
0.2857142857142857
 40
0.4285714285714285
 40
0.4285714285714285
 40
0.4285714285714285
 40
0.4285714285714285
 40
0.5714285714285714
 40
0.5714285714285714
 40
0.5714285714285714
 40
0.5714285714285714
 40
0.7142857142857143
 40
0.7142857142857143
 40
0.7142857142857143
 40
0.7142857142857143
 40
1.0
 40
1.0
 40
1.0
 40
1.0
 10
-145.5262
 20
-22.2156
 30
0.0
 10
-158.6726
 20
-22.5
 30
0.0
 10
-161.862
 20
-12.7473
 30
0.0
 10
-165.5503
 20
-7.218
 30
0.0
 10
-165.5503
 20
-7.218
 30
0.0
 10
-167.7018
 20
-3.9927
 30
0.0
 10
-173.1947
 20
-2.2776
 30
0.0
 10
-176.8799
 20
-1.8164
 30
0.0
 10
-176.8799
 20
-1.8164
 30
0.0
 10
-174.8713
 20
-0.8975
 30
0.0
 10
-169.2404
 20
-1.3985
 30
0.0
 10
-168.6676
 20
-0.3284
 30
0.0
 10
-168.6676
 20
-0.3284
 30
0.0
 10
-168.0804
 20
0.7682
 30
0.0
 10
-169.2902
 20
8.0386
 30
0.0
 10
-169.4858
 20
9.5741
 30
0.0
 10
-169.4858
 20
9.5741
 30
0.0
 10
-167.4461
 20
3.5242
 30
0.0
 10
-165.0268
 20
-9.3043
 30
0.0
 10
-145.5264
 20
-22.2156
 30
0.0
 10
-145.5264
 20
-22.2156
 30
0.0
 10
-145.5264
 20
-22.2156
 30
0.0
 10
-145.5262
 20
-22.2156
 30
0.0
 10
-145.5262
 20
-22.2156
 30
0.0
  0
SPLINE
  5
5D
330
1F
100
AcDbEntity
  8
layer 1
 62
     7
100
AcDbSpline
210
0.0
220
0.0
230
1.0
 70
    11
 71
     3
 72
    20
 73
    16
 74
     0
 42
0.0000000001
 43
0.0000000001
 12
1.0
 22
0.0
 32
0.0
 13
1.0
 23
0.0
 33
0.0
 40
0.0
 40
0.0
 40
0.0
 40
0.0
 40
0.2
 40
0.2
 40
0.2
 40
0.2
 40
0.4
 40
0.4
 40
0.4
 40
0.4
 40
0.6
 40
0.6
 40
0.6
 40
0.6
 40
1.0
 40
1.0
 40
1.0
 40
1.0
 10
-120.8752
 20
3.9006
 30
0.0
 10
-122.5786
 20
-7.7783
 30
0.0
 10
-122.6969
 20
-18.0687
 30
0.0
 10
-122.6706
 20
-24.9553
 30
0.0
 10
-122.6706
 20
-24.9553
 30
0.0
 10
-132.1925
 20
-12.6763
 30
0.0
 10
-131.9878
 20
-9.7758
 30
0.0
 10
-133.3677
 20
-3.3019
 30
0.0
 10
-133.3677
 20
-3.3019
 30
0.0
 10
-134.8027
 20
10.7486
 30
0.0
 10
-128.3861
 20
9.9253
 30
0.0
 10
-129.3021
 20
24.1024
 30
0.0
 10
-129.3021
 20
24.1024
 30
0.0
 10
-125.3442
 20
14.0175
 30
0.0
 10
-122.9097
 20
6.8828
 30
0.0
 10
-120.8752
 20
3.9006
 30
0.0
  0
SPLINE
  5
5E
330
1F
100
AcDbEntity
  8
layer 1
 62
     7
100
AcDbSpline
210
0.0
220
0.0
230
1.0
 70
    11
 71
     3
 72
    20
 73
    16
 74
     0
 42
0.0000000001
 43
0.0000000001
 12
1.0
 22
0.0
 32
0.0
 13
1.0
 23
0.0
 33
0.0
 40
0.0
 40
0.0
 40
0.0
 40
0.0
 40
0.2
 40
0.2
 40
0.2
 40
0.2
 40
0.4
 40
0.4
 40
0.4
 40
0.4
 40
0.6
 40
0.6
 40
0.6
 40
0.6
 40
1.0
 40
1.0
 40
1.0
 40
1.0
 10
-136.5789
 20
11.7517
 30
0.0
 10
-136.4863
 20
23.6477
 30
0.0
 10
-138.9619
 20
26.4131
 30
0.0
 10
-141.8542
 20
33.2223
 30
0.0
 10
-141.8542
 20
33.2223
 30
0.0
 10
-138.6534
 20
35.3331
 30
0.0
 10
-136.8567
 20
39.0969
 30
0.0
 10
-135.9317
 20
45.2263
 30
0.0
 10
-135.9317
 20
45.2263
 30
0.0
 10
-126.1167
 20
26.9
 30
0.0
 10
-134.9811
 20
25.0091
 30
0.0
 10
-136.5787
 20
11.7517
 30
0.0
 10
-136.5787
 20
11.7517
 30
0.0
 10
-136.5787
 20
11.7517
 30
0.0
 10
-136.5789
 20
11.7517
 30
0.0
 10
-136.5789
 20
11.7517
 30
0.0
  0
SPLINE
  5
5F
330
1F
100
AcDbEntity
  8
layer 1
 62
     7
100
AcDbSpline
210
0.0
220
0.0
230
1.0
 70
    11
 71
     3
 72
    12
 73
     8
 74
     0
 42
0.0000000001
 43
0.0000000001
 12
1.0
 22
0.0
 32
0.0
 13
1.0
 23
0.0
 33
0.0
 40
0.0
 40
0.0
 40
0.0
 40
0.0
 40
0.3333333333333333
 40
0.3333333333333333
 40
0.3333333333333333
 40
0.3333333333333333
 40
1.0
 40
1.0
 40
1.0
 40
1.0
 10
-144.1005
 20
36.3371
 30
0.0
 10
-151.1332
 20
56.932
 30
0.0
 10
-166.0164
 20
62.7828
 30
0.0
 10
-171.6312
 20
61.2798
 30
0.0
 10
-171.6312
 20
61.2798
 30
0.0
 10
-160.1322
 20
55.4146
 30
0.0
 10
-151.596
 20
47.0125
 30
0.0
 10
-144.1005
 20
36.3371
 30
0.0
  0
SPLINE
  5
60
330
1F
100
AcDbEntity
  8
layer 1
 62
     7
100
AcDbSpline
210
0.0
220
0.0
230
1.0
 70
    11
 71
     3
 72
    28
 73
    24
 74
     0
 42
0.0000000001
 43
0.0000000001
 12
1.0
 22
0.0
 32
0.0
 13
1.0
 23
0.0
 33
0.0
 40
0.0
 40
0.0
 40
0.0
 40
0.0
 40
0.1428571428571428
 40
0.1428571428571428
 40
0.1428571428571428
 40
0.1428571428571428
 40
0.2857142857142857
 40
0.2857142857142857
 40
0.2857142857142857
 40
0.2857142857142857
 40
0.4285714285714285
 40
0.4285714285714285
 40
0.4285714285714285
 40
0.4285714285714285
 40
0.5714285714285714
 40
0.5714285714285714
 40
0.5714285714285714
 40
0.5714285714285714
 40
0.7142857142857143
 40
0.7142857142857143
 40
0.7142857142857143
 40
0.7142857142857143
 40
1.0
 40
1.0
 40
1.0
 40
1.0
 10
-118.6476
 20
49.7543
 30
0.0
 10
-107.9679
 20
58.8951
 30
0.0
 10
-108.6468
 20
63.3114
 30
0.0
 10
-105.0516
 20
68.9014
 30
0.0
 10
-105.0516
 20
68.9014
 30
0.0
 10
-102.9543
 20
72.1622
 30
0.0
 10
-100.2974
 20
72.9586
 30
0.0
 10
-96.6205
 20
74.3794
 30
0.0
 10
-96.6205
 20
74.3794
 30
0.0
 10
-98.6443
 20
75.2645
 30
0.0
 10
-103.1432
 20
73.3225
 30
0.0
 10
-103.7339
 20
74.3829
 30
0.0
 10
-103.7339
 20
74.3829
 30
0.0
 10
-104.3394
 20
75.4697
 30
0.0
 10
-105.1596
 20
82.3101
 30
0.0
 10
-104.99
 20
83.8488
 30
0.0
 10
-104.99
 20
83.8488
 30
0.0
 10
-106.367
 20
73.7243
 30
0.0
 10
-111.2658
 20
65.4598
 30
0.0
 10
-118.6478
 20
49.7547
 30
0.0
 10
-118.6478
 20
49.7547
 30
0.0
 10
-118.6478
 20
49.7547
 30
0.0
 10
-118.6476
 20
49.7543
 30
0.0
 10
-118.6476
 20
49.7543
 30
0.0
  0
SPLINE
  5
61
330
1F
100
AcDbEntity
  8
layer 1
 62
     7
100
AcDbSpline
210
0.0
220
0.0
230
1.0
 70
    11
 71
     3
 72
    24
 73
    20
 74
     0
 42
0.0000000001
 43
0.0000000001
 12
1.0
 22
0.0
 32
0.0
 13
1.0
 23
0.0
 33
0.0
 40
0.0
 40
0.0
 40
0.0
 40
0.0
 40
0.1666666666666667
 40
0.1666666666666667
 40
0.1666666666666667
 40
0.1666666666666667
 40
0.3333333333333333
 40
0.3333333333333333
 40
0.3333333333333333
 40
0.3333333333333333
 40
0.5
 40
0.5
 40
0.5
 40
0.5
 40
0.6666666666666666
 40
0.6666666666666666
 40
0.6666666666666666
 40
0.6666666666666666
 40
1.0
 40
1.0
 40
1.0
 40
1.0
 10
-96.0829
 20
13.7181
 30
0.0
 10
-89.1078
 20
14.5515
 30
0.0
 10
-77.887
 20
24.6932
 30
0.0
 10
-76.4247
 20
34.3247
 30
0.0
 10
-76.4247
 20
34.3247
 30
0.0
 10
-75.8427
 20
38.1577
 30
0.0
 10
-71.6706
 20
39.28
 30
0.0
 10
-67.9936
 20
40.7005
 30
0.0
 10
-67.9936
 20
40.7005
 30
0.0
 10
-70.0174
 20
41.5857
 30
0.0
 10
-72.9446
 20
41.103
 30
0.0
 10
-75.8927
 20
39.357
 30
0.0
 10
-75.8927
 20
39.357
 30
0.0
 10
-75.1535
 20
47.4356
 30
0.0
 10
-78.0821
 20
47.8481
 30
0.0
 10
-77.9345
 20
49.2718
 30
0.0
 10
-77.9345
 20
49.2718
 30
0.0
 10
-78.0902
 20
38.6017
 30
0.0
 10
-80.0286
 20
27.8015
 30
0.0
 10
-96.0829
 20
13.7181
 30
0.0
  0
SPLINE
  5
62
330
1F
100
AcDbEntity
  8
layer 1
 62
     7
100
AcDbSpline
210
0.0
220
0.0
230
1.0
 70
    11
 71
     3
 72
    28
 73
    24
 74
     0
 42
0.0000000001
 43
0.0000000001
 12
1.0
 22
0.0
 32
0.0
 13
1.0
 23
0.0
 33
0.0
 40
0.0
 40
0.0
 40
0.0
 40
0.0
 40
0.1428571428571428
 40
0.1428571428571428
 40
0.1428571428571428
 40
0.1428571428571428
 40
0.2857142857142857
 40
0.2857142857142857
 40
0.2857142857142857
 40
0.2857142857142857
 40
0.4285714285714285
 40
0.4285714285714285
 40
0.4285714285714285
 40
0.4285714285714285
 40
0.5714285714285714
 40
0.5714285714285714
 40
0.5714285714285714
 40
0.5714285714285714
 40
0.7142857142857143
 40
0.7142857142857143
 40
0.7142857142857143
 40
0.7142857142857143
 40
1.0
 40
1.0
 40
1.0
 40
1.0
 10
-66.0852
 20
-1.6135
 30
0.0
 10
-67.7373
 20
5.214
 30
0.0
 10
-62.5623
 20
13.2216
 30
0.0
 10
-55.5098
 20
19.9421
 30
0.0
 10
-55.5098
 20
19.9421
 30
0.0
 10
-52.1206
 20
23.1719
 30
0.0
 10
-49.7178
 20
29.1573
 30
0.0
 10
-49.6691
 20
33.0988
 30
0.0
 10
-49.6691
 20
33.0988
 30
0.0
 10
-48.1336
 20
31.511
 30
0.0
 10
-47.677
 20
29.0483
 30
0.0
 10
-49.5198
 20
25.0026
 30
0.0
 10
-49.5198
 20
25.0026
 30
0.0
 10
-42.2065
 20
28.5137
 30
0.0
 10
-39.5634
 20
27.3724
 30
0.0
 10
-38.2806
 20
28.0073
 30
0.0
 10
-38.2806
 20
28.0073
 30
0.0
 10
-48.7875
 20
19.8732
 30
0.0
 10
-57.7013
 20
14.416
 30
0.0
 10
-66.0855
 20
-1.6135
 30
0.0
 10
-66.0855
 20
-1.6135
 30
0.0
 10
-66.0855
 20
-1.6135
 30
0.0
 10
-66.0852
 20
-1.6135
 30
0.0
 10
-66.0852
 20
-1.6135
 30
0.0
  0
SPLINE
  5
63
330
1F
100
AcDbEntity
  8
layer 1
 62
     7
100
AcDbSpline
210
0.0
220
0.0
230
1.0
 70
    11
 71
     3
 72
    24
 73
    20
 74
     0
 42
0.0000000001
 43
0.0000000001
 12
1.0
 22
0.0
 32
0.0
 13
1.0
 23
0.0
 33
0.0
 40
0.0
 40
0.0
 40
0.0
 40
0.0
 40
0.1666666666666667
 40
0.1666666666666667
 40
0.1666666666666667
 40
0.1666666666666667
 40
0.3333333333333333
 40
0.3333333333333333
 40
0.3333333333333333
 40
0.3333333333333333
 40
0.5
 40
0.5
 40
0.5
 40
0.5
 40
0.6666666666666666
 40
0.6666666666666666
 40
0.6666666666666666
 40
0.6666666666666666
 40
1.0
 40
1.0
 40
1.0
 40
1.0
 10
-146.0263
 20
102.3195
 30
0.0
 10
-144.4765
 20
107.0337
 30
0.0
 10
-149.1467
 20
111.0732
 30
0.0
 10
-150.961
 20
114.5727
 30
0.0
 10
-150.961
 20
114.5727
 30
0.0
 10
-147.8163
 20
114.2967
 30
0.0
 10
-144.1277
 20
110.4233
 30
0.0
 10
-143.1432
 20
108.4216
 30
0.0
 10
-143.1432
 20
108.4216
 30
0.0
 10
-140.5269
 20
113.8056
 30
0.0
 10
-137.4668
 20
115.1011
 30
0.0
 10
-135.5328
 20
115.8854
 30
0.0
 10
-135.5328
 20
115.8854
 30
0.0
 10
-141.2056
 20
107.3873
 30
0.0
 10
-144.7714
 20
97.9507
 30
0.0
 10
-142.5049
 20
78.969
 30
0.0
 10
-142.5049
 20
78.969
 30
0.0
 10
-149.908
 20
88.9012
 30
0.0
 10
-147.9413
 20
96.6181
 30
0.0
 10
-146.0263
 20
102.3195
 30
0.0
  0
SPLINE
  5
64
330
1F
100
AcDbEntity
  8
layer 1
 62
     7
100
AcDbSpline
210
0.0
220
0.0
230
1.0
 70
    11
 71
     3
 72
    24
 73
    20
 74
     0
 42
0.0000000001
 43
0.0000000001
 12
1.0
 22
0.0
 32
0.0
 13
1.0
 23
0.0
 33
0.0
 40
0.0
 40
0.0
 40
0.0
 40
0.0
 40
0.1666666666666667
 40
0.1666666666666667
 40
0.1666666666666667
 40
0.1666666666666667
 40
0.3333333333333333
 40
0.3333333333333333
 40
0.3333333333333333
 40
0.3333333333333333
 40
0.5
 40
0.5
 40
0.5
 40
0.5
 40
0.6666666666666666
 40
0.6666666666666666
 40
0.6666666666666666
 40
0.6666666666666666
 40
1.0
 40
1.0
 40
1.0
 40
1.0
 10
-77.219
 20
97.4274
 30
0.0
 10
-77.3574
 20
107.5208
 30
0.0
 10
-73.8879
 20
118.0525
 30
0.0
 10
-70.0192
 20
121.9648
 30
0.0
 10
-70.0192
 20
121.9648
 30
0.0
 10
-68.6292
 20
123.955
 30
0.0
 10
-65.1576
 20
124.6471
 30
0.0
 10
-64.6122
 20
123.446
 30
0.0
 10
-64.6122
 20
123.446
 30
0.0
 10
-63.9735
 20
122.0395
 30
0.0
 10
-65.2614
 20
118.0154
 30
0.0
 10
-66.1277
 20
115.9977
 30
0.0
 10
-66.1277
 20
115.9977
 30
0.0
 10
-70.4545
 20
109.7053
 30
0.0
 10
-72.047
 20
106.5745
 30
0.0
 10
-77.219
 20
97.4272
 30
0.0
 10
-77.219
 20
97.4272
 30
0.0
 10
-77.219
 20
97.4272
 30
0.0
 10
-77.219
 20
97.4274
 30
0.0
 10
-77.219
 20
97.4274
 30
0.0
  0
SPLINE
  5
65
330
1F
100
AcDbEntity
  8
layer 1
 62
     7
100
AcDbSpline
210
0.0
220
0.0
230
1.0
 70
    11
 71
     3
 72
    12
 73
     8
 74
     0
 42
0.0000000001
 43
0.0000000001
 12
1.0
 22
0.0
 32
0.0
 13
1.0
 23
0.0
 33
0.0
 40
0.0
 40
0.0
 40
0.0
 40
0.0
 40
0.3333333333333333
 40
0.3333333333333333
 40
0.3333333333333333
 40
0.3333333333333333
 40
1.0
 40
1.0
 40
1.0
 40
1.0
 10
-75.1816
 20
94.4247
 30
0.0
 10
-70.0339
 20
103.2998
 30
0.0
 10
-63.8621
 20
110.9687
 30
0.0
 10
-62.7892
 20
118.1914
 30
0.0
 10
-62.7892
 20
118.1914
 30
0.0
 10
-56.5935
 20
107.5938
 30
0.0
 10
-67.3718
 20
97.8179
 30
0.0
 10
-75.1816
 20
94.4247
 30
0.0
  0
SPLINE
  5
66
330
1F
100
AcDbEntity
  8
layer 1
 62
     7
100
AcDbSpline
210
0.0
220
0.0
230
1.0
 70
    11
 71
     3
 72
    12
 73
     8
 74
     0
 42
0.0000000001
 43
0.0000000001
 12
1.0
 22
0.0
 32
0.0
 13
1.0
 23
0.0
 33
0.0
 40
0.0
 40
0.0
 40
0.0
 40
0.0
 40
0.3333333333333333
 40
0.3333333333333333
 40
0.3333333333333333
 40
0.3333333333333333
 40
1.0
 40
1.0
 40
1.0
 40
1.0
 10
-70.8921
 20
92.9233
 30
0.0
 10
-63.8141
 20
96.1149
 30
0.0
 10
-60.4305
 20
98.3146
 30
0.0
 10
-58.4996
 20
105.7516
 30
0.0
 10
-58.4996
 20
105.7516
 30
0.0
 10
-54.8776
 20
94.618
 30
0.0
 10
-65.0125
 20
90.9544
 30
0.0
 10
-70.8921
 20
92.9233
 30
0.0
  0
SPLINE
  5
67
330
1F
100
AcDbEntity
  8
layer 1
 62
     7
100
AcDbSpline
210
0.0
220
0.0
230
1.0
 70
    11
 71
     3
 72
    12
 73
     8
 74
     0
 42
0.0000000001
 43
0.0000000001
 12
1.0
 22
0.0
 32
0.0
 13
1.0
 23
0.0
 33
0.0
 40
0.0
 40
0.0
 40
0.0
 40
0.0
 40
0.3333333333333333
 40
0.3333333333333333
 40
0.3333333333333333
 40
0.3333333333333333
 40
1.0
 40
1.0
 40
1.0
 40
1.0
 10
-80.393
 20
96.4107
 30
0.0
 10
-77.5171
 20
89.2917
 30
0.0
 10
-73.9122
 20
88.2616
 30
0.0
 10
-67.2015
 20
88.5605
 30
0.0
 10
-67.2015
 20
88.5605
 30
0.0
 10
-75.8391
 20
80.3464
 30
0.0
 10
-81.2054
 20
85.6395
 30
0.0
 10
-80.393
 20
96.4107
 30
0.0
  0
SPLINE
  5
68
330
1F
100
AcDbEntity
  8
layer 1
 62
     7
100
AcDbSpline
210
0.0
220
0.0
230
1.0
 70
    11
 71
     3
 72
    12
 73
     8
 74
     0
 42
0.0000000001
 43
0.0000000001
 12
1.0
 22
0.0
 32
0.0
 13
1.0
 23
0.0
 33
0.0
 40
0.0
 40
0.0
 40
0.0
 40
0.0
 40
0.3333333333333333
 40
0.3333333333333333
 40
0.3333333333333333
 40
0.3333333333333333
 40
1.0
 40
1.0
 40
1.0
 40
1.0
 10
-61.1971
 20
79.8323
 30
0.0
 10
-56.7127
 20
82.5017
 30
0.0
 10
-54.3947
 20
82.6419
 30
0.0
 10
-50.2578
 20
83.7146
 30
0.0
 10
-50.2578
 20
83.7146
 30
0.0
 10
-50.5309
 20
86.0304
 30
0.0
 10
-59.3288
 20
88.6733
 30
0.0
 10
-61.1971
 20
79.8323
 30
0.0
  0
SPLINE
  5
69
330
1F
100
AcDbEntity
  8
layer 1
 62
     7
100
AcDbSpline
210
0.0
220
0.0
230
1.0
 70
    11
 71
     3
 72
    12
 73
     8
 74
     0
 42
0.0000000001
 43
0.0000000001
 12
1.0
 22
0.0
 32
0.0
 13
1.0
 23
0.0
 33
0.0
 40
0.0
 40
0.0
 40
0.0
 40
0.0
 40
0.3333333333333333
 40
0.3333333333333333
 40
0.3333333333333333
 40
0.3333333333333333
 40
1.0
 40
1.0
 40
1.0
 40
1.0
 10
-60.9828
 20
75.8899
 30
0.0
 10
-58.3214
 20
74.1856
 30
0.0
 10
-54.7164
 20
73.6165
 30
0.0
 10
-51.3303
 20
73.4017
 30
0.0
 10
-51.3303
 20
73.4017
 30
0.0
 10
-51.8179
 20
72.0511
 30
0.0
 10
-59.1142
 20
68.2286
 30
0.0
 10
-60.9828
 20
75.8899
 30
0.0
  0
SPLINE
  5
6A
330
1F
100
AcDbEntity
  8
layer 1
 62
     7
100
AcDbSpline
210
0.0
220
0.0
230
1.0
 70
    11
 71
     3
 72
    20
 73
    16
 74
     0
 42
0.0000000001
 43
0.0000000001
 12
1.0
 22
0.0
 32
0.0
 13
1.0
 23
0.0
 33
0.0
 40
0.0
 40
0.0
 40
0.0
 40
0.0
 40
0.2
 40
0.2
 40
0.2
 40
0.2
 40
0.4
 40
0.4
 40
0.4
 40
0.4
 40
0.6
 40
0.6
 40
0.6
 40
0.6
 40
1.0
 40
1.0
 40
1.0
 40
1.0
 10
-71.5993
 20
79.7506
 30
0.0
 10
-70.2732
 20
78.9013
 30
0.0
 10
-65.1737
 20
82.0873
 30
0.0
 10
-63.4156
 20
85.2441
 30
0.0
 10
-63.4156
 20
85.2441
 30
0.0
 10
-64.8634
 20
81.2133
 30
0.0
 10
-64.5035
 20
79.515
 30
0.0
 10
-63.8773
 20
74.3671
 30
0.0
 10
-63.8773
 20
74.3671
 30
0.0
 10
-66.5096
 20
76.2335
 30
0.0
 10
-68.337
 20
77.6658
 30
0.0
 10
-71.5996
 20
79.7508
 30
0.0
 10
-71.5996
 20
79.7508
 30
0.0
 10
-71.5996
 20
79.7508
 30
0.0
 10
-71.5993
 20
79.7506
 30
0.0
 10
-71.5993
 20
79.7506
 30
0.0
  0
SPLINE
  5
6B
330
1F
100
AcDbEntity
  8
layer 1
 62
     7
100
AcDbSpline
210
0.0
220
0.0
230
1.0
 70
    11
 71
     3
 72
    12
 73
     8
 74
     0
 42
0.0000000001
 43
0.0000000001
 12
1.0
 22
0.0
 32
0.0
 13
1.0
 23
0.0
 33
0.0
 40
0.0
 40
0.0
 40
0.0
 40
0.0
 40
0.3333333333333333
 40
0.3333333333333333
 40
0.3333333333333333
 40
0.3333333333333333
 40
1.0
 40
1.0
 40
1.0
 40
1.0
 10
-60.232
 20
78.2235
 30
0.0
 10
-47.7047
 20
73.2789
 30
0.0
 10
-42.7057
 20
77.1727
 30
0.0
 10
-38.5688
 20
78.2452
 30
0.0
 10
-38.5688
 20
78.2452
 30
0.0
 10
-49.5657
 20
85.7085
 30
0.0
 10
-49.6771
 20
78.8071
 30
0.0
 10
-60.232
 20
78.2235
 30
0.0
  0
SPLINE
  5
6C
330
1F
100
AcDbEntity
  8
layer 1
 62
     7
100
AcDbSpline
210
0.0
220
0.0
230
1.0
 70
    11
 71
     3
 72
    16
 73
    12
 74
     0
 42
0.0000000001
 43
0.0000000001
 12
1.0
 22
0.0
 32
0.0
 13
1.0
 23
0.0
 33
0.0
 40
0.0
 40
0.0
 40
0.0
 40
0.0
 40
0.25
 40
0.25
 40
0.25
 40
0.25
 40
0.5
 40
0.5
 40
0.5
 40
0.5
 40
1.0
 40
1.0
 40
1.0
 40
1.0
 10
-171.0532
 20
1.3908
 30
0.0
 10
-172.7334
 20
1.8257
 30
0.0
 10
-173.4442
 20
1.7445
 30
0.0
 10
-174.565
 20
1.4319
 30
0.0
 10
-174.565
 20
1.4319
 30
0.0
 10
-174.3953
 20
3.3621
 30
0.0
 10
-173.839
 20
6.3896
 30
0.0
 10
-173.5344
 20
9.3658
 30
0.0
 10
-173.5344
 20
9.3658
 30
0.0
 10
-172.5086
 20
6.211
 30
0.0
 10
-172.0697
 20
2.2242
 30
0.0
 10
-171.0532
 20
1.3908
 30
0.0
  0
SPLINE
  5
6D
330
1F
100
AcDbEntity
  8
layer 1
 62
     7
100
AcDbSpline
210
0.0
220
0.0
230
1.0
 70
    11
 71
     3
 72
    16
 73
    12
 74
     0
 42
0.0000000001
 43
0.0000000001
 12
1.0
 22
0.0
 32
0.0
 13
1.0
 23
0.0
 33
0.0
 40
0.0
 40
0.0
 40
0.0
 40
0.0
 40
0.25
 40
0.25
 40
0.25
 40
0.25
 40
0.5
 40
0.5
 40
0.5
 40
0.5
 40
1.0
 40
1.0
 40
1.0
 40
1.0
 10
-122.2214
 20
-31.6444
 30
0.0
 10
-123.0361
 20
-34.8159
 30
0.0
 10
-122.7371
 20
-33.1661
 30
0.0
 10
-123.4971
 20
-36.436
 30
0.0
 10
-123.4971
 20
-36.436
 30
0.0
 10
-123.9045
 20
-32.9189
 30
0.0
 10
-125.0793
 20
-30.8291
 30
0.0
 10
-126.9385
 20
-25.4005
 30
0.0
 10
-126.9385
 20
-25.4005
 30
0.0
 10
-125.1913
 20
-28.4831
 30
0.0
 10
-123.8869
 20
-30.1618
 30
0.0
 10
-122.2214
 20
-31.6444
 30
0.0
  0
SPLINE
  5
6E
330
1F
100
AcDbEntity
  8
layer 1
 62
     7
100
AcDbSpline
210
0.0
220
0.0
230
1.0
 70
    11
 71
     3
 72
    20
 73
    16
 74
     0
 42
0.0000000001
 43
0.0000000001
 12
1.0
 22
0.0
 32
0.0
 13
1.0
 23
0.0
 33
0.0
 40
0.0
 40
0.0
 40
0.0
 40
0.0
 40
0.2
 40
0.2
 40
0.2
 40
0.2
 40
0.4
 40
0.4
 40
0.4
 40
0.4
 40
0.6
 40
0.6
 40
0.6
 40
0.6
 40
1.0
 40
1.0
 40
1.0
 40
1.0
 10
-68.8493
 20
45.9226
 30
0.0
 10
-70.6891
 20
45.1792
 30
0.0
 10
-71.7929
 20
44.131
 30
0.0
 10
-73.2543
 20
42.4798
 30
0.0
 10
-73.2543
 20
42.4798
 30
0.0
 10
-72.7984
 20
44.4322
 30
0.0
 10
-73.1099
 20
46.5761
 30
0.0
 10
-73.0268
 20
48.5514
 30
0.0
 10
-73.0268
 20
48.5514
 30
0.0
 10
-72.0351
 20
46.8714
 30
0.0
 10
-70.2449
 20
46.326
 30
0.0
 10
-68.8491
 20
45.9226
 30
0.0
 10
-68.8491
 20
45.9226
 30
0.0
 10
-68.8491
 20
45.9226
 30
0.0
 10
-68.8493
 20
45.9226
 30
0.0
 10
-68.8493
 20
45.9226
 30
0.0
  0
SPLINE
  5
6F
330
1F
100
AcDbEntity
  8
layer 1
 62
     7
100
AcDbSpline
210
0.0
220
0.0
230
1.0
 70
    11
 71
     3
 72
    16
 73
    12
 74
     0
 42
0.0000000001
 43
0.0000000001
 12
1.0
 22
0.0
 32
0.0
 13
1.0
 23
0.0
 33
0.0
 40
0.0
 40
0.0
 40
0.0
 40
0.0
 40
0.25
 40
0.25
 40
0.25
 40
0.25
 40
0.5
 40
0.5
 40
0.5
 40
0.5
 40
1.0
 40
1.0
 40
1.0
 40
1.0
 10
-37.5881
 20
31.9723
 30
0.0
 10
-40.6149
 20
31.013
 30
0.0
 10
-41.6108
 20
30.8821
 30
0.0
 10
-43.9356
 20
28.7992
 30
0.0
 10
-43.9356
 20
28.7992
 30
0.0
 10
-44.0193
 20
31.0755
 30
0.0
 10
-43.953
 20
30.4135
 30
0.0
 10
-44.0858
 20
32.5507
 30
0.0
 10
-44.0858
 20
32.5507
 30
0.0
 10
-42.3386
 20
32.4355
 30
0.0
 10
-40.2787
 20
33.1309
 30
0.0
 10
-37.5881
 20
31.9723
 30
0.0
  0
SPLINE
  5
70
330
1F
100
AcDbEntity
  8
layer 1
 62
     7
100
AcDbSpline
210
0.0
220
0.0
230
1.0
 70
    11
 71
     3
 72
    16
 73
    12
 74
     0
 42
0.0000000001
 43
0.0000000001
 12
1.0
 22
0.0
 32
0.0
 13
1.0
 23
0.0
 33
0.0
 40
0.0
 40
0.0
 40
0.0
 40
0.0
 40
0.25
 40
0.25
 40
0.25
 40
0.25
 40
0.5
 40
0.5
 40
0.5
 40
0.5
 40
1.0
 40
1.0
 40
1.0
 40
1.0
 10
-166.6755
 20
64.8465
 30
0.0
 10
-169.96
 20
66.5196
 30
0.0
 10
-170.6424
 20
68.6125
 30
0.0
 10
-173.8722
 20
69.2372
 30
0.0
 10
-173.8722
 20
69.2372
 30
0.0
 10
-170.1316
 20
69.5565
 30
0.0
 10
-168.8051
 20
70.7596
 30
0.0
 10
-168.6696
 20
72.9901
 30
0.0
 10
-168.6696
 20
72.9901
 30
0.0
 10
-166.5424
 20
70.4774
 30
0.0
 10
-168.3409
 20
66.3289
 30
0.0
 10
-166.6755
 20
64.8465
 30
0.0
  0
SPLINE
  5
71
330
1F
100
AcDbEntity
  8
layer 1
 62
     7
100
AcDbSpline
210
0.0
220
0.0
230
1.0
 70
    11
 71
     3
 72
    16
 73
    12
 74
     0
 42
0.0000000001
 43
0.0000000001
 12
1.0
 22
0.0
 32
0.0
 13
1.0
 23
0.0
 33
0.0
 40
0.0
 40
0.0
 40
0.0
 40
0.0
 40
0.25
 40
0.25
 40
0.25
 40
0.25
 40
0.5
 40
0.5
 40
0.5
 40
0.5
 40
1.0
 40
1.0
 40
1.0
 40
1.0
 10
-162.9581
 20
71.8934
 30
0.0
 10
-163.4877
 20
68.5637
 30
0.0
 10
-162.4288
 20
64.6724
 30
0.0
 10
-161.5425
 20
61.339
 30
0.0
 10
-161.5425
 20
61.339
 30
0.0
 10
-160.2717
 20
65.4261
 30
0.0
 10
-159.5783
 20
68.0225
 30
0.0
 10
-159.0945
 20
73.6094
 30
0.0
 10
-159.0945
 20
73.6094
 30
0.0
 10
-159.6587
 20
72.2998
 30
0.0
 10
-161.2989
 20
71.3811
 30
0.0
 10
-162.9581
 20
71.8934
 30
0.0
  0
SPLINE
  5
72
330
1F
100
AcDbEntity
  8
layer 1
 62
     7
100
AcDbSpline
210
0.0
220
0.0
230
1.0
 70
    11
 71
     3
 72
    16
 73
    12
 74
     0
 42
0.0000000001
 43
0.0000000001
 12
1.0
 22
0.0
 32
0.0
 13
1.0
 23
0.0
 33
0.0
 40
0.0
 40
0.0
 40
0.0
 40
0.0
 40
0.25
 40
0.25
 40
0.25
 40
0.25
 40
0.5
 40
0.5
 40
0.5
 40
0.5
 40
1.0
 40
1.0
 40
1.0
 40
1.0
 10
-97.1853
 20
80.9747
 30
0.0
 10
-98.7012
 20
80.2962
 30
0.0
 10
-99.7654
 20
80.1151
 30
0.0
 10
-101.3436
 20
78.3644
 30
0.0
 10
-101.3436
 20
78.3644
 30
0.0
 10
-101.1277
 20
80.2455
 30
0.0
 10
-100.6665
 20
81.2446
 30
0.0
 10
-100.9286
 20
84.9981
 30
0.0
 10
-100.9286
 20
84.9981
 30
0.0
 10
-99.7656
 20
82.3048
 30
0.0
 10
-98.4612
 20
81.6781
 30
0.0
 10
-97.1853
 20
80.9747
 30
0.0
  0
SPLINE
  5
73
330
1F
100
AcDbEntity
  8
layer 1
 62
     7
100
AcDbSpline
210
0.0
220
0.0
230
1.0
 70
    11
 71
     3
 72
    16
 73
    12
 74
     0
 42
0.0000000001
 43
0.0000000001
 12
1.0
 22
0.0
 32
0.0
 13
1.0
 23
0.0
 33
0.0
 40
0.0
 40
0.0
 40
0.0
 40
0.0
 40
0.25
 40
0.25
 40
0.25
 40
0.25
 40
0.5
 40
0.5
 40
0.5
 40
0.5
 40
1.0
 40
1.0
 40
1.0
 40
1.0
 10
-141.976
 20
121.5093
 30
0.0
 10
-140.5821
 20
123.0353
 30
0.0
 10
-137.8876
 20
121.543
 30
0.0
 10
-140.172
 20
119.1442
 30
0.0
 10
-140.172
 20
119.1442
 30
0.0
 10
-142.2281
 20
117.093
 30
0.0
 10
-141.8475
 20
117.4408
 30
0.0
 10
-145.8533
 20
114.6877
 30
0.0
 10
-145.8533
 20
114.6877
 30
0.0
 10
-143.7951
 20
117.8889
 30
0.0
 10
-144.1394
 20
118.8855
 30
0.0
 10
-141.976
 20
121.5093
 30
0.0
  0
SPLINE
  5
74
330
1F
100
AcDbEntity
  8
layer 1
 62
     7
100
AcDbSpline
210
0.0
220
0.0
230
1.0
 70
    11
 71
     3
 72
    16
 73
    12
 74
     0
 42
0.0000000001
 43
0.0000000001
 12
1.0
 22
0.0
 32
0.0
 13
1.0
 23
0.0
 33
0.0
 40
0.0
 40
0.0
 40
0.0
 40
0.0
 40
0.25
 40
0.25
 40
0.25
 40
0.25
 40
0.5
 40
0.5
 40
0.5
 40
0.5
 40
1.0
 40
1.0
 40
1.0
 40
1.0
 10
-33.3287
 20
32.4578
 30
0.0
 10
-33.3287
 20
29.5022
 30
0.0
 10
-33.3287
 20
30.0728
 30
0.0
 10
-33.3287
 20
26.5332
 30
0.0
 10
-33.3287
 20
26.5332
 30
0.0
 10
-34.1676
 20
27.5144
 30
0.0
 10
-35.0501
 20
27.1224
 30
0.0
 10
-36.1541
 20
27.5329
 30
0.0
 10
-36.1541
 20
27.5329
 30
0.0
 10
-35.1624
 20
29.0363
 30
0.0
 10
-34.1848
 20
29.0843
 30
0.0
 10
-33.3287
 20
32.4578
 30
0.0
  0
SPLINE
  5
75
330
1F
100
AcDbEntity
  8
layer 1
 62
     7
100
AcDbSpline
210
0.0
220
0.0
230
1.0
 70
    11
 71
     3
 72
    16
 73
    12
 74
     0
 42
0.0000000001
 43
0.0000000001
 12
1.0
 22
0.0
 32
0.0
 13
1.0
 23
0.0
 33
0.0
 40
0.0
 40
0.0
 40
0.0
 40
0.0
 40
0.25
 40
0.25
 40
0.25
 40
0.25
 40
0.5
 40
0.5
 40
0.5
 40
0.5
 40
1.0
 40
1.0
 40
1.0
 40
1.0
 10
-179.1954
 20
-48.2079
 30
0.0
 10
-179.1954
 20
-51.1635
 30
0.0
 10
-179.1954
 20
-49.978
 30
0.0
 10
-179.1954
 20
-53.5177
 30
0.0
 10
-179.1954
 20
-53.5177
 30
0.0
 10
-178.3565
 20
-52.5365
 30
0.0
 10
-177.2373
 20
-51.5095
 30
0.0
 10
-176.1333
 20
-51.0987
 30
0.0
 10
-176.1333
 20
-51.0987
 30
0.0
 10
-177.125
 20
-50.3363
 30
0.0
 10
-178.2602
 20
-49.563
 30
0.0
 10
-179.1954
 20
-48.2079
 30
0.0
  0
SPLINE
  5
76
330
1F
100
AcDbEntity
  8
layer 1
 62
     7
100
AcDbSpline
210
0.0
220
0.0
230
1.0
 70
    11
 71
     3
 72
    16
 73
    12
 74
     0
 42
0.0000000001
 43
0.0000000001
 12
1.0
 22
0.0
 32
0.0
 13
1.0
 23
0.0
 33
0.0
 40
0.0
 40
0.0
 40
0.0
 40
0.0
 40
0.25
 40
0.25
 40
0.25
 40
0.25
 40
0.5
 40
0.5
 40
0.5
 40
0.5
 40
1.0
 40
1.0
 40
1.0
 40
1.0
 10
-179.1954
 20
69.496
 30
0.0
 10
-177.4855
 20
67.7434
 30
0.0
 10
-175.42
 20
67.4275
 30
0.0
 10
-174.4067
 20
63.1913
 30
0.0
 10
-174.4067
 20
63.1913
 30
0.0
 10
-175.9422
 20
63.0011
 30
0.0
 10
-176.5082
 20
62.1972
 30
0.0
 10
-179.1954
 20
62.1646
 30
0.0
 10
-179.1954
 20
62.1646
 30
0.0
 10
-179.1954
 20
62.1646
 30
0.0
 10
-179.1954
 20
69.496
 30
0.0
 10
-179.1954
 20
69.496
 30
0.0
  0
SPLINE
  5
77
330
1F
100
AcDbEntity
  8
layer 1
 62
     7
100
AcDbSpline
210
0.0
220
0.0
230
1.0
 70
    11
 71
     3
 72
    16
 73
    12
 74
     0
 42
0.0000000001
 43
0.0000000001
 12
1.0
 22
0.0
 32
0.0
 13
1.0
 23
0.0
 33
0.0
 40
0.0
 40
0.0
 40
0.0
 40
0.0
 40
0.25
 40
0.25
 40
0.25
 40
0.25
 40
0.5
 40
0.5
 40
0.5
 40
0.5
 40
1.0
 40
1.0
 40
1.0
 40
1.0
 10
-141.8754
 20
124.7588
 30
0.0
 10
-142.5598
 20
123.8561
 30
0.0
 10
-143.493
 20
123.0574
 30
0.0
 10
-144.2396
 20
121.8819
 30
0.0
 10
-144.2396
 20
121.8819
 30
0.0
 10
-144.5809
 20
122.9564
 30
0.0
 10
-145.2145
 20
123.7153
 30
0.0
 10
-146.3185
 20
124.7793
 30
0.0
 10
-146.3185
 20
124.7793
 30
0.0
 10
-144.7667
 20
124.7588
 30
0.0
 10
-144.1003
 20
124.7588
 30
0.0
 10
-141.8754
 20
124.7588
 30
0.0
  0
ENDSEC
  0
SECTION
  2
OBJECTS
  0
DICTIONARY
  5
C
330
0
100
AcDbDictionary
281
     1
  3
ACAD_GROUP
350
D
  3
ACAD_LAYOUT
350
1A
  3
ACAD_MATERIAL
350
3B
  3
ACAD_MLEADERSTYLE
350
9A
  3
ACAD_MLINESTYLE
350
17
  3
ACAD_PLOTSETTINGS
350
19
  3
ACAD_PLOTSTYLENAME
350
E
  3
ACAD_TABLESTYLE
350
99
  3
ACAD_VISUALSTYLE
350
2A
  0
DICTIONARY
  5
D
102
{ACAD_REACTORS
330
C
102
}
330
C
100
AcDbDictionary
281
     1
  0
DICTIONARY
  5
1A
102
{ACAD_REACTORS
330
C
102
}
330
C
100
AcDbDictionary
281
     1
  3
Layout1
350
1E
  3
Layout2
350
26
  3
Model
350
22
  0
DICTIONARY
  5
3B
102
{ACAD_REACTORS
330
C
102
}
330
C
100
AcDbDictionary
281
     1
  3
ByBlock
350
3D
  3
ByLayer
350
3C
  3
Global
350
3E
  0
DICTIONARY
  5
9A
102
{ACAD_REACTORS
330
C
102
}
330
C
100
AcDbDictionary
281
     1
  0
DICTIONARY
  5
17
102
{ACAD_REACTORS
330
C
102
}
330
C
100
AcDbDictionary
281
     1
  3
Standard
350
18
  0
DICTIONARY
  5
19
102
{ACAD_REACTORS
330
C
102
}
330
C
100
AcDbDictionary
281
     1
  0
ACDBDICTIONARYWDFLT
  5
E
102
{ACAD_REACTORS
330
C
102
}
330
C
100
AcDbDictionary
281
     1
  3
Normal
350
F
100
AcDbDictionaryWithDefault
340
F
  0
DICTIONARY
  5
99
102
{ACAD_REACTORS
330
C
102
}
330
C
100
AcDbDictionary
281
     1
  0
DICTIONARY
  5
2A
102
{ACAD_REACTORS
330
C
102
}
330
C
100
AcDbDictionary
281
     1
  3
2dWireframe
350
2F
  3
3D Hidden
350
31
  3
3dWireframe
350
30
  3
Basic
350
32
  3
Brighten
350
36
  3
ColorChange
350
3A
  3
Conceptual
350
34
  3
Dim
350
35
  3
Facepattern
350
39
  3
Flat
350
2B
  3
FlatWithEdges
350
2C
  3
Gouraud
350
2D
  3
GouraudWithEdges
350
2E
  3
Linepattern
350
38
  3
Realistic
350
33
  3
Thicken
350
37
  0
LAYOUT
  5
1E
102
{ACAD_REACTORS
330
1A
102
}
330
1A
100
AcDbPlotSettings
  1

  2
none_device
  4

  6

 40
0.0
 41
0.0
 42
0.0
 43
0.0
 44
0.0
 45
0.0
 46
0.0
 47
0.0
 48
0.0
 49
0.0
140
0.0
141
0.0
142
1.0
143
1.0
 70
   688
 72
     0
 73
     0
 74
     5
  7

 75
    16
 76
     0
 77
     2
 78
   300
147
1.0
148
0.0
149
0.0
100
AcDbLayout
  1
Layout1
 70
     1
 71
     1
 10
0.0
 20
0.0
 11
12.0
 21
9.0
 12
0.0
 22
0.0
 32
0.0
 14
1.000000000000000E+20
 24
1.000000000000000E+20
 34
1.000000000000000E+20
 15
-1.000000000000000E+20
 25
-1.000000000000000E+20
 35
-1.000000000000000E+20
146
0.0
 13
0.0
 23
0.0
 33
0.0
 16
1.0
 26
0.0
 36
0.0
 17
0.0
 27
1.0
 37
0.0
 76
     0
330
1B
  0
LAYOUT
  5
26
102
{ACAD_REACTORS
330
1A
102
}
330
1A
100
AcDbPlotSettings
  1

  2
none_device
  4

  6

 40
0.0
 41
0.0
 42
0.0
 43
0.0
 44
0.0
 45
0.0
 46
0.0
 47
0.0
 48
0.0
 49
0.0
140
0.0
141
0.0
142
1.0
143
1.0
 70
   688
 72
     0
 73
     0
 74
     5
  7

 75
    16
 76
     0
 77
     2
 78
   300
147
1.0
148
0.0
149
0.0
100
AcDbLayout
  1
Layout2
 70
     1
 71
     2
 10
0.0
 20
0.0
 11
0.0
 21
0.0
 12
0.0
 22
0.0
 32
0.0
 14
0.0
 24
0.0
 34
0.0
 15
0.0
 25
0.0
 35
0.0
146
0.0
 13
0.0
 23
0.0
 33
0.0
 16
1.0
 26
0.0
 36
0.0
 17
0.0
 27
1.0
 37
0.0
 76
     0
330
23
  0
LAYOUT
  5
22
102
{ACAD_REACTORS
330
1A
102
}
330
1A
100
AcDbPlotSettings
  1

  2
none_device
  4

  6

 40
0.0
 41
0.0
 42
0.0
 43
0.0
 44
0.0
 45
0.0
 46
0.0
 47
0.0
 48
0.0
 49
0.0
140
0.0
141
0.0
142
1.0
143
1.0
 70
  1712
 72
     0
 73
     0
 74
     0
  7

 75
     0
 76
     0
 77
     2
 78
   300
147
1.0
148
0.0
149
0.0
100
AcDbLayout
  1
Model
 70
     1
 71
     0
 10
0.0
 20
0.0
 11
12.0
 21
9.0
 12
0.0
 22
0.0
 32
0.0
 14
-187.7165
 24
-114.8969
 34
0.0
 15
-24.6314
 25
131.7692
 35
0.0
146
0.0
 13
0.0
 23
0.0
 33
0.0
 16
1.0
 26
0.0
 36
0.0
 17
0.0
 27
1.0
 37
0.0
 76
     0
330
1F
331
29
  0
MATERIAL
  5
3D
102
{ACAD_REACTORS
330
3B
102
}
330
3B
100
AcDbMaterial
  1
ByBlock
 72
     1
 94
      127
  0
MATERIAL
  5
3C
102
{ACAD_REACTORS
330
3B
102
}
330
3B
100
AcDbMaterial
  1
ByLayer
 72
     1
 94
      127
  0
MATERIAL
  5
3E
102
{ACAD_REACTORS
330
3B
102
}
330
3B
100
AcDbMaterial
  1
Global
 72
     1
 94
      127
  0
MLINESTYLE
  5
18
102
{ACAD_REACTORS
330
17
102
}
330
17
100
AcDbMlineStyle
  2
Standard
 70
     0
  3

 62
   256
 51
90.0
 52
90.0
 71
     2
 49
0.5
 62
   256
  6
BYLAYER
 49
-0.5
 62
   256
  6
BYLAYER
  0
ACDBPLACEHOLDER
  5
F
102
{ACAD_REACTORS
330
E
102
}
330
E
  0
VISUALSTYLE
  5
2F
102
{ACAD_REACTORS
330
2A
102
}
102
{ACAD_XDICTIONARY
360
81
102
}
330
2A
100
AcDbVisualStyle
  2
2dWireframe
 70
     4
 71
     0
 72
     2
 73
     0
 90
        0
 40
-0.6
 41
-30.0
 62
     5
 63
     7
421
 16777215
 74
     1
 91
        4
 64
     7
 65
   257
 75
     1
175
     1
 42
1.0
 92
        0
 66
   257
 43
1.0
 76
     1
 77
     6
 78
     2
 67
     7
 79
     5
170
     0
171
     0
290
     0
174
     0
 93
        1
 44
0.0
173
     0
291
     0
 45
0.0
  0
VISUALSTYLE
  5
31
102
{ACAD_REACTORS
330
2A
102
}
102
{ACAD_XDICTIONARY
360
85
102
}
330
2A
100
AcDbVisualStyle
  2
3D Hidden
 70
     6
 71
     1
 72
     2
 73
     2
 90
        0
 40
-0.6
 41
-30.0
 62
     5
 63
     7
421
 16777215
 74
     2
 91
        2
 64
     7
 65
   257
 75
     2
175
     1
 42
40.0
 92
        0
 66
   257
 43
1.0
 76
     1
 77
     6
 78
     2
 67
     7
 79
     3
170
     0
171
     0
290
     0
174
     0
 93
        1
 44
0.0
173
     0
291
     0
 45
0.0
  0
VISUALSTYLE
  5
30
102
{ACAD_REACTORS
330
2A
102
}
102
{ACAD_XDICTIONARY
360
83
102
}
330
2A
100
AcDbVisualStyle
  2
3dWireframe
 70
     5
 71
     0
 72
     2
 73
     0
 90
        0
 40
-0.6
 41
-30.0
 62
     5
 63
     7
421
 16777215
 74
     1
 91
        4
 64
     7
 65
   257
 75
     1
175
     1
 42
1.0
 92
        0
 66
   257
 43
1.0
 76
     1
 77
     6
 78
     2
 67
     7
 79
     5
170
     0
171
     0
290
     0
174
     0
 93
        1
 44
0.0
173
     0
291
     0
 45
0.0
  0
VISUALSTYLE
  5
32
102
{ACAD_REACTORS
330
2A
102
}
102
{ACAD_XDICTIONARY
360
87
102
}
330
2A
100
AcDbVisualStyle
  2
Basic
 70
     7
 71
     1
 72
     0
 73
     1
 90
        0
 40
-0.6
 41
-30.0
 62
     5
 63
     7
421
 16777215
 74
     0
 91
        4
 64
     7
 65
   257
 75
     1
175
     1
 42
1.0
 92
        8
 66
     7
 43
1.0
 76
     1
 77
     6
 78
     2
 67
     7
 79
     5
170
     0
171
     0
290
     0
174
     0
 93
        1
 44
0.0
173
     0
291
     1
 45
0.0
  0
VISUALSTYLE
  5
36
102
{ACAD_REACTORS
330
2A
102
}
102
{ACAD_XDICTIONARY
360
8F
102
}
330
2A
100
AcDbVisualStyle
  2
Brighten
 70
    12
 71
     2
 72
     2
 73
     0
 90
        0
 40
-0.6
 41
-30.0
 62
     5
 63
     7
421
 16777215
 74
     1
 91
        4
 64
     7
 65
   257
 75
     1
175
     1
 42
1.0
 92
        8
 66
     7
 43
1.0
 76
     1
 77
     6
 78
     2
 67
     7
 79
     5
170
     0
171
     0
290
     0
174
     0
 93
        1
 44
50.0
173
     0
291
     1
 45
0.0
  0
VISUALSTYLE
  5
3A
102
{ACAD_REACTORS
330
2A
102
}
102
{ACAD_XDICTIONARY
360
97
102
}
330
2A
100
AcDbVisualStyle
  2
ColorChange
 70
    16
 71
     2
 72
     2
 73
     3
 90
        0
 40
-0.6
 41
-30.0
 62
     5
 63
     8
421
  8421504
 74
     1
 91
        4
 64
     7
 65
   257
 75
     1
175
     1
 42
1.0
 92
        8
 66
     8
424
  8421504
 43
1.0
 76
     1
 77
     6
 78
     2
 67
     7
 79
     5
170
     0
171
     0
290
     0
174
     0
 93
        1
 44
0.0
173
     0
291
     1
 45
0.0
  0
VISUALSTYLE
  5
34
102
{ACAD_REACTORS
330
2A
102
}
102
{ACAD_XDICTIONARY
360
8B
102
}
330
2A
100
AcDbVisualStyle
  2
Conceptual
 70
     9
 71
     3
 72
     2
 73
     0
 90
        0
 40
-0.6
 41
-30.0
 62
     5
 63
     7
421
 16777215
 74
     2
 91
        2
 64
     7
 65
   257
 75
     1
175
     1
 42
40.0
 92
        8
 66
     7
 43
1.0
 76
     1
 77
     6
 78
     2
 67
     7
 79
     3
170
     0
171
     0
290
     0
174
     0
 93
        1
 44
0.0
173
     0
291
     0
 45
0.0
  0
VISUALSTYLE
  5
35
102
{ACAD_REACTORS
330
2A
102
}
102
{ACAD_XDICTIONARY
360
8D
102
}
330
2A
100
AcDbVisualStyle
  2
Dim
 70
    11
 71
     2
 72
     2
 73
     0
 90
        0
 40
-0.6
 41
-30.0
 62
     5
 63
     7
421
 16777215
 74
     1
 91
        4
 64
     7
 65
   257
 75
     1
175
     1
 42
1.0
 92
        8
 66
     7
 43
1.0
 76
     1
 77
     6
 78
     2
 67
     7
 79
     5
170
     0
171
     0
290
     0
174
     0
 93
        1
 44
-50.0
173
     0
291
     1
 45
0.0
  0
VISUALSTYLE
  5
39
102
{ACAD_REACTORS
330
2A
102
}
102
{ACAD_XDICTIONARY
360
95
102
}
330
2A
100
AcDbVisualStyle
  2
Facepattern
 70
    15
 71
     2
 72
     2
 73
     0
 90
        0
 40
-0.6
 41
-30.0
 62
     5
 63
     7
421
 16777215
 74
     1
 91
        4
 64
     7
 65
   257
 75
     1
175
     1
 42
1.0
 92
        8
 66
     7
 43
1.0
 76
     1
 77
     6
 78
     2
 67
     7
 79
     5
170
     0
171
     0
290
     0
174
     0
 93
        1
 44
0.0
173
     0
291
     1
 45
0.0
  0
VISUALSTYLE
  5
2B
102
{ACAD_REACTORS
330
2A
102
}
102
{ACAD_XDICTIONARY
360
79
102
}
330
2A
100
AcDbVisualStyle
  2
Flat
 70
     0
 71
     2
 72
     1
 73
     1
 90
        2
 40
-0.6
 41
30.0
 62
     5
 63
     7
421
 16777215
 74
     0
 91
        4
 64
     7
 65
   257
 75
     1
175
     1
 42
1.0
 92
        8
 66
     7
 43
1.0
 76
     1
 77
     6
 78
     2
 67
     7
 79
     5
170
     0
171
     0
290
     0
174
     0
 93
       13
 44
0.0
173
     0
291
     1
 45
0.0
  0
VISUALSTYLE
  5
2C
102
{ACAD_REACTORS
330
2A
102
}
102
{ACAD_XDICTIONARY
360
7B
102
}
330
2A
100
AcDbVisualStyle
  2
FlatWithEdges
 70
     1
 71
     2
 72
     1
 73
     1
 90
        2
 40
-0.6
 41
30.0
 62
     5
 63
     7
421
 16777215
 74
     1
 91
        4
 64
     7
 65
   257
 75
     1
175
     1
 42
1.0
 92
        0
 66
   257
 43
1.0
 76
     1
 77
     6
 78
     2
 67
     7
 79
     5
170
     0
171
     0
290
     0
174
     0
 93
       13
 44
0.0
173
     0
291
     1
 45
0.0
  0
VISUALSTYLE
  5
2D
102
{ACAD_REACTORS
330
2A
102
}
102
{ACAD_XDICTIONARY
360
7D
102
}
330
2A
100
AcDbVisualStyle
  2
Gouraud
 70
     2
 71
     2
 72
     2
 73
     1
 90
        2
 40
-0.6
 41
30.0
 62
     5
 63
     7
421
 16777215
 74
     0
 91
        4
 64
     7
 65
   257
 75
     1
175
     1
 42
1.0
 92
        0
 66
     7
 43
1.0
 76
     1
 77
     6
 78
     2
 67
     7
 79
     5
170
     0
171
     0
290
     0
174
     0
 93
       13
 44
0.0
173
     0
291
     1
 45
0.0
  0
VISUALSTYLE
  5
2E
102
{ACAD_REACTORS
330
2A
102
}
102
{ACAD_XDICTIONARY
360
7F
102
}
330
2A
100
AcDbVisualStyle
  2
GouraudWithEdges
 70
     3
 71
     2
 72
     2
 73
     1
 90
        2
 40
-0.6
 41
30.0
 62
     5
 63
     7
421
 16777215
 74
     1
 91
        4
 64
     7
 65
   257
 75
     1
175
     1
 42
1.0
 92
        0
 66
   257
 43
1.0
 76
     1
 77
     6
 78
     2
 67
     7
 79
     5
170
     0
171
     0
290
     0
174
     0
 93
       13
 44
0.0
173
     0
291
     1
 45
0.0
  0
VISUALSTYLE
  5
38
102
{ACAD_REACTORS
330
2A
102
}
102
{ACAD_XDICTIONARY
360
93
102
}
330
2A
100
AcDbVisualStyle
  2
Linepattern
 70
    14
 71
     2
 72
     2
 73
     0
 90
        0
 40
-0.6
 41
-30.0
 62
     5
 63
     7
421
 16777215
 74
     1
 91
        4
 64
     7
 65
   257
 75
     7
175
     7
 42
1.0
 92
        8
 66
     7
 43
1.0
 76
     1
 77
     6
 78
     2
 67
     7
 79
     5
170
     0
171
     0
290
     0
174
     0
 93
        1
 44
0.0
173
     0
291
     1
 45
0.0
  0
VISUALSTYLE
  5
33
102
{ACAD_REACTORS
330
2A
102
}
102
{ACAD_XDICTIONARY
360
89
102
}
330
2A
100
AcDbVisualStyle
  2
Realistic
 70
     8
 71
     2
 72
     2
 73
     0
 90
        0
 40
-0.6
 41
-30.0
 62
     5
 63
     7
421
 16777215
 74
     1
 91
        0
 64
     7
 65
   257
 75
     1
175
     1
 42
1.0
 92
        8
 66
     8
424
  7895160
 43
1.0
 76
     1
 77
     6
 78
     2
 67
     7
 79
     5
170
     0
171
     0
290
     0
174
     0
 93
       13
 44
0.0
173
     0
291
     0
 45
0.0
  0
VISUALSTYLE
  5
37
102
{ACAD_REACTORS
330
2A
102
}
102
{ACAD_XDICTIONARY
360
91
102
}
330
2A
100
AcDbVisualStyle
  2
Thicken
 70
    13
 71
     2
 72
     2
 73
     0
 90
        0
 40
-0.6
 41
-30.0
 62
     5
 63
     7
421
 16777215
 74
     1
 91
        4
 64
     7
 65
   257
 75
     1
175
     1
 42
1.0
 92
       12
 66
     7
 43
1.0
 76
     1
 77
     6
 78
     2
 67
     7
 79
     5
170
     0
171
     0
290
     0
174
     0
 93
        1
 44
0.0
173
     0
291
     1
 45
0.0
  0
DICTIONARY
  5
81
330
2F
100
AcDbDictionary
280
     1
281
     1
  3
ACAD_XREC_ROUNDTRIP
360
82
  0
DICTIONARY
  5
85
330
31
100
AcDbDictionary
280
     1
281
     1
  3
ACAD_XREC_ROUNDTRIP
360
86
  0
DICTIONARY
  5
83
330
30
100
AcDbDictionary
280
     1
281
     1
  3
ACAD_XREC_ROUNDTRIP
360
84
  0
DICTIONARY
  5
87
330
32
100
AcDbDictionary
280
     1
281
     1
  3
ACAD_XREC_ROUNDTRIP
360
88
  0
DICTIONARY
  5
8F
330
36
100
AcDbDictionary
280
     1
281
     1
  3
ACAD_XREC_ROUNDTRIP
360
90
  0
DICTIONARY
  5
97
330
3A
100
AcDbDictionary
280
     1
281
     1
  3
ACAD_XREC_ROUNDTRIP
360
98
  0
DICTIONARY
  5
8B
330
34
100
AcDbDictionary
280
     1
281
     1
  3
ACAD_XREC_ROUNDTRIP
360
8C
  0
DICTIONARY
  5
8D
330
35
100
AcDbDictionary
280
     1
281
     1
  3
ACAD_XREC_ROUNDTRIP
360
8E
  0
DICTIONARY
  5
95
330
39
100
AcDbDictionary
280
     1
281
     1
  3
ACAD_XREC_ROUNDTRIP
360
96
  0
DICTIONARY
  5
79
330
2B
100
AcDbDictionary
280
     1
281
     1
  3
ACAD_XREC_ROUNDTRIP
360
7A
  0
DICTIONARY
  5
7B
330
2C
100
AcDbDictionary
280
     1
281
     1
  3
ACAD_XREC_ROUNDTRIP
360
7C
  0
DICTIONARY
  5
7D
330
2D
100
AcDbDictionary
280
     1
281
     1
  3
ACAD_XREC_ROUNDTRIP
360
7E
  0
DICTIONARY
  5
7F
330
2E
100
AcDbDictionary
280
     1
281
     1
  3
ACAD_XREC_ROUNDTRIP
360
80
  0
DICTIONARY
  5
93
330
38
100
AcDbDictionary
280
     1
281
     1
  3
ACAD_XREC_ROUNDTRIP
360
94
  0
DICTIONARY
  5
89
330
33
100
AcDbDictionary
280
     1
281
     1
  3
ACAD_XREC_ROUNDTRIP
360
8A
  0
DICTIONARY
  5
91
330
37
100
AcDbDictionary
280
     1
281
     1
  3
ACAD_XREC_ROUNDTRIP
360
92
  0
XRECORD
  5
82
102
{ACAD_REACTORS
330
81
102
}
330
81
100
AcDbXrecord
280
     1
102
RTVSPropertyOp0
 70
     1
102
RTVSPropertyOp1
 70
     1
102
RTVSPropertyOp2
 70
     1
102
RTVSPropertyOp3
 70
     1
102
RTVSPropertyOp4
 70
     1
102
RTVSPropertyOp5
 70
     1
102
RTVSPropertyOp6
 70
     1
102
RTVSPropertyOp7
 70
     1
102
RTVSPropertyOp8
 70
     1
102
RTVSPropertyOp9
 70
     1
102
RTVSPropertyOp10
 70
     1
102
RTVSPropertyOp11
 70
     1
102
RTVSPropertyOp12
 70
     1
102
RTVSPropertyOp13
 70
     1
102
RTVSPropertyOp14
 70
     1
102
RTVSPropertyOp15
 70
     1
102
RTVSPropertyOp16
 70
     1
102
RTVSPropertyOp17
 70
     1
102
RTVSPropertyOp18
 70
     1
102
RTVSPropertyOp19
 70
     1
102
RTVSPropertyOp20
 70
     1
102
RTVSPropertyOp21
 70
     1
102
RTVSPropertyOp22
 70
     1
102
RTVSPropertyOp23
 70
     1
102
RTVSPropertyOp24
 70
     1
102
RTVSPropertyOp25
 70
     1
102
RTVSPropertyOp26
 70
     1
102
RTVSPropertyOp27
 70
     1
102
RTVSPropertyOp28
 70
     1
102
RTVSPropertyOp29
 70
     1
102
RTVSPropertyOp30
 70
     1
102
RTVSPropertyOp31
 70
     1
102
RTVSPropertyOp32
 70
     1
  0
XRECORD
  5
86
102
{ACAD_REACTORS
330
85
102
}
330
85
100
AcDbXrecord
280
     1
102
RTVSPropertyOp0
 70
     1
102
RTVSPropertyOp1
 70
     1
102
RTVSPropertyOp2
 70
     1
102
RTVSPropertyOp3
 70
     1
102
RTVSPropertyOp4
 70
     1
102
RTVSPropertyOp5
 70
     1
102
RTVSPropertyOp6
 70
     1
102
RTVSPropertyOp7
 70
     1
102
RTVSPropertyOp8
 70
     1
102
RTVSPropertyOp9
 70
     1
102
RTVSPropertyOp10
 70
     1
102
RTVSPropertyOp11
 70
     1
102
RTVSPropertyOp12
 70
     1
102
RTVSPropertyOp13
 70
     1
102
RTVSPropertyOp14
 70
     1
102
RTVSPropertyOp15
 70
     1
102
RTVSPropertyOp16
 70
     1
102
RTVSPropertyOp17
 70
     1
102
RTVSPropertyOp18
 70
     1
102
RTVSPropertyOp19
 70
     1
102
RTVSPropertyOp20
 70
     1
102
RTVSPropertyOp21
 70
     1
102
RTVSPropertyOp22
 70
     1
102
RTVSPropertyOp23
 70
     1
102
RTVSPropertyOp24
 70
     1
102
RTVSPropertyOp25
 70
     1
102
RTVSPropertyOp26
 70
     1
102
RTVSPropertyOp27
 70
     1
102
RTVSPropertyOp28
 70
     1
102
RTVSPropertyOp29
 70
     1
102
RTVSPropertyOp30
 70
     1
102
RTVSPropertyOp31
 70
     1
102
RTVSPropertyOp32
 70
     1
  0
XRECORD
  5
84
102
{ACAD_REACTORS
330
83
102
}
330
83
100
AcDbXrecord
280
     1
102
RTVSPropertyOp0
 70
     1
102
RTVSPropertyOp1
 70
     1
102
RTVSPropertyOp2
 70
     1
102
RTVSPropertyOp3
 70
     1
102
RTVSPropertyOp4
 70
     1
102
RTVSPropertyOp5
 70
     1
102
RTVSPropertyOp6
 70
     1
102
RTVSPropertyOp7
 70
     1
102
RTVSPropertyOp8
 70
     1
102
RTVSPropertyOp9
 70
     1
102
RTVSPropertyOp10
 70
     1
102
RTVSPropertyOp11
 70
     1
102
RTVSPropertyOp12
 70
     1
102
RTVSPropertyOp13
 70
     1
102
RTVSPropertyOp14
 70
     1
102
RTVSPropertyOp15
 70
     1
102
RTVSPropertyOp16
 70
     1
102
RTVSPropertyOp17
 70
     1
102
RTVSPropertyOp18
 70
     1
102
RTVSPropertyOp19
 70
     1
102
RTVSPropertyOp20
 70
     1
102
RTVSPropertyOp21
 70
     1
102
RTVSPropertyOp22
 70
     1
102
RTVSPropertyOp23
 70
     1
102
RTVSPropertyOp24
 70
     1
102
RTVSPropertyOp25
 70
     1
102
RTVSPropertyOp26
 70
     1
102
RTVSPropertyOp27
 70
     1
102
RTVSPropertyOp28
 70
     1
102
RTVSPropertyOp29
 70
     1
102
RTVSPropertyOp30
 70
     1
102
RTVSPropertyOp31
 70
     1
102
RTVSPropertyOp32
 70
     1
  0
XRECORD
  5
88
102
{ACAD_REACTORS
330
87
102
}
330
87
100
AcDbXrecord
280
     1
102
RTVSPropertyOp0
 70
     1
102
RTVSPropertyOp1
 70
     1
102
RTVSPropertyOp2
 70
     1
102
RTVSPropertyOp3
 70
     1
102
RTVSPropertyOp4
 70
     1
102
RTVSPropertyOp5
 70
     1
102
RTVSPropertyOp6
 70
     1
102
RTVSPropertyOp7
 70
     1
102
RTVSPropertyOp8
 70
     1
102
RTVSPropertyOp9
 70
     1
102
RTVSPropertyOp10
 70
     1
102
RTVSPropertyOp11
 70
     1
102
RTVSPropertyOp12
 70
     1
102
RTVSPropertyOp13
 70
     1
102
RTVSPropertyOp14
 70
     1
102
RTVSPropertyOp15
 70
     1
102
RTVSPropertyOp16
 70
     1
102
RTVSPropertyOp17
 70
     1
102
RTVSPropertyOp18
 70
     1
102
RTVSPropertyOp19
 70
     1
102
RTVSPropertyOp20
 70
     1
102
RTVSPropertyOp21
 70
     1
102
RTVSPropertyOp22
 70
     1
102
RTVSPropertyOp23
 70
     1
102
RTVSPropertyOp24
 70
     1
102
RTVSPropertyOp25
 70
     1
102
RTVSPropertyOp26
 70
     1
102
RTVSPropertyOp27
 70
     1
102
RTVSPropertyOp28
 70
     1
102
RTVSPropertyOp29
 70
     1
102
RTVSPropertyOp30
 70
     1
102
RTVSPropertyOp31
 70
     1
102
RTVSPropertyOp32
 70
     1
  0
XRECORD
  5
90
102
{ACAD_REACTORS
330
8F
102
}
330
8F
100
AcDbXrecord
280
     1
102
RTVSPropertyOp0
 70
     1
102
RTVSPropertyOp1
 70
     1
102
RTVSPropertyOp2
 70
     1
102
RTVSPropertyOp3
 70
     1
102
RTVSPropertyOp4
 70
     1
102
RTVSPropertyOp5
 70
     1
102
RTVSPropertyOp6
 70
     1
102
RTVSPropertyOp7
 70
     1
102
RTVSPropertyOp8
 70
     1
102
RTVSPropertyOp9
 70
     1
102
RTVSPropertyOp10
 70
     1
102
RTVSPropertyOp11
 70
     1
102
RTVSPropertyOp12
 70
     1
102
RTVSPropertyOp13
 70
     1
102
RTVSPropertyOp14
 70
     1
102
RTVSPropertyOp15
 70
     1
102
RTVSPropertyOp16
 70
     1
102
RTVSPropertyOp17
 70
     1
102
RTVSPropertyOp18
 70
     1
102
RTVSPropertyOp19
 70
     1
102
RTVSPropertyOp20
 70
     1
102
RTVSPropertyOp21
 70
     1
102
RTVSPropertyOp22
 70
     1
102
RTVSPropertyOp23
 70
     1
102
RTVSPropertyOp24
 70
     1
102
RTVSPropertyOp25
 70
     1
102
RTVSPropertyOp26
 70
     1
102
RTVSPropertyOp27
 70
     1
102
RTVSPropertyOp28
 70
     1
102
RTVSPropertyOp29
 70
     1
102
RTVSPropertyOp30
 70
     1
102
RTVSPropertyOp31
 70
     1
102
RTVSPropertyOp32
 70
     1
  0
XRECORD
  5
98
102
{ACAD_REACTORS
330
97
102
}
330
97
100
AcDbXrecord
280
     1
102
RTVSPropertyOp0
 70
     1
102
RTVSPropertyOp1
 70
     1
102
RTVSPropertyOp2
 70
     1
102
RTVSPropertyOp3
 70
     1
102
RTVSPropertyOp4
 70
     1
102
RTVSPropertyOp5
 70
     1
102
RTVSPropertyOp6
 70
     1
102
RTVSPropertyOp7
 70
     1
102
RTVSPropertyOp8
 70
     1
102
RTVSPropertyOp9
 70
     1
102
RTVSPropertyOp10
 70
     1
102
RTVSPropertyOp11
 70
     1
102
RTVSPropertyOp12
 70
     1
102
RTVSPropertyOp13
 70
     1
102
RTVSPropertyOp14
 70
     1
102
RTVSPropertyOp15
 70
     1
102
RTVSPropertyOp16
 70
     1
102
RTVSPropertyOp17
 70
     1
102
RTVSPropertyOp18
 70
     1
102
RTVSPropertyOp19
 70
     1
102
RTVSPropertyOp20
 70
     1
102
RTVSPropertyOp21
 70
     1
102
RTVSPropertyOp22
 70
     1
102
RTVSPropertyOp23
 70
     1
102
RTVSPropertyOp24
 70
     1
102
RTVSPropertyOp25
 70
     1
102
RTVSPropertyOp26
 70
     1
102
RTVSPropertyOp27
 70
     1
102
RTVSPropertyOp28
 70
     1
102
RTVSPropertyOp29
 70
     1
102
RTVSPropertyOp30
 70
     1
102
RTVSPropertyOp31
 70
     1
102
RTVSPropertyOp32
 70
     1
  0
XRECORD
  5
8C
102
{ACAD_REACTORS
330
8B
102
}
330
8B
100
AcDbXrecord
280
     1
102
RTVSPropertyOp0
 70
     1
102
RTVSPropertyOp1
 70
     1
102
RTVSPropertyOp2
 70
     1
102
RTVSPropertyOp3
 70
     1
102
RTVSPropertyOp4
 70
     1
102
RTVSPropertyOp5
 70
     1
102
RTVSPropertyOp6
 70
     1
102
RTVSPropertyOp7
 70
     1
102
RTVSPropertyOp8
 70
     1
102
RTVSPropertyOp9
 70
     1
102
RTVSPropertyOp10
 70
     1
102
RTVSPropertyOp11
 70
     1
102
RTVSPropertyOp12
 70
     1
102
RTVSPropertyOp13
 70
     1
102
RTVSPropertyOp14
 70
     1
102
RTVSPropertyOp15
 70
     1
102
RTVSPropertyOp16
 70
     1
102
RTVSPropertyOp17
 70
     1
102
RTVSPropertyOp18
 70
     1
102
RTVSPropertyOp19
 70
     1
102
RTVSPropertyOp20
 70
     1
102
RTVSPropertyOp21
 70
     1
102
RTVSPropertyOp22
 70
     1
102
RTVSPropertyOp23
 70
     1
102
RTVSPropertyOp24
 70
     1
102
RTVSPropertyOp25
 70
     1
102
RTVSPropertyOp26
 70
     1
102
RTVSPropertyOp27
 70
     1
102
RTVSPropertyOp28
 70
     1
102
RTVSPropertyOp29
 70
     1
102
RTVSPropertyOp30
 70
     1
102
RTVSPropertyOp31
 70
     1
102
RTVSPropertyOp32
 70
     1
  0
XRECORD
  5
8E
102
{ACAD_REACTORS
330
8D
102
}
330
8D
100
AcDbXrecord
280
     1
102
RTVSPropertyOp0
 70
     1
102
RTVSPropertyOp1
 70
     1
102
RTVSPropertyOp2
 70
     1
102
RTVSPropertyOp3
 70
     1
102
RTVSPropertyOp4
 70
     1
102
RTVSPropertyOp5
 70
     1
102
RTVSPropertyOp6
 70
     1
102
RTVSPropertyOp7
 70
     1
102
RTVSPropertyOp8
 70
     1
102
RTVSPropertyOp9
 70
     1
102
RTVSPropertyOp10
 70
     1
102
RTVSPropertyOp11
 70
     1
102
RTVSPropertyOp12
 70
     1
102
RTVSPropertyOp13
 70
     1
102
RTVSPropertyOp14
 70
     1
102
RTVSPropertyOp15
 70
     1
102
RTVSPropertyOp16
 70
     1
102
RTVSPropertyOp17
 70
     1
102
RTVSPropertyOp18
 70
     1
102
RTVSPropertyOp19
 70
     1
102
RTVSPropertyOp20
 70
     1
102
RTVSPropertyOp21
 70
     1
102
RTVSPropertyOp22
 70
     1
102
RTVSPropertyOp23
 70
     1
102
RTVSPropertyOp24
 70
     1
102
RTVSPropertyOp25
 70
     1
102
RTVSPropertyOp26
 70
     1
102
RTVSPropertyOp27
 70
     1
102
RTVSPropertyOp28
 70
     1
102
RTVSPropertyOp29
 70
     1
102
RTVSPropertyOp30
 70
     1
102
RTVSPropertyOp31
 70
     1
102
RTVSPropertyOp32
 70
     1
  0
XRECORD
  5
96
102
{ACAD_REACTORS
330
95
102
}
330
95
100
AcDbXrecord
280
     1
102
RTVSPropertyOp0
 70
     1
102
RTVSPropertyOp1
 70
     1
102
RTVSPropertyOp2
 70
     1
102
RTVSPropertyOp3
 70
     1
102
RTVSPropertyOp4
 70
     1
102
RTVSPropertyOp5
 70
     1
102
RTVSPropertyOp6
 70
     1
102
RTVSPropertyOp7
 70
     1
102
RTVSPropertyOp8
 70
     1
102
RTVSPropertyOp9
 70
     1
102
RTVSPropertyOp10
 70
     1
102
RTVSPropertyOp11
 70
     1
102
RTVSPropertyOp12
 70
     1
102
RTVSPropertyOp13
 70
     1
102
RTVSPropertyOp14
 70
     1
102
RTVSPropertyOp15
 70
     1
102
RTVSPropertyOp16
 70
     1
102
RTVSPropertyOp17
 70
     1
102
RTVSPropertyOp18
 70
     1
102
RTVSPropertyOp19
 70
     1
102
RTVSPropertyOp20
 70
     1
102
RTVSPropertyOp21
 70
     1
102
RTVSPropertyOp22
 70
     1
102
RTVSPropertyOp23
 70
     1
102
RTVSPropertyOp24
 70
     1
102
RTVSPropertyOp25
 70
     1
102
RTVSPropertyOp26
 70
     1
102
RTVSPropertyOp27
 70
     1
102
RTVSPropertyOp28
 70
     1
102
RTVSPropertyOp29
 70
     1
102
RTVSPropertyOp30
 70
     1
102
RTVSPropertyOp31
 70
     1
102
RTVSPropertyOp32
 70
     1
  0
XRECORD
  5
7A
102
{ACAD_REACTORS
330
79
102
}
330
79
100
AcDbXrecord
280
     1
102
RTVSPropertyOp0
 70
     1
102
RTVSPropertyOp1
 70
     1
102
RTVSPropertyOp2
 70
     1
102
RTVSPropertyOp3
 70
     1
102
RTVSPropertyOp4
 70
     1
102
RTVSPropertyOp5
 70
     1
102
RTVSPropertyOp6
 70
     1
102
RTVSPropertyOp7
 70
     1
102
RTVSPropertyOp8
 70
     1
102
RTVSPropertyOp9
 70
     1
102
RTVSPropertyOp10
 70
     1
102
RTVSPropertyOp11
 70
     1
102
RTVSPropertyOp12
 70
     1
102
RTVSPropertyOp13
 70
     1
102
RTVSPropertyOp14
 70
     1
102
RTVSPropertyOp15
 70
     1
102
RTVSPropertyOp16
 70
     1
102
RTVSPropertyOp17
 70
     1
102
RTVSPropertyOp18
 70
     1
102
RTVSPropertyOp19
 70
     1
102
RTVSPropertyOp20
 70
     1
102
RTVSPropertyOp21
 70
     1
102
RTVSPropertyOp22
 70
     1
102
RTVSPropertyOp23
 70
     1
102
RTVSPropertyOp24
 70
     1
102
RTVSPropertyOp25
 70
     1
102
RTVSPropertyOp26
 70
     1
102
RTVSPropertyOp27
 70
     1
102
RTVSPropertyOp28
 70
     1
102
RTVSPropertyOp29
 70
     1
102
RTVSPropertyOp30
 70
     1
102
RTVSPropertyOp31
 70
     1
102
RTVSPropertyOp32
 70
     1
  0
XRECORD
  5
7C
102
{ACAD_REACTORS
330
7B
102
}
330
7B
100
AcDbXrecord
280
     1
102
RTVSPropertyOp0
 70
     1
102
RTVSPropertyOp1
 70
     1
102
RTVSPropertyOp2
 70
     1
102
RTVSPropertyOp3
 70
     1
102
RTVSPropertyOp4
 70
     1
102
RTVSPropertyOp5
 70
     1
102
RTVSPropertyOp6
 70
     1
102
RTVSPropertyOp7
 70
     1
102
RTVSPropertyOp8
 70
     1
102
RTVSPropertyOp9
 70
     1
102
RTVSPropertyOp10
 70
     1
102
RTVSPropertyOp11
 70
     1
102
RTVSPropertyOp12
 70
     1
102
RTVSPropertyOp13
 70
     1
102
RTVSPropertyOp14
 70
     1
102
RTVSPropertyOp15
 70
     1
102
RTVSPropertyOp16
 70
     1
102
RTVSPropertyOp17
 70
     1
102
RTVSPropertyOp18
 70
     1
102
RTVSPropertyOp19
 70
     1
102
RTVSPropertyOp20
 70
     1
102
RTVSPropertyOp21
 70
     1
102
RTVSPropertyOp22
 70
     1
102
RTVSPropertyOp23
 70
     1
102
RTVSPropertyOp24
 70
     1
102
RTVSPropertyOp25
 70
     1
102
RTVSPropertyOp26
 70
     1
102
RTVSPropertyOp27
 70
     1
102
RTVSPropertyOp28
 70
     1
102
RTVSPropertyOp29
 70
     1
102
RTVSPropertyOp30
 70
     1
102
RTVSPropertyOp31
 70
     1
102
RTVSPropertyOp32
 70
     1
  0
XRECORD
  5
7E
102
{ACAD_REACTORS
330
7D
102
}
330
7D
100
AcDbXrecord
280
     1
102
RTVSPropertyOp0
 70
     1
102
RTVSPropertyOp1
 70
     1
102
RTVSPropertyOp2
 70
     1
102
RTVSPropertyOp3
 70
     1
102
RTVSPropertyOp4
 70
     1
102
RTVSPropertyOp5
 70
     1
102
RTVSPropertyOp6
 70
     1
102
RTVSPropertyOp7
 70
     1
102
RTVSPropertyOp8
 70
     1
102
RTVSPropertyOp9
 70
     1
102
RTVSPropertyOp10
 70
     1
102
RTVSPropertyOp11
 70
     1
102
RTVSPropertyOp12
 70
     1
102
RTVSPropertyOp13
 70
     1
102
RTVSPropertyOp14
 70
     1
102
RTVSPropertyOp15
 70
     1
102
RTVSPropertyOp16
 70
     1
102
RTVSPropertyOp17
 70
     1
102
RTVSPropertyOp18
 70
     1
102
RTVSPropertyOp19
 70
     1
102
RTVSPropertyOp20
 70
     1
102
RTVSPropertyOp21
 70
     1
102
RTVSPropertyOp22
 70
     1
102
RTVSPropertyOp23
 70
     1
102
RTVSPropertyOp24
 70
     1
102
RTVSPropertyOp25
 70
     1
102
RTVSPropertyOp26
 70
     1
102
RTVSPropertyOp27
 70
     1
102
RTVSPropertyOp28
 70
     1
102
RTVSPropertyOp29
 70
     1
102
RTVSPropertyOp30
 70
     1
102
RTVSPropertyOp31
 70
     1
102
RTVSPropertyOp32
 70
     1
  0
XRECORD
  5
80
102
{ACAD_REACTORS
330
7F
102
}
330
7F
100
AcDbXrecord
280
     1
102
RTVSPropertyOp0
 70
     1
102
RTVSPropertyOp1
 70
     1
102
RTVSPropertyOp2
 70
     1
102
RTVSPropertyOp3
 70
     1
102
RTVSPropertyOp4
 70
     1
102
RTVSPropertyOp5
 70
     1
102
RTVSPropertyOp6
 70
     1
102
RTVSPropertyOp7
 70
     1
102
RTVSPropertyOp8
 70
     1
102
RTVSPropertyOp9
 70
     1
102
RTVSPropertyOp10
 70
     1
102
RTVSPropertyOp11
 70
     1
102
RTVSPropertyOp12
 70
     1
102
RTVSPropertyOp13
 70
     1
102
RTVSPropertyOp14
 70
     1
102
RTVSPropertyOp15
 70
     1
102
RTVSPropertyOp16
 70
     1
102
RTVSPropertyOp17
 70
     1
102
RTVSPropertyOp18
 70
     1
102
RTVSPropertyOp19
 70
     1
102
RTVSPropertyOp20
 70
     1
102
RTVSPropertyOp21
 70
     1
102
RTVSPropertyOp22
 70
     1
102
RTVSPropertyOp23
 70
     1
102
RTVSPropertyOp24
 70
     1
102
RTVSPropertyOp25
 70
     1
102
RTVSPropertyOp26
 70
     1
102
RTVSPropertyOp27
 70
     1
102
RTVSPropertyOp28
 70
     1
102
RTVSPropertyOp29
 70
     1
102
RTVSPropertyOp30
 70
     1
102
RTVSPropertyOp31
 70
     1
102
RTVSPropertyOp32
 70
     1
  0
XRECORD
  5
94
102
{ACAD_REACTORS
330
93
102
}
330
93
100
AcDbXrecord
280
     1
102
RTVSPropertyOp0
 70
     1
102
RTVSPropertyOp1
 70
     1
102
RTVSPropertyOp2
 70
     1
102
RTVSPropertyOp3
 70
     1
102
RTVSPropertyOp4
 70
     1
102
RTVSPropertyOp5
 70
     1
102
RTVSPropertyOp6
 70
     1
102
RTVSPropertyOp7
 70
     1
102
RTVSPropertyOp8
 70
     1
102
RTVSPropertyOp9
 70
     1
102
RTVSPropertyOp10
 70
     1
102
RTVSPropertyOp11
 70
     1
102
RTVSPropertyOp12
 70
     1
102
RTVSPropertyOp13
 70
     1
102
RTVSPropertyOp14
 70
     1
102
RTVSPropertyOp15
 70
     1
102
RTVSPropertyOp16
 70
     1
102
RTVSPropertyOp17
 70
     1
102
RTVSPropertyOp18
 70
     1
102
RTVSPropertyOp19
 70
     1
102
RTVSPropertyOp20
 70
     1
102
RTVSPropertyOp21
 70
     1
102
RTVSPropertyOp22
 70
     1
102
RTVSPropertyOp23
 70
     1
102
RTVSPropertyOp24
 70
     1
102
RTVSPropertyOp25
 70
     1
102
RTVSPropertyOp26
 70
     1
102
RTVSPropertyOp27
 70
     1
102
RTVSPropertyOp28
 70
     1
102
RTVSPropertyOp29
 70
     1
102
RTVSPropertyOp30
 70
     1
102
RTVSPropertyOp31
 70
     1
102
RTVSPropertyOp32
 70
     1
  0
XRECORD
  5
8A
102
{ACAD_REACTORS
330
89
102
}
330
89
100
AcDbXrecord
280
     1
102
RTVSPropertyOp0
 70
     1
102
RTVSPropertyOp1
 70
     1
102
RTVSPropertyOp2
 70
     1
102
RTVSPropertyOp3
 70
     1
102
RTVSPropertyOp4
 70
     1
102
RTVSPropertyOp5
 70
     1
102
RTVSPropertyOp6
 70
     1
102
RTVSPropertyOp7
 70
     1
102
RTVSPropertyOp8
 70
     1
102
RTVSPropertyOp9
 70
     1
102
RTVSPropertyOp10
 70
     1
102
RTVSPropertyOp11
 70
     1
102
RTVSPropertyOp12
 70
     1
102
RTVSPropertyOp13
 70
     1
102
RTVSPropertyOp14
 70
     1
102
RTVSPropertyOp15
 70
     1
102
RTVSPropertyOp16
 70
     1
102
RTVSPropertyOp17
 70
     1
102
RTVSPropertyOp18
 70
     1
102
RTVSPropertyOp19
 70
     1
102
RTVSPropertyOp20
 70
     1
102
RTVSPropertyOp21
 70
     1
102
RTVSPropertyOp22
 70
     1
102
RTVSPropertyOp23
 70
     1
102
RTVSPropertyOp24
 70
     1
102
RTVSPropertyOp25
 70
     1
102
RTVSPropertyOp26
 70
     1
102
RTVSPropertyOp27
 70
     1
102
RTVSPropertyOp28
 70
     1
102
RTVSPropertyOp29
 70
     1
102
RTVSPropertyOp30
 70
     1
102
RTVSPropertyOp31
 70
     1
102
RTVSPropertyOp32
 70
     1
  0
XRECORD
  5
92
102
{ACAD_REACTORS
330
91
102
}
330
91
100
AcDbXrecord
280
     1
102
RTVSPropertyOp0
 70
     1
102
RTVSPropertyOp1
 70
     1
102
RTVSPropertyOp2
 70
     1
102
RTVSPropertyOp3
 70
     1
102
RTVSPropertyOp4
 70
     1
102
RTVSPropertyOp5
 70
     1
102
RTVSPropertyOp6
 70
     1
102
RTVSPropertyOp7
 70
     1
102
RTVSPropertyOp8
 70
     1
102
RTVSPropertyOp9
 70
     1
102
RTVSPropertyOp10
 70
     1
102
RTVSPropertyOp11
 70
     1
102
RTVSPropertyOp12
 70
     1
102
RTVSPropertyOp13
 70
     1
102
RTVSPropertyOp14
 70
     1
102
RTVSPropertyOp15
 70
     1
102
RTVSPropertyOp16
 70
     1
102
RTVSPropertyOp17
 70
     1
102
RTVSPropertyOp18
 70
     1
102
RTVSPropertyOp19
 70
     1
102
RTVSPropertyOp20
 70
     1
102
RTVSPropertyOp21
 70
     1
102
RTVSPropertyOp22
 70
     1
102
RTVSPropertyOp23
 70
     1
102
RTVSPropertyOp24
 70
     1
102
RTVSPropertyOp25
 70
     1
102
RTVSPropertyOp26
 70
     1
102
RTVSPropertyOp27
 70
     1
102
RTVSPropertyOp28
 70
     1
102
RTVSPropertyOp29
 70
     1
102
RTVSPropertyOp30
 70
     1
102
RTVSPropertyOp31
 70
     1
102
RTVSPropertyOp32
 70
     1
  0
ENDSEC
  0
EOF
