  0
SECTION
  2
HEADER
  9
$ACADVER
  1
AC1021
  9
$ACADMAINTVER
 70
    25
  9
$DWGCODEPAGE
  3
ANSI_1252
  9
$INSBASE
 10
0.0
 20
0.0
 30
0.0
  9
$EXTMIN
 10
-187.4045
 20
-114.9704
 30
0.0
  9
$EXTMAX
 10
-32.4314
 20
131.8554
 30
0.0
  9
$LIMMIN
 10
0.0
 20
0.0
  9
$LIMMAX
 10
12.0
 20
9.0
  9
$ORTHOMODE
 70
     0
  9
$REGENMODE
 70
     1
  9
$FILLMODE
 70
     1
  9
$QTEXTMODE
 70
     0
  9
$MIRRTEXT
 70
     1
  9
$LTSCALE
 40
1.0
  9
$ATTMODE
 70
     1
  9
$TEXTSIZE
 40
0.2
  9
$TRACEWID
 40
0.05
  9
$TEXTSTYLE
  7
Standard
  9
$CLAYER
  8
0
  9
$CELTYPE
  6
ByLayer
  9
$CECOLOR
 62
   256
  9
$CELTSCALE
 40
1.0
  9
$DISPSILH
 70
     0
  9
$DIMSCALE
 40
1.0
  9
$DIMASZ
 40
0.18
  9
$DIMEXO
 40
0.0625
  9
$DIMDLI
 40
0.38
  9
$DIMRND
 40
0.0
  9
$DIMDLE
 40
0.0
  9
$DIMEXE
 40
0.18
  9
$DIMTP
 40
0.0
  9
$DIMTM
 40
0.0
  9
$DIMTXT
 40
0.18
  9
$DIMCEN
 40
0.09
  9
$DIMTSZ
 40
0.0
  9
$DIMTOL
 70
     0
  9
$DIMLIM
 70
     0
  9
$DIMTIH
 70
     1
  9
$DIMTOH
 70
     1
  9
$DIMSE1
 70
     0
  9
$DIMSE2
 70
     0
  9
$DIMTAD
 70
     0
  9
$DIMZIN
 70
     0
  9
$DIMBLK
  1

  9
$DIMASO
 70
     1
  9
$DIMSHO
 70
     1
  9
$DIMPOST
  1

  9
$DIMAPOST
  1

  9
$DIMALT
 70
     0
  9
$DIMALTD
 70
     2
  9
$DIMALTF
 40
25.4
  9
$DIMLFAC
 40
1.0
  9
$DIMTOFL
 70
     0
  9
$DIMTVP
 40
0.0
  9
$DIMTIX
 70
     0
  9
$DIMSOXD
 70
     0
  9
$DIMSAH
 70
     0
  9
$DIMBLK1
  1

  9
$DIMBLK2
  1

  9
$DIMSTYLE
  2
Standard
  9
$DIMCLRD
 70
     0
  9
$DIMCLRE
 70
     0
  9
$DIMCLRT
 70
     0
  9
$DIMTFAC
 40
1.0
  9
$DIMGAP
 40
0.09
  9
$DIMJUST
 70
     0
  9
$DIMSD1
 70
     0
  9
$DIMSD2
 70
     0
  9
$DIMTOLJ
 70
     1
  9
$DIMTZIN
 70
     0
  9
$DIMALTZ
 70
     0
  9
$DIMALTTZ
 70
     0
  9
$DIMUPT
 70
     0
  9
$DIMDEC
 70
     4
  9
$DIMTDEC
 70
     4
  9
$DIMALTU
 70
     2
  9
$DIMALTTD
 70
     2
  9
$DIMTXSTY
  7
Standard
  9
$DIMAUNIT
 70
     0
  9
$DIMADEC
 70
     0
  9
$DIMALTRND
 40
0.0
  9
$DIMAZIN
 70
     0
  9
$DIMDSEP
 70
    46
  9
$DIMATFIT
 70
     3
  9
$DIMFRAC
 70
     0
  9
$DIMLDRBLK
  1

  9
$DIMLUNIT
 70
     2
  9
$DIMLWD
 70
    -2
  9
$DIMLWE
 70
    -2
  9
$DIMTMOVE
 70
     0
  9
$DIMFXL
 40
1.0
  9
$DIMFXLON
 70
     0
  9
$DIMJOGANG
 40
0.7853981633974483
  9
$DIMTFILL
 70
     0
  9
$DIMTFILLCLR
 70
     0
  9
$DIMARCSYM
 70
     0
  9
$DIMLTYPE
  6

  9
$DIMLTEX1
  6

  9
$DIMLTEX2
  6

  9
$LUNITS
 70
     2
  9
$LUPREC
 70
     4
  9
$SKETCHINC
 40
0.1
  9
$FILLETRAD
 40
0.5
  9
$AUNITS
 70
     0
  9
$AUPREC
 70
     0
  9
$MENU
  1
.
  9
$ELEVATION
 40
0.0
  9
$PELEVATION
 40
0.0
  9
$THICKNESS
 40
0.0
  9
$LIMCHECK
 70
     0
  9
$CHAMFERA
 40
0.5
  9
$CHAMFERB
 40
0.5
  9
$CHAMFERC
 40
1.0
  9
$CHAMFERD
 40
0.0
  9
$SKPOLY
 70
     0
  9
$TDCREATE
 40
2458492.859359167
  9
$TDUCREATE
 40
2458492.859359167
  9
$TDUPDATE
 40
2458492.859359421
  9
$TDUUPDATE
 40
2458492.859359421
  9
$TDINDWG
 40
0.0000000116
  9
$TDUSRTIMER
 40
0.0000000116
  9
$USRTIMER
 70
     1
  9
$ANGBASE
 50
0.0
  9
$ANGDIR
 70
     0
  9
$PDMODE
 70
     0
  9
$PDSIZE
 40
0.0
  9
$PLINEWID
 40
0.0
  9
$SPLFRAME
 70
     0
  9
$SPLINETYPE
 70
     6
  9
$SPLINESEGS
 70
     8
  9
$HANDSEED
  5
A8
  9
$SURFTAB1
 70
     6
  9
$SURFTAB2
 70
     6
  9
$SURFTYPE
 70
     6
  9
$SURFU
 70
     6
  9
$SURFV
 70
     6
  9
$UCSBASE
  2

  9
$UCSNAME
  2

  9
$UCSORG
 10
0.0
 20
0.0
 30
0.0
  9
$UCSXDIR
 10
1.0
 20
0.0
 30
0.0
  9
$UCSYDIR
 10
0.0
 20
1.0
 30
0.0
  9
$UCSORTHOREF
  2

  9
$UCSORTHOVIEW
 70
     0
  9
$UCSORGTOP
 10
0.0
 20
0.0
 30
0.0
  9
$UCSORGBOTTOM
 10
0.0
 20
0.0
 30
0.0
  9
$UCSORGLEFT
 10
0.0
 20
0.0
 30
0.0
  9
$UCSORGRIGHT
 10
0.0
 20
0.0
 30
0.0
  9
$UCSORGFRONT
 10
0.0
 20
0.0
 30
0.0
  9
$UCSORGBACK
 10
0.0
 20
0.0
 30
0.0
  9
$PUCSBASE
  2

  9
$PUCSNAME
  2

  9
$PUCSORG
 10
0.0
 20
0.0
 30
0.0
  9
$PUCSXDIR
 10
1.0
 20
0.0
 30
0.0
  9
$PUCSYDIR
 10
0.0
 20
1.0
 30
0.0
  9
$PUCSORTHOREF
  2

  9
$PUCSORTHOVIEW
 70
     0
  9
$PUCSORGTOP
 10
0.0
 20
0.0
 30
0.0
  9
$PUCSORGBOTTOM
 10
0.0
 20
0.0
 30
0.0
  9
$PUCSORGLEFT
 10
0.0
 20
0.0
 30
0.0
  9
$PUCSORGRIGHT
 10
0.0
 20
0.0
 30
0.0
  9
$PUCSORGFRONT
 10
0.0
 20
0.0
 30
0.0
  9
$PUCSORGBACK
 10
0.0
 20
0.0
 30
0.0
  9
$USERI1
 70
     0
  9
$USERI2
 70
     0
  9
$USERI3
 70
     0
  9
$USERI4
 70
     0
  9
$USERI5
 70
     0
  9
$USERR1
 40
0.0
  9
$USERR2
 40
0.0
  9
$USERR3
 40
0.0
  9
$USERR4
 40
0.0
  9
$USERR5
 40
0.0
  9
$WORLDVIEW
 70
     1
  9
$SHADEDGE
 70
     3
  9
$SHADEDIF
 70
    70
  9
$TILEMODE
 70
     1
  9
$MAXACTVP
 70
    64
  9
$PINSBASE
 10
0.0
 20
0.0
 30
0.0
  9
$PLIMCHECK
 70
     0
  9
$PEXTMIN
 10
1.000000000000000E+20
 20
1.000000000000000E+20
 30
1.000000000000000E+20
  9
$PEXTMAX
 10
-1.000000000000000E+20
 20
-1.000000000000000E+20
 30
-1.000000000000000E+20
  9
$PLIMMIN
 10
0.0
 20
0.0
  9
$PLIMMAX
 10
12.0
 20
9.0
  9
$UNITMODE
 70
     0
  9
$VISRETAIN
 70
     1
  9
$PLINEGEN
 70
     0
  9
$PSLTSCALE
 70
     1
  9
$TREEDEPTH
 70
  3020
  9
$CMLSTYLE
  2
Standard
  9
$CMLJUST
 70
     0
  9
$CMLSCALE
 40
1.0
  9
$PROXYGRAPHICS
 70
     1
  9
$MEASUREMENT
 70
     0
  9
$CELWEIGHT
370
    -1
  9
$ENDCAPS
280
     0
  9
$JOINSTYLE
280
     0
  9
$LWDISPLAY
290
     0
  9
$INSUNITS
 70
     4
  9
$HYPERLINKBASE
  1

  9
$STYLESHEET
  1

  9
$XEDIT
290
     1
  9
$CEPSNTYPE
380
     0
  9
$PSTYLEMODE
290
     1
  9
$FINGERPRINTGUID
  2
{7D711485-9EF3-4134-AA3F-D8AD247EEBE5}
  9
$VERSIONGUID
  2
{FAEB1C32-E019-11D5-929B-00C0DF256EC4}
  9
$EXTNAMES
290
     1
  9
$PSVPSCALE
 40
0.0
  9
$OLESTARTUP
290
     0
  9
$SORTENTS
280
   127
  9
$INDEXCTL
280
     0
  9
$HIDETEXT
280
     1
  9
$XCLIPFRAME
290
     0
  9
$HALOGAP
280
     0
  9
$OBSCOLOR
 70
   257
  9
$OBSLTYPE
280
     0
  9
$INTERSECTIONDISPLAY
280
     0
  9
$INTERSECTIONCOLOR
 70
   257
  9
$DIMASSOC
280
     2
  9
$PROJECTNAME
  1

  9
$CAMERADISPLAY
290
     0
  9
$LENSLENGTH
 40
50.0
  9
$CAMERAHEIGHT
 40
0.0
  9
$STEPSPERSEC
 40
2.0
  9
$STEPSIZE
 40
6.0
  9
$3DDWFPREC
 40
2.0
  9
$PSOLWIDTH
 40
0.25
  9
$PSOLHEIGHT
 40
4.0
  9
$LOFTANG1
 40
1.570796326794897
  9
$LOFTANG2
 40
1.570796326794897
  9
$LOFTMAG1
 40
0.0
  9
$LOFTMAG2
 40
0.0
  9
$LOFTPARAM
 70
     7
  9
$LOFTNORMALS
280
     1
  9
$LATITUDE
 40
37.795
  9
$LONGITUDE
 40
-122.394
  9
$NORTHDIRECTION
 40
0.0
  9
$TIMEZONE
 70
 -8000
  9
$LIGHTGLYPHDISPLAY
280
     1
  9
$TILEMODELIGHTSYNCH
280
     1
  9
$SOLIDHIST
280
     1
  9
$SHOWHIST
280
     1
  9
$DWFFRAME
280
     2
  9
$DGNFRAME
280
     2
  9
$REALWORLDSCALE
290
     1
  9
$INTERFERECOLOR
 62
   256
  9
$CSHADOW
280
     0
  9
$SHADOWPLANELOCATION
 40
0.0
  0
ENDSEC
  0
SECTION
  2
CLASSES
  0
CLASS
  1
ACDBDICTIONARYWDFLT
  2
AcDbDictionaryWithDefault
  3
ObjectDBX Classes
 90
        0
 91
        4
280
     0
281
     0
  0
CLASS
  1
VISUALSTYLE
  2
AcDbVisualStyle
  3
ObjectDBX Classes
 90
     4095
 91
        4
280
     0
281
     0
  0
CLASS
  1
MATERIAL
  2
AcDbMaterial
  3
ObjectDBX Classes
 90
     1153
 91
        4
280
     0
281
     0
  0
ENDSEC
  0
SECTION
  2
TABLES
  0
TABLE
  2
VPORT
  5
8
330
0
100
AcDbSymbolTable
 70
     1
  0
VPORT
  5
29
330
8
100
AcDbSymbolTableRecord
100
AcDbViewportTableRecord
  2
*Active
 70
     0
 10
0.0
 20
0.0
 11
1.0
 21
1.0
 12
10.42990654205607
 22
4.5
 13
0.0
 23
0.0
 14
0.5
 24
0.5
 15
0.5
 25
0.5
 16
0.0
 26
0.0
 36
1.0
 17
0.0
 27
0.0
 37
0.0
 40
9.0
 41
1.972972972850329
 42
50.0
 43
0.0
 44
0.0
 50
0.0
 51
0.0
 71
     0
 72
   100
 73
     1
 74
     3
 75
     0
 76
     0
 77
     0
 78
     0
281
     0
 65
     1
110
0.0
120
0.0
130
0.0
111
1.0
121
0.0
131
0.0
112
0.0
122
1.0
132
0.0
 79
     0
146
0.0
 60
     3
 61
     5
292
     1
282
     1
141
0.0
142
0.0
 63
   250
  0
ENDTAB
  0
TABLE
  2
LTYPE
  5
5
330
0
100
AcDbSymbolTable
 70
     1
  0
LTYPE
  5
14
330
5
100
AcDbSymbolTableRecord
100
AcDbLinetypeTableRecord
  2
ByBlock
 70
     0
  3

 72
    65
 73
     0
 40
0.0
  0
LTYPE
  5
15
330
5
100
AcDbSymbolTableRecord
100
AcDbLinetypeTableRecord
  2
ByLayer
 70
     0
  3

 72
    65
 73
     0
 40
0.0
  0
LTYPE
  5
16
330
5
100
AcDbSymbolTableRecord
100
AcDbLinetypeTableRecord
  2
Continuous
 70
     0
  3
Solid line
 72
    65
 73
     0
 40
0.0
  0
ENDTAB
  0
TABLE
  2
LAYER
  5
2
330
0
100
AcDbSymbolTable
 70
     2
  0
LAYER
  5
10
330
2
100
AcDbSymbolTableRecord
100
AcDbLayerTableRecord
  2
0
 70
     0
 62
     7
  6
Continuous
370
    -3
390
F
347
3E
  0
LAYER
  5
40
330
2
100
AcDbSymbolTableRecord
100
AcDbLayerTableRecord
  2
layer 1
 70
     0
 62
     7
  6
Continuous
370
    -3
390
F
347
3E
  0
ENDTAB
  0
TABLE
  2
STYLE
  5
3
330
0
100
AcDbSymbolTable
 70
     1
  0
STYLE
  5
11
330
3
100
AcDbSymbolTableRecord
100
AcDbTextStyleTableRecord
  2
Standard
 70
     0
 40
0.0
 41
1.0
 50
0.0
 71
     0
 42
0.2
  3
txt
  4

  0
ENDTAB
  0
TABLE
  2
VIEW
  5
6
330
0
100
AcDbSymbolTable
 70
     0
  0
ENDTAB
  0
TABLE
  2
UCS
  5
7
330
0
100
AcDbSymbolTable
 70
     0
  0
ENDTAB
  0
TABLE
  2
APPID
  5
9
330
0
100
AcDbSymbolTable
 70
     2
  0
APPID
  5
12
330
9
100
AcDbSymbolTableRecord
100
AcDbRegAppTableRecord
  2
ACAD
 70
     0
  0
APPID
  5
3F
330
9
100
AcDbSymbolTableRecord
100
AcDbRegAppTableRecord
  2
ODA
 70
     0
  0
ENDTAB
  0
TABLE
  2
DIMSTYLE
  5
A
330
0
100
AcDbSymbolTable
 70
     1
100
AcDbDimStyleTable
  0
DIMSTYLE
105
27
330
A
100
AcDbSymbolTableRecord
100
AcDbDimStyleTableRecord
  2
Standard
 70
     0
178
     0
340
11
  0
ENDTAB
  0
TABLE
  2
BLOCK_RECORD
  5
1
330
0
100
AcDbSymbolTable
 70
     1
  0
BLOCK_RECORD
  5
1F
330
1
100
AcDbSymbolTableRecord
100
AcDbBlockTableRecord
  2
*Model_Space
340
22
 70
     0
280
     1
281
     0
  0
BLOCK_RECORD
  5
1B
330
1
100
AcDbSymbolTableRecord
100
AcDbBlockTableRecord
  2
*Paper_Space
340
1E
 70
     0
280
     1
281
     0
  0
BLOCK_RECORD
  5
23
330
1
100
AcDbSymbolTableRecord
100
AcDbBlockTableRecord
  2
*Paper_Space0
340
26
 70
     0
280
     1
281
     0
  0
ENDTAB
  0
ENDSEC
  0
SECTION
  2
BLOCKS
  0
BLOCK
  5
20
330
1F
100
AcDbEntity
  8
0
100
AcDbBlockBegin
  2
*Model_Space
 70
     0
 10
0.0
 20
0.0
 30
0.0
  3
*Model_Space
  1

  0
ENDBLK
  5
21
330
1F
100
AcDbEntity
  8
0
100
AcDbBlockEnd
  0
BLOCK
  5
1C
330
1B
100
AcDbEntity
 67
     1
  8
0
100
AcDbBlockBegin
  2
*Paper_Space
 70
     0
 10
0.0
 20
0.0
 30
0.0
  3
*Paper_Space
  1

  0
ENDBLK
  5
1D
330
1B
100
AcDbEntity
 67
     1
  8
0
100
AcDbBlockEnd
  0
BLOCK
  5
24
330
23
100
AcDbEntity
  8
0
100
AcDbBlockBegin
  2
*Paper_Space0
 70
     0
 10
0.0
 20
0.0
 30
0.0
  3
*Paper_Space0
  1

  0
ENDBLK
  5
25
330
23
100
AcDbEntity
  8
0
100
AcDbBlockEnd
  0
ENDSEC
  0
SECTION
  2
ENTITIES
  0
SPLINE
  5
41
330
1F
100
AcDbEntity
  8
layer 1
 62
   250
100
AcDbSpline
210
0.0
220
0.0
230
1.0
 70
    11
 71
     3
 72
    20
 73
    16
 74
     0
 42
0.0000000001
 43
0.0000000001
 12
1.0
 22
0.0
 32
0.0
 13
1.0
 23
0.0
 33
0.0
 40
0.0
 40
0.0
 40
0.0
 40
0.0
 40
0.2
 40
0.2
 40
0.2
 40
0.2
 40
0.4
 40
0.4
 40
0.4
 40
0.4
 40
0.6
 40
0.6
 40
0.6
 40
0.6
 40
1.0
 40
1.0
 40
1.0
 40
1.0
 10
-187.4045
 20
-114.9704
 30
0.0
 10
-187.4045
 20
-114.9704
 30
0.0
 10
-187.4045
 20
131.8554
 30
0.0
 10
-187.4045
 20
131.8554
 30
0.0
 10
-187.4045
 20
131.8554
 30
0.0
 10
-187.4045
 20
131.8554
 30
0.0
 10
-32.4314
 20
131.8554
 30
0.0
 10
-32.4314
 20
131.8554
 30
0.0
 10
-32.4314
 20
131.8554
 30
0.0
 10
-32.4314
 20
131.8554
 30
0.0
 10
-32.4314
 20
-114.9704
 30
0.0
 10
-32.4314
 20
-114.9704
 30
0.0
 10
-32.4314
 20
-114.9704
 30
0.0
 10
-32.4314
 20
-114.9704
 30
0.0
 10
-187.4045
 20
-114.9704
 30
0.0
 10
-187.4045
 20
-114.9704
 30
0.0
  0
SPLINE
  5
42
330
1F
100
AcDbEntity
  8
layer 1
 62
     7
100
AcDbSpline
210
0.0
220
0.0
230
1.0
 70
    11
 71
     3
 72
    68
 73
    64
 74
     0
 42
0.0000000001
 43
0.0000000001
 12
1.0
 22
0.0
 32
0.0
 13
1.0
 23
0.0
 33
0.0
 40
0.0
 40
0.0
 40
0.0
 40
0.0
 40
0.0588235294117647
 40
0.0588235294117647
 40
0.0588235294117647
 40
0.0588235294117647
 40
0.1176470588235294
 40
0.1176470588235294
 40
0.1176470588235294
 40
0.1176470588235294
 40
0.1764705882352941
 40
0.1764705882352941
 40
0.1764705882352941
 40
0.1764705882352941
 40
0.2352941176470588
 40
0.2352941176470588
 40
0.2352941176470588
 40
0.2352941176470588
 40
0.2941176470588235
 40
0.2941176470588235
 40
0.2941176470588235
 40
0.2941176470588235
 40
0.3529411764705883
 40
0.3529411764705883
 40
0.3529411764705883
 40
0.3529411764705883
 40
0.4117647058823529
 40
0.4117647058823529
 40
0.4117647058823529
 40
0.4117647058823529
 40
0.4705882352941176
 40
0.4705882352941176
 40
0.4705882352941176
 40
0.4705882352941176
 40
0.5294117647058824
 40
0.5294117647058824
 40
0.5294117647058824
 40
0.5294117647058824
 40
0.5882352941176471
 40
0.5882352941176471
 40
0.5882352941176471
 40
0.5882352941176471
 40
0.6470588235294118
 40
0.6470588235294118
 40
0.6470588235294118
 40
0.6470588235294118
 40
0.7058823529411765
 40
0.7058823529411765
 40
0.7058823529411765
 40
0.7058823529411765
 40
0.7647058823529411
 40
0.7647058823529411
 40
0.7647058823529411
 40
0.7647058823529411
 40
0.8235294117647058
 40
0.8235294117647058
 40
0.8235294117647058
 40
0.8235294117647058
 40
0.8823529411764706
 40
0.8823529411764706
 40
0.8823529411764706
 40
0.8823529411764706
 40
1.0
 40
1.0
 40
1.0
 40
1.0
 10
-166.614
 20
-89.7078
 30
0.0
 10
-166.614
 20
-89.7078
 30
0.0
 10
-170.2401
 20
-86.0813
 30
0.0
 10
-170.2401
 20
-86.0813
 30
0.0
 10
-170.2401
 20
-86.0813
 30
0.0
 10
-170.2401
 20
-86.0813
 30
0.0
 10
-166.614
 20
-82.4552
 30
0.0
 10
-166.614
 20
-82.4552
 30
0.0
 10
-166.614
 20
-82.4552
 30
0.0
 10
-166.614
 20
-82.4552
 30
0.0
 10
-160.8118
 20
-82.4552
 30
0.0
 10
-160.8118
 20
-82.4552
 30
0.0
 10
-160.8118
 20
-82.4552
 30
0.0
 10
-160.8118
 20
-82.4552
 30
0.0
 10
-160.8118
 20
-76.5324
 30
0.0
 10
-160.8118
 20
-76.5324
 30
0.0
 10
-160.8118
 20
-76.5324
 30
0.0
 10
-160.8118
 20
-76.5324
 30
0.0
 10
-157.1857
 20
-72.9059
 30
0.0
 10
-157.1857
 20
-72.9059
 30
0.0
 10
-157.1857
 20
-72.9059
 30
0.0
 10
-157.1857
 20
-72.9059
 30
0.0
 10
-153.4386
 20
-76.5324
 30
0.0
 10
-153.4386
 20
-76.5324
 30
0.0
 10
-153.4386
 20
-76.5324
 30
0.0
 10
-153.4386
 20
-76.5324
 30
0.0
 10
-153.4386
 20
-82.4552
 30
0.0
 10
-153.4386
 20
-82.4552
 30
0.0
 10
-153.4386
 20
-82.4552
 30
0.0
 10
-153.4386
 20
-82.4552
 30
0.0
 10
-147.6368
 20
-82.4552
 30
0.0
 10
-147.6368
 20
-82.4552
 30
0.0
 10
-147.6368
 20
-82.4552
 30
0.0
 10
-147.6368
 20
-82.4552
 30
0.0
 10
-144.0103
 20
-86.0813
 30
0.0
 10
-144.0103
 20
-86.0813
 30
0.0
 10
-144.0103
 20
-86.0813
 30
0.0
 10
-144.0103
 20
-86.0813
 30
0.0
 10
-147.6368
 20
-89.7078
 30
0.0
 10
-147.6368
 20
-89.7078
 30
0.0
 10
-147.6368
 20
-89.7078
 30
0.0
 10
-147.6368
 20
-89.7078
 30
0.0
 10
-153.4386
 20
-89.7078
 30
0.0
 10
-153.4386
 20
-89.7078
 30
0.0
 10
-153.4386
 20
-89.7078
 30
0.0
 10
-153.4386
 20
-89.7078
 30
0.0
 10
-153.5596
 20
-95.5096
 30
0.0
 10
-153.5596
 20
-95.5096
 30
0.0
 10
-153.5596
 20
-95.5096
 30
0.0
 10
-153.5596
 20
-95.5096
 30
0.0
 10
-157.1857
 20
-99.1357
 30
0.0
 10
-157.1857
 20
-99.1357
 30
0.0
 10
-157.1857
 20
-99.1357
 30
0.0
 10
-157.1857
 20
-99.1357
 30
0.0
 10
-160.8118
 20
-95.5096
 30
0.0
 10
-160.8118
 20
-95.5096
 30
0.0
 10
-160.8118
 20
-95.5096
 30
0.0
 10
-160.8118
 20
-95.5096
 30
0.0
 10
-160.8118
 20
-89.7078
 30
0.0
 10
-160.8118
 20
-89.7078
 30
0.0
 10
-160.8118
 20
-89.7078
 30
0.0
 10
-160.8118
 20
-89.7078
 30
0.0
 10
-166.614
 20
-89.7078
 30
0.0
 10
-166.614
 20
-89.7078
 30
0.0
  0
SPLINE
  5
43
330
1F
100
AcDbEntity
  8
layer 1
 62
     7
100
AcDbSpline
210
0.0
220
0.0
230
1.0
 70
    11
 71
     3
 72
    36
 73
    32
 74
     0
 42
0.0000000001
 43
0.0000000001
 12
1.0
 22
0.0
 32
0.0
 13
1.0
 23
0.0
 33
0.0
 40
0.0
 40
0.0
 40
0.0
 40
0.0
 40
0.1111111111111111
 40
0.1111111111111111
 40
0.1111111111111111
 40
0.1111111111111111
 40
0.2222222222222222
 40
0.2222222222222222
 40
0.2222222222222222
 40
0.2222222222222222
 40
0.3333333333333333
 40
0.3333333333333333
 40
0.3333333333333333
 40
0.3333333333333333
 40
0.4444444444444444
 40
0.4444444444444444
 40
0.4444444444444444
 40
0.4444444444444444
 40
0.5555555555555556
 40
0.5555555555555556
 40
0.5555555555555556
 40
0.5555555555555556
 40
0.6666666666666666
 40
0.6666666666666666
 40
0.6666666666666666
 40
0.6666666666666666
 40
0.7777777777777778
 40
0.7777777777777778
 40
0.7777777777777778
 40
0.7777777777777778
 40
1.0
 40
1.0
 40
1.0
 40
1.0
 10
-175.9214
 20
-93.4548
 30
0.0
 10
-175.9214
 20
-93.4548
 30
0.0
 10
-172.8993
 20
-90.4328
 30
0.0
 10
-172.8993
 20
-90.4328
 30
0.0
 10
-172.8993
 20
-90.4328
 30
0.0
 10
-172.8993
 20
-90.4328
 30
0.0
 10
-169.5148
 20
-93.6964
 30
0.0
 10
-169.5148
 20
-93.6964
 30
0.0
 10
-169.5148
 20
-93.6964
 30
0.0
 10
-169.5148
 20
-93.6964
 30
0.0
 10
-164.8008
 20
-93.6964
 30
0.0
 10
-164.8008
 20
-93.6964
 30
0.0
 10
-164.8008
 20
-93.6964
 30
0.0
 10
-164.8008
 20
-93.6964
 30
0.0
 10
-164.8008
 20
-98.4107
 30
0.0
 10
-164.8008
 20
-98.4107
 30
0.0
 10
-164.8008
 20
-98.4107
 30
0.0
 10
-164.8008
 20
-98.4107
 30
0.0
 10
-161.5372
 20
-101.7949
 30
0.0
 10
-161.5372
 20
-101.7949
 30
0.0
 10
-161.5372
 20
-101.7949
 30
0.0
 10
-161.5372
 20
-101.7949
 30
0.0
 10
-163.2295
 20
-103.4872
 30
0.0
 10
-163.2295
 20
-103.4872
 30
0.0
 10
-163.2295
 20
-103.4872
 30
0.0
 10
-163.2295
 20
-103.4872
 30
0.0
 10
-175.9214
 20
-103.4872
 30
0.0
 10
-175.9214
 20
-103.4872
 30
0.0
 10
-175.9214
 20
-103.4872
 30
0.0
 10
-175.9214
 20
-103.4872
 30
0.0
 10
-175.9214
 20
-93.4548
 30
0.0
 10
-175.9214
 20
-93.4548
 30
0.0
  0
SPLINE
  5
44
330
1F
100
AcDbEntity
  8
layer 1
 62
     7
100
AcDbSpline
210
0.0
220
0.0
230
1.0
 70
    11
 71
     3
 72
    68
 73
    64
 74
     0
 42
0.0000000001
 43
0.0000000001
 12
1.0
 22
0.0
 32
0.0
 13
1.0
 23
0.0
 33
0.0
 40
0.0
 40
0.0
 40
0.0
 40
0.0
 40
0.0588235294117647
 40
0.0588235294117647
 40
0.0588235294117647
 40
0.0588235294117647
 40
0.1176470588235294
 40
0.1176470588235294
 40
0.1176470588235294
 40
0.1176470588235294
 40
0.1764705882352941
 40
0.1764705882352941
 40
0.1764705882352941
 40
0.1764705882352941
 40
0.2352941176470588
 40
0.2352941176470588
 40
0.2352941176470588
 40
0.2352941176470588
 40
0.2941176470588235
 40
0.2941176470588235
 40
0.2941176470588235
 40
0.2941176470588235
 40
0.3529411764705883
 40
0.3529411764705883
 40
0.3529411764705883
 40
0.3529411764705883
 40
0.4117647058823529
 40
0.4117647058823529
 40
0.4117647058823529
 40
0.4117647058823529
 40
0.4705882352941176
 40
0.4705882352941176
 40
0.4705882352941176
 40
0.4705882352941176
 40
0.5294117647058824
 40
0.5294117647058824
 40
0.5294117647058824
 40
0.5294117647058824
 40
0.5882352941176471
 40
0.5882352941176471
 40
0.5882352941176471
 40
0.5882352941176471
 40
0.6470588235294118
 40
0.6470588235294118
 40
0.6470588235294118
 40
0.6470588235294118
 40
0.7058823529411765
 40
0.7058823529411765
 40
0.7058823529411765
 40
0.7058823529411765
 40
0.7647058823529411
 40
0.7647058823529411
 40
0.7647058823529411
 40
0.7647058823529411
 40
0.8235294117647058
 40
0.8235294117647058
 40
0.8235294117647058
 40
0.8235294117647058
 40
0.8823529411764706
 40
0.8823529411764706
 40
0.8823529411764706
 40
0.8823529411764706
 40
1.0
 40
1.0
 40
1.0
 40
1.0
 10
-166.614
 20
-58.1595
 30
0.0
 10
-166.614
 20
-58.1595
 30
0.0
 10
-170.2401
 20
-54.533
 30
0.0
 10
-170.2401
 20
-54.533
 30
0.0
 10
-170.2401
 20
-54.533
 30
0.0
 10
-170.2401
 20
-54.533
 30
0.0
 10
-166.614
 20
-50.9069
 30
0.0
 10
-166.614
 20
-50.9069
 30
0.0
 10
-166.614
 20
-50.9069
 30
0.0
 10
-166.614
 20
-50.9069
 30
0.0
 10
-160.8118
 20
-50.9069
 30
0.0
 10
-160.8118
 20
-50.9069
 30
0.0
 10
-160.8118
 20
-50.9069
 30
0.0
 10
-160.8118
 20
-50.9069
 30
0.0
 10
-160.8118
 20
-44.9841
 30
0.0
 10
-160.8118
 20
-44.9841
 30
0.0
 10
-160.8118
 20
-44.9841
 30
0.0
 10
-160.8118
 20
-44.9841
 30
0.0
 10
-157.1857
 20
-41.4786
 30
0.0
 10
-157.1857
 20
-41.4786
 30
0.0
 10
-157.1857
 20
-41.4786
 30
0.0
 10
-157.1857
 20
-41.4786
 30
0.0
 10
-153.4386
 20
-44.9841
 30
0.0
 10
-153.4386
 20
-44.9841
 30
0.0
 10
-153.4386
 20
-44.9841
 30
0.0
 10
-153.4386
 20
-44.9841
 30
0.0
 10
-153.4386
 20
-50.9069
 30
0.0
 10
-153.4386
 20
-50.9069
 30
0.0
 10
-153.4386
 20
-50.9069
 30
0.0
 10
-153.4386
 20
-50.9069
 30
0.0
 10
-147.6368
 20
-50.9069
 30
0.0
 10
-147.6368
 20
-50.9069
 30
0.0
 10
-147.6368
 20
-50.9069
 30
0.0
 10
-147.6368
 20
-50.9069
 30
0.0
 10
-144.0103
 20
-54.533
 30
0.0
 10
-144.0103
 20
-54.533
 30
0.0
 10
-144.0103
 20
-54.533
 30
0.0
 10
-144.0103
 20
-54.533
 30
0.0
 10
-147.6368
 20
-58.1595
 30
0.0
 10
-147.6368
 20
-58.1595
 30
0.0
 10
-147.6368
 20
-58.1595
 30
0.0
 10
-147.6368
 20
-58.1595
 30
0.0
 10
-153.4386
 20
-58.1595
 30
0.0
 10
-153.4386
 20
-58.1595
 30
0.0
 10
-153.4386
 20
-58.1595
 30
0.0
 10
-153.4386
 20
-58.1595
 30
0.0
 10
-153.5596
 20
-64.0823
 30
0.0
 10
-153.5596
 20
-64.0823
 30
0.0
 10
-153.5596
 20
-64.0823
 30
0.0
 10
-153.5596
 20
-64.0823
 30
0.0
 10
-157.1857
 20
-67.7084
 30
0.0
 10
-157.1857
 20
-67.7084
 30
0.0
 10
-157.1857
 20
-67.7084
 30
0.0
 10
-157.1857
 20
-67.7084
 30
0.0
 10
-160.8118
 20
-64.0823
 30
0.0
 10
-160.8118
 20
-64.0823
 30
0.0
 10
-160.8118
 20
-64.0823
 30
0.0
 10
-160.8118
 20
-64.0823
 30
0.0
 10
-160.8118
 20
-58.1595
 30
0.0
 10
-160.8118
 20
-58.1595
 30
0.0
 10
-160.8118
 20
-58.1595
 30
0.0
 10
-160.8118
 20
-58.1595
 30
0.0
 10
-166.614
 20
-58.1595
 30
0.0
 10
-166.614
 20
-58.1595
 30
0.0
  0
SPLINE
  5
45
330
1F
100
AcDbEntity
  8
layer 1
 62
     7
100
AcDbSpline
210
0.0
220
0.0
230
1.0
 70
    11
 71
     3
 72
    48
 73
    44
 74
     0
 42
0.0000000001
 43
0.0000000001
 12
1.0
 22
0.0
 32
0.0
 13
1.0
 23
0.0
 33
0.0
 40
0.0
 40
0.0
 40
0.0
 40
0.0
 40
0.0833333333333333
 40
0.0833333333333333
 40
0.0833333333333333
 40
0.0833333333333333
 40
0.1666666666666667
 40
0.1666666666666667
 40
0.1666666666666667
 40
0.1666666666666667
 40
0.25
 40
0.25
 40
0.25
 40
0.25
 40
0.3333333333333333
 40
0.3333333333333333
 40
0.3333333333333333
 40
0.3333333333333333
 40
0.4166666666666667
 40
0.4166666666666667
 40
0.4166666666666667
 40
0.4166666666666667
 40
0.5
 40
0.5
 40
0.5
 40
0.5
 40
0.5833333333333334
 40
0.5833333333333334
 40
0.5833333333333334
 40
0.5833333333333334
 40
0.6666666666666666
 40
0.6666666666666666
 40
0.6666666666666666
 40
0.6666666666666666
 40
0.75
 40
0.75
 40
0.75
 40
0.75
 40
0.8333333333333334
 40
0.8333333333333334
 40
0.8333333333333334
 40
0.8333333333333334
 40
1.0
 40
1.0
 40
1.0
 40
1.0
 10
-175.9214
 20
-61.9066
 30
0.0
 10
-175.9214
 20
-61.9066
 30
0.0
 10
-172.8993
 20
-58.8845
 30
0.0
 10
-172.8993
 20
-58.8845
 30
0.0
 10
-172.8993
 20
-58.8845
 30
0.0
 10
-172.8993
 20
-58.8845
 30
0.0
 10
-169.5148
 20
-62.2691
 30
0.0
 10
-169.5148
 20
-62.2691
 30
0.0
 10
-169.5148
 20
-62.2691
 30
0.0
 10
-169.5148
 20
-62.2691
 30
0.0
 10
-164.8008
 20
-62.2691
 30
0.0
 10
-164.8008
 20
-62.2691
 30
0.0
 10
-164.8008
 20
-62.2691
 30
0.0
 10
-164.8008
 20
-62.2691
 30
0.0
 10
-164.8008
 20
-66.9831
 30
0.0
 10
-164.8008
 20
-66.9831
 30
0.0
 10
-164.8008
 20
-66.9831
 30
0.0
 10
-164.8008
 20
-66.9831
 30
0.0
 10
-161.5372
 20
-70.2467
 30
0.0
 10
-161.5372
 20
-70.2467
 30
0.0
 10
-161.5372
 20
-70.2467
 30
0.0
 10
-161.5372
 20
-70.2467
 30
0.0
 10
-164.8008
 20
-73.6313
 30
0.0
 10
-164.8008
 20
-73.6313
 30
0.0
 10
-164.8008
 20
-73.6313
 30
0.0
 10
-164.8008
 20
-73.6313
 30
0.0
 10
-164.8008
 20
-78.3452
 30
0.0
 10
-164.8008
 20
-78.3452
 30
0.0
 10
-164.8008
 20
-78.3452
 30
0.0
 10
-164.8008
 20
-78.3452
 30
0.0
 10
-169.5148
 20
-78.3452
 30
0.0
 10
-169.5148
 20
-78.3452
 30
0.0
 10
-169.5148
 20
-78.3452
 30
0.0
 10
-169.5148
 20
-78.3452
 30
0.0
 10
-172.8993
 20
-81.6089
 30
0.0
 10
-172.8993
 20
-81.6089
 30
0.0
 10
-172.8993
 20
-81.6089
 30
0.0
 10
-172.8993
 20
-81.6089
 30
0.0
 10
-175.9214
 20
-78.5871
 30
0.0
 10
-175.9214
 20
-78.5871
 30
0.0
 10
-175.9214
 20
-78.5871
 30
0.0
 10
-175.9214
 20
-78.5871
 30
0.0
 10
-175.9214
 20
-61.9066
 30
0.0
 10
-175.9214
 20
-61.9066
 30
0.0
  0
SPLINE
  5
46
330
1F
100
AcDbEntity
  8
layer 1
 62
     7
100
AcDbSpline
210
0.0
220
0.0
230
1.0
 70
    11
 71
     3
 72
    68
 73
    64
 74
     0
 42
0.0000000001
 43
0.0000000001
 12
1.0
 22
0.0
 32
0.0
 13
1.0
 23
0.0
 33
0.0
 40
0.0
 40
0.0
 40
0.0
 40
0.0
 40
0.0588235294117647
 40
0.0588235294117647
 40
0.0588235294117647
 40
0.0588235294117647
 40
0.1176470588235294
 40
0.1176470588235294
 40
0.1176470588235294
 40
0.1176470588235294
 40
0.1764705882352941
 40
0.1764705882352941
 40
0.1764705882352941
 40
0.1764705882352941
 40
0.2352941176470588
 40
0.2352941176470588
 40
0.2352941176470588
 40
0.2352941176470588
 40
0.2941176470588235
 40
0.2941176470588235
 40
0.2941176470588235
 40
0.2941176470588235
 40
0.3529411764705883
 40
0.3529411764705883
 40
0.3529411764705883
 40
0.3529411764705883
 40
0.4117647058823529
 40
0.4117647058823529
 40
0.4117647058823529
 40
0.4117647058823529
 40
0.4705882352941176
 40
0.4705882352941176
 40
0.4705882352941176
 40
0.4705882352941176
 40
0.5294117647058824
 40
0.5294117647058824
 40
0.5294117647058824
 40
0.5294117647058824
 40
0.5882352941176471
 40
0.5882352941176471
 40
0.5882352941176471
 40
0.5882352941176471
 40
0.6470588235294118
 40
0.6470588235294118
 40
0.6470588235294118
 40
0.6470588235294118
 40
0.7058823529411765
 40
0.7058823529411765
 40
0.7058823529411765
 40
0.7058823529411765
 40
0.7647058823529411
 40
0.7647058823529411
 40
0.7647058823529411
 40
0.7647058823529411
 40
0.8235294117647058
 40
0.8235294117647058
 40
0.8235294117647058
 40
0.8235294117647058
 40
0.8823529411764706
 40
0.8823529411764706
 40
0.8823529411764706
 40
0.8823529411764706
 40
1.0
 40
1.0
 40
1.0
 40
1.0
 10
-166.614
 20
-26.7319
 30
0.0
 10
-166.614
 20
-26.7319
 30
0.0
 10
-170.2401
 20
-23.1057
 30
0.0
 10
-170.2401
 20
-23.1057
 30
0.0
 10
-170.2401
 20
-23.1057
 30
0.0
 10
-170.2401
 20
-23.1057
 30
0.0
 10
-166.614
 20
-19.3587
 30
0.0
 10
-166.614
 20
-19.3587
 30
0.0
 10
-166.614
 20
-19.3587
 30
0.0
 10
-166.614
 20
-19.3587
 30
0.0
 10
-160.8118
 20
-19.3587
 30
0.0
 10
-160.8118
 20
-19.3587
 30
0.0
 10
-160.8118
 20
-19.3587
 30
0.0
 10
-160.8118
 20
-19.3587
 30
0.0
 10
-160.8118
 20
-13.5568
 30
0.0
 10
-160.8118
 20
-13.5568
 30
0.0
 10
-160.8118
 20
-13.5568
 30
0.0
 10
-160.8118
 20
-13.5568
 30
0.0
 10
-157.1857
 20
-9.9303
 30
0.0
 10
-157.1857
 20
-9.9303
 30
0.0
 10
-157.1857
 20
-9.9303
 30
0.0
 10
-157.1857
 20
-9.9303
 30
0.0
 10
-153.4386
 20
-13.5568
 30
0.0
 10
-153.4386
 20
-13.5568
 30
0.0
 10
-153.4386
 20
-13.5568
 30
0.0
 10
-153.4386
 20
-13.5568
 30
0.0
 10
-153.4386
 20
-19.3587
 30
0.0
 10
-153.4386
 20
-19.3587
 30
0.0
 10
-153.4386
 20
-19.3587
 30
0.0
 10
-153.4386
 20
-19.3587
 30
0.0
 10
-147.6368
 20
-19.3587
 30
0.0
 10
-147.6368
 20
-19.3587
 30
0.0
 10
-147.6368
 20
-19.3587
 30
0.0
 10
-147.6368
 20
-19.3587
 30
0.0
 10
-144.0103
 20
-23.1057
 30
0.0
 10
-144.0103
 20
-23.1057
 30
0.0
 10
-144.0103
 20
-23.1057
 30
0.0
 10
-144.0103
 20
-23.1057
 30
0.0
 10
-147.6368
 20
-26.7319
 30
0.0
 10
-147.6368
 20
-26.7319
 30
0.0
 10
-147.6368
 20
-26.7319
 30
0.0
 10
-147.6368
 20
-26.7319
 30
0.0
 10
-153.4386
 20
-26.7319
 30
0.0
 10
-153.4386
 20
-26.7319
 30
0.0
 10
-153.4386
 20
-26.7319
 30
0.0
 10
-153.4386
 20
-26.7319
 30
0.0
 10
-153.5596
 20
-32.5341
 30
0.0
 10
-153.5596
 20
-32.5341
 30
0.0
 10
-153.5596
 20
-32.5341
 30
0.0
 10
-153.5596
 20
-32.5341
 30
0.0
 10
-157.1857
 20
-36.1602
 30
0.0
 10
-157.1857
 20
-36.1602
 30
0.0
 10
-157.1857
 20
-36.1602
 30
0.0
 10
-157.1857
 20
-36.1602
 30
0.0
 10
-160.8118
 20
-32.5341
 30
0.0
 10
-160.8118
 20
-32.5341
 30
0.0
 10
-160.8118
 20
-32.5341
 30
0.0
 10
-160.8118
 20
-32.5341
 30
0.0
 10
-160.8118
 20
-26.7319
 30
0.0
 10
-160.8118
 20
-26.7319
 30
0.0
 10
-160.8118
 20
-26.7319
 30
0.0
 10
-160.8118
 20
-26.7319
 30
0.0
 10
-166.614
 20
-26.7319
 30
0.0
 10
-166.614
 20
-26.7319
 30
0.0
  0
SPLINE
  5
47
330
1F
100
AcDbEntity
  8
layer 1
 62
     7
100
AcDbSpline
210
0.0
220
0.0
230
1.0
 70
    11
 71
     3
 72
    48
 73
    44
 74
     0
 42
0.0000000001
 43
0.0000000001
 12
1.0
 22
0.0
 32
0.0
 13
1.0
 23
0.0
 33
0.0
 40
0.0
 40
0.0
 40
0.0
 40
0.0
 40
0.0833333333333333
 40
0.0833333333333333
 40
0.0833333333333333
 40
0.0833333333333333
 40
0.1666666666666667
 40
0.1666666666666667
 40
0.1666666666666667
 40
0.1666666666666667
 40
0.25
 40
0.25
 40
0.25
 40
0.25
 40
0.3333333333333333
 40
0.3333333333333333
 40
0.3333333333333333
 40
0.3333333333333333
 40
0.4166666666666667
 40
0.4166666666666667
 40
0.4166666666666667
 40
0.4166666666666667
 40
0.5
 40
0.5
 40
0.5
 40
0.5
 40
0.5833333333333334
 40
0.5833333333333334
 40
0.5833333333333334
 40
0.5833333333333334
 40
0.6666666666666666
 40
0.6666666666666666
 40
0.6666666666666666
 40
0.6666666666666666
 40
0.75
 40
0.75
 40
0.75
 40
0.75
 40
0.8333333333333334
 40
0.8333333333333334
 40
0.8333333333333334
 40
0.8333333333333334
 40
1.0
 40
1.0
 40
1.0
 40
1.0
 10
-175.9214
 20
-30.4789
 30
0.0
 10
-175.9214
 20
-30.4789
 30
0.0
 10
-172.8993
 20
-27.4572
 30
0.0
 10
-172.8993
 20
-27.4572
 30
0.0
 10
-172.8993
 20
-27.4572
 30
0.0
 10
-172.8993
 20
-27.4572
 30
0.0
 10
-169.5148
 20
-30.7208
 30
0.0
 10
-169.5148
 20
-30.7208
 30
0.0
 10
-169.5148
 20
-30.7208
 30
0.0
 10
-169.5148
 20
-30.7208
 30
0.0
 10
-164.8008
 20
-30.7208
 30
0.0
 10
-164.8008
 20
-30.7208
 30
0.0
 10
-164.8008
 20
-30.7208
 30
0.0
 10
-164.8008
 20
-30.7208
 30
0.0
 10
-164.8008
 20
-35.4348
 30
0.0
 10
-164.8008
 20
-35.4348
 30
0.0
 10
-164.8008
 20
-35.4348
 30
0.0
 10
-164.8008
 20
-35.4348
 30
0.0
 10
-161.5372
 20
-38.8194
 30
0.0
 10
-161.5372
 20
-38.8194
 30
0.0
 10
-161.5372
 20
-38.8194
 30
0.0
 10
-161.5372
 20
-38.8194
 30
0.0
 10
-164.8008
 20
-42.083
 30
0.0
 10
-164.8008
 20
-42.083
 30
0.0
 10
-164.8008
 20
-42.083
 30
0.0
 10
-164.8008
 20
-42.083
 30
0.0
 10
-164.8008
 20
-46.797
 30
0.0
 10
-164.8008
 20
-46.797
 30
0.0
 10
-164.8008
 20
-46.797
 30
0.0
 10
-164.8008
 20
-46.797
 30
0.0
 10
-169.5148
 20
-46.797
 30
0.0
 10
-169.5148
 20
-46.797
 30
0.0
 10
-169.5148
 20
-46.797
 30
0.0
 10
-169.5148
 20
-46.797
 30
0.0
 10
-172.8993
 20
-50.1816
 30
0.0
 10
-172.8993
 20
-50.1816
 30
0.0
 10
-172.8993
 20
-50.1816
 30
0.0
 10
-172.8993
 20
-50.1816
 30
0.0
 10
-175.9214
 20
-47.1598
 30
0.0
 10
-175.9214
 20
-47.1598
 30
0.0
 10
-175.9214
 20
-47.1598
 30
0.0
 10
-175.9214
 20
-47.1598
 30
0.0
 10
-175.9214
 20
-30.4789
 30
0.0
 10
-175.9214
 20
-30.4789
 30
0.0
  0
SPLINE
  5
48
330
1F
100
AcDbEntity
  8
layer 1
 62
     7
100
AcDbSpline
210
0.0
220
0.0
230
1.0
 70
    11
 71
     3
 72
    68
 73
    64
 74
     0
 42
0.0000000001
 43
0.0000000001
 12
1.0
 22
0.0
 32
0.0
 13
1.0
 23
0.0
 33
0.0
 40
0.0
 40
0.0
 40
0.0
 40
0.0
 40
0.0588235294117647
 40
0.0588235294117647
 40
0.0588235294117647
 40
0.0588235294117647
 40
0.1176470588235294
 40
0.1176470588235294
 40
0.1176470588235294
 40
0.1176470588235294
 40
0.1764705882352941
 40
0.1764705882352941
 40
0.1764705882352941
 40
0.1764705882352941
 40
0.2352941176470588
 40
0.2352941176470588
 40
0.2352941176470588
 40
0.2352941176470588
 40
0.2941176470588235
 40
0.2941176470588235
 40
0.2941176470588235
 40
0.2941176470588235
 40
0.3529411764705883
 40
0.3529411764705883
 40
0.3529411764705883
 40
0.3529411764705883
 40
0.4117647058823529
 40
0.4117647058823529
 40
0.4117647058823529
 40
0.4117647058823529
 40
0.4705882352941176
 40
0.4705882352941176
 40
0.4705882352941176
 40
0.4705882352941176
 40
0.5294117647058824
 40
0.5294117647058824
 40
0.5294117647058824
 40
0.5294117647058824
 40
0.5882352941176471
 40
0.5882352941176471
 40
0.5882352941176471
 40
0.5882352941176471
 40
0.6470588235294118
 40
0.6470588235294118
 40
0.6470588235294118
 40
0.6470588235294118
 40
0.7058823529411765
 40
0.7058823529411765
 40
0.7058823529411765
 40
0.7058823529411765
 40
0.7647058823529411
 40
0.7647058823529411
 40
0.7647058823529411
 40
0.7647058823529411
 40
0.8235294117647058
 40
0.8235294117647058
 40
0.8235294117647058
 40
0.8235294117647058
 40
0.8823529411764706
 40
0.8823529411764706
 40
0.8823529411764706
 40
0.8823529411764706
 40
1.0
 40
1.0
 40
1.0
 40
1.0
 10
-166.614
 20
4.8164
 30
0.0
 10
-166.614
 20
4.8164
 30
0.0
 10
-170.2401
 20
8.4425
 30
0.0
 10
-170.2401
 20
8.4425
 30
0.0
 10
-170.2401
 20
8.4425
 30
0.0
 10
-170.2401
 20
8.4425
 30
0.0
 10
-166.614
 20
12.0687
 30
0.0
 10
-166.614
 20
12.0687
 30
0.0
 10
-166.614
 20
12.0687
 30
0.0
 10
-166.614
 20
12.0687
 30
0.0
 10
-160.8118
 20
12.0687
 30
0.0
 10
-160.8118
 20
12.0687
 30
0.0
 10
-160.8118
 20
12.0687
 30
0.0
 10
-160.8118
 20
12.0687
 30
0.0
 10
-160.8118
 20
17.9915
 30
0.0
 10
-160.8118
 20
17.9915
 30
0.0
 10
-160.8118
 20
17.9915
 30
0.0
 10
-160.8118
 20
17.9915
 30
0.0
 10
-157.1857
 20
21.6179
 30
0.0
 10
-157.1857
 20
21.6179
 30
0.0
 10
-157.1857
 20
21.6179
 30
0.0
 10
-157.1857
 20
21.6179
 30
0.0
 10
-153.4386
 20
17.9915
 30
0.0
 10
-153.4386
 20
17.9915
 30
0.0
 10
-153.4386
 20
17.9915
 30
0.0
 10
-153.4386
 20
17.9915
 30
0.0
 10
-153.4386
 20
12.0687
 30
0.0
 10
-153.4386
 20
12.0687
 30
0.0
 10
-153.4386
 20
12.0687
 30
0.0
 10
-153.4386
 20
12.0687
 30
0.0
 10
-147.6368
 20
12.0687
 30
0.0
 10
-147.6368
 20
12.0687
 30
0.0
 10
-147.6368
 20
12.0687
 30
0.0
 10
-147.6368
 20
12.0687
 30
0.0
 10
-144.0103
 20
8.4425
 30
0.0
 10
-144.0103
 20
8.4425
 30
0.0
 10
-144.0103
 20
8.4425
 30
0.0
 10
-144.0103
 20
8.4425
 30
0.0
 10
-147.6368
 20
4.8164
 30
0.0
 10
-147.6368
 20
4.8164
 30
0.0
 10
-147.6368
 20
4.8164
 30
0.0
 10
-147.6368
 20
4.8164
 30
0.0
 10
-153.4386
 20
4.8164
 30
0.0
 10
-153.4386
 20
4.8164
 30
0.0
 10
-153.4386
 20
4.8164
 30
0.0
 10
-153.4386
 20
4.8164
 30
0.0
 10
-153.5596
 20
-0.9858
 30
0.0
 10
-153.5596
 20
-0.9858
 30
0.0
 10
-153.5596
 20
-0.9858
 30
0.0
 10
-153.5596
 20
-0.9858
 30
0.0
 10
-157.1857
 20
-4.7329
 30
0.0
 10
-157.1857
 20
-4.7329
 30
0.0
 10
-157.1857
 20
-4.7329
 30
0.0
 10
-157.1857
 20
-4.7329
 30
0.0
 10
-160.8118
 20
-0.9858
 30
0.0
 10
-160.8118
 20
-0.9858
 30
0.0
 10
-160.8118
 20
-0.9858
 30
0.0
 10
-160.8118
 20
-0.9858
 30
0.0
 10
-160.8118
 20
4.8164
 30
0.0
 10
-160.8118
 20
4.8164
 30
0.0
 10
-160.8118
 20
4.8164
 30
0.0
 10
-160.8118
 20
4.8164
 30
0.0
 10
-166.614
 20
4.8164
 30
0.0
 10
-166.614
 20
4.8164
 30
0.0
  0
SPLINE
  5
49
330
1F
100
AcDbEntity
  8
layer 1
 62
     7
100
AcDbSpline
210
0.0
220
0.0
230
1.0
 70
    11
 71
     3
 72
    48
 73
    44
 74
     0
 42
0.0000000001
 43
0.0000000001
 12
1.0
 22
0.0
 32
0.0
 13
1.0
 23
0.0
 33
0.0
 40
0.0
 40
0.0
 40
0.0
 40
0.0
 40
0.0833333333333333
 40
0.0833333333333333
 40
0.0833333333333333
 40
0.0833333333333333
 40
0.1666666666666667
 40
0.1666666666666667
 40
0.1666666666666667
 40
0.1666666666666667
 40
0.25
 40
0.25
 40
0.25
 40
0.25
 40
0.3333333333333333
 40
0.3333333333333333
 40
0.3333333333333333
 40
0.3333333333333333
 40
0.4166666666666667
 40
0.4166666666666667
 40
0.4166666666666667
 40
0.4166666666666667
 40
0.5
 40
0.5
 40
0.5
 40
0.5
 40
0.5833333333333334
 40
0.5833333333333334
 40
0.5833333333333334
 40
0.5833333333333334
 40
0.6666666666666666
 40
0.6666666666666666
 40
0.6666666666666666
 40
0.6666666666666666
 40
0.75
 40
0.75
 40
0.75
 40
0.75
 40
0.8333333333333334
 40
0.8333333333333334
 40
0.8333333333333334
 40
0.8333333333333334
 40
1.0
 40
1.0
 40
1.0
 40
1.0
 10
-175.9214
 20
1.0693
 30
0.0
 10
-175.9214
 20
1.0693
 30
0.0
 10
-172.8993
 20
4.091
 30
0.0
 10
-172.8993
 20
4.091
 30
0.0
 10
-172.8993
 20
4.091
 30
0.0
 10
-172.8993
 20
4.091
 30
0.0
 10
-169.5148
 20
0.7065
 30
0.0
 10
-169.5148
 20
0.7065
 30
0.0
 10
-169.5148
 20
0.7065
 30
0.0
 10
-169.5148
 20
0.7065
 30
0.0
 10
-164.8008
 20
0.7065
 30
0.0
 10
-164.8008
 20
0.7065
 30
0.0
 10
-164.8008
 20
0.7065
 30
0.0
 10
-164.8008
 20
0.7065
 30
0.0
 10
-164.8008
 20
-4.0075
 30
0.0
 10
-164.8008
 20
-4.0075
 30
0.0
 10
-164.8008
 20
-4.0075
 30
0.0
 10
-164.8008
 20
-4.0075
 30
0.0
 10
-161.5372
 20
-7.2711
 30
0.0
 10
-161.5372
 20
-7.2711
 30
0.0
 10
-161.5372
 20
-7.2711
 30
0.0
 10
-161.5372
 20
-7.2711
 30
0.0
 10
-164.8008
 20
-10.6557
 30
0.0
 10
-164.8008
 20
-10.6557
 30
0.0
 10
-164.8008
 20
-10.6557
 30
0.0
 10
-164.8008
 20
-10.6557
 30
0.0
 10
-164.8008
 20
-15.3697
 30
0.0
 10
-164.8008
 20
-15.3697
 30
0.0
 10
-164.8008
 20
-15.3697
 30
0.0
 10
-164.8008
 20
-15.3697
 30
0.0
 10
-169.5148
 20
-15.3697
 30
0.0
 10
-169.5148
 20
-15.3697
 30
0.0
 10
-169.5148
 20
-15.3697
 30
0.0
 10
-169.5148
 20
-15.3697
 30
0.0
 10
-172.8993
 20
-18.6333
 30
0.0
 10
-172.8993
 20
-18.6333
 30
0.0
 10
-172.8993
 20
-18.6333
 30
0.0
 10
-172.8993
 20
-18.6333
 30
0.0
 10
-175.9214
 20
-15.6116
 30
0.0
 10
-175.9214
 20
-15.6116
 30
0.0
 10
-175.9214
 20
-15.6116
 30
0.0
 10
-175.9214
 20
-15.6116
 30
0.0
 10
-175.9214
 20
1.0693
 30
0.0
 10
-175.9214
 20
1.0693
 30
0.0
  0
SPLINE
  5
4A
330
1F
100
AcDbEntity
  8
layer 1
 62
     7
100
AcDbSpline
210
0.0
220
0.0
230
1.0
 70
    11
 71
     3
 72
    68
 73
    64
 74
     0
 42
0.0000000001
 43
0.0000000001
 12
1.0
 22
0.0
 32
0.0
 13
1.0
 23
0.0
 33
0.0
 40
0.0
 40
0.0
 40
0.0
 40
0.0
 40
0.0588235294117647
 40
0.0588235294117647
 40
0.0588235294117647
 40
0.0588235294117647
 40
0.1176470588235294
 40
0.1176470588235294
 40
0.1176470588235294
 40
0.1176470588235294
 40
0.1764705882352941
 40
0.1764705882352941
 40
0.1764705882352941
 40
0.1764705882352941
 40
0.2352941176470588
 40
0.2352941176470588
 40
0.2352941176470588
 40
0.2352941176470588
 40
0.2941176470588235
 40
0.2941176470588235
 40
0.2941176470588235
 40
0.2941176470588235
 40
0.3529411764705883
 40
0.3529411764705883
 40
0.3529411764705883
 40
0.3529411764705883
 40
0.4117647058823529
 40
0.4117647058823529
 40
0.4117647058823529
 40
0.4117647058823529
 40
0.4705882352941176
 40
0.4705882352941176
 40
0.4705882352941176
 40
0.4705882352941176
 40
0.5294117647058824
 40
0.5294117647058824
 40
0.5294117647058824
 40
0.5294117647058824
 40
0.5882352941176471
 40
0.5882352941176471
 40
0.5882352941176471
 40
0.5882352941176471
 40
0.6470588235294118
 40
0.6470588235294118
 40
0.6470588235294118
 40
0.6470588235294118
 40
0.7058823529411765
 40
0.7058823529411765
 40
0.7058823529411765
 40
0.7058823529411765
 40
0.7647058823529411
 40
0.7647058823529411
 40
0.7647058823529411
 40
0.7647058823529411
 40
0.8235294117647058
 40
0.8235294117647058
 40
0.8235294117647058
 40
0.8235294117647058
 40
0.8823529411764706
 40
0.8823529411764706
 40
0.8823529411764706
 40
0.8823529411764706
 40
1.0
 40
1.0
 40
1.0
 40
1.0
 10
-166.614
 20
36.2437
 30
0.0
 10
-166.614
 20
36.2437
 30
0.0
 10
-170.2401
 20
39.9908
 30
0.0
 10
-170.2401
 20
39.9908
 30
0.0
 10
-170.2401
 20
39.9908
 30
0.0
 10
-170.2401
 20
39.9908
 30
0.0
 10
-166.614
 20
43.6169
 30
0.0
 10
-166.614
 20
43.6169
 30
0.0
 10
-166.614
 20
43.6169
 30
0.0
 10
-166.614
 20
43.6169
 30
0.0
 10
-160.8118
 20
43.6169
 30
0.0
 10
-160.8118
 20
43.6169
 30
0.0
 10
-160.8118
 20
43.6169
 30
0.0
 10
-160.8118
 20
43.6169
 30
0.0
 10
-160.8118
 20
49.4191
 30
0.0
 10
-160.8118
 20
49.4191
 30
0.0
 10
-160.8118
 20
49.4191
 30
0.0
 10
-160.8118
 20
49.4191
 30
0.0
 10
-157.1857
 20
53.0452
 30
0.0
 10
-157.1857
 20
53.0452
 30
0.0
 10
-157.1857
 20
53.0452
 30
0.0
 10
-157.1857
 20
53.0452
 30
0.0
 10
-153.4386
 20
49.4191
 30
0.0
 10
-153.4386
 20
49.4191
 30
0.0
 10
-153.4386
 20
49.4191
 30
0.0
 10
-153.4386
 20
49.4191
 30
0.0
 10
-153.4386
 20
43.6169
 30
0.0
 10
-153.4386
 20
43.6169
 30
0.0
 10
-153.4386
 20
43.6169
 30
0.0
 10
-153.4386
 20
43.6169
 30
0.0
 10
-147.6368
 20
43.6169
 30
0.0
 10
-147.6368
 20
43.6169
 30
0.0
 10
-147.6368
 20
43.6169
 30
0.0
 10
-147.6368
 20
43.6169
 30
0.0
 10
-144.0103
 20
39.9908
 30
0.0
 10
-144.0103
 20
39.9908
 30
0.0
 10
-144.0103
 20
39.9908
 30
0.0
 10
-144.0103
 20
39.9908
 30
0.0
 10
-147.6368
 20
36.2437
 30
0.0
 10
-147.6368
 20
36.2437
 30
0.0
 10
-147.6368
 20
36.2437
 30
0.0
 10
-147.6368
 20
36.2437
 30
0.0
 10
-153.4386
 20
36.2437
 30
0.0
 10
-153.4386
 20
36.2437
 30
0.0
 10
-153.4386
 20
36.2437
 30
0.0
 10
-153.4386
 20
36.2437
 30
0.0
 10
-153.5596
 20
30.4418
 30
0.0
 10
-153.5596
 20
30.4418
 30
0.0
 10
-153.5596
 20
30.4418
 30
0.0
 10
-153.5596
 20
30.4418
 30
0.0
 10
-157.1857
 20
26.8154
 30
0.0
 10
-157.1857
 20
26.8154
 30
0.0
 10
-157.1857
 20
26.8154
 30
0.0
 10
-157.1857
 20
26.8154
 30
0.0
 10
-160.8118
 20
30.4418
 30
0.0
 10
-160.8118
 20
30.4418
 30
0.0
 10
-160.8118
 20
30.4418
 30
0.0
 10
-160.8118
 20
30.4418
 30
0.0
 10
-160.8118
 20
36.2437
 30
0.0
 10
-160.8118
 20
36.2437
 30
0.0
 10
-160.8118
 20
36.2437
 30
0.0
 10
-160.8118
 20
36.2437
 30
0.0
 10
-166.614
 20
36.2437
 30
0.0
 10
-166.614
 20
36.2437
 30
0.0
  0
SPLINE
  5
4B
330
1F
100
AcDbEntity
  8
layer 1
 62
     7
100
AcDbSpline
210
0.0
220
0.0
230
1.0
 70
    11
 71
     3
 72
    48
 73
    44
 74
     0
 42
0.0000000001
 43
0.0000000001
 12
1.0
 22
0.0
 32
0.0
 13
1.0
 23
0.0
 33
0.0
 40
0.0
 40
0.0
 40
0.0
 40
0.0
 40
0.0833333333333333
 40
0.0833333333333333
 40
0.0833333333333333
 40
0.0833333333333333
 40
0.1666666666666667
 40
0.1666666666666667
 40
0.1666666666666667
 40
0.1666666666666667
 40
0.25
 40
0.25
 40
0.25
 40
0.25
 40
0.3333333333333333
 40
0.3333333333333333
 40
0.3333333333333333
 40
0.3333333333333333
 40
0.4166666666666667
 40
0.4166666666666667
 40
0.4166666666666667
 40
0.4166666666666667
 40
0.5
 40
0.5
 40
0.5
 40
0.5
 40
0.5833333333333334
 40
0.5833333333333334
 40
0.5833333333333334
 40
0.5833333333333334
 40
0.6666666666666666
 40
0.6666666666666666
 40
0.6666666666666666
 40
0.6666666666666666
 40
0.75
 40
0.75
 40
0.75
 40
0.75
 40
0.8333333333333334
 40
0.8333333333333334
 40
0.8333333333333334
 40
0.8333333333333334
 40
1.0
 40
1.0
 40
1.0
 40
1.0
 10
-175.9214
 20
32.4966
 30
0.0
 10
-175.9214
 20
32.4966
 30
0.0
 10
-172.8993
 20
35.5184
 30
0.0
 10
-172.8993
 20
35.5184
 30
0.0
 10
-172.8993
 20
35.5184
 30
0.0
 10
-172.8993
 20
35.5184
 30
0.0
 10
-169.5148
 20
32.2547
 30
0.0
 10
-169.5148
 20
32.2547
 30
0.0
 10
-169.5148
 20
32.2547
 30
0.0
 10
-169.5148
 20
32.2547
 30
0.0
 10
-164.8008
 20
32.2547
 30
0.0
 10
-164.8008
 20
32.2547
 30
0.0
 10
-164.8008
 20
32.2547
 30
0.0
 10
-164.8008
 20
32.2547
 30
0.0
 10
-164.8008
 20
27.5407
 30
0.0
 10
-164.8008
 20
27.5407
 30
0.0
 10
-164.8008
 20
27.5407
 30
0.0
 10
-164.8008
 20
27.5407
 30
0.0
 10
-161.5372
 20
24.1562
 30
0.0
 10
-161.5372
 20
24.1562
 30
0.0
 10
-161.5372
 20
24.1562
 30
0.0
 10
-161.5372
 20
24.1562
 30
0.0
 10
-164.8008
 20
20.8926
 30
0.0
 10
-164.8008
 20
20.8926
 30
0.0
 10
-164.8008
 20
20.8926
 30
0.0
 10
-164.8008
 20
20.8926
 30
0.0
 10
-164.8008
 20
16.1786
 30
0.0
 10
-164.8008
 20
16.1786
 30
0.0
 10
-164.8008
 20
16.1786
 30
0.0
 10
-164.8008
 20
16.1786
 30
0.0
 10
-169.5148
 20
16.1786
 30
0.0
 10
-169.5148
 20
16.1786
 30
0.0
 10
-169.5148
 20
16.1786
 30
0.0
 10
-169.5148
 20
16.1786
 30
0.0
 10
-172.8993
 20
12.794
 30
0.0
 10
-172.8993
 20
12.794
 30
0.0
 10
-172.8993
 20
12.794
 30
0.0
 10
-172.8993
 20
12.794
 30
0.0
 10
-175.9214
 20
15.8157
 30
0.0
 10
-175.9214
 20
15.8157
 30
0.0
 10
-175.9214
 20
15.8157
 30
0.0
 10
-175.9214
 20
15.8157
 30
0.0
 10
-175.9214
 20
32.4966
 30
0.0
 10
-175.9214
 20
32.4966
 30
0.0
  0
SPLINE
  5
4C
330
1F
100
AcDbEntity
  8
layer 1
 62
     7
100
AcDbSpline
210
0.0
220
0.0
230
1.0
 70
    11
 71
     3
 72
    68
 73
    64
 74
     0
 42
0.0000000001
 43
0.0000000001
 12
1.0
 22
0.0
 32
0.0
 13
1.0
 23
0.0
 33
0.0
 40
0.0
 40
0.0
 40
0.0
 40
0.0
 40
0.0588235294117647
 40
0.0588235294117647
 40
0.0588235294117647
 40
0.0588235294117647
 40
0.1176470588235294
 40
0.1176470588235294
 40
0.1176470588235294
 40
0.1176470588235294
 40
0.1764705882352941
 40
0.1764705882352941
 40
0.1764705882352941
 40
0.1764705882352941
 40
0.2352941176470588
 40
0.2352941176470588
 40
0.2352941176470588
 40
0.2352941176470588
 40
0.2941176470588235
 40
0.2941176470588235
 40
0.2941176470588235
 40
0.2941176470588235
 40
0.3529411764705883
 40
0.3529411764705883
 40
0.3529411764705883
 40
0.3529411764705883
 40
0.4117647058823529
 40
0.4117647058823529
 40
0.4117647058823529
 40
0.4117647058823529
 40
0.4705882352941176
 40
0.4705882352941176
 40
0.4705882352941176
 40
0.4705882352941176
 40
0.5294117647058824
 40
0.5294117647058824
 40
0.5294117647058824
 40
0.5294117647058824
 40
0.5882352941176471
 40
0.5882352941176471
 40
0.5882352941176471
 40
0.5882352941176471
 40
0.6470588235294118
 40
0.6470588235294118
 40
0.6470588235294118
 40
0.6470588235294118
 40
0.7058823529411765
 40
0.7058823529411765
 40
0.7058823529411765
 40
0.7058823529411765
 40
0.7647058823529411
 40
0.7647058823529411
 40
0.7647058823529411
 40
0.7647058823529411
 40
0.8235294117647058
 40
0.8235294117647058
 40
0.8235294117647058
 40
0.8235294117647058
 40
0.8823529411764706
 40
0.8823529411764706
 40
0.8823529411764706
 40
0.8823529411764706
 40
1.0
 40
1.0
 40
1.0
 40
1.0
 10
-166.614
 20
67.792
 30
0.0
 10
-166.614
 20
67.792
 30
0.0
 10
-170.2401
 20
71.4181
 30
0.0
 10
-170.2401
 20
71.4181
 30
0.0
 10
-170.2401
 20
71.4181
 30
0.0
 10
-170.2401
 20
71.4181
 30
0.0
 10
-166.614
 20
75.0446
 30
0.0
 10
-166.614
 20
75.0446
 30
0.0
 10
-166.614
 20
75.0446
 30
0.0
 10
-166.614
 20
75.0446
 30
0.0
 10
-160.8118
 20
75.0446
 30
0.0
 10
-160.8118
 20
75.0446
 30
0.0
 10
-160.8118
 20
75.0446
 30
0.0
 10
-160.8118
 20
75.0446
 30
0.0
 10
-160.8118
 20
80.9674
 30
0.0
 10
-160.8118
 20
80.9674
 30
0.0
 10
-160.8118
 20
80.9674
 30
0.0
 10
-160.8118
 20
80.9674
 30
0.0
 10
-157.1857
 20
84.5935
 30
0.0
 10
-157.1857
 20
84.5935
 30
0.0
 10
-157.1857
 20
84.5935
 30
0.0
 10
-157.1857
 20
84.5935
 30
0.0
 10
-153.4386
 20
80.9674
 30
0.0
 10
-153.4386
 20
80.9674
 30
0.0
 10
-153.4386
 20
80.9674
 30
0.0
 10
-153.4386
 20
80.9674
 30
0.0
 10
-153.4386
 20
75.0446
 30
0.0
 10
-153.4386
 20
75.0446
 30
0.0
 10
-153.4386
 20
75.0446
 30
0.0
 10
-153.4386
 20
75.0446
 30
0.0
 10
-147.6368
 20
75.0446
 30
0.0
 10
-147.6368
 20
75.0446
 30
0.0
 10
-147.6368
 20
75.0446
 30
0.0
 10
-147.6368
 20
75.0446
 30
0.0
 10
-144.0103
 20
71.4181
 30
0.0
 10
-144.0103
 20
71.4181
 30
0.0
 10
-144.0103
 20
71.4181
 30
0.0
 10
-144.0103
 20
71.4181
 30
0.0
 10
-147.6368
 20
67.792
 30
0.0
 10
-147.6368
 20
67.792
 30
0.0
 10
-147.6368
 20
67.792
 30
0.0
 10
-147.6368
 20
67.792
 30
0.0
 10
-153.4386
 20
67.792
 30
0.0
 10
-153.4386
 20
67.792
 30
0.0
 10
-153.4386
 20
67.792
 30
0.0
 10
-153.4386
 20
67.792
 30
0.0
 10
-153.5596
 20
61.9901
 30
0.0
 10
-153.5596
 20
61.9901
 30
0.0
 10
-153.5596
 20
61.9901
 30
0.0
 10
-153.5596
 20
61.9901
 30
0.0
 10
-157.1857
 20
58.2427
 30
0.0
 10
-157.1857
 20
58.2427
 30
0.0
 10
-157.1857
 20
58.2427
 30
0.0
 10
-157.1857
 20
58.2427
 30
0.0
 10
-160.8118
 20
61.9901
 30
0.0
 10
-160.8118
 20
61.9901
 30
0.0
 10
-160.8118
 20
61.9901
 30
0.0
 10
-160.8118
 20
61.9901
 30
0.0
 10
-160.8118
 20
67.792
 30
0.0
 10
-160.8118
 20
67.792
 30
0.0
 10
-160.8118
 20
67.792
 30
0.0
 10
-160.8118
 20
67.792
 30
0.0
 10
-166.614
 20
67.792
 30
0.0
 10
-166.614
 20
67.792
 30
0.0
  0
SPLINE
  5
4D
330
1F
100
AcDbEntity
  8
layer 1
 62
     7
100
AcDbSpline
210
0.0
220
0.0
230
1.0
 70
    11
 71
     3
 72
    48
 73
    44
 74
     0
 42
0.0000000001
 43
0.0000000001
 12
1.0
 22
0.0
 32
0.0
 13
1.0
 23
0.0
 33
0.0
 40
0.0
 40
0.0
 40
0.0
 40
0.0
 40
0.0833333333333333
 40
0.0833333333333333
 40
0.0833333333333333
 40
0.0833333333333333
 40
0.1666666666666667
 40
0.1666666666666667
 40
0.1666666666666667
 40
0.1666666666666667
 40
0.25
 40
0.25
 40
0.25
 40
0.25
 40
0.3333333333333333
 40
0.3333333333333333
 40
0.3333333333333333
 40
0.3333333333333333
 40
0.4166666666666667
 40
0.4166666666666667
 40
0.4166666666666667
 40
0.4166666666666667
 40
0.5
 40
0.5
 40
0.5
 40
0.5
 40
0.5833333333333334
 40
0.5833333333333334
 40
0.5833333333333334
 40
0.5833333333333334
 40
0.6666666666666666
 40
0.6666666666666666
 40
0.6666666666666666
 40
0.6666666666666666
 40
0.75
 40
0.75
 40
0.75
 40
0.75
 40
0.8333333333333334
 40
0.8333333333333334
 40
0.8333333333333334
 40
0.8333333333333334
 40
1.0
 40
1.0
 40
1.0
 40
1.0
 10
-175.9214
 20
64.0449
 30
0.0
 10
-175.9214
 20
64.0449
 30
0.0
 10
-172.8993
 20
67.0666
 30
0.0
 10
-172.8993
 20
67.0666
 30
0.0
 10
-172.8993
 20
67.0666
 30
0.0
 10
-172.8993
 20
67.0666
 30
0.0
 10
-169.5148
 20
63.682
 30
0.0
 10
-169.5148
 20
63.682
 30
0.0
 10
-169.5148
 20
63.682
 30
0.0
 10
-169.5148
 20
63.682
 30
0.0
 10
-164.8008
 20
63.682
 30
0.0
 10
-164.8008
 20
63.682
 30
0.0
 10
-164.8008
 20
63.682
 30
0.0
 10
-164.8008
 20
63.682
 30
0.0
 10
-164.8008
 20
58.9681
 30
0.0
 10
-164.8008
 20
58.9681
 30
0.0
 10
-164.8008
 20
58.9681
 30
0.0
 10
-164.8008
 20
58.9681
 30
0.0
 10
-161.5372
 20
55.7044
 30
0.0
 10
-161.5372
 20
55.7044
 30
0.0
 10
-161.5372
 20
55.7044
 30
0.0
 10
-161.5372
 20
55.7044
 30
0.0
 10
-164.8008
 20
52.3199
 30
0.0
 10
-164.8008
 20
52.3199
 30
0.0
 10
-164.8008
 20
52.3199
 30
0.0
 10
-164.8008
 20
52.3199
 30
0.0
 10
-164.8008
 20
47.6059
 30
0.0
 10
-164.8008
 20
47.6059
 30
0.0
 10
-164.8008
 20
47.6059
 30
0.0
 10
-164.8008
 20
47.6059
 30
0.0
 10
-169.5148
 20
47.6059
 30
0.0
 10
-169.5148
 20
47.6059
 30
0.0
 10
-169.5148
 20
47.6059
 30
0.0
 10
-169.5148
 20
47.6059
 30
0.0
 10
-172.8993
 20
44.3423
 30
0.0
 10
-172.8993
 20
44.3423
 30
0.0
 10
-172.8993
 20
44.3423
 30
0.0
 10
-172.8993
 20
44.3423
 30
0.0
 10
-175.9214
 20
47.364
 30
0.0
 10
-175.9214
 20
47.364
 30
0.0
 10
-175.9214
 20
47.364
 30
0.0
 10
-175.9214
 20
47.364
 30
0.0
 10
-175.9214
 20
64.0449
 30
0.0
 10
-175.9214
 20
64.0449
 30
0.0
  0
SPLINE
  5
4E
330
1F
100
AcDbEntity
  8
layer 1
 62
     7
100
AcDbSpline
210
0.0
220
0.0
230
1.0
 70
    11
 71
     3
 72
    68
 73
    64
 74
     0
 42
0.0000000001
 43
0.0000000001
 12
1.0
 22
0.0
 32
0.0
 13
1.0
 23
0.0
 33
0.0
 40
0.0
 40
0.0
 40
0.0
 40
0.0
 40
0.0588235294117647
 40
0.0588235294117647
 40
0.0588235294117647
 40
0.0588235294117647
 40
0.1176470588235294
 40
0.1176470588235294
 40
0.1176470588235294
 40
0.1176470588235294
 40
0.1764705882352941
 40
0.1764705882352941
 40
0.1764705882352941
 40
0.1764705882352941
 40
0.2352941176470588
 40
0.2352941176470588
 40
0.2352941176470588
 40
0.2352941176470588
 40
0.2941176470588235
 40
0.2941176470588235
 40
0.2941176470588235
 40
0.2941176470588235
 40
0.3529411764705883
 40
0.3529411764705883
 40
0.3529411764705883
 40
0.3529411764705883
 40
0.4117647058823529
 40
0.4117647058823529
 40
0.4117647058823529
 40
0.4117647058823529
 40
0.4705882352941176
 40
0.4705882352941176
 40
0.4705882352941176
 40
0.4705882352941176
 40
0.5294117647058824
 40
0.5294117647058824
 40
0.5294117647058824
 40
0.5294117647058824
 40
0.5882352941176471
 40
0.5882352941176471
 40
0.5882352941176471
 40
0.5882352941176471
 40
0.6470588235294118
 40
0.6470588235294118
 40
0.6470588235294118
 40
0.6470588235294118
 40
0.7058823529411765
 40
0.7058823529411765
 40
0.7058823529411765
 40
0.7058823529411765
 40
0.7647058823529411
 40
0.7647058823529411
 40
0.7647058823529411
 40
0.7647058823529411
 40
0.8235294117647058
 40
0.8235294117647058
 40
0.8235294117647058
 40
0.8235294117647058
 40
0.8823529411764706
 40
0.8823529411764706
 40
0.8823529411764706
 40
0.8823529411764706
 40
1.0
 40
1.0
 40
1.0
 40
1.0
 10
-166.614
 20
99.2193
 30
0.0
 10
-166.614
 20
99.2193
 30
0.0
 10
-170.2401
 20
102.9664
 30
0.0
 10
-170.2401
 20
102.9664
 30
0.0
 10
-170.2401
 20
102.9664
 30
0.0
 10
-170.2401
 20
102.9664
 30
0.0
 10
-166.614
 20
106.5928
 30
0.0
 10
-166.614
 20
106.5928
 30
0.0
 10
-166.614
 20
106.5928
 30
0.0
 10
-166.614
 20
106.5928
 30
0.0
 10
-160.8118
 20
106.5928
 30
0.0
 10
-160.8118
 20
106.5928
 30
0.0
 10
-160.8118
 20
106.5928
 30
0.0
 10
-160.8118
 20
106.5928
 30
0.0
 10
-160.8118
 20
112.3947
 30
0.0
 10
-160.8118
 20
112.3947
 30
0.0
 10
-160.8118
 20
112.3947
 30
0.0
 10
-160.8118
 20
112.3947
 30
0.0
 10
-157.1857
 20
116.0208
 30
0.0
 10
-157.1857
 20
116.0208
 30
0.0
 10
-157.1857
 20
116.0208
 30
0.0
 10
-157.1857
 20
116.0208
 30
0.0
 10
-153.4386
 20
112.3947
 30
0.0
 10
-153.4386
 20
112.3947
 30
0.0
 10
-153.4386
 20
112.3947
 30
0.0
 10
-153.4386
 20
112.3947
 30
0.0
 10
-153.4386
 20
106.5928
 30
0.0
 10
-153.4386
 20
106.5928
 30
0.0
 10
-153.4386
 20
106.5928
 30
0.0
 10
-153.4386
 20
106.5928
 30
0.0
 10
-147.6368
 20
106.5928
 30
0.0
 10
-147.6368
 20
106.5928
 30
0.0
 10
-147.6368
 20
106.5928
 30
0.0
 10
-147.6368
 20
106.5928
 30
0.0
 10
-144.0103
 20
102.9664
 30
0.0
 10
-144.0103
 20
102.9664
 30
0.0
 10
-144.0103
 20
102.9664
 30
0.0
 10
-144.0103
 20
102.9664
 30
0.0
 10
-147.6368
 20
99.2193
 30
0.0
 10
-147.6368
 20
99.2193
 30
0.0
 10
-147.6368
 20
99.2193
 30
0.0
 10
-147.6368
 20
99.2193
 30
0.0
 10
-153.4386
 20
99.2193
 30
0.0
 10
-153.4386
 20
99.2193
 30
0.0
 10
-153.4386
 20
99.2193
 30
0.0
 10
-153.4386
 20
99.2193
 30
0.0
 10
-153.5596
 20
93.4174
 30
0.0
 10
-153.5596
 20
93.4174
 30
0.0
 10
-153.5596
 20
93.4174
 30
0.0
 10
-153.5596
 20
93.4174
 30
0.0
 10
-157.1857
 20
89.7909
 30
0.0
 10
-157.1857
 20
89.7909
 30
0.0
 10
-157.1857
 20
89.7909
 30
0.0
 10
-157.1857
 20
89.7909
 30
0.0
 10
-160.8118
 20
93.4174
 30
0.0
 10
-160.8118
 20
93.4174
 30
0.0
 10
-160.8118
 20
93.4174
 30
0.0
 10
-160.8118
 20
93.4174
 30
0.0
 10
-160.8118
 20
99.2193
 30
0.0
 10
-160.8118
 20
99.2193
 30
0.0
 10
-160.8118
 20
99.2193
 30
0.0
 10
-160.8118
 20
99.2193
 30
0.0
 10
-166.614
 20
99.2193
 30
0.0
 10
-166.614
 20
99.2193
 30
0.0
  0
SPLINE
  5
4F
330
1F
100
AcDbEntity
  8
layer 1
 62
     7
100
AcDbSpline
210
0.0
220
0.0
230
1.0
 70
    11
 71
     3
 72
    48
 73
    44
 74
     0
 42
0.0000000001
 43
0.0000000001
 12
1.0
 22
0.0
 32
0.0
 13
1.0
 23
0.0
 33
0.0
 40
0.0
 40
0.0
 40
0.0
 40
0.0
 40
0.0833333333333333
 40
0.0833333333333333
 40
0.0833333333333333
 40
0.0833333333333333
 40
0.1666666666666667
 40
0.1666666666666667
 40
0.1666666666666667
 40
0.1666666666666667
 40
0.25
 40
0.25
 40
0.25
 40
0.25
 40
0.3333333333333333
 40
0.3333333333333333
 40
0.3333333333333333
 40
0.3333333333333333
 40
0.4166666666666667
 40
0.4166666666666667
 40
0.4166666666666667
 40
0.4166666666666667
 40
0.5
 40
0.5
 40
0.5
 40
0.5
 40
0.5833333333333334
 40
0.5833333333333334
 40
0.5833333333333334
 40
0.5833333333333334
 40
0.6666666666666666
 40
0.6666666666666666
 40
0.6666666666666666
 40
0.6666666666666666
 40
0.75
 40
0.75
 40
0.75
 40
0.75
 40
0.8333333333333334
 40
0.8333333333333334
 40
0.8333333333333334
 40
0.8333333333333334
 40
1.0
 40
1.0
 40
1.0
 40
1.0
 10
-175.9214
 20
95.4722
 30
0.0
 10
-175.9214
 20
95.4722
 30
0.0
 10
-172.8993
 20
98.6149
 30
0.0
 10
-172.8993
 20
98.6149
 30
0.0
 10
-172.8993
 20
98.6149
 30
0.0
 10
-172.8993
 20
98.6149
 30
0.0
 10
-169.5148
 20
95.2303
 30
0.0
 10
-169.5148
 20
95.2303
 30
0.0
 10
-169.5148
 20
95.2303
 30
0.0
 10
-169.5148
 20
95.2303
 30
0.0
 10
-164.8008
 20
95.2303
 30
0.0
 10
-164.8008
 20
95.2303
 30
0.0
 10
-164.8008
 20
95.2303
 30
0.0
 10
-164.8008
 20
95.2303
 30
0.0
 10
-164.8008
 20
90.5163
 30
0.0
 10
-164.8008
 20
90.5163
 30
0.0
 10
-164.8008
 20
90.5163
 30
0.0
 10
-164.8008
 20
90.5163
 30
0.0
 10
-161.5372
 20
87.1317
 30
0.0
 10
-161.5372
 20
87.1317
 30
0.0
 10
-161.5372
 20
87.1317
 30
0.0
 10
-161.5372
 20
87.1317
 30
0.0
 10
-164.8008
 20
83.8681
 30
0.0
 10
-164.8008
 20
83.8681
 30
0.0
 10
-164.8008
 20
83.8681
 30
0.0
 10
-164.8008
 20
83.8681
 30
0.0
 10
-164.8008
 20
79.1541
 30
0.0
 10
-164.8008
 20
79.1541
 30
0.0
 10
-164.8008
 20
79.1541
 30
0.0
 10
-164.8008
 20
79.1541
 30
0.0
 10
-169.5148
 20
79.1541
 30
0.0
 10
-169.5148
 20
79.1541
 30
0.0
 10
-169.5148
 20
79.1541
 30
0.0
 10
-169.5148
 20
79.1541
 30
0.0
 10
-172.8993
 20
75.7696
 30
0.0
 10
-172.8993
 20
75.7696
 30
0.0
 10
-172.8993
 20
75.7696
 30
0.0
 10
-172.8993
 20
75.7696
 30
0.0
 10
-175.9214
 20
78.9122
 30
0.0
 10
-175.9214
 20
78.9122
 30
0.0
 10
-175.9214
 20
78.9122
 30
0.0
 10
-175.9214
 20
78.9122
 30
0.0
 10
-175.9214
 20
95.4722
 30
0.0
 10
-175.9214
 20
95.4722
 30
0.0
  0
SPLINE
  5
50
330
1F
100
AcDbEntity
  8
layer 1
 62
     7
100
AcDbSpline
210
0.0
220
0.0
230
1.0
 70
    11
 71
     3
 72
    36
 73
    32
 74
     0
 42
0.0000000001
 43
0.0000000001
 12
1.0
 22
0.0
 32
0.0
 13
1.0
 23
0.0
 33
0.0
 40
0.0
 40
0.0
 40
0.0
 40
0.0
 40
0.1111111111111111
 40
0.1111111111111111
 40
0.1111111111111111
 40
0.1111111111111111
 40
0.2222222222222222
 40
0.2222222222222222
 40
0.2222222222222222
 40
0.2222222222222222
 40
0.3333333333333333
 40
0.3333333333333333
 40
0.3333333333333333
 40
0.3333333333333333
 40
0.4444444444444444
 40
0.4444444444444444
 40
0.4444444444444444
 40
0.4444444444444444
 40
0.5555555555555556
 40
0.5555555555555556
 40
0.5555555555555556
 40
0.5555555555555556
 40
0.6666666666666666
 40
0.6666666666666666
 40
0.6666666666666666
 40
0.6666666666666666
 40
0.7777777777777778
 40
0.7777777777777778
 40
0.7777777777777778
 40
0.7777777777777778
 40
1.0
 40
1.0
 40
1.0
 40
1.0
 10
-163.1085
 20
120.3723
 30
0.0
 10
-163.1085
 20
120.3723
 30
0.0
 10
-161.5372
 20
118.68
 30
0.0
 10
-161.5372
 20
118.68
 30
0.0
 10
-161.5372
 20
118.68
 30
0.0
 10
-161.5372
 20
118.68
 30
0.0
 10
-164.8008
 20
115.2958
 30
0.0
 10
-164.8008
 20
115.2958
 30
0.0
 10
-164.8008
 20
115.2958
 30
0.0
 10
-164.8008
 20
115.2958
 30
0.0
 10
-164.8008
 20
110.7024
 30
0.0
 10
-164.8008
 20
110.7024
 30
0.0
 10
-164.8008
 20
110.7024
 30
0.0
 10
-164.8008
 20
110.7024
 30
0.0
 10
-169.5148
 20
110.7024
 30
0.0
 10
-169.5148
 20
110.7024
 30
0.0
 10
-169.5148
 20
110.7024
 30
0.0
 10
-169.5148
 20
110.7024
 30
0.0
 10
-172.8993
 20
107.3178
 30
0.0
 10
-172.8993
 20
107.3178
 30
0.0
 10
-172.8993
 20
107.3178
 30
0.0
 10
-172.8993
 20
107.3178
 30
0.0
 10
-175.9214
 20
110.3399
 30
0.0
 10
-175.9214
 20
110.3399
 30
0.0
 10
-175.9214
 20
110.3399
 30
0.0
 10
-175.9214
 20
110.3399
 30
0.0
 10
-175.9214
 20
120.3723
 30
0.0
 10
-175.9214
 20
120.3723
 30
0.0
 10
-175.9214
 20
120.3723
 30
0.0
 10
-175.9214
 20
120.3723
 30
0.0
 10
-163.1085
 20
120.3723
 30
0.0
 10
-163.1085
 20
120.3723
 30
0.0
  0
SPLINE
  5
51
330
1F
100
AcDbEntity
  8
layer 1
 62
     7
100
AcDbSpline
210
0.0
220
0.0
230
1.0
 70
    11
 71
     3
 72
    48
 73
    44
 74
     0
 42
0.0000000001
 43
0.0000000001
 12
1.0
 22
0.0
 32
0.0
 13
1.0
 23
0.0
 33
0.0
 40
0.0
 40
0.0
 40
0.0
 40
0.0
 40
0.0833333333333333
 40
0.0833333333333333
 40
0.0833333333333333
 40
0.0833333333333333
 40
0.1666666666666667
 40
0.1666666666666667
 40
0.1666666666666667
 40
0.1666666666666667
 40
0.25
 40
0.25
 40
0.25
 40
0.25
 40
0.3333333333333333
 40
0.3333333333333333
 40
0.3333333333333333
 40
0.3333333333333333
 40
0.4166666666666667
 40
0.4166666666666667
 40
0.4166666666666667
 40
0.4166666666666667
 40
0.5
 40
0.5
 40
0.5
 40
0.5
 40
0.5833333333333334
 40
0.5833333333333334
 40
0.5833333333333334
 40
0.5833333333333334
 40
0.6666666666666666
 40
0.6666666666666666
 40
0.6666666666666666
 40
0.6666666666666666
 40
0.75
 40
0.75
 40
0.75
 40
0.75
 40
0.8333333333333334
 40
0.8333333333333334
 40
0.8333333333333334
 40
0.8333333333333334
 40
1.0
 40
1.0
 40
1.0
 40
1.0
 10
-149.4496
 20
110.7024
 30
0.0
 10
-149.4496
 20
110.7024
 30
0.0
 10
-149.4496
 20
115.2958
 30
0.0
 10
-149.4496
 20
115.2958
 30
0.0
 10
-149.4496
 20
115.2958
 30
0.0
 10
-149.4496
 20
115.2958
 30
0.0
 10
-152.7133
 20
118.68
 30
0.0
 10
-152.7133
 20
118.68
 30
0.0
 10
-152.7133
 20
118.68
 30
0.0
 10
-152.7133
 20
118.68
 30
0.0
 10
-151.1419
 20
120.3723
 30
0.0
 10
-151.1419
 20
120.3723
 30
0.0
 10
-151.1419
 20
120.3723
 30
0.0
 10
-151.1419
 20
120.3723
 30
0.0
 10
-131.6812
 20
120.3723
 30
0.0
 10
-131.6812
 20
120.3723
 30
0.0
 10
-131.6812
 20
120.3723
 30
0.0
 10
-131.6812
 20
120.3723
 30
0.0
 10
-129.9889
 20
118.68
 30
0.0
 10
-129.9889
 20
118.68
 30
0.0
 10
-129.9889
 20
118.68
 30
0.0
 10
-129.9889
 20
118.68
 30
0.0
 10
-133.3735
 20
115.2958
 30
0.0
 10
-133.3735
 20
115.2958
 30
0.0
 10
-133.3735
 20
115.2958
 30
0.0
 10
-133.3735
 20
115.2958
 30
0.0
 10
-133.3735
 20
110.7024
 30
0.0
 10
-133.3735
 20
110.7024
 30
0.0
 10
-133.3735
 20
110.7024
 30
0.0
 10
-133.3735
 20
110.7024
 30
0.0
 10
-138.0875
 20
110.7024
 30
0.0
 10
-138.0875
 20
110.7024
 30
0.0
 10
-138.0875
 20
110.7024
 30
0.0
 10
-138.0875
 20
110.7024
 30
0.0
 10
-141.3511
 20
107.3178
 30
0.0
 10
-141.3511
 20
107.3178
 30
0.0
 10
-141.3511
 20
107.3178
 30
0.0
 10
-141.3511
 20
107.3178
 30
0.0
 10
-144.7357
 20
110.7024
 30
0.0
 10
-144.7357
 20
110.7024
 30
0.0
 10
-144.7357
 20
110.7024
 30
0.0
 10
-144.7357
 20
110.7024
 30
0.0
 10
-149.4496
 20
110.7024
 30
0.0
 10
-149.4496
 20
110.7024
 30
0.0
  0
SPLINE
  5
52
330
1F
100
AcDbEntity
  8
layer 1
 62
     7
100
AcDbSpline
210
0.0
220
0.0
230
1.0
 70
    11
 71
     3
 72
    68
 73
    64
 74
     0
 42
0.0000000001
 43
0.0000000001
 12
1.0
 22
0.0
 32
0.0
 13
1.0
 23
0.0
 33
0.0
 40
0.0
 40
0.0
 40
0.0
 40
0.0
 40
0.0588235294117647
 40
0.0588235294117647
 40
0.0588235294117647
 40
0.0588235294117647
 40
0.1176470588235294
 40
0.1176470588235294
 40
0.1176470588235294
 40
0.1176470588235294
 40
0.1764705882352941
 40
0.1764705882352941
 40
0.1764705882352941
 40
0.1764705882352941
 40
0.2352941176470588
 40
0.2352941176470588
 40
0.2352941176470588
 40
0.2352941176470588
 40
0.2941176470588235
 40
0.2941176470588235
 40
0.2941176470588235
 40
0.2941176470588235
 40
0.3529411764705883
 40
0.3529411764705883
 40
0.3529411764705883
 40
0.3529411764705883
 40
0.4117647058823529
 40
0.4117647058823529
 40
0.4117647058823529
 40
0.4117647058823529
 40
0.4705882352941176
 40
0.4705882352941176
 40
0.4705882352941176
 40
0.4705882352941176
 40
0.5294117647058824
 40
0.5294117647058824
 40
0.5294117647058824
 40
0.5294117647058824
 40
0.5882352941176471
 40
0.5882352941176471
 40
0.5882352941176471
 40
0.5882352941176471
 40
0.6470588235294118
 40
0.6470588235294118
 40
0.6470588235294118
 40
0.6470588235294118
 40
0.7058823529411765
 40
0.7058823529411765
 40
0.7058823529411765
 40
0.7058823529411765
 40
0.7647058823529411
 40
0.7647058823529411
 40
0.7647058823529411
 40
0.7647058823529411
 40
0.8235294117647058
 40
0.8235294117647058
 40
0.8235294117647058
 40
0.8235294117647058
 40
0.8823529411764706
 40
0.8823529411764706
 40
0.8823529411764706
 40
0.8823529411764706
 40
1.0
 40
1.0
 40
1.0
 40
1.0
 10
-135.0658
 20
99.2193
 30
0.0
 10
-135.0658
 20
99.2193
 30
0.0
 10
-138.8128
 20
102.9664
 30
0.0
 10
-138.8128
 20
102.9664
 30
0.0
 10
-138.8128
 20
102.9664
 30
0.0
 10
-138.8128
 20
102.9664
 30
0.0
 10
-135.0658
 20
106.5928
 30
0.0
 10
-135.0658
 20
106.5928
 30
0.0
 10
-135.0658
 20
106.5928
 30
0.0
 10
-135.0658
 20
106.5928
 30
0.0
 10
-129.2636
 20
106.5928
 30
0.0
 10
-129.2636
 20
106.5928
 30
0.0
 10
-129.2636
 20
106.5928
 30
0.0
 10
-129.2636
 20
106.5928
 30
0.0
 10
-129.2636
 20
112.3947
 30
0.0
 10
-129.2636
 20
112.3947
 30
0.0
 10
-129.2636
 20
112.3947
 30
0.0
 10
-129.2636
 20
112.3947
 30
0.0
 10
-125.6374
 20
116.0208
 30
0.0
 10
-125.6374
 20
116.0208
 30
0.0
 10
-125.6374
 20
116.0208
 30
0.0
 10
-125.6374
 20
116.0208
 30
0.0
 10
-122.0113
 20
112.3947
 30
0.0
 10
-122.0113
 20
112.3947
 30
0.0
 10
-122.0113
 20
112.3947
 30
0.0
 10
-122.0113
 20
112.3947
 30
0.0
 10
-122.0113
 20
106.5928
 30
0.0
 10
-122.0113
 20
106.5928
 30
0.0
 10
-122.0113
 20
106.5928
 30
0.0
 10
-122.0113
 20
106.5928
 30
0.0
 10
-116.0885
 20
106.5928
 30
0.0
 10
-116.0885
 20
106.5928
 30
0.0
 10
-116.0885
 20
106.5928
 30
0.0
 10
-116.0885
 20
106.5928
 30
0.0
 10
-112.583
 20
102.9664
 30
0.0
 10
-112.583
 20
102.9664
 30
0.0
 10
-112.583
 20
102.9664
 30
0.0
 10
-112.583
 20
102.9664
 30
0.0
 10
-116.0885
 20
99.2193
 30
0.0
 10
-116.0885
 20
99.2193
 30
0.0
 10
-116.0885
 20
99.2193
 30
0.0
 10
-116.0885
 20
99.2193
 30
0.0
 10
-122.0113
 20
99.2193
 30
0.0
 10
-122.0113
 20
99.2193
 30
0.0
 10
-122.0113
 20
99.2193
 30
0.0
 10
-122.0113
 20
99.2193
 30
0.0
 10
-122.0113
 20
93.4174
 30
0.0
 10
-122.0113
 20
93.4174
 30
0.0
 10
-122.0113
 20
93.4174
 30
0.0
 10
-122.0113
 20
93.4174
 30
0.0
 10
-125.6374
 20
89.7909
 30
0.0
 10
-125.6374
 20
89.7909
 30
0.0
 10
-125.6374
 20
89.7909
 30
0.0
 10
-125.6374
 20
89.7909
 30
0.0
 10
-129.2636
 20
93.4174
 30
0.0
 10
-129.2636
 20
93.4174
 30
0.0
 10
-129.2636
 20
93.4174
 30
0.0
 10
-129.2636
 20
93.4174
 30
0.0
 10
-129.2636
 20
99.2193
 30
0.0
 10
-129.2636
 20
99.2193
 30
0.0
 10
-129.2636
 20
99.2193
 30
0.0
 10
-129.2636
 20
99.2193
 30
0.0
 10
-135.0658
 20
99.2193
 30
0.0
 10
-135.0658
 20
99.2193
 30
0.0
  0
SPLINE
  5
53
330
1F
100
AcDbEntity
  8
layer 1
 62
     7
100
AcDbSpline
210
0.0
220
0.0
230
1.0
 70
    11
 71
     3
 72
    68
 73
    64
 74
     0
 42
0.0000000001
 43
0.0000000001
 12
1.0
 22
0.0
 32
0.0
 13
1.0
 23
0.0
 33
0.0
 40
0.0
 40
0.0
 40
0.0
 40
0.0
 40
0.0588235294117647
 40
0.0588235294117647
 40
0.0588235294117647
 40
0.0588235294117647
 40
0.1176470588235294
 40
0.1176470588235294
 40
0.1176470588235294
 40
0.1176470588235294
 40
0.1764705882352941
 40
0.1764705882352941
 40
0.1764705882352941
 40
0.1764705882352941
 40
0.2352941176470588
 40
0.2352941176470588
 40
0.2352941176470588
 40
0.2352941176470588
 40
0.2941176470588235
 40
0.2941176470588235
 40
0.2941176470588235
 40
0.2941176470588235
 40
0.3529411764705883
 40
0.3529411764705883
 40
0.3529411764705883
 40
0.3529411764705883
 40
0.4117647058823529
 40
0.4117647058823529
 40
0.4117647058823529
 40
0.4117647058823529
 40
0.4705882352941176
 40
0.4705882352941176
 40
0.4705882352941176
 40
0.4705882352941176
 40
0.5294117647058824
 40
0.5294117647058824
 40
0.5294117647058824
 40
0.5294117647058824
 40
0.5882352941176471
 40
0.5882352941176471
 40
0.5882352941176471
 40
0.5882352941176471
 40
0.6470588235294118
 40
0.6470588235294118
 40
0.6470588235294118
 40
0.6470588235294118
 40
0.7058823529411765
 40
0.7058823529411765
 40
0.7058823529411765
 40
0.7058823529411765
 40
0.7647058823529411
 40
0.7647058823529411
 40
0.7647058823529411
 40
0.7647058823529411
 40
0.8235294117647058
 40
0.8235294117647058
 40
0.8235294117647058
 40
0.8235294117647058
 40
0.8823529411764706
 40
0.8823529411764706
 40
0.8823529411764706
 40
0.8823529411764706
 40
1.0
 40
1.0
 40
1.0
 40
1.0
 10
-149.4496
 20
79.1541
 30
0.0
 10
-149.4496
 20
79.1541
 30
0.0
 10
-149.4496
 20
83.8681
 30
0.0
 10
-149.4496
 20
83.8681
 30
0.0
 10
-149.4496
 20
83.8681
 30
0.0
 10
-149.4496
 20
83.8681
 30
0.0
 10
-152.7133
 20
87.1317
 30
0.0
 10
-152.7133
 20
87.1317
 30
0.0
 10
-152.7133
 20
87.1317
 30
0.0
 10
-152.7133
 20
87.1317
 30
0.0
 10
-149.4496
 20
90.5163
 30
0.0
 10
-149.4496
 20
90.5163
 30
0.0
 10
-149.4496
 20
90.5163
 30
0.0
 10
-149.4496
 20
90.5163
 30
0.0
 10
-149.4496
 20
95.2303
 30
0.0
 10
-149.4496
 20
95.2303
 30
0.0
 10
-149.4496
 20
95.2303
 30
0.0
 10
-149.4496
 20
95.2303
 30
0.0
 10
-144.7357
 20
95.2303
 30
0.0
 10
-144.7357
 20
95.2303
 30
0.0
 10
-144.7357
 20
95.2303
 30
0.0
 10
-144.7357
 20
95.2303
 30
0.0
 10
-141.3511
 20
98.4939
 30
0.0
 10
-141.3511
 20
98.4939
 30
0.0
 10
-141.3511
 20
98.4939
 30
0.0
 10
-141.3511
 20
98.4939
 30
0.0
 10
-138.0875
 20
95.2303
 30
0.0
 10
-138.0875
 20
95.2303
 30
0.0
 10
-138.0875
 20
95.2303
 30
0.0
 10
-138.0875
 20
95.2303
 30
0.0
 10
-133.3735
 20
95.2303
 30
0.0
 10
-133.3735
 20
95.2303
 30
0.0
 10
-133.3735
 20
95.2303
 30
0.0
 10
-133.3735
 20
95.2303
 30
0.0
 10
-133.3735
 20
90.5163
 30
0.0
 10
-133.3735
 20
90.5163
 30
0.0
 10
-133.3735
 20
90.5163
 30
0.0
 10
-133.3735
 20
90.5163
 30
0.0
 10
-129.9889
 20
87.1317
 30
0.0
 10
-129.9889
 20
87.1317
 30
0.0
 10
-129.9889
 20
87.1317
 30
0.0
 10
-129.9889
 20
87.1317
 30
0.0
 10
-133.3735
 20
83.8681
 30
0.0
 10
-133.3735
 20
83.8681
 30
0.0
 10
-133.3735
 20
83.8681
 30
0.0
 10
-133.3735
 20
83.8681
 30
0.0
 10
-133.3735
 20
79.1541
 30
0.0
 10
-133.3735
 20
79.1541
 30
0.0
 10
-133.3735
 20
79.1541
 30
0.0
 10
-133.3735
 20
79.1541
 30
0.0
 10
-138.0875
 20
79.1541
 30
0.0
 10
-138.0875
 20
79.1541
 30
0.0
 10
-138.0875
 20
79.1541
 30
0.0
 10
-138.0875
 20
79.1541
 30
0.0
 10
-141.3511
 20
75.7696
 30
0.0
 10
-141.3511
 20
75.7696
 30
0.0
 10
-141.3511
 20
75.7696
 30
0.0
 10
-141.3511
 20
75.7696
 30
0.0
 10
-144.7357
 20
79.1541
 30
0.0
 10
-144.7357
 20
79.1541
 30
0.0
 10
-144.7357
 20
79.1541
 30
0.0
 10
-144.7357
 20
79.1541
 30
0.0
 10
-149.4496
 20
79.1541
 30
0.0
 10
-149.4496
 20
79.1541
 30
0.0
  0
SPLINE
  5
54
330
1F
100
AcDbEntity
  8
layer 1
 62
     7
100
AcDbSpline
210
0.0
220
0.0
230
1.0
 70
    11
 71
     3
 72
    68
 73
    64
 74
     0
 42
0.0000000001
 43
0.0000000001
 12
1.0
 22
0.0
 32
0.0
 13
1.0
 23
0.0
 33
0.0
 40
0.0
 40
0.0
 40
0.0
 40
0.0
 40
0.0588235294117647
 40
0.0588235294117647
 40
0.0588235294117647
 40
0.0588235294117647
 40
0.1176470588235294
 40
0.1176470588235294
 40
0.1176470588235294
 40
0.1176470588235294
 40
0.1764705882352941
 40
0.1764705882352941
 40
0.1764705882352941
 40
0.1764705882352941
 40
0.2352941176470588
 40
0.2352941176470588
 40
0.2352941176470588
 40
0.2352941176470588
 40
0.2941176470588235
 40
0.2941176470588235
 40
0.2941176470588235
 40
0.2941176470588235
 40
0.3529411764705883
 40
0.3529411764705883
 40
0.3529411764705883
 40
0.3529411764705883
 40
0.4117647058823529
 40
0.4117647058823529
 40
0.4117647058823529
 40
0.4117647058823529
 40
0.4705882352941176
 40
0.4705882352941176
 40
0.4705882352941176
 40
0.4705882352941176
 40
0.5294117647058824
 40
0.5294117647058824
 40
0.5294117647058824
 40
0.5294117647058824
 40
0.5882352941176471
 40
0.5882352941176471
 40
0.5882352941176471
 40
0.5882352941176471
 40
0.6470588235294118
 40
0.6470588235294118
 40
0.6470588235294118
 40
0.6470588235294118
 40
0.7058823529411765
 40
0.7058823529411765
 40
0.7058823529411765
 40
0.7058823529411765
 40
0.7647058823529411
 40
0.7647058823529411
 40
0.7647058823529411
 40
0.7647058823529411
 40
0.8235294117647058
 40
0.8235294117647058
 40
0.8235294117647058
 40
0.8235294117647058
 40
0.8823529411764706
 40
0.8823529411764706
 40
0.8823529411764706
 40
0.8823529411764706
 40
1.0
 40
1.0
 40
1.0
 40
1.0
 10
-135.0658
 20
67.792
 30
0.0
 10
-135.0658
 20
67.792
 30
0.0
 10
-138.8128
 20
71.4181
 30
0.0
 10
-138.8128
 20
71.4181
 30
0.0
 10
-138.8128
 20
71.4181
 30
0.0
 10
-138.8128
 20
71.4181
 30
0.0
 10
-135.0658
 20
75.0446
 30
0.0
 10
-135.0658
 20
75.0446
 30
0.0
 10
-135.0658
 20
75.0446
 30
0.0
 10
-135.0658
 20
75.0446
 30
0.0
 10
-129.2636
 20
75.0446
 30
0.0
 10
-129.2636
 20
75.0446
 30
0.0
 10
-129.2636
 20
75.0446
 30
0.0
 10
-129.2636
 20
75.0446
 30
0.0
 10
-129.2636
 20
80.9674
 30
0.0
 10
-129.2636
 20
80.9674
 30
0.0
 10
-129.2636
 20
80.9674
 30
0.0
 10
-129.2636
 20
80.9674
 30
0.0
 10
-125.6374
 20
84.5935
 30
0.0
 10
-125.6374
 20
84.5935
 30
0.0
 10
-125.6374
 20
84.5935
 30
0.0
 10
-125.6374
 20
84.5935
 30
0.0
 10
-122.0113
 20
80.9674
 30
0.0
 10
-122.0113
 20
80.9674
 30
0.0
 10
-122.0113
 20
80.9674
 30
0.0
 10
-122.0113
 20
80.9674
 30
0.0
 10
-122.0113
 20
75.0446
 30
0.0
 10
-122.0113
 20
75.0446
 30
0.0
 10
-122.0113
 20
75.0446
 30
0.0
 10
-122.0113
 20
75.0446
 30
0.0
 10
-116.0885
 20
75.0446
 30
0.0
 10
-116.0885
 20
75.0446
 30
0.0
 10
-116.0885
 20
75.0446
 30
0.0
 10
-116.0885
 20
75.0446
 30
0.0
 10
-112.583
 20
71.4181
 30
0.0
 10
-112.583
 20
71.4181
 30
0.0
 10
-112.583
 20
71.4181
 30
0.0
 10
-112.583
 20
71.4181
 30
0.0
 10
-116.0885
 20
67.792
 30
0.0
 10
-116.0885
 20
67.792
 30
0.0
 10
-116.0885
 20
67.792
 30
0.0
 10
-116.0885
 20
67.792
 30
0.0
 10
-122.0113
 20
67.792
 30
0.0
 10
-122.0113
 20
67.792
 30
0.0
 10
-122.0113
 20
67.792
 30
0.0
 10
-122.0113
 20
67.792
 30
0.0
 10
-122.0113
 20
61.9901
 30
0.0
 10
-122.0113
 20
61.9901
 30
0.0
 10
-122.0113
 20
61.9901
 30
0.0
 10
-122.0113
 20
61.9901
 30
0.0
 10
-125.6374
 20
58.2427
 30
0.0
 10
-125.6374
 20
58.2427
 30
0.0
 10
-125.6374
 20
58.2427
 30
0.0
 10
-125.6374
 20
58.2427
 30
0.0
 10
-129.2636
 20
61.9901
 30
0.0
 10
-129.2636
 20
61.9901
 30
0.0
 10
-129.2636
 20
61.9901
 30
0.0
 10
-129.2636
 20
61.9901
 30
0.0
 10
-129.2636
 20
67.792
 30
0.0
 10
-129.2636
 20
67.792
 30
0.0
 10
-129.2636
 20
67.792
 30
0.0
 10
-129.2636
 20
67.792
 30
0.0
 10
-135.0658
 20
67.792
 30
0.0
 10
-135.0658
 20
67.792
 30
0.0
  0
SPLINE
  5
55
330
1F
100
AcDbEntity
  8
layer 1
 62
     7
100
AcDbSpline
210
0.0
220
0.0
230
1.0
 70
    11
 71
     3
 72
    68
 73
    64
 74
     0
 42
0.0000000001
 43
0.0000000001
 12
1.0
 22
0.0
 32
0.0
 13
1.0
 23
0.0
 33
0.0
 40
0.0
 40
0.0
 40
0.0
 40
0.0
 40
0.0588235294117647
 40
0.0588235294117647
 40
0.0588235294117647
 40
0.0588235294117647
 40
0.1176470588235294
 40
0.1176470588235294
 40
0.1176470588235294
 40
0.1176470588235294
 40
0.1764705882352941
 40
0.1764705882352941
 40
0.1764705882352941
 40
0.1764705882352941
 40
0.2352941176470588
 40
0.2352941176470588
 40
0.2352941176470588
 40
0.2352941176470588
 40
0.2941176470588235
 40
0.2941176470588235
 40
0.2941176470588235
 40
0.2941176470588235
 40
0.3529411764705883
 40
0.3529411764705883
 40
0.3529411764705883
 40
0.3529411764705883
 40
0.4117647058823529
 40
0.4117647058823529
 40
0.4117647058823529
 40
0.4117647058823529
 40
0.4705882352941176
 40
0.4705882352941176
 40
0.4705882352941176
 40
0.4705882352941176
 40
0.5294117647058824
 40
0.5294117647058824
 40
0.5294117647058824
 40
0.5294117647058824
 40
0.5882352941176471
 40
0.5882352941176471
 40
0.5882352941176471
 40
0.5882352941176471
 40
0.6470588235294118
 40
0.6470588235294118
 40
0.6470588235294118
 40
0.6470588235294118
 40
0.7058823529411765
 40
0.7058823529411765
 40
0.7058823529411765
 40
0.7058823529411765
 40
0.7647058823529411
 40
0.7647058823529411
 40
0.7647058823529411
 40
0.7647058823529411
 40
0.8235294117647058
 40
0.8235294117647058
 40
0.8235294117647058
 40
0.8235294117647058
 40
0.8823529411764706
 40
0.8823529411764706
 40
0.8823529411764706
 40
0.8823529411764706
 40
1.0
 40
1.0
 40
1.0
 40
1.0
 10
-149.4496
 20
47.6059
 30
0.0
 10
-149.4496
 20
47.6059
 30
0.0
 10
-149.4496
 20
52.3199
 30
0.0
 10
-149.4496
 20
52.3199
 30
0.0
 10
-149.4496
 20
52.3199
 30
0.0
 10
-149.4496
 20
52.3199
 30
0.0
 10
-152.7133
 20
55.7044
 30
0.0
 10
-152.7133
 20
55.7044
 30
0.0
 10
-152.7133
 20
55.7044
 30
0.0
 10
-152.7133
 20
55.7044
 30
0.0
 10
-149.4496
 20
58.9681
 30
0.0
 10
-149.4496
 20
58.9681
 30
0.0
 10
-149.4496
 20
58.9681
 30
0.0
 10
-149.4496
 20
58.9681
 30
0.0
 10
-149.4496
 20
63.682
 30
0.0
 10
-149.4496
 20
63.682
 30
0.0
 10
-149.4496
 20
63.682
 30
0.0
 10
-149.4496
 20
63.682
 30
0.0
 10
-144.7357
 20
63.682
 30
0.0
 10
-144.7357
 20
63.682
 30
0.0
 10
-144.7357
 20
63.682
 30
0.0
 10
-144.7357
 20
63.682
 30
0.0
 10
-141.3511
 20
67.0666
 30
0.0
 10
-141.3511
 20
67.0666
 30
0.0
 10
-141.3511
 20
67.0666
 30
0.0
 10
-141.3511
 20
67.0666
 30
0.0
 10
-138.0875
 20
63.682
 30
0.0
 10
-138.0875
 20
63.682
 30
0.0
 10
-138.0875
 20
63.682
 30
0.0
 10
-138.0875
 20
63.682
 30
0.0
 10
-133.3735
 20
63.682
 30
0.0
 10
-133.3735
 20
63.682
 30
0.0
 10
-133.3735
 20
63.682
 30
0.0
 10
-133.3735
 20
63.682
 30
0.0
 10
-133.3735
 20
58.9681
 30
0.0
 10
-133.3735
 20
58.9681
 30
0.0
 10
-133.3735
 20
58.9681
 30
0.0
 10
-133.3735
 20
58.9681
 30
0.0
 10
-129.9889
 20
55.7044
 30
0.0
 10
-129.9889
 20
55.7044
 30
0.0
 10
-129.9889
 20
55.7044
 30
0.0
 10
-129.9889
 20
55.7044
 30
0.0
 10
-133.3735
 20
52.3199
 30
0.0
 10
-133.3735
 20
52.3199
 30
0.0
 10
-133.3735
 20
52.3199
 30
0.0
 10
-133.3735
 20
52.3199
 30
0.0
 10
-133.3735
 20
47.6059
 30
0.0
 10
-133.3735
 20
47.6059
 30
0.0
 10
-133.3735
 20
47.6059
 30
0.0
 10
-133.3735
 20
47.6059
 30
0.0
 10
-138.0875
 20
47.6059
 30
0.0
 10
-138.0875
 20
47.6059
 30
0.0
 10
-138.0875
 20
47.6059
 30
0.0
 10
-138.0875
 20
47.6059
 30
0.0
 10
-141.3511
 20
44.3423
 30
0.0
 10
-141.3511
 20
44.3423
 30
0.0
 10
-141.3511
 20
44.3423
 30
0.0
 10
-141.3511
 20
44.3423
 30
0.0
 10
-144.7357
 20
47.6059
 30
0.0
 10
-144.7357
 20
47.6059
 30
0.0
 10
-144.7357
 20
47.6059
 30
0.0
 10
-144.7357
 20
47.6059
 30
0.0
 10
-149.4496
 20
47.6059
 30
0.0
 10
-149.4496
 20
47.6059
 30
0.0
  0
SPLINE
  5
56
330
1F
100
AcDbEntity
  8
layer 1
 62
     7
100
AcDbSpline
210
0.0
220
0.0
230
1.0
 70
    11
 71
     3
 72
    68
 73
    64
 74
     0
 42
0.0000000001
 43
0.0000000001
 12
1.0
 22
0.0
 32
0.0
 13
1.0
 23
0.0
 33
0.0
 40
0.0
 40
0.0
 40
0.0
 40
0.0
 40
0.0588235294117647
 40
0.0588235294117647
 40
0.0588235294117647
 40
0.0588235294117647
 40
0.1176470588235294
 40
0.1176470588235294
 40
0.1176470588235294
 40
0.1176470588235294
 40
0.1764705882352941
 40
0.1764705882352941
 40
0.1764705882352941
 40
0.1764705882352941
 40
0.2352941176470588
 40
0.2352941176470588
 40
0.2352941176470588
 40
0.2352941176470588
 40
0.2941176470588235
 40
0.2941176470588235
 40
0.2941176470588235
 40
0.2941176470588235
 40
0.3529411764705883
 40
0.3529411764705883
 40
0.3529411764705883
 40
0.3529411764705883
 40
0.4117647058823529
 40
0.4117647058823529
 40
0.4117647058823529
 40
0.4117647058823529
 40
0.4705882352941176
 40
0.4705882352941176
 40
0.4705882352941176
 40
0.4705882352941176
 40
0.5294117647058824
 40
0.5294117647058824
 40
0.5294117647058824
 40
0.5294117647058824
 40
0.5882352941176471
 40
0.5882352941176471
 40
0.5882352941176471
 40
0.5882352941176471
 40
0.6470588235294118
 40
0.6470588235294118
 40
0.6470588235294118
 40
0.6470588235294118
 40
0.7058823529411765
 40
0.7058823529411765
 40
0.7058823529411765
 40
0.7058823529411765
 40
0.7647058823529411
 40
0.7647058823529411
 40
0.7647058823529411
 40
0.7647058823529411
 40
0.8235294117647058
 40
0.8235294117647058
 40
0.8235294117647058
 40
0.8235294117647058
 40
0.8823529411764706
 40
0.8823529411764706
 40
0.8823529411764706
 40
0.8823529411764706
 40
1.0
 40
1.0
 40
1.0
 40
1.0
 10
-135.0658
 20
36.2437
 30
0.0
 10
-135.0658
 20
36.2437
 30
0.0
 10
-138.8128
 20
39.9908
 30
0.0
 10
-138.8128
 20
39.9908
 30
0.0
 10
-138.8128
 20
39.9908
 30
0.0
 10
-138.8128
 20
39.9908
 30
0.0
 10
-135.0658
 20
43.6169
 30
0.0
 10
-135.0658
 20
43.6169
 30
0.0
 10
-135.0658
 20
43.6169
 30
0.0
 10
-135.0658
 20
43.6169
 30
0.0
 10
-129.2636
 20
43.6169
 30
0.0
 10
-129.2636
 20
43.6169
 30
0.0
 10
-129.2636
 20
43.6169
 30
0.0
 10
-129.2636
 20
43.6169
 30
0.0
 10
-129.2636
 20
49.4191
 30
0.0
 10
-129.2636
 20
49.4191
 30
0.0
 10
-129.2636
 20
49.4191
 30
0.0
 10
-129.2636
 20
49.4191
 30
0.0
 10
-125.6374
 20
53.0452
 30
0.0
 10
-125.6374
 20
53.0452
 30
0.0
 10
-125.6374
 20
53.0452
 30
0.0
 10
-125.6374
 20
53.0452
 30
0.0
 10
-122.0113
 20
49.4191
 30
0.0
 10
-122.0113
 20
49.4191
 30
0.0
 10
-122.0113
 20
49.4191
 30
0.0
 10
-122.0113
 20
49.4191
 30
0.0
 10
-122.0113
 20
43.6169
 30
0.0
 10
-122.0113
 20
43.6169
 30
0.0
 10
-122.0113
 20
43.6169
 30
0.0
 10
-122.0113
 20
43.6169
 30
0.0
 10
-116.0885
 20
43.6169
 30
0.0
 10
-116.0885
 20
43.6169
 30
0.0
 10
-116.0885
 20
43.6169
 30
0.0
 10
-116.0885
 20
43.6169
 30
0.0
 10
-112.583
 20
39.9908
 30
0.0
 10
-112.583
 20
39.9908
 30
0.0
 10
-112.583
 20
39.9908
 30
0.0
 10
-112.583
 20
39.9908
 30
0.0
 10
-116.0885
 20
36.2437
 30
0.0
 10
-116.0885
 20
36.2437
 30
0.0
 10
-116.0885
 20
36.2437
 30
0.0
 10
-116.0885
 20
36.2437
 30
0.0
 10
-122.0113
 20
36.2437
 30
0.0
 10
-122.0113
 20
36.2437
 30
0.0
 10
-122.0113
 20
36.2437
 30
0.0
 10
-122.0113
 20
36.2437
 30
0.0
 10
-122.0113
 20
30.4418
 30
0.0
 10
-122.0113
 20
30.4418
 30
0.0
 10
-122.0113
 20
30.4418
 30
0.0
 10
-122.0113
 20
30.4418
 30
0.0
 10
-125.6374
 20
26.8154
 30
0.0
 10
-125.6374
 20
26.8154
 30
0.0
 10
-125.6374
 20
26.8154
 30
0.0
 10
-125.6374
 20
26.8154
 30
0.0
 10
-129.2636
 20
30.4418
 30
0.0
 10
-129.2636
 20
30.4418
 30
0.0
 10
-129.2636
 20
30.4418
 30
0.0
 10
-129.2636
 20
30.4418
 30
0.0
 10
-129.2636
 20
36.2437
 30
0.0
 10
-129.2636
 20
36.2437
 30
0.0
 10
-129.2636
 20
36.2437
 30
0.0
 10
-129.2636
 20
36.2437
 30
0.0
 10
-135.0658
 20
36.2437
 30
0.0
 10
-135.0658
 20
36.2437
 30
0.0
  0
SPLINE
  5
57
330
1F
100
AcDbEntity
  8
layer 1
 62
     7
100
AcDbSpline
210
0.0
220
0.0
230
1.0
 70
    11
 71
     3
 72
    68
 73
    64
 74
     0
 42
0.0000000001
 43
0.0000000001
 12
1.0
 22
0.0
 32
0.0
 13
1.0
 23
0.0
 33
0.0
 40
0.0
 40
0.0
 40
0.0
 40
0.0
 40
0.0588235294117647
 40
0.0588235294117647
 40
0.0588235294117647
 40
0.0588235294117647
 40
0.1176470588235294
 40
0.1176470588235294
 40
0.1176470588235294
 40
0.1176470588235294
 40
0.1764705882352941
 40
0.1764705882352941
 40
0.1764705882352941
 40
0.1764705882352941
 40
0.2352941176470588
 40
0.2352941176470588
 40
0.2352941176470588
 40
0.2352941176470588
 40
0.2941176470588235
 40
0.2941176470588235
 40
0.2941176470588235
 40
0.2941176470588235
 40
0.3529411764705883
 40
0.3529411764705883
 40
0.3529411764705883
 40
0.3529411764705883
 40
0.4117647058823529
 40
0.4117647058823529
 40
0.4117647058823529
 40
0.4117647058823529
 40
0.4705882352941176
 40
0.4705882352941176
 40
0.4705882352941176
 40
0.4705882352941176
 40
0.5294117647058824
 40
0.5294117647058824
 40
0.5294117647058824
 40
0.5294117647058824
 40
0.5882352941176471
 40
0.5882352941176471
 40
0.5882352941176471
 40
0.5882352941176471
 40
0.6470588235294118
 40
0.6470588235294118
 40
0.6470588235294118
 40
0.6470588235294118
 40
0.7058823529411765
 40
0.7058823529411765
 40
0.7058823529411765
 40
0.7058823529411765
 40
0.7647058823529411
 40
0.7647058823529411
 40
0.7647058823529411
 40
0.7647058823529411
 40
0.8235294117647058
 40
0.8235294117647058
 40
0.8235294117647058
 40
0.8235294117647058
 40
0.8823529411764706
 40
0.8823529411764706
 40
0.8823529411764706
 40
0.8823529411764706
 40
1.0
 40
1.0
 40
1.0
 40
1.0
 10
-149.4496
 20
16.1786
 30
0.0
 10
-149.4496
 20
16.1786
 30
0.0
 10
-149.4496
 20
20.8926
 30
0.0
 10
-149.4496
 20
20.8926
 30
0.0
 10
-149.4496
 20
20.8926
 30
0.0
 10
-149.4496
 20
20.8926
 30
0.0
 10
-152.7133
 20
24.1562
 30
0.0
 10
-152.7133
 20
24.1562
 30
0.0
 10
-152.7133
 20
24.1562
 30
0.0
 10
-152.7133
 20
24.1562
 30
0.0
 10
-149.4496
 20
27.5407
 30
0.0
 10
-149.4496
 20
27.5407
 30
0.0
 10
-149.4496
 20
27.5407
 30
0.0
 10
-149.4496
 20
27.5407
 30
0.0
 10
-149.4496
 20
32.2547
 30
0.0
 10
-149.4496
 20
32.2547
 30
0.0
 10
-149.4496
 20
32.2547
 30
0.0
 10
-149.4496
 20
32.2547
 30
0.0
 10
-144.7357
 20
32.2547
 30
0.0
 10
-144.7357
 20
32.2547
 30
0.0
 10
-144.7357
 20
32.2547
 30
0.0
 10
-144.7357
 20
32.2547
 30
0.0
 10
-141.3511
 20
35.5184
 30
0.0
 10
-141.3511
 20
35.5184
 30
0.0
 10
-141.3511
 20
35.5184
 30
0.0
 10
-141.3511
 20
35.5184
 30
0.0
 10
-138.0875
 20
32.2547
 30
0.0
 10
-138.0875
 20
32.2547
 30
0.0
 10
-138.0875
 20
32.2547
 30
0.0
 10
-138.0875
 20
32.2547
 30
0.0
 10
-133.3735
 20
32.2547
 30
0.0
 10
-133.3735
 20
32.2547
 30
0.0
 10
-133.3735
 20
32.2547
 30
0.0
 10
-133.3735
 20
32.2547
 30
0.0
 10
-133.3735
 20
27.5407
 30
0.0
 10
-133.3735
 20
27.5407
 30
0.0
 10
-133.3735
 20
27.5407
 30
0.0
 10
-133.3735
 20
27.5407
 30
0.0
 10
-129.9889
 20
24.1562
 30
0.0
 10
-129.9889
 20
24.1562
 30
0.0
 10
-129.9889
 20
24.1562
 30
0.0
 10
-129.9889
 20
24.1562
 30
0.0
 10
-133.3735
 20
20.8926
 30
0.0
 10
-133.3735
 20
20.8926
 30
0.0
 10
-133.3735
 20
20.8926
 30
0.0
 10
-133.3735
 20
20.8926
 30
0.0
 10
-133.3735
 20
16.1786
 30
0.0
 10
-133.3735
 20
16.1786
 30
0.0
 10
-133.3735
 20
16.1786
 30
0.0
 10
-133.3735
 20
16.1786
 30
0.0
 10
-138.0875
 20
16.1786
 30
0.0
 10
-138.0875
 20
16.1786
 30
0.0
 10
-138.0875
 20
16.1786
 30
0.0
 10
-138.0875
 20
16.1786
 30
0.0
 10
-141.3511
 20
12.794
 30
0.0
 10
-141.3511
 20
12.794
 30
0.0
 10
-141.3511
 20
12.794
 30
0.0
 10
-141.3511
 20
12.794
 30
0.0
 10
-144.7357
 20
16.1786
 30
0.0
 10
-144.7357
 20
16.1786
 30
0.0
 10
-144.7357
 20
16.1786
 30
0.0
 10
-144.7357
 20
16.1786
 30
0.0
 10
-149.4496
 20
16.1786
 30
0.0
 10
-149.4496
 20
16.1786
 30
0.0
  0
SPLINE
  5
58
330
1F
100
AcDbEntity
  8
layer 1
 62
     7
100
AcDbSpline
210
0.0
220
0.0
230
1.0
 70
    11
 71
     3
 72
    68
 73
    64
 74
     0
 42
0.0000000001
 43
0.0000000001
 12
1.0
 22
0.0
 32
0.0
 13
1.0
 23
0.0
 33
0.0
 40
0.0
 40
0.0
 40
0.0
 40
0.0
 40
0.0588235294117647
 40
0.0588235294117647
 40
0.0588235294117647
 40
0.0588235294117647
 40
0.1176470588235294
 40
0.1176470588235294
 40
0.1176470588235294
 40
0.1176470588235294
 40
0.1764705882352941
 40
0.1764705882352941
 40
0.1764705882352941
 40
0.1764705882352941
 40
0.2352941176470588
 40
0.2352941176470588
 40
0.2352941176470588
 40
0.2352941176470588
 40
0.2941176470588235
 40
0.2941176470588235
 40
0.2941176470588235
 40
0.2941176470588235
 40
0.3529411764705883
 40
0.3529411764705883
 40
0.3529411764705883
 40
0.3529411764705883
 40
0.4117647058823529
 40
0.4117647058823529
 40
0.4117647058823529
 40
0.4117647058823529
 40
0.4705882352941176
 40
0.4705882352941176
 40
0.4705882352941176
 40
0.4705882352941176
 40
0.5294117647058824
 40
0.5294117647058824
 40
0.5294117647058824
 40
0.5294117647058824
 40
0.5882352941176471
 40
0.5882352941176471
 40
0.5882352941176471
 40
0.5882352941176471
 40
0.6470588235294118
 40
0.6470588235294118
 40
0.6470588235294118
 40
0.6470588235294118
 40
0.7058823529411765
 40
0.7058823529411765
 40
0.7058823529411765
 40
0.7058823529411765
 40
0.7647058823529411
 40
0.7647058823529411
 40
0.7647058823529411
 40
0.7647058823529411
 40
0.8235294117647058
 40
0.8235294117647058
 40
0.8235294117647058
 40
0.8235294117647058
 40
0.8823529411764706
 40
0.8823529411764706
 40
0.8823529411764706
 40
0.8823529411764706
 40
1.0
 40
1.0
 40
1.0
 40
1.0
 10
-135.0658
 20
4.8164
 30
0.0
 10
-135.0658
 20
4.8164
 30
0.0
 10
-138.8128
 20
8.4425
 30
0.0
 10
-138.8128
 20
8.4425
 30
0.0
 10
-138.8128
 20
8.4425
 30
0.0
 10
-138.8128
 20
8.4425
 30
0.0
 10
-135.0658
 20
12.0687
 30
0.0
 10
-135.0658
 20
12.0687
 30
0.0
 10
-135.0658
 20
12.0687
 30
0.0
 10
-135.0658
 20
12.0687
 30
0.0
 10
-129.2636
 20
12.0687
 30
0.0
 10
-129.2636
 20
12.0687
 30
0.0
 10
-129.2636
 20
12.0687
 30
0.0
 10
-129.2636
 20
12.0687
 30
0.0
 10
-129.2636
 20
17.9915
 30
0.0
 10
-129.2636
 20
17.9915
 30
0.0
 10
-129.2636
 20
17.9915
 30
0.0
 10
-129.2636
 20
17.9915
 30
0.0
 10
-125.6374
 20
21.6179
 30
0.0
 10
-125.6374
 20
21.6179
 30
0.0
 10
-125.6374
 20
21.6179
 30
0.0
 10
-125.6374
 20
21.6179
 30
0.0
 10
-122.0113
 20
17.9915
 30
0.0
 10
-122.0113
 20
17.9915
 30
0.0
 10
-122.0113
 20
17.9915
 30
0.0
 10
-122.0113
 20
17.9915
 30
0.0
 10
-122.0113
 20
12.0687
 30
0.0
 10
-122.0113
 20
12.0687
 30
0.0
 10
-122.0113
 20
12.0687
 30
0.0
 10
-122.0113
 20
12.0687
 30
0.0
 10
-116.0885
 20
12.0687
 30
0.0
 10
-116.0885
 20
12.0687
 30
0.0
 10
-116.0885
 20
12.0687
 30
0.0
 10
-116.0885
 20
12.0687
 30
0.0
 10
-112.583
 20
8.4425
 30
0.0
 10
-112.583
 20
8.4425
 30
0.0
 10
-112.583
 20
8.4425
 30
0.0
 10
-112.583
 20
8.4425
 30
0.0
 10
-116.0885
 20
4.8164
 30
0.0
 10
-116.0885
 20
4.8164
 30
0.0
 10
-116.0885
 20
4.8164
 30
0.0
 10
-116.0885
 20
4.8164
 30
0.0
 10
-122.0113
 20
4.8164
 30
0.0
 10
-122.0113
 20
4.8164
 30
0.0
 10
-122.0113
 20
4.8164
 30
0.0
 10
-122.0113
 20
4.8164
 30
0.0
 10
-122.0113
 20
-0.9858
 30
0.0
 10
-122.0113
 20
-0.9858
 30
0.0
 10
-122.0113
 20
-0.9858
 30
0.0
 10
-122.0113
 20
-0.9858
 30
0.0
 10
-125.6374
 20
-4.7329
 30
0.0
 10
-125.6374
 20
-4.7329
 30
0.0
 10
-125.6374
 20
-4.7329
 30
0.0
 10
-125.6374
 20
-4.7329
 30
0.0
 10
-129.2636
 20
-0.9858
 30
0.0
 10
-129.2636
 20
-0.9858
 30
0.0
 10
-129.2636
 20
-0.9858
 30
0.0
 10
-129.2636
 20
-0.9858
 30
0.0
 10
-129.2636
 20
4.8164
 30
0.0
 10
-129.2636
 20
4.8164
 30
0.0
 10
-129.2636
 20
4.8164
 30
0.0
 10
-129.2636
 20
4.8164
 30
0.0
 10
-135.0658
 20
4.8164
 30
0.0
 10
-135.0658
 20
4.8164
 30
0.0
  0
SPLINE
  5
59
330
1F
100
AcDbEntity
  8
layer 1
 62
     7
100
AcDbSpline
210
0.0
220
0.0
230
1.0
 70
    11
 71
     3
 72
    68
 73
    64
 74
     0
 42
0.0000000001
 43
0.0000000001
 12
1.0
 22
0.0
 32
0.0
 13
1.0
 23
0.0
 33
0.0
 40
0.0
 40
0.0
 40
0.0
 40
0.0
 40
0.0588235294117647
 40
0.0588235294117647
 40
0.0588235294117647
 40
0.0588235294117647
 40
0.1176470588235294
 40
0.1176470588235294
 40
0.1176470588235294
 40
0.1176470588235294
 40
0.1764705882352941
 40
0.1764705882352941
 40
0.1764705882352941
 40
0.1764705882352941
 40
0.2352941176470588
 40
0.2352941176470588
 40
0.2352941176470588
 40
0.2352941176470588
 40
0.2941176470588235
 40
0.2941176470588235
 40
0.2941176470588235
 40
0.2941176470588235
 40
0.3529411764705883
 40
0.3529411764705883
 40
0.3529411764705883
 40
0.3529411764705883
 40
0.4117647058823529
 40
0.4117647058823529
 40
0.4117647058823529
 40
0.4117647058823529
 40
0.4705882352941176
 40
0.4705882352941176
 40
0.4705882352941176
 40
0.4705882352941176
 40
0.5294117647058824
 40
0.5294117647058824
 40
0.5294117647058824
 40
0.5294117647058824
 40
0.5882352941176471
 40
0.5882352941176471
 40
0.5882352941176471
 40
0.5882352941176471
 40
0.6470588235294118
 40
0.6470588235294118
 40
0.6470588235294118
 40
0.6470588235294118
 40
0.7058823529411765
 40
0.7058823529411765
 40
0.7058823529411765
 40
0.7058823529411765
 40
0.7647058823529411
 40
0.7647058823529411
 40
0.7647058823529411
 40
0.7647058823529411
 40
0.8235294117647058
 40
0.8235294117647058
 40
0.8235294117647058
 40
0.8235294117647058
 40
0.8823529411764706
 40
0.8823529411764706
 40
0.8823529411764706
 40
0.8823529411764706
 40
1.0
 40
1.0
 40
1.0
 40
1.0
 10
-149.4496
 20
-15.3697
 30
0.0
 10
-149.4496
 20
-15.3697
 30
0.0
 10
-149.4496
 20
-10.6557
 30
0.0
 10
-149.4496
 20
-10.6557
 30
0.0
 10
-149.4496
 20
-10.6557
 30
0.0
 10
-149.4496
 20
-10.6557
 30
0.0
 10
-152.7133
 20
-7.2711
 30
0.0
 10
-152.7133
 20
-7.2711
 30
0.0
 10
-152.7133
 20
-7.2711
 30
0.0
 10
-152.7133
 20
-7.2711
 30
0.0
 10
-149.4496
 20
-4.0075
 30
0.0
 10
-149.4496
 20
-4.0075
 30
0.0
 10
-149.4496
 20
-4.0075
 30
0.0
 10
-149.4496
 20
-4.0075
 30
0.0
 10
-149.4496
 20
0.7065
 30
0.0
 10
-149.4496
 20
0.7065
 30
0.0
 10
-149.4496
 20
0.7065
 30
0.0
 10
-149.4496
 20
0.7065
 30
0.0
 10
-144.7357
 20
0.7065
 30
0.0
 10
-144.7357
 20
0.7065
 30
0.0
 10
-144.7357
 20
0.7065
 30
0.0
 10
-144.7357
 20
0.7065
 30
0.0
 10
-141.3511
 20
4.091
 30
0.0
 10
-141.3511
 20
4.091
 30
0.0
 10
-141.3511
 20
4.091
 30
0.0
 10
-141.3511
 20
4.091
 30
0.0
 10
-138.0875
 20
0.7065
 30
0.0
 10
-138.0875
 20
0.7065
 30
0.0
 10
-138.0875
 20
0.7065
 30
0.0
 10
-138.0875
 20
0.7065
 30
0.0
 10
-133.3735
 20
0.7065
 30
0.0
 10
-133.3735
 20
0.7065
 30
0.0
 10
-133.3735
 20
0.7065
 30
0.0
 10
-133.3735
 20
0.7065
 30
0.0
 10
-133.3735
 20
-4.0075
 30
0.0
 10
-133.3735
 20
-4.0075
 30
0.0
 10
-133.3735
 20
-4.0075
 30
0.0
 10
-133.3735
 20
-4.0075
 30
0.0
 10
-129.9889
 20
-7.2711
 30
0.0
 10
-129.9889
 20
-7.2711
 30
0.0
 10
-129.9889
 20
-7.2711
 30
0.0
 10
-129.9889
 20
-7.2711
 30
0.0
 10
-133.3735
 20
-10.6557
 30
0.0
 10
-133.3735
 20
-10.6557
 30
0.0
 10
-133.3735
 20
-10.6557
 30
0.0
 10
-133.3735
 20
-10.6557
 30
0.0
 10
-133.3735
 20
-15.3697
 30
0.0
 10
-133.3735
 20
-15.3697
 30
0.0
 10
-133.3735
 20
-15.3697
 30
0.0
 10
-133.3735
 20
-15.3697
 30
0.0
 10
-138.0875
 20
-15.3697
 30
0.0
 10
-138.0875
 20
-15.3697
 30
0.0
 10
-138.0875
 20
-15.3697
 30
0.0
 10
-138.0875
 20
-15.3697
 30
0.0
 10
-141.3511
 20
-18.6333
 30
0.0
 10
-141.3511
 20
-18.6333
 30
0.0
 10
-141.3511
 20
-18.6333
 30
0.0
 10
-141.3511
 20
-18.6333
 30
0.0
 10
-144.7357
 20
-15.3697
 30
0.0
 10
-144.7357
 20
-15.3697
 30
0.0
 10
-144.7357
 20
-15.3697
 30
0.0
 10
-144.7357
 20
-15.3697
 30
0.0
 10
-149.4496
 20
-15.3697
 30
0.0
 10
-149.4496
 20
-15.3697
 30
0.0
  0
SPLINE
  5
5A
330
1F
100
AcDbEntity
  8
layer 1
 62
     7
100
AcDbSpline
210
0.0
220
0.0
230
1.0
 70
    11
 71
     3
 72
    68
 73
    64
 74
     0
 42
0.0000000001
 43
0.0000000001
 12
1.0
 22
0.0
 32
0.0
 13
1.0
 23
0.0
 33
0.0
 40
0.0
 40
0.0
 40
0.0
 40
0.0
 40
0.0588235294117647
 40
0.0588235294117647
 40
0.0588235294117647
 40
0.0588235294117647
 40
0.1176470588235294
 40
0.1176470588235294
 40
0.1176470588235294
 40
0.1176470588235294
 40
0.1764705882352941
 40
0.1764705882352941
 40
0.1764705882352941
 40
0.1764705882352941
 40
0.2352941176470588
 40
0.2352941176470588
 40
0.2352941176470588
 40
0.2352941176470588
 40
0.2941176470588235
 40
0.2941176470588235
 40
0.2941176470588235
 40
0.2941176470588235
 40
0.3529411764705883
 40
0.3529411764705883
 40
0.3529411764705883
 40
0.3529411764705883
 40
0.4117647058823529
 40
0.4117647058823529
 40
0.4117647058823529
 40
0.4117647058823529
 40
0.4705882352941176
 40
0.4705882352941176
 40
0.4705882352941176
 40
0.4705882352941176
 40
0.5294117647058824
 40
0.5294117647058824
 40
0.5294117647058824
 40
0.5294117647058824
 40
0.5882352941176471
 40
0.5882352941176471
 40
0.5882352941176471
 40
0.5882352941176471
 40
0.6470588235294118
 40
0.6470588235294118
 40
0.6470588235294118
 40
0.6470588235294118
 40
0.7058823529411765
 40
0.7058823529411765
 40
0.7058823529411765
 40
0.7058823529411765
 40
0.7647058823529411
 40
0.7647058823529411
 40
0.7647058823529411
 40
0.7647058823529411
 40
0.8235294117647058
 40
0.8235294117647058
 40
0.8235294117647058
 40
0.8235294117647058
 40
0.8823529411764706
 40
0.8823529411764706
 40
0.8823529411764706
 40
0.8823529411764706
 40
1.0
 40
1.0
 40
1.0
 40
1.0
 10
-135.0658
 20
-26.7319
 30
0.0
 10
-135.0658
 20
-26.7319
 30
0.0
 10
-138.8128
 20
-23.1057
 30
0.0
 10
-138.8128
 20
-23.1057
 30
0.0
 10
-138.8128
 20
-23.1057
 30
0.0
 10
-138.8128
 20
-23.1057
 30
0.0
 10
-135.0658
 20
-19.3587
 30
0.0
 10
-135.0658
 20
-19.3587
 30
0.0
 10
-135.0658
 20
-19.3587
 30
0.0
 10
-135.0658
 20
-19.3587
 30
0.0
 10
-129.2636
 20
-19.3587
 30
0.0
 10
-129.2636
 20
-19.3587
 30
0.0
 10
-129.2636
 20
-19.3587
 30
0.0
 10
-129.2636
 20
-19.3587
 30
0.0
 10
-129.2636
 20
-13.5568
 30
0.0
 10
-129.2636
 20
-13.5568
 30
0.0
 10
-129.2636
 20
-13.5568
 30
0.0
 10
-129.2636
 20
-13.5568
 30
0.0
 10
-125.6374
 20
-9.9303
 30
0.0
 10
-125.6374
 20
-9.9303
 30
0.0
 10
-125.6374
 20
-9.9303
 30
0.0
 10
-125.6374
 20
-9.9303
 30
0.0
 10
-122.0113
 20
-13.5568
 30
0.0
 10
-122.0113
 20
-13.5568
 30
0.0
 10
-122.0113
 20
-13.5568
 30
0.0
 10
-122.0113
 20
-13.5568
 30
0.0
 10
-122.0113
 20
-19.3587
 30
0.0
 10
-122.0113
 20
-19.3587
 30
0.0
 10
-122.0113
 20
-19.3587
 30
0.0
 10
-122.0113
 20
-19.3587
 30
0.0
 10
-116.0885
 20
-19.3587
 30
0.0
 10
-116.0885
 20
-19.3587
 30
0.0
 10
-116.0885
 20
-19.3587
 30
0.0
 10
-116.0885
 20
-19.3587
 30
0.0
 10
-112.583
 20
-23.1057
 30
0.0
 10
-112.583
 20
-23.1057
 30
0.0
 10
-112.583
 20
-23.1057
 30
0.0
 10
-112.583
 20
-23.1057
 30
0.0
 10
-116.0885
 20
-26.7319
 30
0.0
 10
-116.0885
 20
-26.7319
 30
0.0
 10
-116.0885
 20
-26.7319
 30
0.0
 10
-116.0885
 20
-26.7319
 30
0.0
 10
-122.0113
 20
-26.7319
 30
0.0
 10
-122.0113
 20
-26.7319
 30
0.0
 10
-122.0113
 20
-26.7319
 30
0.0
 10
-122.0113
 20
-26.7319
 30
0.0
 10
-122.0113
 20
-32.5341
 30
0.0
 10
-122.0113
 20
-32.5341
 30
0.0
 10
-122.0113
 20
-32.5341
 30
0.0
 10
-122.0113
 20
-32.5341
 30
0.0
 10
-125.6374
 20
-36.1602
 30
0.0
 10
-125.6374
 20
-36.1602
 30
0.0
 10
-125.6374
 20
-36.1602
 30
0.0
 10
-125.6374
 20
-36.1602
 30
0.0
 10
-129.2636
 20
-32.5341
 30
0.0
 10
-129.2636
 20
-32.5341
 30
0.0
 10
-129.2636
 20
-32.5341
 30
0.0
 10
-129.2636
 20
-32.5341
 30
0.0
 10
-129.2636
 20
-26.7319
 30
0.0
 10
-129.2636
 20
-26.7319
 30
0.0
 10
-129.2636
 20
-26.7319
 30
0.0
 10
-129.2636
 20
-26.7319
 30
0.0
 10
-135.0658
 20
-26.7319
 30
0.0
 10
-135.0658
 20
-26.7319
 30
0.0
  0
SPLINE
  5
5B
330
1F
100
AcDbEntity
  8
layer 1
 62
     7
100
AcDbSpline
210
0.0
220
0.0
230
1.0
 70
    11
 71
     3
 72
    68
 73
    64
 74
     0
 42
0.0000000001
 43
0.0000000001
 12
1.0
 22
0.0
 32
0.0
 13
1.0
 23
0.0
 33
0.0
 40
0.0
 40
0.0
 40
0.0
 40
0.0
 40
0.0588235294117647
 40
0.0588235294117647
 40
0.0588235294117647
 40
0.0588235294117647
 40
0.1176470588235294
 40
0.1176470588235294
 40
0.1176470588235294
 40
0.1176470588235294
 40
0.1764705882352941
 40
0.1764705882352941
 40
0.1764705882352941
 40
0.1764705882352941
 40
0.2352941176470588
 40
0.2352941176470588
 40
0.2352941176470588
 40
0.2352941176470588
 40
0.2941176470588235
 40
0.2941176470588235
 40
0.2941176470588235
 40
0.2941176470588235
 40
0.3529411764705883
 40
0.3529411764705883
 40
0.3529411764705883
 40
0.3529411764705883
 40
0.4117647058823529
 40
0.4117647058823529
 40
0.4117647058823529
 40
0.4117647058823529
 40
0.4705882352941176
 40
0.4705882352941176
 40
0.4705882352941176
 40
0.4705882352941176
 40
0.5294117647058824
 40
0.5294117647058824
 40
0.5294117647058824
 40
0.5294117647058824
 40
0.5882352941176471
 40
0.5882352941176471
 40
0.5882352941176471
 40
0.5882352941176471
 40
0.6470588235294118
 40
0.6470588235294118
 40
0.6470588235294118
 40
0.6470588235294118
 40
0.7058823529411765
 40
0.7058823529411765
 40
0.7058823529411765
 40
0.7058823529411765
 40
0.7647058823529411
 40
0.7647058823529411
 40
0.7647058823529411
 40
0.7647058823529411
 40
0.8235294117647058
 40
0.8235294117647058
 40
0.8235294117647058
 40
0.8235294117647058
 40
0.8823529411764706
 40
0.8823529411764706
 40
0.8823529411764706
 40
0.8823529411764706
 40
1.0
 40
1.0
 40
1.0
 40
1.0
 10
-149.4496
 20
-46.797
 30
0.0
 10
-149.4496
 20
-46.797
 30
0.0
 10
-149.4496
 20
-42.083
 30
0.0
 10
-149.4496
 20
-42.083
 30
0.0
 10
-149.4496
 20
-42.083
 30
0.0
 10
-149.4496
 20
-42.083
 30
0.0
 10
-152.7133
 20
-38.8194
 30
0.0
 10
-152.7133
 20
-38.8194
 30
0.0
 10
-152.7133
 20
-38.8194
 30
0.0
 10
-152.7133
 20
-38.8194
 30
0.0
 10
-149.4496
 20
-35.4348
 30
0.0
 10
-149.4496
 20
-35.4348
 30
0.0
 10
-149.4496
 20
-35.4348
 30
0.0
 10
-149.4496
 20
-35.4348
 30
0.0
 10
-149.4496
 20
-30.7208
 30
0.0
 10
-149.4496
 20
-30.7208
 30
0.0
 10
-149.4496
 20
-30.7208
 30
0.0
 10
-149.4496
 20
-30.7208
 30
0.0
 10
-144.7357
 20
-30.7208
 30
0.0
 10
-144.7357
 20
-30.7208
 30
0.0
 10
-144.7357
 20
-30.7208
 30
0.0
 10
-144.7357
 20
-30.7208
 30
0.0
 10
-141.3511
 20
-27.4572
 30
0.0
 10
-141.3511
 20
-27.4572
 30
0.0
 10
-141.3511
 20
-27.4572
 30
0.0
 10
-141.3511
 20
-27.4572
 30
0.0
 10
-138.0875
 20
-30.7208
 30
0.0
 10
-138.0875
 20
-30.7208
 30
0.0
 10
-138.0875
 20
-30.7208
 30
0.0
 10
-138.0875
 20
-30.7208
 30
0.0
 10
-133.3735
 20
-30.7208
 30
0.0
 10
-133.3735
 20
-30.7208
 30
0.0
 10
-133.3735
 20
-30.7208
 30
0.0
 10
-133.3735
 20
-30.7208
 30
0.0
 10
-133.3735
 20
-35.4348
 30
0.0
 10
-133.3735
 20
-35.4348
 30
0.0
 10
-133.3735
 20
-35.4348
 30
0.0
 10
-133.3735
 20
-35.4348
 30
0.0
 10
-129.9889
 20
-38.8194
 30
0.0
 10
-129.9889
 20
-38.8194
 30
0.0
 10
-129.9889
 20
-38.8194
 30
0.0
 10
-129.9889
 20
-38.8194
 30
0.0
 10
-133.3735
 20
-42.083
 30
0.0
 10
-133.3735
 20
-42.083
 30
0.0
 10
-133.3735
 20
-42.083
 30
0.0
 10
-133.3735
 20
-42.083
 30
0.0
 10
-133.3735
 20
-46.797
 30
0.0
 10
-133.3735
 20
-46.797
 30
0.0
 10
-133.3735
 20
-46.797
 30
0.0
 10
-133.3735
 20
-46.797
 30
0.0
 10
-138.0875
 20
-46.797
 30
0.0
 10
-138.0875
 20
-46.797
 30
0.0
 10
-138.0875
 20
-46.797
 30
0.0
 10
-138.0875
 20
-46.797
 30
0.0
 10
-141.3511
 20
-50.1816
 30
0.0
 10
-141.3511
 20
-50.1816
 30
0.0
 10
-141.3511
 20
-50.1816
 30
0.0
 10
-141.3511
 20
-50.1816
 30
0.0
 10
-144.7357
 20
-46.797
 30
0.0
 10
-144.7357
 20
-46.797
 30
0.0
 10
-144.7357
 20
-46.797
 30
0.0
 10
-144.7357
 20
-46.797
 30
0.0
 10
-149.4496
 20
-46.797
 30
0.0
 10
-149.4496
 20
-46.797
 30
0.0
  0
SPLINE
  5
5C
330
1F
100
AcDbEntity
  8
layer 1
 62
     7
100
AcDbSpline
210
0.0
220
0.0
230
1.0
 70
    11
 71
     3
 72
    68
 73
    64
 74
     0
 42
0.0000000001
 43
0.0000000001
 12
1.0
 22
0.0
 32
0.0
 13
1.0
 23
0.0
 33
0.0
 40
0.0
 40
0.0
 40
0.0
 40
0.0
 40
0.0588235294117647
 40
0.0588235294117647
 40
0.0588235294117647
 40
0.0588235294117647
 40
0.1176470588235294
 40
0.1176470588235294
 40
0.1176470588235294
 40
0.1176470588235294
 40
0.1764705882352941
 40
0.1764705882352941
 40
0.1764705882352941
 40
0.1764705882352941
 40
0.2352941176470588
 40
0.2352941176470588
 40
0.2352941176470588
 40
0.2352941176470588
 40
0.2941176470588235
 40
0.2941176470588235
 40
0.2941176470588235
 40
0.2941176470588235
 40
0.3529411764705883
 40
0.3529411764705883
 40
0.3529411764705883
 40
0.3529411764705883
 40
0.4117647058823529
 40
0.4117647058823529
 40
0.4117647058823529
 40
0.4117647058823529
 40
0.4705882352941176
 40
0.4705882352941176
 40
0.4705882352941176
 40
0.4705882352941176
 40
0.5294117647058824
 40
0.5294117647058824
 40
0.5294117647058824
 40
0.5294117647058824
 40
0.5882352941176471
 40
0.5882352941176471
 40
0.5882352941176471
 40
0.5882352941176471
 40
0.6470588235294118
 40
0.6470588235294118
 40
0.6470588235294118
 40
0.6470588235294118
 40
0.7058823529411765
 40
0.7058823529411765
 40
0.7058823529411765
 40
0.7058823529411765
 40
0.7647058823529411
 40
0.7647058823529411
 40
0.7647058823529411
 40
0.7647058823529411
 40
0.8235294117647058
 40
0.8235294117647058
 40
0.8235294117647058
 40
0.8235294117647058
 40
0.8823529411764706
 40
0.8823529411764706
 40
0.8823529411764706
 40
0.8823529411764706
 40
1.0
 40
1.0
 40
1.0
 40
1.0
 10
-135.0658
 20
-58.1595
 30
0.0
 10
-135.0658
 20
-58.1595
 30
0.0
 10
-138.8128
 20
-54.533
 30
0.0
 10
-138.8128
 20
-54.533
 30
0.0
 10
-138.8128
 20
-54.533
 30
0.0
 10
-138.8128
 20
-54.533
 30
0.0
 10
-135.0658
 20
-50.9069
 30
0.0
 10
-135.0658
 20
-50.9069
 30
0.0
 10
-135.0658
 20
-50.9069
 30
0.0
 10
-135.0658
 20
-50.9069
 30
0.0
 10
-129.2636
 20
-50.9069
 30
0.0
 10
-129.2636
 20
-50.9069
 30
0.0
 10
-129.2636
 20
-50.9069
 30
0.0
 10
-129.2636
 20
-50.9069
 30
0.0
 10
-129.2636
 20
-44.9841
 30
0.0
 10
-129.2636
 20
-44.9841
 30
0.0
 10
-129.2636
 20
-44.9841
 30
0.0
 10
-129.2636
 20
-44.9841
 30
0.0
 10
-125.6374
 20
-41.4786
 30
0.0
 10
-125.6374
 20
-41.4786
 30
0.0
 10
-125.6374
 20
-41.4786
 30
0.0
 10
-125.6374
 20
-41.4786
 30
0.0
 10
-122.0113
 20
-44.9841
 30
0.0
 10
-122.0113
 20
-44.9841
 30
0.0
 10
-122.0113
 20
-44.9841
 30
0.0
 10
-122.0113
 20
-44.9841
 30
0.0
 10
-122.0113
 20
-50.9069
 30
0.0
 10
-122.0113
 20
-50.9069
 30
0.0
 10
-122.0113
 20
-50.9069
 30
0.0
 10
-122.0113
 20
-50.9069
 30
0.0
 10
-116.0885
 20
-50.9069
 30
0.0
 10
-116.0885
 20
-50.9069
 30
0.0
 10
-116.0885
 20
-50.9069
 30
0.0
 10
-116.0885
 20
-50.9069
 30
0.0
 10
-112.583
 20
-54.533
 30
0.0
 10
-112.583
 20
-54.533
 30
0.0
 10
-112.583
 20
-54.533
 30
0.0
 10
-112.583
 20
-54.533
 30
0.0
 10
-116.0885
 20
-58.1595
 30
0.0
 10
-116.0885
 20
-58.1595
 30
0.0
 10
-116.0885
 20
-58.1595
 30
0.0
 10
-116.0885
 20
-58.1595
 30
0.0
 10
-122.0113
 20
-58.1595
 30
0.0
 10
-122.0113
 20
-58.1595
 30
0.0
 10
-122.0113
 20
-58.1595
 30
0.0
 10
-122.0113
 20
-58.1595
 30
0.0
 10
-122.0113
 20
-64.0823
 30
0.0
 10
-122.0113
 20
-64.0823
 30
0.0
 10
-122.0113
 20
-64.0823
 30
0.0
 10
-122.0113
 20
-64.0823
 30
0.0
 10
-125.6374
 20
-67.7084
 30
0.0
 10
-125.6374
 20
-67.7084
 30
0.0
 10
-125.6374
 20
-67.7084
 30
0.0
 10
-125.6374
 20
-67.7084
 30
0.0
 10
-129.2636
 20
-64.0823
 30
0.0
 10
-129.2636
 20
-64.0823
 30
0.0
 10
-129.2636
 20
-64.0823
 30
0.0
 10
-129.2636
 20
-64.0823
 30
0.0
 10
-129.2636
 20
-58.1595
 30
0.0
 10
-129.2636
 20
-58.1595
 30
0.0
 10
-129.2636
 20
-58.1595
 30
0.0
 10
-129.2636
 20
-58.1595
 30
0.0
 10
-135.0658
 20
-58.1595
 30
0.0
 10
-135.0658
 20
-58.1595
 30
0.0
  0
SPLINE
  5
5D
330
1F
100
AcDbEntity
  8
layer 1
 62
     7
100
AcDbSpline
210
0.0
220
0.0
230
1.0
 70
    11
 71
     3
 72
    68
 73
    64
 74
     0
 42
0.0000000001
 43
0.0000000001
 12
1.0
 22
0.0
 32
0.0
 13
1.0
 23
0.0
 33
0.0
 40
0.0
 40
0.0
 40
0.0
 40
0.0
 40
0.0588235294117647
 40
0.0588235294117647
 40
0.0588235294117647
 40
0.0588235294117647
 40
0.1176470588235294
 40
0.1176470588235294
 40
0.1176470588235294
 40
0.1176470588235294
 40
0.1764705882352941
 40
0.1764705882352941
 40
0.1764705882352941
 40
0.1764705882352941
 40
0.2352941176470588
 40
0.2352941176470588
 40
0.2352941176470588
 40
0.2352941176470588
 40
0.2941176470588235
 40
0.2941176470588235
 40
0.2941176470588235
 40
0.2941176470588235
 40
0.3529411764705883
 40
0.3529411764705883
 40
0.3529411764705883
 40
0.3529411764705883
 40
0.4117647058823529
 40
0.4117647058823529
 40
0.4117647058823529
 40
0.4117647058823529
 40
0.4705882352941176
 40
0.4705882352941176
 40
0.4705882352941176
 40
0.4705882352941176
 40
0.5294117647058824
 40
0.5294117647058824
 40
0.5294117647058824
 40
0.5294117647058824
 40
0.5882352941176471
 40
0.5882352941176471
 40
0.5882352941176471
 40
0.5882352941176471
 40
0.6470588235294118
 40
0.6470588235294118
 40
0.6470588235294118
 40
0.6470588235294118
 40
0.7058823529411765
 40
0.7058823529411765
 40
0.7058823529411765
 40
0.7058823529411765
 40
0.7647058823529411
 40
0.7647058823529411
 40
0.7647058823529411
 40
0.7647058823529411
 40
0.8235294117647058
 40
0.8235294117647058
 40
0.8235294117647058
 40
0.8235294117647058
 40
0.8823529411764706
 40
0.8823529411764706
 40
0.8823529411764706
 40
0.8823529411764706
 40
1.0
 40
1.0
 40
1.0
 40
1.0
 10
-149.4496
 20
-78.3452
 30
0.0
 10
-149.4496
 20
-78.3452
 30
0.0
 10
-149.4496
 20
-73.6313
 30
0.0
 10
-149.4496
 20
-73.6313
 30
0.0
 10
-149.4496
 20
-73.6313
 30
0.0
 10
-149.4496
 20
-73.6313
 30
0.0
 10
-152.7133
 20
-70.2467
 30
0.0
 10
-152.7133
 20
-70.2467
 30
0.0
 10
-152.7133
 20
-70.2467
 30
0.0
 10
-152.7133
 20
-70.2467
 30
0.0
 10
-149.4496
 20
-66.9831
 30
0.0
 10
-149.4496
 20
-66.9831
 30
0.0
 10
-149.4496
 20
-66.9831
 30
0.0
 10
-149.4496
 20
-66.9831
 30
0.0
 10
-149.4496
 20
-62.2691
 30
0.0
 10
-149.4496
 20
-62.2691
 30
0.0
 10
-149.4496
 20
-62.2691
 30
0.0
 10
-149.4496
 20
-62.2691
 30
0.0
 10
-144.7357
 20
-62.2691
 30
0.0
 10
-144.7357
 20
-62.2691
 30
0.0
 10
-144.7357
 20
-62.2691
 30
0.0
 10
-144.7357
 20
-62.2691
 30
0.0
 10
-141.3511
 20
-58.8845
 30
0.0
 10
-141.3511
 20
-58.8845
 30
0.0
 10
-141.3511
 20
-58.8845
 30
0.0
 10
-141.3511
 20
-58.8845
 30
0.0
 10
-138.0875
 20
-62.2691
 30
0.0
 10
-138.0875
 20
-62.2691
 30
0.0
 10
-138.0875
 20
-62.2691
 30
0.0
 10
-138.0875
 20
-62.2691
 30
0.0
 10
-133.3735
 20
-62.2691
 30
0.0
 10
-133.3735
 20
-62.2691
 30
0.0
 10
-133.3735
 20
-62.2691
 30
0.0
 10
-133.3735
 20
-62.2691
 30
0.0
 10
-133.3735
 20
-66.9831
 30
0.0
 10
-133.3735
 20
-66.9831
 30
0.0
 10
-133.3735
 20
-66.9831
 30
0.0
 10
-133.3735
 20
-66.9831
 30
0.0
 10
-129.9889
 20
-70.2467
 30
0.0
 10
-129.9889
 20
-70.2467
 30
0.0
 10
-129.9889
 20
-70.2467
 30
0.0
 10
-129.9889
 20
-70.2467
 30
0.0
 10
-133.3735
 20
-73.6313
 30
0.0
 10
-133.3735
 20
-73.6313
 30
0.0
 10
-133.3735
 20
-73.6313
 30
0.0
 10
-133.3735
 20
-73.6313
 30
0.0
 10
-133.3735
 20
-78.3452
 30
0.0
 10
-133.3735
 20
-78.3452
 30
0.0
 10
-133.3735
 20
-78.3452
 30
0.0
 10
-133.3735
 20
-78.3452
 30
0.0
 10
-138.0875
 20
-78.3452
 30
0.0
 10
-138.0875
 20
-78.3452
 30
0.0
 10
-138.0875
 20
-78.3452
 30
0.0
 10
-138.0875
 20
-78.3452
 30
0.0
 10
-141.3511
 20
-81.6089
 30
0.0
 10
-141.3511
 20
-81.6089
 30
0.0
 10
-141.3511
 20
-81.6089
 30
0.0
 10
-141.3511
 20
-81.6089
 30
0.0
 10
-144.7357
 20
-78.3452
 30
0.0
 10
-144.7357
 20
-78.3452
 30
0.0
 10
-144.7357
 20
-78.3452
 30
0.0
 10
-144.7357
 20
-78.3452
 30
0.0
 10
-149.4496
 20
-78.3452
 30
0.0
 10
-149.4496
 20
-78.3452
 30
0.0
  0
SPLINE
  5
5E
330
1F
100
AcDbEntity
  8
layer 1
 62
     7
100
AcDbSpline
210
0.0
220
0.0
230
1.0
 70
    11
 71
     3
 72
    68
 73
    64
 74
     0
 42
0.0000000001
 43
0.0000000001
 12
1.0
 22
0.0
 32
0.0
 13
1.0
 23
0.0
 33
0.0
 40
0.0
 40
0.0
 40
0.0
 40
0.0
 40
0.0588235294117647
 40
0.0588235294117647
 40
0.0588235294117647
 40
0.0588235294117647
 40
0.1176470588235294
 40
0.1176470588235294
 40
0.1176470588235294
 40
0.1176470588235294
 40
0.1764705882352941
 40
0.1764705882352941
 40
0.1764705882352941
 40
0.1764705882352941
 40
0.2352941176470588
 40
0.2352941176470588
 40
0.2352941176470588
 40
0.2352941176470588
 40
0.2941176470588235
 40
0.2941176470588235
 40
0.2941176470588235
 40
0.2941176470588235
 40
0.3529411764705883
 40
0.3529411764705883
 40
0.3529411764705883
 40
0.3529411764705883
 40
0.4117647058823529
 40
0.4117647058823529
 40
0.4117647058823529
 40
0.4117647058823529
 40
0.4705882352941176
 40
0.4705882352941176
 40
0.4705882352941176
 40
0.4705882352941176
 40
0.5294117647058824
 40
0.5294117647058824
 40
0.5294117647058824
 40
0.5294117647058824
 40
0.5882352941176471
 40
0.5882352941176471
 40
0.5882352941176471
 40
0.5882352941176471
 40
0.6470588235294118
 40
0.6470588235294118
 40
0.6470588235294118
 40
0.6470588235294118
 40
0.7058823529411765
 40
0.7058823529411765
 40
0.7058823529411765
 40
0.7058823529411765
 40
0.7647058823529411
 40
0.7647058823529411
 40
0.7647058823529411
 40
0.7647058823529411
 40
0.8235294117647058
 40
0.8235294117647058
 40
0.8235294117647058
 40
0.8235294117647058
 40
0.8823529411764706
 40
0.8823529411764706
 40
0.8823529411764706
 40
0.8823529411764706
 40
1.0
 40
1.0
 40
1.0
 40
1.0
 10
-135.0658
 20
-89.7078
 30
0.0
 10
-135.0658
 20
-89.7078
 30
0.0
 10
-138.8128
 20
-86.0813
 30
0.0
 10
-138.8128
 20
-86.0813
 30
0.0
 10
-138.8128
 20
-86.0813
 30
0.0
 10
-138.8128
 20
-86.0813
 30
0.0
 10
-135.0658
 20
-82.4552
 30
0.0
 10
-135.0658
 20
-82.4552
 30
0.0
 10
-135.0658
 20
-82.4552
 30
0.0
 10
-135.0658
 20
-82.4552
 30
0.0
 10
-129.2636
 20
-82.4552
 30
0.0
 10
-129.2636
 20
-82.4552
 30
0.0
 10
-129.2636
 20
-82.4552
 30
0.0
 10
-129.2636
 20
-82.4552
 30
0.0
 10
-129.2636
 20
-76.5324
 30
0.0
 10
-129.2636
 20
-76.5324
 30
0.0
 10
-129.2636
 20
-76.5324
 30
0.0
 10
-129.2636
 20
-76.5324
 30
0.0
 10
-125.6374
 20
-72.9059
 30
0.0
 10
-125.6374
 20
-72.9059
 30
0.0
 10
-125.6374
 20
-72.9059
 30
0.0
 10
-125.6374
 20
-72.9059
 30
0.0
 10
-122.0113
 20
-76.5324
 30
0.0
 10
-122.0113
 20
-76.5324
 30
0.0
 10
-122.0113
 20
-76.5324
 30
0.0
 10
-122.0113
 20
-76.5324
 30
0.0
 10
-122.0113
 20
-82.4552
 30
0.0
 10
-122.0113
 20
-82.4552
 30
0.0
 10
-122.0113
 20
-82.4552
 30
0.0
 10
-122.0113
 20
-82.4552
 30
0.0
 10
-116.0885
 20
-82.4552
 30
0.0
 10
-116.0885
 20
-82.4552
 30
0.0
 10
-116.0885
 20
-82.4552
 30
0.0
 10
-116.0885
 20
-82.4552
 30
0.0
 10
-112.583
 20
-86.0813
 30
0.0
 10
-112.583
 20
-86.0813
 30
0.0
 10
-112.583
 20
-86.0813
 30
0.0
 10
-112.583
 20
-86.0813
 30
0.0
 10
-116.0885
 20
-89.7078
 30
0.0
 10
-116.0885
 20
-89.7078
 30
0.0
 10
-116.0885
 20
-89.7078
 30
0.0
 10
-116.0885
 20
-89.7078
 30
0.0
 10
-122.0113
 20
-89.7078
 30
0.0
 10
-122.0113
 20
-89.7078
 30
0.0
 10
-122.0113
 20
-89.7078
 30
0.0
 10
-122.0113
 20
-89.7078
 30
0.0
 10
-122.0113
 20
-95.5096
 30
0.0
 10
-122.0113
 20
-95.5096
 30
0.0
 10
-122.0113
 20
-95.5096
 30
0.0
 10
-122.0113
 20
-95.5096
 30
0.0
 10
-125.6374
 20
-99.1357
 30
0.0
 10
-125.6374
 20
-99.1357
 30
0.0
 10
-125.6374
 20
-99.1357
 30
0.0
 10
-125.6374
 20
-99.1357
 30
0.0
 10
-129.2636
 20
-95.5096
 30
0.0
 10
-129.2636
 20
-95.5096
 30
0.0
 10
-129.2636
 20
-95.5096
 30
0.0
 10
-129.2636
 20
-95.5096
 30
0.0
 10
-129.2636
 20
-89.7078
 30
0.0
 10
-129.2636
 20
-89.7078
 30
0.0
 10
-129.2636
 20
-89.7078
 30
0.0
 10
-129.2636
 20
-89.7078
 30
0.0
 10
-135.0658
 20
-89.7078
 30
0.0
 10
-135.0658
 20
-89.7078
 30
0.0
  0
SPLINE
  5
5F
330
1F
100
AcDbEntity
  8
layer 1
 62
     7
100
AcDbSpline
210
0.0
220
0.0
230
1.0
 70
    11
 71
     3
 72
    48
 73
    44
 74
     0
 42
0.0000000001
 43
0.0000000001
 12
1.0
 22
0.0
 32
0.0
 13
1.0
 23
0.0
 33
0.0
 40
0.0
 40
0.0
 40
0.0
 40
0.0
 40
0.0833333333333333
 40
0.0833333333333333
 40
0.0833333333333333
 40
0.0833333333333333
 40
0.1666666666666667
 40
0.1666666666666667
 40
0.1666666666666667
 40
0.1666666666666667
 40
0.25
 40
0.25
 40
0.25
 40
0.25
 40
0.3333333333333333
 40
0.3333333333333333
 40
0.3333333333333333
 40
0.3333333333333333
 40
0.4166666666666667
 40
0.4166666666666667
 40
0.4166666666666667
 40
0.4166666666666667
 40
0.5
 40
0.5
 40
0.5
 40
0.5
 40
0.5833333333333334
 40
0.5833333333333334
 40
0.5833333333333334
 40
0.5833333333333334
 40
0.6666666666666666
 40
0.6666666666666666
 40
0.6666666666666666
 40
0.6666666666666666
 40
0.75
 40
0.75
 40
0.75
 40
0.75
 40
0.8333333333333334
 40
0.8333333333333334
 40
0.8333333333333334
 40
0.8333333333333334
 40
1.0
 40
1.0
 40
1.0
 40
1.0
 10
-151.021
 20
-103.4872
 30
0.0
 10
-151.021
 20
-103.4872
 30
0.0
 10
-152.7133
 20
-101.7949
 30
0.0
 10
-152.7133
 20
-101.7949
 30
0.0
 10
-152.7133
 20
-101.7949
 30
0.0
 10
-152.7133
 20
-101.7949
 30
0.0
 10
-149.4496
 20
-98.4107
 30
0.0
 10
-149.4496
 20
-98.4107
 30
0.0
 10
-149.4496
 20
-98.4107
 30
0.0
 10
-149.4496
 20
-98.4107
 30
0.0
 10
-149.4496
 20
-93.6964
 30
0.0
 10
-149.4496
 20
-93.6964
 30
0.0
 10
-149.4496
 20
-93.6964
 30
0.0
 10
-149.4496
 20
-93.6964
 30
0.0
 10
-144.7357
 20
-93.6964
 30
0.0
 10
-144.7357
 20
-93.6964
 30
0.0
 10
-144.7357
 20
-93.6964
 30
0.0
 10
-144.7357
 20
-93.6964
 30
0.0
 10
-141.3511
 20
-90.4328
 30
0.0
 10
-141.3511
 20
-90.4328
 30
0.0
 10
-141.3511
 20
-90.4328
 30
0.0
 10
-141.3511
 20
-90.4328
 30
0.0
 10
-138.0875
 20
-93.6964
 30
0.0
 10
-138.0875
 20
-93.6964
 30
0.0
 10
-138.0875
 20
-93.6964
 30
0.0
 10
-138.0875
 20
-93.6964
 30
0.0
 10
-133.3735
 20
-93.6964
 30
0.0
 10
-133.3735
 20
-93.6964
 30
0.0
 10
-133.3735
 20
-93.6964
 30
0.0
 10
-133.3735
 20
-93.6964
 30
0.0
 10
-133.3735
 20
-98.4107
 30
0.0
 10
-133.3735
 20
-98.4107
 30
0.0
 10
-133.3735
 20
-98.4107
 30
0.0
 10
-133.3735
 20
-98.4107
 30
0.0
 10
-129.9889
 20
-101.7949
 30
0.0
 10
-129.9889
 20
-101.7949
 30
0.0
 10
-129.9889
 20
-101.7949
 30
0.0
 10
-129.9889
 20
-101.7949
 30
0.0
 10
-131.6812
 20
-103.4872
 30
0.0
 10
-131.6812
 20
-103.4872
 30
0.0
 10
-131.6812
 20
-103.4872
 30
0.0
 10
-131.6812
 20
-103.4872
 30
0.0
 10
-151.021
 20
-103.4872
 30
0.0
 10
-151.021
 20
-103.4872
 30
0.0
  0
SPLINE
  5
60
330
1F
100
AcDbEntity
  8
layer 1
 62
     7
100
AcDbSpline
210
0.0
220
0.0
230
1.0
 70
    11
 71
     3
 72
    68
 73
    64
 74
     0
 42
0.0000000001
 43
0.0000000001
 12
1.0
 22
0.0
 32
0.0
 13
1.0
 23
0.0
 33
0.0
 40
0.0
 40
0.0
 40
0.0
 40
0.0
 40
0.0588235294117647
 40
0.0588235294117647
 40
0.0588235294117647
 40
0.0588235294117647
 40
0.1176470588235294
 40
0.1176470588235294
 40
0.1176470588235294
 40
0.1176470588235294
 40
0.1764705882352941
 40
0.1764705882352941
 40
0.1764705882352941
 40
0.1764705882352941
 40
0.2352941176470588
 40
0.2352941176470588
 40
0.2352941176470588
 40
0.2352941176470588
 40
0.2941176470588235
 40
0.2941176470588235
 40
0.2941176470588235
 40
0.2941176470588235
 40
0.3529411764705883
 40
0.3529411764705883
 40
0.3529411764705883
 40
0.3529411764705883
 40
0.4117647058823529
 40
0.4117647058823529
 40
0.4117647058823529
 40
0.4117647058823529
 40
0.4705882352941176
 40
0.4705882352941176
 40
0.4705882352941176
 40
0.4705882352941176
 40
0.5294117647058824
 40
0.5294117647058824
 40
0.5294117647058824
 40
0.5294117647058824
 40
0.5882352941176471
 40
0.5882352941176471
 40
0.5882352941176471
 40
0.5882352941176471
 40
0.6470588235294118
 40
0.6470588235294118
 40
0.6470588235294118
 40
0.6470588235294118
 40
0.7058823529411765
 40
0.7058823529411765
 40
0.7058823529411765
 40
0.7058823529411765
 40
0.7647058823529411
 40
0.7647058823529411
 40
0.7647058823529411
 40
0.7647058823529411
 40
0.8235294117647058
 40
0.8235294117647058
 40
0.8235294117647058
 40
0.8235294117647058
 40
0.8823529411764706
 40
0.8823529411764706
 40
0.8823529411764706
 40
0.8823529411764706
 40
1.0
 40
1.0
 40
1.0
 40
1.0
 10
-103.6385
 20
-89.7078
 30
0.0
 10
-103.6385
 20
-89.7078
 30
0.0
 10
-107.2646
 20
-86.0813
 30
0.0
 10
-107.2646
 20
-86.0813
 30
0.0
 10
-107.2646
 20
-86.0813
 30
0.0
 10
-107.2646
 20
-86.0813
 30
0.0
 10
-103.6385
 20
-82.4552
 30
0.0
 10
-103.6385
 20
-82.4552
 30
0.0
 10
-103.6385
 20
-82.4552
 30
0.0
 10
-103.6385
 20
-82.4552
 30
0.0
 10
-97.7999
 20
-82.4552
 30
0.0
 10
-97.7999
 20
-82.4552
 30
0.0
 10
-97.7999
 20
-82.4552
 30
0.0
 10
-97.7999
 20
-82.4552
 30
0.0
 10
-97.7999
 20
-76.5324
 30
0.0
 10
-97.7999
 20
-76.5324
 30
0.0
 10
-97.7999
 20
-76.5324
 30
0.0
 10
-97.7999
 20
-76.5324
 30
0.0
 10
-94.1618
 20
-72.9059
 30
0.0
 10
-94.1618
 20
-72.9059
 30
0.0
 10
-94.1618
 20
-72.9059
 30
0.0
 10
-94.1618
 20
-72.9059
 30
0.0
 10
-90.5114
 20
-76.5324
 30
0.0
 10
-90.5114
 20
-76.5324
 30
0.0
 10
-90.5114
 20
-76.5324
 30
0.0
 10
-90.5114
 20
-76.5324
 30
0.0
 10
-90.5114
 20
-82.4552
 30
0.0
 10
-90.5114
 20
-82.4552
 30
0.0
 10
-90.5114
 20
-82.4552
 30
0.0
 10
-90.5114
 20
-82.4552
 30
0.0
 10
-84.6489
 20
-82.4552
 30
0.0
 10
-84.6489
 20
-82.4552
 30
0.0
 10
-84.6489
 20
-82.4552
 30
0.0
 10
-84.6489
 20
-82.4552
 30
0.0
 10
-81.0347
 20
-86.0813
 30
0.0
 10
-81.0347
 20
-86.0813
 30
0.0
 10
-81.0347
 20
-86.0813
 30
0.0
 10
-81.0347
 20
-86.0813
 30
0.0
 10
-84.6489
 20
-89.7078
 30
0.0
 10
-84.6489
 20
-89.7078
 30
0.0
 10
-84.6489
 20
-89.7078
 30
0.0
 10
-84.6489
 20
-89.7078
 30
0.0
 10
-90.5114
 20
-89.7078
 30
0.0
 10
-90.5114
 20
-89.7078
 30
0.0
 10
-90.5114
 20
-89.7078
 30
0.0
 10
-90.5114
 20
-89.7078
 30
0.0
 10
-90.5234
 20
-95.5096
 30
0.0
 10
-90.5234
 20
-95.5096
 30
0.0
 10
-90.5234
 20
-95.5096
 30
0.0
 10
-90.5234
 20
-95.5096
 30
0.0
 10
-94.1618
 20
-99.1357
 30
0.0
 10
-94.1618
 20
-99.1357
 30
0.0
 10
-94.1618
 20
-99.1357
 30
0.0
 10
-94.1618
 20
-99.1357
 30
0.0
 10
-97.8123
 20
-95.5096
 30
0.0
 10
-97.8123
 20
-95.5096
 30
0.0
 10
-97.8123
 20
-95.5096
 30
0.0
 10
-97.8123
 20
-95.5096
 30
0.0
 10
-97.7999
 20
-89.7078
 30
0.0
 10
-97.7999
 20
-89.7078
 30
0.0
 10
-97.7999
 20
-89.7078
 30
0.0
 10
-97.7999
 20
-89.7078
 30
0.0
 10
-103.6385
 20
-89.7078
 30
0.0
 10
-103.6385
 20
-89.7078
 30
0.0
  0
SPLINE
  5
61
330
1F
100
AcDbEntity
  8
layer 1
 62
     7
100
AcDbSpline
210
0.0
220
0.0
230
1.0
 70
    11
 71
     3
 72
    48
 73
    44
 74
     0
 42
0.0000000001
 43
0.0000000001
 12
1.0
 22
0.0
 32
0.0
 13
1.0
 23
0.0
 33
0.0
 40
0.0
 40
0.0
 40
0.0
 40
0.0
 40
0.0833333333333333
 40
0.0833333333333333
 40
0.0833333333333333
 40
0.0833333333333333
 40
0.1666666666666667
 40
0.1666666666666667
 40
0.1666666666666667
 40
0.1666666666666667
 40
0.25
 40
0.25
 40
0.25
 40
0.25
 40
0.3333333333333333
 40
0.3333333333333333
 40
0.3333333333333333
 40
0.3333333333333333
 40
0.4166666666666667
 40
0.4166666666666667
 40
0.4166666666666667
 40
0.4166666666666667
 40
0.5
 40
0.5
 40
0.5
 40
0.5
 40
0.5833333333333334
 40
0.5833333333333334
 40
0.5833333333333334
 40
0.5833333333333334
 40
0.6666666666666666
 40
0.6666666666666666
 40
0.6666666666666666
 40
0.6666666666666666
 40
0.75
 40
0.75
 40
0.75
 40
0.75
 40
0.8333333333333334
 40
0.8333333333333334
 40
0.8333333333333334
 40
0.8333333333333334
 40
1.0
 40
1.0
 40
1.0
 40
1.0
 10
-119.5937
 20
-103.4872
 30
0.0
 10
-119.5937
 20
-103.4872
 30
0.0
 10
-121.286
 20
-101.7949
 30
0.0
 10
-121.286
 20
-101.7949
 30
0.0
 10
-121.286
 20
-101.7949
 30
0.0
 10
-121.286
 20
-101.7949
 30
0.0
 10
-117.9014
 20
-98.4107
 30
0.0
 10
-117.9014
 20
-98.4107
 30
0.0
 10
-117.9014
 20
-98.4107
 30
0.0
 10
-117.9014
 20
-98.4107
 30
0.0
 10
-117.9014
 20
-93.6964
 30
0.0
 10
-117.9014
 20
-93.6964
 30
0.0
 10
-117.9014
 20
-93.6964
 30
0.0
 10
-117.9014
 20
-93.6964
 30
0.0
 10
-113.1874
 20
-93.6964
 30
0.0
 10
-113.1874
 20
-93.6964
 30
0.0
 10
-113.1874
 20
-93.6964
 30
0.0
 10
-113.1874
 20
-93.6964
 30
0.0
 10
-109.9238
 20
-90.4328
 30
0.0
 10
-109.9238
 20
-90.4328
 30
0.0
 10
-109.9238
 20
-90.4328
 30
0.0
 10
-109.9238
 20
-90.4328
 30
0.0
 10
-106.5392
 20
-93.6964
 30
0.0
 10
-106.5392
 20
-93.6964
 30
0.0
 10
-106.5392
 20
-93.6964
 30
0.0
 10
-106.5392
 20
-93.6964
 30
0.0
 10
-101.8252
 20
-93.6964
 30
0.0
 10
-101.8252
 20
-93.6964
 30
0.0
 10
-101.8252
 20
-93.6964
 30
0.0
 10
-101.8252
 20
-93.6964
 30
0.0
 10
-101.8252
 20
-98.4107
 30
0.0
 10
-101.8252
 20
-98.4107
 30
0.0
 10
-101.8252
 20
-98.4107
 30
0.0
 10
-101.8252
 20
-98.4107
 30
0.0
 10
-98.5253
 20
-101.7949
 30
0.0
 10
-98.5253
 20
-101.7949
 30
0.0
 10
-98.5253
 20
-101.7949
 30
0.0
 10
-98.5253
 20
-101.7949
 30
0.0
 10
-100.2539
 20
-103.4872
 30
0.0
 10
-100.2539
 20
-103.4872
 30
0.0
 10
-100.2539
 20
-103.4872
 30
0.0
 10
-100.2539
 20
-103.4872
 30
0.0
 10
-119.5937
 20
-103.4872
 30
0.0
 10
-119.5937
 20
-103.4872
 30
0.0
  0
SPLINE
  5
62
330
1F
100
AcDbEntity
  8
layer 1
 62
     7
100
AcDbSpline
210
0.0
220
0.0
230
1.0
 70
    11
 71
     3
 72
    68
 73
    64
 74
     0
 42
0.0000000001
 43
0.0000000001
 12
1.0
 22
0.0
 32
0.0
 13
1.0
 23
0.0
 33
0.0
 40
0.0
 40
0.0
 40
0.0
 40
0.0
 40
0.0588235294117647
 40
0.0588235294117647
 40
0.0588235294117647
 40
0.0588235294117647
 40
0.1176470588235294
 40
0.1176470588235294
 40
0.1176470588235294
 40
0.1176470588235294
 40
0.1764705882352941
 40
0.1764705882352941
 40
0.1764705882352941
 40
0.1764705882352941
 40
0.2352941176470588
 40
0.2352941176470588
 40
0.2352941176470588
 40
0.2352941176470588
 40
0.2941176470588235
 40
0.2941176470588235
 40
0.2941176470588235
 40
0.2941176470588235
 40
0.3529411764705883
 40
0.3529411764705883
 40
0.3529411764705883
 40
0.3529411764705883
 40
0.4117647058823529
 40
0.4117647058823529
 40
0.4117647058823529
 40
0.4117647058823529
 40
0.4705882352941176
 40
0.4705882352941176
 40
0.4705882352941176
 40
0.4705882352941176
 40
0.5294117647058824
 40
0.5294117647058824
 40
0.5294117647058824
 40
0.5294117647058824
 40
0.5882352941176471
 40
0.5882352941176471
 40
0.5882352941176471
 40
0.5882352941176471
 40
0.6470588235294118
 40
0.6470588235294118
 40
0.6470588235294118
 40
0.6470588235294118
 40
0.7058823529411765
 40
0.7058823529411765
 40
0.7058823529411765
 40
0.7058823529411765
 40
0.7647058823529411
 40
0.7647058823529411
 40
0.7647058823529411
 40
0.7647058823529411
 40
0.8235294117647058
 40
0.8235294117647058
 40
0.8235294117647058
 40
0.8235294117647058
 40
0.8823529411764706
 40
0.8823529411764706
 40
0.8823529411764706
 40
0.8823529411764706
 40
1.0
 40
1.0
 40
1.0
 40
1.0
 10
-103.6385
 20
-58.1595
 30
0.0
 10
-103.6385
 20
-58.1595
 30
0.0
 10
-107.2646
 20
-54.533
 30
0.0
 10
-107.2646
 20
-54.533
 30
0.0
 10
-107.2646
 20
-54.533
 30
0.0
 10
-107.2646
 20
-54.533
 30
0.0
 10
-103.6385
 20
-50.9069
 30
0.0
 10
-103.6385
 20
-50.9069
 30
0.0
 10
-103.6385
 20
-50.9069
 30
0.0
 10
-103.6385
 20
-50.9069
 30
0.0
 10
-97.7999
 20
-50.9069
 30
0.0
 10
-97.7999
 20
-50.9069
 30
0.0
 10
-97.7999
 20
-50.9069
 30
0.0
 10
-97.7999
 20
-50.9069
 30
0.0
 10
-97.7999
 20
-44.9841
 30
0.0
 10
-97.7999
 20
-44.9841
 30
0.0
 10
-97.7999
 20
-44.9841
 30
0.0
 10
-97.7999
 20
-44.9841
 30
0.0
 10
-94.1618
 20
-41.4786
 30
0.0
 10
-94.1618
 20
-41.4786
 30
0.0
 10
-94.1618
 20
-41.4786
 30
0.0
 10
-94.1618
 20
-41.4786
 30
0.0
 10
-90.5114
 20
-44.9841
 30
0.0
 10
-90.5114
 20
-44.9841
 30
0.0
 10
-90.5114
 20
-44.9841
 30
0.0
 10
-90.5114
 20
-44.9841
 30
0.0
 10
-90.5114
 20
-50.9069
 30
0.0
 10
-90.5114
 20
-50.9069
 30
0.0
 10
-90.5114
 20
-50.9069
 30
0.0
 10
-90.5114
 20
-50.9069
 30
0.0
 10
-84.6489
 20
-50.9069
 30
0.0
 10
-84.6489
 20
-50.9069
 30
0.0
 10
-84.6489
 20
-50.9069
 30
0.0
 10
-84.6489
 20
-50.9069
 30
0.0
 10
-81.0347
 20
-54.533
 30
0.0
 10
-81.0347
 20
-54.533
 30
0.0
 10
-81.0347
 20
-54.533
 30
0.0
 10
-81.0347
 20
-54.533
 30
0.0
 10
-84.6489
 20
-58.1595
 30
0.0
 10
-84.6489
 20
-58.1595
 30
0.0
 10
-84.6489
 20
-58.1595
 30
0.0
 10
-84.6489
 20
-58.1595
 30
0.0
 10
-90.5114
 20
-58.1595
 30
0.0
 10
-90.5114
 20
-58.1595
 30
0.0
 10
-90.5114
 20
-58.1595
 30
0.0
 10
-90.5114
 20
-58.1595
 30
0.0
 10
-90.5234
 20
-64.0823
 30
0.0
 10
-90.5234
 20
-64.0823
 30
0.0
 10
-90.5234
 20
-64.0823
 30
0.0
 10
-90.5234
 20
-64.0823
 30
0.0
 10
-94.1618
 20
-67.7084
 30
0.0
 10
-94.1618
 20
-67.7084
 30
0.0
 10
-94.1618
 20
-67.7084
 30
0.0
 10
-94.1618
 20
-67.7084
 30
0.0
 10
-97.8123
 20
-64.0823
 30
0.0
 10
-97.8123
 20
-64.0823
 30
0.0
 10
-97.8123
 20
-64.0823
 30
0.0
 10
-97.8123
 20
-64.0823
 30
0.0
 10
-97.7999
 20
-58.1595
 30
0.0
 10
-97.7999
 20
-58.1595
 30
0.0
 10
-97.7999
 20
-58.1595
 30
0.0
 10
-97.7999
 20
-58.1595
 30
0.0
 10
-103.6385
 20
-58.1595
 30
0.0
 10
-103.6385
 20
-58.1595
 30
0.0
  0
SPLINE
  5
63
330
1F
100
AcDbEntity
  8
layer 1
 62
     7
100
AcDbSpline
210
0.0
220
0.0
230
1.0
 70
    11
 71
     3
 72
    68
 73
    64
 74
     0
 42
0.0000000001
 43
0.0000000001
 12
1.0
 22
0.0
 32
0.0
 13
1.0
 23
0.0
 33
0.0
 40
0.0
 40
0.0
 40
0.0
 40
0.0
 40
0.0588235294117647
 40
0.0588235294117647
 40
0.0588235294117647
 40
0.0588235294117647
 40
0.1176470588235294
 40
0.1176470588235294
 40
0.1176470588235294
 40
0.1176470588235294
 40
0.1764705882352941
 40
0.1764705882352941
 40
0.1764705882352941
 40
0.1764705882352941
 40
0.2352941176470588
 40
0.2352941176470588
 40
0.2352941176470588
 40
0.2352941176470588
 40
0.2941176470588235
 40
0.2941176470588235
 40
0.2941176470588235
 40
0.2941176470588235
 40
0.3529411764705883
 40
0.3529411764705883
 40
0.3529411764705883
 40
0.3529411764705883
 40
0.4117647058823529
 40
0.4117647058823529
 40
0.4117647058823529
 40
0.4117647058823529
 40
0.4705882352941176
 40
0.4705882352941176
 40
0.4705882352941176
 40
0.4705882352941176
 40
0.5294117647058824
 40
0.5294117647058824
 40
0.5294117647058824
 40
0.5294117647058824
 40
0.5882352941176471
 40
0.5882352941176471
 40
0.5882352941176471
 40
0.5882352941176471
 40
0.6470588235294118
 40
0.6470588235294118
 40
0.6470588235294118
 40
0.6470588235294118
 40
0.7058823529411765
 40
0.7058823529411765
 40
0.7058823529411765
 40
0.7058823529411765
 40
0.7647058823529411
 40
0.7647058823529411
 40
0.7647058823529411
 40
0.7647058823529411
 40
0.8235294117647058
 40
0.8235294117647058
 40
0.8235294117647058
 40
0.8235294117647058
 40
0.8823529411764706
 40
0.8823529411764706
 40
0.8823529411764706
 40
0.8823529411764706
 40
1.0
 40
1.0
 40
1.0
 40
1.0
 10
-117.9014
 20
-78.3452
 30
0.0
 10
-117.9014
 20
-78.3452
 30
0.0
 10
-117.9014
 20
-73.6313
 30
0.0
 10
-117.9014
 20
-73.6313
 30
0.0
 10
-117.9014
 20
-73.6313
 30
0.0
 10
-117.9014
 20
-73.6313
 30
0.0
 10
-121.286
 20
-70.2467
 30
0.0
 10
-121.286
 20
-70.2467
 30
0.0
 10
-121.286
 20
-70.2467
 30
0.0
 10
-121.286
 20
-70.2467
 30
0.0
 10
-117.9014
 20
-66.9831
 30
0.0
 10
-117.9014
 20
-66.9831
 30
0.0
 10
-117.9014
 20
-66.9831
 30
0.0
 10
-117.9014
 20
-66.9831
 30
0.0
 10
-117.9014
 20
-62.2691
 30
0.0
 10
-117.9014
 20
-62.2691
 30
0.0
 10
-117.9014
 20
-62.2691
 30
0.0
 10
-117.9014
 20
-62.2691
 30
0.0
 10
-113.1874
 20
-62.2691
 30
0.0
 10
-113.1874
 20
-62.2691
 30
0.0
 10
-113.1874
 20
-62.2691
 30
0.0
 10
-113.1874
 20
-62.2691
 30
0.0
 10
-109.9238
 20
-58.8845
 30
0.0
 10
-109.9238
 20
-58.8845
 30
0.0
 10
-109.9238
 20
-58.8845
 30
0.0
 10
-109.9238
 20
-58.8845
 30
0.0
 10
-106.5392
 20
-62.2691
 30
0.0
 10
-106.5392
 20
-62.2691
 30
0.0
 10
-106.5392
 20
-62.2691
 30
0.0
 10
-106.5392
 20
-62.2691
 30
0.0
 10
-101.8252
 20
-62.2691
 30
0.0
 10
-101.8252
 20
-62.2691
 30
0.0
 10
-101.8252
 20
-62.2691
 30
0.0
 10
-101.8252
 20
-62.2691
 30
0.0
 10
-101.8252
 20
-66.9831
 30
0.0
 10
-101.8252
 20
-66.9831
 30
0.0
 10
-101.8252
 20
-66.9831
 30
0.0
 10
-101.8252
 20
-66.9831
 30
0.0
 10
-98.5253
 20
-70.2467
 30
0.0
 10
-98.5253
 20
-70.2467
 30
0.0
 10
-98.5253
 20
-70.2467
 30
0.0
 10
-98.5253
 20
-70.2467
 30
0.0
 10
-101.8252
 20
-73.6313
 30
0.0
 10
-101.8252
 20
-73.6313
 30
0.0
 10
-101.8252
 20
-73.6313
 30
0.0
 10
-101.8252
 20
-73.6313
 30
0.0
 10
-101.8252
 20
-78.3452
 30
0.0
 10
-101.8252
 20
-78.3452
 30
0.0
 10
-101.8252
 20
-78.3452
 30
0.0
 10
-101.8252
 20
-78.3452
 30
0.0
 10
-106.5392
 20
-78.3452
 30
0.0
 10
-106.5392
 20
-78.3452
 30
0.0
 10
-106.5392
 20
-78.3452
 30
0.0
 10
-106.5392
 20
-78.3452
 30
0.0
 10
-109.9238
 20
-81.6089
 30
0.0
 10
-109.9238
 20
-81.6089
 30
0.0
 10
-109.9238
 20
-81.6089
 30
0.0
 10
-109.9238
 20
-81.6089
 30
0.0
 10
-113.1874
 20
-78.3452
 30
0.0
 10
-113.1874
 20
-78.3452
 30
0.0
 10
-113.1874
 20
-78.3452
 30
0.0
 10
-113.1874
 20
-78.3452
 30
0.0
 10
-117.9014
 20
-78.3452
 30
0.0
 10
-117.9014
 20
-78.3452
 30
0.0
  0
SPLINE
  5
64
330
1F
100
AcDbEntity
  8
layer 1
 62
     7
100
AcDbSpline
210
0.0
220
0.0
230
1.0
 70
    11
 71
     3
 72
    68
 73
    64
 74
     0
 42
0.0000000001
 43
0.0000000001
 12
1.0
 22
0.0
 32
0.0
 13
1.0
 23
0.0
 33
0.0
 40
0.0
 40
0.0
 40
0.0
 40
0.0
 40
0.0588235294117647
 40
0.0588235294117647
 40
0.0588235294117647
 40
0.0588235294117647
 40
0.1176470588235294
 40
0.1176470588235294
 40
0.1176470588235294
 40
0.1176470588235294
 40
0.1764705882352941
 40
0.1764705882352941
 40
0.1764705882352941
 40
0.1764705882352941
 40
0.2352941176470588
 40
0.2352941176470588
 40
0.2352941176470588
 40
0.2352941176470588
 40
0.2941176470588235
 40
0.2941176470588235
 40
0.2941176470588235
 40
0.2941176470588235
 40
0.3529411764705883
 40
0.3529411764705883
 40
0.3529411764705883
 40
0.3529411764705883
 40
0.4117647058823529
 40
0.4117647058823529
 40
0.4117647058823529
 40
0.4117647058823529
 40
0.4705882352941176
 40
0.4705882352941176
 40
0.4705882352941176
 40
0.4705882352941176
 40
0.5294117647058824
 40
0.5294117647058824
 40
0.5294117647058824
 40
0.5294117647058824
 40
0.5882352941176471
 40
0.5882352941176471
 40
0.5882352941176471
 40
0.5882352941176471
 40
0.6470588235294118
 40
0.6470588235294118
 40
0.6470588235294118
 40
0.6470588235294118
 40
0.7058823529411765
 40
0.7058823529411765
 40
0.7058823529411765
 40
0.7058823529411765
 40
0.7647058823529411
 40
0.7647058823529411
 40
0.7647058823529411
 40
0.7647058823529411
 40
0.8235294117647058
 40
0.8235294117647058
 40
0.8235294117647058
 40
0.8235294117647058
 40
0.8823529411764706
 40
0.8823529411764706
 40
0.8823529411764706
 40
0.8823529411764706
 40
1.0
 40
1.0
 40
1.0
 40
1.0
 10
-103.6385
 20
-26.7319
 30
0.0
 10
-103.6385
 20
-26.7319
 30
0.0
 10
-107.2646
 20
-23.1057
 30
0.0
 10
-107.2646
 20
-23.1057
 30
0.0
 10
-107.2646
 20
-23.1057
 30
0.0
 10
-107.2646
 20
-23.1057
 30
0.0
 10
-103.6385
 20
-19.3587
 30
0.0
 10
-103.6385
 20
-19.3587
 30
0.0
 10
-103.6385
 20
-19.3587
 30
0.0
 10
-103.6385
 20
-19.3587
 30
0.0
 10
-97.7999
 20
-19.3587
 30
0.0
 10
-97.7999
 20
-19.3587
 30
0.0
 10
-97.7999
 20
-19.3587
 30
0.0
 10
-97.7999
 20
-19.3587
 30
0.0
 10
-97.7999
 20
-13.5568
 30
0.0
 10
-97.7999
 20
-13.5568
 30
0.0
 10
-97.7999
 20
-13.5568
 30
0.0
 10
-97.7999
 20
-13.5568
 30
0.0
 10
-94.1618
 20
-9.9303
 30
0.0
 10
-94.1618
 20
-9.9303
 30
0.0
 10
-94.1618
 20
-9.9303
 30
0.0
 10
-94.1618
 20
-9.9303
 30
0.0
 10
-90.5114
 20
-13.5568
 30
0.0
 10
-90.5114
 20
-13.5568
 30
0.0
 10
-90.5114
 20
-13.5568
 30
0.0
 10
-90.5114
 20
-13.5568
 30
0.0
 10
-90.5114
 20
-19.3587
 30
0.0
 10
-90.5114
 20
-19.3587
 30
0.0
 10
-90.5114
 20
-19.3587
 30
0.0
 10
-90.5114
 20
-19.3587
 30
0.0
 10
-84.6489
 20
-19.3587
 30
0.0
 10
-84.6489
 20
-19.3587
 30
0.0
 10
-84.6489
 20
-19.3587
 30
0.0
 10
-84.6489
 20
-19.3587
 30
0.0
 10
-81.0347
 20
-23.1057
 30
0.0
 10
-81.0347
 20
-23.1057
 30
0.0
 10
-81.0347
 20
-23.1057
 30
0.0
 10
-81.0347
 20
-23.1057
 30
0.0
 10
-84.6489
 20
-26.7319
 30
0.0
 10
-84.6489
 20
-26.7319
 30
0.0
 10
-84.6489
 20
-26.7319
 30
0.0
 10
-84.6489
 20
-26.7319
 30
0.0
 10
-90.5114
 20
-26.7319
 30
0.0
 10
-90.5114
 20
-26.7319
 30
0.0
 10
-90.5114
 20
-26.7319
 30
0.0
 10
-90.5114
 20
-26.7319
 30
0.0
 10
-90.5234
 20
-32.5341
 30
0.0
 10
-90.5234
 20
-32.5341
 30
0.0
 10
-90.5234
 20
-32.5341
 30
0.0
 10
-90.5234
 20
-32.5341
 30
0.0
 10
-94.1618
 20
-36.1602
 30
0.0
 10
-94.1618
 20
-36.1602
 30
0.0
 10
-94.1618
 20
-36.1602
 30
0.0
 10
-94.1618
 20
-36.1602
 30
0.0
 10
-97.8123
 20
-32.5341
 30
0.0
 10
-97.8123
 20
-32.5341
 30
0.0
 10
-97.8123
 20
-32.5341
 30
0.0
 10
-97.8123
 20
-32.5341
 30
0.0
 10
-97.7999
 20
-26.7319
 30
0.0
 10
-97.7999
 20
-26.7319
 30
0.0
 10
-97.7999
 20
-26.7319
 30
0.0
 10
-97.7999
 20
-26.7319
 30
0.0
 10
-103.6385
 20
-26.7319
 30
0.0
 10
-103.6385
 20
-26.7319
 30
0.0
  0
SPLINE
  5
65
330
1F
100
AcDbEntity
  8
layer 1
 62
     7
100
AcDbSpline
210
0.0
220
0.0
230
1.0
 70
    11
 71
     3
 72
    68
 73
    64
 74
     0
 42
0.0000000001
 43
0.0000000001
 12
1.0
 22
0.0
 32
0.0
 13
1.0
 23
0.0
 33
0.0
 40
0.0
 40
0.0
 40
0.0
 40
0.0
 40
0.0588235294117647
 40
0.0588235294117647
 40
0.0588235294117647
 40
0.0588235294117647
 40
0.1176470588235294
 40
0.1176470588235294
 40
0.1176470588235294
 40
0.1176470588235294
 40
0.1764705882352941
 40
0.1764705882352941
 40
0.1764705882352941
 40
0.1764705882352941
 40
0.2352941176470588
 40
0.2352941176470588
 40
0.2352941176470588
 40
0.2352941176470588
 40
0.2941176470588235
 40
0.2941176470588235
 40
0.2941176470588235
 40
0.2941176470588235
 40
0.3529411764705883
 40
0.3529411764705883
 40
0.3529411764705883
 40
0.3529411764705883
 40
0.4117647058823529
 40
0.4117647058823529
 40
0.4117647058823529
 40
0.4117647058823529
 40
0.4705882352941176
 40
0.4705882352941176
 40
0.4705882352941176
 40
0.4705882352941176
 40
0.5294117647058824
 40
0.5294117647058824
 40
0.5294117647058824
 40
0.5294117647058824
 40
0.5882352941176471
 40
0.5882352941176471
 40
0.5882352941176471
 40
0.5882352941176471
 40
0.6470588235294118
 40
0.6470588235294118
 40
0.6470588235294118
 40
0.6470588235294118
 40
0.7058823529411765
 40
0.7058823529411765
 40
0.7058823529411765
 40
0.7058823529411765
 40
0.7647058823529411
 40
0.7647058823529411
 40
0.7647058823529411
 40
0.7647058823529411
 40
0.8235294117647058
 40
0.8235294117647058
 40
0.8235294117647058
 40
0.8235294117647058
 40
0.8823529411764706
 40
0.8823529411764706
 40
0.8823529411764706
 40
0.8823529411764706
 40
1.0
 40
1.0
 40
1.0
 40
1.0
 10
-117.9014
 20
-46.797
 30
0.0
 10
-117.9014
 20
-46.797
 30
0.0
 10
-117.9014
 20
-42.083
 30
0.0
 10
-117.9014
 20
-42.083
 30
0.0
 10
-117.9014
 20
-42.083
 30
0.0
 10
-117.9014
 20
-42.083
 30
0.0
 10
-121.286
 20
-38.8194
 30
0.0
 10
-121.286
 20
-38.8194
 30
0.0
 10
-121.286
 20
-38.8194
 30
0.0
 10
-121.286
 20
-38.8194
 30
0.0
 10
-117.9014
 20
-35.4348
 30
0.0
 10
-117.9014
 20
-35.4348
 30
0.0
 10
-117.9014
 20
-35.4348
 30
0.0
 10
-117.9014
 20
-35.4348
 30
0.0
 10
-117.9014
 20
-30.7208
 30
0.0
 10
-117.9014
 20
-30.7208
 30
0.0
 10
-117.9014
 20
-30.7208
 30
0.0
 10
-117.9014
 20
-30.7208
 30
0.0
 10
-113.1874
 20
-30.7208
 30
0.0
 10
-113.1874
 20
-30.7208
 30
0.0
 10
-113.1874
 20
-30.7208
 30
0.0
 10
-113.1874
 20
-30.7208
 30
0.0
 10
-109.9238
 20
-27.4572
 30
0.0
 10
-109.9238
 20
-27.4572
 30
0.0
 10
-109.9238
 20
-27.4572
 30
0.0
 10
-109.9238
 20
-27.4572
 30
0.0
 10
-106.5392
 20
-30.7208
 30
0.0
 10
-106.5392
 20
-30.7208
 30
0.0
 10
-106.5392
 20
-30.7208
 30
0.0
 10
-106.5392
 20
-30.7208
 30
0.0
 10
-101.8252
 20
-30.7208
 30
0.0
 10
-101.8252
 20
-30.7208
 30
0.0
 10
-101.8252
 20
-30.7208
 30
0.0
 10
-101.8252
 20
-30.7208
 30
0.0
 10
-101.8252
 20
-35.4348
 30
0.0
 10
-101.8252
 20
-35.4348
 30
0.0
 10
-101.8252
 20
-35.4348
 30
0.0
 10
-101.8252
 20
-35.4348
 30
0.0
 10
-98.5253
 20
-38.8194
 30
0.0
 10
-98.5253
 20
-38.8194
 30
0.0
 10
-98.5253
 20
-38.8194
 30
0.0
 10
-98.5253
 20
-38.8194
 30
0.0
 10
-101.8252
 20
-42.083
 30
0.0
 10
-101.8252
 20
-42.083
 30
0.0
 10
-101.8252
 20
-42.083
 30
0.0
 10
-101.8252
 20
-42.083
 30
0.0
 10
-101.8252
 20
-46.797
 30
0.0
 10
-101.8252
 20
-46.797
 30
0.0
 10
-101.8252
 20
-46.797
 30
0.0
 10
-101.8252
 20
-46.797
 30
0.0
 10
-106.5392
 20
-46.797
 30
0.0
 10
-106.5392
 20
-46.797
 30
0.0
 10
-106.5392
 20
-46.797
 30
0.0
 10
-106.5392
 20
-46.797
 30
0.0
 10
-109.9238
 20
-50.1816
 30
0.0
 10
-109.9238
 20
-50.1816
 30
0.0
 10
-109.9238
 20
-50.1816
 30
0.0
 10
-109.9238
 20
-50.1816
 30
0.0
 10
-113.1874
 20
-46.797
 30
0.0
 10
-113.1874
 20
-46.797
 30
0.0
 10
-113.1874
 20
-46.797
 30
0.0
 10
-113.1874
 20
-46.797
 30
0.0
 10
-117.9014
 20
-46.797
 30
0.0
 10
-117.9014
 20
-46.797
 30
0.0
  0
SPLINE
  5
66
330
1F
100
AcDbEntity
  8
layer 1
 62
     7
100
AcDbSpline
210
0.0
220
0.0
230
1.0
 70
    11
 71
     3
 72
    68
 73
    64
 74
     0
 42
0.0000000001
 43
0.0000000001
 12
1.0
 22
0.0
 32
0.0
 13
1.0
 23
0.0
 33
0.0
 40
0.0
 40
0.0
 40
0.0
 40
0.0
 40
0.0588235294117647
 40
0.0588235294117647
 40
0.0588235294117647
 40
0.0588235294117647
 40
0.1176470588235294
 40
0.1176470588235294
 40
0.1176470588235294
 40
0.1176470588235294
 40
0.1764705882352941
 40
0.1764705882352941
 40
0.1764705882352941
 40
0.1764705882352941
 40
0.2352941176470588
 40
0.2352941176470588
 40
0.2352941176470588
 40
0.2352941176470588
 40
0.2941176470588235
 40
0.2941176470588235
 40
0.2941176470588235
 40
0.2941176470588235
 40
0.3529411764705883
 40
0.3529411764705883
 40
0.3529411764705883
 40
0.3529411764705883
 40
0.4117647058823529
 40
0.4117647058823529
 40
0.4117647058823529
 40
0.4117647058823529
 40
0.4705882352941176
 40
0.4705882352941176
 40
0.4705882352941176
 40
0.4705882352941176
 40
0.5294117647058824
 40
0.5294117647058824
 40
0.5294117647058824
 40
0.5294117647058824
 40
0.5882352941176471
 40
0.5882352941176471
 40
0.5882352941176471
 40
0.5882352941176471
 40
0.6470588235294118
 40
0.6470588235294118
 40
0.6470588235294118
 40
0.6470588235294118
 40
0.7058823529411765
 40
0.7058823529411765
 40
0.7058823529411765
 40
0.7058823529411765
 40
0.7647058823529411
 40
0.7647058823529411
 40
0.7647058823529411
 40
0.7647058823529411
 40
0.8235294117647058
 40
0.8235294117647058
 40
0.8235294117647058
 40
0.8235294117647058
 40
0.8823529411764706
 40
0.8823529411764706
 40
0.8823529411764706
 40
0.8823529411764706
 40
1.0
 40
1.0
 40
1.0
 40
1.0
 10
-103.6385
 20
4.8164
 30
0.0
 10
-103.6385
 20
4.8164
 30
0.0
 10
-107.2646
 20
8.4425
 30
0.0
 10
-107.2646
 20
8.4425
 30
0.0
 10
-107.2646
 20
8.4425
 30
0.0
 10
-107.2646
 20
8.4425
 30
0.0
 10
-103.6385
 20
12.0687
 30
0.0
 10
-103.6385
 20
12.0687
 30
0.0
 10
-103.6385
 20
12.0687
 30
0.0
 10
-103.6385
 20
12.0687
 30
0.0
 10
-97.7999
 20
12.0687
 30
0.0
 10
-97.7999
 20
12.0687
 30
0.0
 10
-97.7999
 20
12.0687
 30
0.0
 10
-97.7999
 20
12.0687
 30
0.0
 10
-97.7999
 20
17.9915
 30
0.0
 10
-97.7999
 20
17.9915
 30
0.0
 10
-97.7999
 20
17.9915
 30
0.0
 10
-97.7999
 20
17.9915
 30
0.0
 10
-94.1618
 20
21.6179
 30
0.0
 10
-94.1618
 20
21.6179
 30
0.0
 10
-94.1618
 20
21.6179
 30
0.0
 10
-94.1618
 20
21.6179
 30
0.0
 10
-90.5114
 20
17.9915
 30
0.0
 10
-90.5114
 20
17.9915
 30
0.0
 10
-90.5114
 20
17.9915
 30
0.0
 10
-90.5114
 20
17.9915
 30
0.0
 10
-90.5114
 20
12.0687
 30
0.0
 10
-90.5114
 20
12.0687
 30
0.0
 10
-90.5114
 20
12.0687
 30
0.0
 10
-90.5114
 20
12.0687
 30
0.0
 10
-84.6489
 20
12.0687
 30
0.0
 10
-84.6489
 20
12.0687
 30
0.0
 10
-84.6489
 20
12.0687
 30
0.0
 10
-84.6489
 20
12.0687
 30
0.0
 10
-81.0347
 20
8.4425
 30
0.0
 10
-81.0347
 20
8.4425
 30
0.0
 10
-81.0347
 20
8.4425
 30
0.0
 10
-81.0347
 20
8.4425
 30
0.0
 10
-84.6489
 20
4.8164
 30
0.0
 10
-84.6489
 20
4.8164
 30
0.0
 10
-84.6489
 20
4.8164
 30
0.0
 10
-84.6489
 20
4.8164
 30
0.0
 10
-90.5114
 20
4.8164
 30
0.0
 10
-90.5114
 20
4.8164
 30
0.0
 10
-90.5114
 20
4.8164
 30
0.0
 10
-90.5114
 20
4.8164
 30
0.0
 10
-90.5234
 20
-0.9858
 30
0.0
 10
-90.5234
 20
-0.9858
 30
0.0
 10
-90.5234
 20
-0.9858
 30
0.0
 10
-90.5234
 20
-0.9858
 30
0.0
 10
-94.1618
 20
-4.7329
 30
0.0
 10
-94.1618
 20
-4.7329
 30
0.0
 10
-94.1618
 20
-4.7329
 30
0.0
 10
-94.1618
 20
-4.7329
 30
0.0
 10
-97.8123
 20
-0.9858
 30
0.0
 10
-97.8123
 20
-0.9858
 30
0.0
 10
-97.8123
 20
-0.9858
 30
0.0
 10
-97.8123
 20
-0.9858
 30
0.0
 10
-97.7999
 20
4.8164
 30
0.0
 10
-97.7999
 20
4.8164
 30
0.0
 10
-97.7999
 20
4.8164
 30
0.0
 10
-97.7999
 20
4.8164
 30
0.0
 10
-103.6385
 20
4.8164
 30
0.0
 10
-103.6385
 20
4.8164
 30
0.0
  0
SPLINE
  5
67
330
1F
100
AcDbEntity
  8
layer 1
 62
     7
100
AcDbSpline
210
0.0
220
0.0
230
1.0
 70
    11
 71
     3
 72
    68
 73
    64
 74
     0
 42
0.0000000001
 43
0.0000000001
 12
1.0
 22
0.0
 32
0.0
 13
1.0
 23
0.0
 33
0.0
 40
0.0
 40
0.0
 40
0.0
 40
0.0
 40
0.0588235294117647
 40
0.0588235294117647
 40
0.0588235294117647
 40
0.0588235294117647
 40
0.1176470588235294
 40
0.1176470588235294
 40
0.1176470588235294
 40
0.1176470588235294
 40
0.1764705882352941
 40
0.1764705882352941
 40
0.1764705882352941
 40
0.1764705882352941
 40
0.2352941176470588
 40
0.2352941176470588
 40
0.2352941176470588
 40
0.2352941176470588
 40
0.2941176470588235
 40
0.2941176470588235
 40
0.2941176470588235
 40
0.2941176470588235
 40
0.3529411764705883
 40
0.3529411764705883
 40
0.3529411764705883
 40
0.3529411764705883
 40
0.4117647058823529
 40
0.4117647058823529
 40
0.4117647058823529
 40
0.4117647058823529
 40
0.4705882352941176
 40
0.4705882352941176
 40
0.4705882352941176
 40
0.4705882352941176
 40
0.5294117647058824
 40
0.5294117647058824
 40
0.5294117647058824
 40
0.5294117647058824
 40
0.5882352941176471
 40
0.5882352941176471
 40
0.5882352941176471
 40
0.5882352941176471
 40
0.6470588235294118
 40
0.6470588235294118
 40
0.6470588235294118
 40
0.6470588235294118
 40
0.7058823529411765
 40
0.7058823529411765
 40
0.7058823529411765
 40
0.7058823529411765
 40
0.7647058823529411
 40
0.7647058823529411
 40
0.7647058823529411
 40
0.7647058823529411
 40
0.8235294117647058
 40
0.8235294117647058
 40
0.8235294117647058
 40
0.8235294117647058
 40
0.8823529411764706
 40
0.8823529411764706
 40
0.8823529411764706
 40
0.8823529411764706
 40
1.0
 40
1.0
 40
1.0
 40
1.0
 10
-117.9014
 20
-15.3697
 30
0.0
 10
-117.9014
 20
-15.3697
 30
0.0
 10
-117.9014
 20
-10.6557
 30
0.0
 10
-117.9014
 20
-10.6557
 30
0.0
 10
-117.9014
 20
-10.6557
 30
0.0
 10
-117.9014
 20
-10.6557
 30
0.0
 10
-121.286
 20
-7.2711
 30
0.0
 10
-121.286
 20
-7.2711
 30
0.0
 10
-121.286
 20
-7.2711
 30
0.0
 10
-121.286
 20
-7.2711
 30
0.0
 10
-117.9014
 20
-4.0075
 30
0.0
 10
-117.9014
 20
-4.0075
 30
0.0
 10
-117.9014
 20
-4.0075
 30
0.0
 10
-117.9014
 20
-4.0075
 30
0.0
 10
-117.9014
 20
0.7065
 30
0.0
 10
-117.9014
 20
0.7065
 30
0.0
 10
-117.9014
 20
0.7065
 30
0.0
 10
-117.9014
 20
0.7065
 30
0.0
 10
-113.1874
 20
0.7065
 30
0.0
 10
-113.1874
 20
0.7065
 30
0.0
 10
-113.1874
 20
0.7065
 30
0.0
 10
-113.1874
 20
0.7065
 30
0.0
 10
-109.9238
 20
4.091
 30
0.0
 10
-109.9238
 20
4.091
 30
0.0
 10
-109.9238
 20
4.091
 30
0.0
 10
-109.9238
 20
4.091
 30
0.0
 10
-106.5392
 20
0.7065
 30
0.0
 10
-106.5392
 20
0.7065
 30
0.0
 10
-106.5392
 20
0.7065
 30
0.0
 10
-106.5392
 20
0.7065
 30
0.0
 10
-101.8252
 20
0.7065
 30
0.0
 10
-101.8252
 20
0.7065
 30
0.0
 10
-101.8252
 20
0.7065
 30
0.0
 10
-101.8252
 20
0.7065
 30
0.0
 10
-101.8252
 20
-4.0075
 30
0.0
 10
-101.8252
 20
-4.0075
 30
0.0
 10
-101.8252
 20
-4.0075
 30
0.0
 10
-101.8252
 20
-4.0075
 30
0.0
 10
-98.5253
 20
-7.2711
 30
0.0
 10
-98.5253
 20
-7.2711
 30
0.0
 10
-98.5253
 20
-7.2711
 30
0.0
 10
-98.5253
 20
-7.2711
 30
0.0
 10
-101.8252
 20
-10.6557
 30
0.0
 10
-101.8252
 20
-10.6557
 30
0.0
 10
-101.8252
 20
-10.6557
 30
0.0
 10
-101.8252
 20
-10.6557
 30
0.0
 10
-101.8252
 20
-15.3697
 30
0.0
 10
-101.8252
 20
-15.3697
 30
0.0
 10
-101.8252
 20
-15.3697
 30
0.0
 10
-101.8252
 20
-15.3697
 30
0.0
 10
-106.5392
 20
-15.3697
 30
0.0
 10
-106.5392
 20
-15.3697
 30
0.0
 10
-106.5392
 20
-15.3697
 30
0.0
 10
-106.5392
 20
-15.3697
 30
0.0
 10
-109.9238
 20
-18.6333
 30
0.0
 10
-109.9238
 20
-18.6333
 30
0.0
 10
-109.9238
 20
-18.6333
 30
0.0
 10
-109.9238
 20
-18.6333
 30
0.0
 10
-113.1874
 20
-15.3697
 30
0.0
 10
-113.1874
 20
-15.3697
 30
0.0
 10
-113.1874
 20
-15.3697
 30
0.0
 10
-113.1874
 20
-15.3697
 30
0.0
 10
-117.9014
 20
-15.3697
 30
0.0
 10
-117.9014
 20
-15.3697
 30
0.0
  0
SPLINE
  5
68
330
1F
100
AcDbEntity
  8
layer 1
 62
     7
100
AcDbSpline
210
0.0
220
0.0
230
1.0
 70
    11
 71
     3
 72
    68
 73
    64
 74
     0
 42
0.0000000001
 43
0.0000000001
 12
1.0
 22
0.0
 32
0.0
 13
1.0
 23
0.0
 33
0.0
 40
0.0
 40
0.0
 40
0.0
 40
0.0
 40
0.0588235294117647
 40
0.0588235294117647
 40
0.0588235294117647
 40
0.0588235294117647
 40
0.1176470588235294
 40
0.1176470588235294
 40
0.1176470588235294
 40
0.1176470588235294
 40
0.1764705882352941
 40
0.1764705882352941
 40
0.1764705882352941
 40
0.1764705882352941
 40
0.2352941176470588
 40
0.2352941176470588
 40
0.2352941176470588
 40
0.2352941176470588
 40
0.2941176470588235
 40
0.2941176470588235
 40
0.2941176470588235
 40
0.2941176470588235
 40
0.3529411764705883
 40
0.3529411764705883
 40
0.3529411764705883
 40
0.3529411764705883
 40
0.4117647058823529
 40
0.4117647058823529
 40
0.4117647058823529
 40
0.4117647058823529
 40
0.4705882352941176
 40
0.4705882352941176
 40
0.4705882352941176
 40
0.4705882352941176
 40
0.5294117647058824
 40
0.5294117647058824
 40
0.5294117647058824
 40
0.5294117647058824
 40
0.5882352941176471
 40
0.5882352941176471
 40
0.5882352941176471
 40
0.5882352941176471
 40
0.6470588235294118
 40
0.6470588235294118
 40
0.6470588235294118
 40
0.6470588235294118
 40
0.7058823529411765
 40
0.7058823529411765
 40
0.7058823529411765
 40
0.7058823529411765
 40
0.7647058823529411
 40
0.7647058823529411
 40
0.7647058823529411
 40
0.7647058823529411
 40
0.8235294117647058
 40
0.8235294117647058
 40
0.8235294117647058
 40
0.8235294117647058
 40
0.8823529411764706
 40
0.8823529411764706
 40
0.8823529411764706
 40
0.8823529411764706
 40
1.0
 40
1.0
 40
1.0
 40
1.0
 10
-103.6385
 20
36.2437
 30
0.0
 10
-103.6385
 20
36.2437
 30
0.0
 10
-107.2646
 20
39.9908
 30
0.0
 10
-107.2646
 20
39.9908
 30
0.0
 10
-107.2646
 20
39.9908
 30
0.0
 10
-107.2646
 20
39.9908
 30
0.0
 10
-103.6385
 20
43.6169
 30
0.0
 10
-103.6385
 20
43.6169
 30
0.0
 10
-103.6385
 20
43.6169
 30
0.0
 10
-103.6385
 20
43.6169
 30
0.0
 10
-97.7999
 20
43.6169
 30
0.0
 10
-97.7999
 20
43.6169
 30
0.0
 10
-97.7999
 20
43.6169
 30
0.0
 10
-97.7999
 20
43.6169
 30
0.0
 10
-97.7999
 20
49.4191
 30
0.0
 10
-97.7999
 20
49.4191
 30
0.0
 10
-97.7999
 20
49.4191
 30
0.0
 10
-97.7999
 20
49.4191
 30
0.0
 10
-94.1618
 20
53.0452
 30
0.0
 10
-94.1618
 20
53.0452
 30
0.0
 10
-94.1618
 20
53.0452
 30
0.0
 10
-94.1618
 20
53.0452
 30
0.0
 10
-90.5114
 20
49.4191
 30
0.0
 10
-90.5114
 20
49.4191
 30
0.0
 10
-90.5114
 20
49.4191
 30
0.0
 10
-90.5114
 20
49.4191
 30
0.0
 10
-90.5114
 20
43.6169
 30
0.0
 10
-90.5114
 20
43.6169
 30
0.0
 10
-90.5114
 20
43.6169
 30
0.0
 10
-90.5114
 20
43.6169
 30
0.0
 10
-84.6489
 20
43.6169
 30
0.0
 10
-84.6489
 20
43.6169
 30
0.0
 10
-84.6489
 20
43.6169
 30
0.0
 10
-84.6489
 20
43.6169
 30
0.0
 10
-81.0347
 20
39.9908
 30
0.0
 10
-81.0347
 20
39.9908
 30
0.0
 10
-81.0347
 20
39.9908
 30
0.0
 10
-81.0347
 20
39.9908
 30
0.0
 10
-84.6489
 20
36.2437
 30
0.0
 10
-84.6489
 20
36.2437
 30
0.0
 10
-84.6489
 20
36.2437
 30
0.0
 10
-84.6489
 20
36.2437
 30
0.0
 10
-90.5114
 20
36.2437
 30
0.0
 10
-90.5114
 20
36.2437
 30
0.0
 10
-90.5114
 20
36.2437
 30
0.0
 10
-90.5114
 20
36.2437
 30
0.0
 10
-90.5234
 20
30.4418
 30
0.0
 10
-90.5234
 20
30.4418
 30
0.0
 10
-90.5234
 20
30.4418
 30
0.0
 10
-90.5234
 20
30.4418
 30
0.0
 10
-94.1618
 20
26.8154
 30
0.0
 10
-94.1618
 20
26.8154
 30
0.0
 10
-94.1618
 20
26.8154
 30
0.0
 10
-94.1618
 20
26.8154
 30
0.0
 10
-97.8123
 20
30.4418
 30
0.0
 10
-97.8123
 20
30.4418
 30
0.0
 10
-97.8123
 20
30.4418
 30
0.0
 10
-97.8123
 20
30.4418
 30
0.0
 10
-97.7999
 20
36.2437
 30
0.0
 10
-97.7999
 20
36.2437
 30
0.0
 10
-97.7999
 20
36.2437
 30
0.0
 10
-97.7999
 20
36.2437
 30
0.0
 10
-103.6385
 20
36.2437
 30
0.0
 10
-103.6385
 20
36.2437
 30
0.0
  0
SPLINE
  5
69
330
1F
100
AcDbEntity
  8
layer 1
 62
     7
100
AcDbSpline
210
0.0
220
0.0
230
1.0
 70
    11
 71
     3
 72
    68
 73
    64
 74
     0
 42
0.0000000001
 43
0.0000000001
 12
1.0
 22
0.0
 32
0.0
 13
1.0
 23
0.0
 33
0.0
 40
0.0
 40
0.0
 40
0.0
 40
0.0
 40
0.0588235294117647
 40
0.0588235294117647
 40
0.0588235294117647
 40
0.0588235294117647
 40
0.1176470588235294
 40
0.1176470588235294
 40
0.1176470588235294
 40
0.1176470588235294
 40
0.1764705882352941
 40
0.1764705882352941
 40
0.1764705882352941
 40
0.1764705882352941
 40
0.2352941176470588
 40
0.2352941176470588
 40
0.2352941176470588
 40
0.2352941176470588
 40
0.2941176470588235
 40
0.2941176470588235
 40
0.2941176470588235
 40
0.2941176470588235
 40
0.3529411764705883
 40
0.3529411764705883
 40
0.3529411764705883
 40
0.3529411764705883
 40
0.4117647058823529
 40
0.4117647058823529
 40
0.4117647058823529
 40
0.4117647058823529
 40
0.4705882352941176
 40
0.4705882352941176
 40
0.4705882352941176
 40
0.4705882352941176
 40
0.5294117647058824
 40
0.5294117647058824
 40
0.5294117647058824
 40
0.5294117647058824
 40
0.5882352941176471
 40
0.5882352941176471
 40
0.5882352941176471
 40
0.5882352941176471
 40
0.6470588235294118
 40
0.6470588235294118
 40
0.6470588235294118
 40
0.6470588235294118
 40
0.7058823529411765
 40
0.7058823529411765
 40
0.7058823529411765
 40
0.7058823529411765
 40
0.7647058823529411
 40
0.7647058823529411
 40
0.7647058823529411
 40
0.7647058823529411
 40
0.8235294117647058
 40
0.8235294117647058
 40
0.8235294117647058
 40
0.8235294117647058
 40
0.8823529411764706
 40
0.8823529411764706
 40
0.8823529411764706
 40
0.8823529411764706
 40
1.0
 40
1.0
 40
1.0
 40
1.0
 10
-117.9014
 20
16.1786
 30
0.0
 10
-117.9014
 20
16.1786
 30
0.0
 10
-117.9014
 20
20.8926
 30
0.0
 10
-117.9014
 20
20.8926
 30
0.0
 10
-117.9014
 20
20.8926
 30
0.0
 10
-117.9014
 20
20.8926
 30
0.0
 10
-121.286
 20
24.1562
 30
0.0
 10
-121.286
 20
24.1562
 30
0.0
 10
-121.286
 20
24.1562
 30
0.0
 10
-121.286
 20
24.1562
 30
0.0
 10
-117.9014
 20
27.5407
 30
0.0
 10
-117.9014
 20
27.5407
 30
0.0
 10
-117.9014
 20
27.5407
 30
0.0
 10
-117.9014
 20
27.5407
 30
0.0
 10
-117.9014
 20
32.2547
 30
0.0
 10
-117.9014
 20
32.2547
 30
0.0
 10
-117.9014
 20
32.2547
 30
0.0
 10
-117.9014
 20
32.2547
 30
0.0
 10
-113.1874
 20
32.2547
 30
0.0
 10
-113.1874
 20
32.2547
 30
0.0
 10
-113.1874
 20
32.2547
 30
0.0
 10
-113.1874
 20
32.2547
 30
0.0
 10
-109.9238
 20
35.5184
 30
0.0
 10
-109.9238
 20
35.5184
 30
0.0
 10
-109.9238
 20
35.5184
 30
0.0
 10
-109.9238
 20
35.5184
 30
0.0
 10
-106.5392
 20
32.2547
 30
0.0
 10
-106.5392
 20
32.2547
 30
0.0
 10
-106.5392
 20
32.2547
 30
0.0
 10
-106.5392
 20
32.2547
 30
0.0
 10
-101.8252
 20
32.2547
 30
0.0
 10
-101.8252
 20
32.2547
 30
0.0
 10
-101.8252
 20
32.2547
 30
0.0
 10
-101.8252
 20
32.2547
 30
0.0
 10
-101.8252
 20
27.5407
 30
0.0
 10
-101.8252
 20
27.5407
 30
0.0
 10
-101.8252
 20
27.5407
 30
0.0
 10
-101.8252
 20
27.5407
 30
0.0
 10
-98.5253
 20
24.1562
 30
0.0
 10
-98.5253
 20
24.1562
 30
0.0
 10
-98.5253
 20
24.1562
 30
0.0
 10
-98.5253
 20
24.1562
 30
0.0
 10
-101.8252
 20
20.8926
 30
0.0
 10
-101.8252
 20
20.8926
 30
0.0
 10
-101.8252
 20
20.8926
 30
0.0
 10
-101.8252
 20
20.8926
 30
0.0
 10
-101.8252
 20
16.1786
 30
0.0
 10
-101.8252
 20
16.1786
 30
0.0
 10
-101.8252
 20
16.1786
 30
0.0
 10
-101.8252
 20
16.1786
 30
0.0
 10
-106.5392
 20
16.1786
 30
0.0
 10
-106.5392
 20
16.1786
 30
0.0
 10
-106.5392
 20
16.1786
 30
0.0
 10
-106.5392
 20
16.1786
 30
0.0
 10
-109.9238
 20
12.794
 30
0.0
 10
-109.9238
 20
12.794
 30
0.0
 10
-109.9238
 20
12.794
 30
0.0
 10
-109.9238
 20
12.794
 30
0.0
 10
-113.1874
 20
16.1786
 30
0.0
 10
-113.1874
 20
16.1786
 30
0.0
 10
-113.1874
 20
16.1786
 30
0.0
 10
-113.1874
 20
16.1786
 30
0.0
 10
-117.9014
 20
16.1786
 30
0.0
 10
-117.9014
 20
16.1786
 30
0.0
  0
SPLINE
  5
6A
330
1F
100
AcDbEntity
  8
layer 1
 62
     7
100
AcDbSpline
210
0.0
220
0.0
230
1.0
 70
    11
 71
     3
 72
    68
 73
    64
 74
     0
 42
0.0000000001
 43
0.0000000001
 12
1.0
 22
0.0
 32
0.0
 13
1.0
 23
0.0
 33
0.0
 40
0.0
 40
0.0
 40
0.0
 40
0.0
 40
0.0588235294117647
 40
0.0588235294117647
 40
0.0588235294117647
 40
0.0588235294117647
 40
0.1176470588235294
 40
0.1176470588235294
 40
0.1176470588235294
 40
0.1176470588235294
 40
0.1764705882352941
 40
0.1764705882352941
 40
0.1764705882352941
 40
0.1764705882352941
 40
0.2352941176470588
 40
0.2352941176470588
 40
0.2352941176470588
 40
0.2352941176470588
 40
0.2941176470588235
 40
0.2941176470588235
 40
0.2941176470588235
 40
0.2941176470588235
 40
0.3529411764705883
 40
0.3529411764705883
 40
0.3529411764705883
 40
0.3529411764705883
 40
0.4117647058823529
 40
0.4117647058823529
 40
0.4117647058823529
 40
0.4117647058823529
 40
0.4705882352941176
 40
0.4705882352941176
 40
0.4705882352941176
 40
0.4705882352941176
 40
0.5294117647058824
 40
0.5294117647058824
 40
0.5294117647058824
 40
0.5294117647058824
 40
0.5882352941176471
 40
0.5882352941176471
 40
0.5882352941176471
 40
0.5882352941176471
 40
0.6470588235294118
 40
0.6470588235294118
 40
0.6470588235294118
 40
0.6470588235294118
 40
0.7058823529411765
 40
0.7058823529411765
 40
0.7058823529411765
 40
0.7058823529411765
 40
0.7647058823529411
 40
0.7647058823529411
 40
0.7647058823529411
 40
0.7647058823529411
 40
0.8235294117647058
 40
0.8235294117647058
 40
0.8235294117647058
 40
0.8235294117647058
 40
0.8823529411764706
 40
0.8823529411764706
 40
0.8823529411764706
 40
0.8823529411764706
 40
1.0
 40
1.0
 40
1.0
 40
1.0
 10
-103.6385
 20
67.792
 30
0.0
 10
-103.6385
 20
67.792
 30
0.0
 10
-107.2646
 20
71.4181
 30
0.0
 10
-107.2646
 20
71.4181
 30
0.0
 10
-107.2646
 20
71.4181
 30
0.0
 10
-107.2646
 20
71.4181
 30
0.0
 10
-103.6385
 20
75.0446
 30
0.0
 10
-103.6385
 20
75.0446
 30
0.0
 10
-103.6385
 20
75.0446
 30
0.0
 10
-103.6385
 20
75.0446
 30
0.0
 10
-97.7999
 20
75.0446
 30
0.0
 10
-97.7999
 20
75.0446
 30
0.0
 10
-97.7999
 20
75.0446
 30
0.0
 10
-97.7999
 20
75.0446
 30
0.0
 10
-97.7999
 20
80.9674
 30
0.0
 10
-97.7999
 20
80.9674
 30
0.0
 10
-97.7999
 20
80.9674
 30
0.0
 10
-97.7999
 20
80.9674
 30
0.0
 10
-94.1618
 20
84.5935
 30
0.0
 10
-94.1618
 20
84.5935
 30
0.0
 10
-94.1618
 20
84.5935
 30
0.0
 10
-94.1618
 20
84.5935
 30
0.0
 10
-90.5114
 20
80.9674
 30
0.0
 10
-90.5114
 20
80.9674
 30
0.0
 10
-90.5114
 20
80.9674
 30
0.0
 10
-90.5114
 20
80.9674
 30
0.0
 10
-90.5114
 20
75.0446
 30
0.0
 10
-90.5114
 20
75.0446
 30
0.0
 10
-90.5114
 20
75.0446
 30
0.0
 10
-90.5114
 20
75.0446
 30
0.0
 10
-84.6489
 20
75.0446
 30
0.0
 10
-84.6489
 20
75.0446
 30
0.0
 10
-84.6489
 20
75.0446
 30
0.0
 10
-84.6489
 20
75.0446
 30
0.0
 10
-81.0347
 20
71.4181
 30
0.0
 10
-81.0347
 20
71.4181
 30
0.0
 10
-81.0347
 20
71.4181
 30
0.0
 10
-81.0347
 20
71.4181
 30
0.0
 10
-84.6489
 20
67.792
 30
0.0
 10
-84.6489
 20
67.792
 30
0.0
 10
-84.6489
 20
67.792
 30
0.0
 10
-84.6489
 20
67.792
 30
0.0
 10
-90.5114
 20
67.792
 30
0.0
 10
-90.5114
 20
67.792
 30
0.0
 10
-90.5114
 20
67.792
 30
0.0
 10
-90.5114
 20
67.792
 30
0.0
 10
-90.5234
 20
61.9901
 30
0.0
 10
-90.5234
 20
61.9901
 30
0.0
 10
-90.5234
 20
61.9901
 30
0.0
 10
-90.5234
 20
61.9901
 30
0.0
 10
-94.1618
 20
58.2427
 30
0.0
 10
-94.1618
 20
58.2427
 30
0.0
 10
-94.1618
 20
58.2427
 30
0.0
 10
-94.1618
 20
58.2427
 30
0.0
 10
-97.8123
 20
61.9901
 30
0.0
 10
-97.8123
 20
61.9901
 30
0.0
 10
-97.8123
 20
61.9901
 30
0.0
 10
-97.8123
 20
61.9901
 30
0.0
 10
-97.7999
 20
67.792
 30
0.0
 10
-97.7999
 20
67.792
 30
0.0
 10
-97.7999
 20
67.792
 30
0.0
 10
-97.7999
 20
67.792
 30
0.0
 10
-103.6385
 20
67.792
 30
0.0
 10
-103.6385
 20
67.792
 30
0.0
  0
SPLINE
  5
6B
330
1F
100
AcDbEntity
  8
layer 1
 62
     7
100
AcDbSpline
210
0.0
220
0.0
230
1.0
 70
    11
 71
     3
 72
    68
 73
    64
 74
     0
 42
0.0000000001
 43
0.0000000001
 12
1.0
 22
0.0
 32
0.0
 13
1.0
 23
0.0
 33
0.0
 40
0.0
 40
0.0
 40
0.0
 40
0.0
 40
0.0588235294117647
 40
0.0588235294117647
 40
0.0588235294117647
 40
0.0588235294117647
 40
0.1176470588235294
 40
0.1176470588235294
 40
0.1176470588235294
 40
0.1176470588235294
 40
0.1764705882352941
 40
0.1764705882352941
 40
0.1764705882352941
 40
0.1764705882352941
 40
0.2352941176470588
 40
0.2352941176470588
 40
0.2352941176470588
 40
0.2352941176470588
 40
0.2941176470588235
 40
0.2941176470588235
 40
0.2941176470588235
 40
0.2941176470588235
 40
0.3529411764705883
 40
0.3529411764705883
 40
0.3529411764705883
 40
0.3529411764705883
 40
0.4117647058823529
 40
0.4117647058823529
 40
0.4117647058823529
 40
0.4117647058823529
 40
0.4705882352941176
 40
0.4705882352941176
 40
0.4705882352941176
 40
0.4705882352941176
 40
0.5294117647058824
 40
0.5294117647058824
 40
0.5294117647058824
 40
0.5294117647058824
 40
0.5882352941176471
 40
0.5882352941176471
 40
0.5882352941176471
 40
0.5882352941176471
 40
0.6470588235294118
 40
0.6470588235294118
 40
0.6470588235294118
 40
0.6470588235294118
 40
0.7058823529411765
 40
0.7058823529411765
 40
0.7058823529411765
 40
0.7058823529411765
 40
0.7647058823529411
 40
0.7647058823529411
 40
0.7647058823529411
 40
0.7647058823529411
 40
0.8235294117647058
 40
0.8235294117647058
 40
0.8235294117647058
 40
0.8235294117647058
 40
0.8823529411764706
 40
0.8823529411764706
 40
0.8823529411764706
 40
0.8823529411764706
 40
1.0
 40
1.0
 40
1.0
 40
1.0
 10
-117.9014
 20
47.6059
 30
0.0
 10
-117.9014
 20
47.6059
 30
0.0
 10
-117.9014
 20
52.3199
 30
0.0
 10
-117.9014
 20
52.3199
 30
0.0
 10
-117.9014
 20
52.3199
 30
0.0
 10
-117.9014
 20
52.3199
 30
0.0
 10
-121.286
 20
55.7044
 30
0.0
 10
-121.286
 20
55.7044
 30
0.0
 10
-121.286
 20
55.7044
 30
0.0
 10
-121.286
 20
55.7044
 30
0.0
 10
-117.9014
 20
58.9681
 30
0.0
 10
-117.9014
 20
58.9681
 30
0.0
 10
-117.9014
 20
58.9681
 30
0.0
 10
-117.9014
 20
58.9681
 30
0.0
 10
-117.9014
 20
63.682
 30
0.0
 10
-117.9014
 20
63.682
 30
0.0
 10
-117.9014
 20
63.682
 30
0.0
 10
-117.9014
 20
63.682
 30
0.0
 10
-113.1874
 20
63.682
 30
0.0
 10
-113.1874
 20
63.682
 30
0.0
 10
-113.1874
 20
63.682
 30
0.0
 10
-113.1874
 20
63.682
 30
0.0
 10
-109.9238
 20
67.0666
 30
0.0
 10
-109.9238
 20
67.0666
 30
0.0
 10
-109.9238
 20
67.0666
 30
0.0
 10
-109.9238
 20
67.0666
 30
0.0
 10
-106.5392
 20
63.682
 30
0.0
 10
-106.5392
 20
63.682
 30
0.0
 10
-106.5392
 20
63.682
 30
0.0
 10
-106.5392
 20
63.682
 30
0.0
 10
-101.8252
 20
63.682
 30
0.0
 10
-101.8252
 20
63.682
 30
0.0
 10
-101.8252
 20
63.682
 30
0.0
 10
-101.8252
 20
63.682
 30
0.0
 10
-101.8252
 20
58.9681
 30
0.0
 10
-101.8252
 20
58.9681
 30
0.0
 10
-101.8252
 20
58.9681
 30
0.0
 10
-101.8252
 20
58.9681
 30
0.0
 10
-98.5253
 20
55.7044
 30
0.0
 10
-98.5253
 20
55.7044
 30
0.0
 10
-98.5253
 20
55.7044
 30
0.0
 10
-98.5253
 20
55.7044
 30
0.0
 10
-101.8252
 20
52.3199
 30
0.0
 10
-101.8252
 20
52.3199
 30
0.0
 10
-101.8252
 20
52.3199
 30
0.0
 10
-101.8252
 20
52.3199
 30
0.0
 10
-101.8252
 20
47.6059
 30
0.0
 10
-101.8252
 20
47.6059
 30
0.0
 10
-101.8252
 20
47.6059
 30
0.0
 10
-101.8252
 20
47.6059
 30
0.0
 10
-106.5392
 20
47.6059
 30
0.0
 10
-106.5392
 20
47.6059
 30
0.0
 10
-106.5392
 20
47.6059
 30
0.0
 10
-106.5392
 20
47.6059
 30
0.0
 10
-109.9238
 20
44.3423
 30
0.0
 10
-109.9238
 20
44.3423
 30
0.0
 10
-109.9238
 20
44.3423
 30
0.0
 10
-109.9238
 20
44.3423
 30
0.0
 10
-113.1874
 20
47.6059
 30
0.0
 10
-113.1874
 20
47.6059
 30
0.0
 10
-113.1874
 20
47.6059
 30
0.0
 10
-113.1874
 20
47.6059
 30
0.0
 10
-117.9014
 20
47.6059
 30
0.0
 10
-117.9014
 20
47.6059
 30
0.0
  0
SPLINE
  5
6C
330
1F
100
AcDbEntity
  8
layer 1
 62
     7
100
AcDbSpline
210
0.0
220
0.0
230
1.0
 70
    11
 71
     3
 72
    68
 73
    64
 74
     0
 42
0.0000000001
 43
0.0000000001
 12
1.0
 22
0.0
 32
0.0
 13
1.0
 23
0.0
 33
0.0
 40
0.0
 40
0.0
 40
0.0
 40
0.0
 40
0.0588235294117647
 40
0.0588235294117647
 40
0.0588235294117647
 40
0.0588235294117647
 40
0.1176470588235294
 40
0.1176470588235294
 40
0.1176470588235294
 40
0.1176470588235294
 40
0.1764705882352941
 40
0.1764705882352941
 40
0.1764705882352941
 40
0.1764705882352941
 40
0.2352941176470588
 40
0.2352941176470588
 40
0.2352941176470588
 40
0.2352941176470588
 40
0.2941176470588235
 40
0.2941176470588235
 40
0.2941176470588235
 40
0.2941176470588235
 40
0.3529411764705883
 40
0.3529411764705883
 40
0.3529411764705883
 40
0.3529411764705883
 40
0.4117647058823529
 40
0.4117647058823529
 40
0.4117647058823529
 40
0.4117647058823529
 40
0.4705882352941176
 40
0.4705882352941176
 40
0.4705882352941176
 40
0.4705882352941176
 40
0.5294117647058824
 40
0.5294117647058824
 40
0.5294117647058824
 40
0.5294117647058824
 40
0.5882352941176471
 40
0.5882352941176471
 40
0.5882352941176471
 40
0.5882352941176471
 40
0.6470588235294118
 40
0.6470588235294118
 40
0.6470588235294118
 40
0.6470588235294118
 40
0.7058823529411765
 40
0.7058823529411765
 40
0.7058823529411765
 40
0.7058823529411765
 40
0.7647058823529411
 40
0.7647058823529411
 40
0.7647058823529411
 40
0.7647058823529411
 40
0.8235294117647058
 40
0.8235294117647058
 40
0.8235294117647058
 40
0.8235294117647058
 40
0.8823529411764706
 40
0.8823529411764706
 40
0.8823529411764706
 40
0.8823529411764706
 40
1.0
 40
1.0
 40
1.0
 40
1.0
 10
-103.6385
 20
99.2193
 30
0.0
 10
-103.6385
 20
99.2193
 30
0.0
 10
-107.2646
 20
102.9664
 30
0.0
 10
-107.2646
 20
102.9664
 30
0.0
 10
-107.2646
 20
102.9664
 30
0.0
 10
-107.2646
 20
102.9664
 30
0.0
 10
-103.6385
 20
106.5928
 30
0.0
 10
-103.6385
 20
106.5928
 30
0.0
 10
-103.6385
 20
106.5928
 30
0.0
 10
-103.6385
 20
106.5928
 30
0.0
 10
-97.7999
 20
106.5928
 30
0.0
 10
-97.7999
 20
106.5928
 30
0.0
 10
-97.7999
 20
106.5928
 30
0.0
 10
-97.7999
 20
106.5928
 30
0.0
 10
-97.7999
 20
112.3947
 30
0.0
 10
-97.7999
 20
112.3947
 30
0.0
 10
-97.7999
 20
112.3947
 30
0.0
 10
-97.7999
 20
112.3947
 30
0.0
 10
-94.1618
 20
116.0208
 30
0.0
 10
-94.1618
 20
116.0208
 30
0.0
 10
-94.1618
 20
116.0208
 30
0.0
 10
-94.1618
 20
116.0208
 30
0.0
 10
-90.5114
 20
112.3947
 30
0.0
 10
-90.5114
 20
112.3947
 30
0.0
 10
-90.5114
 20
112.3947
 30
0.0
 10
-90.5114
 20
112.3947
 30
0.0
 10
-90.5114
 20
106.5928
 30
0.0
 10
-90.5114
 20
106.5928
 30
0.0
 10
-90.5114
 20
106.5928
 30
0.0
 10
-90.5114
 20
106.5928
 30
0.0
 10
-84.6489
 20
106.5928
 30
0.0
 10
-84.6489
 20
106.5928
 30
0.0
 10
-84.6489
 20
106.5928
 30
0.0
 10
-84.6489
 20
106.5928
 30
0.0
 10
-81.0347
 20
102.9664
 30
0.0
 10
-81.0347
 20
102.9664
 30
0.0
 10
-81.0347
 20
102.9664
 30
0.0
 10
-81.0347
 20
102.9664
 30
0.0
 10
-84.6489
 20
99.2193
 30
0.0
 10
-84.6489
 20
99.2193
 30
0.0
 10
-84.6489
 20
99.2193
 30
0.0
 10
-84.6489
 20
99.2193
 30
0.0
 10
-90.5114
 20
99.2193
 30
0.0
 10
-90.5114
 20
99.2193
 30
0.0
 10
-90.5114
 20
99.2193
 30
0.0
 10
-90.5114
 20
99.2193
 30
0.0
 10
-90.5234
 20
93.4174
 30
0.0
 10
-90.5234
 20
93.4174
 30
0.0
 10
-90.5234
 20
93.4174
 30
0.0
 10
-90.5234
 20
93.4174
 30
0.0
 10
-94.1618
 20
89.7909
 30
0.0
 10
-94.1618
 20
89.7909
 30
0.0
 10
-94.1618
 20
89.7909
 30
0.0
 10
-94.1618
 20
89.7909
 30
0.0
 10
-97.8123
 20
93.4174
 30
0.0
 10
-97.8123
 20
93.4174
 30
0.0
 10
-97.8123
 20
93.4174
 30
0.0
 10
-97.8123
 20
93.4174
 30
0.0
 10
-97.7999
 20
99.2193
 30
0.0
 10
-97.7999
 20
99.2193
 30
0.0
 10
-97.7999
 20
99.2193
 30
0.0
 10
-97.7999
 20
99.2193
 30
0.0
 10
-103.6385
 20
99.2193
 30
0.0
 10
-103.6385
 20
99.2193
 30
0.0
  0
SPLINE
  5
6D
330
1F
100
AcDbEntity
  8
layer 1
 62
     7
100
AcDbSpline
210
0.0
220
0.0
230
1.0
 70
    11
 71
     3
 72
    68
 73
    64
 74
     0
 42
0.0000000001
 43
0.0000000001
 12
1.0
 22
0.0
 32
0.0
 13
1.0
 23
0.0
 33
0.0
 40
0.0
 40
0.0
 40
0.0
 40
0.0
 40
0.0588235294117647
 40
0.0588235294117647
 40
0.0588235294117647
 40
0.0588235294117647
 40
0.1176470588235294
 40
0.1176470588235294
 40
0.1176470588235294
 40
0.1176470588235294
 40
0.1764705882352941
 40
0.1764705882352941
 40
0.1764705882352941
 40
0.1764705882352941
 40
0.2352941176470588
 40
0.2352941176470588
 40
0.2352941176470588
 40
0.2352941176470588
 40
0.2941176470588235
 40
0.2941176470588235
 40
0.2941176470588235
 40
0.2941176470588235
 40
0.3529411764705883
 40
0.3529411764705883
 40
0.3529411764705883
 40
0.3529411764705883
 40
0.4117647058823529
 40
0.4117647058823529
 40
0.4117647058823529
 40
0.4117647058823529
 40
0.4705882352941176
 40
0.4705882352941176
 40
0.4705882352941176
 40
0.4705882352941176
 40
0.5294117647058824
 40
0.5294117647058824
 40
0.5294117647058824
 40
0.5294117647058824
 40
0.5882352941176471
 40
0.5882352941176471
 40
0.5882352941176471
 40
0.5882352941176471
 40
0.6470588235294118
 40
0.6470588235294118
 40
0.6470588235294118
 40
0.6470588235294118
 40
0.7058823529411765
 40
0.7058823529411765
 40
0.7058823529411765
 40
0.7058823529411765
 40
0.7647058823529411
 40
0.7647058823529411
 40
0.7647058823529411
 40
0.7647058823529411
 40
0.8235294117647058
 40
0.8235294117647058
 40
0.8235294117647058
 40
0.8235294117647058
 40
0.8823529411764706
 40
0.8823529411764706
 40
0.8823529411764706
 40
0.8823529411764706
 40
1.0
 40
1.0
 40
1.0
 40
1.0
 10
-117.9014
 20
79.1541
 30
0.0
 10
-117.9014
 20
79.1541
 30
0.0
 10
-117.9014
 20
83.8681
 30
0.0
 10
-117.9014
 20
83.8681
 30
0.0
 10
-117.9014
 20
83.8681
 30
0.0
 10
-117.9014
 20
83.8681
 30
0.0
 10
-121.286
 20
87.1317
 30
0.0
 10
-121.286
 20
87.1317
 30
0.0
 10
-121.286
 20
87.1317
 30
0.0
 10
-121.286
 20
87.1317
 30
0.0
 10
-117.9014
 20
90.5163
 30
0.0
 10
-117.9014
 20
90.5163
 30
0.0
 10
-117.9014
 20
90.5163
 30
0.0
 10
-117.9014
 20
90.5163
 30
0.0
 10
-117.9014
 20
95.2303
 30
0.0
 10
-117.9014
 20
95.2303
 30
0.0
 10
-117.9014
 20
95.2303
 30
0.0
 10
-117.9014
 20
95.2303
 30
0.0
 10
-113.1874
 20
95.2303
 30
0.0
 10
-113.1874
 20
95.2303
 30
0.0
 10
-113.1874
 20
95.2303
 30
0.0
 10
-113.1874
 20
95.2303
 30
0.0
 10
-109.9238
 20
98.4939
 30
0.0
 10
-109.9238
 20
98.4939
 30
0.0
 10
-109.9238
 20
98.4939
 30
0.0
 10
-109.9238
 20
98.4939
 30
0.0
 10
-106.5392
 20
95.2303
 30
0.0
 10
-106.5392
 20
95.2303
 30
0.0
 10
-106.5392
 20
95.2303
 30
0.0
 10
-106.5392
 20
95.2303
 30
0.0
 10
-101.8252
 20
95.2303
 30
0.0
 10
-101.8252
 20
95.2303
 30
0.0
 10
-101.8252
 20
95.2303
 30
0.0
 10
-101.8252
 20
95.2303
 30
0.0
 10
-101.8252
 20
90.5163
 30
0.0
 10
-101.8252
 20
90.5163
 30
0.0
 10
-101.8252
 20
90.5163
 30
0.0
 10
-101.8252
 20
90.5163
 30
0.0
 10
-98.5253
 20
87.1317
 30
0.0
 10
-98.5253
 20
87.1317
 30
0.0
 10
-98.5253
 20
87.1317
 30
0.0
 10
-98.5253
 20
87.1317
 30
0.0
 10
-101.8252
 20
83.8681
 30
0.0
 10
-101.8252
 20
83.8681
 30
0.0
 10
-101.8252
 20
83.8681
 30
0.0
 10
-101.8252
 20
83.8681
 30
0.0
 10
-101.8252
 20
79.1541
 30
0.0
 10
-101.8252
 20
79.1541
 30
0.0
 10
-101.8252
 20
79.1541
 30
0.0
 10
-101.8252
 20
79.1541
 30
0.0
 10
-106.5392
 20
79.1541
 30
0.0
 10
-106.5392
 20
79.1541
 30
0.0
 10
-106.5392
 20
79.1541
 30
0.0
 10
-106.5392
 20
79.1541
 30
0.0
 10
-109.9238
 20
75.7696
 30
0.0
 10
-109.9238
 20
75.7696
 30
0.0
 10
-109.9238
 20
75.7696
 30
0.0
 10
-109.9238
 20
75.7696
 30
0.0
 10
-113.1874
 20
79.1541
 30
0.0
 10
-113.1874
 20
79.1541
 30
0.0
 10
-113.1874
 20
79.1541
 30
0.0
 10
-113.1874
 20
79.1541
 30
0.0
 10
-117.9014
 20
79.1541
 30
0.0
 10
-117.9014
 20
79.1541
 30
0.0
  0
SPLINE
  5
6E
330
1F
100
AcDbEntity
  8
layer 1
 62
     7
100
AcDbSpline
210
0.0
220
0.0
230
1.0
 70
    11
 71
     3
 72
    48
 73
    44
 74
     0
 42
0.0000000001
 43
0.0000000001
 12
1.0
 22
0.0
 32
0.0
 13
1.0
 23
0.0
 33
0.0
 40
0.0
 40
0.0
 40
0.0
 40
0.0
 40
0.0833333333333333
 40
0.0833333333333333
 40
0.0833333333333333
 40
0.0833333333333333
 40
0.1666666666666667
 40
0.1666666666666667
 40
0.1666666666666667
 40
0.1666666666666667
 40
0.25
 40
0.25
 40
0.25
 40
0.25
 40
0.3333333333333333
 40
0.3333333333333333
 40
0.3333333333333333
 40
0.3333333333333333
 40
0.4166666666666667
 40
0.4166666666666667
 40
0.4166666666666667
 40
0.4166666666666667
 40
0.5
 40
0.5
 40
0.5
 40
0.5
 40
0.5833333333333334
 40
0.5833333333333334
 40
0.5833333333333334
 40
0.5833333333333334
 40
0.6666666666666666
 40
0.6666666666666666
 40
0.6666666666666666
 40
0.6666666666666666
 40
0.75
 40
0.75
 40
0.75
 40
0.75
 40
0.8333333333333334
 40
0.8333333333333334
 40
0.8333333333333334
 40
0.8333333333333334
 40
1.0
 40
1.0
 40
1.0
 40
1.0
 10
-117.9014
 20
110.7024
 30
0.0
 10
-117.9014
 20
110.7024
 30
0.0
 10
-117.9014
 20
115.2958
 30
0.0
 10
-117.9014
 20
115.2958
 30
0.0
 10
-117.9014
 20
115.2958
 30
0.0
 10
-117.9014
 20
115.2958
 30
0.0
 10
-121.286
 20
118.68
 30
0.0
 10
-121.286
 20
118.68
 30
0.0
 10
-121.286
 20
118.68
 30
0.0
 10
-121.286
 20
118.68
 30
0.0
 10
-119.5937
 20
120.3723
 30
0.0
 10
-119.5937
 20
120.3723
 30
0.0
 10
-119.5937
 20
120.3723
 30
0.0
 10
-119.5937
 20
120.3723
 30
0.0
 10
-100.1693
 20
120.3723
 30
0.0
 10
-100.1693
 20
120.3723
 30
0.0
 10
-100.1693
 20
120.3723
 30
0.0
 10
-100.1693
 20
120.3723
 30
0.0
 10
-98.5253
 20
118.68
 30
0.0
 10
-98.5253
 20
118.68
 30
0.0
 10
-98.5253
 20
118.68
 30
0.0
 10
-98.5253
 20
118.68
 30
0.0
 10
-101.8252
 20
115.2958
 30
0.0
 10
-101.8252
 20
115.2958
 30
0.0
 10
-101.8252
 20
115.2958
 30
0.0
 10
-101.8252
 20
115.2958
 30
0.0
 10
-101.8252
 20
110.7024
 30
0.0
 10
-101.8252
 20
110.7024
 30
0.0
 10
-101.8252
 20
110.7024
 30
0.0
 10
-101.8252
 20
110.7024
 30
0.0
 10
-106.5392
 20
110.7024
 30
0.0
 10
-106.5392
 20
110.7024
 30
0.0
 10
-106.5392
 20
110.7024
 30
0.0
 10
-106.5392
 20
110.7024
 30
0.0
 10
-109.9238
 20
107.3178
 30
0.0
 10
-109.9238
 20
107.3178
 30
0.0
 10
-109.9238
 20
107.3178
 30
0.0
 10
-109.9238
 20
107.3178
 30
0.0
 10
-113.1874
 20
110.7024
 30
0.0
 10
-113.1874
 20
110.7024
 30
0.0
 10
-113.1874
 20
110.7024
 30
0.0
 10
-113.1874
 20
110.7024
 30
0.0
 10
-117.9014
 20
110.7024
 30
0.0
 10
-117.9014
 20
110.7024
 30
0.0
  0
SPLINE
  5
6F
330
1F
100
AcDbEntity
  8
layer 1
 62
     7
100
AcDbSpline
210
0.0
220
0.0
230
1.0
 70
    11
 71
     3
 72
    48
 73
    44
 74
     0
 42
0.0000000001
 43
0.0000000001
 12
1.0
 22
0.0
 32
0.0
 13
1.0
 23
0.0
 33
0.0
 40
0.0
 40
0.0
 40
0.0
 40
0.0
 40
0.0833333333333333
 40
0.0833333333333333
 40
0.0833333333333333
 40
0.0833333333333333
 40
0.1666666666666667
 40
0.1666666666666667
 40
0.1666666666666667
 40
0.1666666666666667
 40
0.25
 40
0.25
 40
0.25
 40
0.25
 40
0.3333333333333333
 40
0.3333333333333333
 40
0.3333333333333333
 40
0.3333333333333333
 40
0.4166666666666667
 40
0.4166666666666667
 40
0.4166666666666667
 40
0.4166666666666667
 40
0.5
 40
0.5
 40
0.5
 40
0.5
 40
0.5833333333333334
 40
0.5833333333333334
 40
0.5833333333333334
 40
0.5833333333333334
 40
0.6666666666666666
 40
0.6666666666666666
 40
0.6666666666666666
 40
0.6666666666666666
 40
0.75
 40
0.75
 40
0.75
 40
0.75
 40
0.8333333333333334
 40
0.8333333333333334
 40
0.8333333333333334
 40
0.8333333333333334
 40
1.0
 40
1.0
 40
1.0
 40
1.0
 10
-86.4378
 20
110.7024
 30
0.0
 10
-86.4378
 20
110.7024
 30
0.0
 10
-86.4378
 20
115.2958
 30
0.0
 10
-86.4378
 20
115.2958
 30
0.0
 10
-86.4378
 20
115.2958
 30
0.0
 10
-86.4378
 20
115.2958
 30
0.0
 10
-89.762
 20
118.68
 30
0.0
 10
-89.762
 20
118.68
 30
0.0
 10
-89.762
 20
118.68
 30
0.0
 10
-89.762
 20
118.68
 30
0.0
 10
-88.1061
 20
120.3723
 30
0.0
 10
-88.1061
 20
120.3723
 30
0.0
 10
-88.1061
 20
120.3723
 30
0.0
 10
-88.1061
 20
120.3723
 30
0.0
 10
-68.6813
 20
120.3723
 30
0.0
 10
-68.6813
 20
120.3723
 30
0.0
 10
-68.6813
 20
120.3723
 30
0.0
 10
-68.6813
 20
120.3723
 30
0.0
 10
-67.0253
 20
118.68
 30
0.0
 10
-67.0253
 20
118.68
 30
0.0
 10
-67.0253
 20
118.68
 30
0.0
 10
-67.0253
 20
118.68
 30
0.0
 10
-70.3616
 20
115.2958
 30
0.0
 10
-70.3616
 20
115.2958
 30
0.0
 10
-70.3616
 20
115.2958
 30
0.0
 10
-70.3616
 20
115.2958
 30
0.0
 10
-70.3616
 20
110.7024
 30
0.0
 10
-70.3616
 20
110.7024
 30
0.0
 10
-70.3616
 20
110.7024
 30
0.0
 10
-70.3616
 20
110.7024
 30
0.0
 10
-75.0636
 20
110.7024
 30
0.0
 10
-75.0636
 20
110.7024
 30
0.0
 10
-75.0636
 20
110.7024
 30
0.0
 10
-75.0636
 20
110.7024
 30
0.0
 10
-78.3999
 20
107.3178
 30
0.0
 10
-78.3999
 20
107.3178
 30
0.0
 10
-78.3999
 20
107.3178
 30
0.0
 10
-78.3999
 20
107.3178
 30
0.0
 10
-81.7238
 20
110.7024
 30
0.0
 10
-81.7238
 20
110.7024
 30
0.0
 10
-81.7238
 20
110.7024
 30
0.0
 10
-81.7238
 20
110.7024
 30
0.0
 10
-86.4378
 20
110.7024
 30
0.0
 10
-86.4378
 20
110.7024
 30
0.0
  0
SPLINE
  5
70
330
1F
100
AcDbEntity
  8
layer 1
 62
     7
100
AcDbSpline
210
0.0
220
0.0
230
1.0
 70
    11
 71
     3
 72
    68
 73
    64
 74
     0
 42
0.0000000001
 43
0.0000000001
 12
1.0
 22
0.0
 32
0.0
 13
1.0
 23
0.0
 33
0.0
 40
0.0
 40
0.0
 40
0.0
 40
0.0
 40
0.0588235294117647
 40
0.0588235294117647
 40
0.0588235294117647
 40
0.0588235294117647
 40
0.1176470588235294
 40
0.1176470588235294
 40
0.1176470588235294
 40
0.1176470588235294
 40
0.1764705882352941
 40
0.1764705882352941
 40
0.1764705882352941
 40
0.1764705882352941
 40
0.2352941176470588
 40
0.2352941176470588
 40
0.2352941176470588
 40
0.2352941176470588
 40
0.2941176470588235
 40
0.2941176470588235
 40
0.2941176470588235
 40
0.2941176470588235
 40
0.3529411764705883
 40
0.3529411764705883
 40
0.3529411764705883
 40
0.3529411764705883
 40
0.4117647058823529
 40
0.4117647058823529
 40
0.4117647058823529
 40
0.4117647058823529
 40
0.4705882352941176
 40
0.4705882352941176
 40
0.4705882352941176
 40
0.4705882352941176
 40
0.5294117647058824
 40
0.5294117647058824
 40
0.5294117647058824
 40
0.5294117647058824
 40
0.5882352941176471
 40
0.5882352941176471
 40
0.5882352941176471
 40
0.5882352941176471
 40
0.6470588235294118
 40
0.6470588235294118
 40
0.6470588235294118
 40
0.6470588235294118
 40
0.7058823529411765
 40
0.7058823529411765
 40
0.7058823529411765
 40
0.7058823529411765
 40
0.7647058823529411
 40
0.7647058823529411
 40
0.7647058823529411
 40
0.7647058823529411
 40
0.8235294117647058
 40
0.8235294117647058
 40
0.8235294117647058
 40
0.8235294117647058
 40
0.8823529411764706
 40
0.8823529411764706
 40
0.8823529411764706
 40
0.8823529411764706
 40
1.0
 40
1.0
 40
1.0
 40
1.0
 10
-72.1262
 20
99.2193
 30
0.0
 10
-72.1262
 20
99.2193
 30
0.0
 10
-75.801
 20
102.9664
 30
0.0
 10
-75.801
 20
102.9664
 30
0.0
 10
-75.801
 20
102.9664
 30
0.0
 10
-75.801
 20
102.9664
 30
0.0
 10
-72.1262
 20
106.5928
 30
0.0
 10
-72.1262
 20
106.5928
 30
0.0
 10
-72.1262
 20
106.5928
 30
0.0
 10
-72.1262
 20
106.5928
 30
0.0
 10
-66.3123
 20
106.5928
 30
0.0
 10
-66.3123
 20
106.5928
 30
0.0
 10
-66.3123
 20
106.5928
 30
0.0
 10
-66.3123
 20
106.5928
 30
0.0
 10
-66.3123
 20
112.3947
 30
0.0
 10
-66.3123
 20
112.3947
 30
0.0
 10
-66.3123
 20
112.3947
 30
0.0
 10
-66.3123
 20
112.3947
 30
0.0
 10
-62.6739
 20
116.0208
 30
0.0
 10
-62.6739
 20
116.0208
 30
0.0
 10
-62.6739
 20
116.0208
 30
0.0
 10
-62.6739
 20
116.0208
 30
0.0
 10
-59.0114
 20
112.3947
 30
0.0
 10
-59.0114
 20
112.3947
 30
0.0
 10
-59.0114
 20
112.3947
 30
0.0
 10
-59.0114
 20
112.3947
 30
0.0
 10
-59.0114
 20
106.5928
 30
0.0
 10
-59.0114
 20
106.5928
 30
0.0
 10
-59.0114
 20
106.5928
 30
0.0
 10
-59.0114
 20
106.5928
 30
0.0
 10
-53.1612
 20
106.5928
 30
0.0
 10
-53.1612
 20
106.5928
 30
0.0
 10
-53.1612
 20
106.5928
 30
0.0
 10
-53.1612
 20
106.5928
 30
0.0
 10
-49.5348
 20
102.9664
 30
0.0
 10
-49.5348
 20
102.9664
 30
0.0
 10
-49.5348
 20
102.9664
 30
0.0
 10
-49.5348
 20
102.9664
 30
0.0
 10
-53.1612
 20
99.2193
 30
0.0
 10
-53.1612
 20
99.2193
 30
0.0
 10
-53.1612
 20
99.2193
 30
0.0
 10
-53.1612
 20
99.2193
 30
0.0
 10
-59.0114
 20
99.2193
 30
0.0
 10
-59.0114
 20
99.2193
 30
0.0
 10
-59.0114
 20
99.2193
 30
0.0
 10
-59.0114
 20
99.2193
 30
0.0
 10
-59.0234
 20
93.4174
 30
0.0
 10
-59.0234
 20
93.4174
 30
0.0
 10
-59.0234
 20
93.4174
 30
0.0
 10
-59.0234
 20
93.4174
 30
0.0
 10
-62.6739
 20
89.7909
 30
0.0
 10
-62.6739
 20
89.7909
 30
0.0
 10
-62.6739
 20
89.7909
 30
0.0
 10
-62.6739
 20
89.7909
 30
0.0
 10
-66.3243
 20
93.4174
 30
0.0
 10
-66.3243
 20
93.4174
 30
0.0
 10
-66.3243
 20
93.4174
 30
0.0
 10
-66.3243
 20
93.4174
 30
0.0
 10
-66.3123
 20
99.2193
 30
0.0
 10
-66.3123
 20
99.2193
 30
0.0
 10
-66.3123
 20
99.2193
 30
0.0
 10
-66.3123
 20
99.2193
 30
0.0
 10
-72.1262
 20
99.2193
 30
0.0
 10
-72.1262
 20
99.2193
 30
0.0
  0
SPLINE
  5
71
330
1F
100
AcDbEntity
  8
layer 1
 62
     7
100
AcDbSpline
210
0.0
220
0.0
230
1.0
 70
    11
 71
     3
 72
    68
 73
    64
 74
     0
 42
0.0000000001
 43
0.0000000001
 12
1.0
 22
0.0
 32
0.0
 13
1.0
 23
0.0
 33
0.0
 40
0.0
 40
0.0
 40
0.0
 40
0.0
 40
0.0588235294117647
 40
0.0588235294117647
 40
0.0588235294117647
 40
0.0588235294117647
 40
0.1176470588235294
 40
0.1176470588235294
 40
0.1176470588235294
 40
0.1176470588235294
 40
0.1764705882352941
 40
0.1764705882352941
 40
0.1764705882352941
 40
0.1764705882352941
 40
0.2352941176470588
 40
0.2352941176470588
 40
0.2352941176470588
 40
0.2352941176470588
 40
0.2941176470588235
 40
0.2941176470588235
 40
0.2941176470588235
 40
0.2941176470588235
 40
0.3529411764705883
 40
0.3529411764705883
 40
0.3529411764705883
 40
0.3529411764705883
 40
0.4117647058823529
 40
0.4117647058823529
 40
0.4117647058823529
 40
0.4117647058823529
 40
0.4705882352941176
 40
0.4705882352941176
 40
0.4705882352941176
 40
0.4705882352941176
 40
0.5294117647058824
 40
0.5294117647058824
 40
0.5294117647058824
 40
0.5294117647058824
 40
0.5882352941176471
 40
0.5882352941176471
 40
0.5882352941176471
 40
0.5882352941176471
 40
0.6470588235294118
 40
0.6470588235294118
 40
0.6470588235294118
 40
0.6470588235294118
 40
0.7058823529411765
 40
0.7058823529411765
 40
0.7058823529411765
 40
0.7058823529411765
 40
0.7647058823529411
 40
0.7647058823529411
 40
0.7647058823529411
 40
0.7647058823529411
 40
0.8235294117647058
 40
0.8235294117647058
 40
0.8235294117647058
 40
0.8235294117647058
 40
0.8823529411764706
 40
0.8823529411764706
 40
0.8823529411764706
 40
0.8823529411764706
 40
1.0
 40
1.0
 40
1.0
 40
1.0
 10
-86.4378
 20
79.1541
 30
0.0
 10
-86.4378
 20
79.1541
 30
0.0
 10
-86.4378
 20
83.8681
 30
0.0
 10
-86.4378
 20
83.8681
 30
0.0
 10
-86.4378
 20
83.8681
 30
0.0
 10
-86.4378
 20
83.8681
 30
0.0
 10
-89.762
 20
87.1317
 30
0.0
 10
-89.762
 20
87.1317
 30
0.0
 10
-89.762
 20
87.1317
 30
0.0
 10
-89.762
 20
87.1317
 30
0.0
 10
-86.4378
 20
90.5163
 30
0.0
 10
-86.4378
 20
90.5163
 30
0.0
 10
-86.4378
 20
90.5163
 30
0.0
 10
-86.4378
 20
90.5163
 30
0.0
 10
-86.4378
 20
95.2303
 30
0.0
 10
-86.4378
 20
95.2303
 30
0.0
 10
-86.4378
 20
95.2303
 30
0.0
 10
-86.4378
 20
95.2303
 30
0.0
 10
-81.7238
 20
95.2303
 30
0.0
 10
-81.7238
 20
95.2303
 30
0.0
 10
-81.7238
 20
95.2303
 30
0.0
 10
-81.7238
 20
95.2303
 30
0.0
 10
-78.3999
 20
98.4939
 30
0.0
 10
-78.3999
 20
98.4939
 30
0.0
 10
-78.3999
 20
98.4939
 30
0.0
 10
-78.3999
 20
98.4939
 30
0.0
 10
-75.0636
 20
95.2303
 30
0.0
 10
-75.0636
 20
95.2303
 30
0.0
 10
-75.0636
 20
95.2303
 30
0.0
 10
-75.0636
 20
95.2303
 30
0.0
 10
-70.3616
 20
95.2303
 30
0.0
 10
-70.3616
 20
95.2303
 30
0.0
 10
-70.3616
 20
95.2303
 30
0.0
 10
-70.3616
 20
95.2303
 30
0.0
 10
-70.3616
 20
90.5163
 30
0.0
 10
-70.3616
 20
90.5163
 30
0.0
 10
-70.3616
 20
90.5163
 30
0.0
 10
-70.3616
 20
90.5163
 30
0.0
 10
-67.0253
 20
87.1317
 30
0.0
 10
-67.0253
 20
87.1317
 30
0.0
 10
-67.0253
 20
87.1317
 30
0.0
 10
-67.0253
 20
87.1317
 30
0.0
 10
-70.3616
 20
83.8681
 30
0.0
 10
-70.3616
 20
83.8681
 30
0.0
 10
-70.3616
 20
83.8681
 30
0.0
 10
-70.3616
 20
83.8681
 30
0.0
 10
-70.3616
 20
79.1541
 30
0.0
 10
-70.3616
 20
79.1541
 30
0.0
 10
-70.3616
 20
79.1541
 30
0.0
 10
-70.3616
 20
79.1541
 30
0.0
 10
-75.0636
 20
79.1541
 30
0.0
 10
-75.0636
 20
79.1541
 30
0.0
 10
-75.0636
 20
79.1541
 30
0.0
 10
-75.0636
 20
79.1541
 30
0.0
 10
-78.3999
 20
75.7696
 30
0.0
 10
-78.3999
 20
75.7696
 30
0.0
 10
-78.3999
 20
75.7696
 30
0.0
 10
-78.3999
 20
75.7696
 30
0.0
 10
-81.7238
 20
79.1541
 30
0.0
 10
-81.7238
 20
79.1541
 30
0.0
 10
-81.7238
 20
79.1541
 30
0.0
 10
-81.7238
 20
79.1541
 30
0.0
 10
-86.4378
 20
79.1541
 30
0.0
 10
-86.4378
 20
79.1541
 30
0.0
  0
SPLINE
  5
72
330
1F
100
AcDbEntity
  8
layer 1
 62
     7
100
AcDbSpline
210
0.0
220
0.0
230
1.0
 70
    11
 71
     3
 72
    68
 73
    64
 74
     0
 42
0.0000000001
 43
0.0000000001
 12
1.0
 22
0.0
 32
0.0
 13
1.0
 23
0.0
 33
0.0
 40
0.0
 40
0.0
 40
0.0
 40
0.0
 40
0.0588235294117647
 40
0.0588235294117647
 40
0.0588235294117647
 40
0.0588235294117647
 40
0.1176470588235294
 40
0.1176470588235294
 40
0.1176470588235294
 40
0.1176470588235294
 40
0.1764705882352941
 40
0.1764705882352941
 40
0.1764705882352941
 40
0.1764705882352941
 40
0.2352941176470588
 40
0.2352941176470588
 40
0.2352941176470588
 40
0.2352941176470588
 40
0.2941176470588235
 40
0.2941176470588235
 40
0.2941176470588235
 40
0.2941176470588235
 40
0.3529411764705883
 40
0.3529411764705883
 40
0.3529411764705883
 40
0.3529411764705883
 40
0.4117647058823529
 40
0.4117647058823529
 40
0.4117647058823529
 40
0.4117647058823529
 40
0.4705882352941176
 40
0.4705882352941176
 40
0.4705882352941176
 40
0.4705882352941176
 40
0.5294117647058824
 40
0.5294117647058824
 40
0.5294117647058824
 40
0.5294117647058824
 40
0.5882352941176471
 40
0.5882352941176471
 40
0.5882352941176471
 40
0.5882352941176471
 40
0.6470588235294118
 40
0.6470588235294118
 40
0.6470588235294118
 40
0.6470588235294118
 40
0.7058823529411765
 40
0.7058823529411765
 40
0.7058823529411765
 40
0.7058823529411765
 40
0.7647058823529411
 40
0.7647058823529411
 40
0.7647058823529411
 40
0.7647058823529411
 40
0.8235294117647058
 40
0.8235294117647058
 40
0.8235294117647058
 40
0.8235294117647058
 40
0.8823529411764706
 40
0.8823529411764706
 40
0.8823529411764706
 40
0.8823529411764706
 40
1.0
 40
1.0
 40
1.0
 40
1.0
 10
-72.1262
 20
67.792
 30
0.0
 10
-72.1262
 20
67.792
 30
0.0
 10
-75.801
 20
71.4181
 30
0.0
 10
-75.801
 20
71.4181
 30
0.0
 10
-75.801
 20
71.4181
 30
0.0
 10
-75.801
 20
71.4181
 30
0.0
 10
-72.1262
 20
75.0446
 30
0.0
 10
-72.1262
 20
75.0446
 30
0.0
 10
-72.1262
 20
75.0446
 30
0.0
 10
-72.1262
 20
75.0446
 30
0.0
 10
-66.3123
 20
75.0446
 30
0.0
 10
-66.3123
 20
75.0446
 30
0.0
 10
-66.3123
 20
75.0446
 30
0.0
 10
-66.3123
 20
75.0446
 30
0.0
 10
-66.3123
 20
80.9674
 30
0.0
 10
-66.3123
 20
80.9674
 30
0.0
 10
-66.3123
 20
80.9674
 30
0.0
 10
-66.3123
 20
80.9674
 30
0.0
 10
-62.6739
 20
84.5935
 30
0.0
 10
-62.6739
 20
84.5935
 30
0.0
 10
-62.6739
 20
84.5935
 30
0.0
 10
-62.6739
 20
84.5935
 30
0.0
 10
-59.0114
 20
80.9674
 30
0.0
 10
-59.0114
 20
80.9674
 30
0.0
 10
-59.0114
 20
80.9674
 30
0.0
 10
-59.0114
 20
80.9674
 30
0.0
 10
-59.0114
 20
75.0446
 30
0.0
 10
-59.0114
 20
75.0446
 30
0.0
 10
-59.0114
 20
75.0446
 30
0.0
 10
-59.0114
 20
75.0446
 30
0.0
 10
-53.1612
 20
75.0446
 30
0.0
 10
-53.1612
 20
75.0446
 30
0.0
 10
-53.1612
 20
75.0446
 30
0.0
 10
-53.1612
 20
75.0446
 30
0.0
 10
-49.5348
 20
71.4181
 30
0.0
 10
-49.5348
 20
71.4181
 30
0.0
 10
-49.5348
 20
71.4181
 30
0.0
 10
-49.5348
 20
71.4181
 30
0.0
 10
-53.1612
 20
67.792
 30
0.0
 10
-53.1612
 20
67.792
 30
0.0
 10
-53.1612
 20
67.792
 30
0.0
 10
-53.1612
 20
67.792
 30
0.0
 10
-59.0114
 20
67.792
 30
0.0
 10
-59.0114
 20
67.792
 30
0.0
 10
-59.0114
 20
67.792
 30
0.0
 10
-59.0114
 20
67.792
 30
0.0
 10
-59.0234
 20
61.9901
 30
0.0
 10
-59.0234
 20
61.9901
 30
0.0
 10
-59.0234
 20
61.9901
 30
0.0
 10
-59.0234
 20
61.9901
 30
0.0
 10
-62.6739
 20
58.2427
 30
0.0
 10
-62.6739
 20
58.2427
 30
0.0
 10
-62.6739
 20
58.2427
 30
0.0
 10
-62.6739
 20
58.2427
 30
0.0
 10
-66.3243
 20
61.9901
 30
0.0
 10
-66.3243
 20
61.9901
 30
0.0
 10
-66.3243
 20
61.9901
 30
0.0
 10
-66.3243
 20
61.9901
 30
0.0
 10
-66.3123
 20
67.792
 30
0.0
 10
-66.3123
 20
67.792
 30
0.0
 10
-66.3123
 20
67.792
 30
0.0
 10
-66.3123
 20
67.792
 30
0.0
 10
-72.1262
 20
67.792
 30
0.0
 10
-72.1262
 20
67.792
 30
0.0
  0
SPLINE
  5
73
330
1F
100
AcDbEntity
  8
layer 1
 62
     7
100
AcDbSpline
210
0.0
220
0.0
230
1.0
 70
    11
 71
     3
 72
    68
 73
    64
 74
     0
 42
0.0000000001
 43
0.0000000001
 12
1.0
 22
0.0
 32
0.0
 13
1.0
 23
0.0
 33
0.0
 40
0.0
 40
0.0
 40
0.0
 40
0.0
 40
0.0588235294117647
 40
0.0588235294117647
 40
0.0588235294117647
 40
0.0588235294117647
 40
0.1176470588235294
 40
0.1176470588235294
 40
0.1176470588235294
 40
0.1176470588235294
 40
0.1764705882352941
 40
0.1764705882352941
 40
0.1764705882352941
 40
0.1764705882352941
 40
0.2352941176470588
 40
0.2352941176470588
 40
0.2352941176470588
 40
0.2352941176470588
 40
0.2941176470588235
 40
0.2941176470588235
 40
0.2941176470588235
 40
0.2941176470588235
 40
0.3529411764705883
 40
0.3529411764705883
 40
0.3529411764705883
 40
0.3529411764705883
 40
0.4117647058823529
 40
0.4117647058823529
 40
0.4117647058823529
 40
0.4117647058823529
 40
0.4705882352941176
 40
0.4705882352941176
 40
0.4705882352941176
 40
0.4705882352941176
 40
0.5294117647058824
 40
0.5294117647058824
 40
0.5294117647058824
 40
0.5294117647058824
 40
0.5882352941176471
 40
0.5882352941176471
 40
0.5882352941176471
 40
0.5882352941176471
 40
0.6470588235294118
 40
0.6470588235294118
 40
0.6470588235294118
 40
0.6470588235294118
 40
0.7058823529411765
 40
0.7058823529411765
 40
0.7058823529411765
 40
0.7058823529411765
 40
0.7647058823529411
 40
0.7647058823529411
 40
0.7647058823529411
 40
0.7647058823529411
 40
0.8235294117647058
 40
0.8235294117647058
 40
0.8235294117647058
 40
0.8235294117647058
 40
0.8823529411764706
 40
0.8823529411764706
 40
0.8823529411764706
 40
0.8823529411764706
 40
1.0
 40
1.0
 40
1.0
 40
1.0
 10
-86.4378
 20
47.6059
 30
0.0
 10
-86.4378
 20
47.6059
 30
0.0
 10
-86.4378
 20
52.3199
 30
0.0
 10
-86.4378
 20
52.3199
 30
0.0
 10
-86.4378
 20
52.3199
 30
0.0
 10
-86.4378
 20
52.3199
 30
0.0
 10
-89.762
 20
55.7044
 30
0.0
 10
-89.762
 20
55.7044
 30
0.0
 10
-89.762
 20
55.7044
 30
0.0
 10
-89.762
 20
55.7044
 30
0.0
 10
-86.4378
 20
58.9681
 30
0.0
 10
-86.4378
 20
58.9681
 30
0.0
 10
-86.4378
 20
58.9681
 30
0.0
 10
-86.4378
 20
58.9681
 30
0.0
 10
-86.4378
 20
63.682
 30
0.0
 10
-86.4378
 20
63.682
 30
0.0
 10
-86.4378
 20
63.682
 30
0.0
 10
-86.4378
 20
63.682
 30
0.0
 10
-81.7238
 20
63.682
 30
0.0
 10
-81.7238
 20
63.682
 30
0.0
 10
-81.7238
 20
63.682
 30
0.0
 10
-81.7238
 20
63.682
 30
0.0
 10
-78.3999
 20
67.0666
 30
0.0
 10
-78.3999
 20
67.0666
 30
0.0
 10
-78.3999
 20
67.0666
 30
0.0
 10
-78.3999
 20
67.0666
 30
0.0
 10
-75.0636
 20
63.682
 30
0.0
 10
-75.0636
 20
63.682
 30
0.0
 10
-75.0636
 20
63.682
 30
0.0
 10
-75.0636
 20
63.682
 30
0.0
 10
-70.3616
 20
63.682
 30
0.0
 10
-70.3616
 20
63.682
 30
0.0
 10
-70.3616
 20
63.682
 30
0.0
 10
-70.3616
 20
63.682
 30
0.0
 10
-70.3616
 20
58.9681
 30
0.0
 10
-70.3616
 20
58.9681
 30
0.0
 10
-70.3616
 20
58.9681
 30
0.0
 10
-70.3616
 20
58.9681
 30
0.0
 10
-67.0253
 20
55.7044
 30
0.0
 10
-67.0253
 20
55.7044
 30
0.0
 10
-67.0253
 20
55.7044
 30
0.0
 10
-67.0253
 20
55.7044
 30
0.0
 10
-70.3616
 20
52.3199
 30
0.0
 10
-70.3616
 20
52.3199
 30
0.0
 10
-70.3616
 20
52.3199
 30
0.0
 10
-70.3616
 20
52.3199
 30
0.0
 10
-70.3616
 20
47.6059
 30
0.0
 10
-70.3616
 20
47.6059
 30
0.0
 10
-70.3616
 20
47.6059
 30
0.0
 10
-70.3616
 20
47.6059
 30
0.0
 10
-75.0636
 20
47.6059
 30
0.0
 10
-75.0636
 20
47.6059
 30
0.0
 10
-75.0636
 20
47.6059
 30
0.0
 10
-75.0636
 20
47.6059
 30
0.0
 10
-78.3999
 20
44.3423
 30
0.0
 10
-78.3999
 20
44.3423
 30
0.0
 10
-78.3999
 20
44.3423
 30
0.0
 10
-78.3999
 20
44.3423
 30
0.0
 10
-81.7238
 20
47.6059
 30
0.0
 10
-81.7238
 20
47.6059
 30
0.0
 10
-81.7238
 20
47.6059
 30
0.0
 10
-81.7238
 20
47.6059
 30
0.0
 10
-86.4378
 20
47.6059
 30
0.0
 10
-86.4378
 20
47.6059
 30
0.0
  0
SPLINE
  5
74
330
1F
100
AcDbEntity
  8
layer 1
 62
     7
100
AcDbSpline
210
0.0
220
0.0
230
1.0
 70
    11
 71
     3
 72
    68
 73
    64
 74
     0
 42
0.0000000001
 43
0.0000000001
 12
1.0
 22
0.0
 32
0.0
 13
1.0
 23
0.0
 33
0.0
 40
0.0
 40
0.0
 40
0.0
 40
0.0
 40
0.0588235294117647
 40
0.0588235294117647
 40
0.0588235294117647
 40
0.0588235294117647
 40
0.1176470588235294
 40
0.1176470588235294
 40
0.1176470588235294
 40
0.1176470588235294
 40
0.1764705882352941
 40
0.1764705882352941
 40
0.1764705882352941
 40
0.1764705882352941
 40
0.2352941176470588
 40
0.2352941176470588
 40
0.2352941176470588
 40
0.2352941176470588
 40
0.2941176470588235
 40
0.2941176470588235
 40
0.2941176470588235
 40
0.2941176470588235
 40
0.3529411764705883
 40
0.3529411764705883
 40
0.3529411764705883
 40
0.3529411764705883
 40
0.4117647058823529
 40
0.4117647058823529
 40
0.4117647058823529
 40
0.4117647058823529
 40
0.4705882352941176
 40
0.4705882352941176
 40
0.4705882352941176
 40
0.4705882352941176
 40
0.5294117647058824
 40
0.5294117647058824
 40
0.5294117647058824
 40
0.5294117647058824
 40
0.5882352941176471
 40
0.5882352941176471
 40
0.5882352941176471
 40
0.5882352941176471
 40
0.6470588235294118
 40
0.6470588235294118
 40
0.6470588235294118
 40
0.6470588235294118
 40
0.7058823529411765
 40
0.7058823529411765
 40
0.7058823529411765
 40
0.7058823529411765
 40
0.7647058823529411
 40
0.7647058823529411
 40
0.7647058823529411
 40
0.7647058823529411
 40
0.8235294117647058
 40
0.8235294117647058
 40
0.8235294117647058
 40
0.8235294117647058
 40
0.8823529411764706
 40
0.8823529411764706
 40
0.8823529411764706
 40
0.8823529411764706
 40
1.0
 40
1.0
 40
1.0
 40
1.0
 10
-72.1262
 20
36.2437
 30
0.0
 10
-72.1262
 20
36.2437
 30
0.0
 10
-75.801
 20
39.9908
 30
0.0
 10
-75.801
 20
39.9908
 30
0.0
 10
-75.801
 20
39.9908
 30
0.0
 10
-75.801
 20
39.9908
 30
0.0
 10
-72.1262
 20
43.6169
 30
0.0
 10
-72.1262
 20
43.6169
 30
0.0
 10
-72.1262
 20
43.6169
 30
0.0
 10
-72.1262
 20
43.6169
 30
0.0
 10
-66.3123
 20
43.6169
 30
0.0
 10
-66.3123
 20
43.6169
 30
0.0
 10
-66.3123
 20
43.6169
 30
0.0
 10
-66.3123
 20
43.6169
 30
0.0
 10
-66.3123
 20
49.4191
 30
0.0
 10
-66.3123
 20
49.4191
 30
0.0
 10
-66.3123
 20
49.4191
 30
0.0
 10
-66.3123
 20
49.4191
 30
0.0
 10
-62.6739
 20
53.0452
 30
0.0
 10
-62.6739
 20
53.0452
 30
0.0
 10
-62.6739
 20
53.0452
 30
0.0
 10
-62.6739
 20
53.0452
 30
0.0
 10
-59.0114
 20
49.4191
 30
0.0
 10
-59.0114
 20
49.4191
 30
0.0
 10
-59.0114
 20
49.4191
 30
0.0
 10
-59.0114
 20
49.4191
 30
0.0
 10
-59.0114
 20
43.6169
 30
0.0
 10
-59.0114
 20
43.6169
 30
0.0
 10
-59.0114
 20
43.6169
 30
0.0
 10
-59.0114
 20
43.6169
 30
0.0
 10
-53.1612
 20
43.6169
 30
0.0
 10
-53.1612
 20
43.6169
 30
0.0
 10
-53.1612
 20
43.6169
 30
0.0
 10
-53.1612
 20
43.6169
 30
0.0
 10
-49.5348
 20
39.9908
 30
0.0
 10
-49.5348
 20
39.9908
 30
0.0
 10
-49.5348
 20
39.9908
 30
0.0
 10
-49.5348
 20
39.9908
 30
0.0
 10
-53.1612
 20
36.2437
 30
0.0
 10
-53.1612
 20
36.2437
 30
0.0
 10
-53.1612
 20
36.2437
 30
0.0
 10
-53.1612
 20
36.2437
 30
0.0
 10
-59.0114
 20
36.2437
 30
0.0
 10
-59.0114
 20
36.2437
 30
0.0
 10
-59.0114
 20
36.2437
 30
0.0
 10
-59.0114
 20
36.2437
 30
0.0
 10
-59.0234
 20
30.4418
 30
0.0
 10
-59.0234
 20
30.4418
 30
0.0
 10
-59.0234
 20
30.4418
 30
0.0
 10
-59.0234
 20
30.4418
 30
0.0
 10
-62.6739
 20
26.8154
 30
0.0
 10
-62.6739
 20
26.8154
 30
0.0
 10
-62.6739
 20
26.8154
 30
0.0
 10
-62.6739
 20
26.8154
 30
0.0
 10
-66.3243
 20
30.4418
 30
0.0
 10
-66.3243
 20
30.4418
 30
0.0
 10
-66.3243
 20
30.4418
 30
0.0
 10
-66.3243
 20
30.4418
 30
0.0
 10
-66.3123
 20
36.2437
 30
0.0
 10
-66.3123
 20
36.2437
 30
0.0
 10
-66.3123
 20
36.2437
 30
0.0
 10
-66.3123
 20
36.2437
 30
0.0
 10
-72.1262
 20
36.2437
 30
0.0
 10
-72.1262
 20
36.2437
 30
0.0
  0
SPLINE
  5
75
330
1F
100
AcDbEntity
  8
layer 1
 62
     7
100
AcDbSpline
210
0.0
220
0.0
230
1.0
 70
    11
 71
     3
 72
    68
 73
    64
 74
     0
 42
0.0000000001
 43
0.0000000001
 12
1.0
 22
0.0
 32
0.0
 13
1.0
 23
0.0
 33
0.0
 40
0.0
 40
0.0
 40
0.0
 40
0.0
 40
0.0588235294117647
 40
0.0588235294117647
 40
0.0588235294117647
 40
0.0588235294117647
 40
0.1176470588235294
 40
0.1176470588235294
 40
0.1176470588235294
 40
0.1176470588235294
 40
0.1764705882352941
 40
0.1764705882352941
 40
0.1764705882352941
 40
0.1764705882352941
 40
0.2352941176470588
 40
0.2352941176470588
 40
0.2352941176470588
 40
0.2352941176470588
 40
0.2941176470588235
 40
0.2941176470588235
 40
0.2941176470588235
 40
0.2941176470588235
 40
0.3529411764705883
 40
0.3529411764705883
 40
0.3529411764705883
 40
0.3529411764705883
 40
0.4117647058823529
 40
0.4117647058823529
 40
0.4117647058823529
 40
0.4117647058823529
 40
0.4705882352941176
 40
0.4705882352941176
 40
0.4705882352941176
 40
0.4705882352941176
 40
0.5294117647058824
 40
0.5294117647058824
 40
0.5294117647058824
 40
0.5294117647058824
 40
0.5882352941176471
 40
0.5882352941176471
 40
0.5882352941176471
 40
0.5882352941176471
 40
0.6470588235294118
 40
0.6470588235294118
 40
0.6470588235294118
 40
0.6470588235294118
 40
0.7058823529411765
 40
0.7058823529411765
 40
0.7058823529411765
 40
0.7058823529411765
 40
0.7647058823529411
 40
0.7647058823529411
 40
0.7647058823529411
 40
0.7647058823529411
 40
0.8235294117647058
 40
0.8235294117647058
 40
0.8235294117647058
 40
0.8235294117647058
 40
0.8823529411764706
 40
0.8823529411764706
 40
0.8823529411764706
 40
0.8823529411764706
 40
1.0
 40
1.0
 40
1.0
 40
1.0
 10
-86.4378
 20
16.1786
 30
0.0
 10
-86.4378
 20
16.1786
 30
0.0
 10
-86.4378
 20
20.8926
 30
0.0
 10
-86.4378
 20
20.8926
 30
0.0
 10
-86.4378
 20
20.8926
 30
0.0
 10
-86.4378
 20
20.8926
 30
0.0
 10
-89.762
 20
24.1562
 30
0.0
 10
-89.762
 20
24.1562
 30
0.0
 10
-89.762
 20
24.1562
 30
0.0
 10
-89.762
 20
24.1562
 30
0.0
 10
-86.4378
 20
27.5407
 30
0.0
 10
-86.4378
 20
27.5407
 30
0.0
 10
-86.4378
 20
27.5407
 30
0.0
 10
-86.4378
 20
27.5407
 30
0.0
 10
-86.4378
 20
32.2547
 30
0.0
 10
-86.4378
 20
32.2547
 30
0.0
 10
-86.4378
 20
32.2547
 30
0.0
 10
-86.4378
 20
32.2547
 30
0.0
 10
-81.7238
 20
32.2547
 30
0.0
 10
-81.7238
 20
32.2547
 30
0.0
 10
-81.7238
 20
32.2547
 30
0.0
 10
-81.7238
 20
32.2547
 30
0.0
 10
-78.3999
 20
35.5184
 30
0.0
 10
-78.3999
 20
35.5184
 30
0.0
 10
-78.3999
 20
35.5184
 30
0.0
 10
-78.3999
 20
35.5184
 30
0.0
 10
-75.0636
 20
32.2547
 30
0.0
 10
-75.0636
 20
32.2547
 30
0.0
 10
-75.0636
 20
32.2547
 30
0.0
 10
-75.0636
 20
32.2547
 30
0.0
 10
-70.3616
 20
32.2547
 30
0.0
 10
-70.3616
 20
32.2547
 30
0.0
 10
-70.3616
 20
32.2547
 30
0.0
 10
-70.3616
 20
32.2547
 30
0.0
 10
-70.3616
 20
27.5407
 30
0.0
 10
-70.3616
 20
27.5407
 30
0.0
 10
-70.3616
 20
27.5407
 30
0.0
 10
-70.3616
 20
27.5407
 30
0.0
 10
-67.0253
 20
24.1562
 30
0.0
 10
-67.0253
 20
24.1562
 30
0.0
 10
-67.0253
 20
24.1562
 30
0.0
 10
-67.0253
 20
24.1562
 30
0.0
 10
-70.3616
 20
20.8926
 30
0.0
 10
-70.3616
 20
20.8926
 30
0.0
 10
-70.3616
 20
20.8926
 30
0.0
 10
-70.3616
 20
20.8926
 30
0.0
 10
-70.3616
 20
16.1786
 30
0.0
 10
-70.3616
 20
16.1786
 30
0.0
 10
-70.3616
 20
16.1786
 30
0.0
 10
-70.3616
 20
16.1786
 30
0.0
 10
-75.0636
 20
16.1786
 30
0.0
 10
-75.0636
 20
16.1786
 30
0.0
 10
-75.0636
 20
16.1786
 30
0.0
 10
-75.0636
 20
16.1786
 30
0.0
 10
-78.3999
 20
12.794
 30
0.0
 10
-78.3999
 20
12.794
 30
0.0
 10
-78.3999
 20
12.794
 30
0.0
 10
-78.3999
 20
12.794
 30
0.0
 10
-81.7238
 20
16.1786
 30
0.0
 10
-81.7238
 20
16.1786
 30
0.0
 10
-81.7238
 20
16.1786
 30
0.0
 10
-81.7238
 20
16.1786
 30
0.0
 10
-86.4378
 20
16.1786
 30
0.0
 10
-86.4378
 20
16.1786
 30
0.0
  0
SPLINE
  5
76
330
1F
100
AcDbEntity
  8
layer 1
 62
     7
100
AcDbSpline
210
0.0
220
0.0
230
1.0
 70
    11
 71
     3
 72
    68
 73
    64
 74
     0
 42
0.0000000001
 43
0.0000000001
 12
1.0
 22
0.0
 32
0.0
 13
1.0
 23
0.0
 33
0.0
 40
0.0
 40
0.0
 40
0.0
 40
0.0
 40
0.0588235294117647
 40
0.0588235294117647
 40
0.0588235294117647
 40
0.0588235294117647
 40
0.1176470588235294
 40
0.1176470588235294
 40
0.1176470588235294
 40
0.1176470588235294
 40
0.1764705882352941
 40
0.1764705882352941
 40
0.1764705882352941
 40
0.1764705882352941
 40
0.2352941176470588
 40
0.2352941176470588
 40
0.2352941176470588
 40
0.2352941176470588
 40
0.2941176470588235
 40
0.2941176470588235
 40
0.2941176470588235
 40
0.2941176470588235
 40
0.3529411764705883
 40
0.3529411764705883
 40
0.3529411764705883
 40
0.3529411764705883
 40
0.4117647058823529
 40
0.4117647058823529
 40
0.4117647058823529
 40
0.4117647058823529
 40
0.4705882352941176
 40
0.4705882352941176
 40
0.4705882352941176
 40
0.4705882352941176
 40
0.5294117647058824
 40
0.5294117647058824
 40
0.5294117647058824
 40
0.5294117647058824
 40
0.5882352941176471
 40
0.5882352941176471
 40
0.5882352941176471
 40
0.5882352941176471
 40
0.6470588235294118
 40
0.6470588235294118
 40
0.6470588235294118
 40
0.6470588235294118
 40
0.7058823529411765
 40
0.7058823529411765
 40
0.7058823529411765
 40
0.7058823529411765
 40
0.7647058823529411
 40
0.7647058823529411
 40
0.7647058823529411
 40
0.7647058823529411
 40
0.8235294117647058
 40
0.8235294117647058
 40
0.8235294117647058
 40
0.8235294117647058
 40
0.8823529411764706
 40
0.8823529411764706
 40
0.8823529411764706
 40
0.8823529411764706
 40
1.0
 40
1.0
 40
1.0
 40
1.0
 10
-72.1262
 20
4.8164
 30
0.0
 10
-72.1262
 20
4.8164
 30
0.0
 10
-75.801
 20
8.4425
 30
0.0
 10
-75.801
 20
8.4425
 30
0.0
 10
-75.801
 20
8.4425
 30
0.0
 10
-75.801
 20
8.4425
 30
0.0
 10
-72.1262
 20
12.0687
 30
0.0
 10
-72.1262
 20
12.0687
 30
0.0
 10
-72.1262
 20
12.0687
 30
0.0
 10
-72.1262
 20
12.0687
 30
0.0
 10
-66.3123
 20
12.0687
 30
0.0
 10
-66.3123
 20
12.0687
 30
0.0
 10
-66.3123
 20
12.0687
 30
0.0
 10
-66.3123
 20
12.0687
 30
0.0
 10
-66.3123
 20
17.9915
 30
0.0
 10
-66.3123
 20
17.9915
 30
0.0
 10
-66.3123
 20
17.9915
 30
0.0
 10
-66.3123
 20
17.9915
 30
0.0
 10
-62.6739
 20
21.6179
 30
0.0
 10
-62.6739
 20
21.6179
 30
0.0
 10
-62.6739
 20
21.6179
 30
0.0
 10
-62.6739
 20
21.6179
 30
0.0
 10
-59.0114
 20
17.9915
 30
0.0
 10
-59.0114
 20
17.9915
 30
0.0
 10
-59.0114
 20
17.9915
 30
0.0
 10
-59.0114
 20
17.9915
 30
0.0
 10
-59.0114
 20
12.0687
 30
0.0
 10
-59.0114
 20
12.0687
 30
0.0
 10
-59.0114
 20
12.0687
 30
0.0
 10
-59.0114
 20
12.0687
 30
0.0
 10
-53.1612
 20
12.0687
 30
0.0
 10
-53.1612
 20
12.0687
 30
0.0
 10
-53.1612
 20
12.0687
 30
0.0
 10
-53.1612
 20
12.0687
 30
0.0
 10
-49.5348
 20
8.4425
 30
0.0
 10
-49.5348
 20
8.4425
 30
0.0
 10
-49.5348
 20
8.4425
 30
0.0
 10
-49.5348
 20
8.4425
 30
0.0
 10
-53.1612
 20
4.8164
 30
0.0
 10
-53.1612
 20
4.8164
 30
0.0
 10
-53.1612
 20
4.8164
 30
0.0
 10
-53.1612
 20
4.8164
 30
0.0
 10
-59.0114
 20
4.8164
 30
0.0
 10
-59.0114
 20
4.8164
 30
0.0
 10
-59.0114
 20
4.8164
 30
0.0
 10
-59.0114
 20
4.8164
 30
0.0
 10
-59.0234
 20
-0.9858
 30
0.0
 10
-59.0234
 20
-0.9858
 30
0.0
 10
-59.0234
 20
-0.9858
 30
0.0
 10
-59.0234
 20
-0.9858
 30
0.0
 10
-62.6739
 20
-4.7329
 30
0.0
 10
-62.6739
 20
-4.7329
 30
0.0
 10
-62.6739
 20
-4.7329
 30
0.0
 10
-62.6739
 20
-4.7329
 30
0.0
 10
-66.3243
 20
-0.9858
 30
0.0
 10
-66.3243
 20
-0.9858
 30
0.0
 10
-66.3243
 20
-0.9858
 30
0.0
 10
-66.3243
 20
-0.9858
 30
0.0
 10
-66.3123
 20
4.8164
 30
0.0
 10
-66.3123
 20
4.8164
 30
0.0
 10
-66.3123
 20
4.8164
 30
0.0
 10
-66.3123
 20
4.8164
 30
0.0
 10
-72.1262
 20
4.8164
 30
0.0
 10
-72.1262
 20
4.8164
 30
0.0
  0
SPLINE
  5
77
330
1F
100
AcDbEntity
  8
layer 1
 62
     7
100
AcDbSpline
210
0.0
220
0.0
230
1.0
 70
    11
 71
     3
 72
    68
 73
    64
 74
     0
 42
0.0000000001
 43
0.0000000001
 12
1.0
 22
0.0
 32
0.0
 13
1.0
 23
0.0
 33
0.0
 40
0.0
 40
0.0
 40
0.0
 40
0.0
 40
0.0588235294117647
 40
0.0588235294117647
 40
0.0588235294117647
 40
0.0588235294117647
 40
0.1176470588235294
 40
0.1176470588235294
 40
0.1176470588235294
 40
0.1176470588235294
 40
0.1764705882352941
 40
0.1764705882352941
 40
0.1764705882352941
 40
0.1764705882352941
 40
0.2352941176470588
 40
0.2352941176470588
 40
0.2352941176470588
 40
0.2352941176470588
 40
0.2941176470588235
 40
0.2941176470588235
 40
0.2941176470588235
 40
0.2941176470588235
 40
0.3529411764705883
 40
0.3529411764705883
 40
0.3529411764705883
 40
0.3529411764705883
 40
0.4117647058823529
 40
0.4117647058823529
 40
0.4117647058823529
 40
0.4117647058823529
 40
0.4705882352941176
 40
0.4705882352941176
 40
0.4705882352941176
 40
0.4705882352941176
 40
0.5294117647058824
 40
0.5294117647058824
 40
0.5294117647058824
 40
0.5294117647058824
 40
0.5882352941176471
 40
0.5882352941176471
 40
0.5882352941176471
 40
0.5882352941176471
 40
0.6470588235294118
 40
0.6470588235294118
 40
0.6470588235294118
 40
0.6470588235294118
 40
0.7058823529411765
 40
0.7058823529411765
 40
0.7058823529411765
 40
0.7058823529411765
 40
0.7647058823529411
 40
0.7647058823529411
 40
0.7647058823529411
 40
0.7647058823529411
 40
0.8235294117647058
 40
0.8235294117647058
 40
0.8235294117647058
 40
0.8235294117647058
 40
0.8823529411764706
 40
0.8823529411764706
 40
0.8823529411764706
 40
0.8823529411764706
 40
1.0
 40
1.0
 40
1.0
 40
1.0
 10
-86.4378
 20
-15.3697
 30
0.0
 10
-86.4378
 20
-15.3697
 30
0.0
 10
-86.4378
 20
-10.6557
 30
0.0
 10
-86.4378
 20
-10.6557
 30
0.0
 10
-86.4378
 20
-10.6557
 30
0.0
 10
-86.4378
 20
-10.6557
 30
0.0
 10
-89.762
 20
-7.2711
 30
0.0
 10
-89.762
 20
-7.2711
 30
0.0
 10
-89.762
 20
-7.2711
 30
0.0
 10
-89.762
 20
-7.2711
 30
0.0
 10
-86.4378
 20
-4.0075
 30
0.0
 10
-86.4378
 20
-4.0075
 30
0.0
 10
-86.4378
 20
-4.0075
 30
0.0
 10
-86.4378
 20
-4.0075
 30
0.0
 10
-86.4378
 20
0.7065
 30
0.0
 10
-86.4378
 20
0.7065
 30
0.0
 10
-86.4378
 20
0.7065
 30
0.0
 10
-86.4378
 20
0.7065
 30
0.0
 10
-81.7238
 20
0.7065
 30
0.0
 10
-81.7238
 20
0.7065
 30
0.0
 10
-81.7238
 20
0.7065
 30
0.0
 10
-81.7238
 20
0.7065
 30
0.0
 10
-78.3999
 20
4.091
 30
0.0
 10
-78.3999
 20
4.091
 30
0.0
 10
-78.3999
 20
4.091
 30
0.0
 10
-78.3999
 20
4.091
 30
0.0
 10
-75.0636
 20
0.7065
 30
0.0
 10
-75.0636
 20
0.7065
 30
0.0
 10
-75.0636
 20
0.7065
 30
0.0
 10
-75.0636
 20
0.7065
 30
0.0
 10
-70.3616
 20
0.7065
 30
0.0
 10
-70.3616
 20
0.7065
 30
0.0
 10
-70.3616
 20
0.7065
 30
0.0
 10
-70.3616
 20
0.7065
 30
0.0
 10
-70.3616
 20
-4.0075
 30
0.0
 10
-70.3616
 20
-4.0075
 30
0.0
 10
-70.3616
 20
-4.0075
 30
0.0
 10
-70.3616
 20
-4.0075
 30
0.0
 10
-67.0253
 20
-7.2711
 30
0.0
 10
-67.0253
 20
-7.2711
 30
0.0
 10
-67.0253
 20
-7.2711
 30
0.0
 10
-67.0253
 20
-7.2711
 30
0.0
 10
-70.3616
 20
-10.6557
 30
0.0
 10
-70.3616
 20
-10.6557
 30
0.0
 10
-70.3616
 20
-10.6557
 30
0.0
 10
-70.3616
 20
-10.6557
 30
0.0
 10
-70.3616
 20
-15.3697
 30
0.0
 10
-70.3616
 20
-15.3697
 30
0.0
 10
-70.3616
 20
-15.3697
 30
0.0
 10
-70.3616
 20
-15.3697
 30
0.0
 10
-75.0636
 20
-15.3697
 30
0.0
 10
-75.0636
 20
-15.3697
 30
0.0
 10
-75.0636
 20
-15.3697
 30
0.0
 10
-75.0636
 20
-15.3697
 30
0.0
 10
-78.3999
 20
-18.6333
 30
0.0
 10
-78.3999
 20
-18.6333
 30
0.0
 10
-78.3999
 20
-18.6333
 30
0.0
 10
-78.3999
 20
-18.6333
 30
0.0
 10
-81.7238
 20
-15.3697
 30
0.0
 10
-81.7238
 20
-15.3697
 30
0.0
 10
-81.7238
 20
-15.3697
 30
0.0
 10
-81.7238
 20
-15.3697
 30
0.0
 10
-86.4378
 20
-15.3697
 30
0.0
 10
-86.4378
 20
-15.3697
 30
0.0
  0
SPLINE
  5
78
330
1F
100
AcDbEntity
  8
layer 1
 62
     7
100
AcDbSpline
210
0.0
220
0.0
230
1.0
 70
    11
 71
     3
 72
    68
 73
    64
 74
     0
 42
0.0000000001
 43
0.0000000001
 12
1.0
 22
0.0
 32
0.0
 13
1.0
 23
0.0
 33
0.0
 40
0.0
 40
0.0
 40
0.0
 40
0.0
 40
0.0588235294117647
 40
0.0588235294117647
 40
0.0588235294117647
 40
0.0588235294117647
 40
0.1176470588235294
 40
0.1176470588235294
 40
0.1176470588235294
 40
0.1176470588235294
 40
0.1764705882352941
 40
0.1764705882352941
 40
0.1764705882352941
 40
0.1764705882352941
 40
0.2352941176470588
 40
0.2352941176470588
 40
0.2352941176470588
 40
0.2352941176470588
 40
0.2941176470588235
 40
0.2941176470588235
 40
0.2941176470588235
 40
0.2941176470588235
 40
0.3529411764705883
 40
0.3529411764705883
 40
0.3529411764705883
 40
0.3529411764705883
 40
0.4117647058823529
 40
0.4117647058823529
 40
0.4117647058823529
 40
0.4117647058823529
 40
0.4705882352941176
 40
0.4705882352941176
 40
0.4705882352941176
 40
0.4705882352941176
 40
0.5294117647058824
 40
0.5294117647058824
 40
0.5294117647058824
 40
0.5294117647058824
 40
0.5882352941176471
 40
0.5882352941176471
 40
0.5882352941176471
 40
0.5882352941176471
 40
0.6470588235294118
 40
0.6470588235294118
 40
0.6470588235294118
 40
0.6470588235294118
 40
0.7058823529411765
 40
0.7058823529411765
 40
0.7058823529411765
 40
0.7058823529411765
 40
0.7647058823529411
 40
0.7647058823529411
 40
0.7647058823529411
 40
0.7647058823529411
 40
0.8235294117647058
 40
0.8235294117647058
 40
0.8235294117647058
 40
0.8235294117647058
 40
0.8823529411764706
 40
0.8823529411764706
 40
0.8823529411764706
 40
0.8823529411764706
 40
1.0
 40
1.0
 40
1.0
 40
1.0
 10
-72.1262
 20
-26.7319
 30
0.0
 10
-72.1262
 20
-26.7319
 30
0.0
 10
-75.801
 20
-23.1057
 30
0.0
 10
-75.801
 20
-23.1057
 30
0.0
 10
-75.801
 20
-23.1057
 30
0.0
 10
-75.801
 20
-23.1057
 30
0.0
 10
-72.1262
 20
-19.3587
 30
0.0
 10
-72.1262
 20
-19.3587
 30
0.0
 10
-72.1262
 20
-19.3587
 30
0.0
 10
-72.1262
 20
-19.3587
 30
0.0
 10
-66.3123
 20
-19.3587
 30
0.0
 10
-66.3123
 20
-19.3587
 30
0.0
 10
-66.3123
 20
-19.3587
 30
0.0
 10
-66.3123
 20
-19.3587
 30
0.0
 10
-66.3123
 20
-13.5568
 30
0.0
 10
-66.3123
 20
-13.5568
 30
0.0
 10
-66.3123
 20
-13.5568
 30
0.0
 10
-66.3123
 20
-13.5568
 30
0.0
 10
-62.6739
 20
-9.9303
 30
0.0
 10
-62.6739
 20
-9.9303
 30
0.0
 10
-62.6739
 20
-9.9303
 30
0.0
 10
-62.6739
 20
-9.9303
 30
0.0
 10
-59.0114
 20
-13.5568
 30
0.0
 10
-59.0114
 20
-13.5568
 30
0.0
 10
-59.0114
 20
-13.5568
 30
0.0
 10
-59.0114
 20
-13.5568
 30
0.0
 10
-59.0114
 20
-19.3587
 30
0.0
 10
-59.0114
 20
-19.3587
 30
0.0
 10
-59.0114
 20
-19.3587
 30
0.0
 10
-59.0114
 20
-19.3587
 30
0.0
 10
-53.1612
 20
-19.3587
 30
0.0
 10
-53.1612
 20
-19.3587
 30
0.0
 10
-53.1612
 20
-19.3587
 30
0.0
 10
-53.1612
 20
-19.3587
 30
0.0
 10
-49.5348
 20
-23.1057
 30
0.0
 10
-49.5348
 20
-23.1057
 30
0.0
 10
-49.5348
 20
-23.1057
 30
0.0
 10
-49.5348
 20
-23.1057
 30
0.0
 10
-53.1612
 20
-26.7319
 30
0.0
 10
-53.1612
 20
-26.7319
 30
0.0
 10
-53.1612
 20
-26.7319
 30
0.0
 10
-53.1612
 20
-26.7319
 30
0.0
 10
-59.0114
 20
-26.7319
 30
0.0
 10
-59.0114
 20
-26.7319
 30
0.0
 10
-59.0114
 20
-26.7319
 30
0.0
 10
-59.0114
 20
-26.7319
 30
0.0
 10
-59.0234
 20
-32.5341
 30
0.0
 10
-59.0234
 20
-32.5341
 30
0.0
 10
-59.0234
 20
-32.5341
 30
0.0
 10
-59.0234
 20
-32.5341
 30
0.0
 10
-62.6739
 20
-36.1602
 30
0.0
 10
-62.6739
 20
-36.1602
 30
0.0
 10
-62.6739
 20
-36.1602
 30
0.0
 10
-62.6739
 20
-36.1602
 30
0.0
 10
-66.3243
 20
-32.5341
 30
0.0
 10
-66.3243
 20
-32.5341
 30
0.0
 10
-66.3243
 20
-32.5341
 30
0.0
 10
-66.3243
 20
-32.5341
 30
0.0
 10
-66.3123
 20
-26.7319
 30
0.0
 10
-66.3123
 20
-26.7319
 30
0.0
 10
-66.3123
 20
-26.7319
 30
0.0
 10
-66.3123
 20
-26.7319
 30
0.0
 10
-72.1262
 20
-26.7319
 30
0.0
 10
-72.1262
 20
-26.7319
 30
0.0
  0
SPLINE
  5
79
330
1F
100
AcDbEntity
  8
layer 1
 62
     7
100
AcDbSpline
210
0.0
220
0.0
230
1.0
 70
    11
 71
     3
 72
    68
 73
    64
 74
     0
 42
0.0000000001
 43
0.0000000001
 12
1.0
 22
0.0
 32
0.0
 13
1.0
 23
0.0
 33
0.0
 40
0.0
 40
0.0
 40
0.0
 40
0.0
 40
0.0588235294117647
 40
0.0588235294117647
 40
0.0588235294117647
 40
0.0588235294117647
 40
0.1176470588235294
 40
0.1176470588235294
 40
0.1176470588235294
 40
0.1176470588235294
 40
0.1764705882352941
 40
0.1764705882352941
 40
0.1764705882352941
 40
0.1764705882352941
 40
0.2352941176470588
 40
0.2352941176470588
 40
0.2352941176470588
 40
0.2352941176470588
 40
0.2941176470588235
 40
0.2941176470588235
 40
0.2941176470588235
 40
0.2941176470588235
 40
0.3529411764705883
 40
0.3529411764705883
 40
0.3529411764705883
 40
0.3529411764705883
 40
0.4117647058823529
 40
0.4117647058823529
 40
0.4117647058823529
 40
0.4117647058823529
 40
0.4705882352941176
 40
0.4705882352941176
 40
0.4705882352941176
 40
0.4705882352941176
 40
0.5294117647058824
 40
0.5294117647058824
 40
0.5294117647058824
 40
0.5294117647058824
 40
0.5882352941176471
 40
0.5882352941176471
 40
0.5882352941176471
 40
0.5882352941176471
 40
0.6470588235294118
 40
0.6470588235294118
 40
0.6470588235294118
 40
0.6470588235294118
 40
0.7058823529411765
 40
0.7058823529411765
 40
0.7058823529411765
 40
0.7058823529411765
 40
0.7647058823529411
 40
0.7647058823529411
 40
0.7647058823529411
 40
0.7647058823529411
 40
0.8235294117647058
 40
0.8235294117647058
 40
0.8235294117647058
 40
0.8235294117647058
 40
0.8823529411764706
 40
0.8823529411764706
 40
0.8823529411764706
 40
0.8823529411764706
 40
1.0
 40
1.0
 40
1.0
 40
1.0
 10
-86.4378
 20
-46.797
 30
0.0
 10
-86.4378
 20
-46.797
 30
0.0
 10
-86.4378
 20
-42.083
 30
0.0
 10
-86.4378
 20
-42.083
 30
0.0
 10
-86.4378
 20
-42.083
 30
0.0
 10
-86.4378
 20
-42.083
 30
0.0
 10
-89.762
 20
-38.8194
 30
0.0
 10
-89.762
 20
-38.8194
 30
0.0
 10
-89.762
 20
-38.8194
 30
0.0
 10
-89.762
 20
-38.8194
 30
0.0
 10
-86.4378
 20
-35.4348
 30
0.0
 10
-86.4378
 20
-35.4348
 30
0.0
 10
-86.4378
 20
-35.4348
 30
0.0
 10
-86.4378
 20
-35.4348
 30
0.0
 10
-86.4378
 20
-30.7208
 30
0.0
 10
-86.4378
 20
-30.7208
 30
0.0
 10
-86.4378
 20
-30.7208
 30
0.0
 10
-86.4378
 20
-30.7208
 30
0.0
 10
-81.7238
 20
-30.7208
 30
0.0
 10
-81.7238
 20
-30.7208
 30
0.0
 10
-81.7238
 20
-30.7208
 30
0.0
 10
-81.7238
 20
-30.7208
 30
0.0
 10
-78.3999
 20
-27.4572
 30
0.0
 10
-78.3999
 20
-27.4572
 30
0.0
 10
-78.3999
 20
-27.4572
 30
0.0
 10
-78.3999
 20
-27.4572
 30
0.0
 10
-75.0636
 20
-30.7208
 30
0.0
 10
-75.0636
 20
-30.7208
 30
0.0
 10
-75.0636
 20
-30.7208
 30
0.0
 10
-75.0636
 20
-30.7208
 30
0.0
 10
-70.3616
 20
-30.7208
 30
0.0
 10
-70.3616
 20
-30.7208
 30
0.0
 10
-70.3616
 20
-30.7208
 30
0.0
 10
-70.3616
 20
-30.7208
 30
0.0
 10
-70.3616
 20
-35.4348
 30
0.0
 10
-70.3616
 20
-35.4348
 30
0.0
 10
-70.3616
 20
-35.4348
 30
0.0
 10
-70.3616
 20
-35.4348
 30
0.0
 10
-67.0253
 20
-38.8194
 30
0.0
 10
-67.0253
 20
-38.8194
 30
0.0
 10
-67.0253
 20
-38.8194
 30
0.0
 10
-67.0253
 20
-38.8194
 30
0.0
 10
-70.3616
 20
-42.083
 30
0.0
 10
-70.3616
 20
-42.083
 30
0.0
 10
-70.3616
 20
-42.083
 30
0.0
 10
-70.3616
 20
-42.083
 30
0.0
 10
-70.3616
 20
-46.797
 30
0.0
 10
-70.3616
 20
-46.797
 30
0.0
 10
-70.3616
 20
-46.797
 30
0.0
 10
-70.3616
 20
-46.797
 30
0.0
 10
-75.0636
 20
-46.797
 30
0.0
 10
-75.0636
 20
-46.797
 30
0.0
 10
-75.0636
 20
-46.797
 30
0.0
 10
-75.0636
 20
-46.797
 30
0.0
 10
-78.3999
 20
-50.1816
 30
0.0
 10
-78.3999
 20
-50.1816
 30
0.0
 10
-78.3999
 20
-50.1816
 30
0.0
 10
-78.3999
 20
-50.1816
 30
0.0
 10
-81.7238
 20
-46.797
 30
0.0
 10
-81.7238
 20
-46.797
 30
0.0
 10
-81.7238
 20
-46.797
 30
0.0
 10
-81.7238
 20
-46.797
 30
0.0
 10
-86.4378
 20
-46.797
 30
0.0
 10
-86.4378
 20
-46.797
 30
0.0
  0
SPLINE
  5
7A
330
1F
100
AcDbEntity
  8
layer 1
 62
     7
100
AcDbSpline
210
0.0
220
0.0
230
1.0
 70
    11
 71
     3
 72
    68
 73
    64
 74
     0
 42
0.0000000001
 43
0.0000000001
 12
1.0
 22
0.0
 32
0.0
 13
1.0
 23
0.0
 33
0.0
 40
0.0
 40
0.0
 40
0.0
 40
0.0
 40
0.0588235294117647
 40
0.0588235294117647
 40
0.0588235294117647
 40
0.0588235294117647
 40
0.1176470588235294
 40
0.1176470588235294
 40
0.1176470588235294
 40
0.1176470588235294
 40
0.1764705882352941
 40
0.1764705882352941
 40
0.1764705882352941
 40
0.1764705882352941
 40
0.2352941176470588
 40
0.2352941176470588
 40
0.2352941176470588
 40
0.2352941176470588
 40
0.2941176470588235
 40
0.2941176470588235
 40
0.2941176470588235
 40
0.2941176470588235
 40
0.3529411764705883
 40
0.3529411764705883
 40
0.3529411764705883
 40
0.3529411764705883
 40
0.4117647058823529
 40
0.4117647058823529
 40
0.4117647058823529
 40
0.4117647058823529
 40
0.4705882352941176
 40
0.4705882352941176
 40
0.4705882352941176
 40
0.4705882352941176
 40
0.5294117647058824
 40
0.5294117647058824
 40
0.5294117647058824
 40
0.5294117647058824
 40
0.5882352941176471
 40
0.5882352941176471
 40
0.5882352941176471
 40
0.5882352941176471
 40
0.6470588235294118
 40
0.6470588235294118
 40
0.6470588235294118
 40
0.6470588235294118
 40
0.7058823529411765
 40
0.7058823529411765
 40
0.7058823529411765
 40
0.7058823529411765
 40
0.7647058823529411
 40
0.7647058823529411
 40
0.7647058823529411
 40
0.7647058823529411
 40
0.8235294117647058
 40
0.8235294117647058
 40
0.8235294117647058
 40
0.8235294117647058
 40
0.8823529411764706
 40
0.8823529411764706
 40
0.8823529411764706
 40
0.8823529411764706
 40
1.0
 40
1.0
 40
1.0
 40
1.0
 10
-72.1262
 20
-58.1595
 30
0.0
 10
-72.1262
 20
-58.1595
 30
0.0
 10
-75.801
 20
-54.533
 30
0.0
 10
-75.801
 20
-54.533
 30
0.0
 10
-75.801
 20
-54.533
 30
0.0
 10
-75.801
 20
-54.533
 30
0.0
 10
-72.1262
 20
-50.9069
 30
0.0
 10
-72.1262
 20
-50.9069
 30
0.0
 10
-72.1262
 20
-50.9069
 30
0.0
 10
-72.1262
 20
-50.9069
 30
0.0
 10
-66.3123
 20
-50.9069
 30
0.0
 10
-66.3123
 20
-50.9069
 30
0.0
 10
-66.3123
 20
-50.9069
 30
0.0
 10
-66.3123
 20
-50.9069
 30
0.0
 10
-66.3123
 20
-44.9841
 30
0.0
 10
-66.3123
 20
-44.9841
 30
0.0
 10
-66.3123
 20
-44.9841
 30
0.0
 10
-66.3123
 20
-44.9841
 30
0.0
 10
-62.6739
 20
-41.4786
 30
0.0
 10
-62.6739
 20
-41.4786
 30
0.0
 10
-62.6739
 20
-41.4786
 30
0.0
 10
-62.6739
 20
-41.4786
 30
0.0
 10
-59.0114
 20
-44.9841
 30
0.0
 10
-59.0114
 20
-44.9841
 30
0.0
 10
-59.0114
 20
-44.9841
 30
0.0
 10
-59.0114
 20
-44.9841
 30
0.0
 10
-59.0114
 20
-50.9069
 30
0.0
 10
-59.0114
 20
-50.9069
 30
0.0
 10
-59.0114
 20
-50.9069
 30
0.0
 10
-59.0114
 20
-50.9069
 30
0.0
 10
-53.1612
 20
-50.9069
 30
0.0
 10
-53.1612
 20
-50.9069
 30
0.0
 10
-53.1612
 20
-50.9069
 30
0.0
 10
-53.1612
 20
-50.9069
 30
0.0
 10
-49.5348
 20
-54.533
 30
0.0
 10
-49.5348
 20
-54.533
 30
0.0
 10
-49.5348
 20
-54.533
 30
0.0
 10
-49.5348
 20
-54.533
 30
0.0
 10
-53.1612
 20
-58.1595
 30
0.0
 10
-53.1612
 20
-58.1595
 30
0.0
 10
-53.1612
 20
-58.1595
 30
0.0
 10
-53.1612
 20
-58.1595
 30
0.0
 10
-59.0114
 20
-58.1595
 30
0.0
 10
-59.0114
 20
-58.1595
 30
0.0
 10
-59.0114
 20
-58.1595
 30
0.0
 10
-59.0114
 20
-58.1595
 30
0.0
 10
-59.0234
 20
-64.0823
 30
0.0
 10
-59.0234
 20
-64.0823
 30
0.0
 10
-59.0234
 20
-64.0823
 30
0.0
 10
-59.0234
 20
-64.0823
 30
0.0
 10
-62.6739
 20
-67.7084
 30
0.0
 10
-62.6739
 20
-67.7084
 30
0.0
 10
-62.6739
 20
-67.7084
 30
0.0
 10
-62.6739
 20
-67.7084
 30
0.0
 10
-66.3243
 20
-64.0823
 30
0.0
 10
-66.3243
 20
-64.0823
 30
0.0
 10
-66.3243
 20
-64.0823
 30
0.0
 10
-66.3243
 20
-64.0823
 30
0.0
 10
-66.3123
 20
-58.1595
 30
0.0
 10
-66.3123
 20
-58.1595
 30
0.0
 10
-66.3123
 20
-58.1595
 30
0.0
 10
-66.3123
 20
-58.1595
 30
0.0
 10
-72.1262
 20
-58.1595
 30
0.0
 10
-72.1262
 20
-58.1595
 30
0.0
  0
SPLINE
  5
7B
330
1F
100
AcDbEntity
  8
layer 1
 62
     7
100
AcDbSpline
210
0.0
220
0.0
230
1.0
 70
    11
 71
     3
 72
    68
 73
    64
 74
     0
 42
0.0000000001
 43
0.0000000001
 12
1.0
 22
0.0
 32
0.0
 13
1.0
 23
0.0
 33
0.0
 40
0.0
 40
0.0
 40
0.0
 40
0.0
 40
0.0588235294117647
 40
0.0588235294117647
 40
0.0588235294117647
 40
0.0588235294117647
 40
0.1176470588235294
 40
0.1176470588235294
 40
0.1176470588235294
 40
0.1176470588235294
 40
0.1764705882352941
 40
0.1764705882352941
 40
0.1764705882352941
 40
0.1764705882352941
 40
0.2352941176470588
 40
0.2352941176470588
 40
0.2352941176470588
 40
0.2352941176470588
 40
0.2941176470588235
 40
0.2941176470588235
 40
0.2941176470588235
 40
0.2941176470588235
 40
0.3529411764705883
 40
0.3529411764705883
 40
0.3529411764705883
 40
0.3529411764705883
 40
0.4117647058823529
 40
0.4117647058823529
 40
0.4117647058823529
 40
0.4117647058823529
 40
0.4705882352941176
 40
0.4705882352941176
 40
0.4705882352941176
 40
0.4705882352941176
 40
0.5294117647058824
 40
0.5294117647058824
 40
0.5294117647058824
 40
0.5294117647058824
 40
0.5882352941176471
 40
0.5882352941176471
 40
0.5882352941176471
 40
0.5882352941176471
 40
0.6470588235294118
 40
0.6470588235294118
 40
0.6470588235294118
 40
0.6470588235294118
 40
0.7058823529411765
 40
0.7058823529411765
 40
0.7058823529411765
 40
0.7058823529411765
 40
0.7647058823529411
 40
0.7647058823529411
 40
0.7647058823529411
 40
0.7647058823529411
 40
0.8235294117647058
 40
0.8235294117647058
 40
0.8235294117647058
 40
0.8235294117647058
 40
0.8823529411764706
 40
0.8823529411764706
 40
0.8823529411764706
 40
0.8823529411764706
 40
1.0
 40
1.0
 40
1.0
 40
1.0
 10
-86.4378
 20
-78.3452
 30
0.0
 10
-86.4378
 20
-78.3452
 30
0.0
 10
-86.4378
 20
-73.6313
 30
0.0
 10
-86.4378
 20
-73.6313
 30
0.0
 10
-86.4378
 20
-73.6313
 30
0.0
 10
-86.4378
 20
-73.6313
 30
0.0
 10
-89.762
 20
-70.2467
 30
0.0
 10
-89.762
 20
-70.2467
 30
0.0
 10
-89.762
 20
-70.2467
 30
0.0
 10
-89.762
 20
-70.2467
 30
0.0
 10
-86.4378
 20
-66.9831
 30
0.0
 10
-86.4378
 20
-66.9831
 30
0.0
 10
-86.4378
 20
-66.9831
 30
0.0
 10
-86.4378
 20
-66.9831
 30
0.0
 10
-86.4378
 20
-62.2691
 30
0.0
 10
-86.4378
 20
-62.2691
 30
0.0
 10
-86.4378
 20
-62.2691
 30
0.0
 10
-86.4378
 20
-62.2691
 30
0.0
 10
-81.7238
 20
-62.2691
 30
0.0
 10
-81.7238
 20
-62.2691
 30
0.0
 10
-81.7238
 20
-62.2691
 30
0.0
 10
-81.7238
 20
-62.2691
 30
0.0
 10
-78.3999
 20
-58.8845
 30
0.0
 10
-78.3999
 20
-58.8845
 30
0.0
 10
-78.3999
 20
-58.8845
 30
0.0
 10
-78.3999
 20
-58.8845
 30
0.0
 10
-75.0636
 20
-62.2691
 30
0.0
 10
-75.0636
 20
-62.2691
 30
0.0
 10
-75.0636
 20
-62.2691
 30
0.0
 10
-75.0636
 20
-62.2691
 30
0.0
 10
-70.3616
 20
-62.2691
 30
0.0
 10
-70.3616
 20
-62.2691
 30
0.0
 10
-70.3616
 20
-62.2691
 30
0.0
 10
-70.3616
 20
-62.2691
 30
0.0
 10
-70.3616
 20
-66.9831
 30
0.0
 10
-70.3616
 20
-66.9831
 30
0.0
 10
-70.3616
 20
-66.9831
 30
0.0
 10
-70.3616
 20
-66.9831
 30
0.0
 10
-67.0253
 20
-70.2467
 30
0.0
 10
-67.0253
 20
-70.2467
 30
0.0
 10
-67.0253
 20
-70.2467
 30
0.0
 10
-67.0253
 20
-70.2467
 30
0.0
 10
-70.3616
 20
-73.6313
 30
0.0
 10
-70.3616
 20
-73.6313
 30
0.0
 10
-70.3616
 20
-73.6313
 30
0.0
 10
-70.3616
 20
-73.6313
 30
0.0
 10
-70.3616
 20
-78.3452
 30
0.0
 10
-70.3616
 20
-78.3452
 30
0.0
 10
-70.3616
 20
-78.3452
 30
0.0
 10
-70.3616
 20
-78.3452
 30
0.0
 10
-75.0636
 20
-78.3452
 30
0.0
 10
-75.0636
 20
-78.3452
 30
0.0
 10
-75.0636
 20
-78.3452
 30
0.0
 10
-75.0636
 20
-78.3452
 30
0.0
 10
-78.3999
 20
-81.6089
 30
0.0
 10
-78.3999
 20
-81.6089
 30
0.0
 10
-78.3999
 20
-81.6089
 30
0.0
 10
-78.3999
 20
-81.6089
 30
0.0
 10
-81.7238
 20
-78.3452
 30
0.0
 10
-81.7238
 20
-78.3452
 30
0.0
 10
-81.7238
 20
-78.3452
 30
0.0
 10
-81.7238
 20
-78.3452
 30
0.0
 10
-86.4378
 20
-78.3452
 30
0.0
 10
-86.4378
 20
-78.3452
 30
0.0
  0
SPLINE
  5
7C
330
1F
100
AcDbEntity
  8
layer 1
 62
     7
100
AcDbSpline
210
0.0
220
0.0
230
1.0
 70
    11
 71
     3
 72
    68
 73
    64
 74
     0
 42
0.0000000001
 43
0.0000000001
 12
1.0
 22
0.0
 32
0.0
 13
1.0
 23
0.0
 33
0.0
 40
0.0
 40
0.0
 40
0.0
 40
0.0
 40
0.0588235294117647
 40
0.0588235294117647
 40
0.0588235294117647
 40
0.0588235294117647
 40
0.1176470588235294
 40
0.1176470588235294
 40
0.1176470588235294
 40
0.1176470588235294
 40
0.1764705882352941
 40
0.1764705882352941
 40
0.1764705882352941
 40
0.1764705882352941
 40
0.2352941176470588
 40
0.2352941176470588
 40
0.2352941176470588
 40
0.2352941176470588
 40
0.2941176470588235
 40
0.2941176470588235
 40
0.2941176470588235
 40
0.2941176470588235
 40
0.3529411764705883
 40
0.3529411764705883
 40
0.3529411764705883
 40
0.3529411764705883
 40
0.4117647058823529
 40
0.4117647058823529
 40
0.4117647058823529
 40
0.4117647058823529
 40
0.4705882352941176
 40
0.4705882352941176
 40
0.4705882352941176
 40
0.4705882352941176
 40
0.5294117647058824
 40
0.5294117647058824
 40
0.5294117647058824
 40
0.5294117647058824
 40
0.5882352941176471
 40
0.5882352941176471
 40
0.5882352941176471
 40
0.5882352941176471
 40
0.6470588235294118
 40
0.6470588235294118
 40
0.6470588235294118
 40
0.6470588235294118
 40
0.7058823529411765
 40
0.7058823529411765
 40
0.7058823529411765
 40
0.7058823529411765
 40
0.7647058823529411
 40
0.7647058823529411
 40
0.7647058823529411
 40
0.7647058823529411
 40
0.8235294117647058
 40
0.8235294117647058
 40
0.8235294117647058
 40
0.8235294117647058
 40
0.8823529411764706
 40
0.8823529411764706
 40
0.8823529411764706
 40
0.8823529411764706
 40
1.0
 40
1.0
 40
1.0
 40
1.0
 10
-72.1262
 20
-89.7078
 30
0.0
 10
-72.1262
 20
-89.7078
 30
0.0
 10
-75.801
 20
-86.0813
 30
0.0
 10
-75.801
 20
-86.0813
 30
0.0
 10
-75.801
 20
-86.0813
 30
0.0
 10
-75.801
 20
-86.0813
 30
0.0
 10
-72.1262
 20
-82.4552
 30
0.0
 10
-72.1262
 20
-82.4552
 30
0.0
 10
-72.1262
 20
-82.4552
 30
0.0
 10
-72.1262
 20
-82.4552
 30
0.0
 10
-66.3123
 20
-82.4552
 30
0.0
 10
-66.3123
 20
-82.4552
 30
0.0
 10
-66.3123
 20
-82.4552
 30
0.0
 10
-66.3123
 20
-82.4552
 30
0.0
 10
-66.3123
 20
-76.5324
 30
0.0
 10
-66.3123
 20
-76.5324
 30
0.0
 10
-66.3123
 20
-76.5324
 30
0.0
 10
-66.3123
 20
-76.5324
 30
0.0
 10
-62.6739
 20
-72.9059
 30
0.0
 10
-62.6739
 20
-72.9059
 30
0.0
 10
-62.6739
 20
-72.9059
 30
0.0
 10
-62.6739
 20
-72.9059
 30
0.0
 10
-59.0114
 20
-76.5324
 30
0.0
 10
-59.0114
 20
-76.5324
 30
0.0
 10
-59.0114
 20
-76.5324
 30
0.0
 10
-59.0114
 20
-76.5324
 30
0.0
 10
-59.0114
 20
-82.4552
 30
0.0
 10
-59.0114
 20
-82.4552
 30
0.0
 10
-59.0114
 20
-82.4552
 30
0.0
 10
-59.0114
 20
-82.4552
 30
0.0
 10
-53.1612
 20
-82.4552
 30
0.0
 10
-53.1612
 20
-82.4552
 30
0.0
 10
-53.1612
 20
-82.4552
 30
0.0
 10
-53.1612
 20
-82.4552
 30
0.0
 10
-49.5348
 20
-86.0813
 30
0.0
 10
-49.5348
 20
-86.0813
 30
0.0
 10
-49.5348
 20
-86.0813
 30
0.0
 10
-49.5348
 20
-86.0813
 30
0.0
 10
-53.1612
 20
-89.7078
 30
0.0
 10
-53.1612
 20
-89.7078
 30
0.0
 10
-53.1612
 20
-89.7078
 30
0.0
 10
-53.1612
 20
-89.7078
 30
0.0
 10
-59.0114
 20
-89.7078
 30
0.0
 10
-59.0114
 20
-89.7078
 30
0.0
 10
-59.0114
 20
-89.7078
 30
0.0
 10
-59.0114
 20
-89.7078
 30
0.0
 10
-59.0234
 20
-95.5096
 30
0.0
 10
-59.0234
 20
-95.5096
 30
0.0
 10
-59.0234
 20
-95.5096
 30
0.0
 10
-59.0234
 20
-95.5096
 30
0.0
 10
-62.6739
 20
-99.1357
 30
0.0
 10
-62.6739
 20
-99.1357
 30
0.0
 10
-62.6739
 20
-99.1357
 30
0.0
 10
-62.6739
 20
-99.1357
 30
0.0
 10
-66.3243
 20
-95.5096
 30
0.0
 10
-66.3243
 20
-95.5096
 30
0.0
 10
-66.3243
 20
-95.5096
 30
0.0
 10
-66.3243
 20
-95.5096
 30
0.0
 10
-66.3123
 20
-89.7078
 30
0.0
 10
-66.3123
 20
-89.7078
 30
0.0
 10
-66.3123
 20
-89.7078
 30
0.0
 10
-66.3123
 20
-89.7078
 30
0.0
 10
-72.1262
 20
-89.7078
 30
0.0
 10
-72.1262
 20
-89.7078
 30
0.0
  0
SPLINE
  5
7D
330
1F
100
AcDbEntity
  8
layer 1
 62
     7
100
AcDbSpline
210
0.0
220
0.0
230
1.0
 70
    11
 71
     3
 72
    48
 73
    44
 74
     0
 42
0.0000000001
 43
0.0000000001
 12
1.0
 22
0.0
 32
0.0
 13
1.0
 23
0.0
 33
0.0
 40
0.0
 40
0.0
 40
0.0
 40
0.0
 40
0.0833333333333333
 40
0.0833333333333333
 40
0.0833333333333333
 40
0.0833333333333333
 40
0.1666666666666667
 40
0.1666666666666667
 40
0.1666666666666667
 40
0.1666666666666667
 40
0.25
 40
0.25
 40
0.25
 40
0.25
 40
0.3333333333333333
 40
0.3333333333333333
 40
0.3333333333333333
 40
0.3333333333333333
 40
0.4166666666666667
 40
0.4166666666666667
 40
0.4166666666666667
 40
0.4166666666666667
 40
0.5
 40
0.5
 40
0.5
 40
0.5
 40
0.5833333333333334
 40
0.5833333333333334
 40
0.5833333333333334
 40
0.5833333333333334
 40
0.6666666666666666
 40
0.6666666666666666
 40
0.6666666666666666
 40
0.6666666666666666
 40
0.75
 40
0.75
 40
0.75
 40
0.75
 40
0.8333333333333334
 40
0.8333333333333334
 40
0.8333333333333334
 40
0.8333333333333334
 40
1.0
 40
1.0
 40
1.0
 40
1.0
 10
-88.0574
 20
-103.4872
 30
0.0
 10
-88.0574
 20
-103.4872
 30
0.0
 10
-89.762
 20
-101.7949
 30
0.0
 10
-89.762
 20
-101.7949
 30
0.0
 10
-89.762
 20
-101.7949
 30
0.0
 10
-89.762
 20
-101.7949
 30
0.0
 10
-86.4378
 20
-98.4107
 30
0.0
 10
-86.4378
 20
-98.4107
 30
0.0
 10
-86.4378
 20
-98.4107
 30
0.0
 10
-86.4378
 20
-98.4107
 30
0.0
 10
-86.4378
 20
-93.6964
 30
0.0
 10
-86.4378
 20
-93.6964
 30
0.0
 10
-86.4378
 20
-93.6964
 30
0.0
 10
-86.4378
 20
-93.6964
 30
0.0
 10
-81.7238
 20
-93.6964
 30
0.0
 10
-81.7238
 20
-93.6964
 30
0.0
 10
-81.7238
 20
-93.6964
 30
0.0
 10
-81.7238
 20
-93.6964
 30
0.0
 10
-78.3999
 20
-90.4328
 30
0.0
 10
-78.3999
 20
-90.4328
 30
0.0
 10
-78.3999
 20
-90.4328
 30
0.0
 10
-78.3999
 20
-90.4328
 30
0.0
 10
-75.0636
 20
-93.6964
 30
0.0
 10
-75.0636
 20
-93.6964
 30
0.0
 10
-75.0636
 20
-93.6964
 30
0.0
 10
-75.0636
 20
-93.6964
 30
0.0
 10
-70.3616
 20
-93.6964
 30
0.0
 10
-70.3616
 20
-93.6964
 30
0.0
 10
-70.3616
 20
-93.6964
 30
0.0
 10
-70.3616
 20
-93.6964
 30
0.0
 10
-70.3616
 20
-98.4107
 30
0.0
 10
-70.3616
 20
-98.4107
 30
0.0
 10
-70.3616
 20
-98.4107
 30
0.0
 10
-70.3616
 20
-98.4107
 30
0.0
 10
-67.0253
 20
-101.7949
 30
0.0
 10
-67.0253
 20
-101.7949
 30
0.0
 10
-67.0253
 20
-101.7949
 30
0.0
 10
-67.0253
 20
-101.7949
 30
0.0
 10
-68.7296
 20
-103.4872
 30
0.0
 10
-68.7296
 20
-103.4872
 30
0.0
 10
-68.7296
 20
-103.4872
 30
0.0
 10
-68.7296
 20
-103.4872
 30
0.0
 10
-88.0574
 20
-103.4872
 30
0.0
 10
-88.0574
 20
-103.4872
 30
0.0
  0
SPLINE
  5
7E
330
1F
100
AcDbEntity
  8
layer 1
 62
     7
100
AcDbSpline
210
0.0
220
0.0
230
1.0
 70
    11
 71
     3
 72
    36
 73
    32
 74
     0
 42
0.0000000001
 43
0.0000000001
 12
1.0
 22
0.0
 32
0.0
 13
1.0
 23
0.0
 33
0.0
 40
0.0
 40
0.0
 40
0.0
 40
0.0
 40
0.1111111111111111
 40
0.1111111111111111
 40
0.1111111111111111
 40
0.1111111111111111
 40
0.2222222222222222
 40
0.2222222222222222
 40
0.2222222222222222
 40
0.2222222222222222
 40
0.3333333333333333
 40
0.3333333333333333
 40
0.3333333333333333
 40
0.3333333333333333
 40
0.4444444444444444
 40
0.4444444444444444
 40
0.4444444444444444
 40
0.4444444444444444
 40
0.5555555555555556
 40
0.5555555555555556
 40
0.5555555555555556
 40
0.5555555555555556
 40
0.6666666666666666
 40
0.6666666666666666
 40
0.6666666666666666
 40
0.6666666666666666
 40
0.7777777777777778
 40
0.7777777777777778
 40
0.7777777777777778
 40
0.7777777777777778
 40
1.0
 40
1.0
 40
1.0
 40
1.0
 10
-56.5698
 20
-103.4872
 30
0.0
 10
-56.5698
 20
-103.4872
 30
0.0
 10
-58.2741
 20
-101.7949
 30
0.0
 10
-58.2741
 20
-101.7949
 30
0.0
 10
-58.2741
 20
-101.7949
 30
0.0
 10
-58.2741
 20
-101.7949
 30
0.0
 10
-54.9378
 20
-98.4107
 30
0.0
 10
-54.9378
 20
-98.4107
 30
0.0
 10
-54.9378
 20
-98.4107
 30
0.0
 10
-54.9378
 20
-98.4107
 30
0.0
 10
-54.9378
 20
-93.6964
 30
0.0
 10
-54.9378
 20
-93.6964
 30
0.0
 10
-54.9378
 20
-93.6964
 30
0.0
 10
-54.9378
 20
-93.6964
 30
0.0
 10
-50.2358
 20
-93.6964
 30
0.0
 10
-50.2358
 20
-93.6964
 30
0.0
 10
-50.2358
 20
-93.6964
 30
0.0
 10
-50.2358
 20
-93.6964
 30
0.0
 10
-46.8999
 20
-90.4328
 30
0.0
 10
-46.8999
 20
-90.4328
 30
0.0
 10
-46.8999
 20
-90.4328
 30
0.0
 10
-46.8999
 20
-90.4328
 30
0.0
 10
-43.9262
 20
-93.3339
 30
0.0
 10
-43.9262
 20
-93.3339
 30
0.0
 10
-43.9262
 20
-93.3339
 30
0.0
 10
-43.9262
 20
-93.3339
 30
0.0
 10
-43.9262
 20
-103.4872
 30
0.0
 10
-43.9262
 20
-103.4872
 30
0.0
 10
-43.9262
 20
-103.4872
 30
0.0
 10
-43.9262
 20
-103.4872
 30
0.0
 10
-56.5698
 20
-103.4872
 30
0.0
 10
-56.5698
 20
-103.4872
 30
0.0
  0
SPLINE
  5
7F
330
1F
100
AcDbEntity
  8
layer 1
 62
     7
100
AcDbSpline
210
0.0
220
0.0
230
1.0
 70
    11
 71
     3
 72
    48
 73
    44
 74
     0
 42
0.0000000001
 43
0.0000000001
 12
1.0
 22
0.0
 32
0.0
 13
1.0
 23
0.0
 33
0.0
 40
0.0
 40
0.0
 40
0.0
 40
0.0
 40
0.0833333333333333
 40
0.0833333333333333
 40
0.0833333333333333
 40
0.0833333333333333
 40
0.1666666666666667
 40
0.1666666666666667
 40
0.1666666666666667
 40
0.1666666666666667
 40
0.25
 40
0.25
 40
0.25
 40
0.25
 40
0.3333333333333333
 40
0.3333333333333333
 40
0.3333333333333333
 40
0.3333333333333333
 40
0.4166666666666667
 40
0.4166666666666667
 40
0.4166666666666667
 40
0.4166666666666667
 40
0.5
 40
0.5
 40
0.5
 40
0.5
 40
0.5833333333333334
 40
0.5833333333333334
 40
0.5833333333333334
 40
0.5833333333333334
 40
0.6666666666666666
 40
0.6666666666666666
 40
0.6666666666666666
 40
0.6666666666666666
 40
0.75
 40
0.75
 40
0.75
 40
0.75
 40
0.8333333333333334
 40
0.8333333333333334
 40
0.8333333333333334
 40
0.8333333333333334
 40
1.0
 40
1.0
 40
1.0
 40
1.0
 10
-54.9378
 20
-78.3452
 30
0.0
 10
-54.9378
 20
-78.3452
 30
0.0
 10
-54.9378
 20
-73.6313
 30
0.0
 10
-54.9378
 20
-73.6313
 30
0.0
 10
-54.9378
 20
-73.6313
 30
0.0
 10
-54.9378
 20
-73.6313
 30
0.0
 10
-58.2741
 20
-70.2467
 30
0.0
 10
-58.2741
 20
-70.2467
 30
0.0
 10
-58.2741
 20
-70.2467
 30
0.0
 10
-58.2741
 20
-70.2467
 30
0.0
 10
-54.9378
 20
-66.9831
 30
0.0
 10
-54.9378
 20
-66.9831
 30
0.0
 10
-54.9378
 20
-66.9831
 30
0.0
 10
-54.9378
 20
-66.9831
 30
0.0
 10
-54.9378
 20
-62.2691
 30
0.0
 10
-54.9378
 20
-62.2691
 30
0.0
 10
-54.9378
 20
-62.2691
 30
0.0
 10
-54.9378
 20
-62.2691
 30
0.0
 10
-50.2358
 20
-62.2691
 30
0.0
 10
-50.2358
 20
-62.2691
 30
0.0
 10
-50.2358
 20
-62.2691
 30
0.0
 10
-50.2358
 20
-62.2691
 30
0.0
 10
-46.8999
 20
-58.8845
 30
0.0
 10
-46.8999
 20
-58.8845
 30
0.0
 10
-46.8999
 20
-58.8845
 30
0.0
 10
-46.8999
 20
-58.8845
 30
0.0
 10
-43.9142
 20
-61.9066
 30
0.0
 10
-43.9142
 20
-61.9066
 30
0.0
 10
-43.9142
 20
-61.9066
 30
0.0
 10
-43.9142
 20
-61.9066
 30
0.0
 10
-43.9142
 20
-78.7081
 30
0.0
 10
-43.9142
 20
-78.7081
 30
0.0
 10
-43.9142
 20
-78.7081
 30
0.0
 10
-43.9142
 20
-78.7081
 30
0.0
 10
-46.8999
 20
-81.6089
 30
0.0
 10
-46.8999
 20
-81.6089
 30
0.0
 10
-46.8999
 20
-81.6089
 30
0.0
 10
-46.8999
 20
-81.6089
 30
0.0
 10
-50.2358
 20
-78.3452
 30
0.0
 10
-50.2358
 20
-78.3452
 30
0.0
 10
-50.2358
 20
-78.3452
 30
0.0
 10
-50.2358
 20
-78.3452
 30
0.0
 10
-54.9378
 20
-78.3452
 30
0.0
 10
-54.9378
 20
-78.3452
 30
0.0
  0
SPLINE
  5
80
330
1F
100
AcDbEntity
  8
layer 1
 62
     7
100
AcDbSpline
210
0.0
220
0.0
230
1.0
 70
    11
 71
     3
 72
    48
 73
    44
 74
     0
 42
0.0000000001
 43
0.0000000001
 12
1.0
 22
0.0
 32
0.0
 13
1.0
 23
0.0
 33
0.0
 40
0.0
 40
0.0
 40
0.0
 40
0.0
 40
0.0833333333333333
 40
0.0833333333333333
 40
0.0833333333333333
 40
0.0833333333333333
 40
0.1666666666666667
 40
0.1666666666666667
 40
0.1666666666666667
 40
0.1666666666666667
 40
0.25
 40
0.25
 40
0.25
 40
0.25
 40
0.3333333333333333
 40
0.3333333333333333
 40
0.3333333333333333
 40
0.3333333333333333
 40
0.4166666666666667
 40
0.4166666666666667
 40
0.4166666666666667
 40
0.4166666666666667
 40
0.5
 40
0.5
 40
0.5
 40
0.5
 40
0.5833333333333334
 40
0.5833333333333334
 40
0.5833333333333334
 40
0.5833333333333334
 40
0.6666666666666666
 40
0.6666666666666666
 40
0.6666666666666666
 40
0.6666666666666666
 40
0.75
 40
0.75
 40
0.75
 40
0.75
 40
0.8333333333333334
 40
0.8333333333333334
 40
0.8333333333333334
 40
0.8333333333333334
 40
1.0
 40
1.0
 40
1.0
 40
1.0
 10
-54.9378
 20
-46.797
 30
0.0
 10
-54.9378
 20
-46.797
 30
0.0
 10
-54.9378
 20
-42.083
 30
0.0
 10
-54.9378
 20
-42.083
 30
0.0
 10
-54.9378
 20
-42.083
 30
0.0
 10
-54.9378
 20
-42.083
 30
0.0
 10
-58.2741
 20
-38.8194
 30
0.0
 10
-58.2741
 20
-38.8194
 30
0.0
 10
-58.2741
 20
-38.8194
 30
0.0
 10
-58.2741
 20
-38.8194
 30
0.0
 10
-54.9378
 20
-35.4348
 30
0.0
 10
-54.9378
 20
-35.4348
 30
0.0
 10
-54.9378
 20
-35.4348
 30
0.0
 10
-54.9378
 20
-35.4348
 30
0.0
 10
-54.9378
 20
-30.7208
 30
0.0
 10
-54.9378
 20
-30.7208
 30
0.0
 10
-54.9378
 20
-30.7208
 30
0.0
 10
-54.9378
 20
-30.7208
 30
0.0
 10
-50.2358
 20
-30.7208
 30
0.0
 10
-50.2358
 20
-30.7208
 30
0.0
 10
-50.2358
 20
-30.7208
 30
0.0
 10
-50.2358
 20
-30.7208
 30
0.0
 10
-46.8999
 20
-27.4572
 30
0.0
 10
-46.8999
 20
-27.4572
 30
0.0
 10
-46.8999
 20
-27.4572
 30
0.0
 10
-46.8999
 20
-27.4572
 30
0.0
 10
-43.9142
 20
-30.3583
 30
0.0
 10
-43.9142
 20
-30.3583
 30
0.0
 10
-43.9142
 20
-30.3583
 30
0.0
 10
-43.9142
 20
-30.3583
 30
0.0
 10
-43.9142
 20
-47.1598
 30
0.0
 10
-43.9142
 20
-47.1598
 30
0.0
 10
-43.9142
 20
-47.1598
 30
0.0
 10
-43.9142
 20
-47.1598
 30
0.0
 10
-46.8999
 20
-50.1816
 30
0.0
 10
-46.8999
 20
-50.1816
 30
0.0
 10
-46.8999
 20
-50.1816
 30
0.0
 10
-46.8999
 20
-50.1816
 30
0.0
 10
-50.2358
 20
-46.797
 30
0.0
 10
-50.2358
 20
-46.797
 30
0.0
 10
-50.2358
 20
-46.797
 30
0.0
 10
-50.2358
 20
-46.797
 30
0.0
 10
-54.9378
 20
-46.797
 30
0.0
 10
-54.9378
 20
-46.797
 30
0.0
  0
SPLINE
  5
81
330
1F
100
AcDbEntity
  8
layer 1
 62
     7
100
AcDbSpline
210
0.0
220
0.0
230
1.0
 70
    11
 71
     3
 72
    48
 73
    44
 74
     0
 42
0.0000000001
 43
0.0000000001
 12
1.0
 22
0.0
 32
0.0
 13
1.0
 23
0.0
 33
0.0
 40
0.0
 40
0.0
 40
0.0
 40
0.0
 40
0.0833333333333333
 40
0.0833333333333333
 40
0.0833333333333333
 40
0.0833333333333333
 40
0.1666666666666667
 40
0.1666666666666667
 40
0.1666666666666667
 40
0.1666666666666667
 40
0.25
 40
0.25
 40
0.25
 40
0.25
 40
0.3333333333333333
 40
0.3333333333333333
 40
0.3333333333333333
 40
0.3333333333333333
 40
0.4166666666666667
 40
0.4166666666666667
 40
0.4166666666666667
 40
0.4166666666666667
 40
0.5
 40
0.5
 40
0.5
 40
0.5
 40
0.5833333333333334
 40
0.5833333333333334
 40
0.5833333333333334
 40
0.5833333333333334
 40
0.6666666666666666
 40
0.6666666666666666
 40
0.6666666666666666
 40
0.6666666666666666
 40
0.75
 40
0.75
 40
0.75
 40
0.75
 40
0.8333333333333334
 40
0.8333333333333334
 40
0.8333333333333334
 40
0.8333333333333334
 40
1.0
 40
1.0
 40
1.0
 40
1.0
 10
-54.9378
 20
-15.3697
 30
0.0
 10
-54.9378
 20
-15.3697
 30
0.0
 10
-54.9378
 20
-10.6557
 30
0.0
 10
-54.9378
 20
-10.6557
 30
0.0
 10
-54.9378
 20
-10.6557
 30
0.0
 10
-54.9378
 20
-10.6557
 30
0.0
 10
-58.2741
 20
-7.2711
 30
0.0
 10
-58.2741
 20
-7.2711
 30
0.0
 10
-58.2741
 20
-7.2711
 30
0.0
 10
-58.2741
 20
-7.2711
 30
0.0
 10
-54.9378
 20
-4.0075
 30
0.0
 10
-54.9378
 20
-4.0075
 30
0.0
 10
-54.9378
 20
-4.0075
 30
0.0
 10
-54.9378
 20
-4.0075
 30
0.0
 10
-54.9378
 20
0.7065
 30
0.0
 10
-54.9378
 20
0.7065
 30
0.0
 10
-54.9378
 20
0.7065
 30
0.0
 10
-54.9378
 20
0.7065
 30
0.0
 10
-50.2358
 20
0.7065
 30
0.0
 10
-50.2358
 20
0.7065
 30
0.0
 10
-50.2358
 20
0.7065
 30
0.0
 10
-50.2358
 20
0.7065
 30
0.0
 10
-46.8999
 20
4.091
 30
0.0
 10
-46.8999
 20
4.091
 30
0.0
 10
-46.8999
 20
4.091
 30
0.0
 10
-46.8999
 20
4.091
 30
0.0
 10
-43.9142
 20
1.0693
 30
0.0
 10
-43.9142
 20
1.0693
 30
0.0
 10
-43.9142
 20
1.0693
 30
0.0
 10
-43.9142
 20
1.0693
 30
0.0
 10
-43.9142
 20
-15.7325
 30
0.0
 10
-43.9142
 20
-15.7325
 30
0.0
 10
-43.9142
 20
-15.7325
 30
0.0
 10
-43.9142
 20
-15.7325
 30
0.0
 10
-46.8999
 20
-18.6333
 30
0.0
 10
-46.8999
 20
-18.6333
 30
0.0
 10
-46.8999
 20
-18.6333
 30
0.0
 10
-46.8999
 20
-18.6333
 30
0.0
 10
-50.2358
 20
-15.3697
 30
0.0
 10
-50.2358
 20
-15.3697
 30
0.0
 10
-50.2358
 20
-15.3697
 30
0.0
 10
-50.2358
 20
-15.3697
 30
0.0
 10
-54.9378
 20
-15.3697
 30
0.0
 10
-54.9378
 20
-15.3697
 30
0.0
  0
SPLINE
  5
82
330
1F
100
AcDbEntity
  8
layer 1
 62
     7
100
AcDbSpline
210
0.0
220
0.0
230
1.0
 70
    11
 71
     3
 72
    48
 73
    44
 74
     0
 42
0.0000000001
 43
0.0000000001
 12
1.0
 22
0.0
 32
0.0
 13
1.0
 23
0.0
 33
0.0
 40
0.0
 40
0.0
 40
0.0
 40
0.0
 40
0.0833333333333333
 40
0.0833333333333333
 40
0.0833333333333333
 40
0.0833333333333333
 40
0.1666666666666667
 40
0.1666666666666667
 40
0.1666666666666667
 40
0.1666666666666667
 40
0.25
 40
0.25
 40
0.25
 40
0.25
 40
0.3333333333333333
 40
0.3333333333333333
 40
0.3333333333333333
 40
0.3333333333333333
 40
0.4166666666666667
 40
0.4166666666666667
 40
0.4166666666666667
 40
0.4166666666666667
 40
0.5
 40
0.5
 40
0.5
 40
0.5
 40
0.5833333333333334
 40
0.5833333333333334
 40
0.5833333333333334
 40
0.5833333333333334
 40
0.6666666666666666
 40
0.6666666666666666
 40
0.6666666666666666
 40
0.6666666666666666
 40
0.75
 40
0.75
 40
0.75
 40
0.75
 40
0.8333333333333334
 40
0.8333333333333334
 40
0.8333333333333334
 40
0.8333333333333334
 40
1.0
 40
1.0
 40
1.0
 40
1.0
 10
-54.9378
 20
16.1786
 30
0.0
 10
-54.9378
 20
16.1786
 30
0.0
 10
-54.9378
 20
20.8926
 30
0.0
 10
-54.9378
 20
20.8926
 30
0.0
 10
-54.9378
 20
20.8926
 30
0.0
 10
-54.9378
 20
20.8926
 30
0.0
 10
-58.2741
 20
24.1562
 30
0.0
 10
-58.2741
 20
24.1562
 30
0.0
 10
-58.2741
 20
24.1562
 30
0.0
 10
-58.2741
 20
24.1562
 30
0.0
 10
-54.9378
 20
27.5407
 30
0.0
 10
-54.9378
 20
27.5407
 30
0.0
 10
-54.9378
 20
27.5407
 30
0.0
 10
-54.9378
 20
27.5407
 30
0.0
 10
-54.9378
 20
32.2547
 30
0.0
 10
-54.9378
 20
32.2547
 30
0.0
 10
-54.9378
 20
32.2547
 30
0.0
 10
-54.9378
 20
32.2547
 30
0.0
 10
-50.2358
 20
32.2547
 30
0.0
 10
-50.2358
 20
32.2547
 30
0.0
 10
-50.2358
 20
32.2547
 30
0.0
 10
-50.2358
 20
32.2547
 30
0.0
 10
-46.8999
 20
35.5184
 30
0.0
 10
-46.8999
 20
35.5184
 30
0.0
 10
-46.8999
 20
35.5184
 30
0.0
 10
-46.8999
 20
35.5184
 30
0.0
 10
-43.9142
 20
32.6176
 30
0.0
 10
-43.9142
 20
32.6176
 30
0.0
 10
-43.9142
 20
32.6176
 30
0.0
 10
-43.9142
 20
32.6176
 30
0.0
 10
-43.9142
 20
15.8157
 30
0.0
 10
-43.9142
 20
15.8157
 30
0.0
 10
-43.9142
 20
15.8157
 30
0.0
 10
-43.9142
 20
15.8157
 30
0.0
 10
-46.8999
 20
12.794
 30
0.0
 10
-46.8999
 20
12.794
 30
0.0
 10
-46.8999
 20
12.794
 30
0.0
 10
-46.8999
 20
12.794
 30
0.0
 10
-50.2358
 20
16.1786
 30
0.0
 10
-50.2358
 20
16.1786
 30
0.0
 10
-50.2358
 20
16.1786
 30
0.0
 10
-50.2358
 20
16.1786
 30
0.0
 10
-54.9378
 20
16.1786
 30
0.0
 10
-54.9378
 20
16.1786
 30
0.0
  0
SPLINE
  5
83
330
1F
100
AcDbEntity
  8
layer 1
 62
     7
100
AcDbSpline
210
0.0
220
0.0
230
1.0
 70
    11
 71
     3
 72
    48
 73
    44
 74
     0
 42
0.0000000001
 43
0.0000000001
 12
1.0
 22
0.0
 32
0.0
 13
1.0
 23
0.0
 33
0.0
 40
0.0
 40
0.0
 40
0.0
 40
0.0
 40
0.0833333333333333
 40
0.0833333333333333
 40
0.0833333333333333
 40
0.0833333333333333
 40
0.1666666666666667
 40
0.1666666666666667
 40
0.1666666666666667
 40
0.1666666666666667
 40
0.25
 40
0.25
 40
0.25
 40
0.25
 40
0.3333333333333333
 40
0.3333333333333333
 40
0.3333333333333333
 40
0.3333333333333333
 40
0.4166666666666667
 40
0.4166666666666667
 40
0.4166666666666667
 40
0.4166666666666667
 40
0.5
 40
0.5
 40
0.5
 40
0.5
 40
0.5833333333333334
 40
0.5833333333333334
 40
0.5833333333333334
 40
0.5833333333333334
 40
0.6666666666666666
 40
0.6666666666666666
 40
0.6666666666666666
 40
0.6666666666666666
 40
0.75
 40
0.75
 40
0.75
 40
0.75
 40
0.8333333333333334
 40
0.8333333333333334
 40
0.8333333333333334
 40
0.8333333333333334
 40
1.0
 40
1.0
 40
1.0
 40
1.0
 10
-54.9378
 20
47.6059
 30
0.0
 10
-54.9378
 20
47.6059
 30
0.0
 10
-54.9378
 20
52.3199
 30
0.0
 10
-54.9378
 20
52.3199
 30
0.0
 10
-54.9378
 20
52.3199
 30
0.0
 10
-54.9378
 20
52.3199
 30
0.0
 10
-58.2741
 20
55.7044
 30
0.0
 10
-58.2741
 20
55.7044
 30
0.0
 10
-58.2741
 20
55.7044
 30
0.0
 10
-58.2741
 20
55.7044
 30
0.0
 10
-54.9378
 20
58.9681
 30
0.0
 10
-54.9378
 20
58.9681
 30
0.0
 10
-54.9378
 20
58.9681
 30
0.0
 10
-54.9378
 20
58.9681
 30
0.0
 10
-54.9378
 20
63.682
 30
0.0
 10
-54.9378
 20
63.682
 30
0.0
 10
-54.9378
 20
63.682
 30
0.0
 10
-54.9378
 20
63.682
 30
0.0
 10
-50.2358
 20
63.682
 30
0.0
 10
-50.2358
 20
63.682
 30
0.0
 10
-50.2358
 20
63.682
 30
0.0
 10
-50.2358
 20
63.682
 30
0.0
 10
-46.8999
 20
67.0666
 30
0.0
 10
-46.8999
 20
67.0666
 30
0.0
 10
-46.8999
 20
67.0666
 30
0.0
 10
-46.8999
 20
67.0666
 30
0.0
 10
-43.9142
 20
64.0449
 30
0.0
 10
-43.9142
 20
64.0449
 30
0.0
 10
-43.9142
 20
64.0449
 30
0.0
 10
-43.9142
 20
64.0449
 30
0.0
 10
-43.9142
 20
47.364
 30
0.0
 10
-43.9142
 20
47.364
 30
0.0
 10
-43.9142
 20
47.364
 30
0.0
 10
-43.9142
 20
47.364
 30
0.0
 10
-46.8999
 20
44.3423
 30
0.0
 10
-46.8999
 20
44.3423
 30
0.0
 10
-46.8999
 20
44.3423
 30
0.0
 10
-46.8999
 20
44.3423
 30
0.0
 10
-50.2358
 20
47.6059
 30
0.0
 10
-50.2358
 20
47.6059
 30
0.0
 10
-50.2358
 20
47.6059
 30
0.0
 10
-50.2358
 20
47.6059
 30
0.0
 10
-54.9378
 20
47.6059
 30
0.0
 10
-54.9378
 20
47.6059
 30
0.0
  0
SPLINE
  5
84
330
1F
100
AcDbEntity
  8
layer 1
 62
     7
100
AcDbSpline
210
0.0
220
0.0
230
1.0
 70
    11
 71
     3
 72
    48
 73
    44
 74
     0
 42
0.0000000001
 43
0.0000000001
 12
1.0
 22
0.0
 32
0.0
 13
1.0
 23
0.0
 33
0.0
 40
0.0
 40
0.0
 40
0.0
 40
0.0
 40
0.0833333333333333
 40
0.0833333333333333
 40
0.0833333333333333
 40
0.0833333333333333
 40
0.1666666666666667
 40
0.1666666666666667
 40
0.1666666666666667
 40
0.1666666666666667
 40
0.25
 40
0.25
 40
0.25
 40
0.25
 40
0.3333333333333333
 40
0.3333333333333333
 40
0.3333333333333333
 40
0.3333333333333333
 40
0.4166666666666667
 40
0.4166666666666667
 40
0.4166666666666667
 40
0.4166666666666667
 40
0.5
 40
0.5
 40
0.5
 40
0.5
 40
0.5833333333333334
 40
0.5833333333333334
 40
0.5833333333333334
 40
0.5833333333333334
 40
0.6666666666666666
 40
0.6666666666666666
 40
0.6666666666666666
 40
0.6666666666666666
 40
0.75
 40
0.75
 40
0.75
 40
0.75
 40
0.8333333333333334
 40
0.8333333333333334
 40
0.8333333333333334
 40
0.8333333333333334
 40
1.0
 40
1.0
 40
1.0
 40
1.0
 10
-54.9378
 20
79.1541
 30
0.0
 10
-54.9378
 20
79.1541
 30
0.0
 10
-54.9378
 20
83.8681
 30
0.0
 10
-54.9378
 20
83.8681
 30
0.0
 10
-54.9378
 20
83.8681
 30
0.0
 10
-54.9378
 20
83.8681
 30
0.0
 10
-58.2741
 20
87.1317
 30
0.0
 10
-58.2741
 20
87.1317
 30
0.0
 10
-58.2741
 20
87.1317
 30
0.0
 10
-58.2741
 20
87.1317
 30
0.0
 10
-54.9378
 20
90.5163
 30
0.0
 10
-54.9378
 20
90.5163
 30
0.0
 10
-54.9378
 20
90.5163
 30
0.0
 10
-54.9378
 20
90.5163
 30
0.0
 10
-54.9378
 20
95.2303
 30
0.0
 10
-54.9378
 20
95.2303
 30
0.0
 10
-54.9378
 20
95.2303
 30
0.0
 10
-54.9378
 20
95.2303
 30
0.0
 10
-50.2358
 20
95.2303
 30
0.0
 10
-50.2358
 20
95.2303
 30
0.0
 10
-50.2358
 20
95.2303
 30
0.0
 10
-50.2358
 20
95.2303
 30
0.0
 10
-46.8999
 20
98.4939
 30
0.0
 10
-46.8999
 20
98.4939
 30
0.0
 10
-46.8999
 20
98.4939
 30
0.0
 10
-46.8999
 20
98.4939
 30
0.0
 10
-43.9142
 20
95.5932
 30
0.0
 10
-43.9142
 20
95.5932
 30
0.0
 10
-43.9142
 20
95.5932
 30
0.0
 10
-43.9142
 20
95.5932
 30
0.0
 10
-43.9142
 20
78.7916
 30
0.0
 10
-43.9142
 20
78.7916
 30
0.0
 10
-43.9142
 20
78.7916
 30
0.0
 10
-43.9142
 20
78.7916
 30
0.0
 10
-46.8999
 20
75.7696
 30
0.0
 10
-46.8999
 20
75.7696
 30
0.0
 10
-46.8999
 20
75.7696
 30
0.0
 10
-46.8999
 20
75.7696
 30
0.0
 10
-50.2358
 20
79.1541
 30
0.0
 10
-50.2358
 20
79.1541
 30
0.0
 10
-50.2358
 20
79.1541
 30
0.0
 10
-50.2358
 20
79.1541
 30
0.0
 10
-54.9378
 20
79.1541
 30
0.0
 10
-54.9378
 20
79.1541
 30
0.0
  0
SPLINE
  5
85
330
1F
100
AcDbEntity
  8
layer 1
 62
     7
100
AcDbSpline
210
0.0
220
0.0
230
1.0
 70
    11
 71
     3
 72
    36
 73
    32
 74
     0
 42
0.0000000001
 43
0.0000000001
 12
1.0
 22
0.0
 32
0.0
 13
1.0
 23
0.0
 33
0.0
 40
0.0
 40
0.0
 40
0.0
 40
0.0
 40
0.1111111111111111
 40
0.1111111111111111
 40
0.1111111111111111
 40
0.1111111111111111
 40
0.2222222222222222
 40
0.2222222222222222
 40
0.2222222222222222
 40
0.2222222222222222
 40
0.3333333333333333
 40
0.3333333333333333
 40
0.3333333333333333
 40
0.3333333333333333
 40
0.4444444444444444
 40
0.4444444444444444
 40
0.4444444444444444
 40
0.4444444444444444
 40
0.5555555555555556
 40
0.5555555555555556
 40
0.5555555555555556
 40
0.5555555555555556
 40
0.6666666666666666
 40
0.6666666666666666
 40
0.6666666666666666
 40
0.6666666666666666
 40
0.7777777777777778
 40
0.7777777777777778
 40
0.7777777777777778
 40
0.7777777777777778
 40
1.0
 40
1.0
 40
1.0
 40
1.0
 10
-54.9378
 20
110.7024
 30
0.0
 10
-54.9378
 20
110.7024
 30
0.0
 10
-54.9378
 20
115.2958
 30
0.0
 10
-54.9378
 20
115.2958
 30
0.0
 10
-54.9378
 20
115.2958
 30
0.0
 10
-54.9378
 20
115.2958
 30
0.0
 10
-58.2741
 20
118.68
 30
0.0
 10
-58.2741
 20
118.68
 30
0.0
 10
-58.2741
 20
118.68
 30
0.0
 10
-58.2741
 20
118.68
 30
0.0
 10
-56.6181
 20
120.3723
 30
0.0
 10
-56.6181
 20
120.3723
 30
0.0
 10
-56.6181
 20
120.3723
 30
0.0
 10
-56.6181
 20
120.3723
 30
0.0
 10
-43.9142
 20
120.3723
 30
0.0
 10
-43.9142
 20
120.3723
 30
0.0
 10
-43.9142
 20
120.3723
 30
0.0
 10
-43.9142
 20
120.3723
 30
0.0
 10
-43.9142
 20
110.3399
 30
0.0
 10
-43.9142
 20
110.3399
 30
0.0
 10
-43.9142
 20
110.3399
 30
0.0
 10
-43.9142
 20
110.3399
 30
0.0
 10
-46.8999
 20
107.3178
 30
0.0
 10
-46.8999
 20
107.3178
 30
0.0
 10
-46.8999
 20
107.3178
 30
0.0
 10
-46.8999
 20
107.3178
 30
0.0
 10
-50.2358
 20
110.7024
 30
0.0
 10
-50.2358
 20
110.7024
 30
0.0
 10
-50.2358
 20
110.7024
 30
0.0
 10
-50.2358
 20
110.7024
 30
0.0
 10
-54.9378
 20
110.7024
 30
0.0
 10
-54.9378
 20
110.7024
 30
0.0
  0
ENDSEC
  0
SECTION
  2
OBJECTS
  0
DICTIONARY
  5
C
330
0
100
AcDbDictionary
281
     1
  3
ACAD_GROUP
350
D
  3
ACAD_LAYOUT
350
1A
  3
ACAD_MATERIAL
350
3B
  3
ACAD_MLEADERSTYLE
350
A7
  3
ACAD_MLINESTYLE
350
17
  3
ACAD_PLOTSETTINGS
350
19
  3
ACAD_PLOTSTYLENAME
350
E
  3
ACAD_TABLESTYLE
350
A6
  3
ACAD_VISUALSTYLE
350
2A
  0
DICTIONARY
  5
D
102
{ACAD_REACTORS
330
C
102
}
330
C
100
AcDbDictionary
281
     1
  0
DICTIONARY
  5
1A
102
{ACAD_REACTORS
330
C
102
}
330
C
100
AcDbDictionary
281
     1
  3
Layout1
350
1E
  3
Layout2
350
26
  3
Model
350
22
  0
DICTIONARY
  5
3B
102
{ACAD_REACTORS
330
C
102
}
330
C
100
AcDbDictionary
281
     1
  3
ByBlock
350
3D
  3
ByLayer
350
3C
  3
Global
350
3E
  0
DICTIONARY
  5
A7
102
{ACAD_REACTORS
330
C
102
}
330
C
100
AcDbDictionary
281
     1
  0
DICTIONARY
  5
17
102
{ACAD_REACTORS
330
C
102
}
330
C
100
AcDbDictionary
281
     1
  3
Standard
350
18
  0
DICTIONARY
  5
19
102
{ACAD_REACTORS
330
C
102
}
330
C
100
AcDbDictionary
281
     1
  0
ACDBDICTIONARYWDFLT
  5
E
102
{ACAD_REACTORS
330
C
102
}
330
C
100
AcDbDictionary
281
     1
  3
Normal
350
F
100
AcDbDictionaryWithDefault
340
F
  0
DICTIONARY
  5
A6
102
{ACAD_REACTORS
330
C
102
}
330
C
100
AcDbDictionary
281
     1
  0
DICTIONARY
  5
2A
102
{ACAD_REACTORS
330
C
102
}
330
C
100
AcDbDictionary
281
     1
  3
2dWireframe
350
2F
  3
3D Hidden
350
31
  3
3dWireframe
350
30
  3
Basic
350
32
  3
Brighten
350
36
  3
ColorChange
350
3A
  3
Conceptual
350
34
  3
Dim
350
35
  3
Facepattern
350
39
  3
Flat
350
2B
  3
FlatWithEdges
350
2C
  3
Gouraud
350
2D
  3
GouraudWithEdges
350
2E
  3
Linepattern
350
38
  3
Realistic
350
33
  3
Thicken
350
37
  0
LAYOUT
  5
1E
102
{ACAD_REACTORS
330
1A
102
}
330
1A
100
AcDbPlotSettings
  1

  2
none_device
  4

  6

 40
0.0
 41
0.0
 42
0.0
 43
0.0
 44
0.0
 45
0.0
 46
0.0
 47
0.0
 48
0.0
 49
0.0
140
0.0
141
0.0
142
1.0
143
1.0
 70
   688
 72
     0
 73
     0
 74
     5
  7

 75
    16
 76
     0
 77
     2
 78
   300
147
1.0
148
0.0
149
0.0
100
AcDbLayout
  1
Layout1
 70
     1
 71
     1
 10
0.0
 20
0.0
 11
12.0
 21
9.0
 12
0.0
 22
0.0
 32
0.0
 14
1.000000000000000E+20
 24
1.000000000000000E+20
 34
1.000000000000000E+20
 15
-1.000000000000000E+20
 25
-1.000000000000000E+20
 35
-1.000000000000000E+20
146
0.0
 13
0.0
 23
0.0
 33
0.0
 16
1.0
 26
0.0
 36
0.0
 17
0.0
 27
1.0
 37
0.0
 76
     0
330
1B
  0
LAYOUT
  5
26
102
{ACAD_REACTORS
330
1A
102
}
330
1A
100
AcDbPlotSettings
  1

  2
none_device
  4

  6

 40
0.0
 41
0.0
 42
0.0
 43
0.0
 44
0.0
 45
0.0
 46
0.0
 47
0.0
 48
0.0
 49
0.0
140
0.0
141
0.0
142
1.0
143
1.0
 70
   688
 72
     0
 73
     0
 74
     5
  7

 75
    16
 76
     0
 77
     2
 78
   300
147
1.0
148
0.0
149
0.0
100
AcDbLayout
  1
Layout2
 70
     1
 71
     2
 10
0.0
 20
0.0
 11
0.0
 21
0.0
 12
0.0
 22
0.0
 32
0.0
 14
0.0
 24
0.0
 34
0.0
 15
0.0
 25
0.0
 35
0.0
146
0.0
 13
0.0
 23
0.0
 33
0.0
 16
1.0
 26
0.0
 36
0.0
 17
0.0
 27
1.0
 37
0.0
 76
     0
330
23
  0
LAYOUT
  5
22
102
{ACAD_REACTORS
330
1A
102
}
330
1A
100
AcDbPlotSettings
  1

  2
none_device
  4

  6

 40
0.0
 41
0.0
 42
0.0
 43
0.0
 44
0.0
 45
0.0
 46
0.0
 47
0.0
 48
0.0
 49
0.0
140
0.0
141
0.0
142
1.0
143
1.0
 70
  1712
 72
     0
 73
     0
 74
     0
  7

 75
     0
 76
     0
 77
     2
 78
   300
147
1.0
148
0.0
149
0.0
100
AcDbLayout
  1
Model
 70
     1
 71
     0
 10
0.0
 20
0.0
 11
12.0
 21
9.0
 12
0.0
 22
0.0
 32
0.0
 14
-187.4045
 24
-114.9704
 34
0.0
 15
-32.4314
 25
131.8554
 35
0.0
146
0.0
 13
0.0
 23
0.0
 33
0.0
 16
1.0
 26
0.0
 36
0.0
 17
0.0
 27
1.0
 37
0.0
 76
     0
330
1F
331
29
  0
MATERIAL
  5
3D
102
{ACAD_REACTORS
330
3B
102
}
330
3B
100
AcDbMaterial
  1
ByBlock
 72
     1
 94
      127
  0
MATERIAL
  5
3C
102
{ACAD_REACTORS
330
3B
102
}
330
3B
100
AcDbMaterial
  1
ByLayer
 72
     1
 94
      127
  0
MATERIAL
  5
3E
102
{ACAD_REACTORS
330
3B
102
}
330
3B
100
AcDbMaterial
  1
Global
 72
     1
 94
      127
  0
MLINESTYLE
  5
18
102
{ACAD_REACTORS
330
17
102
}
330
17
100
AcDbMlineStyle
  2
Standard
 70
     0
  3

 62
   256
 51
90.0
 52
90.0
 71
     2
 49
0.5
 62
   256
  6
BYLAYER
 49
-0.5
 62
   256
  6
BYLAYER
  0
ACDBPLACEHOLDER
  5
F
102
{ACAD_REACTORS
330
E
102
}
330
E
  0
VISUALSTYLE
  5
2F
102
{ACAD_REACTORS
330
2A
102
}
102
{ACAD_XDICTIONARY
360
8E
102
}
330
2A
100
AcDbVisualStyle
  2
2dWireframe
 70
     4
 71
     0
 72
     2
 73
     0
 90
        0
 40
-0.6
 41
-30.0
 62
     5
 63
     7
421
 16777215
 74
     1
 91
        4
 64
     7
 65
   257
 75
     1
175
     1
 42
1.0
 92
        0
 66
   257
 43
1.0
 76
     1
 77
     6
 78
     2
 67
     7
 79
     5
170
     0
171
     0
290
     0
174
     0
 93
        1
 44
0.0
173
     0
291
     0
 45
0.0
  0
VISUALSTYLE
  5
31
102
{ACAD_REACTORS
330
2A
102
}
102
{ACAD_XDICTIONARY
360
92
102
}
330
2A
100
AcDbVisualStyle
  2
3D Hidden
 70
     6
 71
     1
 72
     2
 73
     2
 90
        0
 40
-0.6
 41
-30.0
 62
     5
 63
     7
421
 16777215
 74
     2
 91
        2
 64
     7
 65
   257
 75
     2
175
     1
 42
40.0
 92
        0
 66
   257
 43
1.0
 76
     1
 77
     6
 78
     2
 67
     7
 79
     3
170
     0
171
     0
290
     0
174
     0
 93
        1
 44
0.0
173
     0
291
     0
 45
0.0
  0
VISUALSTYLE
  5
30
102
{ACAD_REACTORS
330
2A
102
}
102
{ACAD_XDICTIONARY
360
90
102
}
330
2A
100
AcDbVisualStyle
  2
3dWireframe
 70
     5
 71
     0
 72
     2
 73
     0
 90
        0
 40
-0.6
 41
-30.0
 62
     5
 63
     7
421
 16777215
 74
     1
 91
        4
 64
     7
 65
   257
 75
     1
175
     1
 42
1.0
 92
        0
 66
   257
 43
1.0
 76
     1
 77
     6
 78
     2
 67
     7
 79
     5
170
     0
171
     0
290
     0
174
     0
 93
        1
 44
0.0
173
     0
291
     0
 45
0.0
  0
VISUALSTYLE
  5
32
102
{ACAD_REACTORS
330
2A
102
}
102
{ACAD_XDICTIONARY
360
94
102
}
330
2A
100
AcDbVisualStyle
  2
Basic
 70
     7
 71
     1
 72
     0
 73
     1
 90
        0
 40
-0.6
 41
-30.0
 62
     5
 63
     7
421
 16777215
 74
     0
 91
        4
 64
     7
 65
   257
 75
     1
175
     1
 42
1.0
 92
        8
 66
     7
 43
1.0
 76
     1
 77
     6
 78
     2
 67
     7
 79
     5
170
     0
171
     0
290
     0
174
     0
 93
        1
 44
0.0
173
     0
291
     1
 45
0.0
  0
VISUALSTYLE
  5
36
102
{ACAD_REACTORS
330
2A
102
}
102
{ACAD_XDICTIONARY
360
9C
102
}
330
2A
100
AcDbVisualStyle
  2
Brighten
 70
    12
 71
     2
 72
     2
 73
     0
 90
        0
 40
-0.6
 41
-30.0
 62
     5
 63
     7
421
 16777215
 74
     1
 91
        4
 64
     7
 65
   257
 75
     1
175
     1
 42
1.0
 92
        8
 66
     7
 43
1.0
 76
     1
 77
     6
 78
     2
 67
     7
 79
     5
170
     0
171
     0
290
     0
174
     0
 93
        1
 44
50.0
173
     0
291
     1
 45
0.0
  0
VISUALSTYLE
  5
3A
102
{ACAD_REACTORS
330
2A
102
}
102
{ACAD_XDICTIONARY
360
A4
102
}
330
2A
100
AcDbVisualStyle
  2
ColorChange
 70
    16
 71
     2
 72
     2
 73
     3
 90
        0
 40
-0.6
 41
-30.0
 62
     5
 63
     8
421
  8421504
 74
     1
 91
        4
 64
     7
 65
   257
 75
     1
175
     1
 42
1.0
 92
        8
 66
     8
424
  8421504
 43
1.0
 76
     1
 77
     6
 78
     2
 67
     7
 79
     5
170
     0
171
     0
290
     0
174
     0
 93
        1
 44
0.0
173
     0
291
     1
 45
0.0
  0
VISUALSTYLE
  5
34
102
{ACAD_REACTORS
330
2A
102
}
102
{ACAD_XDICTIONARY
360
98
102
}
330
2A
100
AcDbVisualStyle
  2
Conceptual
 70
     9
 71
     3
 72
     2
 73
     0
 90
        0
 40
-0.6
 41
-30.0
 62
     5
 63
     7
421
 16777215
 74
     2
 91
        2
 64
     7
 65
   257
 75
     1
175
     1
 42
40.0
 92
        8
 66
     7
 43
1.0
 76
     1
 77
     6
 78
     2
 67
     7
 79
     3
170
     0
171
     0
290
     0
174
     0
 93
        1
 44
0.0
173
     0
291
     0
 45
0.0
  0
VISUALSTYLE
  5
35
102
{ACAD_REACTORS
330
2A
102
}
102
{ACAD_XDICTIONARY
360
9A
102
}
330
2A
100
AcDbVisualStyle
  2
Dim
 70
    11
 71
     2
 72
     2
 73
     0
 90
        0
 40
-0.6
 41
-30.0
 62
     5
 63
     7
421
 16777215
 74
     1
 91
        4
 64
     7
 65
   257
 75
     1
175
     1
 42
1.0
 92
        8
 66
     7
 43
1.0
 76
     1
 77
     6
 78
     2
 67
     7
 79
     5
170
     0
171
     0
290
     0
174
     0
 93
        1
 44
-50.0
173
     0
291
     1
 45
0.0
  0
VISUALSTYLE
  5
39
102
{ACAD_REACTORS
330
2A
102
}
102
{ACAD_XDICTIONARY
360
A2
102
}
330
2A
100
AcDbVisualStyle
  2
Facepattern
 70
    15
 71
     2
 72
     2
 73
     0
 90
        0
 40
-0.6
 41
-30.0
 62
     5
 63
     7
421
 16777215
 74
     1
 91
        4
 64
     7
 65
   257
 75
     1
175
     1
 42
1.0
 92
        8
 66
     7
 43
1.0
 76
     1
 77
     6
 78
     2
 67
     7
 79
     5
170
     0
171
     0
290
     0
174
     0
 93
        1
 44
0.0
173
     0
291
     1
 45
0.0
  0
VISUALSTYLE
  5
2B
102
{ACAD_REACTORS
330
2A
102
}
102
{ACAD_XDICTIONARY
360
86
102
}
330
2A
100
AcDbVisualStyle
  2
Flat
 70
     0
 71
     2
 72
     1
 73
     1
 90
        2
 40
-0.6
 41
30.0
 62
     5
 63
     7
421
 16777215
 74
     0
 91
        4
 64
     7
 65
   257
 75
     1
175
     1
 42
1.0
 92
        8
 66
     7
 43
1.0
 76
     1
 77
     6
 78
     2
 67
     7
 79
     5
170
     0
171
     0
290
     0
174
     0
 93
       13
 44
0.0
173
     0
291
     1
 45
0.0
  0
VISUALSTYLE
  5
2C
102
{ACAD_REACTORS
330
2A
102
}
102
{ACAD_XDICTIONARY
360
88
102
}
330
2A
100
AcDbVisualStyle
  2
FlatWithEdges
 70
     1
 71
     2
 72
     1
 73
     1
 90
        2
 40
-0.6
 41
30.0
 62
     5
 63
     7
421
 16777215
 74
     1
 91
        4
 64
     7
 65
   257
 75
     1
175
     1
 42
1.0
 92
        0
 66
   257
 43
1.0
 76
     1
 77
     6
 78
     2
 67
     7
 79
     5
170
     0
171
     0
290
     0
174
     0
 93
       13
 44
0.0
173
     0
291
     1
 45
0.0
  0
VISUALSTYLE
  5
2D
102
{ACAD_REACTORS
330
2A
102
}
102
{ACAD_XDICTIONARY
360
8A
102
}
330
2A
100
AcDbVisualStyle
  2
Gouraud
 70
     2
 71
     2
 72
     2
 73
     1
 90
        2
 40
-0.6
 41
30.0
 62
     5
 63
     7
421
 16777215
 74
     0
 91
        4
 64
     7
 65
   257
 75
     1
175
     1
 42
1.0
 92
        0
 66
     7
 43
1.0
 76
     1
 77
     6
 78
     2
 67
     7
 79
     5
170
     0
171
     0
290
     0
174
     0
 93
       13
 44
0.0
173
     0
291
     1
 45
0.0
  0
VISUALSTYLE
  5
2E
102
{ACAD_REACTORS
330
2A
102
}
102
{ACAD_XDICTIONARY
360
8C
102
}
330
2A
100
AcDbVisualStyle
  2
GouraudWithEdges
 70
     3
 71
     2
 72
     2
 73
     1
 90
        2
 40
-0.6
 41
30.0
 62
     5
 63
     7
421
 16777215
 74
     1
 91
        4
 64
     7
 65
   257
 75
     1
175
     1
 42
1.0
 92
        0
 66
   257
 43
1.0
 76
     1
 77
     6
 78
     2
 67
     7
 79
     5
170
     0
171
     0
290
     0
174
     0
 93
       13
 44
0.0
173
     0
291
     1
 45
0.0
  0
VISUALSTYLE
  5
38
102
{ACAD_REACTORS
330
2A
102
}
102
{ACAD_XDICTIONARY
360
A0
102
}
330
2A
100
AcDbVisualStyle
  2
Linepattern
 70
    14
 71
     2
 72
     2
 73
     0
 90
        0
 40
-0.6
 41
-30.0
 62
     5
 63
     7
421
 16777215
 74
     1
 91
        4
 64
     7
 65
   257
 75
     7
175
     7
 42
1.0
 92
        8
 66
     7
 43
1.0
 76
     1
 77
     6
 78
     2
 67
     7
 79
     5
170
     0
171
     0
290
     0
174
     0
 93
        1
 44
0.0
173
     0
291
     1
 45
0.0
  0
VISUALSTYLE
  5
33
102
{ACAD_REACTORS
330
2A
102
}
102
{ACAD_XDICTIONARY
360
96
102
}
330
2A
100
AcDbVisualStyle
  2
Realistic
 70
     8
 71
     2
 72
     2
 73
     0
 90
        0
 40
-0.6
 41
-30.0
 62
     5
 63
     7
421
 16777215
 74
     1
 91
        0
 64
     7
 65
   257
 75
     1
175
     1
 42
1.0
 92
        8
 66
     8
424
  7895160
 43
1.0
 76
     1
 77
     6
 78
     2
 67
     7
 79
     5
170
     0
171
     0
290
     0
174
     0
 93
       13
 44
0.0
173
     0
291
     0
 45
0.0
  0
VISUALSTYLE
  5
37
102
{ACAD_REACTORS
330
2A
102
}
102
{ACAD_XDICTIONARY
360
9E
102
}
330
2A
100
AcDbVisualStyle
  2
Thicken
 70
    13
 71
     2
 72
     2
 73
     0
 90
        0
 40
-0.6
 41
-30.0
 62
     5
 63
     7
421
 16777215
 74
     1
 91
        4
 64
     7
 65
   257
 75
     1
175
     1
 42
1.0
 92
       12
 66
     7
 43
1.0
 76
     1
 77
     6
 78
     2
 67
     7
 79
     5
170
     0
171
     0
290
     0
174
     0
 93
        1
 44
0.0
173
     0
291
     1
 45
0.0
  0
DICTIONARY
  5
8E
330
2F
100
AcDbDictionary
280
     1
281
     1
  3
ACAD_XREC_ROUNDTRIP
360
8F
  0
DICTIONARY
  5
92
330
31
100
AcDbDictionary
280
     1
281
     1
  3
ACAD_XREC_ROUNDTRIP
360
93
  0
DICTIONARY
  5
90
330
30
100
AcDbDictionary
280
     1
281
     1
  3
ACAD_XREC_ROUNDTRIP
360
91
  0
DICTIONARY
  5
94
330
32
100
AcDbDictionary
280
     1
281
     1
  3
ACAD_XREC_ROUNDTRIP
360
95
  0
DICTIONARY
  5
9C
330
36
100
AcDbDictionary
280
     1
281
     1
  3
ACAD_XREC_ROUNDTRIP
360
9D
  0
DICTIONARY
  5
A4
330
3A
100
AcDbDictionary
280
     1
281
     1
  3
ACAD_XREC_ROUNDTRIP
360
A5
  0
DICTIONARY
  5
98
330
34
100
AcDbDictionary
280
     1
281
     1
  3
ACAD_XREC_ROUNDTRIP
360
99
  0
DICTIONARY
  5
9A
330
35
100
AcDbDictionary
280
     1
281
     1
  3
ACAD_XREC_ROUNDTRIP
360
9B
  0
DICTIONARY
  5
A2
330
39
100
AcDbDictionary
280
     1
281
     1
  3
ACAD_XREC_ROUNDTRIP
360
A3
  0
DICTIONARY
  5
86
330
2B
100
AcDbDictionary
280
     1
281
     1
  3
ACAD_XREC_ROUNDTRIP
360
87
  0
DICTIONARY
  5
88
330
2C
100
AcDbDictionary
280
     1
281
     1
  3
ACAD_XREC_ROUNDTRIP
360
89
  0
DICTIONARY
  5
8A
330
2D
100
AcDbDictionary
280
     1
281
     1
  3
ACAD_XREC_ROUNDTRIP
360
8B
  0
DICTIONARY
  5
8C
330
2E
100
AcDbDictionary
280
     1
281
     1
  3
ACAD_XREC_ROUNDTRIP
360
8D
  0
DICTIONARY
  5
A0
330
38
100
AcDbDictionary
280
     1
281
     1
  3
ACAD_XREC_ROUNDTRIP
360
A1
  0
DICTIONARY
  5
96
330
33
100
AcDbDictionary
280
     1
281
     1
  3
ACAD_XREC_ROUNDTRIP
360
97
  0
DICTIONARY
  5
9E
330
37
100
AcDbDictionary
280
     1
281
     1
  3
ACAD_XREC_ROUNDTRIP
360
9F
  0
XRECORD
  5
8F
102
{ACAD_REACTORS
330
8E
102
}
330
8E
100
AcDbXrecord
280
     1
102
RTVSPropertyOp0
 70
     1
102
RTVSPropertyOp1
 70
     1
102
RTVSPropertyOp2
 70
     1
102
RTVSPropertyOp3
 70
     1
102
RTVSPropertyOp4
 70
     1
102
RTVSPropertyOp5
 70
     1
102
RTVSPropertyOp6
 70
     1
102
RTVSPropertyOp7
 70
     1
102
RTVSPropertyOp8
 70
     1
102
RTVSPropertyOp9
 70
     1
102
RTVSPropertyOp10
 70
     1
102
RTVSPropertyOp11
 70
     1
102
RTVSPropertyOp12
 70
     1
102
RTVSPropertyOp13
 70
     1
102
RTVSPropertyOp14
 70
     1
102
RTVSPropertyOp15
 70
     1
102
RTVSPropertyOp16
 70
     1
102
RTVSPropertyOp17
 70
     1
102
RTVSPropertyOp18
 70
     1
102
RTVSPropertyOp19
 70
     1
102
RTVSPropertyOp20
 70
     1
102
RTVSPropertyOp21
 70
     1
102
RTVSPropertyOp22
 70
     1
102
RTVSPropertyOp23
 70
     1
102
RTVSPropertyOp24
 70
     1
102
RTVSPropertyOp25
 70
     1
102
RTVSPropertyOp26
 70
     1
102
RTVSPropertyOp27
 70
     1
102
RTVSPropertyOp28
 70
     1
102
RTVSPropertyOp29
 70
     1
102
RTVSPropertyOp30
 70
     1
102
RTVSPropertyOp31
 70
     1
102
RTVSPropertyOp32
 70
     1
  0
XRECORD
  5
93
102
{ACAD_REACTORS
330
92
102
}
330
92
100
AcDbXrecord
280
     1
102
RTVSPropertyOp0
 70
     1
102
RTVSPropertyOp1
 70
     1
102
RTVSPropertyOp2
 70
     1
102
RTVSPropertyOp3
 70
     1
102
RTVSPropertyOp4
 70
     1
102
RTVSPropertyOp5
 70
     1
102
RTVSPropertyOp6
 70
     1
102
RTVSPropertyOp7
 70
     1
102
RTVSPropertyOp8
 70
     1
102
RTVSPropertyOp9
 70
     1
102
RTVSPropertyOp10
 70
     1
102
RTVSPropertyOp11
 70
     1
102
RTVSPropertyOp12
 70
     1
102
RTVSPropertyOp13
 70
     1
102
RTVSPropertyOp14
 70
     1
102
RTVSPropertyOp15
 70
     1
102
RTVSPropertyOp16
 70
     1
102
RTVSPropertyOp17
 70
     1
102
RTVSPropertyOp18
 70
     1
102
RTVSPropertyOp19
 70
     1
102
RTVSPropertyOp20
 70
     1
102
RTVSPropertyOp21
 70
     1
102
RTVSPropertyOp22
 70
     1
102
RTVSPropertyOp23
 70
     1
102
RTVSPropertyOp24
 70
     1
102
RTVSPropertyOp25
 70
     1
102
RTVSPropertyOp26
 70
     1
102
RTVSPropertyOp27
 70
     1
102
RTVSPropertyOp28
 70
     1
102
RTVSPropertyOp29
 70
     1
102
RTVSPropertyOp30
 70
     1
102
RTVSPropertyOp31
 70
     1
102
RTVSPropertyOp32
 70
     1
  0
XRECORD
  5
91
102
{ACAD_REACTORS
330
90
102
}
330
90
100
AcDbXrecord
280
     1
102
RTVSPropertyOp0
 70
     1
102
RTVSPropertyOp1
 70
     1
102
RTVSPropertyOp2
 70
     1
102
RTVSPropertyOp3
 70
     1
102
RTVSPropertyOp4
 70
     1
102
RTVSPropertyOp5
 70
     1
102
RTVSPropertyOp6
 70
     1
102
RTVSPropertyOp7
 70
     1
102
RTVSPropertyOp8
 70
     1
102
RTVSPropertyOp9
 70
     1
102
RTVSPropertyOp10
 70
     1
102
RTVSPropertyOp11
 70
     1
102
RTVSPropertyOp12
 70
     1
102
RTVSPropertyOp13
 70
     1
102
RTVSPropertyOp14
 70
     1
102
RTVSPropertyOp15
 70
     1
102
RTVSPropertyOp16
 70
     1
102
RTVSPropertyOp17
 70
     1
102
RTVSPropertyOp18
 70
     1
102
RTVSPropertyOp19
 70
     1
102
RTVSPropertyOp20
 70
     1
102
RTVSPropertyOp21
 70
     1
102
RTVSPropertyOp22
 70
     1
102
RTVSPropertyOp23
 70
     1
102
RTVSPropertyOp24
 70
     1
102
RTVSPropertyOp25
 70
     1
102
RTVSPropertyOp26
 70
     1
102
RTVSPropertyOp27
 70
     1
102
RTVSPropertyOp28
 70
     1
102
RTVSPropertyOp29
 70
     1
102
RTVSPropertyOp30
 70
     1
102
RTVSPropertyOp31
 70
     1
102
RTVSPropertyOp32
 70
     1
  0
XRECORD
  5
95
102
{ACAD_REACTORS
330
94
102
}
330
94
100
AcDbXrecord
280
     1
102
RTVSPropertyOp0
 70
     1
102
RTVSPropertyOp1
 70
     1
102
RTVSPropertyOp2
 70
     1
102
RTVSPropertyOp3
 70
     1
102
RTVSPropertyOp4
 70
     1
102
RTVSPropertyOp5
 70
     1
102
RTVSPropertyOp6
 70
     1
102
RTVSPropertyOp7
 70
     1
102
RTVSPropertyOp8
 70
     1
102
RTVSPropertyOp9
 70
     1
102
RTVSPropertyOp10
 70
     1
102
RTVSPropertyOp11
 70
     1
102
RTVSPropertyOp12
 70
     1
102
RTVSPropertyOp13
 70
     1
102
RTVSPropertyOp14
 70
     1
102
RTVSPropertyOp15
 70
     1
102
RTVSPropertyOp16
 70
     1
102
RTVSPropertyOp17
 70
     1
102
RTVSPropertyOp18
 70
     1
102
RTVSPropertyOp19
 70
     1
102
RTVSPropertyOp20
 70
     1
102
RTVSPropertyOp21
 70
     1
102
RTVSPropertyOp22
 70
     1
102
RTVSPropertyOp23
 70
     1
102
RTVSPropertyOp24
 70
     1
102
RTVSPropertyOp25
 70
     1
102
RTVSPropertyOp26
 70
     1
102
RTVSPropertyOp27
 70
     1
102
RTVSPropertyOp28
 70
     1
102
RTVSPropertyOp29
 70
     1
102
RTVSPropertyOp30
 70
     1
102
RTVSPropertyOp31
 70
     1
102
RTVSPropertyOp32
 70
     1
  0
XRECORD
  5
9D
102
{ACAD_REACTORS
330
9C
102
}
330
9C
100
AcDbXrecord
280
     1
102
RTVSPropertyOp0
 70
     1
102
RTVSPropertyOp1
 70
     1
102
RTVSPropertyOp2
 70
     1
102
RTVSPropertyOp3
 70
     1
102
RTVSPropertyOp4
 70
     1
102
RTVSPropertyOp5
 70
     1
102
RTVSPropertyOp6
 70
     1
102
RTVSPropertyOp7
 70
     1
102
RTVSPropertyOp8
 70
     1
102
RTVSPropertyOp9
 70
     1
102
RTVSPropertyOp10
 70
     1
102
RTVSPropertyOp11
 70
     1
102
RTVSPropertyOp12
 70
     1
102
RTVSPropertyOp13
 70
     1
102
RTVSPropertyOp14
 70
     1
102
RTVSPropertyOp15
 70
     1
102
RTVSPropertyOp16
 70
     1
102
RTVSPropertyOp17
 70
     1
102
RTVSPropertyOp18
 70
     1
102
RTVSPropertyOp19
 70
     1
102
RTVSPropertyOp20
 70
     1
102
RTVSPropertyOp21
 70
     1
102
RTVSPropertyOp22
 70
     1
102
RTVSPropertyOp23
 70
     1
102
RTVSPropertyOp24
 70
     1
102
RTVSPropertyOp25
 70
     1
102
RTVSPropertyOp26
 70
     1
102
RTVSPropertyOp27
 70
     1
102
RTVSPropertyOp28
 70
     1
102
RTVSPropertyOp29
 70
     1
102
RTVSPropertyOp30
 70
     1
102
RTVSPropertyOp31
 70
     1
102
RTVSPropertyOp32
 70
     1
  0
XRECORD
  5
A5
102
{ACAD_REACTORS
330
A4
102
}
330
A4
100
AcDbXrecord
280
     1
102
RTVSPropertyOp0
 70
     1
102
RTVSPropertyOp1
 70
     1
102
RTVSPropertyOp2
 70
     1
102
RTVSPropertyOp3
 70
     1
102
RTVSPropertyOp4
 70
     1
102
RTVSPropertyOp5
 70
     1
102
RTVSPropertyOp6
 70
     1
102
RTVSPropertyOp7
 70
     1
102
RTVSPropertyOp8
 70
     1
102
RTVSPropertyOp9
 70
     1
102
RTVSPropertyOp10
 70
     1
102
RTVSPropertyOp11
 70
     1
102
RTVSPropertyOp12
 70
     1
102
RTVSPropertyOp13
 70
     1
102
RTVSPropertyOp14
 70
     1
102
RTVSPropertyOp15
 70
     1
102
RTVSPropertyOp16
 70
     1
102
RTVSPropertyOp17
 70
     1
102
RTVSPropertyOp18
 70
     1
102
RTVSPropertyOp19
 70
     1
102
RTVSPropertyOp20
 70
     1
102
RTVSPropertyOp21
 70
     1
102
RTVSPropertyOp22
 70
     1
102
RTVSPropertyOp23
 70
     1
102
RTVSPropertyOp24
 70
     1
102
RTVSPropertyOp25
 70
     1
102
RTVSPropertyOp26
 70
     1
102
RTVSPropertyOp27
 70
     1
102
RTVSPropertyOp28
 70
     1
102
RTVSPropertyOp29
 70
     1
102
RTVSPropertyOp30
 70
     1
102
RTVSPropertyOp31
 70
     1
102
RTVSPropertyOp32
 70
     1
  0
XRECORD
  5
99
102
{ACAD_REACTORS
330
98
102
}
330
98
100
AcDbXrecord
280
     1
102
RTVSPropertyOp0
 70
     1
102
RTVSPropertyOp1
 70
     1
102
RTVSPropertyOp2
 70
     1
102
RTVSPropertyOp3
 70
     1
102
RTVSPropertyOp4
 70
     1
102
RTVSPropertyOp5
 70
     1
102
RTVSPropertyOp6
 70
     1
102
RTVSPropertyOp7
 70
     1
102
RTVSPropertyOp8
 70
     1
102
RTVSPropertyOp9
 70
     1
102
RTVSPropertyOp10
 70
     1
102
RTVSPropertyOp11
 70
     1
102
RTVSPropertyOp12
 70
     1
102
RTVSPropertyOp13
 70
     1
102
RTVSPropertyOp14
 70
     1
102
RTVSPropertyOp15
 70
     1
102
RTVSPropertyOp16
 70
     1
102
RTVSPropertyOp17
 70
     1
102
RTVSPropertyOp18
 70
     1
102
RTVSPropertyOp19
 70
     1
102
RTVSPropertyOp20
 70
     1
102
RTVSPropertyOp21
 70
     1
102
RTVSPropertyOp22
 70
     1
102
RTVSPropertyOp23
 70
     1
102
RTVSPropertyOp24
 70
     1
102
RTVSPropertyOp25
 70
     1
102
RTVSPropertyOp26
 70
     1
102
RTVSPropertyOp27
 70
     1
102
RTVSPropertyOp28
 70
     1
102
RTVSPropertyOp29
 70
     1
102
RTVSPropertyOp30
 70
     1
102
RTVSPropertyOp31
 70
     1
102
RTVSPropertyOp32
 70
     1
  0
XRECORD
  5
9B
102
{ACAD_REACTORS
330
9A
102
}
330
9A
100
AcDbXrecord
280
     1
102
RTVSPropertyOp0
 70
     1
102
RTVSPropertyOp1
 70
     1
102
RTVSPropertyOp2
 70
     1
102
RTVSPropertyOp3
 70
     1
102
RTVSPropertyOp4
 70
     1
102
RTVSPropertyOp5
 70
     1
102
RTVSPropertyOp6
 70
     1
102
RTVSPropertyOp7
 70
     1
102
RTVSPropertyOp8
 70
     1
102
RTVSPropertyOp9
 70
     1
102
RTVSPropertyOp10
 70
     1
102
RTVSPropertyOp11
 70
     1
102
RTVSPropertyOp12
 70
     1
102
RTVSPropertyOp13
 70
     1
102
RTVSPropertyOp14
 70
     1
102
RTVSPropertyOp15
 70
     1
102
RTVSPropertyOp16
 70
     1
102
RTVSPropertyOp17
 70
     1
102
RTVSPropertyOp18
 70
     1
102
RTVSPropertyOp19
 70
     1
102
RTVSPropertyOp20
 70
     1
102
RTVSPropertyOp21
 70
     1
102
RTVSPropertyOp22
 70
     1
102
RTVSPropertyOp23
 70
     1
102
RTVSPropertyOp24
 70
     1
102
RTVSPropertyOp25
 70
     1
102
RTVSPropertyOp26
 70
     1
102
RTVSPropertyOp27
 70
     1
102
RTVSPropertyOp28
 70
     1
102
RTVSPropertyOp29
 70
     1
102
RTVSPropertyOp30
 70
     1
102
RTVSPropertyOp31
 70
     1
102
RTVSPropertyOp32
 70
     1
  0
XRECORD
  5
A3
102
{ACAD_REACTORS
330
A2
102
}
330
A2
100
AcDbXrecord
280
     1
102
RTVSPropertyOp0
 70
     1
102
RTVSPropertyOp1
 70
     1
102
RTVSPropertyOp2
 70
     1
102
RTVSPropertyOp3
 70
     1
102
RTVSPropertyOp4
 70
     1
102
RTVSPropertyOp5
 70
     1
102
RTVSPropertyOp6
 70
     1
102
RTVSPropertyOp7
 70
     1
102
RTVSPropertyOp8
 70
     1
102
RTVSPropertyOp9
 70
     1
102
RTVSPropertyOp10
 70
     1
102
RTVSPropertyOp11
 70
     1
102
RTVSPropertyOp12
 70
     1
102
RTVSPropertyOp13
 70
     1
102
RTVSPropertyOp14
 70
     1
102
RTVSPropertyOp15
 70
     1
102
RTVSPropertyOp16
 70
     1
102
RTVSPropertyOp17
 70
     1
102
RTVSPropertyOp18
 70
     1
102
RTVSPropertyOp19
 70
     1
102
RTVSPropertyOp20
 70
     1
102
RTVSPropertyOp21
 70
     1
102
RTVSPropertyOp22
 70
     1
102
RTVSPropertyOp23
 70
     1
102
RTVSPropertyOp24
 70
     1
102
RTVSPropertyOp25
 70
     1
102
RTVSPropertyOp26
 70
     1
102
RTVSPropertyOp27
 70
     1
102
RTVSPropertyOp28
 70
     1
102
RTVSPropertyOp29
 70
     1
102
RTVSPropertyOp30
 70
     1
102
RTVSPropertyOp31
 70
     1
102
RTVSPropertyOp32
 70
     1
  0
XRECORD
  5
87
102
{ACAD_REACTORS
330
86
102
}
330
86
100
AcDbXrecord
280
     1
102
RTVSPropertyOp0
 70
     1
102
RTVSPropertyOp1
 70
     1
102
RTVSPropertyOp2
 70
     1
102
RTVSPropertyOp3
 70
     1
102
RTVSPropertyOp4
 70
     1
102
RTVSPropertyOp5
 70
     1
102
RTVSPropertyOp6
 70
     1
102
RTVSPropertyOp7
 70
     1
102
RTVSPropertyOp8
 70
     1
102
RTVSPropertyOp9
 70
     1
102
RTVSPropertyOp10
 70
     1
102
RTVSPropertyOp11
 70
     1
102
RTVSPropertyOp12
 70
     1
102
RTVSPropertyOp13
 70
     1
102
RTVSPropertyOp14
 70
     1
102
RTVSPropertyOp15
 70
     1
102
RTVSPropertyOp16
 70
     1
102
RTVSPropertyOp17
 70
     1
102
RTVSPropertyOp18
 70
     1
102
RTVSPropertyOp19
 70
     1
102
RTVSPropertyOp20
 70
     1
102
RTVSPropertyOp21
 70
     1
102
RTVSPropertyOp22
 70
     1
102
RTVSPropertyOp23
 70
     1
102
RTVSPropertyOp24
 70
     1
102
RTVSPropertyOp25
 70
     1
102
RTVSPropertyOp26
 70
     1
102
RTVSPropertyOp27
 70
     1
102
RTVSPropertyOp28
 70
     1
102
RTVSPropertyOp29
 70
     1
102
RTVSPropertyOp30
 70
     1
102
RTVSPropertyOp31
 70
     1
102
RTVSPropertyOp32
 70
     1
  0
XRECORD
  5
89
102
{ACAD_REACTORS
330
88
102
}
330
88
100
AcDbXrecord
280
     1
102
RTVSPropertyOp0
 70
     1
102
RTVSPropertyOp1
 70
     1
102
RTVSPropertyOp2
 70
     1
102
RTVSPropertyOp3
 70
     1
102
RTVSPropertyOp4
 70
     1
102
RTVSPropertyOp5
 70
     1
102
RTVSPropertyOp6
 70
     1
102
RTVSPropertyOp7
 70
     1
102
RTVSPropertyOp8
 70
     1
102
RTVSPropertyOp9
 70
     1
102
RTVSPropertyOp10
 70
     1
102
RTVSPropertyOp11
 70
     1
102
RTVSPropertyOp12
 70
     1
102
RTVSPropertyOp13
 70
     1
102
RTVSPropertyOp14
 70
     1
102
RTVSPropertyOp15
 70
     1
102
RTVSPropertyOp16
 70
     1
102
RTVSPropertyOp17
 70
     1
102
RTVSPropertyOp18
 70
     1
102
RTVSPropertyOp19
 70
     1
102
RTVSPropertyOp20
 70
     1
102
RTVSPropertyOp21
 70
     1
102
RTVSPropertyOp22
 70
     1
102
RTVSPropertyOp23
 70
     1
102
RTVSPropertyOp24
 70
     1
102
RTVSPropertyOp25
 70
     1
102
RTVSPropertyOp26
 70
     1
102
RTVSPropertyOp27
 70
     1
102
RTVSPropertyOp28
 70
     1
102
RTVSPropertyOp29
 70
     1
102
RTVSPropertyOp30
 70
     1
102
RTVSPropertyOp31
 70
     1
102
RTVSPropertyOp32
 70
     1
  0
XRECORD
  5
8B
102
{ACAD_REACTORS
330
8A
102
}
330
8A
100
AcDbXrecord
280
     1
102
RTVSPropertyOp0
 70
     1
102
RTVSPropertyOp1
 70
     1
102
RTVSPropertyOp2
 70
     1
102
RTVSPropertyOp3
 70
     1
102
RTVSPropertyOp4
 70
     1
102
RTVSPropertyOp5
 70
     1
102
RTVSPropertyOp6
 70
     1
102
RTVSPropertyOp7
 70
     1
102
RTVSPropertyOp8
 70
     1
102
RTVSPropertyOp9
 70
     1
102
RTVSPropertyOp10
 70
     1
102
RTVSPropertyOp11
 70
     1
102
RTVSPropertyOp12
 70
     1
102
RTVSPropertyOp13
 70
     1
102
RTVSPropertyOp14
 70
     1
102
RTVSPropertyOp15
 70
     1
102
RTVSPropertyOp16
 70
     1
102
RTVSPropertyOp17
 70
     1
102
RTVSPropertyOp18
 70
     1
102
RTVSPropertyOp19
 70
     1
102
RTVSPropertyOp20
 70
     1
102
RTVSPropertyOp21
 70
     1
102
RTVSPropertyOp22
 70
     1
102
RTVSPropertyOp23
 70
     1
102
RTVSPropertyOp24
 70
     1
102
RTVSPropertyOp25
 70
     1
102
RTVSPropertyOp26
 70
     1
102
RTVSPropertyOp27
 70
     1
102
RTVSPropertyOp28
 70
     1
102
RTVSPropertyOp29
 70
     1
102
RTVSPropertyOp30
 70
     1
102
RTVSPropertyOp31
 70
     1
102
RTVSPropertyOp32
 70
     1
  0
XRECORD
  5
8D
102
{ACAD_REACTORS
330
8C
102
}
330
8C
100
AcDbXrecord
280
     1
102
RTVSPropertyOp0
 70
     1
102
RTVSPropertyOp1
 70
     1
102
RTVSPropertyOp2
 70
     1
102
RTVSPropertyOp3
 70
     1
102
RTVSPropertyOp4
 70
     1
102
RTVSPropertyOp5
 70
     1
102
RTVSPropertyOp6
 70
     1
102
RTVSPropertyOp7
 70
     1
102
RTVSPropertyOp8
 70
     1
102
RTVSPropertyOp9
 70
     1
102
RTVSPropertyOp10
 70
     1
102
RTVSPropertyOp11
 70
     1
102
RTVSPropertyOp12
 70
     1
102
RTVSPropertyOp13
 70
     1
102
RTVSPropertyOp14
 70
     1
102
RTVSPropertyOp15
 70
     1
102
RTVSPropertyOp16
 70
     1
102
RTVSPropertyOp17
 70
     1
102
RTVSPropertyOp18
 70
     1
102
RTVSPropertyOp19
 70
     1
102
RTVSPropertyOp20
 70
     1
102
RTVSPropertyOp21
 70
     1
102
RTVSPropertyOp22
 70
     1
102
RTVSPropertyOp23
 70
     1
102
RTVSPropertyOp24
 70
     1
102
RTVSPropertyOp25
 70
     1
102
RTVSPropertyOp26
 70
     1
102
RTVSPropertyOp27
 70
     1
102
RTVSPropertyOp28
 70
     1
102
RTVSPropertyOp29
 70
     1
102
RTVSPropertyOp30
 70
     1
102
RTVSPropertyOp31
 70
     1
102
RTVSPropertyOp32
 70
     1
  0
XRECORD
  5
A1
102
{ACAD_REACTORS
330
A0
102
}
330
A0
100
AcDbXrecord
280
     1
102
RTVSPropertyOp0
 70
     1
102
RTVSPropertyOp1
 70
     1
102
RTVSPropertyOp2
 70
     1
102
RTVSPropertyOp3
 70
     1
102
RTVSPropertyOp4
 70
     1
102
RTVSPropertyOp5
 70
     1
102
RTVSPropertyOp6
 70
     1
102
RTVSPropertyOp7
 70
     1
102
RTVSPropertyOp8
 70
     1
102
RTVSPropertyOp9
 70
     1
102
RTVSPropertyOp10
 70
     1
102
RTVSPropertyOp11
 70
     1
102
RTVSPropertyOp12
 70
     1
102
RTVSPropertyOp13
 70
     1
102
RTVSPropertyOp14
 70
     1
102
RTVSPropertyOp15
 70
     1
102
RTVSPropertyOp16
 70
     1
102
RTVSPropertyOp17
 70
     1
102
RTVSPropertyOp18
 70
     1
102
RTVSPropertyOp19
 70
     1
102
RTVSPropertyOp20
 70
     1
102
RTVSPropertyOp21
 70
     1
102
RTVSPropertyOp22
 70
     1
102
RTVSPropertyOp23
 70
     1
102
RTVSPropertyOp24
 70
     1
102
RTVSPropertyOp25
 70
     1
102
RTVSPropertyOp26
 70
     1
102
RTVSPropertyOp27
 70
     1
102
RTVSPropertyOp28
 70
     1
102
RTVSPropertyOp29
 70
     1
102
RTVSPropertyOp30
 70
     1
102
RTVSPropertyOp31
 70
     1
102
RTVSPropertyOp32
 70
     1
  0
XRECORD
  5
97
102
{ACAD_REACTORS
330
96
102
}
330
96
100
AcDbXrecord
280
     1
102
RTVSPropertyOp0
 70
     1
102
RTVSPropertyOp1
 70
     1
102
RTVSPropertyOp2
 70
     1
102
RTVSPropertyOp3
 70
     1
102
RTVSPropertyOp4
 70
     1
102
RTVSPropertyOp5
 70
     1
102
RTVSPropertyOp6
 70
     1
102
RTVSPropertyOp7
 70
     1
102
RTVSPropertyOp8
 70
     1
102
RTVSPropertyOp9
 70
     1
102
RTVSPropertyOp10
 70
     1
102
RTVSPropertyOp11
 70
     1
102
RTVSPropertyOp12
 70
     1
102
RTVSPropertyOp13
 70
     1
102
RTVSPropertyOp14
 70
     1
102
RTVSPropertyOp15
 70
     1
102
RTVSPropertyOp16
 70
     1
102
RTVSPropertyOp17
 70
     1
102
RTVSPropertyOp18
 70
     1
102
RTVSPropertyOp19
 70
     1
102
RTVSPropertyOp20
 70
     1
102
RTVSPropertyOp21
 70
     1
102
RTVSPropertyOp22
 70
     1
102
RTVSPropertyOp23
 70
     1
102
RTVSPropertyOp24
 70
     1
102
RTVSPropertyOp25
 70
     1
102
RTVSPropertyOp26
 70
     1
102
RTVSPropertyOp27
 70
     1
102
RTVSPropertyOp28
 70
     1
102
RTVSPropertyOp29
 70
     1
102
RTVSPropertyOp30
 70
     1
102
RTVSPropertyOp31
 70
     1
102
RTVSPropertyOp32
 70
     1
  0
XRECORD
  5
9F
102
{ACAD_REACTORS
330
9E
102
}
330
9E
100
AcDbXrecord
280
     1
102
RTVSPropertyOp0
 70
     1
102
RTVSPropertyOp1
 70
     1
102
RTVSPropertyOp2
 70
     1
102
RTVSPropertyOp3
 70
     1
102
RTVSPropertyOp4
 70
     1
102
RTVSPropertyOp5
 70
     1
102
RTVSPropertyOp6
 70
     1
102
RTVSPropertyOp7
 70
     1
102
RTVSPropertyOp8
 70
     1
102
RTVSPropertyOp9
 70
     1
102
RTVSPropertyOp10
 70
     1
102
RTVSPropertyOp11
 70
     1
102
RTVSPropertyOp12
 70
     1
102
RTVSPropertyOp13
 70
     1
102
RTVSPropertyOp14
 70
     1
102
RTVSPropertyOp15
 70
     1
102
RTVSPropertyOp16
 70
     1
102
RTVSPropertyOp17
 70
     1
102
RTVSPropertyOp18
 70
     1
102
RTVSPropertyOp19
 70
     1
102
RTVSPropertyOp20
 70
     1
102
RTVSPropertyOp21
 70
     1
102
RTVSPropertyOp22
 70
     1
102
RTVSPropertyOp23
 70
     1
102
RTVSPropertyOp24
 70
     1
102
RTVSPropertyOp25
 70
     1
102
RTVSPropertyOp26
 70
     1
102
RTVSPropertyOp27
 70
     1
102
RTVSPropertyOp28
 70
     1
102
RTVSPropertyOp29
 70
     1
102
RTVSPropertyOp30
 70
     1
102
RTVSPropertyOp31
 70
     1
102
RTVSPropertyOp32
 70
     1
  0
ENDSEC
  0
EOF
