  0
SECTION
  2
HEADER
  9
$ACADVER
  1
AC1021
  9
$ACADMAINTVER
 70
    25
  9
$DWGCODEPAGE
  3
ANSI_1252
  9
$INSBASE
 10
0.0
 20
0.0
 30
0.0
  9
$EXTMIN
 10
-26.0154
 20
-114.9424
 30
0.0
  9
$EXTMAX
 10
86.4036
 20
131.9914
 30
0.0
  9
$LIMMIN
 10
0.0
 20
0.0
  9
$LIMMAX
 10
12.0
 20
9.0
  9
$ORTHOMODE
 70
     0
  9
$REGENMODE
 70
     1
  9
$FILLMODE
 70
     1
  9
$QTEXTMODE
 70
     0
  9
$MIRRTEXT
 70
     1
  9
$LTSCALE
 40
1.0
  9
$ATTMODE
 70
     1
  9
$TEXTSIZE
 40
0.2
  9
$TRACEWID
 40
0.05
  9
$TEXTSTYLE
  7
Standard
  9
$CLAYER
  8
0
  9
$CELTYPE
  6
ByLayer
  9
$CECOLOR
 62
   256
  9
$CELTSCALE
 40
1.0
  9
$DISPSILH
 70
     0
  9
$DIMSCALE
 40
1.0
  9
$DIMASZ
 40
0.18
  9
$DIMEXO
 40
0.0625
  9
$DIMDLI
 40
0.38
  9
$DIMRND
 40
0.0
  9
$DIMDLE
 40
0.0
  9
$DIMEXE
 40
0.18
  9
$DIMTP
 40
0.0
  9
$DIMTM
 40
0.0
  9
$DIMTXT
 40
0.18
  9
$DIMCEN
 40
0.09
  9
$DIMTSZ
 40
0.0
  9
$DIMTOL
 70
     0
  9
$DIMLIM
 70
     0
  9
$DIMTIH
 70
     1
  9
$DIMTOH
 70
     1
  9
$DIMSE1
 70
     0
  9
$DIMSE2
 70
     0
  9
$DIMTAD
 70
     0
  9
$DIMZIN
 70
     0
  9
$DIMBLK
  1

  9
$DIMASO
 70
     1
  9
$DIMSHO
 70
     1
  9
$DIMPOST
  1

  9
$DIMAPOST
  1

  9
$DIMALT
 70
     0
  9
$DIMALTD
 70
     2
  9
$DIMALTF
 40
25.4
  9
$DIMLFAC
 40
1.0
  9
$DIMTOFL
 70
     0
  9
$DIMTVP
 40
0.0
  9
$DIMTIX
 70
     0
  9
$DIMSOXD
 70
     0
  9
$DIMSAH
 70
     0
  9
$DIMBLK1
  1

  9
$DIMBLK2
  1

  9
$DIMSTYLE
  2
Standard
  9
$DIMCLRD
 70
     0
  9
$DIMCLRE
 70
     0
  9
$DIMCLRT
 70
     0
  9
$DIMTFAC
 40
1.0
  9
$DIMGAP
 40
0.09
  9
$DIMJUST
 70
     0
  9
$DIMSD1
 70
     0
  9
$DIMSD2
 70
     0
  9
$DIMTOLJ
 70
     1
  9
$DIMTZIN
 70
     0
  9
$DIMALTZ
 70
     0
  9
$DIMALTTZ
 70
     0
  9
$DIMUPT
 70
     0
  9
$DIMDEC
 70
     4
  9
$DIMTDEC
 70
     4
  9
$DIMALTU
 70
     2
  9
$DIMALTTD
 70
     2
  9
$DIMTXSTY
  7
Standard
  9
$DIMAUNIT
 70
     0
  9
$DIMADEC
 70
     0
  9
$DIMALTRND
 40
0.0
  9
$DIMAZIN
 70
     0
  9
$DIMDSEP
 70
    46
  9
$DIMATFIT
 70
     3
  9
$DIMFRAC
 70
     0
  9
$DIMLDRBLK
  1

  9
$DIMLUNIT
 70
     2
  9
$DIMLWD
 70
    -2
  9
$DIMLWE
 70
    -2
  9
$DIMTMOVE
 70
     0
  9
$DIMFXL
 40
1.0
  9
$DIMFXLON
 70
     0
  9
$DIMJOGANG
 40
0.7853981633974483
  9
$DIMTFILL
 70
     0
  9
$DIMTFILLCLR
 70
     0
  9
$DIMARCSYM
 70
     0
  9
$DIMLTYPE
  6

  9
$DIMLTEX1
  6

  9
$DIMLTEX2
  6

  9
$LUNITS
 70
     2
  9
$LUPREC
 70
     4
  9
$SKETCHINC
 40
0.1
  9
$FILLETRAD
 40
0.5
  9
$AUNITS
 70
     0
  9
$AUPREC
 70
     0
  9
$MENU
  1
.
  9
$ELEVATION
 40
0.0
  9
$PELEVATION
 40
0.0
  9
$THICKNESS
 40
0.0
  9
$LIMCHECK
 70
     0
  9
$CHAMFERA
 40
0.5
  9
$CHAMFERB
 40
0.5
  9
$CHAMFERC
 40
1.0
  9
$CHAMFERD
 40
0.0
  9
$SKPOLY
 70
     0
  9
$TDCREATE
 40
2458492.857826875
  9
$TDUCREATE
 40
2458492.857826875
  9
$TDUPDATE
 40
2458492.857827176
  9
$TDUUPDATE
 40
2458492.857827176
  9
$TDINDWG
 40
0.0000000116
  9
$TDUSRTIMER
 40
0.0000000116
  9
$USRTIMER
 70
     1
  9
$ANGBASE
 50
0.0
  9
$ANGDIR
 70
     0
  9
$PDMODE
 70
     0
  9
$PDSIZE
 40
0.0
  9
$PLINEWID
 40
0.0
  9
$SPLFRAME
 70
     0
  9
$SPLINETYPE
 70
     6
  9
$SPLINESEGS
 70
     8
  9
$HANDSEED
  5
D8
  9
$SURFTAB1
 70
     6
  9
$SURFTAB2
 70
     6
  9
$SURFTYPE
 70
     6
  9
$SURFU
 70
     6
  9
$SURFV
 70
     6
  9
$UCSBASE
  2

  9
$UCSNAME
  2

  9
$UCSORG
 10
0.0
 20
0.0
 30
0.0
  9
$UCSXDIR
 10
1.0
 20
0.0
 30
0.0
  9
$UCSYDIR
 10
0.0
 20
1.0
 30
0.0
  9
$UCSORTHOREF
  2

  9
$UCSORTHOVIEW
 70
     0
  9
$UCSORGTOP
 10
0.0
 20
0.0
 30
0.0
  9
$UCSORGBOTTOM
 10
0.0
 20
0.0
 30
0.0
  9
$UCSORGLEFT
 10
0.0
 20
0.0
 30
0.0
  9
$UCSORGRIGHT
 10
0.0
 20
0.0
 30
0.0
  9
$UCSORGFRONT
 10
0.0
 20
0.0
 30
0.0
  9
$UCSORGBACK
 10
0.0
 20
0.0
 30
0.0
  9
$PUCSBASE
  2

  9
$PUCSNAME
  2

  9
$PUCSORG
 10
0.0
 20
0.0
 30
0.0
  9
$PUCSXDIR
 10
1.0
 20
0.0
 30
0.0
  9
$PUCSYDIR
 10
0.0
 20
1.0
 30
0.0
  9
$PUCSORTHOREF
  2

  9
$PUCSORTHOVIEW
 70
     0
  9
$PUCSORGTOP
 10
0.0
 20
0.0
 30
0.0
  9
$PUCSORGBOTTOM
 10
0.0
 20
0.0
 30
0.0
  9
$PUCSORGLEFT
 10
0.0
 20
0.0
 30
0.0
  9
$PUCSORGRIGHT
 10
0.0
 20
0.0
 30
0.0
  9
$PUCSORGFRONT
 10
0.0
 20
0.0
 30
0.0
  9
$PUCSORGBACK
 10
0.0
 20
0.0
 30
0.0
  9
$USERI1
 70
     0
  9
$USERI2
 70
     0
  9
$USERI3
 70
     0
  9
$USERI4
 70
     0
  9
$USERI5
 70
     0
  9
$USERR1
 40
0.0
  9
$USERR2
 40
0.0
  9
$USERR3
 40
0.0
  9
$USERR4
 40
0.0
  9
$USERR5
 40
0.0
  9
$WORLDVIEW
 70
     1
  9
$SHADEDGE
 70
     3
  9
$SHADEDIF
 70
    70
  9
$TILEMODE
 70
     1
  9
$MAXACTVP
 70
    64
  9
$PINSBASE
 10
0.0
 20
0.0
 30
0.0
  9
$PLIMCHECK
 70
     0
  9
$PEXTMIN
 10
1.000000000000000E+20
 20
1.000000000000000E+20
 30
1.000000000000000E+20
  9
$PEXTMAX
 10
-1.000000000000000E+20
 20
-1.000000000000000E+20
 30
-1.000000000000000E+20
  9
$PLIMMIN
 10
0.0
 20
0.0
  9
$PLIMMAX
 10
12.0
 20
9.0
  9
$UNITMODE
 70
     0
  9
$VISRETAIN
 70
     1
  9
$PLINEGEN
 70
     0
  9
$PSLTSCALE
 70
     1
  9
$TREEDEPTH
 70
  3020
  9
$CMLSTYLE
  2
Standard
  9
$CMLJUST
 70
     0
  9
$CMLSCALE
 40
1.0
  9
$PROXYGRAPHICS
 70
     1
  9
$MEASUREMENT
 70
     0
  9
$CELWEIGHT
370
    -1
  9
$ENDCAPS
280
     0
  9
$JOINSTYLE
280
     0
  9
$LWDISPLAY
290
     0
  9
$INSUNITS
 70
     4
  9
$HYPERLINKBASE
  1

  9
$STYLESHEET
  1

  9
$XEDIT
290
     1
  9
$CEPSNTYPE
380
     0
  9
$PSTYLEMODE
290
     1
  9
$FINGERPRINTGUID
  2
{79956FD6-AC49-4AD3-9510-97CBECC1D023}
  9
$VERSIONGUID
  2
{FAEB1C32-E019-11D5-929B-00C0DF256EC4}
  9
$EXTNAMES
290
     1
  9
$PSVPSCALE
 40
0.0
  9
$OLESTARTUP
290
     0
  9
$SORTENTS
280
   127
  9
$INDEXCTL
280
     0
  9
$HIDETEXT
280
     1
  9
$XCLIPFRAME
290
     0
  9
$HALOGAP
280
     0
  9
$OBSCOLOR
 70
   257
  9
$OBSLTYPE
280
     0
  9
$INTERSECTIONDISPLAY
280
     0
  9
$INTERSECTIONCOLOR
 70
   257
  9
$DIMASSOC
280
     2
  9
$PROJECTNAME
  1

  9
$CAMERADISPLAY
290
     0
  9
$LENSLENGTH
 40
50.0
  9
$CAMERAHEIGHT
 40
0.0
  9
$STEPSPERSEC
 40
2.0
  9
$STEPSIZE
 40
6.0
  9
$3DDWFPREC
 40
2.0
  9
$PSOLWIDTH
 40
0.25
  9
$PSOLHEIGHT
 40
4.0
  9
$LOFTANG1
 40
1.570796326794897
  9
$LOFTANG2
 40
1.570796326794897
  9
$LOFTMAG1
 40
0.0
  9
$LOFTMAG2
 40
0.0
  9
$LOFTPARAM
 70
     7
  9
$LOFTNORMALS
280
     1
  9
$LATITUDE
 40
37.795
  9
$LONGITUDE
 40
-122.394
  9
$NORTHDIRECTION
 40
0.0
  9
$TIMEZONE
 70
 -8000
  9
$LIGHTGLYPHDISPLAY
280
     1
  9
$TILEMODELIGHTSYNCH
280
     1
  9
$SOLIDHIST
280
     1
  9
$SHOWHIST
280
     1
  9
$DWFFRAME
280
     2
  9
$DGNFRAME
280
     2
  9
$REALWORLDSCALE
290
     1
  9
$INTERFERECOLOR
 62
   256
  9
$CSHADOW
280
     0
  9
$SHADOWPLANELOCATION
 40
0.0
  0
ENDSEC
  0
SECTION
  2
CLASSES
  0
CLASS
  1
ACDBDICTIONARYWDFLT
  2
AcDbDictionaryWithDefault
  3
ObjectDBX Classes
 90
        0
 91
        4
280
     0
281
     0
  0
CLASS
  1
VISUALSTYLE
  2
AcDbVisualStyle
  3
ObjectDBX Classes
 90
     4095
 91
        4
280
     0
281
     0
  0
CLASS
  1
MATERIAL
  2
AcDbMaterial
  3
ObjectDBX Classes
 90
     1153
 91
        4
280
     0
281
     0
  0
ENDSEC
  0
SECTION
  2
TABLES
  0
TABLE
  2
VPORT
  5
8
330
0
100
AcDbSymbolTable
 70
     1
  0
VPORT
  5
29
330
8
100
AcDbSymbolTableRecord
100
AcDbViewportTableRecord
  2
*Active
 70
     0
 10
0.0
 20
0.0
 11
1.0
 21
1.0
 12
10.42990654205607
 22
4.5
 13
0.0
 23
0.0
 14
0.5
 24
0.5
 15
0.5
 25
0.5
 16
0.0
 26
0.0
 36
1.0
 17
0.0
 27
0.0
 37
0.0
 40
9.0
 41
1.972972972850329
 42
50.0
 43
0.0
 44
0.0
 50
0.0
 51
0.0
 71
     0
 72
   100
 73
     1
 74
     3
 75
     0
 76
     0
 77
     0
 78
     0
281
     0
 65
     1
110
0.0
120
0.0
130
0.0
111
1.0
121
0.0
131
0.0
112
0.0
122
1.0
132
0.0
 79
     0
146
0.0
 60
     3
 61
     5
292
     1
282
     1
141
0.0
142
0.0
 63
   250
  0
ENDTAB
  0
TABLE
  2
LTYPE
  5
5
330
0
100
AcDbSymbolTable
 70
     1
  0
LTYPE
  5
14
330
5
100
AcDbSymbolTableRecord
100
AcDbLinetypeTableRecord
  2
ByBlock
 70
     0
  3

 72
    65
 73
     0
 40
0.0
  0
LTYPE
  5
15
330
5
100
AcDbSymbolTableRecord
100
AcDbLinetypeTableRecord
  2
ByLayer
 70
     0
  3

 72
    65
 73
     0
 40
0.0
  0
LTYPE
  5
16
330
5
100
AcDbSymbolTableRecord
100
AcDbLinetypeTableRecord
  2
Continuous
 70
     0
  3
Solid line
 72
    65
 73
     0
 40
0.0
  0
ENDTAB
  0
TABLE
  2
LAYER
  5
2
330
0
100
AcDbSymbolTable
 70
     2
  0
LAYER
  5
10
330
2
100
AcDbSymbolTableRecord
100
AcDbLayerTableRecord
  2
0
 70
     0
 62
     7
  6
Continuous
370
    -3
390
F
347
3E
  0
LAYER
  5
40
330
2
100
AcDbSymbolTableRecord
100
AcDbLayerTableRecord
  2
layer 1
 70
     0
 62
     7
  6
Continuous
370
    -3
390
F
347
3E
  0
ENDTAB
  0
TABLE
  2
STYLE
  5
3
330
0
100
AcDbSymbolTable
 70
     1
  0
STYLE
  5
11
330
3
100
AcDbSymbolTableRecord
100
AcDbTextStyleTableRecord
  2
Standard
 70
     0
 40
0.0
 41
1.0
 50
0.0
 71
     0
 42
0.2
  3
txt
  4

  0
ENDTAB
  0
TABLE
  2
VIEW
  5
6
330
0
100
AcDbSymbolTable
 70
     0
  0
ENDTAB
  0
TABLE
  2
UCS
  5
7
330
0
100
AcDbSymbolTable
 70
     0
  0
ENDTAB
  0
TABLE
  2
APPID
  5
9
330
0
100
AcDbSymbolTable
 70
     2
  0
APPID
  5
12
330
9
100
AcDbSymbolTableRecord
100
AcDbRegAppTableRecord
  2
ACAD
 70
     0
  0
APPID
  5
3F
330
9
100
AcDbSymbolTableRecord
100
AcDbRegAppTableRecord
  2
ODA
 70
     0
  0
ENDTAB
  0
TABLE
  2
DIMSTYLE
  5
A
330
0
100
AcDbSymbolTable
 70
     1
100
AcDbDimStyleTable
  0
DIMSTYLE
105
27
330
A
100
AcDbSymbolTableRecord
100
AcDbDimStyleTableRecord
  2
Standard
 70
     0
178
     0
340
11
  0
ENDTAB
  0
TABLE
  2
BLOCK_RECORD
  5
1
330
0
100
AcDbSymbolTable
 70
     1
  0
BLOCK_RECORD
  5
1F
330
1
100
AcDbSymbolTableRecord
100
AcDbBlockTableRecord
  2
*Model_Space
340
22
 70
     0
280
     1
281
     0
  0
BLOCK_RECORD
  5
1B
330
1
100
AcDbSymbolTableRecord
100
AcDbBlockTableRecord
  2
*Paper_Space
340
1E
 70
     0
280
     1
281
     0
  0
BLOCK_RECORD
  5
23
330
1
100
AcDbSymbolTableRecord
100
AcDbBlockTableRecord
  2
*Paper_Space0
340
26
 70
     0
280
     1
281
     0
  0
ENDTAB
  0
ENDSEC
  0
SECTION
  2
BLOCKS
  0
BLOCK
  5
20
330
1F
100
AcDbEntity
  8
0
100
AcDbBlockBegin
  2
*Model_Space
 70
     0
 10
0.0
 20
0.0
 30
0.0
  3
*Model_Space
  1

  0
ENDBLK
  5
21
330
1F
100
AcDbEntity
  8
0
100
AcDbBlockEnd
  0
BLOCK
  5
1C
330
1B
100
AcDbEntity
 67
     1
  8
0
100
AcDbBlockBegin
  2
*Paper_Space
 70
     0
 10
0.0
 20
0.0
 30
0.0
  3
*Paper_Space
  1

  0
ENDBLK
  5
1D
330
1B
100
AcDbEntity
 67
     1
  8
0
100
AcDbBlockEnd
  0
BLOCK
  5
24
330
23
100
AcDbEntity
  8
0
100
AcDbBlockBegin
  2
*Paper_Space0
 70
     0
 10
0.0
 20
0.0
 30
0.0
  3
*Paper_Space0
  1

  0
ENDBLK
  5
25
330
23
100
AcDbEntity
  8
0
100
AcDbBlockEnd
  0
ENDSEC
  0
SECTION
  2
ENTITIES
  0
SPLINE
  5
41
330
1F
100
AcDbEntity
  8
layer 1
 62
   250
100
AcDbSpline
210
0.0
220
0.0
230
1.0
 70
    11
 71
     3
 72
    20
 73
    16
 74
     0
 42
0.0000000001
 43
0.0000000001
 12
1.0
 22
0.0
 32
0.0
 13
1.0
 23
0.0
 33
0.0
 40
0.0
 40
0.0
 40
0.0
 40
0.0
 40
0.2
 40
0.2
 40
0.2
 40
0.2
 40
0.4
 40
0.4
 40
0.4
 40
0.4
 40
0.6
 40
0.6
 40
0.6
 40
0.6
 40
1.0
 40
1.0
 40
1.0
 40
1.0
 10
-26.0154
 20
-114.9424
 30
0.0
 10
-26.0154
 20
-114.9424
 30
0.0
 10
-26.0154
 20
131.9914
 30
0.0
 10
-26.0154
 20
131.9914
 30
0.0
 10
-26.0154
 20
131.9914
 30
0.0
 10
-26.0154
 20
131.9914
 30
0.0
 10
86.4036
 20
131.9914
 30
0.0
 10
86.4036
 20
131.9914
 30
0.0
 10
86.4036
 20
131.9914
 30
0.0
 10
86.4036
 20
131.9914
 30
0.0
 10
86.4036
 20
-114.9424
 30
0.0
 10
86.4036
 20
-114.9424
 30
0.0
 10
86.4036
 20
-114.9424
 30
0.0
 10
86.4036
 20
-114.9424
 30
0.0
 10
-26.0154
 20
-114.9424
 30
0.0
 10
-26.0154
 20
-114.9424
 30
0.0
  0
SPLINE
  5
42
330
1F
100
AcDbEntity
  8
layer 1
 62
     7
100
AcDbSpline
210
0.0
220
0.0
230
1.0
 70
    11
 71
     3
 72
    24
 73
    20
 74
     0
 42
0.0000000001
 43
0.0000000001
 12
1.0
 22
0.0
 32
0.0
 13
1.0
 23
0.0
 33
0.0
 40
0.0
 40
0.0
 40
0.0
 40
0.0
 40
0.1666666666666667
 40
0.1666666666666667
 40
0.1666666666666667
 40
0.1666666666666667
 40
0.3333333333333333
 40
0.3333333333333333
 40
0.3333333333333333
 40
0.3333333333333333
 40
0.5
 40
0.5
 40
0.5
 40
0.5
 40
0.6666666666666666
 40
0.6666666666666666
 40
0.6666666666666666
 40
0.6666666666666666
 40
1.0
 40
1.0
 40
1.0
 40
1.0
 10
26.9865
 20
121.1038
 30
0.0
 10
26.9865
 20
121.1038
 30
0.0
 10
26.9865
 20
121.1038
 30
0.0
 10
26.9865
 20
121.1038
 30
0.0
 10
26.9865
 20
121.1038
 30
0.0
 10
26.9865
 20
121.1038
 30
0.0
 10
33.4017
 20
121.1038
 30
0.0
 10
33.4017
 20
121.1038
 30
0.0
 10
33.4017
 20
121.1038
 30
0.0
 10
33.4017
 20
121.1038
 30
0.0
 10
30.1941
 20
119.8869
 30
0.0
 10
30.1941
 20
119.8869
 30
0.0
 10
30.1941
 20
119.8869
 30
0.0
 10
30.1941
 20
119.8869
 30
0.0
 10
30.1941
 20
119.8869
 30
0.0
 10
30.1941
 20
119.8869
 30
0.0
 10
30.1941
 20
119.8869
 30
0.0
 10
30.1941
 20
119.8869
 30
0.0
 10
26.9865
 20
121.1038
 30
0.0
 10
26.9865
 20
121.1038
 30
0.0
  0
SPLINE
  5
43
330
1F
100
AcDbEntity
  8
layer 1
 62
     7
100
AcDbSpline
210
0.0
220
0.0
230
1.0
 70
    11
 71
     3
 72
    28
 73
    24
 74
     0
 42
0.0000000001
 43
0.0000000001
 12
1.0
 22
0.0
 32
0.0
 13
1.0
 23
0.0
 33
0.0
 40
0.0
 40
0.0
 40
0.0
 40
0.0
 40
0.1428571428571428
 40
0.1428571428571428
 40
0.1428571428571428
 40
0.1428571428571428
 40
0.2857142857142857
 40
0.2857142857142857
 40
0.2857142857142857
 40
0.2857142857142857
 40
0.4285714285714285
 40
0.4285714285714285
 40
0.4285714285714285
 40
0.4285714285714285
 40
0.5714285714285714
 40
0.5714285714285714
 40
0.5714285714285714
 40
0.5714285714285714
 40
0.7142857142857143
 40
0.7142857142857143
 40
0.7142857142857143
 40
0.7142857142857143
 40
1.0
 40
1.0
 40
1.0
 40
1.0
 10
74.0591
 20
-0.7381
 30
0.0
 10
73.4521
 20
3.157
 30
0.0
 10
74.2036
 20
4.9018
 30
0.0
 10
77.4979
 20
8.4319
 30
0.0
 10
77.4979
 20
8.4319
 30
0.0
 10
74.2036
 20
11.9619
 30
0.0
 10
73.4521
 20
13.8682
 30
0.0
 10
74.0591
 20
17.6415
 30
0.0
 10
74.0591
 20
17.6415
 30
0.0
 10
71.805
 20
15.4505
 30
0.0
 10
64.6099
 20
16.3028
 30
0.0
 10
69.1176
 20
20.4411
 30
0.0
 10
69.1176
 20
20.4411
 30
0.0
 10
62.2693
 20
19.711
 30
0.0
 10
65.9425
 20
10.5807
 30
0.0
 10
76.5187
 20
8.268
 30
0.0
 10
76.5187
 20
8.268
 30
0.0
 10
65.9425
 20
5.9552
 30
0.0
 10
62.2693
 20
-2.6858
 30
0.0
 10
69.1176
 20
-3.4159
 30
0.0
 10
69.1176
 20
-3.4159
 30
0.0
 10
64.6099
 20
0.7224
 30
0.0
 10
71.805
 20
1.5746
 30
0.0
 10
74.0591
 20
-0.7381
 30
0.0
  0
SPLINE
  5
44
330
1F
100
AcDbEntity
  8
layer 1
 62
     7
100
AcDbSpline
210
0.0
220
0.0
230
1.0
 70
    11
 71
     3
 72
    20
 73
    16
 74
     0
 42
0.0000000001
 43
0.0000000001
 12
1.0
 22
0.0
 32
0.0
 13
1.0
 23
0.0
 33
0.0
 40
0.0
 40
0.0
 40
0.0
 40
0.0
 40
0.2
 40
0.2
 40
0.2
 40
0.2
 40
0.4
 40
0.4
 40
0.4
 40
0.4
 40
0.6
 40
0.6
 40
0.6
 40
0.6
 40
1.0
 40
1.0
 40
1.0
 40
1.0
 10
77.5267
 20
120.9824
 30
0.0
 10
64.6099
 20
119.5215
 30
0.0
 10
49.786
 20
118.5478
 30
0.0
 10
40.5102
 20
115.505
 30
0.0
 10
40.5102
 20
115.505
 30
0.0
 10
40.5102
 20
115.505
 30
0.0
 10
34.2686
 20
118.061
 30
0.0
 10
34.2686
 20
118.061
 30
0.0
 10
34.2686
 20
118.061
 30
0.0
 10
34.2686
 20
118.061
 30
0.0
 10
41.4637
 20
121.2256
 30
0.0
 10
41.4637
 20
121.2256
 30
0.0
 10
41.4637
 20
121.2256
 30
0.0
 10
41.4637
 20
121.2256
 30
0.0
 10
77.5267
 20
120.9824
 30
0.0
 10
77.5267
 20
120.9824
 30
0.0
  0
SPLINE
  5
45
330
1F
100
AcDbEntity
  8
layer 1
 62
     7
100
AcDbSpline
210
0.0
220
0.0
230
1.0
 70
    11
 71
     3
 72
    28
 73
    24
 74
     0
 42
0.0000000001
 43
0.0000000001
 12
1.0
 22
0.0
 32
0.0
 13
1.0
 23
0.0
 33
0.0
 40
0.0
 40
0.0
 40
0.0
 40
0.0
 40
0.1428571428571428
 40
0.1428571428571428
 40
0.1428571428571428
 40
0.1428571428571428
 40
0.2857142857142857
 40
0.2857142857142857
 40
0.2857142857142857
 40
0.2857142857142857
 40
0.4285714285714285
 40
0.4285714285714285
 40
0.4285714285714285
 40
0.4285714285714285
 40
0.5714285714285714
 40
0.5714285714285714
 40
0.5714285714285714
 40
0.5714285714285714
 40
0.7142857142857143
 40
0.7142857142857143
 40
0.7142857142857143
 40
0.7142857142857143
 40
1.0
 40
1.0
 40
1.0
 40
1.0
 10
63.1362
 20
-0.8599
 30
0.0
 10
62.7027
 20
2.3047
 30
0.0
 10
64.4364
 20
4.3743
 30
0.0
 10
70.0713
 20
8.5126
 30
0.0
 10
70.0713
 20
8.5126
 30
0.0
 10
64.4364
 20
12.6509
 30
0.0
 10
62.7027
 20
14.7204
 30
0.0
 10
63.1362
 20
17.8851
 30
0.0
 10
63.1362
 20
17.8851
 30
0.0
 10
63.1362
 20
17.8851
 30
0.0
 10
60.2754
 20
14.9637
 30
0.0
 10
60.2754
 20
14.9637
 30
0.0
 10
60.2754
 20
14.9637
 30
0.0
 10
63.483
 20
12.5295
 30
0.0
 10
64.6966
 20
10.46
 30
0.0
 10
64.6099
 20
8.5126
 30
0.0
 10
64.6099
 20
8.5126
 30
0.0
 10
64.6966
 20
6.5652
 30
0.0
 10
63.483
 20
4.3743
 30
0.0
 10
60.2754
 20
2.0615
 30
0.0
 10
60.2754
 20
2.0615
 30
0.0
 10
60.2754
 20
2.0615
 30
0.0
 10
63.1362
 20
-0.8599
 30
0.0
 10
63.1362
 20
-0.8599
 30
0.0
  0
SPLINE
  5
46
330
1F
100
AcDbEntity
  8
layer 1
 62
     7
100
AcDbSpline
210
0.0
220
0.0
230
1.0
 70
    11
 71
     3
 72
    20
 73
    16
 74
     0
 42
0.0000000001
 43
0.0000000001
 12
1.0
 22
0.0
 32
0.0
 13
1.0
 23
0.0
 33
0.0
 40
0.0
 40
0.0
 40
0.0
 40
0.0
 40
0.2
 40
0.2
 40
0.2
 40
0.2
 40
0.4
 40
0.4
 40
0.4
 40
0.4
 40
0.6
 40
0.6
 40
0.6
 40
0.6
 40
1.0
 40
1.0
 40
1.0
 40
1.0
 10
58.8882
 20
4.0089
 30
0.0
 10
60.5354
 20
5.2261
 30
0.0
 10
61.4891
 20
6.6867
 30
0.0
 10
61.5758
 20
8.5126
 30
0.0
 10
61.5758
 20
8.5126
 30
0.0
 10
61.4891
 20
10.2167
 30
0.0
 10
60.5354
 20
11.799
 30
0.0
 10
58.8882
 20
13.0163
 30
0.0
 10
58.8882
 20
13.0163
 30
0.0
 10
58.8882
 20
13.0163
 30
0.0
 10
55.1607
 20
8.5126
 30
0.0
 10
55.1607
 20
8.5126
 30
0.0
 10
55.1607
 20
8.5126
 30
0.0
 10
55.1607
 20
8.5126
 30
0.0
 10
58.8882
 20
4.0089
 30
0.0
 10
58.8882
 20
4.0089
 30
0.0
  0
SPLINE
  5
47
330
1F
100
AcDbEntity
  8
layer 1
 62
     7
100
AcDbSpline
210
0.0
220
0.0
230
1.0
 70
    11
 71
     3
 72
    16
 73
    12
 74
     0
 42
0.0000000001
 43
0.0000000001
 12
1.0
 22
0.0
 32
0.0
 13
1.0
 23
0.0
 33
0.0
 40
0.0
 40
0.0
 40
0.0
 40
0.0
 40
0.25
 40
0.25
 40
0.25
 40
0.25
 40
0.5
 40
0.5
 40
0.5
 40
0.5
 40
1.0
 40
1.0
 40
1.0
 40
1.0
 10
49.2658
 20
14.2336
 30
0.0
 10
50.5662
 20
14.4769
 30
0.0
 10
52.3866
 20
14.8419
 30
0.0
 10
54.1205
 20
14.5987
 30
0.0
 10
54.1205
 20
14.5987
 30
0.0
 10
53.1668
 20
13.8682
 30
0.0
 10
52.2133
 20
12.8945
 30
0.0
 10
51.6931
 20
11.799
 30
0.0
 10
51.6931
 20
11.799
 30
0.0
 10
50.6529
 20
12.4077
 30
0.0
 10
49.8727
 20
13.2596
 30
0.0
 10
49.2658
 20
14.2336
 30
0.0
  0
SPLINE
  5
48
330
1F
100
AcDbEntity
  8
layer 1
 62
     7
100
AcDbSpline
210
0.0
220
0.0
230
1.0
 70
    11
 71
     3
 72
    20
 73
    16
 74
     0
 42
0.0000000001
 43
0.0000000001
 12
1.0
 22
0.0
 32
0.0
 13
1.0
 23
0.0
 33
0.0
 40
0.0
 40
0.0
 40
0.0
 40
0.0
 40
0.2
 40
0.2
 40
0.2
 40
0.2
 40
0.4
 40
0.4
 40
0.4
 40
0.4
 40
0.6
 40
0.6
 40
0.6
 40
0.6
 40
1.0
 40
1.0
 40
1.0
 40
1.0
 10
50.1327
 20
8.269
 30
0.0
 10
50.1327
 20
8.269
 30
0.0
 10
46.6652
 20
13.2596
 30
0.0
 10
46.6652
 20
13.2596
 30
0.0
 10
46.6652
 20
13.2596
 30
0.0
 10
46.6652
 20
13.2596
 30
0.0
 10
43.0241
 20
8.0257
 30
0.0
 10
43.0241
 20
8.0257
 30
0.0
 10
43.0241
 20
8.0257
 30
0.0
 10
43.0241
 20
8.0257
 30
0.0
 10
46.4049
 20
3.0352
 30
0.0
 10
46.4049
 20
3.0352
 30
0.0
 10
46.4049
 20
3.0352
 30
0.0
 10
46.4049
 20
3.0352
 30
0.0
 10
50.1327
 20
8.269
 30
0.0
 10
50.1327
 20
8.269
 30
0.0
  0
SPLINE
  5
49
330
1F
100
AcDbEntity
  8
layer 1
 62
     7
100
AcDbSpline
210
0.0
220
0.0
230
1.0
 70
    11
 71
     3
 72
    20
 73
    16
 74
     0
 42
0.0000000001
 43
0.0000000001
 12
1.0
 22
0.0
 32
0.0
 13
1.0
 23
0.0
 33
0.0
 40
0.0
 40
0.0
 40
0.0
 40
0.0
 40
0.2
 40
0.2
 40
0.2
 40
0.2
 40
0.4
 40
0.4
 40
0.4
 40
0.4
 40
0.6
 40
0.6
 40
0.6
 40
0.6
 40
1.0
 40
1.0
 40
1.0
 40
1.0
 10
39.2966
 20
8.3908
 30
0.0
 10
39.2966
 20
8.3908
 30
0.0
 10
35.5688
 20
13.8682
 30
0.0
 10
35.5688
 20
13.8682
 30
0.0
 10
35.5688
 20
13.8682
 30
0.0
 10
35.5688
 20
13.8682
 30
0.0
 10
31.6677
 20
8.269
 30
0.0
 10
31.6677
 20
8.269
 30
0.0
 10
31.6677
 20
8.269
 30
0.0
 10
31.6677
 20
8.269
 30
0.0
 10
35.3955
 20
2.7916
 30
0.0
 10
35.3955
 20
2.7916
 30
0.0
 10
35.3955
 20
2.7916
 30
0.0
 10
35.3955
 20
2.7916
 30
0.0
 10
39.2966
 20
8.3908
 30
0.0
 10
39.2966
 20
8.3908
 30
0.0
  0
SPLINE
  5
4A
330
1F
100
AcDbEntity
  8
layer 1
 62
     7
100
AcDbSpline
210
0.0
220
0.0
230
1.0
 70
    11
 71
     3
 72
    20
 73
    16
 74
     0
 42
0.0000000001
 43
0.0000000001
 12
1.0
 22
0.0
 32
0.0
 13
1.0
 23
0.0
 33
0.0
 40
0.0
 40
0.0
 40
0.0
 40
0.0
 40
0.2
 40
0.2
 40
0.2
 40
0.2
 40
0.4
 40
0.4
 40
0.4
 40
0.4
 40
0.6
 40
0.6
 40
0.6
 40
0.6
 40
1.0
 40
1.0
 40
1.0
 40
1.0
 10
26.1196
 20
16.181
 30
0.0
 10
26.1196
 20
16.181
 30
0.0
 10
30.0206
 20
21.7802
 30
0.0
 10
30.0206
 20
21.7802
 30
0.0
 10
30.0206
 20
21.7802
 30
0.0
 10
30.0206
 20
21.7802
 30
0.0
 10
33.4884
 20
16.7896
 30
0.0
 10
33.4884
 20
16.7896
 30
0.0
 10
33.4884
 20
16.7896
 30
0.0
 10
33.4884
 20
16.7896
 30
0.0
 10
29.5874
 20
11.1904
 30
0.0
 10
29.5874
 20
11.1904
 30
0.0
 10
29.5874
 20
11.1904
 30
0.0
 10
29.5874
 20
11.1904
 30
0.0
 10
26.1196
 20
16.181
 30
0.0
 10
26.1196
 20
16.181
 30
0.0
  0
SPLINE
  5
4B
330
1F
100
AcDbEntity
  8
layer 1
 62
     7
100
AcDbSpline
210
0.0
220
0.0
230
1.0
 70
    11
 71
     3
 72
    20
 73
    16
 74
     0
 42
0.0000000001
 43
0.0000000001
 12
1.0
 22
0.0
 32
0.0
 13
1.0
 23
0.0
 33
0.0
 40
0.0
 40
0.0
 40
0.0
 40
0.0
 40
0.2
 40
0.2
 40
0.2
 40
0.2
 40
0.4
 40
0.4
 40
0.4
 40
0.4
 40
0.6
 40
0.6
 40
0.6
 40
0.6
 40
1.0
 40
1.0
 40
1.0
 40
1.0
 10
40.9435
 20
21.5366
 30
0.0
 10
40.9435
 20
21.5366
 30
0.0
 10
45.1915
 20
15.8159
 30
0.0
 10
45.1915
 20
15.8159
 30
0.0
 10
45.1915
 20
15.8159
 30
0.0
 10
43.8043
 20
14.8419
 30
0.0
 10
41.8104
 20
12.2859
 30
0.0
 10
41.0302
 20
10.8254
 30
0.0
 10
41.0302
 20
10.8254
 30
0.0
 10
41.0302
 20
10.8254
 30
0.0
 10
37.3027
 20
16.3028
 30
0.0
 10
37.3027
 20
16.3028
 30
0.0
 10
37.3027
 20
16.3028
 30
0.0
 10
38.2561
 20
17.7633
 30
0.0
 10
39.73
 20
20.1979
 30
0.0
 10
40.9435
 20
21.5366
 30
0.0
  0
SPLINE
  5
4C
330
1F
100
AcDbEntity
  8
layer 1
 62
     7
100
AcDbSpline
210
0.0
220
0.0
230
1.0
 70
    11
 71
     3
 72
    20
 73
    16
 74
     0
 42
0.0000000001
 43
0.0000000001
 12
1.0
 22
0.0
 32
0.0
 13
1.0
 23
0.0
 33
0.0
 40
0.0
 40
0.0
 40
0.0
 40
0.0
 40
0.2
 40
0.2
 40
0.2
 40
0.2
 40
0.4
 40
0.4
 40
0.4
 40
0.4
 40
0.6
 40
0.6
 40
0.6
 40
0.6
 40
1.0
 40
1.0
 40
1.0
 40
1.0
 10
35.482
 20
29.4486
 30
0.0
 10
35.482
 20
29.4486
 30
0.0
 10
38.9498
 20
24.5798
 30
0.0
 10
38.9498
 20
24.5798
 30
0.0
 10
38.9498
 20
24.5798
 30
0.0
 10
38.9498
 20
24.5798
 30
0.0
 10
35.222
 20
19.2238
 30
0.0
 10
35.222
 20
19.2238
 30
0.0
 10
35.222
 20
19.2238
 30
0.0
 10
35.222
 20
19.2238
 30
0.0
 10
31.8412
 20
24.2144
 30
0.0
 10
31.8412
 20
24.2144
 30
0.0
 10
31.8412
 20
24.2144
 30
0.0
 10
31.8412
 20
24.2144
 30
0.0
 10
35.482
 20
29.4486
 30
0.0
 10
35.482
 20
29.4486
 30
0.0
  0
SPLINE
  5
4D
330
1F
100
AcDbEntity
  8
layer 1
 62
     7
100
AcDbSpline
210
0.0
220
0.0
230
1.0
 70
    11
 71
     3
 72
    36
 73
    32
 74
     0
 42
0.0000000001
 43
0.0000000001
 12
1.0
 22
0.0
 32
0.0
 13
1.0
 23
0.0
 33
0.0
 40
0.0
 40
0.0
 40
0.0
 40
0.0
 40
0.1111111111111111
 40
0.1111111111111111
 40
0.1111111111111111
 40
0.1111111111111111
 40
0.2222222222222222
 40
0.2222222222222222
 40
0.2222222222222222
 40
0.2222222222222222
 40
0.3333333333333333
 40
0.3333333333333333
 40
0.3333333333333333
 40
0.3333333333333333
 40
0.4444444444444444
 40
0.4444444444444444
 40
0.4444444444444444
 40
0.4444444444444444
 40
0.5555555555555556
 40
0.5555555555555556
 40
0.5555555555555556
 40
0.5555555555555556
 40
0.6666666666666666
 40
0.6666666666666666
 40
0.6666666666666666
 40
0.6666666666666666
 40
0.7777777777777778
 40
0.7777777777777778
 40
0.7777777777777778
 40
0.7777777777777778
 40
1.0
 40
1.0
 40
1.0
 40
1.0
 10
50.6529
 20
46.3677
 30
0.0
 10
51.5196
 20
45.0286
 30
0.0
 10
56.0276
 20
45.6372
 30
0.0
 10
60.1886
 20
46.0026
 30
0.0
 10
60.1886
 20
46.0026
 30
0.0
 10
63.9164
 20
46.2459
 30
0.0
 10
66.9505
 20
44.7854
 30
0.0
 10
68.9444
 20
42.9594
 30
0.0
 10
68.9444
 20
42.9594
 30
0.0
 10
67.4705
 20
42.5944
 30
0.0
 10
66.777
 20
41.6207
 30
0.0
 10
67.4705
 20
40.038
 30
0.0
 10
67.4705
 20
40.038
 30
0.0
 10
68.3374
 20
38.2125
 30
0.0
 10
71.6317
 20
36.8734
 30
0.0
 10
70.5913
 20
33.8305
 30
0.0
 10
70.5913
 20
33.8305
 30
0.0
 10
74.2324
 20
35.291
 30
0.0
 10
75.9663
 20
40.7685
 30
0.0
 10
73.1922
 20
46.1241
 30
0.0
 10
73.1922
 20
46.1241
 30
0.0
 10
71.1115
 20
50.6278
 30
0.0
 10
65.8236
 20
54.888
 30
0.0
 10
55.8541
 20
58.5398
 30
0.0
 10
55.8541
 20
58.5398
 30
0.0
 10
55.8541
 20
58.5398
 30
0.0
 10
49.2658
 20
49.1673
 30
0.0
 10
49.2658
 20
49.1673
 30
0.0
 10
49.2658
 20
49.1673
 30
0.0
 10
51.6064
 20
49.4105
 30
0.0
 10
52.8201
 20
46.9763
 30
0.0
 10
50.6529
 20
46.3677
 30
0.0
  0
SPLINE
  5
4E
330
1F
100
AcDbEntity
  8
layer 1
 62
     7
100
AcDbSpline
210
0.0
220
0.0
230
1.0
 70
    11
 71
     3
 72
    16
 73
    12
 74
     0
 42
0.0000000001
 43
0.0000000001
 12
1.0
 22
0.0
 32
0.0
 13
1.0
 23
0.0
 33
0.0
 40
0.0
 40
0.0
 40
0.0
 40
0.0
 40
0.25
 40
0.25
 40
0.25
 40
0.25
 40
0.5
 40
0.5
 40
0.5
 40
0.5
 40
1.0
 40
1.0
 40
1.0
 40
1.0
 10
72.412
 20
50.9929
 30
0.0
 10
70.6781
 20
54.7665
 30
0.0
 10
68.0774
 20
58.2962
 30
0.0
 10
64.8699
 20
61.5827
 30
0.0
 10
64.8699
 20
61.5827
 30
0.0
 10
65.0434
 20
59.8785
 30
0.0
 10
64.6099
 20
58.6613
 30
0.0
 10
63.2227
 20
58.5398
 30
0.0
 10
63.2227
 20
58.5398
 30
0.0
 10
66.9505
 20
56.4703
 30
0.0
 10
69.7246
 20
53.671
 30
0.0
 10
72.412
 20
50.9929
 30
0.0
  0
SPLINE
  5
4F
330
1F
100
AcDbEntity
  8
layer 1
 62
     7
100
AcDbSpline
210
0.0
220
0.0
230
1.0
 70
    11
 71
     3
 72
    16
 73
    12
 74
     0
 42
0.0000000001
 43
0.0000000001
 12
1.0
 22
0.0
 32
0.0
 13
1.0
 23
0.0
 33
0.0
 40
0.0
 40
0.0
 40
0.0
 40
0.0
 40
0.25
 40
0.25
 40
0.25
 40
0.25
 40
0.5
 40
0.5
 40
0.5
 40
0.5
 40
1.0
 40
1.0
 40
1.0
 40
1.0
 10
65.1299
 20
38.8211
 30
0.0
 10
64.1764
 20
40.5252
 30
0.0
 10
64.4364
 20
41.7422
 30
0.0
 10
65.3901
 20
42.4726
 30
0.0
 10
65.3901
 20
42.4726
 30
0.0
 10
57.3278
 20
42.5944
 30
0.0
 10
52.6466
 20
39.9166
 30
0.0
 10
50.6529
 20
35.6561
 30
0.0
 10
50.6529
 20
35.6561
 30
0.0
 10
54.9872
 20
38.6993
 30
0.0
 10
59.9287
 20
40.038
 30
0.0
 10
65.1299
 20
38.8211
 30
0.0
  0
SPLINE
  5
50
330
1F
100
AcDbEntity
  8
layer 1
 62
     7
100
AcDbSpline
210
0.0
220
0.0
230
1.0
 70
    11
 71
     3
 72
    20
 73
    16
 74
     0
 42
0.0000000001
 43
0.0000000001
 12
1.0
 22
0.0
 32
0.0
 13
1.0
 23
0.0
 33
0.0
 40
0.0
 40
0.0
 40
0.0
 40
0.0
 40
0.2
 40
0.2
 40
0.2
 40
0.2
 40
0.4
 40
0.4
 40
0.4
 40
0.4
 40
0.6
 40
0.6
 40
0.6
 40
0.6
 40
1.0
 40
1.0
 40
1.0
 40
1.0
 10
37.1292
 20
31.8828
 30
0.0
 10
37.1292
 20
31.8828
 30
0.0
 10
40.6835
 20
27.014
 30
0.0
 10
40.6835
 20
27.014
 30
0.0
 10
40.6835
 20
27.014
 30
0.0
 10
44.9313
 20
34.0738
 30
0.0
 10
49.179
 20
40.1598
 30
0.0
 10
55.2474
 20
42.9594
 30
0.0
 10
55.2474
 20
42.9594
 30
0.0
 10
50.4794
 20
43.4463
 30
0.0
 10
47.7053
 20
44.5418
 30
0.0
 10
47.6186
 20
46.7327
 30
0.0
 10
47.6186
 20
46.7327
 30
0.0
 10
47.6186
 20
46.7327
 30
0.0
 10
37.1292
 20
31.8828
 30
0.0
 10
37.1292
 20
31.8828
 30
0.0
  0
SPLINE
  5
51
330
1F
100
AcDbEntity
  8
layer 1
 62
     7
100
AcDbSpline
210
0.0
220
0.0
230
1.0
 70
    11
 71
     3
 72
    20
 73
    16
 74
     0
 42
0.0000000001
 43
0.0000000001
 12
1.0
 22
0.0
 32
0.0
 13
1.0
 23
0.0
 33
0.0
 40
0.0
 40
0.0
 40
0.0
 40
0.0
 40
0.2
 40
0.2
 40
0.2
 40
0.2
 40
0.4
 40
0.4
 40
0.4
 40
0.4
 40
0.6
 40
0.6
 40
0.6
 40
0.6
 40
1.0
 40
1.0
 40
1.0
 40
1.0
 10
52.3866
 20
58.9048
 30
0.0
 10
52.3866
 20
58.9048
 30
0.0
 10
49.179
 20
63.5304
 30
0.0
 10
49.179
 20
63.5304
 30
0.0
 10
49.179
 20
63.5304
 30
0.0
 10
49.179
 20
63.5304
 30
0.0
 10
46.1449
 20
59.2699
 30
0.0
 10
46.1449
 20
59.2699
 30
0.0
 10
46.1449
 20
59.2699
 30
0.0
 10
46.1449
 20
59.2699
 30
0.0
 10
49.3525
 20
54.5229
 30
0.0
 10
49.3525
 20
54.5229
 30
0.0
 10
49.3525
 20
54.5229
 30
0.0
 10
49.3525
 20
54.5229
 30
0.0
 10
52.3866
 20
58.9048
 30
0.0
 10
52.3866
 20
58.9048
 30
0.0
  0
SPLINE
  5
52
330
1F
100
AcDbEntity
  8
layer 1
 62
     7
100
AcDbSpline
210
0.0
220
0.0
230
1.0
 70
    11
 71
     3
 72
    20
 73
    16
 74
     0
 42
0.0000000001
 43
0.0000000001
 12
1.0
 22
0.0
 32
0.0
 13
1.0
 23
0.0
 33
0.0
 40
0.0
 40
0.0
 40
0.0
 40
0.0
 40
0.2
 40
0.2
 40
0.2
 40
0.2
 40
0.4
 40
0.4
 40
0.4
 40
0.4
 40
0.6
 40
0.6
 40
0.6
 40
0.6
 40
1.0
 40
1.0
 40
1.0
 40
1.0
 10
35.482
 20
70.1033
 30
0.0
 10
35.482
 20
70.1033
 30
0.0
 10
42.6774
 20
59.7567
 30
0.0
 10
42.6774
 20
59.7567
 30
0.0
 10
42.6774
 20
59.7567
 30
0.0
 10
42.6774
 20
59.7567
 30
0.0
 10
38.8631
 20
54.2793
 30
0.0
 10
38.8631
 20
54.2793
 30
0.0
 10
38.8631
 20
54.2793
 30
0.0
 10
38.8631
 20
54.2793
 30
0.0
 10
31.6677
 20
64.6259
 30
0.0
 10
31.6677
 20
64.6259
 30
0.0
 10
31.6677
 20
64.6259
 30
0.0
 10
31.6677
 20
64.6259
 30
0.0
 10
35.482
 20
70.1033
 30
0.0
 10
35.482
 20
70.1033
 30
0.0
  0
SPLINE
  5
53
330
1F
100
AcDbEntity
  8
layer 1
 62
     7
100
AcDbSpline
210
0.0
220
0.0
230
1.0
 70
    11
 71
     3
 72
    32
 73
    28
 74
     0
 42
0.0000000001
 43
0.0000000001
 12
1.0
 22
0.0
 32
0.0
 13
1.0
 23
0.0
 33
0.0
 40
0.0
 40
0.0
 40
0.0
 40
0.0
 40
0.125
 40
0.125
 40
0.125
 40
0.125
 40
0.25
 40
0.25
 40
0.25
 40
0.25
 40
0.375
 40
0.375
 40
0.375
 40
0.375
 40
0.5
 40
0.5
 40
0.5
 40
0.5
 40
0.625
 40
0.625
 40
0.625
 40
0.625
 40
0.75
 40
0.75
 40
0.75
 40
0.75
 40
1.0
 40
1.0
 40
1.0
 40
1.0
 10
56.9811
 20
59.2699
 30
0.0
 10
56.9811
 20
59.2699
 30
0.0
 10
49.0925
 20
69.4946
 30
0.0
 10
49.0925
 20
69.4946
 30
0.0
 10
49.0925
 20
69.4946
 30
0.0
 10
49.0925
 20
69.4946
 30
0.0
 10
43.9778
 20
62.1913
 30
0.0
 10
43.9778
 20
62.1913
 30
0.0
 10
43.9778
 20
62.1913
 30
0.0
 10
43.9778
 20
62.1913
 30
0.0
 10
36.9559
 20
72.1725
 30
0.0
 10
36.9559
 20
72.1725
 30
0.0
 10
36.9559
 20
72.1725
 30
0.0
 10
36.9559
 20
72.1725
 30
0.0
 10
42.8509
 20
80.5709
 30
0.0
 10
42.8509
 20
80.5709
 30
0.0
 10
42.8509
 20
80.5709
 30
0.0
 10
46.5784
 20
73.3897
 30
0.0
 10
59.5819
 20
67.6687
 30
0.0
 10
61.1423
 20
62.0695
 30
0.0
 10
61.1423
 20
62.0695
 30
0.0
 10
61.4891
 20
60.4872
 30
0.0
 10
60.7956
 20
59.5135
 30
0.0
 10
59.9287
 20
59.5135
 30
0.0
 10
59.9287
 20
59.5135
 30
0.0
 10
60.3621
 20
60.609
 30
0.0
 10
56.8946
 20
61.9477
 30
0.0
 10
56.9811
 20
59.2699
 30
0.0
  0
SPLINE
  5
54
330
1F
100
AcDbEntity
  8
layer 1
 62
     7
100
AcDbSpline
210
0.0
220
0.0
230
1.0
 70
    11
 71
     3
 72
    20
 73
    16
 74
     0
 42
0.0000000001
 43
0.0000000001
 12
1.0
 22
0.0
 32
0.0
 13
1.0
 23
0.0
 33
0.0
 40
0.0
 40
0.0
 40
0.0
 40
0.0
 40
0.2
 40
0.2
 40
0.2
 40
0.2
 40
0.4
 40
0.4
 40
0.4
 40
0.4
 40
0.6
 40
0.6
 40
0.6
 40
0.6
 40
1.0
 40
1.0
 40
1.0
 40
1.0
 10
50.4794
 20
76.0675
 30
0.0
 10
47.6186
 20
80.0841
 30
0.0
 10
47.3586
 20
83.7359
 30
0.0
 10
49.6992
 20
86.7788
 30
0.0
 10
49.6992
 20
86.7788
 30
0.0
 10
49.6992
 20
86.7788
 30
0.0
 10
48.2256
 20
89.0916
 30
0.0
 10
48.2256
 20
89.0916
 30
0.0
 10
48.2256
 20
89.0916
 30
0.0
 10
47.7921
 20
85.9269
 30
0.0
 10
46.5784
 20
83.6141
 30
0.0
 10
45.1915
 20
82.3969
 30
0.0
 10
45.1915
 20
82.3969
 30
0.0
 10
46.2317
 20
79.719
 30
0.0
 10
48.0521
 20
77.6499
 30
0.0
 10
50.4794
 20
76.0675
 30
0.0
  0
SPLINE
  5
55
330
1F
100
AcDbEntity
  8
layer 1
 62
     7
100
AcDbSpline
210
0.0
220
0.0
230
1.0
 70
    11
 71
     3
 72
    12
 73
     8
 74
     0
 42
0.0000000001
 43
0.0000000001
 12
1.0
 22
0.0
 32
0.0
 13
1.0
 23
0.0
 33
0.0
 40
0.0
 40
0.0
 40
0.0
 40
0.0
 40
0.3333333333333333
 40
0.3333333333333333
 40
0.3333333333333333
 40
0.3333333333333333
 40
1.0
 40
1.0
 40
1.0
 40
1.0
 10
43.9778
 20
86.1701
 30
0.0
 10
45.7982
 20
87.631
 30
0.0
 10
45.9717
 20
89.5784
 30
0.0
 10
44.5845
 20
90.6739
 30
0.0
 10
44.5845
 20
90.6739
 30
0.0
 10
43.1976
 20
89.3348
 30
0.0
 10
42.8509
 20
87.8743
 30
0.0
 10
43.9778
 20
86.1701
 30
0.0
  0
SPLINE
  5
56
330
1F
100
AcDbEntity
  8
layer 1
 62
     7
100
AcDbSpline
210
0.0
220
0.0
230
1.0
 70
    11
 71
     3
 72
    52
 73
    48
 74
     0
 42
0.0000000001
 43
0.0000000001
 12
1.0
 22
0.0
 32
0.0
 13
1.0
 23
0.0
 33
0.0
 40
0.0
 40
0.0
 40
0.0
 40
0.0
 40
0.0769230769230769
 40
0.0769230769230769
 40
0.0769230769230769
 40
0.0769230769230769
 40
0.1538461538461539
 40
0.1538461538461539
 40
0.1538461538461539
 40
0.1538461538461539
 40
0.2307692307692308
 40
0.2307692307692308
 40
0.2307692307692308
 40
0.2307692307692308
 40
0.3076923076923077
 40
0.3076923076923077
 40
0.3076923076923077
 40
0.3076923076923077
 40
0.3846153846153846
 40
0.3846153846153846
 40
0.3846153846153846
 40
0.3846153846153846
 40
0.4615384615384616
 40
0.4615384615384616
 40
0.4615384615384616
 40
0.4615384615384616
 40
0.5384615384615384
 40
0.5384615384615384
 40
0.5384615384615384
 40
0.5384615384615384
 40
0.6153846153846154
 40
0.6153846153846154
 40
0.6153846153846154
 40
0.6153846153846154
 40
0.6923076923076923
 40
0.6923076923076923
 40
0.6923076923076923
 40
0.6923076923076923
 40
0.7692307692307693
 40
0.7692307692307693
 40
0.7692307692307693
 40
0.7692307692307693
 40
0.8461538461538461
 40
0.8461538461538461
 40
0.8461538461538461
 40
0.8461538461538461
 40
1.0
 40
1.0
 40
1.0
 40
1.0
 10
42.8509
 20
93.5953
 30
0.0
 10
42.8509
 20
93.5953
 30
0.0
 10
37.4759
 20
99.9246
 30
0.0
 10
37.4759
 20
99.9246
 30
0.0
 10
37.4759
 20
99.9246
 30
0.0
 10
34.4418
 20
98.0987
 30
0.0
 10
33.0549
 20
96.6381
 30
0.0
 10
30.1941
 20
94.569
 30
0.0
 10
30.1941
 20
94.569
 30
0.0
 10
27.2467
 20
96.6381
 30
0.0
 10
25.9463
 20
98.0987
 30
0.0
 10
22.9122
 20
99.9246
 30
0.0
 10
22.9122
 20
99.9246
 30
0.0
 10
22.9122
 20
99.9246
 30
0.0
 10
17.5373
 20
93.5953
 30
0.0
 10
17.5373
 20
93.5953
 30
0.0
 10
17.5373
 20
93.5953
 30
0.0
 10
20.2249
 20
90.187
 30
0.0
 10
20.5716
 20
86.657
 30
0.0
 10
18.751
 20
83.0055
 30
0.0
 10
18.751
 20
83.0055
 30
0.0
 10
18.751
 20
83.0055
 30
0.0
 10
24.5592
 20
74.9721
 30
0.0
 10
24.5592
 20
74.9721
 30
0.0
 10
24.5592
 20
74.9721
 30
0.0
 10
24.5592
 20
74.9721
 30
0.0
 10
28.1135
 20
80.4495
 30
0.0
 10
28.1135
 20
80.4495
 30
0.0
 10
28.1135
 20
80.4495
 30
0.0
 10
23.6924
 20
86.5355
 30
0.0
 10
24.0392
 20
93.3517
 30
0.0
 10
30.1941
 20
93.3517
 30
0.0
 10
30.1941
 20
93.3517
 30
0.0
 10
36.2622
 20
93.3517
 30
0.0
 10
36.6092
 20
85.3183
 30
0.0
 10
32.1012
 20
79.2322
 30
0.0
 10
32.1012
 20
79.2322
 30
0.0
 10
32.1012
 20
79.2322
 30
0.0
 10
34.7018
 20
75.4589
 30
0.0
 10
34.7018
 20
75.4589
 30
0.0
 10
34.7018
 20
75.4589
 30
0.0
 10
34.7018
 20
75.4589
 30
0.0
 10
40.9435
 20
84.466
 30
0.0
 10
40.9435
 20
84.466
 30
0.0
 10
40.9435
 20
84.466
 30
0.0
 10
39.2098
 20
88.1179
 30
0.0
 10
40.1633
 20
90.187
 30
0.0
 10
42.8509
 20
93.5953
 30
0.0
  0
SPLINE
  5
57
330
1F
100
AcDbEntity
  8
layer 1
 62
     7
100
AcDbSpline
210
0.0
220
0.0
230
1.0
 70
    11
 71
     3
 72
    40
 73
    36
 74
     0
 42
0.0000000001
 43
0.0000000001
 12
1.0
 22
0.0
 32
0.0
 13
1.0
 23
0.0
 33
0.0
 40
0.0
 40
0.0
 40
0.0
 40
0.0
 40
0.1
 40
0.1
 40
0.1
 40
0.1
 40
0.2
 40
0.2
 40
0.2
 40
0.2
 40
0.3
 40
0.3
 40
0.3
 40
0.3
 40
0.4
 40
0.4
 40
0.4
 40
0.4
 40
0.5
 40
0.5
 40
0.5
 40
0.5
 40
0.6
 40
0.6
 40
0.6
 40
0.6
 40
0.7
 40
0.7
 40
0.7
 40
0.7
 40
0.8
 40
0.8
 40
0.8
 40
0.8
 40
1.0
 40
1.0
 40
1.0
 40
1.0
 10
48.8323
 20
105.6456
 30
0.0
 10
51.8664
 20
101.8723
 30
0.0
 10
55.3342
 20
97.7336
 30
0.0
 10
60.0154
 20
94.4472
 30
0.0
 10
60.0154
 20
94.4472
 30
0.0
 10
60.1886
 20
97.4904
 30
0.0
 10
64.6966
 20
98.4641
 30
0.0
 10
68.4242
 20
95.9077
 30
0.0
 10
68.4242
 20
95.9077
 30
0.0
 10
72.0652
 20
92.9866
 30
0.0
 10
72.9319
 20
88.4829
 30
0.0
 10
69.8978
 20
85.6833
 30
0.0
 10
69.8978
 20
85.6833
 30
0.0
 10
67.7307
 20
91.7694
 30
0.0
 10
60.3621
 20
93.5953
 30
0.0
 10
52.9068
 20
89.3348
 30
0.0
 10
52.9068
 20
89.3348
 30
0.0
 10
51.0862
 20
88.6047
 30
0.0
 10
50.8262
 20
89.3348
 30
0.0
 10
51.4331
 20
90.6739
 30
0.0
 10
51.4331
 20
90.6739
 30
0.0
 10
52.6466
 20
92.8648
 30
0.0
 10
49.786
 20
95.1776
 30
0.0
 10
51.0862
 20
97.0032
 30
0.0
 10
51.0862
 20
97.0032
 30
0.0
 10
49.2658
 20
97.7336
 30
0.0
 10
47.0119
 20
96.1513
 30
0.0
 10
45.5382
 20
95.4209
 30
0.0
 10
45.5382
 20
95.4209
 30
0.0
 10
44.151
 20
97.7336
 30
0.0
 10
42.5039
 20
99.9246
 30
0.0
 10
40.5967
 20
101.8723
 30
0.0
 10
40.5967
 20
101.8723
 30
0.0
 10
43.1109
 20
103.0892
 30
0.0
 10
45.8849
 20
104.6716
 30
0.0
 10
48.8323
 20
105.6456
 30
0.0
  0
SPLINE
  5
58
330
1F
100
AcDbEntity
  8
layer 1
 62
     7
100
AcDbSpline
210
0.0
220
0.0
230
1.0
 70
    11
 71
     3
 72
    20
 73
    16
 74
     0
 42
0.0000000001
 43
0.0000000001
 12
1.0
 22
0.0
 32
0.0
 13
1.0
 23
0.0
 33
0.0
 40
0.0
 40
0.0
 40
0.0
 40
0.0
 40
0.2
 40
0.2
 40
0.2
 40
0.2
 40
0.4
 40
0.4
 40
0.4
 40
0.4
 40
0.6
 40
0.6
 40
0.6
 40
0.6
 40
1.0
 40
1.0
 40
1.0
 40
1.0
 10
40.9435
 20
111.7317
 30
0.0
 10
43.2841
 20
110.5144
 30
0.0
 10
44.9313
 20
109.4189
 30
0.0
 10
46.3184
 20
108.0798
 30
0.0
 10
46.3184
 20
108.0798
 30
0.0
 10
43.4576
 20
106.7411
 30
0.0
 10
40.857
 20
105.402
 30
0.0
 10
38.5164
 20
103.9415
 30
0.0
 10
38.5164
 20
103.9415
 30
0.0
 10
37.0424
 20
105.5238
 30
0.0
 10
35.3955
 20
106.8625
 30
0.0
 10
33.6616
 20
107.958
 30
0.0
 10
33.6616
 20
107.958
 30
0.0
 10
36.0023
 20
109.5407
 30
0.0
 10
38.4296
 20
110.7576
 30
0.0
 10
40.9435
 20
111.7317
 30
0.0
  0
SPLINE
  5
59
330
1F
100
AcDbEntity
  8
layer 1
 62
     7
100
AcDbSpline
210
0.0
220
0.0
230
1.0
 70
    11
 71
     3
 72
    20
 73
    16
 74
     0
 42
0.0000000001
 43
0.0000000001
 12
1.0
 22
0.0
 32
0.0
 13
1.0
 23
0.0
 33
0.0
 40
0.0
 40
0.0
 40
0.0
 40
0.0
 40
0.2
 40
0.2
 40
0.2
 40
0.2
 40
0.4
 40
0.4
 40
0.4
 40
0.4
 40
0.6
 40
0.6
 40
0.6
 40
0.6
 40
1.0
 40
1.0
 40
1.0
 40
1.0
 10
30.1941
 20
116.8437
 30
0.0
 10
30.1941
 20
116.8437
 30
0.0
 10
36.8692
 20
114.0441
 30
0.0
 10
36.8692
 20
114.0441
 30
0.0
 10
36.8692
 20
114.0441
 30
0.0
 10
36.8692
 20
114.0441
 30
0.0
 10
30.1941
 20
110.3926
 30
0.0
 10
30.1941
 20
110.3926
 30
0.0
 10
30.1941
 20
110.3926
 30
0.0
 10
30.1941
 20
110.3926
 30
0.0
 10
23.519
 20
114.0441
 30
0.0
 10
23.519
 20
114.0441
 30
0.0
 10
23.519
 20
114.0441
 30
0.0
 10
23.519
 20
114.0441
 30
0.0
 10
30.1941
 20
116.8437
 30
0.0
 10
30.1941
 20
116.8437
 30
0.0
  0
SPLINE
  5
5A
330
1F
100
AcDbEntity
  8
layer 1
 62
     7
100
AcDbSpline
210
0.0
220
0.0
230
1.0
 70
    11
 71
     3
 72
    16
 73
    12
 74
     0
 42
0.0000000001
 43
0.0000000001
 12
1.0
 22
0.0
 32
0.0
 13
1.0
 23
0.0
 33
0.0
 40
0.0
 40
0.0
 40
0.0
 40
0.0
 40
0.25
 40
0.25
 40
0.25
 40
0.25
 40
0.5
 40
0.5
 40
0.5
 40
0.5
 40
1.0
 40
1.0
 40
1.0
 40
1.0
 10
63.483
 20
99.8028
 30
0.0
 10
58.455
 20
104.7934
 30
0.0
 10
51.0862
 20
109.4189
 30
0.0
 10
42.0707
 20
113.0704
 30
0.0
 10
42.0707
 20
113.0704
 30
0.0
 10
48.0521
 20
109.9057
 30
0.0
 10
53.5135
 20
105.402
 30
0.0
 10
58.8882
 20
98.7073
 30
0.0
 10
58.8882
 20
98.7073
 30
0.0
 10
59.9287
 20
99.4378
 30
0.0
 10
61.5758
 20
99.6813
 30
0.0
 10
63.483
 20
99.8028
 30
0.0
  0
SPLINE
  5
5B
330
1F
100
AcDbEntity
  8
layer 1
 62
     7
100
AcDbSpline
210
0.0
220
0.0
230
1.0
 70
    11
 71
     3
 72
    20
 73
    16
 74
     0
 42
0.0000000001
 43
0.0000000001
 12
1.0
 22
0.0
 32
0.0
 13
1.0
 23
0.0
 33
0.0
 40
0.0
 40
0.0
 40
0.0
 40
0.0
 40
0.2
 40
0.2
 40
0.2
 40
0.2
 40
0.4
 40
0.4
 40
0.4
 40
0.4
 40
0.6
 40
0.6
 40
0.6
 40
0.6
 40
1.0
 40
1.0
 40
1.0
 40
1.0
 10
77.5267
 20
111.9749
 30
0.0
 10
77.5267
 20
111.9749
 30
0.0
 10
77.5267
 20
117.4523
 30
0.0
 10
77.5267
 20
117.4523
 30
0.0
 10
77.5267
 20
117.4523
 30
0.0
 10
64.8699
 20
118.426
 30
0.0
 10
54.0337
 20
116.8437
 30
0.0
 10
44.9313
 20
113.4354
 30
0.0
 10
44.9313
 20
113.4354
 30
0.0
 10
44.9313
 20
113.4354
 30
0.0
 10
53.4268
 20
110.0275
 30
0.0
 10
53.4268
 20
110.0275
 30
0.0
 10
53.4268
 20
110.0275
 30
0.0
 10
60.0154
 20
111.8531
 30
0.0
 10
67.8175
 20
112.5836
 30
0.0
 10
77.5267
 20
111.9749
 30
0.0
  0
SPLINE
  5
5C
330
1F
100
AcDbEntity
  8
layer 1
 62
     7
100
AcDbSpline
210
0.0
220
0.0
230
1.0
 70
    11
 71
     3
 72
    44
 73
    40
 74
     0
 42
0.0000000001
 43
0.0000000001
 12
1.0
 22
0.0
 32
0.0
 13
1.0
 23
0.0
 33
0.0
 40
0.0
 40
0.0
 40
0.0
 40
0.0
 40
0.0909090909090909
 40
0.0909090909090909
 40
0.0909090909090909
 40
0.0909090909090909
 40
0.1818181818181818
 40
0.1818181818181818
 40
0.1818181818181818
 40
0.1818181818181818
 40
0.2727272727272727
 40
0.2727272727272727
 40
0.2727272727272727
 40
0.2727272727272727
 40
0.3636363636363636
 40
0.3636363636363636
 40
0.3636363636363636
 40
0.3636363636363636
 40
0.4545454545454545
 40
0.4545454545454545
 40
0.4545454545454545
 40
0.4545454545454545
 40
0.5454545454545454
 40
0.5454545454545454
 40
0.5454545454545454
 40
0.5454545454545454
 40
0.6363636363636364
 40
0.6363636363636364
 40
0.6363636363636364
 40
0.6363636363636364
 40
0.7272727272727273
 40
0.7272727272727273
 40
0.7272727272727273
 40
0.7272727272727273
 40
0.8181818181818182
 40
0.8181818181818182
 40
0.8181818181818182
 40
0.8181818181818182
 40
1.0
 40
1.0
 40
1.0
 40
1.0
 10
-17.1385
 20
42.4726
 30
0.0
 10
-17.1385
 20
42.4726
 30
0.0
 10
-17.1385
 20
100.4114
 30
0.0
 10
-17.1385
 20
100.4114
 30
0.0
 10
-17.1385
 20
100.4114
 30
0.0
 10
-12.4573
 20
99.316
 30
0.0
 10
-12.1105
 20
97.7336
 30
0.0
 10
-14.4512
 20
92.7431
 30
0.0
 10
-14.4512
 20
92.7431
 30
0.0
 10
-16.2716
 20
87.7525
 30
0.0
 10
-14.1909
 20
83.8574
 30
0.0
 10
-9.163
 20
81.3014
 30
0.0
 10
-9.163
 20
81.3014
 30
0.0
 10
-14.0177
 20
77.2845
 30
0.0
 10
-13.324
 20
71.6856
 30
0.0
 10
-5.8689
 20
71.077
 30
0.0
 10
-5.8689
 20
71.077
 30
0.0
 10
-8.9897
 20
73.2679
 30
0.0
 10
-8.4695
 20
76.0675
 30
0.0
 10
-5.6087
 20
78.0149
 30
0.0
 10
-5.6087
 20
78.0149
 30
0.0
 10
-3.5283
 20
79.354
 30
0.0
 10
-0.7542
 20
80.0841
 30
0.0
 10
1.153
 20
82.0318
 30
0.0
 10
1.153
 20
82.0318
 30
0.0
 10
2.8869
 20
84.5878
 30
0.0
 10
-0.234
 20
86.7788
 30
0.0
 10
-4.4817
 20
85.9269
 30
0.0
 10
-4.4817
 20
85.9269
 30
0.0
 10
-2.6613
 20
90.3088
 30
0.0
 10
9.3885
 20
87.8743
 30
0.0
 10
8.695
 20
81.1796
 30
0.0
 10
8.695
 20
81.1796
 30
0.0
 10
8.5218
 20
79.1104
 30
0.0
 10
7.3946
 20
77.0412
 30
0.0
 10
5.4875
 20
75.2153
 30
0.0
 10
5.4875
 20
75.2153
 30
0.0
 10
-5.9554
 20
64.1387
 30
0.0
 10
-17.1385
 20
54.2793
 30
0.0
 10
-17.1385
 20
42.4726
 30
0.0
  0
SPLINE
  5
5D
330
1F
100
AcDbEntity
  8
layer 1
 62
     7
100
AcDbSpline
210
0.0
220
0.0
230
1.0
 70
    11
 71
     3
 72
    36
 73
    32
 74
     0
 42
0.0000000001
 43
0.0000000001
 12
1.0
 22
0.0
 32
0.0
 13
1.0
 23
0.0
 33
0.0
 40
0.0
 40
0.0
 40
0.0
 40
0.0
 40
0.1111111111111111
 40
0.1111111111111111
 40
0.1111111111111111
 40
0.1111111111111111
 40
0.2222222222222222
 40
0.2222222222222222
 40
0.2222222222222222
 40
0.2222222222222222
 40
0.3333333333333333
 40
0.3333333333333333
 40
0.3333333333333333
 40
0.3333333333333333
 40
0.4444444444444444
 40
0.4444444444444444
 40
0.4444444444444444
 40
0.4444444444444444
 40
0.5555555555555556
 40
0.5555555555555556
 40
0.5555555555555556
 40
0.5555555555555556
 40
0.6666666666666666
 40
0.6666666666666666
 40
0.6666666666666666
 40
0.6666666666666666
 40
0.7777777777777778
 40
0.7777777777777778
 40
0.7777777777777778
 40
0.7777777777777778
 40
1.0
 40
1.0
 40
1.0
 40
1.0
 10
-14.1909
 20
32.1264
 30
0.0
 10
-11.5903
 20
27.6227
 30
0.0
 10
-11.0701
 20
26.5272
 30
0.0
 10
-13.324
 20
22.5103
 30
0.0
 10
-13.324
 20
22.5103
 30
0.0
 10
-10.1166
 20
25.7967
 30
0.0
 10
-0.6674
 20
24.7013
 30
0.0
 10
4.3605
 20
17.1547
 30
0.0
 10
4.3605
 20
17.1547
 30
0.0
 10
7.4814
 20
18.0069
 30
0.0
 10
10.4289
 20
17.1547
 30
0.0
 10
12.4228
 20
16.6678
 30
0.0
 10
12.4228
 20
16.6678
 30
0.0
 10
12.4228
 20
16.6678
 30
0.0
 10
17.0173
 20
23.2407
 30
0.0
 10
17.0173
 20
23.2407
 30
0.0
 10
17.0173
 20
23.2407
 30
0.0
 10
14.0697
 20
27.2576
 30
0.0
 10
10.9489
 20
32.3696
 30
0.0
 10
6.7879
 20
34.8042
 30
0.0
 10
6.7879
 20
34.8042
 30
0.0
 10
2.2802
 20
37.6038
 30
0.0
 10
-5.1752
 20
38.4557
 30
0.0
 10
-5.6087
 20
34.4392
 30
0.0
 10
-5.6087
 20
34.4392
 30
0.0
 10
-2.9213
 20
36.6301
 30
0.0
 10
1.7599
 20
35.291
 30
0.0
 10
1.153
 20
31.8828
 30
0.0
 10
1.153
 20
31.8828
 30
0.0
 10
-0.6674
 20
27.7445
 30
0.0
 10
-10.2031
 20
27.2576
 30
0.0
 10
-14.1909
 20
32.1264
 30
0.0
  0
SPLINE
  5
5E
330
1F
100
AcDbEntity
  8
layer 1
 62
     7
100
AcDbSpline
210
0.0
220
0.0
230
1.0
 70
    11
 71
     3
 72
    44
 73
    40
 74
     0
 42
0.0000000001
 43
0.0000000001
 12
1.0
 22
0.0
 32
0.0
 13
1.0
 23
0.0
 33
0.0
 40
0.0
 40
0.0
 40
0.0
 40
0.0
 40
0.0909090909090909
 40
0.0909090909090909
 40
0.0909090909090909
 40
0.0909090909090909
 40
0.1818181818181818
 40
0.1818181818181818
 40
0.1818181818181818
 40
0.1818181818181818
 40
0.2727272727272727
 40
0.2727272727272727
 40
0.2727272727272727
 40
0.2727272727272727
 40
0.3636363636363636
 40
0.3636363636363636
 40
0.3636363636363636
 40
0.3636363636363636
 40
0.4545454545454545
 40
0.4545454545454545
 40
0.4545454545454545
 40
0.4545454545454545
 40
0.5454545454545454
 40
0.5454545454545454
 40
0.5454545454545454
 40
0.5454545454545454
 40
0.6363636363636364
 40
0.6363636363636364
 40
0.6363636363636364
 40
0.6363636363636364
 40
0.7272727272727273
 40
0.7272727272727273
 40
0.7272727272727273
 40
0.7272727272727273
 40
0.8181818181818182
 40
0.8181818181818182
 40
0.8181818181818182
 40
0.8181818181818182
 40
1.0
 40
1.0
 40
1.0
 40
1.0
 10
77.5267
 20
42.4726
 30
0.0
 10
77.5267
 20
42.4726
 30
0.0
 10
77.5267
 20
100.4114
 30
0.0
 10
77.5267
 20
100.4114
 30
0.0
 10
77.5267
 20
100.4114
 30
0.0
 10
72.7587
 20
99.316
 30
0.0
 10
72.4987
 20
97.7336
 30
0.0
 10
74.7526
 20
92.7431
 30
0.0
 10
74.7526
 20
92.7431
 30
0.0
 10
76.573
 20
87.7525
 30
0.0
 10
74.5791
 20
83.8574
 30
0.0
 10
69.5511
 20
81.3014
 30
0.0
 10
69.5511
 20
81.3014
 30
0.0
 10
74.4058
 20
77.2845
 30
0.0
 10
73.7121
 20
71.6856
 30
0.0
 10
66.257
 20
71.077
 30
0.0
 10
66.257
 20
71.077
 30
0.0
 10
69.3779
 20
73.2679
 30
0.0
 10
68.8577
 20
76.0675
 30
0.0
 10
65.9968
 20
78.0149
 30
0.0
 10
65.9968
 20
78.0149
 30
0.0
 10
63.9164
 20
79.354
 30
0.0
 10
61.1423
 20
80.0841
 30
0.0
 10
59.2352
 20
82.0318
 30
0.0
 10
59.2352
 20
82.0318
 30
0.0
 10
57.5013
 20
84.5878
 30
0.0
 10
60.5354
 20
86.7788
 30
0.0
 10
64.8699
 20
85.9269
 30
0.0
 10
64.8699
 20
85.9269
 30
0.0
 10
63.0495
 20
90.3088
 30
0.0
 10
50.9997
 20
87.8743
 30
0.0
 10
51.6931
 20
81.1796
 30
0.0
 10
51.6931
 20
81.1796
 30
0.0
 10
51.8664
 20
79.1104
 30
0.0
 10
52.9935
 20
77.0412
 30
0.0
 10
54.9007
 20
75.2153
 30
0.0
 10
54.9007
 20
75.2153
 30
0.0
 10
66.257
 20
64.1387
 30
0.0
 10
77.5267
 20
54.2793
 30
0.0
 10
77.5267
 20
42.4726
 30
0.0
  0
SPLINE
  5
5F
330
1F
100
AcDbEntity
  8
layer 1
 62
     7
100
AcDbSpline
210
0.0
220
0.0
230
1.0
 70
    11
 71
     3
 72
    36
 73
    32
 74
     0
 42
0.0000000001
 43
0.0000000001
 12
1.0
 22
0.0
 32
0.0
 13
1.0
 23
0.0
 33
0.0
 40
0.0
 40
0.0
 40
0.0
 40
0.0
 40
0.1111111111111111
 40
0.1111111111111111
 40
0.1111111111111111
 40
0.1111111111111111
 40
0.2222222222222222
 40
0.2222222222222222
 40
0.2222222222222222
 40
0.2222222222222222
 40
0.3333333333333333
 40
0.3333333333333333
 40
0.3333333333333333
 40
0.3333333333333333
 40
0.4444444444444444
 40
0.4444444444444444
 40
0.4444444444444444
 40
0.4444444444444444
 40
0.5555555555555556
 40
0.5555555555555556
 40
0.5555555555555556
 40
0.5555555555555556
 40
0.6666666666666666
 40
0.6666666666666666
 40
0.6666666666666666
 40
0.6666666666666666
 40
0.7777777777777778
 40
0.7777777777777778
 40
0.7777777777777778
 40
0.7777777777777778
 40
1.0
 40
1.0
 40
1.0
 40
1.0
 10
74.5791
 20
32.1264
 30
0.0
 10
71.9785
 20
27.6227
 30
0.0
 10
71.4583
 20
26.5272
 30
0.0
 10
73.7121
 20
22.5103
 30
0.0
 10
73.7121
 20
22.5103
 30
0.0
 10
70.5048
 20
25.7967
 30
0.0
 10
61.0556
 20
24.7013
 30
0.0
 10
56.0276
 20
17.2765
 30
0.0
 10
56.0276
 20
17.2765
 30
0.0
 10
52.9935
 20
17.7633
 30
0.0
 10
49.6125
 20
17.0329
 30
0.0
 10
47.6186
 20
16.6678
 30
0.0
 10
47.6186
 20
16.6678
 30
0.0
 10
47.6186
 20
16.6678
 30
0.0
 10
42.5906
 20
23.8494
 30
0.0
 10
42.5906
 20
23.8494
 30
0.0
 10
42.5906
 20
23.8494
 30
0.0
 10
45.5382
 20
27.8663
 30
0.0
 10
49.4392
 20
32.3696
 30
0.0
 10
53.6003
 20
34.8042
 30
0.0
 10
53.6003
 20
34.8042
 30
0.0
 10
58.108
 20
37.6038
 30
0.0
 10
65.5633
 20
38.4557
 30
0.0
 10
65.9101
 20
34.4392
 30
0.0
 10
65.9101
 20
34.4392
 30
0.0
 10
63.3095
 20
36.6301
 30
0.0
 10
58.6282
 20
35.291
 30
0.0
 10
59.1485
 20
31.8828
 30
0.0
 10
59.1485
 20
31.8828
 30
0.0
 10
61.0556
 20
27.7445
 30
0.0
 10
70.5913
 20
27.2576
 30
0.0
 10
74.5791
 20
32.1264
 30
0.0
  0
SPLINE
  5
60
330
1F
100
AcDbEntity
  8
layer 1
 62
     7
100
AcDbSpline
210
0.0
220
0.0
230
1.0
 70
    11
 71
     3
 72
    20
 73
    16
 74
     0
 42
0.0000000001
 43
0.0000000001
 12
1.0
 22
0.0
 32
0.0
 13
1.0
 23
0.0
 33
0.0
 40
0.0
 40
0.0
 40
0.0
 40
0.0
 40
0.2
 40
0.2
 40
0.2
 40
0.2
 40
0.4
 40
0.4
 40
0.4
 40
0.4
 40
0.6
 40
0.6
 40
0.6
 40
0.6
 40
1.0
 40
1.0
 40
1.0
 40
1.0
 10
77.5267
 20
105.8889
 30
0.0
 10
74.8393
 20
110.3926
 30
0.0
 10
67.2105
 20
104.4283
 30
0.0
 10
66.3435
 20
99.6813
 30
0.0
 10
66.3435
 20
99.6813
 30
0.0
 10
64.2042
 20
102.7763
 30
0.0
 10
59.9599
 20
106.5769
 30
0.0
 10
56.8946
 20
108.0798
 30
0.0
 10
56.8946
 20
108.0798
 30
0.0
 10
62.616
 20
109.2971
 30
0.0
 10
69.4644
 20
109.5407
 30
0.0
 10
77.4399
 20
108.9321
 30
0.0
 10
77.4399
 20
108.9321
 30
0.0
 10
77.4399
 20
108.9321
 30
0.0
 10
77.5267
 20
105.8889
 30
0.0
 10
77.5267
 20
105.8889
 30
0.0
  0
SPLINE
  5
61
330
1F
100
AcDbEntity
  8
layer 1
 62
     7
100
AcDbSpline
210
0.0
220
0.0
230
1.0
 70
    11
 71
     3
 72
    20
 73
    16
 74
     0
 42
0.0000000001
 43
0.0000000001
 12
1.0
 22
0.0
 32
0.0
 13
1.0
 23
0.0
 33
0.0
 40
0.0
 40
0.0
 40
0.0
 40
0.0
 40
0.2
 40
0.2
 40
0.2
 40
0.2
 40
0.4
 40
0.4
 40
0.4
 40
0.4
 40
0.6
 40
0.6
 40
0.6
 40
0.6
 40
1.0
 40
1.0
 40
1.0
 40
1.0
 10
30.4541
 20
36.7516
 30
0.0
 10
30.4541
 20
36.7516
 30
0.0
 10
33.6616
 20
32.1264
 30
0.0
 10
33.6616
 20
32.1264
 30
0.0
 10
33.6616
 20
32.1264
 30
0.0
 10
33.6616
 20
32.1264
 30
0.0
 10
29.9341
 20
26.8922
 30
0.0
 10
29.9341
 20
26.8922
 30
0.0
 10
29.9341
 20
26.8922
 30
0.0
 10
29.9341
 20
26.8922
 30
0.0
 10
26.7265
 20
31.5178
 30
0.0
 10
26.7265
 20
31.5178
 30
0.0
 10
26.7265
 20
31.5178
 30
0.0
 10
26.7265
 20
31.5178
 30
0.0
 10
30.4541
 20
36.7516
 30
0.0
 10
30.4541
 20
36.7516
 30
0.0
  0
SPLINE
  5
62
330
1F
100
AcDbEntity
  8
layer 1
 62
     7
100
AcDbSpline
210
0.0
220
0.0
230
1.0
 70
    11
 71
     3
 72
    20
 73
    16
 74
     0
 42
0.0000000001
 43
0.0000000001
 12
1.0
 22
0.0
 32
0.0
 13
1.0
 23
0.0
 33
0.0
 40
0.0
 40
0.0
 40
0.0
 40
0.0
 40
0.2
 40
0.2
 40
0.2
 40
0.2
 40
0.4
 40
0.4
 40
0.4
 40
0.4
 40
0.6
 40
0.6
 40
0.6
 40
0.6
 40
1.0
 40
1.0
 40
1.0
 40
1.0
 10
32.1012
 20
39.1861
 30
0.0
 10
32.1012
 20
39.1861
 30
0.0
 10
35.3088
 20
34.4392
 30
0.0
 10
35.3088
 20
34.4392
 30
0.0
 10
35.3088
 20
34.4392
 30
0.0
 10
35.3088
 20
34.4392
 30
0.0
 10
41.8972
 20
43.9331
 30
0.0
 10
41.8972
 20
43.9331
 30
0.0
 10
41.8972
 20
43.9331
 30
0.0
 10
41.8972
 20
43.9331
 30
0.0
 10
38.6896
 20
48.5587
 30
0.0
 10
38.6896
 20
48.5587
 30
0.0
 10
38.6896
 20
48.5587
 30
0.0
 10
38.6896
 20
48.5587
 30
0.0
 10
32.1012
 20
39.1861
 30
0.0
 10
32.1012
 20
39.1861
 30
0.0
  0
SPLINE
  5
63
330
1F
100
AcDbEntity
  8
layer 1
 62
     7
100
AcDbSpline
210
0.0
220
0.0
230
1.0
 70
    11
 71
     3
 72
    20
 73
    16
 74
     0
 42
0.0000000001
 43
0.0000000001
 12
1.0
 22
0.0
 32
0.0
 13
1.0
 23
0.0
 33
0.0
 40
0.0
 40
0.0
 40
0.0
 40
0.0
 40
0.2
 40
0.2
 40
0.2
 40
0.2
 40
0.4
 40
0.4
 40
0.4
 40
0.4
 40
0.6
 40
0.6
 40
0.6
 40
0.6
 40
1.0
 40
1.0
 40
1.0
 40
1.0
 10
44.6713
 20
57.0789
 30
0.0
 10
44.6713
 20
57.0789
 30
0.0
 10
47.8788
 20
52.4537
 30
0.0
 10
47.8788
 20
52.4537
 30
0.0
 10
47.8788
 20
52.4537
 30
0.0
 10
47.8788
 20
52.4537
 30
0.0
 10
43.9778
 20
46.8545
 30
0.0
 10
43.9778
 20
46.8545
 30
0.0
 10
43.9778
 20
46.8545
 30
0.0
 10
43.9778
 20
46.8545
 30
0.0
 10
40.7702
 20
51.4801
 30
0.0
 10
40.7702
 20
51.4801
 30
0.0
 10
40.7702
 20
51.4801
 30
0.0
 10
40.7702
 20
51.4801
 30
0.0
 10
44.6713
 20
57.0789
 30
0.0
 10
44.6713
 20
57.0789
 30
0.0
  0
SPLINE
  5
64
330
1F
100
AcDbEntity
  8
layer 1
 62
     7
100
AcDbSpline
210
0.0
220
0.0
230
1.0
 70
    11
 71
     3
 72
    28
 73
    24
 74
     0
 42
0.0000000001
 43
0.0000000001
 12
1.0
 22
0.0
 32
0.0
 13
1.0
 23
0.0
 33
0.0
 40
0.0
 40
0.0
 40
0.0
 40
0.0
 40
0.1428571428571428
 40
0.1428571428571428
 40
0.1428571428571428
 40
0.1428571428571428
 40
0.2857142857142857
 40
0.2857142857142857
 40
0.2857142857142857
 40
0.2857142857142857
 40
0.4285714285714285
 40
0.4285714285714285
 40
0.4285714285714285
 40
0.4285714285714285
 40
0.5714285714285714
 40
0.5714285714285714
 40
0.5714285714285714
 40
0.5714285714285714
 40
0.7142857142857143
 40
0.7142857142857143
 40
0.7142857142857143
 40
0.7142857142857143
 40
1.0
 40
1.0
 40
1.0
 40
1.0
 10
-13.6709
 20
-0.7381
 30
0.0
 10
-13.064
 20
3.157
 30
0.0
 10
-13.8442
 20
4.9825
 30
0.0
 10
-17.1385
 20
8.5126
 30
0.0
 10
-17.1385
 20
8.5126
 30
0.0
 10
-13.8442
 20
12.0426
 30
0.0
 10
-13.064
 20
13.8682
 30
0.0
 10
-13.6709
 20
17.6415
 30
0.0
 10
-13.6709
 20
17.6415
 30
0.0
 10
-11.4168
 20
15.4505
 30
0.0
 10
-4.3085
 20
16.3028
 30
0.0
 10
-8.7295
 20
20.4411
 30
0.0
 10
-8.7295
 20
20.4411
 30
0.0
 10
-1.8811
 20
19.711
 30
0.0
 10
-5.216
 20
10.785
 30
0.0
 10
-15.7921
 20
8.4722
 30
0.0
 10
-15.7921
 20
8.4722
 30
0.0
 10
-5.216
 20
6.1595
 30
0.0
 10
-1.8811
 20
-2.6858
 30
0.0
 10
-8.7295
 20
-3.4159
 30
0.0
 10
-8.7295
 20
-3.4159
 30
0.0
 10
-4.3085
 20
0.7224
 30
0.0
 10
-11.4168
 20
1.5746
 30
0.0
 10
-13.6709
 20
-0.7381
 30
0.0
  0
SPLINE
  5
65
330
1F
100
AcDbEntity
  8
layer 1
 62
     7
100
AcDbSpline
210
0.0
220
0.0
230
1.0
 70
    11
 71
     3
 72
    20
 73
    16
 74
     0
 42
0.0000000001
 43
0.0000000001
 12
1.0
 22
0.0
 32
0.0
 13
1.0
 23
0.0
 33
0.0
 40
0.0
 40
0.0
 40
0.0
 40
0.0
 40
0.2
 40
0.2
 40
0.2
 40
0.2
 40
0.4
 40
0.4
 40
0.4
 40
0.4
 40
0.6
 40
0.6
 40
0.6
 40
0.6
 40
1.0
 40
1.0
 40
1.0
 40
1.0
 10
-17.1385
 20
120.9824
 30
0.0
 10
-4.2217
 20
119.5215
 30
0.0
 10
10.6022
 20
118.5478
 30
0.0
 10
19.8779
 20
115.505
 30
0.0
 10
19.8779
 20
115.505
 30
0.0
 10
19.8779
 20
115.505
 30
0.0
 10
26.1196
 20
118.061
 30
0.0
 10
26.1196
 20
118.061
 30
0.0
 10
26.1196
 20
118.061
 30
0.0
 10
26.1196
 20
118.061
 30
0.0
 10
18.9245
 20
121.2256
 30
0.0
 10
18.9245
 20
121.2256
 30
0.0
 10
18.9245
 20
121.2256
 30
0.0
 10
18.9245
 20
121.2256
 30
0.0
 10
-17.1385
 20
120.9824
 30
0.0
 10
-17.1385
 20
120.9824
 30
0.0
  0
SPLINE
  5
66
330
1F
100
AcDbEntity
  8
layer 1
 62
     7
100
AcDbSpline
210
0.0
220
0.0
230
1.0
 70
    11
 71
     3
 72
    28
 73
    24
 74
     0
 42
0.0000000001
 43
0.0000000001
 12
1.0
 22
0.0
 32
0.0
 13
1.0
 23
0.0
 33
0.0
 40
0.0
 40
0.0
 40
0.0
 40
0.0
 40
0.1428571428571428
 40
0.1428571428571428
 40
0.1428571428571428
 40
0.1428571428571428
 40
0.2857142857142857
 40
0.2857142857142857
 40
0.2857142857142857
 40
0.2857142857142857
 40
0.4285714285714285
 40
0.4285714285714285
 40
0.4285714285714285
 40
0.4285714285714285
 40
0.5714285714285714
 40
0.5714285714285714
 40
0.5714285714285714
 40
0.5714285714285714
 40
0.7142857142857143
 40
0.7142857142857143
 40
0.7142857142857143
 40
0.7142857142857143
 40
1.0
 40
1.0
 40
1.0
 40
1.0
 10
-2.7481
 20
-0.8599
 30
0.0
 10
-2.7481
 20
-0.8599
 30
0.0
 10
0.1128
 20
2.0615
 30
0.0
 10
0.1128
 20
2.0615
 30
0.0
 10
0.1128
 20
2.0615
 30
0.0
 10
-3.0948
 20
4.3743
 30
0.0
 10
-4.3085
 20
6.5652
 30
0.0
 10
-4.2217
 20
8.5126
 30
0.0
 10
-4.2217
 20
8.5126
 30
0.0
 10
-4.3085
 20
10.46
 30
0.0
 10
-3.0948
 20
12.5295
 30
0.0
 10
0.1128
 20
14.9637
 30
0.0
 10
0.1128
 20
14.9637
 30
0.0
 10
0.1128
 20
14.9637
 30
0.0
 10
-2.7481
 20
17.8851
 30
0.0
 10
-2.7481
 20
17.8851
 30
0.0
 10
-2.7481
 20
17.8851
 30
0.0
 10
-2.4011
 20
14.7204
 30
0.0
 10
-4.0482
 20
12.6509
 30
0.0
 10
-9.6832
 20
8.5126
 30
0.0
 10
-9.6832
 20
8.5126
 30
0.0
 10
-4.0482
 20
4.3743
 30
0.0
 10
-2.4011
 20
2.3047
 30
0.0
 10
-2.7481
 20
-0.8599
 30
0.0
  0
SPLINE
  5
67
330
1F
100
AcDbEntity
  8
layer 1
 62
     7
100
AcDbSpline
210
0.0
220
0.0
230
1.0
 70
    11
 71
     3
 72
    20
 73
    16
 74
     0
 42
0.0000000001
 43
0.0000000001
 12
1.0
 22
0.0
 32
0.0
 13
1.0
 23
0.0
 33
0.0
 40
0.0
 40
0.0
 40
0.0
 40
0.0
 40
0.2
 40
0.2
 40
0.2
 40
0.2
 40
0.4
 40
0.4
 40
0.4
 40
0.4
 40
0.6
 40
0.6
 40
0.6
 40
0.6
 40
1.0
 40
1.0
 40
1.0
 40
1.0
 10
5.2275
 20
8.5126
 30
0.0
 10
5.2275
 20
8.5126
 30
0.0
 10
1.4999
 20
13.0163
 30
0.0
 10
1.4999
 20
13.0163
 30
0.0
 10
1.4999
 20
13.0163
 30
0.0
 10
-0.234
 20
11.799
 30
0.0
 10
-1.1009
 20
10.2167
 30
0.0
 10
-1.1876
 20
8.5126
 30
0.0
 10
-1.1876
 20
8.5126
 30
0.0
 10
-1.1009
 20
6.6867
 30
0.0
 10
-0.234
 20
5.2261
 30
0.0
 10
1.4999
 20
4.0089
 30
0.0
 10
1.4999
 20
4.0089
 30
0.0
 10
1.4999
 20
4.0089
 30
0.0
 10
5.2275
 20
8.5126
 30
0.0
 10
5.2275
 20
8.5126
 30
0.0
  0
SPLINE
  5
68
330
1F
100
AcDbEntity
  8
layer 1
 62
     7
100
AcDbSpline
210
0.0
220
0.0
230
1.0
 70
    11
 71
     3
 72
    16
 73
    12
 74
     0
 42
0.0000000001
 43
0.0000000001
 12
1.0
 22
0.0
 32
0.0
 13
1.0
 23
0.0
 33
0.0
 40
0.0
 40
0.0
 40
0.0
 40
0.0
 40
0.25
 40
0.25
 40
0.25
 40
0.25
 40
0.5
 40
0.5
 40
0.5
 40
0.5
 40
1.0
 40
1.0
 40
1.0
 40
1.0
 10
10.2555
 20
14.7204
 30
0.0
 10
8.955
 20
14.9637
 30
0.0
 10
7.5681
 20
15.0855
 30
0.0
 10
5.8342
 20
14.9637
 30
0.0
 10
5.8342
 20
14.9637
 30
0.0
 10
6.7012
 20
14.1118
 30
0.0
 10
7.3946
 20
13.2596
 30
0.0
 10
7.9148
 20
12.2859
 30
0.0
 10
7.9148
 20
12.2859
 30
0.0
 10
8.8685
 20
12.8945
 30
0.0
 10
9.6487
 20
13.7464
 30
0.0
 10
10.2555
 20
14.7204
 30
0.0
  0
SPLINE
  5
69
330
1F
100
AcDbEntity
  8
layer 1
 62
     7
100
AcDbSpline
210
0.0
220
0.0
230
1.0
 70
    11
 71
     3
 72
    20
 73
    16
 74
     0
 42
0.0000000001
 43
0.0000000001
 12
1.0
 22
0.0
 32
0.0
 13
1.0
 23
0.0
 33
0.0
 40
0.0
 40
0.0
 40
0.0
 40
0.0
 40
0.2
 40
0.2
 40
0.2
 40
0.2
 40
0.4
 40
0.4
 40
0.4
 40
0.4
 40
0.6
 40
0.6
 40
0.6
 40
0.6
 40
1.0
 40
1.0
 40
1.0
 40
1.0
 10
17.1041
 20
8.5126
 30
0.0
 10
17.1041
 20
8.5126
 30
0.0
 10
13.8965
 20
12.7727
 30
0.0
 10
13.8965
 20
12.7727
 30
0.0
 10
13.8965
 20
12.7727
 30
0.0
 10
13.8965
 20
12.7727
 30
0.0
 10
10.6889
 20
8.5126
 30
0.0
 10
10.6889
 20
8.5126
 30
0.0
 10
10.6889
 20
8.5126
 30
0.0
 10
10.6889
 20
8.5126
 30
0.0
 10
13.8965
 20
4.2525
 30
0.0
 10
13.8965
 20
4.2525
 30
0.0
 10
13.8965
 20
4.2525
 30
0.0
 10
13.8965
 20
4.2525
 30
0.0
 10
17.1041
 20
8.5126
 30
0.0
 10
17.1041
 20
8.5126
 30
0.0
  0
SPLINE
  5
6A
330
1F
100
AcDbEntity
  8
layer 1
 62
     7
100
AcDbSpline
210
0.0
220
0.0
230
1.0
 70
    11
 71
     3
 72
    20
 73
    16
 74
     0
 42
0.0000000001
 43
0.0000000001
 12
1.0
 22
0.0
 32
0.0
 13
1.0
 23
0.0
 33
0.0
 40
0.0
 40
0.0
 40
0.0
 40
0.0
 40
0.2
 40
0.2
 40
0.2
 40
0.2
 40
0.4
 40
0.4
 40
0.4
 40
0.4
 40
0.6
 40
0.6
 40
0.6
 40
0.6
 40
1.0
 40
1.0
 40
1.0
 40
1.0
 10
27.5067
 20
8.3908
 30
0.0
 10
27.5067
 20
8.3908
 30
0.0
 10
24.0392
 20
3.157
 30
0.0
 10
24.0392
 20
3.157
 30
0.0
 10
24.0392
 20
3.157
 30
0.0
 10
24.0392
 20
3.157
 30
0.0
 10
20.5716
 20
8.1475
 30
0.0
 10
20.5716
 20
8.1475
 30
0.0
 10
20.5716
 20
8.1475
 30
0.0
 10
20.5716
 20
8.1475
 30
0.0
 10
24.1259
 20
13.2596
 30
0.0
 10
24.1259
 20
13.2596
 30
0.0
 10
24.1259
 20
13.2596
 30
0.0
 10
24.1259
 20
13.2596
 30
0.0
 10
27.5067
 20
8.3908
 30
0.0
 10
27.5067
 20
8.3908
 30
0.0
  0
SPLINE
  5
6B
330
1F
100
AcDbEntity
  8
layer 1
 62
     7
100
AcDbSpline
210
0.0
220
0.0
230
1.0
 70
    11
 71
     3
 72
    20
 73
    16
 74
     0
 42
0.0000000001
 43
0.0000000001
 12
1.0
 22
0.0
 32
0.0
 13
1.0
 23
0.0
 33
0.0
 40
0.0
 40
0.0
 40
0.0
 40
0.0
 40
0.2
 40
0.2
 40
0.2
 40
0.2
 40
0.4
 40
0.4
 40
0.4
 40
0.4
 40
0.6
 40
0.6
 40
0.6
 40
0.6
 40
1.0
 40
1.0
 40
1.0
 40
1.0
 10
19.0112
 20
20.3193
 30
0.0
 10
19.0112
 20
20.3193
 30
0.0
 10
15.8036
 20
15.3291
 30
0.0
 10
15.8036
 20
15.3291
 30
0.0
 10
15.8036
 20
15.3291
 30
0.0
 10
17.1041
 20
14.2336
 30
0.0
 10
18.3175
 20
12.7727
 30
0.0
 10
19.0977
 20
11.434
 30
0.0
 10
19.0977
 20
11.434
 30
0.0
 10
19.0977
 20
11.434
 30
0.0
 10
22.3053
 20
15.9374
 30
0.0
 10
22.3053
 20
15.9374
 30
0.0
 10
22.3053
 20
15.9374
 30
0.0
 10
21.3518
 20
17.3983
 30
0.0
 10
20.3114
 20
18.8588
 30
0.0
 10
19.0112
 20
20.3193
 30
0.0
  0
SPLINE
  5
6C
330
1F
100
AcDbEntity
  8
layer 1
 62
     7
100
AcDbSpline
210
0.0
220
0.0
230
1.0
 70
    11
 71
     3
 72
    36
 73
    32
 74
     0
 42
0.0000000001
 43
0.0000000001
 12
1.0
 22
0.0
 32
0.0
 13
1.0
 23
0.0
 33
0.0
 40
0.0
 40
0.0
 40
0.0
 40
0.0
 40
0.1111111111111111
 40
0.1111111111111111
 40
0.1111111111111111
 40
0.1111111111111111
 40
0.2222222222222222
 40
0.2222222222222222
 40
0.2222222222222222
 40
0.2222222222222222
 40
0.3333333333333333
 40
0.3333333333333333
 40
0.3333333333333333
 40
0.3333333333333333
 40
0.4444444444444444
 40
0.4444444444444444
 40
0.4444444444444444
 40
0.4444444444444444
 40
0.5555555555555556
 40
0.5555555555555556
 40
0.5555555555555556
 40
0.5555555555555556
 40
0.6666666666666666
 40
0.6666666666666666
 40
0.6666666666666666
 40
0.6666666666666666
 40
0.7777777777777778
 40
0.7777777777777778
 40
0.7777777777777778
 40
0.7777777777777778
 40
1.0
 40
1.0
 40
1.0
 40
1.0
 10
-8.6427
 20
42.9594
 30
0.0
 10
-7.0823
 20
42.5944
 30
0.0
 10
-6.3889
 20
41.6207
 30
0.0
 10
-7.0823
 20
40.038
 30
0.0
 10
-7.0823
 20
40.038
 30
0.0
 10
-7.9493
 20
38.2125
 30
0.0
 10
-11.2436
 20
36.8734
 30
0.0
 10
-10.2031
 20
33.8305
 30
0.0
 10
-10.2031
 20
33.8305
 30
0.0
 10
-13.8442
 20
35.291
 30
0.0
 10
-15.5781
 20
40.7685
 30
0.0
 10
-12.804
 20
46.1241
 30
0.0
 10
-12.804
 20
46.1241
 30
0.0
 10
-10.7234
 20
50.6278
 30
0.0
 10
-5.7821
 20
54.888
 30
0.0
 10
4.1873
 20
58.418
 30
0.0
 10
4.1873
 20
58.418
 30
0.0
 10
4.1873
 20
58.418
 30
0.0
 10
11.0357
 20
48.9237
 30
0.0
 10
11.0357
 20
48.9237
 30
0.0
 10
11.0357
 20
48.9237
 30
0.0
 10
8.6083
 20
49.1673
 30
0.0
 10
7.5681
 20
46.9763
 30
0.0
 10
9.7352
 20
46.3677
 30
0.0
 10
9.7352
 20
46.3677
 30
0.0
 10
8.8685
 20
45.0286
 30
0.0
 10
4.3605
 20
45.6372
 30
0.0
 10
0.1995
 20
46.0026
 30
0.0
 10
0.1995
 20
46.0026
 30
0.0
 10
-3.5283
 20
46.2459
 30
0.0
 10
-6.5623
 20
44.7854
 30
0.0
 10
-8.6427
 20
42.9594
 30
0.0
  0
SPLINE
  5
6D
330
1F
100
AcDbEntity
  8
layer 1
 62
     7
100
AcDbSpline
210
0.0
220
0.0
230
1.0
 70
    11
 71
     3
 72
    16
 73
    12
 74
     0
 42
0.0000000001
 43
0.0000000001
 12
1.0
 22
0.0
 32
0.0
 13
1.0
 23
0.0
 33
0.0
 40
0.0
 40
0.0
 40
0.0
 40
0.0
 40
0.25
 40
0.25
 40
0.25
 40
0.25
 40
0.5
 40
0.5
 40
0.5
 40
0.5
 40
1.0
 40
1.0
 40
1.0
 40
1.0
 10
-12.0238
 20
50.9929
 30
0.0
 10
-10.2899
 20
54.7665
 30
0.0
 10
-7.6893
 20
58.2962
 30
0.0
 10
-4.4817
 20
61.5827
 30
0.0
 10
-4.4817
 20
61.5827
 30
0.0
 10
-4.6552
 20
59.8785
 30
0.0
 10
-4.2217
 20
58.6613
 30
0.0
 10
-2.8346
 20
58.5398
 30
0.0
 10
-2.8346
 20
58.5398
 30
0.0
 10
-6.5623
 20
56.4703
 30
0.0
 10
-9.3364
 20
53.671
 30
0.0
 10
-12.0238
 20
50.9929
 30
0.0
  0
SPLINE
  5
6E
330
1F
100
AcDbEntity
  8
layer 1
 62
     7
100
AcDbSpline
210
0.0
220
0.0
230
1.0
 70
    11
 71
     3
 72
    16
 73
    12
 74
     0
 42
0.0000000001
 43
0.0000000001
 12
1.0
 22
0.0
 32
0.0
 13
1.0
 23
0.0
 33
0.0
 40
0.0
 40
0.0
 40
0.0
 40
0.0
 40
0.25
 40
0.25
 40
0.25
 40
0.25
 40
0.5
 40
0.5
 40
0.5
 40
0.5
 40
1.0
 40
1.0
 40
1.0
 40
1.0
 10
-4.7417
 20
38.8211
 30
0.0
 10
-3.7883
 20
40.5252
 30
0.0
 10
-4.0482
 20
41.7422
 30
0.0
 10
-5.0019
 20
42.4726
 30
0.0
 10
-5.0019
 20
42.4726
 30
0.0
 10
3.0604
 20
42.5944
 30
0.0
 10
7.7416
 20
39.9166
 30
0.0
 10
9.7352
 20
35.6561
 30
0.0
 10
9.7352
 20
35.6561
 30
0.0
 10
5.401
 20
38.6993
 30
0.0
 10
0.4595
 20
40.038
 30
0.0
 10
-4.7417
 20
38.8211
 30
0.0
  0
SPLINE
  5
6F
330
1F
100
AcDbEntity
  8
layer 1
 62
     7
100
AcDbSpline
210
0.0
220
0.0
230
1.0
 70
    11
 71
     3
 72
    20
 73
    16
 74
     0
 42
0.0000000001
 43
0.0000000001
 12
1.0
 22
0.0
 32
0.0
 13
1.0
 23
0.0
 33
0.0
 40
0.0
 40
0.0
 40
0.0
 40
0.0
 40
0.2
 40
0.2
 40
0.2
 40
0.2
 40
0.4
 40
0.4
 40
0.4
 40
0.4
 40
0.6
 40
0.6
 40
0.6
 40
0.6
 40
1.0
 40
1.0
 40
1.0
 40
1.0
 10
23.0855
 20
31.7613
 30
0.0
 10
23.0855
 20
31.7613
 30
0.0
 10
19.1845
 20
26.1621
 30
0.0
 10
19.1845
 20
26.1621
 30
0.0
 10
19.1845
 20
26.1621
 30
0.0
 10
14.9367
 20
33.2219
 30
0.0
 10
11.2091
 20
40.1598
 30
0.0
 10
5.1407
 20
42.9594
 30
0.0
 10
5.1407
 20
42.9594
 30
0.0
 10
9.9087
 20
43.4463
 30
0.0
 10
12.3361
 20
44.6636
 30
0.0
 10
12.4228
 20
46.9763
 30
0.0
 10
12.4228
 20
46.9763
 30
0.0
 10
12.4228
 20
46.9763
 30
0.0
 10
23.0855
 20
31.7613
 30
0.0
 10
23.0855
 20
31.7613
 30
0.0
  0
SPLINE
  5
70
330
1F
100
AcDbEntity
  8
layer 1
 62
     7
100
AcDbSpline
210
0.0
220
0.0
230
1.0
 70
    11
 71
     3
 72
    20
 73
    16
 74
     0
 42
0.0000000001
 43
0.0000000001
 12
1.0
 22
0.0
 32
0.0
 13
1.0
 23
0.0
 33
0.0
 40
0.0
 40
0.0
 40
0.0
 40
0.0
 40
0.2
 40
0.2
 40
0.2
 40
0.2
 40
0.4
 40
0.4
 40
0.4
 40
0.4
 40
0.6
 40
0.6
 40
0.6
 40
0.6
 40
1.0
 40
1.0
 40
1.0
 40
1.0
 10
28.4602
 20
39.673
 30
0.0
 10
28.4602
 20
39.673
 30
0.0
 10
24.9061
 20
34.3174
 30
0.0
 10
24.9061
 20
34.3174
 30
0.0
 10
24.9061
 20
34.3174
 30
0.0
 10
24.9061
 20
34.3174
 30
0.0
 10
17.7108
 20
45.0286
 30
0.0
 10
17.7108
 20
45.0286
 30
0.0
 10
17.7108
 20
45.0286
 30
0.0
 10
17.7108
 20
45.0286
 30
0.0
 10
21.3518
 20
50.0192
 30
0.0
 10
21.3518
 20
50.0192
 30
0.0
 10
21.3518
 20
50.0192
 30
0.0
 10
21.3518
 20
50.0192
 30
0.0
 10
28.4602
 20
39.673
 30
0.0
 10
28.4602
 20
39.673
 30
0.0
  0
SPLINE
  5
71
330
1F
100
AcDbEntity
  8
layer 1
 62
     7
100
AcDbSpline
210
0.0
220
0.0
230
1.0
 70
    11
 71
     3
 72
    20
 73
    16
 74
     0
 42
0.0000000001
 43
0.0000000001
 12
1.0
 22
0.0
 32
0.0
 13
1.0
 23
0.0
 33
0.0
 40
0.0
 40
0.0
 40
0.0
 40
0.0
 40
0.2
 40
0.2
 40
0.2
 40
0.2
 40
0.4
 40
0.4
 40
0.4
 40
0.4
 40
0.6
 40
0.6
 40
0.6
 40
0.6
 40
1.0
 40
1.0
 40
1.0
 40
1.0
 10
7.8281
 20
59.1484
 30
0.0
 10
7.8281
 20
59.1484
 30
0.0
 10
11.3824
 20
64.3823
 30
0.0
 10
11.3824
 20
64.3823
 30
0.0
 10
11.3824
 20
64.3823
 30
0.0
 10
11.3824
 20
64.3823
 30
0.0
 10
14.2432
 20
60.2439
 30
0.0
 10
14.2432
 20
60.2439
 30
0.0
 10
14.2432
 20
60.2439
 30
0.0
 10
14.2432
 20
60.2439
 30
0.0
 10
10.6022
 20
55.1316
 30
0.0
 10
10.6022
 20
55.1316
 30
0.0
 10
10.6022
 20
55.1316
 30
0.0
 10
10.6022
 20
55.1316
 30
0.0
 10
7.8281
 20
59.1484
 30
0.0
 10
7.8281
 20
59.1484
 30
0.0
  0
SPLINE
  5
72
330
1F
100
AcDbEntity
  8
layer 1
 62
     7
100
AcDbSpline
210
0.0
220
0.0
230
1.0
 70
    11
 71
     3
 72
    20
 73
    16
 74
     0
 42
0.0000000001
 43
0.0000000001
 12
1.0
 22
0.0
 32
0.0
 13
1.0
 23
0.0
 33
0.0
 40
0.0
 40
0.0
 40
0.0
 40
0.0
 40
0.2
 40
0.2
 40
0.2
 40
0.2
 40
0.4
 40
0.4
 40
0.4
 40
0.4
 40
0.6
 40
0.6
 40
0.6
 40
0.6
 40
1.0
 40
1.0
 40
1.0
 40
1.0
 10
16.3239
 20
57.2007
 30
0.0
 10
16.3239
 20
57.2007
 30
0.0
 10
12.7696
 20
52.0884
 30
0.0
 10
12.7696
 20
52.0884
 30
0.0
 10
12.7696
 20
52.0884
 30
0.0
 10
12.7696
 20
52.0884
 30
0.0
 10
15.6302
 20
47.95
 30
0.0
 10
15.6302
 20
47.95
 30
0.0
 10
15.6302
 20
47.95
 30
0.0
 10
15.6302
 20
47.95
 30
0.0
 10
19.2712
 20
53.0624
 30
0.0
 10
19.2712
 20
53.0624
 30
0.0
 10
19.2712
 20
53.0624
 30
0.0
 10
19.2712
 20
53.0624
 30
0.0
 10
16.3239
 20
57.2007
 30
0.0
 10
16.3239
 20
57.2007
 30
0.0
  0
SPLINE
  5
73
330
1F
100
AcDbEntity
  8
layer 1
 62
     7
100
AcDbSpline
210
0.0
220
0.0
230
1.0
 70
    11
 71
     3
 72
    20
 73
    16
 74
     0
 42
0.0000000001
 43
0.0000000001
 12
1.0
 22
0.0
 32
0.0
 13
1.0
 23
0.0
 33
0.0
 40
0.0
 40
0.0
 40
0.0
 40
0.0
 40
0.2
 40
0.2
 40
0.2
 40
0.2
 40
0.4
 40
0.4
 40
0.4
 40
0.4
 40
0.6
 40
0.6
 40
0.6
 40
0.6
 40
1.0
 40
1.0
 40
1.0
 40
1.0
 10
29.5874
 20
61.7045
 30
0.0
 10
29.5874
 20
61.7045
 30
0.0
 10
22.9987
 20
52.3319
 30
0.0
 10
22.9987
 20
52.3319
 30
0.0
 10
22.9987
 20
52.3319
 30
0.0
 10
22.9987
 20
52.3319
 30
0.0
 10
30.1941
 20
41.864
 30
0.0
 10
30.1941
 20
41.864
 30
0.0
 10
30.1941
 20
41.864
 30
0.0
 10
30.1941
 20
41.864
 30
0.0
 10
36.7825
 20
51.3583
 30
0.0
 10
36.7825
 20
51.3583
 30
0.0
 10
36.7825
 20
51.3583
 30
0.0
 10
36.7825
 20
51.3583
 30
0.0
 10
29.5874
 20
61.7045
 30
0.0
 10
29.5874
 20
61.7045
 30
0.0
  0
SPLINE
  5
74
330
1F
100
AcDbEntity
  8
layer 1
 62
     7
100
AcDbSpline
210
0.0
220
0.0
230
1.0
 70
    11
 71
     3
 72
    20
 73
    16
 74
     0
 42
0.0000000001
 43
0.0000000001
 12
1.0
 22
0.0
 32
0.0
 13
1.0
 23
0.0
 33
0.0
 40
0.0
 40
0.0
 40
0.0
 40
0.0
 40
0.2
 40
0.2
 40
0.2
 40
0.2
 40
0.4
 40
0.4
 40
0.4
 40
0.4
 40
0.6
 40
0.6
 40
0.6
 40
0.6
 40
1.0
 40
1.0
 40
1.0
 40
1.0
 10
24.6459
 20
69.0078
 30
0.0
 10
24.6459
 20
69.0078
 30
0.0
 10
17.9708
 20
59.6353
 30
0.0
 10
17.9708
 20
59.6353
 30
0.0
 10
17.9708
 20
59.6353
 30
0.0
 10
17.9708
 20
59.6353
 30
0.0
 10
20.9184
 20
55.3748
 30
0.0
 10
20.9184
 20
55.3748
 30
0.0
 10
20.9184
 20
55.3748
 30
0.0
 10
20.9184
 20
55.3748
 30
0.0
 10
27.42
 20
64.8691
 30
0.0
 10
27.42
 20
64.8691
 30
0.0
 10
27.42
 20
64.8691
 30
0.0
 10
27.42
 20
64.8691
 30
0.0
 10
24.6459
 20
69.0078
 30
0.0
 10
24.6459
 20
69.0078
 30
0.0
  0
SPLINE
  5
75
330
1F
100
AcDbEntity
  8
layer 1
 62
     7
100
AcDbSpline
210
0.0
220
0.0
230
1.0
 70
    11
 71
     3
 72
    32
 73
    28
 74
     0
 42
0.0000000001
 43
0.0000000001
 12
1.0
 22
0.0
 32
0.0
 13
1.0
 23
0.0
 33
0.0
 40
0.0
 40
0.0
 40
0.0
 40
0.0
 40
0.125
 40
0.125
 40
0.125
 40
0.125
 40
0.25
 40
0.25
 40
0.25
 40
0.25
 40
0.375
 40
0.375
 40
0.375
 40
0.375
 40
0.5
 40
0.5
 40
0.5
 40
0.5
 40
0.625
 40
0.625
 40
0.625
 40
0.625
 40
0.75
 40
0.75
 40
0.75
 40
0.75
 40
1.0
 40
1.0
 40
1.0
 40
1.0
 10
3.4071
 20
59.2699
 30
0.0
 10
3.4071
 20
59.2699
 30
0.0
 10
11.1224
 20
69.251
 30
0.0
 10
11.1224
 20
69.251
 30
0.0
 10
11.1224
 20
69.251
 30
0.0
 10
11.1224
 20
69.251
 30
0.0
 10
15.8036
 20
62.5563
 30
0.0
 10
15.8036
 20
62.5563
 30
0.0
 10
15.8036
 20
62.5563
 30
0.0
 10
15.8036
 20
62.5563
 30
0.0
 10
22.4788
 20
72.0507
 30
0.0
 10
22.4788
 20
72.0507
 30
0.0
 10
22.4788
 20
72.0507
 30
0.0
 10
22.4788
 20
72.0507
 30
0.0
 10
17.3641
 20
79.354
 30
0.0
 10
17.3641
 20
79.354
 30
0.0
 10
17.3641
 20
79.354
 30
0.0
 10
12.6828
 20
72.6593
 30
0.0
 10
0.8062
 20
67.6687
 30
0.0
 10
-0.7542
 20
62.0695
 30
0.0
 10
-0.7542
 20
62.0695
 30
0.0
 10
-1.1009
 20
60.4872
 30
0.0
 10
-0.4074
 20
59.5135
 30
0.0
 10
0.4595
 20
59.5135
 30
0.0
 10
0.4595
 20
59.5135
 30
0.0
 10
0.026
 20
60.609
 30
0.0
 10
3.4936
 20
61.9477
 30
0.0
 10
3.4071
 20
59.2699
 30
0.0
  0
SPLINE
  5
76
330
1F
100
AcDbEntity
  8
layer 1
 62
     7
100
AcDbSpline
210
0.0
220
0.0
230
1.0
 70
    11
 71
     3
 72
    20
 73
    16
 74
     0
 42
0.0000000001
 43
0.0000000001
 12
1.0
 22
0.0
 32
0.0
 13
1.0
 23
0.0
 33
0.0
 40
0.0
 40
0.0
 40
0.0
 40
0.0
 40
0.2
 40
0.2
 40
0.2
 40
0.2
 40
0.4
 40
0.4
 40
0.4
 40
0.4
 40
0.6
 40
0.6
 40
0.6
 40
0.6
 40
1.0
 40
1.0
 40
1.0
 40
1.0
 10
29.5874
 20
67.6687
 30
0.0
 10
29.5874
 20
67.6687
 30
0.0
 10
26.7265
 20
71.9289
 30
0.0
 10
26.7265
 20
71.9289
 30
0.0
 10
26.7265
 20
71.9289
 30
0.0
 10
26.7265
 20
71.9289
 30
0.0
 10
30.4541
 20
77.2845
 30
0.0
 10
30.4541
 20
77.2845
 30
0.0
 10
30.4541
 20
77.2845
 30
0.0
 10
30.4541
 20
77.2845
 30
0.0
 10
33.3149
 20
73.0243
 30
0.0
 10
33.3149
 20
73.0243
 30
0.0
 10
33.3149
 20
73.0243
 30
0.0
 10
33.3149
 20
73.0243
 30
0.0
 10
29.5874
 20
67.6687
 30
0.0
 10
29.5874
 20
67.6687
 30
0.0
  0
SPLINE
  5
77
330
1F
100
AcDbEntity
  8
layer 1
 62
     7
100
AcDbSpline
210
0.0
220
0.0
230
1.0
 70
    11
 71
     3
 72
    12
 73
     8
 74
     0
 42
0.0000000001
 43
0.0000000001
 12
1.0
 22
0.0
 32
0.0
 13
1.0
 23
0.0
 33
0.0
 40
0.0
 40
0.0
 40
0.0
 40
0.0
 40
0.3333333333333333
 40
0.3333333333333333
 40
0.3333333333333333
 40
0.3333333333333333
 40
1.0
 40
1.0
 40
1.0
 40
1.0
 10
30.1941
 20
90.5521
 30
0.0
 10
26.8998
 20
90.5521
 30
0.0
 10
26.6398
 20
86.0484
 30
0.0
 10
30.1941
 20
82.0318
 30
0.0
 10
30.1941
 20
82.0318
 30
0.0
 10
33.6616
 20
86.0484
 30
0.0
 10
33.4884
 20
90.5521
 30
0.0
 10
30.1941
 20
90.5521
 30
0.0
  0
SPLINE
  5
78
330
1F
100
AcDbEntity
  8
layer 1
 62
     7
100
AcDbSpline
210
0.0
220
0.0
230
1.0
 70
    11
 71
     3
 72
    20
 73
    16
 74
     0
 42
0.0000000001
 43
0.0000000001
 12
1.0
 22
0.0
 32
0.0
 13
1.0
 23
0.0
 33
0.0
 40
0.0
 40
0.0
 40
0.0
 40
0.0
 40
0.2
 40
0.2
 40
0.2
 40
0.2
 40
0.4
 40
0.4
 40
0.4
 40
0.4
 40
0.6
 40
0.6
 40
0.6
 40
0.6
 40
1.0
 40
1.0
 40
1.0
 40
1.0
 10
9.9087
 20
76.0675
 30
0.0
 10
12.7696
 20
80.0841
 30
0.0
 10
13.0295
 20
83.7359
 30
0.0
 10
10.6889
 20
86.7788
 30
0.0
 10
10.6889
 20
86.7788
 30
0.0
 10
10.6889
 20
86.7788
 30
0.0
 10
12.1626
 20
89.0916
 30
0.0
 10
12.1626
 20
89.0916
 30
0.0
 10
12.1626
 20
89.0916
 30
0.0
 10
12.5961
 20
85.9269
 30
0.0
 10
13.8098
 20
83.6141
 30
0.0
 10
15.1967
 20
82.3969
 30
0.0
 10
15.1967
 20
82.3969
 30
0.0
 10
14.1565
 20
79.719
 30
0.0
 10
12.3361
 20
77.6499
 30
0.0
 10
9.9087
 20
76.0675
 30
0.0
  0
SPLINE
  5
79
330
1F
100
AcDbEntity
  8
layer 1
 62
     7
100
AcDbSpline
210
0.0
220
0.0
230
1.0
 70
    11
 71
     3
 72
    12
 73
     8
 74
     0
 42
0.0000000001
 43
0.0000000001
 12
1.0
 22
0.0
 32
0.0
 13
1.0
 23
0.0
 33
0.0
 40
0.0
 40
0.0
 40
0.0
 40
0.0
 40
0.3333333333333333
 40
0.3333333333333333
 40
0.3333333333333333
 40
0.3333333333333333
 40
1.0
 40
1.0
 40
1.0
 40
1.0
 10
16.4104
 20
86.1701
 30
0.0
 10
14.59
 20
87.631
 30
0.0
 10
14.4165
 20
89.5784
 30
0.0
 10
15.8036
 20
90.6739
 30
0.0
 10
15.8036
 20
90.6739
 30
0.0
 10
17.1906
 20
89.3348
 30
0.0
 10
17.4508
 20
87.8743
 30
0.0
 10
16.4104
 20
86.1701
 30
0.0
  0
SPLINE
  5
7A
330
1F
100
AcDbEntity
  8
layer 1
 62
     7
100
AcDbSpline
210
0.0
220
0.0
230
1.0
 70
    11
 71
     3
 72
    20
 73
    16
 74
     0
 42
0.0000000001
 43
0.0000000001
 12
1.0
 22
0.0
 32
0.0
 13
1.0
 23
0.0
 33
0.0
 40
0.0
 40
0.0
 40
0.0
 40
0.0
 40
0.2
 40
0.2
 40
0.2
 40
0.2
 40
0.4
 40
0.4
 40
0.4
 40
0.4
 40
0.6
 40
0.6
 40
0.6
 40
0.6
 40
1.0
 40
1.0
 40
1.0
 40
1.0
 10
30.1941
 20
97.4904
 30
0.0
 10
30.1941
 20
97.4904
 30
0.0
 10
24.9061
 20
102.1156
 30
0.0
 10
24.9061
 20
102.1156
 30
0.0
 10
24.9061
 20
102.1156
 30
0.0
 10
24.9061
 20
102.1156
 30
0.0
 10
30.1941
 20
106.3757
 30
0.0
 10
30.1941
 20
106.3757
 30
0.0
 10
30.1941
 20
106.3757
 30
0.0
 10
30.1941
 20
106.3757
 30
0.0
 10
35.482
 20
102.1156
 30
0.0
 10
35.482
 20
102.1156
 30
0.0
 10
35.482
 20
102.1156
 30
0.0
 10
35.482
 20
102.1156
 30
0.0
 10
30.1941
 20
97.4904
 30
0.0
 10
30.1941
 20
97.4904
 30
0.0
  0
SPLINE
  5
7B
330
1F
100
AcDbEntity
  8
layer 1
 62
     7
100
AcDbSpline
210
0.0
220
0.0
230
1.0
 70
    11
 71
     3
 72
    40
 73
    36
 74
     0
 42
0.0000000001
 43
0.0000000001
 12
1.0
 22
0.0
 32
0.0
 13
1.0
 23
0.0
 33
0.0
 40
0.0
 40
0.0
 40
0.0
 40
0.0
 40
0.1
 40
0.1
 40
0.1
 40
0.1
 40
0.2
 40
0.2
 40
0.2
 40
0.2
 40
0.3
 40
0.3
 40
0.3
 40
0.3
 40
0.4
 40
0.4
 40
0.4
 40
0.4
 40
0.5
 40
0.5
 40
0.5
 40
0.5
 40
0.6
 40
0.6
 40
0.6
 40
0.6
 40
0.7
 40
0.7
 40
0.7
 40
0.7
 40
0.8
 40
0.8
 40
0.8
 40
0.8
 40
1.0
 40
1.0
 40
1.0
 40
1.0
 10
11.5559
 20
105.6456
 30
0.0
 10
8.5218
 20
101.8723
 30
0.0
 10
5.054
 20
97.7336
 30
0.0
 10
0.2863
 20
94.4472
 30
0.0
 10
0.2863
 20
94.4472
 30
0.0
 10
0.1995
 20
97.4904
 30
0.0
 10
-4.3085
 20
98.4641
 30
0.0
 10
-8.036
 20
95.9077
 30
0.0
 10
-8.036
 20
95.9077
 30
0.0
 10
-11.6771
 20
92.9866
 30
0.0
 10
-12.6305
 20
88.4829
 30
0.0
 10
-9.5097
 20
85.6833
 30
0.0
 10
-9.5097
 20
85.6833
 30
0.0
 10
-7.3426
 20
91.7694
 30
0.0
 10
0.026
 20
93.5953
 30
0.0
 10
7.4814
 20
89.3348
 30
0.0
 10
7.4814
 20
89.3348
 30
0.0
 10
9.302
 20
88.6047
 30
0.0
 10
9.4752
 20
89.3348
 30
0.0
 10
8.955
 20
90.6739
 30
0.0
 10
8.955
 20
90.6739
 30
0.0
 10
7.7416
 20
92.8648
 30
0.0
 10
10.6022
 20
95.1776
 30
0.0
 10
9.302
 20
97.0032
 30
0.0
 10
9.302
 20
97.0032
 30
0.0
 10
11.1224
 20
97.7336
 30
0.0
 10
13.2895
 20
96.1513
 30
0.0
 10
14.8499
 20
95.4209
 30
0.0
 10
14.8499
 20
95.4209
 30
0.0
 10
16.2371
 20
97.7336
 30
0.0
 10
17.8843
 20
99.9246
 30
0.0
 10
19.7914
 20
101.8723
 30
0.0
 10
19.7914
 20
101.8723
 30
0.0
 10
17.1906
 20
103.0892
 30
0.0
 10
14.5032
 20
104.6716
 30
0.0
 10
11.5559
 20
105.6456
 30
0.0
  0
SPLINE
  5
7C
330
1F
100
AcDbEntity
  8
layer 1
 62
     7
100
AcDbSpline
210
0.0
220
0.0
230
1.0
 70
    11
 71
     3
 72
    20
 73
    16
 74
     0
 42
0.0000000001
 43
0.0000000001
 12
1.0
 22
0.0
 32
0.0
 13
1.0
 23
0.0
 33
0.0
 40
0.0
 40
0.0
 40
0.0
 40
0.0
 40
0.2
 40
0.2
 40
0.2
 40
0.2
 40
0.4
 40
0.4
 40
0.4
 40
0.4
 40
0.6
 40
0.6
 40
0.6
 40
0.6
 40
1.0
 40
1.0
 40
1.0
 40
1.0
 10
19.4447
 20
111.7317
 30
0.0
 10
17.1041
 20
110.5144
 30
0.0
 10
15.4569
 20
109.4189
 30
0.0
 10
14.0697
 20
108.0798
 30
0.0
 10
14.0697
 20
108.0798
 30
0.0
 10
16.9306
 20
106.7411
 30
0.0
 10
19.5312
 20
105.402
 30
0.0
 10
21.8718
 20
103.9415
 30
0.0
 10
21.8718
 20
103.9415
 30
0.0
 10
23.3457
 20
105.5238
 30
0.0
 10
24.9926
 20
106.8625
 30
0.0
 10
26.7265
 20
107.958
 30
0.0
 10
26.7265
 20
107.958
 30
0.0
 10
24.3859
 20
109.5407
 30
0.0
 10
21.9585
 20
110.7576
 30
0.0
 10
19.4447
 20
111.7317
 30
0.0
  0
SPLINE
  5
7D
330
1F
100
AcDbEntity
  8
layer 1
 62
     7
100
AcDbSpline
210
0.0
220
0.0
230
1.0
 70
    11
 71
     3
 72
    16
 73
    12
 74
     0
 42
0.0000000001
 43
0.0000000001
 12
1.0
 22
0.0
 32
0.0
 13
1.0
 23
0.0
 33
0.0
 40
0.0
 40
0.0
 40
0.0
 40
0.0
 40
0.25
 40
0.25
 40
0.25
 40
0.25
 40
0.5
 40
0.5
 40
0.5
 40
0.5
 40
1.0
 40
1.0
 40
1.0
 40
1.0
 10
-3.0948
 20
99.8028
 30
0.0
 10
1.9332
 20
104.7934
 30
0.0
 10
9.302
 20
109.4189
 30
0.0
 10
18.3175
 20
113.0704
 30
0.0
 10
18.3175
 20
113.0704
 30
0.0
 10
12.3361
 20
109.9057
 30
0.0
 10
6.8746
 20
105.402
 30
0.0
 10
1.4999
 20
98.7073
 30
0.0
 10
1.4999
 20
98.7073
 30
0.0
 10
0.4595
 20
99.4378
 30
0.0
 10
-1.1876
 20
99.6813
 30
0.0
 10
-3.0948
 20
99.8028
 30
0.0
  0
SPLINE
  5
7E
330
1F
100
AcDbEntity
  8
layer 1
 62
     7
100
AcDbSpline
210
0.0
220
0.0
230
1.0
 70
    11
 71
     3
 72
    20
 73
    16
 74
     0
 42
0.0000000001
 43
0.0000000001
 12
1.0
 22
0.0
 32
0.0
 13
1.0
 23
0.0
 33
0.0
 40
0.0
 40
0.0
 40
0.0
 40
0.0
 40
0.2
 40
0.2
 40
0.2
 40
0.2
 40
0.4
 40
0.4
 40
0.4
 40
0.4
 40
0.6
 40
0.6
 40
0.6
 40
0.6
 40
1.0
 40
1.0
 40
1.0
 40
1.0
 10
-17.1385
 20
111.9749
 30
0.0
 10
-17.1385
 20
111.9749
 30
0.0
 10
-17.1385
 20
117.4523
 30
0.0
 10
-17.1385
 20
117.4523
 30
0.0
 10
-17.1385
 20
117.4523
 30
0.0
 10
-4.4817
 20
118.426
 30
0.0
 10
6.3544
 20
116.8437
 30
0.0
 10
15.3702
 20
113.4354
 30
0.0
 10
15.3702
 20
113.4354
 30
0.0
 10
15.3702
 20
113.4354
 30
0.0
 10
6.9614
 20
110.0275
 30
0.0
 10
6.9614
 20
110.0275
 30
0.0
 10
6.9614
 20
110.0275
 30
0.0
 10
0.3728
 20
111.8531
 30
0.0
 10
-7.4293
 20
112.5836
 30
0.0
 10
-17.1385
 20
111.9749
 30
0.0
  0
SPLINE
  5
7F
330
1F
100
AcDbEntity
  8
layer 1
 62
     7
100
AcDbSpline
210
0.0
220
0.0
230
1.0
 70
    11
 71
     3
 72
    20
 73
    16
 74
     0
 42
0.0000000001
 43
0.0000000001
 12
1.0
 22
0.0
 32
0.0
 13
1.0
 23
0.0
 33
0.0
 40
0.0
 40
0.0
 40
0.0
 40
0.0
 40
0.2
 40
0.2
 40
0.2
 40
0.2
 40
0.4
 40
0.4
 40
0.4
 40
0.4
 40
0.6
 40
0.6
 40
0.6
 40
0.6
 40
1.0
 40
1.0
 40
1.0
 40
1.0
 10
-17.1385
 20
105.8889
 30
0.0
 10
-14.4512
 20
110.3926
 30
0.0
 10
-6.8223
 20
104.4283
 30
0.0
 10
-5.9554
 20
99.6813
 30
0.0
 10
-5.9554
 20
99.6813
 30
0.0
 10
-2.3043
 20
104.0481
 30
0.0
 10
-1.1562
 20
105.8002
 30
0.0
 10
3.4936
 20
108.0798
 30
0.0
 10
3.4936
 20
108.0798
 30
0.0
 10
-2.2278
 20
109.2971
 30
0.0
 10
-9.0762
 20
109.5407
 30
0.0
 10
-17.1385
 20
108.9321
 30
0.0
 10
-17.1385
 20
108.9321
 30
0.0
 10
-17.1385
 20
108.9321
 30
0.0
 10
-17.1385
 20
105.8889
 30
0.0
 10
-17.1385
 20
105.8889
 30
0.0
  0
SPLINE
  5
80
330
1F
100
AcDbEntity
  8
layer 1
 62
     7
100
AcDbSpline
210
0.0
220
0.0
230
1.0
 70
    11
 71
     3
 72
    20
 73
    16
 74
     0
 42
0.0000000001
 43
0.0000000001
 12
1.0
 22
0.0
 32
0.0
 13
1.0
 23
0.0
 33
0.0
 40
0.0
 40
0.0
 40
0.0
 40
0.0
 40
0.2
 40
0.2
 40
0.2
 40
0.2
 40
0.4
 40
0.4
 40
0.4
 40
0.4
 40
0.6
 40
0.6
 40
0.6
 40
0.6
 40
1.0
 40
1.0
 40
1.0
 40
1.0
 10
24.9926
 20
29.0832
 30
0.0
 10
24.9926
 20
29.0832
 30
0.0
 10
21.0916
 20
23.2407
 30
0.0
 10
21.0916
 20
23.2407
 30
0.0
 10
21.0916
 20
23.2407
 30
0.0
 10
21.0916
 20
23.2407
 30
0.0
 10
24.2992
 20
18.8588
 30
0.0
 10
24.2992
 20
18.8588
 30
0.0
 10
24.2992
 20
18.8588
 30
0.0
 10
24.2992
 20
18.8588
 30
0.0
 10
28.2869
 20
24.458
 30
0.0
 10
28.2869
 20
24.458
 30
0.0
 10
28.2869
 20
24.458
 30
0.0
 10
28.2869
 20
24.458
 30
0.0
 10
24.9926
 20
29.0832
 30
0.0
 10
24.9926
 20
29.0832
 30
0.0
  0
SPLINE
  5
81
330
1F
100
AcDbEntity
  8
layer 1
 62
     7
100
AcDbSpline
210
0.0
220
0.0
230
1.0
 70
    11
 71
     3
 72
    24
 73
    20
 74
     0
 42
0.0000000001
 43
0.0000000001
 12
1.0
 22
0.0
 32
0.0
 13
1.0
 23
0.0
 33
0.0
 40
0.0
 40
0.0
 40
0.0
 40
0.0
 40
0.1666666666666667
 40
0.1666666666666667
 40
0.1666666666666667
 40
0.1666666666666667
 40
0.3333333333333333
 40
0.3333333333333333
 40
0.3333333333333333
 40
0.3333333333333333
 40
0.5
 40
0.5
 40
0.5
 40
0.5
 40
0.6666666666666666
 40
0.6666666666666666
 40
0.6666666666666666
 40
0.6666666666666666
 40
1.0
 40
1.0
 40
1.0
 40
1.0
 10
26.9865
 20
-104.2843
 30
0.0
 10
26.9865
 20
-104.2843
 30
0.0
 10
26.9865
 20
-104.2843
 30
0.0
 10
26.9865
 20
-104.2843
 30
0.0
 10
26.9865
 20
-104.2843
 30
0.0
 10
26.9865
 20
-104.2843
 30
0.0
 10
33.4017
 20
-104.2843
 30
0.0
 10
33.4017
 20
-104.2843
 30
0.0
 10
33.4017
 20
-104.2843
 30
0.0
 10
33.4017
 20
-104.2843
 30
0.0
 10
30.1941
 20
-103.0674
 30
0.0
 10
30.1941
 20
-103.0674
 30
0.0
 10
30.1941
 20
-103.0674
 30
0.0
 10
30.1941
 20
-103.0674
 30
0.0
 10
30.1941
 20
-103.0674
 30
0.0
 10
30.1941
 20
-103.0674
 30
0.0
 10
30.1941
 20
-103.0674
 30
0.0
 10
30.1941
 20
-103.0674
 30
0.0
 10
26.9865
 20
-104.2843
 30
0.0
 10
26.9865
 20
-104.2843
 30
0.0
  0
SPLINE
  5
82
330
1F
100
AcDbEntity
  8
layer 1
 62
     7
100
AcDbSpline
210
0.0
220
0.0
230
1.0
 70
    11
 71
     3
 72
    20
 73
    16
 74
     0
 42
0.0000000001
 43
0.0000000001
 12
1.0
 22
0.0
 32
0.0
 13
1.0
 23
0.0
 33
0.0
 40
0.0
 40
0.0
 40
0.0
 40
0.0
 40
0.2
 40
0.2
 40
0.2
 40
0.2
 40
0.4
 40
0.4
 40
0.4
 40
0.4
 40
0.6
 40
0.6
 40
0.6
 40
0.6
 40
1.0
 40
1.0
 40
1.0
 40
1.0
 10
77.5267
 20
-104.1628
 30
0.0
 10
64.6099
 20
-102.702
 30
0.0
 10
49.786
 20
-101.7283
 30
0.0
 10
40.5102
 20
-98.6854
 30
0.0
 10
40.5102
 20
-98.6854
 30
0.0
 10
40.5102
 20
-98.6854
 30
0.0
 10
34.2686
 20
-101.2414
 30
0.0
 10
34.2686
 20
-101.2414
 30
0.0
 10
34.2686
 20
-101.2414
 30
0.0
 10
34.2686
 20
-101.2414
 30
0.0
 10
41.4637
 20
-104.4061
 30
0.0
 10
41.4637
 20
-104.4061
 30
0.0
 10
41.4637
 20
-104.4061
 30
0.0
 10
41.4637
 20
-104.4061
 30
0.0
 10
77.5267
 20
-104.1628
 30
0.0
 10
77.5267
 20
-104.1628
 30
0.0
  0
SPLINE
  5
83
330
1F
100
AcDbEntity
  8
layer 1
 62
     7
100
AcDbSpline
210
0.0
220
0.0
230
1.0
 70
    11
 71
     3
 72
    16
 73
    12
 74
     0
 42
0.0000000001
 43
0.0000000001
 12
1.0
 22
0.0
 32
0.0
 13
1.0
 23
0.0
 33
0.0
 40
0.0
 40
0.0
 40
0.0
 40
0.0
 40
0.25
 40
0.25
 40
0.25
 40
0.25
 40
0.5
 40
0.5
 40
0.5
 40
0.5
 40
1.0
 40
1.0
 40
1.0
 40
1.0
 10
49.2658
 20
2.5859
 30
0.0
 10
50.5662
 20
2.3427
 30
0.0
 10
52.3866
 20
1.9776
 30
0.0
 10
54.1205
 20
2.2209
 30
0.0
 10
54.1205
 20
2.2209
 30
0.0
 10
53.1668
 20
2.9513
 30
0.0
 10
52.2133
 20
3.925
 30
0.0
 10
51.6931
 20
5.0205
 30
0.0
 10
51.6931
 20
5.0205
 30
0.0
 10
50.6529
 20
4.4119
 30
0.0
 10
49.8727
 20
3.56
 30
0.0
 10
49.2658
 20
2.5859
 30
0.0
  0
SPLINE
  5
84
330
1F
100
AcDbEntity
  8
layer 1
 62
     7
100
AcDbSpline
210
0.0
220
0.0
230
1.0
 70
    11
 71
     3
 72
    20
 73
    16
 74
     0
 42
0.0000000001
 43
0.0000000001
 12
1.0
 22
0.0
 32
0.0
 13
1.0
 23
0.0
 33
0.0
 40
0.0
 40
0.0
 40
0.0
 40
0.0
 40
0.2
 40
0.2
 40
0.2
 40
0.2
 40
0.4
 40
0.4
 40
0.4
 40
0.4
 40
0.6
 40
0.6
 40
0.6
 40
0.6
 40
1.0
 40
1.0
 40
1.0
 40
1.0
 10
26.1196
 20
0.6386
 30
0.0
 10
26.1196
 20
0.6386
 30
0.0
 10
30.0206
 20
-4.9607
 30
0.0
 10
30.0206
 20
-4.9607
 30
0.0
 10
30.0206
 20
-4.9607
 30
0.0
 10
30.0206
 20
-4.9607
 30
0.0
 10
33.4884
 20
0.0299
 30
0.0
 10
33.4884
 20
0.0299
 30
0.0
 10
33.4884
 20
0.0299
 30
0.0
 10
33.4884
 20
0.0299
 30
0.0
 10
29.5874
 20
5.6291
 30
0.0
 10
29.5874
 20
5.6291
 30
0.0
 10
29.5874
 20
5.6291
 30
0.0
 10
29.5874
 20
5.6291
 30
0.0
 10
26.1196
 20
0.6386
 30
0.0
 10
26.1196
 20
0.6386
 30
0.0
  0
SPLINE
  5
85
330
1F
100
AcDbEntity
  8
layer 1
 62
     7
100
AcDbSpline
210
0.0
220
0.0
230
1.0
 70
    11
 71
     3
 72
    20
 73
    16
 74
     0
 42
0.0000000001
 43
0.0000000001
 12
1.0
 22
0.0
 32
0.0
 13
1.0
 23
0.0
 33
0.0
 40
0.0
 40
0.0
 40
0.0
 40
0.0
 40
0.2
 40
0.2
 40
0.2
 40
0.2
 40
0.4
 40
0.4
 40
0.4
 40
0.4
 40
0.6
 40
0.6
 40
0.6
 40
0.6
 40
1.0
 40
1.0
 40
1.0
 40
1.0
 10
40.9435
 20
-4.7171
 30
0.0
 10
40.9435
 20
-4.7171
 30
0.0
 10
45.1915
 20
1.0036
 30
0.0
 10
45.1915
 20
1.0036
 30
0.0
 10
45.1915
 20
1.0036
 30
0.0
 10
43.8043
 20
1.9776
 30
0.0
 10
41.8104
 20
4.5337
 30
0.0
 10
41.0302
 20
5.9942
 30
0.0
 10
41.0302
 20
5.9942
 30
0.0
 10
41.0302
 20
5.9942
 30
0.0
 10
37.3027
 20
0.5168
 30
0.0
 10
37.3027
 20
0.5168
 30
0.0
 10
37.3027
 20
0.5168
 30
0.0
 10
38.2561
 20
-0.9438
 30
0.0
 10
39.73
 20
-3.3783
 30
0.0
 10
40.9435
 20
-4.7171
 30
0.0
  0
SPLINE
  5
86
330
1F
100
AcDbEntity
  8
layer 1
 62
     7
100
AcDbSpline
210
0.0
220
0.0
230
1.0
 70
    11
 71
     3
 72
    20
 73
    16
 74
     0
 42
0.0000000001
 43
0.0000000001
 12
1.0
 22
0.0
 32
0.0
 13
1.0
 23
0.0
 33
0.0
 40
0.0
 40
0.0
 40
0.0
 40
0.0
 40
0.2
 40
0.2
 40
0.2
 40
0.2
 40
0.4
 40
0.4
 40
0.4
 40
0.4
 40
0.6
 40
0.6
 40
0.6
 40
0.6
 40
1.0
 40
1.0
 40
1.0
 40
1.0
 10
35.482
 20
-12.629
 30
0.0
 10
35.482
 20
-12.629
 30
0.0
 10
38.9498
 20
-7.7603
 30
0.0
 10
38.9498
 20
-7.7603
 30
0.0
 10
38.9498
 20
-7.7603
 30
0.0
 10
38.9498
 20
-7.7603
 30
0.0
 10
35.222
 20
-2.4043
 30
0.0
 10
35.222
 20
-2.4043
 30
0.0
 10
35.222
 20
-2.4043
 30
0.0
 10
35.222
 20
-2.4043
 30
0.0
 10
31.8412
 20
-7.3949
 30
0.0
 10
31.8412
 20
-7.3949
 30
0.0
 10
31.8412
 20
-7.3949
 30
0.0
 10
31.8412
 20
-7.3949
 30
0.0
 10
35.482
 20
-12.629
 30
0.0
 10
35.482
 20
-12.629
 30
0.0
  0
SPLINE
  5
87
330
1F
100
AcDbEntity
  8
layer 1
 62
     7
100
AcDbSpline
210
0.0
220
0.0
230
1.0
 70
    11
 71
     3
 72
    36
 73
    32
 74
     0
 42
0.0000000001
 43
0.0000000001
 12
1.0
 22
0.0
 32
0.0
 13
1.0
 23
0.0
 33
0.0
 40
0.0
 40
0.0
 40
0.0
 40
0.0
 40
0.1111111111111111
 40
0.1111111111111111
 40
0.1111111111111111
 40
0.1111111111111111
 40
0.2222222222222222
 40
0.2222222222222222
 40
0.2222222222222222
 40
0.2222222222222222
 40
0.3333333333333333
 40
0.3333333333333333
 40
0.3333333333333333
 40
0.3333333333333333
 40
0.4444444444444444
 40
0.4444444444444444
 40
0.4444444444444444
 40
0.4444444444444444
 40
0.5555555555555556
 40
0.5555555555555556
 40
0.5555555555555556
 40
0.5555555555555556
 40
0.6666666666666666
 40
0.6666666666666666
 40
0.6666666666666666
 40
0.6666666666666666
 40
0.7777777777777778
 40
0.7777777777777778
 40
0.7777777777777778
 40
0.7777777777777778
 40
1.0
 40
1.0
 40
1.0
 40
1.0
 10
50.6529
 20
-29.5481
 30
0.0
 10
51.5196
 20
-28.2091
 30
0.0
 10
56.0276
 20
-28.8177
 30
0.0
 10
60.1886
 20
-29.1831
 30
0.0
 10
60.1886
 20
-29.1831
 30
0.0
 10
63.9164
 20
-29.4263
 30
0.0
 10
66.9505
 20
-27.9658
 30
0.0
 10
68.9444
 20
-26.1399
 30
0.0
 10
68.9444
 20
-26.1399
 30
0.0
 10
67.4705
 20
-25.7748
 30
0.0
 10
66.777
 20
-24.8012
 30
0.0
 10
67.4705
 20
-23.2185
 30
0.0
 10
67.4705
 20
-23.2185
 30
0.0
 10
68.3374
 20
-21.3929
 30
0.0
 10
71.6317
 20
-20.0538
 30
0.0
 10
70.5913
 20
-17.011
 30
0.0
 10
70.5913
 20
-17.011
 30
0.0
 10
74.2324
 20
-18.4715
 30
0.0
 10
75.9663
 20
-23.9489
 30
0.0
 10
73.1922
 20
-29.3045
 30
0.0
 10
73.1922
 20
-29.3045
 30
0.0
 10
71.1115
 20
-33.8083
 30
0.0
 10
65.8236
 20
-38.0684
 30
0.0
 10
55.8541
 20
-41.7203
 30
0.0
 10
55.8541
 20
-41.7203
 30
0.0
 10
55.8541
 20
-41.7203
 30
0.0
 10
49.2658
 20
-32.3477
 30
0.0
 10
49.2658
 20
-32.3477
 30
0.0
 10
49.2658
 20
-32.3477
 30
0.0
 10
51.6064
 20
-32.591
 30
0.0
 10
52.8201
 20
-30.1568
 30
0.0
 10
50.6529
 20
-29.5481
 30
0.0
  0
SPLINE
  5
88
330
1F
100
AcDbEntity
  8
layer 1
 62
     7
100
AcDbSpline
210
0.0
220
0.0
230
1.0
 70
    11
 71
     3
 72
    16
 73
    12
 74
     0
 42
0.0000000001
 43
0.0000000001
 12
1.0
 22
0.0
 32
0.0
 13
1.0
 23
0.0
 33
0.0
 40
0.0
 40
0.0
 40
0.0
 40
0.0
 40
0.25
 40
0.25
 40
0.25
 40
0.25
 40
0.5
 40
0.5
 40
0.5
 40
0.5
 40
1.0
 40
1.0
 40
1.0
 40
1.0
 10
72.412
 20
-34.1733
 30
0.0
 10
70.6781
 20
-37.947
 30
0.0
 10
68.0774
 20
-41.4767
 30
0.0
 10
64.8699
 20
-44.7631
 30
0.0
 10
64.8699
 20
-44.7631
 30
0.0
 10
65.0434
 20
-43.059
 30
0.0
 10
64.6099
 20
-41.8417
 30
0.0
 10
63.2227
 20
-41.7203
 30
0.0
 10
63.2227
 20
-41.7203
 30
0.0
 10
66.9505
 20
-39.6507
 30
0.0
 10
69.7246
 20
-36.8515
 30
0.0
 10
72.412
 20
-34.1733
 30
0.0
  0
SPLINE
  5
89
330
1F
100
AcDbEntity
  8
layer 1
 62
     7
100
AcDbSpline
210
0.0
220
0.0
230
1.0
 70
    11
 71
     3
 72
    16
 73
    12
 74
     0
 42
0.0000000001
 43
0.0000000001
 12
1.0
 22
0.0
 32
0.0
 13
1.0
 23
0.0
 33
0.0
 40
0.0
 40
0.0
 40
0.0
 40
0.0
 40
0.25
 40
0.25
 40
0.25
 40
0.25
 40
0.5
 40
0.5
 40
0.5
 40
0.5
 40
1.0
 40
1.0
 40
1.0
 40
1.0
 10
65.1299
 20
-22.0015
 30
0.0
 10
64.1764
 20
-23.7057
 30
0.0
 10
64.4364
 20
-24.9226
 30
0.0
 10
65.3901
 20
-25.653
 30
0.0
 10
65.3901
 20
-25.653
 30
0.0
 10
57.3278
 20
-25.7748
 30
0.0
 10
52.6466
 20
-23.097
 30
0.0
 10
50.6529
 20
-18.8365
 30
0.0
 10
50.6529
 20
-18.8365
 30
0.0
 10
54.9872
 20
-21.8798
 30
0.0
 10
59.9287
 20
-23.2185
 30
0.0
 10
65.1299
 20
-22.0015
 30
0.0
  0
SPLINE
  5
8A
330
1F
100
AcDbEntity
  8
layer 1
 62
     7
100
AcDbSpline
210
0.0
220
0.0
230
1.0
 70
    11
 71
     3
 72
    20
 73
    16
 74
     0
 42
0.0000000001
 43
0.0000000001
 12
1.0
 22
0.0
 32
0.0
 13
1.0
 23
0.0
 33
0.0
 40
0.0
 40
0.0
 40
0.0
 40
0.0
 40
0.2
 40
0.2
 40
0.2
 40
0.2
 40
0.4
 40
0.4
 40
0.4
 40
0.4
 40
0.6
 40
0.6
 40
0.6
 40
0.6
 40
1.0
 40
1.0
 40
1.0
 40
1.0
 10
37.1292
 20
-15.0633
 30
0.0
 10
37.1292
 20
-15.0633
 30
0.0
 10
40.6835
 20
-10.1945
 30
0.0
 10
40.6835
 20
-10.1945
 30
0.0
 10
40.6835
 20
-10.1945
 30
0.0
 10
44.9313
 20
-17.2542
 30
0.0
 10
49.179
 20
-23.3403
 30
0.0
 10
55.2474
 20
-26.1399
 30
0.0
 10
55.2474
 20
-26.1399
 30
0.0
 10
50.4794
 20
-26.6267
 30
0.0
 10
47.7053
 20
-27.7222
 30
0.0
 10
47.6186
 20
-29.9132
 30
0.0
 10
47.6186
 20
-29.9132
 30
0.0
 10
47.6186
 20
-29.9132
 30
0.0
 10
37.1292
 20
-15.0633
 30
0.0
 10
37.1292
 20
-15.0633
 30
0.0
  0
SPLINE
  5
8B
330
1F
100
AcDbEntity
  8
layer 1
 62
     7
100
AcDbSpline
210
0.0
220
0.0
230
1.0
 70
    11
 71
     3
 72
    20
 73
    16
 74
     0
 42
0.0000000001
 43
0.0000000001
 12
1.0
 22
0.0
 32
0.0
 13
1.0
 23
0.0
 33
0.0
 40
0.0
 40
0.0
 40
0.0
 40
0.0
 40
0.2
 40
0.2
 40
0.2
 40
0.2
 40
0.4
 40
0.4
 40
0.4
 40
0.4
 40
0.6
 40
0.6
 40
0.6
 40
0.6
 40
1.0
 40
1.0
 40
1.0
 40
1.0
 10
52.3866
 20
-42.0853
 30
0.0
 10
52.3866
 20
-42.0853
 30
0.0
 10
49.179
 20
-46.7108
 30
0.0
 10
49.179
 20
-46.7108
 30
0.0
 10
49.179
 20
-46.7108
 30
0.0
 10
49.179
 20
-46.7108
 30
0.0
 10
46.1449
 20
-42.4504
 30
0.0
 10
46.1449
 20
-42.4504
 30
0.0
 10
46.1449
 20
-42.4504
 30
0.0
 10
46.1449
 20
-42.4504
 30
0.0
 10
49.3525
 20
-37.7034
 30
0.0
 10
49.3525
 20
-37.7034
 30
0.0
 10
49.3525
 20
-37.7034
 30
0.0
 10
49.3525
 20
-37.7034
 30
0.0
 10
52.3866
 20
-42.0853
 30
0.0
 10
52.3866
 20
-42.0853
 30
0.0
  0
SPLINE
  5
8C
330
1F
100
AcDbEntity
  8
layer 1
 62
     7
100
AcDbSpline
210
0.0
220
0.0
230
1.0
 70
    11
 71
     3
 72
    20
 73
    16
 74
     0
 42
0.0000000001
 43
0.0000000001
 12
1.0
 22
0.0
 32
0.0
 13
1.0
 23
0.0
 33
0.0
 40
0.0
 40
0.0
 40
0.0
 40
0.0
 40
0.2
 40
0.2
 40
0.2
 40
0.2
 40
0.4
 40
0.4
 40
0.4
 40
0.4
 40
0.6
 40
0.6
 40
0.6
 40
0.6
 40
1.0
 40
1.0
 40
1.0
 40
1.0
 10
35.482
 20
-53.2837
 30
0.0
 10
35.482
 20
-53.2837
 30
0.0
 10
42.6774
 20
-42.9372
 30
0.0
 10
42.6774
 20
-42.9372
 30
0.0
 10
42.6774
 20
-42.9372
 30
0.0
 10
42.6774
 20
-42.9372
 30
0.0
 10
38.8631
 20
-37.4598
 30
0.0
 10
38.8631
 20
-37.4598
 30
0.0
 10
38.8631
 20
-37.4598
 30
0.0
 10
38.8631
 20
-37.4598
 30
0.0
 10
31.6677
 20
-47.8063
 30
0.0
 10
31.6677
 20
-47.8063
 30
0.0
 10
31.6677
 20
-47.8063
 30
0.0
 10
31.6677
 20
-47.8063
 30
0.0
 10
35.482
 20
-53.2837
 30
0.0
 10
35.482
 20
-53.2837
 30
0.0
  0
SPLINE
  5
8D
330
1F
100
AcDbEntity
  8
layer 1
 62
     7
100
AcDbSpline
210
0.0
220
0.0
230
1.0
 70
    11
 71
     3
 72
    32
 73
    28
 74
     0
 42
0.0000000001
 43
0.0000000001
 12
1.0
 22
0.0
 32
0.0
 13
1.0
 23
0.0
 33
0.0
 40
0.0
 40
0.0
 40
0.0
 40
0.0
 40
0.125
 40
0.125
 40
0.125
 40
0.125
 40
0.25
 40
0.25
 40
0.25
 40
0.25
 40
0.375
 40
0.375
 40
0.375
 40
0.375
 40
0.5
 40
0.5
 40
0.5
 40
0.5
 40
0.625
 40
0.625
 40
0.625
 40
0.625
 40
0.75
 40
0.75
 40
0.75
 40
0.75
 40
1.0
 40
1.0
 40
1.0
 40
1.0
 10
56.9811
 20
-42.4504
 30
0.0
 10
56.9811
 20
-42.4504
 30
0.0
 10
49.0925
 20
-52.6751
 30
0.0
 10
49.0925
 20
-52.6751
 30
0.0
 10
49.0925
 20
-52.6751
 30
0.0
 10
49.0925
 20
-52.6751
 30
0.0
 10
43.9778
 20
-45.3718
 30
0.0
 10
43.9778
 20
-45.3718
 30
0.0
 10
43.9778
 20
-45.3718
 30
0.0
 10
43.9778
 20
-45.3718
 30
0.0
 10
36.9559
 20
-55.3529
 30
0.0
 10
36.9559
 20
-55.3529
 30
0.0
 10
36.9559
 20
-55.3529
 30
0.0
 10
36.9559
 20
-55.3529
 30
0.0
 10
42.8509
 20
-63.7514
 30
0.0
 10
42.8509
 20
-63.7514
 30
0.0
 10
42.8509
 20
-63.7514
 30
0.0
 10
46.5784
 20
-56.5702
 30
0.0
 10
59.5819
 20
-50.8492
 30
0.0
 10
61.1423
 20
-45.25
 30
0.0
 10
61.1423
 20
-45.25
 30
0.0
 10
61.4891
 20
-43.6676
 30
0.0
 10
60.7956
 20
-42.6939
 30
0.0
 10
59.9287
 20
-42.6939
 30
0.0
 10
59.9287
 20
-42.6939
 30
0.0
 10
60.3621
 20
-43.7894
 30
0.0
 10
56.8946
 20
-45.1282
 30
0.0
 10
56.9811
 20
-42.4504
 30
0.0
  0
SPLINE
  5
8E
330
1F
100
AcDbEntity
  8
layer 1
 62
     7
100
AcDbSpline
210
0.0
220
0.0
230
1.0
 70
    11
 71
     3
 72
    20
 73
    16
 74
     0
 42
0.0000000001
 43
0.0000000001
 12
1.0
 22
0.0
 32
0.0
 13
1.0
 23
0.0
 33
0.0
 40
0.0
 40
0.0
 40
0.0
 40
0.0
 40
0.2
 40
0.2
 40
0.2
 40
0.2
 40
0.4
 40
0.4
 40
0.4
 40
0.4
 40
0.6
 40
0.6
 40
0.6
 40
0.6
 40
1.0
 40
1.0
 40
1.0
 40
1.0
 10
50.4794
 20
-59.248
 30
0.0
 10
47.6186
 20
-63.2645
 30
0.0
 10
47.3586
 20
-66.9164
 30
0.0
 10
49.6992
 20
-69.9592
 30
0.0
 10
49.6992
 20
-69.9592
 30
0.0
 10
49.6992
 20
-69.9592
 30
0.0
 10
48.2256
 20
-72.272
 30
0.0
 10
48.2256
 20
-72.272
 30
0.0
 10
48.2256
 20
-72.272
 30
0.0
 10
47.7921
 20
-69.1074
 30
0.0
 10
46.5784
 20
-66.7946
 30
0.0
 10
45.1915
 20
-65.5773
 30
0.0
 10
45.1915
 20
-65.5773
 30
0.0
 10
46.2317
 20
-62.8995
 30
0.0
 10
48.0521
 20
-60.8303
 30
0.0
 10
50.4794
 20
-59.248
 30
0.0
  0
SPLINE
  5
8F
330
1F
100
AcDbEntity
  8
layer 1
 62
     7
100
AcDbSpline
210
0.0
220
0.0
230
1.0
 70
    11
 71
     3
 72
    12
 73
     8
 74
     0
 42
0.0000000001
 43
0.0000000001
 12
1.0
 22
0.0
 32
0.0
 13
1.0
 23
0.0
 33
0.0
 40
0.0
 40
0.0
 40
0.0
 40
0.0
 40
0.3333333333333333
 40
0.3333333333333333
 40
0.3333333333333333
 40
0.3333333333333333
 40
1.0
 40
1.0
 40
1.0
 40
1.0
 10
43.9778
 20
-69.3506
 30
0.0
 10
45.7982
 20
-70.8115
 30
0.0
 10
45.9717
 20
-72.7589
 30
0.0
 10
44.5845
 20
-73.8543
 30
0.0
 10
44.5845
 20
-73.8543
 30
0.0
 10
43.1976
 20
-72.5153
 30
0.0
 10
42.8509
 20
-71.0547
 30
0.0
 10
43.9778
 20
-69.3506
 30
0.0
  0
SPLINE
  5
90
330
1F
100
AcDbEntity
  8
layer 1
 62
     7
100
AcDbSpline
210
0.0
220
0.0
230
1.0
 70
    11
 71
     3
 72
    52
 73
    48
 74
     0
 42
0.0000000001
 43
0.0000000001
 12
1.0
 22
0.0
 32
0.0
 13
1.0
 23
0.0
 33
0.0
 40
0.0
 40
0.0
 40
0.0
 40
0.0
 40
0.0769230769230769
 40
0.0769230769230769
 40
0.0769230769230769
 40
0.0769230769230769
 40
0.1538461538461539
 40
0.1538461538461539
 40
0.1538461538461539
 40
0.1538461538461539
 40
0.2307692307692308
 40
0.2307692307692308
 40
0.2307692307692308
 40
0.2307692307692308
 40
0.3076923076923077
 40
0.3076923076923077
 40
0.3076923076923077
 40
0.3076923076923077
 40
0.3846153846153846
 40
0.3846153846153846
 40
0.3846153846153846
 40
0.3846153846153846
 40
0.4615384615384616
 40
0.4615384615384616
 40
0.4615384615384616
 40
0.4615384615384616
 40
0.5384615384615384
 40
0.5384615384615384
 40
0.5384615384615384
 40
0.5384615384615384
 40
0.6153846153846154
 40
0.6153846153846154
 40
0.6153846153846154
 40
0.6153846153846154
 40
0.6923076923076923
 40
0.6923076923076923
 40
0.6923076923076923
 40
0.6923076923076923
 40
0.7692307692307693
 40
0.7692307692307693
 40
0.7692307692307693
 40
0.7692307692307693
 40
0.8461538461538461
 40
0.8461538461538461
 40
0.8461538461538461
 40
0.8461538461538461
 40
1.0
 40
1.0
 40
1.0
 40
1.0
 10
42.8509
 20
-76.7757
 30
0.0
 10
42.8509
 20
-76.7757
 30
0.0
 10
37.4759
 20
-83.105
 30
0.0
 10
37.4759
 20
-83.105
 30
0.0
 10
37.4759
 20
-83.105
 30
0.0
 10
34.4418
 20
-81.2791
 30
0.0
 10
33.0549
 20
-79.8186
 30
0.0
 10
30.1941
 20
-77.7494
 30
0.0
 10
30.1941
 20
-77.7494
 30
0.0
 10
27.2467
 20
-79.8186
 30
0.0
 10
25.9463
 20
-81.2791
 30
0.0
 10
22.9122
 20
-83.105
 30
0.0
 10
22.9122
 20
-83.105
 30
0.0
 10
22.9122
 20
-83.105
 30
0.0
 10
17.5373
 20
-76.7757
 30
0.0
 10
17.5373
 20
-76.7757
 30
0.0
 10
17.5373
 20
-76.7757
 30
0.0
 10
20.2249
 20
-73.3675
 30
0.0
 10
20.5716
 20
-69.8374
 30
0.0
 10
18.751
 20
-66.1859
 30
0.0
 10
18.751
 20
-66.1859
 30
0.0
 10
18.751
 20
-66.1859
 30
0.0
 10
24.5592
 20
-58.1525
 30
0.0
 10
24.5592
 20
-58.1525
 30
0.0
 10
24.5592
 20
-58.1525
 30
0.0
 10
24.5592
 20
-58.1525
 30
0.0
 10
28.1135
 20
-63.6299
 30
0.0
 10
28.1135
 20
-63.6299
 30
0.0
 10
28.1135
 20
-63.6299
 30
0.0
 10
23.6924
 20
-69.716
 30
0.0
 10
24.0392
 20
-76.5321
 30
0.0
 10
30.1941
 20
-76.5321
 30
0.0
 10
30.1941
 20
-76.5321
 30
0.0
 10
36.2622
 20
-76.5321
 30
0.0
 10
36.6092
 20
-68.4987
 30
0.0
 10
32.1012
 20
-62.4127
 30
0.0
 10
32.1012
 20
-62.4127
 30
0.0
 10
32.1012
 20
-62.4127
 30
0.0
 10
34.7018
 20
-58.6394
 30
0.0
 10
34.7018
 20
-58.6394
 30
0.0
 10
34.7018
 20
-58.6394
 30
0.0
 10
34.7018
 20
-58.6394
 30
0.0
 10
40.9435
 20
-67.6465
 30
0.0
 10
40.9435
 20
-67.6465
 30
0.0
 10
40.9435
 20
-67.6465
 30
0.0
 10
39.2098
 20
-71.2983
 30
0.0
 10
40.1633
 20
-73.3675
 30
0.0
 10
42.8509
 20
-76.7757
 30
0.0
  0
SPLINE
  5
91
330
1F
100
AcDbEntity
  8
layer 1
 62
     7
100
AcDbSpline
210
0.0
220
0.0
230
1.0
 70
    11
 71
     3
 72
    40
 73
    36
 74
     0
 42
0.0000000001
 43
0.0000000001
 12
1.0
 22
0.0
 32
0.0
 13
1.0
 23
0.0
 33
0.0
 40
0.0
 40
0.0
 40
0.0
 40
0.0
 40
0.1
 40
0.1
 40
0.1
 40
0.1
 40
0.2
 40
0.2
 40
0.2
 40
0.2
 40
0.3
 40
0.3
 40
0.3
 40
0.3
 40
0.4
 40
0.4
 40
0.4
 40
0.4
 40
0.5
 40
0.5
 40
0.5
 40
0.5
 40
0.6
 40
0.6
 40
0.6
 40
0.6
 40
0.7
 40
0.7
 40
0.7
 40
0.7
 40
0.8
 40
0.8
 40
0.8
 40
0.8
 40
1.0
 40
1.0
 40
1.0
 40
1.0
 10
48.8323
 20
-88.8261
 30
0.0
 10
51.8664
 20
-85.0528
 30
0.0
 10
55.3342
 20
-80.9141
 30
0.0
 10
60.0154
 20
-77.6276
 30
0.0
 10
60.0154
 20
-77.6276
 30
0.0
 10
60.1886
 20
-80.6708
 30
0.0
 10
64.6966
 20
-81.6445
 30
0.0
 10
68.4242
 20
-79.0882
 30
0.0
 10
68.4242
 20
-79.0882
 30
0.0
 10
72.0652
 20
-76.1671
 30
0.0
 10
72.9319
 20
-71.6634
 30
0.0
 10
69.8978
 20
-68.8638
 30
0.0
 10
69.8978
 20
-68.8638
 30
0.0
 10
67.7307
 20
-74.9498
 30
0.0
 10
60.3621
 20
-76.7757
 30
0.0
 10
52.9068
 20
-72.5153
 30
0.0
 10
52.9068
 20
-72.5153
 30
0.0
 10
51.0862
 20
-71.7852
 30
0.0
 10
50.8262
 20
-72.5153
 30
0.0
 10
51.4331
 20
-73.8543
 30
0.0
 10
51.4331
 20
-73.8543
 30
0.0
 10
52.6466
 20
-76.0453
 30
0.0
 10
49.786
 20
-78.3581
 30
0.0
 10
51.0862
 20
-80.1836
 30
0.0
 10
51.0862
 20
-80.1836
 30
0.0
 10
49.2658
 20
-80.9141
 30
0.0
 10
47.0119
 20
-79.3318
 30
0.0
 10
45.5382
 20
-78.6013
 30
0.0
 10
45.5382
 20
-78.6013
 30
0.0
 10
44.151
 20
-80.9141
 30
0.0
 10
42.5039
 20
-83.105
 30
0.0
 10
40.5967
 20
-85.0528
 30
0.0
 10
40.5967
 20
-85.0528
 30
0.0
 10
43.1109
 20
-86.2697
 30
0.0
 10
45.8849
 20
-87.852
 30
0.0
 10
48.8323
 20
-88.8261
 30
0.0
  0
SPLINE
  5
92
330
1F
100
AcDbEntity
  8
layer 1
 62
     7
100
AcDbSpline
210
0.0
220
0.0
230
1.0
 70
    11
 71
     3
 72
    20
 73
    16
 74
     0
 42
0.0000000001
 43
0.0000000001
 12
1.0
 22
0.0
 32
0.0
 13
1.0
 23
0.0
 33
0.0
 40
0.0
 40
0.0
 40
0.0
 40
0.0
 40
0.2
 40
0.2
 40
0.2
 40
0.2
 40
0.4
 40
0.4
 40
0.4
 40
0.4
 40
0.6
 40
0.6
 40
0.6
 40
0.6
 40
1.0
 40
1.0
 40
1.0
 40
1.0
 10
40.9435
 20
-94.9121
 30
0.0
 10
43.2841
 20
-93.6948
 30
0.0
 10
44.9313
 20
-92.5994
 30
0.0
 10
46.3184
 20
-91.2603
 30
0.0
 10
46.3184
 20
-91.2603
 30
0.0
 10
43.4576
 20
-89.9215
 30
0.0
 10
40.857
 20
-88.5825
 30
0.0
 10
38.5164
 20
-87.1219
 30
0.0
 10
38.5164
 20
-87.1219
 30
0.0
 10
37.0424
 20
-88.7043
 30
0.0
 10
35.3955
 20
-90.043
 30
0.0
 10
33.6616
 20
-91.1385
 30
0.0
 10
33.6616
 20
-91.1385
 30
0.0
 10
36.0023
 20
-92.7212
 30
0.0
 10
38.4296
 20
-93.9381
 30
0.0
 10
40.9435
 20
-94.9121
 30
0.0
  0
SPLINE
  5
93
330
1F
100
AcDbEntity
  8
layer 1
 62
     7
100
AcDbSpline
210
0.0
220
0.0
230
1.0
 70
    11
 71
     3
 72
    20
 73
    16
 74
     0
 42
0.0000000001
 43
0.0000000001
 12
1.0
 22
0.0
 32
0.0
 13
1.0
 23
0.0
 33
0.0
 40
0.0
 40
0.0
 40
0.0
 40
0.0
 40
0.2
 40
0.2
 40
0.2
 40
0.2
 40
0.4
 40
0.4
 40
0.4
 40
0.4
 40
0.6
 40
0.6
 40
0.6
 40
0.6
 40
1.0
 40
1.0
 40
1.0
 40
1.0
 10
30.1941
 20
-100.0241
 30
0.0
 10
30.1941
 20
-100.0241
 30
0.0
 10
36.8692
 20
-97.2245
 30
0.0
 10
36.8692
 20
-97.2245
 30
0.0
 10
36.8692
 20
-97.2245
 30
0.0
 10
36.8692
 20
-97.2245
 30
0.0
 10
30.1941
 20
-93.573
 30
0.0
 10
30.1941
 20
-93.573
 30
0.0
 10
30.1941
 20
-93.573
 30
0.0
 10
30.1941
 20
-93.573
 30
0.0
 10
23.519
 20
-97.2245
 30
0.0
 10
23.519
 20
-97.2245
 30
0.0
 10
23.519
 20
-97.2245
 30
0.0
 10
23.519
 20
-97.2245
 30
0.0
 10
30.1941
 20
-100.0241
 30
0.0
 10
30.1941
 20
-100.0241
 30
0.0
  0
SPLINE
  5
94
330
1F
100
AcDbEntity
  8
layer 1
 62
     7
100
AcDbSpline
210
0.0
220
0.0
230
1.0
 70
    11
 71
     3
 72
    16
 73
    12
 74
     0
 42
0.0000000001
 43
0.0000000001
 12
1.0
 22
0.0
 32
0.0
 13
1.0
 23
0.0
 33
0.0
 40
0.0
 40
0.0
 40
0.0
 40
0.0
 40
0.25
 40
0.25
 40
0.25
 40
0.25
 40
0.5
 40
0.5
 40
0.5
 40
0.5
 40
1.0
 40
1.0
 40
1.0
 40
1.0
 10
63.483
 20
-82.9833
 30
0.0
 10
58.455
 20
-87.9738
 30
0.0
 10
51.0862
 20
-92.5994
 30
0.0
 10
42.0707
 20
-96.2509
 30
0.0
 10
42.0707
 20
-96.2509
 30
0.0
 10
48.0521
 20
-93.0862
 30
0.0
 10
53.5135
 20
-88.5825
 30
0.0
 10
58.8882
 20
-81.8878
 30
0.0
 10
58.8882
 20
-81.8878
 30
0.0
 10
59.9287
 20
-82.6182
 30
0.0
 10
61.5758
 20
-82.8618
 30
0.0
 10
63.483
 20
-82.9833
 30
0.0
  0
SPLINE
  5
95
330
1F
100
AcDbEntity
  8
layer 1
 62
     7
100
AcDbSpline
210
0.0
220
0.0
230
1.0
 70
    11
 71
     3
 72
    20
 73
    16
 74
     0
 42
0.0000000001
 43
0.0000000001
 12
1.0
 22
0.0
 32
0.0
 13
1.0
 23
0.0
 33
0.0
 40
0.0
 40
0.0
 40
0.0
 40
0.0
 40
0.2
 40
0.2
 40
0.2
 40
0.2
 40
0.4
 40
0.4
 40
0.4
 40
0.4
 40
0.6
 40
0.6
 40
0.6
 40
0.6
 40
1.0
 40
1.0
 40
1.0
 40
1.0
 10
77.5267
 20
-95.1554
 30
0.0
 10
77.5267
 20
-95.1554
 30
0.0
 10
77.5267
 20
-100.6328
 30
0.0
 10
77.5267
 20
-100.6328
 30
0.0
 10
77.5267
 20
-100.6328
 30
0.0
 10
64.8699
 20
-101.6065
 30
0.0
 10
54.0337
 20
-100.0241
 30
0.0
 10
44.9313
 20
-96.6159
 30
0.0
 10
44.9313
 20
-96.6159
 30
0.0
 10
44.9313
 20
-96.6159
 30
0.0
 10
53.4268
 20
-93.208
 30
0.0
 10
53.4268
 20
-93.208
 30
0.0
 10
53.4268
 20
-93.208
 30
0.0
 10
60.0154
 20
-95.0336
 30
0.0
 10
67.8175
 20
-95.764
 30
0.0
 10
77.5267
 20
-95.1554
 30
0.0
  0
SPLINE
  5
96
330
1F
100
AcDbEntity
  8
layer 1
 62
     7
100
AcDbSpline
210
0.0
220
0.0
230
1.0
 70
    11
 71
     3
 72
    44
 73
    40
 74
     0
 42
0.0000000001
 43
0.0000000001
 12
1.0
 22
0.0
 32
0.0
 13
1.0
 23
0.0
 33
0.0
 40
0.0
 40
0.0
 40
0.0
 40
0.0
 40
0.0909090909090909
 40
0.0909090909090909
 40
0.0909090909090909
 40
0.0909090909090909
 40
0.1818181818181818
 40
0.1818181818181818
 40
0.1818181818181818
 40
0.1818181818181818
 40
0.2727272727272727
 40
0.2727272727272727
 40
0.2727272727272727
 40
0.2727272727272727
 40
0.3636363636363636
 40
0.3636363636363636
 40
0.3636363636363636
 40
0.3636363636363636
 40
0.4545454545454545
 40
0.4545454545454545
 40
0.4545454545454545
 40
0.4545454545454545
 40
0.5454545454545454
 40
0.5454545454545454
 40
0.5454545454545454
 40
0.5454545454545454
 40
0.6363636363636364
 40
0.6363636363636364
 40
0.6363636363636364
 40
0.6363636363636364
 40
0.7272727272727273
 40
0.7272727272727273
 40
0.7272727272727273
 40
0.7272727272727273
 40
0.8181818181818182
 40
0.8181818181818182
 40
0.8181818181818182
 40
0.8181818181818182
 40
1.0
 40
1.0
 40
1.0
 40
1.0
 10
-17.1385
 20
-25.653
 30
0.0
 10
-17.1385
 20
-25.653
 30
0.0
 10
-17.1385
 20
-83.5919
 30
0.0
 10
-17.1385
 20
-83.5919
 30
0.0
 10
-17.1385
 20
-83.5919
 30
0.0
 10
-12.4573
 20
-82.4964
 30
0.0
 10
-12.1105
 20
-80.9141
 30
0.0
 10
-14.4512
 20
-75.9235
 30
0.0
 10
-14.4512
 20
-75.9235
 30
0.0
 10
-16.2716
 20
-70.9329
 30
0.0
 10
-14.1909
 20
-67.0378
 30
0.0
 10
-9.163
 20
-64.4818
 30
0.0
 10
-9.163
 20
-64.4818
 30
0.0
 10
-14.0177
 20
-60.4649
 30
0.0
 10
-13.324
 20
-54.8661
 30
0.0
 10
-5.8689
 20
-54.2574
 30
0.0
 10
-5.8689
 20
-54.2574
 30
0.0
 10
-8.9897
 20
-56.4484
 30
0.0
 10
-8.4695
 20
-59.248
 30
0.0
 10
-5.6087
 20
-61.1954
 30
0.0
 10
-5.6087
 20
-61.1954
 30
0.0
 10
-3.5283
 20
-62.5345
 30
0.0
 10
-0.7542
 20
-63.2645
 30
0.0
 10
1.153
 20
-65.2123
 30
0.0
 10
1.153
 20
-65.2123
 30
0.0
 10
2.8869
 20
-67.7683
 30
0.0
 10
-0.234
 20
-69.9592
 30
0.0
 10
-4.4817
 20
-69.1074
 30
0.0
 10
-4.4817
 20
-69.1074
 30
0.0
 10
-2.6613
 20
-73.4893
 30
0.0
 10
9.3885
 20
-71.0547
 30
0.0
 10
8.695
 20
-64.36
 30
0.0
 10
8.695
 20
-64.36
 30
0.0
 10
8.5218
 20
-62.2909
 30
0.0
 10
7.3946
 20
-60.2217
 30
0.0
 10
5.4875
 20
-58.3958
 30
0.0
 10
5.4875
 20
-58.3958
 30
0.0
 10
-5.9554
 20
-47.3191
 30
0.0
 10
-17.1385
 20
-37.4598
 30
0.0
 10
-17.1385
 20
-25.653
 30
0.0
  0
SPLINE
  5
97
330
1F
100
AcDbEntity
  8
layer 1
 62
     7
100
AcDbSpline
210
0.0
220
0.0
230
1.0
 70
    11
 71
     3
 72
    36
 73
    32
 74
     0
 42
0.0000000001
 43
0.0000000001
 12
1.0
 22
0.0
 32
0.0
 13
1.0
 23
0.0
 33
0.0
 40
0.0
 40
0.0
 40
0.0
 40
0.0
 40
0.1111111111111111
 40
0.1111111111111111
 40
0.1111111111111111
 40
0.1111111111111111
 40
0.2222222222222222
 40
0.2222222222222222
 40
0.2222222222222222
 40
0.2222222222222222
 40
0.3333333333333333
 40
0.3333333333333333
 40
0.3333333333333333
 40
0.3333333333333333
 40
0.4444444444444444
 40
0.4444444444444444
 40
0.4444444444444444
 40
0.4444444444444444
 40
0.5555555555555556
 40
0.5555555555555556
 40
0.5555555555555556
 40
0.5555555555555556
 40
0.6666666666666666
 40
0.6666666666666666
 40
0.6666666666666666
 40
0.6666666666666666
 40
0.7777777777777778
 40
0.7777777777777778
 40
0.7777777777777778
 40
0.7777777777777778
 40
1.0
 40
1.0
 40
1.0
 40
1.0
 10
-14.1909
 20
-15.3068
 30
0.0
 10
-11.5903
 20
-10.8031
 30
0.0
 10
-11.0701
 20
-9.7076
 30
0.0
 10
-13.324
 20
-5.6907
 30
0.0
 10
-13.324
 20
-5.6907
 30
0.0
 10
-10.1166
 20
-8.9772
 30
0.0
 10
-0.6674
 20
-7.8817
 30
0.0
 10
4.3605
 20
-0.3351
 30
0.0
 10
4.3605
 20
-0.3351
 30
0.0
 10
7.4814
 20
-1.1874
 30
0.0
 10
10.4289
 20
-0.3351
 30
0.0
 10
12.4228
 20
0.1517
 30
0.0
 10
12.4228
 20
0.1517
 30
0.0
 10
12.4228
 20
0.1517
 30
0.0
 10
17.0173
 20
-6.4212
 30
0.0
 10
17.0173
 20
-6.4212
 30
0.0
 10
17.0173
 20
-6.4212
 30
0.0
 10
14.0697
 20
-10.4381
 30
0.0
 10
10.9489
 20
-15.5501
 30
0.0
 10
6.7879
 20
-17.9847
 30
0.0
 10
6.7879
 20
-17.9847
 30
0.0
 10
2.2802
 20
-20.7843
 30
0.0
 10
-5.1752
 20
-21.6362
 30
0.0
 10
-5.6087
 20
-17.6196
 30
0.0
 10
-5.6087
 20
-17.6196
 30
0.0
 10
-2.9213
 20
-19.8106
 30
0.0
 10
1.7599
 20
-18.4715
 30
0.0
 10
1.153
 20
-15.0633
 30
0.0
 10
1.153
 20
-15.0633
 30
0.0
 10
-0.6674
 20
-10.9249
 30
0.0
 10
-10.2031
 20
-10.4381
 30
0.0
 10
-14.1909
 20
-15.3068
 30
0.0
  0
SPLINE
  5
98
330
1F
100
AcDbEntity
  8
layer 1
 62
     7
100
AcDbSpline
210
0.0
220
0.0
230
1.0
 70
    11
 71
     3
 72
    44
 73
    40
 74
     0
 42
0.0000000001
 43
0.0000000001
 12
1.0
 22
0.0
 32
0.0
 13
1.0
 23
0.0
 33
0.0
 40
0.0
 40
0.0
 40
0.0
 40
0.0
 40
0.0909090909090909
 40
0.0909090909090909
 40
0.0909090909090909
 40
0.0909090909090909
 40
0.1818181818181818
 40
0.1818181818181818
 40
0.1818181818181818
 40
0.1818181818181818
 40
0.2727272727272727
 40
0.2727272727272727
 40
0.2727272727272727
 40
0.2727272727272727
 40
0.3636363636363636
 40
0.3636363636363636
 40
0.3636363636363636
 40
0.3636363636363636
 40
0.4545454545454545
 40
0.4545454545454545
 40
0.4545454545454545
 40
0.4545454545454545
 40
0.5454545454545454
 40
0.5454545454545454
 40
0.5454545454545454
 40
0.5454545454545454
 40
0.6363636363636364
 40
0.6363636363636364
 40
0.6363636363636364
 40
0.6363636363636364
 40
0.7272727272727273
 40
0.7272727272727273
 40
0.7272727272727273
 40
0.7272727272727273
 40
0.8181818181818182
 40
0.8181818181818182
 40
0.8181818181818182
 40
0.8181818181818182
 40
1.0
 40
1.0
 40
1.0
 40
1.0
 10
77.5267
 20
-25.653
 30
0.0
 10
77.5267
 20
-25.653
 30
0.0
 10
77.5267
 20
-83.5919
 30
0.0
 10
77.5267
 20
-83.5919
 30
0.0
 10
77.5267
 20
-83.5919
 30
0.0
 10
72.7587
 20
-82.4964
 30
0.0
 10
72.4987
 20
-80.9141
 30
0.0
 10
74.7526
 20
-75.9235
 30
0.0
 10
74.7526
 20
-75.9235
 30
0.0
 10
76.573
 20
-70.9329
 30
0.0
 10
74.5791
 20
-67.0378
 30
0.0
 10
69.5511
 20
-64.4818
 30
0.0
 10
69.5511
 20
-64.4818
 30
0.0
 10
74.4058
 20
-60.4649
 30
0.0
 10
73.7121
 20
-54.8661
 30
0.0
 10
66.257
 20
-54.2574
 30
0.0
 10
66.257
 20
-54.2574
 30
0.0
 10
69.3779
 20
-56.4484
 30
0.0
 10
68.8577
 20
-59.248
 30
0.0
 10
65.9968
 20
-61.1954
 30
0.0
 10
65.9968
 20
-61.1954
 30
0.0
 10
63.9164
 20
-62.5345
 30
0.0
 10
61.1423
 20
-63.2645
 30
0.0
 10
59.2352
 20
-65.2123
 30
0.0
 10
59.2352
 20
-65.2123
 30
0.0
 10
57.5013
 20
-67.7683
 30
0.0
 10
60.5354
 20
-69.9592
 30
0.0
 10
64.8699
 20
-69.1074
 30
0.0
 10
64.8699
 20
-69.1074
 30
0.0
 10
63.0495
 20
-73.4893
 30
0.0
 10
50.9997
 20
-71.0547
 30
0.0
 10
51.6931
 20
-64.36
 30
0.0
 10
51.6931
 20
-64.36
 30
0.0
 10
51.8664
 20
-62.2909
 30
0.0
 10
52.9935
 20
-60.2217
 30
0.0
 10
54.9007
 20
-58.3958
 30
0.0
 10
54.9007
 20
-58.3958
 30
0.0
 10
66.257
 20
-47.3191
 30
0.0
 10
77.5267
 20
-37.4598
 30
0.0
 10
77.5267
 20
-25.653
 30
0.0
  0
SPLINE
  5
99
330
1F
100
AcDbEntity
  8
layer 1
 62
     7
100
AcDbSpline
210
0.0
220
0.0
230
1.0
 70
    11
 71
     3
 72
    36
 73
    32
 74
     0
 42
0.0000000001
 43
0.0000000001
 12
1.0
 22
0.0
 32
0.0
 13
1.0
 23
0.0
 33
0.0
 40
0.0
 40
0.0
 40
0.0
 40
0.0
 40
0.1111111111111111
 40
0.1111111111111111
 40
0.1111111111111111
 40
0.1111111111111111
 40
0.2222222222222222
 40
0.2222222222222222
 40
0.2222222222222222
 40
0.2222222222222222
 40
0.3333333333333333
 40
0.3333333333333333
 40
0.3333333333333333
 40
0.3333333333333333
 40
0.4444444444444444
 40
0.4444444444444444
 40
0.4444444444444444
 40
0.4444444444444444
 40
0.5555555555555556
 40
0.5555555555555556
 40
0.5555555555555556
 40
0.5555555555555556
 40
0.6666666666666666
 40
0.6666666666666666
 40
0.6666666666666666
 40
0.6666666666666666
 40
0.7777777777777778
 40
0.7777777777777778
 40
0.7777777777777778
 40
0.7777777777777778
 40
1.0
 40
1.0
 40
1.0
 40
1.0
 10
74.5791
 20
-15.3068
 30
0.0
 10
71.9785
 20
-10.8031
 30
0.0
 10
71.4583
 20
-9.7076
 30
0.0
 10
73.7121
 20
-5.6907
 30
0.0
 10
73.7121
 20
-5.6907
 30
0.0
 10
70.5048
 20
-8.9772
 30
0.0
 10
61.0556
 20
-7.8817
 30
0.0
 10
56.0276
 20
-0.4569
 30
0.0
 10
56.0276
 20
-0.4569
 30
0.0
 10
52.9935
 20
-0.9438
 30
0.0
 10
49.6125
 20
-0.2133
 30
0.0
 10
47.6186
 20
0.1517
 30
0.0
 10
47.6186
 20
0.1517
 30
0.0
 10
47.6186
 20
0.1517
 30
0.0
 10
42.5906
 20
-7.0298
 30
0.0
 10
42.5906
 20
-7.0298
 30
0.0
 10
42.5906
 20
-7.0298
 30
0.0
 10
45.5382
 20
-11.0467
 30
0.0
 10
49.4392
 20
-15.5501
 30
0.0
 10
53.6003
 20
-17.9847
 30
0.0
 10
53.6003
 20
-17.9847
 30
0.0
 10
58.108
 20
-20.7843
 30
0.0
 10
65.5633
 20
-21.6362
 30
0.0
 10
65.9101
 20
-17.6196
 30
0.0
 10
65.9101
 20
-17.6196
 30
0.0
 10
63.3095
 20
-19.8106
 30
0.0
 10
58.6282
 20
-18.4715
 30
0.0
 10
59.1485
 20
-15.0633
 30
0.0
 10
59.1485
 20
-15.0633
 30
0.0
 10
61.0556
 20
-10.9249
 30
0.0
 10
70.5913
 20
-10.4381
 30
0.0
 10
74.5791
 20
-15.3068
 30
0.0
  0
SPLINE
  5
9A
330
1F
100
AcDbEntity
  8
layer 1
 62
     7
100
AcDbSpline
210
0.0
220
0.0
230
1.0
 70
    11
 71
     3
 72
    20
 73
    16
 74
     0
 42
0.0000000001
 43
0.0000000001
 12
1.0
 22
0.0
 32
0.0
 13
1.0
 23
0.0
 33
0.0
 40
0.0
 40
0.0
 40
0.0
 40
0.0
 40
0.2
 40
0.2
 40
0.2
 40
0.2
 40
0.4
 40
0.4
 40
0.4
 40
0.4
 40
0.6
 40
0.6
 40
0.6
 40
0.6
 40
1.0
 40
1.0
 40
1.0
 40
1.0
 10
77.5267
 20
-89.0693
 30
0.0
 10
74.8393
 20
-93.573
 30
0.0
 10
67.2105
 20
-87.6088
 30
0.0
 10
66.3435
 20
-82.8618
 30
0.0
 10
66.3435
 20
-82.8618
 30
0.0
 10
64.2042
 20
-85.9568
 30
0.0
 10
59.9599
 20
-89.7573
 30
0.0
 10
56.8946
 20
-91.2603
 30
0.0
 10
56.8946
 20
-91.2603
 30
0.0
 10
62.616
 20
-92.4776
 30
0.0
 10
69.4644
 20
-92.7212
 30
0.0
 10
77.4399
 20
-92.1125
 30
0.0
 10
77.4399
 20
-92.1125
 30
0.0
 10
77.4399
 20
-92.1125
 30
0.0
 10
77.5267
 20
-89.0693
 30
0.0
 10
77.5267
 20
-89.0693
 30
0.0
  0
SPLINE
  5
9B
330
1F
100
AcDbEntity
  8
layer 1
 62
     7
100
AcDbSpline
210
0.0
220
0.0
230
1.0
 70
    11
 71
     3
 72
    20
 73
    16
 74
     0
 42
0.0000000001
 43
0.0000000001
 12
1.0
 22
0.0
 32
0.0
 13
1.0
 23
0.0
 33
0.0
 40
0.0
 40
0.0
 40
0.0
 40
0.0
 40
0.2
 40
0.2
 40
0.2
 40
0.2
 40
0.4
 40
0.4
 40
0.4
 40
0.4
 40
0.6
 40
0.6
 40
0.6
 40
0.6
 40
1.0
 40
1.0
 40
1.0
 40
1.0
 10
30.4541
 20
-19.932
 30
0.0
 10
30.4541
 20
-19.932
 30
0.0
 10
33.6616
 20
-15.3068
 30
0.0
 10
33.6616
 20
-15.3068
 30
0.0
 10
33.6616
 20
-15.3068
 30
0.0
 10
33.6616
 20
-15.3068
 30
0.0
 10
29.9341
 20
-10.0727
 30
0.0
 10
29.9341
 20
-10.0727
 30
0.0
 10
29.9341
 20
-10.0727
 30
0.0
 10
29.9341
 20
-10.0727
 30
0.0
 10
26.7265
 20
-14.6982
 30
0.0
 10
26.7265
 20
-14.6982
 30
0.0
 10
26.7265
 20
-14.6982
 30
0.0
 10
26.7265
 20
-14.6982
 30
0.0
 10
30.4541
 20
-19.932
 30
0.0
 10
30.4541
 20
-19.932
 30
0.0
  0
SPLINE
  5
9C
330
1F
100
AcDbEntity
  8
layer 1
 62
     7
100
AcDbSpline
210
0.0
220
0.0
230
1.0
 70
    11
 71
     3
 72
    20
 73
    16
 74
     0
 42
0.0000000001
 43
0.0000000001
 12
1.0
 22
0.0
 32
0.0
 13
1.0
 23
0.0
 33
0.0
 40
0.0
 40
0.0
 40
0.0
 40
0.0
 40
0.2
 40
0.2
 40
0.2
 40
0.2
 40
0.4
 40
0.4
 40
0.4
 40
0.4
 40
0.6
 40
0.6
 40
0.6
 40
0.6
 40
1.0
 40
1.0
 40
1.0
 40
1.0
 10
32.1012
 20
-22.3666
 30
0.0
 10
32.1012
 20
-22.3666
 30
0.0
 10
35.3088
 20
-17.6196
 30
0.0
 10
35.3088
 20
-17.6196
 30
0.0
 10
35.3088
 20
-17.6196
 30
0.0
 10
35.3088
 20
-17.6196
 30
0.0
 10
41.8972
 20
-27.1136
 30
0.0
 10
41.8972
 20
-27.1136
 30
0.0
 10
41.8972
 20
-27.1136
 30
0.0
 10
41.8972
 20
-27.1136
 30
0.0
 10
38.6896
 20
-31.7391
 30
0.0
 10
38.6896
 20
-31.7391
 30
0.0
 10
38.6896
 20
-31.7391
 30
0.0
 10
38.6896
 20
-31.7391
 30
0.0
 10
32.1012
 20
-22.3666
 30
0.0
 10
32.1012
 20
-22.3666
 30
0.0
  0
SPLINE
  5
9D
330
1F
100
AcDbEntity
  8
layer 1
 62
     7
100
AcDbSpline
210
0.0
220
0.0
230
1.0
 70
    11
 71
     3
 72
    20
 73
    16
 74
     0
 42
0.0000000001
 43
0.0000000001
 12
1.0
 22
0.0
 32
0.0
 13
1.0
 23
0.0
 33
0.0
 40
0.0
 40
0.0
 40
0.0
 40
0.0
 40
0.2
 40
0.2
 40
0.2
 40
0.2
 40
0.4
 40
0.4
 40
0.4
 40
0.4
 40
0.6
 40
0.6
 40
0.6
 40
0.6
 40
1.0
 40
1.0
 40
1.0
 40
1.0
 10
44.6713
 20
-40.2594
 30
0.0
 10
44.6713
 20
-40.2594
 30
0.0
 10
47.8788
 20
-35.6342
 30
0.0
 10
47.8788
 20
-35.6342
 30
0.0
 10
47.8788
 20
-35.6342
 30
0.0
 10
47.8788
 20
-35.6342
 30
0.0
 10
43.9778
 20
-30.035
 30
0.0
 10
43.9778
 20
-30.035
 30
0.0
 10
43.9778
 20
-30.035
 30
0.0
 10
43.9778
 20
-30.035
 30
0.0
 10
40.7702
 20
-34.6605
 30
0.0
 10
40.7702
 20
-34.6605
 30
0.0
 10
40.7702
 20
-34.6605
 30
0.0
 10
40.7702
 20
-34.6605
 30
0.0
 10
44.6713
 20
-40.2594
 30
0.0
 10
44.6713
 20
-40.2594
 30
0.0
  0
SPLINE
  5
9E
330
1F
100
AcDbEntity
  8
layer 1
 62
     7
100
AcDbSpline
210
0.0
220
0.0
230
1.0
 70
    11
 71
     3
 72
    20
 73
    16
 74
     0
 42
0.0000000001
 43
0.0000000001
 12
1.0
 22
0.0
 32
0.0
 13
1.0
 23
0.0
 33
0.0
 40
0.0
 40
0.0
 40
0.0
 40
0.0
 40
0.2
 40
0.2
 40
0.2
 40
0.2
 40
0.4
 40
0.4
 40
0.4
 40
0.4
 40
0.6
 40
0.6
 40
0.6
 40
0.6
 40
1.0
 40
1.0
 40
1.0
 40
1.0
 10
-17.1385
 20
-104.1628
 30
0.0
 10
-4.2217
 20
-102.702
 30
0.0
 10
10.6022
 20
-101.7283
 30
0.0
 10
19.8779
 20
-98.6854
 30
0.0
 10
19.8779
 20
-98.6854
 30
0.0
 10
19.8779
 20
-98.6854
 30
0.0
 10
26.1196
 20
-101.2414
 30
0.0
 10
26.1196
 20
-101.2414
 30
0.0
 10
26.1196
 20
-101.2414
 30
0.0
 10
26.1196
 20
-101.2414
 30
0.0
 10
18.9245
 20
-104.4061
 30
0.0
 10
18.9245
 20
-104.4061
 30
0.0
 10
18.9245
 20
-104.4061
 30
0.0
 10
18.9245
 20
-104.4061
 30
0.0
 10
-17.1385
 20
-104.1628
 30
0.0
 10
-17.1385
 20
-104.1628
 30
0.0
  0
SPLINE
  5
9F
330
1F
100
AcDbEntity
  8
layer 1
 62
     7
100
AcDbSpline
210
0.0
220
0.0
230
1.0
 70
    11
 71
     3
 72
    16
 73
    12
 74
     0
 42
0.0000000001
 43
0.0000000001
 12
1.0
 22
0.0
 32
0.0
 13
1.0
 23
0.0
 33
0.0
 40
0.0
 40
0.0
 40
0.0
 40
0.0
 40
0.25
 40
0.25
 40
0.25
 40
0.25
 40
0.5
 40
0.5
 40
0.5
 40
0.5
 40
1.0
 40
1.0
 40
1.0
 40
1.0
 10
10.2555
 20
2.0991
 30
0.0
 10
8.955
 20
1.8558
 30
0.0
 10
7.5681
 20
1.734
 30
0.0
 10
5.8342
 20
1.8558
 30
0.0
 10
5.8342
 20
1.8558
 30
0.0
 10
6.7012
 20
2.7077
 30
0.0
 10
7.3946
 20
3.56
 30
0.0
 10
7.9148
 20
4.5337
 30
0.0
 10
7.9148
 20
4.5337
 30
0.0
 10
8.8685
 20
3.925
 30
0.0
 10
9.6487
 20
3.0731
 30
0.0
 10
10.2555
 20
2.0991
 30
0.0
  0
SPLINE
  5
A0
330
1F
100
AcDbEntity
  8
layer 1
 62
     7
100
AcDbSpline
210
0.0
220
0.0
230
1.0
 70
    11
 71
     3
 72
    20
 73
    16
 74
     0
 42
0.0000000001
 43
0.0000000001
 12
1.0
 22
0.0
 32
0.0
 13
1.0
 23
0.0
 33
0.0
 40
0.0
 40
0.0
 40
0.0
 40
0.0
 40
0.2
 40
0.2
 40
0.2
 40
0.2
 40
0.4
 40
0.4
 40
0.4
 40
0.4
 40
0.6
 40
0.6
 40
0.6
 40
0.6
 40
1.0
 40
1.0
 40
1.0
 40
1.0
 10
19.0112
 20
-3.4998
 30
0.0
 10
19.0112
 20
-3.4998
 30
0.0
 10
15.8036
 20
1.4905
 30
0.0
 10
15.8036
 20
1.4905
 30
0.0
 10
15.8036
 20
1.4905
 30
0.0
 10
17.1041
 20
2.5859
 30
0.0
 10
18.3175
 20
4.0468
 30
0.0
 10
19.0977
 20
5.3855
 30
0.0
 10
19.0977
 20
5.3855
 30
0.0
 10
19.0977
 20
5.3855
 30
0.0
 10
22.3053
 20
0.8822
 30
0.0
 10
22.3053
 20
0.8822
 30
0.0
 10
22.3053
 20
0.8822
 30
0.0
 10
21.3518
 20
-0.5787
 30
0.0
 10
20.3114
 20
-2.0392
 30
0.0
 10
19.0112
 20
-3.4998
 30
0.0
  0
SPLINE
  5
A1
330
1F
100
AcDbEntity
  8
layer 1
 62
     7
100
AcDbSpline
210
0.0
220
0.0
230
1.0
 70
    11
 71
     3
 72
    36
 73
    32
 74
     0
 42
0.0000000001
 43
0.0000000001
 12
1.0
 22
0.0
 32
0.0
 13
1.0
 23
0.0
 33
0.0
 40
0.0
 40
0.0
 40
0.0
 40
0.0
 40
0.1111111111111111
 40
0.1111111111111111
 40
0.1111111111111111
 40
0.1111111111111111
 40
0.2222222222222222
 40
0.2222222222222222
 40
0.2222222222222222
 40
0.2222222222222222
 40
0.3333333333333333
 40
0.3333333333333333
 40
0.3333333333333333
 40
0.3333333333333333
 40
0.4444444444444444
 40
0.4444444444444444
 40
0.4444444444444444
 40
0.4444444444444444
 40
0.5555555555555556
 40
0.5555555555555556
 40
0.5555555555555556
 40
0.5555555555555556
 40
0.6666666666666666
 40
0.6666666666666666
 40
0.6666666666666666
 40
0.6666666666666666
 40
0.7777777777777778
 40
0.7777777777777778
 40
0.7777777777777778
 40
0.7777777777777778
 40
1.0
 40
1.0
 40
1.0
 40
1.0
 10
-8.6427
 20
-26.1399
 30
0.0
 10
-7.0823
 20
-25.7748
 30
0.0
 10
-6.3889
 20
-24.8012
 30
0.0
 10
-7.0823
 20
-23.2185
 30
0.0
 10
-7.0823
 20
-23.2185
 30
0.0
 10
-7.9493
 20
-21.3929
 30
0.0
 10
-11.2436
 20
-20.0538
 30
0.0
 10
-10.2031
 20
-17.011
 30
0.0
 10
-10.2031
 20
-17.011
 30
0.0
 10
-13.8442
 20
-18.4715
 30
0.0
 10
-15.5781
 20
-23.9489
 30
0.0
 10
-12.804
 20
-29.3045
 30
0.0
 10
-12.804
 20
-29.3045
 30
0.0
 10
-10.7234
 20
-33.8083
 30
0.0
 10
-5.7821
 20
-38.0684
 30
0.0
 10
4.1873
 20
-41.5985
 30
0.0
 10
4.1873
 20
-41.5985
 30
0.0
 10
4.1873
 20
-41.5985
 30
0.0
 10
11.0357
 20
-32.1042
 30
0.0
 10
11.0357
 20
-32.1042
 30
0.0
 10
11.0357
 20
-32.1042
 30
0.0
 10
8.6083
 20
-32.3477
 30
0.0
 10
7.5681
 20
-30.1568
 30
0.0
 10
9.7352
 20
-29.5481
 30
0.0
 10
9.7352
 20
-29.5481
 30
0.0
 10
8.8685
 20
-28.2091
 30
0.0
 10
4.3605
 20
-28.8177
 30
0.0
 10
0.1995
 20
-29.1831
 30
0.0
 10
0.1995
 20
-29.1831
 30
0.0
 10
-3.5283
 20
-29.4263
 30
0.0
 10
-6.5623
 20
-27.9658
 30
0.0
 10
-8.6427
 20
-26.1399
 30
0.0
  0
SPLINE
  5
A2
330
1F
100
AcDbEntity
  8
layer 1
 62
     7
100
AcDbSpline
210
0.0
220
0.0
230
1.0
 70
    11
 71
     3
 72
    16
 73
    12
 74
     0
 42
0.0000000001
 43
0.0000000001
 12
1.0
 22
0.0
 32
0.0
 13
1.0
 23
0.0
 33
0.0
 40
0.0
 40
0.0
 40
0.0
 40
0.0
 40
0.25
 40
0.25
 40
0.25
 40
0.25
 40
0.5
 40
0.5
 40
0.5
 40
0.5
 40
1.0
 40
1.0
 40
1.0
 40
1.0
 10
-12.0238
 20
-34.1733
 30
0.0
 10
-10.2899
 20
-37.947
 30
0.0
 10
-7.6893
 20
-41.4767
 30
0.0
 10
-4.4817
 20
-44.7631
 30
0.0
 10
-4.4817
 20
-44.7631
 30
0.0
 10
-4.6552
 20
-43.059
 30
0.0
 10
-4.2217
 20
-41.8417
 30
0.0
 10
-2.8346
 20
-41.7203
 30
0.0
 10
-2.8346
 20
-41.7203
 30
0.0
 10
-6.5623
 20
-39.6507
 30
0.0
 10
-9.3364
 20
-36.8515
 30
0.0
 10
-12.0238
 20
-34.1733
 30
0.0
  0
SPLINE
  5
A3
330
1F
100
AcDbEntity
  8
layer 1
 62
     7
100
AcDbSpline
210
0.0
220
0.0
230
1.0
 70
    11
 71
     3
 72
    16
 73
    12
 74
     0
 42
0.0000000001
 43
0.0000000001
 12
1.0
 22
0.0
 32
0.0
 13
1.0
 23
0.0
 33
0.0
 40
0.0
 40
0.0
 40
0.0
 40
0.0
 40
0.25
 40
0.25
 40
0.25
 40
0.25
 40
0.5
 40
0.5
 40
0.5
 40
0.5
 40
1.0
 40
1.0
 40
1.0
 40
1.0
 10
-4.7417
 20
-22.0015
 30
0.0
 10
-3.7883
 20
-23.7057
 30
0.0
 10
-4.0482
 20
-24.9226
 30
0.0
 10
-5.0019
 20
-25.653
 30
0.0
 10
-5.0019
 20
-25.653
 30
0.0
 10
3.0604
 20
-25.7748
 30
0.0
 10
7.7416
 20
-23.097
 30
0.0
 10
9.7352
 20
-18.8365
 30
0.0
 10
9.7352
 20
-18.8365
 30
0.0
 10
5.401
 20
-21.8798
 30
0.0
 10
0.4595
 20
-23.2185
 30
0.0
 10
-4.7417
 20
-22.0015
 30
0.0
  0
SPLINE
  5
A4
330
1F
100
AcDbEntity
  8
layer 1
 62
     7
100
AcDbSpline
210
0.0
220
0.0
230
1.0
 70
    11
 71
     3
 72
    20
 73
    16
 74
     0
 42
0.0000000001
 43
0.0000000001
 12
1.0
 22
0.0
 32
0.0
 13
1.0
 23
0.0
 33
0.0
 40
0.0
 40
0.0
 40
0.0
 40
0.0
 40
0.2
 40
0.2
 40
0.2
 40
0.2
 40
0.4
 40
0.4
 40
0.4
 40
0.4
 40
0.6
 40
0.6
 40
0.6
 40
0.6
 40
1.0
 40
1.0
 40
1.0
 40
1.0
 10
23.0855
 20
-14.9418
 30
0.0
 10
23.0855
 20
-14.9418
 30
0.0
 10
19.1845
 20
-9.3426
 30
0.0
 10
19.1845
 20
-9.3426
 30
0.0
 10
19.1845
 20
-9.3426
 30
0.0
 10
14.9367
 20
-16.4023
 30
0.0
 10
11.2091
 20
-23.3403
 30
0.0
 10
5.1407
 20
-26.1399
 30
0.0
 10
5.1407
 20
-26.1399
 30
0.0
 10
9.9087
 20
-26.6267
 30
0.0
 10
12.3361
 20
-27.844
 30
0.0
 10
12.4228
 20
-30.1568
 30
0.0
 10
12.4228
 20
-30.1568
 30
0.0
 10
12.4228
 20
-30.1568
 30
0.0
 10
23.0855
 20
-14.9418
 30
0.0
 10
23.0855
 20
-14.9418
 30
0.0
  0
SPLINE
  5
A5
330
1F
100
AcDbEntity
  8
layer 1
 62
     7
100
AcDbSpline
210
0.0
220
0.0
230
1.0
 70
    11
 71
     3
 72
    20
 73
    16
 74
     0
 42
0.0000000001
 43
0.0000000001
 12
1.0
 22
0.0
 32
0.0
 13
1.0
 23
0.0
 33
0.0
 40
0.0
 40
0.0
 40
0.0
 40
0.0
 40
0.2
 40
0.2
 40
0.2
 40
0.2
 40
0.4
 40
0.4
 40
0.4
 40
0.4
 40
0.6
 40
0.6
 40
0.6
 40
0.6
 40
1.0
 40
1.0
 40
1.0
 40
1.0
 10
28.4602
 20
-22.8534
 30
0.0
 10
28.4602
 20
-22.8534
 30
0.0
 10
24.9061
 20
-17.4978
 30
0.0
 10
24.9061
 20
-17.4978
 30
0.0
 10
24.9061
 20
-17.4978
 30
0.0
 10
24.9061
 20
-17.4978
 30
0.0
 10
17.7108
 20
-28.2091
 30
0.0
 10
17.7108
 20
-28.2091
 30
0.0
 10
17.7108
 20
-28.2091
 30
0.0
 10
17.7108
 20
-28.2091
 30
0.0
 10
21.3518
 20
-33.1996
 30
0.0
 10
21.3518
 20
-33.1996
 30
0.0
 10
21.3518
 20
-33.1996
 30
0.0
 10
21.3518
 20
-33.1996
 30
0.0
 10
28.4602
 20
-22.8534
 30
0.0
 10
28.4602
 20
-22.8534
 30
0.0
  0
SPLINE
  5
A6
330
1F
100
AcDbEntity
  8
layer 1
 62
     7
100
AcDbSpline
210
0.0
220
0.0
230
1.0
 70
    11
 71
     3
 72
    20
 73
    16
 74
     0
 42
0.0000000001
 43
0.0000000001
 12
1.0
 22
0.0
 32
0.0
 13
1.0
 23
0.0
 33
0.0
 40
0.0
 40
0.0
 40
0.0
 40
0.0
 40
0.2
 40
0.2
 40
0.2
 40
0.2
 40
0.4
 40
0.4
 40
0.4
 40
0.4
 40
0.6
 40
0.6
 40
0.6
 40
0.6
 40
1.0
 40
1.0
 40
1.0
 40
1.0
 10
7.8281
 20
-42.3289
 30
0.0
 10
7.8281
 20
-42.3289
 30
0.0
 10
11.3824
 20
-47.5627
 30
0.0
 10
11.3824
 20
-47.5627
 30
0.0
 10
11.3824
 20
-47.5627
 30
0.0
 10
11.3824
 20
-47.5627
 30
0.0
 10
14.2432
 20
-43.4244
 30
0.0
 10
14.2432
 20
-43.4244
 30
0.0
 10
14.2432
 20
-43.4244
 30
0.0
 10
14.2432
 20
-43.4244
 30
0.0
 10
10.6022
 20
-38.312
 30
0.0
 10
10.6022
 20
-38.312
 30
0.0
 10
10.6022
 20
-38.312
 30
0.0
 10
10.6022
 20
-38.312
 30
0.0
 10
7.8281
 20
-42.3289
 30
0.0
 10
7.8281
 20
-42.3289
 30
0.0
  0
SPLINE
  5
A7
330
1F
100
AcDbEntity
  8
layer 1
 62
     7
100
AcDbSpline
210
0.0
220
0.0
230
1.0
 70
    11
 71
     3
 72
    20
 73
    16
 74
     0
 42
0.0000000001
 43
0.0000000001
 12
1.0
 22
0.0
 32
0.0
 13
1.0
 23
0.0
 33
0.0
 40
0.0
 40
0.0
 40
0.0
 40
0.0
 40
0.2
 40
0.2
 40
0.2
 40
0.2
 40
0.4
 40
0.4
 40
0.4
 40
0.4
 40
0.6
 40
0.6
 40
0.6
 40
0.6
 40
1.0
 40
1.0
 40
1.0
 40
1.0
 10
16.3239
 20
-40.3812
 30
0.0
 10
16.3239
 20
-40.3812
 30
0.0
 10
12.7696
 20
-35.2688
 30
0.0
 10
12.7696
 20
-35.2688
 30
0.0
 10
12.7696
 20
-35.2688
 30
0.0
 10
12.7696
 20
-35.2688
 30
0.0
 10
15.6302
 20
-31.1305
 30
0.0
 10
15.6302
 20
-31.1305
 30
0.0
 10
15.6302
 20
-31.1305
 30
0.0
 10
15.6302
 20
-31.1305
 30
0.0
 10
19.2712
 20
-36.2428
 30
0.0
 10
19.2712
 20
-36.2428
 30
0.0
 10
19.2712
 20
-36.2428
 30
0.0
 10
19.2712
 20
-36.2428
 30
0.0
 10
16.3239
 20
-40.3812
 30
0.0
 10
16.3239
 20
-40.3812
 30
0.0
  0
SPLINE
  5
A8
330
1F
100
AcDbEntity
  8
layer 1
 62
     7
100
AcDbSpline
210
0.0
220
0.0
230
1.0
 70
    11
 71
     3
 72
    20
 73
    16
 74
     0
 42
0.0000000001
 43
0.0000000001
 12
1.0
 22
0.0
 32
0.0
 13
1.0
 23
0.0
 33
0.0
 40
0.0
 40
0.0
 40
0.0
 40
0.0
 40
0.2
 40
0.2
 40
0.2
 40
0.2
 40
0.4
 40
0.4
 40
0.4
 40
0.4
 40
0.6
 40
0.6
 40
0.6
 40
0.6
 40
1.0
 40
1.0
 40
1.0
 40
1.0
 10
29.5874
 20
-44.8849
 30
0.0
 10
29.5874
 20
-44.8849
 30
0.0
 10
22.9987
 20
-35.5124
 30
0.0
 10
22.9987
 20
-35.5124
 30
0.0
 10
22.9987
 20
-35.5124
 30
0.0
 10
22.9987
 20
-35.5124
 30
0.0
 10
30.1941
 20
-25.0444
 30
0.0
 10
30.1941
 20
-25.0444
 30
0.0
 10
30.1941
 20
-25.0444
 30
0.0
 10
30.1941
 20
-25.0444
 30
0.0
 10
36.7825
 20
-34.5387
 30
0.0
 10
36.7825
 20
-34.5387
 30
0.0
 10
36.7825
 20
-34.5387
 30
0.0
 10
36.7825
 20
-34.5387
 30
0.0
 10
29.5874
 20
-44.8849
 30
0.0
 10
29.5874
 20
-44.8849
 30
0.0
  0
SPLINE
  5
A9
330
1F
100
AcDbEntity
  8
layer 1
 62
     7
100
AcDbSpline
210
0.0
220
0.0
230
1.0
 70
    11
 71
     3
 72
    20
 73
    16
 74
     0
 42
0.0000000001
 43
0.0000000001
 12
1.0
 22
0.0
 32
0.0
 13
1.0
 23
0.0
 33
0.0
 40
0.0
 40
0.0
 40
0.0
 40
0.0
 40
0.2
 40
0.2
 40
0.2
 40
0.2
 40
0.4
 40
0.4
 40
0.4
 40
0.4
 40
0.6
 40
0.6
 40
0.6
 40
0.6
 40
1.0
 40
1.0
 40
1.0
 40
1.0
 10
24.6459
 20
-52.1883
 30
0.0
 10
24.6459
 20
-52.1883
 30
0.0
 10
17.9708
 20
-42.8157
 30
0.0
 10
17.9708
 20
-42.8157
 30
0.0
 10
17.9708
 20
-42.8157
 30
0.0
 10
17.9708
 20
-42.8157
 30
0.0
 10
20.9184
 20
-38.5553
 30
0.0
 10
20.9184
 20
-38.5553
 30
0.0
 10
20.9184
 20
-38.5553
 30
0.0
 10
20.9184
 20
-38.5553
 30
0.0
 10
27.42
 20
-48.0496
 30
0.0
 10
27.42
 20
-48.0496
 30
0.0
 10
27.42
 20
-48.0496
 30
0.0
 10
27.42
 20
-48.0496
 30
0.0
 10
24.6459
 20
-52.1883
 30
0.0
 10
24.6459
 20
-52.1883
 30
0.0
  0
SPLINE
  5
AA
330
1F
100
AcDbEntity
  8
layer 1
 62
     7
100
AcDbSpline
210
0.0
220
0.0
230
1.0
 70
    11
 71
     3
 72
    32
 73
    28
 74
     0
 42
0.0000000001
 43
0.0000000001
 12
1.0
 22
0.0
 32
0.0
 13
1.0
 23
0.0
 33
0.0
 40
0.0
 40
0.0
 40
0.0
 40
0.0
 40
0.125
 40
0.125
 40
0.125
 40
0.125
 40
0.25
 40
0.25
 40
0.25
 40
0.25
 40
0.375
 40
0.375
 40
0.375
 40
0.375
 40
0.5
 40
0.5
 40
0.5
 40
0.5
 40
0.625
 40
0.625
 40
0.625
 40
0.625
 40
0.75
 40
0.75
 40
0.75
 40
0.75
 40
1.0
 40
1.0
 40
1.0
 40
1.0
 10
3.4071
 20
-42.4504
 30
0.0
 10
3.4071
 20
-42.4504
 30
0.0
 10
11.1224
 20
-52.4315
 30
0.0
 10
11.1224
 20
-52.4315
 30
0.0
 10
11.1224
 20
-52.4315
 30
0.0
 10
11.1224
 20
-52.4315
 30
0.0
 10
15.8036
 20
-45.7368
 30
0.0
 10
15.8036
 20
-45.7368
 30
0.0
 10
15.8036
 20
-45.7368
 30
0.0
 10
15.8036
 20
-45.7368
 30
0.0
 10
22.4788
 20
-55.2311
 30
0.0
 10
22.4788
 20
-55.2311
 30
0.0
 10
22.4788
 20
-55.2311
 30
0.0
 10
22.4788
 20
-55.2311
 30
0.0
 10
17.3641
 20
-62.5345
 30
0.0
 10
17.3641
 20
-62.5345
 30
0.0
 10
17.3641
 20
-62.5345
 30
0.0
 10
12.6828
 20
-55.8398
 30
0.0
 10
0.8062
 20
-50.8492
 30
0.0
 10
-0.7542
 20
-45.25
 30
0.0
 10
-0.7542
 20
-45.25
 30
0.0
 10
-1.1009
 20
-43.6676
 30
0.0
 10
-0.4074
 20
-42.6939
 30
0.0
 10
0.4595
 20
-42.6939
 30
0.0
 10
0.4595
 20
-42.6939
 30
0.0
 10
0.026
 20
-43.7894
 30
0.0
 10
3.4936
 20
-45.1282
 30
0.0
 10
3.4071
 20
-42.4504
 30
0.0
  0
SPLINE
  5
AB
330
1F
100
AcDbEntity
  8
layer 1
 62
     7
100
AcDbSpline
210
0.0
220
0.0
230
1.0
 70
    11
 71
     3
 72
    20
 73
    16
 74
     0
 42
0.0000000001
 43
0.0000000001
 12
1.0
 22
0.0
 32
0.0
 13
1.0
 23
0.0
 33
0.0
 40
0.0
 40
0.0
 40
0.0
 40
0.0
 40
0.2
 40
0.2
 40
0.2
 40
0.2
 40
0.4
 40
0.4
 40
0.4
 40
0.4
 40
0.6
 40
0.6
 40
0.6
 40
0.6
 40
1.0
 40
1.0
 40
1.0
 40
1.0
 10
29.5874
 20
-50.8492
 30
0.0
 10
29.5874
 20
-50.8492
 30
0.0
 10
26.7265
 20
-55.1093
 30
0.0
 10
26.7265
 20
-55.1093
 30
0.0
 10
26.7265
 20
-55.1093
 30
0.0
 10
26.7265
 20
-55.1093
 30
0.0
 10
30.4541
 20
-60.4649
 30
0.0
 10
30.4541
 20
-60.4649
 30
0.0
 10
30.4541
 20
-60.4649
 30
0.0
 10
30.4541
 20
-60.4649
 30
0.0
 10
33.3149
 20
-56.2048
 30
0.0
 10
33.3149
 20
-56.2048
 30
0.0
 10
33.3149
 20
-56.2048
 30
0.0
 10
33.3149
 20
-56.2048
 30
0.0
 10
29.5874
 20
-50.8492
 30
0.0
 10
29.5874
 20
-50.8492
 30
0.0
  0
SPLINE
  5
AC
330
1F
100
AcDbEntity
  8
layer 1
 62
     7
100
AcDbSpline
210
0.0
220
0.0
230
1.0
 70
    11
 71
     3
 72
    12
 73
     8
 74
     0
 42
0.0000000001
 43
0.0000000001
 12
1.0
 22
0.0
 32
0.0
 13
1.0
 23
0.0
 33
0.0
 40
0.0
 40
0.0
 40
0.0
 40
0.0
 40
0.3333333333333333
 40
0.3333333333333333
 40
0.3333333333333333
 40
0.3333333333333333
 40
1.0
 40
1.0
 40
1.0
 40
1.0
 10
30.1941
 20
-73.7325
 30
0.0
 10
26.8998
 20
-73.7325
 30
0.0
 10
26.6398
 20
-69.2288
 30
0.0
 10
30.1941
 20
-65.2123
 30
0.0
 10
30.1941
 20
-65.2123
 30
0.0
 10
33.6616
 20
-69.2288
 30
0.0
 10
33.4884
 20
-73.7325
 30
0.0
 10
30.1941
 20
-73.7325
 30
0.0
  0
SPLINE
  5
AD
330
1F
100
AcDbEntity
  8
layer 1
 62
     7
100
AcDbSpline
210
0.0
220
0.0
230
1.0
 70
    11
 71
     3
 72
    20
 73
    16
 74
     0
 42
0.0000000001
 43
0.0000000001
 12
1.0
 22
0.0
 32
0.0
 13
1.0
 23
0.0
 33
0.0
 40
0.0
 40
0.0
 40
0.0
 40
0.0
 40
0.2
 40
0.2
 40
0.2
 40
0.2
 40
0.4
 40
0.4
 40
0.4
 40
0.4
 40
0.6
 40
0.6
 40
0.6
 40
0.6
 40
1.0
 40
1.0
 40
1.0
 40
1.0
 10
9.9087
 20
-59.248
 30
0.0
 10
12.7696
 20
-63.2645
 30
0.0
 10
13.0295
 20
-66.9164
 30
0.0
 10
10.6889
 20
-69.9592
 30
0.0
 10
10.6889
 20
-69.9592
 30
0.0
 10
10.6889
 20
-69.9592
 30
0.0
 10
12.1626
 20
-72.272
 30
0.0
 10
12.1626
 20
-72.272
 30
0.0
 10
12.1626
 20
-72.272
 30
0.0
 10
12.5961
 20
-69.1074
 30
0.0
 10
13.8098
 20
-66.7946
 30
0.0
 10
15.1967
 20
-65.5773
 30
0.0
 10
15.1967
 20
-65.5773
 30
0.0
 10
14.1565
 20
-62.8995
 30
0.0
 10
12.3361
 20
-60.8303
 30
0.0
 10
9.9087
 20
-59.248
 30
0.0
  0
SPLINE
  5
AE
330
1F
100
AcDbEntity
  8
layer 1
 62
     7
100
AcDbSpline
210
0.0
220
0.0
230
1.0
 70
    11
 71
     3
 72
    12
 73
     8
 74
     0
 42
0.0000000001
 43
0.0000000001
 12
1.0
 22
0.0
 32
0.0
 13
1.0
 23
0.0
 33
0.0
 40
0.0
 40
0.0
 40
0.0
 40
0.0
 40
0.3333333333333333
 40
0.3333333333333333
 40
0.3333333333333333
 40
0.3333333333333333
 40
1.0
 40
1.0
 40
1.0
 40
1.0
 10
16.4104
 20
-69.3506
 30
0.0
 10
14.59
 20
-70.8115
 30
0.0
 10
14.4165
 20
-72.7589
 30
0.0
 10
15.8036
 20
-73.8543
 30
0.0
 10
15.8036
 20
-73.8543
 30
0.0
 10
17.1906
 20
-72.5153
 30
0.0
 10
17.4508
 20
-71.0547
 30
0.0
 10
16.4104
 20
-69.3506
 30
0.0
  0
SPLINE
  5
AF
330
1F
100
AcDbEntity
  8
layer 1
 62
     7
100
AcDbSpline
210
0.0
220
0.0
230
1.0
 70
    11
 71
     3
 72
    20
 73
    16
 74
     0
 42
0.0000000001
 43
0.0000000001
 12
1.0
 22
0.0
 32
0.0
 13
1.0
 23
0.0
 33
0.0
 40
0.0
 40
0.0
 40
0.0
 40
0.0
 40
0.2
 40
0.2
 40
0.2
 40
0.2
 40
0.4
 40
0.4
 40
0.4
 40
0.4
 40
0.6
 40
0.6
 40
0.6
 40
0.6
 40
1.0
 40
1.0
 40
1.0
 40
1.0
 10
30.1941
 20
-80.6708
 30
0.0
 10
30.1941
 20
-80.6708
 30
0.0
 10
24.9061
 20
-85.296
 30
0.0
 10
24.9061
 20
-85.296
 30
0.0
 10
24.9061
 20
-85.296
 30
0.0
 10
24.9061
 20
-85.296
 30
0.0
 10
30.1941
 20
-89.5562
 30
0.0
 10
30.1941
 20
-89.5562
 30
0.0
 10
30.1941
 20
-89.5562
 30
0.0
 10
30.1941
 20
-89.5562
 30
0.0
 10
35.482
 20
-85.296
 30
0.0
 10
35.482
 20
-85.296
 30
0.0
 10
35.482
 20
-85.296
 30
0.0
 10
35.482
 20
-85.296
 30
0.0
 10
30.1941
 20
-80.6708
 30
0.0
 10
30.1941
 20
-80.6708
 30
0.0
  0
SPLINE
  5
B0
330
1F
100
AcDbEntity
  8
layer 1
 62
     7
100
AcDbSpline
210
0.0
220
0.0
230
1.0
 70
    11
 71
     3
 72
    40
 73
    36
 74
     0
 42
0.0000000001
 43
0.0000000001
 12
1.0
 22
0.0
 32
0.0
 13
1.0
 23
0.0
 33
0.0
 40
0.0
 40
0.0
 40
0.0
 40
0.0
 40
0.1
 40
0.1
 40
0.1
 40
0.1
 40
0.2
 40
0.2
 40
0.2
 40
0.2
 40
0.3
 40
0.3
 40
0.3
 40
0.3
 40
0.4
 40
0.4
 40
0.4
 40
0.4
 40
0.5
 40
0.5
 40
0.5
 40
0.5
 40
0.6
 40
0.6
 40
0.6
 40
0.6
 40
0.7
 40
0.7
 40
0.7
 40
0.7
 40
0.8
 40
0.8
 40
0.8
 40
0.8
 40
1.0
 40
1.0
 40
1.0
 40
1.0
 10
11.5559
 20
-88.8261
 30
0.0
 10
8.5218
 20
-85.0528
 30
0.0
 10
5.054
 20
-80.9141
 30
0.0
 10
0.2863
 20
-77.6276
 30
0.0
 10
0.2863
 20
-77.6276
 30
0.0
 10
0.1995
 20
-80.6708
 30
0.0
 10
-4.3085
 20
-81.6445
 30
0.0
 10
-8.036
 20
-79.0882
 30
0.0
 10
-8.036
 20
-79.0882
 30
0.0
 10
-11.6771
 20
-76.1671
 30
0.0
 10
-12.6305
 20
-71.6634
 30
0.0
 10
-9.5097
 20
-68.8638
 30
0.0
 10
-9.5097
 20
-68.8638
 30
0.0
 10
-7.3426
 20
-74.9498
 30
0.0
 10
0.026
 20
-76.7757
 30
0.0
 10
7.4814
 20
-72.5153
 30
0.0
 10
7.4814
 20
-72.5153
 30
0.0
 10
9.302
 20
-71.7852
 30
0.0
 10
9.4752
 20
-72.5153
 30
0.0
 10
8.955
 20
-73.8543
 30
0.0
 10
8.955
 20
-73.8543
 30
0.0
 10
7.7416
 20
-76.0453
 30
0.0
 10
10.6022
 20
-78.3581
 30
0.0
 10
9.302
 20
-80.1836
 30
0.0
 10
9.302
 20
-80.1836
 30
0.0
 10
11.1224
 20
-80.9141
 30
0.0
 10
13.2895
 20
-79.3318
 30
0.0
 10
14.8499
 20
-78.6013
 30
0.0
 10
14.8499
 20
-78.6013
 30
0.0
 10
16.2371
 20
-80.9141
 30
0.0
 10
17.8843
 20
-83.105
 30
0.0
 10
19.7914
 20
-85.0528
 30
0.0
 10
19.7914
 20
-85.0528
 30
0.0
 10
17.1906
 20
-86.2697
 30
0.0
 10
14.5032
 20
-87.852
 30
0.0
 10
11.5559
 20
-88.8261
 30
0.0
  0
SPLINE
  5
B1
330
1F
100
AcDbEntity
  8
layer 1
 62
     7
100
AcDbSpline
210
0.0
220
0.0
230
1.0
 70
    11
 71
     3
 72
    20
 73
    16
 74
     0
 42
0.0000000001
 43
0.0000000001
 12
1.0
 22
0.0
 32
0.0
 13
1.0
 23
0.0
 33
0.0
 40
0.0
 40
0.0
 40
0.0
 40
0.0
 40
0.2
 40
0.2
 40
0.2
 40
0.2
 40
0.4
 40
0.4
 40
0.4
 40
0.4
 40
0.6
 40
0.6
 40
0.6
 40
0.6
 40
1.0
 40
1.0
 40
1.0
 40
1.0
 10
19.4447
 20
-94.9121
 30
0.0
 10
17.1041
 20
-93.6948
 30
0.0
 10
15.4569
 20
-92.5994
 30
0.0
 10
14.0697
 20
-91.2603
 30
0.0
 10
14.0697
 20
-91.2603
 30
0.0
 10
16.9306
 20
-89.9215
 30
0.0
 10
19.5312
 20
-88.5825
 30
0.0
 10
21.8718
 20
-87.1219
 30
0.0
 10
21.8718
 20
-87.1219
 30
0.0
 10
23.3457
 20
-88.7043
 30
0.0
 10
24.9926
 20
-90.043
 30
0.0
 10
26.7265
 20
-91.1385
 30
0.0
 10
26.7265
 20
-91.1385
 30
0.0
 10
24.3859
 20
-92.7212
 30
0.0
 10
21.9585
 20
-93.9381
 30
0.0
 10
19.4447
 20
-94.9121
 30
0.0
  0
SPLINE
  5
B2
330
1F
100
AcDbEntity
  8
layer 1
 62
     7
100
AcDbSpline
210
0.0
220
0.0
230
1.0
 70
    11
 71
     3
 72
    16
 73
    12
 74
     0
 42
0.0000000001
 43
0.0000000001
 12
1.0
 22
0.0
 32
0.0
 13
1.0
 23
0.0
 33
0.0
 40
0.0
 40
0.0
 40
0.0
 40
0.0
 40
0.25
 40
0.25
 40
0.25
 40
0.25
 40
0.5
 40
0.5
 40
0.5
 40
0.5
 40
1.0
 40
1.0
 40
1.0
 40
1.0
 10
-3.0948
 20
-82.9833
 30
0.0
 10
1.9332
 20
-87.9738
 30
0.0
 10
9.302
 20
-92.5994
 30
0.0
 10
18.3175
 20
-96.2509
 30
0.0
 10
18.3175
 20
-96.2509
 30
0.0
 10
12.3361
 20
-93.0862
 30
0.0
 10
6.8746
 20
-88.5825
 30
0.0
 10
1.4999
 20
-81.8878
 30
0.0
 10
1.4999
 20
-81.8878
 30
0.0
 10
0.4595
 20
-82.6182
 30
0.0
 10
-1.1876
 20
-82.8618
 30
0.0
 10
-3.0948
 20
-82.9833
 30
0.0
  0
SPLINE
  5
B3
330
1F
100
AcDbEntity
  8
layer 1
 62
     7
100
AcDbSpline
210
0.0
220
0.0
230
1.0
 70
    11
 71
     3
 72
    20
 73
    16
 74
     0
 42
0.0000000001
 43
0.0000000001
 12
1.0
 22
0.0
 32
0.0
 13
1.0
 23
0.0
 33
0.0
 40
0.0
 40
0.0
 40
0.0
 40
0.0
 40
0.2
 40
0.2
 40
0.2
 40
0.2
 40
0.4
 40
0.4
 40
0.4
 40
0.4
 40
0.6
 40
0.6
 40
0.6
 40
0.6
 40
1.0
 40
1.0
 40
1.0
 40
1.0
 10
-17.1385
 20
-95.1554
 30
0.0
 10
-17.1385
 20
-95.1554
 30
0.0
 10
-17.1385
 20
-100.6328
 30
0.0
 10
-17.1385
 20
-100.6328
 30
0.0
 10
-17.1385
 20
-100.6328
 30
0.0
 10
-4.4817
 20
-101.6065
 30
0.0
 10
6.3544
 20
-100.0241
 30
0.0
 10
15.3702
 20
-96.6159
 30
0.0
 10
15.3702
 20
-96.6159
 30
0.0
 10
15.3702
 20
-96.6159
 30
0.0
 10
6.9614
 20
-93.208
 30
0.0
 10
6.9614
 20
-93.208
 30
0.0
 10
6.9614
 20
-93.208
 30
0.0
 10
0.3728
 20
-95.0336
 30
0.0
 10
-7.4293
 20
-95.764
 30
0.0
 10
-17.1385
 20
-95.1554
 30
0.0
  0
SPLINE
  5
B4
330
1F
100
AcDbEntity
  8
layer 1
 62
     7
100
AcDbSpline
210
0.0
220
0.0
230
1.0
 70
    11
 71
     3
 72
    20
 73
    16
 74
     0
 42
0.0000000001
 43
0.0000000001
 12
1.0
 22
0.0
 32
0.0
 13
1.0
 23
0.0
 33
0.0
 40
0.0
 40
0.0
 40
0.0
 40
0.0
 40
0.2
 40
0.2
 40
0.2
 40
0.2
 40
0.4
 40
0.4
 40
0.4
 40
0.4
 40
0.6
 40
0.6
 40
0.6
 40
0.6
 40
1.0
 40
1.0
 40
1.0
 40
1.0
 10
-17.1385
 20
-89.0693
 30
0.0
 10
-14.4512
 20
-93.573
 30
0.0
 10
-6.8223
 20
-87.6088
 30
0.0
 10
-5.9554
 20
-82.8618
 30
0.0
 10
-5.9554
 20
-82.8618
 30
0.0
 10
-2.3043
 20
-87.2286
 30
0.0
 10
-1.1562
 20
-88.9806
 30
0.0
 10
3.4936
 20
-91.2603
 30
0.0
 10
3.4936
 20
-91.2603
 30
0.0
 10
-2.2278
 20
-92.4776
 30
0.0
 10
-9.0762
 20
-92.7212
 30
0.0
 10
-17.1385
 20
-92.1125
 30
0.0
 10
-17.1385
 20
-92.1125
 30
0.0
 10
-17.1385
 20
-92.1125
 30
0.0
 10
-17.1385
 20
-89.0693
 30
0.0
 10
-17.1385
 20
-89.0693
 30
0.0
  0
SPLINE
  5
B5
330
1F
100
AcDbEntity
  8
layer 1
 62
     7
100
AcDbSpline
210
0.0
220
0.0
230
1.0
 70
    11
 71
     3
 72
    20
 73
    16
 74
     0
 42
0.0000000001
 43
0.0000000001
 12
1.0
 22
0.0
 32
0.0
 13
1.0
 23
0.0
 33
0.0
 40
0.0
 40
0.0
 40
0.0
 40
0.0
 40
0.2
 40
0.2
 40
0.2
 40
0.2
 40
0.4
 40
0.4
 40
0.4
 40
0.4
 40
0.6
 40
0.6
 40
0.6
 40
0.6
 40
1.0
 40
1.0
 40
1.0
 40
1.0
 10
24.9926
 20
-12.2636
 30
0.0
 10
24.9926
 20
-12.2636
 30
0.0
 10
21.0916
 20
-6.4212
 30
0.0
 10
21.0916
 20
-6.4212
 30
0.0
 10
21.0916
 20
-6.4212
 30
0.0
 10
21.0916
 20
-6.4212
 30
0.0
 10
24.2992
 20
-2.0392
 30
0.0
 10
24.2992
 20
-2.0392
 30
0.0
 10
24.2992
 20
-2.0392
 30
0.0
 10
24.2992
 20
-2.0392
 30
0.0
 10
28.2869
 20
-7.6385
 30
0.0
 10
28.2869
 20
-7.6385
 30
0.0
 10
28.2869
 20
-7.6385
 30
0.0
 10
28.2869
 20
-7.6385
 30
0.0
 10
24.9926
 20
-12.2636
 30
0.0
 10
24.9926
 20
-12.2636
 30
0.0
  0
ENDSEC
  0
SECTION
  2
OBJECTS
  0
DICTIONARY
  5
C
330
0
100
AcDbDictionary
281
     1
  3
ACAD_GROUP
350
D
  3
ACAD_LAYOUT
350
1A
  3
ACAD_MATERIAL
350
3B
  3
ACAD_MLEADERSTYLE
350
D7
  3
ACAD_MLINESTYLE
350
17
  3
ACAD_PLOTSETTINGS
350
19
  3
ACAD_PLOTSTYLENAME
350
E
  3
ACAD_TABLESTYLE
350
D6
  3
ACAD_VISUALSTYLE
350
2A
  0
DICTIONARY
  5
D
102
{ACAD_REACTORS
330
C
102
}
330
C
100
AcDbDictionary
281
     1
  0
DICTIONARY
  5
1A
102
{ACAD_REACTORS
330
C
102
}
330
C
100
AcDbDictionary
281
     1
  3
Layout1
350
1E
  3
Layout2
350
26
  3
Model
350
22
  0
DICTIONARY
  5
3B
102
{ACAD_REACTORS
330
C
102
}
330
C
100
AcDbDictionary
281
     1
  3
ByBlock
350
3D
  3
ByLayer
350
3C
  3
Global
350
3E
  0
DICTIONARY
  5
D7
102
{ACAD_REACTORS
330
C
102
}
330
C
100
AcDbDictionary
281
     1
  0
DICTIONARY
  5
17
102
{ACAD_REACTORS
330
C
102
}
330
C
100
AcDbDictionary
281
     1
  3
Standard
350
18
  0
DICTIONARY
  5
19
102
{ACAD_REACTORS
330
C
102
}
330
C
100
AcDbDictionary
281
     1
  0
ACDBDICTIONARYWDFLT
  5
E
102
{ACAD_REACTORS
330
C
102
}
330
C
100
AcDbDictionary
281
     1
  3
Normal
350
F
100
AcDbDictionaryWithDefault
340
F
  0
DICTIONARY
  5
D6
102
{ACAD_REACTORS
330
C
102
}
330
C
100
AcDbDictionary
281
     1
  0
DICTIONARY
  5
2A
102
{ACAD_REACTORS
330
C
102
}
330
C
100
AcDbDictionary
281
     1
  3
2dWireframe
350
2F
  3
3D Hidden
350
31
  3
3dWireframe
350
30
  3
Basic
350
32
  3
Brighten
350
36
  3
ColorChange
350
3A
  3
Conceptual
350
34
  3
Dim
350
35
  3
Facepattern
350
39
  3
Flat
350
2B
  3
FlatWithEdges
350
2C
  3
Gouraud
350
2D
  3
GouraudWithEdges
350
2E
  3
Linepattern
350
38
  3
Realistic
350
33
  3
Thicken
350
37
  0
LAYOUT
  5
1E
102
{ACAD_REACTORS
330
1A
102
}
330
1A
100
AcDbPlotSettings
  1

  2
none_device
  4

  6

 40
0.0
 41
0.0
 42
0.0
 43
0.0
 44
0.0
 45
0.0
 46
0.0
 47
0.0
 48
0.0
 49
0.0
140
0.0
141
0.0
142
1.0
143
1.0
 70
   688
 72
     0
 73
     0
 74
     5
  7

 75
    16
 76
     0
 77
     2
 78
   300
147
1.0
148
0.0
149
0.0
100
AcDbLayout
  1
Layout1
 70
     1
 71
     1
 10
0.0
 20
0.0
 11
12.0
 21
9.0
 12
0.0
 22
0.0
 32
0.0
 14
1.000000000000000E+20
 24
1.000000000000000E+20
 34
1.000000000000000E+20
 15
-1.000000000000000E+20
 25
-1.000000000000000E+20
 35
-1.000000000000000E+20
146
0.0
 13
0.0
 23
0.0
 33
0.0
 16
1.0
 26
0.0
 36
0.0
 17
0.0
 27
1.0
 37
0.0
 76
     0
330
1B
  0
LAYOUT
  5
26
102
{ACAD_REACTORS
330
1A
102
}
330
1A
100
AcDbPlotSettings
  1

  2
none_device
  4

  6

 40
0.0
 41
0.0
 42
0.0
 43
0.0
 44
0.0
 45
0.0
 46
0.0
 47
0.0
 48
0.0
 49
0.0
140
0.0
141
0.0
142
1.0
143
1.0
 70
   688
 72
     0
 73
     0
 74
     5
  7

 75
    16
 76
     0
 77
     2
 78
   300
147
1.0
148
0.0
149
0.0
100
AcDbLayout
  1
Layout2
 70
     1
 71
     2
 10
0.0
 20
0.0
 11
0.0
 21
0.0
 12
0.0
 22
0.0
 32
0.0
 14
0.0
 24
0.0
 34
0.0
 15
0.0
 25
0.0
 35
0.0
146
0.0
 13
0.0
 23
0.0
 33
0.0
 16
1.0
 26
0.0
 36
0.0
 17
0.0
 27
1.0
 37
0.0
 76
     0
330
23
  0
LAYOUT
  5
22
102
{ACAD_REACTORS
330
1A
102
}
330
1A
100
AcDbPlotSettings
  1

  2
none_device
  4

  6

 40
0.0
 41
0.0
 42
0.0
 43
0.0
 44
0.0
 45
0.0
 46
0.0
 47
0.0
 48
0.0
 49
0.0
140
0.0
141
0.0
142
1.0
143
1.0
 70
  1712
 72
     0
 73
     0
 74
     0
  7

 75
     0
 76
     0
 77
     2
 78
   300
147
1.0
148
0.0
149
0.0
100
AcDbLayout
  1
Model
 70
     1
 71
     0
 10
0.0
 20
0.0
 11
12.0
 21
9.0
 12
0.0
 22
0.0
 32
0.0
 14
-26.0154
 24
-114.9424
 34
0.0
 15
86.4036
 25
131.9914
 35
0.0
146
0.0
 13
0.0
 23
0.0
 33
0.0
 16
1.0
 26
0.0
 36
0.0
 17
0.0
 27
1.0
 37
0.0
 76
     0
330
1F
331
29
  0
MATERIAL
  5
3D
102
{ACAD_REACTORS
330
3B
102
}
330
3B
100
AcDbMaterial
  1
ByBlock
 72
     1
 94
      127
  0
MATERIAL
  5
3C
102
{ACAD_REACTORS
330
3B
102
}
330
3B
100
AcDbMaterial
  1
ByLayer
 72
     1
 94
      127
  0
MATERIAL
  5
3E
102
{ACAD_REACTORS
330
3B
102
}
330
3B
100
AcDbMaterial
  1
Global
 72
     1
 94
      127
  0
MLINESTYLE
  5
18
102
{ACAD_REACTORS
330
17
102
}
330
17
100
AcDbMlineStyle
  2
Standard
 70
     0
  3

 62
   256
 51
90.0
 52
90.0
 71
     2
 49
0.5
 62
   256
  6
BYLAYER
 49
-0.5
 62
   256
  6
BYLAYER
  0
ACDBPLACEHOLDER
  5
F
102
{ACAD_REACTORS
330
E
102
}
330
E
  0
VISUALSTYLE
  5
2F
102
{ACAD_REACTORS
330
2A
102
}
102
{ACAD_XDICTIONARY
360
BE
102
}
330
2A
100
AcDbVisualStyle
  2
2dWireframe
 70
     4
 71
     0
 72
     2
 73
     0
 90
        0
 40
-0.6
 41
-30.0
 62
     5
 63
     7
421
 16777215
 74
     1
 91
        4
 64
     7
 65
   257
 75
     1
175
     1
 42
1.0
 92
        0
 66
   257
 43
1.0
 76
     1
 77
     6
 78
     2
 67
     7
 79
     5
170
     0
171
     0
290
     0
174
     0
 93
        1
 44
0.0
173
     0
291
     0
 45
0.0
  0
VISUALSTYLE
  5
31
102
{ACAD_REACTORS
330
2A
102
}
102
{ACAD_XDICTIONARY
360
C2
102
}
330
2A
100
AcDbVisualStyle
  2
3D Hidden
 70
     6
 71
     1
 72
     2
 73
     2
 90
        0
 40
-0.6
 41
-30.0
 62
     5
 63
     7
421
 16777215
 74
     2
 91
        2
 64
     7
 65
   257
 75
     2
175
     1
 42
40.0
 92
        0
 66
   257
 43
1.0
 76
     1
 77
     6
 78
     2
 67
     7
 79
     3
170
     0
171
     0
290
     0
174
     0
 93
        1
 44
0.0
173
     0
291
     0
 45
0.0
  0
VISUALSTYLE
  5
30
102
{ACAD_REACTORS
330
2A
102
}
102
{ACAD_XDICTIONARY
360
C0
102
}
330
2A
100
AcDbVisualStyle
  2
3dWireframe
 70
     5
 71
     0
 72
     2
 73
     0
 90
        0
 40
-0.6
 41
-30.0
 62
     5
 63
     7
421
 16777215
 74
     1
 91
        4
 64
     7
 65
   257
 75
     1
175
     1
 42
1.0
 92
        0
 66
   257
 43
1.0
 76
     1
 77
     6
 78
     2
 67
     7
 79
     5
170
     0
171
     0
290
     0
174
     0
 93
        1
 44
0.0
173
     0
291
     0
 45
0.0
  0
VISUALSTYLE
  5
32
102
{ACAD_REACTORS
330
2A
102
}
102
{ACAD_XDICTIONARY
360
C4
102
}
330
2A
100
AcDbVisualStyle
  2
Basic
 70
     7
 71
     1
 72
     0
 73
     1
 90
        0
 40
-0.6
 41
-30.0
 62
     5
 63
     7
421
 16777215
 74
     0
 91
        4
 64
     7
 65
   257
 75
     1
175
     1
 42
1.0
 92
        8
 66
     7
 43
1.0
 76
     1
 77
     6
 78
     2
 67
     7
 79
     5
170
     0
171
     0
290
     0
174
     0
 93
        1
 44
0.0
173
     0
291
     1
 45
0.0
  0
VISUALSTYLE
  5
36
102
{ACAD_REACTORS
330
2A
102
}
102
{ACAD_XDICTIONARY
360
CC
102
}
330
2A
100
AcDbVisualStyle
  2
Brighten
 70
    12
 71
     2
 72
     2
 73
     0
 90
        0
 40
-0.6
 41
-30.0
 62
     5
 63
     7
421
 16777215
 74
     1
 91
        4
 64
     7
 65
   257
 75
     1
175
     1
 42
1.0
 92
        8
 66
     7
 43
1.0
 76
     1
 77
     6
 78
     2
 67
     7
 79
     5
170
     0
171
     0
290
     0
174
     0
 93
        1
 44
50.0
173
     0
291
     1
 45
0.0
  0
VISUALSTYLE
  5
3A
102
{ACAD_REACTORS
330
2A
102
}
102
{ACAD_XDICTIONARY
360
D4
102
}
330
2A
100
AcDbVisualStyle
  2
ColorChange
 70
    16
 71
     2
 72
     2
 73
     3
 90
        0
 40
-0.6
 41
-30.0
 62
     5
 63
     8
421
  8421504
 74
     1
 91
        4
 64
     7
 65
   257
 75
     1
175
     1
 42
1.0
 92
        8
 66
     8
424
  8421504
 43
1.0
 76
     1
 77
     6
 78
     2
 67
     7
 79
     5
170
     0
171
     0
290
     0
174
     0
 93
        1
 44
0.0
173
     0
291
     1
 45
0.0
  0
VISUALSTYLE
  5
34
102
{ACAD_REACTORS
330
2A
102
}
102
{ACAD_XDICTIONARY
360
C8
102
}
330
2A
100
AcDbVisualStyle
  2
Conceptual
 70
     9
 71
     3
 72
     2
 73
     0
 90
        0
 40
-0.6
 41
-30.0
 62
     5
 63
     7
421
 16777215
 74
     2
 91
        2
 64
     7
 65
   257
 75
     1
175
     1
 42
40.0
 92
        8
 66
     7
 43
1.0
 76
     1
 77
     6
 78
     2
 67
     7
 79
     3
170
     0
171
     0
290
     0
174
     0
 93
        1
 44
0.0
173
     0
291
     0
 45
0.0
  0
VISUALSTYLE
  5
35
102
{ACAD_REACTORS
330
2A
102
}
102
{ACAD_XDICTIONARY
360
CA
102
}
330
2A
100
AcDbVisualStyle
  2
Dim
 70
    11
 71
     2
 72
     2
 73
     0
 90
        0
 40
-0.6
 41
-30.0
 62
     5
 63
     7
421
 16777215
 74
     1
 91
        4
 64
     7
 65
   257
 75
     1
175
     1
 42
1.0
 92
        8
 66
     7
 43
1.0
 76
     1
 77
     6
 78
     2
 67
     7
 79
     5
170
     0
171
     0
290
     0
174
     0
 93
        1
 44
-50.0
173
     0
291
     1
 45
0.0
  0
VISUALSTYLE
  5
39
102
{ACAD_REACTORS
330
2A
102
}
102
{ACAD_XDICTIONARY
360
D2
102
}
330
2A
100
AcDbVisualStyle
  2
Facepattern
 70
    15
 71
     2
 72
     2
 73
     0
 90
        0
 40
-0.6
 41
-30.0
 62
     5
 63
     7
421
 16777215
 74
     1
 91
        4
 64
     7
 65
   257
 75
     1
175
     1
 42
1.0
 92
        8
 66
     7
 43
1.0
 76
     1
 77
     6
 78
     2
 67
     7
 79
     5
170
     0
171
     0
290
     0
174
     0
 93
        1
 44
0.0
173
     0
291
     1
 45
0.0
  0
VISUALSTYLE
  5
2B
102
{ACAD_REACTORS
330
2A
102
}
102
{ACAD_XDICTIONARY
360
B6
102
}
330
2A
100
AcDbVisualStyle
  2
Flat
 70
     0
 71
     2
 72
     1
 73
     1
 90
        2
 40
-0.6
 41
30.0
 62
     5
 63
     7
421
 16777215
 74
     0
 91
        4
 64
     7
 65
   257
 75
     1
175
     1
 42
1.0
 92
        8
 66
     7
 43
1.0
 76
     1
 77
     6
 78
     2
 67
     7
 79
     5
170
     0
171
     0
290
     0
174
     0
 93
       13
 44
0.0
173
     0
291
     1
 45
0.0
  0
VISUALSTYLE
  5
2C
102
{ACAD_REACTORS
330
2A
102
}
102
{ACAD_XDICTIONARY
360
B8
102
}
330
2A
100
AcDbVisualStyle
  2
FlatWithEdges
 70
     1
 71
     2
 72
     1
 73
     1
 90
        2
 40
-0.6
 41
30.0
 62
     5
 63
     7
421
 16777215
 74
     1
 91
        4
 64
     7
 65
   257
 75
     1
175
     1
 42
1.0
 92
        0
 66
   257
 43
1.0
 76
     1
 77
     6
 78
     2
 67
     7
 79
     5
170
     0
171
     0
290
     0
174
     0
 93
       13
 44
0.0
173
     0
291
     1
 45
0.0
  0
VISUALSTYLE
  5
2D
102
{ACAD_REACTORS
330
2A
102
}
102
{ACAD_XDICTIONARY
360
BA
102
}
330
2A
100
AcDbVisualStyle
  2
Gouraud
 70
     2
 71
     2
 72
     2
 73
     1
 90
        2
 40
-0.6
 41
30.0
 62
     5
 63
     7
421
 16777215
 74
     0
 91
        4
 64
     7
 65
   257
 75
     1
175
     1
 42
1.0
 92
        0
 66
     7
 43
1.0
 76
     1
 77
     6
 78
     2
 67
     7
 79
     5
170
     0
171
     0
290
     0
174
     0
 93
       13
 44
0.0
173
     0
291
     1
 45
0.0
  0
VISUALSTYLE
  5
2E
102
{ACAD_REACTORS
330
2A
102
}
102
{ACAD_XDICTIONARY
360
BC
102
}
330
2A
100
AcDbVisualStyle
  2
GouraudWithEdges
 70
     3
 71
     2
 72
     2
 73
     1
 90
        2
 40
-0.6
 41
30.0
 62
     5
 63
     7
421
 16777215
 74
     1
 91
        4
 64
     7
 65
   257
 75
     1
175
     1
 42
1.0
 92
        0
 66
   257
 43
1.0
 76
     1
 77
     6
 78
     2
 67
     7
 79
     5
170
     0
171
     0
290
     0
174
     0
 93
       13
 44
0.0
173
     0
291
     1
 45
0.0
  0
VISUALSTYLE
  5
38
102
{ACAD_REACTORS
330
2A
102
}
102
{ACAD_XDICTIONARY
360
D0
102
}
330
2A
100
AcDbVisualStyle
  2
Linepattern
 70
    14
 71
     2
 72
     2
 73
     0
 90
        0
 40
-0.6
 41
-30.0
 62
     5
 63
     7
421
 16777215
 74
     1
 91
        4
 64
     7
 65
   257
 75
     7
175
     7
 42
1.0
 92
        8
 66
     7
 43
1.0
 76
     1
 77
     6
 78
     2
 67
     7
 79
     5
170
     0
171
     0
290
     0
174
     0
 93
        1
 44
0.0
173
     0
291
     1
 45
0.0
  0
VISUALSTYLE
  5
33
102
{ACAD_REACTORS
330
2A
102
}
102
{ACAD_XDICTIONARY
360
C6
102
}
330
2A
100
AcDbVisualStyle
  2
Realistic
 70
     8
 71
     2
 72
     2
 73
     0
 90
        0
 40
-0.6
 41
-30.0
 62
     5
 63
     7
421
 16777215
 74
     1
 91
        0
 64
     7
 65
   257
 75
     1
175
     1
 42
1.0
 92
        8
 66
     8
424
  7895160
 43
1.0
 76
     1
 77
     6
 78
     2
 67
     7
 79
     5
170
     0
171
     0
290
     0
174
     0
 93
       13
 44
0.0
173
     0
291
     0
 45
0.0
  0
VISUALSTYLE
  5
37
102
{ACAD_REACTORS
330
2A
102
}
102
{ACAD_XDICTIONARY
360
CE
102
}
330
2A
100
AcDbVisualStyle
  2
Thicken
 70
    13
 71
     2
 72
     2
 73
     0
 90
        0
 40
-0.6
 41
-30.0
 62
     5
 63
     7
421
 16777215
 74
     1
 91
        4
 64
     7
 65
   257
 75
     1
175
     1
 42
1.0
 92
       12
 66
     7
 43
1.0
 76
     1
 77
     6
 78
     2
 67
     7
 79
     5
170
     0
171
     0
290
     0
174
     0
 93
        1
 44
0.0
173
     0
291
     1
 45
0.0
  0
DICTIONARY
  5
BE
330
2F
100
AcDbDictionary
280
     1
281
     1
  3
ACAD_XREC_ROUNDTRIP
360
BF
  0
DICTIONARY
  5
C2
330
31
100
AcDbDictionary
280
     1
281
     1
  3
ACAD_XREC_ROUNDTRIP
360
C3
  0
DICTIONARY
  5
C0
330
30
100
AcDbDictionary
280
     1
281
     1
  3
ACAD_XREC_ROUNDTRIP
360
C1
  0
DICTIONARY
  5
C4
330
32
100
AcDbDictionary
280
     1
281
     1
  3
ACAD_XREC_ROUNDTRIP
360
C5
  0
DICTIONARY
  5
CC
330
36
100
AcDbDictionary
280
     1
281
     1
  3
ACAD_XREC_ROUNDTRIP
360
CD
  0
DICTIONARY
  5
D4
330
3A
100
AcDbDictionary
280
     1
281
     1
  3
ACAD_XREC_ROUNDTRIP
360
D5
  0
DICTIONARY
  5
C8
330
34
100
AcDbDictionary
280
     1
281
     1
  3
ACAD_XREC_ROUNDTRIP
360
C9
  0
DICTIONARY
  5
CA
330
35
100
AcDbDictionary
280
     1
281
     1
  3
ACAD_XREC_ROUNDTRIP
360
CB
  0
DICTIONARY
  5
D2
330
39
100
AcDbDictionary
280
     1
281
     1
  3
ACAD_XREC_ROUNDTRIP
360
D3
  0
DICTIONARY
  5
B6
330
2B
100
AcDbDictionary
280
     1
281
     1
  3
ACAD_XREC_ROUNDTRIP
360
B7
  0
DICTIONARY
  5
B8
330
2C
100
AcDbDictionary
280
     1
281
     1
  3
ACAD_XREC_ROUNDTRIP
360
B9
  0
DICTIONARY
  5
BA
330
2D
100
AcDbDictionary
280
     1
281
     1
  3
ACAD_XREC_ROUNDTRIP
360
BB
  0
DICTIONARY
  5
BC
330
2E
100
AcDbDictionary
280
     1
281
     1
  3
ACAD_XREC_ROUNDTRIP
360
BD
  0
DICTIONARY
  5
D0
330
38
100
AcDbDictionary
280
     1
281
     1
  3
ACAD_XREC_ROUNDTRIP
360
D1
  0
DICTIONARY
  5
C6
330
33
100
AcDbDictionary
280
     1
281
     1
  3
ACAD_XREC_ROUNDTRIP
360
C7
  0
DICTIONARY
  5
CE
330
37
100
AcDbDictionary
280
     1
281
     1
  3
ACAD_XREC_ROUNDTRIP
360
CF
  0
XRECORD
  5
BF
102
{ACAD_REACTORS
330
BE
102
}
330
BE
100
AcDbXrecord
280
     1
102
RTVSPropertyOp0
 70
     1
102
RTVSPropertyOp1
 70
     1
102
RTVSPropertyOp2
 70
     1
102
RTVSPropertyOp3
 70
     1
102
RTVSPropertyOp4
 70
     1
102
RTVSPropertyOp5
 70
     1
102
RTVSPropertyOp6
 70
     1
102
RTVSPropertyOp7
 70
     1
102
RTVSPropertyOp8
 70
     1
102
RTVSPropertyOp9
 70
     1
102
RTVSPropertyOp10
 70
     1
102
RTVSPropertyOp11
 70
     1
102
RTVSPropertyOp12
 70
     1
102
RTVSPropertyOp13
 70
     1
102
RTVSPropertyOp14
 70
     1
102
RTVSPropertyOp15
 70
     1
102
RTVSPropertyOp16
 70
     1
102
RTVSPropertyOp17
 70
     1
102
RTVSPropertyOp18
 70
     1
102
RTVSPropertyOp19
 70
     1
102
RTVSPropertyOp20
 70
     1
102
RTVSPropertyOp21
 70
     1
102
RTVSPropertyOp22
 70
     1
102
RTVSPropertyOp23
 70
     1
102
RTVSPropertyOp24
 70
     1
102
RTVSPropertyOp25
 70
     1
102
RTVSPropertyOp26
 70
     1
102
RTVSPropertyOp27
 70
     1
102
RTVSPropertyOp28
 70
     1
102
RTVSPropertyOp29
 70
     1
102
RTVSPropertyOp30
 70
     1
102
RTVSPropertyOp31
 70
     1
102
RTVSPropertyOp32
 70
     1
  0
XRECORD
  5
C3
102
{ACAD_REACTORS
330
C2
102
}
330
C2
100
AcDbXrecord
280
     1
102
RTVSPropertyOp0
 70
     1
102
RTVSPropertyOp1
 70
     1
102
RTVSPropertyOp2
 70
     1
102
RTVSPropertyOp3
 70
     1
102
RTVSPropertyOp4
 70
     1
102
RTVSPropertyOp5
 70
     1
102
RTVSPropertyOp6
 70
     1
102
RTVSPropertyOp7
 70
     1
102
RTVSPropertyOp8
 70
     1
102
RTVSPropertyOp9
 70
     1
102
RTVSPropertyOp10
 70
     1
102
RTVSPropertyOp11
 70
     1
102
RTVSPropertyOp12
 70
     1
102
RTVSPropertyOp13
 70
     1
102
RTVSPropertyOp14
 70
     1
102
RTVSPropertyOp15
 70
     1
102
RTVSPropertyOp16
 70
     1
102
RTVSPropertyOp17
 70
     1
102
RTVSPropertyOp18
 70
     1
102
RTVSPropertyOp19
 70
     1
102
RTVSPropertyOp20
 70
     1
102
RTVSPropertyOp21
 70
     1
102
RTVSPropertyOp22
 70
     1
102
RTVSPropertyOp23
 70
     1
102
RTVSPropertyOp24
 70
     1
102
RTVSPropertyOp25
 70
     1
102
RTVSPropertyOp26
 70
     1
102
RTVSPropertyOp27
 70
     1
102
RTVSPropertyOp28
 70
     1
102
RTVSPropertyOp29
 70
     1
102
RTVSPropertyOp30
 70
     1
102
RTVSPropertyOp31
 70
     1
102
RTVSPropertyOp32
 70
     1
  0
XRECORD
  5
C1
102
{ACAD_REACTORS
330
C0
102
}
330
C0
100
AcDbXrecord
280
     1
102
RTVSPropertyOp0
 70
     1
102
RTVSPropertyOp1
 70
     1
102
RTVSPropertyOp2
 70
     1
102
RTVSPropertyOp3
 70
     1
102
RTVSPropertyOp4
 70
     1
102
RTVSPropertyOp5
 70
     1
102
RTVSPropertyOp6
 70
     1
102
RTVSPropertyOp7
 70
     1
102
RTVSPropertyOp8
 70
     1
102
RTVSPropertyOp9
 70
     1
102
RTVSPropertyOp10
 70
     1
102
RTVSPropertyOp11
 70
     1
102
RTVSPropertyOp12
 70
     1
102
RTVSPropertyOp13
 70
     1
102
RTVSPropertyOp14
 70
     1
102
RTVSPropertyOp15
 70
     1
102
RTVSPropertyOp16
 70
     1
102
RTVSPropertyOp17
 70
     1
102
RTVSPropertyOp18
 70
     1
102
RTVSPropertyOp19
 70
     1
102
RTVSPropertyOp20
 70
     1
102
RTVSPropertyOp21
 70
     1
102
RTVSPropertyOp22
 70
     1
102
RTVSPropertyOp23
 70
     1
102
RTVSPropertyOp24
 70
     1
102
RTVSPropertyOp25
 70
     1
102
RTVSPropertyOp26
 70
     1
102
RTVSPropertyOp27
 70
     1
102
RTVSPropertyOp28
 70
     1
102
RTVSPropertyOp29
 70
     1
102
RTVSPropertyOp30
 70
     1
102
RTVSPropertyOp31
 70
     1
102
RTVSPropertyOp32
 70
     1
  0
XRECORD
  5
C5
102
{ACAD_REACTORS
330
C4
102
}
330
C4
100
AcDbXrecord
280
     1
102
RTVSPropertyOp0
 70
     1
102
RTVSPropertyOp1
 70
     1
102
RTVSPropertyOp2
 70
     1
102
RTVSPropertyOp3
 70
     1
102
RTVSPropertyOp4
 70
     1
102
RTVSPropertyOp5
 70
     1
102
RTVSPropertyOp6
 70
     1
102
RTVSPropertyOp7
 70
     1
102
RTVSPropertyOp8
 70
     1
102
RTVSPropertyOp9
 70
     1
102
RTVSPropertyOp10
 70
     1
102
RTVSPropertyOp11
 70
     1
102
RTVSPropertyOp12
 70
     1
102
RTVSPropertyOp13
 70
     1
102
RTVSPropertyOp14
 70
     1
102
RTVSPropertyOp15
 70
     1
102
RTVSPropertyOp16
 70
     1
102
RTVSPropertyOp17
 70
     1
102
RTVSPropertyOp18
 70
     1
102
RTVSPropertyOp19
 70
     1
102
RTVSPropertyOp20
 70
     1
102
RTVSPropertyOp21
 70
     1
102
RTVSPropertyOp22
 70
     1
102
RTVSPropertyOp23
 70
     1
102
RTVSPropertyOp24
 70
     1
102
RTVSPropertyOp25
 70
     1
102
RTVSPropertyOp26
 70
     1
102
RTVSPropertyOp27
 70
     1
102
RTVSPropertyOp28
 70
     1
102
RTVSPropertyOp29
 70
     1
102
RTVSPropertyOp30
 70
     1
102
RTVSPropertyOp31
 70
     1
102
RTVSPropertyOp32
 70
     1
  0
XRECORD
  5
CD
102
{ACAD_REACTORS
330
CC
102
}
330
CC
100
AcDbXrecord
280
     1
102
RTVSPropertyOp0
 70
     1
102
RTVSPropertyOp1
 70
     1
102
RTVSPropertyOp2
 70
     1
102
RTVSPropertyOp3
 70
     1
102
RTVSPropertyOp4
 70
     1
102
RTVSPropertyOp5
 70
     1
102
RTVSPropertyOp6
 70
     1
102
RTVSPropertyOp7
 70
     1
102
RTVSPropertyOp8
 70
     1
102
RTVSPropertyOp9
 70
     1
102
RTVSPropertyOp10
 70
     1
102
RTVSPropertyOp11
 70
     1
102
RTVSPropertyOp12
 70
     1
102
RTVSPropertyOp13
 70
     1
102
RTVSPropertyOp14
 70
     1
102
RTVSPropertyOp15
 70
     1
102
RTVSPropertyOp16
 70
     1
102
RTVSPropertyOp17
 70
     1
102
RTVSPropertyOp18
 70
     1
102
RTVSPropertyOp19
 70
     1
102
RTVSPropertyOp20
 70
     1
102
RTVSPropertyOp21
 70
     1
102
RTVSPropertyOp22
 70
     1
102
RTVSPropertyOp23
 70
     1
102
RTVSPropertyOp24
 70
     1
102
RTVSPropertyOp25
 70
     1
102
RTVSPropertyOp26
 70
     1
102
RTVSPropertyOp27
 70
     1
102
RTVSPropertyOp28
 70
     1
102
RTVSPropertyOp29
 70
     1
102
RTVSPropertyOp30
 70
     1
102
RTVSPropertyOp31
 70
     1
102
RTVSPropertyOp32
 70
     1
  0
XRECORD
  5
D5
102
{ACAD_REACTORS
330
D4
102
}
330
D4
100
AcDbXrecord
280
     1
102
RTVSPropertyOp0
 70
     1
102
RTVSPropertyOp1
 70
     1
102
RTVSPropertyOp2
 70
     1
102
RTVSPropertyOp3
 70
     1
102
RTVSPropertyOp4
 70
     1
102
RTVSPropertyOp5
 70
     1
102
RTVSPropertyOp6
 70
     1
102
RTVSPropertyOp7
 70
     1
102
RTVSPropertyOp8
 70
     1
102
RTVSPropertyOp9
 70
     1
102
RTVSPropertyOp10
 70
     1
102
RTVSPropertyOp11
 70
     1
102
RTVSPropertyOp12
 70
     1
102
RTVSPropertyOp13
 70
     1
102
RTVSPropertyOp14
 70
     1
102
RTVSPropertyOp15
 70
     1
102
RTVSPropertyOp16
 70
     1
102
RTVSPropertyOp17
 70
     1
102
RTVSPropertyOp18
 70
     1
102
RTVSPropertyOp19
 70
     1
102
RTVSPropertyOp20
 70
     1
102
RTVSPropertyOp21
 70
     1
102
RTVSPropertyOp22
 70
     1
102
RTVSPropertyOp23
 70
     1
102
RTVSPropertyOp24
 70
     1
102
RTVSPropertyOp25
 70
     1
102
RTVSPropertyOp26
 70
     1
102
RTVSPropertyOp27
 70
     1
102
RTVSPropertyOp28
 70
     1
102
RTVSPropertyOp29
 70
     1
102
RTVSPropertyOp30
 70
     1
102
RTVSPropertyOp31
 70
     1
102
RTVSPropertyOp32
 70
     1
  0
XRECORD
  5
C9
102
{ACAD_REACTORS
330
C8
102
}
330
C8
100
AcDbXrecord
280
     1
102
RTVSPropertyOp0
 70
     1
102
RTVSPropertyOp1
 70
     1
102
RTVSPropertyOp2
 70
     1
102
RTVSPropertyOp3
 70
     1
102
RTVSPropertyOp4
 70
     1
102
RTVSPropertyOp5
 70
     1
102
RTVSPropertyOp6
 70
     1
102
RTVSPropertyOp7
 70
     1
102
RTVSPropertyOp8
 70
     1
102
RTVSPropertyOp9
 70
     1
102
RTVSPropertyOp10
 70
     1
102
RTVSPropertyOp11
 70
     1
102
RTVSPropertyOp12
 70
     1
102
RTVSPropertyOp13
 70
     1
102
RTVSPropertyOp14
 70
     1
102
RTVSPropertyOp15
 70
     1
102
RTVSPropertyOp16
 70
     1
102
RTVSPropertyOp17
 70
     1
102
RTVSPropertyOp18
 70
     1
102
RTVSPropertyOp19
 70
     1
102
RTVSPropertyOp20
 70
     1
102
RTVSPropertyOp21
 70
     1
102
RTVSPropertyOp22
 70
     1
102
RTVSPropertyOp23
 70
     1
102
RTVSPropertyOp24
 70
     1
102
RTVSPropertyOp25
 70
     1
102
RTVSPropertyOp26
 70
     1
102
RTVSPropertyOp27
 70
     1
102
RTVSPropertyOp28
 70
     1
102
RTVSPropertyOp29
 70
     1
102
RTVSPropertyOp30
 70
     1
102
RTVSPropertyOp31
 70
     1
102
RTVSPropertyOp32
 70
     1
  0
XRECORD
  5
CB
102
{ACAD_REACTORS
330
CA
102
}
330
CA
100
AcDbXrecord
280
     1
102
RTVSPropertyOp0
 70
     1
102
RTVSPropertyOp1
 70
     1
102
RTVSPropertyOp2
 70
     1
102
RTVSPropertyOp3
 70
     1
102
RTVSPropertyOp4
 70
     1
102
RTVSPropertyOp5
 70
     1
102
RTVSPropertyOp6
 70
     1
102
RTVSPropertyOp7
 70
     1
102
RTVSPropertyOp8
 70
     1
102
RTVSPropertyOp9
 70
     1
102
RTVSPropertyOp10
 70
     1
102
RTVSPropertyOp11
 70
     1
102
RTVSPropertyOp12
 70
     1
102
RTVSPropertyOp13
 70
     1
102
RTVSPropertyOp14
 70
     1
102
RTVSPropertyOp15
 70
     1
102
RTVSPropertyOp16
 70
     1
102
RTVSPropertyOp17
 70
     1
102
RTVSPropertyOp18
 70
     1
102
RTVSPropertyOp19
 70
     1
102
RTVSPropertyOp20
 70
     1
102
RTVSPropertyOp21
 70
     1
102
RTVSPropertyOp22
 70
     1
102
RTVSPropertyOp23
 70
     1
102
RTVSPropertyOp24
 70
     1
102
RTVSPropertyOp25
 70
     1
102
RTVSPropertyOp26
 70
     1
102
RTVSPropertyOp27
 70
     1
102
RTVSPropertyOp28
 70
     1
102
RTVSPropertyOp29
 70
     1
102
RTVSPropertyOp30
 70
     1
102
RTVSPropertyOp31
 70
     1
102
RTVSPropertyOp32
 70
     1
  0
XRECORD
  5
D3
102
{ACAD_REACTORS
330
D2
102
}
330
D2
100
AcDbXrecord
280
     1
102
RTVSPropertyOp0
 70
     1
102
RTVSPropertyOp1
 70
     1
102
RTVSPropertyOp2
 70
     1
102
RTVSPropertyOp3
 70
     1
102
RTVSPropertyOp4
 70
     1
102
RTVSPropertyOp5
 70
     1
102
RTVSPropertyOp6
 70
     1
102
RTVSPropertyOp7
 70
     1
102
RTVSPropertyOp8
 70
     1
102
RTVSPropertyOp9
 70
     1
102
RTVSPropertyOp10
 70
     1
102
RTVSPropertyOp11
 70
     1
102
RTVSPropertyOp12
 70
     1
102
RTVSPropertyOp13
 70
     1
102
RTVSPropertyOp14
 70
     1
102
RTVSPropertyOp15
 70
     1
102
RTVSPropertyOp16
 70
     1
102
RTVSPropertyOp17
 70
     1
102
RTVSPropertyOp18
 70
     1
102
RTVSPropertyOp19
 70
     1
102
RTVSPropertyOp20
 70
     1
102
RTVSPropertyOp21
 70
     1
102
RTVSPropertyOp22
 70
     1
102
RTVSPropertyOp23
 70
     1
102
RTVSPropertyOp24
 70
     1
102
RTVSPropertyOp25
 70
     1
102
RTVSPropertyOp26
 70
     1
102
RTVSPropertyOp27
 70
     1
102
RTVSPropertyOp28
 70
     1
102
RTVSPropertyOp29
 70
     1
102
RTVSPropertyOp30
 70
     1
102
RTVSPropertyOp31
 70
     1
102
RTVSPropertyOp32
 70
     1
  0
XRECORD
  5
B7
102
{ACAD_REACTORS
330
B6
102
}
330
B6
100
AcDbXrecord
280
     1
102
RTVSPropertyOp0
 70
     1
102
RTVSPropertyOp1
 70
     1
102
RTVSPropertyOp2
 70
     1
102
RTVSPropertyOp3
 70
     1
102
RTVSPropertyOp4
 70
     1
102
RTVSPropertyOp5
 70
     1
102
RTVSPropertyOp6
 70
     1
102
RTVSPropertyOp7
 70
     1
102
RTVSPropertyOp8
 70
     1
102
RTVSPropertyOp9
 70
     1
102
RTVSPropertyOp10
 70
     1
102
RTVSPropertyOp11
 70
     1
102
RTVSPropertyOp12
 70
     1
102
RTVSPropertyOp13
 70
     1
102
RTVSPropertyOp14
 70
     1
102
RTVSPropertyOp15
 70
     1
102
RTVSPropertyOp16
 70
     1
102
RTVSPropertyOp17
 70
     1
102
RTVSPropertyOp18
 70
     1
102
RTVSPropertyOp19
 70
     1
102
RTVSPropertyOp20
 70
     1
102
RTVSPropertyOp21
 70
     1
102
RTVSPropertyOp22
 70
     1
102
RTVSPropertyOp23
 70
     1
102
RTVSPropertyOp24
 70
     1
102
RTVSPropertyOp25
 70
     1
102
RTVSPropertyOp26
 70
     1
102
RTVSPropertyOp27
 70
     1
102
RTVSPropertyOp28
 70
     1
102
RTVSPropertyOp29
 70
     1
102
RTVSPropertyOp30
 70
     1
102
RTVSPropertyOp31
 70
     1
102
RTVSPropertyOp32
 70
     1
  0
XRECORD
  5
B9
102
{ACAD_REACTORS
330
B8
102
}
330
B8
100
AcDbXrecord
280
     1
102
RTVSPropertyOp0
 70
     1
102
RTVSPropertyOp1
 70
     1
102
RTVSPropertyOp2
 70
     1
102
RTVSPropertyOp3
 70
     1
102
RTVSPropertyOp4
 70
     1
102
RTVSPropertyOp5
 70
     1
102
RTVSPropertyOp6
 70
     1
102
RTVSPropertyOp7
 70
     1
102
RTVSPropertyOp8
 70
     1
102
RTVSPropertyOp9
 70
     1
102
RTVSPropertyOp10
 70
     1
102
RTVSPropertyOp11
 70
     1
102
RTVSPropertyOp12
 70
     1
102
RTVSPropertyOp13
 70
     1
102
RTVSPropertyOp14
 70
     1
102
RTVSPropertyOp15
 70
     1
102
RTVSPropertyOp16
 70
     1
102
RTVSPropertyOp17
 70
     1
102
RTVSPropertyOp18
 70
     1
102
RTVSPropertyOp19
 70
     1
102
RTVSPropertyOp20
 70
     1
102
RTVSPropertyOp21
 70
     1
102
RTVSPropertyOp22
 70
     1
102
RTVSPropertyOp23
 70
     1
102
RTVSPropertyOp24
 70
     1
102
RTVSPropertyOp25
 70
     1
102
RTVSPropertyOp26
 70
     1
102
RTVSPropertyOp27
 70
     1
102
RTVSPropertyOp28
 70
     1
102
RTVSPropertyOp29
 70
     1
102
RTVSPropertyOp30
 70
     1
102
RTVSPropertyOp31
 70
     1
102
RTVSPropertyOp32
 70
     1
  0
XRECORD
  5
BB
102
{ACAD_REACTORS
330
BA
102
}
330
BA
100
AcDbXrecord
280
     1
102
RTVSPropertyOp0
 70
     1
102
RTVSPropertyOp1
 70
     1
102
RTVSPropertyOp2
 70
     1
102
RTVSPropertyOp3
 70
     1
102
RTVSPropertyOp4
 70
     1
102
RTVSPropertyOp5
 70
     1
102
RTVSPropertyOp6
 70
     1
102
RTVSPropertyOp7
 70
     1
102
RTVSPropertyOp8
 70
     1
102
RTVSPropertyOp9
 70
     1
102
RTVSPropertyOp10
 70
     1
102
RTVSPropertyOp11
 70
     1
102
RTVSPropertyOp12
 70
     1
102
RTVSPropertyOp13
 70
     1
102
RTVSPropertyOp14
 70
     1
102
RTVSPropertyOp15
 70
     1
102
RTVSPropertyOp16
 70
     1
102
RTVSPropertyOp17
 70
     1
102
RTVSPropertyOp18
 70
     1
102
RTVSPropertyOp19
 70
     1
102
RTVSPropertyOp20
 70
     1
102
RTVSPropertyOp21
 70
     1
102
RTVSPropertyOp22
 70
     1
102
RTVSPropertyOp23
 70
     1
102
RTVSPropertyOp24
 70
     1
102
RTVSPropertyOp25
 70
     1
102
RTVSPropertyOp26
 70
     1
102
RTVSPropertyOp27
 70
     1
102
RTVSPropertyOp28
 70
     1
102
RTVSPropertyOp29
 70
     1
102
RTVSPropertyOp30
 70
     1
102
RTVSPropertyOp31
 70
     1
102
RTVSPropertyOp32
 70
     1
  0
XRECORD
  5
BD
102
{ACAD_REACTORS
330
BC
102
}
330
BC
100
AcDbXrecord
280
     1
102
RTVSPropertyOp0
 70
     1
102
RTVSPropertyOp1
 70
     1
102
RTVSPropertyOp2
 70
     1
102
RTVSPropertyOp3
 70
     1
102
RTVSPropertyOp4
 70
     1
102
RTVSPropertyOp5
 70
     1
102
RTVSPropertyOp6
 70
     1
102
RTVSPropertyOp7
 70
     1
102
RTVSPropertyOp8
 70
     1
102
RTVSPropertyOp9
 70
     1
102
RTVSPropertyOp10
 70
     1
102
RTVSPropertyOp11
 70
     1
102
RTVSPropertyOp12
 70
     1
102
RTVSPropertyOp13
 70
     1
102
RTVSPropertyOp14
 70
     1
102
RTVSPropertyOp15
 70
     1
102
RTVSPropertyOp16
 70
     1
102
RTVSPropertyOp17
 70
     1
102
RTVSPropertyOp18
 70
     1
102
RTVSPropertyOp19
 70
     1
102
RTVSPropertyOp20
 70
     1
102
RTVSPropertyOp21
 70
     1
102
RTVSPropertyOp22
 70
     1
102
RTVSPropertyOp23
 70
     1
102
RTVSPropertyOp24
 70
     1
102
RTVSPropertyOp25
 70
     1
102
RTVSPropertyOp26
 70
     1
102
RTVSPropertyOp27
 70
     1
102
RTVSPropertyOp28
 70
     1
102
RTVSPropertyOp29
 70
     1
102
RTVSPropertyOp30
 70
     1
102
RTVSPropertyOp31
 70
     1
102
RTVSPropertyOp32
 70
     1
  0
XRECORD
  5
D1
102
{ACAD_REACTORS
330
D0
102
}
330
D0
100
AcDbXrecord
280
     1
102
RTVSPropertyOp0
 70
     1
102
RTVSPropertyOp1
 70
     1
102
RTVSPropertyOp2
 70
     1
102
RTVSPropertyOp3
 70
     1
102
RTVSPropertyOp4
 70
     1
102
RTVSPropertyOp5
 70
     1
102
RTVSPropertyOp6
 70
     1
102
RTVSPropertyOp7
 70
     1
102
RTVSPropertyOp8
 70
     1
102
RTVSPropertyOp9
 70
     1
102
RTVSPropertyOp10
 70
     1
102
RTVSPropertyOp11
 70
     1
102
RTVSPropertyOp12
 70
     1
102
RTVSPropertyOp13
 70
     1
102
RTVSPropertyOp14
 70
     1
102
RTVSPropertyOp15
 70
     1
102
RTVSPropertyOp16
 70
     1
102
RTVSPropertyOp17
 70
     1
102
RTVSPropertyOp18
 70
     1
102
RTVSPropertyOp19
 70
     1
102
RTVSPropertyOp20
 70
     1
102
RTVSPropertyOp21
 70
     1
102
RTVSPropertyOp22
 70
     1
102
RTVSPropertyOp23
 70
     1
102
RTVSPropertyOp24
 70
     1
102
RTVSPropertyOp25
 70
     1
102
RTVSPropertyOp26
 70
     1
102
RTVSPropertyOp27
 70
     1
102
RTVSPropertyOp28
 70
     1
102
RTVSPropertyOp29
 70
     1
102
RTVSPropertyOp30
 70
     1
102
RTVSPropertyOp31
 70
     1
102
RTVSPropertyOp32
 70
     1
  0
XRECORD
  5
C7
102
{ACAD_REACTORS
330
C6
102
}
330
C6
100
AcDbXrecord
280
     1
102
RTVSPropertyOp0
 70
     1
102
RTVSPropertyOp1
 70
     1
102
RTVSPropertyOp2
 70
     1
102
RTVSPropertyOp3
 70
     1
102
RTVSPropertyOp4
 70
     1
102
RTVSPropertyOp5
 70
     1
102
RTVSPropertyOp6
 70
     1
102
RTVSPropertyOp7
 70
     1
102
RTVSPropertyOp8
 70
     1
102
RTVSPropertyOp9
 70
     1
102
RTVSPropertyOp10
 70
     1
102
RTVSPropertyOp11
 70
     1
102
RTVSPropertyOp12
 70
     1
102
RTVSPropertyOp13
 70
     1
102
RTVSPropertyOp14
 70
     1
102
RTVSPropertyOp15
 70
     1
102
RTVSPropertyOp16
 70
     1
102
RTVSPropertyOp17
 70
     1
102
RTVSPropertyOp18
 70
     1
102
RTVSPropertyOp19
 70
     1
102
RTVSPropertyOp20
 70
     1
102
RTVSPropertyOp21
 70
     1
102
RTVSPropertyOp22
 70
     1
102
RTVSPropertyOp23
 70
     1
102
RTVSPropertyOp24
 70
     1
102
RTVSPropertyOp25
 70
     1
102
RTVSPropertyOp26
 70
     1
102
RTVSPropertyOp27
 70
     1
102
RTVSPropertyOp28
 70
     1
102
RTVSPropertyOp29
 70
     1
102
RTVSPropertyOp30
 70
     1
102
RTVSPropertyOp31
 70
     1
102
RTVSPropertyOp32
 70
     1
  0
XRECORD
  5
CF
102
{ACAD_REACTORS
330
CE
102
}
330
CE
100
AcDbXrecord
280
     1
102
RTVSPropertyOp0
 70
     1
102
RTVSPropertyOp1
 70
     1
102
RTVSPropertyOp2
 70
     1
102
RTVSPropertyOp3
 70
     1
102
RTVSPropertyOp4
 70
     1
102
RTVSPropertyOp5
 70
     1
102
RTVSPropertyOp6
 70
     1
102
RTVSPropertyOp7
 70
     1
102
RTVSPropertyOp8
 70
     1
102
RTVSPropertyOp9
 70
     1
102
RTVSPropertyOp10
 70
     1
102
RTVSPropertyOp11
 70
     1
102
RTVSPropertyOp12
 70
     1
102
RTVSPropertyOp13
 70
     1
102
RTVSPropertyOp14
 70
     1
102
RTVSPropertyOp15
 70
     1
102
RTVSPropertyOp16
 70
     1
102
RTVSPropertyOp17
 70
     1
102
RTVSPropertyOp18
 70
     1
102
RTVSPropertyOp19
 70
     1
102
RTVSPropertyOp20
 70
     1
102
RTVSPropertyOp21
 70
     1
102
RTVSPropertyOp22
 70
     1
102
RTVSPropertyOp23
 70
     1
102
RTVSPropertyOp24
 70
     1
102
RTVSPropertyOp25
 70
     1
102
RTVSPropertyOp26
 70
     1
102
RTVSPropertyOp27
 70
     1
102
RTVSPropertyOp28
 70
     1
102
RTVSPropertyOp29
 70
     1
102
RTVSPropertyOp30
 70
     1
102
RTVSPropertyOp31
 70
     1
102
RTVSPropertyOp32
 70
     1
  0
ENDSEC
  0
EOF
