  0
SECTION
  2
HEADER
  9
$ACADVER
  1
AC1021
  9
$ACADMAINTVER
 70
    25
  9
$DWGCODEPAGE
  3
ANSI_1252
  9
$INSBASE
 10
0.0
 20
0.0
 30
0.0
  9
$EXTMIN
 10
-187.399
 20
-114.985
 30
0.0
  9
$EXTMAX
 10
-32.3042
 20
132.0345
 30
0.0
  9
$LIMMIN
 10
0.0
 20
0.0
  9
$LIMMAX
 10
12.0
 20
9.0
  9
$ORTHOMODE
 70
     0
  9
$REGENMODE
 70
     1
  9
$FILLMODE
 70
     1
  9
$QTEXTMODE
 70
     0
  9
$MIRRTEXT
 70
     1
  9
$LTSCALE
 40
1.0
  9
$ATTMODE
 70
     1
  9
$TEXTSIZE
 40
0.2
  9
$TRACEWID
 40
0.05
  9
$TEXTSTYLE
  7
Standard
  9
$CLAYER
  8
0
  9
$CELTYPE
  6
ByLayer
  9
$CECOLOR
 62
   256
  9
$CELTSCALE
 40
1.0
  9
$DISPSILH
 70
     0
  9
$DIMSCALE
 40
1.0
  9
$DIMASZ
 40
0.18
  9
$DIMEXO
 40
0.0625
  9
$DIMDLI
 40
0.38
  9
$DIMRND
 40
0.0
  9
$DIMDLE
 40
0.0
  9
$DIMEXE
 40
0.18
  9
$DIMTP
 40
0.0
  9
$DIMTM
 40
0.0
  9
$DIMTXT
 40
0.18
  9
$DIMCEN
 40
0.09
  9
$DIMTSZ
 40
0.0
  9
$DIMTOL
 70
     0
  9
$DIMLIM
 70
     0
  9
$DIMTIH
 70
     1
  9
$DIMTOH
 70
     1
  9
$DIMSE1
 70
     0
  9
$DIMSE2
 70
     0
  9
$DIMTAD
 70
     0
  9
$DIMZIN
 70
     0
  9
$DIMBLK
  1

  9
$DIMASO
 70
     1
  9
$DIMSHO
 70
     1
  9
$DIMPOST
  1

  9
$DIMAPOST
  1

  9
$DIMALT
 70
     0
  9
$DIMALTD
 70
     2
  9
$DIMALTF
 40
25.4
  9
$DIMLFAC
 40
1.0
  9
$DIMTOFL
 70
     0
  9
$DIMTVP
 40
0.0
  9
$DIMTIX
 70
     0
  9
$DIMSOXD
 70
     0
  9
$DIMSAH
 70
     0
  9
$DIMBLK1
  1

  9
$DIMBLK2
  1

  9
$DIMSTYLE
  2
Standard
  9
$DIMCLRD
 70
     0
  9
$DIMCLRE
 70
     0
  9
$DIMCLRT
 70
     0
  9
$DIMTFAC
 40
1.0
  9
$DIMGAP
 40
0.09
  9
$DIMJUST
 70
     0
  9
$DIMSD1
 70
     0
  9
$DIMSD2
 70
     0
  9
$DIMTOLJ
 70
     1
  9
$DIMTZIN
 70
     0
  9
$DIMALTZ
 70
     0
  9
$DIMALTTZ
 70
     0
  9
$DIMUPT
 70
     0
  9
$DIMDEC
 70
     4
  9
$DIMTDEC
 70
     4
  9
$DIMALTU
 70
     2
  9
$DIMALTTD
 70
     2
  9
$DIMTXSTY
  7
Standard
  9
$DIMAUNIT
 70
     0
  9
$DIMADEC
 70
     0
  9
$DIMALTRND
 40
0.0
  9
$DIMAZIN
 70
     0
  9
$DIMDSEP
 70
    46
  9
$DIMATFIT
 70
     3
  9
$DIMFRAC
 70
     0
  9
$DIMLDRBLK
  1

  9
$DIMLUNIT
 70
     2
  9
$DIMLWD
 70
    -2
  9
$DIMLWE
 70
    -2
  9
$DIMTMOVE
 70
     0
  9
$DIMFXL
 40
1.0
  9
$DIMFXLON
 70
     0
  9
$DIMJOGANG
 40
0.7853981633974483
  9
$DIMTFILL
 70
     0
  9
$DIMTFILLCLR
 70
     0
  9
$DIMARCSYM
 70
     0
  9
$DIMLTYPE
  6

  9
$DIMLTEX1
  6

  9
$DIMLTEX2
  6

  9
$LUNITS
 70
     2
  9
$LUPREC
 70
     4
  9
$SKETCHINC
 40
0.1
  9
$FILLETRAD
 40
0.5
  9
$AUNITS
 70
     0
  9
$AUPREC
 70
     0
  9
$MENU
  1
.
  9
$ELEVATION
 40
0.0
  9
$PELEVATION
 40
0.0
  9
$THICKNESS
 40
0.0
  9
$LIMCHECK
 70
     0
  9
$CHAMFERA
 40
0.5
  9
$CHAMFERB
 40
0.5
  9
$CHAMFERC
 40
1.0
  9
$CHAMFERD
 40
0.0
  9
$SKPOLY
 70
     0
  9
$TDCREATE
 40
2458492.857366007
  9
$TDUCREATE
 40
2458492.857366007
  9
$TDUPDATE
 40
2458492.857366459
  9
$TDUUPDATE
 40
2458492.857366459
  9
$TDINDWG
 40
0.0000000116
  9
$TDUSRTIMER
 40
0.0000000116
  9
$USRTIMER
 70
     1
  9
$ANGBASE
 50
0.0
  9
$ANGDIR
 70
     0
  9
$PDMODE
 70
     0
  9
$PDSIZE
 40
0.0
  9
$PLINEWID
 40
0.0
  9
$SPLFRAME
 70
     0
  9
$SPLINETYPE
 70
     6
  9
$SPLINESEGS
 70
     8
  9
$HANDSEED
  5
15A
  9
$SURFTAB1
 70
     6
  9
$SURFTAB2
 70
     6
  9
$SURFTYPE
 70
     6
  9
$SURFU
 70
     6
  9
$SURFV
 70
     6
  9
$UCSBASE
  2

  9
$UCSNAME
  2

  9
$UCSORG
 10
0.0
 20
0.0
 30
0.0
  9
$UCSXDIR
 10
1.0
 20
0.0
 30
0.0
  9
$UCSYDIR
 10
0.0
 20
1.0
 30
0.0
  9
$UCSORTHOREF
  2

  9
$UCSORTHOVIEW
 70
     0
  9
$UCSORGTOP
 10
0.0
 20
0.0
 30
0.0
  9
$UCSORGBOTTOM
 10
0.0
 20
0.0
 30
0.0
  9
$UCSORGLEFT
 10
0.0
 20
0.0
 30
0.0
  9
$UCSORGRIGHT
 10
0.0
 20
0.0
 30
0.0
  9
$UCSORGFRONT
 10
0.0
 20
0.0
 30
0.0
  9
$UCSORGBACK
 10
0.0
 20
0.0
 30
0.0
  9
$PUCSBASE
  2

  9
$PUCSNAME
  2

  9
$PUCSORG
 10
0.0
 20
0.0
 30
0.0
  9
$PUCSXDIR
 10
1.0
 20
0.0
 30
0.0
  9
$PUCSYDIR
 10
0.0
 20
1.0
 30
0.0
  9
$PUCSORTHOREF
  2

  9
$PUCSORTHOVIEW
 70
     0
  9
$PUCSORGTOP
 10
0.0
 20
0.0
 30
0.0
  9
$PUCSORGBOTTOM
 10
0.0
 20
0.0
 30
0.0
  9
$PUCSORGLEFT
 10
0.0
 20
0.0
 30
0.0
  9
$PUCSORGRIGHT
 10
0.0
 20
0.0
 30
0.0
  9
$PUCSORGFRONT
 10
0.0
 20
0.0
 30
0.0
  9
$PUCSORGBACK
 10
0.0
 20
0.0
 30
0.0
  9
$USERI1
 70
     0
  9
$USERI2
 70
     0
  9
$USERI3
 70
     0
  9
$USERI4
 70
     0
  9
$USERI5
 70
     0
  9
$USERR1
 40
0.0
  9
$USERR2
 40
0.0
  9
$USERR3
 40
0.0
  9
$USERR4
 40
0.0
  9
$USERR5
 40
0.0
  9
$WORLDVIEW
 70
     1
  9
$SHADEDGE
 70
     3
  9
$SHADEDIF
 70
    70
  9
$TILEMODE
 70
     1
  9
$MAXACTVP
 70
    64
  9
$PINSBASE
 10
0.0
 20
0.0
 30
0.0
  9
$PLIMCHECK
 70
     0
  9
$PEXTMIN
 10
1.000000000000000E+20
 20
1.000000000000000E+20
 30
1.000000000000000E+20
  9
$PEXTMAX
 10
-1.000000000000000E+20
 20
-1.000000000000000E+20
 30
-1.000000000000000E+20
  9
$PLIMMIN
 10
0.0
 20
0.0
  9
$PLIMMAX
 10
12.0
 20
9.0
  9
$UNITMODE
 70
     0
  9
$VISRETAIN
 70
     1
  9
$PLINEGEN
 70
     0
  9
$PSLTSCALE
 70
     1
  9
$TREEDEPTH
 70
  3020
  9
$CMLSTYLE
  2
Standard
  9
$CMLJUST
 70
     0
  9
$CMLSCALE
 40
1.0
  9
$PROXYGRAPHICS
 70
     1
  9
$MEASUREMENT
 70
     0
  9
$CELWEIGHT
370
    -1
  9
$ENDCAPS
280
     0
  9
$JOINSTYLE
280
     0
  9
$LWDISPLAY
290
     0
  9
$INSUNITS
 70
     4
  9
$HYPERLINKBASE
  1

  9
$STYLESHEET
  1

  9
$XEDIT
290
     1
  9
$CEPSNTYPE
380
     0
  9
$PSTYLEMODE
290
     1
  9
$FINGERPRINTGUID
  2
{12BF532F-E506-4E5F-8BB1-BAC93EDEA3F6}
  9
$VERSIONGUID
  2
{FAEB1C32-E019-11D5-929B-00C0DF256EC4}
  9
$EXTNAMES
290
     1
  9
$PSVPSCALE
 40
0.0
  9
$OLESTARTUP
290
     0
  9
$SORTENTS
280
   127
  9
$INDEXCTL
280
     0
  9
$HIDETEXT
280
     1
  9
$XCLIPFRAME
290
     0
  9
$HALOGAP
280
     0
  9
$OBSCOLOR
 70
   257
  9
$OBSLTYPE
280
     0
  9
$INTERSECTIONDISPLAY
280
     0
  9
$INTERSECTIONCOLOR
 70
   257
  9
$DIMASSOC
280
     2
  9
$PROJECTNAME
  1

  9
$CAMERADISPLAY
290
     0
  9
$LENSLENGTH
 40
50.0
  9
$CAMERAHEIGHT
 40
0.0
  9
$STEPSPERSEC
 40
2.0
  9
$STEPSIZE
 40
6.0
  9
$3DDWFPREC
 40
2.0
  9
$PSOLWIDTH
 40
0.25
  9
$PSOLHEIGHT
 40
4.0
  9
$LOFTANG1
 40
1.570796326794897
  9
$LOFTANG2
 40
1.570796326794897
  9
$LOFTMAG1
 40
0.0
  9
$LOFTMAG2
 40
0.0
  9
$LOFTPARAM
 70
     7
  9
$LOFTNORMALS
280
     1
  9
$LATITUDE
 40
37.795
  9
$LONGITUDE
 40
-122.394
  9
$NORTHDIRECTION
 40
0.0
  9
$TIMEZONE
 70
 -8000
  9
$LIGHTGLYPHDISPLAY
280
     1
  9
$TILEMODELIGHTSYNCH
280
     1
  9
$SOLIDHIST
280
     1
  9
$SHOWHIST
280
     1
  9
$DWFFRAME
280
     2
  9
$DGNFRAME
280
     2
  9
$REALWORLDSCALE
290
     1
  9
$INTERFERECOLOR
 62
   256
  9
$CSHADOW
280
     0
  9
$SHADOWPLANELOCATION
 40
0.0
  0
ENDSEC
  0
SECTION
  2
CLASSES
  0
CLASS
  1
ACDBDICTIONARYWDFLT
  2
AcDbDictionaryWithDefault
  3
ObjectDBX Classes
 90
        0
 91
        4
280
     0
281
     0
  0
CLASS
  1
VISUALSTYLE
  2
AcDbVisualStyle
  3
ObjectDBX Classes
 90
     4095
 91
        4
280
     0
281
     0
  0
CLASS
  1
MATERIAL
  2
AcDbMaterial
  3
ObjectDBX Classes
 90
     1153
 91
        4
280
     0
281
     0
  0
ENDSEC
  0
SECTION
  2
TABLES
  0
TABLE
  2
VPORT
  5
8
330
0
100
AcDbSymbolTable
 70
     1
  0
VPORT
  5
29
330
8
100
AcDbSymbolTableRecord
100
AcDbViewportTableRecord
  2
*Active
 70
     0
 10
0.0
 20
0.0
 11
1.0
 21
1.0
 12
10.42990654205607
 22
4.5
 13
0.0
 23
0.0
 14
0.5
 24
0.5
 15
0.5
 25
0.5
 16
0.0
 26
0.0
 36
1.0
 17
0.0
 27
0.0
 37
0.0
 40
9.0
 41
1.972972972850329
 42
50.0
 43
0.0
 44
0.0
 50
0.0
 51
0.0
 71
     0
 72
   100
 73
     1
 74
     3
 75
     0
 76
     0
 77
     0
 78
     0
281
     0
 65
     1
110
0.0
120
0.0
130
0.0
111
1.0
121
0.0
131
0.0
112
0.0
122
1.0
132
0.0
 79
     0
146
0.0
 60
     3
 61
     5
292
     1
282
     1
141
0.0
142
0.0
 63
   250
  0
ENDTAB
  0
TABLE
  2
LTYPE
  5
5
330
0
100
AcDbSymbolTable
 70
     1
  0
LTYPE
  5
14
330
5
100
AcDbSymbolTableRecord
100
AcDbLinetypeTableRecord
  2
ByBlock
 70
     0
  3

 72
    65
 73
     0
 40
0.0
  0
LTYPE
  5
15
330
5
100
AcDbSymbolTableRecord
100
AcDbLinetypeTableRecord
  2
ByLayer
 70
     0
  3

 72
    65
 73
     0
 40
0.0
  0
LTYPE
  5
16
330
5
100
AcDbSymbolTableRecord
100
AcDbLinetypeTableRecord
  2
Continuous
 70
     0
  3
Solid line
 72
    65
 73
     0
 40
0.0
  0
ENDTAB
  0
TABLE
  2
LAYER
  5
2
330
0
100
AcDbSymbolTable
 70
     2
  0
LAYER
  5
10
330
2
100
AcDbSymbolTableRecord
100
AcDbLayerTableRecord
  2
0
 70
     0
 62
     7
  6
Continuous
370
    -3
390
F
347
3E
  0
LAYER
  5
40
330
2
100
AcDbSymbolTableRecord
100
AcDbLayerTableRecord
  2
layer 1
 70
     0
 62
     7
  6
Continuous
370
    -3
390
F
347
3E
  0
ENDTAB
  0
TABLE
  2
STYLE
  5
3
330
0
100
AcDbSymbolTable
 70
     1
  0
STYLE
  5
11
330
3
100
AcDbSymbolTableRecord
100
AcDbTextStyleTableRecord
  2
Standard
 70
     0
 40
0.0
 41
1.0
 50
0.0
 71
     0
 42
0.2
  3
txt
  4

  0
ENDTAB
  0
TABLE
  2
VIEW
  5
6
330
0
100
AcDbSymbolTable
 70
     0
  0
ENDTAB
  0
TABLE
  2
UCS
  5
7
330
0
100
AcDbSymbolTable
 70
     0
  0
ENDTAB
  0
TABLE
  2
APPID
  5
9
330
0
100
AcDbSymbolTable
 70
     2
  0
APPID
  5
12
330
9
100
AcDbSymbolTableRecord
100
AcDbRegAppTableRecord
  2
ACAD
 70
     0
  0
APPID
  5
3F
330
9
100
AcDbSymbolTableRecord
100
AcDbRegAppTableRecord
  2
ODA
 70
     0
  0
ENDTAB
  0
TABLE
  2
DIMSTYLE
  5
A
330
0
100
AcDbSymbolTable
 70
     1
100
AcDbDimStyleTable
  0
DIMSTYLE
105
27
330
A
100
AcDbSymbolTableRecord
100
AcDbDimStyleTableRecord
  2
Standard
 70
     0
178
     0
340
11
  0
ENDTAB
  0
TABLE
  2
BLOCK_RECORD
  5
1
330
0
100
AcDbSymbolTable
 70
     1
  0
BLOCK_RECORD
  5
1F
330
1
100
AcDbSymbolTableRecord
100
AcDbBlockTableRecord
  2
*Model_Space
340
22
 70
     0
280
     1
281
     0
  0
BLOCK_RECORD
  5
1B
330
1
100
AcDbSymbolTableRecord
100
AcDbBlockTableRecord
  2
*Paper_Space
340
1E
 70
     0
280
     1
281
     0
  0
BLOCK_RECORD
  5
23
330
1
100
AcDbSymbolTableRecord
100
AcDbBlockTableRecord
  2
*Paper_Space0
340
26
 70
     0
280
     1
281
     0
  0
ENDTAB
  0
ENDSEC
  0
SECTION
  2
BLOCKS
  0
BLOCK
  5
20
330
1F
100
AcDbEntity
  8
0
100
AcDbBlockBegin
  2
*Model_Space
 70
     0
 10
0.0
 20
0.0
 30
0.0
  3
*Model_Space
  1

  0
ENDBLK
  5
21
330
1F
100
AcDbEntity
  8
0
100
AcDbBlockEnd
  0
BLOCK
  5
1C
330
1B
100
AcDbEntity
 67
     1
  8
0
100
AcDbBlockBegin
  2
*Paper_Space
 70
     0
 10
0.0
 20
0.0
 30
0.0
  3
*Paper_Space
  1

  0
ENDBLK
  5
1D
330
1B
100
AcDbEntity
 67
     1
  8
0
100
AcDbBlockEnd
  0
BLOCK
  5
24
330
23
100
AcDbEntity
  8
0
100
AcDbBlockBegin
  2
*Paper_Space0
 70
     0
 10
0.0
 20
0.0
 30
0.0
  3
*Paper_Space0
  1

  0
ENDBLK
  5
25
330
23
100
AcDbEntity
  8
0
100
AcDbBlockEnd
  0
ENDSEC
  0
SECTION
  2
ENTITIES
  0
SPLINE
  5
41
330
1F
100
AcDbEntity
  8
layer 1
 62
   250
100
AcDbSpline
210
0.0
220
0.0
230
1.0
 70
    11
 71
     3
 72
    20
 73
    16
 74
     0
 42
0.0000000001
 43
0.0000000001
 12
1.0
 22
0.0
 32
0.0
 13
1.0
 23
0.0
 33
0.0
 40
0.0
 40
0.0
 40
0.0
 40
0.0
 40
0.2
 40
0.2
 40
0.2
 40
0.2
 40
0.4
 40
0.4
 40
0.4
 40
0.4
 40
0.6
 40
0.6
 40
0.6
 40
0.6
 40
1.0
 40
1.0
 40
1.0
 40
1.0
 10
-187.399
 20
-114.985
 30
0.0
 10
-187.399
 20
-114.985
 30
0.0
 10
-187.399
 20
132.0345
 30
0.0
 10
-187.399
 20
132.0345
 30
0.0
 10
-187.399
 20
132.0345
 30
0.0
 10
-187.399
 20
132.0345
 30
0.0
 10
-32.3042
 20
132.0345
 30
0.0
 10
-32.3042
 20
132.0345
 30
0.0
 10
-32.3042
 20
132.0345
 30
0.0
 10
-32.3042
 20
132.0345
 30
0.0
 10
-32.3042
 20
-114.985
 30
0.0
 10
-32.3042
 20
-114.985
 30
0.0
 10
-32.3042
 20
-114.985
 30
0.0
 10
-32.3042
 20
-114.985
 30
0.0
 10
-187.399
 20
-114.985
 30
0.0
 10
-187.399
 20
-114.985
 30
0.0
  0
SPLINE
  5
42
330
1F
100
AcDbEntity
  8
layer 1
 62
     7
100
AcDbSpline
210
0.0
220
0.0
230
1.0
 70
    11
 71
     3
 72
    20
 73
    16
 74
     0
 42
0.0000000001
 43
0.0000000001
 12
1.0
 22
0.0
 32
0.0
 13
1.0
 23
0.0
 33
0.0
 40
0.0
 40
0.0
 40
0.0
 40
0.0
 40
0.2
 40
0.2
 40
0.2
 40
0.2
 40
0.4
 40
0.4
 40
0.4
 40
0.4
 40
0.6
 40
0.6
 40
0.6
 40
0.6
 40
1.0
 40
1.0
 40
1.0
 40
1.0
 10
-169.8528
 20
120.482
 30
0.0
 10
-169.8528
 20
120.3613
 30
0.0
 10
-169.9738
 20
120.2403
 30
0.0
 10
-170.2156
 20
120.1192
 30
0.0
 10
-170.2156
 20
120.1192
 30
0.0
 10
-172.5141
 20
118.9095
 30
0.0
 10
-174.3287
 20
117.4579
 30
0.0
 10
-175.9013
 20
115.8854
 30
0.0
 10
-175.9013
 20
115.8854
 30
0.0
 10
-175.9013
 20
115.8854
 30
0.0
 10
-175.9013
 20
120.482
 30
0.0
 10
-175.9013
 20
120.482
 30
0.0
 10
-175.9013
 20
120.482
 30
0.0
 10
-175.9013
 20
120.482
 30
0.0
 10
-169.8528
 20
120.482
 30
0.0
 10
-169.8528
 20
120.482
 30
0.0
  0
SPLINE
  5
43
330
1F
100
AcDbEntity
  8
layer 1
 62
     7
100
AcDbSpline
210
0.0
220
0.0
230
1.0
 70
    11
 71
     3
 72
    16
 73
    12
 74
     0
 42
0.0000000001
 43
0.0000000001
 12
1.0
 22
0.0
 32
0.0
 13
1.0
 23
0.0
 33
0.0
 40
0.0
 40
0.0
 40
0.0
 40
0.0
 40
0.25
 40
0.25
 40
0.25
 40
0.25
 40
0.5
 40
0.5
 40
0.5
 40
0.5
 40
1.0
 40
1.0
 40
1.0
 40
1.0
 10
-174.8125
 20
-103.4322
 30
0.0
 10
-173.6028
 20
-102.1017
 30
0.0
 10
-171.9092
 20
-100.7709
 30
0.0
 10
-171.4253
 20
-101.9807
 30
0.0
 10
-171.4253
 20
-101.9807
 30
0.0
 10
-171.0625
 20
-102.4645
 30
0.0
 10
-170.8204
 20
-102.9483
 30
0.0
 10
-170.4576
 20
-103.4322
 30
0.0
 10
-170.4576
 20
-103.4322
 30
0.0
 10
-170.4576
 20
-103.4322
 30
0.0
 10
-174.8125
 20
-103.4322
 30
0.0
 10
-174.8125
 20
-103.4322
 30
0.0
  0
SPLINE
  5
44
330
1F
100
AcDbEntity
  8
layer 1
 62
     7
100
AcDbSpline
210
0.0
220
0.0
230
1.0
 70
    11
 71
     3
 72
    16
 73
    12
 74
     0
 42
0.0000000001
 43
0.0000000001
 12
1.0
 22
0.0
 32
0.0
 13
1.0
 23
0.0
 33
0.0
 40
0.0
 40
0.0
 40
0.0
 40
0.0
 40
0.25
 40
0.25
 40
0.25
 40
0.25
 40
0.5
 40
0.5
 40
0.5
 40
0.5
 40
1.0
 40
1.0
 40
1.0
 40
1.0
 10
-157.9978
 20
-103.4322
 30
0.0
 10
-156.7881
 20
-102.1017
 30
0.0
 10
-155.0945
 20
-100.7709
 30
0.0
 10
-154.6106
 20
-101.9807
 30
0.0
 10
-154.6106
 20
-101.9807
 30
0.0
 10
-154.3685
 20
-102.4645
 30
0.0
 10
-154.0057
 20
-102.9483
 30
0.0
 10
-153.7636
 20
-103.4322
 30
0.0
 10
-153.7636
 20
-103.4322
 30
0.0
 10
-153.7636
 20
-103.4322
 30
0.0
 10
-157.9978
 20
-103.4322
 30
0.0
 10
-157.9978
 20
-103.4322
 30
0.0
  0
SPLINE
  5
45
330
1F
100
AcDbEntity
  8
layer 1
 62
     7
100
AcDbSpline
210
0.0
220
0.0
230
1.0
 70
    11
 71
     3
 72
    16
 73
    12
 74
     0
 42
0.0000000001
 43
0.0000000001
 12
1.0
 22
0.0
 32
0.0
 13
1.0
 23
0.0
 33
0.0
 40
0.0
 40
0.0
 40
0.0
 40
0.0
 40
0.25
 40
0.25
 40
0.25
 40
0.25
 40
0.5
 40
0.5
 40
0.5
 40
0.5
 40
1.0
 40
1.0
 40
1.0
 40
1.0
 10
-141.1828
 20
-103.4322
 30
0.0
 10
-139.9733
 20
-102.1017
 30
0.0
 10
-138.2797
 20
-100.7709
 30
0.0
 10
-137.7959
 20
-101.9807
 30
0.0
 10
-137.7959
 20
-101.9807
 30
0.0
 10
-137.5538
 20
-102.4645
 30
0.0
 10
-137.3121
 20
-102.9483
 30
0.0
 10
-136.9489
 20
-103.4322
 30
0.0
 10
-136.9489
 20
-103.4322
 30
0.0
 10
-136.9489
 20
-103.4322
 30
0.0
 10
-141.1828
 20
-103.4322
 30
0.0
 10
-141.1828
 20
-103.4322
 30
0.0
  0
SPLINE
  5
46
330
1F
100
AcDbEntity
  8
layer 1
 62
     7
100
AcDbSpline
210
0.0
220
0.0
230
1.0
 70
    11
 71
     3
 72
    16
 73
    12
 74
     0
 42
0.0000000001
 43
0.0000000001
 12
1.0
 22
0.0
 32
0.0
 13
1.0
 23
0.0
 33
0.0
 40
0.0
 40
0.0
 40
0.0
 40
0.0
 40
0.25
 40
0.25
 40
0.25
 40
0.25
 40
0.5
 40
0.5
 40
0.5
 40
0.5
 40
1.0
 40
1.0
 40
1.0
 40
1.0
 10
-124.4891
 20
-103.4322
 30
0.0
 10
-123.2793
 20
-102.1017
 30
0.0
 10
-121.5857
 20
-100.7709
 30
0.0
 10
-121.1019
 20
-101.9807
 30
0.0
 10
-121.1019
 20
-101.9807
 30
0.0
 10
-120.7391
 20
-102.4645
 30
0.0
 10
-120.497
 20
-102.9483
 30
0.0
 10
-120.1342
 20
-103.4322
 30
0.0
 10
-120.1342
 20
-103.4322
 30
0.0
 10
-120.1342
 20
-103.4322
 30
0.0
 10
-124.4891
 20
-103.4322
 30
0.0
 10
-124.4891
 20
-103.4322
 30
0.0
  0
SPLINE
  5
47
330
1F
100
AcDbEntity
  8
layer 1
 62
     7
100
AcDbSpline
210
0.0
220
0.0
230
1.0
 70
    11
 71
     3
 72
    16
 73
    12
 74
     0
 42
0.0000000001
 43
0.0000000001
 12
1.0
 22
0.0
 32
0.0
 13
1.0
 23
0.0
 33
0.0
 40
0.0
 40
0.0
 40
0.0
 40
0.0
 40
0.25
 40
0.25
 40
0.25
 40
0.25
 40
0.5
 40
0.5
 40
0.5
 40
0.5
 40
1.0
 40
1.0
 40
1.0
 40
1.0
 10
-107.6744
 20
-103.4322
 30
0.0
 10
-106.4646
 20
-102.1017
 30
0.0
 10
-104.771
 20
-100.7709
 30
0.0
 10
-104.2872
 20
-101.9807
 30
0.0
 10
-104.2872
 20
-101.9807
 30
0.0
 10
-104.0454
 20
-102.4645
 30
0.0
 10
-103.6823
 20
-102.9483
 30
0.0
 10
-103.4405
 20
-103.4322
 30
0.0
 10
-103.4405
 20
-103.4322
 30
0.0
 10
-103.4405
 20
-103.4322
 30
0.0
 10
-107.6744
 20
-103.4322
 30
0.0
 10
-107.6744
 20
-103.4322
 30
0.0
  0
SPLINE
  5
48
330
1F
100
AcDbEntity
  8
layer 1
 62
     7
100
AcDbSpline
210
0.0
220
0.0
230
1.0
 70
    11
 71
     3
 72
    16
 73
    12
 74
     0
 42
0.0000000001
 43
0.0000000001
 12
1.0
 22
0.0
 32
0.0
 13
1.0
 23
0.0
 33
0.0
 40
0.0
 40
0.0
 40
0.0
 40
0.0
 40
0.25
 40
0.25
 40
0.25
 40
0.25
 40
0.5
 40
0.5
 40
0.5
 40
0.5
 40
1.0
 40
1.0
 40
1.0
 40
1.0
 10
-90.9807
 20
-103.4322
 30
0.0
 10
-89.6499
 20
-102.1017
 30
0.0
 10
-87.9563
 20
-100.7709
 30
0.0
 10
-87.5935
 20
-101.9807
 30
0.0
 10
-87.5935
 20
-101.9807
 30
0.0
 10
-87.2307
 20
-102.4645
 30
0.0
 10
-86.9886
 20
-102.9483
 30
0.0
 10
-86.6258
 20
-103.4322
 30
0.0
 10
-86.6258
 20
-103.4322
 30
0.0
 10
-86.6258
 20
-103.4322
 30
0.0
 10
-90.9807
 20
-103.4322
 30
0.0
 10
-90.9807
 20
-103.4322
 30
0.0
  0
SPLINE
  5
49
330
1F
100
AcDbEntity
  8
layer 1
 62
     7
100
AcDbSpline
210
0.0
220
0.0
230
1.0
 70
    11
 71
     3
 72
    16
 73
    12
 74
     0
 42
0.0000000001
 43
0.0000000001
 12
1.0
 22
0.0
 32
0.0
 13
1.0
 23
0.0
 33
0.0
 40
0.0
 40
0.0
 40
0.0
 40
0.0
 40
0.25
 40
0.25
 40
0.25
 40
0.25
 40
0.5
 40
0.5
 40
0.5
 40
0.5
 40
1.0
 40
1.0
 40
1.0
 40
1.0
 10
-74.166
 20
-103.4322
 30
0.0
 10
-72.9562
 20
-102.1017
 30
0.0
 10
-71.2626
 20
-100.7709
 30
0.0
 10
-70.7788
 20
-101.9807
 30
0.0
 10
-70.7788
 20
-101.9807
 30
0.0
 10
-70.5367
 20
-102.4645
 30
0.0
 10
-70.1739
 20
-102.9483
 30
0.0
 10
-69.9318
 20
-103.4322
 30
0.0
 10
-69.9318
 20
-103.4322
 30
0.0
 10
-69.9318
 20
-103.4322
 30
0.0
 10
-74.166
 20
-103.4322
 30
0.0
 10
-74.166
 20
-103.4322
 30
0.0
  0
SPLINE
  5
4A
330
1F
100
AcDbEntity
  8
layer 1
 62
     7
100
AcDbSpline
210
0.0
220
0.0
230
1.0
 70
    11
 71
     3
 72
    16
 73
    12
 74
     0
 42
0.0000000001
 43
0.0000000001
 12
1.0
 22
0.0
 32
0.0
 13
1.0
 23
0.0
 33
0.0
 40
0.0
 40
0.0
 40
0.0
 40
0.0
 40
0.25
 40
0.25
 40
0.25
 40
0.25
 40
0.5
 40
0.5
 40
0.5
 40
0.5
 40
1.0
 40
1.0
 40
1.0
 40
1.0
 10
-57.351
 20
-103.4322
 30
0.0
 10
-56.1415
 20
-102.1017
 30
0.0
 10
-54.4479
 20
-100.7709
 30
0.0
 10
-53.9641
 20
-101.9807
 30
0.0
 10
-53.9641
 20
-101.9807
 30
0.0
 10
-53.722
 20
-102.4645
 30
0.0
 10
-53.4802
 20
-102.9483
 30
0.0
 10
-53.1171
 20
-103.4322
 30
0.0
 10
-53.1171
 20
-103.4322
 30
0.0
 10
-53.1171
 20
-103.4322
 30
0.0
 10
-57.351
 20
-103.4322
 30
0.0
 10
-57.351
 20
-103.4322
 30
0.0
  0
SPLINE
  5
4B
330
1F
100
AcDbEntity
  8
layer 1
 62
     7
100
AcDbSpline
210
0.0
220
0.0
230
1.0
 70
    11
 71
     3
 72
    20
 73
    16
 74
     0
 42
0.0000000001
 43
0.0000000001
 12
1.0
 22
0.0
 32
0.0
 13
1.0
 23
0.0
 33
0.0
 40
0.0
 40
0.0
 40
0.0
 40
0.0
 40
0.2
 40
0.2
 40
0.2
 40
0.2
 40
0.4
 40
0.4
 40
0.4
 40
0.4
 40
0.6
 40
0.6
 40
0.6
 40
0.6
 40
1.0
 40
1.0
 40
1.0
 40
1.0
 10
-48.3994
 20
-99.4404
 30
0.0
 10
-50.9396
 20
-94.7224
 30
0.0
 10
-54.4479
 20
-91.3352
 30
0.0
 10
-58.6818
 20
-89.1577
 30
0.0
 10
-58.6818
 20
-89.1577
 30
0.0
 10
-59.6494
 20
-88.6739
 30
0.0
 10
-54.8107
 20
-83.1095
 30
0.0
 10
-53.9641
 20
-85.166
 30
0.0
 10
-53.9641
 20
-85.166
 30
0.0
 10
-51.4235
 20
-90.0047
 30
0.0
 10
-47.9156
 20
-92.787
 30
0.0
 10
-44.1655
 20
-94.9645
 30
0.0
 10
-44.1655
 20
-94.9645
 30
0.0
 10
-42.9558
 20
-95.6901
 30
0.0
 10
-47.7945
 20
-100.166
 30
0.0
 10
-48.3994
 20
-99.4404
 30
0.0
  0
SPLINE
  5
4C
330
1F
100
AcDbEntity
  8
layer 1
 62
     7
100
AcDbSpline
210
0.0
220
0.0
230
1.0
 70
    11
 71
     3
 72
    16
 73
    12
 74
     0
 42
0.0000000001
 43
0.0000000001
 12
1.0
 22
0.0
 32
0.0
 13
1.0
 23
0.0
 33
0.0
 40
0.0
 40
0.0
 40
0.0
 40
0.0
 40
0.25
 40
0.25
 40
0.25
 40
0.25
 40
0.5
 40
0.5
 40
0.5
 40
0.5
 40
1.0
 40
1.0
 40
1.0
 40
1.0
 10
-50.2141
 20
-103.4322
 30
0.0
 10
-47.7945
 20
-102.1017
 30
0.0
 10
-45.6171
 20
-100.4081
 30
0.0
 10
-43.8024
 20
-98.4724
 30
0.0
 10
-43.8024
 20
-98.4724
 30
0.0
 10
-43.8024
 20
-98.4724
 30
0.0
 10
-43.8024
 20
-103.4322
 30
0.0
 10
-43.8024
 20
-103.4322
 30
0.0
 10
-43.8024
 20
-103.4322
 30
0.0
 10
-43.8024
 20
-103.4322
 30
0.0
 10
-50.2141
 20
-103.4322
 30
0.0
 10
-50.2141
 20
-103.4322
 30
0.0
  0
SPLINE
  5
4D
330
1F
100
AcDbEntity
  8
layer 1
 62
     7
100
AcDbSpline
210
0.0
220
0.0
230
1.0
 70
    11
 71
     3
 72
    20
 73
    16
 74
     0
 42
0.0000000001
 43
0.0000000001
 12
1.0
 22
0.0
 32
0.0
 13
1.0
 23
0.0
 33
0.0
 40
0.0
 40
0.0
 40
0.0
 40
0.0
 40
0.2
 40
0.2
 40
0.2
 40
0.2
 40
0.4
 40
0.4
 40
0.4
 40
0.4
 40
0.6
 40
0.6
 40
0.6
 40
0.6
 40
1.0
 40
1.0
 40
1.0
 40
1.0
 10
-48.3994
 20
-82.6254
 30
0.0
 10
-50.9396
 20
-78.0287
 30
0.0
 10
-54.4479
 20
-74.5204
 30
0.0
 10
-58.6818
 20
-72.464
 30
0.0
 10
-58.6818
 20
-72.464
 30
0.0
 10
-59.6494
 20
-71.9802
 30
0.0
 10
-54.8107
 20
-66.4155
 30
0.0
 10
-53.9641
 20
-68.3512
 30
0.0
 10
-53.9641
 20
-68.3512
 30
0.0
 10
-51.4235
 20
-73.311
 30
0.0
 10
-47.9156
 20
-76.093
 30
0.0
 10
-44.1655
 20
-78.1498
 30
0.0
 10
-44.1655
 20
-78.1498
 30
0.0
 10
-42.9558
 20
-78.8753
 30
0.0
 10
-47.7945
 20
-83.3513
 30
0.0
 10
-48.3994
 20
-82.6254
 30
0.0
  0
SPLINE
  5
4E
330
1F
100
AcDbEntity
  8
layer 1
 62
     7
100
AcDbSpline
210
0.0
220
0.0
230
1.0
 70
    11
 71
     3
 72
    20
 73
    16
 74
     0
 42
0.0000000001
 43
0.0000000001
 12
1.0
 22
0.0
 32
0.0
 13
1.0
 23
0.0
 33
0.0
 40
0.0
 40
0.0
 40
0.0
 40
0.0
 40
0.2
 40
0.2
 40
0.2
 40
0.2
 40
0.4
 40
0.4
 40
0.4
 40
0.4
 40
0.6
 40
0.6
 40
0.6
 40
0.6
 40
1.0
 40
1.0
 40
1.0
 40
1.0
 10
-50.2141
 20
-86.7385
 30
0.0
 10
-47.7945
 20
-85.287
 30
0.0
 10
-45.6171
 20
-83.5934
 30
0.0
 10
-43.8024
 20
-81.7787
 30
0.0
 10
-43.8024
 20
-81.7787
 30
0.0
 10
-43.8024
 20
-81.7787
 30
0.0
 10
-43.8024
 20
-87.8272
 30
0.0
 10
-43.8024
 20
-87.8272
 30
0.0
 10
-43.8024
 20
-87.8272
 30
0.0
 10
-44.5283
 20
-88.7949
 30
0.0
 10
-45.2543
 20
-89.8836
 30
0.0
 10
-45.8592
 20
-90.9724
 30
0.0
 10
-45.8592
 20
-90.9724
 30
0.0
 10
-46.4637
 20
-92.0611
 30
0.0
 10
-51.0607
 20
-87.2224
 30
0.0
 10
-50.2141
 20
-86.7385
 30
0.0
  0
SPLINE
  5
4F
330
1F
100
AcDbEntity
  8
layer 1
 62
     7
100
AcDbSpline
210
0.0
220
0.0
230
1.0
 70
    11
 71
     3
 72
    20
 73
    16
 74
     0
 42
0.0000000001
 43
0.0000000001
 12
1.0
 22
0.0
 32
0.0
 13
1.0
 23
0.0
 33
0.0
 40
0.0
 40
0.0
 40
0.0
 40
0.0
 40
0.2
 40
0.2
 40
0.2
 40
0.2
 40
0.4
 40
0.4
 40
0.4
 40
0.4
 40
0.6
 40
0.6
 40
0.6
 40
0.6
 40
1.0
 40
1.0
 40
1.0
 40
1.0
 10
-48.3994
 20
-65.8106
 30
0.0
 10
-50.9396
 20
-61.214
 30
0.0
 10
-54.4479
 20
-57.8268
 30
0.0
 10
-58.6818
 20
-55.6493
 30
0.0
 10
-58.6818
 20
-55.6493
 30
0.0
 10
-59.6494
 20
-55.1655
 30
0.0
 10
-54.8107
 20
-49.6008
 30
0.0
 10
-53.9641
 20
-51.6572
 30
0.0
 10
-53.9641
 20
-51.6572
 30
0.0
 10
-51.4235
 20
-56.496
 30
0.0
 10
-47.9156
 20
-59.2783
 30
0.0
 10
-44.1655
 20
-61.335
 30
0.0
 10
-44.1655
 20
-61.335
 30
0.0
 10
-42.9558
 20
-62.0606
 30
0.0
 10
-47.7945
 20
-66.6576
 30
0.0
 10
-48.3994
 20
-65.8106
 30
0.0
  0
SPLINE
  5
50
330
1F
100
AcDbEntity
  8
layer 1
 62
     7
100
AcDbSpline
210
0.0
220
0.0
230
1.0
 70
    11
 71
     3
 72
    20
 73
    16
 74
     0
 42
0.0000000001
 43
0.0000000001
 12
1.0
 22
0.0
 32
0.0
 13
1.0
 23
0.0
 33
0.0
 40
0.0
 40
0.0
 40
0.0
 40
0.0
 40
0.2
 40
0.2
 40
0.2
 40
0.2
 40
0.4
 40
0.4
 40
0.4
 40
0.4
 40
0.6
 40
0.6
 40
0.6
 40
0.6
 40
1.0
 40
1.0
 40
1.0
 40
1.0
 10
-50.2141
 20
-69.9238
 30
0.0
 10
-47.7945
 20
-68.593
 30
0.0
 10
-45.6171
 20
-66.8994
 30
0.0
 10
-43.8024
 20
-64.964
 30
0.0
 10
-43.8024
 20
-64.964
 30
0.0
 10
-43.8024
 20
-64.964
 30
0.0
 10
-43.8024
 20
-71.0125
 30
0.0
 10
-43.8024
 20
-71.0125
 30
0.0
 10
-43.8024
 20
-71.0125
 30
0.0
 10
-44.5283
 20
-72.1013
 30
0.0
 10
-45.2543
 20
-73.0689
 30
0.0
 10
-45.8592
 20
-74.1577
 30
0.0
 10
-45.8592
 20
-74.1577
 30
0.0
 10
-46.4637
 20
-75.2464
 30
0.0
 10
-51.0607
 20
-70.5287
 30
0.0
 10
-50.2141
 20
-69.9238
 30
0.0
  0
SPLINE
  5
51
330
1F
100
AcDbEntity
  8
layer 1
 62
     7
100
AcDbSpline
210
0.0
220
0.0
230
1.0
 70
    11
 71
     3
 72
    20
 73
    16
 74
     0
 42
0.0000000001
 43
0.0000000001
 12
1.0
 22
0.0
 32
0.0
 13
1.0
 23
0.0
 33
0.0
 40
0.0
 40
0.0
 40
0.0
 40
0.0
 40
0.2
 40
0.2
 40
0.2
 40
0.2
 40
0.4
 40
0.4
 40
0.4
 40
0.4
 40
0.6
 40
0.6
 40
0.6
 40
0.6
 40
1.0
 40
1.0
 40
1.0
 40
1.0
 10
-48.3994
 20
-49.117
 30
0.0
 10
-50.9396
 20
-44.52
 30
0.0
 10
-54.4479
 20
-41.0121
 30
0.0
 10
-58.6818
 20
-38.8346
 30
0.0
 10
-58.6818
 20
-38.8346
 30
0.0
 10
-59.6494
 20
-38.3508
 30
0.0
 10
-54.8107
 20
-32.9072
 30
0.0
 10
-53.9641
 20
-34.8425
 30
0.0
 10
-53.9641
 20
-34.8425
 30
0.0
 10
-51.4235
 20
-39.6812
 30
0.0
 10
-47.9156
 20
-42.4636
 30
0.0
 10
-44.1655
 20
-44.641
 30
0.0
 10
-44.1655
 20
-44.641
 30
0.0
 10
-42.9558
 20
-45.367
 30
0.0
 10
-47.7945
 20
-49.8429
 30
0.0
 10
-48.3994
 20
-49.117
 30
0.0
  0
SPLINE
  5
52
330
1F
100
AcDbEntity
  8
layer 1
 62
     7
100
AcDbSpline
210
0.0
220
0.0
230
1.0
 70
    11
 71
     3
 72
    20
 73
    16
 74
     0
 42
0.0000000001
 43
0.0000000001
 12
1.0
 22
0.0
 32
0.0
 13
1.0
 23
0.0
 33
0.0
 40
0.0
 40
0.0
 40
0.0
 40
0.0
 40
0.2
 40
0.2
 40
0.2
 40
0.2
 40
0.4
 40
0.4
 40
0.4
 40
0.4
 40
0.6
 40
0.6
 40
0.6
 40
0.6
 40
1.0
 40
1.0
 40
1.0
 40
1.0
 10
-50.2141
 20
-53.1091
 30
0.0
 10
-47.7945
 20
-51.7783
 30
0.0
 10
-45.6171
 20
-50.0847
 30
0.0
 10
-43.8024
 20
-48.1493
 30
0.0
 10
-43.8024
 20
-48.1493
 30
0.0
 10
-43.8024
 20
-48.1493
 30
0.0
 10
-43.8024
 20
-54.3185
 30
0.0
 10
-43.8024
 20
-54.3185
 30
0.0
 10
-43.8024
 20
-54.3185
 30
0.0
 10
-44.5283
 20
-55.2865
 30
0.0
 10
-45.2543
 20
-56.3753
 30
0.0
 10
-45.8592
 20
-57.464
 30
0.0
 10
-45.8592
 20
-57.464
 30
0.0
 10
-46.4637
 20
-58.5527
 30
0.0
 10
-51.0607
 20
-53.714
 30
0.0
 10
-50.2141
 20
-53.1091
 30
0.0
  0
SPLINE
  5
53
330
1F
100
AcDbEntity
  8
layer 1
 62
     7
100
AcDbSpline
210
0.0
220
0.0
230
1.0
 70
    11
 71
     3
 72
    20
 73
    16
 74
     0
 42
0.0000000001
 43
0.0000000001
 12
1.0
 22
0.0
 32
0.0
 13
1.0
 23
0.0
 33
0.0
 40
0.0
 40
0.0
 40
0.0
 40
0.0
 40
0.2
 40
0.2
 40
0.2
 40
0.2
 40
0.4
 40
0.4
 40
0.4
 40
0.4
 40
0.6
 40
0.6
 40
0.6
 40
0.6
 40
1.0
 40
1.0
 40
1.0
 40
1.0
 10
-48.3994
 20
-32.3023
 30
0.0
 10
-50.9396
 20
-27.7053
 30
0.0
 10
-54.4479
 20
-24.3184
 30
0.0
 10
-58.6818
 20
-22.1409
 30
0.0
 10
-58.6818
 20
-22.1409
 30
0.0
 10
-59.6494
 20
-21.6568
 30
0.0
 10
-54.8107
 20
-16.0924
 30
0.0
 10
-53.9641
 20
-18.0278
 30
0.0
 10
-53.9641
 20
-18.0278
 30
0.0
 10
-51.4235
 20
-22.9876
 30
0.0
 10
-47.9156
 20
-25.7699
 30
0.0
 10
-44.1655
 20
-27.8263
 30
0.0
 10
-44.1655
 20
-27.8263
 30
0.0
 10
-42.9558
 20
-28.5523
 30
0.0
 10
-47.7945
 20
-33.1489
 30
0.0
 10
-48.3994
 20
-32.3023
 30
0.0
  0
SPLINE
  5
54
330
1F
100
AcDbEntity
  8
layer 1
 62
     7
100
AcDbSpline
210
0.0
220
0.0
230
1.0
 70
    11
 71
     3
 72
    20
 73
    16
 74
     0
 42
0.0000000001
 43
0.0000000001
 12
1.0
 22
0.0
 32
0.0
 13
1.0
 23
0.0
 33
0.0
 40
0.0
 40
0.0
 40
0.0
 40
0.0
 40
0.2
 40
0.2
 40
0.2
 40
0.2
 40
0.4
 40
0.4
 40
0.4
 40
0.4
 40
0.6
 40
0.6
 40
0.6
 40
0.6
 40
1.0
 40
1.0
 40
1.0
 40
1.0
 10
-50.2141
 20
-36.4151
 30
0.0
 10
-47.7945
 20
-34.9636
 30
0.0
 10
-45.6171
 20
-33.391
 30
0.0
 10
-43.8024
 20
-31.4553
 30
0.0
 10
-43.8024
 20
-31.4553
 30
0.0
 10
-43.8024
 20
-31.4553
 30
0.0
 10
-43.8024
 20
-37.5038
 30
0.0
 10
-43.8024
 20
-37.5038
 30
0.0
 10
-43.8024
 20
-37.5038
 30
0.0
 10
-44.5283
 20
-38.5925
 30
0.0
 10
-45.2543
 20
-39.5605
 30
0.0
 10
-45.8592
 20
-40.6493
 30
0.0
 10
-45.8592
 20
-40.6493
 30
0.0
 10
-46.4637
 20
-41.738
 30
0.0
 10
-51.0607
 20
-36.8989
 30
0.0
 10
-50.2141
 20
-36.4151
 30
0.0
  0
SPLINE
  5
55
330
1F
100
AcDbEntity
  8
layer 1
 62
     7
100
AcDbSpline
210
0.0
220
0.0
230
1.0
 70
    11
 71
     3
 72
    20
 73
    16
 74
     0
 42
0.0000000001
 43
0.0000000001
 12
1.0
 22
0.0
 32
0.0
 13
1.0
 23
0.0
 33
0.0
 40
0.0
 40
0.0
 40
0.0
 40
0.0
 40
0.2
 40
0.2
 40
0.2
 40
0.2
 40
0.4
 40
0.4
 40
0.4
 40
0.4
 40
0.6
 40
0.6
 40
0.6
 40
0.6
 40
1.0
 40
1.0
 40
1.0
 40
1.0
 10
-48.3994
 20
-15.4876
 30
0.0
 10
-50.9396
 20
-10.8906
 30
0.0
 10
-54.4479
 20
-7.5033
 30
0.0
 10
-58.6818
 20
-5.3259
 30
0.0
 10
-58.6818
 20
-5.3259
 30
0.0
 10
-59.6494
 20
-4.842
 30
0.0
 10
-54.8107
 20
0.7223
 30
0.0
 10
-53.9641
 20
-1.3341
 30
0.0
 10
-53.9641
 20
-1.3341
 30
0.0
 10
-51.4235
 20
-6.1729
 30
0.0
 10
-47.9156
 20
-8.9552
 30
0.0
 10
-44.1655
 20
-11.1327
 30
0.0
 10
-44.1655
 20
-11.1327
 30
0.0
 10
-42.9558
 20
-11.7375
 30
0.0
 10
-47.7945
 20
-16.3342
 30
0.0
 10
-48.3994
 20
-15.4876
 30
0.0
  0
SPLINE
  5
56
330
1F
100
AcDbEntity
  8
layer 1
 62
     7
100
AcDbSpline
210
0.0
220
0.0
230
1.0
 70
    11
 71
     3
 72
    20
 73
    16
 74
     0
 42
0.0000000001
 43
0.0000000001
 12
1.0
 22
0.0
 32
0.0
 13
1.0
 23
0.0
 33
0.0
 40
0.0
 40
0.0
 40
0.0
 40
0.0
 40
0.2
 40
0.2
 40
0.2
 40
0.2
 40
0.4
 40
0.4
 40
0.4
 40
0.4
 40
0.6
 40
0.6
 40
0.6
 40
0.6
 40
1.0
 40
1.0
 40
1.0
 40
1.0
 10
-50.2141
 20
-19.6004
 30
0.0
 10
-47.7945
 20
-18.2699
 30
0.0
 10
-45.6171
 20
-16.5763
 30
0.0
 10
-43.8024
 20
-14.6406
 30
0.0
 10
-43.8024
 20
-14.6406
 30
0.0
 10
-43.8024
 20
-14.6406
 30
0.0
 10
-43.8024
 20
-20.8101
 30
0.0
 10
-43.8024
 20
-20.8101
 30
0.0
 10
-43.8024
 20
-20.8101
 30
0.0
 10
-44.5283
 20
-21.7778
 30
0.0
 10
-45.2543
 20
-22.8665
 30
0.0
 10
-45.8592
 20
-23.8342
 30
0.0
 10
-45.8592
 20
-23.8342
 30
0.0
 10
-46.4637
 20
-25.044
 30
0.0
 10
-51.0607
 20
-20.2052
 30
0.0
 10
-50.2141
 20
-19.6004
 30
0.0
  0
SPLINE
  5
57
330
1F
100
AcDbEntity
  8
layer 1
 62
     7
100
AcDbSpline
210
0.0
220
0.0
230
1.0
 70
    11
 71
     3
 72
    20
 73
    16
 74
     0
 42
0.0000000001
 43
0.0000000001
 12
1.0
 22
0.0
 32
0.0
 13
1.0
 23
0.0
 33
0.0
 40
0.0
 40
0.0
 40
0.0
 40
0.0
 40
0.2
 40
0.2
 40
0.2
 40
0.2
 40
0.4
 40
0.4
 40
0.4
 40
0.4
 40
0.6
 40
0.6
 40
0.6
 40
0.6
 40
1.0
 40
1.0
 40
1.0
 40
1.0
 10
-48.3994
 20
1.2065
 30
0.0
 10
-50.9396
 20
5.8031
 30
0.0
 10
-54.4479
 20
9.3114
 30
0.0
 10
-58.6818
 20
11.3678
 30
0.0
 10
-58.6818
 20
11.3678
 30
0.0
 10
-59.6494
 20
11.8516
 30
0.0
 10
-54.8107
 20
17.4163
 30
0.0
 10
-53.9641
 20
15.4806
 30
0.0
 10
-53.9641
 20
15.4806
 30
0.0
 10
-51.4235
 20
10.6418
 30
0.0
 10
-47.9156
 20
7.8595
 30
0.0
 10
-44.1655
 20
5.6821
 30
0.0
 10
-44.1655
 20
5.6821
 30
0.0
 10
-42.9558
 20
4.9565
 30
0.0
 10
-47.7945
 20
0.4805
 30
0.0
 10
-48.3994
 20
1.2065
 30
0.0
  0
SPLINE
  5
58
330
1F
100
AcDbEntity
  8
layer 1
 62
     7
100
AcDbSpline
210
0.0
220
0.0
230
1.0
 70
    11
 71
     3
 72
    20
 73
    16
 74
     0
 42
0.0000000001
 43
0.0000000001
 12
1.0
 22
0.0
 32
0.0
 13
1.0
 23
0.0
 33
0.0
 40
0.0
 40
0.0
 40
0.0
 40
0.0
 40
0.2
 40
0.2
 40
0.2
 40
0.2
 40
0.4
 40
0.4
 40
0.4
 40
0.4
 40
0.6
 40
0.6
 40
0.6
 40
0.6
 40
1.0
 40
1.0
 40
1.0
 40
1.0
 10
-50.2141
 20
-2.7856
 30
0.0
 10
-47.7945
 20
-1.4552
 30
0.0
 10
-45.6171
 20
0.2384
 30
0.0
 10
-43.8024
 20
2.0531
 30
0.0
 10
-43.8024
 20
2.0531
 30
0.0
 10
-43.8024
 20
2.0531
 30
0.0
 10
-43.8024
 20
-3.9954
 30
0.0
 10
-43.8024
 20
-3.9954
 30
0.0
 10
-43.8024
 20
-3.9954
 30
0.0
 10
-44.5283
 20
-4.9631
 30
0.0
 10
-45.2543
 20
-6.0518
 30
0.0
 10
-45.8592
 20
-7.1405
 30
0.0
 10
-45.8592
 20
-7.1405
 30
0.0
 10
-46.4637
 20
-8.2293
 30
0.0
 10
-51.0607
 20
-3.3905
 30
0.0
 10
-50.2141
 20
-2.7856
 30
0.0
  0
SPLINE
  5
59
330
1F
100
AcDbEntity
  8
layer 1
 62
     7
100
AcDbSpline
210
0.0
220
0.0
230
1.0
 70
    11
 71
     3
 72
    20
 73
    16
 74
     0
 42
0.0000000001
 43
0.0000000001
 12
1.0
 22
0.0
 32
0.0
 13
1.0
 23
0.0
 33
0.0
 40
0.0
 40
0.0
 40
0.0
 40
0.0
 40
0.2
 40
0.2
 40
0.2
 40
0.2
 40
0.4
 40
0.4
 40
0.4
 40
0.4
 40
0.6
 40
0.6
 40
0.6
 40
0.6
 40
1.0
 40
1.0
 40
1.0
 40
1.0
 10
-48.3994
 20
18.0212
 30
0.0
 10
-50.9396
 20
22.6178
 30
0.0
 10
-54.4479
 20
26.005
 30
0.0
 10
-58.6818
 20
28.1825
 30
0.0
 10
-58.6818
 20
28.1825
 30
0.0
 10
-59.6494
 20
28.6663
 30
0.0
 10
-54.8107
 20
34.231
 30
0.0
 10
-53.9641
 20
32.1746
 30
0.0
 10
-53.9641
 20
32.1746
 30
0.0
 10
-51.4235
 20
27.3359
 30
0.0
 10
-47.9156
 20
24.5535
 30
0.0
 10
-44.1655
 20
22.4968
 30
0.0
 10
-44.1655
 20
22.4968
 30
0.0
 10
-42.9558
 20
21.7712
 30
0.0
 10
-47.7945
 20
17.1742
 30
0.0
 10
-48.3994
 20
18.0212
 30
0.0
  0
SPLINE
  5
5A
330
1F
100
AcDbEntity
  8
layer 1
 62
     7
100
AcDbSpline
210
0.0
220
0.0
230
1.0
 70
    11
 71
     3
 72
    20
 73
    16
 74
     0
 42
0.0000000001
 43
0.0000000001
 12
1.0
 22
0.0
 32
0.0
 13
1.0
 23
0.0
 33
0.0
 40
0.0
 40
0.0
 40
0.0
 40
0.0
 40
0.2
 40
0.2
 40
0.2
 40
0.2
 40
0.4
 40
0.4
 40
0.4
 40
0.4
 40
0.6
 40
0.6
 40
0.6
 40
0.6
 40
1.0
 40
1.0
 40
1.0
 40
1.0
 10
-50.2141
 20
13.908
 30
0.0
 10
-47.7945
 20
15.3599
 30
0.0
 10
-45.6171
 20
16.9325
 30
0.0
 10
-43.8024
 20
18.8678
 30
0.0
 10
-43.8024
 20
18.8678
 30
0.0
 10
-43.8024
 20
18.8678
 30
0.0
 10
-43.8024
 20
12.8193
 30
0.0
 10
-43.8024
 20
12.8193
 30
0.0
 10
-43.8024
 20
12.8193
 30
0.0
 10
-44.5283
 20
11.7306
 30
0.0
 10
-45.2543
 20
10.7629
 30
0.0
 10
-45.8592
 20
9.6742
 30
0.0
 10
-45.8592
 20
9.6742
 30
0.0
 10
-46.4637
 20
8.5854
 30
0.0
 10
-51.0607
 20
13.4242
 30
0.0
 10
-50.2141
 20
13.908
 30
0.0
  0
SPLINE
  5
5B
330
1F
100
AcDbEntity
  8
layer 1
 62
     7
100
AcDbSpline
210
0.0
220
0.0
230
1.0
 70
    11
 71
     3
 72
    20
 73
    16
 74
     0
 42
0.0000000001
 43
0.0000000001
 12
1.0
 22
0.0
 32
0.0
 13
1.0
 23
0.0
 33
0.0
 40
0.0
 40
0.0
 40
0.0
 40
0.0
 40
0.2
 40
0.2
 40
0.2
 40
0.2
 40
0.4
 40
0.4
 40
0.4
 40
0.4
 40
0.6
 40
0.6
 40
0.6
 40
0.6
 40
1.0
 40
1.0
 40
1.0
 40
1.0
 10
-48.3994
 20
34.7148
 30
0.0
 10
-50.9396
 20
39.4325
 30
0.0
 10
-54.4479
 20
42.8198
 30
0.0
 10
-58.6818
 20
44.9972
 30
0.0
 10
-58.6818
 20
44.9972
 30
0.0
 10
-59.6494
 20
45.481
 30
0.0
 10
-54.8107
 20
51.0457
 30
0.0
 10
-53.9641
 20
48.9893
 30
0.0
 10
-53.9641
 20
48.9893
 30
0.0
 10
-51.4235
 20
44.1506
 30
0.0
 10
-47.9156
 20
41.3682
 30
0.0
 10
-44.1655
 20
39.1908
 30
0.0
 10
-44.1655
 20
39.1908
 30
0.0
 10
-42.9558
 20
38.4649
 30
0.0
 10
-47.7945
 20
33.9889
 30
0.0
 10
-48.3994
 20
34.7148
 30
0.0
  0
SPLINE
  5
5C
330
1F
100
AcDbEntity
  8
layer 1
 62
     7
100
AcDbSpline
210
0.0
220
0.0
230
1.0
 70
    11
 71
     3
 72
    20
 73
    16
 74
     0
 42
0.0000000001
 43
0.0000000001
 12
1.0
 22
0.0
 32
0.0
 13
1.0
 23
0.0
 33
0.0
 40
0.0
 40
0.0
 40
0.0
 40
0.0
 40
0.2
 40
0.2
 40
0.2
 40
0.2
 40
0.4
 40
0.4
 40
0.4
 40
0.4
 40
0.6
 40
0.6
 40
0.6
 40
0.6
 40
1.0
 40
1.0
 40
1.0
 40
1.0
 10
-50.2141
 20
30.7227
 30
0.0
 10
-47.7945
 20
32.0536
 30
0.0
 10
-45.6171
 20
33.7472
 30
0.0
 10
-43.8024
 20
35.6825
 30
0.0
 10
-43.8024
 20
35.6825
 30
0.0
 10
-43.8024
 20
35.6825
 30
0.0
 10
-43.8024
 20
29.5133
 30
0.0
 10
-43.8024
 20
29.5133
 30
0.0
 10
-43.8024
 20
29.5133
 30
0.0
 10
-44.5283
 20
28.5453
 30
0.0
 10
-45.2543
 20
27.4566
 30
0.0
 10
-45.8592
 20
26.4889
 30
0.0
 10
-45.8592
 20
26.4889
 30
0.0
 10
-46.4637
 20
25.2791
 30
0.0
 10
-51.0607
 20
30.1179
 30
0.0
 10
-50.2141
 20
30.7227
 30
0.0
  0
SPLINE
  5
5D
330
1F
100
AcDbEntity
  8
layer 1
 62
     7
100
AcDbSpline
210
0.0
220
0.0
230
1.0
 70
    11
 71
     3
 72
    20
 73
    16
 74
     0
 42
0.0000000001
 43
0.0000000001
 12
1.0
 22
0.0
 32
0.0
 13
1.0
 23
0.0
 33
0.0
 40
0.0
 40
0.0
 40
0.0
 40
0.0
 40
0.2
 40
0.2
 40
0.2
 40
0.2
 40
0.4
 40
0.4
 40
0.4
 40
0.4
 40
0.6
 40
0.6
 40
0.6
 40
0.6
 40
1.0
 40
1.0
 40
1.0
 40
1.0
 10
-48.3994
 20
51.5296
 30
0.0
 10
-50.9396
 20
56.1266
 30
0.0
 10
-54.4479
 20
59.5134
 30
0.0
 10
-58.6818
 20
61.6909
 30
0.0
 10
-58.6818
 20
61.6909
 30
0.0
 10
-59.6494
 20
62.1751
 30
0.0
 10
-54.8107
 20
67.7394
 30
0.0
 10
-53.9641
 20
65.804
 30
0.0
 10
-53.9641
 20
65.804
 30
0.0
 10
-51.4235
 20
60.8442
 30
0.0
 10
-47.9156
 20
58.0619
 30
0.0
 10
-44.1655
 20
56.0055
 30
0.0
 10
-44.1655
 20
56.0055
 30
0.0
 10
-42.9558
 20
55.2796
 30
0.0
 10
-47.7945
 20
50.8036
 30
0.0
 10
-48.3994
 20
51.5296
 30
0.0
  0
SPLINE
  5
5E
330
1F
100
AcDbEntity
  8
layer 1
 62
     7
100
AcDbSpline
210
0.0
220
0.0
230
1.0
 70
    11
 71
     3
 72
    20
 73
    16
 74
     0
 42
0.0000000001
 43
0.0000000001
 12
1.0
 22
0.0
 32
0.0
 13
1.0
 23
0.0
 33
0.0
 40
0.0
 40
0.0
 40
0.0
 40
0.0
 40
0.2
 40
0.2
 40
0.2
 40
0.2
 40
0.4
 40
0.4
 40
0.4
 40
0.4
 40
0.6
 40
0.6
 40
0.6
 40
0.6
 40
1.0
 40
1.0
 40
1.0
 40
1.0
 10
-50.2141
 20
47.4168
 30
0.0
 10
-47.7945
 20
48.8683
 30
0.0
 10
-45.6171
 20
50.5619
 30
0.0
 10
-43.8024
 20
52.3765
 30
0.0
 10
-43.8024
 20
52.3765
 30
0.0
 10
-43.8024
 20
52.3765
 30
0.0
 10
-43.8024
 20
46.328
 30
0.0
 10
-43.8024
 20
46.328
 30
0.0
 10
-43.8024
 20
46.328
 30
0.0
 10
-44.5283
 20
45.36
 30
0.0
 10
-45.2543
 20
44.2713
 30
0.0
 10
-45.8592
 20
43.1826
 30
0.0
 10
-45.8592
 20
43.1826
 30
0.0
 10
-46.4637
 20
42.0938
 30
0.0
 10
-51.0607
 20
46.9329
 30
0.0
 10
-50.2141
 20
47.4168
 30
0.0
  0
SPLINE
  5
5F
330
1F
100
AcDbEntity
  8
layer 1
 62
     7
100
AcDbSpline
210
0.0
220
0.0
230
1.0
 70
    11
 71
     3
 72
    20
 73
    16
 74
     0
 42
0.0000000001
 43
0.0000000001
 12
1.0
 22
0.0
 32
0.0
 13
1.0
 23
0.0
 33
0.0
 40
0.0
 40
0.0
 40
0.0
 40
0.0
 40
0.2
 40
0.2
 40
0.2
 40
0.2
 40
0.4
 40
0.4
 40
0.4
 40
0.4
 40
0.6
 40
0.6
 40
0.6
 40
0.6
 40
1.0
 40
1.0
 40
1.0
 40
1.0
 10
-48.3994
 20
68.3443
 30
0.0
 10
-50.9396
 20
72.9413
 30
0.0
 10
-54.4479
 20
76.3285
 30
0.0
 10
-58.6818
 20
78.5059
 30
0.0
 10
-58.6818
 20
78.5059
 30
0.0
 10
-59.6494
 20
78.9898
 30
0.0
 10
-54.8107
 20
84.5541
 30
0.0
 10
-53.9641
 20
82.4977
 30
0.0
 10
-53.9641
 20
82.4977
 30
0.0
 10
-51.4235
 20
77.659
 30
0.0
 10
-47.9156
 20
74.8766
 30
0.0
 10
-44.1655
 20
72.8202
 30
0.0
 10
-44.1655
 20
72.8202
 30
0.0
 10
-42.9558
 20
72.0943
 30
0.0
 10
-47.7945
 20
67.4976
 30
0.0
 10
-48.3994
 20
68.3443
 30
0.0
  0
SPLINE
  5
60
330
1F
100
AcDbEntity
  8
layer 1
 62
     7
100
AcDbSpline
210
0.0
220
0.0
230
1.0
 70
    11
 71
     3
 72
    20
 73
    16
 74
     0
 42
0.0000000001
 43
0.0000000001
 12
1.0
 22
0.0
 32
0.0
 13
1.0
 23
0.0
 33
0.0
 40
0.0
 40
0.0
 40
0.0
 40
0.0
 40
0.2
 40
0.2
 40
0.2
 40
0.2
 40
0.4
 40
0.4
 40
0.4
 40
0.4
 40
0.6
 40
0.6
 40
0.6
 40
0.6
 40
1.0
 40
1.0
 40
1.0
 40
1.0
 10
-50.2141
 20
64.2315
 30
0.0
 10
-47.7945
 20
65.5619
 30
0.0
 10
-45.6171
 20
67.2555
 30
0.0
 10
-43.8024
 20
69.1913
 30
0.0
 10
-43.8024
 20
69.1913
 30
0.0
 10
-43.8024
 20
69.1913
 30
0.0
 10
-43.8024
 20
63.1427
 30
0.0
 10
-43.8024
 20
63.1427
 30
0.0
 10
-43.8024
 20
63.1427
 30
0.0
 10
-44.5283
 20
62.054
 30
0.0
 10
-45.2543
 20
61.0863
 30
0.0
 10
-45.8592
 20
59.9976
 30
0.0
 10
-45.8592
 20
59.9976
 30
0.0
 10
-46.4637
 20
58.9089
 30
0.0
 10
-51.0607
 20
63.6266
 30
0.0
 10
-50.2141
 20
64.2315
 30
0.0
  0
SPLINE
  5
61
330
1F
100
AcDbEntity
  8
layer 1
 62
     7
100
AcDbSpline
210
0.0
220
0.0
230
1.0
 70
    11
 71
     3
 72
    20
 73
    16
 74
     0
 42
0.0000000001
 43
0.0000000001
 12
1.0
 22
0.0
 32
0.0
 13
1.0
 23
0.0
 33
0.0
 40
0.0
 40
0.0
 40
0.0
 40
0.0
 40
0.2
 40
0.2
 40
0.2
 40
0.2
 40
0.4
 40
0.4
 40
0.4
 40
0.4
 40
0.6
 40
0.6
 40
0.6
 40
0.6
 40
1.0
 40
1.0
 40
1.0
 40
1.0
 10
-48.3994
 20
85.0383
 30
0.0
 10
-50.9396
 20
89.6349
 30
0.0
 10
-54.4479
 20
93.1432
 30
0.0
 10
-58.6818
 20
95.3207
 30
0.0
 10
-58.6818
 20
95.3207
 30
0.0
 10
-59.6494
 20
95.8045
 30
0.0
 10
-54.8107
 20
101.2481
 30
0.0
 10
-53.9641
 20
99.3124
 30
0.0
 10
-53.9641
 20
99.3124
 30
0.0
 10
-51.4235
 20
94.4737
 30
0.0
 10
-47.9156
 20
91.6913
 30
0.0
 10
-44.1655
 20
89.5139
 30
0.0
 10
-44.1655
 20
89.5139
 30
0.0
 10
-42.9558
 20
88.7883
 30
0.0
 10
-47.7945
 20
84.3124
 30
0.0
 10
-48.3994
 20
85.0383
 30
0.0
  0
SPLINE
  5
62
330
1F
100
AcDbEntity
  8
layer 1
 62
     7
100
AcDbSpline
210
0.0
220
0.0
230
1.0
 70
    11
 71
     3
 72
    20
 73
    16
 74
     0
 42
0.0000000001
 43
0.0000000001
 12
1.0
 22
0.0
 32
0.0
 13
1.0
 23
0.0
 33
0.0
 40
0.0
 40
0.0
 40
0.0
 40
0.0
 40
0.2
 40
0.2
 40
0.2
 40
0.2
 40
0.4
 40
0.4
 40
0.4
 40
0.4
 40
0.6
 40
0.6
 40
0.6
 40
0.6
 40
1.0
 40
1.0
 40
1.0
 40
1.0
 10
-50.2141
 20
81.0462
 30
0.0
 10
-47.7945
 20
82.3767
 30
0.0
 10
-45.6171
 20
84.0703
 30
0.0
 10
-43.8024
 20
86.006
 30
0.0
 10
-43.8024
 20
86.006
 30
0.0
 10
-43.8024
 20
86.006
 30
0.0
 10
-43.8024
 20
79.8364
 30
0.0
 10
-43.8024
 20
79.8364
 30
0.0
 10
-43.8024
 20
79.8364
 30
0.0
 10
-44.5283
 20
78.8687
 30
0.0
 10
-45.2543
 20
77.78
 30
0.0
 10
-45.8592
 20
76.6913
 30
0.0
 10
-45.8592
 20
76.6913
 30
0.0
 10
-46.4637
 20
75.6026
 30
0.0
 10
-51.0607
 20
80.4413
 30
0.0
 10
-50.2141
 20
81.0462
 30
0.0
  0
SPLINE
  5
63
330
1F
100
AcDbEntity
  8
layer 1
 62
     7
100
AcDbSpline
210
0.0
220
0.0
230
1.0
 70
    11
 71
     3
 72
    20
 73
    16
 74
     0
 42
0.0000000001
 43
0.0000000001
 12
1.0
 22
0.0
 32
0.0
 13
1.0
 23
0.0
 33
0.0
 40
0.0
 40
0.0
 40
0.0
 40
0.0
 40
0.2
 40
0.2
 40
0.2
 40
0.2
 40
0.4
 40
0.4
 40
0.4
 40
0.4
 40
0.6
 40
0.6
 40
0.6
 40
0.6
 40
1.0
 40
1.0
 40
1.0
 40
1.0
 10
-48.3994
 20
101.853
 30
0.0
 10
-50.9396
 20
106.4496
 30
0.0
 10
-54.4479
 20
109.8369
 30
0.0
 10
-58.6818
 20
112.0143
 30
0.0
 10
-58.6818
 20
112.0143
 30
0.0
 10
-59.6494
 20
112.4982
 30
0.0
 10
-54.8107
 20
118.0628
 30
0.0
 10
-53.9641
 20
116.1271
 30
0.0
 10
-53.9641
 20
116.1271
 30
0.0
 10
-51.4235
 20
111.1677
 30
0.0
 10
-47.9156
 20
108.3854
 30
0.0
 10
-44.1655
 20
106.3286
 30
0.0
 10
-44.1655
 20
106.3286
 30
0.0
 10
-42.9558
 20
105.603
 30
0.0
 10
-47.7945
 20
101.006
 30
0.0
 10
-48.3994
 20
101.853
 30
0.0
  0
SPLINE
  5
64
330
1F
100
AcDbEntity
  8
layer 1
 62
     7
100
AcDbSpline
210
0.0
220
0.0
230
1.0
 70
    11
 71
     3
 72
    20
 73
    16
 74
     0
 42
0.0000000001
 43
0.0000000001
 12
1.0
 22
0.0
 32
0.0
 13
1.0
 23
0.0
 33
0.0
 40
0.0
 40
0.0
 40
0.0
 40
0.0
 40
0.2
 40
0.2
 40
0.2
 40
0.2
 40
0.4
 40
0.4
 40
0.4
 40
0.4
 40
0.6
 40
0.6
 40
0.6
 40
0.6
 40
1.0
 40
1.0
 40
1.0
 40
1.0
 10
-50.2141
 20
97.7398
 30
0.0
 10
-47.7945
 20
99.1917
 30
0.0
 10
-45.6171
 20
100.7643
 30
0.0
 10
-43.8024
 20
102.6996
 30
0.0
 10
-43.8024
 20
102.6996
 30
0.0
 10
-43.8024
 20
102.6996
 30
0.0
 10
-43.8024
 20
96.6511
 30
0.0
 10
-43.8024
 20
96.6511
 30
0.0
 10
-43.8024
 20
96.6511
 30
0.0
 10
-44.5283
 20
95.5624
 30
0.0
 10
-45.2543
 20
94.5947
 30
0.0
 10
-45.8592
 20
93.506
 30
0.0
 10
-45.8592
 20
93.506
 30
0.0
 10
-46.4637
 20
92.4173
 30
0.0
 10
-51.0607
 20
97.256
 30
0.0
 10
-50.2141
 20
97.7398
 30
0.0
  0
SPLINE
  5
65
330
1F
100
AcDbEntity
  8
layer 1
 62
     7
100
AcDbSpline
210
0.0
220
0.0
230
1.0
 70
    11
 71
     3
 72
    16
 73
    12
 74
     0
 42
0.0000000001
 43
0.0000000001
 12
1.0
 22
0.0
 32
0.0
 13
1.0
 23
0.0
 33
0.0
 40
0.0
 40
0.0
 40
0.0
 40
0.0
 40
0.25
 40
0.25
 40
0.25
 40
0.25
 40
0.5
 40
0.5
 40
0.5
 40
0.5
 40
1.0
 40
1.0
 40
1.0
 40
1.0
 10
-48.3994
 20
118.6677
 30
0.0
 10
-48.7622
 20
119.2726
 30
0.0
 10
-49.1253
 20
119.8775
 30
0.0
 10
-49.4881
 20
120.482
 30
0.0
 10
-49.4881
 20
120.482
 30
0.0
 10
-49.4881
 20
120.482
 30
0.0
 10
-45.375
 20
120.482
 30
0.0
 10
-45.375
 20
120.482
 30
0.0
 10
-45.375
 20
120.482
 30
0.0
 10
-46.5847
 20
119.2726
 30
0.0
 10
-48.0366
 20
118.1839
 30
0.0
 10
-48.3994
 20
118.6677
 30
0.0
  0
SPLINE
  5
66
330
1F
100
AcDbEntity
  8
layer 1
 62
     7
100
AcDbSpline
210
0.0
220
0.0
230
1.0
 70
    11
 71
     3
 72
    20
 73
    16
 74
     0
 42
0.0000000001
 43
0.0000000001
 12
1.0
 22
0.0
 32
0.0
 13
1.0
 23
0.0
 33
0.0
 40
0.0
 40
0.0
 40
0.0
 40
0.0
 40
0.2
 40
0.2
 40
0.2
 40
0.2
 40
0.4
 40
0.4
 40
0.4
 40
0.4
 40
0.6
 40
0.6
 40
0.6
 40
0.6
 40
1.0
 40
1.0
 40
1.0
 40
1.0
 10
-50.2141
 20
114.5546
 30
0.0
 10
-47.7945
 20
115.8854
 30
0.0
 10
-45.6171
 20
117.579
 30
0.0
 10
-43.8024
 20
119.5143
 30
0.0
 10
-43.8024
 20
119.5143
 30
0.0
 10
-43.8024
 20
119.5143
 30
0.0
 10
-43.8024
 20
113.3451
 30
0.0
 10
-43.8024
 20
113.3451
 30
0.0
 10
-43.8024
 20
113.3451
 30
0.0
 10
-44.5283
 20
112.3771
 30
0.0
 10
-45.2543
 20
111.2884
 30
0.0
 10
-45.8592
 20
110.3207
 30
0.0
 10
-45.8592
 20
110.3207
 30
0.0
 10
-46.4637
 20
109.1109
 30
0.0
 10
-51.0607
 20
113.9497
 30
0.0
 10
-50.2141
 20
114.5546
 30
0.0
  0
SPLINE
  5
67
330
1F
100
AcDbEntity
  8
layer 1
 62
     7
100
AcDbSpline
210
0.0
220
0.0
230
1.0
 70
    11
 71
     3
 72
    16
 73
    12
 74
     0
 42
0.0000000001
 43
0.0000000001
 12
1.0
 22
0.0
 32
0.0
 13
1.0
 23
0.0
 33
0.0
 40
0.0
 40
0.0
 40
0.0
 40
0.0
 40
0.25
 40
0.25
 40
0.25
 40
0.25
 40
0.5
 40
0.5
 40
0.5
 40
0.5
 40
1.0
 40
1.0
 40
1.0
 40
1.0
 10
-65.2141
 20
118.6677
 30
0.0
 10
-65.5769
 20
119.2726
 30
0.0
 10
-65.94
 20
119.8775
 30
0.0
 10
-66.3028
 20
120.482
 30
0.0
 10
-66.3028
 20
120.482
 30
0.0
 10
-66.3028
 20
120.482
 30
0.0
 10
-62.19
 20
120.482
 30
0.0
 10
-62.19
 20
120.482
 30
0.0
 10
-62.19
 20
120.482
 30
0.0
 10
-63.2788
 20
119.2726
 30
0.0
 10
-64.8513
 20
118.1839
 30
0.0
 10
-65.2141
 20
118.6677
 30
0.0
  0
SPLINE
  5
68
330
1F
100
AcDbEntity
  8
layer 1
 62
     7
100
AcDbSpline
210
0.0
220
0.0
230
1.0
 70
    11
 71
     3
 72
    24
 73
    20
 74
     0
 42
0.0000000001
 43
0.0000000001
 12
1.0
 22
0.0
 32
0.0
 13
1.0
 23
0.0
 33
0.0
 40
0.0
 40
0.0
 40
0.0
 40
0.0
 40
0.1666666666666667
 40
0.1666666666666667
 40
0.1666666666666667
 40
0.1666666666666667
 40
0.3333333333333333
 40
0.3333333333333333
 40
0.3333333333333333
 40
0.3333333333333333
 40
0.5
 40
0.5
 40
0.5
 40
0.5
 40
0.6666666666666666
 40
0.6666666666666666
 40
0.6666666666666666
 40
0.6666666666666666
 40
1.0
 40
1.0
 40
1.0
 40
1.0
 10
-67.0288
 20
114.5546
 30
0.0
 10
-64.1254
 20
116.1271
 30
0.0
 10
-61.5851
 20
118.1839
 30
0.0
 10
-59.6494
 20
120.482
 30
0.0
 10
-59.6494
 20
120.482
 30
0.0
 10
-59.6494
 20
120.482
 30
0.0
 10
-52.3915
 20
120.482
 30
0.0
 10
-52.3915
 20
120.482
 30
0.0
 10
-52.3915
 20
120.482
 30
0.0
 10
-52.5122
 20
120.3613
 30
0.0
 10
-52.6333
 20
120.2403
 30
0.0
 10
-52.7543
 20
120.1192
 30
0.0
 10
-52.7543
 20
120.1192
 30
0.0
 10
-57.7141
 20
117.579
 30
0.0
 10
-60.4964
 20
114.0707
 30
0.0
 10
-62.5528
 20
110.3207
 30
0.0
 10
-62.5528
 20
110.3207
 30
0.0
 10
-63.2788
 20
109.1109
 30
0.0
 10
-67.7544
 20
113.9497
 30
0.0
 10
-67.0288
 20
114.5546
 30
0.0
  0
SPLINE
  5
69
330
1F
100
AcDbEntity
  8
layer 1
 62
     7
100
AcDbSpline
210
0.0
220
0.0
230
1.0
 70
    11
 71
     3
 72
    20
 73
    16
 74
     0
 42
0.0000000001
 43
0.0000000001
 12
1.0
 22
0.0
 32
0.0
 13
1.0
 23
0.0
 33
0.0
 40
0.0
 40
0.0
 40
0.0
 40
0.0
 40
0.2
 40
0.2
 40
0.2
 40
0.2
 40
0.4
 40
0.4
 40
0.4
 40
0.4
 40
0.6
 40
0.6
 40
0.6
 40
0.6
 40
1.0
 40
1.0
 40
1.0
 40
1.0
 10
-65.2141
 20
101.853
 30
0.0
 10
-67.6337
 20
106.4496
 30
0.0
 10
-71.2626
 20
109.8369
 30
0.0
 10
-75.3754
 20
112.0143
 30
0.0
 10
-75.3754
 20
112.0143
 30
0.0
 10
-76.3435
 20
112.4982
 30
0.0
 10
-71.6254
 20
118.0628
 30
0.0
 10
-70.7788
 20
116.1271
 30
0.0
 10
-70.7788
 20
116.1271
 30
0.0
 10
-68.1175
 20
111.1677
 30
0.0
 10
-64.7303
 20
108.3854
 30
0.0
 10
-60.8592
 20
106.3286
 30
0.0
 10
-60.8592
 20
106.3286
 30
0.0
 10
-59.7705
 20
105.603
 30
0.0
 10
-64.6092
 20
101.006
 30
0.0
 10
-65.2141
 20
101.853
 30
0.0
  0
SPLINE
  5
6A
330
1F
100
AcDbEntity
  8
layer 1
 62
     7
100
AcDbSpline
210
0.0
220
0.0
230
1.0
 70
    11
 71
     3
 72
    20
 73
    16
 74
     0
 42
0.0000000001
 43
0.0000000001
 12
1.0
 22
0.0
 32
0.0
 13
1.0
 23
0.0
 33
0.0
 40
0.0
 40
0.0
 40
0.0
 40
0.0
 40
0.2
 40
0.2
 40
0.2
 40
0.2
 40
0.4
 40
0.4
 40
0.4
 40
0.4
 40
0.6
 40
0.6
 40
0.6
 40
0.6
 40
1.0
 40
1.0
 40
1.0
 40
1.0
 10
-67.0288
 20
97.7398
 30
0.0
 10
-62.4318
 20
100.2804
 30
0.0
 10
-59.0446
 20
103.9094
 30
0.0
 10
-56.8671
 20
108.0222
 30
0.0
 10
-56.8671
 20
108.0222
 30
0.0
 10
-56.3833
 20
108.9902
 30
0.0
 10
-50.8186
 20
104.2722
 30
0.0
 10
-52.7543
 20
103.4256
 30
0.0
 10
-52.7543
 20
103.4256
 30
0.0
 10
-57.7141
 20
100.7643
 30
0.0
 10
-60.4964
 20
97.256
 30
0.0
 10
-62.5528
 20
93.506
 30
0.0
 10
-62.5528
 20
93.506
 30
0.0
 10
-63.2788
 20
92.4173
 30
0.0
 10
-67.7544
 20
97.256
 30
0.0
 10
-67.0288
 20
97.7398
 30
0.0
  0
SPLINE
  5
6B
330
1F
100
AcDbEntity
  8
layer 1
 62
     7
100
AcDbSpline
210
0.0
220
0.0
230
1.0
 70
    11
 71
     3
 72
    20
 73
    16
 74
     0
 42
0.0000000001
 43
0.0000000001
 12
1.0
 22
0.0
 32
0.0
 13
1.0
 23
0.0
 33
0.0
 40
0.0
 40
0.0
 40
0.0
 40
0.0
 40
0.2
 40
0.2
 40
0.2
 40
0.2
 40
0.4
 40
0.4
 40
0.4
 40
0.4
 40
0.6
 40
0.6
 40
0.6
 40
0.6
 40
1.0
 40
1.0
 40
1.0
 40
1.0
 10
-65.2141
 20
85.0383
 30
0.0
 10
-67.6337
 20
89.6349
 30
0.0
 10
-71.2626
 20
93.1432
 30
0.0
 10
-75.3754
 20
95.3207
 30
0.0
 10
-75.3754
 20
95.3207
 30
0.0
 10
-76.3435
 20
95.8045
 30
0.0
 10
-71.6254
 20
101.2481
 30
0.0
 10
-70.7788
 20
99.3124
 30
0.0
 10
-70.7788
 20
99.3124
 30
0.0
 10
-68.1175
 20
94.4737
 30
0.0
 10
-64.7303
 20
91.6913
 30
0.0
 10
-60.8592
 20
89.5139
 30
0.0
 10
-60.8592
 20
89.5139
 30
0.0
 10
-59.7705
 20
88.7883
 30
0.0
 10
-64.6092
 20
84.3124
 30
0.0
 10
-65.2141
 20
85.0383
 30
0.0
  0
SPLINE
  5
6C
330
1F
100
AcDbEntity
  8
layer 1
 62
     7
100
AcDbSpline
210
0.0
220
0.0
230
1.0
 70
    11
 71
     3
 72
    20
 73
    16
 74
     0
 42
0.0000000001
 43
0.0000000001
 12
1.0
 22
0.0
 32
0.0
 13
1.0
 23
0.0
 33
0.0
 40
0.0
 40
0.0
 40
0.0
 40
0.0
 40
0.2
 40
0.2
 40
0.2
 40
0.2
 40
0.4
 40
0.4
 40
0.4
 40
0.4
 40
0.6
 40
0.6
 40
0.6
 40
0.6
 40
1.0
 40
1.0
 40
1.0
 40
1.0
 10
-67.0288
 20
81.0462
 30
0.0
 10
-62.4318
 20
83.5864
 30
0.0
 10
-59.0446
 20
87.0947
 30
0.0
 10
-56.8671
 20
91.2075
 30
0.0
 10
-56.8671
 20
91.2075
 30
0.0
 10
-56.3833
 20
92.1752
 30
0.0
 10
-50.8186
 20
87.4575
 30
0.0
 10
-52.7543
 20
86.6109
 30
0.0
 10
-52.7543
 20
86.6109
 30
0.0
 10
-57.7141
 20
83.9496
 30
0.0
 10
-60.4964
 20
80.5623
 30
0.0
 10
-62.5528
 20
76.6913
 30
0.0
 10
-62.5528
 20
76.6913
 30
0.0
 10
-63.2788
 20
75.6026
 30
0.0
 10
-67.7544
 20
80.4413
 30
0.0
 10
-67.0288
 20
81.0462
 30
0.0
  0
SPLINE
  5
6D
330
1F
100
AcDbEntity
  8
layer 1
 62
     7
100
AcDbSpline
210
0.0
220
0.0
230
1.0
 70
    11
 71
     3
 72
    20
 73
    16
 74
     0
 42
0.0000000001
 43
0.0000000001
 12
1.0
 22
0.0
 32
0.0
 13
1.0
 23
0.0
 33
0.0
 40
0.0
 40
0.0
 40
0.0
 40
0.0
 40
0.2
 40
0.2
 40
0.2
 40
0.2
 40
0.4
 40
0.4
 40
0.4
 40
0.4
 40
0.6
 40
0.6
 40
0.6
 40
0.6
 40
1.0
 40
1.0
 40
1.0
 40
1.0
 10
-65.2141
 20
68.3443
 30
0.0
 10
-67.6337
 20
72.9413
 30
0.0
 10
-71.2626
 20
76.3285
 30
0.0
 10
-75.3754
 20
78.5059
 30
0.0
 10
-75.3754
 20
78.5059
 30
0.0
 10
-76.3435
 20
78.9898
 30
0.0
 10
-71.6254
 20
84.5541
 30
0.0
 10
-70.7788
 20
82.4977
 30
0.0
 10
-70.7788
 20
82.4977
 30
0.0
 10
-68.1175
 20
77.659
 30
0.0
 10
-64.7303
 20
74.8766
 30
0.0
 10
-60.8592
 20
72.8202
 30
0.0
 10
-60.8592
 20
72.8202
 30
0.0
 10
-59.7705
 20
72.0943
 30
0.0
 10
-64.6092
 20
67.4976
 30
0.0
 10
-65.2141
 20
68.3443
 30
0.0
  0
SPLINE
  5
6E
330
1F
100
AcDbEntity
  8
layer 1
 62
     7
100
AcDbSpline
210
0.0
220
0.0
230
1.0
 70
    11
 71
     3
 72
    20
 73
    16
 74
     0
 42
0.0000000001
 43
0.0000000001
 12
1.0
 22
0.0
 32
0.0
 13
1.0
 23
0.0
 33
0.0
 40
0.0
 40
0.0
 40
0.0
 40
0.0
 40
0.2
 40
0.2
 40
0.2
 40
0.2
 40
0.4
 40
0.4
 40
0.4
 40
0.4
 40
0.6
 40
0.6
 40
0.6
 40
0.6
 40
1.0
 40
1.0
 40
1.0
 40
1.0
 10
-67.0288
 20
64.2315
 30
0.0
 10
-62.4318
 20
66.7717
 30
0.0
 10
-59.0446
 20
70.28
 30
0.0
 10
-56.8671
 20
74.5138
 30
0.0
 10
-56.8671
 20
74.5138
 30
0.0
 10
-56.3833
 20
75.4815
 30
0.0
 10
-50.8186
 20
70.6428
 30
0.0
 10
-52.7543
 20
69.9168
 30
0.0
 10
-52.7543
 20
69.9168
 30
0.0
 10
-57.7141
 20
67.2555
 30
0.0
 10
-60.4964
 20
63.7476
 30
0.0
 10
-62.5528
 20
59.9976
 30
0.0
 10
-62.5528
 20
59.9976
 30
0.0
 10
-63.2788
 20
58.9089
 30
0.0
 10
-67.7544
 20
63.6266
 30
0.0
 10
-67.0288
 20
64.2315
 30
0.0
  0
SPLINE
  5
6F
330
1F
100
AcDbEntity
  8
layer 1
 62
     7
100
AcDbSpline
210
0.0
220
0.0
230
1.0
 70
    11
 71
     3
 72
    20
 73
    16
 74
     0
 42
0.0000000001
 43
0.0000000001
 12
1.0
 22
0.0
 32
0.0
 13
1.0
 23
0.0
 33
0.0
 40
0.0
 40
0.0
 40
0.0
 40
0.0
 40
0.2
 40
0.2
 40
0.2
 40
0.2
 40
0.4
 40
0.4
 40
0.4
 40
0.4
 40
0.6
 40
0.6
 40
0.6
 40
0.6
 40
1.0
 40
1.0
 40
1.0
 40
1.0
 10
-65.2141
 20
51.5296
 30
0.0
 10
-67.6337
 20
56.1266
 30
0.0
 10
-71.2626
 20
59.5134
 30
0.0
 10
-75.3754
 20
61.6909
 30
0.0
 10
-75.3754
 20
61.6909
 30
0.0
 10
-76.3435
 20
62.1751
 30
0.0
 10
-71.6254
 20
67.7394
 30
0.0
 10
-70.7788
 20
65.804
 30
0.0
 10
-70.7788
 20
65.804
 30
0.0
 10
-68.1175
 20
60.8442
 30
0.0
 10
-64.7303
 20
58.0619
 30
0.0
 10
-60.8592
 20
56.0055
 30
0.0
 10
-60.8592
 20
56.0055
 30
0.0
 10
-59.7705
 20
55.2796
 30
0.0
 10
-64.6092
 20
50.8036
 30
0.0
 10
-65.2141
 20
51.5296
 30
0.0
  0
SPLINE
  5
70
330
1F
100
AcDbEntity
  8
layer 1
 62
     7
100
AcDbSpline
210
0.0
220
0.0
230
1.0
 70
    11
 71
     3
 72
    20
 73
    16
 74
     0
 42
0.0000000001
 43
0.0000000001
 12
1.0
 22
0.0
 32
0.0
 13
1.0
 23
0.0
 33
0.0
 40
0.0
 40
0.0
 40
0.0
 40
0.0
 40
0.2
 40
0.2
 40
0.2
 40
0.2
 40
0.4
 40
0.4
 40
0.4
 40
0.4
 40
0.6
 40
0.6
 40
0.6
 40
0.6
 40
1.0
 40
1.0
 40
1.0
 40
1.0
 10
-67.0288
 20
47.4168
 30
0.0
 10
-62.4318
 20
49.957
 30
0.0
 10
-59.0446
 20
53.586
 30
0.0
 10
-56.8671
 20
57.6991
 30
0.0
 10
-56.8671
 20
57.6991
 30
0.0
 10
-56.3833
 20
58.6668
 30
0.0
 10
-50.8186
 20
53.9491
 30
0.0
 10
-52.7543
 20
53.1021
 30
0.0
 10
-52.7543
 20
53.1021
 30
0.0
 10
-57.7141
 20
50.4408
 30
0.0
 10
-60.4964
 20
47.0536
 30
0.0
 10
-62.5528
 20
43.1826
 30
0.0
 10
-62.5528
 20
43.1826
 30
0.0
 10
-63.2788
 20
42.0938
 30
0.0
 10
-67.7544
 20
46.9329
 30
0.0
 10
-67.0288
 20
47.4168
 30
0.0
  0
SPLINE
  5
71
330
1F
100
AcDbEntity
  8
layer 1
 62
     7
100
AcDbSpline
210
0.0
220
0.0
230
1.0
 70
    11
 71
     3
 72
    20
 73
    16
 74
     0
 42
0.0000000001
 43
0.0000000001
 12
1.0
 22
0.0
 32
0.0
 13
1.0
 23
0.0
 33
0.0
 40
0.0
 40
0.0
 40
0.0
 40
0.0
 40
0.2
 40
0.2
 40
0.2
 40
0.2
 40
0.4
 40
0.4
 40
0.4
 40
0.4
 40
0.6
 40
0.6
 40
0.6
 40
0.6
 40
1.0
 40
1.0
 40
1.0
 40
1.0
 10
-65.2141
 20
34.7148
 30
0.0
 10
-67.6337
 20
39.4325
 30
0.0
 10
-71.2626
 20
42.8198
 30
0.0
 10
-75.3754
 20
44.9972
 30
0.0
 10
-75.3754
 20
44.9972
 30
0.0
 10
-76.3435
 20
45.481
 30
0.0
 10
-71.6254
 20
51.0457
 30
0.0
 10
-70.7788
 20
48.9893
 30
0.0
 10
-70.7788
 20
48.9893
 30
0.0
 10
-68.1175
 20
44.1506
 30
0.0
 10
-64.7303
 20
41.3682
 30
0.0
 10
-60.8592
 20
39.1908
 30
0.0
 10
-60.8592
 20
39.1908
 30
0.0
 10
-59.7705
 20
38.4649
 30
0.0
 10
-64.6092
 20
33.9889
 30
0.0
 10
-65.2141
 20
34.7148
 30
0.0
  0
SPLINE
  5
72
330
1F
100
AcDbEntity
  8
layer 1
 62
     7
100
AcDbSpline
210
0.0
220
0.0
230
1.0
 70
    11
 71
     3
 72
    20
 73
    16
 74
     0
 42
0.0000000001
 43
0.0000000001
 12
1.0
 22
0.0
 32
0.0
 13
1.0
 23
0.0
 33
0.0
 40
0.0
 40
0.0
 40
0.0
 40
0.0
 40
0.2
 40
0.2
 40
0.2
 40
0.2
 40
0.4
 40
0.4
 40
0.4
 40
0.4
 40
0.6
 40
0.6
 40
0.6
 40
0.6
 40
1.0
 40
1.0
 40
1.0
 40
1.0
 10
-67.0288
 20
30.7227
 30
0.0
 10
-62.4318
 20
33.2633
 30
0.0
 10
-59.0446
 20
36.7712
 30
0.0
 10
-56.8671
 20
41.0051
 30
0.0
 10
-56.8671
 20
41.0051
 30
0.0
 10
-56.3833
 20
41.9731
 30
0.0
 10
-50.8186
 20
37.1344
 30
0.0
 10
-52.7543
 20
36.2874
 30
0.0
 10
-52.7543
 20
36.2874
 30
0.0
 10
-57.7141
 20
33.6261
 30
0.0
 10
-60.4964
 20
30.2389
 30
0.0
 10
-62.5528
 20
26.4889
 30
0.0
 10
-62.5528
 20
26.4889
 30
0.0
 10
-63.2788
 20
25.2791
 30
0.0
 10
-67.7544
 20
30.1179
 30
0.0
 10
-67.0288
 20
30.7227
 30
0.0
  0
SPLINE
  5
73
330
1F
100
AcDbEntity
  8
layer 1
 62
     7
100
AcDbSpline
210
0.0
220
0.0
230
1.0
 70
    11
 71
     3
 72
    20
 73
    16
 74
     0
 42
0.0000000001
 43
0.0000000001
 12
1.0
 22
0.0
 32
0.0
 13
1.0
 23
0.0
 33
0.0
 40
0.0
 40
0.0
 40
0.0
 40
0.0
 40
0.2
 40
0.2
 40
0.2
 40
0.2
 40
0.4
 40
0.4
 40
0.4
 40
0.4
 40
0.6
 40
0.6
 40
0.6
 40
0.6
 40
1.0
 40
1.0
 40
1.0
 40
1.0
 10
-65.2141
 20
18.0212
 30
0.0
 10
-67.6337
 20
22.6178
 30
0.0
 10
-71.2626
 20
26.005
 30
0.0
 10
-75.3754
 20
28.1825
 30
0.0
 10
-75.3754
 20
28.1825
 30
0.0
 10
-76.3435
 20
28.6663
 30
0.0
 10
-71.6254
 20
34.231
 30
0.0
 10
-70.7788
 20
32.1746
 30
0.0
 10
-70.7788
 20
32.1746
 30
0.0
 10
-68.1175
 20
27.3359
 30
0.0
 10
-64.7303
 20
24.5535
 30
0.0
 10
-60.8592
 20
22.4968
 30
0.0
 10
-60.8592
 20
22.4968
 30
0.0
 10
-59.7705
 20
21.7712
 30
0.0
 10
-64.6092
 20
17.1742
 30
0.0
 10
-65.2141
 20
18.0212
 30
0.0
  0
SPLINE
  5
74
330
1F
100
AcDbEntity
  8
layer 1
 62
     7
100
AcDbSpline
210
0.0
220
0.0
230
1.0
 70
    11
 71
     3
 72
    20
 73
    16
 74
     0
 42
0.0000000001
 43
0.0000000001
 12
1.0
 22
0.0
 32
0.0
 13
1.0
 23
0.0
 33
0.0
 40
0.0
 40
0.0
 40
0.0
 40
0.0
 40
0.2
 40
0.2
 40
0.2
 40
0.2
 40
0.4
 40
0.4
 40
0.4
 40
0.4
 40
0.6
 40
0.6
 40
0.6
 40
0.6
 40
1.0
 40
1.0
 40
1.0
 40
1.0
 10
-67.0288
 20
13.908
 30
0.0
 10
-62.4318
 20
16.4486
 30
0.0
 10
-59.0446
 20
19.9565
 30
0.0
 10
-56.8671
 20
24.1904
 30
0.0
 10
-56.8671
 20
24.1904
 30
0.0
 10
-56.3833
 20
25.1584
 30
0.0
 10
-50.8186
 20
20.3193
 30
0.0
 10
-52.7543
 20
19.5937
 30
0.0
 10
-52.7543
 20
19.5937
 30
0.0
 10
-57.7141
 20
16.9325
 30
0.0
 10
-60.4964
 20
13.4242
 30
0.0
 10
-62.5528
 20
9.6742
 30
0.0
 10
-62.5528
 20
9.6742
 30
0.0
 10
-63.2788
 20
8.5854
 30
0.0
 10
-67.7544
 20
13.4242
 30
0.0
 10
-67.0288
 20
13.908
 30
0.0
  0
SPLINE
  5
75
330
1F
100
AcDbEntity
  8
layer 1
 62
     7
100
AcDbSpline
210
0.0
220
0.0
230
1.0
 70
    11
 71
     3
 72
    20
 73
    16
 74
     0
 42
0.0000000001
 43
0.0000000001
 12
1.0
 22
0.0
 32
0.0
 13
1.0
 23
0.0
 33
0.0
 40
0.0
 40
0.0
 40
0.0
 40
0.0
 40
0.2
 40
0.2
 40
0.2
 40
0.2
 40
0.4
 40
0.4
 40
0.4
 40
0.4
 40
0.6
 40
0.6
 40
0.6
 40
0.6
 40
1.0
 40
1.0
 40
1.0
 40
1.0
 10
-65.2141
 20
1.2065
 30
0.0
 10
-67.6337
 20
5.8031
 30
0.0
 10
-71.2626
 20
9.3114
 30
0.0
 10
-75.3754
 20
11.3678
 30
0.0
 10
-75.3754
 20
11.3678
 30
0.0
 10
-76.3435
 20
11.8516
 30
0.0
 10
-71.6254
 20
17.4163
 30
0.0
 10
-70.7788
 20
15.4806
 30
0.0
 10
-70.7788
 20
15.4806
 30
0.0
 10
-68.1175
 20
10.6418
 30
0.0
 10
-64.7303
 20
7.8595
 30
0.0
 10
-60.8592
 20
5.6821
 30
0.0
 10
-60.8592
 20
5.6821
 30
0.0
 10
-59.7705
 20
4.9565
 30
0.0
 10
-64.6092
 20
0.4805
 30
0.0
 10
-65.2141
 20
1.2065
 30
0.0
  0
SPLINE
  5
76
330
1F
100
AcDbEntity
  8
layer 1
 62
     7
100
AcDbSpline
210
0.0
220
0.0
230
1.0
 70
    11
 71
     3
 72
    20
 73
    16
 74
     0
 42
0.0000000001
 43
0.0000000001
 12
1.0
 22
0.0
 32
0.0
 13
1.0
 23
0.0
 33
0.0
 40
0.0
 40
0.0
 40
0.0
 40
0.0
 40
0.2
 40
0.2
 40
0.2
 40
0.2
 40
0.4
 40
0.4
 40
0.4
 40
0.4
 40
0.6
 40
0.6
 40
0.6
 40
0.6
 40
1.0
 40
1.0
 40
1.0
 40
1.0
 10
-67.0288
 20
-2.7856
 30
0.0
 10
-62.4318
 20
-0.3664
 30
0.0
 10
-59.0446
 20
3.2629
 30
0.0
 10
-56.8671
 20
7.3757
 30
0.0
 10
-56.8671
 20
7.3757
 30
0.0
 10
-56.3833
 20
8.3434
 30
0.0
 10
-50.8186
 20
3.6257
 30
0.0
 10
-52.7543
 20
2.779
 30
0.0
 10
-52.7543
 20
2.779
 30
0.0
 10
-57.7141
 20
0.1177
 30
0.0
 10
-60.4964
 20
-3.2695
 30
0.0
 10
-62.5528
 20
-7.1405
 30
0.0
 10
-62.5528
 20
-7.1405
 30
0.0
 10
-63.2788
 20
-8.2293
 30
0.0
 10
-67.7544
 20
-3.3905
 30
0.0
 10
-67.0288
 20
-2.7856
 30
0.0
  0
SPLINE
  5
77
330
1F
100
AcDbEntity
  8
layer 1
 62
     7
100
AcDbSpline
210
0.0
220
0.0
230
1.0
 70
    11
 71
     3
 72
    20
 73
    16
 74
     0
 42
0.0000000001
 43
0.0000000001
 12
1.0
 22
0.0
 32
0.0
 13
1.0
 23
0.0
 33
0.0
 40
0.0
 40
0.0
 40
0.0
 40
0.0
 40
0.2
 40
0.2
 40
0.2
 40
0.2
 40
0.4
 40
0.4
 40
0.4
 40
0.4
 40
0.6
 40
0.6
 40
0.6
 40
0.6
 40
1.0
 40
1.0
 40
1.0
 40
1.0
 10
-65.2141
 20
-15.4876
 30
0.0
 10
-67.6337
 20
-10.8906
 30
0.0
 10
-71.2626
 20
-7.5033
 30
0.0
 10
-75.3754
 20
-5.3259
 30
0.0
 10
-75.3754
 20
-5.3259
 30
0.0
 10
-76.3435
 20
-4.842
 30
0.0
 10
-71.6254
 20
0.7223
 30
0.0
 10
-70.7788
 20
-1.3341
 30
0.0
 10
-70.7788
 20
-1.3341
 30
0.0
 10
-68.1175
 20
-6.1729
 30
0.0
 10
-64.7303
 20
-8.9552
 30
0.0
 10
-60.8592
 20
-11.1327
 30
0.0
 10
-60.8592
 20
-11.1327
 30
0.0
 10
-59.7705
 20
-11.7375
 30
0.0
 10
-64.6092
 20
-16.3342
 30
0.0
 10
-65.2141
 20
-15.4876
 30
0.0
  0
SPLINE
  5
78
330
1F
100
AcDbEntity
  8
layer 1
 62
     7
100
AcDbSpline
210
0.0
220
0.0
230
1.0
 70
    11
 71
     3
 72
    20
 73
    16
 74
     0
 42
0.0000000001
 43
0.0000000001
 12
1.0
 22
0.0
 32
0.0
 13
1.0
 23
0.0
 33
0.0
 40
0.0
 40
0.0
 40
0.0
 40
0.0
 40
0.2
 40
0.2
 40
0.2
 40
0.2
 40
0.4
 40
0.4
 40
0.4
 40
0.4
 40
0.6
 40
0.6
 40
0.6
 40
0.6
 40
1.0
 40
1.0
 40
1.0
 40
1.0
 10
-67.0288
 20
-19.6004
 30
0.0
 10
-62.4318
 20
-17.0601
 30
0.0
 10
-59.0446
 20
-13.5518
 30
0.0
 10
-56.8671
 20
-9.318
 30
0.0
 10
-56.8671
 20
-9.318
 30
0.0
 10
-56.3833
 20
-8.3503
 30
0.0
 10
-50.8186
 20
-13.1891
 30
0.0
 10
-52.7543
 20
-14.0357
 30
0.0
 10
-52.7543
 20
-14.0357
 30
0.0
 10
-57.7141
 20
-16.5763
 30
0.0
 10
-60.4964
 20
-20.0842
 30
0.0
 10
-62.5528
 20
-23.8342
 30
0.0
 10
-62.5528
 20
-23.8342
 30
0.0
 10
-63.2788
 20
-25.044
 30
0.0
 10
-67.7544
 20
-20.2052
 30
0.0
 10
-67.0288
 20
-19.6004
 30
0.0
  0
SPLINE
  5
79
330
1F
100
AcDbEntity
  8
layer 1
 62
     7
100
AcDbSpline
210
0.0
220
0.0
230
1.0
 70
    11
 71
     3
 72
    20
 73
    16
 74
     0
 42
0.0000000001
 43
0.0000000001
 12
1.0
 22
0.0
 32
0.0
 13
1.0
 23
0.0
 33
0.0
 40
0.0
 40
0.0
 40
0.0
 40
0.0
 40
0.2
 40
0.2
 40
0.2
 40
0.2
 40
0.4
 40
0.4
 40
0.4
 40
0.4
 40
0.6
 40
0.6
 40
0.6
 40
0.6
 40
1.0
 40
1.0
 40
1.0
 40
1.0
 10
-65.2141
 20
-32.3023
 30
0.0
 10
-67.6337
 20
-27.7053
 30
0.0
 10
-71.2626
 20
-24.3184
 30
0.0
 10
-75.3754
 20
-22.1409
 30
0.0
 10
-75.3754
 20
-22.1409
 30
0.0
 10
-76.3435
 20
-21.6568
 30
0.0
 10
-71.6254
 20
-16.0924
 30
0.0
 10
-70.7788
 20
-18.0278
 30
0.0
 10
-70.7788
 20
-18.0278
 30
0.0
 10
-68.1175
 20
-22.9876
 30
0.0
 10
-64.7303
 20
-25.7699
 30
0.0
 10
-60.8592
 20
-27.8263
 30
0.0
 10
-60.8592
 20
-27.8263
 30
0.0
 10
-59.7705
 20
-28.5523
 30
0.0
 10
-64.6092
 20
-33.1489
 30
0.0
 10
-65.2141
 20
-32.3023
 30
0.0
  0
SPLINE
  5
7A
330
1F
100
AcDbEntity
  8
layer 1
 62
     7
100
AcDbSpline
210
0.0
220
0.0
230
1.0
 70
    11
 71
     3
 72
    20
 73
    16
 74
     0
 42
0.0000000001
 43
0.0000000001
 12
1.0
 22
0.0
 32
0.0
 13
1.0
 23
0.0
 33
0.0
 40
0.0
 40
0.0
 40
0.0
 40
0.0
 40
0.2
 40
0.2
 40
0.2
 40
0.2
 40
0.4
 40
0.4
 40
0.4
 40
0.4
 40
0.6
 40
0.6
 40
0.6
 40
0.6
 40
1.0
 40
1.0
 40
1.0
 40
1.0
 10
-67.0288
 20
-36.4151
 30
0.0
 10
-62.4318
 20
-33.8748
 30
0.0
 10
-59.0446
 20
-30.2459
 30
0.0
 10
-56.8671
 20
-26.1327
 30
0.0
 10
-56.8671
 20
-26.1327
 30
0.0
 10
-56.3833
 20
-25.165
 30
0.0
 10
-50.8186
 20
-29.8827
 30
0.0
 10
-52.7543
 20
-30.7297
 30
0.0
 10
-52.7543
 20
-30.7297
 30
0.0
 10
-57.7141
 20
-33.391
 30
0.0
 10
-60.4964
 20
-36.8989
 30
0.0
 10
-62.5528
 20
-40.6493
 30
0.0
 10
-62.5528
 20
-40.6493
 30
0.0
 10
-63.2788
 20
-41.738
 30
0.0
 10
-67.7544
 20
-36.8989
 30
0.0
 10
-67.0288
 20
-36.4151
 30
0.0
  0
SPLINE
  5
7B
330
1F
100
AcDbEntity
  8
layer 1
 62
     7
100
AcDbSpline
210
0.0
220
0.0
230
1.0
 70
    11
 71
     3
 72
    20
 73
    16
 74
     0
 42
0.0000000001
 43
0.0000000001
 12
1.0
 22
0.0
 32
0.0
 13
1.0
 23
0.0
 33
0.0
 40
0.0
 40
0.0
 40
0.0
 40
0.0
 40
0.2
 40
0.2
 40
0.2
 40
0.2
 40
0.4
 40
0.4
 40
0.4
 40
0.4
 40
0.6
 40
0.6
 40
0.6
 40
0.6
 40
1.0
 40
1.0
 40
1.0
 40
1.0
 10
-65.2141
 20
-49.117
 30
0.0
 10
-67.6337
 20
-44.52
 30
0.0
 10
-71.2626
 20
-41.0121
 30
0.0
 10
-75.3754
 20
-38.8346
 30
0.0
 10
-75.3754
 20
-38.8346
 30
0.0
 10
-76.3435
 20
-38.3508
 30
0.0
 10
-71.6254
 20
-32.9072
 30
0.0
 10
-70.7788
 20
-34.8425
 30
0.0
 10
-70.7788
 20
-34.8425
 30
0.0
 10
-68.1175
 20
-39.6812
 30
0.0
 10
-64.7303
 20
-42.4636
 30
0.0
 10
-60.8592
 20
-44.641
 30
0.0
 10
-60.8592
 20
-44.641
 30
0.0
 10
-59.7705
 20
-45.367
 30
0.0
 10
-64.6092
 20
-49.8429
 30
0.0
 10
-65.2141
 20
-49.117
 30
0.0
  0
SPLINE
  5
7C
330
1F
100
AcDbEntity
  8
layer 1
 62
     7
100
AcDbSpline
210
0.0
220
0.0
230
1.0
 70
    11
 71
     3
 72
    20
 73
    16
 74
     0
 42
0.0000000001
 43
0.0000000001
 12
1.0
 22
0.0
 32
0.0
 13
1.0
 23
0.0
 33
0.0
 40
0.0
 40
0.0
 40
0.0
 40
0.0
 40
0.2
 40
0.2
 40
0.2
 40
0.2
 40
0.4
 40
0.4
 40
0.4
 40
0.4
 40
0.6
 40
0.6
 40
0.6
 40
0.6
 40
1.0
 40
1.0
 40
1.0
 40
1.0
 10
-67.0288
 20
-53.1091
 30
0.0
 10
-62.4318
 20
-50.5685
 30
0.0
 10
-59.0446
 20
-47.0606
 30
0.0
 10
-56.8671
 20
-42.9474
 30
0.0
 10
-56.8671
 20
-42.9474
 30
0.0
 10
-56.3833
 20
-41.9797
 30
0.0
 10
-50.8186
 20
-46.6974
 30
0.0
 10
-52.7543
 20
-47.5444
 30
0.0
 10
-52.7543
 20
-47.5444
 30
0.0
 10
-57.7141
 20
-50.2057
 30
0.0
 10
-60.4964
 20
-53.5929
 30
0.0
 10
-62.5528
 20
-57.464
 30
0.0
 10
-62.5528
 20
-57.464
 30
0.0
 10
-63.2788
 20
-58.5527
 30
0.0
 10
-67.7544
 20
-53.714
 30
0.0
 10
-67.0288
 20
-53.1091
 30
0.0
  0
SPLINE
  5
7D
330
1F
100
AcDbEntity
  8
layer 1
 62
     7
100
AcDbSpline
210
0.0
220
0.0
230
1.0
 70
    11
 71
     3
 72
    20
 73
    16
 74
     0
 42
0.0000000001
 43
0.0000000001
 12
1.0
 22
0.0
 32
0.0
 13
1.0
 23
0.0
 33
0.0
 40
0.0
 40
0.0
 40
0.0
 40
0.0
 40
0.2
 40
0.2
 40
0.2
 40
0.2
 40
0.4
 40
0.4
 40
0.4
 40
0.4
 40
0.6
 40
0.6
 40
0.6
 40
0.6
 40
1.0
 40
1.0
 40
1.0
 40
1.0
 10
-65.2141
 20
-65.8106
 30
0.0
 10
-67.6337
 20
-61.214
 30
0.0
 10
-71.2626
 20
-57.8268
 30
0.0
 10
-75.3754
 20
-55.6493
 30
0.0
 10
-75.3754
 20
-55.6493
 30
0.0
 10
-76.3435
 20
-55.1655
 30
0.0
 10
-71.6254
 20
-49.6008
 30
0.0
 10
-70.7788
 20
-51.6572
 30
0.0
 10
-70.7788
 20
-51.6572
 30
0.0
 10
-68.1175
 20
-56.496
 30
0.0
 10
-64.7303
 20
-59.2783
 30
0.0
 10
-60.8592
 20
-61.335
 30
0.0
 10
-60.8592
 20
-61.335
 30
0.0
 10
-59.7705
 20
-62.0606
 30
0.0
 10
-64.6092
 20
-66.6576
 30
0.0
 10
-65.2141
 20
-65.8106
 30
0.0
  0
SPLINE
  5
7E
330
1F
100
AcDbEntity
  8
layer 1
 62
     7
100
AcDbSpline
210
0.0
220
0.0
230
1.0
 70
    11
 71
     3
 72
    20
 73
    16
 74
     0
 42
0.0000000001
 43
0.0000000001
 12
1.0
 22
0.0
 32
0.0
 13
1.0
 23
0.0
 33
0.0
 40
0.0
 40
0.0
 40
0.0
 40
0.0
 40
0.2
 40
0.2
 40
0.2
 40
0.2
 40
0.4
 40
0.4
 40
0.4
 40
0.4
 40
0.6
 40
0.6
 40
0.6
 40
0.6
 40
1.0
 40
1.0
 40
1.0
 40
1.0
 10
-67.0288
 20
-69.9238
 30
0.0
 10
-62.4318
 20
-67.3832
 30
0.0
 10
-59.0446
 20
-63.8753
 30
0.0
 10
-56.8671
 20
-59.6414
 30
0.0
 10
-56.8671
 20
-59.6414
 30
0.0
 10
-56.3833
 20
-58.6734
 30
0.0
 10
-50.8186
 20
-63.5125
 30
0.0
 10
-52.7543
 20
-64.2381
 30
0.0
 10
-52.7543
 20
-64.2381
 30
0.0
 10
-57.7141
 20
-66.8994
 30
0.0
 10
-60.4964
 20
-70.4076
 30
0.0
 10
-62.5528
 20
-74.1577
 30
0.0
 10
-62.5528
 20
-74.1577
 30
0.0
 10
-63.2788
 20
-75.2464
 30
0.0
 10
-67.7544
 20
-70.5287
 30
0.0
 10
-67.0288
 20
-69.9238
 30
0.0
  0
SPLINE
  5
7F
330
1F
100
AcDbEntity
  8
layer 1
 62
     7
100
AcDbSpline
210
0.0
220
0.0
230
1.0
 70
    11
 71
     3
 72
    20
 73
    16
 74
     0
 42
0.0000000001
 43
0.0000000001
 12
1.0
 22
0.0
 32
0.0
 13
1.0
 23
0.0
 33
0.0
 40
0.0
 40
0.0
 40
0.0
 40
0.0
 40
0.2
 40
0.2
 40
0.2
 40
0.2
 40
0.4
 40
0.4
 40
0.4
 40
0.4
 40
0.6
 40
0.6
 40
0.6
 40
0.6
 40
1.0
 40
1.0
 40
1.0
 40
1.0
 10
-65.2141
 20
-82.6254
 30
0.0
 10
-67.6337
 20
-78.0287
 30
0.0
 10
-71.2626
 20
-74.5204
 30
0.0
 10
-75.3754
 20
-72.464
 30
0.0
 10
-75.3754
 20
-72.464
 30
0.0
 10
-76.3435
 20
-71.9802
 30
0.0
 10
-71.6254
 20
-66.4155
 30
0.0
 10
-70.7788
 20
-68.3512
 30
0.0
 10
-70.7788
 20
-68.3512
 30
0.0
 10
-68.1175
 20
-73.311
 30
0.0
 10
-64.7303
 20
-76.093
 30
0.0
 10
-60.8592
 20
-78.1498
 30
0.0
 10
-60.8592
 20
-78.1498
 30
0.0
 10
-59.7705
 20
-78.8753
 30
0.0
 10
-64.6092
 20
-83.3513
 30
0.0
 10
-65.2141
 20
-82.6254
 30
0.0
  0
SPLINE
  5
80
330
1F
100
AcDbEntity
  8
layer 1
 62
     7
100
AcDbSpline
210
0.0
220
0.0
230
1.0
 70
    11
 71
     3
 72
    20
 73
    16
 74
     0
 42
0.0000000001
 43
0.0000000001
 12
1.0
 22
0.0
 32
0.0
 13
1.0
 23
0.0
 33
0.0
 40
0.0
 40
0.0
 40
0.0
 40
0.0
 40
0.2
 40
0.2
 40
0.2
 40
0.2
 40
0.4
 40
0.4
 40
0.4
 40
0.4
 40
0.6
 40
0.6
 40
0.6
 40
0.6
 40
1.0
 40
1.0
 40
1.0
 40
1.0
 10
-67.0288
 20
-86.7385
 30
0.0
 10
-62.4318
 20
-84.1983
 30
0.0
 10
-59.0446
 20
-80.569
 30
0.0
 10
-56.8671
 20
-76.4562
 30
0.0
 10
-56.8671
 20
-76.4562
 30
0.0
 10
-56.3833
 20
-75.4885
 30
0.0
 10
-50.8186
 20
-80.2062
 30
0.0
 10
-52.7543
 20
-81.0528
 30
0.0
 10
-52.7543
 20
-81.0528
 30
0.0
 10
-57.7141
 20
-83.7141
 30
0.0
 10
-60.4964
 20
-87.1013
 30
0.0
 10
-62.5528
 20
-90.9724
 30
0.0
 10
-62.5528
 20
-90.9724
 30
0.0
 10
-63.2788
 20
-92.0611
 30
0.0
 10
-67.7544
 20
-87.2224
 30
0.0
 10
-67.0288
 20
-86.7385
 30
0.0
  0
SPLINE
  5
81
330
1F
100
AcDbEntity
  8
layer 1
 62
     7
100
AcDbSpline
210
0.0
220
0.0
230
1.0
 70
    11
 71
     3
 72
    20
 73
    16
 74
     0
 42
0.0000000001
 43
0.0000000001
 12
1.0
 22
0.0
 32
0.0
 13
1.0
 23
0.0
 33
0.0
 40
0.0
 40
0.0
 40
0.0
 40
0.0
 40
0.2
 40
0.2
 40
0.2
 40
0.2
 40
0.4
 40
0.4
 40
0.4
 40
0.4
 40
0.6
 40
0.6
 40
0.6
 40
0.6
 40
1.0
 40
1.0
 40
1.0
 40
1.0
 10
-65.2141
 20
-99.4404
 30
0.0
 10
-67.6337
 20
-94.7224
 30
0.0
 10
-71.2626
 20
-91.3352
 30
0.0
 10
-75.3754
 20
-89.1577
 30
0.0
 10
-75.3754
 20
-89.1577
 30
0.0
 10
-76.3435
 20
-88.6739
 30
0.0
 10
-71.6254
 20
-83.1095
 30
0.0
 10
-70.7788
 20
-85.166
 30
0.0
 10
-70.7788
 20
-85.166
 30
0.0
 10
-68.1175
 20
-90.0047
 30
0.0
 10
-64.7303
 20
-92.787
 30
0.0
 10
-60.8592
 20
-94.9645
 30
0.0
 10
-60.8592
 20
-94.9645
 30
0.0
 10
-59.7705
 20
-95.6901
 30
0.0
 10
-64.6092
 20
-100.166
 30
0.0
 10
-65.2141
 20
-99.4404
 30
0.0
  0
SPLINE
  5
82
330
1F
100
AcDbEntity
  8
layer 1
 62
     7
100
AcDbSpline
210
0.0
220
0.0
230
1.0
 70
    11
 71
     3
 72
    20
 73
    16
 74
     0
 42
0.0000000001
 43
0.0000000001
 12
1.0
 22
0.0
 32
0.0
 13
1.0
 23
0.0
 33
0.0
 40
0.0
 40
0.0
 40
0.0
 40
0.0
 40
0.2
 40
0.2
 40
0.2
 40
0.2
 40
0.4
 40
0.4
 40
0.4
 40
0.4
 40
0.6
 40
0.6
 40
0.6
 40
0.6
 40
1.0
 40
1.0
 40
1.0
 40
1.0
 10
-67.0288
 20
-103.4322
 30
0.0
 10
-62.4318
 20
-100.8919
 30
0.0
 10
-59.0446
 20
-97.3837
 30
0.0
 10
-56.8671
 20
-93.1498
 30
0.0
 10
-56.8671
 20
-93.1498
 30
0.0
 10
-56.3833
 20
-92.1821
 30
0.0
 10
-50.8186
 20
-97.0209
 30
0.0
 10
-52.7543
 20
-97.8675
 30
0.0
 10
-52.7543
 20
-97.8675
 30
0.0
 10
-55.7784
 20
-99.4404
 30
0.0
 10
-57.9558
 20
-101.3758
 30
0.0
 10
-59.6494
 20
-103.4322
 30
0.0
 10
-59.6494
 20
-103.4322
 30
0.0
 10
-59.6494
 20
-103.4322
 30
0.0
 10
-67.0288
 20
-103.4322
 30
0.0
 10
-67.0288
 20
-103.4322
 30
0.0
  0
SPLINE
  5
83
330
1F
100
AcDbEntity
  8
layer 1
 62
     7
100
AcDbSpline
210
0.0
220
0.0
230
1.0
 70
    11
 71
     3
 72
    20
 73
    16
 74
     0
 42
0.0000000001
 43
0.0000000001
 12
1.0
 22
0.0
 32
0.0
 13
1.0
 23
0.0
 33
0.0
 40
0.0
 40
0.0
 40
0.0
 40
0.0
 40
0.2
 40
0.2
 40
0.2
 40
0.2
 40
0.4
 40
0.4
 40
0.4
 40
0.4
 40
0.6
 40
0.6
 40
0.6
 40
0.6
 40
1.0
 40
1.0
 40
1.0
 40
1.0
 10
-81.9078
 20
-99.4404
 30
0.0
 10
-84.4484
 20
-94.7224
 30
0.0
 10
-87.9563
 20
-91.3352
 30
0.0
 10
-92.1902
 20
-89.1577
 30
0.0
 10
-92.1902
 20
-89.1577
 30
0.0
 10
-93.1582
 20
-88.6739
 30
0.0
 10
-88.3194
 20
-83.1095
 30
0.0
 10
-87.5935
 20
-85.166
 30
0.0
 10
-87.5935
 20
-85.166
 30
0.0
 10
-84.9322
 20
-90.0047
 30
0.0
 10
-81.4239
 20
-92.787
 30
0.0
 10
-77.6739
 20
-94.9645
 30
0.0
 10
-77.6739
 20
-94.9645
 30
0.0
 10
-76.5852
 20
-95.6901
 30
0.0
 10
-81.4239
 20
-100.166
 30
0.0
 10
-81.9078
 20
-99.4404
 30
0.0
  0
SPLINE
  5
84
330
1F
100
AcDbEntity
  8
layer 1
 62
     7
100
AcDbSpline
210
0.0
220
0.0
230
1.0
 70
    11
 71
     3
 72
    20
 73
    16
 74
     0
 42
0.0000000001
 43
0.0000000001
 12
1.0
 22
0.0
 32
0.0
 13
1.0
 23
0.0
 33
0.0
 40
0.0
 40
0.0
 40
0.0
 40
0.0
 40
0.2
 40
0.2
 40
0.2
 40
0.2
 40
0.4
 40
0.4
 40
0.4
 40
0.4
 40
0.6
 40
0.6
 40
0.6
 40
0.6
 40
1.0
 40
1.0
 40
1.0
 40
1.0
 10
-83.7224
 20
-103.4322
 30
0.0
 10
-79.1255
 20
-100.8919
 30
0.0
 10
-75.7386
 20
-97.3837
 30
0.0
 10
-73.5611
 20
-93.1498
 30
0.0
 10
-73.5611
 20
-93.1498
 30
0.0
 10
-73.0773
 20
-92.1821
 30
0.0
 10
-67.6337
 20
-97.0209
 30
0.0
 10
-69.569
 20
-97.8675
 30
0.0
 10
-69.569
 20
-97.8675
 30
0.0
 10
-72.4724
 20
-99.4404
 30
0.0
 10
-74.7706
 20
-101.3758
 30
0.0
 10
-76.4642
 20
-103.4322
 30
0.0
 10
-76.4642
 20
-103.4322
 30
0.0
 10
-76.4642
 20
-103.4322
 30
0.0
 10
-83.7224
 20
-103.4322
 30
0.0
 10
-83.7224
 20
-103.4322
 30
0.0
  0
SPLINE
  5
85
330
1F
100
AcDbEntity
  8
layer 1
 62
     7
100
AcDbSpline
210
0.0
220
0.0
230
1.0
 70
    11
 71
     3
 72
    20
 73
    16
 74
     0
 42
0.0000000001
 43
0.0000000001
 12
1.0
 22
0.0
 32
0.0
 13
1.0
 23
0.0
 33
0.0
 40
0.0
 40
0.0
 40
0.0
 40
0.0
 40
0.2
 40
0.2
 40
0.2
 40
0.2
 40
0.4
 40
0.4
 40
0.4
 40
0.4
 40
0.6
 40
0.6
 40
0.6
 40
0.6
 40
1.0
 40
1.0
 40
1.0
 40
1.0
 10
-81.9078
 20
-82.6254
 30
0.0
 10
-84.4484
 20
-78.0287
 30
0.0
 10
-87.9563
 20
-74.5204
 30
0.0
 10
-92.1902
 20
-72.464
 30
0.0
 10
-92.1902
 20
-72.464
 30
0.0
 10
-93.1582
 20
-71.9802
 30
0.0
 10
-88.3194
 20
-66.4155
 30
0.0
 10
-87.5935
 20
-68.3512
 30
0.0
 10
-87.5935
 20
-68.3512
 30
0.0
 10
-84.9322
 20
-73.311
 30
0.0
 10
-81.4239
 20
-76.093
 30
0.0
 10
-77.6739
 20
-78.1498
 30
0.0
 10
-77.6739
 20
-78.1498
 30
0.0
 10
-76.5852
 20
-78.8753
 30
0.0
 10
-81.4239
 20
-83.3513
 30
0.0
 10
-81.9078
 20
-82.6254
 30
0.0
  0
SPLINE
  5
86
330
1F
100
AcDbEntity
  8
layer 1
 62
     7
100
AcDbSpline
210
0.0
220
0.0
230
1.0
 70
    11
 71
     3
 72
    20
 73
    16
 74
     0
 42
0.0000000001
 43
0.0000000001
 12
1.0
 22
0.0
 32
0.0
 13
1.0
 23
0.0
 33
0.0
 40
0.0
 40
0.0
 40
0.0
 40
0.0
 40
0.2
 40
0.2
 40
0.2
 40
0.2
 40
0.4
 40
0.4
 40
0.4
 40
0.4
 40
0.6
 40
0.6
 40
0.6
 40
0.6
 40
1.0
 40
1.0
 40
1.0
 40
1.0
 10
-83.8435
 20
-86.7385
 30
0.0
 10
-79.2465
 20
-84.1983
 30
0.0
 10
-75.7386
 20
-80.569
 30
0.0
 10
-73.5611
 20
-76.4562
 30
0.0
 10
-73.5611
 20
-76.4562
 30
0.0
 10
-73.0773
 20
-75.4885
 30
0.0
 10
-67.6337
 20
-80.2062
 30
0.0
 10
-69.569
 20
-81.0528
 30
0.0
 10
-69.569
 20
-81.0528
 30
0.0
 10
-74.4078
 20
-83.7141
 30
0.0
 10
-77.1901
 20
-87.1013
 30
0.0
 10
-79.3675
 20
-90.9724
 30
0.0
 10
-79.3675
 20
-90.9724
 30
0.0
 10
-80.0935
 20
-92.0611
 30
0.0
 10
-84.5691
 20
-87.2224
 30
0.0
 10
-83.8435
 20
-86.7385
 30
0.0
  0
SPLINE
  5
87
330
1F
100
AcDbEntity
  8
layer 1
 62
     7
100
AcDbSpline
210
0.0
220
0.0
230
1.0
 70
    11
 71
     3
 72
    20
 73
    16
 74
     0
 42
0.0000000001
 43
0.0000000001
 12
1.0
 22
0.0
 32
0.0
 13
1.0
 23
0.0
 33
0.0
 40
0.0
 40
0.0
 40
0.0
 40
0.0
 40
0.2
 40
0.2
 40
0.2
 40
0.2
 40
0.4
 40
0.4
 40
0.4
 40
0.4
 40
0.6
 40
0.6
 40
0.6
 40
0.6
 40
1.0
 40
1.0
 40
1.0
 40
1.0
 10
-81.9078
 20
-65.8106
 30
0.0
 10
-84.4484
 20
-61.214
 30
0.0
 10
-87.9563
 20
-57.8268
 30
0.0
 10
-92.1902
 20
-55.6493
 30
0.0
 10
-92.1902
 20
-55.6493
 30
0.0
 10
-93.1582
 20
-55.1655
 30
0.0
 10
-88.3194
 20
-49.6008
 30
0.0
 10
-87.5935
 20
-51.6572
 30
0.0
 10
-87.5935
 20
-51.6572
 30
0.0
 10
-84.9322
 20
-56.496
 30
0.0
 10
-81.4239
 20
-59.2783
 30
0.0
 10
-77.6739
 20
-61.335
 30
0.0
 10
-77.6739
 20
-61.335
 30
0.0
 10
-76.5852
 20
-62.0606
 30
0.0
 10
-81.4239
 20
-66.6576
 30
0.0
 10
-81.9078
 20
-65.8106
 30
0.0
  0
SPLINE
  5
88
330
1F
100
AcDbEntity
  8
layer 1
 62
     7
100
AcDbSpline
210
0.0
220
0.0
230
1.0
 70
    11
 71
     3
 72
    20
 73
    16
 74
     0
 42
0.0000000001
 43
0.0000000001
 12
1.0
 22
0.0
 32
0.0
 13
1.0
 23
0.0
 33
0.0
 40
0.0
 40
0.0
 40
0.0
 40
0.0
 40
0.2
 40
0.2
 40
0.2
 40
0.2
 40
0.4
 40
0.4
 40
0.4
 40
0.4
 40
0.6
 40
0.6
 40
0.6
 40
0.6
 40
1.0
 40
1.0
 40
1.0
 40
1.0
 10
-83.8435
 20
-69.9238
 30
0.0
 10
-79.2465
 20
-67.3832
 30
0.0
 10
-75.7386
 20
-63.8753
 30
0.0
 10
-73.5611
 20
-59.6414
 30
0.0
 10
-73.5611
 20
-59.6414
 30
0.0
 10
-73.0773
 20
-58.6734
 30
0.0
 10
-67.6337
 20
-63.5125
 30
0.0
 10
-69.569
 20
-64.2381
 30
0.0
 10
-69.569
 20
-64.2381
 30
0.0
 10
-74.4078
 20
-66.8994
 30
0.0
 10
-77.1901
 20
-70.4076
 30
0.0
 10
-79.3675
 20
-74.1577
 30
0.0
 10
-79.3675
 20
-74.1577
 30
0.0
 10
-80.0935
 20
-75.2464
 30
0.0
 10
-84.5691
 20
-70.5287
 30
0.0
 10
-83.8435
 20
-69.9238
 30
0.0
  0
SPLINE
  5
89
330
1F
100
AcDbEntity
  8
layer 1
 62
     7
100
AcDbSpline
210
0.0
220
0.0
230
1.0
 70
    11
 71
     3
 72
    20
 73
    16
 74
     0
 42
0.0000000001
 43
0.0000000001
 12
1.0
 22
0.0
 32
0.0
 13
1.0
 23
0.0
 33
0.0
 40
0.0
 40
0.0
 40
0.0
 40
0.0
 40
0.2
 40
0.2
 40
0.2
 40
0.2
 40
0.4
 40
0.4
 40
0.4
 40
0.4
 40
0.6
 40
0.6
 40
0.6
 40
0.6
 40
1.0
 40
1.0
 40
1.0
 40
1.0
 10
-81.9078
 20
-49.117
 30
0.0
 10
-84.4484
 20
-44.52
 30
0.0
 10
-87.9563
 20
-41.0121
 30
0.0
 10
-92.1902
 20
-38.8346
 30
0.0
 10
-92.1902
 20
-38.8346
 30
0.0
 10
-93.1582
 20
-38.3508
 30
0.0
 10
-88.3194
 20
-32.9072
 30
0.0
 10
-87.5935
 20
-34.8425
 30
0.0
 10
-87.5935
 20
-34.8425
 30
0.0
 10
-84.9322
 20
-39.6812
 30
0.0
 10
-81.4239
 20
-42.4636
 30
0.0
 10
-77.6739
 20
-44.641
 30
0.0
 10
-77.6739
 20
-44.641
 30
0.0
 10
-76.5852
 20
-45.367
 30
0.0
 10
-81.4239
 20
-49.8429
 30
0.0
 10
-81.9078
 20
-49.117
 30
0.0
  0
SPLINE
  5
8A
330
1F
100
AcDbEntity
  8
layer 1
 62
     7
100
AcDbSpline
210
0.0
220
0.0
230
1.0
 70
    11
 71
     3
 72
    20
 73
    16
 74
     0
 42
0.0000000001
 43
0.0000000001
 12
1.0
 22
0.0
 32
0.0
 13
1.0
 23
0.0
 33
0.0
 40
0.0
 40
0.0
 40
0.0
 40
0.0
 40
0.2
 40
0.2
 40
0.2
 40
0.2
 40
0.4
 40
0.4
 40
0.4
 40
0.4
 40
0.6
 40
0.6
 40
0.6
 40
0.6
 40
1.0
 40
1.0
 40
1.0
 40
1.0
 10
-83.8435
 20
-53.1091
 30
0.0
 10
-79.2465
 20
-50.5685
 30
0.0
 10
-75.7386
 20
-47.0606
 30
0.0
 10
-73.5611
 20
-42.9474
 30
0.0
 10
-73.5611
 20
-42.9474
 30
0.0
 10
-73.0773
 20
-41.9797
 30
0.0
 10
-67.6337
 20
-46.6974
 30
0.0
 10
-69.569
 20
-47.5444
 30
0.0
 10
-69.569
 20
-47.5444
 30
0.0
 10
-74.4078
 20
-50.2057
 30
0.0
 10
-77.1901
 20
-53.5929
 30
0.0
 10
-79.3675
 20
-57.464
 30
0.0
 10
-79.3675
 20
-57.464
 30
0.0
 10
-80.0935
 20
-58.5527
 30
0.0
 10
-84.5691
 20
-53.714
 30
0.0
 10
-83.8435
 20
-53.1091
 30
0.0
  0
SPLINE
  5
8B
330
1F
100
AcDbEntity
  8
layer 1
 62
     7
100
AcDbSpline
210
0.0
220
0.0
230
1.0
 70
    11
 71
     3
 72
    20
 73
    16
 74
     0
 42
0.0000000001
 43
0.0000000001
 12
1.0
 22
0.0
 32
0.0
 13
1.0
 23
0.0
 33
0.0
 40
0.0
 40
0.0
 40
0.0
 40
0.0
 40
0.2
 40
0.2
 40
0.2
 40
0.2
 40
0.4
 40
0.4
 40
0.4
 40
0.4
 40
0.6
 40
0.6
 40
0.6
 40
0.6
 40
1.0
 40
1.0
 40
1.0
 40
1.0
 10
-81.9078
 20
-32.3023
 30
0.0
 10
-84.4484
 20
-27.7053
 30
0.0
 10
-87.9563
 20
-24.3184
 30
0.0
 10
-92.1902
 20
-22.1409
 30
0.0
 10
-92.1902
 20
-22.1409
 30
0.0
 10
-93.1582
 20
-21.6568
 30
0.0
 10
-88.3194
 20
-16.0924
 30
0.0
 10
-87.5935
 20
-18.0278
 30
0.0
 10
-87.5935
 20
-18.0278
 30
0.0
 10
-84.9322
 20
-22.9876
 30
0.0
 10
-81.4239
 20
-25.7699
 30
0.0
 10
-77.6739
 20
-27.8263
 30
0.0
 10
-77.6739
 20
-27.8263
 30
0.0
 10
-76.5852
 20
-28.5523
 30
0.0
 10
-81.4239
 20
-33.1489
 30
0.0
 10
-81.9078
 20
-32.3023
 30
0.0
  0
SPLINE
  5
8C
330
1F
100
AcDbEntity
  8
layer 1
 62
     7
100
AcDbSpline
210
0.0
220
0.0
230
1.0
 70
    11
 71
     3
 72
    20
 73
    16
 74
     0
 42
0.0000000001
 43
0.0000000001
 12
1.0
 22
0.0
 32
0.0
 13
1.0
 23
0.0
 33
0.0
 40
0.0
 40
0.0
 40
0.0
 40
0.0
 40
0.2
 40
0.2
 40
0.2
 40
0.2
 40
0.4
 40
0.4
 40
0.4
 40
0.4
 40
0.6
 40
0.6
 40
0.6
 40
0.6
 40
1.0
 40
1.0
 40
1.0
 40
1.0
 10
-83.8435
 20
-36.4151
 30
0.0
 10
-79.2465
 20
-33.8748
 30
0.0
 10
-75.7386
 20
-30.2459
 30
0.0
 10
-73.5611
 20
-26.1327
 30
0.0
 10
-73.5611
 20
-26.1327
 30
0.0
 10
-73.0773
 20
-25.165
 30
0.0
 10
-67.6337
 20
-29.8827
 30
0.0
 10
-69.569
 20
-30.7297
 30
0.0
 10
-69.569
 20
-30.7297
 30
0.0
 10
-74.4078
 20
-33.391
 30
0.0
 10
-77.1901
 20
-36.8989
 30
0.0
 10
-79.3675
 20
-40.6493
 30
0.0
 10
-79.3675
 20
-40.6493
 30
0.0
 10
-80.0935
 20
-41.738
 30
0.0
 10
-84.5691
 20
-36.8989
 30
0.0
 10
-83.8435
 20
-36.4151
 30
0.0
  0
SPLINE
  5
8D
330
1F
100
AcDbEntity
  8
layer 1
 62
     7
100
AcDbSpline
210
0.0
220
0.0
230
1.0
 70
    11
 71
     3
 72
    20
 73
    16
 74
     0
 42
0.0000000001
 43
0.0000000001
 12
1.0
 22
0.0
 32
0.0
 13
1.0
 23
0.0
 33
0.0
 40
0.0
 40
0.0
 40
0.0
 40
0.0
 40
0.2
 40
0.2
 40
0.2
 40
0.2
 40
0.4
 40
0.4
 40
0.4
 40
0.4
 40
0.6
 40
0.6
 40
0.6
 40
0.6
 40
1.0
 40
1.0
 40
1.0
 40
1.0
 10
-81.9078
 20
-15.4876
 30
0.0
 10
-84.4484
 20
-10.8906
 30
0.0
 10
-87.9563
 20
-7.5033
 30
0.0
 10
-92.1902
 20
-5.3259
 30
0.0
 10
-92.1902
 20
-5.3259
 30
0.0
 10
-93.1582
 20
-4.842
 30
0.0
 10
-88.3194
 20
0.7223
 30
0.0
 10
-87.5935
 20
-1.3341
 30
0.0
 10
-87.5935
 20
-1.3341
 30
0.0
 10
-84.9322
 20
-6.1729
 30
0.0
 10
-81.4239
 20
-8.9552
 30
0.0
 10
-77.6739
 20
-11.1327
 30
0.0
 10
-77.6739
 20
-11.1327
 30
0.0
 10
-76.5852
 20
-11.7375
 30
0.0
 10
-81.4239
 20
-16.3342
 30
0.0
 10
-81.9078
 20
-15.4876
 30
0.0
  0
SPLINE
  5
8E
330
1F
100
AcDbEntity
  8
layer 1
 62
     7
100
AcDbSpline
210
0.0
220
0.0
230
1.0
 70
    11
 71
     3
 72
    20
 73
    16
 74
     0
 42
0.0000000001
 43
0.0000000001
 12
1.0
 22
0.0
 32
0.0
 13
1.0
 23
0.0
 33
0.0
 40
0.0
 40
0.0
 40
0.0
 40
0.0
 40
0.2
 40
0.2
 40
0.2
 40
0.2
 40
0.4
 40
0.4
 40
0.4
 40
0.4
 40
0.6
 40
0.6
 40
0.6
 40
0.6
 40
1.0
 40
1.0
 40
1.0
 40
1.0
 10
-83.8435
 20
-19.6004
 30
0.0
 10
-79.2465
 20
-17.0601
 30
0.0
 10
-75.7386
 20
-13.5518
 30
0.0
 10
-73.5611
 20
-9.318
 30
0.0
 10
-73.5611
 20
-9.318
 30
0.0
 10
-73.0773
 20
-8.3503
 30
0.0
 10
-67.6337
 20
-13.1891
 30
0.0
 10
-69.569
 20
-14.0357
 30
0.0
 10
-69.569
 20
-14.0357
 30
0.0
 10
-74.4078
 20
-16.5763
 30
0.0
 10
-77.1901
 20
-20.0842
 30
0.0
 10
-79.3675
 20
-23.8342
 30
0.0
 10
-79.3675
 20
-23.8342
 30
0.0
 10
-80.0935
 20
-25.044
 30
0.0
 10
-84.5691
 20
-20.2052
 30
0.0
 10
-83.8435
 20
-19.6004
 30
0.0
  0
SPLINE
  5
8F
330
1F
100
AcDbEntity
  8
layer 1
 62
     7
100
AcDbSpline
210
0.0
220
0.0
230
1.0
 70
    11
 71
     3
 72
    20
 73
    16
 74
     0
 42
0.0000000001
 43
0.0000000001
 12
1.0
 22
0.0
 32
0.0
 13
1.0
 23
0.0
 33
0.0
 40
0.0
 40
0.0
 40
0.0
 40
0.0
 40
0.2
 40
0.2
 40
0.2
 40
0.2
 40
0.4
 40
0.4
 40
0.4
 40
0.4
 40
0.6
 40
0.6
 40
0.6
 40
0.6
 40
1.0
 40
1.0
 40
1.0
 40
1.0
 10
-81.9078
 20
1.2065
 30
0.0
 10
-84.4484
 20
5.8031
 30
0.0
 10
-87.9563
 20
9.3114
 30
0.0
 10
-92.1902
 20
11.3678
 30
0.0
 10
-92.1902
 20
11.3678
 30
0.0
 10
-93.1582
 20
11.8516
 30
0.0
 10
-88.3194
 20
17.4163
 30
0.0
 10
-87.5935
 20
15.4806
 30
0.0
 10
-87.5935
 20
15.4806
 30
0.0
 10
-84.9322
 20
10.6418
 30
0.0
 10
-81.4239
 20
7.8595
 30
0.0
 10
-77.6739
 20
5.6821
 30
0.0
 10
-77.6739
 20
5.6821
 30
0.0
 10
-76.5852
 20
4.9565
 30
0.0
 10
-81.4239
 20
0.4805
 30
0.0
 10
-81.9078
 20
1.2065
 30
0.0
  0
SPLINE
  5
90
330
1F
100
AcDbEntity
  8
layer 1
 62
     7
100
AcDbSpline
210
0.0
220
0.0
230
1.0
 70
    11
 71
     3
 72
    20
 73
    16
 74
     0
 42
0.0000000001
 43
0.0000000001
 12
1.0
 22
0.0
 32
0.0
 13
1.0
 23
0.0
 33
0.0
 40
0.0
 40
0.0
 40
0.0
 40
0.0
 40
0.2
 40
0.2
 40
0.2
 40
0.2
 40
0.4
 40
0.4
 40
0.4
 40
0.4
 40
0.6
 40
0.6
 40
0.6
 40
0.6
 40
1.0
 40
1.0
 40
1.0
 40
1.0
 10
-83.8435
 20
-2.7856
 30
0.0
 10
-79.2465
 20
-0.3664
 30
0.0
 10
-75.7386
 20
3.2629
 30
0.0
 10
-73.5611
 20
7.3757
 30
0.0
 10
-73.5611
 20
7.3757
 30
0.0
 10
-73.0773
 20
8.3434
 30
0.0
 10
-67.6337
 20
3.6257
 30
0.0
 10
-69.569
 20
2.779
 30
0.0
 10
-69.569
 20
2.779
 30
0.0
 10
-74.4078
 20
0.1177
 30
0.0
 10
-77.1901
 20
-3.2695
 30
0.0
 10
-79.3675
 20
-7.1405
 30
0.0
 10
-79.3675
 20
-7.1405
 30
0.0
 10
-80.0935
 20
-8.2293
 30
0.0
 10
-84.5691
 20
-3.3905
 30
0.0
 10
-83.8435
 20
-2.7856
 30
0.0
  0
SPLINE
  5
91
330
1F
100
AcDbEntity
  8
layer 1
 62
     7
100
AcDbSpline
210
0.0
220
0.0
230
1.0
 70
    11
 71
     3
 72
    20
 73
    16
 74
     0
 42
0.0000000001
 43
0.0000000001
 12
1.0
 22
0.0
 32
0.0
 13
1.0
 23
0.0
 33
0.0
 40
0.0
 40
0.0
 40
0.0
 40
0.0
 40
0.2
 40
0.2
 40
0.2
 40
0.2
 40
0.4
 40
0.4
 40
0.4
 40
0.4
 40
0.6
 40
0.6
 40
0.6
 40
0.6
 40
1.0
 40
1.0
 40
1.0
 40
1.0
 10
-81.9078
 20
18.0212
 30
0.0
 10
-84.4484
 20
22.6178
 30
0.0
 10
-87.9563
 20
26.005
 30
0.0
 10
-92.1902
 20
28.1825
 30
0.0
 10
-92.1902
 20
28.1825
 30
0.0
 10
-93.1582
 20
28.6663
 30
0.0
 10
-88.3194
 20
34.231
 30
0.0
 10
-87.5935
 20
32.1746
 30
0.0
 10
-87.5935
 20
32.1746
 30
0.0
 10
-84.9322
 20
27.3359
 30
0.0
 10
-81.4239
 20
24.5535
 30
0.0
 10
-77.6739
 20
22.4968
 30
0.0
 10
-77.6739
 20
22.4968
 30
0.0
 10
-76.5852
 20
21.7712
 30
0.0
 10
-81.4239
 20
17.1742
 30
0.0
 10
-81.9078
 20
18.0212
 30
0.0
  0
SPLINE
  5
92
330
1F
100
AcDbEntity
  8
layer 1
 62
     7
100
AcDbSpline
210
0.0
220
0.0
230
1.0
 70
    11
 71
     3
 72
    20
 73
    16
 74
     0
 42
0.0000000001
 43
0.0000000001
 12
1.0
 22
0.0
 32
0.0
 13
1.0
 23
0.0
 33
0.0
 40
0.0
 40
0.0
 40
0.0
 40
0.0
 40
0.2
 40
0.2
 40
0.2
 40
0.2
 40
0.4
 40
0.4
 40
0.4
 40
0.4
 40
0.6
 40
0.6
 40
0.6
 40
0.6
 40
1.0
 40
1.0
 40
1.0
 40
1.0
 10
-83.8435
 20
13.908
 30
0.0
 10
-79.2465
 20
16.4486
 30
0.0
 10
-75.7386
 20
19.9565
 30
0.0
 10
-73.5611
 20
24.1904
 30
0.0
 10
-73.5611
 20
24.1904
 30
0.0
 10
-73.0773
 20
25.1584
 30
0.0
 10
-67.6337
 20
20.3193
 30
0.0
 10
-69.569
 20
19.5937
 30
0.0
 10
-69.569
 20
19.5937
 30
0.0
 10
-74.4078
 20
16.9325
 30
0.0
 10
-77.1901
 20
13.4242
 30
0.0
 10
-79.3675
 20
9.6742
 30
0.0
 10
-79.3675
 20
9.6742
 30
0.0
 10
-80.0935
 20
8.5854
 30
0.0
 10
-84.5691
 20
13.4242
 30
0.0
 10
-83.8435
 20
13.908
 30
0.0
  0
SPLINE
  5
93
330
1F
100
AcDbEntity
  8
layer 1
 62
     7
100
AcDbSpline
210
0.0
220
0.0
230
1.0
 70
    11
 71
     3
 72
    20
 73
    16
 74
     0
 42
0.0000000001
 43
0.0000000001
 12
1.0
 22
0.0
 32
0.0
 13
1.0
 23
0.0
 33
0.0
 40
0.0
 40
0.0
 40
0.0
 40
0.0
 40
0.2
 40
0.2
 40
0.2
 40
0.2
 40
0.4
 40
0.4
 40
0.4
 40
0.4
 40
0.6
 40
0.6
 40
0.6
 40
0.6
 40
1.0
 40
1.0
 40
1.0
 40
1.0
 10
-81.9078
 20
34.7148
 30
0.0
 10
-84.4484
 20
39.4325
 30
0.0
 10
-87.9563
 20
42.8198
 30
0.0
 10
-92.1902
 20
44.9972
 30
0.0
 10
-92.1902
 20
44.9972
 30
0.0
 10
-93.1582
 20
45.481
 30
0.0
 10
-88.3194
 20
51.0457
 30
0.0
 10
-87.5935
 20
48.9893
 30
0.0
 10
-87.5935
 20
48.9893
 30
0.0
 10
-84.9322
 20
44.1506
 30
0.0
 10
-81.4239
 20
41.3682
 30
0.0
 10
-77.6739
 20
39.1908
 30
0.0
 10
-77.6739
 20
39.1908
 30
0.0
 10
-76.5852
 20
38.4649
 30
0.0
 10
-81.4239
 20
33.9889
 30
0.0
 10
-81.9078
 20
34.7148
 30
0.0
  0
SPLINE
  5
94
330
1F
100
AcDbEntity
  8
layer 1
 62
     7
100
AcDbSpline
210
0.0
220
0.0
230
1.0
 70
    11
 71
     3
 72
    20
 73
    16
 74
     0
 42
0.0000000001
 43
0.0000000001
 12
1.0
 22
0.0
 32
0.0
 13
1.0
 23
0.0
 33
0.0
 40
0.0
 40
0.0
 40
0.0
 40
0.0
 40
0.2
 40
0.2
 40
0.2
 40
0.2
 40
0.4
 40
0.4
 40
0.4
 40
0.4
 40
0.6
 40
0.6
 40
0.6
 40
0.6
 40
1.0
 40
1.0
 40
1.0
 40
1.0
 10
-83.8435
 20
30.7227
 30
0.0
 10
-79.2465
 20
33.2633
 30
0.0
 10
-75.7386
 20
36.7712
 30
0.0
 10
-73.5611
 20
41.0051
 30
0.0
 10
-73.5611
 20
41.0051
 30
0.0
 10
-73.0773
 20
41.9731
 30
0.0
 10
-67.6337
 20
37.1344
 30
0.0
 10
-69.569
 20
36.2874
 30
0.0
 10
-69.569
 20
36.2874
 30
0.0
 10
-74.4078
 20
33.6261
 30
0.0
 10
-77.1901
 20
30.2389
 30
0.0
 10
-79.3675
 20
26.4889
 30
0.0
 10
-79.3675
 20
26.4889
 30
0.0
 10
-80.0935
 20
25.2791
 30
0.0
 10
-84.5691
 20
30.1179
 30
0.0
 10
-83.8435
 20
30.7227
 30
0.0
  0
SPLINE
  5
95
330
1F
100
AcDbEntity
  8
layer 1
 62
     7
100
AcDbSpline
210
0.0
220
0.0
230
1.0
 70
    11
 71
     3
 72
    20
 73
    16
 74
     0
 42
0.0000000001
 43
0.0000000001
 12
1.0
 22
0.0
 32
0.0
 13
1.0
 23
0.0
 33
0.0
 40
0.0
 40
0.0
 40
0.0
 40
0.0
 40
0.2
 40
0.2
 40
0.2
 40
0.2
 40
0.4
 40
0.4
 40
0.4
 40
0.4
 40
0.6
 40
0.6
 40
0.6
 40
0.6
 40
1.0
 40
1.0
 40
1.0
 40
1.0
 10
-81.9078
 20
51.5296
 30
0.0
 10
-84.4484
 20
56.1266
 30
0.0
 10
-87.9563
 20
59.5134
 30
0.0
 10
-92.1902
 20
61.6909
 30
0.0
 10
-92.1902
 20
61.6909
 30
0.0
 10
-93.1582
 20
62.1751
 30
0.0
 10
-88.3194
 20
67.7394
 30
0.0
 10
-87.5935
 20
65.804
 30
0.0
 10
-87.5935
 20
65.804
 30
0.0
 10
-84.9322
 20
60.8442
 30
0.0
 10
-81.4239
 20
58.0619
 30
0.0
 10
-77.6739
 20
56.0055
 30
0.0
 10
-77.6739
 20
56.0055
 30
0.0
 10
-76.5852
 20
55.2796
 30
0.0
 10
-81.4239
 20
50.8036
 30
0.0
 10
-81.9078
 20
51.5296
 30
0.0
  0
SPLINE
  5
96
330
1F
100
AcDbEntity
  8
layer 1
 62
     7
100
AcDbSpline
210
0.0
220
0.0
230
1.0
 70
    11
 71
     3
 72
    20
 73
    16
 74
     0
 42
0.0000000001
 43
0.0000000001
 12
1.0
 22
0.0
 32
0.0
 13
1.0
 23
0.0
 33
0.0
 40
0.0
 40
0.0
 40
0.0
 40
0.0
 40
0.2
 40
0.2
 40
0.2
 40
0.2
 40
0.4
 40
0.4
 40
0.4
 40
0.4
 40
0.6
 40
0.6
 40
0.6
 40
0.6
 40
1.0
 40
1.0
 40
1.0
 40
1.0
 10
-83.8435
 20
47.4168
 30
0.0
 10
-79.2465
 20
49.957
 30
0.0
 10
-75.7386
 20
53.586
 30
0.0
 10
-73.5611
 20
57.6991
 30
0.0
 10
-73.5611
 20
57.6991
 30
0.0
 10
-73.0773
 20
58.6668
 30
0.0
 10
-67.6337
 20
53.9491
 30
0.0
 10
-69.569
 20
53.1021
 30
0.0
 10
-69.569
 20
53.1021
 30
0.0
 10
-74.4078
 20
50.4408
 30
0.0
 10
-77.1901
 20
47.0536
 30
0.0
 10
-79.3675
 20
43.1826
 30
0.0
 10
-79.3675
 20
43.1826
 30
0.0
 10
-80.0935
 20
42.0938
 30
0.0
 10
-84.5691
 20
46.9329
 30
0.0
 10
-83.8435
 20
47.4168
 30
0.0
  0
SPLINE
  5
97
330
1F
100
AcDbEntity
  8
layer 1
 62
     7
100
AcDbSpline
210
0.0
220
0.0
230
1.0
 70
    11
 71
     3
 72
    20
 73
    16
 74
     0
 42
0.0000000001
 43
0.0000000001
 12
1.0
 22
0.0
 32
0.0
 13
1.0
 23
0.0
 33
0.0
 40
0.0
 40
0.0
 40
0.0
 40
0.0
 40
0.2
 40
0.2
 40
0.2
 40
0.2
 40
0.4
 40
0.4
 40
0.4
 40
0.4
 40
0.6
 40
0.6
 40
0.6
 40
0.6
 40
1.0
 40
1.0
 40
1.0
 40
1.0
 10
-81.9078
 20
68.3443
 30
0.0
 10
-84.4484
 20
72.9413
 30
0.0
 10
-87.9563
 20
76.3285
 30
0.0
 10
-92.1902
 20
78.5059
 30
0.0
 10
-92.1902
 20
78.5059
 30
0.0
 10
-93.1582
 20
78.9898
 30
0.0
 10
-88.3194
 20
84.5541
 30
0.0
 10
-87.5935
 20
82.4977
 30
0.0
 10
-87.5935
 20
82.4977
 30
0.0
 10
-84.9322
 20
77.659
 30
0.0
 10
-81.4239
 20
74.8766
 30
0.0
 10
-77.6739
 20
72.8202
 30
0.0
 10
-77.6739
 20
72.8202
 30
0.0
 10
-76.5852
 20
72.0943
 30
0.0
 10
-81.4239
 20
67.4976
 30
0.0
 10
-81.9078
 20
68.3443
 30
0.0
  0
SPLINE
  5
98
330
1F
100
AcDbEntity
  8
layer 1
 62
     7
100
AcDbSpline
210
0.0
220
0.0
230
1.0
 70
    11
 71
     3
 72
    20
 73
    16
 74
     0
 42
0.0000000001
 43
0.0000000001
 12
1.0
 22
0.0
 32
0.0
 13
1.0
 23
0.0
 33
0.0
 40
0.0
 40
0.0
 40
0.0
 40
0.0
 40
0.2
 40
0.2
 40
0.2
 40
0.2
 40
0.4
 40
0.4
 40
0.4
 40
0.4
 40
0.6
 40
0.6
 40
0.6
 40
0.6
 40
1.0
 40
1.0
 40
1.0
 40
1.0
 10
-83.8435
 20
64.2315
 30
0.0
 10
-79.2465
 20
66.7717
 30
0.0
 10
-75.7386
 20
70.28
 30
0.0
 10
-73.5611
 20
74.5138
 30
0.0
 10
-73.5611
 20
74.5138
 30
0.0
 10
-73.0773
 20
75.4815
 30
0.0
 10
-67.6337
 20
70.6428
 30
0.0
 10
-69.569
 20
69.9168
 30
0.0
 10
-69.569
 20
69.9168
 30
0.0
 10
-74.4078
 20
67.2555
 30
0.0
 10
-77.1901
 20
63.7476
 30
0.0
 10
-79.3675
 20
59.9976
 30
0.0
 10
-79.3675
 20
59.9976
 30
0.0
 10
-80.0935
 20
58.9089
 30
0.0
 10
-84.5691
 20
63.6266
 30
0.0
 10
-83.8435
 20
64.2315
 30
0.0
  0
SPLINE
  5
99
330
1F
100
AcDbEntity
  8
layer 1
 62
     7
100
AcDbSpline
210
0.0
220
0.0
230
1.0
 70
    11
 71
     3
 72
    20
 73
    16
 74
     0
 42
0.0000000001
 43
0.0000000001
 12
1.0
 22
0.0
 32
0.0
 13
1.0
 23
0.0
 33
0.0
 40
0.0
 40
0.0
 40
0.0
 40
0.0
 40
0.2
 40
0.2
 40
0.2
 40
0.2
 40
0.4
 40
0.4
 40
0.4
 40
0.4
 40
0.6
 40
0.6
 40
0.6
 40
0.6
 40
1.0
 40
1.0
 40
1.0
 40
1.0
 10
-81.9078
 20
85.0383
 30
0.0
 10
-84.4484
 20
89.6349
 30
0.0
 10
-87.9563
 20
93.1432
 30
0.0
 10
-92.1902
 20
95.3207
 30
0.0
 10
-92.1902
 20
95.3207
 30
0.0
 10
-93.1582
 20
95.8045
 30
0.0
 10
-88.3194
 20
101.2481
 30
0.0
 10
-87.5935
 20
99.3124
 30
0.0
 10
-87.5935
 20
99.3124
 30
0.0
 10
-84.9322
 20
94.4737
 30
0.0
 10
-81.4239
 20
91.6913
 30
0.0
 10
-77.6739
 20
89.5139
 30
0.0
 10
-77.6739
 20
89.5139
 30
0.0
 10
-76.5852
 20
88.7883
 30
0.0
 10
-81.4239
 20
84.3124
 30
0.0
 10
-81.9078
 20
85.0383
 30
0.0
  0
SPLINE
  5
9A
330
1F
100
AcDbEntity
  8
layer 1
 62
     7
100
AcDbSpline
210
0.0
220
0.0
230
1.0
 70
    11
 71
     3
 72
    20
 73
    16
 74
     0
 42
0.0000000001
 43
0.0000000001
 12
1.0
 22
0.0
 32
0.0
 13
1.0
 23
0.0
 33
0.0
 40
0.0
 40
0.0
 40
0.0
 40
0.0
 40
0.2
 40
0.2
 40
0.2
 40
0.2
 40
0.4
 40
0.4
 40
0.4
 40
0.4
 40
0.6
 40
0.6
 40
0.6
 40
0.6
 40
1.0
 40
1.0
 40
1.0
 40
1.0
 10
-83.8435
 20
81.0462
 30
0.0
 10
-79.2465
 20
83.5864
 30
0.0
 10
-75.7386
 20
87.0947
 30
0.0
 10
-73.5611
 20
91.2075
 30
0.0
 10
-73.5611
 20
91.2075
 30
0.0
 10
-73.0773
 20
92.1752
 30
0.0
 10
-67.6337
 20
87.4575
 30
0.0
 10
-69.569
 20
86.6109
 30
0.0
 10
-69.569
 20
86.6109
 30
0.0
 10
-74.4078
 20
83.9496
 30
0.0
 10
-77.1901
 20
80.5623
 30
0.0
 10
-79.3675
 20
76.6913
 30
0.0
 10
-79.3675
 20
76.6913
 30
0.0
 10
-80.0935
 20
75.6026
 30
0.0
 10
-84.5691
 20
80.4413
 30
0.0
 10
-83.8435
 20
81.0462
 30
0.0
  0
SPLINE
  5
9B
330
1F
100
AcDbEntity
  8
layer 1
 62
     7
100
AcDbSpline
210
0.0
220
0.0
230
1.0
 70
    11
 71
     3
 72
    20
 73
    16
 74
     0
 42
0.0000000001
 43
0.0000000001
 12
1.0
 22
0.0
 32
0.0
 13
1.0
 23
0.0
 33
0.0
 40
0.0
 40
0.0
 40
0.0
 40
0.0
 40
0.2
 40
0.2
 40
0.2
 40
0.2
 40
0.4
 40
0.4
 40
0.4
 40
0.4
 40
0.6
 40
0.6
 40
0.6
 40
0.6
 40
1.0
 40
1.0
 40
1.0
 40
1.0
 10
-81.9078
 20
101.853
 30
0.0
 10
-84.4484
 20
106.4496
 30
0.0
 10
-87.9563
 20
109.8369
 30
0.0
 10
-92.1902
 20
112.0143
 30
0.0
 10
-92.1902
 20
112.0143
 30
0.0
 10
-93.1582
 20
112.4982
 30
0.0
 10
-88.3194
 20
118.0628
 30
0.0
 10
-87.5935
 20
116.1271
 30
0.0
 10
-87.5935
 20
116.1271
 30
0.0
 10
-84.9322
 20
111.1677
 30
0.0
 10
-81.4239
 20
108.3854
 30
0.0
 10
-77.6739
 20
106.3286
 30
0.0
 10
-77.6739
 20
106.3286
 30
0.0
 10
-76.5852
 20
105.603
 30
0.0
 10
-81.4239
 20
101.006
 30
0.0
 10
-81.9078
 20
101.853
 30
0.0
  0
SPLINE
  5
9C
330
1F
100
AcDbEntity
  8
layer 1
 62
     7
100
AcDbSpline
210
0.0
220
0.0
230
1.0
 70
    11
 71
     3
 72
    20
 73
    16
 74
     0
 42
0.0000000001
 43
0.0000000001
 12
1.0
 22
0.0
 32
0.0
 13
1.0
 23
0.0
 33
0.0
 40
0.0
 40
0.0
 40
0.0
 40
0.0
 40
0.2
 40
0.2
 40
0.2
 40
0.2
 40
0.4
 40
0.4
 40
0.4
 40
0.4
 40
0.6
 40
0.6
 40
0.6
 40
0.6
 40
1.0
 40
1.0
 40
1.0
 40
1.0
 10
-83.8435
 20
97.7398
 30
0.0
 10
-79.2465
 20
100.2804
 30
0.0
 10
-75.7386
 20
103.9094
 30
0.0
 10
-73.5611
 20
108.0222
 30
0.0
 10
-73.5611
 20
108.0222
 30
0.0
 10
-73.0773
 20
108.9902
 30
0.0
 10
-67.6337
 20
104.2722
 30
0.0
 10
-69.569
 20
103.4256
 30
0.0
 10
-69.569
 20
103.4256
 30
0.0
 10
-74.4078
 20
100.7643
 30
0.0
 10
-77.1901
 20
97.256
 30
0.0
 10
-79.3675
 20
93.506
 30
0.0
 10
-79.3675
 20
93.506
 30
0.0
 10
-80.0935
 20
92.4173
 30
0.0
 10
-84.5691
 20
97.256
 30
0.0
 10
-83.8435
 20
97.7398
 30
0.0
  0
SPLINE
  5
9D
330
1F
100
AcDbEntity
  8
layer 1
 62
     7
100
AcDbSpline
210
0.0
220
0.0
230
1.0
 70
    11
 71
     3
 72
    16
 73
    12
 74
     0
 42
0.0000000001
 43
0.0000000001
 12
1.0
 22
0.0
 32
0.0
 13
1.0
 23
0.0
 33
0.0
 40
0.0
 40
0.0
 40
0.0
 40
0.0
 40
0.25
 40
0.25
 40
0.25
 40
0.25
 40
0.5
 40
0.5
 40
0.5
 40
0.5
 40
1.0
 40
1.0
 40
1.0
 40
1.0
 10
-81.9078
 20
118.6677
 30
0.0
 10
-82.2709
 20
119.2726
 30
0.0
 10
-82.6337
 20
119.8775
 30
0.0
 10
-83.1176
 20
120.482
 30
0.0
 10
-83.1176
 20
120.482
 30
0.0
 10
-83.1176
 20
120.482
 30
0.0
 10
-78.8837
 20
120.482
 30
0.0
 10
-78.8837
 20
120.482
 30
0.0
 10
-78.8837
 20
120.482
 30
0.0
 10
-80.0935
 20
119.2726
 30
0.0
 10
-81.666
 20
118.1839
 30
0.0
 10
-81.9078
 20
118.6677
 30
0.0
  0
SPLINE
  5
9E
330
1F
100
AcDbEntity
  8
layer 1
 62
     7
100
AcDbSpline
210
0.0
220
0.0
230
1.0
 70
    11
 71
     3
 72
    24
 73
    20
 74
     0
 42
0.0000000001
 43
0.0000000001
 12
1.0
 22
0.0
 32
0.0
 13
1.0
 23
0.0
 33
0.0
 40
0.0
 40
0.0
 40
0.0
 40
0.0
 40
0.1666666666666667
 40
0.1666666666666667
 40
0.1666666666666667
 40
0.1666666666666667
 40
0.3333333333333333
 40
0.3333333333333333
 40
0.3333333333333333
 40
0.3333333333333333
 40
0.5
 40
0.5
 40
0.5
 40
0.5
 40
0.6666666666666666
 40
0.6666666666666666
 40
0.6666666666666666
 40
0.6666666666666666
 40
1.0
 40
1.0
 40
1.0
 40
1.0
 10
-83.8435
 20
114.5546
 30
0.0
 10
-80.8191
 20
116.1271
 30
0.0
 10
-78.3999
 20
118.1839
 30
0.0
 10
-76.4642
 20
120.482
 30
0.0
 10
-76.4642
 20
120.482
 30
0.0
 10
-76.4642
 20
120.482
 30
0.0
 10
-69.2062
 20
120.482
 30
0.0
 10
-69.2062
 20
120.482
 30
0.0
 10
-69.2062
 20
120.482
 30
0.0
 10
-69.2062
 20
120.3613
 30
0.0
 10
-69.3269
 20
120.2403
 30
0.0
 10
-69.569
 20
120.1192
 30
0.0
 10
-69.569
 20
120.1192
 30
0.0
 10
-74.4078
 20
117.579
 30
0.0
 10
-77.1901
 20
114.0707
 30
0.0
 10
-79.3675
 20
110.3207
 30
0.0
 10
-79.3675
 20
110.3207
 30
0.0
 10
-80.0935
 20
109.1109
 30
0.0
 10
-84.5691
 20
113.9497
 30
0.0
 10
-83.8435
 20
114.5546
 30
0.0
  0
SPLINE
  5
9F
330
1F
100
AcDbEntity
  8
layer 1
 62
     7
100
AcDbSpline
210
0.0
220
0.0
230
1.0
 70
    11
 71
     3
 72
    16
 73
    12
 74
     0
 42
0.0000000001
 43
0.0000000001
 12
1.0
 22
0.0
 32
0.0
 13
1.0
 23
0.0
 33
0.0
 40
0.0
 40
0.0
 40
0.0
 40
0.0
 40
0.25
 40
0.25
 40
0.25
 40
0.25
 40
0.5
 40
0.5
 40
0.5
 40
0.5
 40
1.0
 40
1.0
 40
1.0
 40
1.0
 10
-98.7225
 20
118.6677
 30
0.0
 10
-99.0856
 20
119.2726
 30
0.0
 10
-99.4484
 20
119.8775
 30
0.0
 10
-99.8112
 20
120.482
 30
0.0
 10
-99.8112
 20
120.482
 30
0.0
 10
-99.8112
 20
120.482
 30
0.0
 10
-95.6984
 20
120.482
 30
0.0
 10
-95.6984
 20
120.482
 30
0.0
 10
-95.6984
 20
120.482
 30
0.0
 10
-96.9082
 20
119.2726
 30
0.0
 10
-98.3597
 20
118.1839
 30
0.0
 10
-98.7225
 20
118.6677
 30
0.0
  0
SPLINE
  5
A0
330
1F
100
AcDbEntity
  8
layer 1
 62
     7
100
AcDbSpline
210
0.0
220
0.0
230
1.0
 70
    11
 71
     3
 72
    24
 73
    20
 74
     0
 42
0.0000000001
 43
0.0000000001
 12
1.0
 22
0.0
 32
0.0
 13
1.0
 23
0.0
 33
0.0
 40
0.0
 40
0.0
 40
0.0
 40
0.0
 40
0.1666666666666667
 40
0.1666666666666667
 40
0.1666666666666667
 40
0.1666666666666667
 40
0.3333333333333333
 40
0.3333333333333333
 40
0.3333333333333333
 40
0.3333333333333333
 40
0.5
 40
0.5
 40
0.5
 40
0.5
 40
0.6666666666666666
 40
0.6666666666666666
 40
0.6666666666666666
 40
0.6666666666666666
 40
1.0
 40
1.0
 40
1.0
 40
1.0
 10
-100.5372
 20
114.5546
 30
0.0
 10
-97.6338
 20
116.1271
 30
0.0
 10
-95.2146
 20
118.1839
 30
0.0
 10
-93.1582
 20
120.482
 30
0.0
 10
-93.1582
 20
120.482
 30
0.0
 10
-93.1582
 20
120.482
 30
0.0
 10
-85.8999
 20
120.482
 30
0.0
 10
-85.8999
 20
120.482
 30
0.0
 10
-85.8999
 20
120.482
 30
0.0
 10
-86.0209
 20
120.3613
 30
0.0
 10
-86.142
 20
120.2403
 30
0.0
 10
-86.3837
 20
120.1192
 30
0.0
 10
-86.3837
 20
120.1192
 30
0.0
 10
-91.2225
 20
117.579
 30
0.0
 10
-94.0048
 20
114.0707
 30
0.0
 10
-96.0612
 20
110.3207
 30
0.0
 10
-96.0612
 20
110.3207
 30
0.0
 10
-96.7871
 20
109.1109
 30
0.0
 10
-101.3841
 20
113.9497
 30
0.0
 10
-100.5372
 20
114.5546
 30
0.0
  0
SPLINE
  5
A1
330
1F
100
AcDbEntity
  8
layer 1
 62
     7
100
AcDbSpline
210
0.0
220
0.0
230
1.0
 70
    11
 71
     3
 72
    20
 73
    16
 74
     0
 42
0.0000000001
 43
0.0000000001
 12
1.0
 22
0.0
 32
0.0
 13
1.0
 23
0.0
 33
0.0
 40
0.0
 40
0.0
 40
0.0
 40
0.0
 40
0.2
 40
0.2
 40
0.2
 40
0.2
 40
0.4
 40
0.4
 40
0.4
 40
0.4
 40
0.6
 40
0.6
 40
0.6
 40
0.6
 40
1.0
 40
1.0
 40
1.0
 40
1.0
 10
-98.7225
 20
101.853
 30
0.0
 10
-101.2631
 20
106.4496
 30
0.0
 10
-104.771
 20
109.8369
 30
0.0
 10
-108.8842
 20
112.0143
 30
0.0
 10
-108.8842
 20
112.0143
 30
0.0
 10
-109.9729
 20
112.4982
 30
0.0
 10
-105.1341
 20
118.0628
 30
0.0
 10
-104.2872
 20
116.1271
 30
0.0
 10
-104.2872
 20
116.1271
 30
0.0
 10
-101.6259
 20
111.1677
 30
0.0
 10
-98.2387
 20
108.3854
 30
0.0
 10
-94.3676
 20
106.3286
 30
0.0
 10
-94.3676
 20
106.3286
 30
0.0
 10
-93.2789
 20
105.603
 30
0.0
 10
-98.118
 20
101.006
 30
0.0
 10
-98.7225
 20
101.853
 30
0.0
  0
SPLINE
  5
A2
330
1F
100
AcDbEntity
  8
layer 1
 62
     7
100
AcDbSpline
210
0.0
220
0.0
230
1.0
 70
    11
 71
     3
 72
    20
 73
    16
 74
     0
 42
0.0000000001
 43
0.0000000001
 12
1.0
 22
0.0
 32
0.0
 13
1.0
 23
0.0
 33
0.0
 40
0.0
 40
0.0
 40
0.0
 40
0.0
 40
0.2
 40
0.2
 40
0.2
 40
0.2
 40
0.4
 40
0.4
 40
0.4
 40
0.4
 40
0.6
 40
0.6
 40
0.6
 40
0.6
 40
1.0
 40
1.0
 40
1.0
 40
1.0
 10
-100.5372
 20
97.7398
 30
0.0
 10
-95.9405
 20
100.2804
 30
0.0
 10
-92.5533
 20
103.9094
 30
0.0
 10
-90.3758
 20
108.0222
 30
0.0
 10
-90.3758
 20
108.0222
 30
0.0
 10
-89.892
 20
108.9902
 30
0.0
 10
-84.3273
 20
104.2722
 30
0.0
 10
-86.3837
 20
103.4256
 30
0.0
 10
-86.3837
 20
103.4256
 30
0.0
 10
-91.2225
 20
100.7643
 30
0.0
 10
-94.0048
 20
97.256
 30
0.0
 10
-96.0612
 20
93.506
 30
0.0
 10
-96.0612
 20
93.506
 30
0.0
 10
-96.7871
 20
92.4173
 30
0.0
 10
-101.3841
 20
97.256
 30
0.0
 10
-100.5372
 20
97.7398
 30
0.0
  0
SPLINE
  5
A3
330
1F
100
AcDbEntity
  8
layer 1
 62
     7
100
AcDbSpline
210
0.0
220
0.0
230
1.0
 70
    11
 71
     3
 72
    20
 73
    16
 74
     0
 42
0.0000000001
 43
0.0000000001
 12
1.0
 22
0.0
 32
0.0
 13
1.0
 23
0.0
 33
0.0
 40
0.0
 40
0.0
 40
0.0
 40
0.0
 40
0.2
 40
0.2
 40
0.2
 40
0.2
 40
0.4
 40
0.4
 40
0.4
 40
0.4
 40
0.6
 40
0.6
 40
0.6
 40
0.6
 40
1.0
 40
1.0
 40
1.0
 40
1.0
 10
-98.7225
 20
85.0383
 30
0.0
 10
-101.2631
 20
89.6349
 30
0.0
 10
-104.771
 20
93.1432
 30
0.0
 10
-108.8842
 20
95.3207
 30
0.0
 10
-108.8842
 20
95.3207
 30
0.0
 10
-109.9729
 20
95.8045
 30
0.0
 10
-105.1341
 20
101.2481
 30
0.0
 10
-104.2872
 20
99.3124
 30
0.0
 10
-104.2872
 20
99.3124
 30
0.0
 10
-101.6259
 20
94.4737
 30
0.0
 10
-98.2387
 20
91.6913
 30
0.0
 10
-94.3676
 20
89.5139
 30
0.0
 10
-94.3676
 20
89.5139
 30
0.0
 10
-93.2789
 20
88.7883
 30
0.0
 10
-98.118
 20
84.3124
 30
0.0
 10
-98.7225
 20
85.0383
 30
0.0
  0
SPLINE
  5
A4
330
1F
100
AcDbEntity
  8
layer 1
 62
     7
100
AcDbSpline
210
0.0
220
0.0
230
1.0
 70
    11
 71
     3
 72
    20
 73
    16
 74
     0
 42
0.0000000001
 43
0.0000000001
 12
1.0
 22
0.0
 32
0.0
 13
1.0
 23
0.0
 33
0.0
 40
0.0
 40
0.0
 40
0.0
 40
0.0
 40
0.2
 40
0.2
 40
0.2
 40
0.2
 40
0.4
 40
0.4
 40
0.4
 40
0.4
 40
0.6
 40
0.6
 40
0.6
 40
0.6
 40
1.0
 40
1.0
 40
1.0
 40
1.0
 10
-100.5372
 20
81.0462
 30
0.0
 10
-95.9405
 20
83.5864
 30
0.0
 10
-92.5533
 20
87.0947
 30
0.0
 10
-90.3758
 20
91.2075
 30
0.0
 10
-90.3758
 20
91.2075
 30
0.0
 10
-89.892
 20
92.1752
 30
0.0
 10
-84.3273
 20
87.4575
 30
0.0
 10
-86.3837
 20
86.6109
 30
0.0
 10
-86.3837
 20
86.6109
 30
0.0
 10
-91.2225
 20
83.9496
 30
0.0
 10
-94.0048
 20
80.5623
 30
0.0
 10
-96.0612
 20
76.6913
 30
0.0
 10
-96.0612
 20
76.6913
 30
0.0
 10
-96.7871
 20
75.6026
 30
0.0
 10
-101.3841
 20
80.4413
 30
0.0
 10
-100.5372
 20
81.0462
 30
0.0
  0
SPLINE
  5
A5
330
1F
100
AcDbEntity
  8
layer 1
 62
     7
100
AcDbSpline
210
0.0
220
0.0
230
1.0
 70
    11
 71
     3
 72
    20
 73
    16
 74
     0
 42
0.0000000001
 43
0.0000000001
 12
1.0
 22
0.0
 32
0.0
 13
1.0
 23
0.0
 33
0.0
 40
0.0
 40
0.0
 40
0.0
 40
0.0
 40
0.2
 40
0.2
 40
0.2
 40
0.2
 40
0.4
 40
0.4
 40
0.4
 40
0.4
 40
0.6
 40
0.6
 40
0.6
 40
0.6
 40
1.0
 40
1.0
 40
1.0
 40
1.0
 10
-98.7225
 20
68.3443
 30
0.0
 10
-101.2631
 20
72.9413
 30
0.0
 10
-104.771
 20
76.3285
 30
0.0
 10
-108.8842
 20
78.5059
 30
0.0
 10
-108.8842
 20
78.5059
 30
0.0
 10
-109.9729
 20
78.9898
 30
0.0
 10
-105.1341
 20
84.5541
 30
0.0
 10
-104.2872
 20
82.4977
 30
0.0
 10
-104.2872
 20
82.4977
 30
0.0
 10
-101.6259
 20
77.659
 30
0.0
 10
-98.2387
 20
74.8766
 30
0.0
 10
-94.3676
 20
72.8202
 30
0.0
 10
-94.3676
 20
72.8202
 30
0.0
 10
-93.2789
 20
72.0943
 30
0.0
 10
-98.118
 20
67.4976
 30
0.0
 10
-98.7225
 20
68.3443
 30
0.0
  0
SPLINE
  5
A6
330
1F
100
AcDbEntity
  8
layer 1
 62
     7
100
AcDbSpline
210
0.0
220
0.0
230
1.0
 70
    11
 71
     3
 72
    20
 73
    16
 74
     0
 42
0.0000000001
 43
0.0000000001
 12
1.0
 22
0.0
 32
0.0
 13
1.0
 23
0.0
 33
0.0
 40
0.0
 40
0.0
 40
0.0
 40
0.0
 40
0.2
 40
0.2
 40
0.2
 40
0.2
 40
0.4
 40
0.4
 40
0.4
 40
0.4
 40
0.6
 40
0.6
 40
0.6
 40
0.6
 40
1.0
 40
1.0
 40
1.0
 40
1.0
 10
-100.5372
 20
64.2315
 30
0.0
 10
-95.9405
 20
66.7717
 30
0.0
 10
-92.5533
 20
70.28
 30
0.0
 10
-90.3758
 20
74.5138
 30
0.0
 10
-90.3758
 20
74.5138
 30
0.0
 10
-89.892
 20
75.4815
 30
0.0
 10
-84.3273
 20
70.6428
 30
0.0
 10
-86.3837
 20
69.9168
 30
0.0
 10
-86.3837
 20
69.9168
 30
0.0
 10
-91.2225
 20
67.2555
 30
0.0
 10
-94.0048
 20
63.7476
 30
0.0
 10
-96.0612
 20
59.9976
 30
0.0
 10
-96.0612
 20
59.9976
 30
0.0
 10
-96.7871
 20
58.9089
 30
0.0
 10
-101.3841
 20
63.6266
 30
0.0
 10
-100.5372
 20
64.2315
 30
0.0
  0
SPLINE
  5
A7
330
1F
100
AcDbEntity
  8
layer 1
 62
     7
100
AcDbSpline
210
0.0
220
0.0
230
1.0
 70
    11
 71
     3
 72
    20
 73
    16
 74
     0
 42
0.0000000001
 43
0.0000000001
 12
1.0
 22
0.0
 32
0.0
 13
1.0
 23
0.0
 33
0.0
 40
0.0
 40
0.0
 40
0.0
 40
0.0
 40
0.2
 40
0.2
 40
0.2
 40
0.2
 40
0.4
 40
0.4
 40
0.4
 40
0.4
 40
0.6
 40
0.6
 40
0.6
 40
0.6
 40
1.0
 40
1.0
 40
1.0
 40
1.0
 10
-98.7225
 20
51.5296
 30
0.0
 10
-101.2631
 20
56.1266
 30
0.0
 10
-104.771
 20
59.5134
 30
0.0
 10
-108.8842
 20
61.6909
 30
0.0
 10
-108.8842
 20
61.6909
 30
0.0
 10
-109.9729
 20
62.1751
 30
0.0
 10
-105.1341
 20
67.7394
 30
0.0
 10
-104.2872
 20
65.804
 30
0.0
 10
-104.2872
 20
65.804
 30
0.0
 10
-101.6259
 20
60.8442
 30
0.0
 10
-98.2387
 20
58.0619
 30
0.0
 10
-94.3676
 20
56.0055
 30
0.0
 10
-94.3676
 20
56.0055
 30
0.0
 10
-93.2789
 20
55.2796
 30
0.0
 10
-98.118
 20
50.8036
 30
0.0
 10
-98.7225
 20
51.5296
 30
0.0
  0
SPLINE
  5
A8
330
1F
100
AcDbEntity
  8
layer 1
 62
     7
100
AcDbSpline
210
0.0
220
0.0
230
1.0
 70
    11
 71
     3
 72
    20
 73
    16
 74
     0
 42
0.0000000001
 43
0.0000000001
 12
1.0
 22
0.0
 32
0.0
 13
1.0
 23
0.0
 33
0.0
 40
0.0
 40
0.0
 40
0.0
 40
0.0
 40
0.2
 40
0.2
 40
0.2
 40
0.2
 40
0.4
 40
0.4
 40
0.4
 40
0.4
 40
0.6
 40
0.6
 40
0.6
 40
0.6
 40
1.0
 40
1.0
 40
1.0
 40
1.0
 10
-100.5372
 20
47.4168
 30
0.0
 10
-95.9405
 20
49.957
 30
0.0
 10
-92.5533
 20
53.586
 30
0.0
 10
-90.3758
 20
57.6991
 30
0.0
 10
-90.3758
 20
57.6991
 30
0.0
 10
-89.892
 20
58.6668
 30
0.0
 10
-84.3273
 20
53.9491
 30
0.0
 10
-86.3837
 20
53.1021
 30
0.0
 10
-86.3837
 20
53.1021
 30
0.0
 10
-91.2225
 20
50.4408
 30
0.0
 10
-94.0048
 20
47.0536
 30
0.0
 10
-96.0612
 20
43.1826
 30
0.0
 10
-96.0612
 20
43.1826
 30
0.0
 10
-96.7871
 20
42.0938
 30
0.0
 10
-101.3841
 20
46.9329
 30
0.0
 10
-100.5372
 20
47.4168
 30
0.0
  0
SPLINE
  5
A9
330
1F
100
AcDbEntity
  8
layer 1
 62
     7
100
AcDbSpline
210
0.0
220
0.0
230
1.0
 70
    11
 71
     3
 72
    20
 73
    16
 74
     0
 42
0.0000000001
 43
0.0000000001
 12
1.0
 22
0.0
 32
0.0
 13
1.0
 23
0.0
 33
0.0
 40
0.0
 40
0.0
 40
0.0
 40
0.0
 40
0.2
 40
0.2
 40
0.2
 40
0.2
 40
0.4
 40
0.4
 40
0.4
 40
0.4
 40
0.6
 40
0.6
 40
0.6
 40
0.6
 40
1.0
 40
1.0
 40
1.0
 40
1.0
 10
-98.7225
 20
34.7148
 30
0.0
 10
-101.2631
 20
39.4325
 30
0.0
 10
-104.771
 20
42.8198
 30
0.0
 10
-108.8842
 20
44.9972
 30
0.0
 10
-108.8842
 20
44.9972
 30
0.0
 10
-109.9729
 20
45.481
 30
0.0
 10
-105.1341
 20
51.0457
 30
0.0
 10
-104.2872
 20
48.9893
 30
0.0
 10
-104.2872
 20
48.9893
 30
0.0
 10
-101.6259
 20
44.1506
 30
0.0
 10
-98.2387
 20
41.3682
 30
0.0
 10
-94.3676
 20
39.1908
 30
0.0
 10
-94.3676
 20
39.1908
 30
0.0
 10
-93.2789
 20
38.4649
 30
0.0
 10
-98.118
 20
33.9889
 30
0.0
 10
-98.7225
 20
34.7148
 30
0.0
  0
SPLINE
  5
AA
330
1F
100
AcDbEntity
  8
layer 1
 62
     7
100
AcDbSpline
210
0.0
220
0.0
230
1.0
 70
    11
 71
     3
 72
    20
 73
    16
 74
     0
 42
0.0000000001
 43
0.0000000001
 12
1.0
 22
0.0
 32
0.0
 13
1.0
 23
0.0
 33
0.0
 40
0.0
 40
0.0
 40
0.0
 40
0.0
 40
0.2
 40
0.2
 40
0.2
 40
0.2
 40
0.4
 40
0.4
 40
0.4
 40
0.4
 40
0.6
 40
0.6
 40
0.6
 40
0.6
 40
1.0
 40
1.0
 40
1.0
 40
1.0
 10
-100.5372
 20
30.7227
 30
0.0
 10
-95.9405
 20
33.2633
 30
0.0
 10
-92.5533
 20
36.7712
 30
0.0
 10
-90.3758
 20
41.0051
 30
0.0
 10
-90.3758
 20
41.0051
 30
0.0
 10
-89.892
 20
41.9731
 30
0.0
 10
-84.3273
 20
37.1344
 30
0.0
 10
-86.3837
 20
36.2874
 30
0.0
 10
-86.3837
 20
36.2874
 30
0.0
 10
-91.2225
 20
33.6261
 30
0.0
 10
-94.0048
 20
30.2389
 30
0.0
 10
-96.0612
 20
26.4889
 30
0.0
 10
-96.0612
 20
26.4889
 30
0.0
 10
-96.7871
 20
25.2791
 30
0.0
 10
-101.3841
 20
30.1179
 30
0.0
 10
-100.5372
 20
30.7227
 30
0.0
  0
SPLINE
  5
AB
330
1F
100
AcDbEntity
  8
layer 1
 62
     7
100
AcDbSpline
210
0.0
220
0.0
230
1.0
 70
    11
 71
     3
 72
    20
 73
    16
 74
     0
 42
0.0000000001
 43
0.0000000001
 12
1.0
 22
0.0
 32
0.0
 13
1.0
 23
0.0
 33
0.0
 40
0.0
 40
0.0
 40
0.0
 40
0.0
 40
0.2
 40
0.2
 40
0.2
 40
0.2
 40
0.4
 40
0.4
 40
0.4
 40
0.4
 40
0.6
 40
0.6
 40
0.6
 40
0.6
 40
1.0
 40
1.0
 40
1.0
 40
1.0
 10
-98.7225
 20
18.0212
 30
0.0
 10
-101.2631
 20
22.6178
 30
0.0
 10
-104.771
 20
26.005
 30
0.0
 10
-108.8842
 20
28.1825
 30
0.0
 10
-108.8842
 20
28.1825
 30
0.0
 10
-109.9729
 20
28.6663
 30
0.0
 10
-105.1341
 20
34.231
 30
0.0
 10
-104.2872
 20
32.1746
 30
0.0
 10
-104.2872
 20
32.1746
 30
0.0
 10
-101.6259
 20
27.3359
 30
0.0
 10
-98.2387
 20
24.5535
 30
0.0
 10
-94.3676
 20
22.4968
 30
0.0
 10
-94.3676
 20
22.4968
 30
0.0
 10
-93.2789
 20
21.7712
 30
0.0
 10
-98.118
 20
17.1742
 30
0.0
 10
-98.7225
 20
18.0212
 30
0.0
  0
SPLINE
  5
AC
330
1F
100
AcDbEntity
  8
layer 1
 62
     7
100
AcDbSpline
210
0.0
220
0.0
230
1.0
 70
    11
 71
     3
 72
    20
 73
    16
 74
     0
 42
0.0000000001
 43
0.0000000001
 12
1.0
 22
0.0
 32
0.0
 13
1.0
 23
0.0
 33
0.0
 40
0.0
 40
0.0
 40
0.0
 40
0.0
 40
0.2
 40
0.2
 40
0.2
 40
0.2
 40
0.4
 40
0.4
 40
0.4
 40
0.4
 40
0.6
 40
0.6
 40
0.6
 40
0.6
 40
1.0
 40
1.0
 40
1.0
 40
1.0
 10
-100.5372
 20
13.908
 30
0.0
 10
-95.9405
 20
16.4486
 30
0.0
 10
-92.5533
 20
19.9565
 30
0.0
 10
-90.3758
 20
24.1904
 30
0.0
 10
-90.3758
 20
24.1904
 30
0.0
 10
-89.892
 20
25.1584
 30
0.0
 10
-84.3273
 20
20.3193
 30
0.0
 10
-86.3837
 20
19.5937
 30
0.0
 10
-86.3837
 20
19.5937
 30
0.0
 10
-91.2225
 20
16.9325
 30
0.0
 10
-94.0048
 20
13.4242
 30
0.0
 10
-96.0612
 20
9.6742
 30
0.0
 10
-96.0612
 20
9.6742
 30
0.0
 10
-96.7871
 20
8.5854
 30
0.0
 10
-101.3841
 20
13.4242
 30
0.0
 10
-100.5372
 20
13.908
 30
0.0
  0
SPLINE
  5
AD
330
1F
100
AcDbEntity
  8
layer 1
 62
     7
100
AcDbSpline
210
0.0
220
0.0
230
1.0
 70
    11
 71
     3
 72
    20
 73
    16
 74
     0
 42
0.0000000001
 43
0.0000000001
 12
1.0
 22
0.0
 32
0.0
 13
1.0
 23
0.0
 33
0.0
 40
0.0
 40
0.0
 40
0.0
 40
0.0
 40
0.2
 40
0.2
 40
0.2
 40
0.2
 40
0.4
 40
0.4
 40
0.4
 40
0.4
 40
0.6
 40
0.6
 40
0.6
 40
0.6
 40
1.0
 40
1.0
 40
1.0
 40
1.0
 10
-98.7225
 20
1.2065
 30
0.0
 10
-101.2631
 20
5.8031
 30
0.0
 10
-104.771
 20
9.3114
 30
0.0
 10
-108.8842
 20
11.3678
 30
0.0
 10
-108.8842
 20
11.3678
 30
0.0
 10
-109.9729
 20
11.8516
 30
0.0
 10
-105.1341
 20
17.4163
 30
0.0
 10
-104.2872
 20
15.4806
 30
0.0
 10
-104.2872
 20
15.4806
 30
0.0
 10
-101.6259
 20
10.6418
 30
0.0
 10
-98.2387
 20
7.8595
 30
0.0
 10
-94.3676
 20
5.6821
 30
0.0
 10
-94.3676
 20
5.6821
 30
0.0
 10
-93.2789
 20
4.9565
 30
0.0
 10
-98.118
 20
0.4805
 30
0.0
 10
-98.7225
 20
1.2065
 30
0.0
  0
SPLINE
  5
AE
330
1F
100
AcDbEntity
  8
layer 1
 62
     7
100
AcDbSpline
210
0.0
220
0.0
230
1.0
 70
    11
 71
     3
 72
    20
 73
    16
 74
     0
 42
0.0000000001
 43
0.0000000001
 12
1.0
 22
0.0
 32
0.0
 13
1.0
 23
0.0
 33
0.0
 40
0.0
 40
0.0
 40
0.0
 40
0.0
 40
0.2
 40
0.2
 40
0.2
 40
0.2
 40
0.4
 40
0.4
 40
0.4
 40
0.4
 40
0.6
 40
0.6
 40
0.6
 40
0.6
 40
1.0
 40
1.0
 40
1.0
 40
1.0
 10
-100.5372
 20
-2.7856
 30
0.0
 10
-95.9405
 20
-0.3664
 30
0.0
 10
-92.5533
 20
3.2629
 30
0.0
 10
-90.3758
 20
7.3757
 30
0.0
 10
-90.3758
 20
7.3757
 30
0.0
 10
-89.892
 20
8.3434
 30
0.0
 10
-84.3273
 20
3.6257
 30
0.0
 10
-86.3837
 20
2.779
 30
0.0
 10
-86.3837
 20
2.779
 30
0.0
 10
-91.2225
 20
0.1177
 30
0.0
 10
-94.0048
 20
-3.2695
 30
0.0
 10
-96.0612
 20
-7.1405
 30
0.0
 10
-96.0612
 20
-7.1405
 30
0.0
 10
-96.7871
 20
-8.2293
 30
0.0
 10
-101.3841
 20
-3.3905
 30
0.0
 10
-100.5372
 20
-2.7856
 30
0.0
  0
SPLINE
  5
AF
330
1F
100
AcDbEntity
  8
layer 1
 62
     7
100
AcDbSpline
210
0.0
220
0.0
230
1.0
 70
    11
 71
     3
 72
    20
 73
    16
 74
     0
 42
0.0000000001
 43
0.0000000001
 12
1.0
 22
0.0
 32
0.0
 13
1.0
 23
0.0
 33
0.0
 40
0.0
 40
0.0
 40
0.0
 40
0.0
 40
0.2
 40
0.2
 40
0.2
 40
0.2
 40
0.4
 40
0.4
 40
0.4
 40
0.4
 40
0.6
 40
0.6
 40
0.6
 40
0.6
 40
1.0
 40
1.0
 40
1.0
 40
1.0
 10
-98.7225
 20
-15.4876
 30
0.0
 10
-101.2631
 20
-10.8906
 30
0.0
 10
-104.771
 20
-7.5033
 30
0.0
 10
-108.8842
 20
-5.3259
 30
0.0
 10
-108.8842
 20
-5.3259
 30
0.0
 10
-109.9729
 20
-4.842
 30
0.0
 10
-105.1341
 20
0.7223
 30
0.0
 10
-104.2872
 20
-1.3341
 30
0.0
 10
-104.2872
 20
-1.3341
 30
0.0
 10
-101.6259
 20
-6.1729
 30
0.0
 10
-98.2387
 20
-8.9552
 30
0.0
 10
-94.3676
 20
-11.1327
 30
0.0
 10
-94.3676
 20
-11.1327
 30
0.0
 10
-93.2789
 20
-11.7375
 30
0.0
 10
-98.118
 20
-16.3342
 30
0.0
 10
-98.7225
 20
-15.4876
 30
0.0
  0
SPLINE
  5
B0
330
1F
100
AcDbEntity
  8
layer 1
 62
     7
100
AcDbSpline
210
0.0
220
0.0
230
1.0
 70
    11
 71
     3
 72
    20
 73
    16
 74
     0
 42
0.0000000001
 43
0.0000000001
 12
1.0
 22
0.0
 32
0.0
 13
1.0
 23
0.0
 33
0.0
 40
0.0
 40
0.0
 40
0.0
 40
0.0
 40
0.2
 40
0.2
 40
0.2
 40
0.2
 40
0.4
 40
0.4
 40
0.4
 40
0.4
 40
0.6
 40
0.6
 40
0.6
 40
0.6
 40
1.0
 40
1.0
 40
1.0
 40
1.0
 10
-100.5372
 20
-19.6004
 30
0.0
 10
-95.9405
 20
-17.0601
 30
0.0
 10
-92.5533
 20
-13.5518
 30
0.0
 10
-90.3758
 20
-9.318
 30
0.0
 10
-90.3758
 20
-9.318
 30
0.0
 10
-89.892
 20
-8.3503
 30
0.0
 10
-84.3273
 20
-13.1891
 30
0.0
 10
-86.3837
 20
-14.0357
 30
0.0
 10
-86.3837
 20
-14.0357
 30
0.0
 10
-91.2225
 20
-16.5763
 30
0.0
 10
-94.0048
 20
-20.0842
 30
0.0
 10
-96.0612
 20
-23.8342
 30
0.0
 10
-96.0612
 20
-23.8342
 30
0.0
 10
-96.7871
 20
-25.044
 30
0.0
 10
-101.3841
 20
-20.2052
 30
0.0
 10
-100.5372
 20
-19.6004
 30
0.0
  0
SPLINE
  5
B1
330
1F
100
AcDbEntity
  8
layer 1
 62
     7
100
AcDbSpline
210
0.0
220
0.0
230
1.0
 70
    11
 71
     3
 72
    20
 73
    16
 74
     0
 42
0.0000000001
 43
0.0000000001
 12
1.0
 22
0.0
 32
0.0
 13
1.0
 23
0.0
 33
0.0
 40
0.0
 40
0.0
 40
0.0
 40
0.0
 40
0.2
 40
0.2
 40
0.2
 40
0.2
 40
0.4
 40
0.4
 40
0.4
 40
0.4
 40
0.6
 40
0.6
 40
0.6
 40
0.6
 40
1.0
 40
1.0
 40
1.0
 40
1.0
 10
-98.7225
 20
-32.3023
 30
0.0
 10
-101.2631
 20
-27.7053
 30
0.0
 10
-104.771
 20
-24.3184
 30
0.0
 10
-108.8842
 20
-22.1409
 30
0.0
 10
-108.8842
 20
-22.1409
 30
0.0
 10
-109.9729
 20
-21.6568
 30
0.0
 10
-105.1341
 20
-16.0924
 30
0.0
 10
-104.2872
 20
-18.0278
 30
0.0
 10
-104.2872
 20
-18.0278
 30
0.0
 10
-101.6259
 20
-22.9876
 30
0.0
 10
-98.2387
 20
-25.7699
 30
0.0
 10
-94.3676
 20
-27.8263
 30
0.0
 10
-94.3676
 20
-27.8263
 30
0.0
 10
-93.2789
 20
-28.5523
 30
0.0
 10
-98.118
 20
-33.1489
 30
0.0
 10
-98.7225
 20
-32.3023
 30
0.0
  0
SPLINE
  5
B2
330
1F
100
AcDbEntity
  8
layer 1
 62
     7
100
AcDbSpline
210
0.0
220
0.0
230
1.0
 70
    11
 71
     3
 72
    20
 73
    16
 74
     0
 42
0.0000000001
 43
0.0000000001
 12
1.0
 22
0.0
 32
0.0
 13
1.0
 23
0.0
 33
0.0
 40
0.0
 40
0.0
 40
0.0
 40
0.0
 40
0.2
 40
0.2
 40
0.2
 40
0.2
 40
0.4
 40
0.4
 40
0.4
 40
0.4
 40
0.6
 40
0.6
 40
0.6
 40
0.6
 40
1.0
 40
1.0
 40
1.0
 40
1.0
 10
-100.5372
 20
-36.4151
 30
0.0
 10
-95.9405
 20
-33.8748
 30
0.0
 10
-92.5533
 20
-30.2459
 30
0.0
 10
-90.3758
 20
-26.1327
 30
0.0
 10
-90.3758
 20
-26.1327
 30
0.0
 10
-89.892
 20
-25.165
 30
0.0
 10
-84.3273
 20
-29.8827
 30
0.0
 10
-86.3837
 20
-30.7297
 30
0.0
 10
-86.3837
 20
-30.7297
 30
0.0
 10
-91.2225
 20
-33.391
 30
0.0
 10
-94.0048
 20
-36.8989
 30
0.0
 10
-96.0612
 20
-40.6493
 30
0.0
 10
-96.0612
 20
-40.6493
 30
0.0
 10
-96.7871
 20
-41.738
 30
0.0
 10
-101.3841
 20
-36.8989
 30
0.0
 10
-100.5372
 20
-36.4151
 30
0.0
  0
SPLINE
  5
B3
330
1F
100
AcDbEntity
  8
layer 1
 62
     7
100
AcDbSpline
210
0.0
220
0.0
230
1.0
 70
    11
 71
     3
 72
    20
 73
    16
 74
     0
 42
0.0000000001
 43
0.0000000001
 12
1.0
 22
0.0
 32
0.0
 13
1.0
 23
0.0
 33
0.0
 40
0.0
 40
0.0
 40
0.0
 40
0.0
 40
0.2
 40
0.2
 40
0.2
 40
0.2
 40
0.4
 40
0.4
 40
0.4
 40
0.4
 40
0.6
 40
0.6
 40
0.6
 40
0.6
 40
1.0
 40
1.0
 40
1.0
 40
1.0
 10
-98.7225
 20
-49.117
 30
0.0
 10
-101.2631
 20
-44.52
 30
0.0
 10
-104.771
 20
-41.0121
 30
0.0
 10
-108.8842
 20
-38.8346
 30
0.0
 10
-108.8842
 20
-38.8346
 30
0.0
 10
-109.9729
 20
-38.3508
 30
0.0
 10
-105.1341
 20
-32.9072
 30
0.0
 10
-104.2872
 20
-34.8425
 30
0.0
 10
-104.2872
 20
-34.8425
 30
0.0
 10
-101.6259
 20
-39.6812
 30
0.0
 10
-98.2387
 20
-42.4636
 30
0.0
 10
-94.3676
 20
-44.641
 30
0.0
 10
-94.3676
 20
-44.641
 30
0.0
 10
-93.2789
 20
-45.367
 30
0.0
 10
-98.118
 20
-49.8429
 30
0.0
 10
-98.7225
 20
-49.117
 30
0.0
  0
SPLINE
  5
B4
330
1F
100
AcDbEntity
  8
layer 1
 62
     7
100
AcDbSpline
210
0.0
220
0.0
230
1.0
 70
    11
 71
     3
 72
    20
 73
    16
 74
     0
 42
0.0000000001
 43
0.0000000001
 12
1.0
 22
0.0
 32
0.0
 13
1.0
 23
0.0
 33
0.0
 40
0.0
 40
0.0
 40
0.0
 40
0.0
 40
0.2
 40
0.2
 40
0.2
 40
0.2
 40
0.4
 40
0.4
 40
0.4
 40
0.4
 40
0.6
 40
0.6
 40
0.6
 40
0.6
 40
1.0
 40
1.0
 40
1.0
 40
1.0
 10
-100.5372
 20
-53.1091
 30
0.0
 10
-95.9405
 20
-50.5685
 30
0.0
 10
-92.5533
 20
-47.0606
 30
0.0
 10
-90.3758
 20
-42.9474
 30
0.0
 10
-90.3758
 20
-42.9474
 30
0.0
 10
-89.892
 20
-41.9797
 30
0.0
 10
-84.3273
 20
-46.6974
 30
0.0
 10
-86.3837
 20
-47.5444
 30
0.0
 10
-86.3837
 20
-47.5444
 30
0.0
 10
-91.2225
 20
-50.2057
 30
0.0
 10
-94.0048
 20
-53.5929
 30
0.0
 10
-96.0612
 20
-57.464
 30
0.0
 10
-96.0612
 20
-57.464
 30
0.0
 10
-96.7871
 20
-58.5527
 30
0.0
 10
-101.3841
 20
-53.714
 30
0.0
 10
-100.5372
 20
-53.1091
 30
0.0
  0
SPLINE
  5
B5
330
1F
100
AcDbEntity
  8
layer 1
 62
     7
100
AcDbSpline
210
0.0
220
0.0
230
1.0
 70
    11
 71
     3
 72
    20
 73
    16
 74
     0
 42
0.0000000001
 43
0.0000000001
 12
1.0
 22
0.0
 32
0.0
 13
1.0
 23
0.0
 33
0.0
 40
0.0
 40
0.0
 40
0.0
 40
0.0
 40
0.2
 40
0.2
 40
0.2
 40
0.2
 40
0.4
 40
0.4
 40
0.4
 40
0.4
 40
0.6
 40
0.6
 40
0.6
 40
0.6
 40
1.0
 40
1.0
 40
1.0
 40
1.0
 10
-98.7225
 20
-65.8106
 30
0.0
 10
-101.2631
 20
-61.214
 30
0.0
 10
-104.771
 20
-57.8268
 30
0.0
 10
-108.8842
 20
-55.6493
 30
0.0
 10
-108.8842
 20
-55.6493
 30
0.0
 10
-109.9729
 20
-55.1655
 30
0.0
 10
-105.1341
 20
-49.6008
 30
0.0
 10
-104.2872
 20
-51.6572
 30
0.0
 10
-104.2872
 20
-51.6572
 30
0.0
 10
-101.6259
 20
-56.496
 30
0.0
 10
-98.2387
 20
-59.2783
 30
0.0
 10
-94.3676
 20
-61.335
 30
0.0
 10
-94.3676
 20
-61.335
 30
0.0
 10
-93.2789
 20
-62.0606
 30
0.0
 10
-98.118
 20
-66.6576
 30
0.0
 10
-98.7225
 20
-65.8106
 30
0.0
  0
SPLINE
  5
B6
330
1F
100
AcDbEntity
  8
layer 1
 62
     7
100
AcDbSpline
210
0.0
220
0.0
230
1.0
 70
    11
 71
     3
 72
    20
 73
    16
 74
     0
 42
0.0000000001
 43
0.0000000001
 12
1.0
 22
0.0
 32
0.0
 13
1.0
 23
0.0
 33
0.0
 40
0.0
 40
0.0
 40
0.0
 40
0.0
 40
0.2
 40
0.2
 40
0.2
 40
0.2
 40
0.4
 40
0.4
 40
0.4
 40
0.4
 40
0.6
 40
0.6
 40
0.6
 40
0.6
 40
1.0
 40
1.0
 40
1.0
 40
1.0
 10
-100.5372
 20
-69.9238
 30
0.0
 10
-95.9405
 20
-67.3832
 30
0.0
 10
-92.5533
 20
-63.8753
 30
0.0
 10
-90.3758
 20
-59.6414
 30
0.0
 10
-90.3758
 20
-59.6414
 30
0.0
 10
-89.892
 20
-58.6734
 30
0.0
 10
-84.3273
 20
-63.5125
 30
0.0
 10
-86.3837
 20
-64.2381
 30
0.0
 10
-86.3837
 20
-64.2381
 30
0.0
 10
-91.2225
 20
-66.8994
 30
0.0
 10
-94.0048
 20
-70.4076
 30
0.0
 10
-96.0612
 20
-74.1577
 30
0.0
 10
-96.0612
 20
-74.1577
 30
0.0
 10
-96.7871
 20
-75.2464
 30
0.0
 10
-101.3841
 20
-70.5287
 30
0.0
 10
-100.5372
 20
-69.9238
 30
0.0
  0
SPLINE
  5
B7
330
1F
100
AcDbEntity
  8
layer 1
 62
     7
100
AcDbSpline
210
0.0
220
0.0
230
1.0
 70
    11
 71
     3
 72
    20
 73
    16
 74
     0
 42
0.0000000001
 43
0.0000000001
 12
1.0
 22
0.0
 32
0.0
 13
1.0
 23
0.0
 33
0.0
 40
0.0
 40
0.0
 40
0.0
 40
0.0
 40
0.2
 40
0.2
 40
0.2
 40
0.2
 40
0.4
 40
0.4
 40
0.4
 40
0.4
 40
0.6
 40
0.6
 40
0.6
 40
0.6
 40
1.0
 40
1.0
 40
1.0
 40
1.0
 10
-98.7225
 20
-82.6254
 30
0.0
 10
-101.2631
 20
-78.0287
 30
0.0
 10
-104.771
 20
-74.5204
 30
0.0
 10
-108.8842
 20
-72.464
 30
0.0
 10
-108.8842
 20
-72.464
 30
0.0
 10
-109.9729
 20
-71.9802
 30
0.0
 10
-105.1341
 20
-66.4155
 30
0.0
 10
-104.2872
 20
-68.3512
 30
0.0
 10
-104.2872
 20
-68.3512
 30
0.0
 10
-101.6259
 20
-73.311
 30
0.0
 10
-98.2387
 20
-76.093
 30
0.0
 10
-94.3676
 20
-78.1498
 30
0.0
 10
-94.3676
 20
-78.1498
 30
0.0
 10
-93.2789
 20
-78.8753
 30
0.0
 10
-98.118
 20
-83.3513
 30
0.0
 10
-98.7225
 20
-82.6254
 30
0.0
  0
SPLINE
  5
B8
330
1F
100
AcDbEntity
  8
layer 1
 62
     7
100
AcDbSpline
210
0.0
220
0.0
230
1.0
 70
    11
 71
     3
 72
    20
 73
    16
 74
     0
 42
0.0000000001
 43
0.0000000001
 12
1.0
 22
0.0
 32
0.0
 13
1.0
 23
0.0
 33
0.0
 40
0.0
 40
0.0
 40
0.0
 40
0.0
 40
0.2
 40
0.2
 40
0.2
 40
0.2
 40
0.4
 40
0.4
 40
0.4
 40
0.4
 40
0.6
 40
0.6
 40
0.6
 40
0.6
 40
1.0
 40
1.0
 40
1.0
 40
1.0
 10
-100.5372
 20
-86.7385
 30
0.0
 10
-95.9405
 20
-84.1983
 30
0.0
 10
-92.5533
 20
-80.569
 30
0.0
 10
-90.3758
 20
-76.4562
 30
0.0
 10
-90.3758
 20
-76.4562
 30
0.0
 10
-89.892
 20
-75.4885
 30
0.0
 10
-84.3273
 20
-80.2062
 30
0.0
 10
-86.3837
 20
-81.0528
 30
0.0
 10
-86.3837
 20
-81.0528
 30
0.0
 10
-91.2225
 20
-83.7141
 30
0.0
 10
-94.0048
 20
-87.1013
 30
0.0
 10
-96.0612
 20
-90.9724
 30
0.0
 10
-96.0612
 20
-90.9724
 30
0.0
 10
-96.7871
 20
-92.0611
 30
0.0
 10
-101.3841
 20
-87.2224
 30
0.0
 10
-100.5372
 20
-86.7385
 30
0.0
  0
SPLINE
  5
B9
330
1F
100
AcDbEntity
  8
layer 1
 62
     7
100
AcDbSpline
210
0.0
220
0.0
230
1.0
 70
    11
 71
     3
 72
    20
 73
    16
 74
     0
 42
0.0000000001
 43
0.0000000001
 12
1.0
 22
0.0
 32
0.0
 13
1.0
 23
0.0
 33
0.0
 40
0.0
 40
0.0
 40
0.0
 40
0.0
 40
0.2
 40
0.2
 40
0.2
 40
0.2
 40
0.4
 40
0.4
 40
0.4
 40
0.4
 40
0.6
 40
0.6
 40
0.6
 40
0.6
 40
1.0
 40
1.0
 40
1.0
 40
1.0
 10
-98.7225
 20
-99.4404
 30
0.0
 10
-101.2631
 20
-94.7224
 30
0.0
 10
-104.771
 20
-91.3352
 30
0.0
 10
-108.8842
 20
-89.1577
 30
0.0
 10
-108.8842
 20
-89.1577
 30
0.0
 10
-109.9729
 20
-88.6739
 30
0.0
 10
-105.1341
 20
-83.1095
 30
0.0
 10
-104.2872
 20
-85.166
 30
0.0
 10
-104.2872
 20
-85.166
 30
0.0
 10
-101.6259
 20
-90.0047
 30
0.0
 10
-98.2387
 20
-92.787
 30
0.0
 10
-94.3676
 20
-94.9645
 30
0.0
 10
-94.3676
 20
-94.9645
 30
0.0
 10
-93.2789
 20
-95.6901
 30
0.0
 10
-98.118
 20
-100.166
 30
0.0
 10
-98.7225
 20
-99.4404
 30
0.0
  0
SPLINE
  5
BA
330
1F
100
AcDbEntity
  8
layer 1
 62
     7
100
AcDbSpline
210
0.0
220
0.0
230
1.0
 70
    11
 71
     3
 72
    20
 73
    16
 74
     0
 42
0.0000000001
 43
0.0000000001
 12
1.0
 22
0.0
 32
0.0
 13
1.0
 23
0.0
 33
0.0
 40
0.0
 40
0.0
 40
0.0
 40
0.0
 40
0.2
 40
0.2
 40
0.2
 40
0.2
 40
0.4
 40
0.4
 40
0.4
 40
0.4
 40
0.6
 40
0.6
 40
0.6
 40
0.6
 40
1.0
 40
1.0
 40
1.0
 40
1.0
 10
-100.5372
 20
-103.4322
 30
0.0
 10
-95.9405
 20
-100.8919
 30
0.0
 10
-92.5533
 20
-97.3837
 30
0.0
 10
-90.3758
 20
-93.1498
 30
0.0
 10
-90.3758
 20
-93.1498
 30
0.0
 10
-89.892
 20
-92.1821
 30
0.0
 10
-84.3273
 20
-97.0209
 30
0.0
 10
-86.3837
 20
-97.8675
 30
0.0
 10
-86.3837
 20
-97.8675
 30
0.0
 10
-89.2871
 20
-99.4404
 30
0.0
 10
-91.4646
 20
-101.3758
 30
0.0
 10
-93.2789
 20
-103.4322
 30
0.0
 10
-93.2789
 20
-103.4322
 30
0.0
 10
-93.2789
 20
-103.4322
 30
0.0
 10
-100.5372
 20
-103.4322
 30
0.0
 10
-100.5372
 20
-103.4322
 30
0.0
  0
SPLINE
  5
BB
330
1F
100
AcDbEntity
  8
layer 1
 62
     7
100
AcDbSpline
210
0.0
220
0.0
230
1.0
 70
    11
 71
     3
 72
    20
 73
    16
 74
     0
 42
0.0000000001
 43
0.0000000001
 12
1.0
 22
0.0
 32
0.0
 13
1.0
 23
0.0
 33
0.0
 40
0.0
 40
0.0
 40
0.0
 40
0.0
 40
0.2
 40
0.2
 40
0.2
 40
0.2
 40
0.4
 40
0.4
 40
0.4
 40
0.4
 40
0.6
 40
0.6
 40
0.6
 40
0.6
 40
1.0
 40
1.0
 40
1.0
 40
1.0
 10
-115.4165
 20
-99.4404
 30
0.0
 10
-117.9568
 20
-94.7224
 30
0.0
 10
-121.5857
 20
-91.3352
 30
0.0
 10
-125.6989
 20
-89.1577
 30
0.0
 10
-125.6989
 20
-89.1577
 30
0.0
 10
-126.6666
 20
-88.6739
 30
0.0
 10
-121.9489
 20
-83.1095
 30
0.0
 10
-121.1019
 20
-85.166
 30
0.0
 10
-121.1019
 20
-85.166
 30
0.0
 10
-118.4406
 20
-90.0047
 30
0.0
 10
-114.9327
 20
-92.787
 30
0.0
 10
-111.1827
 20
-94.9645
 30
0.0
 10
-111.1827
 20
-94.9645
 30
0.0
 10
-110.0939
 20
-95.6901
 30
0.0
 10
-114.9327
 20
-100.166
 30
0.0
 10
-115.4165
 20
-99.4404
 30
0.0
  0
SPLINE
  5
BC
330
1F
100
AcDbEntity
  8
layer 1
 62
     7
100
AcDbSpline
210
0.0
220
0.0
230
1.0
 70
    11
 71
     3
 72
    20
 73
    16
 74
     0
 42
0.0000000001
 43
0.0000000001
 12
1.0
 22
0.0
 32
0.0
 13
1.0
 23
0.0
 33
0.0
 40
0.0
 40
0.0
 40
0.0
 40
0.0
 40
0.2
 40
0.2
 40
0.2
 40
0.2
 40
0.4
 40
0.4
 40
0.4
 40
0.4
 40
0.6
 40
0.6
 40
0.6
 40
0.6
 40
1.0
 40
1.0
 40
1.0
 40
1.0
 10
-117.3519
 20
-103.4322
 30
0.0
 10
-112.7552
 20
-100.8919
 30
0.0
 10
-109.247
 20
-97.3837
 30
0.0
 10
-107.1906
 20
-93.1498
 30
0.0
 10
-107.1906
 20
-93.1498
 30
0.0
 10
-106.7067
 20
-92.1821
 30
0.0
 10
-101.142
 20
-97.0209
 30
0.0
 10
-103.0774
 20
-97.8675
 30
0.0
 10
-103.0774
 20
-97.8675
 30
0.0
 10
-106.1018
 20
-99.4404
 30
0.0
 10
-108.2793
 20
-101.3758
 30
0.0
 10
-109.9729
 20
-103.4322
 30
0.0
 10
-109.9729
 20
-103.4322
 30
0.0
 10
-109.9729
 20
-103.4322
 30
0.0
 10
-117.3519
 20
-103.4322
 30
0.0
 10
-117.3519
 20
-103.4322
 30
0.0
  0
SPLINE
  5
BD
330
1F
100
AcDbEntity
  8
layer 1
 62
     7
100
AcDbSpline
210
0.0
220
0.0
230
1.0
 70
    11
 71
     3
 72
    20
 73
    16
 74
     0
 42
0.0000000001
 43
0.0000000001
 12
1.0
 22
0.0
 32
0.0
 13
1.0
 23
0.0
 33
0.0
 40
0.0
 40
0.0
 40
0.0
 40
0.0
 40
0.2
 40
0.2
 40
0.2
 40
0.2
 40
0.4
 40
0.4
 40
0.4
 40
0.4
 40
0.6
 40
0.6
 40
0.6
 40
0.6
 40
1.0
 40
1.0
 40
1.0
 40
1.0
 10
-115.4165
 20
-82.6254
 30
0.0
 10
-117.9568
 20
-78.0287
 30
0.0
 10
-121.5857
 20
-74.5204
 30
0.0
 10
-125.6989
 20
-72.464
 30
0.0
 10
-125.6989
 20
-72.464
 30
0.0
 10
-126.6666
 20
-71.9802
 30
0.0
 10
-121.9489
 20
-66.4155
 30
0.0
 10
-121.1019
 20
-68.3512
 30
0.0
 10
-121.1019
 20
-68.3512
 30
0.0
 10
-118.4406
 20
-73.311
 30
0.0
 10
-114.9327
 20
-76.093
 30
0.0
 10
-111.1827
 20
-78.1498
 30
0.0
 10
-111.1827
 20
-78.1498
 30
0.0
 10
-110.0939
 20
-78.8753
 30
0.0
 10
-114.9327
 20
-83.3513
 30
0.0
 10
-115.4165
 20
-82.6254
 30
0.0
  0
SPLINE
  5
BE
330
1F
100
AcDbEntity
  8
layer 1
 62
     7
100
AcDbSpline
210
0.0
220
0.0
230
1.0
 70
    11
 71
     3
 72
    20
 73
    16
 74
     0
 42
0.0000000001
 43
0.0000000001
 12
1.0
 22
0.0
 32
0.0
 13
1.0
 23
0.0
 33
0.0
 40
0.0
 40
0.0
 40
0.0
 40
0.0
 40
0.2
 40
0.2
 40
0.2
 40
0.2
 40
0.4
 40
0.4
 40
0.4
 40
0.4
 40
0.6
 40
0.6
 40
0.6
 40
0.6
 40
1.0
 40
1.0
 40
1.0
 40
1.0
 10
-117.3519
 20
-86.7385
 30
0.0
 10
-112.7552
 20
-84.1983
 30
0.0
 10
-109.247
 20
-80.569
 30
0.0
 10
-107.1906
 20
-76.4562
 30
0.0
 10
-107.1906
 20
-76.4562
 30
0.0
 10
-106.7067
 20
-75.4885
 30
0.0
 10
-101.142
 20
-80.2062
 30
0.0
 10
-103.0774
 20
-81.0528
 30
0.0
 10
-103.0774
 20
-81.0528
 30
0.0
 10
-108.0372
 20
-83.7141
 30
0.0
 10
-110.6985
 20
-87.1013
 30
0.0
 10
-112.8759
 20
-90.9724
 30
0.0
 10
-112.8759
 20
-90.9724
 30
0.0
 10
-113.6019
 20
-92.0611
 30
0.0
 10
-118.0778
 20
-87.2224
 30
0.0
 10
-117.3519
 20
-86.7385
 30
0.0
  0
SPLINE
  5
BF
330
1F
100
AcDbEntity
  8
layer 1
 62
     7
100
AcDbSpline
210
0.0
220
0.0
230
1.0
 70
    11
 71
     3
 72
    20
 73
    16
 74
     0
 42
0.0000000001
 43
0.0000000001
 12
1.0
 22
0.0
 32
0.0
 13
1.0
 23
0.0
 33
0.0
 40
0.0
 40
0.0
 40
0.0
 40
0.0
 40
0.2
 40
0.2
 40
0.2
 40
0.2
 40
0.4
 40
0.4
 40
0.4
 40
0.4
 40
0.6
 40
0.6
 40
0.6
 40
0.6
 40
1.0
 40
1.0
 40
1.0
 40
1.0
 10
-115.4165
 20
-65.8106
 30
0.0
 10
-117.9568
 20
-61.214
 30
0.0
 10
-121.5857
 20
-57.8268
 30
0.0
 10
-125.6989
 20
-55.6493
 30
0.0
 10
-125.6989
 20
-55.6493
 30
0.0
 10
-126.6666
 20
-55.1655
 30
0.0
 10
-121.9489
 20
-49.6008
 30
0.0
 10
-121.1019
 20
-51.6572
 30
0.0
 10
-121.1019
 20
-51.6572
 30
0.0
 10
-118.4406
 20
-56.496
 30
0.0
 10
-114.9327
 20
-59.2783
 30
0.0
 10
-111.1827
 20
-61.335
 30
0.0
 10
-111.1827
 20
-61.335
 30
0.0
 10
-110.0939
 20
-62.0606
 30
0.0
 10
-114.9327
 20
-66.6576
 30
0.0
 10
-115.4165
 20
-65.8106
 30
0.0
  0
SPLINE
  5
C0
330
1F
100
AcDbEntity
  8
layer 1
 62
     7
100
AcDbSpline
210
0.0
220
0.0
230
1.0
 70
    11
 71
     3
 72
    20
 73
    16
 74
     0
 42
0.0000000001
 43
0.0000000001
 12
1.0
 22
0.0
 32
0.0
 13
1.0
 23
0.0
 33
0.0
 40
0.0
 40
0.0
 40
0.0
 40
0.0
 40
0.2
 40
0.2
 40
0.2
 40
0.2
 40
0.4
 40
0.4
 40
0.4
 40
0.4
 40
0.6
 40
0.6
 40
0.6
 40
0.6
 40
1.0
 40
1.0
 40
1.0
 40
1.0
 10
-117.3519
 20
-69.9238
 30
0.0
 10
-112.7552
 20
-67.3832
 30
0.0
 10
-109.247
 20
-63.8753
 30
0.0
 10
-107.1906
 20
-59.6414
 30
0.0
 10
-107.1906
 20
-59.6414
 30
0.0
 10
-106.7067
 20
-58.6734
 30
0.0
 10
-101.142
 20
-63.5125
 30
0.0
 10
-103.0774
 20
-64.2381
 30
0.0
 10
-103.0774
 20
-64.2381
 30
0.0
 10
-108.0372
 20
-66.8994
 30
0.0
 10
-110.6985
 20
-70.4076
 30
0.0
 10
-112.8759
 20
-74.1577
 30
0.0
 10
-112.8759
 20
-74.1577
 30
0.0
 10
-113.6019
 20
-75.2464
 30
0.0
 10
-118.0778
 20
-70.5287
 30
0.0
 10
-117.3519
 20
-69.9238
 30
0.0
  0
SPLINE
  5
C1
330
1F
100
AcDbEntity
  8
layer 1
 62
     7
100
AcDbSpline
210
0.0
220
0.0
230
1.0
 70
    11
 71
     3
 72
    20
 73
    16
 74
     0
 42
0.0000000001
 43
0.0000000001
 12
1.0
 22
0.0
 32
0.0
 13
1.0
 23
0.0
 33
0.0
 40
0.0
 40
0.0
 40
0.0
 40
0.0
 40
0.2
 40
0.2
 40
0.2
 40
0.2
 40
0.4
 40
0.4
 40
0.4
 40
0.4
 40
0.6
 40
0.6
 40
0.6
 40
0.6
 40
1.0
 40
1.0
 40
1.0
 40
1.0
 10
-115.4165
 20
-49.117
 30
0.0
 10
-117.9568
 20
-44.52
 30
0.0
 10
-121.5857
 20
-41.0121
 30
0.0
 10
-125.6989
 20
-38.8346
 30
0.0
 10
-125.6989
 20
-38.8346
 30
0.0
 10
-126.6666
 20
-38.3508
 30
0.0
 10
-121.9489
 20
-32.9072
 30
0.0
 10
-121.1019
 20
-34.8425
 30
0.0
 10
-121.1019
 20
-34.8425
 30
0.0
 10
-118.4406
 20
-39.6812
 30
0.0
 10
-114.9327
 20
-42.4636
 30
0.0
 10
-111.1827
 20
-44.641
 30
0.0
 10
-111.1827
 20
-44.641
 30
0.0
 10
-110.0939
 20
-45.367
 30
0.0
 10
-114.9327
 20
-49.8429
 30
0.0
 10
-115.4165
 20
-49.117
 30
0.0
  0
SPLINE
  5
C2
330
1F
100
AcDbEntity
  8
layer 1
 62
     7
100
AcDbSpline
210
0.0
220
0.0
230
1.0
 70
    11
 71
     3
 72
    20
 73
    16
 74
     0
 42
0.0000000001
 43
0.0000000001
 12
1.0
 22
0.0
 32
0.0
 13
1.0
 23
0.0
 33
0.0
 40
0.0
 40
0.0
 40
0.0
 40
0.0
 40
0.2
 40
0.2
 40
0.2
 40
0.2
 40
0.4
 40
0.4
 40
0.4
 40
0.4
 40
0.6
 40
0.6
 40
0.6
 40
0.6
 40
1.0
 40
1.0
 40
1.0
 40
1.0
 10
-117.3519
 20
-53.1091
 30
0.0
 10
-112.7552
 20
-50.5685
 30
0.0
 10
-109.247
 20
-47.0606
 30
0.0
 10
-107.1906
 20
-42.9474
 30
0.0
 10
-107.1906
 20
-42.9474
 30
0.0
 10
-106.7067
 20
-41.9797
 30
0.0
 10
-101.142
 20
-46.6974
 30
0.0
 10
-103.0774
 20
-47.5444
 30
0.0
 10
-103.0774
 20
-47.5444
 30
0.0
 10
-108.0372
 20
-50.2057
 30
0.0
 10
-110.6985
 20
-53.5929
 30
0.0
 10
-112.8759
 20
-57.464
 30
0.0
 10
-112.8759
 20
-57.464
 30
0.0
 10
-113.6019
 20
-58.5527
 30
0.0
 10
-118.0778
 20
-53.714
 30
0.0
 10
-117.3519
 20
-53.1091
 30
0.0
  0
SPLINE
  5
C3
330
1F
100
AcDbEntity
  8
layer 1
 62
     7
100
AcDbSpline
210
0.0
220
0.0
230
1.0
 70
    11
 71
     3
 72
    20
 73
    16
 74
     0
 42
0.0000000001
 43
0.0000000001
 12
1.0
 22
0.0
 32
0.0
 13
1.0
 23
0.0
 33
0.0
 40
0.0
 40
0.0
 40
0.0
 40
0.0
 40
0.2
 40
0.2
 40
0.2
 40
0.2
 40
0.4
 40
0.4
 40
0.4
 40
0.4
 40
0.6
 40
0.6
 40
0.6
 40
0.6
 40
1.0
 40
1.0
 40
1.0
 40
1.0
 10
-115.4165
 20
-32.3023
 30
0.0
 10
-117.9568
 20
-27.7053
 30
0.0
 10
-121.5857
 20
-24.3184
 30
0.0
 10
-125.6989
 20
-22.1409
 30
0.0
 10
-125.6989
 20
-22.1409
 30
0.0
 10
-126.6666
 20
-21.6568
 30
0.0
 10
-121.9489
 20
-16.0924
 30
0.0
 10
-121.1019
 20
-18.0278
 30
0.0
 10
-121.1019
 20
-18.0278
 30
0.0
 10
-118.4406
 20
-22.9876
 30
0.0
 10
-114.9327
 20
-25.7699
 30
0.0
 10
-111.1827
 20
-27.8263
 30
0.0
 10
-111.1827
 20
-27.8263
 30
0.0
 10
-110.0939
 20
-28.5523
 30
0.0
 10
-114.9327
 20
-33.1489
 30
0.0
 10
-115.4165
 20
-32.3023
 30
0.0
  0
SPLINE
  5
C4
330
1F
100
AcDbEntity
  8
layer 1
 62
     7
100
AcDbSpline
210
0.0
220
0.0
230
1.0
 70
    11
 71
     3
 72
    20
 73
    16
 74
     0
 42
0.0000000001
 43
0.0000000001
 12
1.0
 22
0.0
 32
0.0
 13
1.0
 23
0.0
 33
0.0
 40
0.0
 40
0.0
 40
0.0
 40
0.0
 40
0.2
 40
0.2
 40
0.2
 40
0.2
 40
0.4
 40
0.4
 40
0.4
 40
0.4
 40
0.6
 40
0.6
 40
0.6
 40
0.6
 40
1.0
 40
1.0
 40
1.0
 40
1.0
 10
-117.3519
 20
-36.4151
 30
0.0
 10
-112.7552
 20
-33.8748
 30
0.0
 10
-109.247
 20
-30.2459
 30
0.0
 10
-107.1906
 20
-26.1327
 30
0.0
 10
-107.1906
 20
-26.1327
 30
0.0
 10
-106.7067
 20
-25.165
 30
0.0
 10
-101.142
 20
-29.8827
 30
0.0
 10
-103.0774
 20
-30.7297
 30
0.0
 10
-103.0774
 20
-30.7297
 30
0.0
 10
-108.0372
 20
-33.391
 30
0.0
 10
-110.6985
 20
-36.8989
 30
0.0
 10
-112.8759
 20
-40.6493
 30
0.0
 10
-112.8759
 20
-40.6493
 30
0.0
 10
-113.6019
 20
-41.738
 30
0.0
 10
-118.0778
 20
-36.8989
 30
0.0
 10
-117.3519
 20
-36.4151
 30
0.0
  0
SPLINE
  5
C5
330
1F
100
AcDbEntity
  8
layer 1
 62
     7
100
AcDbSpline
210
0.0
220
0.0
230
1.0
 70
    11
 71
     3
 72
    20
 73
    16
 74
     0
 42
0.0000000001
 43
0.0000000001
 12
1.0
 22
0.0
 32
0.0
 13
1.0
 23
0.0
 33
0.0
 40
0.0
 40
0.0
 40
0.0
 40
0.0
 40
0.2
 40
0.2
 40
0.2
 40
0.2
 40
0.4
 40
0.4
 40
0.4
 40
0.4
 40
0.6
 40
0.6
 40
0.6
 40
0.6
 40
1.0
 40
1.0
 40
1.0
 40
1.0
 10
-115.4165
 20
-15.4876
 30
0.0
 10
-117.9568
 20
-10.8906
 30
0.0
 10
-121.5857
 20
-7.5033
 30
0.0
 10
-125.6989
 20
-5.3259
 30
0.0
 10
-125.6989
 20
-5.3259
 30
0.0
 10
-126.6666
 20
-4.842
 30
0.0
 10
-121.9489
 20
0.7223
 30
0.0
 10
-121.1019
 20
-1.3341
 30
0.0
 10
-121.1019
 20
-1.3341
 30
0.0
 10
-118.4406
 20
-6.1729
 30
0.0
 10
-114.9327
 20
-8.9552
 30
0.0
 10
-111.1827
 20
-11.1327
 30
0.0
 10
-111.1827
 20
-11.1327
 30
0.0
 10
-110.0939
 20
-11.7375
 30
0.0
 10
-114.9327
 20
-16.3342
 30
0.0
 10
-115.4165
 20
-15.4876
 30
0.0
  0
SPLINE
  5
C6
330
1F
100
AcDbEntity
  8
layer 1
 62
     7
100
AcDbSpline
210
0.0
220
0.0
230
1.0
 70
    11
 71
     3
 72
    20
 73
    16
 74
     0
 42
0.0000000001
 43
0.0000000001
 12
1.0
 22
0.0
 32
0.0
 13
1.0
 23
0.0
 33
0.0
 40
0.0
 40
0.0
 40
0.0
 40
0.0
 40
0.2
 40
0.2
 40
0.2
 40
0.2
 40
0.4
 40
0.4
 40
0.4
 40
0.4
 40
0.6
 40
0.6
 40
0.6
 40
0.6
 40
1.0
 40
1.0
 40
1.0
 40
1.0
 10
-117.3519
 20
-19.6004
 30
0.0
 10
-112.7552
 20
-17.0601
 30
0.0
 10
-109.247
 20
-13.5518
 30
0.0
 10
-107.1906
 20
-9.318
 30
0.0
 10
-107.1906
 20
-9.318
 30
0.0
 10
-106.7067
 20
-8.3503
 30
0.0
 10
-101.142
 20
-13.1891
 30
0.0
 10
-103.0774
 20
-14.0357
 30
0.0
 10
-103.0774
 20
-14.0357
 30
0.0
 10
-108.0372
 20
-16.5763
 30
0.0
 10
-110.6985
 20
-20.0842
 30
0.0
 10
-112.8759
 20
-23.8342
 30
0.0
 10
-112.8759
 20
-23.8342
 30
0.0
 10
-113.6019
 20
-25.044
 30
0.0
 10
-118.0778
 20
-20.2052
 30
0.0
 10
-117.3519
 20
-19.6004
 30
0.0
  0
SPLINE
  5
C7
330
1F
100
AcDbEntity
  8
layer 1
 62
     7
100
AcDbSpline
210
0.0
220
0.0
230
1.0
 70
    11
 71
     3
 72
    20
 73
    16
 74
     0
 42
0.0000000001
 43
0.0000000001
 12
1.0
 22
0.0
 32
0.0
 13
1.0
 23
0.0
 33
0.0
 40
0.0
 40
0.0
 40
0.0
 40
0.0
 40
0.2
 40
0.2
 40
0.2
 40
0.2
 40
0.4
 40
0.4
 40
0.4
 40
0.4
 40
0.6
 40
0.6
 40
0.6
 40
0.6
 40
1.0
 40
1.0
 40
1.0
 40
1.0
 10
-115.4165
 20
1.2065
 30
0.0
 10
-117.9568
 20
5.8031
 30
0.0
 10
-121.5857
 20
9.3114
 30
0.0
 10
-125.6989
 20
11.3678
 30
0.0
 10
-125.6989
 20
11.3678
 30
0.0
 10
-126.6666
 20
11.8516
 30
0.0
 10
-121.9489
 20
17.4163
 30
0.0
 10
-121.1019
 20
15.4806
 30
0.0
 10
-121.1019
 20
15.4806
 30
0.0
 10
-118.4406
 20
10.6418
 30
0.0
 10
-114.9327
 20
7.8595
 30
0.0
 10
-111.1827
 20
5.6821
 30
0.0
 10
-111.1827
 20
5.6821
 30
0.0
 10
-110.0939
 20
4.9565
 30
0.0
 10
-114.9327
 20
0.4805
 30
0.0
 10
-115.4165
 20
1.2065
 30
0.0
  0
SPLINE
  5
C8
330
1F
100
AcDbEntity
  8
layer 1
 62
     7
100
AcDbSpline
210
0.0
220
0.0
230
1.0
 70
    11
 71
     3
 72
    20
 73
    16
 74
     0
 42
0.0000000001
 43
0.0000000001
 12
1.0
 22
0.0
 32
0.0
 13
1.0
 23
0.0
 33
0.0
 40
0.0
 40
0.0
 40
0.0
 40
0.0
 40
0.2
 40
0.2
 40
0.2
 40
0.2
 40
0.4
 40
0.4
 40
0.4
 40
0.4
 40
0.6
 40
0.6
 40
0.6
 40
0.6
 40
1.0
 40
1.0
 40
1.0
 40
1.0
 10
-117.3519
 20
-2.7856
 30
0.0
 10
-112.7552
 20
-0.3664
 30
0.0
 10
-109.247
 20
3.2629
 30
0.0
 10
-107.1906
 20
7.3757
 30
0.0
 10
-107.1906
 20
7.3757
 30
0.0
 10
-106.7067
 20
8.3434
 30
0.0
 10
-101.142
 20
3.6257
 30
0.0
 10
-103.0774
 20
2.779
 30
0.0
 10
-103.0774
 20
2.779
 30
0.0
 10
-108.0372
 20
0.1177
 30
0.0
 10
-110.6985
 20
-3.2695
 30
0.0
 10
-112.8759
 20
-7.1405
 30
0.0
 10
-112.8759
 20
-7.1405
 30
0.0
 10
-113.6019
 20
-8.2293
 30
0.0
 10
-118.0778
 20
-3.3905
 30
0.0
 10
-117.3519
 20
-2.7856
 30
0.0
  0
SPLINE
  5
C9
330
1F
100
AcDbEntity
  8
layer 1
 62
     7
100
AcDbSpline
210
0.0
220
0.0
230
1.0
 70
    11
 71
     3
 72
    20
 73
    16
 74
     0
 42
0.0000000001
 43
0.0000000001
 12
1.0
 22
0.0
 32
0.0
 13
1.0
 23
0.0
 33
0.0
 40
0.0
 40
0.0
 40
0.0
 40
0.0
 40
0.2
 40
0.2
 40
0.2
 40
0.2
 40
0.4
 40
0.4
 40
0.4
 40
0.4
 40
0.6
 40
0.6
 40
0.6
 40
0.6
 40
1.0
 40
1.0
 40
1.0
 40
1.0
 10
-115.4165
 20
18.0212
 30
0.0
 10
-117.9568
 20
22.6178
 30
0.0
 10
-121.5857
 20
26.005
 30
0.0
 10
-125.6989
 20
28.1825
 30
0.0
 10
-125.6989
 20
28.1825
 30
0.0
 10
-126.6666
 20
28.6663
 30
0.0
 10
-121.9489
 20
34.231
 30
0.0
 10
-121.1019
 20
32.1746
 30
0.0
 10
-121.1019
 20
32.1746
 30
0.0
 10
-118.4406
 20
27.3359
 30
0.0
 10
-114.9327
 20
24.5535
 30
0.0
 10
-111.1827
 20
22.4968
 30
0.0
 10
-111.1827
 20
22.4968
 30
0.0
 10
-110.0939
 20
21.7712
 30
0.0
 10
-114.9327
 20
17.1742
 30
0.0
 10
-115.4165
 20
18.0212
 30
0.0
  0
SPLINE
  5
CA
330
1F
100
AcDbEntity
  8
layer 1
 62
     7
100
AcDbSpline
210
0.0
220
0.0
230
1.0
 70
    11
 71
     3
 72
    20
 73
    16
 74
     0
 42
0.0000000001
 43
0.0000000001
 12
1.0
 22
0.0
 32
0.0
 13
1.0
 23
0.0
 33
0.0
 40
0.0
 40
0.0
 40
0.0
 40
0.0
 40
0.2
 40
0.2
 40
0.2
 40
0.2
 40
0.4
 40
0.4
 40
0.4
 40
0.4
 40
0.6
 40
0.6
 40
0.6
 40
0.6
 40
1.0
 40
1.0
 40
1.0
 40
1.0
 10
-117.3519
 20
13.908
 30
0.0
 10
-112.7552
 20
16.4486
 30
0.0
 10
-109.247
 20
19.9565
 30
0.0
 10
-107.1906
 20
24.1904
 30
0.0
 10
-107.1906
 20
24.1904
 30
0.0
 10
-106.7067
 20
25.1584
 30
0.0
 10
-101.142
 20
20.3193
 30
0.0
 10
-103.0774
 20
19.5937
 30
0.0
 10
-103.0774
 20
19.5937
 30
0.0
 10
-108.0372
 20
16.9325
 30
0.0
 10
-110.6985
 20
13.4242
 30
0.0
 10
-112.8759
 20
9.6742
 30
0.0
 10
-112.8759
 20
9.6742
 30
0.0
 10
-113.6019
 20
8.5854
 30
0.0
 10
-118.0778
 20
13.4242
 30
0.0
 10
-117.3519
 20
13.908
 30
0.0
  0
SPLINE
  5
CB
330
1F
100
AcDbEntity
  8
layer 1
 62
     7
100
AcDbSpline
210
0.0
220
0.0
230
1.0
 70
    11
 71
     3
 72
    20
 73
    16
 74
     0
 42
0.0000000001
 43
0.0000000001
 12
1.0
 22
0.0
 32
0.0
 13
1.0
 23
0.0
 33
0.0
 40
0.0
 40
0.0
 40
0.0
 40
0.0
 40
0.2
 40
0.2
 40
0.2
 40
0.2
 40
0.4
 40
0.4
 40
0.4
 40
0.4
 40
0.6
 40
0.6
 40
0.6
 40
0.6
 40
1.0
 40
1.0
 40
1.0
 40
1.0
 10
-115.4165
 20
34.7148
 30
0.0
 10
-117.9568
 20
39.4325
 30
0.0
 10
-121.5857
 20
42.8198
 30
0.0
 10
-125.6989
 20
44.9972
 30
0.0
 10
-125.6989
 20
44.9972
 30
0.0
 10
-126.6666
 20
45.481
 30
0.0
 10
-121.9489
 20
51.0457
 30
0.0
 10
-121.1019
 20
48.9893
 30
0.0
 10
-121.1019
 20
48.9893
 30
0.0
 10
-118.4406
 20
44.1506
 30
0.0
 10
-114.9327
 20
41.3682
 30
0.0
 10
-111.1827
 20
39.1908
 30
0.0
 10
-111.1827
 20
39.1908
 30
0.0
 10
-110.0939
 20
38.4649
 30
0.0
 10
-114.9327
 20
33.9889
 30
0.0
 10
-115.4165
 20
34.7148
 30
0.0
  0
SPLINE
  5
CC
330
1F
100
AcDbEntity
  8
layer 1
 62
     7
100
AcDbSpline
210
0.0
220
0.0
230
1.0
 70
    11
 71
     3
 72
    20
 73
    16
 74
     0
 42
0.0000000001
 43
0.0000000001
 12
1.0
 22
0.0
 32
0.0
 13
1.0
 23
0.0
 33
0.0
 40
0.0
 40
0.0
 40
0.0
 40
0.0
 40
0.2
 40
0.2
 40
0.2
 40
0.2
 40
0.4
 40
0.4
 40
0.4
 40
0.4
 40
0.6
 40
0.6
 40
0.6
 40
0.6
 40
1.0
 40
1.0
 40
1.0
 40
1.0
 10
-117.3519
 20
30.7227
 30
0.0
 10
-112.7552
 20
33.2633
 30
0.0
 10
-109.247
 20
36.7712
 30
0.0
 10
-107.1906
 20
41.0051
 30
0.0
 10
-107.1906
 20
41.0051
 30
0.0
 10
-106.7067
 20
41.9731
 30
0.0
 10
-101.142
 20
37.1344
 30
0.0
 10
-103.0774
 20
36.2874
 30
0.0
 10
-103.0774
 20
36.2874
 30
0.0
 10
-108.0372
 20
33.6261
 30
0.0
 10
-110.6985
 20
30.2389
 30
0.0
 10
-112.8759
 20
26.4889
 30
0.0
 10
-112.8759
 20
26.4889
 30
0.0
 10
-113.6019
 20
25.2791
 30
0.0
 10
-118.0778
 20
30.1179
 30
0.0
 10
-117.3519
 20
30.7227
 30
0.0
  0
SPLINE
  5
CD
330
1F
100
AcDbEntity
  8
layer 1
 62
     7
100
AcDbSpline
210
0.0
220
0.0
230
1.0
 70
    11
 71
     3
 72
    20
 73
    16
 74
     0
 42
0.0000000001
 43
0.0000000001
 12
1.0
 22
0.0
 32
0.0
 13
1.0
 23
0.0
 33
0.0
 40
0.0
 40
0.0
 40
0.0
 40
0.0
 40
0.2
 40
0.2
 40
0.2
 40
0.2
 40
0.4
 40
0.4
 40
0.4
 40
0.4
 40
0.6
 40
0.6
 40
0.6
 40
0.6
 40
1.0
 40
1.0
 40
1.0
 40
1.0
 10
-115.4165
 20
51.5296
 30
0.0
 10
-117.9568
 20
56.1266
 30
0.0
 10
-121.5857
 20
59.5134
 30
0.0
 10
-125.6989
 20
61.6909
 30
0.0
 10
-125.6989
 20
61.6909
 30
0.0
 10
-126.6666
 20
62.1751
 30
0.0
 10
-121.9489
 20
67.7394
 30
0.0
 10
-121.1019
 20
65.804
 30
0.0
 10
-121.1019
 20
65.804
 30
0.0
 10
-118.4406
 20
60.8442
 30
0.0
 10
-114.9327
 20
58.0619
 30
0.0
 10
-111.1827
 20
56.0055
 30
0.0
 10
-111.1827
 20
56.0055
 30
0.0
 10
-110.0939
 20
55.2796
 30
0.0
 10
-114.9327
 20
50.8036
 30
0.0
 10
-115.4165
 20
51.5296
 30
0.0
  0
SPLINE
  5
CE
330
1F
100
AcDbEntity
  8
layer 1
 62
     7
100
AcDbSpline
210
0.0
220
0.0
230
1.0
 70
    11
 71
     3
 72
    20
 73
    16
 74
     0
 42
0.0000000001
 43
0.0000000001
 12
1.0
 22
0.0
 32
0.0
 13
1.0
 23
0.0
 33
0.0
 40
0.0
 40
0.0
 40
0.0
 40
0.0
 40
0.2
 40
0.2
 40
0.2
 40
0.2
 40
0.4
 40
0.4
 40
0.4
 40
0.4
 40
0.6
 40
0.6
 40
0.6
 40
0.6
 40
1.0
 40
1.0
 40
1.0
 40
1.0
 10
-117.3519
 20
47.4168
 30
0.0
 10
-112.7552
 20
49.957
 30
0.0
 10
-109.247
 20
53.586
 30
0.0
 10
-107.1906
 20
57.6991
 30
0.0
 10
-107.1906
 20
57.6991
 30
0.0
 10
-106.7067
 20
58.6668
 30
0.0
 10
-101.142
 20
53.9491
 30
0.0
 10
-103.0774
 20
53.1021
 30
0.0
 10
-103.0774
 20
53.1021
 30
0.0
 10
-108.0372
 20
50.4408
 30
0.0
 10
-110.6985
 20
47.0536
 30
0.0
 10
-112.8759
 20
43.1826
 30
0.0
 10
-112.8759
 20
43.1826
 30
0.0
 10
-113.6019
 20
42.0938
 30
0.0
 10
-118.0778
 20
46.9329
 30
0.0
 10
-117.3519
 20
47.4168
 30
0.0
  0
SPLINE
  5
CF
330
1F
100
AcDbEntity
  8
layer 1
 62
     7
100
AcDbSpline
210
0.0
220
0.0
230
1.0
 70
    11
 71
     3
 72
    20
 73
    16
 74
     0
 42
0.0000000001
 43
0.0000000001
 12
1.0
 22
0.0
 32
0.0
 13
1.0
 23
0.0
 33
0.0
 40
0.0
 40
0.0
 40
0.0
 40
0.0
 40
0.2
 40
0.2
 40
0.2
 40
0.2
 40
0.4
 40
0.4
 40
0.4
 40
0.4
 40
0.6
 40
0.6
 40
0.6
 40
0.6
 40
1.0
 40
1.0
 40
1.0
 40
1.0
 10
-115.4165
 20
68.3443
 30
0.0
 10
-117.9568
 20
72.9413
 30
0.0
 10
-121.5857
 20
76.3285
 30
0.0
 10
-125.6989
 20
78.5059
 30
0.0
 10
-125.6989
 20
78.5059
 30
0.0
 10
-126.6666
 20
78.9898
 30
0.0
 10
-121.9489
 20
84.5541
 30
0.0
 10
-121.1019
 20
82.4977
 30
0.0
 10
-121.1019
 20
82.4977
 30
0.0
 10
-118.4406
 20
77.659
 30
0.0
 10
-114.9327
 20
74.8766
 30
0.0
 10
-111.1827
 20
72.8202
 30
0.0
 10
-111.1827
 20
72.8202
 30
0.0
 10
-110.0939
 20
72.0943
 30
0.0
 10
-114.9327
 20
67.4976
 30
0.0
 10
-115.4165
 20
68.3443
 30
0.0
  0
SPLINE
  5
D0
330
1F
100
AcDbEntity
  8
layer 1
 62
     7
100
AcDbSpline
210
0.0
220
0.0
230
1.0
 70
    11
 71
     3
 72
    20
 73
    16
 74
     0
 42
0.0000000001
 43
0.0000000001
 12
1.0
 22
0.0
 32
0.0
 13
1.0
 23
0.0
 33
0.0
 40
0.0
 40
0.0
 40
0.0
 40
0.0
 40
0.2
 40
0.2
 40
0.2
 40
0.2
 40
0.4
 40
0.4
 40
0.4
 40
0.4
 40
0.6
 40
0.6
 40
0.6
 40
0.6
 40
1.0
 40
1.0
 40
1.0
 40
1.0
 10
-117.3519
 20
64.2315
 30
0.0
 10
-112.7552
 20
66.7717
 30
0.0
 10
-109.247
 20
70.28
 30
0.0
 10
-107.1906
 20
74.5138
 30
0.0
 10
-107.1906
 20
74.5138
 30
0.0
 10
-106.7067
 20
75.4815
 30
0.0
 10
-101.142
 20
70.6428
 30
0.0
 10
-103.0774
 20
69.9168
 30
0.0
 10
-103.0774
 20
69.9168
 30
0.0
 10
-108.0372
 20
67.2555
 30
0.0
 10
-110.6985
 20
63.7476
 30
0.0
 10
-112.8759
 20
59.9976
 30
0.0
 10
-112.8759
 20
59.9976
 30
0.0
 10
-113.6019
 20
58.9089
 30
0.0
 10
-118.0778
 20
63.6266
 30
0.0
 10
-117.3519
 20
64.2315
 30
0.0
  0
SPLINE
  5
D1
330
1F
100
AcDbEntity
  8
layer 1
 62
     7
100
AcDbSpline
210
0.0
220
0.0
230
1.0
 70
    11
 71
     3
 72
    20
 73
    16
 74
     0
 42
0.0000000001
 43
0.0000000001
 12
1.0
 22
0.0
 32
0.0
 13
1.0
 23
0.0
 33
0.0
 40
0.0
 40
0.0
 40
0.0
 40
0.0
 40
0.2
 40
0.2
 40
0.2
 40
0.2
 40
0.4
 40
0.4
 40
0.4
 40
0.4
 40
0.6
 40
0.6
 40
0.6
 40
0.6
 40
1.0
 40
1.0
 40
1.0
 40
1.0
 10
-115.4165
 20
85.0383
 30
0.0
 10
-117.9568
 20
89.6349
 30
0.0
 10
-121.5857
 20
93.1432
 30
0.0
 10
-125.6989
 20
95.3207
 30
0.0
 10
-125.6989
 20
95.3207
 30
0.0
 10
-126.6666
 20
95.8045
 30
0.0
 10
-121.9489
 20
101.2481
 30
0.0
 10
-121.1019
 20
99.3124
 30
0.0
 10
-121.1019
 20
99.3124
 30
0.0
 10
-118.4406
 20
94.4737
 30
0.0
 10
-114.9327
 20
91.6913
 30
0.0
 10
-111.1827
 20
89.5139
 30
0.0
 10
-111.1827
 20
89.5139
 30
0.0
 10
-110.0939
 20
88.7883
 30
0.0
 10
-114.9327
 20
84.3124
 30
0.0
 10
-115.4165
 20
85.0383
 30
0.0
  0
SPLINE
  5
D2
330
1F
100
AcDbEntity
  8
layer 1
 62
     7
100
AcDbSpline
210
0.0
220
0.0
230
1.0
 70
    11
 71
     3
 72
    20
 73
    16
 74
     0
 42
0.0000000001
 43
0.0000000001
 12
1.0
 22
0.0
 32
0.0
 13
1.0
 23
0.0
 33
0.0
 40
0.0
 40
0.0
 40
0.0
 40
0.0
 40
0.2
 40
0.2
 40
0.2
 40
0.2
 40
0.4
 40
0.4
 40
0.4
 40
0.4
 40
0.6
 40
0.6
 40
0.6
 40
0.6
 40
1.0
 40
1.0
 40
1.0
 40
1.0
 10
-117.3519
 20
81.0462
 30
0.0
 10
-112.7552
 20
83.5864
 30
0.0
 10
-109.247
 20
87.0947
 30
0.0
 10
-107.1906
 20
91.2075
 30
0.0
 10
-107.1906
 20
91.2075
 30
0.0
 10
-106.7067
 20
92.1752
 30
0.0
 10
-101.142
 20
87.4575
 30
0.0
 10
-103.0774
 20
86.6109
 30
0.0
 10
-103.0774
 20
86.6109
 30
0.0
 10
-108.0372
 20
83.9496
 30
0.0
 10
-110.6985
 20
80.5623
 30
0.0
 10
-112.8759
 20
76.6913
 30
0.0
 10
-112.8759
 20
76.6913
 30
0.0
 10
-113.6019
 20
75.6026
 30
0.0
 10
-118.0778
 20
80.4413
 30
0.0
 10
-117.3519
 20
81.0462
 30
0.0
  0
SPLINE
  5
D3
330
1F
100
AcDbEntity
  8
layer 1
 62
     7
100
AcDbSpline
210
0.0
220
0.0
230
1.0
 70
    11
 71
     3
 72
    20
 73
    16
 74
     0
 42
0.0000000001
 43
0.0000000001
 12
1.0
 22
0.0
 32
0.0
 13
1.0
 23
0.0
 33
0.0
 40
0.0
 40
0.0
 40
0.0
 40
0.0
 40
0.2
 40
0.2
 40
0.2
 40
0.2
 40
0.4
 40
0.4
 40
0.4
 40
0.4
 40
0.6
 40
0.6
 40
0.6
 40
0.6
 40
1.0
 40
1.0
 40
1.0
 40
1.0
 10
-115.4165
 20
101.853
 30
0.0
 10
-117.9568
 20
106.4496
 30
0.0
 10
-121.5857
 20
109.8369
 30
0.0
 10
-125.6989
 20
112.0143
 30
0.0
 10
-125.6989
 20
112.0143
 30
0.0
 10
-126.6666
 20
112.4982
 30
0.0
 10
-121.9489
 20
118.0628
 30
0.0
 10
-121.1019
 20
116.1271
 30
0.0
 10
-121.1019
 20
116.1271
 30
0.0
 10
-118.4406
 20
111.1677
 30
0.0
 10
-114.9327
 20
108.3854
 30
0.0
 10
-111.1827
 20
106.3286
 30
0.0
 10
-111.1827
 20
106.3286
 30
0.0
 10
-110.0939
 20
105.603
 30
0.0
 10
-114.9327
 20
101.006
 30
0.0
 10
-115.4165
 20
101.853
 30
0.0
  0
SPLINE
  5
D4
330
1F
100
AcDbEntity
  8
layer 1
 62
     7
100
AcDbSpline
210
0.0
220
0.0
230
1.0
 70
    11
 71
     3
 72
    20
 73
    16
 74
     0
 42
0.0000000001
 43
0.0000000001
 12
1.0
 22
0.0
 32
0.0
 13
1.0
 23
0.0
 33
0.0
 40
0.0
 40
0.0
 40
0.0
 40
0.0
 40
0.2
 40
0.2
 40
0.2
 40
0.2
 40
0.4
 40
0.4
 40
0.4
 40
0.4
 40
0.6
 40
0.6
 40
0.6
 40
0.6
 40
1.0
 40
1.0
 40
1.0
 40
1.0
 10
-117.3519
 20
97.7398
 30
0.0
 10
-112.7552
 20
100.2804
 30
0.0
 10
-109.247
 20
103.9094
 30
0.0
 10
-107.1906
 20
108.0222
 30
0.0
 10
-107.1906
 20
108.0222
 30
0.0
 10
-106.7067
 20
108.9902
 30
0.0
 10
-101.142
 20
104.2722
 30
0.0
 10
-103.0774
 20
103.4256
 30
0.0
 10
-103.0774
 20
103.4256
 30
0.0
 10
-108.0372
 20
100.7643
 30
0.0
 10
-110.6985
 20
97.256
 30
0.0
 10
-112.8759
 20
93.506
 30
0.0
 10
-112.8759
 20
93.506
 30
0.0
 10
-113.6019
 20
92.4173
 30
0.0
 10
-118.0778
 20
97.256
 30
0.0
 10
-117.3519
 20
97.7398
 30
0.0
  0
SPLINE
  5
D5
330
1F
100
AcDbEntity
  8
layer 1
 62
     7
100
AcDbSpline
210
0.0
220
0.0
230
1.0
 70
    11
 71
     3
 72
    16
 73
    12
 74
     0
 42
0.0000000001
 43
0.0000000001
 12
1.0
 22
0.0
 32
0.0
 13
1.0
 23
0.0
 33
0.0
 40
0.0
 40
0.0
 40
0.0
 40
0.0
 40
0.25
 40
0.25
 40
0.25
 40
0.25
 40
0.5
 40
0.5
 40
0.5
 40
0.5
 40
1.0
 40
1.0
 40
1.0
 40
1.0
 10
-115.4165
 20
118.6677
 30
0.0
 10
-115.7793
 20
119.2726
 30
0.0
 10
-116.2631
 20
119.8775
 30
0.0
 10
-116.6263
 20
120.482
 30
0.0
 10
-116.6263
 20
120.482
 30
0.0
 10
-116.6263
 20
120.482
 30
0.0
 10
-112.5131
 20
120.482
 30
0.0
 10
-112.5131
 20
120.482
 30
0.0
 10
-112.5131
 20
120.482
 30
0.0
 10
-113.6019
 20
119.2726
 30
0.0
 10
-115.1744
 20
118.1839
 30
0.0
 10
-115.4165
 20
118.6677
 30
0.0
  0
SPLINE
  5
D6
330
1F
100
AcDbEntity
  8
layer 1
 62
     7
100
AcDbSpline
210
0.0
220
0.0
230
1.0
 70
    11
 71
     3
 72
    24
 73
    20
 74
     0
 42
0.0000000001
 43
0.0000000001
 12
1.0
 22
0.0
 32
0.0
 13
1.0
 23
0.0
 33
0.0
 40
0.0
 40
0.0
 40
0.0
 40
0.0
 40
0.1666666666666667
 40
0.1666666666666667
 40
0.1666666666666667
 40
0.1666666666666667
 40
0.3333333333333333
 40
0.3333333333333333
 40
0.3333333333333333
 40
0.3333333333333333
 40
0.5
 40
0.5
 40
0.5
 40
0.5
 40
0.6666666666666666
 40
0.6666666666666666
 40
0.6666666666666666
 40
0.6666666666666666
 40
1.0
 40
1.0
 40
1.0
 40
1.0
 10
-117.3519
 20
114.5546
 30
0.0
 10
-114.4488
 20
116.1271
 30
0.0
 10
-111.9082
 20
118.1839
 30
0.0
 10
-109.9729
 20
120.482
 30
0.0
 10
-109.9729
 20
120.482
 30
0.0
 10
-109.9729
 20
120.482
 30
0.0
 10
-102.7146
 20
120.482
 30
0.0
 10
-102.7146
 20
120.482
 30
0.0
 10
-102.7146
 20
120.482
 30
0.0
 10
-102.8357
 20
120.3613
 30
0.0
 10
-102.9567
 20
120.2403
 30
0.0
 10
-103.0774
 20
120.1192
 30
0.0
 10
-103.0774
 20
120.1192
 30
0.0
 10
-108.0372
 20
117.579
 30
0.0
 10
-110.6985
 20
114.0707
 30
0.0
 10
-112.8759
 20
110.3207
 30
0.0
 10
-112.8759
 20
110.3207
 30
0.0
 10
-113.6019
 20
109.1109
 30
0.0
 10
-118.0778
 20
113.9497
 30
0.0
 10
-117.3519
 20
114.5546
 30
0.0
  0
SPLINE
  5
D7
330
1F
100
AcDbEntity
  8
layer 1
 62
     7
100
AcDbSpline
210
0.0
220
0.0
230
1.0
 70
    11
 71
     3
 72
    16
 73
    12
 74
     0
 42
0.0000000001
 43
0.0000000001
 12
1.0
 22
0.0
 32
0.0
 13
1.0
 23
0.0
 33
0.0
 40
0.0
 40
0.0
 40
0.0
 40
0.0
 40
0.25
 40
0.25
 40
0.25
 40
0.25
 40
0.5
 40
0.5
 40
0.5
 40
0.5
 40
1.0
 40
1.0
 40
1.0
 40
1.0
 10
-132.2312
 20
118.6677
 30
0.0
 10
-132.594
 20
119.2726
 30
0.0
 10
-132.9572
 20
119.8775
 30
0.0
 10
-133.441
 20
120.482
 30
0.0
 10
-133.441
 20
120.482
 30
0.0
 10
-133.441
 20
120.482
 30
0.0
 10
-129.2068
 20
120.482
 30
0.0
 10
-129.2068
 20
120.482
 30
0.0
 10
-129.2068
 20
120.482
 30
0.0
 10
-130.4166
 20
119.2726
 30
0.0
 10
-131.9891
 20
118.1839
 30
0.0
 10
-132.2312
 20
118.6677
 30
0.0
  0
SPLINE
  5
D8
330
1F
100
AcDbEntity
  8
layer 1
 62
     7
100
AcDbSpline
210
0.0
220
0.0
230
1.0
 70
    11
 71
     3
 72
    24
 73
    20
 74
     0
 42
0.0000000001
 43
0.0000000001
 12
1.0
 22
0.0
 32
0.0
 13
1.0
 23
0.0
 33
0.0
 40
0.0
 40
0.0
 40
0.0
 40
0.0
 40
0.1666666666666667
 40
0.1666666666666667
 40
0.1666666666666667
 40
0.1666666666666667
 40
0.3333333333333333
 40
0.3333333333333333
 40
0.3333333333333333
 40
0.3333333333333333
 40
0.5
 40
0.5
 40
0.5
 40
0.5
 40
0.6666666666666666
 40
0.6666666666666666
 40
0.6666666666666666
 40
0.6666666666666666
 40
1.0
 40
1.0
 40
1.0
 40
1.0
 10
-134.0459
 20
114.5546
 30
0.0
 10
-131.1425
 20
116.1271
 30
0.0
 10
-128.723
 20
118.1839
 30
0.0
 10
-126.7876
 20
120.482
 30
0.0
 10
-126.7876
 20
120.482
 30
0.0
 10
-126.7876
 20
120.482
 30
0.0
 10
-119.5293
 20
120.482
 30
0.0
 10
-119.5293
 20
120.482
 30
0.0
 10
-119.5293
 20
120.482
 30
0.0
 10
-119.5293
 20
120.3613
 30
0.0
 10
-119.6504
 20
120.2403
 30
0.0
 10
-119.8925
 20
120.1192
 30
0.0
 10
-119.8925
 20
120.1192
 30
0.0
 10
-124.7312
 20
117.579
 30
0.0
 10
-127.5135
 20
114.0707
 30
0.0
 10
-129.691
 20
110.3207
 30
0.0
 10
-129.691
 20
110.3207
 30
0.0
 10
-130.2955
 20
109.1109
 30
0.0
 10
-134.8925
 20
113.9497
 30
0.0
 10
-134.0459
 20
114.5546
 30
0.0
  0
SPLINE
  5
D9
330
1F
100
AcDbEntity
  8
layer 1
 62
     7
100
AcDbSpline
210
0.0
220
0.0
230
1.0
 70
    11
 71
     3
 72
    20
 73
    16
 74
     0
 42
0.0000000001
 43
0.0000000001
 12
1.0
 22
0.0
 32
0.0
 13
1.0
 23
0.0
 33
0.0
 40
0.0
 40
0.0
 40
0.0
 40
0.0
 40
0.2
 40
0.2
 40
0.2
 40
0.2
 40
0.4
 40
0.4
 40
0.4
 40
0.4
 40
0.6
 40
0.6
 40
0.6
 40
0.6
 40
1.0
 40
1.0
 40
1.0
 40
1.0
 10
-132.2312
 20
101.853
 30
0.0
 10
-134.7715
 20
106.4496
 30
0.0
 10
-138.2797
 20
109.8369
 30
0.0
 10
-142.5136
 20
112.0143
 30
0.0
 10
-142.5136
 20
112.0143
 30
0.0
 10
-143.4813
 20
112.4982
 30
0.0
 10
-138.6425
 20
118.0628
 30
0.0
 10
-137.7959
 20
116.1271
 30
0.0
 10
-137.7959
 20
116.1271
 30
0.0
 10
-135.2553
 20
111.1677
 30
0.0
 10
-131.7474
 20
108.3854
 30
0.0
 10
-127.9974
 20
106.3286
 30
0.0
 10
-127.9974
 20
106.3286
 30
0.0
 10
-126.7876
 20
105.603
 30
0.0
 10
-131.6263
 20
101.006
 30
0.0
 10
-132.2312
 20
101.853
 30
0.0
  0
SPLINE
  5
DA
330
1F
100
AcDbEntity
  8
layer 1
 62
     7
100
AcDbSpline
210
0.0
220
0.0
230
1.0
 70
    11
 71
     3
 72
    20
 73
    16
 74
     0
 42
0.0000000001
 43
0.0000000001
 12
1.0
 22
0.0
 32
0.0
 13
1.0
 23
0.0
 33
0.0
 40
0.0
 40
0.0
 40
0.0
 40
0.0
 40
0.2
 40
0.2
 40
0.2
 40
0.2
 40
0.4
 40
0.4
 40
0.4
 40
0.4
 40
0.6
 40
0.6
 40
0.6
 40
0.6
 40
1.0
 40
1.0
 40
1.0
 40
1.0
 10
-134.0459
 20
97.7398
 30
0.0
 10
-129.4489
 20
100.2804
 30
0.0
 10
-126.0617
 20
103.9094
 30
0.0
 10
-123.8842
 20
108.0222
 30
0.0
 10
-123.8842
 20
108.0222
 30
0.0
 10
-123.4004
 20
108.9902
 30
0.0
 10
-117.8357
 20
104.2722
 30
0.0
 10
-119.8925
 20
103.4256
 30
0.0
 10
-119.8925
 20
103.4256
 30
0.0
 10
-124.7312
 20
100.7643
 30
0.0
 10
-127.5135
 20
97.256
 30
0.0
 10
-129.691
 20
93.506
 30
0.0
 10
-129.691
 20
93.506
 30
0.0
 10
-130.2955
 20
92.4173
 30
0.0
 10
-134.8925
 20
97.256
 30
0.0
 10
-134.0459
 20
97.7398
 30
0.0
  0
SPLINE
  5
DB
330
1F
100
AcDbEntity
  8
layer 1
 62
     7
100
AcDbSpline
210
0.0
220
0.0
230
1.0
 70
    11
 71
     3
 72
    20
 73
    16
 74
     0
 42
0.0000000001
 43
0.0000000001
 12
1.0
 22
0.0
 32
0.0
 13
1.0
 23
0.0
 33
0.0
 40
0.0
 40
0.0
 40
0.0
 40
0.0
 40
0.2
 40
0.2
 40
0.2
 40
0.2
 40
0.4
 40
0.4
 40
0.4
 40
0.4
 40
0.6
 40
0.6
 40
0.6
 40
0.6
 40
1.0
 40
1.0
 40
1.0
 40
1.0
 10
-132.2312
 20
85.0383
 30
0.0
 10
-134.7715
 20
89.6349
 30
0.0
 10
-138.2797
 20
93.1432
 30
0.0
 10
-142.5136
 20
95.3207
 30
0.0
 10
-142.5136
 20
95.3207
 30
0.0
 10
-143.4813
 20
95.8045
 30
0.0
 10
-138.6425
 20
101.2481
 30
0.0
 10
-137.7959
 20
99.3124
 30
0.0
 10
-137.7959
 20
99.3124
 30
0.0
 10
-135.2553
 20
94.4737
 30
0.0
 10
-131.7474
 20
91.6913
 30
0.0
 10
-127.9974
 20
89.5139
 30
0.0
 10
-127.9974
 20
89.5139
 30
0.0
 10
-126.7876
 20
88.7883
 30
0.0
 10
-131.6263
 20
84.3124
 30
0.0
 10
-132.2312
 20
85.0383
 30
0.0
  0
SPLINE
  5
DC
330
1F
100
AcDbEntity
  8
layer 1
 62
     7
100
AcDbSpline
210
0.0
220
0.0
230
1.0
 70
    11
 71
     3
 72
    20
 73
    16
 74
     0
 42
0.0000000001
 43
0.0000000001
 12
1.0
 22
0.0
 32
0.0
 13
1.0
 23
0.0
 33
0.0
 40
0.0
 40
0.0
 40
0.0
 40
0.0
 40
0.2
 40
0.2
 40
0.2
 40
0.2
 40
0.4
 40
0.4
 40
0.4
 40
0.4
 40
0.6
 40
0.6
 40
0.6
 40
0.6
 40
1.0
 40
1.0
 40
1.0
 40
1.0
 10
-134.0459
 20
81.0462
 30
0.0
 10
-129.4489
 20
83.5864
 30
0.0
 10
-126.0617
 20
87.0947
 30
0.0
 10
-123.8842
 20
91.2075
 30
0.0
 10
-123.8842
 20
91.2075
 30
0.0
 10
-123.4004
 20
92.1752
 30
0.0
 10
-117.8357
 20
87.4575
 30
0.0
 10
-119.8925
 20
86.6109
 30
0.0
 10
-119.8925
 20
86.6109
 30
0.0
 10
-124.7312
 20
83.9496
 30
0.0
 10
-127.5135
 20
80.5623
 30
0.0
 10
-129.691
 20
76.6913
 30
0.0
 10
-129.691
 20
76.6913
 30
0.0
 10
-130.2955
 20
75.6026
 30
0.0
 10
-134.8925
 20
80.4413
 30
0.0
 10
-134.0459
 20
81.0462
 30
0.0
  0
SPLINE
  5
DD
330
1F
100
AcDbEntity
  8
layer 1
 62
     7
100
AcDbSpline
210
0.0
220
0.0
230
1.0
 70
    11
 71
     3
 72
    20
 73
    16
 74
     0
 42
0.0000000001
 43
0.0000000001
 12
1.0
 22
0.0
 32
0.0
 13
1.0
 23
0.0
 33
0.0
 40
0.0
 40
0.0
 40
0.0
 40
0.0
 40
0.2
 40
0.2
 40
0.2
 40
0.2
 40
0.4
 40
0.4
 40
0.4
 40
0.4
 40
0.6
 40
0.6
 40
0.6
 40
0.6
 40
1.0
 40
1.0
 40
1.0
 40
1.0
 10
-132.2312
 20
68.3443
 30
0.0
 10
-134.7715
 20
72.9413
 30
0.0
 10
-138.2797
 20
76.3285
 30
0.0
 10
-142.5136
 20
78.5059
 30
0.0
 10
-142.5136
 20
78.5059
 30
0.0
 10
-143.4813
 20
78.9898
 30
0.0
 10
-138.6425
 20
84.5541
 30
0.0
 10
-137.7959
 20
82.4977
 30
0.0
 10
-137.7959
 20
82.4977
 30
0.0
 10
-135.2553
 20
77.659
 30
0.0
 10
-131.7474
 20
74.8766
 30
0.0
 10
-127.9974
 20
72.8202
 30
0.0
 10
-127.9974
 20
72.8202
 30
0.0
 10
-126.7876
 20
72.0943
 30
0.0
 10
-131.6263
 20
67.4976
 30
0.0
 10
-132.2312
 20
68.3443
 30
0.0
  0
SPLINE
  5
DE
330
1F
100
AcDbEntity
  8
layer 1
 62
     7
100
AcDbSpline
210
0.0
220
0.0
230
1.0
 70
    11
 71
     3
 72
    20
 73
    16
 74
     0
 42
0.0000000001
 43
0.0000000001
 12
1.0
 22
0.0
 32
0.0
 13
1.0
 23
0.0
 33
0.0
 40
0.0
 40
0.0
 40
0.0
 40
0.0
 40
0.2
 40
0.2
 40
0.2
 40
0.2
 40
0.4
 40
0.4
 40
0.4
 40
0.4
 40
0.6
 40
0.6
 40
0.6
 40
0.6
 40
1.0
 40
1.0
 40
1.0
 40
1.0
 10
-134.0459
 20
64.2315
 30
0.0
 10
-129.4489
 20
66.7717
 30
0.0
 10
-126.0617
 20
70.28
 30
0.0
 10
-123.8842
 20
74.5138
 30
0.0
 10
-123.8842
 20
74.5138
 30
0.0
 10
-123.4004
 20
75.4815
 30
0.0
 10
-117.8357
 20
70.6428
 30
0.0
 10
-119.8925
 20
69.9168
 30
0.0
 10
-119.8925
 20
69.9168
 30
0.0
 10
-124.7312
 20
67.2555
 30
0.0
 10
-127.5135
 20
63.7476
 30
0.0
 10
-129.691
 20
59.9976
 30
0.0
 10
-129.691
 20
59.9976
 30
0.0
 10
-130.2955
 20
58.9089
 30
0.0
 10
-134.8925
 20
63.6266
 30
0.0
 10
-134.0459
 20
64.2315
 30
0.0
  0
SPLINE
  5
DF
330
1F
100
AcDbEntity
  8
layer 1
 62
     7
100
AcDbSpline
210
0.0
220
0.0
230
1.0
 70
    11
 71
     3
 72
    20
 73
    16
 74
     0
 42
0.0000000001
 43
0.0000000001
 12
1.0
 22
0.0
 32
0.0
 13
1.0
 23
0.0
 33
0.0
 40
0.0
 40
0.0
 40
0.0
 40
0.0
 40
0.2
 40
0.2
 40
0.2
 40
0.2
 40
0.4
 40
0.4
 40
0.4
 40
0.4
 40
0.6
 40
0.6
 40
0.6
 40
0.6
 40
1.0
 40
1.0
 40
1.0
 40
1.0
 10
-132.2312
 20
51.5296
 30
0.0
 10
-134.7715
 20
56.1266
 30
0.0
 10
-138.2797
 20
59.5134
 30
0.0
 10
-142.5136
 20
61.6909
 30
0.0
 10
-142.5136
 20
61.6909
 30
0.0
 10
-143.4813
 20
62.1751
 30
0.0
 10
-138.6425
 20
67.7394
 30
0.0
 10
-137.7959
 20
65.804
 30
0.0
 10
-137.7959
 20
65.804
 30
0.0
 10
-135.2553
 20
60.8442
 30
0.0
 10
-131.7474
 20
58.0619
 30
0.0
 10
-127.9974
 20
56.0055
 30
0.0
 10
-127.9974
 20
56.0055
 30
0.0
 10
-126.7876
 20
55.2796
 30
0.0
 10
-131.6263
 20
50.8036
 30
0.0
 10
-132.2312
 20
51.5296
 30
0.0
  0
SPLINE
  5
E0
330
1F
100
AcDbEntity
  8
layer 1
 62
     7
100
AcDbSpline
210
0.0
220
0.0
230
1.0
 70
    11
 71
     3
 72
    20
 73
    16
 74
     0
 42
0.0000000001
 43
0.0000000001
 12
1.0
 22
0.0
 32
0.0
 13
1.0
 23
0.0
 33
0.0
 40
0.0
 40
0.0
 40
0.0
 40
0.0
 40
0.2
 40
0.2
 40
0.2
 40
0.2
 40
0.4
 40
0.4
 40
0.4
 40
0.4
 40
0.6
 40
0.6
 40
0.6
 40
0.6
 40
1.0
 40
1.0
 40
1.0
 40
1.0
 10
-134.0459
 20
47.4168
 30
0.0
 10
-129.4489
 20
49.957
 30
0.0
 10
-126.0617
 20
53.586
 30
0.0
 10
-123.8842
 20
57.6991
 30
0.0
 10
-123.8842
 20
57.6991
 30
0.0
 10
-123.4004
 20
58.6668
 30
0.0
 10
-117.8357
 20
53.9491
 30
0.0
 10
-119.8925
 20
53.1021
 30
0.0
 10
-119.8925
 20
53.1021
 30
0.0
 10
-124.7312
 20
50.4408
 30
0.0
 10
-127.5135
 20
47.0536
 30
0.0
 10
-129.691
 20
43.1826
 30
0.0
 10
-129.691
 20
43.1826
 30
0.0
 10
-130.2955
 20
42.0938
 30
0.0
 10
-134.8925
 20
46.9329
 30
0.0
 10
-134.0459
 20
47.4168
 30
0.0
  0
SPLINE
  5
E1
330
1F
100
AcDbEntity
  8
layer 1
 62
     7
100
AcDbSpline
210
0.0
220
0.0
230
1.0
 70
    11
 71
     3
 72
    20
 73
    16
 74
     0
 42
0.0000000001
 43
0.0000000001
 12
1.0
 22
0.0
 32
0.0
 13
1.0
 23
0.0
 33
0.0
 40
0.0
 40
0.0
 40
0.0
 40
0.0
 40
0.2
 40
0.2
 40
0.2
 40
0.2
 40
0.4
 40
0.4
 40
0.4
 40
0.4
 40
0.6
 40
0.6
 40
0.6
 40
0.6
 40
1.0
 40
1.0
 40
1.0
 40
1.0
 10
-132.2312
 20
34.7148
 30
0.0
 10
-134.7715
 20
39.4325
 30
0.0
 10
-138.2797
 20
42.8198
 30
0.0
 10
-142.5136
 20
44.9972
 30
0.0
 10
-142.5136
 20
44.9972
 30
0.0
 10
-143.4813
 20
45.481
 30
0.0
 10
-138.6425
 20
51.0457
 30
0.0
 10
-137.7959
 20
48.9893
 30
0.0
 10
-137.7959
 20
48.9893
 30
0.0
 10
-135.2553
 20
44.1506
 30
0.0
 10
-131.7474
 20
41.3682
 30
0.0
 10
-127.9974
 20
39.1908
 30
0.0
 10
-127.9974
 20
39.1908
 30
0.0
 10
-126.7876
 20
38.4649
 30
0.0
 10
-131.6263
 20
33.9889
 30
0.0
 10
-132.2312
 20
34.7148
 30
0.0
  0
SPLINE
  5
E2
330
1F
100
AcDbEntity
  8
layer 1
 62
     7
100
AcDbSpline
210
0.0
220
0.0
230
1.0
 70
    11
 71
     3
 72
    20
 73
    16
 74
     0
 42
0.0000000001
 43
0.0000000001
 12
1.0
 22
0.0
 32
0.0
 13
1.0
 23
0.0
 33
0.0
 40
0.0
 40
0.0
 40
0.0
 40
0.0
 40
0.2
 40
0.2
 40
0.2
 40
0.2
 40
0.4
 40
0.4
 40
0.4
 40
0.4
 40
0.6
 40
0.6
 40
0.6
 40
0.6
 40
1.0
 40
1.0
 40
1.0
 40
1.0
 10
-134.0459
 20
30.7227
 30
0.0
 10
-129.4489
 20
33.2633
 30
0.0
 10
-126.0617
 20
36.7712
 30
0.0
 10
-123.8842
 20
41.0051
 30
0.0
 10
-123.8842
 20
41.0051
 30
0.0
 10
-123.4004
 20
41.9731
 30
0.0
 10
-117.8357
 20
37.1344
 30
0.0
 10
-119.8925
 20
36.2874
 30
0.0
 10
-119.8925
 20
36.2874
 30
0.0
 10
-124.7312
 20
33.6261
 30
0.0
 10
-127.5135
 20
30.2389
 30
0.0
 10
-129.691
 20
26.4889
 30
0.0
 10
-129.691
 20
26.4889
 30
0.0
 10
-130.2955
 20
25.2791
 30
0.0
 10
-134.8925
 20
30.1179
 30
0.0
 10
-134.0459
 20
30.7227
 30
0.0
  0
SPLINE
  5
E3
330
1F
100
AcDbEntity
  8
layer 1
 62
     7
100
AcDbSpline
210
0.0
220
0.0
230
1.0
 70
    11
 71
     3
 72
    20
 73
    16
 74
     0
 42
0.0000000001
 43
0.0000000001
 12
1.0
 22
0.0
 32
0.0
 13
1.0
 23
0.0
 33
0.0
 40
0.0
 40
0.0
 40
0.0
 40
0.0
 40
0.2
 40
0.2
 40
0.2
 40
0.2
 40
0.4
 40
0.4
 40
0.4
 40
0.4
 40
0.6
 40
0.6
 40
0.6
 40
0.6
 40
1.0
 40
1.0
 40
1.0
 40
1.0
 10
-132.2312
 20
18.0212
 30
0.0
 10
-134.7715
 20
22.6178
 30
0.0
 10
-138.2797
 20
26.005
 30
0.0
 10
-142.5136
 20
28.1825
 30
0.0
 10
-142.5136
 20
28.1825
 30
0.0
 10
-143.4813
 20
28.6663
 30
0.0
 10
-138.6425
 20
34.231
 30
0.0
 10
-137.7959
 20
32.1746
 30
0.0
 10
-137.7959
 20
32.1746
 30
0.0
 10
-135.2553
 20
27.3359
 30
0.0
 10
-131.7474
 20
24.5535
 30
0.0
 10
-127.9974
 20
22.4968
 30
0.0
 10
-127.9974
 20
22.4968
 30
0.0
 10
-126.7876
 20
21.7712
 30
0.0
 10
-131.6263
 20
17.1742
 30
0.0
 10
-132.2312
 20
18.0212
 30
0.0
  0
SPLINE
  5
E4
330
1F
100
AcDbEntity
  8
layer 1
 62
     7
100
AcDbSpline
210
0.0
220
0.0
230
1.0
 70
    11
 71
     3
 72
    20
 73
    16
 74
     0
 42
0.0000000001
 43
0.0000000001
 12
1.0
 22
0.0
 32
0.0
 13
1.0
 23
0.0
 33
0.0
 40
0.0
 40
0.0
 40
0.0
 40
0.0
 40
0.2
 40
0.2
 40
0.2
 40
0.2
 40
0.4
 40
0.4
 40
0.4
 40
0.4
 40
0.6
 40
0.6
 40
0.6
 40
0.6
 40
1.0
 40
1.0
 40
1.0
 40
1.0
 10
-134.0459
 20
13.908
 30
0.0
 10
-129.4489
 20
16.4486
 30
0.0
 10
-126.0617
 20
19.9565
 30
0.0
 10
-123.8842
 20
24.1904
 30
0.0
 10
-123.8842
 20
24.1904
 30
0.0
 10
-123.4004
 20
25.1584
 30
0.0
 10
-117.8357
 20
20.3193
 30
0.0
 10
-119.8925
 20
19.5937
 30
0.0
 10
-119.8925
 20
19.5937
 30
0.0
 10
-124.7312
 20
16.9325
 30
0.0
 10
-127.5135
 20
13.4242
 30
0.0
 10
-129.691
 20
9.6742
 30
0.0
 10
-129.691
 20
9.6742
 30
0.0
 10
-130.2955
 20
8.5854
 30
0.0
 10
-134.8925
 20
13.4242
 30
0.0
 10
-134.0459
 20
13.908
 30
0.0
  0
SPLINE
  5
E5
330
1F
100
AcDbEntity
  8
layer 1
 62
     7
100
AcDbSpline
210
0.0
220
0.0
230
1.0
 70
    11
 71
     3
 72
    20
 73
    16
 74
     0
 42
0.0000000001
 43
0.0000000001
 12
1.0
 22
0.0
 32
0.0
 13
1.0
 23
0.0
 33
0.0
 40
0.0
 40
0.0
 40
0.0
 40
0.0
 40
0.2
 40
0.2
 40
0.2
 40
0.2
 40
0.4
 40
0.4
 40
0.4
 40
0.4
 40
0.6
 40
0.6
 40
0.6
 40
0.6
 40
1.0
 40
1.0
 40
1.0
 40
1.0
 10
-132.2312
 20
1.2065
 30
0.0
 10
-134.7715
 20
5.8031
 30
0.0
 10
-138.2797
 20
9.3114
 30
0.0
 10
-142.5136
 20
11.3678
 30
0.0
 10
-142.5136
 20
11.3678
 30
0.0
 10
-143.4813
 20
11.8516
 30
0.0
 10
-138.6425
 20
17.4163
 30
0.0
 10
-137.7959
 20
15.4806
 30
0.0
 10
-137.7959
 20
15.4806
 30
0.0
 10
-135.2553
 20
10.6418
 30
0.0
 10
-131.7474
 20
7.8595
 30
0.0
 10
-127.9974
 20
5.6821
 30
0.0
 10
-127.9974
 20
5.6821
 30
0.0
 10
-126.7876
 20
4.9565
 30
0.0
 10
-131.6263
 20
0.4805
 30
0.0
 10
-132.2312
 20
1.2065
 30
0.0
  0
SPLINE
  5
E6
330
1F
100
AcDbEntity
  8
layer 1
 62
     7
100
AcDbSpline
210
0.0
220
0.0
230
1.0
 70
    11
 71
     3
 72
    20
 73
    16
 74
     0
 42
0.0000000001
 43
0.0000000001
 12
1.0
 22
0.0
 32
0.0
 13
1.0
 23
0.0
 33
0.0
 40
0.0
 40
0.0
 40
0.0
 40
0.0
 40
0.2
 40
0.2
 40
0.2
 40
0.2
 40
0.4
 40
0.4
 40
0.4
 40
0.4
 40
0.6
 40
0.6
 40
0.6
 40
0.6
 40
1.0
 40
1.0
 40
1.0
 40
1.0
 10
-134.0459
 20
-2.7856
 30
0.0
 10
-129.4489
 20
-0.3664
 30
0.0
 10
-126.0617
 20
3.2629
 30
0.0
 10
-123.8842
 20
7.3757
 30
0.0
 10
-123.8842
 20
7.3757
 30
0.0
 10
-123.4004
 20
8.3434
 30
0.0
 10
-117.8357
 20
3.6257
 30
0.0
 10
-119.8925
 20
2.779
 30
0.0
 10
-119.8925
 20
2.779
 30
0.0
 10
-124.7312
 20
0.1177
 30
0.0
 10
-127.5135
 20
-3.2695
 30
0.0
 10
-129.691
 20
-7.1405
 30
0.0
 10
-129.691
 20
-7.1405
 30
0.0
 10
-130.2955
 20
-8.2293
 30
0.0
 10
-134.8925
 20
-3.3905
 30
0.0
 10
-134.0459
 20
-2.7856
 30
0.0
  0
SPLINE
  5
E7
330
1F
100
AcDbEntity
  8
layer 1
 62
     7
100
AcDbSpline
210
0.0
220
0.0
230
1.0
 70
    11
 71
     3
 72
    20
 73
    16
 74
     0
 42
0.0000000001
 43
0.0000000001
 12
1.0
 22
0.0
 32
0.0
 13
1.0
 23
0.0
 33
0.0
 40
0.0
 40
0.0
 40
0.0
 40
0.0
 40
0.2
 40
0.2
 40
0.2
 40
0.2
 40
0.4
 40
0.4
 40
0.4
 40
0.4
 40
0.6
 40
0.6
 40
0.6
 40
0.6
 40
1.0
 40
1.0
 40
1.0
 40
1.0
 10
-132.2312
 20
-15.4876
 30
0.0
 10
-134.7715
 20
-10.8906
 30
0.0
 10
-138.2797
 20
-7.5033
 30
0.0
 10
-142.5136
 20
-5.3259
 30
0.0
 10
-142.5136
 20
-5.3259
 30
0.0
 10
-143.4813
 20
-4.842
 30
0.0
 10
-138.6425
 20
0.7223
 30
0.0
 10
-137.7959
 20
-1.3341
 30
0.0
 10
-137.7959
 20
-1.3341
 30
0.0
 10
-135.2553
 20
-6.1729
 30
0.0
 10
-131.7474
 20
-8.9552
 30
0.0
 10
-127.9974
 20
-11.1327
 30
0.0
 10
-127.9974
 20
-11.1327
 30
0.0
 10
-126.7876
 20
-11.7375
 30
0.0
 10
-131.6263
 20
-16.3342
 30
0.0
 10
-132.2312
 20
-15.4876
 30
0.0
  0
SPLINE
  5
E8
330
1F
100
AcDbEntity
  8
layer 1
 62
     7
100
AcDbSpline
210
0.0
220
0.0
230
1.0
 70
    11
 71
     3
 72
    20
 73
    16
 74
     0
 42
0.0000000001
 43
0.0000000001
 12
1.0
 22
0.0
 32
0.0
 13
1.0
 23
0.0
 33
0.0
 40
0.0
 40
0.0
 40
0.0
 40
0.0
 40
0.2
 40
0.2
 40
0.2
 40
0.2
 40
0.4
 40
0.4
 40
0.4
 40
0.4
 40
0.6
 40
0.6
 40
0.6
 40
0.6
 40
1.0
 40
1.0
 40
1.0
 40
1.0
 10
-134.0459
 20
-19.6004
 30
0.0
 10
-129.4489
 20
-17.0601
 30
0.0
 10
-126.0617
 20
-13.5518
 30
0.0
 10
-123.8842
 20
-9.318
 30
0.0
 10
-123.8842
 20
-9.318
 30
0.0
 10
-123.4004
 20
-8.3503
 30
0.0
 10
-117.8357
 20
-13.1891
 30
0.0
 10
-119.8925
 20
-14.0357
 30
0.0
 10
-119.8925
 20
-14.0357
 30
0.0
 10
-124.7312
 20
-16.5763
 30
0.0
 10
-127.5135
 20
-20.0842
 30
0.0
 10
-129.691
 20
-23.8342
 30
0.0
 10
-129.691
 20
-23.8342
 30
0.0
 10
-130.2955
 20
-25.044
 30
0.0
 10
-134.8925
 20
-20.2052
 30
0.0
 10
-134.0459
 20
-19.6004
 30
0.0
  0
SPLINE
  5
E9
330
1F
100
AcDbEntity
  8
layer 1
 62
     7
100
AcDbSpline
210
0.0
220
0.0
230
1.0
 70
    11
 71
     3
 72
    20
 73
    16
 74
     0
 42
0.0000000001
 43
0.0000000001
 12
1.0
 22
0.0
 32
0.0
 13
1.0
 23
0.0
 33
0.0
 40
0.0
 40
0.0
 40
0.0
 40
0.0
 40
0.2
 40
0.2
 40
0.2
 40
0.2
 40
0.4
 40
0.4
 40
0.4
 40
0.4
 40
0.6
 40
0.6
 40
0.6
 40
0.6
 40
1.0
 40
1.0
 40
1.0
 40
1.0
 10
-132.2312
 20
-32.3023
 30
0.0
 10
-134.7715
 20
-27.7053
 30
0.0
 10
-138.2797
 20
-24.3184
 30
0.0
 10
-142.5136
 20
-22.1409
 30
0.0
 10
-142.5136
 20
-22.1409
 30
0.0
 10
-143.4813
 20
-21.6568
 30
0.0
 10
-138.6425
 20
-16.0924
 30
0.0
 10
-137.7959
 20
-18.0278
 30
0.0
 10
-137.7959
 20
-18.0278
 30
0.0
 10
-135.2553
 20
-22.9876
 30
0.0
 10
-131.7474
 20
-25.7699
 30
0.0
 10
-127.9974
 20
-27.8263
 30
0.0
 10
-127.9974
 20
-27.8263
 30
0.0
 10
-126.7876
 20
-28.5523
 30
0.0
 10
-131.6263
 20
-33.1489
 30
0.0
 10
-132.2312
 20
-32.3023
 30
0.0
  0
SPLINE
  5
EA
330
1F
100
AcDbEntity
  8
layer 1
 62
     7
100
AcDbSpline
210
0.0
220
0.0
230
1.0
 70
    11
 71
     3
 72
    20
 73
    16
 74
     0
 42
0.0000000001
 43
0.0000000001
 12
1.0
 22
0.0
 32
0.0
 13
1.0
 23
0.0
 33
0.0
 40
0.0
 40
0.0
 40
0.0
 40
0.0
 40
0.2
 40
0.2
 40
0.2
 40
0.2
 40
0.4
 40
0.4
 40
0.4
 40
0.4
 40
0.6
 40
0.6
 40
0.6
 40
0.6
 40
1.0
 40
1.0
 40
1.0
 40
1.0
 10
-134.0459
 20
-36.4151
 30
0.0
 10
-129.4489
 20
-33.8748
 30
0.0
 10
-126.0617
 20
-30.2459
 30
0.0
 10
-123.8842
 20
-26.1327
 30
0.0
 10
-123.8842
 20
-26.1327
 30
0.0
 10
-123.4004
 20
-25.165
 30
0.0
 10
-117.8357
 20
-29.8827
 30
0.0
 10
-119.8925
 20
-30.7297
 30
0.0
 10
-119.8925
 20
-30.7297
 30
0.0
 10
-124.7312
 20
-33.391
 30
0.0
 10
-127.5135
 20
-36.8989
 30
0.0
 10
-129.691
 20
-40.6493
 30
0.0
 10
-129.691
 20
-40.6493
 30
0.0
 10
-130.2955
 20
-41.738
 30
0.0
 10
-134.8925
 20
-36.8989
 30
0.0
 10
-134.0459
 20
-36.4151
 30
0.0
  0
SPLINE
  5
EB
330
1F
100
AcDbEntity
  8
layer 1
 62
     7
100
AcDbSpline
210
0.0
220
0.0
230
1.0
 70
    11
 71
     3
 72
    20
 73
    16
 74
     0
 42
0.0000000001
 43
0.0000000001
 12
1.0
 22
0.0
 32
0.0
 13
1.0
 23
0.0
 33
0.0
 40
0.0
 40
0.0
 40
0.0
 40
0.0
 40
0.2
 40
0.2
 40
0.2
 40
0.2
 40
0.4
 40
0.4
 40
0.4
 40
0.4
 40
0.6
 40
0.6
 40
0.6
 40
0.6
 40
1.0
 40
1.0
 40
1.0
 40
1.0
 10
-132.2312
 20
-49.117
 30
0.0
 10
-134.7715
 20
-44.52
 30
0.0
 10
-138.2797
 20
-41.0121
 30
0.0
 10
-142.5136
 20
-38.8346
 30
0.0
 10
-142.5136
 20
-38.8346
 30
0.0
 10
-143.4813
 20
-38.3508
 30
0.0
 10
-138.6425
 20
-32.9072
 30
0.0
 10
-137.7959
 20
-34.8425
 30
0.0
 10
-137.7959
 20
-34.8425
 30
0.0
 10
-135.2553
 20
-39.6812
 30
0.0
 10
-131.7474
 20
-42.4636
 30
0.0
 10
-127.9974
 20
-44.641
 30
0.0
 10
-127.9974
 20
-44.641
 30
0.0
 10
-126.7876
 20
-45.367
 30
0.0
 10
-131.6263
 20
-49.8429
 30
0.0
 10
-132.2312
 20
-49.117
 30
0.0
  0
SPLINE
  5
EC
330
1F
100
AcDbEntity
  8
layer 1
 62
     7
100
AcDbSpline
210
0.0
220
0.0
230
1.0
 70
    11
 71
     3
 72
    20
 73
    16
 74
     0
 42
0.0000000001
 43
0.0000000001
 12
1.0
 22
0.0
 32
0.0
 13
1.0
 23
0.0
 33
0.0
 40
0.0
 40
0.0
 40
0.0
 40
0.0
 40
0.2
 40
0.2
 40
0.2
 40
0.2
 40
0.4
 40
0.4
 40
0.4
 40
0.4
 40
0.6
 40
0.6
 40
0.6
 40
0.6
 40
1.0
 40
1.0
 40
1.0
 40
1.0
 10
-134.0459
 20
-53.1091
 30
0.0
 10
-129.4489
 20
-50.5685
 30
0.0
 10
-126.0617
 20
-47.0606
 30
0.0
 10
-123.8842
 20
-42.9474
 30
0.0
 10
-123.8842
 20
-42.9474
 30
0.0
 10
-123.4004
 20
-41.9797
 30
0.0
 10
-117.8357
 20
-46.6974
 30
0.0
 10
-119.8925
 20
-47.5444
 30
0.0
 10
-119.8925
 20
-47.5444
 30
0.0
 10
-124.7312
 20
-50.2057
 30
0.0
 10
-127.5135
 20
-53.5929
 30
0.0
 10
-129.691
 20
-57.464
 30
0.0
 10
-129.691
 20
-57.464
 30
0.0
 10
-130.2955
 20
-58.5527
 30
0.0
 10
-134.8925
 20
-53.714
 30
0.0
 10
-134.0459
 20
-53.1091
 30
0.0
  0
SPLINE
  5
ED
330
1F
100
AcDbEntity
  8
layer 1
 62
     7
100
AcDbSpline
210
0.0
220
0.0
230
1.0
 70
    11
 71
     3
 72
    20
 73
    16
 74
     0
 42
0.0000000001
 43
0.0000000001
 12
1.0
 22
0.0
 32
0.0
 13
1.0
 23
0.0
 33
0.0
 40
0.0
 40
0.0
 40
0.0
 40
0.0
 40
0.2
 40
0.2
 40
0.2
 40
0.2
 40
0.4
 40
0.4
 40
0.4
 40
0.4
 40
0.6
 40
0.6
 40
0.6
 40
0.6
 40
1.0
 40
1.0
 40
1.0
 40
1.0
 10
-132.2312
 20
-65.8106
 30
0.0
 10
-134.7715
 20
-61.214
 30
0.0
 10
-138.2797
 20
-57.8268
 30
0.0
 10
-142.5136
 20
-55.6493
 30
0.0
 10
-142.5136
 20
-55.6493
 30
0.0
 10
-143.4813
 20
-55.1655
 30
0.0
 10
-138.6425
 20
-49.6008
 30
0.0
 10
-137.7959
 20
-51.6572
 30
0.0
 10
-137.7959
 20
-51.6572
 30
0.0
 10
-135.2553
 20
-56.496
 30
0.0
 10
-131.7474
 20
-59.2783
 30
0.0
 10
-127.9974
 20
-61.335
 30
0.0
 10
-127.9974
 20
-61.335
 30
0.0
 10
-126.7876
 20
-62.0606
 30
0.0
 10
-131.6263
 20
-66.6576
 30
0.0
 10
-132.2312
 20
-65.8106
 30
0.0
  0
SPLINE
  5
EE
330
1F
100
AcDbEntity
  8
layer 1
 62
     7
100
AcDbSpline
210
0.0
220
0.0
230
1.0
 70
    11
 71
     3
 72
    20
 73
    16
 74
     0
 42
0.0000000001
 43
0.0000000001
 12
1.0
 22
0.0
 32
0.0
 13
1.0
 23
0.0
 33
0.0
 40
0.0
 40
0.0
 40
0.0
 40
0.0
 40
0.2
 40
0.2
 40
0.2
 40
0.2
 40
0.4
 40
0.4
 40
0.4
 40
0.4
 40
0.6
 40
0.6
 40
0.6
 40
0.6
 40
1.0
 40
1.0
 40
1.0
 40
1.0
 10
-134.0459
 20
-69.9238
 30
0.0
 10
-129.4489
 20
-67.3832
 30
0.0
 10
-126.0617
 20
-63.8753
 30
0.0
 10
-123.8842
 20
-59.6414
 30
0.0
 10
-123.8842
 20
-59.6414
 30
0.0
 10
-123.4004
 20
-58.6734
 30
0.0
 10
-117.8357
 20
-63.5125
 30
0.0
 10
-119.8925
 20
-64.2381
 30
0.0
 10
-119.8925
 20
-64.2381
 30
0.0
 10
-124.7312
 20
-66.8994
 30
0.0
 10
-127.5135
 20
-70.4076
 30
0.0
 10
-129.691
 20
-74.1577
 30
0.0
 10
-129.691
 20
-74.1577
 30
0.0
 10
-130.2955
 20
-75.2464
 30
0.0
 10
-134.8925
 20
-70.5287
 30
0.0
 10
-134.0459
 20
-69.9238
 30
0.0
  0
SPLINE
  5
EF
330
1F
100
AcDbEntity
  8
layer 1
 62
     7
100
AcDbSpline
210
0.0
220
0.0
230
1.0
 70
    11
 71
     3
 72
    20
 73
    16
 74
     0
 42
0.0000000001
 43
0.0000000001
 12
1.0
 22
0.0
 32
0.0
 13
1.0
 23
0.0
 33
0.0
 40
0.0
 40
0.0
 40
0.0
 40
0.0
 40
0.2
 40
0.2
 40
0.2
 40
0.2
 40
0.4
 40
0.4
 40
0.4
 40
0.4
 40
0.6
 40
0.6
 40
0.6
 40
0.6
 40
1.0
 40
1.0
 40
1.0
 40
1.0
 10
-132.2312
 20
-82.6254
 30
0.0
 10
-134.7715
 20
-78.0287
 30
0.0
 10
-138.2797
 20
-74.5204
 30
0.0
 10
-142.5136
 20
-72.464
 30
0.0
 10
-142.5136
 20
-72.464
 30
0.0
 10
-143.4813
 20
-71.9802
 30
0.0
 10
-138.6425
 20
-66.4155
 30
0.0
 10
-137.7959
 20
-68.3512
 30
0.0
 10
-137.7959
 20
-68.3512
 30
0.0
 10
-135.2553
 20
-73.311
 30
0.0
 10
-131.7474
 20
-76.093
 30
0.0
 10
-127.9974
 20
-78.1498
 30
0.0
 10
-127.9974
 20
-78.1498
 30
0.0
 10
-126.7876
 20
-78.8753
 30
0.0
 10
-131.6263
 20
-83.3513
 30
0.0
 10
-132.2312
 20
-82.6254
 30
0.0
  0
SPLINE
  5
F0
330
1F
100
AcDbEntity
  8
layer 1
 62
     7
100
AcDbSpline
210
0.0
220
0.0
230
1.0
 70
    11
 71
     3
 72
    20
 73
    16
 74
     0
 42
0.0000000001
 43
0.0000000001
 12
1.0
 22
0.0
 32
0.0
 13
1.0
 23
0.0
 33
0.0
 40
0.0
 40
0.0
 40
0.0
 40
0.0
 40
0.2
 40
0.2
 40
0.2
 40
0.2
 40
0.4
 40
0.4
 40
0.4
 40
0.4
 40
0.6
 40
0.6
 40
0.6
 40
0.6
 40
1.0
 40
1.0
 40
1.0
 40
1.0
 10
-134.0459
 20
-86.7385
 30
0.0
 10
-129.4489
 20
-84.1983
 30
0.0
 10
-126.0617
 20
-80.569
 30
0.0
 10
-123.8842
 20
-76.4562
 30
0.0
 10
-123.8842
 20
-76.4562
 30
0.0
 10
-123.4004
 20
-75.4885
 30
0.0
 10
-117.8357
 20
-80.2062
 30
0.0
 10
-119.8925
 20
-81.0528
 30
0.0
 10
-119.8925
 20
-81.0528
 30
0.0
 10
-124.7312
 20
-83.7141
 30
0.0
 10
-127.5135
 20
-87.1013
 30
0.0
 10
-129.691
 20
-90.9724
 30
0.0
 10
-129.691
 20
-90.9724
 30
0.0
 10
-130.2955
 20
-92.0611
 30
0.0
 10
-134.8925
 20
-87.2224
 30
0.0
 10
-134.0459
 20
-86.7385
 30
0.0
  0
SPLINE
  5
F1
330
1F
100
AcDbEntity
  8
layer 1
 62
     7
100
AcDbSpline
210
0.0
220
0.0
230
1.0
 70
    11
 71
     3
 72
    20
 73
    16
 74
     0
 42
0.0000000001
 43
0.0000000001
 12
1.0
 22
0.0
 32
0.0
 13
1.0
 23
0.0
 33
0.0
 40
0.0
 40
0.0
 40
0.0
 40
0.0
 40
0.2
 40
0.2
 40
0.2
 40
0.2
 40
0.4
 40
0.4
 40
0.4
 40
0.4
 40
0.6
 40
0.6
 40
0.6
 40
0.6
 40
1.0
 40
1.0
 40
1.0
 40
1.0
 10
-132.2312
 20
-99.4404
 30
0.0
 10
-134.7715
 20
-94.7224
 30
0.0
 10
-138.2797
 20
-91.3352
 30
0.0
 10
-142.5136
 20
-89.1577
 30
0.0
 10
-142.5136
 20
-89.1577
 30
0.0
 10
-143.4813
 20
-88.6739
 30
0.0
 10
-138.6425
 20
-83.1095
 30
0.0
 10
-137.7959
 20
-85.166
 30
0.0
 10
-137.7959
 20
-85.166
 30
0.0
 10
-135.2553
 20
-90.0047
 30
0.0
 10
-131.7474
 20
-92.787
 30
0.0
 10
-127.9974
 20
-94.9645
 30
0.0
 10
-127.9974
 20
-94.9645
 30
0.0
 10
-126.7876
 20
-95.6901
 30
0.0
 10
-131.6263
 20
-100.166
 30
0.0
 10
-132.2312
 20
-99.4404
 30
0.0
  0
SPLINE
  5
F2
330
1F
100
AcDbEntity
  8
layer 1
 62
     7
100
AcDbSpline
210
0.0
220
0.0
230
1.0
 70
    11
 71
     3
 72
    20
 73
    16
 74
     0
 42
0.0000000001
 43
0.0000000001
 12
1.0
 22
0.0
 32
0.0
 13
1.0
 23
0.0
 33
0.0
 40
0.0
 40
0.0
 40
0.0
 40
0.0
 40
0.2
 40
0.2
 40
0.2
 40
0.2
 40
0.4
 40
0.4
 40
0.4
 40
0.4
 40
0.6
 40
0.6
 40
0.6
 40
0.6
 40
1.0
 40
1.0
 40
1.0
 40
1.0
 10
-134.0459
 20
-103.4322
 30
0.0
 10
-129.4489
 20
-100.8919
 30
0.0
 10
-126.0617
 20
-97.3837
 30
0.0
 10
-123.8842
 20
-93.1498
 30
0.0
 10
-123.8842
 20
-93.1498
 30
0.0
 10
-123.4004
 20
-92.1821
 30
0.0
 10
-117.8357
 20
-97.0209
 30
0.0
 10
-119.8925
 20
-97.8675
 30
0.0
 10
-119.8925
 20
-97.8675
 30
0.0
 10
-122.7955
 20
-99.4404
 30
0.0
 10
-124.9729
 20
-101.3758
 30
0.0
 10
-126.7876
 20
-103.4322
 30
0.0
 10
-126.7876
 20
-103.4322
 30
0.0
 10
-126.7876
 20
-103.4322
 30
0.0
 10
-134.0459
 20
-103.4322
 30
0.0
 10
-134.0459
 20
-103.4322
 30
0.0
  0
SPLINE
  5
F3
330
1F
100
AcDbEntity
  8
layer 1
 62
     7
100
AcDbSpline
210
0.0
220
0.0
230
1.0
 70
    11
 71
     3
 72
    20
 73
    16
 74
     0
 42
0.0000000001
 43
0.0000000001
 12
1.0
 22
0.0
 32
0.0
 13
1.0
 23
0.0
 33
0.0
 40
0.0
 40
0.0
 40
0.0
 40
0.0
 40
0.2
 40
0.2
 40
0.2
 40
0.2
 40
0.4
 40
0.4
 40
0.4
 40
0.4
 40
0.6
 40
0.6
 40
0.6
 40
0.6
 40
1.0
 40
1.0
 40
1.0
 40
1.0
 10
-149.0459
 20
-99.4404
 30
0.0
 10
-151.5862
 20
-94.7224
 30
0.0
 10
-155.0945
 20
-91.3352
 30
0.0
 10
-159.2073
 20
-89.1577
 30
0.0
 10
-159.2073
 20
-89.1577
 30
0.0
 10
-160.1753
 20
-88.6739
 30
0.0
 10
-155.4572
 20
-83.1095
 30
0.0
 10
-154.6106
 20
-85.166
 30
0.0
 10
-154.6106
 20
-85.166
 30
0.0
 10
-151.9493
 20
-90.0047
 30
0.0
 10
-148.5621
 20
-92.787
 30
0.0
 10
-144.691
 20
-94.9645
 30
0.0
 10
-144.691
 20
-94.9645
 30
0.0
 10
-143.6023
 20
-95.6901
 30
0.0
 10
-148.4411
 20
-100.166
 30
0.0
 10
-149.0459
 20
-99.4404
 30
0.0
  0
SPLINE
  5
F4
330
1F
100
AcDbEntity
  8
layer 1
 62
     7
100
AcDbSpline
210
0.0
220
0.0
230
1.0
 70
    11
 71
     3
 72
    20
 73
    16
 74
     0
 42
0.0000000001
 43
0.0000000001
 12
1.0
 22
0.0
 32
0.0
 13
1.0
 23
0.0
 33
0.0
 40
0.0
 40
0.0
 40
0.0
 40
0.0
 40
0.2
 40
0.2
 40
0.2
 40
0.2
 40
0.4
 40
0.4
 40
0.4
 40
0.4
 40
0.6
 40
0.6
 40
0.6
 40
0.6
 40
1.0
 40
1.0
 40
1.0
 40
1.0
 10
-150.8606
 20
-103.4322
 30
0.0
 10
-146.2636
 20
-100.8919
 30
0.0
 10
-142.8764
 20
-97.3837
 30
0.0
 10
-140.6989
 20
-93.1498
 30
0.0
 10
-140.6989
 20
-93.1498
 30
0.0
 10
-140.2151
 20
-92.1821
 30
0.0
 10
-134.6504
 20
-97.0209
 30
0.0
 10
-136.5861
 20
-97.8675
 30
0.0
 10
-136.5861
 20
-97.8675
 30
0.0
 10
-139.6102
 20
-99.4404
 30
0.0
 10
-141.7877
 20
-101.3758
 30
0.0
 10
-143.4813
 20
-103.4322
 30
0.0
 10
-143.4813
 20
-103.4322
 30
0.0
 10
-143.4813
 20
-103.4322
 30
0.0
 10
-150.8606
 20
-103.4322
 30
0.0
 10
-150.8606
 20
-103.4322
 30
0.0
  0
SPLINE
  5
F5
330
1F
100
AcDbEntity
  8
layer 1
 62
     7
100
AcDbSpline
210
0.0
220
0.0
230
1.0
 70
    11
 71
     3
 72
    20
 73
    16
 74
     0
 42
0.0000000001
 43
0.0000000001
 12
1.0
 22
0.0
 32
0.0
 13
1.0
 23
0.0
 33
0.0
 40
0.0
 40
0.0
 40
0.0
 40
0.0
 40
0.2
 40
0.2
 40
0.2
 40
0.2
 40
0.4
 40
0.4
 40
0.4
 40
0.4
 40
0.6
 40
0.6
 40
0.6
 40
0.6
 40
1.0
 40
1.0
 40
1.0
 40
1.0
 10
-149.0459
 20
-82.6254
 30
0.0
 10
-151.5862
 20
-78.0287
 30
0.0
 10
-155.0945
 20
-74.5204
 30
0.0
 10
-159.2073
 20
-72.464
 30
0.0
 10
-159.2073
 20
-72.464
 30
0.0
 10
-160.1753
 20
-71.9802
 30
0.0
 10
-155.4572
 20
-66.4155
 30
0.0
 10
-154.6106
 20
-68.3512
 30
0.0
 10
-154.6106
 20
-68.3512
 30
0.0
 10
-151.9493
 20
-73.311
 30
0.0
 10
-148.5621
 20
-76.093
 30
0.0
 10
-144.691
 20
-78.1498
 30
0.0
 10
-144.691
 20
-78.1498
 30
0.0
 10
-143.6023
 20
-78.8753
 30
0.0
 10
-148.4411
 20
-83.3513
 30
0.0
 10
-149.0459
 20
-82.6254
 30
0.0
  0
SPLINE
  5
F6
330
1F
100
AcDbEntity
  8
layer 1
 62
     7
100
AcDbSpline
210
0.0
220
0.0
230
1.0
 70
    11
 71
     3
 72
    20
 73
    16
 74
     0
 42
0.0000000001
 43
0.0000000001
 12
1.0
 22
0.0
 32
0.0
 13
1.0
 23
0.0
 33
0.0
 40
0.0
 40
0.0
 40
0.0
 40
0.0
 40
0.2
 40
0.2
 40
0.2
 40
0.2
 40
0.4
 40
0.4
 40
0.4
 40
0.4
 40
0.6
 40
0.6
 40
0.6
 40
0.6
 40
1.0
 40
1.0
 40
1.0
 40
1.0
 10
-150.8606
 20
-86.7385
 30
0.0
 10
-146.2636
 20
-84.1983
 30
0.0
 10
-142.8764
 20
-80.569
 30
0.0
 10
-140.6989
 20
-76.4562
 30
0.0
 10
-140.6989
 20
-76.4562
 30
0.0
 10
-140.2151
 20
-75.4885
 30
0.0
 10
-134.6504
 20
-80.2062
 30
0.0
 10
-136.5861
 20
-81.0528
 30
0.0
 10
-136.5861
 20
-81.0528
 30
0.0
 10
-141.5459
 20
-83.7141
 30
0.0
 10
-144.3282
 20
-87.1013
 30
0.0
 10
-146.3847
 20
-90.9724
 30
0.0
 10
-146.3847
 20
-90.9724
 30
0.0
 10
-147.1106
 20
-92.0611
 30
0.0
 10
-151.7072
 20
-87.2224
 30
0.0
 10
-150.8606
 20
-86.7385
 30
0.0
  0
SPLINE
  5
F7
330
1F
100
AcDbEntity
  8
layer 1
 62
     7
100
AcDbSpline
210
0.0
220
0.0
230
1.0
 70
    11
 71
     3
 72
    20
 73
    16
 74
     0
 42
0.0000000001
 43
0.0000000001
 12
1.0
 22
0.0
 32
0.0
 13
1.0
 23
0.0
 33
0.0
 40
0.0
 40
0.0
 40
0.0
 40
0.0
 40
0.2
 40
0.2
 40
0.2
 40
0.2
 40
0.4
 40
0.4
 40
0.4
 40
0.4
 40
0.6
 40
0.6
 40
0.6
 40
0.6
 40
1.0
 40
1.0
 40
1.0
 40
1.0
 10
-149.0459
 20
-65.8106
 30
0.0
 10
-151.5862
 20
-61.214
 30
0.0
 10
-155.0945
 20
-57.8268
 30
0.0
 10
-159.2073
 20
-55.6493
 30
0.0
 10
-159.2073
 20
-55.6493
 30
0.0
 10
-160.1753
 20
-55.1655
 30
0.0
 10
-155.4572
 20
-49.6008
 30
0.0
 10
-154.6106
 20
-51.6572
 30
0.0
 10
-154.6106
 20
-51.6572
 30
0.0
 10
-151.9493
 20
-56.496
 30
0.0
 10
-148.5621
 20
-59.2783
 30
0.0
 10
-144.691
 20
-61.335
 30
0.0
 10
-144.691
 20
-61.335
 30
0.0
 10
-143.6023
 20
-62.0606
 30
0.0
 10
-148.4411
 20
-66.6576
 30
0.0
 10
-149.0459
 20
-65.8106
 30
0.0
  0
SPLINE
  5
F8
330
1F
100
AcDbEntity
  8
layer 1
 62
     7
100
AcDbSpline
210
0.0
220
0.0
230
1.0
 70
    11
 71
     3
 72
    20
 73
    16
 74
     0
 42
0.0000000001
 43
0.0000000001
 12
1.0
 22
0.0
 32
0.0
 13
1.0
 23
0.0
 33
0.0
 40
0.0
 40
0.0
 40
0.0
 40
0.0
 40
0.2
 40
0.2
 40
0.2
 40
0.2
 40
0.4
 40
0.4
 40
0.4
 40
0.4
 40
0.6
 40
0.6
 40
0.6
 40
0.6
 40
1.0
 40
1.0
 40
1.0
 40
1.0
 10
-150.8606
 20
-69.9238
 30
0.0
 10
-146.2636
 20
-67.3832
 30
0.0
 10
-142.8764
 20
-63.8753
 30
0.0
 10
-140.6989
 20
-59.6414
 30
0.0
 10
-140.6989
 20
-59.6414
 30
0.0
 10
-140.2151
 20
-58.6734
 30
0.0
 10
-134.6504
 20
-63.5125
 30
0.0
 10
-136.5861
 20
-64.2381
 30
0.0
 10
-136.5861
 20
-64.2381
 30
0.0
 10
-141.5459
 20
-66.8994
 30
0.0
 10
-144.3282
 20
-70.4076
 30
0.0
 10
-146.3847
 20
-74.1577
 30
0.0
 10
-146.3847
 20
-74.1577
 30
0.0
 10
-147.1106
 20
-75.2464
 30
0.0
 10
-151.7072
 20
-70.5287
 30
0.0
 10
-150.8606
 20
-69.9238
 30
0.0
  0
SPLINE
  5
F9
330
1F
100
AcDbEntity
  8
layer 1
 62
     7
100
AcDbSpline
210
0.0
220
0.0
230
1.0
 70
    11
 71
     3
 72
    20
 73
    16
 74
     0
 42
0.0000000001
 43
0.0000000001
 12
1.0
 22
0.0
 32
0.0
 13
1.0
 23
0.0
 33
0.0
 40
0.0
 40
0.0
 40
0.0
 40
0.0
 40
0.2
 40
0.2
 40
0.2
 40
0.2
 40
0.4
 40
0.4
 40
0.4
 40
0.4
 40
0.6
 40
0.6
 40
0.6
 40
0.6
 40
1.0
 40
1.0
 40
1.0
 40
1.0
 10
-149.0459
 20
-49.117
 30
0.0
 10
-151.5862
 20
-44.52
 30
0.0
 10
-155.0945
 20
-41.0121
 30
0.0
 10
-159.2073
 20
-38.8346
 30
0.0
 10
-159.2073
 20
-38.8346
 30
0.0
 10
-160.1753
 20
-38.3508
 30
0.0
 10
-155.4572
 20
-32.9072
 30
0.0
 10
-154.6106
 20
-34.8425
 30
0.0
 10
-154.6106
 20
-34.8425
 30
0.0
 10
-151.9493
 20
-39.6812
 30
0.0
 10
-148.5621
 20
-42.4636
 30
0.0
 10
-144.691
 20
-44.641
 30
0.0
 10
-144.691
 20
-44.641
 30
0.0
 10
-143.6023
 20
-45.367
 30
0.0
 10
-148.4411
 20
-49.8429
 30
0.0
 10
-149.0459
 20
-49.117
 30
0.0
  0
SPLINE
  5
FA
330
1F
100
AcDbEntity
  8
layer 1
 62
     7
100
AcDbSpline
210
0.0
220
0.0
230
1.0
 70
    11
 71
     3
 72
    20
 73
    16
 74
     0
 42
0.0000000001
 43
0.0000000001
 12
1.0
 22
0.0
 32
0.0
 13
1.0
 23
0.0
 33
0.0
 40
0.0
 40
0.0
 40
0.0
 40
0.0
 40
0.2
 40
0.2
 40
0.2
 40
0.2
 40
0.4
 40
0.4
 40
0.4
 40
0.4
 40
0.6
 40
0.6
 40
0.6
 40
0.6
 40
1.0
 40
1.0
 40
1.0
 40
1.0
 10
-150.8606
 20
-53.1091
 30
0.0
 10
-146.2636
 20
-50.5685
 30
0.0
 10
-142.8764
 20
-47.0606
 30
0.0
 10
-140.6989
 20
-42.9474
 30
0.0
 10
-140.6989
 20
-42.9474
 30
0.0
 10
-140.2151
 20
-41.9797
 30
0.0
 10
-134.6504
 20
-46.6974
 30
0.0
 10
-136.5861
 20
-47.5444
 30
0.0
 10
-136.5861
 20
-47.5444
 30
0.0
 10
-141.5459
 20
-50.2057
 30
0.0
 10
-144.3282
 20
-53.5929
 30
0.0
 10
-146.3847
 20
-57.464
 30
0.0
 10
-146.3847
 20
-57.464
 30
0.0
 10
-147.1106
 20
-58.5527
 30
0.0
 10
-151.7072
 20
-53.714
 30
0.0
 10
-150.8606
 20
-53.1091
 30
0.0
  0
SPLINE
  5
FB
330
1F
100
AcDbEntity
  8
layer 1
 62
     7
100
AcDbSpline
210
0.0
220
0.0
230
1.0
 70
    11
 71
     3
 72
    20
 73
    16
 74
     0
 42
0.0000000001
 43
0.0000000001
 12
1.0
 22
0.0
 32
0.0
 13
1.0
 23
0.0
 33
0.0
 40
0.0
 40
0.0
 40
0.0
 40
0.0
 40
0.2
 40
0.2
 40
0.2
 40
0.2
 40
0.4
 40
0.4
 40
0.4
 40
0.4
 40
0.6
 40
0.6
 40
0.6
 40
0.6
 40
1.0
 40
1.0
 40
1.0
 40
1.0
 10
-149.0459
 20
-32.3023
 30
0.0
 10
-151.5862
 20
-27.7053
 30
0.0
 10
-155.0945
 20
-24.3184
 30
0.0
 10
-159.2073
 20
-22.1409
 30
0.0
 10
-159.2073
 20
-22.1409
 30
0.0
 10
-160.1753
 20
-21.6568
 30
0.0
 10
-155.4572
 20
-16.0924
 30
0.0
 10
-154.6106
 20
-18.0278
 30
0.0
 10
-154.6106
 20
-18.0278
 30
0.0
 10
-151.9493
 20
-22.9876
 30
0.0
 10
-148.5621
 20
-25.7699
 30
0.0
 10
-144.691
 20
-27.8263
 30
0.0
 10
-144.691
 20
-27.8263
 30
0.0
 10
-143.6023
 20
-28.5523
 30
0.0
 10
-148.4411
 20
-33.1489
 30
0.0
 10
-149.0459
 20
-32.3023
 30
0.0
  0
SPLINE
  5
FC
330
1F
100
AcDbEntity
  8
layer 1
 62
     7
100
AcDbSpline
210
0.0
220
0.0
230
1.0
 70
    11
 71
     3
 72
    20
 73
    16
 74
     0
 42
0.0000000001
 43
0.0000000001
 12
1.0
 22
0.0
 32
0.0
 13
1.0
 23
0.0
 33
0.0
 40
0.0
 40
0.0
 40
0.0
 40
0.0
 40
0.2
 40
0.2
 40
0.2
 40
0.2
 40
0.4
 40
0.4
 40
0.4
 40
0.4
 40
0.6
 40
0.6
 40
0.6
 40
0.6
 40
1.0
 40
1.0
 40
1.0
 40
1.0
 10
-150.8606
 20
-36.4151
 30
0.0
 10
-146.2636
 20
-33.8748
 30
0.0
 10
-142.8764
 20
-30.2459
 30
0.0
 10
-140.6989
 20
-26.1327
 30
0.0
 10
-140.6989
 20
-26.1327
 30
0.0
 10
-140.2151
 20
-25.165
 30
0.0
 10
-134.6504
 20
-29.8827
 30
0.0
 10
-136.5861
 20
-30.7297
 30
0.0
 10
-136.5861
 20
-30.7297
 30
0.0
 10
-141.5459
 20
-33.391
 30
0.0
 10
-144.3282
 20
-36.8989
 30
0.0
 10
-146.3847
 20
-40.6493
 30
0.0
 10
-146.3847
 20
-40.6493
 30
0.0
 10
-147.1106
 20
-41.738
 30
0.0
 10
-151.7072
 20
-36.8989
 30
0.0
 10
-150.8606
 20
-36.4151
 30
0.0
  0
SPLINE
  5
FD
330
1F
100
AcDbEntity
  8
layer 1
 62
     7
100
AcDbSpline
210
0.0
220
0.0
230
1.0
 70
    11
 71
     3
 72
    20
 73
    16
 74
     0
 42
0.0000000001
 43
0.0000000001
 12
1.0
 22
0.0
 32
0.0
 13
1.0
 23
0.0
 33
0.0
 40
0.0
 40
0.0
 40
0.0
 40
0.0
 40
0.2
 40
0.2
 40
0.2
 40
0.2
 40
0.4
 40
0.4
 40
0.4
 40
0.4
 40
0.6
 40
0.6
 40
0.6
 40
0.6
 40
1.0
 40
1.0
 40
1.0
 40
1.0
 10
-149.0459
 20
-15.4876
 30
0.0
 10
-151.5862
 20
-10.8906
 30
0.0
 10
-155.0945
 20
-7.5033
 30
0.0
 10
-159.2073
 20
-5.3259
 30
0.0
 10
-159.2073
 20
-5.3259
 30
0.0
 10
-160.1753
 20
-4.842
 30
0.0
 10
-155.4572
 20
0.7223
 30
0.0
 10
-154.6106
 20
-1.3341
 30
0.0
 10
-154.6106
 20
-1.3341
 30
0.0
 10
-151.9493
 20
-6.1729
 30
0.0
 10
-148.5621
 20
-8.9552
 30
0.0
 10
-144.691
 20
-11.1327
 30
0.0
 10
-144.691
 20
-11.1327
 30
0.0
 10
-143.6023
 20
-11.7375
 30
0.0
 10
-148.4411
 20
-16.3342
 30
0.0
 10
-149.0459
 20
-15.4876
 30
0.0
  0
SPLINE
  5
FE
330
1F
100
AcDbEntity
  8
layer 1
 62
     7
100
AcDbSpline
210
0.0
220
0.0
230
1.0
 70
    11
 71
     3
 72
    20
 73
    16
 74
     0
 42
0.0000000001
 43
0.0000000001
 12
1.0
 22
0.0
 32
0.0
 13
1.0
 23
0.0
 33
0.0
 40
0.0
 40
0.0
 40
0.0
 40
0.0
 40
0.2
 40
0.2
 40
0.2
 40
0.2
 40
0.4
 40
0.4
 40
0.4
 40
0.4
 40
0.6
 40
0.6
 40
0.6
 40
0.6
 40
1.0
 40
1.0
 40
1.0
 40
1.0
 10
-150.8606
 20
-19.6004
 30
0.0
 10
-146.2636
 20
-17.0601
 30
0.0
 10
-142.8764
 20
-13.5518
 30
0.0
 10
-140.6989
 20
-9.318
 30
0.0
 10
-140.6989
 20
-9.318
 30
0.0
 10
-140.2151
 20
-8.3503
 30
0.0
 10
-134.6504
 20
-13.1891
 30
0.0
 10
-136.5861
 20
-14.0357
 30
0.0
 10
-136.5861
 20
-14.0357
 30
0.0
 10
-141.5459
 20
-16.5763
 30
0.0
 10
-144.3282
 20
-20.0842
 30
0.0
 10
-146.3847
 20
-23.8342
 30
0.0
 10
-146.3847
 20
-23.8342
 30
0.0
 10
-147.1106
 20
-25.044
 30
0.0
 10
-151.7072
 20
-20.2052
 30
0.0
 10
-150.8606
 20
-19.6004
 30
0.0
  0
SPLINE
  5
FF
330
1F
100
AcDbEntity
  8
layer 1
 62
     7
100
AcDbSpline
210
0.0
220
0.0
230
1.0
 70
    11
 71
     3
 72
    20
 73
    16
 74
     0
 42
0.0000000001
 43
0.0000000001
 12
1.0
 22
0.0
 32
0.0
 13
1.0
 23
0.0
 33
0.0
 40
0.0
 40
0.0
 40
0.0
 40
0.0
 40
0.2
 40
0.2
 40
0.2
 40
0.2
 40
0.4
 40
0.4
 40
0.4
 40
0.4
 40
0.6
 40
0.6
 40
0.6
 40
0.6
 40
1.0
 40
1.0
 40
1.0
 40
1.0
 10
-149.0459
 20
1.2065
 30
0.0
 10
-151.5862
 20
5.8031
 30
0.0
 10
-155.0945
 20
9.3114
 30
0.0
 10
-159.2073
 20
11.3678
 30
0.0
 10
-159.2073
 20
11.3678
 30
0.0
 10
-160.1753
 20
11.8516
 30
0.0
 10
-155.4572
 20
17.4163
 30
0.0
 10
-154.6106
 20
15.4806
 30
0.0
 10
-154.6106
 20
15.4806
 30
0.0
 10
-151.9493
 20
10.6418
 30
0.0
 10
-148.5621
 20
7.8595
 30
0.0
 10
-144.691
 20
5.6821
 30
0.0
 10
-144.691
 20
5.6821
 30
0.0
 10
-143.6023
 20
4.9565
 30
0.0
 10
-148.4411
 20
0.4805
 30
0.0
 10
-149.0459
 20
1.2065
 30
0.0
  0
SPLINE
  5
100
330
1F
100
AcDbEntity
  8
layer 1
 62
     7
100
AcDbSpline
210
0.0
220
0.0
230
1.0
 70
    11
 71
     3
 72
    20
 73
    16
 74
     0
 42
0.0000000001
 43
0.0000000001
 12
1.0
 22
0.0
 32
0.0
 13
1.0
 23
0.0
 33
0.0
 40
0.0
 40
0.0
 40
0.0
 40
0.0
 40
0.2
 40
0.2
 40
0.2
 40
0.2
 40
0.4
 40
0.4
 40
0.4
 40
0.4
 40
0.6
 40
0.6
 40
0.6
 40
0.6
 40
1.0
 40
1.0
 40
1.0
 40
1.0
 10
-150.8606
 20
-2.7856
 30
0.0
 10
-146.2636
 20
-0.3664
 30
0.0
 10
-142.8764
 20
3.2629
 30
0.0
 10
-140.6989
 20
7.3757
 30
0.0
 10
-140.6989
 20
7.3757
 30
0.0
 10
-140.2151
 20
8.3434
 30
0.0
 10
-134.6504
 20
3.6257
 30
0.0
 10
-136.5861
 20
2.779
 30
0.0
 10
-136.5861
 20
2.779
 30
0.0
 10
-141.5459
 20
0.1177
 30
0.0
 10
-144.3282
 20
-3.2695
 30
0.0
 10
-146.3847
 20
-7.1405
 30
0.0
 10
-146.3847
 20
-7.1405
 30
0.0
 10
-147.1106
 20
-8.2293
 30
0.0
 10
-151.7072
 20
-3.3905
 30
0.0
 10
-150.8606
 20
-2.7856
 30
0.0
  0
SPLINE
  5
101
330
1F
100
AcDbEntity
  8
layer 1
 62
     7
100
AcDbSpline
210
0.0
220
0.0
230
1.0
 70
    11
 71
     3
 72
    20
 73
    16
 74
     0
 42
0.0000000001
 43
0.0000000001
 12
1.0
 22
0.0
 32
0.0
 13
1.0
 23
0.0
 33
0.0
 40
0.0
 40
0.0
 40
0.0
 40
0.0
 40
0.2
 40
0.2
 40
0.2
 40
0.2
 40
0.4
 40
0.4
 40
0.4
 40
0.4
 40
0.6
 40
0.6
 40
0.6
 40
0.6
 40
1.0
 40
1.0
 40
1.0
 40
1.0
 10
-149.0459
 20
18.0212
 30
0.0
 10
-151.5862
 20
22.6178
 30
0.0
 10
-155.0945
 20
26.005
 30
0.0
 10
-159.2073
 20
28.1825
 30
0.0
 10
-159.2073
 20
28.1825
 30
0.0
 10
-160.1753
 20
28.6663
 30
0.0
 10
-155.4572
 20
34.231
 30
0.0
 10
-154.6106
 20
32.1746
 30
0.0
 10
-154.6106
 20
32.1746
 30
0.0
 10
-151.9493
 20
27.3359
 30
0.0
 10
-148.5621
 20
24.5535
 30
0.0
 10
-144.691
 20
22.4968
 30
0.0
 10
-144.691
 20
22.4968
 30
0.0
 10
-143.6023
 20
21.7712
 30
0.0
 10
-148.4411
 20
17.1742
 30
0.0
 10
-149.0459
 20
18.0212
 30
0.0
  0
SPLINE
  5
102
330
1F
100
AcDbEntity
  8
layer 1
 62
     7
100
AcDbSpline
210
0.0
220
0.0
230
1.0
 70
    11
 71
     3
 72
    20
 73
    16
 74
     0
 42
0.0000000001
 43
0.0000000001
 12
1.0
 22
0.0
 32
0.0
 13
1.0
 23
0.0
 33
0.0
 40
0.0
 40
0.0
 40
0.0
 40
0.0
 40
0.2
 40
0.2
 40
0.2
 40
0.2
 40
0.4
 40
0.4
 40
0.4
 40
0.4
 40
0.6
 40
0.6
 40
0.6
 40
0.6
 40
1.0
 40
1.0
 40
1.0
 40
1.0
 10
-150.8606
 20
13.908
 30
0.0
 10
-146.2636
 20
16.4486
 30
0.0
 10
-142.8764
 20
19.9565
 30
0.0
 10
-140.6989
 20
24.1904
 30
0.0
 10
-140.6989
 20
24.1904
 30
0.0
 10
-140.2151
 20
25.1584
 30
0.0
 10
-134.6504
 20
20.3193
 30
0.0
 10
-136.5861
 20
19.5937
 30
0.0
 10
-136.5861
 20
19.5937
 30
0.0
 10
-141.5459
 20
16.9325
 30
0.0
 10
-144.3282
 20
13.4242
 30
0.0
 10
-146.3847
 20
9.6742
 30
0.0
 10
-146.3847
 20
9.6742
 30
0.0
 10
-147.1106
 20
8.5854
 30
0.0
 10
-151.7072
 20
13.4242
 30
0.0
 10
-150.8606
 20
13.908
 30
0.0
  0
SPLINE
  5
103
330
1F
100
AcDbEntity
  8
layer 1
 62
     7
100
AcDbSpline
210
0.0
220
0.0
230
1.0
 70
    11
 71
     3
 72
    20
 73
    16
 74
     0
 42
0.0000000001
 43
0.0000000001
 12
1.0
 22
0.0
 32
0.0
 13
1.0
 23
0.0
 33
0.0
 40
0.0
 40
0.0
 40
0.0
 40
0.0
 40
0.2
 40
0.2
 40
0.2
 40
0.2
 40
0.4
 40
0.4
 40
0.4
 40
0.4
 40
0.6
 40
0.6
 40
0.6
 40
0.6
 40
1.0
 40
1.0
 40
1.0
 40
1.0
 10
-149.0459
 20
34.7148
 30
0.0
 10
-151.5862
 20
39.4325
 30
0.0
 10
-155.0945
 20
42.8198
 30
0.0
 10
-159.2073
 20
44.9972
 30
0.0
 10
-159.2073
 20
44.9972
 30
0.0
 10
-160.1753
 20
45.481
 30
0.0
 10
-155.4572
 20
51.0457
 30
0.0
 10
-154.6106
 20
48.9893
 30
0.0
 10
-154.6106
 20
48.9893
 30
0.0
 10
-151.9493
 20
44.1506
 30
0.0
 10
-148.5621
 20
41.3682
 30
0.0
 10
-144.691
 20
39.1908
 30
0.0
 10
-144.691
 20
39.1908
 30
0.0
 10
-143.6023
 20
38.4649
 30
0.0
 10
-148.4411
 20
33.9889
 30
0.0
 10
-149.0459
 20
34.7148
 30
0.0
  0
SPLINE
  5
104
330
1F
100
AcDbEntity
  8
layer 1
 62
     7
100
AcDbSpline
210
0.0
220
0.0
230
1.0
 70
    11
 71
     3
 72
    20
 73
    16
 74
     0
 42
0.0000000001
 43
0.0000000001
 12
1.0
 22
0.0
 32
0.0
 13
1.0
 23
0.0
 33
0.0
 40
0.0
 40
0.0
 40
0.0
 40
0.0
 40
0.2
 40
0.2
 40
0.2
 40
0.2
 40
0.4
 40
0.4
 40
0.4
 40
0.4
 40
0.6
 40
0.6
 40
0.6
 40
0.6
 40
1.0
 40
1.0
 40
1.0
 40
1.0
 10
-150.8606
 20
30.7227
 30
0.0
 10
-146.2636
 20
33.2633
 30
0.0
 10
-142.8764
 20
36.7712
 30
0.0
 10
-140.6989
 20
41.0051
 30
0.0
 10
-140.6989
 20
41.0051
 30
0.0
 10
-140.2151
 20
41.9731
 30
0.0
 10
-134.6504
 20
37.1344
 30
0.0
 10
-136.5861
 20
36.2874
 30
0.0
 10
-136.5861
 20
36.2874
 30
0.0
 10
-141.5459
 20
33.6261
 30
0.0
 10
-144.3282
 20
30.2389
 30
0.0
 10
-146.3847
 20
26.4889
 30
0.0
 10
-146.3847
 20
26.4889
 30
0.0
 10
-147.1106
 20
25.2791
 30
0.0
 10
-151.7072
 20
30.1179
 30
0.0
 10
-150.8606
 20
30.7227
 30
0.0
  0
SPLINE
  5
105
330
1F
100
AcDbEntity
  8
layer 1
 62
     7
100
AcDbSpline
210
0.0
220
0.0
230
1.0
 70
    11
 71
     3
 72
    20
 73
    16
 74
     0
 42
0.0000000001
 43
0.0000000001
 12
1.0
 22
0.0
 32
0.0
 13
1.0
 23
0.0
 33
0.0
 40
0.0
 40
0.0
 40
0.0
 40
0.0
 40
0.2
 40
0.2
 40
0.2
 40
0.2
 40
0.4
 40
0.4
 40
0.4
 40
0.4
 40
0.6
 40
0.6
 40
0.6
 40
0.6
 40
1.0
 40
1.0
 40
1.0
 40
1.0
 10
-149.0459
 20
51.5296
 30
0.0
 10
-151.5862
 20
56.1266
 30
0.0
 10
-155.0945
 20
59.5134
 30
0.0
 10
-159.2073
 20
61.6909
 30
0.0
 10
-159.2073
 20
61.6909
 30
0.0
 10
-160.1753
 20
62.1751
 30
0.0
 10
-155.4572
 20
67.7394
 30
0.0
 10
-154.6106
 20
65.804
 30
0.0
 10
-154.6106
 20
65.804
 30
0.0
 10
-151.9493
 20
60.8442
 30
0.0
 10
-148.5621
 20
58.0619
 30
0.0
 10
-144.691
 20
56.0055
 30
0.0
 10
-144.691
 20
56.0055
 30
0.0
 10
-143.6023
 20
55.2796
 30
0.0
 10
-148.4411
 20
50.8036
 30
0.0
 10
-149.0459
 20
51.5296
 30
0.0
  0
SPLINE
  5
106
330
1F
100
AcDbEntity
  8
layer 1
 62
     7
100
AcDbSpline
210
0.0
220
0.0
230
1.0
 70
    11
 71
     3
 72
    20
 73
    16
 74
     0
 42
0.0000000001
 43
0.0000000001
 12
1.0
 22
0.0
 32
0.0
 13
1.0
 23
0.0
 33
0.0
 40
0.0
 40
0.0
 40
0.0
 40
0.0
 40
0.2
 40
0.2
 40
0.2
 40
0.2
 40
0.4
 40
0.4
 40
0.4
 40
0.4
 40
0.6
 40
0.6
 40
0.6
 40
0.6
 40
1.0
 40
1.0
 40
1.0
 40
1.0
 10
-150.8606
 20
47.4168
 30
0.0
 10
-146.2636
 20
49.957
 30
0.0
 10
-142.8764
 20
53.586
 30
0.0
 10
-140.6989
 20
57.6991
 30
0.0
 10
-140.6989
 20
57.6991
 30
0.0
 10
-140.2151
 20
58.6668
 30
0.0
 10
-134.6504
 20
53.9491
 30
0.0
 10
-136.5861
 20
53.1021
 30
0.0
 10
-136.5861
 20
53.1021
 30
0.0
 10
-141.5459
 20
50.4408
 30
0.0
 10
-144.3282
 20
47.0536
 30
0.0
 10
-146.3847
 20
43.1826
 30
0.0
 10
-146.3847
 20
43.1826
 30
0.0
 10
-147.1106
 20
42.0938
 30
0.0
 10
-151.7072
 20
46.9329
 30
0.0
 10
-150.8606
 20
47.4168
 30
0.0
  0
SPLINE
  5
107
330
1F
100
AcDbEntity
  8
layer 1
 62
     7
100
AcDbSpline
210
0.0
220
0.0
230
1.0
 70
    11
 71
     3
 72
    20
 73
    16
 74
     0
 42
0.0000000001
 43
0.0000000001
 12
1.0
 22
0.0
 32
0.0
 13
1.0
 23
0.0
 33
0.0
 40
0.0
 40
0.0
 40
0.0
 40
0.0
 40
0.2
 40
0.2
 40
0.2
 40
0.2
 40
0.4
 40
0.4
 40
0.4
 40
0.4
 40
0.6
 40
0.6
 40
0.6
 40
0.6
 40
1.0
 40
1.0
 40
1.0
 40
1.0
 10
-149.0459
 20
68.3443
 30
0.0
 10
-151.5862
 20
72.9413
 30
0.0
 10
-155.0945
 20
76.3285
 30
0.0
 10
-159.2073
 20
78.5059
 30
0.0
 10
-159.2073
 20
78.5059
 30
0.0
 10
-160.1753
 20
78.9898
 30
0.0
 10
-155.4572
 20
84.5541
 30
0.0
 10
-154.6106
 20
82.4977
 30
0.0
 10
-154.6106
 20
82.4977
 30
0.0
 10
-151.9493
 20
77.659
 30
0.0
 10
-148.5621
 20
74.8766
 30
0.0
 10
-144.691
 20
72.8202
 30
0.0
 10
-144.691
 20
72.8202
 30
0.0
 10
-143.6023
 20
72.0943
 30
0.0
 10
-148.4411
 20
67.4976
 30
0.0
 10
-149.0459
 20
68.3443
 30
0.0
  0
SPLINE
  5
108
330
1F
100
AcDbEntity
  8
layer 1
 62
     7
100
AcDbSpline
210
0.0
220
0.0
230
1.0
 70
    11
 71
     3
 72
    20
 73
    16
 74
     0
 42
0.0000000001
 43
0.0000000001
 12
1.0
 22
0.0
 32
0.0
 13
1.0
 23
0.0
 33
0.0
 40
0.0
 40
0.0
 40
0.0
 40
0.0
 40
0.2
 40
0.2
 40
0.2
 40
0.2
 40
0.4
 40
0.4
 40
0.4
 40
0.4
 40
0.6
 40
0.6
 40
0.6
 40
0.6
 40
1.0
 40
1.0
 40
1.0
 40
1.0
 10
-150.8606
 20
64.2315
 30
0.0
 10
-146.2636
 20
66.7717
 30
0.0
 10
-142.8764
 20
70.28
 30
0.0
 10
-140.6989
 20
74.5138
 30
0.0
 10
-140.6989
 20
74.5138
 30
0.0
 10
-140.2151
 20
75.4815
 30
0.0
 10
-134.6504
 20
70.6428
 30
0.0
 10
-136.5861
 20
69.9168
 30
0.0
 10
-136.5861
 20
69.9168
 30
0.0
 10
-141.5459
 20
67.2555
 30
0.0
 10
-144.3282
 20
63.7476
 30
0.0
 10
-146.3847
 20
59.9976
 30
0.0
 10
-146.3847
 20
59.9976
 30
0.0
 10
-147.1106
 20
58.9089
 30
0.0
 10
-151.7072
 20
63.6266
 30
0.0
 10
-150.8606
 20
64.2315
 30
0.0
  0
SPLINE
  5
109
330
1F
100
AcDbEntity
  8
layer 1
 62
     7
100
AcDbSpline
210
0.0
220
0.0
230
1.0
 70
    11
 71
     3
 72
    20
 73
    16
 74
     0
 42
0.0000000001
 43
0.0000000001
 12
1.0
 22
0.0
 32
0.0
 13
1.0
 23
0.0
 33
0.0
 40
0.0
 40
0.0
 40
0.0
 40
0.0
 40
0.2
 40
0.2
 40
0.2
 40
0.2
 40
0.4
 40
0.4
 40
0.4
 40
0.4
 40
0.6
 40
0.6
 40
0.6
 40
0.6
 40
1.0
 40
1.0
 40
1.0
 40
1.0
 10
-149.0459
 20
85.0383
 30
0.0
 10
-151.5862
 20
89.6349
 30
0.0
 10
-155.0945
 20
93.1432
 30
0.0
 10
-159.2073
 20
95.3207
 30
0.0
 10
-159.2073
 20
95.3207
 30
0.0
 10
-160.1753
 20
95.8045
 30
0.0
 10
-155.4572
 20
101.2481
 30
0.0
 10
-154.6106
 20
99.3124
 30
0.0
 10
-154.6106
 20
99.3124
 30
0.0
 10
-151.9493
 20
94.4737
 30
0.0
 10
-148.5621
 20
91.6913
 30
0.0
 10
-144.691
 20
89.5139
 30
0.0
 10
-144.691
 20
89.5139
 30
0.0
 10
-143.6023
 20
88.7883
 30
0.0
 10
-148.4411
 20
84.3124
 30
0.0
 10
-149.0459
 20
85.0383
 30
0.0
  0
SPLINE
  5
10A
330
1F
100
AcDbEntity
  8
layer 1
 62
     7
100
AcDbSpline
210
0.0
220
0.0
230
1.0
 70
    11
 71
     3
 72
    20
 73
    16
 74
     0
 42
0.0000000001
 43
0.0000000001
 12
1.0
 22
0.0
 32
0.0
 13
1.0
 23
0.0
 33
0.0
 40
0.0
 40
0.0
 40
0.0
 40
0.0
 40
0.2
 40
0.2
 40
0.2
 40
0.2
 40
0.4
 40
0.4
 40
0.4
 40
0.4
 40
0.6
 40
0.6
 40
0.6
 40
0.6
 40
1.0
 40
1.0
 40
1.0
 40
1.0
 10
-150.8606
 20
81.0462
 30
0.0
 10
-146.2636
 20
83.5864
 30
0.0
 10
-142.8764
 20
87.0947
 30
0.0
 10
-140.6989
 20
91.2075
 30
0.0
 10
-140.6989
 20
91.2075
 30
0.0
 10
-140.2151
 20
92.1752
 30
0.0
 10
-134.6504
 20
87.4575
 30
0.0
 10
-136.5861
 20
86.6109
 30
0.0
 10
-136.5861
 20
86.6109
 30
0.0
 10
-141.5459
 20
83.9496
 30
0.0
 10
-144.3282
 20
80.5623
 30
0.0
 10
-146.3847
 20
76.6913
 30
0.0
 10
-146.3847
 20
76.6913
 30
0.0
 10
-147.1106
 20
75.6026
 30
0.0
 10
-151.7072
 20
80.4413
 30
0.0
 10
-150.8606
 20
81.0462
 30
0.0
  0
SPLINE
  5
10B
330
1F
100
AcDbEntity
  8
layer 1
 62
     7
100
AcDbSpline
210
0.0
220
0.0
230
1.0
 70
    11
 71
     3
 72
    20
 73
    16
 74
     0
 42
0.0000000001
 43
0.0000000001
 12
1.0
 22
0.0
 32
0.0
 13
1.0
 23
0.0
 33
0.0
 40
0.0
 40
0.0
 40
0.0
 40
0.0
 40
0.2
 40
0.2
 40
0.2
 40
0.2
 40
0.4
 40
0.4
 40
0.4
 40
0.4
 40
0.6
 40
0.6
 40
0.6
 40
0.6
 40
1.0
 40
1.0
 40
1.0
 40
1.0
 10
-149.0459
 20
101.853
 30
0.0
 10
-151.5862
 20
106.4496
 30
0.0
 10
-155.0945
 20
109.8369
 30
0.0
 10
-159.2073
 20
112.0143
 30
0.0
 10
-159.2073
 20
112.0143
 30
0.0
 10
-160.1753
 20
112.4982
 30
0.0
 10
-155.4572
 20
118.0628
 30
0.0
 10
-154.6106
 20
116.1271
 30
0.0
 10
-154.6106
 20
116.1271
 30
0.0
 10
-151.9493
 20
111.1677
 30
0.0
 10
-148.5621
 20
108.3854
 30
0.0
 10
-144.691
 20
106.3286
 30
0.0
 10
-144.691
 20
106.3286
 30
0.0
 10
-143.6023
 20
105.603
 30
0.0
 10
-148.4411
 20
101.006
 30
0.0
 10
-149.0459
 20
101.853
 30
0.0
  0
SPLINE
  5
10C
330
1F
100
AcDbEntity
  8
layer 1
 62
     7
100
AcDbSpline
210
0.0
220
0.0
230
1.0
 70
    11
 71
     3
 72
    20
 73
    16
 74
     0
 42
0.0000000001
 43
0.0000000001
 12
1.0
 22
0.0
 32
0.0
 13
1.0
 23
0.0
 33
0.0
 40
0.0
 40
0.0
 40
0.0
 40
0.0
 40
0.2
 40
0.2
 40
0.2
 40
0.2
 40
0.4
 40
0.4
 40
0.4
 40
0.4
 40
0.6
 40
0.6
 40
0.6
 40
0.6
 40
1.0
 40
1.0
 40
1.0
 40
1.0
 10
-150.8606
 20
97.7398
 30
0.0
 10
-146.2636
 20
100.2804
 30
0.0
 10
-142.8764
 20
103.9094
 30
0.0
 10
-140.6989
 20
108.0222
 30
0.0
 10
-140.6989
 20
108.0222
 30
0.0
 10
-140.2151
 20
108.9902
 30
0.0
 10
-134.6504
 20
104.2722
 30
0.0
 10
-136.5861
 20
103.4256
 30
0.0
 10
-136.5861
 20
103.4256
 30
0.0
 10
-141.5459
 20
100.7643
 30
0.0
 10
-144.3282
 20
97.256
 30
0.0
 10
-146.3847
 20
93.506
 30
0.0
 10
-146.3847
 20
93.506
 30
0.0
 10
-147.1106
 20
92.4173
 30
0.0
 10
-151.7072
 20
97.256
 30
0.0
 10
-150.8606
 20
97.7398
 30
0.0
  0
SPLINE
  5
10D
330
1F
100
AcDbEntity
  8
layer 1
 62
     7
100
AcDbSpline
210
0.0
220
0.0
230
1.0
 70
    11
 71
     3
 72
    16
 73
    12
 74
     0
 42
0.0000000001
 43
0.0000000001
 12
1.0
 22
0.0
 32
0.0
 13
1.0
 23
0.0
 33
0.0
 40
0.0
 40
0.0
 40
0.0
 40
0.0
 40
0.25
 40
0.25
 40
0.25
 40
0.25
 40
0.5
 40
0.5
 40
0.5
 40
0.5
 40
1.0
 40
1.0
 40
1.0
 40
1.0
 10
-149.0459
 20
118.6677
 30
0.0
 10
-149.4087
 20
119.2726
 30
0.0
 10
-149.7719
 20
119.8775
 30
0.0
 10
-150.1347
 20
120.482
 30
0.0
 10
-150.1347
 20
120.482
 30
0.0
 10
-150.1347
 20
120.482
 30
0.0
 10
-146.0219
 20
120.482
 30
0.0
 10
-146.0219
 20
120.482
 30
0.0
 10
-146.0219
 20
120.482
 30
0.0
 10
-147.2313
 20
119.2726
 30
0.0
 10
-148.6831
 20
118.1839
 30
0.0
 10
-149.0459
 20
118.6677
 30
0.0
  0
SPLINE
  5
10E
330
1F
100
AcDbEntity
  8
layer 1
 62
     7
100
AcDbSpline
210
0.0
220
0.0
230
1.0
 70
    11
 71
     3
 72
    24
 73
    20
 74
     0
 42
0.0000000001
 43
0.0000000001
 12
1.0
 22
0.0
 32
0.0
 13
1.0
 23
0.0
 33
0.0
 40
0.0
 40
0.0
 40
0.0
 40
0.0
 40
0.1666666666666667
 40
0.1666666666666667
 40
0.1666666666666667
 40
0.1666666666666667
 40
0.3333333333333333
 40
0.3333333333333333
 40
0.3333333333333333
 40
0.3333333333333333
 40
0.5
 40
0.5
 40
0.5
 40
0.5
 40
0.6666666666666666
 40
0.6666666666666666
 40
0.6666666666666666
 40
0.6666666666666666
 40
1.0
 40
1.0
 40
1.0
 40
1.0
 10
-150.8606
 20
114.5546
 30
0.0
 10
-147.9572
 20
116.1271
 30
0.0
 10
-145.417
 20
118.1839
 30
0.0
 10
-143.4813
 20
120.482
 30
0.0
 10
-143.4813
 20
120.482
 30
0.0
 10
-143.4813
 20
120.482
 30
0.0
 10
-136.2233
 20
120.482
 30
0.0
 10
-136.2233
 20
120.482
 30
0.0
 10
-136.2233
 20
120.482
 30
0.0
 10
-136.344
 20
120.3613
 30
0.0
 10
-136.4651
 20
120.2403
 30
0.0
 10
-136.5861
 20
120.1192
 30
0.0
 10
-136.5861
 20
120.1192
 30
0.0
 10
-141.5459
 20
117.579
 30
0.0
 10
-144.3282
 20
114.0707
 30
0.0
 10
-146.3847
 20
110.3207
 30
0.0
 10
-146.3847
 20
110.3207
 30
0.0
 10
-147.1106
 20
109.1109
 30
0.0
 10
-151.7072
 20
113.9497
 30
0.0
 10
-150.8606
 20
114.5546
 30
0.0
  0
SPLINE
  5
10F
330
1F
100
AcDbEntity
  8
layer 1
 62
     7
100
AcDbSpline
210
0.0
220
0.0
230
1.0
 70
    11
 71
     3
 72
    16
 73
    12
 74
     0
 42
0.0000000001
 43
0.0000000001
 12
1.0
 22
0.0
 32
0.0
 13
1.0
 23
0.0
 33
0.0
 40
0.0
 40
0.0
 40
0.0
 40
0.0
 40
0.25
 40
0.25
 40
0.25
 40
0.25
 40
0.5
 40
0.5
 40
0.5
 40
0.5
 40
1.0
 40
1.0
 40
1.0
 40
1.0
 10
-165.7396
 20
118.6677
 30
0.0
 10
-166.1027
 20
119.2726
 30
0.0
 10
-166.4655
 20
119.8775
 30
0.0
 10
-166.9494
 20
120.482
 30
0.0
 10
-166.9494
 20
120.482
 30
0.0
 10
-166.9494
 20
120.482
 30
0.0
 10
-162.7155
 20
120.482
 30
0.0
 10
-162.7155
 20
120.482
 30
0.0
 10
-162.7155
 20
120.482
 30
0.0
 10
-163.9253
 20
119.2726
 30
0.0
 10
-165.4979
 20
118.1839
 30
0.0
 10
-165.7396
 20
118.6677
 30
0.0
  0
SPLINE
  5
110
330
1F
100
AcDbEntity
  8
layer 1
 62
     7
100
AcDbSpline
210
0.0
220
0.0
230
1.0
 70
    11
 71
     3
 72
    24
 73
    20
 74
     0
 42
0.0000000001
 43
0.0000000001
 12
1.0
 22
0.0
 32
0.0
 13
1.0
 23
0.0
 33
0.0
 40
0.0
 40
0.0
 40
0.0
 40
0.0
 40
0.1666666666666667
 40
0.1666666666666667
 40
0.1666666666666667
 40
0.1666666666666667
 40
0.3333333333333333
 40
0.3333333333333333
 40
0.3333333333333333
 40
0.3333333333333333
 40
0.5
 40
0.5
 40
0.5
 40
0.5
 40
0.6666666666666666
 40
0.6666666666666666
 40
0.6666666666666666
 40
0.6666666666666666
 40
1.0
 40
1.0
 40
1.0
 40
1.0
 10
-167.6753
 20
114.5546
 30
0.0
 10
-164.6509
 20
116.1271
 30
0.0
 10
-162.2317
 20
118.1839
 30
0.0
 10
-160.296
 20
120.482
 30
0.0
 10
-160.296
 20
120.482
 30
0.0
 10
-160.296
 20
120.482
 30
0.0
 10
-153.038
 20
120.482
 30
0.0
 10
-153.038
 20
120.482
 30
0.0
 10
-153.038
 20
120.482
 30
0.0
 10
-153.038
 20
120.3613
 30
0.0
 10
-153.1587
 20
120.2403
 30
0.0
 10
-153.4008
 20
120.1192
 30
0.0
 10
-153.4008
 20
120.1192
 30
0.0
 10
-158.2396
 20
117.579
 30
0.0
 10
-161.0219
 20
114.0707
 30
0.0
 10
-163.1994
 20
110.3207
 30
0.0
 10
-163.1994
 20
110.3207
 30
0.0
 10
-163.9253
 20
109.1109
 30
0.0
 10
-168.4009
 20
113.9497
 30
0.0
 10
-167.6753
 20
114.5546
 30
0.0
  0
SPLINE
  5
111
330
1F
100
AcDbEntity
  8
layer 1
 62
     7
100
AcDbSpline
210
0.0
220
0.0
230
1.0
 70
    11
 71
     3
 72
    24
 73
    20
 74
     0
 42
0.0000000001
 43
0.0000000001
 12
1.0
 22
0.0
 32
0.0
 13
1.0
 23
0.0
 33
0.0
 40
0.0
 40
0.0
 40
0.0
 40
0.0
 40
0.1666666666666667
 40
0.1666666666666667
 40
0.1666666666666667
 40
0.1666666666666667
 40
0.3333333333333333
 40
0.3333333333333333
 40
0.3333333333333333
 40
0.3333333333333333
 40
0.5
 40
0.5
 40
0.5
 40
0.5
 40
0.6666666666666666
 40
0.6666666666666666
 40
0.6666666666666666
 40
0.6666666666666666
 40
1.0
 40
1.0
 40
1.0
 40
1.0
 10
-165.7396
 20
101.853
 30
0.0
 10
-168.2802
 20
106.4496
 30
0.0
 10
-171.7881
 20
109.8369
 30
0.0
 10
-175.9013
 20
112.0143
 30
0.0
 10
-175.9013
 20
112.0143
 30
0.0
 10
-175.9013
 20
112.0143
 30
0.0
 10
-175.9013
 20
112.982
 30
0.0
 10
-175.9013
 20
112.982
 30
0.0
 10
-175.9013
 20
112.982
 30
0.0
 10
-175.0543
 20
114.6756
 30
0.0
 10
-172.0302
 20
117.579
 30
0.0
 10
-171.4253
 20
116.1271
 30
0.0
 10
-171.4253
 20
116.1271
 30
0.0
 10
-168.764
 20
111.1677
 30
0.0
 10
-165.2558
 20
108.3854
 30
0.0
 10
-161.5058
 20
106.3286
 30
0.0
 10
-161.5058
 20
106.3286
 30
0.0
 10
-160.417
 20
105.603
 30
0.0
 10
-165.2558
 20
101.006
 30
0.0
 10
-165.7396
 20
101.853
 30
0.0
  0
SPLINE
  5
112
330
1F
100
AcDbEntity
  8
layer 1
 62
     7
100
AcDbSpline
210
0.0
220
0.0
230
1.0
 70
    11
 71
     3
 72
    20
 73
    16
 74
     0
 42
0.0000000001
 43
0.0000000001
 12
1.0
 22
0.0
 32
0.0
 13
1.0
 23
0.0
 33
0.0
 40
0.0
 40
0.0
 40
0.0
 40
0.0
 40
0.2
 40
0.2
 40
0.2
 40
0.2
 40
0.4
 40
0.4
 40
0.4
 40
0.4
 40
0.6
 40
0.6
 40
0.6
 40
0.6
 40
1.0
 40
1.0
 40
1.0
 40
1.0
 10
-167.6753
 20
97.7398
 30
0.0
 10
-163.0783
 20
100.2804
 30
0.0
 10
-159.5704
 20
103.9094
 30
0.0
 10
-157.3929
 20
108.0222
 30
0.0
 10
-157.3929
 20
108.0222
 30
0.0
 10
-156.9091
 20
108.9902
 30
0.0
 10
-151.4655
 20
104.2722
 30
0.0
 10
-153.4008
 20
103.4256
 30
0.0
 10
-153.4008
 20
103.4256
 30
0.0
 10
-158.2396
 20
100.7643
 30
0.0
 10
-161.0219
 20
97.256
 30
0.0
 10
-163.1994
 20
93.506
 30
0.0
 10
-163.1994
 20
93.506
 30
0.0
 10
-163.9253
 20
92.4173
 30
0.0
 10
-168.4009
 20
97.256
 30
0.0
 10
-167.6753
 20
97.7398
 30
0.0
  0
SPLINE
  5
113
330
1F
100
AcDbEntity
  8
layer 1
 62
     7
100
AcDbSpline
210
0.0
220
0.0
230
1.0
 70
    11
 71
     3
 72
    24
 73
    20
 74
     0
 42
0.0000000001
 43
0.0000000001
 12
1.0
 22
0.0
 32
0.0
 13
1.0
 23
0.0
 33
0.0
 40
0.0
 40
0.0
 40
0.0
 40
0.0
 40
0.1666666666666667
 40
0.1666666666666667
 40
0.1666666666666667
 40
0.1666666666666667
 40
0.3333333333333333
 40
0.3333333333333333
 40
0.3333333333333333
 40
0.3333333333333333
 40
0.5
 40
0.5
 40
0.5
 40
0.5
 40
0.6666666666666666
 40
0.6666666666666666
 40
0.6666666666666666
 40
0.6666666666666666
 40
1.0
 40
1.0
 40
1.0
 40
1.0
 10
-165.7396
 20
85.0383
 30
0.0
 10
-168.2802
 20
89.6349
 30
0.0
 10
-171.7881
 20
93.0222
 30
0.0
 10
-175.9013
 20
95.1996
 30
0.0
 10
-175.9013
 20
95.1996
 30
0.0
 10
-175.9013
 20
95.1996
 30
0.0
 10
-175.9013
 20
96.2883
 30
0.0
 10
-175.9013
 20
96.2883
 30
0.0
 10
-175.9013
 20
96.2883
 30
0.0
 10
-175.0543
 20
97.8609
 30
0.0
 10
-172.0302
 20
100.885
 30
0.0
 10
-171.4253
 20
99.3124
 30
0.0
 10
-171.4253
 20
99.3124
 30
0.0
 10
-168.764
 20
94.4737
 30
0.0
 10
-165.2558
 20
91.6913
 30
0.0
 10
-161.5058
 20
89.5139
 30
0.0
 10
-161.5058
 20
89.5139
 30
0.0
 10
-160.417
 20
88.7883
 30
0.0
 10
-165.2558
 20
84.3124
 30
0.0
 10
-165.7396
 20
85.0383
 30
0.0
  0
SPLINE
  5
114
330
1F
100
AcDbEntity
  8
layer 1
 62
     7
100
AcDbSpline
210
0.0
220
0.0
230
1.0
 70
    11
 71
     3
 72
    20
 73
    16
 74
     0
 42
0.0000000001
 43
0.0000000001
 12
1.0
 22
0.0
 32
0.0
 13
1.0
 23
0.0
 33
0.0
 40
0.0
 40
0.0
 40
0.0
 40
0.0
 40
0.2
 40
0.2
 40
0.2
 40
0.2
 40
0.4
 40
0.4
 40
0.4
 40
0.4
 40
0.6
 40
0.6
 40
0.6
 40
0.6
 40
1.0
 40
1.0
 40
1.0
 40
1.0
 10
-167.6753
 20
81.0462
 30
0.0
 10
-163.0783
 20
83.5864
 30
0.0
 10
-159.5704
 20
87.0947
 30
0.0
 10
-157.3929
 20
91.2075
 30
0.0
 10
-157.3929
 20
91.2075
 30
0.0
 10
-156.9091
 20
92.1752
 30
0.0
 10
-151.4655
 20
87.4575
 30
0.0
 10
-153.4008
 20
86.6109
 30
0.0
 10
-153.4008
 20
86.6109
 30
0.0
 10
-158.2396
 20
83.9496
 30
0.0
 10
-161.0219
 20
80.5623
 30
0.0
 10
-163.1994
 20
76.6913
 30
0.0
 10
-163.1994
 20
76.6913
 30
0.0
 10
-163.9253
 20
75.6026
 30
0.0
 10
-168.4009
 20
80.4413
 30
0.0
 10
-167.6753
 20
81.0462
 30
0.0
  0
SPLINE
  5
115
330
1F
100
AcDbEntity
  8
layer 1
 62
     7
100
AcDbSpline
210
0.0
220
0.0
230
1.0
 70
    11
 71
     3
 72
    24
 73
    20
 74
     0
 42
0.0000000001
 43
0.0000000001
 12
1.0
 22
0.0
 32
0.0
 13
1.0
 23
0.0
 33
0.0
 40
0.0
 40
0.0
 40
0.0
 40
0.0
 40
0.1666666666666667
 40
0.1666666666666667
 40
0.1666666666666667
 40
0.1666666666666667
 40
0.3333333333333333
 40
0.3333333333333333
 40
0.3333333333333333
 40
0.3333333333333333
 40
0.5
 40
0.5
 40
0.5
 40
0.5
 40
0.6666666666666666
 40
0.6666666666666666
 40
0.6666666666666666
 40
0.6666666666666666
 40
1.0
 40
1.0
 40
1.0
 40
1.0
 10
-165.7396
 20
68.3443
 30
0.0
 10
-168.2802
 20
72.8202
 30
0.0
 10
-171.7881
 20
76.3285
 30
0.0
 10
-175.9013
 20
78.5059
 30
0.0
 10
-175.9013
 20
78.5059
 30
0.0
 10
-175.9013
 20
78.5059
 30
0.0
 10
-175.9013
 20
79.4736
 30
0.0
 10
-175.9013
 20
79.4736
 30
0.0
 10
-175.9013
 20
79.4736
 30
0.0
 10
-175.0543
 20
81.0462
 30
0.0
 10
-172.0302
 20
84.0703
 30
0.0
 10
-171.4253
 20
82.4977
 30
0.0
 10
-171.4253
 20
82.4977
 30
0.0
 10
-168.764
 20
77.659
 30
0.0
 10
-165.2558
 20
74.8766
 30
0.0
 10
-161.5058
 20
72.8202
 30
0.0
 10
-161.5058
 20
72.8202
 30
0.0
 10
-160.417
 20
72.0943
 30
0.0
 10
-165.2558
 20
67.4976
 30
0.0
 10
-165.7396
 20
68.3443
 30
0.0
  0
SPLINE
  5
116
330
1F
100
AcDbEntity
  8
layer 1
 62
     7
100
AcDbSpline
210
0.0
220
0.0
230
1.0
 70
    11
 71
     3
 72
    20
 73
    16
 74
     0
 42
0.0000000001
 43
0.0000000001
 12
1.0
 22
0.0
 32
0.0
 13
1.0
 23
0.0
 33
0.0
 40
0.0
 40
0.0
 40
0.0
 40
0.0
 40
0.2
 40
0.2
 40
0.2
 40
0.2
 40
0.4
 40
0.4
 40
0.4
 40
0.4
 40
0.6
 40
0.6
 40
0.6
 40
0.6
 40
1.0
 40
1.0
 40
1.0
 40
1.0
 10
-167.6753
 20
64.2315
 30
0.0
 10
-163.0783
 20
66.7717
 30
0.0
 10
-159.5704
 20
70.28
 30
0.0
 10
-157.3929
 20
74.5138
 30
0.0
 10
-157.3929
 20
74.5138
 30
0.0
 10
-156.9091
 20
75.4815
 30
0.0
 10
-151.4655
 20
70.6428
 30
0.0
 10
-153.4008
 20
69.9168
 30
0.0
 10
-153.4008
 20
69.9168
 30
0.0
 10
-158.2396
 20
67.2555
 30
0.0
 10
-161.0219
 20
63.7476
 30
0.0
 10
-163.1994
 20
59.9976
 30
0.0
 10
-163.1994
 20
59.9976
 30
0.0
 10
-163.9253
 20
58.9089
 30
0.0
 10
-168.4009
 20
63.6266
 30
0.0
 10
-167.6753
 20
64.2315
 30
0.0
  0
SPLINE
  5
117
330
1F
100
AcDbEntity
  8
layer 1
 62
     7
100
AcDbSpline
210
0.0
220
0.0
230
1.0
 70
    11
 71
     3
 72
    24
 73
    20
 74
     0
 42
0.0000000001
 43
0.0000000001
 12
1.0
 22
0.0
 32
0.0
 13
1.0
 23
0.0
 33
0.0
 40
0.0
 40
0.0
 40
0.0
 40
0.0
 40
0.1666666666666667
 40
0.1666666666666667
 40
0.1666666666666667
 40
0.1666666666666667
 40
0.3333333333333333
 40
0.3333333333333333
 40
0.3333333333333333
 40
0.3333333333333333
 40
0.5
 40
0.5
 40
0.5
 40
0.5
 40
0.6666666666666666
 40
0.6666666666666666
 40
0.6666666666666666
 40
0.6666666666666666
 40
1.0
 40
1.0
 40
1.0
 40
1.0
 10
-165.7396
 20
51.5296
 30
0.0
 10
-168.2802
 20
56.1266
 30
0.0
 10
-171.7881
 20
59.5134
 30
0.0
 10
-175.9013
 20
61.6909
 30
0.0
 10
-175.9013
 20
61.6909
 30
0.0
 10
-175.9013
 20
61.6909
 30
0.0
 10
-175.9013
 20
62.6589
 30
0.0
 10
-175.9013
 20
62.6589
 30
0.0
 10
-175.9013
 20
62.6589
 30
0.0
 10
-175.0543
 20
64.3525
 30
0.0
 10
-172.0302
 20
67.2555
 30
0.0
 10
-171.4253
 20
65.804
 30
0.0
 10
-171.4253
 20
65.804
 30
0.0
 10
-168.764
 20
60.8442
 30
0.0
 10
-165.2558
 20
58.0619
 30
0.0
 10
-161.5058
 20
56.0055
 30
0.0
 10
-161.5058
 20
56.0055
 30
0.0
 10
-160.417
 20
55.2796
 30
0.0
 10
-165.2558
 20
50.8036
 30
0.0
 10
-165.7396
 20
51.5296
 30
0.0
  0
SPLINE
  5
118
330
1F
100
AcDbEntity
  8
layer 1
 62
     7
100
AcDbSpline
210
0.0
220
0.0
230
1.0
 70
    11
 71
     3
 72
    20
 73
    16
 74
     0
 42
0.0000000001
 43
0.0000000001
 12
1.0
 22
0.0
 32
0.0
 13
1.0
 23
0.0
 33
0.0
 40
0.0
 40
0.0
 40
0.0
 40
0.0
 40
0.2
 40
0.2
 40
0.2
 40
0.2
 40
0.4
 40
0.4
 40
0.4
 40
0.4
 40
0.6
 40
0.6
 40
0.6
 40
0.6
 40
1.0
 40
1.0
 40
1.0
 40
1.0
 10
-167.6753
 20
47.4168
 30
0.0
 10
-163.0783
 20
49.957
 30
0.0
 10
-159.5704
 20
53.586
 30
0.0
 10
-157.3929
 20
57.6991
 30
0.0
 10
-157.3929
 20
57.6991
 30
0.0
 10
-156.9091
 20
58.6668
 30
0.0
 10
-151.4655
 20
53.9491
 30
0.0
 10
-153.4008
 20
53.1021
 30
0.0
 10
-153.4008
 20
53.1021
 30
0.0
 10
-158.2396
 20
50.4408
 30
0.0
 10
-161.0219
 20
47.0536
 30
0.0
 10
-163.1994
 20
43.1826
 30
0.0
 10
-163.1994
 20
43.1826
 30
0.0
 10
-163.9253
 20
42.0938
 30
0.0
 10
-168.4009
 20
46.9329
 30
0.0
 10
-167.6753
 20
47.4168
 30
0.0
  0
SPLINE
  5
119
330
1F
100
AcDbEntity
  8
layer 1
 62
     7
100
AcDbSpline
210
0.0
220
0.0
230
1.0
 70
    11
 71
     3
 72
    24
 73
    20
 74
     0
 42
0.0000000001
 43
0.0000000001
 12
1.0
 22
0.0
 32
0.0
 13
1.0
 23
0.0
 33
0.0
 40
0.0
 40
0.0
 40
0.0
 40
0.0
 40
0.1666666666666667
 40
0.1666666666666667
 40
0.1666666666666667
 40
0.1666666666666667
 40
0.3333333333333333
 40
0.3333333333333333
 40
0.3333333333333333
 40
0.3333333333333333
 40
0.5
 40
0.5
 40
0.5
 40
0.5
 40
0.6666666666666666
 40
0.6666666666666666
 40
0.6666666666666666
 40
0.6666666666666666
 40
1.0
 40
1.0
 40
1.0
 40
1.0
 10
-165.7396
 20
34.7148
 30
0.0
 10
-168.2802
 20
39.3118
 30
0.0
 10
-171.7881
 20
42.6987
 30
0.0
 10
-175.9013
 20
44.8762
 30
0.0
 10
-175.9013
 20
44.8762
 30
0.0
 10
-175.9013
 20
44.8762
 30
0.0
 10
-175.9013
 20
45.9649
 30
0.0
 10
-175.9013
 20
45.9649
 30
0.0
 10
-175.9013
 20
45.9649
 30
0.0
 10
-175.0543
 20
47.5375
 30
0.0
 10
-172.0302
 20
50.5619
 30
0.0
 10
-171.4253
 20
48.9893
 30
0.0
 10
-171.4253
 20
48.9893
 30
0.0
 10
-168.764
 20
44.1506
 30
0.0
 10
-165.2558
 20
41.3682
 30
0.0
 10
-161.5058
 20
39.1908
 30
0.0
 10
-161.5058
 20
39.1908
 30
0.0
 10
-160.417
 20
38.4649
 30
0.0
 10
-165.2558
 20
33.9889
 30
0.0
 10
-165.7396
 20
34.7148
 30
0.0
  0
SPLINE
  5
11A
330
1F
100
AcDbEntity
  8
layer 1
 62
     7
100
AcDbSpline
210
0.0
220
0.0
230
1.0
 70
    11
 71
     3
 72
    20
 73
    16
 74
     0
 42
0.0000000001
 43
0.0000000001
 12
1.0
 22
0.0
 32
0.0
 13
1.0
 23
0.0
 33
0.0
 40
0.0
 40
0.0
 40
0.0
 40
0.0
 40
0.2
 40
0.2
 40
0.2
 40
0.2
 40
0.4
 40
0.4
 40
0.4
 40
0.4
 40
0.6
 40
0.6
 40
0.6
 40
0.6
 40
1.0
 40
1.0
 40
1.0
 40
1.0
 10
-167.6753
 20
30.7227
 30
0.0
 10
-163.0783
 20
33.2633
 30
0.0
 10
-159.5704
 20
36.7712
 30
0.0
 10
-157.3929
 20
41.0051
 30
0.0
 10
-157.3929
 20
41.0051
 30
0.0
 10
-156.9091
 20
41.9731
 30
0.0
 10
-151.4655
 20
37.1344
 30
0.0
 10
-153.4008
 20
36.2874
 30
0.0
 10
-153.4008
 20
36.2874
 30
0.0
 10
-158.2396
 20
33.6261
 30
0.0
 10
-161.0219
 20
30.2389
 30
0.0
 10
-163.1994
 20
26.4889
 30
0.0
 10
-163.1994
 20
26.4889
 30
0.0
 10
-163.9253
 20
25.2791
 30
0.0
 10
-168.4009
 20
30.1179
 30
0.0
 10
-167.6753
 20
30.7227
 30
0.0
  0
SPLINE
  5
11B
330
1F
100
AcDbEntity
  8
layer 1
 62
     7
100
AcDbSpline
210
0.0
220
0.0
230
1.0
 70
    11
 71
     3
 72
    24
 73
    20
 74
     0
 42
0.0000000001
 43
0.0000000001
 12
1.0
 22
0.0
 32
0.0
 13
1.0
 23
0.0
 33
0.0
 40
0.0
 40
0.0
 40
0.0
 40
0.0
 40
0.1666666666666667
 40
0.1666666666666667
 40
0.1666666666666667
 40
0.1666666666666667
 40
0.3333333333333333
 40
0.3333333333333333
 40
0.3333333333333333
 40
0.3333333333333333
 40
0.5
 40
0.5
 40
0.5
 40
0.5
 40
0.6666666666666666
 40
0.6666666666666666
 40
0.6666666666666666
 40
0.6666666666666666
 40
1.0
 40
1.0
 40
1.0
 40
1.0
 10
-165.7396
 20
18.0212
 30
0.0
 10
-168.2802
 20
22.6178
 30
0.0
 10
-171.7881
 20
26.005
 30
0.0
 10
-175.9013
 20
28.1825
 30
0.0
 10
-175.9013
 20
28.1825
 30
0.0
 10
-175.9013
 20
28.1825
 30
0.0
 10
-175.9013
 20
29.1502
 30
0.0
 10
-175.9013
 20
29.1502
 30
0.0
 10
-175.9013
 20
29.1502
 30
0.0
 10
-175.0543
 20
30.8438
 30
0.0
 10
-172.0302
 20
33.7472
 30
0.0
 10
-171.4253
 20
32.1746
 30
0.0
 10
-171.4253
 20
32.1746
 30
0.0
 10
-168.764
 20
27.3359
 30
0.0
 10
-165.2558
 20
24.5535
 30
0.0
 10
-161.5058
 20
22.4968
 30
0.0
 10
-161.5058
 20
22.4968
 30
0.0
 10
-160.417
 20
21.7712
 30
0.0
 10
-165.2558
 20
17.1742
 30
0.0
 10
-165.7396
 20
18.0212
 30
0.0
  0
SPLINE
  5
11C
330
1F
100
AcDbEntity
  8
layer 1
 62
     7
100
AcDbSpline
210
0.0
220
0.0
230
1.0
 70
    11
 71
     3
 72
    20
 73
    16
 74
     0
 42
0.0000000001
 43
0.0000000001
 12
1.0
 22
0.0
 32
0.0
 13
1.0
 23
0.0
 33
0.0
 40
0.0
 40
0.0
 40
0.0
 40
0.0
 40
0.2
 40
0.2
 40
0.2
 40
0.2
 40
0.4
 40
0.4
 40
0.4
 40
0.4
 40
0.6
 40
0.6
 40
0.6
 40
0.6
 40
1.0
 40
1.0
 40
1.0
 40
1.0
 10
-167.6753
 20
13.908
 30
0.0
 10
-163.0783
 20
16.4486
 30
0.0
 10
-159.5704
 20
19.9565
 30
0.0
 10
-157.3929
 20
24.1904
 30
0.0
 10
-157.3929
 20
24.1904
 30
0.0
 10
-156.9091
 20
25.1584
 30
0.0
 10
-151.4655
 20
20.3193
 30
0.0
 10
-153.4008
 20
19.5937
 30
0.0
 10
-153.4008
 20
19.5937
 30
0.0
 10
-158.2396
 20
16.9325
 30
0.0
 10
-161.0219
 20
13.4242
 30
0.0
 10
-163.1994
 20
9.6742
 30
0.0
 10
-163.1994
 20
9.6742
 30
0.0
 10
-163.9253
 20
8.5854
 30
0.0
 10
-168.4009
 20
13.4242
 30
0.0
 10
-167.6753
 20
13.908
 30
0.0
  0
SPLINE
  5
11D
330
1F
100
AcDbEntity
  8
layer 1
 62
     7
100
AcDbSpline
210
0.0
220
0.0
230
1.0
 70
    11
 71
     3
 72
    24
 73
    20
 74
     0
 42
0.0000000001
 43
0.0000000001
 12
1.0
 22
0.0
 32
0.0
 13
1.0
 23
0.0
 33
0.0
 40
0.0
 40
0.0
 40
0.0
 40
0.0
 40
0.1666666666666667
 40
0.1666666666666667
 40
0.1666666666666667
 40
0.1666666666666667
 40
0.3333333333333333
 40
0.3333333333333333
 40
0.3333333333333333
 40
0.3333333333333333
 40
0.5
 40
0.5
 40
0.5
 40
0.5
 40
0.6666666666666666
 40
0.6666666666666666
 40
0.6666666666666666
 40
0.6666666666666666
 40
1.0
 40
1.0
 40
1.0
 40
1.0
 10
-165.7396
 20
1.2065
 30
0.0
 10
-168.2802
 20
5.8031
 30
0.0
 10
-171.7881
 20
9.1903
 30
0.0
 10
-175.9013
 20
11.3678
 30
0.0
 10
-175.9013
 20
11.3678
 30
0.0
 10
-175.9013
 20
11.3678
 30
0.0
 10
-175.9013
 20
12.3355
 30
0.0
 10
-175.9013
 20
12.3355
 30
0.0
 10
-175.9013
 20
12.3355
 30
0.0
 10
-175.0543
 20
14.0291
 30
0.0
 10
-172.0302
 20
17.0532
 30
0.0
 10
-171.4253
 20
15.4806
 30
0.0
 10
-171.4253
 20
15.4806
 30
0.0
 10
-168.764
 20
10.6418
 30
0.0
 10
-165.2558
 20
7.8595
 30
0.0
 10
-161.5058
 20
5.6821
 30
0.0
 10
-161.5058
 20
5.6821
 30
0.0
 10
-160.417
 20
4.9565
 30
0.0
 10
-165.2558
 20
0.4805
 30
0.0
 10
-165.7396
 20
1.2065
 30
0.0
  0
SPLINE
  5
11E
330
1F
100
AcDbEntity
  8
layer 1
 62
     7
100
AcDbSpline
210
0.0
220
0.0
230
1.0
 70
    11
 71
     3
 72
    20
 73
    16
 74
     0
 42
0.0000000001
 43
0.0000000001
 12
1.0
 22
0.0
 32
0.0
 13
1.0
 23
0.0
 33
0.0
 40
0.0
 40
0.0
 40
0.0
 40
0.0
 40
0.2
 40
0.2
 40
0.2
 40
0.2
 40
0.4
 40
0.4
 40
0.4
 40
0.4
 40
0.6
 40
0.6
 40
0.6
 40
0.6
 40
1.0
 40
1.0
 40
1.0
 40
1.0
 10
-167.6753
 20
-2.7856
 30
0.0
 10
-163.0783
 20
-0.3664
 30
0.0
 10
-159.5704
 20
3.2629
 30
0.0
 10
-157.3929
 20
7.3757
 30
0.0
 10
-157.3929
 20
7.3757
 30
0.0
 10
-156.9091
 20
8.3434
 30
0.0
 10
-151.4655
 20
3.6257
 30
0.0
 10
-153.4008
 20
2.779
 30
0.0
 10
-153.4008
 20
2.779
 30
0.0
 10
-158.2396
 20
0.1177
 30
0.0
 10
-161.0219
 20
-3.2695
 30
0.0
 10
-163.1994
 20
-7.1405
 30
0.0
 10
-163.1994
 20
-7.1405
 30
0.0
 10
-163.9253
 20
-8.2293
 30
0.0
 10
-168.4009
 20
-3.3905
 30
0.0
 10
-167.6753
 20
-2.7856
 30
0.0
  0
SPLINE
  5
11F
330
1F
100
AcDbEntity
  8
layer 1
 62
     7
100
AcDbSpline
210
0.0
220
0.0
230
1.0
 70
    11
 71
     3
 72
    24
 73
    20
 74
     0
 42
0.0000000001
 43
0.0000000001
 12
1.0
 22
0.0
 32
0.0
 13
1.0
 23
0.0
 33
0.0
 40
0.0
 40
0.0
 40
0.0
 40
0.0
 40
0.1666666666666667
 40
0.1666666666666667
 40
0.1666666666666667
 40
0.1666666666666667
 40
0.3333333333333333
 40
0.3333333333333333
 40
0.3333333333333333
 40
0.3333333333333333
 40
0.5
 40
0.5
 40
0.5
 40
0.5
 40
0.6666666666666666
 40
0.6666666666666666
 40
0.6666666666666666
 40
0.6666666666666666
 40
1.0
 40
1.0
 40
1.0
 40
1.0
 10
-165.7396
 20
-15.4876
 30
0.0
 10
-168.2802
 20
-11.0116
 30
0.0
 10
-171.7881
 20
-7.5033
 30
0.0
 10
-175.9013
 20
-5.4469
 30
0.0
 10
-175.9013
 20
-5.4469
 30
0.0
 10
-175.9013
 20
-5.4469
 30
0.0
 10
-175.9013
 20
-4.3582
 30
0.0
 10
-175.9013
 20
-4.3582
 30
0.0
 10
-175.9013
 20
-4.3582
 30
0.0
 10
-175.0543
 20
-2.7856
 30
0.0
 10
-172.0302
 20
0.2384
 30
0.0
 10
-171.4253
 20
-1.3341
 30
0.0
 10
-171.4253
 20
-1.3341
 30
0.0
 10
-168.764
 20
-6.1729
 30
0.0
 10
-165.2558
 20
-8.9552
 30
0.0
 10
-161.5058
 20
-11.1327
 30
0.0
 10
-161.5058
 20
-11.1327
 30
0.0
 10
-160.417
 20
-11.7375
 30
0.0
 10
-165.2558
 20
-16.3342
 30
0.0
 10
-165.7396
 20
-15.4876
 30
0.0
  0
SPLINE
  5
120
330
1F
100
AcDbEntity
  8
layer 1
 62
     7
100
AcDbSpline
210
0.0
220
0.0
230
1.0
 70
    11
 71
     3
 72
    20
 73
    16
 74
     0
 42
0.0000000001
 43
0.0000000001
 12
1.0
 22
0.0
 32
0.0
 13
1.0
 23
0.0
 33
0.0
 40
0.0
 40
0.0
 40
0.0
 40
0.0
 40
0.2
 40
0.2
 40
0.2
 40
0.2
 40
0.4
 40
0.4
 40
0.4
 40
0.4
 40
0.6
 40
0.6
 40
0.6
 40
0.6
 40
1.0
 40
1.0
 40
1.0
 40
1.0
 10
-167.6753
 20
-19.6004
 30
0.0
 10
-163.0783
 20
-17.0601
 30
0.0
 10
-159.5704
 20
-13.5518
 30
0.0
 10
-157.3929
 20
-9.318
 30
0.0
 10
-157.3929
 20
-9.318
 30
0.0
 10
-156.9091
 20
-8.3503
 30
0.0
 10
-151.4655
 20
-13.1891
 30
0.0
 10
-153.4008
 20
-14.0357
 30
0.0
 10
-153.4008
 20
-14.0357
 30
0.0
 10
-158.2396
 20
-16.5763
 30
0.0
 10
-161.0219
 20
-20.0842
 30
0.0
 10
-163.1994
 20
-23.8342
 30
0.0
 10
-163.1994
 20
-23.8342
 30
0.0
 10
-163.9253
 20
-25.044
 30
0.0
 10
-168.4009
 20
-20.2052
 30
0.0
 10
-167.6753
 20
-19.6004
 30
0.0
  0
SPLINE
  5
121
330
1F
100
AcDbEntity
  8
layer 1
 62
     7
100
AcDbSpline
210
0.0
220
0.0
230
1.0
 70
    11
 71
     3
 72
    24
 73
    20
 74
     0
 42
0.0000000001
 43
0.0000000001
 12
1.0
 22
0.0
 32
0.0
 13
1.0
 23
0.0
 33
0.0
 40
0.0
 40
0.0
 40
0.0
 40
0.0
 40
0.1666666666666667
 40
0.1666666666666667
 40
0.1666666666666667
 40
0.1666666666666667
 40
0.3333333333333333
 40
0.3333333333333333
 40
0.3333333333333333
 40
0.3333333333333333
 40
0.5
 40
0.5
 40
0.5
 40
0.5
 40
0.6666666666666666
 40
0.6666666666666666
 40
0.6666666666666666
 40
0.6666666666666666
 40
1.0
 40
1.0
 40
1.0
 40
1.0
 10
-165.7396
 20
-32.3023
 30
0.0
 10
-168.2802
 20
-27.7053
 30
0.0
 10
-171.7881
 20
-24.3184
 30
0.0
 10
-175.9013
 20
-22.1409
 30
0.0
 10
-175.9013
 20
-22.1409
 30
0.0
 10
-175.9013
 20
-22.1409
 30
0.0
 10
-175.9013
 20
-21.1729
 30
0.0
 10
-175.9013
 20
-21.1729
 30
0.0
 10
-175.9013
 20
-21.1729
 30
0.0
 10
-175.0543
 20
-19.4793
 30
0.0
 10
-172.0302
 20
-16.5763
 30
0.0
 10
-171.4253
 20
-18.0278
 30
0.0
 10
-171.4253
 20
-18.0278
 30
0.0
 10
-168.764
 20
-22.9876
 30
0.0
 10
-165.2558
 20
-25.7699
 30
0.0
 10
-161.5058
 20
-27.8263
 30
0.0
 10
-161.5058
 20
-27.8263
 30
0.0
 10
-160.417
 20
-28.5523
 30
0.0
 10
-165.2558
 20
-33.1489
 30
0.0
 10
-165.7396
 20
-32.3023
 30
0.0
  0
SPLINE
  5
122
330
1F
100
AcDbEntity
  8
layer 1
 62
     7
100
AcDbSpline
210
0.0
220
0.0
230
1.0
 70
    11
 71
     3
 72
    20
 73
    16
 74
     0
 42
0.0000000001
 43
0.0000000001
 12
1.0
 22
0.0
 32
0.0
 13
1.0
 23
0.0
 33
0.0
 40
0.0
 40
0.0
 40
0.0
 40
0.0
 40
0.2
 40
0.2
 40
0.2
 40
0.2
 40
0.4
 40
0.4
 40
0.4
 40
0.4
 40
0.6
 40
0.6
 40
0.6
 40
0.6
 40
1.0
 40
1.0
 40
1.0
 40
1.0
 10
-167.6753
 20
-36.4151
 30
0.0
 10
-163.0783
 20
-33.8748
 30
0.0
 10
-159.5704
 20
-30.2459
 30
0.0
 10
-157.3929
 20
-26.1327
 30
0.0
 10
-157.3929
 20
-26.1327
 30
0.0
 10
-156.9091
 20
-25.165
 30
0.0
 10
-151.4655
 20
-29.8827
 30
0.0
 10
-153.4008
 20
-30.7297
 30
0.0
 10
-153.4008
 20
-30.7297
 30
0.0
 10
-158.2396
 20
-33.391
 30
0.0
 10
-161.0219
 20
-36.8989
 30
0.0
 10
-163.1994
 20
-40.6493
 30
0.0
 10
-163.1994
 20
-40.6493
 30
0.0
 10
-163.9253
 20
-41.738
 30
0.0
 10
-168.4009
 20
-36.8989
 30
0.0
 10
-167.6753
 20
-36.4151
 30
0.0
  0
SPLINE
  5
123
330
1F
100
AcDbEntity
  8
layer 1
 62
     7
100
AcDbSpline
210
0.0
220
0.0
230
1.0
 70
    11
 71
     3
 72
    24
 73
    20
 74
     0
 42
0.0000000001
 43
0.0000000001
 12
1.0
 22
0.0
 32
0.0
 13
1.0
 23
0.0
 33
0.0
 40
0.0
 40
0.0
 40
0.0
 40
0.0
 40
0.1666666666666667
 40
0.1666666666666667
 40
0.1666666666666667
 40
0.1666666666666667
 40
0.3333333333333333
 40
0.3333333333333333
 40
0.3333333333333333
 40
0.3333333333333333
 40
0.5
 40
0.5
 40
0.5
 40
0.5
 40
0.6666666666666666
 40
0.6666666666666666
 40
0.6666666666666666
 40
0.6666666666666666
 40
1.0
 40
1.0
 40
1.0
 40
1.0
 10
-165.7396
 20
-49.117
 30
0.0
 10
-168.2802
 20
-44.52
 30
0.0
 10
-171.7881
 20
-41.1331
 30
0.0
 10
-175.9013
 20
-38.9557
 30
0.0
 10
-175.9013
 20
-38.9557
 30
0.0
 10
-175.9013
 20
-38.9557
 30
0.0
 10
-175.9013
 20
-37.8669
 30
0.0
 10
-175.9013
 20
-37.8669
 30
0.0
 10
-175.9013
 20
-37.8669
 30
0.0
 10
-175.0543
 20
-36.2944
 30
0.0
 10
-172.0302
 20
-33.2699
 30
0.0
 10
-171.4253
 20
-34.8425
 30
0.0
 10
-171.4253
 20
-34.8425
 30
0.0
 10
-168.764
 20
-39.6812
 30
0.0
 10
-165.2558
 20
-42.4636
 30
0.0
 10
-161.5058
 20
-44.641
 30
0.0
 10
-161.5058
 20
-44.641
 30
0.0
 10
-160.417
 20
-45.367
 30
0.0
 10
-165.2558
 20
-49.8429
 30
0.0
 10
-165.7396
 20
-49.117
 30
0.0
  0
SPLINE
  5
124
330
1F
100
AcDbEntity
  8
layer 1
 62
     7
100
AcDbSpline
210
0.0
220
0.0
230
1.0
 70
    11
 71
     3
 72
    20
 73
    16
 74
     0
 42
0.0000000001
 43
0.0000000001
 12
1.0
 22
0.0
 32
0.0
 13
1.0
 23
0.0
 33
0.0
 40
0.0
 40
0.0
 40
0.0
 40
0.0
 40
0.2
 40
0.2
 40
0.2
 40
0.2
 40
0.4
 40
0.4
 40
0.4
 40
0.4
 40
0.6
 40
0.6
 40
0.6
 40
0.6
 40
1.0
 40
1.0
 40
1.0
 40
1.0
 10
-167.6753
 20
-53.1091
 30
0.0
 10
-163.0783
 20
-50.5685
 30
0.0
 10
-159.5704
 20
-47.0606
 30
0.0
 10
-157.3929
 20
-42.9474
 30
0.0
 10
-157.3929
 20
-42.9474
 30
0.0
 10
-156.9091
 20
-41.9797
 30
0.0
 10
-151.4655
 20
-46.6974
 30
0.0
 10
-153.4008
 20
-47.5444
 30
0.0
 10
-153.4008
 20
-47.5444
 30
0.0
 10
-158.2396
 20
-50.2057
 30
0.0
 10
-161.0219
 20
-53.5929
 30
0.0
 10
-163.1994
 20
-57.464
 30
0.0
 10
-163.1994
 20
-57.464
 30
0.0
 10
-163.9253
 20
-58.5527
 30
0.0
 10
-168.4009
 20
-53.714
 30
0.0
 10
-167.6753
 20
-53.1091
 30
0.0
  0
SPLINE
  5
125
330
1F
100
AcDbEntity
  8
layer 1
 62
     7
100
AcDbSpline
210
0.0
220
0.0
230
1.0
 70
    11
 71
     3
 72
    24
 73
    20
 74
     0
 42
0.0000000001
 43
0.0000000001
 12
1.0
 22
0.0
 32
0.0
 13
1.0
 23
0.0
 33
0.0
 40
0.0
 40
0.0
 40
0.0
 40
0.0
 40
0.1666666666666667
 40
0.1666666666666667
 40
0.1666666666666667
 40
0.1666666666666667
 40
0.3333333333333333
 40
0.3333333333333333
 40
0.3333333333333333
 40
0.3333333333333333
 40
0.5
 40
0.5
 40
0.5
 40
0.5
 40
0.6666666666666666
 40
0.6666666666666666
 40
0.6666666666666666
 40
0.6666666666666666
 40
1.0
 40
1.0
 40
1.0
 40
1.0
 10
-165.7396
 20
-65.8106
 30
0.0
 10
-168.2802
 20
-61.335
 30
0.0
 10
-171.7881
 20
-57.8268
 30
0.0
 10
-175.9013
 20
-55.6493
 30
0.0
 10
-175.9013
 20
-55.6493
 30
0.0
 10
-175.9013
 20
-55.6493
 30
0.0
 10
-175.9013
 20
-54.6817
 30
0.0
 10
-175.9013
 20
-54.6817
 30
0.0
 10
-175.9013
 20
-54.6817
 30
0.0
 10
-175.0543
 20
-53.1091
 30
0.0
 10
-172.0302
 20
-50.0847
 30
0.0
 10
-171.4253
 20
-51.6572
 30
0.0
 10
-171.4253
 20
-51.6572
 30
0.0
 10
-168.764
 20
-56.496
 30
0.0
 10
-165.2558
 20
-59.2783
 30
0.0
 10
-161.5058
 20
-61.335
 30
0.0
 10
-161.5058
 20
-61.335
 30
0.0
 10
-160.417
 20
-62.0606
 30
0.0
 10
-165.2558
 20
-66.6576
 30
0.0
 10
-165.7396
 20
-65.8106
 30
0.0
  0
SPLINE
  5
126
330
1F
100
AcDbEntity
  8
layer 1
 62
     7
100
AcDbSpline
210
0.0
220
0.0
230
1.0
 70
    11
 71
     3
 72
    20
 73
    16
 74
     0
 42
0.0000000001
 43
0.0000000001
 12
1.0
 22
0.0
 32
0.0
 13
1.0
 23
0.0
 33
0.0
 40
0.0
 40
0.0
 40
0.0
 40
0.0
 40
0.2
 40
0.2
 40
0.2
 40
0.2
 40
0.4
 40
0.4
 40
0.4
 40
0.4
 40
0.6
 40
0.6
 40
0.6
 40
0.6
 40
1.0
 40
1.0
 40
1.0
 40
1.0
 10
-167.6753
 20
-69.9238
 30
0.0
 10
-163.0783
 20
-67.3832
 30
0.0
 10
-159.5704
 20
-63.8753
 30
0.0
 10
-157.3929
 20
-59.6414
 30
0.0
 10
-157.3929
 20
-59.6414
 30
0.0
 10
-156.9091
 20
-58.6734
 30
0.0
 10
-151.4655
 20
-63.5125
 30
0.0
 10
-153.4008
 20
-64.2381
 30
0.0
 10
-153.4008
 20
-64.2381
 30
0.0
 10
-158.2396
 20
-66.8994
 30
0.0
 10
-161.0219
 20
-70.4076
 30
0.0
 10
-163.1994
 20
-74.1577
 30
0.0
 10
-163.1994
 20
-74.1577
 30
0.0
 10
-163.9253
 20
-75.2464
 30
0.0
 10
-168.4009
 20
-70.5287
 30
0.0
 10
-167.6753
 20
-69.9238
 30
0.0
  0
SPLINE
  5
127
330
1F
100
AcDbEntity
  8
layer 1
 62
     7
100
AcDbSpline
210
0.0
220
0.0
230
1.0
 70
    11
 71
     3
 72
    24
 73
    20
 74
     0
 42
0.0000000001
 43
0.0000000001
 12
1.0
 22
0.0
 32
0.0
 13
1.0
 23
0.0
 33
0.0
 40
0.0
 40
0.0
 40
0.0
 40
0.0
 40
0.1666666666666667
 40
0.1666666666666667
 40
0.1666666666666667
 40
0.1666666666666667
 40
0.3333333333333333
 40
0.3333333333333333
 40
0.3333333333333333
 40
0.3333333333333333
 40
0.5
 40
0.5
 40
0.5
 40
0.5
 40
0.6666666666666666
 40
0.6666666666666666
 40
0.6666666666666666
 40
0.6666666666666666
 40
1.0
 40
1.0
 40
1.0
 40
1.0
 10
-165.7396
 20
-82.6254
 30
0.0
 10
-168.2802
 20
-78.0287
 30
0.0
 10
-171.7881
 20
-74.6415
 30
0.0
 10
-175.9013
 20
-72.464
 30
0.0
 10
-175.9013
 20
-72.464
 30
0.0
 10
-175.9013
 20
-72.464
 30
0.0
 10
-175.9013
 20
-71.4964
 30
0.0
 10
-175.9013
 20
-71.4964
 30
0.0
 10
-175.9013
 20
-71.4964
 30
0.0
 10
-175.0543
 20
-69.8028
 30
0.0
 10
-172.0302
 20
-66.8994
 30
0.0
 10
-171.4253
 20
-68.3512
 30
0.0
 10
-171.4253
 20
-68.3512
 30
0.0
 10
-168.764
 20
-73.311
 30
0.0
 10
-165.2558
 20
-76.093
 30
0.0
 10
-161.5058
 20
-78.1498
 30
0.0
 10
-161.5058
 20
-78.1498
 30
0.0
 10
-160.417
 20
-78.8753
 30
0.0
 10
-165.2558
 20
-83.3513
 30
0.0
 10
-165.7396
 20
-82.6254
 30
0.0
  0
SPLINE
  5
128
330
1F
100
AcDbEntity
  8
layer 1
 62
     7
100
AcDbSpline
210
0.0
220
0.0
230
1.0
 70
    11
 71
     3
 72
    20
 73
    16
 74
     0
 42
0.0000000001
 43
0.0000000001
 12
1.0
 22
0.0
 32
0.0
 13
1.0
 23
0.0
 33
0.0
 40
0.0
 40
0.0
 40
0.0
 40
0.0
 40
0.2
 40
0.2
 40
0.2
 40
0.2
 40
0.4
 40
0.4
 40
0.4
 40
0.4
 40
0.6
 40
0.6
 40
0.6
 40
0.6
 40
1.0
 40
1.0
 40
1.0
 40
1.0
 10
-167.6753
 20
-86.7385
 30
0.0
 10
-163.0783
 20
-84.1983
 30
0.0
 10
-159.5704
 20
-80.569
 30
0.0
 10
-157.3929
 20
-76.4562
 30
0.0
 10
-157.3929
 20
-76.4562
 30
0.0
 10
-156.9091
 20
-75.4885
 30
0.0
 10
-151.4655
 20
-80.2062
 30
0.0
 10
-153.4008
 20
-81.0528
 30
0.0
 10
-153.4008
 20
-81.0528
 30
0.0
 10
-158.2396
 20
-83.7141
 30
0.0
 10
-161.0219
 20
-87.1013
 30
0.0
 10
-163.1994
 20
-90.9724
 30
0.0
 10
-163.1994
 20
-90.9724
 30
0.0
 10
-163.9253
 20
-92.0611
 30
0.0
 10
-168.4009
 20
-87.2224
 30
0.0
 10
-167.6753
 20
-86.7385
 30
0.0
  0
SPLINE
  5
129
330
1F
100
AcDbEntity
  8
layer 1
 62
     7
100
AcDbSpline
210
0.0
220
0.0
230
1.0
 70
    11
 71
     3
 72
    24
 73
    20
 74
     0
 42
0.0000000001
 43
0.0000000001
 12
1.0
 22
0.0
 32
0.0
 13
1.0
 23
0.0
 33
0.0
 40
0.0
 40
0.0
 40
0.0
 40
0.0
 40
0.1666666666666667
 40
0.1666666666666667
 40
0.1666666666666667
 40
0.1666666666666667
 40
0.3333333333333333
 40
0.3333333333333333
 40
0.3333333333333333
 40
0.3333333333333333
 40
0.5
 40
0.5
 40
0.5
 40
0.5
 40
0.6666666666666666
 40
0.6666666666666666
 40
0.6666666666666666
 40
0.6666666666666666
 40
1.0
 40
1.0
 40
1.0
 40
1.0
 10
-165.7396
 20
-99.4404
 30
0.0
 10
-168.2802
 20
-94.8434
 30
0.0
 10
-171.7881
 20
-91.4562
 30
0.0
 10
-175.9013
 20
-89.2788
 30
0.0
 10
-175.9013
 20
-89.2788
 30
0.0
 10
-175.9013
 20
-89.2788
 30
0.0
 10
-175.9013
 20
-88.19
 30
0.0
 10
-175.9013
 20
-88.19
 30
0.0
 10
-175.9013
 20
-88.19
 30
0.0
 10
-175.0543
 20
-86.6175
 30
0.0
 10
-172.0302
 20
-83.5934
 30
0.0
 10
-171.4253
 20
-85.166
 30
0.0
 10
-171.4253
 20
-85.166
 30
0.0
 10
-168.764
 20
-90.0047
 30
0.0
 10
-165.2558
 20
-92.787
 30
0.0
 10
-161.5058
 20
-94.9645
 30
0.0
 10
-161.5058
 20
-94.9645
 30
0.0
 10
-160.417
 20
-95.6901
 30
0.0
 10
-165.2558
 20
-100.166
 30
0.0
 10
-165.7396
 20
-99.4404
 30
0.0
  0
SPLINE
  5
12A
330
1F
100
AcDbEntity
  8
layer 1
 62
     7
100
AcDbSpline
210
0.0
220
0.0
230
1.0
 70
    11
 71
     3
 72
    20
 73
    16
 74
     0
 42
0.0000000001
 43
0.0000000001
 12
1.0
 22
0.0
 32
0.0
 13
1.0
 23
0.0
 33
0.0
 40
0.0
 40
0.0
 40
0.0
 40
0.0
 40
0.2
 40
0.2
 40
0.2
 40
0.2
 40
0.4
 40
0.4
 40
0.4
 40
0.4
 40
0.6
 40
0.6
 40
0.6
 40
0.6
 40
1.0
 40
1.0
 40
1.0
 40
1.0
 10
-167.6753
 20
-103.4322
 30
0.0
 10
-163.0783
 20
-100.8919
 30
0.0
 10
-159.5704
 20
-97.3837
 30
0.0
 10
-157.3929
 20
-93.1498
 30
0.0
 10
-157.3929
 20
-93.1498
 30
0.0
 10
-156.9091
 20
-92.1821
 30
0.0
 10
-151.4655
 20
-97.0209
 30
0.0
 10
-153.4008
 20
-97.8675
 30
0.0
 10
-153.4008
 20
-97.8675
 30
0.0
 10
-156.4249
 20
-99.4404
 30
0.0
 10
-158.6024
 20
-101.3758
 30
0.0
 10
-160.296
 20
-103.4322
 30
0.0
 10
-160.296
 20
-103.4322
 30
0.0
 10
-160.296
 20
-103.4322
 30
0.0
 10
-167.6753
 20
-103.4322
 30
0.0
 10
-167.6753
 20
-103.4322
 30
0.0
  0
SPLINE
  5
12B
330
1F
100
AcDbEntity
  8
layer 1
 62
     7
100
AcDbSpline
210
0.0
220
0.0
230
1.0
 70
    11
 71
     3
 72
    20
 73
    16
 74
     0
 42
0.0000000001
 43
0.0000000001
 12
1.0
 22
0.0
 32
0.0
 13
1.0
 23
0.0
 33
0.0
 40
0.0
 40
0.0
 40
0.0
 40
0.0
 40
0.2
 40
0.2
 40
0.2
 40
0.2
 40
0.4
 40
0.4
 40
0.4
 40
0.4
 40
0.6
 40
0.6
 40
0.6
 40
0.6
 40
1.0
 40
1.0
 40
1.0
 40
1.0
 10
-175.9013
 20
-95.9322
 30
0.0
 10
-175.2964
 20
-95.0855
 30
0.0
 10
-174.6915
 20
-94.1175
 30
0.0
 10
-174.2077
 20
-93.1498
 30
0.0
 10
-174.2077
 20
-93.1498
 30
0.0
 10
-173.7238
 20
-92.1821
 30
0.0
 10
-168.1592
 20
-97.0209
 30
0.0
 10
-170.2156
 20
-97.8675
 30
0.0
 10
-170.2156
 20
-97.8675
 30
0.0
 10
-172.5141
 20
-99.0773
 30
0.0
 10
-174.3287
 20
-100.5291
 30
0.0
 10
-175.9013
 20
-102.1017
 30
0.0
 10
-175.9013
 20
-102.1017
 30
0.0
 10
-175.9013
 20
-102.1017
 30
0.0
 10
-175.9013
 20
-95.9322
 30
0.0
 10
-175.9013
 20
-95.9322
 30
0.0
  0
SPLINE
  5
12C
330
1F
100
AcDbEntity
  8
layer 1
 62
     7
100
AcDbSpline
210
0.0
220
0.0
230
1.0
 70
    11
 71
     3
 72
    20
 73
    16
 74
     0
 42
0.0000000001
 43
0.0000000001
 12
1.0
 22
0.0
 32
0.0
 13
1.0
 23
0.0
 33
0.0
 40
0.0
 40
0.0
 40
0.0
 40
0.0
 40
0.2
 40
0.2
 40
0.2
 40
0.2
 40
0.4
 40
0.4
 40
0.4
 40
0.4
 40
0.6
 40
0.6
 40
0.6
 40
0.6
 40
1.0
 40
1.0
 40
1.0
 40
1.0
 10
-175.9013
 20
-79.2385
 30
0.0
 10
-175.2964
 20
-78.2705
 30
0.0
 10
-174.6915
 20
-77.4238
 30
0.0
 10
-174.2077
 20
-76.4562
 30
0.0
 10
-174.2077
 20
-76.4562
 30
0.0
 10
-173.7238
 20
-75.4885
 30
0.0
 10
-168.1592
 20
-80.2062
 30
0.0
 10
-170.2156
 20
-81.0528
 30
0.0
 10
-170.2156
 20
-81.0528
 30
0.0
 10
-172.5141
 20
-82.3836
 30
0.0
 10
-174.3287
 20
-83.8351
 30
0.0
 10
-175.9013
 20
-85.4077
 30
0.0
 10
-175.9013
 20
-85.4077
 30
0.0
 10
-175.9013
 20
-85.4077
 30
0.0
 10
-175.9013
 20
-79.2385
 30
0.0
 10
-175.9013
 20
-79.2385
 30
0.0
  0
SPLINE
  5
12D
330
1F
100
AcDbEntity
  8
layer 1
 62
     7
100
AcDbSpline
210
0.0
220
0.0
230
1.0
 70
    11
 71
     3
 72
    20
 73
    16
 74
     0
 42
0.0000000001
 43
0.0000000001
 12
1.0
 22
0.0
 32
0.0
 13
1.0
 23
0.0
 33
0.0
 40
0.0
 40
0.0
 40
0.0
 40
0.0
 40
0.2
 40
0.2
 40
0.2
 40
0.2
 40
0.4
 40
0.4
 40
0.4
 40
0.4
 40
0.6
 40
0.6
 40
0.6
 40
0.6
 40
1.0
 40
1.0
 40
1.0
 40
1.0
 10
-175.9013
 20
-62.4238
 30
0.0
 10
-175.2964
 20
-61.5768
 30
0.0
 10
-174.6915
 20
-60.6091
 30
0.0
 10
-174.2077
 20
-59.6414
 30
0.0
 10
-174.2077
 20
-59.6414
 30
0.0
 10
-173.7238
 20
-58.6734
 30
0.0
 10
-168.1592
 20
-63.5125
 30
0.0
 10
-170.2156
 20
-64.2381
 30
0.0
 10
-170.2156
 20
-64.2381
 30
0.0
 10
-172.5141
 20
-65.5689
 30
0.0
 10
-174.3287
 20
-67.0204
 30
0.0
 10
-175.9013
 20
-68.593
 30
0.0
 10
-175.9013
 20
-68.593
 30
0.0
 10
-175.9013
 20
-68.593
 30
0.0
 10
-175.9013
 20
-62.4238
 30
0.0
 10
-175.9013
 20
-62.4238
 30
0.0
  0
SPLINE
  5
12E
330
1F
100
AcDbEntity
  8
layer 1
 62
     7
100
AcDbSpline
210
0.0
220
0.0
230
1.0
 70
    11
 71
     3
 72
    20
 73
    16
 74
     0
 42
0.0000000001
 43
0.0000000001
 12
1.0
 22
0.0
 32
0.0
 13
1.0
 23
0.0
 33
0.0
 40
0.0
 40
0.0
 40
0.0
 40
0.0
 40
0.2
 40
0.2
 40
0.2
 40
0.2
 40
0.4
 40
0.4
 40
0.4
 40
0.4
 40
0.6
 40
0.6
 40
0.6
 40
0.6
 40
1.0
 40
1.0
 40
1.0
 40
1.0
 10
-175.9013
 20
-45.7298
 30
0.0
 10
-175.2964
 20
-44.7621
 30
0.0
 10
-174.6915
 20
-43.9154
 30
0.0
 10
-174.2077
 20
-42.9474
 30
0.0
 10
-174.2077
 20
-42.9474
 30
0.0
 10
-173.7238
 20
-41.9797
 30
0.0
 10
-168.1592
 20
-46.6974
 30
0.0
 10
-170.2156
 20
-47.5444
 30
0.0
 10
-170.2156
 20
-47.5444
 30
0.0
 10
-172.5141
 20
-48.7542
 30
0.0
 10
-174.3287
 20
-50.2057
 30
0.0
 10
-175.9013
 20
-51.7783
 30
0.0
 10
-175.9013
 20
-51.7783
 30
0.0
 10
-175.9013
 20
-51.7783
 30
0.0
 10
-175.9013
 20
-45.7298
 30
0.0
 10
-175.9013
 20
-45.7298
 30
0.0
  0
SPLINE
  5
12F
330
1F
100
AcDbEntity
  8
layer 1
 62
     7
100
AcDbSpline
210
0.0
220
0.0
230
1.0
 70
    11
 71
     3
 72
    20
 73
    16
 74
     0
 42
0.0000000001
 43
0.0000000001
 12
1.0
 22
0.0
 32
0.0
 13
1.0
 23
0.0
 33
0.0
 40
0.0
 40
0.0
 40
0.0
 40
0.0
 40
0.2
 40
0.2
 40
0.2
 40
0.2
 40
0.4
 40
0.4
 40
0.4
 40
0.4
 40
0.6
 40
0.6
 40
0.6
 40
0.6
 40
1.0
 40
1.0
 40
1.0
 40
1.0
 10
-175.9013
 20
-28.915
 30
0.0
 10
-175.2964
 20
-28.0684
 30
0.0
 10
-174.6915
 20
-27.1004
 30
0.0
 10
-174.2077
 20
-26.1327
 30
0.0
 10
-174.2077
 20
-26.1327
 30
0.0
 10
-173.7238
 20
-25.165
 30
0.0
 10
-168.1592
 20
-29.8827
 30
0.0
 10
-170.2156
 20
-30.7297
 30
0.0
 10
-170.2156
 20
-30.7297
 30
0.0
 10
-172.5141
 20
-32.0602
 30
0.0
 10
-174.3287
 20
-33.512
 30
0.0
 10
-175.9013
 20
-35.0846
 30
0.0
 10
-175.9013
 20
-35.0846
 30
0.0
 10
-175.9013
 20
-35.0846
 30
0.0
 10
-175.9013
 20
-28.915
 30
0.0
 10
-175.9013
 20
-28.915
 30
0.0
  0
SPLINE
  5
130
330
1F
100
AcDbEntity
  8
layer 1
 62
     7
100
AcDbSpline
210
0.0
220
0.0
230
1.0
 70
    11
 71
     3
 72
    20
 73
    16
 74
     0
 42
0.0000000001
 43
0.0000000001
 12
1.0
 22
0.0
 32
0.0
 13
1.0
 23
0.0
 33
0.0
 40
0.0
 40
0.0
 40
0.0
 40
0.0
 40
0.2
 40
0.2
 40
0.2
 40
0.2
 40
0.4
 40
0.4
 40
0.4
 40
0.4
 40
0.6
 40
0.6
 40
0.6
 40
0.6
 40
1.0
 40
1.0
 40
1.0
 40
1.0
 10
-175.9013
 20
-12.1003
 30
0.0
 10
-175.2964
 20
-11.2537
 30
0.0
 10
-174.6915
 20
-10.2857
 30
0.0
 10
-174.2077
 20
-9.318
 30
0.0
 10
-174.2077
 20
-9.318
 30
0.0
 10
-173.7238
 20
-8.3503
 30
0.0
 10
-168.1592
 20
-13.1891
 30
0.0
 10
-170.2156
 20
-14.0357
 30
0.0
 10
-170.2156
 20
-14.0357
 30
0.0
 10
-172.5141
 20
-15.2455
 30
0.0
 10
-174.3287
 20
-16.6973
 30
0.0
 10
-175.9013
 20
-18.2699
 30
0.0
 10
-175.9013
 20
-18.2699
 30
0.0
 10
-175.9013
 20
-18.2699
 30
0.0
 10
-175.9013
 20
-12.1003
 30
0.0
 10
-175.9013
 20
-12.1003
 30
0.0
  0
SPLINE
  5
131
330
1F
100
AcDbEntity
  8
layer 1
 62
     7
100
AcDbSpline
210
0.0
220
0.0
230
1.0
 70
    11
 71
     3
 72
    20
 73
    16
 74
     0
 42
0.0000000001
 43
0.0000000001
 12
1.0
 22
0.0
 32
0.0
 13
1.0
 23
0.0
 33
0.0
 40
0.0
 40
0.0
 40
0.0
 40
0.0
 40
0.2
 40
0.2
 40
0.2
 40
0.2
 40
0.4
 40
0.4
 40
0.4
 40
0.4
 40
0.6
 40
0.6
 40
0.6
 40
0.6
 40
1.0
 40
1.0
 40
1.0
 40
1.0
 10
-175.9013
 20
4.5933
 30
0.0
 10
-175.2964
 20
5.5614
 30
0.0
 10
-174.6915
 20
6.408
 30
0.0
 10
-174.2077
 20
7.3757
 30
0.0
 10
-174.2077
 20
7.3757
 30
0.0
 10
-173.7238
 20
8.3434
 30
0.0
 10
-168.1592
 20
3.6257
 30
0.0
 10
-170.2156
 20
2.779
 30
0.0
 10
-170.2156
 20
2.779
 30
0.0
 10
-172.5141
 20
1.5693
 30
0.0
 10
-174.3287
 20
0.1177
 30
0.0
 10
-175.9013
 20
-1.5759
 30
0.0
 10
-175.9013
 20
-1.5759
 30
0.0
 10
-175.9013
 20
-1.5759
 30
0.0
 10
-175.9013
 20
4.5933
 30
0.0
 10
-175.9013
 20
4.5933
 30
0.0
  0
SPLINE
  5
132
330
1F
100
AcDbEntity
  8
layer 1
 62
     7
100
AcDbSpline
210
0.0
220
0.0
230
1.0
 70
    11
 71
     3
 72
    20
 73
    16
 74
     0
 42
0.0000000001
 43
0.0000000001
 12
1.0
 22
0.0
 32
0.0
 13
1.0
 23
0.0
 33
0.0
 40
0.0
 40
0.0
 40
0.0
 40
0.0
 40
0.2
 40
0.2
 40
0.2
 40
0.2
 40
0.4
 40
0.4
 40
0.4
 40
0.4
 40
0.6
 40
0.6
 40
0.6
 40
0.6
 40
1.0
 40
1.0
 40
1.0
 40
1.0
 10
-175.9013
 20
21.4081
 30
0.0
 10
-175.2964
 20
22.255
 30
0.0
 10
-174.6915
 20
23.2227
 30
0.0
 10
-174.2077
 20
24.1904
 30
0.0
 10
-174.2077
 20
24.1904
 30
0.0
 10
-173.7238
 20
25.1584
 30
0.0
 10
-168.1592
 20
20.3193
 30
0.0
 10
-170.2156
 20
19.5937
 30
0.0
 10
-170.2156
 20
19.5937
 30
0.0
 10
-172.5141
 20
18.2629
 30
0.0
 10
-174.3287
 20
16.8114
 30
0.0
 10
-175.9013
 20
15.2388
 30
0.0
 10
-175.9013
 20
15.2388
 30
0.0
 10
-175.9013
 20
15.2388
 30
0.0
 10
-175.9013
 20
21.4081
 30
0.0
 10
-175.9013
 20
21.4081
 30
0.0
  0
SPLINE
  5
133
330
1F
100
AcDbEntity
  8
layer 1
 62
     7
100
AcDbSpline
210
0.0
220
0.0
230
1.0
 70
    11
 71
     3
 72
    20
 73
    16
 74
     0
 42
0.0000000001
 43
0.0000000001
 12
1.0
 22
0.0
 32
0.0
 13
1.0
 23
0.0
 33
0.0
 40
0.0
 40
0.0
 40
0.0
 40
0.0
 40
0.2
 40
0.2
 40
0.2
 40
0.2
 40
0.4
 40
0.4
 40
0.4
 40
0.4
 40
0.6
 40
0.6
 40
0.6
 40
0.6
 40
1.0
 40
1.0
 40
1.0
 40
1.0
 10
-175.9013
 20
38.2231
 30
0.0
 10
-175.2964
 20
39.0697
 30
0.0
 10
-174.6915
 20
40.0374
 30
0.0
 10
-174.2077
 20
41.0051
 30
0.0
 10
-174.2077
 20
41.0051
 30
0.0
 10
-173.7238
 20
41.9731
 30
0.0
 10
-168.1592
 20
37.1344
 30
0.0
 10
-170.2156
 20
36.2874
 30
0.0
 10
-170.2156
 20
36.2874
 30
0.0
 10
-172.5141
 20
35.0776
 30
0.0
 10
-174.3287
 20
33.6261
 30
0.0
 10
-175.9013
 20
32.0536
 30
0.0
 10
-175.9013
 20
32.0536
 30
0.0
 10
-175.9013
 20
32.0536
 30
0.0
 10
-175.9013
 20
38.2231
 30
0.0
 10
-175.9013
 20
38.2231
 30
0.0
  0
SPLINE
  5
134
330
1F
100
AcDbEntity
  8
layer 1
 62
     7
100
AcDbSpline
210
0.0
220
0.0
230
1.0
 70
    11
 71
     3
 72
    20
 73
    16
 74
     0
 42
0.0000000001
 43
0.0000000001
 12
1.0
 22
0.0
 32
0.0
 13
1.0
 23
0.0
 33
0.0
 40
0.0
 40
0.0
 40
0.0
 40
0.0
 40
0.2
 40
0.2
 40
0.2
 40
0.2
 40
0.4
 40
0.4
 40
0.4
 40
0.4
 40
0.6
 40
0.6
 40
0.6
 40
0.6
 40
1.0
 40
1.0
 40
1.0
 40
1.0
 10
-175.9013
 20
54.9168
 30
0.0
 10
-175.2964
 20
55.8845
 30
0.0
 10
-174.6915
 20
56.7314
 30
0.0
 10
-174.2077
 20
57.6991
 30
0.0
 10
-174.2077
 20
57.6991
 30
0.0
 10
-173.7238
 20
58.6668
 30
0.0
 10
-168.1592
 20
53.9491
 30
0.0
 10
-170.2156
 20
53.1021
 30
0.0
 10
-170.2156
 20
53.1021
 30
0.0
 10
-172.5141
 20
51.7717
 30
0.0
 10
-174.3287
 20
50.3198
 30
0.0
 10
-175.9013
 20
48.7472
 30
0.0
 10
-175.9013
 20
48.7472
 30
0.0
 10
-175.9013
 20
48.7472
 30
0.0
 10
-175.9013
 20
54.9168
 30
0.0
 10
-175.9013
 20
54.9168
 30
0.0
  0
SPLINE
  5
135
330
1F
100
AcDbEntity
  8
layer 1
 62
     7
100
AcDbSpline
210
0.0
220
0.0
230
1.0
 70
    11
 71
     3
 72
    20
 73
    16
 74
     0
 42
0.0000000001
 43
0.0000000001
 12
1.0
 22
0.0
 32
0.0
 13
1.0
 23
0.0
 33
0.0
 40
0.0
 40
0.0
 40
0.0
 40
0.0
 40
0.2
 40
0.2
 40
0.2
 40
0.2
 40
0.4
 40
0.4
 40
0.4
 40
0.4
 40
0.6
 40
0.6
 40
0.6
 40
0.6
 40
1.0
 40
1.0
 40
1.0
 40
1.0
 10
-175.9013
 20
71.7315
 30
0.0
 10
-175.2964
 20
72.5781
 30
0.0
 10
-174.6915
 20
73.5462
 30
0.0
 10
-174.2077
 20
74.5138
 30
0.0
 10
-174.2077
 20
74.5138
 30
0.0
 10
-173.7238
 20
75.4815
 30
0.0
 10
-168.1592
 20
70.6428
 30
0.0
 10
-170.2156
 20
69.9168
 30
0.0
 10
-170.2156
 20
69.9168
 30
0.0
 10
-172.5141
 20
68.5864
 30
0.0
 10
-174.3287
 20
67.1345
 30
0.0
 10
-175.9013
 20
65.5619
 30
0.0
 10
-175.9013
 20
65.5619
 30
0.0
 10
-175.9013
 20
65.5619
 30
0.0
 10
-175.9013
 20
71.7315
 30
0.0
 10
-175.9013
 20
71.7315
 30
0.0
  0
SPLINE
  5
136
330
1F
100
AcDbEntity
  8
layer 1
 62
     7
100
AcDbSpline
210
0.0
220
0.0
230
1.0
 70
    11
 71
     3
 72
    20
 73
    16
 74
     0
 42
0.0000000001
 43
0.0000000001
 12
1.0
 22
0.0
 32
0.0
 13
1.0
 23
0.0
 33
0.0
 40
0.0
 40
0.0
 40
0.0
 40
0.0
 40
0.2
 40
0.2
 40
0.2
 40
0.2
 40
0.4
 40
0.4
 40
0.4
 40
0.4
 40
0.6
 40
0.6
 40
0.6
 40
0.6
 40
1.0
 40
1.0
 40
1.0
 40
1.0
 10
-175.9013
 20
88.4252
 30
0.0
 10
-175.2964
 20
89.3932
 30
0.0
 10
-174.6915
 20
90.2398
 30
0.0
 10
-174.2077
 20
91.2075
 30
0.0
 10
-174.2077
 20
91.2075
 30
0.0
 10
-173.7238
 20
92.1752
 30
0.0
 10
-168.1592
 20
87.4575
 30
0.0
 10
-170.2156
 20
86.6109
 30
0.0
 10
-170.2156
 20
86.6109
 30
0.0
 10
-172.5141
 20
85.4011
 30
0.0
 10
-174.3287
 20
83.9496
 30
0.0
 10
-175.9013
 20
82.3767
 30
0.0
 10
-175.9013
 20
82.3767
 30
0.0
 10
-175.9013
 20
82.3767
 30
0.0
 10
-175.9013
 20
88.4252
 30
0.0
 10
-175.9013
 20
88.4252
 30
0.0
  0
SPLINE
  5
137
330
1F
100
AcDbEntity
  8
layer 1
 62
     7
100
AcDbSpline
210
0.0
220
0.0
230
1.0
 70
    11
 71
     3
 72
    20
 73
    16
 74
     0
 42
0.0000000001
 43
0.0000000001
 12
1.0
 22
0.0
 32
0.0
 13
1.0
 23
0.0
 33
0.0
 40
0.0
 40
0.0
 40
0.0
 40
0.0
 40
0.2
 40
0.2
 40
0.2
 40
0.2
 40
0.4
 40
0.4
 40
0.4
 40
0.4
 40
0.6
 40
0.6
 40
0.6
 40
0.6
 40
1.0
 40
1.0
 40
1.0
 40
1.0
 10
-175.9013
 20
105.2399
 30
0.0
 10
-175.2964
 20
106.0869
 30
0.0
 10
-174.6915
 20
107.0545
 30
0.0
 10
-174.2077
 20
108.0222
 30
0.0
 10
-174.2077
 20
108.0222
 30
0.0
 10
-173.7238
 20
108.9902
 30
0.0
 10
-168.1592
 20
104.2722
 30
0.0
 10
-170.2156
 20
103.4256
 30
0.0
 10
-170.2156
 20
103.4256
 30
0.0
 10
-172.5141
 20
102.0947
 30
0.0
 10
-174.3287
 20
100.6432
 30
0.0
 10
-175.9013
 20
99.0707
 30
0.0
 10
-175.9013
 20
99.0707
 30
0.0
 10
-175.9013
 20
99.0707
 30
0.0
 10
-175.9013
 20
105.2399
 30
0.0
 10
-175.9013
 20
105.2399
 30
0.0
  0
ENDSEC
  0
SECTION
  2
OBJECTS
  0
DICTIONARY
  5
C
330
0
100
AcDbDictionary
281
     1
  3
ACAD_GROUP
350
D
  3
ACAD_LAYOUT
350
1A
  3
ACAD_MATERIAL
350
3B
  3
ACAD_MLEADERSTYLE
350
159
  3
ACAD_MLINESTYLE
350
17
  3
ACAD_PLOTSETTINGS
350
19
  3
ACAD_PLOTSTYLENAME
350
E
  3
ACAD_TABLESTYLE
350
158
  3
ACAD_VISUALSTYLE
350
2A
  0
DICTIONARY
  5
D
102
{ACAD_REACTORS
330
C
102
}
330
C
100
AcDbDictionary
281
     1
  0
DICTIONARY
  5
1A
102
{ACAD_REACTORS
330
C
102
}
330
C
100
AcDbDictionary
281
     1
  3
Layout1
350
1E
  3
Layout2
350
26
  3
Model
350
22
  0
DICTIONARY
  5
3B
102
{ACAD_REACTORS
330
C
102
}
330
C
100
AcDbDictionary
281
     1
  3
ByBlock
350
3D
  3
ByLayer
350
3C
  3
Global
350
3E
  0
DICTIONARY
  5
159
102
{ACAD_REACTORS
330
C
102
}
330
C
100
AcDbDictionary
281
     1
  0
DICTIONARY
  5
17
102
{ACAD_REACTORS
330
C
102
}
330
C
100
AcDbDictionary
281
     1
  3
Standard
350
18
  0
DICTIONARY
  5
19
102
{ACAD_REACTORS
330
C
102
}
330
C
100
AcDbDictionary
281
     1
  0
ACDBDICTIONARYWDFLT
  5
E
102
{ACAD_REACTORS
330
C
102
}
330
C
100
AcDbDictionary
281
     1
  3
Normal
350
F
100
AcDbDictionaryWithDefault
340
F
  0
DICTIONARY
  5
158
102
{ACAD_REACTORS
330
C
102
}
330
C
100
AcDbDictionary
281
     1
  0
DICTIONARY
  5
2A
102
{ACAD_REACTORS
330
C
102
}
330
C
100
AcDbDictionary
281
     1
  3
2dWireframe
350
2F
  3
3D Hidden
350
31
  3
3dWireframe
350
30
  3
Basic
350
32
  3
Brighten
350
36
  3
ColorChange
350
3A
  3
Conceptual
350
34
  3
Dim
350
35
  3
Facepattern
350
39
  3
Flat
350
2B
  3
FlatWithEdges
350
2C
  3
Gouraud
350
2D
  3
GouraudWithEdges
350
2E
  3
Linepattern
350
38
  3
Realistic
350
33
  3
Thicken
350
37
  0
LAYOUT
  5
1E
102
{ACAD_REACTORS
330
1A
102
}
330
1A
100
AcDbPlotSettings
  1

  2
none_device
  4

  6

 40
0.0
 41
0.0
 42
0.0
 43
0.0
 44
0.0
 45
0.0
 46
0.0
 47
0.0
 48
0.0
 49
0.0
140
0.0
141
0.0
142
1.0
143
1.0
 70
   688
 72
     0
 73
     0
 74
     5
  7

 75
    16
 76
     0
 77
     2
 78
   300
147
1.0
148
0.0
149
0.0
100
AcDbLayout
  1
Layout1
 70
     1
 71
     1
 10
0.0
 20
0.0
 11
12.0
 21
9.0
 12
0.0
 22
0.0
 32
0.0
 14
1.000000000000000E+20
 24
1.000000000000000E+20
 34
1.000000000000000E+20
 15
-1.000000000000000E+20
 25
-1.000000000000000E+20
 35
-1.000000000000000E+20
146
0.0
 13
0.0
 23
0.0
 33
0.0
 16
1.0
 26
0.0
 36
0.0
 17
0.0
 27
1.0
 37
0.0
 76
     0
330
1B
  0
LAYOUT
  5
26
102
{ACAD_REACTORS
330
1A
102
}
330
1A
100
AcDbPlotSettings
  1

  2
none_device
  4

  6

 40
0.0
 41
0.0
 42
0.0
 43
0.0
 44
0.0
 45
0.0
 46
0.0
 47
0.0
 48
0.0
 49
0.0
140
0.0
141
0.0
142
1.0
143
1.0
 70
   688
 72
     0
 73
     0
 74
     5
  7

 75
    16
 76
     0
 77
     2
 78
   300
147
1.0
148
0.0
149
0.0
100
AcDbLayout
  1
Layout2
 70
     1
 71
     2
 10
0.0
 20
0.0
 11
0.0
 21
0.0
 12
0.0
 22
0.0
 32
0.0
 14
0.0
 24
0.0
 34
0.0
 15
0.0
 25
0.0
 35
0.0
146
0.0
 13
0.0
 23
0.0
 33
0.0
 16
1.0
 26
0.0
 36
0.0
 17
0.0
 27
1.0
 37
0.0
 76
     0
330
23
  0
LAYOUT
  5
22
102
{ACAD_REACTORS
330
1A
102
}
330
1A
100
AcDbPlotSettings
  1

  2
none_device
  4

  6

 40
0.0
 41
0.0
 42
0.0
 43
0.0
 44
0.0
 45
0.0
 46
0.0
 47
0.0
 48
0.0
 49
0.0
140
0.0
141
0.0
142
1.0
143
1.0
 70
  1712
 72
     0
 73
     0
 74
     0
  7

 75
     0
 76
     0
 77
     2
 78
   300
147
1.0
148
0.0
149
0.0
100
AcDbLayout
  1
Model
 70
     1
 71
     0
 10
0.0
 20
0.0
 11
12.0
 21
9.0
 12
0.0
 22
0.0
 32
0.0
 14
-187.399
 24
-114.985
 34
0.0
 15
-32.3042
 25
132.0345
 35
0.0
146
0.0
 13
0.0
 23
0.0
 33
0.0
 16
1.0
 26
0.0
 36
0.0
 17
0.0
 27
1.0
 37
0.0
 76
     0
330
1F
331
29
  0
MATERIAL
  5
3D
102
{ACAD_REACTORS
330
3B
102
}
330
3B
100
AcDbMaterial
  1
ByBlock
 72
     1
 94
      127
  0
MATERIAL
  5
3C
102
{ACAD_REACTORS
330
3B
102
}
330
3B
100
AcDbMaterial
  1
ByLayer
 72
     1
 94
      127
  0
MATERIAL
  5
3E
102
{ACAD_REACTORS
330
3B
102
}
330
3B
100
AcDbMaterial
  1
Global
 72
     1
 94
      127
  0
MLINESTYLE
  5
18
102
{ACAD_REACTORS
330
17
102
}
330
17
100
AcDbMlineStyle
  2
Standard
 70
     0
  3

 62
   256
 51
90.0
 52
90.0
 71
     2
 49
0.5
 62
   256
  6
BYLAYER
 49
-0.5
 62
   256
  6
BYLAYER
  0
ACDBPLACEHOLDER
  5
F
102
{ACAD_REACTORS
330
E
102
}
330
E
  0
VISUALSTYLE
  5
2F
102
{ACAD_REACTORS
330
2A
102
}
102
{ACAD_XDICTIONARY
360
140
102
}
330
2A
100
AcDbVisualStyle
  2
2dWireframe
 70
     4
 71
     0
 72
     2
 73
     0
 90
        0
 40
-0.6
 41
-30.0
 62
     5
 63
     7
421
 16777215
 74
     1
 91
        4
 64
     7
 65
   257
 75
     1
175
     1
 42
1.0
 92
        0
 66
   257
 43
1.0
 76
     1
 77
     6
 78
     2
 67
     7
 79
     5
170
     0
171
     0
290
     0
174
     0
 93
        1
 44
0.0
173
     0
291
     0
 45
0.0
  0
VISUALSTYLE
  5
31
102
{ACAD_REACTORS
330
2A
102
}
102
{ACAD_XDICTIONARY
360
144
102
}
330
2A
100
AcDbVisualStyle
  2
3D Hidden
 70
     6
 71
     1
 72
     2
 73
     2
 90
        0
 40
-0.6
 41
-30.0
 62
     5
 63
     7
421
 16777215
 74
     2
 91
        2
 64
     7
 65
   257
 75
     2
175
     1
 42
40.0
 92
        0
 66
   257
 43
1.0
 76
     1
 77
     6
 78
     2
 67
     7
 79
     3
170
     0
171
     0
290
     0
174
     0
 93
        1
 44
0.0
173
     0
291
     0
 45
0.0
  0
VISUALSTYLE
  5
30
102
{ACAD_REACTORS
330
2A
102
}
102
{ACAD_XDICTIONARY
360
142
102
}
330
2A
100
AcDbVisualStyle
  2
3dWireframe
 70
     5
 71
     0
 72
     2
 73
     0
 90
        0
 40
-0.6
 41
-30.0
 62
     5
 63
     7
421
 16777215
 74
     1
 91
        4
 64
     7
 65
   257
 75
     1
175
     1
 42
1.0
 92
        0
 66
   257
 43
1.0
 76
     1
 77
     6
 78
     2
 67
     7
 79
     5
170
     0
171
     0
290
     0
174
     0
 93
        1
 44
0.0
173
     0
291
     0
 45
0.0
  0
VISUALSTYLE
  5
32
102
{ACAD_REACTORS
330
2A
102
}
102
{ACAD_XDICTIONARY
360
146
102
}
330
2A
100
AcDbVisualStyle
  2
Basic
 70
     7
 71
     1
 72
     0
 73
     1
 90
        0
 40
-0.6
 41
-30.0
 62
     5
 63
     7
421
 16777215
 74
     0
 91
        4
 64
     7
 65
   257
 75
     1
175
     1
 42
1.0
 92
        8
 66
     7
 43
1.0
 76
     1
 77
     6
 78
     2
 67
     7
 79
     5
170
     0
171
     0
290
     0
174
     0
 93
        1
 44
0.0
173
     0
291
     1
 45
0.0
  0
VISUALSTYLE
  5
36
102
{ACAD_REACTORS
330
2A
102
}
102
{ACAD_XDICTIONARY
360
14E
102
}
330
2A
100
AcDbVisualStyle
  2
Brighten
 70
    12
 71
     2
 72
     2
 73
     0
 90
        0
 40
-0.6
 41
-30.0
 62
     5
 63
     7
421
 16777215
 74
     1
 91
        4
 64
     7
 65
   257
 75
     1
175
     1
 42
1.0
 92
        8
 66
     7
 43
1.0
 76
     1
 77
     6
 78
     2
 67
     7
 79
     5
170
     0
171
     0
290
     0
174
     0
 93
        1
 44
50.0
173
     0
291
     1
 45
0.0
  0
VISUALSTYLE
  5
3A
102
{ACAD_REACTORS
330
2A
102
}
102
{ACAD_XDICTIONARY
360
156
102
}
330
2A
100
AcDbVisualStyle
  2
ColorChange
 70
    16
 71
     2
 72
     2
 73
     3
 90
        0
 40
-0.6
 41
-30.0
 62
     5
 63
     8
421
  8421504
 74
     1
 91
        4
 64
     7
 65
   257
 75
     1
175
     1
 42
1.0
 92
        8
 66
     8
424
  8421504
 43
1.0
 76
     1
 77
     6
 78
     2
 67
     7
 79
     5
170
     0
171
     0
290
     0
174
     0
 93
        1
 44
0.0
173
     0
291
     1
 45
0.0
  0
VISUALSTYLE
  5
34
102
{ACAD_REACTORS
330
2A
102
}
102
{ACAD_XDICTIONARY
360
14A
102
}
330
2A
100
AcDbVisualStyle
  2
Conceptual
 70
     9
 71
     3
 72
     2
 73
     0
 90
        0
 40
-0.6
 41
-30.0
 62
     5
 63
     7
421
 16777215
 74
     2
 91
        2
 64
     7
 65
   257
 75
     1
175
     1
 42
40.0
 92
        8
 66
     7
 43
1.0
 76
     1
 77
     6
 78
     2
 67
     7
 79
     3
170
     0
171
     0
290
     0
174
     0
 93
        1
 44
0.0
173
     0
291
     0
 45
0.0
  0
VISUALSTYLE
  5
35
102
{ACAD_REACTORS
330
2A
102
}
102
{ACAD_XDICTIONARY
360
14C
102
}
330
2A
100
AcDbVisualStyle
  2
Dim
 70
    11
 71
     2
 72
     2
 73
     0
 90
        0
 40
-0.6
 41
-30.0
 62
     5
 63
     7
421
 16777215
 74
     1
 91
        4
 64
     7
 65
   257
 75
     1
175
     1
 42
1.0
 92
        8
 66
     7
 43
1.0
 76
     1
 77
     6
 78
     2
 67
     7
 79
     5
170
     0
171
     0
290
     0
174
     0
 93
        1
 44
-50.0
173
     0
291
     1
 45
0.0
  0
VISUALSTYLE
  5
39
102
{ACAD_REACTORS
330
2A
102
}
102
{ACAD_XDICTIONARY
360
154
102
}
330
2A
100
AcDbVisualStyle
  2
Facepattern
 70
    15
 71
     2
 72
     2
 73
     0
 90
        0
 40
-0.6
 41
-30.0
 62
     5
 63
     7
421
 16777215
 74
     1
 91
        4
 64
     7
 65
   257
 75
     1
175
     1
 42
1.0
 92
        8
 66
     7
 43
1.0
 76
     1
 77
     6
 78
     2
 67
     7
 79
     5
170
     0
171
     0
290
     0
174
     0
 93
        1
 44
0.0
173
     0
291
     1
 45
0.0
  0
VISUALSTYLE
  5
2B
102
{ACAD_REACTORS
330
2A
102
}
102
{ACAD_XDICTIONARY
360
138
102
}
330
2A
100
AcDbVisualStyle
  2
Flat
 70
     0
 71
     2
 72
     1
 73
     1
 90
        2
 40
-0.6
 41
30.0
 62
     5
 63
     7
421
 16777215
 74
     0
 91
        4
 64
     7
 65
   257
 75
     1
175
     1
 42
1.0
 92
        8
 66
     7
 43
1.0
 76
     1
 77
     6
 78
     2
 67
     7
 79
     5
170
     0
171
     0
290
     0
174
     0
 93
       13
 44
0.0
173
     0
291
     1
 45
0.0
  0
VISUALSTYLE
  5
2C
102
{ACAD_REACTORS
330
2A
102
}
102
{ACAD_XDICTIONARY
360
13A
102
}
330
2A
100
AcDbVisualStyle
  2
FlatWithEdges
 70
     1
 71
     2
 72
     1
 73
     1
 90
        2
 40
-0.6
 41
30.0
 62
     5
 63
     7
421
 16777215
 74
     1
 91
        4
 64
     7
 65
   257
 75
     1
175
     1
 42
1.0
 92
        0
 66
   257
 43
1.0
 76
     1
 77
     6
 78
     2
 67
     7
 79
     5
170
     0
171
     0
290
     0
174
     0
 93
       13
 44
0.0
173
     0
291
     1
 45
0.0
  0
VISUALSTYLE
  5
2D
102
{ACAD_REACTORS
330
2A
102
}
102
{ACAD_XDICTIONARY
360
13C
102
}
330
2A
100
AcDbVisualStyle
  2
Gouraud
 70
     2
 71
     2
 72
     2
 73
     1
 90
        2
 40
-0.6
 41
30.0
 62
     5
 63
     7
421
 16777215
 74
     0
 91
        4
 64
     7
 65
   257
 75
     1
175
     1
 42
1.0
 92
        0
 66
     7
 43
1.0
 76
     1
 77
     6
 78
     2
 67
     7
 79
     5
170
     0
171
     0
290
     0
174
     0
 93
       13
 44
0.0
173
     0
291
     1
 45
0.0
  0
VISUALSTYLE
  5
2E
102
{ACAD_REACTORS
330
2A
102
}
102
{ACAD_XDICTIONARY
360
13E
102
}
330
2A
100
AcDbVisualStyle
  2
GouraudWithEdges
 70
     3
 71
     2
 72
     2
 73
     1
 90
        2
 40
-0.6
 41
30.0
 62
     5
 63
     7
421
 16777215
 74
     1
 91
        4
 64
     7
 65
   257
 75
     1
175
     1
 42
1.0
 92
        0
 66
   257
 43
1.0
 76
     1
 77
     6
 78
     2
 67
     7
 79
     5
170
     0
171
     0
290
     0
174
     0
 93
       13
 44
0.0
173
     0
291
     1
 45
0.0
  0
VISUALSTYLE
  5
38
102
{ACAD_REACTORS
330
2A
102
}
102
{ACAD_XDICTIONARY
360
152
102
}
330
2A
100
AcDbVisualStyle
  2
Linepattern
 70
    14
 71
     2
 72
     2
 73
     0
 90
        0
 40
-0.6
 41
-30.0
 62
     5
 63
     7
421
 16777215
 74
     1
 91
        4
 64
     7
 65
   257
 75
     7
175
     7
 42
1.0
 92
        8
 66
     7
 43
1.0
 76
     1
 77
     6
 78
     2
 67
     7
 79
     5
170
     0
171
     0
290
     0
174
     0
 93
        1
 44
0.0
173
     0
291
     1
 45
0.0
  0
VISUALSTYLE
  5
33
102
{ACAD_REACTORS
330
2A
102
}
102
{ACAD_XDICTIONARY
360
148
102
}
330
2A
100
AcDbVisualStyle
  2
Realistic
 70
     8
 71
     2
 72
     2
 73
     0
 90
        0
 40
-0.6
 41
-30.0
 62
     5
 63
     7
421
 16777215
 74
     1
 91
        0
 64
     7
 65
   257
 75
     1
175
     1
 42
1.0
 92
        8
 66
     8
424
  7895160
 43
1.0
 76
     1
 77
     6
 78
     2
 67
     7
 79
     5
170
     0
171
     0
290
     0
174
     0
 93
       13
 44
0.0
173
     0
291
     0
 45
0.0
  0
VISUALSTYLE
  5
37
102
{ACAD_REACTORS
330
2A
102
}
102
{ACAD_XDICTIONARY
360
150
102
}
330
2A
100
AcDbVisualStyle
  2
Thicken
 70
    13
 71
     2
 72
     2
 73
     0
 90
        0
 40
-0.6
 41
-30.0
 62
     5
 63
     7
421
 16777215
 74
     1
 91
        4
 64
     7
 65
   257
 75
     1
175
     1
 42
1.0
 92
       12
 66
     7
 43
1.0
 76
     1
 77
     6
 78
     2
 67
     7
 79
     5
170
     0
171
     0
290
     0
174
     0
 93
        1
 44
0.0
173
     0
291
     1
 45
0.0
  0
DICTIONARY
  5
140
330
2F
100
AcDbDictionary
280
     1
281
     1
  3
ACAD_XREC_ROUNDTRIP
360
141
  0
DICTIONARY
  5
144
330
31
100
AcDbDictionary
280
     1
281
     1
  3
ACAD_XREC_ROUNDTRIP
360
145
  0
DICTIONARY
  5
142
330
30
100
AcDbDictionary
280
     1
281
     1
  3
ACAD_XREC_ROUNDTRIP
360
143
  0
DICTIONARY
  5
146
330
32
100
AcDbDictionary
280
     1
281
     1
  3
ACAD_XREC_ROUNDTRIP
360
147
  0
DICTIONARY
  5
14E
330
36
100
AcDbDictionary
280
     1
281
     1
  3
ACAD_XREC_ROUNDTRIP
360
14F
  0
DICTIONARY
  5
156
330
3A
100
AcDbDictionary
280
     1
281
     1
  3
ACAD_XREC_ROUNDTRIP
360
157
  0
DICTIONARY
  5
14A
330
34
100
AcDbDictionary
280
     1
281
     1
  3
ACAD_XREC_ROUNDTRIP
360
14B
  0
DICTIONARY
  5
14C
330
35
100
AcDbDictionary
280
     1
281
     1
  3
ACAD_XREC_ROUNDTRIP
360
14D
  0
DICTIONARY
  5
154
330
39
100
AcDbDictionary
280
     1
281
     1
  3
ACAD_XREC_ROUNDTRIP
360
155
  0
DICTIONARY
  5
138
330
2B
100
AcDbDictionary
280
     1
281
     1
  3
ACAD_XREC_ROUNDTRIP
360
139
  0
DICTIONARY
  5
13A
330
2C
100
AcDbDictionary
280
     1
281
     1
  3
ACAD_XREC_ROUNDTRIP
360
13B
  0
DICTIONARY
  5
13C
330
2D
100
AcDbDictionary
280
     1
281
     1
  3
ACAD_XREC_ROUNDTRIP
360
13D
  0
DICTIONARY
  5
13E
330
2E
100
AcDbDictionary
280
     1
281
     1
  3
ACAD_XREC_ROUNDTRIP
360
13F
  0
DICTIONARY
  5
152
330
38
100
AcDbDictionary
280
     1
281
     1
  3
ACAD_XREC_ROUNDTRIP
360
153
  0
DICTIONARY
  5
148
330
33
100
AcDbDictionary
280
     1
281
     1
  3
ACAD_XREC_ROUNDTRIP
360
149
  0
DICTIONARY
  5
150
330
37
100
AcDbDictionary
280
     1
281
     1
  3
ACAD_XREC_ROUNDTRIP
360
151
  0
XRECORD
  5
141
102
{ACAD_REACTORS
330
140
102
}
330
140
100
AcDbXrecord
280
     1
102
RTVSPropertyOp0
 70
     1
102
RTVSPropertyOp1
 70
     1
102
RTVSPropertyOp2
 70
     1
102
RTVSPropertyOp3
 70
     1
102
RTVSPropertyOp4
 70
     1
102
RTVSPropertyOp5
 70
     1
102
RTVSPropertyOp6
 70
     1
102
RTVSPropertyOp7
 70
     1
102
RTVSPropertyOp8
 70
     1
102
RTVSPropertyOp9
 70
     1
102
RTVSPropertyOp10
 70
     1
102
RTVSPropertyOp11
 70
     1
102
RTVSPropertyOp12
 70
     1
102
RTVSPropertyOp13
 70
     1
102
RTVSPropertyOp14
 70
     1
102
RTVSPropertyOp15
 70
     1
102
RTVSPropertyOp16
 70
     1
102
RTVSPropertyOp17
 70
     1
102
RTVSPropertyOp18
 70
     1
102
RTVSPropertyOp19
 70
     1
102
RTVSPropertyOp20
 70
     1
102
RTVSPropertyOp21
 70
     1
102
RTVSPropertyOp22
 70
     1
102
RTVSPropertyOp23
 70
     1
102
RTVSPropertyOp24
 70
     1
102
RTVSPropertyOp25
 70
     1
102
RTVSPropertyOp26
 70
     1
102
RTVSPropertyOp27
 70
     1
102
RTVSPropertyOp28
 70
     1
102
RTVSPropertyOp29
 70
     1
102
RTVSPropertyOp30
 70
     1
102
RTVSPropertyOp31
 70
     1
102
RTVSPropertyOp32
 70
     1
  0
XRECORD
  5
145
102
{ACAD_REACTORS
330
144
102
}
330
144
100
AcDbXrecord
280
     1
102
RTVSPropertyOp0
 70
     1
102
RTVSPropertyOp1
 70
     1
102
RTVSPropertyOp2
 70
     1
102
RTVSPropertyOp3
 70
     1
102
RTVSPropertyOp4
 70
     1
102
RTVSPropertyOp5
 70
     1
102
RTVSPropertyOp6
 70
     1
102
RTVSPropertyOp7
 70
     1
102
RTVSPropertyOp8
 70
     1
102
RTVSPropertyOp9
 70
     1
102
RTVSPropertyOp10
 70
     1
102
RTVSPropertyOp11
 70
     1
102
RTVSPropertyOp12
 70
     1
102
RTVSPropertyOp13
 70
     1
102
RTVSPropertyOp14
 70
     1
102
RTVSPropertyOp15
 70
     1
102
RTVSPropertyOp16
 70
     1
102
RTVSPropertyOp17
 70
     1
102
RTVSPropertyOp18
 70
     1
102
RTVSPropertyOp19
 70
     1
102
RTVSPropertyOp20
 70
     1
102
RTVSPropertyOp21
 70
     1
102
RTVSPropertyOp22
 70
     1
102
RTVSPropertyOp23
 70
     1
102
RTVSPropertyOp24
 70
     1
102
RTVSPropertyOp25
 70
     1
102
RTVSPropertyOp26
 70
     1
102
RTVSPropertyOp27
 70
     1
102
RTVSPropertyOp28
 70
     1
102
RTVSPropertyOp29
 70
     1
102
RTVSPropertyOp30
 70
     1
102
RTVSPropertyOp31
 70
     1
102
RTVSPropertyOp32
 70
     1
  0
XRECORD
  5
143
102
{ACAD_REACTORS
330
142
102
}
330
142
100
AcDbXrecord
280
     1
102
RTVSPropertyOp0
 70
     1
102
RTVSPropertyOp1
 70
     1
102
RTVSPropertyOp2
 70
     1
102
RTVSPropertyOp3
 70
     1
102
RTVSPropertyOp4
 70
     1
102
RTVSPropertyOp5
 70
     1
102
RTVSPropertyOp6
 70
     1
102
RTVSPropertyOp7
 70
     1
102
RTVSPropertyOp8
 70
     1
102
RTVSPropertyOp9
 70
     1
102
RTVSPropertyOp10
 70
     1
102
RTVSPropertyOp11
 70
     1
102
RTVSPropertyOp12
 70
     1
102
RTVSPropertyOp13
 70
     1
102
RTVSPropertyOp14
 70
     1
102
RTVSPropertyOp15
 70
     1
102
RTVSPropertyOp16
 70
     1
102
RTVSPropertyOp17
 70
     1
102
RTVSPropertyOp18
 70
     1
102
RTVSPropertyOp19
 70
     1
102
RTVSPropertyOp20
 70
     1
102
RTVSPropertyOp21
 70
     1
102
RTVSPropertyOp22
 70
     1
102
RTVSPropertyOp23
 70
     1
102
RTVSPropertyOp24
 70
     1
102
RTVSPropertyOp25
 70
     1
102
RTVSPropertyOp26
 70
     1
102
RTVSPropertyOp27
 70
     1
102
RTVSPropertyOp28
 70
     1
102
RTVSPropertyOp29
 70
     1
102
RTVSPropertyOp30
 70
     1
102
RTVSPropertyOp31
 70
     1
102
RTVSPropertyOp32
 70
     1
  0
XRECORD
  5
147
102
{ACAD_REACTORS
330
146
102
}
330
146
100
AcDbXrecord
280
     1
102
RTVSPropertyOp0
 70
     1
102
RTVSPropertyOp1
 70
     1
102
RTVSPropertyOp2
 70
     1
102
RTVSPropertyOp3
 70
     1
102
RTVSPropertyOp4
 70
     1
102
RTVSPropertyOp5
 70
     1
102
RTVSPropertyOp6
 70
     1
102
RTVSPropertyOp7
 70
     1
102
RTVSPropertyOp8
 70
     1
102
RTVSPropertyOp9
 70
     1
102
RTVSPropertyOp10
 70
     1
102
RTVSPropertyOp11
 70
     1
102
RTVSPropertyOp12
 70
     1
102
RTVSPropertyOp13
 70
     1
102
RTVSPropertyOp14
 70
     1
102
RTVSPropertyOp15
 70
     1
102
RTVSPropertyOp16
 70
     1
102
RTVSPropertyOp17
 70
     1
102
RTVSPropertyOp18
 70
     1
102
RTVSPropertyOp19
 70
     1
102
RTVSPropertyOp20
 70
     1
102
RTVSPropertyOp21
 70
     1
102
RTVSPropertyOp22
 70
     1
102
RTVSPropertyOp23
 70
     1
102
RTVSPropertyOp24
 70
     1
102
RTVSPropertyOp25
 70
     1
102
RTVSPropertyOp26
 70
     1
102
RTVSPropertyOp27
 70
     1
102
RTVSPropertyOp28
 70
     1
102
RTVSPropertyOp29
 70
     1
102
RTVSPropertyOp30
 70
     1
102
RTVSPropertyOp31
 70
     1
102
RTVSPropertyOp32
 70
     1
  0
XRECORD
  5
14F
102
{ACAD_REACTORS
330
14E
102
}
330
14E
100
AcDbXrecord
280
     1
102
RTVSPropertyOp0
 70
     1
102
RTVSPropertyOp1
 70
     1
102
RTVSPropertyOp2
 70
     1
102
RTVSPropertyOp3
 70
     1
102
RTVSPropertyOp4
 70
     1
102
RTVSPropertyOp5
 70
     1
102
RTVSPropertyOp6
 70
     1
102
RTVSPropertyOp7
 70
     1
102
RTVSPropertyOp8
 70
     1
102
RTVSPropertyOp9
 70
     1
102
RTVSPropertyOp10
 70
     1
102
RTVSPropertyOp11
 70
     1
102
RTVSPropertyOp12
 70
     1
102
RTVSPropertyOp13
 70
     1
102
RTVSPropertyOp14
 70
     1
102
RTVSPropertyOp15
 70
     1
102
RTVSPropertyOp16
 70
     1
102
RTVSPropertyOp17
 70
     1
102
RTVSPropertyOp18
 70
     1
102
RTVSPropertyOp19
 70
     1
102
RTVSPropertyOp20
 70
     1
102
RTVSPropertyOp21
 70
     1
102
RTVSPropertyOp22
 70
     1
102
RTVSPropertyOp23
 70
     1
102
RTVSPropertyOp24
 70
     1
102
RTVSPropertyOp25
 70
     1
102
RTVSPropertyOp26
 70
     1
102
RTVSPropertyOp27
 70
     1
102
RTVSPropertyOp28
 70
     1
102
RTVSPropertyOp29
 70
     1
102
RTVSPropertyOp30
 70
     1
102
RTVSPropertyOp31
 70
     1
102
RTVSPropertyOp32
 70
     1
  0
XRECORD
  5
157
102
{ACAD_REACTORS
330
156
102
}
330
156
100
AcDbXrecord
280
     1
102
RTVSPropertyOp0
 70
     1
102
RTVSPropertyOp1
 70
     1
102
RTVSPropertyOp2
 70
     1
102
RTVSPropertyOp3
 70
     1
102
RTVSPropertyOp4
 70
     1
102
RTVSPropertyOp5
 70
     1
102
RTVSPropertyOp6
 70
     1
102
RTVSPropertyOp7
 70
     1
102
RTVSPropertyOp8
 70
     1
102
RTVSPropertyOp9
 70
     1
102
RTVSPropertyOp10
 70
     1
102
RTVSPropertyOp11
 70
     1
102
RTVSPropertyOp12
 70
     1
102
RTVSPropertyOp13
 70
     1
102
RTVSPropertyOp14
 70
     1
102
RTVSPropertyOp15
 70
     1
102
RTVSPropertyOp16
 70
     1
102
RTVSPropertyOp17
 70
     1
102
RTVSPropertyOp18
 70
     1
102
RTVSPropertyOp19
 70
     1
102
RTVSPropertyOp20
 70
     1
102
RTVSPropertyOp21
 70
     1
102
RTVSPropertyOp22
 70
     1
102
RTVSPropertyOp23
 70
     1
102
RTVSPropertyOp24
 70
     1
102
RTVSPropertyOp25
 70
     1
102
RTVSPropertyOp26
 70
     1
102
RTVSPropertyOp27
 70
     1
102
RTVSPropertyOp28
 70
     1
102
RTVSPropertyOp29
 70
     1
102
RTVSPropertyOp30
 70
     1
102
RTVSPropertyOp31
 70
     1
102
RTVSPropertyOp32
 70
     1
  0
XRECORD
  5
14B
102
{ACAD_REACTORS
330
14A
102
}
330
14A
100
AcDbXrecord
280
     1
102
RTVSPropertyOp0
 70
     1
102
RTVSPropertyOp1
 70
     1
102
RTVSPropertyOp2
 70
     1
102
RTVSPropertyOp3
 70
     1
102
RTVSPropertyOp4
 70
     1
102
RTVSPropertyOp5
 70
     1
102
RTVSPropertyOp6
 70
     1
102
RTVSPropertyOp7
 70
     1
102
RTVSPropertyOp8
 70
     1
102
RTVSPropertyOp9
 70
     1
102
RTVSPropertyOp10
 70
     1
102
RTVSPropertyOp11
 70
     1
102
RTVSPropertyOp12
 70
     1
102
RTVSPropertyOp13
 70
     1
102
RTVSPropertyOp14
 70
     1
102
RTVSPropertyOp15
 70
     1
102
RTVSPropertyOp16
 70
     1
102
RTVSPropertyOp17
 70
     1
102
RTVSPropertyOp18
 70
     1
102
RTVSPropertyOp19
 70
     1
102
RTVSPropertyOp20
 70
     1
102
RTVSPropertyOp21
 70
     1
102
RTVSPropertyOp22
 70
     1
102
RTVSPropertyOp23
 70
     1
102
RTVSPropertyOp24
 70
     1
102
RTVSPropertyOp25
 70
     1
102
RTVSPropertyOp26
 70
     1
102
RTVSPropertyOp27
 70
     1
102
RTVSPropertyOp28
 70
     1
102
RTVSPropertyOp29
 70
     1
102
RTVSPropertyOp30
 70
     1
102
RTVSPropertyOp31
 70
     1
102
RTVSPropertyOp32
 70
     1
  0
XRECORD
  5
14D
102
{ACAD_REACTORS
330
14C
102
}
330
14C
100
AcDbXrecord
280
     1
102
RTVSPropertyOp0
 70
     1
102
RTVSPropertyOp1
 70
     1
102
RTVSPropertyOp2
 70
     1
102
RTVSPropertyOp3
 70
     1
102
RTVSPropertyOp4
 70
     1
102
RTVSPropertyOp5
 70
     1
102
RTVSPropertyOp6
 70
     1
102
RTVSPropertyOp7
 70
     1
102
RTVSPropertyOp8
 70
     1
102
RTVSPropertyOp9
 70
     1
102
RTVSPropertyOp10
 70
     1
102
RTVSPropertyOp11
 70
     1
102
RTVSPropertyOp12
 70
     1
102
RTVSPropertyOp13
 70
     1
102
RTVSPropertyOp14
 70
     1
102
RTVSPropertyOp15
 70
     1
102
RTVSPropertyOp16
 70
     1
102
RTVSPropertyOp17
 70
     1
102
RTVSPropertyOp18
 70
     1
102
RTVSPropertyOp19
 70
     1
102
RTVSPropertyOp20
 70
     1
102
RTVSPropertyOp21
 70
     1
102
RTVSPropertyOp22
 70
     1
102
RTVSPropertyOp23
 70
     1
102
RTVSPropertyOp24
 70
     1
102
RTVSPropertyOp25
 70
     1
102
RTVSPropertyOp26
 70
     1
102
RTVSPropertyOp27
 70
     1
102
RTVSPropertyOp28
 70
     1
102
RTVSPropertyOp29
 70
     1
102
RTVSPropertyOp30
 70
     1
102
RTVSPropertyOp31
 70
     1
102
RTVSPropertyOp32
 70
     1
  0
XRECORD
  5
155
102
{ACAD_REACTORS
330
154
102
}
330
154
100
AcDbXrecord
280
     1
102
RTVSPropertyOp0
 70
     1
102
RTVSPropertyOp1
 70
     1
102
RTVSPropertyOp2
 70
     1
102
RTVSPropertyOp3
 70
     1
102
RTVSPropertyOp4
 70
     1
102
RTVSPropertyOp5
 70
     1
102
RTVSPropertyOp6
 70
     1
102
RTVSPropertyOp7
 70
     1
102
RTVSPropertyOp8
 70
     1
102
RTVSPropertyOp9
 70
     1
102
RTVSPropertyOp10
 70
     1
102
RTVSPropertyOp11
 70
     1
102
RTVSPropertyOp12
 70
     1
102
RTVSPropertyOp13
 70
     1
102
RTVSPropertyOp14
 70
     1
102
RTVSPropertyOp15
 70
     1
102
RTVSPropertyOp16
 70
     1
102
RTVSPropertyOp17
 70
     1
102
RTVSPropertyOp18
 70
     1
102
RTVSPropertyOp19
 70
     1
102
RTVSPropertyOp20
 70
     1
102
RTVSPropertyOp21
 70
     1
102
RTVSPropertyOp22
 70
     1
102
RTVSPropertyOp23
 70
     1
102
RTVSPropertyOp24
 70
     1
102
RTVSPropertyOp25
 70
     1
102
RTVSPropertyOp26
 70
     1
102
RTVSPropertyOp27
 70
     1
102
RTVSPropertyOp28
 70
     1
102
RTVSPropertyOp29
 70
     1
102
RTVSPropertyOp30
 70
     1
102
RTVSPropertyOp31
 70
     1
102
RTVSPropertyOp32
 70
     1
  0
XRECORD
  5
139
102
{ACAD_REACTORS
330
138
102
}
330
138
100
AcDbXrecord
280
     1
102
RTVSPropertyOp0
 70
     1
102
RTVSPropertyOp1
 70
     1
102
RTVSPropertyOp2
 70
     1
102
RTVSPropertyOp3
 70
     1
102
RTVSPropertyOp4
 70
     1
102
RTVSPropertyOp5
 70
     1
102
RTVSPropertyOp6
 70
     1
102
RTVSPropertyOp7
 70
     1
102
RTVSPropertyOp8
 70
     1
102
RTVSPropertyOp9
 70
     1
102
RTVSPropertyOp10
 70
     1
102
RTVSPropertyOp11
 70
     1
102
RTVSPropertyOp12
 70
     1
102
RTVSPropertyOp13
 70
     1
102
RTVSPropertyOp14
 70
     1
102
RTVSPropertyOp15
 70
     1
102
RTVSPropertyOp16
 70
     1
102
RTVSPropertyOp17
 70
     1
102
RTVSPropertyOp18
 70
     1
102
RTVSPropertyOp19
 70
     1
102
RTVSPropertyOp20
 70
     1
102
RTVSPropertyOp21
 70
     1
102
RTVSPropertyOp22
 70
     1
102
RTVSPropertyOp23
 70
     1
102
RTVSPropertyOp24
 70
     1
102
RTVSPropertyOp25
 70
     1
102
RTVSPropertyOp26
 70
     1
102
RTVSPropertyOp27
 70
     1
102
RTVSPropertyOp28
 70
     1
102
RTVSPropertyOp29
 70
     1
102
RTVSPropertyOp30
 70
     1
102
RTVSPropertyOp31
 70
     1
102
RTVSPropertyOp32
 70
     1
  0
XRECORD
  5
13B
102
{ACAD_REACTORS
330
13A
102
}
330
13A
100
AcDbXrecord
280
     1
102
RTVSPropertyOp0
 70
     1
102
RTVSPropertyOp1
 70
     1
102
RTVSPropertyOp2
 70
     1
102
RTVSPropertyOp3
 70
     1
102
RTVSPropertyOp4
 70
     1
102
RTVSPropertyOp5
 70
     1
102
RTVSPropertyOp6
 70
     1
102
RTVSPropertyOp7
 70
     1
102
RTVSPropertyOp8
 70
     1
102
RTVSPropertyOp9
 70
     1
102
RTVSPropertyOp10
 70
     1
102
RTVSPropertyOp11
 70
     1
102
RTVSPropertyOp12
 70
     1
102
RTVSPropertyOp13
 70
     1
102
RTVSPropertyOp14
 70
     1
102
RTVSPropertyOp15
 70
     1
102
RTVSPropertyOp16
 70
     1
102
RTVSPropertyOp17
 70
     1
102
RTVSPropertyOp18
 70
     1
102
RTVSPropertyOp19
 70
     1
102
RTVSPropertyOp20
 70
     1
102
RTVSPropertyOp21
 70
     1
102
RTVSPropertyOp22
 70
     1
102
RTVSPropertyOp23
 70
     1
102
RTVSPropertyOp24
 70
     1
102
RTVSPropertyOp25
 70
     1
102
RTVSPropertyOp26
 70
     1
102
RTVSPropertyOp27
 70
     1
102
RTVSPropertyOp28
 70
     1
102
RTVSPropertyOp29
 70
     1
102
RTVSPropertyOp30
 70
     1
102
RTVSPropertyOp31
 70
     1
102
RTVSPropertyOp32
 70
     1
  0
XRECORD
  5
13D
102
{ACAD_REACTORS
330
13C
102
}
330
13C
100
AcDbXrecord
280
     1
102
RTVSPropertyOp0
 70
     1
102
RTVSPropertyOp1
 70
     1
102
RTVSPropertyOp2
 70
     1
102
RTVSPropertyOp3
 70
     1
102
RTVSPropertyOp4
 70
     1
102
RTVSPropertyOp5
 70
     1
102
RTVSPropertyOp6
 70
     1
102
RTVSPropertyOp7
 70
     1
102
RTVSPropertyOp8
 70
     1
102
RTVSPropertyOp9
 70
     1
102
RTVSPropertyOp10
 70
     1
102
RTVSPropertyOp11
 70
     1
102
RTVSPropertyOp12
 70
     1
102
RTVSPropertyOp13
 70
     1
102
RTVSPropertyOp14
 70
     1
102
RTVSPropertyOp15
 70
     1
102
RTVSPropertyOp16
 70
     1
102
RTVSPropertyOp17
 70
     1
102
RTVSPropertyOp18
 70
     1
102
RTVSPropertyOp19
 70
     1
102
RTVSPropertyOp20
 70
     1
102
RTVSPropertyOp21
 70
     1
102
RTVSPropertyOp22
 70
     1
102
RTVSPropertyOp23
 70
     1
102
RTVSPropertyOp24
 70
     1
102
RTVSPropertyOp25
 70
     1
102
RTVSPropertyOp26
 70
     1
102
RTVSPropertyOp27
 70
     1
102
RTVSPropertyOp28
 70
     1
102
RTVSPropertyOp29
 70
     1
102
RTVSPropertyOp30
 70
     1
102
RTVSPropertyOp31
 70
     1
102
RTVSPropertyOp32
 70
     1
  0
XRECORD
  5
13F
102
{ACAD_REACTORS
330
13E
102
}
330
13E
100
AcDbXrecord
280
     1
102
RTVSPropertyOp0
 70
     1
102
RTVSPropertyOp1
 70
     1
102
RTVSPropertyOp2
 70
     1
102
RTVSPropertyOp3
 70
     1
102
RTVSPropertyOp4
 70
     1
102
RTVSPropertyOp5
 70
     1
102
RTVSPropertyOp6
 70
     1
102
RTVSPropertyOp7
 70
     1
102
RTVSPropertyOp8
 70
     1
102
RTVSPropertyOp9
 70
     1
102
RTVSPropertyOp10
 70
     1
102
RTVSPropertyOp11
 70
     1
102
RTVSPropertyOp12
 70
     1
102
RTVSPropertyOp13
 70
     1
102
RTVSPropertyOp14
 70
     1
102
RTVSPropertyOp15
 70
     1
102
RTVSPropertyOp16
 70
     1
102
RTVSPropertyOp17
 70
     1
102
RTVSPropertyOp18
 70
     1
102
RTVSPropertyOp19
 70
     1
102
RTVSPropertyOp20
 70
     1
102
RTVSPropertyOp21
 70
     1
102
RTVSPropertyOp22
 70
     1
102
RTVSPropertyOp23
 70
     1
102
RTVSPropertyOp24
 70
     1
102
RTVSPropertyOp25
 70
     1
102
RTVSPropertyOp26
 70
     1
102
RTVSPropertyOp27
 70
     1
102
RTVSPropertyOp28
 70
     1
102
RTVSPropertyOp29
 70
     1
102
RTVSPropertyOp30
 70
     1
102
RTVSPropertyOp31
 70
     1
102
RTVSPropertyOp32
 70
     1
  0
XRECORD
  5
153
102
{ACAD_REACTORS
330
152
102
}
330
152
100
AcDbXrecord
280
     1
102
RTVSPropertyOp0
 70
     1
102
RTVSPropertyOp1
 70
     1
102
RTVSPropertyOp2
 70
     1
102
RTVSPropertyOp3
 70
     1
102
RTVSPropertyOp4
 70
     1
102
RTVSPropertyOp5
 70
     1
102
RTVSPropertyOp6
 70
     1
102
RTVSPropertyOp7
 70
     1
102
RTVSPropertyOp8
 70
     1
102
RTVSPropertyOp9
 70
     1
102
RTVSPropertyOp10
 70
     1
102
RTVSPropertyOp11
 70
     1
102
RTVSPropertyOp12
 70
     1
102
RTVSPropertyOp13
 70
     1
102
RTVSPropertyOp14
 70
     1
102
RTVSPropertyOp15
 70
     1
102
RTVSPropertyOp16
 70
     1
102
RTVSPropertyOp17
 70
     1
102
RTVSPropertyOp18
 70
     1
102
RTVSPropertyOp19
 70
     1
102
RTVSPropertyOp20
 70
     1
102
RTVSPropertyOp21
 70
     1
102
RTVSPropertyOp22
 70
     1
102
RTVSPropertyOp23
 70
     1
102
RTVSPropertyOp24
 70
     1
102
RTVSPropertyOp25
 70
     1
102
RTVSPropertyOp26
 70
     1
102
RTVSPropertyOp27
 70
     1
102
RTVSPropertyOp28
 70
     1
102
RTVSPropertyOp29
 70
     1
102
RTVSPropertyOp30
 70
     1
102
RTVSPropertyOp31
 70
     1
102
RTVSPropertyOp32
 70
     1
  0
XRECORD
  5
149
102
{ACAD_REACTORS
330
148
102
}
330
148
100
AcDbXrecord
280
     1
102
RTVSPropertyOp0
 70
     1
102
RTVSPropertyOp1
 70
     1
102
RTVSPropertyOp2
 70
     1
102
RTVSPropertyOp3
 70
     1
102
RTVSPropertyOp4
 70
     1
102
RTVSPropertyOp5
 70
     1
102
RTVSPropertyOp6
 70
     1
102
RTVSPropertyOp7
 70
     1
102
RTVSPropertyOp8
 70
     1
102
RTVSPropertyOp9
 70
     1
102
RTVSPropertyOp10
 70
     1
102
RTVSPropertyOp11
 70
     1
102
RTVSPropertyOp12
 70
     1
102
RTVSPropertyOp13
 70
     1
102
RTVSPropertyOp14
 70
     1
102
RTVSPropertyOp15
 70
     1
102
RTVSPropertyOp16
 70
     1
102
RTVSPropertyOp17
 70
     1
102
RTVSPropertyOp18
 70
     1
102
RTVSPropertyOp19
 70
     1
102
RTVSPropertyOp20
 70
     1
102
RTVSPropertyOp21
 70
     1
102
RTVSPropertyOp22
 70
     1
102
RTVSPropertyOp23
 70
     1
102
RTVSPropertyOp24
 70
     1
102
RTVSPropertyOp25
 70
     1
102
RTVSPropertyOp26
 70
     1
102
RTVSPropertyOp27
 70
     1
102
RTVSPropertyOp28
 70
     1
102
RTVSPropertyOp29
 70
     1
102
RTVSPropertyOp30
 70
     1
102
RTVSPropertyOp31
 70
     1
102
RTVSPropertyOp32
 70
     1
  0
XRECORD
  5
151
102
{ACAD_REACTORS
330
150
102
}
330
150
100
AcDbXrecord
280
     1
102
RTVSPropertyOp0
 70
     1
102
RTVSPropertyOp1
 70
     1
102
RTVSPropertyOp2
 70
     1
102
RTVSPropertyOp3
 70
     1
102
RTVSPropertyOp4
 70
     1
102
RTVSPropertyOp5
 70
     1
102
RTVSPropertyOp6
 70
     1
102
RTVSPropertyOp7
 70
     1
102
RTVSPropertyOp8
 70
     1
102
RTVSPropertyOp9
 70
     1
102
RTVSPropertyOp10
 70
     1
102
RTVSPropertyOp11
 70
     1
102
RTVSPropertyOp12
 70
     1
102
RTVSPropertyOp13
 70
     1
102
RTVSPropertyOp14
 70
     1
102
RTVSPropertyOp15
 70
     1
102
RTVSPropertyOp16
 70
     1
102
RTVSPropertyOp17
 70
     1
102
RTVSPropertyOp18
 70
     1
102
RTVSPropertyOp19
 70
     1
102
RTVSPropertyOp20
 70
     1
102
RTVSPropertyOp21
 70
     1
102
RTVSPropertyOp22
 70
     1
102
RTVSPropertyOp23
 70
     1
102
RTVSPropertyOp24
 70
     1
102
RTVSPropertyOp25
 70
     1
102
RTVSPropertyOp26
 70
     1
102
RTVSPropertyOp27
 70
     1
102
RTVSPropertyOp28
 70
     1
102
RTVSPropertyOp29
 70
     1
102
RTVSPropertyOp30
 70
     1
102
RTVSPropertyOp31
 70
     1
102
RTVSPropertyOp32
 70
     1
  0
ENDSEC
  0
EOF
