  0
SECTION
  2
HEADER
  9
$ACADVER
  1
AC1021
  9
$ACADMAINTVER
 70
    25
  9
$DWGCODEPAGE
  3
ANSI_1252
  9
$INSBASE
 10
0.0
 20
0.0
 30
0.0
  9
$EXTMIN
 10
-43.8243
 20
-114.8806
 30
0.0
  9
$EXTMAX
 10
40.7906
 20
131.9331
 30
0.0
  9
$LIMMIN
 10
0.0
 20
0.0
  9
$LIMMAX
 10
12.0
 20
9.0
  9
$ORTHOMODE
 70
     0
  9
$REGENMODE
 70
     1
  9
$FILLMODE
 70
     1
  9
$QTEXTMODE
 70
     0
  9
$MIRRTEXT
 70
     1
  9
$LTSCALE
 40
1.0
  9
$ATTMODE
 70
     1
  9
$TEXTSIZE
 40
0.2
  9
$TRACEWID
 40
0.05
  9
$TEXTSTYLE
  7
Standard
  9
$CLAYER
  8
0
  9
$CELTYPE
  6
ByLayer
  9
$CECOLOR
 62
   256
  9
$CELTSCALE
 40
1.0
  9
$DISPSILH
 70
     0
  9
$DIMSCALE
 40
1.0
  9
$DIMASZ
 40
0.18
  9
$DIMEXO
 40
0.0625
  9
$DIMDLI
 40
0.38
  9
$DIMRND
 40
0.0
  9
$DIMDLE
 40
0.0
  9
$DIMEXE
 40
0.18
  9
$DIMTP
 40
0.0
  9
$DIMTM
 40
0.0
  9
$DIMTXT
 40
0.18
  9
$DIMCEN
 40
0.09
  9
$DIMTSZ
 40
0.0
  9
$DIMTOL
 70
     0
  9
$DIMLIM
 70
     0
  9
$DIMTIH
 70
     1
  9
$DIMTOH
 70
     1
  9
$DIMSE1
 70
     0
  9
$DIMSE2
 70
     0
  9
$DIMTAD
 70
     0
  9
$DIMZIN
 70
     0
  9
$DIMBLK
  1

  9
$DIMASO
 70
     1
  9
$DIMSHO
 70
     1
  9
$DIMPOST
  1

  9
$DIMAPOST
  1

  9
$DIMALT
 70
     0
  9
$DIMALTD
 70
     2
  9
$DIMALTF
 40
25.4
  9
$DIMLFAC
 40
1.0
  9
$DIMTOFL
 70
     0
  9
$DIMTVP
 40
0.0
  9
$DIMTIX
 70
     0
  9
$DIMSOXD
 70
     0
  9
$DIMSAH
 70
     0
  9
$DIMBLK1
  1

  9
$DIMBLK2
  1

  9
$DIMSTYLE
  2
Standard
  9
$DIMCLRD
 70
     0
  9
$DIMCLRE
 70
     0
  9
$DIMCLRT
 70
     0
  9
$DIMTFAC
 40
1.0
  9
$DIMGAP
 40
0.09
  9
$DIMJUST
 70
     0
  9
$DIMSD1
 70
     0
  9
$DIMSD2
 70
     0
  9
$DIMTOLJ
 70
     1
  9
$DIMTZIN
 70
     0
  9
$DIMALTZ
 70
     0
  9
$DIMALTTZ
 70
     0
  9
$DIMUPT
 70
     0
  9
$DIMDEC
 70
     4
  9
$DIMTDEC
 70
     4
  9
$DIMALTU
 70
     2
  9
$DIMALTTD
 70
     2
  9
$DIMTXSTY
  7
Standard
  9
$DIMAUNIT
 70
     0
  9
$DIMADEC
 70
     0
  9
$DIMALTRND
 40
0.0
  9
$DIMAZIN
 70
     0
  9
$DIMDSEP
 70
    46
  9
$DIMATFIT
 70
     3
  9
$DIMFRAC
 70
     0
  9
$DIMLDRBLK
  1

  9
$DIMLUNIT
 70
     2
  9
$DIMLWD
 70
    -2
  9
$DIMLWE
 70
    -2
  9
$DIMTMOVE
 70
     0
  9
$DIMFXL
 40
1.0
  9
$DIMFXLON
 70
     0
  9
$DIMJOGANG
 40
0.7853981633974483
  9
$DIMTFILL
 70
     0
  9
$DIMTFILLCLR
 70
     0
  9
$DIMARCSYM
 70
     0
  9
$DIMLTYPE
  6

  9
$DIMLTEX1
  6

  9
$DIMLTEX2
  6

  9
$LUNITS
 70
     2
  9
$LUPREC
 70
     4
  9
$SKETCHINC
 40
0.1
  9
$FILLETRAD
 40
0.5
  9
$AUNITS
 70
     0
  9
$AUPREC
 70
     0
  9
$MENU
  1
.
  9
$ELEVATION
 40
0.0
  9
$PELEVATION
 40
0.0
  9
$THICKNESS
 40
0.0
  9
$LIMCHECK
 70
     0
  9
$CHAMFERA
 40
0.5
  9
$CHAMFERB
 40
0.5
  9
$CHAMFERC
 40
1.0
  9
$CHAMFERD
 40
0.0
  9
$SKPOLY
 70
     0
  9
$TDCREATE
 40
2458493.746175428
  9
$TDUCREATE
 40
2458493.746175428
  9
$TDUPDATE
 40
2458493.746175625
  9
$TDUUPDATE
 40
2458493.746175625
  9
$TDINDWG
 40
0.0000000116
  9
$TDUSRTIMER
 40
0.0000000116
  9
$USRTIMER
 70
     1
  9
$ANGBASE
 50
0.0
  9
$ANGDIR
 70
     0
  9
$PDMODE
 70
     0
  9
$PDSIZE
 40
0.0
  9
$PLINEWID
 40
0.0
  9
$SPLFRAME
 70
     0
  9
$SPLINETYPE
 70
     6
  9
$SPLINESEGS
 70
     8
  9
$HANDSEED
  5
D6
  9
$SURFTAB1
 70
     6
  9
$SURFTAB2
 70
     6
  9
$SURFTYPE
 70
     6
  9
$SURFU
 70
     6
  9
$SURFV
 70
     6
  9
$UCSBASE
  2

  9
$UCSNAME
  2

  9
$UCSORG
 10
0.0
 20
0.0
 30
0.0
  9
$UCSXDIR
 10
1.0
 20
0.0
 30
0.0
  9
$UCSYDIR
 10
0.0
 20
1.0
 30
0.0
  9
$UCSORTHOREF
  2

  9
$UCSORTHOVIEW
 70
     0
  9
$UCSORGTOP
 10
0.0
 20
0.0
 30
0.0
  9
$UCSORGBOTTOM
 10
0.0
 20
0.0
 30
0.0
  9
$UCSORGLEFT
 10
0.0
 20
0.0
 30
0.0
  9
$UCSORGRIGHT
 10
0.0
 20
0.0
 30
0.0
  9
$UCSORGFRONT
 10
0.0
 20
0.0
 30
0.0
  9
$UCSORGBACK
 10
0.0
 20
0.0
 30
0.0
  9
$PUCSBASE
  2

  9
$PUCSNAME
  2

  9
$PUCSORG
 10
0.0
 20
0.0
 30
0.0
  9
$PUCSXDIR
 10
1.0
 20
0.0
 30
0.0
  9
$PUCSYDIR
 10
0.0
 20
1.0
 30
0.0
  9
$PUCSORTHOREF
  2

  9
$PUCSORTHOVIEW
 70
     0
  9
$PUCSORGTOP
 10
0.0
 20
0.0
 30
0.0
  9
$PUCSORGBOTTOM
 10
0.0
 20
0.0
 30
0.0
  9
$PUCSORGLEFT
 10
0.0
 20
0.0
 30
0.0
  9
$PUCSORGRIGHT
 10
0.0
 20
0.0
 30
0.0
  9
$PUCSORGFRONT
 10
0.0
 20
0.0
 30
0.0
  9
$PUCSORGBACK
 10
0.0
 20
0.0
 30
0.0
  9
$USERI1
 70
     0
  9
$USERI2
 70
     0
  9
$USERI3
 70
     0
  9
$USERI4
 70
     0
  9
$USERI5
 70
     0
  9
$USERR1
 40
0.0
  9
$USERR2
 40
0.0
  9
$USERR3
 40
0.0
  9
$USERR4
 40
0.0
  9
$USERR5
 40
0.0
  9
$WORLDVIEW
 70
     1
  9
$SHADEDGE
 70
     3
  9
$SHADEDIF
 70
    70
  9
$TILEMODE
 70
     1
  9
$MAXACTVP
 70
    64
  9
$PINSBASE
 10
0.0
 20
0.0
 30
0.0
  9
$PLIMCHECK
 70
     0
  9
$PEXTMIN
 10
1.000000000000000E+20
 20
1.000000000000000E+20
 30
1.000000000000000E+20
  9
$PEXTMAX
 10
-1.000000000000000E+20
 20
-1.000000000000000E+20
 30
-1.000000000000000E+20
  9
$PLIMMIN
 10
0.0
 20
0.0
  9
$PLIMMAX
 10
12.0
 20
9.0
  9
$UNITMODE
 70
     0
  9
$VISRETAIN
 70
     1
  9
$PLINEGEN
 70
     0
  9
$PSLTSCALE
 70
     1
  9
$TREEDEPTH
 70
  3020
  9
$CMLSTYLE
  2
Standard
  9
$CMLJUST
 70
     0
  9
$CMLSCALE
 40
1.0
  9
$PROXYGRAPHICS
 70
     1
  9
$MEASUREMENT
 70
     0
  9
$CELWEIGHT
370
    -1
  9
$ENDCAPS
280
     0
  9
$JOINSTYLE
280
     0
  9
$LWDISPLAY
290
     0
  9
$INSUNITS
 70
     4
  9
$HYPERLINKBASE
  1

  9
$STYLESHEET
  1

  9
$XEDIT
290
     1
  9
$CEPSNTYPE
380
     0
  9
$PSTYLEMODE
290
     1
  9
$FINGERPRINTGUID
  2
{D1CD3EC7-8BDF-44AB-844C-7557A4C77163}
  9
$VERSIONGUID
  2
{FAEB1C32-E019-11D5-929B-00C0DF256EC4}
  9
$EXTNAMES
290
     1
  9
$PSVPSCALE
 40
0.0
  9
$OLESTARTUP
290
     0
  9
$SORTENTS
280
   127
  9
$INDEXCTL
280
     0
  9
$HIDETEXT
280
     1
  9
$XCLIPFRAME
290
     0
  9
$HALOGAP
280
     0
  9
$OBSCOLOR
 70
   257
  9
$OBSLTYPE
280
     0
  9
$INTERSECTIONDISPLAY
280
     0
  9
$INTERSECTIONCOLOR
 70
   257
  9
$DIMASSOC
280
     2
  9
$PROJECTNAME
  1

  9
$CAMERADISPLAY
290
     0
  9
$LENSLENGTH
 40
50.0
  9
$CAMERAHEIGHT
 40
0.0
  9
$STEPSPERSEC
 40
2.0
  9
$STEPSIZE
 40
6.0
  9
$3DDWFPREC
 40
2.0
  9
$PSOLWIDTH
 40
0.25
  9
$PSOLHEIGHT
 40
4.0
  9
$LOFTANG1
 40
1.570796326794897
  9
$LOFTANG2
 40
1.570796326794897
  9
$LOFTMAG1
 40
0.0
  9
$LOFTMAG2
 40
0.0
  9
$LOFTPARAM
 70
     7
  9
$LOFTNORMALS
280
     1
  9
$LATITUDE
 40
37.795
  9
$LONGITUDE
 40
-122.394
  9
$NORTHDIRECTION
 40
0.0
  9
$TIMEZONE
 70
 -8000
  9
$LIGHTGLYPHDISPLAY
280
     1
  9
$TILEMODELIGHTSYNCH
280
     1
  9
$SOLIDHIST
280
     1
  9
$SHOWHIST
280
     1
  9
$DWFFRAME
280
     2
  9
$DGNFRAME
280
     2
  9
$REALWORLDSCALE
290
     1
  9
$INTERFERECOLOR
 62
   256
  9
$CSHADOW
280
     0
  9
$SHADOWPLANELOCATION
 40
0.0
  0
ENDSEC
  0
SECTION
  2
CLASSES
  0
CLASS
  1
ACDBDICTIONARYWDFLT
  2
AcDbDictionaryWithDefault
  3
ObjectDBX Classes
 90
        0
 91
        4
280
     0
281
     0
  0
CLASS
  1
VISUALSTYLE
  2
AcDbVisualStyle
  3
ObjectDBX Classes
 90
     4095
 91
        4
280
     0
281
     0
  0
CLASS
  1
MATERIAL
  2
AcDbMaterial
  3
ObjectDBX Classes
 90
     1153
 91
        4
280
     0
281
     0
  0
ENDSEC
  0
SECTION
  2
TABLES
  0
TABLE
  2
VPORT
  5
8
330
0
100
AcDbSymbolTable
 70
     1
  0
VPORT
  5
29
330
8
100
AcDbSymbolTableRecord
100
AcDbViewportTableRecord
  2
*Active
 70
     0
 10
0.0
 20
0.0
 11
1.0
 21
1.0
 12
10.42990654205607
 22
4.5
 13
0.0
 23
0.0
 14
0.5
 24
0.5
 15
0.5
 25
0.5
 16
0.0
 26
0.0
 36
1.0
 17
0.0
 27
0.0
 37
0.0
 40
9.0
 41
1.972972972850329
 42
50.0
 43
0.0
 44
0.0
 50
0.0
 51
0.0
 71
     0
 72
   100
 73
     1
 74
     3
 75
     0
 76
     0
 77
     0
 78
     0
281
     0
 65
     1
110
0.0
120
0.0
130
0.0
111
1.0
121
0.0
131
0.0
112
0.0
122
1.0
132
0.0
 79
     0
146
0.0
 60
     3
 61
     5
292
     1
282
     1
141
0.0
142
0.0
 63
   250
  0
ENDTAB
  0
TABLE
  2
LTYPE
  5
5
330
0
100
AcDbSymbolTable
 70
     1
  0
LTYPE
  5
14
330
5
100
AcDbSymbolTableRecord
100
AcDbLinetypeTableRecord
  2
ByBlock
 70
     0
  3

 72
    65
 73
     0
 40
0.0
  0
LTYPE
  5
15
330
5
100
AcDbSymbolTableRecord
100
AcDbLinetypeTableRecord
  2
ByLayer
 70
     0
  3

 72
    65
 73
     0
 40
0.0
  0
LTYPE
  5
16
330
5
100
AcDbSymbolTableRecord
100
AcDbLinetypeTableRecord
  2
Continuous
 70
     0
  3
Solid line
 72
    65
 73
     0
 40
0.0
  0
ENDTAB
  0
TABLE
  2
LAYER
  5
2
330
0
100
AcDbSymbolTable
 70
     3
  0
LAYER
  5
10
330
2
100
AcDbSymbolTableRecord
100
AcDbLayerTableRecord
  2
0
 70
     0
 62
     7
  6
Continuous
370
    -3
390
F
347
3E
  0
LAYER
  5
40
330
2
100
AcDbSymbolTableRecord
100
AcDbLayerTableRecord
  2
layer 1
 70
     0
 62
     7
  6
Continuous
370
    -3
390
F
347
3E
  0
LAYER
  5
B3
330
2
100
AcDbSymbolTableRecord
100
AcDbLayerTableRecord
  2
Master Guides
 70
     0
 62
     7
  6
Continuous
370
    -3
390
F
347
3E
  0
ENDTAB
  0
TABLE
  2
STYLE
  5
3
330
0
100
AcDbSymbolTable
 70
     1
  0
STYLE
  5
11
330
3
100
AcDbSymbolTableRecord
100
AcDbTextStyleTableRecord
  2
Standard
 70
     0
 40
0.0
 41
1.0
 50
0.0
 71
     0
 42
0.2
  3
txt
  4

  0
ENDTAB
  0
TABLE
  2
VIEW
  5
6
330
0
100
AcDbSymbolTable
 70
     0
  0
ENDTAB
  0
TABLE
  2
UCS
  5
7
330
0
100
AcDbSymbolTable
 70
     0
  0
ENDTAB
  0
TABLE
  2
APPID
  5
9
330
0
100
AcDbSymbolTable
 70
     2
  0
APPID
  5
12
330
9
100
AcDbSymbolTableRecord
100
AcDbRegAppTableRecord
  2
ACAD
 70
     0
  0
APPID
  5
3F
330
9
100
AcDbSymbolTableRecord
100
AcDbRegAppTableRecord
  2
ODA
 70
     0
  0
ENDTAB
  0
TABLE
  2
DIMSTYLE
  5
A
330
0
100
AcDbSymbolTable
 70
     1
100
AcDbDimStyleTable
  0
DIMSTYLE
105
27
330
A
100
AcDbSymbolTableRecord
100
AcDbDimStyleTableRecord
  2
Standard
 70
     0
178
     0
340
11
  0
ENDTAB
  0
TABLE
  2
BLOCK_RECORD
  5
1
330
0
100
AcDbSymbolTable
 70
     1
  0
BLOCK_RECORD
  5
1F
330
1
100
AcDbSymbolTableRecord
100
AcDbBlockTableRecord
  2
*Model_Space
340
22
 70
     0
280
     1
281
     0
  0
BLOCK_RECORD
  5
1B
330
1
100
AcDbSymbolTableRecord
100
AcDbBlockTableRecord
  2
*Paper_Space
340
1E
 70
     0
280
     1
281
     0
  0
BLOCK_RECORD
  5
23
330
1
100
AcDbSymbolTableRecord
100
AcDbBlockTableRecord
  2
*Paper_Space0
340
26
 70
     0
280
     1
281
     0
  0
ENDTAB
  0
ENDSEC
  0
SECTION
  2
BLOCKS
  0
BLOCK
  5
20
330
1F
100
AcDbEntity
  8
0
100
AcDbBlockBegin
  2
*Model_Space
 70
     0
 10
0.0
 20
0.0
 30
0.0
  3
*Model_Space
  1

  0
ENDBLK
  5
21
330
1F
100
AcDbEntity
  8
0
100
AcDbBlockEnd
  0
BLOCK
  5
1C
330
1B
100
AcDbEntity
 67
     1
  8
0
100
AcDbBlockBegin
  2
*Paper_Space
 70
     0
 10
0.0
 20
0.0
 30
0.0
  3
*Paper_Space
  1

  0
ENDBLK
  5
1D
330
1B
100
AcDbEntity
 67
     1
  8
0
100
AcDbBlockEnd
  0
BLOCK
  5
24
330
23
100
AcDbEntity
  8
0
100
AcDbBlockBegin
  2
*Paper_Space0
 70
     0
 10
0.0
 20
0.0
 30
0.0
  3
*Paper_Space0
  1

  0
ENDBLK
  5
25
330
23
100
AcDbEntity
  8
0
100
AcDbBlockEnd
  0
ENDSEC
  0
SECTION
  2
ENTITIES
  0
SPLINE
  5
41
330
1F
100
AcDbEntity
  8
layer 1
100
AcDbSpline
210
0.0
220
0.0
230
1.0
 70
    11
 71
     3
 72
    20
 73
    16
 74
     0
 42
0.0000000001
 43
0.0000000001
 12
1.0
 22
0.0
 32
0.0
 13
1.0
 23
0.0
 33
0.0
 40
0.0
 40
0.0
 40
0.0
 40
0.0
 40
0.2
 40
0.2
 40
0.2
 40
0.2
 40
0.4
 40
0.4
 40
0.4
 40
0.4
 40
0.6
 40
0.6
 40
0.6
 40
0.6
 40
1.0
 40
1.0
 40
1.0
 40
1.0
 10
-43.8243
 20
-114.8806
 30
0.0
 10
-43.8243
 20
-114.8806
 30
0.0
 10
40.7906
 20
-114.8806
 30
0.0
 10
40.7906
 20
-114.8806
 30
0.0
 10
40.7906
 20
-114.8806
 30
0.0
 10
40.7906
 20
-114.8806
 30
0.0
 10
40.7906
 20
131.9331
 30
0.0
 10
40.7906
 20
131.9331
 30
0.0
 10
40.7906
 20
131.9331
 30
0.0
 10
40.7906
 20
131.9331
 30
0.0
 10
-43.8243
 20
131.9331
 30
0.0
 10
-43.8243
 20
131.9331
 30
0.0
 10
-43.8243
 20
131.9331
 30
0.0
 10
-43.8243
 20
131.9331
 30
0.0
 10
-43.8243
 20
-114.8806
 30
0.0
 10
-43.8243
 20
-114.8806
 30
0.0
  0
SPLINE
  5
42
330
1F
100
AcDbEntity
  8
layer 1
 62
     7
100
AcDbSpline
210
0.0
220
0.0
230
1.0
 70
    11
 71
     3
 72
    28
 73
    24
 74
     0
 42
0.0000000001
 43
0.0000000001
 12
1.0
 22
0.0
 32
0.0
 13
1.0
 23
0.0
 33
0.0
 40
0.0
 40
0.0
 40
0.0
 40
0.0
 40
0.1428571428571428
 40
0.1428571428571428
 40
0.1428571428571428
 40
0.1428571428571428
 40
0.2857142857142857
 40
0.2857142857142857
 40
0.2857142857142857
 40
0.2857142857142857
 40
0.4285714285714285
 40
0.4285714285714285
 40
0.4285714285714285
 40
0.4285714285714285
 40
0.5714285714285714
 40
0.5714285714285714
 40
0.5714285714285714
 40
0.5714285714285714
 40
0.7142857142857143
 40
0.7142857142857143
 40
0.7142857142857143
 40
0.7142857142857143
 40
1.0
 40
1.0
 40
1.0
 40
1.0
 10
33.3984
 20
-31.8035
 30
0.0
 10
35.0715
 20
-33.0705
 30
0.0
 10
35.3423
 20
-34.7435
 30
0.0
 10
34.7579
 20
-36.0558
 30
0.0
 10
34.7579
 20
-36.0558
 30
0.0
 10
36.2734
 20
-35.507
 30
0.0
 10
37.8737
 20
-35.8045
 30
0.0
 10
38.867
 20
-37.3781
 30
0.0
 10
38.867
 20
-37.3781
 30
0.0
 10
38.867
 20
-37.3781
 30
0.0
 10
38.867
 20
-31.8035
 30
0.0
 10
38.867
 20
-31.8035
 30
0.0
 10
38.867
 20
-31.8035
 30
0.0
 10
38.867
 20
-31.8035
 30
0.0
 10
38.867
 20
-26.2288
 30
0.0
 10
38.867
 20
-26.2288
 30
0.0
 10
38.867
 20
-26.2288
 30
0.0
 10
37.8737
 20
-27.8025
 30
0.0
 10
36.2734
 20
-28.1
 30
0.0
 10
34.7579
 20
-27.5512
 30
0.0
 10
34.7579
 20
-27.5512
 30
0.0
 10
35.3422
 20
-28.8635
 30
0.0
 10
35.0715
 20
-30.5364
 30
0.0
 10
33.3984
 20
-31.8035
 30
0.0
  0
SPLINE
  5
43
330
1F
100
AcDbEntity
  8
layer 1
 62
     7
100
AcDbSpline
210
0.0
220
0.0
230
1.0
 70
    11
 71
     3
 72
    92
 73
    88
 74
     0
 42
0.0000000001
 43
0.0000000001
 12
1.0
 22
0.0
 32
0.0
 13
1.0
 23
0.0
 33
0.0
 40
0.0
 40
0.0
 40
0.0
 40
0.0
 40
0.0434782608695652
 40
0.0434782608695652
 40
0.0434782608695652
 40
0.0434782608695652
 40
0.0869565217391304
 40
0.0869565217391304
 40
0.0869565217391304
 40
0.0869565217391304
 40
0.1304347826086956
 40
0.1304347826086956
 40
0.1304347826086956
 40
0.1304347826086956
 40
0.1739130434782609
 40
0.1739130434782609
 40
0.1739130434782609
 40
0.1739130434782609
 40
0.2173913043478261
 40
0.2173913043478261
 40
0.2173913043478261
 40
0.2173913043478261
 40
0.2608695652173913
 40
0.2608695652173913
 40
0.2608695652173913
 40
0.2608695652173913
 40
0.3043478260869565
 40
0.3043478260869565
 40
0.3043478260869565
 40
0.3043478260869565
 40
0.3478260869565217
 40
0.3478260869565217
 40
0.3478260869565217
 40
0.3478260869565217
 40
0.391304347826087
 40
0.391304347826087
 40
0.391304347826087
 40
0.391304347826087
 40
0.4347826086956522
 40
0.4347826086956522
 40
0.4347826086956522
 40
0.4347826086956522
 40
0.4782608695652174
 40
0.4782608695652174
 40
0.4782608695652174
 40
0.4782608695652174
 40
0.5217391304347826
 40
0.5217391304347826
 40
0.5217391304347826
 40
0.5217391304347826
 40
0.5652173913043478
 40
0.5652173913043478
 40
0.5652173913043478
 40
0.5652173913043478
 40
0.6086956521739131
 40
0.6086956521739131
 40
0.6086956521739131
 40
0.6086956521739131
 40
0.6521739130434783
 40
0.6521739130434783
 40
0.6521739130434783
 40
0.6521739130434783
 40
0.6956521739130435
 40
0.6956521739130435
 40
0.6956521739130435
 40
0.6956521739130435
 40
0.7391304347826086
 40
0.7391304347826086
 40
0.7391304347826086
 40
0.7391304347826086
 40
0.782608695652174
 40
0.782608695652174
 40
0.782608695652174
 40
0.782608695652174
 40
0.8260869565217391
 40
0.8260869565217391
 40
0.8260869565217391
 40
0.8260869565217391
 40
0.8695652173913043
 40
0.8695652173913043
 40
0.8695652173913043
 40
0.8695652173913043
 40
0.9130434782608695
 40
0.9130434782608695
 40
0.9130434782608695
 40
0.9130434782608695
 40
1.0
 40
1.0
 40
1.0
 40
1.0
 10
7.4689
 20
-31.7988
 30
0.0
 10
9.9326
 20
-33.4697
 30
0.0
 10
10.4099
 20
-34.7573
 30
0.0
 10
10.1999
 20
-38.2131
 30
0.0
 10
10.1999
 20
-38.2131
 30
0.0
 10
11.2777
 20
-38.1813
 30
0.0
 10
12.4731
 20
-37.7596
 30
0.0
 10
13.7715
 20
-38.4543
 30
0.0
 10
13.7715
 20
-38.4543
 30
0.0
 10
13.4196
 20
-39.8265
 30
0.0
 10
12.2994
 20
-41.3064
 30
0.0
 10
11.2359
 20
-42.0676
 30
0.0
 10
11.2359
 20
-42.0676
 30
0.0
 10
14.3659
 20
-42.5751
 30
0.0
 10
15.3953
 20
-45.0276
 30
0.0
 10
19.6687
 20
-44.6433
 30
0.0
 10
19.6687
 20
-44.6433
 30
0.0
 10
23.5029
 20
-44.1464
 30
0.0
 10
24.9525
 20
-40.2566
 30
0.0
 10
22.4194
 20
-39.0259
 30
0.0
 10
22.4194
 20
-39.0259
 30
0.0
 10
20.2039
 20
-38.654
 30
0.0
 10
20.1446
 20
-40.5978
 30
0.0
 10
20.4085
 20
-41.0252
 30
0.0
 10
20.4085
 20
-41.0252
 30
0.0
 10
18.7897
 20
-40.8488
 30
0.0
 10
17.4263
 20
-38.0792
 30
0.0
 10
19.8195
 20
-36.217
 30
0.0
 10
19.8195
 20
-36.217
 30
0.0
 10
21.8887
 20
-35.0151
 30
0.0
 10
23.2314
 20
-35.365
 30
0.0
 10
24.4599
 20
-36.0531
 30
0.0
 10
24.4599
 20
-36.0531
 30
0.0
 10
24.2356
 20
-35.1395
 30
0.0
 10
24.09
 20
-33.9413
 30
0.0
 10
24.3898
 20
-33.5668
 30
0.0
 10
24.3898
 20
-33.5668
 30
0.0
 10
24.7935
 20
-33.3101
 30
0.0
 10
25.8827
 20
-33.9763
 30
0.0
 10
26.6721
 20
-34.379
 30
0.0
 10
26.6721
 20
-34.379
 30
0.0
 10
27.0855
 20
-33.2395
 30
0.0
 10
28.1757
 20
-32.026
 30
0.0
 10
29.9997
 20
-31.7988
 30
0.0
 10
29.9997
 20
-31.7988
 30
0.0
 10
28.1757
 20
-31.5716
 30
0.0
 10
27.0855
 20
-30.3675
 30
0.0
 10
26.6721
 20
-29.228
 30
0.0
 10
26.6721
 20
-29.228
 30
0.0
 10
25.8827
 20
-29.6306
 30
0.0
 10
24.7935
 20
-30.2969
 30
0.0
 10
24.3898
 20
-30.0402
 30
0.0
 10
24.3898
 20
-30.0402
 30
0.0
 10
24.09
 20
-29.6656
 30
0.0
 10
24.2356
 20
-28.4675
 30
0.0
 10
24.4599
 20
-27.5538
 30
0.0
 10
24.4599
 20
-27.5538
 30
0.0
 10
23.2314
 20
-28.242
 30
0.0
 10
21.8887
 20
-28.5918
 30
0.0
 10
19.8195
 20
-27.39
 30
0.0
 10
19.8195
 20
-27.39
 30
0.0
 10
17.4263
 20
-25.5278
 30
0.0
 10
18.7897
 20
-22.7581
 30
0.0
 10
20.4085
 20
-22.5817
 30
0.0
 10
20.4085
 20
-22.5817
 30
0.0
 10
20.1446
 20
-23.0092
 30
0.0
 10
20.2039
 20
-24.9529
 30
0.0
 10
22.4194
 20
-24.581
 30
0.0
 10
22.4194
 20
-24.581
 30
0.0
 10
24.9525
 20
-23.3504
 30
0.0
 10
23.5029
 20
-19.4606
 30
0.0
 10
19.6687
 20
-18.9636
 30
0.0
 10
19.6687
 20
-18.9636
 30
0.0
 10
15.3953
 20
-18.5794
 30
0.0
 10
14.3659
 20
-21.0318
 30
0.0
 10
11.2359
 20
-21.5393
 30
0.0
 10
11.2359
 20
-21.5393
 30
0.0
 10
12.2994
 20
-22.3006
 30
0.0
 10
13.4196
 20
-23.7804
 30
0.0
 10
13.7715
 20
-25.1526
 30
0.0
 10
13.7715
 20
-25.1526
 30
0.0
 10
12.4731
 20
-25.8473
 30
0.0
 10
11.2777
 20
-25.4257
 30
0.0
 10
10.1999
 20
-25.3939
 30
0.0
 10
10.1999
 20
-25.3939
 30
0.0
 10
10.4099
 20
-28.8496
 30
0.0
 10
9.9326
 20
-30.1279
 30
0.0
 10
7.4689
 20
-31.7988
 30
0.0
  0
SPLINE
  5
44
330
1F
100
AcDbEntity
  8
layer 1
 62
     7
100
AcDbSpline
210
0.0
220
0.0
230
1.0
 70
    11
 71
     3
 72
    28
 73
    24
 74
     0
 42
0.0000000001
 43
0.0000000001
 12
1.0
 22
0.0
 32
0.0
 13
1.0
 23
0.0
 33
0.0
 40
0.0
 40
0.0
 40
0.0
 40
0.0
 40
0.1428571428571428
 40
0.1428571428571428
 40
0.1428571428571428
 40
0.1428571428571428
 40
0.2857142857142857
 40
0.2857142857142857
 40
0.2857142857142857
 40
0.2857142857142857
 40
0.4285714285714285
 40
0.4285714285714285
 40
0.4285714285714285
 40
0.4285714285714285
 40
0.5714285714285714
 40
0.5714285714285714
 40
0.5714285714285714
 40
0.5714285714285714
 40
0.7142857142857143
 40
0.7142857142857143
 40
0.7142857142857143
 40
0.7142857142857143
 40
1.0
 40
1.0
 40
1.0
 40
1.0
 10
-36.5394
 20
-31.8035
 30
0.0
 10
-38.2125
 20
-33.0705
 30
0.0
 10
-38.4833
 20
-34.7435
 30
0.0
 10
-37.8989
 20
-36.0558
 30
0.0
 10
-37.8989
 20
-36.0558
 30
0.0
 10
-39.4144
 20
-35.507
 30
0.0
 10
-41.0147
 20
-35.8045
 30
0.0
 10
-42.008
 20
-37.3781
 30
0.0
 10
-42.008
 20
-37.3781
 30
0.0
 10
-42.008
 20
-37.3781
 30
0.0
 10
-42.008
 20
-31.8035
 30
0.0
 10
-42.008
 20
-31.8035
 30
0.0
 10
-42.008
 20
-31.8035
 30
0.0
 10
-42.008
 20
-31.8035
 30
0.0
 10
-42.008
 20
-26.2288
 30
0.0
 10
-42.008
 20
-26.2288
 30
0.0
 10
-42.008
 20
-26.2288
 30
0.0
 10
-41.0147
 20
-27.8025
 30
0.0
 10
-39.4144
 20
-28.1
 30
0.0
 10
-37.8989
 20
-27.5512
 30
0.0
 10
-37.8989
 20
-27.5512
 30
0.0
 10
-38.4832
 20
-28.8635
 30
0.0
 10
-38.2125
 20
-30.5364
 30
0.0
 10
-36.5394
 20
-31.8035
 30
0.0
  0
SPLINE
  5
45
330
1F
100
AcDbEntity
  8
layer 1
 62
     7
100
AcDbSpline
210
0.0
220
0.0
230
1.0
 70
    11
 71
     3
 72
    92
 73
    88
 74
     0
 42
0.0000000001
 43
0.0000000001
 12
1.0
 22
0.0
 32
0.0
 13
1.0
 23
0.0
 33
0.0
 40
0.0
 40
0.0
 40
0.0
 40
0.0
 40
0.0434782608695652
 40
0.0434782608695652
 40
0.0434782608695652
 40
0.0434782608695652
 40
0.0869565217391304
 40
0.0869565217391304
 40
0.0869565217391304
 40
0.0869565217391304
 40
0.1304347826086956
 40
0.1304347826086956
 40
0.1304347826086956
 40
0.1304347826086956
 40
0.1739130434782609
 40
0.1739130434782609
 40
0.1739130434782609
 40
0.1739130434782609
 40
0.2173913043478261
 40
0.2173913043478261
 40
0.2173913043478261
 40
0.2173913043478261
 40
0.2608695652173913
 40
0.2608695652173913
 40
0.2608695652173913
 40
0.2608695652173913
 40
0.3043478260869565
 40
0.3043478260869565
 40
0.3043478260869565
 40
0.3043478260869565
 40
0.3478260869565217
 40
0.3478260869565217
 40
0.3478260869565217
 40
0.3478260869565217
 40
0.391304347826087
 40
0.391304347826087
 40
0.391304347826087
 40
0.391304347826087
 40
0.4347826086956522
 40
0.4347826086956522
 40
0.4347826086956522
 40
0.4347826086956522
 40
0.4782608695652174
 40
0.4782608695652174
 40
0.4782608695652174
 40
0.4782608695652174
 40
0.5217391304347826
 40
0.5217391304347826
 40
0.5217391304347826
 40
0.5217391304347826
 40
0.5652173913043478
 40
0.5652173913043478
 40
0.5652173913043478
 40
0.5652173913043478
 40
0.6086956521739131
 40
0.6086956521739131
 40
0.6086956521739131
 40
0.6086956521739131
 40
0.6521739130434783
 40
0.6521739130434783
 40
0.6521739130434783
 40
0.6521739130434783
 40
0.6956521739130435
 40
0.6956521739130435
 40
0.6956521739130435
 40
0.6956521739130435
 40
0.7391304347826086
 40
0.7391304347826086
 40
0.7391304347826086
 40
0.7391304347826086
 40
0.782608695652174
 40
0.782608695652174
 40
0.782608695652174
 40
0.782608695652174
 40
0.8260869565217391
 40
0.8260869565217391
 40
0.8260869565217391
 40
0.8260869565217391
 40
0.8695652173913043
 40
0.8695652173913043
 40
0.8695652173913043
 40
0.8695652173913043
 40
0.9130434782608695
 40
0.9130434782608695
 40
0.9130434782608695
 40
0.9130434782608695
 40
1.0
 40
1.0
 40
1.0
 40
1.0
 10
-10.6099
 20
-31.7988
 30
0.0
 10
-13.0736
 20
-33.4697
 30
0.0
 10
-13.5509
 20
-34.7573
 30
0.0
 10
-13.3409
 20
-38.2131
 30
0.0
 10
-13.3409
 20
-38.2131
 30
0.0
 10
-14.4187
 20
-38.1813
 30
0.0
 10
-15.6141
 20
-37.7596
 30
0.0
 10
-16.9125
 20
-38.4543
 30
0.0
 10
-16.9125
 20
-38.4543
 30
0.0
 10
-16.5606
 20
-39.8265
 30
0.0
 10
-15.4404
 20
-41.3064
 30
0.0
 10
-14.3769
 20
-42.0676
 30
0.0
 10
-14.3769
 20
-42.0676
 30
0.0
 10
-17.5069
 20
-42.5751
 30
0.0
 10
-18.5363
 20
-45.0276
 30
0.0
 10
-22.8097
 20
-44.6433
 30
0.0
 10
-22.8097
 20
-44.6433
 30
0.0
 10
-26.6439
 20
-44.1464
 30
0.0
 10
-28.0935
 20
-40.2566
 30
0.0
 10
-25.5604
 20
-39.0259
 30
0.0
 10
-25.5604
 20
-39.0259
 30
0.0
 10
-23.3449
 20
-38.654
 30
0.0
 10
-23.2856
 20
-40.5978
 30
0.0
 10
-23.5495
 20
-41.0252
 30
0.0
 10
-23.5495
 20
-41.0252
 30
0.0
 10
-21.9307
 20
-40.8488
 30
0.0
 10
-20.5673
 20
-38.0792
 30
0.0
 10
-22.9605
 20
-36.217
 30
0.0
 10
-22.9605
 20
-36.217
 30
0.0
 10
-25.0297
 20
-35.0151
 30
0.0
 10
-26.3724
 20
-35.365
 30
0.0
 10
-27.6009
 20
-36.0531
 30
0.0
 10
-27.6009
 20
-36.0531
 30
0.0
 10
-27.3765
 20
-35.1395
 30
0.0
 10
-27.231
 20
-33.9413
 30
0.0
 10
-27.5308
 20
-33.5668
 30
0.0
 10
-27.5308
 20
-33.5668
 30
0.0
 10
-27.9345
 20
-33.3101
 30
0.0
 10
-29.0237
 20
-33.9763
 30
0.0
 10
-29.8131
 20
-34.379
 30
0.0
 10
-29.8131
 20
-34.379
 30
0.0
 10
-30.2265
 20
-33.2395
 30
0.0
 10
-31.3167
 20
-32.026
 30
0.0
 10
-33.1407
 20
-31.7988
 30
0.0
 10
-33.1407
 20
-31.7988
 30
0.0
 10
-31.3167
 20
-31.5716
 30
0.0
 10
-30.2265
 20
-30.3675
 30
0.0
 10
-29.8131
 20
-29.228
 30
0.0
 10
-29.8131
 20
-29.228
 30
0.0
 10
-29.0237
 20
-29.6306
 30
0.0
 10
-27.9345
 20
-30.2969
 30
0.0
 10
-27.5308
 20
-30.0402
 30
0.0
 10
-27.5308
 20
-30.0402
 30
0.0
 10
-27.231
 20
-29.6656
 30
0.0
 10
-27.3765
 20
-28.4675
 30
0.0
 10
-27.6009
 20
-27.5538
 30
0.0
 10
-27.6009
 20
-27.5538
 30
0.0
 10
-26.3724
 20
-28.242
 30
0.0
 10
-25.0297
 20
-28.5918
 30
0.0
 10
-22.9605
 20
-27.39
 30
0.0
 10
-22.9605
 20
-27.39
 30
0.0
 10
-20.5673
 20
-25.5278
 30
0.0
 10
-21.9307
 20
-22.7581
 30
0.0
 10
-23.5495
 20
-22.5817
 30
0.0
 10
-23.5495
 20
-22.5817
 30
0.0
 10
-23.2856
 20
-23.0092
 30
0.0
 10
-23.3449
 20
-24.9529
 30
0.0
 10
-25.5604
 20
-24.581
 30
0.0
 10
-25.5604
 20
-24.581
 30
0.0
 10
-28.0935
 20
-23.3504
 30
0.0
 10
-26.6439
 20
-19.4606
 30
0.0
 10
-22.8097
 20
-18.9636
 30
0.0
 10
-22.8097
 20
-18.9636
 30
0.0
 10
-18.5363
 20
-18.5794
 30
0.0
 10
-17.5069
 20
-21.0318
 30
0.0
 10
-14.3769
 20
-21.5393
 30
0.0
 10
-14.3769
 20
-21.5393
 30
0.0
 10
-15.4404
 20
-22.3006
 30
0.0
 10
-16.5606
 20
-23.7804
 30
0.0
 10
-16.9125
 20
-25.1526
 30
0.0
 10
-16.9125
 20
-25.1526
 30
0.0
 10
-15.6141
 20
-25.8473
 30
0.0
 10
-14.4187
 20
-25.4257
 30
0.0
 10
-13.3409
 20
-25.3939
 30
0.0
 10
-13.3409
 20
-25.3939
 30
0.0
 10
-13.5509
 20
-28.8496
 30
0.0
 10
-13.0736
 20
-30.1279
 30
0.0
 10
-10.6099
 20
-31.7988
 30
0.0
  0
SPLINE
  5
46
330
1F
100
AcDbEntity
  8
layer 1
 62
     7
100
AcDbSpline
210
0.0
220
0.0
230
1.0
 70
    11
 71
     3
 72
    20
 73
    16
 74
     0
 42
0.0000000001
 43
0.0000000001
 12
1.0
 22
0.0
 32
0.0
 13
1.0
 23
0.0
 33
0.0
 40
0.0
 40
0.0
 40
0.0
 40
0.0
 40
0.2
 40
0.2
 40
0.2
 40
0.2
 40
0.4
 40
0.4
 40
0.4
 40
0.4
 40
0.6
 40
0.6
 40
0.6
 40
0.6
 40
1.0
 40
1.0
 40
1.0
 40
1.0
 10
-4.0522
 20
-31.8035
 30
0.0
 10
-3.1512
 20
-32.4532
 30
0.0
 10
-2.033
 20
-33.279
 30
0.0
 10
-1.57
 20
-34.9594
 30
0.0
 10
-1.57
 20
-34.9594
 30
0.0
 10
-1.1071
 20
-33.279
 30
0.0
 10
0.0112
 20
-32.4532
 30
0.0
 10
0.9121
 20
-31.8035
 30
0.0
 10
0.9121
 20
-31.8035
 30
0.0
 10
0.0112
 20
-31.1537
 30
0.0
 10
-1.1071
 20
-30.3279
 30
0.0
 10
-1.57
 20
-28.6476
 30
0.0
 10
-1.57
 20
-28.6476
 30
0.0
 10
-2.0329
 20
-30.3279
 30
0.0
 10
-3.1512
 20
-31.1537
 30
0.0
 10
-4.0522
 20
-31.8035
 30
0.0
  0
SPLINE
  5
47
330
1F
100
AcDbEntity
  8
layer 1
 62
     7
100
AcDbSpline
210
0.0
220
0.0
230
1.0
 70
    11
 71
     3
 72
    28
 73
    24
 74
     0
 42
0.0000000001
 43
0.0000000001
 12
1.0
 22
0.0
 32
0.0
 13
1.0
 23
0.0
 33
0.0
 40
0.0
 40
0.0
 40
0.0
 40
0.0
 40
0.1428571428571428
 40
0.1428571428571428
 40
0.1428571428571428
 40
0.1428571428571428
 40
0.2857142857142857
 40
0.2857142857142857
 40
0.2857142857142857
 40
0.2857142857142857
 40
0.4285714285714285
 40
0.4285714285714285
 40
0.4285714285714285
 40
0.4285714285714285
 40
0.5714285714285714
 40
0.5714285714285714
 40
0.5714285714285714
 40
0.5714285714285714
 40
0.7142857142857143
 40
0.7142857142857143
 40
0.7142857142857143
 40
0.7142857142857143
 40
1.0
 40
1.0
 40
1.0
 40
1.0
 10
33.3984
 20
49.2306
 30
0.0
 10
35.0715
 20
47.9635
 30
0.0
 10
35.3423
 20
46.2905
 30
0.0
 10
34.7579
 20
44.9783
 30
0.0
 10
34.7579
 20
44.9783
 30
0.0
 10
36.2734
 20
45.5271
 30
0.0
 10
37.8737
 20
45.2295
 30
0.0
 10
38.867
 20
43.6559
 30
0.0
 10
38.867
 20
43.6559
 30
0.0
 10
38.867
 20
43.6559
 30
0.0
 10
38.867
 20
49.2306
 30
0.0
 10
38.867
 20
49.2306
 30
0.0
 10
38.867
 20
49.2306
 30
0.0
 10
38.867
 20
49.2306
 30
0.0
 10
38.867
 20
54.8052
 30
0.0
 10
38.867
 20
54.8052
 30
0.0
 10
38.867
 20
54.8052
 30
0.0
 10
37.8737
 20
53.2316
 30
0.0
 10
36.2734
 20
52.9341
 30
0.0
 10
34.7579
 20
53.4829
 30
0.0
 10
34.7579
 20
53.4829
 30
0.0
 10
35.3422
 20
52.1706
 30
0.0
 10
35.0715
 20
50.4976
 30
0.0
 10
33.3984
 20
49.2306
 30
0.0
  0
SPLINE
  5
48
330
1F
100
AcDbEntity
  8
layer 1
 62
     7
100
AcDbSpline
210
0.0
220
0.0
230
1.0
 70
    11
 71
     3
 72
    92
 73
    88
 74
     0
 42
0.0000000001
 43
0.0000000001
 12
1.0
 22
0.0
 32
0.0
 13
1.0
 23
0.0
 33
0.0
 40
0.0
 40
0.0
 40
0.0
 40
0.0
 40
0.0434782608695652
 40
0.0434782608695652
 40
0.0434782608695652
 40
0.0434782608695652
 40
0.0869565217391304
 40
0.0869565217391304
 40
0.0869565217391304
 40
0.0869565217391304
 40
0.1304347826086956
 40
0.1304347826086956
 40
0.1304347826086956
 40
0.1304347826086956
 40
0.1739130434782609
 40
0.1739130434782609
 40
0.1739130434782609
 40
0.1739130434782609
 40
0.2173913043478261
 40
0.2173913043478261
 40
0.2173913043478261
 40
0.2173913043478261
 40
0.2608695652173913
 40
0.2608695652173913
 40
0.2608695652173913
 40
0.2608695652173913
 40
0.3043478260869565
 40
0.3043478260869565
 40
0.3043478260869565
 40
0.3043478260869565
 40
0.3478260869565217
 40
0.3478260869565217
 40
0.3478260869565217
 40
0.3478260869565217
 40
0.391304347826087
 40
0.391304347826087
 40
0.391304347826087
 40
0.391304347826087
 40
0.4347826086956522
 40
0.4347826086956522
 40
0.4347826086956522
 40
0.4347826086956522
 40
0.4782608695652174
 40
0.4782608695652174
 40
0.4782608695652174
 40
0.4782608695652174
 40
0.5217391304347826
 40
0.5217391304347826
 40
0.5217391304347826
 40
0.5217391304347826
 40
0.5652173913043478
 40
0.5652173913043478
 40
0.5652173913043478
 40
0.5652173913043478
 40
0.6086956521739131
 40
0.6086956521739131
 40
0.6086956521739131
 40
0.6086956521739131
 40
0.6521739130434783
 40
0.6521739130434783
 40
0.6521739130434783
 40
0.6521739130434783
 40
0.6956521739130435
 40
0.6956521739130435
 40
0.6956521739130435
 40
0.6956521739130435
 40
0.7391304347826086
 40
0.7391304347826086
 40
0.7391304347826086
 40
0.7391304347826086
 40
0.782608695652174
 40
0.782608695652174
 40
0.782608695652174
 40
0.782608695652174
 40
0.8260869565217391
 40
0.8260869565217391
 40
0.8260869565217391
 40
0.8260869565217391
 40
0.8695652173913043
 40
0.8695652173913043
 40
0.8695652173913043
 40
0.8695652173913043
 40
0.9130434782608695
 40
0.9130434782608695
 40
0.9130434782608695
 40
0.9130434782608695
 40
1.0
 40
1.0
 40
1.0
 40
1.0
 10
7.4689
 20
49.2352
 30
0.0
 10
9.9326
 20
47.5643
 30
0.0
 10
10.4099
 20
46.2767
 30
0.0
 10
10.1999
 20
42.821
 30
0.0
 10
10.1999
 20
42.821
 30
0.0
 10
11.2777
 20
42.8528
 30
0.0
 10
12.4731
 20
43.2744
 30
0.0
 10
13.7715
 20
42.5797
 30
0.0
 10
13.7715
 20
42.5797
 30
0.0
 10
13.4196
 20
41.2075
 30
0.0
 10
12.2994
 20
39.7277
 30
0.0
 10
11.2359
 20
38.9664
 30
0.0
 10
11.2359
 20
38.9664
 30
0.0
 10
14.3659
 20
38.4589
 30
0.0
 10
15.3953
 20
36.0065
 30
0.0
 10
19.6687
 20
36.3907
 30
0.0
 10
19.6687
 20
36.3907
 30
0.0
 10
23.5029
 20
36.8877
 30
0.0
 10
24.9525
 20
40.7775
 30
0.0
 10
22.4194
 20
42.0081
 30
0.0
 10
22.4194
 20
42.0081
 30
0.0
 10
20.2039
 20
42.38
 30
0.0
 10
20.1446
 20
40.4363
 30
0.0
 10
20.4085
 20
40.0088
 30
0.0
 10
20.4085
 20
40.0088
 30
0.0
 10
18.7897
 20
40.1852
 30
0.0
 10
17.4263
 20
42.9549
 30
0.0
 10
19.8195
 20
44.8171
 30
0.0
 10
19.8195
 20
44.8171
 30
0.0
 10
21.8887
 20
46.0189
 30
0.0
 10
23.2314
 20
45.6691
 30
0.0
 10
24.4599
 20
44.9809
 30
0.0
 10
24.4599
 20
44.9809
 30
0.0
 10
24.2356
 20
45.8946
 30
0.0
 10
24.09
 20
47.0927
 30
0.0
 10
24.3898
 20
47.4673
 30
0.0
 10
24.3898
 20
47.4673
 30
0.0
 10
24.7935
 20
47.724
 30
0.0
 10
25.8827
 20
47.0577
 30
0.0
 10
26.6721
 20
46.6551
 30
0.0
 10
26.6721
 20
46.6551
 30
0.0
 10
27.0855
 20
47.7946
 30
0.0
 10
28.1757
 20
49.0081
 30
0.0
 10
29.9997
 20
49.2352
 30
0.0
 10
29.9997
 20
49.2352
 30
0.0
 10
28.1757
 20
49.4624
 30
0.0
 10
27.0855
 20
50.6665
 30
0.0
 10
26.6721
 20
51.8061
 30
0.0
 10
26.6721
 20
51.8061
 30
0.0
 10
25.8827
 20
51.4034
 30
0.0
 10
24.7935
 20
50.7372
 30
0.0
 10
24.3898
 20
50.9939
 30
0.0
 10
24.3898
 20
50.9939
 30
0.0
 10
24.09
 20
51.3685
 30
0.0
 10
24.2356
 20
52.5666
 30
0.0
 10
24.4599
 20
53.4802
 30
0.0
 10
24.4599
 20
53.4802
 30
0.0
 10
23.2314
 20
52.7921
 30
0.0
 10
21.8887
 20
52.4422
 30
0.0
 10
19.8195
 20
53.6441
 30
0.0
 10
19.8195
 20
53.6441
 30
0.0
 10
17.4263
 20
55.5063
 30
0.0
 10
18.7897
 20
58.2759
 30
0.0
 10
20.4085
 20
58.4523
 30
0.0
 10
20.4085
 20
58.4523
 30
0.0
 10
20.1446
 20
58.0249
 30
0.0
 10
20.2039
 20
56.0811
 30
0.0
 10
22.4194
 20
56.453
 30
0.0
 10
22.4194
 20
56.453
 30
0.0
 10
24.9525
 20
57.6837
 30
0.0
 10
23.5029
 20
61.5735
 30
0.0
 10
19.6687
 20
62.0704
 30
0.0
 10
19.6687
 20
62.0704
 30
0.0
 10
15.3953
 20
62.4547
 30
0.0
 10
14.3659
 20
60.0022
 30
0.0
 10
11.2359
 20
59.4947
 30
0.0
 10
11.2359
 20
59.4947
 30
0.0
 10
12.2994
 20
58.7335
 30
0.0
 10
13.4196
 20
57.2536
 30
0.0
 10
13.7715
 20
55.8814
 30
0.0
 10
13.7715
 20
55.8814
 30
0.0
 10
12.4731
 20
55.1867
 30
0.0
 10
11.2777
 20
55.6084
 30
0.0
 10
10.1999
 20
55.6402
 30
0.0
 10
10.1999
 20
55.6402
 30
0.0
 10
10.4099
 20
52.1844
 30
0.0
 10
9.9326
 20
50.9061
 30
0.0
 10
7.4689
 20
49.2352
 30
0.0
  0
SPLINE
  5
49
330
1F
100
AcDbEntity
  8
layer 1
 62
     7
100
AcDbSpline
210
0.0
220
0.0
230
1.0
 70
    11
 71
     3
 72
    48
 73
    44
 74
     0
 42
0.0000000001
 43
0.0000000001
 12
1.0
 22
0.0
 32
0.0
 13
1.0
 23
0.0
 33
0.0
 40
0.0
 40
0.0
 40
0.0
 40
0.0
 40
0.0833333333333333
 40
0.0833333333333333
 40
0.0833333333333333
 40
0.0833333333333333
 40
0.1666666666666667
 40
0.1666666666666667
 40
0.1666666666666667
 40
0.1666666666666667
 40
0.25
 40
0.25
 40
0.25
 40
0.25
 40
0.3333333333333333
 40
0.3333333333333333
 40
0.3333333333333333
 40
0.3333333333333333
 40
0.4166666666666667
 40
0.4166666666666667
 40
0.4166666666666667
 40
0.4166666666666667
 40
0.5
 40
0.5
 40
0.5
 40
0.5
 40
0.5833333333333334
 40
0.5833333333333334
 40
0.5833333333333334
 40
0.5833333333333334
 40
0.6666666666666666
 40
0.6666666666666666
 40
0.6666666666666666
 40
0.6666666666666666
 40
0.75
 40
0.75
 40
0.75
 40
0.75
 40
0.8333333333333334
 40
0.8333333333333334
 40
0.8333333333333334
 40
0.8333333333333334
 40
1.0
 40
1.0
 40
1.0
 40
1.0
 10
-30.6003
 20
-67.0754
 30
0.0
 10
-32.7835
 20
-65.2041
 30
0.0
 10
-33.8843
 20
-64.5557
 30
0.0
 10
-35.3308
 20
-64.2888
 30
0.0
 10
-35.3308
 20
-64.2888
 30
0.0
 10
-37.2146
 20
-63.871
 30
0.0
 10
-39.4667
 20
-65.207
 30
0.0
 10
-39.5268
 20
-66.9966
 30
0.0
 10
-39.5268
 20
-66.9966
 30
0.0
 10
-39.5868
 20
-69.4304
 30
0.0
 10
-37.2641
 20
-69.9468
 30
0.0
 10
-36.1695
 20
-68.5
 30
0.0
 10
-36.1695
 20
-68.5
 30
0.0
 10
-35.0463
 20
-69.584
 30
0.0
 10
-35.6305
 20
-72.3332
 30
0.0
 10
-37.6671
 20
-72.3332
 30
0.0
 10
-37.6671
 20
-72.3332
 30
0.0
 10
-35.6305
 20
-72.3332
 30
0.0
 10
-35.0463
 20
-75.0824
 30
0.0
 10
-36.1695
 20
-76.1663
 30
0.0
 10
-36.1695
 20
-76.1663
 30
0.0
 10
-37.2641
 20
-74.7195
 30
0.0
 10
-39.5868
 20
-75.2359
 30
0.0
 10
-39.5268
 20
-77.6697
 30
0.0
 10
-39.5268
 20
-77.6697
 30
0.0
 10
-39.4667
 20
-79.4592
 30
0.0
 10
-37.2147
 20
-80.7953
 30
0.0
 10
-35.3308
 20
-80.3775
 30
0.0
 10
-35.3308
 20
-80.3775
 30
0.0
 10
-33.8843
 20
-80.1106
 30
0.0
 10
-32.7835
 20
-79.4622
 30
0.0
 10
-30.6003
 20
-77.5909
 30
0.0
 10
-30.6003
 20
-77.5909
 30
0.0
 10
-28.2983
 20
-75.1977
 30
0.0
 10
-25.1341
 20
-73.2514
 30
0.0
 10
-21.8106
 20
-72.3331
 30
0.0
 10
-21.8106
 20
-72.3331
 30
0.0
 10
-25.1341
 20
-71.4148
 30
0.0
 10
-28.2983
 20
-69.4685
 30
0.0
 10
-30.6003
 20
-67.0754
 30
0.0
 10
-30.6003
 20
-67.0754
 30
0.0
 10
-30.6003
 20
-67.0754
 30
0.0
 10
-30.6003
 20
-67.0754
 30
0.0
 10
-30.6003
 20
-67.0754
 30
0.0
  0
SPLINE
  5
4A
330
1F
100
AcDbEntity
  8
layer 1
 62
     7
100
AcDbSpline
210
0.0
220
0.0
230
1.0
 70
    11
 71
     3
 72
    20
 73
    16
 74
     0
 42
0.0000000001
 43
0.0000000001
 12
1.0
 22
0.0
 32
0.0
 13
1.0
 23
0.0
 33
0.0
 40
0.0
 40
0.0
 40
0.0
 40
0.0
 40
0.2
 40
0.2
 40
0.2
 40
0.2
 40
0.4
 40
0.4
 40
0.4
 40
0.4
 40
0.6
 40
0.6
 40
0.6
 40
0.6
 40
1.0
 40
1.0
 40
1.0
 40
1.0
 10
-42.0442
 20
-69.8803
 30
0.0
 10
-42.0442
 20
-69.8803
 30
0.0
 10
-42.0442
 20
-74.786
 30
0.0
 10
-42.0442
 20
-74.786
 30
0.0
 10
-42.0442
 20
-74.786
 30
0.0
 10
-41.3898
 20
-73.885
 30
0.0
 10
-40.564
 20
-72.7667
 30
0.0
 10
-38.8836
 20
-72.3331
 30
0.0
 10
-38.8836
 20
-72.3331
 30
0.0
 10
-40.5639
 20
-71.8996
 30
0.0
 10
-41.3898
 20
-70.7813
 30
0.0
 10
-42.0442
 20
-69.8802
 30
0.0
 10
-42.0442
 20
-69.8802
 30
0.0
 10
-42.0442
 20
-69.8802
 30
0.0
 10
-42.0442
 20
-69.8803
 30
0.0
 10
-42.0442
 20
-69.8803
 30
0.0
  0
SPLINE
  5
4B
330
1F
100
AcDbEntity
  8
layer 1
 62
     7
100
AcDbSpline
210
0.0
220
0.0
230
1.0
 70
    11
 71
     3
 72
    32
 73
    28
 74
     0
 42
0.0000000001
 43
0.0000000001
 12
1.0
 22
0.0
 32
0.0
 13
1.0
 23
0.0
 33
0.0
 40
0.0
 40
0.0
 40
0.0
 40
0.0
 40
0.125
 40
0.125
 40
0.125
 40
0.125
 40
0.25
 40
0.25
 40
0.25
 40
0.25
 40
0.375
 40
0.375
 40
0.375
 40
0.375
 40
0.5
 40
0.5
 40
0.5
 40
0.5
 40
0.625
 40
0.625
 40
0.625
 40
0.625
 40
0.75
 40
0.75
 40
0.75
 40
0.75
 40
1.0
 40
1.0
 40
1.0
 40
1.0
 10
-22.6913
 20
-67.8834
 30
0.0
 10
-22.8839
 20
-67.2036
 30
0.0
 10
-22.6461
 20
-65.5028
 30
0.0
 10
-21.3812
 20
-64.7061
 30
0.0
 10
-21.3812
 20
-64.7061
 30
0.0
 10
-24.3995
 20
-65.2019
 30
0.0
 10
-25.588
 20
-60.7444
 30
0.0
 10
-22.9801
 20
-60.1376
 30
0.0
 10
-22.9801
 20
-60.1376
 30
0.0
 10
-22.3816
 20
-63.169
 30
0.0
 10
-19.1416
 20
-62.4029
 30
0.0
 10
-19.2009
 20
-59.7611
 30
0.0
 10
-19.2009
 20
-59.7611
 30
0.0
 10
-19.3595
 20
-58.3994
 30
0.0
 10
-19.8936
 20
-57.2862
 30
0.0
 10
-21.2821
 20
-56.6639
 30
0.0
 10
-21.2821
 20
-56.6639
 30
0.0
 10
-24.7996
 20
-55.0874
 30
0.0
 10
-28.5363
 20
-58.3778
 30
0.0
 10
-27.5808
 20
-62.3612
 30
0.0
 10
-27.5808
 20
-62.3612
 30
0.0
 10
-26.6749
 20
-65.4803
 30
0.0
 10
-23.8329
 20
-67.4294
 30
0.0
 10
-22.6914
 20
-67.8835
 30
0.0
 10
-22.6914
 20
-67.8835
 30
0.0
 10
-22.6914
 20
-67.8835
 30
0.0
 10
-22.6913
 20
-67.8834
 30
0.0
 10
-22.6913
 20
-67.8834
 30
0.0
  0
SPLINE
  5
4C
330
1F
100
AcDbEntity
  8
layer 1
 62
     7
100
AcDbSpline
210
0.0
220
0.0
230
1.0
 70
    11
 71
     3
 72
    56
 73
    52
 74
     0
 42
0.0000000001
 43
0.0000000001
 12
1.0
 22
0.0
 32
0.0
 13
1.0
 23
0.0
 33
0.0
 40
0.0
 40
0.0
 40
0.0
 40
0.0
 40
0.0714285714285714
 40
0.0714285714285714
 40
0.0714285714285714
 40
0.0714285714285714
 40
0.1428571428571428
 40
0.1428571428571428
 40
0.1428571428571428
 40
0.1428571428571428
 40
0.2142857142857143
 40
0.2142857142857143
 40
0.2142857142857143
 40
0.2142857142857143
 40
0.2857142857142857
 40
0.2857142857142857
 40
0.2857142857142857
 40
0.2857142857142857
 40
0.3571428571428572
 40
0.3571428571428572
 40
0.3571428571428572
 40
0.3571428571428572
 40
0.4285714285714285
 40
0.4285714285714285
 40
0.4285714285714285
 40
0.4285714285714285
 40
0.5
 40
0.5
 40
0.5
 40
0.5
 40
0.5714285714285714
 40
0.5714285714285714
 40
0.5714285714285714
 40
0.5714285714285714
 40
0.6428571428571429
 40
0.6428571428571429
 40
0.6428571428571429
 40
0.6428571428571429
 40
0.7142857142857143
 40
0.7142857142857143
 40
0.7142857142857143
 40
0.7142857142857143
 40
0.7857142857142857
 40
0.7857142857142857
 40
0.7857142857142857
 40
0.7857142857142857
 40
0.8571428571428571
 40
0.8571428571428571
 40
0.8571428571428571
 40
0.8571428571428571
 40
1.0
 40
1.0
 40
1.0
 40
1.0
 10
-35.6299
 20
-60.5916
 30
0.0
 10
-35.6617
 20
-59.5138
 30
0.0
 10
-36.0834
 20
-58.3184
 30
0.0
 10
-35.3887
 20
-57.02
 30
0.0
 10
-35.3887
 20
-57.02
 30
0.0
 10
-34.0165
 20
-57.3719
 30
0.0
 10
-32.5366
 20
-58.492
 30
0.0
 10
-31.7754
 20
-59.5556
 30
0.0
 10
-31.7754
 20
-59.5556
 30
0.0
 10
-31.2679
 20
-56.4256
 30
0.0
 10
-28.8154
 20
-55.3962
 30
0.0
 10
-29.1997
 20
-51.1228
 30
0.0
 10
-29.1997
 20
-51.1228
 30
0.0
 10
-29.6966
 20
-47.2885
 30
0.0
 10
-33.5864
 20
-45.839
 30
0.0
 10
-34.8171
 20
-48.372
 30
0.0
 10
-34.8171
 20
-48.372
 30
0.0
 10
-35.1889
 20
-50.5876
 30
0.0
 10
-33.2452
 20
-50.6469
 30
0.0
 10
-32.8178
 20
-50.383
 30
0.0
 10
-32.8178
 20
-50.383
 30
0.0
 10
-32.9942
 20
-52.0017
 30
0.0
 10
-35.7638
 20
-53.3652
 30
0.0
 10
-37.626
 20
-50.972
 30
0.0
 10
-37.626
 20
-50.972
 30
0.0
 10
-38.8279
 20
-48.9027
 30
0.0
 10
-38.478
 20
-47.56
 30
0.0
 10
-37.7899
 20
-46.3317
 30
0.0
 10
-37.7899
 20
-46.3317
 30
0.0
 10
-38.7035
 20
-46.5559
 30
0.0
 10
-39.9017
 20
-46.7015
 30
0.0
 10
-40.2762
 20
-46.4018
 30
0.0
 10
-40.2762
 20
-46.4018
 30
0.0
 10
-40.5329
 20
-45.9981
 30
0.0
 10
-39.8668
 20
-44.9089
 30
0.0
 10
-39.464
 20
-44.1194
 30
0.0
 10
-39.464
 20
-44.1194
 30
0.0
 10
-40.5041
 20
-43.7856
 30
0.0
 10
-41.5386
 20
-42.7352
 30
0.0
 10
-42.0442
 20
-40.7919
 30
0.0
 10
-42.0442
 20
-40.7919
 30
0.0
 10
-42.0442
 20
-40.7919
 30
0.0
 10
-42.0442
 20
-63.3227
 30
0.0
 10
-42.0442
 20
-63.3227
 30
0.0
 10
-42.0442
 20
-63.3227
 30
0.0
 10
-40.3733
 20
-60.8589
 30
0.0
 10
-39.0857
 20
-60.3816
 30
0.0
 10
-35.6299
 20
-60.5917
 30
0.0
 10
-35.6299
 20
-60.5917
 30
0.0
 10
-35.6299
 20
-60.5917
 30
0.0
 10
-35.6299
 20
-60.5916
 30
0.0
 10
-35.6299
 20
-60.5916
 30
0.0
  0
SPLINE
  5
4D
330
1F
100
AcDbEntity
  8
layer 1
 62
     7
100
AcDbSpline
210
0.0
220
0.0
230
1.0
 70
    11
 71
     3
 72
    36
 73
    32
 74
     0
 42
0.0000000001
 43
0.0000000001
 12
1.0
 22
0.0
 32
0.0
 13
1.0
 23
0.0
 33
0.0
 40
0.0
 40
0.0
 40
0.0
 40
0.0
 40
0.1111111111111111
 40
0.1111111111111111
 40
0.1111111111111111
 40
0.1111111111111111
 40
0.2222222222222222
 40
0.2222222222222222
 40
0.2222222222222222
 40
0.2222222222222222
 40
0.3333333333333333
 40
0.3333333333333333
 40
0.3333333333333333
 40
0.3333333333333333
 40
0.4444444444444444
 40
0.4444444444444444
 40
0.4444444444444444
 40
0.4444444444444444
 40
0.5555555555555556
 40
0.5555555555555556
 40
0.5555555555555556
 40
0.5555555555555556
 40
0.6666666666666666
 40
0.6666666666666666
 40
0.6666666666666666
 40
0.6666666666666666
 40
0.7777777777777778
 40
0.7777777777777778
 40
0.7777777777777778
 40
0.7777777777777778
 40
1.0
 40
1.0
 40
1.0
 40
1.0
 10
-31.9022
 20
-35.7298
 30
0.0
 10
-32.7299
 20
-34.9719
 30
0.0
 10
-33.8751
 20
-34.5322
 30
0.0
 10
-34.8201
 20
-34.9354
 30
0.0
 10
-34.8201
 20
-34.9354
 30
0.0
 10
-36.067
 20
-35.4673
 30
0.0
 10
-35.3384
 20
-37.0229
 30
0.0
 10
-34.0779
 20
-36.7792
 30
0.0
 10
-34.0779
 20
-36.7792
 30
0.0
 10
-34.1446
 20
-37.9929
 30
0.0
 10
-35.3979
 20
-37.9678
 30
0.0
 10
-35.9641
 20
-38.0418
 30
0.0
 10
-35.9641
 20
-38.0418
 30
0.0
 10
-35.9827
 20
-38.6634
 30
0.0
 10
-35.8651
 20
-39.8242
 30
0.0
 10
-37.0787
 20
-39.8909
 30
0.0
 10
-37.0787
 20
-39.8909
 30
0.0
 10
-36.835
 20
-38.6303
 30
0.0
 10
-38.3906
 20
-37.9018
 30
0.0
 10
-38.9226
 20
-39.1486
 30
0.0
 10
-38.9226
 20
-39.1486
 30
0.0
 10
-39.3258
 20
-40.0937
 30
0.0
 10
-38.8861
 20
-41.2388
 30
0.0
 10
-38.1282
 20
-42.0665
 30
0.0
 10
-38.1282
 20
-42.0665
 30
0.0
 10
-35.1356
 20
-44.6068
 30
0.0
 10
-33.4749
 20
-42.7192
 30
0.0
 10
-30.44
 20
-43.5659
 30
0.0
 10
-30.44
 20
-43.5659
 30
0.0
 10
-31.3421
 20
-40.4757
 30
0.0
 10
-29.3621
 20
-38.7224
 30
0.0
 10
-31.9022
 20
-35.7298
 30
0.0
  0
SPLINE
  5
4E
330
1F
100
AcDbEntity
  8
layer 1
 62
     7
100
AcDbSpline
210
0.0
220
0.0
230
1.0
 70
    11
 71
     3
 72
    40
 73
    36
 74
     0
 42
0.0000000001
 43
0.0000000001
 12
1.0
 22
0.0
 32
0.0
 13
1.0
 23
0.0
 33
0.0
 40
0.0
 40
0.0
 40
0.0
 40
0.0
 40
0.1
 40
0.1
 40
0.1
 40
0.1
 40
0.2
 40
0.2
 40
0.2
 40
0.2
 40
0.3
 40
0.3
 40
0.3
 40
0.3
 40
0.4
 40
0.4
 40
0.4
 40
0.4
 40
0.5
 40
0.5
 40
0.5
 40
0.5
 40
0.6
 40
0.6
 40
0.6
 40
0.6
 40
0.7
 40
0.7
 40
0.7
 40
0.7
 40
0.8
 40
0.8
 40
0.8
 40
0.8
 40
1.0
 40
1.0
 40
1.0
 40
1.0
 10
-23.2606
 20
-47.4104
 30
0.0
 10
-23.4428
 20
-48.049
 30
0.0
 10
-23.5085
 20
-49.0432
 30
0.0
 10
-23.3413
 20
-49.5414
 30
0.0
 10
-23.3413
 20
-49.5414
 30
0.0
 10
-22.9406
 20
-49.6727
 30
0.0
 10
-22.1243
 20
-49.6477
 30
0.0
 10
-21.4277
 20
-49.4339
 30
0.0
 10
-21.4277
 20
-49.4339
 30
0.0
 10
-21.7315
 20
-50.5207
 30
0.0
 10
-21.6354
 20
-51.6756
 30
0.0
 10
-21.0083
 20
-52.9977
 30
0.0
 10
-21.0083
 20
-52.9977
 30
0.0
 10
-22.2749
 20
-52.4259
 30
0.0
 10
-23.3373
 20
-52.2373
 30
0.0
 10
-24.4241
 20
-52.5412
 30
0.0
 10
-24.4241
 20
-52.5412
 30
0.0
 10
-24.2103
 20
-51.8445
 30
0.0
 10
-24.1852
 20
-51.0282
 30
0.0
 10
-24.3166
 20
-50.6275
 30
0.0
 10
-24.3166
 20
-50.6275
 30
0.0
 10
-24.8148
 20
-50.4603
 30
0.0
 10
-25.809
 20
-50.526
 30
0.0
 10
-26.4476
 20
-50.7083
 30
0.0
 10
-26.4476
 20
-50.7083
 30
0.0
 10
-26.5864
 20
-49.5199
 30
0.0
 10
-26.6257
 20
-48.1157
 30
0.0
 10
-27.4549
 20
-46.5511
 30
0.0
 10
-27.4549
 20
-46.5511
 30
0.0
 10
-25.9456
 20
-47.3249
 30
0.0
 10
-24.4489
 20
-47.2716
 30
0.0
 10
-23.2606
 20
-47.4105
 30
0.0
 10
-23.2606
 20
-47.4105
 30
0.0
 10
-23.2606
 20
-47.4105
 30
0.0
 10
-23.2606
 20
-47.4104
 30
0.0
 10
-23.2606
 20
-47.4104
 30
0.0
  0
SPLINE
  5
4F
330
1F
100
AcDbEntity
  8
layer 1
 62
     7
100
AcDbSpline
210
0.0
220
0.0
230
1.0
 70
    11
 71
     3
 72
    32
 73
    28
 74
     0
 42
0.0000000001
 43
0.0000000001
 12
1.0
 22
0.0
 32
0.0
 13
1.0
 23
0.0
 33
0.0
 40
0.0
 40
0.0
 40
0.0
 40
0.0
 40
0.125
 40
0.125
 40
0.125
 40
0.125
 40
0.25
 40
0.25
 40
0.25
 40
0.25
 40
0.375
 40
0.375
 40
0.375
 40
0.375
 40
0.5
 40
0.5
 40
0.5
 40
0.5
 40
0.625
 40
0.625
 40
0.625
 40
0.625
 40
0.75
 40
0.75
 40
0.75
 40
0.75
 40
1.0
 40
1.0
 40
1.0
 40
1.0
 10
-6.0853
 20
-51.1666
 30
0.0
 10
-6.7651
 20
-50.9741
 30
0.0
 10
-8.4659
 20
-51.2119
 30
0.0
 10
-9.2626
 20
-52.4768
 30
0.0
 10
-9.2626
 20
-52.4768
 30
0.0
 10
-8.7668
 20
-49.4585
 30
0.0
 10
-13.2243
 20
-48.27
 30
0.0
 10
-13.8311
 20
-50.8779
 30
0.0
 10
-13.8311
 20
-50.8779
 30
0.0
 10
-10.7997
 20
-51.4763
 30
0.0
 10
-11.5658
 20
-54.7164
 30
0.0
 10
-14.2076
 20
-54.657
 30
0.0
 10
-14.2076
 20
-54.657
 30
0.0
 10
-15.5693
 20
-54.4984
 30
0.0
 10
-16.6825
 20
-53.9644
 30
0.0
 10
-17.3048
 20
-52.5759
 30
0.0
 10
-17.3048
 20
-52.5759
 30
0.0
 10
-18.8813
 20
-49.0584
 30
0.0
 10
-15.5909
 20
-45.3216
 30
0.0
 10
-11.6075
 20
-46.2772
 30
0.0
 10
-11.6075
 20
-46.2772
 30
0.0
 10
-8.4884
 20
-47.183
 30
0.0
 10
-6.5393
 20
-50.0251
 30
0.0
 10
-6.0852
 20
-51.1666
 30
0.0
 10
-6.0852
 20
-51.1666
 30
0.0
 10
-6.0852
 20
-51.1666
 30
0.0
 10
-6.0853
 20
-51.1666
 30
0.0
 10
-6.0853
 20
-51.1666
 30
0.0
  0
SPLINE
  5
50
330
1F
100
AcDbEntity
  8
layer 1
 62
     7
100
AcDbSpline
210
0.0
220
0.0
230
1.0
 70
    11
 71
     3
 72
    56
 73
    52
 74
     0
 42
0.0000000001
 43
0.0000000001
 12
1.0
 22
0.0
 32
0.0
 13
1.0
 23
0.0
 33
0.0
 40
0.0
 40
0.0
 40
0.0
 40
0.0
 40
0.0714285714285714
 40
0.0714285714285714
 40
0.0714285714285714
 40
0.0714285714285714
 40
0.1428571428571428
 40
0.1428571428571428
 40
0.1428571428571428
 40
0.1428571428571428
 40
0.2142857142857143
 40
0.2142857142857143
 40
0.2142857142857143
 40
0.2142857142857143
 40
0.2857142857142857
 40
0.2857142857142857
 40
0.2857142857142857
 40
0.2857142857142857
 40
0.3571428571428572
 40
0.3571428571428572
 40
0.3571428571428572
 40
0.3571428571428572
 40
0.4285714285714285
 40
0.4285714285714285
 40
0.4285714285714285
 40
0.4285714285714285
 40
0.5
 40
0.5
 40
0.5
 40
0.5
 40
0.5714285714285714
 40
0.5714285714285714
 40
0.5714285714285714
 40
0.5714285714285714
 40
0.6428571428571429
 40
0.6428571428571429
 40
0.6428571428571429
 40
0.6428571428571429
 40
0.7142857142857143
 40
0.7142857142857143
 40
0.7142857142857143
 40
0.7142857142857143
 40
0.7857142857142857
 40
0.7857142857142857
 40
0.7857142857142857
 40
0.7857142857142857
 40
0.8571428571428571
 40
0.8571428571428571
 40
0.8571428571428571
 40
0.8571428571428571
 40
1.0
 40
1.0
 40
1.0
 40
1.0
 10
-8.7732
 20
-61.8988
 30
0.0
 10
-8.2712
 20
-61.3968
 30
0.0
 10
-6.669
 20
-61.2199
 30
0.0
 10
-5.0368
 20
-62.0839
 30
0.0
 10
-5.0368
 20
-62.0839
 30
0.0
 10
-5.4067
 20
-59.1393
 30
0.0
 10
-2.8623
 20
-58.4871
 30
0.0
 10
-3.6714
 20
-55.6774
 30
0.0
 10
-3.6714
 20
-55.6774
 30
0.0
 10
-4.1518
 20
-54.1483
 30
0.0
 10
-7.4643
 20
-52.9613
 30
0.0
 10
-8.6471
 20
-55.809
 30
0.0
 10
-8.6471
 20
-55.809
 30
0.0
 10
-8.8762
 20
-55.3286
 30
0.0
 10
-9.0055
 20
-54.9449
 30
0.0
 10
-9.3593
 20
-54.5805
 30
0.0
 10
-9.3593
 20
-54.5805
 30
0.0
 10
-10.8426
 20
-57.081
 30
0.0
 10
-13.5992
 20
-58.6943
 30
0.0
 10
-16.9245
 20
-57.0814
 30
0.0
 10
-16.9245
 20
-57.0814
 30
0.0
 10
-15.2561
 20
-60.462
 30
0.0
 10
-16.7769
 20
-63.1262
 30
0.0
 10
-19.2774
 20
-64.6094
 30
0.0
 10
-19.2774
 20
-64.6094
 30
0.0
 10
-18.913
 20
-64.9632
 30
0.0
 10
-18.5293
 20
-65.0925
 30
0.0
 10
-18.0489
 20
-65.3216
 30
0.0
 10
-18.0489
 20
-65.3216
 30
0.0
 10
-20.8966
 20
-66.5044
 30
0.0
 10
-19.7096
 20
-69.8169
 30
0.0
 10
-18.1806
 20
-70.2973
 30
0.0
 10
-18.1806
 20
-70.2973
 30
0.0
 10
-15.3708
 20
-71.1064
 30
0.0
 10
-14.7187
 20
-68.562
 30
0.0
 10
-11.7741
 20
-68.9319
 30
0.0
 10
-11.7741
 20
-68.9319
 30
0.0
 10
-12.638
 20
-67.2997
 30
0.0
 10
-12.4611
 20
-65.6975
 30
0.0
 10
-11.9591
 20
-65.1955
 30
0.0
 10
-11.9591
 20
-65.1955
 30
0.0
 10
-11.2973
 20
-64.7848
 30
0.0
 10
-9.9238
 20
-65.0571
 30
0.0
 10
-8.65
 20
-65.3558
 30
0.0
 10
-8.65
 20
-65.3558
 30
0.0
 10
-9.004
 20
-64.0266
 30
0.0
 10
-9.435
 20
-62.8855
 30
0.0
 10
-8.7732
 20
-61.8987
 30
0.0
 10
-8.7732
 20
-61.8987
 30
0.0
 10
-8.7732
 20
-61.8987
 30
0.0
 10
-8.7732
 20
-61.8988
 30
0.0
 10
-8.7732
 20
-61.8988
 30
0.0
  0
SPLINE
  5
51
330
1F
100
AcDbEntity
  8
layer 1
 62
     7
100
AcDbSpline
210
0.0
220
0.0
230
1.0
 70
    11
 71
     3
 72
    32
 73
    28
 74
     0
 42
0.0000000001
 43
0.0000000001
 12
1.0
 22
0.0
 32
0.0
 13
1.0
 23
0.0
 33
0.0
 40
0.0
 40
0.0
 40
0.0
 40
0.0
 40
0.125
 40
0.125
 40
0.125
 40
0.125
 40
0.25
 40
0.25
 40
0.25
 40
0.25
 40
0.375
 40
0.375
 40
0.375
 40
0.375
 40
0.5
 40
0.5
 40
0.5
 40
0.5
 40
0.625
 40
0.625
 40
0.625
 40
0.625
 40
0.75
 40
0.75
 40
0.75
 40
0.75
 40
1.0
 40
1.0
 40
1.0
 40
1.0
 10
19.4788
 20
-67.8834
 30
0.0
 10
19.6713
 20
-67.2036
 30
0.0
 10
19.4336
 20
-65.5028
 30
0.0
 10
18.1687
 20
-64.7061
 30
0.0
 10
18.1687
 20
-64.7061
 30
0.0
 10
21.1869
 20
-65.2019
 30
0.0
 10
22.3754
 20
-60.7444
 30
0.0
 10
19.7676
 20
-60.1376
 30
0.0
 10
19.7676
 20
-60.1376
 30
0.0
 10
19.1691
 20
-63.169
 30
0.0
 10
15.929
 20
-62.4029
 30
0.0
 10
15.9884
 20
-59.7611
 30
0.0
 10
15.9884
 20
-59.7611
 30
0.0
 10
16.147
 20
-58.3994
 30
0.0
 10
16.681
 20
-57.2862
 30
0.0
 10
18.0696
 20
-56.6639
 30
0.0
 10
18.0696
 20
-56.6639
 30
0.0
 10
21.5871
 20
-55.0874
 30
0.0
 10
25.3238
 20
-58.3778
 30
0.0
 10
24.3682
 20
-62.3612
 30
0.0
 10
24.3682
 20
-62.3612
 30
0.0
 10
23.4624
 20
-65.4803
 30
0.0
 10
20.6203
 20
-67.4294
 30
0.0
 10
19.4789
 20
-67.8835
 30
0.0
 10
19.4789
 20
-67.8835
 30
0.0
 10
19.4789
 20
-67.8835
 30
0.0
 10
19.4788
 20
-67.8834
 30
0.0
 10
19.4788
 20
-67.8834
 30
0.0
  0
SPLINE
  5
52
330
1F
100
AcDbEntity
  8
layer 1
 62
     7
100
AcDbSpline
210
0.0
220
0.0
230
1.0
 70
    11
 71
     3
 72
    52
 73
    48
 74
     0
 42
0.0000000001
 43
0.0000000001
 12
1.0
 22
0.0
 32
0.0
 13
1.0
 23
0.0
 33
0.0
 40
0.0
 40
0.0
 40
0.0
 40
0.0
 40
0.0769230769230769
 40
0.0769230769230769
 40
0.0769230769230769
 40
0.0769230769230769
 40
0.1538461538461539
 40
0.1538461538461539
 40
0.1538461538461539
 40
0.1538461538461539
 40
0.2307692307692308
 40
0.2307692307692308
 40
0.2307692307692308
 40
0.2307692307692308
 40
0.3076923076923077
 40
0.3076923076923077
 40
0.3076923076923077
 40
0.3076923076923077
 40
0.3846153846153846
 40
0.3846153846153846
 40
0.3846153846153846
 40
0.3846153846153846
 40
0.4615384615384616
 40
0.4615384615384616
 40
0.4615384615384616
 40
0.4615384615384616
 40
0.5384615384615384
 40
0.5384615384615384
 40
0.5384615384615384
 40
0.5384615384615384
 40
0.6153846153846154
 40
0.6153846153846154
 40
0.6153846153846154
 40
0.6153846153846154
 40
0.6923076923076923
 40
0.6923076923076923
 40
0.6923076923076923
 40
0.6923076923076923
 40
0.7692307692307693
 40
0.7692307692307693
 40
0.7692307692307693
 40
0.7692307692307693
 40
0.8461538461538461
 40
0.8461538461538461
 40
0.8461538461538461
 40
0.8461538461538461
 40
1.0
 40
1.0
 40
1.0
 40
1.0
 10
32.4174
 20
-60.5916
 30
0.0
 10
32.4492
 20
-59.5138
 30
0.0
 10
32.8708
 20
-58.3184
 30
0.0
 10
32.1762
 20
-57.02
 30
0.0
 10
32.1762
 20
-57.02
 30
0.0
 10
30.8039
 20
-57.3719
 30
0.0
 10
29.3241
 20
-58.492
 30
0.0
 10
28.5628
 20
-59.5556
 30
0.0
 10
28.5628
 20
-59.5556
 30
0.0
 10
28.0553
 20
-56.4256
 30
0.0
 10
25.6029
 20
-55.3962
 30
0.0
 10
25.9871
 20
-51.1228
 30
0.0
 10
25.9871
 20
-51.1228
 30
0.0
 10
26.4841
 20
-47.2885
 30
0.0
 10
30.3739
 20
-45.839
 30
0.0
 10
31.6045
 20
-48.372
 30
0.0
 10
31.6045
 20
-48.372
 30
0.0
 10
31.9764
 20
-50.5876
 30
0.0
 10
30.0327
 20
-50.6469
 30
0.0
 10
29.6052
 20
-50.383
 30
0.0
 10
29.6052
 20
-50.383
 30
0.0
 10
29.7816
 20
-52.0017
 30
0.0
 10
32.5513
 20
-53.3652
 30
0.0
 10
34.4135
 20
-50.972
 30
0.0
 10
34.4135
 20
-50.972
 30
0.0
 10
35.6153
 20
-48.9027
 30
0.0
 10
35.2655
 20
-47.56
 30
0.0
 10
34.5773
 20
-46.3316
 30
0.0
 10
34.5773
 20
-46.3316
 30
0.0
 10
35.491
 20
-46.5559
 30
0.0
 10
36.6891
 20
-46.7015
 30
0.0
 10
37.0637
 20
-46.4017
 30
0.0
 10
37.0637
 20
-46.4017
 30
0.0
 10
37.3204
 20
-45.998
 30
0.0
 10
36.6541
 20
-44.9088
 30
0.0
 10
36.2515
 20
-44.1194
 30
0.0
 10
36.2515
 20
-44.1194
 30
0.0
 10
37.2916
 20
-43.7856
 30
0.0
 10
38.326
 20
-42.7351
 30
0.0
 10
38.8316
 20
-40.7918
 30
0.0
 10
38.8316
 20
-40.7918
 30
0.0
 10
38.8316
 20
-40.7918
 30
0.0
 10
38.8316
 20
-63.3226
 30
0.0
 10
38.8316
 20
-63.3226
 30
0.0
 10
38.8316
 20
-63.3226
 30
0.0
 10
37.1607
 20
-60.8589
 30
0.0
 10
35.8731
 20
-60.3816
 30
0.0
 10
32.4174
 20
-60.5916
 30
0.0
  0
SPLINE
  5
53
330
1F
100
AcDbEntity
  8
layer 1
 62
     7
100
AcDbSpline
210
0.0
220
0.0
230
1.0
 70
    11
 71
     3
 72
    40
 73
    36
 74
     0
 42
0.0000000001
 43
0.0000000001
 12
1.0
 22
0.0
 32
0.0
 13
1.0
 23
0.0
 33
0.0
 40
0.0
 40
0.0
 40
0.0
 40
0.0
 40
0.1
 40
0.1
 40
0.1
 40
0.1
 40
0.2
 40
0.2
 40
0.2
 40
0.2
 40
0.3
 40
0.3
 40
0.3
 40
0.3
 40
0.4
 40
0.4
 40
0.4
 40
0.4
 40
0.5
 40
0.5
 40
0.5
 40
0.5
 40
0.6
 40
0.6
 40
0.6
 40
0.6
 40
0.7
 40
0.7
 40
0.7
 40
0.7
 40
0.8
 40
0.8
 40
0.8
 40
0.8
 40
1.0
 40
1.0
 40
1.0
 40
1.0
 10
28.6897
 20
-35.7298
 30
0.0
 10
29.5174
 20
-34.9719
 30
0.0
 10
30.6625
 20
-34.5322
 30
0.0
 10
31.6076
 20
-34.9354
 30
0.0
 10
31.6076
 20
-34.9354
 30
0.0
 10
32.8544
 20
-35.4673
 30
0.0
 10
32.1259
 20
-37.0229
 30
0.0
 10
30.8653
 20
-36.7792
 30
0.0
 10
30.8653
 20
-36.7792
 30
0.0
 10
30.932
 20
-37.9929
 30
0.0
 10
32.1853
 20
-37.9678
 30
0.0
 10
32.7516
 20
-38.0418
 30
0.0
 10
32.7516
 20
-38.0418
 30
0.0
 10
32.7701
 20
-38.6634
 30
0.0
 10
32.6525
 20
-39.8242
 30
0.0
 10
33.8662
 20
-39.8909
 30
0.0
 10
33.8662
 20
-39.8909
 30
0.0
 10
33.6226
 20
-38.6303
 30
0.0
 10
35.1781
 20
-37.9018
 30
0.0
 10
35.7101
 20
-39.1486
 30
0.0
 10
35.7101
 20
-39.1486
 30
0.0
 10
36.1133
 20
-40.0937
 30
0.0
 10
35.6735
 20
-41.2388
 30
0.0
 10
34.9156
 20
-42.0665
 30
0.0
 10
34.9156
 20
-42.0665
 30
0.0
 10
31.9231
 20
-44.6068
 30
0.0
 10
30.2623
 20
-42.7192
 30
0.0
 10
27.2275
 20
-43.5659
 30
0.0
 10
27.2275
 20
-43.5659
 30
0.0
 10
28.1296
 20
-40.4757
 30
0.0
 10
26.1496
 20
-38.7224
 30
0.0
 10
28.6898
 20
-35.7298
 30
0.0
 10
28.6898
 20
-35.7298
 30
0.0
 10
28.6898
 20
-35.7298
 30
0.0
 10
28.6897
 20
-35.7298
 30
0.0
 10
28.6897
 20
-35.7298
 30
0.0
  0
SPLINE
  5
54
330
1F
100
AcDbEntity
  8
layer 1
 62
     7
100
AcDbSpline
210
0.0
220
0.0
230
1.0
 70
    11
 71
     3
 72
    40
 73
    36
 74
     0
 42
0.0000000001
 43
0.0000000001
 12
1.0
 22
0.0
 32
0.0
 13
1.0
 23
0.0
 33
0.0
 40
0.0
 40
0.0
 40
0.0
 40
0.0
 40
0.1
 40
0.1
 40
0.1
 40
0.1
 40
0.2
 40
0.2
 40
0.2
 40
0.2
 40
0.3
 40
0.3
 40
0.3
 40
0.3
 40
0.4
 40
0.4
 40
0.4
 40
0.4
 40
0.5
 40
0.5
 40
0.5
 40
0.5
 40
0.6
 40
0.6
 40
0.6
 40
0.6
 40
0.7
 40
0.7
 40
0.7
 40
0.7
 40
0.8
 40
0.8
 40
0.8
 40
0.8
 40
1.0
 40
1.0
 40
1.0
 40
1.0
 10
20.048
 20
-47.4104
 30
0.0
 10
20.2303
 20
-48.049
 30
0.0
 10
20.296
 20
-49.0432
 30
0.0
 10
20.1287
 20
-49.5414
 30
0.0
 10
20.1287
 20
-49.5414
 30
0.0
 10
19.728
 20
-49.6727
 30
0.0
 10
18.9117
 20
-49.6477
 30
0.0
 10
18.2151
 20
-49.4339
 30
0.0
 10
18.2151
 20
-49.4339
 30
0.0
 10
18.5189
 20
-50.5207
 30
0.0
 10
18.4229
 20
-51.6756
 30
0.0
 10
17.7957
 20
-52.9977
 30
0.0
 10
17.7957
 20
-52.9977
 30
0.0
 10
19.0624
 20
-52.4259
 30
0.0
 10
20.1247
 20
-52.2373
 30
0.0
 10
21.2116
 20
-52.5412
 30
0.0
 10
21.2116
 20
-52.5412
 30
0.0
 10
20.9977
 20
-51.8445
 30
0.0
 10
20.9726
 20
-51.0282
 30
0.0
 10
21.104
 20
-50.6275
 30
0.0
 10
21.104
 20
-50.6275
 30
0.0
 10
21.6023
 20
-50.4603
 30
0.0
 10
22.5965
 20
-50.526
 30
0.0
 10
23.235
 20
-50.7083
 30
0.0
 10
23.235
 20
-50.7083
 30
0.0
 10
23.3739
 20
-49.5199
 30
0.0
 10
23.4131
 20
-48.1157
 30
0.0
 10
24.2423
 20
-46.5511
 30
0.0
 10
24.2423
 20
-46.5511
 30
0.0
 10
22.7331
 20
-47.3249
 30
0.0
 10
21.2364
 20
-47.2716
 30
0.0
 10
20.0481
 20
-47.4105
 30
0.0
 10
20.0481
 20
-47.4105
 30
0.0
 10
20.0481
 20
-47.4105
 30
0.0
 10
20.048
 20
-47.4104
 30
0.0
 10
20.048
 20
-47.4104
 30
0.0
  0
SPLINE
  5
55
330
1F
100
AcDbEntity
  8
layer 1
 62
     7
100
AcDbSpline
210
0.0
220
0.0
230
1.0
 70
    11
 71
     3
 72
    32
 73
    28
 74
     0
 42
0.0000000001
 43
0.0000000001
 12
1.0
 22
0.0
 32
0.0
 13
1.0
 23
0.0
 33
0.0
 40
0.0
 40
0.0
 40
0.0
 40
0.0
 40
0.125
 40
0.125
 40
0.125
 40
0.125
 40
0.25
 40
0.25
 40
0.25
 40
0.25
 40
0.375
 40
0.375
 40
0.375
 40
0.375
 40
0.5
 40
0.5
 40
0.5
 40
0.5
 40
0.625
 40
0.625
 40
0.625
 40
0.625
 40
0.75
 40
0.75
 40
0.75
 40
0.75
 40
1.0
 40
1.0
 40
1.0
 40
1.0
 10
2.8727
 20
-51.1666
 30
0.0
 10
3.5526
 20
-50.9741
 30
0.0
 10
5.2533
 20
-51.2119
 30
0.0
 10
6.05
 20
-52.4768
 30
0.0
 10
6.05
 20
-52.4768
 30
0.0
 10
5.5542
 20
-49.4585
 30
0.0
 10
10.0118
 20
-48.27
 30
0.0
 10
10.6185
 20
-50.8779
 30
0.0
 10
10.6185
 20
-50.8779
 30
0.0
 10
7.5872
 20
-51.4763
 30
0.0
 10
8.3532
 20
-54.7164
 30
0.0
 10
10.9951
 20
-54.657
 30
0.0
 10
10.9951
 20
-54.657
 30
0.0
 10
12.3568
 20
-54.4984
 30
0.0
 10
13.4699
 20
-53.9644
 30
0.0
 10
14.0923
 20
-52.5759
 30
0.0
 10
14.0923
 20
-52.5759
 30
0.0
 10
15.6688
 20
-49.0584
 30
0.0
 10
12.3783
 20
-45.3216
 30
0.0
 10
8.395
 20
-46.2772
 30
0.0
 10
8.395
 20
-46.2772
 30
0.0
 10
5.2758
 20
-47.183
 30
0.0
 10
3.3267
 20
-50.0251
 30
0.0
 10
2.8726
 20
-51.1666
 30
0.0
 10
2.8726
 20
-51.1666
 30
0.0
 10
2.8726
 20
-51.1666
 30
0.0
 10
2.8727
 20
-51.1666
 30
0.0
 10
2.8727
 20
-51.1666
 30
0.0
  0
SPLINE
  5
56
330
1F
100
AcDbEntity
  8
layer 1
 62
     7
100
AcDbSpline
210
0.0
220
0.0
230
1.0
 70
    11
 71
     3
 72
    56
 73
    52
 74
     0
 42
0.0000000001
 43
0.0000000001
 12
1.0
 22
0.0
 32
0.0
 13
1.0
 23
0.0
 33
0.0
 40
0.0
 40
0.0
 40
0.0
 40
0.0
 40
0.0714285714285714
 40
0.0714285714285714
 40
0.0714285714285714
 40
0.0714285714285714
 40
0.1428571428571428
 40
0.1428571428571428
 40
0.1428571428571428
 40
0.1428571428571428
 40
0.2142857142857143
 40
0.2142857142857143
 40
0.2142857142857143
 40
0.2142857142857143
 40
0.2857142857142857
 40
0.2857142857142857
 40
0.2857142857142857
 40
0.2857142857142857
 40
0.3571428571428572
 40
0.3571428571428572
 40
0.3571428571428572
 40
0.3571428571428572
 40
0.4285714285714285
 40
0.4285714285714285
 40
0.4285714285714285
 40
0.4285714285714285
 40
0.5
 40
0.5
 40
0.5
 40
0.5
 40
0.5714285714285714
 40
0.5714285714285714
 40
0.5714285714285714
 40
0.5714285714285714
 40
0.6428571428571429
 40
0.6428571428571429
 40
0.6428571428571429
 40
0.6428571428571429
 40
0.7142857142857143
 40
0.7142857142857143
 40
0.7142857142857143
 40
0.7142857142857143
 40
0.7857142857142857
 40
0.7857142857142857
 40
0.7857142857142857
 40
0.7857142857142857
 40
0.8571428571428571
 40
0.8571428571428571
 40
0.8571428571428571
 40
0.8571428571428571
 40
1.0
 40
1.0
 40
1.0
 40
1.0
 10
5.5606
 20
-61.8988
 30
0.0
 10
5.0586
 20
-61.3968
 30
0.0
 10
3.4564
 20
-61.2199
 30
0.0
 10
1.8241
 20
-62.0839
 30
0.0
 10
1.8241
 20
-62.0839
 30
0.0
 10
2.1941
 20
-59.1393
 30
0.0
 10
-0.3503
 20
-58.4871
 30
0.0
 10
0.4587
 20
-55.6774
 30
0.0
 10
0.4587
 20
-55.6774
 30
0.0
 10
0.9392
 20
-54.1483
 30
0.0
 10
4.2516
 20
-52.9613
 30
0.0
 10
5.4345
 20
-55.809
 30
0.0
 10
5.4345
 20
-55.809
 30
0.0
 10
5.6636
 20
-55.3286
 30
0.0
 10
5.7929
 20
-54.9449
 30
0.0
 10
6.1467
 20
-54.5805
 30
0.0
 10
6.1467
 20
-54.5805
 30
0.0
 10
7.63
 20
-57.081
 30
0.0
 10
10.3866
 20
-58.6943
 30
0.0
 10
13.7119
 20
-57.0814
 30
0.0
 10
13.7119
 20
-57.0814
 30
0.0
 10
12.0435
 20
-60.462
 30
0.0
 10
13.5643
 20
-63.1262
 30
0.0
 10
16.0648
 20
-64.6094
 30
0.0
 10
16.0648
 20
-64.6094
 30
0.0
 10
15.7004
 20
-64.9632
 30
0.0
 10
15.3167
 20
-65.0925
 30
0.0
 10
14.8363
 20
-65.3216
 30
0.0
 10
14.8363
 20
-65.3216
 30
0.0
 10
17.684
 20
-66.5044
 30
0.0
 10
16.497
 20
-69.8169
 30
0.0
 10
14.9679
 20
-70.2973
 30
0.0
 10
14.9679
 20
-70.2973
 30
0.0
 10
12.1582
 20
-71.1064
 30
0.0
 10
11.5061
 20
-68.562
 30
0.0
 10
8.5615
 20
-68.9319
 30
0.0
 10
8.5615
 20
-68.9319
 30
0.0
 10
9.4254
 20
-67.2997
 30
0.0
 10
9.2485
 20
-65.6975
 30
0.0
 10
8.7465
 20
-65.1955
 30
0.0
 10
8.7465
 20
-65.1955
 30
0.0
 10
8.0847
 20
-64.7848
 30
0.0
 10
6.7111
 20
-65.0571
 30
0.0
 10
5.4374
 20
-65.3558
 30
0.0
 10
5.4374
 20
-65.3558
 30
0.0
 10
5.7914
 20
-64.0266
 30
0.0
 10
6.2224
 20
-62.8855
 30
0.0
 10
5.5605
 20
-61.8987
 30
0.0
 10
5.5605
 20
-61.8987
 30
0.0
 10
5.5605
 20
-61.8987
 30
0.0
 10
5.5606
 20
-61.8988
 30
0.0
 10
5.5606
 20
-61.8988
 30
0.0
  0
SPLINE
  5
57
330
1F
100
AcDbEntity
  8
layer 1
 62
     7
100
AcDbSpline
210
0.0
220
0.0
230
1.0
 70
    11
 71
     3
 72
    44
 73
    40
 74
     0
 42
0.0000000001
 43
0.0000000001
 12
1.0
 22
0.0
 32
0.0
 13
1.0
 23
0.0
 33
0.0
 40
0.0
 40
0.0
 40
0.0
 40
0.0
 40
0.0909090909090909
 40
0.0909090909090909
 40
0.0909090909090909
 40
0.0909090909090909
 40
0.1818181818181818
 40
0.1818181818181818
 40
0.1818181818181818
 40
0.1818181818181818
 40
0.2727272727272727
 40
0.2727272727272727
 40
0.2727272727272727
 40
0.2727272727272727
 40
0.3636363636363636
 40
0.3636363636363636
 40
0.3636363636363636
 40
0.3636363636363636
 40
0.4545454545454545
 40
0.4545454545454545
 40
0.4545454545454545
 40
0.4545454545454545
 40
0.5454545454545454
 40
0.5454545454545454
 40
0.5454545454545454
 40
0.5454545454545454
 40
0.6363636363636364
 40
0.6363636363636364
 40
0.6363636363636364
 40
0.6363636363636364
 40
0.7272727272727273
 40
0.7272727272727273
 40
0.7272727272727273
 40
0.7272727272727273
 40
0.8181818181818182
 40
0.8181818181818182
 40
0.8181818181818182
 40
0.8181818181818182
 40
1.0
 40
1.0
 40
1.0
 40
1.0
 10
3.6808
 20
-43.2577
 30
0.0
 10
5.5521
 20
-41.0745
 30
0.0
 10
6.2005
 20
-39.9737
 30
0.0
 10
6.4674
 20
-38.5272
 30
0.0
 10
6.4674
 20
-38.5272
 30
0.0
 10
6.8852
 20
-36.6433
 30
0.0
 10
5.5492
 20
-34.3913
 30
0.0
 10
3.7596
 20
-34.3312
 30
0.0
 10
3.7596
 20
-34.3312
 30
0.0
 10
1.3259
 20
-34.2711
 30
0.0
 10
0.8095
 20
-36.5938
 30
0.0
 10
2.2562
 20
-37.6885
 30
0.0
 10
2.2562
 20
-37.6885
 30
0.0
 10
1.1722
 20
-38.8117
 30
0.0
 10
-1.577
 20
-38.2274
 30
0.0
 10
-1.6063
 20
-36.1908
 30
0.0
 10
-1.6063
 20
-36.1908
 30
0.0
 10
-1.6356
 20
-38.2274
 30
0.0
 10
-4.3848
 20
-38.8117
 30
0.0
 10
-5.4688
 20
-37.6885
 30
0.0
 10
-5.4688
 20
-37.6885
 30
0.0
 10
-4.0221
 20
-36.5938
 30
0.0
 10
-4.5385
 20
-34.2711
 30
0.0
 10
-6.9722
 20
-34.3312
 30
0.0
 10
-6.9722
 20
-34.3312
 30
0.0
 10
-8.7617
 20
-34.3913
 30
0.0
 10
-10.0978
 20
-36.6433
 30
0.0
 10
-9.68
 20
-38.5272
 30
0.0
 10
-9.68
 20
-38.5272
 30
0.0
 10
-9.4132
 20
-39.9737
 30
0.0
 10
-8.7647
 20
-41.0745
 30
0.0
 10
-6.8934
 20
-43.2577
 30
0.0
 10
-6.8934
 20
-43.2577
 30
0.0
 10
-4.5003
 20
-45.5597
 30
0.0
 10
-2.554
 20
-48.7239
 30
0.0
 10
-1.6063
 20
-52.0473
 30
0.0
 10
-1.6063
 20
-52.0473
 30
0.0
 10
-0.6586
 20
-48.7238
 30
0.0
 10
1.2877
 20
-45.5597
 30
0.0
 10
3.6808
 20
-43.2577
 30
0.0
  0
SPLINE
  5
58
330
1F
100
AcDbEntity
  8
layer 1
 62
     7
100
AcDbSpline
210
0.0
220
0.0
230
1.0
 70
    11
 71
     3
 72
    32
 73
    28
 74
     0
 42
0.0000000001
 43
0.0000000001
 12
1.0
 22
0.0
 32
0.0
 13
1.0
 23
0.0
 33
0.0
 40
0.0
 40
0.0
 40
0.0
 40
0.0
 40
0.125
 40
0.125
 40
0.125
 40
0.125
 40
0.25
 40
0.25
 40
0.25
 40
0.25
 40
0.375
 40
0.375
 40
0.375
 40
0.375
 40
0.5
 40
0.5
 40
0.5
 40
0.5
 40
0.625
 40
0.625
 40
0.625
 40
0.625
 40
0.75
 40
0.75
 40
0.75
 40
0.75
 40
1.0
 40
1.0
 40
1.0
 40
1.0
 10
-22.6913
 20
-76.7828
 30
0.0
 10
-22.8839
 20
-77.4627
 30
0.0
 10
-22.6461
 20
-79.1634
 30
0.0
 10
-21.3812
 20
-79.9601
 30
0.0
 10
-21.3812
 20
-79.9601
 30
0.0
 10
-24.3995
 20
-79.4643
 30
0.0
 10
-25.588
 20
-83.9218
 30
0.0
 10
-22.9801
 20
-84.5286
 30
0.0
 10
-22.9801
 20
-84.5286
 30
0.0
 10
-22.3816
 20
-81.4973
 30
0.0
 10
-19.1416
 20
-82.2633
 30
0.0
 10
-19.2009
 20
-84.9052
 30
0.0
 10
-19.2009
 20
-84.9052
 30
0.0
 10
-19.3595
 20
-86.2669
 30
0.0
 10
-19.8936
 20
-87.38
 30
0.0
 10
-21.2821
 20
-88.0024
 30
0.0
 10
-21.2821
 20
-88.0024
 30
0.0
 10
-24.7996
 20
-89.5789
 30
0.0
 10
-28.5363
 20
-86.2884
 30
0.0
 10
-27.5808
 20
-82.3051
 30
0.0
 10
-27.5808
 20
-82.3051
 30
0.0
 10
-26.6749
 20
-79.1859
 30
0.0
 10
-23.8329
 20
-77.2368
 30
0.0
 10
-22.6914
 20
-76.7827
 30
0.0
 10
-22.6914
 20
-76.7827
 30
0.0
 10
-22.6914
 20
-76.7827
 30
0.0
 10
-22.6913
 20
-76.7828
 30
0.0
 10
-22.6913
 20
-76.7828
 30
0.0
  0
SPLINE
  5
59
330
1F
100
AcDbEntity
  8
layer 1
 62
     7
100
AcDbSpline
210
0.0
220
0.0
230
1.0
 70
    11
 71
     3
 72
    52
 73
    48
 74
     0
 42
0.0000000001
 43
0.0000000001
 12
1.0
 22
0.0
 32
0.0
 13
1.0
 23
0.0
 33
0.0
 40
0.0
 40
0.0
 40
0.0
 40
0.0
 40
0.0769230769230769
 40
0.0769230769230769
 40
0.0769230769230769
 40
0.0769230769230769
 40
0.1538461538461539
 40
0.1538461538461539
 40
0.1538461538461539
 40
0.1538461538461539
 40
0.2307692307692308
 40
0.2307692307692308
 40
0.2307692307692308
 40
0.2307692307692308
 40
0.3076923076923077
 40
0.3076923076923077
 40
0.3076923076923077
 40
0.3076923076923077
 40
0.3846153846153846
 40
0.3846153846153846
 40
0.3846153846153846
 40
0.3846153846153846
 40
0.4615384615384616
 40
0.4615384615384616
 40
0.4615384615384616
 40
0.4615384615384616
 40
0.5384615384615384
 40
0.5384615384615384
 40
0.5384615384615384
 40
0.5384615384615384
 40
0.6153846153846154
 40
0.6153846153846154
 40
0.6153846153846154
 40
0.6153846153846154
 40
0.6923076923076923
 40
0.6923076923076923
 40
0.6923076923076923
 40
0.6923076923076923
 40
0.7692307692307693
 40
0.7692307692307693
 40
0.7692307692307693
 40
0.7692307692307693
 40
0.8461538461538461
 40
0.8461538461538461
 40
0.8461538461538461
 40
0.8461538461538461
 40
1.0
 40
1.0
 40
1.0
 40
1.0
 10
-35.6299
 20
-84.0746
 30
0.0
 10
-35.6617
 20
-85.1525
 30
0.0
 10
-36.0834
 20
-86.3479
 30
0.0
 10
-35.3887
 20
-87.6462
 30
0.0
 10
-35.3887
 20
-87.6462
 30
0.0
 10
-34.0165
 20
-87.2943
 30
0.0
 10
-32.5366
 20
-86.1742
 30
0.0
 10
-31.7754
 20
-85.1106
 30
0.0
 10
-31.7754
 20
-85.1106
 30
0.0
 10
-31.2679
 20
-88.2406
 30
0.0
 10
-28.8154
 20
-89.2701
 30
0.0
 10
-29.1997
 20
-93.5435
 30
0.0
 10
-29.1997
 20
-93.5435
 30
0.0
 10
-29.6966
 20
-97.3777
 30
0.0
 10
-33.5864
 20
-98.8272
 30
0.0
 10
-34.8171
 20
-96.2942
 30
0.0
 10
-34.8171
 20
-96.2942
 30
0.0
 10
-35.1889
 20
-94.0786
 30
0.0
 10
-33.2452
 20
-94.0193
 30
0.0
 10
-32.8178
 20
-94.2832
 30
0.0
 10
-32.8178
 20
-94.2832
 30
0.0
 10
-32.9942
 20
-92.6645
 30
0.0
 10
-35.7638
 20
-91.3011
 30
0.0
 10
-37.626
 20
-93.6942
 30
0.0
 10
-37.626
 20
-93.6942
 30
0.0
 10
-38.8279
 20
-95.7635
 30
0.0
 10
-38.478
 20
-97.1062
 30
0.0
 10
-37.7899
 20
-98.3346
 30
0.0
 10
-37.7899
 20
-98.3346
 30
0.0
 10
-38.7035
 20
-98.1103
 30
0.0
 10
-39.9016
 20
-97.9648
 30
0.0
 10
-40.2762
 20
-98.2645
 30
0.0
 10
-40.2762
 20
-98.2645
 30
0.0
 10
-40.5329
 20
-98.6682
 30
0.0
 10
-39.8667
 20
-99.7574
 30
0.0
 10
-39.464
 20
-100.5469
 30
0.0
 10
-39.464
 20
-100.5469
 30
0.0
 10
-40.5041
 20
-100.8807
 30
0.0
 10
-41.5386
 20
-101.9311
 30
0.0
 10
-42.0442
 20
-103.8744
 30
0.0
 10
-42.0442
 20
-103.8744
 30
0.0
 10
-42.0442
 20
-103.8744
 30
0.0
 10
-42.0442
 20
-81.3436
 30
0.0
 10
-42.0442
 20
-81.3436
 30
0.0
 10
-42.0442
 20
-81.3436
 30
0.0
 10
-40.3733
 20
-83.8074
 30
0.0
 10
-39.0857
 20
-84.2847
 30
0.0
 10
-35.6299
 20
-84.0746
 30
0.0
  0
SPLINE
  5
5A
330
1F
100
AcDbEntity
  8
layer 1
 62
     7
100
AcDbSpline
210
0.0
220
0.0
230
1.0
 70
    11
 71
     3
 72
    20
 73
    16
 74
     0
 42
0.0000000001
 43
0.0000000001
 12
1.0
 22
0.0
 32
0.0
 13
1.0
 23
0.0
 33
0.0
 40
0.0
 40
0.0
 40
0.0
 40
0.0
 40
0.2
 40
0.2
 40
0.2
 40
0.2
 40
0.4
 40
0.4
 40
0.4
 40
0.4
 40
0.6
 40
0.6
 40
0.6
 40
0.6
 40
1.0
 40
1.0
 40
1.0
 40
1.0
 10
-4.0885
 20
-112.8525
 30
0.0
 10
-2.4337
 20
-112.8525
 30
0.0
 10
-0.7789
 20
-112.8525
 30
0.0
 10
0.8759
 20
-112.8525
 30
0.0
 10
0.8759
 20
-112.8525
 30
0.0
 10
-0.0251
 20
-112.1981
 30
0.0
 10
-1.1433
 20
-111.3723
 30
0.0
 10
-1.6062
 20
-109.692
 30
0.0
 10
-1.6062
 20
-109.692
 30
0.0
 10
-2.0691
 20
-111.3722
 30
0.0
 10
-3.1874
 20
-112.1981
 30
0.0
 10
-4.0884
 20
-112.8525
 30
0.0
 10
-4.0884
 20
-112.8525
 30
0.0
 10
-4.0884
 20
-112.8525
 30
0.0
 10
-4.0885
 20
-112.8525
 30
0.0
 10
-4.0885
 20
-112.8525
 30
0.0
  0
SPLINE
  5
5B
330
1F
100
AcDbEntity
  8
layer 1
 62
     7
100
AcDbSpline
210
0.0
220
0.0
230
1.0
 70
    11
 71
     3
 72
    56
 73
    52
 74
     0
 42
0.0000000001
 43
0.0000000001
 12
1.0
 22
0.0
 32
0.0
 13
1.0
 23
0.0
 33
0.0
 40
0.0
 40
0.0
 40
0.0
 40
0.0
 40
0.0714285714285714
 40
0.0714285714285714
 40
0.0714285714285714
 40
0.0714285714285714
 40
0.1428571428571428
 40
0.1428571428571428
 40
0.1428571428571428
 40
0.1428571428571428
 40
0.2142857142857143
 40
0.2142857142857143
 40
0.2142857142857143
 40
0.2142857142857143
 40
0.2857142857142857
 40
0.2857142857142857
 40
0.2857142857142857
 40
0.2857142857142857
 40
0.3571428571428572
 40
0.3571428571428572
 40
0.3571428571428572
 40
0.3571428571428572
 40
0.4285714285714285
 40
0.4285714285714285
 40
0.4285714285714285
 40
0.4285714285714285
 40
0.5
 40
0.5
 40
0.5
 40
0.5
 40
0.5714285714285714
 40
0.5714285714285714
 40
0.5714285714285714
 40
0.5714285714285714
 40
0.6428571428571429
 40
0.6428571428571429
 40
0.6428571428571429
 40
0.6428571428571429
 40
0.7142857142857143
 40
0.7142857142857143
 40
0.7142857142857143
 40
0.7142857142857143
 40
0.7857142857142857
 40
0.7857142857142857
 40
0.7857142857142857
 40
0.7857142857142857
 40
0.8571428571428571
 40
0.8571428571428571
 40
0.8571428571428571
 40
0.8571428571428571
 40
1.0
 40
1.0
 40
1.0
 40
1.0
 10
-8.7732
 20
-82.7675
 30
0.0
 10
-8.2712
 20
-83.2695
 30
0.0
 10
-6.669
 20
-83.4464
 30
0.0
 10
-5.0368
 20
-82.5825
 30
0.0
 10
-5.0368
 20
-82.5825
 30
0.0
 10
-5.4067
 20
-85.527
 30
0.0
 10
-2.8623
 20
-86.1792
 30
0.0
 10
-3.6714
 20
-88.9889
 30
0.0
 10
-3.6714
 20
-88.9889
 30
0.0
 10
-4.1518
 20
-90.518
 30
0.0
 10
-7.4643
 20
-91.705
 30
0.0
 10
-8.6471
 20
-88.8573
 30
0.0
 10
-8.6471
 20
-88.8573
 30
0.0
 10
-8.8762
 20
-89.3377
 30
0.0
 10
-9.0055
 20
-89.7214
 30
0.0
 10
-9.3593
 20
-90.0858
 30
0.0
 10
-9.3593
 20
-90.0858
 30
0.0
 10
-10.8426
 20
-87.5853
 30
0.0
 10
-13.5992
 20
-85.972
 30
0.0
 10
-16.9245
 20
-87.585
 30
0.0
 10
-16.9245
 20
-87.585
 30
0.0
 10
-15.2561
 20
-84.2043
 30
0.0
 10
-16.7769
 20
-81.5401
 30
0.0
 10
-19.2774
 20
-80.0569
 30
0.0
 10
-19.2774
 20
-80.0569
 30
0.0
 10
-18.913
 20
-79.7031
 30
0.0
 10
-18.5293
 20
-79.5738
 30
0.0
 10
-18.0489
 20
-79.3447
 30
0.0
 10
-18.0489
 20
-79.3447
 30
0.0
 10
-20.8966
 20
-78.1619
 30
0.0
 10
-19.7096
 20
-74.8494
 30
0.0
 10
-18.1806
 20
-74.369
 30
0.0
 10
-18.1806
 20
-74.369
 30
0.0
 10
-15.3708
 20
-73.5599
 30
0.0
 10
-14.7187
 20
-76.1043
 30
0.0
 10
-11.7741
 20
-75.7344
 30
0.0
 10
-11.7741
 20
-75.7344
 30
0.0
 10
-12.638
 20
-77.3666
 30
0.0
 10
-12.4611
 20
-78.9688
 30
0.0
 10
-11.9591
 20
-79.4708
 30
0.0
 10
-11.9591
 20
-79.4708
 30
0.0
 10
-11.2973
 20
-79.8815
 30
0.0
 10
-9.9238
 20
-79.6092
 30
0.0
 10
-8.65
 20
-79.3105
 30
0.0
 10
-8.65
 20
-79.3105
 30
0.0
 10
-9.004
 20
-80.6397
 30
0.0
 10
-9.435
 20
-81.7808
 30
0.0
 10
-8.7732
 20
-82.7676
 30
0.0
 10
-8.7732
 20
-82.7676
 30
0.0
 10
-8.7732
 20
-82.7676
 30
0.0
 10
-8.7732
 20
-82.7675
 30
0.0
 10
-8.7732
 20
-82.7675
 30
0.0
  0
SPLINE
  5
5C
330
1F
100
AcDbEntity
  8
layer 1
 62
     7
100
AcDbSpline
210
0.0
220
0.0
230
1.0
 70
    11
 71
     3
 72
    32
 73
    28
 74
     0
 42
0.0000000001
 43
0.0000000001
 12
1.0
 22
0.0
 32
0.0
 13
1.0
 23
0.0
 33
0.0
 40
0.0
 40
0.0
 40
0.0
 40
0.0
 40
0.125
 40
0.125
 40
0.125
 40
0.125
 40
0.25
 40
0.25
 40
0.25
 40
0.25
 40
0.375
 40
0.375
 40
0.375
 40
0.375
 40
0.5
 40
0.5
 40
0.5
 40
0.5
 40
0.625
 40
0.625
 40
0.625
 40
0.625
 40
0.75
 40
0.75
 40
0.75
 40
0.75
 40
1.0
 40
1.0
 40
1.0
 40
1.0
 10
-6.0853
 20
-93.4997
 30
0.0
 10
-6.7651
 20
-93.6922
 30
0.0
 10
-8.4659
 20
-93.4544
 30
0.0
 10
-9.2626
 20
-92.1895
 30
0.0
 10
-9.2626
 20
-92.1895
 30
0.0
 10
-8.7668
 20
-95.2078
 30
0.0
 10
-13.2243
 20
-96.3963
 30
0.0
 10
-13.8311
 20
-93.7884
 30
0.0
 10
-13.8311
 20
-93.7884
 30
0.0
 10
-10.7997
 20
-93.19
 30
0.0
 10
-11.5658
 20
-89.9499
 30
0.0
 10
-14.2076
 20
-90.0093
 30
0.0
 10
-14.2076
 20
-90.0093
 30
0.0
 10
-15.5693
 20
-90.1679
 30
0.0
 10
-16.6825
 20
-90.7019
 30
0.0
 10
-17.3048
 20
-92.0904
 30
0.0
 10
-17.3048
 20
-92.0904
 30
0.0
 10
-18.8813
 20
-95.6079
 30
0.0
 10
-15.5909
 20
-99.3447
 30
0.0
 10
-11.6075
 20
-98.3891
 30
0.0
 10
-11.6075
 20
-98.3891
 30
0.0
 10
-8.4884
 20
-97.4833
 30
0.0
 10
-6.5393
 20
-94.6412
 30
0.0
 10
-6.0852
 20
-93.4997
 30
0.0
 10
-6.0852
 20
-93.4997
 30
0.0
 10
-6.0852
 20
-93.4997
 30
0.0
 10
-6.0853
 20
-93.4997
 30
0.0
 10
-6.0853
 20
-93.4997
 30
0.0
  0
SPLINE
  5
5D
330
1F
100
AcDbEntity
  8
layer 1
 62
     7
100
AcDbSpline
210
0.0
220
0.0
230
1.0
 70
    11
 71
     3
 72
    52
 73
    48
 74
     0
 42
0.0000000001
 43
0.0000000001
 12
1.0
 22
0.0
 32
0.0
 13
1.0
 23
0.0
 33
0.0
 40
0.0
 40
0.0
 40
0.0
 40
0.0
 40
0.0769230769230769
 40
0.0769230769230769
 40
0.0769230769230769
 40
0.0769230769230769
 40
0.1538461538461539
 40
0.1538461538461539
 40
0.1538461538461539
 40
0.1538461538461539
 40
0.2307692307692308
 40
0.2307692307692308
 40
0.2307692307692308
 40
0.2307692307692308
 40
0.3076923076923077
 40
0.3076923076923077
 40
0.3076923076923077
 40
0.3076923076923077
 40
0.3846153846153846
 40
0.3846153846153846
 40
0.3846153846153846
 40
0.3846153846153846
 40
0.4615384615384616
 40
0.4615384615384616
 40
0.4615384615384616
 40
0.4615384615384616
 40
0.5384615384615384
 40
0.5384615384615384
 40
0.5384615384615384
 40
0.5384615384615384
 40
0.6153846153846154
 40
0.6153846153846154
 40
0.6153846153846154
 40
0.6153846153846154
 40
0.6923076923076923
 40
0.6923076923076923
 40
0.6923076923076923
 40
0.6923076923076923
 40
0.7692307692307693
 40
0.7692307692307693
 40
0.7692307692307693
 40
0.7692307692307693
 40
0.8461538461538461
 40
0.8461538461538461
 40
0.8461538461538461
 40
0.8461538461538461
 40
1.0
 40
1.0
 40
1.0
 40
1.0
 10
-13.3771
 20
-106.4382
 30
0.0
 10
-14.4549
 20
-106.4701
 30
0.0
 10
-15.6503
 20
-106.8917
 30
0.0
 10
-16.9487
 20
-106.197
 30
0.0
 10
-16.9487
 20
-106.197
 30
0.0
 10
-16.5968
 20
-104.8248
 30
0.0
 10
-15.4767
 20
-103.345
 30
0.0
 10
-14.4131
 20
-102.5837
 30
0.0
 10
-14.4131
 20
-102.5837
 30
0.0
 10
-17.5431
 20
-102.0762
 30
0.0
 10
-18.5725
 20
-99.6237
 30
0.0
 10
-22.8459
 20
-100.008
 30
0.0
 10
-22.8459
 20
-100.008
 30
0.0
 10
-26.6802
 20
-100.505
 30
0.0
 10
-28.1297
 20
-104.3947
 30
0.0
 10
-25.5966
 20
-105.6254
 30
0.0
 10
-25.5966
 20
-105.6254
 30
0.0
 10
-23.3811
 20
-105.9973
 30
0.0
 10
-23.3218
 20
-104.0535
 30
0.0
 10
-23.5857
 20
-103.6261
 30
0.0
 10
-23.5857
 20
-103.6261
 30
0.0
 10
-21.967
 20
-103.8025
 30
0.0
 10
-20.6035
 20
-106.5722
 30
0.0
 10
-22.9967
 20
-108.4343
 30
0.0
 10
-22.9967
 20
-108.4343
 30
0.0
 10
-25.066
 20
-109.6362
 30
0.0
 10
-26.4087
 20
-109.2863
 30
0.0
 10
-27.6371
 20
-108.5982
 30
0.0
 10
-27.6371
 20
-108.5982
 30
0.0
 10
-27.4128
 20
-109.5118
 30
0.0
 10
-27.2672
 20
-110.71
 30
0.0
 10
-27.567
 20
-111.0845
 30
0.0
 10
-27.567
 20
-111.0845
 30
0.0
 10
-27.9707
 20
-111.3412
 30
0.0
 10
-29.0599
 20
-110.675
 30
0.0
 10
-29.8493
 20
-110.2723
 30
0.0
 10
-29.8493
 20
-110.2723
 30
0.0
 10
-30.2627
 20
-111.4119
 30
0.0
 10
-31.3529
 20
-112.6253
 30
0.0
 10
-33.1769
 20
-112.8525
 30
0.0
 10
-33.1769
 20
-112.8525
 30
0.0
 10
-33.1769
 20
-112.8525
 30
0.0
 10
-10.6461
 20
-112.8525
 30
0.0
 10
-10.6461
 20
-112.8525
 30
0.0
 10
-10.6461
 20
-112.8525
 30
0.0
 10
-13.1098
 20
-111.1816
 30
0.0
 10
-13.5871
 20
-109.894
 30
0.0
 10
-13.3771
 20
-106.4382
 30
0.0
  0
SPLINE
  5
5E
330
1F
100
AcDbEntity
  8
layer 1
 62
     7
100
AcDbSpline
210
0.0
220
0.0
230
1.0
 70
    11
 71
     3
 72
    40
 73
    36
 74
     0
 42
0.0000000001
 43
0.0000000001
 12
1.0
 22
0.0
 32
0.0
 13
1.0
 23
0.0
 33
0.0
 40
0.0
 40
0.0
 40
0.0
 40
0.0
 40
0.1
 40
0.1
 40
0.1
 40
0.1
 40
0.2
 40
0.2
 40
0.2
 40
0.2
 40
0.3
 40
0.3
 40
0.3
 40
0.3
 40
0.4
 40
0.4
 40
0.4
 40
0.4
 40
0.5
 40
0.5
 40
0.5
 40
0.5
 40
0.6
 40
0.6
 40
0.6
 40
0.6
 40
0.7
 40
0.7
 40
0.7
 40
0.7
 40
0.8
 40
0.8
 40
0.8
 40
0.8
 40
1.0
 40
1.0
 40
1.0
 40
1.0
 10
-23.2606
 20
-97.2559
 30
0.0
 10
-23.4428
 20
-96.6173
 30
0.0
 10
-23.5085
 20
-95.6231
 30
0.0
 10
-23.3413
 20
-95.1249
 30
0.0
 10
-23.3413
 20
-95.1249
 30
0.0
 10
-22.9406
 20
-94.9936
 30
0.0
 10
-22.1243
 20
-95.0186
 30
0.0
 10
-21.4277
 20
-95.2324
 30
0.0
 10
-21.4277
 20
-95.2324
 30
0.0
 10
-21.7315
 20
-94.1456
 30
0.0
 10
-21.6354
 20
-92.9907
 30
0.0
 10
-21.0083
 20
-91.6686
 30
0.0
 10
-21.0083
 20
-91.6686
 30
0.0
 10
-22.2749
 20
-92.2404
 30
0.0
 10
-23.3373
 20
-92.429
 30
0.0
 10
-24.4241
 20
-92.1251
 30
0.0
 10
-24.4241
 20
-92.1251
 30
0.0
 10
-24.2103
 20
-92.8218
 30
0.0
 10
-24.1852
 20
-93.6381
 30
0.0
 10
-24.3166
 20
-94.0388
 30
0.0
 10
-24.3166
 20
-94.0388
 30
0.0
 10
-24.8148
 20
-94.206
 30
0.0
 10
-25.809
 20
-94.1403
 30
0.0
 10
-26.4476
 20
-93.958
 30
0.0
 10
-26.4476
 20
-93.958
 30
0.0
 10
-26.5864
 20
-95.1464
 30
0.0
 10
-26.6257
 20
-96.5506
 30
0.0
 10
-27.4549
 20
-98.1152
 30
0.0
 10
-27.4549
 20
-98.1152
 30
0.0
 10
-25.9456
 20
-97.3414
 30
0.0
 10
-24.4489
 20
-97.3947
 30
0.0
 10
-23.2606
 20
-97.2558
 30
0.0
 10
-23.2606
 20
-97.2558
 30
0.0
 10
-23.2606
 20
-97.2558
 30
0.0
 10
-23.2606
 20
-97.2559
 30
0.0
 10
-23.2606
 20
-97.2559
 30
0.0
  0
SPLINE
  5
5F
330
1F
100
AcDbEntity
  8
layer 1
 62
     7
100
AcDbSpline
210
0.0
220
0.0
230
1.0
 70
    11
 71
     3
 72
    40
 73
    36
 74
     0
 42
0.0000000001
 43
0.0000000001
 12
1.0
 22
0.0
 32
0.0
 13
1.0
 23
0.0
 33
0.0
 40
0.0
 40
0.0
 40
0.0
 40
0.0
 40
0.1
 40
0.1
 40
0.1
 40
0.1
 40
0.2
 40
0.2
 40
0.2
 40
0.2
 40
0.3
 40
0.3
 40
0.3
 40
0.3
 40
0.4
 40
0.4
 40
0.4
 40
0.4
 40
0.5
 40
0.5
 40
0.5
 40
0.5
 40
0.6
 40
0.6
 40
0.6
 40
0.6
 40
0.7
 40
0.7
 40
0.7
 40
0.7
 40
0.8
 40
0.8
 40
0.8
 40
0.8
 40
1.0
 40
1.0
 40
1.0
 40
1.0
 10
-31.9022
 20
-108.9364
 30
0.0
 10
-32.7299
 20
-109.6944
 30
0.0
 10
-33.8751
 20
-110.1341
 30
0.0
 10
-34.8201
 20
-109.7309
 30
0.0
 10
-34.8201
 20
-109.7309
 30
0.0
 10
-36.067
 20
-109.1989
 30
0.0
 10
-35.3384
 20
-107.6434
 30
0.0
 10
-34.0779
 20
-107.8871
 30
0.0
 10
-34.0779
 20
-107.8871
 30
0.0
 10
-34.1446
 20
-106.6733
 30
0.0
 10
-35.3979
 20
-106.6984
 30
0.0
 10
-35.9641
 20
-106.6245
 30
0.0
 10
-35.9641
 20
-106.6245
 30
0.0
 10
-35.9827
 20
-106.0029
 30
0.0
 10
-35.8651
 20
-104.8421
 30
0.0
 10
-37.0788
 20
-104.7754
 30
0.0
 10
-37.0788
 20
-104.7754
 30
0.0
 10
-36.8351
 20
-106.036
 30
0.0
 10
-38.3906
 20
-106.7644
 30
0.0
 10
-38.9226
 20
-105.5176
 30
0.0
 10
-38.9226
 20
-105.5176
 30
0.0
 10
-39.3258
 20
-104.5725
 30
0.0
 10
-38.8861
 20
-103.4274
 30
0.0
 10
-38.1282
 20
-102.5997
 30
0.0
 10
-38.1282
 20
-102.5997
 30
0.0
 10
-35.1356
 20
-100.0595
 30
0.0
 10
-33.4749
 20
-101.947
 30
0.0
 10
-30.44
 20
-101.1003
 30
0.0
 10
-30.44
 20
-101.1003
 30
0.0
 10
-31.3422
 20
-104.1906
 30
0.0
 10
-29.3621
 20
-105.9438
 30
0.0
 10
-31.9023
 20
-108.9364
 30
0.0
 10
-31.9023
 20
-108.9364
 30
0.0
 10
-31.9023
 20
-108.9364
 30
0.0
 10
-31.9022
 20
-108.9364
 30
0.0
 10
-31.9022
 20
-108.9364
 30
0.0
  0
SPLINE
  5
60
330
1F
100
AcDbEntity
  8
layer 1
 62
     7
100
AcDbSpline
210
0.0
220
0.0
230
1.0
 70
    11
 71
     3
 72
    20
 73
    16
 74
     0
 42
0.0000000001
 43
0.0000000001
 12
1.0
 22
0.0
 32
0.0
 13
1.0
 23
0.0
 33
0.0
 40
0.0
 40
0.0
 40
0.0
 40
0.0
 40
0.2
 40
0.2
 40
0.2
 40
0.2
 40
0.4
 40
0.4
 40
0.4
 40
0.4
 40
0.6
 40
0.6
 40
0.6
 40
0.6
 40
1.0
 40
1.0
 40
1.0
 40
1.0
 10
-36.5757
 20
-112.8525
 30
0.0
 10
-36.5757
 20
-112.8525
 30
0.0
 10
-42.0442
 20
-112.8525
 30
0.0
 10
-42.0442
 20
-112.8525
 30
0.0
 10
-42.0442
 20
-112.8525
 30
0.0
 10
-42.0442
 20
-112.8525
 30
0.0
 10
-42.0442
 20
-107.2732
 30
0.0
 10
-42.0442
 20
-107.2732
 30
0.0
 10
-42.0442
 20
-107.2732
 30
0.0
 10
-41.0509
 20
-108.8468
 30
0.0
 10
-39.4506
 20
-109.1444
 30
0.0
 10
-37.9351
 20
-108.5956
 30
0.0
 10
-37.9351
 20
-108.5956
 30
0.0
 10
-38.5195
 20
-109.9078
 30
0.0
 10
-38.2487
 20
-111.5808
 30
0.0
 10
-36.5757
 20
-112.8525
 30
0.0
  0
SPLINE
  5
61
330
1F
100
AcDbEntity
  8
layer 1
 62
     7
100
AcDbSpline
210
0.0
220
0.0
230
1.0
 70
    11
 71
     3
 72
    44
 73
    40
 74
     0
 42
0.0000000001
 43
0.0000000001
 12
1.0
 22
0.0
 32
0.0
 13
1.0
 23
0.0
 33
0.0
 40
0.0
 40
0.0
 40
0.0
 40
0.0
 40
0.0909090909090909
 40
0.0909090909090909
 40
0.0909090909090909
 40
0.0909090909090909
 40
0.1818181818181818
 40
0.1818181818181818
 40
0.1818181818181818
 40
0.1818181818181818
 40
0.2727272727272727
 40
0.2727272727272727
 40
0.2727272727272727
 40
0.2727272727272727
 40
0.3636363636363636
 40
0.3636363636363636
 40
0.3636363636363636
 40
0.3636363636363636
 40
0.4545454545454545
 40
0.4545454545454545
 40
0.4545454545454545
 40
0.4545454545454545
 40
0.5454545454545454
 40
0.5454545454545454
 40
0.5454545454545454
 40
0.5454545454545454
 40
0.6363636363636364
 40
0.6363636363636364
 40
0.6363636363636364
 40
0.6363636363636364
 40
0.7272727272727273
 40
0.7272727272727273
 40
0.7272727272727273
 40
0.7272727272727273
 40
0.8181818181818182
 40
0.8181818181818182
 40
0.8181818181818182
 40
0.8181818181818182
 40
1.0
 40
1.0
 40
1.0
 40
1.0
 10
32.9568
 20
-76.1663
 30
0.0
 10
34.0515
 20
-74.7195
 30
0.0
 10
36.3742
 20
-75.2359
 30
0.0
 10
36.3142
 20
-77.6697
 30
0.0
 10
36.3142
 20
-77.6697
 30
0.0
 10
36.2541
 20
-79.4592
 30
0.0
 10
34.0021
 20
-80.7953
 30
0.0
 10
32.1182
 20
-80.3775
 30
0.0
 10
32.1182
 20
-80.3775
 30
0.0
 10
30.6717
 20
-80.1106
 30
0.0
 10
29.5709
 20
-79.4622
 30
0.0
 10
27.3877
 20
-77.5909
 30
0.0
 10
27.3877
 20
-77.5909
 30
0.0
 10
25.0856
 20
-75.1977
 30
0.0
 10
21.9215
 20
-73.2514
 30
0.0
 10
18.598
 20
-72.3331
 30
0.0
 10
18.598
 20
-72.3331
 30
0.0
 10
21.9215
 20
-71.4148
 30
0.0
 10
25.0857
 20
-69.4685
 30
0.0
 10
27.3877
 20
-67.0754
 30
0.0
 10
27.3877
 20
-67.0754
 30
0.0
 10
29.5709
 20
-65.204
 30
0.0
 10
30.6717
 20
-64.5556
 30
0.0
 10
32.1182
 20
-64.2888
 30
0.0
 10
32.1182
 20
-64.2888
 30
0.0
 10
34.0021
 20
-63.871
 30
0.0
 10
36.2541
 20
-65.207
 30
0.0
 10
36.3142
 20
-66.9966
 30
0.0
 10
36.3142
 20
-66.9966
 30
0.0
 10
36.3742
 20
-69.4303
 30
0.0
 10
34.0515
 20
-69.9467
 30
0.0
 10
32.9568
 20
-68.5
 30
0.0
 10
32.9568
 20
-68.5
 30
0.0
 10
31.8337
 20
-69.5839
 30
0.0
 10
32.4179
 20
-72.3331
 30
0.0
 10
34.4545
 20
-72.3331
 30
0.0
 10
34.4545
 20
-72.3331
 30
0.0
 10
32.4179
 20
-72.3331
 30
0.0
 10
31.8337
 20
-75.0823
 30
0.0
 10
32.9568
 20
-76.1663
 30
0.0
  0
SPLINE
  5
62
330
1F
100
AcDbEntity
  8
layer 1
 62
     7
100
AcDbSpline
210
0.0
220
0.0
230
1.0
 70
    11
 71
     3
 72
    16
 73
    12
 74
     0
 42
0.0000000001
 43
0.0000000001
 12
1.0
 22
0.0
 32
0.0
 13
1.0
 23
0.0
 33
0.0
 40
0.0
 40
0.0
 40
0.0
 40
0.0
 40
0.25
 40
0.25
 40
0.25
 40
0.25
 40
0.5
 40
0.5
 40
0.5
 40
0.5
 40
1.0
 40
1.0
 40
1.0
 40
1.0
 10
38.8316
 20
-74.786
 30
0.0
 10
38.1772
 20
-73.885
 30
0.0
 10
37.3514
 20
-72.7667
 30
0.0
 10
35.6711
 20
-72.3331
 30
0.0
 10
35.6711
 20
-72.3331
 30
0.0
 10
37.3514
 20
-71.8996
 30
0.0
 10
38.1771
 20
-70.7813
 30
0.0
 10
38.8316
 20
-69.8802
 30
0.0
 10
38.8316
 20
-69.8802
 30
0.0
 10
38.8316
 20
-69.8802
 30
0.0
 10
38.8316
 20
-74.786
 30
0.0
 10
38.8316
 20
-74.786
 30
0.0
  0
SPLINE
  5
63
330
1F
100
AcDbEntity
  8
layer 1
 62
     7
100
AcDbSpline
210
0.0
220
0.0
230
1.0
 70
    11
 71
     3
 72
    32
 73
    28
 74
     0
 42
0.0000000001
 43
0.0000000001
 12
1.0
 22
0.0
 32
0.0
 13
1.0
 23
0.0
 33
0.0
 40
0.0
 40
0.0
 40
0.0
 40
0.0
 40
0.125
 40
0.125
 40
0.125
 40
0.125
 40
0.25
 40
0.25
 40
0.25
 40
0.25
 40
0.375
 40
0.375
 40
0.375
 40
0.375
 40
0.5
 40
0.5
 40
0.5
 40
0.5
 40
0.625
 40
0.625
 40
0.625
 40
0.625
 40
0.75
 40
0.75
 40
0.75
 40
0.75
 40
1.0
 40
1.0
 40
1.0
 40
1.0
 10
19.4788
 20
-76.7828
 30
0.0
 10
19.6713
 20
-77.4627
 30
0.0
 10
19.4336
 20
-79.1634
 30
0.0
 10
18.1687
 20
-79.9601
 30
0.0
 10
18.1687
 20
-79.9601
 30
0.0
 10
21.1869
 20
-79.4643
 30
0.0
 10
22.3754
 20
-83.9218
 30
0.0
 10
19.7676
 20
-84.5286
 30
0.0
 10
19.7676
 20
-84.5286
 30
0.0
 10
19.1691
 20
-81.4973
 30
0.0
 10
15.929
 20
-82.2633
 30
0.0
 10
15.9884
 20
-84.9052
 30
0.0
 10
15.9884
 20
-84.9052
 30
0.0
 10
16.147
 20
-86.2669
 30
0.0
 10
16.681
 20
-87.38
 30
0.0
 10
18.0696
 20
-88.0024
 30
0.0
 10
18.0696
 20
-88.0024
 30
0.0
 10
21.5871
 20
-89.5789
 30
0.0
 10
25.3238
 20
-86.2884
 30
0.0
 10
24.3682
 20
-82.3051
 30
0.0
 10
24.3682
 20
-82.3051
 30
0.0
 10
23.4624
 20
-79.1859
 30
0.0
 10
20.6203
 20
-77.2368
 30
0.0
 10
19.4789
 20
-76.7827
 30
0.0
 10
19.4789
 20
-76.7827
 30
0.0
 10
19.4789
 20
-76.7827
 30
0.0
 10
19.4788
 20
-76.7828
 30
0.0
 10
19.4788
 20
-76.7828
 30
0.0
  0
SPLINE
  5
64
330
1F
100
AcDbEntity
  8
layer 1
 62
     7
100
AcDbSpline
210
0.0
220
0.0
230
1.0
 70
    11
 71
     3
 72
    52
 73
    48
 74
     0
 42
0.0000000001
 43
0.0000000001
 12
1.0
 22
0.0
 32
0.0
 13
1.0
 23
0.0
 33
0.0
 40
0.0
 40
0.0
 40
0.0
 40
0.0
 40
0.0769230769230769
 40
0.0769230769230769
 40
0.0769230769230769
 40
0.0769230769230769
 40
0.1538461538461539
 40
0.1538461538461539
 40
0.1538461538461539
 40
0.1538461538461539
 40
0.2307692307692308
 40
0.2307692307692308
 40
0.2307692307692308
 40
0.2307692307692308
 40
0.3076923076923077
 40
0.3076923076923077
 40
0.3076923076923077
 40
0.3076923076923077
 40
0.3846153846153846
 40
0.3846153846153846
 40
0.3846153846153846
 40
0.3846153846153846
 40
0.4615384615384616
 40
0.4615384615384616
 40
0.4615384615384616
 40
0.4615384615384616
 40
0.5384615384615384
 40
0.5384615384615384
 40
0.5384615384615384
 40
0.5384615384615384
 40
0.6153846153846154
 40
0.6153846153846154
 40
0.6153846153846154
 40
0.6153846153846154
 40
0.6923076923076923
 40
0.6923076923076923
 40
0.6923076923076923
 40
0.6923076923076923
 40
0.7692307692307693
 40
0.7692307692307693
 40
0.7692307692307693
 40
0.7692307692307693
 40
0.8461538461538461
 40
0.8461538461538461
 40
0.8461538461538461
 40
0.8461538461538461
 40
1.0
 40
1.0
 40
1.0
 40
1.0
 10
32.4174
 20
-84.0746
 30
0.0
 10
32.4492
 20
-85.1525
 30
0.0
 10
32.8708
 20
-86.3479
 30
0.0
 10
32.1762
 20
-87.6462
 30
0.0
 10
32.1762
 20
-87.6462
 30
0.0
 10
30.8039
 20
-87.2943
 30
0.0
 10
29.3241
 20
-86.1742
 30
0.0
 10
28.5628
 20
-85.1106
 30
0.0
 10
28.5628
 20
-85.1106
 30
0.0
 10
28.0553
 20
-88.2406
 30
0.0
 10
25.6029
 20
-89.2701
 30
0.0
 10
25.9871
 20
-93.5435
 30
0.0
 10
25.9871
 20
-93.5435
 30
0.0
 10
26.4841
 20
-97.3777
 30
0.0
 10
30.3739
 20
-98.8272
 30
0.0
 10
31.6045
 20
-96.2942
 30
0.0
 10
31.6045
 20
-96.2942
 30
0.0
 10
31.9764
 20
-94.0786
 30
0.0
 10
30.0327
 20
-94.0193
 30
0.0
 10
29.6052
 20
-94.2832
 30
0.0
 10
29.6052
 20
-94.2832
 30
0.0
 10
29.7816
 20
-92.6645
 30
0.0
 10
32.5513
 20
-91.3011
 30
0.0
 10
34.4135
 20
-93.6942
 30
0.0
 10
34.4135
 20
-93.6942
 30
0.0
 10
35.6153
 20
-95.7635
 30
0.0
 10
35.2655
 20
-97.1062
 30
0.0
 10
34.5773
 20
-98.3346
 30
0.0
 10
34.5773
 20
-98.3346
 30
0.0
 10
35.491
 20
-98.1103
 30
0.0
 10
36.6891
 20
-97.9648
 30
0.0
 10
37.0637
 20
-98.2645
 30
0.0
 10
37.0637
 20
-98.2645
 30
0.0
 10
37.3204
 20
-98.6682
 30
0.0
 10
36.6541
 20
-99.7574
 30
0.0
 10
36.2515
 20
-100.5469
 30
0.0
 10
36.2515
 20
-100.5469
 30
0.0
 10
37.2916
 20
-100.8807
 30
0.0
 10
38.326
 20
-101.9311
 30
0.0
 10
38.8316
 20
-103.8744
 30
0.0
 10
38.8316
 20
-103.8744
 30
0.0
 10
38.8316
 20
-103.8744
 30
0.0
 10
38.8316
 20
-81.3436
 30
0.0
 10
38.8316
 20
-81.3436
 30
0.0
 10
38.8316
 20
-81.3436
 30
0.0
 10
37.1607
 20
-83.8074
 30
0.0
 10
35.8731
 20
-84.2847
 30
0.0
 10
32.4174
 20
-84.0746
 30
0.0
  0
SPLINE
  5
65
330
1F
100
AcDbEntity
  8
layer 1
 62
     7
100
AcDbSpline
210
0.0
220
0.0
230
1.0
 70
    11
 71
     3
 72
    44
 73
    40
 74
     0
 42
0.0000000001
 43
0.0000000001
 12
1.0
 22
0.0
 32
0.0
 13
1.0
 23
0.0
 33
0.0
 40
0.0
 40
0.0
 40
0.0
 40
0.0
 40
0.0909090909090909
 40
0.0909090909090909
 40
0.0909090909090909
 40
0.0909090909090909
 40
0.1818181818181818
 40
0.1818181818181818
 40
0.1818181818181818
 40
0.1818181818181818
 40
0.2727272727272727
 40
0.2727272727272727
 40
0.2727272727272727
 40
0.2727272727272727
 40
0.3636363636363636
 40
0.3636363636363636
 40
0.3636363636363636
 40
0.3636363636363636
 40
0.4545454545454545
 40
0.4545454545454545
 40
0.4545454545454545
 40
0.4545454545454545
 40
0.5454545454545454
 40
0.5454545454545454
 40
0.5454545454545454
 40
0.5454545454545454
 40
0.6363636363636364
 40
0.6363636363636364
 40
0.6363636363636364
 40
0.6363636363636364
 40
0.7272727272727273
 40
0.7272727272727273
 40
0.7272727272727273
 40
0.7272727272727273
 40
0.8181818181818182
 40
0.8181818181818182
 40
0.8181818181818182
 40
0.8181818181818182
 40
1.0
 40
1.0
 40
1.0
 40
1.0
 10
3.6808
 20
-101.4086
 30
0.0
 10
5.5521
 20
-103.5918
 30
0.0
 10
6.2005
 20
-104.6926
 30
0.0
 10
6.4674
 20
-106.1391
 30
0.0
 10
6.4674
 20
-106.1391
 30
0.0
 10
6.8852
 20
-108.023
 30
0.0
 10
5.5492
 20
-110.275
 30
0.0
 10
3.7596
 20
-110.3351
 30
0.0
 10
3.7596
 20
-110.3351
 30
0.0
 10
1.3259
 20
-110.3952
 30
0.0
 10
0.8095
 20
-108.0725
 30
0.0
 10
2.2562
 20
-106.9778
 30
0.0
 10
2.2562
 20
-106.9778
 30
0.0
 10
1.1722
 20
-105.8546
 30
0.0
 10
-1.577
 20
-106.4389
 30
0.0
 10
-1.6063
 20
-108.4755
 30
0.0
 10
-1.6063
 20
-108.4755
 30
0.0
 10
-1.6356
 20
-106.4389
 30
0.0
 10
-4.3848
 20
-105.8546
 30
0.0
 10
-5.4688
 20
-106.9778
 30
0.0
 10
-5.4688
 20
-106.9778
 30
0.0
 10
-4.0221
 20
-108.0725
 30
0.0
 10
-4.5385
 20
-110.3952
 30
0.0
 10
-6.9722
 20
-110.3351
 30
0.0
 10
-6.9722
 20
-110.3351
 30
0.0
 10
-8.7617
 20
-110.275
 30
0.0
 10
-10.0978
 20
-108.023
 30
0.0
 10
-9.68
 20
-106.1391
 30
0.0
 10
-9.68
 20
-106.1391
 30
0.0
 10
-9.4132
 20
-104.6926
 30
0.0
 10
-8.7647
 20
-103.5918
 30
0.0
 10
-6.8934
 20
-101.4086
 30
0.0
 10
-6.8934
 20
-101.4086
 30
0.0
 10
-4.5003
 20
-99.1066
 30
0.0
 10
-2.554
 20
-95.9424
 30
0.0
 10
-1.6063
 20
-92.619
 30
0.0
 10
-1.6063
 20
-92.619
 30
0.0
 10
-0.6586
 20
-95.9425
 30
0.0
 10
1.2877
 20
-99.1066
 30
0.0
 10
3.6808
 20
-101.4086
 30
0.0
  0
SPLINE
  5
66
330
1F
100
AcDbEntity
  8
layer 1
 62
     7
100
AcDbSpline
210
0.0
220
0.0
230
1.0
 70
    11
 71
     3
 72
    56
 73
    52
 74
     0
 42
0.0000000001
 43
0.0000000001
 12
1.0
 22
0.0
 32
0.0
 13
1.0
 23
0.0
 33
0.0
 40
0.0
 40
0.0
 40
0.0
 40
0.0
 40
0.0714285714285714
 40
0.0714285714285714
 40
0.0714285714285714
 40
0.0714285714285714
 40
0.1428571428571428
 40
0.1428571428571428
 40
0.1428571428571428
 40
0.1428571428571428
 40
0.2142857142857143
 40
0.2142857142857143
 40
0.2142857142857143
 40
0.2142857142857143
 40
0.2857142857142857
 40
0.2857142857142857
 40
0.2857142857142857
 40
0.2857142857142857
 40
0.3571428571428572
 40
0.3571428571428572
 40
0.3571428571428572
 40
0.3571428571428572
 40
0.4285714285714285
 40
0.4285714285714285
 40
0.4285714285714285
 40
0.4285714285714285
 40
0.5
 40
0.5
 40
0.5
 40
0.5
 40
0.5714285714285714
 40
0.5714285714285714
 40
0.5714285714285714
 40
0.5714285714285714
 40
0.6428571428571429
 40
0.6428571428571429
 40
0.6428571428571429
 40
0.6428571428571429
 40
0.7142857142857143
 40
0.7142857142857143
 40
0.7142857142857143
 40
0.7142857142857143
 40
0.7857142857142857
 40
0.7857142857142857
 40
0.7857142857142857
 40
0.7857142857142857
 40
0.8571428571428571
 40
0.8571428571428571
 40
0.8571428571428571
 40
0.8571428571428571
 40
1.0
 40
1.0
 40
1.0
 40
1.0
 10
5.5606
 20
-82.7675
 30
0.0
 10
5.0586
 20
-83.2695
 30
0.0
 10
3.4564
 20
-83.4464
 30
0.0
 10
1.8241
 20
-82.5825
 30
0.0
 10
1.8241
 20
-82.5825
 30
0.0
 10
2.1941
 20
-85.527
 30
0.0
 10
-0.3503
 20
-86.1792
 30
0.0
 10
0.4587
 20
-88.9889
 30
0.0
 10
0.4587
 20
-88.9889
 30
0.0
 10
0.9392
 20
-90.518
 30
0.0
 10
4.2516
 20
-91.705
 30
0.0
 10
5.4345
 20
-88.8573
 30
0.0
 10
5.4345
 20
-88.8573
 30
0.0
 10
5.6636
 20
-89.3377
 30
0.0
 10
5.7929
 20
-89.7214
 30
0.0
 10
6.1467
 20
-90.0858
 30
0.0
 10
6.1467
 20
-90.0858
 30
0.0
 10
7.63
 20
-87.5853
 30
0.0
 10
10.3866
 20
-85.972
 30
0.0
 10
13.7119
 20
-87.585
 30
0.0
 10
13.7119
 20
-87.585
 30
0.0
 10
12.0435
 20
-84.2043
 30
0.0
 10
13.5643
 20
-81.5401
 30
0.0
 10
16.0648
 20
-80.0569
 30
0.0
 10
16.0648
 20
-80.0569
 30
0.0
 10
15.7004
 20
-79.7031
 30
0.0
 10
15.3167
 20
-79.5738
 30
0.0
 10
14.8363
 20
-79.3447
 30
0.0
 10
14.8363
 20
-79.3447
 30
0.0
 10
17.684
 20
-78.1619
 30
0.0
 10
16.497
 20
-74.8494
 30
0.0
 10
14.9679
 20
-74.369
 30
0.0
 10
14.9679
 20
-74.369
 30
0.0
 10
12.1582
 20
-73.5599
 30
0.0
 10
11.5061
 20
-76.1043
 30
0.0
 10
8.5615
 20
-75.7344
 30
0.0
 10
8.5615
 20
-75.7344
 30
0.0
 10
9.4254
 20
-77.3666
 30
0.0
 10
9.2485
 20
-78.9688
 30
0.0
 10
8.7465
 20
-79.4708
 30
0.0
 10
8.7465
 20
-79.4708
 30
0.0
 10
8.0847
 20
-79.8815
 30
0.0
 10
6.7111
 20
-79.6092
 30
0.0
 10
5.4374
 20
-79.3105
 30
0.0
 10
5.4374
 20
-79.3105
 30
0.0
 10
5.7914
 20
-80.6397
 30
0.0
 10
6.2224
 20
-81.7808
 30
0.0
 10
5.5605
 20
-82.7676
 30
0.0
 10
5.5605
 20
-82.7676
 30
0.0
 10
5.5605
 20
-82.7676
 30
0.0
 10
5.5606
 20
-82.7675
 30
0.0
 10
5.5606
 20
-82.7675
 30
0.0
  0
SPLINE
  5
67
330
1F
100
AcDbEntity
  8
layer 1
 62
     7
100
AcDbSpline
210
0.0
220
0.0
230
1.0
 70
    11
 71
     3
 72
    32
 73
    28
 74
     0
 42
0.0000000001
 43
0.0000000001
 12
1.0
 22
0.0
 32
0.0
 13
1.0
 23
0.0
 33
0.0
 40
0.0
 40
0.0
 40
0.0
 40
0.0
 40
0.125
 40
0.125
 40
0.125
 40
0.125
 40
0.25
 40
0.25
 40
0.25
 40
0.25
 40
0.375
 40
0.375
 40
0.375
 40
0.375
 40
0.5
 40
0.5
 40
0.5
 40
0.5
 40
0.625
 40
0.625
 40
0.625
 40
0.625
 40
0.75
 40
0.75
 40
0.75
 40
0.75
 40
1.0
 40
1.0
 40
1.0
 40
1.0
 10
2.8727
 20
-93.4997
 30
0.0
 10
3.5526
 20
-93.6922
 30
0.0
 10
5.2533
 20
-93.4544
 30
0.0
 10
6.05
 20
-92.1895
 30
0.0
 10
6.05
 20
-92.1895
 30
0.0
 10
5.5542
 20
-95.2078
 30
0.0
 10
10.0118
 20
-96.3963
 30
0.0
 10
10.6185
 20
-93.7884
 30
0.0
 10
10.6185
 20
-93.7884
 30
0.0
 10
7.5872
 20
-93.19
 30
0.0
 10
8.3532
 20
-89.9499
 30
0.0
 10
10.9951
 20
-90.0093
 30
0.0
 10
10.9951
 20
-90.0093
 30
0.0
 10
12.3568
 20
-90.1679
 30
0.0
 10
13.4699
 20
-90.7019
 30
0.0
 10
14.0923
 20
-92.0904
 30
0.0
 10
14.0923
 20
-92.0904
 30
0.0
 10
15.6688
 20
-95.6079
 30
0.0
 10
12.3783
 20
-99.3447
 30
0.0
 10
8.395
 20
-98.3891
 30
0.0
 10
8.395
 20
-98.3891
 30
0.0
 10
5.2758
 20
-97.4833
 30
0.0
 10
3.3267
 20
-94.6412
 30
0.0
 10
2.8726
 20
-93.4997
 30
0.0
 10
2.8726
 20
-93.4997
 30
0.0
 10
2.8726
 20
-93.4997
 30
0.0
 10
2.8727
 20
-93.4997
 30
0.0
 10
2.8727
 20
-93.4997
 30
0.0
  0
SPLINE
  5
68
330
1F
100
AcDbEntity
  8
layer 1
 62
     7
100
AcDbSpline
210
0.0
220
0.0
230
1.0
 70
    11
 71
     3
 72
    52
 73
    48
 74
     0
 42
0.0000000001
 43
0.0000000001
 12
1.0
 22
0.0
 32
0.0
 13
1.0
 23
0.0
 33
0.0
 40
0.0
 40
0.0
 40
0.0
 40
0.0
 40
0.0769230769230769
 40
0.0769230769230769
 40
0.0769230769230769
 40
0.0769230769230769
 40
0.1538461538461539
 40
0.1538461538461539
 40
0.1538461538461539
 40
0.1538461538461539
 40
0.2307692307692308
 40
0.2307692307692308
 40
0.2307692307692308
 40
0.2307692307692308
 40
0.3076923076923077
 40
0.3076923076923077
 40
0.3076923076923077
 40
0.3076923076923077
 40
0.3846153846153846
 40
0.3846153846153846
 40
0.3846153846153846
 40
0.3846153846153846
 40
0.4615384615384616
 40
0.4615384615384616
 40
0.4615384615384616
 40
0.4615384615384616
 40
0.5384615384615384
 40
0.5384615384615384
 40
0.5384615384615384
 40
0.5384615384615384
 40
0.6153846153846154
 40
0.6153846153846154
 40
0.6153846153846154
 40
0.6153846153846154
 40
0.6923076923076923
 40
0.6923076923076923
 40
0.6923076923076923
 40
0.6923076923076923
 40
0.7692307692307693
 40
0.7692307692307693
 40
0.7692307692307693
 40
0.7692307692307693
 40
0.8461538461538461
 40
0.8461538461538461
 40
0.8461538461538461
 40
0.8461538461538461
 40
1.0
 40
1.0
 40
1.0
 40
1.0
 10
10.1646
 20
-106.4382
 30
0.0
 10
11.2424
 20
-106.4701
 30
0.0
 10
12.4378
 20
-106.8917
 30
0.0
 10
13.7362
 20
-106.197
 30
0.0
 10
13.7362
 20
-106.197
 30
0.0
 10
13.3842
 20
-104.8248
 30
0.0
 10
12.2641
 20
-103.345
 30
0.0
 10
11.2006
 20
-102.5837
 30
0.0
 10
11.2006
 20
-102.5837
 30
0.0
 10
14.3306
 20
-102.0762
 30
0.0
 10
15.36
 20
-99.6237
 30
0.0
 10
19.6334
 20
-100.008
 30
0.0
 10
19.6334
 20
-100.008
 30
0.0
 10
23.4676
 20
-100.505
 30
0.0
 10
24.9171
 20
-104.3947
 30
0.0
 10
22.3841
 20
-105.6254
 30
0.0
 10
22.3841
 20
-105.6254
 30
0.0
 10
20.1685
 20
-105.9973
 30
0.0
 10
20.1092
 20
-104.0535
 30
0.0
 10
20.3731
 20
-103.6261
 30
0.0
 10
20.3731
 20
-103.6261
 30
0.0
 10
18.7544
 20
-103.8025
 30
0.0
 10
17.391
 20
-106.5722
 30
0.0
 10
19.7842
 20
-108.4343
 30
0.0
 10
19.7842
 20
-108.4343
 30
0.0
 10
21.8534
 20
-109.6362
 30
0.0
 10
23.1961
 20
-109.2863
 30
0.0
 10
24.4245
 20
-108.5982
 30
0.0
 10
24.4245
 20
-108.5982
 30
0.0
 10
24.2002
 20
-109.5118
 30
0.0
 10
24.0547
 20
-110.71
 30
0.0
 10
24.3544
 20
-111.0845
 30
0.0
 10
24.3544
 20
-111.0845
 30
0.0
 10
24.7581
 20
-111.3412
 30
0.0
 10
25.8473
 20
-110.675
 30
0.0
 10
26.6368
 20
-110.2723
 30
0.0
 10
26.6368
 20
-110.2723
 30
0.0
 10
27.0502
 20
-111.4119
 30
0.0
 10
28.1404
 20
-112.6253
 30
0.0
 10
29.9644
 20
-112.8525
 30
0.0
 10
29.9644
 20
-112.8525
 30
0.0
 10
29.9644
 20
-112.8525
 30
0.0
 10
7.4336
 20
-112.8525
 30
0.0
 10
7.4336
 20
-112.8525
 30
0.0
 10
7.4336
 20
-112.8525
 30
0.0
 10
9.8973
 20
-111.1816
 30
0.0
 10
10.3746
 20
-109.894
 30
0.0
 10
10.1646
 20
-106.4382
 30
0.0
  0
SPLINE
  5
69
330
1F
100
AcDbEntity
  8
layer 1
 62
     7
100
AcDbSpline
210
0.0
220
0.0
230
1.0
 70
    11
 71
     3
 72
    40
 73
    36
 74
     0
 42
0.0000000001
 43
0.0000000001
 12
1.0
 22
0.0
 32
0.0
 13
1.0
 23
0.0
 33
0.0
 40
0.0
 40
0.0
 40
0.0
 40
0.0
 40
0.1
 40
0.1
 40
0.1
 40
0.1
 40
0.2
 40
0.2
 40
0.2
 40
0.2
 40
0.3
 40
0.3
 40
0.3
 40
0.3
 40
0.4
 40
0.4
 40
0.4
 40
0.4
 40
0.5
 40
0.5
 40
0.5
 40
0.5
 40
0.6
 40
0.6
 40
0.6
 40
0.6
 40
0.7
 40
0.7
 40
0.7
 40
0.7
 40
0.8
 40
0.8
 40
0.8
 40
0.8
 40
1.0
 40
1.0
 40
1.0
 40
1.0
 10
20.048
 20
-97.2559
 30
0.0
 10
20.2303
 20
-96.6173
 30
0.0
 10
20.296
 20
-95.6231
 30
0.0
 10
20.1287
 20
-95.1249
 30
0.0
 10
20.1287
 20
-95.1249
 30
0.0
 10
19.728
 20
-94.9936
 30
0.0
 10
18.9117
 20
-95.0186
 30
0.0
 10
18.2151
 20
-95.2324
 30
0.0
 10
18.2151
 20
-95.2324
 30
0.0
 10
18.5189
 20
-94.1456
 30
0.0
 10
18.4229
 20
-92.9907
 30
0.0
 10
17.7957
 20
-91.6686
 30
0.0
 10
17.7957
 20
-91.6686
 30
0.0
 10
19.0624
 20
-92.2404
 30
0.0
 10
20.1247
 20
-92.429
 30
0.0
 10
21.2116
 20
-92.1251
 30
0.0
 10
21.2116
 20
-92.1251
 30
0.0
 10
20.9977
 20
-92.8218
 30
0.0
 10
20.9726
 20
-93.6381
 30
0.0
 10
21.104
 20
-94.0388
 30
0.0
 10
21.104
 20
-94.0388
 30
0.0
 10
21.6023
 20
-94.206
 30
0.0
 10
22.5965
 20
-94.1403
 30
0.0
 10
23.235
 20
-93.958
 30
0.0
 10
23.235
 20
-93.958
 30
0.0
 10
23.3739
 20
-95.1464
 30
0.0
 10
23.4131
 20
-96.5506
 30
0.0
 10
24.2423
 20
-98.1152
 30
0.0
 10
24.2423
 20
-98.1152
 30
0.0
 10
22.7331
 20
-97.3414
 30
0.0
 10
21.2364
 20
-97.3947
 30
0.0
 10
20.0481
 20
-97.2558
 30
0.0
 10
20.0481
 20
-97.2558
 30
0.0
 10
20.0481
 20
-97.2558
 30
0.0
 10
20.048
 20
-97.2559
 30
0.0
 10
20.048
 20
-97.2559
 30
0.0
  0
SPLINE
  5
6A
330
1F
100
AcDbEntity
  8
layer 1
 62
     7
100
AcDbSpline
210
0.0
220
0.0
230
1.0
 70
    11
 71
     3
 72
    40
 73
    36
 74
     0
 42
0.0000000001
 43
0.0000000001
 12
1.0
 22
0.0
 32
0.0
 13
1.0
 23
0.0
 33
0.0
 40
0.0
 40
0.0
 40
0.0
 40
0.0
 40
0.1
 40
0.1
 40
0.1
 40
0.1
 40
0.2
 40
0.2
 40
0.2
 40
0.2
 40
0.3
 40
0.3
 40
0.3
 40
0.3
 40
0.4
 40
0.4
 40
0.4
 40
0.4
 40
0.5
 40
0.5
 40
0.5
 40
0.5
 40
0.6
 40
0.6
 40
0.6
 40
0.6
 40
0.7
 40
0.7
 40
0.7
 40
0.7
 40
0.8
 40
0.8
 40
0.8
 40
0.8
 40
1.0
 40
1.0
 40
1.0
 40
1.0
 10
28.6897
 20
-108.9364
 30
0.0
 10
29.5174
 20
-109.6944
 30
0.0
 10
30.6625
 20
-110.1341
 30
0.0
 10
31.6076
 20
-109.7309
 30
0.0
 10
31.6076
 20
-109.7309
 30
0.0
 10
32.8544
 20
-109.1989
 30
0.0
 10
32.1259
 20
-107.6434
 30
0.0
 10
30.8653
 20
-107.8871
 30
0.0
 10
30.8653
 20
-107.8871
 30
0.0
 10
30.932
 20
-106.6733
 30
0.0
 10
32.1853
 20
-106.6984
 30
0.0
 10
32.7516
 20
-106.6245
 30
0.0
 10
32.7516
 20
-106.6245
 30
0.0
 10
32.7701
 20
-106.0029
 30
0.0
 10
32.6525
 20
-104.8421
 30
0.0
 10
33.8662
 20
-104.7754
 30
0.0
 10
33.8662
 20
-104.7754
 30
0.0
 10
33.6226
 20
-106.036
 30
0.0
 10
35.1781
 20
-106.7644
 30
0.0
 10
35.7101
 20
-105.5176
 30
0.0
 10
35.7101
 20
-105.5176
 30
0.0
 10
36.1133
 20
-104.5725
 30
0.0
 10
35.6735
 20
-103.4274
 30
0.0
 10
34.9156
 20
-102.5997
 30
0.0
 10
34.9156
 20
-102.5997
 30
0.0
 10
31.9231
 20
-100.0595
 30
0.0
 10
30.2623
 20
-101.947
 30
0.0
 10
27.2275
 20
-101.1003
 30
0.0
 10
27.2275
 20
-101.1003
 30
0.0
 10
28.1296
 20
-104.1906
 30
0.0
 10
26.1496
 20
-105.9438
 30
0.0
 10
28.6898
 20
-108.9364
 30
0.0
 10
28.6898
 20
-108.9364
 30
0.0
 10
28.6898
 20
-108.9364
 30
0.0
 10
28.6897
 20
-108.9364
 30
0.0
 10
28.6897
 20
-108.9364
 30
0.0
  0
SPLINE
  5
6B
330
1F
100
AcDbEntity
  8
layer 1
 62
     7
100
AcDbSpline
210
0.0
220
0.0
230
1.0
 70
    11
 71
     3
 72
    20
 73
    16
 74
     0
 42
0.0000000001
 43
0.0000000001
 12
1.0
 22
0.0
 32
0.0
 13
1.0
 23
0.0
 33
0.0
 40
0.0
 40
0.0
 40
0.0
 40
0.0
 40
0.2
 40
0.2
 40
0.2
 40
0.2
 40
0.4
 40
0.4
 40
0.4
 40
0.4
 40
0.6
 40
0.6
 40
0.6
 40
0.6
 40
1.0
 40
1.0
 40
1.0
 40
1.0
 10
33.3631
 20
-112.8525
 30
0.0
 10
33.3631
 20
-112.8525
 30
0.0
 10
38.8316
 20
-112.8525
 30
0.0
 10
38.8316
 20
-112.8525
 30
0.0
 10
38.8316
 20
-112.8525
 30
0.0
 10
38.8316
 20
-112.8525
 30
0.0
 10
38.8316
 20
-107.2732
 30
0.0
 10
38.8316
 20
-107.2732
 30
0.0
 10
38.8316
 20
-107.2732
 30
0.0
 10
37.8384
 20
-108.8468
 30
0.0
 10
36.2381
 20
-109.1444
 30
0.0
 10
34.7226
 20
-108.5956
 30
0.0
 10
34.7226
 20
-108.5956
 30
0.0
 10
35.3069
 20
-109.9078
 30
0.0
 10
35.0362
 20
-111.5808
 30
0.0
 10
33.3631
 20
-112.8525
 30
0.0
  0
SPLINE
  5
6C
330
1F
100
AcDbEntity
  8
layer 1
 62
     7
100
AcDbSpline
210
0.0
220
0.0
230
1.0
 70
    11
 71
     3
 72
    20
 73
    16
 74
     0
 42
0.0000000001
 43
0.0000000001
 12
1.0
 22
0.0
 32
0.0
 13
1.0
 23
0.0
 33
0.0
 40
0.0
 40
0.0
 40
0.0
 40
0.0
 40
0.2
 40
0.2
 40
0.2
 40
0.2
 40
0.4
 40
0.4
 40
0.4
 40
0.4
 40
0.6
 40
0.6
 40
0.6
 40
0.6
 40
1.0
 40
1.0
 40
1.0
 40
1.0
 10
-1.5531
 20
-68.79
 30
0.0
 10
0.4694
 20
-68.79
 30
0.0
 10
2.1096
 20
-70.4303
 30
0.0
 10
2.1096
 20
-72.4528
 30
0.0
 10
2.1096
 20
-72.4528
 30
0.0
 10
2.1096
 20
-74.4753
 30
0.0
 10
0.4694
 20
-76.1155
 30
0.0
 10
-1.5531
 20
-76.1155
 30
0.0
 10
-1.5531
 20
-76.1155
 30
0.0
 10
-3.5756
 20
-76.1155
 30
0.0
 10
-5.2158
 20
-74.4753
 30
0.0
 10
-5.2158
 20
-72.4528
 30
0.0
 10
-5.2158
 20
-72.4528
 30
0.0
 10
-5.2158
 20
-70.4303
 30
0.0
 10
-3.5756
 20
-68.79
 30
0.0
 10
-1.5531
 20
-68.79
 30
0.0
  0
SPLINE
  5
6D
330
1F
100
AcDbEntity
  8
layer 1
 62
     7
100
AcDbSpline
210
0.0
220
0.0
230
1.0
 70
    11
 71
     3
 72
    48
 73
    44
 74
     0
 42
0.0000000001
 43
0.0000000001
 12
1.0
 22
0.0
 32
0.0
 13
1.0
 23
0.0
 33
0.0
 40
0.0
 40
0.0
 40
0.0
 40
0.0
 40
0.0833333333333333
 40
0.0833333333333333
 40
0.0833333333333333
 40
0.0833333333333333
 40
0.1666666666666667
 40
0.1666666666666667
 40
0.1666666666666667
 40
0.1666666666666667
 40
0.25
 40
0.25
 40
0.25
 40
0.25
 40
0.3333333333333333
 40
0.3333333333333333
 40
0.3333333333333333
 40
0.3333333333333333
 40
0.4166666666666667
 40
0.4166666666666667
 40
0.4166666666666667
 40
0.4166666666666667
 40
0.5
 40
0.5
 40
0.5
 40
0.5
 40
0.5833333333333334
 40
0.5833333333333334
 40
0.5833333333333334
 40
0.5833333333333334
 40
0.6666666666666666
 40
0.6666666666666666
 40
0.6666666666666666
 40
0.6666666666666666
 40
0.75
 40
0.75
 40
0.75
 40
0.75
 40
0.8333333333333334
 40
0.8333333333333334
 40
0.8333333333333334
 40
0.8333333333333334
 40
1.0
 40
1.0
 40
1.0
 40
1.0
 10
-30.5641
 20
95.003
 30
0.0
 10
-32.7473
 20
96.8743
 30
0.0
 10
-33.8481
 20
97.5227
 30
0.0
 10
-35.2946
 20
97.7896
 30
0.0
 10
-35.2946
 20
97.7896
 30
0.0
 10
-37.1784
 20
98.2074
 30
0.0
 10
-39.4305
 20
96.8714
 30
0.0
 10
-39.4905
 20
95.0818
 30
0.0
 10
-39.4905
 20
95.0818
 30
0.0
 10
-39.5506
 20
92.6481
 30
0.0
 10
-37.2279
 20
92.1317
 30
0.0
 10
-36.1332
 20
93.5784
 30
0.0
 10
-36.1332
 20
93.5784
 30
0.0
 10
-35.0101
 20
92.4944
 30
0.0
 10
-35.5943
 20
89.7452
 30
0.0
 10
-37.6309
 20
89.7452
 30
0.0
 10
-37.6309
 20
89.7452
 30
0.0
 10
-35.5943
 20
89.7452
 30
0.0
 10
-35.0101
 20
86.996
 30
0.0
 10
-36.1332
 20
85.9121
 30
0.0
 10
-36.1332
 20
85.9121
 30
0.0
 10
-37.2279
 20
87.3589
 30
0.0
 10
-39.5506
 20
86.8425
 30
0.0
 10
-39.4905
 20
84.4087
 30
0.0
 10
-39.4905
 20
84.4087
 30
0.0
 10
-39.4305
 20
82.6192
 30
0.0
 10
-37.1785
 20
81.2831
 30
0.0
 10
-35.2946
 20
81.7009
 30
0.0
 10
-35.2946
 20
81.7009
 30
0.0
 10
-33.8481
 20
81.9678
 30
0.0
 10
-32.7473
 20
82.6162
 30
0.0
 10
-30.5641
 20
84.4876
 30
0.0
 10
-30.5641
 20
84.4876
 30
0.0
 10
-28.262
 20
86.8807
 30
0.0
 10
-25.0978
 20
88.827
 30
0.0
 10
-21.7744
 20
89.7453
 30
0.0
 10
-21.7744
 20
89.7453
 30
0.0
 10
-25.0979
 20
90.6636
 30
0.0
 10
-28.2621
 20
92.6099
 30
0.0
 10
-30.5641
 20
95.003
 30
0.0
 10
-30.5641
 20
95.003
 30
0.0
 10
-30.5641
 20
95.003
 30
0.0
 10
-30.5641
 20
95.003
 30
0.0
 10
-30.5641
 20
95.003
 30
0.0
  0
SPLINE
  5
6E
330
1F
100
AcDbEntity
  8
layer 1
 62
     7
100
AcDbSpline
210
0.0
220
0.0
230
1.0
 70
    11
 71
     3
 72
    20
 73
    16
 74
     0
 42
0.0000000001
 43
0.0000000001
 12
1.0
 22
0.0
 32
0.0
 13
1.0
 23
0.0
 33
0.0
 40
0.0
 40
0.0
 40
0.0
 40
0.0
 40
0.2
 40
0.2
 40
0.2
 40
0.2
 40
0.4
 40
0.4
 40
0.4
 40
0.4
 40
0.6
 40
0.6
 40
0.6
 40
0.6
 40
1.0
 40
1.0
 40
1.0
 40
1.0
 10
-42.008
 20
92.1981
 30
0.0
 10
-42.008
 20
92.1981
 30
0.0
 10
-42.008
 20
87.2924
 30
0.0
 10
-42.008
 20
87.2924
 30
0.0
 10
-42.008
 20
87.2924
 30
0.0
 10
-41.3535
 20
88.1934
 30
0.0
 10
-40.5277
 20
89.3117
 30
0.0
 10
-38.8474
 20
89.7453
 30
0.0
 10
-38.8474
 20
89.7453
 30
0.0
 10
-40.5277
 20
90.1789
 30
0.0
 10
-41.3535
 20
91.2971
 30
0.0
 10
-42.008
 20
92.1982
 30
0.0
 10
-42.008
 20
92.1982
 30
0.0
 10
-42.008
 20
92.1982
 30
0.0
 10
-42.008
 20
92.1981
 30
0.0
 10
-42.008
 20
92.1981
 30
0.0
  0
SPLINE
  5
6F
330
1F
100
AcDbEntity
  8
layer 1
 62
     7
100
AcDbSpline
210
0.0
220
0.0
230
1.0
 70
    11
 71
     3
 72
    32
 73
    28
 74
     0
 42
0.0000000001
 43
0.0000000001
 12
1.0
 22
0.0
 32
0.0
 13
1.0
 23
0.0
 33
0.0
 40
0.0
 40
0.0
 40
0.0
 40
0.0
 40
0.125
 40
0.125
 40
0.125
 40
0.125
 40
0.25
 40
0.25
 40
0.25
 40
0.25
 40
0.375
 40
0.375
 40
0.375
 40
0.375
 40
0.5
 40
0.5
 40
0.5
 40
0.5
 40
0.625
 40
0.625
 40
0.625
 40
0.625
 40
0.75
 40
0.75
 40
0.75
 40
0.75
 40
1.0
 40
1.0
 40
1.0
 40
1.0
 10
-22.6551
 20
94.195
 30
0.0
 10
-22.8477
 20
94.8748
 30
0.0
 10
-22.6099
 20
96.5756
 30
0.0
 10
-21.345
 20
97.3723
 30
0.0
 10
-21.345
 20
97.3723
 30
0.0
 10
-24.3633
 20
96.8765
 30
0.0
 10
-25.5518
 20
101.334
 30
0.0
 10
-22.9439
 20
101.9408
 30
0.0
 10
-22.9439
 20
101.9408
 30
0.0
 10
-22.3454
 20
98.9095
 30
0.0
 10
-19.1053
 20
99.6755
 30
0.0
 10
-19.1647
 20
102.3173
 30
0.0
 10
-19.1647
 20
102.3173
 30
0.0
 10
-19.3233
 20
103.679
 30
0.0
 10
-19.8573
 20
104.7922
 30
0.0
 10
-21.2459
 20
105.4146
 30
0.0
 10
-21.2459
 20
105.4146
 30
0.0
 10
-24.7634
 20
106.9911
 30
0.0
 10
-28.5001
 20
103.7006
 30
0.0
 10
-27.5445
 20
99.7173
 30
0.0
 10
-27.5445
 20
99.7173
 30
0.0
 10
-26.6387
 20
96.5981
 30
0.0
 10
-23.7967
 20
94.649
 30
0.0
 10
-22.6552
 20
94.1949
 30
0.0
 10
-22.6552
 20
94.1949
 30
0.0
 10
-22.6552
 20
94.1949
 30
0.0
 10
-22.6551
 20
94.195
 30
0.0
 10
-22.6551
 20
94.195
 30
0.0
  0
SPLINE
  5
70
330
1F
100
AcDbEntity
  8
layer 1
 62
     7
100
AcDbSpline
210
0.0
220
0.0
230
1.0
 70
    11
 71
     3
 72
    56
 73
    52
 74
     0
 42
0.0000000001
 43
0.0000000001
 12
1.0
 22
0.0
 32
0.0
 13
1.0
 23
0.0
 33
0.0
 40
0.0
 40
0.0
 40
0.0
 40
0.0
 40
0.0714285714285714
 40
0.0714285714285714
 40
0.0714285714285714
 40
0.0714285714285714
 40
0.1428571428571428
 40
0.1428571428571428
 40
0.1428571428571428
 40
0.1428571428571428
 40
0.2142857142857143
 40
0.2142857142857143
 40
0.2142857142857143
 40
0.2142857142857143
 40
0.2857142857142857
 40
0.2857142857142857
 40
0.2857142857142857
 40
0.2857142857142857
 40
0.3571428571428572
 40
0.3571428571428572
 40
0.3571428571428572
 40
0.3571428571428572
 40
0.4285714285714285
 40
0.4285714285714285
 40
0.4285714285714285
 40
0.4285714285714285
 40
0.5
 40
0.5
 40
0.5
 40
0.5
 40
0.5714285714285714
 40
0.5714285714285714
 40
0.5714285714285714
 40
0.5714285714285714
 40
0.6428571428571429
 40
0.6428571428571429
 40
0.6428571428571429
 40
0.6428571428571429
 40
0.7142857142857143
 40
0.7142857142857143
 40
0.7142857142857143
 40
0.7142857142857143
 40
0.7857142857142857
 40
0.7857142857142857
 40
0.7857142857142857
 40
0.7857142857142857
 40
0.8571428571428571
 40
0.8571428571428571
 40
0.8571428571428571
 40
0.8571428571428571
 40
1.0
 40
1.0
 40
1.0
 40
1.0
 10
-35.5937
 20
101.4868
 30
0.0
 10
-35.6255
 20
102.5647
 30
0.0
 10
-36.0471
 20
103.76
 30
0.0
 10
-35.3525
 20
105.0584
 30
0.0
 10
-35.3525
 20
105.0584
 30
0.0
 10
-33.9802
 20
104.7065
 30
0.0
 10
-32.5004
 20
103.5864
 30
0.0
 10
-31.7392
 20
102.5228
 30
0.0
 10
-31.7392
 20
102.5228
 30
0.0
 10
-31.2316
 20
105.6528
 30
0.0
 10
-28.7792
 20
106.6823
 30
0.0
 10
-29.1635
 20
110.9557
 30
0.0
 10
-29.1635
 20
110.9557
 30
0.0
 10
-29.6604
 20
114.7899
 30
0.0
 10
-33.5502
 20
116.2394
 30
0.0
 10
-34.7808
 20
113.7064
 30
0.0
 10
-34.7808
 20
113.7064
 30
0.0
 10
-35.1527
 20
111.4908
 30
0.0
 10
-33.209
 20
111.4315
 30
0.0
 10
-32.7815
 20
111.6954
 30
0.0
 10
-32.7815
 20
111.6954
 30
0.0
 10
-32.958
 20
110.0767
 30
0.0
 10
-35.7276
 20
108.7132
 30
0.0
 10
-37.5898
 20
111.1064
 30
0.0
 10
-37.5898
 20
111.1064
 30
0.0
 10
-38.7917
 20
113.1757
 30
0.0
 10
-38.4418
 20
114.5184
 30
0.0
 10
-37.7536
 20
115.7467
 30
0.0
 10
-37.7536
 20
115.7467
 30
0.0
 10
-38.6673
 20
115.5225
 30
0.0
 10
-39.8655
 20
115.377
 30
0.0
 10
-40.24
 20
115.6766
 30
0.0
 10
-40.24
 20
115.6766
 30
0.0
 10
-40.4967
 20
116.0804
 30
0.0
 10
-39.8305
 20
117.1695
 30
0.0
 10
-39.4278
 20
117.959
 30
0.0
 10
-39.4278
 20
117.959
 30
0.0
 10
-40.4679
 20
118.2928
 30
0.0
 10
-41.5023
 20
119.3433
 30
0.0
 10
-42.008
 20
121.2866
 30
0.0
 10
-42.008
 20
121.2866
 30
0.0
 10
-42.008
 20
121.2866
 30
0.0
 10
-42.008
 20
98.7558
 30
0.0
 10
-42.008
 20
98.7558
 30
0.0
 10
-42.008
 20
98.7558
 30
0.0
 10
-40.3371
 20
101.2195
 30
0.0
 10
-39.0495
 20
101.6968
 30
0.0
 10
-35.5937
 20
101.4868
 30
0.0
 10
-35.5937
 20
101.4868
 30
0.0
 10
-35.5937
 20
101.4868
 30
0.0
 10
-35.5937
 20
101.4868
 30
0.0
 10
-35.5937
 20
101.4868
 30
0.0
  0
SPLINE
  5
71
330
1F
100
AcDbEntity
  8
layer 1
 62
     7
100
AcDbSpline
210
0.0
220
0.0
230
1.0
 70
    11
 71
     3
 72
    16
 73
    12
 74
     0
 42
0.0000000001
 43
0.0000000001
 12
1.0
 22
0.0
 32
0.0
 13
1.0
 23
0.0
 33
0.0
 40
0.0
 40
0.0
 40
0.0
 40
0.0
 40
0.25
 40
0.25
 40
0.25
 40
0.25
 40
0.5
 40
0.5
 40
0.5
 40
0.5
 40
1.0
 40
1.0
 40
1.0
 40
1.0
 10
-4.0522
 20
130.2647
 30
0.0
 10
-2.3975
 20
130.2647
 30
0.0
 10
-0.7426
 20
130.2647
 30
0.0
 10
0.9121
 20
130.2647
 30
0.0
 10
0.9121
 20
130.2647
 30
0.0
 10
0.0112
 20
129.6103
 30
0.0
 10
-1.1071
 20
128.7845
 30
0.0
 10
-1.57
 20
127.1041
 30
0.0
 10
-1.57
 20
127.1041
 30
0.0
 10
-2.033
 20
128.7845
 30
0.0
 10
-3.1512
 20
129.6103
 30
0.0
 10
-4.0522
 20
130.2647
 30
0.0
  0
SPLINE
  5
72
330
1F
100
AcDbEntity
  8
layer 1
 62
     7
100
AcDbSpline
210
0.0
220
0.0
230
1.0
 70
    11
 71
     3
 72
    56
 73
    52
 74
     0
 42
0.0000000001
 43
0.0000000001
 12
1.0
 22
0.0
 32
0.0
 13
1.0
 23
0.0
 33
0.0
 40
0.0
 40
0.0
 40
0.0
 40
0.0
 40
0.0714285714285714
 40
0.0714285714285714
 40
0.0714285714285714
 40
0.0714285714285714
 40
0.1428571428571428
 40
0.1428571428571428
 40
0.1428571428571428
 40
0.1428571428571428
 40
0.2142857142857143
 40
0.2142857142857143
 40
0.2142857142857143
 40
0.2142857142857143
 40
0.2857142857142857
 40
0.2857142857142857
 40
0.2857142857142857
 40
0.2857142857142857
 40
0.3571428571428572
 40
0.3571428571428572
 40
0.3571428571428572
 40
0.3571428571428572
 40
0.4285714285714285
 40
0.4285714285714285
 40
0.4285714285714285
 40
0.4285714285714285
 40
0.5
 40
0.5
 40
0.5
 40
0.5
 40
0.5714285714285714
 40
0.5714285714285714
 40
0.5714285714285714
 40
0.5714285714285714
 40
0.6428571428571429
 40
0.6428571428571429
 40
0.6428571428571429
 40
0.6428571428571429
 40
0.7142857142857143
 40
0.7142857142857143
 40
0.7142857142857143
 40
0.7142857142857143
 40
0.7857142857142857
 40
0.7857142857142857
 40
0.7857142857142857
 40
0.7857142857142857
 40
0.8571428571428571
 40
0.8571428571428571
 40
0.8571428571428571
 40
0.8571428571428571
 40
1.0
 40
1.0
 40
1.0
 40
1.0
 10
-8.737
 20
100.1796
 30
0.0
 10
-8.235
 20
100.6816
 30
0.0
 10
-6.6328
 20
100.8585
 30
0.0
 10
-5.0005
 20
99.9946
 30
0.0
 10
-5.0005
 20
99.9946
 30
0.0
 10
-5.3704
 20
102.9392
 30
0.0
 10
-2.8261
 20
103.5913
 30
0.0
 10
-3.6351
 20
106.4011
 30
0.0
 10
-3.6351
 20
106.4011
 30
0.0
 10
-4.1156
 20
107.9301
 30
0.0
 10
-7.428
 20
109.1171
 30
0.0
 10
-8.6109
 20
106.2694
 30
0.0
 10
-8.6109
 20
106.2694
 30
0.0
 10
-8.84
 20
106.7498
 30
0.0
 10
-8.9693
 20
107.1335
 30
0.0
 10
-9.323
 20
107.4979
 30
0.0
 10
-9.323
 20
107.4979
 30
0.0
 10
-10.8064
 20
104.9974
 30
0.0
 10
-13.563
 20
103.3841
 30
0.0
 10
-16.8882
 20
104.9971
 30
0.0
 10
-16.8882
 20
104.9971
 30
0.0
 10
-15.2199
 20
101.6164
 30
0.0
 10
-16.7407
 20
98.9523
 30
0.0
 10
-19.2412
 20
97.469
 30
0.0
 10
-19.2412
 20
97.469
 30
0.0
 10
-18.8768
 20
97.1152
 30
0.0
 10
-18.4931
 20
96.9859
 30
0.0
 10
-18.0127
 20
96.7568
 30
0.0
 10
-18.0127
 20
96.7568
 30
0.0
 10
-20.8604
 20
95.574
 30
0.0
 10
-19.6734
 20
92.2615
 30
0.0
 10
-18.1443
 20
91.7811
 30
0.0
 10
-18.1443
 20
91.7811
 30
0.0
 10
-15.3346
 20
90.9721
 30
0.0
 10
-14.6825
 20
93.5164
 30
0.0
 10
-11.7378
 20
93.1465
 30
0.0
 10
-11.7378
 20
93.1465
 30
0.0
 10
-12.6018
 20
94.7787
 30
0.0
 10
-12.4248
 20
96.3809
 30
0.0
 10
-11.9229
 20
96.8829
 30
0.0
 10
-11.9229
 20
96.8829
 30
0.0
 10
-11.2611
 20
97.2936
 30
0.0
 10
-9.8875
 20
97.0213
 30
0.0
 10
-8.6138
 20
96.7227
 30
0.0
 10
-8.6138
 20
96.7227
 30
0.0
 10
-8.9678
 20
98.0518
 30
0.0
 10
-9.3987
 20
99.1929
 30
0.0
 10
-8.7369
 20
100.1797
 30
0.0
 10
-8.7369
 20
100.1797
 30
0.0
 10
-8.7369
 20
100.1797
 30
0.0
 10
-8.737
 20
100.1796
 30
0.0
 10
-8.737
 20
100.1796
 30
0.0
  0
SPLINE
  5
73
330
1F
100
AcDbEntity
  8
layer 1
 62
     7
100
AcDbSpline
210
0.0
220
0.0
230
1.0
 70
    11
 71
     3
 72
    32
 73
    28
 74
     0
 42
0.0000000001
 43
0.0000000001
 12
1.0
 22
0.0
 32
0.0
 13
1.0
 23
0.0
 33
0.0
 40
0.0
 40
0.0
 40
0.0
 40
0.0
 40
0.125
 40
0.125
 40
0.125
 40
0.125
 40
0.25
 40
0.25
 40
0.25
 40
0.25
 40
0.375
 40
0.375
 40
0.375
 40
0.375
 40
0.5
 40
0.5
 40
0.5
 40
0.5
 40
0.625
 40
0.625
 40
0.625
 40
0.625
 40
0.75
 40
0.75
 40
0.75
 40
0.75
 40
1.0
 40
1.0
 40
1.0
 40
1.0
 10
-6.049
 20
110.9118
 30
0.0
 10
-6.7289
 20
111.1043
 30
0.0
 10
-8.4296
 20
110.8666
 30
0.0
 10
-9.2264
 20
109.6017
 30
0.0
 10
-9.2264
 20
109.6017
 30
0.0
 10
-8.7305
 20
112.6199
 30
0.0
 10
-13.1881
 20
113.8084
 30
0.0
 10
-13.7949
 20
111.2006
 30
0.0
 10
-13.7949
 20
111.2006
 30
0.0
 10
-10.7635
 20
110.6021
 30
0.0
 10
-11.5295
 20
107.362
 30
0.0
 10
-14.1714
 20
107.4214
 30
0.0
 10
-14.1714
 20
107.4214
 30
0.0
 10
-15.5331
 20
107.58
 30
0.0
 10
-16.6463
 20
108.114
 30
0.0
 10
-17.2686
 20
109.5026
 30
0.0
 10
-17.2686
 20
109.5026
 30
0.0
 10
-18.8451
 20
113.0201
 30
0.0
 10
-15.5547
 20
116.7568
 30
0.0
 10
-11.5713
 20
115.8012
 30
0.0
 10
-11.5713
 20
115.8012
 30
0.0
 10
-8.4522
 20
114.8954
 30
0.0
 10
-6.5031
 20
112.0533
 30
0.0
 10
-6.049
 20
110.9118
 30
0.0
 10
-6.049
 20
110.9118
 30
0.0
 10
-6.049
 20
110.9118
 30
0.0
 10
-6.049
 20
110.9118
 30
0.0
 10
-6.049
 20
110.9118
 30
0.0
  0
SPLINE
  5
74
330
1F
100
AcDbEntity
  8
layer 1
 62
     7
100
AcDbSpline
210
0.0
220
0.0
230
1.0
 70
    11
 71
     3
 72
    52
 73
    48
 74
     0
 42
0.0000000001
 43
0.0000000001
 12
1.0
 22
0.0
 32
0.0
 13
1.0
 23
0.0
 33
0.0
 40
0.0
 40
0.0
 40
0.0
 40
0.0
 40
0.0769230769230769
 40
0.0769230769230769
 40
0.0769230769230769
 40
0.0769230769230769
 40
0.1538461538461539
 40
0.1538461538461539
 40
0.1538461538461539
 40
0.1538461538461539
 40
0.2307692307692308
 40
0.2307692307692308
 40
0.2307692307692308
 40
0.2307692307692308
 40
0.3076923076923077
 40
0.3076923076923077
 40
0.3076923076923077
 40
0.3076923076923077
 40
0.3846153846153846
 40
0.3846153846153846
 40
0.3846153846153846
 40
0.3846153846153846
 40
0.4615384615384616
 40
0.4615384615384616
 40
0.4615384615384616
 40
0.4615384615384616
 40
0.5384615384615384
 40
0.5384615384615384
 40
0.5384615384615384
 40
0.5384615384615384
 40
0.6153846153846154
 40
0.6153846153846154
 40
0.6153846153846154
 40
0.6153846153846154
 40
0.6923076923076923
 40
0.6923076923076923
 40
0.6923076923076923
 40
0.6923076923076923
 40
0.7692307692307693
 40
0.7692307692307693
 40
0.7692307692307693
 40
0.7692307692307693
 40
0.8461538461538461
 40
0.8461538461538461
 40
0.8461538461538461
 40
0.8461538461538461
 40
1.0
 40
1.0
 40
1.0
 40
1.0
 10
-13.3409
 20
123.8504
 30
0.0
 10
-14.4187
 20
123.8822
 30
0.0
 10
-15.6141
 20
124.3039
 30
0.0
 10
-16.9125
 20
123.6092
 30
0.0
 10
-16.9125
 20
123.6092
 30
0.0
 10
-16.5606
 20
122.237
 30
0.0
 10
-15.4404
 20
120.7571
 30
0.0
 10
-14.3769
 20
119.9959
 30
0.0
 10
-14.3769
 20
119.9959
 30
0.0
 10
-17.5069
 20
119.4884
 30
0.0
 10
-18.5363
 20
117.0359
 30
0.0
 10
-22.8097
 20
117.4202
 30
0.0
 10
-22.8097
 20
117.4202
 30
0.0
 10
-26.6439
 20
117.9171
 30
0.0
 10
-28.0935
 20
121.8069
 30
0.0
 10
-25.5604
 20
123.0376
 30
0.0
 10
-25.5604
 20
123.0376
 30
0.0
 10
-23.3449
 20
123.4094
 30
0.0
 10
-23.2856
 20
121.4657
 30
0.0
 10
-23.5495
 20
121.0383
 30
0.0
 10
-23.5495
 20
121.0383
 30
0.0
 10
-21.9307
 20
121.2147
 30
0.0
 10
-20.5673
 20
123.9843
 30
0.0
 10
-22.9605
 20
125.8465
 30
0.0
 10
-22.9605
 20
125.8465
 30
0.0
 10
-25.0297
 20
127.0484
 30
0.0
 10
-26.3724
 20
126.6985
 30
0.0
 10
-27.6009
 20
126.0104
 30
0.0
 10
-27.6009
 20
126.0104
 30
0.0
 10
-27.3765
 20
126.924
 30
0.0
 10
-27.231
 20
128.1221
 30
0.0
 10
-27.5308
 20
128.4967
 30
0.0
 10
-27.5308
 20
128.4967
 30
0.0
 10
-27.9345
 20
128.7534
 30
0.0
 10
-29.0237
 20
128.0872
 30
0.0
 10
-29.8131
 20
127.6845
 30
0.0
 10
-29.8131
 20
127.6845
 30
0.0
 10
-30.2265
 20
128.824
 30
0.0
 10
-31.3167
 20
130.0375
 30
0.0
 10
-33.1407
 20
130.2647
 30
0.0
 10
-33.1407
 20
130.2647
 30
0.0
 10
-33.1407
 20
130.2647
 30
0.0
 10
-10.6099
 20
130.2647
 30
0.0
 10
-10.6099
 20
130.2647
 30
0.0
 10
-10.6099
 20
130.2647
 30
0.0
 10
-13.0736
 20
128.5938
 30
0.0
 10
-13.5509
 20
127.3062
 30
0.0
 10
-13.3409
 20
123.8504
 30
0.0
  0
SPLINE
  5
75
330
1F
100
AcDbEntity
  8
layer 1
 62
     7
100
AcDbSpline
210
0.0
220
0.0
230
1.0
 70
    11
 71
     3
 72
    40
 73
    36
 74
     0
 42
0.0000000001
 43
0.0000000001
 12
1.0
 22
0.0
 32
0.0
 13
1.0
 23
0.0
 33
0.0
 40
0.0
 40
0.0
 40
0.0
 40
0.0
 40
0.1
 40
0.1
 40
0.1
 40
0.1
 40
0.2
 40
0.2
 40
0.2
 40
0.2
 40
0.3
 40
0.3
 40
0.3
 40
0.3
 40
0.4
 40
0.4
 40
0.4
 40
0.4
 40
0.5
 40
0.5
 40
0.5
 40
0.5
 40
0.6
 40
0.6
 40
0.6
 40
0.6
 40
0.7
 40
0.7
 40
0.7
 40
0.7
 40
0.8
 40
0.8
 40
0.8
 40
0.8
 40
1.0
 40
1.0
 40
1.0
 40
1.0
 10
-23.2243
 20
114.668
 30
0.0
 10
-23.4066
 20
114.0295
 30
0.0
 10
-23.4723
 20
113.0352
 30
0.0
 10
-23.3051
 20
112.537
 30
0.0
 10
-23.3051
 20
112.537
 30
0.0
 10
-22.9044
 20
112.4057
 30
0.0
 10
-22.0881
 20
112.4307
 30
0.0
 10
-21.3914
 20
112.6445
 30
0.0
 10
-21.3914
 20
112.6445
 30
0.0
 10
-21.6953
 20
111.5577
 30
0.0
 10
-21.5992
 20
110.4028
 30
0.0
 10
-20.972
 20
109.0807
 30
0.0
 10
-20.972
 20
109.0807
 30
0.0
 10
-22.2387
 20
109.6525
 30
0.0
 10
-23.301
 20
109.8411
 30
0.0
 10
-24.3879
 20
109.5372
 30
0.0
 10
-24.3879
 20
109.5372
 30
0.0
 10
-24.174
 20
110.2339
 30
0.0
 10
-24.149
 20
111.0502
 30
0.0
 10
-24.2803
 20
111.4509
 30
0.0
 10
-24.2803
 20
111.4509
 30
0.0
 10
-24.7786
 20
111.6181
 30
0.0
 10
-25.7728
 20
111.5524
 30
0.0
 10
-26.4113
 20
111.3701
 30
0.0
 10
-26.4113
 20
111.3701
 30
0.0
 10
-26.5502
 20
112.5585
 30
0.0
 10
-26.5895
 20
113.9627
 30
0.0
 10
-27.4186
 20
115.5273
 30
0.0
 10
-27.4186
 20
115.5273
 30
0.0
 10
-25.9094
 20
114.7535
 30
0.0
 10
-24.4127
 20
114.8068
 30
0.0
 10
-23.2244
 20
114.6679
 30
0.0
 10
-23.2244
 20
114.6679
 30
0.0
 10
-23.2244
 20
114.6679
 30
0.0
 10
-23.2243
 20
114.668
 30
0.0
 10
-23.2243
 20
114.668
 30
0.0
  0
SPLINE
  5
76
330
1F
100
AcDbEntity
  8
layer 1
 62
     7
100
AcDbSpline
210
0.0
220
0.0
230
1.0
 70
    11
 71
     3
 72
    36
 73
    32
 74
     0
 42
0.0000000001
 43
0.0000000001
 12
1.0
 22
0.0
 32
0.0
 13
1.0
 23
0.0
 33
0.0
 40
0.0
 40
0.0
 40
0.0
 40
0.0
 40
0.1111111111111111
 40
0.1111111111111111
 40
0.1111111111111111
 40
0.1111111111111111
 40
0.2222222222222222
 40
0.2222222222222222
 40
0.2222222222222222
 40
0.2222222222222222
 40
0.3333333333333333
 40
0.3333333333333333
 40
0.3333333333333333
 40
0.3333333333333333
 40
0.4444444444444444
 40
0.4444444444444444
 40
0.4444444444444444
 40
0.4444444444444444
 40
0.5555555555555556
 40
0.5555555555555556
 40
0.5555555555555556
 40
0.5555555555555556
 40
0.6666666666666666
 40
0.6666666666666666
 40
0.6666666666666666
 40
0.6666666666666666
 40
0.7777777777777778
 40
0.7777777777777778
 40
0.7777777777777778
 40
0.7777777777777778
 40
1.0
 40
1.0
 40
1.0
 40
1.0
 10
-31.866
 20
126.3486
 30
0.0
 10
-32.6937
 20
127.1066
 30
0.0
 10
-33.8388
 20
127.5462
 30
0.0
 10
-34.7839
 20
127.143
 30
0.0
 10
-34.7839
 20
127.143
 30
0.0
 10
-36.0307
 20
126.6111
 30
0.0
 10
-35.3022
 20
125.0555
 30
0.0
 10
-34.0417
 20
125.2992
 30
0.0
 10
-34.0417
 20
125.2992
 30
0.0
 10
-34.1084
 20
124.0856
 30
0.0
 10
-35.3617
 20
124.1106
 30
0.0
 10
-35.9279
 20
124.0366
 30
0.0
 10
-35.9279
 20
124.0366
 30
0.0
 10
-35.9464
 20
123.4151
 30
0.0
 10
-35.8288
 20
122.2542
 30
0.0
 10
-37.0425
 20
122.1875
 30
0.0
 10
-37.0425
 20
122.1875
 30
0.0
 10
-36.7988
 20
123.4482
 30
0.0
 10
-38.3544
 20
124.1766
 30
0.0
 10
-38.8864
 20
122.9298
 30
0.0
 10
-38.8864
 20
122.9298
 30
0.0
 10
-39.2896
 20
121.9847
 30
0.0
 10
-38.8498
 20
120.8396
 30
0.0
 10
-38.092
 20
120.0119
 30
0.0
 10
-38.092
 20
120.0119
 30
0.0
 10
-35.0994
 20
117.4717
 30
0.0
 10
-33.4386
 20
119.3592
 30
0.0
 10
-30.4038
 20
118.5125
 30
0.0
 10
-30.4038
 20
118.5125
 30
0.0
 10
-31.3059
 20
121.6028
 30
0.0
 10
-29.3258
 20
123.3561
 30
0.0
 10
-31.866
 20
126.3486
 30
0.0
  0
SPLINE
  5
77
330
1F
100
AcDbEntity
  8
layer 1
 62
     7
100
AcDbSpline
210
0.0
220
0.0
230
1.0
 70
    11
 71
     3
 72
    20
 73
    16
 74
     0
 42
0.0000000001
 43
0.0000000001
 12
1.0
 22
0.0
 32
0.0
 13
1.0
 23
0.0
 33
0.0
 40
0.0
 40
0.0
 40
0.0
 40
0.0
 40
0.2
 40
0.2
 40
0.2
 40
0.2
 40
0.4
 40
0.4
 40
0.4
 40
0.4
 40
0.6
 40
0.6
 40
0.6
 40
0.6
 40
1.0
 40
1.0
 40
1.0
 40
1.0
 10
-36.5394
 20
130.2647
 30
0.0
 10
-36.5394
 20
130.2647
 30
0.0
 10
-42.008
 20
130.2647
 30
0.0
 10
-42.008
 20
130.2647
 30
0.0
 10
-42.008
 20
130.2647
 30
0.0
 10
-42.008
 20
130.2647
 30
0.0
 10
-42.008
 20
124.6854
 30
0.0
 10
-42.008
 20
124.6854
 30
0.0
 10
-42.008
 20
124.6854
 30
0.0
 10
-41.0147
 20
126.259
 30
0.0
 10
-39.4144
 20
126.5565
 30
0.0
 10
-37.8989
 20
126.0077
 30
0.0
 10
-37.8989
 20
126.0077
 30
0.0
 10
-38.4833
 20
127.32
 30
0.0
 10
-38.2125
 20
128.993
 30
0.0
 10
-36.5394
 20
130.2647
 30
0.0
  0
SPLINE
  5
78
330
1F
100
AcDbEntity
  8
layer 1
 62
     7
100
AcDbSpline
210
0.0
220
0.0
230
1.0
 70
    11
 71
     3
 72
    32
 73
    28
 74
     0
 42
0.0000000001
 43
0.0000000001
 12
1.0
 22
0.0
 32
0.0
 13
1.0
 23
0.0
 33
0.0
 40
0.0
 40
0.0
 40
0.0
 40
0.0
 40
0.125
 40
0.125
 40
0.125
 40
0.125
 40
0.25
 40
0.25
 40
0.25
 40
0.25
 40
0.375
 40
0.375
 40
0.375
 40
0.375
 40
0.5
 40
0.5
 40
0.5
 40
0.5
 40
0.625
 40
0.625
 40
0.625
 40
0.625
 40
0.75
 40
0.75
 40
0.75
 40
0.75
 40
1.0
 40
1.0
 40
1.0
 40
1.0
 10
19.515
 20
94.195
 30
0.0
 10
19.7076
 20
94.8748
 30
0.0
 10
19.4698
 20
96.5756
 30
0.0
 10
18.2049
 20
97.3723
 30
0.0
 10
18.2049
 20
97.3723
 30
0.0
 10
21.2232
 20
96.8765
 30
0.0
 10
22.4117
 20
101.334
 30
0.0
 10
19.8038
 20
101.9408
 30
0.0
 10
19.8038
 20
101.9408
 30
0.0
 10
19.2053
 20
98.9095
 30
0.0
 10
15.9652
 20
99.6755
 30
0.0
 10
16.0246
 20
102.3173
 30
0.0
 10
16.0246
 20
102.3173
 30
0.0
 10
16.1832
 20
103.679
 30
0.0
 10
16.7172
 20
104.7922
 30
0.0
 10
18.1058
 20
105.4146
 30
0.0
 10
18.1058
 20
105.4146
 30
0.0
 10
21.6233
 20
106.9911
 30
0.0
 10
25.36
 20
103.7006
 30
0.0
 10
24.4044
 20
99.7173
 30
0.0
 10
24.4044
 20
99.7173
 30
0.0
 10
23.4986
 20
96.5981
 30
0.0
 10
20.6566
 20
94.649
 30
0.0
 10
19.5151
 20
94.1949
 30
0.0
 10
19.5151
 20
94.1949
 30
0.0
 10
19.5151
 20
94.1949
 30
0.0
 10
19.515
 20
94.195
 30
0.0
 10
19.515
 20
94.195
 30
0.0
  0
SPLINE
  5
79
330
1F
100
AcDbEntity
  8
layer 1
 62
     7
100
AcDbSpline
210
0.0
220
0.0
230
1.0
 70
    11
 71
     3
 72
    52
 73
    48
 74
     0
 42
0.0000000001
 43
0.0000000001
 12
1.0
 22
0.0
 32
0.0
 13
1.0
 23
0.0
 33
0.0
 40
0.0
 40
0.0
 40
0.0
 40
0.0
 40
0.0769230769230769
 40
0.0769230769230769
 40
0.0769230769230769
 40
0.0769230769230769
 40
0.1538461538461539
 40
0.1538461538461539
 40
0.1538461538461539
 40
0.1538461538461539
 40
0.2307692307692308
 40
0.2307692307692308
 40
0.2307692307692308
 40
0.2307692307692308
 40
0.3076923076923077
 40
0.3076923076923077
 40
0.3076923076923077
 40
0.3076923076923077
 40
0.3846153846153846
 40
0.3846153846153846
 40
0.3846153846153846
 40
0.3846153846153846
 40
0.4615384615384616
 40
0.4615384615384616
 40
0.4615384615384616
 40
0.4615384615384616
 40
0.5384615384615384
 40
0.5384615384615384
 40
0.5384615384615384
 40
0.5384615384615384
 40
0.6153846153846154
 40
0.6153846153846154
 40
0.6153846153846154
 40
0.6153846153846154
 40
0.6923076923076923
 40
0.6923076923076923
 40
0.6923076923076923
 40
0.6923076923076923
 40
0.7692307692307693
 40
0.7692307692307693
 40
0.7692307692307693
 40
0.7692307692307693
 40
0.8461538461538461
 40
0.8461538461538461
 40
0.8461538461538461
 40
0.8461538461538461
 40
1.0
 40
1.0
 40
1.0
 40
1.0
 10
32.4536
 20
101.4868
 30
0.0
 10
32.4854
 20
102.5647
 30
0.0
 10
32.907
 20
103.76
 30
0.0
 10
32.2124
 20
105.0584
 30
0.0
 10
32.2124
 20
105.0584
 30
0.0
 10
30.8401
 20
104.7065
 30
0.0
 10
29.3603
 20
103.5864
 30
0.0
 10
28.5991
 20
102.5228
 30
0.0
 10
28.5991
 20
102.5228
 30
0.0
 10
28.0915
 20
105.6528
 30
0.0
 10
25.6391
 20
106.6823
 30
0.0
 10
26.0234
 20
110.9557
 30
0.0
 10
26.0234
 20
110.9557
 30
0.0
 10
26.5203
 20
114.7899
 30
0.0
 10
30.4101
 20
116.2394
 30
0.0
 10
31.6407
 20
113.7064
 30
0.0
 10
31.6407
 20
113.7064
 30
0.0
 10
32.0126
 20
111.4908
 30
0.0
 10
30.0689
 20
111.4315
 30
0.0
 10
29.6414
 20
111.6954
 30
0.0
 10
29.6414
 20
111.6954
 30
0.0
 10
29.8179
 20
110.0767
 30
0.0
 10
32.5875
 20
108.7132
 30
0.0
 10
34.4497
 20
111.1064
 30
0.0
 10
34.4497
 20
111.1064
 30
0.0
 10
35.6516
 20
113.1757
 30
0.0
 10
35.3017
 20
114.5184
 30
0.0
 10
34.6135
 20
115.7468
 30
0.0
 10
34.6135
 20
115.7468
 30
0.0
 10
35.5272
 20
115.5225
 30
0.0
 10
36.7253
 20
115.377
 30
0.0
 10
37.0999
 20
115.6767
 30
0.0
 10
37.0999
 20
115.6767
 30
0.0
 10
37.3566
 20
116.0804
 30
0.0
 10
36.6904
 20
117.1696
 30
0.0
 10
36.2877
 20
117.959
 30
0.0
 10
36.2877
 20
117.959
 30
0.0
 10
37.3278
 20
118.2928
 30
0.0
 10
38.3622
 20
119.3433
 30
0.0
 10
38.8679
 20
121.2866
 30
0.0
 10
38.8679
 20
121.2866
 30
0.0
 10
38.8679
 20
121.2866
 30
0.0
 10
38.8679
 20
98.7558
 30
0.0
 10
38.8679
 20
98.7558
 30
0.0
 10
38.8679
 20
98.7558
 30
0.0
 10
37.197
 20
101.2195
 30
0.0
 10
35.9094
 20
101.6968
 30
0.0
 10
32.4536
 20
101.4868
 30
0.0
  0
SPLINE
  5
7A
330
1F
100
AcDbEntity
  8
layer 1
 62
     7
100
AcDbSpline
210
0.0
220
0.0
230
1.0
 70
    11
 71
     3
 72
    44
 73
    40
 74
     0
 42
0.0000000001
 43
0.0000000001
 12
1.0
 22
0.0
 32
0.0
 13
1.0
 23
0.0
 33
0.0
 40
0.0
 40
0.0
 40
0.0
 40
0.0
 40
0.0909090909090909
 40
0.0909090909090909
 40
0.0909090909090909
 40
0.0909090909090909
 40
0.1818181818181818
 40
0.1818181818181818
 40
0.1818181818181818
 40
0.1818181818181818
 40
0.2727272727272727
 40
0.2727272727272727
 40
0.2727272727272727
 40
0.2727272727272727
 40
0.3636363636363636
 40
0.3636363636363636
 40
0.3636363636363636
 40
0.3636363636363636
 40
0.4545454545454545
 40
0.4545454545454545
 40
0.4545454545454545
 40
0.4545454545454545
 40
0.5454545454545454
 40
0.5454545454545454
 40
0.5454545454545454
 40
0.5454545454545454
 40
0.6363636363636364
 40
0.6363636363636364
 40
0.6363636363636364
 40
0.6363636363636364
 40
0.7272727272727273
 40
0.7272727272727273
 40
0.7272727272727273
 40
0.7272727272727273
 40
0.8181818181818182
 40
0.8181818181818182
 40
0.8181818181818182
 40
0.8181818181818182
 40
1.0
 40
1.0
 40
1.0
 40
1.0
 10
3.717
 20
118.8207
 30
0.0
 10
5.5883
 20
121.004
 30
0.0
 10
6.2368
 20
122.1048
 30
0.0
 10
6.5036
 20
123.5512
 30
0.0
 10
6.5036
 20
123.5512
 30
0.0
 10
6.9214
 20
125.4351
 30
0.0
 10
5.5854
 20
127.6871
 30
0.0
 10
3.7958
 20
127.7472
 30
0.0
 10
3.7958
 20
127.7472
 30
0.0
 10
1.3621
 20
127.8073
 30
0.0
 10
0.8457
 20
125.4846
 30
0.0
 10
2.2924
 20
124.3899
 30
0.0
 10
2.2924
 20
124.3899
 30
0.0
 10
1.2084
 20
123.2667
 30
0.0
 10
-1.5407
 20
123.851
 30
0.0
 10
-1.5701
 20
125.8876
 30
0.0
 10
-1.5701
 20
125.8876
 30
0.0
 10
-1.5994
 20
123.851
 30
0.0
 10
-4.3486
 20
123.2667
 30
0.0
 10
-5.4326
 20
124.3899
 30
0.0
 10
-5.4326
 20
124.3899
 30
0.0
 10
-3.9858
 20
125.4846
 30
0.0
 10
-4.5022
 20
127.8073
 30
0.0
 10
-6.936
 20
127.7472
 30
0.0
 10
-6.936
 20
127.7472
 30
0.0
 10
-8.7255
 20
127.6871
 30
0.0
 10
-10.0616
 20
125.4351
 30
0.0
 10
-9.6438
 20
123.5512
 30
0.0
 10
-9.6438
 20
123.5512
 30
0.0
 10
-9.3769
 20
122.1048
 30
0.0
 10
-8.7285
 20
121.004
 30
0.0
 10
-6.8572
 20
118.8207
 30
0.0
 10
-6.8572
 20
118.8207
 30
0.0
 10
-4.464
 20
116.5187
 30
0.0
 10
-2.5177
 20
113.3545
 30
0.0
 10
-1.5701
 20
110.0311
 30
0.0
 10
-1.5701
 20
110.0311
 30
0.0
 10
-0.6224
 20
113.3546
 30
0.0
 10
1.3239
 20
116.5188
 30
0.0
 10
3.717
 20
118.8207
 30
0.0
  0
SPLINE
  5
7B
330
1F
100
AcDbEntity
  8
layer 1
 62
     7
100
AcDbSpline
210
0.0
220
0.0
230
1.0
 70
    11
 71
     3
 72
    56
 73
    52
 74
     0
 42
0.0000000001
 43
0.0000000001
 12
1.0
 22
0.0
 32
0.0
 13
1.0
 23
0.0
 33
0.0
 40
0.0
 40
0.0
 40
0.0
 40
0.0
 40
0.0714285714285714
 40
0.0714285714285714
 40
0.0714285714285714
 40
0.0714285714285714
 40
0.1428571428571428
 40
0.1428571428571428
 40
0.1428571428571428
 40
0.1428571428571428
 40
0.2142857142857143
 40
0.2142857142857143
 40
0.2142857142857143
 40
0.2142857142857143
 40
0.2857142857142857
 40
0.2857142857142857
 40
0.2857142857142857
 40
0.2857142857142857
 40
0.3571428571428572
 40
0.3571428571428572
 40
0.3571428571428572
 40
0.3571428571428572
 40
0.4285714285714285
 40
0.4285714285714285
 40
0.4285714285714285
 40
0.4285714285714285
 40
0.5
 40
0.5
 40
0.5
 40
0.5
 40
0.5714285714285714
 40
0.5714285714285714
 40
0.5714285714285714
 40
0.5714285714285714
 40
0.6428571428571429
 40
0.6428571428571429
 40
0.6428571428571429
 40
0.6428571428571429
 40
0.7142857142857143
 40
0.7142857142857143
 40
0.7142857142857143
 40
0.7142857142857143
 40
0.7857142857142857
 40
0.7857142857142857
 40
0.7857142857142857
 40
0.7857142857142857
 40
0.8571428571428571
 40
0.8571428571428571
 40
0.8571428571428571
 40
0.8571428571428571
 40
1.0
 40
1.0
 40
1.0
 40
1.0
 10
5.5968
 20
100.1796
 30
0.0
 10
5.0948
 20
100.6816
 30
0.0
 10
3.4926
 20
100.8585
 30
0.0
 10
1.8604
 20
99.9946
 30
0.0
 10
1.8604
 20
99.9946
 30
0.0
 10
2.2303
 20
102.9392
 30
0.0
 10
-0.314
 20
103.5913
 30
0.0
 10
0.495
 20
106.4011
 30
0.0
 10
0.495
 20
106.4011
 30
0.0
 10
0.9754
 20
107.9301
 30
0.0
 10
4.2879
 20
109.1171
 30
0.0
 10
5.4707
 20
106.2694
 30
0.0
 10
5.4707
 20
106.2694
 30
0.0
 10
5.6998
 20
106.7498
 30
0.0
 10
5.8291
 20
107.1335
 30
0.0
 10
6.1829
 20
107.4979
 30
0.0
 10
6.1829
 20
107.4979
 30
0.0
 10
7.6662
 20
104.9974
 30
0.0
 10
10.4229
 20
103.3841
 30
0.0
 10
13.7481
 20
104.9971
 30
0.0
 10
13.7481
 20
104.9971
 30
0.0
 10
12.0797
 20
101.6164
 30
0.0
 10
13.6006
 20
98.9523
 30
0.0
 10
16.101
 20
97.469
 30
0.0
 10
16.101
 20
97.469
 30
0.0
 10
15.7366
 20
97.1152
 30
0.0
 10
15.3529
 20
96.9859
 30
0.0
 10
14.8725
 20
96.7568
 30
0.0
 10
14.8725
 20
96.7568
 30
0.0
 10
17.7203
 20
95.574
 30
0.0
 10
16.5332
 20
92.2615
 30
0.0
 10
15.0042
 20
91.7811
 30
0.0
 10
15.0042
 20
91.7811
 30
0.0
 10
12.1944
 20
90.9721
 30
0.0
 10
11.5423
 20
93.5164
 30
0.0
 10
8.5977
 20
93.1465
 30
0.0
 10
8.5977
 20
93.1465
 30
0.0
 10
9.4616
 20
94.7787
 30
0.0
 10
9.2847
 20
96.3809
 30
0.0
 10
8.7827
 20
96.8829
 30
0.0
 10
8.7827
 20
96.8829
 30
0.0
 10
8.1209
 20
97.2936
 30
0.0
 10
6.7474
 20
97.0213
 30
0.0
 10
5.4736
 20
96.7227
 30
0.0
 10
5.4736
 20
96.7227
 30
0.0
 10
5.8276
 20
98.0518
 30
0.0
 10
6.2586
 20
99.1929
 30
0.0
 10
5.5968
 20
100.1797
 30
0.0
 10
5.5968
 20
100.1797
 30
0.0
 10
5.5968
 20
100.1797
 30
0.0
 10
5.5968
 20
100.1796
 30
0.0
 10
5.5968
 20
100.1796
 30
0.0
  0
SPLINE
  5
7C
330
1F
100
AcDbEntity
  8
layer 1
 62
     7
100
AcDbSpline
210
0.0
220
0.0
230
1.0
 70
    11
 71
     3
 72
    32
 73
    28
 74
     0
 42
0.0000000001
 43
0.0000000001
 12
1.0
 22
0.0
 32
0.0
 13
1.0
 23
0.0
 33
0.0
 40
0.0
 40
0.0
 40
0.0
 40
0.0
 40
0.125
 40
0.125
 40
0.125
 40
0.125
 40
0.25
 40
0.25
 40
0.25
 40
0.25
 40
0.375
 40
0.375
 40
0.375
 40
0.375
 40
0.5
 40
0.5
 40
0.5
 40
0.5
 40
0.625
 40
0.625
 40
0.625
 40
0.625
 40
0.75
 40
0.75
 40
0.75
 40
0.75
 40
1.0
 40
1.0
 40
1.0
 40
1.0
 10
2.9089
 20
110.9118
 30
0.0
 10
3.5888
 20
111.1043
 30
0.0
 10
5.2896
 20
110.8666
 30
0.0
 10
6.0863
 20
109.6017
 30
0.0
 10
6.0863
 20
109.6017
 30
0.0
 10
5.5905
 20
112.6199
 30
0.0
 10
10.048
 20
113.8084
 30
0.0
 10
10.6548
 20
111.2006
 30
0.0
 10
10.6548
 20
111.2006
 30
0.0
 10
7.6234
 20
110.6021
 30
0.0
 10
8.3894
 20
107.362
 30
0.0
 10
11.0313
 20
107.4214
 30
0.0
 10
11.0313
 20
107.4214
 30
0.0
 10
12.393
 20
107.58
 30
0.0
 10
13.5062
 20
108.114
 30
0.0
 10
14.1285
 20
109.5026
 30
0.0
 10
14.1285
 20
109.5026
 30
0.0
 10
15.705
 20
113.0201
 30
0.0
 10
12.4146
 20
116.7568
 30
0.0
 10
8.4312
 20
115.8012
 30
0.0
 10
8.4312
 20
115.8012
 30
0.0
 10
5.3121
 20
114.8954
 30
0.0
 10
3.363
 20
112.0533
 30
0.0
 10
2.9089
 20
110.9118
 30
0.0
 10
2.9089
 20
110.9118
 30
0.0
 10
2.9089
 20
110.9118
 30
0.0
 10
2.9089
 20
110.9118
 30
0.0
 10
2.9089
 20
110.9118
 30
0.0
  0
SPLINE
  5
7D
330
1F
100
AcDbEntity
  8
layer 1
 62
     7
100
AcDbSpline
210
0.0
220
0.0
230
1.0
 70
    11
 71
     3
 72
    52
 73
    48
 74
     0
 42
0.0000000001
 43
0.0000000001
 12
1.0
 22
0.0
 32
0.0
 13
1.0
 23
0.0
 33
0.0
 40
0.0
 40
0.0
 40
0.0
 40
0.0
 40
0.0769230769230769
 40
0.0769230769230769
 40
0.0769230769230769
 40
0.0769230769230769
 40
0.1538461538461539
 40
0.1538461538461539
 40
0.1538461538461539
 40
0.1538461538461539
 40
0.2307692307692308
 40
0.2307692307692308
 40
0.2307692307692308
 40
0.2307692307692308
 40
0.3076923076923077
 40
0.3076923076923077
 40
0.3076923076923077
 40
0.3076923076923077
 40
0.3846153846153846
 40
0.3846153846153846
 40
0.3846153846153846
 40
0.3846153846153846
 40
0.4615384615384616
 40
0.4615384615384616
 40
0.4615384615384616
 40
0.4615384615384616
 40
0.5384615384615384
 40
0.5384615384615384
 40
0.5384615384615384
 40
0.5384615384615384
 40
0.6153846153846154
 40
0.6153846153846154
 40
0.6153846153846154
 40
0.6153846153846154
 40
0.6923076923076923
 40
0.6923076923076923
 40
0.6923076923076923
 40
0.6923076923076923
 40
0.7692307692307693
 40
0.7692307692307693
 40
0.7692307692307693
 40
0.7692307692307693
 40
0.8461538461538461
 40
0.8461538461538461
 40
0.8461538461538461
 40
0.8461538461538461
 40
1.0
 40
1.0
 40
1.0
 40
1.0
 10
10.2008
 20
123.8504
 30
0.0
 10
11.2786
 20
123.8822
 30
0.0
 10
12.474
 20
124.3039
 30
0.0
 10
13.7724
 20
123.6092
 30
0.0
 10
13.7724
 20
123.6092
 30
0.0
 10
13.4205
 20
122.237
 30
0.0
 10
12.3003
 20
120.7571
 30
0.0
 10
11.2368
 20
119.9959
 30
0.0
 10
11.2368
 20
119.9959
 30
0.0
 10
14.3668
 20
119.4884
 30
0.0
 10
15.3962
 20
117.0359
 30
0.0
 10
19.6696
 20
117.4202
 30
0.0
 10
19.6696
 20
117.4202
 30
0.0
 10
23.5038
 20
117.9171
 30
0.0
 10
24.9534
 20
121.8069
 30
0.0
 10
22.4203
 20
123.0376
 30
0.0
 10
22.4203
 20
123.0376
 30
0.0
 10
20.2048
 20
123.4094
 30
0.0
 10
20.1455
 20
121.4657
 30
0.0
 10
20.4094
 20
121.0383
 30
0.0
 10
20.4094
 20
121.0383
 30
0.0
 10
18.7906
 20
121.2147
 30
0.0
 10
17.4272
 20
123.9843
 30
0.0
 10
19.8204
 20
125.8465
 30
0.0
 10
19.8204
 20
125.8465
 30
0.0
 10
21.8896
 20
127.0484
 30
0.0
 10
23.2323
 20
126.6985
 30
0.0
 10
24.4608
 20
126.0104
 30
0.0
 10
24.4608
 20
126.0104
 30
0.0
 10
24.2365
 20
126.924
 30
0.0
 10
24.0909
 20
128.1221
 30
0.0
 10
24.3907
 20
128.4967
 30
0.0
 10
24.3907
 20
128.4967
 30
0.0
 10
24.7944
 20
128.7534
 30
0.0
 10
25.8836
 20
128.0872
 30
0.0
 10
26.673
 20
127.6845
 30
0.0
 10
26.673
 20
127.6845
 30
0.0
 10
27.0864
 20
128.8241
 30
0.0
 10
28.1766
 20
130.0375
 30
0.0
 10
30.0006
 20
130.2647
 30
0.0
 10
30.0006
 20
130.2647
 30
0.0
 10
30.0006
 20
130.2647
 30
0.0
 10
7.4698
 20
130.2647
 30
0.0
 10
7.4698
 20
130.2647
 30
0.0
 10
7.4698
 20
130.2647
 30
0.0
 10
9.9335
 20
128.5938
 30
0.0
 10
10.4108
 20
127.3062
 30
0.0
 10
10.2008
 20
123.8504
 30
0.0
  0
SPLINE
  5
7E
330
1F
100
AcDbEntity
  8
layer 1
 62
     7
100
AcDbSpline
210
0.0
220
0.0
230
1.0
 70
    11
 71
     3
 72
    40
 73
    36
 74
     0
 42
0.0000000001
 43
0.0000000001
 12
1.0
 22
0.0
 32
0.0
 13
1.0
 23
0.0
 33
0.0
 40
0.0
 40
0.0
 40
0.0
 40
0.0
 40
0.1
 40
0.1
 40
0.1
 40
0.1
 40
0.2
 40
0.2
 40
0.2
 40
0.2
 40
0.3
 40
0.3
 40
0.3
 40
0.3
 40
0.4
 40
0.4
 40
0.4
 40
0.4
 40
0.5
 40
0.5
 40
0.5
 40
0.5
 40
0.6
 40
0.6
 40
0.6
 40
0.6
 40
0.7
 40
0.7
 40
0.7
 40
0.7
 40
0.8
 40
0.8
 40
0.8
 40
0.8
 40
1.0
 40
1.0
 40
1.0
 40
1.0
 10
20.0842
 20
114.668
 30
0.0
 10
20.2665
 20
114.0295
 30
0.0
 10
20.3322
 20
113.0352
 30
0.0
 10
20.165
 20
112.537
 30
0.0
 10
20.165
 20
112.537
 30
0.0
 10
19.7643
 20
112.4057
 30
0.0
 10
18.948
 20
112.4307
 30
0.0
 10
18.2513
 20
112.6445
 30
0.0
 10
18.2513
 20
112.6445
 30
0.0
 10
18.5552
 20
111.5577
 30
0.0
 10
18.4591
 20
110.4028
 30
0.0
 10
17.8319
 20
109.0807
 30
0.0
 10
17.8319
 20
109.0807
 30
0.0
 10
19.0986
 20
109.6525
 30
0.0
 10
20.161
 20
109.8411
 30
0.0
 10
21.2478
 20
109.5372
 30
0.0
 10
21.2478
 20
109.5372
 30
0.0
 10
21.0339
 20
110.2339
 30
0.0
 10
21.0089
 20
111.0502
 30
0.0
 10
21.1403
 20
111.4509
 30
0.0
 10
21.1403
 20
111.4509
 30
0.0
 10
21.6385
 20
111.6181
 30
0.0
 10
22.6327
 20
111.5524
 30
0.0
 10
23.2712
 20
111.3701
 30
0.0
 10
23.2712
 20
111.3701
 30
0.0
 10
23.4101
 20
112.5585
 30
0.0
 10
23.4494
 20
113.9627
 30
0.0
 10
24.2785
 20
115.5273
 30
0.0
 10
24.2785
 20
115.5273
 30
0.0
 10
22.7693
 20
114.7535
 30
0.0
 10
21.2726
 20
114.8068
 30
0.0
 10
20.0843
 20
114.6679
 30
0.0
 10
20.0843
 20
114.6679
 30
0.0
 10
20.0843
 20
114.6679
 30
0.0
 10
20.0842
 20
114.668
 30
0.0
 10
20.0842
 20
114.668
 30
0.0
  0
SPLINE
  5
7F
330
1F
100
AcDbEntity
  8
layer 1
 62
     7
100
AcDbSpline
210
0.0
220
0.0
230
1.0
 70
    11
 71
     3
 72
    40
 73
    36
 74
     0
 42
0.0000000001
 43
0.0000000001
 12
1.0
 22
0.0
 32
0.0
 13
1.0
 23
0.0
 33
0.0
 40
0.0
 40
0.0
 40
0.0
 40
0.0
 40
0.1
 40
0.1
 40
0.1
 40
0.1
 40
0.2
 40
0.2
 40
0.2
 40
0.2
 40
0.3
 40
0.3
 40
0.3
 40
0.3
 40
0.4
 40
0.4
 40
0.4
 40
0.4
 40
0.5
 40
0.5
 40
0.5
 40
0.5
 40
0.6
 40
0.6
 40
0.6
 40
0.6
 40
0.7
 40
0.7
 40
0.7
 40
0.7
 40
0.8
 40
0.8
 40
0.8
 40
0.8
 40
1.0
 40
1.0
 40
1.0
 40
1.0
 10
28.7259
 20
126.3486
 30
0.0
 10
29.5536
 20
127.1066
 30
0.0
 10
30.6987
 20
127.5462
 30
0.0
 10
31.6438
 20
127.143
 30
0.0
 10
31.6438
 20
127.143
 30
0.0
 10
32.8906
 20
126.6111
 30
0.0
 10
32.1621
 20
125.0555
 30
0.0
 10
30.9016
 20
125.2992
 30
0.0
 10
30.9016
 20
125.2992
 30
0.0
 10
30.9683
 20
124.0856
 30
0.0
 10
32.2216
 20
124.1106
 30
0.0
 10
32.7878
 20
124.0366
 30
0.0
 10
32.7878
 20
124.0366
 30
0.0
 10
32.8063
 20
123.4151
 30
0.0
 10
32.6887
 20
122.2542
 30
0.0
 10
33.9025
 20
122.1875
 30
0.0
 10
33.9025
 20
122.1875
 30
0.0
 10
33.6588
 20
123.4482
 30
0.0
 10
35.2143
 20
124.1766
 30
0.0
 10
35.7463
 20
122.9298
 30
0.0
 10
35.7463
 20
122.9298
 30
0.0
 10
36.1495
 20
121.9847
 30
0.0
 10
35.7097
 20
120.8396
 30
0.0
 10
34.9519
 20
120.0119
 30
0.0
 10
34.9519
 20
120.0119
 30
0.0
 10
31.9593
 20
117.4717
 30
0.0
 10
30.2985
 20
119.3592
 30
0.0
 10
27.2637
 20
118.5125
 30
0.0
 10
27.2637
 20
118.5125
 30
0.0
 10
28.1658
 20
121.6028
 30
0.0
 10
26.1858
 20
123.356
 30
0.0
 10
28.726
 20
126.3486
 30
0.0
 10
28.726
 20
126.3486
 30
0.0
 10
28.726
 20
126.3486
 30
0.0
 10
28.7259
 20
126.3486
 30
0.0
 10
28.7259
 20
126.3486
 30
0.0
  0
SPLINE
  5
80
330
1F
100
AcDbEntity
  8
layer 1
 62
     7
100
AcDbSpline
210
0.0
220
0.0
230
1.0
 70
    11
 71
     3
 72
    20
 73
    16
 74
     0
 42
0.0000000001
 43
0.0000000001
 12
1.0
 22
0.0
 32
0.0
 13
1.0
 23
0.0
 33
0.0
 40
0.0
 40
0.0
 40
0.0
 40
0.0
 40
0.2
 40
0.2
 40
0.2
 40
0.2
 40
0.4
 40
0.4
 40
0.4
 40
0.4
 40
0.6
 40
0.6
 40
0.6
 40
0.6
 40
1.0
 40
1.0
 40
1.0
 40
1.0
 10
33.3993
 20
130.2647
 30
0.0
 10
33.3993
 20
130.2647
 30
0.0
 10
38.8679
 20
130.2647
 30
0.0
 10
38.8679
 20
130.2647
 30
0.0
 10
38.8679
 20
130.2647
 30
0.0
 10
38.8679
 20
130.2647
 30
0.0
 10
38.8679
 20
124.6854
 30
0.0
 10
38.8679
 20
124.6854
 30
0.0
 10
38.8679
 20
124.6854
 30
0.0
 10
37.8746
 20
126.259
 30
0.0
 10
36.2743
 20
126.5565
 30
0.0
 10
34.7588
 20
126.0077
 30
0.0
 10
34.7588
 20
126.0077
 30
0.0
 10
35.3431
 20
127.32
 30
0.0
 10
35.0724
 20
128.993
 30
0.0
 10
33.3993
 20
130.2647
 30
0.0
  0
SPLINE
  5
81
330
1F
100
AcDbEntity
  8
layer 1
 62
     7
100
AcDbSpline
210
0.0
220
0.0
230
1.0
 70
    11
 71
     3
 72
    32
 73
    28
 74
     0
 42
0.0000000001
 43
0.0000000001
 12
1.0
 22
0.0
 32
0.0
 13
1.0
 23
0.0
 33
0.0
 40
0.0
 40
0.0
 40
0.0
 40
0.0
 40
0.125
 40
0.125
 40
0.125
 40
0.125
 40
0.25
 40
0.25
 40
0.25
 40
0.25
 40
0.375
 40
0.375
 40
0.375
 40
0.375
 40
0.5
 40
0.5
 40
0.5
 40
0.5
 40
0.625
 40
0.625
 40
0.625
 40
0.625
 40
0.75
 40
0.75
 40
0.75
 40
0.75
 40
1.0
 40
1.0
 40
1.0
 40
1.0
 10
-22.6551
 20
85.2956
 30
0.0
 10
-22.8477
 20
84.6158
 30
0.0
 10
-22.6099
 20
82.915
 30
0.0
 10
-21.345
 20
82.1183
 30
0.0
 10
-21.345
 20
82.1183
 30
0.0
 10
-24.3633
 20
82.6141
 30
0.0
 10
-25.5518
 20
78.1566
 30
0.0
 10
-22.9439
 20
77.5498
 30
0.0
 10
-22.9439
 20
77.5498
 30
0.0
 10
-22.3454
 20
80.5811
 30
0.0
 10
-19.1053
 20
79.8151
 30
0.0
 10
-19.1647
 20
77.1733
 30
0.0
 10
-19.1647
 20
77.1733
 30
0.0
 10
-19.3233
 20
75.8116
 30
0.0
 10
-19.8573
 20
74.6984
 30
0.0
 10
-21.2459
 20
74.076
 30
0.0
 10
-21.2459
 20
74.076
 30
0.0
 10
-24.7634
 20
72.4995
 30
0.0
 10
-28.5001
 20
75.79
 30
0.0
 10
-27.5445
 20
79.7733
 30
0.0
 10
-27.5445
 20
79.7733
 30
0.0
 10
-26.6387
 20
82.8925
 30
0.0
 10
-23.7967
 20
84.8416
 30
0.0
 10
-22.6552
 20
85.2957
 30
0.0
 10
-22.6552
 20
85.2957
 30
0.0
 10
-22.6552
 20
85.2957
 30
0.0
 10
-22.6551
 20
85.2956
 30
0.0
 10
-22.6551
 20
85.2956
 30
0.0
  0
SPLINE
  5
82
330
1F
100
AcDbEntity
  8
layer 1
 62
     7
100
AcDbSpline
210
0.0
220
0.0
230
1.0
 70
    11
 71
     3
 72
    52
 73
    48
 74
     0
 42
0.0000000001
 43
0.0000000001
 12
1.0
 22
0.0
 32
0.0
 13
1.0
 23
0.0
 33
0.0
 40
0.0
 40
0.0
 40
0.0
 40
0.0
 40
0.0769230769230769
 40
0.0769230769230769
 40
0.0769230769230769
 40
0.0769230769230769
 40
0.1538461538461539
 40
0.1538461538461539
 40
0.1538461538461539
 40
0.1538461538461539
 40
0.2307692307692308
 40
0.2307692307692308
 40
0.2307692307692308
 40
0.2307692307692308
 40
0.3076923076923077
 40
0.3076923076923077
 40
0.3076923076923077
 40
0.3076923076923077
 40
0.3846153846153846
 40
0.3846153846153846
 40
0.3846153846153846
 40
0.3846153846153846
 40
0.4615384615384616
 40
0.4615384615384616
 40
0.4615384615384616
 40
0.4615384615384616
 40
0.5384615384615384
 40
0.5384615384615384
 40
0.5384615384615384
 40
0.5384615384615384
 40
0.6153846153846154
 40
0.6153846153846154
 40
0.6153846153846154
 40
0.6153846153846154
 40
0.6923076923076923
 40
0.6923076923076923
 40
0.6923076923076923
 40
0.6923076923076923
 40
0.7692307692307693
 40
0.7692307692307693
 40
0.7692307692307693
 40
0.7692307692307693
 40
0.8461538461538461
 40
0.8461538461538461
 40
0.8461538461538461
 40
0.8461538461538461
 40
1.0
 40
1.0
 40
1.0
 40
1.0
 10
-35.5937
 20
78.0038
 30
0.0
 10
-35.6255
 20
76.9259
 30
0.0
 10
-36.0471
 20
75.7306
 30
0.0
 10
-35.3525
 20
74.4322
 30
0.0
 10
-35.3525
 20
74.4322
 30
0.0
 10
-33.9802
 20
74.7841
 30
0.0
 10
-32.5004
 20
75.9042
 30
0.0
 10
-31.7392
 20
76.9678
 30
0.0
 10
-31.7392
 20
76.9678
 30
0.0
 10
-31.2316
 20
73.8378
 30
0.0
 10
-28.7792
 20
72.8083
 30
0.0
 10
-29.1635
 20
68.5349
 30
0.0
 10
-29.1635
 20
68.5349
 30
0.0
 10
-29.6604
 20
64.7007
 30
0.0
 10
-33.5502
 20
63.2512
 30
0.0
 10
-34.7808
 20
65.7842
 30
0.0
 10
-34.7808
 20
65.7842
 30
0.0
 10
-35.1527
 20
67.9998
 30
0.0
 10
-33.209
 20
68.0591
 30
0.0
 10
-32.7815
 20
67.7952
 30
0.0
 10
-32.7815
 20
67.7952
 30
0.0
 10
-32.958
 20
69.4139
 30
0.0
 10
-35.7276
 20
70.7774
 30
0.0
 10
-37.5898
 20
68.3842
 30
0.0
 10
-37.5898
 20
68.3842
 30
0.0
 10
-38.7917
 20
66.3149
 30
0.0
 10
-38.4418
 20
64.9722
 30
0.0
 10
-37.7536
 20
63.7438
 30
0.0
 10
-37.7536
 20
63.7438
 30
0.0
 10
-38.6673
 20
63.9681
 30
0.0
 10
-39.8654
 20
64.1136
 30
0.0
 10
-40.24
 20
63.8139
 30
0.0
 10
-40.24
 20
63.8139
 30
0.0
 10
-40.4967
 20
63.4102
 30
0.0
 10
-39.8305
 20
62.321
 30
0.0
 10
-39.4278
 20
61.5316
 30
0.0
 10
-39.4278
 20
61.5316
 30
0.0
 10
-40.4679
 20
61.1977
 30
0.0
 10
-41.5023
 20
60.1473
 30
0.0
 10
-42.008
 20
58.204
 30
0.0
 10
-42.008
 20
58.204
 30
0.0
 10
-42.008
 20
58.204
 30
0.0
 10
-42.008
 20
80.7348
 30
0.0
 10
-42.008
 20
80.7348
 30
0.0
 10
-42.008
 20
80.7348
 30
0.0
 10
-40.3371
 20
78.2711
 30
0.0
 10
-39.0495
 20
77.7937
 30
0.0
 10
-35.5937
 20
78.0038
 30
0.0
  0
SPLINE
  5
83
330
1F
100
AcDbEntity
  8
layer 1
 62
     7
100
AcDbSpline
210
0.0
220
0.0
230
1.0
 70
    11
 71
     3
 72
    44
 73
    40
 74
     0
 42
0.0000000001
 43
0.0000000001
 12
1.0
 22
0.0
 32
0.0
 13
1.0
 23
0.0
 33
0.0
 40
0.0
 40
0.0
 40
0.0
 40
0.0
 40
0.0909090909090909
 40
0.0909090909090909
 40
0.0909090909090909
 40
0.0909090909090909
 40
0.1818181818181818
 40
0.1818181818181818
 40
0.1818181818181818
 40
0.1818181818181818
 40
0.2727272727272727
 40
0.2727272727272727
 40
0.2727272727272727
 40
0.2727272727272727
 40
0.3636363636363636
 40
0.3636363636363636
 40
0.3636363636363636
 40
0.3636363636363636
 40
0.4545454545454545
 40
0.4545454545454545
 40
0.4545454545454545
 40
0.4545454545454545
 40
0.5454545454545454
 40
0.5454545454545454
 40
0.5454545454545454
 40
0.5454545454545454
 40
0.6363636363636364
 40
0.6363636363636364
 40
0.6363636363636364
 40
0.6363636363636364
 40
0.7272727272727273
 40
0.7272727272727273
 40
0.7272727272727273
 40
0.7272727272727273
 40
0.8181818181818182
 40
0.8181818181818182
 40
0.8181818181818182
 40
0.8181818181818182
 40
1.0
 40
1.0
 40
1.0
 40
1.0
 10
32.9931
 20
85.9122
 30
0.0
 10
34.0877
 20
87.3589
 30
0.0
 10
36.4105
 20
86.8425
 30
0.0
 10
36.3504
 20
84.4087
 30
0.0
 10
36.3504
 20
84.4087
 30
0.0
 10
36.2903
 20
82.6192
 30
0.0
 10
34.0383
 20
81.2831
 30
0.0
 10
32.1544
 20
81.7009
 30
0.0
 10
32.1544
 20
81.7009
 30
0.0
 10
30.7079
 20
81.9678
 30
0.0
 10
29.6071
 20
82.6162
 30
0.0
 10
27.4239
 20
84.4876
 30
0.0
 10
27.4239
 20
84.4876
 30
0.0
 10
25.1219
 20
86.8807
 30
0.0
 10
21.9577
 20
88.827
 30
0.0
 10
18.6343
 20
89.7453
 30
0.0
 10
18.6343
 20
89.7453
 30
0.0
 10
21.9578
 20
90.6636
 30
0.0
 10
25.1219
 20
92.6099
 30
0.0
 10
27.4239
 20
95.003
 30
0.0
 10
27.4239
 20
95.003
 30
0.0
 10
29.6071
 20
96.8744
 30
0.0
 10
30.7079
 20
97.5228
 30
0.0
 10
32.1544
 20
97.7897
 30
0.0
 10
32.1544
 20
97.7897
 30
0.0
 10
34.0383
 20
98.2075
 30
0.0
 10
36.2903
 20
96.8715
 30
0.0
 10
36.3504
 20
95.0819
 30
0.0
 10
36.3504
 20
95.0819
 30
0.0
 10
36.4105
 20
92.6481
 30
0.0
 10
34.0877
 20
92.1317
 30
0.0
 10
32.9931
 20
93.5784
 30
0.0
 10
32.9931
 20
93.5784
 30
0.0
 10
31.8699
 20
92.4945
 30
0.0
 10
32.4542
 20
89.7453
 30
0.0
 10
34.4908
 20
89.7453
 30
0.0
 10
34.4908
 20
89.7453
 30
0.0
 10
32.4542
 20
89.7453
 30
0.0
 10
31.8699
 20
86.9961
 30
0.0
 10
32.9931
 20
85.9122
 30
0.0
  0
SPLINE
  5
84
330
1F
100
AcDbEntity
  8
layer 1
 62
     7
100
AcDbSpline
210
0.0
220
0.0
230
1.0
 70
    11
 71
     3
 72
    16
 73
    12
 74
     0
 42
0.0000000001
 43
0.0000000001
 12
1.0
 22
0.0
 32
0.0
 13
1.0
 23
0.0
 33
0.0
 40
0.0
 40
0.0
 40
0.0
 40
0.0
 40
0.25
 40
0.25
 40
0.25
 40
0.25
 40
0.5
 40
0.5
 40
0.5
 40
0.5
 40
1.0
 40
1.0
 40
1.0
 40
1.0
 10
38.8679
 20
87.2924
 30
0.0
 10
38.2134
 20
88.1934
 30
0.0
 10
37.3877
 20
89.3117
 30
0.0
 10
35.7073
 20
89.7453
 30
0.0
 10
35.7073
 20
89.7453
 30
0.0
 10
37.3876
 20
90.1789
 30
0.0
 10
38.2134
 20
91.2971
 30
0.0
 10
38.8679
 20
92.1982
 30
0.0
 10
38.8679
 20
92.1982
 30
0.0
 10
38.8679
 20
92.1982
 30
0.0
 10
38.8679
 20
87.2924
 30
0.0
 10
38.8679
 20
87.2924
 30
0.0
  0
SPLINE
  5
85
330
1F
100
AcDbEntity
  8
layer 1
 62
     7
100
AcDbSpline
210
0.0
220
0.0
230
1.0
 70
    11
 71
     3
 72
    32
 73
    28
 74
     0
 42
0.0000000001
 43
0.0000000001
 12
1.0
 22
0.0
 32
0.0
 13
1.0
 23
0.0
 33
0.0
 40
0.0
 40
0.0
 40
0.0
 40
0.0
 40
0.125
 40
0.125
 40
0.125
 40
0.125
 40
0.25
 40
0.25
 40
0.25
 40
0.25
 40
0.375
 40
0.375
 40
0.375
 40
0.375
 40
0.5
 40
0.5
 40
0.5
 40
0.5
 40
0.625
 40
0.625
 40
0.625
 40
0.625
 40
0.75
 40
0.75
 40
0.75
 40
0.75
 40
1.0
 40
1.0
 40
1.0
 40
1.0
 10
19.515
 20
85.2956
 30
0.0
 10
19.7076
 20
84.6158
 30
0.0
 10
19.4698
 20
82.915
 30
0.0
 10
18.2049
 20
82.1183
 30
0.0
 10
18.2049
 20
82.1183
 30
0.0
 10
21.2232
 20
82.6141
 30
0.0
 10
22.4117
 20
78.1566
 30
0.0
 10
19.8038
 20
77.5498
 30
0.0
 10
19.8038
 20
77.5498
 30
0.0
 10
19.2053
 20
80.5811
 30
0.0
 10
15.9652
 20
79.8151
 30
0.0
 10
16.0246
 20
77.1733
 30
0.0
 10
16.0246
 20
77.1733
 30
0.0
 10
16.1832
 20
75.8116
 30
0.0
 10
16.7172
 20
74.6984
 30
0.0
 10
18.1058
 20
74.076
 30
0.0
 10
18.1058
 20
74.076
 30
0.0
 10
21.6233
 20
72.4995
 30
0.0
 10
25.36
 20
75.79
 30
0.0
 10
24.4044
 20
79.7733
 30
0.0
 10
24.4044
 20
79.7733
 30
0.0
 10
23.4986
 20
82.8925
 30
0.0
 10
20.6566
 20
84.8416
 30
0.0
 10
19.5151
 20
85.2957
 30
0.0
 10
19.5151
 20
85.2957
 30
0.0
 10
19.5151
 20
85.2957
 30
0.0
 10
19.515
 20
85.2956
 30
0.0
 10
19.515
 20
85.2956
 30
0.0
  0
SPLINE
  5
86
330
1F
100
AcDbEntity
  8
layer 1
 62
     7
100
AcDbSpline
210
0.0
220
0.0
230
1.0
 70
    11
 71
     3
 72
    52
 73
    48
 74
     0
 42
0.0000000001
 43
0.0000000001
 12
1.0
 22
0.0
 32
0.0
 13
1.0
 23
0.0
 33
0.0
 40
0.0
 40
0.0
 40
0.0
 40
0.0
 40
0.0769230769230769
 40
0.0769230769230769
 40
0.0769230769230769
 40
0.0769230769230769
 40
0.1538461538461539
 40
0.1538461538461539
 40
0.1538461538461539
 40
0.1538461538461539
 40
0.2307692307692308
 40
0.2307692307692308
 40
0.2307692307692308
 40
0.2307692307692308
 40
0.3076923076923077
 40
0.3076923076923077
 40
0.3076923076923077
 40
0.3076923076923077
 40
0.3846153846153846
 40
0.3846153846153846
 40
0.3846153846153846
 40
0.3846153846153846
 40
0.4615384615384616
 40
0.4615384615384616
 40
0.4615384615384616
 40
0.4615384615384616
 40
0.5384615384615384
 40
0.5384615384615384
 40
0.5384615384615384
 40
0.5384615384615384
 40
0.6153846153846154
 40
0.6153846153846154
 40
0.6153846153846154
 40
0.6153846153846154
 40
0.6923076923076923
 40
0.6923076923076923
 40
0.6923076923076923
 40
0.6923076923076923
 40
0.7692307692307693
 40
0.7692307692307693
 40
0.7692307692307693
 40
0.7692307692307693
 40
0.8461538461538461
 40
0.8461538461538461
 40
0.8461538461538461
 40
0.8461538461538461
 40
1.0
 40
1.0
 40
1.0
 40
1.0
 10
32.4536
 20
78.0038
 30
0.0
 10
32.4854
 20
76.9259
 30
0.0
 10
32.907
 20
75.7306
 30
0.0
 10
32.2124
 20
74.4322
 30
0.0
 10
32.2124
 20
74.4322
 30
0.0
 10
30.8401
 20
74.7841
 30
0.0
 10
29.3603
 20
75.9042
 30
0.0
 10
28.5991
 20
76.9678
 30
0.0
 10
28.5991
 20
76.9678
 30
0.0
 10
28.0915
 20
73.8378
 30
0.0
 10
25.6391
 20
72.8083
 30
0.0
 10
26.0234
 20
68.5349
 30
0.0
 10
26.0234
 20
68.5349
 30
0.0
 10
26.5203
 20
64.7007
 30
0.0
 10
30.4101
 20
63.2512
 30
0.0
 10
31.6407
 20
65.7842
 30
0.0
 10
31.6407
 20
65.7842
 30
0.0
 10
32.0126
 20
67.9998
 30
0.0
 10
30.0689
 20
68.0591
 30
0.0
 10
29.6414
 20
67.7952
 30
0.0
 10
29.6414
 20
67.7952
 30
0.0
 10
29.8179
 20
69.4139
 30
0.0
 10
32.5875
 20
70.7774
 30
0.0
 10
34.4497
 20
68.3842
 30
0.0
 10
34.4497
 20
68.3842
 30
0.0
 10
35.6516
 20
66.3149
 30
0.0
 10
35.3017
 20
64.9722
 30
0.0
 10
34.6135
 20
63.7438
 30
0.0
 10
34.6135
 20
63.7438
 30
0.0
 10
35.5272
 20
63.9681
 30
0.0
 10
36.7253
 20
64.1136
 30
0.0
 10
37.0999
 20
63.8139
 30
0.0
 10
37.0999
 20
63.8139
 30
0.0
 10
37.3566
 20
63.4102
 30
0.0
 10
36.6904
 20
62.321
 30
0.0
 10
36.2877
 20
61.5316
 30
0.0
 10
36.2877
 20
61.5316
 30
0.0
 10
37.3278
 20
61.1977
 30
0.0
 10
38.3622
 20
60.1473
 30
0.0
 10
38.8679
 20
58.204
 30
0.0
 10
38.8679
 20
58.204
 30
0.0
 10
38.8679
 20
58.204
 30
0.0
 10
38.8679
 20
80.7348
 30
0.0
 10
38.8679
 20
80.7348
 30
0.0
 10
38.8679
 20
80.7348
 30
0.0
 10
37.197
 20
78.2711
 30
0.0
 10
35.9094
 20
77.7937
 30
0.0
 10
32.4536
 20
78.0038
 30
0.0
  0
SPLINE
  5
87
330
1F
100
AcDbEntity
  8
layer 1
 62
     7
100
AcDbSpline
210
0.0
220
0.0
230
1.0
 70
    11
 71
     3
 72
    40
 73
    36
 74
     0
 42
0.0000000001
 43
0.0000000001
 12
1.0
 22
0.0
 32
0.0
 13
1.0
 23
0.0
 33
0.0
 40
0.0
 40
0.0
 40
0.0
 40
0.0
 40
0.1
 40
0.1
 40
0.1
 40
0.1
 40
0.2
 40
0.2
 40
0.2
 40
0.2
 40
0.3
 40
0.3
 40
0.3
 40
0.3
 40
0.4
 40
0.4
 40
0.4
 40
0.4
 40
0.5
 40
0.5
 40
0.5
 40
0.5
 40
0.6
 40
0.6
 40
0.6
 40
0.6
 40
0.7
 40
0.7
 40
0.7
 40
0.7
 40
0.8
 40
0.8
 40
0.8
 40
0.8
 40
1.0
 40
1.0
 40
1.0
 40
1.0
 10
28.7259
 20
53.142
 30
0.0
 10
29.5536
 20
52.384
 30
0.0
 10
30.6987
 20
51.9444
 30
0.0
 10
31.6438
 20
52.3476
 30
0.0
 10
31.6438
 20
52.3476
 30
0.0
 10
32.8906
 20
52.8795
 30
0.0
 10
32.1621
 20
54.4351
 30
0.0
 10
30.9016
 20
54.1914
 30
0.0
 10
30.9016
 20
54.1914
 30
0.0
 10
30.9683
 20
55.4051
 30
0.0
 10
32.2216
 20
55.38
 30
0.0
 10
32.7878
 20
55.454
 30
0.0
 10
32.7878
 20
55.454
 30
0.0
 10
32.8063
 20
56.0755
 30
0.0
 10
32.6887
 20
57.2363
 30
0.0
 10
33.9025
 20
57.3031
 30
0.0
 10
33.9025
 20
57.3031
 30
0.0
 10
33.6588
 20
56.0424
 30
0.0
 10
35.2143
 20
55.314
 30
0.0
 10
35.7463
 20
56.5608
 30
0.0
 10
35.7463
 20
56.5608
 30
0.0
 10
36.1495
 20
57.5059
 30
0.0
 10
35.7097
 20
58.651
 30
0.0
 10
34.9519
 20
59.4787
 30
0.0
 10
34.9519
 20
59.4787
 30
0.0
 10
31.9593
 20
62.0189
 30
0.0
 10
30.2985
 20
60.1314
 30
0.0
 10
27.2637
 20
60.9781
 30
0.0
 10
27.2637
 20
60.9781
 30
0.0
 10
28.1658
 20
57.8878
 30
0.0
 10
26.1858
 20
56.1346
 30
0.0
 10
28.726
 20
53.142
 30
0.0
 10
28.726
 20
53.142
 30
0.0
 10
28.726
 20
53.142
 30
0.0
 10
28.7259
 20
53.142
 30
0.0
 10
28.7259
 20
53.142
 30
0.0
  0
SPLINE
  5
88
330
1F
100
AcDbEntity
  8
layer 1
 62
     7
100
AcDbSpline
210
0.0
220
0.0
230
1.0
 70
    11
 71
     3
 72
    40
 73
    36
 74
     0
 42
0.0000000001
 43
0.0000000001
 12
1.0
 22
0.0
 32
0.0
 13
1.0
 23
0.0
 33
0.0
 40
0.0
 40
0.0
 40
0.0
 40
0.0
 40
0.1
 40
0.1
 40
0.1
 40
0.1
 40
0.2
 40
0.2
 40
0.2
 40
0.2
 40
0.3
 40
0.3
 40
0.3
 40
0.3
 40
0.4
 40
0.4
 40
0.4
 40
0.4
 40
0.5
 40
0.5
 40
0.5
 40
0.5
 40
0.6
 40
0.6
 40
0.6
 40
0.6
 40
0.7
 40
0.7
 40
0.7
 40
0.7
 40
0.8
 40
0.8
 40
0.8
 40
0.8
 40
1.0
 40
1.0
 40
1.0
 40
1.0
 10
20.0842
 20
64.8225
 30
0.0
 10
20.2665
 20
65.4611
 30
0.0
 10
20.3322
 20
66.4553
 30
0.0
 10
20.165
 20
66.9535
 30
0.0
 10
20.165
 20
66.9535
 30
0.0
 10
19.7643
 20
67.0848
 30
0.0
 10
18.948
 20
67.0598
 30
0.0
 10
18.2513
 20
66.846
 30
0.0
 10
18.2513
 20
66.846
 30
0.0
 10
18.5552
 20
67.9328
 30
0.0
 10
18.4591
 20
69.0877
 30
0.0
 10
17.8319
 20
70.4098
 30
0.0
 10
17.8319
 20
70.4098
 30
0.0
 10
19.0986
 20
69.838
 30
0.0
 10
20.161
 20
69.6495
 30
0.0
 10
21.2478
 20
69.9533
 30
0.0
 10
21.2478
 20
69.9533
 30
0.0
 10
21.0339
 20
69.2566
 30
0.0
 10
21.0089
 20
68.4403
 30
0.0
 10
21.1403
 20
68.0396
 30
0.0
 10
21.1403
 20
68.0396
 30
0.0
 10
21.6385
 20
67.8724
 30
0.0
 10
22.6327
 20
67.9381
 30
0.0
 10
23.2712
 20
68.1204
 30
0.0
 10
23.2712
 20
68.1204
 30
0.0
 10
23.4101
 20
66.932
 30
0.0
 10
23.4494
 20
65.5278
 30
0.0
 10
24.2785
 20
63.9633
 30
0.0
 10
24.2785
 20
63.9633
 30
0.0
 10
22.7693
 20
64.737
 30
0.0
 10
21.2726
 20
64.6838
 30
0.0
 10
20.0843
 20
64.8226
 30
0.0
 10
20.0843
 20
64.8226
 30
0.0
 10
20.0843
 20
64.8226
 30
0.0
 10
20.0842
 20
64.8225
 30
0.0
 10
20.0842
 20
64.8225
 30
0.0
  0
SPLINE
  5
89
330
1F
100
AcDbEntity
  8
layer 1
 62
     7
100
AcDbSpline
210
0.0
220
0.0
230
1.0
 70
    11
 71
     3
 72
    32
 73
    28
 74
     0
 42
0.0000000001
 43
0.0000000001
 12
1.0
 22
0.0
 32
0.0
 13
1.0
 23
0.0
 33
0.0
 40
0.0
 40
0.0
 40
0.0
 40
0.0
 40
0.125
 40
0.125
 40
0.125
 40
0.125
 40
0.25
 40
0.25
 40
0.25
 40
0.25
 40
0.375
 40
0.375
 40
0.375
 40
0.375
 40
0.5
 40
0.5
 40
0.5
 40
0.5
 40
0.625
 40
0.625
 40
0.625
 40
0.625
 40
0.75
 40
0.75
 40
0.75
 40
0.75
 40
1.0
 40
1.0
 40
1.0
 40
1.0
 10
2.9089
 20
68.5788
 30
0.0
 10
3.5888
 20
68.3862
 30
0.0
 10
5.2896
 20
68.624
 30
0.0
 10
6.0863
 20
69.8889
 30
0.0
 10
6.0863
 20
69.8889
 30
0.0
 10
5.5905
 20
66.8706
 30
0.0
 10
10.048
 20
65.6821
 30
0.0
 10
10.6548
 20
68.29
 30
0.0
 10
10.6548
 20
68.29
 30
0.0
 10
7.6234
 20
68.8885
 30
0.0
 10
8.3894
 20
72.1285
 30
0.0
 10
11.0313
 20
72.0692
 30
0.0
 10
11.0313
 20
72.0692
 30
0.0
 10
12.393
 20
71.9105
 30
0.0
 10
13.5062
 20
71.3765
 30
0.0
 10
14.1285
 20
69.988
 30
0.0
 10
14.1285
 20
69.988
 30
0.0
 10
15.705
 20
66.4705
 30
0.0
 10
12.4146
 20
62.7338
 30
0.0
 10
8.4312
 20
63.6893
 30
0.0
 10
8.4312
 20
63.6893
 30
0.0
 10
5.3121
 20
64.5952
 30
0.0
 10
3.363
 20
67.4372
 30
0.0
 10
2.9089
 20
68.5787
 30
0.0
 10
2.9089
 20
68.5787
 30
0.0
 10
2.9089
 20
68.5787
 30
0.0
 10
2.9089
 20
68.5788
 30
0.0
 10
2.9089
 20
68.5788
 30
0.0
  0
SPLINE
  5
8A
330
1F
100
AcDbEntity
  8
layer 1
 62
     7
100
AcDbSpline
210
0.0
220
0.0
230
1.0
 70
    11
 71
     3
 72
    56
 73
    52
 74
     0
 42
0.0000000001
 43
0.0000000001
 12
1.0
 22
0.0
 32
0.0
 13
1.0
 23
0.0
 33
0.0
 40
0.0
 40
0.0
 40
0.0
 40
0.0
 40
0.0714285714285714
 40
0.0714285714285714
 40
0.0714285714285714
 40
0.0714285714285714
 40
0.1428571428571428
 40
0.1428571428571428
 40
0.1428571428571428
 40
0.1428571428571428
 40
0.2142857142857143
 40
0.2142857142857143
 40
0.2142857142857143
 40
0.2142857142857143
 40
0.2857142857142857
 40
0.2857142857142857
 40
0.2857142857142857
 40
0.2857142857142857
 40
0.3571428571428572
 40
0.3571428571428572
 40
0.3571428571428572
 40
0.3571428571428572
 40
0.4285714285714285
 40
0.4285714285714285
 40
0.4285714285714285
 40
0.4285714285714285
 40
0.5
 40
0.5
 40
0.5
 40
0.5
 40
0.5714285714285714
 40
0.5714285714285714
 40
0.5714285714285714
 40
0.5714285714285714
 40
0.6428571428571429
 40
0.6428571428571429
 40
0.6428571428571429
 40
0.6428571428571429
 40
0.7142857142857143
 40
0.7142857142857143
 40
0.7142857142857143
 40
0.7142857142857143
 40
0.7857142857142857
 40
0.7857142857142857
 40
0.7857142857142857
 40
0.7857142857142857
 40
0.8571428571428571
 40
0.8571428571428571
 40
0.8571428571428571
 40
0.8571428571428571
 40
1.0
 40
1.0
 40
1.0
 40
1.0
 10
5.5968
 20
79.3109
 30
0.0
 10
5.0948
 20
78.809
 30
0.0
 10
3.4926
 20
78.632
 30
0.0
 10
1.8604
 20
79.496
 30
0.0
 10
1.8604
 20
79.496
 30
0.0
 10
2.2303
 20
76.5514
 30
0.0
 10
-0.314
 20
75.8992
 30
0.0
 10
0.495
 20
73.0895
 30
0.0
 10
0.495
 20
73.0895
 30
0.0
 10
0.9754
 20
71.5604
 30
0.0
 10
4.2879
 20
70.3734
 30
0.0
 10
5.4707
 20
73.2211
 30
0.0
 10
5.4707
 20
73.2211
 30
0.0
 10
5.6998
 20
72.7407
 30
0.0
 10
5.8291
 20
72.3571
 30
0.0
 10
6.1829
 20
71.9926
 30
0.0
 10
6.1829
 20
71.9926
 30
0.0
 10
7.6662
 20
74.4931
 30
0.0
 10
10.4229
 20
76.1065
 30
0.0
 10
13.7481
 20
74.4935
 30
0.0
 10
13.7481
 20
74.4935
 30
0.0
 10
12.0797
 20
77.8741
 30
0.0
 10
13.6006
 20
80.5383
 30
0.0
 10
16.101
 20
82.0215
 30
0.0
 10
16.101
 20
82.0215
 30
0.0
 10
15.7366
 20
82.3753
 30
0.0
 10
15.3529
 20
82.5047
 30
0.0
 10
14.8725
 20
82.7337
 30
0.0
 10
14.8725
 20
82.7337
 30
0.0
 10
17.7203
 20
83.9166
 30
0.0
 10
16.5332
 20
87.229
 30
0.0
 10
15.0042
 20
87.7095
 30
0.0
 10
15.0042
 20
87.7095
 30
0.0
 10
12.1944
 20
88.5185
 30
0.0
 10
11.5423
 20
85.9741
 30
0.0
 10
8.5977
 20
86.3441
 30
0.0
 10
8.5977
 20
86.3441
 30
0.0
 10
9.4616
 20
84.7118
 30
0.0
 10
9.2847
 20
83.1096
 30
0.0
 10
8.7827
 20
82.6076
 30
0.0
 10
8.7827
 20
82.6076
 30
0.0
 10
8.1209
 20
82.1969
 30
0.0
 10
6.7474
 20
82.4693
 30
0.0
 10
5.4736
 20
82.7679
 30
0.0
 10
5.4736
 20
82.7679
 30
0.0
 10
5.8276
 20
81.4387
 30
0.0
 10
6.2586
 20
80.2976
 30
0.0
 10
5.5968
 20
79.3108
 30
0.0
 10
5.5968
 20
79.3108
 30
0.0
 10
5.5968
 20
79.3108
 30
0.0
 10
5.5968
 20
79.3109
 30
0.0
 10
5.5968
 20
79.3109
 30
0.0
  0
SPLINE
  5
8B
330
1F
100
AcDbEntity
  8
layer 1
 62
     7
100
AcDbSpline
210
0.0
220
0.0
230
1.0
 70
    11
 71
     3
 72
    44
 73
    40
 74
     0
 42
0.0000000001
 43
0.0000000001
 12
1.0
 22
0.0
 32
0.0
 13
1.0
 23
0.0
 33
0.0
 40
0.0
 40
0.0
 40
0.0
 40
0.0
 40
0.0909090909090909
 40
0.0909090909090909
 40
0.0909090909090909
 40
0.0909090909090909
 40
0.1818181818181818
 40
0.1818181818181818
 40
0.1818181818181818
 40
0.1818181818181818
 40
0.2727272727272727
 40
0.2727272727272727
 40
0.2727272727272727
 40
0.2727272727272727
 40
0.3636363636363636
 40
0.3636363636363636
 40
0.3636363636363636
 40
0.3636363636363636
 40
0.4545454545454545
 40
0.4545454545454545
 40
0.4545454545454545
 40
0.4545454545454545
 40
0.5454545454545454
 40
0.5454545454545454
 40
0.5454545454545454
 40
0.5454545454545454
 40
0.6363636363636364
 40
0.6363636363636364
 40
0.6363636363636364
 40
0.6363636363636364
 40
0.7272727272727273
 40
0.7272727272727273
 40
0.7272727272727273
 40
0.7272727272727273
 40
0.8181818181818182
 40
0.8181818181818182
 40
0.8181818181818182
 40
0.8181818181818182
 40
1.0
 40
1.0
 40
1.0
 40
1.0
 10
3.717
 20
60.6698
 30
0.0
 10
5.5883
 20
58.4866
 30
0.0
 10
6.2368
 20
57.3858
 30
0.0
 10
6.5036
 20
55.9393
 30
0.0
 10
6.5036
 20
55.9393
 30
0.0
 10
6.9214
 20
54.0554
 30
0.0
 10
5.5854
 20
51.8034
 30
0.0
 10
3.7958
 20
51.7433
 30
0.0
 10
3.7958
 20
51.7433
 30
0.0
 10
1.3621
 20
51.6833
 30
0.0
 10
0.8457
 20
54.006
 30
0.0
 10
2.2924
 20
55.1006
 30
0.0
 10
2.2924
 20
55.1006
 30
0.0
 10
1.2084
 20
56.2238
 30
0.0
 10
-1.5407
 20
55.6396
 30
0.0
 10
-1.5701
 20
53.603
 30
0.0
 10
-1.5701
 20
53.603
 30
0.0
 10
-1.5994
 20
55.6396
 30
0.0
 10
-4.3486
 20
56.2238
 30
0.0
 10
-5.4326
 20
55.1006
 30
0.0
 10
-5.4326
 20
55.1006
 30
0.0
 10
-3.9858
 20
54.006
 30
0.0
 10
-4.5022
 20
51.6833
 30
0.0
 10
-6.936
 20
51.7433
 30
0.0
 10
-6.936
 20
51.7433
 30
0.0
 10
-8.7255
 20
51.8034
 30
0.0
 10
-10.0616
 20
54.0554
 30
0.0
 10
-9.6438
 20
55.9393
 30
0.0
 10
-9.6438
 20
55.9393
 30
0.0
 10
-9.3769
 20
57.3858
 30
0.0
 10
-8.7285
 20
58.4866
 30
0.0
 10
-6.8572
 20
60.6698
 30
0.0
 10
-6.8572
 20
60.6698
 30
0.0
 10
-4.464
 20
62.9718
 30
0.0
 10
-2.5177
 20
66.136
 30
0.0
 10
-1.5701
 20
69.4595
 30
0.0
 10
-1.5701
 20
69.4595
 30
0.0
 10
-0.6224
 20
66.136
 30
0.0
 10
1.3239
 20
62.9718
 30
0.0
 10
3.717
 20
60.6698
 30
0.0
  0
SPLINE
  5
8C
330
1F
100
AcDbEntity
  8
layer 1
 62
     7
100
AcDbSpline
210
0.0
220
0.0
230
1.0
 70
    11
 71
     3
 72
    20
 73
    16
 74
     0
 42
0.0000000001
 43
0.0000000001
 12
1.0
 22
0.0
 32
0.0
 13
1.0
 23
0.0
 33
0.0
 40
0.0
 40
0.0
 40
0.0
 40
0.0
 40
0.2
 40
0.2
 40
0.2
 40
0.2
 40
0.4
 40
0.4
 40
0.4
 40
0.4
 40
0.6
 40
0.6
 40
0.6
 40
0.6
 40
1.0
 40
1.0
 40
1.0
 40
1.0
 10
-1.5169
 20
93.2884
 30
0.0
 10
0.5056
 20
93.2884
 30
0.0
 10
2.1458
 20
91.6482
 30
0.0
 10
2.1458
 20
89.6257
 30
0.0
 10
2.1458
 20
89.6257
 30
0.0
 10
2.1458
 20
87.6031
 30
0.0
 10
0.5056
 20
85.9629
 30
0.0
 10
-1.5169
 20
85.9629
 30
0.0
 10
-1.5169
 20
85.9629
 30
0.0
 10
-3.5394
 20
85.9629
 30
0.0
 10
-5.1796
 20
87.6031
 30
0.0
 10
-5.1796
 20
89.6257
 30
0.0
 10
-5.1796
 20
89.6257
 30
0.0
 10
-5.1796
 20
91.6482
 30
0.0
 10
-3.5394
 20
93.2884
 30
0.0
 10
-1.5169
 20
93.2884
 30
0.0
  0
SPLINE
  5
8D
330
1F
100
AcDbEntity
  8
layer 1
 62
     7
100
AcDbSpline
210
0.0
220
0.0
230
1.0
 70
    11
 71
     3
 72
    48
 73
    44
 74
     0
 42
0.0000000001
 43
0.0000000001
 12
1.0
 22
0.0
 32
0.0
 13
1.0
 23
0.0
 33
0.0
 40
0.0
 40
0.0
 40
0.0
 40
0.0
 40
0.0833333333333333
 40
0.0833333333333333
 40
0.0833333333333333
 40
0.0833333333333333
 40
0.1666666666666667
 40
0.1666666666666667
 40
0.1666666666666667
 40
0.1666666666666667
 40
0.25
 40
0.25
 40
0.25
 40
0.25
 40
0.3333333333333333
 40
0.3333333333333333
 40
0.3333333333333333
 40
0.3333333333333333
 40
0.4166666666666667
 40
0.4166666666666667
 40
0.4166666666666667
 40
0.4166666666666667
 40
0.5
 40
0.5
 40
0.5
 40
0.5
 40
0.5833333333333334
 40
0.5833333333333334
 40
0.5833333333333334
 40
0.5833333333333334
 40
0.6666666666666666
 40
0.6666666666666666
 40
0.6666666666666666
 40
0.6666666666666666
 40
0.75
 40
0.75
 40
0.75
 40
0.75
 40
0.8333333333333334
 40
0.8333333333333334
 40
0.8333333333333334
 40
0.8333333333333334
 40
1.0
 40
1.0
 40
1.0
 40
1.0
 10
-30.5641
 20
13.9735
 30
0.0
 10
-32.7473
 20
15.8449
 30
0.0
 10
-33.8481
 20
16.4933
 30
0.0
 10
-35.2946
 20
16.7601
 30
0.0
 10
-35.2946
 20
16.7601
 30
0.0
 10
-37.1784
 20
17.1779
 30
0.0
 10
-39.4305
 20
15.8419
 30
0.0
 10
-39.4905
 20
14.0523
 30
0.0
 10
-39.4905
 20
14.0523
 30
0.0
 10
-39.5506
 20
11.6186
 30
0.0
 10
-37.2279
 20
11.1022
 30
0.0
 10
-36.1332
 20
12.5489
 30
0.0
 10
-36.1332
 20
12.5489
 30
0.0
 10
-35.0101
 20
11.465
 30
0.0
 10
-35.5943
 20
8.7158
 30
0.0
 10
-37.6309
 20
8.7158
 30
0.0
 10
-37.6309
 20
8.7158
 30
0.0
 10
-35.5943
 20
8.7158
 30
0.0
 10
-35.0101
 20
5.9666
 30
0.0
 10
-36.1332
 20
4.8826
 30
0.0
 10
-36.1332
 20
4.8826
 30
0.0
 10
-37.2279
 20
6.3294
 30
0.0
 10
-39.5506
 20
5.813
 30
0.0
 10
-39.4905
 20
3.3793
 30
0.0
 10
-39.4905
 20
3.3793
 30
0.0
 10
-39.4305
 20
1.5898
 30
0.0
 10
-37.1785
 20
0.2537
 30
0.0
 10
-35.2946
 20
0.6715
 30
0.0
 10
-35.2946
 20
0.6715
 30
0.0
 10
-33.8481
 20
0.9383
 30
0.0
 10
-32.7473
 20
1.5868
 30
0.0
 10
-30.5641
 20
3.4581
 30
0.0
 10
-30.5641
 20
3.4581
 30
0.0
 10
-28.262
 20
5.8512
 30
0.0
 10
-25.0978
 20
7.7975
 30
0.0
 10
-21.7744
 20
8.7158
 30
0.0
 10
-21.7744
 20
8.7158
 30
0.0
 10
-25.0979
 20
9.6342
 30
0.0
 10
-28.2621
 20
11.5805
 30
0.0
 10
-30.5641
 20
13.9736
 30
0.0
 10
-30.5641
 20
13.9736
 30
0.0
 10
-30.5641
 20
13.9736
 30
0.0
 10
-30.5641
 20
13.9735
 30
0.0
 10
-30.5641
 20
13.9735
 30
0.0
  0
SPLINE
  5
8E
330
1F
100
AcDbEntity
  8
layer 1
 62
     7
100
AcDbSpline
210
0.0
220
0.0
230
1.0
 70
    11
 71
     3
 72
    20
 73
    16
 74
     0
 42
0.0000000001
 43
0.0000000001
 12
1.0
 22
0.0
 32
0.0
 13
1.0
 23
0.0
 33
0.0
 40
0.0
 40
0.0
 40
0.0
 40
0.0
 40
0.2
 40
0.2
 40
0.2
 40
0.2
 40
0.4
 40
0.4
 40
0.4
 40
0.4
 40
0.6
 40
0.6
 40
0.6
 40
0.6
 40
1.0
 40
1.0
 40
1.0
 40
1.0
 10
-42.008
 20
11.1687
 30
0.0
 10
-42.008
 20
11.1687
 30
0.0
 10
-42.008
 20
6.263
 30
0.0
 10
-42.008
 20
6.263
 30
0.0
 10
-42.008
 20
6.263
 30
0.0
 10
-41.3535
 20
7.164
 30
0.0
 10
-40.5277
 20
8.2822
 30
0.0
 10
-38.8474
 20
8.7158
 30
0.0
 10
-38.8474
 20
8.7158
 30
0.0
 10
-40.5277
 20
9.1494
 30
0.0
 10
-41.3535
 20
10.2677
 30
0.0
 10
-42.008
 20
11.1687
 30
0.0
 10
-42.008
 20
11.1687
 30
0.0
 10
-42.008
 20
11.1687
 30
0.0
 10
-42.008
 20
11.1687
 30
0.0
 10
-42.008
 20
11.1687
 30
0.0
  0
SPLINE
  5
8F
330
1F
100
AcDbEntity
  8
layer 1
 62
     7
100
AcDbSpline
210
0.0
220
0.0
230
1.0
 70
    11
 71
     3
 72
    32
 73
    28
 74
     0
 42
0.0000000001
 43
0.0000000001
 12
1.0
 22
0.0
 32
0.0
 13
1.0
 23
0.0
 33
0.0
 40
0.0
 40
0.0
 40
0.0
 40
0.0
 40
0.125
 40
0.125
 40
0.125
 40
0.125
 40
0.25
 40
0.25
 40
0.25
 40
0.25
 40
0.375
 40
0.375
 40
0.375
 40
0.375
 40
0.5
 40
0.5
 40
0.5
 40
0.5
 40
0.625
 40
0.625
 40
0.625
 40
0.625
 40
0.75
 40
0.75
 40
0.75
 40
0.75
 40
1.0
 40
1.0
 40
1.0
 40
1.0
 10
-22.6551
 20
13.1655
 30
0.0
 10
-22.8477
 20
13.8454
 30
0.0
 10
-22.6099
 20
15.5461
 30
0.0
 10
-21.345
 20
16.3428
 30
0.0
 10
-21.345
 20
16.3428
 30
0.0
 10
-24.3633
 20
15.847
 30
0.0
 10
-25.5518
 20
20.3046
 30
0.0
 10
-22.9439
 20
20.9113
 30
0.0
 10
-22.9439
 20
20.9113
 30
0.0
 10
-22.3454
 20
17.88
 30
0.0
 10
-19.1053
 20
18.646
 30
0.0
 10
-19.1647
 20
21.2879
 30
0.0
 10
-19.1647
 20
21.2879
 30
0.0
 10
-19.3233
 20
22.6496
 30
0.0
 10
-19.8573
 20
23.7628
 30
0.0
 10
-21.2459
 20
24.3851
 30
0.0
 10
-21.2459
 20
24.3851
 30
0.0
 10
-24.7634
 20
25.9616
 30
0.0
 10
-28.5001
 20
22.6712
 30
0.0
 10
-27.5445
 20
18.6878
 30
0.0
 10
-27.5445
 20
18.6878
 30
0.0
 10
-26.6387
 20
15.5687
 30
0.0
 10
-23.7967
 20
13.6196
 30
0.0
 10
-22.6552
 20
13.1655
 30
0.0
 10
-22.6552
 20
13.1655
 30
0.0
 10
-22.6552
 20
13.1655
 30
0.0
 10
-22.6551
 20
13.1655
 30
0.0
 10
-22.6551
 20
13.1655
 30
0.0
  0
SPLINE
  5
90
330
1F
100
AcDbEntity
  8
layer 1
 62
     7
100
AcDbSpline
210
0.0
220
0.0
230
1.0
 70
    11
 71
     3
 72
    56
 73
    52
 74
     0
 42
0.0000000001
 43
0.0000000001
 12
1.0
 22
0.0
 32
0.0
 13
1.0
 23
0.0
 33
0.0
 40
0.0
 40
0.0
 40
0.0
 40
0.0
 40
0.0714285714285714
 40
0.0714285714285714
 40
0.0714285714285714
 40
0.0714285714285714
 40
0.1428571428571428
 40
0.1428571428571428
 40
0.1428571428571428
 40
0.1428571428571428
 40
0.2142857142857143
 40
0.2142857142857143
 40
0.2142857142857143
 40
0.2142857142857143
 40
0.2857142857142857
 40
0.2857142857142857
 40
0.2857142857142857
 40
0.2857142857142857
 40
0.3571428571428572
 40
0.3571428571428572
 40
0.3571428571428572
 40
0.3571428571428572
 40
0.4285714285714285
 40
0.4285714285714285
 40
0.4285714285714285
 40
0.4285714285714285
 40
0.5
 40
0.5
 40
0.5
 40
0.5
 40
0.5714285714285714
 40
0.5714285714285714
 40
0.5714285714285714
 40
0.5714285714285714
 40
0.6428571428571429
 40
0.6428571428571429
 40
0.6428571428571429
 40
0.6428571428571429
 40
0.7142857142857143
 40
0.7142857142857143
 40
0.7142857142857143
 40
0.7142857142857143
 40
0.7857142857142857
 40
0.7857142857142857
 40
0.7857142857142857
 40
0.7857142857142857
 40
0.8571428571428571
 40
0.8571428571428571
 40
0.8571428571428571
 40
0.8571428571428571
 40
1.0
 40
1.0
 40
1.0
 40
1.0
 10
-35.5937
 20
20.4574
 30
0.0
 10
-35.6255
 20
21.5352
 30
0.0
 10
-36.0471
 20
22.7306
 30
0.0
 10
-35.3525
 20
24.029
 30
0.0
 10
-35.3525
 20
24.029
 30
0.0
 10
-33.9802
 20
23.677
 30
0.0
 10
-32.5004
 20
22.5569
 30
0.0
 10
-31.7392
 20
21.4934
 30
0.0
 10
-31.7392
 20
21.4934
 30
0.0
 10
-31.2316
 20
24.6234
 30
0.0
 10
-28.7792
 20
25.6528
 30
0.0
 10
-29.1635
 20
29.9262
 30
0.0
 10
-29.1635
 20
29.9262
 30
0.0
 10
-29.6604
 20
33.7604
 30
0.0
 10
-33.5502
 20
35.21
 30
0.0
 10
-34.7808
 20
32.6769
 30
0.0
 10
-34.7808
 20
32.6769
 30
0.0
 10
-35.1527
 20
30.4614
 30
0.0
 10
-33.209
 20
30.402
 30
0.0
 10
-32.7815
 20
30.666
 30
0.0
 10
-32.7815
 20
30.666
 30
0.0
 10
-32.958
 20
29.0472
 30
0.0
 10
-35.7276
 20
27.6838
 30
0.0
 10
-37.5898
 20
30.077
 30
0.0
 10
-37.5898
 20
30.077
 30
0.0
 10
-38.7917
 20
32.1462
 30
0.0
 10
-38.4418
 20
33.4889
 30
0.0
 10
-37.7536
 20
34.7173
 30
0.0
 10
-37.7536
 20
34.7173
 30
0.0
 10
-38.6673
 20
34.493
 30
0.0
 10
-39.8655
 20
34.3475
 30
0.0
 10
-40.24
 20
34.6472
 30
0.0
 10
-40.24
 20
34.6472
 30
0.0
 10
-40.4967
 20
35.0509
 30
0.0
 10
-39.8305
 20
36.1401
 30
0.0
 10
-39.4278
 20
36.9295
 30
0.0
 10
-39.4278
 20
36.9295
 30
0.0
 10
-40.4679
 20
37.2633
 30
0.0
 10
-41.5023
 20
38.3138
 30
0.0
 10
-42.008
 20
40.2571
 30
0.0
 10
-42.008
 20
40.2571
 30
0.0
 10
-42.008
 20
40.2571
 30
0.0
 10
-42.008
 20
17.7263
 30
0.0
 10
-42.008
 20
17.7263
 30
0.0
 10
-42.008
 20
17.7263
 30
0.0
 10
-40.3371
 20
20.19
 30
0.0
 10
-39.0495
 20
20.6673
 30
0.0
 10
-35.5937
 20
20.4573
 30
0.0
 10
-35.5937
 20
20.4573
 30
0.0
 10
-35.5937
 20
20.4573
 30
0.0
 10
-35.5937
 20
20.4574
 30
0.0
 10
-35.5937
 20
20.4574
 30
0.0
  0
SPLINE
  5
91
330
1F
100
AcDbEntity
  8
layer 1
 62
     7
100
AcDbSpline
210
0.0
220
0.0
230
1.0
 70
    11
 71
     3
 72
    40
 73
    36
 74
     0
 42
0.0000000001
 43
0.0000000001
 12
1.0
 22
0.0
 32
0.0
 13
1.0
 23
0.0
 33
0.0
 40
0.0
 40
0.0
 40
0.0
 40
0.0
 40
0.1
 40
0.1
 40
0.1
 40
0.1
 40
0.2
 40
0.2
 40
0.2
 40
0.2
 40
0.3
 40
0.3
 40
0.3
 40
0.3
 40
0.4
 40
0.4
 40
0.4
 40
0.4
 40
0.5
 40
0.5
 40
0.5
 40
0.5
 40
0.6
 40
0.6
 40
0.6
 40
0.6
 40
0.7
 40
0.7
 40
0.7
 40
0.7
 40
0.8
 40
0.8
 40
0.8
 40
0.8
 40
1.0
 40
1.0
 40
1.0
 40
1.0
 10
-31.866
 20
53.142
 30
0.0
 10
-32.6937
 20
52.384
 30
0.0
 10
-33.8388
 20
51.9444
 30
0.0
 10
-34.7839
 20
52.3476
 30
0.0
 10
-34.7839
 20
52.3476
 30
0.0
 10
-36.0307
 20
52.8795
 30
0.0
 10
-35.3022
 20
54.4351
 30
0.0
 10
-34.0417
 20
54.1914
 30
0.0
 10
-34.0417
 20
54.1914
 30
0.0
 10
-34.1084
 20
55.4051
 30
0.0
 10
-35.3617
 20
55.38
 30
0.0
 10
-35.9279
 20
55.454
 30
0.0
 10
-35.9279
 20
55.454
 30
0.0
 10
-35.9464
 20
56.0755
 30
0.0
 10
-35.8288
 20
57.2363
 30
0.0
 10
-37.0426
 20
57.3031
 30
0.0
 10
-37.0426
 20
57.3031
 30
0.0
 10
-36.7989
 20
56.0424
 30
0.0
 10
-38.3544
 20
55.314
 30
0.0
 10
-38.8864
 20
56.5608
 30
0.0
 10
-38.8864
 20
56.5608
 30
0.0
 10
-39.2896
 20
57.5059
 30
0.0
 10
-38.8498
 20
58.651
 30
0.0
 10
-38.092
 20
59.4787
 30
0.0
 10
-38.092
 20
59.4787
 30
0.0
 10
-35.0994
 20
62.0189
 30
0.0
 10
-33.4386
 20
60.1314
 30
0.0
 10
-30.4038
 20
60.9781
 30
0.0
 10
-30.4038
 20
60.9781
 30
0.0
 10
-31.3059
 20
57.8878
 30
0.0
 10
-29.3259
 20
56.1346
 30
0.0
 10
-31.8661
 20
53.142
 30
0.0
 10
-31.8661
 20
53.142
 30
0.0
 10
-31.8661
 20
53.142
 30
0.0
 10
-31.866
 20
53.142
 30
0.0
 10
-31.866
 20
53.142
 30
0.0
  0
SPLINE
  5
92
330
1F
100
AcDbEntity
  8
layer 1
 62
     7
100
AcDbSpline
210
0.0
220
0.0
230
1.0
 70
    11
 71
     3
 72
    40
 73
    36
 74
     0
 42
0.0000000001
 43
0.0000000001
 12
1.0
 22
0.0
 32
0.0
 13
1.0
 23
0.0
 33
0.0
 40
0.0
 40
0.0
 40
0.0
 40
0.0
 40
0.1
 40
0.1
 40
0.1
 40
0.1
 40
0.2
 40
0.2
 40
0.2
 40
0.2
 40
0.3
 40
0.3
 40
0.3
 40
0.3
 40
0.4
 40
0.4
 40
0.4
 40
0.4
 40
0.5
 40
0.5
 40
0.5
 40
0.5
 40
0.6
 40
0.6
 40
0.6
 40
0.6
 40
0.7
 40
0.7
 40
0.7
 40
0.7
 40
0.8
 40
0.8
 40
0.8
 40
0.8
 40
1.0
 40
1.0
 40
1.0
 40
1.0
 10
-23.2243
 20
64.8225
 30
0.0
 10
-23.4066
 20
65.4611
 30
0.0
 10
-23.4723
 20
66.4553
 30
0.0
 10
-23.3051
 20
66.9535
 30
0.0
 10
-23.3051
 20
66.9535
 30
0.0
 10
-22.9044
 20
67.0848
 30
0.0
 10
-22.0881
 20
67.0598
 30
0.0
 10
-21.3914
 20
66.846
 30
0.0
 10
-21.3914
 20
66.846
 30
0.0
 10
-21.6953
 20
67.9328
 30
0.0
 10
-21.5992
 20
69.0877
 30
0.0
 10
-20.972
 20
70.4098
 30
0.0
 10
-20.972
 20
70.4098
 30
0.0
 10
-22.2387
 20
69.838
 30
0.0
 10
-23.301
 20
69.6495
 30
0.0
 10
-24.3879
 20
69.9533
 30
0.0
 10
-24.3879
 20
69.9533
 30
0.0
 10
-24.174
 20
69.2566
 30
0.0
 10
-24.149
 20
68.4403
 30
0.0
 10
-24.2803
 20
68.0396
 30
0.0
 10
-24.2803
 20
68.0396
 30
0.0
 10
-24.7786
 20
67.8724
 30
0.0
 10
-25.7728
 20
67.9381
 30
0.0
 10
-26.4113
 20
68.1204
 30
0.0
 10
-26.4113
 20
68.1204
 30
0.0
 10
-26.5502
 20
66.932
 30
0.0
 10
-26.5895
 20
65.5278
 30
0.0
 10
-27.4186
 20
63.9633
 30
0.0
 10
-27.4186
 20
63.9633
 30
0.0
 10
-25.9094
 20
64.737
 30
0.0
 10
-24.4127
 20
64.6838
 30
0.0
 10
-23.2244
 20
64.8226
 30
0.0
 10
-23.2244
 20
64.8226
 30
0.0
 10
-23.2244
 20
64.8226
 30
0.0
 10
-23.2243
 20
64.8225
 30
0.0
 10
-23.2243
 20
64.8225
 30
0.0
  0
SPLINE
  5
93
330
1F
100
AcDbEntity
  8
layer 1
 62
     7
100
AcDbSpline
210
0.0
220
0.0
230
1.0
 70
    11
 71
     3
 72
    32
 73
    28
 74
     0
 42
0.0000000001
 43
0.0000000001
 12
1.0
 22
0.0
 32
0.0
 13
1.0
 23
0.0
 33
0.0
 40
0.0
 40
0.0
 40
0.0
 40
0.0
 40
0.125
 40
0.125
 40
0.125
 40
0.125
 40
0.25
 40
0.25
 40
0.25
 40
0.25
 40
0.375
 40
0.375
 40
0.375
 40
0.375
 40
0.5
 40
0.5
 40
0.5
 40
0.5
 40
0.625
 40
0.625
 40
0.625
 40
0.625
 40
0.75
 40
0.75
 40
0.75
 40
0.75
 40
1.0
 40
1.0
 40
1.0
 40
1.0
 10
-6.049
 20
68.5788
 30
0.0
 10
-6.7289
 20
68.3862
 30
0.0
 10
-8.4296
 20
68.624
 30
0.0
 10
-9.2264
 20
69.8889
 30
0.0
 10
-9.2264
 20
69.8889
 30
0.0
 10
-8.7305
 20
66.8706
 30
0.0
 10
-13.1881
 20
65.6821
 30
0.0
 10
-13.7949
 20
68.29
 30
0.0
 10
-13.7949
 20
68.29
 30
0.0
 10
-10.7635
 20
68.8885
 30
0.0
 10
-11.5295
 20
72.1285
 30
0.0
 10
-14.1714
 20
72.0692
 30
0.0
 10
-14.1714
 20
72.0692
 30
0.0
 10
-15.5331
 20
71.9105
 30
0.0
 10
-16.6463
 20
71.3765
 30
0.0
 10
-17.2686
 20
69.988
 30
0.0
 10
-17.2686
 20
69.988
 30
0.0
 10
-18.8451
 20
66.4705
 30
0.0
 10
-15.5547
 20
62.7338
 30
0.0
 10
-11.5713
 20
63.6893
 30
0.0
 10
-11.5713
 20
63.6893
 30
0.0
 10
-8.4522
 20
64.5952
 30
0.0
 10
-6.5031
 20
67.4372
 30
0.0
 10
-6.049
 20
68.5787
 30
0.0
 10
-6.049
 20
68.5787
 30
0.0
 10
-6.049
 20
68.5787
 30
0.0
 10
-6.049
 20
68.5788
 30
0.0
 10
-6.049
 20
68.5788
 30
0.0
  0
SPLINE
  5
94
330
1F
100
AcDbEntity
  8
layer 1
 62
     7
100
AcDbSpline
210
0.0
220
0.0
230
1.0
 70
    11
 71
     3
 72
    56
 73
    52
 74
     0
 42
0.0000000001
 43
0.0000000001
 12
1.0
 22
0.0
 32
0.0
 13
1.0
 23
0.0
 33
0.0
 40
0.0
 40
0.0
 40
0.0
 40
0.0
 40
0.0714285714285714
 40
0.0714285714285714
 40
0.0714285714285714
 40
0.0714285714285714
 40
0.1428571428571428
 40
0.1428571428571428
 40
0.1428571428571428
 40
0.1428571428571428
 40
0.2142857142857143
 40
0.2142857142857143
 40
0.2142857142857143
 40
0.2142857142857143
 40
0.2857142857142857
 40
0.2857142857142857
 40
0.2857142857142857
 40
0.2857142857142857
 40
0.3571428571428572
 40
0.3571428571428572
 40
0.3571428571428572
 40
0.3571428571428572
 40
0.4285714285714285
 40
0.4285714285714285
 40
0.4285714285714285
 40
0.4285714285714285
 40
0.5
 40
0.5
 40
0.5
 40
0.5
 40
0.5714285714285714
 40
0.5714285714285714
 40
0.5714285714285714
 40
0.5714285714285714
 40
0.6428571428571429
 40
0.6428571428571429
 40
0.6428571428571429
 40
0.6428571428571429
 40
0.7142857142857143
 40
0.7142857142857143
 40
0.7142857142857143
 40
0.7142857142857143
 40
0.7857142857142857
 40
0.7857142857142857
 40
0.7857142857142857
 40
0.7857142857142857
 40
0.8571428571428571
 40
0.8571428571428571
 40
0.8571428571428571
 40
0.8571428571428571
 40
1.0
 40
1.0
 40
1.0
 40
1.0
 10
-8.737
 20
79.3109
 30
0.0
 10
-8.235
 20
78.809
 30
0.0
 10
-6.6328
 20
78.632
 30
0.0
 10
-5.0005
 20
79.496
 30
0.0
 10
-5.0005
 20
79.496
 30
0.0
 10
-5.3704
 20
76.5514
 30
0.0
 10
-2.8261
 20
75.8992
 30
0.0
 10
-3.6351
 20
73.0895
 30
0.0
 10
-3.6351
 20
73.0895
 30
0.0
 10
-4.1156
 20
71.5604
 30
0.0
 10
-7.428
 20
70.3734
 30
0.0
 10
-8.6109
 20
73.2211
 30
0.0
 10
-8.6109
 20
73.2211
 30
0.0
 10
-8.84
 20
72.7407
 30
0.0
 10
-8.9693
 20
72.3571
 30
0.0
 10
-9.323
 20
71.9926
 30
0.0
 10
-9.323
 20
71.9926
 30
0.0
 10
-10.8064
 20
74.4931
 30
0.0
 10
-13.563
 20
76.1065
 30
0.0
 10
-16.8882
 20
74.4935
 30
0.0
 10
-16.8882
 20
74.4935
 30
0.0
 10
-15.2199
 20
77.8741
 30
0.0
 10
-16.7407
 20
80.5383
 30
0.0
 10
-19.2412
 20
82.0215
 30
0.0
 10
-19.2412
 20
82.0215
 30
0.0
 10
-18.8768
 20
82.3753
 30
0.0
 10
-18.4931
 20
82.5047
 30
0.0
 10
-18.0127
 20
82.7337
 30
0.0
 10
-18.0127
 20
82.7337
 30
0.0
 10
-20.8604
 20
83.9166
 30
0.0
 10
-19.6734
 20
87.229
 30
0.0
 10
-18.1443
 20
87.7095
 30
0.0
 10
-18.1443
 20
87.7095
 30
0.0
 10
-15.3346
 20
88.5185
 30
0.0
 10
-14.6825
 20
85.9741
 30
0.0
 10
-11.7378
 20
86.3441
 30
0.0
 10
-11.7378
 20
86.3441
 30
0.0
 10
-12.6018
 20
84.7118
 30
0.0
 10
-12.4248
 20
83.1096
 30
0.0
 10
-11.9229
 20
82.6076
 30
0.0
 10
-11.9229
 20
82.6076
 30
0.0
 10
-11.2611
 20
82.1969
 30
0.0
 10
-9.8875
 20
82.4693
 30
0.0
 10
-8.6138
 20
82.7679
 30
0.0
 10
-8.6138
 20
82.7679
 30
0.0
 10
-8.9678
 20
81.4387
 30
0.0
 10
-9.3987
 20
80.2976
 30
0.0
 10
-8.7369
 20
79.3108
 30
0.0
 10
-8.7369
 20
79.3108
 30
0.0
 10
-8.7369
 20
79.3108
 30
0.0
 10
-8.737
 20
79.3109
 30
0.0
 10
-8.737
 20
79.3109
 30
0.0
  0
SPLINE
  5
95
330
1F
100
AcDbEntity
  8
layer 1
 62
     7
100
AcDbSpline
210
0.0
220
0.0
230
1.0
 70
    11
 71
     3
 72
    28
 73
    24
 74
     0
 42
0.0000000001
 43
0.0000000001
 12
1.0
 22
0.0
 32
0.0
 13
1.0
 23
0.0
 33
0.0
 40
0.0
 40
0.0
 40
0.0
 40
0.0
 40
0.1428571428571428
 40
0.1428571428571428
 40
0.1428571428571428
 40
0.1428571428571428
 40
0.2857142857142857
 40
0.2857142857142857
 40
0.2857142857142857
 40
0.2857142857142857
 40
0.4285714285714285
 40
0.4285714285714285
 40
0.4285714285714285
 40
0.4285714285714285
 40
0.5714285714285714
 40
0.5714285714285714
 40
0.5714285714285714
 40
0.5714285714285714
 40
0.7142857142857143
 40
0.7142857142857143
 40
0.7142857142857143
 40
0.7142857142857143
 40
1.0
 40
1.0
 40
1.0
 40
1.0
 10
-36.5394
 20
49.2306
 30
0.0
 10
-38.2125
 20
47.9635
 30
0.0
 10
-38.4833
 20
46.2905
 30
0.0
 10
-37.8989
 20
44.9783
 30
0.0
 10
-37.8989
 20
44.9783
 30
0.0
 10
-39.4144
 20
45.5271
 30
0.0
 10
-41.0147
 20
45.2295
 30
0.0
 10
-42.008
 20
43.6559
 30
0.0
 10
-42.008
 20
43.6559
 30
0.0
 10
-42.008
 20
43.6559
 30
0.0
 10
-42.008
 20
49.2306
 30
0.0
 10
-42.008
 20
49.2306
 30
0.0
 10
-42.008
 20
49.2306
 30
0.0
 10
-42.008
 20
49.2306
 30
0.0
 10
-42.008
 20
54.8052
 30
0.0
 10
-42.008
 20
54.8052
 30
0.0
 10
-42.008
 20
54.8052
 30
0.0
 10
-41.0147
 20
53.2316
 30
0.0
 10
-39.4144
 20
52.9341
 30
0.0
 10
-37.8989
 20
53.4829
 30
0.0
 10
-37.8989
 20
53.4829
 30
0.0
 10
-38.4832
 20
52.1706
 30
0.0
 10
-38.2125
 20
50.4976
 30
0.0
 10
-36.5394
 20
49.2306
 30
0.0
  0
SPLINE
  5
96
330
1F
100
AcDbEntity
  8
layer 1
 62
     7
100
AcDbSpline
210
0.0
220
0.0
230
1.0
 70
    11
 71
     3
 72
    36
 73
    32
 74
     0
 42
0.0000000001
 43
0.0000000001
 12
1.0
 22
0.0
 32
0.0
 13
1.0
 23
0.0
 33
0.0
 40
0.0
 40
0.0
 40
0.0
 40
0.0
 40
0.1111111111111111
 40
0.1111111111111111
 40
0.1111111111111111
 40
0.1111111111111111
 40
0.2222222222222222
 40
0.2222222222222222
 40
0.2222222222222222
 40
0.2222222222222222
 40
0.3333333333333333
 40
0.3333333333333333
 40
0.3333333333333333
 40
0.3333333333333333
 40
0.4444444444444444
 40
0.4444444444444444
 40
0.4444444444444444
 40
0.4444444444444444
 40
0.5555555555555556
 40
0.5555555555555556
 40
0.5555555555555556
 40
0.5555555555555556
 40
0.6666666666666666
 40
0.6666666666666666
 40
0.6666666666666666
 40
0.6666666666666666
 40
0.7777777777777778
 40
0.7777777777777778
 40
0.7777777777777778
 40
0.7777777777777778
 40
1.0
 40
1.0
 40
1.0
 40
1.0
 10
-31.866
 20
45.3192
 30
0.0
 10
-32.6937
 20
46.0771
 30
0.0
 10
-33.8388
 20
46.5168
 30
0.0
 10
-34.7839
 20
46.1136
 30
0.0
 10
-34.7839
 20
46.1136
 30
0.0
 10
-36.0307
 20
45.5816
 30
0.0
 10
-35.3022
 20
44.0261
 30
0.0
 10
-34.0417
 20
44.2698
 30
0.0
 10
-34.0417
 20
44.2698
 30
0.0
 10
-34.1084
 20
43.0561
 30
0.0
 10
-35.3617
 20
43.0812
 30
0.0
 10
-35.9279
 20
43.0072
 30
0.0
 10
-35.9279
 20
43.0072
 30
0.0
 10
-35.9464
 20
42.3856
 30
0.0
 10
-35.8288
 20
41.2248
 30
0.0
 10
-37.0425
 20
41.1581
 30
0.0
 10
-37.0425
 20
41.1581
 30
0.0
 10
-36.7988
 20
42.4187
 30
0.0
 10
-38.3544
 20
43.1472
 30
0.0
 10
-38.8864
 20
41.9003
 30
0.0
 10
-38.8864
 20
41.9003
 30
0.0
 10
-39.2896
 20
40.9553
 30
0.0
 10
-38.8498
 20
39.8102
 30
0.0
 10
-38.092
 20
38.9825
 30
0.0
 10
-38.092
 20
38.9825
 30
0.0
 10
-35.0994
 20
36.4422
 30
0.0
 10
-33.4386
 20
38.3298
 30
0.0
 10
-30.4038
 20
37.483
 30
0.0
 10
-30.4038
 20
37.483
 30
0.0
 10
-31.3059
 20
40.5733
 30
0.0
 10
-29.3258
 20
42.3266
 30
0.0
 10
-31.866
 20
45.3192
 30
0.0
  0
SPLINE
  5
97
330
1F
100
AcDbEntity
  8
layer 1
 62
     7
100
AcDbSpline
210
0.0
220
0.0
230
1.0
 70
    11
 71
     3
 72
    40
 73
    36
 74
     0
 42
0.0000000001
 43
0.0000000001
 12
1.0
 22
0.0
 32
0.0
 13
1.0
 23
0.0
 33
0.0
 40
0.0
 40
0.0
 40
0.0
 40
0.0
 40
0.1
 40
0.1
 40
0.1
 40
0.1
 40
0.2
 40
0.2
 40
0.2
 40
0.2
 40
0.3
 40
0.3
 40
0.3
 40
0.3
 40
0.4
 40
0.4
 40
0.4
 40
0.4
 40
0.5
 40
0.5
 40
0.5
 40
0.5
 40
0.6
 40
0.6
 40
0.6
 40
0.6
 40
0.7
 40
0.7
 40
0.7
 40
0.7
 40
0.8
 40
0.8
 40
0.8
 40
0.8
 40
1.0
 40
1.0
 40
1.0
 40
1.0
 10
-23.2243
 20
33.6386
 30
0.0
 10
-23.4066
 20
33.0
 30
0.0
 10
-23.4723
 20
32.0058
 30
0.0
 10
-23.3051
 20
31.5076
 30
0.0
 10
-23.3051
 20
31.5076
 30
0.0
 10
-22.9044
 20
31.3762
 30
0.0
 10
-22.0881
 20
31.4012
 30
0.0
 10
-21.3914
 20
31.6151
 30
0.0
 10
-21.3914
 20
31.6151
 30
0.0
 10
-21.6953
 20
30.5283
 30
0.0
 10
-21.5992
 20
29.3734
 30
0.0
 10
-20.972
 20
28.0513
 30
0.0
 10
-20.972
 20
28.0513
 30
0.0
 10
-22.2387
 20
28.623
 30
0.0
 10
-23.301
 20
28.8116
 30
0.0
 10
-24.3879
 20
28.5078
 30
0.0
 10
-24.3879
 20
28.5078
 30
0.0
 10
-24.174
 20
29.2044
 30
0.0
 10
-24.149
 20
30.0208
 30
0.0
 10
-24.2803
 20
30.4214
 30
0.0
 10
-24.2803
 20
30.4214
 30
0.0
 10
-24.7786
 20
30.5887
 30
0.0
 10
-25.7728
 20
30.523
 30
0.0
 10
-26.4113
 20
30.3407
 30
0.0
 10
-26.4113
 20
30.3407
 30
0.0
 10
-26.5502
 20
31.5291
 30
0.0
 10
-26.5895
 20
32.9332
 30
0.0
 10
-27.4186
 20
34.4978
 30
0.0
 10
-27.4186
 20
34.4978
 30
0.0
 10
-25.9094
 20
33.7241
 30
0.0
 10
-24.4127
 20
33.7773
 30
0.0
 10
-23.2244
 20
33.6385
 30
0.0
 10
-23.2244
 20
33.6385
 30
0.0
 10
-23.2244
 20
33.6385
 30
0.0
 10
-23.2243
 20
33.6386
 30
0.0
 10
-23.2243
 20
33.6386
 30
0.0
  0
SPLINE
  5
98
330
1F
100
AcDbEntity
  8
layer 1
 62
     7
100
AcDbSpline
210
0.0
220
0.0
230
1.0
 70
    11
 71
     3
 72
    92
 73
    88
 74
     0
 42
0.0000000001
 43
0.0000000001
 12
1.0
 22
0.0
 32
0.0
 13
1.0
 23
0.0
 33
0.0
 40
0.0
 40
0.0
 40
0.0
 40
0.0
 40
0.0434782608695652
 40
0.0434782608695652
 40
0.0434782608695652
 40
0.0434782608695652
 40
0.0869565217391304
 40
0.0869565217391304
 40
0.0869565217391304
 40
0.0869565217391304
 40
0.1304347826086956
 40
0.1304347826086956
 40
0.1304347826086956
 40
0.1304347826086956
 40
0.1739130434782609
 40
0.1739130434782609
 40
0.1739130434782609
 40
0.1739130434782609
 40
0.2173913043478261
 40
0.2173913043478261
 40
0.2173913043478261
 40
0.2173913043478261
 40
0.2608695652173913
 40
0.2608695652173913
 40
0.2608695652173913
 40
0.2608695652173913
 40
0.3043478260869565
 40
0.3043478260869565
 40
0.3043478260869565
 40
0.3043478260869565
 40
0.3478260869565217
 40
0.3478260869565217
 40
0.3478260869565217
 40
0.3478260869565217
 40
0.391304347826087
 40
0.391304347826087
 40
0.391304347826087
 40
0.391304347826087
 40
0.4347826086956522
 40
0.4347826086956522
 40
0.4347826086956522
 40
0.4347826086956522
 40
0.4782608695652174
 40
0.4782608695652174
 40
0.4782608695652174
 40
0.4782608695652174
 40
0.5217391304347826
 40
0.5217391304347826
 40
0.5217391304347826
 40
0.5217391304347826
 40
0.5652173913043478
 40
0.5652173913043478
 40
0.5652173913043478
 40
0.5652173913043478
 40
0.6086956521739131
 40
0.6086956521739131
 40
0.6086956521739131
 40
0.6086956521739131
 40
0.6521739130434783
 40
0.6521739130434783
 40
0.6521739130434783
 40
0.6521739130434783
 40
0.6956521739130435
 40
0.6956521739130435
 40
0.6956521739130435
 40
0.6956521739130435
 40
0.7391304347826086
 40
0.7391304347826086
 40
0.7391304347826086
 40
0.7391304347826086
 40
0.782608695652174
 40
0.782608695652174
 40
0.782608695652174
 40
0.782608695652174
 40
0.8260869565217391
 40
0.8260869565217391
 40
0.8260869565217391
 40
0.8260869565217391
 40
0.8695652173913043
 40
0.8695652173913043
 40
0.8695652173913043
 40
0.8695652173913043
 40
0.9130434782608695
 40
0.9130434782608695
 40
0.9130434782608695
 40
0.9130434782608695
 40
1.0
 40
1.0
 40
1.0
 40
1.0
 10
-10.6099
 20
49.2352
 30
0.0
 10
-13.0736
 20
47.5643
 30
0.0
 10
-13.5509
 20
46.2767
 30
0.0
 10
-13.3409
 20
42.821
 30
0.0
 10
-13.3409
 20
42.821
 30
0.0
 10
-14.4187
 20
42.8528
 30
0.0
 10
-15.6141
 20
43.2744
 30
0.0
 10
-16.9125
 20
42.5797
 30
0.0
 10
-16.9125
 20
42.5797
 30
0.0
 10
-16.5606
 20
41.2075
 30
0.0
 10
-15.4404
 20
39.7277
 30
0.0
 10
-14.3769
 20
38.9664
 30
0.0
 10
-14.3769
 20
38.9664
 30
0.0
 10
-17.5069
 20
38.4589
 30
0.0
 10
-18.5363
 20
36.0065
 30
0.0
 10
-22.8097
 20
36.3907
 30
0.0
 10
-22.8097
 20
36.3907
 30
0.0
 10
-26.6439
 20
36.8877
 30
0.0
 10
-28.0935
 20
40.7775
 30
0.0
 10
-25.5604
 20
42.0081
 30
0.0
 10
-25.5604
 20
42.0081
 30
0.0
 10
-23.3449
 20
42.38
 30
0.0
 10
-23.2856
 20
40.4363
 30
0.0
 10
-23.5495
 20
40.0088
 30
0.0
 10
-23.5495
 20
40.0088
 30
0.0
 10
-21.9307
 20
40.1852
 30
0.0
 10
-20.5673
 20
42.9549
 30
0.0
 10
-22.9605
 20
44.8171
 30
0.0
 10
-22.9605
 20
44.8171
 30
0.0
 10
-25.0297
 20
46.0189
 30
0.0
 10
-26.3724
 20
45.6691
 30
0.0
 10
-27.6009
 20
44.9809
 30
0.0
 10
-27.6009
 20
44.9809
 30
0.0
 10
-27.3765
 20
45.8946
 30
0.0
 10
-27.231
 20
47.0927
 30
0.0
 10
-27.5308
 20
47.4673
 30
0.0
 10
-27.5308
 20
47.4673
 30
0.0
 10
-27.9345
 20
47.724
 30
0.0
 10
-29.0237
 20
47.0577
 30
0.0
 10
-29.8131
 20
46.6551
 30
0.0
 10
-29.8131
 20
46.6551
 30
0.0
 10
-30.2265
 20
47.7946
 30
0.0
 10
-31.3167
 20
49.0081
 30
0.0
 10
-33.1407
 20
49.2352
 30
0.0
 10
-33.1407
 20
49.2352
 30
0.0
 10
-31.3167
 20
49.4624
 30
0.0
 10
-30.2265
 20
50.6665
 30
0.0
 10
-29.8131
 20
51.8061
 30
0.0
 10
-29.8131
 20
51.8061
 30
0.0
 10
-29.0237
 20
51.4034
 30
0.0
 10
-27.9345
 20
50.7372
 30
0.0
 10
-27.5308
 20
50.9939
 30
0.0
 10
-27.5308
 20
50.9939
 30
0.0
 10
-27.231
 20
51.3685
 30
0.0
 10
-27.3765
 20
52.5666
 30
0.0
 10
-27.6009
 20
53.4802
 30
0.0
 10
-27.6009
 20
53.4802
 30
0.0
 10
-26.3724
 20
52.7921
 30
0.0
 10
-25.0297
 20
52.4422
 30
0.0
 10
-22.9605
 20
53.6441
 30
0.0
 10
-22.9605
 20
53.6441
 30
0.0
 10
-20.5673
 20
55.5063
 30
0.0
 10
-21.9307
 20
58.2759
 30
0.0
 10
-23.5495
 20
58.4523
 30
0.0
 10
-23.5495
 20
58.4523
 30
0.0
 10
-23.2856
 20
58.0249
 30
0.0
 10
-23.3449
 20
56.0811
 30
0.0
 10
-25.5604
 20
56.453
 30
0.0
 10
-25.5604
 20
56.453
 30
0.0
 10
-28.0935
 20
57.6837
 30
0.0
 10
-26.6439
 20
61.5735
 30
0.0
 10
-22.8097
 20
62.0704
 30
0.0
 10
-22.8097
 20
62.0704
 30
0.0
 10
-18.5363
 20
62.4547
 30
0.0
 10
-17.5069
 20
60.0022
 30
0.0
 10
-14.3769
 20
59.4947
 30
0.0
 10
-14.3769
 20
59.4947
 30
0.0
 10
-15.4404
 20
58.7335
 30
0.0
 10
-16.5606
 20
57.2536
 30
0.0
 10
-16.9125
 20
55.8814
 30
0.0
 10
-16.9125
 20
55.8814
 30
0.0
 10
-15.6141
 20
55.1867
 30
0.0
 10
-14.4187
 20
55.6084
 30
0.0
 10
-13.3409
 20
55.6402
 30
0.0
 10
-13.3409
 20
55.6402
 30
0.0
 10
-13.5509
 20
52.1844
 30
0.0
 10
-13.0736
 20
50.9061
 30
0.0
 10
-10.6099
 20
49.2352
 30
0.0
  0
SPLINE
  5
99
330
1F
100
AcDbEntity
  8
layer 1
 62
     7
100
AcDbSpline
210
0.0
220
0.0
230
1.0
 70
    11
 71
     3
 72
    32
 73
    28
 74
     0
 42
0.0000000001
 43
0.0000000001
 12
1.0
 22
0.0
 32
0.0
 13
1.0
 23
0.0
 33
0.0
 40
0.0
 40
0.0
 40
0.0
 40
0.0
 40
0.125
 40
0.125
 40
0.125
 40
0.125
 40
0.25
 40
0.25
 40
0.25
 40
0.25
 40
0.375
 40
0.375
 40
0.375
 40
0.375
 40
0.5
 40
0.5
 40
0.5
 40
0.5
 40
0.625
 40
0.625
 40
0.625
 40
0.625
 40
0.75
 40
0.75
 40
0.75
 40
0.75
 40
1.0
 40
1.0
 40
1.0
 40
1.0
 10
-6.049
 20
29.8823
 30
0.0
 10
-6.7289
 20
30.0749
 30
0.0
 10
-8.4296
 20
29.8371
 30
0.0
 10
-9.2264
 20
28.5722
 30
0.0
 10
-9.2264
 20
28.5722
 30
0.0
 10
-8.7305
 20
31.5905
 30
0.0
 10
-13.1881
 20
32.779
 30
0.0
 10
-13.7949
 20
30.1711
 30
0.0
 10
-13.7949
 20
30.1711
 30
0.0
 10
-10.7635
 20
29.5726
 30
0.0
 10
-11.5295
 20
26.3325
 30
0.0
 10
-14.1714
 20
26.3919
 30
0.0
 10
-14.1714
 20
26.3919
 30
0.0
 10
-15.5331
 20
26.5505
 30
0.0
 10
-16.6463
 20
27.0845
 30
0.0
 10
-17.2686
 20
28.4731
 30
0.0
 10
-17.2686
 20
28.4731
 30
0.0
 10
-18.8451
 20
31.9906
 30
0.0
 10
-15.5547
 20
35.7273
 30
0.0
 10
-11.5713
 20
34.7717
 30
0.0
 10
-11.5713
 20
34.7717
 30
0.0
 10
-8.4522
 20
33.8659
 30
0.0
 10
-6.5031
 20
31.0239
 30
0.0
 10
-6.049
 20
29.8824
 30
0.0
 10
-6.049
 20
29.8824
 30
0.0
 10
-6.049
 20
29.8824
 30
0.0
 10
-6.049
 20
29.8823
 30
0.0
 10
-6.049
 20
29.8823
 30
0.0
  0
SPLINE
  5
9A
330
1F
100
AcDbEntity
  8
layer 1
 62
     7
100
AcDbSpline
210
0.0
220
0.0
230
1.0
 70
    11
 71
     3
 72
    56
 73
    52
 74
     0
 42
0.0000000001
 43
0.0000000001
 12
1.0
 22
0.0
 32
0.0
 13
1.0
 23
0.0
 33
0.0
 40
0.0
 40
0.0
 40
0.0
 40
0.0
 40
0.0714285714285714
 40
0.0714285714285714
 40
0.0714285714285714
 40
0.0714285714285714
 40
0.1428571428571428
 40
0.1428571428571428
 40
0.1428571428571428
 40
0.1428571428571428
 40
0.2142857142857143
 40
0.2142857142857143
 40
0.2142857142857143
 40
0.2142857142857143
 40
0.2857142857142857
 40
0.2857142857142857
 40
0.2857142857142857
 40
0.2857142857142857
 40
0.3571428571428572
 40
0.3571428571428572
 40
0.3571428571428572
 40
0.3571428571428572
 40
0.4285714285714285
 40
0.4285714285714285
 40
0.4285714285714285
 40
0.4285714285714285
 40
0.5
 40
0.5
 40
0.5
 40
0.5
 40
0.5714285714285714
 40
0.5714285714285714
 40
0.5714285714285714
 40
0.5714285714285714
 40
0.6428571428571429
 40
0.6428571428571429
 40
0.6428571428571429
 40
0.6428571428571429
 40
0.7142857142857143
 40
0.7142857142857143
 40
0.7142857142857143
 40
0.7142857142857143
 40
0.7857142857142857
 40
0.7857142857142857
 40
0.7857142857142857
 40
0.7857142857142857
 40
0.8571428571428571
 40
0.8571428571428571
 40
0.8571428571428571
 40
0.8571428571428571
 40
1.0
 40
1.0
 40
1.0
 40
1.0
 10
-8.737
 20
19.1501
 30
0.0
 10
-8.235
 20
19.6521
 30
0.0
 10
-6.6328
 20
19.829
 30
0.0
 10
-5.0005
 20
18.9651
 30
0.0
 10
-5.0005
 20
18.9651
 30
0.0
 10
-5.3704
 20
21.9097
 30
0.0
 10
-2.8261
 20
22.5618
 30
0.0
 10
-3.6351
 20
25.3716
 30
0.0
 10
-3.6351
 20
25.3716
 30
0.0
 10
-4.1156
 20
26.9007
 30
0.0
 10
-7.428
 20
28.0877
 30
0.0
 10
-8.6109
 20
25.24
 30
0.0
 10
-8.6109
 20
25.24
 30
0.0
 10
-8.84
 20
25.7203
 30
0.0
 10
-8.9693
 20
26.104
 30
0.0
 10
-9.323
 20
26.4685
 30
0.0
 10
-9.323
 20
26.4685
 30
0.0
 10
-10.8064
 20
23.968
 30
0.0
 10
-13.563
 20
22.3546
 30
0.0
 10
-16.8882
 20
23.9676
 30
0.0
 10
-16.8882
 20
23.9676
 30
0.0
 10
-15.2199
 20
20.587
 30
0.0
 10
-16.7407
 20
17.9228
 30
0.0
 10
-19.2412
 20
16.4395
 30
0.0
 10
-19.2412
 20
16.4395
 30
0.0
 10
-18.8768
 20
16.0858
 30
0.0
 10
-18.4931
 20
15.9564
 30
0.0
 10
-18.0127
 20
15.7274
 30
0.0
 10
-18.0127
 20
15.7274
 30
0.0
 10
-20.8604
 20
14.5445
 30
0.0
 10
-19.6734
 20
11.2321
 30
0.0
 10
-18.1443
 20
10.7516
 30
0.0
 10
-18.1443
 20
10.7516
 30
0.0
 10
-15.3346
 20
9.9426
 30
0.0
 10
-14.6825
 20
12.4869
 30
0.0
 10
-11.7378
 20
12.117
 30
0.0
 10
-11.7378
 20
12.117
 30
0.0
 10
-12.6018
 20
13.7493
 30
0.0
 10
-12.4248
 20
15.3515
 30
0.0
 10
-11.9229
 20
15.8535
 30
0.0
 10
-11.9229
 20
15.8535
 30
0.0
 10
-11.2611
 20
16.2641
 30
0.0
 10
-9.8875
 20
15.9918
 30
0.0
 10
-8.6138
 20
15.6932
 30
0.0
 10
-8.6138
 20
15.6932
 30
0.0
 10
-8.9678
 20
17.0224
 30
0.0
 10
-9.3987
 20
18.1635
 30
0.0
 10
-8.7369
 20
19.1503
 30
0.0
 10
-8.7369
 20
19.1503
 30
0.0
 10
-8.7369
 20
19.1503
 30
0.0
 10
-8.737
 20
19.1501
 30
0.0
 10
-8.737
 20
19.1501
 30
0.0
  0
SPLINE
  5
9B
330
1F
100
AcDbEntity
  8
layer 1
 62
     7
100
AcDbSpline
210
0.0
220
0.0
230
1.0
 70
    11
 71
     3
 72
    20
 73
    16
 74
     0
 42
0.0000000001
 43
0.0000000001
 12
1.0
 22
0.0
 32
0.0
 13
1.0
 23
0.0
 33
0.0
 40
0.0
 40
0.0
 40
0.0
 40
0.0
 40
0.2
 40
0.2
 40
0.2
 40
0.2
 40
0.4
 40
0.4
 40
0.4
 40
0.4
 40
0.6
 40
0.6
 40
0.6
 40
0.6
 40
1.0
 40
1.0
 40
1.0
 40
1.0
 10
-4.0522
 20
49.2306
 30
0.0
 10
-3.1512
 20
48.5808
 30
0.0
 10
-2.033
 20
47.755
 30
0.0
 10
-1.57
 20
46.0747
 30
0.0
 10
-1.57
 20
46.0747
 30
0.0
 10
-1.1071
 20
47.755
 30
0.0
 10
0.0112
 20
48.5808
 30
0.0
 10
0.9121
 20
49.2306
 30
0.0
 10
0.9121
 20
49.2306
 30
0.0
 10
0.0112
 20
49.8803
 30
0.0
 10
-1.1071
 20
50.7061
 30
0.0
 10
-1.57
 20
52.3865
 30
0.0
 10
-1.57
 20
52.3865
 30
0.0
 10
-2.0329
 20
50.7062
 30
0.0
 10
-3.1512
 20
49.8803
 30
0.0
 10
-4.0522
 20
49.2306
 30
0.0
  0
SPLINE
  5
9C
330
1F
100
AcDbEntity
  8
layer 1
 62
     7
100
AcDbSpline
210
0.0
220
0.0
230
1.0
 70
    11
 71
     3
 72
    32
 73
    28
 74
     0
 42
0.0000000001
 43
0.0000000001
 12
1.0
 22
0.0
 32
0.0
 13
1.0
 23
0.0
 33
0.0
 40
0.0
 40
0.0
 40
0.0
 40
0.0
 40
0.125
 40
0.125
 40
0.125
 40
0.125
 40
0.25
 40
0.25
 40
0.25
 40
0.25
 40
0.375
 40
0.375
 40
0.375
 40
0.375
 40
0.5
 40
0.5
 40
0.5
 40
0.5
 40
0.625
 40
0.625
 40
0.625
 40
0.625
 40
0.75
 40
0.75
 40
0.75
 40
0.75
 40
1.0
 40
1.0
 40
1.0
 40
1.0
 10
19.515
 20
13.1655
 30
0.0
 10
19.7076
 20
13.8454
 30
0.0
 10
19.4698
 20
15.5461
 30
0.0
 10
18.2049
 20
16.3428
 30
0.0
 10
18.2049
 20
16.3428
 30
0.0
 10
21.2232
 20
15.847
 30
0.0
 10
22.4117
 20
20.3046
 30
0.0
 10
19.8038
 20
20.9113
 30
0.0
 10
19.8038
 20
20.9113
 30
0.0
 10
19.2053
 20
17.88
 30
0.0
 10
15.9652
 20
18.646
 30
0.0
 10
16.0246
 20
21.2879
 30
0.0
 10
16.0246
 20
21.2879
 30
0.0
 10
16.1832
 20
22.6496
 30
0.0
 10
16.7172
 20
23.7628
 30
0.0
 10
18.1058
 20
24.3851
 30
0.0
 10
18.1058
 20
24.3851
 30
0.0
 10
21.6233
 20
25.9616
 30
0.0
 10
25.36
 20
22.6712
 30
0.0
 10
24.4044
 20
18.6878
 30
0.0
 10
24.4044
 20
18.6878
 30
0.0
 10
23.4986
 20
15.5687
 30
0.0
 10
20.6566
 20
13.6196
 30
0.0
 10
19.5151
 20
13.1655
 30
0.0
 10
19.5151
 20
13.1655
 30
0.0
 10
19.5151
 20
13.1655
 30
0.0
 10
19.515
 20
13.1655
 30
0.0
 10
19.515
 20
13.1655
 30
0.0
  0
SPLINE
  5
9D
330
1F
100
AcDbEntity
  8
layer 1
 62
     7
100
AcDbSpline
210
0.0
220
0.0
230
1.0
 70
    11
 71
     3
 72
    52
 73
    48
 74
     0
 42
0.0000000001
 43
0.0000000001
 12
1.0
 22
0.0
 32
0.0
 13
1.0
 23
0.0
 33
0.0
 40
0.0
 40
0.0
 40
0.0
 40
0.0
 40
0.0769230769230769
 40
0.0769230769230769
 40
0.0769230769230769
 40
0.0769230769230769
 40
0.1538461538461539
 40
0.1538461538461539
 40
0.1538461538461539
 40
0.1538461538461539
 40
0.2307692307692308
 40
0.2307692307692308
 40
0.2307692307692308
 40
0.2307692307692308
 40
0.3076923076923077
 40
0.3076923076923077
 40
0.3076923076923077
 40
0.3076923076923077
 40
0.3846153846153846
 40
0.3846153846153846
 40
0.3846153846153846
 40
0.3846153846153846
 40
0.4615384615384616
 40
0.4615384615384616
 40
0.4615384615384616
 40
0.4615384615384616
 40
0.5384615384615384
 40
0.5384615384615384
 40
0.5384615384615384
 40
0.5384615384615384
 40
0.6153846153846154
 40
0.6153846153846154
 40
0.6153846153846154
 40
0.6153846153846154
 40
0.6923076923076923
 40
0.6923076923076923
 40
0.6923076923076923
 40
0.6923076923076923
 40
0.7692307692307693
 40
0.7692307692307693
 40
0.7692307692307693
 40
0.7692307692307693
 40
0.8461538461538461
 40
0.8461538461538461
 40
0.8461538461538461
 40
0.8461538461538461
 40
1.0
 40
1.0
 40
1.0
 40
1.0
 10
32.4536
 20
20.4574
 30
0.0
 10
32.4854
 20
21.5352
 30
0.0
 10
32.907
 20
22.7306
 30
0.0
 10
32.2124
 20
24.029
 30
0.0
 10
32.2124
 20
24.029
 30
0.0
 10
30.8401
 20
23.677
 30
0.0
 10
29.3603
 20
22.5569
 30
0.0
 10
28.5991
 20
21.4934
 30
0.0
 10
28.5991
 20
21.4934
 30
0.0
 10
28.0915
 20
24.6234
 30
0.0
 10
25.6391
 20
25.6528
 30
0.0
 10
26.0234
 20
29.9262
 30
0.0
 10
26.0234
 20
29.9262
 30
0.0
 10
26.5203
 20
33.7604
 30
0.0
 10
30.4101
 20
35.21
 30
0.0
 10
31.6407
 20
32.6769
 30
0.0
 10
31.6407
 20
32.6769
 30
0.0
 10
32.0126
 20
30.4614
 30
0.0
 10
30.0689
 20
30.402
 30
0.0
 10
29.6414
 20
30.666
 30
0.0
 10
29.6414
 20
30.666
 30
0.0
 10
29.8179
 20
29.0472
 30
0.0
 10
32.5875
 20
27.6838
 30
0.0
 10
34.4497
 20
30.077
 30
0.0
 10
34.4497
 20
30.077
 30
0.0
 10
35.6516
 20
32.1462
 30
0.0
 10
35.3017
 20
33.4889
 30
0.0
 10
34.6135
 20
34.7173
 30
0.0
 10
34.6135
 20
34.7173
 30
0.0
 10
35.5272
 20
34.493
 30
0.0
 10
36.7253
 20
34.3475
 30
0.0
 10
37.0999
 20
34.6473
 30
0.0
 10
37.0999
 20
34.6473
 30
0.0
 10
37.3566
 20
35.051
 30
0.0
 10
36.6904
 20
36.1402
 30
0.0
 10
36.2877
 20
36.9296
 30
0.0
 10
36.2877
 20
36.9296
 30
0.0
 10
37.3278
 20
37.2634
 30
0.0
 10
38.3622
 20
38.3139
 30
0.0
 10
38.8679
 20
40.2572
 30
0.0
 10
38.8679
 20
40.2572
 30
0.0
 10
38.8679
 20
40.2572
 30
0.0
 10
38.8679
 20
17.7264
 30
0.0
 10
38.8679
 20
17.7264
 30
0.0
 10
38.8679
 20
17.7264
 30
0.0
 10
37.197
 20
20.1901
 30
0.0
 10
35.9094
 20
20.6674
 30
0.0
 10
32.4536
 20
20.4574
 30
0.0
  0
SPLINE
  5
9E
330
1F
100
AcDbEntity
  8
layer 1
 62
     7
100
AcDbSpline
210
0.0
220
0.0
230
1.0
 70
    11
 71
     3
 72
    40
 73
    36
 74
     0
 42
0.0000000001
 43
0.0000000001
 12
1.0
 22
0.0
 32
0.0
 13
1.0
 23
0.0
 33
0.0
 40
0.0
 40
0.0
 40
0.0
 40
0.0
 40
0.1
 40
0.1
 40
0.1
 40
0.1
 40
0.2
 40
0.2
 40
0.2
 40
0.2
 40
0.3
 40
0.3
 40
0.3
 40
0.3
 40
0.4
 40
0.4
 40
0.4
 40
0.4
 40
0.5
 40
0.5
 40
0.5
 40
0.5
 40
0.6
 40
0.6
 40
0.6
 40
0.6
 40
0.7
 40
0.7
 40
0.7
 40
0.7
 40
0.8
 40
0.8
 40
0.8
 40
0.8
 40
1.0
 40
1.0
 40
1.0
 40
1.0
 10
28.7259
 20
45.3192
 30
0.0
 10
29.5536
 20
46.0771
 30
0.0
 10
30.6987
 20
46.5168
 30
0.0
 10
31.6438
 20
46.1136
 30
0.0
 10
31.6438
 20
46.1136
 30
0.0
 10
32.8906
 20
45.5816
 30
0.0
 10
32.1621
 20
44.0261
 30
0.0
 10
30.9016
 20
44.2698
 30
0.0
 10
30.9016
 20
44.2698
 30
0.0
 10
30.9683
 20
43.0561
 30
0.0
 10
32.2216
 20
43.0812
 30
0.0
 10
32.7878
 20
43.0072
 30
0.0
 10
32.7878
 20
43.0072
 30
0.0
 10
32.8063
 20
42.3856
 30
0.0
 10
32.6887
 20
41.2248
 30
0.0
 10
33.9025
 20
41.1581
 30
0.0
 10
33.9025
 20
41.1581
 30
0.0
 10
33.6588
 20
42.4187
 30
0.0
 10
35.2143
 20
43.1472
 30
0.0
 10
35.7463
 20
41.9003
 30
0.0
 10
35.7463
 20
41.9003
 30
0.0
 10
36.1495
 20
40.9553
 30
0.0
 10
35.7097
 20
39.8102
 30
0.0
 10
34.9519
 20
38.9825
 30
0.0
 10
34.9519
 20
38.9825
 30
0.0
 10
31.9593
 20
36.4422
 30
0.0
 10
30.2985
 20
38.3298
 30
0.0
 10
27.2637
 20
37.483
 30
0.0
 10
27.2637
 20
37.483
 30
0.0
 10
28.1658
 20
40.5733
 30
0.0
 10
26.1858
 20
42.3266
 30
0.0
 10
28.726
 20
45.3192
 30
0.0
 10
28.726
 20
45.3192
 30
0.0
 10
28.726
 20
45.3192
 30
0.0
 10
28.7259
 20
45.3192
 30
0.0
 10
28.7259
 20
45.3192
 30
0.0
  0
SPLINE
  5
9F
330
1F
100
AcDbEntity
  8
layer 1
 62
     7
100
AcDbSpline
210
0.0
220
0.0
230
1.0
 70
    11
 71
     3
 72
    40
 73
    36
 74
     0
 42
0.0000000001
 43
0.0000000001
 12
1.0
 22
0.0
 32
0.0
 13
1.0
 23
0.0
 33
0.0
 40
0.0
 40
0.0
 40
0.0
 40
0.0
 40
0.1
 40
0.1
 40
0.1
 40
0.1
 40
0.2
 40
0.2
 40
0.2
 40
0.2
 40
0.3
 40
0.3
 40
0.3
 40
0.3
 40
0.4
 40
0.4
 40
0.4
 40
0.4
 40
0.5
 40
0.5
 40
0.5
 40
0.5
 40
0.6
 40
0.6
 40
0.6
 40
0.6
 40
0.7
 40
0.7
 40
0.7
 40
0.7
 40
0.8
 40
0.8
 40
0.8
 40
0.8
 40
1.0
 40
1.0
 40
1.0
 40
1.0
 10
20.0842
 20
33.6386
 30
0.0
 10
20.2665
 20
33.0
 30
0.0
 10
20.3322
 20
32.0058
 30
0.0
 10
20.165
 20
31.5076
 30
0.0
 10
20.165
 20
31.5076
 30
0.0
 10
19.7643
 20
31.3762
 30
0.0
 10
18.948
 20
31.4012
 30
0.0
 10
18.2513
 20
31.6151
 30
0.0
 10
18.2513
 20
31.6151
 30
0.0
 10
18.5552
 20
30.5283
 30
0.0
 10
18.4591
 20
29.3734
 30
0.0
 10
17.8319
 20
28.0513
 30
0.0
 10
17.8319
 20
28.0513
 30
0.0
 10
19.0986
 20
28.623
 30
0.0
 10
20.161
 20
28.8116
 30
0.0
 10
21.2478
 20
28.5078
 30
0.0
 10
21.2478
 20
28.5078
 30
0.0
 10
21.0339
 20
29.2044
 30
0.0
 10
21.0089
 20
30.0208
 30
0.0
 10
21.1403
 20
30.4214
 30
0.0
 10
21.1403
 20
30.4214
 30
0.0
 10
21.6385
 20
30.5887
 30
0.0
 10
22.6327
 20
30.523
 30
0.0
 10
23.2712
 20
30.3407
 30
0.0
 10
23.2712
 20
30.3407
 30
0.0
 10
23.4101
 20
31.5291
 30
0.0
 10
23.4494
 20
32.9332
 30
0.0
 10
24.2785
 20
34.4978
 30
0.0
 10
24.2785
 20
34.4978
 30
0.0
 10
22.7693
 20
33.7241
 30
0.0
 10
21.2726
 20
33.7773
 30
0.0
 10
20.0843
 20
33.6385
 30
0.0
 10
20.0843
 20
33.6385
 30
0.0
 10
20.0843
 20
33.6385
 30
0.0
 10
20.0842
 20
33.6386
 30
0.0
 10
20.0842
 20
33.6386
 30
0.0
  0
SPLINE
  5
A0
330
1F
100
AcDbEntity
  8
layer 1
 62
     7
100
AcDbSpline
210
0.0
220
0.0
230
1.0
 70
    11
 71
     3
 72
    32
 73
    28
 74
     0
 42
0.0000000001
 43
0.0000000001
 12
1.0
 22
0.0
 32
0.0
 13
1.0
 23
0.0
 33
0.0
 40
0.0
 40
0.0
 40
0.0
 40
0.0
 40
0.125
 40
0.125
 40
0.125
 40
0.125
 40
0.25
 40
0.25
 40
0.25
 40
0.25
 40
0.375
 40
0.375
 40
0.375
 40
0.375
 40
0.5
 40
0.5
 40
0.5
 40
0.5
 40
0.625
 40
0.625
 40
0.625
 40
0.625
 40
0.75
 40
0.75
 40
0.75
 40
0.75
 40
1.0
 40
1.0
 40
1.0
 40
1.0
 10
2.9089
 20
29.8823
 30
0.0
 10
3.5888
 20
30.0749
 30
0.0
 10
5.2896
 20
29.8371
 30
0.0
 10
6.0863
 20
28.5722
 30
0.0
 10
6.0863
 20
28.5722
 30
0.0
 10
5.5905
 20
31.5905
 30
0.0
 10
10.048
 20
32.779
 30
0.0
 10
10.6548
 20
30.1711
 30
0.0
 10
10.6548
 20
30.1711
 30
0.0
 10
7.6234
 20
29.5726
 30
0.0
 10
8.3894
 20
26.3325
 30
0.0
 10
11.0313
 20
26.3919
 30
0.0
 10
11.0313
 20
26.3919
 30
0.0
 10
12.393
 20
26.5505
 30
0.0
 10
13.5062
 20
27.0845
 30
0.0
 10
14.1285
 20
28.4731
 30
0.0
 10
14.1285
 20
28.4731
 30
0.0
 10
15.705
 20
31.9906
 30
0.0
 10
12.4146
 20
35.7273
 30
0.0
 10
8.4312
 20
34.7717
 30
0.0
 10
8.4312
 20
34.7717
 30
0.0
 10
5.3121
 20
33.8659
 30
0.0
 10
3.363
 20
31.0239
 30
0.0
 10
2.9089
 20
29.8824
 30
0.0
 10
2.9089
 20
29.8824
 30
0.0
 10
2.9089
 20
29.8824
 30
0.0
 10
2.9089
 20
29.8823
 30
0.0
 10
2.9089
 20
29.8823
 30
0.0
  0
SPLINE
  5
A1
330
1F
100
AcDbEntity
  8
layer 1
 62
     7
100
AcDbSpline
210
0.0
220
0.0
230
1.0
 70
    11
 71
     3
 72
    56
 73
    52
 74
     0
 42
0.0000000001
 43
0.0000000001
 12
1.0
 22
0.0
 32
0.0
 13
1.0
 23
0.0
 33
0.0
 40
0.0
 40
0.0
 40
0.0
 40
0.0
 40
0.0714285714285714
 40
0.0714285714285714
 40
0.0714285714285714
 40
0.0714285714285714
 40
0.1428571428571428
 40
0.1428571428571428
 40
0.1428571428571428
 40
0.1428571428571428
 40
0.2142857142857143
 40
0.2142857142857143
 40
0.2142857142857143
 40
0.2142857142857143
 40
0.2857142857142857
 40
0.2857142857142857
 40
0.2857142857142857
 40
0.2857142857142857
 40
0.3571428571428572
 40
0.3571428571428572
 40
0.3571428571428572
 40
0.3571428571428572
 40
0.4285714285714285
 40
0.4285714285714285
 40
0.4285714285714285
 40
0.4285714285714285
 40
0.5
 40
0.5
 40
0.5
 40
0.5
 40
0.5714285714285714
 40
0.5714285714285714
 40
0.5714285714285714
 40
0.5714285714285714
 40
0.6428571428571429
 40
0.6428571428571429
 40
0.6428571428571429
 40
0.6428571428571429
 40
0.7142857142857143
 40
0.7142857142857143
 40
0.7142857142857143
 40
0.7142857142857143
 40
0.7857142857142857
 40
0.7857142857142857
 40
0.7857142857142857
 40
0.7857142857142857
 40
0.8571428571428571
 40
0.8571428571428571
 40
0.8571428571428571
 40
0.8571428571428571
 40
1.0
 40
1.0
 40
1.0
 40
1.0
 10
5.5968
 20
19.1501
 30
0.0
 10
5.0948
 20
19.6521
 30
0.0
 10
3.4926
 20
19.829
 30
0.0
 10
1.8604
 20
18.9651
 30
0.0
 10
1.8604
 20
18.9651
 30
0.0
 10
2.2303
 20
21.9097
 30
0.0
 10
-0.314
 20
22.5618
 30
0.0
 10
0.495
 20
25.3716
 30
0.0
 10
0.495
 20
25.3716
 30
0.0
 10
0.9754
 20
26.9007
 30
0.0
 10
4.2879
 20
28.0877
 30
0.0
 10
5.4707
 20
25.24
 30
0.0
 10
5.4707
 20
25.24
 30
0.0
 10
5.6998
 20
25.7203
 30
0.0
 10
5.8291
 20
26.104
 30
0.0
 10
6.1829
 20
26.4685
 30
0.0
 10
6.1829
 20
26.4685
 30
0.0
 10
7.6662
 20
23.968
 30
0.0
 10
10.4229
 20
22.3546
 30
0.0
 10
13.7481
 20
23.9676
 30
0.0
 10
13.7481
 20
23.9676
 30
0.0
 10
12.0797
 20
20.587
 30
0.0
 10
13.6006
 20
17.9228
 30
0.0
 10
16.101
 20
16.4395
 30
0.0
 10
16.101
 20
16.4395
 30
0.0
 10
15.7366
 20
16.0858
 30
0.0
 10
15.3529
 20
15.9564
 30
0.0
 10
14.8725
 20
15.7274
 30
0.0
 10
14.8725
 20
15.7274
 30
0.0
 10
17.7203
 20
14.5445
 30
0.0
 10
16.5332
 20
11.2321
 30
0.0
 10
15.0042
 20
10.7516
 30
0.0
 10
15.0042
 20
10.7516
 30
0.0
 10
12.1944
 20
9.9426
 30
0.0
 10
11.5423
 20
12.4869
 30
0.0
 10
8.5977
 20
12.117
 30
0.0
 10
8.5977
 20
12.117
 30
0.0
 10
9.4616
 20
13.7493
 30
0.0
 10
9.2847
 20
15.3515
 30
0.0
 10
8.7827
 20
15.8535
 30
0.0
 10
8.7827
 20
15.8535
 30
0.0
 10
8.1209
 20
16.2641
 30
0.0
 10
6.7474
 20
15.9918
 30
0.0
 10
5.4736
 20
15.6932
 30
0.0
 10
5.4736
 20
15.6932
 30
0.0
 10
5.8276
 20
17.0224
 30
0.0
 10
6.2586
 20
18.1635
 30
0.0
 10
5.5968
 20
19.1503
 30
0.0
 10
5.5968
 20
19.1503
 30
0.0
 10
5.5968
 20
19.1503
 30
0.0
 10
5.5968
 20
19.1501
 30
0.0
 10
5.5968
 20
19.1501
 30
0.0
  0
SPLINE
  5
A2
330
1F
100
AcDbEntity
  8
layer 1
 62
     7
100
AcDbSpline
210
0.0
220
0.0
230
1.0
 70
    11
 71
     3
 72
    44
 73
    40
 74
     0
 42
0.0000000001
 43
0.0000000001
 12
1.0
 22
0.0
 32
0.0
 13
1.0
 23
0.0
 33
0.0
 40
0.0
 40
0.0
 40
0.0
 40
0.0
 40
0.0909090909090909
 40
0.0909090909090909
 40
0.0909090909090909
 40
0.0909090909090909
 40
0.1818181818181818
 40
0.1818181818181818
 40
0.1818181818181818
 40
0.1818181818181818
 40
0.2727272727272727
 40
0.2727272727272727
 40
0.2727272727272727
 40
0.2727272727272727
 40
0.3636363636363636
 40
0.3636363636363636
 40
0.3636363636363636
 40
0.3636363636363636
 40
0.4545454545454545
 40
0.4545454545454545
 40
0.4545454545454545
 40
0.4545454545454545
 40
0.5454545454545454
 40
0.5454545454545454
 40
0.5454545454545454
 40
0.5454545454545454
 40
0.6363636363636364
 40
0.6363636363636364
 40
0.6363636363636364
 40
0.6363636363636364
 40
0.7272727272727273
 40
0.7272727272727273
 40
0.7272727272727273
 40
0.7272727272727273
 40
0.8181818181818182
 40
0.8181818181818182
 40
0.8181818181818182
 40
0.8181818181818182
 40
1.0
 40
1.0
 40
1.0
 40
1.0
 10
3.717
 20
37.7913
 30
0.0
 10
5.5883
 20
39.9745
 30
0.0
 10
6.2368
 20
41.0753
 30
0.0
 10
6.5036
 20
42.5218
 30
0.0
 10
6.5036
 20
42.5218
 30
0.0
 10
6.9214
 20
44.4057
 30
0.0
 10
5.5854
 20
46.6577
 30
0.0
 10
3.7958
 20
46.7177
 30
0.0
 10
3.7958
 20
46.7177
 30
0.0
 10
1.3621
 20
46.7778
 30
0.0
 10
0.8457
 20
44.4551
 30
0.0
 10
2.2924
 20
43.3604
 30
0.0
 10
2.2924
 20
43.3604
 30
0.0
 10
1.2084
 20
42.2373
 30
0.0
 10
-1.5407
 20
42.8215
 30
0.0
 10
-1.5701
 20
44.8581
 30
0.0
 10
-1.5701
 20
44.8581
 30
0.0
 10
-1.5994
 20
42.8215
 30
0.0
 10
-4.3486
 20
42.2373
 30
0.0
 10
-5.4326
 20
43.3604
 30
0.0
 10
-5.4326
 20
43.3604
 30
0.0
 10
-3.9858
 20
44.4551
 30
0.0
 10
-4.5022
 20
46.7778
 30
0.0
 10
-6.936
 20
46.7177
 30
0.0
 10
-6.936
 20
46.7177
 30
0.0
 10
-8.7255
 20
46.6577
 30
0.0
 10
-10.0616
 20
44.4057
 30
0.0
 10
-9.6438
 20
42.5218
 30
0.0
 10
-9.6438
 20
42.5218
 30
0.0
 10
-9.3769
 20
41.0753
 30
0.0
 10
-8.7285
 20
39.9745
 30
0.0
 10
-6.8572
 20
37.7913
 30
0.0
 10
-6.8572
 20
37.7913
 30
0.0
 10
-4.464
 20
35.4892
 30
0.0
 10
-2.5177
 20
32.3251
 30
0.0
 10
-1.5701
 20
29.0016
 30
0.0
 10
-1.5701
 20
29.0016
 30
0.0
 10
-0.6224
 20
32.3251
 30
0.0
 10
1.3239
 20
35.4893
 30
0.0
 10
3.717
 20
37.7913
 30
0.0
  0
SPLINE
  5
A3
330
1F
100
AcDbEntity
  8
layer 1
 62
     7
100
AcDbSpline
210
0.0
220
0.0
230
1.0
 70
    11
 71
     3
 72
    32
 73
    28
 74
     0
 42
0.0000000001
 43
0.0000000001
 12
1.0
 22
0.0
 32
0.0
 13
1.0
 23
0.0
 33
0.0
 40
0.0
 40
0.0
 40
0.0
 40
0.0
 40
0.125
 40
0.125
 40
0.125
 40
0.125
 40
0.25
 40
0.25
 40
0.25
 40
0.25
 40
0.375
 40
0.375
 40
0.375
 40
0.375
 40
0.5
 40
0.5
 40
0.5
 40
0.5
 40
0.625
 40
0.625
 40
0.625
 40
0.625
 40
0.75
 40
0.75
 40
0.75
 40
0.75
 40
1.0
 40
1.0
 40
1.0
 40
1.0
 10
-22.6551
 20
4.2662
 30
0.0
 10
-22.8477
 20
3.5863
 30
0.0
 10
-22.6099
 20
1.8856
 30
0.0
 10
-21.345
 20
1.0888
 30
0.0
 10
-21.345
 20
1.0888
 30
0.0
 10
-24.3633
 20
1.5847
 30
0.0
 10
-25.5518
 20
-2.8729
 30
0.0
 10
-22.9439
 20
-3.4796
 30
0.0
 10
-22.9439
 20
-3.4796
 30
0.0
 10
-22.3454
 20
-0.4483
 30
0.0
 10
-19.1053
 20
-1.2143
 30
0.0
 10
-19.1647
 20
-3.8562
 30
0.0
 10
-19.1647
 20
-3.8562
 30
0.0
 10
-19.3233
 20
-5.2179
 30
0.0
 10
-19.8573
 20
-6.3311
 30
0.0
 10
-21.2459
 20
-6.9534
 30
0.0
 10
-21.2459
 20
-6.9534
 30
0.0
 10
-24.7634
 20
-8.5299
 30
0.0
 10
-28.5001
 20
-5.2395
 30
0.0
 10
-27.5445
 20
-1.2561
 30
0.0
 10
-27.5445
 20
-1.2561
 30
0.0
 10
-26.6387
 20
1.863
 30
0.0
 10
-23.7967
 20
3.8121
 30
0.0
 10
-22.6552
 20
4.2662
 30
0.0
 10
-22.6552
 20
4.2662
 30
0.0
 10
-22.6552
 20
4.2662
 30
0.0
 10
-22.6551
 20
4.2662
 30
0.0
 10
-22.6551
 20
4.2662
 30
0.0
  0
SPLINE
  5
A4
330
1F
100
AcDbEntity
  8
layer 1
 62
     7
100
AcDbSpline
210
0.0
220
0.0
230
1.0
 70
    11
 71
     3
 72
    52
 73
    48
 74
     0
 42
0.0000000001
 43
0.0000000001
 12
1.0
 22
0.0
 32
0.0
 13
1.0
 23
0.0
 33
0.0
 40
0.0
 40
0.0
 40
0.0
 40
0.0
 40
0.0769230769230769
 40
0.0769230769230769
 40
0.0769230769230769
 40
0.0769230769230769
 40
0.1538461538461539
 40
0.1538461538461539
 40
0.1538461538461539
 40
0.1538461538461539
 40
0.2307692307692308
 40
0.2307692307692308
 40
0.2307692307692308
 40
0.2307692307692308
 40
0.3076923076923077
 40
0.3076923076923077
 40
0.3076923076923077
 40
0.3076923076923077
 40
0.3846153846153846
 40
0.3846153846153846
 40
0.3846153846153846
 40
0.3846153846153846
 40
0.4615384615384616
 40
0.4615384615384616
 40
0.4615384615384616
 40
0.4615384615384616
 40
0.5384615384615384
 40
0.5384615384615384
 40
0.5384615384615384
 40
0.5384615384615384
 40
0.6153846153846154
 40
0.6153846153846154
 40
0.6153846153846154
 40
0.6153846153846154
 40
0.6923076923076923
 40
0.6923076923076923
 40
0.6923076923076923
 40
0.6923076923076923
 40
0.7692307692307693
 40
0.7692307692307693
 40
0.7692307692307693
 40
0.7692307692307693
 40
0.8461538461538461
 40
0.8461538461538461
 40
0.8461538461538461
 40
0.8461538461538461
 40
1.0
 40
1.0
 40
1.0
 40
1.0
 10
-35.5937
 20
-3.0257
 30
0.0
 10
-35.6255
 20
-4.1035
 30
0.0
 10
-36.0471
 20
-5.2989
 30
0.0
 10
-35.3525
 20
-6.5973
 30
0.0
 10
-35.3525
 20
-6.5973
 30
0.0
 10
-33.9802
 20
-6.2454
 30
0.0
 10
-32.5004
 20
-5.1252
 30
0.0
 10
-31.7392
 20
-4.0617
 30
0.0
 10
-31.7392
 20
-4.0617
 30
0.0
 10
-31.2316
 20
-7.1917
 30
0.0
 10
-28.7792
 20
-8.2211
 30
0.0
 10
-29.1635
 20
-12.4945
 30
0.0
 10
-29.1635
 20
-12.4945
 30
0.0
 10
-29.6604
 20
-16.3287
 30
0.0
 10
-33.5502
 20
-17.7783
 30
0.0
 10
-34.7808
 20
-15.2452
 30
0.0
 10
-34.7808
 20
-15.2452
 30
0.0
 10
-35.1527
 20
-13.0297
 30
0.0
 10
-33.209
 20
-12.9704
 30
0.0
 10
-32.7815
 20
-13.2343
 30
0.0
 10
-32.7815
 20
-13.2343
 30
0.0
 10
-32.958
 20
-11.6155
 30
0.0
 10
-35.7276
 20
-10.2521
 30
0.0
 10
-37.5898
 20
-12.6453
 30
0.0
 10
-37.5898
 20
-12.6453
 30
0.0
 10
-38.7917
 20
-14.7145
 30
0.0
 10
-38.4418
 20
-16.0572
 30
0.0
 10
-37.7536
 20
-17.2857
 30
0.0
 10
-37.7536
 20
-17.2857
 30
0.0
 10
-38.6673
 20
-17.0613
 30
0.0
 10
-39.8654
 20
-16.9158
 30
0.0
 10
-40.24
 20
-17.2156
 30
0.0
 10
-40.24
 20
-17.2156
 30
0.0
 10
-40.4967
 20
-17.6193
 30
0.0
 10
-39.8305
 20
-18.7085
 30
0.0
 10
-39.4278
 20
-19.4979
 30
0.0
 10
-39.4278
 20
-19.4979
 30
0.0
 10
-40.4679
 20
-19.8317
 30
0.0
 10
-41.5023
 20
-20.8822
 30
0.0
 10
-42.008
 20
-22.8255
 30
0.0
 10
-42.008
 20
-22.8255
 30
0.0
 10
-42.008
 20
-22.8255
 30
0.0
 10
-42.008
 20
-0.2947
 30
0.0
 10
-42.008
 20
-0.2947
 30
0.0
 10
-42.008
 20
-0.2947
 30
0.0
 10
-40.3371
 20
-2.7584
 30
0.0
 10
-39.0495
 20
-3.2357
 30
0.0
 10
-35.5937
 20
-3.0257
 30
0.0
  0
SPLINE
  5
A5
330
1F
100
AcDbEntity
  8
layer 1
 62
     7
100
AcDbSpline
210
0.0
220
0.0
230
1.0
 70
    11
 71
     3
 72
    40
 73
    36
 74
     0
 42
0.0000000001
 43
0.0000000001
 12
1.0
 22
0.0
 32
0.0
 13
1.0
 23
0.0
 33
0.0
 40
0.0
 40
0.0
 40
0.0
 40
0.0
 40
0.1
 40
0.1
 40
0.1
 40
0.1
 40
0.2
 40
0.2
 40
0.2
 40
0.2
 40
0.3
 40
0.3
 40
0.3
 40
0.3
 40
0.4
 40
0.4
 40
0.4
 40
0.4
 40
0.5
 40
0.5
 40
0.5
 40
0.5
 40
0.6
 40
0.6
 40
0.6
 40
0.6
 40
0.7
 40
0.7
 40
0.7
 40
0.7
 40
0.8
 40
0.8
 40
0.8
 40
0.8
 40
1.0
 40
1.0
 40
1.0
 40
1.0
 10
-31.866
 20
-27.8875
 30
0.0
 10
-32.6937
 20
-28.6454
 30
0.0
 10
-33.8388
 20
-29.0851
 30
0.0
 10
-34.7839
 20
-28.6819
 30
0.0
 10
-34.7839
 20
-28.6819
 30
0.0
 10
-36.0307
 20
-28.1499
 30
0.0
 10
-35.3022
 20
-26.5944
 30
0.0
 10
-34.0417
 20
-26.8381
 30
0.0
 10
-34.0417
 20
-26.8381
 30
0.0
 10
-34.1084
 20
-25.6243
 30
0.0
 10
-35.3617
 20
-25.6495
 30
0.0
 10
-35.9279
 20
-25.5755
 30
0.0
 10
-35.9279
 20
-25.5755
 30
0.0
 10
-35.9464
 20
-24.9539
 30
0.0
 10
-35.8288
 20
-23.7931
 30
0.0
 10
-37.0426
 20
-23.7264
 30
0.0
 10
-37.0426
 20
-23.7264
 30
0.0
 10
-36.7989
 20
-24.987
 30
0.0
 10
-38.3544
 20
-25.7155
 30
0.0
 10
-38.8864
 20
-24.4686
 30
0.0
 10
-38.8864
 20
-24.4686
 30
0.0
 10
-39.2896
 20
-23.5236
 30
0.0
 10
-38.8498
 20
-22.3785
 30
0.0
 10
-38.092
 20
-21.5508
 30
0.0
 10
-38.092
 20
-21.5508
 30
0.0
 10
-35.0994
 20
-19.0105
 30
0.0
 10
-33.4386
 20
-20.8981
 30
0.0
 10
-30.4038
 20
-20.0514
 30
0.0
 10
-30.4038
 20
-20.0514
 30
0.0
 10
-31.3059
 20
-23.1416
 30
0.0
 10
-29.3259
 20
-24.8949
 30
0.0
 10
-31.8661
 20
-27.8875
 30
0.0
 10
-31.8661
 20
-27.8875
 30
0.0
 10
-31.8661
 20
-27.8875
 30
0.0
 10
-31.866
 20
-27.8875
 30
0.0
 10
-31.866
 20
-27.8875
 30
0.0
  0
SPLINE
  5
A6
330
1F
100
AcDbEntity
  8
layer 1
 62
     7
100
AcDbSpline
210
0.0
220
0.0
230
1.0
 70
    11
 71
     3
 72
    40
 73
    36
 74
     0
 42
0.0000000001
 43
0.0000000001
 12
1.0
 22
0.0
 32
0.0
 13
1.0
 23
0.0
 33
0.0
 40
0.0
 40
0.0
 40
0.0
 40
0.0
 40
0.1
 40
0.1
 40
0.1
 40
0.1
 40
0.2
 40
0.2
 40
0.2
 40
0.2
 40
0.3
 40
0.3
 40
0.3
 40
0.3
 40
0.4
 40
0.4
 40
0.4
 40
0.4
 40
0.5
 40
0.5
 40
0.5
 40
0.5
 40
0.6
 40
0.6
 40
0.6
 40
0.6
 40
0.7
 40
0.7
 40
0.7
 40
0.7
 40
0.8
 40
0.8
 40
0.8
 40
0.8
 40
1.0
 40
1.0
 40
1.0
 40
1.0
 10
-23.2243
 20
-16.2069
 30
0.0
 10
-23.4066
 20
-15.5684
 30
0.0
 10
-23.4723
 20
-14.5742
 30
0.0
 10
-23.3051
 20
-14.0759
 30
0.0
 10
-23.3051
 20
-14.0759
 30
0.0
 10
-22.9044
 20
-13.9446
 30
0.0
 10
-22.0881
 20
-13.9696
 30
0.0
 10
-21.3914
 20
-14.1835
 30
0.0
 10
-21.3914
 20
-14.1835
 30
0.0
 10
-21.6953
 20
-13.0966
 30
0.0
 10
-21.5992
 20
-11.9418
 30
0.0
 10
-20.972
 20
-10.6196
 30
0.0
 10
-20.972
 20
-10.6196
 30
0.0
 10
-22.2387
 20
-11.1914
 30
0.0
 10
-23.301
 20
-11.38
 30
0.0
 10
-24.3879
 20
-11.0762
 30
0.0
 10
-24.3879
 20
-11.0762
 30
0.0
 10
-24.174
 20
-11.7728
 30
0.0
 10
-24.149
 20
-12.5892
 30
0.0
 10
-24.2803
 20
-12.9898
 30
0.0
 10
-24.2803
 20
-12.9898
 30
0.0
 10
-24.7786
 20
-13.157
 30
0.0
 10
-25.7728
 20
-13.0913
 30
0.0
 10
-26.4113
 20
-12.9091
 30
0.0
 10
-26.4113
 20
-12.9091
 30
0.0
 10
-26.5502
 20
-14.0974
 30
0.0
 10
-26.5895
 20
-15.5016
 30
0.0
 10
-27.4186
 20
-17.0662
 30
0.0
 10
-27.4186
 20
-17.0662
 30
0.0
 10
-25.9094
 20
-16.2924
 30
0.0
 10
-24.4127
 20
-16.3457
 30
0.0
 10
-23.2244
 20
-16.2069
 30
0.0
 10
-23.2244
 20
-16.2069
 30
0.0
 10
-23.2244
 20
-16.2069
 30
0.0
 10
-23.2243
 20
-16.2069
 30
0.0
 10
-23.2243
 20
-16.2069
 30
0.0
  0
SPLINE
  5
A7
330
1F
100
AcDbEntity
  8
layer 1
 62
     7
100
AcDbSpline
210
0.0
220
0.0
230
1.0
 70
    11
 71
     3
 72
    32
 73
    28
 74
     0
 42
0.0000000001
 43
0.0000000001
 12
1.0
 22
0.0
 32
0.0
 13
1.0
 23
0.0
 33
0.0
 40
0.0
 40
0.0
 40
0.0
 40
0.0
 40
0.125
 40
0.125
 40
0.125
 40
0.125
 40
0.25
 40
0.25
 40
0.25
 40
0.25
 40
0.375
 40
0.375
 40
0.375
 40
0.375
 40
0.5
 40
0.5
 40
0.5
 40
0.5
 40
0.625
 40
0.625
 40
0.625
 40
0.625
 40
0.75
 40
0.75
 40
0.75
 40
0.75
 40
1.0
 40
1.0
 40
1.0
 40
1.0
 10
-6.049
 20
-12.4507
 30
0.0
 10
-6.7289
 20
-12.6432
 30
0.0
 10
-8.4296
 20
-12.4055
 30
0.0
 10
-9.2264
 20
-11.1406
 30
0.0
 10
-9.2264
 20
-11.1406
 30
0.0
 10
-8.7305
 20
-14.1588
 30
0.0
 10
-13.1881
 20
-15.3473
 30
0.0
 10
-13.7949
 20
-12.7395
 30
0.0
 10
-13.7949
 20
-12.7395
 30
0.0
 10
-10.7635
 20
-12.141
 30
0.0
 10
-11.5295
 20
-8.9009
 30
0.0
 10
-14.1714
 20
-8.9603
 30
0.0
 10
-14.1714
 20
-8.9603
 30
0.0
 10
-15.5331
 20
-9.1189
 30
0.0
 10
-16.6463
 20
-9.6529
 30
0.0
 10
-17.2686
 20
-11.0415
 30
0.0
 10
-17.2686
 20
-11.0415
 30
0.0
 10
-18.8451
 20
-14.559
 30
0.0
 10
-15.5547
 20
-18.2957
 30
0.0
 10
-11.5713
 20
-17.3401
 30
0.0
 10
-11.5713
 20
-17.3401
 30
0.0
 10
-8.4522
 20
-16.4343
 30
0.0
 10
-6.5031
 20
-13.5922
 30
0.0
 10
-6.049
 20
-12.4508
 30
0.0
 10
-6.049
 20
-12.4508
 30
0.0
 10
-6.049
 20
-12.4508
 30
0.0
 10
-6.049
 20
-12.4507
 30
0.0
 10
-6.049
 20
-12.4507
 30
0.0
  0
SPLINE
  5
A8
330
1F
100
AcDbEntity
  8
layer 1
 62
     7
100
AcDbSpline
210
0.0
220
0.0
230
1.0
 70
    11
 71
     3
 72
    56
 73
    52
 74
     0
 42
0.0000000001
 43
0.0000000001
 12
1.0
 22
0.0
 32
0.0
 13
1.0
 23
0.0
 33
0.0
 40
0.0
 40
0.0
 40
0.0
 40
0.0
 40
0.0714285714285714
 40
0.0714285714285714
 40
0.0714285714285714
 40
0.0714285714285714
 40
0.1428571428571428
 40
0.1428571428571428
 40
0.1428571428571428
 40
0.1428571428571428
 40
0.2142857142857143
 40
0.2142857142857143
 40
0.2142857142857143
 40
0.2142857142857143
 40
0.2857142857142857
 40
0.2857142857142857
 40
0.2857142857142857
 40
0.2857142857142857
 40
0.3571428571428572
 40
0.3571428571428572
 40
0.3571428571428572
 40
0.3571428571428572
 40
0.4285714285714285
 40
0.4285714285714285
 40
0.4285714285714285
 40
0.4285714285714285
 40
0.5
 40
0.5
 40
0.5
 40
0.5
 40
0.5714285714285714
 40
0.5714285714285714
 40
0.5714285714285714
 40
0.5714285714285714
 40
0.6428571428571429
 40
0.6428571428571429
 40
0.6428571428571429
 40
0.6428571428571429
 40
0.7142857142857143
 40
0.7142857142857143
 40
0.7142857142857143
 40
0.7142857142857143
 40
0.7857142857142857
 40
0.7857142857142857
 40
0.7857142857142857
 40
0.7857142857142857
 40
0.8571428571428571
 40
0.8571428571428571
 40
0.8571428571428571
 40
0.8571428571428571
 40
1.0
 40
1.0
 40
1.0
 40
1.0
 10
-8.737
 20
-1.7185
 30
0.0
 10
-8.235
 20
-2.2205
 30
0.0
 10
-6.6328
 20
-2.3974
 30
0.0
 10
-5.0005
 20
-1.5335
 30
0.0
 10
-5.0005
 20
-1.5335
 30
0.0
 10
-5.3704
 20
-4.4781
 30
0.0
 10
-2.8261
 20
-5.1302
 30
0.0
 10
-3.6351
 20
-7.94
 30
0.0
 10
-3.6351
 20
-7.94
 30
0.0
 10
-4.1156
 20
-9.469
 30
0.0
 10
-7.428
 20
-10.6561
 30
0.0
 10
-8.6109
 20
-7.8083
 30
0.0
 10
-8.6109
 20
-7.8083
 30
0.0
 10
-8.84
 20
-8.2887
 30
0.0
 10
-8.9693
 20
-8.6724
 30
0.0
 10
-9.323
 20
-9.0368
 30
0.0
 10
-9.323
 20
-9.0368
 30
0.0
 10
-10.8064
 20
-6.5364
 30
0.0
 10
-13.563
 20
-4.923
 30
0.0
 10
-16.8882
 20
-6.536
 30
0.0
 10
-16.8882
 20
-6.536
 30
0.0
 10
-15.2199
 20
-3.1553
 30
0.0
 10
-16.7407
 20
-0.4912
 30
0.0
 10
-19.2412
 20
0.9921
 30
0.0
 10
-19.2412
 20
0.9921
 30
0.0
 10
-18.8768
 20
1.3459
 30
0.0
 10
-18.4931
 20
1.4752
 30
0.0
 10
-18.0127
 20
1.7042
 30
0.0
 10
-18.0127
 20
1.7042
 30
0.0
 10
-20.8604
 20
2.8871
 30
0.0
 10
-19.6734
 20
6.1996
 30
0.0
 10
-18.1443
 20
6.68
 30
0.0
 10
-18.1443
 20
6.68
 30
0.0
 10
-15.3346
 20
7.489
 30
0.0
 10
-14.6825
 20
4.9447
 30
0.0
 10
-11.7378
 20
5.3146
 30
0.0
 10
-11.7378
 20
5.3146
 30
0.0
 10
-12.6018
 20
3.6824
 30
0.0
 10
-12.4248
 20
2.0801
 30
0.0
 10
-11.9229
 20
1.5781
 30
0.0
 10
-11.9229
 20
1.5781
 30
0.0
 10
-11.2611
 20
1.1675
 30
0.0
 10
-9.8875
 20
1.4398
 30
0.0
 10
-8.6138
 20
1.7384
 30
0.0
 10
-8.6138
 20
1.7384
 30
0.0
 10
-8.9678
 20
0.4092
 30
0.0
 10
-9.3987
 20
-0.7319
 30
0.0
 10
-8.7369
 20
-1.7186
 30
0.0
 10
-8.7369
 20
-1.7186
 30
0.0
 10
-8.7369
 20
-1.7186
 30
0.0
 10
-8.737
 20
-1.7185
 30
0.0
 10
-8.737
 20
-1.7185
 30
0.0
  0
SPLINE
  5
A9
330
1F
100
AcDbEntity
  8
layer 1
 62
     7
100
AcDbSpline
210
0.0
220
0.0
230
1.0
 70
    11
 71
     3
 72
    44
 73
    40
 74
     0
 42
0.0000000001
 43
0.0000000001
 12
1.0
 22
0.0
 32
0.0
 13
1.0
 23
0.0
 33
0.0
 40
0.0
 40
0.0
 40
0.0
 40
0.0
 40
0.0909090909090909
 40
0.0909090909090909
 40
0.0909090909090909
 40
0.0909090909090909
 40
0.1818181818181818
 40
0.1818181818181818
 40
0.1818181818181818
 40
0.1818181818181818
 40
0.2727272727272727
 40
0.2727272727272727
 40
0.2727272727272727
 40
0.2727272727272727
 40
0.3636363636363636
 40
0.3636363636363636
 40
0.3636363636363636
 40
0.3636363636363636
 40
0.4545454545454545
 40
0.4545454545454545
 40
0.4545454545454545
 40
0.4545454545454545
 40
0.5454545454545454
 40
0.5454545454545454
 40
0.5454545454545454
 40
0.5454545454545454
 40
0.6363636363636364
 40
0.6363636363636364
 40
0.6363636363636364
 40
0.6363636363636364
 40
0.7272727272727273
 40
0.7272727272727273
 40
0.7272727272727273
 40
0.7272727272727273
 40
0.8181818181818182
 40
0.8181818181818182
 40
0.8181818181818182
 40
0.8181818181818182
 40
1.0
 40
1.0
 40
1.0
 40
1.0
 10
32.9931
 20
4.8827
 30
0.0
 10
34.0877
 20
6.3294
 30
0.0
 10
36.4105
 20
5.813
 30
0.0
 10
36.3504
 20
3.3793
 30
0.0
 10
36.3504
 20
3.3793
 30
0.0
 10
36.2903
 20
1.5898
 30
0.0
 10
34.0383
 20
0.2537
 30
0.0
 10
32.1544
 20
0.6715
 30
0.0
 10
32.1544
 20
0.6715
 30
0.0
 10
30.7079
 20
0.9383
 30
0.0
 10
29.6071
 20
1.5868
 30
0.0
 10
27.4239
 20
3.4581
 30
0.0
 10
27.4239
 20
3.4581
 30
0.0
 10
25.1219
 20
5.8512
 30
0.0
 10
21.9577
 20
7.7975
 30
0.0
 10
18.6343
 20
8.7158
 30
0.0
 10
18.6343
 20
8.7158
 30
0.0
 10
21.9578
 20
9.6342
 30
0.0
 10
25.1219
 20
11.5805
 30
0.0
 10
27.4239
 20
13.9736
 30
0.0
 10
27.4239
 20
13.9736
 30
0.0
 10
29.6071
 20
15.8449
 30
0.0
 10
30.7079
 20
16.4934
 30
0.0
 10
32.1544
 20
16.7602
 30
0.0
 10
32.1544
 20
16.7602
 30
0.0
 10
34.0383
 20
17.178
 30
0.0
 10
36.2903
 20
15.842
 30
0.0
 10
36.3504
 20
14.0524
 30
0.0
 10
36.3504
 20
14.0524
 30
0.0
 10
36.4105
 20
11.6187
 30
0.0
 10
34.0877
 20
11.1023
 30
0.0
 10
32.9931
 20
12.549
 30
0.0
 10
32.9931
 20
12.549
 30
0.0
 10
31.8699
 20
11.465
 30
0.0
 10
32.4542
 20
8.7158
 30
0.0
 10
34.4908
 20
8.7158
 30
0.0
 10
34.4908
 20
8.7158
 30
0.0
 10
32.4542
 20
8.7158
 30
0.0
 10
31.8699
 20
5.9667
 30
0.0
 10
32.9931
 20
4.8827
 30
0.0
  0
SPLINE
  5
AA
330
1F
100
AcDbEntity
  8
layer 1
 62
     7
100
AcDbSpline
210
0.0
220
0.0
230
1.0
 70
    11
 71
     3
 72
    16
 73
    12
 74
     0
 42
0.0000000001
 43
0.0000000001
 12
1.0
 22
0.0
 32
0.0
 13
1.0
 23
0.0
 33
0.0
 40
0.0
 40
0.0
 40
0.0
 40
0.0
 40
0.25
 40
0.25
 40
0.25
 40
0.25
 40
0.5
 40
0.5
 40
0.5
 40
0.5
 40
1.0
 40
1.0
 40
1.0
 40
1.0
 10
38.8679
 20
6.263
 30
0.0
 10
38.2134
 20
7.164
 30
0.0
 10
37.3877
 20
8.2822
 30
0.0
 10
35.7073
 20
8.7158
 30
0.0
 10
35.7073
 20
8.7158
 30
0.0
 10
37.3876
 20
9.1494
 30
0.0
 10
38.2134
 20
10.2677
 30
0.0
 10
38.8679
 20
11.1687
 30
0.0
 10
38.8679
 20
11.1687
 30
0.0
 10
38.8679
 20
11.1687
 30
0.0
 10
38.8679
 20
6.263
 30
0.0
 10
38.8679
 20
6.263
 30
0.0
  0
SPLINE
  5
AB
330
1F
100
AcDbEntity
  8
layer 1
 62
     7
100
AcDbSpline
210
0.0
220
0.0
230
1.0
 70
    11
 71
     3
 72
    32
 73
    28
 74
     0
 42
0.0000000001
 43
0.0000000001
 12
1.0
 22
0.0
 32
0.0
 13
1.0
 23
0.0
 33
0.0
 40
0.0
 40
0.0
 40
0.0
 40
0.0
 40
0.125
 40
0.125
 40
0.125
 40
0.125
 40
0.25
 40
0.25
 40
0.25
 40
0.25
 40
0.375
 40
0.375
 40
0.375
 40
0.375
 40
0.5
 40
0.5
 40
0.5
 40
0.5
 40
0.625
 40
0.625
 40
0.625
 40
0.625
 40
0.75
 40
0.75
 40
0.75
 40
0.75
 40
1.0
 40
1.0
 40
1.0
 40
1.0
 10
19.515
 20
4.2662
 30
0.0
 10
19.7076
 20
3.5863
 30
0.0
 10
19.4698
 20
1.8856
 30
0.0
 10
18.2049
 20
1.0888
 30
0.0
 10
18.2049
 20
1.0888
 30
0.0
 10
21.2232
 20
1.5847
 30
0.0
 10
22.4117
 20
-2.8729
 30
0.0
 10
19.8038
 20
-3.4796
 30
0.0
 10
19.8038
 20
-3.4796
 30
0.0
 10
19.2053
 20
-0.4483
 30
0.0
 10
15.9652
 20
-1.2143
 30
0.0
 10
16.0246
 20
-3.8562
 30
0.0
 10
16.0246
 20
-3.8562
 30
0.0
 10
16.1832
 20
-5.2179
 30
0.0
 10
16.7172
 20
-6.3311
 30
0.0
 10
18.1058
 20
-6.9534
 30
0.0
 10
18.1058
 20
-6.9534
 30
0.0
 10
21.6233
 20
-8.5299
 30
0.0
 10
25.36
 20
-5.2395
 30
0.0
 10
24.4044
 20
-1.2561
 30
0.0
 10
24.4044
 20
-1.2561
 30
0.0
 10
23.4986
 20
1.863
 30
0.0
 10
20.6566
 20
3.8121
 30
0.0
 10
19.5151
 20
4.2662
 30
0.0
 10
19.5151
 20
4.2662
 30
0.0
 10
19.5151
 20
4.2662
 30
0.0
 10
19.515
 20
4.2662
 30
0.0
 10
19.515
 20
4.2662
 30
0.0
  0
SPLINE
  5
AC
330
1F
100
AcDbEntity
  8
layer 1
 62
     7
100
AcDbSpline
210
0.0
220
0.0
230
1.0
 70
    11
 71
     3
 72
    52
 73
    48
 74
     0
 42
0.0000000001
 43
0.0000000001
 12
1.0
 22
0.0
 32
0.0
 13
1.0
 23
0.0
 33
0.0
 40
0.0
 40
0.0
 40
0.0
 40
0.0
 40
0.0769230769230769
 40
0.0769230769230769
 40
0.0769230769230769
 40
0.0769230769230769
 40
0.1538461538461539
 40
0.1538461538461539
 40
0.1538461538461539
 40
0.1538461538461539
 40
0.2307692307692308
 40
0.2307692307692308
 40
0.2307692307692308
 40
0.2307692307692308
 40
0.3076923076923077
 40
0.3076923076923077
 40
0.3076923076923077
 40
0.3076923076923077
 40
0.3846153846153846
 40
0.3846153846153846
 40
0.3846153846153846
 40
0.3846153846153846
 40
0.4615384615384616
 40
0.4615384615384616
 40
0.4615384615384616
 40
0.4615384615384616
 40
0.5384615384615384
 40
0.5384615384615384
 40
0.5384615384615384
 40
0.5384615384615384
 40
0.6153846153846154
 40
0.6153846153846154
 40
0.6153846153846154
 40
0.6153846153846154
 40
0.6923076923076923
 40
0.6923076923076923
 40
0.6923076923076923
 40
0.6923076923076923
 40
0.7692307692307693
 40
0.7692307692307693
 40
0.7692307692307693
 40
0.7692307692307693
 40
0.8461538461538461
 40
0.8461538461538461
 40
0.8461538461538461
 40
0.8461538461538461
 40
1.0
 40
1.0
 40
1.0
 40
1.0
 10
32.4536
 20
-3.0257
 30
0.0
 10
32.4854
 20
-4.1035
 30
0.0
 10
32.907
 20
-5.2989
 30
0.0
 10
32.2124
 20
-6.5973
 30
0.0
 10
32.2124
 20
-6.5973
 30
0.0
 10
30.8401
 20
-6.2454
 30
0.0
 10
29.3603
 20
-5.1252
 30
0.0
 10
28.5991
 20
-4.0617
 30
0.0
 10
28.5991
 20
-4.0617
 30
0.0
 10
28.0915
 20
-7.1917
 30
0.0
 10
25.6391
 20
-8.2211
 30
0.0
 10
26.0234
 20
-12.4945
 30
0.0
 10
26.0234
 20
-12.4945
 30
0.0
 10
26.5203
 20
-16.3287
 30
0.0
 10
30.4101
 20
-17.7783
 30
0.0
 10
31.6407
 20
-15.2452
 30
0.0
 10
31.6407
 20
-15.2452
 30
0.0
 10
32.0126
 20
-13.0297
 30
0.0
 10
30.0689
 20
-12.9704
 30
0.0
 10
29.6414
 20
-13.2343
 30
0.0
 10
29.6414
 20
-13.2343
 30
0.0
 10
29.8179
 20
-11.6155
 30
0.0
 10
32.5875
 20
-10.2521
 30
0.0
 10
34.4497
 20
-12.6453
 30
0.0
 10
34.4497
 20
-12.6453
 30
0.0
 10
35.6516
 20
-14.7145
 30
0.0
 10
35.3017
 20
-16.0572
 30
0.0
 10
34.6135
 20
-17.2857
 30
0.0
 10
34.6135
 20
-17.2857
 30
0.0
 10
35.5272
 20
-17.0613
 30
0.0
 10
36.7253
 20
-16.9158
 30
0.0
 10
37.0999
 20
-17.2156
 30
0.0
 10
37.0999
 20
-17.2156
 30
0.0
 10
37.3566
 20
-17.6193
 30
0.0
 10
36.6904
 20
-18.7085
 30
0.0
 10
36.2877
 20
-19.4979
 30
0.0
 10
36.2877
 20
-19.4979
 30
0.0
 10
37.3278
 20
-19.8317
 30
0.0
 10
38.3622
 20
-20.8822
 30
0.0
 10
38.8679
 20
-22.8255
 30
0.0
 10
38.8679
 20
-22.8255
 30
0.0
 10
38.8679
 20
-22.8255
 30
0.0
 10
38.8679
 20
-0.2947
 30
0.0
 10
38.8679
 20
-0.2947
 30
0.0
 10
38.8679
 20
-0.2947
 30
0.0
 10
37.197
 20
-2.7584
 30
0.0
 10
35.9094
 20
-3.2357
 30
0.0
 10
32.4536
 20
-3.0257
 30
0.0
  0
SPLINE
  5
AD
330
1F
100
AcDbEntity
  8
layer 1
 62
     7
100
AcDbSpline
210
0.0
220
0.0
230
1.0
 70
    11
 71
     3
 72
    40
 73
    36
 74
     0
 42
0.0000000001
 43
0.0000000001
 12
1.0
 22
0.0
 32
0.0
 13
1.0
 23
0.0
 33
0.0
 40
0.0
 40
0.0
 40
0.0
 40
0.0
 40
0.1
 40
0.1
 40
0.1
 40
0.1
 40
0.2
 40
0.2
 40
0.2
 40
0.2
 40
0.3
 40
0.3
 40
0.3
 40
0.3
 40
0.4
 40
0.4
 40
0.4
 40
0.4
 40
0.5
 40
0.5
 40
0.5
 40
0.5
 40
0.6
 40
0.6
 40
0.6
 40
0.6
 40
0.7
 40
0.7
 40
0.7
 40
0.7
 40
0.8
 40
0.8
 40
0.8
 40
0.8
 40
1.0
 40
1.0
 40
1.0
 40
1.0
 10
28.7259
 20
-27.8875
 30
0.0
 10
29.5536
 20
-28.6454
 30
0.0
 10
30.6987
 20
-29.0851
 30
0.0
 10
31.6438
 20
-28.6819
 30
0.0
 10
31.6438
 20
-28.6819
 30
0.0
 10
32.8906
 20
-28.1499
 30
0.0
 10
32.1621
 20
-26.5944
 30
0.0
 10
30.9016
 20
-26.8381
 30
0.0
 10
30.9016
 20
-26.8381
 30
0.0
 10
30.9683
 20
-25.6243
 30
0.0
 10
32.2216
 20
-25.6495
 30
0.0
 10
32.7878
 20
-25.5755
 30
0.0
 10
32.7878
 20
-25.5755
 30
0.0
 10
32.8063
 20
-24.9539
 30
0.0
 10
32.6887
 20
-23.7931
 30
0.0
 10
33.9025
 20
-23.7264
 30
0.0
 10
33.9025
 20
-23.7264
 30
0.0
 10
33.6588
 20
-24.987
 30
0.0
 10
35.2143
 20
-25.7155
 30
0.0
 10
35.7463
 20
-24.4686
 30
0.0
 10
35.7463
 20
-24.4686
 30
0.0
 10
36.1495
 20
-23.5236
 30
0.0
 10
35.7097
 20
-22.3785
 30
0.0
 10
34.9519
 20
-21.5508
 30
0.0
 10
34.9519
 20
-21.5508
 30
0.0
 10
31.9593
 20
-19.0105
 30
0.0
 10
30.2985
 20
-20.8981
 30
0.0
 10
27.2637
 20
-20.0514
 30
0.0
 10
27.2637
 20
-20.0514
 30
0.0
 10
28.1658
 20
-23.1416
 30
0.0
 10
26.1858
 20
-24.8949
 30
0.0
 10
28.726
 20
-27.8875
 30
0.0
 10
28.726
 20
-27.8875
 30
0.0
 10
28.726
 20
-27.8875
 30
0.0
 10
28.7259
 20
-27.8875
 30
0.0
 10
28.7259
 20
-27.8875
 30
0.0
  0
SPLINE
  5
AE
330
1F
100
AcDbEntity
  8
layer 1
 62
     7
100
AcDbSpline
210
0.0
220
0.0
230
1.0
 70
    11
 71
     3
 72
    40
 73
    36
 74
     0
 42
0.0000000001
 43
0.0000000001
 12
1.0
 22
0.0
 32
0.0
 13
1.0
 23
0.0
 33
0.0
 40
0.0
 40
0.0
 40
0.0
 40
0.0
 40
0.1
 40
0.1
 40
0.1
 40
0.1
 40
0.2
 40
0.2
 40
0.2
 40
0.2
 40
0.3
 40
0.3
 40
0.3
 40
0.3
 40
0.4
 40
0.4
 40
0.4
 40
0.4
 40
0.5
 40
0.5
 40
0.5
 40
0.5
 40
0.6
 40
0.6
 40
0.6
 40
0.6
 40
0.7
 40
0.7
 40
0.7
 40
0.7
 40
0.8
 40
0.8
 40
0.8
 40
0.8
 40
1.0
 40
1.0
 40
1.0
 40
1.0
 10
20.0842
 20
-16.2069
 30
0.0
 10
20.2665
 20
-15.5684
 30
0.0
 10
20.3322
 20
-14.5742
 30
0.0
 10
20.165
 20
-14.0759
 30
0.0
 10
20.165
 20
-14.0759
 30
0.0
 10
19.7643
 20
-13.9446
 30
0.0
 10
18.948
 20
-13.9696
 30
0.0
 10
18.2513
 20
-14.1835
 30
0.0
 10
18.2513
 20
-14.1835
 30
0.0
 10
18.5552
 20
-13.0966
 30
0.0
 10
18.4591
 20
-11.9418
 30
0.0
 10
17.8319
 20
-10.6196
 30
0.0
 10
17.8319
 20
-10.6196
 30
0.0
 10
19.0986
 20
-11.1914
 30
0.0
 10
20.161
 20
-11.38
 30
0.0
 10
21.2478
 20
-11.0762
 30
0.0
 10
21.2478
 20
-11.0762
 30
0.0
 10
21.0339
 20
-11.7728
 30
0.0
 10
21.0089
 20
-12.5892
 30
0.0
 10
21.1403
 20
-12.9898
 30
0.0
 10
21.1403
 20
-12.9898
 30
0.0
 10
21.6385
 20
-13.157
 30
0.0
 10
22.6327
 20
-13.0913
 30
0.0
 10
23.2712
 20
-12.9091
 30
0.0
 10
23.2712
 20
-12.9091
 30
0.0
 10
23.4101
 20
-14.0974
 30
0.0
 10
23.4494
 20
-15.5016
 30
0.0
 10
24.2785
 20
-17.0662
 30
0.0
 10
24.2785
 20
-17.0662
 30
0.0
 10
22.7693
 20
-16.2924
 30
0.0
 10
21.2726
 20
-16.3457
 30
0.0
 10
20.0843
 20
-16.2069
 30
0.0
 10
20.0843
 20
-16.2069
 30
0.0
 10
20.0843
 20
-16.2069
 30
0.0
 10
20.0842
 20
-16.2069
 30
0.0
 10
20.0842
 20
-16.2069
 30
0.0
  0
SPLINE
  5
AF
330
1F
100
AcDbEntity
  8
layer 1
 62
     7
100
AcDbSpline
210
0.0
220
0.0
230
1.0
 70
    11
 71
     3
 72
    32
 73
    28
 74
     0
 42
0.0000000001
 43
0.0000000001
 12
1.0
 22
0.0
 32
0.0
 13
1.0
 23
0.0
 33
0.0
 40
0.0
 40
0.0
 40
0.0
 40
0.0
 40
0.125
 40
0.125
 40
0.125
 40
0.125
 40
0.25
 40
0.25
 40
0.25
 40
0.25
 40
0.375
 40
0.375
 40
0.375
 40
0.375
 40
0.5
 40
0.5
 40
0.5
 40
0.5
 40
0.625
 40
0.625
 40
0.625
 40
0.625
 40
0.75
 40
0.75
 40
0.75
 40
0.75
 40
1.0
 40
1.0
 40
1.0
 40
1.0
 10
2.9089
 20
-12.4507
 30
0.0
 10
3.5888
 20
-12.6432
 30
0.0
 10
5.2896
 20
-12.4055
 30
0.0
 10
6.0863
 20
-11.1406
 30
0.0
 10
6.0863
 20
-11.1406
 30
0.0
 10
5.5905
 20
-14.1588
 30
0.0
 10
10.048
 20
-15.3473
 30
0.0
 10
10.6548
 20
-12.7395
 30
0.0
 10
10.6548
 20
-12.7395
 30
0.0
 10
7.6234
 20
-12.141
 30
0.0
 10
8.3894
 20
-8.9009
 30
0.0
 10
11.0313
 20
-8.9603
 30
0.0
 10
11.0313
 20
-8.9603
 30
0.0
 10
12.393
 20
-9.1189
 30
0.0
 10
13.5062
 20
-9.6529
 30
0.0
 10
14.1285
 20
-11.0415
 30
0.0
 10
14.1285
 20
-11.0415
 30
0.0
 10
15.705
 20
-14.559
 30
0.0
 10
12.4146
 20
-18.2957
 30
0.0
 10
8.4312
 20
-17.3401
 30
0.0
 10
8.4312
 20
-17.3401
 30
0.0
 10
5.3121
 20
-16.4343
 30
0.0
 10
3.363
 20
-13.5922
 30
0.0
 10
2.9089
 20
-12.4508
 30
0.0
 10
2.9089
 20
-12.4508
 30
0.0
 10
2.9089
 20
-12.4508
 30
0.0
 10
2.9089
 20
-12.4507
 30
0.0
 10
2.9089
 20
-12.4507
 30
0.0
  0
SPLINE
  5
B0
330
1F
100
AcDbEntity
  8
layer 1
 62
     7
100
AcDbSpline
210
0.0
220
0.0
230
1.0
 70
    11
 71
     3
 72
    56
 73
    52
 74
     0
 42
0.0000000001
 43
0.0000000001
 12
1.0
 22
0.0
 32
0.0
 13
1.0
 23
0.0
 33
0.0
 40
0.0
 40
0.0
 40
0.0
 40
0.0
 40
0.0714285714285714
 40
0.0714285714285714
 40
0.0714285714285714
 40
0.0714285714285714
 40
0.1428571428571428
 40
0.1428571428571428
 40
0.1428571428571428
 40
0.1428571428571428
 40
0.2142857142857143
 40
0.2142857142857143
 40
0.2142857142857143
 40
0.2142857142857143
 40
0.2857142857142857
 40
0.2857142857142857
 40
0.2857142857142857
 40
0.2857142857142857
 40
0.3571428571428572
 40
0.3571428571428572
 40
0.3571428571428572
 40
0.3571428571428572
 40
0.4285714285714285
 40
0.4285714285714285
 40
0.4285714285714285
 40
0.4285714285714285
 40
0.5
 40
0.5
 40
0.5
 40
0.5
 40
0.5714285714285714
 40
0.5714285714285714
 40
0.5714285714285714
 40
0.5714285714285714
 40
0.6428571428571429
 40
0.6428571428571429
 40
0.6428571428571429
 40
0.6428571428571429
 40
0.7142857142857143
 40
0.7142857142857143
 40
0.7142857142857143
 40
0.7142857142857143
 40
0.7857142857142857
 40
0.7857142857142857
 40
0.7857142857142857
 40
0.7857142857142857
 40
0.8571428571428571
 40
0.8571428571428571
 40
0.8571428571428571
 40
0.8571428571428571
 40
1.0
 40
1.0
 40
1.0
 40
1.0
 10
5.5968
 20
-1.7185
 30
0.0
 10
5.0948
 20
-2.2205
 30
0.0
 10
3.4926
 20
-2.3974
 30
0.0
 10
1.8604
 20
-1.5335
 30
0.0
 10
1.8604
 20
-1.5335
 30
0.0
 10
2.2303
 20
-4.4781
 30
0.0
 10
-0.314
 20
-5.1302
 30
0.0
 10
0.495
 20
-7.94
 30
0.0
 10
0.495
 20
-7.94
 30
0.0
 10
0.9754
 20
-9.469
 30
0.0
 10
4.2879
 20
-10.6561
 30
0.0
 10
5.4707
 20
-7.8083
 30
0.0
 10
5.4707
 20
-7.8083
 30
0.0
 10
5.6998
 20
-8.2887
 30
0.0
 10
5.8291
 20
-8.6724
 30
0.0
 10
6.1829
 20
-9.0368
 30
0.0
 10
6.1829
 20
-9.0368
 30
0.0
 10
7.6662
 20
-6.5364
 30
0.0
 10
10.4229
 20
-4.923
 30
0.0
 10
13.7481
 20
-6.536
 30
0.0
 10
13.7481
 20
-6.536
 30
0.0
 10
12.0797
 20
-3.1553
 30
0.0
 10
13.6006
 20
-0.4912
 30
0.0
 10
16.101
 20
0.9921
 30
0.0
 10
16.101
 20
0.9921
 30
0.0
 10
15.7366
 20
1.3459
 30
0.0
 10
15.3529
 20
1.4752
 30
0.0
 10
14.8725
 20
1.7042
 30
0.0
 10
14.8725
 20
1.7042
 30
0.0
 10
17.7203
 20
2.8871
 30
0.0
 10
16.5332
 20
6.1996
 30
0.0
 10
15.0042
 20
6.68
 30
0.0
 10
15.0042
 20
6.68
 30
0.0
 10
12.1944
 20
7.489
 30
0.0
 10
11.5423
 20
4.9447
 30
0.0
 10
8.5977
 20
5.3146
 30
0.0
 10
8.5977
 20
5.3146
 30
0.0
 10
9.4616
 20
3.6824
 30
0.0
 10
9.2847
 20
2.0801
 30
0.0
 10
8.7827
 20
1.5781
 30
0.0
 10
8.7827
 20
1.5781
 30
0.0
 10
8.1209
 20
1.1675
 30
0.0
 10
6.7474
 20
1.4398
 30
0.0
 10
5.4736
 20
1.7384
 30
0.0
 10
5.4736
 20
1.7384
 30
0.0
 10
5.8276
 20
0.4092
 30
0.0
 10
6.2586
 20
-0.7319
 30
0.0
 10
5.5968
 20
-1.7186
 30
0.0
 10
5.5968
 20
-1.7186
 30
0.0
 10
5.5968
 20
-1.7186
 30
0.0
 10
5.5968
 20
-1.7185
 30
0.0
 10
5.5968
 20
-1.7185
 30
0.0
  0
SPLINE
  5
B1
330
1F
100
AcDbEntity
  8
layer 1
 62
     7
100
AcDbSpline
210
0.0
220
0.0
230
1.0
 70
    11
 71
     3
 72
    44
 73
    40
 74
     0
 42
0.0000000001
 43
0.0000000001
 12
1.0
 22
0.0
 32
0.0
 13
1.0
 23
0.0
 33
0.0
 40
0.0
 40
0.0
 40
0.0
 40
0.0
 40
0.0909090909090909
 40
0.0909090909090909
 40
0.0909090909090909
 40
0.0909090909090909
 40
0.1818181818181818
 40
0.1818181818181818
 40
0.1818181818181818
 40
0.1818181818181818
 40
0.2727272727272727
 40
0.2727272727272727
 40
0.2727272727272727
 40
0.2727272727272727
 40
0.3636363636363636
 40
0.3636363636363636
 40
0.3636363636363636
 40
0.3636363636363636
 40
0.4545454545454545
 40
0.4545454545454545
 40
0.4545454545454545
 40
0.4545454545454545
 40
0.5454545454545454
 40
0.5454545454545454
 40
0.5454545454545454
 40
0.5454545454545454
 40
0.6363636363636364
 40
0.6363636363636364
 40
0.6363636363636364
 40
0.6363636363636364
 40
0.7272727272727273
 40
0.7272727272727273
 40
0.7272727272727273
 40
0.7272727272727273
 40
0.8181818181818182
 40
0.8181818181818182
 40
0.8181818181818182
 40
0.8181818181818182
 40
1.0
 40
1.0
 40
1.0
 40
1.0
 10
3.717
 20
-20.3597
 30
0.0
 10
5.5883
 20
-22.5429
 30
0.0
 10
6.2368
 20
-23.6437
 30
0.0
 10
6.5036
 20
-25.0901
 30
0.0
 10
6.5036
 20
-25.0901
 30
0.0
 10
6.9214
 20
-26.9741
 30
0.0
 10
5.5854
 20
-29.226
 30
0.0
 10
3.7958
 20
-29.2861
 30
0.0
 10
3.7958
 20
-29.2861
 30
0.0
 10
1.3621
 20
-29.3462
 30
0.0
 10
0.8457
 20
-27.0235
 30
0.0
 10
2.2924
 20
-25.9288
 30
0.0
 10
2.2924
 20
-25.9288
 30
0.0
 10
1.2084
 20
-24.8056
 30
0.0
 10
-1.5407
 20
-25.3899
 30
0.0
 10
-1.5701
 20
-27.4265
 30
0.0
 10
-1.5701
 20
-27.4265
 30
0.0
 10
-1.5994
 20
-25.3899
 30
0.0
 10
-4.3486
 20
-24.8056
 30
0.0
 10
-5.4326
 20
-25.9288
 30
0.0
 10
-5.4326
 20
-25.9288
 30
0.0
 10
-3.9858
 20
-27.0235
 30
0.0
 10
-4.5022
 20
-29.3462
 30
0.0
 10
-6.936
 20
-29.2861
 30
0.0
 10
-6.936
 20
-29.2861
 30
0.0
 10
-8.7255
 20
-29.226
 30
0.0
 10
-10.0616
 20
-26.9741
 30
0.0
 10
-9.6438
 20
-25.0901
 30
0.0
 10
-9.6438
 20
-25.0901
 30
0.0
 10
-9.3769
 20
-23.6437
 30
0.0
 10
-8.7285
 20
-22.5429
 30
0.0
 10
-6.8572
 20
-20.3597
 30
0.0
 10
-6.8572
 20
-20.3597
 30
0.0
 10
-4.464
 20
-18.0576
 30
0.0
 10
-2.5177
 20
-14.8934
 30
0.0
 10
-1.5701
 20
-11.57
 30
0.0
 10
-1.5701
 20
-11.57
 30
0.0
 10
-0.6224
 20
-14.8935
 30
0.0
 10
1.3239
 20
-18.0577
 30
0.0
 10
3.717
 20
-20.3597
 30
0.0
  0
SPLINE
  5
B2
330
1F
100
AcDbEntity
  8
layer 1
 62
     7
100
AcDbSpline
210
0.0
220
0.0
230
1.0
 70
    11
 71
     3
 72
    20
 73
    16
 74
     0
 42
0.0000000001
 43
0.0000000001
 12
1.0
 22
0.0
 32
0.0
 13
1.0
 23
0.0
 33
0.0
 40
0.0
 40
0.0
 40
0.0
 40
0.0
 40
0.2
 40
0.2
 40
0.2
 40
0.2
 40
0.4
 40
0.4
 40
0.4
 40
0.4
 40
0.6
 40
0.6
 40
0.6
 40
0.6
 40
1.0
 40
1.0
 40
1.0
 40
1.0
 10
-1.5169
 20
12.2589
 30
0.0
 10
0.5056
 20
12.2589
 30
0.0
 10
2.1458
 20
10.6187
 30
0.0
 10
2.1458
 20
8.5962
 30
0.0
 10
2.1458
 20
8.5962
 30
0.0
 10
2.1458
 20
6.5737
 30
0.0
 10
0.5056
 20
4.9335
 30
0.0
 10
-1.5169
 20
4.9335
 30
0.0
 10
-1.5169
 20
4.9335
 30
0.0
 10
-3.5394
 20
4.9335
 30
0.0
 10
-5.1796
 20
6.5737
 30
0.0
 10
-5.1796
 20
8.5962
 30
0.0
 10
-5.1796
 20
8.5962
 30
0.0
 10
-5.1796
 20
10.6187
 30
0.0
 10
-3.5394
 20
12.2589
 30
0.0
 10
-1.5169
 20
12.2589
 30
0.0
  0
ENDSEC
  0
SECTION
  2
OBJECTS
  0
DICTIONARY
  5
C
330
0
100
AcDbDictionary
281
     1
  3
ACAD_GROUP
350
D
  3
ACAD_LAYOUT
350
1A
  3
ACAD_MATERIAL
350
3B
  3
ACAD_MLEADERSTYLE
350
D5
  3
ACAD_MLINESTYLE
350
17
  3
ACAD_PLOTSETTINGS
350
19
  3
ACAD_PLOTSTYLENAME
350
E
  3
ACAD_TABLESTYLE
350
D4
  3
ACAD_VISUALSTYLE
350
2A
  0
DICTIONARY
  5
D
102
{ACAD_REACTORS
330
C
102
}
330
C
100
AcDbDictionary
281
     1
  0
DICTIONARY
  5
1A
102
{ACAD_REACTORS
330
C
102
}
330
C
100
AcDbDictionary
281
     1
  3
Layout1
350
1E
  3
Layout2
350
26
  3
Model
350
22
  0
DICTIONARY
  5
3B
102
{ACAD_REACTORS
330
C
102
}
330
C
100
AcDbDictionary
281
     1
  3
ByBlock
350
3D
  3
ByLayer
350
3C
  3
Global
350
3E
  0
DICTIONARY
  5
D5
102
{ACAD_REACTORS
330
C
102
}
330
C
100
AcDbDictionary
281
     1
  0
DICTIONARY
  5
17
102
{ACAD_REACTORS
330
C
102
}
330
C
100
AcDbDictionary
281
     1
  3
Standard
350
18
  0
DICTIONARY
  5
19
102
{ACAD_REACTORS
330
C
102
}
330
C
100
AcDbDictionary
281
     1
  0
ACDBDICTIONARYWDFLT
  5
E
102
{ACAD_REACTORS
330
C
102
}
330
C
100
AcDbDictionary
281
     1
  3
Normal
350
F
100
AcDbDictionaryWithDefault
340
F
  0
DICTIONARY
  5
D4
102
{ACAD_REACTORS
330
C
102
}
330
C
100
AcDbDictionary
281
     1
  0
DICTIONARY
  5
2A
102
{ACAD_REACTORS
330
C
102
}
330
C
100
AcDbDictionary
281
     1
  3
2dWireframe
350
2F
  3
3D Hidden
350
31
  3
3dWireframe
350
30
  3
Basic
350
32
  3
Brighten
350
36
  3
ColorChange
350
3A
  3
Conceptual
350
34
  3
Dim
350
35
  3
Facepattern
350
39
  3
Flat
350
2B
  3
FlatWithEdges
350
2C
  3
Gouraud
350
2D
  3
GouraudWithEdges
350
2E
  3
Linepattern
350
38
  3
Realistic
350
33
  3
Thicken
350
37
  0
LAYOUT
  5
1E
102
{ACAD_REACTORS
330
1A
102
}
330
1A
100
AcDbPlotSettings
  1

  2
none_device
  4

  6

 40
0.0
 41
0.0
 42
0.0
 43
0.0
 44
0.0
 45
0.0
 46
0.0
 47
0.0
 48
0.0
 49
0.0
140
0.0
141
0.0
142
1.0
143
1.0
 70
   688
 72
     0
 73
     0
 74
     5
  7

 75
    16
 76
     0
 77
     2
 78
   300
147
1.0
148
0.0
149
0.0
100
AcDbLayout
  1
Layout1
 70
     1
 71
     1
 10
0.0
 20
0.0
 11
12.0
 21
9.0
 12
0.0
 22
0.0
 32
0.0
 14
1.000000000000000E+20
 24
1.000000000000000E+20
 34
1.000000000000000E+20
 15
-1.000000000000000E+20
 25
-1.000000000000000E+20
 35
-1.000000000000000E+20
146
0.0
 13
0.0
 23
0.0
 33
0.0
 16
1.0
 26
0.0
 36
0.0
 17
0.0
 27
1.0
 37
0.0
 76
     0
330
1B
  0
LAYOUT
  5
26
102
{ACAD_REACTORS
330
1A
102
}
330
1A
100
AcDbPlotSettings
  1

  2
none_device
  4

  6

 40
0.0
 41
0.0
 42
0.0
 43
0.0
 44
0.0
 45
0.0
 46
0.0
 47
0.0
 48
0.0
 49
0.0
140
0.0
141
0.0
142
1.0
143
1.0
 70
   688
 72
     0
 73
     0
 74
     5
  7

 75
    16
 76
     0
 77
     2
 78
   300
147
1.0
148
0.0
149
0.0
100
AcDbLayout
  1
Layout2
 70
     1
 71
     2
 10
0.0
 20
0.0
 11
0.0
 21
0.0
 12
0.0
 22
0.0
 32
0.0
 14
0.0
 24
0.0
 34
0.0
 15
0.0
 25
0.0
 35
0.0
146
0.0
 13
0.0
 23
0.0
 33
0.0
 16
1.0
 26
0.0
 36
0.0
 17
0.0
 27
1.0
 37
0.0
 76
     0
330
23
  0
LAYOUT
  5
22
102
{ACAD_REACTORS
330
1A
102
}
330
1A
100
AcDbPlotSettings
  1

  2
none_device
  4

  6

 40
0.0
 41
0.0
 42
0.0
 43
0.0
 44
0.0
 45
0.0
 46
0.0
 47
0.0
 48
0.0
 49
0.0
140
0.0
141
0.0
142
1.0
143
1.0
 70
  1712
 72
     0
 73
     0
 74
     0
  7

 75
     0
 76
     0
 77
     2
 78
   300
147
1.0
148
0.0
149
0.0
100
AcDbLayout
  1
Model
 70
     1
 71
     0
 10
0.0
 20
0.0
 11
12.0
 21
9.0
 12
0.0
 22
0.0
 32
0.0
 14
-43.8243
 24
-114.8806
 34
0.0
 15
40.7906
 25
131.9331
 35
0.0
146
0.0
 13
0.0
 23
0.0
 33
0.0
 16
1.0
 26
0.0
 36
0.0
 17
0.0
 27
1.0
 37
0.0
 76
     0
330
1F
331
29
  0
MATERIAL
  5
3D
102
{ACAD_REACTORS
330
3B
102
}
330
3B
100
AcDbMaterial
  1
ByBlock
 72
     1
 94
      127
  0
MATERIAL
  5
3C
102
{ACAD_REACTORS
330
3B
102
}
330
3B
100
AcDbMaterial
  1
ByLayer
 72
     1
 94
      127
  0
MATERIAL
  5
3E
102
{ACAD_REACTORS
330
3B
102
}
330
3B
100
AcDbMaterial
  1
Global
 72
     1
 94
      127
  0
MLINESTYLE
  5
18
102
{ACAD_REACTORS
330
17
102
}
330
17
100
AcDbMlineStyle
  2
Standard
 70
     0
  3

 62
   256
 51
90.0
 52
90.0
 71
     2
 49
0.5
 62
   256
  6
BYLAYER
 49
-0.5
 62
   256
  6
BYLAYER
  0
ACDBPLACEHOLDER
  5
F
102
{ACAD_REACTORS
330
E
102
}
330
E
  0
VISUALSTYLE
  5
2F
102
{ACAD_REACTORS
330
2A
102
}
102
{ACAD_XDICTIONARY
360
BC
102
}
330
2A
100
AcDbVisualStyle
  2
2dWireframe
 70
     4
 71
     0
 72
     2
 73
     0
 90
        0
 40
-0.6
 41
-30.0
 62
     5
 63
     7
421
 16777215
 74
     1
 91
        4
 64
     7
 65
   257
 75
     1
175
     1
 42
1.0
 92
        0
 66
   257
 43
1.0
 76
     1
 77
     6
 78
     2
 67
     7
 79
     5
170
     0
171
     0
290
     0
174
     0
 93
        1
 44
0.0
173
     0
291
     0
 45
0.0
  0
VISUALSTYLE
  5
31
102
{ACAD_REACTORS
330
2A
102
}
102
{ACAD_XDICTIONARY
360
C0
102
}
330
2A
100
AcDbVisualStyle
  2
3D Hidden
 70
     6
 71
     1
 72
     2
 73
     2
 90
        0
 40
-0.6
 41
-30.0
 62
     5
 63
     7
421
 16777215
 74
     2
 91
        2
 64
     7
 65
   257
 75
     2
175
     1
 42
40.0
 92
        0
 66
   257
 43
1.0
 76
     1
 77
     6
 78
     2
 67
     7
 79
     3
170
     0
171
     0
290
     0
174
     0
 93
        1
 44
0.0
173
     0
291
     0
 45
0.0
  0
VISUALSTYLE
  5
30
102
{ACAD_REACTORS
330
2A
102
}
102
{ACAD_XDICTIONARY
360
BE
102
}
330
2A
100
AcDbVisualStyle
  2
3dWireframe
 70
     5
 71
     0
 72
     2
 73
     0
 90
        0
 40
-0.6
 41
-30.0
 62
     5
 63
     7
421
 16777215
 74
     1
 91
        4
 64
     7
 65
   257
 75
     1
175
     1
 42
1.0
 92
        0
 66
   257
 43
1.0
 76
     1
 77
     6
 78
     2
 67
     7
 79
     5
170
     0
171
     0
290
     0
174
     0
 93
        1
 44
0.0
173
     0
291
     0
 45
0.0
  0
VISUALSTYLE
  5
32
102
{ACAD_REACTORS
330
2A
102
}
102
{ACAD_XDICTIONARY
360
C2
102
}
330
2A
100
AcDbVisualStyle
  2
Basic
 70
     7
 71
     1
 72
     0
 73
     1
 90
        0
 40
-0.6
 41
-30.0
 62
     5
 63
     7
421
 16777215
 74
     0
 91
        4
 64
     7
 65
   257
 75
     1
175
     1
 42
1.0
 92
        8
 66
     7
 43
1.0
 76
     1
 77
     6
 78
     2
 67
     7
 79
     5
170
     0
171
     0
290
     0
174
     0
 93
        1
 44
0.0
173
     0
291
     1
 45
0.0
  0
VISUALSTYLE
  5
36
102
{ACAD_REACTORS
330
2A
102
}
102
{ACAD_XDICTIONARY
360
CA
102
}
330
2A
100
AcDbVisualStyle
  2
Brighten
 70
    12
 71
     2
 72
     2
 73
     0
 90
        0
 40
-0.6
 41
-30.0
 62
     5
 63
     7
421
 16777215
 74
     1
 91
        4
 64
     7
 65
   257
 75
     1
175
     1
 42
1.0
 92
        8
 66
     7
 43
1.0
 76
     1
 77
     6
 78
     2
 67
     7
 79
     5
170
     0
171
     0
290
     0
174
     0
 93
        1
 44
50.0
173
     0
291
     1
 45
0.0
  0
VISUALSTYLE
  5
3A
102
{ACAD_REACTORS
330
2A
102
}
102
{ACAD_XDICTIONARY
360
D2
102
}
330
2A
100
AcDbVisualStyle
  2
ColorChange
 70
    16
 71
     2
 72
     2
 73
     3
 90
        0
 40
-0.6
 41
-30.0
 62
     5
 63
     8
421
  8421504
 74
     1
 91
        4
 64
     7
 65
   257
 75
     1
175
     1
 42
1.0
 92
        8
 66
     8
424
  8421504
 43
1.0
 76
     1
 77
     6
 78
     2
 67
     7
 79
     5
170
     0
171
     0
290
     0
174
     0
 93
        1
 44
0.0
173
     0
291
     1
 45
0.0
  0
VISUALSTYLE
  5
34
102
{ACAD_REACTORS
330
2A
102
}
102
{ACAD_XDICTIONARY
360
C6
102
}
330
2A
100
AcDbVisualStyle
  2
Conceptual
 70
     9
 71
     3
 72
     2
 73
     0
 90
        0
 40
-0.6
 41
-30.0
 62
     5
 63
     7
421
 16777215
 74
     2
 91
        2
 64
     7
 65
   257
 75
     1
175
     1
 42
40.0
 92
        8
 66
     7
 43
1.0
 76
     1
 77
     6
 78
     2
 67
     7
 79
     3
170
     0
171
     0
290
     0
174
     0
 93
        1
 44
0.0
173
     0
291
     0
 45
0.0
  0
VISUALSTYLE
  5
35
102
{ACAD_REACTORS
330
2A
102
}
102
{ACAD_XDICTIONARY
360
C8
102
}
330
2A
100
AcDbVisualStyle
  2
Dim
 70
    11
 71
     2
 72
     2
 73
     0
 90
        0
 40
-0.6
 41
-30.0
 62
     5
 63
     7
421
 16777215
 74
     1
 91
        4
 64
     7
 65
   257
 75
     1
175
     1
 42
1.0
 92
        8
 66
     7
 43
1.0
 76
     1
 77
     6
 78
     2
 67
     7
 79
     5
170
     0
171
     0
290
     0
174
     0
 93
        1
 44
-50.0
173
     0
291
     1
 45
0.0
  0
VISUALSTYLE
  5
39
102
{ACAD_REACTORS
330
2A
102
}
102
{ACAD_XDICTIONARY
360
D0
102
}
330
2A
100
AcDbVisualStyle
  2
Facepattern
 70
    15
 71
     2
 72
     2
 73
     0
 90
        0
 40
-0.6
 41
-30.0
 62
     5
 63
     7
421
 16777215
 74
     1
 91
        4
 64
     7
 65
   257
 75
     1
175
     1
 42
1.0
 92
        8
 66
     7
 43
1.0
 76
     1
 77
     6
 78
     2
 67
     7
 79
     5
170
     0
171
     0
290
     0
174
     0
 93
        1
 44
0.0
173
     0
291
     1
 45
0.0
  0
VISUALSTYLE
  5
2B
102
{ACAD_REACTORS
330
2A
102
}
102
{ACAD_XDICTIONARY
360
B4
102
}
330
2A
100
AcDbVisualStyle
  2
Flat
 70
     0
 71
     2
 72
     1
 73
     1
 90
        2
 40
-0.6
 41
30.0
 62
     5
 63
     7
421
 16777215
 74
     0
 91
        4
 64
     7
 65
   257
 75
     1
175
     1
 42
1.0
 92
        8
 66
     7
 43
1.0
 76
     1
 77
     6
 78
     2
 67
     7
 79
     5
170
     0
171
     0
290
     0
174
     0
 93
       13
 44
0.0
173
     0
291
     1
 45
0.0
  0
VISUALSTYLE
  5
2C
102
{ACAD_REACTORS
330
2A
102
}
102
{ACAD_XDICTIONARY
360
B6
102
}
330
2A
100
AcDbVisualStyle
  2
FlatWithEdges
 70
     1
 71
     2
 72
     1
 73
     1
 90
        2
 40
-0.6
 41
30.0
 62
     5
 63
     7
421
 16777215
 74
     1
 91
        4
 64
     7
 65
   257
 75
     1
175
     1
 42
1.0
 92
        0
 66
   257
 43
1.0
 76
     1
 77
     6
 78
     2
 67
     7
 79
     5
170
     0
171
     0
290
     0
174
     0
 93
       13
 44
0.0
173
     0
291
     1
 45
0.0
  0
VISUALSTYLE
  5
2D
102
{ACAD_REACTORS
330
2A
102
}
102
{ACAD_XDICTIONARY
360
B8
102
}
330
2A
100
AcDbVisualStyle
  2
Gouraud
 70
     2
 71
     2
 72
     2
 73
     1
 90
        2
 40
-0.6
 41
30.0
 62
     5
 63
     7
421
 16777215
 74
     0
 91
        4
 64
     7
 65
   257
 75
     1
175
     1
 42
1.0
 92
        0
 66
     7
 43
1.0
 76
     1
 77
     6
 78
     2
 67
     7
 79
     5
170
     0
171
     0
290
     0
174
     0
 93
       13
 44
0.0
173
     0
291
     1
 45
0.0
  0
VISUALSTYLE
  5
2E
102
{ACAD_REACTORS
330
2A
102
}
102
{ACAD_XDICTIONARY
360
BA
102
}
330
2A
100
AcDbVisualStyle
  2
GouraudWithEdges
 70
     3
 71
     2
 72
     2
 73
     1
 90
        2
 40
-0.6
 41
30.0
 62
     5
 63
     7
421
 16777215
 74
     1
 91
        4
 64
     7
 65
   257
 75
     1
175
     1
 42
1.0
 92
        0
 66
   257
 43
1.0
 76
     1
 77
     6
 78
     2
 67
     7
 79
     5
170
     0
171
     0
290
     0
174
     0
 93
       13
 44
0.0
173
     0
291
     1
 45
0.0
  0
VISUALSTYLE
  5
38
102
{ACAD_REACTORS
330
2A
102
}
102
{ACAD_XDICTIONARY
360
CE
102
}
330
2A
100
AcDbVisualStyle
  2
Linepattern
 70
    14
 71
     2
 72
     2
 73
     0
 90
        0
 40
-0.6
 41
-30.0
 62
     5
 63
     7
421
 16777215
 74
     1
 91
        4
 64
     7
 65
   257
 75
     7
175
     7
 42
1.0
 92
        8
 66
     7
 43
1.0
 76
     1
 77
     6
 78
     2
 67
     7
 79
     5
170
     0
171
     0
290
     0
174
     0
 93
        1
 44
0.0
173
     0
291
     1
 45
0.0
  0
VISUALSTYLE
  5
33
102
{ACAD_REACTORS
330
2A
102
}
102
{ACAD_XDICTIONARY
360
C4
102
}
330
2A
100
AcDbVisualStyle
  2
Realistic
 70
     8
 71
     2
 72
     2
 73
     0
 90
        0
 40
-0.6
 41
-30.0
 62
     5
 63
     7
421
 16777215
 74
     1
 91
        0
 64
     7
 65
   257
 75
     1
175
     1
 42
1.0
 92
        8
 66
     8
424
  7895160
 43
1.0
 76
     1
 77
     6
 78
     2
 67
     7
 79
     5
170
     0
171
     0
290
     0
174
     0
 93
       13
 44
0.0
173
     0
291
     0
 45
0.0
  0
VISUALSTYLE
  5
37
102
{ACAD_REACTORS
330
2A
102
}
102
{ACAD_XDICTIONARY
360
CC
102
}
330
2A
100
AcDbVisualStyle
  2
Thicken
 70
    13
 71
     2
 72
     2
 73
     0
 90
        0
 40
-0.6
 41
-30.0
 62
     5
 63
     7
421
 16777215
 74
     1
 91
        4
 64
     7
 65
   257
 75
     1
175
     1
 42
1.0
 92
       12
 66
     7
 43
1.0
 76
     1
 77
     6
 78
     2
 67
     7
 79
     5
170
     0
171
     0
290
     0
174
     0
 93
        1
 44
0.0
173
     0
291
     1
 45
0.0
  0
DICTIONARY
  5
BC
330
2F
100
AcDbDictionary
280
     1
281
     1
  3
ACAD_XREC_ROUNDTRIP
360
BD
  0
DICTIONARY
  5
C0
330
31
100
AcDbDictionary
280
     1
281
     1
  3
ACAD_XREC_ROUNDTRIP
360
C1
  0
DICTIONARY
  5
BE
330
30
100
AcDbDictionary
280
     1
281
     1
  3
ACAD_XREC_ROUNDTRIP
360
BF
  0
DICTIONARY
  5
C2
330
32
100
AcDbDictionary
280
     1
281
     1
  3
ACAD_XREC_ROUNDTRIP
360
C3
  0
DICTIONARY
  5
CA
330
36
100
AcDbDictionary
280
     1
281
     1
  3
ACAD_XREC_ROUNDTRIP
360
CB
  0
DICTIONARY
  5
D2
330
3A
100
AcDbDictionary
280
     1
281
     1
  3
ACAD_XREC_ROUNDTRIP
360
D3
  0
DICTIONARY
  5
C6
330
34
100
AcDbDictionary
280
     1
281
     1
  3
ACAD_XREC_ROUNDTRIP
360
C7
  0
DICTIONARY
  5
C8
330
35
100
AcDbDictionary
280
     1
281
     1
  3
ACAD_XREC_ROUNDTRIP
360
C9
  0
DICTIONARY
  5
D0
330
39
100
AcDbDictionary
280
     1
281
     1
  3
ACAD_XREC_ROUNDTRIP
360
D1
  0
DICTIONARY
  5
B4
330
2B
100
AcDbDictionary
280
     1
281
     1
  3
ACAD_XREC_ROUNDTRIP
360
B5
  0
DICTIONARY
  5
B6
330
2C
100
AcDbDictionary
280
     1
281
     1
  3
ACAD_XREC_ROUNDTRIP
360
B7
  0
DICTIONARY
  5
B8
330
2D
100
AcDbDictionary
280
     1
281
     1
  3
ACAD_XREC_ROUNDTRIP
360
B9
  0
DICTIONARY
  5
BA
330
2E
100
AcDbDictionary
280
     1
281
     1
  3
ACAD_XREC_ROUNDTRIP
360
BB
  0
DICTIONARY
  5
CE
330
38
100
AcDbDictionary
280
     1
281
     1
  3
ACAD_XREC_ROUNDTRIP
360
CF
  0
DICTIONARY
  5
C4
330
33
100
AcDbDictionary
280
     1
281
     1
  3
ACAD_XREC_ROUNDTRIP
360
C5
  0
DICTIONARY
  5
CC
330
37
100
AcDbDictionary
280
     1
281
     1
  3
ACAD_XREC_ROUNDTRIP
360
CD
  0
XRECORD
  5
BD
102
{ACAD_REACTORS
330
BC
102
}
330
BC
100
AcDbXrecord
280
     1
102
RTVSPropertyOp0
 70
     1
102
RTVSPropertyOp1
 70
     1
102
RTVSPropertyOp2
 70
     1
102
RTVSPropertyOp3
 70
     1
102
RTVSPropertyOp4
 70
     1
102
RTVSPropertyOp5
 70
     1
102
RTVSPropertyOp6
 70
     1
102
RTVSPropertyOp7
 70
     1
102
RTVSPropertyOp8
 70
     1
102
RTVSPropertyOp9
 70
     1
102
RTVSPropertyOp10
 70
     1
102
RTVSPropertyOp11
 70
     1
102
RTVSPropertyOp12
 70
     1
102
RTVSPropertyOp13
 70
     1
102
RTVSPropertyOp14
 70
     1
102
RTVSPropertyOp15
 70
     1
102
RTVSPropertyOp16
 70
     1
102
RTVSPropertyOp17
 70
     1
102
RTVSPropertyOp18
 70
     1
102
RTVSPropertyOp19
 70
     1
102
RTVSPropertyOp20
 70
     1
102
RTVSPropertyOp21
 70
     1
102
RTVSPropertyOp22
 70
     1
102
RTVSPropertyOp23
 70
     1
102
RTVSPropertyOp24
 70
     1
102
RTVSPropertyOp25
 70
     1
102
RTVSPropertyOp26
 70
     1
102
RTVSPropertyOp27
 70
     1
102
RTVSPropertyOp28
 70
     1
102
RTVSPropertyOp29
 70
     1
102
RTVSPropertyOp30
 70
     1
102
RTVSPropertyOp31
 70
     1
102
RTVSPropertyOp32
 70
     1
  0
XRECORD
  5
C1
102
{ACAD_REACTORS
330
C0
102
}
330
C0
100
AcDbXrecord
280
     1
102
RTVSPropertyOp0
 70
     1
102
RTVSPropertyOp1
 70
     1
102
RTVSPropertyOp2
 70
     1
102
RTVSPropertyOp3
 70
     1
102
RTVSPropertyOp4
 70
     1
102
RTVSPropertyOp5
 70
     1
102
RTVSPropertyOp6
 70
     1
102
RTVSPropertyOp7
 70
     1
102
RTVSPropertyOp8
 70
     1
102
RTVSPropertyOp9
 70
     1
102
RTVSPropertyOp10
 70
     1
102
RTVSPropertyOp11
 70
     1
102
RTVSPropertyOp12
 70
     1
102
RTVSPropertyOp13
 70
     1
102
RTVSPropertyOp14
 70
     1
102
RTVSPropertyOp15
 70
     1
102
RTVSPropertyOp16
 70
     1
102
RTVSPropertyOp17
 70
     1
102
RTVSPropertyOp18
 70
     1
102
RTVSPropertyOp19
 70
     1
102
RTVSPropertyOp20
 70
     1
102
RTVSPropertyOp21
 70
     1
102
RTVSPropertyOp22
 70
     1
102
RTVSPropertyOp23
 70
     1
102
RTVSPropertyOp24
 70
     1
102
RTVSPropertyOp25
 70
     1
102
RTVSPropertyOp26
 70
     1
102
RTVSPropertyOp27
 70
     1
102
RTVSPropertyOp28
 70
     1
102
RTVSPropertyOp29
 70
     1
102
RTVSPropertyOp30
 70
     1
102
RTVSPropertyOp31
 70
     1
102
RTVSPropertyOp32
 70
     1
  0
XRECORD
  5
BF
102
{ACAD_REACTORS
330
BE
102
}
330
BE
100
AcDbXrecord
280
     1
102
RTVSPropertyOp0
 70
     1
102
RTVSPropertyOp1
 70
     1
102
RTVSPropertyOp2
 70
     1
102
RTVSPropertyOp3
 70
     1
102
RTVSPropertyOp4
 70
     1
102
RTVSPropertyOp5
 70
     1
102
RTVSPropertyOp6
 70
     1
102
RTVSPropertyOp7
 70
     1
102
RTVSPropertyOp8
 70
     1
102
RTVSPropertyOp9
 70
     1
102
RTVSPropertyOp10
 70
     1
102
RTVSPropertyOp11
 70
     1
102
RTVSPropertyOp12
 70
     1
102
RTVSPropertyOp13
 70
     1
102
RTVSPropertyOp14
 70
     1
102
RTVSPropertyOp15
 70
     1
102
RTVSPropertyOp16
 70
     1
102
RTVSPropertyOp17
 70
     1
102
RTVSPropertyOp18
 70
     1
102
RTVSPropertyOp19
 70
     1
102
RTVSPropertyOp20
 70
     1
102
RTVSPropertyOp21
 70
     1
102
RTVSPropertyOp22
 70
     1
102
RTVSPropertyOp23
 70
     1
102
RTVSPropertyOp24
 70
     1
102
RTVSPropertyOp25
 70
     1
102
RTVSPropertyOp26
 70
     1
102
RTVSPropertyOp27
 70
     1
102
RTVSPropertyOp28
 70
     1
102
RTVSPropertyOp29
 70
     1
102
RTVSPropertyOp30
 70
     1
102
RTVSPropertyOp31
 70
     1
102
RTVSPropertyOp32
 70
     1
  0
XRECORD
  5
C3
102
{ACAD_REACTORS
330
C2
102
}
330
C2
100
AcDbXrecord
280
     1
102
RTVSPropertyOp0
 70
     1
102
RTVSPropertyOp1
 70
     1
102
RTVSPropertyOp2
 70
     1
102
RTVSPropertyOp3
 70
     1
102
RTVSPropertyOp4
 70
     1
102
RTVSPropertyOp5
 70
     1
102
RTVSPropertyOp6
 70
     1
102
RTVSPropertyOp7
 70
     1
102
RTVSPropertyOp8
 70
     1
102
RTVSPropertyOp9
 70
     1
102
RTVSPropertyOp10
 70
     1
102
RTVSPropertyOp11
 70
     1
102
RTVSPropertyOp12
 70
     1
102
RTVSPropertyOp13
 70
     1
102
RTVSPropertyOp14
 70
     1
102
RTVSPropertyOp15
 70
     1
102
RTVSPropertyOp16
 70
     1
102
RTVSPropertyOp17
 70
     1
102
RTVSPropertyOp18
 70
     1
102
RTVSPropertyOp19
 70
     1
102
RTVSPropertyOp20
 70
     1
102
RTVSPropertyOp21
 70
     1
102
RTVSPropertyOp22
 70
     1
102
RTVSPropertyOp23
 70
     1
102
RTVSPropertyOp24
 70
     1
102
RTVSPropertyOp25
 70
     1
102
RTVSPropertyOp26
 70
     1
102
RTVSPropertyOp27
 70
     1
102
RTVSPropertyOp28
 70
     1
102
RTVSPropertyOp29
 70
     1
102
RTVSPropertyOp30
 70
     1
102
RTVSPropertyOp31
 70
     1
102
RTVSPropertyOp32
 70
     1
  0
XRECORD
  5
CB
102
{ACAD_REACTORS
330
CA
102
}
330
CA
100
AcDbXrecord
280
     1
102
RTVSPropertyOp0
 70
     1
102
RTVSPropertyOp1
 70
     1
102
RTVSPropertyOp2
 70
     1
102
RTVSPropertyOp3
 70
     1
102
RTVSPropertyOp4
 70
     1
102
RTVSPropertyOp5
 70
     1
102
RTVSPropertyOp6
 70
     1
102
RTVSPropertyOp7
 70
     1
102
RTVSPropertyOp8
 70
     1
102
RTVSPropertyOp9
 70
     1
102
RTVSPropertyOp10
 70
     1
102
RTVSPropertyOp11
 70
     1
102
RTVSPropertyOp12
 70
     1
102
RTVSPropertyOp13
 70
     1
102
RTVSPropertyOp14
 70
     1
102
RTVSPropertyOp15
 70
     1
102
RTVSPropertyOp16
 70
     1
102
RTVSPropertyOp17
 70
     1
102
RTVSPropertyOp18
 70
     1
102
RTVSPropertyOp19
 70
     1
102
RTVSPropertyOp20
 70
     1
102
RTVSPropertyOp21
 70
     1
102
RTVSPropertyOp22
 70
     1
102
RTVSPropertyOp23
 70
     1
102
RTVSPropertyOp24
 70
     1
102
RTVSPropertyOp25
 70
     1
102
RTVSPropertyOp26
 70
     1
102
RTVSPropertyOp27
 70
     1
102
RTVSPropertyOp28
 70
     1
102
RTVSPropertyOp29
 70
     1
102
RTVSPropertyOp30
 70
     1
102
RTVSPropertyOp31
 70
     1
102
RTVSPropertyOp32
 70
     1
  0
XRECORD
  5
D3
102
{ACAD_REACTORS
330
D2
102
}
330
D2
100
AcDbXrecord
280
     1
102
RTVSPropertyOp0
 70
     1
102
RTVSPropertyOp1
 70
     1
102
RTVSPropertyOp2
 70
     1
102
RTVSPropertyOp3
 70
     1
102
RTVSPropertyOp4
 70
     1
102
RTVSPropertyOp5
 70
     1
102
RTVSPropertyOp6
 70
     1
102
RTVSPropertyOp7
 70
     1
102
RTVSPropertyOp8
 70
     1
102
RTVSPropertyOp9
 70
     1
102
RTVSPropertyOp10
 70
     1
102
RTVSPropertyOp11
 70
     1
102
RTVSPropertyOp12
 70
     1
102
RTVSPropertyOp13
 70
     1
102
RTVSPropertyOp14
 70
     1
102
RTVSPropertyOp15
 70
     1
102
RTVSPropertyOp16
 70
     1
102
RTVSPropertyOp17
 70
     1
102
RTVSPropertyOp18
 70
     1
102
RTVSPropertyOp19
 70
     1
102
RTVSPropertyOp20
 70
     1
102
RTVSPropertyOp21
 70
     1
102
RTVSPropertyOp22
 70
     1
102
RTVSPropertyOp23
 70
     1
102
RTVSPropertyOp24
 70
     1
102
RTVSPropertyOp25
 70
     1
102
RTVSPropertyOp26
 70
     1
102
RTVSPropertyOp27
 70
     1
102
RTVSPropertyOp28
 70
     1
102
RTVSPropertyOp29
 70
     1
102
RTVSPropertyOp30
 70
     1
102
RTVSPropertyOp31
 70
     1
102
RTVSPropertyOp32
 70
     1
  0
XRECORD
  5
C7
102
{ACAD_REACTORS
330
C6
102
}
330
C6
100
AcDbXrecord
280
     1
102
RTVSPropertyOp0
 70
     1
102
RTVSPropertyOp1
 70
     1
102
RTVSPropertyOp2
 70
     1
102
RTVSPropertyOp3
 70
     1
102
RTVSPropertyOp4
 70
     1
102
RTVSPropertyOp5
 70
     1
102
RTVSPropertyOp6
 70
     1
102
RTVSPropertyOp7
 70
     1
102
RTVSPropertyOp8
 70
     1
102
RTVSPropertyOp9
 70
     1
102
RTVSPropertyOp10
 70
     1
102
RTVSPropertyOp11
 70
     1
102
RTVSPropertyOp12
 70
     1
102
RTVSPropertyOp13
 70
     1
102
RTVSPropertyOp14
 70
     1
102
RTVSPropertyOp15
 70
     1
102
RTVSPropertyOp16
 70
     1
102
RTVSPropertyOp17
 70
     1
102
RTVSPropertyOp18
 70
     1
102
RTVSPropertyOp19
 70
     1
102
RTVSPropertyOp20
 70
     1
102
RTVSPropertyOp21
 70
     1
102
RTVSPropertyOp22
 70
     1
102
RTVSPropertyOp23
 70
     1
102
RTVSPropertyOp24
 70
     1
102
RTVSPropertyOp25
 70
     1
102
RTVSPropertyOp26
 70
     1
102
RTVSPropertyOp27
 70
     1
102
RTVSPropertyOp28
 70
     1
102
RTVSPropertyOp29
 70
     1
102
RTVSPropertyOp30
 70
     1
102
RTVSPropertyOp31
 70
     1
102
RTVSPropertyOp32
 70
     1
  0
XRECORD
  5
C9
102
{ACAD_REACTORS
330
C8
102
}
330
C8
100
AcDbXrecord
280
     1
102
RTVSPropertyOp0
 70
     1
102
RTVSPropertyOp1
 70
     1
102
RTVSPropertyOp2
 70
     1
102
RTVSPropertyOp3
 70
     1
102
RTVSPropertyOp4
 70
     1
102
RTVSPropertyOp5
 70
     1
102
RTVSPropertyOp6
 70
     1
102
RTVSPropertyOp7
 70
     1
102
RTVSPropertyOp8
 70
     1
102
RTVSPropertyOp9
 70
     1
102
RTVSPropertyOp10
 70
     1
102
RTVSPropertyOp11
 70
     1
102
RTVSPropertyOp12
 70
     1
102
RTVSPropertyOp13
 70
     1
102
RTVSPropertyOp14
 70
     1
102
RTVSPropertyOp15
 70
     1
102
RTVSPropertyOp16
 70
     1
102
RTVSPropertyOp17
 70
     1
102
RTVSPropertyOp18
 70
     1
102
RTVSPropertyOp19
 70
     1
102
RTVSPropertyOp20
 70
     1
102
RTVSPropertyOp21
 70
     1
102
RTVSPropertyOp22
 70
     1
102
RTVSPropertyOp23
 70
     1
102
RTVSPropertyOp24
 70
     1
102
RTVSPropertyOp25
 70
     1
102
RTVSPropertyOp26
 70
     1
102
RTVSPropertyOp27
 70
     1
102
RTVSPropertyOp28
 70
     1
102
RTVSPropertyOp29
 70
     1
102
RTVSPropertyOp30
 70
     1
102
RTVSPropertyOp31
 70
     1
102
RTVSPropertyOp32
 70
     1
  0
XRECORD
  5
D1
102
{ACAD_REACTORS
330
D0
102
}
330
D0
100
AcDbXrecord
280
     1
102
RTVSPropertyOp0
 70
     1
102
RTVSPropertyOp1
 70
     1
102
RTVSPropertyOp2
 70
     1
102
RTVSPropertyOp3
 70
     1
102
RTVSPropertyOp4
 70
     1
102
RTVSPropertyOp5
 70
     1
102
RTVSPropertyOp6
 70
     1
102
RTVSPropertyOp7
 70
     1
102
RTVSPropertyOp8
 70
     1
102
RTVSPropertyOp9
 70
     1
102
RTVSPropertyOp10
 70
     1
102
RTVSPropertyOp11
 70
     1
102
RTVSPropertyOp12
 70
     1
102
RTVSPropertyOp13
 70
     1
102
RTVSPropertyOp14
 70
     1
102
RTVSPropertyOp15
 70
     1
102
RTVSPropertyOp16
 70
     1
102
RTVSPropertyOp17
 70
     1
102
RTVSPropertyOp18
 70
     1
102
RTVSPropertyOp19
 70
     1
102
RTVSPropertyOp20
 70
     1
102
RTVSPropertyOp21
 70
     1
102
RTVSPropertyOp22
 70
     1
102
RTVSPropertyOp23
 70
     1
102
RTVSPropertyOp24
 70
     1
102
RTVSPropertyOp25
 70
     1
102
RTVSPropertyOp26
 70
     1
102
RTVSPropertyOp27
 70
     1
102
RTVSPropertyOp28
 70
     1
102
RTVSPropertyOp29
 70
     1
102
RTVSPropertyOp30
 70
     1
102
RTVSPropertyOp31
 70
     1
102
RTVSPropertyOp32
 70
     1
  0
XRECORD
  5
B5
102
{ACAD_REACTORS
330
B4
102
}
330
B4
100
AcDbXrecord
280
     1
102
RTVSPropertyOp0
 70
     1
102
RTVSPropertyOp1
 70
     1
102
RTVSPropertyOp2
 70
     1
102
RTVSPropertyOp3
 70
     1
102
RTVSPropertyOp4
 70
     1
102
RTVSPropertyOp5
 70
     1
102
RTVSPropertyOp6
 70
     1
102
RTVSPropertyOp7
 70
     1
102
RTVSPropertyOp8
 70
     1
102
RTVSPropertyOp9
 70
     1
102
RTVSPropertyOp10
 70
     1
102
RTVSPropertyOp11
 70
     1
102
RTVSPropertyOp12
 70
     1
102
RTVSPropertyOp13
 70
     1
102
RTVSPropertyOp14
 70
     1
102
RTVSPropertyOp15
 70
     1
102
RTVSPropertyOp16
 70
     1
102
RTVSPropertyOp17
 70
     1
102
RTVSPropertyOp18
 70
     1
102
RTVSPropertyOp19
 70
     1
102
RTVSPropertyOp20
 70
     1
102
RTVSPropertyOp21
 70
     1
102
RTVSPropertyOp22
 70
     1
102
RTVSPropertyOp23
 70
     1
102
RTVSPropertyOp24
 70
     1
102
RTVSPropertyOp25
 70
     1
102
RTVSPropertyOp26
 70
     1
102
RTVSPropertyOp27
 70
     1
102
RTVSPropertyOp28
 70
     1
102
RTVSPropertyOp29
 70
     1
102
RTVSPropertyOp30
 70
     1
102
RTVSPropertyOp31
 70
     1
102
RTVSPropertyOp32
 70
     1
  0
XRECORD
  5
B7
102
{ACAD_REACTORS
330
B6
102
}
330
B6
100
AcDbXrecord
280
     1
102
RTVSPropertyOp0
 70
     1
102
RTVSPropertyOp1
 70
     1
102
RTVSPropertyOp2
 70
     1
102
RTVSPropertyOp3
 70
     1
102
RTVSPropertyOp4
 70
     1
102
RTVSPropertyOp5
 70
     1
102
RTVSPropertyOp6
 70
     1
102
RTVSPropertyOp7
 70
     1
102
RTVSPropertyOp8
 70
     1
102
RTVSPropertyOp9
 70
     1
102
RTVSPropertyOp10
 70
     1
102
RTVSPropertyOp11
 70
     1
102
RTVSPropertyOp12
 70
     1
102
RTVSPropertyOp13
 70
     1
102
RTVSPropertyOp14
 70
     1
102
RTVSPropertyOp15
 70
     1
102
RTVSPropertyOp16
 70
     1
102
RTVSPropertyOp17
 70
     1
102
RTVSPropertyOp18
 70
     1
102
RTVSPropertyOp19
 70
     1
102
RTVSPropertyOp20
 70
     1
102
RTVSPropertyOp21
 70
     1
102
RTVSPropertyOp22
 70
     1
102
RTVSPropertyOp23
 70
     1
102
RTVSPropertyOp24
 70
     1
102
RTVSPropertyOp25
 70
     1
102
RTVSPropertyOp26
 70
     1
102
RTVSPropertyOp27
 70
     1
102
RTVSPropertyOp28
 70
     1
102
RTVSPropertyOp29
 70
     1
102
RTVSPropertyOp30
 70
     1
102
RTVSPropertyOp31
 70
     1
102
RTVSPropertyOp32
 70
     1
  0
XRECORD
  5
B9
102
{ACAD_REACTORS
330
B8
102
}
330
B8
100
AcDbXrecord
280
     1
102
RTVSPropertyOp0
 70
     1
102
RTVSPropertyOp1
 70
     1
102
RTVSPropertyOp2
 70
     1
102
RTVSPropertyOp3
 70
     1
102
RTVSPropertyOp4
 70
     1
102
RTVSPropertyOp5
 70
     1
102
RTVSPropertyOp6
 70
     1
102
RTVSPropertyOp7
 70
     1
102
RTVSPropertyOp8
 70
     1
102
RTVSPropertyOp9
 70
     1
102
RTVSPropertyOp10
 70
     1
102
RTVSPropertyOp11
 70
     1
102
RTVSPropertyOp12
 70
     1
102
RTVSPropertyOp13
 70
     1
102
RTVSPropertyOp14
 70
     1
102
RTVSPropertyOp15
 70
     1
102
RTVSPropertyOp16
 70
     1
102
RTVSPropertyOp17
 70
     1
102
RTVSPropertyOp18
 70
     1
102
RTVSPropertyOp19
 70
     1
102
RTVSPropertyOp20
 70
     1
102
RTVSPropertyOp21
 70
     1
102
RTVSPropertyOp22
 70
     1
102
RTVSPropertyOp23
 70
     1
102
RTVSPropertyOp24
 70
     1
102
RTVSPropertyOp25
 70
     1
102
RTVSPropertyOp26
 70
     1
102
RTVSPropertyOp27
 70
     1
102
RTVSPropertyOp28
 70
     1
102
RTVSPropertyOp29
 70
     1
102
RTVSPropertyOp30
 70
     1
102
RTVSPropertyOp31
 70
     1
102
RTVSPropertyOp32
 70
     1
  0
XRECORD
  5
BB
102
{ACAD_REACTORS
330
BA
102
}
330
BA
100
AcDbXrecord
280
     1
102
RTVSPropertyOp0
 70
     1
102
RTVSPropertyOp1
 70
     1
102
RTVSPropertyOp2
 70
     1
102
RTVSPropertyOp3
 70
     1
102
RTVSPropertyOp4
 70
     1
102
RTVSPropertyOp5
 70
     1
102
RTVSPropertyOp6
 70
     1
102
RTVSPropertyOp7
 70
     1
102
RTVSPropertyOp8
 70
     1
102
RTVSPropertyOp9
 70
     1
102
RTVSPropertyOp10
 70
     1
102
RTVSPropertyOp11
 70
     1
102
RTVSPropertyOp12
 70
     1
102
RTVSPropertyOp13
 70
     1
102
RTVSPropertyOp14
 70
     1
102
RTVSPropertyOp15
 70
     1
102
RTVSPropertyOp16
 70
     1
102
RTVSPropertyOp17
 70
     1
102
RTVSPropertyOp18
 70
     1
102
RTVSPropertyOp19
 70
     1
102
RTVSPropertyOp20
 70
     1
102
RTVSPropertyOp21
 70
     1
102
RTVSPropertyOp22
 70
     1
102
RTVSPropertyOp23
 70
     1
102
RTVSPropertyOp24
 70
     1
102
RTVSPropertyOp25
 70
     1
102
RTVSPropertyOp26
 70
     1
102
RTVSPropertyOp27
 70
     1
102
RTVSPropertyOp28
 70
     1
102
RTVSPropertyOp29
 70
     1
102
RTVSPropertyOp30
 70
     1
102
RTVSPropertyOp31
 70
     1
102
RTVSPropertyOp32
 70
     1
  0
XRECORD
  5
CF
102
{ACAD_REACTORS
330
CE
102
}
330
CE
100
AcDbXrecord
280
     1
102
RTVSPropertyOp0
 70
     1
102
RTVSPropertyOp1
 70
     1
102
RTVSPropertyOp2
 70
     1
102
RTVSPropertyOp3
 70
     1
102
RTVSPropertyOp4
 70
     1
102
RTVSPropertyOp5
 70
     1
102
RTVSPropertyOp6
 70
     1
102
RTVSPropertyOp7
 70
     1
102
RTVSPropertyOp8
 70
     1
102
RTVSPropertyOp9
 70
     1
102
RTVSPropertyOp10
 70
     1
102
RTVSPropertyOp11
 70
     1
102
RTVSPropertyOp12
 70
     1
102
RTVSPropertyOp13
 70
     1
102
RTVSPropertyOp14
 70
     1
102
RTVSPropertyOp15
 70
     1
102
RTVSPropertyOp16
 70
     1
102
RTVSPropertyOp17
 70
     1
102
RTVSPropertyOp18
 70
     1
102
RTVSPropertyOp19
 70
     1
102
RTVSPropertyOp20
 70
     1
102
RTVSPropertyOp21
 70
     1
102
RTVSPropertyOp22
 70
     1
102
RTVSPropertyOp23
 70
     1
102
RTVSPropertyOp24
 70
     1
102
RTVSPropertyOp25
 70
     1
102
RTVSPropertyOp26
 70
     1
102
RTVSPropertyOp27
 70
     1
102
RTVSPropertyOp28
 70
     1
102
RTVSPropertyOp29
 70
     1
102
RTVSPropertyOp30
 70
     1
102
RTVSPropertyOp31
 70
     1
102
RTVSPropertyOp32
 70
     1
  0
XRECORD
  5
C5
102
{ACAD_REACTORS
330
C4
102
}
330
C4
100
AcDbXrecord
280
     1
102
RTVSPropertyOp0
 70
     1
102
RTVSPropertyOp1
 70
     1
102
RTVSPropertyOp2
 70
     1
102
RTVSPropertyOp3
 70
     1
102
RTVSPropertyOp4
 70
     1
102
RTVSPropertyOp5
 70
     1
102
RTVSPropertyOp6
 70
     1
102
RTVSPropertyOp7
 70
     1
102
RTVSPropertyOp8
 70
     1
102
RTVSPropertyOp9
 70
     1
102
RTVSPropertyOp10
 70
     1
102
RTVSPropertyOp11
 70
     1
102
RTVSPropertyOp12
 70
     1
102
RTVSPropertyOp13
 70
     1
102
RTVSPropertyOp14
 70
     1
102
RTVSPropertyOp15
 70
     1
102
RTVSPropertyOp16
 70
     1
102
RTVSPropertyOp17
 70
     1
102
RTVSPropertyOp18
 70
     1
102
RTVSPropertyOp19
 70
     1
102
RTVSPropertyOp20
 70
     1
102
RTVSPropertyOp21
 70
     1
102
RTVSPropertyOp22
 70
     1
102
RTVSPropertyOp23
 70
     1
102
RTVSPropertyOp24
 70
     1
102
RTVSPropertyOp25
 70
     1
102
RTVSPropertyOp26
 70
     1
102
RTVSPropertyOp27
 70
     1
102
RTVSPropertyOp28
 70
     1
102
RTVSPropertyOp29
 70
     1
102
RTVSPropertyOp30
 70
     1
102
RTVSPropertyOp31
 70
     1
102
RTVSPropertyOp32
 70
     1
  0
XRECORD
  5
CD
102
{ACAD_REACTORS
330
CC
102
}
330
CC
100
AcDbXrecord
280
     1
102
RTVSPropertyOp0
 70
     1
102
RTVSPropertyOp1
 70
     1
102
RTVSPropertyOp2
 70
     1
102
RTVSPropertyOp3
 70
     1
102
RTVSPropertyOp4
 70
     1
102
RTVSPropertyOp5
 70
     1
102
RTVSPropertyOp6
 70
     1
102
RTVSPropertyOp7
 70
     1
102
RTVSPropertyOp8
 70
     1
102
RTVSPropertyOp9
 70
     1
102
RTVSPropertyOp10
 70
     1
102
RTVSPropertyOp11
 70
     1
102
RTVSPropertyOp12
 70
     1
102
RTVSPropertyOp13
 70
     1
102
RTVSPropertyOp14
 70
     1
102
RTVSPropertyOp15
 70
     1
102
RTVSPropertyOp16
 70
     1
102
RTVSPropertyOp17
 70
     1
102
RTVSPropertyOp18
 70
     1
102
RTVSPropertyOp19
 70
     1
102
RTVSPropertyOp20
 70
     1
102
RTVSPropertyOp21
 70
     1
102
RTVSPropertyOp22
 70
     1
102
RTVSPropertyOp23
 70
     1
102
RTVSPropertyOp24
 70
     1
102
RTVSPropertyOp25
 70
     1
102
RTVSPropertyOp26
 70
     1
102
RTVSPropertyOp27
 70
     1
102
RTVSPropertyOp28
 70
     1
102
RTVSPropertyOp29
 70
     1
102
RTVSPropertyOp30
 70
     1
102
RTVSPropertyOp31
 70
     1
102
RTVSPropertyOp32
 70
     1
  0
ENDSEC
  0
EOF
