  0
SECTION
  2
HEADER
  9
$ACADVER
  1
AC1021
  9
$ACADMAINTVER
 70
    25
  9
$DWGCODEPAGE
  3
ANSI_1252
  9
$INSBASE
 10
0.0
 20
0.0
 30
0.0
  9
$EXTMIN
 10
78.7423
 20
-97.1798
 30
0.0
  9
$EXTMAX
 10
196.6976
 20
120.3217
 30
0.0
  9
$LIMMIN
 10
0.0
 20
0.0
  9
$LIMMAX
 10
12.0
 20
9.0
  9
$ORTHOMODE
 70
     0
  9
$REGENMODE
 70
     1
  9
$FILLMODE
 70
     1
  9
$QTEXTMODE
 70
     0
  9
$MIRRTEXT
 70
     1
  9
$LTSCALE
 40
1.0
  9
$ATTMODE
 70
     1
  9
$TEXTSIZE
 40
0.2
  9
$TRACEWID
 40
0.05
  9
$TEXTSTYLE
  7
Standard
  9
$CLAYER
  8
0
  9
$CELTYPE
  6
ByLayer
  9
$CECOLOR
 62
   256
  9
$CELTSCALE
 40
1.0
  9
$DISPSILH
 70
     0
  9
$DIMSCALE
 40
1.0
  9
$DIMASZ
 40
0.18
  9
$DIMEXO
 40
0.0625
  9
$DIMDLI
 40
0.38
  9
$DIMRND
 40
0.0
  9
$DIMDLE
 40
0.0
  9
$DIMEXE
 40
0.18
  9
$DIMTP
 40
0.0
  9
$DIMTM
 40
0.0
  9
$DIMTXT
 40
0.18
  9
$DIMCEN
 40
0.09
  9
$DIMTSZ
 40
0.0
  9
$DIMTOL
 70
     0
  9
$DIMLIM
 70
     0
  9
$DIMTIH
 70
     1
  9
$DIMTOH
 70
     1
  9
$DIMSE1
 70
     0
  9
$DIMSE2
 70
     0
  9
$DIMTAD
 70
     0
  9
$DIMZIN
 70
     0
  9
$DIMBLK
  1

  9
$DIMASO
 70
     1
  9
$DIMSHO
 70
     1
  9
$DIMPOST
  1

  9
$DIMAPOST
  1

  9
$DIMALT
 70
     0
  9
$DIMALTD
 70
     2
  9
$DIMALTF
 40
25.4
  9
$DIMLFAC
 40
1.0
  9
$DIMTOFL
 70
     0
  9
$DIMTVP
 40
0.0
  9
$DIMTIX
 70
     0
  9
$DIMSOXD
 70
     0
  9
$DIMSAH
 70
     0
  9
$DIMBLK1
  1

  9
$DIMBLK2
  1

  9
$DIMSTYLE
  2
Standard
  9
$DIMCLRD
 70
     0
  9
$DIMCLRE
 70
     0
  9
$DIMCLRT
 70
     0
  9
$DIMTFAC
 40
1.0
  9
$DIMGAP
 40
0.09
  9
$DIMJUST
 70
     0
  9
$DIMSD1
 70
     0
  9
$DIMSD2
 70
     0
  9
$DIMTOLJ
 70
     1
  9
$DIMTZIN
 70
     0
  9
$DIMALTZ
 70
     0
  9
$DIMALTTZ
 70
     0
  9
$DIMUPT
 70
     0
  9
$DIMDEC
 70
     4
  9
$DIMTDEC
 70
     4
  9
$DIMALTU
 70
     2
  9
$DIMALTTD
 70
     2
  9
$DIMTXSTY
  7
Standard
  9
$DIMAUNIT
 70
     0
  9
$DIMADEC
 70
     0
  9
$DIMALTRND
 40
0.0
  9
$DIMAZIN
 70
     0
  9
$DIMDSEP
 70
    46
  9
$DIMATFIT
 70
     3
  9
$DIMFRAC
 70
     0
  9
$DIMLDRBLK
  1

  9
$DIMLUNIT
 70
     2
  9
$DIMLWD
 70
    -2
  9
$DIMLWE
 70
    -2
  9
$DIMTMOVE
 70
     0
  9
$DIMFXL
 40
1.0
  9
$DIMFXLON
 70
     0
  9
$DIMJOGANG
 40
0.7853981633974483
  9
$DIMTFILL
 70
     0
  9
$DIMTFILLCLR
 70
     0
  9
$DIMARCSYM
 70
     0
  9
$DIMLTYPE
  6

  9
$DIMLTEX1
  6

  9
$DIMLTEX2
  6

  9
$LUNITS
 70
     2
  9
$LUPREC
 70
     4
  9
$SKETCHINC
 40
0.1
  9
$FILLETRAD
 40
0.5
  9
$AUNITS
 70
     0
  9
$AUPREC
 70
     0
  9
$MENU
  1
.
  9
$ELEVATION
 40
0.0
  9
$PELEVATION
 40
0.0
  9
$THICKNESS
 40
0.0
  9
$LIMCHECK
 70
     0
  9
$CHAMFERA
 40
0.5
  9
$CHAMFERB
 40
0.5
  9
$CHAMFERC
 40
1.0
  9
$CHAMFERD
 40
0.0
  9
$SKPOLY
 70
     0
  9
$TDCREATE
 40
2458493.744263264
  9
$TDUCREATE
 40
2458493.744263264
  9
$TDUPDATE
 40
2458493.74426338
  9
$TDUUPDATE
 40
2458493.74426338
  9
$TDINDWG
 40
0.0000000116
  9
$TDUSRTIMER
 40
0.0000000116
  9
$USRTIMER
 70
     1
  9
$ANGBASE
 50
0.0
  9
$ANGDIR
 70
     0
  9
$PDMODE
 70
     0
  9
$PDSIZE
 40
0.0
  9
$PLINEWID
 40
0.0
  9
$SPLFRAME
 70
     0
  9
$SPLINETYPE
 70
     6
  9
$SPLINESEGS
 70
     8
  9
$HANDSEED
  5
92
  9
$SURFTAB1
 70
     6
  9
$SURFTAB2
 70
     6
  9
$SURFTYPE
 70
     6
  9
$SURFU
 70
     6
  9
$SURFV
 70
     6
  9
$UCSBASE
  2

  9
$UCSNAME
  2

  9
$UCSORG
 10
0.0
 20
0.0
 30
0.0
  9
$UCSXDIR
 10
1.0
 20
0.0
 30
0.0
  9
$UCSYDIR
 10
0.0
 20
1.0
 30
0.0
  9
$UCSORTHOREF
  2

  9
$UCSORTHOVIEW
 70
     0
  9
$UCSORGTOP
 10
0.0
 20
0.0
 30
0.0
  9
$UCSORGBOTTOM
 10
0.0
 20
0.0
 30
0.0
  9
$UCSORGLEFT
 10
0.0
 20
0.0
 30
0.0
  9
$UCSORGRIGHT
 10
0.0
 20
0.0
 30
0.0
  9
$UCSORGFRONT
 10
0.0
 20
0.0
 30
0.0
  9
$UCSORGBACK
 10
0.0
 20
0.0
 30
0.0
  9
$PUCSBASE
  2

  9
$PUCSNAME
  2

  9
$PUCSORG
 10
0.0
 20
0.0
 30
0.0
  9
$PUCSXDIR
 10
1.0
 20
0.0
 30
0.0
  9
$PUCSYDIR
 10
0.0
 20
1.0
 30
0.0
  9
$PUCSORTHOREF
  2

  9
$PUCSORTHOVIEW
 70
     0
  9
$PUCSORGTOP
 10
0.0
 20
0.0
 30
0.0
  9
$PUCSORGBOTTOM
 10
0.0
 20
0.0
 30
0.0
  9
$PUCSORGLEFT
 10
0.0
 20
0.0
 30
0.0
  9
$PUCSORGRIGHT
 10
0.0
 20
0.0
 30
0.0
  9
$PUCSORGFRONT
 10
0.0
 20
0.0
 30
0.0
  9
$PUCSORGBACK
 10
0.0
 20
0.0
 30
0.0
  9
$USERI1
 70
     0
  9
$USERI2
 70
     0
  9
$USERI3
 70
     0
  9
$USERI4
 70
     0
  9
$USERI5
 70
     0
  9
$USERR1
 40
0.0
  9
$USERR2
 40
0.0
  9
$USERR3
 40
0.0
  9
$USERR4
 40
0.0
  9
$USERR5
 40
0.0
  9
$WORLDVIEW
 70
     1
  9
$SHADEDGE
 70
     3
  9
$SHADEDIF
 70
    70
  9
$TILEMODE
 70
     1
  9
$MAXACTVP
 70
    64
  9
$PINSBASE
 10
0.0
 20
0.0
 30
0.0
  9
$PLIMCHECK
 70
     0
  9
$PEXTMIN
 10
1.000000000000000E+20
 20
1.000000000000000E+20
 30
1.000000000000000E+20
  9
$PEXTMAX
 10
-1.000000000000000E+20
 20
-1.000000000000000E+20
 30
-1.000000000000000E+20
  9
$PLIMMIN
 10
0.0
 20
0.0
  9
$PLIMMAX
 10
12.0
 20
9.0
  9
$UNITMODE
 70
     0
  9
$VISRETAIN
 70
     1
  9
$PLINEGEN
 70
     0
  9
$PSLTSCALE
 70
     1
  9
$TREEDEPTH
 70
  3020
  9
$CMLSTYLE
  2
Standard
  9
$CMLJUST
 70
     0
  9
$CMLSCALE
 40
1.0
  9
$PROXYGRAPHICS
 70
     1
  9
$MEASUREMENT
 70
     0
  9
$CELWEIGHT
370
    -1
  9
$ENDCAPS
280
     0
  9
$JOINSTYLE
280
     0
  9
$LWDISPLAY
290
     0
  9
$INSUNITS
 70
     4
  9
$HYPERLINKBASE
  1

  9
$STYLESHEET
  1

  9
$XEDIT
290
     1
  9
$CEPSNTYPE
380
     0
  9
$PSTYLEMODE
290
     1
  9
$FINGERPRINTGUID
  2
{8D04E8EA-2D8C-448D-9CDB-E4BF22EBCB9C}
  9
$VERSIONGUID
  2
{FAEB1C32-E019-11D5-929B-00C0DF256EC4}
  9
$EXTNAMES
290
     1
  9
$PSVPSCALE
 40
0.0
  9
$OLESTARTUP
290
     0
  9
$SORTENTS
280
   127
  9
$INDEXCTL
280
     0
  9
$HIDETEXT
280
     1
  9
$XCLIPFRAME
290
     0
  9
$HALOGAP
280
     0
  9
$OBSCOLOR
 70
   257
  9
$OBSLTYPE
280
     0
  9
$INTERSECTIONDISPLAY
280
     0
  9
$INTERSECTIONCOLOR
 70
   257
  9
$DIMASSOC
280
     2
  9
$PROJECTNAME
  1

  9
$CAMERADISPLAY
290
     0
  9
$LENSLENGTH
 40
50.0
  9
$CAMERAHEIGHT
 40
0.0
  9
$STEPSPERSEC
 40
2.0
  9
$STEPSIZE
 40
6.0
  9
$3DDWFPREC
 40
2.0
  9
$PSOLWIDTH
 40
0.25
  9
$PSOLHEIGHT
 40
4.0
  9
$LOFTANG1
 40
1.570796326794897
  9
$LOFTANG2
 40
1.570796326794897
  9
$LOFTMAG1
 40
0.0
  9
$LOFTMAG2
 40
0.0
  9
$LOFTPARAM
 70
     7
  9
$LOFTNORMALS
280
     1
  9
$LATITUDE
 40
37.795
  9
$LONGITUDE
 40
-122.394
  9
$NORTHDIRECTION
 40
0.0
  9
$TIMEZONE
 70
 -8000
  9
$LIGHTGLYPHDISPLAY
280
     1
  9
$TILEMODELIGHTSYNCH
280
     1
  9
$SOLIDHIST
280
     1
  9
$SHOWHIST
280
     1
  9
$DWFFRAME
280
     2
  9
$DGNFRAME
280
     2
  9
$REALWORLDSCALE
290
     1
  9
$INTERFERECOLOR
 62
   256
  9
$CSHADOW
280
     0
  9
$SHADOWPLANELOCATION
 40
0.0
  0
ENDSEC
  0
SECTION
  2
CLASSES
  0
CLASS
  1
ACDBDICTIONARYWDFLT
  2
AcDbDictionaryWithDefault
  3
ObjectDBX Classes
 90
        0
 91
        4
280
     0
281
     0
  0
CLASS
  1
VISUALSTYLE
  2
AcDbVisualStyle
  3
ObjectDBX Classes
 90
     4095
 91
        4
280
     0
281
     0
  0
CLASS
  1
MATERIAL
  2
AcDbMaterial
  3
ObjectDBX Classes
 90
     1153
 91
        4
280
     0
281
     0
  0
ENDSEC
  0
SECTION
  2
TABLES
  0
TABLE
  2
VPORT
  5
8
330
0
100
AcDbSymbolTable
 70
     1
  0
VPORT
  5
29
330
8
100
AcDbSymbolTableRecord
100
AcDbViewportTableRecord
  2
*Active
 70
     0
 10
0.0
 20
0.0
 11
1.0
 21
1.0
 12
10.42990654205607
 22
4.5
 13
0.0
 23
0.0
 14
0.5
 24
0.5
 15
0.5
 25
0.5
 16
0.0
 26
0.0
 36
1.0
 17
0.0
 27
0.0
 37
0.0
 40
9.0
 41
1.972972972850329
 42
50.0
 43
0.0
 44
0.0
 50
0.0
 51
0.0
 71
     0
 72
   100
 73
     1
 74
     3
 75
     0
 76
     0
 77
     0
 78
     0
281
     0
 65
     1
110
0.0
120
0.0
130
0.0
111
1.0
121
0.0
131
0.0
112
0.0
122
1.0
132
0.0
 79
     0
146
0.0
 60
     3
 61
     5
292
     1
282
     1
141
0.0
142
0.0
 63
   250
  0
ENDTAB
  0
TABLE
  2
LTYPE
  5
5
330
0
100
AcDbSymbolTable
 70
     1
  0
LTYPE
  5
14
330
5
100
AcDbSymbolTableRecord
100
AcDbLinetypeTableRecord
  2
ByBlock
 70
     0
  3

 72
    65
 73
     0
 40
0.0
  0
LTYPE
  5
15
330
5
100
AcDbSymbolTableRecord
100
AcDbLinetypeTableRecord
  2
ByLayer
 70
     0
  3

 72
    65
 73
     0
 40
0.0
  0
LTYPE
  5
16
330
5
100
AcDbSymbolTableRecord
100
AcDbLinetypeTableRecord
  2
Continuous
 70
     0
  3
Solid line
 72
    65
 73
     0
 40
0.0
  0
ENDTAB
  0
TABLE
  2
LAYER
  5
2
330
0
100
AcDbSymbolTable
 70
     3
  0
LAYER
  5
10
330
2
100
AcDbSymbolTableRecord
100
AcDbLayerTableRecord
  2
0
 70
     0
 62
     7
  6
Continuous
370
    -3
390
F
347
3E
  0
LAYER
  5
40
330
2
100
AcDbSymbolTableRecord
100
AcDbLayerTableRecord
  2
layer 1
 70
     0
 62
     7
  6
Continuous
370
    -3
390
F
347
3E
  0
LAYER
  5
6F
330
2
100
AcDbSymbolTableRecord
100
AcDbLayerTableRecord
  2
Master Guides
 70
     0
 62
     7
  6
Continuous
370
    -3
390
F
347
3E
  0
ENDTAB
  0
TABLE
  2
STYLE
  5
3
330
0
100
AcDbSymbolTable
 70
     1
  0
STYLE
  5
11
330
3
100
AcDbSymbolTableRecord
100
AcDbTextStyleTableRecord
  2
Standard
 70
     0
 40
0.0
 41
1.0
 50
0.0
 71
     0
 42
0.2
  3
txt
  4

  0
ENDTAB
  0
TABLE
  2
VIEW
  5
6
330
0
100
AcDbSymbolTable
 70
     0
  0
ENDTAB
  0
TABLE
  2
UCS
  5
7
330
0
100
AcDbSymbolTable
 70
     0
  0
ENDTAB
  0
TABLE
  2
APPID
  5
9
330
0
100
AcDbSymbolTable
 70
     2
  0
APPID
  5
12
330
9
100
AcDbSymbolTableRecord
100
AcDbRegAppTableRecord
  2
ACAD
 70
     0
  0
APPID
  5
3F
330
9
100
AcDbSymbolTableRecord
100
AcDbRegAppTableRecord
  2
ODA
 70
     0
  0
ENDTAB
  0
TABLE
  2
DIMSTYLE
  5
A
330
0
100
AcDbSymbolTable
 70
     1
100
AcDbDimStyleTable
  0
DIMSTYLE
105
27
330
A
100
AcDbSymbolTableRecord
100
AcDbDimStyleTableRecord
  2
Standard
 70
     0
178
     0
340
11
  0
ENDTAB
  0
TABLE
  2
BLOCK_RECORD
  5
1
330
0
100
AcDbSymbolTable
 70
     1
  0
BLOCK_RECORD
  5
1F
330
1
100
AcDbSymbolTableRecord
100
AcDbBlockTableRecord
  2
*Model_Space
340
22
 70
     0
280
     1
281
     0
  0
BLOCK_RECORD
  5
1B
330
1
100
AcDbSymbolTableRecord
100
AcDbBlockTableRecord
  2
*Paper_Space
340
1E
 70
     0
280
     1
281
     0
  0
BLOCK_RECORD
  5
23
330
1
100
AcDbSymbolTableRecord
100
AcDbBlockTableRecord
  2
*Paper_Space0
340
26
 70
     0
280
     1
281
     0
  0
ENDTAB
  0
ENDSEC
  0
SECTION
  2
BLOCKS
  0
BLOCK
  5
20
330
1F
100
AcDbEntity
  8
0
100
AcDbBlockBegin
  2
*Model_Space
 70
     0
 10
0.0
 20
0.0
 30
0.0
  3
*Model_Space
  1

  0
ENDBLK
  5
21
330
1F
100
AcDbEntity
  8
0
100
AcDbBlockEnd
  0
BLOCK
  5
1C
330
1B
100
AcDbEntity
 67
     1
  8
0
100
AcDbBlockBegin
  2
*Paper_Space
 70
     0
 10
0.0
 20
0.0
 30
0.0
  3
*Paper_Space
  1

  0
ENDBLK
  5
1D
330
1B
100
AcDbEntity
 67
     1
  8
0
100
AcDbBlockEnd
  0
BLOCK
  5
24
330
23
100
AcDbEntity
  8
0
100
AcDbBlockBegin
  2
*Paper_Space0
 70
     0
 10
0.0
 20
0.0
 30
0.0
  3
*Paper_Space0
  1

  0
ENDBLK
  5
25
330
23
100
AcDbEntity
  8
0
100
AcDbBlockEnd
  0
ENDSEC
  0
SECTION
  2
ENTITIES
  0
LWPOLYLINE
  5
41
330
1F
100
AcDbEntity
  8
layer 1
 62
   250
100
AcDbPolyline
 90
        5
 70
     1
 43
0.0
 10
78.7423
 20
-97.1797
 10
196.6975
 20
-97.1797
 10
196.6975
 20
120.3217
 10
78.7423
 20
120.3217
 10
78.7423
 20
-97.1797
  0
SPLINE
  5
42
330
1F
100
AcDbEntity
  8
layer 1
 62
     7
100
AcDbSpline
210
0.0
220
0.0
230
1.0
 70
    11
 71
     3
 72
   124
 73
   120
 74
     0
 42
0.0000000001
 43
0.0000000001
 12
1.0
 22
0.0
 32
0.0
 13
1.0
 23
0.0
 33
0.0
 40
0.0
 40
0.0
 40
0.0
 40
0.0
 40
0.032258064516129
 40
0.032258064516129
 40
0.032258064516129
 40
0.032258064516129
 40
0.0645161290322581
 40
0.0645161290322581
 40
0.0645161290322581
 40
0.0645161290322581
 40
0.0967741935483871
 40
0.0967741935483871
 40
0.0967741935483871
 40
0.0967741935483871
 40
0.1290322580645161
 40
0.1290322580645161
 40
0.1290322580645161
 40
0.1290322580645161
 40
0.1612903225806452
 40
0.1612903225806452
 40
0.1612903225806452
 40
0.1612903225806452
 40
0.1935483870967742
 40
0.1935483870967742
 40
0.1935483870967742
 40
0.1935483870967742
 40
0.2258064516129032
 40
0.2258064516129032
 40
0.2258064516129032
 40
0.2258064516129032
 40
0.2580645161290323
 40
0.2580645161290323
 40
0.2580645161290323
 40
0.2580645161290323
 40
0.2903225806451613
 40
0.2903225806451613
 40
0.2903225806451613
 40
0.2903225806451613
 40
0.3225806451612903
 40
0.3225806451612903
 40
0.3225806451612903
 40
0.3225806451612903
 40
0.3548387096774194
 40
0.3548387096774194
 40
0.3548387096774194
 40
0.3548387096774194
 40
0.3870967741935484
 40
0.3870967741935484
 40
0.3870967741935484
 40
0.3870967741935484
 40
0.4193548387096774
 40
0.4193548387096774
 40
0.4193548387096774
 40
0.4193548387096774
 40
0.4516129032258064
 40
0.4516129032258064
 40
0.4516129032258064
 40
0.4516129032258064
 40
0.4838709677419355
 40
0.4838709677419355
 40
0.4838709677419355
 40
0.4838709677419355
 40
0.5161290322580645
 40
0.5161290322580645
 40
0.5161290322580645
 40
0.5161290322580645
 40
0.5483870967741935
 40
0.5483870967741935
 40
0.5483870967741935
 40
0.5483870967741935
 40
0.5806451612903226
 40
0.5806451612903226
 40
0.5806451612903226
 40
0.5806451612903226
 40
0.6129032258064516
 40
0.6129032258064516
 40
0.6129032258064516
 40
0.6129032258064516
 40
0.6451612903225806
 40
0.6451612903225806
 40
0.6451612903225806
 40
0.6451612903225806
 40
0.6774193548387096
 40
0.6774193548387096
 40
0.6774193548387096
 40
0.6774193548387096
 40
0.7096774193548387
 40
0.7096774193548387
 40
0.7096774193548387
 40
0.7096774193548387
 40
0.7419354838709677
 40
0.7419354838709677
 40
0.7419354838709677
 40
0.7419354838709677
 40
0.7741935483870968
 40
0.7741935483870968
 40
0.7741935483870968
 40
0.7741935483870968
 40
0.8064516129032258
 40
0.8064516129032258
 40
0.8064516129032258
 40
0.8064516129032258
 40
0.8387096774193549
 40
0.8387096774193549
 40
0.8387096774193549
 40
0.8387096774193549
 40
0.8709677419354839
 40
0.8709677419354839
 40
0.8709677419354839
 40
0.8709677419354839
 40
0.9032258064516129
 40
0.9032258064516129
 40
0.9032258064516129
 40
0.9032258064516129
 40
0.9354838709677419
 40
0.9354838709677419
 40
0.9354838709677419
 40
0.9354838709677419
 40
1.0
 40
1.0
 40
1.0
 40
1.0
 10
127.8018
 20
-23.2966
 30
0.0
 10
126.7999
 20
-23.9501
 30
0.0
 10
125.4472
 20
-23.5502
 30
0.0
 10
124.916
 20
-22.6301
 30
0.0
 10
124.916
 20
-22.6301
 30
0.0
 10
124.3849
 20
-21.7101
 30
0.0
 10
124.7148
 20
-20.3386
 30
0.0
 10
125.7817
 20
-19.7977
 30
0.0
 10
125.7817
 20
-19.7977
 30
0.0
 10
128.3496
 20
-18.4958
 30
0.0
 10
132.0042
 20
-18.2789
 30
0.0
 10
133.6929
 20
-16.5701
 30
0.0
 10
133.6929
 20
-16.5701
 30
0.0
 10
133.3425
 20
-15.7211
 30
0.0
 10
133.2723
 20
-14.7014
 30
0.0
 10
133.5013
 20
-13.9346
 30
0.0
 10
133.5013
 20
-13.9346
 30
0.0
 10
131.8126
 20
-12.2257
 30
0.0
 10
128.158
 20
-12.0089
 30
0.0
 10
125.5902
 20
-10.707
 30
0.0
 10
125.5902
 20
-10.707
 30
0.0
 10
124.5232
 20
-10.166
 30
0.0
 10
124.1933
 20
-8.7946
 30
0.0
 10
124.7245
 20
-7.8745
 30
0.0
 10
124.7245
 20
-7.8745
 30
0.0
 10
125.2556
 20
-6.9545
 30
0.0
 10
126.6084
 20
-6.5544
 30
0.0
 10
127.6102
 20
-7.2081
 30
0.0
 10
127.6102
 20
-7.2081
 30
0.0
 10
130.0217
 20
-8.7809
 30
0.0
 10
132.0368
 20
-11.8374
 30
0.0
 10
134.361
 20
-12.4455
 30
0.0
 10
134.361
 20
-12.4455
 30
0.0
 10
134.9434
 20
-11.7434
 30
0.0
 10
136.0534
 20
-10.9844
 30
0.0
 10
137.0563
 20
-10.846
 30
0.0
 10
137.0563
 20
-10.846
 30
0.0
 10
137.6918
 20
-8.5293
 30
0.0
 10
136.0524
 20
-5.2557
 30
0.0
 10
135.8958
 20
-2.381
 30
0.0
 10
135.8958
 20
-2.381
 30
0.0
 10
135.8308
 20
-1.1866
 30
0.0
 10
136.8536
 20
-0.215
 30
0.0
 10
137.916
 20
-0.215
 30
0.0
 10
137.916
 20
-0.215
 30
0.0
 10
138.9784
 20
-0.215
 30
0.0
 10
140.0012
 20
-1.1866
 30
0.0
 10
139.9362
 20
-2.381
 30
0.0
 10
139.9362
 20
-2.381
 30
0.0
 10
139.7798
 20
-5.2557
 30
0.0
 10
138.1403
 20
-8.5293
 30
0.0
 10
138.7758
 20
-10.846
 30
0.0
 10
138.7758
 20
-10.846
 30
0.0
 10
139.7335
 20
-11.0319
 30
0.0
 10
140.7622
 20
-11.5838
 30
0.0
 10
141.2727
 20
-12.1992
 30
0.0
 10
141.2727
 20
-12.1992
 30
0.0
 10
143.5968
 20
-11.5911
 30
0.0
 10
145.612
 20
-8.5346
 30
0.0
 10
148.0234
 20
-6.9618
 30
0.0
 10
148.0234
 20
-6.9618
 30
0.0
 10
149.0253
 20
-6.3083
 30
0.0
 10
150.3781
 20
-6.7082
 30
0.0
 10
150.9092
 20
-7.6282
 30
0.0
 10
150.9092
 20
-7.6282
 30
0.0
 10
151.4404
 20
-8.5483
 30
0.0
 10
151.1104
 20
-9.9197
 30
0.0
 10
150.0435
 20
-10.4606
 30
0.0
 10
150.0435
 20
-10.4606
 30
0.0
 10
147.4757
 20
-11.7626
 30
0.0
 10
143.8211
 20
-11.9794
 30
0.0
 10
142.1324
 20
-13.6882
 30
0.0
 10
142.1324
 20
-13.6882
 30
0.0
 10
142.594
 20
-14.5059
 30
0.0
 10
142.4964
 20
-15.853
 30
0.0
 10
142.2692
 20
-16.57
 30
0.0
 10
142.2692
 20
-16.57
 30
0.0
 10
143.9579
 20
-18.2788
 30
0.0
 10
147.6125
 20
-18.4956
 30
0.0
 10
150.1803
 20
-19.7976
 30
0.0
 10
150.1803
 20
-19.7976
 30
0.0
 10
151.2473
 20
-20.3385
 30
0.0
 10
151.5772
 20
-21.71
 30
0.0
 10
151.0461
 20
-22.63
 30
0.0
 10
151.0461
 20
-22.63
 30
0.0
 10
150.5149
 20
-23.55
 30
0.0
 10
149.1621
 20
-23.9501
 30
0.0
 10
148.1603
 20
-23.2965
 30
0.0
 10
148.1603
 20
-23.2965
 30
0.0
 10
145.7488
 20
-21.7236
 30
0.0
 10
143.7337
 20
-18.6671
 30
0.0
 10
141.4095
 20
-18.059
 30
0.0
 10
141.4095
 20
-18.059
 30
0.0
 10
140.7553
 20
-18.8039
 30
0.0
 10
139.63
 20
-19.3531
 30
0.0
 10
138.7758
 20
-19.4987
 30
0.0
 10
138.7758
 20
-19.4987
 30
0.0
 10
138.1403
 20
-21.8155
 30
0.0
 10
139.7797
 20
-25.0891
 30
0.0
 10
139.9362
 20
-27.9638
 30
0.0
 10
139.9362
 20
-27.9638
 30
0.0
 10
140.0013
 20
-29.1582
 30
0.0
 10
138.9785
 20
-30.1298
 30
0.0
 10
137.916
 20
-30.1298
 30
0.0
 10
137.916
 20
-30.1298
 30
0.0
 10
136.8537
 20
-30.1298
 30
0.0
 10
135.8309
 20
-29.1582
 30
0.0
 10
135.8958
 20
-27.9638
 30
0.0
 10
135.8958
 20
-27.9638
 30
0.0
 10
136.0522
 20
-25.0891
 30
0.0
 10
137.6918
 20
-21.8155
 30
0.0
 10
137.0563
 20
-19.4987
 30
0.0
 10
137.0563
 20
-19.4987
 30
0.0
 10
136.1723
 20
-19.2653
 30
0.0
 10
135.2866
 20
-19.0482
 30
0.0
 10
134.5524
 20
-18.059
 30
0.0
 10
134.5524
 20
-18.059
 30
0.0
 10
132.4099
 20
-18.9582
 30
0.0
 10
128.5413
 20
-22.8143
 30
0.0
 10
127.8018
 20
-23.2966
 30
0.0
  0
SPLINE
  5
43
330
1F
100
AcDbEntity
  8
layer 1
 62
     7
100
AcDbSpline
210
0.0
220
0.0
230
1.0
 70
    11
 71
     3
 72
   124
 73
   120
 74
     0
 42
0.0000000001
 43
0.0000000001
 12
1.0
 22
0.0
 32
0.0
 13
1.0
 23
0.0
 33
0.0
 40
0.0
 40
0.0
 40
0.0
 40
0.0
 40
0.032258064516129
 40
0.032258064516129
 40
0.032258064516129
 40
0.032258064516129
 40
0.0645161290322581
 40
0.0645161290322581
 40
0.0645161290322581
 40
0.0645161290322581
 40
0.0967741935483871
 40
0.0967741935483871
 40
0.0967741935483871
 40
0.0967741935483871
 40
0.1290322580645161
 40
0.1290322580645161
 40
0.1290322580645161
 40
0.1290322580645161
 40
0.1612903225806452
 40
0.1612903225806452
 40
0.1612903225806452
 40
0.1612903225806452
 40
0.1935483870967742
 40
0.1935483870967742
 40
0.1935483870967742
 40
0.1935483870967742
 40
0.2258064516129032
 40
0.2258064516129032
 40
0.2258064516129032
 40
0.2258064516129032
 40
0.2580645161290323
 40
0.2580645161290323
 40
0.2580645161290323
 40
0.2580645161290323
 40
0.2903225806451613
 40
0.2903225806451613
 40
0.2903225806451613
 40
0.2903225806451613
 40
0.3225806451612903
 40
0.3225806451612903
 40
0.3225806451612903
 40
0.3225806451612903
 40
0.3548387096774194
 40
0.3548387096774194
 40
0.3548387096774194
 40
0.3548387096774194
 40
0.3870967741935484
 40
0.3870967741935484
 40
0.3870967741935484
 40
0.3870967741935484
 40
0.4193548387096774
 40
0.4193548387096774
 40
0.4193548387096774
 40
0.4193548387096774
 40
0.4516129032258064
 40
0.4516129032258064
 40
0.4516129032258064
 40
0.4516129032258064
 40
0.4838709677419355
 40
0.4838709677419355
 40
0.4838709677419355
 40
0.4838709677419355
 40
0.5161290322580645
 40
0.5161290322580645
 40
0.5161290322580645
 40
0.5161290322580645
 40
0.5483870967741935
 40
0.5483870967741935
 40
0.5483870967741935
 40
0.5483870967741935
 40
0.5806451612903226
 40
0.5806451612903226
 40
0.5806451612903226
 40
0.5806451612903226
 40
0.6129032258064516
 40
0.6129032258064516
 40
0.6129032258064516
 40
0.6129032258064516
 40
0.6451612903225806
 40
0.6451612903225806
 40
0.6451612903225806
 40
0.6451612903225806
 40
0.6774193548387096
 40
0.6774193548387096
 40
0.6774193548387096
 40
0.6774193548387096
 40
0.7096774193548387
 40
0.7096774193548387
 40
0.7096774193548387
 40
0.7096774193548387
 40
0.7419354838709677
 40
0.7419354838709677
 40
0.7419354838709677
 40
0.7419354838709677
 40
0.7741935483870968
 40
0.7741935483870968
 40
0.7741935483870968
 40
0.7741935483870968
 40
0.8064516129032258
 40
0.8064516129032258
 40
0.8064516129032258
 40
0.8064516129032258
 40
0.8387096774193549
 40
0.8387096774193549
 40
0.8387096774193549
 40
0.8387096774193549
 40
0.8709677419354839
 40
0.8709677419354839
 40
0.8709677419354839
 40
0.8709677419354839
 40
0.9032258064516129
 40
0.9032258064516129
 40
0.9032258064516129
 40
0.9032258064516129
 40
0.9354838709677419
 40
0.9354838709677419
 40
0.9354838709677419
 40
0.9354838709677419
 40
1.0
 40
1.0
 40
1.0
 40
1.0
 10
107.7257
 20
-27.25
 30
0.0
 10
107.1847
 20
-28.3169
 30
0.0
 10
105.8133
 20
-28.6469
 30
0.0
 10
104.8932
 20
-28.1157
 30
0.0
 10
104.8932
 20
-28.1157
 30
0.0
 10
103.9732
 20
-27.5846
 30
0.0
 10
103.5731
 20
-26.2318
 30
0.0
 10
104.2268
 20
-25.2299
 30
0.0
 10
104.2268
 20
-25.2299
 30
0.0
 10
105.7996
 20
-22.8185
 30
0.0
 10
108.8561
 20
-20.8033
 30
0.0
 10
109.4642
 20
-18.4792
 30
0.0
 10
109.4642
 20
-18.4792
 30
0.0
 10
108.7363
 20
-17.9191
 30
0.0
 10
108.1656
 20
-17.0711
 30
0.0
 10
107.9806
 20
-16.2925
 30
0.0
 10
107.9806
 20
-16.2925
 30
0.0
 10
105.6639
 20
-15.6571
 30
0.0
 10
102.3903
 20
-17.2965
 30
0.0
 10
99.5156
 20
-17.453
 30
0.0
 10
99.5156
 20
-17.453
 30
0.0
 10
98.3212
 20
-17.5181
 30
0.0
 10
97.3496
 20
-16.4953
 30
0.0
 10
97.3496
 20
-15.4328
 30
0.0
 10
97.3496
 20
-15.4328
 30
0.0
 10
97.3496
 20
-14.3705
 30
0.0
 10
98.3212
 20
-13.3477
 30
0.0
 10
99.5156
 20
-13.4126
 30
0.0
 10
99.5156
 20
-13.4126
 30
0.0
 10
102.3903
 20
-13.569
 30
0.0
 10
105.6639
 20
-15.2086
 30
0.0
 10
107.9806
 20
-14.5731
 30
0.0
 10
107.9806
 20
-14.5731
 30
0.0
 10
108.1339
 20
-13.6739
 30
0.0
 10
108.7157
 20
-12.4616
 30
0.0
 10
109.5152
 20
-11.8402
 30
0.0
 10
109.5152
 20
-11.8402
 30
0.0
 10
108.9071
 20
-9.516
 30
0.0
 10
105.8505
 20
-7.5009
 30
0.0
 10
104.2777
 20
-5.0894
 30
0.0
 10
104.2777
 20
-5.0894
 30
0.0
 10
103.6243
 20
-4.0876
 30
0.0
 10
104.0242
 20
-2.7348
 30
0.0
 10
104.9442
 20
-2.2037
 30
0.0
 10
104.9442
 20
-2.2037
 30
0.0
 10
105.8642
 20
-1.6725
 30
0.0
 10
107.2357
 20
-2.0024
 30
0.0
 10
107.7766
 20
-3.0694
 30
0.0
 10
107.7766
 20
-3.0694
 30
0.0
 10
109.0786
 20
-5.6372
 30
0.0
 10
109.2954
 20
-9.2918
 30
0.0
 10
111.0042
 20
-10.9805
 30
0.0
 10
111.0042
 20
-10.9805
 30
0.0
 10
111.9265
 20
-10.6626
 30
0.0
 10
113.0934
 20
-10.6263
 30
0.0
 10
113.8432
 20
-10.904
 30
0.0
 10
113.8432
 20
-10.904
 30
0.0
 10
115.552
 20
-9.2153
 30
0.0
 10
115.7689
 20
-5.5607
 30
0.0
 10
117.0708
 20
-2.9929
 30
0.0
 10
117.0708
 20
-2.9929
 30
0.0
 10
117.6117
 20
-1.9259
 30
0.0
 10
118.9832
 20
-1.596
 30
0.0
 10
119.9032
 20
-2.1271
 30
0.0
 10
119.9032
 20
-2.1271
 30
0.0
 10
120.8233
 20
-2.6583
 30
0.0
 10
121.2233
 20
-4.011
 30
0.0
 10
120.5697
 20
-5.0129
 30
0.0
 10
120.5697
 20
-5.0129
 30
0.0
 10
118.9969
 20
-7.4244
 30
0.0
 10
115.9403
 20
-9.4395
 30
0.0
 10
115.3323
 20
-11.7637
 30
0.0
 10
115.3323
 20
-11.7637
 30
0.0
 10
116.1409
 20
-12.241
 30
0.0
 10
116.7298
 20
-13.4563
 30
0.0
 10
116.8915
 20
-14.1909
 30
0.0
 10
116.8915
 20
-14.1909
 30
0.0
 10
119.2083
 20
-14.8264
 30
0.0
 10
122.4818
 20
-13.187
 30
0.0
 10
125.3566
 20
-13.0304
 30
0.0
 10
125.3566
 20
-13.0304
 30
0.0
 10
126.551
 20
-12.9654
 30
0.0
 10
127.5225
 20
-13.9882
 30
0.0
 10
127.5225
 20
-15.0506
 30
0.0
 10
127.5225
 20
-15.0506
 30
0.0
 10
127.5225
 20
-16.113
 30
0.0
 10
126.551
 20
-17.1358
 30
0.0
 10
125.3566
 20
-17.0708
 30
0.0
 10
125.3566
 20
-17.0708
 30
0.0
 10
122.4818
 20
-16.9144
 30
0.0
 10
119.2083
 20
-15.2749
 30
0.0
 10
116.8915
 20
-15.9103
 30
0.0
 10
116.8915
 20
-15.9103
 30
0.0
 10
116.6974
 20
-16.8826
 30
0.0
 10
115.9975
 20
-17.9208
 30
0.0
 10
115.3304
 20
-18.474
 30
0.0
 10
115.3304
 20
-18.474
 30
0.0
 10
115.9385
 20
-20.7982
 30
0.0
 10
118.9951
 20
-22.8133
 30
0.0
 10
120.5679
 20
-25.2248
 30
0.0
 10
120.5679
 20
-25.2248
 30
0.0
 10
121.2214
 20
-26.2266
 30
0.0
 10
120.8215
 20
-27.5794
 30
0.0
 10
119.9014
 20
-28.1105
 30
0.0
 10
119.9014
 20
-28.1105
 30
0.0
 10
118.9814
 20
-28.6417
 30
0.0
 10
117.6099
 20
-28.3118
 30
0.0
 10
117.069
 20
-27.2448
 30
0.0
 10
117.069
 20
-27.2448
 30
0.0
 10
115.7671
 20
-24.677
 30
0.0
 10
115.5502
 20
-21.0224
 30
0.0
 10
113.8414
 20
-19.3337
 30
0.0
 10
113.8414
 20
-19.3337
 30
0.0
 10
112.9235
 20
-19.6352
 30
0.0
 10
111.8232
 20
-19.6229
 30
0.0
 10
110.9531
 20
-19.3389
 30
0.0
 10
110.9531
 20
-19.3389
 30
0.0
 10
109.7661
 20
-20.818
 30
0.0
 10
108.3649
 20
-25.9891
 30
0.0
 10
107.7257
 20
-27.25
 30
0.0
  0
SPLINE
  5
44
330
1F
100
AcDbEntity
  8
layer 1
 62
     7
100
AcDbSpline
210
0.0
220
0.0
230
1.0
 70
    11
 71
     3
 72
   124
 73
   120
 74
     0
 42
0.0000000001
 43
0.0000000001
 12
1.0
 22
0.0
 32
0.0
 13
1.0
 23
0.0
 33
0.0
 40
0.0
 40
0.0
 40
0.0
 40
0.0
 40
0.032258064516129
 40
0.032258064516129
 40
0.032258064516129
 40
0.032258064516129
 40
0.0645161290322581
 40
0.0645161290322581
 40
0.0645161290322581
 40
0.0645161290322581
 40
0.0967741935483871
 40
0.0967741935483871
 40
0.0967741935483871
 40
0.0967741935483871
 40
0.1290322580645161
 40
0.1290322580645161
 40
0.1290322580645161
 40
0.1290322580645161
 40
0.1612903225806452
 40
0.1612903225806452
 40
0.1612903225806452
 40
0.1612903225806452
 40
0.1935483870967742
 40
0.1935483870967742
 40
0.1935483870967742
 40
0.1935483870967742
 40
0.2258064516129032
 40
0.2258064516129032
 40
0.2258064516129032
 40
0.2258064516129032
 40
0.2580645161290323
 40
0.2580645161290323
 40
0.2580645161290323
 40
0.2580645161290323
 40
0.2903225806451613
 40
0.2903225806451613
 40
0.2903225806451613
 40
0.2903225806451613
 40
0.3225806451612903
 40
0.3225806451612903
 40
0.3225806451612903
 40
0.3225806451612903
 40
0.3548387096774194
 40
0.3548387096774194
 40
0.3548387096774194
 40
0.3548387096774194
 40
0.3870967741935484
 40
0.3870967741935484
 40
0.3870967741935484
 40
0.3870967741935484
 40
0.4193548387096774
 40
0.4193548387096774
 40
0.4193548387096774
 40
0.4193548387096774
 40
0.4516129032258064
 40
0.4516129032258064
 40
0.4516129032258064
 40
0.4516129032258064
 40
0.4838709677419355
 40
0.4838709677419355
 40
0.4838709677419355
 40
0.4838709677419355
 40
0.5161290322580645
 40
0.5161290322580645
 40
0.5161290322580645
 40
0.5161290322580645
 40
0.5483870967741935
 40
0.5483870967741935
 40
0.5483870967741935
 40
0.5483870967741935
 40
0.5806451612903226
 40
0.5806451612903226
 40
0.5806451612903226
 40
0.5806451612903226
 40
0.6129032258064516
 40
0.6129032258064516
 40
0.6129032258064516
 40
0.6129032258064516
 40
0.6451612903225806
 40
0.6451612903225806
 40
0.6451612903225806
 40
0.6451612903225806
 40
0.6774193548387096
 40
0.6774193548387096
 40
0.6774193548387096
 40
0.6774193548387096
 40
0.7096774193548387
 40
0.7096774193548387
 40
0.7096774193548387
 40
0.7096774193548387
 40
0.7419354838709677
 40
0.7419354838709677
 40
0.7419354838709677
 40
0.7419354838709677
 40
0.7741935483870968
 40
0.7741935483870968
 40
0.7741935483870968
 40
0.7741935483870968
 40
0.8064516129032258
 40
0.8064516129032258
 40
0.8064516129032258
 40
0.8064516129032258
 40
0.8387096774193549
 40
0.8387096774193549
 40
0.8387096774193549
 40
0.8387096774193549
 40
0.8709677419354839
 40
0.8709677419354839
 40
0.8709677419354839
 40
0.8709677419354839
 40
0.9032258064516129
 40
0.9032258064516129
 40
0.9032258064516129
 40
0.9032258064516129
 40
0.9354838709677419
 40
0.9354838709677419
 40
0.9354838709677419
 40
0.9354838709677419
 40
1.0
 40
1.0
 40
1.0
 40
1.0
 10
158.5143
 20
-27.25
 30
0.0
 10
157.9733
 20
-28.3169
 30
0.0
 10
156.6019
 20
-28.6469
 30
0.0
 10
155.6818
 20
-28.1157
 30
0.0
 10
155.6818
 20
-28.1157
 30
0.0
 10
154.7618
 20
-27.5846
 30
0.0
 10
154.3618
 20
-26.2318
 30
0.0
 10
155.0154
 20
-25.2299
 30
0.0
 10
155.0154
 20
-25.2299
 30
0.0
 10
156.5882
 20
-22.8185
 30
0.0
 10
159.6447
 20
-20.8033
 30
0.0
 10
160.2528
 20
-18.4792
 30
0.0
 10
160.2528
 20
-18.4792
 30
0.0
 10
159.5249
 20
-17.9191
 30
0.0
 10
158.9542
 20
-17.0711
 30
0.0
 10
158.7692
 20
-16.2925
 30
0.0
 10
158.7692
 20
-16.2925
 30
0.0
 10
156.4525
 20
-15.6571
 30
0.0
 10
153.1789
 20
-17.2965
 30
0.0
 10
150.3042
 20
-17.453
 30
0.0
 10
150.3042
 20
-17.453
 30
0.0
 10
149.1098
 20
-17.5181
 30
0.0
 10
148.1382
 20
-16.4953
 30
0.0
 10
148.1382
 20
-15.4328
 30
0.0
 10
148.1382
 20
-15.4328
 30
0.0
 10
148.1382
 20
-14.3705
 30
0.0
 10
149.1098
 20
-13.3477
 30
0.0
 10
150.3042
 20
-13.4126
 30
0.0
 10
150.3042
 20
-13.4126
 30
0.0
 10
153.1789
 20
-13.569
 30
0.0
 10
156.4525
 20
-15.2086
 30
0.0
 10
158.7692
 20
-14.5731
 30
0.0
 10
158.7692
 20
-14.5731
 30
0.0
 10
158.9226
 20
-13.6739
 30
0.0
 10
159.5043
 20
-12.4616
 30
0.0
 10
160.3038
 20
-11.8402
 30
0.0
 10
160.3038
 20
-11.8402
 30
0.0
 10
159.6957
 20
-9.516
 30
0.0
 10
156.6391
 20
-7.5009
 30
0.0
 10
155.0663
 20
-5.0894
 30
0.0
 10
155.0663
 20
-5.0894
 30
0.0
 10
154.4129
 20
-4.0876
 30
0.0
 10
154.8128
 20
-2.7348
 30
0.0
 10
155.7328
 20
-2.2037
 30
0.0
 10
155.7328
 20
-2.2037
 30
0.0
 10
156.6528
 20
-1.6725
 30
0.0
 10
158.0243
 20
-2.0024
 30
0.0
 10
158.5652
 20
-3.0694
 30
0.0
 10
158.5652
 20
-3.0694
 30
0.0
 10
159.8672
 20
-5.6372
 30
0.0
 10
160.084
 20
-9.2918
 30
0.0
 10
161.7928
 20
-10.9805
 30
0.0
 10
161.7928
 20
-10.9805
 30
0.0
 10
162.7151
 20
-10.6626
 30
0.0
 10
163.882
 20
-10.6263
 30
0.0
 10
164.6318
 20
-10.904
 30
0.0
 10
164.6318
 20
-10.904
 30
0.0
 10
166.3406
 20
-9.2153
 30
0.0
 10
166.5575
 20
-5.5607
 30
0.0
 10
167.8594
 20
-2.9929
 30
0.0
 10
167.8594
 20
-2.9929
 30
0.0
 10
168.4003
 20
-1.9259
 30
0.0
 10
169.7718
 20
-1.596
 30
0.0
 10
170.6918
 20
-2.1271
 30
0.0
 10
170.6918
 20
-2.1271
 30
0.0
 10
171.6119
 20
-2.6583
 30
0.0
 10
172.0119
 20
-4.011
 30
0.0
 10
171.3583
 20
-5.0129
 30
0.0
 10
171.3583
 20
-5.0129
 30
0.0
 10
169.7855
 20
-7.4244
 30
0.0
 10
166.729
 20
-9.4395
 30
0.0
 10
166.1209
 20
-11.7637
 30
0.0
 10
166.1209
 20
-11.7637
 30
0.0
 10
166.9295
 20
-12.241
 30
0.0
 10
167.5184
 20
-13.4563
 30
0.0
 10
167.6801
 20
-14.1909
 30
0.0
 10
167.6801
 20
-14.1909
 30
0.0
 10
169.9969
 20
-14.8264
 30
0.0
 10
173.2704
 20
-13.187
 30
0.0
 10
176.1452
 20
-13.0304
 30
0.0
 10
176.1452
 20
-13.0304
 30
0.0
 10
177.3396
 20
-12.9654
 30
0.0
 10
178.3111
 20
-13.9882
 30
0.0
 10
178.3111
 20
-15.0506
 30
0.0
 10
178.3111
 20
-15.0506
 30
0.0
 10
178.3111
 20
-16.113
 30
0.0
 10
177.3396
 20
-17.1358
 30
0.0
 10
176.1452
 20
-17.0708
 30
0.0
 10
176.1452
 20
-17.0708
 30
0.0
 10
173.2704
 20
-16.9144
 30
0.0
 10
169.9969
 20
-15.2749
 30
0.0
 10
167.6801
 20
-15.9103
 30
0.0
 10
167.6801
 20
-15.9103
 30
0.0
 10
167.486
 20
-16.8826
 30
0.0
 10
166.7861
 20
-17.9208
 30
0.0
 10
166.119
 20
-18.474
 30
0.0
 10
166.119
 20
-18.474
 30
0.0
 10
166.7271
 20
-20.7982
 30
0.0
 10
169.7837
 20
-22.8133
 30
0.0
 10
171.3565
 20
-25.2248
 30
0.0
 10
171.3565
 20
-25.2248
 30
0.0
 10
172.01
 20
-26.2266
 30
0.0
 10
171.6101
 20
-27.5794
 30
0.0
 10
170.69
 20
-28.1105
 30
0.0
 10
170.69
 20
-28.1105
 30
0.0
 10
169.77
 20
-28.6417
 30
0.0
 10
168.3985
 20
-28.3118
 30
0.0
 10
167.8576
 20
-27.2448
 30
0.0
 10
167.8576
 20
-27.2448
 30
0.0
 10
166.5557
 20
-24.677
 30
0.0
 10
166.3388
 20
-21.0224
 30
0.0
 10
164.63
 20
-19.3337
 30
0.0
 10
164.63
 20
-19.3337
 30
0.0
 10
163.7121
 20
-19.6352
 30
0.0
 10
162.6118
 20
-19.6229
 30
0.0
 10
161.7417
 20
-19.3389
 30
0.0
 10
161.7417
 20
-19.3389
 30
0.0
 10
160.5547
 20
-20.818
 30
0.0
 10
159.1535
 20
-25.9891
 30
0.0
 10
158.5143
 20
-27.25
 30
0.0
  0
SPLINE
  5
45
330
1F
100
AcDbEntity
  8
layer 1
 62
     7
100
AcDbSpline
210
0.0
220
0.0
230
1.0
 70
    11
 71
     3
 72
    68
 73
    64
 74
     0
 42
0.0000000001
 43
0.0000000001
 12
1.0
 22
0.0
 32
0.0
 13
1.0
 23
0.0
 33
0.0
 40
0.0
 40
0.0
 40
0.0
 40
0.0
 40
0.0588235294117647
 40
0.0588235294117647
 40
0.0588235294117647
 40
0.0588235294117647
 40
0.1176470588235294
 40
0.1176470588235294
 40
0.1176470588235294
 40
0.1176470588235294
 40
0.1764705882352941
 40
0.1764705882352941
 40
0.1764705882352941
 40
0.1764705882352941
 40
0.2352941176470588
 40
0.2352941176470588
 40
0.2352941176470588
 40
0.2352941176470588
 40
0.2941176470588235
 40
0.2941176470588235
 40
0.2941176470588235
 40
0.2941176470588235
 40
0.3529411764705883
 40
0.3529411764705883
 40
0.3529411764705883
 40
0.3529411764705883
 40
0.4117647058823529
 40
0.4117647058823529
 40
0.4117647058823529
 40
0.4117647058823529
 40
0.4705882352941176
 40
0.4705882352941176
 40
0.4705882352941176
 40
0.4705882352941176
 40
0.5294117647058824
 40
0.5294117647058824
 40
0.5294117647058824
 40
0.5294117647058824
 40
0.5882352941176471
 40
0.5882352941176471
 40
0.5882352941176471
 40
0.5882352941176471
 40
0.6470588235294118
 40
0.6470588235294118
 40
0.6470588235294118
 40
0.6470588235294118
 40
0.7058823529411765
 40
0.7058823529411765
 40
0.7058823529411765
 40
0.7058823529411765
 40
0.7647058823529411
 40
0.7647058823529411
 40
0.7647058823529411
 40
0.7647058823529411
 40
0.8235294117647058
 40
0.8235294117647058
 40
0.8235294117647058
 40
0.8235294117647058
 40
0.8823529411764706
 40
0.8823529411764706
 40
0.8823529411764706
 40
0.8823529411764706
 40
1.0
 40
1.0
 40
1.0
 40
1.0
 10
86.8158
 20
-0.215
 30
0.0
 10
87.8781
 20
-0.215
 30
0.0
 10
88.9009
 20
-1.1866
 30
0.0
 10
88.836
 20
-2.381
 30
0.0
 10
88.836
 20
-2.381
 30
0.0
 10
88.6796
 20
-5.2557
 30
0.0
 10
87.04
 20
-8.5293
 30
0.0
 10
87.6755
 20
-10.846
 30
0.0
 10
87.6755
 20
-10.846
 30
0.0
 10
88.6332
 20
-11.0319
 30
0.0
 10
89.6619
 20
-11.5838
 30
0.0
 10
90.1724
 20
-12.1992
 30
0.0
 10
90.1724
 20
-12.1992
 30
0.0
 10
92.4966
 20
-11.5911
 30
0.0
 10
94.5117
 20
-8.5346
 30
0.0
 10
96.9232
 20
-6.9618
 30
0.0
 10
96.9232
 20
-6.9618
 30
0.0
 10
97.925
 20
-6.3083
 30
0.0
 10
99.2778
 20
-6.7082
 30
0.0
 10
99.8089
 20
-7.6282
 30
0.0
 10
99.8089
 20
-7.6282
 30
0.0
 10
100.3401
 20
-8.5483
 30
0.0
 10
100.0102
 20
-9.9197
 30
0.0
 10
98.9432
 20
-10.4606
 30
0.0
 10
98.9432
 20
-10.4606
 30
0.0
 10
96.3754
 20
-11.7626
 30
0.0
 10
92.7208
 20
-11.9794
 30
0.0
 10
91.0321
 20
-13.6882
 30
0.0
 10
91.0321
 20
-13.6882
 30
0.0
 10
91.4937
 20
-14.5059
 30
0.0
 10
91.3961
 20
-15.853
 30
0.0
 10
91.1689
 20
-16.57
 30
0.0
 10
91.1689
 20
-16.57
 30
0.0
 10
92.8577
 20
-18.2788
 30
0.0
 10
96.5122
 20
-18.4956
 30
0.0
 10
99.0801
 20
-19.7976
 30
0.0
 10
99.0801
 20
-19.7976
 30
0.0
 10
100.147
 20
-20.3385
 30
0.0
 10
100.4769
 20
-21.71
 30
0.0
 10
99.9458
 20
-22.63
 30
0.0
 10
99.9458
 20
-22.63
 30
0.0
 10
99.4146
 20
-23.55
 30
0.0
 10
98.0619
 20
-23.9501
 30
0.0
 10
97.06
 20
-23.2965
 30
0.0
 10
97.06
 20
-23.2965
 30
0.0
 10
94.6486
 20
-21.7236
 30
0.0
 10
92.6334
 20
-18.6671
 30
0.0
 10
90.3092
 20
-18.059
 30
0.0
 10
90.3092
 20
-18.059
 30
0.0
 10
89.6551
 20
-18.8039
 30
0.0
 10
88.5298
 20
-19.3531
 30
0.0
 10
87.6755
 20
-19.4987
 30
0.0
 10
87.6755
 20
-19.4987
 30
0.0
 10
87.04
 20
-21.8155
 30
0.0
 10
88.6794
 20
-25.0891
 30
0.0
 10
88.836
 20
-27.9638
 30
0.0
 10
88.836
 20
-27.9638
 30
0.0
 10
88.901
 20
-29.1582
 30
0.0
 10
87.8782
 20
-30.1298
 30
0.0
 10
86.8158
 20
-30.1298
 30
0.0
 10
86.8158
 20
-30.1298
 30
0.0
 10
86.8158
 20
-30.1298
 30
0.0
 10
86.8158
 20
-0.215
 30
0.0
 10
86.8158
 20
-0.215
 30
0.0
  0
SPLINE
  5
46
330
1F
100
AcDbEntity
  8
layer 1
 62
     7
100
AcDbSpline
210
0.0
220
0.0
230
1.0
 70
    11
 71
     3
 72
    68
 73
    64
 74
     0
 42
0.0000000001
 43
0.0000000001
 12
1.0
 22
0.0
 32
0.0
 13
1.0
 23
0.0
 33
0.0
 40
0.0
 40
0.0
 40
0.0
 40
0.0
 40
0.0588235294117647
 40
0.0588235294117647
 40
0.0588235294117647
 40
0.0588235294117647
 40
0.1176470588235294
 40
0.1176470588235294
 40
0.1176470588235294
 40
0.1176470588235294
 40
0.1764705882352941
 40
0.1764705882352941
 40
0.1764705882352941
 40
0.1764705882352941
 40
0.2352941176470588
 40
0.2352941176470588
 40
0.2352941176470588
 40
0.2352941176470588
 40
0.2941176470588235
 40
0.2941176470588235
 40
0.2941176470588235
 40
0.2941176470588235
 40
0.3529411764705883
 40
0.3529411764705883
 40
0.3529411764705883
 40
0.3529411764705883
 40
0.4117647058823529
 40
0.4117647058823529
 40
0.4117647058823529
 40
0.4117647058823529
 40
0.4705882352941176
 40
0.4705882352941176
 40
0.4705882352941176
 40
0.4705882352941176
 40
0.5294117647058824
 40
0.5294117647058824
 40
0.5294117647058824
 40
0.5294117647058824
 40
0.5882352941176471
 40
0.5882352941176471
 40
0.5882352941176471
 40
0.5882352941176471
 40
0.6470588235294118
 40
0.6470588235294118
 40
0.6470588235294118
 40
0.6470588235294118
 40
0.7058823529411765
 40
0.7058823529411765
 40
0.7058823529411765
 40
0.7058823529411765
 40
0.7647058823529411
 40
0.7647058823529411
 40
0.7647058823529411
 40
0.7647058823529411
 40
0.8235294117647058
 40
0.8235294117647058
 40
0.8235294117647058
 40
0.8235294117647058
 40
0.8823529411764706
 40
0.8823529411764706
 40
0.8823529411764706
 40
0.8823529411764706
 40
1.0
 40
1.0
 40
1.0
 40
1.0
 10
178.5956
 20
-23.2966
 30
0.0
 10
177.5937
 20
-23.9501
 30
0.0
 10
176.241
 20
-23.5502
 30
0.0
 10
175.7098
 20
-22.6301
 30
0.0
 10
175.7098
 20
-22.6301
 30
0.0
 10
175.1786
 20
-21.7101
 30
0.0
 10
175.5086
 20
-20.3386
 30
0.0
 10
176.5755
 20
-19.7977
 30
0.0
 10
176.5755
 20
-19.7977
 30
0.0
 10
179.1434
 20
-18.4958
 30
0.0
 10
182.7979
 20
-18.2789
 30
0.0
 10
184.4866
 20
-16.5701
 30
0.0
 10
184.4866
 20
-16.5701
 30
0.0
 10
184.1363
 20
-15.7211
 30
0.0
 10
184.0661
 20
-14.7014
 30
0.0
 10
184.2951
 20
-13.9346
 30
0.0
 10
184.2951
 20
-13.9346
 30
0.0
 10
182.6064
 20
-12.2257
 30
0.0
 10
178.9518
 20
-12.0089
 30
0.0
 10
176.3839
 20
-10.707
 30
0.0
 10
176.3839
 20
-10.707
 30
0.0
 10
175.317
 20
-10.166
 30
0.0
 10
174.9871
 20
-8.7946
 30
0.0
 10
175.5182
 20
-7.8745
 30
0.0
 10
175.5182
 20
-7.8745
 30
0.0
 10
176.0494
 20
-6.9545
 30
0.0
 10
177.4021
 20
-6.5544
 30
0.0
 10
178.404
 20
-7.2081
 30
0.0
 10
178.404
 20
-7.2081
 30
0.0
 10
180.8154
 20
-8.7809
 30
0.0
 10
182.8306
 20
-11.8374
 30
0.0
 10
185.1548
 20
-12.4455
 30
0.0
 10
185.1548
 20
-12.4455
 30
0.0
 10
185.7372
 20
-11.7434
 30
0.0
 10
186.8471
 20
-10.9844
 30
0.0
 10
187.8501
 20
-10.846
 30
0.0
 10
187.8501
 20
-10.846
 30
0.0
 10
188.4856
 20
-8.5293
 30
0.0
 10
186.8461
 20
-5.2557
 30
0.0
 10
186.6896
 20
-2.381
 30
0.0
 10
186.6896
 20
-2.381
 30
0.0
 10
186.6246
 20
-1.1866
 30
0.0
 10
187.6474
 20
-0.215
 30
0.0
 10
188.7098
 20
-0.215
 30
0.0
 10
188.7098
 20
-0.215
 30
0.0
 10
188.7098
 20
-0.215
 30
0.0
 10
188.7098
 20
-30.1298
 30
0.0
 10
188.7098
 20
-30.1298
 30
0.0
 10
188.7098
 20
-30.1298
 30
0.0
 10
187.6475
 20
-30.1298
 30
0.0
 10
186.6247
 20
-29.1582
 30
0.0
 10
186.6896
 20
-27.9638
 30
0.0
 10
186.6896
 20
-27.9638
 30
0.0
 10
186.846
 20
-25.0891
 30
0.0
 10
188.4856
 20
-21.8155
 30
0.0
 10
187.8501
 20
-19.4987
 30
0.0
 10
187.8501
 20
-19.4987
 30
0.0
 10
186.9661
 20
-19.2653
 30
0.0
 10
186.0804
 20
-19.0482
 30
0.0
 10
185.3462
 20
-18.059
 30
0.0
 10
185.3462
 20
-18.059
 30
0.0
 10
183.2037
 20
-18.9582
 30
0.0
 10
179.3351
 20
-22.8143
 30
0.0
 10
178.5956
 20
-23.2966
 30
0.0
  0
SPLINE
  5
47
330
1F
100
AcDbEntity
  8
layer 1
 62
     7
100
AcDbSpline
210
0.0
220
0.0
230
1.0
 70
    11
 71
     3
 72
   124
 73
   120
 74
     0
 42
0.0000000001
 43
0.0000000001
 12
1.0
 22
0.0
 32
0.0
 13
1.0
 23
0.0
 33
0.0
 40
0.0
 40
0.0
 40
0.0
 40
0.0
 40
0.032258064516129
 40
0.032258064516129
 40
0.032258064516129
 40
0.032258064516129
 40
0.0645161290322581
 40
0.0645161290322581
 40
0.0645161290322581
 40
0.0645161290322581
 40
0.0967741935483871
 40
0.0967741935483871
 40
0.0967741935483871
 40
0.0967741935483871
 40
0.1290322580645161
 40
0.1290322580645161
 40
0.1290322580645161
 40
0.1290322580645161
 40
0.1612903225806452
 40
0.1612903225806452
 40
0.1612903225806452
 40
0.1612903225806452
 40
0.1935483870967742
 40
0.1935483870967742
 40
0.1935483870967742
 40
0.1935483870967742
 40
0.2258064516129032
 40
0.2258064516129032
 40
0.2258064516129032
 40
0.2258064516129032
 40
0.2580645161290323
 40
0.2580645161290323
 40
0.2580645161290323
 40
0.2580645161290323
 40
0.2903225806451613
 40
0.2903225806451613
 40
0.2903225806451613
 40
0.2903225806451613
 40
0.3225806451612903
 40
0.3225806451612903
 40
0.3225806451612903
 40
0.3225806451612903
 40
0.3548387096774194
 40
0.3548387096774194
 40
0.3548387096774194
 40
0.3548387096774194
 40
0.3870967741935484
 40
0.3870967741935484
 40
0.3870967741935484
 40
0.3870967741935484
 40
0.4193548387096774
 40
0.4193548387096774
 40
0.4193548387096774
 40
0.4193548387096774
 40
0.4516129032258064
 40
0.4516129032258064
 40
0.4516129032258064
 40
0.4516129032258064
 40
0.4838709677419355
 40
0.4838709677419355
 40
0.4838709677419355
 40
0.4838709677419355
 40
0.5161290322580645
 40
0.5161290322580645
 40
0.5161290322580645
 40
0.5161290322580645
 40
0.5483870967741935
 40
0.5483870967741935
 40
0.5483870967741935
 40
0.5483870967741935
 40
0.5806451612903226
 40
0.5806451612903226
 40
0.5806451612903226
 40
0.5806451612903226
 40
0.6129032258064516
 40
0.6129032258064516
 40
0.6129032258064516
 40
0.6129032258064516
 40
0.6451612903225806
 40
0.6451612903225806
 40
0.6451612903225806
 40
0.6451612903225806
 40
0.6774193548387096
 40
0.6774193548387096
 40
0.6774193548387096
 40
0.6774193548387096
 40
0.7096774193548387
 40
0.7096774193548387
 40
0.7096774193548387
 40
0.7096774193548387
 40
0.7419354838709677
 40
0.7419354838709677
 40
0.7419354838709677
 40
0.7419354838709677
 40
0.7741935483870968
 40
0.7741935483870968
 40
0.7741935483870968
 40
0.7741935483870968
 40
0.8064516129032258
 40
0.8064516129032258
 40
0.8064516129032258
 40
0.8064516129032258
 40
0.8387096774193549
 40
0.8387096774193549
 40
0.8387096774193549
 40
0.8387096774193549
 40
0.8709677419354839
 40
0.8709677419354839
 40
0.8709677419354839
 40
0.8709677419354839
 40
0.9032258064516129
 40
0.9032258064516129
 40
0.9032258064516129
 40
0.9032258064516129
 40
0.9354838709677419
 40
0.9354838709677419
 40
0.9354838709677419
 40
0.9354838709677419
 40
1.0
 40
1.0
 40
1.0
 40
1.0
 10
127.8018
 20
-74.1835
 30
0.0
 10
126.7999
 20
-74.837
 30
0.0
 10
125.4472
 20
-74.4371
 30
0.0
 10
124.916
 20
-73.517
 30
0.0
 10
124.916
 20
-73.517
 30
0.0
 10
124.3849
 20
-72.597
 30
0.0
 10
124.7148
 20
-71.2255
 30
0.0
 10
125.7817
 20
-70.6846
 30
0.0
 10
125.7817
 20
-70.6846
 30
0.0
 10
128.3496
 20
-69.3827
 30
0.0
 10
132.0042
 20
-69.1658
 30
0.0
 10
133.6929
 20
-67.457
 30
0.0
 10
133.6929
 20
-67.457
 30
0.0
 10
133.3425
 20
-66.608
 30
0.0
 10
133.2723
 20
-65.5883
 30
0.0
 10
133.5013
 20
-64.8215
 30
0.0
 10
133.5013
 20
-64.8215
 30
0.0
 10
131.8126
 20
-63.1126
 30
0.0
 10
128.158
 20
-62.8958
 30
0.0
 10
125.5902
 20
-61.5939
 30
0.0
 10
125.5902
 20
-61.5939
 30
0.0
 10
124.5232
 20
-61.0529
 30
0.0
 10
124.1933
 20
-59.6815
 30
0.0
 10
124.7245
 20
-58.7614
 30
0.0
 10
124.7245
 20
-58.7614
 30
0.0
 10
125.2556
 20
-57.8414
 30
0.0
 10
126.6084
 20
-57.4414
 30
0.0
 10
127.6102
 20
-58.095
 30
0.0
 10
127.6102
 20
-58.095
 30
0.0
 10
130.0217
 20
-59.6678
 30
0.0
 10
132.0368
 20
-62.7243
 30
0.0
 10
134.361
 20
-63.3324
 30
0.0
 10
134.361
 20
-63.3324
 30
0.0
 10
134.9434
 20
-62.6304
 30
0.0
 10
136.0534
 20
-61.8713
 30
0.0
 10
137.0563
 20
-61.7329
 30
0.0
 10
137.0563
 20
-61.7329
 30
0.0
 10
137.6918
 20
-59.4162
 30
0.0
 10
136.0524
 20
-56.1426
 30
0.0
 10
135.8958
 20
-53.2679
 30
0.0
 10
135.8958
 20
-53.2679
 30
0.0
 10
135.8308
 20
-52.0735
 30
0.0
 10
136.8536
 20
-51.1019
 30
0.0
 10
137.916
 20
-51.1019
 30
0.0
 10
137.916
 20
-51.1019
 30
0.0
 10
138.9784
 20
-51.1019
 30
0.0
 10
140.0012
 20
-52.0735
 30
0.0
 10
139.9362
 20
-53.2679
 30
0.0
 10
139.9362
 20
-53.2679
 30
0.0
 10
139.7798
 20
-56.1426
 30
0.0
 10
138.1403
 20
-59.4162
 30
0.0
 10
138.7758
 20
-61.7329
 30
0.0
 10
138.7758
 20
-61.7329
 30
0.0
 10
139.7335
 20
-61.9188
 30
0.0
 10
140.7622
 20
-62.4708
 30
0.0
 10
141.2727
 20
-63.0861
 30
0.0
 10
141.2727
 20
-63.0861
 30
0.0
 10
143.5968
 20
-62.478
 30
0.0
 10
145.612
 20
-59.4215
 30
0.0
 10
148.0234
 20
-57.8487
 30
0.0
 10
148.0234
 20
-57.8487
 30
0.0
 10
149.0253
 20
-57.1952
 30
0.0
 10
150.3781
 20
-57.5951
 30
0.0
 10
150.9092
 20
-58.5151
 30
0.0
 10
150.9092
 20
-58.5151
 30
0.0
 10
151.4404
 20
-59.4352
 30
0.0
 10
151.1104
 20
-60.8066
 30
0.0
 10
150.0435
 20
-61.3476
 30
0.0
 10
150.0435
 20
-61.3476
 30
0.0
 10
147.4757
 20
-62.6495
 30
0.0
 10
143.8211
 20
-62.8663
 30
0.0
 10
142.1324
 20
-64.5751
 30
0.0
 10
142.1324
 20
-64.5751
 30
0.0
 10
142.594
 20
-65.3928
 30
0.0
 10
142.4964
 20
-66.7399
 30
0.0
 10
142.2692
 20
-67.4569
 30
0.0
 10
142.2692
 20
-67.4569
 30
0.0
 10
143.9579
 20
-69.1657
 30
0.0
 10
147.6125
 20
-69.3825
 30
0.0
 10
150.1803
 20
-70.6845
 30
0.0
 10
150.1803
 20
-70.6845
 30
0.0
 10
151.2473
 20
-71.2254
 30
0.0
 10
151.5772
 20
-72.5969
 30
0.0
 10
151.0461
 20
-73.5169
 30
0.0
 10
151.0461
 20
-73.5169
 30
0.0
 10
150.5149
 20
-74.4369
 30
0.0
 10
149.1621
 20
-74.837
 30
0.0
 10
148.1603
 20
-74.1834
 30
0.0
 10
148.1603
 20
-74.1834
 30
0.0
 10
145.7488
 20
-72.6105
 30
0.0
 10
143.7337
 20
-69.554
 30
0.0
 10
141.4095
 20
-68.9459
 30
0.0
 10
141.4095
 20
-68.9459
 30
0.0
 10
140.7553
 20
-69.6908
 30
0.0
 10
139.63
 20
-70.24
 30
0.0
 10
138.7758
 20
-70.3857
 30
0.0
 10
138.7758
 20
-70.3857
 30
0.0
 10
138.1403
 20
-72.7024
 30
0.0
 10
139.7797
 20
-75.976
 30
0.0
 10
139.9362
 20
-78.8507
 30
0.0
 10
139.9362
 20
-78.8507
 30
0.0
 10
140.0013
 20
-80.0451
 30
0.0
 10
138.9785
 20
-81.0167
 30
0.0
 10
137.916
 20
-81.0167
 30
0.0
 10
137.916
 20
-81.0167
 30
0.0
 10
136.8537
 20
-81.0167
 30
0.0
 10
135.8309
 20
-80.0451
 30
0.0
 10
135.8958
 20
-78.8507
 30
0.0
 10
135.8958
 20
-78.8507
 30
0.0
 10
136.0522
 20
-75.976
 30
0.0
 10
137.6918
 20
-72.7024
 30
0.0
 10
137.0563
 20
-70.3857
 30
0.0
 10
137.0563
 20
-70.3857
 30
0.0
 10
136.1723
 20
-70.1522
 30
0.0
 10
135.2866
 20
-69.9351
 30
0.0
 10
134.5524
 20
-68.9459
 30
0.0
 10
134.5524
 20
-68.9459
 30
0.0
 10
132.4099
 20
-69.8451
 30
0.0
 10
128.5413
 20
-73.7012
 30
0.0
 10
127.8018
 20
-74.1835
 30
0.0
  0
SPLINE
  5
48
330
1F
100
AcDbEntity
  8
layer 1
 62
     7
100
AcDbSpline
210
0.0
220
0.0
230
1.0
 70
    11
 71
     3
 72
   124
 73
   120
 74
     0
 42
0.0000000001
 43
0.0000000001
 12
1.0
 22
0.0
 32
0.0
 13
1.0
 23
0.0
 33
0.0
 40
0.0
 40
0.0
 40
0.0
 40
0.0
 40
0.032258064516129
 40
0.032258064516129
 40
0.032258064516129
 40
0.032258064516129
 40
0.0645161290322581
 40
0.0645161290322581
 40
0.0645161290322581
 40
0.0645161290322581
 40
0.0967741935483871
 40
0.0967741935483871
 40
0.0967741935483871
 40
0.0967741935483871
 40
0.1290322580645161
 40
0.1290322580645161
 40
0.1290322580645161
 40
0.1290322580645161
 40
0.1612903225806452
 40
0.1612903225806452
 40
0.1612903225806452
 40
0.1612903225806452
 40
0.1935483870967742
 40
0.1935483870967742
 40
0.1935483870967742
 40
0.1935483870967742
 40
0.2258064516129032
 40
0.2258064516129032
 40
0.2258064516129032
 40
0.2258064516129032
 40
0.2580645161290323
 40
0.2580645161290323
 40
0.2580645161290323
 40
0.2580645161290323
 40
0.2903225806451613
 40
0.2903225806451613
 40
0.2903225806451613
 40
0.2903225806451613
 40
0.3225806451612903
 40
0.3225806451612903
 40
0.3225806451612903
 40
0.3225806451612903
 40
0.3548387096774194
 40
0.3548387096774194
 40
0.3548387096774194
 40
0.3548387096774194
 40
0.3870967741935484
 40
0.3870967741935484
 40
0.3870967741935484
 40
0.3870967741935484
 40
0.4193548387096774
 40
0.4193548387096774
 40
0.4193548387096774
 40
0.4193548387096774
 40
0.4516129032258064
 40
0.4516129032258064
 40
0.4516129032258064
 40
0.4516129032258064
 40
0.4838709677419355
 40
0.4838709677419355
 40
0.4838709677419355
 40
0.4838709677419355
 40
0.5161290322580645
 40
0.5161290322580645
 40
0.5161290322580645
 40
0.5161290322580645
 40
0.5483870967741935
 40
0.5483870967741935
 40
0.5483870967741935
 40
0.5483870967741935
 40
0.5806451612903226
 40
0.5806451612903226
 40
0.5806451612903226
 40
0.5806451612903226
 40
0.6129032258064516
 40
0.6129032258064516
 40
0.6129032258064516
 40
0.6129032258064516
 40
0.6451612903225806
 40
0.6451612903225806
 40
0.6451612903225806
 40
0.6451612903225806
 40
0.6774193548387096
 40
0.6774193548387096
 40
0.6774193548387096
 40
0.6774193548387096
 40
0.7096774193548387
 40
0.7096774193548387
 40
0.7096774193548387
 40
0.7096774193548387
 40
0.7419354838709677
 40
0.7419354838709677
 40
0.7419354838709677
 40
0.7419354838709677
 40
0.7741935483870968
 40
0.7741935483870968
 40
0.7741935483870968
 40
0.7741935483870968
 40
0.8064516129032258
 40
0.8064516129032258
 40
0.8064516129032258
 40
0.8064516129032258
 40
0.8387096774193549
 40
0.8387096774193549
 40
0.8387096774193549
 40
0.8387096774193549
 40
0.8709677419354839
 40
0.8709677419354839
 40
0.8709677419354839
 40
0.8709677419354839
 40
0.9032258064516129
 40
0.9032258064516129
 40
0.9032258064516129
 40
0.9032258064516129
 40
0.9354838709677419
 40
0.9354838709677419
 40
0.9354838709677419
 40
0.9354838709677419
 40
1.0
 40
1.0
 40
1.0
 40
1.0
 10
107.7257
 20
-78.1369
 30
0.0
 10
107.1847
 20
-79.2038
 30
0.0
 10
105.8133
 20
-79.5338
 30
0.0
 10
104.8932
 20
-79.0026
 30
0.0
 10
104.8932
 20
-79.0026
 30
0.0
 10
103.9732
 20
-78.4715
 30
0.0
 10
103.5731
 20
-77.1187
 30
0.0
 10
104.2268
 20
-76.1168
 30
0.0
 10
104.2268
 20
-76.1168
 30
0.0
 10
105.7996
 20
-73.7054
 30
0.0
 10
108.8561
 20
-71.6902
 30
0.0
 10
109.4642
 20
-69.3661
 30
0.0
 10
109.4642
 20
-69.3661
 30
0.0
 10
108.7363
 20
-68.806
 30
0.0
 10
108.1656
 20
-67.958
 30
0.0
 10
107.9806
 20
-67.1794
 30
0.0
 10
107.9806
 20
-67.1794
 30
0.0
 10
105.6639
 20
-66.544
 30
0.0
 10
102.3903
 20
-68.1834
 30
0.0
 10
99.5156
 20
-68.3399
 30
0.0
 10
99.5156
 20
-68.3399
 30
0.0
 10
98.3212
 20
-68.405
 30
0.0
 10
97.3496
 20
-67.3822
 30
0.0
 10
97.3496
 20
-66.3197
 30
0.0
 10
97.3496
 20
-66.3197
 30
0.0
 10
97.3496
 20
-65.2574
 30
0.0
 10
98.3212
 20
-64.2346
 30
0.0
 10
99.5156
 20
-64.2995
 30
0.0
 10
99.5156
 20
-64.2995
 30
0.0
 10
102.3903
 20
-64.4559
 30
0.0
 10
105.6639
 20
-66.0955
 30
0.0
 10
107.9806
 20
-65.46
 30
0.0
 10
107.9806
 20
-65.46
 30
0.0
 10
108.1339
 20
-64.5608
 30
0.0
 10
108.7157
 20
-63.3485
 30
0.0
 10
109.5152
 20
-62.7271
 30
0.0
 10
109.5152
 20
-62.7271
 30
0.0
 10
108.9071
 20
-60.4029
 30
0.0
 10
105.8505
 20
-58.3878
 30
0.0
 10
104.2777
 20
-55.9763
 30
0.0
 10
104.2777
 20
-55.9763
 30
0.0
 10
103.6243
 20
-54.9745
 30
0.0
 10
104.0242
 20
-53.6217
 30
0.0
 10
104.9442
 20
-53.0906
 30
0.0
 10
104.9442
 20
-53.0906
 30
0.0
 10
105.8642
 20
-52.5594
 30
0.0
 10
107.2357
 20
-52.8894
 30
0.0
 10
107.7766
 20
-53.9563
 30
0.0
 10
107.7766
 20
-53.9563
 30
0.0
 10
109.0786
 20
-56.5241
 30
0.0
 10
109.2954
 20
-60.1787
 30
0.0
 10
111.0042
 20
-61.8674
 30
0.0
 10
111.0042
 20
-61.8674
 30
0.0
 10
111.9265
 20
-61.5495
 30
0.0
 10
113.0934
 20
-61.5132
 30
0.0
 10
113.8432
 20
-61.7909
 30
0.0
 10
113.8432
 20
-61.7909
 30
0.0
 10
115.552
 20
-60.1022
 30
0.0
 10
115.7689
 20
-56.4476
 30
0.0
 10
117.0708
 20
-53.8798
 30
0.0
 10
117.0708
 20
-53.8798
 30
0.0
 10
117.6117
 20
-52.8128
 30
0.0
 10
118.9832
 20
-52.4829
 30
0.0
 10
119.9032
 20
-53.014
 30
0.0
 10
119.9032
 20
-53.014
 30
0.0
 10
120.8233
 20
-53.5452
 30
0.0
 10
121.2233
 20
-54.898
 30
0.0
 10
120.5697
 20
-55.8998
 30
0.0
 10
120.5697
 20
-55.8998
 30
0.0
 10
118.9969
 20
-58.3113
 30
0.0
 10
115.9403
 20
-60.3264
 30
0.0
 10
115.3323
 20
-62.6506
 30
0.0
 10
115.3323
 20
-62.6506
 30
0.0
 10
116.1409
 20
-63.1279
 30
0.0
 10
116.7298
 20
-64.3432
 30
0.0
 10
116.8915
 20
-65.0778
 30
0.0
 10
116.8915
 20
-65.0778
 30
0.0
 10
119.2083
 20
-65.7133
 30
0.0
 10
122.4818
 20
-64.0739
 30
0.0
 10
125.3566
 20
-63.9173
 30
0.0
 10
125.3566
 20
-63.9173
 30
0.0
 10
126.551
 20
-63.8523
 30
0.0
 10
127.5225
 20
-64.8751
 30
0.0
 10
127.5225
 20
-65.9375
 30
0.0
 10
127.5225
 20
-65.9375
 30
0.0
 10
127.5225
 20
-66.9999
 30
0.0
 10
126.551
 20
-68.0227
 30
0.0
 10
125.3566
 20
-67.9577
 30
0.0
 10
125.3566
 20
-67.9577
 30
0.0
 10
122.4818
 20
-67.8013
 30
0.0
 10
119.2083
 20
-66.1618
 30
0.0
 10
116.8915
 20
-66.7973
 30
0.0
 10
116.8915
 20
-66.7973
 30
0.0
 10
116.6974
 20
-67.7695
 30
0.0
 10
115.9975
 20
-68.8077
 30
0.0
 10
115.3304
 20
-69.3609
 30
0.0
 10
115.3304
 20
-69.3609
 30
0.0
 10
115.9385
 20
-71.6851
 30
0.0
 10
118.9951
 20
-73.7002
 30
0.0
 10
120.5679
 20
-76.1117
 30
0.0
 10
120.5679
 20
-76.1117
 30
0.0
 10
121.2214
 20
-77.1135
 30
0.0
 10
120.8215
 20
-78.4663
 30
0.0
 10
119.9014
 20
-78.9975
 30
0.0
 10
119.9014
 20
-78.9975
 30
0.0
 10
118.9814
 20
-79.5286
 30
0.0
 10
117.6099
 20
-79.1987
 30
0.0
 10
117.069
 20
-78.1317
 30
0.0
 10
117.069
 20
-78.1317
 30
0.0
 10
115.7671
 20
-75.5639
 30
0.0
 10
115.5502
 20
-71.9093
 30
0.0
 10
113.8414
 20
-70.2206
 30
0.0
 10
113.8414
 20
-70.2206
 30
0.0
 10
112.9235
 20
-70.5221
 30
0.0
 10
111.8232
 20
-70.5098
 30
0.0
 10
110.9531
 20
-70.2258
 30
0.0
 10
110.9531
 20
-70.2258
 30
0.0
 10
109.7661
 20
-71.7049
 30
0.0
 10
108.3649
 20
-76.876
 30
0.0
 10
107.7257
 20
-78.1369
 30
0.0
  0
SPLINE
  5
49
330
1F
100
AcDbEntity
  8
layer 1
 62
     7
100
AcDbSpline
210
0.0
220
0.0
230
1.0
 70
    11
 71
     3
 72
   124
 73
   120
 74
     0
 42
0.0000000001
 43
0.0000000001
 12
1.0
 22
0.0
 32
0.0
 13
1.0
 23
0.0
 33
0.0
 40
0.0
 40
0.0
 40
0.0
 40
0.0
 40
0.032258064516129
 40
0.032258064516129
 40
0.032258064516129
 40
0.032258064516129
 40
0.0645161290322581
 40
0.0645161290322581
 40
0.0645161290322581
 40
0.0645161290322581
 40
0.0967741935483871
 40
0.0967741935483871
 40
0.0967741935483871
 40
0.0967741935483871
 40
0.1290322580645161
 40
0.1290322580645161
 40
0.1290322580645161
 40
0.1290322580645161
 40
0.1612903225806452
 40
0.1612903225806452
 40
0.1612903225806452
 40
0.1612903225806452
 40
0.1935483870967742
 40
0.1935483870967742
 40
0.1935483870967742
 40
0.1935483870967742
 40
0.2258064516129032
 40
0.2258064516129032
 40
0.2258064516129032
 40
0.2258064516129032
 40
0.2580645161290323
 40
0.2580645161290323
 40
0.2580645161290323
 40
0.2580645161290323
 40
0.2903225806451613
 40
0.2903225806451613
 40
0.2903225806451613
 40
0.2903225806451613
 40
0.3225806451612903
 40
0.3225806451612903
 40
0.3225806451612903
 40
0.3225806451612903
 40
0.3548387096774194
 40
0.3548387096774194
 40
0.3548387096774194
 40
0.3548387096774194
 40
0.3870967741935484
 40
0.3870967741935484
 40
0.3870967741935484
 40
0.3870967741935484
 40
0.4193548387096774
 40
0.4193548387096774
 40
0.4193548387096774
 40
0.4193548387096774
 40
0.4516129032258064
 40
0.4516129032258064
 40
0.4516129032258064
 40
0.4516129032258064
 40
0.4838709677419355
 40
0.4838709677419355
 40
0.4838709677419355
 40
0.4838709677419355
 40
0.5161290322580645
 40
0.5161290322580645
 40
0.5161290322580645
 40
0.5161290322580645
 40
0.5483870967741935
 40
0.5483870967741935
 40
0.5483870967741935
 40
0.5483870967741935
 40
0.5806451612903226
 40
0.5806451612903226
 40
0.5806451612903226
 40
0.5806451612903226
 40
0.6129032258064516
 40
0.6129032258064516
 40
0.6129032258064516
 40
0.6129032258064516
 40
0.6451612903225806
 40
0.6451612903225806
 40
0.6451612903225806
 40
0.6451612903225806
 40
0.6774193548387096
 40
0.6774193548387096
 40
0.6774193548387096
 40
0.6774193548387096
 40
0.7096774193548387
 40
0.7096774193548387
 40
0.7096774193548387
 40
0.7096774193548387
 40
0.7419354838709677
 40
0.7419354838709677
 40
0.7419354838709677
 40
0.7419354838709677
 40
0.7741935483870968
 40
0.7741935483870968
 40
0.7741935483870968
 40
0.7741935483870968
 40
0.8064516129032258
 40
0.8064516129032258
 40
0.8064516129032258
 40
0.8064516129032258
 40
0.8387096774193549
 40
0.8387096774193549
 40
0.8387096774193549
 40
0.8387096774193549
 40
0.8709677419354839
 40
0.8709677419354839
 40
0.8709677419354839
 40
0.8709677419354839
 40
0.9032258064516129
 40
0.9032258064516129
 40
0.9032258064516129
 40
0.9032258064516129
 40
0.9354838709677419
 40
0.9354838709677419
 40
0.9354838709677419
 40
0.9354838709677419
 40
1.0
 40
1.0
 40
1.0
 40
1.0
 10
158.5143
 20
-78.1369
 30
0.0
 10
157.9733
 20
-79.2038
 30
0.0
 10
156.6019
 20
-79.5338
 30
0.0
 10
155.6818
 20
-79.0026
 30
0.0
 10
155.6818
 20
-79.0026
 30
0.0
 10
154.7618
 20
-78.4715
 30
0.0
 10
154.3618
 20
-77.1187
 30
0.0
 10
155.0154
 20
-76.1168
 30
0.0
 10
155.0154
 20
-76.1168
 30
0.0
 10
156.5882
 20
-73.7054
 30
0.0
 10
159.6447
 20
-71.6902
 30
0.0
 10
160.2528
 20
-69.3661
 30
0.0
 10
160.2528
 20
-69.3661
 30
0.0
 10
159.5249
 20
-68.806
 30
0.0
 10
158.9542
 20
-67.958
 30
0.0
 10
158.7692
 20
-67.1794
 30
0.0
 10
158.7692
 20
-67.1794
 30
0.0
 10
156.4525
 20
-66.544
 30
0.0
 10
153.1789
 20
-68.1834
 30
0.0
 10
150.3042
 20
-68.3399
 30
0.0
 10
150.3042
 20
-68.3399
 30
0.0
 10
149.1098
 20
-68.405
 30
0.0
 10
148.1382
 20
-67.3822
 30
0.0
 10
148.1382
 20
-66.3197
 30
0.0
 10
148.1382
 20
-66.3197
 30
0.0
 10
148.1382
 20
-65.2574
 30
0.0
 10
149.1098
 20
-64.2346
 30
0.0
 10
150.3042
 20
-64.2995
 30
0.0
 10
150.3042
 20
-64.2995
 30
0.0
 10
153.1789
 20
-64.4559
 30
0.0
 10
156.4525
 20
-66.0955
 30
0.0
 10
158.7692
 20
-65.46
 30
0.0
 10
158.7692
 20
-65.46
 30
0.0
 10
158.9226
 20
-64.5608
 30
0.0
 10
159.5043
 20
-63.3485
 30
0.0
 10
160.3038
 20
-62.7271
 30
0.0
 10
160.3038
 20
-62.7271
 30
0.0
 10
159.6957
 20
-60.4029
 30
0.0
 10
156.6391
 20
-58.3878
 30
0.0
 10
155.0663
 20
-55.9763
 30
0.0
 10
155.0663
 20
-55.9763
 30
0.0
 10
154.4129
 20
-54.9745
 30
0.0
 10
154.8128
 20
-53.6217
 30
0.0
 10
155.7328
 20
-53.0906
 30
0.0
 10
155.7328
 20
-53.0906
 30
0.0
 10
156.6528
 20
-52.5594
 30
0.0
 10
158.0243
 20
-52.8894
 30
0.0
 10
158.5652
 20
-53.9563
 30
0.0
 10
158.5652
 20
-53.9563
 30
0.0
 10
159.8672
 20
-56.5241
 30
0.0
 10
160.084
 20
-60.1787
 30
0.0
 10
161.7928
 20
-61.8674
 30
0.0
 10
161.7928
 20
-61.8674
 30
0.0
 10
162.7151
 20
-61.5495
 30
0.0
 10
163.882
 20
-61.5132
 30
0.0
 10
164.6318
 20
-61.7909
 30
0.0
 10
164.6318
 20
-61.7909
 30
0.0
 10
166.3406
 20
-60.1022
 30
0.0
 10
166.5575
 20
-56.4476
 30
0.0
 10
167.8594
 20
-53.8798
 30
0.0
 10
167.8594
 20
-53.8798
 30
0.0
 10
168.4003
 20
-52.8128
 30
0.0
 10
169.7718
 20
-52.4829
 30
0.0
 10
170.6918
 20
-53.014
 30
0.0
 10
170.6918
 20
-53.014
 30
0.0
 10
171.6119
 20
-53.5452
 30
0.0
 10
172.0119
 20
-54.898
 30
0.0
 10
171.3583
 20
-55.8998
 30
0.0
 10
171.3583
 20
-55.8998
 30
0.0
 10
169.7855
 20
-58.3113
 30
0.0
 10
166.729
 20
-60.3264
 30
0.0
 10
166.1209
 20
-62.6506
 30
0.0
 10
166.1209
 20
-62.6506
 30
0.0
 10
166.9295
 20
-63.1279
 30
0.0
 10
167.5184
 20
-64.3432
 30
0.0
 10
167.6801
 20
-65.0778
 30
0.0
 10
167.6801
 20
-65.0778
 30
0.0
 10
169.9969
 20
-65.7133
 30
0.0
 10
173.2704
 20
-64.0739
 30
0.0
 10
176.1452
 20
-63.9173
 30
0.0
 10
176.1452
 20
-63.9173
 30
0.0
 10
177.3396
 20
-63.8523
 30
0.0
 10
178.3111
 20
-64.8751
 30
0.0
 10
178.3111
 20
-65.9375
 30
0.0
 10
178.3111
 20
-65.9375
 30
0.0
 10
178.3111
 20
-66.9999
 30
0.0
 10
177.3396
 20
-68.0227
 30
0.0
 10
176.1452
 20
-67.9577
 30
0.0
 10
176.1452
 20
-67.9577
 30
0.0
 10
173.2704
 20
-67.8013
 30
0.0
 10
169.9969
 20
-66.1618
 30
0.0
 10
167.6801
 20
-66.7973
 30
0.0
 10
167.6801
 20
-66.7973
 30
0.0
 10
167.486
 20
-67.7695
 30
0.0
 10
166.7861
 20
-68.8077
 30
0.0
 10
166.119
 20
-69.3609
 30
0.0
 10
166.119
 20
-69.3609
 30
0.0
 10
166.7271
 20
-71.6851
 30
0.0
 10
169.7837
 20
-73.7002
 30
0.0
 10
171.3565
 20
-76.1117
 30
0.0
 10
171.3565
 20
-76.1117
 30
0.0
 10
172.01
 20
-77.1135
 30
0.0
 10
171.6101
 20
-78.4663
 30
0.0
 10
170.69
 20
-78.9975
 30
0.0
 10
170.69
 20
-78.9975
 30
0.0
 10
169.77
 20
-79.5286
 30
0.0
 10
168.3985
 20
-79.1987
 30
0.0
 10
167.8576
 20
-78.1317
 30
0.0
 10
167.8576
 20
-78.1317
 30
0.0
 10
166.5557
 20
-75.5639
 30
0.0
 10
166.3388
 20
-71.9093
 30
0.0
 10
164.63
 20
-70.2206
 30
0.0
 10
164.63
 20
-70.2206
 30
0.0
 10
163.7121
 20
-70.5221
 30
0.0
 10
162.6118
 20
-70.5098
 30
0.0
 10
161.7417
 20
-70.2258
 30
0.0
 10
161.7417
 20
-70.2258
 30
0.0
 10
160.5547
 20
-71.7049
 30
0.0
 10
159.1535
 20
-76.876
 30
0.0
 10
158.5143
 20
-78.1369
 30
0.0
  0
SPLINE
  5
4A
330
1F
100
AcDbEntity
  8
layer 1
 62
     7
100
AcDbSpline
210
0.0
220
0.0
230
1.0
 70
    11
 71
     3
 72
    68
 73
    64
 74
     0
 42
0.0000000001
 43
0.0000000001
 12
1.0
 22
0.0
 32
0.0
 13
1.0
 23
0.0
 33
0.0
 40
0.0
 40
0.0
 40
0.0
 40
0.0
 40
0.0588235294117647
 40
0.0588235294117647
 40
0.0588235294117647
 40
0.0588235294117647
 40
0.1176470588235294
 40
0.1176470588235294
 40
0.1176470588235294
 40
0.1176470588235294
 40
0.1764705882352941
 40
0.1764705882352941
 40
0.1764705882352941
 40
0.1764705882352941
 40
0.2352941176470588
 40
0.2352941176470588
 40
0.2352941176470588
 40
0.2352941176470588
 40
0.2941176470588235
 40
0.2941176470588235
 40
0.2941176470588235
 40
0.2941176470588235
 40
0.3529411764705883
 40
0.3529411764705883
 40
0.3529411764705883
 40
0.3529411764705883
 40
0.4117647058823529
 40
0.4117647058823529
 40
0.4117647058823529
 40
0.4117647058823529
 40
0.4705882352941176
 40
0.4705882352941176
 40
0.4705882352941176
 40
0.4705882352941176
 40
0.5294117647058824
 40
0.5294117647058824
 40
0.5294117647058824
 40
0.5294117647058824
 40
0.5882352941176471
 40
0.5882352941176471
 40
0.5882352941176471
 40
0.5882352941176471
 40
0.6470588235294118
 40
0.6470588235294118
 40
0.6470588235294118
 40
0.6470588235294118
 40
0.7058823529411765
 40
0.7058823529411765
 40
0.7058823529411765
 40
0.7058823529411765
 40
0.7647058823529411
 40
0.7647058823529411
 40
0.7647058823529411
 40
0.7647058823529411
 40
0.8235294117647058
 40
0.8235294117647058
 40
0.8235294117647058
 40
0.8235294117647058
 40
0.8823529411764706
 40
0.8823529411764706
 40
0.8823529411764706
 40
0.8823529411764706
 40
1.0
 40
1.0
 40
1.0
 40
1.0
 10
86.8158
 20
-51.1019
 30
0.0
 10
87.8781
 20
-51.1019
 30
0.0
 10
88.9009
 20
-52.0735
 30
0.0
 10
88.836
 20
-53.2679
 30
0.0
 10
88.836
 20
-53.2679
 30
0.0
 10
88.6796
 20
-56.1426
 30
0.0
 10
87.04
 20
-59.4162
 30
0.0
 10
87.6755
 20
-61.7329
 30
0.0
 10
87.6755
 20
-61.7329
 30
0.0
 10
88.6332
 20
-61.9188
 30
0.0
 10
89.6619
 20
-62.4708
 30
0.0
 10
90.1724
 20
-63.0861
 30
0.0
 10
90.1724
 20
-63.0861
 30
0.0
 10
92.4966
 20
-62.478
 30
0.0
 10
94.5117
 20
-59.4215
 30
0.0
 10
96.9232
 20
-57.8487
 30
0.0
 10
96.9232
 20
-57.8487
 30
0.0
 10
97.925
 20
-57.1952
 30
0.0
 10
99.2778
 20
-57.5951
 30
0.0
 10
99.8089
 20
-58.5151
 30
0.0
 10
99.8089
 20
-58.5151
 30
0.0
 10
100.3401
 20
-59.4352
 30
0.0
 10
100.0102
 20
-60.8066
 30
0.0
 10
98.9432
 20
-61.3476
 30
0.0
 10
98.9432
 20
-61.3476
 30
0.0
 10
96.3754
 20
-62.6495
 30
0.0
 10
92.7208
 20
-62.8663
 30
0.0
 10
91.0321
 20
-64.5751
 30
0.0
 10
91.0321
 20
-64.5751
 30
0.0
 10
91.4937
 20
-65.3928
 30
0.0
 10
91.3961
 20
-66.7399
 30
0.0
 10
91.1689
 20
-67.4569
 30
0.0
 10
91.1689
 20
-67.4569
 30
0.0
 10
92.8577
 20
-69.1657
 30
0.0
 10
96.5122
 20
-69.3825
 30
0.0
 10
99.0801
 20
-70.6845
 30
0.0
 10
99.0801
 20
-70.6845
 30
0.0
 10
100.147
 20
-71.2254
 30
0.0
 10
100.4769
 20
-72.5969
 30
0.0
 10
99.9458
 20
-73.5169
 30
0.0
 10
99.9458
 20
-73.5169
 30
0.0
 10
99.4146
 20
-74.4369
 30
0.0
 10
98.0619
 20
-74.837
 30
0.0
 10
97.06
 20
-74.1834
 30
0.0
 10
97.06
 20
-74.1834
 30
0.0
 10
94.6486
 20
-72.6105
 30
0.0
 10
92.6334
 20
-69.554
 30
0.0
 10
90.3092
 20
-68.9459
 30
0.0
 10
90.3092
 20
-68.9459
 30
0.0
 10
89.6551
 20
-69.6908
 30
0.0
 10
88.5298
 20
-70.24
 30
0.0
 10
87.6755
 20
-70.3857
 30
0.0
 10
87.6755
 20
-70.3857
 30
0.0
 10
87.04
 20
-72.7024
 30
0.0
 10
88.6794
 20
-75.976
 30
0.0
 10
88.836
 20
-78.8507
 30
0.0
 10
88.836
 20
-78.8507
 30
0.0
 10
88.901
 20
-80.0451
 30
0.0
 10
87.8782
 20
-81.0167
 30
0.0
 10
86.8158
 20
-81.0167
 30
0.0
 10
86.8158
 20
-81.0167
 30
0.0
 10
86.8158
 20
-81.0167
 30
0.0
 10
86.8158
 20
-51.1019
 30
0.0
 10
86.8158
 20
-51.1019
 30
0.0
  0
SPLINE
  5
4B
330
1F
100
AcDbEntity
  8
layer 1
 62
     7
100
AcDbSpline
210
0.0
220
0.0
230
1.0
 70
    11
 71
     3
 72
    68
 73
    64
 74
     0
 42
0.0000000001
 43
0.0000000001
 12
1.0
 22
0.0
 32
0.0
 13
1.0
 23
0.0
 33
0.0
 40
0.0
 40
0.0
 40
0.0
 40
0.0
 40
0.0588235294117647
 40
0.0588235294117647
 40
0.0588235294117647
 40
0.0588235294117647
 40
0.1176470588235294
 40
0.1176470588235294
 40
0.1176470588235294
 40
0.1176470588235294
 40
0.1764705882352941
 40
0.1764705882352941
 40
0.1764705882352941
 40
0.1764705882352941
 40
0.2352941176470588
 40
0.2352941176470588
 40
0.2352941176470588
 40
0.2352941176470588
 40
0.2941176470588235
 40
0.2941176470588235
 40
0.2941176470588235
 40
0.2941176470588235
 40
0.3529411764705883
 40
0.3529411764705883
 40
0.3529411764705883
 40
0.3529411764705883
 40
0.4117647058823529
 40
0.4117647058823529
 40
0.4117647058823529
 40
0.4117647058823529
 40
0.4705882352941176
 40
0.4705882352941176
 40
0.4705882352941176
 40
0.4705882352941176
 40
0.5294117647058824
 40
0.5294117647058824
 40
0.5294117647058824
 40
0.5294117647058824
 40
0.5882352941176471
 40
0.5882352941176471
 40
0.5882352941176471
 40
0.5882352941176471
 40
0.6470588235294118
 40
0.6470588235294118
 40
0.6470588235294118
 40
0.6470588235294118
 40
0.7058823529411765
 40
0.7058823529411765
 40
0.7058823529411765
 40
0.7058823529411765
 40
0.7647058823529411
 40
0.7647058823529411
 40
0.7647058823529411
 40
0.7647058823529411
 40
0.8235294117647058
 40
0.8235294117647058
 40
0.8235294117647058
 40
0.8235294117647058
 40
0.8823529411764706
 40
0.8823529411764706
 40
0.8823529411764706
 40
0.8823529411764706
 40
1.0
 40
1.0
 40
1.0
 40
1.0
 10
178.5956
 20
-74.1835
 30
0.0
 10
177.5937
 20
-74.837
 30
0.0
 10
176.241
 20
-74.4371
 30
0.0
 10
175.7098
 20
-73.517
 30
0.0
 10
175.7098
 20
-73.517
 30
0.0
 10
175.1786
 20
-72.597
 30
0.0
 10
175.5086
 20
-71.2255
 30
0.0
 10
176.5755
 20
-70.6846
 30
0.0
 10
176.5755
 20
-70.6846
 30
0.0
 10
179.1434
 20
-69.3827
 30
0.0
 10
182.7979
 20
-69.1658
 30
0.0
 10
184.4866
 20
-67.457
 30
0.0
 10
184.4866
 20
-67.457
 30
0.0
 10
184.1363
 20
-66.608
 30
0.0
 10
184.0661
 20
-65.5883
 30
0.0
 10
184.2951
 20
-64.8215
 30
0.0
 10
184.2951
 20
-64.8215
 30
0.0
 10
182.6064
 20
-63.1126
 30
0.0
 10
178.9518
 20
-62.8958
 30
0.0
 10
176.3839
 20
-61.5939
 30
0.0
 10
176.3839
 20
-61.5939
 30
0.0
 10
175.317
 20
-61.0529
 30
0.0
 10
174.9871
 20
-59.6815
 30
0.0
 10
175.5182
 20
-58.7614
 30
0.0
 10
175.5182
 20
-58.7614
 30
0.0
 10
176.0494
 20
-57.8414
 30
0.0
 10
177.4021
 20
-57.4414
 30
0.0
 10
178.404
 20
-58.095
 30
0.0
 10
178.404
 20
-58.095
 30
0.0
 10
180.8154
 20
-59.6678
 30
0.0
 10
182.8306
 20
-62.7243
 30
0.0
 10
185.1548
 20
-63.3324
 30
0.0
 10
185.1548
 20
-63.3324
 30
0.0
 10
185.7372
 20
-62.6304
 30
0.0
 10
186.8471
 20
-61.8713
 30
0.0
 10
187.8501
 20
-61.7329
 30
0.0
 10
187.8501
 20
-61.7329
 30
0.0
 10
188.4856
 20
-59.4162
 30
0.0
 10
186.8461
 20
-56.1426
 30
0.0
 10
186.6896
 20
-53.2679
 30
0.0
 10
186.6896
 20
-53.2679
 30
0.0
 10
186.6246
 20
-52.0735
 30
0.0
 10
187.6474
 20
-51.1019
 30
0.0
 10
188.7098
 20
-51.1019
 30
0.0
 10
188.7098
 20
-51.1019
 30
0.0
 10
188.7098
 20
-51.1019
 30
0.0
 10
188.7098
 20
-81.0167
 30
0.0
 10
188.7098
 20
-81.0167
 30
0.0
 10
188.7098
 20
-81.0167
 30
0.0
 10
187.6475
 20
-81.0167
 30
0.0
 10
186.6247
 20
-80.0451
 30
0.0
 10
186.6896
 20
-78.8507
 30
0.0
 10
186.6896
 20
-78.8507
 30
0.0
 10
186.846
 20
-75.976
 30
0.0
 10
188.4856
 20
-72.7024
 30
0.0
 10
187.8501
 20
-70.3857
 30
0.0
 10
187.8501
 20
-70.3857
 30
0.0
 10
186.9661
 20
-70.1522
 30
0.0
 10
186.0804
 20
-69.9351
 30
0.0
 10
185.3462
 20
-68.9459
 30
0.0
 10
185.3462
 20
-68.9459
 30
0.0
 10
183.2037
 20
-69.8451
 30
0.0
 10
179.3351
 20
-73.7012
 30
0.0
 10
178.5956
 20
-74.1835
 30
0.0
  0
SPLINE
  5
4C
330
1F
100
AcDbEntity
  8
layer 1
 62
     7
100
AcDbSpline
210
0.0
220
0.0
230
1.0
 70
    11
 71
     3
 72
   124
 73
   120
 74
     0
 42
0.0000000001
 43
0.0000000001
 12
1.0
 22
0.0
 32
0.0
 13
1.0
 23
0.0
 33
0.0
 40
0.0
 40
0.0
 40
0.0
 40
0.0
 40
0.032258064516129
 40
0.032258064516129
 40
0.032258064516129
 40
0.032258064516129
 40
0.0645161290322581
 40
0.0645161290322581
 40
0.0645161290322581
 40
0.0645161290322581
 40
0.0967741935483871
 40
0.0967741935483871
 40
0.0967741935483871
 40
0.0967741935483871
 40
0.1290322580645161
 40
0.1290322580645161
 40
0.1290322580645161
 40
0.1290322580645161
 40
0.1612903225806452
 40
0.1612903225806452
 40
0.1612903225806452
 40
0.1612903225806452
 40
0.1935483870967742
 40
0.1935483870967742
 40
0.1935483870967742
 40
0.1935483870967742
 40
0.2258064516129032
 40
0.2258064516129032
 40
0.2258064516129032
 40
0.2258064516129032
 40
0.2580645161290323
 40
0.2580645161290323
 40
0.2580645161290323
 40
0.2580645161290323
 40
0.2903225806451613
 40
0.2903225806451613
 40
0.2903225806451613
 40
0.2903225806451613
 40
0.3225806451612903
 40
0.3225806451612903
 40
0.3225806451612903
 40
0.3225806451612903
 40
0.3548387096774194
 40
0.3548387096774194
 40
0.3548387096774194
 40
0.3548387096774194
 40
0.3870967741935484
 40
0.3870967741935484
 40
0.3870967741935484
 40
0.3870967741935484
 40
0.4193548387096774
 40
0.4193548387096774
 40
0.4193548387096774
 40
0.4193548387096774
 40
0.4516129032258064
 40
0.4516129032258064
 40
0.4516129032258064
 40
0.4516129032258064
 40
0.4838709677419355
 40
0.4838709677419355
 40
0.4838709677419355
 40
0.4838709677419355
 40
0.5161290322580645
 40
0.5161290322580645
 40
0.5161290322580645
 40
0.5161290322580645
 40
0.5483870967741935
 40
0.5483870967741935
 40
0.5483870967741935
 40
0.5483870967741935
 40
0.5806451612903226
 40
0.5806451612903226
 40
0.5806451612903226
 40
0.5806451612903226
 40
0.6129032258064516
 40
0.6129032258064516
 40
0.6129032258064516
 40
0.6129032258064516
 40
0.6451612903225806
 40
0.6451612903225806
 40
0.6451612903225806
 40
0.6451612903225806
 40
0.6774193548387096
 40
0.6774193548387096
 40
0.6774193548387096
 40
0.6774193548387096
 40
0.7096774193548387
 40
0.7096774193548387
 40
0.7096774193548387
 40
0.7096774193548387
 40
0.7419354838709677
 40
0.7419354838709677
 40
0.7419354838709677
 40
0.7419354838709677
 40
0.7741935483870968
 40
0.7741935483870968
 40
0.7741935483870968
 40
0.7741935483870968
 40
0.8064516129032258
 40
0.8064516129032258
 40
0.8064516129032258
 40
0.8064516129032258
 40
0.8387096774193549
 40
0.8387096774193549
 40
0.8387096774193549
 40
0.8387096774193549
 40
0.8709677419354839
 40
0.8709677419354839
 40
0.8709677419354839
 40
0.8709677419354839
 40
0.9032258064516129
 40
0.9032258064516129
 40
0.9032258064516129
 40
0.9032258064516129
 40
0.9354838709677419
 40
0.9354838709677419
 40
0.9354838709677419
 40
0.9354838709677419
 40
1.0
 40
1.0
 40
1.0
 40
1.0
 10
127.8018
 20
28.0529
 30
0.0
 10
126.7999
 20
27.3994
 30
0.0
 10
125.4472
 20
27.7993
 30
0.0
 10
124.916
 20
28.7194
 30
0.0
 10
124.916
 20
28.7194
 30
0.0
 10
124.3849
 20
29.6394
 30
0.0
 10
124.7148
 20
31.0109
 30
0.0
 10
125.7817
 20
31.5518
 30
0.0
 10
125.7817
 20
31.5518
 30
0.0
 10
128.3496
 20
32.8537
 30
0.0
 10
132.0042
 20
33.0706
 30
0.0
 10
133.6929
 20
34.7794
 30
0.0
 10
133.6929
 20
34.7794
 30
0.0
 10
133.3425
 20
35.6284
 30
0.0
 10
133.2723
 20
36.6481
 30
0.0
 10
133.5013
 20
37.415
 30
0.0
 10
133.5013
 20
37.415
 30
0.0
 10
131.8126
 20
39.1238
 30
0.0
 10
128.158
 20
39.3406
 30
0.0
 10
125.5902
 20
40.6425
 30
0.0
 10
125.5902
 20
40.6425
 30
0.0
 10
124.5232
 20
41.1835
 30
0.0
 10
124.1933
 20
42.5549
 30
0.0
 10
124.7245
 20
43.475
 30
0.0
 10
124.7245
 20
43.475
 30
0.0
 10
125.2556
 20
44.395
 30
0.0
 10
126.6084
 20
44.7951
 30
0.0
 10
127.6102
 20
44.1414
 30
0.0
 10
127.6102
 20
44.1414
 30
0.0
 10
130.0217
 20
42.5686
 30
0.0
 10
132.0368
 20
39.5121
 30
0.0
 10
134.361
 20
38.904
 30
0.0
 10
134.361
 20
38.904
 30
0.0
 10
134.9434
 20
39.6061
 30
0.0
 10
136.0534
 20
40.3651
 30
0.0
 10
137.0563
 20
40.5035
 30
0.0
 10
137.0563
 20
40.5035
 30
0.0
 10
137.6918
 20
42.8202
 30
0.0
 10
136.0524
 20
46.0938
 30
0.0
 10
135.8958
 20
48.9685
 30
0.0
 10
135.8958
 20
48.9685
 30
0.0
 10
135.8308
 20
50.1629
 30
0.0
 10
136.8536
 20
51.1345
 30
0.0
 10
137.916
 20
51.1345
 30
0.0
 10
137.916
 20
51.1345
 30
0.0
 10
138.9784
 20
51.1345
 30
0.0
 10
140.0012
 20
50.1629
 30
0.0
 10
139.9362
 20
48.9685
 30
0.0
 10
139.9362
 20
48.9685
 30
0.0
 10
139.7798
 20
46.0938
 30
0.0
 10
138.1403
 20
42.8202
 30
0.0
 10
138.7758
 20
40.5035
 30
0.0
 10
138.7758
 20
40.5035
 30
0.0
 10
139.7335
 20
40.3176
 30
0.0
 10
140.7622
 20
39.7657
 30
0.0
 10
141.2727
 20
39.1503
 30
0.0
 10
141.2727
 20
39.1503
 30
0.0
 10
143.5968
 20
39.7584
 30
0.0
 10
145.612
 20
42.8149
 30
0.0
 10
148.0234
 20
44.3878
 30
0.0
 10
148.0234
 20
44.3878
 30
0.0
 10
149.0253
 20
45.0412
 30
0.0
 10
150.3781
 20
44.6413
 30
0.0
 10
150.9092
 20
43.7213
 30
0.0
 10
150.9092
 20
43.7213
 30
0.0
 10
151.4404
 20
42.8013
 30
0.0
 10
151.1104
 20
41.4298
 30
0.0
 10
150.0435
 20
40.8889
 30
0.0
 10
150.0435
 20
40.8889
 30
0.0
 10
147.4757
 20
39.5869
 30
0.0
 10
143.8211
 20
39.3701
 30
0.0
 10
142.1324
 20
37.6613
 30
0.0
 10
142.1324
 20
37.6613
 30
0.0
 10
142.594
 20
36.8436
 30
0.0
 10
142.4964
 20
35.4966
 30
0.0
 10
142.2692
 20
34.7795
 30
0.0
 10
142.2692
 20
34.7795
 30
0.0
 10
143.9579
 20
33.0707
 30
0.0
 10
147.6125
 20
32.8539
 30
0.0
 10
150.1803
 20
31.5519
 30
0.0
 10
150.1803
 20
31.5519
 30
0.0
 10
151.2473
 20
31.011
 30
0.0
 10
151.5772
 20
29.6396
 30
0.0
 10
151.0461
 20
28.7195
 30
0.0
 10
151.0461
 20
28.7195
 30
0.0
 10
150.5149
 20
27.7995
 30
0.0
 10
149.1621
 20
27.3994
 30
0.0
 10
148.1603
 20
28.0531
 30
0.0
 10
148.1603
 20
28.0531
 30
0.0
 10
145.7488
 20
29.6259
 30
0.0
 10
143.7337
 20
32.6824
 30
0.0
 10
141.4095
 20
33.2905
 30
0.0
 10
141.4095
 20
33.2905
 30
0.0
 10
140.7553
 20
32.5456
 30
0.0
 10
139.63
 20
31.9964
 30
0.0
 10
138.7758
 20
31.8508
 30
0.0
 10
138.7758
 20
31.8508
 30
0.0
 10
138.1403
 20
29.534
 30
0.0
 10
139.7797
 20
26.2605
 30
0.0
 10
139.9362
 20
23.3857
 30
0.0
 10
139.9362
 20
23.3857
 30
0.0
 10
140.0013
 20
22.1913
 30
0.0
 10
138.9785
 20
21.2197
 30
0.0
 10
137.916
 20
21.2197
 30
0.0
 10
137.916
 20
21.2197
 30
0.0
 10
136.8537
 20
21.2197
 30
0.0
 10
135.8309
 20
22.1913
 30
0.0
 10
135.8958
 20
23.3857
 30
0.0
 10
135.8958
 20
23.3857
 30
0.0
 10
136.0522
 20
26.2605
 30
0.0
 10
137.6918
 20
29.534
 30
0.0
 10
137.0563
 20
31.8508
 30
0.0
 10
137.0563
 20
31.8508
 30
0.0
 10
136.1723
 20
32.0842
 30
0.0
 10
135.2866
 20
32.3014
 30
0.0
 10
134.5524
 20
33.2905
 30
0.0
 10
134.5524
 20
33.2905
 30
0.0
 10
132.4099
 20
32.3913
 30
0.0
 10
128.5413
 20
28.5352
 30
0.0
 10
127.8018
 20
28.0529
 30
0.0
  0
SPLINE
  5
4D
330
1F
100
AcDbEntity
  8
layer 1
 62
     7
100
AcDbSpline
210
0.0
220
0.0
230
1.0
 70
    11
 71
     3
 72
   124
 73
   120
 74
     0
 42
0.0000000001
 43
0.0000000001
 12
1.0
 22
0.0
 32
0.0
 13
1.0
 23
0.0
 33
0.0
 40
0.0
 40
0.0
 40
0.0
 40
0.0
 40
0.032258064516129
 40
0.032258064516129
 40
0.032258064516129
 40
0.032258064516129
 40
0.0645161290322581
 40
0.0645161290322581
 40
0.0645161290322581
 40
0.0645161290322581
 40
0.0967741935483871
 40
0.0967741935483871
 40
0.0967741935483871
 40
0.0967741935483871
 40
0.1290322580645161
 40
0.1290322580645161
 40
0.1290322580645161
 40
0.1290322580645161
 40
0.1612903225806452
 40
0.1612903225806452
 40
0.1612903225806452
 40
0.1612903225806452
 40
0.1935483870967742
 40
0.1935483870967742
 40
0.1935483870967742
 40
0.1935483870967742
 40
0.2258064516129032
 40
0.2258064516129032
 40
0.2258064516129032
 40
0.2258064516129032
 40
0.2580645161290323
 40
0.2580645161290323
 40
0.2580645161290323
 40
0.2580645161290323
 40
0.2903225806451613
 40
0.2903225806451613
 40
0.2903225806451613
 40
0.2903225806451613
 40
0.3225806451612903
 40
0.3225806451612903
 40
0.3225806451612903
 40
0.3225806451612903
 40
0.3548387096774194
 40
0.3548387096774194
 40
0.3548387096774194
 40
0.3548387096774194
 40
0.3870967741935484
 40
0.3870967741935484
 40
0.3870967741935484
 40
0.3870967741935484
 40
0.4193548387096774
 40
0.4193548387096774
 40
0.4193548387096774
 40
0.4193548387096774
 40
0.4516129032258064
 40
0.4516129032258064
 40
0.4516129032258064
 40
0.4516129032258064
 40
0.4838709677419355
 40
0.4838709677419355
 40
0.4838709677419355
 40
0.4838709677419355
 40
0.5161290322580645
 40
0.5161290322580645
 40
0.5161290322580645
 40
0.5161290322580645
 40
0.5483870967741935
 40
0.5483870967741935
 40
0.5483870967741935
 40
0.5483870967741935
 40
0.5806451612903226
 40
0.5806451612903226
 40
0.5806451612903226
 40
0.5806451612903226
 40
0.6129032258064516
 40
0.6129032258064516
 40
0.6129032258064516
 40
0.6129032258064516
 40
0.6451612903225806
 40
0.6451612903225806
 40
0.6451612903225806
 40
0.6451612903225806
 40
0.6774193548387096
 40
0.6774193548387096
 40
0.6774193548387096
 40
0.6774193548387096
 40
0.7096774193548387
 40
0.7096774193548387
 40
0.7096774193548387
 40
0.7096774193548387
 40
0.7419354838709677
 40
0.7419354838709677
 40
0.7419354838709677
 40
0.7419354838709677
 40
0.7741935483870968
 40
0.7741935483870968
 40
0.7741935483870968
 40
0.7741935483870968
 40
0.8064516129032258
 40
0.8064516129032258
 40
0.8064516129032258
 40
0.8064516129032258
 40
0.8387096774193549
 40
0.8387096774193549
 40
0.8387096774193549
 40
0.8387096774193549
 40
0.8709677419354839
 40
0.8709677419354839
 40
0.8709677419354839
 40
0.8709677419354839
 40
0.9032258064516129
 40
0.9032258064516129
 40
0.9032258064516129
 40
0.9032258064516129
 40
0.9354838709677419
 40
0.9354838709677419
 40
0.9354838709677419
 40
0.9354838709677419
 40
1.0
 40
1.0
 40
1.0
 40
1.0
 10
107.7257
 20
24.0995
 30
0.0
 10
107.1847
 20
23.0326
 30
0.0
 10
105.8133
 20
22.7026
 30
0.0
 10
104.8932
 20
23.2338
 30
0.0
 10
104.8932
 20
23.2338
 30
0.0
 10
103.9732
 20
23.765
 30
0.0
 10
103.5731
 20
25.1177
 30
0.0
 10
104.2268
 20
26.1196
 30
0.0
 10
104.2268
 20
26.1196
 30
0.0
 10
105.7996
 20
28.531
 30
0.0
 10
108.8561
 20
30.5462
 30
0.0
 10
109.4642
 20
32.8704
 30
0.0
 10
109.4642
 20
32.8704
 30
0.0
 10
108.7363
 20
33.4304
 30
0.0
 10
108.1656
 20
34.2784
 30
0.0
 10
107.9806
 20
35.057
 30
0.0
 10
107.9806
 20
35.057
 30
0.0
 10
105.6639
 20
35.6925
 30
0.0
 10
102.3903
 20
34.053
 30
0.0
 10
99.5156
 20
33.8965
 30
0.0
 10
99.5156
 20
33.8965
 30
0.0
 10
98.3212
 20
33.8314
 30
0.0
 10
97.3496
 20
34.8542
 30
0.0
 10
97.3496
 20
35.9167
 30
0.0
 10
97.3496
 20
35.9167
 30
0.0
 10
97.3496
 20
36.979
 30
0.0
 10
98.3212
 20
38.0018
 30
0.0
 10
99.5156
 20
37.9369
 30
0.0
 10
99.5156
 20
37.9369
 30
0.0
 10
102.3903
 20
37.7805
 30
0.0
 10
105.6639
 20
36.141
 30
0.0
 10
107.9806
 20
36.7764
 30
0.0
 10
107.9806
 20
36.7764
 30
0.0
 10
108.1339
 20
37.6756
 30
0.0
 10
108.7157
 20
38.8879
 30
0.0
 10
109.5152
 20
39.5093
 30
0.0
 10
109.5152
 20
39.5093
 30
0.0
 10
108.9071
 20
41.8335
 30
0.0
 10
105.8505
 20
43.8486
 30
0.0
 10
104.2777
 20
46.2601
 30
0.0
 10
104.2777
 20
46.2601
 30
0.0
 10
103.6243
 20
47.2619
 30
0.0
 10
104.0242
 20
48.6147
 30
0.0
 10
104.9442
 20
49.1459
 30
0.0
 10
104.9442
 20
49.1459
 30
0.0
 10
105.8642
 20
49.677
 30
0.0
 10
107.2357
 20
49.3471
 30
0.0
 10
107.7766
 20
48.2801
 30
0.0
 10
107.7766
 20
48.2801
 30
0.0
 10
109.0786
 20
45.7123
 30
0.0
 10
109.2954
 20
42.0577
 30
0.0
 10
111.0042
 20
40.369
 30
0.0
 10
111.0042
 20
40.369
 30
0.0
 10
111.9265
 20
40.687
 30
0.0
 10
113.0934
 20
40.7233
 30
0.0
 10
113.8432
 20
40.4455
 30
0.0
 10
113.8432
 20
40.4455
 30
0.0
 10
115.552
 20
42.1342
 30
0.0
 10
115.7689
 20
45.7888
 30
0.0
 10
117.0708
 20
48.3567
 30
0.0
 10
117.0708
 20
48.3567
 30
0.0
 10
117.6117
 20
49.4236
 30
0.0
 10
118.9832
 20
49.7535
 30
0.0
 10
119.9032
 20
49.2224
 30
0.0
 10
119.9032
 20
49.2224
 30
0.0
 10
120.8233
 20
48.6912
 30
0.0
 10
121.2233
 20
47.3385
 30
0.0
 10
120.5697
 20
46.3366
 30
0.0
 10
120.5697
 20
46.3366
 30
0.0
 10
118.9969
 20
43.9252
 30
0.0
 10
115.9403
 20
41.91
 30
0.0
 10
115.3323
 20
39.5858
 30
0.0
 10
115.3323
 20
39.5858
 30
0.0
 10
116.1409
 20
39.1086
 30
0.0
 10
116.7298
 20
37.8932
 30
0.0
 10
116.8915
 20
37.1586
 30
0.0
 10
116.8915
 20
37.1586
 30
0.0
 10
119.2083
 20
36.5231
 30
0.0
 10
122.4818
 20
38.1625
 30
0.0
 10
125.3566
 20
38.3191
 30
0.0
 10
125.3566
 20
38.3191
 30
0.0
 10
126.551
 20
38.3841
 30
0.0
 10
127.5225
 20
37.3613
 30
0.0
 10
127.5225
 20
36.2989
 30
0.0
 10
127.5225
 20
36.2989
 30
0.0
 10
127.5225
 20
35.2366
 30
0.0
 10
126.551
 20
34.2138
 30
0.0
 10
125.3566
 20
34.2787
 30
0.0
 10
125.3566
 20
34.2787
 30
0.0
 10
122.4818
 20
34.4351
 30
0.0
 10
119.2083
 20
36.0746
 30
0.0
 10
116.8915
 20
35.4392
 30
0.0
 10
116.8915
 20
35.4392
 30
0.0
 10
116.6974
 20
34.4669
 30
0.0
 10
115.9975
 20
33.4287
 30
0.0
 10
115.3304
 20
32.8755
 30
0.0
 10
115.3304
 20
32.8755
 30
0.0
 10
115.9385
 20
30.5513
 30
0.0
 10
118.9951
 20
28.5362
 30
0.0
 10
120.5679
 20
26.1247
 30
0.0
 10
120.5679
 20
26.1247
 30
0.0
 10
121.2214
 20
25.1229
 30
0.0
 10
120.8215
 20
23.7701
 30
0.0
 10
119.9014
 20
23.239
 30
0.0
 10
119.9014
 20
23.239
 30
0.0
 10
118.9814
 20
22.7078
 30
0.0
 10
117.6099
 20
23.0378
 30
0.0
 10
117.069
 20
24.1047
 30
0.0
 10
117.069
 20
24.1047
 30
0.0
 10
115.7671
 20
26.6725
 30
0.0
 10
115.5502
 20
30.3271
 30
0.0
 10
113.8414
 20
32.0158
 30
0.0
 10
113.8414
 20
32.0158
 30
0.0
 10
112.9235
 20
31.7143
 30
0.0
 10
111.8232
 20
31.7266
 30
0.0
 10
110.9531
 20
32.0106
 30
0.0
 10
110.9531
 20
32.0106
 30
0.0
 10
109.7661
 20
30.5315
 30
0.0
 10
108.3649
 20
25.3604
 30
0.0
 10
107.7257
 20
24.0995
 30
0.0
  0
SPLINE
  5
4E
330
1F
100
AcDbEntity
  8
layer 1
 62
     7
100
AcDbSpline
210
0.0
220
0.0
230
1.0
 70
    11
 71
     3
 72
   124
 73
   120
 74
     0
 42
0.0000000001
 43
0.0000000001
 12
1.0
 22
0.0
 32
0.0
 13
1.0
 23
0.0
 33
0.0
 40
0.0
 40
0.0
 40
0.0
 40
0.0
 40
0.032258064516129
 40
0.032258064516129
 40
0.032258064516129
 40
0.032258064516129
 40
0.0645161290322581
 40
0.0645161290322581
 40
0.0645161290322581
 40
0.0645161290322581
 40
0.0967741935483871
 40
0.0967741935483871
 40
0.0967741935483871
 40
0.0967741935483871
 40
0.1290322580645161
 40
0.1290322580645161
 40
0.1290322580645161
 40
0.1290322580645161
 40
0.1612903225806452
 40
0.1612903225806452
 40
0.1612903225806452
 40
0.1612903225806452
 40
0.1935483870967742
 40
0.1935483870967742
 40
0.1935483870967742
 40
0.1935483870967742
 40
0.2258064516129032
 40
0.2258064516129032
 40
0.2258064516129032
 40
0.2258064516129032
 40
0.2580645161290323
 40
0.2580645161290323
 40
0.2580645161290323
 40
0.2580645161290323
 40
0.2903225806451613
 40
0.2903225806451613
 40
0.2903225806451613
 40
0.2903225806451613
 40
0.3225806451612903
 40
0.3225806451612903
 40
0.3225806451612903
 40
0.3225806451612903
 40
0.3548387096774194
 40
0.3548387096774194
 40
0.3548387096774194
 40
0.3548387096774194
 40
0.3870967741935484
 40
0.3870967741935484
 40
0.3870967741935484
 40
0.3870967741935484
 40
0.4193548387096774
 40
0.4193548387096774
 40
0.4193548387096774
 40
0.4193548387096774
 40
0.4516129032258064
 40
0.4516129032258064
 40
0.4516129032258064
 40
0.4516129032258064
 40
0.4838709677419355
 40
0.4838709677419355
 40
0.4838709677419355
 40
0.4838709677419355
 40
0.5161290322580645
 40
0.5161290322580645
 40
0.5161290322580645
 40
0.5161290322580645
 40
0.5483870967741935
 40
0.5483870967741935
 40
0.5483870967741935
 40
0.5483870967741935
 40
0.5806451612903226
 40
0.5806451612903226
 40
0.5806451612903226
 40
0.5806451612903226
 40
0.6129032258064516
 40
0.6129032258064516
 40
0.6129032258064516
 40
0.6129032258064516
 40
0.6451612903225806
 40
0.6451612903225806
 40
0.6451612903225806
 40
0.6451612903225806
 40
0.6774193548387096
 40
0.6774193548387096
 40
0.6774193548387096
 40
0.6774193548387096
 40
0.7096774193548387
 40
0.7096774193548387
 40
0.7096774193548387
 40
0.7096774193548387
 40
0.7419354838709677
 40
0.7419354838709677
 40
0.7419354838709677
 40
0.7419354838709677
 40
0.7741935483870968
 40
0.7741935483870968
 40
0.7741935483870968
 40
0.7741935483870968
 40
0.8064516129032258
 40
0.8064516129032258
 40
0.8064516129032258
 40
0.8064516129032258
 40
0.8387096774193549
 40
0.8387096774193549
 40
0.8387096774193549
 40
0.8387096774193549
 40
0.8709677419354839
 40
0.8709677419354839
 40
0.8709677419354839
 40
0.8709677419354839
 40
0.9032258064516129
 40
0.9032258064516129
 40
0.9032258064516129
 40
0.9032258064516129
 40
0.9354838709677419
 40
0.9354838709677419
 40
0.9354838709677419
 40
0.9354838709677419
 40
1.0
 40
1.0
 40
1.0
 40
1.0
 10
158.5143
 20
24.0995
 30
0.0
 10
157.9733
 20
23.0326
 30
0.0
 10
156.6019
 20
22.7026
 30
0.0
 10
155.6818
 20
23.2338
 30
0.0
 10
155.6818
 20
23.2338
 30
0.0
 10
154.7618
 20
23.765
 30
0.0
 10
154.3618
 20
25.1177
 30
0.0
 10
155.0154
 20
26.1196
 30
0.0
 10
155.0154
 20
26.1196
 30
0.0
 10
156.5882
 20
28.531
 30
0.0
 10
159.6447
 20
30.5462
 30
0.0
 10
160.2528
 20
32.8704
 30
0.0
 10
160.2528
 20
32.8704
 30
0.0
 10
159.5249
 20
33.4304
 30
0.0
 10
158.9542
 20
34.2784
 30
0.0
 10
158.7692
 20
35.057
 30
0.0
 10
158.7692
 20
35.057
 30
0.0
 10
156.4525
 20
35.6925
 30
0.0
 10
153.1789
 20
34.053
 30
0.0
 10
150.3042
 20
33.8965
 30
0.0
 10
150.3042
 20
33.8965
 30
0.0
 10
149.1098
 20
33.8314
 30
0.0
 10
148.1382
 20
34.8542
 30
0.0
 10
148.1382
 20
35.9167
 30
0.0
 10
148.1382
 20
35.9167
 30
0.0
 10
148.1382
 20
36.979
 30
0.0
 10
149.1098
 20
38.0018
 30
0.0
 10
150.3042
 20
37.9369
 30
0.0
 10
150.3042
 20
37.9369
 30
0.0
 10
153.1789
 20
37.7805
 30
0.0
 10
156.4525
 20
36.141
 30
0.0
 10
158.7692
 20
36.7764
 30
0.0
 10
158.7692
 20
36.7764
 30
0.0
 10
158.9226
 20
37.6756
 30
0.0
 10
159.5043
 20
38.8879
 30
0.0
 10
160.3038
 20
39.5093
 30
0.0
 10
160.3038
 20
39.5093
 30
0.0
 10
159.6957
 20
41.8335
 30
0.0
 10
156.6391
 20
43.8486
 30
0.0
 10
155.0663
 20
46.2601
 30
0.0
 10
155.0663
 20
46.2601
 30
0.0
 10
154.4129
 20
47.2619
 30
0.0
 10
154.8128
 20
48.6147
 30
0.0
 10
155.7328
 20
49.1459
 30
0.0
 10
155.7328
 20
49.1459
 30
0.0
 10
156.6528
 20
49.677
 30
0.0
 10
158.0243
 20
49.3471
 30
0.0
 10
158.5652
 20
48.2801
 30
0.0
 10
158.5652
 20
48.2801
 30
0.0
 10
159.8672
 20
45.7123
 30
0.0
 10
160.084
 20
42.0577
 30
0.0
 10
161.7928
 20
40.369
 30
0.0
 10
161.7928
 20
40.369
 30
0.0
 10
162.7151
 20
40.687
 30
0.0
 10
163.882
 20
40.7233
 30
0.0
 10
164.6318
 20
40.4455
 30
0.0
 10
164.6318
 20
40.4455
 30
0.0
 10
166.3406
 20
42.1342
 30
0.0
 10
166.5575
 20
45.7888
 30
0.0
 10
167.8594
 20
48.3567
 30
0.0
 10
167.8594
 20
48.3567
 30
0.0
 10
168.4003
 20
49.4236
 30
0.0
 10
169.7718
 20
49.7535
 30
0.0
 10
170.6918
 20
49.2224
 30
0.0
 10
170.6918
 20
49.2224
 30
0.0
 10
171.6119
 20
48.6912
 30
0.0
 10
172.0119
 20
47.3385
 30
0.0
 10
171.3583
 20
46.3366
 30
0.0
 10
171.3583
 20
46.3366
 30
0.0
 10
169.7855
 20
43.9252
 30
0.0
 10
166.729
 20
41.91
 30
0.0
 10
166.1209
 20
39.5858
 30
0.0
 10
166.1209
 20
39.5858
 30
0.0
 10
166.9295
 20
39.1086
 30
0.0
 10
167.5184
 20
37.8932
 30
0.0
 10
167.6801
 20
37.1586
 30
0.0
 10
167.6801
 20
37.1586
 30
0.0
 10
169.9969
 20
36.5231
 30
0.0
 10
173.2704
 20
38.1625
 30
0.0
 10
176.1452
 20
38.3191
 30
0.0
 10
176.1452
 20
38.3191
 30
0.0
 10
177.3396
 20
38.3841
 30
0.0
 10
178.3111
 20
37.3613
 30
0.0
 10
178.3111
 20
36.2989
 30
0.0
 10
178.3111
 20
36.2989
 30
0.0
 10
178.3111
 20
35.2366
 30
0.0
 10
177.3396
 20
34.2138
 30
0.0
 10
176.1452
 20
34.2787
 30
0.0
 10
176.1452
 20
34.2787
 30
0.0
 10
173.2704
 20
34.4351
 30
0.0
 10
169.9969
 20
36.0746
 30
0.0
 10
167.6801
 20
35.4392
 30
0.0
 10
167.6801
 20
35.4392
 30
0.0
 10
167.486
 20
34.4669
 30
0.0
 10
166.7861
 20
33.4287
 30
0.0
 10
166.119
 20
32.8755
 30
0.0
 10
166.119
 20
32.8755
 30
0.0
 10
166.7271
 20
30.5513
 30
0.0
 10
169.7837
 20
28.5362
 30
0.0
 10
171.3565
 20
26.1247
 30
0.0
 10
171.3565
 20
26.1247
 30
0.0
 10
172.01
 20
25.1229
 30
0.0
 10
171.6101
 20
23.7701
 30
0.0
 10
170.69
 20
23.239
 30
0.0
 10
170.69
 20
23.239
 30
0.0
 10
169.77
 20
22.7078
 30
0.0
 10
168.3985
 20
23.0378
 30
0.0
 10
167.8576
 20
24.1047
 30
0.0
 10
167.8576
 20
24.1047
 30
0.0
 10
166.5557
 20
26.6725
 30
0.0
 10
166.3388
 20
30.3271
 30
0.0
 10
164.63
 20
32.0158
 30
0.0
 10
164.63
 20
32.0158
 30
0.0
 10
163.7121
 20
31.7143
 30
0.0
 10
162.6118
 20
31.7266
 30
0.0
 10
161.7417
 20
32.0106
 30
0.0
 10
161.7417
 20
32.0106
 30
0.0
 10
160.5547
 20
30.5315
 30
0.0
 10
159.1535
 20
25.3604
 30
0.0
 10
158.5143
 20
24.0995
 30
0.0
  0
SPLINE
  5
4F
330
1F
100
AcDbEntity
  8
layer 1
 62
     7
100
AcDbSpline
210
0.0
220
0.0
230
1.0
 70
    11
 71
     3
 72
    68
 73
    64
 74
     0
 42
0.0000000001
 43
0.0000000001
 12
1.0
 22
0.0
 32
0.0
 13
1.0
 23
0.0
 33
0.0
 40
0.0
 40
0.0
 40
0.0
 40
0.0
 40
0.0588235294117647
 40
0.0588235294117647
 40
0.0588235294117647
 40
0.0588235294117647
 40
0.1176470588235294
 40
0.1176470588235294
 40
0.1176470588235294
 40
0.1176470588235294
 40
0.1764705882352941
 40
0.1764705882352941
 40
0.1764705882352941
 40
0.1764705882352941
 40
0.2352941176470588
 40
0.2352941176470588
 40
0.2352941176470588
 40
0.2352941176470588
 40
0.2941176470588235
 40
0.2941176470588235
 40
0.2941176470588235
 40
0.2941176470588235
 40
0.3529411764705883
 40
0.3529411764705883
 40
0.3529411764705883
 40
0.3529411764705883
 40
0.4117647058823529
 40
0.4117647058823529
 40
0.4117647058823529
 40
0.4117647058823529
 40
0.4705882352941176
 40
0.4705882352941176
 40
0.4705882352941176
 40
0.4705882352941176
 40
0.5294117647058824
 40
0.5294117647058824
 40
0.5294117647058824
 40
0.5294117647058824
 40
0.5882352941176471
 40
0.5882352941176471
 40
0.5882352941176471
 40
0.5882352941176471
 40
0.6470588235294118
 40
0.6470588235294118
 40
0.6470588235294118
 40
0.6470588235294118
 40
0.7058823529411765
 40
0.7058823529411765
 40
0.7058823529411765
 40
0.7058823529411765
 40
0.7647058823529411
 40
0.7647058823529411
 40
0.7647058823529411
 40
0.7647058823529411
 40
0.8235294117647058
 40
0.8235294117647058
 40
0.8235294117647058
 40
0.8235294117647058
 40
0.8823529411764706
 40
0.8823529411764706
 40
0.8823529411764706
 40
0.8823529411764706
 40
1.0
 40
1.0
 40
1.0
 40
1.0
 10
86.8158
 20
51.1345
 30
0.0
 10
87.8781
 20
51.1345
 30
0.0
 10
88.9009
 20
50.1629
 30
0.0
 10
88.836
 20
48.9685
 30
0.0
 10
88.836
 20
48.9685
 30
0.0
 10
88.6796
 20
46.0938
 30
0.0
 10
87.04
 20
42.8202
 30
0.0
 10
87.6755
 20
40.5035
 30
0.0
 10
87.6755
 20
40.5035
 30
0.0
 10
88.6332
 20
40.3176
 30
0.0
 10
89.6619
 20
39.7657
 30
0.0
 10
90.1724
 20
39.1503
 30
0.0
 10
90.1724
 20
39.1503
 30
0.0
 10
92.4966
 20
39.7584
 30
0.0
 10
94.5117
 20
42.8149
 30
0.0
 10
96.9232
 20
44.3878
 30
0.0
 10
96.9232
 20
44.3878
 30
0.0
 10
97.925
 20
45.0412
 30
0.0
 10
99.2778
 20
44.6413
 30
0.0
 10
99.8089
 20
43.7213
 30
0.0
 10
99.8089
 20
43.7213
 30
0.0
 10
100.3401
 20
42.8013
 30
0.0
 10
100.0102
 20
41.4298
 30
0.0
 10
98.9432
 20
40.8889
 30
0.0
 10
98.9432
 20
40.8889
 30
0.0
 10
96.3754
 20
39.5869
 30
0.0
 10
92.7208
 20
39.3701
 30
0.0
 10
91.0321
 20
37.6613
 30
0.0
 10
91.0321
 20
37.6613
 30
0.0
 10
91.4937
 20
36.8436
 30
0.0
 10
91.3961
 20
35.4966
 30
0.0
 10
91.1689
 20
34.7795
 30
0.0
 10
91.1689
 20
34.7795
 30
0.0
 10
92.8577
 20
33.0707
 30
0.0
 10
96.5122
 20
32.8539
 30
0.0
 10
99.0801
 20
31.5519
 30
0.0
 10
99.0801
 20
31.5519
 30
0.0
 10
100.147
 20
31.011
 30
0.0
 10
100.4769
 20
29.6396
 30
0.0
 10
99.9458
 20
28.7195
 30
0.0
 10
99.9458
 20
28.7195
 30
0.0
 10
99.4146
 20
27.7995
 30
0.0
 10
98.0619
 20
27.3994
 30
0.0
 10
97.06
 20
28.0531
 30
0.0
 10
97.06
 20
28.0531
 30
0.0
 10
94.6486
 20
29.6259
 30
0.0
 10
92.6334
 20
32.6824
 30
0.0
 10
90.3092
 20
33.2905
 30
0.0
 10
90.3092
 20
33.2905
 30
0.0
 10
89.6551
 20
32.5456
 30
0.0
 10
88.5298
 20
31.9964
 30
0.0
 10
87.6755
 20
31.8508
 30
0.0
 10
87.6755
 20
31.8508
 30
0.0
 10
87.04
 20
29.534
 30
0.0
 10
88.6794
 20
26.2605
 30
0.0
 10
88.836
 20
23.3857
 30
0.0
 10
88.836
 20
23.3857
 30
0.0
 10
88.901
 20
22.1913
 30
0.0
 10
87.8782
 20
21.2197
 30
0.0
 10
86.8158
 20
21.2197
 30
0.0
 10
86.8158
 20
21.2197
 30
0.0
 10
86.8158
 20
21.2197
 30
0.0
 10
86.8158
 20
51.1345
 30
0.0
 10
86.8158
 20
51.1345
 30
0.0
  0
SPLINE
  5
50
330
1F
100
AcDbEntity
  8
layer 1
 62
     7
100
AcDbSpline
210
0.0
220
0.0
230
1.0
 70
    11
 71
     3
 72
    68
 73
    64
 74
     0
 42
0.0000000001
 43
0.0000000001
 12
1.0
 22
0.0
 32
0.0
 13
1.0
 23
0.0
 33
0.0
 40
0.0
 40
0.0
 40
0.0
 40
0.0
 40
0.0588235294117647
 40
0.0588235294117647
 40
0.0588235294117647
 40
0.0588235294117647
 40
0.1176470588235294
 40
0.1176470588235294
 40
0.1176470588235294
 40
0.1176470588235294
 40
0.1764705882352941
 40
0.1764705882352941
 40
0.1764705882352941
 40
0.1764705882352941
 40
0.2352941176470588
 40
0.2352941176470588
 40
0.2352941176470588
 40
0.2352941176470588
 40
0.2941176470588235
 40
0.2941176470588235
 40
0.2941176470588235
 40
0.2941176470588235
 40
0.3529411764705883
 40
0.3529411764705883
 40
0.3529411764705883
 40
0.3529411764705883
 40
0.4117647058823529
 40
0.4117647058823529
 40
0.4117647058823529
 40
0.4117647058823529
 40
0.4705882352941176
 40
0.4705882352941176
 40
0.4705882352941176
 40
0.4705882352941176
 40
0.5294117647058824
 40
0.5294117647058824
 40
0.5294117647058824
 40
0.5294117647058824
 40
0.5882352941176471
 40
0.5882352941176471
 40
0.5882352941176471
 40
0.5882352941176471
 40
0.6470588235294118
 40
0.6470588235294118
 40
0.6470588235294118
 40
0.6470588235294118
 40
0.7058823529411765
 40
0.7058823529411765
 40
0.7058823529411765
 40
0.7058823529411765
 40
0.7647058823529411
 40
0.7647058823529411
 40
0.7647058823529411
 40
0.7647058823529411
 40
0.8235294117647058
 40
0.8235294117647058
 40
0.8235294117647058
 40
0.8235294117647058
 40
0.8823529411764706
 40
0.8823529411764706
 40
0.8823529411764706
 40
0.8823529411764706
 40
1.0
 40
1.0
 40
1.0
 40
1.0
 10
178.5956
 20
28.0529
 30
0.0
 10
177.5937
 20
27.3994
 30
0.0
 10
176.241
 20
27.7993
 30
0.0
 10
175.7098
 20
28.7194
 30
0.0
 10
175.7098
 20
28.7194
 30
0.0
 10
175.1786
 20
29.6394
 30
0.0
 10
175.5086
 20
31.0109
 30
0.0
 10
176.5755
 20
31.5518
 30
0.0
 10
176.5755
 20
31.5518
 30
0.0
 10
179.1434
 20
32.8537
 30
0.0
 10
182.7979
 20
33.0706
 30
0.0
 10
184.4866
 20
34.7794
 30
0.0
 10
184.4866
 20
34.7794
 30
0.0
 10
184.1363
 20
35.6284
 30
0.0
 10
184.0661
 20
36.6481
 30
0.0
 10
184.2951
 20
37.415
 30
0.0
 10
184.2951
 20
37.415
 30
0.0
 10
182.6064
 20
39.1238
 30
0.0
 10
178.9518
 20
39.3406
 30
0.0
 10
176.3839
 20
40.6425
 30
0.0
 10
176.3839
 20
40.6425
 30
0.0
 10
175.317
 20
41.1835
 30
0.0
 10
174.9871
 20
42.5549
 30
0.0
 10
175.5182
 20
43.475
 30
0.0
 10
175.5182
 20
43.475
 30
0.0
 10
176.0494
 20
44.395
 30
0.0
 10
177.4021
 20
44.7951
 30
0.0
 10
178.404
 20
44.1414
 30
0.0
 10
178.404
 20
44.1414
 30
0.0
 10
180.8154
 20
42.5686
 30
0.0
 10
182.8306
 20
39.5121
 30
0.0
 10
185.1548
 20
38.904
 30
0.0
 10
185.1548
 20
38.904
 30
0.0
 10
185.7372
 20
39.6061
 30
0.0
 10
186.8471
 20
40.3651
 30
0.0
 10
187.8501
 20
40.5035
 30
0.0
 10
187.8501
 20
40.5035
 30
0.0
 10
188.4856
 20
42.8202
 30
0.0
 10
186.8461
 20
46.0938
 30
0.0
 10
186.6896
 20
48.9685
 30
0.0
 10
186.6896
 20
48.9685
 30
0.0
 10
186.6246
 20
50.1629
 30
0.0
 10
187.6474
 20
51.1345
 30
0.0
 10
188.7098
 20
51.1345
 30
0.0
 10
188.7098
 20
51.1345
 30
0.0
 10
188.7098
 20
51.1345
 30
0.0
 10
188.7098
 20
21.2197
 30
0.0
 10
188.7098
 20
21.2197
 30
0.0
 10
188.7098
 20
21.2197
 30
0.0
 10
187.6475
 20
21.2197
 30
0.0
 10
186.6247
 20
22.1913
 30
0.0
 10
186.6896
 20
23.3857
 30
0.0
 10
186.6896
 20
23.3857
 30
0.0
 10
186.846
 20
26.2605
 30
0.0
 10
188.4856
 20
29.534
 30
0.0
 10
187.8501
 20
31.8508
 30
0.0
 10
187.8501
 20
31.8508
 30
0.0
 10
186.9661
 20
32.0842
 30
0.0
 10
186.0804
 20
32.3014
 30
0.0
 10
185.3462
 20
33.2905
 30
0.0
 10
185.3462
 20
33.2905
 30
0.0
 10
183.2037
 20
32.3913
 30
0.0
 10
179.3351
 20
28.5352
 30
0.0
 10
178.5956
 20
28.0529
 30
0.0
  0
SPLINE
  5
51
330
1F
100
AcDbEntity
  8
layer 1
 62
     7
100
AcDbSpline
210
0.0
220
0.0
230
1.0
 70
    11
 71
     3
 72
   124
 73
   120
 74
     0
 42
0.0000000001
 43
0.0000000001
 12
1.0
 22
0.0
 32
0.0
 13
1.0
 23
0.0
 33
0.0
 40
0.0
 40
0.0
 40
0.0
 40
0.0
 40
0.032258064516129
 40
0.032258064516129
 40
0.032258064516129
 40
0.032258064516129
 40
0.0645161290322581
 40
0.0645161290322581
 40
0.0645161290322581
 40
0.0645161290322581
 40
0.0967741935483871
 40
0.0967741935483871
 40
0.0967741935483871
 40
0.0967741935483871
 40
0.1290322580645161
 40
0.1290322580645161
 40
0.1290322580645161
 40
0.1290322580645161
 40
0.1612903225806452
 40
0.1612903225806452
 40
0.1612903225806452
 40
0.1612903225806452
 40
0.1935483870967742
 40
0.1935483870967742
 40
0.1935483870967742
 40
0.1935483870967742
 40
0.2258064516129032
 40
0.2258064516129032
 40
0.2258064516129032
 40
0.2258064516129032
 40
0.2580645161290323
 40
0.2580645161290323
 40
0.2580645161290323
 40
0.2580645161290323
 40
0.2903225806451613
 40
0.2903225806451613
 40
0.2903225806451613
 40
0.2903225806451613
 40
0.3225806451612903
 40
0.3225806451612903
 40
0.3225806451612903
 40
0.3225806451612903
 40
0.3548387096774194
 40
0.3548387096774194
 40
0.3548387096774194
 40
0.3548387096774194
 40
0.3870967741935484
 40
0.3870967741935484
 40
0.3870967741935484
 40
0.3870967741935484
 40
0.4193548387096774
 40
0.4193548387096774
 40
0.4193548387096774
 40
0.4193548387096774
 40
0.4516129032258064
 40
0.4516129032258064
 40
0.4516129032258064
 40
0.4516129032258064
 40
0.4838709677419355
 40
0.4838709677419355
 40
0.4838709677419355
 40
0.4838709677419355
 40
0.5161290322580645
 40
0.5161290322580645
 40
0.5161290322580645
 40
0.5161290322580645
 40
0.5483870967741935
 40
0.5483870967741935
 40
0.5483870967741935
 40
0.5483870967741935
 40
0.5806451612903226
 40
0.5806451612903226
 40
0.5806451612903226
 40
0.5806451612903226
 40
0.6129032258064516
 40
0.6129032258064516
 40
0.6129032258064516
 40
0.6129032258064516
 40
0.6451612903225806
 40
0.6451612903225806
 40
0.6451612903225806
 40
0.6451612903225806
 40
0.6774193548387096
 40
0.6774193548387096
 40
0.6774193548387096
 40
0.6774193548387096
 40
0.7096774193548387
 40
0.7096774193548387
 40
0.7096774193548387
 40
0.7096774193548387
 40
0.7419354838709677
 40
0.7419354838709677
 40
0.7419354838709677
 40
0.7419354838709677
 40
0.7741935483870968
 40
0.7741935483870968
 40
0.7741935483870968
 40
0.7741935483870968
 40
0.8064516129032258
 40
0.8064516129032258
 40
0.8064516129032258
 40
0.8064516129032258
 40
0.8387096774193549
 40
0.8387096774193549
 40
0.8387096774193549
 40
0.8387096774193549
 40
0.8709677419354839
 40
0.8709677419354839
 40
0.8709677419354839
 40
0.8709677419354839
 40
0.9032258064516129
 40
0.9032258064516129
 40
0.9032258064516129
 40
0.9032258064516129
 40
0.9354838709677419
 40
0.9354838709677419
 40
0.9354838709677419
 40
0.9354838709677419
 40
1.0
 40
1.0
 40
1.0
 40
1.0
 10
127.8018
 20
79.3619
 30
0.0
 10
126.7999
 20
78.7084
 30
0.0
 10
125.4472
 20
79.1084
 30
0.0
 10
124.916
 20
80.0284
 30
0.0
 10
124.916
 20
80.0284
 30
0.0
 10
124.3849
 20
80.9484
 30
0.0
 10
124.7148
 20
82.3199
 30
0.0
 10
125.7817
 20
82.8608
 30
0.0
 10
125.7817
 20
82.8608
 30
0.0
 10
128.3496
 20
84.1628
 30
0.0
 10
132.0042
 20
84.3796
 30
0.0
 10
133.6929
 20
86.0884
 30
0.0
 10
133.6929
 20
86.0884
 30
0.0
 10
133.3425
 20
86.9374
 30
0.0
 10
133.2723
 20
87.9571
 30
0.0
 10
133.5013
 20
88.724
 30
0.0
 10
133.5013
 20
88.724
 30
0.0
 10
131.8126
 20
90.4328
 30
0.0
 10
128.158
 20
90.6496
 30
0.0
 10
125.5902
 20
91.9516
 30
0.0
 10
125.5902
 20
91.9516
 30
0.0
 10
124.5232
 20
92.4925
 30
0.0
 10
124.1933
 20
93.864
 30
0.0
 10
124.7245
 20
94.784
 30
0.0
 10
124.7245
 20
94.784
 30
0.0
 10
125.2556
 20
95.704
 30
0.0
 10
126.6084
 20
96.1041
 30
0.0
 10
127.6102
 20
95.4505
 30
0.0
 10
127.6102
 20
95.4505
 30
0.0
 10
130.0217
 20
93.8776
 30
0.0
 10
132.0368
 20
90.8211
 30
0.0
 10
134.361
 20
90.213
 30
0.0
 10
134.361
 20
90.213
 30
0.0
 10
134.9434
 20
90.9151
 30
0.0
 10
136.0534
 20
91.6741
 30
0.0
 10
137.0563
 20
91.8125
 30
0.0
 10
137.0563
 20
91.8125
 30
0.0
 10
137.6918
 20
94.1293
 30
0.0
 10
136.0524
 20
97.4028
 30
0.0
 10
135.8958
 20
100.2775
 30
0.0
 10
135.8958
 20
100.2775
 30
0.0
 10
135.8308
 20
101.4719
 30
0.0
 10
136.8536
 20
102.4435
 30
0.0
 10
137.916
 20
102.4435
 30
0.0
 10
137.916
 20
102.4435
 30
0.0
 10
138.9784
 20
102.4435
 30
0.0
 10
140.0012
 20
101.4719
 30
0.0
 10
139.9362
 20
100.2775
 30
0.0
 10
139.9362
 20
100.2775
 30
0.0
 10
139.7798
 20
97.4028
 30
0.0
 10
138.1403
 20
94.1293
 30
0.0
 10
138.7758
 20
91.8125
 30
0.0
 10
138.7758
 20
91.8125
 30
0.0
 10
139.7335
 20
91.6266
 30
0.0
 10
140.7622
 20
91.0747
 30
0.0
 10
141.2727
 20
90.4593
 30
0.0
 10
141.2727
 20
90.4593
 30
0.0
 10
143.5968
 20
91.0674
 30
0.0
 10
145.612
 20
94.124
 30
0.0
 10
148.0234
 20
95.6968
 30
0.0
 10
148.0234
 20
95.6968
 30
0.0
 10
149.0253
 20
96.3502
 30
0.0
 10
150.3781
 20
95.9503
 30
0.0
 10
150.9092
 20
95.0303
 30
0.0
 10
150.9092
 20
95.0303
 30
0.0
 10
151.4404
 20
94.1103
 30
0.0
 10
151.1104
 20
92.7388
 30
0.0
 10
150.0435
 20
92.1979
 30
0.0
 10
150.0435
 20
92.1979
 30
0.0
 10
147.4757
 20
90.8959
 30
0.0
 10
143.8211
 20
90.6791
 30
0.0
 10
142.1324
 20
88.9703
 30
0.0
 10
142.1324
 20
88.9703
 30
0.0
 10
142.594
 20
88.1526
 30
0.0
 10
142.4964
 20
86.8056
 30
0.0
 10
142.2692
 20
86.0886
 30
0.0
 10
142.2692
 20
86.0886
 30
0.0
 10
143.9579
 20
84.3797
 30
0.0
 10
147.6125
 20
84.1629
 30
0.0
 10
150.1803
 20
82.861
 30
0.0
 10
150.1803
 20
82.861
 30
0.0
 10
151.2473
 20
82.32
 30
0.0
 10
151.5772
 20
80.9486
 30
0.0
 10
151.0461
 20
80.0285
 30
0.0
 10
151.0461
 20
80.0285
 30
0.0
 10
150.5149
 20
79.1085
 30
0.0
 10
149.1621
 20
78.7084
 30
0.0
 10
148.1603
 20
79.3621
 30
0.0
 10
148.1603
 20
79.3621
 30
0.0
 10
145.7488
 20
80.9349
 30
0.0
 10
143.7337
 20
83.9914
 30
0.0
 10
141.4095
 20
84.5995
 30
0.0
 10
141.4095
 20
84.5995
 30
0.0
 10
140.7553
 20
83.8546
 30
0.0
 10
139.63
 20
83.3054
 30
0.0
 10
138.7758
 20
83.1598
 30
0.0
 10
138.7758
 20
83.1598
 30
0.0
 10
138.1403
 20
80.843
 30
0.0
 10
139.7797
 20
77.5695
 30
0.0
 10
139.9362
 20
74.6947
 30
0.0
 10
139.9362
 20
74.6947
 30
0.0
 10
140.0013
 20
73.5003
 30
0.0
 10
138.9785
 20
72.5288
 30
0.0
 10
137.916
 20
72.5288
 30
0.0
 10
137.916
 20
72.5288
 30
0.0
 10
136.8537
 20
72.5288
 30
0.0
 10
135.8309
 20
73.5003
 30
0.0
 10
135.8958
 20
74.6947
 30
0.0
 10
135.8958
 20
74.6947
 30
0.0
 10
136.0522
 20
77.5695
 30
0.0
 10
137.6918
 20
80.843
 30
0.0
 10
137.0563
 20
83.1598
 30
0.0
 10
137.0563
 20
83.1598
 30
0.0
 10
136.1723
 20
83.3932
 30
0.0
 10
135.2866
 20
83.6104
 30
0.0
 10
134.5524
 20
84.5995
 30
0.0
 10
134.5524
 20
84.5995
 30
0.0
 10
132.4099
 20
83.7003
 30
0.0
 10
128.5413
 20
79.8442
 30
0.0
 10
127.8018
 20
79.3619
 30
0.0
  0
SPLINE
  5
52
330
1F
100
AcDbEntity
  8
layer 1
 62
     7
100
AcDbSpline
210
0.0
220
0.0
230
1.0
 70
    11
 71
     3
 72
   124
 73
   120
 74
     0
 42
0.0000000001
 43
0.0000000001
 12
1.0
 22
0.0
 32
0.0
 13
1.0
 23
0.0
 33
0.0
 40
0.0
 40
0.0
 40
0.0
 40
0.0
 40
0.032258064516129
 40
0.032258064516129
 40
0.032258064516129
 40
0.032258064516129
 40
0.0645161290322581
 40
0.0645161290322581
 40
0.0645161290322581
 40
0.0645161290322581
 40
0.0967741935483871
 40
0.0967741935483871
 40
0.0967741935483871
 40
0.0967741935483871
 40
0.1290322580645161
 40
0.1290322580645161
 40
0.1290322580645161
 40
0.1290322580645161
 40
0.1612903225806452
 40
0.1612903225806452
 40
0.1612903225806452
 40
0.1612903225806452
 40
0.1935483870967742
 40
0.1935483870967742
 40
0.1935483870967742
 40
0.1935483870967742
 40
0.2258064516129032
 40
0.2258064516129032
 40
0.2258064516129032
 40
0.2258064516129032
 40
0.2580645161290323
 40
0.2580645161290323
 40
0.2580645161290323
 40
0.2580645161290323
 40
0.2903225806451613
 40
0.2903225806451613
 40
0.2903225806451613
 40
0.2903225806451613
 40
0.3225806451612903
 40
0.3225806451612903
 40
0.3225806451612903
 40
0.3225806451612903
 40
0.3548387096774194
 40
0.3548387096774194
 40
0.3548387096774194
 40
0.3548387096774194
 40
0.3870967741935484
 40
0.3870967741935484
 40
0.3870967741935484
 40
0.3870967741935484
 40
0.4193548387096774
 40
0.4193548387096774
 40
0.4193548387096774
 40
0.4193548387096774
 40
0.4516129032258064
 40
0.4516129032258064
 40
0.4516129032258064
 40
0.4516129032258064
 40
0.4838709677419355
 40
0.4838709677419355
 40
0.4838709677419355
 40
0.4838709677419355
 40
0.5161290322580645
 40
0.5161290322580645
 40
0.5161290322580645
 40
0.5161290322580645
 40
0.5483870967741935
 40
0.5483870967741935
 40
0.5483870967741935
 40
0.5483870967741935
 40
0.5806451612903226
 40
0.5806451612903226
 40
0.5806451612903226
 40
0.5806451612903226
 40
0.6129032258064516
 40
0.6129032258064516
 40
0.6129032258064516
 40
0.6129032258064516
 40
0.6451612903225806
 40
0.6451612903225806
 40
0.6451612903225806
 40
0.6451612903225806
 40
0.6774193548387096
 40
0.6774193548387096
 40
0.6774193548387096
 40
0.6774193548387096
 40
0.7096774193548387
 40
0.7096774193548387
 40
0.7096774193548387
 40
0.7096774193548387
 40
0.7419354838709677
 40
0.7419354838709677
 40
0.7419354838709677
 40
0.7419354838709677
 40
0.7741935483870968
 40
0.7741935483870968
 40
0.7741935483870968
 40
0.7741935483870968
 40
0.8064516129032258
 40
0.8064516129032258
 40
0.8064516129032258
 40
0.8064516129032258
 40
0.8387096774193549
 40
0.8387096774193549
 40
0.8387096774193549
 40
0.8387096774193549
 40
0.8709677419354839
 40
0.8709677419354839
 40
0.8709677419354839
 40
0.8709677419354839
 40
0.9032258064516129
 40
0.9032258064516129
 40
0.9032258064516129
 40
0.9032258064516129
 40
0.9354838709677419
 40
0.9354838709677419
 40
0.9354838709677419
 40
0.9354838709677419
 40
1.0
 40
1.0
 40
1.0
 40
1.0
 10
107.7257
 20
75.4085
 30
0.0
 10
107.1847
 20
74.3416
 30
0.0
 10
105.8133
 20
74.0116
 30
0.0
 10
104.8932
 20
74.5428
 30
0.0
 10
104.8932
 20
74.5428
 30
0.0
 10
103.9732
 20
75.074
 30
0.0
 10
103.5731
 20
76.4267
 30
0.0
 10
104.2268
 20
77.4286
 30
0.0
 10
104.2268
 20
77.4286
 30
0.0
 10
105.7996
 20
79.84
 30
0.0
 10
108.8561
 20
81.8552
 30
0.0
 10
109.4642
 20
84.1794
 30
0.0
 10
109.4642
 20
84.1794
 30
0.0
 10
108.7363
 20
84.7394
 30
0.0
 10
108.1656
 20
85.5874
 30
0.0
 10
107.9806
 20
86.366
 30
0.0
 10
107.9806
 20
86.366
 30
0.0
 10
105.6639
 20
87.0015
 30
0.0
 10
102.3903
 20
85.3621
 30
0.0
 10
99.5156
 20
85.2055
 30
0.0
 10
99.5156
 20
85.2055
 30
0.0
 10
98.3212
 20
85.1405
 30
0.0
 10
97.3496
 20
86.1633
 30
0.0
 10
97.3496
 20
87.2257
 30
0.0
 10
97.3496
 20
87.2257
 30
0.0
 10
97.3496
 20
88.288
 30
0.0
 10
98.3212
 20
89.3108
 30
0.0
 10
99.5156
 20
89.2459
 30
0.0
 10
99.5156
 20
89.2459
 30
0.0
 10
102.3903
 20
89.0895
 30
0.0
 10
105.6639
 20
87.45
 30
0.0
 10
107.9806
 20
88.0854
 30
0.0
 10
107.9806
 20
88.0854
 30
0.0
 10
108.1339
 20
88.9847
 30
0.0
 10
108.7157
 20
90.1969
 30
0.0
 10
109.5152
 20
90.8183
 30
0.0
 10
109.5152
 20
90.8183
 30
0.0
 10
108.9071
 20
93.1425
 30
0.0
 10
105.8505
 20
95.1577
 30
0.0
 10
104.2777
 20
97.5691
 30
0.0
 10
104.2777
 20
97.5691
 30
0.0
 10
103.6243
 20
98.571
 30
0.0
 10
104.0242
 20
99.9237
 30
0.0
 10
104.9442
 20
100.4549
 30
0.0
 10
104.9442
 20
100.4549
 30
0.0
 10
105.8642
 20
100.986
 30
0.0
 10
107.2357
 20
100.6561
 30
0.0
 10
107.7766
 20
99.5891
 30
0.0
 10
107.7766
 20
99.5891
 30
0.0
 10
109.0786
 20
97.0213
 30
0.0
 10
109.2954
 20
93.3667
 30
0.0
 10
111.0042
 20
91.678
 30
0.0
 10
111.0042
 20
91.678
 30
0.0
 10
111.9265
 20
91.996
 30
0.0
 10
113.0934
 20
92.0323
 30
0.0
 10
113.8432
 20
91.7545
 30
0.0
 10
113.8432
 20
91.7545
 30
0.0
 10
115.552
 20
93.4432
 30
0.0
 10
115.7689
 20
97.0978
 30
0.0
 10
117.0708
 20
99.6657
 30
0.0
 10
117.0708
 20
99.6657
 30
0.0
 10
117.6117
 20
100.7326
 30
0.0
 10
118.9832
 20
101.0625
 30
0.0
 10
119.9032
 20
100.5314
 30
0.0
 10
119.9032
 20
100.5314
 30
0.0
 10
120.8233
 20
100.0002
 30
0.0
 10
121.2233
 20
98.6475
 30
0.0
 10
120.5697
 20
97.6456
 30
0.0
 10
120.5697
 20
97.6456
 30
0.0
 10
118.9969
 20
95.2342
 30
0.0
 10
115.9403
 20
93.219
 30
0.0
 10
115.3323
 20
90.8948
 30
0.0
 10
115.3323
 20
90.8948
 30
0.0
 10
116.1409
 20
90.4176
 30
0.0
 10
116.7298
 20
89.2022
 30
0.0
 10
116.8915
 20
88.4676
 30
0.0
 10
116.8915
 20
88.4676
 30
0.0
 10
119.2083
 20
87.8321
 30
0.0
 10
122.4818
 20
89.4716
 30
0.0
 10
125.3566
 20
89.6281
 30
0.0
 10
125.3566
 20
89.6281
 30
0.0
 10
126.551
 20
89.6932
 30
0.0
 10
127.5225
 20
88.6704
 30
0.0
 10
127.5225
 20
87.6079
 30
0.0
 10
127.5225
 20
87.6079
 30
0.0
 10
127.5225
 20
86.5456
 30
0.0
 10
126.551
 20
85.5228
 30
0.0
 10
125.3566
 20
85.5877
 30
0.0
 10
125.3566
 20
85.5877
 30
0.0
 10
122.4818
 20
85.7441
 30
0.0
 10
119.2083
 20
87.3836
 30
0.0
 10
116.8915
 20
86.7482
 30
0.0
 10
116.8915
 20
86.7482
 30
0.0
 10
116.6974
 20
85.7759
 30
0.0
 10
115.9975
 20
84.7378
 30
0.0
 10
115.3304
 20
84.1845
 30
0.0
 10
115.3304
 20
84.1845
 30
0.0
 10
115.9385
 20
81.8604
 30
0.0
 10
118.9951
 20
79.8452
 30
0.0
 10
120.5679
 20
77.4337
 30
0.0
 10
120.5679
 20
77.4337
 30
0.0
 10
121.2214
 20
76.4319
 30
0.0
 10
120.8215
 20
75.0791
 30
0.0
 10
119.9014
 20
74.548
 30
0.0
 10
119.9014
 20
74.548
 30
0.0
 10
118.9814
 20
74.0168
 30
0.0
 10
117.6099
 20
74.3468
 30
0.0
 10
117.069
 20
75.4137
 30
0.0
 10
117.069
 20
75.4137
 30
0.0
 10
115.7671
 20
77.9815
 30
0.0
 10
115.5502
 20
81.6361
 30
0.0
 10
113.8414
 20
83.3248
 30
0.0
 10
113.8414
 20
83.3248
 30
0.0
 10
112.9235
 20
83.0234
 30
0.0
 10
111.8232
 20
83.0356
 30
0.0
 10
110.9531
 20
83.3197
 30
0.0
 10
110.9531
 20
83.3197
 30
0.0
 10
109.7661
 20
81.8405
 30
0.0
 10
108.3649
 20
76.6694
 30
0.0
 10
107.7257
 20
75.4085
 30
0.0
  0
SPLINE
  5
53
330
1F
100
AcDbEntity
  8
layer 1
 62
     7
100
AcDbSpline
210
0.0
220
0.0
230
1.0
 70
    11
 71
     3
 72
   124
 73
   120
 74
     0
 42
0.0000000001
 43
0.0000000001
 12
1.0
 22
0.0
 32
0.0
 13
1.0
 23
0.0
 33
0.0
 40
0.0
 40
0.0
 40
0.0
 40
0.0
 40
0.032258064516129
 40
0.032258064516129
 40
0.032258064516129
 40
0.032258064516129
 40
0.0645161290322581
 40
0.0645161290322581
 40
0.0645161290322581
 40
0.0645161290322581
 40
0.0967741935483871
 40
0.0967741935483871
 40
0.0967741935483871
 40
0.0967741935483871
 40
0.1290322580645161
 40
0.1290322580645161
 40
0.1290322580645161
 40
0.1290322580645161
 40
0.1612903225806452
 40
0.1612903225806452
 40
0.1612903225806452
 40
0.1612903225806452
 40
0.1935483870967742
 40
0.1935483870967742
 40
0.1935483870967742
 40
0.1935483870967742
 40
0.2258064516129032
 40
0.2258064516129032
 40
0.2258064516129032
 40
0.2258064516129032
 40
0.2580645161290323
 40
0.2580645161290323
 40
0.2580645161290323
 40
0.2580645161290323
 40
0.2903225806451613
 40
0.2903225806451613
 40
0.2903225806451613
 40
0.2903225806451613
 40
0.3225806451612903
 40
0.3225806451612903
 40
0.3225806451612903
 40
0.3225806451612903
 40
0.3548387096774194
 40
0.3548387096774194
 40
0.3548387096774194
 40
0.3548387096774194
 40
0.3870967741935484
 40
0.3870967741935484
 40
0.3870967741935484
 40
0.3870967741935484
 40
0.4193548387096774
 40
0.4193548387096774
 40
0.4193548387096774
 40
0.4193548387096774
 40
0.4516129032258064
 40
0.4516129032258064
 40
0.4516129032258064
 40
0.4516129032258064
 40
0.4838709677419355
 40
0.4838709677419355
 40
0.4838709677419355
 40
0.4838709677419355
 40
0.5161290322580645
 40
0.5161290322580645
 40
0.5161290322580645
 40
0.5161290322580645
 40
0.5483870967741935
 40
0.5483870967741935
 40
0.5483870967741935
 40
0.5483870967741935
 40
0.5806451612903226
 40
0.5806451612903226
 40
0.5806451612903226
 40
0.5806451612903226
 40
0.6129032258064516
 40
0.6129032258064516
 40
0.6129032258064516
 40
0.6129032258064516
 40
0.6451612903225806
 40
0.6451612903225806
 40
0.6451612903225806
 40
0.6451612903225806
 40
0.6774193548387096
 40
0.6774193548387096
 40
0.6774193548387096
 40
0.6774193548387096
 40
0.7096774193548387
 40
0.7096774193548387
 40
0.7096774193548387
 40
0.7096774193548387
 40
0.7419354838709677
 40
0.7419354838709677
 40
0.7419354838709677
 40
0.7419354838709677
 40
0.7741935483870968
 40
0.7741935483870968
 40
0.7741935483870968
 40
0.7741935483870968
 40
0.8064516129032258
 40
0.8064516129032258
 40
0.8064516129032258
 40
0.8064516129032258
 40
0.8387096774193549
 40
0.8387096774193549
 40
0.8387096774193549
 40
0.8387096774193549
 40
0.8709677419354839
 40
0.8709677419354839
 40
0.8709677419354839
 40
0.8709677419354839
 40
0.9032258064516129
 40
0.9032258064516129
 40
0.9032258064516129
 40
0.9032258064516129
 40
0.9354838709677419
 40
0.9354838709677419
 40
0.9354838709677419
 40
0.9354838709677419
 40
1.0
 40
1.0
 40
1.0
 40
1.0
 10
158.5143
 20
75.4085
 30
0.0
 10
157.9733
 20
74.3416
 30
0.0
 10
156.6019
 20
74.0116
 30
0.0
 10
155.6818
 20
74.5428
 30
0.0
 10
155.6818
 20
74.5428
 30
0.0
 10
154.7618
 20
75.074
 30
0.0
 10
154.3618
 20
76.4267
 30
0.0
 10
155.0154
 20
77.4286
 30
0.0
 10
155.0154
 20
77.4286
 30
0.0
 10
156.5882
 20
79.84
 30
0.0
 10
159.6447
 20
81.8552
 30
0.0
 10
160.2528
 20
84.1794
 30
0.0
 10
160.2528
 20
84.1794
 30
0.0
 10
159.5249
 20
84.7394
 30
0.0
 10
158.9542
 20
85.5874
 30
0.0
 10
158.7692
 20
86.366
 30
0.0
 10
158.7692
 20
86.366
 30
0.0
 10
156.4525
 20
87.0015
 30
0.0
 10
153.1789
 20
85.3621
 30
0.0
 10
150.3042
 20
85.2055
 30
0.0
 10
150.3042
 20
85.2055
 30
0.0
 10
149.1098
 20
85.1405
 30
0.0
 10
148.1382
 20
86.1633
 30
0.0
 10
148.1382
 20
87.2257
 30
0.0
 10
148.1382
 20
87.2257
 30
0.0
 10
148.1382
 20
88.288
 30
0.0
 10
149.1098
 20
89.3108
 30
0.0
 10
150.3042
 20
89.2459
 30
0.0
 10
150.3042
 20
89.2459
 30
0.0
 10
153.1789
 20
89.0895
 30
0.0
 10
156.4525
 20
87.45
 30
0.0
 10
158.7692
 20
88.0854
 30
0.0
 10
158.7692
 20
88.0854
 30
0.0
 10
158.9226
 20
88.9847
 30
0.0
 10
159.5043
 20
90.1969
 30
0.0
 10
160.3038
 20
90.8183
 30
0.0
 10
160.3038
 20
90.8183
 30
0.0
 10
159.6957
 20
93.1425
 30
0.0
 10
156.6391
 20
95.1577
 30
0.0
 10
155.0663
 20
97.5691
 30
0.0
 10
155.0663
 20
97.5691
 30
0.0
 10
154.4129
 20
98.571
 30
0.0
 10
154.8128
 20
99.9237
 30
0.0
 10
155.7328
 20
100.4549
 30
0.0
 10
155.7328
 20
100.4549
 30
0.0
 10
156.6528
 20
100.986
 30
0.0
 10
158.0243
 20
100.6561
 30
0.0
 10
158.5652
 20
99.5891
 30
0.0
 10
158.5652
 20
99.5891
 30
0.0
 10
159.8672
 20
97.0213
 30
0.0
 10
160.084
 20
93.3667
 30
0.0
 10
161.7928
 20
91.678
 30
0.0
 10
161.7928
 20
91.678
 30
0.0
 10
162.7151
 20
91.996
 30
0.0
 10
163.882
 20
92.0323
 30
0.0
 10
164.6318
 20
91.7545
 30
0.0
 10
164.6318
 20
91.7545
 30
0.0
 10
166.3406
 20
93.4432
 30
0.0
 10
166.5575
 20
97.0978
 30
0.0
 10
167.8594
 20
99.6657
 30
0.0
 10
167.8594
 20
99.6657
 30
0.0
 10
168.4003
 20
100.7326
 30
0.0
 10
169.7718
 20
101.0625
 30
0.0
 10
170.6918
 20
100.5314
 30
0.0
 10
170.6918
 20
100.5314
 30
0.0
 10
171.6119
 20
100.0002
 30
0.0
 10
172.0119
 20
98.6475
 30
0.0
 10
171.3583
 20
97.6456
 30
0.0
 10
171.3583
 20
97.6456
 30
0.0
 10
169.7855
 20
95.2342
 30
0.0
 10
166.729
 20
93.219
 30
0.0
 10
166.1209
 20
90.8948
 30
0.0
 10
166.1209
 20
90.8948
 30
0.0
 10
166.9295
 20
90.4176
 30
0.0
 10
167.5184
 20
89.2022
 30
0.0
 10
167.6801
 20
88.4676
 30
0.0
 10
167.6801
 20
88.4676
 30
0.0
 10
169.9969
 20
87.8321
 30
0.0
 10
173.2704
 20
89.4716
 30
0.0
 10
176.1452
 20
89.6281
 30
0.0
 10
176.1452
 20
89.6281
 30
0.0
 10
177.3396
 20
89.6932
 30
0.0
 10
178.3111
 20
88.6704
 30
0.0
 10
178.3111
 20
87.6079
 30
0.0
 10
178.3111
 20
87.6079
 30
0.0
 10
178.3111
 20
86.5456
 30
0.0
 10
177.3396
 20
85.5228
 30
0.0
 10
176.1452
 20
85.5877
 30
0.0
 10
176.1452
 20
85.5877
 30
0.0
 10
173.2704
 20
85.7441
 30
0.0
 10
169.9969
 20
87.3836
 30
0.0
 10
167.6801
 20
86.7482
 30
0.0
 10
167.6801
 20
86.7482
 30
0.0
 10
167.486
 20
85.7759
 30
0.0
 10
166.7861
 20
84.7378
 30
0.0
 10
166.119
 20
84.1845
 30
0.0
 10
166.119
 20
84.1845
 30
0.0
 10
166.7271
 20
81.8604
 30
0.0
 10
169.7837
 20
79.8452
 30
0.0
 10
171.3565
 20
77.4337
 30
0.0
 10
171.3565
 20
77.4337
 30
0.0
 10
172.01
 20
76.4319
 30
0.0
 10
171.6101
 20
75.0791
 30
0.0
 10
170.69
 20
74.548
 30
0.0
 10
170.69
 20
74.548
 30
0.0
 10
169.77
 20
74.0168
 30
0.0
 10
168.3985
 20
74.3468
 30
0.0
 10
167.8576
 20
75.4137
 30
0.0
 10
167.8576
 20
75.4137
 30
0.0
 10
166.5557
 20
77.9815
 30
0.0
 10
166.3388
 20
81.6361
 30
0.0
 10
164.63
 20
83.3248
 30
0.0
 10
164.63
 20
83.3248
 30
0.0
 10
163.7121
 20
83.0234
 30
0.0
 10
162.6118
 20
83.0356
 30
0.0
 10
161.7417
 20
83.3197
 30
0.0
 10
161.7417
 20
83.3197
 30
0.0
 10
160.5547
 20
81.8405
 30
0.0
 10
159.1535
 20
76.6694
 30
0.0
 10
158.5143
 20
75.4085
 30
0.0
  0
SPLINE
  5
54
330
1F
100
AcDbEntity
  8
layer 1
 62
     7
100
AcDbSpline
210
0.0
220
0.0
230
1.0
 70
    11
 71
     3
 72
    68
 73
    64
 74
     0
 42
0.0000000001
 43
0.0000000001
 12
1.0
 22
0.0
 32
0.0
 13
1.0
 23
0.0
 33
0.0
 40
0.0
 40
0.0
 40
0.0
 40
0.0
 40
0.0588235294117647
 40
0.0588235294117647
 40
0.0588235294117647
 40
0.0588235294117647
 40
0.1176470588235294
 40
0.1176470588235294
 40
0.1176470588235294
 40
0.1176470588235294
 40
0.1764705882352941
 40
0.1764705882352941
 40
0.1764705882352941
 40
0.1764705882352941
 40
0.2352941176470588
 40
0.2352941176470588
 40
0.2352941176470588
 40
0.2352941176470588
 40
0.2941176470588235
 40
0.2941176470588235
 40
0.2941176470588235
 40
0.2941176470588235
 40
0.3529411764705883
 40
0.3529411764705883
 40
0.3529411764705883
 40
0.3529411764705883
 40
0.4117647058823529
 40
0.4117647058823529
 40
0.4117647058823529
 40
0.4117647058823529
 40
0.4705882352941176
 40
0.4705882352941176
 40
0.4705882352941176
 40
0.4705882352941176
 40
0.5294117647058824
 40
0.5294117647058824
 40
0.5294117647058824
 40
0.5294117647058824
 40
0.5882352941176471
 40
0.5882352941176471
 40
0.5882352941176471
 40
0.5882352941176471
 40
0.6470588235294118
 40
0.6470588235294118
 40
0.6470588235294118
 40
0.6470588235294118
 40
0.7058823529411765
 40
0.7058823529411765
 40
0.7058823529411765
 40
0.7058823529411765
 40
0.7647058823529411
 40
0.7647058823529411
 40
0.7647058823529411
 40
0.7647058823529411
 40
0.8235294117647058
 40
0.8235294117647058
 40
0.8235294117647058
 40
0.8235294117647058
 40
0.8823529411764706
 40
0.8823529411764706
 40
0.8823529411764706
 40
0.8823529411764706
 40
1.0
 40
1.0
 40
1.0
 40
1.0
 10
86.8158
 20
102.4435
 30
0.0
 10
87.8781
 20
102.4435
 30
0.0
 10
88.9009
 20
101.4719
 30
0.0
 10
88.836
 20
100.2775
 30
0.0
 10
88.836
 20
100.2775
 30
0.0
 10
88.6796
 20
97.4028
 30
0.0
 10
87.04
 20
94.1293
 30
0.0
 10
87.6755
 20
91.8125
 30
0.0
 10
87.6755
 20
91.8125
 30
0.0
 10
88.6332
 20
91.6266
 30
0.0
 10
89.6619
 20
91.0747
 30
0.0
 10
90.1724
 20
90.4593
 30
0.0
 10
90.1724
 20
90.4593
 30
0.0
 10
92.4966
 20
91.0674
 30
0.0
 10
94.5117
 20
94.124
 30
0.0
 10
96.9232
 20
95.6968
 30
0.0
 10
96.9232
 20
95.6968
 30
0.0
 10
97.925
 20
96.3502
 30
0.0
 10
99.2778
 20
95.9503
 30
0.0
 10
99.8089
 20
95.0303
 30
0.0
 10
99.8089
 20
95.0303
 30
0.0
 10
100.3401
 20
94.1103
 30
0.0
 10
100.0102
 20
92.7388
 30
0.0
 10
98.9432
 20
92.1979
 30
0.0
 10
98.9432
 20
92.1979
 30
0.0
 10
96.3754
 20
90.8959
 30
0.0
 10
92.7208
 20
90.6791
 30
0.0
 10
91.0321
 20
88.9703
 30
0.0
 10
91.0321
 20
88.9703
 30
0.0
 10
91.4937
 20
88.1526
 30
0.0
 10
91.3961
 20
86.8056
 30
0.0
 10
91.1689
 20
86.0886
 30
0.0
 10
91.1689
 20
86.0886
 30
0.0
 10
92.8577
 20
84.3797
 30
0.0
 10
96.5122
 20
84.1629
 30
0.0
 10
99.0801
 20
82.861
 30
0.0
 10
99.0801
 20
82.861
 30
0.0
 10
100.147
 20
82.32
 30
0.0
 10
100.4769
 20
80.9486
 30
0.0
 10
99.9458
 20
80.0285
 30
0.0
 10
99.9458
 20
80.0285
 30
0.0
 10
99.4146
 20
79.1085
 30
0.0
 10
98.0619
 20
78.7084
 30
0.0
 10
97.06
 20
79.3621
 30
0.0
 10
97.06
 20
79.3621
 30
0.0
 10
94.6486
 20
80.9349
 30
0.0
 10
92.6334
 20
83.9914
 30
0.0
 10
90.3092
 20
84.5995
 30
0.0
 10
90.3092
 20
84.5995
 30
0.0
 10
89.6551
 20
83.8546
 30
0.0
 10
88.5298
 20
83.3054
 30
0.0
 10
87.6755
 20
83.1598
 30
0.0
 10
87.6755
 20
83.1598
 30
0.0
 10
87.04
 20
80.843
 30
0.0
 10
88.6794
 20
77.5695
 30
0.0
 10
88.836
 20
74.6947
 30
0.0
 10
88.836
 20
74.6947
 30
0.0
 10
88.901
 20
73.5003
 30
0.0
 10
87.8782
 20
72.5288
 30
0.0
 10
86.8158
 20
72.5288
 30
0.0
 10
86.8158
 20
72.5288
 30
0.0
 10
86.8158
 20
72.5288
 30
0.0
 10
86.8158
 20
102.4435
 30
0.0
 10
86.8158
 20
102.4435
 30
0.0
  0
SPLINE
  5
55
330
1F
100
AcDbEntity
  8
layer 1
 62
     7
100
AcDbSpline
210
0.0
220
0.0
230
1.0
 70
    11
 71
     3
 72
    68
 73
    64
 74
     0
 42
0.0000000001
 43
0.0000000001
 12
1.0
 22
0.0
 32
0.0
 13
1.0
 23
0.0
 33
0.0
 40
0.0
 40
0.0
 40
0.0
 40
0.0
 40
0.0588235294117647
 40
0.0588235294117647
 40
0.0588235294117647
 40
0.0588235294117647
 40
0.1176470588235294
 40
0.1176470588235294
 40
0.1176470588235294
 40
0.1176470588235294
 40
0.1764705882352941
 40
0.1764705882352941
 40
0.1764705882352941
 40
0.1764705882352941
 40
0.2352941176470588
 40
0.2352941176470588
 40
0.2352941176470588
 40
0.2352941176470588
 40
0.2941176470588235
 40
0.2941176470588235
 40
0.2941176470588235
 40
0.2941176470588235
 40
0.3529411764705883
 40
0.3529411764705883
 40
0.3529411764705883
 40
0.3529411764705883
 40
0.4117647058823529
 40
0.4117647058823529
 40
0.4117647058823529
 40
0.4117647058823529
 40
0.4705882352941176
 40
0.4705882352941176
 40
0.4705882352941176
 40
0.4705882352941176
 40
0.5294117647058824
 40
0.5294117647058824
 40
0.5294117647058824
 40
0.5294117647058824
 40
0.5882352941176471
 40
0.5882352941176471
 40
0.5882352941176471
 40
0.5882352941176471
 40
0.6470588235294118
 40
0.6470588235294118
 40
0.6470588235294118
 40
0.6470588235294118
 40
0.7058823529411765
 40
0.7058823529411765
 40
0.7058823529411765
 40
0.7058823529411765
 40
0.7647058823529411
 40
0.7647058823529411
 40
0.7647058823529411
 40
0.7647058823529411
 40
0.8235294117647058
 40
0.8235294117647058
 40
0.8235294117647058
 40
0.8235294117647058
 40
0.8823529411764706
 40
0.8823529411764706
 40
0.8823529411764706
 40
0.8823529411764706
 40
1.0
 40
1.0
 40
1.0
 40
1.0
 10
178.5956
 20
79.3619
 30
0.0
 10
177.5937
 20
78.7084
 30
0.0
 10
176.241
 20
79.1084
 30
0.0
 10
175.7098
 20
80.0284
 30
0.0
 10
175.7098
 20
80.0284
 30
0.0
 10
175.1786
 20
80.9484
 30
0.0
 10
175.5086
 20
82.3199
 30
0.0
 10
176.5755
 20
82.8608
 30
0.0
 10
176.5755
 20
82.8608
 30
0.0
 10
179.1434
 20
84.1628
 30
0.0
 10
182.7979
 20
84.3796
 30
0.0
 10
184.4866
 20
86.0884
 30
0.0
 10
184.4866
 20
86.0884
 30
0.0
 10
184.1363
 20
86.9374
 30
0.0
 10
184.0661
 20
87.9571
 30
0.0
 10
184.2951
 20
88.724
 30
0.0
 10
184.2951
 20
88.724
 30
0.0
 10
182.6064
 20
90.4328
 30
0.0
 10
178.9518
 20
90.6496
 30
0.0
 10
176.3839
 20
91.9516
 30
0.0
 10
176.3839
 20
91.9516
 30
0.0
 10
175.317
 20
92.4925
 30
0.0
 10
174.9871
 20
93.864
 30
0.0
 10
175.5182
 20
94.784
 30
0.0
 10
175.5182
 20
94.784
 30
0.0
 10
176.0494
 20
95.704
 30
0.0
 10
177.4021
 20
96.1041
 30
0.0
 10
178.404
 20
95.4505
 30
0.0
 10
178.404
 20
95.4505
 30
0.0
 10
180.8154
 20
93.8776
 30
0.0
 10
182.8306
 20
90.8211
 30
0.0
 10
185.1548
 20
90.213
 30
0.0
 10
185.1548
 20
90.213
 30
0.0
 10
185.7372
 20
90.9151
 30
0.0
 10
186.8471
 20
91.6741
 30
0.0
 10
187.8501
 20
91.8125
 30
0.0
 10
187.8501
 20
91.8125
 30
0.0
 10
188.4856
 20
94.1293
 30
0.0
 10
186.8461
 20
97.4028
 30
0.0
 10
186.6896
 20
100.2775
 30
0.0
 10
186.6896
 20
100.2775
 30
0.0
 10
186.6246
 20
101.4719
 30
0.0
 10
187.6474
 20
102.4435
 30
0.0
 10
188.7098
 20
102.4435
 30
0.0
 10
188.7098
 20
102.4435
 30
0.0
 10
188.7098
 20
102.4435
 30
0.0
 10
188.7098
 20
72.5288
 30
0.0
 10
188.7098
 20
72.5288
 30
0.0
 10
188.7098
 20
72.5288
 30
0.0
 10
187.6475
 20
72.5288
 30
0.0
 10
186.6247
 20
73.5003
 30
0.0
 10
186.6896
 20
74.6947
 30
0.0
 10
186.6896
 20
74.6947
 30
0.0
 10
186.846
 20
77.5695
 30
0.0
 10
188.4856
 20
80.843
 30
0.0
 10
187.8501
 20
83.1598
 30
0.0
 10
187.8501
 20
83.1598
 30
0.0
 10
186.9661
 20
83.3932
 30
0.0
 10
186.0804
 20
83.6104
 30
0.0
 10
185.3462
 20
84.5995
 30
0.0
 10
185.3462
 20
84.5995
 30
0.0
 10
183.2037
 20
83.7003
 30
0.0
 10
179.3351
 20
79.8442
 30
0.0
 10
178.5956
 20
79.3619
 30
0.0
  0
SPLINE
  5
56
330
1F
100
AcDbEntity
  8
layer 1
 62
     7
100
AcDbSpline
210
0.0
220
0.0
230
1.0
 70
    11
 71
     3
 72
   124
 73
   120
 74
     0
 42
0.0000000001
 43
0.0000000001
 12
1.0
 22
0.0
 32
0.0
 13
1.0
 23
0.0
 33
0.0
 40
0.0
 40
0.0
 40
0.0
 40
0.0
 40
0.032258064516129
 40
0.032258064516129
 40
0.032258064516129
 40
0.032258064516129
 40
0.0645161290322581
 40
0.0645161290322581
 40
0.0645161290322581
 40
0.0645161290322581
 40
0.0967741935483871
 40
0.0967741935483871
 40
0.0967741935483871
 40
0.0967741935483871
 40
0.1290322580645161
 40
0.1290322580645161
 40
0.1290322580645161
 40
0.1290322580645161
 40
0.1612903225806452
 40
0.1612903225806452
 40
0.1612903225806452
 40
0.1612903225806452
 40
0.1935483870967742
 40
0.1935483870967742
 40
0.1935483870967742
 40
0.1935483870967742
 40
0.2258064516129032
 40
0.2258064516129032
 40
0.2258064516129032
 40
0.2258064516129032
 40
0.2580645161290323
 40
0.2580645161290323
 40
0.2580645161290323
 40
0.2580645161290323
 40
0.2903225806451613
 40
0.2903225806451613
 40
0.2903225806451613
 40
0.2903225806451613
 40
0.3225806451612903
 40
0.3225806451612903
 40
0.3225806451612903
 40
0.3225806451612903
 40
0.3548387096774194
 40
0.3548387096774194
 40
0.3548387096774194
 40
0.3548387096774194
 40
0.3870967741935484
 40
0.3870967741935484
 40
0.3870967741935484
 40
0.3870967741935484
 40
0.4193548387096774
 40
0.4193548387096774
 40
0.4193548387096774
 40
0.4193548387096774
 40
0.4516129032258064
 40
0.4516129032258064
 40
0.4516129032258064
 40
0.4516129032258064
 40
0.4838709677419355
 40
0.4838709677419355
 40
0.4838709677419355
 40
0.4838709677419355
 40
0.5161290322580645
 40
0.5161290322580645
 40
0.5161290322580645
 40
0.5161290322580645
 40
0.5483870967741935
 40
0.5483870967741935
 40
0.5483870967741935
 40
0.5483870967741935
 40
0.5806451612903226
 40
0.5806451612903226
 40
0.5806451612903226
 40
0.5806451612903226
 40
0.6129032258064516
 40
0.6129032258064516
 40
0.6129032258064516
 40
0.6129032258064516
 40
0.6451612903225806
 40
0.6451612903225806
 40
0.6451612903225806
 40
0.6451612903225806
 40
0.6774193548387096
 40
0.6774193548387096
 40
0.6774193548387096
 40
0.6774193548387096
 40
0.7096774193548387
 40
0.7096774193548387
 40
0.7096774193548387
 40
0.7096774193548387
 40
0.7419354838709677
 40
0.7419354838709677
 40
0.7419354838709677
 40
0.7419354838709677
 40
0.7741935483870968
 40
0.7741935483870968
 40
0.7741935483870968
 40
0.7741935483870968
 40
0.8064516129032258
 40
0.8064516129032258
 40
0.8064516129032258
 40
0.8064516129032258
 40
0.8387096774193549
 40
0.8387096774193549
 40
0.8387096774193549
 40
0.8387096774193549
 40
0.8709677419354839
 40
0.8709677419354839
 40
0.8709677419354839
 40
0.8709677419354839
 40
0.9032258064516129
 40
0.9032258064516129
 40
0.9032258064516129
 40
0.9032258064516129
 40
0.9354838709677419
 40
0.9354838709677419
 40
0.9354838709677419
 40
0.9354838709677419
 40
1.0
 40
1.0
 40
1.0
 40
1.0
 10
133.3097
 20
49.665
 30
0.0
 10
132.7688
 20
48.5981
 30
0.0
 10
131.3973
 20
48.2681
 30
0.0
 10
130.4773
 20
48.7993
 30
0.0
 10
130.4773
 20
48.7993
 30
0.0
 10
129.5573
 20
49.3304
 30
0.0
 10
129.1572
 20
50.6832
 30
0.0
 10
129.8108
 20
51.6851
 30
0.0
 10
129.8108
 20
51.6851
 30
0.0
 10
131.3836
 20
54.0965
 30
0.0
 10
134.4402
 20
56.1117
 30
0.0
 10
135.0483
 20
58.4358
 30
0.0
 10
135.0483
 20
58.4358
 30
0.0
 10
134.3204
 20
58.9959
 30
0.0
 10
133.7497
 20
59.8439
 30
0.0
 10
133.5647
 20
60.6225
 30
0.0
 10
133.5647
 20
60.6225
 30
0.0
 10
131.2479
 20
61.2579
 30
0.0
 10
127.9744
 20
59.6185
 30
0.0
 10
125.0996
 20
59.462
 30
0.0
 10
125.0996
 20
59.462
 30
0.0
 10
123.9052
 20
59.3969
 30
0.0
 10
122.9337
 20
60.4197
 30
0.0
 10
122.9337
 20
61.4822
 30
0.0
 10
122.9337
 20
61.4822
 30
0.0
 10
122.9337
 20
62.5445
 30
0.0
 10
123.9052
 20
63.5673
 30
0.0
 10
125.0996
 20
63.5024
 30
0.0
 10
125.0996
 20
63.5024
 30
0.0
 10
127.9744
 20
63.346
 30
0.0
 10
131.2479
 20
61.7064
 30
0.0
 10
133.5647
 20
62.3419
 30
0.0
 10
133.5647
 20
62.3419
 30
0.0
 10
133.718
 20
63.2411
 30
0.0
 10
134.2997
 20
64.4534
 30
0.0
 10
135.0992
 20
65.0748
 30
0.0
 10
135.0992
 20
65.0748
 30
0.0
 10
134.4911
 20
67.399
 30
0.0
 10
131.4346
 20
69.4141
 30
0.0
 10
129.8618
 20
71.8256
 30
0.0
 10
129.8618
 20
71.8256
 30
0.0
 10
129.2083
 20
72.8274
 30
0.0
 10
129.6082
 20
74.1802
 30
0.0
 10
130.5283
 20
74.7113
 30
0.0
 10
130.5283
 20
74.7113
 30
0.0
 10
131.4483
 20
75.2425
 30
0.0
 10
132.8198
 20
74.9126
 30
0.0
 10
133.3607
 20
73.8456
 30
0.0
 10
133.3607
 20
73.8456
 30
0.0
 10
134.6626
 20
71.2778
 30
0.0
 10
134.8795
 20
67.6232
 30
0.0
 10
136.5883
 20
65.9345
 30
0.0
 10
136.5883
 20
65.9345
 30
0.0
 10
137.5106
 20
66.2524
 30
0.0
 10
138.6775
 20
66.2887
 30
0.0
 10
139.4273
 20
66.011
 30
0.0
 10
139.4273
 20
66.011
 30
0.0
 10
141.1361
 20
67.6997
 30
0.0
 10
141.3529
 20
71.3543
 30
0.0
 10
142.6549
 20
73.9221
 30
0.0
 10
142.6549
 20
73.9221
 30
0.0
 10
143.1958
 20
74.9891
 30
0.0
 10
144.5673
 20
75.319
 30
0.0
 10
145.4873
 20
74.7879
 30
0.0
 10
145.4873
 20
74.7879
 30
0.0
 10
146.4073
 20
74.2567
 30
0.0
 10
146.8074
 20
72.9039
 30
0.0
 10
146.1538
 20
71.9021
 30
0.0
 10
146.1538
 20
71.9021
 30
0.0
 10
144.581
 20
69.4906
 30
0.0
 10
141.5244
 20
67.4755
 30
0.0
 10
140.9163
 20
65.1513
 30
0.0
 10
140.9163
 20
65.1513
 30
0.0
 10
141.7249
 20
64.674
 30
0.0
 10
142.3139
 20
63.4587
 30
0.0
 10
142.4756
 20
62.7241
 30
0.0
 10
142.4756
 20
62.7241
 30
0.0
 10
144.7924
 20
62.0886
 30
0.0
 10
148.0659
 20
63.728
 30
0.0
 10
150.9406
 20
63.8846
 30
0.0
 10
150.9406
 20
63.8846
 30
0.0
 10
152.135
 20
63.9496
 30
0.0
 10
153.1066
 20
62.9268
 30
0.0
 10
153.1066
 20
61.8644
 30
0.0
 10
153.1066
 20
61.8644
 30
0.0
 10
153.1066
 20
60.802
 30
0.0
 10
152.135
 20
59.7792
 30
0.0
 10
150.9406
 20
59.8442
 30
0.0
 10
150.9406
 20
59.8442
 30
0.0
 10
148.0659
 20
60.0006
 30
0.0
 10
144.7924
 20
61.6401
 30
0.0
 10
142.4756
 20
61.0047
 30
0.0
 10
142.4756
 20
61.0047
 30
0.0
 10
142.2815
 20
60.0324
 30
0.0
 10
141.5815
 20
58.9942
 30
0.0
 10
140.9145
 20
58.441
 30
0.0
 10
140.9145
 20
58.441
 30
0.0
 10
141.5226
 20
56.1168
 30
0.0
 10
144.5791
 20
54.1017
 30
0.0
 10
146.152
 20
51.6902
 30
0.0
 10
146.152
 20
51.6902
 30
0.0
 10
146.8054
 20
50.6884
 30
0.0
 10
146.4055
 20
49.3356
 30
0.0
 10
145.4855
 20
48.8045
 30
0.0
 10
145.4855
 20
48.8045
 30
0.0
 10
144.5655
 20
48.2733
 30
0.0
 10
143.194
 20
48.6032
 30
0.0
 10
142.6531
 20
49.6702
 30
0.0
 10
142.6531
 20
49.6702
 30
0.0
 10
141.3511
 20
52.238
 30
0.0
 10
141.1343
 20
55.8926
 30
0.0
 10
139.4255
 20
57.5813
 30
0.0
 10
139.4255
 20
57.5813
 30
0.0
 10
138.5075
 20
57.2798
 30
0.0
 10
137.4072
 20
57.2921
 30
0.0
 10
136.5372
 20
57.5761
 30
0.0
 10
136.5372
 20
57.5761
 30
0.0
 10
135.3502
 20
56.097
 30
0.0
 10
133.949
 20
50.9259
 30
0.0
 10
133.3097
 20
49.665
 30
0.0
  0
SPLINE
  5
57
330
1F
100
AcDbEntity
  8
layer 1
 62
     7
100
AcDbSpline
210
0.0
220
0.0
230
1.0
 70
    11
 71
     3
 72
   124
 73
   120
 74
     0
 42
0.0000000001
 43
0.0000000001
 12
1.0
 22
0.0
 32
0.0
 13
1.0
 23
0.0
 33
0.0
 40
0.0
 40
0.0
 40
0.0
 40
0.0
 40
0.032258064516129
 40
0.032258064516129
 40
0.032258064516129
 40
0.032258064516129
 40
0.0645161290322581
 40
0.0645161290322581
 40
0.0645161290322581
 40
0.0645161290322581
 40
0.0967741935483871
 40
0.0967741935483871
 40
0.0967741935483871
 40
0.0967741935483871
 40
0.1290322580645161
 40
0.1290322580645161
 40
0.1290322580645161
 40
0.1290322580645161
 40
0.1612903225806452
 40
0.1612903225806452
 40
0.1612903225806452
 40
0.1612903225806452
 40
0.1935483870967742
 40
0.1935483870967742
 40
0.1935483870967742
 40
0.1935483870967742
 40
0.2258064516129032
 40
0.2258064516129032
 40
0.2258064516129032
 40
0.2258064516129032
 40
0.2580645161290323
 40
0.2580645161290323
 40
0.2580645161290323
 40
0.2580645161290323
 40
0.2903225806451613
 40
0.2903225806451613
 40
0.2903225806451613
 40
0.2903225806451613
 40
0.3225806451612903
 40
0.3225806451612903
 40
0.3225806451612903
 40
0.3225806451612903
 40
0.3548387096774194
 40
0.3548387096774194
 40
0.3548387096774194
 40
0.3548387096774194
 40
0.3870967741935484
 40
0.3870967741935484
 40
0.3870967741935484
 40
0.3870967741935484
 40
0.4193548387096774
 40
0.4193548387096774
 40
0.4193548387096774
 40
0.4193548387096774
 40
0.4516129032258064
 40
0.4516129032258064
 40
0.4516129032258064
 40
0.4516129032258064
 40
0.4838709677419355
 40
0.4838709677419355
 40
0.4838709677419355
 40
0.4838709677419355
 40
0.5161290322580645
 40
0.5161290322580645
 40
0.5161290322580645
 40
0.5161290322580645
 40
0.5483870967741935
 40
0.5483870967741935
 40
0.5483870967741935
 40
0.5483870967741935
 40
0.5806451612903226
 40
0.5806451612903226
 40
0.5806451612903226
 40
0.5806451612903226
 40
0.6129032258064516
 40
0.6129032258064516
 40
0.6129032258064516
 40
0.6129032258064516
 40
0.6451612903225806
 40
0.6451612903225806
 40
0.6451612903225806
 40
0.6451612903225806
 40
0.6774193548387096
 40
0.6774193548387096
 40
0.6774193548387096
 40
0.6774193548387096
 40
0.7096774193548387
 40
0.7096774193548387
 40
0.7096774193548387
 40
0.7096774193548387
 40
0.7419354838709677
 40
0.7419354838709677
 40
0.7419354838709677
 40
0.7419354838709677
 40
0.7741935483870968
 40
0.7741935483870968
 40
0.7741935483870968
 40
0.7741935483870968
 40
0.8064516129032258
 40
0.8064516129032258
 40
0.8064516129032258
 40
0.8064516129032258
 40
0.8387096774193549
 40
0.8387096774193549
 40
0.8387096774193549
 40
0.8387096774193549
 40
0.8709677419354839
 40
0.8709677419354839
 40
0.8709677419354839
 40
0.8709677419354839
 40
0.9032258064516129
 40
0.9032258064516129
 40
0.9032258064516129
 40
0.9032258064516129
 40
0.9354838709677419
 40
0.9354838709677419
 40
0.9354838709677419
 40
0.9354838709677419
 40
1.0
 40
1.0
 40
1.0
 40
1.0
 10
102.168
 20
53.7456
 30
0.0
 10
101.1662
 20
53.0921
 30
0.0
 10
99.8134
 20
53.492
 30
0.0
 10
99.2823
 20
54.4121
 30
0.0
 10
99.2823
 20
54.4121
 30
0.0
 10
98.7511
 20
55.3321
 30
0.0
 10
99.081
 20
56.7036
 30
0.0
 10
100.148
 20
57.2445
 30
0.0
 10
100.148
 20
57.2445
 30
0.0
 10
102.7158
 20
58.5464
 30
0.0
 10
106.3704
 20
58.7633
 30
0.0
 10
108.0591
 20
60.4721
 30
0.0
 10
108.0591
 20
60.4721
 30
0.0
 10
107.7088
 20
61.3211
 30
0.0
 10
107.6385
 20
62.3408
 30
0.0
 10
107.8675
 20
63.1077
 30
0.0
 10
107.8675
 20
63.1077
 30
0.0
 10
106.1788
 20
64.8165
 30
0.0
 10
102.5242
 20
65.0333
 30
0.0
 10
99.9564
 20
66.3352
 30
0.0
 10
99.9564
 20
66.3352
 30
0.0
 10
98.8895
 20
66.8762
 30
0.0
 10
98.5595
 20
68.2476
 30
0.0
 10
99.0907
 20
69.1677
 30
0.0
 10
99.0907
 20
69.1677
 30
0.0
 10
99.6218
 20
70.0877
 30
0.0
 10
100.9746
 20
70.4878
 30
0.0
 10
101.9765
 20
69.8341
 30
0.0
 10
101.9765
 20
69.8341
 30
0.0
 10
104.3879
 20
68.2613
 30
0.0
 10
106.4031
 20
65.2048
 30
0.0
 10
108.7272
 20
64.5967
 30
0.0
 10
108.7272
 20
64.5967
 30
0.0
 10
109.3096
 20
65.2988
 30
0.0
 10
110.4196
 20
66.0578
 30
0.0
 10
111.4226
 20
66.1962
 30
0.0
 10
111.4226
 20
66.1962
 30
0.0
 10
112.058
 20
68.5129
 30
0.0
 10
110.4186
 20
71.7865
 30
0.0
 10
110.2621
 20
74.6612
 30
0.0
 10
110.2621
 20
74.6612
 30
0.0
 10
110.197
 20
75.8556
 30
0.0
 10
111.2198
 20
76.8272
 30
0.0
 10
112.2823
 20
76.8272
 30
0.0
 10
112.2823
 20
76.8272
 30
0.0
 10
113.3446
 20
76.8272
 30
0.0
 10
114.3674
 20
75.8556
 30
0.0
 10
114.3025
 20
74.6612
 30
0.0
 10
114.3025
 20
74.6612
 30
0.0
 10
114.1461
 20
71.7865
 30
0.0
 10
112.5065
 20
68.5129
 30
0.0
 10
113.142
 20
66.1962
 30
0.0
 10
113.142
 20
66.1962
 30
0.0
 10
114.0997
 20
66.0103
 30
0.0
 10
115.1284
 20
65.4584
 30
0.0
 10
115.6389
 20
64.843
 30
0.0
 10
115.6389
 20
64.843
 30
0.0
 10
117.9631
 20
65.4511
 30
0.0
 10
119.9782
 20
68.5076
 30
0.0
 10
122.3897
 20
70.0805
 30
0.0
 10
122.3897
 20
70.0805
 30
0.0
 10
123.3915
 20
70.7339
 30
0.0
 10
124.7443
 20
70.334
 30
0.0
 10
125.2754
 20
69.414
 30
0.0
 10
125.2754
 20
69.414
 30
0.0
 10
125.8066
 20
68.494
 30
0.0
 10
125.4767
 20
67.1225
 30
0.0
 10
124.4097
 20
66.5816
 30
0.0
 10
124.4097
 20
66.5816
 30
0.0
 10
121.8419
 20
65.2796
 30
0.0
 10
118.1873
 20
65.0628
 30
0.0
 10
116.4986
 20
63.354
 30
0.0
 10
116.4986
 20
63.354
 30
0.0
 10
116.9602
 20
62.5363
 30
0.0
 10
116.8626
 20
61.1892
 30
0.0
 10
116.6354
 20
60.4722
 30
0.0
 10
116.6354
 20
60.4722
 30
0.0
 10
118.3241
 20
58.7634
 30
0.0
 10
121.9787
 20
58.5466
 30
0.0
 10
124.5466
 20
57.2446
 30
0.0
 10
124.5466
 20
57.2446
 30
0.0
 10
125.6135
 20
56.7037
 30
0.0
 10
125.9434
 20
55.3322
 30
0.0
 10
125.4123
 20
54.4122
 30
0.0
 10
125.4123
 20
54.4122
 30
0.0
 10
124.8811
 20
53.4922
 30
0.0
 10
123.5284
 20
53.0921
 30
0.0
 10
122.5265
 20
53.7457
 30
0.0
 10
122.5265
 20
53.7457
 30
0.0
 10
120.1151
 20
55.3186
 30
0.0
 10
118.0999
 20
58.3751
 30
0.0
 10
115.7757
 20
58.9832
 30
0.0
 10
115.7757
 20
58.9832
 30
0.0
 10
115.1215
 20
58.2383
 30
0.0
 10
113.9963
 20
57.6891
 30
0.0
 10
113.142
 20
57.5435
 30
0.0
 10
113.142
 20
57.5435
 30
0.0
 10
112.5065
 20
55.2267
 30
0.0
 10
114.1459
 20
51.9532
 30
0.0
 10
114.3025
 20
49.0784
 30
0.0
 10
114.3025
 20
49.0784
 30
0.0
 10
114.3675
 20
47.884
 30
0.0
 10
113.3447
 20
46.9124
 30
0.0
 10
112.2823
 20
46.9124
 30
0.0
 10
112.2823
 20
46.9124
 30
0.0
 10
111.22
 20
46.9124
 30
0.0
 10
110.1971
 20
47.884
 30
0.0
 10
110.2621
 20
49.0784
 30
0.0
 10
110.2621
 20
49.0784
 30
0.0
 10
110.4185
 20
51.9532
 30
0.0
 10
112.058
 20
55.2267
 30
0.0
 10
111.4226
 20
57.5435
 30
0.0
 10
111.4226
 20
57.5435
 30
0.0
 10
110.5385
 20
57.7769
 30
0.0
 10
109.6529
 20
57.9941
 30
0.0
 10
108.9187
 20
58.9832
 30
0.0
 10
108.9187
 20
58.9832
 30
0.0
 10
106.7762
 20
58.084
 30
0.0
 10
102.9075
 20
54.2279
 30
0.0
 10
102.168
 20
53.7456
 30
0.0
  0
SPLINE
  5
58
330
1F
100
AcDbEntity
  8
layer 1
 62
     7
100
AcDbSpline
210
0.0
220
0.0
230
1.0
 70
    11
 71
     3
 72
   124
 73
   120
 74
     0
 42
0.0000000001
 43
0.0000000001
 12
1.0
 22
0.0
 32
0.0
 13
1.0
 23
0.0
 33
0.0
 40
0.0
 40
0.0
 40
0.0
 40
0.0
 40
0.032258064516129
 40
0.032258064516129
 40
0.032258064516129
 40
0.032258064516129
 40
0.0645161290322581
 40
0.0645161290322581
 40
0.0645161290322581
 40
0.0645161290322581
 40
0.0967741935483871
 40
0.0967741935483871
 40
0.0967741935483871
 40
0.0967741935483871
 40
0.1290322580645161
 40
0.1290322580645161
 40
0.1290322580645161
 40
0.1290322580645161
 40
0.1612903225806452
 40
0.1612903225806452
 40
0.1612903225806452
 40
0.1612903225806452
 40
0.1935483870967742
 40
0.1935483870967742
 40
0.1935483870967742
 40
0.1935483870967742
 40
0.2258064516129032
 40
0.2258064516129032
 40
0.2258064516129032
 40
0.2258064516129032
 40
0.2580645161290323
 40
0.2580645161290323
 40
0.2580645161290323
 40
0.2580645161290323
 40
0.2903225806451613
 40
0.2903225806451613
 40
0.2903225806451613
 40
0.2903225806451613
 40
0.3225806451612903
 40
0.3225806451612903
 40
0.3225806451612903
 40
0.3225806451612903
 40
0.3548387096774194
 40
0.3548387096774194
 40
0.3548387096774194
 40
0.3548387096774194
 40
0.3870967741935484
 40
0.3870967741935484
 40
0.3870967741935484
 40
0.3870967741935484
 40
0.4193548387096774
 40
0.4193548387096774
 40
0.4193548387096774
 40
0.4193548387096774
 40
0.4516129032258064
 40
0.4516129032258064
 40
0.4516129032258064
 40
0.4516129032258064
 40
0.4838709677419355
 40
0.4838709677419355
 40
0.4838709677419355
 40
0.4838709677419355
 40
0.5161290322580645
 40
0.5161290322580645
 40
0.5161290322580645
 40
0.5161290322580645
 40
0.5483870967741935
 40
0.5483870967741935
 40
0.5483870967741935
 40
0.5483870967741935
 40
0.5806451612903226
 40
0.5806451612903226
 40
0.5806451612903226
 40
0.5806451612903226
 40
0.6129032258064516
 40
0.6129032258064516
 40
0.6129032258064516
 40
0.6129032258064516
 40
0.6451612903225806
 40
0.6451612903225806
 40
0.6451612903225806
 40
0.6451612903225806
 40
0.6774193548387096
 40
0.6774193548387096
 40
0.6774193548387096
 40
0.6774193548387096
 40
0.7096774193548387
 40
0.7096774193548387
 40
0.7096774193548387
 40
0.7096774193548387
 40
0.7419354838709677
 40
0.7419354838709677
 40
0.7419354838709677
 40
0.7419354838709677
 40
0.7741935483870968
 40
0.7741935483870968
 40
0.7741935483870968
 40
0.7741935483870968
 40
0.8064516129032258
 40
0.8064516129032258
 40
0.8064516129032258
 40
0.8064516129032258
 40
0.8387096774193549
 40
0.8387096774193549
 40
0.8387096774193549
 40
0.8387096774193549
 40
0.8709677419354839
 40
0.8709677419354839
 40
0.8709677419354839
 40
0.8709677419354839
 40
0.9032258064516129
 40
0.9032258064516129
 40
0.9032258064516129
 40
0.9032258064516129
 40
0.9354838709677419
 40
0.9354838709677419
 40
0.9354838709677419
 40
0.9354838709677419
 40
1.0
 40
1.0
 40
1.0
 40
1.0
 10
153.553
 20
53.7456
 30
0.0
 10
152.5511
 20
53.0921
 30
0.0
 10
151.1984
 20
53.492
 30
0.0
 10
150.6672
 20
54.4121
 30
0.0
 10
150.6672
 20
54.4121
 30
0.0
 10
150.1361
 20
55.3321
 30
0.0
 10
150.466
 20
56.7036
 30
0.0
 10
151.5329
 20
57.2445
 30
0.0
 10
151.5329
 20
57.2445
 30
0.0
 10
154.1008
 20
58.5464
 30
0.0
 10
157.7554
 20
58.7633
 30
0.0
 10
159.4441
 20
60.4721
 30
0.0
 10
159.4441
 20
60.4721
 30
0.0
 10
159.0937
 20
61.3211
 30
0.0
 10
159.0235
 20
62.3408
 30
0.0
 10
159.2525
 20
63.1077
 30
0.0
 10
159.2525
 20
63.1077
 30
0.0
 10
157.5638
 20
64.8165
 30
0.0
 10
153.9092
 20
65.0333
 30
0.0
 10
151.3414
 20
66.3352
 30
0.0
 10
151.3414
 20
66.3352
 30
0.0
 10
150.2744
 20
66.8762
 30
0.0
 10
149.9445
 20
68.2476
 30
0.0
 10
150.4757
 20
69.1677
 30
0.0
 10
150.4757
 20
69.1677
 30
0.0
 10
151.0068
 20
70.0877
 30
0.0
 10
152.3596
 20
70.4878
 30
0.0
 10
153.3614
 20
69.8341
 30
0.0
 10
153.3614
 20
69.8341
 30
0.0
 10
155.7729
 20
68.2613
 30
0.0
 10
157.788
 20
65.2048
 30
0.0
 10
160.1122
 20
64.5967
 30
0.0
 10
160.1122
 20
64.5967
 30
0.0
 10
160.6946
 20
65.2988
 30
0.0
 10
161.8046
 20
66.0578
 30
0.0
 10
162.8075
 20
66.1962
 30
0.0
 10
162.8075
 20
66.1962
 30
0.0
 10
163.443
 20
68.5129
 30
0.0
 10
161.8036
 20
71.7865
 30
0.0
 10
161.647
 20
74.6612
 30
0.0
 10
161.647
 20
74.6612
 30
0.0
 10
161.582
 20
75.8556
 30
0.0
 10
162.6048
 20
76.8272
 30
0.0
 10
163.6672
 20
76.8272
 30
0.0
 10
163.6672
 20
76.8272
 30
0.0
 10
164.7296
 20
76.8272
 30
0.0
 10
165.7524
 20
75.8556
 30
0.0
 10
165.6874
 20
74.6612
 30
0.0
 10
165.6874
 20
74.6612
 30
0.0
 10
165.5311
 20
71.7865
 30
0.0
 10
163.8915
 20
68.5129
 30
0.0
 10
164.527
 20
66.1962
 30
0.0
 10
164.527
 20
66.1962
 30
0.0
 10
165.4847
 20
66.0103
 30
0.0
 10
166.5134
 20
65.4584
 30
0.0
 10
167.0239
 20
64.843
 30
0.0
 10
167.0239
 20
64.843
 30
0.0
 10
169.348
 20
65.4511
 30
0.0
 10
171.3632
 20
68.5076
 30
0.0
 10
173.7746
 20
70.0805
 30
0.0
 10
173.7746
 20
70.0805
 30
0.0
 10
174.7765
 20
70.7339
 30
0.0
 10
176.1293
 20
70.334
 30
0.0
 10
176.6604
 20
69.414
 30
0.0
 10
176.6604
 20
69.414
 30
0.0
 10
177.1916
 20
68.494
 30
0.0
 10
176.8616
 20
67.1225
 30
0.0
 10
175.7947
 20
66.5816
 30
0.0
 10
175.7947
 20
66.5816
 30
0.0
 10
173.2269
 20
65.2796
 30
0.0
 10
169.5723
 20
65.0628
 30
0.0
 10
167.8836
 20
63.354
 30
0.0
 10
167.8836
 20
63.354
 30
0.0
 10
168.3452
 20
62.5363
 30
0.0
 10
168.2476
 20
61.1892
 30
0.0
 10
168.0204
 20
60.4722
 30
0.0
 10
168.0204
 20
60.4722
 30
0.0
 10
169.7091
 20
58.7634
 30
0.0
 10
173.3637
 20
58.5466
 30
0.0
 10
175.9315
 20
57.2446
 30
0.0
 10
175.9315
 20
57.2446
 30
0.0
 10
176.9985
 20
56.7037
 30
0.0
 10
177.3284
 20
55.3322
 30
0.0
 10
176.7973
 20
54.4122
 30
0.0
 10
176.7973
 20
54.4122
 30
0.0
 10
176.2661
 20
53.4922
 30
0.0
 10
174.9133
 20
53.0921
 30
0.0
 10
173.9115
 20
53.7457
 30
0.0
 10
173.9115
 20
53.7457
 30
0.0
 10
171.5
 20
55.3186
 30
0.0
 10
169.4849
 20
58.3751
 30
0.0
 10
167.1607
 20
58.9832
 30
0.0
 10
167.1607
 20
58.9832
 30
0.0
 10
166.5065
 20
58.2383
 30
0.0
 10
165.3812
 20
57.6891
 30
0.0
 10
164.527
 20
57.5435
 30
0.0
 10
164.527
 20
57.5435
 30
0.0
 10
163.8915
 20
55.2267
 30
0.0
 10
165.5309
 20
51.9532
 30
0.0
 10
165.6874
 20
49.0784
 30
0.0
 10
165.6874
 20
49.0784
 30
0.0
 10
165.7525
 20
47.884
 30
0.0
 10
164.7297
 20
46.9124
 30
0.0
 10
163.6672
 20
46.9124
 30
0.0
 10
163.6672
 20
46.9124
 30
0.0
 10
162.6049
 20
46.9124
 30
0.0
 10
161.5821
 20
47.884
 30
0.0
 10
161.647
 20
49.0784
 30
0.0
 10
161.647
 20
49.0784
 30
0.0
 10
161.8034
 20
51.9532
 30
0.0
 10
163.443
 20
55.2267
 30
0.0
 10
162.8075
 20
57.5435
 30
0.0
 10
162.8075
 20
57.5435
 30
0.0
 10
161.9235
 20
57.7769
 30
0.0
 10
161.0378
 20
57.9941
 30
0.0
 10
160.3037
 20
58.9832
 30
0.0
 10
160.3037
 20
58.9832
 30
0.0
 10
158.1611
 20
58.084
 30
0.0
 10
154.2925
 20
54.2279
 30
0.0
 10
153.553
 20
53.7456
 30
0.0
  0
SPLINE
  5
59
330
1F
100
AcDbEntity
  8
layer 1
 62
     7
100
AcDbSpline
210
0.0
220
0.0
230
1.0
 70
    11
 71
     3
 72
    72
 73
    68
 74
     0
 42
0.0000000001
 43
0.0000000001
 12
1.0
 22
0.0
 32
0.0
 13
1.0
 23
0.0
 33
0.0
 40
0.0
 40
0.0
 40
0.0
 40
0.0
 40
0.0555555555555556
 40
0.0555555555555556
 40
0.0555555555555556
 40
0.0555555555555556
 40
0.1111111111111111
 40
0.1111111111111111
 40
0.1111111111111111
 40
0.1111111111111111
 40
0.1666666666666667
 40
0.1666666666666667
 40
0.1666666666666667
 40
0.1666666666666667
 40
0.2222222222222222
 40
0.2222222222222222
 40
0.2222222222222222
 40
0.2222222222222222
 40
0.2777777777777778
 40
0.2777777777777778
 40
0.2777777777777778
 40
0.2777777777777778
 40
0.3333333333333333
 40
0.3333333333333333
 40
0.3333333333333333
 40
0.3333333333333333
 40
0.3888888888888889
 40
0.3888888888888889
 40
0.3888888888888889
 40
0.3888888888888889
 40
0.4444444444444444
 40
0.4444444444444444
 40
0.4444444444444444
 40
0.4444444444444444
 40
0.5
 40
0.5
 40
0.5
 40
0.5
 40
0.5555555555555556
 40
0.5555555555555556
 40
0.5555555555555556
 40
0.5555555555555556
 40
0.6111111111111112
 40
0.6111111111111112
 40
0.6111111111111112
 40
0.6111111111111112
 40
0.6666666666666666
 40
0.6666666666666666
 40
0.6666666666666666
 40
0.6666666666666666
 40
0.7222222222222222
 40
0.7222222222222222
 40
0.7222222222222222
 40
0.7222222222222222
 40
0.7777777777777778
 40
0.7777777777777778
 40
0.7777777777777778
 40
0.7777777777777778
 40
0.8333333333333334
 40
0.8333333333333334
 40
0.8333333333333334
 40
0.8333333333333334
 40
0.8888888888888888
 40
0.8888888888888888
 40
0.8888888888888888
 40
0.8888888888888888
 40
1.0
 40
1.0
 40
1.0
 40
1.0
 10
86.7598
 20
66.1928
 30
0.0
 10
87.1234
 20
66.1754
 30
0.0
 10
87.4633
 20
66.115
 30
0.0
 10
87.7443
 20
66.011
 30
0.0
 10
87.7443
 20
66.011
 30
0.0
 10
89.4531
 20
67.6997
 30
0.0
 10
89.67
 20
71.3543
 30
0.0
 10
90.9719
 20
73.9221
 30
0.0
 10
90.9719
 20
73.9221
 30
0.0
 10
91.5129
 20
74.9891
 30
0.0
 10
92.8843
 20
75.319
 30
0.0
 10
93.8044
 20
74.7879
 30
0.0
 10
93.8044
 20
74.7879
 30
0.0
 10
94.7244
 20
74.2567
 30
0.0
 10
95.1244
 20
72.9039
 30
0.0
 10
94.4708
 20
71.9021
 30
0.0
 10
94.4708
 20
71.9021
 30
0.0
 10
92.898
 20
69.4906
 30
0.0
 10
89.8415
 20
67.4755
 30
0.0
 10
89.2334
 20
65.1513
 30
0.0
 10
89.2334
 20
65.1513
 30
0.0
 10
90.042
 20
64.674
 30
0.0
 10
90.6309
 20
63.4587
 30
0.0
 10
90.7926
 20
62.7241
 30
0.0
 10
90.7926
 20
62.7241
 30
0.0
 10
93.1094
 20
62.0886
 30
0.0
 10
96.3829
 20
63.728
 30
0.0
 10
99.2577
 20
63.8846
 30
0.0
 10
99.2577
 20
63.8846
 30
0.0
 10
100.4521
 20
63.9496
 30
0.0
 10
101.4237
 20
62.9268
 30
0.0
 10
101.4237
 20
61.8644
 30
0.0
 10
101.4237
 20
61.8644
 30
0.0
 10
101.4237
 20
60.802
 30
0.0
 10
100.4521
 20
59.7792
 30
0.0
 10
99.2577
 20
59.8442
 30
0.0
 10
99.2577
 20
59.8442
 30
0.0
 10
96.3829
 20
60.0006
 30
0.0
 10
93.1094
 20
61.6401
 30
0.0
 10
90.7926
 20
61.0047
 30
0.0
 10
90.7926
 20
61.0047
 30
0.0
 10
90.5985
 20
60.0324
 30
0.0
 10
89.8986
 20
58.9942
 30
0.0
 10
89.2316
 20
58.441
 30
0.0
 10
89.2316
 20
58.441
 30
0.0
 10
89.8396
 20
56.1168
 30
0.0
 10
92.8962
 20
54.1017
 30
0.0
 10
94.469
 20
51.6902
 30
0.0
 10
94.469
 20
51.6902
 30
0.0
 10
95.1225
 20
50.6884
 30
0.0
 10
94.7226
 20
49.3356
 30
0.0
 10
93.8025
 20
48.8045
 30
0.0
 10
93.8025
 20
48.8045
 30
0.0
 10
92.8825
 20
48.2733
 30
0.0
 10
91.511
 20
48.6032
 30
0.0
 10
90.9701
 20
49.6702
 30
0.0
 10
90.9701
 20
49.6702
 30
0.0
 10
89.6682
 20
52.238
 30
0.0
 10
89.4513
 20
55.8926
 30
0.0
 10
87.7425
 20
57.5813
 30
0.0
 10
87.7425
 20
57.5813
 30
0.0
 10
87.3983
 20
57.4683
 30
0.0
 10
86.6503
 20
56.9979
 30
0.0
 10
86.6548
 20
57.3724
 30
0.0
 10
86.6548
 20
57.3724
 30
0.0
 10
86.6548
 20
57.3724
 30
0.0
 10
86.7598
 20
66.1928
 30
0.0
 10
86.7598
 20
66.1928
 30
0.0
  0
SPLINE
  5
5A
330
1F
100
AcDbEntity
  8
layer 1
 62
     7
100
AcDbSpline
210
0.0
220
0.0
230
1.0
 70
    11
 71
     3
 72
    72
 73
    68
 74
     0
 42
0.0000000001
 43
0.0000000001
 12
1.0
 22
0.0
 32
0.0
 13
1.0
 23
0.0
 33
0.0
 40
0.0
 40
0.0
 40
0.0
 40
0.0
 40
0.0555555555555556
 40
0.0555555555555556
 40
0.0555555555555556
 40
0.0555555555555556
 40
0.1111111111111111
 40
0.1111111111111111
 40
0.1111111111111111
 40
0.1111111111111111
 40
0.1666666666666667
 40
0.1666666666666667
 40
0.1666666666666667
 40
0.1666666666666667
 40
0.2222222222222222
 40
0.2222222222222222
 40
0.2222222222222222
 40
0.2222222222222222
 40
0.2777777777777778
 40
0.2777777777777778
 40
0.2777777777777778
 40
0.2777777777777778
 40
0.3333333333333333
 40
0.3333333333333333
 40
0.3333333333333333
 40
0.3333333333333333
 40
0.3888888888888889
 40
0.3888888888888889
 40
0.3888888888888889
 40
0.3888888888888889
 40
0.4444444444444444
 40
0.4444444444444444
 40
0.4444444444444444
 40
0.4444444444444444
 40
0.5
 40
0.5
 40
0.5
 40
0.5
 40
0.5555555555555556
 40
0.5555555555555556
 40
0.5555555555555556
 40
0.5555555555555556
 40
0.6111111111111112
 40
0.6111111111111112
 40
0.6111111111111112
 40
0.6111111111111112
 40
0.6666666666666666
 40
0.6666666666666666
 40
0.6666666666666666
 40
0.6666666666666666
 40
0.7222222222222222
 40
0.7222222222222222
 40
0.7222222222222222
 40
0.7222222222222222
 40
0.7777777777777778
 40
0.7777777777777778
 40
0.7777777777777778
 40
0.7777777777777778
 40
0.8333333333333334
 40
0.8333333333333334
 40
0.8333333333333334
 40
0.8333333333333334
 40
0.8888888888888888
 40
0.8888888888888888
 40
0.8888888888888888
 40
0.8888888888888888
 40
1.0
 40
1.0
 40
1.0
 40
1.0
 10
188.6798
 20
66.1928
 30
0.0
 10
188.3162
 20
66.1754
 30
0.0
 10
187.9763
 20
66.115
 30
0.0
 10
187.6952
 20
66.011
 30
0.0
 10
187.6952
 20
66.011
 30
0.0
 10
185.9864
 20
67.6997
 30
0.0
 10
185.7696
 20
71.3543
 30
0.0
 10
184.4677
 20
73.9221
 30
0.0
 10
184.4677
 20
73.9221
 30
0.0
 10
183.9267
 20
74.9891
 30
0.0
 10
182.5553
 20
75.319
 30
0.0
 10
181.6352
 20
74.7879
 30
0.0
 10
181.6352
 20
74.7879
 30
0.0
 10
180.7152
 20
74.2567
 30
0.0
 10
180.3151
 20
72.9039
 30
0.0
 10
180.9688
 20
71.9021
 30
0.0
 10
180.9688
 20
71.9021
 30
0.0
 10
182.5416
 20
69.4906
 30
0.0
 10
185.5981
 20
67.4755
 30
0.0
 10
186.2062
 20
65.1513
 30
0.0
 10
186.2062
 20
65.1513
 30
0.0
 10
185.3976
 20
64.674
 30
0.0
 10
184.8086
 20
63.4587
 30
0.0
 10
184.6469
 20
62.7241
 30
0.0
 10
184.6469
 20
62.7241
 30
0.0
 10
182.3302
 20
62.0886
 30
0.0
 10
179.0566
 20
63.728
 30
0.0
 10
176.1819
 20
63.8846
 30
0.0
 10
176.1819
 20
63.8846
 30
0.0
 10
174.9875
 20
63.9496
 30
0.0
 10
174.0159
 20
62.9268
 30
0.0
 10
174.0159
 20
61.8644
 30
0.0
 10
174.0159
 20
61.8644
 30
0.0
 10
174.0159
 20
60.802
 30
0.0
 10
174.9875
 20
59.7792
 30
0.0
 10
176.1819
 20
59.8442
 30
0.0
 10
176.1819
 20
59.8442
 30
0.0
 10
179.0566
 20
60.0006
 30
0.0
 10
182.3302
 20
61.6401
 30
0.0
 10
184.6469
 20
61.0047
 30
0.0
 10
184.6469
 20
61.0047
 30
0.0
 10
184.841
 20
60.0324
 30
0.0
 10
185.541
 20
58.9942
 30
0.0
 10
186.208
 20
58.441
 30
0.0
 10
186.208
 20
58.441
 30
0.0
 10
185.5999
 20
56.1168
 30
0.0
 10
182.5434
 20
54.1017
 30
0.0
 10
180.9706
 20
51.6902
 30
0.0
 10
180.9706
 20
51.6902
 30
0.0
 10
180.3171
 20
50.6884
 30
0.0
 10
180.717
 20
49.3356
 30
0.0
 10
181.637
 20
48.8045
 30
0.0
 10
181.637
 20
48.8045
 30
0.0
 10
182.5571
 20
48.2733
 30
0.0
 10
183.9285
 20
48.6032
 30
0.0
 10
184.4695
 20
49.6702
 30
0.0
 10
184.4695
 20
49.6702
 30
0.0
 10
185.7714
 20
52.238
 30
0.0
 10
185.9882
 20
55.8926
 30
0.0
 10
187.6971
 20
57.5813
 30
0.0
 10
187.6971
 20
57.5813
 30
0.0
 10
188.0413
 20
57.4683
 30
0.0
 10
188.7893
 20
56.9979
 30
0.0
 10
188.7848
 20
57.3724
 30
0.0
 10
188.7848
 20
57.3724
 30
0.0
 10
188.7848
 20
57.3724
 30
0.0
 10
188.6798
 20
66.1928
 30
0.0
 10
188.6798
 20
66.1928
 30
0.0
  0
SPLINE
  5
5B
330
1F
100
AcDbEntity
  8
layer 1
 62
     7
100
AcDbSpline
210
0.0
220
0.0
230
1.0
 70
    11
 71
     3
 72
   124
 73
   120
 74
     0
 42
0.0000000001
 43
0.0000000001
 12
1.0
 22
0.0
 32
0.0
 13
1.0
 23
0.0
 33
0.0
 40
0.0
 40
0.0
 40
0.0
 40
0.0
 40
0.032258064516129
 40
0.032258064516129
 40
0.032258064516129
 40
0.032258064516129
 40
0.0645161290322581
 40
0.0645161290322581
 40
0.0645161290322581
 40
0.0645161290322581
 40
0.0967741935483871
 40
0.0967741935483871
 40
0.0967741935483871
 40
0.0967741935483871
 40
0.1290322580645161
 40
0.1290322580645161
 40
0.1290322580645161
 40
0.1290322580645161
 40
0.1612903225806452
 40
0.1612903225806452
 40
0.1612903225806452
 40
0.1612903225806452
 40
0.1935483870967742
 40
0.1935483870967742
 40
0.1935483870967742
 40
0.1935483870967742
 40
0.2258064516129032
 40
0.2258064516129032
 40
0.2258064516129032
 40
0.2258064516129032
 40
0.2580645161290323
 40
0.2580645161290323
 40
0.2580645161290323
 40
0.2580645161290323
 40
0.2903225806451613
 40
0.2903225806451613
 40
0.2903225806451613
 40
0.2903225806451613
 40
0.3225806451612903
 40
0.3225806451612903
 40
0.3225806451612903
 40
0.3225806451612903
 40
0.3548387096774194
 40
0.3548387096774194
 40
0.3548387096774194
 40
0.3548387096774194
 40
0.3870967741935484
 40
0.3870967741935484
 40
0.3870967741935484
 40
0.3870967741935484
 40
0.4193548387096774
 40
0.4193548387096774
 40
0.4193548387096774
 40
0.4193548387096774
 40
0.4516129032258064
 40
0.4516129032258064
 40
0.4516129032258064
 40
0.4516129032258064
 40
0.4838709677419355
 40
0.4838709677419355
 40
0.4838709677419355
 40
0.4838709677419355
 40
0.5161290322580645
 40
0.5161290322580645
 40
0.5161290322580645
 40
0.5161290322580645
 40
0.5483870967741935
 40
0.5483870967741935
 40
0.5483870967741935
 40
0.5483870967741935
 40
0.5806451612903226
 40
0.5806451612903226
 40
0.5806451612903226
 40
0.5806451612903226
 40
0.6129032258064516
 40
0.6129032258064516
 40
0.6129032258064516
 40
0.6129032258064516
 40
0.6451612903225806
 40
0.6451612903225806
 40
0.6451612903225806
 40
0.6451612903225806
 40
0.6774193548387096
 40
0.6774193548387096
 40
0.6774193548387096
 40
0.6774193548387096
 40
0.7096774193548387
 40
0.7096774193548387
 40
0.7096774193548387
 40
0.7096774193548387
 40
0.7419354838709677
 40
0.7419354838709677
 40
0.7419354838709677
 40
0.7419354838709677
 40
0.7741935483870968
 40
0.7741935483870968
 40
0.7741935483870968
 40
0.7741935483870968
 40
0.8064516129032258
 40
0.8064516129032258
 40
0.8064516129032258
 40
0.8064516129032258
 40
0.8387096774193549
 40
0.8387096774193549
 40
0.8387096774193549
 40
0.8387096774193549
 40
0.8709677419354839
 40
0.8709677419354839
 40
0.8709677419354839
 40
0.8709677419354839
 40
0.9032258064516129
 40
0.9032258064516129
 40
0.9032258064516129
 40
0.9032258064516129
 40
0.9354838709677419
 40
0.9354838709677419
 40
0.9354838709677419
 40
0.9354838709677419
 40
1.0
 40
1.0
 40
1.0
 40
1.0
 10
133.3097
 20
-1.415
 30
0.0
 10
132.7688
 20
-2.4819
 30
0.0
 10
131.3973
 20
-2.8119
 30
0.0
 10
130.4773
 20
-2.2807
 30
0.0
 10
130.4773
 20
-2.2807
 30
0.0
 10
129.5573
 20
-1.7496
 30
0.0
 10
129.1572
 20
-0.3968
 30
0.0
 10
129.8108
 20
0.605
 30
0.0
 10
129.8108
 20
0.605
 30
0.0
 10
131.3836
 20
3.0165
 30
0.0
 10
134.4402
 20
5.0317
 30
0.0
 10
135.0483
 20
7.3558
 30
0.0
 10
135.0483
 20
7.3558
 30
0.0
 10
134.3204
 20
7.9159
 30
0.0
 10
133.7497
 20
8.7639
 30
0.0
 10
133.5647
 20
9.5425
 30
0.0
 10
133.5647
 20
9.5425
 30
0.0
 10
131.2479
 20
10.1779
 30
0.0
 10
127.9744
 20
8.5385
 30
0.0
 10
125.0996
 20
8.382
 30
0.0
 10
125.0996
 20
8.382
 30
0.0
 10
123.9052
 20
8.3169
 30
0.0
 10
122.9337
 20
9.3397
 30
0.0
 10
122.9337
 20
10.4022
 30
0.0
 10
122.9337
 20
10.4022
 30
0.0
 10
122.9337
 20
11.4645
 30
0.0
 10
123.9052
 20
12.4873
 30
0.0
 10
125.0996
 20
12.4224
 30
0.0
 10
125.0996
 20
12.4224
 30
0.0
 10
127.9744
 20
12.266
 30
0.0
 10
131.2479
 20
10.6264
 30
0.0
 10
133.5647
 20
11.2619
 30
0.0
 10
133.5647
 20
11.2619
 30
0.0
 10
133.718
 20
12.1611
 30
0.0
 10
134.2997
 20
13.3734
 30
0.0
 10
135.0992
 20
13.9948
 30
0.0
 10
135.0992
 20
13.9948
 30
0.0
 10
134.4911
 20
16.3189
 30
0.0
 10
131.4346
 20
18.3341
 30
0.0
 10
129.8618
 20
20.7456
 30
0.0
 10
129.8618
 20
20.7456
 30
0.0
 10
129.2083
 20
21.7474
 30
0.0
 10
129.6082
 20
23.1002
 30
0.0
 10
130.5283
 20
23.6313
 30
0.0
 10
130.5283
 20
23.6313
 30
0.0
 10
131.4483
 20
24.1625
 30
0.0
 10
132.8198
 20
23.8325
 30
0.0
 10
133.3607
 20
22.7656
 30
0.0
 10
133.3607
 20
22.7656
 30
0.0
 10
134.6626
 20
20.1978
 30
0.0
 10
134.8795
 20
16.5432
 30
0.0
 10
136.5883
 20
14.8545
 30
0.0
 10
136.5883
 20
14.8545
 30
0.0
 10
137.5106
 20
15.1724
 30
0.0
 10
138.6775
 20
15.2087
 30
0.0
 10
139.4273
 20
14.931
 30
0.0
 10
139.4273
 20
14.931
 30
0.0
 10
141.1361
 20
16.6197
 30
0.0
 10
141.3529
 20
20.2743
 30
0.0
 10
142.6549
 20
22.8421
 30
0.0
 10
142.6549
 20
22.8421
 30
0.0
 10
143.1958
 20
23.9091
 30
0.0
 10
144.5673
 20
24.239
 30
0.0
 10
145.4873
 20
23.7078
 30
0.0
 10
145.4873
 20
23.7078
 30
0.0
 10
146.4073
 20
23.1767
 30
0.0
 10
146.8074
 20
21.8239
 30
0.0
 10
146.1538
 20
20.8221
 30
0.0
 10
146.1538
 20
20.8221
 30
0.0
 10
144.581
 20
18.4106
 30
0.0
 10
141.5244
 20
16.3955
 30
0.0
 10
140.9163
 20
14.0713
 30
0.0
 10
140.9163
 20
14.0713
 30
0.0
 10
141.7249
 20
13.594
 30
0.0
 10
142.3139
 20
12.3787
 30
0.0
 10
142.4756
 20
11.6441
 30
0.0
 10
142.4756
 20
11.6441
 30
0.0
 10
144.7924
 20
11.0086
 30
0.0
 10
148.0659
 20
12.648
 30
0.0
 10
150.9406
 20
12.8045
 30
0.0
 10
150.9406
 20
12.8045
 30
0.0
 10
152.135
 20
12.8696
 30
0.0
 10
153.1066
 20
11.8468
 30
0.0
 10
153.1066
 20
10.7844
 30
0.0
 10
153.1066
 20
10.7844
 30
0.0
 10
153.1066
 20
9.722
 30
0.0
 10
152.135
 20
8.6992
 30
0.0
 10
150.9406
 20
8.7642
 30
0.0
 10
150.9406
 20
8.7642
 30
0.0
 10
148.0659
 20
8.9205
 30
0.0
 10
144.7924
 20
10.5601
 30
0.0
 10
142.4756
 20
9.9246
 30
0.0
 10
142.4756
 20
9.9246
 30
0.0
 10
142.2815
 20
8.9524
 30
0.0
 10
141.5815
 20
7.9142
 30
0.0
 10
140.9145
 20
7.361
 30
0.0
 10
140.9145
 20
7.361
 30
0.0
 10
141.5226
 20
5.0368
 30
0.0
 10
144.5791
 20
3.0217
 30
0.0
 10
146.152
 20
0.6102
 30
0.0
 10
146.152
 20
0.6102
 30
0.0
 10
146.8054
 20
-0.3917
 30
0.0
 10
146.4055
 20
-1.7444
 30
0.0
 10
145.4855
 20
-2.2756
 30
0.0
 10
145.4855
 20
-2.2756
 30
0.0
 10
144.5655
 20
-2.8067
 30
0.0
 10
143.194
 20
-2.4768
 30
0.0
 10
142.6531
 20
-1.4098
 30
0.0
 10
142.6531
 20
-1.4098
 30
0.0
 10
141.3511
 20
1.158
 30
0.0
 10
141.1343
 20
4.8126
 30
0.0
 10
139.4255
 20
6.5013
 30
0.0
 10
139.4255
 20
6.5013
 30
0.0
 10
138.5075
 20
6.1998
 30
0.0
 10
137.4072
 20
6.2121
 30
0.0
 10
136.5372
 20
6.4961
 30
0.0
 10
136.5372
 20
6.4961
 30
0.0
 10
135.3502
 20
5.017
 30
0.0
 10
133.949
 20
-0.1541
 30
0.0
 10
133.3097
 20
-1.415
 30
0.0
  0
SPLINE
  5
5C
330
1F
100
AcDbEntity
  8
layer 1
 62
     7
100
AcDbSpline
210
0.0
220
0.0
230
1.0
 70
    11
 71
     3
 72
   124
 73
   120
 74
     0
 42
0.0000000001
 43
0.0000000001
 12
1.0
 22
0.0
 32
0.0
 13
1.0
 23
0.0
 33
0.0
 40
0.0
 40
0.0
 40
0.0
 40
0.0
 40
0.032258064516129
 40
0.032258064516129
 40
0.032258064516129
 40
0.032258064516129
 40
0.0645161290322581
 40
0.0645161290322581
 40
0.0645161290322581
 40
0.0645161290322581
 40
0.0967741935483871
 40
0.0967741935483871
 40
0.0967741935483871
 40
0.0967741935483871
 40
0.1290322580645161
 40
0.1290322580645161
 40
0.1290322580645161
 40
0.1290322580645161
 40
0.1612903225806452
 40
0.1612903225806452
 40
0.1612903225806452
 40
0.1612903225806452
 40
0.1935483870967742
 40
0.1935483870967742
 40
0.1935483870967742
 40
0.1935483870967742
 40
0.2258064516129032
 40
0.2258064516129032
 40
0.2258064516129032
 40
0.2258064516129032
 40
0.2580645161290323
 40
0.2580645161290323
 40
0.2580645161290323
 40
0.2580645161290323
 40
0.2903225806451613
 40
0.2903225806451613
 40
0.2903225806451613
 40
0.2903225806451613
 40
0.3225806451612903
 40
0.3225806451612903
 40
0.3225806451612903
 40
0.3225806451612903
 40
0.3548387096774194
 40
0.3548387096774194
 40
0.3548387096774194
 40
0.3548387096774194
 40
0.3870967741935484
 40
0.3870967741935484
 40
0.3870967741935484
 40
0.3870967741935484
 40
0.4193548387096774
 40
0.4193548387096774
 40
0.4193548387096774
 40
0.4193548387096774
 40
0.4516129032258064
 40
0.4516129032258064
 40
0.4516129032258064
 40
0.4516129032258064
 40
0.4838709677419355
 40
0.4838709677419355
 40
0.4838709677419355
 40
0.4838709677419355
 40
0.5161290322580645
 40
0.5161290322580645
 40
0.5161290322580645
 40
0.5161290322580645
 40
0.5483870967741935
 40
0.5483870967741935
 40
0.5483870967741935
 40
0.5483870967741935
 40
0.5806451612903226
 40
0.5806451612903226
 40
0.5806451612903226
 40
0.5806451612903226
 40
0.6129032258064516
 40
0.6129032258064516
 40
0.6129032258064516
 40
0.6129032258064516
 40
0.6451612903225806
 40
0.6451612903225806
 40
0.6451612903225806
 40
0.6451612903225806
 40
0.6774193548387096
 40
0.6774193548387096
 40
0.6774193548387096
 40
0.6774193548387096
 40
0.7096774193548387
 40
0.7096774193548387
 40
0.7096774193548387
 40
0.7096774193548387
 40
0.7419354838709677
 40
0.7419354838709677
 40
0.7419354838709677
 40
0.7419354838709677
 40
0.7741935483870968
 40
0.7741935483870968
 40
0.7741935483870968
 40
0.7741935483870968
 40
0.8064516129032258
 40
0.8064516129032258
 40
0.8064516129032258
 40
0.8064516129032258
 40
0.8387096774193549
 40
0.8387096774193549
 40
0.8387096774193549
 40
0.8387096774193549
 40
0.8709677419354839
 40
0.8709677419354839
 40
0.8709677419354839
 40
0.8709677419354839
 40
0.9032258064516129
 40
0.9032258064516129
 40
0.9032258064516129
 40
0.9032258064516129
 40
0.9354838709677419
 40
0.9354838709677419
 40
0.9354838709677419
 40
0.9354838709677419
 40
1.0
 40
1.0
 40
1.0
 40
1.0
 10
102.168
 20
2.6656
 30
0.0
 10
101.1662
 20
2.0121
 30
0.0
 10
99.8134
 20
2.412
 30
0.0
 10
99.2823
 20
3.3321
 30
0.0
 10
99.2823
 20
3.3321
 30
0.0
 10
98.7511
 20
4.2521
 30
0.0
 10
99.081
 20
5.6236
 30
0.0
 10
100.148
 20
6.1645
 30
0.0
 10
100.148
 20
6.1645
 30
0.0
 10
102.7158
 20
7.4664
 30
0.0
 10
106.3704
 20
7.6833
 30
0.0
 10
108.0591
 20
9.3921
 30
0.0
 10
108.0591
 20
9.3921
 30
0.0
 10
107.7088
 20
10.241
 30
0.0
 10
107.6385
 20
11.2608
 30
0.0
 10
107.8675
 20
12.0276
 30
0.0
 10
107.8675
 20
12.0276
 30
0.0
 10
106.1788
 20
13.7364
 30
0.0
 10
102.5242
 20
13.9533
 30
0.0
 10
99.9564
 20
15.2552
 30
0.0
 10
99.9564
 20
15.2552
 30
0.0
 10
98.8895
 20
15.7962
 30
0.0
 10
98.5595
 20
17.1676
 30
0.0
 10
99.0907
 20
18.0877
 30
0.0
 10
99.0907
 20
18.0877
 30
0.0
 10
99.6218
 20
19.0077
 30
0.0
 10
100.9746
 20
19.4077
 30
0.0
 10
101.9765
 20
18.7541
 30
0.0
 10
101.9765
 20
18.7541
 30
0.0
 10
104.3879
 20
17.1813
 30
0.0
 10
106.4031
 20
14.1248
 30
0.0
 10
108.7272
 20
13.5167
 30
0.0
 10
108.7272
 20
13.5167
 30
0.0
 10
109.3096
 20
14.2187
 30
0.0
 10
110.4196
 20
14.9778
 30
0.0
 10
111.4226
 20
15.1162
 30
0.0
 10
111.4226
 20
15.1162
 30
0.0
 10
112.058
 20
17.4329
 30
0.0
 10
110.4186
 20
20.7065
 30
0.0
 10
110.2621
 20
23.5812
 30
0.0
 10
110.2621
 20
23.5812
 30
0.0
 10
110.197
 20
24.7756
 30
0.0
 10
111.2198
 20
25.7472
 30
0.0
 10
112.2823
 20
25.7472
 30
0.0
 10
112.2823
 20
25.7472
 30
0.0
 10
113.3446
 20
25.7472
 30
0.0
 10
114.3674
 20
24.7756
 30
0.0
 10
114.3025
 20
23.5812
 30
0.0
 10
114.3025
 20
23.5812
 30
0.0
 10
114.1461
 20
20.7065
 30
0.0
 10
112.5065
 20
17.4329
 30
0.0
 10
113.142
 20
15.1162
 30
0.0
 10
113.142
 20
15.1162
 30
0.0
 10
114.0997
 20
14.9303
 30
0.0
 10
115.1284
 20
14.3783
 30
0.0
 10
115.6389
 20
13.763
 30
0.0
 10
115.6389
 20
13.763
 30
0.0
 10
117.9631
 20
14.3711
 30
0.0
 10
119.9782
 20
17.4276
 30
0.0
 10
122.3897
 20
19.0004
 30
0.0
 10
122.3897
 20
19.0004
 30
0.0
 10
123.3915
 20
19.6539
 30
0.0
 10
124.7443
 20
19.254
 30
0.0
 10
125.2754
 20
18.334
 30
0.0
 10
125.2754
 20
18.334
 30
0.0
 10
125.8066
 20
17.4139
 30
0.0
 10
125.4767
 20
16.0425
 30
0.0
 10
124.4097
 20
15.5015
 30
0.0
 10
124.4097
 20
15.5015
 30
0.0
 10
121.8419
 20
14.1996
 30
0.0
 10
118.1873
 20
13.9828
 30
0.0
 10
116.4986
 20
12.2739
 30
0.0
 10
116.4986
 20
12.2739
 30
0.0
 10
116.9602
 20
11.4563
 30
0.0
 10
116.8626
 20
10.1092
 30
0.0
 10
116.6354
 20
9.3922
 30
0.0
 10
116.6354
 20
9.3922
 30
0.0
 10
118.3241
 20
7.6834
 30
0.0
 10
121.9787
 20
7.4666
 30
0.0
 10
124.5466
 20
6.1646
 30
0.0
 10
124.5466
 20
6.1646
 30
0.0
 10
125.6135
 20
5.6237
 30
0.0
 10
125.9434
 20
4.2522
 30
0.0
 10
125.4123
 20
3.3322
 30
0.0
 10
125.4123
 20
3.3322
 30
0.0
 10
124.8811
 20
2.4122
 30
0.0
 10
123.5284
 20
2.0121
 30
0.0
 10
122.5265
 20
2.6657
 30
0.0
 10
122.5265
 20
2.6657
 30
0.0
 10
120.1151
 20
4.2385
 30
0.0
 10
118.0999
 20
7.2951
 30
0.0
 10
115.7757
 20
7.9032
 30
0.0
 10
115.7757
 20
7.9032
 30
0.0
 10
115.1215
 20
7.1582
 30
0.0
 10
113.9963
 20
6.6091
 30
0.0
 10
113.142
 20
6.4634
 30
0.0
 10
113.142
 20
6.4634
 30
0.0
 10
112.5065
 20
4.1467
 30
0.0
 10
114.1459
 20
0.8731
 30
0.0
 10
114.3025
 20
-2.0016
 30
0.0
 10
114.3025
 20
-2.0016
 30
0.0
 10
114.3675
 20
-3.196
 30
0.0
 10
113.3447
 20
-4.1676
 30
0.0
 10
112.2823
 20
-4.1676
 30
0.0
 10
112.2823
 20
-4.1676
 30
0.0
 10
111.22
 20
-4.1676
 30
0.0
 10
110.1971
 20
-3.196
 30
0.0
 10
110.2621
 20
-2.0016
 30
0.0
 10
110.2621
 20
-2.0016
 30
0.0
 10
110.4185
 20
0.8731
 30
0.0
 10
112.058
 20
4.1467
 30
0.0
 10
111.4226
 20
6.4634
 30
0.0
 10
111.4226
 20
6.4634
 30
0.0
 10
110.5385
 20
6.6969
 30
0.0
 10
109.6529
 20
6.914
 30
0.0
 10
108.9187
 20
7.9032
 30
0.0
 10
108.9187
 20
7.9032
 30
0.0
 10
106.7762
 20
7.004
 30
0.0
 10
102.9075
 20
3.1479
 30
0.0
 10
102.168
 20
2.6656
 30
0.0
  0
SPLINE
  5
5D
330
1F
100
AcDbEntity
  8
layer 1
 62
     7
100
AcDbSpline
210
0.0
220
0.0
230
1.0
 70
    11
 71
     3
 72
   124
 73
   120
 74
     0
 42
0.0000000001
 43
0.0000000001
 12
1.0
 22
0.0
 32
0.0
 13
1.0
 23
0.0
 33
0.0
 40
0.0
 40
0.0
 40
0.0
 40
0.0
 40
0.032258064516129
 40
0.032258064516129
 40
0.032258064516129
 40
0.032258064516129
 40
0.0645161290322581
 40
0.0645161290322581
 40
0.0645161290322581
 40
0.0645161290322581
 40
0.0967741935483871
 40
0.0967741935483871
 40
0.0967741935483871
 40
0.0967741935483871
 40
0.1290322580645161
 40
0.1290322580645161
 40
0.1290322580645161
 40
0.1290322580645161
 40
0.1612903225806452
 40
0.1612903225806452
 40
0.1612903225806452
 40
0.1612903225806452
 40
0.1935483870967742
 40
0.1935483870967742
 40
0.1935483870967742
 40
0.1935483870967742
 40
0.2258064516129032
 40
0.2258064516129032
 40
0.2258064516129032
 40
0.2258064516129032
 40
0.2580645161290323
 40
0.2580645161290323
 40
0.2580645161290323
 40
0.2580645161290323
 40
0.2903225806451613
 40
0.2903225806451613
 40
0.2903225806451613
 40
0.2903225806451613
 40
0.3225806451612903
 40
0.3225806451612903
 40
0.3225806451612903
 40
0.3225806451612903
 40
0.3548387096774194
 40
0.3548387096774194
 40
0.3548387096774194
 40
0.3548387096774194
 40
0.3870967741935484
 40
0.3870967741935484
 40
0.3870967741935484
 40
0.3870967741935484
 40
0.4193548387096774
 40
0.4193548387096774
 40
0.4193548387096774
 40
0.4193548387096774
 40
0.4516129032258064
 40
0.4516129032258064
 40
0.4516129032258064
 40
0.4516129032258064
 40
0.4838709677419355
 40
0.4838709677419355
 40
0.4838709677419355
 40
0.4838709677419355
 40
0.5161290322580645
 40
0.5161290322580645
 40
0.5161290322580645
 40
0.5161290322580645
 40
0.5483870967741935
 40
0.5483870967741935
 40
0.5483870967741935
 40
0.5483870967741935
 40
0.5806451612903226
 40
0.5806451612903226
 40
0.5806451612903226
 40
0.5806451612903226
 40
0.6129032258064516
 40
0.6129032258064516
 40
0.6129032258064516
 40
0.6129032258064516
 40
0.6451612903225806
 40
0.6451612903225806
 40
0.6451612903225806
 40
0.6451612903225806
 40
0.6774193548387096
 40
0.6774193548387096
 40
0.6774193548387096
 40
0.6774193548387096
 40
0.7096774193548387
 40
0.7096774193548387
 40
0.7096774193548387
 40
0.7096774193548387
 40
0.7419354838709677
 40
0.7419354838709677
 40
0.7419354838709677
 40
0.7419354838709677
 40
0.7741935483870968
 40
0.7741935483870968
 40
0.7741935483870968
 40
0.7741935483870968
 40
0.8064516129032258
 40
0.8064516129032258
 40
0.8064516129032258
 40
0.8064516129032258
 40
0.8387096774193549
 40
0.8387096774193549
 40
0.8387096774193549
 40
0.8387096774193549
 40
0.8709677419354839
 40
0.8709677419354839
 40
0.8709677419354839
 40
0.8709677419354839
 40
0.9032258064516129
 40
0.9032258064516129
 40
0.9032258064516129
 40
0.9032258064516129
 40
0.9354838709677419
 40
0.9354838709677419
 40
0.9354838709677419
 40
0.9354838709677419
 40
1.0
 40
1.0
 40
1.0
 40
1.0
 10
153.553
 20
2.6656
 30
0.0
 10
152.5511
 20
2.0121
 30
0.0
 10
151.1984
 20
2.412
 30
0.0
 10
150.6672
 20
3.3321
 30
0.0
 10
150.6672
 20
3.3321
 30
0.0
 10
150.1361
 20
4.2521
 30
0.0
 10
150.466
 20
5.6236
 30
0.0
 10
151.5329
 20
6.1645
 30
0.0
 10
151.5329
 20
6.1645
 30
0.0
 10
154.1008
 20
7.4664
 30
0.0
 10
157.7554
 20
7.6833
 30
0.0
 10
159.4441
 20
9.3921
 30
0.0
 10
159.4441
 20
9.3921
 30
0.0
 10
159.0937
 20
10.241
 30
0.0
 10
159.0235
 20
11.2608
 30
0.0
 10
159.2525
 20
12.0276
 30
0.0
 10
159.2525
 20
12.0276
 30
0.0
 10
157.5638
 20
13.7364
 30
0.0
 10
153.9092
 20
13.9533
 30
0.0
 10
151.3414
 20
15.2552
 30
0.0
 10
151.3414
 20
15.2552
 30
0.0
 10
150.2744
 20
15.7962
 30
0.0
 10
149.9445
 20
17.1676
 30
0.0
 10
150.4757
 20
18.0877
 30
0.0
 10
150.4757
 20
18.0877
 30
0.0
 10
151.0068
 20
19.0077
 30
0.0
 10
152.3596
 20
19.4077
 30
0.0
 10
153.3614
 20
18.7541
 30
0.0
 10
153.3614
 20
18.7541
 30
0.0
 10
155.7729
 20
17.1813
 30
0.0
 10
157.788
 20
14.1248
 30
0.0
 10
160.1122
 20
13.5167
 30
0.0
 10
160.1122
 20
13.5167
 30
0.0
 10
160.6946
 20
14.2187
 30
0.0
 10
161.8046
 20
14.9778
 30
0.0
 10
162.8075
 20
15.1162
 30
0.0
 10
162.8075
 20
15.1162
 30
0.0
 10
163.443
 20
17.4329
 30
0.0
 10
161.8036
 20
20.7065
 30
0.0
 10
161.647
 20
23.5812
 30
0.0
 10
161.647
 20
23.5812
 30
0.0
 10
161.582
 20
24.7756
 30
0.0
 10
162.6048
 20
25.7472
 30
0.0
 10
163.6672
 20
25.7472
 30
0.0
 10
163.6672
 20
25.7472
 30
0.0
 10
164.7296
 20
25.7472
 30
0.0
 10
165.7524
 20
24.7756
 30
0.0
 10
165.6874
 20
23.5812
 30
0.0
 10
165.6874
 20
23.5812
 30
0.0
 10
165.5311
 20
20.7065
 30
0.0
 10
163.8915
 20
17.4329
 30
0.0
 10
164.527
 20
15.1162
 30
0.0
 10
164.527
 20
15.1162
 30
0.0
 10
165.4847
 20
14.9303
 30
0.0
 10
166.5134
 20
14.3783
 30
0.0
 10
167.0239
 20
13.763
 30
0.0
 10
167.0239
 20
13.763
 30
0.0
 10
169.348
 20
14.3711
 30
0.0
 10
171.3632
 20
17.4276
 30
0.0
 10
173.7746
 20
19.0004
 30
0.0
 10
173.7746
 20
19.0004
 30
0.0
 10
174.7765
 20
19.6539
 30
0.0
 10
176.1293
 20
19.254
 30
0.0
 10
176.6604
 20
18.334
 30
0.0
 10
176.6604
 20
18.334
 30
0.0
 10
177.1916
 20
17.4139
 30
0.0
 10
176.8616
 20
16.0425
 30
0.0
 10
175.7947
 20
15.5015
 30
0.0
 10
175.7947
 20
15.5015
 30
0.0
 10
173.2269
 20
14.1996
 30
0.0
 10
169.5723
 20
13.9828
 30
0.0
 10
167.8836
 20
12.2739
 30
0.0
 10
167.8836
 20
12.2739
 30
0.0
 10
168.3452
 20
11.4563
 30
0.0
 10
168.2476
 20
10.1092
 30
0.0
 10
168.0204
 20
9.3922
 30
0.0
 10
168.0204
 20
9.3922
 30
0.0
 10
169.7091
 20
7.6834
 30
0.0
 10
173.3637
 20
7.4666
 30
0.0
 10
175.9315
 20
6.1646
 30
0.0
 10
175.9315
 20
6.1646
 30
0.0
 10
176.9985
 20
5.6237
 30
0.0
 10
177.3284
 20
4.2522
 30
0.0
 10
176.7973
 20
3.3322
 30
0.0
 10
176.7973
 20
3.3322
 30
0.0
 10
176.2661
 20
2.4122
 30
0.0
 10
174.9133
 20
2.0121
 30
0.0
 10
173.9115
 20
2.6657
 30
0.0
 10
173.9115
 20
2.6657
 30
0.0
 10
171.5
 20
4.2385
 30
0.0
 10
169.4849
 20
7.2951
 30
0.0
 10
167.1607
 20
7.9032
 30
0.0
 10
167.1607
 20
7.9032
 30
0.0
 10
166.5065
 20
7.1582
 30
0.0
 10
165.3812
 20
6.6091
 30
0.0
 10
164.527
 20
6.4634
 30
0.0
 10
164.527
 20
6.4634
 30
0.0
 10
163.8915
 20
4.1467
 30
0.0
 10
165.5309
 20
0.8731
 30
0.0
 10
165.6874
 20
-2.0016
 30
0.0
 10
165.6874
 20
-2.0016
 30
0.0
 10
165.7525
 20
-3.196
 30
0.0
 10
164.7297
 20
-4.1676
 30
0.0
 10
163.6672
 20
-4.1676
 30
0.0
 10
163.6672
 20
-4.1676
 30
0.0
 10
162.6049
 20
-4.1676
 30
0.0
 10
161.5821
 20
-3.196
 30
0.0
 10
161.647
 20
-2.0016
 30
0.0
 10
161.647
 20
-2.0016
 30
0.0
 10
161.8034
 20
0.8731
 30
0.0
 10
163.443
 20
4.1467
 30
0.0
 10
162.8075
 20
6.4634
 30
0.0
 10
162.8075
 20
6.4634
 30
0.0
 10
161.9235
 20
6.6969
 30
0.0
 10
161.0378
 20
6.914
 30
0.0
 10
160.3037
 20
7.9032
 30
0.0
 10
160.3037
 20
7.9032
 30
0.0
 10
158.1611
 20
7.004
 30
0.0
 10
154.2925
 20
3.1479
 30
0.0
 10
153.553
 20
2.6656
 30
0.0
  0
SPLINE
  5
5E
330
1F
100
AcDbEntity
  8
layer 1
 62
     7
100
AcDbSpline
210
0.0
220
0.0
230
1.0
 70
    11
 71
     3
 72
    72
 73
    68
 74
     0
 42
0.0000000001
 43
0.0000000001
 12
1.0
 22
0.0
 32
0.0
 13
1.0
 23
0.0
 33
0.0
 40
0.0
 40
0.0
 40
0.0
 40
0.0
 40
0.0555555555555556
 40
0.0555555555555556
 40
0.0555555555555556
 40
0.0555555555555556
 40
0.1111111111111111
 40
0.1111111111111111
 40
0.1111111111111111
 40
0.1111111111111111
 40
0.1666666666666667
 40
0.1666666666666667
 40
0.1666666666666667
 40
0.1666666666666667
 40
0.2222222222222222
 40
0.2222222222222222
 40
0.2222222222222222
 40
0.2222222222222222
 40
0.2777777777777778
 40
0.2777777777777778
 40
0.2777777777777778
 40
0.2777777777777778
 40
0.3333333333333333
 40
0.3333333333333333
 40
0.3333333333333333
 40
0.3333333333333333
 40
0.3888888888888889
 40
0.3888888888888889
 40
0.3888888888888889
 40
0.3888888888888889
 40
0.4444444444444444
 40
0.4444444444444444
 40
0.4444444444444444
 40
0.4444444444444444
 40
0.5
 40
0.5
 40
0.5
 40
0.5
 40
0.5555555555555556
 40
0.5555555555555556
 40
0.5555555555555556
 40
0.5555555555555556
 40
0.6111111111111112
 40
0.6111111111111112
 40
0.6111111111111112
 40
0.6111111111111112
 40
0.6666666666666666
 40
0.6666666666666666
 40
0.6666666666666666
 40
0.6666666666666666
 40
0.7222222222222222
 40
0.7222222222222222
 40
0.7222222222222222
 40
0.7222222222222222
 40
0.7777777777777778
 40
0.7777777777777778
 40
0.7777777777777778
 40
0.7777777777777778
 40
0.8333333333333334
 40
0.8333333333333334
 40
0.8333333333333334
 40
0.8333333333333334
 40
0.8888888888888888
 40
0.8888888888888888
 40
0.8888888888888888
 40
0.8888888888888888
 40
1.0
 40
1.0
 40
1.0
 40
1.0
 10
86.7598
 20
15.1128
 30
0.0
 10
87.1234
 20
15.0953
 30
0.0
 10
87.4633
 20
15.035
 30
0.0
 10
87.7443
 20
14.931
 30
0.0
 10
87.7443
 20
14.931
 30
0.0
 10
89.4531
 20
16.6197
 30
0.0
 10
89.67
 20
20.2743
 30
0.0
 10
90.9719
 20
22.8421
 30
0.0
 10
90.9719
 20
22.8421
 30
0.0
 10
91.5129
 20
23.9091
 30
0.0
 10
92.8843
 20
24.239
 30
0.0
 10
93.8044
 20
23.7078
 30
0.0
 10
93.8044
 20
23.7078
 30
0.0
 10
94.7244
 20
23.1767
 30
0.0
 10
95.1244
 20
21.8239
 30
0.0
 10
94.4708
 20
20.8221
 30
0.0
 10
94.4708
 20
20.8221
 30
0.0
 10
92.898
 20
18.4106
 30
0.0
 10
89.8415
 20
16.3955
 30
0.0
 10
89.2334
 20
14.0713
 30
0.0
 10
89.2334
 20
14.0713
 30
0.0
 10
90.042
 20
13.594
 30
0.0
 10
90.6309
 20
12.3787
 30
0.0
 10
90.7926
 20
11.6441
 30
0.0
 10
90.7926
 20
11.6441
 30
0.0
 10
93.1094
 20
11.0086
 30
0.0
 10
96.3829
 20
12.648
 30
0.0
 10
99.2577
 20
12.8045
 30
0.0
 10
99.2577
 20
12.8045
 30
0.0
 10
100.4521
 20
12.8696
 30
0.0
 10
101.4237
 20
11.8468
 30
0.0
 10
101.4237
 20
10.7844
 30
0.0
 10
101.4237
 20
10.7844
 30
0.0
 10
101.4237
 20
9.722
 30
0.0
 10
100.4521
 20
8.6992
 30
0.0
 10
99.2577
 20
8.7642
 30
0.0
 10
99.2577
 20
8.7642
 30
0.0
 10
96.3829
 20
8.9205
 30
0.0
 10
93.1094
 20
10.5601
 30
0.0
 10
90.7926
 20
9.9246
 30
0.0
 10
90.7926
 20
9.9246
 30
0.0
 10
90.5985
 20
8.9524
 30
0.0
 10
89.8986
 20
7.9142
 30
0.0
 10
89.2316
 20
7.361
 30
0.0
 10
89.2316
 20
7.361
 30
0.0
 10
89.8396
 20
5.0368
 30
0.0
 10
92.8962
 20
3.0217
 30
0.0
 10
94.469
 20
0.6102
 30
0.0
 10
94.469
 20
0.6102
 30
0.0
 10
95.1225
 20
-0.3917
 30
0.0
 10
94.7226
 20
-1.7444
 30
0.0
 10
93.8025
 20
-2.2756
 30
0.0
 10
93.8025
 20
-2.2756
 30
0.0
 10
92.8825
 20
-2.8067
 30
0.0
 10
91.511
 20
-2.4768
 30
0.0
 10
90.9701
 20
-1.4098
 30
0.0
 10
90.9701
 20
-1.4098
 30
0.0
 10
89.6682
 20
1.158
 30
0.0
 10
89.4513
 20
4.8126
 30
0.0
 10
87.7425
 20
6.5013
 30
0.0
 10
87.7425
 20
6.5013
 30
0.0
 10
87.3983
 20
6.3883
 30
0.0
 10
86.6503
 20
5.9179
 30
0.0
 10
86.6548
 20
6.2924
 30
0.0
 10
86.6548
 20
6.2924
 30
0.0
 10
86.6548
 20
6.2924
 30
0.0
 10
86.7598
 20
15.1128
 30
0.0
 10
86.7598
 20
15.1128
 30
0.0
  0
SPLINE
  5
5F
330
1F
100
AcDbEntity
  8
layer 1
 62
     7
100
AcDbSpline
210
0.0
220
0.0
230
1.0
 70
    11
 71
     3
 72
    72
 73
    68
 74
     0
 42
0.0000000001
 43
0.0000000001
 12
1.0
 22
0.0
 32
0.0
 13
1.0
 23
0.0
 33
0.0
 40
0.0
 40
0.0
 40
0.0
 40
0.0
 40
0.0555555555555556
 40
0.0555555555555556
 40
0.0555555555555556
 40
0.0555555555555556
 40
0.1111111111111111
 40
0.1111111111111111
 40
0.1111111111111111
 40
0.1111111111111111
 40
0.1666666666666667
 40
0.1666666666666667
 40
0.1666666666666667
 40
0.1666666666666667
 40
0.2222222222222222
 40
0.2222222222222222
 40
0.2222222222222222
 40
0.2222222222222222
 40
0.2777777777777778
 40
0.2777777777777778
 40
0.2777777777777778
 40
0.2777777777777778
 40
0.3333333333333333
 40
0.3333333333333333
 40
0.3333333333333333
 40
0.3333333333333333
 40
0.3888888888888889
 40
0.3888888888888889
 40
0.3888888888888889
 40
0.3888888888888889
 40
0.4444444444444444
 40
0.4444444444444444
 40
0.4444444444444444
 40
0.4444444444444444
 40
0.5
 40
0.5
 40
0.5
 40
0.5
 40
0.5555555555555556
 40
0.5555555555555556
 40
0.5555555555555556
 40
0.5555555555555556
 40
0.6111111111111112
 40
0.6111111111111112
 40
0.6111111111111112
 40
0.6111111111111112
 40
0.6666666666666666
 40
0.6666666666666666
 40
0.6666666666666666
 40
0.6666666666666666
 40
0.7222222222222222
 40
0.7222222222222222
 40
0.7222222222222222
 40
0.7222222222222222
 40
0.7777777777777778
 40
0.7777777777777778
 40
0.7777777777777778
 40
0.7777777777777778
 40
0.8333333333333334
 40
0.8333333333333334
 40
0.8333333333333334
 40
0.8333333333333334
 40
0.8888888888888888
 40
0.8888888888888888
 40
0.8888888888888888
 40
0.8888888888888888
 40
1.0
 40
1.0
 40
1.0
 40
1.0
 10
188.6798
 20
15.1128
 30
0.0
 10
188.3162
 20
15.0953
 30
0.0
 10
187.9763
 20
15.035
 30
0.0
 10
187.6952
 20
14.931
 30
0.0
 10
187.6952
 20
14.931
 30
0.0
 10
185.9864
 20
16.6197
 30
0.0
 10
185.7696
 20
20.2743
 30
0.0
 10
184.4677
 20
22.8421
 30
0.0
 10
184.4677
 20
22.8421
 30
0.0
 10
183.9267
 20
23.9091
 30
0.0
 10
182.5553
 20
24.239
 30
0.0
 10
181.6352
 20
23.7078
 30
0.0
 10
181.6352
 20
23.7078
 30
0.0
 10
180.7152
 20
23.1767
 30
0.0
 10
180.3151
 20
21.8239
 30
0.0
 10
180.9688
 20
20.8221
 30
0.0
 10
180.9688
 20
20.8221
 30
0.0
 10
182.5416
 20
18.4106
 30
0.0
 10
185.5981
 20
16.3955
 30
0.0
 10
186.2062
 20
14.0713
 30
0.0
 10
186.2062
 20
14.0713
 30
0.0
 10
185.3976
 20
13.594
 30
0.0
 10
184.8086
 20
12.3787
 30
0.0
 10
184.6469
 20
11.6441
 30
0.0
 10
184.6469
 20
11.6441
 30
0.0
 10
182.3302
 20
11.0086
 30
0.0
 10
179.0566
 20
12.648
 30
0.0
 10
176.1819
 20
12.8045
 30
0.0
 10
176.1819
 20
12.8045
 30
0.0
 10
174.9875
 20
12.8696
 30
0.0
 10
174.0159
 20
11.8468
 30
0.0
 10
174.0159
 20
10.7844
 30
0.0
 10
174.0159
 20
10.7844
 30
0.0
 10
174.0159
 20
9.722
 30
0.0
 10
174.9875
 20
8.6992
 30
0.0
 10
176.1819
 20
8.7642
 30
0.0
 10
176.1819
 20
8.7642
 30
0.0
 10
179.0566
 20
8.9205
 30
0.0
 10
182.3302
 20
10.5601
 30
0.0
 10
184.6469
 20
9.9246
 30
0.0
 10
184.6469
 20
9.9246
 30
0.0
 10
184.841
 20
8.9524
 30
0.0
 10
185.541
 20
7.9142
 30
0.0
 10
186.208
 20
7.361
 30
0.0
 10
186.208
 20
7.361
 30
0.0
 10
185.5999
 20
5.0368
 30
0.0
 10
182.5434
 20
3.0217
 30
0.0
 10
180.9706
 20
0.6102
 30
0.0
 10
180.9706
 20
0.6102
 30
0.0
 10
180.3171
 20
-0.3917
 30
0.0
 10
180.717
 20
-1.7444
 30
0.0
 10
181.637
 20
-2.2756
 30
0.0
 10
181.637
 20
-2.2756
 30
0.0
 10
182.5571
 20
-2.8067
 30
0.0
 10
183.9285
 20
-2.4768
 30
0.0
 10
184.4695
 20
-1.4098
 30
0.0
 10
184.4695
 20
-1.4098
 30
0.0
 10
185.7714
 20
1.158
 30
0.0
 10
185.9882
 20
4.8126
 30
0.0
 10
187.6971
 20
6.5013
 30
0.0
 10
187.6971
 20
6.5013
 30
0.0
 10
188.0413
 20
6.3883
 30
0.0
 10
188.7893
 20
5.9179
 30
0.0
 10
188.7848
 20
6.2924
 30
0.0
 10
188.7848
 20
6.2924
 30
0.0
 10
188.7848
 20
6.2924
 30
0.0
 10
188.6798
 20
15.1128
 30
0.0
 10
188.6798
 20
15.1128
 30
0.0
  0
SPLINE
  5
60
330
1F
100
AcDbEntity
  8
layer 1
 62
     7
100
AcDbSpline
210
0.0
220
0.0
230
1.0
 70
    11
 71
     3
 72
   124
 73
   120
 74
     0
 42
0.0000000001
 43
0.0000000001
 12
1.0
 22
0.0
 32
0.0
 13
1.0
 23
0.0
 33
0.0
 40
0.0
 40
0.0
 40
0.0
 40
0.0
 40
0.032258064516129
 40
0.032258064516129
 40
0.032258064516129
 40
0.032258064516129
 40
0.0645161290322581
 40
0.0645161290322581
 40
0.0645161290322581
 40
0.0645161290322581
 40
0.0967741935483871
 40
0.0967741935483871
 40
0.0967741935483871
 40
0.0967741935483871
 40
0.1290322580645161
 40
0.1290322580645161
 40
0.1290322580645161
 40
0.1290322580645161
 40
0.1612903225806452
 40
0.1612903225806452
 40
0.1612903225806452
 40
0.1612903225806452
 40
0.1935483870967742
 40
0.1935483870967742
 40
0.1935483870967742
 40
0.1935483870967742
 40
0.2258064516129032
 40
0.2258064516129032
 40
0.2258064516129032
 40
0.2258064516129032
 40
0.2580645161290323
 40
0.2580645161290323
 40
0.2580645161290323
 40
0.2580645161290323
 40
0.2903225806451613
 40
0.2903225806451613
 40
0.2903225806451613
 40
0.2903225806451613
 40
0.3225806451612903
 40
0.3225806451612903
 40
0.3225806451612903
 40
0.3225806451612903
 40
0.3548387096774194
 40
0.3548387096774194
 40
0.3548387096774194
 40
0.3548387096774194
 40
0.3870967741935484
 40
0.3870967741935484
 40
0.3870967741935484
 40
0.3870967741935484
 40
0.4193548387096774
 40
0.4193548387096774
 40
0.4193548387096774
 40
0.4193548387096774
 40
0.4516129032258064
 40
0.4516129032258064
 40
0.4516129032258064
 40
0.4516129032258064
 40
0.4838709677419355
 40
0.4838709677419355
 40
0.4838709677419355
 40
0.4838709677419355
 40
0.5161290322580645
 40
0.5161290322580645
 40
0.5161290322580645
 40
0.5161290322580645
 40
0.5483870967741935
 40
0.5483870967741935
 40
0.5483870967741935
 40
0.5483870967741935
 40
0.5806451612903226
 40
0.5806451612903226
 40
0.5806451612903226
 40
0.5806451612903226
 40
0.6129032258064516
 40
0.6129032258064516
 40
0.6129032258064516
 40
0.6129032258064516
 40
0.6451612903225806
 40
0.6451612903225806
 40
0.6451612903225806
 40
0.6451612903225806
 40
0.6774193548387096
 40
0.6774193548387096
 40
0.6774193548387096
 40
0.6774193548387096
 40
0.7096774193548387
 40
0.7096774193548387
 40
0.7096774193548387
 40
0.7096774193548387
 40
0.7419354838709677
 40
0.7419354838709677
 40
0.7419354838709677
 40
0.7419354838709677
 40
0.7741935483870968
 40
0.7741935483870968
 40
0.7741935483870968
 40
0.7741935483870968
 40
0.8064516129032258
 40
0.8064516129032258
 40
0.8064516129032258
 40
0.8064516129032258
 40
0.8387096774193549
 40
0.8387096774193549
 40
0.8387096774193549
 40
0.8387096774193549
 40
0.8709677419354839
 40
0.8709677419354839
 40
0.8709677419354839
 40
0.8709677419354839
 40
0.9032258064516129
 40
0.9032258064516129
 40
0.9032258064516129
 40
0.9032258064516129
 40
0.9354838709677419
 40
0.9354838709677419
 40
0.9354838709677419
 40
0.9354838709677419
 40
1.0
 40
1.0
 40
1.0
 40
1.0
 10
133.3097
 20
-52.6908
 30
0.0
 10
132.7688
 20
-53.7577
 30
0.0
 10
131.3973
 20
-54.0877
 30
0.0
 10
130.4773
 20
-53.5565
 30
0.0
 10
130.4773
 20
-53.5565
 30
0.0
 10
129.5573
 20
-53.0254
 30
0.0
 10
129.1572
 20
-51.6726
 30
0.0
 10
129.8108
 20
-50.6707
 30
0.0
 10
129.8108
 20
-50.6707
 30
0.0
 10
131.3836
 20
-48.2593
 30
0.0
 10
134.4402
 20
-46.2441
 30
0.0
 10
135.0483
 20
-43.92
 30
0.0
 10
135.0483
 20
-43.92
 30
0.0
 10
134.3204
 20
-43.3599
 30
0.0
 10
133.7497
 20
-42.5119
 30
0.0
 10
133.5647
 20
-41.7333
 30
0.0
 10
133.5647
 20
-41.7333
 30
0.0
 10
131.2479
 20
-41.0979
 30
0.0
 10
127.9744
 20
-42.7373
 30
0.0
 10
125.0996
 20
-42.8938
 30
0.0
 10
125.0996
 20
-42.8938
 30
0.0
 10
123.9052
 20
-42.9589
 30
0.0
 10
122.9337
 20
-41.9361
 30
0.0
 10
122.9337
 20
-40.8736
 30
0.0
 10
122.9337
 20
-40.8736
 30
0.0
 10
122.9337
 20
-39.8113
 30
0.0
 10
123.9052
 20
-38.7885
 30
0.0
 10
125.0996
 20
-38.8534
 30
0.0
 10
125.0996
 20
-38.8534
 30
0.0
 10
127.9744
 20
-39.0098
 30
0.0
 10
131.2479
 20
-40.6494
 30
0.0
 10
133.5647
 20
-40.0139
 30
0.0
 10
133.5647
 20
-40.0139
 30
0.0
 10
133.718
 20
-39.1147
 30
0.0
 10
134.2997
 20
-37.9024
 30
0.0
 10
135.0992
 20
-37.281
 30
0.0
 10
135.0992
 20
-37.281
 30
0.0
 10
134.4911
 20
-34.9568
 30
0.0
 10
131.4346
 20
-32.9417
 30
0.0
 10
129.8618
 20
-30.5302
 30
0.0
 10
129.8618
 20
-30.5302
 30
0.0
 10
129.2083
 20
-29.5284
 30
0.0
 10
129.6082
 20
-28.1756
 30
0.0
 10
130.5283
 20
-27.6445
 30
0.0
 10
130.5283
 20
-27.6445
 30
0.0
 10
131.4483
 20
-27.1133
 30
0.0
 10
132.8198
 20
-27.4432
 30
0.0
 10
133.3607
 20
-28.5102
 30
0.0
 10
133.3607
 20
-28.5102
 30
0.0
 10
134.6626
 20
-31.078
 30
0.0
 10
134.8795
 20
-34.7326
 30
0.0
 10
136.5883
 20
-36.4213
 30
0.0
 10
136.5883
 20
-36.4213
 30
0.0
 10
137.5106
 20
-36.1034
 30
0.0
 10
138.6775
 20
-36.0671
 30
0.0
 10
139.4273
 20
-36.3448
 30
0.0
 10
139.4273
 20
-36.3448
 30
0.0
 10
141.1361
 20
-34.6561
 30
0.0
 10
141.3529
 20
-31.0015
 30
0.0
 10
142.6549
 20
-28.4337
 30
0.0
 10
142.6549
 20
-28.4337
 30
0.0
 10
143.1958
 20
-27.3667
 30
0.0
 10
144.5673
 20
-27.0368
 30
0.0
 10
145.4873
 20
-27.5679
 30
0.0
 10
145.4873
 20
-27.5679
 30
0.0
 10
146.4073
 20
-28.0991
 30
0.0
 10
146.8074
 20
-29.4519
 30
0.0
 10
146.1538
 20
-30.4537
 30
0.0
 10
146.1538
 20
-30.4537
 30
0.0
 10
144.581
 20
-32.8652
 30
0.0
 10
141.5244
 20
-34.8803
 30
0.0
 10
140.9163
 20
-37.2045
 30
0.0
 10
140.9163
 20
-37.2045
 30
0.0
 10
141.7249
 20
-37.6818
 30
0.0
 10
142.3139
 20
-38.8971
 30
0.0
 10
142.4756
 20
-39.6317
 30
0.0
 10
142.4756
 20
-39.6317
 30
0.0
 10
144.7924
 20
-40.2672
 30
0.0
 10
148.0659
 20
-38.6278
 30
0.0
 10
150.9406
 20
-38.4712
 30
0.0
 10
150.9406
 20
-38.4712
 30
0.0
 10
152.135
 20
-38.4062
 30
0.0
 10
153.1066
 20
-39.429
 30
0.0
 10
153.1066
 20
-40.4914
 30
0.0
 10
153.1066
 20
-40.4914
 30
0.0
 10
153.1066
 20
-41.5538
 30
0.0
 10
152.135
 20
-42.5766
 30
0.0
 10
150.9406
 20
-42.5116
 30
0.0
 10
150.9406
 20
-42.5116
 30
0.0
 10
148.0659
 20
-42.3552
 30
0.0
 10
144.7924
 20
-40.7157
 30
0.0
 10
142.4756
 20
-41.3511
 30
0.0
 10
142.4756
 20
-41.3511
 30
0.0
 10
142.2815
 20
-42.3234
 30
0.0
 10
141.5815
 20
-43.3616
 30
0.0
 10
140.9145
 20
-43.9148
 30
0.0
 10
140.9145
 20
-43.9148
 30
0.0
 10
141.5226
 20
-46.239
 30
0.0
 10
144.5791
 20
-48.2541
 30
0.0
 10
146.152
 20
-50.6656
 30
0.0
 10
146.152
 20
-50.6656
 30
0.0
 10
146.8054
 20
-51.6674
 30
0.0
 10
146.4055
 20
-53.0202
 30
0.0
 10
145.4855
 20
-53.5513
 30
0.0
 10
145.4855
 20
-53.5513
 30
0.0
 10
144.5655
 20
-54.0825
 30
0.0
 10
143.194
 20
-53.7526
 30
0.0
 10
142.6531
 20
-52.6856
 30
0.0
 10
142.6531
 20
-52.6856
 30
0.0
 10
141.3511
 20
-50.1178
 30
0.0
 10
141.1343
 20
-46.4632
 30
0.0
 10
139.4255
 20
-44.7745
 30
0.0
 10
139.4255
 20
-44.7745
 30
0.0
 10
138.5075
 20
-45.076
 30
0.0
 10
137.4072
 20
-45.0637
 30
0.0
 10
136.5372
 20
-44.7797
 30
0.0
 10
136.5372
 20
-44.7797
 30
0.0
 10
135.3502
 20
-46.2588
 30
0.0
 10
133.949
 20
-51.4299
 30
0.0
 10
133.3097
 20
-52.6908
 30
0.0
  0
SPLINE
  5
61
330
1F
100
AcDbEntity
  8
layer 1
 62
     7
100
AcDbSpline
210
0.0
220
0.0
230
1.0
 70
    11
 71
     3
 72
   124
 73
   120
 74
     0
 42
0.0000000001
 43
0.0000000001
 12
1.0
 22
0.0
 32
0.0
 13
1.0
 23
0.0
 33
0.0
 40
0.0
 40
0.0
 40
0.0
 40
0.0
 40
0.032258064516129
 40
0.032258064516129
 40
0.032258064516129
 40
0.032258064516129
 40
0.0645161290322581
 40
0.0645161290322581
 40
0.0645161290322581
 40
0.0645161290322581
 40
0.0967741935483871
 40
0.0967741935483871
 40
0.0967741935483871
 40
0.0967741935483871
 40
0.1290322580645161
 40
0.1290322580645161
 40
0.1290322580645161
 40
0.1290322580645161
 40
0.1612903225806452
 40
0.1612903225806452
 40
0.1612903225806452
 40
0.1612903225806452
 40
0.1935483870967742
 40
0.1935483870967742
 40
0.1935483870967742
 40
0.1935483870967742
 40
0.2258064516129032
 40
0.2258064516129032
 40
0.2258064516129032
 40
0.2258064516129032
 40
0.2580645161290323
 40
0.2580645161290323
 40
0.2580645161290323
 40
0.2580645161290323
 40
0.2903225806451613
 40
0.2903225806451613
 40
0.2903225806451613
 40
0.2903225806451613
 40
0.3225806451612903
 40
0.3225806451612903
 40
0.3225806451612903
 40
0.3225806451612903
 40
0.3548387096774194
 40
0.3548387096774194
 40
0.3548387096774194
 40
0.3548387096774194
 40
0.3870967741935484
 40
0.3870967741935484
 40
0.3870967741935484
 40
0.3870967741935484
 40
0.4193548387096774
 40
0.4193548387096774
 40
0.4193548387096774
 40
0.4193548387096774
 40
0.4516129032258064
 40
0.4516129032258064
 40
0.4516129032258064
 40
0.4516129032258064
 40
0.4838709677419355
 40
0.4838709677419355
 40
0.4838709677419355
 40
0.4838709677419355
 40
0.5161290322580645
 40
0.5161290322580645
 40
0.5161290322580645
 40
0.5161290322580645
 40
0.5483870967741935
 40
0.5483870967741935
 40
0.5483870967741935
 40
0.5483870967741935
 40
0.5806451612903226
 40
0.5806451612903226
 40
0.5806451612903226
 40
0.5806451612903226
 40
0.6129032258064516
 40
0.6129032258064516
 40
0.6129032258064516
 40
0.6129032258064516
 40
0.6451612903225806
 40
0.6451612903225806
 40
0.6451612903225806
 40
0.6451612903225806
 40
0.6774193548387096
 40
0.6774193548387096
 40
0.6774193548387096
 40
0.6774193548387096
 40
0.7096774193548387
 40
0.7096774193548387
 40
0.7096774193548387
 40
0.7096774193548387
 40
0.7419354838709677
 40
0.7419354838709677
 40
0.7419354838709677
 40
0.7419354838709677
 40
0.7741935483870968
 40
0.7741935483870968
 40
0.7741935483870968
 40
0.7741935483870968
 40
0.8064516129032258
 40
0.8064516129032258
 40
0.8064516129032258
 40
0.8064516129032258
 40
0.8387096774193549
 40
0.8387096774193549
 40
0.8387096774193549
 40
0.8387096774193549
 40
0.8709677419354839
 40
0.8709677419354839
 40
0.8709677419354839
 40
0.8709677419354839
 40
0.9032258064516129
 40
0.9032258064516129
 40
0.9032258064516129
 40
0.9032258064516129
 40
0.9354838709677419
 40
0.9354838709677419
 40
0.9354838709677419
 40
0.9354838709677419
 40
1.0
 40
1.0
 40
1.0
 40
1.0
 10
102.168
 20
-48.6102
 30
0.0
 10
101.1662
 20
-49.2637
 30
0.0
 10
99.8134
 20
-48.8638
 30
0.0
 10
99.2823
 20
-47.9437
 30
0.0
 10
99.2823
 20
-47.9437
 30
0.0
 10
98.7511
 20
-47.0237
 30
0.0
 10
99.081
 20
-45.6522
 30
0.0
 10
100.148
 20
-45.1113
 30
0.0
 10
100.148
 20
-45.1113
 30
0.0
 10
102.7158
 20
-43.8094
 30
0.0
 10
106.3704
 20
-43.5925
 30
0.0
 10
108.0591
 20
-41.8837
 30
0.0
 10
108.0591
 20
-41.8837
 30
0.0
 10
107.7088
 20
-41.0347
 30
0.0
 10
107.6385
 20
-40.015
 30
0.0
 10
107.8675
 20
-39.2481
 30
0.0
 10
107.8675
 20
-39.2481
 30
0.0
 10
106.1788
 20
-37.5393
 30
0.0
 10
102.5242
 20
-37.3225
 30
0.0
 10
99.9564
 20
-36.0206
 30
0.0
 10
99.9564
 20
-36.0206
 30
0.0
 10
98.8895
 20
-35.4796
 30
0.0
 10
98.5595
 20
-34.1082
 30
0.0
 10
99.0907
 20
-33.1881
 30
0.0
 10
99.0907
 20
-33.1881
 30
0.0
 10
99.6218
 20
-32.2681
 30
0.0
 10
100.9746
 20
-31.868
 30
0.0
 10
101.9765
 20
-32.5217
 30
0.0
 10
101.9765
 20
-32.5217
 30
0.0
 10
104.3879
 20
-34.0945
 30
0.0
 10
106.4031
 20
-37.151
 30
0.0
 10
108.7272
 20
-37.7591
 30
0.0
 10
108.7272
 20
-37.7591
 30
0.0
 10
109.3096
 20
-37.057
 30
0.0
 10
110.4196
 20
-36.298
 30
0.0
 10
111.4226
 20
-36.1596
 30
0.0
 10
111.4226
 20
-36.1596
 30
0.0
 10
112.058
 20
-33.8429
 30
0.0
 10
110.4186
 20
-30.5693
 30
0.0
 10
110.2621
 20
-27.6946
 30
0.0
 10
110.2621
 20
-27.6946
 30
0.0
 10
110.197
 20
-26.5002
 30
0.0
 10
111.2198
 20
-25.5286
 30
0.0
 10
112.2823
 20
-25.5286
 30
0.0
 10
112.2823
 20
-25.5286
 30
0.0
 10
113.3446
 20
-25.5286
 30
0.0
 10
114.3674
 20
-26.5002
 30
0.0
 10
114.3025
 20
-27.6946
 30
0.0
 10
114.3025
 20
-27.6946
 30
0.0
 10
114.1461
 20
-30.5693
 30
0.0
 10
112.5065
 20
-33.8429
 30
0.0
 10
113.142
 20
-36.1596
 30
0.0
 10
113.142
 20
-36.1596
 30
0.0
 10
114.0997
 20
-36.3455
 30
0.0
 10
115.1284
 20
-36.8974
 30
0.0
 10
115.6389
 20
-37.5128
 30
0.0
 10
115.6389
 20
-37.5128
 30
0.0
 10
117.9631
 20
-36.9047
 30
0.0
 10
119.9782
 20
-33.8482
 30
0.0
 10
122.3897
 20
-32.2753
 30
0.0
 10
122.3897
 20
-32.2753
 30
0.0
 10
123.3915
 20
-31.6219
 30
0.0
 10
124.7443
 20
-32.0218
 30
0.0
 10
125.2754
 20
-32.9418
 30
0.0
 10
125.2754
 20
-32.9418
 30
0.0
 10
125.8066
 20
-33.8618
 30
0.0
 10
125.4767
 20
-35.2333
 30
0.0
 10
124.4097
 20
-35.7742
 30
0.0
 10
124.4097
 20
-35.7742
 30
0.0
 10
121.8419
 20
-37.0762
 30
0.0
 10
118.1873
 20
-37.293
 30
0.0
 10
116.4986
 20
-39.0018
 30
0.0
 10
116.4986
 20
-39.0018
 30
0.0
 10
116.9602
 20
-39.8195
 30
0.0
 10
116.8626
 20
-41.1666
 30
0.0
 10
116.6354
 20
-41.8836
 30
0.0
 10
116.6354
 20
-41.8836
 30
0.0
 10
118.3241
 20
-43.5924
 30
0.0
 10
121.9787
 20
-43.8092
 30
0.0
 10
124.5466
 20
-45.1112
 30
0.0
 10
124.5466
 20
-45.1112
 30
0.0
 10
125.6135
 20
-45.6521
 30
0.0
 10
125.9434
 20
-47.0236
 30
0.0
 10
125.4123
 20
-47.9436
 30
0.0
 10
125.4123
 20
-47.9436
 30
0.0
 10
124.8811
 20
-48.8636
 30
0.0
 10
123.5284
 20
-49.2637
 30
0.0
 10
122.5265
 20
-48.6101
 30
0.0
 10
122.5265
 20
-48.6101
 30
0.0
 10
120.1151
 20
-47.0372
 30
0.0
 10
118.0999
 20
-43.9807
 30
0.0
 10
115.7757
 20
-43.3726
 30
0.0
 10
115.7757
 20
-43.3726
 30
0.0
 10
115.1215
 20
-44.1175
 30
0.0
 10
113.9963
 20
-44.6667
 30
0.0
 10
113.142
 20
-44.8123
 30
0.0
 10
113.142
 20
-44.8123
 30
0.0
 10
112.5065
 20
-47.1291
 30
0.0
 10
114.1459
 20
-50.4026
 30
0.0
 10
114.3025
 20
-53.2774
 30
0.0
 10
114.3025
 20
-53.2774
 30
0.0
 10
114.3675
 20
-54.4718
 30
0.0
 10
113.3447
 20
-55.4434
 30
0.0
 10
112.2823
 20
-55.4434
 30
0.0
 10
112.2823
 20
-55.4434
 30
0.0
 10
111.22
 20
-55.4434
 30
0.0
 10
110.1971
 20
-54.4718
 30
0.0
 10
110.2621
 20
-53.2774
 30
0.0
 10
110.2621
 20
-53.2774
 30
0.0
 10
110.4185
 20
-50.4026
 30
0.0
 10
112.058
 20
-47.1291
 30
0.0
 10
111.4226
 20
-44.8123
 30
0.0
 10
111.4226
 20
-44.8123
 30
0.0
 10
110.5385
 20
-44.5789
 30
0.0
 10
109.6529
 20
-44.3617
 30
0.0
 10
108.9187
 20
-43.3726
 30
0.0
 10
108.9187
 20
-43.3726
 30
0.0
 10
106.7762
 20
-44.2718
 30
0.0
 10
102.9075
 20
-48.1279
 30
0.0
 10
102.168
 20
-48.6102
 30
0.0
  0
SPLINE
  5
62
330
1F
100
AcDbEntity
  8
layer 1
 62
     7
100
AcDbSpline
210
0.0
220
0.0
230
1.0
 70
    11
 71
     3
 72
   124
 73
   120
 74
     0
 42
0.0000000001
 43
0.0000000001
 12
1.0
 22
0.0
 32
0.0
 13
1.0
 23
0.0
 33
0.0
 40
0.0
 40
0.0
 40
0.0
 40
0.0
 40
0.032258064516129
 40
0.032258064516129
 40
0.032258064516129
 40
0.032258064516129
 40
0.0645161290322581
 40
0.0645161290322581
 40
0.0645161290322581
 40
0.0645161290322581
 40
0.0967741935483871
 40
0.0967741935483871
 40
0.0967741935483871
 40
0.0967741935483871
 40
0.1290322580645161
 40
0.1290322580645161
 40
0.1290322580645161
 40
0.1290322580645161
 40
0.1612903225806452
 40
0.1612903225806452
 40
0.1612903225806452
 40
0.1612903225806452
 40
0.1935483870967742
 40
0.1935483870967742
 40
0.1935483870967742
 40
0.1935483870967742
 40
0.2258064516129032
 40
0.2258064516129032
 40
0.2258064516129032
 40
0.2258064516129032
 40
0.2580645161290323
 40
0.2580645161290323
 40
0.2580645161290323
 40
0.2580645161290323
 40
0.2903225806451613
 40
0.2903225806451613
 40
0.2903225806451613
 40
0.2903225806451613
 40
0.3225806451612903
 40
0.3225806451612903
 40
0.3225806451612903
 40
0.3225806451612903
 40
0.3548387096774194
 40
0.3548387096774194
 40
0.3548387096774194
 40
0.3548387096774194
 40
0.3870967741935484
 40
0.3870967741935484
 40
0.3870967741935484
 40
0.3870967741935484
 40
0.4193548387096774
 40
0.4193548387096774
 40
0.4193548387096774
 40
0.4193548387096774
 40
0.4516129032258064
 40
0.4516129032258064
 40
0.4516129032258064
 40
0.4516129032258064
 40
0.4838709677419355
 40
0.4838709677419355
 40
0.4838709677419355
 40
0.4838709677419355
 40
0.5161290322580645
 40
0.5161290322580645
 40
0.5161290322580645
 40
0.5161290322580645
 40
0.5483870967741935
 40
0.5483870967741935
 40
0.5483870967741935
 40
0.5483870967741935
 40
0.5806451612903226
 40
0.5806451612903226
 40
0.5806451612903226
 40
0.5806451612903226
 40
0.6129032258064516
 40
0.6129032258064516
 40
0.6129032258064516
 40
0.6129032258064516
 40
0.6451612903225806
 40
0.6451612903225806
 40
0.6451612903225806
 40
0.6451612903225806
 40
0.6774193548387096
 40
0.6774193548387096
 40
0.6774193548387096
 40
0.6774193548387096
 40
0.7096774193548387
 40
0.7096774193548387
 40
0.7096774193548387
 40
0.7096774193548387
 40
0.7419354838709677
 40
0.7419354838709677
 40
0.7419354838709677
 40
0.7419354838709677
 40
0.7741935483870968
 40
0.7741935483870968
 40
0.7741935483870968
 40
0.7741935483870968
 40
0.8064516129032258
 40
0.8064516129032258
 40
0.8064516129032258
 40
0.8064516129032258
 40
0.8387096774193549
 40
0.8387096774193549
 40
0.8387096774193549
 40
0.8387096774193549
 40
0.8709677419354839
 40
0.8709677419354839
 40
0.8709677419354839
 40
0.8709677419354839
 40
0.9032258064516129
 40
0.9032258064516129
 40
0.9032258064516129
 40
0.9032258064516129
 40
0.9354838709677419
 40
0.9354838709677419
 40
0.9354838709677419
 40
0.9354838709677419
 40
1.0
 40
1.0
 40
1.0
 40
1.0
 10
153.553
 20
-48.6102
 30
0.0
 10
152.5511
 20
-49.2637
 30
0.0
 10
151.1984
 20
-48.8638
 30
0.0
 10
150.6672
 20
-47.9437
 30
0.0
 10
150.6672
 20
-47.9437
 30
0.0
 10
150.1361
 20
-47.0237
 30
0.0
 10
150.466
 20
-45.6522
 30
0.0
 10
151.5329
 20
-45.1113
 30
0.0
 10
151.5329
 20
-45.1113
 30
0.0
 10
154.1008
 20
-43.8094
 30
0.0
 10
157.7554
 20
-43.5925
 30
0.0
 10
159.4441
 20
-41.8837
 30
0.0
 10
159.4441
 20
-41.8837
 30
0.0
 10
159.0937
 20
-41.0347
 30
0.0
 10
159.0235
 20
-40.015
 30
0.0
 10
159.2525
 20
-39.2481
 30
0.0
 10
159.2525
 20
-39.2481
 30
0.0
 10
157.5638
 20
-37.5393
 30
0.0
 10
153.9092
 20
-37.3225
 30
0.0
 10
151.3414
 20
-36.0206
 30
0.0
 10
151.3414
 20
-36.0206
 30
0.0
 10
150.2744
 20
-35.4796
 30
0.0
 10
149.9445
 20
-34.1082
 30
0.0
 10
150.4757
 20
-33.1881
 30
0.0
 10
150.4757
 20
-33.1881
 30
0.0
 10
151.0068
 20
-32.2681
 30
0.0
 10
152.3596
 20
-31.868
 30
0.0
 10
153.3614
 20
-32.5217
 30
0.0
 10
153.3614
 20
-32.5217
 30
0.0
 10
155.7729
 20
-34.0945
 30
0.0
 10
157.788
 20
-37.151
 30
0.0
 10
160.1122
 20
-37.7591
 30
0.0
 10
160.1122
 20
-37.7591
 30
0.0
 10
160.6946
 20
-37.057
 30
0.0
 10
161.8046
 20
-36.298
 30
0.0
 10
162.8075
 20
-36.1596
 30
0.0
 10
162.8075
 20
-36.1596
 30
0.0
 10
163.443
 20
-33.8429
 30
0.0
 10
161.8036
 20
-30.5693
 30
0.0
 10
161.647
 20
-27.6946
 30
0.0
 10
161.647
 20
-27.6946
 30
0.0
 10
161.582
 20
-26.5002
 30
0.0
 10
162.6048
 20
-25.5286
 30
0.0
 10
163.6672
 20
-25.5286
 30
0.0
 10
163.6672
 20
-25.5286
 30
0.0
 10
164.7296
 20
-25.5286
 30
0.0
 10
165.7524
 20
-26.5002
 30
0.0
 10
165.6874
 20
-27.6946
 30
0.0
 10
165.6874
 20
-27.6946
 30
0.0
 10
165.5311
 20
-30.5693
 30
0.0
 10
163.8915
 20
-33.8429
 30
0.0
 10
164.527
 20
-36.1596
 30
0.0
 10
164.527
 20
-36.1596
 30
0.0
 10
165.4847
 20
-36.3455
 30
0.0
 10
166.5134
 20
-36.8974
 30
0.0
 10
167.0239
 20
-37.5128
 30
0.0
 10
167.0239
 20
-37.5128
 30
0.0
 10
169.348
 20
-36.9047
 30
0.0
 10
171.3632
 20
-33.8482
 30
0.0
 10
173.7746
 20
-32.2753
 30
0.0
 10
173.7746
 20
-32.2753
 30
0.0
 10
174.7765
 20
-31.6219
 30
0.0
 10
176.1293
 20
-32.0218
 30
0.0
 10
176.6604
 20
-32.9418
 30
0.0
 10
176.6604
 20
-32.9418
 30
0.0
 10
177.1916
 20
-33.8618
 30
0.0
 10
176.8616
 20
-35.2333
 30
0.0
 10
175.7947
 20
-35.7742
 30
0.0
 10
175.7947
 20
-35.7742
 30
0.0
 10
173.2269
 20
-37.0762
 30
0.0
 10
169.5723
 20
-37.293
 30
0.0
 10
167.8836
 20
-39.0018
 30
0.0
 10
167.8836
 20
-39.0018
 30
0.0
 10
168.3452
 20
-39.8195
 30
0.0
 10
168.2476
 20
-41.1666
 30
0.0
 10
168.0204
 20
-41.8836
 30
0.0
 10
168.0204
 20
-41.8836
 30
0.0
 10
169.7091
 20
-43.5924
 30
0.0
 10
173.3637
 20
-43.8092
 30
0.0
 10
175.9315
 20
-45.1112
 30
0.0
 10
175.9315
 20
-45.1112
 30
0.0
 10
176.9985
 20
-45.6521
 30
0.0
 10
177.3284
 20
-47.0236
 30
0.0
 10
176.7973
 20
-47.9436
 30
0.0
 10
176.7973
 20
-47.9436
 30
0.0
 10
176.2661
 20
-48.8636
 30
0.0
 10
174.9133
 20
-49.2637
 30
0.0
 10
173.9115
 20
-48.6101
 30
0.0
 10
173.9115
 20
-48.6101
 30
0.0
 10
171.5
 20
-47.0372
 30
0.0
 10
169.4849
 20
-43.9807
 30
0.0
 10
167.1607
 20
-43.3726
 30
0.0
 10
167.1607
 20
-43.3726
 30
0.0
 10
166.5065
 20
-44.1175
 30
0.0
 10
165.3812
 20
-44.6667
 30
0.0
 10
164.527
 20
-44.8123
 30
0.0
 10
164.527
 20
-44.8123
 30
0.0
 10
163.8915
 20
-47.1291
 30
0.0
 10
165.5309
 20
-50.4026
 30
0.0
 10
165.6874
 20
-53.2774
 30
0.0
 10
165.6874
 20
-53.2774
 30
0.0
 10
165.7525
 20
-54.4718
 30
0.0
 10
164.7297
 20
-55.4434
 30
0.0
 10
163.6672
 20
-55.4434
 30
0.0
 10
163.6672
 20
-55.4434
 30
0.0
 10
162.6049
 20
-55.4434
 30
0.0
 10
161.5821
 20
-54.4718
 30
0.0
 10
161.647
 20
-53.2774
 30
0.0
 10
161.647
 20
-53.2774
 30
0.0
 10
161.8034
 20
-50.4026
 30
0.0
 10
163.443
 20
-47.1291
 30
0.0
 10
162.8075
 20
-44.8123
 30
0.0
 10
162.8075
 20
-44.8123
 30
0.0
 10
161.9235
 20
-44.5789
 30
0.0
 10
161.0378
 20
-44.3617
 30
0.0
 10
160.3037
 20
-43.3726
 30
0.0
 10
160.3037
 20
-43.3726
 30
0.0
 10
158.1611
 20
-44.2718
 30
0.0
 10
154.2925
 20
-48.1279
 30
0.0
 10
153.553
 20
-48.6102
 30
0.0
  0
SPLINE
  5
63
330
1F
100
AcDbEntity
  8
layer 1
 62
     7
100
AcDbSpline
210
0.0
220
0.0
230
1.0
 70
    11
 71
     3
 72
    72
 73
    68
 74
     0
 42
0.0000000001
 43
0.0000000001
 12
1.0
 22
0.0
 32
0.0
 13
1.0
 23
0.0
 33
0.0
 40
0.0
 40
0.0
 40
0.0
 40
0.0
 40
0.0555555555555556
 40
0.0555555555555556
 40
0.0555555555555556
 40
0.0555555555555556
 40
0.1111111111111111
 40
0.1111111111111111
 40
0.1111111111111111
 40
0.1111111111111111
 40
0.1666666666666667
 40
0.1666666666666667
 40
0.1666666666666667
 40
0.1666666666666667
 40
0.2222222222222222
 40
0.2222222222222222
 40
0.2222222222222222
 40
0.2222222222222222
 40
0.2777777777777778
 40
0.2777777777777778
 40
0.2777777777777778
 40
0.2777777777777778
 40
0.3333333333333333
 40
0.3333333333333333
 40
0.3333333333333333
 40
0.3333333333333333
 40
0.3888888888888889
 40
0.3888888888888889
 40
0.3888888888888889
 40
0.3888888888888889
 40
0.4444444444444444
 40
0.4444444444444444
 40
0.4444444444444444
 40
0.4444444444444444
 40
0.5
 40
0.5
 40
0.5
 40
0.5
 40
0.5555555555555556
 40
0.5555555555555556
 40
0.5555555555555556
 40
0.5555555555555556
 40
0.6111111111111112
 40
0.6111111111111112
 40
0.6111111111111112
 40
0.6111111111111112
 40
0.6666666666666666
 40
0.6666666666666666
 40
0.6666666666666666
 40
0.6666666666666666
 40
0.7222222222222222
 40
0.7222222222222222
 40
0.7222222222222222
 40
0.7222222222222222
 40
0.7777777777777778
 40
0.7777777777777778
 40
0.7777777777777778
 40
0.7777777777777778
 40
0.8333333333333334
 40
0.8333333333333334
 40
0.8333333333333334
 40
0.8333333333333334
 40
0.8888888888888888
 40
0.8888888888888888
 40
0.8888888888888888
 40
0.8888888888888888
 40
1.0
 40
1.0
 40
1.0
 40
1.0
 10
86.7598
 20
-36.163
 30
0.0
 10
87.1234
 20
-36.1804
 30
0.0
 10
87.4633
 20
-36.2408
 30
0.0
 10
87.7443
 20
-36.3448
 30
0.0
 10
87.7443
 20
-36.3448
 30
0.0
 10
89.4531
 20
-34.6561
 30
0.0
 10
89.67
 20
-31.0015
 30
0.0
 10
90.9719
 20
-28.4337
 30
0.0
 10
90.9719
 20
-28.4337
 30
0.0
 10
91.5129
 20
-27.3667
 30
0.0
 10
92.8843
 20
-27.0368
 30
0.0
 10
93.8044
 20
-27.5679
 30
0.0
 10
93.8044
 20
-27.5679
 30
0.0
 10
94.7244
 20
-28.0991
 30
0.0
 10
95.1244
 20
-29.4519
 30
0.0
 10
94.4708
 20
-30.4537
 30
0.0
 10
94.4708
 20
-30.4537
 30
0.0
 10
92.898
 20
-32.8652
 30
0.0
 10
89.8415
 20
-34.8803
 30
0.0
 10
89.2334
 20
-37.2045
 30
0.0
 10
89.2334
 20
-37.2045
 30
0.0
 10
90.042
 20
-37.6818
 30
0.0
 10
90.6309
 20
-38.8971
 30
0.0
 10
90.7926
 20
-39.6317
 30
0.0
 10
90.7926
 20
-39.6317
 30
0.0
 10
93.1094
 20
-40.2672
 30
0.0
 10
96.3829
 20
-38.6278
 30
0.0
 10
99.2577
 20
-38.4712
 30
0.0
 10
99.2577
 20
-38.4712
 30
0.0
 10
100.4521
 20
-38.4062
 30
0.0
 10
101.4237
 20
-39.429
 30
0.0
 10
101.4237
 20
-40.4914
 30
0.0
 10
101.4237
 20
-40.4914
 30
0.0
 10
101.4237
 20
-41.5538
 30
0.0
 10
100.4521
 20
-42.5766
 30
0.0
 10
99.2577
 20
-42.5116
 30
0.0
 10
99.2577
 20
-42.5116
 30
0.0
 10
96.3829
 20
-42.3552
 30
0.0
 10
93.1094
 20
-40.7157
 30
0.0
 10
90.7926
 20
-41.3511
 30
0.0
 10
90.7926
 20
-41.3511
 30
0.0
 10
90.5985
 20
-42.3234
 30
0.0
 10
89.8986
 20
-43.3616
 30
0.0
 10
89.2316
 20
-43.9148
 30
0.0
 10
89.2316
 20
-43.9148
 30
0.0
 10
89.8396
 20
-46.239
 30
0.0
 10
92.8962
 20
-48.2541
 30
0.0
 10
94.469
 20
-50.6656
 30
0.0
 10
94.469
 20
-50.6656
 30
0.0
 10
95.1225
 20
-51.6674
 30
0.0
 10
94.7226
 20
-53.0202
 30
0.0
 10
93.8025
 20
-53.5513
 30
0.0
 10
93.8025
 20
-53.5513
 30
0.0
 10
92.8825
 20
-54.0825
 30
0.0
 10
91.511
 20
-53.7526
 30
0.0
 10
90.9701
 20
-52.6856
 30
0.0
 10
90.9701
 20
-52.6856
 30
0.0
 10
89.6682
 20
-50.1178
 30
0.0
 10
89.4513
 20
-46.4632
 30
0.0
 10
87.7425
 20
-44.7745
 30
0.0
 10
87.7425
 20
-44.7745
 30
0.0
 10
87.3983
 20
-44.8875
 30
0.0
 10
86.6503
 20
-45.3579
 30
0.0
 10
86.6548
 20
-44.9834
 30
0.0
 10
86.6548
 20
-44.9834
 30
0.0
 10
86.6548
 20
-44.9834
 30
0.0
 10
86.7598
 20
-36.163
 30
0.0
 10
86.7598
 20
-36.163
 30
0.0
  0
SPLINE
  5
64
330
1F
100
AcDbEntity
  8
layer 1
 62
     7
100
AcDbSpline
210
0.0
220
0.0
230
1.0
 70
    11
 71
     3
 72
    72
 73
    68
 74
     0
 42
0.0000000001
 43
0.0000000001
 12
1.0
 22
0.0
 32
0.0
 13
1.0
 23
0.0
 33
0.0
 40
0.0
 40
0.0
 40
0.0
 40
0.0
 40
0.0555555555555556
 40
0.0555555555555556
 40
0.0555555555555556
 40
0.0555555555555556
 40
0.1111111111111111
 40
0.1111111111111111
 40
0.1111111111111111
 40
0.1111111111111111
 40
0.1666666666666667
 40
0.1666666666666667
 40
0.1666666666666667
 40
0.1666666666666667
 40
0.2222222222222222
 40
0.2222222222222222
 40
0.2222222222222222
 40
0.2222222222222222
 40
0.2777777777777778
 40
0.2777777777777778
 40
0.2777777777777778
 40
0.2777777777777778
 40
0.3333333333333333
 40
0.3333333333333333
 40
0.3333333333333333
 40
0.3333333333333333
 40
0.3888888888888889
 40
0.3888888888888889
 40
0.3888888888888889
 40
0.3888888888888889
 40
0.4444444444444444
 40
0.4444444444444444
 40
0.4444444444444444
 40
0.4444444444444444
 40
0.5
 40
0.5
 40
0.5
 40
0.5
 40
0.5555555555555556
 40
0.5555555555555556
 40
0.5555555555555556
 40
0.5555555555555556
 40
0.6111111111111112
 40
0.6111111111111112
 40
0.6111111111111112
 40
0.6111111111111112
 40
0.6666666666666666
 40
0.6666666666666666
 40
0.6666666666666666
 40
0.6666666666666666
 40
0.7222222222222222
 40
0.7222222222222222
 40
0.7222222222222222
 40
0.7222222222222222
 40
0.7777777777777778
 40
0.7777777777777778
 40
0.7777777777777778
 40
0.7777777777777778
 40
0.8333333333333334
 40
0.8333333333333334
 40
0.8333333333333334
 40
0.8333333333333334
 40
0.8888888888888888
 40
0.8888888888888888
 40
0.8888888888888888
 40
0.8888888888888888
 40
1.0
 40
1.0
 40
1.0
 40
1.0
 10
188.6798
 20
-36.163
 30
0.0
 10
188.3162
 20
-36.1804
 30
0.0
 10
187.9763
 20
-36.2408
 30
0.0
 10
187.6952
 20
-36.3448
 30
0.0
 10
187.6952
 20
-36.3448
 30
0.0
 10
185.9864
 20
-34.6561
 30
0.0
 10
185.7696
 20
-31.0015
 30
0.0
 10
184.4677
 20
-28.4337
 30
0.0
 10
184.4677
 20
-28.4337
 30
0.0
 10
183.9267
 20
-27.3667
 30
0.0
 10
182.5553
 20
-27.0368
 30
0.0
 10
181.6352
 20
-27.5679
 30
0.0
 10
181.6352
 20
-27.5679
 30
0.0
 10
180.7152
 20
-28.0991
 30
0.0
 10
180.3151
 20
-29.4519
 30
0.0
 10
180.9688
 20
-30.4537
 30
0.0
 10
180.9688
 20
-30.4537
 30
0.0
 10
182.5416
 20
-32.8652
 30
0.0
 10
185.5981
 20
-34.8803
 30
0.0
 10
186.2062
 20
-37.2045
 30
0.0
 10
186.2062
 20
-37.2045
 30
0.0
 10
185.3976
 20
-37.6818
 30
0.0
 10
184.8086
 20
-38.8971
 30
0.0
 10
184.6469
 20
-39.6317
 30
0.0
 10
184.6469
 20
-39.6317
 30
0.0
 10
182.3302
 20
-40.2672
 30
0.0
 10
179.0566
 20
-38.6278
 30
0.0
 10
176.1819
 20
-38.4712
 30
0.0
 10
176.1819
 20
-38.4712
 30
0.0
 10
174.9875
 20
-38.4062
 30
0.0
 10
174.0159
 20
-39.429
 30
0.0
 10
174.0159
 20
-40.4914
 30
0.0
 10
174.0159
 20
-40.4914
 30
0.0
 10
174.0159
 20
-41.5538
 30
0.0
 10
174.9875
 20
-42.5766
 30
0.0
 10
176.1819
 20
-42.5116
 30
0.0
 10
176.1819
 20
-42.5116
 30
0.0
 10
179.0566
 20
-42.3552
 30
0.0
 10
182.3302
 20
-40.7157
 30
0.0
 10
184.6469
 20
-41.3511
 30
0.0
 10
184.6469
 20
-41.3511
 30
0.0
 10
184.841
 20
-42.3234
 30
0.0
 10
185.541
 20
-43.3616
 30
0.0
 10
186.208
 20
-43.9148
 30
0.0
 10
186.208
 20
-43.9148
 30
0.0
 10
185.5999
 20
-46.239
 30
0.0
 10
182.5434
 20
-48.2541
 30
0.0
 10
180.9706
 20
-50.6656
 30
0.0
 10
180.9706
 20
-50.6656
 30
0.0
 10
180.3171
 20
-51.6674
 30
0.0
 10
180.717
 20
-53.0202
 30
0.0
 10
181.637
 20
-53.5513
 30
0.0
 10
181.637
 20
-53.5513
 30
0.0
 10
182.5571
 20
-54.0825
 30
0.0
 10
183.9285
 20
-53.7526
 30
0.0
 10
184.4695
 20
-52.6856
 30
0.0
 10
184.4695
 20
-52.6856
 30
0.0
 10
185.7714
 20
-50.1178
 30
0.0
 10
185.9882
 20
-46.4632
 30
0.0
 10
187.6971
 20
-44.7745
 30
0.0
 10
187.6971
 20
-44.7745
 30
0.0
 10
188.0413
 20
-44.8875
 30
0.0
 10
188.7893
 20
-45.3579
 30
0.0
 10
188.7848
 20
-44.9834
 30
0.0
 10
188.7848
 20
-44.9834
 30
0.0
 10
188.7848
 20
-44.9834
 30
0.0
 10
188.6798
 20
-36.163
 30
0.0
 10
188.6798
 20
-36.163
 30
0.0
  0
SPLINE
  5
65
330
1F
100
AcDbEntity
  8
layer 1
 62
     7
100
AcDbSpline
210
0.0
220
0.0
230
1.0
 70
    11
 71
     3
 72
    68
 73
    64
 74
     0
 42
0.0000000001
 43
0.0000000001
 12
1.0
 22
0.0
 32
0.0
 13
1.0
 23
0.0
 33
0.0
 40
0.0
 40
0.0
 40
0.0
 40
0.0
 40
0.0588235294117647
 40
0.0588235294117647
 40
0.0588235294117647
 40
0.0588235294117647
 40
0.1176470588235294
 40
0.1176470588235294
 40
0.1176470588235294
 40
0.1176470588235294
 40
0.1764705882352941
 40
0.1764705882352941
 40
0.1764705882352941
 40
0.1764705882352941
 40
0.2352941176470588
 40
0.2352941176470588
 40
0.2352941176470588
 40
0.2352941176470588
 40
0.2941176470588235
 40
0.2941176470588235
 40
0.2941176470588235
 40
0.2941176470588235
 40
0.3529411764705883
 40
0.3529411764705883
 40
0.3529411764705883
 40
0.3529411764705883
 40
0.4117647058823529
 40
0.4117647058823529
 40
0.4117647058823529
 40
0.4117647058823529
 40
0.4705882352941176
 40
0.4705882352941176
 40
0.4705882352941176
 40
0.4705882352941176
 40
0.5294117647058824
 40
0.5294117647058824
 40
0.5294117647058824
 40
0.5294117647058824
 40
0.5882352941176471
 40
0.5882352941176471
 40
0.5882352941176471
 40
0.5882352941176471
 40
0.6470588235294118
 40
0.6470588235294118
 40
0.6470588235294118
 40
0.6470588235294118
 40
0.7058823529411765
 40
0.7058823529411765
 40
0.7058823529411765
 40
0.7058823529411765
 40
0.7647058823529411
 40
0.7647058823529411
 40
0.7647058823529411
 40
0.7647058823529411
 40
0.8235294117647058
 40
0.8235294117647058
 40
0.8235294117647058
 40
0.8235294117647058
 40
0.8823529411764706
 40
0.8823529411764706
 40
0.8823529411764706
 40
0.8823529411764706
 40
1.0
 40
1.0
 40
1.0
 40
1.0
 10
123.019
 20
-90.3291
 30
0.0
 10
123.019
 20
-89.2809
 30
0.0
 10
123.6986
 20
-88.5442
 30
0.0
 10
125.0996
 20
-88.6203
 30
0.0
 10
125.0996
 20
-88.6203
 30
0.0
 10
127.9744
 20
-88.7767
 30
0.0
 10
131.2479
 20
-90.4163
 30
0.0
 10
133.5647
 20
-89.7808
 30
0.0
 10
133.5647
 20
-89.7808
 30
0.0
 10
133.718
 20
-88.8816
 30
0.0
 10
134.2997
 20
-87.6693
 30
0.0
 10
135.0992
 20
-87.0479
 30
0.0
 10
135.0992
 20
-87.0479
 30
0.0
 10
134.4911
 20
-84.7238
 30
0.0
 10
131.4346
 20
-82.7086
 30
0.0
 10
129.8618
 20
-80.2971
 30
0.0
 10
129.8618
 20
-80.2971
 30
0.0
 10
129.2083
 20
-79.2953
 30
0.0
 10
129.6082
 20
-77.9425
 30
0.0
 10
130.5283
 20
-77.4114
 30
0.0
 10
130.5283
 20
-77.4114
 30
0.0
 10
131.4483
 20
-76.8802
 30
0.0
 10
132.8198
 20
-77.2102
 30
0.0
 10
133.3607
 20
-78.2771
 30
0.0
 10
133.3607
 20
-78.2771
 30
0.0
 10
134.6626
 20
-80.8449
 30
0.0
 10
134.8795
 20
-84.4995
 30
0.0
 10
136.5883
 20
-86.1882
 30
0.0
 10
136.5883
 20
-86.1882
 30
0.0
 10
137.5106
 20
-85.8703
 30
0.0
 10
138.6775
 20
-85.834
 30
0.0
 10
139.4273
 20
-86.1117
 30
0.0
 10
139.4273
 20
-86.1117
 30
0.0
 10
141.1361
 20
-84.423
 30
0.0
 10
141.3529
 20
-80.7684
 30
0.0
 10
142.6549
 20
-78.2006
 30
0.0
 10
142.6549
 20
-78.2006
 30
0.0
 10
143.1958
 20
-77.1336
 30
0.0
 10
144.5673
 20
-76.8037
 30
0.0
 10
145.4873
 20
-77.3349
 30
0.0
 10
145.4873
 20
-77.3349
 30
0.0
 10
146.4073
 20
-77.866
 30
0.0
 10
146.8074
 20
-79.2188
 30
0.0
 10
146.1538
 20
-80.2206
 30
0.0
 10
146.1538
 20
-80.2206
 30
0.0
 10
144.581
 20
-82.6321
 30
0.0
 10
141.5244
 20
-84.6472
 30
0.0
 10
140.9163
 20
-86.9714
 30
0.0
 10
140.9163
 20
-86.9714
 30
0.0
 10
141.7249
 20
-87.4487
 30
0.0
 10
142.3139
 20
-88.664
 30
0.0
 10
142.4756
 20
-89.3986
 30
0.0
 10
142.4756
 20
-89.3986
 30
0.0
 10
144.7924
 20
-90.0341
 30
0.0
 10
148.0659
 20
-88.3947
 30
0.0
 10
150.9406
 20
-88.2382
 30
0.0
 10
150.9406
 20
-88.2382
 30
0.0
 10
152.135
 20
-88.1731
 30
0.0
 10
153.1066
 20
-89.1959
 30
0.0
 10
153.1066
 20
-90.2583
 30
0.0
 10
153.1066
 20
-90.2583
 30
0.0
 10
153.1066
 20
-90.2583
 30
0.0
 10
123.019
 20
-90.3291
 30
0.0
 10
123.019
 20
-90.3291
 30
0.0
  0
SPLINE
  5
66
330
1F
100
AcDbEntity
  8
layer 1
 62
     7
100
AcDbSpline
210
0.0
220
0.0
230
1.0
 70
    11
 71
     3
 72
    72
 73
    68
 74
     0
 42
0.0000000001
 43
0.0000000001
 12
1.0
 22
0.0
 32
0.0
 13
1.0
 23
0.0
 33
0.0
 40
0.0
 40
0.0
 40
0.0
 40
0.0
 40
0.0555555555555556
 40
0.0555555555555556
 40
0.0555555555555556
 40
0.0555555555555556
 40
0.1111111111111111
 40
0.1111111111111111
 40
0.1111111111111111
 40
0.1111111111111111
 40
0.1666666666666667
 40
0.1666666666666667
 40
0.1666666666666667
 40
0.1666666666666667
 40
0.2222222222222222
 40
0.2222222222222222
 40
0.2222222222222222
 40
0.2222222222222222
 40
0.2777777777777778
 40
0.2777777777777778
 40
0.2777777777777778
 40
0.2777777777777778
 40
0.3333333333333333
 40
0.3333333333333333
 40
0.3333333333333333
 40
0.3333333333333333
 40
0.3888888888888889
 40
0.3888888888888889
 40
0.3888888888888889
 40
0.3888888888888889
 40
0.4444444444444444
 40
0.4444444444444444
 40
0.4444444444444444
 40
0.4444444444444444
 40
0.5
 40
0.5
 40
0.5
 40
0.5
 40
0.5555555555555556
 40
0.5555555555555556
 40
0.5555555555555556
 40
0.5555555555555556
 40
0.6111111111111112
 40
0.6111111111111112
 40
0.6111111111111112
 40
0.6111111111111112
 40
0.6666666666666666
 40
0.6666666666666666
 40
0.6666666666666666
 40
0.6666666666666666
 40
0.7222222222222222
 40
0.7222222222222222
 40
0.7222222222222222
 40
0.7222222222222222
 40
0.7777777777777778
 40
0.7777777777777778
 40
0.7777777777777778
 40
0.7777777777777778
 40
0.8333333333333334
 40
0.8333333333333334
 40
0.8333333333333334
 40
0.8333333333333334
 40
0.8888888888888888
 40
0.8888888888888888
 40
0.8888888888888888
 40
0.8888888888888888
 40
1.0
 40
1.0
 40
1.0
 40
1.0
 10
159.1312
 20
-90.3021
 30
0.0
 10
159.0985
 20
-89.845
 30
0.0
 10
159.138
 20
-89.3985
 30
0.0
 10
159.2525
 20
-89.0151
 30
0.0
 10
159.2525
 20
-89.0151
 30
0.0
 10
157.5638
 20
-87.3063
 30
0.0
 10
153.9092
 20
-87.0894
 30
0.0
 10
151.3414
 20
-85.7875
 30
0.0
 10
151.3414
 20
-85.7875
 30
0.0
 10
150.2744
 20
-85.2465
 30
0.0
 10
149.9445
 20
-83.8751
 30
0.0
 10
150.4757
 20
-82.955
 30
0.0
 10
150.4757
 20
-82.955
 30
0.0
 10
151.0068
 20
-82.035
 30
0.0
 10
152.3596
 20
-81.635
 30
0.0
 10
153.3614
 20
-82.2886
 30
0.0
 10
153.3614
 20
-82.2886
 30
0.0
 10
155.7729
 20
-83.8614
 30
0.0
 10
157.788
 20
-86.9179
 30
0.0
 10
160.1122
 20
-87.526
 30
0.0
 10
160.1122
 20
-87.526
 30
0.0
 10
160.6946
 20
-86.824
 30
0.0
 10
161.8046
 20
-86.0649
 30
0.0
 10
162.8075
 20
-85.9265
 30
0.0
 10
162.8075
 20
-85.9265
 30
0.0
 10
163.443
 20
-83.6098
 30
0.0
 10
161.8036
 20
-80.3362
 30
0.0
 10
161.647
 20
-77.4615
 30
0.0
 10
161.647
 20
-77.4615
 30
0.0
 10
161.582
 20
-76.2671
 30
0.0
 10
162.6048
 20
-75.2955
 30
0.0
 10
163.6672
 20
-75.2955
 30
0.0
 10
163.6672
 20
-75.2955
 30
0.0
 10
164.7296
 20
-75.2955
 30
0.0
 10
165.7524
 20
-76.2671
 30
0.0
 10
165.6874
 20
-77.4615
 30
0.0
 10
165.6874
 20
-77.4615
 30
0.0
 10
165.5311
 20
-80.3362
 30
0.0
 10
163.8915
 20
-83.6098
 30
0.0
 10
164.527
 20
-85.9265
 30
0.0
 10
164.527
 20
-85.9265
 30
0.0
 10
165.4847
 20
-86.1124
 30
0.0
 10
166.5134
 20
-86.6644
 30
0.0
 10
167.0239
 20
-87.2797
 30
0.0
 10
167.0239
 20
-87.2797
 30
0.0
 10
169.348
 20
-86.6716
 30
0.0
 10
171.3632
 20
-83.6151
 30
0.0
 10
173.7746
 20
-82.0423
 30
0.0
 10
173.7746
 20
-82.0423
 30
0.0
 10
174.7765
 20
-81.3888
 30
0.0
 10
176.1293
 20
-81.7887
 30
0.0
 10
176.6604
 20
-82.7087
 30
0.0
 10
176.6604
 20
-82.7087
 30
0.0
 10
177.1916
 20
-83.6288
 30
0.0
 10
176.8616
 20
-85.0002
 30
0.0
 10
175.7947
 20
-85.5412
 30
0.0
 10
175.7947
 20
-85.5412
 30
0.0
 10
173.2269
 20
-86.8431
 30
0.0
 10
169.5723
 20
-87.0599
 30
0.0
 10
167.8836
 20
-88.7688
 30
0.0
 10
167.8836
 20
-88.7688
 30
0.0
 10
168.1144
 20
-89.1776
 30
0.0
 10
168.2053
 20
-89.7188
 30
0.0
 10
168.2102
 20
-90.2473
 30
0.0
 10
168.2102
 20
-90.2473
 30
0.0
 10
168.2102
 20
-90.2473
 30
0.0
 10
159.1312
 20
-90.3021
 30
0.0
 10
159.1312
 20
-90.3021
 30
0.0
  0
SPLINE
  5
67
330
1F
100
AcDbEntity
  8
layer 1
 62
     7
100
AcDbSpline
210
0.0
220
0.0
230
1.0
 70
    11
 71
     3
 72
    44
 73
    40
 74
     0
 42
0.0000000001
 43
0.0000000001
 12
1.0
 22
0.0
 32
0.0
 13
1.0
 23
0.0
 33
0.0
 40
0.0
 40
0.0
 40
0.0
 40
0.0
 40
0.0909090909090909
 40
0.0909090909090909
 40
0.0909090909090909
 40
0.0909090909090909
 40
0.1818181818181818
 40
0.1818181818181818
 40
0.1818181818181818
 40
0.1818181818181818
 40
0.2727272727272727
 40
0.2727272727272727
 40
0.2727272727272727
 40
0.2727272727272727
 40
0.3636363636363636
 40
0.3636363636363636
 40
0.3636363636363636
 40
0.3636363636363636
 40
0.4545454545454545
 40
0.4545454545454545
 40
0.4545454545454545
 40
0.4545454545454545
 40
0.5454545454545454
 40
0.5454545454545454
 40
0.5454545454545454
 40
0.5454545454545454
 40
0.6363636363636364
 40
0.6363636363636364
 40
0.6363636363636364
 40
0.6363636363636364
 40
0.7272727272727273
 40
0.7272727272727273
 40
0.7272727272727273
 40
0.7272727272727273
 40
0.8181818181818182
 40
0.8181818181818182
 40
0.8181818181818182
 40
0.8181818181818182
 40
1.0
 40
1.0
 40
1.0
 40
1.0
 10
188.6798
 20
-85.9299
 30
0.0
 10
188.3162
 20
-85.9474
 30
0.0
 10
187.9763
 20
-86.0077
 30
0.0
 10
187.6952
 20
-86.1117
 30
0.0
 10
187.6952
 20
-86.1117
 30
0.0
 10
185.9864
 20
-84.423
 30
0.0
 10
185.7696
 20
-80.7684
 30
0.0
 10
184.4677
 20
-78.2006
 30
0.0
 10
184.4677
 20
-78.2006
 30
0.0
 10
183.9267
 20
-77.1336
 30
0.0
 10
182.5553
 20
-76.8037
 30
0.0
 10
181.6352
 20
-77.3349
 30
0.0
 10
181.6352
 20
-77.3349
 30
0.0
 10
180.7152
 20
-77.866
 30
0.0
 10
180.3151
 20
-79.2188
 30
0.0
 10
180.9688
 20
-80.2206
 30
0.0
 10
180.9688
 20
-80.2206
 30
0.0
 10
182.5416
 20
-82.6321
 30
0.0
 10
185.5981
 20
-84.6472
 30
0.0
 10
186.2062
 20
-86.9714
 30
0.0
 10
186.2062
 20
-86.9714
 30
0.0
 10
185.3976
 20
-87.4487
 30
0.0
 10
184.8086
 20
-88.664
 30
0.0
 10
184.6469
 20
-89.3986
 30
0.0
 10
184.6469
 20
-89.3986
 30
0.0
 10
182.3302
 20
-90.0341
 30
0.0
 10
179.0566
 20
-88.3947
 30
0.0
 10
176.1819
 20
-88.2382
 30
0.0
 10
176.1819
 20
-88.2382
 30
0.0
 10
174.9875
 20
-88.1731
 30
0.0
 10
174.0159
 20
-89.1959
 30
0.0
 10
174.0159
 20
-90.2583
 30
0.0
 10
174.0159
 20
-90.2583
 30
0.0
 10
174.0159
 20
-90.2583
 30
0.0
 10
188.7313
 20
-90.2635
 30
0.0
 10
188.7313
 20
-90.2635
 30
0.0
 10
188.7313
 20
-90.2635
 30
0.0
 10
188.7313
 20
-90.2635
 30
0.0
 10
188.6798
 20
-85.9299
 30
0.0
 10
188.6798
 20
-85.9299
 30
0.0
  0
SPLINE
  5
68
330
1F
100
AcDbEntity
  8
layer 1
 62
     7
100
AcDbSpline
210
0.0
220
0.0
230
1.0
 70
    11
 71
     3
 72
    72
 73
    68
 74
     0
 42
0.0000000001
 43
0.0000000001
 12
1.0
 22
0.0
 32
0.0
 13
1.0
 23
0.0
 33
0.0
 40
0.0
 40
0.0
 40
0.0
 40
0.0
 40
0.0555555555555556
 40
0.0555555555555556
 40
0.0555555555555556
 40
0.0555555555555556
 40
0.1111111111111111
 40
0.1111111111111111
 40
0.1111111111111111
 40
0.1111111111111111
 40
0.1666666666666667
 40
0.1666666666666667
 40
0.1666666666666667
 40
0.1666666666666667
 40
0.2222222222222222
 40
0.2222222222222222
 40
0.2222222222222222
 40
0.2222222222222222
 40
0.2777777777777778
 40
0.2777777777777778
 40
0.2777777777777778
 40
0.2777777777777778
 40
0.3333333333333333
 40
0.3333333333333333
 40
0.3333333333333333
 40
0.3333333333333333
 40
0.3888888888888889
 40
0.3888888888888889
 40
0.3888888888888889
 40
0.3888888888888889
 40
0.4444444444444444
 40
0.4444444444444444
 40
0.4444444444444444
 40
0.4444444444444444
 40
0.5
 40
0.5
 40
0.5
 40
0.5
 40
0.5555555555555556
 40
0.5555555555555556
 40
0.5555555555555556
 40
0.5555555555555556
 40
0.6111111111111112
 40
0.6111111111111112
 40
0.6111111111111112
 40
0.6111111111111112
 40
0.6666666666666666
 40
0.6666666666666666
 40
0.6666666666666666
 40
0.6666666666666666
 40
0.7222222222222222
 40
0.7222222222222222
 40
0.7222222222222222
 40
0.7222222222222222
 40
0.7777777777777778
 40
0.7777777777777778
 40
0.7777777777777778
 40
0.7777777777777778
 40
0.8333333333333334
 40
0.8333333333333334
 40
0.8333333333333334
 40
0.8333333333333334
 40
0.8888888888888888
 40
0.8888888888888888
 40
0.8888888888888888
 40
0.8888888888888888
 40
1.0
 40
1.0
 40
1.0
 40
1.0
 10
107.7829
 20
-90.3021
 30
0.0
 10
107.7502
 20
-89.845
 30
0.0
 10
107.7898
 20
-89.3985
 30
0.0
 10
107.9043
 20
-89.0151
 30
0.0
 10
107.9043
 20
-89.0151
 30
0.0
 10
106.2155
 20
-87.3063
 30
0.0
 10
102.561
 20
-87.0894
 30
0.0
 10
99.9931
 20
-85.7875
 30
0.0
 10
99.9931
 20
-85.7875
 30
0.0
 10
98.9262
 20
-85.2465
 30
0.0
 10
98.5962
 20
-83.8751
 30
0.0
 10
99.1274
 20
-82.955
 30
0.0
 10
99.1274
 20
-82.955
 30
0.0
 10
99.6586
 20
-82.035
 30
0.0
 10
101.0113
 20
-81.635
 30
0.0
 10
102.0132
 20
-82.2886
 30
0.0
 10
102.0132
 20
-82.2886
 30
0.0
 10
104.4246
 20
-83.8614
 30
0.0
 10
106.4398
 20
-86.9179
 30
0.0
 10
108.764
 20
-87.526
 30
0.0
 10
108.764
 20
-87.526
 30
0.0
 10
109.3464
 20
-86.824
 30
0.0
 10
110.4563
 20
-86.0649
 30
0.0
 10
111.4593
 20
-85.9265
 30
0.0
 10
111.4593
 20
-85.9265
 30
0.0
 10
112.0947
 20
-83.6098
 30
0.0
 10
110.4553
 20
-80.3362
 30
0.0
 10
110.2988
 20
-77.4615
 30
0.0
 10
110.2988
 20
-77.4615
 30
0.0
 10
110.2337
 20
-76.2671
 30
0.0
 10
111.2565
 20
-75.2955
 30
0.0
 10
112.319
 20
-75.2955
 30
0.0
 10
112.319
 20
-75.2955
 30
0.0
 10
113.3813
 20
-75.2955
 30
0.0
 10
114.4041
 20
-76.2671
 30
0.0
 10
114.3392
 20
-77.4615
 30
0.0
 10
114.3392
 20
-77.4615
 30
0.0
 10
114.1828
 20
-80.3362
 30
0.0
 10
112.5432
 20
-83.6098
 30
0.0
 10
113.1787
 20
-85.9265
 30
0.0
 10
113.1787
 20
-85.9265
 30
0.0
 10
114.1364
 20
-86.1124
 30
0.0
 10
115.1651
 20
-86.6644
 30
0.0
 10
115.6756
 20
-87.2797
 30
0.0
 10
115.6756
 20
-87.2797
 30
0.0
 10
117.9998
 20
-86.6716
 30
0.0
 10
120.0149
 20
-83.6151
 30
0.0
 10
122.4264
 20
-82.0423
 30
0.0
 10
122.4264
 20
-82.0423
 30
0.0
 10
123.4283
 20
-81.3888
 30
0.0
 10
124.781
 20
-81.7887
 30
0.0
 10
125.3122
 20
-82.7087
 30
0.0
 10
125.3122
 20
-82.7087
 30
0.0
 10
125.8433
 20
-83.6288
 30
0.0
 10
125.5134
 20
-85.0002
 30
0.0
 10
124.4464
 20
-85.5412
 30
0.0
 10
124.4464
 20
-85.5412
 30
0.0
 10
121.8786
 20
-86.8431
 30
0.0
 10
118.224
 20
-87.0599
 30
0.0
 10
116.5353
 20
-88.7688
 30
0.0
 10
116.5353
 20
-88.7688
 30
0.0
 10
116.7661
 20
-89.1776
 30
0.0
 10
116.857
 20
-89.7188
 30
0.0
 10
116.8619
 20
-90.2473
 30
0.0
 10
116.8619
 20
-90.2473
 30
0.0
 10
116.8619
 20
-90.2473
 30
0.0
 10
107.7829
 20
-90.3021
 30
0.0
 10
107.7829
 20
-90.3021
 30
0.0
  0
SPLINE
  5
69
330
1F
100
AcDbEntity
  8
layer 1
 62
     7
100
AcDbSpline
210
0.0
220
0.0
230
1.0
 70
    11
 71
     3
 72
    44
 73
    40
 74
     0
 42
0.0000000001
 43
0.0000000001
 12
1.0
 22
0.0
 32
0.0
 13
1.0
 23
0.0
 33
0.0
 40
0.0
 40
0.0
 40
0.0
 40
0.0
 40
0.0909090909090909
 40
0.0909090909090909
 40
0.0909090909090909
 40
0.0909090909090909
 40
0.1818181818181818
 40
0.1818181818181818
 40
0.1818181818181818
 40
0.1818181818181818
 40
0.2727272727272727
 40
0.2727272727272727
 40
0.2727272727272727
 40
0.2727272727272727
 40
0.3636363636363636
 40
0.3636363636363636
 40
0.3636363636363636
 40
0.3636363636363636
 40
0.4545454545454545
 40
0.4545454545454545
 40
0.4545454545454545
 40
0.4545454545454545
 40
0.5454545454545454
 40
0.5454545454545454
 40
0.5454545454545454
 40
0.5454545454545454
 40
0.6363636363636364
 40
0.6363636363636364
 40
0.6363636363636364
 40
0.6363636363636364
 40
0.7272727272727273
 40
0.7272727272727273
 40
0.7272727272727273
 40
0.7272727272727273
 40
0.8181818181818182
 40
0.8181818181818182
 40
0.8181818181818182
 40
0.8181818181818182
 40
1.0
 40
1.0
 40
1.0
 40
1.0
 10
86.7563
 20
-85.9317
 30
0.0
 10
87.1886
 20
-85.9356
 30
0.0
 10
87.3795
 20
-85.9902
 30
0.0
 10
87.7075
 20
-86.1117
 30
0.0
 10
87.7075
 20
-86.1117
 30
0.0
 10
89.4163
 20
-84.423
 30
0.0
 10
89.6331
 20
-80.7684
 30
0.0
 10
90.9351
 20
-78.2006
 30
0.0
 10
90.9351
 20
-78.2006
 30
0.0
 10
91.476
 20
-77.1336
 30
0.0
 10
92.8475
 20
-76.8037
 30
0.0
 10
93.7675
 20
-77.3349
 30
0.0
 10
93.7675
 20
-77.3349
 30
0.0
 10
94.6875
 20
-77.866
 30
0.0
 10
95.0876
 20
-79.2188
 30
0.0
 10
94.434
 20
-80.2206
 30
0.0
 10
94.434
 20
-80.2206
 30
0.0
 10
92.8611
 20
-82.6321
 30
0.0
 10
89.8046
 20
-84.6472
 30
0.0
 10
89.1965
 20
-86.9714
 30
0.0
 10
89.1965
 20
-86.9714
 30
0.0
 10
90.0051
 20
-87.4487
 30
0.0
 10
90.5941
 20
-88.664
 30
0.0
 10
90.7558
 20
-89.3986
 30
0.0
 10
90.7558
 20
-89.3986
 30
0.0
 10
93.0725
 20
-90.0341
 30
0.0
 10
96.3461
 20
-88.3947
 30
0.0
 10
99.2208
 20
-88.2382
 30
0.0
 10
99.2208
 20
-88.2382
 30
0.0
 10
100.4152
 20
-88.1731
 30
0.0
 10
101.3868
 20
-89.1959
 30
0.0
 10
101.3868
 20
-90.2583
 30
0.0
 10
101.3868
 20
-90.2583
 30
0.0
 10
101.3868
 20
-90.2583
 30
0.0
 10
86.746
 20
-90.2927
 30
0.0
 10
86.746
 20
-90.2927
 30
0.0
 10
86.746
 20
-90.2927
 30
0.0
 10
86.746
 20
-90.2927
 30
0.0
 10
86.7563
 20
-85.9317
 30
0.0
 10
86.7563
 20
-85.9317
 30
0.0
  0
SPLINE
  5
6A
330
1F
100
AcDbEntity
  8
layer 1
 62
     7
100
AcDbSpline
210
0.0
220
0.0
230
1.0
 70
    11
 71
     3
 72
    68
 73
    64
 74
     0
 42
0.0000000001
 43
0.0000000001
 12
1.0
 22
0.0
 32
0.0
 13
1.0
 23
0.0
 33
0.0
 40
0.0
 40
0.0
 40
0.0
 40
0.0
 40
0.0588235294117647
 40
0.0588235294117647
 40
0.0588235294117647
 40
0.0588235294117647
 40
0.1176470588235294
 40
0.1176470588235294
 40
0.1176470588235294
 40
0.1176470588235294
 40
0.1764705882352941
 40
0.1764705882352941
 40
0.1764705882352941
 40
0.1764705882352941
 40
0.2352941176470588
 40
0.2352941176470588
 40
0.2352941176470588
 40
0.2352941176470588
 40
0.2941176470588235
 40
0.2941176470588235
 40
0.2941176470588235
 40
0.2941176470588235
 40
0.3529411764705883
 40
0.3529411764705883
 40
0.3529411764705883
 40
0.3529411764705883
 40
0.4117647058823529
 40
0.4117647058823529
 40
0.4117647058823529
 40
0.4117647058823529
 40
0.4705882352941176
 40
0.4705882352941176
 40
0.4705882352941176
 40
0.4705882352941176
 40
0.5294117647058824
 40
0.5294117647058824
 40
0.5294117647058824
 40
0.5294117647058824
 40
0.5882352941176471
 40
0.5882352941176471
 40
0.5882352941176471
 40
0.5882352941176471
 40
0.6470588235294118
 40
0.6470588235294118
 40
0.6470588235294118
 40
0.6470588235294118
 40
0.7058823529411765
 40
0.7058823529411765
 40
0.7058823529411765
 40
0.7058823529411765
 40
0.7647058823529411
 40
0.7647058823529411
 40
0.7647058823529411
 40
0.7647058823529411
 40
0.8235294117647058
 40
0.8235294117647058
 40
0.8235294117647058
 40
0.8235294117647058
 40
0.8823529411764706
 40
0.8823529411764706
 40
0.8823529411764706
 40
0.8823529411764706
 40
1.0
 40
1.0
 40
1.0
 40
1.0
 10
123.019
 20
113.4708
 30
0.0
 10
123.019
 20
112.4226
 30
0.0
 10
123.6986
 20
111.6859
 30
0.0
 10
125.0996
 20
111.762
 30
0.0
 10
125.0996
 20
111.762
 30
0.0
 10
127.9744
 20
111.9184
 30
0.0
 10
131.2479
 20
113.5579
 30
0.0
 10
133.5647
 20
112.9225
 30
0.0
 10
133.5647
 20
112.9225
 30
0.0
 10
133.718
 20
112.0232
 30
0.0
 10
134.2997
 20
110.8109
 30
0.0
 10
135.0992
 20
110.1896
 30
0.0
 10
135.0992
 20
110.1896
 30
0.0
 10
134.4911
 20
107.8654
 30
0.0
 10
131.4346
 20
105.8502
 30
0.0
 10
129.8618
 20
103.4388
 30
0.0
 10
129.8618
 20
103.4388
 30
0.0
 10
129.2083
 20
102.4369
 30
0.0
 10
129.6082
 20
101.0842
 30
0.0
 10
130.5283
 20
100.553
 30
0.0
 10
130.5283
 20
100.553
 30
0.0
 10
131.4483
 20
100.0219
 30
0.0
 10
132.8198
 20
100.3518
 30
0.0
 10
133.3607
 20
101.4187
 30
0.0
 10
133.3607
 20
101.4187
 30
0.0
 10
134.6626
 20
103.9866
 30
0.0
 10
134.8795
 20
107.6412
 30
0.0
 10
136.5883
 20
109.3299
 30
0.0
 10
136.5883
 20
109.3299
 30
0.0
 10
137.5106
 20
109.0119
 30
0.0
 10
138.6775
 20
108.9756
 30
0.0
 10
139.4273
 20
109.2534
 30
0.0
 10
139.4273
 20
109.2534
 30
0.0
 10
141.1361
 20
107.5646
 30
0.0
 10
141.3529
 20
103.9101
 30
0.0
 10
142.6549
 20
101.3422
 30
0.0
 10
142.6549
 20
101.3422
 30
0.0
 10
143.1958
 20
100.2753
 30
0.0
 10
144.5673
 20
99.9454
 30
0.0
 10
145.4873
 20
100.4765
 30
0.0
 10
145.4873
 20
100.4765
 30
0.0
 10
146.4073
 20
101.0077
 30
0.0
 10
146.8074
 20
102.3604
 30
0.0
 10
146.1538
 20
103.3623
 30
0.0
 10
146.1538
 20
103.3623
 30
0.0
 10
144.581
 20
105.7737
 30
0.0
 10
141.5244
 20
107.7889
 30
0.0
 10
140.9163
 20
110.1131
 30
0.0
 10
140.9163
 20
110.1131
 30
0.0
 10
141.7249
 20
110.5903
 30
0.0
 10
142.3139
 20
111.8057
 30
0.0
 10
142.4756
 20
112.5403
 30
0.0
 10
142.4756
 20
112.5403
 30
0.0
 10
144.7924
 20
113.1758
 30
0.0
 10
148.0659
 20
111.5363
 30
0.0
 10
150.9406
 20
111.3798
 30
0.0
 10
150.9406
 20
111.3798
 30
0.0
 10
152.135
 20
111.3147
 30
0.0
 10
153.1066
 20
112.3375
 30
0.0
 10
153.1066
 20
113.4
 30
0.0
 10
153.1066
 20
113.4
 30
0.0
 10
153.1066
 20
113.4
 30
0.0
 10
123.019
 20
113.4708
 30
0.0
 10
123.019
 20
113.4708
 30
0.0
  0
SPLINE
  5
6B
330
1F
100
AcDbEntity
  8
layer 1
 62
     7
100
AcDbSpline
210
0.0
220
0.0
230
1.0
 70
    11
 71
     3
 72
    72
 73
    68
 74
     0
 42
0.0000000001
 43
0.0000000001
 12
1.0
 22
0.0
 32
0.0
 13
1.0
 23
0.0
 33
0.0
 40
0.0
 40
0.0
 40
0.0
 40
0.0
 40
0.0555555555555556
 40
0.0555555555555556
 40
0.0555555555555556
 40
0.0555555555555556
 40
0.1111111111111111
 40
0.1111111111111111
 40
0.1111111111111111
 40
0.1111111111111111
 40
0.1666666666666667
 40
0.1666666666666667
 40
0.1666666666666667
 40
0.1666666666666667
 40
0.2222222222222222
 40
0.2222222222222222
 40
0.2222222222222222
 40
0.2222222222222222
 40
0.2777777777777778
 40
0.2777777777777778
 40
0.2777777777777778
 40
0.2777777777777778
 40
0.3333333333333333
 40
0.3333333333333333
 40
0.3333333333333333
 40
0.3333333333333333
 40
0.3888888888888889
 40
0.3888888888888889
 40
0.3888888888888889
 40
0.3888888888888889
 40
0.4444444444444444
 40
0.4444444444444444
 40
0.4444444444444444
 40
0.4444444444444444
 40
0.5
 40
0.5
 40
0.5
 40
0.5
 40
0.5555555555555556
 40
0.5555555555555556
 40
0.5555555555555556
 40
0.5555555555555556
 40
0.6111111111111112
 40
0.6111111111111112
 40
0.6111111111111112
 40
0.6111111111111112
 40
0.6666666666666666
 40
0.6666666666666666
 40
0.6666666666666666
 40
0.6666666666666666
 40
0.7222222222222222
 40
0.7222222222222222
 40
0.7222222222222222
 40
0.7222222222222222
 40
0.7777777777777778
 40
0.7777777777777778
 40
0.7777777777777778
 40
0.7777777777777778
 40
0.8333333333333334
 40
0.8333333333333334
 40
0.8333333333333334
 40
0.8333333333333334
 40
0.8888888888888888
 40
0.8888888888888888
 40
0.8888888888888888
 40
0.8888888888888888
 40
1.0
 40
1.0
 40
1.0
 40
1.0
 10
159.1312
 20
113.4437
 30
0.0
 10
159.0985
 20
112.9867
 30
0.0
 10
159.138
 20
112.5402
 30
0.0
 10
159.2525
 20
112.1567
 30
0.0
 10
159.2525
 20
112.1567
 30
0.0
 10
157.5638
 20
110.4479
 30
0.0
 10
153.9092
 20
110.2311
 30
0.0
 10
151.3414
 20
108.9291
 30
0.0
 10
151.3414
 20
108.9291
 30
0.0
 10
150.2744
 20
108.3882
 30
0.0
 10
149.9445
 20
107.0167
 30
0.0
 10
150.4757
 20
106.0967
 30
0.0
 10
150.4757
 20
106.0967
 30
0.0
 10
151.0068
 20
105.1767
 30
0.0
 10
152.3596
 20
104.7766
 30
0.0
 10
153.3614
 20
105.4302
 30
0.0
 10
153.3614
 20
105.4302
 30
0.0
 10
155.7729
 20
107.003
 30
0.0
 10
157.788
 20
110.0596
 30
0.0
 10
160.1122
 20
110.6677
 30
0.0
 10
160.1122
 20
110.6677
 30
0.0
 10
160.6946
 20
109.9656
 30
0.0
 10
161.8046
 20
109.2066
 30
0.0
 10
162.8075
 20
109.0682
 30
0.0
 10
162.8075
 20
109.0682
 30
0.0
 10
163.443
 20
106.7514
 30
0.0
 10
161.8036
 20
103.4779
 30
0.0
 10
161.647
 20
100.6032
 30
0.0
 10
161.647
 20
100.6032
 30
0.0
 10
161.582
 20
99.4087
 30
0.0
 10
162.6048
 20
98.4372
 30
0.0
 10
163.6672
 20
98.4372
 30
0.0
 10
163.6672
 20
98.4372
 30
0.0
 10
164.7296
 20
98.4372
 30
0.0
 10
165.7524
 20
99.4087
 30
0.0
 10
165.6874
 20
100.6032
 30
0.0
 10
165.6874
 20
100.6032
 30
0.0
 10
165.5311
 20
103.4779
 30
0.0
 10
163.8915
 20
106.7514
 30
0.0
 10
164.527
 20
109.0682
 30
0.0
 10
164.527
 20
109.0682
 30
0.0
 10
165.4847
 20
109.2541
 30
0.0
 10
166.5134
 20
109.806
 30
0.0
 10
167.0239
 20
110.4214
 30
0.0
 10
167.0239
 20
110.4214
 30
0.0
 10
169.348
 20
109.8133
 30
0.0
 10
171.3632
 20
106.7567
 30
0.0
 10
173.7746
 20
105.1839
 30
0.0
 10
173.7746
 20
105.1839
 30
0.0
 10
174.7765
 20
104.5304
 30
0.0
 10
176.1293
 20
104.9304
 30
0.0
 10
176.6604
 20
105.8504
 30
0.0
 10
176.6604
 20
105.8504
 30
0.0
 10
177.1916
 20
106.7704
 30
0.0
 10
176.8616
 20
108.1419
 30
0.0
 10
175.7947
 20
108.6828
 30
0.0
 10
175.7947
 20
108.6828
 30
0.0
 10
173.2269
 20
109.9847
 30
0.0
 10
169.5723
 20
110.2016
 30
0.0
 10
167.8836
 20
111.9104
 30
0.0
 10
167.8836
 20
111.9104
 30
0.0
 10
168.1144
 20
112.3193
 30
0.0
 10
168.2053
 20
112.8605
 30
0.0
 10
168.2102
 20
113.389
 30
0.0
 10
168.2102
 20
113.389
 30
0.0
 10
168.2102
 20
113.389
 30
0.0
 10
159.1312
 20
113.4437
 30
0.0
 10
159.1312
 20
113.4437
 30
0.0
  0
SPLINE
  5
6C
330
1F
100
AcDbEntity
  8
layer 1
 62
     7
100
AcDbSpline
210
0.0
220
0.0
230
1.0
 70
    11
 71
     3
 72
    44
 73
    40
 74
     0
 42
0.0000000001
 43
0.0000000001
 12
1.0
 22
0.0
 32
0.0
 13
1.0
 23
0.0
 33
0.0
 40
0.0
 40
0.0
 40
0.0
 40
0.0
 40
0.0909090909090909
 40
0.0909090909090909
 40
0.0909090909090909
 40
0.0909090909090909
 40
0.1818181818181818
 40
0.1818181818181818
 40
0.1818181818181818
 40
0.1818181818181818
 40
0.2727272727272727
 40
0.2727272727272727
 40
0.2727272727272727
 40
0.2727272727272727
 40
0.3636363636363636
 40
0.3636363636363636
 40
0.3636363636363636
 40
0.3636363636363636
 40
0.4545454545454545
 40
0.4545454545454545
 40
0.4545454545454545
 40
0.4545454545454545
 40
0.5454545454545454
 40
0.5454545454545454
 40
0.5454545454545454
 40
0.5454545454545454
 40
0.6363636363636364
 40
0.6363636363636364
 40
0.6363636363636364
 40
0.6363636363636364
 40
0.7272727272727273
 40
0.7272727272727273
 40
0.7272727272727273
 40
0.7272727272727273
 40
0.8181818181818182
 40
0.8181818181818182
 40
0.8181818181818182
 40
0.8181818181818182
 40
1.0
 40
1.0
 40
1.0
 40
1.0
 10
188.6798
 20
109.0716
 30
0.0
 10
188.3162
 20
109.089
 30
0.0
 10
187.9763
 20
109.1493
 30
0.0
 10
187.6952
 20
109.2534
 30
0.0
 10
187.6952
 20
109.2534
 30
0.0
 10
185.9864
 20
107.5646
 30
0.0
 10
185.7696
 20
103.9101
 30
0.0
 10
184.4677
 20
101.3422
 30
0.0
 10
184.4677
 20
101.3422
 30
0.0
 10
183.9267
 20
100.2753
 30
0.0
 10
182.5553
 20
99.9454
 30
0.0
 10
181.6352
 20
100.4765
 30
0.0
 10
181.6352
 20
100.4765
 30
0.0
 10
180.7152
 20
101.0077
 30
0.0
 10
180.3151
 20
102.3604
 30
0.0
 10
180.9688
 20
103.3623
 30
0.0
 10
180.9688
 20
103.3623
 30
0.0
 10
182.5416
 20
105.7737
 30
0.0
 10
185.5981
 20
107.7889
 30
0.0
 10
186.2062
 20
110.1131
 30
0.0
 10
186.2062
 20
110.1131
 30
0.0
 10
185.3976
 20
110.5903
 30
0.0
 10
184.8086
 20
111.8057
 30
0.0
 10
184.6469
 20
112.5403
 30
0.0
 10
184.6469
 20
112.5403
 30
0.0
 10
182.3302
 20
113.1758
 30
0.0
 10
179.0566
 20
111.5363
 30
0.0
 10
176.1819
 20
111.3798
 30
0.0
 10
176.1819
 20
111.3798
 30
0.0
 10
174.9875
 20
111.3147
 30
0.0
 10
174.0159
 20
112.3375
 30
0.0
 10
174.0159
 20
113.4
 30
0.0
 10
174.0159
 20
113.4
 30
0.0
 10
174.0159
 20
113.4
 30
0.0
 10
188.7313
 20
113.4052
 30
0.0
 10
188.7313
 20
113.4052
 30
0.0
 10
188.7313
 20
113.4052
 30
0.0
 10
188.7313
 20
113.4052
 30
0.0
 10
188.6798
 20
109.0716
 30
0.0
 10
188.6798
 20
109.0716
 30
0.0
  0
SPLINE
  5
6D
330
1F
100
AcDbEntity
  8
layer 1
 62
     7
100
AcDbSpline
210
0.0
220
0.0
230
1.0
 70
    11
 71
     3
 72
    72
 73
    68
 74
     0
 42
0.0000000001
 43
0.0000000001
 12
1.0
 22
0.0
 32
0.0
 13
1.0
 23
0.0
 33
0.0
 40
0.0
 40
0.0
 40
0.0
 40
0.0
 40
0.0555555555555556
 40
0.0555555555555556
 40
0.0555555555555556
 40
0.0555555555555556
 40
0.1111111111111111
 40
0.1111111111111111
 40
0.1111111111111111
 40
0.1111111111111111
 40
0.1666666666666667
 40
0.1666666666666667
 40
0.1666666666666667
 40
0.1666666666666667
 40
0.2222222222222222
 40
0.2222222222222222
 40
0.2222222222222222
 40
0.2222222222222222
 40
0.2777777777777778
 40
0.2777777777777778
 40
0.2777777777777778
 40
0.2777777777777778
 40
0.3333333333333333
 40
0.3333333333333333
 40
0.3333333333333333
 40
0.3333333333333333
 40
0.3888888888888889
 40
0.3888888888888889
 40
0.3888888888888889
 40
0.3888888888888889
 40
0.4444444444444444
 40
0.4444444444444444
 40
0.4444444444444444
 40
0.4444444444444444
 40
0.5
 40
0.5
 40
0.5
 40
0.5
 40
0.5555555555555556
 40
0.5555555555555556
 40
0.5555555555555556
 40
0.5555555555555556
 40
0.6111111111111112
 40
0.6111111111111112
 40
0.6111111111111112
 40
0.6111111111111112
 40
0.6666666666666666
 40
0.6666666666666666
 40
0.6666666666666666
 40
0.6666666666666666
 40
0.7222222222222222
 40
0.7222222222222222
 40
0.7222222222222222
 40
0.7222222222222222
 40
0.7777777777777778
 40
0.7777777777777778
 40
0.7777777777777778
 40
0.7777777777777778
 40
0.8333333333333334
 40
0.8333333333333334
 40
0.8333333333333334
 40
0.8333333333333334
 40
0.8888888888888888
 40
0.8888888888888888
 40
0.8888888888888888
 40
0.8888888888888888
 40
1.0
 40
1.0
 40
1.0
 40
1.0
 10
107.7829
 20
113.4437
 30
0.0
 10
107.7502
 20
112.9867
 30
0.0
 10
107.7898
 20
112.5402
 30
0.0
 10
107.9043
 20
112.1567
 30
0.0
 10
107.9043
 20
112.1567
 30
0.0
 10
106.2155
 20
110.4479
 30
0.0
 10
102.561
 20
110.2311
 30
0.0
 10
99.9931
 20
108.9291
 30
0.0
 10
99.9931
 20
108.9291
 30
0.0
 10
98.9262
 20
108.3882
 30
0.0
 10
98.5962
 20
107.0167
 30
0.0
 10
99.1274
 20
106.0967
 30
0.0
 10
99.1274
 20
106.0967
 30
0.0
 10
99.6586
 20
105.1767
 30
0.0
 10
101.0113
 20
104.7766
 30
0.0
 10
102.0132
 20
105.4302
 30
0.0
 10
102.0132
 20
105.4302
 30
0.0
 10
104.4246
 20
107.003
 30
0.0
 10
106.4398
 20
110.0596
 30
0.0
 10
108.764
 20
110.6677
 30
0.0
 10
108.764
 20
110.6677
 30
0.0
 10
109.3464
 20
109.9656
 30
0.0
 10
110.4563
 20
109.2066
 30
0.0
 10
111.4593
 20
109.0682
 30
0.0
 10
111.4593
 20
109.0682
 30
0.0
 10
112.0947
 20
106.7514
 30
0.0
 10
110.4553
 20
103.4779
 30
0.0
 10
110.2988
 20
100.6032
 30
0.0
 10
110.2988
 20
100.6032
 30
0.0
 10
110.2337
 20
99.4087
 30
0.0
 10
111.2565
 20
98.4372
 30
0.0
 10
112.319
 20
98.4372
 30
0.0
 10
112.319
 20
98.4372
 30
0.0
 10
113.3813
 20
98.4372
 30
0.0
 10
114.4041
 20
99.4087
 30
0.0
 10
114.3392
 20
100.6032
 30
0.0
 10
114.3392
 20
100.6032
 30
0.0
 10
114.1828
 20
103.4779
 30
0.0
 10
112.5432
 20
106.7514
 30
0.0
 10
113.1787
 20
109.0682
 30
0.0
 10
113.1787
 20
109.0682
 30
0.0
 10
114.1364
 20
109.2541
 30
0.0
 10
115.1651
 20
109.806
 30
0.0
 10
115.6756
 20
110.4214
 30
0.0
 10
115.6756
 20
110.4214
 30
0.0
 10
117.9998
 20
109.8133
 30
0.0
 10
120.0149
 20
106.7567
 30
0.0
 10
122.4264
 20
105.1839
 30
0.0
 10
122.4264
 20
105.1839
 30
0.0
 10
123.4283
 20
104.5304
 30
0.0
 10
124.781
 20
104.9304
 30
0.0
 10
125.3122
 20
105.8504
 30
0.0
 10
125.3122
 20
105.8504
 30
0.0
 10
125.8433
 20
106.7704
 30
0.0
 10
125.5134
 20
108.1419
 30
0.0
 10
124.4464
 20
108.6828
 30
0.0
 10
124.4464
 20
108.6828
 30
0.0
 10
121.8786
 20
109.9847
 30
0.0
 10
118.224
 20
110.2016
 30
0.0
 10
116.5353
 20
111.9104
 30
0.0
 10
116.5353
 20
111.9104
 30
0.0
 10
116.7661
 20
112.3193
 30
0.0
 10
116.857
 20
112.8605
 30
0.0
 10
116.8619
 20
113.389
 30
0.0
 10
116.8619
 20
113.389
 30
0.0
 10
116.8619
 20
113.389
 30
0.0
 10
107.7829
 20
113.4437
 30
0.0
 10
107.7829
 20
113.4437
 30
0.0
  0
SPLINE
  5
6E
330
1F
100
AcDbEntity
  8
layer 1
 62
     7
100
AcDbSpline
210
0.0
220
0.0
230
1.0
 70
    11
 71
     3
 72
    44
 73
    40
 74
     0
 42
0.0000000001
 43
0.0000000001
 12
1.0
 22
0.0
 32
0.0
 13
1.0
 23
0.0
 33
0.0
 40
0.0
 40
0.0
 40
0.0
 40
0.0
 40
0.0909090909090909
 40
0.0909090909090909
 40
0.0909090909090909
 40
0.0909090909090909
 40
0.1818181818181818
 40
0.1818181818181818
 40
0.1818181818181818
 40
0.1818181818181818
 40
0.2727272727272727
 40
0.2727272727272727
 40
0.2727272727272727
 40
0.2727272727272727
 40
0.3636363636363636
 40
0.3636363636363636
 40
0.3636363636363636
 40
0.3636363636363636
 40
0.4545454545454545
 40
0.4545454545454545
 40
0.4545454545454545
 40
0.4545454545454545
 40
0.5454545454545454
 40
0.5454545454545454
 40
0.5454545454545454
 40
0.5454545454545454
 40
0.6363636363636364
 40
0.6363636363636364
 40
0.6363636363636364
 40
0.6363636363636364
 40
0.7272727272727273
 40
0.7272727272727273
 40
0.7272727272727273
 40
0.7272727272727273
 40
0.8181818181818182
 40
0.8181818181818182
 40
0.8181818181818182
 40
0.8181818181818182
 40
1.0
 40
1.0
 40
1.0
 40
1.0
 10
86.7563
 20
109.0734
 30
0.0
 10
87.1886
 20
109.0773
 30
0.0
 10
87.3795
 20
109.1319
 30
0.0
 10
87.7075
 20
109.2534
 30
0.0
 10
87.7075
 20
109.2534
 30
0.0
 10
89.4163
 20
107.5646
 30
0.0
 10
89.6331
 20
103.9101
 30
0.0
 10
90.9351
 20
101.3422
 30
0.0
 10
90.9351
 20
101.3422
 30
0.0
 10
91.476
 20
100.2753
 30
0.0
 10
92.8475
 20
99.9454
 30
0.0
 10
93.7675
 20
100.4765
 30
0.0
 10
93.7675
 20
100.4765
 30
0.0
 10
94.6875
 20
101.0077
 30
0.0
 10
95.0876
 20
102.3604
 30
0.0
 10
94.434
 20
103.3623
 30
0.0
 10
94.434
 20
103.3623
 30
0.0
 10
92.8611
 20
105.7737
 30
0.0
 10
89.8046
 20
107.7889
 30
0.0
 10
89.1965
 20
110.1131
 30
0.0
 10
89.1965
 20
110.1131
 30
0.0
 10
90.0051
 20
110.5903
 30
0.0
 10
90.5941
 20
111.8057
 30
0.0
 10
90.7558
 20
112.5403
 30
0.0
 10
90.7558
 20
112.5403
 30
0.0
 10
93.0725
 20
113.1758
 30
0.0
 10
96.3461
 20
111.5363
 30
0.0
 10
99.2208
 20
111.3798
 30
0.0
 10
99.2208
 20
111.3798
 30
0.0
 10
100.4152
 20
111.3147
 30
0.0
 10
101.3868
 20
112.3375
 30
0.0
 10
101.3868
 20
113.4
 30
0.0
 10
101.3868
 20
113.4
 30
0.0
 10
101.3868
 20
113.4
 30
0.0
 10
86.746
 20
113.4344
 30
0.0
 10
86.746
 20
113.4344
 30
0.0
 10
86.746
 20
113.4344
 30
0.0
 10
86.746
 20
113.4344
 30
0.0
 10
86.7563
 20
109.0734
 30
0.0
 10
86.7563
 20
109.0734
 30
0.0
  0
ENDSEC
  0
SECTION
  2
OBJECTS
  0
DICTIONARY
  5
C
330
0
100
AcDbDictionary
281
     1
  3
ACAD_GROUP
350
D
  3
ACAD_LAYOUT
350
1A
  3
ACAD_MATERIAL
350
3B
  3
ACAD_MLEADERSTYLE
350
91
  3
ACAD_MLINESTYLE
350
17
  3
ACAD_PLOTSETTINGS
350
19
  3
ACAD_PLOTSTYLENAME
350
E
  3
ACAD_TABLESTYLE
350
90
  3
ACAD_VISUALSTYLE
350
2A
  0
DICTIONARY
  5
D
102
{ACAD_REACTORS
330
C
102
}
330
C
100
AcDbDictionary
281
     1
  0
DICTIONARY
  5
1A
102
{ACAD_REACTORS
330
C
102
}
330
C
100
AcDbDictionary
281
     1
  3
Layout1
350
1E
  3
Layout2
350
26
  3
Model
350
22
  0
DICTIONARY
  5
3B
102
{ACAD_REACTORS
330
C
102
}
330
C
100
AcDbDictionary
281
     1
  3
ByBlock
350
3D
  3
ByLayer
350
3C
  3
Global
350
3E
  0
DICTIONARY
  5
91
102
{ACAD_REACTORS
330
C
102
}
330
C
100
AcDbDictionary
281
     1
  0
DICTIONARY
  5
17
102
{ACAD_REACTORS
330
C
102
}
330
C
100
AcDbDictionary
281
     1
  3
Standard
350
18
  0
DICTIONARY
  5
19
102
{ACAD_REACTORS
330
C
102
}
330
C
100
AcDbDictionary
281
     1
  0
ACDBDICTIONARYWDFLT
  5
E
102
{ACAD_REACTORS
330
C
102
}
330
C
100
AcDbDictionary
281
     1
  3
Normal
350
F
100
AcDbDictionaryWithDefault
340
F
  0
DICTIONARY
  5
90
102
{ACAD_REACTORS
330
C
102
}
330
C
100
AcDbDictionary
281
     1
  0
DICTIONARY
  5
2A
102
{ACAD_REACTORS
330
C
102
}
330
C
100
AcDbDictionary
281
     1
  3
2dWireframe
350
2F
  3
3D Hidden
350
31
  3
3dWireframe
350
30
  3
Basic
350
32
  3
Brighten
350
36
  3
ColorChange
350
3A
  3
Conceptual
350
34
  3
Dim
350
35
  3
Facepattern
350
39
  3
Flat
350
2B
  3
FlatWithEdges
350
2C
  3
Gouraud
350
2D
  3
GouraudWithEdges
350
2E
  3
Linepattern
350
38
  3
Realistic
350
33
  3
Thicken
350
37
  0
LAYOUT
  5
1E
102
{ACAD_REACTORS
330
1A
102
}
330
1A
100
AcDbPlotSettings
  1

  2
none_device
  4

  6

 40
0.0
 41
0.0
 42
0.0
 43
0.0
 44
0.0
 45
0.0
 46
0.0
 47
0.0
 48
0.0
 49
0.0
140
0.0
141
0.0
142
1.0
143
1.0
 70
   688
 72
     0
 73
     0
 74
     5
  7

 75
    16
 76
     0
 77
     2
 78
   300
147
1.0
148
0.0
149
0.0
100
AcDbLayout
  1
Layout1
 70
     1
 71
     1
 10
0.0
 20
0.0
 11
12.0
 21
9.0
 12
0.0
 22
0.0
 32
0.0
 14
1.000000000000000E+20
 24
1.000000000000000E+20
 34
1.000000000000000E+20
 15
-1.000000000000000E+20
 25
-1.000000000000000E+20
 35
-1.000000000000000E+20
146
0.0
 13
0.0
 23
0.0
 33
0.0
 16
1.0
 26
0.0
 36
0.0
 17
0.0
 27
1.0
 37
0.0
 76
     0
330
1B
  0
LAYOUT
  5
26
102
{ACAD_REACTORS
330
1A
102
}
330
1A
100
AcDbPlotSettings
  1

  2
none_device
  4

  6

 40
0.0
 41
0.0
 42
0.0
 43
0.0
 44
0.0
 45
0.0
 46
0.0
 47
0.0
 48
0.0
 49
0.0
140
0.0
141
0.0
142
1.0
143
1.0
 70
   688
 72
     0
 73
     0
 74
     5
  7

 75
    16
 76
     0
 77
     2
 78
   300
147
1.0
148
0.0
149
0.0
100
AcDbLayout
  1
Layout2
 70
     1
 71
     2
 10
0.0
 20
0.0
 11
0.0
 21
0.0
 12
0.0
 22
0.0
 32
0.0
 14
0.0
 24
0.0
 34
0.0
 15
0.0
 25
0.0
 35
0.0
146
0.0
 13
0.0
 23
0.0
 33
0.0
 16
1.0
 26
0.0
 36
0.0
 17
0.0
 27
1.0
 37
0.0
 76
     0
330
23
  0
LAYOUT
  5
22
102
{ACAD_REACTORS
330
1A
102
}
330
1A
100
AcDbPlotSettings
  1

  2
none_device
  4

  6

 40
0.0
 41
0.0
 42
0.0
 43
0.0
 44
0.0
 45
0.0
 46
0.0
 47
0.0
 48
0.0
 49
0.0
140
0.0
141
0.0
142
1.0
143
1.0
 70
  1712
 72
     0
 73
     0
 74
     0
  7

 75
     0
 76
     0
 77
     2
 78
   300
147
1.0
148
0.0
149
0.0
100
AcDbLayout
  1
Model
 70
     1
 71
     0
 10
0.0
 20
0.0
 11
12.0
 21
9.0
 12
0.0
 22
0.0
 32
0.0
 14
78.7423
 24
-97.1798
 34
0.0
 15
196.6976
 25
120.3217
 35
0.0
146
0.0
 13
0.0
 23
0.0
 33
0.0
 16
1.0
 26
0.0
 36
0.0
 17
0.0
 27
1.0
 37
0.0
 76
     0
330
1F
331
29
  0
MATERIAL
  5
3D
102
{ACAD_REACTORS
330
3B
102
}
330
3B
100
AcDbMaterial
  1
ByBlock
 72
     1
 94
      127
  0
MATERIAL
  5
3C
102
{ACAD_REACTORS
330
3B
102
}
330
3B
100
AcDbMaterial
  1
ByLayer
 72
     1
 94
      127
  0
MATERIAL
  5
3E
102
{ACAD_REACTORS
330
3B
102
}
330
3B
100
AcDbMaterial
  1
Global
 72
     1
 94
      127
  0
MLINESTYLE
  5
18
102
{ACAD_REACTORS
330
17
102
}
330
17
100
AcDbMlineStyle
  2
Standard
 70
     0
  3

 62
   256
 51
90.0
 52
90.0
 71
     2
 49
0.5
 62
   256
  6
BYLAYER
 49
-0.5
 62
   256
  6
BYLAYER
  0
ACDBPLACEHOLDER
  5
F
102
{ACAD_REACTORS
330
E
102
}
330
E
  0
VISUALSTYLE
  5
2F
102
{ACAD_REACTORS
330
2A
102
}
102
{ACAD_XDICTIONARY
360
78
102
}
330
2A
100
AcDbVisualStyle
  2
2dWireframe
 70
     4
 71
     0
 72
     2
 73
     0
 90
        0
 40
-0.6
 41
-30.0
 62
     5
 63
     7
421
 16777215
 74
     1
 91
        4
 64
     7
 65
   257
 75
     1
175
     1
 42
1.0
 92
        0
 66
   257
 43
1.0
 76
     1
 77
     6
 78
     2
 67
     7
 79
     5
170
     0
171
     0
290
     0
174
     0
 93
        1
 44
0.0
173
     0
291
     0
 45
0.0
  0
VISUALSTYLE
  5
31
102
{ACAD_REACTORS
330
2A
102
}
102
{ACAD_XDICTIONARY
360
7C
102
}
330
2A
100
AcDbVisualStyle
  2
3D Hidden
 70
     6
 71
     1
 72
     2
 73
     2
 90
        0
 40
-0.6
 41
-30.0
 62
     5
 63
     7
421
 16777215
 74
     2
 91
        2
 64
     7
 65
   257
 75
     2
175
     1
 42
40.0
 92
        0
 66
   257
 43
1.0
 76
     1
 77
     6
 78
     2
 67
     7
 79
     3
170
     0
171
     0
290
     0
174
     0
 93
        1
 44
0.0
173
     0
291
     0
 45
0.0
  0
VISUALSTYLE
  5
30
102
{ACAD_REACTORS
330
2A
102
}
102
{ACAD_XDICTIONARY
360
7A
102
}
330
2A
100
AcDbVisualStyle
  2
3dWireframe
 70
     5
 71
     0
 72
     2
 73
     0
 90
        0
 40
-0.6
 41
-30.0
 62
     5
 63
     7
421
 16777215
 74
     1
 91
        4
 64
     7
 65
   257
 75
     1
175
     1
 42
1.0
 92
        0
 66
   257
 43
1.0
 76
     1
 77
     6
 78
     2
 67
     7
 79
     5
170
     0
171
     0
290
     0
174
     0
 93
        1
 44
0.0
173
     0
291
     0
 45
0.0
  0
VISUALSTYLE
  5
32
102
{ACAD_REACTORS
330
2A
102
}
102
{ACAD_XDICTIONARY
360
7E
102
}
330
2A
100
AcDbVisualStyle
  2
Basic
 70
     7
 71
     1
 72
     0
 73
     1
 90
        0
 40
-0.6
 41
-30.0
 62
     5
 63
     7
421
 16777215
 74
     0
 91
        4
 64
     7
 65
   257
 75
     1
175
     1
 42
1.0
 92
        8
 66
     7
 43
1.0
 76
     1
 77
     6
 78
     2
 67
     7
 79
     5
170
     0
171
     0
290
     0
174
     0
 93
        1
 44
0.0
173
     0
291
     1
 45
0.0
  0
VISUALSTYLE
  5
36
102
{ACAD_REACTORS
330
2A
102
}
102
{ACAD_XDICTIONARY
360
86
102
}
330
2A
100
AcDbVisualStyle
  2
Brighten
 70
    12
 71
     2
 72
     2
 73
     0
 90
        0
 40
-0.6
 41
-30.0
 62
     5
 63
     7
421
 16777215
 74
     1
 91
        4
 64
     7
 65
   257
 75
     1
175
     1
 42
1.0
 92
        8
 66
     7
 43
1.0
 76
     1
 77
     6
 78
     2
 67
     7
 79
     5
170
     0
171
     0
290
     0
174
     0
 93
        1
 44
50.0
173
     0
291
     1
 45
0.0
  0
VISUALSTYLE
  5
3A
102
{ACAD_REACTORS
330
2A
102
}
102
{ACAD_XDICTIONARY
360
8E
102
}
330
2A
100
AcDbVisualStyle
  2
ColorChange
 70
    16
 71
     2
 72
     2
 73
     3
 90
        0
 40
-0.6
 41
-30.0
 62
     5
 63
     8
421
  8421504
 74
     1
 91
        4
 64
     7
 65
   257
 75
     1
175
     1
 42
1.0
 92
        8
 66
     8
424
  8421504
 43
1.0
 76
     1
 77
     6
 78
     2
 67
     7
 79
     5
170
     0
171
     0
290
     0
174
     0
 93
        1
 44
0.0
173
     0
291
     1
 45
0.0
  0
VISUALSTYLE
  5
34
102
{ACAD_REACTORS
330
2A
102
}
102
{ACAD_XDICTIONARY
360
82
102
}
330
2A
100
AcDbVisualStyle
  2
Conceptual
 70
     9
 71
     3
 72
     2
 73
     0
 90
        0
 40
-0.6
 41
-30.0
 62
     5
 63
     7
421
 16777215
 74
     2
 91
        2
 64
     7
 65
   257
 75
     1
175
     1
 42
40.0
 92
        8
 66
     7
 43
1.0
 76
     1
 77
     6
 78
     2
 67
     7
 79
     3
170
     0
171
     0
290
     0
174
     0
 93
        1
 44
0.0
173
     0
291
     0
 45
0.0
  0
VISUALSTYLE
  5
35
102
{ACAD_REACTORS
330
2A
102
}
102
{ACAD_XDICTIONARY
360
84
102
}
330
2A
100
AcDbVisualStyle
  2
Dim
 70
    11
 71
     2
 72
     2
 73
     0
 90
        0
 40
-0.6
 41
-30.0
 62
     5
 63
     7
421
 16777215
 74
     1
 91
        4
 64
     7
 65
   257
 75
     1
175
     1
 42
1.0
 92
        8
 66
     7
 43
1.0
 76
     1
 77
     6
 78
     2
 67
     7
 79
     5
170
     0
171
     0
290
     0
174
     0
 93
        1
 44
-50.0
173
     0
291
     1
 45
0.0
  0
VISUALSTYLE
  5
39
102
{ACAD_REACTORS
330
2A
102
}
102
{ACAD_XDICTIONARY
360
8C
102
}
330
2A
100
AcDbVisualStyle
  2
Facepattern
 70
    15
 71
     2
 72
     2
 73
     0
 90
        0
 40
-0.6
 41
-30.0
 62
     5
 63
     7
421
 16777215
 74
     1
 91
        4
 64
     7
 65
   257
 75
     1
175
     1
 42
1.0
 92
        8
 66
     7
 43
1.0
 76
     1
 77
     6
 78
     2
 67
     7
 79
     5
170
     0
171
     0
290
     0
174
     0
 93
        1
 44
0.0
173
     0
291
     1
 45
0.0
  0
VISUALSTYLE
  5
2B
102
{ACAD_REACTORS
330
2A
102
}
102
{ACAD_XDICTIONARY
360
70
102
}
330
2A
100
AcDbVisualStyle
  2
Flat
 70
     0
 71
     2
 72
     1
 73
     1
 90
        2
 40
-0.6
 41
30.0
 62
     5
 63
     7
421
 16777215
 74
     0
 91
        4
 64
     7
 65
   257
 75
     1
175
     1
 42
1.0
 92
        8
 66
     7
 43
1.0
 76
     1
 77
     6
 78
     2
 67
     7
 79
     5
170
     0
171
     0
290
     0
174
     0
 93
       13
 44
0.0
173
     0
291
     1
 45
0.0
  0
VISUALSTYLE
  5
2C
102
{ACAD_REACTORS
330
2A
102
}
102
{ACAD_XDICTIONARY
360
72
102
}
330
2A
100
AcDbVisualStyle
  2
FlatWithEdges
 70
     1
 71
     2
 72
     1
 73
     1
 90
        2
 40
-0.6
 41
30.0
 62
     5
 63
     7
421
 16777215
 74
     1
 91
        4
 64
     7
 65
   257
 75
     1
175
     1
 42
1.0
 92
        0
 66
   257
 43
1.0
 76
     1
 77
     6
 78
     2
 67
     7
 79
     5
170
     0
171
     0
290
     0
174
     0
 93
       13
 44
0.0
173
     0
291
     1
 45
0.0
  0
VISUALSTYLE
  5
2D
102
{ACAD_REACTORS
330
2A
102
}
102
{ACAD_XDICTIONARY
360
74
102
}
330
2A
100
AcDbVisualStyle
  2
Gouraud
 70
     2
 71
     2
 72
     2
 73
     1
 90
        2
 40
-0.6
 41
30.0
 62
     5
 63
     7
421
 16777215
 74
     0
 91
        4
 64
     7
 65
   257
 75
     1
175
     1
 42
1.0
 92
        0
 66
     7
 43
1.0
 76
     1
 77
     6
 78
     2
 67
     7
 79
     5
170
     0
171
     0
290
     0
174
     0
 93
       13
 44
0.0
173
     0
291
     1
 45
0.0
  0
VISUALSTYLE
  5
2E
102
{ACAD_REACTORS
330
2A
102
}
102
{ACAD_XDICTIONARY
360
76
102
}
330
2A
100
AcDbVisualStyle
  2
GouraudWithEdges
 70
     3
 71
     2
 72
     2
 73
     1
 90
        2
 40
-0.6
 41
30.0
 62
     5
 63
     7
421
 16777215
 74
     1
 91
        4
 64
     7
 65
   257
 75
     1
175
     1
 42
1.0
 92
        0
 66
   257
 43
1.0
 76
     1
 77
     6
 78
     2
 67
     7
 79
     5
170
     0
171
     0
290
     0
174
     0
 93
       13
 44
0.0
173
     0
291
     1
 45
0.0
  0
VISUALSTYLE
  5
38
102
{ACAD_REACTORS
330
2A
102
}
102
{ACAD_XDICTIONARY
360
8A
102
}
330
2A
100
AcDbVisualStyle
  2
Linepattern
 70
    14
 71
     2
 72
     2
 73
     0
 90
        0
 40
-0.6
 41
-30.0
 62
     5
 63
     7
421
 16777215
 74
     1
 91
        4
 64
     7
 65
   257
 75
     7
175
     7
 42
1.0
 92
        8
 66
     7
 43
1.0
 76
     1
 77
     6
 78
     2
 67
     7
 79
     5
170
     0
171
     0
290
     0
174
     0
 93
        1
 44
0.0
173
     0
291
     1
 45
0.0
  0
VISUALSTYLE
  5
33
102
{ACAD_REACTORS
330
2A
102
}
102
{ACAD_XDICTIONARY
360
80
102
}
330
2A
100
AcDbVisualStyle
  2
Realistic
 70
     8
 71
     2
 72
     2
 73
     0
 90
        0
 40
-0.6
 41
-30.0
 62
     5
 63
     7
421
 16777215
 74
     1
 91
        0
 64
     7
 65
   257
 75
     1
175
     1
 42
1.0
 92
        8
 66
     8
424
  7895160
 43
1.0
 76
     1
 77
     6
 78
     2
 67
     7
 79
     5
170
     0
171
     0
290
     0
174
     0
 93
       13
 44
0.0
173
     0
291
     0
 45
0.0
  0
VISUALSTYLE
  5
37
102
{ACAD_REACTORS
330
2A
102
}
102
{ACAD_XDICTIONARY
360
88
102
}
330
2A
100
AcDbVisualStyle
  2
Thicken
 70
    13
 71
     2
 72
     2
 73
     0
 90
        0
 40
-0.6
 41
-30.0
 62
     5
 63
     7
421
 16777215
 74
     1
 91
        4
 64
     7
 65
   257
 75
     1
175
     1
 42
1.0
 92
       12
 66
     7
 43
1.0
 76
     1
 77
     6
 78
     2
 67
     7
 79
     5
170
     0
171
     0
290
     0
174
     0
 93
        1
 44
0.0
173
     0
291
     1
 45
0.0
  0
DICTIONARY
  5
78
330
2F
100
AcDbDictionary
280
     1
281
     1
  3
ACAD_XREC_ROUNDTRIP
360
79
  0
DICTIONARY
  5
7C
330
31
100
AcDbDictionary
280
     1
281
     1
  3
ACAD_XREC_ROUNDTRIP
360
7D
  0
DICTIONARY
  5
7A
330
30
100
AcDbDictionary
280
     1
281
     1
  3
ACAD_XREC_ROUNDTRIP
360
7B
  0
DICTIONARY
  5
7E
330
32
100
AcDbDictionary
280
     1
281
     1
  3
ACAD_XREC_ROUNDTRIP
360
7F
  0
DICTIONARY
  5
86
330
36
100
AcDbDictionary
280
     1
281
     1
  3
ACAD_XREC_ROUNDTRIP
360
87
  0
DICTIONARY
  5
8E
330
3A
100
AcDbDictionary
280
     1
281
     1
  3
ACAD_XREC_ROUNDTRIP
360
8F
  0
DICTIONARY
  5
82
330
34
100
AcDbDictionary
280
     1
281
     1
  3
ACAD_XREC_ROUNDTRIP
360
83
  0
DICTIONARY
  5
84
330
35
100
AcDbDictionary
280
     1
281
     1
  3
ACAD_XREC_ROUNDTRIP
360
85
  0
DICTIONARY
  5
8C
330
39
100
AcDbDictionary
280
     1
281
     1
  3
ACAD_XREC_ROUNDTRIP
360
8D
  0
DICTIONARY
  5
70
330
2B
100
AcDbDictionary
280
     1
281
     1
  3
ACAD_XREC_ROUNDTRIP
360
71
  0
DICTIONARY
  5
72
330
2C
100
AcDbDictionary
280
     1
281
     1
  3
ACAD_XREC_ROUNDTRIP
360
73
  0
DICTIONARY
  5
74
330
2D
100
AcDbDictionary
280
     1
281
     1
  3
ACAD_XREC_ROUNDTRIP
360
75
  0
DICTIONARY
  5
76
330
2E
100
AcDbDictionary
280
     1
281
     1
  3
ACAD_XREC_ROUNDTRIP
360
77
  0
DICTIONARY
  5
8A
330
38
100
AcDbDictionary
280
     1
281
     1
  3
ACAD_XREC_ROUNDTRIP
360
8B
  0
DICTIONARY
  5
80
330
33
100
AcDbDictionary
280
     1
281
     1
  3
ACAD_XREC_ROUNDTRIP
360
81
  0
DICTIONARY
  5
88
330
37
100
AcDbDictionary
280
     1
281
     1
  3
ACAD_XREC_ROUNDTRIP
360
89
  0
XRECORD
  5
79
102
{ACAD_REACTORS
330
78
102
}
330
78
100
AcDbXrecord
280
     1
102
RTVSPropertyOp0
 70
     1
102
RTVSPropertyOp1
 70
     1
102
RTVSPropertyOp2
 70
     1
102
RTVSPropertyOp3
 70
     1
102
RTVSPropertyOp4
 70
     1
102
RTVSPropertyOp5
 70
     1
102
RTVSPropertyOp6
 70
     1
102
RTVSPropertyOp7
 70
     1
102
RTVSPropertyOp8
 70
     1
102
RTVSPropertyOp9
 70
     1
102
RTVSPropertyOp10
 70
     1
102
RTVSPropertyOp11
 70
     1
102
RTVSPropertyOp12
 70
     1
102
RTVSPropertyOp13
 70
     1
102
RTVSPropertyOp14
 70
     1
102
RTVSPropertyOp15
 70
     1
102
RTVSPropertyOp16
 70
     1
102
RTVSPropertyOp17
 70
     1
102
RTVSPropertyOp18
 70
     1
102
RTVSPropertyOp19
 70
     1
102
RTVSPropertyOp20
 70
     1
102
RTVSPropertyOp21
 70
     1
102
RTVSPropertyOp22
 70
     1
102
RTVSPropertyOp23
 70
     1
102
RTVSPropertyOp24
 70
     1
102
RTVSPropertyOp25
 70
     1
102
RTVSPropertyOp26
 70
     1
102
RTVSPropertyOp27
 70
     1
102
RTVSPropertyOp28
 70
     1
102
RTVSPropertyOp29
 70
     1
102
RTVSPropertyOp30
 70
     1
102
RTVSPropertyOp31
 70
     1
102
RTVSPropertyOp32
 70
     1
  0
XRECORD
  5
7D
102
{ACAD_REACTORS
330
7C
102
}
330
7C
100
AcDbXrecord
280
     1
102
RTVSPropertyOp0
 70
     1
102
RTVSPropertyOp1
 70
     1
102
RTVSPropertyOp2
 70
     1
102
RTVSPropertyOp3
 70
     1
102
RTVSPropertyOp4
 70
     1
102
RTVSPropertyOp5
 70
     1
102
RTVSPropertyOp6
 70
     1
102
RTVSPropertyOp7
 70
     1
102
RTVSPropertyOp8
 70
     1
102
RTVSPropertyOp9
 70
     1
102
RTVSPropertyOp10
 70
     1
102
RTVSPropertyOp11
 70
     1
102
RTVSPropertyOp12
 70
     1
102
RTVSPropertyOp13
 70
     1
102
RTVSPropertyOp14
 70
     1
102
RTVSPropertyOp15
 70
     1
102
RTVSPropertyOp16
 70
     1
102
RTVSPropertyOp17
 70
     1
102
RTVSPropertyOp18
 70
     1
102
RTVSPropertyOp19
 70
     1
102
RTVSPropertyOp20
 70
     1
102
RTVSPropertyOp21
 70
     1
102
RTVSPropertyOp22
 70
     1
102
RTVSPropertyOp23
 70
     1
102
RTVSPropertyOp24
 70
     1
102
RTVSPropertyOp25
 70
     1
102
RTVSPropertyOp26
 70
     1
102
RTVSPropertyOp27
 70
     1
102
RTVSPropertyOp28
 70
     1
102
RTVSPropertyOp29
 70
     1
102
RTVSPropertyOp30
 70
     1
102
RTVSPropertyOp31
 70
     1
102
RTVSPropertyOp32
 70
     1
  0
XRECORD
  5
7B
102
{ACAD_REACTORS
330
7A
102
}
330
7A
100
AcDbXrecord
280
     1
102
RTVSPropertyOp0
 70
     1
102
RTVSPropertyOp1
 70
     1
102
RTVSPropertyOp2
 70
     1
102
RTVSPropertyOp3
 70
     1
102
RTVSPropertyOp4
 70
     1
102
RTVSPropertyOp5
 70
     1
102
RTVSPropertyOp6
 70
     1
102
RTVSPropertyOp7
 70
     1
102
RTVSPropertyOp8
 70
     1
102
RTVSPropertyOp9
 70
     1
102
RTVSPropertyOp10
 70
     1
102
RTVSPropertyOp11
 70
     1
102
RTVSPropertyOp12
 70
     1
102
RTVSPropertyOp13
 70
     1
102
RTVSPropertyOp14
 70
     1
102
RTVSPropertyOp15
 70
     1
102
RTVSPropertyOp16
 70
     1
102
RTVSPropertyOp17
 70
     1
102
RTVSPropertyOp18
 70
     1
102
RTVSPropertyOp19
 70
     1
102
RTVSPropertyOp20
 70
     1
102
RTVSPropertyOp21
 70
     1
102
RTVSPropertyOp22
 70
     1
102
RTVSPropertyOp23
 70
     1
102
RTVSPropertyOp24
 70
     1
102
RTVSPropertyOp25
 70
     1
102
RTVSPropertyOp26
 70
     1
102
RTVSPropertyOp27
 70
     1
102
RTVSPropertyOp28
 70
     1
102
RTVSPropertyOp29
 70
     1
102
RTVSPropertyOp30
 70
     1
102
RTVSPropertyOp31
 70
     1
102
RTVSPropertyOp32
 70
     1
  0
XRECORD
  5
7F
102
{ACAD_REACTORS
330
7E
102
}
330
7E
100
AcDbXrecord
280
     1
102
RTVSPropertyOp0
 70
     1
102
RTVSPropertyOp1
 70
     1
102
RTVSPropertyOp2
 70
     1
102
RTVSPropertyOp3
 70
     1
102
RTVSPropertyOp4
 70
     1
102
RTVSPropertyOp5
 70
     1
102
RTVSPropertyOp6
 70
     1
102
RTVSPropertyOp7
 70
     1
102
RTVSPropertyOp8
 70
     1
102
RTVSPropertyOp9
 70
     1
102
RTVSPropertyOp10
 70
     1
102
RTVSPropertyOp11
 70
     1
102
RTVSPropertyOp12
 70
     1
102
RTVSPropertyOp13
 70
     1
102
RTVSPropertyOp14
 70
     1
102
RTVSPropertyOp15
 70
     1
102
RTVSPropertyOp16
 70
     1
102
RTVSPropertyOp17
 70
     1
102
RTVSPropertyOp18
 70
     1
102
RTVSPropertyOp19
 70
     1
102
RTVSPropertyOp20
 70
     1
102
RTVSPropertyOp21
 70
     1
102
RTVSPropertyOp22
 70
     1
102
RTVSPropertyOp23
 70
     1
102
RTVSPropertyOp24
 70
     1
102
RTVSPropertyOp25
 70
     1
102
RTVSPropertyOp26
 70
     1
102
RTVSPropertyOp27
 70
     1
102
RTVSPropertyOp28
 70
     1
102
RTVSPropertyOp29
 70
     1
102
RTVSPropertyOp30
 70
     1
102
RTVSPropertyOp31
 70
     1
102
RTVSPropertyOp32
 70
     1
  0
XRECORD
  5
87
102
{ACAD_REACTORS
330
86
102
}
330
86
100
AcDbXrecord
280
     1
102
RTVSPropertyOp0
 70
     1
102
RTVSPropertyOp1
 70
     1
102
RTVSPropertyOp2
 70
     1
102
RTVSPropertyOp3
 70
     1
102
RTVSPropertyOp4
 70
     1
102
RTVSPropertyOp5
 70
     1
102
RTVSPropertyOp6
 70
     1
102
RTVSPropertyOp7
 70
     1
102
RTVSPropertyOp8
 70
     1
102
RTVSPropertyOp9
 70
     1
102
RTVSPropertyOp10
 70
     1
102
RTVSPropertyOp11
 70
     1
102
RTVSPropertyOp12
 70
     1
102
RTVSPropertyOp13
 70
     1
102
RTVSPropertyOp14
 70
     1
102
RTVSPropertyOp15
 70
     1
102
RTVSPropertyOp16
 70
     1
102
RTVSPropertyOp17
 70
     1
102
RTVSPropertyOp18
 70
     1
102
RTVSPropertyOp19
 70
     1
102
RTVSPropertyOp20
 70
     1
102
RTVSPropertyOp21
 70
     1
102
RTVSPropertyOp22
 70
     1
102
RTVSPropertyOp23
 70
     1
102
RTVSPropertyOp24
 70
     1
102
RTVSPropertyOp25
 70
     1
102
RTVSPropertyOp26
 70
     1
102
RTVSPropertyOp27
 70
     1
102
RTVSPropertyOp28
 70
     1
102
RTVSPropertyOp29
 70
     1
102
RTVSPropertyOp30
 70
     1
102
RTVSPropertyOp31
 70
     1
102
RTVSPropertyOp32
 70
     1
  0
XRECORD
  5
8F
102
{ACAD_REACTORS
330
8E
102
}
330
8E
100
AcDbXrecord
280
     1
102
RTVSPropertyOp0
 70
     1
102
RTVSPropertyOp1
 70
     1
102
RTVSPropertyOp2
 70
     1
102
RTVSPropertyOp3
 70
     1
102
RTVSPropertyOp4
 70
     1
102
RTVSPropertyOp5
 70
     1
102
RTVSPropertyOp6
 70
     1
102
RTVSPropertyOp7
 70
     1
102
RTVSPropertyOp8
 70
     1
102
RTVSPropertyOp9
 70
     1
102
RTVSPropertyOp10
 70
     1
102
RTVSPropertyOp11
 70
     1
102
RTVSPropertyOp12
 70
     1
102
RTVSPropertyOp13
 70
     1
102
RTVSPropertyOp14
 70
     1
102
RTVSPropertyOp15
 70
     1
102
RTVSPropertyOp16
 70
     1
102
RTVSPropertyOp17
 70
     1
102
RTVSPropertyOp18
 70
     1
102
RTVSPropertyOp19
 70
     1
102
RTVSPropertyOp20
 70
     1
102
RTVSPropertyOp21
 70
     1
102
RTVSPropertyOp22
 70
     1
102
RTVSPropertyOp23
 70
     1
102
RTVSPropertyOp24
 70
     1
102
RTVSPropertyOp25
 70
     1
102
RTVSPropertyOp26
 70
     1
102
RTVSPropertyOp27
 70
     1
102
RTVSPropertyOp28
 70
     1
102
RTVSPropertyOp29
 70
     1
102
RTVSPropertyOp30
 70
     1
102
RTVSPropertyOp31
 70
     1
102
RTVSPropertyOp32
 70
     1
  0
XRECORD
  5
83
102
{ACAD_REACTORS
330
82
102
}
330
82
100
AcDbXrecord
280
     1
102
RTVSPropertyOp0
 70
     1
102
RTVSPropertyOp1
 70
     1
102
RTVSPropertyOp2
 70
     1
102
RTVSPropertyOp3
 70
     1
102
RTVSPropertyOp4
 70
     1
102
RTVSPropertyOp5
 70
     1
102
RTVSPropertyOp6
 70
     1
102
RTVSPropertyOp7
 70
     1
102
RTVSPropertyOp8
 70
     1
102
RTVSPropertyOp9
 70
     1
102
RTVSPropertyOp10
 70
     1
102
RTVSPropertyOp11
 70
     1
102
RTVSPropertyOp12
 70
     1
102
RTVSPropertyOp13
 70
     1
102
RTVSPropertyOp14
 70
     1
102
RTVSPropertyOp15
 70
     1
102
RTVSPropertyOp16
 70
     1
102
RTVSPropertyOp17
 70
     1
102
RTVSPropertyOp18
 70
     1
102
RTVSPropertyOp19
 70
     1
102
RTVSPropertyOp20
 70
     1
102
RTVSPropertyOp21
 70
     1
102
RTVSPropertyOp22
 70
     1
102
RTVSPropertyOp23
 70
     1
102
RTVSPropertyOp24
 70
     1
102
RTVSPropertyOp25
 70
     1
102
RTVSPropertyOp26
 70
     1
102
RTVSPropertyOp27
 70
     1
102
RTVSPropertyOp28
 70
     1
102
RTVSPropertyOp29
 70
     1
102
RTVSPropertyOp30
 70
     1
102
RTVSPropertyOp31
 70
     1
102
RTVSPropertyOp32
 70
     1
  0
XRECORD
  5
85
102
{ACAD_REACTORS
330
84
102
}
330
84
100
AcDbXrecord
280
     1
102
RTVSPropertyOp0
 70
     1
102
RTVSPropertyOp1
 70
     1
102
RTVSPropertyOp2
 70
     1
102
RTVSPropertyOp3
 70
     1
102
RTVSPropertyOp4
 70
     1
102
RTVSPropertyOp5
 70
     1
102
RTVSPropertyOp6
 70
     1
102
RTVSPropertyOp7
 70
     1
102
RTVSPropertyOp8
 70
     1
102
RTVSPropertyOp9
 70
     1
102
RTVSPropertyOp10
 70
     1
102
RTVSPropertyOp11
 70
     1
102
RTVSPropertyOp12
 70
     1
102
RTVSPropertyOp13
 70
     1
102
RTVSPropertyOp14
 70
     1
102
RTVSPropertyOp15
 70
     1
102
RTVSPropertyOp16
 70
     1
102
RTVSPropertyOp17
 70
     1
102
RTVSPropertyOp18
 70
     1
102
RTVSPropertyOp19
 70
     1
102
RTVSPropertyOp20
 70
     1
102
RTVSPropertyOp21
 70
     1
102
RTVSPropertyOp22
 70
     1
102
RTVSPropertyOp23
 70
     1
102
RTVSPropertyOp24
 70
     1
102
RTVSPropertyOp25
 70
     1
102
RTVSPropertyOp26
 70
     1
102
RTVSPropertyOp27
 70
     1
102
RTVSPropertyOp28
 70
     1
102
RTVSPropertyOp29
 70
     1
102
RTVSPropertyOp30
 70
     1
102
RTVSPropertyOp31
 70
     1
102
RTVSPropertyOp32
 70
     1
  0
XRECORD
  5
8D
102
{ACAD_REACTORS
330
8C
102
}
330
8C
100
AcDbXrecord
280
     1
102
RTVSPropertyOp0
 70
     1
102
RTVSPropertyOp1
 70
     1
102
RTVSPropertyOp2
 70
     1
102
RTVSPropertyOp3
 70
     1
102
RTVSPropertyOp4
 70
     1
102
RTVSPropertyOp5
 70
     1
102
RTVSPropertyOp6
 70
     1
102
RTVSPropertyOp7
 70
     1
102
RTVSPropertyOp8
 70
     1
102
RTVSPropertyOp9
 70
     1
102
RTVSPropertyOp10
 70
     1
102
RTVSPropertyOp11
 70
     1
102
RTVSPropertyOp12
 70
     1
102
RTVSPropertyOp13
 70
     1
102
RTVSPropertyOp14
 70
     1
102
RTVSPropertyOp15
 70
     1
102
RTVSPropertyOp16
 70
     1
102
RTVSPropertyOp17
 70
     1
102
RTVSPropertyOp18
 70
     1
102
RTVSPropertyOp19
 70
     1
102
RTVSPropertyOp20
 70
     1
102
RTVSPropertyOp21
 70
     1
102
RTVSPropertyOp22
 70
     1
102
RTVSPropertyOp23
 70
     1
102
RTVSPropertyOp24
 70
     1
102
RTVSPropertyOp25
 70
     1
102
RTVSPropertyOp26
 70
     1
102
RTVSPropertyOp27
 70
     1
102
RTVSPropertyOp28
 70
     1
102
RTVSPropertyOp29
 70
     1
102
RTVSPropertyOp30
 70
     1
102
RTVSPropertyOp31
 70
     1
102
RTVSPropertyOp32
 70
     1
  0
XRECORD
  5
71
102
{ACAD_REACTORS
330
70
102
}
330
70
100
AcDbXrecord
280
     1
102
RTVSPropertyOp0
 70
     1
102
RTVSPropertyOp1
 70
     1
102
RTVSPropertyOp2
 70
     1
102
RTVSPropertyOp3
 70
     1
102
RTVSPropertyOp4
 70
     1
102
RTVSPropertyOp5
 70
     1
102
RTVSPropertyOp6
 70
     1
102
RTVSPropertyOp7
 70
     1
102
RTVSPropertyOp8
 70
     1
102
RTVSPropertyOp9
 70
     1
102
RTVSPropertyOp10
 70
     1
102
RTVSPropertyOp11
 70
     1
102
RTVSPropertyOp12
 70
     1
102
RTVSPropertyOp13
 70
     1
102
RTVSPropertyOp14
 70
     1
102
RTVSPropertyOp15
 70
     1
102
RTVSPropertyOp16
 70
     1
102
RTVSPropertyOp17
 70
     1
102
RTVSPropertyOp18
 70
     1
102
RTVSPropertyOp19
 70
     1
102
RTVSPropertyOp20
 70
     1
102
RTVSPropertyOp21
 70
     1
102
RTVSPropertyOp22
 70
     1
102
RTVSPropertyOp23
 70
     1
102
RTVSPropertyOp24
 70
     1
102
RTVSPropertyOp25
 70
     1
102
RTVSPropertyOp26
 70
     1
102
RTVSPropertyOp27
 70
     1
102
RTVSPropertyOp28
 70
     1
102
RTVSPropertyOp29
 70
     1
102
RTVSPropertyOp30
 70
     1
102
RTVSPropertyOp31
 70
     1
102
RTVSPropertyOp32
 70
     1
  0
XRECORD
  5
73
102
{ACAD_REACTORS
330
72
102
}
330
72
100
AcDbXrecord
280
     1
102
RTVSPropertyOp0
 70
     1
102
RTVSPropertyOp1
 70
     1
102
RTVSPropertyOp2
 70
     1
102
RTVSPropertyOp3
 70
     1
102
RTVSPropertyOp4
 70
     1
102
RTVSPropertyOp5
 70
     1
102
RTVSPropertyOp6
 70
     1
102
RTVSPropertyOp7
 70
     1
102
RTVSPropertyOp8
 70
     1
102
RTVSPropertyOp9
 70
     1
102
RTVSPropertyOp10
 70
     1
102
RTVSPropertyOp11
 70
     1
102
RTVSPropertyOp12
 70
     1
102
RTVSPropertyOp13
 70
     1
102
RTVSPropertyOp14
 70
     1
102
RTVSPropertyOp15
 70
     1
102
RTVSPropertyOp16
 70
     1
102
RTVSPropertyOp17
 70
     1
102
RTVSPropertyOp18
 70
     1
102
RTVSPropertyOp19
 70
     1
102
RTVSPropertyOp20
 70
     1
102
RTVSPropertyOp21
 70
     1
102
RTVSPropertyOp22
 70
     1
102
RTVSPropertyOp23
 70
     1
102
RTVSPropertyOp24
 70
     1
102
RTVSPropertyOp25
 70
     1
102
RTVSPropertyOp26
 70
     1
102
RTVSPropertyOp27
 70
     1
102
RTVSPropertyOp28
 70
     1
102
RTVSPropertyOp29
 70
     1
102
RTVSPropertyOp30
 70
     1
102
RTVSPropertyOp31
 70
     1
102
RTVSPropertyOp32
 70
     1
  0
XRECORD
  5
75
102
{ACAD_REACTORS
330
74
102
}
330
74
100
AcDbXrecord
280
     1
102
RTVSPropertyOp0
 70
     1
102
RTVSPropertyOp1
 70
     1
102
RTVSPropertyOp2
 70
     1
102
RTVSPropertyOp3
 70
     1
102
RTVSPropertyOp4
 70
     1
102
RTVSPropertyOp5
 70
     1
102
RTVSPropertyOp6
 70
     1
102
RTVSPropertyOp7
 70
     1
102
RTVSPropertyOp8
 70
     1
102
RTVSPropertyOp9
 70
     1
102
RTVSPropertyOp10
 70
     1
102
RTVSPropertyOp11
 70
     1
102
RTVSPropertyOp12
 70
     1
102
RTVSPropertyOp13
 70
     1
102
RTVSPropertyOp14
 70
     1
102
RTVSPropertyOp15
 70
     1
102
RTVSPropertyOp16
 70
     1
102
RTVSPropertyOp17
 70
     1
102
RTVSPropertyOp18
 70
     1
102
RTVSPropertyOp19
 70
     1
102
RTVSPropertyOp20
 70
     1
102
RTVSPropertyOp21
 70
     1
102
RTVSPropertyOp22
 70
     1
102
RTVSPropertyOp23
 70
     1
102
RTVSPropertyOp24
 70
     1
102
RTVSPropertyOp25
 70
     1
102
RTVSPropertyOp26
 70
     1
102
RTVSPropertyOp27
 70
     1
102
RTVSPropertyOp28
 70
     1
102
RTVSPropertyOp29
 70
     1
102
RTVSPropertyOp30
 70
     1
102
RTVSPropertyOp31
 70
     1
102
RTVSPropertyOp32
 70
     1
  0
XRECORD
  5
77
102
{ACAD_REACTORS
330
76
102
}
330
76
100
AcDbXrecord
280
     1
102
RTVSPropertyOp0
 70
     1
102
RTVSPropertyOp1
 70
     1
102
RTVSPropertyOp2
 70
     1
102
RTVSPropertyOp3
 70
     1
102
RTVSPropertyOp4
 70
     1
102
RTVSPropertyOp5
 70
     1
102
RTVSPropertyOp6
 70
     1
102
RTVSPropertyOp7
 70
     1
102
RTVSPropertyOp8
 70
     1
102
RTVSPropertyOp9
 70
     1
102
RTVSPropertyOp10
 70
     1
102
RTVSPropertyOp11
 70
     1
102
RTVSPropertyOp12
 70
     1
102
RTVSPropertyOp13
 70
     1
102
RTVSPropertyOp14
 70
     1
102
RTVSPropertyOp15
 70
     1
102
RTVSPropertyOp16
 70
     1
102
RTVSPropertyOp17
 70
     1
102
RTVSPropertyOp18
 70
     1
102
RTVSPropertyOp19
 70
     1
102
RTVSPropertyOp20
 70
     1
102
RTVSPropertyOp21
 70
     1
102
RTVSPropertyOp22
 70
     1
102
RTVSPropertyOp23
 70
     1
102
RTVSPropertyOp24
 70
     1
102
RTVSPropertyOp25
 70
     1
102
RTVSPropertyOp26
 70
     1
102
RTVSPropertyOp27
 70
     1
102
RTVSPropertyOp28
 70
     1
102
RTVSPropertyOp29
 70
     1
102
RTVSPropertyOp30
 70
     1
102
RTVSPropertyOp31
 70
     1
102
RTVSPropertyOp32
 70
     1
  0
XRECORD
  5
8B
102
{ACAD_REACTORS
330
8A
102
}
330
8A
100
AcDbXrecord
280
     1
102
RTVSPropertyOp0
 70
     1
102
RTVSPropertyOp1
 70
     1
102
RTVSPropertyOp2
 70
     1
102
RTVSPropertyOp3
 70
     1
102
RTVSPropertyOp4
 70
     1
102
RTVSPropertyOp5
 70
     1
102
RTVSPropertyOp6
 70
     1
102
RTVSPropertyOp7
 70
     1
102
RTVSPropertyOp8
 70
     1
102
RTVSPropertyOp9
 70
     1
102
RTVSPropertyOp10
 70
     1
102
RTVSPropertyOp11
 70
     1
102
RTVSPropertyOp12
 70
     1
102
RTVSPropertyOp13
 70
     1
102
RTVSPropertyOp14
 70
     1
102
RTVSPropertyOp15
 70
     1
102
RTVSPropertyOp16
 70
     1
102
RTVSPropertyOp17
 70
     1
102
RTVSPropertyOp18
 70
     1
102
RTVSPropertyOp19
 70
     1
102
RTVSPropertyOp20
 70
     1
102
RTVSPropertyOp21
 70
     1
102
RTVSPropertyOp22
 70
     1
102
RTVSPropertyOp23
 70
     1
102
RTVSPropertyOp24
 70
     1
102
RTVSPropertyOp25
 70
     1
102
RTVSPropertyOp26
 70
     1
102
RTVSPropertyOp27
 70
     1
102
RTVSPropertyOp28
 70
     1
102
RTVSPropertyOp29
 70
     1
102
RTVSPropertyOp30
 70
     1
102
RTVSPropertyOp31
 70
     1
102
RTVSPropertyOp32
 70
     1
  0
XRECORD
  5
81
102
{ACAD_REACTORS
330
80
102
}
330
80
100
AcDbXrecord
280
     1
102
RTVSPropertyOp0
 70
     1
102
RTVSPropertyOp1
 70
     1
102
RTVSPropertyOp2
 70
     1
102
RTVSPropertyOp3
 70
     1
102
RTVSPropertyOp4
 70
     1
102
RTVSPropertyOp5
 70
     1
102
RTVSPropertyOp6
 70
     1
102
RTVSPropertyOp7
 70
     1
102
RTVSPropertyOp8
 70
     1
102
RTVSPropertyOp9
 70
     1
102
RTVSPropertyOp10
 70
     1
102
RTVSPropertyOp11
 70
     1
102
RTVSPropertyOp12
 70
     1
102
RTVSPropertyOp13
 70
     1
102
RTVSPropertyOp14
 70
     1
102
RTVSPropertyOp15
 70
     1
102
RTVSPropertyOp16
 70
     1
102
RTVSPropertyOp17
 70
     1
102
RTVSPropertyOp18
 70
     1
102
RTVSPropertyOp19
 70
     1
102
RTVSPropertyOp20
 70
     1
102
RTVSPropertyOp21
 70
     1
102
RTVSPropertyOp22
 70
     1
102
RTVSPropertyOp23
 70
     1
102
RTVSPropertyOp24
 70
     1
102
RTVSPropertyOp25
 70
     1
102
RTVSPropertyOp26
 70
     1
102
RTVSPropertyOp27
 70
     1
102
RTVSPropertyOp28
 70
     1
102
RTVSPropertyOp29
 70
     1
102
RTVSPropertyOp30
 70
     1
102
RTVSPropertyOp31
 70
     1
102
RTVSPropertyOp32
 70
     1
  0
XRECORD
  5
89
102
{ACAD_REACTORS
330
88
102
}
330
88
100
AcDbXrecord
280
     1
102
RTVSPropertyOp0
 70
     1
102
RTVSPropertyOp1
 70
     1
102
RTVSPropertyOp2
 70
     1
102
RTVSPropertyOp3
 70
     1
102
RTVSPropertyOp4
 70
     1
102
RTVSPropertyOp5
 70
     1
102
RTVSPropertyOp6
 70
     1
102
RTVSPropertyOp7
 70
     1
102
RTVSPropertyOp8
 70
     1
102
RTVSPropertyOp9
 70
     1
102
RTVSPropertyOp10
 70
     1
102
RTVSPropertyOp11
 70
     1
102
RTVSPropertyOp12
 70
     1
102
RTVSPropertyOp13
 70
     1
102
RTVSPropertyOp14
 70
     1
102
RTVSPropertyOp15
 70
     1
102
RTVSPropertyOp16
 70
     1
102
RTVSPropertyOp17
 70
     1
102
RTVSPropertyOp18
 70
     1
102
RTVSPropertyOp19
 70
     1
102
RTVSPropertyOp20
 70
     1
102
RTVSPropertyOp21
 70
     1
102
RTVSPropertyOp22
 70
     1
102
RTVSPropertyOp23
 70
     1
102
RTVSPropertyOp24
 70
     1
102
RTVSPropertyOp25
 70
     1
102
RTVSPropertyOp26
 70
     1
102
RTVSPropertyOp27
 70
     1
102
RTVSPropertyOp28
 70
     1
102
RTVSPropertyOp29
 70
     1
102
RTVSPropertyOp30
 70
     1
102
RTVSPropertyOp31
 70
     1
102
RTVSPropertyOp32
 70
     1
  0
ENDSEC
  0
EOF
