  0
SECTION
  2
HEADER
  9
$ACADVER
  1
AC1021
  9
$ACADMAINTVER
 70
    25
  9
$DWGCODEPAGE
  3
ANSI_1252
  9
$INSBASE
 10
0.0
 20
0.0
 30
0.0
  9
$EXTMIN
 10
-187.0099
 20
-72.1648
 30
0.0
  9
$EXTMAX
 10
-48.2848
 20
93.3359
 30
0.0
  9
$LIMMIN
 10
0.0
 20
0.0
  9
$LIMMAX
 10
12.0
 20
9.0
  9
$ORTHOMODE
 70
     0
  9
$REGENMODE
 70
     1
  9
$FILLMODE
 70
     1
  9
$QTEXTMODE
 70
     0
  9
$MIRRTEXT
 70
     1
  9
$LTSCALE
 40
1.0
  9
$ATTMODE
 70
     1
  9
$TEXTSIZE
 40
0.2
  9
$TRACEWID
 40
0.05
  9
$TEXTSTYLE
  7
Standard
  9
$CLAYER
  8
0
  9
$CELTYPE
  6
ByLayer
  9
$CECOLOR
 62
   256
  9
$CELTSCALE
 40
1.0
  9
$DISPSILH
 70
     0
  9
$DIMSCALE
 40
1.0
  9
$DIMASZ
 40
0.18
  9
$DIMEXO
 40
0.0625
  9
$DIMDLI
 40
0.38
  9
$DIMRND
 40
0.0
  9
$DIMDLE
 40
0.0
  9
$DIMEXE
 40
0.18
  9
$DIMTP
 40
0.0
  9
$DIMTM
 40
0.0
  9
$DIMTXT
 40
0.18
  9
$DIMCEN
 40
0.09
  9
$DIMTSZ
 40
0.0
  9
$DIMTOL
 70
     0
  9
$DIMLIM
 70
     0
  9
$DIMTIH
 70
     1
  9
$DIMTOH
 70
     1
  9
$DIMSE1
 70
     0
  9
$DIMSE2
 70
     0
  9
$DIMTAD
 70
     0
  9
$DIMZIN
 70
     0
  9
$DIMBLK
  1

  9
$DIMASO
 70
     1
  9
$DIMSHO
 70
     1
  9
$DIMPOST
  1

  9
$DIMAPOST
  1

  9
$DIMALT
 70
     0
  9
$DIMALTD
 70
     2
  9
$DIMALTF
 40
25.4
  9
$DIMLFAC
 40
1.0
  9
$DIMTOFL
 70
     0
  9
$DIMTVP
 40
0.0
  9
$DIMTIX
 70
     0
  9
$DIMSOXD
 70
     0
  9
$DIMSAH
 70
     0
  9
$DIMBLK1
  1

  9
$DIMBLK2
  1

  9
$DIMSTYLE
  2
Standard
  9
$DIMCLRD
 70
     0
  9
$DIMCLRE
 70
     0
  9
$DIMCLRT
 70
     0
  9
$DIMTFAC
 40
1.0
  9
$DIMGAP
 40
0.09
  9
$DIMJUST
 70
     0
  9
$DIMSD1
 70
     0
  9
$DIMSD2
 70
     0
  9
$DIMTOLJ
 70
     1
  9
$DIMTZIN
 70
     0
  9
$DIMALTZ
 70
     0
  9
$DIMALTTZ
 70
     0
  9
$DIMUPT
 70
     0
  9
$DIMDEC
 70
     4
  9
$DIMTDEC
 70
     4
  9
$DIMALTU
 70
     2
  9
$DIMALTTD
 70
     2
  9
$DIMTXSTY
  7
Standard
  9
$DIMAUNIT
 70
     0
  9
$DIMADEC
 70
     0
  9
$DIMALTRND
 40
0.0
  9
$DIMAZIN
 70
     0
  9
$DIMDSEP
 70
    46
  9
$DIMATFIT
 70
     3
  9
$DIMFRAC
 70
     0
  9
$DIMLDRBLK
  1

  9
$DIMLUNIT
 70
     2
  9
$DIMLWD
 70
    -2
  9
$DIMLWE
 70
    -2
  9
$DIMTMOVE
 70
     0
  9
$DIMFXL
 40
1.0
  9
$DIMFXLON
 70
     0
  9
$DIMJOGANG
 40
0.7853981633974483
  9
$DIMTFILL
 70
     0
  9
$DIMTFILLCLR
 70
     0
  9
$DIMARCSYM
 70
     0
  9
$DIMLTYPE
  6

  9
$DIMLTEX1
  6

  9
$DIMLTEX2
  6

  9
$LUNITS
 70
     2
  9
$LUPREC
 70
     4
  9
$SKETCHINC
 40
0.1
  9
$FILLETRAD
 40
0.5
  9
$AUNITS
 70
     0
  9
$AUPREC
 70
     0
  9
$MENU
  1
.
  9
$ELEVATION
 40
0.0
  9
$PELEVATION
 40
0.0
  9
$THICKNESS
 40
0.0
  9
$LIMCHECK
 70
     0
  9
$CHAMFERA
 40
0.5
  9
$CHAMFERB
 40
0.5
  9
$CHAMFERC
 40
1.0
  9
$CHAMFERD
 40
0.0
  9
$SKPOLY
 70
     0
  9
$TDCREATE
 40
2458493.739814201
  9
$TDUCREATE
 40
2458493.739814201
  9
$TDUPDATE
 40
2458493.739814491
  9
$TDUUPDATE
 40
2458493.739814491
  9
$TDINDWG
 40
0.0000000116
  9
$TDUSRTIMER
 40
0.0000000116
  9
$USRTIMER
 70
     1
  9
$ANGBASE
 50
0.0
  9
$ANGDIR
 70
     0
  9
$PDMODE
 70
     0
  9
$PDSIZE
 40
0.0
  9
$PLINEWID
 40
0.0
  9
$SPLFRAME
 70
     0
  9
$SPLINETYPE
 70
     6
  9
$SPLINESEGS
 70
     8
  9
$HANDSEED
  5
170
  9
$SURFTAB1
 70
     6
  9
$SURFTAB2
 70
     6
  9
$SURFTYPE
 70
     6
  9
$SURFU
 70
     6
  9
$SURFV
 70
     6
  9
$UCSBASE
  2

  9
$UCSNAME
  2

  9
$UCSORG
 10
0.0
 20
0.0
 30
0.0
  9
$UCSXDIR
 10
1.0
 20
0.0
 30
0.0
  9
$UCSYDIR
 10
0.0
 20
1.0
 30
0.0
  9
$UCSORTHOREF
  2

  9
$UCSORTHOVIEW
 70
     0
  9
$UCSORGTOP
 10
0.0
 20
0.0
 30
0.0
  9
$UCSORGBOTTOM
 10
0.0
 20
0.0
 30
0.0
  9
$UCSORGLEFT
 10
0.0
 20
0.0
 30
0.0
  9
$UCSORGRIGHT
 10
0.0
 20
0.0
 30
0.0
  9
$UCSORGFRONT
 10
0.0
 20
0.0
 30
0.0
  9
$UCSORGBACK
 10
0.0
 20
0.0
 30
0.0
  9
$PUCSBASE
  2

  9
$PUCSNAME
  2

  9
$PUCSORG
 10
0.0
 20
0.0
 30
0.0
  9
$PUCSXDIR
 10
1.0
 20
0.0
 30
0.0
  9
$PUCSYDIR
 10
0.0
 20
1.0
 30
0.0
  9
$PUCSORTHOREF
  2

  9
$PUCSORTHOVIEW
 70
     0
  9
$PUCSORGTOP
 10
0.0
 20
0.0
 30
0.0
  9
$PUCSORGBOTTOM
 10
0.0
 20
0.0
 30
0.0
  9
$PUCSORGLEFT
 10
0.0
 20
0.0
 30
0.0
  9
$PUCSORGRIGHT
 10
0.0
 20
0.0
 30
0.0
  9
$PUCSORGFRONT
 10
0.0
 20
0.0
 30
0.0
  9
$PUCSORGBACK
 10
0.0
 20
0.0
 30
0.0
  9
$USERI1
 70
     0
  9
$USERI2
 70
     0
  9
$USERI3
 70
     0
  9
$USERI4
 70
     0
  9
$USERI5
 70
     0
  9
$USERR1
 40
0.0
  9
$USERR2
 40
0.0
  9
$USERR3
 40
0.0
  9
$USERR4
 40
0.0
  9
$USERR5
 40
0.0
  9
$WORLDVIEW
 70
     1
  9
$SHADEDGE
 70
     3
  9
$SHADEDIF
 70
    70
  9
$TILEMODE
 70
     1
  9
$MAXACTVP
 70
    64
  9
$PINSBASE
 10
0.0
 20
0.0
 30
0.0
  9
$PLIMCHECK
 70
     0
  9
$PEXTMIN
 10
1.000000000000000E+20
 20
1.000000000000000E+20
 30
1.000000000000000E+20
  9
$PEXTMAX
 10
-1.000000000000000E+20
 20
-1.000000000000000E+20
 30
-1.000000000000000E+20
  9
$PLIMMIN
 10
0.0
 20
0.0
  9
$PLIMMAX
 10
12.0
 20
9.0
  9
$UNITMODE
 70
     0
  9
$VISRETAIN
 70
     1
  9
$PLINEGEN
 70
     0
  9
$PSLTSCALE
 70
     1
  9
$TREEDEPTH
 70
  3020
  9
$CMLSTYLE
  2
Standard
  9
$CMLJUST
 70
     0
  9
$CMLSCALE
 40
1.0
  9
$PROXYGRAPHICS
 70
     1
  9
$MEASUREMENT
 70
     0
  9
$CELWEIGHT
370
    -1
  9
$ENDCAPS
280
     0
  9
$JOINSTYLE
280
     0
  9
$LWDISPLAY
290
     0
  9
$INSUNITS
 70
     4
  9
$HYPERLINKBASE
  1

  9
$STYLESHEET
  1

  9
$XEDIT
290
     1
  9
$CEPSNTYPE
380
     0
  9
$PSTYLEMODE
290
     1
  9
$FINGERPRINTGUID
  2
{8D17F053-659A-4C76-B378-9613A166EB1A}
  9
$VERSIONGUID
  2
{FAEB1C32-E019-11D5-929B-00C0DF256EC4}
  9
$EXTNAMES
290
     1
  9
$PSVPSCALE
 40
0.0
  9
$OLESTARTUP
290
     0
  9
$SORTENTS
280
   127
  9
$INDEXCTL
280
     0
  9
$HIDETEXT
280
     1
  9
$XCLIPFRAME
290
     0
  9
$HALOGAP
280
     0
  9
$OBSCOLOR
 70
   257
  9
$OBSLTYPE
280
     0
  9
$INTERSECTIONDISPLAY
280
     0
  9
$INTERSECTIONCOLOR
 70
   257
  9
$DIMASSOC
280
     2
  9
$PROJECTNAME
  1

  9
$CAMERADISPLAY
290
     0
  9
$LENSLENGTH
 40
50.0
  9
$CAMERAHEIGHT
 40
0.0
  9
$STEPSPERSEC
 40
2.0
  9
$STEPSIZE
 40
6.0
  9
$3DDWFPREC
 40
2.0
  9
$PSOLWIDTH
 40
0.25
  9
$PSOLHEIGHT
 40
4.0
  9
$LOFTANG1
 40
1.570796326794897
  9
$LOFTANG2
 40
1.570796326794897
  9
$LOFTMAG1
 40
0.0
  9
$LOFTMAG2
 40
0.0
  9
$LOFTPARAM
 70
     7
  9
$LOFTNORMALS
280
     1
  9
$LATITUDE
 40
37.795
  9
$LONGITUDE
 40
-122.394
  9
$NORTHDIRECTION
 40
0.0
  9
$TIMEZONE
 70
 -8000
  9
$LIGHTGLYPHDISPLAY
280
     1
  9
$TILEMODELIGHTSYNCH
280
     1
  9
$SOLIDHIST
280
     1
  9
$SHOWHIST
280
     1
  9
$DWFFRAME
280
     2
  9
$DGNFRAME
280
     2
  9
$REALWORLDSCALE
290
     1
  9
$INTERFERECOLOR
 62
   256
  9
$CSHADOW
280
     0
  9
$SHADOWPLANELOCATION
 40
0.0
  0
ENDSEC
  0
SECTION
  2
CLASSES
  0
CLASS
  1
ACDBDICTIONARYWDFLT
  2
AcDbDictionaryWithDefault
  3
ObjectDBX Classes
 90
        0
 91
        4
280
     0
281
     0
  0
CLASS
  1
VISUALSTYLE
  2
AcDbVisualStyle
  3
ObjectDBX Classes
 90
     4095
 91
        4
280
     0
281
     0
  0
CLASS
  1
MATERIAL
  2
AcDbMaterial
  3
ObjectDBX Classes
 90
     1153
 91
        4
280
     0
281
     0
  0
ENDSEC
  0
SECTION
  2
TABLES
  0
TABLE
  2
VPORT
  5
8
330
0
100
AcDbSymbolTable
 70
     1
  0
VPORT
  5
29
330
8
100
AcDbSymbolTableRecord
100
AcDbViewportTableRecord
  2
*Active
 70
     0
 10
0.0
 20
0.0
 11
1.0
 21
1.0
 12
10.42990654205607
 22
4.5
 13
0.0
 23
0.0
 14
0.5
 24
0.5
 15
0.5
 25
0.5
 16
0.0
 26
0.0
 36
1.0
 17
0.0
 27
0.0
 37
0.0
 40
9.0
 41
1.972972972850329
 42
50.0
 43
0.0
 44
0.0
 50
0.0
 51
0.0
 71
     0
 72
   100
 73
     1
 74
     3
 75
     0
 76
     0
 77
     0
 78
     0
281
     0
 65
     1
110
0.0
120
0.0
130
0.0
111
1.0
121
0.0
131
0.0
112
0.0
122
1.0
132
0.0
 79
     0
146
0.0
 60
     3
 61
     5
292
     1
282
     1
141
0.0
142
0.0
 63
   250
  0
ENDTAB
  0
TABLE
  2
LTYPE
  5
5
330
0
100
AcDbSymbolTable
 70
     1
  0
LTYPE
  5
14
330
5
100
AcDbSymbolTableRecord
100
AcDbLinetypeTableRecord
  2
ByBlock
 70
     0
  3

 72
    65
 73
     0
 40
0.0
  0
LTYPE
  5
15
330
5
100
AcDbSymbolTableRecord
100
AcDbLinetypeTableRecord
  2
ByLayer
 70
     0
  3

 72
    65
 73
     0
 40
0.0
  0
LTYPE
  5
16
330
5
100
AcDbSymbolTableRecord
100
AcDbLinetypeTableRecord
  2
Continuous
 70
     0
  3
Solid line
 72
    65
 73
     0
 40
0.0
  0
ENDTAB
  0
TABLE
  2
LAYER
  5
2
330
0
100
AcDbSymbolTable
 70
     3
  0
LAYER
  5
10
330
2
100
AcDbSymbolTableRecord
100
AcDbLayerTableRecord
  2
0
 70
     0
 62
     7
  6
Continuous
370
    -3
390
F
347
3E
  0
LAYER
  5
40
330
2
100
AcDbSymbolTableRecord
100
AcDbLayerTableRecord
  2
layer 1
 70
     0
 62
     7
  6
Continuous
370
    -3
390
F
347
3E
  0
LAYER
  5
14D
330
2
100
AcDbSymbolTableRecord
100
AcDbLayerTableRecord
  2
Master Guides
 70
     0
 62
     7
  6
Continuous
370
    -3
390
F
347
3E
  0
ENDTAB
  0
TABLE
  2
STYLE
  5
3
330
0
100
AcDbSymbolTable
 70
     1
  0
STYLE
  5
11
330
3
100
AcDbSymbolTableRecord
100
AcDbTextStyleTableRecord
  2
Standard
 70
     0
 40
0.0
 41
1.0
 50
0.0
 71
     0
 42
0.2
  3
txt
  4

  0
ENDTAB
  0
TABLE
  2
VIEW
  5
6
330
0
100
AcDbSymbolTable
 70
     0
  0
ENDTAB
  0
TABLE
  2
UCS
  5
7
330
0
100
AcDbSymbolTable
 70
     0
  0
ENDTAB
  0
TABLE
  2
APPID
  5
9
330
0
100
AcDbSymbolTable
 70
     2
  0
APPID
  5
12
330
9
100
AcDbSymbolTableRecord
100
AcDbRegAppTableRecord
  2
ACAD
 70
     0
  0
APPID
  5
3F
330
9
100
AcDbSymbolTableRecord
100
AcDbRegAppTableRecord
  2
ODA
 70
     0
  0
ENDTAB
  0
TABLE
  2
DIMSTYLE
  5
A
330
0
100
AcDbSymbolTable
 70
     1
100
AcDbDimStyleTable
  0
DIMSTYLE
105
27
330
A
100
AcDbSymbolTableRecord
100
AcDbDimStyleTableRecord
  2
Standard
 70
     0
178
     0
340
11
  0
ENDTAB
  0
TABLE
  2
BLOCK_RECORD
  5
1
330
0
100
AcDbSymbolTable
 70
     1
  0
BLOCK_RECORD
  5
1F
330
1
100
AcDbSymbolTableRecord
100
AcDbBlockTableRecord
  2
*Model_Space
340
22
 70
     0
280
     1
281
     0
  0
BLOCK_RECORD
  5
1B
330
1
100
AcDbSymbolTableRecord
100
AcDbBlockTableRecord
  2
*Paper_Space
340
1E
 70
     0
280
     1
281
     0
  0
BLOCK_RECORD
  5
23
330
1
100
AcDbSymbolTableRecord
100
AcDbBlockTableRecord
  2
*Paper_Space0
340
26
 70
     0
280
     1
281
     0
  0
ENDTAB
  0
ENDSEC
  0
SECTION
  2
BLOCKS
  0
BLOCK
  5
20
330
1F
100
AcDbEntity
  8
0
100
AcDbBlockBegin
  2
*Model_Space
 70
     0
 10
0.0
 20
0.0
 30
0.0
  3
*Model_Space
  1

  0
ENDBLK
  5
21
330
1F
100
AcDbEntity
  8
0
100
AcDbBlockEnd
  0
BLOCK
  5
1C
330
1B
100
AcDbEntity
 67
     1
  8
0
100
AcDbBlockBegin
  2
*Paper_Space
 70
     0
 10
0.0
 20
0.0
 30
0.0
  3
*Paper_Space
  1

  0
ENDBLK
  5
1D
330
1B
100
AcDbEntity
 67
     1
  8
0
100
AcDbBlockEnd
  0
BLOCK
  5
24
330
23
100
AcDbEntity
  8
0
100
AcDbBlockBegin
  2
*Paper_Space0
 70
     0
 10
0.0
 20
0.0
 30
0.0
  3
*Paper_Space0
  1

  0
ENDBLK
  5
25
330
23
100
AcDbEntity
  8
0
100
AcDbBlockEnd
  0
ENDSEC
  0
SECTION
  2
ENTITIES
  0
LWPOLYLINE
  5
41
330
1F
100
AcDbEntity
  8
layer 1
 62
   250
100
AcDbPolyline
 90
        5
 70
     1
 43
0.0
 10
-187.0099
 20
-72.1647
 10
-48.2849
 20
-72.1647
 10
-48.2849
 20
93.3359
 10
-187.0099
 20
93.3359
 10
-187.0099
 20
-72.1647
  0
SPLINE
  5
42
330
1F
100
AcDbEntity
  8
layer 1
 62
     7
100
AcDbSpline
210
0.0
220
0.0
230
1.0
 70
    11
 71
     3
 72
    20
 73
    16
 74
     0
 42
0.0000000001
 43
0.0000000001
 12
1.0
 22
0.0
 32
0.0
 13
1.0
 23
0.0
 33
0.0
 40
0.0
 40
0.0
 40
0.0
 40
0.0
 40
0.2
 40
0.2
 40
0.2
 40
0.2
 40
0.4
 40
0.4
 40
0.4
 40
0.4
 40
0.6
 40
0.6
 40
0.6
 40
0.6
 40
1.0
 40
1.0
 40
1.0
 40
1.0
 10
-161.227
 20
62.8348
 30
0.0
 10
-162.2704
 20
63.1943
 30
0.0
 10
-162.8456
 20
62.8665
 30
0.0
 10
-163.5456
 20
62.1765
 30
0.0
 10
-163.5456
 20
62.1765
 30
0.0
 10
-164.5806
 20
61.1455
 30
0.0
 10
-164.4511
 20
59.8331
 30
0.0
 10
-163.0812
 20
59.2426
 30
0.0
 10
-163.0812
 20
59.2426
 30
0.0
 10
-158.5964
 20
57.8162
 30
0.0
 10
-157.0778
 20
56.0434
 30
0.0
 10
-154.5518
 20
53.3086
 30
0.0
 10
-154.5518
 20
53.3086
 30
0.0
 10
-155.6227
 20
56.0615
 30
0.0
 10
-158.9786
 20
61.7925
 30
0.0
 10
-161.227
 20
62.8348
 30
0.0
  0
SPLINE
  5
43
330
1F
100
AcDbEntity
  8
layer 1
 62
     7
100
AcDbSpline
210
0.0
220
0.0
230
1.0
 70
    11
 71
     3
 72
    20
 73
    16
 74
     0
 42
0.0000000001
 43
0.0000000001
 12
1.0
 22
0.0
 32
0.0
 13
1.0
 23
0.0
 33
0.0
 40
0.0
 40
0.0
 40
0.0
 40
0.0
 40
0.2
 40
0.2
 40
0.2
 40
0.2
 40
0.4
 40
0.4
 40
0.4
 40
0.4
 40
0.6
 40
0.6
 40
0.6
 40
0.6
 40
1.0
 40
1.0
 40
1.0
 40
1.0
 10
-154.4126
 20
66.0696
 30
0.0
 10
-155.1965
 20
67.9178
 30
0.0
 10
-156.7287
 20
68.5318
 30
0.0
 10
-158.6353
 20
66.9413
 30
0.0
 10
-158.6353
 20
66.9413
 30
0.0
 10
-160.601
 20
65.3017
 30
0.0
 10
-160.4663
 20
64.2099
 30
0.0
 10
-158.4914
 20
62.528
 30
0.0
 10
-158.4914
 20
62.528
 30
0.0
 10
-155.7752
 20
60.2714
 30
0.0
 10
-153.9029
 20
57.1427
 30
0.0
 10
-152.3916
 20
54.1964
 30
0.0
 10
-152.3916
 20
54.1964
 30
0.0
 10
-152.8299
 20
57.9587
 30
0.0
 10
-152.8311
 20
62.3161
 30
0.0
 10
-154.4126
 20
66.0696
 30
0.0
  0
SPLINE
  5
44
330
1F
100
AcDbEntity
  8
layer 1
 62
     7
100
AcDbSpline
210
0.0
220
0.0
230
1.0
 70
    11
 71
     3
 72
    28
 73
    24
 74
     0
 42
0.0000000001
 43
0.0000000001
 12
1.0
 22
0.0
 32
0.0
 13
1.0
 23
0.0
 33
0.0
 40
0.0
 40
0.0
 40
0.0
 40
0.0
 40
0.1428571428571428
 40
0.1428571428571428
 40
0.1428571428571428
 40
0.1428571428571428
 40
0.2857142857142857
 40
0.2857142857142857
 40
0.2857142857142857
 40
0.2857142857142857
 40
0.4285714285714285
 40
0.4285714285714285
 40
0.4285714285714285
 40
0.4285714285714285
 40
0.5714285714285714
 40
0.5714285714285714
 40
0.5714285714285714
 40
0.5714285714285714
 40
0.7142857142857143
 40
0.7142857142857143
 40
0.7142857142857143
 40
0.7142857142857143
 40
1.0
 40
1.0
 40
1.0
 40
1.0
 10
-152.914
 20
65.9269
 30
0.0
 10
-153.4106
 20
66.9852
 30
0.0
 10
-153.7778
 20
68.0506
 30
0.0
 10
-153.7299
 20
68.2944
 30
0.0
 10
-153.7299
 20
68.2944
 30
0.0
 10
-153.5427
 20
69.248
 30
0.0
 10
-152.2414
 20
69.7641
 30
0.0
 10
-150.1724
 20
69.8187
 30
0.0
 10
-150.1724
 20
69.8187
 30
0.0
 10
-148.1034
 20
69.7914
 30
0.0
 10
-146.802
 20
69.248
 30
0.0
 10
-146.6148
 20
68.2944
 30
0.0
 10
-146.6148
 20
68.2944
 30
0.0
 10
-146.5669
 20
68.0506
 30
0.0
 10
-146.9341
 20
66.9853
 30
0.0
 10
-147.4308
 20
65.9269
 30
0.0
 10
-147.4308
 20
65.9269
 30
0.0
 10
-148.9656
 20
63.3477
 30
0.0
 10
-149.8209
 20
57.3855
 30
0.0
 10
-150.1724
 20
55.1789
 30
0.0
 10
-150.1724
 20
55.1789
 30
0.0
 10
-150.5238
 20
57.3855
 30
0.0
 10
-151.3792
 20
63.3478
 30
0.0
 10
-152.914
 20
65.9269
 30
0.0
  0
SPLINE
  5
45
330
1F
100
AcDbEntity
  8
layer 1
 62
     7
100
AcDbSpline
210
0.0
220
0.0
230
1.0
 70
    11
 71
     3
 72
    20
 73
    16
 74
     0
 42
0.0000000001
 43
0.0000000001
 12
1.0
 22
0.0
 32
0.0
 13
1.0
 23
0.0
 33
0.0
 40
0.0
 40
0.0
 40
0.0
 40
0.0
 40
0.2
 40
0.2
 40
0.2
 40
0.2
 40
0.4
 40
0.4
 40
0.4
 40
0.4
 40
0.6
 40
0.6
 40
0.6
 40
0.6
 40
1.0
 40
1.0
 40
1.0
 40
1.0
 10
-139.1716
 20
62.8348
 30
0.0
 10
-138.1282
 20
63.1943
 30
0.0
 10
-137.553
 20
62.8665
 30
0.0
 10
-136.8531
 20
62.1765
 30
0.0
 10
-136.8531
 20
62.1765
 30
0.0
 10
-135.8181
 20
61.1455
 30
0.0
 10
-135.9475
 20
59.8331
 30
0.0
 10
-137.3174
 20
59.2426
 30
0.0
 10
-137.3174
 20
59.2426
 30
0.0
 10
-141.8022
 20
57.8162
 30
0.0
 10
-143.3208
 20
56.0434
 30
0.0
 10
-145.8469
 20
53.3086
 30
0.0
 10
-145.8469
 20
53.3086
 30
0.0
 10
-144.776
 20
56.0615
 30
0.0
 10
-141.4201
 20
61.7925
 30
0.0
 10
-139.1716
 20
62.8348
 30
0.0
  0
SPLINE
  5
46
330
1F
100
AcDbEntity
  8
layer 1
 62
     7
100
AcDbSpline
210
0.0
220
0.0
230
1.0
 70
    11
 71
     3
 72
    20
 73
    16
 74
     0
 42
0.0000000001
 43
0.0000000001
 12
1.0
 22
0.0
 32
0.0
 13
1.0
 23
0.0
 33
0.0
 40
0.0
 40
0.0
 40
0.0
 40
0.0
 40
0.2
 40
0.2
 40
0.2
 40
0.2
 40
0.4
 40
0.4
 40
0.4
 40
0.4
 40
0.6
 40
0.6
 40
0.6
 40
0.6
 40
1.0
 40
1.0
 40
1.0
 40
1.0
 10
-145.9861
 20
66.0696
 30
0.0
 10
-145.2021
 20
67.9178
 30
0.0
 10
-143.67
 20
68.5318
 30
0.0
 10
-141.7633
 20
66.9413
 30
0.0
 10
-141.7633
 20
66.9413
 30
0.0
 10
-139.7977
 20
65.3017
 30
0.0
 10
-139.9323
 20
64.2099
 30
0.0
 10
-141.9073
 20
62.528
 30
0.0
 10
-141.9073
 20
62.528
 30
0.0
 10
-144.6234
 20
60.2714
 30
0.0
 10
-146.4957
 20
57.1427
 30
0.0
 10
-148.007
 20
54.1964
 30
0.0
 10
-148.007
 20
54.1964
 30
0.0
 10
-147.5687
 20
57.9587
 30
0.0
 10
-147.5675
 20
62.3161
 30
0.0
 10
-145.9861
 20
66.0696
 30
0.0
  0
SPLINE
  5
47
330
1F
100
AcDbEntity
  8
layer 1
 62
     7
100
AcDbSpline
210
0.0
220
0.0
230
1.0
 70
    11
 71
     3
 72
    20
 73
    16
 74
     0
 42
0.0000000001
 43
0.0000000001
 12
1.0
 22
0.0
 32
0.0
 13
1.0
 23
0.0
 33
0.0
 40
0.0
 40
0.0
 40
0.0
 40
0.0
 40
0.2
 40
0.2
 40
0.2
 40
0.2
 40
0.4
 40
0.4
 40
0.4
 40
0.4
 40
0.6
 40
0.6
 40
0.6
 40
0.6
 40
1.0
 40
1.0
 40
1.0
 40
1.0
 10
-128.7008
 20
62.8348
 30
0.0
 10
-129.7442
 20
63.1943
 30
0.0
 10
-130.3194
 20
62.8665
 30
0.0
 10
-131.0194
 20
62.1765
 30
0.0
 10
-131.0194
 20
62.1765
 30
0.0
 10
-132.0544
 20
61.1455
 30
0.0
 10
-131.9249
 20
59.8331
 30
0.0
 10
-130.555
 20
59.2426
 30
0.0
 10
-130.555
 20
59.2426
 30
0.0
 10
-126.0702
 20
57.8162
 30
0.0
 10
-124.5516
 20
56.0434
 30
0.0
 10
-122.0256
 20
53.3086
 30
0.0
 10
-122.0256
 20
53.3086
 30
0.0
 10
-123.0965
 20
56.0615
 30
0.0
 10
-126.4524
 20
61.7925
 30
0.0
 10
-128.7008
 20
62.8348
 30
0.0
  0
SPLINE
  5
48
330
1F
100
AcDbEntity
  8
layer 1
 62
     7
100
AcDbSpline
210
0.0
220
0.0
230
1.0
 70
    11
 71
     3
 72
    20
 73
    16
 74
     0
 42
0.0000000001
 43
0.0000000001
 12
1.0
 22
0.0
 32
0.0
 13
1.0
 23
0.0
 33
0.0
 40
0.0
 40
0.0
 40
0.0
 40
0.0
 40
0.2
 40
0.2
 40
0.2
 40
0.2
 40
0.4
 40
0.4
 40
0.4
 40
0.4
 40
0.6
 40
0.6
 40
0.6
 40
0.6
 40
1.0
 40
1.0
 40
1.0
 40
1.0
 10
-121.8864
 20
66.0696
 30
0.0
 10
-122.6703
 20
67.9178
 30
0.0
 10
-124.2025
 20
68.5318
 30
0.0
 10
-126.1091
 20
66.9413
 30
0.0
 10
-126.1091
 20
66.9413
 30
0.0
 10
-128.0747
 20
65.3017
 30
0.0
 10
-127.9401
 20
64.2099
 30
0.0
 10
-125.9652
 20
62.528
 30
0.0
 10
-125.9652
 20
62.528
 30
0.0
 10
-123.249
 20
60.2714
 30
0.0
 10
-121.3767
 20
57.1427
 30
0.0
 10
-119.8654
 20
54.1964
 30
0.0
 10
-119.8654
 20
54.1964
 30
0.0
 10
-120.3037
 20
57.9587
 30
0.0
 10
-120.3049
 20
62.3161
 30
0.0
 10
-121.8864
 20
66.0696
 30
0.0
  0
SPLINE
  5
49
330
1F
100
AcDbEntity
  8
layer 1
 62
     7
100
AcDbSpline
210
0.0
220
0.0
230
1.0
 70
    11
 71
     3
 72
    28
 73
    24
 74
     0
 42
0.0000000001
 43
0.0000000001
 12
1.0
 22
0.0
 32
0.0
 13
1.0
 23
0.0
 33
0.0
 40
0.0
 40
0.0
 40
0.0
 40
0.0
 40
0.1428571428571428
 40
0.1428571428571428
 40
0.1428571428571428
 40
0.1428571428571428
 40
0.2857142857142857
 40
0.2857142857142857
 40
0.2857142857142857
 40
0.2857142857142857
 40
0.4285714285714285
 40
0.4285714285714285
 40
0.4285714285714285
 40
0.4285714285714285
 40
0.5714285714285714
 40
0.5714285714285714
 40
0.5714285714285714
 40
0.5714285714285714
 40
0.7142857142857143
 40
0.7142857142857143
 40
0.7142857142857143
 40
0.7142857142857143
 40
1.0
 40
1.0
 40
1.0
 40
1.0
 10
-120.3878
 20
65.9269
 30
0.0
 10
-120.8844
 20
66.9852
 30
0.0
 10
-121.2516
 20
68.0506
 30
0.0
 10
-121.2037
 20
68.2944
 30
0.0
 10
-121.2037
 20
68.2944
 30
0.0
 10
-121.0165
 20
69.248
 30
0.0
 10
-119.7152
 20
69.7641
 30
0.0
 10
-117.6462
 20
69.8187
 30
0.0
 10
-117.6462
 20
69.8187
 30
0.0
 10
-115.5772
 20
69.7914
 30
0.0
 10
-114.2758
 20
69.248
 30
0.0
 10
-114.0886
 20
68.2944
 30
0.0
 10
-114.0886
 20
68.2944
 30
0.0
 10
-114.0407
 20
68.0506
 30
0.0
 10
-114.4079
 20
66.9853
 30
0.0
 10
-114.9046
 20
65.9269
 30
0.0
 10
-114.9046
 20
65.9269
 30
0.0
 10
-116.4394
 20
63.3477
 30
0.0
 10
-117.2947
 20
57.3855
 30
0.0
 10
-117.6462
 20
55.1789
 30
0.0
 10
-117.6462
 20
55.1789
 30
0.0
 10
-117.9976
 20
57.3855
 30
0.0
 10
-118.853
 20
63.3478
 30
0.0
 10
-120.3878
 20
65.9269
 30
0.0
  0
SPLINE
  5
4A
330
1F
100
AcDbEntity
  8
layer 1
 62
     7
100
AcDbSpline
210
0.0
220
0.0
230
1.0
 70
    11
 71
     3
 72
    20
 73
    16
 74
     0
 42
0.0000000001
 43
0.0000000001
 12
1.0
 22
0.0
 32
0.0
 13
1.0
 23
0.0
 33
0.0
 40
0.0
 40
0.0
 40
0.0
 40
0.0
 40
0.2
 40
0.2
 40
0.2
 40
0.2
 40
0.4
 40
0.4
 40
0.4
 40
0.4
 40
0.6
 40
0.6
 40
0.6
 40
0.6
 40
1.0
 40
1.0
 40
1.0
 40
1.0
 10
-106.6454
 20
62.8348
 30
0.0
 10
-105.602
 20
63.1943
 30
0.0
 10
-105.0268
 20
62.8665
 30
0.0
 10
-104.3268
 20
62.1765
 30
0.0
 10
-104.3268
 20
62.1765
 30
0.0
 10
-103.2919
 20
61.1455
 30
0.0
 10
-103.4213
 20
59.8331
 30
0.0
 10
-104.7912
 20
59.2426
 30
0.0
 10
-104.7912
 20
59.2426
 30
0.0
 10
-109.276
 20
57.8162
 30
0.0
 10
-110.7946
 20
56.0434
 30
0.0
 10
-113.3207
 20
53.3086
 30
0.0
 10
-113.3207
 20
53.3086
 30
0.0
 10
-112.2497
 20
56.0615
 30
0.0
 10
-108.8939
 20
61.7925
 30
0.0
 10
-106.6454
 20
62.8348
 30
0.0
  0
SPLINE
  5
4B
330
1F
100
AcDbEntity
  8
layer 1
 62
     7
100
AcDbSpline
210
0.0
220
0.0
230
1.0
 70
    11
 71
     3
 72
    20
 73
    16
 74
     0
 42
0.0000000001
 43
0.0000000001
 12
1.0
 22
0.0
 32
0.0
 13
1.0
 23
0.0
 33
0.0
 40
0.0
 40
0.0
 40
0.0
 40
0.0
 40
0.2
 40
0.2
 40
0.2
 40
0.2
 40
0.4
 40
0.4
 40
0.4
 40
0.4
 40
0.6
 40
0.6
 40
0.6
 40
0.6
 40
1.0
 40
1.0
 40
1.0
 40
1.0
 10
-113.4598
 20
66.0696
 30
0.0
 10
-112.6759
 20
67.9178
 30
0.0
 10
-111.1438
 20
68.5318
 30
0.0
 10
-109.2371
 20
66.9413
 30
0.0
 10
-109.2371
 20
66.9413
 30
0.0
 10
-107.2715
 20
65.3017
 30
0.0
 10
-107.4061
 20
64.2099
 30
0.0
 10
-109.381
 20
62.528
 30
0.0
 10
-109.381
 20
62.528
 30
0.0
 10
-112.0972
 20
60.2714
 30
0.0
 10
-113.9695
 20
57.1427
 30
0.0
 10
-115.4808
 20
54.1964
 30
0.0
 10
-115.4808
 20
54.1964
 30
0.0
 10
-115.0425
 20
57.9587
 30
0.0
 10
-115.0413
 20
62.3161
 30
0.0
 10
-113.4598
 20
66.0696
 30
0.0
  0
SPLINE
  5
4C
330
1F
100
AcDbEntity
  8
layer 1
 62
     7
100
AcDbSpline
210
0.0
220
0.0
230
1.0
 70
    11
 71
     3
 72
    20
 73
    16
 74
     0
 42
0.0000000001
 43
0.0000000001
 12
1.0
 22
0.0
 32
0.0
 13
1.0
 23
0.0
 33
0.0
 40
0.0
 40
0.0
 40
0.0
 40
0.0
 40
0.2
 40
0.2
 40
0.2
 40
0.2
 40
0.4
 40
0.4
 40
0.4
 40
0.4
 40
0.6
 40
0.6
 40
0.6
 40
0.6
 40
1.0
 40
1.0
 40
1.0
 40
1.0
 10
-96.1746
 20
62.8348
 30
0.0
 10
-97.218
 20
63.1943
 30
0.0
 10
-97.7932
 20
62.8665
 30
0.0
 10
-98.4932
 20
62.1765
 30
0.0
 10
-98.4932
 20
62.1765
 30
0.0
 10
-99.5282
 20
61.1455
 30
0.0
 10
-99.3987
 20
59.8331
 30
0.0
 10
-98.0288
 20
59.2426
 30
0.0
 10
-98.0288
 20
59.2426
 30
0.0
 10
-93.544
 20
57.8162
 30
0.0
 10
-92.0254
 20
56.0434
 30
0.0
 10
-89.4994
 20
53.3086
 30
0.0
 10
-89.4994
 20
53.3086
 30
0.0
 10
-90.5703
 20
56.0615
 30
0.0
 10
-93.9262
 20
61.7925
 30
0.0
 10
-96.1746
 20
62.8348
 30
0.0
  0
SPLINE
  5
4D
330
1F
100
AcDbEntity
  8
layer 1
 62
     7
100
AcDbSpline
210
0.0
220
0.0
230
1.0
 70
    11
 71
     3
 72
    20
 73
    16
 74
     0
 42
0.0000000001
 43
0.0000000001
 12
1.0
 22
0.0
 32
0.0
 13
1.0
 23
0.0
 33
0.0
 40
0.0
 40
0.0
 40
0.0
 40
0.0
 40
0.2
 40
0.2
 40
0.2
 40
0.2
 40
0.4
 40
0.4
 40
0.4
 40
0.4
 40
0.6
 40
0.6
 40
0.6
 40
0.6
 40
1.0
 40
1.0
 40
1.0
 40
1.0
 10
-89.3602
 20
66.0696
 30
0.0
 10
-90.1441
 20
67.9178
 30
0.0
 10
-91.6763
 20
68.5318
 30
0.0
 10
-93.5829
 20
66.9413
 30
0.0
 10
-93.5829
 20
66.9413
 30
0.0
 10
-95.5485
 20
65.3017
 30
0.0
 10
-95.4139
 20
64.2099
 30
0.0
 10
-93.439
 20
62.528
 30
0.0
 10
-93.439
 20
62.528
 30
0.0
 10
-90.7228
 20
60.2714
 30
0.0
 10
-88.8505
 20
57.1427
 30
0.0
 10
-87.3392
 20
54.1964
 30
0.0
 10
-87.3392
 20
54.1964
 30
0.0
 10
-87.7775
 20
57.9587
 30
0.0
 10
-87.7787
 20
62.3161
 30
0.0
 10
-89.3602
 20
66.0696
 30
0.0
  0
SPLINE
  5
4E
330
1F
100
AcDbEntity
  8
layer 1
 62
     7
100
AcDbSpline
210
0.0
220
0.0
230
1.0
 70
    11
 71
     3
 72
    28
 73
    24
 74
     0
 42
0.0000000001
 43
0.0000000001
 12
1.0
 22
0.0
 32
0.0
 13
1.0
 23
0.0
 33
0.0
 40
0.0
 40
0.0
 40
0.0
 40
0.0
 40
0.1428571428571428
 40
0.1428571428571428
 40
0.1428571428571428
 40
0.1428571428571428
 40
0.2857142857142857
 40
0.2857142857142857
 40
0.2857142857142857
 40
0.2857142857142857
 40
0.4285714285714285
 40
0.4285714285714285
 40
0.4285714285714285
 40
0.4285714285714285
 40
0.5714285714285714
 40
0.5714285714285714
 40
0.5714285714285714
 40
0.5714285714285714
 40
0.7142857142857143
 40
0.7142857142857143
 40
0.7142857142857143
 40
0.7142857142857143
 40
1.0
 40
1.0
 40
1.0
 40
1.0
 10
-87.8616
 20
65.9269
 30
0.0
 10
-88.3582
 20
66.9852
 30
0.0
 10
-88.7254
 20
68.0506
 30
0.0
 10
-88.6775
 20
68.2944
 30
0.0
 10
-88.6775
 20
68.2944
 30
0.0
 10
-88.4903
 20
69.248
 30
0.0
 10
-87.189
 20
69.7641
 30
0.0
 10
-85.12
 20
69.8187
 30
0.0
 10
-85.12
 20
69.8187
 30
0.0
 10
-83.051
 20
69.7914
 30
0.0
 10
-81.7496
 20
69.248
 30
0.0
 10
-81.5624
 20
68.2944
 30
0.0
 10
-81.5624
 20
68.2944
 30
0.0
 10
-81.5145
 20
68.0506
 30
0.0
 10
-81.8817
 20
66.9853
 30
0.0
 10
-82.3784
 20
65.9269
 30
0.0
 10
-82.3784
 20
65.9269
 30
0.0
 10
-83.9132
 20
63.3477
 30
0.0
 10
-84.7685
 20
57.3855
 30
0.0
 10
-85.12
 20
55.1789
 30
0.0
 10
-85.12
 20
55.1789
 30
0.0
 10
-85.4714
 20
57.3855
 30
0.0
 10
-86.3268
 20
63.3478
 30
0.0
 10
-87.8616
 20
65.9269
 30
0.0
  0
SPLINE
  5
4F
330
1F
100
AcDbEntity
  8
layer 1
 62
     7
100
AcDbSpline
210
0.0
220
0.0
230
1.0
 70
    11
 71
     3
 72
    20
 73
    16
 74
     0
 42
0.0000000001
 43
0.0000000001
 12
1.0
 22
0.0
 32
0.0
 13
1.0
 23
0.0
 33
0.0
 40
0.0
 40
0.0
 40
0.0
 40
0.0
 40
0.2
 40
0.2
 40
0.2
 40
0.2
 40
0.4
 40
0.4
 40
0.4
 40
0.4
 40
0.6
 40
0.6
 40
0.6
 40
0.6
 40
1.0
 40
1.0
 40
1.0
 40
1.0
 10
-74.1192
 20
62.8348
 30
0.0
 10
-73.0758
 20
63.1943
 30
0.0
 10
-72.5006
 20
62.8665
 30
0.0
 10
-71.8006
 20
62.1765
 30
0.0
 10
-71.8006
 20
62.1765
 30
0.0
 10
-70.7657
 20
61.1455
 30
0.0
 10
-70.8951
 20
59.8331
 30
0.0
 10
-72.265
 20
59.2426
 30
0.0
 10
-72.265
 20
59.2426
 30
0.0
 10
-76.7498
 20
57.8162
 30
0.0
 10
-78.2684
 20
56.0434
 30
0.0
 10
-80.7945
 20
53.3086
 30
0.0
 10
-80.7945
 20
53.3086
 30
0.0
 10
-79.7235
 20
56.0615
 30
0.0
 10
-76.3677
 20
61.7925
 30
0.0
 10
-74.1192
 20
62.8348
 30
0.0
  0
SPLINE
  5
50
330
1F
100
AcDbEntity
  8
layer 1
 62
     7
100
AcDbSpline
210
0.0
220
0.0
230
1.0
 70
    11
 71
     3
 72
    20
 73
    16
 74
     0
 42
0.0000000001
 43
0.0000000001
 12
1.0
 22
0.0
 32
0.0
 13
1.0
 23
0.0
 33
0.0
 40
0.0
 40
0.0
 40
0.0
 40
0.0
 40
0.2
 40
0.2
 40
0.2
 40
0.2
 40
0.4
 40
0.4
 40
0.4
 40
0.4
 40
0.6
 40
0.6
 40
0.6
 40
0.6
 40
1.0
 40
1.0
 40
1.0
 40
1.0
 10
-80.9336
 20
66.0696
 30
0.0
 10
-80.1497
 20
67.9178
 30
0.0
 10
-78.6176
 20
68.5318
 30
0.0
 10
-76.7109
 20
66.9413
 30
0.0
 10
-76.7109
 20
66.9413
 30
0.0
 10
-74.7453
 20
65.3017
 30
0.0
 10
-74.8799
 20
64.2099
 30
0.0
 10
-76.8548
 20
62.528
 30
0.0
 10
-76.8548
 20
62.528
 30
0.0
 10
-79.571
 20
60.2714
 30
0.0
 10
-81.4433
 20
57.1427
 30
0.0
 10
-82.9546
 20
54.1964
 30
0.0
 10
-82.9546
 20
54.1964
 30
0.0
 10
-82.5163
 20
57.9587
 30
0.0
 10
-82.5151
 20
62.3161
 30
0.0
 10
-80.9336
 20
66.0696
 30
0.0
  0
SPLINE
  5
51
330
1F
100
AcDbEntity
  8
layer 1
 62
     7
100
AcDbSpline
210
0.0
220
0.0
230
1.0
 70
    11
 71
     3
 72
    20
 73
    16
 74
     0
 42
0.0000000001
 43
0.0000000001
 12
1.0
 22
0.0
 32
0.0
 13
1.0
 23
0.0
 33
0.0
 40
0.0
 40
0.0
 40
0.0
 40
0.0
 40
0.2
 40
0.2
 40
0.2
 40
0.2
 40
0.4
 40
0.4
 40
0.4
 40
0.4
 40
0.6
 40
0.6
 40
0.6
 40
0.6
 40
1.0
 40
1.0
 40
1.0
 40
1.0
 10
-63.6484
 20
62.8348
 30
0.0
 10
-64.6918
 20
63.1943
 30
0.0
 10
-65.267
 20
62.8665
 30
0.0
 10
-65.967
 20
62.1765
 30
0.0
 10
-65.967
 20
62.1765
 30
0.0
 10
-67.0019
 20
61.1455
 30
0.0
 10
-66.8725
 20
59.8331
 30
0.0
 10
-65.5026
 20
59.2426
 30
0.0
 10
-65.5026
 20
59.2426
 30
0.0
 10
-61.0178
 20
57.8162
 30
0.0
 10
-59.4992
 20
56.0434
 30
0.0
 10
-56.9732
 20
53.3086
 30
0.0
 10
-56.9732
 20
53.3086
 30
0.0
 10
-58.0441
 20
56.0615
 30
0.0
 10
-61.4
 20
61.7925
 30
0.0
 10
-63.6484
 20
62.8348
 30
0.0
  0
SPLINE
  5
52
330
1F
100
AcDbEntity
  8
layer 1
 62
     7
100
AcDbSpline
210
0.0
220
0.0
230
1.0
 70
    11
 71
     3
 72
    20
 73
    16
 74
     0
 42
0.0000000001
 43
0.0000000001
 12
1.0
 22
0.0
 32
0.0
 13
1.0
 23
0.0
 33
0.0
 40
0.0
 40
0.0
 40
0.0
 40
0.0
 40
0.2
 40
0.2
 40
0.2
 40
0.2
 40
0.4
 40
0.4
 40
0.4
 40
0.4
 40
0.6
 40
0.6
 40
0.6
 40
0.6
 40
1.0
 40
1.0
 40
1.0
 40
1.0
 10
-56.834
 20
66.0696
 30
0.0
 10
-57.6179
 20
67.9178
 30
0.0
 10
-59.1501
 20
68.5318
 30
0.0
 10
-61.0567
 20
66.9413
 30
0.0
 10
-61.0567
 20
66.9413
 30
0.0
 10
-63.0223
 20
65.3017
 30
0.0
 10
-62.8877
 20
64.2099
 30
0.0
 10
-60.9128
 20
62.528
 30
0.0
 10
-60.9128
 20
62.528
 30
0.0
 10
-58.1966
 20
60.2714
 30
0.0
 10
-56.3243
 20
57.1427
 30
0.0
 10
-54.813
 20
54.1964
 30
0.0
 10
-54.813
 20
54.1964
 30
0.0
 10
-55.2513
 20
57.9587
 30
0.0
 10
-55.2525
 20
62.3161
 30
0.0
 10
-56.834
 20
66.0696
 30
0.0
  0
SPLINE
  5
53
330
1F
100
AcDbEntity
  8
layer 1
 62
     7
100
AcDbSpline
210
0.0
220
0.0
230
1.0
 70
    11
 71
     3
 72
    20
 73
    16
 74
     0
 42
0.0000000001
 43
0.0000000001
 12
1.0
 22
0.0
 32
0.0
 13
1.0
 23
0.0
 33
0.0
 40
0.0
 40
0.0
 40
0.0
 40
0.0
 40
0.2
 40
0.2
 40
0.2
 40
0.2
 40
0.4
 40
0.4
 40
0.4
 40
0.4
 40
0.6
 40
0.6
 40
0.6
 40
0.6
 40
1.0
 40
1.0
 40
1.0
 40
1.0
 10
-55.3354
 20
65.9269
 30
0.0
 10
-55.832
 20
66.9852
 30
0.0
 10
-56.1992
 20
68.0506
 30
0.0
 10
-56.1513
 20
68.2944
 30
0.0
 10
-56.1513
 20
68.2944
 30
0.0
 10
-55.9641
 20
69.248
 30
0.0
 10
-54.6628
 20
69.7641
 30
0.0
 10
-52.5938
 20
69.8187
 30
0.0
 10
-52.5938
 20
69.8187
 30
0.0
 10
-52.5938
 20
69.8187
 30
0.0
 10
-52.5938
 20
55.1789
 30
0.0
 10
-52.5938
 20
55.1789
 30
0.0
 10
-52.5938
 20
55.1789
 30
0.0
 10
-52.9451
 20
57.3855
 30
0.0
 10
-53.8005
 20
63.3478
 30
0.0
 10
-55.3354
 20
65.9269
 30
0.0
  0
SPLINE
  5
54
330
1F
100
AcDbEntity
  8
layer 1
 62
     7
100
AcDbSpline
210
0.0
220
0.0
230
1.0
 70
    11
 71
     3
 72
    20
 73
    16
 74
     0
 42
0.0000000001
 43
0.0000000001
 12
1.0
 22
0.0
 32
0.0
 13
1.0
 23
0.0
 33
0.0
 40
0.0
 40
0.0
 40
0.0
 40
0.0
 40
0.2
 40
0.2
 40
0.2
 40
0.2
 40
0.4
 40
0.4
 40
0.4
 40
0.4
 40
0.6
 40
0.6
 40
0.6
 40
0.6
 40
1.0
 40
1.0
 40
1.0
 40
1.0
 10
-177.7311
 20
76.0813
 30
0.0
 10
-178.7745
 20
76.4408
 30
0.0
 10
-179.3497
 20
76.113
 30
0.0
 10
-180.0496
 20
75.423
 30
0.0
 10
-180.0496
 20
75.423
 30
0.0
 10
-181.0846
 20
74.392
 30
0.0
 10
-180.9551
 20
73.0796
 30
0.0
 10
-179.5852
 20
72.4891
 30
0.0
 10
-179.5852
 20
72.4891
 30
0.0
 10
-175.1005
 20
71.0627
 30
0.0
 10
-173.5818
 20
69.2899
 30
0.0
 10
-171.0558
 20
66.5551
 30
0.0
 10
-171.0558
 20
66.5551
 30
0.0
 10
-172.1267
 20
69.308
 30
0.0
 10
-175.4826
 20
75.039
 30
0.0
 10
-177.7311
 20
76.0813
 30
0.0
  0
SPLINE
  5
55
330
1F
100
AcDbEntity
  8
layer 1
 62
     7
100
AcDbSpline
210
0.0
220
0.0
230
1.0
 70
    11
 71
     3
 72
    20
 73
    16
 74
     0
 42
0.0000000001
 43
0.0000000001
 12
1.0
 22
0.0
 32
0.0
 13
1.0
 23
0.0
 33
0.0
 40
0.0
 40
0.0
 40
0.0
 40
0.0
 40
0.2
 40
0.2
 40
0.2
 40
0.2
 40
0.4
 40
0.4
 40
0.4
 40
0.4
 40
0.6
 40
0.6
 40
0.6
 40
0.6
 40
1.0
 40
1.0
 40
1.0
 40
1.0
 10
-170.9166
 20
79.3161
 30
0.0
 10
-171.7005
 20
81.1643
 30
0.0
 10
-173.2327
 20
81.7783
 30
0.0
 10
-175.1394
 20
80.1878
 30
0.0
 10
-175.1394
 20
80.1878
 30
0.0
 10
-177.105
 20
78.5482
 30
0.0
 10
-176.9703
 20
77.4564
 30
0.0
 10
-174.9954
 20
75.7745
 30
0.0
 10
-174.9954
 20
75.7745
 30
0.0
 10
-172.2793
 20
73.5179
 30
0.0
 10
-170.4069
 20
70.3892
 30
0.0
 10
-168.8957
 20
67.4429
 30
0.0
 10
-168.8957
 20
67.4429
 30
0.0
 10
-169.334
 20
71.2052
 30
0.0
 10
-169.3352
 20
75.5626
 30
0.0
 10
-170.9166
 20
79.3161
 30
0.0
  0
SPLINE
  5
56
330
1F
100
AcDbEntity
  8
layer 1
 62
     7
100
AcDbSpline
210
0.0
220
0.0
230
1.0
 70
    11
 71
     3
 72
    28
 73
    24
 74
     0
 42
0.0000000001
 43
0.0000000001
 12
1.0
 22
0.0
 32
0.0
 13
1.0
 23
0.0
 33
0.0
 40
0.0
 40
0.0
 40
0.0
 40
0.0
 40
0.1428571428571428
 40
0.1428571428571428
 40
0.1428571428571428
 40
0.1428571428571428
 40
0.2857142857142857
 40
0.2857142857142857
 40
0.2857142857142857
 40
0.2857142857142857
 40
0.4285714285714285
 40
0.4285714285714285
 40
0.4285714285714285
 40
0.4285714285714285
 40
0.5714285714285714
 40
0.5714285714285714
 40
0.5714285714285714
 40
0.5714285714285714
 40
0.7142857142857143
 40
0.7142857142857143
 40
0.7142857142857143
 40
0.7142857142857143
 40
1.0
 40
1.0
 40
1.0
 40
1.0
 10
-169.418
 20
79.1734
 30
0.0
 10
-169.9147
 20
80.2317
 30
0.0
 10
-170.2818
 20
81.2971
 30
0.0
 10
-170.234
 20
81.5409
 30
0.0
 10
-170.234
 20
81.5409
 30
0.0
 10
-170.0468
 20
82.4945
 30
0.0
 10
-168.7454
 20
83.0106
 30
0.0
 10
-166.6764
 20
83.0652
 30
0.0
 10
-166.6764
 20
83.0652
 30
0.0
 10
-164.6074
 20
83.0379
 30
0.0
 10
-163.3061
 20
82.4945
 30
0.0
 10
-163.1188
 20
81.5409
 30
0.0
 10
-163.1188
 20
81.5409
 30
0.0
 10
-163.071
 20
81.2971
 30
0.0
 10
-163.4382
 20
80.2318
 30
0.0
 10
-163.9348
 20
79.1734
 30
0.0
 10
-163.9348
 20
79.1734
 30
0.0
 10
-165.4696
 20
76.5942
 30
0.0
 10
-166.3249
 20
70.632
 30
0.0
 10
-166.6764
 20
68.4254
 30
0.0
 10
-166.6764
 20
68.4254
 30
0.0
 10
-167.0278
 20
70.632
 30
0.0
 10
-167.8832
 20
76.5943
 30
0.0
 10
-169.418
 20
79.1734
 30
0.0
  0
SPLINE
  5
57
330
1F
100
AcDbEntity
  8
layer 1
 62
     7
100
AcDbSpline
210
0.0
220
0.0
230
1.0
 70
    11
 71
     3
 72
    20
 73
    16
 74
     0
 42
0.0000000001
 43
0.0000000001
 12
1.0
 22
0.0
 32
0.0
 13
1.0
 23
0.0
 33
0.0
 40
0.0
 40
0.0
 40
0.0
 40
0.0
 40
0.2
 40
0.2
 40
0.2
 40
0.2
 40
0.4
 40
0.4
 40
0.4
 40
0.4
 40
0.6
 40
0.6
 40
0.6
 40
0.6
 40
1.0
 40
1.0
 40
1.0
 40
1.0
 10
-155.6756
 20
76.0813
 30
0.0
 10
-154.6323
 20
76.4408
 30
0.0
 10
-154.057
 20
76.113
 30
0.0
 10
-153.3571
 20
75.423
 30
0.0
 10
-153.3571
 20
75.423
 30
0.0
 10
-152.3221
 20
74.392
 30
0.0
 10
-152.4516
 20
73.0796
 30
0.0
 10
-153.8215
 20
72.4891
 30
0.0
 10
-153.8215
 20
72.4891
 30
0.0
 10
-158.3062
 20
71.0627
 30
0.0
 10
-159.8249
 20
69.2899
 30
0.0
 10
-162.3509
 20
66.5551
 30
0.0
 10
-162.3509
 20
66.5551
 30
0.0
 10
-161.28
 20
69.308
 30
0.0
 10
-157.9241
 20
75.039
 30
0.0
 10
-155.6756
 20
76.0813
 30
0.0
  0
SPLINE
  5
58
330
1F
100
AcDbEntity
  8
layer 1
 62
     7
100
AcDbSpline
210
0.0
220
0.0
230
1.0
 70
    11
 71
     3
 72
    20
 73
    16
 74
     0
 42
0.0000000001
 43
0.0000000001
 12
1.0
 22
0.0
 32
0.0
 13
1.0
 23
0.0
 33
0.0
 40
0.0
 40
0.0
 40
0.0
 40
0.0
 40
0.2
 40
0.2
 40
0.2
 40
0.2
 40
0.4
 40
0.4
 40
0.4
 40
0.4
 40
0.6
 40
0.6
 40
0.6
 40
0.6
 40
1.0
 40
1.0
 40
1.0
 40
1.0
 10
-162.4901
 20
79.3161
 30
0.0
 10
-161.7062
 20
81.1643
 30
0.0
 10
-160.174
 20
81.7783
 30
0.0
 10
-158.2674
 20
80.1878
 30
0.0
 10
-158.2674
 20
80.1878
 30
0.0
 10
-156.3017
 20
78.5482
 30
0.0
 10
-156.4364
 20
77.4564
 30
0.0
 10
-158.4113
 20
75.7745
 30
0.0
 10
-158.4113
 20
75.7745
 30
0.0
 10
-161.1275
 20
73.5179
 30
0.0
 10
-162.9998
 20
70.3892
 30
0.0
 10
-164.5111
 20
67.4429
 30
0.0
 10
-164.5111
 20
67.4429
 30
0.0
 10
-164.0728
 20
71.2052
 30
0.0
 10
-164.0715
 20
75.5626
 30
0.0
 10
-162.4901
 20
79.3161
 30
0.0
  0
SPLINE
  5
59
330
1F
100
AcDbEntity
  8
layer 1
 62
     7
100
AcDbSpline
210
0.0
220
0.0
230
1.0
 70
    11
 71
     3
 72
    20
 73
    16
 74
     0
 42
0.0000000001
 43
0.0000000001
 12
1.0
 22
0.0
 32
0.0
 13
1.0
 23
0.0
 33
0.0
 40
0.0
 40
0.0
 40
0.0
 40
0.0
 40
0.2
 40
0.2
 40
0.2
 40
0.2
 40
0.4
 40
0.4
 40
0.4
 40
0.4
 40
0.6
 40
0.6
 40
0.6
 40
0.6
 40
1.0
 40
1.0
 40
1.0
 40
1.0
 10
-145.0835
 20
76.0813
 30
0.0
 10
-146.1269
 20
76.4408
 30
0.0
 10
-146.7021
 20
76.113
 30
0.0
 10
-147.402
 20
75.423
 30
0.0
 10
-147.402
 20
75.423
 30
0.0
 10
-148.437
 20
74.392
 30
0.0
 10
-148.3075
 20
73.0796
 30
0.0
 10
-146.9376
 20
72.4891
 30
0.0
 10
-146.9376
 20
72.4891
 30
0.0
 10
-142.4529
 20
71.0627
 30
0.0
 10
-140.9342
 20
69.2899
 30
0.0
 10
-138.4082
 20
66.5551
 30
0.0
 10
-138.4082
 20
66.5551
 30
0.0
 10
-139.4791
 20
69.308
 30
0.0
 10
-142.835
 20
75.039
 30
0.0
 10
-145.0835
 20
76.0813
 30
0.0
  0
SPLINE
  5
5A
330
1F
100
AcDbEntity
  8
layer 1
 62
     7
100
AcDbSpline
210
0.0
220
0.0
230
1.0
 70
    11
 71
     3
 72
    20
 73
    16
 74
     0
 42
0.0000000001
 43
0.0000000001
 12
1.0
 22
0.0
 32
0.0
 13
1.0
 23
0.0
 33
0.0
 40
0.0
 40
0.0
 40
0.0
 40
0.0
 40
0.2
 40
0.2
 40
0.2
 40
0.2
 40
0.4
 40
0.4
 40
0.4
 40
0.4
 40
0.6
 40
0.6
 40
0.6
 40
0.6
 40
1.0
 40
1.0
 40
1.0
 40
1.0
 10
-138.269
 20
79.3161
 30
0.0
 10
-139.0529
 20
81.1643
 30
0.0
 10
-140.5851
 20
81.7783
 30
0.0
 10
-142.4917
 20
80.1878
 30
0.0
 10
-142.4917
 20
80.1878
 30
0.0
 10
-144.4574
 20
78.5482
 30
0.0
 10
-144.3227
 20
77.4564
 30
0.0
 10
-142.3478
 20
75.7745
 30
0.0
 10
-142.3478
 20
75.7745
 30
0.0
 10
-139.6316
 20
73.5179
 30
0.0
 10
-137.7593
 20
70.3892
 30
0.0
 10
-136.248
 20
67.4429
 30
0.0
 10
-136.248
 20
67.4429
 30
0.0
 10
-136.6863
 20
71.2052
 30
0.0
 10
-136.6876
 20
75.5626
 30
0.0
 10
-138.269
 20
79.3161
 30
0.0
  0
SPLINE
  5
5B
330
1F
100
AcDbEntity
  8
layer 1
 62
     7
100
AcDbSpline
210
0.0
220
0.0
230
1.0
 70
    11
 71
     3
 72
    28
 73
    24
 74
     0
 42
0.0000000001
 43
0.0000000001
 12
1.0
 22
0.0
 32
0.0
 13
1.0
 23
0.0
 33
0.0
 40
0.0
 40
0.0
 40
0.0
 40
0.0
 40
0.1428571428571428
 40
0.1428571428571428
 40
0.1428571428571428
 40
0.1428571428571428
 40
0.2857142857142857
 40
0.2857142857142857
 40
0.2857142857142857
 40
0.2857142857142857
 40
0.4285714285714285
 40
0.4285714285714285
 40
0.4285714285714285
 40
0.4285714285714285
 40
0.5714285714285714
 40
0.5714285714285714
 40
0.5714285714285714
 40
0.5714285714285714
 40
0.7142857142857143
 40
0.7142857142857143
 40
0.7142857142857143
 40
0.7142857142857143
 40
1.0
 40
1.0
 40
1.0
 40
1.0
 10
-136.7704
 20
79.1734
 30
0.0
 10
-137.267
 20
80.2317
 30
0.0
 10
-137.6342
 20
81.2971
 30
0.0
 10
-137.5864
 20
81.5409
 30
0.0
 10
-137.5864
 20
81.5409
 30
0.0
 10
-137.3991
 20
82.4945
 30
0.0
 10
-136.0978
 20
83.0106
 30
0.0
 10
-134.0288
 20
83.0652
 30
0.0
 10
-134.0288
 20
83.0652
 30
0.0
 10
-131.9598
 20
83.0379
 30
0.0
 10
-130.6584
 20
82.4945
 30
0.0
 10
-130.4712
 20
81.5409
 30
0.0
 10
-130.4712
 20
81.5409
 30
0.0
 10
-130.4234
 20
81.2971
 30
0.0
 10
-130.7905
 20
80.2318
 30
0.0
 10
-131.2872
 20
79.1734
 30
0.0
 10
-131.2872
 20
79.1734
 30
0.0
 10
-132.822
 20
76.5942
 30
0.0
 10
-133.6773
 20
70.632
 30
0.0
 10
-134.0288
 20
68.4254
 30
0.0
 10
-134.0288
 20
68.4254
 30
0.0
 10
-134.3802
 20
70.632
 30
0.0
 10
-135.2356
 20
76.5943
 30
0.0
 10
-136.7704
 20
79.1734
 30
0.0
  0
SPLINE
  5
5C
330
1F
100
AcDbEntity
  8
layer 1
 62
     7
100
AcDbSpline
210
0.0
220
0.0
230
1.0
 70
    11
 71
     3
 72
    20
 73
    16
 74
     0
 42
0.0000000001
 43
0.0000000001
 12
1.0
 22
0.0
 32
0.0
 13
1.0
 23
0.0
 33
0.0
 40
0.0
 40
0.0
 40
0.0
 40
0.0
 40
0.2
 40
0.2
 40
0.2
 40
0.2
 40
0.4
 40
0.4
 40
0.4
 40
0.4
 40
0.6
 40
0.6
 40
0.6
 40
0.6
 40
1.0
 40
1.0
 40
1.0
 40
1.0
 10
-123.028
 20
76.0813
 30
0.0
 10
-121.9846
 20
76.4408
 30
0.0
 10
-121.4094
 20
76.113
 30
0.0
 10
-120.7095
 20
75.423
 30
0.0
 10
-120.7095
 20
75.423
 30
0.0
 10
-119.6745
 20
74.392
 30
0.0
 10
-119.804
 20
73.0796
 30
0.0
 10
-121.1739
 20
72.4891
 30
0.0
 10
-121.1739
 20
72.4891
 30
0.0
 10
-125.6586
 20
71.0627
 30
0.0
 10
-127.1773
 20
69.2899
 30
0.0
 10
-129.7033
 20
66.5551
 30
0.0
 10
-129.7033
 20
66.5551
 30
0.0
 10
-128.6324
 20
69.308
 30
0.0
 10
-125.2765
 20
75.039
 30
0.0
 10
-123.028
 20
76.0813
 30
0.0
  0
SPLINE
  5
5D
330
1F
100
AcDbEntity
  8
layer 1
 62
     7
100
AcDbSpline
210
0.0
220
0.0
230
1.0
 70
    11
 71
     3
 72
    20
 73
    16
 74
     0
 42
0.0000000001
 43
0.0000000001
 12
1.0
 22
0.0
 32
0.0
 13
1.0
 23
0.0
 33
0.0
 40
0.0
 40
0.0
 40
0.0
 40
0.0
 40
0.2
 40
0.2
 40
0.2
 40
0.2
 40
0.4
 40
0.4
 40
0.4
 40
0.4
 40
0.6
 40
0.6
 40
0.6
 40
0.6
 40
1.0
 40
1.0
 40
1.0
 40
1.0
 10
-129.8425
 20
79.3161
 30
0.0
 10
-129.0586
 20
81.1643
 30
0.0
 10
-127.5264
 20
81.7783
 30
0.0
 10
-125.6198
 20
80.1878
 30
0.0
 10
-125.6198
 20
80.1878
 30
0.0
 10
-123.6541
 20
78.5482
 30
0.0
 10
-123.7888
 20
77.4564
 30
0.0
 10
-125.7637
 20
75.7745
 30
0.0
 10
-125.7637
 20
75.7745
 30
0.0
 10
-128.4798
 20
73.5179
 30
0.0
 10
-130.3522
 20
70.3892
 30
0.0
 10
-131.8634
 20
67.4429
 30
0.0
 10
-131.8634
 20
67.4429
 30
0.0
 10
-131.4251
 20
71.2052
 30
0.0
 10
-131.4239
 20
75.5626
 30
0.0
 10
-129.8425
 20
79.3161
 30
0.0
  0
SPLINE
  5
5E
330
1F
100
AcDbEntity
  8
layer 1
 62
     7
100
AcDbSpline
210
0.0
220
0.0
230
1.0
 70
    11
 71
     3
 72
    20
 73
    16
 74
     0
 42
0.0000000001
 43
0.0000000001
 12
1.0
 22
0.0
 32
0.0
 13
1.0
 23
0.0
 33
0.0
 40
0.0
 40
0.0
 40
0.0
 40
0.0
 40
0.2
 40
0.2
 40
0.2
 40
0.2
 40
0.4
 40
0.4
 40
0.4
 40
0.4
 40
0.6
 40
0.6
 40
0.6
 40
0.6
 40
1.0
 40
1.0
 40
1.0
 40
1.0
 10
-112.4358
 20
76.0813
 30
0.0
 10
-113.4792
 20
76.4408
 30
0.0
 10
-114.0544
 20
76.113
 30
0.0
 10
-114.7544
 20
75.423
 30
0.0
 10
-114.7544
 20
75.423
 30
0.0
 10
-115.7894
 20
74.392
 30
0.0
 10
-115.6599
 20
73.0796
 30
0.0
 10
-114.29
 20
72.4891
 30
0.0
 10
-114.29
 20
72.4891
 30
0.0
 10
-109.8052
 20
71.0627
 30
0.0
 10
-108.2866
 20
69.2899
 30
0.0
 10
-105.7606
 20
66.5551
 30
0.0
 10
-105.7606
 20
66.5551
 30
0.0
 10
-106.8315
 20
69.308
 30
0.0
 10
-110.1874
 20
75.039
 30
0.0
 10
-112.4358
 20
76.0813
 30
0.0
  0
SPLINE
  5
5F
330
1F
100
AcDbEntity
  8
layer 1
 62
     7
100
AcDbSpline
210
0.0
220
0.0
230
1.0
 70
    11
 71
     3
 72
    20
 73
    16
 74
     0
 42
0.0000000001
 43
0.0000000001
 12
1.0
 22
0.0
 32
0.0
 13
1.0
 23
0.0
 33
0.0
 40
0.0
 40
0.0
 40
0.0
 40
0.0
 40
0.2
 40
0.2
 40
0.2
 40
0.2
 40
0.4
 40
0.4
 40
0.4
 40
0.4
 40
0.6
 40
0.6
 40
0.6
 40
0.6
 40
1.0
 40
1.0
 40
1.0
 40
1.0
 10
-105.6214
 20
79.3161
 30
0.0
 10
-106.4053
 20
81.1643
 30
0.0
 10
-107.9375
 20
81.7783
 30
0.0
 10
-109.8441
 20
80.1878
 30
0.0
 10
-109.8441
 20
80.1878
 30
0.0
 10
-111.8098
 20
78.5482
 30
0.0
 10
-111.6751
 20
77.4564
 30
0.0
 10
-109.7002
 20
75.7745
 30
0.0
 10
-109.7002
 20
75.7745
 30
0.0
 10
-106.984
 20
73.5179
 30
0.0
 10
-105.1117
 20
70.3892
 30
0.0
 10
-103.6004
 20
67.4429
 30
0.0
 10
-103.6004
 20
67.4429
 30
0.0
 10
-104.0387
 20
71.2052
 30
0.0
 10
-104.0399
 20
75.5626
 30
0.0
 10
-105.6214
 20
79.3161
 30
0.0
  0
SPLINE
  5
60
330
1F
100
AcDbEntity
  8
layer 1
 62
     7
100
AcDbSpline
210
0.0
220
0.0
230
1.0
 70
    11
 71
     3
 72
    28
 73
    24
 74
     0
 42
0.0000000001
 43
0.0000000001
 12
1.0
 22
0.0
 32
0.0
 13
1.0
 23
0.0
 33
0.0
 40
0.0
 40
0.0
 40
0.0
 40
0.0
 40
0.1428571428571428
 40
0.1428571428571428
 40
0.1428571428571428
 40
0.1428571428571428
 40
0.2857142857142857
 40
0.2857142857142857
 40
0.2857142857142857
 40
0.2857142857142857
 40
0.4285714285714285
 40
0.4285714285714285
 40
0.4285714285714285
 40
0.4285714285714285
 40
0.5714285714285714
 40
0.5714285714285714
 40
0.5714285714285714
 40
0.5714285714285714
 40
0.7142857142857143
 40
0.7142857142857143
 40
0.7142857142857143
 40
0.7142857142857143
 40
1.0
 40
1.0
 40
1.0
 40
1.0
 10
-104.1228
 20
79.1734
 30
0.0
 10
-104.6194
 20
80.2317
 30
0.0
 10
-104.9866
 20
81.2971
 30
0.0
 10
-104.9388
 20
81.5409
 30
0.0
 10
-104.9388
 20
81.5409
 30
0.0
 10
-104.7515
 20
82.4945
 30
0.0
 10
-103.4502
 20
83.0106
 30
0.0
 10
-101.3812
 20
83.0652
 30
0.0
 10
-101.3812
 20
83.0652
 30
0.0
 10
-99.3122
 20
83.0379
 30
0.0
 10
-98.0108
 20
82.4945
 30
0.0
 10
-97.8236
 20
81.5409
 30
0.0
 10
-97.8236
 20
81.5409
 30
0.0
 10
-97.7757
 20
81.2971
 30
0.0
 10
-98.1429
 20
80.2318
 30
0.0
 10
-98.6396
 20
79.1734
 30
0.0
 10
-98.6396
 20
79.1734
 30
0.0
 10
-100.1744
 20
76.5942
 30
0.0
 10
-101.0297
 20
70.632
 30
0.0
 10
-101.3812
 20
68.4254
 30
0.0
 10
-101.3812
 20
68.4254
 30
0.0
 10
-101.7326
 20
70.632
 30
0.0
 10
-102.588
 20
76.5943
 30
0.0
 10
-104.1228
 20
79.1734
 30
0.0
  0
SPLINE
  5
61
330
1F
100
AcDbEntity
  8
layer 1
 62
     7
100
AcDbSpline
210
0.0
220
0.0
230
1.0
 70
    11
 71
     3
 72
    20
 73
    16
 74
     0
 42
0.0000000001
 43
0.0000000001
 12
1.0
 22
0.0
 32
0.0
 13
1.0
 23
0.0
 33
0.0
 40
0.0
 40
0.0
 40
0.0
 40
0.0
 40
0.2
 40
0.2
 40
0.2
 40
0.2
 40
0.4
 40
0.4
 40
0.4
 40
0.4
 40
0.6
 40
0.6
 40
0.6
 40
0.6
 40
1.0
 40
1.0
 40
1.0
 40
1.0
 10
-90.3804
 20
76.0813
 30
0.0
 10
-89.337
 20
76.4408
 30
0.0
 10
-88.7618
 20
76.113
 30
0.0
 10
-88.0619
 20
75.423
 30
0.0
 10
-88.0619
 20
75.423
 30
0.0
 10
-87.0269
 20
74.392
 30
0.0
 10
-87.1563
 20
73.0796
 30
0.0
 10
-88.5262
 20
72.4891
 30
0.0
 10
-88.5262
 20
72.4891
 30
0.0
 10
-93.011
 20
71.0627
 30
0.0
 10
-94.5296
 20
69.2899
 30
0.0
 10
-97.0557
 20
66.5551
 30
0.0
 10
-97.0557
 20
66.5551
 30
0.0
 10
-95.9848
 20
69.308
 30
0.0
 10
-92.6289
 20
75.039
 30
0.0
 10
-90.3804
 20
76.0813
 30
0.0
  0
SPLINE
  5
62
330
1F
100
AcDbEntity
  8
layer 1
 62
     7
100
AcDbSpline
210
0.0
220
0.0
230
1.0
 70
    11
 71
     3
 72
    20
 73
    16
 74
     0
 42
0.0000000001
 43
0.0000000001
 12
1.0
 22
0.0
 32
0.0
 13
1.0
 23
0.0
 33
0.0
 40
0.0
 40
0.0
 40
0.0
 40
0.0
 40
0.2
 40
0.2
 40
0.2
 40
0.2
 40
0.4
 40
0.4
 40
0.4
 40
0.4
 40
0.6
 40
0.6
 40
0.6
 40
0.6
 40
1.0
 40
1.0
 40
1.0
 40
1.0
 10
-97.1949
 20
79.3161
 30
0.0
 10
-96.4109
 20
81.1643
 30
0.0
 10
-94.8788
 20
81.7783
 30
0.0
 10
-92.9721
 20
80.1878
 30
0.0
 10
-92.9721
 20
80.1878
 30
0.0
 10
-91.0065
 20
78.5482
 30
0.0
 10
-91.1411
 20
77.4564
 30
0.0
 10
-93.1161
 20
75.7745
 30
0.0
 10
-93.1161
 20
75.7745
 30
0.0
 10
-95.8322
 20
73.5179
 30
0.0
 10
-97.7045
 20
70.3892
 30
0.0
 10
-99.2158
 20
67.4429
 30
0.0
 10
-99.2158
 20
67.4429
 30
0.0
 10
-98.7775
 20
71.2052
 30
0.0
 10
-98.7763
 20
75.5626
 30
0.0
 10
-97.1949
 20
79.3161
 30
0.0
  0
SPLINE
  5
63
330
1F
100
AcDbEntity
  8
layer 1
 62
     7
100
AcDbSpline
210
0.0
220
0.0
230
1.0
 70
    11
 71
     3
 72
    20
 73
    16
 74
     0
 42
0.0000000001
 43
0.0000000001
 12
1.0
 22
0.0
 32
0.0
 13
1.0
 23
0.0
 33
0.0
 40
0.0
 40
0.0
 40
0.0
 40
0.0
 40
0.2
 40
0.2
 40
0.2
 40
0.2
 40
0.4
 40
0.4
 40
0.4
 40
0.4
 40
0.6
 40
0.6
 40
0.6
 40
0.6
 40
1.0
 40
1.0
 40
1.0
 40
1.0
 10
-79.7882
 20
76.0813
 30
0.0
 10
-80.8316
 20
76.4408
 30
0.0
 10
-81.4068
 20
76.113
 30
0.0
 10
-82.1068
 20
75.423
 30
0.0
 10
-82.1068
 20
75.423
 30
0.0
 10
-83.1417
 20
74.392
 30
0.0
 10
-83.0123
 20
73.0796
 30
0.0
 10
-81.6424
 20
72.4891
 30
0.0
 10
-81.6424
 20
72.4891
 30
0.0
 10
-77.1576
 20
71.0627
 30
0.0
 10
-75.639
 20
69.2899
 30
0.0
 10
-73.113
 20
66.5551
 30
0.0
 10
-73.113
 20
66.5551
 30
0.0
 10
-74.1839
 20
69.308
 30
0.0
 10
-77.5398
 20
75.039
 30
0.0
 10
-79.7882
 20
76.0813
 30
0.0
  0
SPLINE
  5
64
330
1F
100
AcDbEntity
  8
layer 1
 62
     7
100
AcDbSpline
210
0.0
220
0.0
230
1.0
 70
    11
 71
     3
 72
    20
 73
    16
 74
     0
 42
0.0000000001
 43
0.0000000001
 12
1.0
 22
0.0
 32
0.0
 13
1.0
 23
0.0
 33
0.0
 40
0.0
 40
0.0
 40
0.0
 40
0.0
 40
0.2
 40
0.2
 40
0.2
 40
0.2
 40
0.4
 40
0.4
 40
0.4
 40
0.4
 40
0.6
 40
0.6
 40
0.6
 40
0.6
 40
1.0
 40
1.0
 40
1.0
 40
1.0
 10
-72.9738
 20
79.3161
 30
0.0
 10
-73.7577
 20
81.1643
 30
0.0
 10
-75.2899
 20
81.7783
 30
0.0
 10
-77.1965
 20
80.1878
 30
0.0
 10
-77.1965
 20
80.1878
 30
0.0
 10
-79.1621
 20
78.5482
 30
0.0
 10
-79.0275
 20
77.4564
 30
0.0
 10
-77.0526
 20
75.7745
 30
0.0
 10
-77.0526
 20
75.7745
 30
0.0
 10
-74.3364
 20
73.5179
 30
0.0
 10
-72.4641
 20
70.3892
 30
0.0
 10
-70.9528
 20
67.4429
 30
0.0
 10
-70.9528
 20
67.4429
 30
0.0
 10
-71.3911
 20
71.2052
 30
0.0
 10
-71.3923
 20
75.5626
 30
0.0
 10
-72.9738
 20
79.3161
 30
0.0
  0
SPLINE
  5
65
330
1F
100
AcDbEntity
  8
layer 1
 62
     7
100
AcDbSpline
210
0.0
220
0.0
230
1.0
 70
    11
 71
     3
 72
    28
 73
    24
 74
     0
 42
0.0000000001
 43
0.0000000001
 12
1.0
 22
0.0
 32
0.0
 13
1.0
 23
0.0
 33
0.0
 40
0.0
 40
0.0
 40
0.0
 40
0.0
 40
0.1428571428571428
 40
0.1428571428571428
 40
0.1428571428571428
 40
0.1428571428571428
 40
0.2857142857142857
 40
0.2857142857142857
 40
0.2857142857142857
 40
0.2857142857142857
 40
0.4285714285714285
 40
0.4285714285714285
 40
0.4285714285714285
 40
0.4285714285714285
 40
0.5714285714285714
 40
0.5714285714285714
 40
0.5714285714285714
 40
0.5714285714285714
 40
0.7142857142857143
 40
0.7142857142857143
 40
0.7142857142857143
 40
0.7142857142857143
 40
1.0
 40
1.0
 40
1.0
 40
1.0
 10
-71.4752
 20
79.1734
 30
0.0
 10
-71.9718
 20
80.2317
 30
0.0
 10
-72.339
 20
81.2971
 30
0.0
 10
-72.2911
 20
81.5409
 30
0.0
 10
-72.2911
 20
81.5409
 30
0.0
 10
-72.1039
 20
82.4945
 30
0.0
 10
-70.8026
 20
83.0106
 30
0.0
 10
-68.7336
 20
83.0652
 30
0.0
 10
-68.7336
 20
83.0652
 30
0.0
 10
-66.6646
 20
83.0379
 30
0.0
 10
-65.3632
 20
82.4945
 30
0.0
 10
-65.176
 20
81.5409
 30
0.0
 10
-65.176
 20
81.5409
 30
0.0
 10
-65.1281
 20
81.2971
 30
0.0
 10
-65.4953
 20
80.2318
 30
0.0
 10
-65.9919
 20
79.1734
 30
0.0
 10
-65.9919
 20
79.1734
 30
0.0
 10
-67.5268
 20
76.5942
 30
0.0
 10
-68.3821
 20
70.632
 30
0.0
 10
-68.7336
 20
68.4254
 30
0.0
 10
-68.7336
 20
68.4254
 30
0.0
 10
-69.0849
 20
70.632
 30
0.0
 10
-69.9403
 20
76.5943
 30
0.0
 10
-71.4752
 20
79.1734
 30
0.0
  0
SPLINE
  5
66
330
1F
100
AcDbEntity
  8
layer 1
 62
     7
100
AcDbSpline
210
0.0
220
0.0
230
1.0
 70
    11
 71
     3
 72
    20
 73
    16
 74
     0
 42
0.0000000001
 43
0.0000000001
 12
1.0
 22
0.0
 32
0.0
 13
1.0
 23
0.0
 33
0.0
 40
0.0
 40
0.0
 40
0.0
 40
0.0
 40
0.2
 40
0.2
 40
0.2
 40
0.2
 40
0.4
 40
0.4
 40
0.4
 40
0.4
 40
0.6
 40
0.6
 40
0.6
 40
0.6
 40
1.0
 40
1.0
 40
1.0
 40
1.0
 10
-57.7328
 20
76.0813
 30
0.0
 10
-56.6894
 20
76.4408
 30
0.0
 10
-56.1142
 20
76.113
 30
0.0
 10
-55.4142
 20
75.423
 30
0.0
 10
-55.4142
 20
75.423
 30
0.0
 10
-54.3793
 20
74.392
 30
0.0
 10
-54.5087
 20
73.0796
 30
0.0
 10
-55.8786
 20
72.4891
 30
0.0
 10
-55.8786
 20
72.4891
 30
0.0
 10
-60.3634
 20
71.0627
 30
0.0
 10
-61.882
 20
69.2899
 30
0.0
 10
-64.408
 20
66.5551
 30
0.0
 10
-64.408
 20
66.5551
 30
0.0
 10
-63.3371
 20
69.308
 30
0.0
 10
-59.9813
 20
75.039
 30
0.0
 10
-57.7328
 20
76.0813
 30
0.0
  0
SPLINE
  5
67
330
1F
100
AcDbEntity
  8
layer 1
 62
     7
100
AcDbSpline
210
0.0
220
0.0
230
1.0
 70
    11
 71
     3
 72
    20
 73
    16
 74
     0
 42
0.0000000001
 43
0.0000000001
 12
1.0
 22
0.0
 32
0.0
 13
1.0
 23
0.0
 33
0.0
 40
0.0
 40
0.0
 40
0.0
 40
0.0
 40
0.2
 40
0.2
 40
0.2
 40
0.2
 40
0.4
 40
0.4
 40
0.4
 40
0.4
 40
0.6
 40
0.6
 40
0.6
 40
0.6
 40
1.0
 40
1.0
 40
1.0
 40
1.0
 10
-64.5472
 20
79.3161
 30
0.0
 10
-63.7633
 20
81.1643
 30
0.0
 10
-62.2311
 20
81.7783
 30
0.0
 10
-60.3245
 20
80.1878
 30
0.0
 10
-60.3245
 20
80.1878
 30
0.0
 10
-58.3589
 20
78.5482
 30
0.0
 10
-58.4935
 20
77.4564
 30
0.0
 10
-60.4684
 20
75.7745
 30
0.0
 10
-60.4684
 20
75.7745
 30
0.0
 10
-63.1846
 20
73.5179
 30
0.0
 10
-65.0569
 20
70.3892
 30
0.0
 10
-66.5682
 20
67.4429
 30
0.0
 10
-66.5682
 20
67.4429
 30
0.0
 10
-66.1299
 20
71.2052
 30
0.0
 10
-66.1287
 20
75.5626
 30
0.0
 10
-64.5472
 20
79.3161
 30
0.0
  0
SPLINE
  5
68
330
1F
100
AcDbEntity
  8
layer 1
 62
     7
100
AcDbSpline
210
0.0
220
0.0
230
1.0
 70
    11
 71
     3
 72
    20
 73
    16
 74
     0
 42
0.0000000001
 43
0.0000000001
 12
1.0
 22
0.0
 32
0.0
 13
1.0
 23
0.0
 33
0.0
 40
0.0
 40
0.0
 40
0.0
 40
0.0
 40
0.2
 40
0.2
 40
0.2
 40
0.2
 40
0.4
 40
0.4
 40
0.4
 40
0.4
 40
0.6
 40
0.6
 40
0.6
 40
0.6
 40
1.0
 40
1.0
 40
1.0
 40
1.0
 10
-171.6669
 20
62.8348
 30
0.0
 10
-170.6235
 20
63.1943
 30
0.0
 10
-170.0483
 20
62.8665
 30
0.0
 10
-169.3483
 20
62.1765
 30
0.0
 10
-169.3483
 20
62.1765
 30
0.0
 10
-168.3134
 20
61.1455
 30
0.0
 10
-168.4428
 20
59.8331
 30
0.0
 10
-169.8127
 20
59.2426
 30
0.0
 10
-169.8127
 20
59.2426
 30
0.0
 10
-174.2975
 20
57.8162
 30
0.0
 10
-175.8161
 20
56.0434
 30
0.0
 10
-178.3421
 20
53.3086
 30
0.0
 10
-178.3421
 20
53.3086
 30
0.0
 10
-177.2712
 20
56.0615
 30
0.0
 10
-173.9154
 20
61.7925
 30
0.0
 10
-171.6669
 20
62.8348
 30
0.0
  0
SPLINE
  5
69
330
1F
100
AcDbEntity
  8
layer 1
 62
     7
100
AcDbSpline
210
0.0
220
0.0
230
1.0
 70
    11
 71
     3
 72
    20
 73
    16
 74
     0
 42
0.0000000001
 43
0.0000000001
 12
1.0
 22
0.0
 32
0.0
 13
1.0
 23
0.0
 33
0.0
 40
0.0
 40
0.0
 40
0.0
 40
0.0
 40
0.2
 40
0.2
 40
0.2
 40
0.2
 40
0.4
 40
0.4
 40
0.4
 40
0.4
 40
0.6
 40
0.6
 40
0.6
 40
0.6
 40
1.0
 40
1.0
 40
1.0
 40
1.0
 10
-178.4813
 20
66.0696
 30
0.0
 10
-177.6974
 20
67.9178
 30
0.0
 10
-176.1652
 20
68.5318
 30
0.0
 10
-174.2586
 20
66.9413
 30
0.0
 10
-174.2586
 20
66.9413
 30
0.0
 10
-172.293
 20
65.3017
 30
0.0
 10
-172.4276
 20
64.2099
 30
0.0
 10
-174.4025
 20
62.528
 30
0.0
 10
-174.4025
 20
62.528
 30
0.0
 10
-177.1187
 20
60.2714
 30
0.0
 10
-178.991
 20
57.1427
 30
0.0
 10
-180.5023
 20
54.1964
 30
0.0
 10
-180.5023
 20
54.1964
 30
0.0
 10
-180.064
 20
57.9587
 30
0.0
 10
-180.0628
 20
62.3161
 30
0.0
 10
-178.4813
 20
66.0696
 30
0.0
  0
SPLINE
  5
6A
330
1F
100
AcDbEntity
  8
layer 1
 62
     7
100
AcDbSpline
210
0.0
220
0.0
230
1.0
 70
    11
 71
     3
 72
    20
 73
    16
 74
     0
 42
0.0000000001
 43
0.0000000001
 12
1.0
 22
0.0
 32
0.0
 13
1.0
 23
0.0
 33
0.0
 40
0.0
 40
0.0
 40
0.0
 40
0.0
 40
0.2
 40
0.2
 40
0.2
 40
0.2
 40
0.4
 40
0.4
 40
0.4
 40
0.4
 40
0.6
 40
0.6
 40
0.6
 40
0.6
 40
1.0
 40
1.0
 40
1.0
 40
1.0
 10
-179.9799
 20
65.9269
 30
0.0
 10
-179.4833
 20
66.9852
 30
0.0
 10
-179.1161
 20
68.0506
 30
0.0
 10
-179.164
 20
68.2944
 30
0.0
 10
-179.164
 20
68.2944
 30
0.0
 10
-179.3512
 20
69.248
 30
0.0
 10
-180.6526
 20
69.7641
 30
0.0
 10
-182.7216
 20
69.8187
 30
0.0
 10
-182.7216
 20
69.8187
 30
0.0
 10
-182.7216
 20
69.8187
 30
0.0
 10
-182.7216
 20
55.1789
 30
0.0
 10
-182.7216
 20
55.1789
 30
0.0
 10
-182.7216
 20
55.1789
 30
0.0
 10
-182.3702
 20
57.3855
 30
0.0
 10
-181.5148
 20
63.3478
 30
0.0
 10
-179.9799
 20
65.9269
 30
0.0
  0
SPLINE
  5
6B
330
1F
100
AcDbEntity
  8
layer 1
 62
     7
100
AcDbSpline
210
0.0
220
0.0
230
1.0
 70
    11
 71
     3
 72
    20
 73
    16
 74
     0
 42
0.0000000001
 43
0.0000000001
 12
1.0
 22
0.0
 32
0.0
 13
1.0
 23
0.0
 33
0.0
 40
0.0
 40
0.0
 40
0.0
 40
0.0
 40
0.2
 40
0.2
 40
0.2
 40
0.2
 40
0.4
 40
0.4
 40
0.4
 40
0.4
 40
0.6
 40
0.6
 40
0.6
 40
0.6
 40
1.0
 40
1.0
 40
1.0
 40
1.0
 10
-161.227
 20
36.841
 30
0.0
 10
-162.2704
 20
37.2005
 30
0.0
 10
-162.8456
 20
36.8727
 30
0.0
 10
-163.5456
 20
36.1827
 30
0.0
 10
-163.5456
 20
36.1827
 30
0.0
 10
-164.5806
 20
35.1517
 30
0.0
 10
-164.4511
 20
33.8392
 30
0.0
 10
-163.0812
 20
33.2488
 30
0.0
 10
-163.0812
 20
33.2488
 30
0.0
 10
-158.5964
 20
31.8224
 30
0.0
 10
-157.0778
 20
30.0496
 30
0.0
 10
-154.5518
 20
27.3148
 30
0.0
 10
-154.5518
 20
27.3148
 30
0.0
 10
-155.6227
 20
30.0677
 30
0.0
 10
-158.9786
 20
35.7986
 30
0.0
 10
-161.227
 20
36.841
 30
0.0
  0
SPLINE
  5
6C
330
1F
100
AcDbEntity
  8
layer 1
 62
     7
100
AcDbSpline
210
0.0
220
0.0
230
1.0
 70
    11
 71
     3
 72
    20
 73
    16
 74
     0
 42
0.0000000001
 43
0.0000000001
 12
1.0
 22
0.0
 32
0.0
 13
1.0
 23
0.0
 33
0.0
 40
0.0
 40
0.0
 40
0.0
 40
0.0
 40
0.2
 40
0.2
 40
0.2
 40
0.2
 40
0.4
 40
0.4
 40
0.4
 40
0.4
 40
0.6
 40
0.6
 40
0.6
 40
0.6
 40
1.0
 40
1.0
 40
1.0
 40
1.0
 10
-154.4126
 20
40.0757
 30
0.0
 10
-155.1965
 20
41.9239
 30
0.0
 10
-156.7287
 20
42.5379
 30
0.0
 10
-158.6353
 20
40.9475
 30
0.0
 10
-158.6353
 20
40.9475
 30
0.0
 10
-160.601
 20
39.3079
 30
0.0
 10
-160.4663
 20
38.2161
 30
0.0
 10
-158.4914
 20
36.5341
 30
0.0
 10
-158.4914
 20
36.5341
 30
0.0
 10
-155.7752
 20
34.2775
 30
0.0
 10
-153.9029
 20
31.1489
 30
0.0
 10
-152.3916
 20
28.2025
 30
0.0
 10
-152.3916
 20
28.2025
 30
0.0
 10
-152.8299
 20
31.9649
 30
0.0
 10
-152.8311
 20
36.3222
 30
0.0
 10
-154.4126
 20
40.0757
 30
0.0
  0
SPLINE
  5
6D
330
1F
100
AcDbEntity
  8
layer 1
 62
     7
100
AcDbSpline
210
0.0
220
0.0
230
1.0
 70
    11
 71
     3
 72
    28
 73
    24
 74
     0
 42
0.0000000001
 43
0.0000000001
 12
1.0
 22
0.0
 32
0.0
 13
1.0
 23
0.0
 33
0.0
 40
0.0
 40
0.0
 40
0.0
 40
0.0
 40
0.1428571428571428
 40
0.1428571428571428
 40
0.1428571428571428
 40
0.1428571428571428
 40
0.2857142857142857
 40
0.2857142857142857
 40
0.2857142857142857
 40
0.2857142857142857
 40
0.4285714285714285
 40
0.4285714285714285
 40
0.4285714285714285
 40
0.4285714285714285
 40
0.5714285714285714
 40
0.5714285714285714
 40
0.5714285714285714
 40
0.5714285714285714
 40
0.7142857142857143
 40
0.7142857142857143
 40
0.7142857142857143
 40
0.7142857142857143
 40
1.0
 40
1.0
 40
1.0
 40
1.0
 10
-152.914
 20
39.9331
 30
0.0
 10
-153.4106
 20
40.9914
 30
0.0
 10
-153.7778
 20
42.0568
 30
0.0
 10
-153.7299
 20
42.3006
 30
0.0
 10
-153.7299
 20
42.3006
 30
0.0
 10
-153.5427
 20
43.2541
 30
0.0
 10
-152.2414
 20
43.7702
 30
0.0
 10
-150.1724
 20
43.8249
 30
0.0
 10
-150.1724
 20
43.8249
 30
0.0
 10
-148.1034
 20
43.7976
 30
0.0
 10
-146.802
 20
43.2541
 30
0.0
 10
-146.6148
 20
42.3006
 30
0.0
 10
-146.6148
 20
42.3006
 30
0.0
 10
-146.5669
 20
42.0568
 30
0.0
 10
-146.9341
 20
40.9915
 30
0.0
 10
-147.4308
 20
39.9331
 30
0.0
 10
-147.4308
 20
39.9331
 30
0.0
 10
-148.9656
 20
37.3539
 30
0.0
 10
-149.8209
 20
31.3917
 30
0.0
 10
-150.1724
 20
29.185
 30
0.0
 10
-150.1724
 20
29.185
 30
0.0
 10
-150.5238
 20
31.3917
 30
0.0
 10
-151.3792
 20
37.354
 30
0.0
 10
-152.914
 20
39.9331
 30
0.0
  0
SPLINE
  5
6E
330
1F
100
AcDbEntity
  8
layer 1
 62
     7
100
AcDbSpline
210
0.0
220
0.0
230
1.0
 70
    11
 71
     3
 72
    20
 73
    16
 74
     0
 42
0.0000000001
 43
0.0000000001
 12
1.0
 22
0.0
 32
0.0
 13
1.0
 23
0.0
 33
0.0
 40
0.0
 40
0.0
 40
0.0
 40
0.0
 40
0.2
 40
0.2
 40
0.2
 40
0.2
 40
0.4
 40
0.4
 40
0.4
 40
0.4
 40
0.6
 40
0.6
 40
0.6
 40
0.6
 40
1.0
 40
1.0
 40
1.0
 40
1.0
 10
-139.1716
 20
36.841
 30
0.0
 10
-138.1282
 20
37.2005
 30
0.0
 10
-137.553
 20
36.8727
 30
0.0
 10
-136.8531
 20
36.1827
 30
0.0
 10
-136.8531
 20
36.1827
 30
0.0
 10
-135.8181
 20
35.1517
 30
0.0
 10
-135.9475
 20
33.8392
 30
0.0
 10
-137.3174
 20
33.2488
 30
0.0
 10
-137.3174
 20
33.2488
 30
0.0
 10
-141.8022
 20
31.8224
 30
0.0
 10
-143.3208
 20
30.0496
 30
0.0
 10
-145.8469
 20
27.3148
 30
0.0
 10
-145.8469
 20
27.3148
 30
0.0
 10
-144.776
 20
30.0677
 30
0.0
 10
-141.4201
 20
35.7986
 30
0.0
 10
-139.1716
 20
36.841
 30
0.0
  0
SPLINE
  5
6F
330
1F
100
AcDbEntity
  8
layer 1
 62
     7
100
AcDbSpline
210
0.0
220
0.0
230
1.0
 70
    11
 71
     3
 72
    20
 73
    16
 74
     0
 42
0.0000000001
 43
0.0000000001
 12
1.0
 22
0.0
 32
0.0
 13
1.0
 23
0.0
 33
0.0
 40
0.0
 40
0.0
 40
0.0
 40
0.0
 40
0.2
 40
0.2
 40
0.2
 40
0.2
 40
0.4
 40
0.4
 40
0.4
 40
0.4
 40
0.6
 40
0.6
 40
0.6
 40
0.6
 40
1.0
 40
1.0
 40
1.0
 40
1.0
 10
-145.9861
 20
40.0757
 30
0.0
 10
-145.2021
 20
41.9239
 30
0.0
 10
-143.67
 20
42.5379
 30
0.0
 10
-141.7633
 20
40.9475
 30
0.0
 10
-141.7633
 20
40.9475
 30
0.0
 10
-139.7977
 20
39.3079
 30
0.0
 10
-139.9323
 20
38.2161
 30
0.0
 10
-141.9073
 20
36.5341
 30
0.0
 10
-141.9073
 20
36.5341
 30
0.0
 10
-144.6234
 20
34.2775
 30
0.0
 10
-146.4957
 20
31.1489
 30
0.0
 10
-148.007
 20
28.2025
 30
0.0
 10
-148.007
 20
28.2025
 30
0.0
 10
-147.5687
 20
31.9649
 30
0.0
 10
-147.5675
 20
36.3222
 30
0.0
 10
-145.9861
 20
40.0757
 30
0.0
  0
SPLINE
  5
70
330
1F
100
AcDbEntity
  8
layer 1
 62
     7
100
AcDbSpline
210
0.0
220
0.0
230
1.0
 70
    11
 71
     3
 72
    20
 73
    16
 74
     0
 42
0.0000000001
 43
0.0000000001
 12
1.0
 22
0.0
 32
0.0
 13
1.0
 23
0.0
 33
0.0
 40
0.0
 40
0.0
 40
0.0
 40
0.0
 40
0.2
 40
0.2
 40
0.2
 40
0.2
 40
0.4
 40
0.4
 40
0.4
 40
0.4
 40
0.6
 40
0.6
 40
0.6
 40
0.6
 40
1.0
 40
1.0
 40
1.0
 40
1.0
 10
-128.7008
 20
36.841
 30
0.0
 10
-129.7442
 20
37.2005
 30
0.0
 10
-130.3194
 20
36.8727
 30
0.0
 10
-131.0194
 20
36.1827
 30
0.0
 10
-131.0194
 20
36.1827
 30
0.0
 10
-132.0544
 20
35.1517
 30
0.0
 10
-131.9249
 20
33.8392
 30
0.0
 10
-130.555
 20
33.2488
 30
0.0
 10
-130.555
 20
33.2488
 30
0.0
 10
-126.0702
 20
31.8224
 30
0.0
 10
-124.5516
 20
30.0496
 30
0.0
 10
-122.0256
 20
27.3148
 30
0.0
 10
-122.0256
 20
27.3148
 30
0.0
 10
-123.0965
 20
30.0677
 30
0.0
 10
-126.4524
 20
35.7986
 30
0.0
 10
-128.7008
 20
36.841
 30
0.0
  0
SPLINE
  5
71
330
1F
100
AcDbEntity
  8
layer 1
 62
     7
100
AcDbSpline
210
0.0
220
0.0
230
1.0
 70
    11
 71
     3
 72
    20
 73
    16
 74
     0
 42
0.0000000001
 43
0.0000000001
 12
1.0
 22
0.0
 32
0.0
 13
1.0
 23
0.0
 33
0.0
 40
0.0
 40
0.0
 40
0.0
 40
0.0
 40
0.2
 40
0.2
 40
0.2
 40
0.2
 40
0.4
 40
0.4
 40
0.4
 40
0.4
 40
0.6
 40
0.6
 40
0.6
 40
0.6
 40
1.0
 40
1.0
 40
1.0
 40
1.0
 10
-121.8864
 20
40.0757
 30
0.0
 10
-122.6703
 20
41.9239
 30
0.0
 10
-124.2025
 20
42.5379
 30
0.0
 10
-126.1091
 20
40.9475
 30
0.0
 10
-126.1091
 20
40.9475
 30
0.0
 10
-128.0747
 20
39.3079
 30
0.0
 10
-127.9401
 20
38.2161
 30
0.0
 10
-125.9652
 20
36.5341
 30
0.0
 10
-125.9652
 20
36.5341
 30
0.0
 10
-123.249
 20
34.2775
 30
0.0
 10
-121.3767
 20
31.1489
 30
0.0
 10
-119.8654
 20
28.2025
 30
0.0
 10
-119.8654
 20
28.2025
 30
0.0
 10
-120.3037
 20
31.9649
 30
0.0
 10
-120.3049
 20
36.3222
 30
0.0
 10
-121.8864
 20
40.0757
 30
0.0
  0
SPLINE
  5
72
330
1F
100
AcDbEntity
  8
layer 1
 62
     7
100
AcDbSpline
210
0.0
220
0.0
230
1.0
 70
    11
 71
     3
 72
    28
 73
    24
 74
     0
 42
0.0000000001
 43
0.0000000001
 12
1.0
 22
0.0
 32
0.0
 13
1.0
 23
0.0
 33
0.0
 40
0.0
 40
0.0
 40
0.0
 40
0.0
 40
0.1428571428571428
 40
0.1428571428571428
 40
0.1428571428571428
 40
0.1428571428571428
 40
0.2857142857142857
 40
0.2857142857142857
 40
0.2857142857142857
 40
0.2857142857142857
 40
0.4285714285714285
 40
0.4285714285714285
 40
0.4285714285714285
 40
0.4285714285714285
 40
0.5714285714285714
 40
0.5714285714285714
 40
0.5714285714285714
 40
0.5714285714285714
 40
0.7142857142857143
 40
0.7142857142857143
 40
0.7142857142857143
 40
0.7142857142857143
 40
1.0
 40
1.0
 40
1.0
 40
1.0
 10
-120.3878
 20
39.9331
 30
0.0
 10
-120.8844
 20
40.9914
 30
0.0
 10
-121.2516
 20
42.0568
 30
0.0
 10
-121.2037
 20
42.3006
 30
0.0
 10
-121.2037
 20
42.3006
 30
0.0
 10
-121.0165
 20
43.2541
 30
0.0
 10
-119.7152
 20
43.7702
 30
0.0
 10
-117.6462
 20
43.8249
 30
0.0
 10
-117.6462
 20
43.8249
 30
0.0
 10
-115.5772
 20
43.7976
 30
0.0
 10
-114.2758
 20
43.2541
 30
0.0
 10
-114.0886
 20
42.3006
 30
0.0
 10
-114.0886
 20
42.3006
 30
0.0
 10
-114.0407
 20
42.0568
 30
0.0
 10
-114.4079
 20
40.9915
 30
0.0
 10
-114.9046
 20
39.9331
 30
0.0
 10
-114.9046
 20
39.9331
 30
0.0
 10
-116.4394
 20
37.3539
 30
0.0
 10
-117.2947
 20
31.3917
 30
0.0
 10
-117.6462
 20
29.185
 30
0.0
 10
-117.6462
 20
29.185
 30
0.0
 10
-117.9976
 20
31.3917
 30
0.0
 10
-118.853
 20
37.354
 30
0.0
 10
-120.3878
 20
39.9331
 30
0.0
  0
SPLINE
  5
73
330
1F
100
AcDbEntity
  8
layer 1
 62
     7
100
AcDbSpline
210
0.0
220
0.0
230
1.0
 70
    11
 71
     3
 72
    20
 73
    16
 74
     0
 42
0.0000000001
 43
0.0000000001
 12
1.0
 22
0.0
 32
0.0
 13
1.0
 23
0.0
 33
0.0
 40
0.0
 40
0.0
 40
0.0
 40
0.0
 40
0.2
 40
0.2
 40
0.2
 40
0.2
 40
0.4
 40
0.4
 40
0.4
 40
0.4
 40
0.6
 40
0.6
 40
0.6
 40
0.6
 40
1.0
 40
1.0
 40
1.0
 40
1.0
 10
-106.6454
 20
36.841
 30
0.0
 10
-105.602
 20
37.2005
 30
0.0
 10
-105.0268
 20
36.8727
 30
0.0
 10
-104.3268
 20
36.1827
 30
0.0
 10
-104.3268
 20
36.1827
 30
0.0
 10
-103.2919
 20
35.1517
 30
0.0
 10
-103.4213
 20
33.8392
 30
0.0
 10
-104.7912
 20
33.2488
 30
0.0
 10
-104.7912
 20
33.2488
 30
0.0
 10
-109.276
 20
31.8224
 30
0.0
 10
-110.7946
 20
30.0496
 30
0.0
 10
-113.3207
 20
27.3148
 30
0.0
 10
-113.3207
 20
27.3148
 30
0.0
 10
-112.2497
 20
30.0677
 30
0.0
 10
-108.8939
 20
35.7986
 30
0.0
 10
-106.6454
 20
36.841
 30
0.0
  0
SPLINE
  5
74
330
1F
100
AcDbEntity
  8
layer 1
 62
     7
100
AcDbSpline
210
0.0
220
0.0
230
1.0
 70
    11
 71
     3
 72
    20
 73
    16
 74
     0
 42
0.0000000001
 43
0.0000000001
 12
1.0
 22
0.0
 32
0.0
 13
1.0
 23
0.0
 33
0.0
 40
0.0
 40
0.0
 40
0.0
 40
0.0
 40
0.2
 40
0.2
 40
0.2
 40
0.2
 40
0.4
 40
0.4
 40
0.4
 40
0.4
 40
0.6
 40
0.6
 40
0.6
 40
0.6
 40
1.0
 40
1.0
 40
1.0
 40
1.0
 10
-113.4598
 20
40.0757
 30
0.0
 10
-112.6759
 20
41.9239
 30
0.0
 10
-111.1438
 20
42.5379
 30
0.0
 10
-109.2371
 20
40.9475
 30
0.0
 10
-109.2371
 20
40.9475
 30
0.0
 10
-107.2715
 20
39.3079
 30
0.0
 10
-107.4061
 20
38.2161
 30
0.0
 10
-109.381
 20
36.5341
 30
0.0
 10
-109.381
 20
36.5341
 30
0.0
 10
-112.0972
 20
34.2775
 30
0.0
 10
-113.9695
 20
31.1489
 30
0.0
 10
-115.4808
 20
28.2025
 30
0.0
 10
-115.4808
 20
28.2025
 30
0.0
 10
-115.0425
 20
31.9649
 30
0.0
 10
-115.0413
 20
36.3222
 30
0.0
 10
-113.4598
 20
40.0757
 30
0.0
  0
SPLINE
  5
75
330
1F
100
AcDbEntity
  8
layer 1
 62
     7
100
AcDbSpline
210
0.0
220
0.0
230
1.0
 70
    11
 71
     3
 72
    20
 73
    16
 74
     0
 42
0.0000000001
 43
0.0000000001
 12
1.0
 22
0.0
 32
0.0
 13
1.0
 23
0.0
 33
0.0
 40
0.0
 40
0.0
 40
0.0
 40
0.0
 40
0.2
 40
0.2
 40
0.2
 40
0.2
 40
0.4
 40
0.4
 40
0.4
 40
0.4
 40
0.6
 40
0.6
 40
0.6
 40
0.6
 40
1.0
 40
1.0
 40
1.0
 40
1.0
 10
-96.1746
 20
36.841
 30
0.0
 10
-97.218
 20
37.2005
 30
0.0
 10
-97.7932
 20
36.8727
 30
0.0
 10
-98.4932
 20
36.1827
 30
0.0
 10
-98.4932
 20
36.1827
 30
0.0
 10
-99.5282
 20
35.1517
 30
0.0
 10
-99.3987
 20
33.8392
 30
0.0
 10
-98.0288
 20
33.2488
 30
0.0
 10
-98.0288
 20
33.2488
 30
0.0
 10
-93.544
 20
31.8224
 30
0.0
 10
-92.0254
 20
30.0496
 30
0.0
 10
-89.4994
 20
27.3148
 30
0.0
 10
-89.4994
 20
27.3148
 30
0.0
 10
-90.5703
 20
30.0677
 30
0.0
 10
-93.9262
 20
35.7986
 30
0.0
 10
-96.1746
 20
36.841
 30
0.0
  0
SPLINE
  5
76
330
1F
100
AcDbEntity
  8
layer 1
 62
     7
100
AcDbSpline
210
0.0
220
0.0
230
1.0
 70
    11
 71
     3
 72
    20
 73
    16
 74
     0
 42
0.0000000001
 43
0.0000000001
 12
1.0
 22
0.0
 32
0.0
 13
1.0
 23
0.0
 33
0.0
 40
0.0
 40
0.0
 40
0.0
 40
0.0
 40
0.2
 40
0.2
 40
0.2
 40
0.2
 40
0.4
 40
0.4
 40
0.4
 40
0.4
 40
0.6
 40
0.6
 40
0.6
 40
0.6
 40
1.0
 40
1.0
 40
1.0
 40
1.0
 10
-89.3602
 20
40.0757
 30
0.0
 10
-90.1441
 20
41.9239
 30
0.0
 10
-91.6763
 20
42.5379
 30
0.0
 10
-93.5829
 20
40.9475
 30
0.0
 10
-93.5829
 20
40.9475
 30
0.0
 10
-95.5485
 20
39.3079
 30
0.0
 10
-95.4139
 20
38.2161
 30
0.0
 10
-93.439
 20
36.5341
 30
0.0
 10
-93.439
 20
36.5341
 30
0.0
 10
-90.7228
 20
34.2775
 30
0.0
 10
-88.8505
 20
31.1489
 30
0.0
 10
-87.3392
 20
28.2025
 30
0.0
 10
-87.3392
 20
28.2025
 30
0.0
 10
-87.7775
 20
31.9649
 30
0.0
 10
-87.7787
 20
36.3222
 30
0.0
 10
-89.3602
 20
40.0757
 30
0.0
  0
SPLINE
  5
77
330
1F
100
AcDbEntity
  8
layer 1
 62
     7
100
AcDbSpline
210
0.0
220
0.0
230
1.0
 70
    11
 71
     3
 72
    28
 73
    24
 74
     0
 42
0.0000000001
 43
0.0000000001
 12
1.0
 22
0.0
 32
0.0
 13
1.0
 23
0.0
 33
0.0
 40
0.0
 40
0.0
 40
0.0
 40
0.0
 40
0.1428571428571428
 40
0.1428571428571428
 40
0.1428571428571428
 40
0.1428571428571428
 40
0.2857142857142857
 40
0.2857142857142857
 40
0.2857142857142857
 40
0.2857142857142857
 40
0.4285714285714285
 40
0.4285714285714285
 40
0.4285714285714285
 40
0.4285714285714285
 40
0.5714285714285714
 40
0.5714285714285714
 40
0.5714285714285714
 40
0.5714285714285714
 40
0.7142857142857143
 40
0.7142857142857143
 40
0.7142857142857143
 40
0.7142857142857143
 40
1.0
 40
1.0
 40
1.0
 40
1.0
 10
-87.8616
 20
39.9331
 30
0.0
 10
-88.3582
 20
40.9914
 30
0.0
 10
-88.7254
 20
42.0568
 30
0.0
 10
-88.6775
 20
42.3006
 30
0.0
 10
-88.6775
 20
42.3006
 30
0.0
 10
-88.4903
 20
43.2541
 30
0.0
 10
-87.189
 20
43.7702
 30
0.0
 10
-85.12
 20
43.8249
 30
0.0
 10
-85.12
 20
43.8249
 30
0.0
 10
-83.051
 20
43.7976
 30
0.0
 10
-81.7496
 20
43.2541
 30
0.0
 10
-81.5624
 20
42.3006
 30
0.0
 10
-81.5624
 20
42.3006
 30
0.0
 10
-81.5145
 20
42.0568
 30
0.0
 10
-81.8817
 20
40.9915
 30
0.0
 10
-82.3784
 20
39.9331
 30
0.0
 10
-82.3784
 20
39.9331
 30
0.0
 10
-83.9132
 20
37.3539
 30
0.0
 10
-84.7685
 20
31.3917
 30
0.0
 10
-85.12
 20
29.185
 30
0.0
 10
-85.12
 20
29.185
 30
0.0
 10
-85.4714
 20
31.3917
 30
0.0
 10
-86.3268
 20
37.354
 30
0.0
 10
-87.8616
 20
39.9331
 30
0.0
  0
SPLINE
  5
78
330
1F
100
AcDbEntity
  8
layer 1
 62
     7
100
AcDbSpline
210
0.0
220
0.0
230
1.0
 70
    11
 71
     3
 72
    20
 73
    16
 74
     0
 42
0.0000000001
 43
0.0000000001
 12
1.0
 22
0.0
 32
0.0
 13
1.0
 23
0.0
 33
0.0
 40
0.0
 40
0.0
 40
0.0
 40
0.0
 40
0.2
 40
0.2
 40
0.2
 40
0.2
 40
0.4
 40
0.4
 40
0.4
 40
0.4
 40
0.6
 40
0.6
 40
0.6
 40
0.6
 40
1.0
 40
1.0
 40
1.0
 40
1.0
 10
-74.1192
 20
36.841
 30
0.0
 10
-73.0758
 20
37.2005
 30
0.0
 10
-72.5006
 20
36.8727
 30
0.0
 10
-71.8006
 20
36.1827
 30
0.0
 10
-71.8006
 20
36.1827
 30
0.0
 10
-70.7657
 20
35.1517
 30
0.0
 10
-70.8951
 20
33.8392
 30
0.0
 10
-72.265
 20
33.2488
 30
0.0
 10
-72.265
 20
33.2488
 30
0.0
 10
-76.7498
 20
31.8224
 30
0.0
 10
-78.2684
 20
30.0496
 30
0.0
 10
-80.7945
 20
27.3148
 30
0.0
 10
-80.7945
 20
27.3148
 30
0.0
 10
-79.7235
 20
30.0677
 30
0.0
 10
-76.3677
 20
35.7986
 30
0.0
 10
-74.1192
 20
36.841
 30
0.0
  0
SPLINE
  5
79
330
1F
100
AcDbEntity
  8
layer 1
 62
     7
100
AcDbSpline
210
0.0
220
0.0
230
1.0
 70
    11
 71
     3
 72
    20
 73
    16
 74
     0
 42
0.0000000001
 43
0.0000000001
 12
1.0
 22
0.0
 32
0.0
 13
1.0
 23
0.0
 33
0.0
 40
0.0
 40
0.0
 40
0.0
 40
0.0
 40
0.2
 40
0.2
 40
0.2
 40
0.2
 40
0.4
 40
0.4
 40
0.4
 40
0.4
 40
0.6
 40
0.6
 40
0.6
 40
0.6
 40
1.0
 40
1.0
 40
1.0
 40
1.0
 10
-80.9336
 20
40.0757
 30
0.0
 10
-80.1497
 20
41.9239
 30
0.0
 10
-78.6176
 20
42.5379
 30
0.0
 10
-76.7109
 20
40.9475
 30
0.0
 10
-76.7109
 20
40.9475
 30
0.0
 10
-74.7453
 20
39.3079
 30
0.0
 10
-74.8799
 20
38.2161
 30
0.0
 10
-76.8548
 20
36.5341
 30
0.0
 10
-76.8548
 20
36.5341
 30
0.0
 10
-79.571
 20
34.2775
 30
0.0
 10
-81.4433
 20
31.1489
 30
0.0
 10
-82.9546
 20
28.2025
 30
0.0
 10
-82.9546
 20
28.2025
 30
0.0
 10
-82.5163
 20
31.9649
 30
0.0
 10
-82.5151
 20
36.3222
 30
0.0
 10
-80.9336
 20
40.0757
 30
0.0
  0
SPLINE
  5
7A
330
1F
100
AcDbEntity
  8
layer 1
 62
     7
100
AcDbSpline
210
0.0
220
0.0
230
1.0
 70
    11
 71
     3
 72
    20
 73
    16
 74
     0
 42
0.0000000001
 43
0.0000000001
 12
1.0
 22
0.0
 32
0.0
 13
1.0
 23
0.0
 33
0.0
 40
0.0
 40
0.0
 40
0.0
 40
0.0
 40
0.2
 40
0.2
 40
0.2
 40
0.2
 40
0.4
 40
0.4
 40
0.4
 40
0.4
 40
0.6
 40
0.6
 40
0.6
 40
0.6
 40
1.0
 40
1.0
 40
1.0
 40
1.0
 10
-63.6484
 20
36.841
 30
0.0
 10
-64.6918
 20
37.2005
 30
0.0
 10
-65.267
 20
36.8727
 30
0.0
 10
-65.967
 20
36.1827
 30
0.0
 10
-65.967
 20
36.1827
 30
0.0
 10
-67.0019
 20
35.1517
 30
0.0
 10
-66.8725
 20
33.8392
 30
0.0
 10
-65.5026
 20
33.2488
 30
0.0
 10
-65.5026
 20
33.2488
 30
0.0
 10
-61.0178
 20
31.8224
 30
0.0
 10
-59.4992
 20
30.0496
 30
0.0
 10
-56.9732
 20
27.3148
 30
0.0
 10
-56.9732
 20
27.3148
 30
0.0
 10
-58.0441
 20
30.0677
 30
0.0
 10
-61.4
 20
35.7986
 30
0.0
 10
-63.6484
 20
36.841
 30
0.0
  0
SPLINE
  5
7B
330
1F
100
AcDbEntity
  8
layer 1
 62
     7
100
AcDbSpline
210
0.0
220
0.0
230
1.0
 70
    11
 71
     3
 72
    20
 73
    16
 74
     0
 42
0.0000000001
 43
0.0000000001
 12
1.0
 22
0.0
 32
0.0
 13
1.0
 23
0.0
 33
0.0
 40
0.0
 40
0.0
 40
0.0
 40
0.0
 40
0.2
 40
0.2
 40
0.2
 40
0.2
 40
0.4
 40
0.4
 40
0.4
 40
0.4
 40
0.6
 40
0.6
 40
0.6
 40
0.6
 40
1.0
 40
1.0
 40
1.0
 40
1.0
 10
-56.834
 20
40.0757
 30
0.0
 10
-57.6179
 20
41.9239
 30
0.0
 10
-59.1501
 20
42.5379
 30
0.0
 10
-61.0567
 20
40.9475
 30
0.0
 10
-61.0567
 20
40.9475
 30
0.0
 10
-63.0223
 20
39.3079
 30
0.0
 10
-62.8877
 20
38.2161
 30
0.0
 10
-60.9128
 20
36.5341
 30
0.0
 10
-60.9128
 20
36.5341
 30
0.0
 10
-58.1966
 20
34.2775
 30
0.0
 10
-56.3243
 20
31.1489
 30
0.0
 10
-54.813
 20
28.2025
 30
0.0
 10
-54.813
 20
28.2025
 30
0.0
 10
-55.2513
 20
31.9649
 30
0.0
 10
-55.2525
 20
36.3222
 30
0.0
 10
-56.834
 20
40.0757
 30
0.0
  0
SPLINE
  5
7C
330
1F
100
AcDbEntity
  8
layer 1
 62
     7
100
AcDbSpline
210
0.0
220
0.0
230
1.0
 70
    11
 71
     3
 72
    20
 73
    16
 74
     0
 42
0.0000000001
 43
0.0000000001
 12
1.0
 22
0.0
 32
0.0
 13
1.0
 23
0.0
 33
0.0
 40
0.0
 40
0.0
 40
0.0
 40
0.0
 40
0.2
 40
0.2
 40
0.2
 40
0.2
 40
0.4
 40
0.4
 40
0.4
 40
0.4
 40
0.6
 40
0.6
 40
0.6
 40
0.6
 40
1.0
 40
1.0
 40
1.0
 40
1.0
 10
-55.3354
 20
39.9331
 30
0.0
 10
-55.832
 20
40.9914
 30
0.0
 10
-56.1992
 20
42.0568
 30
0.0
 10
-56.1513
 20
42.3006
 30
0.0
 10
-56.1513
 20
42.3006
 30
0.0
 10
-55.9641
 20
43.2541
 30
0.0
 10
-54.6628
 20
43.7702
 30
0.0
 10
-52.5938
 20
43.8249
 30
0.0
 10
-52.5938
 20
43.8249
 30
0.0
 10
-52.5938
 20
43.8249
 30
0.0
 10
-52.5938
 20
29.185
 30
0.0
 10
-52.5938
 20
29.185
 30
0.0
 10
-52.5938
 20
29.185
 30
0.0
 10
-52.9451
 20
31.3917
 30
0.0
 10
-53.8005
 20
37.354
 30
0.0
 10
-55.3354
 20
39.9331
 30
0.0
  0
SPLINE
  5
7D
330
1F
100
AcDbEntity
  8
layer 1
 62
     7
100
AcDbSpline
210
0.0
220
0.0
230
1.0
 70
    11
 71
     3
 72
    20
 73
    16
 74
     0
 42
0.0000000001
 43
0.0000000001
 12
1.0
 22
0.0
 32
0.0
 13
1.0
 23
0.0
 33
0.0
 40
0.0
 40
0.0
 40
0.0
 40
0.0
 40
0.2
 40
0.2
 40
0.2
 40
0.2
 40
0.4
 40
0.4
 40
0.4
 40
0.4
 40
0.6
 40
0.6
 40
0.6
 40
0.6
 40
1.0
 40
1.0
 40
1.0
 40
1.0
 10
-177.7311
 20
50.0875
 30
0.0
 10
-178.7745
 20
50.447
 30
0.0
 10
-179.3497
 20
50.1192
 30
0.0
 10
-180.0496
 20
49.4292
 30
0.0
 10
-180.0496
 20
49.4292
 30
0.0
 10
-181.0846
 20
48.3982
 30
0.0
 10
-180.9551
 20
47.0858
 30
0.0
 10
-179.5852
 20
46.4953
 30
0.0
 10
-179.5852
 20
46.4953
 30
0.0
 10
-175.1005
 20
45.0689
 30
0.0
 10
-173.5818
 20
43.2961
 30
0.0
 10
-171.0558
 20
40.5613
 30
0.0
 10
-171.0558
 20
40.5613
 30
0.0
 10
-172.1267
 20
43.3142
 30
0.0
 10
-175.4826
 20
49.0452
 30
0.0
 10
-177.7311
 20
50.0875
 30
0.0
  0
SPLINE
  5
7E
330
1F
100
AcDbEntity
  8
layer 1
 62
     7
100
AcDbSpline
210
0.0
220
0.0
230
1.0
 70
    11
 71
     3
 72
    20
 73
    16
 74
     0
 42
0.0000000001
 43
0.0000000001
 12
1.0
 22
0.0
 32
0.0
 13
1.0
 23
0.0
 33
0.0
 40
0.0
 40
0.0
 40
0.0
 40
0.0
 40
0.2
 40
0.2
 40
0.2
 40
0.2
 40
0.4
 40
0.4
 40
0.4
 40
0.4
 40
0.6
 40
0.6
 40
0.6
 40
0.6
 40
1.0
 40
1.0
 40
1.0
 40
1.0
 10
-170.9166
 20
53.3222
 30
0.0
 10
-171.7005
 20
55.1704
 30
0.0
 10
-173.2327
 20
55.7844
 30
0.0
 10
-175.1394
 20
54.194
 30
0.0
 10
-175.1394
 20
54.194
 30
0.0
 10
-177.105
 20
52.5544
 30
0.0
 10
-176.9703
 20
51.4626
 30
0.0
 10
-174.9954
 20
49.7806
 30
0.0
 10
-174.9954
 20
49.7806
 30
0.0
 10
-172.2793
 20
47.524
 30
0.0
 10
-170.4069
 20
44.3954
 30
0.0
 10
-168.8957
 20
41.4491
 30
0.0
 10
-168.8957
 20
41.4491
 30
0.0
 10
-169.334
 20
45.2114
 30
0.0
 10
-169.3352
 20
49.5687
 30
0.0
 10
-170.9166
 20
53.3222
 30
0.0
  0
SPLINE
  5
7F
330
1F
100
AcDbEntity
  8
layer 1
 62
     7
100
AcDbSpline
210
0.0
220
0.0
230
1.0
 70
    11
 71
     3
 72
    28
 73
    24
 74
     0
 42
0.0000000001
 43
0.0000000001
 12
1.0
 22
0.0
 32
0.0
 13
1.0
 23
0.0
 33
0.0
 40
0.0
 40
0.0
 40
0.0
 40
0.0
 40
0.1428571428571428
 40
0.1428571428571428
 40
0.1428571428571428
 40
0.1428571428571428
 40
0.2857142857142857
 40
0.2857142857142857
 40
0.2857142857142857
 40
0.2857142857142857
 40
0.4285714285714285
 40
0.4285714285714285
 40
0.4285714285714285
 40
0.4285714285714285
 40
0.5714285714285714
 40
0.5714285714285714
 40
0.5714285714285714
 40
0.5714285714285714
 40
0.7142857142857143
 40
0.7142857142857143
 40
0.7142857142857143
 40
0.7142857142857143
 40
1.0
 40
1.0
 40
1.0
 40
1.0
 10
-169.418
 20
53.1796
 30
0.0
 10
-169.9147
 20
54.2379
 30
0.0
 10
-170.2818
 20
55.3033
 30
0.0
 10
-170.234
 20
55.5471
 30
0.0
 10
-170.234
 20
55.5471
 30
0.0
 10
-170.0468
 20
56.5006
 30
0.0
 10
-168.7454
 20
57.0168
 30
0.0
 10
-166.6764
 20
57.0714
 30
0.0
 10
-166.6764
 20
57.0714
 30
0.0
 10
-164.6074
 20
57.0441
 30
0.0
 10
-163.3061
 20
56.5006
 30
0.0
 10
-163.1188
 20
55.5471
 30
0.0
 10
-163.1188
 20
55.5471
 30
0.0
 10
-163.071
 20
55.3033
 30
0.0
 10
-163.4382
 20
54.238
 30
0.0
 10
-163.9348
 20
53.1796
 30
0.0
 10
-163.9348
 20
53.1796
 30
0.0
 10
-165.4696
 20
50.6004
 30
0.0
 10
-166.3249
 20
44.6382
 30
0.0
 10
-166.6764
 20
42.4315
 30
0.0
 10
-166.6764
 20
42.4315
 30
0.0
 10
-167.0278
 20
44.6382
 30
0.0
 10
-167.8832
 20
50.6005
 30
0.0
 10
-169.418
 20
53.1796
 30
0.0
  0
SPLINE
  5
80
330
1F
100
AcDbEntity
  8
layer 1
 62
     7
100
AcDbSpline
210
0.0
220
0.0
230
1.0
 70
    11
 71
     3
 72
    20
 73
    16
 74
     0
 42
0.0000000001
 43
0.0000000001
 12
1.0
 22
0.0
 32
0.0
 13
1.0
 23
0.0
 33
0.0
 40
0.0
 40
0.0
 40
0.0
 40
0.0
 40
0.2
 40
0.2
 40
0.2
 40
0.2
 40
0.4
 40
0.4
 40
0.4
 40
0.4
 40
0.6
 40
0.6
 40
0.6
 40
0.6
 40
1.0
 40
1.0
 40
1.0
 40
1.0
 10
-155.6756
 20
50.0875
 30
0.0
 10
-154.6323
 20
50.447
 30
0.0
 10
-154.057
 20
50.1192
 30
0.0
 10
-153.3571
 20
49.4292
 30
0.0
 10
-153.3571
 20
49.4292
 30
0.0
 10
-152.3221
 20
48.3982
 30
0.0
 10
-152.4516
 20
47.0858
 30
0.0
 10
-153.8215
 20
46.4953
 30
0.0
 10
-153.8215
 20
46.4953
 30
0.0
 10
-158.3062
 20
45.0689
 30
0.0
 10
-159.8249
 20
43.2961
 30
0.0
 10
-162.3509
 20
40.5613
 30
0.0
 10
-162.3509
 20
40.5613
 30
0.0
 10
-161.28
 20
43.3142
 30
0.0
 10
-157.9241
 20
49.0452
 30
0.0
 10
-155.6756
 20
50.0875
 30
0.0
  0
SPLINE
  5
81
330
1F
100
AcDbEntity
  8
layer 1
 62
     7
100
AcDbSpline
210
0.0
220
0.0
230
1.0
 70
    11
 71
     3
 72
    20
 73
    16
 74
     0
 42
0.0000000001
 43
0.0000000001
 12
1.0
 22
0.0
 32
0.0
 13
1.0
 23
0.0
 33
0.0
 40
0.0
 40
0.0
 40
0.0
 40
0.0
 40
0.2
 40
0.2
 40
0.2
 40
0.2
 40
0.4
 40
0.4
 40
0.4
 40
0.4
 40
0.6
 40
0.6
 40
0.6
 40
0.6
 40
1.0
 40
1.0
 40
1.0
 40
1.0
 10
-162.4901
 20
53.3222
 30
0.0
 10
-161.7062
 20
55.1704
 30
0.0
 10
-160.174
 20
55.7844
 30
0.0
 10
-158.2674
 20
54.194
 30
0.0
 10
-158.2674
 20
54.194
 30
0.0
 10
-156.3017
 20
52.5544
 30
0.0
 10
-156.4364
 20
51.4626
 30
0.0
 10
-158.4113
 20
49.7806
 30
0.0
 10
-158.4113
 20
49.7806
 30
0.0
 10
-161.1275
 20
47.524
 30
0.0
 10
-162.9998
 20
44.3954
 30
0.0
 10
-164.5111
 20
41.4491
 30
0.0
 10
-164.5111
 20
41.4491
 30
0.0
 10
-164.0728
 20
45.2114
 30
0.0
 10
-164.0715
 20
49.5687
 30
0.0
 10
-162.4901
 20
53.3222
 30
0.0
  0
SPLINE
  5
82
330
1F
100
AcDbEntity
  8
layer 1
 62
     7
100
AcDbSpline
210
0.0
220
0.0
230
1.0
 70
    11
 71
     3
 72
    20
 73
    16
 74
     0
 42
0.0000000001
 43
0.0000000001
 12
1.0
 22
0.0
 32
0.0
 13
1.0
 23
0.0
 33
0.0
 40
0.0
 40
0.0
 40
0.0
 40
0.0
 40
0.2
 40
0.2
 40
0.2
 40
0.2
 40
0.4
 40
0.4
 40
0.4
 40
0.4
 40
0.6
 40
0.6
 40
0.6
 40
0.6
 40
1.0
 40
1.0
 40
1.0
 40
1.0
 10
-145.0835
 20
50.0875
 30
0.0
 10
-146.1269
 20
50.447
 30
0.0
 10
-146.7021
 20
50.1192
 30
0.0
 10
-147.402
 20
49.4292
 30
0.0
 10
-147.402
 20
49.4292
 30
0.0
 10
-148.437
 20
48.3982
 30
0.0
 10
-148.3075
 20
47.0858
 30
0.0
 10
-146.9376
 20
46.4953
 30
0.0
 10
-146.9376
 20
46.4953
 30
0.0
 10
-142.4529
 20
45.0689
 30
0.0
 10
-140.9342
 20
43.2961
 30
0.0
 10
-138.4082
 20
40.5613
 30
0.0
 10
-138.4082
 20
40.5613
 30
0.0
 10
-139.4791
 20
43.3142
 30
0.0
 10
-142.835
 20
49.0452
 30
0.0
 10
-145.0835
 20
50.0875
 30
0.0
  0
SPLINE
  5
83
330
1F
100
AcDbEntity
  8
layer 1
 62
     7
100
AcDbSpline
210
0.0
220
0.0
230
1.0
 70
    11
 71
     3
 72
    20
 73
    16
 74
     0
 42
0.0000000001
 43
0.0000000001
 12
1.0
 22
0.0
 32
0.0
 13
1.0
 23
0.0
 33
0.0
 40
0.0
 40
0.0
 40
0.0
 40
0.0
 40
0.2
 40
0.2
 40
0.2
 40
0.2
 40
0.4
 40
0.4
 40
0.4
 40
0.4
 40
0.6
 40
0.6
 40
0.6
 40
0.6
 40
1.0
 40
1.0
 40
1.0
 40
1.0
 10
-138.269
 20
53.3222
 30
0.0
 10
-139.0529
 20
55.1704
 30
0.0
 10
-140.5851
 20
55.7844
 30
0.0
 10
-142.4917
 20
54.194
 30
0.0
 10
-142.4917
 20
54.194
 30
0.0
 10
-144.4574
 20
52.5544
 30
0.0
 10
-144.3227
 20
51.4626
 30
0.0
 10
-142.3478
 20
49.7806
 30
0.0
 10
-142.3478
 20
49.7806
 30
0.0
 10
-139.6316
 20
47.524
 30
0.0
 10
-137.7593
 20
44.3954
 30
0.0
 10
-136.248
 20
41.4491
 30
0.0
 10
-136.248
 20
41.4491
 30
0.0
 10
-136.6863
 20
45.2114
 30
0.0
 10
-136.6876
 20
49.5687
 30
0.0
 10
-138.269
 20
53.3222
 30
0.0
  0
SPLINE
  5
84
330
1F
100
AcDbEntity
  8
layer 1
 62
     7
100
AcDbSpline
210
0.0
220
0.0
230
1.0
 70
    11
 71
     3
 72
    28
 73
    24
 74
     0
 42
0.0000000001
 43
0.0000000001
 12
1.0
 22
0.0
 32
0.0
 13
1.0
 23
0.0
 33
0.0
 40
0.0
 40
0.0
 40
0.0
 40
0.0
 40
0.1428571428571428
 40
0.1428571428571428
 40
0.1428571428571428
 40
0.1428571428571428
 40
0.2857142857142857
 40
0.2857142857142857
 40
0.2857142857142857
 40
0.2857142857142857
 40
0.4285714285714285
 40
0.4285714285714285
 40
0.4285714285714285
 40
0.4285714285714285
 40
0.5714285714285714
 40
0.5714285714285714
 40
0.5714285714285714
 40
0.5714285714285714
 40
0.7142857142857143
 40
0.7142857142857143
 40
0.7142857142857143
 40
0.7142857142857143
 40
1.0
 40
1.0
 40
1.0
 40
1.0
 10
-136.7704
 20
53.1796
 30
0.0
 10
-137.267
 20
54.2379
 30
0.0
 10
-137.6342
 20
55.3033
 30
0.0
 10
-137.5864
 20
55.5471
 30
0.0
 10
-137.5864
 20
55.5471
 30
0.0
 10
-137.3991
 20
56.5006
 30
0.0
 10
-136.0978
 20
57.0168
 30
0.0
 10
-134.0288
 20
57.0714
 30
0.0
 10
-134.0288
 20
57.0714
 30
0.0
 10
-131.9598
 20
57.0441
 30
0.0
 10
-130.6584
 20
56.5006
 30
0.0
 10
-130.4712
 20
55.5471
 30
0.0
 10
-130.4712
 20
55.5471
 30
0.0
 10
-130.4234
 20
55.3033
 30
0.0
 10
-130.7905
 20
54.238
 30
0.0
 10
-131.2872
 20
53.1796
 30
0.0
 10
-131.2872
 20
53.1796
 30
0.0
 10
-132.822
 20
50.6004
 30
0.0
 10
-133.6773
 20
44.6382
 30
0.0
 10
-134.0288
 20
42.4315
 30
0.0
 10
-134.0288
 20
42.4315
 30
0.0
 10
-134.3802
 20
44.6382
 30
0.0
 10
-135.2356
 20
50.6005
 30
0.0
 10
-136.7704
 20
53.1796
 30
0.0
  0
SPLINE
  5
85
330
1F
100
AcDbEntity
  8
layer 1
 62
     7
100
AcDbSpline
210
0.0
220
0.0
230
1.0
 70
    11
 71
     3
 72
    20
 73
    16
 74
     0
 42
0.0000000001
 43
0.0000000001
 12
1.0
 22
0.0
 32
0.0
 13
1.0
 23
0.0
 33
0.0
 40
0.0
 40
0.0
 40
0.0
 40
0.0
 40
0.2
 40
0.2
 40
0.2
 40
0.2
 40
0.4
 40
0.4
 40
0.4
 40
0.4
 40
0.6
 40
0.6
 40
0.6
 40
0.6
 40
1.0
 40
1.0
 40
1.0
 40
1.0
 10
-123.028
 20
50.0875
 30
0.0
 10
-121.9846
 20
50.447
 30
0.0
 10
-121.4094
 20
50.1192
 30
0.0
 10
-120.7095
 20
49.4292
 30
0.0
 10
-120.7095
 20
49.4292
 30
0.0
 10
-119.6745
 20
48.3982
 30
0.0
 10
-119.804
 20
47.0858
 30
0.0
 10
-121.1739
 20
46.4953
 30
0.0
 10
-121.1739
 20
46.4953
 30
0.0
 10
-125.6586
 20
45.0689
 30
0.0
 10
-127.1773
 20
43.2961
 30
0.0
 10
-129.7033
 20
40.5613
 30
0.0
 10
-129.7033
 20
40.5613
 30
0.0
 10
-128.6324
 20
43.3142
 30
0.0
 10
-125.2765
 20
49.0452
 30
0.0
 10
-123.028
 20
50.0875
 30
0.0
  0
SPLINE
  5
86
330
1F
100
AcDbEntity
  8
layer 1
 62
     7
100
AcDbSpline
210
0.0
220
0.0
230
1.0
 70
    11
 71
     3
 72
    20
 73
    16
 74
     0
 42
0.0000000001
 43
0.0000000001
 12
1.0
 22
0.0
 32
0.0
 13
1.0
 23
0.0
 33
0.0
 40
0.0
 40
0.0
 40
0.0
 40
0.0
 40
0.2
 40
0.2
 40
0.2
 40
0.2
 40
0.4
 40
0.4
 40
0.4
 40
0.4
 40
0.6
 40
0.6
 40
0.6
 40
0.6
 40
1.0
 40
1.0
 40
1.0
 40
1.0
 10
-129.8425
 20
53.3222
 30
0.0
 10
-129.0586
 20
55.1704
 30
0.0
 10
-127.5264
 20
55.7844
 30
0.0
 10
-125.6198
 20
54.194
 30
0.0
 10
-125.6198
 20
54.194
 30
0.0
 10
-123.6541
 20
52.5544
 30
0.0
 10
-123.7888
 20
51.4626
 30
0.0
 10
-125.7637
 20
49.7806
 30
0.0
 10
-125.7637
 20
49.7806
 30
0.0
 10
-128.4798
 20
47.524
 30
0.0
 10
-130.3522
 20
44.3954
 30
0.0
 10
-131.8634
 20
41.4491
 30
0.0
 10
-131.8634
 20
41.4491
 30
0.0
 10
-131.4251
 20
45.2114
 30
0.0
 10
-131.4239
 20
49.5687
 30
0.0
 10
-129.8425
 20
53.3222
 30
0.0
  0
SPLINE
  5
87
330
1F
100
AcDbEntity
  8
layer 1
 62
     7
100
AcDbSpline
210
0.0
220
0.0
230
1.0
 70
    11
 71
     3
 72
    20
 73
    16
 74
     0
 42
0.0000000001
 43
0.0000000001
 12
1.0
 22
0.0
 32
0.0
 13
1.0
 23
0.0
 33
0.0
 40
0.0
 40
0.0
 40
0.0
 40
0.0
 40
0.2
 40
0.2
 40
0.2
 40
0.2
 40
0.4
 40
0.4
 40
0.4
 40
0.4
 40
0.6
 40
0.6
 40
0.6
 40
0.6
 40
1.0
 40
1.0
 40
1.0
 40
1.0
 10
-112.4358
 20
50.0875
 30
0.0
 10
-113.4792
 20
50.447
 30
0.0
 10
-114.0544
 20
50.1192
 30
0.0
 10
-114.7544
 20
49.4292
 30
0.0
 10
-114.7544
 20
49.4292
 30
0.0
 10
-115.7894
 20
48.3982
 30
0.0
 10
-115.6599
 20
47.0858
 30
0.0
 10
-114.29
 20
46.4953
 30
0.0
 10
-114.29
 20
46.4953
 30
0.0
 10
-109.8052
 20
45.0689
 30
0.0
 10
-108.2866
 20
43.2961
 30
0.0
 10
-105.7606
 20
40.5613
 30
0.0
 10
-105.7606
 20
40.5613
 30
0.0
 10
-106.8315
 20
43.3142
 30
0.0
 10
-110.1874
 20
49.0452
 30
0.0
 10
-112.4358
 20
50.0875
 30
0.0
  0
SPLINE
  5
88
330
1F
100
AcDbEntity
  8
layer 1
 62
     7
100
AcDbSpline
210
0.0
220
0.0
230
1.0
 70
    11
 71
     3
 72
    20
 73
    16
 74
     0
 42
0.0000000001
 43
0.0000000001
 12
1.0
 22
0.0
 32
0.0
 13
1.0
 23
0.0
 33
0.0
 40
0.0
 40
0.0
 40
0.0
 40
0.0
 40
0.2
 40
0.2
 40
0.2
 40
0.2
 40
0.4
 40
0.4
 40
0.4
 40
0.4
 40
0.6
 40
0.6
 40
0.6
 40
0.6
 40
1.0
 40
1.0
 40
1.0
 40
1.0
 10
-105.6214
 20
53.3222
 30
0.0
 10
-106.4053
 20
55.1704
 30
0.0
 10
-107.9375
 20
55.7844
 30
0.0
 10
-109.8441
 20
54.194
 30
0.0
 10
-109.8441
 20
54.194
 30
0.0
 10
-111.8098
 20
52.5544
 30
0.0
 10
-111.6751
 20
51.4626
 30
0.0
 10
-109.7002
 20
49.7806
 30
0.0
 10
-109.7002
 20
49.7806
 30
0.0
 10
-106.984
 20
47.524
 30
0.0
 10
-105.1117
 20
44.3954
 30
0.0
 10
-103.6004
 20
41.4491
 30
0.0
 10
-103.6004
 20
41.4491
 30
0.0
 10
-104.0387
 20
45.2114
 30
0.0
 10
-104.0399
 20
49.5687
 30
0.0
 10
-105.6214
 20
53.3222
 30
0.0
  0
SPLINE
  5
89
330
1F
100
AcDbEntity
  8
layer 1
 62
     7
100
AcDbSpline
210
0.0
220
0.0
230
1.0
 70
    11
 71
     3
 72
    28
 73
    24
 74
     0
 42
0.0000000001
 43
0.0000000001
 12
1.0
 22
0.0
 32
0.0
 13
1.0
 23
0.0
 33
0.0
 40
0.0
 40
0.0
 40
0.0
 40
0.0
 40
0.1428571428571428
 40
0.1428571428571428
 40
0.1428571428571428
 40
0.1428571428571428
 40
0.2857142857142857
 40
0.2857142857142857
 40
0.2857142857142857
 40
0.2857142857142857
 40
0.4285714285714285
 40
0.4285714285714285
 40
0.4285714285714285
 40
0.4285714285714285
 40
0.5714285714285714
 40
0.5714285714285714
 40
0.5714285714285714
 40
0.5714285714285714
 40
0.7142857142857143
 40
0.7142857142857143
 40
0.7142857142857143
 40
0.7142857142857143
 40
1.0
 40
1.0
 40
1.0
 40
1.0
 10
-104.1228
 20
53.1796
 30
0.0
 10
-104.6194
 20
54.2379
 30
0.0
 10
-104.9866
 20
55.3033
 30
0.0
 10
-104.9388
 20
55.5471
 30
0.0
 10
-104.9388
 20
55.5471
 30
0.0
 10
-104.7515
 20
56.5006
 30
0.0
 10
-103.4502
 20
57.0168
 30
0.0
 10
-101.3812
 20
57.0714
 30
0.0
 10
-101.3812
 20
57.0714
 30
0.0
 10
-99.3122
 20
57.0441
 30
0.0
 10
-98.0108
 20
56.5006
 30
0.0
 10
-97.8236
 20
55.5471
 30
0.0
 10
-97.8236
 20
55.5471
 30
0.0
 10
-97.7757
 20
55.3033
 30
0.0
 10
-98.1429
 20
54.238
 30
0.0
 10
-98.6396
 20
53.1796
 30
0.0
 10
-98.6396
 20
53.1796
 30
0.0
 10
-100.1744
 20
50.6004
 30
0.0
 10
-101.0297
 20
44.6382
 30
0.0
 10
-101.3812
 20
42.4315
 30
0.0
 10
-101.3812
 20
42.4315
 30
0.0
 10
-101.7326
 20
44.6382
 30
0.0
 10
-102.588
 20
50.6005
 30
0.0
 10
-104.1228
 20
53.1796
 30
0.0
  0
SPLINE
  5
8A
330
1F
100
AcDbEntity
  8
layer 1
 62
     7
100
AcDbSpline
210
0.0
220
0.0
230
1.0
 70
    11
 71
     3
 72
    20
 73
    16
 74
     0
 42
0.0000000001
 43
0.0000000001
 12
1.0
 22
0.0
 32
0.0
 13
1.0
 23
0.0
 33
0.0
 40
0.0
 40
0.0
 40
0.0
 40
0.0
 40
0.2
 40
0.2
 40
0.2
 40
0.2
 40
0.4
 40
0.4
 40
0.4
 40
0.4
 40
0.6
 40
0.6
 40
0.6
 40
0.6
 40
1.0
 40
1.0
 40
1.0
 40
1.0
 10
-90.3804
 20
50.0875
 30
0.0
 10
-89.337
 20
50.447
 30
0.0
 10
-88.7618
 20
50.1192
 30
0.0
 10
-88.0619
 20
49.4292
 30
0.0
 10
-88.0619
 20
49.4292
 30
0.0
 10
-87.0269
 20
48.3982
 30
0.0
 10
-87.1563
 20
47.0858
 30
0.0
 10
-88.5262
 20
46.4953
 30
0.0
 10
-88.5262
 20
46.4953
 30
0.0
 10
-93.011
 20
45.0689
 30
0.0
 10
-94.5296
 20
43.2961
 30
0.0
 10
-97.0557
 20
40.5613
 30
0.0
 10
-97.0557
 20
40.5613
 30
0.0
 10
-95.9848
 20
43.3142
 30
0.0
 10
-92.6289
 20
49.0452
 30
0.0
 10
-90.3804
 20
50.0875
 30
0.0
  0
SPLINE
  5
8B
330
1F
100
AcDbEntity
  8
layer 1
 62
     7
100
AcDbSpline
210
0.0
220
0.0
230
1.0
 70
    11
 71
     3
 72
    20
 73
    16
 74
     0
 42
0.0000000001
 43
0.0000000001
 12
1.0
 22
0.0
 32
0.0
 13
1.0
 23
0.0
 33
0.0
 40
0.0
 40
0.0
 40
0.0
 40
0.0
 40
0.2
 40
0.2
 40
0.2
 40
0.2
 40
0.4
 40
0.4
 40
0.4
 40
0.4
 40
0.6
 40
0.6
 40
0.6
 40
0.6
 40
1.0
 40
1.0
 40
1.0
 40
1.0
 10
-97.1949
 20
53.3222
 30
0.0
 10
-96.4109
 20
55.1704
 30
0.0
 10
-94.8788
 20
55.7844
 30
0.0
 10
-92.9721
 20
54.194
 30
0.0
 10
-92.9721
 20
54.194
 30
0.0
 10
-91.0065
 20
52.5544
 30
0.0
 10
-91.1411
 20
51.4626
 30
0.0
 10
-93.1161
 20
49.7806
 30
0.0
 10
-93.1161
 20
49.7806
 30
0.0
 10
-95.8322
 20
47.524
 30
0.0
 10
-97.7045
 20
44.3954
 30
0.0
 10
-99.2158
 20
41.4491
 30
0.0
 10
-99.2158
 20
41.4491
 30
0.0
 10
-98.7775
 20
45.2114
 30
0.0
 10
-98.7763
 20
49.5687
 30
0.0
 10
-97.1949
 20
53.3222
 30
0.0
  0
SPLINE
  5
8C
330
1F
100
AcDbEntity
  8
layer 1
 62
     7
100
AcDbSpline
210
0.0
220
0.0
230
1.0
 70
    11
 71
     3
 72
    20
 73
    16
 74
     0
 42
0.0000000001
 43
0.0000000001
 12
1.0
 22
0.0
 32
0.0
 13
1.0
 23
0.0
 33
0.0
 40
0.0
 40
0.0
 40
0.0
 40
0.0
 40
0.2
 40
0.2
 40
0.2
 40
0.2
 40
0.4
 40
0.4
 40
0.4
 40
0.4
 40
0.6
 40
0.6
 40
0.6
 40
0.6
 40
1.0
 40
1.0
 40
1.0
 40
1.0
 10
-79.7882
 20
50.0875
 30
0.0
 10
-80.8316
 20
50.447
 30
0.0
 10
-81.4068
 20
50.1192
 30
0.0
 10
-82.1068
 20
49.4292
 30
0.0
 10
-82.1068
 20
49.4292
 30
0.0
 10
-83.1417
 20
48.3982
 30
0.0
 10
-83.0123
 20
47.0858
 30
0.0
 10
-81.6424
 20
46.4953
 30
0.0
 10
-81.6424
 20
46.4953
 30
0.0
 10
-77.1576
 20
45.0689
 30
0.0
 10
-75.639
 20
43.2961
 30
0.0
 10
-73.113
 20
40.5613
 30
0.0
 10
-73.113
 20
40.5613
 30
0.0
 10
-74.1839
 20
43.3142
 30
0.0
 10
-77.5398
 20
49.0452
 30
0.0
 10
-79.7882
 20
50.0875
 30
0.0
  0
SPLINE
  5
8D
330
1F
100
AcDbEntity
  8
layer 1
 62
     7
100
AcDbSpline
210
0.0
220
0.0
230
1.0
 70
    11
 71
     3
 72
    20
 73
    16
 74
     0
 42
0.0000000001
 43
0.0000000001
 12
1.0
 22
0.0
 32
0.0
 13
1.0
 23
0.0
 33
0.0
 40
0.0
 40
0.0
 40
0.0
 40
0.0
 40
0.2
 40
0.2
 40
0.2
 40
0.2
 40
0.4
 40
0.4
 40
0.4
 40
0.4
 40
0.6
 40
0.6
 40
0.6
 40
0.6
 40
1.0
 40
1.0
 40
1.0
 40
1.0
 10
-72.9738
 20
53.3222
 30
0.0
 10
-73.7577
 20
55.1704
 30
0.0
 10
-75.2899
 20
55.7844
 30
0.0
 10
-77.1965
 20
54.194
 30
0.0
 10
-77.1965
 20
54.194
 30
0.0
 10
-79.1621
 20
52.5544
 30
0.0
 10
-79.0275
 20
51.4626
 30
0.0
 10
-77.0526
 20
49.7806
 30
0.0
 10
-77.0526
 20
49.7806
 30
0.0
 10
-74.3364
 20
47.524
 30
0.0
 10
-72.4641
 20
44.3954
 30
0.0
 10
-70.9528
 20
41.4491
 30
0.0
 10
-70.9528
 20
41.4491
 30
0.0
 10
-71.3911
 20
45.2114
 30
0.0
 10
-71.3923
 20
49.5687
 30
0.0
 10
-72.9738
 20
53.3222
 30
0.0
  0
SPLINE
  5
8E
330
1F
100
AcDbEntity
  8
layer 1
 62
     7
100
AcDbSpline
210
0.0
220
0.0
230
1.0
 70
    11
 71
     3
 72
    28
 73
    24
 74
     0
 42
0.0000000001
 43
0.0000000001
 12
1.0
 22
0.0
 32
0.0
 13
1.0
 23
0.0
 33
0.0
 40
0.0
 40
0.0
 40
0.0
 40
0.0
 40
0.1428571428571428
 40
0.1428571428571428
 40
0.1428571428571428
 40
0.1428571428571428
 40
0.2857142857142857
 40
0.2857142857142857
 40
0.2857142857142857
 40
0.2857142857142857
 40
0.4285714285714285
 40
0.4285714285714285
 40
0.4285714285714285
 40
0.4285714285714285
 40
0.5714285714285714
 40
0.5714285714285714
 40
0.5714285714285714
 40
0.5714285714285714
 40
0.7142857142857143
 40
0.7142857142857143
 40
0.7142857142857143
 40
0.7142857142857143
 40
1.0
 40
1.0
 40
1.0
 40
1.0
 10
-71.4752
 20
53.1796
 30
0.0
 10
-71.9718
 20
54.2379
 30
0.0
 10
-72.339
 20
55.3033
 30
0.0
 10
-72.2911
 20
55.5471
 30
0.0
 10
-72.2911
 20
55.5471
 30
0.0
 10
-72.1039
 20
56.5006
 30
0.0
 10
-70.8026
 20
57.0168
 30
0.0
 10
-68.7336
 20
57.0714
 30
0.0
 10
-68.7336
 20
57.0714
 30
0.0
 10
-66.6646
 20
57.0441
 30
0.0
 10
-65.3632
 20
56.5006
 30
0.0
 10
-65.176
 20
55.5471
 30
0.0
 10
-65.176
 20
55.5471
 30
0.0
 10
-65.1281
 20
55.3033
 30
0.0
 10
-65.4953
 20
54.238
 30
0.0
 10
-65.9919
 20
53.1796
 30
0.0
 10
-65.9919
 20
53.1796
 30
0.0
 10
-67.5268
 20
50.6004
 30
0.0
 10
-68.3821
 20
44.6382
 30
0.0
 10
-68.7336
 20
42.4315
 30
0.0
 10
-68.7336
 20
42.4315
 30
0.0
 10
-69.0849
 20
44.6382
 30
0.0
 10
-69.9403
 20
50.6005
 30
0.0
 10
-71.4752
 20
53.1796
 30
0.0
  0
SPLINE
  5
8F
330
1F
100
AcDbEntity
  8
layer 1
 62
     7
100
AcDbSpline
210
0.0
220
0.0
230
1.0
 70
    11
 71
     3
 72
    20
 73
    16
 74
     0
 42
0.0000000001
 43
0.0000000001
 12
1.0
 22
0.0
 32
0.0
 13
1.0
 23
0.0
 33
0.0
 40
0.0
 40
0.0
 40
0.0
 40
0.0
 40
0.2
 40
0.2
 40
0.2
 40
0.2
 40
0.4
 40
0.4
 40
0.4
 40
0.4
 40
0.6
 40
0.6
 40
0.6
 40
0.6
 40
1.0
 40
1.0
 40
1.0
 40
1.0
 10
-57.7328
 20
50.0875
 30
0.0
 10
-56.6894
 20
50.447
 30
0.0
 10
-56.1142
 20
50.1192
 30
0.0
 10
-55.4142
 20
49.4292
 30
0.0
 10
-55.4142
 20
49.4292
 30
0.0
 10
-54.3793
 20
48.3982
 30
0.0
 10
-54.5087
 20
47.0858
 30
0.0
 10
-55.8786
 20
46.4953
 30
0.0
 10
-55.8786
 20
46.4953
 30
0.0
 10
-60.3634
 20
45.0689
 30
0.0
 10
-61.882
 20
43.2961
 30
0.0
 10
-64.408
 20
40.5613
 30
0.0
 10
-64.408
 20
40.5613
 30
0.0
 10
-63.3371
 20
43.3142
 30
0.0
 10
-59.9813
 20
49.0452
 30
0.0
 10
-57.7328
 20
50.0875
 30
0.0
  0
SPLINE
  5
90
330
1F
100
AcDbEntity
  8
layer 1
 62
     7
100
AcDbSpline
210
0.0
220
0.0
230
1.0
 70
    11
 71
     3
 72
    20
 73
    16
 74
     0
 42
0.0000000001
 43
0.0000000001
 12
1.0
 22
0.0
 32
0.0
 13
1.0
 23
0.0
 33
0.0
 40
0.0
 40
0.0
 40
0.0
 40
0.0
 40
0.2
 40
0.2
 40
0.2
 40
0.2
 40
0.4
 40
0.4
 40
0.4
 40
0.4
 40
0.6
 40
0.6
 40
0.6
 40
0.6
 40
1.0
 40
1.0
 40
1.0
 40
1.0
 10
-64.5472
 20
53.3222
 30
0.0
 10
-63.7633
 20
55.1704
 30
0.0
 10
-62.2311
 20
55.7844
 30
0.0
 10
-60.3245
 20
54.194
 30
0.0
 10
-60.3245
 20
54.194
 30
0.0
 10
-58.3589
 20
52.5544
 30
0.0
 10
-58.4935
 20
51.4626
 30
0.0
 10
-60.4684
 20
49.7806
 30
0.0
 10
-60.4684
 20
49.7806
 30
0.0
 10
-63.1846
 20
47.524
 30
0.0
 10
-65.0569
 20
44.3954
 30
0.0
 10
-66.5682
 20
41.4491
 30
0.0
 10
-66.5682
 20
41.4491
 30
0.0
 10
-66.1299
 20
45.2114
 30
0.0
 10
-66.1287
 20
49.5687
 30
0.0
 10
-64.5472
 20
53.3222
 30
0.0
  0
SPLINE
  5
91
330
1F
100
AcDbEntity
  8
layer 1
 62
     7
100
AcDbSpline
210
0.0
220
0.0
230
1.0
 70
    11
 71
     3
 72
    20
 73
    16
 74
     0
 42
0.0000000001
 43
0.0000000001
 12
1.0
 22
0.0
 32
0.0
 13
1.0
 23
0.0
 33
0.0
 40
0.0
 40
0.0
 40
0.0
 40
0.0
 40
0.2
 40
0.2
 40
0.2
 40
0.2
 40
0.4
 40
0.4
 40
0.4
 40
0.4
 40
0.6
 40
0.6
 40
0.6
 40
0.6
 40
1.0
 40
1.0
 40
1.0
 40
1.0
 10
-171.6669
 20
36.841
 30
0.0
 10
-170.6235
 20
37.2005
 30
0.0
 10
-170.0483
 20
36.8727
 30
0.0
 10
-169.3483
 20
36.1827
 30
0.0
 10
-169.3483
 20
36.1827
 30
0.0
 10
-168.3134
 20
35.1517
 30
0.0
 10
-168.4428
 20
33.8392
 30
0.0
 10
-169.8127
 20
33.2488
 30
0.0
 10
-169.8127
 20
33.2488
 30
0.0
 10
-174.2975
 20
31.8224
 30
0.0
 10
-175.8161
 20
30.0496
 30
0.0
 10
-178.3421
 20
27.3148
 30
0.0
 10
-178.3421
 20
27.3148
 30
0.0
 10
-177.2712
 20
30.0677
 30
0.0
 10
-173.9154
 20
35.7986
 30
0.0
 10
-171.6669
 20
36.841
 30
0.0
  0
SPLINE
  5
92
330
1F
100
AcDbEntity
  8
layer 1
 62
     7
100
AcDbSpline
210
0.0
220
0.0
230
1.0
 70
    11
 71
     3
 72
    20
 73
    16
 74
     0
 42
0.0000000001
 43
0.0000000001
 12
1.0
 22
0.0
 32
0.0
 13
1.0
 23
0.0
 33
0.0
 40
0.0
 40
0.0
 40
0.0
 40
0.0
 40
0.2
 40
0.2
 40
0.2
 40
0.2
 40
0.4
 40
0.4
 40
0.4
 40
0.4
 40
0.6
 40
0.6
 40
0.6
 40
0.6
 40
1.0
 40
1.0
 40
1.0
 40
1.0
 10
-178.4813
 20
40.0757
 30
0.0
 10
-177.6974
 20
41.9239
 30
0.0
 10
-176.1652
 20
42.5379
 30
0.0
 10
-174.2586
 20
40.9475
 30
0.0
 10
-174.2586
 20
40.9475
 30
0.0
 10
-172.293
 20
39.3079
 30
0.0
 10
-172.4276
 20
38.2161
 30
0.0
 10
-174.4025
 20
36.5341
 30
0.0
 10
-174.4025
 20
36.5341
 30
0.0
 10
-177.1187
 20
34.2775
 30
0.0
 10
-178.991
 20
31.1489
 30
0.0
 10
-180.5023
 20
28.2025
 30
0.0
 10
-180.5023
 20
28.2025
 30
0.0
 10
-180.064
 20
31.9649
 30
0.0
 10
-180.0628
 20
36.3222
 30
0.0
 10
-178.4813
 20
40.0757
 30
0.0
  0
SPLINE
  5
93
330
1F
100
AcDbEntity
  8
layer 1
 62
     7
100
AcDbSpline
210
0.0
220
0.0
230
1.0
 70
    11
 71
     3
 72
    20
 73
    16
 74
     0
 42
0.0000000001
 43
0.0000000001
 12
1.0
 22
0.0
 32
0.0
 13
1.0
 23
0.0
 33
0.0
 40
0.0
 40
0.0
 40
0.0
 40
0.0
 40
0.2
 40
0.2
 40
0.2
 40
0.2
 40
0.4
 40
0.4
 40
0.4
 40
0.4
 40
0.6
 40
0.6
 40
0.6
 40
0.6
 40
1.0
 40
1.0
 40
1.0
 40
1.0
 10
-179.9799
 20
39.9331
 30
0.0
 10
-179.4833
 20
40.9914
 30
0.0
 10
-179.1161
 20
42.0568
 30
0.0
 10
-179.164
 20
42.3006
 30
0.0
 10
-179.164
 20
42.3006
 30
0.0
 10
-179.3512
 20
43.2541
 30
0.0
 10
-180.6526
 20
43.7702
 30
0.0
 10
-182.7216
 20
43.8249
 30
0.0
 10
-182.7216
 20
43.8249
 30
0.0
 10
-182.7216
 20
43.8249
 30
0.0
 10
-182.7216
 20
29.185
 30
0.0
 10
-182.7216
 20
29.185
 30
0.0
 10
-182.7216
 20
29.185
 30
0.0
 10
-182.3702
 20
31.3917
 30
0.0
 10
-181.5148
 20
37.354
 30
0.0
 10
-179.9799
 20
39.9331
 30
0.0
  0
SPLINE
  5
94
330
1F
100
AcDbEntity
  8
layer 1
 62
     7
100
AcDbSpline
210
0.0
220
0.0
230
1.0
 70
    11
 71
     3
 72
    20
 73
    16
 74
     0
 42
0.0000000001
 43
0.0000000001
 12
1.0
 22
0.0
 32
0.0
 13
1.0
 23
0.0
 33
0.0
 40
0.0
 40
0.0
 40
0.0
 40
0.0
 40
0.2
 40
0.2
 40
0.2
 40
0.2
 40
0.4
 40
0.4
 40
0.4
 40
0.4
 40
0.6
 40
0.6
 40
0.6
 40
0.6
 40
1.0
 40
1.0
 40
1.0
 40
1.0
 10
-161.227
 20
-15.3038
 30
0.0
 10
-162.2704
 20
-14.9443
 30
0.0
 10
-162.8456
 20
-15.2721
 30
0.0
 10
-163.5456
 20
-15.9621
 30
0.0
 10
-163.5456
 20
-15.9621
 30
0.0
 10
-164.5806
 20
-16.9931
 30
0.0
 10
-164.4511
 20
-18.3056
 30
0.0
 10
-163.0812
 20
-18.896
 30
0.0
 10
-163.0812
 20
-18.896
 30
0.0
 10
-158.5964
 20
-20.3225
 30
0.0
 10
-157.0778
 20
-22.0952
 30
0.0
 10
-154.5518
 20
-24.83
 30
0.0
 10
-154.5518
 20
-24.83
 30
0.0
 10
-155.6227
 20
-22.0771
 30
0.0
 10
-158.9786
 20
-16.3462
 30
0.0
 10
-161.227
 20
-15.3038
 30
0.0
  0
SPLINE
  5
95
330
1F
100
AcDbEntity
  8
layer 1
 62
     7
100
AcDbSpline
210
0.0
220
0.0
230
1.0
 70
    11
 71
     3
 72
    20
 73
    16
 74
     0
 42
0.0000000001
 43
0.0000000001
 12
1.0
 22
0.0
 32
0.0
 13
1.0
 23
0.0
 33
0.0
 40
0.0
 40
0.0
 40
0.0
 40
0.0
 40
0.2
 40
0.2
 40
0.2
 40
0.2
 40
0.4
 40
0.4
 40
0.4
 40
0.4
 40
0.6
 40
0.6
 40
0.6
 40
0.6
 40
1.0
 40
1.0
 40
1.0
 40
1.0
 10
-154.4126
 20
-12.0691
 30
0.0
 10
-155.1965
 20
-10.2209
 30
0.0
 10
-156.7287
 20
-9.6069
 30
0.0
 10
-158.6353
 20
-11.1973
 30
0.0
 10
-158.6353
 20
-11.1973
 30
0.0
 10
-160.601
 20
-12.8369
 30
0.0
 10
-160.4663
 20
-13.9287
 30
0.0
 10
-158.4914
 20
-15.6107
 30
0.0
 10
-158.4914
 20
-15.6107
 30
0.0
 10
-155.7752
 20
-17.8673
 30
0.0
 10
-153.9029
 20
-20.9959
 30
0.0
 10
-152.3916
 20
-23.9423
 30
0.0
 10
-152.3916
 20
-23.9423
 30
0.0
 10
-152.8299
 20
-20.18
 30
0.0
 10
-152.8311
 20
-15.8226
 30
0.0
 10
-154.4126
 20
-12.0691
 30
0.0
  0
SPLINE
  5
96
330
1F
100
AcDbEntity
  8
layer 1
 62
     7
100
AcDbSpline
210
0.0
220
0.0
230
1.0
 70
    11
 71
     3
 72
    28
 73
    24
 74
     0
 42
0.0000000001
 43
0.0000000001
 12
1.0
 22
0.0
 32
0.0
 13
1.0
 23
0.0
 33
0.0
 40
0.0
 40
0.0
 40
0.0
 40
0.0
 40
0.1428571428571428
 40
0.1428571428571428
 40
0.1428571428571428
 40
0.1428571428571428
 40
0.2857142857142857
 40
0.2857142857142857
 40
0.2857142857142857
 40
0.2857142857142857
 40
0.4285714285714285
 40
0.4285714285714285
 40
0.4285714285714285
 40
0.4285714285714285
 40
0.5714285714285714
 40
0.5714285714285714
 40
0.5714285714285714
 40
0.5714285714285714
 40
0.7142857142857143
 40
0.7142857142857143
 40
0.7142857142857143
 40
0.7142857142857143
 40
1.0
 40
1.0
 40
1.0
 40
1.0
 10
-152.914
 20
-12.2118
 30
0.0
 10
-153.4106
 20
-11.1534
 30
0.0
 10
-153.7778
 20
-10.088
 30
0.0
 10
-153.7299
 20
-9.8442
 30
0.0
 10
-153.7299
 20
-9.8442
 30
0.0
 10
-153.5427
 20
-8.8907
 30
0.0
 10
-152.2414
 20
-8.3746
 30
0.0
 10
-150.1724
 20
-8.3199
 30
0.0
 10
-150.1724
 20
-8.3199
 30
0.0
 10
-148.1034
 20
-8.3472
 30
0.0
 10
-146.802
 20
-8.8907
 30
0.0
 10
-146.6148
 20
-9.8442
 30
0.0
 10
-146.6148
 20
-9.8442
 30
0.0
 10
-146.5669
 20
-10.088
 30
0.0
 10
-146.9341
 20
-11.1533
 30
0.0
 10
-147.4308
 20
-12.2118
 30
0.0
 10
-147.4308
 20
-12.2118
 30
0.0
 10
-148.9656
 20
-14.7909
 30
0.0
 10
-149.8209
 20
-20.7531
 30
0.0
 10
-150.1724
 20
-22.9598
 30
0.0
 10
-150.1724
 20
-22.9598
 30
0.0
 10
-150.5238
 20
-20.7531
 30
0.0
 10
-151.3792
 20
-14.7908
 30
0.0
 10
-152.914
 20
-12.2118
 30
0.0
  0
SPLINE
  5
97
330
1F
100
AcDbEntity
  8
layer 1
 62
     7
100
AcDbSpline
210
0.0
220
0.0
230
1.0
 70
    11
 71
     3
 72
    20
 73
    16
 74
     0
 42
0.0000000001
 43
0.0000000001
 12
1.0
 22
0.0
 32
0.0
 13
1.0
 23
0.0
 33
0.0
 40
0.0
 40
0.0
 40
0.0
 40
0.0
 40
0.2
 40
0.2
 40
0.2
 40
0.2
 40
0.4
 40
0.4
 40
0.4
 40
0.4
 40
0.6
 40
0.6
 40
0.6
 40
0.6
 40
1.0
 40
1.0
 40
1.0
 40
1.0
 10
-139.1716
 20
-15.3038
 30
0.0
 10
-138.1282
 20
-14.9443
 30
0.0
 10
-137.553
 20
-15.2721
 30
0.0
 10
-136.8531
 20
-15.9621
 30
0.0
 10
-136.8531
 20
-15.9621
 30
0.0
 10
-135.8181
 20
-16.9931
 30
0.0
 10
-135.9475
 20
-18.3056
 30
0.0
 10
-137.3174
 20
-18.896
 30
0.0
 10
-137.3174
 20
-18.896
 30
0.0
 10
-141.8022
 20
-20.3225
 30
0.0
 10
-143.3208
 20
-22.0952
 30
0.0
 10
-145.8469
 20
-24.83
 30
0.0
 10
-145.8469
 20
-24.83
 30
0.0
 10
-144.776
 20
-22.0771
 30
0.0
 10
-141.4201
 20
-16.3462
 30
0.0
 10
-139.1716
 20
-15.3038
 30
0.0
  0
SPLINE
  5
98
330
1F
100
AcDbEntity
  8
layer 1
 62
     7
100
AcDbSpline
210
0.0
220
0.0
230
1.0
 70
    11
 71
     3
 72
    20
 73
    16
 74
     0
 42
0.0000000001
 43
0.0000000001
 12
1.0
 22
0.0
 32
0.0
 13
1.0
 23
0.0
 33
0.0
 40
0.0
 40
0.0
 40
0.0
 40
0.0
 40
0.2
 40
0.2
 40
0.2
 40
0.2
 40
0.4
 40
0.4
 40
0.4
 40
0.4
 40
0.6
 40
0.6
 40
0.6
 40
0.6
 40
1.0
 40
1.0
 40
1.0
 40
1.0
 10
-145.9861
 20
-12.0691
 30
0.0
 10
-145.2021
 20
-10.2209
 30
0.0
 10
-143.67
 20
-9.6069
 30
0.0
 10
-141.7633
 20
-11.1973
 30
0.0
 10
-141.7633
 20
-11.1973
 30
0.0
 10
-139.7977
 20
-12.8369
 30
0.0
 10
-139.9323
 20
-13.9287
 30
0.0
 10
-141.9073
 20
-15.6107
 30
0.0
 10
-141.9073
 20
-15.6107
 30
0.0
 10
-144.6234
 20
-17.8673
 30
0.0
 10
-146.4957
 20
-20.9959
 30
0.0
 10
-148.007
 20
-23.9423
 30
0.0
 10
-148.007
 20
-23.9423
 30
0.0
 10
-147.5687
 20
-20.18
 30
0.0
 10
-147.5675
 20
-15.8226
 30
0.0
 10
-145.9861
 20
-12.0691
 30
0.0
  0
SPLINE
  5
99
330
1F
100
AcDbEntity
  8
layer 1
 62
     7
100
AcDbSpline
210
0.0
220
0.0
230
1.0
 70
    11
 71
     3
 72
    20
 73
    16
 74
     0
 42
0.0000000001
 43
0.0000000001
 12
1.0
 22
0.0
 32
0.0
 13
1.0
 23
0.0
 33
0.0
 40
0.0
 40
0.0
 40
0.0
 40
0.0
 40
0.2
 40
0.2
 40
0.2
 40
0.2
 40
0.4
 40
0.4
 40
0.4
 40
0.4
 40
0.6
 40
0.6
 40
0.6
 40
0.6
 40
1.0
 40
1.0
 40
1.0
 40
1.0
 10
-128.7008
 20
-15.3038
 30
0.0
 10
-129.7442
 20
-14.9443
 30
0.0
 10
-130.3194
 20
-15.2721
 30
0.0
 10
-131.0194
 20
-15.9621
 30
0.0
 10
-131.0194
 20
-15.9621
 30
0.0
 10
-132.0544
 20
-16.9931
 30
0.0
 10
-131.9249
 20
-18.3056
 30
0.0
 10
-130.555
 20
-18.896
 30
0.0
 10
-130.555
 20
-18.896
 30
0.0
 10
-126.0702
 20
-20.3225
 30
0.0
 10
-124.5516
 20
-22.0952
 30
0.0
 10
-122.0256
 20
-24.83
 30
0.0
 10
-122.0256
 20
-24.83
 30
0.0
 10
-123.0965
 20
-22.0771
 30
0.0
 10
-126.4524
 20
-16.3462
 30
0.0
 10
-128.7008
 20
-15.3038
 30
0.0
  0
SPLINE
  5
9A
330
1F
100
AcDbEntity
  8
layer 1
 62
     7
100
AcDbSpline
210
0.0
220
0.0
230
1.0
 70
    11
 71
     3
 72
    20
 73
    16
 74
     0
 42
0.0000000001
 43
0.0000000001
 12
1.0
 22
0.0
 32
0.0
 13
1.0
 23
0.0
 33
0.0
 40
0.0
 40
0.0
 40
0.0
 40
0.0
 40
0.2
 40
0.2
 40
0.2
 40
0.2
 40
0.4
 40
0.4
 40
0.4
 40
0.4
 40
0.6
 40
0.6
 40
0.6
 40
0.6
 40
1.0
 40
1.0
 40
1.0
 40
1.0
 10
-121.8864
 20
-12.0691
 30
0.0
 10
-122.6703
 20
-10.2209
 30
0.0
 10
-124.2025
 20
-9.6069
 30
0.0
 10
-126.1091
 20
-11.1973
 30
0.0
 10
-126.1091
 20
-11.1973
 30
0.0
 10
-128.0747
 20
-12.8369
 30
0.0
 10
-127.9401
 20
-13.9287
 30
0.0
 10
-125.9652
 20
-15.6107
 30
0.0
 10
-125.9652
 20
-15.6107
 30
0.0
 10
-123.249
 20
-17.8673
 30
0.0
 10
-121.3767
 20
-20.9959
 30
0.0
 10
-119.8654
 20
-23.9423
 30
0.0
 10
-119.8654
 20
-23.9423
 30
0.0
 10
-120.3037
 20
-20.18
 30
0.0
 10
-120.3049
 20
-15.8226
 30
0.0
 10
-121.8864
 20
-12.0691
 30
0.0
  0
SPLINE
  5
9B
330
1F
100
AcDbEntity
  8
layer 1
 62
     7
100
AcDbSpline
210
0.0
220
0.0
230
1.0
 70
    11
 71
     3
 72
    28
 73
    24
 74
     0
 42
0.0000000001
 43
0.0000000001
 12
1.0
 22
0.0
 32
0.0
 13
1.0
 23
0.0
 33
0.0
 40
0.0
 40
0.0
 40
0.0
 40
0.0
 40
0.1428571428571428
 40
0.1428571428571428
 40
0.1428571428571428
 40
0.1428571428571428
 40
0.2857142857142857
 40
0.2857142857142857
 40
0.2857142857142857
 40
0.2857142857142857
 40
0.4285714285714285
 40
0.4285714285714285
 40
0.4285714285714285
 40
0.4285714285714285
 40
0.5714285714285714
 40
0.5714285714285714
 40
0.5714285714285714
 40
0.5714285714285714
 40
0.7142857142857143
 40
0.7142857142857143
 40
0.7142857142857143
 40
0.7142857142857143
 40
1.0
 40
1.0
 40
1.0
 40
1.0
 10
-120.3878
 20
-12.2118
 30
0.0
 10
-120.8844
 20
-11.1534
 30
0.0
 10
-121.2516
 20
-10.088
 30
0.0
 10
-121.2037
 20
-9.8442
 30
0.0
 10
-121.2037
 20
-9.8442
 30
0.0
 10
-121.0165
 20
-8.8907
 30
0.0
 10
-119.7152
 20
-8.3746
 30
0.0
 10
-117.6462
 20
-8.3199
 30
0.0
 10
-117.6462
 20
-8.3199
 30
0.0
 10
-115.5772
 20
-8.3472
 30
0.0
 10
-114.2758
 20
-8.8907
 30
0.0
 10
-114.0886
 20
-9.8442
 30
0.0
 10
-114.0886
 20
-9.8442
 30
0.0
 10
-114.0407
 20
-10.088
 30
0.0
 10
-114.4079
 20
-11.1533
 30
0.0
 10
-114.9046
 20
-12.2118
 30
0.0
 10
-114.9046
 20
-12.2118
 30
0.0
 10
-116.4394
 20
-14.7909
 30
0.0
 10
-117.2947
 20
-20.7531
 30
0.0
 10
-117.6462
 20
-22.9598
 30
0.0
 10
-117.6462
 20
-22.9598
 30
0.0
 10
-117.9976
 20
-20.7531
 30
0.0
 10
-118.853
 20
-14.7908
 30
0.0
 10
-120.3878
 20
-12.2118
 30
0.0
  0
SPLINE
  5
9C
330
1F
100
AcDbEntity
  8
layer 1
 62
     7
100
AcDbSpline
210
0.0
220
0.0
230
1.0
 70
    11
 71
     3
 72
    20
 73
    16
 74
     0
 42
0.0000000001
 43
0.0000000001
 12
1.0
 22
0.0
 32
0.0
 13
1.0
 23
0.0
 33
0.0
 40
0.0
 40
0.0
 40
0.0
 40
0.0
 40
0.2
 40
0.2
 40
0.2
 40
0.2
 40
0.4
 40
0.4
 40
0.4
 40
0.4
 40
0.6
 40
0.6
 40
0.6
 40
0.6
 40
1.0
 40
1.0
 40
1.0
 40
1.0
 10
-106.6454
 20
-15.3038
 30
0.0
 10
-105.602
 20
-14.9443
 30
0.0
 10
-105.0268
 20
-15.2721
 30
0.0
 10
-104.3268
 20
-15.9621
 30
0.0
 10
-104.3268
 20
-15.9621
 30
0.0
 10
-103.2919
 20
-16.9931
 30
0.0
 10
-103.4213
 20
-18.3056
 30
0.0
 10
-104.7912
 20
-18.896
 30
0.0
 10
-104.7912
 20
-18.896
 30
0.0
 10
-109.276
 20
-20.3225
 30
0.0
 10
-110.7946
 20
-22.0952
 30
0.0
 10
-113.3207
 20
-24.83
 30
0.0
 10
-113.3207
 20
-24.83
 30
0.0
 10
-112.2497
 20
-22.0771
 30
0.0
 10
-108.8939
 20
-16.3462
 30
0.0
 10
-106.6454
 20
-15.3038
 30
0.0
  0
SPLINE
  5
9D
330
1F
100
AcDbEntity
  8
layer 1
 62
     7
100
AcDbSpline
210
0.0
220
0.0
230
1.0
 70
    11
 71
     3
 72
    20
 73
    16
 74
     0
 42
0.0000000001
 43
0.0000000001
 12
1.0
 22
0.0
 32
0.0
 13
1.0
 23
0.0
 33
0.0
 40
0.0
 40
0.0
 40
0.0
 40
0.0
 40
0.2
 40
0.2
 40
0.2
 40
0.2
 40
0.4
 40
0.4
 40
0.4
 40
0.4
 40
0.6
 40
0.6
 40
0.6
 40
0.6
 40
1.0
 40
1.0
 40
1.0
 40
1.0
 10
-113.4598
 20
-12.0691
 30
0.0
 10
-112.6759
 20
-10.2209
 30
0.0
 10
-111.1438
 20
-9.6069
 30
0.0
 10
-109.2371
 20
-11.1973
 30
0.0
 10
-109.2371
 20
-11.1973
 30
0.0
 10
-107.2715
 20
-12.8369
 30
0.0
 10
-107.4061
 20
-13.9287
 30
0.0
 10
-109.381
 20
-15.6107
 30
0.0
 10
-109.381
 20
-15.6107
 30
0.0
 10
-112.0972
 20
-17.8673
 30
0.0
 10
-113.9695
 20
-20.9959
 30
0.0
 10
-115.4808
 20
-23.9423
 30
0.0
 10
-115.4808
 20
-23.9423
 30
0.0
 10
-115.0425
 20
-20.18
 30
0.0
 10
-115.0413
 20
-15.8226
 30
0.0
 10
-113.4598
 20
-12.0691
 30
0.0
  0
SPLINE
  5
9E
330
1F
100
AcDbEntity
  8
layer 1
 62
     7
100
AcDbSpline
210
0.0
220
0.0
230
1.0
 70
    11
 71
     3
 72
    20
 73
    16
 74
     0
 42
0.0000000001
 43
0.0000000001
 12
1.0
 22
0.0
 32
0.0
 13
1.0
 23
0.0
 33
0.0
 40
0.0
 40
0.0
 40
0.0
 40
0.0
 40
0.2
 40
0.2
 40
0.2
 40
0.2
 40
0.4
 40
0.4
 40
0.4
 40
0.4
 40
0.6
 40
0.6
 40
0.6
 40
0.6
 40
1.0
 40
1.0
 40
1.0
 40
1.0
 10
-96.1746
 20
-15.3038
 30
0.0
 10
-97.218
 20
-14.9443
 30
0.0
 10
-97.7932
 20
-15.2721
 30
0.0
 10
-98.4932
 20
-15.9621
 30
0.0
 10
-98.4932
 20
-15.9621
 30
0.0
 10
-99.5282
 20
-16.9931
 30
0.0
 10
-99.3987
 20
-18.3056
 30
0.0
 10
-98.0288
 20
-18.896
 30
0.0
 10
-98.0288
 20
-18.896
 30
0.0
 10
-93.544
 20
-20.3225
 30
0.0
 10
-92.0254
 20
-22.0952
 30
0.0
 10
-89.4994
 20
-24.83
 30
0.0
 10
-89.4994
 20
-24.83
 30
0.0
 10
-90.5703
 20
-22.0771
 30
0.0
 10
-93.9262
 20
-16.3462
 30
0.0
 10
-96.1746
 20
-15.3038
 30
0.0
  0
SPLINE
  5
9F
330
1F
100
AcDbEntity
  8
layer 1
 62
     7
100
AcDbSpline
210
0.0
220
0.0
230
1.0
 70
    11
 71
     3
 72
    20
 73
    16
 74
     0
 42
0.0000000001
 43
0.0000000001
 12
1.0
 22
0.0
 32
0.0
 13
1.0
 23
0.0
 33
0.0
 40
0.0
 40
0.0
 40
0.0
 40
0.0
 40
0.2
 40
0.2
 40
0.2
 40
0.2
 40
0.4
 40
0.4
 40
0.4
 40
0.4
 40
0.6
 40
0.6
 40
0.6
 40
0.6
 40
1.0
 40
1.0
 40
1.0
 40
1.0
 10
-89.3602
 20
-12.0691
 30
0.0
 10
-90.1441
 20
-10.2209
 30
0.0
 10
-91.6763
 20
-9.6069
 30
0.0
 10
-93.5829
 20
-11.1973
 30
0.0
 10
-93.5829
 20
-11.1973
 30
0.0
 10
-95.5485
 20
-12.8369
 30
0.0
 10
-95.4139
 20
-13.9287
 30
0.0
 10
-93.439
 20
-15.6107
 30
0.0
 10
-93.439
 20
-15.6107
 30
0.0
 10
-90.7228
 20
-17.8673
 30
0.0
 10
-88.8505
 20
-20.9959
 30
0.0
 10
-87.3392
 20
-23.9423
 30
0.0
 10
-87.3392
 20
-23.9423
 30
0.0
 10
-87.7775
 20
-20.18
 30
0.0
 10
-87.7787
 20
-15.8226
 30
0.0
 10
-89.3602
 20
-12.0691
 30
0.0
  0
SPLINE
  5
A0
330
1F
100
AcDbEntity
  8
layer 1
 62
     7
100
AcDbSpline
210
0.0
220
0.0
230
1.0
 70
    11
 71
     3
 72
    28
 73
    24
 74
     0
 42
0.0000000001
 43
0.0000000001
 12
1.0
 22
0.0
 32
0.0
 13
1.0
 23
0.0
 33
0.0
 40
0.0
 40
0.0
 40
0.0
 40
0.0
 40
0.1428571428571428
 40
0.1428571428571428
 40
0.1428571428571428
 40
0.1428571428571428
 40
0.2857142857142857
 40
0.2857142857142857
 40
0.2857142857142857
 40
0.2857142857142857
 40
0.4285714285714285
 40
0.4285714285714285
 40
0.4285714285714285
 40
0.4285714285714285
 40
0.5714285714285714
 40
0.5714285714285714
 40
0.5714285714285714
 40
0.5714285714285714
 40
0.7142857142857143
 40
0.7142857142857143
 40
0.7142857142857143
 40
0.7142857142857143
 40
1.0
 40
1.0
 40
1.0
 40
1.0
 10
-87.8616
 20
-12.2118
 30
0.0
 10
-88.3582
 20
-11.1534
 30
0.0
 10
-88.7254
 20
-10.088
 30
0.0
 10
-88.6775
 20
-9.8442
 30
0.0
 10
-88.6775
 20
-9.8442
 30
0.0
 10
-88.4903
 20
-8.8907
 30
0.0
 10
-87.189
 20
-8.3746
 30
0.0
 10
-85.12
 20
-8.3199
 30
0.0
 10
-85.12
 20
-8.3199
 30
0.0
 10
-83.051
 20
-8.3472
 30
0.0
 10
-81.7496
 20
-8.8907
 30
0.0
 10
-81.5624
 20
-9.8442
 30
0.0
 10
-81.5624
 20
-9.8442
 30
0.0
 10
-81.5145
 20
-10.088
 30
0.0
 10
-81.8817
 20
-11.1533
 30
0.0
 10
-82.3784
 20
-12.2118
 30
0.0
 10
-82.3784
 20
-12.2118
 30
0.0
 10
-83.9132
 20
-14.7909
 30
0.0
 10
-84.7685
 20
-20.7531
 30
0.0
 10
-85.12
 20
-22.9598
 30
0.0
 10
-85.12
 20
-22.9598
 30
0.0
 10
-85.4714
 20
-20.7531
 30
0.0
 10
-86.3268
 20
-14.7908
 30
0.0
 10
-87.8616
 20
-12.2118
 30
0.0
  0
SPLINE
  5
A1
330
1F
100
AcDbEntity
  8
layer 1
 62
     7
100
AcDbSpline
210
0.0
220
0.0
230
1.0
 70
    11
 71
     3
 72
    20
 73
    16
 74
     0
 42
0.0000000001
 43
0.0000000001
 12
1.0
 22
0.0
 32
0.0
 13
1.0
 23
0.0
 33
0.0
 40
0.0
 40
0.0
 40
0.0
 40
0.0
 40
0.2
 40
0.2
 40
0.2
 40
0.2
 40
0.4
 40
0.4
 40
0.4
 40
0.4
 40
0.6
 40
0.6
 40
0.6
 40
0.6
 40
1.0
 40
1.0
 40
1.0
 40
1.0
 10
-74.1192
 20
-15.3038
 30
0.0
 10
-73.0758
 20
-14.9443
 30
0.0
 10
-72.5006
 20
-15.2721
 30
0.0
 10
-71.8006
 20
-15.9621
 30
0.0
 10
-71.8006
 20
-15.9621
 30
0.0
 10
-70.7657
 20
-16.9931
 30
0.0
 10
-70.8951
 20
-18.3056
 30
0.0
 10
-72.265
 20
-18.896
 30
0.0
 10
-72.265
 20
-18.896
 30
0.0
 10
-76.7498
 20
-20.3225
 30
0.0
 10
-78.2684
 20
-22.0952
 30
0.0
 10
-80.7945
 20
-24.83
 30
0.0
 10
-80.7945
 20
-24.83
 30
0.0
 10
-79.7235
 20
-22.0771
 30
0.0
 10
-76.3677
 20
-16.3462
 30
0.0
 10
-74.1192
 20
-15.3038
 30
0.0
  0
SPLINE
  5
A2
330
1F
100
AcDbEntity
  8
layer 1
 62
     7
100
AcDbSpline
210
0.0
220
0.0
230
1.0
 70
    11
 71
     3
 72
    20
 73
    16
 74
     0
 42
0.0000000001
 43
0.0000000001
 12
1.0
 22
0.0
 32
0.0
 13
1.0
 23
0.0
 33
0.0
 40
0.0
 40
0.0
 40
0.0
 40
0.0
 40
0.2
 40
0.2
 40
0.2
 40
0.2
 40
0.4
 40
0.4
 40
0.4
 40
0.4
 40
0.6
 40
0.6
 40
0.6
 40
0.6
 40
1.0
 40
1.0
 40
1.0
 40
1.0
 10
-80.9336
 20
-12.0691
 30
0.0
 10
-80.1497
 20
-10.2209
 30
0.0
 10
-78.6176
 20
-9.6069
 30
0.0
 10
-76.7109
 20
-11.1973
 30
0.0
 10
-76.7109
 20
-11.1973
 30
0.0
 10
-74.7453
 20
-12.8369
 30
0.0
 10
-74.8799
 20
-13.9287
 30
0.0
 10
-76.8548
 20
-15.6107
 30
0.0
 10
-76.8548
 20
-15.6107
 30
0.0
 10
-79.571
 20
-17.8673
 30
0.0
 10
-81.4433
 20
-20.9959
 30
0.0
 10
-82.9546
 20
-23.9423
 30
0.0
 10
-82.9546
 20
-23.9423
 30
0.0
 10
-82.5163
 20
-20.18
 30
0.0
 10
-82.5151
 20
-15.8226
 30
0.0
 10
-80.9336
 20
-12.0691
 30
0.0
  0
SPLINE
  5
A3
330
1F
100
AcDbEntity
  8
layer 1
 62
     7
100
AcDbSpline
210
0.0
220
0.0
230
1.0
 70
    11
 71
     3
 72
    20
 73
    16
 74
     0
 42
0.0000000001
 43
0.0000000001
 12
1.0
 22
0.0
 32
0.0
 13
1.0
 23
0.0
 33
0.0
 40
0.0
 40
0.0
 40
0.0
 40
0.0
 40
0.2
 40
0.2
 40
0.2
 40
0.2
 40
0.4
 40
0.4
 40
0.4
 40
0.4
 40
0.6
 40
0.6
 40
0.6
 40
0.6
 40
1.0
 40
1.0
 40
1.0
 40
1.0
 10
-63.6484
 20
-15.3038
 30
0.0
 10
-64.6918
 20
-14.9443
 30
0.0
 10
-65.267
 20
-15.2721
 30
0.0
 10
-65.967
 20
-15.9621
 30
0.0
 10
-65.967
 20
-15.9621
 30
0.0
 10
-67.0019
 20
-16.9931
 30
0.0
 10
-66.8725
 20
-18.3056
 30
0.0
 10
-65.5026
 20
-18.896
 30
0.0
 10
-65.5026
 20
-18.896
 30
0.0
 10
-61.0178
 20
-20.3225
 30
0.0
 10
-59.4992
 20
-22.0952
 30
0.0
 10
-56.9732
 20
-24.83
 30
0.0
 10
-56.9732
 20
-24.83
 30
0.0
 10
-58.0441
 20
-22.0771
 30
0.0
 10
-61.4
 20
-16.3462
 30
0.0
 10
-63.6484
 20
-15.3038
 30
0.0
  0
SPLINE
  5
A4
330
1F
100
AcDbEntity
  8
layer 1
 62
     7
100
AcDbSpline
210
0.0
220
0.0
230
1.0
 70
    11
 71
     3
 72
    20
 73
    16
 74
     0
 42
0.0000000001
 43
0.0000000001
 12
1.0
 22
0.0
 32
0.0
 13
1.0
 23
0.0
 33
0.0
 40
0.0
 40
0.0
 40
0.0
 40
0.0
 40
0.2
 40
0.2
 40
0.2
 40
0.2
 40
0.4
 40
0.4
 40
0.4
 40
0.4
 40
0.6
 40
0.6
 40
0.6
 40
0.6
 40
1.0
 40
1.0
 40
1.0
 40
1.0
 10
-56.834
 20
-12.0691
 30
0.0
 10
-57.6179
 20
-10.2209
 30
0.0
 10
-59.1501
 20
-9.6069
 30
0.0
 10
-61.0567
 20
-11.1973
 30
0.0
 10
-61.0567
 20
-11.1973
 30
0.0
 10
-63.0223
 20
-12.8369
 30
0.0
 10
-62.8877
 20
-13.9287
 30
0.0
 10
-60.9128
 20
-15.6107
 30
0.0
 10
-60.9128
 20
-15.6107
 30
0.0
 10
-58.1966
 20
-17.8673
 30
0.0
 10
-56.3243
 20
-20.9959
 30
0.0
 10
-54.813
 20
-23.9423
 30
0.0
 10
-54.813
 20
-23.9423
 30
0.0
 10
-55.2513
 20
-20.18
 30
0.0
 10
-55.2525
 20
-15.8226
 30
0.0
 10
-56.834
 20
-12.0691
 30
0.0
  0
SPLINE
  5
A5
330
1F
100
AcDbEntity
  8
layer 1
 62
     7
100
AcDbSpline
210
0.0
220
0.0
230
1.0
 70
    11
 71
     3
 72
    20
 73
    16
 74
     0
 42
0.0000000001
 43
0.0000000001
 12
1.0
 22
0.0
 32
0.0
 13
1.0
 23
0.0
 33
0.0
 40
0.0
 40
0.0
 40
0.0
 40
0.0
 40
0.2
 40
0.2
 40
0.2
 40
0.2
 40
0.4
 40
0.4
 40
0.4
 40
0.4
 40
0.6
 40
0.6
 40
0.6
 40
0.6
 40
1.0
 40
1.0
 40
1.0
 40
1.0
 10
-55.3354
 20
-12.2118
 30
0.0
 10
-55.832
 20
-11.1534
 30
0.0
 10
-56.1992
 20
-10.088
 30
0.0
 10
-56.1513
 20
-9.8442
 30
0.0
 10
-56.1513
 20
-9.8442
 30
0.0
 10
-55.9641
 20
-8.8907
 30
0.0
 10
-54.6628
 20
-8.3746
 30
0.0
 10
-52.5938
 20
-8.3199
 30
0.0
 10
-52.5938
 20
-8.3199
 30
0.0
 10
-52.5938
 20
-8.3199
 30
0.0
 10
-52.5938
 20
-22.9598
 30
0.0
 10
-52.5938
 20
-22.9598
 30
0.0
 10
-52.5938
 20
-22.9598
 30
0.0
 10
-52.9451
 20
-20.7531
 30
0.0
 10
-53.8005
 20
-14.7908
 30
0.0
 10
-55.3354
 20
-12.2118
 30
0.0
  0
SPLINE
  5
A6
330
1F
100
AcDbEntity
  8
layer 1
 62
     7
100
AcDbSpline
210
0.0
220
0.0
230
1.0
 70
    11
 71
     3
 72
    20
 73
    16
 74
     0
 42
0.0000000001
 43
0.0000000001
 12
1.0
 22
0.0
 32
0.0
 13
1.0
 23
0.0
 33
0.0
 40
0.0
 40
0.0
 40
0.0
 40
0.0
 40
0.2
 40
0.2
 40
0.2
 40
0.2
 40
0.4
 40
0.4
 40
0.4
 40
0.4
 40
0.6
 40
0.6
 40
0.6
 40
0.6
 40
1.0
 40
1.0
 40
1.0
 40
1.0
 10
-177.7311
 20
23.9917
 30
0.0
 10
-178.7745
 20
24.3513
 30
0.0
 10
-179.3497
 20
24.0234
 30
0.0
 10
-180.0496
 20
23.3334
 30
0.0
 10
-180.0496
 20
23.3334
 30
0.0
 10
-181.0846
 20
22.3024
 30
0.0
 10
-180.9551
 20
20.99
 30
0.0
 10
-179.5852
 20
20.3996
 30
0.0
 10
-179.5852
 20
20.3996
 30
0.0
 10
-175.1005
 20
18.9731
 30
0.0
 10
-173.5818
 20
17.2004
 30
0.0
 10
-171.0558
 20
14.4656
 30
0.0
 10
-171.0558
 20
14.4656
 30
0.0
 10
-172.1267
 20
17.2184
 30
0.0
 10
-175.4826
 20
22.9494
 30
0.0
 10
-177.7311
 20
23.9917
 30
0.0
  0
SPLINE
  5
A7
330
1F
100
AcDbEntity
  8
layer 1
 62
     7
100
AcDbSpline
210
0.0
220
0.0
230
1.0
 70
    11
 71
     3
 72
    20
 73
    16
 74
     0
 42
0.0000000001
 43
0.0000000001
 12
1.0
 22
0.0
 32
0.0
 13
1.0
 23
0.0
 33
0.0
 40
0.0
 40
0.0
 40
0.0
 40
0.0
 40
0.2
 40
0.2
 40
0.2
 40
0.2
 40
0.4
 40
0.4
 40
0.4
 40
0.4
 40
0.6
 40
0.6
 40
0.6
 40
0.6
 40
1.0
 40
1.0
 40
1.0
 40
1.0
 10
-170.9166
 20
27.2265
 30
0.0
 10
-171.7005
 20
29.0747
 30
0.0
 10
-173.2327
 20
29.6887
 30
0.0
 10
-175.1394
 20
28.0982
 30
0.0
 10
-175.1394
 20
28.0982
 30
0.0
 10
-177.105
 20
26.4587
 30
0.0
 10
-176.9703
 20
25.3668
 30
0.0
 10
-174.9954
 20
23.6849
 30
0.0
 10
-174.9954
 20
23.6849
 30
0.0
 10
-172.2793
 20
21.4283
 30
0.0
 10
-170.4069
 20
18.2996
 30
0.0
 10
-168.8957
 20
15.3533
 30
0.0
 10
-168.8957
 20
15.3533
 30
0.0
 10
-169.334
 20
19.1156
 30
0.0
 10
-169.3352
 20
23.473
 30
0.0
 10
-170.9166
 20
27.2265
 30
0.0
  0
SPLINE
  5
A8
330
1F
100
AcDbEntity
  8
layer 1
 62
     7
100
AcDbSpline
210
0.0
220
0.0
230
1.0
 70
    11
 71
     3
 72
    28
 73
    24
 74
     0
 42
0.0000000001
 43
0.0000000001
 12
1.0
 22
0.0
 32
0.0
 13
1.0
 23
0.0
 33
0.0
 40
0.0
 40
0.0
 40
0.0
 40
0.0
 40
0.1428571428571428
 40
0.1428571428571428
 40
0.1428571428571428
 40
0.1428571428571428
 40
0.2857142857142857
 40
0.2857142857142857
 40
0.2857142857142857
 40
0.2857142857142857
 40
0.4285714285714285
 40
0.4285714285714285
 40
0.4285714285714285
 40
0.4285714285714285
 40
0.5714285714285714
 40
0.5714285714285714
 40
0.5714285714285714
 40
0.5714285714285714
 40
0.7142857142857143
 40
0.7142857142857143
 40
0.7142857142857143
 40
0.7142857142857143
 40
1.0
 40
1.0
 40
1.0
 40
1.0
 10
-169.418
 20
27.0838
 30
0.0
 10
-169.9147
 20
28.1421
 30
0.0
 10
-170.2818
 20
29.2075
 30
0.0
 10
-170.234
 20
29.4513
 30
0.0
 10
-170.234
 20
29.4513
 30
0.0
 10
-170.0468
 20
30.4049
 30
0.0
 10
-168.7454
 20
30.921
 30
0.0
 10
-166.6764
 20
30.9756
 30
0.0
 10
-166.6764
 20
30.9756
 30
0.0
 10
-164.6074
 20
30.9483
 30
0.0
 10
-163.3061
 20
30.4049
 30
0.0
 10
-163.1188
 20
29.4513
 30
0.0
 10
-163.1188
 20
29.4513
 30
0.0
 10
-163.071
 20
29.2075
 30
0.0
 10
-163.4382
 20
28.1422
 30
0.0
 10
-163.9348
 20
27.0838
 30
0.0
 10
-163.9348
 20
27.0838
 30
0.0
 10
-165.4696
 20
24.5046
 30
0.0
 10
-166.3249
 20
18.5425
 30
0.0
 10
-166.6764
 20
16.3358
 30
0.0
 10
-166.6764
 20
16.3358
 30
0.0
 10
-167.0278
 20
18.5425
 30
0.0
 10
-167.8832
 20
24.5047
 30
0.0
 10
-169.418
 20
27.0838
 30
0.0
  0
SPLINE
  5
A9
330
1F
100
AcDbEntity
  8
layer 1
 62
     7
100
AcDbSpline
210
0.0
220
0.0
230
1.0
 70
    11
 71
     3
 72
    20
 73
    16
 74
     0
 42
0.0000000001
 43
0.0000000001
 12
1.0
 22
0.0
 32
0.0
 13
1.0
 23
0.0
 33
0.0
 40
0.0
 40
0.0
 40
0.0
 40
0.0
 40
0.2
 40
0.2
 40
0.2
 40
0.2
 40
0.4
 40
0.4
 40
0.4
 40
0.4
 40
0.6
 40
0.6
 40
0.6
 40
0.6
 40
1.0
 40
1.0
 40
1.0
 40
1.0
 10
-155.6756
 20
23.9917
 30
0.0
 10
-154.6323
 20
24.3513
 30
0.0
 10
-154.057
 20
24.0234
 30
0.0
 10
-153.3571
 20
23.3334
 30
0.0
 10
-153.3571
 20
23.3334
 30
0.0
 10
-152.3221
 20
22.3024
 30
0.0
 10
-152.4516
 20
20.99
 30
0.0
 10
-153.8215
 20
20.3996
 30
0.0
 10
-153.8215
 20
20.3996
 30
0.0
 10
-158.3062
 20
18.9731
 30
0.0
 10
-159.8249
 20
17.2004
 30
0.0
 10
-162.3509
 20
14.4656
 30
0.0
 10
-162.3509
 20
14.4656
 30
0.0
 10
-161.28
 20
17.2184
 30
0.0
 10
-157.9241
 20
22.9494
 30
0.0
 10
-155.6756
 20
23.9917
 30
0.0
  0
SPLINE
  5
AA
330
1F
100
AcDbEntity
  8
layer 1
 62
     7
100
AcDbSpline
210
0.0
220
0.0
230
1.0
 70
    11
 71
     3
 72
    20
 73
    16
 74
     0
 42
0.0000000001
 43
0.0000000001
 12
1.0
 22
0.0
 32
0.0
 13
1.0
 23
0.0
 33
0.0
 40
0.0
 40
0.0
 40
0.0
 40
0.0
 40
0.2
 40
0.2
 40
0.2
 40
0.2
 40
0.4
 40
0.4
 40
0.4
 40
0.4
 40
0.6
 40
0.6
 40
0.6
 40
0.6
 40
1.0
 40
1.0
 40
1.0
 40
1.0
 10
-162.4901
 20
27.2265
 30
0.0
 10
-161.7062
 20
29.0747
 30
0.0
 10
-160.174
 20
29.6887
 30
0.0
 10
-158.2674
 20
28.0982
 30
0.0
 10
-158.2674
 20
28.0982
 30
0.0
 10
-156.3017
 20
26.4587
 30
0.0
 10
-156.4364
 20
25.3668
 30
0.0
 10
-158.4113
 20
23.6849
 30
0.0
 10
-158.4113
 20
23.6849
 30
0.0
 10
-161.1275
 20
21.4283
 30
0.0
 10
-162.9998
 20
18.2996
 30
0.0
 10
-164.5111
 20
15.3533
 30
0.0
 10
-164.5111
 20
15.3533
 30
0.0
 10
-164.0728
 20
19.1156
 30
0.0
 10
-164.0715
 20
23.473
 30
0.0
 10
-162.4901
 20
27.2265
 30
0.0
  0
SPLINE
  5
AB
330
1F
100
AcDbEntity
  8
layer 1
 62
     7
100
AcDbSpline
210
0.0
220
0.0
230
1.0
 70
    11
 71
     3
 72
    20
 73
    16
 74
     0
 42
0.0000000001
 43
0.0000000001
 12
1.0
 22
0.0
 32
0.0
 13
1.0
 23
0.0
 33
0.0
 40
0.0
 40
0.0
 40
0.0
 40
0.0
 40
0.2
 40
0.2
 40
0.2
 40
0.2
 40
0.4
 40
0.4
 40
0.4
 40
0.4
 40
0.6
 40
0.6
 40
0.6
 40
0.6
 40
1.0
 40
1.0
 40
1.0
 40
1.0
 10
-145.0835
 20
23.9917
 30
0.0
 10
-146.1269
 20
24.3513
 30
0.0
 10
-146.7021
 20
24.0234
 30
0.0
 10
-147.402
 20
23.3334
 30
0.0
 10
-147.402
 20
23.3334
 30
0.0
 10
-148.437
 20
22.3024
 30
0.0
 10
-148.3075
 20
20.99
 30
0.0
 10
-146.9376
 20
20.3996
 30
0.0
 10
-146.9376
 20
20.3996
 30
0.0
 10
-142.4529
 20
18.9731
 30
0.0
 10
-140.9342
 20
17.2004
 30
0.0
 10
-138.4082
 20
14.4656
 30
0.0
 10
-138.4082
 20
14.4656
 30
0.0
 10
-139.4791
 20
17.2184
 30
0.0
 10
-142.835
 20
22.9494
 30
0.0
 10
-145.0835
 20
23.9917
 30
0.0
  0
SPLINE
  5
AC
330
1F
100
AcDbEntity
  8
layer 1
 62
     7
100
AcDbSpline
210
0.0
220
0.0
230
1.0
 70
    11
 71
     3
 72
    20
 73
    16
 74
     0
 42
0.0000000001
 43
0.0000000001
 12
1.0
 22
0.0
 32
0.0
 13
1.0
 23
0.0
 33
0.0
 40
0.0
 40
0.0
 40
0.0
 40
0.0
 40
0.2
 40
0.2
 40
0.2
 40
0.2
 40
0.4
 40
0.4
 40
0.4
 40
0.4
 40
0.6
 40
0.6
 40
0.6
 40
0.6
 40
1.0
 40
1.0
 40
1.0
 40
1.0
 10
-138.269
 20
27.2265
 30
0.0
 10
-139.0529
 20
29.0747
 30
0.0
 10
-140.5851
 20
29.6887
 30
0.0
 10
-142.4917
 20
28.0982
 30
0.0
 10
-142.4917
 20
28.0982
 30
0.0
 10
-144.4574
 20
26.4587
 30
0.0
 10
-144.3227
 20
25.3668
 30
0.0
 10
-142.3478
 20
23.6849
 30
0.0
 10
-142.3478
 20
23.6849
 30
0.0
 10
-139.6316
 20
21.4283
 30
0.0
 10
-137.7593
 20
18.2996
 30
0.0
 10
-136.248
 20
15.3533
 30
0.0
 10
-136.248
 20
15.3533
 30
0.0
 10
-136.6863
 20
19.1156
 30
0.0
 10
-136.6876
 20
23.473
 30
0.0
 10
-138.269
 20
27.2265
 30
0.0
  0
SPLINE
  5
AD
330
1F
100
AcDbEntity
  8
layer 1
 62
     7
100
AcDbSpline
210
0.0
220
0.0
230
1.0
 70
    11
 71
     3
 72
    28
 73
    24
 74
     0
 42
0.0000000001
 43
0.0000000001
 12
1.0
 22
0.0
 32
0.0
 13
1.0
 23
0.0
 33
0.0
 40
0.0
 40
0.0
 40
0.0
 40
0.0
 40
0.1428571428571428
 40
0.1428571428571428
 40
0.1428571428571428
 40
0.1428571428571428
 40
0.2857142857142857
 40
0.2857142857142857
 40
0.2857142857142857
 40
0.2857142857142857
 40
0.4285714285714285
 40
0.4285714285714285
 40
0.4285714285714285
 40
0.4285714285714285
 40
0.5714285714285714
 40
0.5714285714285714
 40
0.5714285714285714
 40
0.5714285714285714
 40
0.7142857142857143
 40
0.7142857142857143
 40
0.7142857142857143
 40
0.7142857142857143
 40
1.0
 40
1.0
 40
1.0
 40
1.0
 10
-136.7704
 20
27.0838
 30
0.0
 10
-137.267
 20
28.1421
 30
0.0
 10
-137.6342
 20
29.2075
 30
0.0
 10
-137.5864
 20
29.4513
 30
0.0
 10
-137.5864
 20
29.4513
 30
0.0
 10
-137.3991
 20
30.4049
 30
0.0
 10
-136.0978
 20
30.921
 30
0.0
 10
-134.0288
 20
30.9756
 30
0.0
 10
-134.0288
 20
30.9756
 30
0.0
 10
-131.9598
 20
30.9483
 30
0.0
 10
-130.6584
 20
30.4049
 30
0.0
 10
-130.4712
 20
29.4513
 30
0.0
 10
-130.4712
 20
29.4513
 30
0.0
 10
-130.4234
 20
29.2075
 30
0.0
 10
-130.7905
 20
28.1422
 30
0.0
 10
-131.2872
 20
27.0838
 30
0.0
 10
-131.2872
 20
27.0838
 30
0.0
 10
-132.822
 20
24.5046
 30
0.0
 10
-133.6773
 20
18.5425
 30
0.0
 10
-134.0288
 20
16.3358
 30
0.0
 10
-134.0288
 20
16.3358
 30
0.0
 10
-134.3802
 20
18.5425
 30
0.0
 10
-135.2356
 20
24.5047
 30
0.0
 10
-136.7704
 20
27.0838
 30
0.0
  0
SPLINE
  5
AE
330
1F
100
AcDbEntity
  8
layer 1
 62
     7
100
AcDbSpline
210
0.0
220
0.0
230
1.0
 70
    11
 71
     3
 72
    20
 73
    16
 74
     0
 42
0.0000000001
 43
0.0000000001
 12
1.0
 22
0.0
 32
0.0
 13
1.0
 23
0.0
 33
0.0
 40
0.0
 40
0.0
 40
0.0
 40
0.0
 40
0.2
 40
0.2
 40
0.2
 40
0.2
 40
0.4
 40
0.4
 40
0.4
 40
0.4
 40
0.6
 40
0.6
 40
0.6
 40
0.6
 40
1.0
 40
1.0
 40
1.0
 40
1.0
 10
-123.028
 20
23.9917
 30
0.0
 10
-121.9846
 20
24.3513
 30
0.0
 10
-121.4094
 20
24.0234
 30
0.0
 10
-120.7095
 20
23.3334
 30
0.0
 10
-120.7095
 20
23.3334
 30
0.0
 10
-119.6745
 20
22.3024
 30
0.0
 10
-119.804
 20
20.99
 30
0.0
 10
-121.1739
 20
20.3996
 30
0.0
 10
-121.1739
 20
20.3996
 30
0.0
 10
-125.6586
 20
18.9731
 30
0.0
 10
-127.1773
 20
17.2004
 30
0.0
 10
-129.7033
 20
14.4656
 30
0.0
 10
-129.7033
 20
14.4656
 30
0.0
 10
-128.6324
 20
17.2184
 30
0.0
 10
-125.2765
 20
22.9494
 30
0.0
 10
-123.028
 20
23.9917
 30
0.0
  0
SPLINE
  5
AF
330
1F
100
AcDbEntity
  8
layer 1
 62
     7
100
AcDbSpline
210
0.0
220
0.0
230
1.0
 70
    11
 71
     3
 72
    20
 73
    16
 74
     0
 42
0.0000000001
 43
0.0000000001
 12
1.0
 22
0.0
 32
0.0
 13
1.0
 23
0.0
 33
0.0
 40
0.0
 40
0.0
 40
0.0
 40
0.0
 40
0.2
 40
0.2
 40
0.2
 40
0.2
 40
0.4
 40
0.4
 40
0.4
 40
0.4
 40
0.6
 40
0.6
 40
0.6
 40
0.6
 40
1.0
 40
1.0
 40
1.0
 40
1.0
 10
-129.8425
 20
27.2265
 30
0.0
 10
-129.0586
 20
29.0747
 30
0.0
 10
-127.5264
 20
29.6887
 30
0.0
 10
-125.6198
 20
28.0982
 30
0.0
 10
-125.6198
 20
28.0982
 30
0.0
 10
-123.6541
 20
26.4587
 30
0.0
 10
-123.7888
 20
25.3668
 30
0.0
 10
-125.7637
 20
23.6849
 30
0.0
 10
-125.7637
 20
23.6849
 30
0.0
 10
-128.4798
 20
21.4283
 30
0.0
 10
-130.3522
 20
18.2996
 30
0.0
 10
-131.8634
 20
15.3533
 30
0.0
 10
-131.8634
 20
15.3533
 30
0.0
 10
-131.4251
 20
19.1156
 30
0.0
 10
-131.4239
 20
23.473
 30
0.0
 10
-129.8425
 20
27.2265
 30
0.0
  0
SPLINE
  5
B0
330
1F
100
AcDbEntity
  8
layer 1
 62
     7
100
AcDbSpline
210
0.0
220
0.0
230
1.0
 70
    11
 71
     3
 72
    20
 73
    16
 74
     0
 42
0.0000000001
 43
0.0000000001
 12
1.0
 22
0.0
 32
0.0
 13
1.0
 23
0.0
 33
0.0
 40
0.0
 40
0.0
 40
0.0
 40
0.0
 40
0.2
 40
0.2
 40
0.2
 40
0.2
 40
0.4
 40
0.4
 40
0.4
 40
0.4
 40
0.6
 40
0.6
 40
0.6
 40
0.6
 40
1.0
 40
1.0
 40
1.0
 40
1.0
 10
-112.4358
 20
23.9917
 30
0.0
 10
-113.4792
 20
24.3513
 30
0.0
 10
-114.0544
 20
24.0234
 30
0.0
 10
-114.7544
 20
23.3334
 30
0.0
 10
-114.7544
 20
23.3334
 30
0.0
 10
-115.7894
 20
22.3024
 30
0.0
 10
-115.6599
 20
20.99
 30
0.0
 10
-114.29
 20
20.3996
 30
0.0
 10
-114.29
 20
20.3996
 30
0.0
 10
-109.8052
 20
18.9731
 30
0.0
 10
-108.2866
 20
17.2004
 30
0.0
 10
-105.7606
 20
14.4656
 30
0.0
 10
-105.7606
 20
14.4656
 30
0.0
 10
-106.8315
 20
17.2184
 30
0.0
 10
-110.1874
 20
22.9494
 30
0.0
 10
-112.4358
 20
23.9917
 30
0.0
  0
SPLINE
  5
B1
330
1F
100
AcDbEntity
  8
layer 1
 62
     7
100
AcDbSpline
210
0.0
220
0.0
230
1.0
 70
    11
 71
     3
 72
    20
 73
    16
 74
     0
 42
0.0000000001
 43
0.0000000001
 12
1.0
 22
0.0
 32
0.0
 13
1.0
 23
0.0
 33
0.0
 40
0.0
 40
0.0
 40
0.0
 40
0.0
 40
0.2
 40
0.2
 40
0.2
 40
0.2
 40
0.4
 40
0.4
 40
0.4
 40
0.4
 40
0.6
 40
0.6
 40
0.6
 40
0.6
 40
1.0
 40
1.0
 40
1.0
 40
1.0
 10
-105.6214
 20
27.2265
 30
0.0
 10
-106.4053
 20
29.0747
 30
0.0
 10
-107.9375
 20
29.6887
 30
0.0
 10
-109.8441
 20
28.0982
 30
0.0
 10
-109.8441
 20
28.0982
 30
0.0
 10
-111.8098
 20
26.4587
 30
0.0
 10
-111.6751
 20
25.3668
 30
0.0
 10
-109.7002
 20
23.6849
 30
0.0
 10
-109.7002
 20
23.6849
 30
0.0
 10
-106.984
 20
21.4283
 30
0.0
 10
-105.1117
 20
18.2996
 30
0.0
 10
-103.6004
 20
15.3533
 30
0.0
 10
-103.6004
 20
15.3533
 30
0.0
 10
-104.0387
 20
19.1156
 30
0.0
 10
-104.0399
 20
23.473
 30
0.0
 10
-105.6214
 20
27.2265
 30
0.0
  0
SPLINE
  5
B2
330
1F
100
AcDbEntity
  8
layer 1
 62
     7
100
AcDbSpline
210
0.0
220
0.0
230
1.0
 70
    11
 71
     3
 72
    28
 73
    24
 74
     0
 42
0.0000000001
 43
0.0000000001
 12
1.0
 22
0.0
 32
0.0
 13
1.0
 23
0.0
 33
0.0
 40
0.0
 40
0.0
 40
0.0
 40
0.0
 40
0.1428571428571428
 40
0.1428571428571428
 40
0.1428571428571428
 40
0.1428571428571428
 40
0.2857142857142857
 40
0.2857142857142857
 40
0.2857142857142857
 40
0.2857142857142857
 40
0.4285714285714285
 40
0.4285714285714285
 40
0.4285714285714285
 40
0.4285714285714285
 40
0.5714285714285714
 40
0.5714285714285714
 40
0.5714285714285714
 40
0.5714285714285714
 40
0.7142857142857143
 40
0.7142857142857143
 40
0.7142857142857143
 40
0.7142857142857143
 40
1.0
 40
1.0
 40
1.0
 40
1.0
 10
-104.1228
 20
27.0838
 30
0.0
 10
-104.6194
 20
28.1421
 30
0.0
 10
-104.9866
 20
29.2075
 30
0.0
 10
-104.9388
 20
29.4513
 30
0.0
 10
-104.9388
 20
29.4513
 30
0.0
 10
-104.7515
 20
30.4049
 30
0.0
 10
-103.4502
 20
30.921
 30
0.0
 10
-101.3812
 20
30.9756
 30
0.0
 10
-101.3812
 20
30.9756
 30
0.0
 10
-99.3122
 20
30.9483
 30
0.0
 10
-98.0108
 20
30.4049
 30
0.0
 10
-97.8236
 20
29.4513
 30
0.0
 10
-97.8236
 20
29.4513
 30
0.0
 10
-97.7757
 20
29.2075
 30
0.0
 10
-98.1429
 20
28.1422
 30
0.0
 10
-98.6396
 20
27.0838
 30
0.0
 10
-98.6396
 20
27.0838
 30
0.0
 10
-100.1744
 20
24.5046
 30
0.0
 10
-101.0297
 20
18.5425
 30
0.0
 10
-101.3812
 20
16.3358
 30
0.0
 10
-101.3812
 20
16.3358
 30
0.0
 10
-101.7326
 20
18.5425
 30
0.0
 10
-102.588
 20
24.5047
 30
0.0
 10
-104.1228
 20
27.0838
 30
0.0
  0
SPLINE
  5
B3
330
1F
100
AcDbEntity
  8
layer 1
 62
     7
100
AcDbSpline
210
0.0
220
0.0
230
1.0
 70
    11
 71
     3
 72
    20
 73
    16
 74
     0
 42
0.0000000001
 43
0.0000000001
 12
1.0
 22
0.0
 32
0.0
 13
1.0
 23
0.0
 33
0.0
 40
0.0
 40
0.0
 40
0.0
 40
0.0
 40
0.2
 40
0.2
 40
0.2
 40
0.2
 40
0.4
 40
0.4
 40
0.4
 40
0.4
 40
0.6
 40
0.6
 40
0.6
 40
0.6
 40
1.0
 40
1.0
 40
1.0
 40
1.0
 10
-90.3804
 20
23.9917
 30
0.0
 10
-89.337
 20
24.3513
 30
0.0
 10
-88.7618
 20
24.0234
 30
0.0
 10
-88.0619
 20
23.3334
 30
0.0
 10
-88.0619
 20
23.3334
 30
0.0
 10
-87.0269
 20
22.3024
 30
0.0
 10
-87.1563
 20
20.99
 30
0.0
 10
-88.5262
 20
20.3996
 30
0.0
 10
-88.5262
 20
20.3996
 30
0.0
 10
-93.011
 20
18.9731
 30
0.0
 10
-94.5296
 20
17.2004
 30
0.0
 10
-97.0557
 20
14.4656
 30
0.0
 10
-97.0557
 20
14.4656
 30
0.0
 10
-95.9848
 20
17.2184
 30
0.0
 10
-92.6289
 20
22.9494
 30
0.0
 10
-90.3804
 20
23.9917
 30
0.0
  0
SPLINE
  5
B4
330
1F
100
AcDbEntity
  8
layer 1
 62
     7
100
AcDbSpline
210
0.0
220
0.0
230
1.0
 70
    11
 71
     3
 72
    20
 73
    16
 74
     0
 42
0.0000000001
 43
0.0000000001
 12
1.0
 22
0.0
 32
0.0
 13
1.0
 23
0.0
 33
0.0
 40
0.0
 40
0.0
 40
0.0
 40
0.0
 40
0.2
 40
0.2
 40
0.2
 40
0.2
 40
0.4
 40
0.4
 40
0.4
 40
0.4
 40
0.6
 40
0.6
 40
0.6
 40
0.6
 40
1.0
 40
1.0
 40
1.0
 40
1.0
 10
-97.1949
 20
27.2265
 30
0.0
 10
-96.4109
 20
29.0747
 30
0.0
 10
-94.8788
 20
29.6887
 30
0.0
 10
-92.9721
 20
28.0982
 30
0.0
 10
-92.9721
 20
28.0982
 30
0.0
 10
-91.0065
 20
26.4587
 30
0.0
 10
-91.1411
 20
25.3668
 30
0.0
 10
-93.1161
 20
23.6849
 30
0.0
 10
-93.1161
 20
23.6849
 30
0.0
 10
-95.8322
 20
21.4283
 30
0.0
 10
-97.7045
 20
18.2996
 30
0.0
 10
-99.2158
 20
15.3533
 30
0.0
 10
-99.2158
 20
15.3533
 30
0.0
 10
-98.7775
 20
19.1156
 30
0.0
 10
-98.7763
 20
23.473
 30
0.0
 10
-97.1949
 20
27.2265
 30
0.0
  0
SPLINE
  5
B5
330
1F
100
AcDbEntity
  8
layer 1
 62
     7
100
AcDbSpline
210
0.0
220
0.0
230
1.0
 70
    11
 71
     3
 72
    20
 73
    16
 74
     0
 42
0.0000000001
 43
0.0000000001
 12
1.0
 22
0.0
 32
0.0
 13
1.0
 23
0.0
 33
0.0
 40
0.0
 40
0.0
 40
0.0
 40
0.0
 40
0.2
 40
0.2
 40
0.2
 40
0.2
 40
0.4
 40
0.4
 40
0.4
 40
0.4
 40
0.6
 40
0.6
 40
0.6
 40
0.6
 40
1.0
 40
1.0
 40
1.0
 40
1.0
 10
-79.7882
 20
23.9917
 30
0.0
 10
-80.8316
 20
24.3513
 30
0.0
 10
-81.4068
 20
24.0234
 30
0.0
 10
-82.1068
 20
23.3334
 30
0.0
 10
-82.1068
 20
23.3334
 30
0.0
 10
-83.1417
 20
22.3024
 30
0.0
 10
-83.0123
 20
20.99
 30
0.0
 10
-81.6424
 20
20.3996
 30
0.0
 10
-81.6424
 20
20.3996
 30
0.0
 10
-77.1576
 20
18.9731
 30
0.0
 10
-75.639
 20
17.2004
 30
0.0
 10
-73.113
 20
14.4656
 30
0.0
 10
-73.113
 20
14.4656
 30
0.0
 10
-74.1839
 20
17.2184
 30
0.0
 10
-77.5398
 20
22.9494
 30
0.0
 10
-79.7882
 20
23.9917
 30
0.0
  0
SPLINE
  5
B6
330
1F
100
AcDbEntity
  8
layer 1
 62
     7
100
AcDbSpline
210
0.0
220
0.0
230
1.0
 70
    11
 71
     3
 72
    20
 73
    16
 74
     0
 42
0.0000000001
 43
0.0000000001
 12
1.0
 22
0.0
 32
0.0
 13
1.0
 23
0.0
 33
0.0
 40
0.0
 40
0.0
 40
0.0
 40
0.0
 40
0.2
 40
0.2
 40
0.2
 40
0.2
 40
0.4
 40
0.4
 40
0.4
 40
0.4
 40
0.6
 40
0.6
 40
0.6
 40
0.6
 40
1.0
 40
1.0
 40
1.0
 40
1.0
 10
-72.9738
 20
27.2265
 30
0.0
 10
-73.7577
 20
29.0747
 30
0.0
 10
-75.2899
 20
29.6887
 30
0.0
 10
-77.1965
 20
28.0982
 30
0.0
 10
-77.1965
 20
28.0982
 30
0.0
 10
-79.1621
 20
26.4587
 30
0.0
 10
-79.0275
 20
25.3668
 30
0.0
 10
-77.0526
 20
23.6849
 30
0.0
 10
-77.0526
 20
23.6849
 30
0.0
 10
-74.3364
 20
21.4283
 30
0.0
 10
-72.4641
 20
18.2996
 30
0.0
 10
-70.9528
 20
15.3533
 30
0.0
 10
-70.9528
 20
15.3533
 30
0.0
 10
-71.3911
 20
19.1156
 30
0.0
 10
-71.3923
 20
23.473
 30
0.0
 10
-72.9738
 20
27.2265
 30
0.0
  0
SPLINE
  5
B7
330
1F
100
AcDbEntity
  8
layer 1
 62
     7
100
AcDbSpline
210
0.0
220
0.0
230
1.0
 70
    11
 71
     3
 72
    28
 73
    24
 74
     0
 42
0.0000000001
 43
0.0000000001
 12
1.0
 22
0.0
 32
0.0
 13
1.0
 23
0.0
 33
0.0
 40
0.0
 40
0.0
 40
0.0
 40
0.0
 40
0.1428571428571428
 40
0.1428571428571428
 40
0.1428571428571428
 40
0.1428571428571428
 40
0.2857142857142857
 40
0.2857142857142857
 40
0.2857142857142857
 40
0.2857142857142857
 40
0.4285714285714285
 40
0.4285714285714285
 40
0.4285714285714285
 40
0.4285714285714285
 40
0.5714285714285714
 40
0.5714285714285714
 40
0.5714285714285714
 40
0.5714285714285714
 40
0.7142857142857143
 40
0.7142857142857143
 40
0.7142857142857143
 40
0.7142857142857143
 40
1.0
 40
1.0
 40
1.0
 40
1.0
 10
-71.4752
 20
27.0838
 30
0.0
 10
-71.9718
 20
28.1421
 30
0.0
 10
-72.339
 20
29.2075
 30
0.0
 10
-72.2911
 20
29.4513
 30
0.0
 10
-72.2911
 20
29.4513
 30
0.0
 10
-72.1039
 20
30.4049
 30
0.0
 10
-70.8026
 20
30.921
 30
0.0
 10
-68.7336
 20
30.9756
 30
0.0
 10
-68.7336
 20
30.9756
 30
0.0
 10
-66.6646
 20
30.9483
 30
0.0
 10
-65.3632
 20
30.4049
 30
0.0
 10
-65.176
 20
29.4513
 30
0.0
 10
-65.176
 20
29.4513
 30
0.0
 10
-65.1281
 20
29.2075
 30
0.0
 10
-65.4953
 20
28.1422
 30
0.0
 10
-65.9919
 20
27.0838
 30
0.0
 10
-65.9919
 20
27.0838
 30
0.0
 10
-67.5268
 20
24.5046
 30
0.0
 10
-68.3821
 20
18.5425
 30
0.0
 10
-68.7336
 20
16.3358
 30
0.0
 10
-68.7336
 20
16.3358
 30
0.0
 10
-69.0849
 20
18.5425
 30
0.0
 10
-69.9403
 20
24.5047
 30
0.0
 10
-71.4752
 20
27.0838
 30
0.0
  0
SPLINE
  5
B8
330
1F
100
AcDbEntity
  8
layer 1
 62
     7
100
AcDbSpline
210
0.0
220
0.0
230
1.0
 70
    11
 71
     3
 72
    20
 73
    16
 74
     0
 42
0.0000000001
 43
0.0000000001
 12
1.0
 22
0.0
 32
0.0
 13
1.0
 23
0.0
 33
0.0
 40
0.0
 40
0.0
 40
0.0
 40
0.0
 40
0.2
 40
0.2
 40
0.2
 40
0.2
 40
0.4
 40
0.4
 40
0.4
 40
0.4
 40
0.6
 40
0.6
 40
0.6
 40
0.6
 40
1.0
 40
1.0
 40
1.0
 40
1.0
 10
-57.7328
 20
23.9917
 30
0.0
 10
-56.6894
 20
24.3513
 30
0.0
 10
-56.1142
 20
24.0234
 30
0.0
 10
-55.4142
 20
23.3334
 30
0.0
 10
-55.4142
 20
23.3334
 30
0.0
 10
-54.3793
 20
22.3024
 30
0.0
 10
-54.5087
 20
20.99
 30
0.0
 10
-55.8786
 20
20.3996
 30
0.0
 10
-55.8786
 20
20.3996
 30
0.0
 10
-60.3634
 20
18.9731
 30
0.0
 10
-61.882
 20
17.2004
 30
0.0
 10
-64.408
 20
14.4656
 30
0.0
 10
-64.408
 20
14.4656
 30
0.0
 10
-63.3371
 20
17.2184
 30
0.0
 10
-59.9813
 20
22.9494
 30
0.0
 10
-57.7328
 20
23.9917
 30
0.0
  0
SPLINE
  5
B9
330
1F
100
AcDbEntity
  8
layer 1
 62
     7
100
AcDbSpline
210
0.0
220
0.0
230
1.0
 70
    11
 71
     3
 72
    20
 73
    16
 74
     0
 42
0.0000000001
 43
0.0000000001
 12
1.0
 22
0.0
 32
0.0
 13
1.0
 23
0.0
 33
0.0
 40
0.0
 40
0.0
 40
0.0
 40
0.0
 40
0.2
 40
0.2
 40
0.2
 40
0.2
 40
0.4
 40
0.4
 40
0.4
 40
0.4
 40
0.6
 40
0.6
 40
0.6
 40
0.6
 40
1.0
 40
1.0
 40
1.0
 40
1.0
 10
-64.5472
 20
27.2265
 30
0.0
 10
-63.7633
 20
29.0747
 30
0.0
 10
-62.2311
 20
29.6887
 30
0.0
 10
-60.3245
 20
28.0982
 30
0.0
 10
-60.3245
 20
28.0982
 30
0.0
 10
-58.3589
 20
26.4587
 30
0.0
 10
-58.4935
 20
25.3668
 30
0.0
 10
-60.4684
 20
23.6849
 30
0.0
 10
-60.4684
 20
23.6849
 30
0.0
 10
-63.1846
 20
21.4283
 30
0.0
 10
-65.0569
 20
18.2996
 30
0.0
 10
-66.5682
 20
15.3533
 30
0.0
 10
-66.5682
 20
15.3533
 30
0.0
 10
-66.1299
 20
19.1156
 30
0.0
 10
-66.1287
 20
23.473
 30
0.0
 10
-64.5472
 20
27.2265
 30
0.0
  0
SPLINE
  5
BA
330
1F
100
AcDbEntity
  8
layer 1
 62
     7
100
AcDbSpline
210
0.0
220
0.0
230
1.0
 70
    11
 71
     3
 72
    20
 73
    16
 74
     0
 42
0.0000000001
 43
0.0000000001
 12
1.0
 22
0.0
 32
0.0
 13
1.0
 23
0.0
 33
0.0
 40
0.0
 40
0.0
 40
0.0
 40
0.0
 40
0.2
 40
0.2
 40
0.2
 40
0.2
 40
0.4
 40
0.4
 40
0.4
 40
0.4
 40
0.6
 40
0.6
 40
0.6
 40
0.6
 40
1.0
 40
1.0
 40
1.0
 40
1.0
 10
-171.6669
 20
-15.3038
 30
0.0
 10
-170.6235
 20
-14.9443
 30
0.0
 10
-170.0483
 20
-15.2721
 30
0.0
 10
-169.3483
 20
-15.9621
 30
0.0
 10
-169.3483
 20
-15.9621
 30
0.0
 10
-168.3134
 20
-16.9931
 30
0.0
 10
-168.4428
 20
-18.3056
 30
0.0
 10
-169.8127
 20
-18.896
 30
0.0
 10
-169.8127
 20
-18.896
 30
0.0
 10
-174.2975
 20
-20.3225
 30
0.0
 10
-175.8161
 20
-22.0952
 30
0.0
 10
-178.3421
 20
-24.83
 30
0.0
 10
-178.3421
 20
-24.83
 30
0.0
 10
-177.2712
 20
-22.0771
 30
0.0
 10
-173.9154
 20
-16.3462
 30
0.0
 10
-171.6669
 20
-15.3038
 30
0.0
  0
SPLINE
  5
BB
330
1F
100
AcDbEntity
  8
layer 1
 62
     7
100
AcDbSpline
210
0.0
220
0.0
230
1.0
 70
    11
 71
     3
 72
    20
 73
    16
 74
     0
 42
0.0000000001
 43
0.0000000001
 12
1.0
 22
0.0
 32
0.0
 13
1.0
 23
0.0
 33
0.0
 40
0.0
 40
0.0
 40
0.0
 40
0.0
 40
0.2
 40
0.2
 40
0.2
 40
0.2
 40
0.4
 40
0.4
 40
0.4
 40
0.4
 40
0.6
 40
0.6
 40
0.6
 40
0.6
 40
1.0
 40
1.0
 40
1.0
 40
1.0
 10
-178.4813
 20
-12.0691
 30
0.0
 10
-177.6974
 20
-10.2209
 30
0.0
 10
-176.1652
 20
-9.6069
 30
0.0
 10
-174.2586
 20
-11.1973
 30
0.0
 10
-174.2586
 20
-11.1973
 30
0.0
 10
-172.293
 20
-12.8369
 30
0.0
 10
-172.4276
 20
-13.9287
 30
0.0
 10
-174.4025
 20
-15.6107
 30
0.0
 10
-174.4025
 20
-15.6107
 30
0.0
 10
-177.1187
 20
-17.8673
 30
0.0
 10
-178.991
 20
-20.9959
 30
0.0
 10
-180.5023
 20
-23.9423
 30
0.0
 10
-180.5023
 20
-23.9423
 30
0.0
 10
-180.064
 20
-20.18
 30
0.0
 10
-180.0628
 20
-15.8226
 30
0.0
 10
-178.4813
 20
-12.0691
 30
0.0
  0
SPLINE
  5
BC
330
1F
100
AcDbEntity
  8
layer 1
 62
     7
100
AcDbSpline
210
0.0
220
0.0
230
1.0
 70
    11
 71
     3
 72
    20
 73
    16
 74
     0
 42
0.0000000001
 43
0.0000000001
 12
1.0
 22
0.0
 32
0.0
 13
1.0
 23
0.0
 33
0.0
 40
0.0
 40
0.0
 40
0.0
 40
0.0
 40
0.2
 40
0.2
 40
0.2
 40
0.2
 40
0.4
 40
0.4
 40
0.4
 40
0.4
 40
0.6
 40
0.6
 40
0.6
 40
0.6
 40
1.0
 40
1.0
 40
1.0
 40
1.0
 10
-179.9799
 20
-12.2118
 30
0.0
 10
-179.4833
 20
-11.1534
 30
0.0
 10
-179.1161
 20
-10.088
 30
0.0
 10
-179.164
 20
-9.8442
 30
0.0
 10
-179.164
 20
-9.8442
 30
0.0
 10
-179.3512
 20
-8.8907
 30
0.0
 10
-180.6526
 20
-8.3746
 30
0.0
 10
-182.7216
 20
-8.3199
 30
0.0
 10
-182.7216
 20
-8.3199
 30
0.0
 10
-182.7216
 20
-8.3199
 30
0.0
 10
-182.7216
 20
-22.9598
 30
0.0
 10
-182.7216
 20
-22.9598
 30
0.0
 10
-182.7216
 20
-22.9598
 30
0.0
 10
-182.3702
 20
-20.7531
 30
0.0
 10
-181.5148
 20
-14.7908
 30
0.0
 10
-179.9799
 20
-12.2118
 30
0.0
  0
SPLINE
  5
BD
330
1F
100
AcDbEntity
  8
layer 1
 62
     7
100
AcDbSpline
210
0.0
220
0.0
230
1.0
 70
    11
 71
     3
 72
    20
 73
    16
 74
     0
 42
0.0000000001
 43
0.0000000001
 12
1.0
 22
0.0
 32
0.0
 13
1.0
 23
0.0
 33
0.0
 40
0.0
 40
0.0
 40
0.0
 40
0.0
 40
0.2
 40
0.2
 40
0.2
 40
0.2
 40
0.4
 40
0.4
 40
0.4
 40
0.4
 40
0.6
 40
0.6
 40
0.6
 40
0.6
 40
1.0
 40
1.0
 40
1.0
 40
1.0
 10
-161.227
 20
-41.6035
 30
0.0
 10
-162.2704
 20
-41.244
 30
0.0
 10
-162.8456
 20
-41.5719
 30
0.0
 10
-163.5456
 20
-42.2619
 30
0.0
 10
-163.5456
 20
-42.2619
 30
0.0
 10
-164.5806
 20
-43.2929
 30
0.0
 10
-164.4511
 20
-44.6053
 30
0.0
 10
-163.0812
 20
-45.1957
 30
0.0
 10
-163.0812
 20
-45.1957
 30
0.0
 10
-158.5964
 20
-46.6222
 30
0.0
 10
-157.0778
 20
-48.3949
 30
0.0
 10
-154.5518
 20
-51.1297
 30
0.0
 10
-154.5518
 20
-51.1297
 30
0.0
 10
-155.6227
 20
-48.3769
 30
0.0
 10
-158.9786
 20
-42.6459
 30
0.0
 10
-161.227
 20
-41.6035
 30
0.0
  0
SPLINE
  5
BE
330
1F
100
AcDbEntity
  8
layer 1
 62
     7
100
AcDbSpline
210
0.0
220
0.0
230
1.0
 70
    11
 71
     3
 72
    20
 73
    16
 74
     0
 42
0.0000000001
 43
0.0000000001
 12
1.0
 22
0.0
 32
0.0
 13
1.0
 23
0.0
 33
0.0
 40
0.0
 40
0.0
 40
0.0
 40
0.0
 40
0.2
 40
0.2
 40
0.2
 40
0.2
 40
0.4
 40
0.4
 40
0.4
 40
0.4
 40
0.6
 40
0.6
 40
0.6
 40
0.6
 40
1.0
 40
1.0
 40
1.0
 40
1.0
 10
-154.4126
 20
-38.3688
 30
0.0
 10
-155.1965
 20
-36.5206
 30
0.0
 10
-156.7287
 20
-35.9066
 30
0.0
 10
-158.6353
 20
-37.497
 30
0.0
 10
-158.6353
 20
-37.497
 30
0.0
 10
-160.601
 20
-39.1366
 30
0.0
 10
-160.4663
 20
-40.2284
 30
0.0
 10
-158.4914
 20
-41.9104
 30
0.0
 10
-158.4914
 20
-41.9104
 30
0.0
 10
-155.7752
 20
-44.167
 30
0.0
 10
-153.9029
 20
-47.2957
 30
0.0
 10
-152.3916
 20
-50.242
 30
0.0
 10
-152.3916
 20
-50.242
 30
0.0
 10
-152.8299
 20
-46.4797
 30
0.0
 10
-152.8311
 20
-42.1223
 30
0.0
 10
-154.4126
 20
-38.3688
 30
0.0
  0
SPLINE
  5
BF
330
1F
100
AcDbEntity
  8
layer 1
 62
     7
100
AcDbSpline
210
0.0
220
0.0
230
1.0
 70
    11
 71
     3
 72
    28
 73
    24
 74
     0
 42
0.0000000001
 43
0.0000000001
 12
1.0
 22
0.0
 32
0.0
 13
1.0
 23
0.0
 33
0.0
 40
0.0
 40
0.0
 40
0.0
 40
0.0
 40
0.1428571428571428
 40
0.1428571428571428
 40
0.1428571428571428
 40
0.1428571428571428
 40
0.2857142857142857
 40
0.2857142857142857
 40
0.2857142857142857
 40
0.2857142857142857
 40
0.4285714285714285
 40
0.4285714285714285
 40
0.4285714285714285
 40
0.4285714285714285
 40
0.5714285714285714
 40
0.5714285714285714
 40
0.5714285714285714
 40
0.5714285714285714
 40
0.7142857142857143
 40
0.7142857142857143
 40
0.7142857142857143
 40
0.7142857142857143
 40
1.0
 40
1.0
 40
1.0
 40
1.0
 10
-152.914
 20
-38.5115
 30
0.0
 10
-153.4106
 20
-37.4532
 30
0.0
 10
-153.7778
 20
-36.3877
 30
0.0
 10
-153.7299
 20
-36.144
 30
0.0
 10
-153.7299
 20
-36.144
 30
0.0
 10
-153.5427
 20
-35.1904
 30
0.0
 10
-152.2414
 20
-34.6743
 30
0.0
 10
-150.1724
 20
-34.6196
 30
0.0
 10
-150.1724
 20
-34.6196
 30
0.0
 10
-148.1034
 20
-34.647
 30
0.0
 10
-146.802
 20
-35.1904
 30
0.0
 10
-146.6148
 20
-36.144
 30
0.0
 10
-146.6148
 20
-36.144
 30
0.0
 10
-146.5669
 20
-36.3877
 30
0.0
 10
-146.9341
 20
-37.4531
 30
0.0
 10
-147.4308
 20
-38.5115
 30
0.0
 10
-147.4308
 20
-38.5115
 30
0.0
 10
-148.9656
 20
-41.0906
 30
0.0
 10
-149.8209
 20
-47.0528
 30
0.0
 10
-150.1724
 20
-49.2595
 30
0.0
 10
-150.1724
 20
-49.2595
 30
0.0
 10
-150.5238
 20
-47.0528
 30
0.0
 10
-151.3792
 20
-41.0905
 30
0.0
 10
-152.914
 20
-38.5115
 30
0.0
  0
SPLINE
  5
C0
330
1F
100
AcDbEntity
  8
layer 1
 62
     7
100
AcDbSpline
210
0.0
220
0.0
230
1.0
 70
    11
 71
     3
 72
    20
 73
    16
 74
     0
 42
0.0000000001
 43
0.0000000001
 12
1.0
 22
0.0
 32
0.0
 13
1.0
 23
0.0
 33
0.0
 40
0.0
 40
0.0
 40
0.0
 40
0.0
 40
0.2
 40
0.2
 40
0.2
 40
0.2
 40
0.4
 40
0.4
 40
0.4
 40
0.4
 40
0.6
 40
0.6
 40
0.6
 40
0.6
 40
1.0
 40
1.0
 40
1.0
 40
1.0
 10
-139.1716
 20
-41.6035
 30
0.0
 10
-138.1282
 20
-41.244
 30
0.0
 10
-137.553
 20
-41.5719
 30
0.0
 10
-136.8531
 20
-42.2619
 30
0.0
 10
-136.8531
 20
-42.2619
 30
0.0
 10
-135.8181
 20
-43.2929
 30
0.0
 10
-135.9475
 20
-44.6053
 30
0.0
 10
-137.3174
 20
-45.1957
 30
0.0
 10
-137.3174
 20
-45.1957
 30
0.0
 10
-141.8022
 20
-46.6222
 30
0.0
 10
-143.3208
 20
-48.3949
 30
0.0
 10
-145.8469
 20
-51.1297
 30
0.0
 10
-145.8469
 20
-51.1297
 30
0.0
 10
-144.776
 20
-48.3769
 30
0.0
 10
-141.4201
 20
-42.6459
 30
0.0
 10
-139.1716
 20
-41.6035
 30
0.0
  0
SPLINE
  5
C1
330
1F
100
AcDbEntity
  8
layer 1
 62
     7
100
AcDbSpline
210
0.0
220
0.0
230
1.0
 70
    11
 71
     3
 72
    20
 73
    16
 74
     0
 42
0.0000000001
 43
0.0000000001
 12
1.0
 22
0.0
 32
0.0
 13
1.0
 23
0.0
 33
0.0
 40
0.0
 40
0.0
 40
0.0
 40
0.0
 40
0.2
 40
0.2
 40
0.2
 40
0.2
 40
0.4
 40
0.4
 40
0.4
 40
0.4
 40
0.6
 40
0.6
 40
0.6
 40
0.6
 40
1.0
 40
1.0
 40
1.0
 40
1.0
 10
-145.9861
 20
-38.3688
 30
0.0
 10
-145.2021
 20
-36.5206
 30
0.0
 10
-143.67
 20
-35.9066
 30
0.0
 10
-141.7633
 20
-37.497
 30
0.0
 10
-141.7633
 20
-37.497
 30
0.0
 10
-139.7977
 20
-39.1366
 30
0.0
 10
-139.9323
 20
-40.2284
 30
0.0
 10
-141.9073
 20
-41.9104
 30
0.0
 10
-141.9073
 20
-41.9104
 30
0.0
 10
-144.6234
 20
-44.167
 30
0.0
 10
-146.4957
 20
-47.2957
 30
0.0
 10
-148.007
 20
-50.242
 30
0.0
 10
-148.007
 20
-50.242
 30
0.0
 10
-147.5687
 20
-46.4797
 30
0.0
 10
-147.5675
 20
-42.1223
 30
0.0
 10
-145.9861
 20
-38.3688
 30
0.0
  0
SPLINE
  5
C2
330
1F
100
AcDbEntity
  8
layer 1
 62
     7
100
AcDbSpline
210
0.0
220
0.0
230
1.0
 70
    11
 71
     3
 72
    20
 73
    16
 74
     0
 42
0.0000000001
 43
0.0000000001
 12
1.0
 22
0.0
 32
0.0
 13
1.0
 23
0.0
 33
0.0
 40
0.0
 40
0.0
 40
0.0
 40
0.0
 40
0.2
 40
0.2
 40
0.2
 40
0.2
 40
0.4
 40
0.4
 40
0.4
 40
0.4
 40
0.6
 40
0.6
 40
0.6
 40
0.6
 40
1.0
 40
1.0
 40
1.0
 40
1.0
 10
-128.7008
 20
-41.6035
 30
0.0
 10
-129.7442
 20
-41.244
 30
0.0
 10
-130.3194
 20
-41.5719
 30
0.0
 10
-131.0194
 20
-42.2619
 30
0.0
 10
-131.0194
 20
-42.2619
 30
0.0
 10
-132.0544
 20
-43.2929
 30
0.0
 10
-131.9249
 20
-44.6053
 30
0.0
 10
-130.555
 20
-45.1957
 30
0.0
 10
-130.555
 20
-45.1957
 30
0.0
 10
-126.0702
 20
-46.6222
 30
0.0
 10
-124.5516
 20
-48.3949
 30
0.0
 10
-122.0256
 20
-51.1297
 30
0.0
 10
-122.0256
 20
-51.1297
 30
0.0
 10
-123.0965
 20
-48.3769
 30
0.0
 10
-126.4524
 20
-42.6459
 30
0.0
 10
-128.7008
 20
-41.6035
 30
0.0
  0
SPLINE
  5
C3
330
1F
100
AcDbEntity
  8
layer 1
 62
     7
100
AcDbSpline
210
0.0
220
0.0
230
1.0
 70
    11
 71
     3
 72
    20
 73
    16
 74
     0
 42
0.0000000001
 43
0.0000000001
 12
1.0
 22
0.0
 32
0.0
 13
1.0
 23
0.0
 33
0.0
 40
0.0
 40
0.0
 40
0.0
 40
0.0
 40
0.2
 40
0.2
 40
0.2
 40
0.2
 40
0.4
 40
0.4
 40
0.4
 40
0.4
 40
0.6
 40
0.6
 40
0.6
 40
0.6
 40
1.0
 40
1.0
 40
1.0
 40
1.0
 10
-121.8864
 20
-38.3688
 30
0.0
 10
-122.6703
 20
-36.5206
 30
0.0
 10
-124.2025
 20
-35.9066
 30
0.0
 10
-126.1091
 20
-37.497
 30
0.0
 10
-126.1091
 20
-37.497
 30
0.0
 10
-128.0747
 20
-39.1366
 30
0.0
 10
-127.9401
 20
-40.2284
 30
0.0
 10
-125.9652
 20
-41.9104
 30
0.0
 10
-125.9652
 20
-41.9104
 30
0.0
 10
-123.249
 20
-44.167
 30
0.0
 10
-121.3767
 20
-47.2957
 30
0.0
 10
-119.8654
 20
-50.242
 30
0.0
 10
-119.8654
 20
-50.242
 30
0.0
 10
-120.3037
 20
-46.4797
 30
0.0
 10
-120.3049
 20
-42.1223
 30
0.0
 10
-121.8864
 20
-38.3688
 30
0.0
  0
SPLINE
  5
C4
330
1F
100
AcDbEntity
  8
layer 1
 62
     7
100
AcDbSpline
210
0.0
220
0.0
230
1.0
 70
    11
 71
     3
 72
    28
 73
    24
 74
     0
 42
0.0000000001
 43
0.0000000001
 12
1.0
 22
0.0
 32
0.0
 13
1.0
 23
0.0
 33
0.0
 40
0.0
 40
0.0
 40
0.0
 40
0.0
 40
0.1428571428571428
 40
0.1428571428571428
 40
0.1428571428571428
 40
0.1428571428571428
 40
0.2857142857142857
 40
0.2857142857142857
 40
0.2857142857142857
 40
0.2857142857142857
 40
0.4285714285714285
 40
0.4285714285714285
 40
0.4285714285714285
 40
0.4285714285714285
 40
0.5714285714285714
 40
0.5714285714285714
 40
0.5714285714285714
 40
0.5714285714285714
 40
0.7142857142857143
 40
0.7142857142857143
 40
0.7142857142857143
 40
0.7142857142857143
 40
1.0
 40
1.0
 40
1.0
 40
1.0
 10
-120.3878
 20
-38.5115
 30
0.0
 10
-120.8844
 20
-37.4532
 30
0.0
 10
-121.2516
 20
-36.3877
 30
0.0
 10
-121.2037
 20
-36.144
 30
0.0
 10
-121.2037
 20
-36.144
 30
0.0
 10
-121.0165
 20
-35.1904
 30
0.0
 10
-119.7152
 20
-34.6743
 30
0.0
 10
-117.6462
 20
-34.6196
 30
0.0
 10
-117.6462
 20
-34.6196
 30
0.0
 10
-115.5772
 20
-34.647
 30
0.0
 10
-114.2758
 20
-35.1904
 30
0.0
 10
-114.0886
 20
-36.144
 30
0.0
 10
-114.0886
 20
-36.144
 30
0.0
 10
-114.0407
 20
-36.3877
 30
0.0
 10
-114.4079
 20
-37.4531
 30
0.0
 10
-114.9046
 20
-38.5115
 30
0.0
 10
-114.9046
 20
-38.5115
 30
0.0
 10
-116.4394
 20
-41.0906
 30
0.0
 10
-117.2947
 20
-47.0528
 30
0.0
 10
-117.6462
 20
-49.2595
 30
0.0
 10
-117.6462
 20
-49.2595
 30
0.0
 10
-117.9976
 20
-47.0528
 30
0.0
 10
-118.853
 20
-41.0905
 30
0.0
 10
-120.3878
 20
-38.5115
 30
0.0
  0
SPLINE
  5
C5
330
1F
100
AcDbEntity
  8
layer 1
 62
     7
100
AcDbSpline
210
0.0
220
0.0
230
1.0
 70
    11
 71
     3
 72
    20
 73
    16
 74
     0
 42
0.0000000001
 43
0.0000000001
 12
1.0
 22
0.0
 32
0.0
 13
1.0
 23
0.0
 33
0.0
 40
0.0
 40
0.0
 40
0.0
 40
0.0
 40
0.2
 40
0.2
 40
0.2
 40
0.2
 40
0.4
 40
0.4
 40
0.4
 40
0.4
 40
0.6
 40
0.6
 40
0.6
 40
0.6
 40
1.0
 40
1.0
 40
1.0
 40
1.0
 10
-106.6454
 20
-41.6035
 30
0.0
 10
-105.602
 20
-41.244
 30
0.0
 10
-105.0268
 20
-41.5719
 30
0.0
 10
-104.3268
 20
-42.2619
 30
0.0
 10
-104.3268
 20
-42.2619
 30
0.0
 10
-103.2919
 20
-43.2929
 30
0.0
 10
-103.4213
 20
-44.6053
 30
0.0
 10
-104.7912
 20
-45.1957
 30
0.0
 10
-104.7912
 20
-45.1957
 30
0.0
 10
-109.276
 20
-46.6222
 30
0.0
 10
-110.7946
 20
-48.3949
 30
0.0
 10
-113.3207
 20
-51.1297
 30
0.0
 10
-113.3207
 20
-51.1297
 30
0.0
 10
-112.2497
 20
-48.3769
 30
0.0
 10
-108.8939
 20
-42.6459
 30
0.0
 10
-106.6454
 20
-41.6035
 30
0.0
  0
SPLINE
  5
C6
330
1F
100
AcDbEntity
  8
layer 1
 62
     7
100
AcDbSpline
210
0.0
220
0.0
230
1.0
 70
    11
 71
     3
 72
    20
 73
    16
 74
     0
 42
0.0000000001
 43
0.0000000001
 12
1.0
 22
0.0
 32
0.0
 13
1.0
 23
0.0
 33
0.0
 40
0.0
 40
0.0
 40
0.0
 40
0.0
 40
0.2
 40
0.2
 40
0.2
 40
0.2
 40
0.4
 40
0.4
 40
0.4
 40
0.4
 40
0.6
 40
0.6
 40
0.6
 40
0.6
 40
1.0
 40
1.0
 40
1.0
 40
1.0
 10
-113.4598
 20
-38.3688
 30
0.0
 10
-112.6759
 20
-36.5206
 30
0.0
 10
-111.1438
 20
-35.9066
 30
0.0
 10
-109.2371
 20
-37.497
 30
0.0
 10
-109.2371
 20
-37.497
 30
0.0
 10
-107.2715
 20
-39.1366
 30
0.0
 10
-107.4061
 20
-40.2284
 30
0.0
 10
-109.381
 20
-41.9104
 30
0.0
 10
-109.381
 20
-41.9104
 30
0.0
 10
-112.0972
 20
-44.167
 30
0.0
 10
-113.9695
 20
-47.2957
 30
0.0
 10
-115.4808
 20
-50.242
 30
0.0
 10
-115.4808
 20
-50.242
 30
0.0
 10
-115.0425
 20
-46.4797
 30
0.0
 10
-115.0413
 20
-42.1223
 30
0.0
 10
-113.4598
 20
-38.3688
 30
0.0
  0
SPLINE
  5
C7
330
1F
100
AcDbEntity
  8
layer 1
 62
     7
100
AcDbSpline
210
0.0
220
0.0
230
1.0
 70
    11
 71
     3
 72
    20
 73
    16
 74
     0
 42
0.0000000001
 43
0.0000000001
 12
1.0
 22
0.0
 32
0.0
 13
1.0
 23
0.0
 33
0.0
 40
0.0
 40
0.0
 40
0.0
 40
0.0
 40
0.2
 40
0.2
 40
0.2
 40
0.2
 40
0.4
 40
0.4
 40
0.4
 40
0.4
 40
0.6
 40
0.6
 40
0.6
 40
0.6
 40
1.0
 40
1.0
 40
1.0
 40
1.0
 10
-96.1746
 20
-41.6035
 30
0.0
 10
-97.218
 20
-41.244
 30
0.0
 10
-97.7932
 20
-41.5719
 30
0.0
 10
-98.4932
 20
-42.2619
 30
0.0
 10
-98.4932
 20
-42.2619
 30
0.0
 10
-99.5282
 20
-43.2929
 30
0.0
 10
-99.3987
 20
-44.6053
 30
0.0
 10
-98.0288
 20
-45.1957
 30
0.0
 10
-98.0288
 20
-45.1957
 30
0.0
 10
-93.544
 20
-46.6222
 30
0.0
 10
-92.0254
 20
-48.3949
 30
0.0
 10
-89.4994
 20
-51.1297
 30
0.0
 10
-89.4994
 20
-51.1297
 30
0.0
 10
-90.5703
 20
-48.3769
 30
0.0
 10
-93.9262
 20
-42.6459
 30
0.0
 10
-96.1746
 20
-41.6035
 30
0.0
  0
SPLINE
  5
C8
330
1F
100
AcDbEntity
  8
layer 1
 62
     7
100
AcDbSpline
210
0.0
220
0.0
230
1.0
 70
    11
 71
     3
 72
    20
 73
    16
 74
     0
 42
0.0000000001
 43
0.0000000001
 12
1.0
 22
0.0
 32
0.0
 13
1.0
 23
0.0
 33
0.0
 40
0.0
 40
0.0
 40
0.0
 40
0.0
 40
0.2
 40
0.2
 40
0.2
 40
0.2
 40
0.4
 40
0.4
 40
0.4
 40
0.4
 40
0.6
 40
0.6
 40
0.6
 40
0.6
 40
1.0
 40
1.0
 40
1.0
 40
1.0
 10
-89.3602
 20
-38.3688
 30
0.0
 10
-90.1441
 20
-36.5206
 30
0.0
 10
-91.6763
 20
-35.9066
 30
0.0
 10
-93.5829
 20
-37.497
 30
0.0
 10
-93.5829
 20
-37.497
 30
0.0
 10
-95.5485
 20
-39.1366
 30
0.0
 10
-95.4139
 20
-40.2284
 30
0.0
 10
-93.439
 20
-41.9104
 30
0.0
 10
-93.439
 20
-41.9104
 30
0.0
 10
-90.7228
 20
-44.167
 30
0.0
 10
-88.8505
 20
-47.2957
 30
0.0
 10
-87.3392
 20
-50.242
 30
0.0
 10
-87.3392
 20
-50.242
 30
0.0
 10
-87.7775
 20
-46.4797
 30
0.0
 10
-87.7787
 20
-42.1223
 30
0.0
 10
-89.3602
 20
-38.3688
 30
0.0
  0
SPLINE
  5
C9
330
1F
100
AcDbEntity
  8
layer 1
 62
     7
100
AcDbSpline
210
0.0
220
0.0
230
1.0
 70
    11
 71
     3
 72
    28
 73
    24
 74
     0
 42
0.0000000001
 43
0.0000000001
 12
1.0
 22
0.0
 32
0.0
 13
1.0
 23
0.0
 33
0.0
 40
0.0
 40
0.0
 40
0.0
 40
0.0
 40
0.1428571428571428
 40
0.1428571428571428
 40
0.1428571428571428
 40
0.1428571428571428
 40
0.2857142857142857
 40
0.2857142857142857
 40
0.2857142857142857
 40
0.2857142857142857
 40
0.4285714285714285
 40
0.4285714285714285
 40
0.4285714285714285
 40
0.4285714285714285
 40
0.5714285714285714
 40
0.5714285714285714
 40
0.5714285714285714
 40
0.5714285714285714
 40
0.7142857142857143
 40
0.7142857142857143
 40
0.7142857142857143
 40
0.7142857142857143
 40
1.0
 40
1.0
 40
1.0
 40
1.0
 10
-87.8616
 20
-38.5115
 30
0.0
 10
-88.3582
 20
-37.4532
 30
0.0
 10
-88.7254
 20
-36.3877
 30
0.0
 10
-88.6775
 20
-36.144
 30
0.0
 10
-88.6775
 20
-36.144
 30
0.0
 10
-88.4903
 20
-35.1904
 30
0.0
 10
-87.189
 20
-34.6743
 30
0.0
 10
-85.12
 20
-34.6196
 30
0.0
 10
-85.12
 20
-34.6196
 30
0.0
 10
-83.051
 20
-34.647
 30
0.0
 10
-81.7496
 20
-35.1904
 30
0.0
 10
-81.5624
 20
-36.144
 30
0.0
 10
-81.5624
 20
-36.144
 30
0.0
 10
-81.5145
 20
-36.3877
 30
0.0
 10
-81.8817
 20
-37.4531
 30
0.0
 10
-82.3784
 20
-38.5115
 30
0.0
 10
-82.3784
 20
-38.5115
 30
0.0
 10
-83.9132
 20
-41.0906
 30
0.0
 10
-84.7685
 20
-47.0528
 30
0.0
 10
-85.12
 20
-49.2595
 30
0.0
 10
-85.12
 20
-49.2595
 30
0.0
 10
-85.4714
 20
-47.0528
 30
0.0
 10
-86.3268
 20
-41.0905
 30
0.0
 10
-87.8616
 20
-38.5115
 30
0.0
  0
SPLINE
  5
CA
330
1F
100
AcDbEntity
  8
layer 1
 62
     7
100
AcDbSpline
210
0.0
220
0.0
230
1.0
 70
    11
 71
     3
 72
    20
 73
    16
 74
     0
 42
0.0000000001
 43
0.0000000001
 12
1.0
 22
0.0
 32
0.0
 13
1.0
 23
0.0
 33
0.0
 40
0.0
 40
0.0
 40
0.0
 40
0.0
 40
0.2
 40
0.2
 40
0.2
 40
0.2
 40
0.4
 40
0.4
 40
0.4
 40
0.4
 40
0.6
 40
0.6
 40
0.6
 40
0.6
 40
1.0
 40
1.0
 40
1.0
 40
1.0
 10
-74.1192
 20
-41.6035
 30
0.0
 10
-73.0758
 20
-41.244
 30
0.0
 10
-72.5006
 20
-41.5719
 30
0.0
 10
-71.8006
 20
-42.2619
 30
0.0
 10
-71.8006
 20
-42.2619
 30
0.0
 10
-70.7657
 20
-43.2929
 30
0.0
 10
-70.8951
 20
-44.6053
 30
0.0
 10
-72.265
 20
-45.1957
 30
0.0
 10
-72.265
 20
-45.1957
 30
0.0
 10
-76.7498
 20
-46.6222
 30
0.0
 10
-78.2684
 20
-48.3949
 30
0.0
 10
-80.7945
 20
-51.1297
 30
0.0
 10
-80.7945
 20
-51.1297
 30
0.0
 10
-79.7235
 20
-48.3769
 30
0.0
 10
-76.3677
 20
-42.6459
 30
0.0
 10
-74.1192
 20
-41.6035
 30
0.0
  0
SPLINE
  5
CB
330
1F
100
AcDbEntity
  8
layer 1
 62
     7
100
AcDbSpline
210
0.0
220
0.0
230
1.0
 70
    11
 71
     3
 72
    20
 73
    16
 74
     0
 42
0.0000000001
 43
0.0000000001
 12
1.0
 22
0.0
 32
0.0
 13
1.0
 23
0.0
 33
0.0
 40
0.0
 40
0.0
 40
0.0
 40
0.0
 40
0.2
 40
0.2
 40
0.2
 40
0.2
 40
0.4
 40
0.4
 40
0.4
 40
0.4
 40
0.6
 40
0.6
 40
0.6
 40
0.6
 40
1.0
 40
1.0
 40
1.0
 40
1.0
 10
-80.9336
 20
-38.3688
 30
0.0
 10
-80.1497
 20
-36.5206
 30
0.0
 10
-78.6176
 20
-35.9066
 30
0.0
 10
-76.7109
 20
-37.497
 30
0.0
 10
-76.7109
 20
-37.497
 30
0.0
 10
-74.7453
 20
-39.1366
 30
0.0
 10
-74.8799
 20
-40.2284
 30
0.0
 10
-76.8548
 20
-41.9104
 30
0.0
 10
-76.8548
 20
-41.9104
 30
0.0
 10
-79.571
 20
-44.167
 30
0.0
 10
-81.4433
 20
-47.2957
 30
0.0
 10
-82.9546
 20
-50.242
 30
0.0
 10
-82.9546
 20
-50.242
 30
0.0
 10
-82.5163
 20
-46.4797
 30
0.0
 10
-82.5151
 20
-42.1223
 30
0.0
 10
-80.9336
 20
-38.3688
 30
0.0
  0
SPLINE
  5
CC
330
1F
100
AcDbEntity
  8
layer 1
 62
     7
100
AcDbSpline
210
0.0
220
0.0
230
1.0
 70
    11
 71
     3
 72
    20
 73
    16
 74
     0
 42
0.0000000001
 43
0.0000000001
 12
1.0
 22
0.0
 32
0.0
 13
1.0
 23
0.0
 33
0.0
 40
0.0
 40
0.0
 40
0.0
 40
0.0
 40
0.2
 40
0.2
 40
0.2
 40
0.2
 40
0.4
 40
0.4
 40
0.4
 40
0.4
 40
0.6
 40
0.6
 40
0.6
 40
0.6
 40
1.0
 40
1.0
 40
1.0
 40
1.0
 10
-63.6484
 20
-41.6035
 30
0.0
 10
-64.6918
 20
-41.244
 30
0.0
 10
-65.267
 20
-41.5719
 30
0.0
 10
-65.967
 20
-42.2619
 30
0.0
 10
-65.967
 20
-42.2619
 30
0.0
 10
-67.0019
 20
-43.2929
 30
0.0
 10
-66.8725
 20
-44.6053
 30
0.0
 10
-65.5026
 20
-45.1957
 30
0.0
 10
-65.5026
 20
-45.1957
 30
0.0
 10
-61.0178
 20
-46.6222
 30
0.0
 10
-59.4992
 20
-48.3949
 30
0.0
 10
-56.9732
 20
-51.1297
 30
0.0
 10
-56.9732
 20
-51.1297
 30
0.0
 10
-58.0441
 20
-48.3769
 30
0.0
 10
-61.4
 20
-42.6459
 30
0.0
 10
-63.6484
 20
-41.6035
 30
0.0
  0
SPLINE
  5
CD
330
1F
100
AcDbEntity
  8
layer 1
 62
     7
100
AcDbSpline
210
0.0
220
0.0
230
1.0
 70
    11
 71
     3
 72
    20
 73
    16
 74
     0
 42
0.0000000001
 43
0.0000000001
 12
1.0
 22
0.0
 32
0.0
 13
1.0
 23
0.0
 33
0.0
 40
0.0
 40
0.0
 40
0.0
 40
0.0
 40
0.2
 40
0.2
 40
0.2
 40
0.2
 40
0.4
 40
0.4
 40
0.4
 40
0.4
 40
0.6
 40
0.6
 40
0.6
 40
0.6
 40
1.0
 40
1.0
 40
1.0
 40
1.0
 10
-56.834
 20
-38.3688
 30
0.0
 10
-57.6179
 20
-36.5206
 30
0.0
 10
-59.1501
 20
-35.9066
 30
0.0
 10
-61.0567
 20
-37.497
 30
0.0
 10
-61.0567
 20
-37.497
 30
0.0
 10
-63.0223
 20
-39.1366
 30
0.0
 10
-62.8877
 20
-40.2284
 30
0.0
 10
-60.9128
 20
-41.9104
 30
0.0
 10
-60.9128
 20
-41.9104
 30
0.0
 10
-58.1966
 20
-44.167
 30
0.0
 10
-56.3243
 20
-47.2957
 30
0.0
 10
-54.813
 20
-50.242
 30
0.0
 10
-54.813
 20
-50.242
 30
0.0
 10
-55.2513
 20
-46.4797
 30
0.0
 10
-55.2525
 20
-42.1223
 30
0.0
 10
-56.834
 20
-38.3688
 30
0.0
  0
SPLINE
  5
CE
330
1F
100
AcDbEntity
  8
layer 1
 62
     7
100
AcDbSpline
210
0.0
220
0.0
230
1.0
 70
    11
 71
     3
 72
    20
 73
    16
 74
     0
 42
0.0000000001
 43
0.0000000001
 12
1.0
 22
0.0
 32
0.0
 13
1.0
 23
0.0
 33
0.0
 40
0.0
 40
0.0
 40
0.0
 40
0.0
 40
0.2
 40
0.2
 40
0.2
 40
0.2
 40
0.4
 40
0.4
 40
0.4
 40
0.4
 40
0.6
 40
0.6
 40
0.6
 40
0.6
 40
1.0
 40
1.0
 40
1.0
 40
1.0
 10
-55.3354
 20
-38.5115
 30
0.0
 10
-55.832
 20
-37.4532
 30
0.0
 10
-56.1992
 20
-36.3877
 30
0.0
 10
-56.1513
 20
-36.144
 30
0.0
 10
-56.1513
 20
-36.144
 30
0.0
 10
-55.9641
 20
-35.1904
 30
0.0
 10
-54.6628
 20
-34.6743
 30
0.0
 10
-52.5938
 20
-34.6196
 30
0.0
 10
-52.5938
 20
-34.6196
 30
0.0
 10
-52.5938
 20
-34.6196
 30
0.0
 10
-52.5938
 20
-49.2595
 30
0.0
 10
-52.5938
 20
-49.2595
 30
0.0
 10
-52.5938
 20
-49.2595
 30
0.0
 10
-52.9451
 20
-47.0528
 30
0.0
 10
-53.8005
 20
-41.0905
 30
0.0
 10
-55.3354
 20
-38.5115
 30
0.0
  0
SPLINE
  5
CF
330
1F
100
AcDbEntity
  8
layer 1
 62
     7
100
AcDbSpline
210
0.0
220
0.0
230
1.0
 70
    11
 71
     3
 72
    20
 73
    16
 74
     0
 42
0.0000000001
 43
0.0000000001
 12
1.0
 22
0.0
 32
0.0
 13
1.0
 23
0.0
 33
0.0
 40
0.0
 40
0.0
 40
0.0
 40
0.0
 40
0.2
 40
0.2
 40
0.2
 40
0.2
 40
0.4
 40
0.4
 40
0.4
 40
0.4
 40
0.6
 40
0.6
 40
0.6
 40
0.6
 40
1.0
 40
1.0
 40
1.0
 40
1.0
 10
-177.7311
 20
-28.357
 30
0.0
 10
-178.7745
 20
-27.9975
 30
0.0
 10
-179.3497
 20
-28.3254
 30
0.0
 10
-180.0496
 20
-29.0154
 30
0.0
 10
-180.0496
 20
-29.0154
 30
0.0
 10
-181.0846
 20
-30.0464
 30
0.0
 10
-180.9551
 20
-31.3588
 30
0.0
 10
-179.5852
 20
-31.9492
 30
0.0
 10
-179.5852
 20
-31.9492
 30
0.0
 10
-175.1005
 20
-33.3757
 30
0.0
 10
-173.5818
 20
-35.1484
 30
0.0
 10
-171.0558
 20
-37.8832
 30
0.0
 10
-171.0558
 20
-37.8832
 30
0.0
 10
-172.1267
 20
-35.1304
 30
0.0
 10
-175.4826
 20
-29.3994
 30
0.0
 10
-177.7311
 20
-28.357
 30
0.0
  0
SPLINE
  5
D0
330
1F
100
AcDbEntity
  8
layer 1
 62
     7
100
AcDbSpline
210
0.0
220
0.0
230
1.0
 70
    11
 71
     3
 72
    20
 73
    16
 74
     0
 42
0.0000000001
 43
0.0000000001
 12
1.0
 22
0.0
 32
0.0
 13
1.0
 23
0.0
 33
0.0
 40
0.0
 40
0.0
 40
0.0
 40
0.0
 40
0.2
 40
0.2
 40
0.2
 40
0.2
 40
0.4
 40
0.4
 40
0.4
 40
0.4
 40
0.6
 40
0.6
 40
0.6
 40
0.6
 40
1.0
 40
1.0
 40
1.0
 40
1.0
 10
-170.9166
 20
-25.1223
 30
0.0
 10
-171.7005
 20
-23.2741
 30
0.0
 10
-173.2327
 20
-22.6601
 30
0.0
 10
-175.1394
 20
-24.2505
 30
0.0
 10
-175.1394
 20
-24.2505
 30
0.0
 10
-177.105
 20
-25.8901
 30
0.0
 10
-176.9703
 20
-26.9819
 30
0.0
 10
-174.9954
 20
-28.6639
 30
0.0
 10
-174.9954
 20
-28.6639
 30
0.0
 10
-172.2793
 20
-30.9205
 30
0.0
 10
-170.4069
 20
-34.0491
 30
0.0
 10
-168.8957
 20
-36.9955
 30
0.0
 10
-168.8957
 20
-36.9955
 30
0.0
 10
-169.334
 20
-33.2332
 30
0.0
 10
-169.3352
 20
-28.8758
 30
0.0
 10
-170.9166
 20
-25.1223
 30
0.0
  0
SPLINE
  5
D1
330
1F
100
AcDbEntity
  8
layer 1
 62
     7
100
AcDbSpline
210
0.0
220
0.0
230
1.0
 70
    11
 71
     3
 72
    28
 73
    24
 74
     0
 42
0.0000000001
 43
0.0000000001
 12
1.0
 22
0.0
 32
0.0
 13
1.0
 23
0.0
 33
0.0
 40
0.0
 40
0.0
 40
0.0
 40
0.0
 40
0.1428571428571428
 40
0.1428571428571428
 40
0.1428571428571428
 40
0.1428571428571428
 40
0.2857142857142857
 40
0.2857142857142857
 40
0.2857142857142857
 40
0.2857142857142857
 40
0.4285714285714285
 40
0.4285714285714285
 40
0.4285714285714285
 40
0.4285714285714285
 40
0.5714285714285714
 40
0.5714285714285714
 40
0.5714285714285714
 40
0.5714285714285714
 40
0.7142857142857143
 40
0.7142857142857143
 40
0.7142857142857143
 40
0.7142857142857143
 40
1.0
 40
1.0
 40
1.0
 40
1.0
 10
-169.418
 20
-25.265
 30
0.0
 10
-169.9147
 20
-24.2067
 30
0.0
 10
-170.2818
 20
-23.1412
 30
0.0
 10
-170.234
 20
-22.8975
 30
0.0
 10
-170.234
 20
-22.8975
 30
0.0
 10
-170.0468
 20
-21.9439
 30
0.0
 10
-168.7454
 20
-21.4278
 30
0.0
 10
-166.6764
 20
-21.3731
 30
0.0
 10
-166.6764
 20
-21.3731
 30
0.0
 10
-164.6074
 20
-21.4005
 30
0.0
 10
-163.3061
 20
-21.9439
 30
0.0
 10
-163.1188
 20
-22.8975
 30
0.0
 10
-163.1188
 20
-22.8975
 30
0.0
 10
-163.071
 20
-23.1412
 30
0.0
 10
-163.4382
 20
-24.2066
 30
0.0
 10
-163.9348
 20
-25.265
 30
0.0
 10
-163.9348
 20
-25.265
 30
0.0
 10
-165.4696
 20
-27.8441
 30
0.0
 10
-166.3249
 20
-33.8063
 30
0.0
 10
-166.6764
 20
-36.013
 30
0.0
 10
-166.6764
 20
-36.013
 30
0.0
 10
-167.0278
 20
-33.8063
 30
0.0
 10
-167.8832
 20
-27.844
 30
0.0
 10
-169.418
 20
-25.265
 30
0.0
  0
SPLINE
  5
D2
330
1F
100
AcDbEntity
  8
layer 1
 62
     7
100
AcDbSpline
210
0.0
220
0.0
230
1.0
 70
    11
 71
     3
 72
    20
 73
    16
 74
     0
 42
0.0000000001
 43
0.0000000001
 12
1.0
 22
0.0
 32
0.0
 13
1.0
 23
0.0
 33
0.0
 40
0.0
 40
0.0
 40
0.0
 40
0.0
 40
0.2
 40
0.2
 40
0.2
 40
0.2
 40
0.4
 40
0.4
 40
0.4
 40
0.4
 40
0.6
 40
0.6
 40
0.6
 40
0.6
 40
1.0
 40
1.0
 40
1.0
 40
1.0
 10
-155.6756
 20
-28.357
 30
0.0
 10
-154.6323
 20
-27.9975
 30
0.0
 10
-154.057
 20
-28.3254
 30
0.0
 10
-153.3571
 20
-29.0154
 30
0.0
 10
-153.3571
 20
-29.0154
 30
0.0
 10
-152.3221
 20
-30.0464
 30
0.0
 10
-152.4516
 20
-31.3588
 30
0.0
 10
-153.8215
 20
-31.9492
 30
0.0
 10
-153.8215
 20
-31.9492
 30
0.0
 10
-158.3062
 20
-33.3757
 30
0.0
 10
-159.8249
 20
-35.1484
 30
0.0
 10
-162.3509
 20
-37.8832
 30
0.0
 10
-162.3509
 20
-37.8832
 30
0.0
 10
-161.28
 20
-35.1304
 30
0.0
 10
-157.9241
 20
-29.3994
 30
0.0
 10
-155.6756
 20
-28.357
 30
0.0
  0
SPLINE
  5
D3
330
1F
100
AcDbEntity
  8
layer 1
 62
     7
100
AcDbSpline
210
0.0
220
0.0
230
1.0
 70
    11
 71
     3
 72
    20
 73
    16
 74
     0
 42
0.0000000001
 43
0.0000000001
 12
1.0
 22
0.0
 32
0.0
 13
1.0
 23
0.0
 33
0.0
 40
0.0
 40
0.0
 40
0.0
 40
0.0
 40
0.2
 40
0.2
 40
0.2
 40
0.2
 40
0.4
 40
0.4
 40
0.4
 40
0.4
 40
0.6
 40
0.6
 40
0.6
 40
0.6
 40
1.0
 40
1.0
 40
1.0
 40
1.0
 10
-162.4901
 20
-25.1223
 30
0.0
 10
-161.7062
 20
-23.2741
 30
0.0
 10
-160.174
 20
-22.6601
 30
0.0
 10
-158.2674
 20
-24.2505
 30
0.0
 10
-158.2674
 20
-24.2505
 30
0.0
 10
-156.3017
 20
-25.8901
 30
0.0
 10
-156.4364
 20
-26.9819
 30
0.0
 10
-158.4113
 20
-28.6639
 30
0.0
 10
-158.4113
 20
-28.6639
 30
0.0
 10
-161.1275
 20
-30.9205
 30
0.0
 10
-162.9998
 20
-34.0491
 30
0.0
 10
-164.5111
 20
-36.9955
 30
0.0
 10
-164.5111
 20
-36.9955
 30
0.0
 10
-164.0728
 20
-33.2332
 30
0.0
 10
-164.0715
 20
-28.8758
 30
0.0
 10
-162.4901
 20
-25.1223
 30
0.0
  0
SPLINE
  5
D4
330
1F
100
AcDbEntity
  8
layer 1
 62
     7
100
AcDbSpline
210
0.0
220
0.0
230
1.0
 70
    11
 71
     3
 72
    20
 73
    16
 74
     0
 42
0.0000000001
 43
0.0000000001
 12
1.0
 22
0.0
 32
0.0
 13
1.0
 23
0.0
 33
0.0
 40
0.0
 40
0.0
 40
0.0
 40
0.0
 40
0.2
 40
0.2
 40
0.2
 40
0.2
 40
0.4
 40
0.4
 40
0.4
 40
0.4
 40
0.6
 40
0.6
 40
0.6
 40
0.6
 40
1.0
 40
1.0
 40
1.0
 40
1.0
 10
-145.0835
 20
-28.357
 30
0.0
 10
-146.1269
 20
-27.9975
 30
0.0
 10
-146.7021
 20
-28.3254
 30
0.0
 10
-147.402
 20
-29.0154
 30
0.0
 10
-147.402
 20
-29.0154
 30
0.0
 10
-148.437
 20
-30.0464
 30
0.0
 10
-148.3075
 20
-31.3588
 30
0.0
 10
-146.9376
 20
-31.9492
 30
0.0
 10
-146.9376
 20
-31.9492
 30
0.0
 10
-142.4529
 20
-33.3757
 30
0.0
 10
-140.9342
 20
-35.1484
 30
0.0
 10
-138.4082
 20
-37.8832
 30
0.0
 10
-138.4082
 20
-37.8832
 30
0.0
 10
-139.4791
 20
-35.1304
 30
0.0
 10
-142.835
 20
-29.3994
 30
0.0
 10
-145.0835
 20
-28.357
 30
0.0
  0
SPLINE
  5
D5
330
1F
100
AcDbEntity
  8
layer 1
 62
     7
100
AcDbSpline
210
0.0
220
0.0
230
1.0
 70
    11
 71
     3
 72
    20
 73
    16
 74
     0
 42
0.0000000001
 43
0.0000000001
 12
1.0
 22
0.0
 32
0.0
 13
1.0
 23
0.0
 33
0.0
 40
0.0
 40
0.0
 40
0.0
 40
0.0
 40
0.2
 40
0.2
 40
0.2
 40
0.2
 40
0.4
 40
0.4
 40
0.4
 40
0.4
 40
0.6
 40
0.6
 40
0.6
 40
0.6
 40
1.0
 40
1.0
 40
1.0
 40
1.0
 10
-138.269
 20
-25.1223
 30
0.0
 10
-139.0529
 20
-23.2741
 30
0.0
 10
-140.5851
 20
-22.6601
 30
0.0
 10
-142.4917
 20
-24.2505
 30
0.0
 10
-142.4917
 20
-24.2505
 30
0.0
 10
-144.4574
 20
-25.8901
 30
0.0
 10
-144.3227
 20
-26.9819
 30
0.0
 10
-142.3478
 20
-28.6639
 30
0.0
 10
-142.3478
 20
-28.6639
 30
0.0
 10
-139.6316
 20
-30.9205
 30
0.0
 10
-137.7593
 20
-34.0491
 30
0.0
 10
-136.248
 20
-36.9955
 30
0.0
 10
-136.248
 20
-36.9955
 30
0.0
 10
-136.6863
 20
-33.2332
 30
0.0
 10
-136.6876
 20
-28.8758
 30
0.0
 10
-138.269
 20
-25.1223
 30
0.0
  0
SPLINE
  5
D6
330
1F
100
AcDbEntity
  8
layer 1
 62
     7
100
AcDbSpline
210
0.0
220
0.0
230
1.0
 70
    11
 71
     3
 72
    28
 73
    24
 74
     0
 42
0.0000000001
 43
0.0000000001
 12
1.0
 22
0.0
 32
0.0
 13
1.0
 23
0.0
 33
0.0
 40
0.0
 40
0.0
 40
0.0
 40
0.0
 40
0.1428571428571428
 40
0.1428571428571428
 40
0.1428571428571428
 40
0.1428571428571428
 40
0.2857142857142857
 40
0.2857142857142857
 40
0.2857142857142857
 40
0.2857142857142857
 40
0.4285714285714285
 40
0.4285714285714285
 40
0.4285714285714285
 40
0.4285714285714285
 40
0.5714285714285714
 40
0.5714285714285714
 40
0.5714285714285714
 40
0.5714285714285714
 40
0.7142857142857143
 40
0.7142857142857143
 40
0.7142857142857143
 40
0.7142857142857143
 40
1.0
 40
1.0
 40
1.0
 40
1.0
 10
-136.7704
 20
-25.265
 30
0.0
 10
-137.267
 20
-24.2067
 30
0.0
 10
-137.6342
 20
-23.1412
 30
0.0
 10
-137.5864
 20
-22.8975
 30
0.0
 10
-137.5864
 20
-22.8975
 30
0.0
 10
-137.3991
 20
-21.9439
 30
0.0
 10
-136.0978
 20
-21.4278
 30
0.0
 10
-134.0288
 20
-21.3731
 30
0.0
 10
-134.0288
 20
-21.3731
 30
0.0
 10
-131.9598
 20
-21.4005
 30
0.0
 10
-130.6584
 20
-21.9439
 30
0.0
 10
-130.4712
 20
-22.8975
 30
0.0
 10
-130.4712
 20
-22.8975
 30
0.0
 10
-130.4234
 20
-23.1412
 30
0.0
 10
-130.7905
 20
-24.2066
 30
0.0
 10
-131.2872
 20
-25.265
 30
0.0
 10
-131.2872
 20
-25.265
 30
0.0
 10
-132.822
 20
-27.8441
 30
0.0
 10
-133.6773
 20
-33.8063
 30
0.0
 10
-134.0288
 20
-36.013
 30
0.0
 10
-134.0288
 20
-36.013
 30
0.0
 10
-134.3802
 20
-33.8063
 30
0.0
 10
-135.2356
 20
-27.844
 30
0.0
 10
-136.7704
 20
-25.265
 30
0.0
  0
SPLINE
  5
D7
330
1F
100
AcDbEntity
  8
layer 1
 62
     7
100
AcDbSpline
210
0.0
220
0.0
230
1.0
 70
    11
 71
     3
 72
    20
 73
    16
 74
     0
 42
0.0000000001
 43
0.0000000001
 12
1.0
 22
0.0
 32
0.0
 13
1.0
 23
0.0
 33
0.0
 40
0.0
 40
0.0
 40
0.0
 40
0.0
 40
0.2
 40
0.2
 40
0.2
 40
0.2
 40
0.4
 40
0.4
 40
0.4
 40
0.4
 40
0.6
 40
0.6
 40
0.6
 40
0.6
 40
1.0
 40
1.0
 40
1.0
 40
1.0
 10
-123.028
 20
-28.357
 30
0.0
 10
-121.9846
 20
-27.9975
 30
0.0
 10
-121.4094
 20
-28.3254
 30
0.0
 10
-120.7095
 20
-29.0154
 30
0.0
 10
-120.7095
 20
-29.0154
 30
0.0
 10
-119.6745
 20
-30.0464
 30
0.0
 10
-119.804
 20
-31.3588
 30
0.0
 10
-121.1739
 20
-31.9492
 30
0.0
 10
-121.1739
 20
-31.9492
 30
0.0
 10
-125.6586
 20
-33.3757
 30
0.0
 10
-127.1773
 20
-35.1484
 30
0.0
 10
-129.7033
 20
-37.8832
 30
0.0
 10
-129.7033
 20
-37.8832
 30
0.0
 10
-128.6324
 20
-35.1304
 30
0.0
 10
-125.2765
 20
-29.3994
 30
0.0
 10
-123.028
 20
-28.357
 30
0.0
  0
SPLINE
  5
D8
330
1F
100
AcDbEntity
  8
layer 1
 62
     7
100
AcDbSpline
210
0.0
220
0.0
230
1.0
 70
    11
 71
     3
 72
    20
 73
    16
 74
     0
 42
0.0000000001
 43
0.0000000001
 12
1.0
 22
0.0
 32
0.0
 13
1.0
 23
0.0
 33
0.0
 40
0.0
 40
0.0
 40
0.0
 40
0.0
 40
0.2
 40
0.2
 40
0.2
 40
0.2
 40
0.4
 40
0.4
 40
0.4
 40
0.4
 40
0.6
 40
0.6
 40
0.6
 40
0.6
 40
1.0
 40
1.0
 40
1.0
 40
1.0
 10
-129.8425
 20
-25.1223
 30
0.0
 10
-129.0586
 20
-23.2741
 30
0.0
 10
-127.5264
 20
-22.6601
 30
0.0
 10
-125.6198
 20
-24.2505
 30
0.0
 10
-125.6198
 20
-24.2505
 30
0.0
 10
-123.6541
 20
-25.8901
 30
0.0
 10
-123.7888
 20
-26.9819
 30
0.0
 10
-125.7637
 20
-28.6639
 30
0.0
 10
-125.7637
 20
-28.6639
 30
0.0
 10
-128.4798
 20
-30.9205
 30
0.0
 10
-130.3522
 20
-34.0491
 30
0.0
 10
-131.8634
 20
-36.9955
 30
0.0
 10
-131.8634
 20
-36.9955
 30
0.0
 10
-131.4251
 20
-33.2332
 30
0.0
 10
-131.4239
 20
-28.8758
 30
0.0
 10
-129.8425
 20
-25.1223
 30
0.0
  0
SPLINE
  5
D9
330
1F
100
AcDbEntity
  8
layer 1
 62
     7
100
AcDbSpline
210
0.0
220
0.0
230
1.0
 70
    11
 71
     3
 72
    20
 73
    16
 74
     0
 42
0.0000000001
 43
0.0000000001
 12
1.0
 22
0.0
 32
0.0
 13
1.0
 23
0.0
 33
0.0
 40
0.0
 40
0.0
 40
0.0
 40
0.0
 40
0.2
 40
0.2
 40
0.2
 40
0.2
 40
0.4
 40
0.4
 40
0.4
 40
0.4
 40
0.6
 40
0.6
 40
0.6
 40
0.6
 40
1.0
 40
1.0
 40
1.0
 40
1.0
 10
-112.4358
 20
-28.357
 30
0.0
 10
-113.4792
 20
-27.9975
 30
0.0
 10
-114.0544
 20
-28.3254
 30
0.0
 10
-114.7544
 20
-29.0154
 30
0.0
 10
-114.7544
 20
-29.0154
 30
0.0
 10
-115.7894
 20
-30.0464
 30
0.0
 10
-115.6599
 20
-31.3588
 30
0.0
 10
-114.29
 20
-31.9492
 30
0.0
 10
-114.29
 20
-31.9492
 30
0.0
 10
-109.8052
 20
-33.3757
 30
0.0
 10
-108.2866
 20
-35.1484
 30
0.0
 10
-105.7606
 20
-37.8832
 30
0.0
 10
-105.7606
 20
-37.8832
 30
0.0
 10
-106.8315
 20
-35.1304
 30
0.0
 10
-110.1874
 20
-29.3994
 30
0.0
 10
-112.4358
 20
-28.357
 30
0.0
  0
SPLINE
  5
DA
330
1F
100
AcDbEntity
  8
layer 1
 62
     7
100
AcDbSpline
210
0.0
220
0.0
230
1.0
 70
    11
 71
     3
 72
    20
 73
    16
 74
     0
 42
0.0000000001
 43
0.0000000001
 12
1.0
 22
0.0
 32
0.0
 13
1.0
 23
0.0
 33
0.0
 40
0.0
 40
0.0
 40
0.0
 40
0.0
 40
0.2
 40
0.2
 40
0.2
 40
0.2
 40
0.4
 40
0.4
 40
0.4
 40
0.4
 40
0.6
 40
0.6
 40
0.6
 40
0.6
 40
1.0
 40
1.0
 40
1.0
 40
1.0
 10
-105.6214
 20
-25.1223
 30
0.0
 10
-106.4053
 20
-23.2741
 30
0.0
 10
-107.9375
 20
-22.6601
 30
0.0
 10
-109.8441
 20
-24.2505
 30
0.0
 10
-109.8441
 20
-24.2505
 30
0.0
 10
-111.8098
 20
-25.8901
 30
0.0
 10
-111.6751
 20
-26.9819
 30
0.0
 10
-109.7002
 20
-28.6639
 30
0.0
 10
-109.7002
 20
-28.6639
 30
0.0
 10
-106.984
 20
-30.9205
 30
0.0
 10
-105.1117
 20
-34.0491
 30
0.0
 10
-103.6004
 20
-36.9955
 30
0.0
 10
-103.6004
 20
-36.9955
 30
0.0
 10
-104.0387
 20
-33.2332
 30
0.0
 10
-104.0399
 20
-28.8758
 30
0.0
 10
-105.6214
 20
-25.1223
 30
0.0
  0
SPLINE
  5
DB
330
1F
100
AcDbEntity
  8
layer 1
 62
     7
100
AcDbSpline
210
0.0
220
0.0
230
1.0
 70
    11
 71
     3
 72
    28
 73
    24
 74
     0
 42
0.0000000001
 43
0.0000000001
 12
1.0
 22
0.0
 32
0.0
 13
1.0
 23
0.0
 33
0.0
 40
0.0
 40
0.0
 40
0.0
 40
0.0
 40
0.1428571428571428
 40
0.1428571428571428
 40
0.1428571428571428
 40
0.1428571428571428
 40
0.2857142857142857
 40
0.2857142857142857
 40
0.2857142857142857
 40
0.2857142857142857
 40
0.4285714285714285
 40
0.4285714285714285
 40
0.4285714285714285
 40
0.4285714285714285
 40
0.5714285714285714
 40
0.5714285714285714
 40
0.5714285714285714
 40
0.5714285714285714
 40
0.7142857142857143
 40
0.7142857142857143
 40
0.7142857142857143
 40
0.7142857142857143
 40
1.0
 40
1.0
 40
1.0
 40
1.0
 10
-104.1228
 20
-25.265
 30
0.0
 10
-104.6194
 20
-24.2067
 30
0.0
 10
-104.9866
 20
-23.1412
 30
0.0
 10
-104.9388
 20
-22.8975
 30
0.0
 10
-104.9388
 20
-22.8975
 30
0.0
 10
-104.7515
 20
-21.9439
 30
0.0
 10
-103.4502
 20
-21.4278
 30
0.0
 10
-101.3812
 20
-21.3731
 30
0.0
 10
-101.3812
 20
-21.3731
 30
0.0
 10
-99.3122
 20
-21.4005
 30
0.0
 10
-98.0108
 20
-21.9439
 30
0.0
 10
-97.8236
 20
-22.8975
 30
0.0
 10
-97.8236
 20
-22.8975
 30
0.0
 10
-97.7757
 20
-23.1412
 30
0.0
 10
-98.1429
 20
-24.2066
 30
0.0
 10
-98.6396
 20
-25.265
 30
0.0
 10
-98.6396
 20
-25.265
 30
0.0
 10
-100.1744
 20
-27.8441
 30
0.0
 10
-101.0297
 20
-33.8063
 30
0.0
 10
-101.3812
 20
-36.013
 30
0.0
 10
-101.3812
 20
-36.013
 30
0.0
 10
-101.7326
 20
-33.8063
 30
0.0
 10
-102.588
 20
-27.844
 30
0.0
 10
-104.1228
 20
-25.265
 30
0.0
  0
SPLINE
  5
DC
330
1F
100
AcDbEntity
  8
layer 1
 62
     7
100
AcDbSpline
210
0.0
220
0.0
230
1.0
 70
    11
 71
     3
 72
    20
 73
    16
 74
     0
 42
0.0000000001
 43
0.0000000001
 12
1.0
 22
0.0
 32
0.0
 13
1.0
 23
0.0
 33
0.0
 40
0.0
 40
0.0
 40
0.0
 40
0.0
 40
0.2
 40
0.2
 40
0.2
 40
0.2
 40
0.4
 40
0.4
 40
0.4
 40
0.4
 40
0.6
 40
0.6
 40
0.6
 40
0.6
 40
1.0
 40
1.0
 40
1.0
 40
1.0
 10
-90.3804
 20
-28.357
 30
0.0
 10
-89.337
 20
-27.9975
 30
0.0
 10
-88.7618
 20
-28.3254
 30
0.0
 10
-88.0619
 20
-29.0154
 30
0.0
 10
-88.0619
 20
-29.0154
 30
0.0
 10
-87.0269
 20
-30.0464
 30
0.0
 10
-87.1563
 20
-31.3588
 30
0.0
 10
-88.5262
 20
-31.9492
 30
0.0
 10
-88.5262
 20
-31.9492
 30
0.0
 10
-93.011
 20
-33.3757
 30
0.0
 10
-94.5296
 20
-35.1484
 30
0.0
 10
-97.0557
 20
-37.8832
 30
0.0
 10
-97.0557
 20
-37.8832
 30
0.0
 10
-95.9848
 20
-35.1304
 30
0.0
 10
-92.6289
 20
-29.3994
 30
0.0
 10
-90.3804
 20
-28.357
 30
0.0
  0
SPLINE
  5
DD
330
1F
100
AcDbEntity
  8
layer 1
 62
     7
100
AcDbSpline
210
0.0
220
0.0
230
1.0
 70
    11
 71
     3
 72
    20
 73
    16
 74
     0
 42
0.0000000001
 43
0.0000000001
 12
1.0
 22
0.0
 32
0.0
 13
1.0
 23
0.0
 33
0.0
 40
0.0
 40
0.0
 40
0.0
 40
0.0
 40
0.2
 40
0.2
 40
0.2
 40
0.2
 40
0.4
 40
0.4
 40
0.4
 40
0.4
 40
0.6
 40
0.6
 40
0.6
 40
0.6
 40
1.0
 40
1.0
 40
1.0
 40
1.0
 10
-97.1949
 20
-25.1223
 30
0.0
 10
-96.4109
 20
-23.2741
 30
0.0
 10
-94.8788
 20
-22.6601
 30
0.0
 10
-92.9721
 20
-24.2505
 30
0.0
 10
-92.9721
 20
-24.2505
 30
0.0
 10
-91.0065
 20
-25.8901
 30
0.0
 10
-91.1411
 20
-26.9819
 30
0.0
 10
-93.1161
 20
-28.6639
 30
0.0
 10
-93.1161
 20
-28.6639
 30
0.0
 10
-95.8322
 20
-30.9205
 30
0.0
 10
-97.7045
 20
-34.0491
 30
0.0
 10
-99.2158
 20
-36.9955
 30
0.0
 10
-99.2158
 20
-36.9955
 30
0.0
 10
-98.7775
 20
-33.2332
 30
0.0
 10
-98.7763
 20
-28.8758
 30
0.0
 10
-97.1949
 20
-25.1223
 30
0.0
  0
SPLINE
  5
DE
330
1F
100
AcDbEntity
  8
layer 1
 62
     7
100
AcDbSpline
210
0.0
220
0.0
230
1.0
 70
    11
 71
     3
 72
    20
 73
    16
 74
     0
 42
0.0000000001
 43
0.0000000001
 12
1.0
 22
0.0
 32
0.0
 13
1.0
 23
0.0
 33
0.0
 40
0.0
 40
0.0
 40
0.0
 40
0.0
 40
0.2
 40
0.2
 40
0.2
 40
0.2
 40
0.4
 40
0.4
 40
0.4
 40
0.4
 40
0.6
 40
0.6
 40
0.6
 40
0.6
 40
1.0
 40
1.0
 40
1.0
 40
1.0
 10
-79.7882
 20
-28.357
 30
0.0
 10
-80.8316
 20
-27.9975
 30
0.0
 10
-81.4068
 20
-28.3254
 30
0.0
 10
-82.1068
 20
-29.0154
 30
0.0
 10
-82.1068
 20
-29.0154
 30
0.0
 10
-83.1417
 20
-30.0464
 30
0.0
 10
-83.0123
 20
-31.3588
 30
0.0
 10
-81.6424
 20
-31.9492
 30
0.0
 10
-81.6424
 20
-31.9492
 30
0.0
 10
-77.1576
 20
-33.3757
 30
0.0
 10
-75.639
 20
-35.1484
 30
0.0
 10
-73.113
 20
-37.8832
 30
0.0
 10
-73.113
 20
-37.8832
 30
0.0
 10
-74.1839
 20
-35.1304
 30
0.0
 10
-77.5398
 20
-29.3994
 30
0.0
 10
-79.7882
 20
-28.357
 30
0.0
  0
SPLINE
  5
DF
330
1F
100
AcDbEntity
  8
layer 1
 62
     7
100
AcDbSpline
210
0.0
220
0.0
230
1.0
 70
    11
 71
     3
 72
    20
 73
    16
 74
     0
 42
0.0000000001
 43
0.0000000001
 12
1.0
 22
0.0
 32
0.0
 13
1.0
 23
0.0
 33
0.0
 40
0.0
 40
0.0
 40
0.0
 40
0.0
 40
0.2
 40
0.2
 40
0.2
 40
0.2
 40
0.4
 40
0.4
 40
0.4
 40
0.4
 40
0.6
 40
0.6
 40
0.6
 40
0.6
 40
1.0
 40
1.0
 40
1.0
 40
1.0
 10
-72.9738
 20
-25.1223
 30
0.0
 10
-73.7577
 20
-23.2741
 30
0.0
 10
-75.2899
 20
-22.6601
 30
0.0
 10
-77.1965
 20
-24.2505
 30
0.0
 10
-77.1965
 20
-24.2505
 30
0.0
 10
-79.1621
 20
-25.8901
 30
0.0
 10
-79.0275
 20
-26.9819
 30
0.0
 10
-77.0526
 20
-28.6639
 30
0.0
 10
-77.0526
 20
-28.6639
 30
0.0
 10
-74.3364
 20
-30.9205
 30
0.0
 10
-72.4641
 20
-34.0491
 30
0.0
 10
-70.9528
 20
-36.9955
 30
0.0
 10
-70.9528
 20
-36.9955
 30
0.0
 10
-71.3911
 20
-33.2332
 30
0.0
 10
-71.3923
 20
-28.8758
 30
0.0
 10
-72.9738
 20
-25.1223
 30
0.0
  0
SPLINE
  5
E0
330
1F
100
AcDbEntity
  8
layer 1
 62
     7
100
AcDbSpline
210
0.0
220
0.0
230
1.0
 70
    11
 71
     3
 72
    28
 73
    24
 74
     0
 42
0.0000000001
 43
0.0000000001
 12
1.0
 22
0.0
 32
0.0
 13
1.0
 23
0.0
 33
0.0
 40
0.0
 40
0.0
 40
0.0
 40
0.0
 40
0.1428571428571428
 40
0.1428571428571428
 40
0.1428571428571428
 40
0.1428571428571428
 40
0.2857142857142857
 40
0.2857142857142857
 40
0.2857142857142857
 40
0.2857142857142857
 40
0.4285714285714285
 40
0.4285714285714285
 40
0.4285714285714285
 40
0.4285714285714285
 40
0.5714285714285714
 40
0.5714285714285714
 40
0.5714285714285714
 40
0.5714285714285714
 40
0.7142857142857143
 40
0.7142857142857143
 40
0.7142857142857143
 40
0.7142857142857143
 40
1.0
 40
1.0
 40
1.0
 40
1.0
 10
-71.4752
 20
-25.265
 30
0.0
 10
-71.9718
 20
-24.2067
 30
0.0
 10
-72.339
 20
-23.1412
 30
0.0
 10
-72.2911
 20
-22.8975
 30
0.0
 10
-72.2911
 20
-22.8975
 30
0.0
 10
-72.1039
 20
-21.9439
 30
0.0
 10
-70.8026
 20
-21.4278
 30
0.0
 10
-68.7336
 20
-21.3731
 30
0.0
 10
-68.7336
 20
-21.3731
 30
0.0
 10
-66.6646
 20
-21.4005
 30
0.0
 10
-65.3632
 20
-21.9439
 30
0.0
 10
-65.176
 20
-22.8975
 30
0.0
 10
-65.176
 20
-22.8975
 30
0.0
 10
-65.1281
 20
-23.1412
 30
0.0
 10
-65.4953
 20
-24.2066
 30
0.0
 10
-65.9919
 20
-25.265
 30
0.0
 10
-65.9919
 20
-25.265
 30
0.0
 10
-67.5268
 20
-27.8441
 30
0.0
 10
-68.3821
 20
-33.8063
 30
0.0
 10
-68.7336
 20
-36.013
 30
0.0
 10
-68.7336
 20
-36.013
 30
0.0
 10
-69.0849
 20
-33.8063
 30
0.0
 10
-69.9403
 20
-27.844
 30
0.0
 10
-71.4752
 20
-25.265
 30
0.0
  0
SPLINE
  5
E1
330
1F
100
AcDbEntity
  8
layer 1
 62
     7
100
AcDbSpline
210
0.0
220
0.0
230
1.0
 70
    11
 71
     3
 72
    20
 73
    16
 74
     0
 42
0.0000000001
 43
0.0000000001
 12
1.0
 22
0.0
 32
0.0
 13
1.0
 23
0.0
 33
0.0
 40
0.0
 40
0.0
 40
0.0
 40
0.0
 40
0.2
 40
0.2
 40
0.2
 40
0.2
 40
0.4
 40
0.4
 40
0.4
 40
0.4
 40
0.6
 40
0.6
 40
0.6
 40
0.6
 40
1.0
 40
1.0
 40
1.0
 40
1.0
 10
-57.7328
 20
-28.357
 30
0.0
 10
-56.6894
 20
-27.9975
 30
0.0
 10
-56.1142
 20
-28.3254
 30
0.0
 10
-55.4142
 20
-29.0154
 30
0.0
 10
-55.4142
 20
-29.0154
 30
0.0
 10
-54.3793
 20
-30.0464
 30
0.0
 10
-54.5087
 20
-31.3588
 30
0.0
 10
-55.8786
 20
-31.9492
 30
0.0
 10
-55.8786
 20
-31.9492
 30
0.0
 10
-60.3634
 20
-33.3757
 30
0.0
 10
-61.882
 20
-35.1484
 30
0.0
 10
-64.408
 20
-37.8832
 30
0.0
 10
-64.408
 20
-37.8832
 30
0.0
 10
-63.3371
 20
-35.1304
 30
0.0
 10
-59.9813
 20
-29.3994
 30
0.0
 10
-57.7328
 20
-28.357
 30
0.0
  0
SPLINE
  5
E2
330
1F
100
AcDbEntity
  8
layer 1
 62
     7
100
AcDbSpline
210
0.0
220
0.0
230
1.0
 70
    11
 71
     3
 72
    20
 73
    16
 74
     0
 42
0.0000000001
 43
0.0000000001
 12
1.0
 22
0.0
 32
0.0
 13
1.0
 23
0.0
 33
0.0
 40
0.0
 40
0.0
 40
0.0
 40
0.0
 40
0.2
 40
0.2
 40
0.2
 40
0.2
 40
0.4
 40
0.4
 40
0.4
 40
0.4
 40
0.6
 40
0.6
 40
0.6
 40
0.6
 40
1.0
 40
1.0
 40
1.0
 40
1.0
 10
-64.5472
 20
-25.1223
 30
0.0
 10
-63.7633
 20
-23.2741
 30
0.0
 10
-62.2311
 20
-22.6601
 30
0.0
 10
-60.3245
 20
-24.2505
 30
0.0
 10
-60.3245
 20
-24.2505
 30
0.0
 10
-58.3589
 20
-25.8901
 30
0.0
 10
-58.4935
 20
-26.9819
 30
0.0
 10
-60.4684
 20
-28.6639
 30
0.0
 10
-60.4684
 20
-28.6639
 30
0.0
 10
-63.1846
 20
-30.9205
 30
0.0
 10
-65.0569
 20
-34.0491
 30
0.0
 10
-66.5682
 20
-36.9955
 30
0.0
 10
-66.5682
 20
-36.9955
 30
0.0
 10
-66.1299
 20
-33.2332
 30
0.0
 10
-66.1287
 20
-28.8758
 30
0.0
 10
-64.5472
 20
-25.1223
 30
0.0
  0
SPLINE
  5
E3
330
1F
100
AcDbEntity
  8
layer 1
 62
     7
100
AcDbSpline
210
0.0
220
0.0
230
1.0
 70
    11
 71
     3
 72
    20
 73
    16
 74
     0
 42
0.0000000001
 43
0.0000000001
 12
1.0
 22
0.0
 32
0.0
 13
1.0
 23
0.0
 33
0.0
 40
0.0
 40
0.0
 40
0.0
 40
0.0
 40
0.2
 40
0.2
 40
0.2
 40
0.2
 40
0.4
 40
0.4
 40
0.4
 40
0.4
 40
0.6
 40
0.6
 40
0.6
 40
0.6
 40
1.0
 40
1.0
 40
1.0
 40
1.0
 10
-171.6669
 20
-41.6035
 30
0.0
 10
-170.6235
 20
-41.244
 30
0.0
 10
-170.0483
 20
-41.5719
 30
0.0
 10
-169.3483
 20
-42.2619
 30
0.0
 10
-169.3483
 20
-42.2619
 30
0.0
 10
-168.3134
 20
-43.2929
 30
0.0
 10
-168.4428
 20
-44.6053
 30
0.0
 10
-169.8127
 20
-45.1957
 30
0.0
 10
-169.8127
 20
-45.1957
 30
0.0
 10
-174.2975
 20
-46.6222
 30
0.0
 10
-175.8161
 20
-48.3949
 30
0.0
 10
-178.3421
 20
-51.1297
 30
0.0
 10
-178.3421
 20
-51.1297
 30
0.0
 10
-177.2712
 20
-48.3769
 30
0.0
 10
-173.9154
 20
-42.6459
 30
0.0
 10
-171.6669
 20
-41.6035
 30
0.0
  0
SPLINE
  5
E4
330
1F
100
AcDbEntity
  8
layer 1
 62
     7
100
AcDbSpline
210
0.0
220
0.0
230
1.0
 70
    11
 71
     3
 72
    20
 73
    16
 74
     0
 42
0.0000000001
 43
0.0000000001
 12
1.0
 22
0.0
 32
0.0
 13
1.0
 23
0.0
 33
0.0
 40
0.0
 40
0.0
 40
0.0
 40
0.0
 40
0.2
 40
0.2
 40
0.2
 40
0.2
 40
0.4
 40
0.4
 40
0.4
 40
0.4
 40
0.6
 40
0.6
 40
0.6
 40
0.6
 40
1.0
 40
1.0
 40
1.0
 40
1.0
 10
-178.4813
 20
-38.3688
 30
0.0
 10
-177.6974
 20
-36.5206
 30
0.0
 10
-176.1652
 20
-35.9066
 30
0.0
 10
-174.2586
 20
-37.497
 30
0.0
 10
-174.2586
 20
-37.497
 30
0.0
 10
-172.293
 20
-39.1366
 30
0.0
 10
-172.4276
 20
-40.2284
 30
0.0
 10
-174.4025
 20
-41.9104
 30
0.0
 10
-174.4025
 20
-41.9104
 30
0.0
 10
-177.1187
 20
-44.167
 30
0.0
 10
-178.991
 20
-47.2957
 30
0.0
 10
-180.5023
 20
-50.242
 30
0.0
 10
-180.5023
 20
-50.242
 30
0.0
 10
-180.064
 20
-46.4797
 30
0.0
 10
-180.0628
 20
-42.1223
 30
0.0
 10
-178.4813
 20
-38.3688
 30
0.0
  0
SPLINE
  5
E5
330
1F
100
AcDbEntity
  8
layer 1
 62
     7
100
AcDbSpline
210
0.0
220
0.0
230
1.0
 70
    11
 71
     3
 72
    20
 73
    16
 74
     0
 42
0.0000000001
 43
0.0000000001
 12
1.0
 22
0.0
 32
0.0
 13
1.0
 23
0.0
 33
0.0
 40
0.0
 40
0.0
 40
0.0
 40
0.0
 40
0.2
 40
0.2
 40
0.2
 40
0.2
 40
0.4
 40
0.4
 40
0.4
 40
0.4
 40
0.6
 40
0.6
 40
0.6
 40
0.6
 40
1.0
 40
1.0
 40
1.0
 40
1.0
 10
-179.9799
 20
-38.5115
 30
0.0
 10
-179.4833
 20
-37.4532
 30
0.0
 10
-179.1161
 20
-36.3877
 30
0.0
 10
-179.164
 20
-36.144
 30
0.0
 10
-179.164
 20
-36.144
 30
0.0
 10
-179.3512
 20
-35.1904
 30
0.0
 10
-180.6526
 20
-34.6743
 30
0.0
 10
-182.7216
 20
-34.6196
 30
0.0
 10
-182.7216
 20
-34.6196
 30
0.0
 10
-182.7216
 20
-34.6196
 30
0.0
 10
-182.7216
 20
-49.2595
 30
0.0
 10
-182.7216
 20
-49.2595
 30
0.0
 10
-182.7216
 20
-49.2595
 30
0.0
 10
-182.3702
 20
-47.0528
 30
0.0
 10
-181.5148
 20
-41.0905
 30
0.0
 10
-179.9799
 20
-38.5115
 30
0.0
  0
SPLINE
  5
E6
330
1F
100
AcDbEntity
  8
layer 1
 62
     7
100
AcDbSpline
210
0.0
220
0.0
230
1.0
 70
    11
 71
     3
 72
    12
 73
     8
 74
     0
 42
0.0000000001
 43
0.0000000001
 12
1.0
 22
0.0
 32
0.0
 13
1.0
 23
0.0
 33
0.0
 40
0.0
 40
0.0
 40
0.0
 40
0.0
 40
0.3333333333333333
 40
0.3333333333333333
 40
0.3333333333333333
 40
0.3333333333333333
 40
1.0
 40
1.0
 40
1.0
 40
1.0
 10
-162.7795
 20
-67.6496
 30
0.0
 10
-162.7795
 20
-67.6496
 30
0.0
 10
-161.1208
 20
-67.6498
 30
0.0
 10
-161.1208
 20
-67.6498
 30
0.0
 10
-161.1208
 20
-67.6498
 30
0.0
 10
-161.4233
 20
-67.1872
 30
0.0
 10
-162.5396
 20
-67.1988
 30
0.0
 10
-162.7795
 20
-67.6496
 30
0.0
  0
SPLINE
  5
E7
330
1F
100
AcDbEntity
  8
layer 1
 62
     7
100
AcDbSpline
210
0.0
220
0.0
230
1.0
 70
    11
 71
     3
 72
    20
 73
    16
 74
     0
 42
0.0000000001
 43
0.0000000001
 12
1.0
 22
0.0
 32
0.0
 13
1.0
 23
0.0
 33
0.0
 40
0.0
 40
0.0
 40
0.0
 40
0.0
 40
0.2
 40
0.2
 40
0.2
 40
0.2
 40
0.4
 40
0.4
 40
0.4
 40
0.4
 40
0.6
 40
0.6
 40
0.6
 40
0.6
 40
1.0
 40
1.0
 40
1.0
 40
1.0
 10
-154.4126
 20
-64.3627
 30
0.0
 10
-155.1965
 20
-62.5145
 30
0.0
 10
-156.7287
 20
-61.9005
 30
0.0
 10
-158.6353
 20
-63.491
 30
0.0
 10
-158.6353
 20
-63.491
 30
0.0
 10
-160.5088
 20
-65.0537
 30
0.0
 10
-160.4741
 20
-66.1187
 30
0.0
 10
-158.7569
 20
-67.6716
 30
0.0
 10
-158.7569
 20
-67.6716
 30
0.0
 10
-158.7569
 20
-67.6716
 30
0.0
 10
-153.4083
 20
-67.6464
 30
0.0
 10
-153.4083
 20
-67.6464
 30
0.0
 10
-153.4083
 20
-67.6464
 30
0.0
 10
-153.648
 20
-66.5218
 30
0.0
 10
-153.9679
 20
-65.4183
 30
0.0
 10
-154.4126
 20
-64.3627
 30
0.0
  0
SPLINE
  5
E8
330
1F
100
AcDbEntity
  8
layer 1
 62
     7
100
AcDbSpline
210
0.0
220
0.0
230
1.0
 70
    11
 71
     3
 72
    32
 73
    28
 74
     0
 42
0.0000000001
 43
0.0000000001
 12
1.0
 22
0.0
 32
0.0
 13
1.0
 23
0.0
 33
0.0
 40
0.0
 40
0.0
 40
0.0
 40
0.0
 40
0.125
 40
0.125
 40
0.125
 40
0.125
 40
0.25
 40
0.25
 40
0.25
 40
0.25
 40
0.375
 40
0.375
 40
0.375
 40
0.375
 40
0.5
 40
0.5
 40
0.5
 40
0.5
 40
0.625
 40
0.625
 40
0.625
 40
0.625
 40
0.75
 40
0.75
 40
0.75
 40
0.75
 40
1.0
 40
1.0
 40
1.0
 40
1.0
 10
-152.914
 20
-64.5054
 30
0.0
 10
-153.4106
 20
-63.4471
 30
0.0
 10
-153.7778
 20
-62.3817
 30
0.0
 10
-153.7299
 20
-62.1379
 30
0.0
 10
-153.7299
 20
-62.1379
 30
0.0
 10
-153.5427
 20
-61.1843
 30
0.0
 10
-152.2414
 20
-60.6682
 30
0.0
 10
-150.1724
 20
-60.6136
 30
0.0
 10
-150.1724
 20
-60.6136
 30
0.0
 10
-148.1034
 20
-60.6409
 30
0.0
 10
-146.802
 20
-61.1843
 30
0.0
 10
-146.6148
 20
-62.1379
 30
0.0
 10
-146.6148
 20
-62.1379
 30
0.0
 10
-146.5669
 20
-62.3817
 30
0.0
 10
-146.9341
 20
-63.447
 30
0.0
 10
-147.4308
 20
-64.5054
 30
0.0
 10
-147.4308
 20
-64.5054
 30
0.0
 10
-147.8984
 20
-65.2912
 30
0.0
 10
-148.3029
 20
-66.3911
 30
0.0
 10
-148.6494
 20
-67.6032
 30
0.0
 10
-148.6494
 20
-67.6032
 30
0.0
 10
-148.6494
 20
-67.6032
 30
0.0
 10
-151.6953
 20
-67.6032
 30
0.0
 10
-151.6953
 20
-67.6032
 30
0.0
 10
-151.6953
 20
-67.6032
 30
0.0
 10
-152.0417
 20
-66.391
 30
0.0
 10
-152.4464
 20
-65.2912
 30
0.0
 10
-152.914
 20
-64.5054
 30
0.0
  0
SPLINE
  5
E9
330
1F
100
AcDbEntity
  8
layer 1
 62
     7
100
AcDbSpline
210
0.0
220
0.0
230
1.0
 70
    11
 71
     3
 72
    24
 73
    20
 74
     0
 42
0.0000000001
 43
0.0000000001
 12
1.0
 22
0.0
 32
0.0
 13
1.0
 23
0.0
 33
0.0
 40
0.0
 40
0.0
 40
0.0
 40
0.0
 40
0.1666666666666667
 40
0.1666666666666667
 40
0.1666666666666667
 40
0.1666666666666667
 40
0.3333333333333333
 40
0.3333333333333333
 40
0.3333333333333333
 40
0.3333333333333333
 40
0.5
 40
0.5
 40
0.5
 40
0.5
 40
0.6666666666666666
 40
0.6666666666666666
 40
0.6666666666666666
 40
0.6666666666666666
 40
1.0
 40
1.0
 40
1.0
 40
1.0
 10
-55.3354
 20
-64.5054
 30
0.0
 10
-55.832
 20
-63.4471
 30
0.0
 10
-56.1992
 20
-62.3817
 30
0.0
 10
-56.1513
 20
-62.1379
 30
0.0
 10
-56.1513
 20
-62.1379
 30
0.0
 10
-55.9641
 20
-61.1843
 30
0.0
 10
-54.6628
 20
-60.6682
 30
0.0
 10
-52.5938
 20
-60.6136
 30
0.0
 10
-52.5938
 20
-60.6136
 30
0.0
 10
-52.5938
 20
-60.6136
 30
0.0
 10
-52.5938
 20
-67.6138
 30
0.0
 10
-52.5938
 20
-67.6138
 30
0.0
 10
-52.5938
 20
-67.6138
 30
0.0
 10
-52.5938
 20
-67.6138
 30
0.0
 10
-54.1167
 20
-67.6032
 30
0.0
 10
-54.1167
 20
-67.6032
 30
0.0
 10
-54.1167
 20
-67.6032
 30
0.0
 10
-54.4631
 20
-66.391
 30
0.0
 10
-54.8678
 20
-65.2912
 30
0.0
 10
-55.3354
 20
-64.5054
 30
0.0
  0
SPLINE
  5
EA
330
1F
100
AcDbEntity
  8
layer 1
 62
     7
100
AcDbSpline
210
0.0
220
0.0
230
1.0
 70
    11
 71
     3
 72
    20
 73
    16
 74
     0
 42
0.0000000001
 43
0.0000000001
 12
1.0
 22
0.0
 32
0.0
 13
1.0
 23
0.0
 33
0.0
 40
0.0
 40
0.0
 40
0.0
 40
0.0
 40
0.2
 40
0.2
 40
0.2
 40
0.2
 40
0.4
 40
0.4
 40
0.4
 40
0.4
 40
0.6
 40
0.6
 40
0.6
 40
0.6
 40
1.0
 40
1.0
 40
1.0
 40
1.0
 10
-177.7311
 20
-54.351
 30
0.0
 10
-178.7745
 20
-53.9914
 30
0.0
 10
-179.3497
 20
-54.3193
 30
0.0
 10
-180.0496
 20
-55.0093
 30
0.0
 10
-180.0496
 20
-55.0093
 30
0.0
 10
-181.0846
 20
-56.0403
 30
0.0
 10
-180.9551
 20
-57.3527
 30
0.0
 10
-179.5852
 20
-57.9431
 30
0.0
 10
-179.5852
 20
-57.9431
 30
0.0
 10
-175.1005
 20
-59.3696
 30
0.0
 10
-173.5818
 20
-61.1423
 30
0.0
 10
-171.0558
 20
-63.8771
 30
0.0
 10
-171.0558
 20
-63.8771
 30
0.0
 10
-172.1267
 20
-61.1243
 30
0.0
 10
-175.4826
 20
-55.3933
 30
0.0
 10
-177.7311
 20
-54.351
 30
0.0
  0
SPLINE
  5
EB
330
1F
100
AcDbEntity
  8
layer 1
 62
     7
100
AcDbSpline
210
0.0
220
0.0
230
1.0
 70
    11
 71
     3
 72
    20
 73
    16
 74
     0
 42
0.0000000001
 43
0.0000000001
 12
1.0
 22
0.0
 32
0.0
 13
1.0
 23
0.0
 33
0.0
 40
0.0
 40
0.0
 40
0.0
 40
0.0
 40
0.2
 40
0.2
 40
0.2
 40
0.2
 40
0.4
 40
0.4
 40
0.4
 40
0.4
 40
0.6
 40
0.6
 40
0.6
 40
0.6
 40
1.0
 40
1.0
 40
1.0
 40
1.0
 10
-170.9166
 20
-51.1162
 30
0.0
 10
-171.7005
 20
-49.268
 30
0.0
 10
-173.2327
 20
-48.654
 30
0.0
 10
-175.1394
 20
-50.2444
 30
0.0
 10
-175.1394
 20
-50.2444
 30
0.0
 10
-177.105
 20
-51.884
 30
0.0
 10
-176.9703
 20
-52.9758
 30
0.0
 10
-174.9954
 20
-54.6578
 30
0.0
 10
-174.9954
 20
-54.6578
 30
0.0
 10
-172.2793
 20
-56.9144
 30
0.0
 10
-170.4069
 20
-60.0431
 30
0.0
 10
-168.8957
 20
-62.9894
 30
0.0
 10
-168.8957
 20
-62.9894
 30
0.0
 10
-169.334
 20
-59.2271
 30
0.0
 10
-169.3352
 20
-54.8697
 30
0.0
 10
-170.9166
 20
-51.1162
 30
0.0
  0
SPLINE
  5
EC
330
1F
100
AcDbEntity
  8
layer 1
 62
     7
100
AcDbSpline
210
0.0
220
0.0
230
1.0
 70
    11
 71
     3
 72
    28
 73
    24
 74
     0
 42
0.0000000001
 43
0.0000000001
 12
1.0
 22
0.0
 32
0.0
 13
1.0
 23
0.0
 33
0.0
 40
0.0
 40
0.0
 40
0.0
 40
0.0
 40
0.1428571428571428
 40
0.1428571428571428
 40
0.1428571428571428
 40
0.1428571428571428
 40
0.2857142857142857
 40
0.2857142857142857
 40
0.2857142857142857
 40
0.2857142857142857
 40
0.4285714285714285
 40
0.4285714285714285
 40
0.4285714285714285
 40
0.4285714285714285
 40
0.5714285714285714
 40
0.5714285714285714
 40
0.5714285714285714
 40
0.5714285714285714
 40
0.7142857142857143
 40
0.7142857142857143
 40
0.7142857142857143
 40
0.7142857142857143
 40
1.0
 40
1.0
 40
1.0
 40
1.0
 10
-169.418
 20
-51.2589
 30
0.0
 10
-169.9147
 20
-50.2006
 30
0.0
 10
-170.2818
 20
-49.1351
 30
0.0
 10
-170.234
 20
-48.8914
 30
0.0
 10
-170.234
 20
-48.8914
 30
0.0
 10
-170.0468
 20
-47.9378
 30
0.0
 10
-168.7454
 20
-47.4217
 30
0.0
 10
-166.6764
 20
-47.367
 30
0.0
 10
-166.6764
 20
-47.367
 30
0.0
 10
-164.6074
 20
-47.3944
 30
0.0
 10
-163.3061
 20
-47.9378
 30
0.0
 10
-163.1188
 20
-48.8914
 30
0.0
 10
-163.1188
 20
-48.8914
 30
0.0
 10
-163.071
 20
-49.1351
 30
0.0
 10
-163.4382
 20
-50.2005
 30
0.0
 10
-163.9348
 20
-51.2589
 30
0.0
 10
-163.9348
 20
-51.2589
 30
0.0
 10
-165.4696
 20
-53.8381
 30
0.0
 10
-166.3249
 20
-59.8002
 30
0.0
 10
-166.6764
 20
-62.0069
 30
0.0
 10
-166.6764
 20
-62.0069
 30
0.0
 10
-167.0278
 20
-59.8002
 30
0.0
 10
-167.8832
 20
-53.838
 30
0.0
 10
-169.418
 20
-51.2589
 30
0.0
  0
SPLINE
  5
ED
330
1F
100
AcDbEntity
  8
layer 1
 62
     7
100
AcDbSpline
210
0.0
220
0.0
230
1.0
 70
    11
 71
     3
 72
    20
 73
    16
 74
     0
 42
0.0000000001
 43
0.0000000001
 12
1.0
 22
0.0
 32
0.0
 13
1.0
 23
0.0
 33
0.0
 40
0.0
 40
0.0
 40
0.0
 40
0.0
 40
0.2
 40
0.2
 40
0.2
 40
0.2
 40
0.4
 40
0.4
 40
0.4
 40
0.4
 40
0.6
 40
0.6
 40
0.6
 40
0.6
 40
1.0
 40
1.0
 40
1.0
 40
1.0
 10
-155.6756
 20
-54.351
 30
0.0
 10
-154.6323
 20
-53.9914
 30
0.0
 10
-154.057
 20
-54.3193
 30
0.0
 10
-153.3571
 20
-55.0093
 30
0.0
 10
-153.3571
 20
-55.0093
 30
0.0
 10
-152.3221
 20
-56.0403
 30
0.0
 10
-152.4516
 20
-57.3527
 30
0.0
 10
-153.8215
 20
-57.9431
 30
0.0
 10
-153.8215
 20
-57.9431
 30
0.0
 10
-158.3062
 20
-59.3696
 30
0.0
 10
-159.8249
 20
-61.1423
 30
0.0
 10
-162.3509
 20
-63.8771
 30
0.0
 10
-162.3509
 20
-63.8771
 30
0.0
 10
-161.28
 20
-61.1243
 30
0.0
 10
-157.9241
 20
-55.3933
 30
0.0
 10
-155.6756
 20
-54.351
 30
0.0
  0
SPLINE
  5
EE
330
1F
100
AcDbEntity
  8
layer 1
 62
     7
100
AcDbSpline
210
0.0
220
0.0
230
1.0
 70
    11
 71
     3
 72
    20
 73
    16
 74
     0
 42
0.0000000001
 43
0.0000000001
 12
1.0
 22
0.0
 32
0.0
 13
1.0
 23
0.0
 33
0.0
 40
0.0
 40
0.0
 40
0.0
 40
0.0
 40
0.2
 40
0.2
 40
0.2
 40
0.2
 40
0.4
 40
0.4
 40
0.4
 40
0.4
 40
0.6
 40
0.6
 40
0.6
 40
0.6
 40
1.0
 40
1.0
 40
1.0
 40
1.0
 10
-162.4901
 20
-51.1162
 30
0.0
 10
-161.7062
 20
-49.268
 30
0.0
 10
-160.174
 20
-48.654
 30
0.0
 10
-158.2674
 20
-50.2444
 30
0.0
 10
-158.2674
 20
-50.2444
 30
0.0
 10
-156.3017
 20
-51.884
 30
0.0
 10
-156.4364
 20
-52.9758
 30
0.0
 10
-158.4113
 20
-54.6578
 30
0.0
 10
-158.4113
 20
-54.6578
 30
0.0
 10
-161.1275
 20
-56.9144
 30
0.0
 10
-162.9998
 20
-60.0431
 30
0.0
 10
-164.5111
 20
-62.9894
 30
0.0
 10
-164.5111
 20
-62.9894
 30
0.0
 10
-164.0728
 20
-59.2271
 30
0.0
 10
-164.0715
 20
-54.8697
 30
0.0
 10
-162.4901
 20
-51.1162
 30
0.0
  0
SPLINE
  5
EF
330
1F
100
AcDbEntity
  8
layer 1
 62
     7
100
AcDbSpline
210
0.0
220
0.0
230
1.0
 70
    11
 71
     3
 72
    20
 73
    16
 74
     0
 42
0.0000000001
 43
0.0000000001
 12
1.0
 22
0.0
 32
0.0
 13
1.0
 23
0.0
 33
0.0
 40
0.0
 40
0.0
 40
0.0
 40
0.0
 40
0.2
 40
0.2
 40
0.2
 40
0.2
 40
0.4
 40
0.4
 40
0.4
 40
0.4
 40
0.6
 40
0.6
 40
0.6
 40
0.6
 40
1.0
 40
1.0
 40
1.0
 40
1.0
 10
-145.0835
 20
-54.351
 30
0.0
 10
-146.1269
 20
-53.9914
 30
0.0
 10
-146.7021
 20
-54.3193
 30
0.0
 10
-147.402
 20
-55.0093
 30
0.0
 10
-147.402
 20
-55.0093
 30
0.0
 10
-148.437
 20
-56.0403
 30
0.0
 10
-148.3075
 20
-57.3527
 30
0.0
 10
-146.9376
 20
-57.9431
 30
0.0
 10
-146.9376
 20
-57.9431
 30
0.0
 10
-142.4529
 20
-59.3696
 30
0.0
 10
-140.9342
 20
-61.1423
 30
0.0
 10
-138.4082
 20
-63.8771
 30
0.0
 10
-138.4082
 20
-63.8771
 30
0.0
 10
-139.4791
 20
-61.1243
 30
0.0
 10
-142.835
 20
-55.3933
 30
0.0
 10
-145.0835
 20
-54.351
 30
0.0
  0
SPLINE
  5
F0
330
1F
100
AcDbEntity
  8
layer 1
 62
     7
100
AcDbSpline
210
0.0
220
0.0
230
1.0
 70
    11
 71
     3
 72
    20
 73
    16
 74
     0
 42
0.0000000001
 43
0.0000000001
 12
1.0
 22
0.0
 32
0.0
 13
1.0
 23
0.0
 33
0.0
 40
0.0
 40
0.0
 40
0.0
 40
0.0
 40
0.2
 40
0.2
 40
0.2
 40
0.2
 40
0.4
 40
0.4
 40
0.4
 40
0.4
 40
0.6
 40
0.6
 40
0.6
 40
0.6
 40
1.0
 40
1.0
 40
1.0
 40
1.0
 10
-138.269
 20
-51.1162
 30
0.0
 10
-139.0529
 20
-49.268
 30
0.0
 10
-140.5851
 20
-48.654
 30
0.0
 10
-142.4917
 20
-50.2444
 30
0.0
 10
-142.4917
 20
-50.2444
 30
0.0
 10
-144.4574
 20
-51.884
 30
0.0
 10
-144.3227
 20
-52.9758
 30
0.0
 10
-142.3478
 20
-54.6578
 30
0.0
 10
-142.3478
 20
-54.6578
 30
0.0
 10
-139.6316
 20
-56.9144
 30
0.0
 10
-137.7593
 20
-60.0431
 30
0.0
 10
-136.248
 20
-62.9894
 30
0.0
 10
-136.248
 20
-62.9894
 30
0.0
 10
-136.6863
 20
-59.2271
 30
0.0
 10
-136.6876
 20
-54.8697
 30
0.0
 10
-138.269
 20
-51.1162
 30
0.0
  0
SPLINE
  5
F1
330
1F
100
AcDbEntity
  8
layer 1
 62
     7
100
AcDbSpline
210
0.0
220
0.0
230
1.0
 70
    11
 71
     3
 72
    28
 73
    24
 74
     0
 42
0.0000000001
 43
0.0000000001
 12
1.0
 22
0.0
 32
0.0
 13
1.0
 23
0.0
 33
0.0
 40
0.0
 40
0.0
 40
0.0
 40
0.0
 40
0.1428571428571428
 40
0.1428571428571428
 40
0.1428571428571428
 40
0.1428571428571428
 40
0.2857142857142857
 40
0.2857142857142857
 40
0.2857142857142857
 40
0.2857142857142857
 40
0.4285714285714285
 40
0.4285714285714285
 40
0.4285714285714285
 40
0.4285714285714285
 40
0.5714285714285714
 40
0.5714285714285714
 40
0.5714285714285714
 40
0.5714285714285714
 40
0.7142857142857143
 40
0.7142857142857143
 40
0.7142857142857143
 40
0.7142857142857143
 40
1.0
 40
1.0
 40
1.0
 40
1.0
 10
-136.7704
 20
-51.2589
 30
0.0
 10
-137.267
 20
-50.2006
 30
0.0
 10
-137.6342
 20
-49.1351
 30
0.0
 10
-137.5864
 20
-48.8914
 30
0.0
 10
-137.5864
 20
-48.8914
 30
0.0
 10
-137.3991
 20
-47.9378
 30
0.0
 10
-136.0978
 20
-47.4217
 30
0.0
 10
-134.0288
 20
-47.367
 30
0.0
 10
-134.0288
 20
-47.367
 30
0.0
 10
-131.9598
 20
-47.3944
 30
0.0
 10
-130.6584
 20
-47.9378
 30
0.0
 10
-130.4712
 20
-48.8914
 30
0.0
 10
-130.4712
 20
-48.8914
 30
0.0
 10
-130.4234
 20
-49.1351
 30
0.0
 10
-130.7905
 20
-50.2005
 30
0.0
 10
-131.2872
 20
-51.2589
 30
0.0
 10
-131.2872
 20
-51.2589
 30
0.0
 10
-132.822
 20
-53.8381
 30
0.0
 10
-133.6773
 20
-59.8002
 30
0.0
 10
-134.0288
 20
-62.0069
 30
0.0
 10
-134.0288
 20
-62.0069
 30
0.0
 10
-134.3802
 20
-59.8002
 30
0.0
 10
-135.2356
 20
-53.838
 30
0.0
 10
-136.7704
 20
-51.2589
 30
0.0
  0
SPLINE
  5
F2
330
1F
100
AcDbEntity
  8
layer 1
 62
     7
100
AcDbSpline
210
0.0
220
0.0
230
1.0
 70
    11
 71
     3
 72
    20
 73
    16
 74
     0
 42
0.0000000001
 43
0.0000000001
 12
1.0
 22
0.0
 32
0.0
 13
1.0
 23
0.0
 33
0.0
 40
0.0
 40
0.0
 40
0.0
 40
0.0
 40
0.2
 40
0.2
 40
0.2
 40
0.2
 40
0.4
 40
0.4
 40
0.4
 40
0.4
 40
0.6
 40
0.6
 40
0.6
 40
0.6
 40
1.0
 40
1.0
 40
1.0
 40
1.0
 10
-123.028
 20
-54.351
 30
0.0
 10
-121.9846
 20
-53.9914
 30
0.0
 10
-121.4094
 20
-54.3193
 30
0.0
 10
-120.7095
 20
-55.0093
 30
0.0
 10
-120.7095
 20
-55.0093
 30
0.0
 10
-119.6745
 20
-56.0403
 30
0.0
 10
-119.804
 20
-57.3527
 30
0.0
 10
-121.1739
 20
-57.9431
 30
0.0
 10
-121.1739
 20
-57.9431
 30
0.0
 10
-125.6586
 20
-59.3696
 30
0.0
 10
-127.1773
 20
-61.1423
 30
0.0
 10
-129.7033
 20
-63.8771
 30
0.0
 10
-129.7033
 20
-63.8771
 30
0.0
 10
-128.6324
 20
-61.1243
 30
0.0
 10
-125.2765
 20
-55.3933
 30
0.0
 10
-123.028
 20
-54.351
 30
0.0
  0
SPLINE
  5
F3
330
1F
100
AcDbEntity
  8
layer 1
 62
     7
100
AcDbSpline
210
0.0
220
0.0
230
1.0
 70
    11
 71
     3
 72
    20
 73
    16
 74
     0
 42
0.0000000001
 43
0.0000000001
 12
1.0
 22
0.0
 32
0.0
 13
1.0
 23
0.0
 33
0.0
 40
0.0
 40
0.0
 40
0.0
 40
0.0
 40
0.2
 40
0.2
 40
0.2
 40
0.2
 40
0.4
 40
0.4
 40
0.4
 40
0.4
 40
0.6
 40
0.6
 40
0.6
 40
0.6
 40
1.0
 40
1.0
 40
1.0
 40
1.0
 10
-129.8425
 20
-51.1162
 30
0.0
 10
-129.0586
 20
-49.268
 30
0.0
 10
-127.5264
 20
-48.654
 30
0.0
 10
-125.6198
 20
-50.2444
 30
0.0
 10
-125.6198
 20
-50.2444
 30
0.0
 10
-123.6541
 20
-51.884
 30
0.0
 10
-123.7888
 20
-52.9758
 30
0.0
 10
-125.7637
 20
-54.6578
 30
0.0
 10
-125.7637
 20
-54.6578
 30
0.0
 10
-128.4798
 20
-56.9144
 30
0.0
 10
-130.3522
 20
-60.0431
 30
0.0
 10
-131.8634
 20
-62.9894
 30
0.0
 10
-131.8634
 20
-62.9894
 30
0.0
 10
-131.4251
 20
-59.2271
 30
0.0
 10
-131.4239
 20
-54.8697
 30
0.0
 10
-129.8425
 20
-51.1162
 30
0.0
  0
SPLINE
  5
F4
330
1F
100
AcDbEntity
  8
layer 1
 62
     7
100
AcDbSpline
210
0.0
220
0.0
230
1.0
 70
    11
 71
     3
 72
    20
 73
    16
 74
     0
 42
0.0000000001
 43
0.0000000001
 12
1.0
 22
0.0
 32
0.0
 13
1.0
 23
0.0
 33
0.0
 40
0.0
 40
0.0
 40
0.0
 40
0.0
 40
0.2
 40
0.2
 40
0.2
 40
0.2
 40
0.4
 40
0.4
 40
0.4
 40
0.4
 40
0.6
 40
0.6
 40
0.6
 40
0.6
 40
1.0
 40
1.0
 40
1.0
 40
1.0
 10
-112.4358
 20
-54.351
 30
0.0
 10
-113.4792
 20
-53.9914
 30
0.0
 10
-114.0544
 20
-54.3193
 30
0.0
 10
-114.7544
 20
-55.0093
 30
0.0
 10
-114.7544
 20
-55.0093
 30
0.0
 10
-115.7894
 20
-56.0403
 30
0.0
 10
-115.6599
 20
-57.3527
 30
0.0
 10
-114.29
 20
-57.9431
 30
0.0
 10
-114.29
 20
-57.9431
 30
0.0
 10
-109.8052
 20
-59.3696
 30
0.0
 10
-108.2866
 20
-61.1423
 30
0.0
 10
-105.7606
 20
-63.8771
 30
0.0
 10
-105.7606
 20
-63.8771
 30
0.0
 10
-106.8315
 20
-61.1243
 30
0.0
 10
-110.1874
 20
-55.3933
 30
0.0
 10
-112.4358
 20
-54.351
 30
0.0
  0
SPLINE
  5
F5
330
1F
100
AcDbEntity
  8
layer 1
 62
     7
100
AcDbSpline
210
0.0
220
0.0
230
1.0
 70
    11
 71
     3
 72
    20
 73
    16
 74
     0
 42
0.0000000001
 43
0.0000000001
 12
1.0
 22
0.0
 32
0.0
 13
1.0
 23
0.0
 33
0.0
 40
0.0
 40
0.0
 40
0.0
 40
0.0
 40
0.2
 40
0.2
 40
0.2
 40
0.2
 40
0.4
 40
0.4
 40
0.4
 40
0.4
 40
0.6
 40
0.6
 40
0.6
 40
0.6
 40
1.0
 40
1.0
 40
1.0
 40
1.0
 10
-105.6214
 20
-51.1162
 30
0.0
 10
-106.4053
 20
-49.268
 30
0.0
 10
-107.9375
 20
-48.654
 30
0.0
 10
-109.8441
 20
-50.2444
 30
0.0
 10
-109.8441
 20
-50.2444
 30
0.0
 10
-111.8098
 20
-51.884
 30
0.0
 10
-111.6751
 20
-52.9758
 30
0.0
 10
-109.7002
 20
-54.6578
 30
0.0
 10
-109.7002
 20
-54.6578
 30
0.0
 10
-106.984
 20
-56.9144
 30
0.0
 10
-105.1117
 20
-60.0431
 30
0.0
 10
-103.6004
 20
-62.9894
 30
0.0
 10
-103.6004
 20
-62.9894
 30
0.0
 10
-104.0387
 20
-59.2271
 30
0.0
 10
-104.0399
 20
-54.8697
 30
0.0
 10
-105.6214
 20
-51.1162
 30
0.0
  0
SPLINE
  5
F6
330
1F
100
AcDbEntity
  8
layer 1
 62
     7
100
AcDbSpline
210
0.0
220
0.0
230
1.0
 70
    11
 71
     3
 72
    28
 73
    24
 74
     0
 42
0.0000000001
 43
0.0000000001
 12
1.0
 22
0.0
 32
0.0
 13
1.0
 23
0.0
 33
0.0
 40
0.0
 40
0.0
 40
0.0
 40
0.0
 40
0.1428571428571428
 40
0.1428571428571428
 40
0.1428571428571428
 40
0.1428571428571428
 40
0.2857142857142857
 40
0.2857142857142857
 40
0.2857142857142857
 40
0.2857142857142857
 40
0.4285714285714285
 40
0.4285714285714285
 40
0.4285714285714285
 40
0.4285714285714285
 40
0.5714285714285714
 40
0.5714285714285714
 40
0.5714285714285714
 40
0.5714285714285714
 40
0.7142857142857143
 40
0.7142857142857143
 40
0.7142857142857143
 40
0.7142857142857143
 40
1.0
 40
1.0
 40
1.0
 40
1.0
 10
-104.1228
 20
-51.2589
 30
0.0
 10
-104.6194
 20
-50.2006
 30
0.0
 10
-104.9866
 20
-49.1351
 30
0.0
 10
-104.9388
 20
-48.8914
 30
0.0
 10
-104.9388
 20
-48.8914
 30
0.0
 10
-104.7515
 20
-47.9378
 30
0.0
 10
-103.4502
 20
-47.4217
 30
0.0
 10
-101.3812
 20
-47.367
 30
0.0
 10
-101.3812
 20
-47.367
 30
0.0
 10
-99.3122
 20
-47.3944
 30
0.0
 10
-98.0108
 20
-47.9378
 30
0.0
 10
-97.8236
 20
-48.8914
 30
0.0
 10
-97.8236
 20
-48.8914
 30
0.0
 10
-97.7757
 20
-49.1351
 30
0.0
 10
-98.1429
 20
-50.2005
 30
0.0
 10
-98.6396
 20
-51.2589
 30
0.0
 10
-98.6396
 20
-51.2589
 30
0.0
 10
-100.1744
 20
-53.8381
 30
0.0
 10
-101.0297
 20
-59.8002
 30
0.0
 10
-101.3812
 20
-62.0069
 30
0.0
 10
-101.3812
 20
-62.0069
 30
0.0
 10
-101.7326
 20
-59.8002
 30
0.0
 10
-102.588
 20
-53.838
 30
0.0
 10
-104.1228
 20
-51.2589
 30
0.0
  0
SPLINE
  5
F7
330
1F
100
AcDbEntity
  8
layer 1
 62
     7
100
AcDbSpline
210
0.0
220
0.0
230
1.0
 70
    11
 71
     3
 72
    20
 73
    16
 74
     0
 42
0.0000000001
 43
0.0000000001
 12
1.0
 22
0.0
 32
0.0
 13
1.0
 23
0.0
 33
0.0
 40
0.0
 40
0.0
 40
0.0
 40
0.0
 40
0.2
 40
0.2
 40
0.2
 40
0.2
 40
0.4
 40
0.4
 40
0.4
 40
0.4
 40
0.6
 40
0.6
 40
0.6
 40
0.6
 40
1.0
 40
1.0
 40
1.0
 40
1.0
 10
-90.3804
 20
-54.351
 30
0.0
 10
-89.337
 20
-53.9914
 30
0.0
 10
-88.7618
 20
-54.3193
 30
0.0
 10
-88.0619
 20
-55.0093
 30
0.0
 10
-88.0619
 20
-55.0093
 30
0.0
 10
-87.0269
 20
-56.0403
 30
0.0
 10
-87.1563
 20
-57.3527
 30
0.0
 10
-88.5262
 20
-57.9431
 30
0.0
 10
-88.5262
 20
-57.9431
 30
0.0
 10
-93.011
 20
-59.3696
 30
0.0
 10
-94.5296
 20
-61.1423
 30
0.0
 10
-97.0557
 20
-63.8771
 30
0.0
 10
-97.0557
 20
-63.8771
 30
0.0
 10
-95.9848
 20
-61.1243
 30
0.0
 10
-92.6289
 20
-55.3933
 30
0.0
 10
-90.3804
 20
-54.351
 30
0.0
  0
SPLINE
  5
F8
330
1F
100
AcDbEntity
  8
layer 1
 62
     7
100
AcDbSpline
210
0.0
220
0.0
230
1.0
 70
    11
 71
     3
 72
    20
 73
    16
 74
     0
 42
0.0000000001
 43
0.0000000001
 12
1.0
 22
0.0
 32
0.0
 13
1.0
 23
0.0
 33
0.0
 40
0.0
 40
0.0
 40
0.0
 40
0.0
 40
0.2
 40
0.2
 40
0.2
 40
0.2
 40
0.4
 40
0.4
 40
0.4
 40
0.4
 40
0.6
 40
0.6
 40
0.6
 40
0.6
 40
1.0
 40
1.0
 40
1.0
 40
1.0
 10
-97.1949
 20
-51.1162
 30
0.0
 10
-96.4109
 20
-49.268
 30
0.0
 10
-94.8788
 20
-48.654
 30
0.0
 10
-92.9721
 20
-50.2444
 30
0.0
 10
-92.9721
 20
-50.2444
 30
0.0
 10
-91.0065
 20
-51.884
 30
0.0
 10
-91.1411
 20
-52.9758
 30
0.0
 10
-93.1161
 20
-54.6578
 30
0.0
 10
-93.1161
 20
-54.6578
 30
0.0
 10
-95.8322
 20
-56.9144
 30
0.0
 10
-97.7045
 20
-60.0431
 30
0.0
 10
-99.2158
 20
-62.9894
 30
0.0
 10
-99.2158
 20
-62.9894
 30
0.0
 10
-98.7775
 20
-59.2271
 30
0.0
 10
-98.7763
 20
-54.8697
 30
0.0
 10
-97.1949
 20
-51.1162
 30
0.0
  0
SPLINE
  5
F9
330
1F
100
AcDbEntity
  8
layer 1
 62
     7
100
AcDbSpline
210
0.0
220
0.0
230
1.0
 70
    11
 71
     3
 72
    20
 73
    16
 74
     0
 42
0.0000000001
 43
0.0000000001
 12
1.0
 22
0.0
 32
0.0
 13
1.0
 23
0.0
 33
0.0
 40
0.0
 40
0.0
 40
0.0
 40
0.0
 40
0.2
 40
0.2
 40
0.2
 40
0.2
 40
0.4
 40
0.4
 40
0.4
 40
0.4
 40
0.6
 40
0.6
 40
0.6
 40
0.6
 40
1.0
 40
1.0
 40
1.0
 40
1.0
 10
-79.7882
 20
-54.351
 30
0.0
 10
-80.8316
 20
-53.9914
 30
0.0
 10
-81.4068
 20
-54.3193
 30
0.0
 10
-82.1068
 20
-55.0093
 30
0.0
 10
-82.1068
 20
-55.0093
 30
0.0
 10
-83.1417
 20
-56.0403
 30
0.0
 10
-83.0123
 20
-57.3527
 30
0.0
 10
-81.6424
 20
-57.9431
 30
0.0
 10
-81.6424
 20
-57.9431
 30
0.0
 10
-77.1576
 20
-59.3696
 30
0.0
 10
-75.639
 20
-61.1423
 30
0.0
 10
-73.113
 20
-63.8771
 30
0.0
 10
-73.113
 20
-63.8771
 30
0.0
 10
-74.1839
 20
-61.1243
 30
0.0
 10
-77.5398
 20
-55.3933
 30
0.0
 10
-79.7882
 20
-54.351
 30
0.0
  0
SPLINE
  5
FA
330
1F
100
AcDbEntity
  8
layer 1
 62
     7
100
AcDbSpline
210
0.0
220
0.0
230
1.0
 70
    11
 71
     3
 72
    20
 73
    16
 74
     0
 42
0.0000000001
 43
0.0000000001
 12
1.0
 22
0.0
 32
0.0
 13
1.0
 23
0.0
 33
0.0
 40
0.0
 40
0.0
 40
0.0
 40
0.0
 40
0.2
 40
0.2
 40
0.2
 40
0.2
 40
0.4
 40
0.4
 40
0.4
 40
0.4
 40
0.6
 40
0.6
 40
0.6
 40
0.6
 40
1.0
 40
1.0
 40
1.0
 40
1.0
 10
-72.9738
 20
-51.1162
 30
0.0
 10
-73.7577
 20
-49.268
 30
0.0
 10
-75.2899
 20
-48.654
 30
0.0
 10
-77.1965
 20
-50.2444
 30
0.0
 10
-77.1965
 20
-50.2444
 30
0.0
 10
-79.1621
 20
-51.884
 30
0.0
 10
-79.0275
 20
-52.9758
 30
0.0
 10
-77.0526
 20
-54.6578
 30
0.0
 10
-77.0526
 20
-54.6578
 30
0.0
 10
-74.3364
 20
-56.9144
 30
0.0
 10
-72.4641
 20
-60.0431
 30
0.0
 10
-70.9528
 20
-62.9894
 30
0.0
 10
-70.9528
 20
-62.9894
 30
0.0
 10
-71.3911
 20
-59.2271
 30
0.0
 10
-71.3923
 20
-54.8697
 30
0.0
 10
-72.9738
 20
-51.1162
 30
0.0
  0
SPLINE
  5
FB
330
1F
100
AcDbEntity
  8
layer 1
 62
     7
100
AcDbSpline
210
0.0
220
0.0
230
1.0
 70
    11
 71
     3
 72
    28
 73
    24
 74
     0
 42
0.0000000001
 43
0.0000000001
 12
1.0
 22
0.0
 32
0.0
 13
1.0
 23
0.0
 33
0.0
 40
0.0
 40
0.0
 40
0.0
 40
0.0
 40
0.1428571428571428
 40
0.1428571428571428
 40
0.1428571428571428
 40
0.1428571428571428
 40
0.2857142857142857
 40
0.2857142857142857
 40
0.2857142857142857
 40
0.2857142857142857
 40
0.4285714285714285
 40
0.4285714285714285
 40
0.4285714285714285
 40
0.4285714285714285
 40
0.5714285714285714
 40
0.5714285714285714
 40
0.5714285714285714
 40
0.5714285714285714
 40
0.7142857142857143
 40
0.7142857142857143
 40
0.7142857142857143
 40
0.7142857142857143
 40
1.0
 40
1.0
 40
1.0
 40
1.0
 10
-71.4752
 20
-51.2589
 30
0.0
 10
-71.9718
 20
-50.2006
 30
0.0
 10
-72.339
 20
-49.1351
 30
0.0
 10
-72.2911
 20
-48.8914
 30
0.0
 10
-72.2911
 20
-48.8914
 30
0.0
 10
-72.1039
 20
-47.9378
 30
0.0
 10
-70.8026
 20
-47.4217
 30
0.0
 10
-68.7336
 20
-47.367
 30
0.0
 10
-68.7336
 20
-47.367
 30
0.0
 10
-66.6646
 20
-47.3944
 30
0.0
 10
-65.3632
 20
-47.9378
 30
0.0
 10
-65.176
 20
-48.8914
 30
0.0
 10
-65.176
 20
-48.8914
 30
0.0
 10
-65.1281
 20
-49.1351
 30
0.0
 10
-65.4953
 20
-50.2005
 30
0.0
 10
-65.9919
 20
-51.2589
 30
0.0
 10
-65.9919
 20
-51.2589
 30
0.0
 10
-67.5268
 20
-53.8381
 30
0.0
 10
-68.3821
 20
-59.8002
 30
0.0
 10
-68.7336
 20
-62.0069
 30
0.0
 10
-68.7336
 20
-62.0069
 30
0.0
 10
-69.0849
 20
-59.8002
 30
0.0
 10
-69.9403
 20
-53.838
 30
0.0
 10
-71.4752
 20
-51.2589
 30
0.0
  0
SPLINE
  5
FC
330
1F
100
AcDbEntity
  8
layer 1
 62
     7
100
AcDbSpline
210
0.0
220
0.0
230
1.0
 70
    11
 71
     3
 72
    20
 73
    16
 74
     0
 42
0.0000000001
 43
0.0000000001
 12
1.0
 22
0.0
 32
0.0
 13
1.0
 23
0.0
 33
0.0
 40
0.0
 40
0.0
 40
0.0
 40
0.0
 40
0.2
 40
0.2
 40
0.2
 40
0.2
 40
0.4
 40
0.4
 40
0.4
 40
0.4
 40
0.6
 40
0.6
 40
0.6
 40
0.6
 40
1.0
 40
1.0
 40
1.0
 40
1.0
 10
-57.7328
 20
-54.351
 30
0.0
 10
-56.6894
 20
-53.9914
 30
0.0
 10
-56.1142
 20
-54.3193
 30
0.0
 10
-55.4142
 20
-55.0093
 30
0.0
 10
-55.4142
 20
-55.0093
 30
0.0
 10
-54.3793
 20
-56.0403
 30
0.0
 10
-54.5087
 20
-57.3527
 30
0.0
 10
-55.8786
 20
-57.9431
 30
0.0
 10
-55.8786
 20
-57.9431
 30
0.0
 10
-60.3634
 20
-59.3696
 30
0.0
 10
-61.882
 20
-61.1423
 30
0.0
 10
-64.408
 20
-63.8771
 30
0.0
 10
-64.408
 20
-63.8771
 30
0.0
 10
-63.3371
 20
-61.1243
 30
0.0
 10
-59.9813
 20
-55.3933
 30
0.0
 10
-57.7328
 20
-54.351
 30
0.0
  0
SPLINE
  5
FD
330
1F
100
AcDbEntity
  8
layer 1
 62
     7
100
AcDbSpline
210
0.0
220
0.0
230
1.0
 70
    11
 71
     3
 72
    20
 73
    16
 74
     0
 42
0.0000000001
 43
0.0000000001
 12
1.0
 22
0.0
 32
0.0
 13
1.0
 23
0.0
 33
0.0
 40
0.0
 40
0.0
 40
0.0
 40
0.0
 40
0.2
 40
0.2
 40
0.2
 40
0.2
 40
0.4
 40
0.4
 40
0.4
 40
0.4
 40
0.6
 40
0.6
 40
0.6
 40
0.6
 40
1.0
 40
1.0
 40
1.0
 40
1.0
 10
-64.5472
 20
-51.1162
 30
0.0
 10
-63.7633
 20
-49.268
 30
0.0
 10
-62.2311
 20
-48.654
 30
0.0
 10
-60.3245
 20
-50.2444
 30
0.0
 10
-60.3245
 20
-50.2444
 30
0.0
 10
-58.3589
 20
-51.884
 30
0.0
 10
-58.4935
 20
-52.9758
 30
0.0
 10
-60.4684
 20
-54.6578
 30
0.0
 10
-60.4684
 20
-54.6578
 30
0.0
 10
-63.1846
 20
-56.9144
 30
0.0
 10
-65.0569
 20
-60.0431
 30
0.0
 10
-66.5682
 20
-62.9894
 30
0.0
 10
-66.5682
 20
-62.9894
 30
0.0
 10
-66.1299
 20
-59.2271
 30
0.0
 10
-66.1287
 20
-54.8697
 30
0.0
 10
-64.5472
 20
-51.1162
 30
0.0
  0
SPLINE
  5
FE
330
1F
100
AcDbEntity
  8
layer 1
 62
     7
100
AcDbSpline
210
0.0
220
0.0
230
1.0
 70
    11
 71
     3
 72
    12
 73
     8
 74
     0
 42
0.0000000001
 43
0.0000000001
 12
1.0
 22
0.0
 32
0.0
 13
1.0
 23
0.0
 33
0.0
 40
0.0
 40
0.0
 40
0.0
 40
0.0
 40
0.3333333333333333
 40
0.3333333333333333
 40
0.3333333333333333
 40
0.3333333333333333
 40
1.0
 40
1.0
 40
1.0
 40
1.0
 10
-137.6063
 20
-67.6496
 30
0.0
 10
-137.6063
 20
-67.6496
 30
0.0
 10
-139.265
 20
-67.6498
 30
0.0
 10
-139.265
 20
-67.6498
 30
0.0
 10
-139.265
 20
-67.6498
 30
0.0
 10
-138.9625
 20
-67.1872
 30
0.0
 10
-137.8462
 20
-67.1988
 30
0.0
 10
-137.6063
 20
-67.6496
 30
0.0
  0
SPLINE
  5
FF
330
1F
100
AcDbEntity
  8
layer 1
 62
     7
100
AcDbSpline
210
0.0
220
0.0
230
1.0
 70
    11
 71
     3
 72
    20
 73
    16
 74
     0
 42
0.0000000001
 43
0.0000000001
 12
1.0
 22
0.0
 32
0.0
 13
1.0
 23
0.0
 33
0.0
 40
0.0
 40
0.0
 40
0.0
 40
0.0
 40
0.2
 40
0.2
 40
0.2
 40
0.2
 40
0.4
 40
0.4
 40
0.4
 40
0.4
 40
0.6
 40
0.6
 40
0.6
 40
0.6
 40
1.0
 40
1.0
 40
1.0
 40
1.0
 10
-145.9732
 20
-64.3627
 30
0.0
 10
-145.1893
 20
-62.5145
 30
0.0
 10
-143.6571
 20
-61.9005
 30
0.0
 10
-141.7505
 20
-63.491
 30
0.0
 10
-141.7505
 20
-63.491
 30
0.0
 10
-139.877
 20
-65.0537
 30
0.0
 10
-139.9116
 20
-66.1187
 30
0.0
 10
-141.6289
 20
-67.6716
 30
0.0
 10
-141.6289
 20
-67.6716
 30
0.0
 10
-141.6289
 20
-67.6716
 30
0.0
 10
-146.9774
 20
-67.6464
 30
0.0
 10
-146.9774
 20
-67.6464
 30
0.0
 10
-146.9774
 20
-67.6464
 30
0.0
 10
-146.7378
 20
-66.5218
 30
0.0
 10
-146.4179
 20
-65.4183
 30
0.0
 10
-145.9732
 20
-64.3627
 30
0.0
  0
SPLINE
  5
100
330
1F
100
AcDbEntity
  8
layer 1
 62
     7
100
AcDbSpline
210
0.0
220
0.0
230
1.0
 70
    11
 71
     3
 72
    12
 73
     8
 74
     0
 42
0.0000000001
 43
0.0000000001
 12
1.0
 22
0.0
 32
0.0
 13
1.0
 23
0.0
 33
0.0
 40
0.0
 40
0.0
 40
0.0
 40
0.0
 40
0.3333333333333333
 40
0.3333333333333333
 40
0.3333333333333333
 40
0.3333333333333333
 40
1.0
 40
1.0
 40
1.0
 40
1.0
 10
-130.392
 20
-67.6496
 30
0.0
 10
-130.392
 20
-67.6496
 30
0.0
 10
-128.7333
 20
-67.6498
 30
0.0
 10
-128.7333
 20
-67.6498
 30
0.0
 10
-128.7333
 20
-67.6498
 30
0.0
 10
-129.0358
 20
-67.1872
 30
0.0
 10
-130.1521
 20
-67.1988
 30
0.0
 10
-130.392
 20
-67.6496
 30
0.0
  0
SPLINE
  5
101
330
1F
100
AcDbEntity
  8
layer 1
 62
     7
100
AcDbSpline
210
0.0
220
0.0
230
1.0
 70
    11
 71
     3
 72
    20
 73
    16
 74
     0
 42
0.0000000001
 43
0.0000000001
 12
1.0
 22
0.0
 32
0.0
 13
1.0
 23
0.0
 33
0.0
 40
0.0
 40
0.0
 40
0.0
 40
0.0
 40
0.2
 40
0.2
 40
0.2
 40
0.2
 40
0.4
 40
0.4
 40
0.4
 40
0.4
 40
0.6
 40
0.6
 40
0.6
 40
0.6
 40
1.0
 40
1.0
 40
1.0
 40
1.0
 10
-122.0251
 20
-64.3627
 30
0.0
 10
-122.809
 20
-62.5145
 30
0.0
 10
-124.3412
 20
-61.9005
 30
0.0
 10
-126.2478
 20
-63.491
 30
0.0
 10
-126.2478
 20
-63.491
 30
0.0
 10
-128.1213
 20
-65.0537
 30
0.0
 10
-128.0867
 20
-66.1187
 30
0.0
 10
-126.3694
 20
-67.6716
 30
0.0
 10
-126.3694
 20
-67.6716
 30
0.0
 10
-126.3694
 20
-67.6716
 30
0.0
 10
-121.0209
 20
-67.6464
 30
0.0
 10
-121.0209
 20
-67.6464
 30
0.0
 10
-121.0209
 20
-67.6464
 30
0.0
 10
-121.2605
 20
-66.5218
 30
0.0
 10
-121.5804
 20
-65.4183
 30
0.0
 10
-122.0251
 20
-64.3627
 30
0.0
  0
SPLINE
  5
102
330
1F
100
AcDbEntity
  8
layer 1
 62
     7
100
AcDbSpline
210
0.0
220
0.0
230
1.0
 70
    11
 71
     3
 72
    32
 73
    28
 74
     0
 42
0.0000000001
 43
0.0000000001
 12
1.0
 22
0.0
 32
0.0
 13
1.0
 23
0.0
 33
0.0
 40
0.0
 40
0.0
 40
0.0
 40
0.0
 40
0.125
 40
0.125
 40
0.125
 40
0.125
 40
0.25
 40
0.25
 40
0.25
 40
0.25
 40
0.375
 40
0.375
 40
0.375
 40
0.375
 40
0.5
 40
0.5
 40
0.5
 40
0.5
 40
0.625
 40
0.625
 40
0.625
 40
0.625
 40
0.75
 40
0.75
 40
0.75
 40
0.75
 40
1.0
 40
1.0
 40
1.0
 40
1.0
 10
-120.5265
 20
-64.5054
 30
0.0
 10
-121.0231
 20
-63.4471
 30
0.0
 10
-121.3903
 20
-62.3817
 30
0.0
 10
-121.3425
 20
-62.1379
 30
0.0
 10
-121.3425
 20
-62.1379
 30
0.0
 10
-121.1552
 20
-61.1843
 30
0.0
 10
-119.8539
 20
-60.6682
 30
0.0
 10
-117.7849
 20
-60.6136
 30
0.0
 10
-117.7849
 20
-60.6136
 30
0.0
 10
-115.7159
 20
-60.6409
 30
0.0
 10
-114.4145
 20
-61.1843
 30
0.0
 10
-114.2273
 20
-62.1379
 30
0.0
 10
-114.2273
 20
-62.1379
 30
0.0
 10
-114.1795
 20
-62.3817
 30
0.0
 10
-114.5466
 20
-63.447
 30
0.0
 10
-115.0433
 20
-64.5054
 30
0.0
 10
-115.0433
 20
-64.5054
 30
0.0
 10
-115.5109
 20
-65.2912
 30
0.0
 10
-115.9154
 20
-66.3911
 30
0.0
 10
-116.2619
 20
-67.6032
 30
0.0
 10
-116.2619
 20
-67.6032
 30
0.0
 10
-116.2619
 20
-67.6032
 30
0.0
 10
-119.3078
 20
-67.6032
 30
0.0
 10
-119.3078
 20
-67.6032
 30
0.0
 10
-119.3078
 20
-67.6032
 30
0.0
 10
-119.6543
 20
-66.391
 30
0.0
 10
-120.0589
 20
-65.2912
 30
0.0
 10
-120.5265
 20
-64.5054
 30
0.0
  0
SPLINE
  5
103
330
1F
100
AcDbEntity
  8
layer 1
 62
     7
100
AcDbSpline
210
0.0
220
0.0
230
1.0
 70
    11
 71
     3
 72
    12
 73
     8
 74
     0
 42
0.0000000001
 43
0.0000000001
 12
1.0
 22
0.0
 32
0.0
 13
1.0
 23
0.0
 33
0.0
 40
0.0
 40
0.0
 40
0.0
 40
0.0
 40
0.3333333333333333
 40
0.3333333333333333
 40
0.3333333333333333
 40
0.3333333333333333
 40
1.0
 40
1.0
 40
1.0
 40
1.0
 10
-105.2188
 20
-67.6496
 30
0.0
 10
-105.2188
 20
-67.6496
 30
0.0
 10
-106.8775
 20
-67.6498
 30
0.0
 10
-106.8775
 20
-67.6498
 30
0.0
 10
-106.8775
 20
-67.6498
 30
0.0
 10
-106.575
 20
-67.1872
 30
0.0
 10
-105.4587
 20
-67.1988
 30
0.0
 10
-105.2188
 20
-67.6496
 30
0.0
  0
SPLINE
  5
104
330
1F
100
AcDbEntity
  8
layer 1
 62
     7
100
AcDbSpline
210
0.0
220
0.0
230
1.0
 70
    11
 71
     3
 72
    20
 73
    16
 74
     0
 42
0.0000000001
 43
0.0000000001
 12
1.0
 22
0.0
 32
0.0
 13
1.0
 23
0.0
 33
0.0
 40
0.0
 40
0.0
 40
0.0
 40
0.0
 40
0.2
 40
0.2
 40
0.2
 40
0.2
 40
0.4
 40
0.4
 40
0.4
 40
0.4
 40
0.6
 40
0.6
 40
0.6
 40
0.6
 40
1.0
 40
1.0
 40
1.0
 40
1.0
 10
-113.5857
 20
-64.3627
 30
0.0
 10
-112.8018
 20
-62.5145
 30
0.0
 10
-111.2696
 20
-61.9005
 30
0.0
 10
-109.363
 20
-63.491
 30
0.0
 10
-109.363
 20
-63.491
 30
0.0
 10
-107.4895
 20
-65.0537
 30
0.0
 10
-107.5242
 20
-66.1187
 30
0.0
 10
-109.2414
 20
-67.6716
 30
0.0
 10
-109.2414
 20
-67.6716
 30
0.0
 10
-109.2414
 20
-67.6716
 30
0.0
 10
-114.5899
 20
-67.6464
 30
0.0
 10
-114.5899
 20
-67.6464
 30
0.0
 10
-114.5899
 20
-67.6464
 30
0.0
 10
-114.3503
 20
-66.5218
 30
0.0
 10
-114.0304
 20
-65.4183
 30
0.0
 10
-113.5857
 20
-64.3627
 30
0.0
  0
SPLINE
  5
105
330
1F
100
AcDbEntity
  8
layer 1
 62
     7
100
AcDbSpline
210
0.0
220
0.0
230
1.0
 70
    11
 71
     3
 72
    12
 73
     8
 74
     0
 42
0.0000000001
 43
0.0000000001
 12
1.0
 22
0.0
 32
0.0
 13
1.0
 23
0.0
 33
0.0
 40
0.0
 40
0.0
 40
0.0
 40
0.0
 40
0.3333333333333333
 40
0.3333333333333333
 40
0.3333333333333333
 40
0.3333333333333333
 40
1.0
 40
1.0
 40
1.0
 40
1.0
 10
-97.6682
 20
-67.6496
 30
0.0
 10
-97.6682
 20
-67.6496
 30
0.0
 10
-96.0095
 20
-67.6498
 30
0.0
 10
-96.0095
 20
-67.6498
 30
0.0
 10
-96.0095
 20
-67.6498
 30
0.0
 10
-96.312
 20
-67.1872
 30
0.0
 10
-97.4283
 20
-67.1988
 30
0.0
 10
-97.6682
 20
-67.6496
 30
0.0
  0
SPLINE
  5
106
330
1F
100
AcDbEntity
  8
layer 1
 62
     7
100
AcDbSpline
210
0.0
220
0.0
230
1.0
 70
    11
 71
     3
 72
    20
 73
    16
 74
     0
 42
0.0000000001
 43
0.0000000001
 12
1.0
 22
0.0
 32
0.0
 13
1.0
 23
0.0
 33
0.0
 40
0.0
 40
0.0
 40
0.0
 40
0.0
 40
0.2
 40
0.2
 40
0.2
 40
0.2
 40
0.4
 40
0.4
 40
0.4
 40
0.4
 40
0.6
 40
0.6
 40
0.6
 40
0.6
 40
1.0
 40
1.0
 40
1.0
 40
1.0
 10
-89.3014
 20
-64.3627
 30
0.0
 10
-90.0853
 20
-62.5145
 30
0.0
 10
-91.6174
 20
-61.9005
 30
0.0
 10
-93.5241
 20
-63.491
 30
0.0
 10
-93.5241
 20
-63.491
 30
0.0
 10
-95.3975
 20
-65.0537
 30
0.0
 10
-95.3629
 20
-66.1187
 30
0.0
 10
-93.6457
 20
-67.6716
 30
0.0
 10
-93.6457
 20
-67.6716
 30
0.0
 10
-93.6457
 20
-67.6716
 30
0.0
 10
-88.2971
 20
-67.6464
 30
0.0
 10
-88.2971
 20
-67.6464
 30
0.0
 10
-88.2971
 20
-67.6464
 30
0.0
 10
-88.5367
 20
-66.5218
 30
0.0
 10
-88.8566
 20
-65.4183
 30
0.0
 10
-89.3014
 20
-64.3627
 30
0.0
  0
SPLINE
  5
107
330
1F
100
AcDbEntity
  8
layer 1
 62
     7
100
AcDbSpline
210
0.0
220
0.0
230
1.0
 70
    11
 71
     3
 72
    32
 73
    28
 74
     0
 42
0.0000000001
 43
0.0000000001
 12
1.0
 22
0.0
 32
0.0
 13
1.0
 23
0.0
 33
0.0
 40
0.0
 40
0.0
 40
0.0
 40
0.0
 40
0.125
 40
0.125
 40
0.125
 40
0.125
 40
0.25
 40
0.25
 40
0.25
 40
0.25
 40
0.375
 40
0.375
 40
0.375
 40
0.375
 40
0.5
 40
0.5
 40
0.5
 40
0.5
 40
0.625
 40
0.625
 40
0.625
 40
0.625
 40
0.75
 40
0.75
 40
0.75
 40
0.75
 40
1.0
 40
1.0
 40
1.0
 40
1.0
 10
-87.8028
 20
-64.5054
 30
0.0
 10
-88.2994
 20
-63.4471
 30
0.0
 10
-88.6666
 20
-62.3817
 30
0.0
 10
-88.6187
 20
-62.1379
 30
0.0
 10
-88.6187
 20
-62.1379
 30
0.0
 10
-88.4315
 20
-61.1843
 30
0.0
 10
-87.1301
 20
-60.6682
 30
0.0
 10
-85.0611
 20
-60.6136
 30
0.0
 10
-85.0611
 20
-60.6136
 30
0.0
 10
-82.9921
 20
-60.6409
 30
0.0
 10
-81.6908
 20
-61.1843
 30
0.0
 10
-81.5036
 20
-62.1379
 30
0.0
 10
-81.5036
 20
-62.1379
 30
0.0
 10
-81.4557
 20
-62.3817
 30
0.0
 10
-81.8229
 20
-63.447
 30
0.0
 10
-82.3195
 20
-64.5054
 30
0.0
 10
-82.3195
 20
-64.5054
 30
0.0
 10
-82.7871
 20
-65.2912
 30
0.0
 10
-83.1917
 20
-66.3911
 30
0.0
 10
-83.5381
 20
-67.6032
 30
0.0
 10
-83.5381
 20
-67.6032
 30
0.0
 10
-83.5381
 20
-67.6032
 30
0.0
 10
-86.5841
 20
-67.6032
 30
0.0
 10
-86.5841
 20
-67.6032
 30
0.0
 10
-86.5841
 20
-67.6032
 30
0.0
 10
-86.9305
 20
-66.391
 30
0.0
 10
-87.3352
 20
-65.2912
 30
0.0
 10
-87.8028
 20
-64.5054
 30
0.0
  0
SPLINE
  5
108
330
1F
100
AcDbEntity
  8
layer 1
 62
     7
100
AcDbSpline
210
0.0
220
0.0
230
1.0
 70
    11
 71
     3
 72
    12
 73
     8
 74
     0
 42
0.0000000001
 43
0.0000000001
 12
1.0
 22
0.0
 32
0.0
 13
1.0
 23
0.0
 33
0.0
 40
0.0
 40
0.0
 40
0.0
 40
0.0
 40
0.3333333333333333
 40
0.3333333333333333
 40
0.3333333333333333
 40
0.3333333333333333
 40
1.0
 40
1.0
 40
1.0
 40
1.0
 10
-72.4951
 20
-67.6496
 30
0.0
 10
-72.4951
 20
-67.6496
 30
0.0
 10
-74.1538
 20
-67.6498
 30
0.0
 10
-74.1538
 20
-67.6498
 30
0.0
 10
-74.1538
 20
-67.6498
 30
0.0
 10
-73.8513
 20
-67.1872
 30
0.0
 10
-72.735
 20
-67.1988
 30
0.0
 10
-72.4951
 20
-67.6496
 30
0.0
  0
SPLINE
  5
109
330
1F
100
AcDbEntity
  8
layer 1
 62
     7
100
AcDbSpline
210
0.0
220
0.0
230
1.0
 70
    11
 71
     3
 72
    20
 73
    16
 74
     0
 42
0.0000000001
 43
0.0000000001
 12
1.0
 22
0.0
 32
0.0
 13
1.0
 23
0.0
 33
0.0
 40
0.0
 40
0.0
 40
0.0
 40
0.0
 40
0.2
 40
0.2
 40
0.2
 40
0.2
 40
0.4
 40
0.4
 40
0.4
 40
0.4
 40
0.6
 40
0.6
 40
0.6
 40
0.6
 40
1.0
 40
1.0
 40
1.0
 40
1.0
 10
-80.862
 20
-64.3627
 30
0.0
 10
-80.0781
 20
-62.5145
 30
0.0
 10
-78.5459
 20
-61.9005
 30
0.0
 10
-76.6392
 20
-63.491
 30
0.0
 10
-76.6392
 20
-63.491
 30
0.0
 10
-74.7658
 20
-65.0537
 30
0.0
 10
-74.8004
 20
-66.1187
 30
0.0
 10
-76.5176
 20
-67.6716
 30
0.0
 10
-76.5176
 20
-67.6716
 30
0.0
 10
-76.5176
 20
-67.6716
 30
0.0
 10
-81.8662
 20
-67.6464
 30
0.0
 10
-81.8662
 20
-67.6464
 30
0.0
 10
-81.8662
 20
-67.6464
 30
0.0
 10
-81.6266
 20
-66.5218
 30
0.0
 10
-81.3067
 20
-65.4183
 30
0.0
 10
-80.862
 20
-64.3627
 30
0.0
  0
SPLINE
  5
10A
330
1F
100
AcDbEntity
  8
layer 1
 62
     7
100
AcDbSpline
210
0.0
220
0.0
230
1.0
 70
    11
 71
     3
 72
    12
 73
     8
 74
     0
 42
0.0000000001
 43
0.0000000001
 12
1.0
 22
0.0
 32
0.0
 13
1.0
 23
0.0
 33
0.0
 40
0.0
 40
0.0
 40
0.0
 40
0.0
 40
0.3333333333333333
 40
0.3333333333333333
 40
0.3333333333333333
 40
0.3333333333333333
 40
1.0
 40
1.0
 40
1.0
 40
1.0
 10
-65.2008
 20
-67.6496
 30
0.0
 10
-65.2008
 20
-67.6496
 30
0.0
 10
-63.5421
 20
-67.6498
 30
0.0
 10
-63.5421
 20
-67.6498
 30
0.0
 10
-63.5421
 20
-67.6498
 30
0.0
 10
-63.8446
 20
-67.1872
 30
0.0
 10
-64.9609
 20
-67.1988
 30
0.0
 10
-65.2008
 20
-67.6496
 30
0.0
  0
SPLINE
  5
10B
330
1F
100
AcDbEntity
  8
layer 1
 62
     7
100
AcDbSpline
210
0.0
220
0.0
230
1.0
 70
    11
 71
     3
 72
    20
 73
    16
 74
     0
 42
0.0000000001
 43
0.0000000001
 12
1.0
 22
0.0
 32
0.0
 13
1.0
 23
0.0
 33
0.0
 40
0.0
 40
0.0
 40
0.0
 40
0.0
 40
0.2
 40
0.2
 40
0.2
 40
0.2
 40
0.4
 40
0.4
 40
0.4
 40
0.4
 40
0.6
 40
0.6
 40
0.6
 40
0.6
 40
1.0
 40
1.0
 40
1.0
 40
1.0
 10
-56.834
 20
-64.3627
 30
0.0
 10
-57.6179
 20
-62.5145
 30
0.0
 10
-59.1501
 20
-61.9005
 30
0.0
 10
-61.0567
 20
-63.491
 30
0.0
 10
-61.0567
 20
-63.491
 30
0.0
 10
-62.9301
 20
-65.0537
 30
0.0
 10
-62.8955
 20
-66.1187
 30
0.0
 10
-61.1783
 20
-67.6716
 30
0.0
 10
-61.1783
 20
-67.6716
 30
0.0
 10
-61.1783
 20
-67.6716
 30
0.0
 10
-55.8297
 20
-67.6464
 30
0.0
 10
-55.8297
 20
-67.6464
 30
0.0
 10
-55.8297
 20
-67.6464
 30
0.0
 10
-56.0694
 20
-66.5218
 30
0.0
 10
-56.3893
 20
-65.4183
 30
0.0
 10
-56.834
 20
-64.3627
 30
0.0
  0
SPLINE
  5
10C
330
1F
100
AcDbEntity
  8
layer 1
 62
     7
100
AcDbSpline
210
0.0
220
0.0
230
1.0
 70
    11
 71
     3
 72
    24
 73
    20
 74
     0
 42
0.0000000001
 43
0.0000000001
 12
1.0
 22
0.0
 32
0.0
 13
1.0
 23
0.0
 33
0.0
 40
0.0
 40
0.0
 40
0.0
 40
0.0
 40
0.1666666666666667
 40
0.1666666666666667
 40
0.1666666666666667
 40
0.1666666666666667
 40
0.3333333333333333
 40
0.3333333333333333
 40
0.3333333333333333
 40
0.3333333333333333
 40
0.5
 40
0.5
 40
0.5
 40
0.5
 40
0.6666666666666666
 40
0.6666666666666666
 40
0.6666666666666666
 40
0.6666666666666666
 40
1.0
 40
1.0
 40
1.0
 40
1.0
 10
-179.9633
 20
-64.5054
 30
0.0
 10
-179.4667
 20
-63.4471
 30
0.0
 10
-179.0995
 20
-62.3817
 30
0.0
 10
-179.1473
 20
-62.1379
 30
0.0
 10
-179.1473
 20
-62.1379
 30
0.0
 10
-179.3346
 20
-61.1843
 30
0.0
 10
-180.6359
 20
-60.6682
 30
0.0
 10
-182.7049
 20
-60.6136
 30
0.0
 10
-182.7049
 20
-60.6136
 30
0.0
 10
-182.7049
 20
-60.6136
 30
0.0
 10
-182.7049
 20
-67.6138
 30
0.0
 10
-182.7049
 20
-67.6138
 30
0.0
 10
-182.7049
 20
-67.6138
 30
0.0
 10
-182.7049
 20
-67.6138
 30
0.0
 10
-181.182
 20
-67.6032
 30
0.0
 10
-181.182
 20
-67.6032
 30
0.0
 10
-181.182
 20
-67.6032
 30
0.0
 10
-180.8355
 20
-66.391
 30
0.0
 10
-180.4309
 20
-65.2912
 30
0.0
 10
-179.9633
 20
-64.5054
 30
0.0
  0
SPLINE
  5
10D
330
1F
100
AcDbEntity
  8
layer 1
 62
     7
100
AcDbSpline
210
0.0
220
0.0
230
1.0
 70
    11
 71
     3
 72
    12
 73
     8
 74
     0
 42
0.0000000001
 43
0.0000000001
 12
1.0
 22
0.0
 32
0.0
 13
1.0
 23
0.0
 33
0.0
 40
0.0
 40
0.0
 40
0.0
 40
0.0
 40
0.3333333333333333
 40
0.3333333333333333
 40
0.3333333333333333
 40
0.3333333333333333
 40
1.0
 40
1.0
 40
1.0
 40
1.0
 10
-170.0978
 20
-67.6496
 30
0.0
 10
-170.0978
 20
-67.6496
 30
0.0
 10
-171.7565
 20
-67.6498
 30
0.0
 10
-171.7565
 20
-67.6498
 30
0.0
 10
-171.7565
 20
-67.6498
 30
0.0
 10
-171.454
 20
-67.1872
 30
0.0
 10
-170.3377
 20
-67.1988
 30
0.0
 10
-170.0978
 20
-67.6496
 30
0.0
  0
SPLINE
  5
10E
330
1F
100
AcDbEntity
  8
layer 1
 62
     7
100
AcDbSpline
210
0.0
220
0.0
230
1.0
 70
    11
 71
     3
 72
    20
 73
    16
 74
     0
 42
0.0000000001
 43
0.0000000001
 12
1.0
 22
0.0
 32
0.0
 13
1.0
 23
0.0
 33
0.0
 40
0.0
 40
0.0
 40
0.0
 40
0.0
 40
0.2
 40
0.2
 40
0.2
 40
0.2
 40
0.4
 40
0.4
 40
0.4
 40
0.4
 40
0.6
 40
0.6
 40
0.6
 40
0.6
 40
1.0
 40
1.0
 40
1.0
 40
1.0
 10
-178.4647
 20
-64.3627
 30
0.0
 10
-177.6808
 20
-62.5145
 30
0.0
 10
-176.1486
 20
-61.9005
 30
0.0
 10
-174.242
 20
-63.491
 30
0.0
 10
-174.242
 20
-63.491
 30
0.0
 10
-172.3685
 20
-65.0537
 30
0.0
 10
-172.4031
 20
-66.1187
 30
0.0
 10
-174.1204
 20
-67.6716
 30
0.0
 10
-174.1204
 20
-67.6716
 30
0.0
 10
-174.1204
 20
-67.6716
 30
0.0
 10
-179.4689
 20
-67.6464
 30
0.0
 10
-179.4689
 20
-67.6464
 30
0.0
 10
-179.4689
 20
-67.6464
 30
0.0
 10
-179.2293
 20
-66.5218
 30
0.0
 10
-178.9094
 20
-65.4183
 30
0.0
 10
-178.4647
 20
-64.3627
 30
0.0
  0
SPLINE
  5
10F
330
1F
100
AcDbEntity
  8
layer 1
 62
     7
100
AcDbSpline
210
0.0
220
0.0
230
1.0
 70
    11
 71
     3
 72
    24
 73
    20
 74
     0
 42
0.0000000001
 43
0.0000000001
 12
1.0
 22
0.0
 32
0.0
 13
1.0
 23
0.0
 33
0.0
 40
0.0
 40
0.0
 40
0.0
 40
0.0
 40
0.1666666666666667
 40
0.1666666666666667
 40
0.1666666666666667
 40
0.1666666666666667
 40
0.3333333333333333
 40
0.3333333333333333
 40
0.3333333333333333
 40
0.3333333333333333
 40
0.5
 40
0.5
 40
0.5
 40
0.5
 40
0.6666666666666666
 40
0.6666666666666666
 40
0.6666666666666666
 40
0.6666666666666666
 40
1.0
 40
1.0
 40
1.0
 40
1.0
 10
-161.227
 20
88.8424
 30
0.0
 10
-161.227
 20
88.8424
 30
0.0
 10
-162.7795
 20
88.7903
 30
0.0
 10
-162.7795
 20
88.7903
 30
0.0
 10
-162.7795
 20
88.7903
 30
0.0
 10
-163.0381
 20
88.6507
 30
0.0
 10
-163.2832
 20
88.4428
 30
0.0
 10
-163.5456
 20
88.1841
 30
0.0
 10
-163.5456
 20
88.1841
 30
0.0
 10
-164.5806
 20
87.1531
 30
0.0
 10
-164.4511
 20
85.8407
 30
0.0
 10
-163.0812
 20
85.2503
 30
0.0
 10
-163.0812
 20
85.2503
 30
0.0
 10
-158.5964
 20
83.8238
 30
0.0
 10
-157.0778
 20
82.0511
 30
0.0
 10
-154.5518
 20
79.3163
 30
0.0
 10
-154.5518
 20
79.3163
 30
0.0
 10
-155.6227
 20
82.0691
 30
0.0
 10
-158.9786
 20
87.8001
 30
0.0
 10
-161.227
 20
88.8424
 30
0.0
  0
SPLINE
  5
110
330
1F
100
AcDbEntity
  8
layer 1
 62
     7
100
AcDbSpline
210
0.0
220
0.0
230
1.0
 70
    11
 71
     3
 72
    20
 73
    16
 74
     0
 42
0.0000000001
 43
0.0000000001
 12
1.0
 22
0.0
 32
0.0
 13
1.0
 23
0.0
 33
0.0
 40
0.0
 40
0.0
 40
0.0
 40
0.0
 40
0.2
 40
0.2
 40
0.2
 40
0.2
 40
0.4
 40
0.4
 40
0.4
 40
0.4
 40
0.6
 40
0.6
 40
0.6
 40
0.6
 40
1.0
 40
1.0
 40
1.0
 40
1.0
 10
-158.7569
 20
88.7683
 30
0.0
 10
-158.6725
 20
88.692
 30
0.0
 10
-158.5839
 20
88.6144
 30
0.0
 10
-158.4914
 20
88.5356
 30
0.0
 10
-158.4914
 20
88.5356
 30
0.0
 10
-155.7752
 20
86.279
 30
0.0
 10
-153.9029
 20
83.1503
 30
0.0
 10
-152.3916
 20
80.204
 30
0.0
 10
-152.3916
 20
80.204
 30
0.0
 10
-152.7066
 20
82.9081
 30
0.0
 10
-152.7959
 20
85.9198
 30
0.0
 10
-153.4083
 20
88.7935
 30
0.0
 10
-153.4083
 20
88.7935
 30
0.0
 10
-153.4083
 20
88.7935
 30
0.0
 10
-158.7569
 20
88.7683
 30
0.0
 10
-158.7569
 20
88.7683
 30
0.0
  0
SPLINE
  5
111
330
1F
100
AcDbEntity
  8
layer 1
 62
     7
100
AcDbSpline
210
0.0
220
0.0
230
1.0
 70
    11
 71
     3
 72
    16
 73
    12
 74
     0
 42
0.0000000001
 43
0.0000000001
 12
1.0
 22
0.0
 32
0.0
 13
1.0
 23
0.0
 33
0.0
 40
0.0
 40
0.0
 40
0.0
 40
0.0
 40
0.25
 40
0.25
 40
0.25
 40
0.25
 40
0.5
 40
0.5
 40
0.5
 40
0.5
 40
1.0
 40
1.0
 40
1.0
 40
1.0
 10
-148.6494
 20
88.8367
 30
0.0
 10
-149.44
 20
86.0708
 30
0.0
 10
-149.928
 20
82.7207
 30
0.0
 10
-150.1724
 20
81.1865
 30
0.0
 10
-150.1724
 20
81.1865
 30
0.0
 10
-150.4139
 20
82.7035
 30
0.0
 10
-150.8937
 20
85.9959
 30
0.0
 10
-151.6687
 20
88.7433
 30
0.0
 10
-151.6687
 20
88.7433
 30
0.0
 10
-151.6687
 20
88.7433
 30
0.0
 10
-148.6494
 20
88.8367
 30
0.0
 10
-148.6494
 20
88.8367
 30
0.0
  0
SPLINE
  5
112
330
1F
100
AcDbEntity
  8
layer 1
 62
     7
100
AcDbSpline
210
0.0
220
0.0
230
1.0
 70
    11
 71
     3
 72
    16
 73
    12
 74
     0
 42
0.0000000001
 43
0.0000000001
 12
1.0
 22
0.0
 32
0.0
 13
1.0
 23
0.0
 33
0.0
 40
0.0
 40
0.0
 40
0.0
 40
0.0
 40
0.25
 40
0.25
 40
0.25
 40
0.25
 40
0.5
 40
0.5
 40
0.5
 40
0.5
 40
1.0
 40
1.0
 40
1.0
 40
1.0
 10
-182.7216
 20
88.8067
 30
0.0
 10
-182.7216
 20
88.8067
 30
0.0
 10
-182.7216
 20
81.1865
 30
0.0
 10
-182.7216
 20
81.1865
 30
0.0
 10
-182.7216
 20
81.1865
 30
0.0
 10
-182.4773
 20
82.7207
 30
0.0
 10
-181.9893
 20
86.0709
 30
0.0
 10
-181.1986
 20
88.8367
 30
0.0
 10
-181.1986
 20
88.8367
 30
0.0
 10
-181.1986
 20
88.8367
 30
0.0
 10
-182.7216
 20
88.8067
 30
0.0
 10
-182.7216
 20
88.8067
 30
0.0
  0
SPLINE
  5
113
330
1F
100
AcDbEntity
  8
layer 1
 62
     7
100
AcDbSpline
210
0.0
220
0.0
230
1.0
 70
    11
 71
     3
 72
    24
 73
    20
 74
     0
 42
0.0000000001
 43
0.0000000001
 12
1.0
 22
0.0
 32
0.0
 13
1.0
 23
0.0
 33
0.0
 40
0.0
 40
0.0
 40
0.0
 40
0.0
 40
0.1666666666666667
 40
0.1666666666666667
 40
0.1666666666666667
 40
0.1666666666666667
 40
0.3333333333333333
 40
0.3333333333333333
 40
0.3333333333333333
 40
0.3333333333333333
 40
0.5
 40
0.5
 40
0.5
 40
0.5
 40
0.6666666666666666
 40
0.6666666666666666
 40
0.6666666666666666
 40
0.6666666666666666
 40
1.0
 40
1.0
 40
1.0
 40
1.0
 10
-139.2152
 20
88.8424
 30
0.0
 10
-139.2152
 20
88.8424
 30
0.0
 10
-137.6628
 20
88.7903
 30
0.0
 10
-137.6628
 20
88.7903
 30
0.0
 10
-137.6628
 20
88.7903
 30
0.0
 10
-137.4042
 20
88.6507
 30
0.0
 10
-137.1591
 20
88.4428
 30
0.0
 10
-136.8966
 20
88.1841
 30
0.0
 10
-136.8966
 20
88.1841
 30
0.0
 10
-135.8617
 20
87.1531
 30
0.0
 10
-135.9911
 20
85.8407
 30
0.0
 10
-137.361
 20
85.2503
 30
0.0
 10
-137.361
 20
85.2503
 30
0.0
 10
-141.8458
 20
83.8238
 30
0.0
 10
-143.3644
 20
82.0511
 30
0.0
 10
-145.8905
 20
79.3163
 30
0.0
 10
-145.8905
 20
79.3163
 30
0.0
 10
-144.8195
 20
82.0691
 30
0.0
 10
-141.4637
 20
87.8001
 30
0.0
 10
-139.2152
 20
88.8424
 30
0.0
  0
SPLINE
  5
114
330
1F
100
AcDbEntity
  8
layer 1
 62
     7
100
AcDbSpline
210
0.0
220
0.0
230
1.0
 70
    11
 71
     3
 72
    20
 73
    16
 74
     0
 42
0.0000000001
 43
0.0000000001
 12
1.0
 22
0.0
 32
0.0
 13
1.0
 23
0.0
 33
0.0
 40
0.0
 40
0.0
 40
0.0
 40
0.0
 40
0.2
 40
0.2
 40
0.2
 40
0.2
 40
0.4
 40
0.4
 40
0.4
 40
0.4
 40
0.6
 40
0.6
 40
0.6
 40
0.6
 40
1.0
 40
1.0
 40
1.0
 40
1.0
 10
-141.6853
 20
88.7683
 30
0.0
 10
-141.7698
 20
88.692
 30
0.0
 10
-141.8584
 20
88.6144
 30
0.0
 10
-141.9508
 20
88.5356
 30
0.0
 10
-141.9508
 20
88.5356
 30
0.0
 10
-144.667
 20
86.279
 30
0.0
 10
-146.5393
 20
83.1503
 30
0.0
 10
-148.0506
 20
80.204
 30
0.0
 10
-148.0506
 20
80.204
 30
0.0
 10
-147.7356
 20
82.9081
 30
0.0
 10
-147.6464
 20
85.9198
 30
0.0
 10
-147.0339
 20
88.7935
 30
0.0
 10
-147.0339
 20
88.7935
 30
0.0
 10
-147.0339
 20
88.7935
 30
0.0
 10
-141.6853
 20
88.7683
 30
0.0
 10
-141.6853
 20
88.7683
 30
0.0
  0
SPLINE
  5
115
330
1F
100
AcDbEntity
  8
layer 1
 62
     7
100
AcDbSpline
210
0.0
220
0.0
230
1.0
 70
    11
 71
     3
 72
    24
 73
    20
 74
     0
 42
0.0000000001
 43
0.0000000001
 12
1.0
 22
0.0
 32
0.0
 13
1.0
 23
0.0
 33
0.0
 40
0.0
 40
0.0
 40
0.0
 40
0.0
 40
0.1666666666666667
 40
0.1666666666666667
 40
0.1666666666666667
 40
0.1666666666666667
 40
0.3333333333333333
 40
0.3333333333333333
 40
0.3333333333333333
 40
0.3333333333333333
 40
0.5
 40
0.5
 40
0.5
 40
0.5
 40
0.6666666666666666
 40
0.6666666666666666
 40
0.6666666666666666
 40
0.6666666666666666
 40
1.0
 40
1.0
 40
1.0
 40
1.0
 10
-171.912
 20
88.8424
 30
0.0
 10
-171.912
 20
88.8424
 30
0.0
 10
-170.3596
 20
88.7903
 30
0.0
 10
-170.3596
 20
88.7903
 30
0.0
 10
-170.3596
 20
88.7903
 30
0.0
 10
-170.1009
 20
88.6507
 30
0.0
 10
-169.8558
 20
88.4428
 30
0.0
 10
-169.5934
 20
88.1841
 30
0.0
 10
-169.5934
 20
88.1841
 30
0.0
 10
-168.5585
 20
87.1531
 30
0.0
 10
-168.6879
 20
85.8407
 30
0.0
 10
-170.0578
 20
85.2503
 30
0.0
 10
-170.0578
 20
85.2503
 30
0.0
 10
-174.5426
 20
83.8238
 30
0.0
 10
-176.0612
 20
82.0511
 30
0.0
 10
-178.5872
 20
79.3163
 30
0.0
 10
-178.5872
 20
79.3163
 30
0.0
 10
-177.5163
 20
82.0691
 30
0.0
 10
-174.1605
 20
87.8001
 30
0.0
 10
-171.912
 20
88.8424
 30
0.0
  0
SPLINE
  5
116
330
1F
100
AcDbEntity
  8
layer 1
 62
     7
100
AcDbSpline
210
0.0
220
0.0
230
1.0
 70
    11
 71
     3
 72
    20
 73
    16
 74
     0
 42
0.0000000001
 43
0.0000000001
 12
1.0
 22
0.0
 32
0.0
 13
1.0
 23
0.0
 33
0.0
 40
0.0
 40
0.0
 40
0.0
 40
0.0
 40
0.2
 40
0.2
 40
0.2
 40
0.2
 40
0.4
 40
0.4
 40
0.4
 40
0.4
 40
0.6
 40
0.6
 40
0.6
 40
0.6
 40
1.0
 40
1.0
 40
1.0
 40
1.0
 10
-174.3821
 20
88.7683
 30
0.0
 10
-174.4666
 20
88.692
 30
0.0
 10
-174.5552
 20
88.6144
 30
0.0
 10
-174.6476
 20
88.5356
 30
0.0
 10
-174.6476
 20
88.5356
 30
0.0
 10
-177.3638
 20
86.279
 30
0.0
 10
-179.2361
 20
83.1503
 30
0.0
 10
-180.7474
 20
80.204
 30
0.0
 10
-180.7474
 20
80.204
 30
0.0
 10
-180.4324
 20
82.9081
 30
0.0
 10
-180.3431
 20
85.9198
 30
0.0
 10
-179.7307
 20
88.7935
 30
0.0
 10
-179.7307
 20
88.7935
 30
0.0
 10
-179.7307
 20
88.7935
 30
0.0
 10
-174.3821
 20
88.7683
 30
0.0
 10
-174.3821
 20
88.7683
 30
0.0
  0
SPLINE
  5
117
330
1F
100
AcDbEntity
  8
layer 1
 62
     7
100
AcDbSpline
210
0.0
220
0.0
230
1.0
 70
    11
 71
     3
 72
    16
 73
    12
 74
     0
 42
0.0000000001
 43
0.0000000001
 12
1.0
 22
0.0
 32
0.0
 13
1.0
 23
0.0
 33
0.0
 40
0.0
 40
0.0
 40
0.0
 40
0.0
 40
0.25
 40
0.25
 40
0.25
 40
0.25
 40
0.5
 40
0.5
 40
0.5
 40
0.5
 40
1.0
 40
1.0
 40
1.0
 40
1.0
 10
-52.5733
 20
88.8067
 30
0.0
 10
-52.5733
 20
88.8067
 30
0.0
 10
-52.5733
 20
81.1865
 30
0.0
 10
-52.5733
 20
81.1865
 30
0.0
 10
-52.5733
 20
81.1865
 30
0.0
 10
-52.8176
 20
82.7207
 30
0.0
 10
-53.3056
 20
86.0709
 30
0.0
 10
-54.0962
 20
88.8367
 30
0.0
 10
-54.0962
 20
88.8367
 30
0.0
 10
-54.0962
 20
88.8367
 30
0.0
 10
-52.5733
 20
88.8067
 30
0.0
 10
-52.5733
 20
88.8067
 30
0.0
  0
SPLINE
  5
118
330
1F
100
AcDbEntity
  8
layer 1
 62
     7
100
AcDbSpline
210
0.0
220
0.0
230
1.0
 70
    11
 71
     3
 72
    24
 73
    20
 74
     0
 42
0.0000000001
 43
0.0000000001
 12
1.0
 22
0.0
 32
0.0
 13
1.0
 23
0.0
 33
0.0
 40
0.0
 40
0.0
 40
0.0
 40
0.0
 40
0.1666666666666667
 40
0.1666666666666667
 40
0.1666666666666667
 40
0.1666666666666667
 40
0.3333333333333333
 40
0.3333333333333333
 40
0.3333333333333333
 40
0.3333333333333333
 40
0.5
 40
0.5
 40
0.5
 40
0.5
 40
0.6666666666666666
 40
0.6666666666666666
 40
0.6666666666666666
 40
0.6666666666666666
 40
1.0
 40
1.0
 40
1.0
 40
1.0
 10
-63.3829
 20
88.8424
 30
0.0
 10
-63.3829
 20
88.8424
 30
0.0
 10
-64.9353
 20
88.7903
 30
0.0
 10
-64.9353
 20
88.7903
 30
0.0
 10
-64.9353
 20
88.7903
 30
0.0
 10
-65.1939
 20
88.6507
 30
0.0
 10
-65.439
 20
88.4428
 30
0.0
 10
-65.7014
 20
88.1841
 30
0.0
 10
-65.7014
 20
88.1841
 30
0.0
 10
-66.7364
 20
87.1531
 30
0.0
 10
-66.607
 20
85.8407
 30
0.0
 10
-65.2371
 20
85.2503
 30
0.0
 10
-65.2371
 20
85.2503
 30
0.0
 10
-60.7523
 20
83.8238
 30
0.0
 10
-59.2337
 20
82.0511
 30
0.0
 10
-56.7076
 20
79.3163
 30
0.0
 10
-56.7076
 20
79.3163
 30
0.0
 10
-57.7785
 20
82.0691
 30
0.0
 10
-61.1344
 20
87.8001
 30
0.0
 10
-63.3829
 20
88.8424
 30
0.0
  0
SPLINE
  5
119
330
1F
100
AcDbEntity
  8
layer 1
 62
     7
100
AcDbSpline
210
0.0
220
0.0
230
1.0
 70
    11
 71
     3
 72
    20
 73
    16
 74
     0
 42
0.0000000001
 43
0.0000000001
 12
1.0
 22
0.0
 32
0.0
 13
1.0
 23
0.0
 33
0.0
 40
0.0
 40
0.0
 40
0.0
 40
0.0
 40
0.2
 40
0.2
 40
0.2
 40
0.2
 40
0.4
 40
0.4
 40
0.4
 40
0.4
 40
0.6
 40
0.6
 40
0.6
 40
0.6
 40
1.0
 40
1.0
 40
1.0
 40
1.0
 10
-60.9128
 20
88.7683
 30
0.0
 10
-60.8283
 20
88.692
 30
0.0
 10
-60.7397
 20
88.6144
 30
0.0
 10
-60.6473
 20
88.5356
 30
0.0
 10
-60.6473
 20
88.5356
 30
0.0
 10
-57.9311
 20
86.279
 30
0.0
 10
-56.0588
 20
83.1503
 30
0.0
 10
-54.5475
 20
80.204
 30
0.0
 10
-54.5475
 20
80.204
 30
0.0
 10
-54.8625
 20
82.9081
 30
0.0
 10
-54.9517
 20
85.9198
 30
0.0
 10
-55.5642
 20
88.7935
 30
0.0
 10
-55.5642
 20
88.7935
 30
0.0
 10
-55.5642
 20
88.7935
 30
0.0
 10
-60.9128
 20
88.7683
 30
0.0
 10
-60.9128
 20
88.7683
 30
0.0
  0
SPLINE
  5
11A
330
1F
100
AcDbEntity
  8
layer 1
 62
     7
100
AcDbSpline
210
0.0
220
0.0
230
1.0
 70
    11
 71
     3
 72
    24
 73
    20
 74
     0
 42
0.0000000001
 43
0.0000000001
 12
1.0
 22
0.0
 32
0.0
 13
1.0
 23
0.0
 33
0.0
 40
0.0
 40
0.0
 40
0.0
 40
0.0
 40
0.1666666666666667
 40
0.1666666666666667
 40
0.1666666666666667
 40
0.1666666666666667
 40
0.3333333333333333
 40
0.3333333333333333
 40
0.3333333333333333
 40
0.3333333333333333
 40
0.5
 40
0.5
 40
0.5
 40
0.5
 40
0.6666666666666666
 40
0.6666666666666666
 40
0.6666666666666666
 40
0.6666666666666666
 40
1.0
 40
1.0
 40
1.0
 40
1.0
 10
-128.7866
 20
88.8424
 30
0.0
 10
-128.7866
 20
88.8424
 30
0.0
 10
-130.339
 20
88.7903
 30
0.0
 10
-130.339
 20
88.7903
 30
0.0
 10
-130.339
 20
88.7903
 30
0.0
 10
-130.5976
 20
88.6507
 30
0.0
 10
-130.8427
 20
88.4428
 30
0.0
 10
-131.1052
 20
88.1841
 30
0.0
 10
-131.1052
 20
88.1841
 30
0.0
 10
-132.1401
 20
87.1531
 30
0.0
 10
-132.0107
 20
85.8407
 30
0.0
 10
-130.6408
 20
85.2503
 30
0.0
 10
-130.6408
 20
85.2503
 30
0.0
 10
-126.156
 20
83.8238
 30
0.0
 10
-124.6374
 20
82.0511
 30
0.0
 10
-122.1113
 20
79.3163
 30
0.0
 10
-122.1113
 20
79.3163
 30
0.0
 10
-123.1822
 20
82.0691
 30
0.0
 10
-126.5381
 20
87.8001
 30
0.0
 10
-128.7866
 20
88.8424
 30
0.0
  0
SPLINE
  5
11B
330
1F
100
AcDbEntity
  8
layer 1
 62
     7
100
AcDbSpline
210
0.0
220
0.0
230
1.0
 70
    11
 71
     3
 72
    20
 73
    16
 74
     0
 42
0.0000000001
 43
0.0000000001
 12
1.0
 22
0.0
 32
0.0
 13
1.0
 23
0.0
 33
0.0
 40
0.0
 40
0.0
 40
0.0
 40
0.0
 40
0.2
 40
0.2
 40
0.2
 40
0.2
 40
0.4
 40
0.4
 40
0.4
 40
0.4
 40
0.6
 40
0.6
 40
0.6
 40
0.6
 40
1.0
 40
1.0
 40
1.0
 40
1.0
 10
-126.3165
 20
88.7683
 30
0.0
 10
-126.232
 20
88.692
 30
0.0
 10
-126.1434
 20
88.6144
 30
0.0
 10
-126.051
 20
88.5356
 30
0.0
 10
-126.051
 20
88.5356
 30
0.0
 10
-123.3348
 20
86.279
 30
0.0
 10
-121.4625
 20
83.1503
 30
0.0
 10
-119.9512
 20
80.204
 30
0.0
 10
-119.9512
 20
80.204
 30
0.0
 10
-120.2662
 20
82.9081
 30
0.0
 10
-120.3554
 20
85.9198
 30
0.0
 10
-120.9679
 20
88.7935
 30
0.0
 10
-120.9679
 20
88.7935
 30
0.0
 10
-120.9679
 20
88.7935
 30
0.0
 10
-126.3165
 20
88.7683
 30
0.0
 10
-126.3165
 20
88.7683
 30
0.0
  0
SPLINE
  5
11C
330
1F
100
AcDbEntity
  8
layer 1
 62
     7
100
AcDbSpline
210
0.0
220
0.0
230
1.0
 70
    11
 71
     3
 72
    16
 73
    12
 74
     0
 42
0.0000000001
 43
0.0000000001
 12
1.0
 22
0.0
 32
0.0
 13
1.0
 23
0.0
 33
0.0
 40
0.0
 40
0.0
 40
0.0
 40
0.0
 40
0.25
 40
0.25
 40
0.25
 40
0.25
 40
0.5
 40
0.5
 40
0.5
 40
0.5
 40
1.0
 40
1.0
 40
1.0
 40
1.0
 10
-116.2089
 20
88.8367
 30
0.0
 10
-116.9996
 20
86.0708
 30
0.0
 10
-117.4876
 20
82.7207
 30
0.0
 10
-117.7319
 20
81.1865
 30
0.0
 10
-117.7319
 20
81.1865
 30
0.0
 10
-117.9734
 20
82.7035
 30
0.0
 10
-118.4532
 20
85.9959
 30
0.0
 10
-119.2283
 20
88.7433
 30
0.0
 10
-119.2283
 20
88.7433
 30
0.0
 10
-119.2283
 20
88.7433
 30
0.0
 10
-116.2089
 20
88.8367
 30
0.0
 10
-116.2089
 20
88.8367
 30
0.0
  0
SPLINE
  5
11D
330
1F
100
AcDbEntity
  8
layer 1
 62
     7
100
AcDbSpline
210
0.0
220
0.0
230
1.0
 70
    11
 71
     3
 72
    24
 73
    20
 74
     0
 42
0.0000000001
 43
0.0000000001
 12
1.0
 22
0.0
 32
0.0
 13
1.0
 23
0.0
 33
0.0
 40
0.0
 40
0.0
 40
0.0
 40
0.0
 40
0.1666666666666667
 40
0.1666666666666667
 40
0.1666666666666667
 40
0.1666666666666667
 40
0.3333333333333333
 40
0.3333333333333333
 40
0.3333333333333333
 40
0.3333333333333333
 40
0.5
 40
0.5
 40
0.5
 40
0.5
 40
0.6666666666666666
 40
0.6666666666666666
 40
0.6666666666666666
 40
0.6666666666666666
 40
1.0
 40
1.0
 40
1.0
 40
1.0
 10
-106.7748
 20
88.8424
 30
0.0
 10
-106.7748
 20
88.8424
 30
0.0
 10
-105.2223
 20
88.7903
 30
0.0
 10
-105.2223
 20
88.7903
 30
0.0
 10
-105.2223
 20
88.7903
 30
0.0
 10
-104.9637
 20
88.6507
 30
0.0
 10
-104.7186
 20
88.4428
 30
0.0
 10
-104.4562
 20
88.1841
 30
0.0
 10
-104.4562
 20
88.1841
 30
0.0
 10
-103.4212
 20
87.1531
 30
0.0
 10
-103.5507
 20
85.8407
 30
0.0
 10
-104.9206
 20
85.2503
 30
0.0
 10
-104.9206
 20
85.2503
 30
0.0
 10
-109.4054
 20
83.8238
 30
0.0
 10
-110.924
 20
82.0511
 30
0.0
 10
-113.45
 20
79.3163
 30
0.0
 10
-113.45
 20
79.3163
 30
0.0
 10
-112.3791
 20
82.0691
 30
0.0
 10
-109.0232
 20
87.8001
 30
0.0
 10
-106.7748
 20
88.8424
 30
0.0
  0
SPLINE
  5
11E
330
1F
100
AcDbEntity
  8
layer 1
 62
     7
100
AcDbSpline
210
0.0
220
0.0
230
1.0
 70
    11
 71
     3
 72
    20
 73
    16
 74
     0
 42
0.0000000001
 43
0.0000000001
 12
1.0
 22
0.0
 32
0.0
 13
1.0
 23
0.0
 33
0.0
 40
0.0
 40
0.0
 40
0.0
 40
0.0
 40
0.2
 40
0.2
 40
0.2
 40
0.2
 40
0.4
 40
0.4
 40
0.4
 40
0.4
 40
0.6
 40
0.6
 40
0.6
 40
0.6
 40
1.0
 40
1.0
 40
1.0
 40
1.0
 10
-109.2449
 20
88.7683
 30
0.0
 10
-109.3293
 20
88.692
 30
0.0
 10
-109.4179
 20
88.6144
 30
0.0
 10
-109.5104
 20
88.5356
 30
0.0
 10
-109.5104
 20
88.5356
 30
0.0
 10
-112.2266
 20
86.279
 30
0.0
 10
-114.0989
 20
83.1503
 30
0.0
 10
-115.6102
 20
80.204
 30
0.0
 10
-115.6102
 20
80.204
 30
0.0
 10
-115.2952
 20
82.9081
 30
0.0
 10
-115.2059
 20
85.9198
 30
0.0
 10
-114.5934
 20
88.7935
 30
0.0
 10
-114.5934
 20
88.7935
 30
0.0
 10
-114.5934
 20
88.7935
 30
0.0
 10
-109.2449
 20
88.7683
 30
0.0
 10
-109.2449
 20
88.7683
 30
0.0
  0
SPLINE
  5
11F
330
1F
100
AcDbEntity
  8
layer 1
 62
     7
100
AcDbSpline
210
0.0
220
0.0
230
1.0
 70
    11
 71
     3
 72
    24
 73
    20
 74
     0
 42
0.0000000001
 43
0.0000000001
 12
1.0
 22
0.0
 32
0.0
 13
1.0
 23
0.0
 33
0.0
 40
0.0
 40
0.0
 40
0.0
 40
0.0
 40
0.1666666666666667
 40
0.1666666666666667
 40
0.1666666666666667
 40
0.1666666666666667
 40
0.3333333333333333
 40
0.3333333333333333
 40
0.3333333333333333
 40
0.3333333333333333
 40
0.5
 40
0.5
 40
0.5
 40
0.5
 40
0.6666666666666666
 40
0.6666666666666666
 40
0.6666666666666666
 40
0.6666666666666666
 40
1.0
 40
1.0
 40
1.0
 40
1.0
 10
-96.193
 20
88.8424
 30
0.0
 10
-96.193
 20
88.8424
 30
0.0
 10
-97.7454
 20
88.7903
 30
0.0
 10
-97.7454
 20
88.7903
 30
0.0
 10
-97.7454
 20
88.7903
 30
0.0
 10
-98.004
 20
88.6507
 30
0.0
 10
-98.2491
 20
88.4428
 30
0.0
 10
-98.5115
 20
88.1841
 30
0.0
 10
-98.5115
 20
88.1841
 30
0.0
 10
-99.5465
 20
87.1531
 30
0.0
 10
-99.417
 20
85.8407
 30
0.0
 10
-98.0471
 20
85.2503
 30
0.0
 10
-98.0471
 20
85.2503
 30
0.0
 10
-93.5624
 20
83.8238
 30
0.0
 10
-92.0437
 20
82.0511
 30
0.0
 10
-89.5177
 20
79.3163
 30
0.0
 10
-89.5177
 20
79.3163
 30
0.0
 10
-90.5886
 20
82.0691
 30
0.0
 10
-93.9445
 20
87.8001
 30
0.0
 10
-96.193
 20
88.8424
 30
0.0
  0
SPLINE
  5
120
330
1F
100
AcDbEntity
  8
layer 1
 62
     7
100
AcDbSpline
210
0.0
220
0.0
230
1.0
 70
    11
 71
     3
 72
    20
 73
    16
 74
     0
 42
0.0000000001
 43
0.0000000001
 12
1.0
 22
0.0
 32
0.0
 13
1.0
 23
0.0
 33
0.0
 40
0.0
 40
0.0
 40
0.0
 40
0.0
 40
0.2
 40
0.2
 40
0.2
 40
0.2
 40
0.4
 40
0.4
 40
0.4
 40
0.4
 40
0.6
 40
0.6
 40
0.6
 40
0.6
 40
1.0
 40
1.0
 40
1.0
 40
1.0
 10
-93.7229
 20
88.7683
 30
0.0
 10
-93.6384
 20
88.692
 30
0.0
 10
-93.5498
 20
88.6144
 30
0.0
 10
-93.4573
 20
88.5356
 30
0.0
 10
-93.4573
 20
88.5356
 30
0.0
 10
-90.7412
 20
86.279
 30
0.0
 10
-88.8688
 20
83.1503
 30
0.0
 10
-87.3576
 20
80.204
 30
0.0
 10
-87.3576
 20
80.204
 30
0.0
 10
-87.6725
 20
82.9081
 30
0.0
 10
-87.7618
 20
85.9198
 30
0.0
 10
-88.3743
 20
88.7935
 30
0.0
 10
-88.3743
 20
88.7935
 30
0.0
 10
-88.3743
 20
88.7935
 30
0.0
 10
-93.7229
 20
88.7683
 30
0.0
 10
-93.7229
 20
88.7683
 30
0.0
  0
SPLINE
  5
121
330
1F
100
AcDbEntity
  8
layer 1
 62
     7
100
AcDbSpline
210
0.0
220
0.0
230
1.0
 70
    11
 71
     3
 72
    16
 73
    12
 74
     0
 42
0.0000000001
 43
0.0000000001
 12
1.0
 22
0.0
 32
0.0
 13
1.0
 23
0.0
 33
0.0
 40
0.0
 40
0.0
 40
0.0
 40
0.0
 40
0.25
 40
0.25
 40
0.25
 40
0.25
 40
0.5
 40
0.5
 40
0.5
 40
0.5
 40
1.0
 40
1.0
 40
1.0
 40
1.0
 10
-83.6153
 20
88.8367
 30
0.0
 10
-84.4059
 20
86.0708
 30
0.0
 10
-84.894
 20
82.7207
 30
0.0
 10
-85.1383
 20
81.1865
 30
0.0
 10
-85.1383
 20
81.1865
 30
0.0
 10
-85.3798
 20
82.7035
 30
0.0
 10
-85.8596
 20
85.9959
 30
0.0
 10
-86.6346
 20
88.7433
 30
0.0
 10
-86.6346
 20
88.7433
 30
0.0
 10
-86.6346
 20
88.7433
 30
0.0
 10
-83.6153
 20
88.8367
 30
0.0
 10
-83.6153
 20
88.8367
 30
0.0
  0
SPLINE
  5
122
330
1F
100
AcDbEntity
  8
layer 1
 62
     7
100
AcDbSpline
210
0.0
220
0.0
230
1.0
 70
    11
 71
     3
 72
    24
 73
    20
 74
     0
 42
0.0000000001
 43
0.0000000001
 12
1.0
 22
0.0
 32
0.0
 13
1.0
 23
0.0
 33
0.0
 40
0.0
 40
0.0
 40
0.0
 40
0.0
 40
0.1666666666666667
 40
0.1666666666666667
 40
0.1666666666666667
 40
0.1666666666666667
 40
0.3333333333333333
 40
0.3333333333333333
 40
0.3333333333333333
 40
0.3333333333333333
 40
0.5
 40
0.5
 40
0.5
 40
0.5
 40
0.6666666666666666
 40
0.6666666666666666
 40
0.6666666666666666
 40
0.6666666666666666
 40
1.0
 40
1.0
 40
1.0
 40
1.0
 10
-74.1811
 20
88.8424
 30
0.0
 10
-74.1811
 20
88.8424
 30
0.0
 10
-72.6287
 20
88.7903
 30
0.0
 10
-72.6287
 20
88.7903
 30
0.0
 10
-72.6287
 20
88.7903
 30
0.0
 10
-72.3701
 20
88.6507
 30
0.0
 10
-72.125
 20
88.4428
 30
0.0
 10
-71.8626
 20
88.1841
 30
0.0
 10
-71.8626
 20
88.1841
 30
0.0
 10
-70.8276
 20
87.1531
 30
0.0
 10
-70.9571
 20
85.8407
 30
0.0
 10
-72.327
 20
85.2503
 30
0.0
 10
-72.327
 20
85.2503
 30
0.0
 10
-76.8117
 20
83.8238
 30
0.0
 10
-78.3304
 20
82.0511
 30
0.0
 10
-80.8564
 20
79.3163
 30
0.0
 10
-80.8564
 20
79.3163
 30
0.0
 10
-79.7855
 20
82.0691
 30
0.0
 10
-76.4296
 20
87.8001
 30
0.0
 10
-74.1811
 20
88.8424
 30
0.0
  0
SPLINE
  5
123
330
1F
100
AcDbEntity
  8
layer 1
 62
     7
100
AcDbSpline
210
0.0
220
0.0
230
1.0
 70
    11
 71
     3
 72
    20
 73
    16
 74
     0
 42
0.0000000001
 43
0.0000000001
 12
1.0
 22
0.0
 32
0.0
 13
1.0
 23
0.0
 33
0.0
 40
0.0
 40
0.0
 40
0.0
 40
0.0
 40
0.2
 40
0.2
 40
0.2
 40
0.2
 40
0.4
 40
0.4
 40
0.4
 40
0.4
 40
0.6
 40
0.6
 40
0.6
 40
0.6
 40
1.0
 40
1.0
 40
1.0
 40
1.0
 10
-76.6513
 20
88.7683
 30
0.0
 10
-76.7357
 20
88.692
 30
0.0
 10
-76.8243
 20
88.6144
 30
0.0
 10
-76.9168
 20
88.5356
 30
0.0
 10
-76.9168
 20
88.5356
 30
0.0
 10
-79.633
 20
86.279
 30
0.0
 10
-81.5053
 20
83.1503
 30
0.0
 10
-83.0165
 20
80.204
 30
0.0
 10
-83.0165
 20
80.204
 30
0.0
 10
-82.7016
 20
82.9081
 30
0.0
 10
-82.6123
 20
85.9198
 30
0.0
 10
-81.9998
 20
88.7935
 30
0.0
 10
-81.9998
 20
88.7935
 30
0.0
 10
-81.9998
 20
88.7935
 30
0.0
 10
-76.6513
 20
88.7683
 30
0.0
 10
-76.6513
 20
88.7683
 30
0.0
  0
SPLINE
  5
124
330
1F
100
AcDbEntity
  8
layer 1
 62
     7
100
AcDbSpline
210
0.0
220
0.0
230
1.0
 70
    11
 71
     3
 72
    20
 73
    16
 74
     0
 42
0.0000000001
 43
0.0000000001
 12
1.0
 22
0.0
 32
0.0
 13
1.0
 23
0.0
 33
0.0
 40
0.0
 40
0.0
 40
0.0
 40
0.0
 40
0.2
 40
0.2
 40
0.2
 40
0.2
 40
0.4
 40
0.4
 40
0.4
 40
0.4
 40
0.6
 40
0.6
 40
0.6
 40
0.6
 40
1.0
 40
1.0
 40
1.0
 40
1.0
 10
-161.227
 20
10.3579
 30
0.0
 10
-162.2704
 20
10.7174
 30
0.0
 10
-162.8456
 20
10.3896
 30
0.0
 10
-163.5456
 20
9.6996
 30
0.0
 10
-163.5456
 20
9.6996
 30
0.0
 10
-164.5806
 20
8.6686
 30
0.0
 10
-164.4511
 20
7.3562
 30
0.0
 10
-163.0812
 20
6.7657
 30
0.0
 10
-163.0812
 20
6.7657
 30
0.0
 10
-158.5964
 20
5.3393
 30
0.0
 10
-157.0778
 20
3.5665
 30
0.0
 10
-154.5518
 20
0.8317
 30
0.0
 10
-154.5518
 20
0.8317
 30
0.0
 10
-155.6227
 20
3.5846
 30
0.0
 10
-158.9786
 20
9.3156
 30
0.0
 10
-161.227
 20
10.3579
 30
0.0
  0
SPLINE
  5
125
330
1F
100
AcDbEntity
  8
layer 1
 62
     7
100
AcDbSpline
210
0.0
220
0.0
230
1.0
 70
    11
 71
     3
 72
    20
 73
    16
 74
     0
 42
0.0000000001
 43
0.0000000001
 12
1.0
 22
0.0
 32
0.0
 13
1.0
 23
0.0
 33
0.0
 40
0.0
 40
0.0
 40
0.0
 40
0.0
 40
0.2
 40
0.2
 40
0.2
 40
0.2
 40
0.4
 40
0.4
 40
0.4
 40
0.4
 40
0.6
 40
0.6
 40
0.6
 40
0.6
 40
1.0
 40
1.0
 40
1.0
 40
1.0
 10
-154.4126
 20
13.5927
 30
0.0
 10
-155.1965
 20
15.4409
 30
0.0
 10
-156.7287
 20
16.0548
 30
0.0
 10
-158.6353
 20
14.4644
 30
0.0
 10
-158.6353
 20
14.4644
 30
0.0
 10
-160.601
 20
12.8248
 30
0.0
 10
-160.4663
 20
11.733
 30
0.0
 10
-158.4914
 20
10.0511
 30
0.0
 10
-158.4914
 20
10.0511
 30
0.0
 10
-155.7752
 20
7.7945
 30
0.0
 10
-153.9029
 20
4.6658
 30
0.0
 10
-152.3916
 20
1.7195
 30
0.0
 10
-152.3916
 20
1.7195
 30
0.0
 10
-152.8299
 20
5.4818
 30
0.0
 10
-152.8311
 20
9.8391
 30
0.0
 10
-154.4126
 20
13.5927
 30
0.0
  0
SPLINE
  5
126
330
1F
100
AcDbEntity
  8
layer 1
 62
     7
100
AcDbSpline
210
0.0
220
0.0
230
1.0
 70
    11
 71
     3
 72
    28
 73
    24
 74
     0
 42
0.0000000001
 43
0.0000000001
 12
1.0
 22
0.0
 32
0.0
 13
1.0
 23
0.0
 33
0.0
 40
0.0
 40
0.0
 40
0.0
 40
0.0
 40
0.1428571428571428
 40
0.1428571428571428
 40
0.1428571428571428
 40
0.1428571428571428
 40
0.2857142857142857
 40
0.2857142857142857
 40
0.2857142857142857
 40
0.2857142857142857
 40
0.4285714285714285
 40
0.4285714285714285
 40
0.4285714285714285
 40
0.4285714285714285
 40
0.5714285714285714
 40
0.5714285714285714
 40
0.5714285714285714
 40
0.5714285714285714
 40
0.7142857142857143
 40
0.7142857142857143
 40
0.7142857142857143
 40
0.7142857142857143
 40
1.0
 40
1.0
 40
1.0
 40
1.0
 10
-152.914
 20
13.45
 30
0.0
 10
-153.4106
 20
14.5083
 30
0.0
 10
-153.7778
 20
15.5737
 30
0.0
 10
-153.7299
 20
15.8175
 30
0.0
 10
-153.7299
 20
15.8175
 30
0.0
 10
-153.5427
 20
16.7711
 30
0.0
 10
-152.2414
 20
17.2872
 30
0.0
 10
-150.1724
 20
17.3418
 30
0.0
 10
-150.1724
 20
17.3418
 30
0.0
 10
-148.1034
 20
17.3145
 30
0.0
 10
-146.802
 20
16.7711
 30
0.0
 10
-146.6148
 20
15.8175
 30
0.0
 10
-146.6148
 20
15.8175
 30
0.0
 10
-146.5669
 20
15.5737
 30
0.0
 10
-146.9341
 20
14.5084
 30
0.0
 10
-147.4308
 20
13.45
 30
0.0
 10
-147.4308
 20
13.45
 30
0.0
 10
-148.9656
 20
10.8708
 30
0.0
 10
-149.8209
 20
4.9086
 30
0.0
 10
-150.1724
 20
2.702
 30
0.0
 10
-150.1724
 20
2.702
 30
0.0
 10
-150.5238
 20
4.9086
 30
0.0
 10
-151.3792
 20
10.8709
 30
0.0
 10
-152.914
 20
13.45
 30
0.0
  0
SPLINE
  5
127
330
1F
100
AcDbEntity
  8
layer 1
 62
     7
100
AcDbSpline
210
0.0
220
0.0
230
1.0
 70
    11
 71
     3
 72
    20
 73
    16
 74
     0
 42
0.0000000001
 43
0.0000000001
 12
1.0
 22
0.0
 32
0.0
 13
1.0
 23
0.0
 33
0.0
 40
0.0
 40
0.0
 40
0.0
 40
0.0
 40
0.2
 40
0.2
 40
0.2
 40
0.2
 40
0.4
 40
0.4
 40
0.4
 40
0.4
 40
0.6
 40
0.6
 40
0.6
 40
0.6
 40
1.0
 40
1.0
 40
1.0
 40
1.0
 10
-139.1716
 20
10.3579
 30
0.0
 10
-138.1282
 20
10.7174
 30
0.0
 10
-137.553
 20
10.3896
 30
0.0
 10
-136.8531
 20
9.6996
 30
0.0
 10
-136.8531
 20
9.6996
 30
0.0
 10
-135.8181
 20
8.6686
 30
0.0
 10
-135.9475
 20
7.3562
 30
0.0
 10
-137.3174
 20
6.7657
 30
0.0
 10
-137.3174
 20
6.7657
 30
0.0
 10
-141.8022
 20
5.3393
 30
0.0
 10
-143.3208
 20
3.5665
 30
0.0
 10
-145.8469
 20
0.8317
 30
0.0
 10
-145.8469
 20
0.8317
 30
0.0
 10
-144.776
 20
3.5846
 30
0.0
 10
-141.4201
 20
9.3156
 30
0.0
 10
-139.1716
 20
10.3579
 30
0.0
  0
SPLINE
  5
128
330
1F
100
AcDbEntity
  8
layer 1
 62
     7
100
AcDbSpline
210
0.0
220
0.0
230
1.0
 70
    11
 71
     3
 72
    20
 73
    16
 74
     0
 42
0.0000000001
 43
0.0000000001
 12
1.0
 22
0.0
 32
0.0
 13
1.0
 23
0.0
 33
0.0
 40
0.0
 40
0.0
 40
0.0
 40
0.0
 40
0.2
 40
0.2
 40
0.2
 40
0.2
 40
0.4
 40
0.4
 40
0.4
 40
0.4
 40
0.6
 40
0.6
 40
0.6
 40
0.6
 40
1.0
 40
1.0
 40
1.0
 40
1.0
 10
-145.9861
 20
13.5927
 30
0.0
 10
-145.2021
 20
15.4409
 30
0.0
 10
-143.67
 20
16.0548
 30
0.0
 10
-141.7633
 20
14.4644
 30
0.0
 10
-141.7633
 20
14.4644
 30
0.0
 10
-139.7977
 20
12.8248
 30
0.0
 10
-139.9323
 20
11.733
 30
0.0
 10
-141.9073
 20
10.0511
 30
0.0
 10
-141.9073
 20
10.0511
 30
0.0
 10
-144.6234
 20
7.7945
 30
0.0
 10
-146.4957
 20
4.6658
 30
0.0
 10
-148.007
 20
1.7195
 30
0.0
 10
-148.007
 20
1.7195
 30
0.0
 10
-147.5687
 20
5.4818
 30
0.0
 10
-147.5675
 20
9.8391
 30
0.0
 10
-145.9861
 20
13.5927
 30
0.0
  0
SPLINE
  5
129
330
1F
100
AcDbEntity
  8
layer 1
 62
     7
100
AcDbSpline
210
0.0
220
0.0
230
1.0
 70
    11
 71
     3
 72
    20
 73
    16
 74
     0
 42
0.0000000001
 43
0.0000000001
 12
1.0
 22
0.0
 32
0.0
 13
1.0
 23
0.0
 33
0.0
 40
0.0
 40
0.0
 40
0.0
 40
0.0
 40
0.2
 40
0.2
 40
0.2
 40
0.2
 40
0.4
 40
0.4
 40
0.4
 40
0.4
 40
0.6
 40
0.6
 40
0.6
 40
0.6
 40
1.0
 40
1.0
 40
1.0
 40
1.0
 10
-128.7008
 20
10.3579
 30
0.0
 10
-129.7442
 20
10.7174
 30
0.0
 10
-130.3194
 20
10.3896
 30
0.0
 10
-131.0194
 20
9.6996
 30
0.0
 10
-131.0194
 20
9.6996
 30
0.0
 10
-132.0544
 20
8.6686
 30
0.0
 10
-131.9249
 20
7.3562
 30
0.0
 10
-130.555
 20
6.7657
 30
0.0
 10
-130.555
 20
6.7657
 30
0.0
 10
-126.0702
 20
5.3393
 30
0.0
 10
-124.5516
 20
3.5665
 30
0.0
 10
-122.0256
 20
0.8317
 30
0.0
 10
-122.0256
 20
0.8317
 30
0.0
 10
-123.0965
 20
3.5846
 30
0.0
 10
-126.4524
 20
9.3156
 30
0.0
 10
-128.7008
 20
10.3579
 30
0.0
  0
SPLINE
  5
12A
330
1F
100
AcDbEntity
  8
layer 1
 62
     7
100
AcDbSpline
210
0.0
220
0.0
230
1.0
 70
    11
 71
     3
 72
    20
 73
    16
 74
     0
 42
0.0000000001
 43
0.0000000001
 12
1.0
 22
0.0
 32
0.0
 13
1.0
 23
0.0
 33
0.0
 40
0.0
 40
0.0
 40
0.0
 40
0.0
 40
0.2
 40
0.2
 40
0.2
 40
0.2
 40
0.4
 40
0.4
 40
0.4
 40
0.4
 40
0.6
 40
0.6
 40
0.6
 40
0.6
 40
1.0
 40
1.0
 40
1.0
 40
1.0
 10
-121.8864
 20
13.5927
 30
0.0
 10
-122.6703
 20
15.4409
 30
0.0
 10
-124.2025
 20
16.0548
 30
0.0
 10
-126.1091
 20
14.4644
 30
0.0
 10
-126.1091
 20
14.4644
 30
0.0
 10
-128.0747
 20
12.8248
 30
0.0
 10
-127.9401
 20
11.733
 30
0.0
 10
-125.9652
 20
10.0511
 30
0.0
 10
-125.9652
 20
10.0511
 30
0.0
 10
-123.249
 20
7.7945
 30
0.0
 10
-121.3767
 20
4.6658
 30
0.0
 10
-119.8654
 20
1.7195
 30
0.0
 10
-119.8654
 20
1.7195
 30
0.0
 10
-120.3037
 20
5.4818
 30
0.0
 10
-120.3049
 20
9.8391
 30
0.0
 10
-121.8864
 20
13.5927
 30
0.0
  0
SPLINE
  5
12B
330
1F
100
AcDbEntity
  8
layer 1
 62
     7
100
AcDbSpline
210
0.0
220
0.0
230
1.0
 70
    11
 71
     3
 72
    28
 73
    24
 74
     0
 42
0.0000000001
 43
0.0000000001
 12
1.0
 22
0.0
 32
0.0
 13
1.0
 23
0.0
 33
0.0
 40
0.0
 40
0.0
 40
0.0
 40
0.0
 40
0.1428571428571428
 40
0.1428571428571428
 40
0.1428571428571428
 40
0.1428571428571428
 40
0.2857142857142857
 40
0.2857142857142857
 40
0.2857142857142857
 40
0.2857142857142857
 40
0.4285714285714285
 40
0.4285714285714285
 40
0.4285714285714285
 40
0.4285714285714285
 40
0.5714285714285714
 40
0.5714285714285714
 40
0.5714285714285714
 40
0.5714285714285714
 40
0.7142857142857143
 40
0.7142857142857143
 40
0.7142857142857143
 40
0.7142857142857143
 40
1.0
 40
1.0
 40
1.0
 40
1.0
 10
-120.3878
 20
13.45
 30
0.0
 10
-120.8844
 20
14.5083
 30
0.0
 10
-121.2516
 20
15.5737
 30
0.0
 10
-121.2037
 20
15.8175
 30
0.0
 10
-121.2037
 20
15.8175
 30
0.0
 10
-121.0165
 20
16.7711
 30
0.0
 10
-119.7152
 20
17.2872
 30
0.0
 10
-117.6462
 20
17.3418
 30
0.0
 10
-117.6462
 20
17.3418
 30
0.0
 10
-115.5772
 20
17.3145
 30
0.0
 10
-114.2758
 20
16.7711
 30
0.0
 10
-114.0886
 20
15.8175
 30
0.0
 10
-114.0886
 20
15.8175
 30
0.0
 10
-114.0407
 20
15.5737
 30
0.0
 10
-114.4079
 20
14.5084
 30
0.0
 10
-114.9046
 20
13.45
 30
0.0
 10
-114.9046
 20
13.45
 30
0.0
 10
-116.4394
 20
10.8708
 30
0.0
 10
-117.2947
 20
4.9086
 30
0.0
 10
-117.6462
 20
2.702
 30
0.0
 10
-117.6462
 20
2.702
 30
0.0
 10
-117.9976
 20
4.9086
 30
0.0
 10
-118.853
 20
10.8709
 30
0.0
 10
-120.3878
 20
13.45
 30
0.0
  0
SPLINE
  5
12C
330
1F
100
AcDbEntity
  8
layer 1
 62
     7
100
AcDbSpline
210
0.0
220
0.0
230
1.0
 70
    11
 71
     3
 72
    20
 73
    16
 74
     0
 42
0.0000000001
 43
0.0000000001
 12
1.0
 22
0.0
 32
0.0
 13
1.0
 23
0.0
 33
0.0
 40
0.0
 40
0.0
 40
0.0
 40
0.0
 40
0.2
 40
0.2
 40
0.2
 40
0.2
 40
0.4
 40
0.4
 40
0.4
 40
0.4
 40
0.6
 40
0.6
 40
0.6
 40
0.6
 40
1.0
 40
1.0
 40
1.0
 40
1.0
 10
-106.6454
 20
10.3579
 30
0.0
 10
-105.602
 20
10.7174
 30
0.0
 10
-105.0268
 20
10.3896
 30
0.0
 10
-104.3268
 20
9.6996
 30
0.0
 10
-104.3268
 20
9.6996
 30
0.0
 10
-103.2919
 20
8.6686
 30
0.0
 10
-103.4213
 20
7.3562
 30
0.0
 10
-104.7912
 20
6.7657
 30
0.0
 10
-104.7912
 20
6.7657
 30
0.0
 10
-109.276
 20
5.3393
 30
0.0
 10
-110.7946
 20
3.5665
 30
0.0
 10
-113.3207
 20
0.8317
 30
0.0
 10
-113.3207
 20
0.8317
 30
0.0
 10
-112.2497
 20
3.5846
 30
0.0
 10
-108.8939
 20
9.3156
 30
0.0
 10
-106.6454
 20
10.3579
 30
0.0
  0
SPLINE
  5
12D
330
1F
100
AcDbEntity
  8
layer 1
 62
     7
100
AcDbSpline
210
0.0
220
0.0
230
1.0
 70
    11
 71
     3
 72
    20
 73
    16
 74
     0
 42
0.0000000001
 43
0.0000000001
 12
1.0
 22
0.0
 32
0.0
 13
1.0
 23
0.0
 33
0.0
 40
0.0
 40
0.0
 40
0.0
 40
0.0
 40
0.2
 40
0.2
 40
0.2
 40
0.2
 40
0.4
 40
0.4
 40
0.4
 40
0.4
 40
0.6
 40
0.6
 40
0.6
 40
0.6
 40
1.0
 40
1.0
 40
1.0
 40
1.0
 10
-113.4598
 20
13.5927
 30
0.0
 10
-112.6759
 20
15.4409
 30
0.0
 10
-111.1438
 20
16.0548
 30
0.0
 10
-109.2371
 20
14.4644
 30
0.0
 10
-109.2371
 20
14.4644
 30
0.0
 10
-107.2715
 20
12.8248
 30
0.0
 10
-107.4061
 20
11.733
 30
0.0
 10
-109.381
 20
10.0511
 30
0.0
 10
-109.381
 20
10.0511
 30
0.0
 10
-112.0972
 20
7.7945
 30
0.0
 10
-113.9695
 20
4.6658
 30
0.0
 10
-115.4808
 20
1.7195
 30
0.0
 10
-115.4808
 20
1.7195
 30
0.0
 10
-115.0425
 20
5.4818
 30
0.0
 10
-115.0413
 20
9.8391
 30
0.0
 10
-113.4598
 20
13.5927
 30
0.0
  0
SPLINE
  5
12E
330
1F
100
AcDbEntity
  8
layer 1
 62
     7
100
AcDbSpline
210
0.0
220
0.0
230
1.0
 70
    11
 71
     3
 72
    20
 73
    16
 74
     0
 42
0.0000000001
 43
0.0000000001
 12
1.0
 22
0.0
 32
0.0
 13
1.0
 23
0.0
 33
0.0
 40
0.0
 40
0.0
 40
0.0
 40
0.0
 40
0.2
 40
0.2
 40
0.2
 40
0.2
 40
0.4
 40
0.4
 40
0.4
 40
0.4
 40
0.6
 40
0.6
 40
0.6
 40
0.6
 40
1.0
 40
1.0
 40
1.0
 40
1.0
 10
-96.1746
 20
10.3579
 30
0.0
 10
-97.218
 20
10.7174
 30
0.0
 10
-97.7932
 20
10.3896
 30
0.0
 10
-98.4932
 20
9.6996
 30
0.0
 10
-98.4932
 20
9.6996
 30
0.0
 10
-99.5282
 20
8.6686
 30
0.0
 10
-99.3987
 20
7.3562
 30
0.0
 10
-98.0288
 20
6.7657
 30
0.0
 10
-98.0288
 20
6.7657
 30
0.0
 10
-93.544
 20
5.3393
 30
0.0
 10
-92.0254
 20
3.5665
 30
0.0
 10
-89.4994
 20
0.8317
 30
0.0
 10
-89.4994
 20
0.8317
 30
0.0
 10
-90.5703
 20
3.5846
 30
0.0
 10
-93.9262
 20
9.3156
 30
0.0
 10
-96.1746
 20
10.3579
 30
0.0
  0
SPLINE
  5
12F
330
1F
100
AcDbEntity
  8
layer 1
 62
     7
100
AcDbSpline
210
0.0
220
0.0
230
1.0
 70
    11
 71
     3
 72
    20
 73
    16
 74
     0
 42
0.0000000001
 43
0.0000000001
 12
1.0
 22
0.0
 32
0.0
 13
1.0
 23
0.0
 33
0.0
 40
0.0
 40
0.0
 40
0.0
 40
0.0
 40
0.2
 40
0.2
 40
0.2
 40
0.2
 40
0.4
 40
0.4
 40
0.4
 40
0.4
 40
0.6
 40
0.6
 40
0.6
 40
0.6
 40
1.0
 40
1.0
 40
1.0
 40
1.0
 10
-89.3602
 20
13.5927
 30
0.0
 10
-90.1441
 20
15.4409
 30
0.0
 10
-91.6763
 20
16.0548
 30
0.0
 10
-93.5829
 20
14.4644
 30
0.0
 10
-93.5829
 20
14.4644
 30
0.0
 10
-95.5485
 20
12.8248
 30
0.0
 10
-95.4139
 20
11.733
 30
0.0
 10
-93.439
 20
10.0511
 30
0.0
 10
-93.439
 20
10.0511
 30
0.0
 10
-90.7228
 20
7.7945
 30
0.0
 10
-88.8505
 20
4.6658
 30
0.0
 10
-87.3392
 20
1.7195
 30
0.0
 10
-87.3392
 20
1.7195
 30
0.0
 10
-87.7775
 20
5.4818
 30
0.0
 10
-87.7787
 20
9.8391
 30
0.0
 10
-89.3602
 20
13.5927
 30
0.0
  0
SPLINE
  5
130
330
1F
100
AcDbEntity
  8
layer 1
 62
     7
100
AcDbSpline
210
0.0
220
0.0
230
1.0
 70
    11
 71
     3
 72
    28
 73
    24
 74
     0
 42
0.0000000001
 43
0.0000000001
 12
1.0
 22
0.0
 32
0.0
 13
1.0
 23
0.0
 33
0.0
 40
0.0
 40
0.0
 40
0.0
 40
0.0
 40
0.1428571428571428
 40
0.1428571428571428
 40
0.1428571428571428
 40
0.1428571428571428
 40
0.2857142857142857
 40
0.2857142857142857
 40
0.2857142857142857
 40
0.2857142857142857
 40
0.4285714285714285
 40
0.4285714285714285
 40
0.4285714285714285
 40
0.4285714285714285
 40
0.5714285714285714
 40
0.5714285714285714
 40
0.5714285714285714
 40
0.5714285714285714
 40
0.7142857142857143
 40
0.7142857142857143
 40
0.7142857142857143
 40
0.7142857142857143
 40
1.0
 40
1.0
 40
1.0
 40
1.0
 10
-87.8616
 20
13.45
 30
0.0
 10
-88.3582
 20
14.5083
 30
0.0
 10
-88.7254
 20
15.5737
 30
0.0
 10
-88.6775
 20
15.8175
 30
0.0
 10
-88.6775
 20
15.8175
 30
0.0
 10
-88.4903
 20
16.7711
 30
0.0
 10
-87.189
 20
17.2872
 30
0.0
 10
-85.12
 20
17.3418
 30
0.0
 10
-85.12
 20
17.3418
 30
0.0
 10
-83.051
 20
17.3145
 30
0.0
 10
-81.7496
 20
16.7711
 30
0.0
 10
-81.5624
 20
15.8175
 30
0.0
 10
-81.5624
 20
15.8175
 30
0.0
 10
-81.5145
 20
15.5737
 30
0.0
 10
-81.8817
 20
14.5084
 30
0.0
 10
-82.3784
 20
13.45
 30
0.0
 10
-82.3784
 20
13.45
 30
0.0
 10
-83.9132
 20
10.8708
 30
0.0
 10
-84.7685
 20
4.9086
 30
0.0
 10
-85.12
 20
2.702
 30
0.0
 10
-85.12
 20
2.702
 30
0.0
 10
-85.4714
 20
4.9086
 30
0.0
 10
-86.3268
 20
10.8709
 30
0.0
 10
-87.8616
 20
13.45
 30
0.0
  0
SPLINE
  5
131
330
1F
100
AcDbEntity
  8
layer 1
 62
     7
100
AcDbSpline
210
0.0
220
0.0
230
1.0
 70
    11
 71
     3
 72
    20
 73
    16
 74
     0
 42
0.0000000001
 43
0.0000000001
 12
1.0
 22
0.0
 32
0.0
 13
1.0
 23
0.0
 33
0.0
 40
0.0
 40
0.0
 40
0.0
 40
0.0
 40
0.2
 40
0.2
 40
0.2
 40
0.2
 40
0.4
 40
0.4
 40
0.4
 40
0.4
 40
0.6
 40
0.6
 40
0.6
 40
0.6
 40
1.0
 40
1.0
 40
1.0
 40
1.0
 10
-74.1192
 20
10.3579
 30
0.0
 10
-73.0758
 20
10.7174
 30
0.0
 10
-72.5006
 20
10.3896
 30
0.0
 10
-71.8006
 20
9.6996
 30
0.0
 10
-71.8006
 20
9.6996
 30
0.0
 10
-70.7657
 20
8.6686
 30
0.0
 10
-70.8951
 20
7.3562
 30
0.0
 10
-72.265
 20
6.7657
 30
0.0
 10
-72.265
 20
6.7657
 30
0.0
 10
-76.7498
 20
5.3393
 30
0.0
 10
-78.2684
 20
3.5665
 30
0.0
 10
-80.7945
 20
0.8317
 30
0.0
 10
-80.7945
 20
0.8317
 30
0.0
 10
-79.7235
 20
3.5846
 30
0.0
 10
-76.3677
 20
9.3156
 30
0.0
 10
-74.1192
 20
10.3579
 30
0.0
  0
SPLINE
  5
132
330
1F
100
AcDbEntity
  8
layer 1
 62
     7
100
AcDbSpline
210
0.0
220
0.0
230
1.0
 70
    11
 71
     3
 72
    20
 73
    16
 74
     0
 42
0.0000000001
 43
0.0000000001
 12
1.0
 22
0.0
 32
0.0
 13
1.0
 23
0.0
 33
0.0
 40
0.0
 40
0.0
 40
0.0
 40
0.0
 40
0.2
 40
0.2
 40
0.2
 40
0.2
 40
0.4
 40
0.4
 40
0.4
 40
0.4
 40
0.6
 40
0.6
 40
0.6
 40
0.6
 40
1.0
 40
1.0
 40
1.0
 40
1.0
 10
-80.9336
 20
13.5927
 30
0.0
 10
-80.1497
 20
15.4409
 30
0.0
 10
-78.6176
 20
16.0548
 30
0.0
 10
-76.7109
 20
14.4644
 30
0.0
 10
-76.7109
 20
14.4644
 30
0.0
 10
-74.7453
 20
12.8248
 30
0.0
 10
-74.8799
 20
11.733
 30
0.0
 10
-76.8548
 20
10.0511
 30
0.0
 10
-76.8548
 20
10.0511
 30
0.0
 10
-79.571
 20
7.7945
 30
0.0
 10
-81.4433
 20
4.6658
 30
0.0
 10
-82.9546
 20
1.7195
 30
0.0
 10
-82.9546
 20
1.7195
 30
0.0
 10
-82.5163
 20
5.4818
 30
0.0
 10
-82.5151
 20
9.8391
 30
0.0
 10
-80.9336
 20
13.5927
 30
0.0
  0
SPLINE
  5
133
330
1F
100
AcDbEntity
  8
layer 1
 62
     7
100
AcDbSpline
210
0.0
220
0.0
230
1.0
 70
    11
 71
     3
 72
    20
 73
    16
 74
     0
 42
0.0000000001
 43
0.0000000001
 12
1.0
 22
0.0
 32
0.0
 13
1.0
 23
0.0
 33
0.0
 40
0.0
 40
0.0
 40
0.0
 40
0.0
 40
0.2
 40
0.2
 40
0.2
 40
0.2
 40
0.4
 40
0.4
 40
0.4
 40
0.4
 40
0.6
 40
0.6
 40
0.6
 40
0.6
 40
1.0
 40
1.0
 40
1.0
 40
1.0
 10
-63.6484
 20
10.3579
 30
0.0
 10
-64.6918
 20
10.7174
 30
0.0
 10
-65.267
 20
10.3896
 30
0.0
 10
-65.967
 20
9.6996
 30
0.0
 10
-65.967
 20
9.6996
 30
0.0
 10
-67.0019
 20
8.6686
 30
0.0
 10
-66.8725
 20
7.3562
 30
0.0
 10
-65.5026
 20
6.7657
 30
0.0
 10
-65.5026
 20
6.7657
 30
0.0
 10
-61.0178
 20
5.3393
 30
0.0
 10
-59.4992
 20
3.5665
 30
0.0
 10
-56.9732
 20
0.8317
 30
0.0
 10
-56.9732
 20
0.8317
 30
0.0
 10
-58.0441
 20
3.5846
 30
0.0
 10
-61.4
 20
9.3156
 30
0.0
 10
-63.6484
 20
10.3579
 30
0.0
  0
SPLINE
  5
134
330
1F
100
AcDbEntity
  8
layer 1
 62
     7
100
AcDbSpline
210
0.0
220
0.0
230
1.0
 70
    11
 71
     3
 72
    20
 73
    16
 74
     0
 42
0.0000000001
 43
0.0000000001
 12
1.0
 22
0.0
 32
0.0
 13
1.0
 23
0.0
 33
0.0
 40
0.0
 40
0.0
 40
0.0
 40
0.0
 40
0.2
 40
0.2
 40
0.2
 40
0.2
 40
0.4
 40
0.4
 40
0.4
 40
0.4
 40
0.6
 40
0.6
 40
0.6
 40
0.6
 40
1.0
 40
1.0
 40
1.0
 40
1.0
 10
-56.834
 20
13.5927
 30
0.0
 10
-57.6179
 20
15.4409
 30
0.0
 10
-59.1501
 20
16.0548
 30
0.0
 10
-61.0567
 20
14.4644
 30
0.0
 10
-61.0567
 20
14.4644
 30
0.0
 10
-63.0223
 20
12.8248
 30
0.0
 10
-62.8877
 20
11.733
 30
0.0
 10
-60.9128
 20
10.0511
 30
0.0
 10
-60.9128
 20
10.0511
 30
0.0
 10
-58.1966
 20
7.7945
 30
0.0
 10
-56.3243
 20
4.6658
 30
0.0
 10
-54.813
 20
1.7195
 30
0.0
 10
-54.813
 20
1.7195
 30
0.0
 10
-55.2513
 20
5.4818
 30
0.0
 10
-55.2525
 20
9.8391
 30
0.0
 10
-56.834
 20
13.5927
 30
0.0
  0
SPLINE
  5
135
330
1F
100
AcDbEntity
  8
layer 1
 62
     7
100
AcDbSpline
210
0.0
220
0.0
230
1.0
 70
    11
 71
     3
 72
    20
 73
    16
 74
     0
 42
0.0000000001
 43
0.0000000001
 12
1.0
 22
0.0
 32
0.0
 13
1.0
 23
0.0
 33
0.0
 40
0.0
 40
0.0
 40
0.0
 40
0.0
 40
0.2
 40
0.2
 40
0.2
 40
0.2
 40
0.4
 40
0.4
 40
0.4
 40
0.4
 40
0.6
 40
0.6
 40
0.6
 40
0.6
 40
1.0
 40
1.0
 40
1.0
 40
1.0
 10
-55.3354
 20
13.45
 30
0.0
 10
-55.832
 20
14.5083
 30
0.0
 10
-56.1992
 20
15.5737
 30
0.0
 10
-56.1513
 20
15.8175
 30
0.0
 10
-56.1513
 20
15.8175
 30
0.0
 10
-55.9641
 20
16.7711
 30
0.0
 10
-54.6628
 20
17.2872
 30
0.0
 10
-52.5938
 20
17.3418
 30
0.0
 10
-52.5938
 20
17.3418
 30
0.0
 10
-52.5938
 20
17.3418
 30
0.0
 10
-52.5938
 20
2.702
 30
0.0
 10
-52.5938
 20
2.702
 30
0.0
 10
-52.5938
 20
2.702
 30
0.0
 10
-52.9451
 20
4.9086
 30
0.0
 10
-53.8005
 20
10.8709
 30
0.0
 10
-55.3354
 20
13.45
 30
0.0
  0
SPLINE
  5
136
330
1F
100
AcDbEntity
  8
layer 1
 62
     7
100
AcDbSpline
210
0.0
220
0.0
230
1.0
 70
    11
 71
     3
 72
    20
 73
    16
 74
     0
 42
0.0000000001
 43
0.0000000001
 12
1.0
 22
0.0
 32
0.0
 13
1.0
 23
0.0
 33
0.0
 40
0.0
 40
0.0
 40
0.0
 40
0.0
 40
0.2
 40
0.2
 40
0.2
 40
0.2
 40
0.4
 40
0.4
 40
0.4
 40
0.4
 40
0.6
 40
0.6
 40
0.6
 40
0.6
 40
1.0
 40
1.0
 40
1.0
 40
1.0
 10
-171.6669
 20
10.3579
 30
0.0
 10
-170.6235
 20
10.7174
 30
0.0
 10
-170.0483
 20
10.3896
 30
0.0
 10
-169.3483
 20
9.6996
 30
0.0
 10
-169.3483
 20
9.6996
 30
0.0
 10
-168.3134
 20
8.6686
 30
0.0
 10
-168.4428
 20
7.3562
 30
0.0
 10
-169.8127
 20
6.7657
 30
0.0
 10
-169.8127
 20
6.7657
 30
0.0
 10
-174.2975
 20
5.3393
 30
0.0
 10
-175.8161
 20
3.5665
 30
0.0
 10
-178.3421
 20
0.8317
 30
0.0
 10
-178.3421
 20
0.8317
 30
0.0
 10
-177.2712
 20
3.5846
 30
0.0
 10
-173.9154
 20
9.3156
 30
0.0
 10
-171.6669
 20
10.3579
 30
0.0
  0
SPLINE
  5
137
330
1F
100
AcDbEntity
  8
layer 1
 62
     7
100
AcDbSpline
210
0.0
220
0.0
230
1.0
 70
    11
 71
     3
 72
    20
 73
    16
 74
     0
 42
0.0000000001
 43
0.0000000001
 12
1.0
 22
0.0
 32
0.0
 13
1.0
 23
0.0
 33
0.0
 40
0.0
 40
0.0
 40
0.0
 40
0.0
 40
0.2
 40
0.2
 40
0.2
 40
0.2
 40
0.4
 40
0.4
 40
0.4
 40
0.4
 40
0.6
 40
0.6
 40
0.6
 40
0.6
 40
1.0
 40
1.0
 40
1.0
 40
1.0
 10
-178.4813
 20
13.5927
 30
0.0
 10
-177.6974
 20
15.4409
 30
0.0
 10
-176.1652
 20
16.0548
 30
0.0
 10
-174.2586
 20
14.4644
 30
0.0
 10
-174.2586
 20
14.4644
 30
0.0
 10
-172.293
 20
12.8248
 30
0.0
 10
-172.4276
 20
11.733
 30
0.0
 10
-174.4025
 20
10.0511
 30
0.0
 10
-174.4025
 20
10.0511
 30
0.0
 10
-177.1187
 20
7.7945
 30
0.0
 10
-178.991
 20
4.6658
 30
0.0
 10
-180.5023
 20
1.7195
 30
0.0
 10
-180.5023
 20
1.7195
 30
0.0
 10
-180.064
 20
5.4818
 30
0.0
 10
-180.0628
 20
9.8391
 30
0.0
 10
-178.4813
 20
13.5927
 30
0.0
  0
SPLINE
  5
138
330
1F
100
AcDbEntity
  8
layer 1
 62
     7
100
AcDbSpline
210
0.0
220
0.0
230
1.0
 70
    11
 71
     3
 72
    20
 73
    16
 74
     0
 42
0.0000000001
 43
0.0000000001
 12
1.0
 22
0.0
 32
0.0
 13
1.0
 23
0.0
 33
0.0
 40
0.0
 40
0.0
 40
0.0
 40
0.0
 40
0.2
 40
0.2
 40
0.2
 40
0.2
 40
0.4
 40
0.4
 40
0.4
 40
0.4
 40
0.6
 40
0.6
 40
0.6
 40
0.6
 40
1.0
 40
1.0
 40
1.0
 40
1.0
 10
-179.9799
 20
13.45
 30
0.0
 10
-179.4833
 20
14.5083
 30
0.0
 10
-179.1161
 20
15.5737
 30
0.0
 10
-179.164
 20
15.8175
 30
0.0
 10
-179.164
 20
15.8175
 30
0.0
 10
-179.3512
 20
16.7711
 30
0.0
 10
-180.6526
 20
17.2872
 30
0.0
 10
-182.7216
 20
17.3418
 30
0.0
 10
-182.7216
 20
17.3418
 30
0.0
 10
-182.7216
 20
17.3418
 30
0.0
 10
-182.7216
 20
2.702
 30
0.0
 10
-182.7216
 20
2.702
 30
0.0
 10
-182.7216
 20
2.702
 30
0.0
 10
-182.3702
 20
4.9086
 30
0.0
 10
-181.5148
 20
10.8709
 30
0.0
 10
-179.9799
 20
13.45
 30
0.0
  0
SPLINE
  5
139
330
1F
100
AcDbEntity
  8
layer 1
 62
     7
100
AcDbSpline
210
0.0
220
0.0
230
1.0
 70
    11
 71
     3
 72
    20
 73
    16
 74
     0
 42
0.0000000001
 43
0.0000000001
 12
1.0
 22
0.0
 32
0.0
 13
1.0
 23
0.0
 33
0.0
 40
0.0
 40
0.0
 40
0.0
 40
0.0
 40
0.2
 40
0.2
 40
0.2
 40
0.2
 40
0.4
 40
0.4
 40
0.4
 40
0.4
 40
0.6
 40
0.6
 40
0.6
 40
0.6
 40
1.0
 40
1.0
 40
1.0
 40
1.0
 10
-177.7311
 20
-2.4913
 30
0.0
 10
-178.7745
 20
-2.1318
 30
0.0
 10
-179.3497
 20
-2.4597
 30
0.0
 10
-180.0496
 20
-3.1497
 30
0.0
 10
-180.0496
 20
-3.1497
 30
0.0
 10
-181.0846
 20
-4.1807
 30
0.0
 10
-180.9551
 20
-5.4931
 30
0.0
 10
-179.5852
 20
-6.0835
 30
0.0
 10
-179.5852
 20
-6.0835
 30
0.0
 10
-175.1005
 20
-7.51
 30
0.0
 10
-173.5818
 20
-9.2827
 30
0.0
 10
-171.0558
 20
-12.0175
 30
0.0
 10
-171.0558
 20
-12.0175
 30
0.0
 10
-172.1267
 20
-9.2647
 30
0.0
 10
-175.4826
 20
-3.5337
 30
0.0
 10
-177.7311
 20
-2.4913
 30
0.0
  0
SPLINE
  5
13A
330
1F
100
AcDbEntity
  8
layer 1
 62
     7
100
AcDbSpline
210
0.0
220
0.0
230
1.0
 70
    11
 71
     3
 72
    20
 73
    16
 74
     0
 42
0.0000000001
 43
0.0000000001
 12
1.0
 22
0.0
 32
0.0
 13
1.0
 23
0.0
 33
0.0
 40
0.0
 40
0.0
 40
0.0
 40
0.0
 40
0.2
 40
0.2
 40
0.2
 40
0.2
 40
0.4
 40
0.4
 40
0.4
 40
0.4
 40
0.6
 40
0.6
 40
0.6
 40
0.6
 40
1.0
 40
1.0
 40
1.0
 40
1.0
 10
-170.9166
 20
0.7434
 30
0.0
 10
-171.7005
 20
2.5916
 30
0.0
 10
-173.2327
 20
3.2056
 30
0.0
 10
-175.1394
 20
1.6152
 30
0.0
 10
-175.1394
 20
1.6152
 30
0.0
 10
-177.105
 20
-0.0244
 30
0.0
 10
-176.9703
 20
-1.1162
 30
0.0
 10
-174.9954
 20
-2.7982
 30
0.0
 10
-174.9954
 20
-2.7982
 30
0.0
 10
-172.2793
 20
-5.0548
 30
0.0
 10
-170.4069
 20
-8.1835
 30
0.0
 10
-168.8957
 20
-11.1298
 30
0.0
 10
-168.8957
 20
-11.1298
 30
0.0
 10
-169.334
 20
-7.3675
 30
0.0
 10
-169.3352
 20
-3.0101
 30
0.0
 10
-170.9166
 20
0.7434
 30
0.0
  0
SPLINE
  5
13B
330
1F
100
AcDbEntity
  8
layer 1
 62
     7
100
AcDbSpline
210
0.0
220
0.0
230
1.0
 70
    11
 71
     3
 72
    28
 73
    24
 74
     0
 42
0.0000000001
 43
0.0000000001
 12
1.0
 22
0.0
 32
0.0
 13
1.0
 23
0.0
 33
0.0
 40
0.0
 40
0.0
 40
0.0
 40
0.0
 40
0.1428571428571428
 40
0.1428571428571428
 40
0.1428571428571428
 40
0.1428571428571428
 40
0.2857142857142857
 40
0.2857142857142857
 40
0.2857142857142857
 40
0.2857142857142857
 40
0.4285714285714285
 40
0.4285714285714285
 40
0.4285714285714285
 40
0.4285714285714285
 40
0.5714285714285714
 40
0.5714285714285714
 40
0.5714285714285714
 40
0.5714285714285714
 40
0.7142857142857143
 40
0.7142857142857143
 40
0.7142857142857143
 40
0.7142857142857143
 40
1.0
 40
1.0
 40
1.0
 40
1.0
 10
-169.418
 20
0.6007
 30
0.0
 10
-169.9147
 20
1.659
 30
0.0
 10
-170.2818
 20
2.7245
 30
0.0
 10
-170.234
 20
2.9682
 30
0.0
 10
-170.234
 20
2.9682
 30
0.0
 10
-170.0468
 20
3.9218
 30
0.0
 10
-168.7454
 20
4.4379
 30
0.0
 10
-166.6764
 20
4.4926
 30
0.0
 10
-166.6764
 20
4.4926
 30
0.0
 10
-164.6074
 20
4.4652
 30
0.0
 10
-163.3061
 20
3.9218
 30
0.0
 10
-163.1188
 20
2.9682
 30
0.0
 10
-163.1188
 20
2.9682
 30
0.0
 10
-163.071
 20
2.7245
 30
0.0
 10
-163.4382
 20
1.6591
 30
0.0
 10
-163.9348
 20
0.6007
 30
0.0
 10
-163.9348
 20
0.6007
 30
0.0
 10
-165.4696
 20
-1.9784
 30
0.0
 10
-166.3249
 20
-7.9406
 30
0.0
 10
-166.6764
 20
-10.1473
 30
0.0
 10
-166.6764
 20
-10.1473
 30
0.0
 10
-167.0278
 20
-7.9406
 30
0.0
 10
-167.8832
 20
-1.9783
 30
0.0
 10
-169.418
 20
0.6007
 30
0.0
  0
SPLINE
  5
13C
330
1F
100
AcDbEntity
  8
layer 1
 62
     7
100
AcDbSpline
210
0.0
220
0.0
230
1.0
 70
    11
 71
     3
 72
    20
 73
    16
 74
     0
 42
0.0000000001
 43
0.0000000001
 12
1.0
 22
0.0
 32
0.0
 13
1.0
 23
0.0
 33
0.0
 40
0.0
 40
0.0
 40
0.0
 40
0.0
 40
0.2
 40
0.2
 40
0.2
 40
0.2
 40
0.4
 40
0.4
 40
0.4
 40
0.4
 40
0.6
 40
0.6
 40
0.6
 40
0.6
 40
1.0
 40
1.0
 40
1.0
 40
1.0
 10
-155.6756
 20
-2.4913
 30
0.0
 10
-154.6323
 20
-2.1318
 30
0.0
 10
-154.057
 20
-2.4597
 30
0.0
 10
-153.3571
 20
-3.1497
 30
0.0
 10
-153.3571
 20
-3.1497
 30
0.0
 10
-152.3221
 20
-4.1807
 30
0.0
 10
-152.4516
 20
-5.4931
 30
0.0
 10
-153.8215
 20
-6.0835
 30
0.0
 10
-153.8215
 20
-6.0835
 30
0.0
 10
-158.3062
 20
-7.51
 30
0.0
 10
-159.8249
 20
-9.2827
 30
0.0
 10
-162.3509
 20
-12.0175
 30
0.0
 10
-162.3509
 20
-12.0175
 30
0.0
 10
-161.28
 20
-9.2647
 30
0.0
 10
-157.9241
 20
-3.5337
 30
0.0
 10
-155.6756
 20
-2.4913
 30
0.0
  0
SPLINE
  5
13D
330
1F
100
AcDbEntity
  8
layer 1
 62
     7
100
AcDbSpline
210
0.0
220
0.0
230
1.0
 70
    11
 71
     3
 72
    20
 73
    16
 74
     0
 42
0.0000000001
 43
0.0000000001
 12
1.0
 22
0.0
 32
0.0
 13
1.0
 23
0.0
 33
0.0
 40
0.0
 40
0.0
 40
0.0
 40
0.0
 40
0.2
 40
0.2
 40
0.2
 40
0.2
 40
0.4
 40
0.4
 40
0.4
 40
0.4
 40
0.6
 40
0.6
 40
0.6
 40
0.6
 40
1.0
 40
1.0
 40
1.0
 40
1.0
 10
-162.4901
 20
0.7434
 30
0.0
 10
-161.7062
 20
2.5916
 30
0.0
 10
-160.174
 20
3.2056
 30
0.0
 10
-158.2674
 20
1.6152
 30
0.0
 10
-158.2674
 20
1.6152
 30
0.0
 10
-156.3017
 20
-0.0244
 30
0.0
 10
-156.4364
 20
-1.1162
 30
0.0
 10
-158.4113
 20
-2.7982
 30
0.0
 10
-158.4113
 20
-2.7982
 30
0.0
 10
-161.1275
 20
-5.0548
 30
0.0
 10
-162.9998
 20
-8.1835
 30
0.0
 10
-164.5111
 20
-11.1298
 30
0.0
 10
-164.5111
 20
-11.1298
 30
0.0
 10
-164.0728
 20
-7.3675
 30
0.0
 10
-164.0715
 20
-3.0101
 30
0.0
 10
-162.4901
 20
0.7434
 30
0.0
  0
SPLINE
  5
13E
330
1F
100
AcDbEntity
  8
layer 1
 62
     7
100
AcDbSpline
210
0.0
220
0.0
230
1.0
 70
    11
 71
     3
 72
    20
 73
    16
 74
     0
 42
0.0000000001
 43
0.0000000001
 12
1.0
 22
0.0
 32
0.0
 13
1.0
 23
0.0
 33
0.0
 40
0.0
 40
0.0
 40
0.0
 40
0.0
 40
0.2
 40
0.2
 40
0.2
 40
0.2
 40
0.4
 40
0.4
 40
0.4
 40
0.4
 40
0.6
 40
0.6
 40
0.6
 40
0.6
 40
1.0
 40
1.0
 40
1.0
 40
1.0
 10
-145.0835
 20
-2.4913
 30
0.0
 10
-146.1269
 20
-2.1318
 30
0.0
 10
-146.7021
 20
-2.4597
 30
0.0
 10
-147.402
 20
-3.1497
 30
0.0
 10
-147.402
 20
-3.1497
 30
0.0
 10
-148.437
 20
-4.1807
 30
0.0
 10
-148.3075
 20
-5.4931
 30
0.0
 10
-146.9376
 20
-6.0835
 30
0.0
 10
-146.9376
 20
-6.0835
 30
0.0
 10
-142.4529
 20
-7.51
 30
0.0
 10
-140.9342
 20
-9.2827
 30
0.0
 10
-138.4082
 20
-12.0175
 30
0.0
 10
-138.4082
 20
-12.0175
 30
0.0
 10
-139.4791
 20
-9.2647
 30
0.0
 10
-142.835
 20
-3.5337
 30
0.0
 10
-145.0835
 20
-2.4913
 30
0.0
  0
SPLINE
  5
13F
330
1F
100
AcDbEntity
  8
layer 1
 62
     7
100
AcDbSpline
210
0.0
220
0.0
230
1.0
 70
    11
 71
     3
 72
    20
 73
    16
 74
     0
 42
0.0000000001
 43
0.0000000001
 12
1.0
 22
0.0
 32
0.0
 13
1.0
 23
0.0
 33
0.0
 40
0.0
 40
0.0
 40
0.0
 40
0.0
 40
0.2
 40
0.2
 40
0.2
 40
0.2
 40
0.4
 40
0.4
 40
0.4
 40
0.4
 40
0.6
 40
0.6
 40
0.6
 40
0.6
 40
1.0
 40
1.0
 40
1.0
 40
1.0
 10
-138.269
 20
0.7434
 30
0.0
 10
-139.0529
 20
2.5916
 30
0.0
 10
-140.5851
 20
3.2056
 30
0.0
 10
-142.4917
 20
1.6152
 30
0.0
 10
-142.4917
 20
1.6152
 30
0.0
 10
-144.4574
 20
-0.0244
 30
0.0
 10
-144.3227
 20
-1.1162
 30
0.0
 10
-142.3478
 20
-2.7982
 30
0.0
 10
-142.3478
 20
-2.7982
 30
0.0
 10
-139.6316
 20
-5.0548
 30
0.0
 10
-137.7593
 20
-8.1835
 30
0.0
 10
-136.248
 20
-11.1298
 30
0.0
 10
-136.248
 20
-11.1298
 30
0.0
 10
-136.6863
 20
-7.3675
 30
0.0
 10
-136.6876
 20
-3.0101
 30
0.0
 10
-138.269
 20
0.7434
 30
0.0
  0
SPLINE
  5
140
330
1F
100
AcDbEntity
  8
layer 1
 62
     7
100
AcDbSpline
210
0.0
220
0.0
230
1.0
 70
    11
 71
     3
 72
    28
 73
    24
 74
     0
 42
0.0000000001
 43
0.0000000001
 12
1.0
 22
0.0
 32
0.0
 13
1.0
 23
0.0
 33
0.0
 40
0.0
 40
0.0
 40
0.0
 40
0.0
 40
0.1428571428571428
 40
0.1428571428571428
 40
0.1428571428571428
 40
0.1428571428571428
 40
0.2857142857142857
 40
0.2857142857142857
 40
0.2857142857142857
 40
0.2857142857142857
 40
0.4285714285714285
 40
0.4285714285714285
 40
0.4285714285714285
 40
0.4285714285714285
 40
0.5714285714285714
 40
0.5714285714285714
 40
0.5714285714285714
 40
0.5714285714285714
 40
0.7142857142857143
 40
0.7142857142857143
 40
0.7142857142857143
 40
0.7142857142857143
 40
1.0
 40
1.0
 40
1.0
 40
1.0
 10
-136.7704
 20
0.6007
 30
0.0
 10
-137.267
 20
1.659
 30
0.0
 10
-137.6342
 20
2.7245
 30
0.0
 10
-137.5864
 20
2.9682
 30
0.0
 10
-137.5864
 20
2.9682
 30
0.0
 10
-137.3991
 20
3.9218
 30
0.0
 10
-136.0978
 20
4.4379
 30
0.0
 10
-134.0288
 20
4.4926
 30
0.0
 10
-134.0288
 20
4.4926
 30
0.0
 10
-131.9598
 20
4.4652
 30
0.0
 10
-130.6584
 20
3.9218
 30
0.0
 10
-130.4712
 20
2.9682
 30
0.0
 10
-130.4712
 20
2.9682
 30
0.0
 10
-130.4234
 20
2.7245
 30
0.0
 10
-130.7905
 20
1.6591
 30
0.0
 10
-131.2872
 20
0.6007
 30
0.0
 10
-131.2872
 20
0.6007
 30
0.0
 10
-132.822
 20
-1.9784
 30
0.0
 10
-133.6773
 20
-7.9406
 30
0.0
 10
-134.0288
 20
-10.1473
 30
0.0
 10
-134.0288
 20
-10.1473
 30
0.0
 10
-134.3802
 20
-7.9406
 30
0.0
 10
-135.2356
 20
-1.9783
 30
0.0
 10
-136.7704
 20
0.6007
 30
0.0
  0
SPLINE
  5
141
330
1F
100
AcDbEntity
  8
layer 1
 62
     7
100
AcDbSpline
210
0.0
220
0.0
230
1.0
 70
    11
 71
     3
 72
    20
 73
    16
 74
     0
 42
0.0000000001
 43
0.0000000001
 12
1.0
 22
0.0
 32
0.0
 13
1.0
 23
0.0
 33
0.0
 40
0.0
 40
0.0
 40
0.0
 40
0.0
 40
0.2
 40
0.2
 40
0.2
 40
0.2
 40
0.4
 40
0.4
 40
0.4
 40
0.4
 40
0.6
 40
0.6
 40
0.6
 40
0.6
 40
1.0
 40
1.0
 40
1.0
 40
1.0
 10
-123.028
 20
-2.4913
 30
0.0
 10
-121.9846
 20
-2.1318
 30
0.0
 10
-121.4094
 20
-2.4597
 30
0.0
 10
-120.7095
 20
-3.1497
 30
0.0
 10
-120.7095
 20
-3.1497
 30
0.0
 10
-119.6745
 20
-4.1807
 30
0.0
 10
-119.804
 20
-5.4931
 30
0.0
 10
-121.1739
 20
-6.0835
 30
0.0
 10
-121.1739
 20
-6.0835
 30
0.0
 10
-125.6586
 20
-7.51
 30
0.0
 10
-127.1773
 20
-9.2827
 30
0.0
 10
-129.7033
 20
-12.0175
 30
0.0
 10
-129.7033
 20
-12.0175
 30
0.0
 10
-128.6324
 20
-9.2647
 30
0.0
 10
-125.2765
 20
-3.5337
 30
0.0
 10
-123.028
 20
-2.4913
 30
0.0
  0
SPLINE
  5
142
330
1F
100
AcDbEntity
  8
layer 1
 62
     7
100
AcDbSpline
210
0.0
220
0.0
230
1.0
 70
    11
 71
     3
 72
    20
 73
    16
 74
     0
 42
0.0000000001
 43
0.0000000001
 12
1.0
 22
0.0
 32
0.0
 13
1.0
 23
0.0
 33
0.0
 40
0.0
 40
0.0
 40
0.0
 40
0.0
 40
0.2
 40
0.2
 40
0.2
 40
0.2
 40
0.4
 40
0.4
 40
0.4
 40
0.4
 40
0.6
 40
0.6
 40
0.6
 40
0.6
 40
1.0
 40
1.0
 40
1.0
 40
1.0
 10
-129.8425
 20
0.7434
 30
0.0
 10
-129.0586
 20
2.5916
 30
0.0
 10
-127.5264
 20
3.2056
 30
0.0
 10
-125.6198
 20
1.6152
 30
0.0
 10
-125.6198
 20
1.6152
 30
0.0
 10
-123.6541
 20
-0.0244
 30
0.0
 10
-123.7888
 20
-1.1162
 30
0.0
 10
-125.7637
 20
-2.7982
 30
0.0
 10
-125.7637
 20
-2.7982
 30
0.0
 10
-128.4798
 20
-5.0548
 30
0.0
 10
-130.3522
 20
-8.1835
 30
0.0
 10
-131.8634
 20
-11.1298
 30
0.0
 10
-131.8634
 20
-11.1298
 30
0.0
 10
-131.4251
 20
-7.3675
 30
0.0
 10
-131.4239
 20
-3.0101
 30
0.0
 10
-129.8425
 20
0.7434
 30
0.0
  0
SPLINE
  5
143
330
1F
100
AcDbEntity
  8
layer 1
 62
     7
100
AcDbSpline
210
0.0
220
0.0
230
1.0
 70
    11
 71
     3
 72
    20
 73
    16
 74
     0
 42
0.0000000001
 43
0.0000000001
 12
1.0
 22
0.0
 32
0.0
 13
1.0
 23
0.0
 33
0.0
 40
0.0
 40
0.0
 40
0.0
 40
0.0
 40
0.2
 40
0.2
 40
0.2
 40
0.2
 40
0.4
 40
0.4
 40
0.4
 40
0.4
 40
0.6
 40
0.6
 40
0.6
 40
0.6
 40
1.0
 40
1.0
 40
1.0
 40
1.0
 10
-112.4358
 20
-2.4913
 30
0.0
 10
-113.4792
 20
-2.1318
 30
0.0
 10
-114.0544
 20
-2.4597
 30
0.0
 10
-114.7544
 20
-3.1497
 30
0.0
 10
-114.7544
 20
-3.1497
 30
0.0
 10
-115.7894
 20
-4.1807
 30
0.0
 10
-115.6599
 20
-5.4931
 30
0.0
 10
-114.29
 20
-6.0835
 30
0.0
 10
-114.29
 20
-6.0835
 30
0.0
 10
-109.8052
 20
-7.51
 30
0.0
 10
-108.2866
 20
-9.2827
 30
0.0
 10
-105.7606
 20
-12.0175
 30
0.0
 10
-105.7606
 20
-12.0175
 30
0.0
 10
-106.8315
 20
-9.2647
 30
0.0
 10
-110.1874
 20
-3.5337
 30
0.0
 10
-112.4358
 20
-2.4913
 30
0.0
  0
SPLINE
  5
144
330
1F
100
AcDbEntity
  8
layer 1
 62
     7
100
AcDbSpline
210
0.0
220
0.0
230
1.0
 70
    11
 71
     3
 72
    20
 73
    16
 74
     0
 42
0.0000000001
 43
0.0000000001
 12
1.0
 22
0.0
 32
0.0
 13
1.0
 23
0.0
 33
0.0
 40
0.0
 40
0.0
 40
0.0
 40
0.0
 40
0.2
 40
0.2
 40
0.2
 40
0.2
 40
0.4
 40
0.4
 40
0.4
 40
0.4
 40
0.6
 40
0.6
 40
0.6
 40
0.6
 40
1.0
 40
1.0
 40
1.0
 40
1.0
 10
-105.6214
 20
0.7434
 30
0.0
 10
-106.4053
 20
2.5916
 30
0.0
 10
-107.9375
 20
3.2056
 30
0.0
 10
-109.8441
 20
1.6152
 30
0.0
 10
-109.8441
 20
1.6152
 30
0.0
 10
-111.8098
 20
-0.0244
 30
0.0
 10
-111.6751
 20
-1.1162
 30
0.0
 10
-109.7002
 20
-2.7982
 30
0.0
 10
-109.7002
 20
-2.7982
 30
0.0
 10
-106.984
 20
-5.0548
 30
0.0
 10
-105.1117
 20
-8.1835
 30
0.0
 10
-103.6004
 20
-11.1298
 30
0.0
 10
-103.6004
 20
-11.1298
 30
0.0
 10
-104.0387
 20
-7.3675
 30
0.0
 10
-104.0399
 20
-3.0101
 30
0.0
 10
-105.6214
 20
0.7434
 30
0.0
  0
SPLINE
  5
145
330
1F
100
AcDbEntity
  8
layer 1
 62
     7
100
AcDbSpline
210
0.0
220
0.0
230
1.0
 70
    11
 71
     3
 72
    28
 73
    24
 74
     0
 42
0.0000000001
 43
0.0000000001
 12
1.0
 22
0.0
 32
0.0
 13
1.0
 23
0.0
 33
0.0
 40
0.0
 40
0.0
 40
0.0
 40
0.0
 40
0.1428571428571428
 40
0.1428571428571428
 40
0.1428571428571428
 40
0.1428571428571428
 40
0.2857142857142857
 40
0.2857142857142857
 40
0.2857142857142857
 40
0.2857142857142857
 40
0.4285714285714285
 40
0.4285714285714285
 40
0.4285714285714285
 40
0.4285714285714285
 40
0.5714285714285714
 40
0.5714285714285714
 40
0.5714285714285714
 40
0.5714285714285714
 40
0.7142857142857143
 40
0.7142857142857143
 40
0.7142857142857143
 40
0.7142857142857143
 40
1.0
 40
1.0
 40
1.0
 40
1.0
 10
-104.1228
 20
0.6007
 30
0.0
 10
-104.6194
 20
1.659
 30
0.0
 10
-104.9866
 20
2.7245
 30
0.0
 10
-104.9388
 20
2.9682
 30
0.0
 10
-104.9388
 20
2.9682
 30
0.0
 10
-104.7515
 20
3.9218
 30
0.0
 10
-103.4502
 20
4.4379
 30
0.0
 10
-101.3812
 20
4.4926
 30
0.0
 10
-101.3812
 20
4.4926
 30
0.0
 10
-99.3122
 20
4.4652
 30
0.0
 10
-98.0108
 20
3.9218
 30
0.0
 10
-97.8236
 20
2.9682
 30
0.0
 10
-97.8236
 20
2.9682
 30
0.0
 10
-97.7757
 20
2.7245
 30
0.0
 10
-98.1429
 20
1.6591
 30
0.0
 10
-98.6396
 20
0.6007
 30
0.0
 10
-98.6396
 20
0.6007
 30
0.0
 10
-100.1744
 20
-1.9784
 30
0.0
 10
-101.0297
 20
-7.9406
 30
0.0
 10
-101.3812
 20
-10.1473
 30
0.0
 10
-101.3812
 20
-10.1473
 30
0.0
 10
-101.7326
 20
-7.9406
 30
0.0
 10
-102.588
 20
-1.9783
 30
0.0
 10
-104.1228
 20
0.6007
 30
0.0
  0
SPLINE
  5
146
330
1F
100
AcDbEntity
  8
layer 1
 62
     7
100
AcDbSpline
210
0.0
220
0.0
230
1.0
 70
    11
 71
     3
 72
    20
 73
    16
 74
     0
 42
0.0000000001
 43
0.0000000001
 12
1.0
 22
0.0
 32
0.0
 13
1.0
 23
0.0
 33
0.0
 40
0.0
 40
0.0
 40
0.0
 40
0.0
 40
0.2
 40
0.2
 40
0.2
 40
0.2
 40
0.4
 40
0.4
 40
0.4
 40
0.4
 40
0.6
 40
0.6
 40
0.6
 40
0.6
 40
1.0
 40
1.0
 40
1.0
 40
1.0
 10
-90.3804
 20
-2.4913
 30
0.0
 10
-89.337
 20
-2.1318
 30
0.0
 10
-88.7618
 20
-2.4597
 30
0.0
 10
-88.0619
 20
-3.1497
 30
0.0
 10
-88.0619
 20
-3.1497
 30
0.0
 10
-87.0269
 20
-4.1807
 30
0.0
 10
-87.1563
 20
-5.4931
 30
0.0
 10
-88.5262
 20
-6.0835
 30
0.0
 10
-88.5262
 20
-6.0835
 30
0.0
 10
-93.011
 20
-7.51
 30
0.0
 10
-94.5296
 20
-9.2827
 30
0.0
 10
-97.0557
 20
-12.0175
 30
0.0
 10
-97.0557
 20
-12.0175
 30
0.0
 10
-95.9848
 20
-9.2647
 30
0.0
 10
-92.6289
 20
-3.5337
 30
0.0
 10
-90.3804
 20
-2.4913
 30
0.0
  0
SPLINE
  5
147
330
1F
100
AcDbEntity
  8
layer 1
 62
     7
100
AcDbSpline
210
0.0
220
0.0
230
1.0
 70
    11
 71
     3
 72
    20
 73
    16
 74
     0
 42
0.0000000001
 43
0.0000000001
 12
1.0
 22
0.0
 32
0.0
 13
1.0
 23
0.0
 33
0.0
 40
0.0
 40
0.0
 40
0.0
 40
0.0
 40
0.2
 40
0.2
 40
0.2
 40
0.2
 40
0.4
 40
0.4
 40
0.4
 40
0.4
 40
0.6
 40
0.6
 40
0.6
 40
0.6
 40
1.0
 40
1.0
 40
1.0
 40
1.0
 10
-97.1949
 20
0.7434
 30
0.0
 10
-96.4109
 20
2.5916
 30
0.0
 10
-94.8788
 20
3.2056
 30
0.0
 10
-92.9721
 20
1.6152
 30
0.0
 10
-92.9721
 20
1.6152
 30
0.0
 10
-91.0065
 20
-0.0244
 30
0.0
 10
-91.1411
 20
-1.1162
 30
0.0
 10
-93.1161
 20
-2.7982
 30
0.0
 10
-93.1161
 20
-2.7982
 30
0.0
 10
-95.8322
 20
-5.0548
 30
0.0
 10
-97.7045
 20
-8.1835
 30
0.0
 10
-99.2158
 20
-11.1298
 30
0.0
 10
-99.2158
 20
-11.1298
 30
0.0
 10
-98.7775
 20
-7.3675
 30
0.0
 10
-98.7763
 20
-3.0101
 30
0.0
 10
-97.1949
 20
0.7434
 30
0.0
  0
SPLINE
  5
148
330
1F
100
AcDbEntity
  8
layer 1
 62
     7
100
AcDbSpline
210
0.0
220
0.0
230
1.0
 70
    11
 71
     3
 72
    20
 73
    16
 74
     0
 42
0.0000000001
 43
0.0000000001
 12
1.0
 22
0.0
 32
0.0
 13
1.0
 23
0.0
 33
0.0
 40
0.0
 40
0.0
 40
0.0
 40
0.0
 40
0.2
 40
0.2
 40
0.2
 40
0.2
 40
0.4
 40
0.4
 40
0.4
 40
0.4
 40
0.6
 40
0.6
 40
0.6
 40
0.6
 40
1.0
 40
1.0
 40
1.0
 40
1.0
 10
-79.7882
 20
-2.4913
 30
0.0
 10
-80.8316
 20
-2.1318
 30
0.0
 10
-81.4068
 20
-2.4597
 30
0.0
 10
-82.1068
 20
-3.1497
 30
0.0
 10
-82.1068
 20
-3.1497
 30
0.0
 10
-83.1417
 20
-4.1807
 30
0.0
 10
-83.0123
 20
-5.4931
 30
0.0
 10
-81.6424
 20
-6.0835
 30
0.0
 10
-81.6424
 20
-6.0835
 30
0.0
 10
-77.1576
 20
-7.51
 30
0.0
 10
-75.639
 20
-9.2827
 30
0.0
 10
-73.113
 20
-12.0175
 30
0.0
 10
-73.113
 20
-12.0175
 30
0.0
 10
-74.1839
 20
-9.2647
 30
0.0
 10
-77.5398
 20
-3.5337
 30
0.0
 10
-79.7882
 20
-2.4913
 30
0.0
  0
SPLINE
  5
149
330
1F
100
AcDbEntity
  8
layer 1
 62
     7
100
AcDbSpline
210
0.0
220
0.0
230
1.0
 70
    11
 71
     3
 72
    20
 73
    16
 74
     0
 42
0.0000000001
 43
0.0000000001
 12
1.0
 22
0.0
 32
0.0
 13
1.0
 23
0.0
 33
0.0
 40
0.0
 40
0.0
 40
0.0
 40
0.0
 40
0.2
 40
0.2
 40
0.2
 40
0.2
 40
0.4
 40
0.4
 40
0.4
 40
0.4
 40
0.6
 40
0.6
 40
0.6
 40
0.6
 40
1.0
 40
1.0
 40
1.0
 40
1.0
 10
-72.9738
 20
0.7434
 30
0.0
 10
-73.7577
 20
2.5916
 30
0.0
 10
-75.2899
 20
3.2056
 30
0.0
 10
-77.1965
 20
1.6152
 30
0.0
 10
-77.1965
 20
1.6152
 30
0.0
 10
-79.1621
 20
-0.0244
 30
0.0
 10
-79.0275
 20
-1.1162
 30
0.0
 10
-77.0526
 20
-2.7982
 30
0.0
 10
-77.0526
 20
-2.7982
 30
0.0
 10
-74.3364
 20
-5.0548
 30
0.0
 10
-72.4641
 20
-8.1835
 30
0.0
 10
-70.9528
 20
-11.1298
 30
0.0
 10
-70.9528
 20
-11.1298
 30
0.0
 10
-71.3911
 20
-7.3675
 30
0.0
 10
-71.3923
 20
-3.0101
 30
0.0
 10
-72.9738
 20
0.7434
 30
0.0
  0
SPLINE
  5
14A
330
1F
100
AcDbEntity
  8
layer 1
 62
     7
100
AcDbSpline
210
0.0
220
0.0
230
1.0
 70
    11
 71
     3
 72
    28
 73
    24
 74
     0
 42
0.0000000001
 43
0.0000000001
 12
1.0
 22
0.0
 32
0.0
 13
1.0
 23
0.0
 33
0.0
 40
0.0
 40
0.0
 40
0.0
 40
0.0
 40
0.1428571428571428
 40
0.1428571428571428
 40
0.1428571428571428
 40
0.1428571428571428
 40
0.2857142857142857
 40
0.2857142857142857
 40
0.2857142857142857
 40
0.2857142857142857
 40
0.4285714285714285
 40
0.4285714285714285
 40
0.4285714285714285
 40
0.4285714285714285
 40
0.5714285714285714
 40
0.5714285714285714
 40
0.5714285714285714
 40
0.5714285714285714
 40
0.7142857142857143
 40
0.7142857142857143
 40
0.7142857142857143
 40
0.7142857142857143
 40
1.0
 40
1.0
 40
1.0
 40
1.0
 10
-71.4752
 20
0.6007
 30
0.0
 10
-71.9718
 20
1.659
 30
0.0
 10
-72.339
 20
2.7245
 30
0.0
 10
-72.2911
 20
2.9682
 30
0.0
 10
-72.2911
 20
2.9682
 30
0.0
 10
-72.1039
 20
3.9218
 30
0.0
 10
-70.8026
 20
4.4379
 30
0.0
 10
-68.7336
 20
4.4926
 30
0.0
 10
-68.7336
 20
4.4926
 30
0.0
 10
-66.6646
 20
4.4652
 30
0.0
 10
-65.3632
 20
3.9218
 30
0.0
 10
-65.176
 20
2.9682
 30
0.0
 10
-65.176
 20
2.9682
 30
0.0
 10
-65.1281
 20
2.7245
 30
0.0
 10
-65.4953
 20
1.6591
 30
0.0
 10
-65.9919
 20
0.6007
 30
0.0
 10
-65.9919
 20
0.6007
 30
0.0
 10
-67.5268
 20
-1.9784
 30
0.0
 10
-68.3821
 20
-7.9406
 30
0.0
 10
-68.7336
 20
-10.1473
 30
0.0
 10
-68.7336
 20
-10.1473
 30
0.0
 10
-69.0849
 20
-7.9406
 30
0.0
 10
-69.9403
 20
-1.9783
 30
0.0
 10
-71.4752
 20
0.6007
 30
0.0
  0
SPLINE
  5
14B
330
1F
100
AcDbEntity
  8
layer 1
 62
     7
100
AcDbSpline
210
0.0
220
0.0
230
1.0
 70
    11
 71
     3
 72
    20
 73
    16
 74
     0
 42
0.0000000001
 43
0.0000000001
 12
1.0
 22
0.0
 32
0.0
 13
1.0
 23
0.0
 33
0.0
 40
0.0
 40
0.0
 40
0.0
 40
0.0
 40
0.2
 40
0.2
 40
0.2
 40
0.2
 40
0.4
 40
0.4
 40
0.4
 40
0.4
 40
0.6
 40
0.6
 40
0.6
 40
0.6
 40
1.0
 40
1.0
 40
1.0
 40
1.0
 10
-57.7328
 20
-2.4913
 30
0.0
 10
-56.6894
 20
-2.1318
 30
0.0
 10
-56.1142
 20
-2.4597
 30
0.0
 10
-55.4142
 20
-3.1497
 30
0.0
 10
-55.4142
 20
-3.1497
 30
0.0
 10
-54.3793
 20
-4.1807
 30
0.0
 10
-54.5087
 20
-5.4931
 30
0.0
 10
-55.8786
 20
-6.0835
 30
0.0
 10
-55.8786
 20
-6.0835
 30
0.0
 10
-60.3634
 20
-7.51
 30
0.0
 10
-61.882
 20
-9.2827
 30
0.0
 10
-64.408
 20
-12.0175
 30
0.0
 10
-64.408
 20
-12.0175
 30
0.0
 10
-63.3371
 20
-9.2647
 30
0.0
 10
-59.9813
 20
-3.5337
 30
0.0
 10
-57.7328
 20
-2.4913
 30
0.0
  0
SPLINE
  5
14C
330
1F
100
AcDbEntity
  8
layer 1
 62
     7
100
AcDbSpline
210
0.0
220
0.0
230
1.0
 70
    11
 71
     3
 72
    20
 73
    16
 74
     0
 42
0.0000000001
 43
0.0000000001
 12
1.0
 22
0.0
 32
0.0
 13
1.0
 23
0.0
 33
0.0
 40
0.0
 40
0.0
 40
0.0
 40
0.0
 40
0.2
 40
0.2
 40
0.2
 40
0.2
 40
0.4
 40
0.4
 40
0.4
 40
0.4
 40
0.6
 40
0.6
 40
0.6
 40
0.6
 40
1.0
 40
1.0
 40
1.0
 40
1.0
 10
-64.5472
 20
0.7434
 30
0.0
 10
-63.7633
 20
2.5916
 30
0.0
 10
-62.2311
 20
3.2056
 30
0.0
 10
-60.3245
 20
1.6152
 30
0.0
 10
-60.3245
 20
1.6152
 30
0.0
 10
-58.3589
 20
-0.0244
 30
0.0
 10
-58.4935
 20
-1.1162
 30
0.0
 10
-60.4684
 20
-2.7982
 30
0.0
 10
-60.4684
 20
-2.7982
 30
0.0
 10
-63.1846
 20
-5.0548
 30
0.0
 10
-65.0569
 20
-8.1835
 30
0.0
 10
-66.5682
 20
-11.1298
 30
0.0
 10
-66.5682
 20
-11.1298
 30
0.0
 10
-66.1299
 20
-7.3675
 30
0.0
 10
-66.1287
 20
-3.0101
 30
0.0
 10
-64.5472
 20
0.7434
 30
0.0
  0
ENDSEC
  0
SECTION
  2
OBJECTS
  0
DICTIONARY
  5
C
330
0
100
AcDbDictionary
281
     1
  3
ACAD_GROUP
350
D
  3
ACAD_LAYOUT
350
1A
  3
ACAD_MATERIAL
350
3B
  3
ACAD_MLEADERSTYLE
350
16F
  3
ACAD_MLINESTYLE
350
17
  3
ACAD_PLOTSETTINGS
350
19
  3
ACAD_PLOTSTYLENAME
350
E
  3
ACAD_TABLESTYLE
350
16E
  3
ACAD_VISUALSTYLE
350
2A
  0
DICTIONARY
  5
D
102
{ACAD_REACTORS
330
C
102
}
330
C
100
AcDbDictionary
281
     1
  0
DICTIONARY
  5
1A
102
{ACAD_REACTORS
330
C
102
}
330
C
100
AcDbDictionary
281
     1
  3
Layout1
350
1E
  3
Layout2
350
26
  3
Model
350
22
  0
DICTIONARY
  5
3B
102
{ACAD_REACTORS
330
C
102
}
330
C
100
AcDbDictionary
281
     1
  3
ByBlock
350
3D
  3
ByLayer
350
3C
  3
Global
350
3E
  0
DICTIONARY
  5
16F
102
{ACAD_REACTORS
330
C
102
}
330
C
100
AcDbDictionary
281
     1
  0
DICTIONARY
  5
17
102
{ACAD_REACTORS
330
C
102
}
330
C
100
AcDbDictionary
281
     1
  3
Standard
350
18
  0
DICTIONARY
  5
19
102
{ACAD_REACTORS
330
C
102
}
330
C
100
AcDbDictionary
281
     1
  0
ACDBDICTIONARYWDFLT
  5
E
102
{ACAD_REACTORS
330
C
102
}
330
C
100
AcDbDictionary
281
     1
  3
Normal
350
F
100
AcDbDictionaryWithDefault
340
F
  0
DICTIONARY
  5
16E
102
{ACAD_REACTORS
330
C
102
}
330
C
100
AcDbDictionary
281
     1
  0
DICTIONARY
  5
2A
102
{ACAD_REACTORS
330
C
102
}
330
C
100
AcDbDictionary
281
     1
  3
2dWireframe
350
2F
  3
3D Hidden
350
31
  3
3dWireframe
350
30
  3
Basic
350
32
  3
Brighten
350
36
  3
ColorChange
350
3A
  3
Conceptual
350
34
  3
Dim
350
35
  3
Facepattern
350
39
  3
Flat
350
2B
  3
FlatWithEdges
350
2C
  3
Gouraud
350
2D
  3
GouraudWithEdges
350
2E
  3
Linepattern
350
38
  3
Realistic
350
33
  3
Thicken
350
37
  0
LAYOUT
  5
1E
102
{ACAD_REACTORS
330
1A
102
}
330
1A
100
AcDbPlotSettings
  1

  2
none_device
  4

  6

 40
0.0
 41
0.0
 42
0.0
 43
0.0
 44
0.0
 45
0.0
 46
0.0
 47
0.0
 48
0.0
 49
0.0
140
0.0
141
0.0
142
1.0
143
1.0
 70
   688
 72
     0
 73
     0
 74
     5
  7

 75
    16
 76
     0
 77
     2
 78
   300
147
1.0
148
0.0
149
0.0
100
AcDbLayout
  1
Layout1
 70
     1
 71
     1
 10
0.0
 20
0.0
 11
12.0
 21
9.0
 12
0.0
 22
0.0
 32
0.0
 14
1.000000000000000E+20
 24
1.000000000000000E+20
 34
1.000000000000000E+20
 15
-1.000000000000000E+20
 25
-1.000000000000000E+20
 35
-1.000000000000000E+20
146
0.0
 13
0.0
 23
0.0
 33
0.0
 16
1.0
 26
0.0
 36
0.0
 17
0.0
 27
1.0
 37
0.0
 76
     0
330
1B
  0
LAYOUT
  5
26
102
{ACAD_REACTORS
330
1A
102
}
330
1A
100
AcDbPlotSettings
  1

  2
none_device
  4

  6

 40
0.0
 41
0.0
 42
0.0
 43
0.0
 44
0.0
 45
0.0
 46
0.0
 47
0.0
 48
0.0
 49
0.0
140
0.0
141
0.0
142
1.0
143
1.0
 70
   688
 72
     0
 73
     0
 74
     5
  7

 75
    16
 76
     0
 77
     2
 78
   300
147
1.0
148
0.0
149
0.0
100
AcDbLayout
  1
Layout2
 70
     1
 71
     2
 10
0.0
 20
0.0
 11
0.0
 21
0.0
 12
0.0
 22
0.0
 32
0.0
 14
0.0
 24
0.0
 34
0.0
 15
0.0
 25
0.0
 35
0.0
146
0.0
 13
0.0
 23
0.0
 33
0.0
 16
1.0
 26
0.0
 36
0.0
 17
0.0
 27
1.0
 37
0.0
 76
     0
330
23
  0
LAYOUT
  5
22
102
{ACAD_REACTORS
330
1A
102
}
330
1A
100
AcDbPlotSettings
  1

  2
none_device
  4

  6

 40
0.0
 41
0.0
 42
0.0
 43
0.0
 44
0.0
 45
0.0
 46
0.0
 47
0.0
 48
0.0
 49
0.0
140
0.0
141
0.0
142
1.0
143
1.0
 70
  1712
 72
     0
 73
     0
 74
     0
  7

 75
     0
 76
     0
 77
     2
 78
   300
147
1.0
148
0.0
149
0.0
100
AcDbLayout
  1
Model
 70
     1
 71
     0
 10
0.0
 20
0.0
 11
12.0
 21
9.0
 12
0.0
 22
0.0
 32
0.0
 14
-187.0099
 24
-72.1648
 34
0.0
 15
-48.2848
 25
93.3359
 35
0.0
146
0.0
 13
0.0
 23
0.0
 33
0.0
 16
1.0
 26
0.0
 36
0.0
 17
0.0
 27
1.0
 37
0.0
 76
     0
330
1F
331
29
  0
MATERIAL
  5
3D
102
{ACAD_REACTORS
330
3B
102
}
330
3B
100
AcDbMaterial
  1
ByBlock
 72
     1
 94
      127
  0
MATERIAL
  5
3C
102
{ACAD_REACTORS
330
3B
102
}
330
3B
100
AcDbMaterial
  1
ByLayer
 72
     1
 94
      127
  0
MATERIAL
  5
3E
102
{ACAD_REACTORS
330
3B
102
}
330
3B
100
AcDbMaterial
  1
Global
 72
     1
 94
      127
  0
MLINESTYLE
  5
18
102
{ACAD_REACTORS
330
17
102
}
330
17
100
AcDbMlineStyle
  2
Standard
 70
     0
  3

 62
   256
 51
90.0
 52
90.0
 71
     2
 49
0.5
 62
   256
  6
BYLAYER
 49
-0.5
 62
   256
  6
BYLAYER
  0
ACDBPLACEHOLDER
  5
F
102
{ACAD_REACTORS
330
E
102
}
330
E
  0
VISUALSTYLE
  5
2F
102
{ACAD_REACTORS
330
2A
102
}
102
{ACAD_XDICTIONARY
360
156
102
}
330
2A
100
AcDbVisualStyle
  2
2dWireframe
 70
     4
 71
     0
 72
     2
 73
     0
 90
        0
 40
-0.6
 41
-30.0
 62
     5
 63
     7
421
 16777215
 74
     1
 91
        4
 64
     7
 65
   257
 75
     1
175
     1
 42
1.0
 92
        0
 66
   257
 43
1.0
 76
     1
 77
     6
 78
     2
 67
     7
 79
     5
170
     0
171
     0
290
     0
174
     0
 93
        1
 44
0.0
173
     0
291
     0
 45
0.0
  0
VISUALSTYLE
  5
31
102
{ACAD_REACTORS
330
2A
102
}
102
{ACAD_XDICTIONARY
360
15A
102
}
330
2A
100
AcDbVisualStyle
  2
3D Hidden
 70
     6
 71
     1
 72
     2
 73
     2
 90
        0
 40
-0.6
 41
-30.0
 62
     5
 63
     7
421
 16777215
 74
     2
 91
        2
 64
     7
 65
   257
 75
     2
175
     1
 42
40.0
 92
        0
 66
   257
 43
1.0
 76
     1
 77
     6
 78
     2
 67
     7
 79
     3
170
     0
171
     0
290
     0
174
     0
 93
        1
 44
0.0
173
     0
291
     0
 45
0.0
  0
VISUALSTYLE
  5
30
102
{ACAD_REACTORS
330
2A
102
}
102
{ACAD_XDICTIONARY
360
158
102
}
330
2A
100
AcDbVisualStyle
  2
3dWireframe
 70
     5
 71
     0
 72
     2
 73
     0
 90
        0
 40
-0.6
 41
-30.0
 62
     5
 63
     7
421
 16777215
 74
     1
 91
        4
 64
     7
 65
   257
 75
     1
175
     1
 42
1.0
 92
        0
 66
   257
 43
1.0
 76
     1
 77
     6
 78
     2
 67
     7
 79
     5
170
     0
171
     0
290
     0
174
     0
 93
        1
 44
0.0
173
     0
291
     0
 45
0.0
  0
VISUALSTYLE
  5
32
102
{ACAD_REACTORS
330
2A
102
}
102
{ACAD_XDICTIONARY
360
15C
102
}
330
2A
100
AcDbVisualStyle
  2
Basic
 70
     7
 71
     1
 72
     0
 73
     1
 90
        0
 40
-0.6
 41
-30.0
 62
     5
 63
     7
421
 16777215
 74
     0
 91
        4
 64
     7
 65
   257
 75
     1
175
     1
 42
1.0
 92
        8
 66
     7
 43
1.0
 76
     1
 77
     6
 78
     2
 67
     7
 79
     5
170
     0
171
     0
290
     0
174
     0
 93
        1
 44
0.0
173
     0
291
     1
 45
0.0
  0
VISUALSTYLE
  5
36
102
{ACAD_REACTORS
330
2A
102
}
102
{ACAD_XDICTIONARY
360
164
102
}
330
2A
100
AcDbVisualStyle
  2
Brighten
 70
    12
 71
     2
 72
     2
 73
     0
 90
        0
 40
-0.6
 41
-30.0
 62
     5
 63
     7
421
 16777215
 74
     1
 91
        4
 64
     7
 65
   257
 75
     1
175
     1
 42
1.0
 92
        8
 66
     7
 43
1.0
 76
     1
 77
     6
 78
     2
 67
     7
 79
     5
170
     0
171
     0
290
     0
174
     0
 93
        1
 44
50.0
173
     0
291
     1
 45
0.0
  0
VISUALSTYLE
  5
3A
102
{ACAD_REACTORS
330
2A
102
}
102
{ACAD_XDICTIONARY
360
16C
102
}
330
2A
100
AcDbVisualStyle
  2
ColorChange
 70
    16
 71
     2
 72
     2
 73
     3
 90
        0
 40
-0.6
 41
-30.0
 62
     5
 63
     8
421
  8421504
 74
     1
 91
        4
 64
     7
 65
   257
 75
     1
175
     1
 42
1.0
 92
        8
 66
     8
424
  8421504
 43
1.0
 76
     1
 77
     6
 78
     2
 67
     7
 79
     5
170
     0
171
     0
290
     0
174
     0
 93
        1
 44
0.0
173
     0
291
     1
 45
0.0
  0
VISUALSTYLE
  5
34
102
{ACAD_REACTORS
330
2A
102
}
102
{ACAD_XDICTIONARY
360
160
102
}
330
2A
100
AcDbVisualStyle
  2
Conceptual
 70
     9
 71
     3
 72
     2
 73
     0
 90
        0
 40
-0.6
 41
-30.0
 62
     5
 63
     7
421
 16777215
 74
     2
 91
        2
 64
     7
 65
   257
 75
     1
175
     1
 42
40.0
 92
        8
 66
     7
 43
1.0
 76
     1
 77
     6
 78
     2
 67
     7
 79
     3
170
     0
171
     0
290
     0
174
     0
 93
        1
 44
0.0
173
     0
291
     0
 45
0.0
  0
VISUALSTYLE
  5
35
102
{ACAD_REACTORS
330
2A
102
}
102
{ACAD_XDICTIONARY
360
162
102
}
330
2A
100
AcDbVisualStyle
  2
Dim
 70
    11
 71
     2
 72
     2
 73
     0
 90
        0
 40
-0.6
 41
-30.0
 62
     5
 63
     7
421
 16777215
 74
     1
 91
        4
 64
     7
 65
   257
 75
     1
175
     1
 42
1.0
 92
        8
 66
     7
 43
1.0
 76
     1
 77
     6
 78
     2
 67
     7
 79
     5
170
     0
171
     0
290
     0
174
     0
 93
        1
 44
-50.0
173
     0
291
     1
 45
0.0
  0
VISUALSTYLE
  5
39
102
{ACAD_REACTORS
330
2A
102
}
102
{ACAD_XDICTIONARY
360
16A
102
}
330
2A
100
AcDbVisualStyle
  2
Facepattern
 70
    15
 71
     2
 72
     2
 73
     0
 90
        0
 40
-0.6
 41
-30.0
 62
     5
 63
     7
421
 16777215
 74
     1
 91
        4
 64
     7
 65
   257
 75
     1
175
     1
 42
1.0
 92
        8
 66
     7
 43
1.0
 76
     1
 77
     6
 78
     2
 67
     7
 79
     5
170
     0
171
     0
290
     0
174
     0
 93
        1
 44
0.0
173
     0
291
     1
 45
0.0
  0
VISUALSTYLE
  5
2B
102
{ACAD_REACTORS
330
2A
102
}
102
{ACAD_XDICTIONARY
360
14E
102
}
330
2A
100
AcDbVisualStyle
  2
Flat
 70
     0
 71
     2
 72
     1
 73
     1
 90
        2
 40
-0.6
 41
30.0
 62
     5
 63
     7
421
 16777215
 74
     0
 91
        4
 64
     7
 65
   257
 75
     1
175
     1
 42
1.0
 92
        8
 66
     7
 43
1.0
 76
     1
 77
     6
 78
     2
 67
     7
 79
     5
170
     0
171
     0
290
     0
174
     0
 93
       13
 44
0.0
173
     0
291
     1
 45
0.0
  0
VISUALSTYLE
  5
2C
102
{ACAD_REACTORS
330
2A
102
}
102
{ACAD_XDICTIONARY
360
150
102
}
330
2A
100
AcDbVisualStyle
  2
FlatWithEdges
 70
     1
 71
     2
 72
     1
 73
     1
 90
        2
 40
-0.6
 41
30.0
 62
     5
 63
     7
421
 16777215
 74
     1
 91
        4
 64
     7
 65
   257
 75
     1
175
     1
 42
1.0
 92
        0
 66
   257
 43
1.0
 76
     1
 77
     6
 78
     2
 67
     7
 79
     5
170
     0
171
     0
290
     0
174
     0
 93
       13
 44
0.0
173
     0
291
     1
 45
0.0
  0
VISUALSTYLE
  5
2D
102
{ACAD_REACTORS
330
2A
102
}
102
{ACAD_XDICTIONARY
360
152
102
}
330
2A
100
AcDbVisualStyle
  2
Gouraud
 70
     2
 71
     2
 72
     2
 73
     1
 90
        2
 40
-0.6
 41
30.0
 62
     5
 63
     7
421
 16777215
 74
     0
 91
        4
 64
     7
 65
   257
 75
     1
175
     1
 42
1.0
 92
        0
 66
     7
 43
1.0
 76
     1
 77
     6
 78
     2
 67
     7
 79
     5
170
     0
171
     0
290
     0
174
     0
 93
       13
 44
0.0
173
     0
291
     1
 45
0.0
  0
VISUALSTYLE
  5
2E
102
{ACAD_REACTORS
330
2A
102
}
102
{ACAD_XDICTIONARY
360
154
102
}
330
2A
100
AcDbVisualStyle
  2
GouraudWithEdges
 70
     3
 71
     2
 72
     2
 73
     1
 90
        2
 40
-0.6
 41
30.0
 62
     5
 63
     7
421
 16777215
 74
     1
 91
        4
 64
     7
 65
   257
 75
     1
175
     1
 42
1.0
 92
        0
 66
   257
 43
1.0
 76
     1
 77
     6
 78
     2
 67
     7
 79
     5
170
     0
171
     0
290
     0
174
     0
 93
       13
 44
0.0
173
     0
291
     1
 45
0.0
  0
VISUALSTYLE
  5
38
102
{ACAD_REACTORS
330
2A
102
}
102
{ACAD_XDICTIONARY
360
168
102
}
330
2A
100
AcDbVisualStyle
  2
Linepattern
 70
    14
 71
     2
 72
     2
 73
     0
 90
        0
 40
-0.6
 41
-30.0
 62
     5
 63
     7
421
 16777215
 74
     1
 91
        4
 64
     7
 65
   257
 75
     7
175
     7
 42
1.0
 92
        8
 66
     7
 43
1.0
 76
     1
 77
     6
 78
     2
 67
     7
 79
     5
170
     0
171
     0
290
     0
174
     0
 93
        1
 44
0.0
173
     0
291
     1
 45
0.0
  0
VISUALSTYLE
  5
33
102
{ACAD_REACTORS
330
2A
102
}
102
{ACAD_XDICTIONARY
360
15E
102
}
330
2A
100
AcDbVisualStyle
  2
Realistic
 70
     8
 71
     2
 72
     2
 73
     0
 90
        0
 40
-0.6
 41
-30.0
 62
     5
 63
     7
421
 16777215
 74
     1
 91
        0
 64
     7
 65
   257
 75
     1
175
     1
 42
1.0
 92
        8
 66
     8
424
  7895160
 43
1.0
 76
     1
 77
     6
 78
     2
 67
     7
 79
     5
170
     0
171
     0
290
     0
174
     0
 93
       13
 44
0.0
173
     0
291
     0
 45
0.0
  0
VISUALSTYLE
  5
37
102
{ACAD_REACTORS
330
2A
102
}
102
{ACAD_XDICTIONARY
360
166
102
}
330
2A
100
AcDbVisualStyle
  2
Thicken
 70
    13
 71
     2
 72
     2
 73
     0
 90
        0
 40
-0.6
 41
-30.0
 62
     5
 63
     7
421
 16777215
 74
     1
 91
        4
 64
     7
 65
   257
 75
     1
175
     1
 42
1.0
 92
       12
 66
     7
 43
1.0
 76
     1
 77
     6
 78
     2
 67
     7
 79
     5
170
     0
171
     0
290
     0
174
     0
 93
        1
 44
0.0
173
     0
291
     1
 45
0.0
  0
DICTIONARY
  5
156
330
2F
100
AcDbDictionary
280
     1
281
     1
  3
ACAD_XREC_ROUNDTRIP
360
157
  0
DICTIONARY
  5
15A
330
31
100
AcDbDictionary
280
     1
281
     1
  3
ACAD_XREC_ROUNDTRIP
360
15B
  0
DICTIONARY
  5
158
330
30
100
AcDbDictionary
280
     1
281
     1
  3
ACAD_XREC_ROUNDTRIP
360
159
  0
DICTIONARY
  5
15C
330
32
100
AcDbDictionary
280
     1
281
     1
  3
ACAD_XREC_ROUNDTRIP
360
15D
  0
DICTIONARY
  5
164
330
36
100
AcDbDictionary
280
     1
281
     1
  3
ACAD_XREC_ROUNDTRIP
360
165
  0
DICTIONARY
  5
16C
330
3A
100
AcDbDictionary
280
     1
281
     1
  3
ACAD_XREC_ROUNDTRIP
360
16D
  0
DICTIONARY
  5
160
330
34
100
AcDbDictionary
280
     1
281
     1
  3
ACAD_XREC_ROUNDTRIP
360
161
  0
DICTIONARY
  5
162
330
35
100
AcDbDictionary
280
     1
281
     1
  3
ACAD_XREC_ROUNDTRIP
360
163
  0
DICTIONARY
  5
16A
330
39
100
AcDbDictionary
280
     1
281
     1
  3
ACAD_XREC_ROUNDTRIP
360
16B
  0
DICTIONARY
  5
14E
330
2B
100
AcDbDictionary
280
     1
281
     1
  3
ACAD_XREC_ROUNDTRIP
360
14F
  0
DICTIONARY
  5
150
330
2C
100
AcDbDictionary
280
     1
281
     1
  3
ACAD_XREC_ROUNDTRIP
360
151
  0
DICTIONARY
  5
152
330
2D
100
AcDbDictionary
280
     1
281
     1
  3
ACAD_XREC_ROUNDTRIP
360
153
  0
DICTIONARY
  5
154
330
2E
100
AcDbDictionary
280
     1
281
     1
  3
ACAD_XREC_ROUNDTRIP
360
155
  0
DICTIONARY
  5
168
330
38
100
AcDbDictionary
280
     1
281
     1
  3
ACAD_XREC_ROUNDTRIP
360
169
  0
DICTIONARY
  5
15E
330
33
100
AcDbDictionary
280
     1
281
     1
  3
ACAD_XREC_ROUNDTRIP
360
15F
  0
DICTIONARY
  5
166
330
37
100
AcDbDictionary
280
     1
281
     1
  3
ACAD_XREC_ROUNDTRIP
360
167
  0
XRECORD
  5
157
102
{ACAD_REACTORS
330
156
102
}
330
156
100
AcDbXrecord
280
     1
102
RTVSPropertyOp0
 70
     1
102
RTVSPropertyOp1
 70
     1
102
RTVSPropertyOp2
 70
     1
102
RTVSPropertyOp3
 70
     1
102
RTVSPropertyOp4
 70
     1
102
RTVSPropertyOp5
 70
     1
102
RTVSPropertyOp6
 70
     1
102
RTVSPropertyOp7
 70
     1
102
RTVSPropertyOp8
 70
     1
102
RTVSPropertyOp9
 70
     1
102
RTVSPropertyOp10
 70
     1
102
RTVSPropertyOp11
 70
     1
102
RTVSPropertyOp12
 70
     1
102
RTVSPropertyOp13
 70
     1
102
RTVSPropertyOp14
 70
     1
102
RTVSPropertyOp15
 70
     1
102
RTVSPropertyOp16
 70
     1
102
RTVSPropertyOp17
 70
     1
102
RTVSPropertyOp18
 70
     1
102
RTVSPropertyOp19
 70
     1
102
RTVSPropertyOp20
 70
     1
102
RTVSPropertyOp21
 70
     1
102
RTVSPropertyOp22
 70
     1
102
RTVSPropertyOp23
 70
     1
102
RTVSPropertyOp24
 70
     1
102
RTVSPropertyOp25
 70
     1
102
RTVSPropertyOp26
 70
     1
102
RTVSPropertyOp27
 70
     1
102
RTVSPropertyOp28
 70
     1
102
RTVSPropertyOp29
 70
     1
102
RTVSPropertyOp30
 70
     1
102
RTVSPropertyOp31
 70
     1
102
RTVSPropertyOp32
 70
     1
  0
XRECORD
  5
15B
102
{ACAD_REACTORS
330
15A
102
}
330
15A
100
AcDbXrecord
280
     1
102
RTVSPropertyOp0
 70
     1
102
RTVSPropertyOp1
 70
     1
102
RTVSPropertyOp2
 70
     1
102
RTVSPropertyOp3
 70
     1
102
RTVSPropertyOp4
 70
     1
102
RTVSPropertyOp5
 70
     1
102
RTVSPropertyOp6
 70
     1
102
RTVSPropertyOp7
 70
     1
102
RTVSPropertyOp8
 70
     1
102
RTVSPropertyOp9
 70
     1
102
RTVSPropertyOp10
 70
     1
102
RTVSPropertyOp11
 70
     1
102
RTVSPropertyOp12
 70
     1
102
RTVSPropertyOp13
 70
     1
102
RTVSPropertyOp14
 70
     1
102
RTVSPropertyOp15
 70
     1
102
RTVSPropertyOp16
 70
     1
102
RTVSPropertyOp17
 70
     1
102
RTVSPropertyOp18
 70
     1
102
RTVSPropertyOp19
 70
     1
102
RTVSPropertyOp20
 70
     1
102
RTVSPropertyOp21
 70
     1
102
RTVSPropertyOp22
 70
     1
102
RTVSPropertyOp23
 70
     1
102
RTVSPropertyOp24
 70
     1
102
RTVSPropertyOp25
 70
     1
102
RTVSPropertyOp26
 70
     1
102
RTVSPropertyOp27
 70
     1
102
RTVSPropertyOp28
 70
     1
102
RTVSPropertyOp29
 70
     1
102
RTVSPropertyOp30
 70
     1
102
RTVSPropertyOp31
 70
     1
102
RTVSPropertyOp32
 70
     1
  0
XRECORD
  5
159
102
{ACAD_REACTORS
330
158
102
}
330
158
100
AcDbXrecord
280
     1
102
RTVSPropertyOp0
 70
     1
102
RTVSPropertyOp1
 70
     1
102
RTVSPropertyOp2
 70
     1
102
RTVSPropertyOp3
 70
     1
102
RTVSPropertyOp4
 70
     1
102
RTVSPropertyOp5
 70
     1
102
RTVSPropertyOp6
 70
     1
102
RTVSPropertyOp7
 70
     1
102
RTVSPropertyOp8
 70
     1
102
RTVSPropertyOp9
 70
     1
102
RTVSPropertyOp10
 70
     1
102
RTVSPropertyOp11
 70
     1
102
RTVSPropertyOp12
 70
     1
102
RTVSPropertyOp13
 70
     1
102
RTVSPropertyOp14
 70
     1
102
RTVSPropertyOp15
 70
     1
102
RTVSPropertyOp16
 70
     1
102
RTVSPropertyOp17
 70
     1
102
RTVSPropertyOp18
 70
     1
102
RTVSPropertyOp19
 70
     1
102
RTVSPropertyOp20
 70
     1
102
RTVSPropertyOp21
 70
     1
102
RTVSPropertyOp22
 70
     1
102
RTVSPropertyOp23
 70
     1
102
RTVSPropertyOp24
 70
     1
102
RTVSPropertyOp25
 70
     1
102
RTVSPropertyOp26
 70
     1
102
RTVSPropertyOp27
 70
     1
102
RTVSPropertyOp28
 70
     1
102
RTVSPropertyOp29
 70
     1
102
RTVSPropertyOp30
 70
     1
102
RTVSPropertyOp31
 70
     1
102
RTVSPropertyOp32
 70
     1
  0
XRECORD
  5
15D
102
{ACAD_REACTORS
330
15C
102
}
330
15C
100
AcDbXrecord
280
     1
102
RTVSPropertyOp0
 70
     1
102
RTVSPropertyOp1
 70
     1
102
RTVSPropertyOp2
 70
     1
102
RTVSPropertyOp3
 70
     1
102
RTVSPropertyOp4
 70
     1
102
RTVSPropertyOp5
 70
     1
102
RTVSPropertyOp6
 70
     1
102
RTVSPropertyOp7
 70
     1
102
RTVSPropertyOp8
 70
     1
102
RTVSPropertyOp9
 70
     1
102
RTVSPropertyOp10
 70
     1
102
RTVSPropertyOp11
 70
     1
102
RTVSPropertyOp12
 70
     1
102
RTVSPropertyOp13
 70
     1
102
RTVSPropertyOp14
 70
     1
102
RTVSPropertyOp15
 70
     1
102
RTVSPropertyOp16
 70
     1
102
RTVSPropertyOp17
 70
     1
102
RTVSPropertyOp18
 70
     1
102
RTVSPropertyOp19
 70
     1
102
RTVSPropertyOp20
 70
     1
102
RTVSPropertyOp21
 70
     1
102
RTVSPropertyOp22
 70
     1
102
RTVSPropertyOp23
 70
     1
102
RTVSPropertyOp24
 70
     1
102
RTVSPropertyOp25
 70
     1
102
RTVSPropertyOp26
 70
     1
102
RTVSPropertyOp27
 70
     1
102
RTVSPropertyOp28
 70
     1
102
RTVSPropertyOp29
 70
     1
102
RTVSPropertyOp30
 70
     1
102
RTVSPropertyOp31
 70
     1
102
RTVSPropertyOp32
 70
     1
  0
XRECORD
  5
165
102
{ACAD_REACTORS
330
164
102
}
330
164
100
AcDbXrecord
280
     1
102
RTVSPropertyOp0
 70
     1
102
RTVSPropertyOp1
 70
     1
102
RTVSPropertyOp2
 70
     1
102
RTVSPropertyOp3
 70
     1
102
RTVSPropertyOp4
 70
     1
102
RTVSPropertyOp5
 70
     1
102
RTVSPropertyOp6
 70
     1
102
RTVSPropertyOp7
 70
     1
102
RTVSPropertyOp8
 70
     1
102
RTVSPropertyOp9
 70
     1
102
RTVSPropertyOp10
 70
     1
102
RTVSPropertyOp11
 70
     1
102
RTVSPropertyOp12
 70
     1
102
RTVSPropertyOp13
 70
     1
102
RTVSPropertyOp14
 70
     1
102
RTVSPropertyOp15
 70
     1
102
RTVSPropertyOp16
 70
     1
102
RTVSPropertyOp17
 70
     1
102
RTVSPropertyOp18
 70
     1
102
RTVSPropertyOp19
 70
     1
102
RTVSPropertyOp20
 70
     1
102
RTVSPropertyOp21
 70
     1
102
RTVSPropertyOp22
 70
     1
102
RTVSPropertyOp23
 70
     1
102
RTVSPropertyOp24
 70
     1
102
RTVSPropertyOp25
 70
     1
102
RTVSPropertyOp26
 70
     1
102
RTVSPropertyOp27
 70
     1
102
RTVSPropertyOp28
 70
     1
102
RTVSPropertyOp29
 70
     1
102
RTVSPropertyOp30
 70
     1
102
RTVSPropertyOp31
 70
     1
102
RTVSPropertyOp32
 70
     1
  0
XRECORD
  5
16D
102
{ACAD_REACTORS
330
16C
102
}
330
16C
100
AcDbXrecord
280
     1
102
RTVSPropertyOp0
 70
     1
102
RTVSPropertyOp1
 70
     1
102
RTVSPropertyOp2
 70
     1
102
RTVSPropertyOp3
 70
     1
102
RTVSPropertyOp4
 70
     1
102
RTVSPropertyOp5
 70
     1
102
RTVSPropertyOp6
 70
     1
102
RTVSPropertyOp7
 70
     1
102
RTVSPropertyOp8
 70
     1
102
RTVSPropertyOp9
 70
     1
102
RTVSPropertyOp10
 70
     1
102
RTVSPropertyOp11
 70
     1
102
RTVSPropertyOp12
 70
     1
102
RTVSPropertyOp13
 70
     1
102
RTVSPropertyOp14
 70
     1
102
RTVSPropertyOp15
 70
     1
102
RTVSPropertyOp16
 70
     1
102
RTVSPropertyOp17
 70
     1
102
RTVSPropertyOp18
 70
     1
102
RTVSPropertyOp19
 70
     1
102
RTVSPropertyOp20
 70
     1
102
RTVSPropertyOp21
 70
     1
102
RTVSPropertyOp22
 70
     1
102
RTVSPropertyOp23
 70
     1
102
RTVSPropertyOp24
 70
     1
102
RTVSPropertyOp25
 70
     1
102
RTVSPropertyOp26
 70
     1
102
RTVSPropertyOp27
 70
     1
102
RTVSPropertyOp28
 70
     1
102
RTVSPropertyOp29
 70
     1
102
RTVSPropertyOp30
 70
     1
102
RTVSPropertyOp31
 70
     1
102
RTVSPropertyOp32
 70
     1
  0
XRECORD
  5
161
102
{ACAD_REACTORS
330
160
102
}
330
160
100
AcDbXrecord
280
     1
102
RTVSPropertyOp0
 70
     1
102
RTVSPropertyOp1
 70
     1
102
RTVSPropertyOp2
 70
     1
102
RTVSPropertyOp3
 70
     1
102
RTVSPropertyOp4
 70
     1
102
RTVSPropertyOp5
 70
     1
102
RTVSPropertyOp6
 70
     1
102
RTVSPropertyOp7
 70
     1
102
RTVSPropertyOp8
 70
     1
102
RTVSPropertyOp9
 70
     1
102
RTVSPropertyOp10
 70
     1
102
RTVSPropertyOp11
 70
     1
102
RTVSPropertyOp12
 70
     1
102
RTVSPropertyOp13
 70
     1
102
RTVSPropertyOp14
 70
     1
102
RTVSPropertyOp15
 70
     1
102
RTVSPropertyOp16
 70
     1
102
RTVSPropertyOp17
 70
     1
102
RTVSPropertyOp18
 70
     1
102
RTVSPropertyOp19
 70
     1
102
RTVSPropertyOp20
 70
     1
102
RTVSPropertyOp21
 70
     1
102
RTVSPropertyOp22
 70
     1
102
RTVSPropertyOp23
 70
     1
102
RTVSPropertyOp24
 70
     1
102
RTVSPropertyOp25
 70
     1
102
RTVSPropertyOp26
 70
     1
102
RTVSPropertyOp27
 70
     1
102
RTVSPropertyOp28
 70
     1
102
RTVSPropertyOp29
 70
     1
102
RTVSPropertyOp30
 70
     1
102
RTVSPropertyOp31
 70
     1
102
RTVSPropertyOp32
 70
     1
  0
XRECORD
  5
163
102
{ACAD_REACTORS
330
162
102
}
330
162
100
AcDbXrecord
280
     1
102
RTVSPropertyOp0
 70
     1
102
RTVSPropertyOp1
 70
     1
102
RTVSPropertyOp2
 70
     1
102
RTVSPropertyOp3
 70
     1
102
RTVSPropertyOp4
 70
     1
102
RTVSPropertyOp5
 70
     1
102
RTVSPropertyOp6
 70
     1
102
RTVSPropertyOp7
 70
     1
102
RTVSPropertyOp8
 70
     1
102
RTVSPropertyOp9
 70
     1
102
RTVSPropertyOp10
 70
     1
102
RTVSPropertyOp11
 70
     1
102
RTVSPropertyOp12
 70
     1
102
RTVSPropertyOp13
 70
     1
102
RTVSPropertyOp14
 70
     1
102
RTVSPropertyOp15
 70
     1
102
RTVSPropertyOp16
 70
     1
102
RTVSPropertyOp17
 70
     1
102
RTVSPropertyOp18
 70
     1
102
RTVSPropertyOp19
 70
     1
102
RTVSPropertyOp20
 70
     1
102
RTVSPropertyOp21
 70
     1
102
RTVSPropertyOp22
 70
     1
102
RTVSPropertyOp23
 70
     1
102
RTVSPropertyOp24
 70
     1
102
RTVSPropertyOp25
 70
     1
102
RTVSPropertyOp26
 70
     1
102
RTVSPropertyOp27
 70
     1
102
RTVSPropertyOp28
 70
     1
102
RTVSPropertyOp29
 70
     1
102
RTVSPropertyOp30
 70
     1
102
RTVSPropertyOp31
 70
     1
102
RTVSPropertyOp32
 70
     1
  0
XRECORD
  5
16B
102
{ACAD_REACTORS
330
16A
102
}
330
16A
100
AcDbXrecord
280
     1
102
RTVSPropertyOp0
 70
     1
102
RTVSPropertyOp1
 70
     1
102
RTVSPropertyOp2
 70
     1
102
RTVSPropertyOp3
 70
     1
102
RTVSPropertyOp4
 70
     1
102
RTVSPropertyOp5
 70
     1
102
RTVSPropertyOp6
 70
     1
102
RTVSPropertyOp7
 70
     1
102
RTVSPropertyOp8
 70
     1
102
RTVSPropertyOp9
 70
     1
102
RTVSPropertyOp10
 70
     1
102
RTVSPropertyOp11
 70
     1
102
RTVSPropertyOp12
 70
     1
102
RTVSPropertyOp13
 70
     1
102
RTVSPropertyOp14
 70
     1
102
RTVSPropertyOp15
 70
     1
102
RTVSPropertyOp16
 70
     1
102
RTVSPropertyOp17
 70
     1
102
RTVSPropertyOp18
 70
     1
102
RTVSPropertyOp19
 70
     1
102
RTVSPropertyOp20
 70
     1
102
RTVSPropertyOp21
 70
     1
102
RTVSPropertyOp22
 70
     1
102
RTVSPropertyOp23
 70
     1
102
RTVSPropertyOp24
 70
     1
102
RTVSPropertyOp25
 70
     1
102
RTVSPropertyOp26
 70
     1
102
RTVSPropertyOp27
 70
     1
102
RTVSPropertyOp28
 70
     1
102
RTVSPropertyOp29
 70
     1
102
RTVSPropertyOp30
 70
     1
102
RTVSPropertyOp31
 70
     1
102
RTVSPropertyOp32
 70
     1
  0
XRECORD
  5
14F
102
{ACAD_REACTORS
330
14E
102
}
330
14E
100
AcDbXrecord
280
     1
102
RTVSPropertyOp0
 70
     1
102
RTVSPropertyOp1
 70
     1
102
RTVSPropertyOp2
 70
     1
102
RTVSPropertyOp3
 70
     1
102
RTVSPropertyOp4
 70
     1
102
RTVSPropertyOp5
 70
     1
102
RTVSPropertyOp6
 70
     1
102
RTVSPropertyOp7
 70
     1
102
RTVSPropertyOp8
 70
     1
102
RTVSPropertyOp9
 70
     1
102
RTVSPropertyOp10
 70
     1
102
RTVSPropertyOp11
 70
     1
102
RTVSPropertyOp12
 70
     1
102
RTVSPropertyOp13
 70
     1
102
RTVSPropertyOp14
 70
     1
102
RTVSPropertyOp15
 70
     1
102
RTVSPropertyOp16
 70
     1
102
RTVSPropertyOp17
 70
     1
102
RTVSPropertyOp18
 70
     1
102
RTVSPropertyOp19
 70
     1
102
RTVSPropertyOp20
 70
     1
102
RTVSPropertyOp21
 70
     1
102
RTVSPropertyOp22
 70
     1
102
RTVSPropertyOp23
 70
     1
102
RTVSPropertyOp24
 70
     1
102
RTVSPropertyOp25
 70
     1
102
RTVSPropertyOp26
 70
     1
102
RTVSPropertyOp27
 70
     1
102
RTVSPropertyOp28
 70
     1
102
RTVSPropertyOp29
 70
     1
102
RTVSPropertyOp30
 70
     1
102
RTVSPropertyOp31
 70
     1
102
RTVSPropertyOp32
 70
     1
  0
XRECORD
  5
151
102
{ACAD_REACTORS
330
150
102
}
330
150
100
AcDbXrecord
280
     1
102
RTVSPropertyOp0
 70
     1
102
RTVSPropertyOp1
 70
     1
102
RTVSPropertyOp2
 70
     1
102
RTVSPropertyOp3
 70
     1
102
RTVSPropertyOp4
 70
     1
102
RTVSPropertyOp5
 70
     1
102
RTVSPropertyOp6
 70
     1
102
RTVSPropertyOp7
 70
     1
102
RTVSPropertyOp8
 70
     1
102
RTVSPropertyOp9
 70
     1
102
RTVSPropertyOp10
 70
     1
102
RTVSPropertyOp11
 70
     1
102
RTVSPropertyOp12
 70
     1
102
RTVSPropertyOp13
 70
     1
102
RTVSPropertyOp14
 70
     1
102
RTVSPropertyOp15
 70
     1
102
RTVSPropertyOp16
 70
     1
102
RTVSPropertyOp17
 70
     1
102
RTVSPropertyOp18
 70
     1
102
RTVSPropertyOp19
 70
     1
102
RTVSPropertyOp20
 70
     1
102
RTVSPropertyOp21
 70
     1
102
RTVSPropertyOp22
 70
     1
102
RTVSPropertyOp23
 70
     1
102
RTVSPropertyOp24
 70
     1
102
RTVSPropertyOp25
 70
     1
102
RTVSPropertyOp26
 70
     1
102
RTVSPropertyOp27
 70
     1
102
RTVSPropertyOp28
 70
     1
102
RTVSPropertyOp29
 70
     1
102
RTVSPropertyOp30
 70
     1
102
RTVSPropertyOp31
 70
     1
102
RTVSPropertyOp32
 70
     1
  0
XRECORD
  5
153
102
{ACAD_REACTORS
330
152
102
}
330
152
100
AcDbXrecord
280
     1
102
RTVSPropertyOp0
 70
     1
102
RTVSPropertyOp1
 70
     1
102
RTVSPropertyOp2
 70
     1
102
RTVSPropertyOp3
 70
     1
102
RTVSPropertyOp4
 70
     1
102
RTVSPropertyOp5
 70
     1
102
RTVSPropertyOp6
 70
     1
102
RTVSPropertyOp7
 70
     1
102
RTVSPropertyOp8
 70
     1
102
RTVSPropertyOp9
 70
     1
102
RTVSPropertyOp10
 70
     1
102
RTVSPropertyOp11
 70
     1
102
RTVSPropertyOp12
 70
     1
102
RTVSPropertyOp13
 70
     1
102
RTVSPropertyOp14
 70
     1
102
RTVSPropertyOp15
 70
     1
102
RTVSPropertyOp16
 70
     1
102
RTVSPropertyOp17
 70
     1
102
RTVSPropertyOp18
 70
     1
102
RTVSPropertyOp19
 70
     1
102
RTVSPropertyOp20
 70
     1
102
RTVSPropertyOp21
 70
     1
102
RTVSPropertyOp22
 70
     1
102
RTVSPropertyOp23
 70
     1
102
RTVSPropertyOp24
 70
     1
102
RTVSPropertyOp25
 70
     1
102
RTVSPropertyOp26
 70
     1
102
RTVSPropertyOp27
 70
     1
102
RTVSPropertyOp28
 70
     1
102
RTVSPropertyOp29
 70
     1
102
RTVSPropertyOp30
 70
     1
102
RTVSPropertyOp31
 70
     1
102
RTVSPropertyOp32
 70
     1
  0
XRECORD
  5
155
102
{ACAD_REACTORS
330
154
102
}
330
154
100
AcDbXrecord
280
     1
102
RTVSPropertyOp0
 70
     1
102
RTVSPropertyOp1
 70
     1
102
RTVSPropertyOp2
 70
     1
102
RTVSPropertyOp3
 70
     1
102
RTVSPropertyOp4
 70
     1
102
RTVSPropertyOp5
 70
     1
102
RTVSPropertyOp6
 70
     1
102
RTVSPropertyOp7
 70
     1
102
RTVSPropertyOp8
 70
     1
102
RTVSPropertyOp9
 70
     1
102
RTVSPropertyOp10
 70
     1
102
RTVSPropertyOp11
 70
     1
102
RTVSPropertyOp12
 70
     1
102
RTVSPropertyOp13
 70
     1
102
RTVSPropertyOp14
 70
     1
102
RTVSPropertyOp15
 70
     1
102
RTVSPropertyOp16
 70
     1
102
RTVSPropertyOp17
 70
     1
102
RTVSPropertyOp18
 70
     1
102
RTVSPropertyOp19
 70
     1
102
RTVSPropertyOp20
 70
     1
102
RTVSPropertyOp21
 70
     1
102
RTVSPropertyOp22
 70
     1
102
RTVSPropertyOp23
 70
     1
102
RTVSPropertyOp24
 70
     1
102
RTVSPropertyOp25
 70
     1
102
RTVSPropertyOp26
 70
     1
102
RTVSPropertyOp27
 70
     1
102
RTVSPropertyOp28
 70
     1
102
RTVSPropertyOp29
 70
     1
102
RTVSPropertyOp30
 70
     1
102
RTVSPropertyOp31
 70
     1
102
RTVSPropertyOp32
 70
     1
  0
XRECORD
  5
169
102
{ACAD_REACTORS
330
168
102
}
330
168
100
AcDbXrecord
280
     1
102
RTVSPropertyOp0
 70
     1
102
RTVSPropertyOp1
 70
     1
102
RTVSPropertyOp2
 70
     1
102
RTVSPropertyOp3
 70
     1
102
RTVSPropertyOp4
 70
     1
102
RTVSPropertyOp5
 70
     1
102
RTVSPropertyOp6
 70
     1
102
RTVSPropertyOp7
 70
     1
102
RTVSPropertyOp8
 70
     1
102
RTVSPropertyOp9
 70
     1
102
RTVSPropertyOp10
 70
     1
102
RTVSPropertyOp11
 70
     1
102
RTVSPropertyOp12
 70
     1
102
RTVSPropertyOp13
 70
     1
102
RTVSPropertyOp14
 70
     1
102
RTVSPropertyOp15
 70
     1
102
RTVSPropertyOp16
 70
     1
102
RTVSPropertyOp17
 70
     1
102
RTVSPropertyOp18
 70
     1
102
RTVSPropertyOp19
 70
     1
102
RTVSPropertyOp20
 70
     1
102
RTVSPropertyOp21
 70
     1
102
RTVSPropertyOp22
 70
     1
102
RTVSPropertyOp23
 70
     1
102
RTVSPropertyOp24
 70
     1
102
RTVSPropertyOp25
 70
     1
102
RTVSPropertyOp26
 70
     1
102
RTVSPropertyOp27
 70
     1
102
RTVSPropertyOp28
 70
     1
102
RTVSPropertyOp29
 70
     1
102
RTVSPropertyOp30
 70
     1
102
RTVSPropertyOp31
 70
     1
102
RTVSPropertyOp32
 70
     1
  0
XRECORD
  5
15F
102
{ACAD_REACTORS
330
15E
102
}
330
15E
100
AcDbXrecord
280
     1
102
RTVSPropertyOp0
 70
     1
102
RTVSPropertyOp1
 70
     1
102
RTVSPropertyOp2
 70
     1
102
RTVSPropertyOp3
 70
     1
102
RTVSPropertyOp4
 70
     1
102
RTVSPropertyOp5
 70
     1
102
RTVSPropertyOp6
 70
     1
102
RTVSPropertyOp7
 70
     1
102
RTVSPropertyOp8
 70
     1
102
RTVSPropertyOp9
 70
     1
102
RTVSPropertyOp10
 70
     1
102
RTVSPropertyOp11
 70
     1
102
RTVSPropertyOp12
 70
     1
102
RTVSPropertyOp13
 70
     1
102
RTVSPropertyOp14
 70
     1
102
RTVSPropertyOp15
 70
     1
102
RTVSPropertyOp16
 70
     1
102
RTVSPropertyOp17
 70
     1
102
RTVSPropertyOp18
 70
     1
102
RTVSPropertyOp19
 70
     1
102
RTVSPropertyOp20
 70
     1
102
RTVSPropertyOp21
 70
     1
102
RTVSPropertyOp22
 70
     1
102
RTVSPropertyOp23
 70
     1
102
RTVSPropertyOp24
 70
     1
102
RTVSPropertyOp25
 70
     1
102
RTVSPropertyOp26
 70
     1
102
RTVSPropertyOp27
 70
     1
102
RTVSPropertyOp28
 70
     1
102
RTVSPropertyOp29
 70
     1
102
RTVSPropertyOp30
 70
     1
102
RTVSPropertyOp31
 70
     1
102
RTVSPropertyOp32
 70
     1
  0
XRECORD
  5
167
102
{ACAD_REACTORS
330
166
102
}
330
166
100
AcDbXrecord
280
     1
102
RTVSPropertyOp0
 70
     1
102
RTVSPropertyOp1
 70
     1
102
RTVSPropertyOp2
 70
     1
102
RTVSPropertyOp3
 70
     1
102
RTVSPropertyOp4
 70
     1
102
RTVSPropertyOp5
 70
     1
102
RTVSPropertyOp6
 70
     1
102
RTVSPropertyOp7
 70
     1
102
RTVSPropertyOp8
 70
     1
102
RTVSPropertyOp9
 70
     1
102
RTVSPropertyOp10
 70
     1
102
RTVSPropertyOp11
 70
     1
102
RTVSPropertyOp12
 70
     1
102
RTVSPropertyOp13
 70
     1
102
RTVSPropertyOp14
 70
     1
102
RTVSPropertyOp15
 70
     1
102
RTVSPropertyOp16
 70
     1
102
RTVSPropertyOp17
 70
     1
102
RTVSPropertyOp18
 70
     1
102
RTVSPropertyOp19
 70
     1
102
RTVSPropertyOp20
 70
     1
102
RTVSPropertyOp21
 70
     1
102
RTVSPropertyOp22
 70
     1
102
RTVSPropertyOp23
 70
     1
102
RTVSPropertyOp24
 70
     1
102
RTVSPropertyOp25
 70
     1
102
RTVSPropertyOp26
 70
     1
102
RTVSPropertyOp27
 70
     1
102
RTVSPropertyOp28
 70
     1
102
RTVSPropertyOp29
 70
     1
102
RTVSPropertyOp30
 70
     1
102
RTVSPropertyOp31
 70
     1
102
RTVSPropertyOp32
 70
     1
  0
ENDSEC
  0
EOF
