  0
SECTION
  2
HEADER
  9
$ACADVER
  1
AC1021
  9
$ACADMAINTVER
 70
    25
  9
$DWGCODEPAGE
  3
ANSI_1252
  9
$INSBASE
 10
0.0
 20
0.0
 30
0.0
  9
$EXTMIN
 10
-187.429
 20
-114.7659
 30
0.0
  9
$EXTMAX
 10
-48.5964
 20
131.9025
 30
0.0
  9
$LIMMIN
 10
0.0
 20
0.0
  9
$LIMMAX
 10
12.0
 20
9.0
  9
$ORTHOMODE
 70
     0
  9
$REGENMODE
 70
     1
  9
$FILLMODE
 70
     1
  9
$QTEXTMODE
 70
     0
  9
$MIRRTEXT
 70
     1
  9
$LTSCALE
 40
1.0
  9
$ATTMODE
 70
     1
  9
$TEXTSIZE
 40
0.2
  9
$TRACEWID
 40
0.05
  9
$TEXTSTYLE
  7
Standard
  9
$CLAYER
  8
0
  9
$CELTYPE
  6
ByLayer
  9
$CECOLOR
 62
   256
  9
$CELTSCALE
 40
1.0
  9
$DISPSILH
 70
     0
  9
$DIMSCALE
 40
1.0
  9
$DIMASZ
 40
0.18
  9
$DIMEXO
 40
0.0625
  9
$DIMDLI
 40
0.38
  9
$DIMRND
 40
0.0
  9
$DIMDLE
 40
0.0
  9
$DIMEXE
 40
0.18
  9
$DIMTP
 40
0.0
  9
$DIMTM
 40
0.0
  9
$DIMTXT
 40
0.18
  9
$DIMCEN
 40
0.09
  9
$DIMTSZ
 40
0.0
  9
$DIMTOL
 70
     0
  9
$DIMLIM
 70
     0
  9
$DIMTIH
 70
     1
  9
$DIMTOH
 70
     1
  9
$DIMSE1
 70
     0
  9
$DIMSE2
 70
     0
  9
$DIMTAD
 70
     0
  9
$DIMZIN
 70
     0
  9
$DIMBLK
  1

  9
$DIMASO
 70
     1
  9
$DIMSHO
 70
     1
  9
$DIMPOST
  1

  9
$DIMAPOST
  1

  9
$DIMALT
 70
     0
  9
$DIMALTD
 70
     2
  9
$DIMALTF
 40
25.4
  9
$DIMLFAC
 40
1.0
  9
$DIMTOFL
 70
     0
  9
$DIMTVP
 40
0.0
  9
$DIMTIX
 70
     0
  9
$DIMSOXD
 70
     0
  9
$DIMSAH
 70
     0
  9
$DIMBLK1
  1

  9
$DIMBLK2
  1

  9
$DIMSTYLE
  2
Standard
  9
$DIMCLRD
 70
     0
  9
$DIMCLRE
 70
     0
  9
$DIMCLRT
 70
     0
  9
$DIMTFAC
 40
1.0
  9
$DIMGAP
 40
0.09
  9
$DIMJUST
 70
     0
  9
$DIMSD1
 70
     0
  9
$DIMSD2
 70
     0
  9
$DIMTOLJ
 70
     1
  9
$DIMTZIN
 70
     0
  9
$DIMALTZ
 70
     0
  9
$DIMALTTZ
 70
     0
  9
$DIMUPT
 70
     0
  9
$DIMDEC
 70
     4
  9
$DIMTDEC
 70
     4
  9
$DIMALTU
 70
     2
  9
$DIMALTTD
 70
     2
  9
$DIMTXSTY
  7
Standard
  9
$DIMAUNIT
 70
     0
  9
$DIMADEC
 70
     0
  9
$DIMALTRND
 40
0.0
  9
$DIMAZIN
 70
     0
  9
$DIMDSEP
 70
    46
  9
$DIMATFIT
 70
     3
  9
$DIMFRAC
 70
     0
  9
$DIMLDRBLK
  1

  9
$DIMLUNIT
 70
     2
  9
$DIMLWD
 70
    -2
  9
$DIMLWE
 70
    -2
  9
$DIMTMOVE
 70
     0
  9
$DIMFXL
 40
1.0
  9
$DIMFXLON
 70
     0
  9
$DIMJOGANG
 40
0.7853981633974483
  9
$DIMTFILL
 70
     0
  9
$DIMTFILLCLR
 70
     0
  9
$DIMARCSYM
 70
     0
  9
$DIMLTYPE
  6

  9
$DIMLTEX1
  6

  9
$DIMLTEX2
  6

  9
$LUNITS
 70
     2
  9
$LUPREC
 70
     4
  9
$SKETCHINC
 40
0.1
  9
$FILLETRAD
 40
0.5
  9
$AUNITS
 70
     0
  9
$AUPREC
 70
     0
  9
$MENU
  1
.
  9
$ELEVATION
 40
0.0
  9
$PELEVATION
 40
0.0
  9
$THICKNESS
 40
0.0
  9
$LIMCHECK
 70
     0
  9
$CHAMFERA
 40
0.5
  9
$CHAMFERB
 40
0.5
  9
$CHAMFERC
 40
1.0
  9
$CHAMFERD
 40
0.0
  9
$SKPOLY
 70
     0
  9
$TDCREATE
 40
2458492.846985116
  9
$TDUCREATE
 40
2458492.846985116
  9
$TDUPDATE
 40
2458492.84698522
  9
$TDUUPDATE
 40
2458492.84698522
  9
$TDINDWG
 40
0.0000000116
  9
$TDUSRTIMER
 40
0.0000000116
  9
$USRTIMER
 70
     1
  9
$ANGBASE
 50
0.0
  9
$ANGDIR
 70
     0
  9
$PDMODE
 70
     0
  9
$PDSIZE
 40
0.0
  9
$PLINEWID
 40
0.0
  9
$SPLFRAME
 70
     0
  9
$SPLINETYPE
 70
     6
  9
$SPLINESEGS
 70
     8
  9
$HANDSEED
  5
AD
  9
$SURFTAB1
 70
     6
  9
$SURFTAB2
 70
     6
  9
$SURFTYPE
 70
     6
  9
$SURFU
 70
     6
  9
$SURFV
 70
     6
  9
$UCSBASE
  2

  9
$UCSNAME
  2

  9
$UCSORG
 10
0.0
 20
0.0
 30
0.0
  9
$UCSXDIR
 10
1.0
 20
0.0
 30
0.0
  9
$UCSYDIR
 10
0.0
 20
1.0
 30
0.0
  9
$UCSORTHOREF
  2

  9
$UCSORTHOVIEW
 70
     0
  9
$UCSORGTOP
 10
0.0
 20
0.0
 30
0.0
  9
$UCSORGBOTTOM
 10
0.0
 20
0.0
 30
0.0
  9
$UCSORGLEFT
 10
0.0
 20
0.0
 30
0.0
  9
$UCSORGRIGHT
 10
0.0
 20
0.0
 30
0.0
  9
$UCSORGFRONT
 10
0.0
 20
0.0
 30
0.0
  9
$UCSORGBACK
 10
0.0
 20
0.0
 30
0.0
  9
$PUCSBASE
  2

  9
$PUCSNAME
  2

  9
$PUCSORG
 10
0.0
 20
0.0
 30
0.0
  9
$PUCSXDIR
 10
1.0
 20
0.0
 30
0.0
  9
$PUCSYDIR
 10
0.0
 20
1.0
 30
0.0
  9
$PUCSORTHOREF
  2

  9
$PUCSORTHOVIEW
 70
     0
  9
$PUCSORGTOP
 10
0.0
 20
0.0
 30
0.0
  9
$PUCSORGBOTTOM
 10
0.0
 20
0.0
 30
0.0
  9
$PUCSORGLEFT
 10
0.0
 20
0.0
 30
0.0
  9
$PUCSORGRIGHT
 10
0.0
 20
0.0
 30
0.0
  9
$PUCSORGFRONT
 10
0.0
 20
0.0
 30
0.0
  9
$PUCSORGBACK
 10
0.0
 20
0.0
 30
0.0
  9
$USERI1
 70
     0
  9
$USERI2
 70
     0
  9
$USERI3
 70
     0
  9
$USERI4
 70
     0
  9
$USERI5
 70
     0
  9
$USERR1
 40
0.0
  9
$USERR2
 40
0.0
  9
$USERR3
 40
0.0
  9
$USERR4
 40
0.0
  9
$USERR5
 40
0.0
  9
$WORLDVIEW
 70
     1
  9
$SHADEDGE
 70
     3
  9
$SHADEDIF
 70
    70
  9
$TILEMODE
 70
     1
  9
$MAXACTVP
 70
    64
  9
$PINSBASE
 10
0.0
 20
0.0
 30
0.0
  9
$PLIMCHECK
 70
     0
  9
$PEXTMIN
 10
1.000000000000000E+20
 20
1.000000000000000E+20
 30
1.000000000000000E+20
  9
$PEXTMAX
 10
-1.000000000000000E+20
 20
-1.000000000000000E+20
 30
-1.000000000000000E+20
  9
$PLIMMIN
 10
0.0
 20
0.0
  9
$PLIMMAX
 10
12.0
 20
9.0
  9
$UNITMODE
 70
     0
  9
$VISRETAIN
 70
     1
  9
$PLINEGEN
 70
     0
  9
$PSLTSCALE
 70
     1
  9
$TREEDEPTH
 70
  3020
  9
$CMLSTYLE
  2
Standard
  9
$CMLJUST
 70
     0
  9
$CMLSCALE
 40
1.0
  9
$PROXYGRAPHICS
 70
     1
  9
$MEASUREMENT
 70
     0
  9
$CELWEIGHT
370
    -1
  9
$ENDCAPS
280
     0
  9
$JOINSTYLE
280
     0
  9
$LWDISPLAY
290
     0
  9
$INSUNITS
 70
     4
  9
$HYPERLINKBASE
  1

  9
$STYLESHEET
  1

  9
$XEDIT
290
     1
  9
$CEPSNTYPE
380
     0
  9
$PSTYLEMODE
290
     1
  9
$FINGERPRINTGUID
  2
{AB584EE3-5225-4020-B3F8-06175B4DC2D1}
  9
$VERSIONGUID
  2
{FAEB1C32-E019-11D5-929B-00C0DF256EC4}
  9
$EXTNAMES
290
     1
  9
$PSVPSCALE
 40
0.0
  9
$OLESTARTUP
290
     0
  9
$SORTENTS
280
   127
  9
$INDEXCTL
280
     0
  9
$HIDETEXT
280
     1
  9
$XCLIPFRAME
290
     0
  9
$HALOGAP
280
     0
  9
$OBSCOLOR
 70
   257
  9
$OBSLTYPE
280
     0
  9
$INTERSECTIONDISPLAY
280
     0
  9
$INTERSECTIONCOLOR
 70
   257
  9
$DIMASSOC
280
     2
  9
$PROJECTNAME
  1

  9
$CAMERADISPLAY
290
     0
  9
$LENSLENGTH
 40
50.0
  9
$CAMERAHEIGHT
 40
0.0
  9
$STEPSPERSEC
 40
2.0
  9
$STEPSIZE
 40
6.0
  9
$3DDWFPREC
 40
2.0
  9
$PSOLWIDTH
 40
0.25
  9
$PSOLHEIGHT
 40
4.0
  9
$LOFTANG1
 40
1.570796326794897
  9
$LOFTANG2
 40
1.570796326794897
  9
$LOFTMAG1
 40
0.0
  9
$LOFTMAG2
 40
0.0
  9
$LOFTPARAM
 70
     7
  9
$LOFTNORMALS
280
     1
  9
$LATITUDE
 40
37.795
  9
$LONGITUDE
 40
-122.394
  9
$NORTHDIRECTION
 40
0.0
  9
$TIMEZONE
 70
 -8000
  9
$LIGHTGLYPHDISPLAY
280
     1
  9
$TILEMODELIGHTSYNCH
280
     1
  9
$SOLIDHIST
280
     1
  9
$SHOWHIST
280
     1
  9
$DWFFRAME
280
     2
  9
$DGNFRAME
280
     2
  9
$REALWORLDSCALE
290
     1
  9
$INTERFERECOLOR
 62
   256
  9
$CSHADOW
280
     0
  9
$SHADOWPLANELOCATION
 40
0.0
  0
ENDSEC
  0
SECTION
  2
CLASSES
  0
CLASS
  1
ACDBDICTIONARYWDFLT
  2
AcDbDictionaryWithDefault
  3
ObjectDBX Classes
 90
        0
 91
        4
280
     0
281
     0
  0
CLASS
  1
VISUALSTYLE
  2
AcDbVisualStyle
  3
ObjectDBX Classes
 90
     4095
 91
        4
280
     0
281
     0
  0
CLASS
  1
MATERIAL
  2
AcDbMaterial
  3
ObjectDBX Classes
 90
     1153
 91
        4
280
     0
281
     0
  0
ENDSEC
  0
SECTION
  2
TABLES
  0
TABLE
  2
VPORT
  5
8
330
0
100
AcDbSymbolTable
 70
     1
  0
VPORT
  5
29
330
8
100
AcDbSymbolTableRecord
100
AcDbViewportTableRecord
  2
*Active
 70
     0
 10
0.0
 20
0.0
 11
1.0
 21
1.0
 12
10.42990654205607
 22
4.5
 13
0.0
 23
0.0
 14
0.5
 24
0.5
 15
0.5
 25
0.5
 16
0.0
 26
0.0
 36
1.0
 17
0.0
 27
0.0
 37
0.0
 40
9.0
 41
1.972972972850329
 42
50.0
 43
0.0
 44
0.0
 50
0.0
 51
0.0
 71
     0
 72
   100
 73
     1
 74
     3
 75
     0
 76
     0
 77
     0
 78
     0
281
     0
 65
     1
110
0.0
120
0.0
130
0.0
111
1.0
121
0.0
131
0.0
112
0.0
122
1.0
132
0.0
 79
     0
146
0.0
 60
     3
 61
     5
292
     1
282
     1
141
0.0
142
0.0
 63
   250
  0
ENDTAB
  0
TABLE
  2
LTYPE
  5
5
330
0
100
AcDbSymbolTable
 70
     1
  0
LTYPE
  5
14
330
5
100
AcDbSymbolTableRecord
100
AcDbLinetypeTableRecord
  2
ByBlock
 70
     0
  3

 72
    65
 73
     0
 40
0.0
  0
LTYPE
  5
15
330
5
100
AcDbSymbolTableRecord
100
AcDbLinetypeTableRecord
  2
ByLayer
 70
     0
  3

 72
    65
 73
     0
 40
0.0
  0
LTYPE
  5
16
330
5
100
AcDbSymbolTableRecord
100
AcDbLinetypeTableRecord
  2
Continuous
 70
     0
  3
Solid line
 72
    65
 73
     0
 40
0.0
  0
ENDTAB
  0
TABLE
  2
LAYER
  5
2
330
0
100
AcDbSymbolTable
 70
     2
  0
LAYER
  5
10
330
2
100
AcDbSymbolTableRecord
100
AcDbLayerTableRecord
  2
0
 70
     0
 62
     7
  6
Continuous
370
    -3
390
F
347
3E
  0
LAYER
  5
40
330
2
100
AcDbSymbolTableRecord
100
AcDbLayerTableRecord
  2
layer 1
 70
     0
 62
     7
  6
Continuous
370
    -3
390
F
347
3E
  0
ENDTAB
  0
TABLE
  2
STYLE
  5
3
330
0
100
AcDbSymbolTable
 70
     1
  0
STYLE
  5
11
330
3
100
AcDbSymbolTableRecord
100
AcDbTextStyleTableRecord
  2
Standard
 70
     0
 40
0.0
 41
1.0
 50
0.0
 71
     0
 42
0.2
  3
txt
  4

  0
ENDTAB
  0
TABLE
  2
VIEW
  5
6
330
0
100
AcDbSymbolTable
 70
     0
  0
ENDTAB
  0
TABLE
  2
UCS
  5
7
330
0
100
AcDbSymbolTable
 70
     0
  0
ENDTAB
  0
TABLE
  2
APPID
  5
9
330
0
100
AcDbSymbolTable
 70
     2
  0
APPID
  5
12
330
9
100
AcDbSymbolTableRecord
100
AcDbRegAppTableRecord
  2
ACAD
 70
     0
  0
APPID
  5
3F
330
9
100
AcDbSymbolTableRecord
100
AcDbRegAppTableRecord
  2
ODA
 70
     0
  0
ENDTAB
  0
TABLE
  2
DIMSTYLE
  5
A
330
0
100
AcDbSymbolTable
 70
     1
100
AcDbDimStyleTable
  0
DIMSTYLE
105
27
330
A
100
AcDbSymbolTableRecord
100
AcDbDimStyleTableRecord
  2
Standard
 70
     0
178
     0
340
11
  0
ENDTAB
  0
TABLE
  2
BLOCK_RECORD
  5
1
330
0
100
AcDbSymbolTable
 70
     1
  0
BLOCK_RECORD
  5
1F
330
1
100
AcDbSymbolTableRecord
100
AcDbBlockTableRecord
  2
*Model_Space
340
22
 70
     0
280
     1
281
     0
  0
BLOCK_RECORD
  5
1B
330
1
100
AcDbSymbolTableRecord
100
AcDbBlockTableRecord
  2
*Paper_Space
340
1E
 70
     0
280
     1
281
     0
  0
BLOCK_RECORD
  5
23
330
1
100
AcDbSymbolTableRecord
100
AcDbBlockTableRecord
  2
*Paper_Space0
340
26
 70
     0
280
     1
281
     0
  0
ENDTAB
  0
ENDSEC
  0
SECTION
  2
BLOCKS
  0
BLOCK
  5
20
330
1F
100
AcDbEntity
  8
0
100
AcDbBlockBegin
  2
*Model_Space
 70
     0
 10
0.0
 20
0.0
 30
0.0
  3
*Model_Space
  1

  0
ENDBLK
  5
21
330
1F
100
AcDbEntity
  8
0
100
AcDbBlockEnd
  0
BLOCK
  5
1C
330
1B
100
AcDbEntity
 67
     1
  8
0
100
AcDbBlockBegin
  2
*Paper_Space
 70
     0
 10
0.0
 20
0.0
 30
0.0
  3
*Paper_Space
  1

  0
ENDBLK
  5
1D
330
1B
100
AcDbEntity
 67
     1
  8
0
100
AcDbBlockEnd
  0
BLOCK
  5
24
330
23
100
AcDbEntity
  8
0
100
AcDbBlockBegin
  2
*Paper_Space0
 70
     0
 10
0.0
 20
0.0
 30
0.0
  3
*Paper_Space0
  1

  0
ENDBLK
  5
25
330
23
100
AcDbEntity
  8
0
100
AcDbBlockEnd
  0
ENDSEC
  0
SECTION
  2
ENTITIES
  0
SPLINE
  5
41
330
1F
100
AcDbEntity
  8
layer 1
 62
   250
370
     9
100
AcDbSpline
210
0.0
220
0.0
230
1.0
 70
    11
 71
     3
 72
    20
 73
    16
 74
     0
 42
0.0000000001
 43
0.0000000001
 12
1.0
 22
0.0
 32
0.0
 13
1.0
 23
0.0
 33
0.0
 40
0.0
 40
0.0
 40
0.0
 40
0.0
 40
0.2
 40
0.2
 40
0.2
 40
0.2
 40
0.4
 40
0.4
 40
0.4
 40
0.4
 40
0.6
 40
0.6
 40
0.6
 40
0.6
 40
1.0
 40
1.0
 40
1.0
 40
1.0
 10
-187.3909
 20
-114.7278
 30
0.0
 10
-187.3909
 20
-114.7278
 30
0.0
 10
-187.3909
 20
131.8644
 30
0.0
 10
-187.3909
 20
131.8644
 30
0.0
 10
-187.3909
 20
131.8644
 30
0.0
 10
-187.3909
 20
131.8644
 30
0.0
 10
-48.6345
 20
131.8644
 30
0.0
 10
-48.6345
 20
131.8644
 30
0.0
 10
-48.6345
 20
131.8644
 30
0.0
 10
-48.6345
 20
131.8644
 30
0.0
 10
-48.6345
 20
-114.7278
 30
0.0
 10
-48.6345
 20
-114.7278
 30
0.0
 10
-48.6345
 20
-114.7278
 30
0.0
 10
-48.6345
 20
-114.7278
 30
0.0
 10
-187.3909
 20
-114.7278
 30
0.0
 10
-187.3909
 20
-114.7278
 30
0.0
  0
SPLINE
  5
42
330
1F
100
AcDbEntity
  8
layer 1
 62
     7
100
AcDbSpline
210
0.0
220
0.0
230
1.0
 70
    11
 71
     3
 72
    16
 73
    12
 74
     0
 42
0.0000000001
 43
0.0000000001
 12
1.0
 22
0.0
 32
0.0
 13
1.0
 23
0.0
 33
0.0
 40
0.0
 40
0.0
 40
0.0
 40
0.0
 40
0.25
 40
0.25
 40
0.25
 40
0.25
 40
0.5
 40
0.5
 40
0.5
 40
0.5
 40
1.0
 40
1.0
 40
1.0
 40
1.0
 10
-180.9695
 20
-41.0755
 30
0.0
 10
-180.9695
 20
-41.0755
 30
0.0
 10
-180.9695
 20
-18.7557
 30
0.0
 10
-180.9695
 20
-18.7557
 30
0.0
 10
-180.9695
 20
-18.7557
 30
0.0
 10
-179.7146
 20
-22.7253
 30
0.0
 10
-177.9084
 20
-25.7699
 30
0.0
 10
-175.7283
 20
-27.653
 30
0.0
 10
-175.7283
 20
-27.653
 30
0.0
 10
-178.1643
 20
-31.576
 30
0.0
 10
-179.6161
 20
-35.7549
 30
0.0
 10
-180.9695
 20
-41.0755
 30
0.0
  0
SPLINE
  5
43
330
1F
100
AcDbEntity
  8
layer 1
 62
     7
100
AcDbSpline
210
0.0
220
0.0
230
1.0
 70
    11
 71
     3
 72
    16
 73
    12
 74
     0
 42
0.0000000001
 43
0.0000000001
 12
1.0
 22
0.0
 32
0.0
 13
1.0
 23
0.0
 33
0.0
 40
0.0
 40
0.0
 40
0.0
 40
0.0
 40
0.25
 40
0.25
 40
0.25
 40
0.25
 40
0.5
 40
0.5
 40
0.5
 40
0.5
 40
1.0
 40
1.0
 40
1.0
 40
1.0
 10
-173.6014
 20
-24.5263
 30
0.0
 10
-177.3844
 20
-17.4924
 30
0.0
 10
-177.1493
 20
-12.0616
 30
0.0
 10
-174.2426
 20
-4.8354
 30
0.0
 10
-174.2426
 20
-4.8354
 30
0.0
 10
-174.0777
 20
-8.9974
 30
0.0
 10
-169.6427
 20
-13.6235
 30
0.0
 10
-165.368
 20
-13.8181
 30
0.0
 10
-165.368
 20
-13.8181
 30
0.0
 10
-168.6589
 20
-16.2451
 30
0.0
 10
-171.4546
 20
-19.9562
 30
0.0
 10
-173.6014
 20
-24.5263
 30
0.0
  0
SPLINE
  5
44
330
1F
100
AcDbEntity
  8
layer 1
 62
     7
100
AcDbSpline
210
0.0
220
0.0
230
1.0
 70
    11
 71
     3
 72
    16
 73
    12
 74
     0
 42
0.0000000001
 43
0.0000000001
 12
1.0
 22
0.0
 32
0.0
 13
1.0
 23
0.0
 33
0.0
 40
0.0
 40
0.0
 40
0.0
 40
0.0
 40
0.25
 40
0.25
 40
0.25
 40
0.25
 40
0.5
 40
0.5
 40
0.5
 40
0.5
 40
1.0
 40
1.0
 40
1.0
 40
1.0
 10
-180.9695
 20
-75.6076
 30
0.0
 10
-180.9695
 20
-75.6076
 30
0.0
 10
-180.9695
 20
-51.138
 30
0.0
 10
-180.9695
 20
-51.138
 30
0.0
 10
-180.9695
 20
-51.138
 30
0.0
 10
-180.1407
 20
-56.8314
 30
0.0
 10
-174.4997
 20
-68.0684
 30
0.0
 10
-170.7314
 20
-70.6294
 30
0.0
 10
-170.7314
 20
-70.6294
 30
0.0
 10
-174.6975
 20
-68.471
 30
0.0
 10
-180.2746
 20
-71.3135
 30
0.0
 10
-180.9695
 20
-75.6076
 30
0.0
  0
SPLINE
  5
45
330
1F
100
AcDbEntity
  8
layer 1
 62
     7
100
AcDbSpline
210
0.0
220
0.0
230
1.0
 70
    11
 71
     3
 72
    24
 73
    20
 74
     0
 42
0.0000000001
 43
0.0000000001
 12
1.0
 22
0.0
 32
0.0
 13
1.0
 23
0.0
 33
0.0
 40
0.0
 40
0.0
 40
0.0
 40
0.0
 40
0.1666666666666667
 40
0.1666666666666667
 40
0.1666666666666667
 40
0.1666666666666667
 40
0.3333333333333333
 40
0.3333333333333333
 40
0.3333333333333333
 40
0.3333333333333333
 40
0.5
 40
0.5
 40
0.5
 40
0.5
 40
0.6666666666666666
 40
0.6666666666666666
 40
0.6666666666666666
 40
0.6666666666666666
 40
1.0
 40
1.0
 40
1.0
 40
1.0
 10
-181.0227
 20
-80.0316
 30
0.0
 10
-181.0227
 20
-80.0316
 30
0.0
 10
-181.0227
 20
-96.6254
 30
0.0
 10
-181.0227
 20
-96.6254
 30
0.0
 10
-181.0227
 20
-96.6254
 30
0.0
 10
-180.2512
 20
-91.7941
 30
0.0
 10
-173.7076
 20
-88.1342
 30
0.0
 10
-168.547
 20
-90.4724
 30
0.0
 10
-168.547
 20
-90.4724
 30
0.0
 10
-180.0253
 20
-97.9575
 30
0.0
 10
-166.3728
 20
-110.8602
 30
0.0
 10
-163.3375
 20
-95.3039
 30
0.0
 10
-163.3375
 20
-95.3039
 30
0.0
 10
-162.6651
 20
-91.8578
 30
0.0
 10
-162.9206
 20
-84.1414
 30
0.0
 10
-166.7602
 20
-78.8217
 30
0.0
 10
-166.7602
 20
-78.8217
 30
0.0
 10
-167.4374
 20
-86.0864
 30
0.0
 10
-178.1642
 20
-86.9654
 30
0.0
 10
-181.0227
 20
-80.0316
 30
0.0
  0
SPLINE
  5
46
330
1F
100
AcDbEntity
  8
layer 1
 62
     7
100
AcDbSpline
210
0.0
220
0.0
230
1.0
 70
    11
 71
     3
 72
    16
 73
    12
 74
     0
 42
0.0000000001
 43
0.0000000001
 12
1.0
 22
0.0
 32
0.0
 13
1.0
 23
0.0
 33
0.0
 40
0.0
 40
0.0
 40
0.0
 40
0.0
 40
0.25
 40
0.25
 40
0.25
 40
0.25
 40
0.5
 40
0.5
 40
0.5
 40
0.5
 40
1.0
 40
1.0
 40
1.0
 40
1.0
 10
-180.9695
 20
-105.0185
 30
0.0
 10
-180.9695
 20
-105.0185
 30
0.0
 10
-180.9695
 20
-109.9364
 30
0.0
 10
-180.9695
 20
-109.9364
 30
0.0
 10
-180.9695
 20
-109.9364
 30
0.0
 10
-180.9695
 20
-109.9364
 30
0.0
 10
-176.2067
 20
-109.9589
 30
0.0
 10
-176.2067
 20
-109.9589
 30
0.0
 10
-176.2067
 20
-109.9589
 30
0.0
 10
-178.8655
 20
-109.2186
 30
0.0
 10
-180.1759
 20
-107.6389
 30
0.0
 10
-180.9695
 20
-105.0185
 30
0.0
  0
SPLINE
  5
47
330
1F
100
AcDbEntity
  8
layer 1
 62
     7
100
AcDbSpline
210
0.0
220
0.0
230
1.0
 70
    11
 71
     3
 72
    16
 73
    12
 74
     0
 42
0.0000000001
 43
0.0000000001
 12
1.0
 22
0.0
 32
0.0
 13
1.0
 23
0.0
 33
0.0
 40
0.0
 40
0.0
 40
0.0
 40
0.0
 40
0.25
 40
0.25
 40
0.25
 40
0.25
 40
0.5
 40
0.5
 40
0.5
 40
0.5
 40
1.0
 40
1.0
 40
1.0
 40
1.0
 10
-161.7525
 20
-103.2057
 30
0.0
 10
-162.3729
 20
-105.9447
 30
0.0
 10
-164.6609
 20
-108.8893
 30
0.0
 10
-167.8312
 20
-109.9364
 30
0.0
 10
-167.8312
 20
-109.9364
 30
0.0
 10
-167.8312
 20
-109.9364
 30
0.0
 10
-158.3311
 20
-109.9589
 30
0.0
 10
-158.3311
 20
-109.9589
 30
0.0
 10
-158.3311
 20
-109.9589
 30
0.0
 10
-161.2463
 20
-109.1944
 30
0.0
 10
-162.4416
 20
-106.6352
 30
0.0
 10
-161.7525
 20
-103.2057
 30
0.0
  0
SPLINE
  5
48
330
1F
100
AcDbEntity
  8
layer 1
 62
     7
100
AcDbSpline
210
0.0
220
0.0
230
1.0
 70
    11
 71
     3
 72
    40
 73
    36
 74
     0
 42
0.0000000001
 43
0.0000000001
 12
1.0
 22
0.0
 32
0.0
 13
1.0
 23
0.0
 33
0.0
 40
0.0
 40
0.0
 40
0.0
 40
0.0
 40
0.1
 40
0.1
 40
0.1
 40
0.1
 40
0.2
 40
0.2
 40
0.2
 40
0.2
 40
0.3
 40
0.3
 40
0.3
 40
0.3
 40
0.4
 40
0.4
 40
0.4
 40
0.4
 40
0.5
 40
0.5
 40
0.5
 40
0.5
 40
0.6
 40
0.6
 40
0.6
 40
0.6
 40
0.7
 40
0.7
 40
0.7
 40
0.7
 40
0.8
 40
0.8
 40
0.8
 40
0.8
 40
1.0
 40
1.0
 40
1.0
 40
1.0
 10
-159.9783
 20
-97.2252
 30
0.0
 10
-148.8421
 20
-96.1275
 30
0.0
 10
-148.239
 20
-108.6781
 30
0.0
 10
-155.07
 20
-109.9364
 30
0.0
 10
-155.07
 20
-109.9364
 30
0.0
 10
-155.07
 20
-109.9364
 30
0.0
 10
-144.9453
 20
-109.9589
 30
0.0
 10
-144.9453
 20
-109.9589
 30
0.0
 10
-144.9453
 20
-109.9589
 30
0.0
 10
-144.3171
 20
-109.725
 30
0.0
 10
-144.6263
 20
-109.0537
 30
0.0
 10
-145.2798
 20
-108.866
 30
0.0
 10
-145.2798
 20
-108.866
 30
0.0
 10
-146.9831
 20
-108.3766
 30
0.0
 10
-151.6799
 20
-101.8476
 30
0.0
 10
-145.8323
 20
-97.7323
 30
0.0
 10
-145.8323
 20
-97.7323
 30
0.0
 10
-146.2712
 20
-104.2638
 30
0.0
 10
-140.9092
 20
-103.8715
 30
0.0
 10
-139.3278
 20
-101.5852
 30
0.0
 10
-139.3278
 20
-101.5852
 30
0.0
 10
-138.3253
 20
-100.1357
 30
0.0
 10
-138.5725
 20
-97.479
 30
0.0
 10
-140.759
 20
-96.4995
 30
0.0
 10
-140.759
 20
-96.4995
 30
0.0
 10
-146.8532
 20
-93.9629
 30
0.0
 10
-157.6544
 20
-86.6355
 30
0.0
 10
-161.1995
 20
-82.6547
 30
0.0
 10
-161.1995
 20
-82.6547
 30
0.0
 10
-161.5091
 20
-82.3242
 30
0.0
 10
-161.672
 20
-82.6821
 30
0.0
 10
-161.5047
 20
-82.9439
 30
0.0
 10
-161.5047
 20
-82.9439
 30
0.0
 10
-158.9751
 20
-86.9036
 30
0.0
 10
-158.9114
 20
-93.8226
 30
0.0
 10
-159.9783
 20
-97.2252
 30
0.0
  0
SPLINE
  5
49
330
1F
100
AcDbEntity
  8
layer 1
 62
     7
100
AcDbSpline
210
0.0
220
0.0
230
1.0
 70
    11
 71
     3
 72
    40
 73
    36
 74
     0
 42
0.0000000001
 43
0.0000000001
 12
1.0
 22
0.0
 32
0.0
 13
1.0
 23
0.0
 33
0.0
 40
0.0
 40
0.0
 40
0.0
 40
0.0
 40
0.1
 40
0.1
 40
0.1
 40
0.1
 40
0.2
 40
0.2
 40
0.2
 40
0.2
 40
0.3
 40
0.3
 40
0.3
 40
0.3
 40
0.4
 40
0.4
 40
0.4
 40
0.4
 40
0.5
 40
0.5
 40
0.5
 40
0.5
 40
0.6
 40
0.6
 40
0.6
 40
0.6
 40
0.7
 40
0.7
 40
0.7
 40
0.7
 40
0.8
 40
0.8
 40
0.8
 40
0.8
 40
1.0
 40
1.0
 40
1.0
 40
1.0
 10
-167.7279
 20
-70.6968
 30
0.0
 10
-167.2949
 20
-70.9756
 30
0.0
 10
-167.0733
 20
-70.6793
 30
0.0
 10
-167.0823
 20
-70.2617
 30
0.0
 10
-167.0823
 20
-70.2617
 30
0.0
 10
-167.1786
 20
-65.8069
 30
0.0
 10
-163.9367
 20
-63.3072
 30
0.0
 10
-159.0235
 20
-64.7748
 30
0.0
 10
-159.0235
 20
-64.7748
 30
0.0
 10
-160.2894
 20
-63.3159
 30
0.0
 10
-159.7621
 20
-57.9215
 30
0.0
 10
-157.6889
 20
-57.2976
 30
0.0
 10
-157.6889
 20
-57.2976
 30
0.0
 10
-160.1953
 20
-57.3333
 30
0.0
 10
-161.6117
 20
-55.369
 30
0.0
 10
-160.7617
 20
-52.6582
 30
0.0
 10
-160.7617
 20
-52.6582
 30
0.0
 10
-161.815
 20
-51.1654
 30
0.0
 10
-163.0022
 20
-49.7315
 30
0.0
 10
-164.0329
 20
-48.4689
 30
0.0
 10
-164.0329
 20
-48.4689
 30
0.0
 10
-163.2797
 20
-55.5353
 30
0.0
 10
-166.0266
 20
-59.5227
 30
0.0
 10
-169.3061
 20
-60.1238
 30
0.0
 10
-169.3061
 20
-60.1238
 30
0.0
 10
-171.0239
 20
-60.4387
 30
0.0
 10
-172.8879
 20
-59.8245
 30
0.0
 10
-174.4714
 20
-58.2372
 30
0.0
 10
-174.4714
 20
-58.2372
 30
0.0
 10
-174.781
 20
-57.9066
 30
0.0
 10
-174.9439
 20
-58.2646
 30
0.0
 10
-174.7767
 20
-58.5264
 30
0.0
 10
-174.7767
 20
-58.5264
 30
0.0
 10
-172.2471
 20
-62.486
 30
0.0
 10
-171.2138
 20
-65.7372
 30
0.0
 10
-167.7279
 20
-70.6968
 30
0.0
  0
SPLINE
  5
4A
330
1F
100
AcDbEntity
  8
layer 1
 62
     7
100
AcDbSpline
210
0.0
220
0.0
230
1.0
 70
    11
 71
     3
 72
    52
 73
    48
 74
     0
 42
0.0000000001
 43
0.0000000001
 12
1.0
 22
0.0
 32
0.0
 13
1.0
 23
0.0
 33
0.0
 40
0.0
 40
0.0
 40
0.0
 40
0.0
 40
0.0769230769230769
 40
0.0769230769230769
 40
0.0769230769230769
 40
0.0769230769230769
 40
0.1538461538461539
 40
0.1538461538461539
 40
0.1538461538461539
 40
0.1538461538461539
 40
0.2307692307692308
 40
0.2307692307692308
 40
0.2307692307692308
 40
0.2307692307692308
 40
0.3076923076923077
 40
0.3076923076923077
 40
0.3076923076923077
 40
0.3076923076923077
 40
0.3846153846153846
 40
0.3846153846153846
 40
0.3846153846153846
 40
0.3846153846153846
 40
0.4615384615384616
 40
0.4615384615384616
 40
0.4615384615384616
 40
0.4615384615384616
 40
0.5384615384615384
 40
0.5384615384615384
 40
0.5384615384615384
 40
0.5384615384615384
 40
0.6153846153846154
 40
0.6153846153846154
 40
0.6153846153846154
 40
0.6153846153846154
 40
0.6923076923076923
 40
0.6923076923076923
 40
0.6923076923076923
 40
0.6923076923076923
 40
0.7692307692307693
 40
0.7692307692307693
 40
0.7692307692307693
 40
0.7692307692307693
 40
0.8461538461538461
 40
0.8461538461538461
 40
0.8461538461538461
 40
0.8461538461538461
 40
1.0
 40
1.0
 40
1.0
 40
1.0
 10
-148.7831
 20
-87.5008
 30
0.0
 10
-151.8274
 20
-80.3583
 30
0.0
 10
-142.4792
 20
-76.8352
 30
0.0
 10
-139.5829
 20
-83.3181
 30
0.0
 10
-139.5829
 20
-83.3181
 30
0.0
 10
-138.7428
 20
-76.9109
 30
0.0
 10
-134.5029
 20
-77.9847
 30
0.0
 10
-133.6129
 20
-77.9064
 30
0.0
 10
-133.6129
 20
-77.9064
 30
0.0
 10
-137.4619
 20
-87.6852
 30
0.0
 10
-125.0075
 20
-87.6065
 30
0.0
 10
-126.3636
 20
-79.1219
 30
0.0
 10
-126.3636
 20
-79.1219
 30
0.0
 10
-127.7988
 20
-71.2293
 30
0.0
 10
-133.6836
 20
-71.3372
 30
0.0
 10
-135.1869
 20
-62.2251
 30
0.0
 10
-135.1869
 20
-62.2251
 30
0.0
 10
-136.1546
 20
-66.3479
 30
0.0
 10
-138.9067
 20
-67.7541
 30
0.0
 10
-142.821
 20
-67.047
 30
0.0
 10
-142.821
 20
-67.047
 30
0.0
 10
-140.3562
 20
-69.1063
 30
0.0
 10
-141.8105
 20
-71.6668
 30
0.0
 10
-143.9023
 20
-72.2105
 30
0.0
 10
-143.9023
 20
-72.2105
 30
0.0
 10
-144.9979
 20
-72.4952
 30
0.0
 10
-146.2685
 20
-72.2266
 30
0.0
 10
-147.2422
 20
-71.0428
 30
0.0
 10
-147.2422
 20
-71.0428
 30
0.0
 10
-144.5723
 20
-76.2549
 30
0.0
 10
-150.6964
 20
-78.7306
 30
0.0
 10
-152.7488
 20
-77.1038
 30
0.0
 10
-152.7488
 20
-77.1038
 30
0.0
 10
-149.939
 20
-71.4776
 30
0.0
 10
-154.5257
 20
-67.9191
 30
0.0
 10
-156.329
 20
-66.9656
 30
0.0
 10
-156.329
 20
-66.9656
 30
0.0
 10
-154.6404
 20
-70.9732
 30
0.0
 10
-158.0275
 20
-76.6387
 30
0.0
 10
-163.484
 20
-74.3002
 30
0.0
 10
-163.484
 20
-74.3002
 30
0.0
 10
-164.0639
 20
-73.7764
 30
0.0
 10
-164.729
 20
-74.2503
 30
0.0
 10
-164.2528
 20
-74.8598
 30
0.0
 10
-164.2528
 20
-74.8598
 30
0.0
 10
-161.3594
 20
-78.5619
 30
0.0
 10
-154.0073
 20
-84.5113
 30
0.0
 10
-148.7831
 20
-87.5008
 30
0.0
  0
SPLINE
  5
4B
330
1F
100
AcDbEntity
  8
layer 1
 62
     7
100
AcDbSpline
210
0.0
220
0.0
230
1.0
 70
    11
 71
     3
 72
    32
 73
    28
 74
     0
 42
0.0000000001
 43
0.0000000001
 12
1.0
 22
0.0
 32
0.0
 13
1.0
 23
0.0
 33
0.0
 40
0.0
 40
0.0
 40
0.0
 40
0.0
 40
0.125
 40
0.125
 40
0.125
 40
0.125
 40
0.25
 40
0.25
 40
0.25
 40
0.25
 40
0.375
 40
0.375
 40
0.375
 40
0.375
 40
0.5
 40
0.5
 40
0.5
 40
0.5
 40
0.625
 40
0.625
 40
0.625
 40
0.625
 40
0.75
 40
0.75
 40
0.75
 40
0.75
 40
1.0
 40
1.0
 40
1.0
 40
1.0
 10
-135.3653
 20
-96.8972
 30
0.0
 10
-131.1998
 20
-99.0798
 30
0.0
 10
-130.1456
 20
-106.2998
 30
0.0
 10
-135.6645
 20
-109.9364
 30
0.0
 10
-135.6645
 20
-109.9364
 30
0.0
 10
-135.6645
 20
-109.9364
 30
0.0
 10
-104.7096
 20
-109.9589
 30
0.0
 10
-104.7096
 20
-109.9589
 30
0.0
 10
-104.7096
 20
-109.9589
 30
0.0
 10
-110.375
 20
-107.8178
 30
0.0
 10
-109.5975
 20
-99.7559
 30
0.0
 10
-105.7411
 20
-97.0157
 30
0.0
 10
-105.7411
 20
-97.0157
 30
0.0
 10
-107.4853
 20
-97.7156
 30
0.0
 10
-111.0341
 20
-99.5923
 30
0.0
 10
-115.7657
 20
-98.5524
 30
0.0
 10
-115.7657
 20
-98.5524
 30
0.0
 10
-113.9083
 20
-100.4504
 30
0.0
 10
-114.5738
 20
-106.8646
 30
0.0
 10
-119.7584
 20
-106.8338
 30
0.0
 10
-119.7584
 20
-106.8338
 30
0.0
 10
-124.5169
 20
-107.0189
 30
0.0
 10
-125.1947
 20
-99.9392
 30
0.0
 10
-121.0666
 20
-99.1648
 30
0.0
 10
-121.0666
 20
-99.1648
 30
0.0
 10
-126.3783
 20
-99.1893
 30
0.0
 10
-130.5951
 20
-98.5339
 30
0.0
 10
-135.3653
 20
-96.8972
 30
0.0
  0
SPLINE
  5
4C
330
1F
100
AcDbEntity
  8
layer 1
 62
     7
100
AcDbSpline
210
0.0
220
0.0
230
1.0
 70
    11
 71
     3
 72
    16
 73
    12
 74
     0
 42
0.0000000001
 43
0.0000000001
 12
1.0
 22
0.0
 32
0.0
 13
1.0
 23
0.0
 33
0.0
 40
0.0
 40
0.0
 40
0.0
 40
0.0
 40
0.25
 40
0.25
 40
0.25
 40
0.25
 40
0.5
 40
0.5
 40
0.5
 40
0.5
 40
1.0
 40
1.0
 40
1.0
 40
1.0
 10
-55.0026
 20
-103.8766
 30
0.0
 10
-55.0026
 20
-103.8766
 30
0.0
 10
-55.0026
 20
-109.9364
 30
0.0
 10
-55.0026
 20
-109.9364
 30
0.0
 10
-55.0026
 20
-109.9364
 30
0.0
 10
-55.0026
 20
-109.9364
 30
0.0
 10
-60.981
 20
-109.9589
 30
0.0
 10
-60.981
 20
-109.9589
 30
0.0
 10
-60.981
 20
-109.9589
 30
0.0
 10
-58.3222
 20
-109.2186
 30
0.0
 10
-55.7962
 20
-106.497
 30
0.0
 10
-55.0026
 20
-103.8766
 30
0.0
  0
SPLINE
  5
4D
330
1F
100
AcDbEntity
  8
layer 1
 62
     7
100
AcDbSpline
210
0.0
220
0.0
230
1.0
 70
    11
 71
     3
 72
    40
 73
    36
 74
     0
 42
0.0000000001
 43
0.0000000001
 12
1.0
 22
0.0
 32
0.0
 13
1.0
 23
0.0
 33
0.0
 40
0.0
 40
0.0
 40
0.0
 40
0.0
 40
0.1
 40
0.1
 40
0.1
 40
0.1
 40
0.2
 40
0.2
 40
0.2
 40
0.2
 40
0.3
 40
0.3
 40
0.3
 40
0.3
 40
0.4
 40
0.4
 40
0.4
 40
0.4
 40
0.5
 40
0.5
 40
0.5
 40
0.5
 40
0.6
 40
0.6
 40
0.6
 40
0.6
 40
0.7
 40
0.7
 40
0.7
 40
0.7
 40
0.8
 40
0.8
 40
0.8
 40
0.8
 40
1.0
 40
1.0
 40
1.0
 40
1.0
 10
-134.0256
 20
-42.1903
 30
0.0
 10
-134.0447
 20
-42.7049
 30
0.0
 10
-133.6988
 20
-42.7044
 30
0.0
 10
-133.3222
 20
-42.5239
 30
0.0
 10
-133.3222
 20
-42.5239
 30
0.0
 10
-124.878
 20
-38.4782
 30
0.0
 10
-120.6635
 20
-49.0081
 30
0.0
 10
-125.0902
 20
-53.3404
 30
0.0
 10
-125.0902
 20
-53.3404
 30
0.0
 10
-121.031
 20
-50.3617
 30
0.0
 10
-115.6011
 20
-51.328
 30
0.0
 10
-113.0025
 20
-54.3629
 30
0.0
 10
-113.0025
 20
-54.3629
 30
0.0
 10
-113.9632
 20
-52.6496
 30
0.0
 10
-113.6005
 20
-49.6443
 30
0.0
 10
-111.2213
 20
-48.2598
 30
0.0
 10
-111.2213
 20
-48.2598
 30
0.0
 10
-115.3797
 20
-49.9149
 30
0.0
 10
-118.3567
 20
-45.0851
 30
0.0
 10
-115.0146
 20
-42.28
 30
0.0
 10
-115.0146
 20
-42.28
 30
0.0
 10
-117.3384
 20
-42.6514
 30
0.0
 10
-119.1856
 20
-40.283
 30
0.0
 10
-119.7545
 20
-37.9718
 30
0.0
 10
-119.7545
 20
-37.9718
 30
0.0
 10
-120.0526
 20
-36.7612
 30
0.0
 10
-119.9998
 20
-35.5662
 30
0.0
 10
-119.4812
 20
-34.789
 30
0.0
 10
-119.4812
 20
-34.789
 30
0.0
 10
-122.2518
 20
-35.1268
 30
0.0
 10
-126.8651
 20
-32.7485
 30
0.0
 10
-125.6338
 20
-27.5796
 30
0.0
 10
-125.6338
 20
-27.5796
 30
0.0
 10
-128.3407
 20
-30.8498
 30
0.0
 10
-132.1412
 20
-35.7867
 30
0.0
 10
-134.0256
 20
-42.1903
 30
0.0
  0
SPLINE
  5
4E
330
1F
100
AcDbEntity
  8
layer 1
 62
     7
100
AcDbSpline
210
0.0
220
0.0
230
1.0
 70
    11
 71
     3
 72
    20
 73
    16
 74
     0
 42
0.0000000001
 43
0.0000000001
 12
1.0
 22
0.0
 32
0.0
 13
1.0
 23
0.0
 33
0.0
 40
0.0
 40
0.0
 40
0.0
 40
0.0
 40
0.2
 40
0.2
 40
0.2
 40
0.2
 40
0.4
 40
0.4
 40
0.4
 40
0.4
 40
0.6
 40
0.6
 40
0.6
 40
0.6
 40
1.0
 40
1.0
 40
1.0
 40
1.0
 10
-126.9268
 20
-64.0902
 30
0.0
 10
-113.668
 20
-64.9597
 30
0.0
 10
-121.4939
 20
-51.4437
 30
0.0
 10
-128.9119
 20
-59.0911
 30
0.0
 10
-128.9119
 20
-59.0911
 30
0.0
 10
-129.7934
 20
-57.7705
 30
0.0
 10
-129.0423
 20
-55.531
 30
0.0
 10
-127.5646
 20
-54.8472
 30
0.0
 10
-127.5646
 20
-54.8472
 30
0.0
 10
-131.2011
 20
-56.1745
 30
0.0
 10
-135.2268
 20
-53.0231
 30
0.0
 10
-135.0779
 20
-50.0809
 30
0.0
 10
-135.0779
 20
-50.0809
 30
0.0
 10
-136.6108
 20
-56.49
 30
0.0
 10
-133.4629
 20
-62.9861
 30
0.0
 10
-126.9268
 20
-64.0902
 30
0.0
  0
SPLINE
  5
4F
330
1F
100
AcDbEntity
  8
layer 1
 62
     7
100
AcDbSpline
210
0.0
220
0.0
230
1.0
 70
    11
 71
     3
 72
    20
 73
    16
 74
     0
 42
0.0000000001
 43
0.0000000001
 12
1.0
 22
0.0
 32
0.0
 13
1.0
 23
0.0
 33
0.0
 40
0.0
 40
0.0
 40
0.0
 40
0.0
 40
0.2
 40
0.2
 40
0.2
 40
0.2
 40
0.4
 40
0.4
 40
0.4
 40
0.4
 40
0.6
 40
0.6
 40
0.6
 40
0.6
 40
1.0
 40
1.0
 40
1.0
 40
1.0
 10
-136.1753
 20
-37.8171
 30
0.0
 10
-133.8513
 20
-32.7783
 30
0.0
 10
-131.7033
 20
-30.0281
 30
0.0
 10
-128.5484
 20
-27.2918
 30
0.0
 10
-128.5484
 20
-27.2918
 30
0.0
 10
-131.7814
 20
-28.5873
 30
0.0
 10
-135.1163
 20
-27.4353
 30
0.0
 10
-136.0195
 20
-23.6064
 30
0.0
 10
-136.0195
 20
-23.6064
 30
0.0
 10
-135.9818
 20
-27.1676
 30
0.0
 10
-138.0086
 20
-31.7764
 30
0.0
 10
-142.3864
 20
-34.4779
 30
0.0
 10
-142.3864
 20
-34.4779
 30
0.0
 10
-139.0693
 20
-33.0974
 30
0.0
 10
-136.0389
 20
-35.0375
 30
0.0
 10
-136.1753
 20
-37.8171
 30
0.0
  0
SPLINE
  5
50
330
1F
100
AcDbEntity
  8
layer 1
 62
     7
100
AcDbSpline
210
0.0
220
0.0
230
1.0
 70
    11
 71
     3
 72
    32
 73
    28
 74
     0
 42
0.0000000001
 43
0.0000000001
 12
1.0
 22
0.0
 32
0.0
 13
1.0
 23
0.0
 33
0.0
 40
0.0
 40
0.0
 40
0.0
 40
0.0
 40
0.125
 40
0.125
 40
0.125
 40
0.125
 40
0.25
 40
0.25
 40
0.25
 40
0.25
 40
0.375
 40
0.375
 40
0.375
 40
0.375
 40
0.5
 40
0.5
 40
0.5
 40
0.5
 40
0.625
 40
0.625
 40
0.625
 40
0.625
 40
0.75
 40
0.75
 40
0.75
 40
0.75
 40
1.0
 40
1.0
 40
1.0
 40
1.0
 10
-98.9333
 20
-36.2067
 30
0.0
 10
-99.1423
 20
-34.7294
 30
0.0
 10
-98.6296
 20
-33.1234
 30
0.0
 10
-96.9925
 20
-32.6793
 30
0.0
 10
-96.9925
 20
-32.6793
 30
0.0
 10
-105.525
 20
-33.292
 30
0.0
 10
-104.228
 20
-22.9653
 30
0.0
 10
-98.3638
 20
-23.1276
 30
0.0
 10
-98.3638
 20
-23.1276
 30
0.0
 10
-101.0259
 20
-20.7521
 30
0.0
 10
-108.1877
 20
-17.463
 30
0.0
 10
-118.3508
 20
-22.1784
 30
0.0
 10
-118.3508
 20
-22.1784
 30
0.0
 10
-109.1088
 20
-23.9383
 30
0.0
 10
-111.09
 20
-32.7199
 30
0.0
 10
-116.9067
 20
-34.6004
 30
0.0
 10
-116.9067
 20
-34.6004
 30
0.0
 10
-114.1485
 20
-40.832
 30
0.0
 10
-110.3379
 20
-37.6812
 30
0.0
 10
-107.966
 20
-34.8966
 30
0.0
 10
-107.966
 20
-34.8966
 30
0.0
 10
-106.5342
 20
-33.2158
 30
0.0
 10
-104.4205
 20
-32.1628
 30
0.0
 10
-102.2645
 20
-33.0435
 30
0.0
 10
-102.2645
 20
-33.0435
 30
0.0
 10
-101.1351
 20
-33.5048
 30
0.0
 10
-99.994
 20
-34.4967
 30
0.0
 10
-98.9333
 20
-36.2067
 30
0.0
  0
SPLINE
  5
51
330
1F
100
AcDbEntity
  8
layer 1
 62
     7
100
AcDbSpline
210
0.0
220
0.0
230
1.0
 70
    11
 71
     3
 72
    16
 73
    12
 74
     0
 42
0.0000000001
 43
0.0000000001
 12
1.0
 22
0.0
 32
0.0
 13
1.0
 23
0.0
 33
0.0
 40
0.0
 40
0.0
 40
0.0
 40
0.0
 40
0.25
 40
0.25
 40
0.25
 40
0.25
 40
0.5
 40
0.5
 40
0.5
 40
0.5
 40
1.0
 40
1.0
 40
1.0
 40
1.0
 10
-180.9695
 20
-4.8247
 30
0.0
 10
-179.8585
 20
0.9199
 30
0.0
 10
-176.38
 20
6.5488
 30
0.0
 10
-171.4269
 20
8.5389
 30
0.0
 10
-171.4269
 20
8.5389
 30
0.0
 10
-176.38
 20
10.5289
 30
0.0
 10
-179.8585
 20
16.2167
 30
0.0
 10
-180.9695
 20
21.9614
 30
0.0
 10
-180.9695
 20
21.9614
 30
0.0
 10
-180.9695
 20
21.9614
 30
0.0
 10
-180.9695
 20
-4.8247
 30
0.0
 10
-180.9695
 20
-4.8247
 30
0.0
  0
SPLINE
  5
52
330
1F
100
AcDbEntity
  8
layer 1
 62
     7
100
AcDbSpline
210
0.0
220
0.0
230
1.0
 70
    11
 71
     3
 72
    44
 73
    40
 74
     0
 42
0.0000000001
 43
0.0000000001
 12
1.0
 22
0.0
 32
0.0
 13
1.0
 23
0.0
 33
0.0
 40
0.0
 40
0.0
 40
0.0
 40
0.0
 40
0.0909090909090909
 40
0.0909090909090909
 40
0.0909090909090909
 40
0.0909090909090909
 40
0.1818181818181818
 40
0.1818181818181818
 40
0.1818181818181818
 40
0.1818181818181818
 40
0.2727272727272727
 40
0.2727272727272727
 40
0.2727272727272727
 40
0.2727272727272727
 40
0.3636363636363636
 40
0.3636363636363636
 40
0.3636363636363636
 40
0.3636363636363636
 40
0.4545454545454545
 40
0.4545454545454545
 40
0.4545454545454545
 40
0.4545454545454545
 40
0.5454545454545454
 40
0.5454545454545454
 40
0.5454545454545454
 40
0.5454545454545454
 40
0.6363636363636364
 40
0.6363636363636364
 40
0.6363636363636364
 40
0.6363636363636364
 40
0.7272727272727273
 40
0.7272727272727273
 40
0.7272727272727273
 40
0.7272727272727273
 40
0.8181818181818182
 40
0.8181818181818182
 40
0.8181818181818182
 40
0.8181818181818182
 40
1.0
 40
1.0
 40
1.0
 40
1.0
 10
-136.0013
 20
-20.1225
 30
0.0
 10
-134.9777
 20
-17.9031
 30
0.0
 10
-127.3673
 20
-14.663
 30
0.0
 10
-125.4863
 20
-22.2847
 30
0.0
 10
-125.4863
 20
-22.2847
 30
0.0
 10
-125.4098
 20
-22.5945
 30
0.0
 10
-125.2414
 20
-23.4074
 30
0.0
 10
-123.927
 20
-22.4797
 30
0.0
 10
-123.927
 20
-22.4797
 30
0.0
 10
-118.1617
 20
-18.4006
 30
0.0
 10
-110.3859
 20
-16.6314
 30
0.0
 10
-106.3858
 20
-17.0442
 30
0.0
 10
-106.3858
 20
-17.0442
 30
0.0
 10
-107.0952
 20
-15.584
 30
0.0
 10
-108.8466
 20
-14.1133
 30
0.0
 10
-111.4068
 20
-12.9838
 30
0.0
 10
-111.4068
 20
-12.9838
 30
0.0
 10
-113.5334
 20
-12.0206
 30
0.0
 10
-114.7479
 20
-13.9875
 30
0.0
 10
-116.7186
 20
-13.5416
 30
0.0
 10
-116.7186
 20
-13.5416
 30
0.0
 10
-118.1362
 20
-13.2209
 30
0.0
 10
-118.9619
 20
-12.3419
 30
0.0
 10
-119.4518
 20
-11.395
 30
0.0
 10
-119.4518
 20
-11.395
 30
0.0
 10
-119.7084
 20
-10.8991
 30
0.0
 10
-119.8728
 20
-10.3844
 30
0.0
 10
-119.982
 20
-9.9218
 30
0.0
 10
-119.982
 20
-9.9218
 30
0.0
 10
-120.773
 20
-14.5936
 30
0.0
 10
-128.1524
 20
-16.2146
 30
0.0
 10
-133.4668
 20
-11.0601
 30
0.0
 10
-133.4668
 20
-11.0601
 30
0.0
 10
-135.2367
 20
-9.3435
 30
0.0
 10
-138.5039
 20
-11.0039
 30
0.0
 10
-139.7448
 20
-11.8039
 30
0.0
 10
-139.7448
 20
-11.8039
 30
0.0
 10
-137.9993
 20
-12.656
 30
0.0
 10
-135.8648
 20
-16.184
 30
0.0
 10
-136.0013
 20
-20.1225
 30
0.0
  0
SPLINE
  5
53
330
1F
100
AcDbEntity
  8
layer 1
 62
     7
100
AcDbSpline
210
0.0
220
0.0
230
1.0
 70
    11
 71
     3
 72
    24
 73
    20
 74
     0
 42
0.0000000001
 43
0.0000000001
 12
1.0
 22
0.0
 32
0.0
 13
1.0
 23
0.0
 33
0.0
 40
0.0
 40
0.0
 40
0.0
 40
0.0
 40
0.1666666666666667
 40
0.1666666666666667
 40
0.1666666666666667
 40
0.1666666666666667
 40
0.3333333333333333
 40
0.3333333333333333
 40
0.3333333333333333
 40
0.3333333333333333
 40
0.5
 40
0.5
 40
0.5
 40
0.5
 40
0.6666666666666666
 40
0.6666666666666666
 40
0.6666666666666666
 40
0.6666666666666666
 40
1.0
 40
1.0
 40
1.0
 40
1.0
 10
-111.4002
 20
-10.2617
 30
0.0
 10
-112.2815
 20
-6.1908
 30
0.0
 10
-112.5295
 20
-2.3439
 30
0.0
 10
-109.3746
 20
0.3924
 30
0.0
 10
-109.3746
 20
0.3924
 30
0.0
 10
-112.3702
 20
-2.1081
 30
0.0
 10
-115.51
 20
-1.8832
 30
0.0
 10
-119.1635
 20
1.1162
 30
0.0
 10
-119.1635
 20
1.1162
 30
0.0
 10
-118.1761
 20
-1.2994
 30
0.0
 10
-118.0887
 20
-2.9633
 30
0.0
 10
-119.1565
 20
-5.828
 30
0.0
 10
-119.1565
 20
-5.828
 30
0.0
 10
-116.7723
 20
-4.8358
 30
0.0
 10
-113.0941
 20
-5.4806
 30
0.0
 10
-113.043
 20
-8.9899
 30
0.0
 10
-113.043
 20
-8.9899
 30
0.0
 10
-113.0297
 20
-9.9094
 30
0.0
 10
-111.8367
 20
-10.0923
 30
0.0
 10
-111.4002
 20
-10.2617
 30
0.0
  0
SPLINE
  5
54
330
1F
100
AcDbEntity
  8
layer 1
 62
     7
100
AcDbSpline
210
0.0
220
0.0
230
1.0
 70
    11
 71
     3
 72
    20
 73
    16
 74
     0
 42
0.0000000001
 43
0.0000000001
 12
1.0
 22
0.0
 32
0.0
 13
1.0
 23
0.0
 33
0.0
 40
0.0
 40
0.0
 40
0.0
 40
0.0
 40
0.2
 40
0.2
 40
0.2
 40
0.2
 40
0.4
 40
0.4
 40
0.4
 40
0.4
 40
0.6
 40
0.6
 40
0.6
 40
0.6
 40
1.0
 40
1.0
 40
1.0
 40
1.0
 10
-99.3692
 20
-17.716
 30
0.0
 10
-103.9384
 20
-12.5896
 30
0.0
 10
-101.2607
 20
-7.1472
 30
0.0
 10
-97.7616
 20
-5.54
 30
0.0
 10
-97.7616
 20
-5.54
 30
0.0
 10
-103.1173
 20
-6.5923
 30
0.0
 10
-105.5442
 20
0.137
 30
0.0
 10
-102.2153
 20
2.7683
 30
0.0
 10
-102.2153
 20
2.7683
 30
0.0
 10
-107.8124
 20
1.0992
 30
0.0
 10
-109.3732
 20
-4.2213
 30
0.0
 10
-109.027
 20
-8.5406
 30
0.0
 10
-109.027
 20
-8.5406
 30
0.0
 10
-108.9044
 20
-10.3899
 30
0.0
 10
-106.8864
 20
-17.1783
 30
0.0
 10
-99.3692
 20
-17.716
 30
0.0
  0
SPLINE
  5
55
330
1F
100
AcDbEntity
  8
layer 1
 62
     7
100
AcDbSpline
210
0.0
220
0.0
230
1.0
 70
    11
 71
     3
 72
    24
 73
    20
 74
     0
 42
0.0000000001
 43
0.0000000001
 12
1.0
 22
0.0
 32
0.0
 13
1.0
 23
0.0
 33
0.0
 40
0.0
 40
0.0
 40
0.0
 40
0.0
 40
0.1666666666666667
 40
0.1666666666666667
 40
0.1666666666666667
 40
0.1666666666666667
 40
0.3333333333333333
 40
0.3333333333333333
 40
0.3333333333333333
 40
0.3333333333333333
 40
0.5
 40
0.5
 40
0.5
 40
0.5
 40
0.6666666666666666
 40
0.6666666666666666
 40
0.6666666666666666
 40
0.6666666666666666
 40
1.0
 40
1.0
 40
1.0
 40
1.0
 10
-78.9987
 20
1.4601
 30
0.0
 10
-74.0686
 20
-5.7458
 30
0.0
 10
-86.9546
 20
-8.1299
 30
0.0
 10
-84.7774
 20
0.8881
 30
0.0
 10
-84.7774
 20
0.8881
 30
0.0
 10
-89.391
 20
0.8714
 30
0.0
 10
-90.0007
 20
-4.0209
 30
0.0
 10
-88.9265
 20
-6.2219
 30
0.0
 10
-88.9265
 20
-6.2219
 30
0.0
 10
-90.2984
 20
-4.7328
 30
0.0
 10
-91.288
 20
-3.6431
 30
0.0
 10
-93.8849
 20
-4.2557
 30
0.0
 10
-93.8849
 20
-4.2557
 30
0.0
 10
-90.442
 20
0.1782
 30
0.0
 10
-93.3077
 20
3.9431
 30
0.0
 10
-96.3709
 20
3.8831
 30
0.0
 10
-96.3709
 20
3.8831
 30
0.0
 10
-91.1421
 20
6.5509
 30
0.0
 10
-83.1433
 20
6.6333
 30
0.0
 10
-78.9987
 20
1.4601
 30
0.0
  0
SPLINE
  5
56
330
1F
100
AcDbEntity
  8
layer 1
 62
     7
100
AcDbSpline
210
0.0
220
0.0
230
1.0
 70
    11
 71
     3
 72
    20
 73
    16
 74
     0
 42
0.0000000001
 43
0.0000000001
 12
1.0
 22
0.0
 32
0.0
 13
1.0
 23
0.0
 33
0.0
 40
0.0
 40
0.0
 40
0.0
 40
0.0
 40
0.2
 40
0.2
 40
0.2
 40
0.2
 40
0.4
 40
0.4
 40
0.4
 40
0.4
 40
0.6
 40
0.6
 40
0.6
 40
0.6
 40
1.0
 40
1.0
 40
1.0
 40
1.0
 10
-111.7951
 20
8.5811
 30
0.0
 10
-109.1619
 20
8.3424
 30
0.0
 10
-107.4496
 20
6.8447
 30
0.0
 10
-107.4556
 20
3.4495
 30
0.0
 10
-107.4556
 20
3.4495
 30
0.0
 10
-106.0345
 20
4.7031
 30
0.0
 10
-103.632
 20
7.6092
 30
0.0
 10
-95.6087
 20
8.634
 30
0.0
 10
-95.6087
 20
8.634
 30
0.0
 10
-103.632
 20
9.6587
 30
0.0
 10
-106.0345
 20
12.4335
 30
0.0
 10
-107.4556
 20
13.6871
 30
0.0
 10
-107.4556
 20
13.6871
 30
0.0
 10
-107.4496
 20
10.292
 30
0.0
 10
-109.1619
 20
8.8197
 30
0.0
 10
-111.7951
 20
8.5811
 30
0.0
  0
SPLINE
  5
57
330
1F
100
AcDbEntity
  8
layer 1
 62
     7
100
AcDbSpline
210
0.0
220
0.0
230
1.0
 70
    11
 71
     3
 72
    20
 73
    16
 74
     0
 42
0.0000000001
 43
0.0000000001
 12
1.0
 22
0.0
 32
0.0
 13
1.0
 23
0.0
 33
0.0
 40
0.0
 40
0.0
 40
0.0
 40
0.0
 40
0.2
 40
0.2
 40
0.2
 40
0.2
 40
0.4
 40
0.4
 40
0.4
 40
0.4
 40
0.6
 40
0.6
 40
0.6
 40
0.6
 40
1.0
 40
1.0
 40
1.0
 40
1.0
 10
-117.5679
 20
8.4856
 30
0.0
 10
-120.1277
 20
7.5984
 30
0.0
 10
-121.2446
 20
4.9155
 30
0.0
 10
-120.4848
 20
2.1698
 30
0.0
 10
-120.4848
 20
2.1698
 30
0.0
 10
-124.2895
 20
5.7486
 30
0.0
 10
-132.6132
 20
1.6334
 30
0.0
 10
-132.6984
 20
8.6212
 30
0.0
 10
-132.6984
 20
8.6212
 30
0.0
 10
-132.6132
 20
15.609
 30
0.0
 10
-124.2895
 20
11.3881
 30
0.0
 10
-120.4848
 20
14.9668
 30
0.0
 10
-120.4848
 20
14.9668
 30
0.0
 10
-121.2446
 20
12.2211
 30
0.0
 10
-120.1277
 20
9.3727
 30
0.0
 10
-117.5679
 20
8.4856
 30
0.0
  0
SPLINE
  5
58
330
1F
100
AcDbEntity
  8
layer 1
 62
     7
100
AcDbSpline
210
0.0
220
0.0
230
1.0
 70
    11
 71
     3
 72
    40
 73
    36
 74
     0
 42
0.0000000001
 43
0.0000000001
 12
1.0
 22
0.0
 32
0.0
 13
1.0
 23
0.0
 33
0.0
 40
0.0
 40
0.0
 40
0.0
 40
0.0
 40
0.1
 40
0.1
 40
0.1
 40
0.1
 40
0.2
 40
0.2
 40
0.2
 40
0.2
 40
0.3
 40
0.3
 40
0.3
 40
0.3
 40
0.4
 40
0.4
 40
0.4
 40
0.4
 40
0.5
 40
0.5
 40
0.5
 40
0.5
 40
0.6
 40
0.6
 40
0.6
 40
0.6
 40
0.7
 40
0.7
 40
0.7
 40
0.7
 40
0.8
 40
0.8
 40
0.8
 40
0.8
 40
1.0
 40
1.0
 40
1.0
 40
1.0
 10
-99.0674
 20
-93.7236
 30
0.0
 10
-92.9896
 20
-94.238
 30
0.0
 10
-90.1858
 20
-105.9336
 30
0.0
 10
-95.2164
 20
-109.9364
 30
0.0
 10
-95.2164
 20
-109.9364
 30
0.0
 10
-95.2164
 20
-109.9364
 30
0.0
 10
-83.5012
 20
-109.9449
 30
0.0
 10
-83.5012
 20
-109.9449
 30
0.0
 10
-83.5012
 20
-109.9449
 30
0.0
 10
-87.9516
 20
-106.5589
 30
0.0
 10
-90.3676
 20
-97.5579
 30
0.0
 10
-86.2329
 20
-90.7542
 30
0.0
 10
-86.2329
 20
-90.7542
 30
0.0
 10
-81.5
 20
-104.7826
 30
0.0
 10
-70.4233
 20
-99.0555
 30
0.0
 10
-68.7477
 20
-97.9075
 30
0.0
 10
-68.7477
 20
-97.9075
 30
0.0
 10
-73.0581
 20
-96.8603
 30
0.0
 10
-79.9586
 20
-93.6367
 30
0.0
 10
-80.4733
 20
-87.497
 30
0.0
 10
-80.4733
 20
-87.497
 30
0.0
 10
-72.2083
 20
-93.5677
 30
0.0
 10
-62.7358
 20
-89.2242
 30
0.0
 10
-70.0689
 20
-80.8532
 30
0.0
 10
-70.0689
 20
-80.8532
 30
0.0
 10
-69.1347
 20
-85.4052
 30
0.0
 10
-71.6143
 20
-88.1064
 30
0.0
 10
-75.4856
 20
-86.9374
 30
0.0
 10
-75.4856
 20
-86.9374
 30
0.0
 10
-74.8734
 20
-82.4434
 30
0.0
 10
-81.0847
 20
-78.2933
 30
0.0
 10
-85.7044
 20
-83.0117
 30
0.0
 10
-85.7044
 20
-83.0117
 30
0.0
 10
-88.7377
 20
-86.6574
 30
0.0
 10
-94.2565
 20
-90.8032
 30
0.0
 10
-99.0674
 20
-93.7236
 30
0.0
  0
SPLINE
  5
59
330
1F
100
AcDbEntity
  8
layer 1
 62
     7
100
AcDbSpline
210
0.0
220
0.0
230
1.0
 70
    11
 71
     3
 72
    32
 73
    28
 74
     0
 42
0.0000000001
 43
0.0000000001
 12
1.0
 22
0.0
 32
0.0
 13
1.0
 23
0.0
 33
0.0
 40
0.0
 40
0.0
 40
0.0
 40
0.0
 40
0.125
 40
0.125
 40
0.125
 40
0.125
 40
0.25
 40
0.25
 40
0.25
 40
0.25
 40
0.375
 40
0.375
 40
0.375
 40
0.375
 40
0.5
 40
0.5
 40
0.5
 40
0.5
 40
0.625
 40
0.625
 40
0.625
 40
0.625
 40
0.75
 40
0.75
 40
0.75
 40
0.75
 40
1.0
 40
1.0
 40
1.0
 40
1.0
 10
-111.9428
 20
-93.2271
 30
0.0
 10
-117.3843
 20
-88.9957
 30
0.0
 10
-114.405
 20
-81.3535
 30
0.0
 10
-107.5693
 20
-80.9919
 30
0.0
 10
-107.5693
 20
-80.9919
 30
0.0
 10
-109.6482
 20
-80.9693
 30
0.0
 10
-111.489
 20
-79.8871
 30
0.0
 10
-111.394
 20
-77.6457
 30
0.0
 10
-111.394
 20
-77.6457
 30
0.0
 10
-113.0358
 20
-80.6791
 30
0.0
 10
-118.5991
 20
-79.9768
 30
0.0
 10
-117.809
 20
-75.6749
 30
0.0
 10
-117.809
 20
-75.6749
 30
0.0
 10
-119.1747
 20
-74.9936
 30
0.0
 10
-121.9546
 20
-73.9148
 30
0.0
 10
-124.0883
 20
-74.0531
 30
0.0
 10
-124.0883
 20
-74.0531
 30
0.0
 10
-118.7548
 20
-76.9019
 30
0.0
 10
-117.6232
 20
-90.2498
 30
0.0
 10
-129.2678
 20
-94.3524
 30
0.0
 10
-129.2678
 20
-94.3524
 30
0.0
 10
-125.9221
 20
-94.366
 30
0.0
 10
-122.0453
 20
-94.7562
 30
0.0
 10
-118.1092
 20
-94.4459
 30
0.0
 10
-118.1092
 20
-94.4459
 30
0.0
 10
-116.0474
 20
-94.2834
 30
0.0
 10
-113.9693
 20
-93.9287
 30
0.0
 10
-111.9428
 20
-93.2271
 30
0.0
  0
SPLINE
  5
5A
330
1F
100
AcDbEntity
  8
layer 1
 62
     7
100
AcDbSpline
210
0.0
220
0.0
230
1.0
 70
    11
 71
     3
 72
    24
 73
    20
 74
     0
 42
0.0000000001
 43
0.0000000001
 12
1.0
 22
0.0
 32
0.0
 13
1.0
 23
0.0
 33
0.0
 40
0.0
 40
0.0
 40
0.0
 40
0.0
 40
0.1666666666666667
 40
0.1666666666666667
 40
0.1666666666666667
 40
0.1666666666666667
 40
0.3333333333333333
 40
0.3333333333333333
 40
0.3333333333333333
 40
0.3333333333333333
 40
0.5
 40
0.5
 40
0.5
 40
0.5
 40
0.6666666666666666
 40
0.6666666666666666
 40
0.6666666666666666
 40
0.6666666666666666
 40
1.0
 40
1.0
 40
1.0
 40
1.0
 10
-104.6589
 20
-91.3859
 30
0.0
 10
-100.9378
 20
-88.5743
 30
0.0
 10
-99.3306
 20
-88.1413
 30
0.0
 10
-96.1081
 20
-85.7424
 30
0.0
 10
-96.1081
 20
-85.7424
 30
0.0
 10
-92.7446
 20
-83.0113
 30
0.0
 10
-94.7715
 20
-77.8947
 30
0.0
 10
-101.6563
 20
-80.7346
 30
0.0
 10
-101.6563
 20
-80.7346
 30
0.0
 10
-103.4433
 20
-81.4717
 30
0.0
 10
-104.9694
 20
-80.768
 30
0.0
 10
-106.2156
 20
-81.2921
 30
0.0
 10
-106.2156
 20
-81.2921
 30
0.0
 10
-103.5866
 20
-84.246
 30
0.0
 10
-102.4813
 20
-86.7851
 30
0.0
 10
-105.462
 20
-90.4764
 30
0.0
 10
-105.462
 20
-90.4764
 30
0.0
 10
-106.2008
 20
-91.1207
 30
0.0
 10
-106.3026
 20
-92.6332
 30
0.0
 10
-104.6589
 20
-91.3859
 30
0.0
  0
SPLINE
  5
5B
330
1F
100
AcDbEntity
  8
layer 1
 62
     7
100
AcDbSpline
210
0.0
220
0.0
230
1.0
 70
    11
 71
     3
 72
    20
 73
    16
 74
     0
 42
0.0000000001
 43
0.0000000001
 12
1.0
 22
0.0
 32
0.0
 13
1.0
 23
0.0
 33
0.0
 40
0.0
 40
0.0
 40
0.0
 40
0.0
 40
0.2
 40
0.2
 40
0.2
 40
0.2
 40
0.4
 40
0.4
 40
0.4
 40
0.4
 40
0.6
 40
0.6
 40
0.6
 40
0.6
 40
1.0
 40
1.0
 40
1.0
 40
1.0
 10
-55.0026
 20
-74.8286
 30
0.0
 10
-55.0026
 20
-74.8286
 30
0.0
 10
-55.0026
 20
-85.3483
 30
0.0
 10
-55.0026
 20
-85.3483
 30
0.0
 10
-55.0026
 20
-85.3483
 30
0.0
 10
-55.9647
 20
-83.1947
 30
0.0
 10
-57.4541
 20
-81.6538
 30
0.0
 10
-59.0004
 20
-79.999
 30
0.0
 10
-59.0004
 20
-79.999
 30
0.0
 10
-59.8858
 20
-79.2711
 30
0.0
 10
-59.5947
 20
-77.492
 30
0.0
 10
-58.3666
 20
-77.1302
 30
0.0
 10
-58.3666
 20
-77.1302
 30
0.0
 10
-56.5204
 20
-76.5863
 30
0.0
 10
-55.3755
 20
-75.7313
 30
0.0
 10
-55.0026
 20
-74.8286
 30
0.0
  0
SPLINE
  5
5C
330
1F
100
AcDbEntity
  8
layer 1
 62
     7
100
AcDbSpline
210
0.0
220
0.0
230
1.0
 70
    11
 71
     3
 72
    60
 73
    56
 74
     0
 42
0.0000000001
 43
0.0000000001
 12
1.0
 22
0.0
 32
0.0
 13
1.0
 23
0.0
 33
0.0
 40
0.0
 40
0.0
 40
0.0
 40
0.0
 40
0.0666666666666667
 40
0.0666666666666667
 40
0.0666666666666667
 40
0.0666666666666667
 40
0.1333333333333333
 40
0.1333333333333333
 40
0.1333333333333333
 40
0.1333333333333333
 40
0.2
 40
0.2
 40
0.2
 40
0.2
 40
0.2666666666666667
 40
0.2666666666666667
 40
0.2666666666666667
 40
0.2666666666666667
 40
0.3333333333333333
 40
0.3333333333333333
 40
0.3333333333333333
 40
0.3333333333333333
 40
0.4
 40
0.4
 40
0.4
 40
0.4
 40
0.4666666666666667
 40
0.4666666666666667
 40
0.4666666666666667
 40
0.4666666666666667
 40
0.5333333333333333
 40
0.5333333333333333
 40
0.5333333333333333
 40
0.5333333333333333
 40
0.6
 40
0.6
 40
0.6
 40
0.6
 40
0.6666666666666666
 40
0.6666666666666666
 40
0.6666666666666666
 40
0.6666666666666666
 40
0.7333333333333333
 40
0.7333333333333333
 40
0.7333333333333333
 40
0.7333333333333333
 40
0.8
 40
0.8
 40
0.8
 40
0.8
 40
0.8666666666666667
 40
0.8666666666666667
 40
0.8666666666666667
 40
0.8666666666666667
 40
1.0
 40
1.0
 40
1.0
 40
1.0
 10
-133.561
 20
1.7362
 30
0.0
 10
-136.2212
 20
2.2275
 30
0.0
 10
-138.9543
 20
0.9431
 30
0.0
 10
-139.4214
 20
0.0494
 30
0.0
 10
-139.4214
 20
0.0494
 30
0.0
 10
-139.0901
 20
-1.8782
 30
0.0
 10
-138.0817
 20
-2.8379
 30
0.0
 10
-135.3776
 20
-4.6138
 30
0.0
 10
-135.3776
 20
-4.6138
 30
0.0
 10
-140.0609
 20
-3.8563
 30
0.0
 10
-142.7124
 20
-8.1621
 30
0.0
 10
-142.2925
 20
-9.8509
 30
0.0
 10
-142.2925
 20
-9.8509
 30
0.0
 10
-142.9403
 20
-8.8826
 30
0.0
 10
-144.2362
 20
-8.1277
 30
0.0
 10
-146.2647
 20
-8.425
 30
0.0
 10
-146.2647
 20
-8.425
 30
0.0
 10
-147.1818
 20
-8.5237
 30
0.0
 10
-147.1929
 20
-7.8231
 30
0.0
 10
-146.564
 20
-7.5105
 30
0.0
 10
-146.564
 20
-7.5105
 30
0.0
 10
-141.2574
 20
-4.6226
 30
0.0
 10
-141.5881
 20
1.0902
 30
0.0
 10
-144.188
 20
4.8807
 30
0.0
 10
-144.188
 20
4.8807
 30
0.0
 10
-145.5498
 20
6.8662
 30
0.0
 10
-147.5343
 20
8.3243
 30
0.0
 10
-149.6574
 20
8.5725
 30
0.0
 10
-149.6574
 20
8.5725
 30
0.0
 10
-143.4811
 20
9.2947
 30
0.0
 10
-138.4777
 20
20.2466
 30
0.0
 10
-146.564
 20
24.6471
 30
0.0
 10
-146.564
 20
24.6471
 30
0.0
 10
-147.1929
 20
24.9598
 30
0.0
 10
-147.1818
 20
25.6603
 30
0.0
 10
-146.2647
 20
25.5616
 30
0.0
 10
-146.2647
 20
25.5616
 30
0.0
 10
-144.2362
 20
25.2644
 30
0.0
 10
-142.9403
 20
26.0192
 30
0.0
 10
-142.2925
 20
26.9876
 30
0.0
 10
-142.2925
 20
26.9876
 30
0.0
 10
-142.7124
 20
25.2987
 30
0.0
 10
-140.0609
 20
20.993
 30
0.0
 10
-135.3776
 20
21.7505
 30
0.0
 10
-135.3776
 20
21.7505
 30
0.0
 10
-138.0817
 20
19.9745
 30
0.0
 10
-139.0901
 20
19.0148
 30
0.0
 10
-139.4214
 20
17.0873
 30
0.0
 10
-139.4214
 20
17.0873
 30
0.0
 10
-138.9543
 20
16.1936
 30
0.0
 10
-136.2212
 20
14.9092
 30
0.0
 10
-133.561
 20
15.4005
 30
0.0
 10
-133.561
 20
15.4005
 30
0.0
 10
-137.2721
 20
12.5832
 30
0.0
 10
-137.8503
 20
4.8144
 30
0.0
 10
-133.561
 20
1.7362
 30
0.0
  0
SPLINE
  5
5D
330
1F
100
AcDbEntity
  8
layer 1
 62
     7
100
AcDbSpline
210
0.0
220
0.0
230
1.0
 70
    11
 71
     3
 72
    64
 73
    60
 74
     0
 42
0.0000000001
 43
0.0000000001
 12
1.0
 22
0.0
 32
0.0
 13
1.0
 23
0.0
 33
0.0
 40
0.0
 40
0.0
 40
0.0
 40
0.0
 40
0.0625
 40
0.0625
 40
0.0625
 40
0.0625
 40
0.125
 40
0.125
 40
0.125
 40
0.125
 40
0.1875
 40
0.1875
 40
0.1875
 40
0.1875
 40
0.25
 40
0.25
 40
0.25
 40
0.25
 40
0.3125
 40
0.3125
 40
0.3125
 40
0.3125
 40
0.375
 40
0.375
 40
0.375
 40
0.375
 40
0.4375
 40
0.4375
 40
0.4375
 40
0.4375
 40
0.5
 40
0.5
 40
0.5
 40
0.5
 40
0.5625
 40
0.5625
 40
0.5625
 40
0.5625
 40
0.625
 40
0.625
 40
0.625
 40
0.625
 40
0.6875
 40
0.6875
 40
0.6875
 40
0.6875
 40
0.75
 40
0.75
 40
0.75
 40
0.75
 40
0.8125
 40
0.8125
 40
0.8125
 40
0.8125
 40
0.875
 40
0.875
 40
0.875
 40
0.875
 40
1.0
 40
1.0
 40
1.0
 40
1.0
 10
-153.8279
 20
8.4775
 30
0.0
 10
-158.9357
 20
7.2877
 30
0.0
 10
-158.416
 20
-1.3373
 30
0.0
 10
-154.1552
 20
-3.2556
 30
0.0
 10
-154.1552
 20
-3.2556
 30
0.0
 10
-154.7631
 20
1.4481
 30
0.0
 10
-151.241
 20
2.2169
 30
0.0
 10
-149.248
 20
0.6297
 30
0.0
 10
-149.248
 20
0.6297
 30
0.0
 10
-147.6479
 20
-0.6447
 30
0.0
 10
-146.2949
 20
-5.0066
 30
0.0
 10
-150.3322
 20
-6.9321
 30
0.0
 10
-150.3322
 20
-6.9321
 30
0.0
 10
-156.1247
 20
-6.5766
 30
0.0
 10
-160.1069
 20
-9.4007
 30
0.0
 10
-162.5597
 20
-10.391
 30
0.0
 10
-162.5597
 20
-10.391
 30
0.0
 10
-154.8124
 20
-5.7875
 30
0.0
 10
-159.0503
 20
1.7726
 30
0.0
 10
-163.5604
 20
2.2378
 30
0.0
 10
-163.5604
 20
2.2378
 30
0.0
 10
-161.2141
 20
-1.9355
 30
0.0
 10
-164.8096
 20
-4.7965
 30
0.0
 10
-167.4679
 20
-3.8249
 30
0.0
 10
-167.4679
 20
-3.8249
 30
0.0
 10
-168.8604
 20
-3.316
 30
0.0
 10
-169.9958
 20
-1.7554
 30
0.0
 10
-169.8854
 20
1.2188
 30
0.0
 10
-169.8854
 20
1.2188
 30
0.0
 10
-169.8529
 20
3.6796
 30
0.0
 10
-167.056
 20
8.6456
 30
0.0
 10
-161.8821
 20
8.6293
 30
0.0
 10
-161.8821
 20
8.6293
 30
0.0
 10
-167.056
 20
8.613
 30
0.0
 10
-169.8529
 20
13.457
 30
0.0
 10
-169.8854
 20
15.9178
 30
0.0
 10
-169.8854
 20
15.9178
 30
0.0
 10
-170.2066
 20
24.5704
 30
0.0
 10
-159.985
 20
21.2582
 30
0.0
 10
-163.5604
 20
14.8988
 30
0.0
 10
-163.5604
 20
14.8988
 30
0.0
 10
-159.0503
 20
15.364
 30
0.0
 10
-154.8124
 20
22.9241
 30
0.0
 10
-162.5597
 20
27.5277
 30
0.0
 10
-162.5597
 20
27.5277
 30
0.0
 10
-160.1069
 20
26.5374
 30
0.0
 10
-156.1247
 20
23.7133
 30
0.0
 10
-150.3322
 20
24.0687
 30
0.0
 10
-150.3322
 20
24.0687
 30
0.0
 10
-146.2949
 20
22.1433
 30
0.0
 10
-147.6479
 20
17.7813
 30
0.0
 10
-149.248
 20
16.507
 30
0.0
 10
-149.248
 20
16.507
 30
0.0
 10
-151.241
 20
14.9197
 30
0.0
 10
-154.7631
 20
15.6886
 30
0.0
 10
-154.1552
 20
20.3922
 30
0.0
 10
-154.1552
 20
20.3922
 30
0.0
 10
-158.416
 20
18.4739
 30
0.0
 10
-158.9357
 20
9.6673
 30
0.0
 10
-153.8279
 20
8.4775
 30
0.0
  0
SPLINE
  5
5E
330
1F
100
AcDbEntity
  8
layer 1
 62
     7
100
AcDbSpline
210
0.0
220
0.0
230
1.0
 70
    11
 71
     3
 72
    52
 73
    48
 74
     0
 42
0.0000000001
 43
0.0000000001
 12
1.0
 22
0.0
 32
0.0
 13
1.0
 23
0.0
 33
0.0
 40
0.0
 40
0.0
 40
0.0
 40
0.0
 40
0.0769230769230769
 40
0.0769230769230769
 40
0.0769230769230769
 40
0.0769230769230769
 40
0.1538461538461539
 40
0.1538461538461539
 40
0.1538461538461539
 40
0.1538461538461539
 40
0.2307692307692308
 40
0.2307692307692308
 40
0.2307692307692308
 40
0.2307692307692308
 40
0.3076923076923077
 40
0.3076923076923077
 40
0.3076923076923077
 40
0.3076923076923077
 40
0.3846153846153846
 40
0.3846153846153846
 40
0.3846153846153846
 40
0.3846153846153846
 40
0.4615384615384616
 40
0.4615384615384616
 40
0.4615384615384616
 40
0.4615384615384616
 40
0.5384615384615384
 40
0.5384615384615384
 40
0.5384615384615384
 40
0.5384615384615384
 40
0.6153846153846154
 40
0.6153846153846154
 40
0.6153846153846154
 40
0.6153846153846154
 40
0.6923076923076923
 40
0.6923076923076923
 40
0.6923076923076923
 40
0.6923076923076923
 40
0.7692307692307693
 40
0.7692307692307693
 40
0.7692307692307693
 40
0.7692307692307693
 40
0.8461538461538461
 40
0.8461538461538461
 40
0.8461538461538461
 40
0.8461538461538461
 40
1.0
 40
1.0
 40
1.0
 40
1.0
 10
-170.7472
 20
-29.1784
 30
0.0
 10
-169.5568
 20
-32.1137
 30
0.0
 10
-166.5358
 20
-38.3321
 30
0.0
 10
-163.7512
 20
-41.5169
 30
0.0
 10
-163.7512
 20
-41.5169
 30
0.0
 10
-160.1353
 20
-45.6524
 30
0.0
 10
-156.8575
 20
-44.4344
 30
0.0
 10
-155.8854
 20
-42.3313
 30
0.0
 10
-155.8854
 20
-42.3313
 30
0.0
 10
-154.8826
 20
-40.1617
 30
0.0
 10
-156.3019
 20
-37.0684
 30
0.0
 10
-160.2048
 20
-39.1842
 30
0.0
 10
-160.2048
 20
-39.1842
 30
0.0
 10
-160.0851
 20
-36.9587
 30
0.0
 10
-158.7622
 20
-35.2813
 30
0.0
 10
-156.8506
 20
-35.0337
 30
0.0
 10
-156.8506
 20
-35.0337
 30
0.0
 10
-161.213
 20
-34.4314
 30
0.0
 10
-164.4548
 20
-31.9373
 30
0.0
 10
-165.1079
 20
-25.9671
 30
0.0
 10
-165.1079
 20
-25.9671
 30
0.0
 10
-159.0627
 20
-31.8741
 30
0.0
 10
-152.3824
 20
-31.5836
 30
0.0
 10
-149.328
 20
-29.3285
 30
0.0
 10
-149.328
 20
-29.3285
 30
0.0
 10
-147.728
 20
-28.1473
 30
0.0
 10
-147.123
 20
-26.427
 30
0.0
 10
-148.1251
 20
-24.7759
 30
0.0
 10
-148.1251
 20
-24.7759
 30
0.0
 10
-148.7399
 20
-26.3893
 30
0.0
 10
-154.7449
 20
-26.9034
 30
0.0
 10
-155.947
 20
-24.3902
 30
0.0
 10
-155.947
 20
-24.3902
 30
0.0
 10
-149.6075
 20
-24.3724
 30
0.0
 10
-148.2478
 20
-16.2836
 30
0.0
 10
-152.2005
 20
-13.6058
 30
0.0
 10
-152.2005
 20
-13.6058
 30
0.0
 10
-151.7467
 20
-15.1763
 30
0.0
 10
-152.3007
 20
-20.5283
 30
0.0
 10
-157.8353
 20
-21.2029
 30
0.0
 10
-157.8353
 20
-21.2029
 30
0.0
 10
-154.1798
 20
-16.5455
 30
0.0
 10
-160.1522
 20
-14.0591
 30
0.0
 10
-163.8563
 20
-17.9862
 30
0.0
 10
-163.8563
 20
-17.9862
 30
0.0
 10
-166.5632
 20
-21.2564
 30
0.0
 10
-168.8628
 20
-22.7748
 30
0.0
 10
-170.7472
 20
-29.1784
 30
0.0
  0
SPLINE
  5
5F
330
1F
100
AcDbEntity
  8
layer 1
 62
     7
100
AcDbSpline
210
0.0
220
0.0
230
1.0
 70
    11
 71
     3
 72
    44
 73
    40
 74
     0
 42
0.0000000001
 43
0.0000000001
 12
1.0
 22
0.0
 32
0.0
 13
1.0
 23
0.0
 33
0.0
 40
0.0
 40
0.0
 40
0.0
 40
0.0
 40
0.0909090909090909
 40
0.0909090909090909
 40
0.0909090909090909
 40
0.0909090909090909
 40
0.1818181818181818
 40
0.1818181818181818
 40
0.1818181818181818
 40
0.1818181818181818
 40
0.2727272727272727
 40
0.2727272727272727
 40
0.2727272727272727
 40
0.2727272727272727
 40
0.3636363636363636
 40
0.3636363636363636
 40
0.3636363636363636
 40
0.3636363636363636
 40
0.4545454545454545
 40
0.4545454545454545
 40
0.4545454545454545
 40
0.4545454545454545
 40
0.5454545454545454
 40
0.5454545454545454
 40
0.5454545454545454
 40
0.5454545454545454
 40
0.6363636363636364
 40
0.6363636363636364
 40
0.6363636363636364
 40
0.6363636363636364
 40
0.7272727272727273
 40
0.7272727272727273
 40
0.7272727272727273
 40
0.7272727272727273
 40
0.8181818181818182
 40
0.8181818181818182
 40
0.8181818181818182
 40
0.8181818181818182
 40
1.0
 40
1.0
 40
1.0
 40
1.0
 10
-161.4571
 20
-46.0233
 30
0.0
 10
-161.8314
 20
-45.7211
 30
0.0
 10
-162.4515
 20
-46.0902
 30
0.0
 10
-161.9258
 20
-46.9608
 30
0.0
 10
-161.9258
 20
-46.9608
 30
0.0
 10
-161.2394
 20
-48.0973
 30
0.0
 10
-160.8206
 20
-48.4636
 30
0.0
 10
-160.1685
 20
-48.889
 30
0.0
 10
-160.1685
 20
-48.889
 30
0.0
 10
-159.3058
 20
-49.9237
 30
0.0
 10
-160.4444
 20
-50.0014
 30
0.0
 10
-158.591
 20
-51.9271
 30
0.0
 10
-158.591
 20
-51.9271
 30
0.0
 10
-157.5271
 20
-50.6757
 30
0.0
 10
-154.3861
 20
-51.1332
 30
0.0
 10
-155.2033
 20
-53.9752
 30
0.0
 10
-155.2033
 20
-53.9752
 30
0.0
 10
-143.6991
 20
-49.2729
 30
0.0
 10
-143.1956
 20
-62.9825
 30
0.0
 10
-136.4084
 20
-60.1774
 30
0.0
 10
-136.4084
 20
-60.1774
 30
0.0
 10
-138.3826
 20
-57.915
 30
0.0
 10
-139.0542
 20
-53.3258
 30
0.0
 10
-138.8361
 20
-49.6285
 30
0.0
 10
-138.8361
 20
-49.6285
 30
0.0
 10
-138.7219
 20
-47.6917
 30
0.0
 10
-138.3636
 20
-45.9997
 30
0.0
 10
-137.8206
 20
-45.015
 30
0.0
 10
-137.8206
 20
-45.015
 30
0.0
 10
-142.3735
 20
-49.1789
 30
0.0
 10
-151.0649
 20
-43.6916
 30
0.0
 10
-144.9612
 20
-36.1677
 30
0.0
 10
-144.9612
 20
-36.1677
 30
0.0
 10
-146.7176
 20
-37.2802
 30
0.0
 10
-150.2685
 20
-37.2432
 30
0.0
 10
-152.2485
 20
-36.3848
 30
0.0
 10
-152.2485
 20
-36.3848
 30
0.0
 10
-142.4537
 20
-46.0125
 30
0.0
 10
-156.2697
 20
-54.0748
 30
0.0
 10
-161.4571
 20
-46.0233
 30
0.0
  0
SPLINE
  5
60
330
1F
100
AcDbEntity
  8
layer 1
 62
     7
100
AcDbSpline
210
0.0
220
0.0
230
1.0
 70
    11
 71
     3
 72
    24
 73
    20
 74
     0
 42
0.0000000001
 43
0.0000000001
 12
1.0
 22
0.0
 32
0.0
 13
1.0
 23
0.0
 33
0.0
 40
0.0
 40
0.0
 40
0.0
 40
0.0
 40
0.1666666666666667
 40
0.1666666666666667
 40
0.1666666666666667
 40
0.1666666666666667
 40
0.3333333333333333
 40
0.3333333333333333
 40
0.3333333333333333
 40
0.3333333333333333
 40
0.5
 40
0.5
 40
0.5
 40
0.5
 40
0.6666666666666666
 40
0.6666666666666666
 40
0.6666666666666666
 40
0.6666666666666666
 40
1.0
 40
1.0
 40
1.0
 40
1.0
 10
-171.8675
 20
-47.5422
 30
0.0
 10
-173.7016
 20
-56.0246
 30
0.0
 10
-165.1398
 20
-53.9363
 30
0.0
 10
-166.4629
 20
-45.3553
 30
0.0
 10
-166.4629
 20
-45.3553
 30
0.0
 10
-167.7523
 20
-40.4963
 30
0.0
 10
-169.75
 20
-39.1326
 30
0.0
 10
-173.5145
 20
-31.4706
 30
0.0
 10
-173.5145
 20
-31.4706
 30
0.0
 10
-175.6576
 20
-34.8283
 30
0.0
 10
-178.2369
 20
-47.1717
 30
0.0
 10
-176.1303
 20
-55.1363
 30
0.0
 10
-176.1303
 20
-55.1363
 30
0.0
 10
-176.0004
 20
-55.6951
 30
0.0
 10
-175.3076
 20
-55.7321
 30
0.0
 10
-175.4281
 20
-55.1343
 30
0.0
 10
-175.4281
 20
-55.1343
 30
0.0
 10
-176.831
 20
-50.6563
 30
0.0
 10
-173.6899
 20
-47.2188
 30
0.0
 10
-171.8675
 20
-47.5422
 30
0.0
  0
SPLINE
  5
61
330
1F
100
AcDbEntity
  8
layer 1
 62
     7
100
AcDbSpline
210
0.0
220
0.0
230
1.0
 70
    11
 71
     3
 72
    44
 73
    40
 74
     0
 42
0.0000000001
 43
0.0000000001
 12
1.0
 22
0.0
 32
0.0
 13
1.0
 23
0.0
 33
0.0
 40
0.0
 40
0.0
 40
0.0
 40
0.0
 40
0.0909090909090909
 40
0.0909090909090909
 40
0.0909090909090909
 40
0.0909090909090909
 40
0.1818181818181818
 40
0.1818181818181818
 40
0.1818181818181818
 40
0.1818181818181818
 40
0.2727272727272727
 40
0.2727272727272727
 40
0.2727272727272727
 40
0.2727272727272727
 40
0.3636363636363636
 40
0.3636363636363636
 40
0.3636363636363636
 40
0.3636363636363636
 40
0.4545454545454545
 40
0.4545454545454545
 40
0.4545454545454545
 40
0.4545454545454545
 40
0.5454545454545454
 40
0.5454545454545454
 40
0.5454545454545454
 40
0.5454545454545454
 40
0.6363636363636364
 40
0.6363636363636364
 40
0.6363636363636364
 40
0.6363636363636364
 40
0.7272727272727273
 40
0.7272727272727273
 40
0.7272727272727273
 40
0.7272727272727273
 40
0.8181818181818182
 40
0.8181818181818182
 40
0.8181818181818182
 40
0.8181818181818182
 40
1.0
 40
1.0
 40
1.0
 40
1.0
 10
-55.0026
 20
-50.2059
 30
0.0
 10
-55.0026
 20
-50.2059
 30
0.0
 10
-55.0026
 20
-68.9886
 30
0.0
 10
-55.0026
 20
-68.9886
 30
0.0
 10
-55.0026
 20
-68.9886
 30
0.0
 10
-55.7715
 20
-65.6754
 30
0.0
 10
-66.7291
 20
-63.845
 30
0.0
 10
-64.6037
 20
-74.1719
 30
0.0
 10
-64.6037
 20
-74.1719
 30
0.0
 10
-65.7831
 20
-76.6049
 30
0.0
 10
-68.4658
 20
-77.4064
 30
0.0
 10
-71.6497
 20
-76.1202
 30
0.0
 10
-71.6497
 20
-76.1202
 30
0.0
 10
-74.1966
 20
-74.3863
 30
0.0
 10
-81.8126
 20
-76.8771
 30
0.0
 10
-84.8009
 20
-80.3545
 30
0.0
 10
-84.8009
 20
-80.3545
 30
0.0
 10
-81.8248
 20
-77.0812
 30
0.0
 10
-79.1774
 20
-69.4884
 30
0.0
 10
-79.4575
 20
-67.4824
 30
0.0
 10
-79.4575
 20
-67.4824
 30
0.0
 10
-77.7069
 20
-70.6279
 30
0.0
 10
-69.3223
 20
-74.6937
 30
0.0
 10
-65.8996
 20
-65.1814
 30
0.0
 10
-65.8996
 20
-65.1814
 30
0.0
 10
-64.7462
 20
-59.3417
 30
0.0
 10
-73.0571
 20
-54.1917
 30
0.0
 10
-76.8075
 20
-60.1676
 30
0.0
 10
-76.8075
 20
-60.1676
 30
0.0
 10
-78.2216
 20
-53.2259
 30
0.0
 10
-75.4874
 20
-47.3263
 30
0.0
 10
-73.1865
 20
-44.8367
 30
0.0
 10
-73.1865
 20
-44.8367
 30
0.0
 10
-63.316
 20
-34.8276
 30
0.0
 10
-59.4368
 20
-50.4636
 30
0.0
 10
-72.147
 20
-50.3274
 30
0.0
 10
-72.147
 20
-50.3274
 30
0.0
 10
-67.7652
 20
-61.1138
 30
0.0
 10
-55.0026
 20
-55.2044
 30
0.0
 10
-55.0026
 20
-50.2059
 30
0.0
  0
SPLINE
  5
62
330
1F
100
AcDbEntity
  8
layer 1
 62
     7
100
AcDbSpline
210
0.0
220
0.0
230
1.0
 70
    11
 71
     3
 72
    36
 73
    32
 74
     0
 42
0.0000000001
 43
0.0000000001
 12
1.0
 22
0.0
 32
0.0
 13
1.0
 23
0.0
 33
0.0
 40
0.0
 40
0.0
 40
0.0
 40
0.0
 40
0.1111111111111111
 40
0.1111111111111111
 40
0.1111111111111111
 40
0.1111111111111111
 40
0.2222222222222222
 40
0.2222222222222222
 40
0.2222222222222222
 40
0.2222222222222222
 40
0.3333333333333333
 40
0.3333333333333333
 40
0.3333333333333333
 40
0.3333333333333333
 40
0.4444444444444444
 40
0.4444444444444444
 40
0.4444444444444444
 40
0.4444444444444444
 40
0.5555555555555556
 40
0.5555555555555556
 40
0.5555555555555556
 40
0.5555555555555556
 40
0.6666666666666666
 40
0.6666666666666666
 40
0.6666666666666666
 40
0.6666666666666666
 40
0.7777777777777778
 40
0.7777777777777778
 40
0.7777777777777778
 40
0.7777777777777778
 40
1.0
 40
1.0
 40
1.0
 40
1.0
 10
-55.0026
 20
-16.8882
 30
0.0
 10
-55.0026
 20
-16.8882
 30
0.0
 10
-55.0026
 20
-43.053
 30
0.0
 10
-55.0026
 20
-43.053
 30
0.0
 10
-55.0026
 20
-43.053
 30
0.0
 10
-58.9103
 20
-32.5457
 30
0.0
 10
-71.6505
 20
-33.902
 30
0.0
 10
-75.2249
 20
-43.1601
 30
0.0
 10
-75.2249
 20
-43.1601
 30
0.0
 10
-76.1102
 20
-42.4322
 30
0.0
 10
-76.3517
 20
-32.0413
 30
0.0
 10
-71.6455
 20
-28.461
 30
0.0
 10
-71.6455
 20
-28.461
 30
0.0
 10
-68.403
 20
-36.0964
 30
0.0
 10
-62.0127
 20
-30.2141
 30
0.0
 10
-61.8009
 20
-28.031
 30
0.0
 10
-61.8009
 20
-28.031
 30
0.0
 10
-61.5113
 20
-25.0448
 30
0.0
 10
-66.3743
 20
-17.9133
 30
0.0
 10
-71.8309
 20
-24.8587
 30
0.0
 10
-71.8309
 20
-24.8587
 30
0.0
 10
-72.4228
 20
-23.494
 30
0.0
 10
-71.3966
 20
-16.3855
 30
0.0
 10
-69.4897
 20
-13.5123
 30
0.0
 10
-69.4897
 20
-13.5123
 30
0.0
 10
-63.9842
 20
-4.005
 30
0.0
 10
-57.5663
 20
-13.0037
 30
0.0
 10
-64.2574
 20
-17.9796
 30
0.0
 10
-64.2574
 20
-17.9796
 30
0.0
 10
-60.8571
 20
-20.9124
 30
0.0
 10
-56.0849
 20
-19.3915
 30
0.0
 10
-55.0026
 20
-16.8882
 30
0.0
  0
SPLINE
  5
63
330
1F
100
AcDbEntity
  8
layer 1
 62
     7
100
AcDbSpline
210
0.0
220
0.0
230
1.0
 70
    11
 71
     3
 72
    28
 73
    24
 74
     0
 42
0.0000000001
 43
0.0000000001
 12
1.0
 22
0.0
 32
0.0
 13
1.0
 23
0.0
 33
0.0
 40
0.0
 40
0.0
 40
0.0
 40
0.0
 40
0.1428571428571428
 40
0.1428571428571428
 40
0.1428571428571428
 40
0.1428571428571428
 40
0.2857142857142857
 40
0.2857142857142857
 40
0.2857142857142857
 40
0.2857142857142857
 40
0.4285714285714285
 40
0.4285714285714285
 40
0.4285714285714285
 40
0.4285714285714285
 40
0.5714285714285714
 40
0.5714285714285714
 40
0.5714285714285714
 40
0.5714285714285714
 40
0.7142857142857143
 40
0.7142857142857143
 40
0.7142857142857143
 40
0.7142857142857143
 40
1.0
 40
1.0
 40
1.0
 40
1.0
 10
-55.0026
 20
4.6308
 30
0.0
 10
-55.0026
 20
4.6308
 30
0.0
 10
-55.0026
 20
-8.0222
 30
0.0
 10
-55.0026
 20
-8.0222
 30
0.0
 10
-55.0026
 20
-8.0222
 30
0.0
 10
-57.7483
 20
-0.0976
 30
0.0
 10
-75.3099
 20
-2.0154
 30
0.0
 10
-74.339
 20
-15.0587
 30
0.0
 10
-74.339
 20
-15.0587
 30
0.0
 10
-75.4559
 20
-11.9641
 30
0.0
 10
-78.055
 20
-11.7445
 30
0.0
 10
-79.0837
 20
-12.0464
 30
0.0
 10
-79.0837
 20
-12.0464
 30
0.0
 10
-79.5353
 20
-12.179
 30
0.0
 10
-80.0748
 20
-11.2829
 30
0.0
 10
-79.5075
 20
-11.0684
 30
0.0
 10
-79.5075
 20
-11.0684
 30
0.0
 10
-74.3527
 20
-11.133
 30
0.0
 10
-70.0421
 20
-0.8205
 30
0.0
 10
-76.4651
 20
3.7743
 30
0.0
 10
-76.4651
 20
3.7743
 30
0.0
 10
-67.3807
 20
-0.4574
 30
0.0
 10
-56.6921
 20
3.7169
 30
0.0
 10
-55.0026
 20
4.6308
 30
0.0
  0
SPLINE
  5
64
330
1F
100
AcDbEntity
  8
layer 1
 62
     7
100
AcDbSpline
210
0.0
220
0.0
230
1.0
 70
    11
 71
     3
 72
    36
 73
    32
 74
     0
 42
0.0000000001
 43
0.0000000001
 12
1.0
 22
0.0
 32
0.0
 13
1.0
 23
0.0
 33
0.0
 40
0.0
 40
0.0
 40
0.0
 40
0.0
 40
0.1111111111111111
 40
0.1111111111111111
 40
0.1111111111111111
 40
0.1111111111111111
 40
0.2222222222222222
 40
0.2222222222222222
 40
0.2222222222222222
 40
0.2222222222222222
 40
0.3333333333333333
 40
0.3333333333333333
 40
0.3333333333333333
 40
0.3333333333333333
 40
0.4444444444444444
 40
0.4444444444444444
 40
0.4444444444444444
 40
0.4444444444444444
 40
0.5555555555555556
 40
0.5555555555555556
 40
0.5555555555555556
 40
0.5555555555555556
 40
0.6666666666666666
 40
0.6666666666666666
 40
0.6666666666666666
 40
0.6666666666666666
 40
0.7777777777777778
 40
0.7777777777777778
 40
0.7777777777777778
 40
0.7777777777777778
 40
1.0
 40
1.0
 40
1.0
 40
1.0
 10
-111.0743
 20
-72.3316
 30
0.0
 10
-109.7613
 20
-63.7513
 30
0.0
 10
-102.4223
 20
-72.5692
 30
0.0
 10
-96.3574
 20
-59.2106
 30
0.0
 10
-96.3574
 20
-59.2106
 30
0.0
 10
-102.8143
 20
-57.6093
 30
0.0
 10
-103.7312
 20
-49.4504
 30
0.0
 10
-99.6658
 20
-46.6147
 30
0.0
 10
-99.6658
 20
-46.6147
 30
0.0
 10
-106.6634
 20
-45.7151
 30
0.0
 10
-109.5358
 20
-52.2964
 30
0.0
 10
-106.277
 20
-57.6115
 30
0.0
 10
-106.277
 20
-57.6115
 30
0.0
 10
-108.3
 20
-58.4098
 30
0.0
 10
-110.1594
 20
-58.512
 30
0.0
 10
-111.3882
 20
-57.0168
 30
0.0
 10
-111.3882
 20
-57.0168
 30
0.0
 10
-110.3152
 20
-68.1004
 30
0.0
 10
-121.8148
 20
-70.4725
 30
0.0
 10
-126.557
 20
-68.5575
 30
0.0
 10
-126.557
 20
-68.5575
 30
0.0
 10
-124.2021
 20
-70.4374
 30
0.0
 10
-121.9303
 20
-71.3157
 30
0.0
 10
-120.0676
 20
-71.7708
 30
0.0
 10
-120.0676
 20
-71.7708
 30
0.0
 10
-119.0919
 20
-72.0092
 30
0.0
 10
-118.2284
 20
-72.1315
 30
0.0
 10
-117.5241
 20
-72.2208
 30
0.0
 10
-117.5241
 20
-72.2208
 30
0.0
 10
-117.7839
 20
-68.4927
 30
0.0
 10
-111.6695
 20
-67.0343
 30
0.0
 10
-111.0743
 20
-72.3316
 30
0.0
  0
SPLINE
  5
65
330
1F
100
AcDbEntity
  8
layer 1
 62
     7
100
AcDbSpline
210
0.0
220
0.0
230
1.0
 70
    11
 71
     3
 72
    36
 73
    32
 74
     0
 42
0.0000000001
 43
0.0000000001
 12
1.0
 22
0.0
 32
0.0
 13
1.0
 23
0.0
 33
0.0
 40
0.0
 40
0.0
 40
0.0
 40
0.0
 40
0.1111111111111111
 40
0.1111111111111111
 40
0.1111111111111111
 40
0.1111111111111111
 40
0.2222222222222222
 40
0.2222222222222222
 40
0.2222222222222222
 40
0.2222222222222222
 40
0.3333333333333333
 40
0.3333333333333333
 40
0.3333333333333333
 40
0.3333333333333333
 40
0.4444444444444444
 40
0.4444444444444444
 40
0.4444444444444444
 40
0.4444444444444444
 40
0.5555555555555556
 40
0.5555555555555556
 40
0.5555555555555556
 40
0.5555555555555556
 40
0.6666666666666666
 40
0.6666666666666666
 40
0.6666666666666666
 40
0.6666666666666666
 40
0.7777777777777778
 40
0.7777777777777778
 40
0.7777777777777778
 40
0.7777777777777778
 40
1.0
 40
1.0
 40
1.0
 40
1.0
 10
-91.8089
 20
-81.7797
 30
0.0
 10
-84.8382
 20
-77.2611
 30
0.0
 10
-82.0593
 20
-67.9707
 30
0.0
 10
-84.2025
 20
-57.5306
 30
0.0
 10
-84.2025
 20
-57.5306
 30
0.0
 10
-85.0589
 20
-53.8343
 30
0.0
 10
-88.2812
 20
-51.078
 30
0.0
 10
-91.4939
 20
-54.1499
 30
0.0
 10
-91.4939
 20
-54.1499
 30
0.0
 10
-93.7727
 20
-56.3266
 30
0.0
 10
-91.8851
 20
-60.1388
 30
0.0
 10
-87.7335
 20
-60.899
 30
0.0
 10
-87.7335
 20
-60.899
 30
0.0
 10
-89.7565
 20
-61.6973
 30
0.0
 10
-92.9154
 20
-61.9199
 30
0.0
 10
-94.1441
 20
-60.4246
 30
0.0
 10
-94.1441
 20
-60.4246
 30
0.0
 10
-93.8216
 20
-64.477
 30
0.0
 10
-94.5358
 20
-65.6022
 30
0.0
 10
-97.1845
 20
-67.6579
 30
0.0
 10
-97.1845
 20
-67.6579
 30
0.0
 10
-93.5347
 20
-67.5005
 30
0.0
 10
-91.7505
 20
-70.2488
 30
0.0
 10
-92.6135
 20
-72.7266
 30
0.0
 10
-92.6135
 20
-72.7266
 30
0.0
 10
-93.0657
 20
-74.0246
 30
0.0
 10
-94.2442
 20
-75.2483
 30
0.0
 10
-96.2613
 20
-75.9415
 30
0.0
 10
-96.2613
 20
-75.9415
 30
0.0
 10
-93.7777
 20
-75.7268
 30
0.0
 10
-90.7437
 20
-77.3967
 30
0.0
 10
-91.8089
 20
-81.7797
 30
0.0
  0
SPLINE
  5
66
330
1F
100
AcDbEntity
  8
layer 1
 62
     7
100
AcDbSpline
210
0.0
220
0.0
230
1.0
 70
    11
 71
     3
 72
    32
 73
    28
 74
     0
 42
0.0000000001
 43
0.0000000001
 12
1.0
 22
0.0
 32
0.0
 13
1.0
 23
0.0
 33
0.0
 40
0.0
 40
0.0
 40
0.0
 40
0.0
 40
0.125
 40
0.125
 40
0.125
 40
0.125
 40
0.25
 40
0.25
 40
0.25
 40
0.25
 40
0.375
 40
0.375
 40
0.375
 40
0.375
 40
0.5
 40
0.5
 40
0.5
 40
0.5
 40
0.625
 40
0.625
 40
0.625
 40
0.625
 40
0.75
 40
0.75
 40
0.75
 40
0.75
 40
1.0
 40
1.0
 40
1.0
 40
1.0
 10
-80.1457
 20
-55.1529
 30
0.0
 10
-78.0681
 20
-45.2905
 30
0.0
 10
-83.6429
 20
-37.3039
 30
0.0
 10
-86.2046
 20
-36.7466
 30
0.0
 10
-86.2046
 20
-36.7466
 30
0.0
 10
-88.169
 20
-36.54
 30
0.0
 10
-89.6852
 20
-36.8573
 30
0.0
 10
-90.619
 20
-37.79
 30
0.0
 10
-90.619
 20
-37.79
 30
0.0
 10
-90.5486
 20
-40.0996
 30
0.0
 10
-93.247
 20
-42.8758
 30
0.0
 10
-96.987
 20
-40.4139
 30
0.0
 10
-96.987
 20
-40.4139
 30
0.0
 10
-97.0816
 20
-40.3517
 30
0.0
 10
-97.206
 20
-40.2147
 30
0.0
 10
-97.4633
 20
-40.1049
 30
0.0
 10
-97.4633
 20
-40.1049
 30
0.0
 10
-96.7368
 20
-41.4959
 30
0.0
 10
-96.5238
 20
-43.6988
 30
0.0
 10
-97.8537
 20
-45.266
 30
0.0
 10
-97.8537
 20
-45.266
 30
0.0
 10
-97.6231
 20
-45.1359
 30
0.0
 10
-97.4017
 20
-45.1047
 30
0.0
 10
-97.0008
 20
-44.9518
 30
0.0
 10
-97.0008
 20
-44.9518
 30
0.0
 10
-86.0495
 20
-41.2152
 30
0.0
 10
-80.946
 20
-51.7698
 30
0.0
 10
-80.1457
 20
-55.1529
 30
0.0
  0
SPLINE
  5
67
330
1F
100
AcDbEntity
  8
layer 1
 62
     7
100
AcDbSpline
210
0.0
220
0.0
230
1.0
 70
    11
 71
     3
 72
    20
 73
    16
 74
     0
 42
0.0000000001
 43
0.0000000001
 12
1.0
 22
0.0
 32
0.0
 13
1.0
 23
0.0
 33
0.0
 40
0.0
 40
0.0
 40
0.0
 40
0.0
 40
0.2
 40
0.2
 40
0.2
 40
0.2
 40
0.4
 40
0.4
 40
0.4
 40
0.4
 40
0.6
 40
0.6
 40
0.6
 40
0.6
 40
1.0
 40
1.0
 40
1.0
 40
1.0
 10
-84.2147
 20
-33.3337
 30
0.0
 10
-85.0988
 20
-30.972
 30
0.0
 10
-89.5545
 20
-26.778
 30
0.0
 10
-92.1729
 20
-25.2931
 30
0.0
 10
-92.1729
 20
-25.2931
 30
0.0
 10
-90.9587
 20
-26.9497
 30
0.0
 10
-91.9552
 20
-31.0596
 30
0.0
 10
-95.1972
 20
-32.1151
 30
0.0
 10
-95.1972
 20
-32.1151
 30
0.0
 10
-93.3642
 20
-32.2617
 30
0.0
 10
-92.1082
 20
-32.7759
 30
0.0
 10
-91.4446
 20
-34.8825
 30
0.0
 10
-91.4446
 20
-34.8825
 30
0.0
 10
-89.024
 20
-33.2705
 30
0.0
 10
-87.5259
 20
-32.2363
 30
0.0
 10
-84.2147
 20
-33.3337
 30
0.0
  0
SPLINE
  5
68
330
1F
100
AcDbEntity
  8
layer 1
 62
     7
100
AcDbSpline
210
0.0
220
0.0
230
1.0
 70
    11
 71
     3
 72
    36
 73
    32
 74
     0
 42
0.0000000001
 43
0.0000000001
 12
1.0
 22
0.0
 32
0.0
 13
1.0
 23
0.0
 33
0.0
 40
0.0
 40
0.0
 40
0.0
 40
0.0
 40
0.1111111111111111
 40
0.1111111111111111
 40
0.1111111111111111
 40
0.1111111111111111
 40
0.2222222222222222
 40
0.2222222222222222
 40
0.2222222222222222
 40
0.2222222222222222
 40
0.3333333333333333
 40
0.3333333333333333
 40
0.3333333333333333
 40
0.3333333333333333
 40
0.4444444444444444
 40
0.4444444444444444
 40
0.4444444444444444
 40
0.4444444444444444
 40
0.5555555555555556
 40
0.5555555555555556
 40
0.5555555555555556
 40
0.5555555555555556
 40
0.6666666666666666
 40
0.6666666666666666
 40
0.6666666666666666
 40
0.6666666666666666
 40
0.7777777777777778
 40
0.7777777777777778
 40
0.7777777777777778
 40
0.7777777777777778
 40
1.0
 40
1.0
 40
1.0
 40
1.0
 10
-79.1155
 20
-36.8098
 30
0.0
 10
-79.227
 20
-31.2611
 30
0.0
 10
-77.6959
 20
-25.9325
 30
0.0
 10
-75.002
 20
-20.7856
 30
0.0
 10
-75.002
 20
-20.7856
 30
0.0
 10
-83.4048
 20
-26.8886
 30
0.0
 10
-88.7839
 20
-16.1964
 30
0.0
 10
-82.4424
 20
-11.8497
 30
0.0
 10
-82.4424
 20
-11.8497
 30
0.0
 10
-84.883
 20
-8.88
 30
0.0
 10
-86.2995
 20
-10.8039
 30
0.0
 10
-86.2994
 20
-10.8038
 30
0.0
 10
-86.2994
 20
-10.8038
 30
0.0
 10
-86.1262
 20
-10.7012
 30
0.0
 10
-84.6603
 20
-17.1913
 30
0.0
 10
-90.8489
 20
-18.2201
 30
0.0
 10
-90.8489
 20
-18.2201
 30
0.0
 10
-88.5436
 20
-8.785
 30
0.0
 10
-97.0488
 20
-9.6212
 30
0.0
 10
-95.1706
 20
-16.1075
 30
0.0
 10
-95.1706
 20
-16.1075
 30
0.0
 10
-94.7841
 20
-17.4426
 30
0.0
 10
-93.9277
 20
-19.1889
 30
0.0
 10
-92.3778
 20
-20.8518
 30
0.0
 10
-92.3778
 20
-20.8518
 30
0.0
 10
-91.566
 20
-21.7229
 30
0.0
 10
-90.5638
 20
-22.5709
 30
0.0
 10
-89.3392
 20
-23.3251
 30
0.0
 10
-89.3392
 20
-23.3251
 30
0.0
 10
-82.3796
 20
-27.5076
 30
0.0
 10
-79.9802
 20
-32.7829
 30
0.0
 10
-79.1155
 20
-36.8098
 30
0.0
  0
SPLINE
  5
69
330
1F
100
AcDbEntity
  8
layer 1
 62
     7
100
AcDbSpline
210
0.0
220
0.0
230
1.0
 70
    11
 71
     3
 72
    16
 73
    12
 74
     0
 42
0.0000000001
 43
0.0000000001
 12
1.0
 22
0.0
 32
0.0
 13
1.0
 23
0.0
 33
0.0
 40
0.0
 40
0.0
 40
0.0
 40
0.0
 40
0.25
 40
0.25
 40
0.25
 40
0.25
 40
0.5
 40
0.5
 40
0.5
 40
0.5
 40
1.0
 40
1.0
 40
1.0
 40
1.0
 10
-180.9695
 20
58.2121
 30
0.0
 10
-180.9695
 20
58.2121
 30
0.0
 10
-180.9695
 20
35.8923
 30
0.0
 10
-180.9695
 20
35.8923
 30
0.0
 10
-180.9695
 20
35.8923
 30
0.0
 10
-179.7146
 20
39.862
 30
0.0
 10
-177.9084
 20
42.9065
 30
0.0
 10
-175.7283
 20
44.7896
 30
0.0
 10
-175.7283
 20
44.7896
 30
0.0
 10
-178.1643
 20
48.7126
 30
0.0
 10
-179.6161
 20
52.8916
 30
0.0
 10
-180.9695
 20
58.2121
 30
0.0
  0
SPLINE
  5
6A
330
1F
100
AcDbEntity
  8
layer 1
 62
     7
100
AcDbSpline
210
0.0
220
0.0
230
1.0
 70
    11
 71
     3
 72
    16
 73
    12
 74
     0
 42
0.0000000001
 43
0.0000000001
 12
1.0
 22
0.0
 32
0.0
 13
1.0
 23
0.0
 33
0.0
 40
0.0
 40
0.0
 40
0.0
 40
0.0
 40
0.25
 40
0.25
 40
0.25
 40
0.25
 40
0.5
 40
0.5
 40
0.5
 40
0.5
 40
1.0
 40
1.0
 40
1.0
 40
1.0
 10
-173.6014
 20
41.6629
 30
0.0
 10
-177.3844
 20
34.6291
 30
0.0
 10
-177.1493
 20
29.1982
 30
0.0
 10
-174.2426
 20
21.972
 30
0.0
 10
-174.2426
 20
21.972
 30
0.0
 10
-174.0777
 20
26.134
 30
0.0
 10
-169.6427
 20
30.7602
 30
0.0
 10
-165.368
 20
30.9548
 30
0.0
 10
-165.368
 20
30.9548
 30
0.0
 10
-168.6589
 20
33.3817
 30
0.0
 10
-171.4546
 20
37.0929
 30
0.0
 10
-173.6014
 20
41.6629
 30
0.0
  0
SPLINE
  5
6B
330
1F
100
AcDbEntity
  8
layer 1
 62
     7
100
AcDbSpline
210
0.0
220
0.0
230
1.0
 70
    11
 71
     3
 72
    16
 73
    12
 74
     0
 42
0.0000000001
 43
0.0000000001
 12
1.0
 22
0.0
 32
0.0
 13
1.0
 23
0.0
 33
0.0
 40
0.0
 40
0.0
 40
0.0
 40
0.0
 40
0.25
 40
0.25
 40
0.25
 40
0.25
 40
0.5
 40
0.5
 40
0.5
 40
0.5
 40
1.0
 40
1.0
 40
1.0
 40
1.0
 10
-180.9695
 20
92.7443
 30
0.0
 10
-180.9695
 20
92.7443
 30
0.0
 10
-180.9695
 20
68.2747
 30
0.0
 10
-180.9695
 20
68.2747
 30
0.0
 10
-180.9695
 20
68.2747
 30
0.0
 10
-180.1407
 20
73.9681
 30
0.0
 10
-174.4997
 20
85.2051
 30
0.0
 10
-170.7314
 20
87.766
 30
0.0
 10
-170.7314
 20
87.766
 30
0.0
 10
-174.6975
 20
85.6076
 30
0.0
 10
-180.2746
 20
88.4502
 30
0.0
 10
-180.9695
 20
92.7443
 30
0.0
  0
SPLINE
  5
6C
330
1F
100
AcDbEntity
  8
layer 1
 62
     7
100
AcDbSpline
210
0.0
220
0.0
230
1.0
 70
    11
 71
     3
 72
    24
 73
    20
 74
     0
 42
0.0000000001
 43
0.0000000001
 12
1.0
 22
0.0
 32
0.0
 13
1.0
 23
0.0
 33
0.0
 40
0.0
 40
0.0
 40
0.0
 40
0.0
 40
0.1666666666666667
 40
0.1666666666666667
 40
0.1666666666666667
 40
0.1666666666666667
 40
0.3333333333333333
 40
0.3333333333333333
 40
0.3333333333333333
 40
0.3333333333333333
 40
0.5
 40
0.5
 40
0.5
 40
0.5
 40
0.6666666666666666
 40
0.6666666666666666
 40
0.6666666666666666
 40
0.6666666666666666
 40
1.0
 40
1.0
 40
1.0
 40
1.0
 10
-181.0227
 20
97.1683
 30
0.0
 10
-181.0227
 20
97.1683
 30
0.0
 10
-181.0227
 20
113.762
 30
0.0
 10
-181.0227
 20
113.762
 30
0.0
 10
-181.0227
 20
113.762
 30
0.0
 10
-180.2512
 20
108.9308
 30
0.0
 10
-173.7076
 20
105.2708
 30
0.0
 10
-168.547
 20
107.6091
 30
0.0
 10
-168.547
 20
107.6091
 30
0.0
 10
-180.0253
 20
115.0941
 30
0.0
 10
-166.3728
 20
127.9969
 30
0.0
 10
-163.3375
 20
112.4406
 30
0.0
 10
-163.3375
 20
112.4406
 30
0.0
 10
-162.6651
 20
108.9945
 30
0.0
 10
-162.9206
 20
101.278
 30
0.0
 10
-166.7602
 20
95.9583
 30
0.0
 10
-166.7602
 20
95.9583
 30
0.0
 10
-167.4374
 20
103.223
 30
0.0
 10
-178.1642
 20
104.102
 30
0.0
 10
-181.0227
 20
97.1683
 30
0.0
  0
SPLINE
  5
6D
330
1F
100
AcDbEntity
  8
layer 1
 62
     7
100
AcDbSpline
210
0.0
220
0.0
230
1.0
 70
    11
 71
     3
 72
    16
 73
    12
 74
     0
 42
0.0000000001
 43
0.0000000001
 12
1.0
 22
0.0
 32
0.0
 13
1.0
 23
0.0
 33
0.0
 40
0.0
 40
0.0
 40
0.0
 40
0.0
 40
0.25
 40
0.25
 40
0.25
 40
0.25
 40
0.5
 40
0.5
 40
0.5
 40
0.5
 40
1.0
 40
1.0
 40
1.0
 40
1.0
 10
-180.9695
 20
122.1551
 30
0.0
 10
-180.9695
 20
122.1551
 30
0.0
 10
-180.9695
 20
127.0731
 30
0.0
 10
-180.9695
 20
127.0731
 30
0.0
 10
-180.9695
 20
127.0731
 30
0.0
 10
-180.9695
 20
127.0731
 30
0.0
 10
-176.2067
 20
127.0955
 30
0.0
 10
-176.2067
 20
127.0955
 30
0.0
 10
-176.2067
 20
127.0955
 30
0.0
 10
-178.8655
 20
126.3553
 30
0.0
 10
-180.1759
 20
124.7755
 30
0.0
 10
-180.9695
 20
122.1551
 30
0.0
  0
SPLINE
  5
6E
330
1F
100
AcDbEntity
  8
layer 1
 62
     7
100
AcDbSpline
210
0.0
220
0.0
230
1.0
 70
    11
 71
     3
 72
    16
 73
    12
 74
     0
 42
0.0000000001
 43
0.0000000001
 12
1.0
 22
0.0
 32
0.0
 13
1.0
 23
0.0
 33
0.0
 40
0.0
 40
0.0
 40
0.0
 40
0.0
 40
0.25
 40
0.25
 40
0.25
 40
0.25
 40
0.5
 40
0.5
 40
0.5
 40
0.5
 40
1.0
 40
1.0
 40
1.0
 40
1.0
 10
-161.7525
 20
120.3424
 30
0.0
 10
-162.3729
 20
123.0814
 30
0.0
 10
-164.6609
 20
126.0259
 30
0.0
 10
-167.8312
 20
127.0731
 30
0.0
 10
-167.8312
 20
127.0731
 30
0.0
 10
-167.8312
 20
127.0731
 30
0.0
 10
-158.3311
 20
127.0955
 30
0.0
 10
-158.3311
 20
127.0955
 30
0.0
 10
-158.3311
 20
127.0955
 30
0.0
 10
-161.2463
 20
126.3311
 30
0.0
 10
-162.4416
 20
123.7719
 30
0.0
 10
-161.7525
 20
120.3424
 30
0.0
  0
SPLINE
  5
6F
330
1F
100
AcDbEntity
  8
layer 1
 62
     7
100
AcDbSpline
210
0.0
220
0.0
230
1.0
 70
    11
 71
     3
 72
    40
 73
    36
 74
     0
 42
0.0000000001
 43
0.0000000001
 12
1.0
 22
0.0
 32
0.0
 13
1.0
 23
0.0
 33
0.0
 40
0.0
 40
0.0
 40
0.0
 40
0.0
 40
0.1
 40
0.1
 40
0.1
 40
0.1
 40
0.2
 40
0.2
 40
0.2
 40
0.2
 40
0.3
 40
0.3
 40
0.3
 40
0.3
 40
0.4
 40
0.4
 40
0.4
 40
0.4
 40
0.5
 40
0.5
 40
0.5
 40
0.5
 40
0.6
 40
0.6
 40
0.6
 40
0.6
 40
0.7
 40
0.7
 40
0.7
 40
0.7
 40
0.8
 40
0.8
 40
0.8
 40
0.8
 40
1.0
 40
1.0
 40
1.0
 40
1.0
 10
-159.9783
 20
114.3619
 30
0.0
 10
-148.8421
 20
113.2642
 30
0.0
 10
-148.239
 20
125.8147
 30
0.0
 10
-155.07
 20
127.0731
 30
0.0
 10
-155.07
 20
127.0731
 30
0.0
 10
-155.07
 20
127.0731
 30
0.0
 10
-144.9453
 20
127.0955
 30
0.0
 10
-144.9453
 20
127.0955
 30
0.0
 10
-144.9453
 20
127.0955
 30
0.0
 10
-144.3171
 20
126.8617
 30
0.0
 10
-144.6263
 20
126.1904
 30
0.0
 10
-145.2798
 20
126.0026
 30
0.0
 10
-145.2798
 20
126.0026
 30
0.0
 10
-146.9831
 20
125.5132
 30
0.0
 10
-151.6799
 20
118.9842
 30
0.0
 10
-145.8323
 20
114.869
 30
0.0
 10
-145.8323
 20
114.869
 30
0.0
 10
-146.2712
 20
121.4004
 30
0.0
 10
-140.9092
 20
121.0082
 30
0.0
 10
-139.3278
 20
118.7218
 30
0.0
 10
-139.3278
 20
118.7218
 30
0.0
 10
-138.3253
 20
117.2724
 30
0.0
 10
-138.5725
 20
114.6156
 30
0.0
 10
-140.759
 20
113.6362
 30
0.0
 10
-140.759
 20
113.6362
 30
0.0
 10
-146.8532
 20
111.0995
 30
0.0
 10
-157.6544
 20
103.7722
 30
0.0
 10
-161.1995
 20
99.7914
 30
0.0
 10
-161.1995
 20
99.7914
 30
0.0
 10
-161.5091
 20
99.4608
 30
0.0
 10
-161.672
 20
99.8187
 30
0.0
 10
-161.5047
 20
100.0806
 30
0.0
 10
-161.5047
 20
100.0806
 30
0.0
 10
-158.9751
 20
104.0403
 30
0.0
 10
-158.9114
 20
110.9592
 30
0.0
 10
-159.9783
 20
114.3619
 30
0.0
  0
SPLINE
  5
70
330
1F
100
AcDbEntity
  8
layer 1
 62
     7
100
AcDbSpline
210
0.0
220
0.0
230
1.0
 70
    11
 71
     3
 72
    40
 73
    36
 74
     0
 42
0.0000000001
 43
0.0000000001
 12
1.0
 22
0.0
 32
0.0
 13
1.0
 23
0.0
 33
0.0
 40
0.0
 40
0.0
 40
0.0
 40
0.0
 40
0.1
 40
0.1
 40
0.1
 40
0.1
 40
0.2
 40
0.2
 40
0.2
 40
0.2
 40
0.3
 40
0.3
 40
0.3
 40
0.3
 40
0.4
 40
0.4
 40
0.4
 40
0.4
 40
0.5
 40
0.5
 40
0.5
 40
0.5
 40
0.6
 40
0.6
 40
0.6
 40
0.6
 40
0.7
 40
0.7
 40
0.7
 40
0.7
 40
0.8
 40
0.8
 40
0.8
 40
0.8
 40
1.0
 40
1.0
 40
1.0
 40
1.0
 10
-167.7279
 20
87.8335
 30
0.0
 10
-167.2949
 20
88.1122
 30
0.0
 10
-167.0733
 20
87.8159
 30
0.0
 10
-167.0823
 20
87.3984
 30
0.0
 10
-167.0823
 20
87.3984
 30
0.0
 10
-167.1786
 20
82.9435
 30
0.0
 10
-163.9367
 20
80.4439
 30
0.0
 10
-159.0235
 20
81.9115
 30
0.0
 10
-159.0235
 20
81.9115
 30
0.0
 10
-160.2894
 20
80.4525
 30
0.0
 10
-159.7621
 20
75.0582
 30
0.0
 10
-157.6889
 20
74.4342
 30
0.0
 10
-157.6889
 20
74.4342
 30
0.0
 10
-160.1953
 20
74.4699
 30
0.0
 10
-161.6117
 20
72.5057
 30
0.0
 10
-160.7617
 20
69.7948
 30
0.0
 10
-160.7617
 20
69.7948
 30
0.0
 10
-161.815
 20
68.302
 30
0.0
 10
-163.0022
 20
66.8681
 30
0.0
 10
-164.0329
 20
65.6056
 30
0.0
 10
-164.0329
 20
65.6056
 30
0.0
 10
-163.2797
 20
72.6719
 30
0.0
 10
-166.0266
 20
76.6593
 30
0.0
 10
-169.3061
 20
77.2605
 30
0.0
 10
-169.3061
 20
77.2605
 30
0.0
 10
-171.0239
 20
77.5754
 30
0.0
 10
-172.8879
 20
76.9611
 30
0.0
 10
-174.4714
 20
75.3738
 30
0.0
 10
-174.4714
 20
75.3738
 30
0.0
 10
-174.781
 20
75.0433
 30
0.0
 10
-174.9439
 20
75.4012
 30
0.0
 10
-174.7767
 20
75.663
 30
0.0
 10
-174.7767
 20
75.663
 30
0.0
 10
-172.2471
 20
79.6227
 30
0.0
 10
-171.2138
 20
82.8739
 30
0.0
 10
-167.7279
 20
87.8335
 30
0.0
  0
SPLINE
  5
71
330
1F
100
AcDbEntity
  8
layer 1
 62
     7
100
AcDbSpline
210
0.0
220
0.0
230
1.0
 70
    11
 71
     3
 72
    52
 73
    48
 74
     0
 42
0.0000000001
 43
0.0000000001
 12
1.0
 22
0.0
 32
0.0
 13
1.0
 23
0.0
 33
0.0
 40
0.0
 40
0.0
 40
0.0
 40
0.0
 40
0.0769230769230769
 40
0.0769230769230769
 40
0.0769230769230769
 40
0.0769230769230769
 40
0.1538461538461539
 40
0.1538461538461539
 40
0.1538461538461539
 40
0.1538461538461539
 40
0.2307692307692308
 40
0.2307692307692308
 40
0.2307692307692308
 40
0.2307692307692308
 40
0.3076923076923077
 40
0.3076923076923077
 40
0.3076923076923077
 40
0.3076923076923077
 40
0.3846153846153846
 40
0.3846153846153846
 40
0.3846153846153846
 40
0.3846153846153846
 40
0.4615384615384616
 40
0.4615384615384616
 40
0.4615384615384616
 40
0.4615384615384616
 40
0.5384615384615384
 40
0.5384615384615384
 40
0.5384615384615384
 40
0.5384615384615384
 40
0.6153846153846154
 40
0.6153846153846154
 40
0.6153846153846154
 40
0.6153846153846154
 40
0.6923076923076923
 40
0.6923076923076923
 40
0.6923076923076923
 40
0.6923076923076923
 40
0.7692307692307693
 40
0.7692307692307693
 40
0.7692307692307693
 40
0.7692307692307693
 40
0.8461538461538461
 40
0.8461538461538461
 40
0.8461538461538461
 40
0.8461538461538461
 40
1.0
 40
1.0
 40
1.0
 40
1.0
 10
-148.7831
 20
104.6374
 30
0.0
 10
-151.8274
 20
97.4949
 30
0.0
 10
-142.4792
 20
93.9719
 30
0.0
 10
-139.5829
 20
100.4547
 30
0.0
 10
-139.5829
 20
100.4547
 30
0.0
 10
-138.7428
 20
94.0475
 30
0.0
 10
-134.5029
 20
95.1213
 30
0.0
 10
-133.6129
 20
95.0431
 30
0.0
 10
-133.6129
 20
95.0431
 30
0.0
 10
-137.4619
 20
104.8218
 30
0.0
 10
-125.0075
 20
104.7432
 30
0.0
 10
-126.3636
 20
96.2585
 30
0.0
 10
-126.3636
 20
96.2585
 30
0.0
 10
-127.7988
 20
88.3659
 30
0.0
 10
-133.6836
 20
88.4738
 30
0.0
 10
-135.1869
 20
79.3618
 30
0.0
 10
-135.1869
 20
79.3618
 30
0.0
 10
-136.1546
 20
83.4846
 30
0.0
 10
-138.9067
 20
84.8908
 30
0.0
 10
-142.821
 20
84.1837
 30
0.0
 10
-142.821
 20
84.1837
 30
0.0
 10
-140.3562
 20
86.2429
 30
0.0
 10
-141.8105
 20
88.8035
 30
0.0
 10
-143.9023
 20
89.3471
 30
0.0
 10
-143.9023
 20
89.3471
 30
0.0
 10
-144.9979
 20
89.6319
 30
0.0
 10
-146.2685
 20
89.3633
 30
0.0
 10
-147.2422
 20
88.1794
 30
0.0
 10
-147.2422
 20
88.1794
 30
0.0
 10
-144.5723
 20
93.3915
 30
0.0
 10
-150.6964
 20
95.8673
 30
0.0
 10
-152.7488
 20
94.2405
 30
0.0
 10
-152.7488
 20
94.2405
 30
0.0
 10
-149.939
 20
88.6143
 30
0.0
 10
-154.5257
 20
85.0557
 30
0.0
 10
-156.329
 20
84.1022
 30
0.0
 10
-156.329
 20
84.1022
 30
0.0
 10
-154.6404
 20
88.1099
 30
0.0
 10
-158.0275
 20
93.7754
 30
0.0
 10
-163.484
 20
91.4368
 30
0.0
 10
-163.484
 20
91.4368
 30
0.0
 10
-164.0639
 20
90.9131
 30
0.0
 10
-164.729
 20
91.387
 30
0.0
 10
-164.2528
 20
91.9964
 30
0.0
 10
-164.2528
 20
91.9964
 30
0.0
 10
-161.3594
 20
95.6986
 30
0.0
 10
-154.0073
 20
101.6479
 30
0.0
 10
-148.7831
 20
104.6374
 30
0.0
  0
SPLINE
  5
72
330
1F
100
AcDbEntity
  8
layer 1
 62
     7
100
AcDbSpline
210
0.0
220
0.0
230
1.0
 70
    11
 71
     3
 72
    32
 73
    28
 74
     0
 42
0.0000000001
 43
0.0000000001
 12
1.0
 22
0.0
 32
0.0
 13
1.0
 23
0.0
 33
0.0
 40
0.0
 40
0.0
 40
0.0
 40
0.0
 40
0.125
 40
0.125
 40
0.125
 40
0.125
 40
0.25
 40
0.25
 40
0.25
 40
0.25
 40
0.375
 40
0.375
 40
0.375
 40
0.375
 40
0.5
 40
0.5
 40
0.5
 40
0.5
 40
0.625
 40
0.625
 40
0.625
 40
0.625
 40
0.75
 40
0.75
 40
0.75
 40
0.75
 40
1.0
 40
1.0
 40
1.0
 40
1.0
 10
-135.3653
 20
114.0339
 30
0.0
 10
-131.1998
 20
116.2165
 30
0.0
 10
-130.1456
 20
123.4365
 30
0.0
 10
-135.6645
 20
127.0731
 30
0.0
 10
-135.6645
 20
127.0731
 30
0.0
 10
-135.6645
 20
127.0731
 30
0.0
 10
-104.7096
 20
127.0955
 30
0.0
 10
-104.7096
 20
127.0955
 30
0.0
 10
-104.7096
 20
127.0955
 30
0.0
 10
-110.375
 20
124.9544
 30
0.0
 10
-109.5975
 20
116.8925
 30
0.0
 10
-105.7411
 20
114.1523
 30
0.0
 10
-105.7411
 20
114.1523
 30
0.0
 10
-107.4853
 20
114.8523
 30
0.0
 10
-111.0341
 20
116.729
 30
0.0
 10
-115.7657
 20
115.6891
 30
0.0
 10
-115.7657
 20
115.6891
 30
0.0
 10
-113.9083
 20
117.587
 30
0.0
 10
-114.5738
 20
124.0013
 30
0.0
 10
-119.7584
 20
123.9704
 30
0.0
 10
-119.7584
 20
123.9704
 30
0.0
 10
-124.5169
 20
124.1555
 30
0.0
 10
-125.1947
 20
117.0759
 30
0.0
 10
-121.0666
 20
116.3015
 30
0.0
 10
-121.0666
 20
116.3015
 30
0.0
 10
-126.3783
 20
116.326
 30
0.0
 10
-130.5951
 20
115.6706
 30
0.0
 10
-135.3653
 20
114.0339
 30
0.0
  0
SPLINE
  5
73
330
1F
100
AcDbEntity
  8
layer 1
 62
     7
100
AcDbSpline
210
0.0
220
0.0
230
1.0
 70
    11
 71
     3
 72
    16
 73
    12
 74
     0
 42
0.0000000001
 43
0.0000000001
 12
1.0
 22
0.0
 32
0.0
 13
1.0
 23
0.0
 33
0.0
 40
0.0
 40
0.0
 40
0.0
 40
0.0
 40
0.25
 40
0.25
 40
0.25
 40
0.25
 40
0.5
 40
0.5
 40
0.5
 40
0.5
 40
1.0
 40
1.0
 40
1.0
 40
1.0
 10
-55.0026
 20
121.0132
 30
0.0
 10
-55.0026
 20
121.0132
 30
0.0
 10
-55.0026
 20
127.0731
 30
0.0
 10
-55.0026
 20
127.0731
 30
0.0
 10
-55.0026
 20
127.0731
 30
0.0
 10
-55.0026
 20
127.0731
 30
0.0
 10
-60.981
 20
127.0955
 30
0.0
 10
-60.981
 20
127.0955
 30
0.0
 10
-60.981
 20
127.0955
 30
0.0
 10
-58.3222
 20
126.3553
 30
0.0
 10
-55.7962
 20
123.6336
 30
0.0
 10
-55.0026
 20
121.0132
 30
0.0
  0
SPLINE
  5
74
330
1F
100
AcDbEntity
  8
layer 1
 62
     7
100
AcDbSpline
210
0.0
220
0.0
230
1.0
 70
    11
 71
     3
 72
    40
 73
    36
 74
     0
 42
0.0000000001
 43
0.0000000001
 12
1.0
 22
0.0
 32
0.0
 13
1.0
 23
0.0
 33
0.0
 40
0.0
 40
0.0
 40
0.0
 40
0.0
 40
0.1
 40
0.1
 40
0.1
 40
0.1
 40
0.2
 40
0.2
 40
0.2
 40
0.2
 40
0.3
 40
0.3
 40
0.3
 40
0.3
 40
0.4
 40
0.4
 40
0.4
 40
0.4
 40
0.5
 40
0.5
 40
0.5
 40
0.5
 40
0.6
 40
0.6
 40
0.6
 40
0.6
 40
0.7
 40
0.7
 40
0.7
 40
0.7
 40
0.8
 40
0.8
 40
0.8
 40
0.8
 40
1.0
 40
1.0
 40
1.0
 40
1.0
 10
-134.0256
 20
59.327
 30
0.0
 10
-134.0447
 20
59.8416
 30
0.0
 10
-133.6988
 20
59.8411
 30
0.0
 10
-133.3222
 20
59.6606
 30
0.0
 10
-133.3222
 20
59.6606
 30
0.0
 10
-124.878
 20
55.6149
 30
0.0
 10
-120.6635
 20
66.1448
 30
0.0
 10
-125.0902
 20
70.4771
 30
0.0
 10
-125.0902
 20
70.4771
 30
0.0
 10
-121.031
 20
67.4984
 30
0.0
 10
-115.6011
 20
68.4647
 30
0.0
 10
-113.0025
 20
71.4995
 30
0.0
 10
-113.0025
 20
71.4995
 30
0.0
 10
-113.9632
 20
69.7863
 30
0.0
 10
-113.6005
 20
66.781
 30
0.0
 10
-111.2213
 20
65.3965
 30
0.0
 10
-111.2213
 20
65.3965
 30
0.0
 10
-115.3797
 20
67.0516
 30
0.0
 10
-118.3567
 20
62.2217
 30
0.0
 10
-115.0146
 20
59.4167
 30
0.0
 10
-115.0146
 20
59.4167
 30
0.0
 10
-117.3384
 20
59.7881
 30
0.0
 10
-119.1856
 20
57.4196
 30
0.0
 10
-119.7545
 20
55.1084
 30
0.0
 10
-119.7545
 20
55.1084
 30
0.0
 10
-120.0526
 20
53.8978
 30
0.0
 10
-119.9998
 20
52.7029
 30
0.0
 10
-119.4812
 20
51.9257
 30
0.0
 10
-119.4812
 20
51.9257
 30
0.0
 10
-122.2518
 20
52.2634
 30
0.0
 10
-126.8651
 20
49.8852
 30
0.0
 10
-125.6338
 20
44.7163
 30
0.0
 10
-125.6338
 20
44.7163
 30
0.0
 10
-128.3407
 20
47.9865
 30
0.0
 10
-132.1412
 20
52.9234
 30
0.0
 10
-134.0256
 20
59.327
 30
0.0
  0
SPLINE
  5
75
330
1F
100
AcDbEntity
  8
layer 1
 62
     7
100
AcDbSpline
210
0.0
220
0.0
230
1.0
 70
    11
 71
     3
 72
    20
 73
    16
 74
     0
 42
0.0000000001
 43
0.0000000001
 12
1.0
 22
0.0
 32
0.0
 13
1.0
 23
0.0
 33
0.0
 40
0.0
 40
0.0
 40
0.0
 40
0.0
 40
0.2
 40
0.2
 40
0.2
 40
0.2
 40
0.4
 40
0.4
 40
0.4
 40
0.4
 40
0.6
 40
0.6
 40
0.6
 40
0.6
 40
1.0
 40
1.0
 40
1.0
 40
1.0
 10
-126.9268
 20
81.2269
 30
0.0
 10
-113.668
 20
82.0964
 30
0.0
 10
-121.4939
 20
68.5804
 30
0.0
 10
-128.9119
 20
76.2278
 30
0.0
 10
-128.9119
 20
76.2278
 30
0.0
 10
-129.7934
 20
74.9072
 30
0.0
 10
-129.0423
 20
72.6676
 30
0.0
 10
-127.5646
 20
71.9839
 30
0.0
 10
-127.5646
 20
71.9839
 30
0.0
 10
-131.2011
 20
73.3111
 30
0.0
 10
-135.2268
 20
70.1598
 30
0.0
 10
-135.0779
 20
67.2175
 30
0.0
 10
-135.0779
 20
67.2175
 30
0.0
 10
-136.6108
 20
73.6266
 30
0.0
 10
-133.4629
 20
80.1228
 30
0.0
 10
-126.9268
 20
81.2269
 30
0.0
  0
SPLINE
  5
76
330
1F
100
AcDbEntity
  8
layer 1
 62
     7
100
AcDbSpline
210
0.0
220
0.0
230
1.0
 70
    11
 71
     3
 72
    20
 73
    16
 74
     0
 42
0.0000000001
 43
0.0000000001
 12
1.0
 22
0.0
 32
0.0
 13
1.0
 23
0.0
 33
0.0
 40
0.0
 40
0.0
 40
0.0
 40
0.0
 40
0.2
 40
0.2
 40
0.2
 40
0.2
 40
0.4
 40
0.4
 40
0.4
 40
0.4
 40
0.6
 40
0.6
 40
0.6
 40
0.6
 40
1.0
 40
1.0
 40
1.0
 40
1.0
 10
-136.1753
 20
54.9537
 30
0.0
 10
-133.8513
 20
49.9149
 30
0.0
 10
-131.7033
 20
47.1648
 30
0.0
 10
-128.5484
 20
44.4284
 30
0.0
 10
-128.5484
 20
44.4284
 30
0.0
 10
-131.7814
 20
45.7239
 30
0.0
 10
-135.1163
 20
44.572
 30
0.0
 10
-136.0195
 20
40.743
 30
0.0
 10
-136.0195
 20
40.743
 30
0.0
 10
-135.9818
 20
44.3043
 30
0.0
 10
-138.0086
 20
48.913
 30
0.0
 10
-142.3864
 20
51.6145
 30
0.0
 10
-142.3864
 20
51.6145
 30
0.0
 10
-139.0693
 20
50.2341
 30
0.0
 10
-136.0389
 20
52.1741
 30
0.0
 10
-136.1753
 20
54.9537
 30
0.0
  0
SPLINE
  5
77
330
1F
100
AcDbEntity
  8
layer 1
 62
     7
100
AcDbSpline
210
0.0
220
0.0
230
1.0
 70
    11
 71
     3
 72
    32
 73
    28
 74
     0
 42
0.0000000001
 43
0.0000000001
 12
1.0
 22
0.0
 32
0.0
 13
1.0
 23
0.0
 33
0.0
 40
0.0
 40
0.0
 40
0.0
 40
0.0
 40
0.125
 40
0.125
 40
0.125
 40
0.125
 40
0.25
 40
0.25
 40
0.25
 40
0.25
 40
0.375
 40
0.375
 40
0.375
 40
0.375
 40
0.5
 40
0.5
 40
0.5
 40
0.5
 40
0.625
 40
0.625
 40
0.625
 40
0.625
 40
0.75
 40
0.75
 40
0.75
 40
0.75
 40
1.0
 40
1.0
 40
1.0
 40
1.0
 10
-98.9333
 20
53.3433
 30
0.0
 10
-99.1423
 20
51.866
 30
0.0
 10
-98.6296
 20
50.26
 30
0.0
 10
-96.9925
 20
49.816
 30
0.0
 10
-96.9925
 20
49.816
 30
0.0
 10
-105.525
 20
50.4287
 30
0.0
 10
-104.228
 20
40.1019
 30
0.0
 10
-98.3638
 20
40.2642
 30
0.0
 10
-98.3638
 20
40.2642
 30
0.0
 10
-101.0259
 20
37.8887
 30
0.0
 10
-108.1877
 20
34.5996
 30
0.0
 10
-118.3508
 20
39.315
 30
0.0
 10
-118.3508
 20
39.315
 30
0.0
 10
-109.1088
 20
41.075
 30
0.0
 10
-111.09
 20
49.8566
 30
0.0
 10
-116.9067
 20
51.7371
 30
0.0
 10
-116.9067
 20
51.7371
 30
0.0
 10
-114.1485
 20
57.9687
 30
0.0
 10
-110.3379
 20
54.8179
 30
0.0
 10
-107.966
 20
52.0333
 30
0.0
 10
-107.966
 20
52.0333
 30
0.0
 10
-106.5342
 20
50.3524
 30
0.0
 10
-104.4205
 20
49.2995
 30
0.0
 10
-102.2645
 20
50.1802
 30
0.0
 10
-102.2645
 20
50.1802
 30
0.0
 10
-101.1351
 20
50.6415
 30
0.0
 10
-99.994
 20
51.6333
 30
0.0
 10
-98.9333
 20
53.3433
 30
0.0
  0
SPLINE
  5
78
330
1F
100
AcDbEntity
  8
layer 1
 62
     7
100
AcDbSpline
210
0.0
220
0.0
230
1.0
 70
    11
 71
     3
 72
    44
 73
    40
 74
     0
 42
0.0000000001
 43
0.0000000001
 12
1.0
 22
0.0
 32
0.0
 13
1.0
 23
0.0
 33
0.0
 40
0.0
 40
0.0
 40
0.0
 40
0.0
 40
0.0909090909090909
 40
0.0909090909090909
 40
0.0909090909090909
 40
0.0909090909090909
 40
0.1818181818181818
 40
0.1818181818181818
 40
0.1818181818181818
 40
0.1818181818181818
 40
0.2727272727272727
 40
0.2727272727272727
 40
0.2727272727272727
 40
0.2727272727272727
 40
0.3636363636363636
 40
0.3636363636363636
 40
0.3636363636363636
 40
0.3636363636363636
 40
0.4545454545454545
 40
0.4545454545454545
 40
0.4545454545454545
 40
0.4545454545454545
 40
0.5454545454545454
 40
0.5454545454545454
 40
0.5454545454545454
 40
0.5454545454545454
 40
0.6363636363636364
 40
0.6363636363636364
 40
0.6363636363636364
 40
0.6363636363636364
 40
0.7272727272727273
 40
0.7272727272727273
 40
0.7272727272727273
 40
0.7272727272727273
 40
0.8181818181818182
 40
0.8181818181818182
 40
0.8181818181818182
 40
0.8181818181818182
 40
1.0
 40
1.0
 40
1.0
 40
1.0
 10
-136.0013
 20
37.2592
 30
0.0
 10
-134.9777
 20
35.0398
 30
0.0
 10
-127.3673
 20
31.7996
 30
0.0
 10
-125.4863
 20
39.4214
 30
0.0
 10
-125.4863
 20
39.4214
 30
0.0
 10
-125.4098
 20
39.7311
 30
0.0
 10
-125.2414
 20
40.5441
 30
0.0
 10
-123.927
 20
39.6164
 30
0.0
 10
-123.927
 20
39.6164
 30
0.0
 10
-118.1617
 20
35.5372
 30
0.0
 10
-110.3859
 20
33.7681
 30
0.0
 10
-106.3858
 20
34.1809
 30
0.0
 10
-106.3858
 20
34.1809
 30
0.0
 10
-107.0952
 20
32.7207
 30
0.0
 10
-108.8466
 20
31.25
 30
0.0
 10
-111.4068
 20
30.1205
 30
0.0
 10
-111.4068
 20
30.1205
 30
0.0
 10
-113.5334
 20
29.1572
 30
0.0
 10
-114.7479
 20
31.1241
 30
0.0
 10
-116.7186
 20
30.6783
 30
0.0
 10
-116.7186
 20
30.6783
 30
0.0
 10
-118.1362
 20
30.3576
 30
0.0
 10
-118.9619
 20
29.4785
 30
0.0
 10
-119.4518
 20
28.5317
 30
0.0
 10
-119.4518
 20
28.5317
 30
0.0
 10
-119.7084
 20
28.0357
 30
0.0
 10
-119.8728
 20
27.5211
 30
0.0
 10
-119.982
 20
27.0584
 30
0.0
 10
-119.982
 20
27.0584
 30
0.0
 10
-120.773
 20
31.7303
 30
0.0
 10
-128.1524
 20
33.3512
 30
0.0
 10
-133.4668
 20
28.1968
 30
0.0
 10
-133.4668
 20
28.1968
 30
0.0
 10
-135.2367
 20
26.4802
 30
0.0
 10
-138.5039
 20
28.1406
 30
0.0
 10
-139.7448
 20
28.9406
 30
0.0
 10
-139.7448
 20
28.9406
 30
0.0
 10
-137.9993
 20
29.7927
 30
0.0
 10
-135.8648
 20
33.3206
 30
0.0
 10
-136.0013
 20
37.2592
 30
0.0
  0
SPLINE
  5
79
330
1F
100
AcDbEntity
  8
layer 1
 62
     7
100
AcDbSpline
210
0.0
220
0.0
230
1.0
 70
    11
 71
     3
 72
    24
 73
    20
 74
     0
 42
0.0000000001
 43
0.0000000001
 12
1.0
 22
0.0
 32
0.0
 13
1.0
 23
0.0
 33
0.0
 40
0.0
 40
0.0
 40
0.0
 40
0.0
 40
0.1666666666666667
 40
0.1666666666666667
 40
0.1666666666666667
 40
0.1666666666666667
 40
0.3333333333333333
 40
0.3333333333333333
 40
0.3333333333333333
 40
0.3333333333333333
 40
0.5
 40
0.5
 40
0.5
 40
0.5
 40
0.6666666666666666
 40
0.6666666666666666
 40
0.6666666666666666
 40
0.6666666666666666
 40
1.0
 40
1.0
 40
1.0
 40
1.0
 10
-111.4002
 20
27.3984
 30
0.0
 10
-112.2815
 20
23.3275
 30
0.0
 10
-112.5295
 20
19.4806
 30
0.0
 10
-109.3746
 20
16.7442
 30
0.0
 10
-109.3746
 20
16.7442
 30
0.0
 10
-112.3702
 20
19.2447
 30
0.0
 10
-115.51
 20
19.0199
 30
0.0
 10
-119.1635
 20
16.0205
 30
0.0
 10
-119.1635
 20
16.0205
 30
0.0
 10
-118.1761
 20
18.436
 30
0.0
 10
-118.0887
 20
20.0999
 30
0.0
 10
-119.1565
 20
22.9646
 30
0.0
 10
-119.1565
 20
22.9646
 30
0.0
 10
-116.7723
 20
21.9724
 30
0.0
 10
-113.0941
 20
22.6172
 30
0.0
 10
-113.043
 20
26.1266
 30
0.0
 10
-113.043
 20
26.1266
 30
0.0
 10
-113.0297
 20
27.046
 30
0.0
 10
-111.8367
 20
27.229
 30
0.0
 10
-111.4002
 20
27.3984
 30
0.0
  0
SPLINE
  5
7A
330
1F
100
AcDbEntity
  8
layer 1
 62
     7
100
AcDbSpline
210
0.0
220
0.0
230
1.0
 70
    11
 71
     3
 72
    20
 73
    16
 74
     0
 42
0.0000000001
 43
0.0000000001
 12
1.0
 22
0.0
 32
0.0
 13
1.0
 23
0.0
 33
0.0
 40
0.0
 40
0.0
 40
0.0
 40
0.0
 40
0.2
 40
0.2
 40
0.2
 40
0.2
 40
0.4
 40
0.4
 40
0.4
 40
0.4
 40
0.6
 40
0.6
 40
0.6
 40
0.6
 40
1.0
 40
1.0
 40
1.0
 40
1.0
 10
-99.3692
 20
34.8526
 30
0.0
 10
-103.9384
 20
29.7262
 30
0.0
 10
-101.2607
 20
24.2839
 30
0.0
 10
-97.7616
 20
22.6766
 30
0.0
 10
-97.7616
 20
22.6766
 30
0.0
 10
-103.1173
 20
23.7289
 30
0.0
 10
-105.5442
 20
16.9996
 30
0.0
 10
-102.2153
 20
14.3684
 30
0.0
 10
-102.2153
 20
14.3684
 30
0.0
 10
-107.8124
 20
16.0375
 30
0.0
 10
-109.3732
 20
21.3579
 30
0.0
 10
-109.027
 20
25.6772
 30
0.0
 10
-109.027
 20
25.6772
 30
0.0
 10
-108.9044
 20
27.5265
 30
0.0
 10
-106.8864
 20
34.315
 30
0.0
 10
-99.3692
 20
34.8526
 30
0.0
  0
SPLINE
  5
7B
330
1F
100
AcDbEntity
  8
layer 1
 62
     7
100
AcDbSpline
210
0.0
220
0.0
230
1.0
 70
    11
 71
     3
 72
    24
 73
    20
 74
     0
 42
0.0000000001
 43
0.0000000001
 12
1.0
 22
0.0
 32
0.0
 13
1.0
 23
0.0
 33
0.0
 40
0.0
 40
0.0
 40
0.0
 40
0.0
 40
0.1666666666666667
 40
0.1666666666666667
 40
0.1666666666666667
 40
0.1666666666666667
 40
0.3333333333333333
 40
0.3333333333333333
 40
0.3333333333333333
 40
0.3333333333333333
 40
0.5
 40
0.5
 40
0.5
 40
0.5
 40
0.6666666666666666
 40
0.6666666666666666
 40
0.6666666666666666
 40
0.6666666666666666
 40
1.0
 40
1.0
 40
1.0
 40
1.0
 10
-78.9987
 20
15.6765
 30
0.0
 10
-74.0686
 20
22.8824
 30
0.0
 10
-86.9546
 20
25.2666
 30
0.0
 10
-84.7774
 20
16.2486
 30
0.0
 10
-84.7774
 20
16.2486
 30
0.0
 10
-89.391
 20
16.2653
 30
0.0
 10
-90.0007
 20
21.1575
 30
0.0
 10
-88.9265
 20
23.3586
 30
0.0
 10
-88.9265
 20
23.3586
 30
0.0
 10
-90.2984
 20
21.8695
 30
0.0
 10
-91.288
 20
20.7798
 30
0.0
 10
-93.8849
 20
21.3924
 30
0.0
 10
-93.8849
 20
21.3924
 30
0.0
 10
-90.442
 20
16.9584
 30
0.0
 10
-93.3077
 20
13.1936
 30
0.0
 10
-96.3709
 20
13.2535
 30
0.0
 10
-96.3709
 20
13.2535
 30
0.0
 10
-91.1421
 20
10.5858
 30
0.0
 10
-83.1433
 20
10.5034
 30
0.0
 10
-78.9987
 20
15.6765
 30
0.0
  0
SPLINE
  5
7C
330
1F
100
AcDbEntity
  8
layer 1
 62
     7
100
AcDbSpline
210
0.0
220
0.0
230
1.0
 70
    11
 71
     3
 72
    40
 73
    36
 74
     0
 42
0.0000000001
 43
0.0000000001
 12
1.0
 22
0.0
 32
0.0
 13
1.0
 23
0.0
 33
0.0
 40
0.0
 40
0.0
 40
0.0
 40
0.0
 40
0.1
 40
0.1
 40
0.1
 40
0.1
 40
0.2
 40
0.2
 40
0.2
 40
0.2
 40
0.3
 40
0.3
 40
0.3
 40
0.3
 40
0.4
 40
0.4
 40
0.4
 40
0.4
 40
0.5
 40
0.5
 40
0.5
 40
0.5
 40
0.6
 40
0.6
 40
0.6
 40
0.6
 40
0.7
 40
0.7
 40
0.7
 40
0.7
 40
0.8
 40
0.8
 40
0.8
 40
0.8
 40
1.0
 40
1.0
 40
1.0
 40
1.0
 10
-99.0674
 20
110.8602
 30
0.0
 10
-92.9896
 20
111.3746
 30
0.0
 10
-90.1858
 20
123.0703
 30
0.0
 10
-95.2164
 20
127.0731
 30
0.0
 10
-95.2164
 20
127.0731
 30
0.0
 10
-95.2164
 20
127.0731
 30
0.0
 10
-83.5012
 20
127.0815
 30
0.0
 10
-83.5012
 20
127.0815
 30
0.0
 10
-83.5012
 20
127.0815
 30
0.0
 10
-87.9516
 20
123.6955
 30
0.0
 10
-90.3676
 20
114.6946
 30
0.0
 10
-86.2329
 20
107.8909
 30
0.0
 10
-86.2329
 20
107.8909
 30
0.0
 10
-81.5
 20
121.9193
 30
0.0
 10
-70.4233
 20
116.1921
 30
0.0
 10
-68.7477
 20
115.0442
 30
0.0
 10
-68.7477
 20
115.0442
 30
0.0
 10
-73.0581
 20
113.9969
 30
0.0
 10
-79.9586
 20
110.7734
 30
0.0
 10
-80.4733
 20
104.6336
 30
0.0
 10
-80.4733
 20
104.6336
 30
0.0
 10
-72.2083
 20
110.7043
 30
0.0
 10
-62.7358
 20
106.3609
 30
0.0
 10
-70.0689
 20
97.9899
 30
0.0
 10
-70.0689
 20
97.9899
 30
0.0
 10
-69.1347
 20
102.5419
 30
0.0
 10
-71.6143
 20
105.2431
 30
0.0
 10
-75.4856
 20
104.0741
 30
0.0
 10
-75.4856
 20
104.0741
 30
0.0
 10
-74.8734
 20
99.5801
 30
0.0
 10
-81.0847
 20
95.43
 30
0.0
 10
-85.7044
 20
100.1484
 30
0.0
 10
-85.7044
 20
100.1484
 30
0.0
 10
-88.7377
 20
103.7941
 30
0.0
 10
-94.2565
 20
107.9399
 30
0.0
 10
-99.0674
 20
110.8602
 30
0.0
  0
SPLINE
  5
7D
330
1F
100
AcDbEntity
  8
layer 1
 62
     7
100
AcDbSpline
210
0.0
220
0.0
230
1.0
 70
    11
 71
     3
 72
    32
 73
    28
 74
     0
 42
0.0000000001
 43
0.0000000001
 12
1.0
 22
0.0
 32
0.0
 13
1.0
 23
0.0
 33
0.0
 40
0.0
 40
0.0
 40
0.0
 40
0.0
 40
0.125
 40
0.125
 40
0.125
 40
0.125
 40
0.25
 40
0.25
 40
0.25
 40
0.25
 40
0.375
 40
0.375
 40
0.375
 40
0.375
 40
0.5
 40
0.5
 40
0.5
 40
0.5
 40
0.625
 40
0.625
 40
0.625
 40
0.625
 40
0.75
 40
0.75
 40
0.75
 40
0.75
 40
1.0
 40
1.0
 40
1.0
 40
1.0
 10
-111.9428
 20
110.3637
 30
0.0
 10
-117.3843
 20
106.1323
 30
0.0
 10
-114.405
 20
98.4901
 30
0.0
 10
-107.5693
 20
98.1286
 30
0.0
 10
-107.5693
 20
98.1286
 30
0.0
 10
-109.6482
 20
98.106
 30
0.0
 10
-111.489
 20
97.0238
 30
0.0
 10
-111.394
 20
94.7824
 30
0.0
 10
-111.394
 20
94.7824
 30
0.0
 10
-113.0358
 20
97.8158
 30
0.0
 10
-118.5991
 20
97.1135
 30
0.0
 10
-117.809
 20
92.8116
 30
0.0
 10
-117.809
 20
92.8116
 30
0.0
 10
-119.1747
 20
92.1303
 30
0.0
 10
-121.9546
 20
91.0515
 30
0.0
 10
-124.0883
 20
91.1898
 30
0.0
 10
-124.0883
 20
91.1898
 30
0.0
 10
-118.7548
 20
94.0386
 30
0.0
 10
-117.6232
 20
107.3865
 30
0.0
 10
-129.2678
 20
111.4891
 30
0.0
 10
-129.2678
 20
111.4891
 30
0.0
 10
-125.9221
 20
111.5026
 30
0.0
 10
-122.0453
 20
111.8928
 30
0.0
 10
-118.1092
 20
111.5826
 30
0.0
 10
-118.1092
 20
111.5826
 30
0.0
 10
-116.0474
 20
111.4201
 30
0.0
 10
-113.9693
 20
111.0654
 30
0.0
 10
-111.9428
 20
110.3637
 30
0.0
  0
SPLINE
  5
7E
330
1F
100
AcDbEntity
  8
layer 1
 62
     7
100
AcDbSpline
210
0.0
220
0.0
230
1.0
 70
    11
 71
     3
 72
    24
 73
    20
 74
     0
 42
0.0000000001
 43
0.0000000001
 12
1.0
 22
0.0
 32
0.0
 13
1.0
 23
0.0
 33
0.0
 40
0.0
 40
0.0
 40
0.0
 40
0.0
 40
0.1666666666666667
 40
0.1666666666666667
 40
0.1666666666666667
 40
0.1666666666666667
 40
0.3333333333333333
 40
0.3333333333333333
 40
0.3333333333333333
 40
0.3333333333333333
 40
0.5
 40
0.5
 40
0.5
 40
0.5
 40
0.6666666666666666
 40
0.6666666666666666
 40
0.6666666666666666
 40
0.6666666666666666
 40
1.0
 40
1.0
 40
1.0
 40
1.0
 10
-104.6589
 20
108.5226
 30
0.0
 10
-100.9378
 20
105.711
 30
0.0
 10
-99.3306
 20
105.278
 30
0.0
 10
-96.1081
 20
102.879
 30
0.0
 10
-96.1081
 20
102.879
 30
0.0
 10
-92.7446
 20
100.1479
 30
0.0
 10
-94.7715
 20
95.0313
 30
0.0
 10
-101.6563
 20
97.8712
 30
0.0
 10
-101.6563
 20
97.8712
 30
0.0
 10
-103.4433
 20
98.6083
 30
0.0
 10
-104.9694
 20
97.9047
 30
0.0
 10
-106.2156
 20
98.4287
 30
0.0
 10
-106.2156
 20
98.4287
 30
0.0
 10
-103.5866
 20
101.3827
 30
0.0
 10
-102.4813
 20
103.9217
 30
0.0
 10
-105.462
 20
107.613
 30
0.0
 10
-105.462
 20
107.613
 30
0.0
 10
-106.2008
 20
108.2573
 30
0.0
 10
-106.3026
 20
109.7699
 30
0.0
 10
-104.6589
 20
108.5226
 30
0.0
  0
SPLINE
  5
7F
330
1F
100
AcDbEntity
  8
layer 1
 62
     7
100
AcDbSpline
210
0.0
220
0.0
230
1.0
 70
    11
 71
     3
 72
    20
 73
    16
 74
     0
 42
0.0000000001
 43
0.0000000001
 12
1.0
 22
0.0
 32
0.0
 13
1.0
 23
0.0
 33
0.0
 40
0.0
 40
0.0
 40
0.0
 40
0.0
 40
0.2
 40
0.2
 40
0.2
 40
0.2
 40
0.4
 40
0.4
 40
0.4
 40
0.4
 40
0.6
 40
0.6
 40
0.6
 40
0.6
 40
1.0
 40
1.0
 40
1.0
 40
1.0
 10
-55.0026
 20
91.9653
 30
0.0
 10
-55.0026
 20
91.9653
 30
0.0
 10
-55.0026
 20
102.485
 30
0.0
 10
-55.0026
 20
102.485
 30
0.0
 10
-55.0026
 20
102.485
 30
0.0
 10
-55.9647
 20
100.3314
 30
0.0
 10
-57.4541
 20
98.7905
 30
0.0
 10
-59.0004
 20
97.1356
 30
0.0
 10
-59.0004
 20
97.1356
 30
0.0
 10
-59.8858
 20
96.4078
 30
0.0
 10
-59.5947
 20
94.6287
 30
0.0
 10
-58.3666
 20
94.2669
 30
0.0
 10
-58.3666
 20
94.2669
 30
0.0
 10
-56.5204
 20
93.7229
 30
0.0
 10
-55.3755
 20
92.868
 30
0.0
 10
-55.0026
 20
91.9653
 30
0.0
  0
SPLINE
  5
80
330
1F
100
AcDbEntity
  8
layer 1
 62
     7
100
AcDbSpline
210
0.0
220
0.0
230
1.0
 70
    11
 71
     3
 72
    52
 73
    48
 74
     0
 42
0.0000000001
 43
0.0000000001
 12
1.0
 22
0.0
 32
0.0
 13
1.0
 23
0.0
 33
0.0
 40
0.0
 40
0.0
 40
0.0
 40
0.0
 40
0.0769230769230769
 40
0.0769230769230769
 40
0.0769230769230769
 40
0.0769230769230769
 40
0.1538461538461539
 40
0.1538461538461539
 40
0.1538461538461539
 40
0.1538461538461539
 40
0.2307692307692308
 40
0.2307692307692308
 40
0.2307692307692308
 40
0.2307692307692308
 40
0.3076923076923077
 40
0.3076923076923077
 40
0.3076923076923077
 40
0.3076923076923077
 40
0.3846153846153846
 40
0.3846153846153846
 40
0.3846153846153846
 40
0.3846153846153846
 40
0.4615384615384616
 40
0.4615384615384616
 40
0.4615384615384616
 40
0.4615384615384616
 40
0.5384615384615384
 40
0.5384615384615384
 40
0.5384615384615384
 40
0.5384615384615384
 40
0.6153846153846154
 40
0.6153846153846154
 40
0.6153846153846154
 40
0.6153846153846154
 40
0.6923076923076923
 40
0.6923076923076923
 40
0.6923076923076923
 40
0.6923076923076923
 40
0.7692307692307693
 40
0.7692307692307693
 40
0.7692307692307693
 40
0.7692307692307693
 40
0.8461538461538461
 40
0.8461538461538461
 40
0.8461538461538461
 40
0.8461538461538461
 40
1.0
 40
1.0
 40
1.0
 40
1.0
 10
-170.7472
 20
46.315
 30
0.0
 10
-169.5568
 20
49.2504
 30
0.0
 10
-166.5358
 20
55.4687
 30
0.0
 10
-163.7512
 20
58.6535
 30
0.0
 10
-163.7512
 20
58.6535
 30
0.0
 10
-160.1353
 20
62.789
 30
0.0
 10
-156.8575
 20
61.571
 30
0.0
 10
-155.8854
 20
59.468
 30
0.0
 10
-155.8854
 20
59.468
 30
0.0
 10
-154.8826
 20
57.2983
 30
0.0
 10
-156.3019
 20
54.2051
 30
0.0
 10
-160.2048
 20
56.3208
 30
0.0
 10
-160.2048
 20
56.3208
 30
0.0
 10
-160.0851
 20
54.0953
 30
0.0
 10
-158.7622
 20
52.4179
 30
0.0
 10
-156.8506
 20
52.1704
 30
0.0
 10
-156.8506
 20
52.1704
 30
0.0
 10
-161.213
 20
51.568
 30
0.0
 10
-164.4548
 20
49.074
 30
0.0
 10
-165.1079
 20
43.1037
 30
0.0
 10
-165.1079
 20
43.1037
 30
0.0
 10
-159.0627
 20
49.0107
 30
0.0
 10
-152.3824
 20
48.7203
 30
0.0
 10
-149.328
 20
46.4652
 30
0.0
 10
-149.328
 20
46.4652
 30
0.0
 10
-147.728
 20
45.2839
 30
0.0
 10
-147.123
 20
43.5636
 30
0.0
 10
-148.1251
 20
41.9126
 30
0.0
 10
-148.1251
 20
41.9126
 30
0.0
 10
-148.7399
 20
43.5259
 30
0.0
 10
-154.7449
 20
44.0401
 30
0.0
 10
-155.947
 20
41.5269
 30
0.0
 10
-155.947
 20
41.5269
 30
0.0
 10
-149.6075
 20
41.5091
 30
0.0
 10
-148.2478
 20
33.4203
 30
0.0
 10
-152.2005
 20
30.7424
 30
0.0
 10
-152.2005
 20
30.7424
 30
0.0
 10
-151.7467
 20
32.3129
 30
0.0
 10
-152.3007
 20
37.665
 30
0.0
 10
-157.8353
 20
38.3396
 30
0.0
 10
-157.8353
 20
38.3396
 30
0.0
 10
-154.1798
 20
33.6822
 30
0.0
 10
-160.1522
 20
31.1957
 30
0.0
 10
-163.8563
 20
35.1229
 30
0.0
 10
-163.8563
 20
35.1229
 30
0.0
 10
-166.5632
 20
38.3931
 30
0.0
 10
-168.8628
 20
39.9114
 30
0.0
 10
-170.7472
 20
46.315
 30
0.0
  0
SPLINE
  5
81
330
1F
100
AcDbEntity
  8
layer 1
 62
     7
100
AcDbSpline
210
0.0
220
0.0
230
1.0
 70
    11
 71
     3
 72
    44
 73
    40
 74
     0
 42
0.0000000001
 43
0.0000000001
 12
1.0
 22
0.0
 32
0.0
 13
1.0
 23
0.0
 33
0.0
 40
0.0
 40
0.0
 40
0.0
 40
0.0
 40
0.0909090909090909
 40
0.0909090909090909
 40
0.0909090909090909
 40
0.0909090909090909
 40
0.1818181818181818
 40
0.1818181818181818
 40
0.1818181818181818
 40
0.1818181818181818
 40
0.2727272727272727
 40
0.2727272727272727
 40
0.2727272727272727
 40
0.2727272727272727
 40
0.3636363636363636
 40
0.3636363636363636
 40
0.3636363636363636
 40
0.3636363636363636
 40
0.4545454545454545
 40
0.4545454545454545
 40
0.4545454545454545
 40
0.4545454545454545
 40
0.5454545454545454
 40
0.5454545454545454
 40
0.5454545454545454
 40
0.5454545454545454
 40
0.6363636363636364
 40
0.6363636363636364
 40
0.6363636363636364
 40
0.6363636363636364
 40
0.7272727272727273
 40
0.7272727272727273
 40
0.7272727272727273
 40
0.7272727272727273
 40
0.8181818181818182
 40
0.8181818181818182
 40
0.8181818181818182
 40
0.8181818181818182
 40
1.0
 40
1.0
 40
1.0
 40
1.0
 10
-161.4571
 20
63.16
 30
0.0
 10
-161.8314
 20
62.8578
 30
0.0
 10
-162.4515
 20
63.2268
 30
0.0
 10
-161.9258
 20
64.0974
 30
0.0
 10
-161.9258
 20
64.0974
 30
0.0
 10
-161.2394
 20
65.2339
 30
0.0
 10
-160.8206
 20
65.6002
 30
0.0
 10
-160.1685
 20
66.0257
 30
0.0
 10
-160.1685
 20
66.0257
 30
0.0
 10
-159.3058
 20
67.0604
 30
0.0
 10
-160.4444
 20
67.138
 30
0.0
 10
-158.591
 20
69.0638
 30
0.0
 10
-158.591
 20
69.0638
 30
0.0
 10
-157.5271
 20
67.8123
 30
0.0
 10
-154.3861
 20
68.2699
 30
0.0
 10
-155.2033
 20
71.1118
 30
0.0
 10
-155.2033
 20
71.1118
 30
0.0
 10
-143.6991
 20
66.4096
 30
0.0
 10
-143.1956
 20
80.1191
 30
0.0
 10
-136.4084
 20
77.3141
 30
0.0
 10
-136.4084
 20
77.3141
 30
0.0
 10
-138.3826
 20
75.0517
 30
0.0
 10
-139.0542
 20
70.4625
 30
0.0
 10
-138.8361
 20
66.7651
 30
0.0
 10
-138.8361
 20
66.7651
 30
0.0
 10
-138.7219
 20
64.8284
 30
0.0
 10
-138.3636
 20
63.1364
 30
0.0
 10
-137.8206
 20
62.1516
 30
0.0
 10
-137.8206
 20
62.1516
 30
0.0
 10
-142.3735
 20
66.3155
 30
0.0
 10
-151.0649
 20
60.8282
 30
0.0
 10
-144.9612
 20
53.3044
 30
0.0
 10
-144.9612
 20
53.3044
 30
0.0
 10
-146.7176
 20
54.4169
 30
0.0
 10
-150.2685
 20
54.3798
 30
0.0
 10
-152.2485
 20
53.5215
 30
0.0
 10
-152.2485
 20
53.5215
 30
0.0
 10
-142.4537
 20
63.1491
 30
0.0
 10
-156.2697
 20
71.2114
 30
0.0
 10
-161.4571
 20
63.16
 30
0.0
  0
SPLINE
  5
82
330
1F
100
AcDbEntity
  8
layer 1
 62
     7
100
AcDbSpline
210
0.0
220
0.0
230
1.0
 70
    11
 71
     3
 72
    24
 73
    20
 74
     0
 42
0.0000000001
 43
0.0000000001
 12
1.0
 22
0.0
 32
0.0
 13
1.0
 23
0.0
 33
0.0
 40
0.0
 40
0.0
 40
0.0
 40
0.0
 40
0.1666666666666667
 40
0.1666666666666667
 40
0.1666666666666667
 40
0.1666666666666667
 40
0.3333333333333333
 40
0.3333333333333333
 40
0.3333333333333333
 40
0.3333333333333333
 40
0.5
 40
0.5
 40
0.5
 40
0.5
 40
0.6666666666666666
 40
0.6666666666666666
 40
0.6666666666666666
 40
0.6666666666666666
 40
1.0
 40
1.0
 40
1.0
 40
1.0
 10
-171.8675
 20
64.6789
 30
0.0
 10
-173.7016
 20
73.1612
 30
0.0
 10
-165.1398
 20
71.0729
 30
0.0
 10
-166.4629
 20
62.492
 30
0.0
 10
-166.4629
 20
62.492
 30
0.0
 10
-167.7523
 20
57.6329
 30
0.0
 10
-169.75
 20
56.2693
 30
0.0
 10
-173.5145
 20
48.6072
 30
0.0
 10
-173.5145
 20
48.6072
 30
0.0
 10
-175.6576
 20
51.9649
 30
0.0
 10
-178.2369
 20
64.3084
 30
0.0
 10
-176.1303
 20
72.273
 30
0.0
 10
-176.1303
 20
72.273
 30
0.0
 10
-176.0004
 20
72.8317
 30
0.0
 10
-175.3076
 20
72.8688
 30
0.0
 10
-175.4281
 20
72.271
 30
0.0
 10
-175.4281
 20
72.271
 30
0.0
 10
-176.831
 20
67.793
 30
0.0
 10
-173.6899
 20
64.3555
 30
0.0
 10
-171.8675
 20
64.6789
 30
0.0
  0
SPLINE
  5
83
330
1F
100
AcDbEntity
  8
layer 1
 62
     7
100
AcDbSpline
210
0.0
220
0.0
230
1.0
 70
    11
 71
     3
 72
    44
 73
    40
 74
     0
 42
0.0000000001
 43
0.0000000001
 12
1.0
 22
0.0
 32
0.0
 13
1.0
 23
0.0
 33
0.0
 40
0.0
 40
0.0
 40
0.0
 40
0.0
 40
0.0909090909090909
 40
0.0909090909090909
 40
0.0909090909090909
 40
0.0909090909090909
 40
0.1818181818181818
 40
0.1818181818181818
 40
0.1818181818181818
 40
0.1818181818181818
 40
0.2727272727272727
 40
0.2727272727272727
 40
0.2727272727272727
 40
0.2727272727272727
 40
0.3636363636363636
 40
0.3636363636363636
 40
0.3636363636363636
 40
0.3636363636363636
 40
0.4545454545454545
 40
0.4545454545454545
 40
0.4545454545454545
 40
0.4545454545454545
 40
0.5454545454545454
 40
0.5454545454545454
 40
0.5454545454545454
 40
0.5454545454545454
 40
0.6363636363636364
 40
0.6363636363636364
 40
0.6363636363636364
 40
0.6363636363636364
 40
0.7272727272727273
 40
0.7272727272727273
 40
0.7272727272727273
 40
0.7272727272727273
 40
0.8181818181818182
 40
0.8181818181818182
 40
0.8181818181818182
 40
0.8181818181818182
 40
1.0
 40
1.0
 40
1.0
 40
1.0
 10
-55.0026
 20
67.3426
 30
0.0
 10
-55.0026
 20
67.3426
 30
0.0
 10
-55.0026
 20
86.1252
 30
0.0
 10
-55.0026
 20
86.1252
 30
0.0
 10
-55.0026
 20
86.1252
 30
0.0
 10
-55.7715
 20
82.8121
 30
0.0
 10
-66.7291
 20
80.9816
 30
0.0
 10
-64.6037
 20
91.3085
 30
0.0
 10
-64.6037
 20
91.3085
 30
0.0
 10
-65.7831
 20
93.7416
 30
0.0
 10
-68.4658
 20
94.543
 30
0.0
 10
-71.6497
 20
93.2568
 30
0.0
 10
-71.6497
 20
93.2568
 30
0.0
 10
-74.1966
 20
91.5229
 30
0.0
 10
-81.8126
 20
94.0138
 30
0.0
 10
-84.8009
 20
97.4912
 30
0.0
 10
-84.8009
 20
97.4912
 30
0.0
 10
-81.8248
 20
94.2178
 30
0.0
 10
-79.1774
 20
86.625
 30
0.0
 10
-79.4575
 20
84.619
 30
0.0
 10
-79.4575
 20
84.619
 30
0.0
 10
-77.7069
 20
87.7646
 30
0.0
 10
-69.3223
 20
91.8303
 30
0.0
 10
-65.8996
 20
82.318
 30
0.0
 10
-65.8996
 20
82.318
 30
0.0
 10
-64.7462
 20
76.4784
 30
0.0
 10
-73.0571
 20
71.3283
 30
0.0
 10
-76.8075
 20
77.3043
 30
0.0
 10
-76.8075
 20
77.3043
 30
0.0
 10
-78.2216
 20
70.3626
 30
0.0
 10
-75.4874
 20
64.463
 30
0.0
 10
-73.1865
 20
61.9734
 30
0.0
 10
-73.1865
 20
61.9734
 30
0.0
 10
-63.316
 20
51.9643
 30
0.0
 10
-59.4368
 20
67.6002
 30
0.0
 10
-72.147
 20
67.464
 30
0.0
 10
-72.147
 20
67.464
 30
0.0
 10
-67.7652
 20
78.2504
 30
0.0
 10
-55.0026
 20
72.341
 30
0.0
 10
-55.0026
 20
67.3426
 30
0.0
  0
SPLINE
  5
84
330
1F
100
AcDbEntity
  8
layer 1
 62
     7
100
AcDbSpline
210
0.0
220
0.0
230
1.0
 70
    11
 71
     3
 72
    36
 73
    32
 74
     0
 42
0.0000000001
 43
0.0000000001
 12
1.0
 22
0.0
 32
0.0
 13
1.0
 23
0.0
 33
0.0
 40
0.0
 40
0.0
 40
0.0
 40
0.0
 40
0.1111111111111111
 40
0.1111111111111111
 40
0.1111111111111111
 40
0.1111111111111111
 40
0.2222222222222222
 40
0.2222222222222222
 40
0.2222222222222222
 40
0.2222222222222222
 40
0.3333333333333333
 40
0.3333333333333333
 40
0.3333333333333333
 40
0.3333333333333333
 40
0.4444444444444444
 40
0.4444444444444444
 40
0.4444444444444444
 40
0.4444444444444444
 40
0.5555555555555556
 40
0.5555555555555556
 40
0.5555555555555556
 40
0.5555555555555556
 40
0.6666666666666666
 40
0.6666666666666666
 40
0.6666666666666666
 40
0.6666666666666666
 40
0.7777777777777778
 40
0.7777777777777778
 40
0.7777777777777778
 40
0.7777777777777778
 40
1.0
 40
1.0
 40
1.0
 40
1.0
 10
-55.0026
 20
34.0249
 30
0.0
 10
-55.0026
 20
34.0249
 30
0.0
 10
-55.0026
 20
60.1896
 30
0.0
 10
-55.0026
 20
60.1896
 30
0.0
 10
-55.0026
 20
60.1896
 30
0.0
 10
-58.9103
 20
49.6823
 30
0.0
 10
-71.6505
 20
51.0387
 30
0.0
 10
-75.2249
 20
60.2967
 30
0.0
 10
-75.2249
 20
60.2967
 30
0.0
 10
-76.1102
 20
59.5688
 30
0.0
 10
-76.3517
 20
49.1779
 30
0.0
 10
-71.6455
 20
45.5976
 30
0.0
 10
-71.6455
 20
45.5976
 30
0.0
 10
-68.403
 20
53.2331
 30
0.0
 10
-62.0127
 20
47.3508
 30
0.0
 10
-61.8009
 20
45.1676
 30
0.0
 10
-61.8009
 20
45.1676
 30
0.0
 10
-61.5113
 20
42.1815
 30
0.0
 10
-66.3743
 20
35.05
 30
0.0
 10
-71.8309
 20
41.9954
 30
0.0
 10
-71.8309
 20
41.9954
 30
0.0
 10
-72.4228
 20
40.6306
 30
0.0
 10
-71.3966
 20
33.5221
 30
0.0
 10
-69.4897
 20
30.649
 30
0.0
 10
-69.4897
 20
30.649
 30
0.0
 10
-63.9842
 20
21.1416
 30
0.0
 10
-57.5663
 20
30.1403
 30
0.0
 10
-64.2574
 20
35.1163
 30
0.0
 10
-64.2574
 20
35.1163
 30
0.0
 10
-60.8571
 20
38.0491
 30
0.0
 10
-56.0849
 20
36.5282
 30
0.0
 10
-55.0026
 20
34.0249
 30
0.0
  0
SPLINE
  5
85
330
1F
100
AcDbEntity
  8
layer 1
 62
     7
100
AcDbSpline
210
0.0
220
0.0
230
1.0
 70
    11
 71
     3
 72
    28
 73
    24
 74
     0
 42
0.0000000001
 43
0.0000000001
 12
1.0
 22
0.0
 32
0.0
 13
1.0
 23
0.0
 33
0.0
 40
0.0
 40
0.0
 40
0.0
 40
0.0
 40
0.1428571428571428
 40
0.1428571428571428
 40
0.1428571428571428
 40
0.1428571428571428
 40
0.2857142857142857
 40
0.2857142857142857
 40
0.2857142857142857
 40
0.2857142857142857
 40
0.4285714285714285
 40
0.4285714285714285
 40
0.4285714285714285
 40
0.4285714285714285
 40
0.5714285714285714
 40
0.5714285714285714
 40
0.5714285714285714
 40
0.5714285714285714
 40
0.7142857142857143
 40
0.7142857142857143
 40
0.7142857142857143
 40
0.7142857142857143
 40
1.0
 40
1.0
 40
1.0
 40
1.0
 10
-55.0026
 20
12.5059
 30
0.0
 10
-55.0026
 20
12.5059
 30
0.0
 10
-55.0026
 20
25.1589
 30
0.0
 10
-55.0026
 20
25.1589
 30
0.0
 10
-55.0026
 20
25.1589
 30
0.0
 10
-57.7483
 20
17.2343
 30
0.0
 10
-75.3099
 20
19.1521
 30
0.0
 10
-74.339
 20
32.1954
 30
0.0
 10
-74.339
 20
32.1954
 30
0.0
 10
-75.4559
 20
29.1008
 30
0.0
 10
-78.055
 20
28.8812
 30
0.0
 10
-79.0837
 20
29.1831
 30
0.0
 10
-79.0837
 20
29.1831
 30
0.0
 10
-79.5353
 20
29.3157
 30
0.0
 10
-80.0748
 20
28.4195
 30
0.0
 10
-79.5075
 20
28.2051
 30
0.0
 10
-79.5075
 20
28.2051
 30
0.0
 10
-74.3527
 20
28.2696
 30
0.0
 10
-70.0421
 20
17.9572
 30
0.0
 10
-76.4651
 20
13.3623
 30
0.0
 10
-76.4651
 20
13.3623
 30
0.0
 10
-67.3807
 20
17.594
 30
0.0
 10
-56.8526
 20
13.4796
 30
0.0
 10
-55.0026
 20
12.5059
 30
0.0
  0
SPLINE
  5
86
330
1F
100
AcDbEntity
  8
layer 1
 62
     7
100
AcDbSpline
210
0.0
220
0.0
230
1.0
 70
    11
 71
     3
 72
    36
 73
    32
 74
     0
 42
0.0000000001
 43
0.0000000001
 12
1.0
 22
0.0
 32
0.0
 13
1.0
 23
0.0
 33
0.0
 40
0.0
 40
0.0
 40
0.0
 40
0.0
 40
0.1111111111111111
 40
0.1111111111111111
 40
0.1111111111111111
 40
0.1111111111111111
 40
0.2222222222222222
 40
0.2222222222222222
 40
0.2222222222222222
 40
0.2222222222222222
 40
0.3333333333333333
 40
0.3333333333333333
 40
0.3333333333333333
 40
0.3333333333333333
 40
0.4444444444444444
 40
0.4444444444444444
 40
0.4444444444444444
 40
0.4444444444444444
 40
0.5555555555555556
 40
0.5555555555555556
 40
0.5555555555555556
 40
0.5555555555555556
 40
0.6666666666666666
 40
0.6666666666666666
 40
0.6666666666666666
 40
0.6666666666666666
 40
0.7777777777777778
 40
0.7777777777777778
 40
0.7777777777777778
 40
0.7777777777777778
 40
1.0
 40
1.0
 40
1.0
 40
1.0
 10
-111.0743
 20
89.4683
 30
0.0
 10
-109.7613
 20
80.888
 30
0.0
 10
-102.4223
 20
89.7058
 30
0.0
 10
-96.3574
 20
76.3473
 30
0.0
 10
-96.3574
 20
76.3473
 30
0.0
 10
-102.8143
 20
74.746
 30
0.0
 10
-103.7312
 20
66.587
 30
0.0
 10
-99.6658
 20
63.7513
 30
0.0
 10
-99.6658
 20
63.7513
 30
0.0
 10
-106.6634
 20
62.8518
 30
0.0
 10
-109.5358
 20
69.4331
 30
0.0
 10
-106.277
 20
74.7481
 30
0.0
 10
-106.277
 20
74.7481
 30
0.0
 10
-108.3
 20
75.5464
 30
0.0
 10
-110.1594
 20
75.6487
 30
0.0
 10
-111.3882
 20
74.1535
 30
0.0
 10
-111.3882
 20
74.1535
 30
0.0
 10
-110.3152
 20
85.2371
 30
0.0
 10
-121.8148
 20
87.6091
 30
0.0
 10
-126.557
 20
85.6942
 30
0.0
 10
-126.557
 20
85.6942
 30
0.0
 10
-124.2021
 20
87.5741
 30
0.0
 10
-121.9303
 20
88.4524
 30
0.0
 10
-120.0676
 20
88.9075
 30
0.0
 10
-120.0676
 20
88.9075
 30
0.0
 10
-119.0919
 20
89.1459
 30
0.0
 10
-118.2284
 20
89.2682
 30
0.0
 10
-117.5241
 20
89.3574
 30
0.0
 10
-117.5241
 20
89.3574
 30
0.0
 10
-117.7839
 20
85.6294
 30
0.0
 10
-111.6695
 20
84.1709
 30
0.0
 10
-111.0743
 20
89.4683
 30
0.0
  0
SPLINE
  5
87
330
1F
100
AcDbEntity
  8
layer 1
 62
     7
100
AcDbSpline
210
0.0
220
0.0
230
1.0
 70
    11
 71
     3
 72
    36
 73
    32
 74
     0
 42
0.0000000001
 43
0.0000000001
 12
1.0
 22
0.0
 32
0.0
 13
1.0
 23
0.0
 33
0.0
 40
0.0
 40
0.0
 40
0.0
 40
0.0
 40
0.1111111111111111
 40
0.1111111111111111
 40
0.1111111111111111
 40
0.1111111111111111
 40
0.2222222222222222
 40
0.2222222222222222
 40
0.2222222222222222
 40
0.2222222222222222
 40
0.3333333333333333
 40
0.3333333333333333
 40
0.3333333333333333
 40
0.3333333333333333
 40
0.4444444444444444
 40
0.4444444444444444
 40
0.4444444444444444
 40
0.4444444444444444
 40
0.5555555555555556
 40
0.5555555555555556
 40
0.5555555555555556
 40
0.5555555555555556
 40
0.6666666666666666
 40
0.6666666666666666
 40
0.6666666666666666
 40
0.6666666666666666
 40
0.7777777777777778
 40
0.7777777777777778
 40
0.7777777777777778
 40
0.7777777777777778
 40
1.0
 40
1.0
 40
1.0
 40
1.0
 10
-91.8089
 20
98.9163
 30
0.0
 10
-84.8382
 20
94.3978
 30
0.0
 10
-82.0593
 20
85.1074
 30
0.0
 10
-84.2025
 20
74.6673
 30
0.0
 10
-84.2025
 20
74.6673
 30
0.0
 10
-85.0589
 20
70.971
 30
0.0
 10
-88.2812
 20
68.2146
 30
0.0
 10
-91.4939
 20
71.2865
 30
0.0
 10
-91.4939
 20
71.2865
 30
0.0
 10
-93.7727
 20
73.4633
 30
0.0
 10
-91.8851
 20
77.2754
 30
0.0
 10
-87.7335
 20
78.0356
 30
0.0
 10
-87.7335
 20
78.0356
 30
0.0
 10
-89.7565
 20
78.8339
 30
0.0
 10
-92.9154
 20
79.0565
 30
0.0
 10
-94.1441
 20
77.5613
 30
0.0
 10
-94.1441
 20
77.5613
 30
0.0
 10
-93.8216
 20
81.6137
 30
0.0
 10
-94.5358
 20
82.7389
 30
0.0
 10
-97.1845
 20
84.7945
 30
0.0
 10
-97.1845
 20
84.7945
 30
0.0
 10
-93.5347
 20
84.6372
 30
0.0
 10
-91.7505
 20
87.3855
 30
0.0
 10
-92.6135
 20
89.8633
 30
0.0
 10
-92.6135
 20
89.8633
 30
0.0
 10
-93.0657
 20
91.1612
 30
0.0
 10
-94.2442
 20
92.385
 30
0.0
 10
-96.2613
 20
93.0781
 30
0.0
 10
-96.2613
 20
93.0781
 30
0.0
 10
-93.7777
 20
92.8635
 30
0.0
 10
-90.7437
 20
94.5334
 30
0.0
 10
-91.8089
 20
98.9163
 30
0.0
  0
SPLINE
  5
88
330
1F
100
AcDbEntity
  8
layer 1
 62
     7
100
AcDbSpline
210
0.0
220
0.0
230
1.0
 70
    11
 71
     3
 72
    28
 73
    24
 74
     0
 42
0.0000000001
 43
0.0000000001
 12
1.0
 22
0.0
 32
0.0
 13
1.0
 23
0.0
 33
0.0
 40
0.0
 40
0.0
 40
0.0
 40
0.0
 40
0.1428571428571428
 40
0.1428571428571428
 40
0.1428571428571428
 40
0.1428571428571428
 40
0.2857142857142857
 40
0.2857142857142857
 40
0.2857142857142857
 40
0.2857142857142857
 40
0.4285714285714285
 40
0.4285714285714285
 40
0.4285714285714285
 40
0.4285714285714285
 40
0.5714285714285714
 40
0.5714285714285714
 40
0.5714285714285714
 40
0.5714285714285714
 40
0.7142857142857143
 40
0.7142857142857143
 40
0.7142857142857143
 40
0.7142857142857143
 40
1.0
 40
1.0
 40
1.0
 40
1.0
 10
-80.1457
 20
72.2895
 30
0.0
 10
-78.0681
 20
62.4272
 30
0.0
 10
-83.6429
 20
54.4405
 30
0.0
 10
-86.2046
 20
53.8833
 30
0.0
 10
-86.2046
 20
53.8833
 30
0.0
 10
-88.169
 20
53.6767
 30
0.0
 10
-89.6852
 20
53.9939
 30
0.0
 10
-90.619
 20
54.9267
 30
0.0
 10
-90.619
 20
54.9267
 30
0.0
 10
-90.5486
 20
57.2363
 30
0.0
 10
-93.4234
 20
59.8843
 30
0.0
 10
-97.1634
 20
57.4225
 30
0.0
 10
-97.1634
 20
57.4225
 30
0.0
 10
-96.3358
 20
58.9549
 30
0.0
 10
-96.2357
 20
61.3594
 30
0.0
 10
-97.7476
 20
62.4116
 30
0.0
 10
-97.7476
 20
62.4116
 30
0.0
 10
-97.8834
 20
62.5061
 30
0.0
 10
-97.4017
 20
62.2413
 30
0.0
 10
-97.0008
 20
62.0884
 30
0.0
 10
-97.0008
 20
62.0884
 30
0.0
 10
-86.0495
 20
58.3519
 30
0.0
 10
-80.946
 20
68.9065
 30
0.0
 10
-80.1457
 20
72.2895
 30
0.0
  0
SPLINE
  5
89
330
1F
100
AcDbEntity
  8
layer 1
 62
     7
100
AcDbSpline
210
0.0
220
0.0
230
1.0
 70
    11
 71
     3
 72
    20
 73
    16
 74
     0
 42
0.0000000001
 43
0.0000000001
 12
1.0
 22
0.0
 32
0.0
 13
1.0
 23
0.0
 33
0.0
 40
0.0
 40
0.0
 40
0.0
 40
0.0
 40
0.2
 40
0.2
 40
0.2
 40
0.2
 40
0.4
 40
0.4
 40
0.4
 40
0.4
 40
0.6
 40
0.6
 40
0.6
 40
0.6
 40
1.0
 40
1.0
 40
1.0
 40
1.0
 10
-84.2147
 20
50.4704
 30
0.0
 10
-85.0988
 20
48.1086
 30
0.0
 10
-89.5545
 20
43.9146
 30
0.0
 10
-92.1729
 20
42.4297
 30
0.0
 10
-92.1729
 20
42.4297
 30
0.0
 10
-90.9587
 20
44.0863
 30
0.0
 10
-91.9552
 20
48.1962
 30
0.0
 10
-95.1972
 20
49.2518
 30
0.0
 10
-95.1972
 20
49.2518
 30
0.0
 10
-93.3642
 20
49.3984
 30
0.0
 10
-92.1082
 20
49.9126
 30
0.0
 10
-91.4446
 20
52.0191
 30
0.0
 10
-91.4446
 20
52.0191
 30
0.0
 10
-89.024
 20
50.4072
 30
0.0
 10
-87.5259
 20
49.3729
 30
0.0
 10
-84.2147
 20
50.4704
 30
0.0
  0
SPLINE
  5
8A
330
1F
100
AcDbEntity
  8
layer 1
 62
     7
100
AcDbSpline
210
0.0
220
0.0
230
1.0
 70
    11
 71
     3
 72
    36
 73
    32
 74
     0
 42
0.0000000001
 43
0.0000000001
 12
1.0
 22
0.0
 32
0.0
 13
1.0
 23
0.0
 33
0.0
 40
0.0
 40
0.0
 40
0.0
 40
0.0
 40
0.1111111111111111
 40
0.1111111111111111
 40
0.1111111111111111
 40
0.1111111111111111
 40
0.2222222222222222
 40
0.2222222222222222
 40
0.2222222222222222
 40
0.2222222222222222
 40
0.3333333333333333
 40
0.3333333333333333
 40
0.3333333333333333
 40
0.3333333333333333
 40
0.4444444444444444
 40
0.4444444444444444
 40
0.4444444444444444
 40
0.4444444444444444
 40
0.5555555555555556
 40
0.5555555555555556
 40
0.5555555555555556
 40
0.5555555555555556
 40
0.6666666666666666
 40
0.6666666666666666
 40
0.6666666666666666
 40
0.6666666666666666
 40
0.7777777777777778
 40
0.7777777777777778
 40
0.7777777777777778
 40
0.7777777777777778
 40
1.0
 40
1.0
 40
1.0
 40
1.0
 10
-79.1155
 20
53.9464
 30
0.0
 10
-79.227
 20
48.3977
 30
0.0
 10
-77.6959
 20
43.0691
 30
0.0
 10
-75.002
 20
37.9223
 30
0.0
 10
-75.002
 20
37.9223
 30
0.0
 10
-83.4048
 20
44.0252
 30
0.0
 10
-88.7839
 20
33.333
 30
0.0
 10
-82.4424
 20
28.9864
 30
0.0
 10
-82.4424
 20
28.9864
 30
0.0
 10
-84.883
 20
26.0166
 30
0.0
 10
-86.2995
 20
27.9405
 30
0.0
 10
-86.2994
 20
27.9405
 30
0.0
 10
-86.2994
 20
27.9405
 30
0.0
 10
-86.1262
 20
27.8378
 30
0.0
 10
-84.6603
 20
34.328
 30
0.0
 10
-90.8489
 20
35.3568
 30
0.0
 10
-90.8489
 20
35.3568
 30
0.0
 10
-88.5436
 20
25.9216
 30
0.0
 10
-97.0488
 20
26.7579
 30
0.0
 10
-95.1706
 20
33.2442
 30
0.0
 10
-95.1706
 20
33.2442
 30
0.0
 10
-94.7841
 20
34.5792
 30
0.0
 10
-93.9277
 20
36.3256
 30
0.0
 10
-92.3778
 20
37.9885
 30
0.0
 10
-92.3778
 20
37.9885
 30
0.0
 10
-91.566
 20
38.8595
 30
0.0
 10
-90.5638
 20
39.7076
 30
0.0
 10
-89.3392
 20
40.4618
 30
0.0
 10
-89.3392
 20
40.4618
 30
0.0
 10
-82.3796
 20
44.6443
 30
0.0
 10
-79.9802
 20
49.9195
 30
0.0
 10
-79.1155
 20
53.9464
 30
0.0
  0
ENDSEC
  0
SECTION
  2
OBJECTS
  0
DICTIONARY
  5
C
330
0
100
AcDbDictionary
281
     1
  3
ACAD_GROUP
350
D
  3
ACAD_LAYOUT
350
1A
  3
ACAD_MATERIAL
350
3B
  3
ACAD_MLEADERSTYLE
350
AC
  3
ACAD_MLINESTYLE
350
17
  3
ACAD_PLOTSETTINGS
350
19
  3
ACAD_PLOTSTYLENAME
350
E
  3
ACAD_TABLESTYLE
350
AB
  3
ACAD_VISUALSTYLE
350
2A
  0
DICTIONARY
  5
D
102
{ACAD_REACTORS
330
C
102
}
330
C
100
AcDbDictionary
281
     1
  0
DICTIONARY
  5
1A
102
{ACAD_REACTORS
330
C
102
}
330
C
100
AcDbDictionary
281
     1
  3
Layout1
350
1E
  3
Layout2
350
26
  3
Model
350
22
  0
DICTIONARY
  5
3B
102
{ACAD_REACTORS
330
C
102
}
330
C
100
AcDbDictionary
281
     1
  3
ByBlock
350
3D
  3
ByLayer
350
3C
  3
Global
350
3E
  0
DICTIONARY
  5
AC
102
{ACAD_REACTORS
330
C
102
}
330
C
100
AcDbDictionary
281
     1
  0
DICTIONARY
  5
17
102
{ACAD_REACTORS
330
C
102
}
330
C
100
AcDbDictionary
281
     1
  3
Standard
350
18
  0
DICTIONARY
  5
19
102
{ACAD_REACTORS
330
C
102
}
330
C
100
AcDbDictionary
281
     1
  0
ACDBDICTIONARYWDFLT
  5
E
102
{ACAD_REACTORS
330
C
102
}
330
C
100
AcDbDictionary
281
     1
  3
Normal
350
F
100
AcDbDictionaryWithDefault
340
F
  0
DICTIONARY
  5
AB
102
{ACAD_REACTORS
330
C
102
}
330
C
100
AcDbDictionary
281
     1
  0
DICTIONARY
  5
2A
102
{ACAD_REACTORS
330
C
102
}
330
C
100
AcDbDictionary
281
     1
  3
2dWireframe
350
2F
  3
3D Hidden
350
31
  3
3dWireframe
350
30
  3
Basic
350
32
  3
Brighten
350
36
  3
ColorChange
350
3A
  3
Conceptual
350
34
  3
Dim
350
35
  3
Facepattern
350
39
  3
Flat
350
2B
  3
FlatWithEdges
350
2C
  3
Gouraud
350
2D
  3
GouraudWithEdges
350
2E
  3
Linepattern
350
38
  3
Realistic
350
33
  3
Thicken
350
37
  0
LAYOUT
  5
1E
102
{ACAD_REACTORS
330
1A
102
}
330
1A
100
AcDbPlotSettings
  1

  2
none_device
  4

  6

 40
0.0
 41
0.0
 42
0.0
 43
0.0
 44
0.0
 45
0.0
 46
0.0
 47
0.0
 48
0.0
 49
0.0
140
0.0
141
0.0
142
1.0
143
1.0
 70
   688
 72
     0
 73
     0
 74
     5
  7

 75
    16
 76
     0
 77
     2
 78
   300
147
1.0
148
0.0
149
0.0
100
AcDbLayout
  1
Layout1
 70
     1
 71
     1
 10
0.0
 20
0.0
 11
12.0
 21
9.0
 12
0.0
 22
0.0
 32
0.0
 14
1.000000000000000E+20
 24
1.000000000000000E+20
 34
1.000000000000000E+20
 15
-1.000000000000000E+20
 25
-1.000000000000000E+20
 35
-1.000000000000000E+20
146
0.0
 13
0.0
 23
0.0
 33
0.0
 16
1.0
 26
0.0
 36
0.0
 17
0.0
 27
1.0
 37
0.0
 76
     0
330
1B
  0
LAYOUT
  5
26
102
{ACAD_REACTORS
330
1A
102
}
330
1A
100
AcDbPlotSettings
  1

  2
none_device
  4

  6

 40
0.0
 41
0.0
 42
0.0
 43
0.0
 44
0.0
 45
0.0
 46
0.0
 47
0.0
 48
0.0
 49
0.0
140
0.0
141
0.0
142
1.0
143
1.0
 70
   688
 72
     0
 73
     0
 74
     5
  7

 75
    16
 76
     0
 77
     2
 78
   300
147
1.0
148
0.0
149
0.0
100
AcDbLayout
  1
Layout2
 70
     1
 71
     2
 10
0.0
 20
0.0
 11
0.0
 21
0.0
 12
0.0
 22
0.0
 32
0.0
 14
0.0
 24
0.0
 34
0.0
 15
0.0
 25
0.0
 35
0.0
146
0.0
 13
0.0
 23
0.0
 33
0.0
 16
1.0
 26
0.0
 36
0.0
 17
0.0
 27
1.0
 37
0.0
 76
     0
330
23
  0
LAYOUT
  5
22
102
{ACAD_REACTORS
330
1A
102
}
330
1A
100
AcDbPlotSettings
  1

  2
none_device
  4

  6

 40
0.0
 41
0.0
 42
0.0
 43
0.0
 44
0.0
 45
0.0
 46
0.0
 47
0.0
 48
0.0
 49
0.0
140
0.0
141
0.0
142
1.0
143
1.0
 70
  1712
 72
     0
 73
     0
 74
     0
  7

 75
     0
 76
     0
 77
     2
 78
   300
147
1.0
148
0.0
149
0.0
100
AcDbLayout
  1
Model
 70
     1
 71
     0
 10
0.0
 20
0.0
 11
12.0
 21
9.0
 12
0.0
 22
0.0
 32
0.0
 14
-187.429
 24
-114.7659
 34
0.0
 15
-48.5964
 25
131.9025
 35
0.0
146
0.0
 13
0.0
 23
0.0
 33
0.0
 16
1.0
 26
0.0
 36
0.0
 17
0.0
 27
1.0
 37
0.0
 76
     0
330
1F
331
29
  0
MATERIAL
  5
3D
102
{ACAD_REACTORS
330
3B
102
}
330
3B
100
AcDbMaterial
  1
ByBlock
 72
     1
 94
      127
  0
MATERIAL
  5
3C
102
{ACAD_REACTORS
330
3B
102
}
330
3B
100
AcDbMaterial
  1
ByLayer
 72
     1
 94
      127
  0
MATERIAL
  5
3E
102
{ACAD_REACTORS
330
3B
102
}
330
3B
100
AcDbMaterial
  1
Global
 72
     1
 94
      127
  0
MLINESTYLE
  5
18
102
{ACAD_REACTORS
330
17
102
}
330
17
100
AcDbMlineStyle
  2
Standard
 70
     0
  3

 62
   256
 51
90.0
 52
90.0
 71
     2
 49
0.5
 62
   256
  6
BYLAYER
 49
-0.5
 62
   256
  6
BYLAYER
  0
ACDBPLACEHOLDER
  5
F
102
{ACAD_REACTORS
330
E
102
}
330
E
  0
VISUALSTYLE
  5
2F
102
{ACAD_REACTORS
330
2A
102
}
102
{ACAD_XDICTIONARY
360
93
102
}
330
2A
100
AcDbVisualStyle
  2
2dWireframe
 70
     4
 71
     0
 72
     2
 73
     0
 90
        0
 40
-0.6
 41
-30.0
 62
     5
 63
     7
421
 16777215
 74
     1
 91
        4
 64
     7
 65
   257
 75
     1
175
     1
 42
1.0
 92
        0
 66
   257
 43
1.0
 76
     1
 77
     6
 78
     2
 67
     7
 79
     5
170
     0
171
     0
290
     0
174
     0
 93
        1
 44
0.0
173
     0
291
     0
 45
0.0
  0
VISUALSTYLE
  5
31
102
{ACAD_REACTORS
330
2A
102
}
102
{ACAD_XDICTIONARY
360
97
102
}
330
2A
100
AcDbVisualStyle
  2
3D Hidden
 70
     6
 71
     1
 72
     2
 73
     2
 90
        0
 40
-0.6
 41
-30.0
 62
     5
 63
     7
421
 16777215
 74
     2
 91
        2
 64
     7
 65
   257
 75
     2
175
     1
 42
40.0
 92
        0
 66
   257
 43
1.0
 76
     1
 77
     6
 78
     2
 67
     7
 79
     3
170
     0
171
     0
290
     0
174
     0
 93
        1
 44
0.0
173
     0
291
     0
 45
0.0
  0
VISUALSTYLE
  5
30
102
{ACAD_REACTORS
330
2A
102
}
102
{ACAD_XDICTIONARY
360
95
102
}
330
2A
100
AcDbVisualStyle
  2
3dWireframe
 70
     5
 71
     0
 72
     2
 73
     0
 90
        0
 40
-0.6
 41
-30.0
 62
     5
 63
     7
421
 16777215
 74
     1
 91
        4
 64
     7
 65
   257
 75
     1
175
     1
 42
1.0
 92
        0
 66
   257
 43
1.0
 76
     1
 77
     6
 78
     2
 67
     7
 79
     5
170
     0
171
     0
290
     0
174
     0
 93
        1
 44
0.0
173
     0
291
     0
 45
0.0
  0
VISUALSTYLE
  5
32
102
{ACAD_REACTORS
330
2A
102
}
102
{ACAD_XDICTIONARY
360
99
102
}
330
2A
100
AcDbVisualStyle
  2
Basic
 70
     7
 71
     1
 72
     0
 73
     1
 90
        0
 40
-0.6
 41
-30.0
 62
     5
 63
     7
421
 16777215
 74
     0
 91
        4
 64
     7
 65
   257
 75
     1
175
     1
 42
1.0
 92
        8
 66
     7
 43
1.0
 76
     1
 77
     6
 78
     2
 67
     7
 79
     5
170
     0
171
     0
290
     0
174
     0
 93
        1
 44
0.0
173
     0
291
     1
 45
0.0
  0
VISUALSTYLE
  5
36
102
{ACAD_REACTORS
330
2A
102
}
102
{ACAD_XDICTIONARY
360
A1
102
}
330
2A
100
AcDbVisualStyle
  2
Brighten
 70
    12
 71
     2
 72
     2
 73
     0
 90
        0
 40
-0.6
 41
-30.0
 62
     5
 63
     7
421
 16777215
 74
     1
 91
        4
 64
     7
 65
   257
 75
     1
175
     1
 42
1.0
 92
        8
 66
     7
 43
1.0
 76
     1
 77
     6
 78
     2
 67
     7
 79
     5
170
     0
171
     0
290
     0
174
     0
 93
        1
 44
50.0
173
     0
291
     1
 45
0.0
  0
VISUALSTYLE
  5
3A
102
{ACAD_REACTORS
330
2A
102
}
102
{ACAD_XDICTIONARY
360
A9
102
}
330
2A
100
AcDbVisualStyle
  2
ColorChange
 70
    16
 71
     2
 72
     2
 73
     3
 90
        0
 40
-0.6
 41
-30.0
 62
     5
 63
     8
421
  8421504
 74
     1
 91
        4
 64
     7
 65
   257
 75
     1
175
     1
 42
1.0
 92
        8
 66
     8
424
  8421504
 43
1.0
 76
     1
 77
     6
 78
     2
 67
     7
 79
     5
170
     0
171
     0
290
     0
174
     0
 93
        1
 44
0.0
173
     0
291
     1
 45
0.0
  0
VISUALSTYLE
  5
34
102
{ACAD_REACTORS
330
2A
102
}
102
{ACAD_XDICTIONARY
360
9D
102
}
330
2A
100
AcDbVisualStyle
  2
Conceptual
 70
     9
 71
     3
 72
     2
 73
     0
 90
        0
 40
-0.6
 41
-30.0
 62
     5
 63
     7
421
 16777215
 74
     2
 91
        2
 64
     7
 65
   257
 75
     1
175
     1
 42
40.0
 92
        8
 66
     7
 43
1.0
 76
     1
 77
     6
 78
     2
 67
     7
 79
     3
170
     0
171
     0
290
     0
174
     0
 93
        1
 44
0.0
173
     0
291
     0
 45
0.0
  0
VISUALSTYLE
  5
35
102
{ACAD_REACTORS
330
2A
102
}
102
{ACAD_XDICTIONARY
360
9F
102
}
330
2A
100
AcDbVisualStyle
  2
Dim
 70
    11
 71
     2
 72
     2
 73
     0
 90
        0
 40
-0.6
 41
-30.0
 62
     5
 63
     7
421
 16777215
 74
     1
 91
        4
 64
     7
 65
   257
 75
     1
175
     1
 42
1.0
 92
        8
 66
     7
 43
1.0
 76
     1
 77
     6
 78
     2
 67
     7
 79
     5
170
     0
171
     0
290
     0
174
     0
 93
        1
 44
-50.0
173
     0
291
     1
 45
0.0
  0
VISUALSTYLE
  5
39
102
{ACAD_REACTORS
330
2A
102
}
102
{ACAD_XDICTIONARY
360
A7
102
}
330
2A
100
AcDbVisualStyle
  2
Facepattern
 70
    15
 71
     2
 72
     2
 73
     0
 90
        0
 40
-0.6
 41
-30.0
 62
     5
 63
     7
421
 16777215
 74
     1
 91
        4
 64
     7
 65
   257
 75
     1
175
     1
 42
1.0
 92
        8
 66
     7
 43
1.0
 76
     1
 77
     6
 78
     2
 67
     7
 79
     5
170
     0
171
     0
290
     0
174
     0
 93
        1
 44
0.0
173
     0
291
     1
 45
0.0
  0
VISUALSTYLE
  5
2B
102
{ACAD_REACTORS
330
2A
102
}
102
{ACAD_XDICTIONARY
360
8B
102
}
330
2A
100
AcDbVisualStyle
  2
Flat
 70
     0
 71
     2
 72
     1
 73
     1
 90
        2
 40
-0.6
 41
30.0
 62
     5
 63
     7
421
 16777215
 74
     0
 91
        4
 64
     7
 65
   257
 75
     1
175
     1
 42
1.0
 92
        8
 66
     7
 43
1.0
 76
     1
 77
     6
 78
     2
 67
     7
 79
     5
170
     0
171
     0
290
     0
174
     0
 93
       13
 44
0.0
173
     0
291
     1
 45
0.0
  0
VISUALSTYLE
  5
2C
102
{ACAD_REACTORS
330
2A
102
}
102
{ACAD_XDICTIONARY
360
8D
102
}
330
2A
100
AcDbVisualStyle
  2
FlatWithEdges
 70
     1
 71
     2
 72
     1
 73
     1
 90
        2
 40
-0.6
 41
30.0
 62
     5
 63
     7
421
 16777215
 74
     1
 91
        4
 64
     7
 65
   257
 75
     1
175
     1
 42
1.0
 92
        0
 66
   257
 43
1.0
 76
     1
 77
     6
 78
     2
 67
     7
 79
     5
170
     0
171
     0
290
     0
174
     0
 93
       13
 44
0.0
173
     0
291
     1
 45
0.0
  0
VISUALSTYLE
  5
2D
102
{ACAD_REACTORS
330
2A
102
}
102
{ACAD_XDICTIONARY
360
8F
102
}
330
2A
100
AcDbVisualStyle
  2
Gouraud
 70
     2
 71
     2
 72
     2
 73
     1
 90
        2
 40
-0.6
 41
30.0
 62
     5
 63
     7
421
 16777215
 74
     0
 91
        4
 64
     7
 65
   257
 75
     1
175
     1
 42
1.0
 92
        0
 66
     7
 43
1.0
 76
     1
 77
     6
 78
     2
 67
     7
 79
     5
170
     0
171
     0
290
     0
174
     0
 93
       13
 44
0.0
173
     0
291
     1
 45
0.0
  0
VISUALSTYLE
  5
2E
102
{ACAD_REACTORS
330
2A
102
}
102
{ACAD_XDICTIONARY
360
91
102
}
330
2A
100
AcDbVisualStyle
  2
GouraudWithEdges
 70
     3
 71
     2
 72
     2
 73
     1
 90
        2
 40
-0.6
 41
30.0
 62
     5
 63
     7
421
 16777215
 74
     1
 91
        4
 64
     7
 65
   257
 75
     1
175
     1
 42
1.0
 92
        0
 66
   257
 43
1.0
 76
     1
 77
     6
 78
     2
 67
     7
 79
     5
170
     0
171
     0
290
     0
174
     0
 93
       13
 44
0.0
173
     0
291
     1
 45
0.0
  0
VISUALSTYLE
  5
38
102
{ACAD_REACTORS
330
2A
102
}
102
{ACAD_XDICTIONARY
360
A5
102
}
330
2A
100
AcDbVisualStyle
  2
Linepattern
 70
    14
 71
     2
 72
     2
 73
     0
 90
        0
 40
-0.6
 41
-30.0
 62
     5
 63
     7
421
 16777215
 74
     1
 91
        4
 64
     7
 65
   257
 75
     7
175
     7
 42
1.0
 92
        8
 66
     7
 43
1.0
 76
     1
 77
     6
 78
     2
 67
     7
 79
     5
170
     0
171
     0
290
     0
174
     0
 93
        1
 44
0.0
173
     0
291
     1
 45
0.0
  0
VISUALSTYLE
  5
33
102
{ACAD_REACTORS
330
2A
102
}
102
{ACAD_XDICTIONARY
360
9B
102
}
330
2A
100
AcDbVisualStyle
  2
Realistic
 70
     8
 71
     2
 72
     2
 73
     0
 90
        0
 40
-0.6
 41
-30.0
 62
     5
 63
     7
421
 16777215
 74
     1
 91
        0
 64
     7
 65
   257
 75
     1
175
     1
 42
1.0
 92
        8
 66
     8
424
  7895160
 43
1.0
 76
     1
 77
     6
 78
     2
 67
     7
 79
     5
170
     0
171
     0
290
     0
174
     0
 93
       13
 44
0.0
173
     0
291
     0
 45
0.0
  0
VISUALSTYLE
  5
37
102
{ACAD_REACTORS
330
2A
102
}
102
{ACAD_XDICTIONARY
360
A3
102
}
330
2A
100
AcDbVisualStyle
  2
Thicken
 70
    13
 71
     2
 72
     2
 73
     0
 90
        0
 40
-0.6
 41
-30.0
 62
     5
 63
     7
421
 16777215
 74
     1
 91
        4
 64
     7
 65
   257
 75
     1
175
     1
 42
1.0
 92
       12
 66
     7
 43
1.0
 76
     1
 77
     6
 78
     2
 67
     7
 79
     5
170
     0
171
     0
290
     0
174
     0
 93
        1
 44
0.0
173
     0
291
     1
 45
0.0
  0
DICTIONARY
  5
93
330
2F
100
AcDbDictionary
280
     1
281
     1
  3
ACAD_XREC_ROUNDTRIP
360
94
  0
DICTIONARY
  5
97
330
31
100
AcDbDictionary
280
     1
281
     1
  3
ACAD_XREC_ROUNDTRIP
360
98
  0
DICTIONARY
  5
95
330
30
100
AcDbDictionary
280
     1
281
     1
  3
ACAD_XREC_ROUNDTRIP
360
96
  0
DICTIONARY
  5
99
330
32
100
AcDbDictionary
280
     1
281
     1
  3
ACAD_XREC_ROUNDTRIP
360
9A
  0
DICTIONARY
  5
A1
330
36
100
AcDbDictionary
280
     1
281
     1
  3
ACAD_XREC_ROUNDTRIP
360
A2
  0
DICTIONARY
  5
A9
330
3A
100
AcDbDictionary
280
     1
281
     1
  3
ACAD_XREC_ROUNDTRIP
360
AA
  0
DICTIONARY
  5
9D
330
34
100
AcDbDictionary
280
     1
281
     1
  3
ACAD_XREC_ROUNDTRIP
360
9E
  0
DICTIONARY
  5
9F
330
35
100
AcDbDictionary
280
     1
281
     1
  3
ACAD_XREC_ROUNDTRIP
360
A0
  0
DICTIONARY
  5
A7
330
39
100
AcDbDictionary
280
     1
281
     1
  3
ACAD_XREC_ROUNDTRIP
360
A8
  0
DICTIONARY
  5
8B
330
2B
100
AcDbDictionary
280
     1
281
     1
  3
ACAD_XREC_ROUNDTRIP
360
8C
  0
DICTIONARY
  5
8D
330
2C
100
AcDbDictionary
280
     1
281
     1
  3
ACAD_XREC_ROUNDTRIP
360
8E
  0
DICTIONARY
  5
8F
330
2D
100
AcDbDictionary
280
     1
281
     1
  3
ACAD_XREC_ROUNDTRIP
360
90
  0
DICTIONARY
  5
91
330
2E
100
AcDbDictionary
280
     1
281
     1
  3
ACAD_XREC_ROUNDTRIP
360
92
  0
DICTIONARY
  5
A5
330
38
100
AcDbDictionary
280
     1
281
     1
  3
ACAD_XREC_ROUNDTRIP
360
A6
  0
DICTIONARY
  5
9B
330
33
100
AcDbDictionary
280
     1
281
     1
  3
ACAD_XREC_ROUNDTRIP
360
9C
  0
DICTIONARY
  5
A3
330
37
100
AcDbDictionary
280
     1
281
     1
  3
ACAD_XREC_ROUNDTRIP
360
A4
  0
XRECORD
  5
94
102
{ACAD_REACTORS
330
93
102
}
330
93
100
AcDbXrecord
280
     1
102
RTVSPropertyOp0
 70
     1
102
RTVSPropertyOp1
 70
     1
102
RTVSPropertyOp2
 70
     1
102
RTVSPropertyOp3
 70
     1
102
RTVSPropertyOp4
 70
     1
102
RTVSPropertyOp5
 70
     1
102
RTVSPropertyOp6
 70
     1
102
RTVSPropertyOp7
 70
     1
102
RTVSPropertyOp8
 70
     1
102
RTVSPropertyOp9
 70
     1
102
RTVSPropertyOp10
 70
     1
102
RTVSPropertyOp11
 70
     1
102
RTVSPropertyOp12
 70
     1
102
RTVSPropertyOp13
 70
     1
102
RTVSPropertyOp14
 70
     1
102
RTVSPropertyOp15
 70
     1
102
RTVSPropertyOp16
 70
     1
102
RTVSPropertyOp17
 70
     1
102
RTVSPropertyOp18
 70
     1
102
RTVSPropertyOp19
 70
     1
102
RTVSPropertyOp20
 70
     1
102
RTVSPropertyOp21
 70
     1
102
RTVSPropertyOp22
 70
     1
102
RTVSPropertyOp23
 70
     1
102
RTVSPropertyOp24
 70
     1
102
RTVSPropertyOp25
 70
     1
102
RTVSPropertyOp26
 70
     1
102
RTVSPropertyOp27
 70
     1
102
RTVSPropertyOp28
 70
     1
102
RTVSPropertyOp29
 70
     1
102
RTVSPropertyOp30
 70
     1
102
RTVSPropertyOp31
 70
     1
102
RTVSPropertyOp32
 70
     1
  0
XRECORD
  5
98
102
{ACAD_REACTORS
330
97
102
}
330
97
100
AcDbXrecord
280
     1
102
RTVSPropertyOp0
 70
     1
102
RTVSPropertyOp1
 70
     1
102
RTVSPropertyOp2
 70
     1
102
RTVSPropertyOp3
 70
     1
102
RTVSPropertyOp4
 70
     1
102
RTVSPropertyOp5
 70
     1
102
RTVSPropertyOp6
 70
     1
102
RTVSPropertyOp7
 70
     1
102
RTVSPropertyOp8
 70
     1
102
RTVSPropertyOp9
 70
     1
102
RTVSPropertyOp10
 70
     1
102
RTVSPropertyOp11
 70
     1
102
RTVSPropertyOp12
 70
     1
102
RTVSPropertyOp13
 70
     1
102
RTVSPropertyOp14
 70
     1
102
RTVSPropertyOp15
 70
     1
102
RTVSPropertyOp16
 70
     1
102
RTVSPropertyOp17
 70
     1
102
RTVSPropertyOp18
 70
     1
102
RTVSPropertyOp19
 70
     1
102
RTVSPropertyOp20
 70
     1
102
RTVSPropertyOp21
 70
     1
102
RTVSPropertyOp22
 70
     1
102
RTVSPropertyOp23
 70
     1
102
RTVSPropertyOp24
 70
     1
102
RTVSPropertyOp25
 70
     1
102
RTVSPropertyOp26
 70
     1
102
RTVSPropertyOp27
 70
     1
102
RTVSPropertyOp28
 70
     1
102
RTVSPropertyOp29
 70
     1
102
RTVSPropertyOp30
 70
     1
102
RTVSPropertyOp31
 70
     1
102
RTVSPropertyOp32
 70
     1
  0
XRECORD
  5
96
102
{ACAD_REACTORS
330
95
102
}
330
95
100
AcDbXrecord
280
     1
102
RTVSPropertyOp0
 70
     1
102
RTVSPropertyOp1
 70
     1
102
RTVSPropertyOp2
 70
     1
102
RTVSPropertyOp3
 70
     1
102
RTVSPropertyOp4
 70
     1
102
RTVSPropertyOp5
 70
     1
102
RTVSPropertyOp6
 70
     1
102
RTVSPropertyOp7
 70
     1
102
RTVSPropertyOp8
 70
     1
102
RTVSPropertyOp9
 70
     1
102
RTVSPropertyOp10
 70
     1
102
RTVSPropertyOp11
 70
     1
102
RTVSPropertyOp12
 70
     1
102
RTVSPropertyOp13
 70
     1
102
RTVSPropertyOp14
 70
     1
102
RTVSPropertyOp15
 70
     1
102
RTVSPropertyOp16
 70
     1
102
RTVSPropertyOp17
 70
     1
102
RTVSPropertyOp18
 70
     1
102
RTVSPropertyOp19
 70
     1
102
RTVSPropertyOp20
 70
     1
102
RTVSPropertyOp21
 70
     1
102
RTVSPropertyOp22
 70
     1
102
RTVSPropertyOp23
 70
     1
102
RTVSPropertyOp24
 70
     1
102
RTVSPropertyOp25
 70
     1
102
RTVSPropertyOp26
 70
     1
102
RTVSPropertyOp27
 70
     1
102
RTVSPropertyOp28
 70
     1
102
RTVSPropertyOp29
 70
     1
102
RTVSPropertyOp30
 70
     1
102
RTVSPropertyOp31
 70
     1
102
RTVSPropertyOp32
 70
     1
  0
XRECORD
  5
9A
102
{ACAD_REACTORS
330
99
102
}
330
99
100
AcDbXrecord
280
     1
102
RTVSPropertyOp0
 70
     1
102
RTVSPropertyOp1
 70
     1
102
RTVSPropertyOp2
 70
     1
102
RTVSPropertyOp3
 70
     1
102
RTVSPropertyOp4
 70
     1
102
RTVSPropertyOp5
 70
     1
102
RTVSPropertyOp6
 70
     1
102
RTVSPropertyOp7
 70
     1
102
RTVSPropertyOp8
 70
     1
102
RTVSPropertyOp9
 70
     1
102
RTVSPropertyOp10
 70
     1
102
RTVSPropertyOp11
 70
     1
102
RTVSPropertyOp12
 70
     1
102
RTVSPropertyOp13
 70
     1
102
RTVSPropertyOp14
 70
     1
102
RTVSPropertyOp15
 70
     1
102
RTVSPropertyOp16
 70
     1
102
RTVSPropertyOp17
 70
     1
102
RTVSPropertyOp18
 70
     1
102
RTVSPropertyOp19
 70
     1
102
RTVSPropertyOp20
 70
     1
102
RTVSPropertyOp21
 70
     1
102
RTVSPropertyOp22
 70
     1
102
RTVSPropertyOp23
 70
     1
102
RTVSPropertyOp24
 70
     1
102
RTVSPropertyOp25
 70
     1
102
RTVSPropertyOp26
 70
     1
102
RTVSPropertyOp27
 70
     1
102
RTVSPropertyOp28
 70
     1
102
RTVSPropertyOp29
 70
     1
102
RTVSPropertyOp30
 70
     1
102
RTVSPropertyOp31
 70
     1
102
RTVSPropertyOp32
 70
     1
  0
XRECORD
  5
A2
102
{ACAD_REACTORS
330
A1
102
}
330
A1
100
AcDbXrecord
280
     1
102
RTVSPropertyOp0
 70
     1
102
RTVSPropertyOp1
 70
     1
102
RTVSPropertyOp2
 70
     1
102
RTVSPropertyOp3
 70
     1
102
RTVSPropertyOp4
 70
     1
102
RTVSPropertyOp5
 70
     1
102
RTVSPropertyOp6
 70
     1
102
RTVSPropertyOp7
 70
     1
102
RTVSPropertyOp8
 70
     1
102
RTVSPropertyOp9
 70
     1
102
RTVSPropertyOp10
 70
     1
102
RTVSPropertyOp11
 70
     1
102
RTVSPropertyOp12
 70
     1
102
RTVSPropertyOp13
 70
     1
102
RTVSPropertyOp14
 70
     1
102
RTVSPropertyOp15
 70
     1
102
RTVSPropertyOp16
 70
     1
102
RTVSPropertyOp17
 70
     1
102
RTVSPropertyOp18
 70
     1
102
RTVSPropertyOp19
 70
     1
102
RTVSPropertyOp20
 70
     1
102
RTVSPropertyOp21
 70
     1
102
RTVSPropertyOp22
 70
     1
102
RTVSPropertyOp23
 70
     1
102
RTVSPropertyOp24
 70
     1
102
RTVSPropertyOp25
 70
     1
102
RTVSPropertyOp26
 70
     1
102
RTVSPropertyOp27
 70
     1
102
RTVSPropertyOp28
 70
     1
102
RTVSPropertyOp29
 70
     1
102
RTVSPropertyOp30
 70
     1
102
RTVSPropertyOp31
 70
     1
102
RTVSPropertyOp32
 70
     1
  0
XRECORD
  5
AA
102
{ACAD_REACTORS
330
A9
102
}
330
A9
100
AcDbXrecord
280
     1
102
RTVSPropertyOp0
 70
     1
102
RTVSPropertyOp1
 70
     1
102
RTVSPropertyOp2
 70
     1
102
RTVSPropertyOp3
 70
     1
102
RTVSPropertyOp4
 70
     1
102
RTVSPropertyOp5
 70
     1
102
RTVSPropertyOp6
 70
     1
102
RTVSPropertyOp7
 70
     1
102
RTVSPropertyOp8
 70
     1
102
RTVSPropertyOp9
 70
     1
102
RTVSPropertyOp10
 70
     1
102
RTVSPropertyOp11
 70
     1
102
RTVSPropertyOp12
 70
     1
102
RTVSPropertyOp13
 70
     1
102
RTVSPropertyOp14
 70
     1
102
RTVSPropertyOp15
 70
     1
102
RTVSPropertyOp16
 70
     1
102
RTVSPropertyOp17
 70
     1
102
RTVSPropertyOp18
 70
     1
102
RTVSPropertyOp19
 70
     1
102
RTVSPropertyOp20
 70
     1
102
RTVSPropertyOp21
 70
     1
102
RTVSPropertyOp22
 70
     1
102
RTVSPropertyOp23
 70
     1
102
RTVSPropertyOp24
 70
     1
102
RTVSPropertyOp25
 70
     1
102
RTVSPropertyOp26
 70
     1
102
RTVSPropertyOp27
 70
     1
102
RTVSPropertyOp28
 70
     1
102
RTVSPropertyOp29
 70
     1
102
RTVSPropertyOp30
 70
     1
102
RTVSPropertyOp31
 70
     1
102
RTVSPropertyOp32
 70
     1
  0
XRECORD
  5
9E
102
{ACAD_REACTORS
330
9D
102
}
330
9D
100
AcDbXrecord
280
     1
102
RTVSPropertyOp0
 70
     1
102
RTVSPropertyOp1
 70
     1
102
RTVSPropertyOp2
 70
     1
102
RTVSPropertyOp3
 70
     1
102
RTVSPropertyOp4
 70
     1
102
RTVSPropertyOp5
 70
     1
102
RTVSPropertyOp6
 70
     1
102
RTVSPropertyOp7
 70
     1
102
RTVSPropertyOp8
 70
     1
102
RTVSPropertyOp9
 70
     1
102
RTVSPropertyOp10
 70
     1
102
RTVSPropertyOp11
 70
     1
102
RTVSPropertyOp12
 70
     1
102
RTVSPropertyOp13
 70
     1
102
RTVSPropertyOp14
 70
     1
102
RTVSPropertyOp15
 70
     1
102
RTVSPropertyOp16
 70
     1
102
RTVSPropertyOp17
 70
     1
102
RTVSPropertyOp18
 70
     1
102
RTVSPropertyOp19
 70
     1
102
RTVSPropertyOp20
 70
     1
102
RTVSPropertyOp21
 70
     1
102
RTVSPropertyOp22
 70
     1
102
RTVSPropertyOp23
 70
     1
102
RTVSPropertyOp24
 70
     1
102
RTVSPropertyOp25
 70
     1
102
RTVSPropertyOp26
 70
     1
102
RTVSPropertyOp27
 70
     1
102
RTVSPropertyOp28
 70
     1
102
RTVSPropertyOp29
 70
     1
102
RTVSPropertyOp30
 70
     1
102
RTVSPropertyOp31
 70
     1
102
RTVSPropertyOp32
 70
     1
  0
XRECORD
  5
A0
102
{ACAD_REACTORS
330
9F
102
}
330
9F
100
AcDbXrecord
280
     1
102
RTVSPropertyOp0
 70
     1
102
RTVSPropertyOp1
 70
     1
102
RTVSPropertyOp2
 70
     1
102
RTVSPropertyOp3
 70
     1
102
RTVSPropertyOp4
 70
     1
102
RTVSPropertyOp5
 70
     1
102
RTVSPropertyOp6
 70
     1
102
RTVSPropertyOp7
 70
     1
102
RTVSPropertyOp8
 70
     1
102
RTVSPropertyOp9
 70
     1
102
RTVSPropertyOp10
 70
     1
102
RTVSPropertyOp11
 70
     1
102
RTVSPropertyOp12
 70
     1
102
RTVSPropertyOp13
 70
     1
102
RTVSPropertyOp14
 70
     1
102
RTVSPropertyOp15
 70
     1
102
RTVSPropertyOp16
 70
     1
102
RTVSPropertyOp17
 70
     1
102
RTVSPropertyOp18
 70
     1
102
RTVSPropertyOp19
 70
     1
102
RTVSPropertyOp20
 70
     1
102
RTVSPropertyOp21
 70
     1
102
RTVSPropertyOp22
 70
     1
102
RTVSPropertyOp23
 70
     1
102
RTVSPropertyOp24
 70
     1
102
RTVSPropertyOp25
 70
     1
102
RTVSPropertyOp26
 70
     1
102
RTVSPropertyOp27
 70
     1
102
RTVSPropertyOp28
 70
     1
102
RTVSPropertyOp29
 70
     1
102
RTVSPropertyOp30
 70
     1
102
RTVSPropertyOp31
 70
     1
102
RTVSPropertyOp32
 70
     1
  0
XRECORD
  5
A8
102
{ACAD_REACTORS
330
A7
102
}
330
A7
100
AcDbXrecord
280
     1
102
RTVSPropertyOp0
 70
     1
102
RTVSPropertyOp1
 70
     1
102
RTVSPropertyOp2
 70
     1
102
RTVSPropertyOp3
 70
     1
102
RTVSPropertyOp4
 70
     1
102
RTVSPropertyOp5
 70
     1
102
RTVSPropertyOp6
 70
     1
102
RTVSPropertyOp7
 70
     1
102
RTVSPropertyOp8
 70
     1
102
RTVSPropertyOp9
 70
     1
102
RTVSPropertyOp10
 70
     1
102
RTVSPropertyOp11
 70
     1
102
RTVSPropertyOp12
 70
     1
102
RTVSPropertyOp13
 70
     1
102
RTVSPropertyOp14
 70
     1
102
RTVSPropertyOp15
 70
     1
102
RTVSPropertyOp16
 70
     1
102
RTVSPropertyOp17
 70
     1
102
RTVSPropertyOp18
 70
     1
102
RTVSPropertyOp19
 70
     1
102
RTVSPropertyOp20
 70
     1
102
RTVSPropertyOp21
 70
     1
102
RTVSPropertyOp22
 70
     1
102
RTVSPropertyOp23
 70
     1
102
RTVSPropertyOp24
 70
     1
102
RTVSPropertyOp25
 70
     1
102
RTVSPropertyOp26
 70
     1
102
RTVSPropertyOp27
 70
     1
102
RTVSPropertyOp28
 70
     1
102
RTVSPropertyOp29
 70
     1
102
RTVSPropertyOp30
 70
     1
102
RTVSPropertyOp31
 70
     1
102
RTVSPropertyOp32
 70
     1
  0
XRECORD
  5
8C
102
{ACAD_REACTORS
330
8B
102
}
330
8B
100
AcDbXrecord
280
     1
102
RTVSPropertyOp0
 70
     1
102
RTVSPropertyOp1
 70
     1
102
RTVSPropertyOp2
 70
     1
102
RTVSPropertyOp3
 70
     1
102
RTVSPropertyOp4
 70
     1
102
RTVSPropertyOp5
 70
     1
102
RTVSPropertyOp6
 70
     1
102
RTVSPropertyOp7
 70
     1
102
RTVSPropertyOp8
 70
     1
102
RTVSPropertyOp9
 70
     1
102
RTVSPropertyOp10
 70
     1
102
RTVSPropertyOp11
 70
     1
102
RTVSPropertyOp12
 70
     1
102
RTVSPropertyOp13
 70
     1
102
RTVSPropertyOp14
 70
     1
102
RTVSPropertyOp15
 70
     1
102
RTVSPropertyOp16
 70
     1
102
RTVSPropertyOp17
 70
     1
102
RTVSPropertyOp18
 70
     1
102
RTVSPropertyOp19
 70
     1
102
RTVSPropertyOp20
 70
     1
102
RTVSPropertyOp21
 70
     1
102
RTVSPropertyOp22
 70
     1
102
RTVSPropertyOp23
 70
     1
102
RTVSPropertyOp24
 70
     1
102
RTVSPropertyOp25
 70
     1
102
RTVSPropertyOp26
 70
     1
102
RTVSPropertyOp27
 70
     1
102
RTVSPropertyOp28
 70
     1
102
RTVSPropertyOp29
 70
     1
102
RTVSPropertyOp30
 70
     1
102
RTVSPropertyOp31
 70
     1
102
RTVSPropertyOp32
 70
     1
  0
XRECORD
  5
8E
102
{ACAD_REACTORS
330
8D
102
}
330
8D
100
AcDbXrecord
280
     1
102
RTVSPropertyOp0
 70
     1
102
RTVSPropertyOp1
 70
     1
102
RTVSPropertyOp2
 70
     1
102
RTVSPropertyOp3
 70
     1
102
RTVSPropertyOp4
 70
     1
102
RTVSPropertyOp5
 70
     1
102
RTVSPropertyOp6
 70
     1
102
RTVSPropertyOp7
 70
     1
102
RTVSPropertyOp8
 70
     1
102
RTVSPropertyOp9
 70
     1
102
RTVSPropertyOp10
 70
     1
102
RTVSPropertyOp11
 70
     1
102
RTVSPropertyOp12
 70
     1
102
RTVSPropertyOp13
 70
     1
102
RTVSPropertyOp14
 70
     1
102
RTVSPropertyOp15
 70
     1
102
RTVSPropertyOp16
 70
     1
102
RTVSPropertyOp17
 70
     1
102
RTVSPropertyOp18
 70
     1
102
RTVSPropertyOp19
 70
     1
102
RTVSPropertyOp20
 70
     1
102
RTVSPropertyOp21
 70
     1
102
RTVSPropertyOp22
 70
     1
102
RTVSPropertyOp23
 70
     1
102
RTVSPropertyOp24
 70
     1
102
RTVSPropertyOp25
 70
     1
102
RTVSPropertyOp26
 70
     1
102
RTVSPropertyOp27
 70
     1
102
RTVSPropertyOp28
 70
     1
102
RTVSPropertyOp29
 70
     1
102
RTVSPropertyOp30
 70
     1
102
RTVSPropertyOp31
 70
     1
102
RTVSPropertyOp32
 70
     1
  0
XRECORD
  5
90
102
{ACAD_REACTORS
330
8F
102
}
330
8F
100
AcDbXrecord
280
     1
102
RTVSPropertyOp0
 70
     1
102
RTVSPropertyOp1
 70
     1
102
RTVSPropertyOp2
 70
     1
102
RTVSPropertyOp3
 70
     1
102
RTVSPropertyOp4
 70
     1
102
RTVSPropertyOp5
 70
     1
102
RTVSPropertyOp6
 70
     1
102
RTVSPropertyOp7
 70
     1
102
RTVSPropertyOp8
 70
     1
102
RTVSPropertyOp9
 70
     1
102
RTVSPropertyOp10
 70
     1
102
RTVSPropertyOp11
 70
     1
102
RTVSPropertyOp12
 70
     1
102
RTVSPropertyOp13
 70
     1
102
RTVSPropertyOp14
 70
     1
102
RTVSPropertyOp15
 70
     1
102
RTVSPropertyOp16
 70
     1
102
RTVSPropertyOp17
 70
     1
102
RTVSPropertyOp18
 70
     1
102
RTVSPropertyOp19
 70
     1
102
RTVSPropertyOp20
 70
     1
102
RTVSPropertyOp21
 70
     1
102
RTVSPropertyOp22
 70
     1
102
RTVSPropertyOp23
 70
     1
102
RTVSPropertyOp24
 70
     1
102
RTVSPropertyOp25
 70
     1
102
RTVSPropertyOp26
 70
     1
102
RTVSPropertyOp27
 70
     1
102
RTVSPropertyOp28
 70
     1
102
RTVSPropertyOp29
 70
     1
102
RTVSPropertyOp30
 70
     1
102
RTVSPropertyOp31
 70
     1
102
RTVSPropertyOp32
 70
     1
  0
XRECORD
  5
92
102
{ACAD_REACTORS
330
91
102
}
330
91
100
AcDbXrecord
280
     1
102
RTVSPropertyOp0
 70
     1
102
RTVSPropertyOp1
 70
     1
102
RTVSPropertyOp2
 70
     1
102
RTVSPropertyOp3
 70
     1
102
RTVSPropertyOp4
 70
     1
102
RTVSPropertyOp5
 70
     1
102
RTVSPropertyOp6
 70
     1
102
RTVSPropertyOp7
 70
     1
102
RTVSPropertyOp8
 70
     1
102
RTVSPropertyOp9
 70
     1
102
RTVSPropertyOp10
 70
     1
102
RTVSPropertyOp11
 70
     1
102
RTVSPropertyOp12
 70
     1
102
RTVSPropertyOp13
 70
     1
102
RTVSPropertyOp14
 70
     1
102
RTVSPropertyOp15
 70
     1
102
RTVSPropertyOp16
 70
     1
102
RTVSPropertyOp17
 70
     1
102
RTVSPropertyOp18
 70
     1
102
RTVSPropertyOp19
 70
     1
102
RTVSPropertyOp20
 70
     1
102
RTVSPropertyOp21
 70
     1
102
RTVSPropertyOp22
 70
     1
102
RTVSPropertyOp23
 70
     1
102
RTVSPropertyOp24
 70
     1
102
RTVSPropertyOp25
 70
     1
102
RTVSPropertyOp26
 70
     1
102
RTVSPropertyOp27
 70
     1
102
RTVSPropertyOp28
 70
     1
102
RTVSPropertyOp29
 70
     1
102
RTVSPropertyOp30
 70
     1
102
RTVSPropertyOp31
 70
     1
102
RTVSPropertyOp32
 70
     1
  0
XRECORD
  5
A6
102
{ACAD_REACTORS
330
A5
102
}
330
A5
100
AcDbXrecord
280
     1
102
RTVSPropertyOp0
 70
     1
102
RTVSPropertyOp1
 70
     1
102
RTVSPropertyOp2
 70
     1
102
RTVSPropertyOp3
 70
     1
102
RTVSPropertyOp4
 70
     1
102
RTVSPropertyOp5
 70
     1
102
RTVSPropertyOp6
 70
     1
102
RTVSPropertyOp7
 70
     1
102
RTVSPropertyOp8
 70
     1
102
RTVSPropertyOp9
 70
     1
102
RTVSPropertyOp10
 70
     1
102
RTVSPropertyOp11
 70
     1
102
RTVSPropertyOp12
 70
     1
102
RTVSPropertyOp13
 70
     1
102
RTVSPropertyOp14
 70
     1
102
RTVSPropertyOp15
 70
     1
102
RTVSPropertyOp16
 70
     1
102
RTVSPropertyOp17
 70
     1
102
RTVSPropertyOp18
 70
     1
102
RTVSPropertyOp19
 70
     1
102
RTVSPropertyOp20
 70
     1
102
RTVSPropertyOp21
 70
     1
102
RTVSPropertyOp22
 70
     1
102
RTVSPropertyOp23
 70
     1
102
RTVSPropertyOp24
 70
     1
102
RTVSPropertyOp25
 70
     1
102
RTVSPropertyOp26
 70
     1
102
RTVSPropertyOp27
 70
     1
102
RTVSPropertyOp28
 70
     1
102
RTVSPropertyOp29
 70
     1
102
RTVSPropertyOp30
 70
     1
102
RTVSPropertyOp31
 70
     1
102
RTVSPropertyOp32
 70
     1
  0
XRECORD
  5
9C
102
{ACAD_REACTORS
330
9B
102
}
330
9B
100
AcDbXrecord
280
     1
102
RTVSPropertyOp0
 70
     1
102
RTVSPropertyOp1
 70
     1
102
RTVSPropertyOp2
 70
     1
102
RTVSPropertyOp3
 70
     1
102
RTVSPropertyOp4
 70
     1
102
RTVSPropertyOp5
 70
     1
102
RTVSPropertyOp6
 70
     1
102
RTVSPropertyOp7
 70
     1
102
RTVSPropertyOp8
 70
     1
102
RTVSPropertyOp9
 70
     1
102
RTVSPropertyOp10
 70
     1
102
RTVSPropertyOp11
 70
     1
102
RTVSPropertyOp12
 70
     1
102
RTVSPropertyOp13
 70
     1
102
RTVSPropertyOp14
 70
     1
102
RTVSPropertyOp15
 70
     1
102
RTVSPropertyOp16
 70
     1
102
RTVSPropertyOp17
 70
     1
102
RTVSPropertyOp18
 70
     1
102
RTVSPropertyOp19
 70
     1
102
RTVSPropertyOp20
 70
     1
102
RTVSPropertyOp21
 70
     1
102
RTVSPropertyOp22
 70
     1
102
RTVSPropertyOp23
 70
     1
102
RTVSPropertyOp24
 70
     1
102
RTVSPropertyOp25
 70
     1
102
RTVSPropertyOp26
 70
     1
102
RTVSPropertyOp27
 70
     1
102
RTVSPropertyOp28
 70
     1
102
RTVSPropertyOp29
 70
     1
102
RTVSPropertyOp30
 70
     1
102
RTVSPropertyOp31
 70
     1
102
RTVSPropertyOp32
 70
     1
  0
XRECORD
  5
A4
102
{ACAD_REACTORS
330
A3
102
}
330
A3
100
AcDbXrecord
280
     1
102
RTVSPropertyOp0
 70
     1
102
RTVSPropertyOp1
 70
     1
102
RTVSPropertyOp2
 70
     1
102
RTVSPropertyOp3
 70
     1
102
RTVSPropertyOp4
 70
     1
102
RTVSPropertyOp5
 70
     1
102
RTVSPropertyOp6
 70
     1
102
RTVSPropertyOp7
 70
     1
102
RTVSPropertyOp8
 70
     1
102
RTVSPropertyOp9
 70
     1
102
RTVSPropertyOp10
 70
     1
102
RTVSPropertyOp11
 70
     1
102
RTVSPropertyOp12
 70
     1
102
RTVSPropertyOp13
 70
     1
102
RTVSPropertyOp14
 70
     1
102
RTVSPropertyOp15
 70
     1
102
RTVSPropertyOp16
 70
     1
102
RTVSPropertyOp17
 70
     1
102
RTVSPropertyOp18
 70
     1
102
RTVSPropertyOp19
 70
     1
102
RTVSPropertyOp20
 70
     1
102
RTVSPropertyOp21
 70
     1
102
RTVSPropertyOp22
 70
     1
102
RTVSPropertyOp23
 70
     1
102
RTVSPropertyOp24
 70
     1
102
RTVSPropertyOp25
 70
     1
102
RTVSPropertyOp26
 70
     1
102
RTVSPropertyOp27
 70
     1
102
RTVSPropertyOp28
 70
     1
102
RTVSPropertyOp29
 70
     1
102
RTVSPropertyOp30
 70
     1
102
RTVSPropertyOp31
 70
     1
102
RTVSPropertyOp32
 70
     1
  0
ENDSEC
  0
EOF
