  0
SECTION
  2
HEADER
  9
$ACADVER
  1
AC1021
  9
$ACADMAINTVER
 70
    25
  9
$DWGCODEPAGE
  3
ANSI_1252
  9
$INSBASE
 10
0.0
 20
0.0
 30
0.0
  9
$EXTMIN
 10
50.4836
 20
-106.2999
 30
0.0
  9
$EXTMAX
 10
196.6457
 20
131.8919
 30
0.0
  9
$LIMMIN
 10
0.0
 20
0.0
  9
$LIMMAX
 10
12.0
 20
9.0
  9
$ORTHOMODE
 70
     0
  9
$REGENMODE
 70
     1
  9
$FILLMODE
 70
     1
  9
$QTEXTMODE
 70
     0
  9
$MIRRTEXT
 70
     1
  9
$LTSCALE
 40
1.0
  9
$ATTMODE
 70
     1
  9
$TEXTSIZE
 40
0.2
  9
$TRACEWID
 40
0.05
  9
$TEXTSTYLE
  7
Standard
  9
$CLAYER
  8
0
  9
$CELTYPE
  6
ByLayer
  9
$CECOLOR
 62
   256
  9
$CELTSCALE
 40
1.0
  9
$DISPSILH
 70
     0
  9
$DIMSCALE
 40
1.0
  9
$DIMASZ
 40
0.18
  9
$DIMEXO
 40
0.0625
  9
$DIMDLI
 40
0.38
  9
$DIMRND
 40
0.0
  9
$DIMDLE
 40
0.0
  9
$DIMEXE
 40
0.18
  9
$DIMTP
 40
0.0
  9
$DIMTM
 40
0.0
  9
$DIMTXT
 40
0.18
  9
$DIMCEN
 40
0.09
  9
$DIMTSZ
 40
0.0
  9
$DIMTOL
 70
     0
  9
$DIMLIM
 70
     0
  9
$DIMTIH
 70
     1
  9
$DIMTOH
 70
     1
  9
$DIMSE1
 70
     0
  9
$DIMSE2
 70
     0
  9
$DIMTAD
 70
     0
  9
$DIMZIN
 70
     0
  9
$DIMBLK
  1

  9
$DIMASO
 70
     1
  9
$DIMSHO
 70
     1
  9
$DIMPOST
  1

  9
$DIMAPOST
  1

  9
$DIMALT
 70
     0
  9
$DIMALTD
 70
     2
  9
$DIMALTF
 40
25.4
  9
$DIMLFAC
 40
1.0
  9
$DIMTOFL
 70
     0
  9
$DIMTVP
 40
0.0
  9
$DIMTIX
 70
     0
  9
$DIMSOXD
 70
     0
  9
$DIMSAH
 70
     0
  9
$DIMBLK1
  1

  9
$DIMBLK2
  1

  9
$DIMSTYLE
  2
Standard
  9
$DIMCLRD
 70
     0
  9
$DIMCLRE
 70
     0
  9
$DIMCLRT
 70
     0
  9
$DIMTFAC
 40
1.0
  9
$DIMGAP
 40
0.09
  9
$DIMJUST
 70
     0
  9
$DIMSD1
 70
     0
  9
$DIMSD2
 70
     0
  9
$DIMTOLJ
 70
     1
  9
$DIMTZIN
 70
     0
  9
$DIMALTZ
 70
     0
  9
$DIMALTTZ
 70
     0
  9
$DIMUPT
 70
     0
  9
$DIMDEC
 70
     4
  9
$DIMTDEC
 70
     4
  9
$DIMALTU
 70
     2
  9
$DIMALTTD
 70
     2
  9
$DIMTXSTY
  7
Standard
  9
$DIMAUNIT
 70
     0
  9
$DIMADEC
 70
     0
  9
$DIMALTRND
 40
0.0
  9
$DIMAZIN
 70
     0
  9
$DIMDSEP
 70
    46
  9
$DIMATFIT
 70
     3
  9
$DIMFRAC
 70
     0
  9
$DIMLDRBLK
  1

  9
$DIMLUNIT
 70
     2
  9
$DIMLWD
 70
    -2
  9
$DIMLWE
 70
    -2
  9
$DIMTMOVE
 70
     0
  9
$DIMFXL
 40
1.0
  9
$DIMFXLON
 70
     0
  9
$DIMJOGANG
 40
0.7853981633974483
  9
$DIMTFILL
 70
     0
  9
$DIMTFILLCLR
 70
     0
  9
$DIMARCSYM
 70
     0
  9
$DIMLTYPE
  6

  9
$DIMLTEX1
  6

  9
$DIMLTEX2
  6

  9
$LUNITS
 70
     2
  9
$LUPREC
 70
     4
  9
$SKETCHINC
 40
0.1
  9
$FILLETRAD
 40
0.5
  9
$AUNITS
 70
     0
  9
$AUPREC
 70
     0
  9
$MENU
  1
.
  9
$ELEVATION
 40
0.0
  9
$PELEVATION
 40
0.0
  9
$THICKNESS
 40
0.0
  9
$LIMCHECK
 70
     0
  9
$CHAMFERA
 40
0.5
  9
$CHAMFERB
 40
0.5
  9
$CHAMFERC
 40
1.0
  9
$CHAMFERD
 40
0.0
  9
$SKPOLY
 70
     0
  9
$TDCREATE
 40
2458493.724635174
  9
$TDUCREATE
 40
2458493.724635174
  9
$TDUPDATE
 40
2458493.72463529
  9
$TDUUPDATE
 40
2458493.72463529
  9
$TDINDWG
 40
0.0000000116
  9
$TDUSRTIMER
 40
0.0000000116
  9
$USRTIMER
 70
     1
  9
$ANGBASE
 50
0.0
  9
$ANGDIR
 70
     0
  9
$PDMODE
 70
     0
  9
$PDSIZE
 40
0.0
  9
$PLINEWID
 40
0.0
  9
$SPLFRAME
 70
     0
  9
$SPLINETYPE
 70
     6
  9
$SPLINESEGS
 70
     8
  9
$HANDSEED
  5
C6
  9
$SURFTAB1
 70
     6
  9
$SURFTAB2
 70
     6
  9
$SURFTYPE
 70
     6
  9
$SURFU
 70
     6
  9
$SURFV
 70
     6
  9
$UCSBASE
  2

  9
$UCSNAME
  2

  9
$UCSORG
 10
0.0
 20
0.0
 30
0.0
  9
$UCSXDIR
 10
1.0
 20
0.0
 30
0.0
  9
$UCSYDIR
 10
0.0
 20
1.0
 30
0.0
  9
$UCSORTHOREF
  2

  9
$UCSORTHOVIEW
 70
     0
  9
$UCSORGTOP
 10
0.0
 20
0.0
 30
0.0
  9
$UCSORGBOTTOM
 10
0.0
 20
0.0
 30
0.0
  9
$UCSORGLEFT
 10
0.0
 20
0.0
 30
0.0
  9
$UCSORGRIGHT
 10
0.0
 20
0.0
 30
0.0
  9
$UCSORGFRONT
 10
0.0
 20
0.0
 30
0.0
  9
$UCSORGBACK
 10
0.0
 20
0.0
 30
0.0
  9
$PUCSBASE
  2

  9
$PUCSNAME
  2

  9
$PUCSORG
 10
0.0
 20
0.0
 30
0.0
  9
$PUCSXDIR
 10
1.0
 20
0.0
 30
0.0
  9
$PUCSYDIR
 10
0.0
 20
1.0
 30
0.0
  9
$PUCSORTHOREF
  2

  9
$PUCSORTHOVIEW
 70
     0
  9
$PUCSORGTOP
 10
0.0
 20
0.0
 30
0.0
  9
$PUCSORGBOTTOM
 10
0.0
 20
0.0
 30
0.0
  9
$PUCSORGLEFT
 10
0.0
 20
0.0
 30
0.0
  9
$PUCSORGRIGHT
 10
0.0
 20
0.0
 30
0.0
  9
$PUCSORGFRONT
 10
0.0
 20
0.0
 30
0.0
  9
$PUCSORGBACK
 10
0.0
 20
0.0
 30
0.0
  9
$USERI1
 70
     0
  9
$USERI2
 70
     0
  9
$USERI3
 70
     0
  9
$USERI4
 70
     0
  9
$USERI5
 70
     0
  9
$USERR1
 40
0.0
  9
$USERR2
 40
0.0
  9
$USERR3
 40
0.0
  9
$USERR4
 40
0.0
  9
$USERR5
 40
0.0
  9
$WORLDVIEW
 70
     1
  9
$SHADEDGE
 70
     3
  9
$SHADEDIF
 70
    70
  9
$TILEMODE
 70
     1
  9
$MAXACTVP
 70
    64
  9
$PINSBASE
 10
0.0
 20
0.0
 30
0.0
  9
$PLIMCHECK
 70
     0
  9
$PEXTMIN
 10
1.000000000000000E+20
 20
1.000000000000000E+20
 30
1.000000000000000E+20
  9
$PEXTMAX
 10
-1.000000000000000E+20
 20
-1.000000000000000E+20
 30
-1.000000000000000E+20
  9
$PLIMMIN
 10
0.0
 20
0.0
  9
$PLIMMAX
 10
12.0
 20
9.0
  9
$UNITMODE
 70
     0
  9
$VISRETAIN
 70
     1
  9
$PLINEGEN
 70
     0
  9
$PSLTSCALE
 70
     1
  9
$TREEDEPTH
 70
  3020
  9
$CMLSTYLE
  2
Standard
  9
$CMLJUST
 70
     0
  9
$CMLSCALE
 40
1.0
  9
$PROXYGRAPHICS
 70
     1
  9
$MEASUREMENT
 70
     0
  9
$CELWEIGHT
370
    -1
  9
$ENDCAPS
280
     0
  9
$JOINSTYLE
280
     0
  9
$LWDISPLAY
290
     0
  9
$INSUNITS
 70
     4
  9
$HYPERLINKBASE
  1

  9
$STYLESHEET
  1

  9
$XEDIT
290
     1
  9
$CEPSNTYPE
380
     0
  9
$PSTYLEMODE
290
     1
  9
$FINGERPRINTGUID
  2
{EAA65444-249D-4970-BE6C-1D42701690C8}
  9
$VERSIONGUID
  2
{FAEB1C32-E019-11D5-929B-00C0DF256EC4}
  9
$EXTNAMES
290
     1
  9
$PSVPSCALE
 40
0.0
  9
$OLESTARTUP
290
     0
  9
$SORTENTS
280
   127
  9
$INDEXCTL
280
     0
  9
$HIDETEXT
280
     1
  9
$XCLIPFRAME
290
     0
  9
$HALOGAP
280
     0
  9
$OBSCOLOR
 70
   257
  9
$OBSLTYPE
280
     0
  9
$INTERSECTIONDISPLAY
280
     0
  9
$INTERSECTIONCOLOR
 70
   257
  9
$DIMASSOC
280
     2
  9
$PROJECTNAME
  1

  9
$CAMERADISPLAY
290
     0
  9
$LENSLENGTH
 40
50.0
  9
$CAMERAHEIGHT
 40
0.0
  9
$STEPSPERSEC
 40
2.0
  9
$STEPSIZE
 40
6.0
  9
$3DDWFPREC
 40
2.0
  9
$PSOLWIDTH
 40
0.25
  9
$PSOLHEIGHT
 40
4.0
  9
$LOFTANG1
 40
1.570796326794897
  9
$LOFTANG2
 40
1.570796326794897
  9
$LOFTMAG1
 40
0.0
  9
$LOFTMAG2
 40
0.0
  9
$LOFTPARAM
 70
     7
  9
$LOFTNORMALS
280
     1
  9
$LATITUDE
 40
37.795
  9
$LONGITUDE
 40
-122.394
  9
$NORTHDIRECTION
 40
0.0
  9
$TIMEZONE
 70
 -8000
  9
$LIGHTGLYPHDISPLAY
280
     1
  9
$TILEMODELIGHTSYNCH
280
     1
  9
$SOLIDHIST
280
     1
  9
$SHOWHIST
280
     1
  9
$DWFFRAME
280
     2
  9
$DGNFRAME
280
     2
  9
$REALWORLDSCALE
290
     1
  9
$INTERFERECOLOR
 62
   256
  9
$CSHADOW
280
     0
  9
$SHADOWPLANELOCATION
 40
0.0
  0
ENDSEC
  0
SECTION
  2
CLASSES
  0
CLASS
  1
ACDBDICTIONARYWDFLT
  2
AcDbDictionaryWithDefault
  3
ObjectDBX Classes
 90
        0
 91
        4
280
     0
281
     0
  0
CLASS
  1
VISUALSTYLE
  2
AcDbVisualStyle
  3
ObjectDBX Classes
 90
     4095
 91
        4
280
     0
281
     0
  0
CLASS
  1
MATERIAL
  2
AcDbMaterial
  3
ObjectDBX Classes
 90
     1153
 91
        4
280
     0
281
     0
  0
ENDSEC
  0
SECTION
  2
TABLES
  0
TABLE
  2
VPORT
  5
8
330
0
100
AcDbSymbolTable
 70
     1
  0
VPORT
  5
29
330
8
100
AcDbSymbolTableRecord
100
AcDbViewportTableRecord
  2
*Active
 70
     0
 10
0.0
 20
0.0
 11
1.0
 21
1.0
 12
10.42990654205607
 22
4.5
 13
0.0
 23
0.0
 14
0.5
 24
0.5
 15
0.5
 25
0.5
 16
0.0
 26
0.0
 36
1.0
 17
0.0
 27
0.0
 37
0.0
 40
9.0
 41
1.972972972850329
 42
50.0
 43
0.0
 44
0.0
 50
0.0
 51
0.0
 71
     0
 72
   100
 73
     1
 74
     3
 75
     0
 76
     0
 77
     0
 78
     0
281
     0
 65
     1
110
0.0
120
0.0
130
0.0
111
1.0
121
0.0
131
0.0
112
0.0
122
1.0
132
0.0
 79
     0
146
0.0
 60
     3
 61
     5
292
     1
282
     1
141
0.0
142
0.0
 63
   250
  0
ENDTAB
  0
TABLE
  2
LTYPE
  5
5
330
0
100
AcDbSymbolTable
 70
     1
  0
LTYPE
  5
14
330
5
100
AcDbSymbolTableRecord
100
AcDbLinetypeTableRecord
  2
ByBlock
 70
     0
  3

 72
    65
 73
     0
 40
0.0
  0
LTYPE
  5
15
330
5
100
AcDbSymbolTableRecord
100
AcDbLinetypeTableRecord
  2
ByLayer
 70
     0
  3

 72
    65
 73
     0
 40
0.0
  0
LTYPE
  5
16
330
5
100
AcDbSymbolTableRecord
100
AcDbLinetypeTableRecord
  2
Continuous
 70
     0
  3
Solid line
 72
    65
 73
     0
 40
0.0
  0
ENDTAB
  0
TABLE
  2
LAYER
  5
2
330
0
100
AcDbSymbolTable
 70
     3
  0
LAYER
  5
10
330
2
100
AcDbSymbolTableRecord
100
AcDbLayerTableRecord
  2
0
 70
     0
 62
     7
  6
Continuous
370
    -3
390
F
347
3E
  0
LAYER
  5
40
330
2
100
AcDbSymbolTableRecord
100
AcDbLayerTableRecord
  2
layer 1
 70
     0
 62
     7
  6
Continuous
370
    -3
390
F
347
3E
  0
LAYER
  5
A3
330
2
100
AcDbSymbolTableRecord
100
AcDbLayerTableRecord
  2
Master Guides
 70
     0
 62
     7
  6
Continuous
370
    -3
390
F
347
3E
  0
ENDTAB
  0
TABLE
  2
STYLE
  5
3
330
0
100
AcDbSymbolTable
 70
     1
  0
STYLE
  5
11
330
3
100
AcDbSymbolTableRecord
100
AcDbTextStyleTableRecord
  2
Standard
 70
     0
 40
0.0
 41
1.0
 50
0.0
 71
     0
 42
0.2
  3
txt
  4

  0
ENDTAB
  0
TABLE
  2
VIEW
  5
6
330
0
100
AcDbSymbolTable
 70
     0
  0
ENDTAB
  0
TABLE
  2
UCS
  5
7
330
0
100
AcDbSymbolTable
 70
     0
  0
ENDTAB
  0
TABLE
  2
APPID
  5
9
330
0
100
AcDbSymbolTable
 70
     2
  0
APPID
  5
12
330
9
100
AcDbSymbolTableRecord
100
AcDbRegAppTableRecord
  2
ACAD
 70
     0
  0
APPID
  5
3F
330
9
100
AcDbSymbolTableRecord
100
AcDbRegAppTableRecord
  2
ODA
 70
     0
  0
ENDTAB
  0
TABLE
  2
DIMSTYLE
  5
A
330
0
100
AcDbSymbolTable
 70
     1
100
AcDbDimStyleTable
  0
DIMSTYLE
105
27
330
A
100
AcDbSymbolTableRecord
100
AcDbDimStyleTableRecord
  2
Standard
 70
     0
178
     0
340
11
  0
ENDTAB
  0
TABLE
  2
BLOCK_RECORD
  5
1
330
0
100
AcDbSymbolTable
 70
     1
  0
BLOCK_RECORD
  5
1F
330
1
100
AcDbSymbolTableRecord
100
AcDbBlockTableRecord
  2
*Model_Space
340
22
 70
     0
280
     1
281
     0
  0
BLOCK_RECORD
  5
1B
330
1
100
AcDbSymbolTableRecord
100
AcDbBlockTableRecord
  2
*Paper_Space
340
1E
 70
     0
280
     1
281
     0
  0
BLOCK_RECORD
  5
23
330
1
100
AcDbSymbolTableRecord
100
AcDbBlockTableRecord
  2
*Paper_Space0
340
26
 70
     0
280
     1
281
     0
  0
ENDTAB
  0
ENDSEC
  0
SECTION
  2
BLOCKS
  0
BLOCK
  5
20
330
1F
100
AcDbEntity
  8
0
100
AcDbBlockBegin
  2
*Model_Space
 70
     0
 10
0.0
 20
0.0
 30
0.0
  3
*Model_Space
  1

  0
ENDBLK
  5
21
330
1F
100
AcDbEntity
  8
0
100
AcDbBlockEnd
  0
BLOCK
  5
1C
330
1B
100
AcDbEntity
 67
     1
  8
0
100
AcDbBlockBegin
  2
*Paper_Space
 70
     0
 10
0.0
 20
0.0
 30
0.0
  3
*Paper_Space
  1

  0
ENDBLK
  5
1D
330
1B
100
AcDbEntity
 67
     1
  8
0
100
AcDbBlockEnd
  0
BLOCK
  5
24
330
23
100
AcDbEntity
  8
0
100
AcDbBlockBegin
  2
*Paper_Space0
 70
     0
 10
0.0
 20
0.0
 30
0.0
  3
*Paper_Space0
  1

  0
ENDBLK
  5
25
330
23
100
AcDbEntity
  8
0
100
AcDbBlockEnd
  0
ENDSEC
  0
SECTION
  2
ENTITIES
  0
SPLINE
  5
41
330
1F
100
AcDbEntity
  8
layer 1
 62
   250
370
     9
100
AcDbSpline
210
0.0
220
0.0
230
1.0
 70
    11
 71
     3
 72
    20
 73
    16
 74
     0
 42
0.0000000001
 43
0.0000000001
 12
1.0
 22
0.0
 32
0.0
 13
1.0
 23
0.0
 33
0.0
 40
0.0
 40
0.0
 40
0.0
 40
0.0
 40
0.2
 40
0.2
 40
0.2
 40
0.2
 40
0.4
 40
0.4
 40
0.4
 40
0.4
 40
0.6
 40
0.6
 40
0.6
 40
0.6
 40
1.0
 40
1.0
 40
1.0
 40
1.0
 10
50.5217
 20
131.8538
 30
0.0
 10
50.5217
 20
131.8538
 30
0.0
 10
120.2503
 20
131.8538
 30
0.0
 10
120.2503
 20
131.8538
 30
0.0
 10
120.2503
 20
131.8538
 30
0.0
 10
120.2503
 20
131.8538
 30
0.0
 10
120.2503
 20
-106.2618
 30
0.0
 10
120.2503
 20
-106.2618
 30
0.0
 10
120.2503
 20
-106.2618
 30
0.0
 10
120.2503
 20
-106.2618
 30
0.0
 10
50.5217
 20
-106.2618
 30
0.0
 10
50.5217
 20
-106.2618
 30
0.0
 10
50.5217
 20
-106.2618
 30
0.0
 10
50.5217
 20
-106.2618
 30
0.0
 10
50.5217
 20
131.8538
 30
0.0
 10
50.5217
 20
131.8538
 30
0.0
  0
SPLINE
  5
42
330
1F
100
AcDbEntity
  8
layer 1
 62
     7
370
     9
100
AcDbSpline
210
0.0
220
0.0
230
1.0
 70
    11
 71
     3
 72
    60
 73
    56
 74
     0
 42
0.0000000001
 43
0.0000000001
 12
1.0
 22
0.0
 32
0.0
 13
1.0
 23
0.0
 33
0.0
 40
0.0
 40
0.0
 40
0.0
 40
0.0
 40
0.0666666666666667
 40
0.0666666666666667
 40
0.0666666666666667
 40
0.0666666666666667
 40
0.1333333333333333
 40
0.1333333333333333
 40
0.1333333333333333
 40
0.1333333333333333
 40
0.2
 40
0.2
 40
0.2
 40
0.2
 40
0.2666666666666667
 40
0.2666666666666667
 40
0.2666666666666667
 40
0.2666666666666667
 40
0.3333333333333333
 40
0.3333333333333333
 40
0.3333333333333333
 40
0.3333333333333333
 40
0.4
 40
0.4
 40
0.4
 40
0.4
 40
0.4666666666666667
 40
0.4666666666666667
 40
0.4666666666666667
 40
0.4666666666666667
 40
0.5333333333333333
 40
0.5333333333333333
 40
0.5333333333333333
 40
0.5333333333333333
 40
0.6
 40
0.6
 40
0.6
 40
0.6
 40
0.6666666666666666
 40
0.6666666666666666
 40
0.6666666666666666
 40
0.6666666666666666
 40
0.7333333333333333
 40
0.7333333333333333
 40
0.7333333333333333
 40
0.7333333333333333
 40
0.8
 40
0.8
 40
0.8
 40
0.8
 40
0.8666666666666667
 40
0.8666666666666667
 40
0.8666666666666667
 40
0.8666666666666667
 40
1.0
 40
1.0
 40
1.0
 40
1.0
 10
59.9531
 20
125.7377
 30
0.0
 10
59.9531
 20
125.7377
 30
0.0
 10
68.5171
 20
125.7377
 30
0.0
 10
68.5171
 20
125.7377
 30
0.0
 10
68.5171
 20
125.7377
 30
0.0
 10
69.3917
 20
124.6864
 30
0.0
 10
69.8453
 20
123.1379
 30
0.0
 10
69.7986
 20
120.9773
 30
0.0
 10
69.7986
 20
120.9773
 30
0.0
 10
69.4381
 20
117.3317
 30
0.0
 10
67.1206
 20
115.2693
 30
0.0
 10
63.8492
 20
114.449
 30
0.0
 10
63.8492
 20
114.449
 30
0.0
 10
61.5956
 20
113.935
 30
0.0
 10
59.3989
 20
113.9186
 30
0.0
 10
57.2117
 20
113.9151
 30
0.0
 10
57.2117
 20
113.9151
 30
0.0
 10
56.6481
 20
114.0211
 30
0.0
 10
56.0597
 20
114.1092
 30
0.0
 10
55.4407
 20
114.1862
 30
0.0
 10
55.4407
 20
114.1862
 30
0.0
 10
55.4407
 20
114.1862
 30
0.0
 10
55.4407
 20
119.8036
 30
0.0
 10
55.4407
 20
119.8036
 30
0.0
 10
55.4407
 20
119.8036
 30
0.0
 10
56.113
 20
118.9976
 30
0.0
 10
56.9274
 20
118.2829
 30
0.0
 10
57.997
 20
117.6647
 30
0.0
 10
57.997
 20
117.6647
 30
0.0
 10
59.9606
 20
116.5217
 30
0.0
 10
62.0351
 20
116.6409
 30
0.0
 10
63.9878
 20
117.862
 30
0.0
 10
63.9878
 20
117.862
 30
0.0
 10
64.4249
 20
118.1353
 30
0.0
 10
64.7057
 20
118.3777
 30
0.0
 10
65.0007
 20
118.8022
 30
0.0
 10
65.0007
 20
118.8022
 30
0.0
 10
66.2305
 20
120.573
 30
0.0
 10
65.8698
 20
122.2468
 30
0.0
 10
65.1815
 20
123.526
 30
0.0
 10
65.1815
 20
123.526
 30
0.0
 10
64.548
 20
124.7036
 30
0.0
 10
62.6191
 20
124.8699
 30
0.0
 10
62.107
 20
123.5277
 30
0.0
 10
62.107
 20
123.5277
 30
0.0
 10
62.007
 20
123.2653
 30
0.0
 10
62.0275
 20
123.0686
 30
0.0
 10
62.0349
 20
122.7948
 30
0.0
 10
62.0349
 20
122.7948
 30
0.0
 10
62.0654
 20
121.6732
 30
0.0
 10
61.8669
 20
121.1114
 30
0.0
 10
61.0191
 20
120.7844
 30
0.0
 10
61.0191
 20
120.7844
 30
0.0
 10
57.6144
 20
120.4258
 30
0.0
 10
57.9251
 20
123.6069
 30
0.0
 10
59.9531
 20
125.7377
 30
0.0
  0
SPLINE
  5
43
330
1F
100
AcDbEntity
  8
layer 1
 62
     7
370
     9
100
AcDbSpline
210
0.0
220
0.0
230
1.0
 70
    11
 71
     3
 72
    52
 73
    48
 74
     0
 42
0.0000000001
 43
0.0000000001
 12
1.0
 22
0.0
 32
0.0
 13
1.0
 23
0.0
 33
0.0
 40
0.0
 40
0.0
 40
0.0
 40
0.0
 40
0.0769230769230769
 40
0.0769230769230769
 40
0.0769230769230769
 40
0.0769230769230769
 40
0.1538461538461539
 40
0.1538461538461539
 40
0.1538461538461539
 40
0.1538461538461539
 40
0.2307692307692308
 40
0.2307692307692308
 40
0.2307692307692308
 40
0.2307692307692308
 40
0.3076923076923077
 40
0.3076923076923077
 40
0.3076923076923077
 40
0.3076923076923077
 40
0.3846153846153846
 40
0.3846153846153846
 40
0.3846153846153846
 40
0.3846153846153846
 40
0.4615384615384616
 40
0.4615384615384616
 40
0.4615384615384616
 40
0.4615384615384616
 40
0.5384615384615384
 40
0.5384615384615384
 40
0.5384615384615384
 40
0.5384615384615384
 40
0.6153846153846154
 40
0.6153846153846154
 40
0.6153846153846154
 40
0.6153846153846154
 40
0.6923076923076923
 40
0.6923076923076923
 40
0.6923076923076923
 40
0.6923076923076923
 40
0.7692307692307693
 40
0.7692307692307693
 40
0.7692307692307693
 40
0.7692307692307693
 40
0.8461538461538461
 40
0.8461538461538461
 40
0.8461538461538461
 40
0.8461538461538461
 40
1.0
 40
1.0
 40
1.0
 40
1.0
 10
72.1017
 20
125.7377
 30
0.0
 10
72.1017
 20
125.7377
 30
0.0
 10
86.9846
 20
125.7377
 30
0.0
 10
86.9846
 20
125.7377
 30
0.0
 10
86.9846
 20
125.7377
 30
0.0
 10
86.9698
 20
125.6823
 30
0.0
 10
86.9023
 20
125.6297
 30
0.0
 10
86.9069
 20
125.6502
 30
0.0
 10
86.9069
 20
125.6502
 30
0.0
 10
83.0695
 20
124.3967
 30
0.0
 10
80.0365
 20
120.4253
 30
0.0
 10
79.5437
 20
115.6386
 30
0.0
 10
79.5437
 20
115.6386
 30
0.0
 10
78.8446
 20
112.2339
 30
0.0
 10
75.8536
 20
110.7262
 30
0.0
 10
73.176
 20
113.1944
 30
0.0
 10
73.176
 20
113.1944
 30
0.0
 10
71.9518
 20
114.3226
 30
0.0
 10
72.1255
 20
116.0927
 30
0.0
 10
72.7898
 20
117.6859
 30
0.0
 10
72.7898
 20
117.6859
 30
0.0
 10
73.4914
 20
118.5593
 30
0.0
 10
74.7724
 20
118.4698
 30
0.0
 10
75.4915
 20
117.5682
 30
0.0
 10
75.4915
 20
117.5682
 30
0.0
 10
75.6059
 20
117.0844
 30
0.0
 10
75.5927
 20
116.8076
 30
0.0
 10
75.4313
 20
116.2448
 30
0.0
 10
75.4313
 20
116.2448
 30
0.0
 10
74.9664
 20
114.6218
 30
0.0
 10
77.9543
 20
114.1181
 30
0.0
 10
78.0642
 20
116.8607
 30
0.0
 10
78.0642
 20
116.8607
 30
0.0
 10
78.1989
 20
120.0934
 30
0.0
 10
76.114
 20
121.1025
 30
0.0
 10
72.8394
 20
120.9652
 30
0.0
 10
72.8394
 20
120.9652
 30
0.0
 10
72.6393
 20
121.0658
 30
0.0
 10
72.5992
 20
121.3033
 30
0.0
 10
72.5937
 20
121.5457
 30
0.0
 10
72.5937
 20
121.5457
 30
0.0
 10
72.5937
 20
121.5457
 30
0.0
 10
72.5968
 20
121.5561
 30
0.0
 10
72.5968
 20
121.5561
 30
0.0
 10
72.5968
 20
121.5561
 30
0.0
 10
72.7044
 20
123.1531
 30
0.0
 10
72.5259
 20
124.5489
 30
0.0
 10
72.1017
 20
125.7377
 30
0.0
  0
SPLINE
  5
44
330
1F
100
AcDbEntity
  8
layer 1
 62
     7
370
     9
100
AcDbSpline
210
0.0
220
0.0
230
1.0
 70
    11
 71
     3
 72
    36
 73
    32
 74
     0
 42
0.0000000001
 43
0.0000000001
 12
1.0
 22
0.0
 32
0.0
 13
1.0
 23
0.0
 33
0.0
 40
0.0
 40
0.0
 40
0.0
 40
0.0
 40
0.1111111111111111
 40
0.1111111111111111
 40
0.1111111111111111
 40
0.1111111111111111
 40
0.2222222222222222
 40
0.2222222222222222
 40
0.2222222222222222
 40
0.2222222222222222
 40
0.3333333333333333
 40
0.3333333333333333
 40
0.3333333333333333
 40
0.3333333333333333
 40
0.4444444444444444
 40
0.4444444444444444
 40
0.4444444444444444
 40
0.4444444444444444
 40
0.5555555555555556
 40
0.5555555555555556
 40
0.5555555555555556
 40
0.5555555555555556
 40
0.6666666666666666
 40
0.6666666666666666
 40
0.6666666666666666
 40
0.6666666666666666
 40
0.7777777777777778
 40
0.7777777777777778
 40
0.7777777777777778
 40
0.7777777777777778
 40
1.0
 40
1.0
 40
1.0
 40
1.0
 10
92.0809
 20
125.7377
 30
0.0
 10
92.0809
 20
125.7377
 30
0.0
 10
101.6156
 20
125.7377
 30
0.0
 10
101.6156
 20
125.7377
 30
0.0
 10
101.6156
 20
125.7377
 30
0.0
 10
101.6271
 20
125.6819
 30
0.0
 10
101.6152
 20
125.6211
 30
0.0
 10
101.5903
 20
125.6084
 30
0.0
 10
101.5903
 20
125.6084
 30
0.0
 10
101.0243
 20
125.1299
 30
0.0
 10
100.5088
 20
124.5722
 30
0.0
 10
100.0621
 20
123.9361
 30
0.0
 10
100.0621
 20
123.9361
 30
0.0
 10
99.2043
 20
122.5612
 30
0.0
 10
98.9471
 20
121.1461
 30
0.0
 10
99.0568
 20
119.7356
 30
0.0
 10
99.0568
 20
119.7356
 30
0.0
 10
99.0238
 20
119.5041
 30
0.0
 10
98.9471
 20
119.5443
 30
0.0
 10
98.8668
 20
119.6174
 30
0.0
 10
98.8668
 20
119.6174
 30
0.0
 10
98.2763
 20
121.0139
 30
0.0
 10
97.3393
 20
122.2153
 30
0.0
 10
96.0099
 20
123.2285
 30
0.0
 10
96.0099
 20
123.2285
 30
0.0
 10
94.7707
 20
124.3795
 30
0.0
 10
93.4873
 20
125.149
 30
0.0
 10
92.2087
 20
125.5921
 30
0.0
 10
92.2087
 20
125.5921
 30
0.0
 10
92.1358
 20
125.6186
 30
0.0
 10
92.0798
 20
125.6819
 30
0.0
 10
92.0809
 20
125.7377
 30
0.0
  0
SPLINE
  5
45
330
1F
100
AcDbEntity
  8
layer 1
 62
     7
370
     9
100
AcDbSpline
210
0.0
220
0.0
230
1.0
 70
    11
 71
     3
 72
    28
 73
    24
 74
     0
 42
0.0000000001
 43
0.0000000001
 12
1.0
 22
0.0
 32
0.0
 13
1.0
 23
0.0
 33
0.0
 40
0.0
 40
0.0
 40
0.0
 40
0.0
 40
0.1428571428571428
 40
0.1428571428571428
 40
0.1428571428571428
 40
0.1428571428571428
 40
0.2857142857142857
 40
0.2857142857142857
 40
0.2857142857142857
 40
0.2857142857142857
 40
0.4285714285714285
 40
0.4285714285714285
 40
0.4285714285714285
 40
0.4285714285714285
 40
0.5714285714285714
 40
0.5714285714285714
 40
0.5714285714285714
 40
0.5714285714285714
 40
0.7142857142857143
 40
0.7142857142857143
 40
0.7142857142857143
 40
0.7142857142857143
 40
1.0
 40
1.0
 40
1.0
 40
1.0
 10
112.7888
 20
125.7377
 30
0.0
 10
112.7888
 20
125.7377
 30
0.0
 10
115.3312
 20
125.7377
 30
0.0
 10
115.3312
 20
125.7377
 30
0.0
 10
115.3312
 20
125.7377
 30
0.0
 10
115.3312
 20
125.7377
 30
0.0
 10
115.3312
 20
121.9789
 30
0.0
 10
115.3312
 20
121.9789
 30
0.0
 10
115.3312
 20
121.9789
 30
0.0
 10
115.2949
 20
122.0032
 30
0.0
 10
115.2594
 20
122.0587
 30
0.0
 10
115.2423
 20
122.1047
 30
0.0
 10
115.2423
 20
122.1047
 30
0.0
 10
115.0397
 20
122.6653
 30
0.0
 10
114.7631
 20
123.2283
 30
0.0
 10
114.4058
 20
123.8075
 30
0.0
 10
114.4058
 20
123.8075
 30
0.0
 10
113.955
 20
124.5292
 30
0.0
 10
113.4256
 20
125.1468
 30
0.0
 10
112.8396
 20
125.6651
 30
0.0
 10
112.8396
 20
125.6651
 30
0.0
 10
112.8096
 20
125.6921
 30
0.0
 10
112.7944
 20
125.7163
 30
0.0
 10
112.7888
 20
125.7377
 30
0.0
  0
SPLINE
  5
46
330
1F
100
AcDbEntity
  8
layer 1
 62
     7
370
     9
100
AcDbSpline
210
0.0
220
0.0
230
1.0
 70
    11
 71
     3
 72
    24
 73
    20
 74
     0
 42
0.0000000001
 43
0.0000000001
 12
1.0
 22
0.0
 32
0.0
 13
1.0
 23
0.0
 33
0.0
 40
0.0
 40
0.0
 40
0.0
 40
0.0
 40
0.1666666666666667
 40
0.1666666666666667
 40
0.1666666666666667
 40
0.1666666666666667
 40
0.3333333333333333
 40
0.3333333333333333
 40
0.3333333333333333
 40
0.3333333333333333
 40
0.5
 40
0.5
 40
0.5
 40
0.5
 40
0.6666666666666666
 40
0.6666666666666666
 40
0.6666666666666666
 40
0.6666666666666666
 40
1.0
 40
1.0
 40
1.0
 40
1.0
 10
115.3312
 20
116.8035
 30
0.0
 10
115.3312
 20
116.8035
 30
0.0
 10
115.3312
 20
110.5687
 30
0.0
 10
115.3312
 20
110.5687
 30
0.0
 10
115.3312
 20
110.5687
 30
0.0
 10
115.3312
 20
110.5687
 30
0.0
 10
112.0901
 20
111.4578
 30
0.0
 10
112.0901
 20
111.4578
 30
0.0
 10
112.0901
 20
111.4578
 30
0.0
 10
112.7335
 20
112.4868
 30
0.0
 10
113.3767
 20
113.5161
 30
0.0
 10
114.0199
 20
114.5451
 30
0.0
 10
114.0199
 20
114.5451
 30
0.0
 10
114.4336
 20
115.2497
 30
0.0
 10
114.78
 20
115.9386
 30
0.0
 10
115.0468
 20
116.6188
 30
0.0
 10
115.0468
 20
116.6188
 30
0.0
 10
115.1904
 20
116.8336
 30
0.0
 10
115.2755
 20
116.8524
 30
0.0
 10
115.3312
 20
116.8035
 30
0.0
  0
SPLINE
  5
47
330
1F
100
AcDbEntity
  8
layer 1
 62
     7
370
     9
100
AcDbSpline
210
0.0
220
0.0
230
1.0
 70
    11
 71
     3
 72
    68
 73
    64
 74
     0
 42
0.0000000001
 43
0.0000000001
 12
1.0
 22
0.0
 32
0.0
 13
1.0
 23
0.0
 33
0.0
 40
0.0
 40
0.0
 40
0.0
 40
0.0
 40
0.0588235294117647
 40
0.0588235294117647
 40
0.0588235294117647
 40
0.0588235294117647
 40
0.1176470588235294
 40
0.1176470588235294
 40
0.1176470588235294
 40
0.1176470588235294
 40
0.1764705882352941
 40
0.1764705882352941
 40
0.1764705882352941
 40
0.1764705882352941
 40
0.2352941176470588
 40
0.2352941176470588
 40
0.2352941176470588
 40
0.2352941176470588
 40
0.2941176470588235
 40
0.2941176470588235
 40
0.2941176470588235
 40
0.2941176470588235
 40
0.3529411764705883
 40
0.3529411764705883
 40
0.3529411764705883
 40
0.3529411764705883
 40
0.4117647058823529
 40
0.4117647058823529
 40
0.4117647058823529
 40
0.4117647058823529
 40
0.4705882352941176
 40
0.4705882352941176
 40
0.4705882352941176
 40
0.4705882352941176
 40
0.5294117647058824
 40
0.5294117647058824
 40
0.5294117647058824
 40
0.5294117647058824
 40
0.5882352941176471
 40
0.5882352941176471
 40
0.5882352941176471
 40
0.5882352941176471
 40
0.6470588235294118
 40
0.6470588235294118
 40
0.6470588235294118
 40
0.6470588235294118
 40
0.7058823529411765
 40
0.7058823529411765
 40
0.7058823529411765
 40
0.7058823529411765
 40
0.7647058823529411
 40
0.7647058823529411
 40
0.7647058823529411
 40
0.7647058823529411
 40
0.8235294117647058
 40
0.8235294117647058
 40
0.8235294117647058
 40
0.8235294117647058
 40
0.8823529411764706
 40
0.8823529411764706
 40
0.8823529411764706
 40
0.8823529411764706
 40
1.0
 40
1.0
 40
1.0
 40
1.0
 10
115.3312
 20
107.1967
 30
0.0
 10
115.3312
 20
107.1967
 30
0.0
 10
115.3312
 20
92.5457
 30
0.0
 10
115.3312
 20
92.5457
 30
0.0
 10
115.3312
 20
92.5457
 30
0.0
 10
115.2369
 20
92.4671
 30
0.0
 10
115.1423
 20
92.3901
 30
0.0
 10
115.0161
 20
92.4216
 30
0.0
 10
115.0161
 20
92.4216
 30
0.0
 10
112.4997
 20
91.3323
 30
0.0
 10
109.5919
 20
90.2012
 30
0.0
 10
107.2431
 20
88.4867
 30
0.0
 10
107.2431
 20
88.4867
 30
0.0
 10
106.6901
 20
88.0944
 30
0.0
 10
106.5537
 20
88.7748
 30
0.0
 10
106.5574
 20
88.8334
 30
0.0
 10
106.5574
 20
88.8334
 30
0.0
 10
107.1909
 20
91.1244
 30
0.0
 10
107.0876
 20
93.4594
 30
0.0
 10
106.8169
 20
94.9327
 30
0.0
 10
106.8169
 20
94.9327
 30
0.0
 10
106.784
 20
95.0721
 30
0.0
 10
106.8269
 20
95.3369
 30
0.0
 10
107.0664
 20
95.2871
 30
0.0
 10
107.0664
 20
95.2871
 30
0.0
 10
108.0944
 20
94.9886
 30
0.0
 10
109.1672
 20
94.9463
 30
0.0
 10
110.2893
 20
95.1201
 30
0.0
 10
110.2893
 20
95.1201
 30
0.0
 10
113.171
 20
95.8502
 30
0.0
 10
114.6394
 20
97.9234
 30
0.0
 10
114.7007
 20
100.686
 30
0.0
 10
114.7007
 20
100.686
 30
0.0
 10
114.7356
 20
102.2479
 30
0.0
 10
114.2467
 20
103.9971
 30
0.0
 10
112.2833
 20
104.9613
 30
0.0
 10
112.2833
 20
104.9613
 30
0.0
 10
111.0824
 20
105.6152
 30
0.0
 10
109.8817
 20
105.465
 30
0.0
 10
108.6814
 20
105.09
 30
0.0
 10
108.6814
 20
105.09
 30
0.0
 10
106.9472
 20
104.4565
 30
0.0
 10
106.8831
 20
102.2072
 30
0.0
 10
108.6814
 20
101.5523
 30
0.0
 10
108.6814
 20
101.5523
 30
0.0
 10
109.0431
 20
101.3985
 30
0.0
 10
109.5247
 20
101.3208
 30
0.0
 10
109.9106
 20
101.395
 30
0.0
 10
109.9106
 20
101.395
 30
0.0
 10
111.0179
 20
101.6078
 30
0.0
 10
111.0573
 20
100.7608
 30
0.0
 10
111.254
 20
100.4588
 30
0.0
 10
111.254
 20
100.4588
 30
0.0
 10
111.6379
 20
98.2074
 30
0.0
 10
109.894
 20
97.7928
 30
0.0
 10
108.038
 20
98.3362
 30
0.0
 10
108.038
 20
98.3362
 30
0.0
 10
104.674
 20
99.3737
 30
0.0
 10
103.597
 20
101.36
 30
0.0
 10
104.2429
 20
104.0609
 30
0.0
 10
104.2429
 20
104.0609
 30
0.0
 10
106.2168
 20
110.2555
 30
0.0
 10
110.9634
 20
109.0052
 30
0.0
 10
115.3312
 20
107.1967
 30
0.0
  0
SPLINE
  5
48
330
1F
100
AcDbEntity
  8
layer 1
 62
     7
370
     9
100
AcDbSpline
210
0.0
220
0.0
230
1.0
 70
    11
 71
     3
 72
    52
 73
    48
 74
     0
 42
0.0000000001
 43
0.0000000001
 12
1.0
 22
0.0
 32
0.0
 13
1.0
 23
0.0
 33
0.0
 40
0.0
 40
0.0
 40
0.0
 40
0.0
 40
0.0769230769230769
 40
0.0769230769230769
 40
0.0769230769230769
 40
0.0769230769230769
 40
0.1538461538461539
 40
0.1538461538461539
 40
0.1538461538461539
 40
0.1538461538461539
 40
0.2307692307692308
 40
0.2307692307692308
 40
0.2307692307692308
 40
0.2307692307692308
 40
0.3076923076923077
 40
0.3076923076923077
 40
0.3076923076923077
 40
0.3076923076923077
 40
0.3846153846153846
 40
0.3846153846153846
 40
0.3846153846153846
 40
0.3846153846153846
 40
0.4615384615384616
 40
0.4615384615384616
 40
0.4615384615384616
 40
0.4615384615384616
 40
0.5384615384615384
 40
0.5384615384615384
 40
0.5384615384615384
 40
0.5384615384615384
 40
0.6153846153846154
 40
0.6153846153846154
 40
0.6153846153846154
 40
0.6153846153846154
 40
0.6923076923076923
 40
0.6923076923076923
 40
0.6923076923076923
 40
0.6923076923076923
 40
0.7692307692307693
 40
0.7692307692307693
 40
0.7692307692307693
 40
0.7692307692307693
 40
0.8461538461538461
 40
0.8461538461538461
 40
0.8461538461538461
 40
0.8461538461538461
 40
1.0
 40
1.0
 40
1.0
 40
1.0
 10
115.3312
 20
84.0158
 30
0.0
 10
115.3312
 20
84.0158
 30
0.0
 10
115.3312
 20
81.5905
 30
0.0
 10
115.3312
 20
81.5905
 30
0.0
 10
115.3312
 20
81.5905
 30
0.0
 10
114.5339
 20
81.5102
 30
0.0
 10
113.4484
 20
81.4034
 30
0.0
 10
112.9515
 20
81.4192
 30
0.0
 10
112.9515
 20
81.4192
 30
0.0
 10
112.5784
 20
81.4271
 30
0.0
 10
112.2371
 20
81.6458
 30
0.0
 10
112.1199
 20
82.1232
 30
0.0
 10
112.1199
 20
82.1232
 30
0.0
 10
112.0877
 20
82.4856
 30
0.0
 10
112.0557
 20
82.8484
 30
0.0
 10
112.0239
 20
83.211
 30
0.0
 10
112.0239
 20
83.211
 30
0.0
 10
111.2549
 20
85.8266
 30
0.0
 10
108.6353
 20
85.0317
 30
0.0
 10
108.4563
 20
82.907
 30
0.0
 10
108.4563
 20
82.907
 30
0.0
 10
108.9953
 20
78.4282
 30
0.0
 10
112.549
 20
78.2049
 30
0.0
 10
115.3312
 20
78.2322
 30
0.0
 10
115.3312
 20
78.2322
 30
0.0
 10
115.3312
 20
78.2322
 30
0.0
 10
115.3312
 20
74.8728
 30
0.0
 10
115.3312
 20
74.8728
 30
0.0
 10
115.3312
 20
74.8728
 30
0.0
 10
113.6523
 20
75.195
 30
0.0
 10
111.3812
 20
75.453
 30
0.0
 10
109.8225
 20
75.2612
 30
0.0
 10
109.8225
 20
75.2612
 30
0.0
 10
109.4714
 20
75.5108
 30
0.0
 10
109.1034
 20
75.8408
 30
0.0
 10
108.7228
 20
76.2724
 30
0.0
 10
108.7228
 20
76.2724
 30
0.0
 10
106.3739
 20
78.9385
 30
0.0
 10
105.0736
 20
81.8659
 30
0.0
 10
106.7966
 20
84.6198
 30
0.0
 10
106.7966
 20
84.6198
 30
0.0
 10
107.9875
 20
86.5237
 30
0.0
 10
110.1088
 20
87.1511
 30
0.0
 10
112.6077
 20
86.4497
 30
0.0
 10
112.6077
 20
86.4497
 30
0.0
 10
114.0207
 20
85.8899
 30
0.0
 10
114.9324
 20
85.0441
 30
0.0
 10
115.3312
 20
84.0158
 30
0.0
  0
SPLINE
  5
49
330
1F
100
AcDbEntity
  8
layer 1
 62
     7
370
     9
100
AcDbSpline
210
0.0
220
0.0
230
1.0
 70
    11
 71
     3
 72
    52
 73
    48
 74
     0
 42
0.0000000001
 43
0.0000000001
 12
1.0
 22
0.0
 32
0.0
 13
1.0
 23
0.0
 33
0.0
 40
0.0
 40
0.0
 40
0.0
 40
0.0
 40
0.0769230769230769
 40
0.0769230769230769
 40
0.0769230769230769
 40
0.0769230769230769
 40
0.1538461538461539
 40
0.1538461538461539
 40
0.1538461538461539
 40
0.1538461538461539
 40
0.2307692307692308
 40
0.2307692307692308
 40
0.2307692307692308
 40
0.2307692307692308
 40
0.3076923076923077
 40
0.3076923076923077
 40
0.3076923076923077
 40
0.3076923076923077
 40
0.3846153846153846
 40
0.3846153846153846
 40
0.3846153846153846
 40
0.3846153846153846
 40
0.4615384615384616
 40
0.4615384615384616
 40
0.4615384615384616
 40
0.4615384615384616
 40
0.5384615384615384
 40
0.5384615384615384
 40
0.5384615384615384
 40
0.5384615384615384
 40
0.6153846153846154
 40
0.6153846153846154
 40
0.6153846153846154
 40
0.6153846153846154
 40
0.6923076923076923
 40
0.6923076923076923
 40
0.6923076923076923
 40
0.6923076923076923
 40
0.7692307692307693
 40
0.7692307692307693
 40
0.7692307692307693
 40
0.7692307692307693
 40
0.8461538461538461
 40
0.8461538461538461
 40
0.8461538461538461
 40
0.8461538461538461
 40
1.0
 40
1.0
 40
1.0
 40
1.0
 10
115.3312
 20
71.2789
 30
0.0
 10
115.3312
 20
71.2789
 30
0.0
 10
115.3312
 20
67.1182
 30
0.0
 10
115.3312
 20
67.1182
 30
0.0
 10
115.3312
 20
67.1182
 30
0.0
 10
114.0102
 20
67.9395
 30
0.0
 10
112.5437
 20
68.5588
 30
0.0
 10
110.9311
 20
68.7803
 30
0.0
 10
110.9311
 20
68.7803
 30
0.0
 10
108.9554
 20
68.779
 30
0.0
 10
107.4732
 20
68.2021
 30
0.0
 10
106.6747
 20
67.2567
 30
0.0
 10
106.6747
 20
67.2567
 30
0.0
 10
105.4289
 20
65.7819
 30
0.0
 10
105.7037
 20
63.6092
 30
0.0
 10
107.2642
 20
62.8625
 30
0.0
 10
107.2642
 20
62.8625
 30
0.0
 10
107.8044
 20
62.6065
 30
0.0
 10
108.8481
 20
62.8047
 30
0.0
 10
109.6022
 20
63.3617
 30
0.0
 10
109.6022
 20
63.3617
 30
0.0
 10
110.1479
 20
63.7648
 30
0.0
 10
110.5067
 20
64.371
 30
0.0
 10
110.8234
 20
64.9585
 30
0.0
 10
110.8234
 20
64.9585
 30
0.0
 10
110.9601
 20
65.0913
 30
0.0
 10
111.2039
 20
65.2347
 30
0.0
 10
111.5021
 20
65.1914
 30
0.0
 10
111.5021
 20
65.1914
 30
0.0
 10
113.2515
 20
64.3796
 30
0.0
 10
113.5668
 20
60.9974
 30
0.0
 10
111.447
 20
60.0338
 30
0.0
 10
111.447
 20
60.0338
 30
0.0
 10
109.1476
 20
58.9886
 30
0.0
 10
104.3953
 20
59.9327
 30
0.0
 10
103.6302
 20
63.2812
 30
0.0
 10
103.6302
 20
63.2812
 30
0.0
 10
103.1688
 20
66.1827
 30
0.0
 10
104.1817
 20
68.5254
 30
0.0
 10
106.2028
 20
70.485
 30
0.0
 10
106.2028
 20
70.485
 30
0.0
 10
108.6364
 20
71.9586
 30
0.0
 10
111.1451
 20
72.8698
 30
0.0
 10
113.9215
 20
71.7715
 30
0.0
 10
113.9215
 20
71.7715
 30
0.0
 10
114.182
 20
71.6558
 30
0.0
 10
114.8231
 20
71.4519
 30
0.0
 10
115.3312
 20
71.2789
 30
0.0
  0
SPLINE
  5
4A
330
1F
100
AcDbEntity
  8
layer 1
 62
     7
370
     9
100
AcDbSpline
210
0.0
220
0.0
230
1.0
 70
    11
 71
     3
 72
    84
 73
    80
 74
     0
 42
0.0000000001
 43
0.0000000001
 12
1.0
 22
0.0
 32
0.0
 13
1.0
 23
0.0
 33
0.0
 40
0.0
 40
0.0
 40
0.0
 40
0.0
 40
0.0476190476190476
 40
0.0476190476190476
 40
0.0476190476190476
 40
0.0476190476190476
 40
0.0952380952380952
 40
0.0952380952380952
 40
0.0952380952380952
 40
0.0952380952380952
 40
0.1428571428571428
 40
0.1428571428571428
 40
0.1428571428571428
 40
0.1428571428571428
 40
0.1904761904761905
 40
0.1904761904761905
 40
0.1904761904761905
 40
0.1904761904761905
 40
0.2380952380952381
 40
0.2380952380952381
 40
0.2380952380952381
 40
0.2380952380952381
 40
0.2857142857142857
 40
0.2857142857142857
 40
0.2857142857142857
 40
0.2857142857142857
 40
0.3333333333333333
 40
0.3333333333333333
 40
0.3333333333333333
 40
0.3333333333333333
 40
0.3809523809523809
 40
0.3809523809523809
 40
0.3809523809523809
 40
0.3809523809523809
 40
0.4285714285714285
 40
0.4285714285714285
 40
0.4285714285714285
 40
0.4285714285714285
 40
0.4761904761904762
 40
0.4761904761904762
 40
0.4761904761904762
 40
0.4761904761904762
 40
0.5238095238095238
 40
0.5238095238095238
 40
0.5238095238095238
 40
0.5238095238095238
 40
0.5714285714285714
 40
0.5714285714285714
 40
0.5714285714285714
 40
0.5714285714285714
 40
0.6190476190476191
 40
0.6190476190476191
 40
0.6190476190476191
 40
0.6190476190476191
 40
0.6666666666666666
 40
0.6666666666666666
 40
0.6666666666666666
 40
0.6666666666666666
 40
0.7142857142857143
 40
0.7142857142857143
 40
0.7142857142857143
 40
0.7142857142857143
 40
0.7619047619047619
 40
0.7619047619047619
 40
0.7619047619047619
 40
0.7619047619047619
 40
0.8095238095238095
 40
0.8095238095238095
 40
0.8095238095238095
 40
0.8095238095238095
 40
0.8571428571428571
 40
0.8571428571428571
 40
0.8571428571428571
 40
0.8571428571428571
 40
0.9047619047619048
 40
0.9047619047619048
 40
0.9047619047619048
 40
0.9047619047619048
 40
1.0
 40
1.0
 40
1.0
 40
1.0
 10
115.3312
 20
58.4207
 30
0.0
 10
115.3312
 20
58.4207
 30
0.0
 10
115.3312
 20
55.2045
 30
0.0
 10
115.3312
 20
55.2045
 30
0.0
 10
115.3312
 20
55.2045
 30
0.0
 10
110.7647
 20
53.8452
 30
0.0
 10
104.9006
 20
53.5097
 30
0.0
 10
101.3789
 20
56.7847
 30
0.0
 10
101.3789
 20
56.7847
 30
0.0
 10
99.3412
 20
59.1377
 30
0.0
 10
97.8455
 20
62.5367
 30
0.0
 10
94.6295
 20
63.239
 30
0.0
 10
94.6295
 20
63.239
 30
0.0
 10
92.5143
 20
63.5403
 30
0.0
 10
89.9244
 20
63.4414
 30
0.0
 10
87.2226
 20
63.0477
 30
0.0
 10
87.2226
 20
63.0477
 30
0.0
 10
86.7449
 20
66.4626
 30
0.0
 10
84.6907
 20
69.481
 30
0.0
 10
81.9281
 20
71.1784
 30
0.0
 10
81.9281
 20
71.1784
 30
0.0
 10
81.0794
 20
73.1067
 30
0.0
 10
81.3267
 20
74.8204
 30
0.0
 10
82.9827
 20
76.4029
 30
0.0
 10
82.9827
 20
76.4029
 30
0.0
 10
84.3907
 20
77.3165
 30
0.0
 10
85.8525
 20
77.6849
 30
0.0
 10
87.5177
 20
77.6573
 30
0.0
 10
87.5177
 20
77.6573
 30
0.0
 10
89.0846
 20
77.2575
 30
0.0
 10
89.9048
 20
76.5549
 30
0.0
 10
89.4795
 20
75.0519
 30
0.0
 10
89.4795
 20
75.0519
 30
0.0
 10
89.2955
 20
74.651
 30
0.0
 10
88.9106
 20
74.3894
 30
0.0
 10
88.3247
 20
74.2668
 30
0.0
 10
88.3247
 20
74.2668
 30
0.0
 10
87.9945
 20
74.1982
 30
0.0
 10
87.9134
 20
74.2561
 30
0.0
 10
87.6236
 20
74.423
 30
0.0
 10
87.6236
 20
74.423
 30
0.0
 10
87.1637
 20
74.688
 30
0.0
 10
86.7302
 20
74.9634
 30
0.0
 10
86.2301
 20
75.0971
 30
0.0
 10
86.2301
 20
75.0971
 30
0.0
 10
85.873
 20
75.1925
 30
0.0
 10
85.288
 20
75.1423
 30
0.0
 10
84.9372
 20
74.9998
 30
0.0
 10
84.9372
 20
74.9998
 30
0.0
 10
84.0467
 20
74.6377
 30
0.0
 10
83.9338
 20
73.8947
 30
0.0
 10
84.2836
 20
73.0841
 30
0.0
 10
84.2836
 20
73.0841
 30
0.0
 10
84.4948
 20
72.5951
 30
0.0
 10
84.814
 20
72.2457
 30
0.0
 10
85.2454
 20
71.9383
 30
0.0
 10
85.2454
 20
71.9383
 30
0.0
 10
86.3625
 20
71.1427
 30
0.0
 10
87.557
 20
70.6011
 30
0.0
 10
88.9004
 20
71.2568
 30
0.0
 10
88.9004
 20
71.2568
 30
0.0
 10
89.247
 20
71.306
 30
0.0
 10
89.4716
 20
71.18
 30
0.0
 10
89.4795
 20
70.7424
 30
0.0
 10
89.4795
 20
70.7424
 30
0.0
 10
91.1212
 20
65.929
 30
0.0
 10
95.2934
 20
64.496
 30
0.0
 10
99.6421
 20
66.8188
 30
0.0
 10
99.6421
 20
66.8188
 30
0.0
 10
99.8985
 20
66.9391
 30
0.0
 10
100.4174
 20
67.3466
 30
0.0
 10
100.3809
 20
66.8178
 30
0.0
 10
100.3809
 20
66.8178
 30
0.0
 10
99.8169
 20
62.9232
 30
0.0
 10
101.3767
 20
58.3531
 30
0.0
 10
105.7284
 20
56.8871
 30
0.0
 10
105.7284
 20
56.8871
 30
0.0
 10
108.4497
 20
55.8817
 30
0.0
 10
112.4547
 20
56.1891
 30
0.0
 10
115.3312
 20
58.4207
 30
0.0
  0
SPLINE
  5
4B
330
1F
100
AcDbEntity
  8
layer 1
 62
     7
370
     9
100
AcDbSpline
210
0.0
220
0.0
230
1.0
 70
    11
 71
     3
 72
    28
 73
    24
 74
     0
 42
0.0000000001
 43
0.0000000001
 12
1.0
 22
0.0
 32
0.0
 13
1.0
 23
0.0
 33
0.0
 40
0.0
 40
0.0
 40
0.0
 40
0.0
 40
0.1428571428571428
 40
0.1428571428571428
 40
0.1428571428571428
 40
0.1428571428571428
 40
0.2857142857142857
 40
0.2857142857142857
 40
0.2857142857142857
 40
0.2857142857142857
 40
0.4285714285714285
 40
0.4285714285714285
 40
0.4285714285714285
 40
0.4285714285714285
 40
0.5714285714285714
 40
0.5714285714285714
 40
0.5714285714285714
 40
0.5714285714285714
 40
0.7142857142857143
 40
0.7142857142857143
 40
0.7142857142857143
 40
0.7142857142857143
 40
1.0
 40
1.0
 40
1.0
 40
1.0
 10
115.3312
 20
51.2824
 30
0.0
 10
115.3312
 20
51.2824
 30
0.0
 10
115.3312
 20
45.8987
 30
0.0
 10
115.3312
 20
45.8987
 30
0.0
 10
115.3312
 20
45.8987
 30
0.0
 10
115.2816
 20
45.8857
 30
0.0
 10
115.2167
 20
45.929
 30
0.0
 10
115.1327
 20
46.0575
 30
0.0
 10
115.1327
 20
46.0575
 30
0.0
 10
114.9066
 20
46.5926
 30
0.0
 10
114.6214
 20
47.1374
 30
0.0
 10
114.2767
 20
47.696
 30
0.0
 10
114.2767
 20
47.696
 30
0.0
 10
113.5875
 20
48.7945
 30
0.0
 10
112.7223
 20
49.6695
 30
0.0
 10
111.8023
 20
50.2993
 30
0.0
 10
111.8023
 20
50.2993
 30
0.0
 10
111.5127
 20
50.517
 30
0.0
 10
111.7979
 20
50.6092
 30
0.0
 10
111.8272
 20
50.6259
 30
0.0
 10
111.8272
 20
50.6259
 30
0.0
 10
112.6462
 20
50.7693
 30
0.0
 10
114.2415
 20
51.0628
 30
0.0
 10
115.3312
 20
51.2824
 30
0.0
  0
SPLINE
  5
4C
330
1F
100
AcDbEntity
  8
layer 1
 62
     7
370
     9
100
AcDbSpline
210
0.0
220
0.0
230
1.0
 70
    11
 71
     3
 72
    24
 73
    20
 74
     0
 42
0.0000000001
 43
0.0000000001
 12
1.0
 22
0.0
 32
0.0
 13
1.0
 23
0.0
 33
0.0
 40
0.0
 40
0.0
 40
0.0
 40
0.0
 40
0.1666666666666667
 40
0.1666666666666667
 40
0.1666666666666667
 40
0.1666666666666667
 40
0.3333333333333333
 40
0.3333333333333333
 40
0.3333333333333333
 40
0.3333333333333333
 40
0.5
 40
0.5
 40
0.5
 40
0.5
 40
0.6666666666666666
 40
0.6666666666666666
 40
0.6666666666666666
 40
0.6666666666666666
 40
1.0
 40
1.0
 40
1.0
 40
1.0
 10
115.3312
 20
40.3183
 30
0.0
 10
115.3312
 20
40.3183
 30
0.0
 10
115.3312
 20
34.6915
 30
0.0
 10
115.3312
 20
34.6915
 30
0.0
 10
115.3312
 20
34.6915
 30
0.0
 10
115.3312
 20
34.6915
 30
0.0
 10
112.4757
 20
35.4749
 30
0.0
 10
112.4757
 20
35.4749
 30
0.0
 10
112.4757
 20
35.4749
 30
0.0
 10
113.1191
 20
36.5041
 30
0.0
 10
113.7621
 20
37.5331
 30
0.0
 10
114.4053
 20
38.5623
 30
0.0
 10
114.4053
 20
38.5623
 30
0.0
 10
114.728
 20
39.1123
 30
0.0
 10
114.9944
 20
39.6486
 30
0.0
 10
115.2044
 20
40.1763
 30
0.0
 10
115.2044
 20
40.1763
 30
0.0
 10
115.2524
 20
40.2699
 30
0.0
 10
115.2954
 20
40.3115
 30
0.0
 10
115.3312
 20
40.3183
 30
0.0
  0
SPLINE
  5
4D
330
1F
100
AcDbEntity
  8
layer 1
 62
     7
370
     9
100
AcDbSpline
210
0.0
220
0.0
230
1.0
 70
    11
 71
     3
 72
    60
 73
    56
 74
     0
 42
0.0000000001
 43
0.0000000001
 12
1.0
 22
0.0
 32
0.0
 13
1.0
 23
0.0
 33
0.0
 40
0.0
 40
0.0
 40
0.0
 40
0.0
 40
0.0666666666666667
 40
0.0666666666666667
 40
0.0666666666666667
 40
0.0666666666666667
 40
0.1333333333333333
 40
0.1333333333333333
 40
0.1333333333333333
 40
0.1333333333333333
 40
0.2
 40
0.2
 40
0.2
 40
0.2
 40
0.2666666666666667
 40
0.2666666666666667
 40
0.2666666666666667
 40
0.2666666666666667
 40
0.3333333333333333
 40
0.3333333333333333
 40
0.3333333333333333
 40
0.3333333333333333
 40
0.4
 40
0.4
 40
0.4
 40
0.4
 40
0.4666666666666667
 40
0.4666666666666667
 40
0.4666666666666667
 40
0.4666666666666667
 40
0.5333333333333333
 40
0.5333333333333333
 40
0.5333333333333333
 40
0.5333333333333333
 40
0.6
 40
0.6
 40
0.6
 40
0.6
 40
0.6666666666666666
 40
0.6666666666666666
 40
0.6666666666666666
 40
0.6666666666666666
 40
0.7333333333333333
 40
0.7333333333333333
 40
0.7333333333333333
 40
0.7333333333333333
 40
0.8
 40
0.8
 40
0.8
 40
0.8
 40
0.8666666666666667
 40
0.8666666666666667
 40
0.8666666666666667
 40
0.8666666666666667
 40
1.0
 40
1.0
 40
1.0
 40
1.0
 10
115.3312
 20
31.3716
 30
0.0
 10
115.3312
 20
31.3716
 30
0.0
 10
115.3312
 20
16.5511
 30
0.0
 10
115.3312
 20
16.5511
 30
0.0
 10
115.3312
 20
16.5511
 30
0.0
 10
115.2138
 20
16.4601
 30
0.0
 10
115.1061
 20
16.3358
 30
0.0
 10
114.9516
 20
16.3746
 30
0.0
 10
114.9516
 20
16.3746
 30
0.0
 10
112.0212
 20
15.1063
 30
0.0
 10
109.0109
 20
13.8452
 30
0.0
 10
106.5201
 20
11.6085
 30
0.0
 10
106.5201
 20
11.6085
 30
0.0
 10
107.1319
 20
14.5886
 30
0.0
 10
107.2115
 20
17.8096
 30
0.0
 10
107.1051
 20
19.4154
 30
0.0
 10
107.1051
 20
19.4154
 30
0.0
 10
108.238
 20
19.0179
 30
0.0
 10
109.4258
 20
18.9437
 30
0.0
 10
110.6749
 20
19.1373
 30
0.0
 10
110.6749
 20
19.1373
 30
0.0
 10
113.5564
 20
19.8675
 30
0.0
 10
115.0247
 20
21.9406
 30
0.0
 10
115.0863
 20
24.7032
 30
0.0
 10
115.0863
 20
24.7032
 30
0.0
 10
115.1209
 20
26.2651
 30
0.0
 10
114.6321
 20
28.0145
 30
0.0
 10
112.6687
 20
28.9784
 30
0.0
 10
112.6687
 20
28.9784
 30
0.0
 10
111.468
 20
29.6324
 30
0.0
 10
110.2673
 20
29.4822
 30
0.0
 10
109.0668
 20
29.1071
 30
0.0
 10
109.0668
 20
29.1071
 30
0.0
 10
107.3326
 20
28.4737
 30
0.0
 10
107.2684
 20
26.2245
 30
0.0
 10
109.0668
 20
25.5694
 30
0.0
 10
109.0668
 20
25.5694
 30
0.0
 10
109.4285
 20
25.4157
 30
0.0
 10
109.91
 20
25.3379
 30
0.0
 10
110.296
 20
25.4121
 30
0.0
 10
110.296
 20
25.4121
 30
0.0
 10
111.4035
 20
25.625
 30
0.0
 10
111.4426
 20
24.7779
 30
0.0
 10
111.6396
 20
24.476
 30
0.0
 10
111.6396
 20
24.476
 30
0.0
 10
112.0235
 20
22.2245
 30
0.0
 10
110.2794
 20
21.8099
 30
0.0
 10
108.4236
 20
22.3534
 30
0.0
 10
108.4236
 20
22.3534
 30
0.0
 10
105.0594
 20
23.3909
 30
0.0
 10
103.9826
 20
25.3771
 30
0.0
 10
104.6285
 20
28.0781
 30
0.0
 10
104.6285
 20
28.0781
 30
0.0
 10
106.5443
 20
34.0908
 30
0.0
 10
111.0726
 20
33.0895
 30
0.0
 10
115.3312
 20
31.3716
 30
0.0
  0
SPLINE
  5
4E
330
1F
100
AcDbEntity
  8
layer 1
 62
     7
370
     9
100
AcDbSpline
210
0.0
220
0.0
230
1.0
 70
    11
 71
     3
 72
    60
 73
    56
 74
     0
 42
0.0000000001
 43
0.0000000001
 12
1.0
 22
0.0
 32
0.0
 13
1.0
 23
0.0
 33
0.0
 40
0.0
 40
0.0
 40
0.0
 40
0.0
 40
0.0666666666666667
 40
0.0666666666666667
 40
0.0666666666666667
 40
0.0666666666666667
 40
0.1333333333333333
 40
0.1333333333333333
 40
0.1333333333333333
 40
0.1333333333333333
 40
0.2
 40
0.2
 40
0.2
 40
0.2
 40
0.2666666666666667
 40
0.2666666666666667
 40
0.2666666666666667
 40
0.2666666666666667
 40
0.3333333333333333
 40
0.3333333333333333
 40
0.3333333333333333
 40
0.3333333333333333
 40
0.4
 40
0.4
 40
0.4
 40
0.4
 40
0.4666666666666667
 40
0.4666666666666667
 40
0.4666666666666667
 40
0.4666666666666667
 40
0.5333333333333333
 40
0.5333333333333333
 40
0.5333333333333333
 40
0.5333333333333333
 40
0.6
 40
0.6
 40
0.6
 40
0.6
 40
0.6666666666666666
 40
0.6666666666666666
 40
0.6666666666666666
 40
0.6666666666666666
 40
0.7333333333333333
 40
0.7333333333333333
 40
0.7333333333333333
 40
0.7333333333333333
 40
0.8
 40
0.8
 40
0.8
 40
0.8
 40
0.8666666666666667
 40
0.8666666666666667
 40
0.8666666666666667
 40
0.8666666666666667
 40
1.0
 40
1.0
 40
1.0
 40
1.0
 10
115.3312
 20
7.9136
 30
0.0
 10
115.3312
 20
7.9136
 30
0.0
 10
115.3312
 20
5.5941
 30
0.0
 10
115.3312
 20
5.5941
 30
0.0
 10
115.3312
 20
5.5941
 30
0.0
 10
114.6448
 20
5.5157
 30
0.0
 10
113.8066
 20
5.4213
 30
0.0
 10
113.3371
 20
5.4366
 30
0.0
 10
113.3371
 20
5.4366
 30
0.0
 10
112.9638
 20
5.4442
 30
0.0
 10
112.6225
 20
5.663
 30
0.0
 10
112.5052
 20
6.1404
 30
0.0
 10
112.5052
 20
6.1404
 30
0.0
 10
112.4731
 20
6.5029
 30
0.0
 10
112.4413
 20
6.8655
 30
0.0
 10
112.4092
 20
7.2284
 30
0.0
 10
112.4092
 20
7.2284
 30
0.0
 10
111.6402
 20
9.8438
 30
0.0
 10
109.0209
 20
9.0489
 30
0.0
 10
108.8416
 20
6.9241
 30
0.0
 10
108.8416
 20
6.9241
 30
0.0
 10
109.3765
 20
2.4806
 30
0.0
 10
112.5839
 20
2.2258
 30
0.0
 10
115.3312
 20
2.2486
 30
0.0
 10
115.3312
 20
2.2486
 30
0.0
 10
115.3312
 20
2.2486
 30
0.0
 10
115.3312
 20
-0.9747
 30
0.0
 10
115.3312
 20
-0.9747
 30
0.0
 10
115.3312
 20
-0.9747
 30
0.0
 10
115.3312
 20
-0.9747
 30
0.0
 10
115.231
 20
-0.9747
 30
0.0
 10
115.231
 20
-0.9747
 30
0.0
 10
115.231
 20
-0.9747
 30
0.0
 10
115.231
 20
-0.9747
 30
0.0
 10
115.231
 20
-0.9868
 30
0.0
 10
115.231
 20
-0.9868
 30
0.0
 10
115.231
 20
-0.9868
 30
0.0
 10
113.5431
 20
-0.6368
 30
0.0
 10
111.8778
 20
-0.5161
 30
0.0
 10
110.2078
 20
-0.7217
 30
0.0
 10
110.2078
 20
-0.7217
 30
0.0
 10
109.8567
 20
-0.472
 30
0.0
 10
109.4887
 20
-0.1421
 30
0.0
 10
109.1084
 20
0.2897
 30
0.0
 10
109.1084
 20
0.2897
 30
0.0
 10
106.7593
 20
2.9556
 30
0.0
 10
105.7639
 20
5.7143
 30
0.0
 10
107.1819
 20
8.6371
 30
0.0
 10
107.1819
 20
8.6371
 30
0.0
 10
108.6534
 20
10.3338
 30
0.0
 10
110.4944
 20
11.1683
 30
0.0
 10
112.9931
 20
10.4671
 30
0.0
 10
112.9931
 20
10.4671
 30
0.0
 10
114.3096
 20
9.8545
 30
0.0
 10
114.9722
 20
8.9633
 30
0.0
 10
115.3312
 20
7.9136
 30
0.0
  0
SPLINE
  5
4F
330
1F
100
AcDbEntity
  8
layer 1
 62
     7
370
     9
100
AcDbSpline
210
0.0
220
0.0
230
1.0
 70
    11
 71
     3
 72
    68
 73
    64
 74
     0
 42
0.0000000001
 43
0.0000000001
 12
1.0
 22
0.0
 32
0.0
 13
1.0
 23
0.0
 33
0.0
 40
0.0
 40
0.0
 40
0.0
 40
0.0
 40
0.0588235294117647
 40
0.0588235294117647
 40
0.0588235294117647
 40
0.0588235294117647
 40
0.1176470588235294
 40
0.1176470588235294
 40
0.1176470588235294
 40
0.1176470588235294
 40
0.1764705882352941
 40
0.1764705882352941
 40
0.1764705882352941
 40
0.1764705882352941
 40
0.2352941176470588
 40
0.2352941176470588
 40
0.2352941176470588
 40
0.2352941176470588
 40
0.2941176470588235
 40
0.2941176470588235
 40
0.2941176470588235
 40
0.2941176470588235
 40
0.3529411764705883
 40
0.3529411764705883
 40
0.3529411764705883
 40
0.3529411764705883
 40
0.4117647058823529
 40
0.4117647058823529
 40
0.4117647058823529
 40
0.4117647058823529
 40
0.4705882352941176
 40
0.4705882352941176
 40
0.4705882352941176
 40
0.4705882352941176
 40
0.5294117647058824
 40
0.5294117647058824
 40
0.5294117647058824
 40
0.5294117647058824
 40
0.5882352941176471
 40
0.5882352941176471
 40
0.5882352941176471
 40
0.5882352941176471
 40
0.6470588235294118
 40
0.6470588235294118
 40
0.6470588235294118
 40
0.6470588235294118
 40
0.7058823529411765
 40
0.7058823529411765
 40
0.7058823529411765
 40
0.7058823529411765
 40
0.7647058823529411
 40
0.7647058823529411
 40
0.7647058823529411
 40
0.7647058823529411
 40
0.8235294117647058
 40
0.8235294117647058
 40
0.8235294117647058
 40
0.8235294117647058
 40
0.8823529411764706
 40
0.8823529411764706
 40
0.8823529411764706
 40
0.8823529411764706
 40
1.0
 40
1.0
 40
1.0
 40
1.0
 10
115.3312
 20
-4.6668
 30
0.0
 10
115.3312
 20
-4.6668
 30
0.0
 10
115.3312
 20
-8.5207
 30
0.0
 10
115.3312
 20
-8.5207
 30
0.0
 10
115.3312
 20
-8.5207
 30
0.0
 10
115.2401
 20
-8.5541
 30
0.0
 10
115.1131
 20
-8.5004
 30
0.0
 10
115.0369
 20
-8.4679
 30
0.0
 10
115.0369
 20
-8.4679
 30
0.0
 10
114.0867
 20
-7.9495
 30
0.0
 10
113.0666
 20
-7.5435
 30
0.0
 10
111.9765
 20
-7.3165
 30
0.0
 10
111.9765
 20
-7.3165
 30
0.0
 10
111.5417
 20
-7.226
 30
0.0
 10
111.188
 20
-7.1934
 30
0.0
 10
110.7464
 20
-7.2373
 30
0.0
 10
110.7464
 20
-7.2373
 30
0.0
 10
110.5622
 20
-7.2557
 30
0.0
 10
110.3835
 20
-7.2775
 30
0.0
 10
110.2091
 20
-7.2919
 30
0.0
 10
110.2091
 20
-7.2919
 30
0.0
 10
103.5158
 20
-7.8499
 30
0.0
 10
106.4742
 20
-16.0278
 30
0.0
 10
110.5143
 20
-11.8476
 30
0.0
 10
110.5143
 20
-11.8476
 30
0.0
 10
110.7353
 20
-11.619
 30
0.0
 10
110.9392
 20
-11.3737
 30
0.0
 10
111.1155
 20
-11.1226
 30
0.0
 10
111.1155
 20
-11.1226
 30
0.0
 10
111.188
 20
-11.0192
 30
0.0
 10
111.2173
 20
-10.9699
 30
0.0
 10
111.329
 20
-10.9094
 30
0.0
 10
111.329
 20
-10.9094
 30
0.0
 10
111.5457
 20
-10.7916
 30
0.0
 10
111.6332
 20
-10.789
 30
0.0
 10
111.8338
 20
-10.8115
 30
0.0
 10
111.8338
 20
-10.8115
 30
0.0
 10
111.9416
 20
-10.8234
 30
0.0
 10
111.9951
 20
-10.842
 30
0.0
 10
112.0887
 20
-10.8996
 30
0.0
 10
112.0887
 20
-10.8996
 30
0.0
 10
113.6579
 20
-11.8672
 30
0.0
 10
113.8684
 20
-15.0236
 30
0.0
 10
111.8323
 20
-15.9489
 30
0.0
 10
111.8323
 20
-15.9489
 30
0.0
 10
109.533
 20
-16.9943
 30
0.0
 10
104.9805
 20
-15.9303
 30
0.0
 10
104.2153
 20
-12.5818
 30
0.0
 10
104.2153
 20
-12.5818
 30
0.0
 10
103.8019
 20
-9.9261
 30
0.0
 10
104.5144
 20
-7.8056
 30
0.0
 10
106.1139
 20
-5.999
 30
0.0
 10
106.1139
 20
-5.999
 30
0.0
 10
106.4738
 20
-5.5924
 30
0.0
 10
106.782
 20
-5.3728
 30
0.0
 10
107.2561
 20
-5.1096
 30
0.0
 10
107.2561
 20
-5.1096
 30
0.0
 10
109.4817
 20
-3.8748
 30
0.0
 10
111.7839
 20
-3.2132
 30
0.0
 10
114.307
 20
-4.2113
 30
0.0
 10
114.307
 20
-4.2113
 30
0.0
 10
114.307
 20
-4.2113
 30
0.0
 10
115.3312
 20
-4.6668
 30
0.0
 10
115.3312
 20
-4.6668
 30
0.0
  0
SPLINE
  5
50
330
1F
100
AcDbEntity
  8
layer 1
 62
     7
370
     9
100
AcDbSpline
210
0.0
220
0.0
230
1.0
 70
    11
 71
     3
 72
    88
 73
    84
 74
     0
 42
0.0000000001
 43
0.0000000001
 12
1.0
 22
0.0
 32
0.0
 13
1.0
 23
0.0
 33
0.0
 40
0.0
 40
0.0
 40
0.0
 40
0.0
 40
0.0454545454545455
 40
0.0454545454545455
 40
0.0454545454545455
 40
0.0454545454545455
 40
0.0909090909090909
 40
0.0909090909090909
 40
0.0909090909090909
 40
0.0909090909090909
 40
0.1363636363636364
 40
0.1363636363636364
 40
0.1363636363636364
 40
0.1363636363636364
 40
0.1818181818181818
 40
0.1818181818181818
 40
0.1818181818181818
 40
0.1818181818181818
 40
0.2272727272727273
 40
0.2272727272727273
 40
0.2272727272727273
 40
0.2272727272727273
 40
0.2727272727272727
 40
0.2727272727272727
 40
0.2727272727272727
 40
0.2727272727272727
 40
0.3181818181818182
 40
0.3181818181818182
 40
0.3181818181818182
 40
0.3181818181818182
 40
0.3636363636363636
 40
0.3636363636363636
 40
0.3636363636363636
 40
0.3636363636363636
 40
0.4090909090909091
 40
0.4090909090909091
 40
0.4090909090909091
 40
0.4090909090909091
 40
0.4545454545454545
 40
0.4545454545454545
 40
0.4545454545454545
 40
0.4545454545454545
 40
0.5
 40
0.5
 40
0.5
 40
0.5
 40
0.5454545454545454
 40
0.5454545454545454
 40
0.5454545454545454
 40
0.5454545454545454
 40
0.5909090909090909
 40
0.5909090909090909
 40
0.5909090909090909
 40
0.5909090909090909
 40
0.6363636363636364
 40
0.6363636363636364
 40
0.6363636363636364
 40
0.6363636363636364
 40
0.6818181818181818
 40
0.6818181818181818
 40
0.6818181818181818
 40
0.6818181818181818
 40
0.7272727272727273
 40
0.7272727272727273
 40
0.7272727272727273
 40
0.7272727272727273
 40
0.7727272727272727
 40
0.7727272727272727
 40
0.7727272727272727
 40
0.7727272727272727
 40
0.8181818181818182
 40
0.8181818181818182
 40
0.8181818181818182
 40
0.8181818181818182
 40
0.8636363636363636
 40
0.8636363636363636
 40
0.8636363636363636
 40
0.8636363636363636
 40
0.9090909090909091
 40
0.9090909090909091
 40
0.9090909090909091
 40
0.9090909090909091
 40
1.0
 40
1.0
 40
1.0
 40
1.0
 10
115.3312
 20
-17.8506
 30
0.0
 10
115.3312
 20
-17.8506
 30
0.0
 10
115.3312
 20
-20.6742
 30
0.0
 10
115.3312
 20
-20.6742
 30
0.0
 10
115.3312
 20
-20.6742
 30
0.0
 10
110.8246
 20
-22.0351
 30
0.0
 10
105.2677
 20
-22.456
 30
0.0
 10
101.7644
 20
-19.1981
 30
0.0
 10
101.7644
 20
-19.1981
 30
0.0
 10
100.5789
 20
-18.096
 30
0.0
 10
100.274
 20
-16.7827
 30
0.0
 10
99.428
 20
-15.6107
 30
0.0
 10
99.428
 20
-15.6107
 30
0.0
 10
98.4065
 20
-14.1968
 30
0.0
 10
96.4739
 20
-13.0682
 30
0.0
 10
94.7152
 20
-12.684
 30
0.0
 10
94.7152
 20
-12.684
 30
0.0
 10
92.5998
 20
-12.3828
 30
0.0
 10
90.31
 20
-12.5413
 30
0.0
 10
87.6081
 20
-12.9351
 30
0.0
 10
87.6081
 20
-12.9351
 30
0.0
 10
87.1305
 20
-9.52
 30
0.0
 10
85.0762
 20
-6.5017
 30
0.0
 10
82.3134
 20
-4.8044
 30
0.0
 10
82.3134
 20
-4.8044
 30
0.0
 10
81.4647
 20
-2.8762
 30
0.0
 10
81.7123
 20
-1.1624
 30
0.0
 10
83.3683
 20
0.4202
 30
0.0
 10
83.3683
 20
0.4202
 30
0.0
 10
84.776
 20
1.3336
 30
0.0
 10
86.2381
 20
1.7023
 30
0.0
 10
87.9031
 20
1.6745
 30
0.0
 10
87.9031
 20
1.6745
 30
0.0
 10
89.4702
 20
1.2746
 30
0.0
 10
90.2904
 20
0.5722
 30
0.0
 10
89.8648
 20
-0.931
 30
0.0
 10
89.8648
 20
-0.931
 30
0.0
 10
89.6962
 20
-1.2986
 30
0.0
 10
89.3583
 20
-1.5493
 30
0.0
 10
88.851
 20
-1.6825
 30
0.0
 10
88.851
 20
-1.6825
 30
0.0
 10
88.4625
 20
-1.7846
 30
0.0
 10
87.9674
 20
-1.6677
 30
0.0
 10
87.4551
 20
-1.4904
 30
0.0
 10
87.4551
 20
-1.4904
 30
0.0
 10
86.7198
 20
-1.2362
 30
0.0
 10
85.9523
 20
-0.669
 30
0.0
 10
85.1956
 20
-1.0399
 30
0.0
 10
85.1956
 20
-1.0399
 30
0.0
 10
84.441
 20
-1.4099
 30
0.0
 10
84.3763
 20
-2.2137
 30
0.0
 10
84.6981
 20
-2.9727
 30
0.0
 10
84.6981
 20
-2.9727
 30
0.0
 10
84.8718
 20
-3.3827
 30
0.0
 10
85.0655
 20
-3.5527
 30
0.0
 10
85.4021
 20
-3.84
 30
0.0
 10
85.4021
 20
-3.84
 30
0.0
 10
86.5618
 20
-4.8305
 30
0.0
 10
87.8302
 20
-5.4364
 30
0.0
 10
89.286
 20
-4.7258
 30
0.0
 10
89.286
 20
-4.7258
 30
0.0
 10
89.6326
 20
-4.6769
 30
0.0
 10
89.8572
 20
-4.803
 30
0.0
 10
89.8648
 20
-5.2405
 30
0.0
 10
89.8648
 20
-5.2405
 30
0.0
 10
90.6282
 20
-7.478
 30
0.0
 10
91.8977
 20
-9.3858
 30
0.0
 10
94.7533
 20
-10.2574
 30
0.0
 10
94.7533
 20
-10.2574
 30
0.0
 10
96.5324
 20
-10.4388
 30
0.0
 10
98.2912
 20
-10.0915
 30
0.0
 10
100.0277
 20
-9.1639
 30
0.0
 10
100.0277
 20
-9.1639
 30
0.0
 10
100.3968
 20
-8.909
 30
0.0
 10
100.7285
 20
-8.6369
 30
0.0
 10
101.0229
 20
-8.3506
 30
0.0
 10
101.0229
 20
-8.3506
 30
0.0
 10
100.9365
 20
-8.6093
 30
0.0
 10
100.8513
 20
-8.8801
 30
0.0
 10
100.7665
 20
-9.165
 30
0.0
 10
100.7665
 20
-9.165
 30
0.0
 10
99.0798
 20
-18.0731
 30
0.0
 10
108.8588
 20
-22.6134
 30
0.0
 10
115.3312
 20
-17.8506
 30
0.0
  0
SPLINE
  5
51
330
1F
100
AcDbEntity
  8
layer 1
 62
     7
370
     9
100
AcDbSpline
210
0.0
220
0.0
230
1.0
 70
    11
 71
     3
 72
    28
 73
    24
 74
     0
 42
0.0000000001
 43
0.0000000001
 12
1.0
 22
0.0
 32
0.0
 13
1.0
 23
0.0
 33
0.0
 40
0.0
 40
0.0
 40
0.0
 40
0.0
 40
0.1428571428571428
 40
0.1428571428571428
 40
0.1428571428571428
 40
0.1428571428571428
 40
0.2857142857142857
 40
0.2857142857142857
 40
0.2857142857142857
 40
0.2857142857142857
 40
0.4285714285714285
 40
0.4285714285714285
 40
0.4285714285714285
 40
0.4285714285714285
 40
0.5714285714285714
 40
0.5714285714285714
 40
0.5714285714285714
 40
0.5714285714285714
 40
0.7142857142857143
 40
0.7142857142857143
 40
0.7142857142857143
 40
0.7142857142857143
 40
1.0
 40
1.0
 40
1.0
 40
1.0
 10
115.3312
 20
-24.6226
 30
0.0
 10
115.3312
 20
-24.6226
 30
0.0
 10
115.3312
 20
-31.1413
 30
0.0
 10
115.3312
 20
-31.1413
 30
0.0
 10
115.3312
 20
-31.1413
 30
0.0
 10
115.2901
 20
-31.1286
 30
0.0
 10
115.2418
 20
-31.0823
 30
0.0
 10
115.1942
 20
-30.9977
 30
0.0
 10
115.1942
 20
-30.9977
 30
0.0
 10
114.9462
 20
-30.3049
 30
0.0
 10
114.5976
 20
-29.604
 30
0.0
 10
114.1483
 20
-28.8779
 30
0.0
 10
114.1483
 20
-28.8779
 30
0.0
 10
113.3013
 20
-27.5223
 30
0.0
 10
112.2024
 20
-26.5222
 30
0.0
 10
110.9933
 20
-25.8647
 30
0.0
 10
110.9933
 20
-25.8647
 30
0.0
 10
110.8024
 20
-25.6966
 30
0.0
 10
110.8258
 20
-25.5406
 30
0.0
 10
111.0865
 20
-25.5033
 30
0.0
 10
111.0865
 20
-25.5033
 30
0.0
 10
112.2052
 20
-25.3273
 30
0.0
 10
114.0566
 20
-24.9278
 30
0.0
 10
115.3312
 20
-24.6226
 30
0.0
  0
SPLINE
  5
52
330
1F
100
AcDbEntity
  8
layer 1
 62
     7
370
     9
100
AcDbSpline
210
0.0
220
0.0
230
1.0
 70
    11
 71
     3
 72
    24
 73
    20
 74
     0
 42
0.0000000001
 43
0.0000000001
 12
1.0
 22
0.0
 32
0.0
 13
1.0
 23
0.0
 33
0.0
 40
0.0
 40
0.0
 40
0.0
 40
0.0
 40
0.1666666666666667
 40
0.1666666666666667
 40
0.1666666666666667
 40
0.1666666666666667
 40
0.3333333333333333
 40
0.3333333333333333
 40
0.3333333333333333
 40
0.3333333333333333
 40
0.5
 40
0.5
 40
0.5
 40
0.5
 40
0.6666666666666666
 40
0.6666666666666666
 40
0.6666666666666666
 40
0.6666666666666666
 40
1.0
 40
1.0
 40
1.0
 40
1.0
 10
115.3312
 20
-35.9228
 30
0.0
 10
115.3312
 20
-35.9228
 30
0.0
 10
115.3312
 20
-41.9177
 30
0.0
 10
115.3312
 20
-41.9177
 30
0.0
 10
115.3312
 20
-41.9177
 30
0.0
 10
115.3312
 20
-41.9177
 30
0.0
 10
112.347
 20
-41.0989
 30
0.0
 10
112.347
 20
-41.0989
 30
0.0
 10
112.347
 20
-41.0989
 30
0.0
 10
112.9904
 20
-40.0701
 30
0.0
 10
113.6336
 20
-39.0407
 30
0.0
 10
114.2767
 20
-38.0117
 30
0.0
 10
114.2767
 20
-38.0117
 30
0.0
 10
114.6753
 20
-37.3332
 30
0.0
 10
114.9876
 20
-36.6748
 30
0.0
 10
115.214
 20
-36.0281
 30
0.0
 10
115.214
 20
-36.0281
 30
0.0
 10
115.255
 20
-35.9644
 30
0.0
 10
115.2958
 20
-35.9268
 30
0.0
 10
115.3312
 20
-35.9228
 30
0.0
  0
SPLINE
  5
53
330
1F
100
AcDbEntity
  8
layer 1
 62
     7
370
     9
100
AcDbSpline
210
0.0
220
0.0
230
1.0
 70
    11
 71
     3
 72
    68
 73
    64
 74
     0
 42
0.0000000001
 43
0.0000000001
 12
1.0
 22
0.0
 32
0.0
 13
1.0
 23
0.0
 33
0.0
 40
0.0
 40
0.0
 40
0.0
 40
0.0
 40
0.0588235294117647
 40
0.0588235294117647
 40
0.0588235294117647
 40
0.0588235294117647
 40
0.1176470588235294
 40
0.1176470588235294
 40
0.1176470588235294
 40
0.1176470588235294
 40
0.1764705882352941
 40
0.1764705882352941
 40
0.1764705882352941
 40
0.1764705882352941
 40
0.2352941176470588
 40
0.2352941176470588
 40
0.2352941176470588
 40
0.2352941176470588
 40
0.2941176470588235
 40
0.2941176470588235
 40
0.2941176470588235
 40
0.2941176470588235
 40
0.3529411764705883
 40
0.3529411764705883
 40
0.3529411764705883
 40
0.3529411764705883
 40
0.4117647058823529
 40
0.4117647058823529
 40
0.4117647058823529
 40
0.4117647058823529
 40
0.4705882352941176
 40
0.4705882352941176
 40
0.4705882352941176
 40
0.4705882352941176
 40
0.5294117647058824
 40
0.5294117647058824
 40
0.5294117647058824
 40
0.5294117647058824
 40
0.5882352941176471
 40
0.5882352941176471
 40
0.5882352941176471
 40
0.5882352941176471
 40
0.6470588235294118
 40
0.6470588235294118
 40
0.6470588235294118
 40
0.6470588235294118
 40
0.7058823529411765
 40
0.7058823529411765
 40
0.7058823529411765
 40
0.7058823529411765
 40
0.7647058823529411
 40
0.7647058823529411
 40
0.7647058823529411
 40
0.7647058823529411
 40
0.8235294117647058
 40
0.8235294117647058
 40
0.8235294117647058
 40
0.8235294117647058
 40
0.8823529411764706
 40
0.8823529411764706
 40
0.8823529411764706
 40
0.8823529411764706
 40
1.0
 40
1.0
 40
1.0
 40
1.0
 10
115.3312
 20
-45.2547
 30
0.0
 10
115.3312
 20
-45.2547
 30
0.0
 10
115.3312
 20
-59.9732
 30
0.0
 10
115.3312
 20
-59.9732
 30
0.0
 10
115.3312
 20
-59.9732
 30
0.0
 10
115.1185
 20
-60.0491
 30
0.0
 10
114.986
 20
-60.1339
 30
0.0
 10
114.823
 20
-60.1995
 30
0.0
 10
114.823
 20
-60.1995
 30
0.0
 10
112.053
 20
-61.3985
 30
0.0
 10
109.2112
 20
-62.5909
 30
0.0
 10
106.8046
 20
-64.6071
 30
0.0
 10
106.8046
 20
-64.6071
 30
0.0
 10
106.5574
 20
-64.7264
 30
0.0
 10
106.5504
 20
-64.5441
 30
0.0
 10
106.5636
 20
-64.4747
 30
0.0
 10
106.5636
 20
-64.4747
 30
0.0
 10
107.3926
 20
-61.9259
 30
0.0
 10
107.2765
 20
-59.2767
 30
0.0
 10
107.0545
 20
-57.6643
 30
0.0
 10
107.0545
 20
-57.6643
 30
0.0
 10
106.974
 20
-57.3697
 30
0.0
 10
107.2428
 20
-57.2416
 30
0.0
 10
107.35
 20
-57.2776
 30
0.0
 10
107.35
 20
-57.2776
 30
0.0
 10
108.37
 20
-57.5691
 30
0.0
 10
109.4337
 20
-57.6091
 30
0.0
 10
110.5462
 20
-57.4366
 30
0.0
 10
110.5462
 20
-57.4366
 30
0.0
 10
113.4279
 20
-56.7067
 30
0.0
 10
114.8962
 20
-54.6333
 30
0.0
 10
114.9575
 20
-51.8707
 30
0.0
 10
114.9575
 20
-51.8707
 30
0.0
 10
114.9922
 20
-50.3089
 30
0.0
 10
114.5036
 20
-48.5596
 30
0.0
 10
112.5401
 20
-47.5957
 30
0.0
 10
112.5401
 20
-47.5957
 30
0.0
 10
111.3393
 20
-46.9416
 30
0.0
 10
110.1386
 20
-47.0918
 30
0.0
 10
108.938
 20
-47.467
 30
0.0
 10
108.938
 20
-47.467
 30
0.0
 10
107.2039
 20
-48.1002
 30
0.0
 10
107.1398
 20
-50.3497
 30
0.0
 10
108.938
 20
-51.0045
 30
0.0
 10
108.938
 20
-51.0045
 30
0.0
 10
109.3
 20
-51.1581
 30
0.0
 10
109.7816
 20
-51.2359
 30
0.0
 10
110.1674
 20
-51.1619
 30
0.0
 10
110.1674
 20
-51.1619
 30
0.0
 10
111.2748
 20
-50.9491
 30
0.0
 10
111.3142
 20
-51.7962
 30
0.0
 10
111.511
 20
-52.0981
 30
0.0
 10
111.511
 20
-52.0981
 30
0.0
 10
111.8947
 20
-54.3496
 30
0.0
 10
110.1506
 20
-54.7639
 30
0.0
 10
108.2949
 20
-54.2208
 30
0.0
 10
108.2949
 20
-54.2208
 30
0.0
 10
104.9306
 20
-53.1833
 30
0.0
 10
103.8539
 20
-51.197
 30
0.0
 10
104.4998
 20
-48.4961
 30
0.0
 10
104.4998
 20
-48.4961
 30
0.0
 10
106.4349
 20
-42.4225
 30
0.0
 10
111.0357
 20
-43.5055
 30
0.0
 10
115.3312
 20
-45.2547
 30
0.0
  0
SPLINE
  5
54
330
1F
100
AcDbEntity
  8
layer 1
 62
     7
370
     9
100
AcDbSpline
210
0.0
220
0.0
230
1.0
 70
    11
 71
     3
 72
    72
 73
    68
 74
     0
 42
0.0000000001
 43
0.0000000001
 12
1.0
 22
0.0
 32
0.0
 13
1.0
 23
0.0
 33
0.0
 40
0.0
 40
0.0
 40
0.0
 40
0.0
 40
0.0555555555555556
 40
0.0555555555555556
 40
0.0555555555555556
 40
0.0555555555555556
 40
0.1111111111111111
 40
0.1111111111111111
 40
0.1111111111111111
 40
0.1111111111111111
 40
0.1666666666666667
 40
0.1666666666666667
 40
0.1666666666666667
 40
0.1666666666666667
 40
0.2222222222222222
 40
0.2222222222222222
 40
0.2222222222222222
 40
0.2222222222222222
 40
0.2777777777777778
 40
0.2777777777777778
 40
0.2777777777777778
 40
0.2777777777777778
 40
0.3333333333333333
 40
0.3333333333333333
 40
0.3333333333333333
 40
0.3333333333333333
 40
0.3888888888888889
 40
0.3888888888888889
 40
0.3888888888888889
 40
0.3888888888888889
 40
0.4444444444444444
 40
0.4444444444444444
 40
0.4444444444444444
 40
0.4444444444444444
 40
0.5
 40
0.5
 40
0.5
 40
0.5
 40
0.5555555555555556
 40
0.5555555555555556
 40
0.5555555555555556
 40
0.5555555555555556
 40
0.6111111111111112
 40
0.6111111111111112
 40
0.6111111111111112
 40
0.6111111111111112
 40
0.6666666666666666
 40
0.6666666666666666
 40
0.6666666666666666
 40
0.6666666666666666
 40
0.7222222222222222
 40
0.7222222222222222
 40
0.7222222222222222
 40
0.7222222222222222
 40
0.7777777777777778
 40
0.7777777777777778
 40
0.7777777777777778
 40
0.7777777777777778
 40
0.8333333333333334
 40
0.8333333333333334
 40
0.8333333333333334
 40
0.8333333333333334
 40
0.8888888888888888
 40
0.8888888888888888
 40
0.8888888888888888
 40
0.8888888888888888
 40
1.0
 40
1.0
 40
1.0
 40
1.0
 10
115.3312
 20
-68.784
 30
0.0
 10
115.3312
 20
-68.784
 30
0.0
 10
115.3312
 20
-70.921
 30
0.0
 10
115.3312
 20
-70.921
 30
0.0
 10
115.3312
 20
-70.921
 30
0.0
 10
114.9148
 20
-71.0799
 30
0.0
 10
114.2971
 20
-71.3218
 30
0.0
 10
113.2084
 20
-71.1376
 30
0.0
 10
113.2084
 20
-71.1376
 30
0.0
 10
112.8353
 20
-71.1299
 30
0.0
 10
112.494
 20
-70.9112
 30
0.0
 10
112.3765
 20
-70.4336
 30
0.0
 10
112.3765
 20
-70.4336
 30
0.0
 10
112.3446
 20
-70.0711
 30
0.0
 10
112.3126
 20
-69.7085
 30
0.0
 10
112.2806
 20
-69.3458
 30
0.0
 10
112.2806
 20
-69.3458
 30
0.0
 10
111.5115
 20
-66.7304
 30
0.0
 10
108.8921
 20
-67.525
 30
0.0
 10
108.7132
 20
-69.6498
 30
0.0
 10
108.7132
 20
-69.6498
 30
0.0
 10
109.2472
 20
-74.0878
 30
0.0
 10
112.3297
 20
-74.2886
 30
0.0
 10
115.0644
 20
-74.2615
 30
0.0
 10
115.0644
 20
-74.2615
 30
0.0
 10
115.1618
 20
-74.2775
 30
0.0
 10
115.2594
 20
-74.2853
 30
0.0
 10
115.3312
 20
-74.3336
 30
0.0
 10
115.3312
 20
-74.3336
 30
0.0
 10
115.3312
 20
-74.3336
 30
0.0
 10
115.3312
 20
-77.5817
 30
0.0
 10
115.3312
 20
-77.5817
 30
0.0
 10
115.3312
 20
-77.5817
 30
0.0
 10
115.3119
 20
-77.5817
 30
0.0
 10
115.2896
 20
-77.5798
 30
0.0
 10
115.2628
 20
-77.5749
 30
0.0
 10
115.2628
 20
-77.5749
 30
0.0
 10
113.8545
 20
-77.3163
 30
0.0
 10
112.1581
 20
-77.1557
 30
0.0
 10
110.7365
 20
-77.237
 30
0.0
 10
110.7365
 20
-77.237
 30
0.0
 10
110.1924
 20
-77.2679
 30
0.0
 10
110.1001
 20
-77.3434
 30
0.0
 10
109.6774
 20
-76.9794
 30
0.0
 10
109.6774
 20
-76.9794
 30
0.0
 10
109.4504
 20
-76.784
 30
0.0
 10
109.2173
 20
-76.5541
 30
0.0
 10
108.9797
 20
-76.2844
 30
0.0
 10
108.9797
 20
-76.2844
 30
0.0
 10
106.8692
 20
-73.8892
 30
0.0
 10
105.8516
 20
-71.419
 30
0.0
 10
106.695
 20
-68.8224
 30
0.0
 10
106.695
 20
-68.8224
 30
0.0
 10
106.9171
 20
-68.1377
 30
0.0
 10
107.1663
 20
-67.7577
 30
0.0
 10
107.6969
 20
-67.2742
 30
0.0
 10
107.6969
 20
-67.2742
 30
0.0
 10
108.8749
 20
-66.2005
 30
0.0
 10
110.2811
 20
-65.6582
 30
0.0
 10
112.0343
 20
-65.9259
 30
0.0
 10
112.0343
 20
-65.9259
 30
0.0
 10
112.6367
 20
-66.0178
 30
0.0
 10
113.0962
 20
-66.1837
 30
0.0
 10
113.6124
 20
-66.5092
 30
0.0
 10
113.6124
 20
-66.5092
 30
0.0
 10
114.4775
 20
-67.0548
 30
0.0
 10
115.04
 20
-67.7556
 30
0.0
 10
115.3312
 20
-68.784
 30
0.0
  0
SPLINE
  5
55
330
1F
100
AcDbEntity
  8
layer 1
 62
     7
370
     9
100
AcDbSpline
210
0.0
220
0.0
230
1.0
 70
    11
 71
     3
 72
    48
 73
    44
 74
     0
 42
0.0000000001
 43
0.0000000001
 12
1.0
 22
0.0
 32
0.0
 13
1.0
 23
0.0
 33
0.0
 40
0.0
 40
0.0
 40
0.0
 40
0.0
 40
0.0833333333333333
 40
0.0833333333333333
 40
0.0833333333333333
 40
0.0833333333333333
 40
0.1666666666666667
 40
0.1666666666666667
 40
0.1666666666666667
 40
0.1666666666666667
 40
0.25
 40
0.25
 40
0.25
 40
0.25
 40
0.3333333333333333
 40
0.3333333333333333
 40
0.3333333333333333
 40
0.3333333333333333
 40
0.4166666666666667
 40
0.4166666666666667
 40
0.4166666666666667
 40
0.4166666666666667
 40
0.5
 40
0.5
 40
0.5
 40
0.5
 40
0.5833333333333334
 40
0.5833333333333334
 40
0.5833333333333334
 40
0.5833333333333334
 40
0.6666666666666666
 40
0.6666666666666666
 40
0.6666666666666666
 40
0.6666666666666666
 40
0.75
 40
0.75
 40
0.75
 40
0.75
 40
0.8333333333333334
 40
0.8333333333333334
 40
0.8333333333333334
 40
0.8333333333333334
 40
1.0
 40
1.0
 40
1.0
 40
1.0
 10
115.3312
 20
-81.1813
 30
0.0
 10
115.3312
 20
-81.1813
 30
0.0
 10
115.3312
 20
-85.2822
 30
0.0
 10
115.3312
 20
-85.2822
 30
0.0
 10
115.3312
 20
-85.2822
 30
0.0
 10
114.0776
 20
-84.5389
 30
0.0
 10
112.6966
 20
-83.9837
 30
0.0
 10
111.188
 20
-83.7767
 30
0.0
 10
111.188
 20
-83.7767
 30
0.0
 10
106.1624
 20
-83.8124
 30
0.0
 10
104.9809
 20
-88.4898
 30
0.0
 10
107.5211
 20
-89.6941
 30
0.0
 10
107.5211
 20
-89.6941
 30
0.0
 10
108.2917
 20
-90.0594
 30
0.0
 10
109.8787
 20
-89.4773
 30
0.0
 10
110.6526
 20
-88.3638
 30
0.0
 10
110.6526
 20
-88.3638
 30
0.0
 10
110.8433
 20
-88.0898
 30
0.0
 10
110.9947
 20
-87.7833
 30
0.0
 10
111.1398
 20
-87.4961
 30
0.0
 10
111.1398
 20
-87.4961
 30
0.0
 10
111.2815
 20
-87.3571
 30
0.0
 10
111.4805
 20
-87.2896
 30
0.0
 10
111.8032
 20
-87.3866
 30
0.0
 10
111.8032
 20
-87.3866
 30
0.0
 10
113.5135
 20
-88.2344
 30
0.0
 10
113.8059
 20
-91.5674
 30
0.0
 10
111.7039
 20
-92.523
 30
0.0
 10
111.7039
 20
-92.523
 30
0.0
 10
109.4045
 20
-93.5684
 30
0.0
 10
104.6519
 20
-92.6243
 30
0.0
 10
103.8871
 20
-89.2758
 30
0.0
 10
103.8871
 20
-89.2758
 30
0.0
 10
103.4257
 20
-86.374
 30
0.0
 10
104.4384
 20
-84.0316
 30
0.0
 10
106.4597
 20
-82.0718
 30
0.0
 10
106.4597
 20
-82.0718
 30
0.0
 10
108.8933
 20
-80.5982
 30
0.0
 10
111.402
 20
-79.6869
 30
0.0
 10
114.1783
 20
-80.7853
 30
0.0
 10
114.1783
 20
-80.7853
 30
0.0
 10
114.4235
 20
-80.8942
 30
0.0
 10
114.9101
 20
-81.0429
 30
0.0
 10
115.3312
 20
-81.1813
 30
0.0
  0
SPLINE
  5
56
330
1F
100
AcDbEntity
  8
layer 1
 62
     7
370
     9
100
AcDbSpline
210
0.0
220
0.0
230
1.0
 70
    11
 71
     3
 72
    88
 73
    84
 74
     0
 42
0.0000000001
 43
0.0000000001
 12
1.0
 22
0.0
 32
0.0
 13
1.0
 23
0.0
 33
0.0
 40
0.0
 40
0.0
 40
0.0
 40
0.0
 40
0.0454545454545455
 40
0.0454545454545455
 40
0.0454545454545455
 40
0.0454545454545455
 40
0.0909090909090909
 40
0.0909090909090909
 40
0.0909090909090909
 40
0.0909090909090909
 40
0.1363636363636364
 40
0.1363636363636364
 40
0.1363636363636364
 40
0.1363636363636364
 40
0.1818181818181818
 40
0.1818181818181818
 40
0.1818181818181818
 40
0.1818181818181818
 40
0.2272727272727273
 40
0.2272727272727273
 40
0.2272727272727273
 40
0.2272727272727273
 40
0.2727272727272727
 40
0.2727272727272727
 40
0.2727272727272727
 40
0.2727272727272727
 40
0.3181818181818182
 40
0.3181818181818182
 40
0.3181818181818182
 40
0.3181818181818182
 40
0.3636363636363636
 40
0.3636363636363636
 40
0.3636363636363636
 40
0.3636363636363636
 40
0.4090909090909091
 40
0.4090909090909091
 40
0.4090909090909091
 40
0.4090909090909091
 40
0.4545454545454545
 40
0.4545454545454545
 40
0.4545454545454545
 40
0.4545454545454545
 40
0.5
 40
0.5
 40
0.5
 40
0.5
 40
0.5454545454545454
 40
0.5454545454545454
 40
0.5454545454545454
 40
0.5454545454545454
 40
0.5909090909090909
 40
0.5909090909090909
 40
0.5909090909090909
 40
0.5909090909090909
 40
0.6363636363636364
 40
0.6363636363636364
 40
0.6363636363636364
 40
0.6363636363636364
 40
0.6818181818181818
 40
0.6818181818181818
 40
0.6818181818181818
 40
0.6818181818181818
 40
0.7272727272727273
 40
0.7272727272727273
 40
0.7272727272727273
 40
0.7272727272727273
 40
0.7727272727272727
 40
0.7727272727272727
 40
0.7727272727272727
 40
0.7727272727272727
 40
0.8181818181818182
 40
0.8181818181818182
 40
0.8181818181818182
 40
0.8181818181818182
 40
0.8636363636363636
 40
0.8636363636363636
 40
0.8636363636363636
 40
0.8636363636363636
 40
0.9090909090909091
 40
0.9090909090909091
 40
0.9090909090909091
 40
0.9090909090909091
 40
1.0
 40
1.0
 40
1.0
 40
1.0
 10
115.3312
 20
-94.4329
 30
0.0
 10
115.3312
 20
-94.4329
 30
0.0
 10
115.3312
 20
-97.4011
 30
0.0
 10
115.3312
 20
-97.4011
 30
0.0
 10
115.3312
 20
-97.4011
 30
0.0
 10
107.3934
 20
-100.0078
 30
0.0
 10
103.3663
 20
-98.2379
 30
0.0
 10
98.6041
 20
-91.9448
 30
0.0
 10
98.6041
 20
-91.9448
 30
0.0
 10
97.1252
 20
-89.9899
 30
0.0
 10
95.2868
 20
-89.0435
 30
0.0
 10
92.8213
 20
-89.0422
 30
0.0
 10
92.8213
 20
-89.0422
 30
0.0
 10
91.1698
 20
-89.0409
 30
0.0
 10
89.3368
 20
-89.2381
 30
0.0
 10
87.4794
 20
-89.5085
 30
0.0
 10
87.4794
 20
-89.5085
 30
0.0
 10
87.0018
 20
-86.0938
 30
0.0
 10
84.9476
 20
-83.075
 30
0.0
 10
82.1847
 20
-81.3777
 30
0.0
 10
82.1847
 20
-81.3777
 30
0.0
 10
81.3363
 20
-79.4493
 30
0.0
 10
81.5839
 20
-77.7363
 30
0.0
 10
83.2396
 20
-76.1539
 30
0.0
 10
83.2396
 20
-76.1539
 30
0.0
 10
84.6473
 20
-75.2405
 30
0.0
 10
86.1094
 20
-74.8718
 30
0.0
 10
87.7746
 20
-74.8994
 30
0.0
 10
87.7746
 20
-74.8994
 30
0.0
 10
89.3415
 20
-75.2995
 30
0.0
 10
90.1617
 20
-76.0019
 30
0.0
 10
89.7361
 20
-77.5048
 30
0.0
 10
89.7361
 20
-77.5048
 30
0.0
 10
89.571
 20
-77.8654
 30
0.0
 10
89.243
 20
-78.1133
 30
0.0
 10
88.7526
 20
-78.2486
 30
0.0
 10
88.7526
 20
-78.2486
 30
0.0
 10
88.291
 20
-78.3756
 30
0.0
 10
88.1435
 20
-78.3579
 30
0.0
 10
87.7611
 20
-78.107
 30
0.0
 10
87.7611
 20
-78.107
 30
0.0
 10
87.0511
 20
-77.6405
 30
0.0
 10
86.317
 20
-77.3571
 30
0.0
 10
85.5553
 20
-77.4405
 30
0.0
 10
85.5553
 20
-77.4405
 30
0.0
 10
84.0127
 20
-77.8318
 30
0.0
 10
84.0797
 20
-79.4901
 30
0.0
 10
85.0896
 20
-80.3676
 30
0.0
 10
85.0896
 20
-80.3676
 30
0.0
 10
86.2883
 20
-81.4086
 30
0.0
 10
87.6498
 20
-82.0356
 30
0.0
 10
89.1573
 20
-81.2999
 30
0.0
 10
89.1573
 20
-81.2999
 30
0.0
 10
89.5038
 20
-81.2507
 30
0.0
 10
89.7285
 20
-81.3768
 30
0.0
 10
89.7361
 20
-81.8143
 30
0.0
 10
89.7361
 20
-81.8143
 30
0.0
 10
91.3781
 20
-86.6279
 30
0.0
 10
95.5502
 20
-88.061
 30
0.0
 10
99.899
 20
-85.7381
 30
0.0
 10
99.899
 20
-85.7381
 30
0.0
 10
100.095
 20
-85.6027
 30
0.0
 10
100.2805
 20
-85.4623
 30
0.0
 10
100.4556
 20
-85.3175
 30
0.0
 10
100.4556
 20
-85.3175
 30
0.0
 10
100.884
 20
-84.9629
 30
0.0
 10
100.6994
 20
-85.5283
 30
0.0
 10
100.7418
 20
-85.3971
 30
0.0
 10
100.7418
 20
-85.3971
 30
0.0
 10
100.7072
 20
-85.5089
 30
0.0
 10
100.6726
 20
-85.6229
 30
0.0
 10
100.6378
 20
-85.7392
 30
0.0
 10
100.6378
 20
-85.7392
 30
0.0
 10
100.1917
 20
-89.4368
 30
0.0
 10
101.2373
 20
-93.7051
 30
0.0
 10
105.6656
 20
-95.5099
 30
0.0
 10
105.6656
 20
-95.5099
 30
0.0
 10
108.2483
 20
-96.4641
 30
0.0
 10
112.3055
 20
-96.4394
 30
0.0
 10
115.1434
 20
-94.4658
 30
0.0
 10
115.1434
 20
-94.4658
 30
0.0
 10
115.2061
 20
-94.4347
 30
0.0
 10
115.2754
 20
-94.4141
 30
0.0
 10
115.3312
 20
-94.4329
 30
0.0
  0
SPLINE
  5
57
330
1F
100
AcDbEntity
  8
layer 1
 62
     7
370
     9
100
AcDbSpline
210
0.0
220
0.0
230
1.0
 70
    11
 71
     3
 72
    24
 73
    20
 74
     0
 42
0.0000000001
 43
0.0000000001
 12
1.0
 22
0.0
 32
0.0
 13
1.0
 23
0.0
 33
0.0
 40
0.0
 40
0.0
 40
0.0
 40
0.0
 40
0.1666666666666667
 40
0.1666666666666667
 40
0.1666666666666667
 40
0.1666666666666667
 40
0.3333333333333333
 40
0.3333333333333333
 40
0.3333333333333333
 40
0.3333333333333333
 40
0.5
 40
0.5
 40
0.5
 40
0.5
 40
0.6666666666666666
 40
0.6666666666666666
 40
0.6666666666666666
 40
0.6666666666666666
 40
1.0
 40
1.0
 40
1.0
 40
1.0
 10
102.3136
 20
-100.1456
 30
0.0
 10
102.3136
 20
-100.1456
 30
0.0
 10
100.4014
 20
-100.1456
 30
0.0
 10
100.4014
 20
-100.1456
 30
0.0
 10
100.4014
 20
-100.1456
 30
0.0
 10
100.4018
 20
-100.1255
 30
0.0
 10
100.4062
 20
-100.1072
 30
0.0
 10
100.4132
 20
-100.0936
 30
0.0
 10
100.4132
 20
-100.0936
 30
0.0
 10
100.5558
 20
-99.7642
 30
0.0
 10
100.6854
 20
-99.4183
 30
0.0
 10
100.7994
 20
-99.0526
 30
0.0
 10
100.7994
 20
-99.0526
 30
0.0
 10
100.8471
 20
-98.9034
 30
0.0
 10
100.9943
 20
-98.9363
 30
0.0
 10
101.107
 20
-99.0712
 30
0.0
 10
101.107
 20
-99.0712
 30
0.0
 10
101.4833
 20
-99.4472
 30
0.0
 10
101.8828
 20
-99.8083
 30
0.0
 10
102.3136
 20
-100.1456
 30
0.0
  0
SPLINE
  5
58
330
1F
100
AcDbEntity
  8
layer 1
 62
     7
370
     9
100
AcDbSpline
210
0.0
220
0.0
230
1.0
 70
    11
 71
     3
 72
    68
 73
    64
 74
     0
 42
0.0000000001
 43
0.0000000001
 12
1.0
 22
0.0
 32
0.0
 13
1.0
 23
0.0
 33
0.0
 40
0.0
 40
0.0
 40
0.0
 40
0.0
 40
0.0588235294117647
 40
0.0588235294117647
 40
0.0588235294117647
 40
0.0588235294117647
 40
0.1176470588235294
 40
0.1176470588235294
 40
0.1176470588235294
 40
0.1176470588235294
 40
0.1764705882352941
 40
0.1764705882352941
 40
0.1764705882352941
 40
0.1764705882352941
 40
0.2352941176470588
 40
0.2352941176470588
 40
0.2352941176470588
 40
0.2352941176470588
 40
0.2941176470588235
 40
0.2941176470588235
 40
0.2941176470588235
 40
0.2941176470588235
 40
0.3529411764705883
 40
0.3529411764705883
 40
0.3529411764705883
 40
0.3529411764705883
 40
0.4117647058823529
 40
0.4117647058823529
 40
0.4117647058823529
 40
0.4117647058823529
 40
0.4705882352941176
 40
0.4705882352941176
 40
0.4705882352941176
 40
0.4705882352941176
 40
0.5294117647058824
 40
0.5294117647058824
 40
0.5294117647058824
 40
0.5294117647058824
 40
0.5882352941176471
 40
0.5882352941176471
 40
0.5882352941176471
 40
0.5882352941176471
 40
0.6470588235294118
 40
0.6470588235294118
 40
0.6470588235294118
 40
0.6470588235294118
 40
0.7058823529411765
 40
0.7058823529411765
 40
0.7058823529411765
 40
0.7058823529411765
 40
0.7647058823529411
 40
0.7647058823529411
 40
0.7647058823529411
 40
0.7647058823529411
 40
0.8235294117647058
 40
0.8235294117647058
 40
0.8235294117647058
 40
0.8235294117647058
 40
0.8823529411764706
 40
0.8823529411764706
 40
0.8823529411764706
 40
0.8823529411764706
 40
1.0
 40
1.0
 40
1.0
 40
1.0
 10
96.8221
 20
-100.1456
 30
0.0
 10
96.8221
 20
-100.1456
 30
0.0
 10
91.0064
 20
-100.1456
 30
0.0
 10
91.0064
 20
-100.1456
 30
0.0
 10
91.0064
 20
-100.1456
 30
0.0
 10
90.6507
 20
-99.0073
 30
0.0
 10
91.32
 20
-97.7857
 30
0.0
 10
91.8002
 20
-97.441
 30
0.0
 10
91.8002
 20
-97.441
 30
0.0
 10
92.5434
 20
-97.088
 30
0.0
 10
93.1599
 20
-97.5745
 30
0.0
 10
93.671
 20
-97.9199
 30
0.0
 10
93.671
 20
-97.9199
 30
0.0
 10
95.5563
 20
-98.6385
 30
0.0
 10
96.2259
 20
-96.1047
 30
0.0
 10
94.9444
 20
-94.9864
 30
0.0
 10
94.9444
 20
-94.9864
 30
0.0
 10
94.4844
 20
-94.5851
 30
0.0
 10
93.8538
 20
-94.2601
 30
0.0
 10
93.263
 20
-94.1321
 30
0.0
 10
93.263
 20
-94.1321
 30
0.0
 10
92.0291
 20
-93.865
 30
0.0
 10
90.4656
 20
-94.1356
 30
0.0
 10
89.5045
 20
-94.9928
 30
0.0
 10
89.5045
 20
-94.9928
 30
0.0
 10
89.1156
 20
-95.3395
 30
0.0
 10
88.7461
 20
-95.8611
 30
0.0
 10
88.4672
 20
-96.2997
 30
0.0
 10
88.4672
 20
-96.2997
 30
0.0
 10
87.6585
 20
-97.5729
 30
0.0
 10
87.4593
 20
-98.9777
 30
0.0
 10
87.5354
 20
-100.1456
 30
0.0
 10
87.5354
 20
-100.1456
 30
0.0
 10
87.5354
 20
-100.1456
 30
0.0
 10
83.323
 20
-100.1456
 30
0.0
 10
83.323
 20
-100.1456
 30
0.0
 10
83.323
 20
-100.1456
 30
0.0
 10
84.2457
 20
-99.2599
 30
0.0
 10
85.0799
 20
-98.1846
 30
0.0
 10
85.877
 20
-96.93
 30
0.0
 10
85.877
 20
-96.93
 30
0.0
 10
86.3424
 20
-96.169
 30
0.0
 10
86.704
 20
-95.396
 30
0.0
 10
86.9727
 20
-94.6204
 30
0.0
 10
86.9727
 20
-94.6204
 30
0.0
 10
87.2412
 20
-93.8454
 30
0.0
 10
87.247
 20
-93.6585
 30
0.0
 10
87.9418
 20
-93.1725
 30
0.0
 10
87.9418
 20
-93.1725
 30
0.0
 10
88.2976
 20
-92.9239
 30
0.0
 10
88.6791
 20
-92.6952
 30
0.0
 10
89.093
 20
-92.4919
 30
0.0
 10
89.093
 20
-92.4919
 30
0.0
 10
93.8274
 20
-91.0296
 30
0.0
 10
95.999
 20
-92.9679
 30
0.0
 10
98.0923
 20
-95.5128
 30
0.0
 10
98.0923
 20
-95.5128
 30
0.0
 10
98.4336
 20
-95.9279
 30
0.0
 10
98.4736
 20
-95.989
 30
0.0
 10
98.4169
 20
-96.5311
 30
0.0
 10
98.4169
 20
-96.5311
 30
0.0
 10
98.265
 20
-97.9753
 30
0.0
 10
97.7099
 20
-99.2413
 30
0.0
 10
96.8221
 20
-100.1456
 30
0.0
  0
SPLINE
  5
59
330
1F
100
AcDbEntity
  8
layer 1
 62
     7
370
     9
100
AcDbSpline
210
0.0
220
0.0
230
1.0
 70
    11
 71
     3
 72
    40
 73
    36
 74
     0
 42
0.0000000001
 43
0.0000000001
 12
1.0
 22
0.0
 32
0.0
 13
1.0
 23
0.0
 33
0.0
 40
0.0
 40
0.0
 40
0.0
 40
0.0
 40
0.1
 40
0.1
 40
0.1
 40
0.1
 40
0.2
 40
0.2
 40
0.2
 40
0.2
 40
0.3
 40
0.3
 40
0.3
 40
0.3
 40
0.4
 40
0.4
 40
0.4
 40
0.4
 40
0.5
 40
0.5
 40
0.5
 40
0.5
 40
0.6
 40
0.6
 40
0.6
 40
0.6
 40
0.7
 40
0.7
 40
0.7
 40
0.7
 40
0.8
 40
0.8
 40
0.8
 40
0.8
 40
1.0
 40
1.0
 40
1.0
 40
1.0
 10
66.3882
 20
-100.1456
 30
0.0
 10
66.3882
 20
-100.1456
 30
0.0
 10
62.231
 20
-100.1456
 30
0.0
 10
62.231
 20
-100.1456
 30
0.0
 10
62.231
 20
-100.1456
 30
0.0
 10
62.1238
 20
-98.4178
 30
0.0
 10
62.1611
 20
-96.662
 30
0.0
 10
61.7905
 20
-94.9359
 30
0.0
 10
61.7905
 20
-94.9359
 30
0.0
 10
61.4112
 20
-93.408
 30
0.0
 10
61.0735
 20
-92.0677
 30
0.0
 10
59.761
 20
-91.1138
 30
0.0
 10
59.761
 20
-91.1138
 30
0.0
 10
59.319
 20
-90.8294
 30
0.0
 10
59.7762
 20
-90.7562
 30
0.0
 10
59.8302
 20
-90.7407
 30
0.0
 10
59.8302
 20
-90.7407
 30
0.0
 10
60.8932
 20
-90.6736
 30
0.0
 10
61.8146
 20
-90.4009
 30
0.0
 10
62.808
 20
-90.094
 30
0.0
 10
62.808
 20
-90.094
 30
0.0
 10
62.862
 20
-90.0859
 30
0.0
 10
62.993
 20
-90.0301
 30
0.0
 10
62.9857
 20
-90.2622
 30
0.0
 10
62.9857
 20
-90.2622
 30
0.0
 10
62.9271
 20
-92.1112
 30
0.0
 10
63.1492
 20
-93.8846
 30
0.0
 10
63.8147
 20
-95.7079
 30
0.0
 10
63.8147
 20
-95.7079
 30
0.0
 10
64.367
 20
-97.3163
 30
0.0
 10
65.2241
 20
-98.6499
 30
0.0
 10
66.3272
 20
-99.7256
 30
0.0
 10
66.3272
 20
-99.7256
 30
0.0
 10
66.4629
 20
-99.9174
 30
0.0
 10
66.4521
 20
-100.0541
 30
0.0
 10
66.3882
 20
-100.1456
 30
0.0
  0
SPLINE
  5
5A
330
1F
100
AcDbEntity
  8
layer 1
 62
     7
370
     9
100
AcDbSpline
210
0.0
220
0.0
230
1.0
 70
    11
 71
     3
 72
    36
 73
    32
 74
     0
 42
0.0000000001
 43
0.0000000001
 12
1.0
 22
0.0
 32
0.0
 13
1.0
 23
0.0
 33
0.0
 40
0.0
 40
0.0
 40
0.0
 40
0.0
 40
0.1111111111111111
 40
0.1111111111111111
 40
0.1111111111111111
 40
0.1111111111111111
 40
0.2222222222222222
 40
0.2222222222222222
 40
0.2222222222222222
 40
0.2222222222222222
 40
0.3333333333333333
 40
0.3333333333333333
 40
0.3333333333333333
 40
0.3333333333333333
 40
0.4444444444444444
 40
0.4444444444444444
 40
0.4444444444444444
 40
0.4444444444444444
 40
0.5555555555555556
 40
0.5555555555555556
 40
0.5555555555555556
 40
0.5555555555555556
 40
0.6666666666666666
 40
0.6666666666666666
 40
0.6666666666666666
 40
0.6666666666666666
 40
0.7777777777777778
 40
0.7777777777777778
 40
0.7777777777777778
 40
0.7777777777777778
 40
1.0
 40
1.0
 40
1.0
 40
1.0
 10
58.8817
 20
-100.1456
 30
0.0
 10
58.8817
 20
-100.1456
 30
0.0
 10
55.4407
 20
-100.1456
 30
0.0
 10
55.4407
 20
-100.1456
 30
0.0
 10
55.4407
 20
-100.1456
 30
0.0
 10
55.4407
 20
-100.1456
 30
0.0
 10
55.4407
 20
-99.306
 30
0.0
 10
55.4407
 20
-99.306
 30
0.0
 10
55.4407
 20
-99.306
 30
0.0
 10
55.9558
 20
-99.2269
 30
0.0
 10
56.8465
 20
-99.0364
 30
0.0
 10
57.1592
 20
-98.6343
 30
0.0
 10
57.1592
 20
-98.6343
 30
0.0
 10
57.6095
 20
-98.0553
 30
0.0
 10
57.715
 20
-97.6562
 30
0.0
 10
57.3998
 20
-96.9624
 30
0.0
 10
57.3998
 20
-96.9624
 30
0.0
 10
57.1551
 20
-96.4241
 30
0.0
 10
56.1958
 20
-96.1312
 30
0.0
 10
55.4407
 20
-95.964
 30
0.0
 10
55.4407
 20
-95.964
 30
0.0
 10
55.4407
 20
-95.964
 30
0.0
 10
55.4407
 20
-92.3651
 30
0.0
 10
55.4407
 20
-92.3651
 30
0.0
 10
55.4407
 20
-92.3651
 30
0.0
 10
56.9108
 20
-92.4843
 30
0.0
 10
58.2652
 20
-93.0367
 30
0.0
 10
59.0891
 20
-95.5793
 30
0.0
 10
59.0891
 20
-95.5793
 30
0.0
 10
59.4224
 20
-97.1012
 30
0.0
 10
59.2682
 20
-98.6235
 30
0.0
 10
58.8817
 20
-100.1456
 30
0.0
  0
SPLINE
  5
5B
330
1F
100
AcDbEntity
  8
layer 1
 62
     7
370
     9
100
AcDbSpline
210
0.0
220
0.0
230
1.0
 70
    11
 71
     3
 72
    52
 73
    48
 74
     0
 42
0.0000000001
 43
0.0000000001
 12
1.0
 22
0.0
 32
0.0
 13
1.0
 23
0.0
 33
0.0
 40
0.0
 40
0.0
 40
0.0
 40
0.0
 40
0.0769230769230769
 40
0.0769230769230769
 40
0.0769230769230769
 40
0.0769230769230769
 40
0.1538461538461539
 40
0.1538461538461539
 40
0.1538461538461539
 40
0.1538461538461539
 40
0.2307692307692308
 40
0.2307692307692308
 40
0.2307692307692308
 40
0.2307692307692308
 40
0.3076923076923077
 40
0.3076923076923077
 40
0.3076923076923077
 40
0.3076923076923077
 40
0.3846153846153846
 40
0.3846153846153846
 40
0.3846153846153846
 40
0.3846153846153846
 40
0.4615384615384616
 40
0.4615384615384616
 40
0.4615384615384616
 40
0.4615384615384616
 40
0.5384615384615384
 40
0.5384615384615384
 40
0.5384615384615384
 40
0.5384615384615384
 40
0.6153846153846154
 40
0.6153846153846154
 40
0.6153846153846154
 40
0.6153846153846154
 40
0.6923076923076923
 40
0.6923076923076923
 40
0.6923076923076923
 40
0.6923076923076923
 40
0.7692307692307693
 40
0.7692307692307693
 40
0.7692307692307693
 40
0.7692307692307693
 40
0.8461538461538461
 40
0.8461538461538461
 40
0.8461538461538461
 40
0.8461538461538461
 40
1.0
 40
1.0
 40
1.0
 40
1.0
 10
55.4407
 20
-86.6379
 30
0.0
 10
55.4407
 20
-86.6379
 30
0.0
 10
55.4407
 20
-80.7057
 30
0.0
 10
55.4407
 20
-80.7057
 30
0.0
 10
55.4407
 20
-80.7057
 30
0.0
 10
56.4633
 20
-80.751
 30
0.0
 10
57.738
 20
-81.0786
 30
0.0
 10
57.1936
 20
-82.3203
 30
0.0
 10
57.1936
 20
-82.3203
 30
0.0
 10
56.422
 20
-85.27
 30
0.0
 10
60.4925
 20
-84.138
 30
0.0
 10
60.179
 20
-81.3491
 30
0.0
 10
60.179
 20
-81.3491
 30
0.0
 10
60.118
 20
-80.8049
 30
0.0
 10
59.8946
 20
-80.1015
 30
0.0
 10
59.5866
 20
-79.6481
 30
0.0
 10
59.5866
 20
-79.6481
 30
0.0
 10
58.8119
 20
-78.5075
 30
0.0
 10
57.1199
 20
-77.9679
 30
0.0
 10
55.4407
 20
-77.69
 30
0.0
 10
55.4407
 20
-77.69
 30
0.0
 10
55.4407
 20
-77.69
 30
0.0
 10
55.4407
 20
-75.1274
 30
0.0
 10
55.4407
 20
-75.1274
 30
0.0
 10
55.4407
 20
-75.1274
 30
0.0
 10
56.0319
 20
-75.1332
 30
0.0
 10
56.7194
 20
-75.1368
 30
0.0
 10
57.3163
 20
-75.1799
 30
0.0
 10
57.3163
 20
-75.1799
 30
0.0
 10
57.8875
 20
-75.2213
 30
0.0
 10
58.4799
 20
-75.3399
 30
0.0
 10
59.0438
 20
-75.4471
 30
0.0
 10
59.0438
 20
-75.4471
 30
0.0
 10
61.7968
 20
-75.9709
 30
0.0
 10
64.536
 20
-79.4595
 30
0.0
 10
64.2767
 20
-82.2674
 30
0.0
 10
64.2767
 20
-82.2674
 30
0.0
 10
64.1673
 20
-83.457
 30
0.0
 10
63.8828
 20
-84.9703
 30
0.0
 10
63.021
 20
-85.8441
 30
0.0
 10
63.021
 20
-85.8441
 30
0.0
 10
62.3988
 20
-86.4755
 30
0.0
 10
61.6498
 20
-86.9981
 30
0.0
 10
60.6971
 20
-87.346
 30
0.0
 10
60.6971
 20
-87.346
 30
0.0
 10
58.9448
 20
-87.918
 30
0.0
 10
57.1929
 20
-87.45
 30
0.0
 10
55.4407
 20
-86.6379
 30
0.0
  0
SPLINE
  5
5C
330
1F
100
AcDbEntity
  8
layer 1
 62
     7
370
     9
100
AcDbSpline
210
0.0
220
0.0
230
1.0
 70
    11
 71
     3
 72
    24
 73
    20
 74
     0
 42
0.0000000001
 43
0.0000000001
 12
1.0
 22
0.0
 32
0.0
 13
1.0
 23
0.0
 33
0.0
 40
0.0
 40
0.0
 40
0.0
 40
0.0
 40
0.1666666666666667
 40
0.1666666666666667
 40
0.1666666666666667
 40
0.1666666666666667
 40
0.3333333333333333
 40
0.3333333333333333
 40
0.3333333333333333
 40
0.3333333333333333
 40
0.5
 40
0.5
 40
0.5
 40
0.5
 40
0.6666666666666666
 40
0.6666666666666666
 40
0.6666666666666666
 40
0.6666666666666666
 40
1.0
 40
1.0
 40
1.0
 40
1.0
 10
55.4407
 20
-72.1218
 30
0.0
 10
55.4407
 20
-72.1218
 30
0.0
 10
55.4407
 20
-63.2243
 30
0.0
 10
55.4407
 20
-63.2243
 30
0.0
 10
55.4407
 20
-63.2243
 30
0.0
 10
56.8781
 20
-63.1279
 30
0.0
 10
58.667
 20
-62.9042
 30
0.0
 10
60.0097
 20
-62.8275
 30
0.0
 10
60.0097
 20
-62.8275
 30
0.0
 10
59.7422
 20
-66.9774
 30
0.0
 10
60.745
 20
-70.5233
 30
0.0
 10
62.2824
 20
-73.2711
 30
0.0
 10
62.2824
 20
-73.2711
 30
0.0
 10
62.44
 20
-73.6517
 30
0.0
 10
61.9608
 20
-73.7162
 30
0.0
 10
61.8757
 20
-73.6446
 30
0.0
 10
61.8757
 20
-73.6446
 30
0.0
 10
59.999
 20
-72.8379
 30
0.0
 10
57.7779
 20
-72.4151
 30
0.0
 10
55.4407
 20
-72.1218
 30
0.0
  0
SPLINE
  5
5D
330
1F
100
AcDbEntity
  8
layer 1
 62
     7
370
     9
100
AcDbSpline
210
0.0
220
0.0
230
1.0
 70
    11
 71
     3
 72
    36
 73
    32
 74
     0
 42
0.0000000001
 43
0.0000000001
 12
1.0
 22
0.0
 32
0.0
 13
1.0
 23
0.0
 33
0.0
 40
0.0
 40
0.0
 40
0.0
 40
0.0
 40
0.1111111111111111
 40
0.1111111111111111
 40
0.1111111111111111
 40
0.1111111111111111
 40
0.2222222222222222
 40
0.2222222222222222
 40
0.2222222222222222
 40
0.2222222222222222
 40
0.3333333333333333
 40
0.3333333333333333
 40
0.3333333333333333
 40
0.3333333333333333
 40
0.4444444444444444
 40
0.4444444444444444
 40
0.4444444444444444
 40
0.4444444444444444
 40
0.5555555555555556
 40
0.5555555555555556
 40
0.5555555555555556
 40
0.5555555555555556
 40
0.6666666666666666
 40
0.6666666666666666
 40
0.6666666666666666
 40
0.6666666666666666
 40
0.7777777777777778
 40
0.7777777777777778
 40
0.7777777777777778
 40
0.7777777777777778
 40
1.0
 40
1.0
 40
1.0
 40
1.0
 10
55.4407
 20
-59.6834
 30
0.0
 10
55.4407
 20
-59.6834
 30
0.0
 10
55.4407
 20
-57.2513
 30
0.0
 10
55.4407
 20
-57.2513
 30
0.0
 10
55.4407
 20
-57.2513
 30
0.0
 10
56.2568
 20
-57.3849
 30
0.0
 10
57.1231
 20
-57.4189
 30
0.0
 10
58.0924
 20
-57.2457
 30
0.0
 10
58.0924
 20
-57.2457
 30
0.0
 10
60.7302
 20
-56.4806
 30
0.0
 10
62.325
 20
-54.672
 30
0.0
 10
62.3945
 20
-51.3385
 30
0.0
 10
62.3945
 20
-51.3385
 30
0.0
 10
62.231
 20
-47.4129
 30
0.0
 10
59.6098
 20
-45.494
 30
0.0
 10
55.4407
 20
-44.8386
 30
0.0
 10
55.4407
 20
-44.8386
 30
0.0
 10
55.4407
 20
-44.8386
 30
0.0
 10
55.4407
 20
-41.2325
 30
0.0
 10
55.4407
 20
-41.2325
 30
0.0
 10
55.4407
 20
-41.2325
 30
0.0
 10
60.7084
 20
-42.2162
 30
0.0
 10
64.0439
 20
-44.3345
 30
0.0
 10
65.2872
 20
-48.3552
 30
0.0
 10
65.2872
 20
-48.3552
 30
0.0
 10
65.6094
 20
-49.3979
 30
0.0
 10
65.6973
 20
-50.1734
 30
0.0
 10
65.5423
 20
-51.2392
 30
0.0
 10
65.5423
 20
-51.2392
 30
0.0
 10
64.4761
 20
-58.5693
 30
0.0
 10
59.7038
 20
-59.0587
 30
0.0
 10
55.4407
 20
-59.6834
 30
0.0
  0
SPLINE
  5
5E
330
1F
100
AcDbEntity
  8
layer 1
 62
     7
370
     9
100
AcDbSpline
210
0.0
220
0.0
230
1.0
 70
    11
 71
     3
 72
    48
 73
    44
 74
     0
 42
0.0000000001
 43
0.0000000001
 12
1.0
 22
0.0
 32
0.0
 13
1.0
 23
0.0
 33
0.0
 40
0.0
 40
0.0
 40
0.0
 40
0.0
 40
0.0833333333333333
 40
0.0833333333333333
 40
0.0833333333333333
 40
0.0833333333333333
 40
0.1666666666666667
 40
0.1666666666666667
 40
0.1666666666666667
 40
0.1666666666666667
 40
0.25
 40
0.25
 40
0.25
 40
0.25
 40
0.3333333333333333
 40
0.3333333333333333
 40
0.3333333333333333
 40
0.3333333333333333
 40
0.4166666666666667
 40
0.4166666666666667
 40
0.4166666666666667
 40
0.4166666666666667
 40
0.5
 40
0.5
 40
0.5
 40
0.5
 40
0.5833333333333334
 40
0.5833333333333334
 40
0.5833333333333334
 40
0.5833333333333334
 40
0.6666666666666666
 40
0.6666666666666666
 40
0.6666666666666666
 40
0.6666666666666666
 40
0.75
 40
0.75
 40
0.75
 40
0.75
 40
0.8333333333333334
 40
0.8333333333333334
 40
0.8333333333333334
 40
0.8333333333333334
 40
1.0
 40
1.0
 40
1.0
 40
1.0
 10
55.4407
 20
-38.3627
 30
0.0
 10
55.4407
 20
-38.3627
 30
0.0
 10
55.4407
 20
-32.2405
 30
0.0
 10
55.4407
 20
-32.2405
 30
0.0
 10
55.4407
 20
-32.2405
 30
0.0
 10
55.4407
 20
-32.2405
 30
0.0
 10
55.4495
 20
-32.2438
 30
0.0
 10
55.4495
 20
-32.2438
 30
0.0
 10
55.4495
 20
-32.2438
 30
0.0
 10
56.1863
 20
-33.3266
 30
0.0
 10
56.8539
 20
-34.183
 30
0.0
 10
58.1292
 20
-34.9198
 30
0.0
 10
58.1292
 20
-34.9198
 30
0.0
 10
60.2961
 20
-36.181
 30
0.0
 10
62.7225
 20
-35.878
 30
0.0
 10
64.8463
 20
-34.2807
 30
0.0
 10
64.8463
 20
-34.2807
 30
0.0
 10
66.5552
 20
-32.3177
 30
0.0
 10
66.1944
 20
-30.436
 30
0.0
 10
65.4384
 20
-29.0307
 30
0.0
 10
65.4384
 20
-29.0307
 30
0.0
 10
64.757
 20
-27.7641
 30
0.0
 10
62.5771
 20
-27.6678
 30
0.0
 10
62.2731
 20
-29.3597
 30
0.0
 10
62.2731
 20
-29.3597
 30
0.0
 10
62.359
 20
-30.7536
 30
0.0
 10
62.2195
 20
-31.4083
 30
0.0
 10
61.276
 20
-31.7726
 30
0.0
 10
61.276
 20
-31.7726
 30
0.0
 10
56.2565
 20
-32.301
 30
0.0
 10
59.313
 20
-25.1355
 30
0.0
 10
64.0411
 20
-24.9857
 30
0.0
 10
64.0411
 20
-24.9857
 30
0.0
 10
67.8843
 20
-25.0663
 30
0.0
 10
70.1573
 20
-26.8679
 30
0.0
 10
70.0556
 20
-31.5795
 30
0.0
 10
70.0556
 20
-31.5795
 30
0.0
 10
69.695
 20
-35.2253
 30
0.0
 10
67.3775
 20
-37.2877
 30
0.0
 10
64.1061
 20
-38.1077
 30
0.0
 10
64.1061
 20
-38.1077
 30
0.0
 10
61.3498
 20
-38.7364
 30
0.0
 10
58.2485
 20
-38.8911
 30
0.0
 10
55.4407
 20
-38.3627
 30
0.0
  0
SPLINE
  5
5F
330
1F
100
AcDbEntity
  8
layer 1
 62
     7
370
     9
100
AcDbSpline
210
0.0
220
0.0
230
1.0
 70
    11
 71
     3
 72
    36
 73
    32
 74
     0
 42
0.0000000001
 43
0.0000000001
 12
1.0
 22
0.0
 32
0.0
 13
1.0
 23
0.0
 33
0.0
 40
0.0
 40
0.0
 40
0.0
 40
0.0
 40
0.1111111111111111
 40
0.1111111111111111
 40
0.1111111111111111
 40
0.1111111111111111
 40
0.2222222222222222
 40
0.2222222222222222
 40
0.2222222222222222
 40
0.2222222222222222
 40
0.3333333333333333
 40
0.3333333333333333
 40
0.3333333333333333
 40
0.3333333333333333
 40
0.4444444444444444
 40
0.4444444444444444
 40
0.4444444444444444
 40
0.4444444444444444
 40
0.5555555555555556
 40
0.5555555555555556
 40
0.5555555555555556
 40
0.5555555555555556
 40
0.6666666666666666
 40
0.6666666666666666
 40
0.6666666666666666
 40
0.6666666666666666
 40
0.7777777777777778
 40
0.7777777777777778
 40
0.7777777777777778
 40
0.7777777777777778
 40
1.0
 40
1.0
 40
1.0
 40
1.0
 10
55.4407
 20
-26.0203
 30
0.0
 10
55.4407
 20
-26.0203
 30
0.0
 10
55.4407
 20
-22.7562
 30
0.0
 10
55.4407
 20
-22.7562
 30
0.0
 10
55.4407
 20
-22.7562
 30
0.0
 10
56.0651
 20
-22.6497
 30
0.0
 10
56.9971
 20
-22.4338
 30
0.0
 10
57.2879
 20
-22.0602
 30
0.0
 10
57.2879
 20
-22.0602
 30
0.0
 10
57.7379
 20
-21.4814
 30
0.0
 10
57.8498
 20
-21.0959
 30
0.0
 10
57.5282
 20
-20.3882
 30
0.0
 10
57.5282
 20
-20.3882
 30
0.0
 10
57.2604
 20
-19.7988
 30
0.0
 10
56.1971
 20
-19.4967
 30
0.0
 10
55.4407
 20
-19.3379
 30
0.0
 10
55.4407
 20
-19.3379
 30
0.0
 10
55.4407
 20
-19.3379
 30
0.0
 10
55.4407
 20
-15.7391
 30
0.0
 10
55.4407
 20
-15.7391
 30
0.0
 10
55.4407
 20
-15.7391
 30
0.0
 10
56.9733
 20
-15.8317
 30
0.0
 10
58.3631
 20
-16.3677
 30
0.0
 10
59.2177
 20
-19.0051
 30
0.0
 10
59.2177
 20
-19.0051
 30
0.0
 10
59.9347
 20
-22.2792
 30
0.0
 10
58.7446
 20
-24.2546
 30
0.0
 10
55.8134
 20
-25.7942
 30
0.0
 10
55.8134
 20
-25.7942
 30
0.0
 10
55.6516
 20
-25.9277
 30
0.0
 10
55.531
 20
-25.9957
 30
0.0
 10
55.4407
 20
-26.0203
 30
0.0
  0
SPLINE
  5
60
330
1F
100
AcDbEntity
  8
layer 1
 62
     7
370
     9
100
AcDbSpline
210
0.0
220
0.0
230
1.0
 70
    11
 71
     3
 72
    44
 73
    40
 74
     0
 42
0.0000000001
 43
0.0000000001
 12
1.0
 22
0.0
 32
0.0
 13
1.0
 23
0.0
 33
0.0
 40
0.0
 40
0.0
 40
0.0
 40
0.0
 40
0.0909090909090909
 40
0.0909090909090909
 40
0.0909090909090909
 40
0.0909090909090909
 40
0.1818181818181818
 40
0.1818181818181818
 40
0.1818181818181818
 40
0.1818181818181818
 40
0.2727272727272727
 40
0.2727272727272727
 40
0.2727272727272727
 40
0.2727272727272727
 40
0.3636363636363636
 40
0.3636363636363636
 40
0.3636363636363636
 40
0.3636363636363636
 40
0.4545454545454545
 40
0.4545454545454545
 40
0.4545454545454545
 40
0.4545454545454545
 40
0.5454545454545454
 40
0.5454545454545454
 40
0.5454545454545454
 40
0.5454545454545454
 40
0.6363636363636364
 40
0.6363636363636364
 40
0.6363636363636364
 40
0.6363636363636364
 40
0.7272727272727273
 40
0.7272727272727273
 40
0.7272727272727273
 40
0.7272727272727273
 40
0.8181818181818182
 40
0.8181818181818182
 40
0.8181818181818182
 40
0.8181818181818182
 40
1.0
 40
1.0
 40
1.0
 40
1.0
 10
55.4407
 20
-10.0042
 30
0.0
 10
55.4407
 20
-10.0042
 30
0.0
 10
55.4407
 20
-3.9229
 30
0.0
 10
55.4407
 20
-3.9229
 30
0.0
 10
55.4407
 20
-3.9229
 30
0.0
 10
56.5375
 20
-4.104
 30
0.0
 10
57.8072
 20
-4.6403
 30
0.0
 10
57.322
 20
-5.7461
 30
0.0
 10
57.322
 20
-5.7461
 30
0.0
 10
57.2047
 20
-6.1955
 30
0.0
 10
57.194
 20
-6.6024
 30
0.0
 10
57.29
 20
-6.9664
 30
0.0
 10
57.29
 20
-6.9664
 30
0.0
 10
59.1524
 20
-9.4862
 30
0.0
 10
60.632
 20
-5.2679
 30
0.0
 10
60.0832
 20
-3.9162
 30
0.0
 10
60.0832
 20
-3.9162
 30
0.0
 10
59.7098
 20
-2.2947
 30
0.0
 10
57.4767
 20
-1.3532
 30
0.0
 10
55.4407
 20
-0.9248
 30
0.0
 10
55.4407
 20
-0.9248
 30
0.0
 10
55.4407
 20
-0.9248
 30
0.0
 10
55.4407
 20
1.4435
 30
0.0
 10
55.4407
 20
1.4435
 30
0.0
 10
55.4407
 20
1.4435
 30
0.0
 10
56.5114
 20
1.4045
 30
0.0
 10
57.9347
 20
1.2602
 30
0.0
 10
58.6047
 20
1.1917
 30
0.0
 10
58.6047
 20
1.1917
 30
0.0
 10
61.6785
 20
0.8763
 30
0.0
 10
65.0238
 20
-3.1118
 30
0.0
 10
64.3296
 20
-6.1732
 30
0.0
 10
64.3296
 20
-6.1732
 30
0.0
 10
63.8013
 20
-8.5029
 30
0.0
 10
63.3581
 20
-9.8469
 30
0.0
 10
60.8258
 20
-10.7721
 30
0.0
 10
60.8258
 20
-10.7721
 30
0.0
 10
59.0307
 20
-11.3578
 30
0.0
 10
57.2358
 20
-10.8526
 30
0.0
 10
55.4407
 20
-10.0042
 30
0.0
  0
SPLINE
  5
61
330
1F
100
AcDbEntity
  8
layer 1
 62
     7
370
     9
100
AcDbSpline
210
0.0
220
0.0
230
1.0
 70
    11
 71
     3
 72
    20
 73
    16
 74
     0
 42
0.0000000001
 43
0.0000000001
 12
1.0
 22
0.0
 32
0.0
 13
1.0
 23
0.0
 33
0.0
 40
0.0
 40
0.0
 40
0.0
 40
0.0
 40
0.2
 40
0.2
 40
0.2
 40
0.2
 40
0.4
 40
0.4
 40
0.4
 40
0.4
 40
0.6
 40
0.6
 40
0.6
 40
0.6
 40
1.0
 40
1.0
 40
1.0
 40
1.0
 10
55.4407
 20
4.4677
 30
0.0
 10
55.4407
 20
4.4677
 30
0.0
 10
55.4407
 20
13.543
 30
0.0
 10
55.4407
 20
13.543
 30
0.0
 10
55.4407
 20
13.543
 30
0.0
 10
56.9634
 20
13.6108
 30
0.0
 10
58.9505
 20
13.6786
 30
0.0
 10
60.1382
 20
13.7464
 30
0.0
 10
60.1382
 20
13.7464
 30
0.0
 10
59.93
 20
9.9884
 30
0.0
 10
61.1023
 20
6.3518
 30
0.0
 10
62.7068
 20
2.6002
 30
0.0
 10
62.7068
 20
2.6002
 30
0.0
 10
60.6606
 20
3.6419
 30
0.0
 10
58.1239
 20
4.1366
 30
0.0
 10
55.4407
 20
4.4677
 30
0.0
  0
SPLINE
  5
62
330
1F
100
AcDbEntity
  8
layer 1
 62
     7
370
     9
100
AcDbSpline
210
0.0
220
0.0
230
1.0
 70
    11
 71
     3
 72
    32
 73
    28
 74
     0
 42
0.0000000001
 43
0.0000000001
 12
1.0
 22
0.0
 32
0.0
 13
1.0
 23
0.0
 33
0.0
 40
0.0
 40
0.0
 40
0.0
 40
0.0
 40
0.125
 40
0.125
 40
0.125
 40
0.125
 40
0.25
 40
0.25
 40
0.25
 40
0.25
 40
0.375
 40
0.375
 40
0.375
 40
0.375
 40
0.5
 40
0.5
 40
0.5
 40
0.5
 40
0.625
 40
0.625
 40
0.625
 40
0.625
 40
0.75
 40
0.75
 40
0.75
 40
0.75
 40
1.0
 40
1.0
 40
1.0
 40
1.0
 10
55.4407
 20
16.9949
 30
0.0
 10
55.4407
 20
16.9949
 30
0.0
 10
55.4407
 20
19.3447
 30
0.0
 10
55.4407
 20
19.3447
 30
0.0
 10
55.4407
 20
19.3447
 30
0.0
 10
56.2942
 20
19.1934
 30
0.0
 10
57.2005
 20
19.1462
 30
0.0
 10
58.2211
 20
19.3281
 30
0.0
 10
58.2211
 20
19.3281
 30
0.0
 10
60.8589
 20
20.0936
 30
0.0
 10
62.4537
 20
21.902
 30
0.0
 10
62.5232
 20
25.2357
 30
0.0
 10
62.5232
 20
25.2357
 30
0.0
 10
62.3578
 20
29.2015
 30
0.0
 10
59.6847
 20
31.1195
 30
0.0
 10
55.4407
 20
31.7555
 30
0.0
 10
55.4407
 20
31.7555
 30
0.0
 10
55.4407
 20
31.7555
 30
0.0
 10
55.4407
 20
35.365
 30
0.0
 10
55.4407
 20
35.365
 30
0.0
 10
55.4407
 20
35.365
 30
0.0
 10
61.4946
 20
34.2621
 30
0.0
 10
65.0286
 20
31.6868
 30
0.0
 10
65.8035
 20
26.493
 30
0.0
 10
65.8035
 20
26.493
 30
0.0
 10
65.1167
 20
18.4165
 30
0.0
 10
59.8582
 20
17.6221
 30
0.0
 10
55.4407
 20
16.9949
 30
0.0
  0
SPLINE
  5
63
330
1F
100
AcDbEntity
  8
layer 1
 62
     7
370
     9
100
AcDbSpline
210
0.0
220
0.0
230
1.0
 70
    11
 71
     3
 72
    56
 73
    52
 74
     0
 42
0.0000000001
 43
0.0000000001
 12
1.0
 22
0.0
 32
0.0
 13
1.0
 23
0.0
 33
0.0
 40
0.0
 40
0.0
 40
0.0
 40
0.0
 40
0.0714285714285714
 40
0.0714285714285714
 40
0.0714285714285714
 40
0.0714285714285714
 40
0.1428571428571428
 40
0.1428571428571428
 40
0.1428571428571428
 40
0.1428571428571428
 40
0.2142857142857143
 40
0.2142857142857143
 40
0.2142857142857143
 40
0.2142857142857143
 40
0.2857142857142857
 40
0.2857142857142857
 40
0.2857142857142857
 40
0.2857142857142857
 40
0.3571428571428572
 40
0.3571428571428572
 40
0.3571428571428572
 40
0.3571428571428572
 40
0.4285714285714285
 40
0.4285714285714285
 40
0.4285714285714285
 40
0.4285714285714285
 40
0.5
 40
0.5
 40
0.5
 40
0.5
 40
0.5714285714285714
 40
0.5714285714285714
 40
0.5714285714285714
 40
0.5714285714285714
 40
0.6428571428571429
 40
0.6428571428571429
 40
0.6428571428571429
 40
0.6428571428571429
 40
0.7142857142857143
 40
0.7142857142857143
 40
0.7142857142857143
 40
0.7142857142857143
 40
0.7857142857142857
 40
0.7857142857142857
 40
0.7857142857142857
 40
0.7857142857142857
 40
0.8571428571428571
 40
0.8571428571428571
 40
0.8571428571428571
 40
0.8571428571428571
 40
1.0
 40
1.0
 40
1.0
 40
1.0
 10
55.4407
 20
38.2494
 30
0.0
 10
55.4407
 20
38.2494
 30
0.0
 10
55.4407
 20
44.3916
 30
0.0
 10
55.4407
 20
44.3916
 30
0.0
 10
55.4407
 20
44.3916
 30
0.0
 10
55.473
 20
44.3651
 30
0.0
 10
55.5078
 20
44.3314
 30
0.0
 10
55.5451
 20
44.2912
 30
0.0
 10
55.5451
 20
44.2912
 30
0.0
 10
56.3272
 20
43.1238
 30
0.0
 10
57.3399
 20
41.8657
 30
0.0
 10
58.6164
 20
41.4342
 30
0.0
 10
58.6164
 20
41.4342
 30
0.0
 10
61.2229
 20
40.4129
 30
0.0
 10
62.851
 20
40.6961
 30
0.0
 10
64.9752
 20
42.2935
 30
0.0
 10
64.9752
 20
42.2935
 30
0.0
 10
66.684
 20
44.2564
 30
0.0
 10
66.3231
 20
46.138
 30
0.0
 10
65.5671
 20
47.5434
 30
0.0
 10
65.5671
 20
47.5434
 30
0.0
 10
64.8857
 20
48.8102
 30
0.0
 10
62.7058
 20
48.9062
 30
0.0
 10
62.4018
 20
47.2143
 30
0.0
 10
62.4018
 20
47.2143
 30
0.0
 10
62.4877
 20
45.8204
 30
0.0
 10
62.3482
 20
45.1657
 30
0.0
 10
61.4047
 20
44.8016
 30
0.0
 10
61.4047
 20
44.8016
 30
0.0
 10
56.3851
 20
44.2729
 30
0.0
 10
59.4414
 20
51.4383
 30
0.0
 10
64.1697
 20
51.5883
 30
0.0
 10
64.1697
 20
51.5883
 30
0.0
 10
68.013
 20
51.5081
 30
0.0
 10
70.2859
 20
49.706
 30
0.0
 10
70.1842
 20
44.9944
 30
0.0
 10
70.1842
 20
44.9944
 30
0.0
 10
69.8237
 20
41.3489
 30
0.0
 10
67.5062
 20
39.2864
 30
0.0
 10
64.2348
 20
38.4661
 30
0.0
 10
64.2348
 20
38.4661
 30
0.0
 10
62.2275
 20
38.0086
 30
0.0
 10
60.2654
 20
37.9456
 30
0.0
 10
58.3152
 20
37.9345
 30
0.0
 10
58.3152
 20
37.9345
 30
0.0
 10
57.79
 20
37.9317
 30
0.0
 10
57.3486
 20
37.9829
 30
0.0
 10
56.8307
 20
38.0635
 30
0.0
 10
56.8307
 20
38.0635
 30
0.0
 10
56.3842
 20
38.133
 30
0.0
 10
55.9217
 20
38.194
 30
0.0
 10
55.4407
 20
38.2494
 30
0.0
  0
SPLINE
  5
64
330
1F
100
AcDbEntity
  8
layer 1
 62
     7
370
     9
100
AcDbSpline
210
0.0
220
0.0
230
1.0
 70
    11
 71
     3
 72
    36
 73
    32
 74
     0
 42
0.0000000001
 43
0.0000000001
 12
1.0
 22
0.0
 32
0.0
 13
1.0
 23
0.0
 33
0.0
 40
0.0
 40
0.0
 40
0.0
 40
0.0
 40
0.1111111111111111
 40
0.1111111111111111
 40
0.1111111111111111
 40
0.1111111111111111
 40
0.2222222222222222
 40
0.2222222222222222
 40
0.2222222222222222
 40
0.2222222222222222
 40
0.3333333333333333
 40
0.3333333333333333
 40
0.3333333333333333
 40
0.3333333333333333
 40
0.4444444444444444
 40
0.4444444444444444
 40
0.4444444444444444
 40
0.4444444444444444
 40
0.5555555555555556
 40
0.5555555555555556
 40
0.5555555555555556
 40
0.5555555555555556
 40
0.6666666666666666
 40
0.6666666666666666
 40
0.6666666666666666
 40
0.6666666666666666
 40
0.7777777777777778
 40
0.7777777777777778
 40
0.7777777777777778
 40
0.7777777777777778
 40
1.0
 40
1.0
 40
1.0
 40
1.0
 10
55.4407
 20
49.0764
 30
0.0
 10
55.4407
 20
49.0764
 30
0.0
 10
55.4407
 20
53.2404
 30
0.0
 10
55.4407
 20
53.2404
 30
0.0
 10
55.4407
 20
53.2404
 30
0.0
 10
55.8716
 20
53.3281
 30
0.0
 10
56.5957
 20
53.5284
 30
0.0
 10
56.9023
 20
53.9225
 30
0.0
 10
56.9023
 20
53.9225
 30
0.0
 10
57.3526
 20
54.5014
 30
0.0
 10
57.4645
 20
54.887
 30
0.0
 10
57.1429
 20
55.5944
 30
0.0
 10
57.1429
 20
55.5944
 30
0.0
 10
56.9026
 20
56.1231
 30
0.0
 10
56.1175
 20
56.4095
 30
0.0
 10
55.4407
 20
56.5741
 30
0.0
 10
55.4407
 20
56.5741
 30
0.0
 10
55.4407
 20
56.5741
 30
0.0
 10
55.4407
 20
60.1537
 30
0.0
 10
55.4407
 20
60.1537
 30
0.0
 10
55.4407
 20
60.1537
 30
0.0
 10
56.8097
 20
59.9902
 30
0.0
 10
58.0574
 20
59.3694
 30
0.0
 10
58.8323
 20
56.9775
 30
0.0
 10
58.8323
 20
56.9775
 30
0.0
 10
59.1439
 20
55.5555
 30
0.0
 10
59.0295
 20
54.1326
 30
0.0
 10
58.6979
 20
52.7103
 30
0.0
 10
58.6979
 20
52.7103
 30
0.0
 10
57.5927
 20
52.0734
 30
0.0
 10
56.2152
 20
50.7535
 30
0.0
 10
55.4407
 20
49.0764
 30
0.0
  0
SPLINE
  5
65
330
1F
100
AcDbEntity
  8
layer 1
 62
     7
370
     9
100
AcDbSpline
210
0.0
220
0.0
230
1.0
 70
    11
 71
     3
 72
    44
 73
    40
 74
     0
 42
0.0000000001
 43
0.0000000001
 12
1.0
 22
0.0
 32
0.0
 13
1.0
 23
0.0
 33
0.0
 40
0.0
 40
0.0
 40
0.0
 40
0.0
 40
0.0909090909090909
 40
0.0909090909090909
 40
0.0909090909090909
 40
0.0909090909090909
 40
0.1818181818181818
 40
0.1818181818181818
 40
0.1818181818181818
 40
0.1818181818181818
 40
0.2727272727272727
 40
0.2727272727272727
 40
0.2727272727272727
 40
0.2727272727272727
 40
0.3636363636363636
 40
0.3636363636363636
 40
0.3636363636363636
 40
0.3636363636363636
 40
0.4545454545454545
 40
0.4545454545454545
 40
0.4545454545454545
 40
0.4545454545454545
 40
0.5454545454545454
 40
0.5454545454545454
 40
0.5454545454545454
 40
0.5454545454545454
 40
0.6363636363636364
 40
0.6363636363636364
 40
0.6363636363636364
 40
0.6363636363636364
 40
0.7272727272727273
 40
0.7272727272727273
 40
0.7272727272727273
 40
0.7272727272727273
 40
0.8181818181818182
 40
0.8181818181818182
 40
0.8181818181818182
 40
0.8181818181818182
 40
1.0
 40
1.0
 40
1.0
 40
1.0
 10
55.4407
 20
65.8015
 30
0.0
 10
55.4407
 20
65.8015
 30
0.0
 10
55.4407
 20
71.8002
 30
0.0
 10
55.4407
 20
71.8002
 30
0.0
 10
55.4407
 20
71.8002
 30
0.0
 10
56.407
 20
71.835
 30
0.0
 10
57.5415
 20
71.6157
 30
0.0
 10
56.9367
 20
70.2367
 30
0.0
 10
56.9367
 20
70.2367
 30
0.0
 10
56.8192
 20
69.7872
 30
0.0
 10
56.8085
 20
69.3806
 30
0.0
 10
56.9047
 20
69.0165
 30
0.0
 10
56.9047
 20
69.0165
 30
0.0
 10
58.767
 20
66.497
 30
0.0
 10
60.2467
 20
70.7149
 30
0.0
 10
59.6979
 20
72.0665
 30
0.0
 10
59.6979
 20
72.0665
 30
0.0
 10
59.2741
 20
73.9068
 30
0.0
 10
57.5573
 20
74.5772
 30
0.0
 10
55.4407
 20
74.8855
 30
0.0
 10
55.4407
 20
74.8855
 30
0.0
 10
55.4407
 20
74.8855
 30
0.0
 10
55.4407
 20
77.4263
 30
0.0
 10
55.4407
 20
77.4263
 30
0.0
 10
55.4407
 20
77.4263
 30
0.0
 10
56.4584
 20
77.4168
 30
0.0
 10
57.6666
 20
77.3981
 30
0.0
 10
58.2191
 20
77.1745
 30
0.0
 10
58.2191
 20
77.1745
 30
0.0
 10
61.3072
 20
77.0636
 30
0.0
 10
64.6385
 20
72.871
 30
0.0
 10
63.9441
 20
69.8097
 30
0.0
 10
63.9441
 20
69.8097
 30
0.0
 10
63.4157
 20
67.4797
 30
0.0
 10
62.9726
 20
66.136
 30
0.0
 10
60.4402
 20
65.2107
 30
0.0
 10
60.4402
 20
65.2107
 30
0.0
 10
58.7737
 20
64.6669
 30
0.0
 10
57.1071
 20
65.0631
 30
0.0
 10
55.4407
 20
65.8015
 30
0.0
  0
SPLINE
  5
66
330
1F
100
AcDbEntity
  8
layer 1
 62
     7
370
     9
100
AcDbSpline
210
0.0
220
0.0
230
1.0
 70
    11
 71
     3
 72
    24
 73
    20
 74
     0
 42
0.0000000001
 43
0.0000000001
 12
1.0
 22
0.0
 32
0.0
 13
1.0
 23
0.0
 33
0.0
 40
0.0
 40
0.0
 40
0.0
 40
0.0
 40
0.1666666666666667
 40
0.1666666666666667
 40
0.1666666666666667
 40
0.1666666666666667
 40
0.3333333333333333
 40
0.3333333333333333
 40
0.3333333333333333
 40
0.3333333333333333
 40
0.5
 40
0.5
 40
0.5
 40
0.5
 40
0.6666666666666666
 40
0.6666666666666666
 40
0.6666666666666666
 40
0.6666666666666666
 40
1.0
 40
1.0
 40
1.0
 40
1.0
 10
55.4407
 20
80.4019
 30
0.0
 10
55.4407
 20
80.4019
 30
0.0
 10
55.4407
 20
89.483
 30
0.0
 10
55.4407
 20
89.483
 30
0.0
 10
55.4407
 20
89.483
 30
0.0
 10
55.4407
 20
89.483
 30
0.0
 10
59.7528
 20
89.7293
 30
0.0
 10
59.7528
 20
89.7293
 30
0.0
 10
59.7528
 20
89.7293
 30
0.0
 10
59.4381
 20
85.9805
 30
0.0
 10
60.411
 20
82.3767
 30
0.0
 10
62.1141
 20
79.0723
 30
0.0
 10
62.1141
 20
79.0723
 30
0.0
 10
62.1777
 20
78.9022
 30
0.0
 10
62.1238
 20
78.7965
 30
0.0
 10
61.9579
 20
78.7597
 30
0.0
 10
61.9579
 20
78.7597
 30
0.0
 10
60.0794
 20
79.635
 30
0.0
 10
57.8251
 20
80.0912
 30
0.0
 10
55.4407
 20
80.4019
 30
0.0
  0
SPLINE
  5
67
330
1F
100
AcDbEntity
  8
layer 1
 62
     7
370
     9
100
AcDbSpline
210
0.0
220
0.0
230
1.0
 70
    11
 71
     3
 72
    28
 73
    24
 74
     0
 42
0.0000000001
 43
0.0000000001
 12
1.0
 22
0.0
 32
0.0
 13
1.0
 23
0.0
 33
0.0
 40
0.0
 40
0.0
 40
0.0
 40
0.0
 40
0.1428571428571428
 40
0.1428571428571428
 40
0.1428571428571428
 40
0.1428571428571428
 40
0.2857142857142857
 40
0.2857142857142857
 40
0.2857142857142857
 40
0.2857142857142857
 40
0.4285714285714285
 40
0.4285714285714285
 40
0.4285714285714285
 40
0.4285714285714285
 40
0.5714285714285714
 40
0.5714285714285714
 40
0.5714285714285714
 40
0.5714285714285714
 40
0.7142857142857143
 40
0.7142857142857143
 40
0.7142857142857143
 40
0.7142857142857143
 40
1.0
 40
1.0
 40
1.0
 40
1.0
 10
55.4407
 20
92.8416
 30
0.0
 10
55.4407
 20
92.8416
 30
0.0
 10
55.4407
 20
95.2669
 30
0.0
 10
55.4407
 20
95.2669
 30
0.0
 10
55.4407
 20
95.2669
 30
0.0
 10
56.1818
 20
95.1671
 30
0.0
 10
56.9672
 20
95.1561
 30
0.0
 10
57.8355
 20
95.311
 30
0.0
 10
57.8355
 20
95.311
 30
0.0
 10
60.4736
 20
96.0764
 30
0.0
 10
62.0681
 20
97.8848
 30
0.0
 10
62.1379
 20
101.2183
 30
0.0
 10
62.1379
 20
101.2183
 30
0.0
 10
61.9775
 20
105.0626
 30
0.0
 10
59.4602
 20
106.9824
 30
0.0
 10
55.4407
 20
107.6758
 30
0.0
 10
55.4407
 20
107.6758
 30
0.0
 10
55.4407
 20
107.6758
 30
0.0
 10
55.4407
 20
111.2764
 30
0.0
 10
55.4407
 20
111.2764
 30
0.0
 10
55.4407
 20
111.2764
 30
0.0
 10
69.0118
 20
108.7913
 30
0.0
 10
69.2822
 20
93.7789
 30
0.0
 10
55.4407
 20
92.8416
 30
0.0
  0
SPLINE
  5
68
330
1F
100
AcDbEntity
  8
layer 1
 62
     7
370
     9
100
AcDbSpline
210
0.0
220
0.0
230
1.0
 70
    11
 71
     3
 72
    76
 73
    72
 74
     0
 42
0.0000000001
 43
0.0000000001
 12
1.0
 22
0.0
 32
0.0
 13
1.0
 23
0.0
 33
0.0
 40
0.0
 40
0.0
 40
0.0
 40
0.0
 40
0.0526315789473684
 40
0.0526315789473684
 40
0.0526315789473684
 40
0.0526315789473684
 40
0.1052631578947368
 40
0.1052631578947368
 40
0.1052631578947368
 40
0.1052631578947368
 40
0.1578947368421053
 40
0.1578947368421053
 40
0.1578947368421053
 40
0.1578947368421053
 40
0.2105263157894737
 40
0.2105263157894737
 40
0.2105263157894737
 40
0.2105263157894737
 40
0.2631578947368421
 40
0.2631578947368421
 40
0.2631578947368421
 40
0.2631578947368421
 40
0.3157894736842105
 40
0.3157894736842105
 40
0.3157894736842105
 40
0.3157894736842105
 40
0.3684210526315789
 40
0.3684210526315789
 40
0.3684210526315789
 40
0.3684210526315789
 40
0.4210526315789473
 40
0.4210526315789473
 40
0.4210526315789473
 40
0.4210526315789473
 40
0.4736842105263158
 40
0.4736842105263158
 40
0.4736842105263158
 40
0.4736842105263158
 40
0.5263157894736842
 40
0.5263157894736842
 40
0.5263157894736842
 40
0.5263157894736842
 40
0.5789473684210527
 40
0.5789473684210527
 40
0.5789473684210527
 40
0.5789473684210527
 40
0.631578947368421
 40
0.631578947368421
 40
0.631578947368421
 40
0.631578947368421
 40
0.6842105263157895
 40
0.6842105263157895
 40
0.6842105263157895
 40
0.6842105263157895
 40
0.7368421052631579
 40
0.7368421052631579
 40
0.7368421052631579
 40
0.7368421052631579
 40
0.7894736842105263
 40
0.7894736842105263
 40
0.7894736842105263
 40
0.7894736842105263
 40
0.8421052631578947
 40
0.8421052631578947
 40
0.8421052631578947
 40
0.8421052631578947
 40
0.8947368421052632
 40
0.8947368421052632
 40
0.8947368421052632
 40
0.8947368421052632
 40
1.0
 40
1.0
 40
1.0
 40
1.0
 10
99.84
 20
-36.1694
 30
0.0
 10
99.8073
 20
-35.9601
 30
0.0
 10
100.0314
 20
-35.9549
 30
0.0
 10
100.1259
 20
-36.0818
 30
0.0
 10
100.1259
 20
-36.0818
 30
0.0
 10
101.5833
 20
-37.7076
 30
0.0
 10
103.2805
 20
-38.6133
 30
0.0
 10
106.3653
 20
-38.0117
 30
0.0
 10
106.3653
 20
-38.0117
 30
0.0
 10
108.9693
 20
-37.0439
 30
0.0
 10
109.8674
 20
-35.0531
 30
0.0
 10
109.9028
 20
-32.5443
 30
0.0
 10
109.9028
 20
-32.5443
 30
0.0
 10
108.9973
 20
-28.9405
 30
0.0
 10
104.4597
 20
-29.3617
 30
0.0
 10
105.9149
 20
-32.8016
 30
0.0
 10
105.9149
 20
-32.8016
 30
0.0
 10
106.2964
 20
-34.467
 30
0.0
 10
104.6334
 20
-35.0059
 30
0.0
 10
103.4764
 20
-34.229
 30
0.0
 10
103.4764
 20
-34.229
 30
0.0
 10
103.1118
 20
-33.9842
 30
0.0
 10
103.0377
 20
-33.8507
 30
0.0
 10
102.911
 20
-33.3824
 30
0.0
 10
102.911
 20
-33.3824
 30
0.0
 10
102.4581
 20
-31.7064
 30
0.0
 10
102.7935
 20
-30.2428
 30
0.0
 10
103.9376
 20
-29.2169
 30
0.0
 10
103.9376
 20
-29.2169
 30
0.0
 10
104.5653
 20
-28.654
 30
0.0
 10
105.4084
 20
-28.3762
 30
0.0
 10
106.2312
 20
-28.2327
 30
0.0
 10
106.2312
 20
-28.2327
 30
0.0
 10
111.2856
 20
-27.3497
 30
0.0
 10
113.2227
 20
-31.8763
 30
0.0
 10
111.15
 20
-36.5623
 30
0.0
 10
111.15
 20
-36.5623
 30
0.0
 10
110.7653
 20
-37.4316
 30
0.0
 10
110.3573
 20
-37.913
 30
0.0
 10
109.6624
 20
-38.5561
 30
0.0
 10
109.6624
 20
-38.5561
 30
0.0
 10
106.2589
 20
-41.7058
 30
0.0
 10
102.4991
 20
-43.3864
 30
0.0
 10
101.611
 20
-47.2089
 30
0.0
 10
101.611
 20
-47.2089
 30
0.0
 10
100.6813
 20
-46.0544
 30
0.0
 10
99.236
 20
-45.4632
 30
0.0
 10
97.6508
 20
-46.2774
 30
0.0
 10
97.6508
 20
-46.2774
 30
0.0
 10
95.503
 20
-47.6784
 30
0.0
 10
96.6538
 20
-49.7862
 30
0.0
 10
98.0054
 20
-50.0734
 30
0.0
 10
98.0054
 20
-50.0734
 30
0.0
 10
98.3802
 20
-50.153
 30
0.0
 10
98.2972
 20
-50.3151
 30
0.0
 10
98.1867
 20
-50.4771
 30
0.0
 10
98.1867
 20
-50.4771
 30
0.0
 10
97.8714
 20
-50.908
 30
0.0
 10
97.3574
 20
-51.1745
 30
0.0
 10
96.7934
 20
-51.0072
 30
0.0
 10
96.7934
 20
-51.0072
 30
0.0
 10
96.614
 20
-50.954
 30
0.0
 10
96.5379
 20
-50.9127
 30
0.0
 10
96.3974
 20
-50.798
 30
0.0
 10
96.3974
 20
-50.798
 30
0.0
 10
94.2347
 20
-49.0348
 30
0.0
 10
94.6536
 20
-46.9696
 30
0.0
 10
96.1382
 20
-44.894
 30
0.0
 10
96.1382
 20
-44.894
 30
0.0
 10
97.9222
 20
-42.1404
 30
0.0
 10
99.8487
 20
-40.2746
 30
0.0
 10
99.84
 20
-36.1694
 30
0.0
  0
SPLINE
  5
69
330
1F
100
AcDbEntity
  8
layer 1
 62
     7
370
     9
100
AcDbSpline
210
0.0
220
0.0
230
1.0
 70
    11
 71
     3
 72
    40
 73
    36
 74
     0
 42
0.0000000001
 43
0.0000000001
 12
1.0
 22
0.0
 32
0.0
 13
1.0
 23
0.0
 33
0.0
 40
0.0
 40
0.0
 40
0.0
 40
0.0
 40
0.1
 40
0.1
 40
0.1
 40
0.1
 40
0.2
 40
0.2
 40
0.2
 40
0.2
 40
0.3
 40
0.3
 40
0.3
 40
0.3
 40
0.4
 40
0.4
 40
0.4
 40
0.4
 40
0.5
 40
0.5
 40
0.5
 40
0.5
 40
0.6
 40
0.6
 40
0.6
 40
0.6
 40
0.7
 40
0.7
 40
0.7
 40
0.7
 40
0.8
 40
0.8
 40
0.8
 40
0.8
 40
1.0
 40
1.0
 40
1.0
 40
1.0
 10
99.3105
 20
-32.7819
 30
0.0
 10
99.2563
 20
-32.9295
 30
0.0
 10
99.1832
 20
-32.9578
 30
0.0
 10
99.0918
 20
-32.8659
 30
0.0
 10
99.0918
 20
-32.8659
 30
0.0
 10
98.4999
 20
-31.5009
 30
0.0
 10
97.5725
 20
-30.3239
 30
0.0
 10
96.2668
 20
-29.3282
 30
0.0
 10
96.2668
 20
-29.3282
 30
0.0
 10
95.8589
 20
-28.9495
 30
0.0
 10
95.4461
 20
-28.6139
 30
0.0
 10
95.0305
 20
-28.3156
 30
0.0
 10
95.0305
 20
-28.3156
 30
0.0
 10
97.4788
 20
-27.7592
 30
0.0
 10
99.8558
 20
-25.9187
 30
0.0
 10
100.928
 20
-22.4785
 30
0.0
 10
100.928
 20
-22.4785
 30
0.0
 10
100.928
 20
-22.4785
 30
0.0
 10
101.0965
 20
-22.3571
 30
0.0
 10
101.0965
 20
-22.3571
 30
0.0
 10
101.0965
 20
-22.3571
 30
0.0
 10
102.0492
 20
-23.3309
 30
0.0
 10
103.1471
 20
-24.2171
 30
0.0
 10
104.5301
 20
-24.8585
 30
0.0
 10
104.5301
 20
-24.8585
 30
0.0
 10
104.9429
 20
-25.0308
 30
0.0
 10
105.09
 20
-25.1512
 30
0.0
 10
104.5277
 20
-25.3783
 30
0.0
 10
104.5277
 20
-25.3783
 30
0.0
 10
102.9144
 20
-25.949
 30
0.0
 10
101.43
 20
-27.0375
 30
0.0
 10
100.319
 20
-28.6209
 30
0.0
 10
100.319
 20
-28.6209
 30
0.0
 10
99.4691
 20
-29.9826
 30
0.0
 10
99.2086
 20
-31.3847
 30
0.0
 10
99.3105
 20
-32.7819
 30
0.0
  0
SPLINE
  5
6A
330
1F
100
AcDbEntity
  8
layer 1
 62
     7
370
     9
100
AcDbSpline
210
0.0
220
0.0
230
1.0
 70
    11
 71
     3
 72
    80
 73
    76
 74
     0
 42
0.0000000001
 43
0.0000000001
 12
1.0
 22
0.0
 32
0.0
 13
1.0
 23
0.0
 33
0.0
 40
0.0
 40
0.0
 40
0.0
 40
0.0
 40
0.05
 40
0.05
 40
0.05
 40
0.05
 40
0.1
 40
0.1
 40
0.1
 40
0.1
 40
0.15
 40
0.15
 40
0.15
 40
0.15
 40
0.2
 40
0.2
 40
0.2
 40
0.2
 40
0.25
 40
0.25
 40
0.25
 40
0.25
 40
0.3
 40
0.3
 40
0.3
 40
0.3
 40
0.35
 40
0.35
 40
0.35
 40
0.35
 40
0.4
 40
0.4
 40
0.4
 40
0.4
 40
0.45
 40
0.45
 40
0.45
 40
0.45
 40
0.5
 40
0.5
 40
0.5
 40
0.5
 40
0.55
 40
0.55
 40
0.55
 40
0.55
 40
0.6
 40
0.6
 40
0.6
 40
0.6
 40
0.65
 40
0.65
 40
0.65
 40
0.65
 40
0.7
 40
0.7
 40
0.7
 40
0.7
 40
0.75
 40
0.75
 40
0.75
 40
0.75
 40
0.8
 40
0.8
 40
0.8
 40
0.8
 40
0.85
 40
0.85
 40
0.85
 40
0.85
 40
0.9
 40
0.9
 40
0.9
 40
0.9
 40
1.0
 40
1.0
 40
1.0
 40
1.0
 10
103.853
 20
-70.8989
 30
0.0
 10
103.8157
 20
-70.8087
 30
0.0
 10
103.7424
 20
-70.7637
 30
0.0
 10
103.5867
 20
-70.8286
 30
0.0
 10
103.5867
 20
-70.8286
 30
0.0
 10
103.5867
 20
-70.8286
 30
0.0
 10
103.3105
 20
-71.0081
 30
0.0
 10
103.3105
 20
-71.0081
 30
0.0
 10
103.3105
 20
-71.0081
 30
0.0
 10
99.6772
 20
-73.6501
 30
0.0
 10
96.8213
 20
-74.5181
 30
0.0
 10
92.0789
 20
-74.4124
 30
0.0
 10
92.0789
 20
-74.4124
 30
0.0
 10
91.8276
 20
-74.3953
 30
0.0
 10
91.5276
 20
-74.6035
 30
0.0
 10
91.7158
 20
-74.9535
 30
0.0
 10
91.7158
 20
-74.9535
 30
0.0
 10
92.098
 20
-75.9913
 30
0.0
 10
91.9678
 20
-77.1717
 30
0.0
 10
92.0904
 20
-78.2749
 30
0.0
 10
92.0904
 20
-78.2749
 30
0.0
 10
91.9797
 20
-83.316
 30
0.0
 10
96.9637
 20
-85.4471
 30
0.0
 10
99.474
 20
-81.5351
 30
0.0
 10
99.474
 20
-81.5351
 30
0.0
 10
99.578
 20
-81.3727
 30
0.0
 10
99.6203
 20
-81.2798
 30
0.0
 10
99.6362
 20
-81.0855
 30
0.0
 10
99.6362
 20
-81.0855
 30
0.0
 10
99.7531
 20
-79.662
 30
0.0
 10
98.1771
 20
-79.8284
 30
0.0
 10
97.5476
 20
-80.8023
 30
0.0
 10
97.5476
 20
-80.8023
 30
0.0
 10
97.4677
 20
-80.9258
 30
0.0
 10
97.4435
 20
-80.9813
 30
0.0
 10
97.319
 20
-81.0654
 30
0.0
 10
97.319
 20
-81.0654
 30
0.0
 10
96.5115
 20
-81.6113
 30
0.0
 10
95.8847
 20
-81.5836
 30
0.0
 10
95.4923
 20
-81.2479
 30
0.0
 10
95.4923
 20
-81.2479
 30
0.0
 10
93.6188
 20
-79.6475
 30
0.0
 10
96.006
 20
-76.9117
 30
0.0
 10
97.844
 20
-76.6823
 30
0.0
 10
97.844
 20
-76.6823
 30
0.0
 10
99.0473
 20
-76.5322
 30
0.0
 10
100.1484
 20
-76.7106
 30
0.0
 10
100.8949
 20
-77.1338
 30
0.0
 10
100.8949
 20
-77.1338
 30
0.0
 10
101.212
 20
-77.3137
 30
0.0
 10
101.4125
 20
-77.5191
 30
0.0
 10
101.6198
 20
-77.8122
 30
0.0
 10
101.6198
 20
-77.8122
 30
0.0
 10
102.4152
 20
-78.9373
 30
0.0
 10
102.5789
 20
-80.1143
 30
0.0
 10
102.5501
 20
-81.2233
 30
0.0
 10
102.5501
 20
-81.2233
 30
0.0
 10
102.5802
 20
-81.2903
 30
0.0
 10
102.6454
 20
-81.3166
 30
0.0
 10
102.7439
 20
-81.3011
 30
0.0
 10
102.7439
 20
-81.3011
 30
0.0
 10
103.6933
 20
-80.1369
 30
0.0
 10
104.9408
 20
-79.2702
 30
0.0
 10
106.7811
 20
-78.1482
 30
0.0
 10
106.7811
 20
-78.1482
 30
0.0
 10
107.0431
 20
-78.0444
 30
0.0
 10
107.0091
 20
-77.706
 30
0.0
 10
106.9433
 20
-77.605
 30
0.0
 10
106.9433
 20
-77.605
 30
0.0
 10
106.3315
 20
-76.7859
 30
0.0
 10
105.7595
 20
-75.9271
 30
0.0
 10
105.2554
 20
-75.0002
 30
0.0
 10
105.2554
 20
-75.0002
 30
0.0
 10
104.6469
 20
-73.7741
 30
0.0
 10
104.179
 20
-72.4073
 30
0.0
 10
103.853
 20
-70.8989
 30
0.0
  0
SPLINE
  5
6B
330
1F
100
AcDbEntity
  8
layer 1
 62
     7
370
     9
100
AcDbSpline
210
0.0
220
0.0
230
1.0
 70
    11
 71
     3
 72
   104
 73
   100
 74
     0
 42
0.0000000001
 43
0.0000000001
 12
1.0
 22
0.0
 32
0.0
 13
1.0
 23
0.0
 33
0.0
 40
0.0
 40
0.0
 40
0.0
 40
0.0
 40
0.0384615384615385
 40
0.0384615384615385
 40
0.0384615384615385
 40
0.0384615384615385
 40
0.0769230769230769
 40
0.0769230769230769
 40
0.0769230769230769
 40
0.0769230769230769
 40
0.1153846153846154
 40
0.1153846153846154
 40
0.1153846153846154
 40
0.1153846153846154
 40
0.1538461538461539
 40
0.1538461538461539
 40
0.1538461538461539
 40
0.1538461538461539
 40
0.1923076923076923
 40
0.1923076923076923
 40
0.1923076923076923
 40
0.1923076923076923
 40
0.2307692307692308
 40
0.2307692307692308
 40
0.2307692307692308
 40
0.2307692307692308
 40
0.2692307692307692
 40
0.2692307692307692
 40
0.2692307692307692
 40
0.2692307692307692
 40
0.3076923076923077
 40
0.3076923076923077
 40
0.3076923076923077
 40
0.3076923076923077
 40
0.3461538461538461
 40
0.3461538461538461
 40
0.3461538461538461
 40
0.3461538461538461
 40
0.3846153846153846
 40
0.3846153846153846
 40
0.3846153846153846
 40
0.3846153846153846
 40
0.4230769230769231
 40
0.4230769230769231
 40
0.4230769230769231
 40
0.4230769230769231
 40
0.4615384615384616
 40
0.4615384615384616
 40
0.4615384615384616
 40
0.4615384615384616
 40
0.5
 40
0.5
 40
0.5
 40
0.5
 40
0.5384615384615384
 40
0.5384615384615384
 40
0.5384615384615384
 40
0.5384615384615384
 40
0.5769230769230769
 40
0.5769230769230769
 40
0.5769230769230769
 40
0.5769230769230769
 40
0.6153846153846154
 40
0.6153846153846154
 40
0.6153846153846154
 40
0.6153846153846154
 40
0.6538461538461539
 40
0.6538461538461539
 40
0.6538461538461539
 40
0.6538461538461539
 40
0.6923076923076923
 40
0.6923076923076923
 40
0.6923076923076923
 40
0.6923076923076923
 40
0.7307692307692307
 40
0.7307692307692307
 40
0.7307692307692307
 40
0.7307692307692307
 40
0.7692307692307693
 40
0.7692307692307693
 40
0.7692307692307693
 40
0.7692307692307693
 40
0.8076923076923077
 40
0.8076923076923077
 40
0.8076923076923077
 40
0.8076923076923077
 40
0.8461538461538461
 40
0.8461538461538461
 40
0.8461538461538461
 40
0.8461538461538461
 40
0.8846153846153846
 40
0.8846153846153846
 40
0.8846153846153846
 40
0.8846153846153846
 40
0.9230769230769231
 40
0.9230769230769231
 40
0.9230769230769231
 40
0.9230769230769231
 40
1.0
 40
1.0
 40
1.0
 40
1.0
 10
73.1068
 20
-31.5914
 30
0.0
 10
72.9367
 20
-31.5312
 30
0.0
 10
72.7755
 20
-31.4472
 30
0.0
 10
72.8386
 20
-31.0466
 30
0.0
 10
72.8386
 20
-31.0466
 30
0.0
 10
72.8386
 20
-31.0466
 30
0.0
 10
72.8537
 20
-31.0007
 30
0.0
 10
72.8537
 20
-31.0007
 30
0.0
 10
72.8537
 20
-31.0007
 30
0.0
 10
72.9597
 20
-29.4269
 30
0.0
 10
72.782
 20
-28.101
 30
0.0
 10
72.3636
 20
-26.9857
 30
0.0
 10
72.3636
 20
-26.9857
 30
0.0
 10
72.1196
 20
-26.3592
 30
0.0
 10
72.4202
 20
-26.2126
 30
0.0
 10
73.3986
 20
-26.4023
 30
0.0
 10
73.3986
 20
-26.4023
 30
0.0
 10
79.7531
 20
-27.1011
 30
0.0
 10
83.1182
 20
-24.9005
 30
0.0
 10
86.0056
 20
-20.356
 30
0.0
 10
86.0056
 20
-20.356
 30
0.0
 10
86.4305
 20
-19.6612
 30
0.0
 10
86.7688
 20
-18.9563
 30
0.0
 10
87.0289
 20
-18.249
 30
0.0
 10
87.0289
 20
-18.249
 30
0.0
 10
87.4452
 20
-17.4163
 30
0.0
 10
87.4495
 20
-17.168
 30
0.0
 10
88.1268
 20
-16.5598
 30
0.0
 10
88.1268
 20
-16.5598
 30
0.0
 10
88.4664
 20
-16.3262
 30
0.0
 10
88.8295
 20
-16.1105
 30
0.0
 10
89.2217
 20
-15.9177
 30
0.0
 10
89.2217
 20
-15.9177
 30
0.0
 10
93.6821
 20
-14.5402
 30
0.0
 10
95.8679
 20
-16.1812
 30
0.0
 10
97.8565
 20
-18.5043
 30
0.0
 10
97.8565
 20
-18.5043
 30
0.0
 10
98.4438
 20
-19.5055
 30
0.0
 10
98.5348
 20
-19.6984
 30
0.0
 10
98.4365
 20
-20.6627
 30
0.0
 10
98.4365
 20
-20.6627
 30
0.0
 10
97.9677
 20
-22.9423
 30
0.0
 10
96.4306
 20
-24.6526
 30
0.0
 10
94.1417
 20
-24.9623
 30
0.0
 10
94.1417
 20
-24.9623
 30
0.0
 10
93.2029
 20
-25.0893
 30
0.0
 10
92.2812
 20
-25.1304
 30
0.0
 10
91.6113
 20
-24.3936
 30
0.0
 10
91.6113
 20
-24.3936
 30
0.0
 10
90.4335
 20
-23.0984
 30
0.0
 10
91.3292
 20
-21.2977
 30
0.0
 10
91.9288
 20
-20.8671
 30
0.0
 10
91.9288
 20
-20.8671
 30
0.0
 10
93.2286
 20
-20.2495
 30
0.0
 10
93.8946
 20
-22.1404
 30
0.0
 10
94.994
 20
-21.3897
 30
0.0
 10
94.994
 20
-21.3897
 30
0.0
 10
96.7475
 20
-20.1926
 30
0.0
 10
95.3003
 20
-17.7937
 30
0.0
 10
93.0989
 20
-17.4396
 30
0.0
 10
93.0989
 20
-17.4396
 30
0.0
 10
90.4799
 20
-17.0183
 30
0.0
 10
88.6858
 20
-18.8214
 30
0.0
 10
87.8956
 20
-21.1508
 30
0.0
 10
87.8956
 20
-21.1508
 30
0.0
 10
87.1326
 20
-23.3989
 30
0.0
 10
87.708
 20
-25.286
 30
0.0
 10
88.7834
 20
-26.5494
 30
0.0
 10
88.7834
 20
-26.5494
 30
0.0
 10
84.2061
 20
-27.0863
 30
0.0
 10
80.3608
 20
-31.4752
 30
0.0
 10
79.8006
 20
-36.9181
 30
0.0
 10
79.8006
 20
-36.9181
 30
0.0
 10
79.1357
 20
-40.156
 30
0.0
 10
76.5962
 20
-41.4722
 30
0.0
 10
73.8798
 20
-39.6305
 30
0.0
 10
73.8798
 20
-39.6305
 30
0.0
 10
72.6009
 20
-38.763
 30
0.0
 10
72.3541
 20
-36.6416
 30
0.0
 10
72.8748
 20
-35.2323
 30
0.0
 10
72.8748
 20
-35.2323
 30
0.0
 10
73.023
 20
-34.8302
 30
0.0
 10
73.0885
 20
-34.7507
 30
0.0
 10
73.4858
 20
-34.5015
 30
0.0
 10
73.4858
 20
-34.5015
 30
0.0
 10
74.2983
 20
-33.9917
 30
0.0
 10
75.1306
 20
-34.2139
 30
0.0
 10
75.7481
 20
-34.9886
 30
0.0
 10
75.7481
 20
-34.9886
 30
0.0
 10
75.8628
 20
-35.4726
 30
0.0
 10
75.8496
 20
-35.7492
 30
0.0
 10
75.6882
 20
-36.3121
 30
0.0
 10
75.6882
 20
-36.3121
 30
0.0
 10
75.2232
 20
-37.9352
 30
0.0
 10
78.2112
 20
-38.4389
 30
0.0
 10
78.3212
 20
-35.696
 30
0.0
 10
78.3212
 20
-35.696
 30
0.0
 10
78.4555
 20
-32.4668
 30
0.0
 10
76.3751
 20
-31.4563
 30
0.0
 10
73.1068
 20
-31.5914
 30
0.0
  0
SPLINE
  5
6C
330
1F
100
AcDbEntity
  8
layer 1
 62
     7
370
     9
100
AcDbSpline
210
0.0
220
0.0
230
1.0
 70
    11
 71
     3
 72
    40
 73
    36
 74
     0
 42
0.0000000001
 43
0.0000000001
 12
1.0
 22
0.0
 32
0.0
 13
1.0
 23
0.0
 33
0.0
 40
0.0
 40
0.0
 40
0.0
 40
0.0
 40
0.1
 40
0.1
 40
0.1
 40
0.1
 40
0.2
 40
0.2
 40
0.2
 40
0.2
 40
0.3
 40
0.3
 40
0.3
 40
0.3
 40
0.4
 40
0.4
 40
0.4
 40
0.4
 40
0.5
 40
0.5
 40
0.5
 40
0.5
 40
0.6
 40
0.6
 40
0.6
 40
0.6
 40
0.7
 40
0.7
 40
0.7
 40
0.7
 40
0.8
 40
0.8
 40
0.8
 40
0.8
 40
1.0
 40
1.0
 40
1.0
 40
1.0
 10
68.2179
 20
104.2742
 30
0.0
 10
68.3497
 20
104.1274
 30
0.0
 10
68.4782
 20
104.0578
 30
0.0
 10
68.6027
 20
104.1873
 30
0.0
 10
68.6027
 20
104.1873
 30
0.0
 10
69.6224
 20
106.4553
 30
0.0
 10
71.9144
 20
108.3294
 30
0.0
 10
74.3099
 20
108.9922
 30
0.0
 10
74.3099
 20
108.9922
 30
0.0
 10
74.4677
 20
109.0375
 30
0.0
 10
74.3696
 20
109.174
 30
0.0
 10
74.3146
 20
109.2056
 30
0.0
 10
74.3146
 20
109.2056
 30
0.0
 10
71.6132
 20
110.3804
 30
0.0
 10
69.9825
 20
112.6906
 30
0.0
 10
69.8464
 20
114.0117
 30
0.0
 10
69.8464
 20
114.0117
 30
0.0
 10
69.8444
 20
114.1022
 30
0.0
 10
69.74
 20
114.1124
 30
0.0
 10
69.7239
 20
114.1145
 30
0.0
 10
69.7239
 20
114.1145
 30
0.0
 10
67.666
 20
112.9258
 30
0.0
 10
65.459
 20
112.127
 30
0.0
 10
63.0823
 20
111.789
 30
0.0
 10
63.0823
 20
111.789
 30
0.0
 10
62.9591
 20
111.7368
 30
0.0
 10
62.9961
 20
111.5636
 30
0.0
 10
63.0401
 20
111.4902
 30
0.0
 10
63.0401
 20
111.4902
 30
0.0
 10
64.0888
 20
110.7102
 30
0.0
 10
65.1756
 20
109.7058
 30
0.0
 10
66.3191
 20
108.3984
 30
0.0
 10
66.3191
 20
108.3984
 30
0.0
 10
67.2078
 20
107.0725
 30
0.0
 10
67.8405
 20
105.6978
 30
0.0
 10
68.2179
 20
104.2742
 30
0.0
  0
SPLINE
  5
6D
330
1F
100
AcDbEntity
  8
layer 1
 62
     7
370
     9
100
AcDbSpline
210
0.0
220
0.0
230
1.0
 70
    11
 71
     3
 72
    52
 73
    48
 74
     0
 42
0.0000000001
 43
0.0000000001
 12
1.0
 22
0.0
 32
0.0
 13
1.0
 23
0.0
 33
0.0
 40
0.0
 40
0.0
 40
0.0
 40
0.0
 40
0.0769230769230769
 40
0.0769230769230769
 40
0.0769230769230769
 40
0.0769230769230769
 40
0.1538461538461539
 40
0.1538461538461539
 40
0.1538461538461539
 40
0.1538461538461539
 40
0.2307692307692308
 40
0.2307692307692308
 40
0.2307692307692308
 40
0.2307692307692308
 40
0.3076923076923077
 40
0.3076923076923077
 40
0.3076923076923077
 40
0.3076923076923077
 40
0.3846153846153846
 40
0.3846153846153846
 40
0.3846153846153846
 40
0.3846153846153846
 40
0.4615384615384616
 40
0.4615384615384616
 40
0.4615384615384616
 40
0.4615384615384616
 40
0.5384615384615384
 40
0.5384615384615384
 40
0.5384615384615384
 40
0.5384615384615384
 40
0.6153846153846154
 40
0.6153846153846154
 40
0.6153846153846154
 40
0.6153846153846154
 40
0.6923076923076923
 40
0.6923076923076923
 40
0.6923076923076923
 40
0.6923076923076923
 40
0.7692307692307693
 40
0.7692307692307693
 40
0.7692307692307693
 40
0.7692307692307693
 40
0.8461538461538461
 40
0.8461538461538461
 40
0.8461538461538461
 40
0.8461538461538461
 40
1.0
 40
1.0
 40
1.0
 40
1.0
 10
68.4099
 20
97.2428
 30
0.0
 10
68.2549
 20
97.5199
 30
0.0
 10
68.1205
 20
97.2517
 30
0.0
 10
68.107
 20
97.2145
 30
0.0
 10
68.107
 20
97.2145
 30
0.0
 10
68.0708
 20
97.08
 30
0.0
 10
68.0329
 20
96.9457
 30
0.0
 10
67.9929
 20
96.8106
 30
0.0
 10
67.9929
 20
96.8106
 30
0.0
 10
67.4803
 20
95.3492
 30
0.0
 10
66.6997
 20
94.1112
 30
0.0
 10
65.6753
 20
93.0768
 30
0.0
 10
65.6753
 20
93.0768
 30
0.0
 10
60.7
 20
88.4412
 30
0.0
 10
63.5032
 20
78.7609
 30
0.0
 10
70.2141
 20
77.0796
 30
0.0
 10
70.2141
 20
77.0796
 30
0.0
 10
75.1802
 20
75.7466
 30
0.0
 10
78.0019
 20
77.9347
 30
0.0
 10
79.1944
 20
82.2617
 30
0.0
 10
79.1944
 20
82.2617
 30
0.0
 10
79.8594
 20
88.999
 30
0.0
 10
74.5162
 20
90.7598
 30
0.0
 10
71.9841
 20
89.8579
 30
0.0
 10
71.9841
 20
89.8579
 30
0.0
 10
69.2684
 20
88.891
 30
0.0
 10
68.9606
 20
86.2963
 30
0.0
 10
70.2466
 20
84.5794
 30
0.0
 10
70.2466
 20
84.5794
 30
0.0
 10
72.5411
 20
82.718
 30
0.0
 10
74.2801
 20
86.4151
 30
0.0
 10
75.6764
 20
85.3842
 30
0.0
 10
75.6764
 20
85.3842
 30
0.0
 10
77.7692
 20
83.8391
 30
0.0
 10
75.2746
 20
79.0758
 30
0.0
 10
70.5678
 20
79.9441
 30
0.0
 10
70.5678
 20
79.9441
 30
0.0
 10
65.1642
 20
82.3542
 30
0.0
 10
65.2899
 20
89.8059
 30
0.0
 10
69.9155
 20
92.6482
 30
0.0
 10
69.9155
 20
92.6482
 30
0.0
 10
70.3597
 20
92.9208
 30
0.0
 10
70.1907
 20
92.917
 30
0.0
 10
69.9501
 20
93.3732
 30
0.0
 10
69.9501
 20
93.3732
 30
0.0
 10
69.291
 20
94.6221
 30
0.0
 10
68.7541
 20
95.906
 30
0.0
 10
68.4099
 20
97.2428
 30
0.0
  0
SPLINE
  5
6E
330
1F
100
AcDbEntity
  8
layer 1
 62
     7
370
     9
100
AcDbSpline
210
0.0
220
0.0
230
1.0
 70
    11
 71
     3
 72
    40
 73
    36
 74
     0
 42
0.0000000001
 43
0.0000000001
 12
1.0
 22
0.0
 32
0.0
 13
1.0
 23
0.0
 33
0.0
 40
0.0
 40
0.0
 40
0.0
 40
0.0
 40
0.1
 40
0.1
 40
0.1
 40
0.1
 40
0.2
 40
0.2
 40
0.2
 40
0.2
 40
0.3
 40
0.3
 40
0.3
 40
0.3
 40
0.4
 40
0.4
 40
0.4
 40
0.4
 40
0.5
 40
0.5
 40
0.5
 40
0.5
 40
0.6
 40
0.6
 40
0.6
 40
0.6
 40
0.7
 40
0.7
 40
0.7
 40
0.7
 40
0.8
 40
0.8
 40
0.8
 40
0.8
 40
1.0
 40
1.0
 40
1.0
 40
1.0
 10
69.1491
 20
-47.8071
 30
0.0
 10
70.1601
 20
-46.0655
 30
0.0
 10
72.1638
 20
-44.2411
 30
0.0
 10
74.1302
 20
-43.6785
 30
0.0
 10
74.1302
 20
-43.6785
 30
0.0
 10
74.4786
 20
-43.6157
 30
0.0
 10
74.4395
 20
-43.2852
 30
0.0
 10
74.2112
 20
-43.1848
 30
0.0
 10
74.2112
 20
-43.1848
 30
0.0
 10
71.821
 20
-42.2107
 30
0.0
 10
70.4285
 20
-40.2772
 30
0.0
 10
70.1468
 20
-38.9362
 30
0.0
 10
70.1468
 20
-38.9362
 30
0.0
 10
70.0579
 20
-38.5958
 30
0.0
 10
69.8371
 20
-38.5152
 30
0.0
 10
69.6556
 20
-38.5564
 30
0.0
 10
69.6556
 20
-38.5564
 30
0.0
 10
67.898
 20
-39.6689
 30
0.0
 10
65.9028
 20
-40.4354
 30
0.0
 10
63.56
 20
-40.6967
 30
0.0
 10
63.56
 20
-40.6967
 30
0.0
 10
63.42
 20
-40.7317
 30
0.0
 10
63.2286
 20
-41.0173
 30
0.0
 10
63.5267
 20
-41.2344
 30
0.0
 10
63.5267
 20
-41.2344
 30
0.0
 10
64.518
 20
-41.9896
 30
0.0
 10
65.5146
 20
-42.9429
 30
0.0
 10
66.5759
 20
-44.1584
 30
0.0
 10
66.5759
 20
-44.1584
 30
0.0
 10
67.3443
 20
-45.3049
 30
0.0
 10
67.9212
 20
-46.4881
 30
0.0
 10
68.3072
 20
-47.7075
 30
0.0
 10
68.3072
 20
-47.7075
 30
0.0
 10
68.3963
 20
-48.056
 30
0.0
 10
68.9672
 20
-48.14
 30
0.0
 10
69.1491
 20
-47.8071
 30
0.0
  0
SPLINE
  5
6F
330
1F
100
AcDbEntity
  8
layer 1
 62
     7
370
     9
100
AcDbSpline
210
0.0
220
0.0
230
1.0
 70
    11
 71
     3
 72
    60
 73
    56
 74
     0
 42
0.0000000001
 43
0.0000000001
 12
1.0
 22
0.0
 32
0.0
 13
1.0
 23
0.0
 33
0.0
 40
0.0
 40
0.0
 40
0.0
 40
0.0
 40
0.0666666666666667
 40
0.0666666666666667
 40
0.0666666666666667
 40
0.0666666666666667
 40
0.1333333333333333
 40
0.1333333333333333
 40
0.1333333333333333
 40
0.1333333333333333
 40
0.2
 40
0.2
 40
0.2
 40
0.2
 40
0.2666666666666667
 40
0.2666666666666667
 40
0.2666666666666667
 40
0.2666666666666667
 40
0.3333333333333333
 40
0.3333333333333333
 40
0.3333333333333333
 40
0.3333333333333333
 40
0.4
 40
0.4
 40
0.4
 40
0.4
 40
0.4666666666666667
 40
0.4666666666666667
 40
0.4666666666666667
 40
0.4666666666666667
 40
0.5333333333333333
 40
0.5333333333333333
 40
0.5333333333333333
 40
0.5333333333333333
 40
0.6
 40
0.6
 40
0.6
 40
0.6
 40
0.6666666666666666
 40
0.6666666666666666
 40
0.6666666666666666
 40
0.6666666666666666
 40
0.7333333333333333
 40
0.7333333333333333
 40
0.7333333333333333
 40
0.7333333333333333
 40
0.8
 40
0.8
 40
0.8
 40
0.8
 40
0.8666666666666667
 40
0.8666666666666667
 40
0.8666666666666667
 40
0.8666666666666667
 40
1.0
 40
1.0
 40
1.0
 40
1.0
 10
68.734
 20
-55.5671
 30
0.0
 10
68.556
 20
-55.2387
 30
0.0
 10
68.4191
 20
-55.3088
 30
0.0
 10
68.3069
 20
-55.5477
 30
0.0
 10
68.3069
 20
-55.5477
 30
0.0
 10
68.288
 20
-55.6139
 30
0.0
 10
68.2693
 20
-55.6798
 30
0.0
 10
68.2497
 20
-55.7461
 30
0.0
 10
68.2497
 20
-55.7461
 30
0.0
 10
67.7558
 20
-57.1301
 30
0.0
 10
67.1116
 20
-58.4391
 30
0.0
 10
65.9321
 20
-59.4799
 30
0.0
 10
65.9321
 20
-59.4799
 30
0.0
 10
60.9571
 20
-64.1155
 30
0.0
 10
63.7599
 20
-73.7961
 30
0.0
 10
70.471
 20
-75.4772
 30
0.0
 10
70.471
 20
-75.4772
 30
0.0
 10
75.4369
 20
-76.8101
 30
0.0
 10
78.2588
 20
-74.6222
 30
0.0
 10
79.4513
 20
-70.2952
 30
0.0
 10
79.4513
 20
-70.2952
 30
0.0
 10
80.0435
 20
-64.2949
 30
0.0
 10
77.065
 20
-62.8738
 30
0.0
 10
73.5462
 20
-62.822
 30
0.0
 10
73.5462
 20
-62.822
 30
0.0
 10
72.6775
 20
-62.8093
 30
0.0
 10
72.434
 20
-62.7097
 30
0.0
 10
71.5393
 20
-63.2664
 30
0.0
 10
71.5393
 20
-63.2664
 30
0.0
 10
69.5567
 20
-64.4997
 30
0.0
 10
69.3581
 20
-66.4484
 30
0.0
 10
70.5033
 20
-67.9773
 30
0.0
 10
70.5033
 20
-67.9773
 30
0.0
 10
72.798
 20
-69.8387
 30
0.0
 10
73.6691
 20
-66.5217
 30
0.0
 10
75.6535
 20
-67.1728
 30
0.0
 10
75.6535
 20
-67.1728
 30
0.0
 10
77.4422
 20
-67.7597
 30
0.0
 10
77.4086
 20
-70.1519
 30
0.0
 10
75.7789
 20
-71.4021
 30
0.0
 10
75.7789
 20
-71.4021
 30
0.0
 10
74.444
 20
-72.4262
 30
0.0
 10
72.3389
 20
-72.8269
 30
0.0
 10
70.585
 20
-72.1733
 30
0.0
 10
70.585
 20
-72.1733
 30
0.0
 10
65.1814
 20
-69.763
 30
0.0
 10
65.5467
 20
-62.7511
 30
0.0
 10
70.1723
 20
-59.9085
 30
0.0
 10
70.1723
 20
-59.9085
 30
0.0
 10
70.6166
 20
-59.636
 30
0.0
 10
70.4476
 20
-59.6397
 30
0.0
 10
70.2069
 20
-59.1835
 30
0.0
 10
70.2069
 20
-59.1835
 30
0.0
 10
69.5895
 20
-58.0139
 30
0.0
 10
69.0791
 20
-56.8133
 30
0.0
 10
68.734
 20
-55.5671
 30
0.0
  0
SPLINE
  5
70
330
1F
100
AcDbEntity
  8
layer 1
 62
     7
370
     9
100
AcDbSpline
210
0.0
220
0.0
230
1.0
 70
    11
 71
     3
 72
    64
 73
    60
 74
     0
 42
0.0000000001
 43
0.0000000001
 12
1.0
 22
0.0
 32
0.0
 13
1.0
 23
0.0
 33
0.0
 40
0.0
 40
0.0
 40
0.0
 40
0.0
 40
0.0625
 40
0.0625
 40
0.0625
 40
0.0625
 40
0.125
 40
0.125
 40
0.125
 40
0.125
 40
0.1875
 40
0.1875
 40
0.1875
 40
0.1875
 40
0.25
 40
0.25
 40
0.25
 40
0.25
 40
0.3125
 40
0.3125
 40
0.3125
 40
0.3125
 40
0.375
 40
0.375
 40
0.375
 40
0.375
 40
0.4375
 40
0.4375
 40
0.4375
 40
0.4375
 40
0.5
 40
0.5
 40
0.5
 40
0.5
 40
0.5625
 40
0.5625
 40
0.5625
 40
0.5625
 40
0.625
 40
0.625
 40
0.625
 40
0.625
 40
0.6875
 40
0.6875
 40
0.6875
 40
0.6875
 40
0.75
 40
0.75
 40
0.75
 40
0.75
 40
0.8125
 40
0.8125
 40
0.8125
 40
0.8125
 40
0.875
 40
0.875
 40
0.875
 40
0.875
 40
1.0
 40
1.0
 40
1.0
 40
1.0
 10
68.5691
 20
21.1566
 30
0.0
 10
68.5397
 20
21.2066
 30
0.0
 10
68.5041
 20
21.225
 30
0.0
 10
68.4556
 20
21.1743
 30
0.0
 10
68.4556
 20
21.1743
 30
0.0
 10
68.4304
 20
20.9071
 30
0.0
 10
68.3423
 20
20.6387
 30
0.0
 10
68.2386
 20
20.3691
 30
0.0
 10
68.2386
 20
20.3691
 30
0.0
 10
67.6794
 20
19.0178
 30
0.0
 10
67.0465
 20
18.2319
 30
0.0
 10
66.0608
 20
17.094
 30
0.0
 10
66.0608
 20
17.094
 30
0.0
 10
61.0856
 20
12.4586
 30
0.0
 10
63.8885
 20
2.778
 30
0.0
 10
70.5997
 20
1.0971
 30
0.0
 10
70.5997
 20
1.0971
 30
0.0
 10
75.5656
 20
-0.2363
 30
0.0
 10
78.3872
 20
1.9517
 30
0.0
 10
79.58
 20
6.2789
 30
0.0
 10
79.58
 20
6.2789
 30
0.0
 10
80.1721
 20
12.2793
 30
0.0
 10
77.1714
 20
13.3554
 30
0.0
 10
73.6748
 20
13.752
 30
0.0
 10
73.6748
 20
13.752
 30
0.0
 10
72.5262
 20
13.6659
 30
0.0
 10
72.2702
 20
13.5997
 30
0.0
 10
71.4033
 20
13.1022
 30
0.0
 10
71.4033
 20
13.1022
 30
0.0
 10
69.881
 20
11.6733
 30
0.0
 10
69.5469
 20
10.0634
 30
0.0
 10
70.632
 20
8.5967
 30
0.0
 10
70.632
 20
8.5967
 30
0.0
 10
72.8552
 20
6.6739
 30
0.0
 10
73.8577
 20
9.9206
 30
0.0
 10
75.7823
 20
9.4013
 30
0.0
 10
75.7823
 20
9.4013
 30
0.0
 10
76.1616
 20
9.2988
 30
0.0
 10
76.6848
 20
8.6816
 30
0.0
 10
76.8463
 20
8.2526
 30
0.0
 10
76.8463
 20
8.2526
 30
0.0
 10
77.3926
 20
6.8004
 30
0.0
 10
75.9151
 20
5.0107
 30
0.0
 10
74.0491
 20
4.3324
 30
0.0
 10
74.0491
 20
4.3324
 30
0.0
 10
73.1574
 20
4.0083
 30
0.0
 10
72.2702
 20
4.0988
 30
0.0
 10
71.0332
 20
4.2606
 30
0.0
 10
71.0332
 20
4.2606
 30
0.0
 10
64.8715
 20
6.6108
 30
0.0
 10
65.6753
 20
13.823
 30
0.0
 10
70.3009
 20
16.6654
 30
0.0
 10
70.3009
 20
16.6654
 30
0.0
 10
70.7453
 20
16.9379
 30
0.0
 10
70.5763
 20
16.9344
 30
0.0
 10
70.3355
 20
17.3905
 30
0.0
 10
70.3355
 20
17.3905
 30
0.0
 10
69.6182
 20
18.7495
 30
0.0
 10
68.9062
 20
19.6916
 30
0.0
 10
68.5691
 20
21.1566
 30
0.0
  0
SPLINE
  5
71
330
1F
100
AcDbEntity
  8
layer 1
 62
     7
370
     9
100
AcDbSpline
210
0.0
220
0.0
230
1.0
 70
    11
 71
     3
 72
    40
 73
    36
 74
     0
 42
0.0000000001
 43
0.0000000001
 12
1.0
 22
0.0
 32
0.0
 13
1.0
 23
0.0
 33
0.0
 40
0.0
 40
0.0
 40
0.0
 40
0.0
 40
0.1
 40
0.1
 40
0.1
 40
0.1
 40
0.2
 40
0.2
 40
0.2
 40
0.2
 40
0.3
 40
0.3
 40
0.3
 40
0.3
 40
0.4
 40
0.4
 40
0.4
 40
0.4
 40
0.5
 40
0.5
 40
0.5
 40
0.5
 40
0.6
 40
0.6
 40
0.6
 40
0.6
 40
0.7
 40
0.7
 40
0.7
 40
0.7
 40
0.8
 40
0.8
 40
0.8
 40
0.8
 40
1.0
 40
1.0
 40
1.0
 40
1.0
 10
68.9568
 20
28.1336
 30
0.0
 10
69.9572
 20
30.4426
 30
0.0
 10
72.2985
 20
32.3557
 30
0.0
 10
74.7231
 20
33.017
 30
0.0
 10
74.7231
 20
33.017
 30
0.0
 10
74.8693
 20
33.0651
 30
0.0
 10
74.7798
 20
33.1892
 30
0.0
 10
74.7419
 20
33.2047
 30
0.0
 10
74.7419
 20
33.2047
 30
0.0
 10
72.0429
 20
34.3621
 30
0.0
 10
70.4019
 20
36.6544
 30
0.0
 10
70.2364
 20
37.9888
 30
0.0
 10
70.2364
 20
37.9888
 30
0.0
 10
70.2091
 20
38.133
 30
0.0
 10
70.0696
 20
38.1193
 30
0.0
 10
70.0493
 20
38.1107
 30
0.0
 10
70.0493
 20
38.1107
 30
0.0
 10
68.1065
 20
37.0486
 30
0.0
 10
66.0047
 20
36.1914
 30
0.0
 10
63.5298
 20
35.8213
 30
0.0
 10
63.5298
 20
35.8213
 30
0.0
 10
63.2645
 20
35.7434
 30
0.0
 10
63.46
 20
35.5041
 30
0.0
 10
63.4829
 20
35.4691
 30
0.0
 10
63.4829
 20
35.4691
 30
0.0
 10
64.5311
 20
34.6942
 30
0.0
 10
65.5819
 20
33.7014
 30
0.0
 10
66.7046
 20
32.4157
 30
0.0
 10
66.7046
 20
32.4157
 30
0.0
 10
67.625
 20
31.0422
 30
0.0
 10
68.2712
 20
29.6164
 30
0.0
 10
68.6431
 20
28.1384
 30
0.0
 10
68.6431
 20
28.1384
 30
0.0
 10
68.7197
 20
27.9879
 30
0.0
 10
68.8228
 20
27.84
 30
0.0
 10
68.9568
 20
28.1336
 30
0.0
  0
SPLINE
  5
72
330
1F
100
AcDbEntity
  8
layer 1
 62
     7
370
     9
100
AcDbSpline
210
0.0
220
0.0
230
1.0
 70
    11
 71
     3
 72
    72
 73
    68
 74
     0
 42
0.0000000001
 43
0.0000000001
 12
1.0
 22
0.0
 32
0.0
 13
1.0
 23
0.0
 33
0.0
 40
0.0
 40
0.0
 40
0.0
 40
0.0
 40
0.0555555555555556
 40
0.0555555555555556
 40
0.0555555555555556
 40
0.0555555555555556
 40
0.1111111111111111
 40
0.1111111111111111
 40
0.1111111111111111
 40
0.1111111111111111
 40
0.1666666666666667
 40
0.1666666666666667
 40
0.1666666666666667
 40
0.1666666666666667
 40
0.2222222222222222
 40
0.2222222222222222
 40
0.2222222222222222
 40
0.2222222222222222
 40
0.2777777777777778
 40
0.2777777777777778
 40
0.2777777777777778
 40
0.2777777777777778
 40
0.3333333333333333
 40
0.3333333333333333
 40
0.3333333333333333
 40
0.3333333333333333
 40
0.3888888888888889
 40
0.3888888888888889
 40
0.3888888888888889
 40
0.3888888888888889
 40
0.4444444444444444
 40
0.4444444444444444
 40
0.4444444444444444
 40
0.4444444444444444
 40
0.5
 40
0.5
 40
0.5
 40
0.5
 40
0.5555555555555556
 40
0.5555555555555556
 40
0.5555555555555556
 40
0.5555555555555556
 40
0.6111111111111112
 40
0.6111111111111112
 40
0.6111111111111112
 40
0.6111111111111112
 40
0.6666666666666666
 40
0.6666666666666666
 40
0.6666666666666666
 40
0.6666666666666666
 40
0.7222222222222222
 40
0.7222222222222222
 40
0.7222222222222222
 40
0.7222222222222222
 40
0.7777777777777778
 40
0.7777777777777778
 40
0.7777777777777778
 40
0.7777777777777778
 40
0.8333333333333334
 40
0.8333333333333334
 40
0.8333333333333334
 40
0.8333333333333334
 40
0.8888888888888888
 40
0.8888888888888888
 40
0.8888888888888888
 40
0.8888888888888888
 40
1.0
 40
1.0
 40
1.0
 40
1.0
 10
99.9686
 20
40.4896
 30
0.0
 10
100.0068
 20
40.6318
 30
0.0
 10
100.0952
 20
40.6507
 30
0.0
 10
100.2334
 20
40.5454
 30
0.0
 10
100.2334
 20
40.5454
 30
0.0
 10
100.2404
 20
40.5277
 30
0.0
 10
100.2474
 20
40.51
 30
0.0
 10
100.2544
 20
40.4921
 30
0.0
 10
100.2544
 20
40.4921
 30
0.0
 10
101.712
 20
38.8667
 30
0.0
 10
103.409
 20
37.9609
 30
0.0
 10
106.4941
 20
38.5623
 30
0.0
 10
106.4941
 20
38.5623
 30
0.0
 10
109.0171
 20
39.5
 30
0.0
 10
110.4356
 20
41.981
 30
0.0
 10
109.852
 20
44.5848
 30
0.0
 10
109.852
 20
44.5848
 30
0.0
 10
108.6476
 20
47.5783
 30
0.0
 10
104.6679
 20
47.024
 30
0.0
 10
106.0436
 20
43.7725
 30
0.0
 10
106.0436
 20
43.7725
 30
0.0
 10
106.4284
 20
42.0921
 30
0.0
 10
104.7882
 20
41.649
 30
0.0
 10
103.5731
 20
42.3636
 30
0.0
 10
103.5731
 20
42.3636
 30
0.0
 10
103.2473
 20
42.6165
 30
0.0
 10
103.197
 20
42.767
 30
0.0
 10
103.0306
 20
43.2421
 30
0.0
 10
103.0306
 20
43.2421
 30
0.0
 10
102.6786
 20
45.2059
 30
0.0
 10
103.0668
 20
46.8132
 30
0.0
 10
104.6928
 20
47.8247
 30
0.0
 10
104.6928
 20
47.8247
 30
0.0
 10
106.1308
 20
48.3361
 30
0.0
 10
107.4688
 20
48.5721
 30
0.0
 10
108.9826
 20
48.1753
 30
0.0
 10
108.9826
 20
48.1753
 30
0.0
 10
109.9778
 20
47.7886
 30
0.0
 10
111.0941
 20
47.1334
 30
0.0
 10
111.7413
 20
45.7932
 30
0.0
 10
111.7413
 20
45.7932
 30
0.0
 10
112.453
 20
43.9102
 30
0.0
 10
112.3207
 20
41.7052
 30
0.0
 10
110.7392
 20
38.9483
 30
0.0
 10
110.7392
 20
38.9483
 30
0.0
 10
107.12
 20
35.1653
 30
0.0
 10
102.7115
 20
33.5468
 30
0.0
 10
101.7394
 20
29.3652
 30
0.0
 10
101.7394
 20
29.3652
 30
0.0
 10
100.81
 20
30.5194
 30
0.0
 10
99.3647
 20
31.111
 30
0.0
 10
97.7795
 20
30.2965
 30
0.0
 10
97.7795
 20
30.2965
 30
0.0
 10
95.4296
 20
28.764
 30
0.0
 10
97.0279
 20
26.3849
 30
0.0
 10
98.518
 20
26.47
 30
0.0
 10
98.518
 20
26.47
 30
0.0
 10
98.2254
 20
25.7271
 30
0.0
 10
97.5555
 20
25.403
 30
0.0
 10
96.7496
 20
25.6018
 30
0.0
 10
96.7496
 20
25.6018
 30
0.0
 10
94.3367
 20
27.4027
 30
0.0
 10
94.7331
 20
29.5357
 30
0.0
 10
96.2668
 20
31.6801
 30
0.0
 10
96.2668
 20
31.6801
 30
0.0
 10
98.0503
 20
34.4328
 30
0.0
 10
99.976
 20
36.3873
 30
0.0
 10
99.9686
 20
40.4896
 30
0.0
  0
SPLINE
  5
73
330
1F
100
AcDbEntity
  8
layer 1
 62
     7
370
     9
100
AcDbSpline
210
0.0
220
0.0
230
1.0
 70
    11
 71
     3
 72
    44
 73
    40
 74
     0
 42
0.0000000001
 43
0.0000000001
 12
1.0
 22
0.0
 32
0.0
 13
1.0
 23
0.0
 33
0.0
 40
0.0
 40
0.0
 40
0.0
 40
0.0
 40
0.0909090909090909
 40
0.0909090909090909
 40
0.0909090909090909
 40
0.0909090909090909
 40
0.1818181818181818
 40
0.1818181818181818
 40
0.1818181818181818
 40
0.1818181818181818
 40
0.2727272727272727
 40
0.2727272727272727
 40
0.2727272727272727
 40
0.2727272727272727
 40
0.3636363636363636
 40
0.3636363636363636
 40
0.3636363636363636
 40
0.3636363636363636
 40
0.4545454545454545
 40
0.4545454545454545
 40
0.4545454545454545
 40
0.4545454545454545
 40
0.5454545454545454
 40
0.5454545454545454
 40
0.5454545454545454
 40
0.5454545454545454
 40
0.6363636363636364
 40
0.6363636363636364
 40
0.6363636363636364
 40
0.6363636363636364
 40
0.7272727272727273
 40
0.7272727272727273
 40
0.7272727272727273
 40
0.7272727272727273
 40
0.8181818181818182
 40
0.8181818181818182
 40
0.8181818181818182
 40
0.8181818181818182
 40
1.0
 40
1.0
 40
1.0
 40
1.0
 10
99.1426
 20
43.8823
 30
0.0
 10
98.5483
 20
45.1736
 30
0.0
 10
97.6454
 20
46.2929
 30
0.0
 10
96.3955
 20
47.2456
 30
0.0
 10
96.3955
 20
47.2456
 30
0.0
 10
96.1841
 20
47.4422
 30
0.0
 10
95.9711
 20
47.6259
 30
0.0
 10
95.7572
 20
47.7999
 30
0.0
 10
95.7572
 20
47.7999
 30
0.0
 10
95.6473
 20
47.8874
 30
0.0
 10
95.676
 20
47.9786
 30
0.0
 10
95.7622
 20
48.0146
 30
0.0
 10
95.7622
 20
48.0146
 30
0.0
 10
97.7917
 20
48.8257
 30
0.0
 10
99.6348
 20
50.5918
 30
0.0
 10
100.5427
 20
53.5044
 30
0.0
 10
100.5427
 20
53.5044
 30
0.0
 10
100.6107
 20
53.6141
 30
0.0
 10
100.698
 20
53.637
 30
0.0
 10
100.8598
 20
53.4756
 30
0.0
 10
100.8598
 20
53.4756
 30
0.0
 10
101.7249
 20
52.6138
 30
0.0
 10
102.7119
 20
51.8283
 30
0.0
 10
103.9202
 20
51.2317
 30
0.0
 10
103.9202
 20
51.2317
 30
0.0
 10
104.0743
 20
51.1442
 30
0.0
 10
104.1133
 20
51.0041
 30
0.0
 10
104.0085
 20
50.9353
 30
0.0
 10
104.0085
 20
50.9353
 30
0.0
 10
102.6478
 20
50.3208
 30
0.0
 10
101.4082
 20
49.3219
 30
0.0
 10
100.4477
 20
47.9534
 30
0.0
 10
100.4477
 20
47.9534
 30
0.0
 10
99.6329
 20
46.6474
 30
0.0
 10
99.3597
 20
45.3051
 30
0.0
 10
99.4282
 20
43.9654
 30
0.0
 10
99.4282
 20
43.9654
 30
0.0
 10
99.4186
 20
43.6676
 30
0.0
 10
99.2888
 20
43.6985
 30
0.0
 10
99.1426
 20
43.8823
 30
0.0
  0
SPLINE
  5
74
330
1F
100
AcDbEntity
  8
layer 1
 62
     7
370
     9
100
AcDbSpline
210
0.0
220
0.0
230
1.0
 70
    11
 71
     3
 72
   100
 73
    96
 74
     0
 42
0.0000000001
 43
0.0000000001
 12
1.0
 22
0.0
 32
0.0
 13
1.0
 23
0.0
 33
0.0
 40
0.0
 40
0.0
 40
0.0
 40
0.0
 40
0.04
 40
0.04
 40
0.04
 40
0.04
 40
0.08
 40
0.08
 40
0.08
 40
0.08
 40
0.12
 40
0.12
 40
0.12
 40
0.12
 40
0.16
 40
0.16
 40
0.16
 40
0.16
 40
0.2
 40
0.2
 40
0.2
 40
0.2
 40
0.24
 40
0.24
 40
0.24
 40
0.24
 40
0.28
 40
0.28
 40
0.28
 40
0.28
 40
0.32
 40
0.32
 40
0.32
 40
0.32
 40
0.36
 40
0.36
 40
0.36
 40
0.36
 40
0.4
 40
0.4
 40
0.4
 40
0.4
 40
0.44
 40
0.44
 40
0.44
 40
0.44
 40
0.48
 40
0.48
 40
0.48
 40
0.48
 40
0.52
 40
0.52
 40
0.52
 40
0.52
 40
0.56
 40
0.56
 40
0.56
 40
0.56
 40
0.6
 40
0.6
 40
0.6
 40
0.6
 40
0.64
 40
0.64
 40
0.64
 40
0.64
 40
0.68
 40
0.68
 40
0.68
 40
0.68
 40
0.72
 40
0.72
 40
0.72
 40
0.72
 40
0.76
 40
0.76
 40
0.76
 40
0.76
 40
0.8
 40
0.8
 40
0.8
 40
0.8
 40
0.84
 40
0.84
 40
0.84
 40
0.84
 40
0.88
 40
0.88
 40
0.88
 40
0.88
 40
0.92
 40
0.92
 40
0.92
 40
0.92
 40
1.0
 40
1.0
 40
1.0
 40
1.0
 10
73.1203
 20
44.9774
 30
0.0
 10
72.9513
 20
45.0223
 30
0.0
 10
72.958
 20
45.1692
 30
0.0
 10
72.9601
 20
45.4206
 30
0.0
 10
72.9601
 20
45.4206
 30
0.0
 10
72.9601
 20
45.4206
 30
0.0
 10
72.9824
 20
45.5735
 30
0.0
 10
72.9824
 20
45.5735
 30
0.0
 10
72.9824
 20
45.5735
 30
0.0
 10
73.0802
 20
47.0276
 30
0.0
 10
72.9361
 20
48.27
 30
0.0
 10
72.5837
 20
49.3305
 30
0.0
 10
72.5837
 20
49.3305
 30
0.0
 10
72.5673
 20
49.3944
 30
0.0
 10
72.4442
 20
49.6796
 30
0.0
 10
72.899
 20
49.6001
 30
0.0
 10
72.899
 20
49.6001
 30
0.0
 10
72.9371
 20
49.5934
 30
0.0
 10
72.975
 20
49.587
 30
0.0
 10
73.0131
 20
49.5806
 30
0.0
 10
73.0131
 20
49.5806
 30
0.0
 10
79.3675
 20
48.8816
 30
0.0
 10
82.7327
 20
51.0822
 30
0.0
 10
85.6201
 20
55.627
 30
0.0
 10
85.6201
 20
55.627
 30
0.0
 10
86.1159
 20
56.4373
 30
0.0
 10
86.4938
 20
57.2615
 30
0.0
 10
86.7671
 20
58.0876
 30
0.0
 10
86.7671
 20
58.0876
 30
0.0
 10
87.0765
 20
59.0234
 30
0.0
 10
87.4064
 20
59.2568
 30
0.0
 10
88.2996
 20
59.7772
 30
0.0
 10
88.2996
 20
59.7772
 30
0.0
 10
88.7579
 20
60.0442
 30
0.0
 10
89.1839
 20
60.1795
 30
0.0
 10
89.7012
 20
60.3018
 30
0.0
 10
89.7012
 20
60.3018
 30
0.0
 10
93.7561
 20
61.2597
 30
0.0
 10
95.7871
 20
59.5054
 30
0.0
 10
97.7106
 20
57.1945
 30
0.0
 10
97.7106
 20
57.1945
 30
0.0
 10
98.1176
 20
56.4536
 30
0.0
 10
98.1277
 20
56.3041
 30
0.0
 10
98.1078
 20
55.63
 30
0.0
 10
98.1078
 20
55.63
 30
0.0
 10
97.6233
 20
52.6032
 30
0.0
 10
95.3113
 20
50.4744
 30
0.0
 10
91.8645
 20
51.0705
 30
0.0
 10
91.8645
 20
51.0705
 30
0.0
 10
89.786
 20
52.3421
 30
0.0
 10
90.858
 20
54.6236
 30
0.0
 10
91.5433
 20
55.1157
 30
0.0
 10
91.5433
 20
55.1157
 30
0.0
 10
92.2865
 20
55.469
 30
0.0
 10
92.9033
 20
54.9824
 30
0.0
 10
93.4141
 20
54.6371
 30
0.0
 10
93.4141
 20
54.6371
 30
0.0
 10
93.8889
 20
54.4009
 30
0.0
 10
94.1255
 20
54.3846
 30
0.0
 10
94.595
 20
54.6759
 30
0.0
 10
94.595
 20
54.6759
 30
0.0
 10
95.7634
 20
55.6316
 30
0.0
 10
95.262
 20
57.5473
 30
0.0
 10
94.0488
 20
58.1399
 30
0.0
 10
94.0488
 20
58.1399
 30
0.0
 10
92.565
 20
58.8648
 30
0.0
 10
89.7766
 20
58.6236
 30
0.0
 10
88.7501
 20
56.9779
 30
0.0
 10
88.7501
 20
56.9779
 30
0.0
 10
86.8815
 20
53.9814
 30
0.0
 10
86.9617
 20
51.5374
 30
0.0
 10
88.0625
 20
49.8788
 30
0.0
 10
88.0625
 20
49.8788
 30
0.0
 10
83.8666
 20
48.9338
 30
0.0
 10
80.4545
 20
44.7584
 30
0.0
 10
79.9293
 20
39.6558
 30
0.0
 10
79.9293
 20
39.6558
 30
0.0
 10
78.688
 20
33.6123
 30
0.0
 10
70.3439
 20
36.6778
 30
0.0
 10
73.1754
 20
41.8427
 30
0.0
 10
73.1754
 20
41.8427
 30
0.0
 10
73.7695
 20
42.9262
 30
0.0
 10
75.158
 20
42.4869
 30
0.0
 10
75.8768
 20
41.5857
 30
0.0
 10
75.8768
 20
41.5857
 30
0.0
 10
75.9915
 20
41.1016
 30
0.0
 10
75.9783
 20
40.825
 30
0.0
 10
75.8169
 20
40.2619
 30
0.0
 10
75.8169
 20
40.2619
 30
0.0
 10
75.3519
 20
38.6389
 30
0.0
 10
78.3397
 20
38.1353
 30
0.0
 10
78.4498
 20
40.8778
 30
0.0
 10
78.4498
 20
40.8778
 30
0.0
 10
78.5855
 20
44.1449
 30
0.0
 10
76.455
 20
45.1412
 30
0.0
 10
73.1203
 20
44.9774
 30
0.0
  0
SPLINE
  5
75
330
1F
100
AcDbEntity
  8
layer 1
 62
     7
370
     9
100
AcDbSpline
210
0.0
220
0.0
230
1.0
 70
    11
 71
     3
 72
    28
 73
    24
 74
     0
 42
0.0000000001
 43
0.0000000001
 12
1.0
 22
0.0
 32
0.0
 13
1.0
 23
0.0
 33
0.0
 40
0.0
 40
0.0
 40
0.0
 40
0.0
 40
0.1428571428571428
 40
0.1428571428571428
 40
0.1428571428571428
 40
0.1428571428571428
 40
0.2857142857142857
 40
0.2857142857142857
 40
0.2857142857142857
 40
0.2857142857142857
 40
0.4285714285714285
 40
0.4285714285714285
 40
0.4285714285714285
 40
0.4285714285714285
 40
0.5714285714285714
 40
0.5714285714285714
 40
0.5714285714285714
 40
0.5714285714285714
 40
0.7142857142857143
 40
0.7142857142857143
 40
0.7142857142857143
 40
0.7142857142857143
 40
1.0
 40
1.0
 40
1.0
 40
1.0
 10
61.8957
 20
54.1154
 30
0.0
 10
62.7505
 20
54.3793
 30
0.0
 10
63.6451
 20
54.5703
 30
0.0
 10
64.5848
 20
54.6764
 30
0.0
 10
64.5848
 20
54.6764
 30
0.0
 10
64.1738
 20
55.3356
 30
0.0
 10
63.829
 20
56.0592
 30
0.0
 10
63.5578
 20
56.8491
 30
0.0
 10
63.5578
 20
56.8491
 30
0.0
 10
62.8653
 20
58.7462
 30
0.0
 10
62.653
 20
60.5897
 30
0.0
 10
62.7375
 20
62.52
 30
0.0
 10
62.7375
 20
62.52
 30
0.0
 10
61.4745
 20
62.1289
 30
0.0
 10
60.3469
 20
61.776
 30
0.0
 10
58.9278
 20
61.8016
 30
0.0
 10
58.9278
 20
61.8016
 30
0.0
 10
60.7276
 20
60.8417
 30
0.0
 10
61.104
 20
59.3519
 30
0.0
 10
61.5337
 20
57.6208
 30
0.0
 10
61.5337
 20
57.6208
 30
0.0
 10
61.783
 20
56.4602
 30
0.0
 10
61.8474
 20
55.2857
 30
0.0
 10
61.8957
 20
54.1154
 30
0.0
  0
SPLINE
  5
76
330
1F
100
AcDbEntity
  8
layer 1
 62
     7
370
     9
100
AcDbSpline
210
0.0
220
0.0
230
1.0
 70
    11
 71
     3
 72
    72
 73
    68
 74
     0
 42
0.0000000001
 43
0.0000000001
 12
1.0
 22
0.0
 32
0.0
 13
1.0
 23
0.0
 33
0.0
 40
0.0
 40
0.0
 40
0.0
 40
0.0
 40
0.0555555555555556
 40
0.0555555555555556
 40
0.0555555555555556
 40
0.0555555555555556
 40
0.1111111111111111
 40
0.1111111111111111
 40
0.1111111111111111
 40
0.1111111111111111
 40
0.1666666666666667
 40
0.1666666666666667
 40
0.1666666666666667
 40
0.1666666666666667
 40
0.2222222222222222
 40
0.2222222222222222
 40
0.2222222222222222
 40
0.2222222222222222
 40
0.2777777777777778
 40
0.2777777777777778
 40
0.2777777777777778
 40
0.2777777777777778
 40
0.3333333333333333
 40
0.3333333333333333
 40
0.3333333333333333
 40
0.3333333333333333
 40
0.3888888888888889
 40
0.3888888888888889
 40
0.3888888888888889
 40
0.3888888888888889
 40
0.4444444444444444
 40
0.4444444444444444
 40
0.4444444444444444
 40
0.4444444444444444
 40
0.5
 40
0.5
 40
0.5
 40
0.5
 40
0.5555555555555556
 40
0.5555555555555556
 40
0.5555555555555556
 40
0.5555555555555556
 40
0.6111111111111112
 40
0.6111111111111112
 40
0.6111111111111112
 40
0.6111111111111112
 40
0.6666666666666666
 40
0.6666666666666666
 40
0.6666666666666666
 40
0.6666666666666666
 40
0.7222222222222222
 40
0.7222222222222222
 40
0.7222222222222222
 40
0.7222222222222222
 40
0.7777777777777778
 40
0.7777777777777778
 40
0.7777777777777778
 40
0.7777777777777778
 40
0.8333333333333334
 40
0.8333333333333334
 40
0.8333333333333334
 40
0.8333333333333334
 40
0.8888888888888888
 40
0.8888888888888888
 40
0.8888888888888888
 40
0.8888888888888888
 40
1.0
 40
1.0
 40
1.0
 40
1.0
 10
103.0536
 20
81.5488
 30
0.0
 10
103.0257
 20
81.5299
 30
0.0
 10
102.9978
 20
81.5112
 30
0.0
 10
102.9701
 20
81.4926
 30
0.0
 10
102.9701
 20
81.4926
 30
0.0
 10
99.5198
 20
79.1699
 30
0.0
 10
97.6507
 20
78.4496
 30
0.0
 10
91.7361
 20
78.33
 30
0.0
 10
91.7361
 20
78.33
 30
0.0
 10
91.6335
 20
78.3259
 30
0.0
 10
91.4397
 20
78.1644
 30
0.0
 10
91.5212
 20
77.9869
 30
0.0
 10
91.5212
 20
77.9869
 30
0.0
 10
91.9929
 20
76.8714
 30
0.0
 10
91.7018
 20
75.4666
 30
0.0
 10
91.8335
 20
74.2818
 30
0.0
 10
91.8335
 20
74.2818
 30
0.0
 10
91.7228
 20
69.2331
 30
0.0
 10
96.7222
 20
67.1031
 30
0.0
 10
99.2286
 20
71.0399
 30
0.0
 10
99.2286
 20
71.0399
 30
0.0
 10
99.3305
 20
71.1998
 30
0.0
 10
99.3663
 20
71.2941
 30
0.0
 10
99.3803
 20
71.4861
 30
0.0
 10
99.3803
 20
71.4861
 30
0.0
 10
99.4831
 20
72.8622
 30
0.0
 10
97.9881
 20
72.732
 30
0.0
 10
97.3346
 20
71.8189
 30
0.0
 10
97.3346
 20
71.8189
 30
0.0
 10
97.2079
 20
71.642
 30
0.0
 10
97.171
 20
71.5591
 30
0.0
 10
96.9804
 20
71.4375
 30
0.0
 10
96.9804
 20
71.4375
 30
0.0
 10
94.61
 20
69.925
 30
0.0
 10
93.5152
 20
73.5948
 30
0.0
 10
95.9695
 20
75.3149
 30
0.0
 10
95.9695
 20
75.3149
 30
0.0
 10
98.0201
 20
76.8218
 30
0.0
 10
100.4982
 20
75.9464
 30
0.0
 10
101.4137
 20
75.0919
 30
0.0
 10
101.4137
 20
75.0919
 30
0.0
 10
102.3624
 20
73.9574
 30
0.0
 10
102.3064
 20
72.7731
 30
0.0
 10
102.3
 20
71.6189
 30
0.0
 10
102.3
 20
71.6189
 30
0.0
 10
102.3111
 20
71.4861
 30
0.0
 10
102.4201
 20
71.2363
 30
0.0
 10
102.6818
 20
71.4853
 30
0.0
 10
102.6818
 20
71.4853
 30
0.0
 10
103.606
 20
72.5367
 30
0.0
 10
104.807
 20
73.3616
 30
0.0
 10
106.5245
 20
74.4085
 30
0.0
 10
106.5245
 20
74.4085
 30
0.0
 10
106.6734
 20
74.468
 30
0.0
 10
106.8218
 20
74.5242
 30
0.0
 10
106.9703
 20
74.5778
 30
0.0
 10
106.9703
 20
74.5778
 30
0.0
 10
106.2516
 20
75.5092
 30
0.0
 10
105.5799
 20
76.4878
 30
0.0
 10
104.9988
 20
77.5567
 30
0.0
 10
104.9988
 20
77.5567
 30
0.0
 10
104.4159
 20
78.7303
 30
0.0
 10
103.9575
 20
80.0333
 30
0.0
 10
103.6339
 20
81.4657
 30
0.0
 10
103.6339
 20
81.4657
 30
0.0
 10
103.5715
 20
81.5333
 30
0.0
 10
103.5338
 20
81.8464
 30
0.0
 10
103.0536
 20
81.5488
 30
0.0
  0
SPLINE
  5
77
330
1F
100
AcDbEntity
  8
layer 1
 62
     7
370
     9
100
AcDbSpline
210
0.0
220
0.0
230
1.0
 70
    11
 71
     3
 72
    60
 73
    56
 74
     0
 42
0.0000000001
 43
0.0000000001
 12
1.0
 22
0.0
 32
0.0
 13
1.0
 23
0.0
 33
0.0
 40
0.0
 40
0.0
 40
0.0
 40
0.0
 40
0.0666666666666667
 40
0.0666666666666667
 40
0.0666666666666667
 40
0.0666666666666667
 40
0.1333333333333333
 40
0.1333333333333333
 40
0.1333333333333333
 40
0.1333333333333333
 40
0.2
 40
0.2
 40
0.2
 40
0.2
 40
0.2666666666666667
 40
0.2666666666666667
 40
0.2666666666666667
 40
0.2666666666666667
 40
0.3333333333333333
 40
0.3333333333333333
 40
0.3333333333333333
 40
0.3333333333333333
 40
0.4
 40
0.4
 40
0.4
 40
0.4
 40
0.4666666666666667
 40
0.4666666666666667
 40
0.4666666666666667
 40
0.4666666666666667
 40
0.5333333333333333
 40
0.5333333333333333
 40
0.5333333333333333
 40
0.5333333333333333
 40
0.6
 40
0.6
 40
0.6
 40
0.6
 40
0.6666666666666666
 40
0.6666666666666666
 40
0.6666666666666666
 40
0.6666666666666666
 40
0.7333333333333333
 40
0.7333333333333333
 40
0.7333333333333333
 40
0.7333333333333333
 40
0.8
 40
0.8
 40
0.8
 40
0.8
 40
0.8666666666666667
 40
0.8666666666666667
 40
0.8666666666666667
 40
0.8666666666666667
 40
1.0
 40
1.0
 40
1.0
 40
1.0
 10
101.7077
 20
100.0543
 30
0.0
 10
100.8804
 20
98.9418
 30
0.0
 10
98.8945
 20
98.3364
 30
0.0
 10
97.566
 20
98.353
 30
0.0
 10
97.566
 20
98.353
 30
0.0
 10
99.235
 20
97.2454
 30
0.0
 10
100.7678
 20
95.7824
 30
0.0
 10
101.1621
 20
93.9315
 30
0.0
 10
101.1621
 20
93.9315
 30
0.0
 10
102.2411
 20
89.3292
 30
0.0
 10
99.9367
 20
85.3517
 30
0.0
 10
95.0921
 20
85.264
 30
0.0
 10
95.0921
 20
85.264
 30
0.0
 10
90.7732
 20
85.185
 30
0.0
 10
89.3302
 20
88.9461
 30
0.0
 10
90.1351
 20
91.0748
 30
0.0
 10
90.1351
 20
91.0748
 30
0.0
 10
90.7602
 20
92.728
 30
0.0
 10
93.843
 20
92.9859
 30
0.0
 10
93.625
 20
90.6991
 30
0.0
 10
93.625
 20
90.6991
 30
0.0
 10
93.5771
 20
90.1946
 30
0.0
 10
93.2866
 20
89.7963
 30
0.0
 10
93.6944
 20
89.2025
 30
0.0
 10
93.6944
 20
89.2025
 30
0.0
 10
95.117
 20
87.1319
 30
0.0
 10
99.7064
 20
90.4661
 30
0.0
 10
98.0366
 20
93.9927
 30
0.0
 10
98.0366
 20
93.9927
 30
0.0
 10
97.7693
 20
94.557
 30
0.0
 10
97.4516
 20
94.8213
 30
0.0
 10
96.9407
 20
95.1726
 30
0.0
 10
96.9407
 20
95.1726
 30
0.0
 10
94.7551
 20
96.6756
 30
0.0
 10
92.3976
 20
96.8349
 30
0.0
 10
89.8808
 20
95.7474
 30
0.0
 10
89.8808
 20
95.7474
 30
0.0
 10
89.0014
 20
95.3676
 30
0.0
 10
88.5051
 20
94.9583
 30
0.0
 10
87.9026
 20
94.2047
 30
0.0
 10
87.9026
 20
94.2047
 30
0.0
 10
85.6027
 20
91.3289
 30
0.0
 10
85.9339
 20
88.1139
 30
0.0
 10
88.1627
 20
84.6357
 30
0.0
 10
88.1627
 20
84.6357
 30
0.0
 10
92.6348
 20
79.5882
 30
0.0
 10
99.147
 20
81.5366
 30
0.0
 10
103.0211
 20
86.0508
 30
0.0
 10
103.0211
 20
86.0508
 30
0.0
 10
104.4652
 20
89.0539
 30
0.0
 10
104.9394
 20
92.096
 30
0.0
 10
104.2429
 20
95.1845
 30
0.0
 10
104.2429
 20
95.1845
 30
0.0
 10
103.6043
 20
96.7263
 30
0.0
 10
102.1134
 20
98.6217
 30
0.0
 10
101.7077
 20
100.0543
 30
0.0
  0
SPLINE
  5
78
330
1F
100
AcDbEntity
  8
layer 1
 62
     7
370
     9
100
AcDbSpline
210
0.0
220
0.0
230
1.0
 70
    11
 71
     3
 72
    88
 73
    84
 74
     0
 42
0.0000000001
 43
0.0000000001
 12
1.0
 22
0.0
 32
0.0
 13
1.0
 23
0.0
 33
0.0
 40
0.0
 40
0.0
 40
0.0
 40
0.0
 40
0.0454545454545455
 40
0.0454545454545455
 40
0.0454545454545455
 40
0.0454545454545455
 40
0.0909090909090909
 40
0.0909090909090909
 40
0.0909090909090909
 40
0.0909090909090909
 40
0.1363636363636364
 40
0.1363636363636364
 40
0.1363636363636364
 40
0.1363636363636364
 40
0.1818181818181818
 40
0.1818181818181818
 40
0.1818181818181818
 40
0.1818181818181818
 40
0.2272727272727273
 40
0.2272727272727273
 40
0.2272727272727273
 40
0.2272727272727273
 40
0.2727272727272727
 40
0.2727272727272727
 40
0.2727272727272727
 40
0.2727272727272727
 40
0.3181818181818182
 40
0.3181818181818182
 40
0.3181818181818182
 40
0.3181818181818182
 40
0.3636363636363636
 40
0.3636363636363636
 40
0.3636363636363636
 40
0.3636363636363636
 40
0.4090909090909091
 40
0.4090909090909091
 40
0.4090909090909091
 40
0.4090909090909091
 40
0.4545454545454545
 40
0.4545454545454545
 40
0.4545454545454545
 40
0.4545454545454545
 40
0.5
 40
0.5
 40
0.5
 40
0.5
 40
0.5454545454545454
 40
0.5454545454545454
 40
0.5454545454545454
 40
0.5454545454545454
 40
0.5909090909090909
 40
0.5909090909090909
 40
0.5909090909090909
 40
0.5909090909090909
 40
0.6363636363636364
 40
0.6363636363636364
 40
0.6363636363636364
 40
0.6363636363636364
 40
0.6818181818181818
 40
0.6818181818181818
 40
0.6818181818181818
 40
0.6818181818181818
 40
0.7272727272727273
 40
0.7272727272727273
 40
0.7272727272727273
 40
0.7272727272727273
 40
0.7727272727272727
 40
0.7727272727272727
 40
0.7727272727272727
 40
0.7727272727272727
 40
0.8181818181818182
 40
0.8181818181818182
 40
0.8181818181818182
 40
0.8181818181818182
 40
0.8636363636363636
 40
0.8636363636363636
 40
0.8636363636363636
 40
0.8636363636363636
 40
0.9090909090909091
 40
0.9090909090909091
 40
0.9090909090909091
 40
0.9090909090909091
 40
1.0
 40
1.0
 40
1.0
 40
1.0
 10
93.8351
 20
99.7388
 30
0.0
 10
92.392
 20
101.2271
 30
0.0
 10
92.0392
 20
102.83
 30
0.0
 10
91.9415
 20
104.5949
 30
0.0
 10
91.9415
 20
104.5949
 30
0.0
 10
91.9402
 20
104.8711
 30
0.0
 10
91.7099
 20
104.8698
 30
0.0
 10
91.6399
 20
104.8191
 30
0.0
 10
91.6399
 20
104.8191
 30
0.0
 10
89.5639
 20
103.8263
 30
0.0
 10
87.1941
 20
103.6665
 30
0.0
 10
85.0
 20
103.9801
 30
0.0
 10
85.0
 20
103.9801
 30
0.0
 10
84.8139
 20
104.0269
 30
0.0
 10
84.7582
 20
103.88
 30
0.0
 10
84.7841
 20
103.7561
 30
0.0
 10
84.7841
 20
103.7561
 30
0.0
 10
85.95
 20
99.8209
 30
0.0
 10
84.3514
 20
95.356
 30
0.0
 10
79.5359
 20
95.055
 30
0.0
 10
79.5359
 20
95.055
 30
0.0
 10
77.9654
 20
94.9569
 30
0.0
 10
76.4562
 20
95.2191
 30
0.0
 10
75.314
 20
96.3963
 30
0.0
 10
75.314
 20
96.3963
 30
0.0
 10
72.9195
 20
98.8643
 30
0.0
 10
72.9478
 20
103.8007
 30
0.0
 10
76.5972
 20
103.6187
 30
0.0
 10
76.5972
 20
103.6187
 30
0.0
 10
77.1306
 20
103.5097
 30
0.0
 10
77.3644
 20
103.4803
 30
0.0
 10
77.7322
 20
103.0594
 30
0.0
 10
77.7322
 20
103.0594
 30
0.0
 10
78.1879
 20
102.3363
 30
0.0
 10
78.2032
 20
101.5839
 30
0.0
 10
77.7781
 20
100.802
 30
0.0
 10
77.7781
 20
100.802
 30
0.0
 10
77.1632
 20
98.9999
 30
0.0
 10
79.9317
 20
98.4435
 30
0.0
 10
81.0892
 20
99.5475
 30
0.0
 10
81.0892
 20
99.5475
 30
0.0
 10
82.2912
 20
100.6938
 30
0.0
 10
82.5154
 20
103.3455
 30
0.0
 10
80.3643
 20
105.6793
 30
0.0
 10
80.3643
 20
105.6793
 30
0.0
 10
79.9895
 20
106.0859
 30
0.0
 10
79.6889
 20
106.2186
 30
0.0
 10
79.1593
 20
106.3934
 30
0.0
 10
79.1593
 20
106.3934
 30
0.0
 10
71.4479
 20
108.9428
 30
0.0
 10
67.5419
 20
97.6145
 30
0.0
 10
74.8007
 20
93.2863
 30
0.0
 10
74.8007
 20
93.2863
 30
0.0
 10
81.7851
 20
90.6964
 30
0.0
 10
83.0599
 20
86.4939
 30
0.0
 10
82.6708
 20
82.3904
 30
0.0
 10
82.6708
 20
82.3904
 30
0.0
 10
82.6007
 20
81.621
 30
0.0
 10
82.4653
 20
80.8322
 30
0.0
 10
82.2411
 20
80.0558
 30
0.0
 10
82.2411
 20
80.0558
 30
0.0
 10
82.201
 20
79.9256
 30
0.0
 10
82.2167
 20
79.6456
 30
0.0
 10
82.5548
 20
79.772
 30
0.0
 10
82.5548
 20
79.772
 30
0.0
 10
83.9752
 20
80.4752
 30
0.0
 10
85.5472
 20
80.7522
 30
0.0
 10
87.002
 20
80.599
 30
0.0
 10
87.002
 20
80.599
 30
0.0
 10
87.585
 20
80.5068
 30
0.0
 10
87.4076
 20
80.9598
 30
0.0
 10
87.1411
 20
81.1775
 30
0.0
 10
87.1411
 20
81.1775
 30
0.0
 10
82.4407
 20
85.8282
 30
0.0
 10
81.2877
 20
94.8741
 30
0.0
 10
88.8061
 20
98.3362
 30
0.0
 10
88.8061
 20
98.3362
 30
0.0
 10
90.4129
 20
98.9126
 30
0.0
 10
92.0515
 20
99.3621
 30
0.0
 10
93.7508
 20
99.5691
 30
0.0
 10
93.7508
 20
99.5691
 30
0.0
 10
93.9028
 20
99.588
 30
0.0
 10
93.849
 20
99.7221
 30
0.0
 10
93.8351
 20
99.7388
 30
0.0
  0
SPLINE
  5
79
330
1F
100
AcDbEntity
  8
layer 1
 62
     7
370
     9
100
AcDbSpline
210
0.0
220
0.0
230
1.0
 70
    11
 71
     3
 72
    44
 73
    40
 74
     0
 42
0.0000000001
 43
0.0000000001
 12
1.0
 22
0.0
 32
0.0
 13
1.0
 23
0.0
 33
0.0
 40
0.0
 40
0.0
 40
0.0
 40
0.0
 40
0.0909090909090909
 40
0.0909090909090909
 40
0.0909090909090909
 40
0.0909090909090909
 40
0.1818181818181818
 40
0.1818181818181818
 40
0.1818181818181818
 40
0.1818181818181818
 40
0.2727272727272727
 40
0.2727272727272727
 40
0.2727272727272727
 40
0.2727272727272727
 40
0.3636363636363636
 40
0.3636363636363636
 40
0.3636363636363636
 40
0.3636363636363636
 40
0.4545454545454545
 40
0.4545454545454545
 40
0.4545454545454545
 40
0.4545454545454545
 40
0.5454545454545454
 40
0.5454545454545454
 40
0.5454545454545454
 40
0.5454545454545454
 40
0.6363636363636364
 40
0.6363636363636364
 40
0.6363636363636364
 40
0.6363636363636364
 40
0.7272727272727273
 40
0.7272727272727273
 40
0.7272727272727273
 40
0.7272727272727273
 40
0.8181818181818182
 40
0.8181818181818182
 40
0.8181818181818182
 40
0.8181818181818182
 40
1.0
 40
1.0
 40
1.0
 40
1.0
 10
79.5907
 20
109.0588
 30
0.0
 10
81.5389
 20
108.5475
 30
0.0
 10
83.3342
 20
107.8062
 30
0.0
 10
85.3884
 20
107.4028
 30
0.0
 10
85.3884
 20
107.4028
 30
0.0
 10
85.5845
 20
107.364
 30
0.0
 10
85.7799
 20
107.3323
 30
0.0
 10
85.9737
 20
107.3065
 30
0.0
 10
85.9737
 20
107.3065
 30
0.0
 10
94.8282
 20
106.1359
 30
0.0
 10
101.1211
 20
118.2093
 30
0.0
 10
91.8933
 20
122.521
 30
0.0
 10
91.8933
 20
122.521
 30
0.0
 10
85.8728
 20
124.8574
 30
0.0
 10
79.5236
 20
116.2413
 30
0.0
 10
86.4904
 20
113.8702
 30
0.0
 10
86.4904
 20
113.8702
 30
0.0
 10
88.1394
 20
113.8284
 30
0.0
 10
89.0226
 20
114.6542
 30
0.0
 10
88.5313
 20
116.154
 30
0.0
 10
88.5313
 20
116.154
 30
0.0
 10
83.6679
 20
117.9195
 30
0.0
 10
89.9966
 20
123.7198
 30
0.0
 10
92.5365
 20
117.6326
 30
0.0
 10
92.5365
 20
117.6326
 30
0.0
 10
93.35
 20
114.0028
 30
0.0
 10
92.3793
 20
111.2964
 30
0.0
 10
88.227
 20
110.2355
 30
0.0
 10
88.227
 20
110.2355
 30
0.0
 10
84.6057
 20
109.7543
 30
0.0
 10
82.6721
 20
112.8426
 30
0.0
 10
82.4875
 20
112.3257
 30
0.0
 10
82.4875
 20
112.3257
 30
0.0
 10
82.372
 20
112.0025
 30
0.0
 10
81.3434
 20
110.2662
 30
0.0
 10
79.5705
 20
109.274
 30
0.0
 10
79.5705
 20
109.274
 30
0.0
 10
79.5172
 20
109.2392
 30
0.0
 10
79.4497
 20
109.1093
 30
0.0
 10
79.5907
 20
109.0588
 30
0.0
  0
SPLINE
  5
7A
330
1F
100
AcDbEntity
  8
layer 1
 62
     7
370
     9
100
AcDbSpline
210
0.0
220
0.0
230
1.0
 70
    11
 71
     3
 72
    72
 73
    68
 74
     0
 42
0.0000000001
 43
0.0000000001
 12
1.0
 22
0.0
 32
0.0
 13
1.0
 23
0.0
 33
0.0
 40
0.0
 40
0.0
 40
0.0
 40
0.0
 40
0.0555555555555556
 40
0.0555555555555556
 40
0.0555555555555556
 40
0.0555555555555556
 40
0.1111111111111111
 40
0.1111111111111111
 40
0.1111111111111111
 40
0.1111111111111111
 40
0.1666666666666667
 40
0.1666666666666667
 40
0.1666666666666667
 40
0.1666666666666667
 40
0.2222222222222222
 40
0.2222222222222222
 40
0.2222222222222222
 40
0.2222222222222222
 40
0.2777777777777778
 40
0.2777777777777778
 40
0.2777777777777778
 40
0.2777777777777778
 40
0.3333333333333333
 40
0.3333333333333333
 40
0.3333333333333333
 40
0.3333333333333333
 40
0.3888888888888889
 40
0.3888888888888889
 40
0.3888888888888889
 40
0.3888888888888889
 40
0.4444444444444444
 40
0.4444444444444444
 40
0.4444444444444444
 40
0.4444444444444444
 40
0.5
 40
0.5
 40
0.5
 40
0.5
 40
0.5555555555555556
 40
0.5555555555555556
 40
0.5555555555555556
 40
0.5555555555555556
 40
0.6111111111111112
 40
0.6111111111111112
 40
0.6111111111111112
 40
0.6111111111111112
 40
0.6666666666666666
 40
0.6666666666666666
 40
0.6666666666666666
 40
0.6666666666666666
 40
0.7222222222222222
 40
0.7222222222222222
 40
0.7222222222222222
 40
0.7222222222222222
 40
0.7777777777777778
 40
0.7777777777777778
 40
0.7777777777777778
 40
0.7777777777777778
 40
0.8333333333333334
 40
0.8333333333333334
 40
0.8333333333333334
 40
0.8333333333333334
 40
0.8888888888888888
 40
0.8888888888888888
 40
0.8888888888888888
 40
0.8888888888888888
 40
1.0
 40
1.0
 40
1.0
 40
1.0
 10
101.3541
 20
105.3481
 30
0.0
 10
100.4244
 20
106.5022
 30
0.0
 10
98.9791
 20
107.0938
 30
0.0
 10
97.3942
 20
106.2793
 30
0.0
 10
97.3942
 20
106.2793
 30
0.0
 10
95.1867
 20
104.8396
 30
0.0
 10
96.4632
 20
102.6532
 30
0.0
 10
97.8611
 20
102.4637
 30
0.0
 10
97.8611
 20
102.4637
 30
0.0
 10
97.9552
 20
102.4594
 30
0.0
 10
98.1069
 20
102.3685
 30
0.0
 10
97.9902
 20
102.1693
 30
0.0
 10
97.9902
 20
102.1693
 30
0.0
 10
97.7079
 20
101.7252
 30
0.0
 10
97.245
 20
101.5075
 30
0.0
 10
96.7075
 20
101.5354
 30
0.0
 10
96.7075
 20
101.5354
 30
0.0
 10
96.4049
 20
101.5509
 30
0.0
 10
96.2933
 20
101.6289
 30
0.0
 10
96.0666
 20
101.8199
 30
0.0
 10
96.0666
 20
101.8199
 30
0.0
 10
93.9877
 20
103.5699
 30
0.0
 10
94.414
 20
105.6113
 30
0.0
 10
95.8813
 20
107.6627
 30
0.0
 10
95.8813
 20
107.6627
 30
0.0
 10
97.6495
 20
110.3923
 30
0.0
 10
99.558
 20
112.3364
 30
0.0
 10
99.5833
 20
116.3676
 30
0.0
 10
99.5833
 20
116.3676
 30
0.0
 10
99.6235
 20
116.4914
 30
0.0
 10
99.7047
 20
116.555
 30
0.0
 10
99.8806
 20
116.4621
 30
0.0
 10
99.8806
 20
116.4621
 30
0.0
 10
101.3356
 20
114.8445
 30
0.0
 10
103.0318
 20
113.9452
 30
0.0
 10
106.1085
 20
114.5451
 30
0.0
 10
106.1085
 20
114.5451
 30
0.0
 10
108.7124
 20
115.5127
 30
0.0
 10
109.6106
 20
117.5036
 30
0.0
 10
109.6461
 20
120.0124
 30
0.0
 10
109.6461
 20
120.0124
 30
0.0
 10
108.7404
 20
123.6162
 30
0.0
 10
104.2027
 20
123.1952
 30
0.0
 10
105.658
 20
119.7553
 30
0.0
 10
105.658
 20
119.7553
 30
0.0
 10
106.0291
 20
118.1341
 30
0.0
 10
104.4667
 20
117.5772
 30
0.0
 10
103.317
 20
118.2752
 30
0.0
 10
103.317
 20
118.2752
 30
0.0
 10
102.69
 20
118.6559
 30
0.0
 10
102.5935
 20
119.2701
 30
0.0
 10
102.54
 20
120.0574
 30
0.0
 10
102.54
 20
120.0574
 30
0.0
 10
102.4319
 20
121.643
 30
0.0
 10
102.9176
 20
122.9428
 30
0.0
 10
104.3073
 20
123.8075
 30
0.0
 10
104.3073
 20
123.8075
 30
0.0
 10
109.864
 20
126.2844
 30
0.0
 10
113.2089
 20
120.947
 30
0.0
 10
110.7335
 20
115.661
 30
0.0
 10
110.7335
 20
115.661
 30
0.0
 10
110.4548
 20
115.0661
 30
0.0
 10
110.169
 20
114.7267
 30
0.0
 10
109.6957
 20
114.2738
 30
0.0
 10
109.6957
 20
114.2738
 30
0.0
 10
106.2186
 20
110.9451
 30
0.0
 10
102.2677
 20
109.2794
 30
0.0
 10
101.3541
 20
105.3481
 30
0.0
  0
SPLINE
  5
7B
330
1F
100
AcDbEntity
  8
layer 1
 62
     7
370
     9
100
AcDbSpline
210
0.0
220
0.0
230
1.0
 70
    11
 71
     3
 72
    76
 73
    72
 74
     0
 42
0.0000000001
 43
0.0000000001
 12
1.0
 22
0.0
 32
0.0
 13
1.0
 23
0.0
 33
0.0
 40
0.0
 40
0.0
 40
0.0
 40
0.0
 40
0.0526315789473684
 40
0.0526315789473684
 40
0.0526315789473684
 40
0.0526315789473684
 40
0.1052631578947368
 40
0.1052631578947368
 40
0.1052631578947368
 40
0.1052631578947368
 40
0.1578947368421053
 40
0.1578947368421053
 40
0.1578947368421053
 40
0.1578947368421053
 40
0.2105263157894737
 40
0.2105263157894737
 40
0.2105263157894737
 40
0.2105263157894737
 40
0.2631578947368421
 40
0.2631578947368421
 40
0.2631578947368421
 40
0.2631578947368421
 40
0.3157894736842105
 40
0.3157894736842105
 40
0.3157894736842105
 40
0.3157894736842105
 40
0.3684210526315789
 40
0.3684210526315789
 40
0.3684210526315789
 40
0.3684210526315789
 40
0.4210526315789473
 40
0.4210526315789473
 40
0.4210526315789473
 40
0.4210526315789473
 40
0.4736842105263158
 40
0.4736842105263158
 40
0.4736842105263158
 40
0.4736842105263158
 40
0.5263157894736842
 40
0.5263157894736842
 40
0.5263157894736842
 40
0.5263157894736842
 40
0.5789473684210527
 40
0.5789473684210527
 40
0.5789473684210527
 40
0.5789473684210527
 40
0.631578947368421
 40
0.631578947368421
 40
0.631578947368421
 40
0.631578947368421
 40
0.6842105263157895
 40
0.6842105263157895
 40
0.6842105263157895
 40
0.6842105263157895
 40
0.7368421052631579
 40
0.7368421052631579
 40
0.7368421052631579
 40
0.7368421052631579
 40
0.7894736842105263
 40
0.7894736842105263
 40
0.7894736842105263
 40
0.7894736842105263
 40
0.8421052631578947
 40
0.8421052631578947
 40
0.8421052631578947
 40
0.8421052631578947
 40
0.8947368421052632
 40
0.8947368421052632
 40
0.8947368421052632
 40
0.8947368421052632
 40
1.0
 40
1.0
 40
1.0
 40
1.0
 10
66.0972
 20
74.867
 30
0.0
 10
66.3457
 20
74.3565
 30
0.0
 10
66.5517
 20
73.798
 30
0.0
 10
66.7096
 20
73.1865
 30
0.0
 10
66.7096
 20
73.1865
 30
0.0
 10
66.9303
 20
71.5238
 30
0.0
 10
67.0229
 20
70.4163
 30
0.0
 10
66.6369
 20
69.1815
 30
0.0
 10
66.6369
 20
69.1815
 30
0.0
 10
64.4431
 20
62.1637
 30
0.0
 10
64.9803
 20
58.4653
 30
0.0
 10
67.996
 20
55.3053
 30
0.0
 10
67.996
 20
55.3053
 30
0.0
 10
75.0641
 20
48.5277
 30
0.0
 10
86.9218
 20
54.8261
 30
0.0
 10
83.5619
 20
64.0529
 30
0.0
 10
83.5619
 20
64.0529
 30
0.0
 10
80.2845
 20
71.8843
 30
0.0
 10
73.9708
 20
70.3831
 30
0.0
 10
71.4703
 20
66.4553
 30
0.0
 10
71.4703
 20
66.4553
 30
0.0
 10
69.9146
 20
64.012
 30
0.0
 10
69.7752
 20
60.5389
 30
0.0
 10
73.8757
 20
58.8161
 30
0.0
 10
73.8757
 20
58.8161
 30
0.0
 10
74.6154
 20
58.5936
 30
0.0
 10
75.1678
 20
58.4552
 30
0.0
 10
75.9018
 20
58.6144
 30
0.0
 10
75.9018
 20
58.6144
 30
0.0
 10
77.8383
 20
59.3517
 30
0.0
 10
78.7781
 20
62.3557
 30
0.0
 10
77.0972
 20
62.6039
 30
0.0
 10
77.0972
 20
62.6039
 30
0.0
 10
74.5911
 20
60.5345
 30
0.0
 10
72.5647
 20
63.9747
 30
0.0
 10
74.6371
 20
65.4992
 30
0.0
 10
74.6371
 20
65.4992
 30
0.0
 10
76.2731
 20
66.3543
 30
0.0
 10
77.2376
 20
66.3576
 30
0.0
 10
78.4223
 20
65.8928
 30
0.0
 10
78.4223
 20
65.8928
 30
0.0
 10
79.9513
 20
65.2926
 30
0.0
 10
80.5147
 20
64.0575
 30
0.0
 10
80.862
 20
62.5302
 30
0.0
 10
80.862
 20
62.5302
 30
0.0
 10
82.3698
 20
55.9013
 30
0.0
 10
74.3177
 20
52.7683
 30
0.0
 10
69.267
 20
57.895
 30
0.0
 10
69.267
 20
57.895
 30
0.0
 10
66.0321
 20
61.565
 30
0.0
 10
66.4861
 20
66.2515
 30
0.0
 10
69.9901
 20
69.5845
 30
0.0
 10
69.9901
 20
69.5845
 30
0.0
 10
72.7214
 20
72.1826
 30
0.0
 10
75.7238
 20
72.9591
 30
0.0
 10
78.4514
 20
72.5006
 30
0.0
 10
78.4514
 20
72.5006
 30
0.0
 10
78.4675
 20
73.4419
 30
0.0
 10
78.5568
 20
74.301
 30
0.0
 10
78.7554
 20
75.0919
 30
0.0
 10
78.7554
 20
75.0919
 30
0.0
 10
76.9611
 20
73.8628
 30
0.0
 10
74.412
 20
73.0835
 30
0.0
 10
70.8255
 20
73.12
 30
0.0
 10
70.8255
 20
73.12
 30
0.0
 10
69.072
 20
73.3827
 30
0.0
 10
67.6041
 20
74.0458
 30
0.0
 10
66.2449
 20
74.9733
 30
0.0
 10
66.2449
 20
74.9733
 30
0.0
 10
66.1191
 20
75.0141
 30
0.0
 10
66.07
 20
74.9785
 30
0.0
 10
66.0972
 20
74.867
 30
0.0
  0
SPLINE
  5
7C
330
1F
100
AcDbEntity
  8
layer 1
 62
     7
370
     9
100
AcDbSpline
210
0.0
220
0.0
230
1.0
 70
    11
 71
     3
 72
    44
 73
    40
 74
     0
 42
0.0000000001
 43
0.0000000001
 12
1.0
 22
0.0
 32
0.0
 13
1.0
 23
0.0
 33
0.0
 40
0.0
 40
0.0
 40
0.0
 40
0.0
 40
0.0909090909090909
 40
0.0909090909090909
 40
0.0909090909090909
 40
0.0909090909090909
 40
0.1818181818181818
 40
0.1818181818181818
 40
0.1818181818181818
 40
0.1818181818181818
 40
0.2727272727272727
 40
0.2727272727272727
 40
0.2727272727272727
 40
0.2727272727272727
 40
0.3636363636363636
 40
0.3636363636363636
 40
0.3636363636363636
 40
0.3636363636363636
 40
0.4545454545454545
 40
0.4545454545454545
 40
0.4545454545454545
 40
0.4545454545454545
 40
0.5454545454545454
 40
0.5454545454545454
 40
0.5454545454545454
 40
0.5454545454545454
 40
0.6363636363636364
 40
0.6363636363636364
 40
0.6363636363636364
 40
0.6363636363636364
 40
0.7272727272727273
 40
0.7272727272727273
 40
0.7272727272727273
 40
0.7272727272727273
 40
0.8181818181818182
 40
0.8181818181818182
 40
0.8181818181818182
 40
0.8181818181818182
 40
1.0
 40
1.0
 40
1.0
 40
1.0
 10
62.6678
 20
-22.2113
 30
0.0
 10
63.3369
 20
-22.0506
 30
0.0
 10
64.0302
 20
-21.934
 30
0.0
 10
64.7492
 20
-21.867
 30
0.0
 10
64.7492
 20
-21.867
 30
0.0
 10
65.1508
 20
-21.8883
 30
0.0
 10
65.2444
 20
-21.7675
 30
0.0
 10
65.1523
 20
-21.5873
 30
0.0
 10
65.1523
 20
-21.5873
 30
0.0
 10
64.6601
 20
-20.8541
 30
0.0
 10
64.2537
 20
-20.0373
 30
0.0
 10
63.9434
 20
-19.1338
 30
0.0
 10
63.9434
 20
-19.1338
 30
0.0
 10
63.2981
 20
-17.366
 30
0.0
 10
63.0698
 20
-15.6451
 30
0.0
 10
63.1099
 20
-13.8569
 30
0.0
 10
63.1099
 20
-13.8569
 30
0.0
 10
63.0957
 20
-13.5796
 30
0.0
 10
62.7866
 20
-13.5965
 30
0.0
 10
62.6883
 20
-13.5966
 30
0.0
 10
62.6883
 20
-13.5966
 30
0.0
 10
61.8654
 20
-13.8478
 30
0.0
 10
61.0801
 20
-14.065
 30
0.0
 10
60.2073
 20
-14.1472
 30
0.0
 10
60.2073
 20
-14.1472
 30
0.0
 10
60.1179
 20
-14.1671
 30
0.0
 10
59.5623
 20
-14.2125
 30
0.0
 10
59.9922
 20
-14.6165
 30
0.0
 10
59.9922
 20
-14.6165
 30
0.0
 10
61.22
 20
-15.5649
 30
0.0
 10
61.5498
 20
-16.8744
 30
0.0
 10
61.9191
 20
-18.362
 30
0.0
 10
61.9191
 20
-18.362
 30
0.0
 10
62.1775
 20
-19.5655
 30
0.0
 10
62.2373
 20
-20.7839
 30
0.0
 10
62.2863
 20
-21.9969
 30
0.0
 10
62.2863
 20
-21.9969
 30
0.0
 10
62.3093
 20
-22.0875
 30
0.0
 10
62.448
 20
-22.2788
 30
0.0
 10
62.6678
 20
-22.2113
 30
0.0
  0
SPLINE
  5
7D
330
1F
100
AcDbEntity
  8
layer 1
 62
     7
370
     9
100
AcDbSpline
210
0.0
220
0.0
230
1.0
 70
    11
 71
     3
 72
    64
 73
    60
 74
     0
 42
0.0000000001
 43
0.0000000001
 12
1.0
 22
0.0
 32
0.0
 13
1.0
 23
0.0
 33
0.0
 40
0.0
 40
0.0
 40
0.0
 40
0.0
 40
0.0625
 40
0.0625
 40
0.0625
 40
0.0625
 40
0.125
 40
0.125
 40
0.125
 40
0.125
 40
0.1875
 40
0.1875
 40
0.1875
 40
0.1875
 40
0.25
 40
0.25
 40
0.25
 40
0.25
 40
0.3125
 40
0.3125
 40
0.3125
 40
0.3125
 40
0.375
 40
0.375
 40
0.375
 40
0.375
 40
0.4375
 40
0.4375
 40
0.4375
 40
0.4375
 40
0.5
 40
0.5
 40
0.5
 40
0.5
 40
0.5625
 40
0.5625
 40
0.5625
 40
0.5625
 40
0.625
 40
0.625
 40
0.625
 40
0.625
 40
0.6875
 40
0.6875
 40
0.6875
 40
0.6875
 40
0.75
 40
0.75
 40
0.75
 40
0.75
 40
0.8125
 40
0.8125
 40
0.8125
 40
0.8125
 40
0.875
 40
0.875
 40
0.875
 40
0.875
 40
1.0
 40
1.0
 40
1.0
 40
1.0
 10
103.4391
 20
5.5659
 30
0.0
 10
99.7277
 20
3.1142
 30
0.0
 10
96.7779
 20
2.3888
 30
0.0
 10
92.0633
 20
2.2081
 30
0.0
 10
92.0633
 20
2.2081
 30
0.0
 10
91.7941
 20
2.1413
 30
0.0
 10
91.6952
 20
2.0633
 30
0.0
 10
91.8116
 20
1.7062
 30
0.0
 10
91.8116
 20
1.7062
 30
0.0
 10
92.234
 20
0.6479
 30
0.0
 10
92.0931
 20
-0.5671
 30
0.0
 10
92.2191
 20
-1.7009
 30
0.0
 10
92.2191
 20
-1.7009
 30
0.0
 10
92.1064
 20
-6.8301
 30
0.0
 10
97.2678
 20
-8.9466
 30
0.0
 10
99.7317
 20
-4.7508
 30
0.0
 10
99.7317
 20
-4.7508
 30
0.0
 10
100.0446
 20
-3.1082
 30
0.0
 10
98.4114
 20
-3.1977
 30
0.0
 10
97.72
 20
-4.1639
 30
0.0
 10
97.72
 20
-4.1639
 30
0.0
 10
97.5746
 20
-4.367
 30
0.0
 10
97.5304
 20
-4.4437
 30
0.0
 10
97.301
 20
-4.5728
 30
0.0
 10
97.301
 20
-4.5728
 30
0.0
 10
95.0551
 20
-5.8372
 30
0.0
 10
93.9718
 20
-2.9706
 30
0.0
 10
95.9469
 20
-1.1397
 30
0.0
 10
95.9469
 20
-1.1397
 30
0.0
 10
96.4095
 20
-0.711
 30
0.0
 10
97.0692
 20
-0.2586
 30
0.0
 10
97.6734
 20
-0.0691
 30
0.0
 10
97.6734
 20
-0.0691
 30
0.0
 10
99.1052
 20
0.3803
 30
0.0
 10
100.3902
 20
-0.2486
 30
0.0
 10
101.1211
 20
-0.931
 30
0.0
 10
101.1211
 20
-0.931
 30
0.0
 10
102.2455
 20
-2.2751
 30
0.0
 10
102.7416
 20
-3.6741
 30
0.0
 10
102.664
 20
-4.9948
 30
0.0
 10
102.664
 20
-4.9948
 30
0.0
 10
103.6384
 20
-3.6921
 30
0.0
 10
104.9316
 20
-2.7804
 30
0.0
 10
106.9098
 20
-1.5743
 30
0.0
 10
106.9098
 20
-1.5743
 30
0.0
 10
107.0588
 20
-1.5146
 30
0.0
 10
107.2072
 20
-1.4585
 30
0.0
 10
107.3559
 20
-1.405
 30
0.0
 10
107.3559
 20
-1.405
 30
0.0
 10
106.6369
 20
-0.4736
 30
0.0
 10
105.9655
 20
0.505
 30
0.0
 10
105.3841
 20
1.5738
 30
0.0
 10
105.3841
 20
1.5738
 30
0.0
 10
104.8066
 20
2.7374
 30
0.0
 10
104.356
 20
4.028
 30
0.0
 10
104.0327
 20
5.446
 30
0.0
 10
104.0327
 20
5.446
 30
0.0
 10
103.9538
 20
5.5319
 30
0.0
 10
103.9449
 20
5.8796
 30
0.0
 10
103.4391
 20
5.5659
 30
0.0
  0
SPLINE
  5
7E
330
1F
100
AcDbEntity
  8
layer 1
 62
     7
370
     9
100
AcDbSpline
210
0.0
220
0.0
230
1.0
 70
    11
 71
     3
 72
    64
 73
    60
 74
     0
 42
0.0000000001
 43
0.0000000001
 12
1.0
 22
0.0
 32
0.0
 13
1.0
 23
0.0
 33
0.0
 40
0.0
 40
0.0
 40
0.0
 40
0.0
 40
0.0625
 40
0.0625
 40
0.0625
 40
0.0625
 40
0.125
 40
0.125
 40
0.125
 40
0.125
 40
0.1875
 40
0.1875
 40
0.1875
 40
0.1875
 40
0.25
 40
0.25
 40
0.25
 40
0.25
 40
0.3125
 40
0.3125
 40
0.3125
 40
0.3125
 40
0.375
 40
0.375
 40
0.375
 40
0.375
 40
0.4375
 40
0.4375
 40
0.4375
 40
0.4375
 40
0.5
 40
0.5
 40
0.5
 40
0.5
 40
0.5625
 40
0.5625
 40
0.5625
 40
0.5625
 40
0.625
 40
0.625
 40
0.625
 40
0.625
 40
0.6875
 40
0.6875
 40
0.6875
 40
0.6875
 40
0.75
 40
0.75
 40
0.75
 40
0.75
 40
0.8125
 40
0.8125
 40
0.8125
 40
0.8125
 40
0.875
 40
0.875
 40
0.875
 40
0.875
 40
1.0
 40
1.0
 40
1.0
 40
1.0
 10
103.4142
 20
22.1321
 30
0.0
 10
102.9857
 20
22.6401
 30
0.0
 10
102.565
 20
23.2163
 30
0.0
 10
102.152
 20
23.8647
 30
0.0
 10
102.152
 20
23.8647
 30
0.0
 10
102.1314
 20
23.9344
 30
0.0
 10
102.1126
 20
24.0026
 30
0.0
 10
102.0931
 20
24.0716
 30
0.0
 10
102.0931
 20
24.0716
 30
0.0
 10
101.9534
 20
23.8838
 30
0.0
 10
101.7921
 20
23.7068
 30
0.0
 10
101.6073
 20
23.5436
 30
0.0
 10
101.6073
 20
23.5436
 30
0.0
 10
100.2424
 20
22.7869
 30
0.0
 10
99.1287
 20
22.3556
 30
0.0
 10
97.9516
 20
22.3704
 30
0.0
 10
97.9516
 20
22.3704
 30
0.0
 10
99.6206
 20
21.2625
 30
0.0
 10
100.9538
 20
19.9595
 30
0.0
 10
101.3481
 20
18.1082
 30
0.0
 10
101.3481
 20
18.1082
 30
0.0
 10
102.2528
 20
14.2492
 30
0.0
 10
101.77
 20
10.8406
 30
0.0
 10
96.3312
 20
9.0389
 30
0.0
 10
96.3312
 20
9.0389
 30
0.0
 10
91.3568
 20
8.8073
 30
0.0
 10
89.6648
 20
12.8284
 30
0.0
 10
90.5207
 20
15.092
 30
0.0
 10
90.5207
 20
15.092
 30
0.0
 10
91.1458
 20
16.7451
 30
0.0
 10
94.2286
 20
17.003
 30
0.0
 10
94.0106
 20
14.7163
 30
0.0
 10
94.0106
 20
14.7163
 30
0.0
 10
93.9627
 20
14.2118
 30
0.0
 10
93.6722
 20
13.8134
 30
0.0
 10
94.0799
 20
13.2198
 30
0.0
 10
94.0799
 20
13.2198
 30
0.0
 10
95.5849
 20
11.0293
 30
0.0
 10
100.6337
 20
14.8873
 30
0.0
 10
98.0677
 20
18.6229
 30
0.0
 10
98.0677
 20
18.6229
 30
0.0
 10
95.3913
 20
20.8808
 30
0.0
 10
92.4461
 20
21.0322
 30
0.0
 10
89.2557
 20
19.2659
 30
0.0
 10
89.2557
 20
19.2659
 30
0.0
 10
85.7487
 20
16.132
 30
0.0
 10
85.8058
 20
12.5582
 30
0.0
 10
88.5483
 20
8.6531
 30
0.0
 10
88.5483
 20
8.6531
 30
0.0
 10
93.0202
 20
3.6054
 30
0.0
 10
99.5323
 20
5.5538
 30
0.0
 10
103.4064
 20
10.068
 30
0.0
 10
103.4064
 20
10.068
 30
0.0
 10
104.8507
 20
13.0713
 30
0.0
 10
105.325
 20
16.1132
 30
0.0
 10
104.6285
 20
19.2016
 30
0.0
 10
104.6285
 20
19.2016
 30
0.0
 10
104.6285
 20
19.2016
 30
0.0
 10
103.4142
 20
22.1321
 30
0.0
 10
103.4142
 20
22.1321
 30
0.0
  0
SPLINE
  5
7F
330
1F
100
AcDbEntity
  8
layer 1
 62
     7
370
     9
100
AcDbSpline
210
0.0
220
0.0
230
1.0
 70
    11
 71
     3
 72
    76
 73
    72
 74
     0
 42
0.0000000001
 43
0.0000000001
 12
1.0
 22
0.0
 32
0.0
 13
1.0
 23
0.0
 33
0.0
 40
0.0
 40
0.0
 40
0.0
 40
0.0
 40
0.0526315789473684
 40
0.0526315789473684
 40
0.0526315789473684
 40
0.0526315789473684
 40
0.1052631578947368
 40
0.1052631578947368
 40
0.1052631578947368
 40
0.1052631578947368
 40
0.1578947368421053
 40
0.1578947368421053
 40
0.1578947368421053
 40
0.1578947368421053
 40
0.2105263157894737
 40
0.2105263157894737
 40
0.2105263157894737
 40
0.2105263157894737
 40
0.2631578947368421
 40
0.2631578947368421
 40
0.2631578947368421
 40
0.2631578947368421
 40
0.3157894736842105
 40
0.3157894736842105
 40
0.3157894736842105
 40
0.3157894736842105
 40
0.3684210526315789
 40
0.3684210526315789
 40
0.3684210526315789
 40
0.3684210526315789
 40
0.4210526315789473
 40
0.4210526315789473
 40
0.4210526315789473
 40
0.4210526315789473
 40
0.4736842105263158
 40
0.4736842105263158
 40
0.4736842105263158
 40
0.4736842105263158
 40
0.5263157894736842
 40
0.5263157894736842
 40
0.5263157894736842
 40
0.5263157894736842
 40
0.5789473684210527
 40
0.5789473684210527
 40
0.5789473684210527
 40
0.5789473684210527
 40
0.631578947368421
 40
0.631578947368421
 40
0.631578947368421
 40
0.631578947368421
 40
0.6842105263157895
 40
0.6842105263157895
 40
0.6842105263157895
 40
0.6842105263157895
 40
0.7368421052631579
 40
0.7368421052631579
 40
0.7368421052631579
 40
0.7368421052631579
 40
0.7894736842105263
 40
0.7894736842105263
 40
0.7894736842105263
 40
0.7894736842105263
 40
0.8421052631578947
 40
0.8421052631578947
 40
0.8421052631578947
 40
0.8421052631578947
 40
0.8947368421052632
 40
0.8947368421052632
 40
0.8947368421052632
 40
0.8947368421052632
 40
1.0
 40
1.0
 40
1.0
 40
1.0
 10
94.3635
 20
23.6125
 30
0.0
 10
92.6967
 20
25.2429
 30
0.0
 10
92.3833
 20
27.0106
 30
0.0
 10
92.3104
 20
28.9784
 30
0.0
 10
92.3104
 20
28.9784
 30
0.0
 10
90.0742
 20
27.8101
 30
0.0
 10
87.4621
 20
27.6543
 30
0.0
 10
85.0848
 20
28.0432
 30
0.0
 10
85.0848
 20
28.0432
 30
0.0
 10
86.5715
 20
23.5727
 30
0.0
 10
84.3051
 20
18.0735
 30
0.0
 10
77.9061
 20
19.0254
 30
0.0
 10
77.9061
 20
19.0254
 30
0.0
 10
73.3224
 20
19.8204
 30
0.0
 10
72.4153
 20
28.3044
 30
0.0
 10
77.1242
 20
27.6264
 30
0.0
 10
77.1242
 20
27.6264
 30
0.0
 10
77.6593
 20
27.5492
 30
0.0
 10
77.8335
 20
27.4799
 30
0.0
 10
78.1676
 20
26.9946
 30
0.0
 10
78.1676
 20
26.9946
 30
0.0
 10
78.6255
 20
26.3296
 30
0.0
 10
78.5726
 20
25.5717
 30
0.0
 10
78.1634
 20
24.8193
 30
0.0
 10
78.1634
 20
24.8193
 30
0.0
 10
77.5488
 20
23.017
 30
0.0
 10
80.3173
 20
22.4609
 30
0.0
 10
81.4748
 20
23.5649
 30
0.0
 10
81.4748
 20
23.5649
 30
0.0
 10
82.6598
 20
24.6949
 30
0.0
 10
82.8944
 20
27.2888
 30
0.0
 10
80.8389
 20
29.5984
 30
0.0
 10
80.8389
 20
29.5984
 30
0.0
 10
80.4796
 20
30.0021
 30
0.0
 10
80.2476
 20
30.1615
 30
0.0
 10
79.7406
 20
30.3431
 30
0.0
 10
79.7406
 20
30.3431
 30
0.0
 10
71.9
 20
33.1515
 30
0.0
 10
67.8663
 20
21.6681
 30
0.0
 10
75.1863
 20
17.3034
 30
0.0
 10
75.1863
 20
17.3034
 30
0.0
 10
82.1707
 20
14.7137
 30
0.0
 10
83.4455
 20
10.5111
 30
0.0
 10
83.0562
 20
6.4076
 30
0.0
 10
83.0562
 20
6.4076
 30
0.0
 10
82.9683
 20
5.4421
 30
0.0
 10
82.7776
 20
4.4461
 30
0.0
 10
82.4376
 20
3.4817
 30
0.0
 10
82.4376
 20
3.4817
 30
0.0
 10
82.5986
 20
3.5857
 30
0.0
 10
82.7659
 20
3.6882
 30
0.0
 10
82.9404
 20
3.7891
 30
0.0
 10
82.9404
 20
3.7891
 30
0.0
 10
84.4639
 20
4.4891
 30
0.0
 10
86.1121
 20
4.8049
 30
0.0
 10
87.6386
 20
4.5852
 30
0.0
 10
87.6386
 20
4.5852
 30
0.0
 10
87.9613
 20
4.561
 30
0.0
 10
87.9666
 20
4.8636
 30
0.0
 10
87.8699
 20
4.977
 30
0.0
 10
87.8699
 20
4.977
 30
0.0
 10
86.1016
 20
6.9397
 30
0.0
 10
84.654
 20
9.2968
 30
0.0
 10
84.0473
 20
12.3193
 30
0.0
 10
84.0473
 20
12.3193
 30
0.0
 10
84.078
 20
16.3314
 30
0.0
 10
84.6739
 20
20.2398
 30
0.0
 10
89.1914
 20
22.3534
 30
0.0
 10
89.1914
 20
22.3534
 30
0.0
 10
90.87
 20
22.9554
 30
0.0
 10
92.5829
 20
23.4192
 30
0.0
 10
94.3635
 20
23.6125
 30
0.0
  0
SPLINE
  5
80
330
1F
100
AcDbEntity
  8
layer 1
 62
     7
370
     9
100
AcDbSpline
210
0.0
220
0.0
230
1.0
 70
    11
 71
     3
 72
    44
 73
    40
 74
     0
 42
0.0000000001
 43
0.0000000001
 12
1.0
 22
0.0
 32
0.0
 13
1.0
 23
0.0
 33
0.0
 40
0.0
 40
0.0
 40
0.0
 40
0.0
 40
0.0909090909090909
 40
0.0909090909090909
 40
0.0909090909090909
 40
0.0909090909090909
 40
0.1818181818181818
 40
0.1818181818181818
 40
0.1818181818181818
 40
0.1818181818181818
 40
0.2727272727272727
 40
0.2727272727272727
 40
0.2727272727272727
 40
0.2727272727272727
 40
0.3636363636363636
 40
0.3636363636363636
 40
0.3636363636363636
 40
0.3636363636363636
 40
0.4545454545454545
 40
0.4545454545454545
 40
0.4545454545454545
 40
0.4545454545454545
 40
0.5454545454545454
 40
0.5454545454545454
 40
0.5454545454545454
 40
0.5454545454545454
 40
0.6363636363636364
 40
0.6363636363636364
 40
0.6363636363636364
 40
0.6363636363636364
 40
0.7272727272727273
 40
0.7272727272727273
 40
0.7272727272727273
 40
0.7272727272727273
 40
0.8181818181818182
 40
0.8181818181818182
 40
0.8181818181818182
 40
0.8181818181818182
 40
1.0
 40
1.0
 40
1.0
 40
1.0
 10
79.6877
 20
33.1497
 30
0.0
 10
79.7894
 20
33.1244
 30
0.0
 10
79.8911
 20
33.1014
 30
0.0
 10
79.9887
 20
33.0689
 30
0.0
 10
79.9887
 20
33.0689
 30
0.0
 10
81.9433
 20
32.4176
 30
0.0
 10
83.7263
 20
31.7605
 30
0.0
 10
85.8328
 20
31.464
 30
0.0
 10
85.8328
 20
31.464
 30
0.0
 10
95.0039
 20
30.1734
 30
0.0
 10
101.6872
 20
42.142
 30
0.0
 10
92.2787
 20
46.5382
 30
0.0
 10
92.2787
 20
46.5382
 30
0.0
 10
89.4705
 20
47.6282
 30
0.0
 10
86.8331
 20
46.7493
 30
0.0
 10
84.3674
 20
43.9012
 30
0.0
 10
84.3674
 20
43.9012
 30
0.0
 10
83.4641
 20
41.2968
 30
0.0
 10
83.7542
 20
38.9499
 30
0.0
 10
86.876
 20
37.8874
 30
0.0
 10
86.876
 20
37.8874
 30
0.0
 10
88.525
 20
37.8457
 30
0.0
 10
89.4079
 20
38.6715
 30
0.0
 10
88.9169
 20
40.1711
 30
0.0
 10
88.9169
 20
40.1711
 30
0.0
 10
84.0534
 20
41.9366
 30
0.0
 10
90.3822
 20
47.737
 30
0.0
 10
92.9221
 20
41.6499
 30
0.0
 10
92.9221
 20
41.6499
 30
0.0
 10
93.7356
 20
38.0199
 30
0.0
 10
92.7647
 20
35.3138
 30
0.0
 10
88.6125
 20
34.2529
 30
0.0
 10
88.6125
 20
34.2529
 30
0.0
 10
84.9911
 20
33.7718
 30
0.0
 10
83.0577
 20
36.8597
 30
0.0
 10
82.8731
 20
36.3429
 30
0.0
 10
82.8731
 20
36.3429
 30
0.0
 10
82.7516
 20
36.0037
 30
0.0
 10
81.6252
 20
34.1082
 30
0.0
 10
79.6877
 20
33.1497
 30
0.0
  0
SPLINE
  5
81
330
1F
100
AcDbEntity
  8
layer 1
 62
     7
370
     9
100
AcDbSpline
210
0.0
220
0.0
230
1.0
 70
    11
 71
     3
 72
    80
 73
    76
 74
     0
 42
0.0000000001
 43
0.0000000001
 12
1.0
 22
0.0
 32
0.0
 13
1.0
 23
0.0
 33
0.0
 40
0.0
 40
0.0
 40
0.0
 40
0.0
 40
0.05
 40
0.05
 40
0.05
 40
0.05
 40
0.1
 40
0.1
 40
0.1
 40
0.1
 40
0.15
 40
0.15
 40
0.15
 40
0.15
 40
0.2
 40
0.2
 40
0.2
 40
0.2
 40
0.25
 40
0.25
 40
0.25
 40
0.25
 40
0.3
 40
0.3
 40
0.3
 40
0.3
 40
0.35
 40
0.35
 40
0.35
 40
0.35
 40
0.4
 40
0.4
 40
0.4
 40
0.4
 40
0.45
 40
0.45
 40
0.45
 40
0.45
 40
0.5
 40
0.5
 40
0.5
 40
0.5
 40
0.55
 40
0.55
 40
0.55
 40
0.55
 40
0.6
 40
0.6
 40
0.6
 40
0.6
 40
0.65
 40
0.65
 40
0.65
 40
0.65
 40
0.7
 40
0.7
 40
0.7
 40
0.7
 40
0.75
 40
0.75
 40
0.75
 40
0.75
 40
0.8
 40
0.8
 40
0.8
 40
0.8
 40
0.85
 40
0.85
 40
0.85
 40
0.85
 40
0.9
 40
0.9
 40
0.9
 40
0.9
 40
1.0
 40
1.0
 40
1.0
 40
1.0
 10
66.3134
 20
-0.7874
 30
0.0
 10
66.639
 20
-1.3846
 30
0.0
 10
66.9029
 20
-2.0506
 30
0.0
 10
67.0952
 20
-2.7961
 30
0.0
 10
67.0952
 20
-2.7961
 30
0.0
 10
67.3156
 20
-4.4588
 30
0.0
 10
67.4082
 20
-5.5666
 30
0.0
 10
67.0222
 20
-6.8014
 30
0.0
 10
67.0222
 20
-6.8014
 30
0.0
 10
64.8287
 20
-13.8191
 30
0.0
 10
65.3657
 20
-17.5175
 30
0.0
 10
68.3816
 20
-20.6777
 30
0.0
 10
68.3816
 20
-20.6777
 30
0.0
 10
75.4496
 20
-27.455
 30
0.0
 10
87.3071
 20
-21.1565
 30
0.0
 10
83.9475
 20
-11.9299
 30
0.0
 10
83.9475
 20
-11.9299
 30
0.0
 10
80.9796
 20
-3.68
 30
0.0
 10
72.6979
 20
-6.0366
 30
0.0
 10
70.9029
 20
-10.4373
 30
0.0
 10
70.9029
 20
-10.4373
 30
0.0
 10
70.1188
 20
-12.3598
 30
0.0
 10
70.264
 20
-14.5955
 30
0.0
 10
71.9708
 20
-16.1513
 30
0.0
 10
71.9708
 20
-16.1513
 30
0.0
 10
72.6909
 20
-16.8081
 30
0.0
 10
73.8104
 20
-17.4596
 30
0.0
 10
75.2656
 20
-17.5262
 30
0.0
 10
75.2656
 20
-17.5262
 30
0.0
 10
76.1737
 20
-17.5678
 30
0.0
 10
76.8441
 20
-17.2977
 30
0.0
 10
77.2487
 20
-16.9271
 30
0.0
 10
77.2487
 20
-16.9271
 30
0.0
 10
78.4684
 20
-15.8098
 30
0.0
 10
78.8424
 20
-13.5796
 30
0.0
 10
77.4826
 20
-13.3788
 30
0.0
 10
77.4826
 20
-13.3788
 30
0.0
 10
74.9765
 20
-15.4484
 30
0.0
 10
72.9502
 20
-12.0081
 30
0.0
 10
75.0227
 20
-10.4836
 30
0.0
 10
75.0227
 20
-10.4836
 30
0.0
 10
77.4024
 20
-9.2397
 30
0.0
 10
78.5116
 20
-9.699
 30
0.0
 10
80.377
 20
-11.5432
 30
0.0
 10
80.377
 20
-11.5432
 30
0.0
 10
81.9741
 20
-13.8723
 30
0.0
 10
82.0127
 20
-16.3154
 30
0.0
 10
79.4276
 20
-19.1941
 30
0.0
 10
79.4276
 20
-19.1941
 30
0.0
 10
78.9965
 20
-19.6742
 30
0.0
 10
78.7141
 20
-19.8496
 30
0.0
 10
78.1041
 20
-20.0743
 30
0.0
 10
78.1041
 20
-20.0743
 30
0.0
 10
74.9521
 20
-21.2361
 30
0.0
 10
72.1829
 20
-20.455
 30
0.0
 10
69.5727
 20
-18.0076
 30
0.0
 10
69.5727
 20
-18.0076
 30
0.0
 10
66.8172
 20
-15.7768
 30
0.0
 10
66.8717
 20
-9.7313
 30
0.0
 10
70.3755
 20
-6.3982
 30
0.0
 10
70.3755
 20
-6.3982
 30
0.0
 10
73.1069
 20
-3.8
 30
0.0
 10
76.1091
 20
-3.0238
 30
0.0
 10
78.8368
 20
-3.4819
 30
0.0
 10
78.8368
 20
-3.4819
 30
0.0
 10
78.8531
 20
-2.5409
 30
0.0
 10
78.9423
 20
-1.682
 30
0.0
 10
79.141
 20
-0.8911
 30
0.0
 10
79.141
 20
-0.8911
 30
0.0
 10
77.3466
 20
-2.1198
 30
0.0
 10
74.7974
 20
-2.8995
 30
0.0
 10
71.2109
 20
-2.8627
 30
0.0
 10
71.2109
 20
-2.8627
 30
0.0
 10
69.3201
 20
-2.5795
 30
0.0
 10
67.762
 20
-1.831
 30
0.0
 10
66.3134
 20
-0.7874
 30
0.0
  0
SPLINE
  5
82
330
1F
100
AcDbEntity
  8
layer 1
 62
     7
370
     9
100
AcDbSpline
210
0.0
220
0.0
230
1.0
 70
    11
 71
     3
 72
    68
 73
    64
 74
     0
 42
0.0000000001
 43
0.0000000001
 12
1.0
 22
0.0
 32
0.0
 13
1.0
 23
0.0
 33
0.0
 40
0.0
 40
0.0
 40
0.0
 40
0.0
 40
0.0588235294117647
 40
0.0588235294117647
 40
0.0588235294117647
 40
0.0588235294117647
 40
0.1176470588235294
 40
0.1176470588235294
 40
0.1176470588235294
 40
0.1176470588235294
 40
0.1764705882352941
 40
0.1764705882352941
 40
0.1764705882352941
 40
0.1764705882352941
 40
0.2352941176470588
 40
0.2352941176470588
 40
0.2352941176470588
 40
0.2352941176470588
 40
0.2941176470588235
 40
0.2941176470588235
 40
0.2941176470588235
 40
0.2941176470588235
 40
0.3529411764705883
 40
0.3529411764705883
 40
0.3529411764705883
 40
0.3529411764705883
 40
0.4117647058823529
 40
0.4117647058823529
 40
0.4117647058823529
 40
0.4117647058823529
 40
0.4705882352941176
 40
0.4705882352941176
 40
0.4705882352941176
 40
0.4705882352941176
 40
0.5294117647058824
 40
0.5294117647058824
 40
0.5294117647058824
 40
0.5294117647058824
 40
0.5882352941176471
 40
0.5882352941176471
 40
0.5882352941176471
 40
0.5882352941176471
 40
0.6470588235294118
 40
0.6470588235294118
 40
0.6470588235294118
 40
0.6470588235294118
 40
0.7058823529411765
 40
0.7058823529411765
 40
0.7058823529411765
 40
0.7058823529411765
 40
0.7647058823529411
 40
0.7647058823529411
 40
0.7647058823529411
 40
0.7647058823529411
 40
0.8235294117647058
 40
0.8235294117647058
 40
0.8235294117647058
 40
0.8235294117647058
 40
0.8823529411764706
 40
0.8823529411764706
 40
0.8823529411764706
 40
0.8823529411764706
 40
1.0
 40
1.0
 40
1.0
 40
1.0
 10
102.8068
 20
-53.8415
 30
0.0
 10
102.623
 20
-53.598
 30
0.0
 10
102.4404
 20
-53.341
 30
0.0
 10
102.2591
 20
-53.0707
 30
0.0
 10
102.2591
 20
-53.0707
 30
0.0
 10
102.0153
 20
-52.8066
 30
0.0
 10
101.9493
 20
-52.7645
 30
0.0
 10
101.4786
 20
-53.0306
 30
0.0
 10
101.4786
 20
-53.0306
 30
0.0
 10
100.2951
 20
-53.6868
 30
0.0
 10
99.3004
 20
-54.0983
 30
0.0
 10
98.2893
 20
-54.1862
 30
0.0
 10
98.2893
 20
-54.1862
 30
0.0
 10
98.2106
 20
-54.1984
 30
0.0
 10
98.1016
 20
-54.3802
 30
0.0
 10
98.272
 20
-54.5128
 30
0.0
 10
98.272
 20
-54.5128
 30
0.0
 10
99.728
 20
-55.5547
 30
0.0
 10
100.8613
 20
-56.7841
 30
0.0
 10
101.2196
 20
-58.4659
 30
0.0
 10
101.2196
 20
-58.4659
 30
0.0
 10
102.063
 20
-62.064
 30
0.0
 10
101.6999
 20
-65.2708
 30
0.0
 10
97.2379
 20
-67.1484
 30
0.0
 10
97.2379
 20
-67.1484
 30
0.0
 10
96.4235
 20
-67.4909
 30
0.0
 10
95.8809
 20
-67.5959
 30
0.0
 10
94.9922
 20
-67.5042
 30
0.0
 10
94.9922
 20
-67.5042
 30
0.0
 10
90.956
 20
-67.0886
 30
0.0
 10
89.6097
 20
-63.5512
 30
0.0
 10
90.392
 20
-61.482
 30
0.0
 10
90.392
 20
-61.482
 30
0.0
 10
91.0171
 20
-59.829
 30
0.0
 10
94.0999
 20
-59.5711
 30
0.0
 10
93.8819
 20
-61.8576
 30
0.0
 10
93.8819
 20
-61.8576
 30
0.0
 10
93.834
 20
-62.3623
 30
0.0
 10
93.5435
 20
-62.7607
 30
0.0
 10
93.9513
 20
-63.3542
 30
0.0
 10
93.9513
 20
-63.3542
 30
0.0
 10
95.4561
 20
-65.5447
 30
0.0
 10
100.505
 20
-61.6867
 30
0.0
 10
97.9392
 20
-57.9512
 30
0.0
 10
97.9392
 20
-57.9512
 30
0.0
 10
95.2628
 20
-55.6933
 30
0.0
 10
92.3174
 20
-55.5418
 30
0.0
 10
89.1271
 20
-57.3082
 30
0.0
 10
89.1271
 20
-57.3082
 30
0.0
 10
81.0148
 20
-66.2033
 30
0.0
 10
94.8991
 20
-77.3463
 30
0.0
 10
103.2777
 20
-66.5059
 30
0.0
 10
103.2777
 20
-66.5059
 30
0.0
 10
104.5587
 20
-63.8428
 30
0.0
 10
105.0764
 20
-61.1486
 30
0.0
 10
104.6916
 20
-58.4188
 30
0.0
 10
104.6916
 20
-58.4188
 30
0.0
 10
104.5842
 20
-57.657
 30
0.0
 10
104.372
 20
-57.0564
 30
0.0
 10
104.0912
 20
-56.3457
 30
0.0
 10
104.0912
 20
-56.3457
 30
0.0
 10
103.7438
 20
-55.4676
 30
0.0
 10
103.376
 20
-54.5947
 30
0.0
 10
102.8068
 20
-53.8415
 30
0.0
  0
SPLINE
  5
83
330
1F
100
AcDbEntity
  8
layer 1
 62
     7
370
     9
100
AcDbSpline
210
0.0
220
0.0
230
1.0
 70
    11
 71
     3
 72
    76
 73
    72
 74
     0
 42
0.0000000001
 43
0.0000000001
 12
1.0
 22
0.0
 32
0.0
 13
1.0
 23
0.0
 33
0.0
 40
0.0
 40
0.0
 40
0.0
 40
0.0
 40
0.0526315789473684
 40
0.0526315789473684
 40
0.0526315789473684
 40
0.0526315789473684
 40
0.1052631578947368
 40
0.1052631578947368
 40
0.1052631578947368
 40
0.1052631578947368
 40
0.1578947368421053
 40
0.1578947368421053
 40
0.1578947368421053
 40
0.1578947368421053
 40
0.2105263157894737
 40
0.2105263157894737
 40
0.2105263157894737
 40
0.2105263157894737
 40
0.2631578947368421
 40
0.2631578947368421
 40
0.2631578947368421
 40
0.2631578947368421
 40
0.3157894736842105
 40
0.3157894736842105
 40
0.3157894736842105
 40
0.3157894736842105
 40
0.3684210526315789
 40
0.3684210526315789
 40
0.3684210526315789
 40
0.3684210526315789
 40
0.4210526315789473
 40
0.4210526315789473
 40
0.4210526315789473
 40
0.4210526315789473
 40
0.4736842105263158
 40
0.4736842105263158
 40
0.4736842105263158
 40
0.4736842105263158
 40
0.5263157894736842
 40
0.5263157894736842
 40
0.5263157894736842
 40
0.5263157894736842
 40
0.5789473684210527
 40
0.5789473684210527
 40
0.5789473684210527
 40
0.5789473684210527
 40
0.631578947368421
 40
0.631578947368421
 40
0.631578947368421
 40
0.631578947368421
 40
0.6842105263157895
 40
0.6842105263157895
 40
0.6842105263157895
 40
0.6842105263157895
 40
0.7368421052631579
 40
0.7368421052631579
 40
0.7368421052631579
 40
0.7368421052631579
 40
0.7894736842105263
 40
0.7894736842105263
 40
0.7894736842105263
 40
0.7894736842105263
 40
0.8421052631578947
 40
0.8421052631578947
 40
0.8421052631578947
 40
0.8421052631578947
 40
0.8947368421052632
 40
0.8947368421052632
 40
0.8947368421052632
 40
0.8947368421052632
 40
1.0
 40
1.0
 40
1.0
 40
1.0
 10
93.9644
 20
-52.6831
 30
0.0
 10
92.6756
 20
-51.2844
 30
0.0
 10
92.3181
 20
-49.7841
 30
0.0
 10
92.2095
 20
-48.1436
 30
0.0
 10
92.2095
 20
-48.1436
 30
0.0
 10
92.1847
 20
-47.8318
 30
0.0
 10
91.9765
 20
-47.73
 30
0.0
 10
91.8116
 20
-47.7781
 30
0.0
 10
91.8116
 20
-47.7781
 30
0.0
 10
89.7783
 20
-48.7244
 30
0.0
 10
87.4712
 20
-48.8828
 30
0.0
 10
85.3265
 20
-48.5866
 30
0.0
 10
85.3265
 20
-48.5866
 30
0.0
 10
85.112
 20
-48.5264
 30
0.0
 10
85.018
 20
-48.7653
 30
0.0
 10
85.0575
 20
-48.8575
 30
0.0
 10
85.0575
 20
-48.8575
 30
0.0
 10
86.3303
 20
-53.264
 30
0.0
 10
84.0214
 20
-58.4772
 30
0.0
 10
77.7774
 20
-57.5488
 30
0.0
 10
77.7774
 20
-57.5488
 30
0.0
 10
72.9937
 20
-56.719
 30
0.0
 10
72.18
 20
-47.8146
 30
0.0
 10
77.6487
 20
-49.0509
 30
0.0
 10
77.6487
 20
-49.0509
 30
0.0
 10
78.4195
 20
-49.9093
 30
0.0
 10
78.5481
 20
-50.8106
 30
0.0
 10
78.035
 20
-51.7548
 30
0.0
 10
78.035
 20
-51.7548
 30
0.0
 10
77.4201
 20
-53.5571
 30
0.0
 10
80.1886
 20
-54.1132
 30
0.0
 10
81.346
 20
-53.0092
 30
0.0
 10
81.346
 20
-53.0092
 30
0.0
 10
82.6176
 20
-51.7966
 30
0.0
 10
82.7948
 20
-48.8994
 30
0.0
 10
80.2237
 20
-46.4758
 30
0.0
 10
80.2237
 20
-46.4758
 30
0.0
 10
71.9861
 20
-42.8279
 30
0.0
 10
67.5497
 20
-54.7938
 30
0.0
 10
75.0576
 20
-59.2704
 30
0.0
 10
75.0576
 20
-59.2704
 30
0.0
 10
82.042
 20
-61.8604
 30
0.0
 10
83.3167
 20
-66.0631
 30
0.0
 10
82.9276
 20
-70.1666
 30
0.0
 10
82.9276
 20
-70.1666
 30
0.0
 10
82.855
 20
-70.9639
 30
0.0
 10
82.7121
 20
-71.7818
 30
0.0
 10
82.4732
 20
-72.5856
 30
0.0
 10
82.4732
 20
-72.5856
 30
0.0
 10
82.4426
 20
-72.6621
 30
0.0
 10
82.4819
 20
-72.931
 30
0.0
 10
82.8117
 20
-72.785
 30
0.0
 10
82.8117
 20
-72.785
 30
0.0
 10
84.432
 20
-72.0404
 30
0.0
 10
86.1936
 20
-71.7299
 30
0.0
 10
87.7996
 20
-72.0368
 30
0.0
 10
87.7996
 20
-72.0368
 30
0.0
 10
87.98
 20
-72.0376
 30
0.0
 10
87.8947
 20
-71.8865
 30
0.0
 10
87.8871
 20
-71.8656
 30
0.0
 10
87.8871
 20
-71.8656
 30
0.0
 10
82.9613
 20
-67.9106
 30
0.0
 10
81.7185
 20
-57.8965
 30
0.0
 10
89.0627
 20
-54.2208
 30
0.0
 10
89.0627
 20
-54.2208
 30
0.0
 10
90.6059
 20
-53.6672
 30
0.0
 10
92.178
 20
-53.2304
 30
0.0
 10
93.8053
 20
-53.0136
 30
0.0
 10
93.8053
 20
-53.0136
 30
0.0
 10
93.916
 20
-52.9964
 30
0.0
 10
94.0582
 20
-52.8189
 30
0.0
 10
93.9644
 20
-52.6831
 30
0.0
  0
SPLINE
  5
84
330
1F
100
AcDbEntity
  8
layer 1
 62
     7
370
     9
100
AcDbSpline
210
0.0
220
0.0
230
1.0
 70
    11
 71
     3
 72
    56
 73
    52
 74
     0
 42
0.0000000001
 43
0.0000000001
 12
1.0
 22
0.0
 32
0.0
 13
1.0
 23
0.0
 33
0.0
 40
0.0
 40
0.0
 40
0.0
 40
0.0
 40
0.0714285714285714
 40
0.0714285714285714
 40
0.0714285714285714
 40
0.0714285714285714
 40
0.1428571428571428
 40
0.1428571428571428
 40
0.1428571428571428
 40
0.1428571428571428
 40
0.2142857142857143
 40
0.2142857142857143
 40
0.2142857142857143
 40
0.2142857142857143
 40
0.2857142857142857
 40
0.2857142857142857
 40
0.2857142857142857
 40
0.2857142857142857
 40
0.3571428571428572
 40
0.3571428571428572
 40
0.3571428571428572
 40
0.3571428571428572
 40
0.4285714285714285
 40
0.4285714285714285
 40
0.4285714285714285
 40
0.4285714285714285
 40
0.5
 40
0.5
 40
0.5
 40
0.5
 40
0.5714285714285714
 40
0.5714285714285714
 40
0.5714285714285714
 40
0.5714285714285714
 40
0.6428571428571429
 40
0.6428571428571429
 40
0.6428571428571429
 40
0.6428571428571429
 40
0.7142857142857143
 40
0.7142857142857143
 40
0.7142857142857143
 40
0.7142857142857143
 40
0.7857142857142857
 40
0.7857142857142857
 40
0.7857142857142857
 40
0.7857142857142857
 40
0.8571428571428571
 40
0.8571428571428571
 40
0.8571428571428571
 40
0.8571428571428571
 40
1.0
 40
1.0
 40
1.0
 40
1.0
 10
80.1977
 20
-43.5946
 30
0.0
 10
81.7387
 20
-44.032
 30
0.0
 10
83.1482
 20
-44.6035
 30
0.0
 10
84.8175
 20
-44.8938
 30
0.0
 10
84.8175
 20
-44.8938
 30
0.0
 10
94.3421
 20
-47.6896
 30
0.0
 10
101.8622
 20
-34.5739
 30
0.0
 10
92.1502
 20
-30.0358
 30
0.0
 10
92.1502
 20
-30.0358
 30
0.0
 10
89.4952
 20
-29.0054
 30
0.0
 10
86.9936
 20
-29.7347
 30
0.0
 10
84.6447
 20
-32.2233
 30
0.0
 10
84.6447
 20
-32.2233
 30
0.0
 10
84.2284
 20
-32.6644
 30
0.0
 10
84.1152
 20
-32.9775
 30
0.0
 10
83.9729
 20
-33.5763
 30
0.0
 10
83.9729
 20
-33.5763
 30
0.0
 10
83.4875
 20
-35.6197
 30
0.0
 10
83.9058
 20
-37.4165
 30
0.0
 10
86.0913
 20
-38.426
 30
0.0
 10
86.0913
 20
-38.426
 30
0.0
 10
86.5426
 20
-38.6343
 30
0.0
 10
86.8325
 20
-38.7208
 30
0.0
 10
87.3285
 20
-38.6619
 30
0.0
 10
87.3285
 20
-38.6619
 30
0.0
 10
88.5361
 20
-38.5184
 30
0.0
 10
89.2683
 20
-37.7538
 30
0.0
 10
88.8417
 20
-36.584
 30
0.0
 10
88.8417
 20
-36.584
 30
0.0
 10
88.7815
 20
-36.4189
 30
0.0
 10
88.785
 20
-36.4149
 30
0.0
 10
88.636
 20
-36.3448
 30
0.0
 10
88.636
 20
-36.3448
 30
0.0
 10
84.1734
 20
-34.2532
 30
0.0
 10
90.2807
 20
-28.902
 30
0.0
 10
92.7935
 20
-34.9241
 30
0.0
 10
92.7935
 20
-34.9241
 30
0.0
 10
93.6069
 20
-38.5541
 30
0.0
 10
92.636
 20
-41.2603
 30
0.0
 10
88.4838
 20
-42.3212
 30
0.0
 10
88.4838
 20
-42.3212
 30
0.0
 10
84.8626
 20
-42.8024
 30
0.0
 10
82.929
 20
-39.7144
 30
0.0
 10
82.7444
 20
-40.2313
 30
0.0
 10
82.7444
 20
-40.2313
 30
0.0
 10
82.6343
 20
-40.5387
 30
0.0
 10
81.6987
 20
-42.1241
 30
0.0
 10
80.0825
 20
-43.1322
 30
0.0
 10
80.0825
 20
-43.1322
 30
0.0
 10
80.002
 20
-43.1741
 30
0.0
 10
79.8514
 20
-43.5241
 30
0.0
 10
80.1977
 20
-43.5946
 30
0.0
  0
SPLINE
  5
85
330
1F
100
AcDbEntity
  8
layer 1
 62
     7
370
     9
100
AcDbSpline
210
0.0
220
0.0
230
1.0
 70
    11
 71
     3
 72
    80
 73
    76
 74
     0
 42
0.0000000001
 43
0.0000000001
 12
1.0
 22
0.0
 32
0.0
 13
1.0
 23
0.0
 33
0.0
 40
0.0
 40
0.0
 40
0.0
 40
0.0
 40
0.05
 40
0.05
 40
0.05
 40
0.05
 40
0.1
 40
0.1
 40
0.1
 40
0.1
 40
0.15
 40
0.15
 40
0.15
 40
0.15
 40
0.2
 40
0.2
 40
0.2
 40
0.2
 40
0.25
 40
0.25
 40
0.25
 40
0.25
 40
0.3
 40
0.3
 40
0.3
 40
0.3
 40
0.35
 40
0.35
 40
0.35
 40
0.35
 40
0.4
 40
0.4
 40
0.4
 40
0.4
 40
0.45
 40
0.45
 40
0.45
 40
0.45
 40
0.5
 40
0.5
 40
0.5
 40
0.5
 40
0.55
 40
0.55
 40
0.55
 40
0.55
 40
0.6
 40
0.6
 40
0.6
 40
0.6
 40
0.65
 40
0.65
 40
0.65
 40
0.65
 40
0.7
 40
0.7
 40
0.7
 40
0.7
 40
0.75
 40
0.75
 40
0.75
 40
0.75
 40
0.8
 40
0.8
 40
0.8
 40
0.8
 40
0.85
 40
0.85
 40
0.85
 40
0.85
 40
0.9
 40
0.9
 40
0.9
 40
0.9
 40
1.0
 40
1.0
 40
1.0
 40
1.0
 10
66.354
 20
-77.6893
 30
0.0
 10
66.6026
 20
-78.2001
 30
0.0
 10
66.8086
 20
-78.7584
 30
0.0
 10
66.9665
 20
-79.3704
 30
0.0
 10
66.9665
 20
-79.3704
 30
0.0
 10
67.3865
 20
-81.033
 30
0.0
 10
67.5997
 20
-82.5403
 30
0.0
 10
67.2137
 20
-83.7749
 30
0.0
 10
67.2137
 20
-83.7749
 30
0.0
 10
65.02
 20
-90.7927
 30
0.0
 10
65.237
 20
-94.0914
 30
0.0
 10
68.2529
 20
-97.2515
 30
0.0
 10
68.2529
 20
-97.2515
 30
0.0
 10
75.321
 20
-104.0293
 30
0.0
 10
87.1786
 20
-97.7306
 30
0.0
 10
83.8187
 20
-88.5038
 30
0.0
 10
83.8187
 20
-88.5038
 30
0.0
 10
80.9529
 20
-80.5376
 30
0.0
 10
73.5246
 20
-82.6242
 30
0.0
 10
71.0428
 20
-86.596
 30
0.0
 10
71.0428
 20
-86.596
 30
0.0
 10
69.9198
 20
-88.3936
 30
0.0
 10
70.1675
 20
-91.2078
 30
0.0
 10
71.6398
 20
-92.5759
 30
0.0
 10
71.6398
 20
-92.5759
 30
0.0
 10
75.4066
 20
-95.9102
 30
0.0
 10
79.6906
 20
-90.9129
 30
0.0
 10
77.7179
 20
-90.0524
 30
0.0
 10
77.7179
 20
-90.0524
 30
0.0
 10
77.4178
 20
-89.9216
 30
0.0
 10
77.3722
 20
-89.9534
 30
0.0
 10
77.1296
 20
-90.1245
 30
0.0
 10
77.1296
 20
-90.1245
 30
0.0
 10
74.7301
 20
-91.8176
 30
0.0
 10
72.8839
 20
-88.5364
 30
0.0
 10
74.894
 20
-87.0576
 30
0.0
 10
74.894
 20
-87.0576
 30
0.0
 10
80.0226
 20
-84.3774
 30
0.0
 10
82.9764
 20
-90.971
 30
0.0
 10
79.8486
 20
-94.8837
 30
0.0
 10
79.8486
 20
-94.8837
 30
0.0
 10
78.5227
 20
-96.5427
 30
0.0
 10
76.5599
 20
-97.2328
 30
0.0
 10
74.3665
 20
-97.1007
 30
0.0
 10
74.3665
 20
-97.1007
 30
0.0
 10
71.8954
 20
-96.952
 30
0.0
 10
69.0056
 20
-95.0273
 30
0.0
 10
68.081
 20
-92.6405
 30
0.0
 10
68.081
 20
-92.6405
 30
0.0
 10
66.9738
 20
-89.783
 30
0.0
 10
67.5641
 20
-85.524
 30
0.0
 10
70.2469
 20
-82.9722
 30
0.0
 10
70.2469
 20
-82.9722
 30
0.0
 10
72.9783
 20
-80.3742
 30
0.0
 10
75.9807
 20
-79.5972
 30
0.0
 10
78.7083
 20
-80.0554
 30
0.0
 10
78.7083
 20
-80.0554
 30
0.0
 10
78.7232
 20
-79.1953
 30
0.0
 10
78.7987
 20
-78.4034
 30
0.0
 10
78.9632
 20
-77.6698
 30
0.0
 10
78.9632
 20
-77.6698
 30
0.0
 10
78.9671
 20
-77.5396
 30
0.0
 10
78.8855
 20
-77.5464
 30
0.0
 10
78.8723
 20
-77.5583
 30
0.0
 10
78.8723
 20
-77.5583
 30
0.0
 10
77.0861
 20
-78.7326
 30
0.0
 10
74.5765
 20
-79.4723
 30
0.0
 10
71.0824
 20
-79.4366
 30
0.0
 10
71.0824
 20
-79.4366
 30
0.0
 10
69.3056
 20
-79.1705
 30
0.0
 10
67.8223
 20
-78.4929
 30
0.0
 10
66.4481
 20
-77.5464
 30
0.0
 10
66.4481
 20
-77.5464
 30
0.0
 10
66.3958
 20
-77.53
 30
0.0
 10
66.2841
 20
-77.595
 30
0.0
 10
66.354
 20
-77.6893
 30
0.0
  0
SPLINE
  5
86
330
1F
100
AcDbEntity
  8
layer 1
 62
     7
370
     9
100
AcDbSpline
210
0.0
220
0.0
230
1.0
 70
    11
 71
     3
 72
    24
 73
    20
 74
     0
 42
0.0000000001
 43
0.0000000001
 12
1.0
 22
0.0
 32
0.0
 13
1.0
 23
0.0
 33
0.0
 40
0.0
 40
0.0
 40
0.0
 40
0.0
 40
0.1666666666666667
 40
0.1666666666666667
 40
0.1666666666666667
 40
0.1666666666666667
 40
0.3333333333333333
 40
0.3333333333333333
 40
0.3333333333333333
 40
0.3333333333333333
 40
0.5
 40
0.5
 40
0.5
 40
0.5
 40
0.6666666666666666
 40
0.6666666666666666
 40
0.6666666666666666
 40
0.6666666666666666
 40
1.0
 40
1.0
 40
1.0
 40
1.0
 10
56.1983
 20
-48.1278
 30
0.0
 10
56.1875
 20
-49.3264
 30
0.0
 10
56.1769
 20
-50.5251
 30
0.0
 10
56.166
 20
-51.7239
 30
0.0
 10
56.166
 20
-51.7239
 30
0.0
 10
56.3683
 20
-52.0301
 30
0.0
 10
56.5704
 20
-52.3366
 30
0.0
 10
56.7727
 20
-52.6431
 30
0.0
 10
56.7727
 20
-52.6431
 30
0.0
 10
57.1382
 20
-53.1973
 30
0.0
 10
57.135
 20
-53.2964
 30
0.0
 10
57.8294
 20
-53.19
 30
0.0
 10
57.8294
 20
-53.19
 30
0.0
 10
59.2368
 20
-52.9744
 30
0.0
 10
59.5915
 20
-51.9522
 30
0.0
 10
59.0555
 20
-50.247
 30
0.0
 10
59.0555
 20
-50.247
 30
0.0
 10
58.6812
 20
-49.0105
 30
0.0
 10
57.6002
 20
-48.4218
 30
0.0
 10
56.1983
 20
-48.1278
 30
0.0
  0
SPLINE
  5
87
330
1F
100
AcDbEntity
  8
layer 1
 62
     7
370
     9
100
AcDbSpline
210
0.0
220
0.0
230
1.0
 70
    11
 71
     3
 72
    20
 73
    16
 74
     0
 42
0.0000000001
 43
0.0000000001
 12
1.0
 22
0.0
 32
0.0
 13
1.0
 23
0.0
 33
0.0
 40
0.0
 40
0.0
 40
0.0
 40
0.0
 40
0.2
 40
0.2
 40
0.2
 40
0.2
 40
0.4
 40
0.4
 40
0.4
 40
0.4
 40
0.6
 40
0.6
 40
0.6
 40
0.6
 40
1.0
 40
1.0
 40
1.0
 40
1.0
 10
56.3269
 20
28.4462
 30
0.0
 10
56.3162
 20
27.2476
 30
0.0
 10
56.3053
 20
26.0491
 30
0.0
 10
56.2947
 20
24.8503
 30
0.0
 10
56.2947
 20
24.8503
 30
0.0
 10
56.6265
 20
24.3473
 30
0.0
 10
56.9583
 20
23.8445
 30
0.0
 10
57.29
 20
23.3416
 30
0.0
 10
57.29
 20
23.3416
 30
0.0
 10
59.246
 20
23.3212
 30
0.0
 10
59.7968
 20
24.3782
 30
0.0
 10
59.1842
 20
26.3272
 30
0.0
 10
59.1842
 20
26.3272
 30
0.0
 10
58.8099
 20
27.5635
 30
0.0
 10
57.7289
 20
28.152
 30
0.0
 10
56.3269
 20
28.4462
 30
0.0
  0
SPLINE
  5
88
330
1F
100
AcDbEntity
  8
layer 1
 62
     7
370
     9
100
AcDbSpline
210
0.0
220
0.0
230
1.0
 70
    11
 71
     3
 72
    20
 73
    16
 74
     0
 42
0.0000000001
 43
0.0000000001
 12
1.0
 22
0.0
 32
0.0
 13
1.0
 23
0.0
 33
0.0
 40
0.0
 40
0.0
 40
0.0
 40
0.0
 40
0.2
 40
0.2
 40
0.2
 40
0.2
 40
0.4
 40
0.4
 40
0.4
 40
0.4
 40
0.6
 40
0.6
 40
0.6
 40
0.6
 40
1.0
 40
1.0
 40
1.0
 40
1.0
 10
55.9414
 20
104.4291
 30
0.0
 10
55.9306
 20
103.2303
 30
0.0
 10
55.92
 20
102.0318
 30
0.0
 10
55.9093
 20
100.8331
 30
0.0
 10
55.9093
 20
100.8331
 30
0.0
 10
56.2412
 20
100.3301
 30
0.0
 10
56.5729
 20
99.8271
 30
0.0
 10
56.9047
 20
99.3242
 30
0.0
 10
56.9047
 20
99.3242
 30
0.0
 10
58.8604
 20
99.3041
 30
0.0
 10
59.4112
 20
100.361
 30
0.0
 10
58.7989
 20
102.31
 30
0.0
 10
58.7989
 20
102.31
 30
0.0
 10
58.4243
 20
103.5464
 30
0.0
 10
57.3433
 20
104.1348
 30
0.0
 10
55.9414
 20
104.4291
 30
0.0
  0
SPLINE
  5
89
330
1F
100
AcDbEntity
  8
layer 1
 62
   250
370
     9
100
AcDbSpline
210
0.0
220
0.0
230
1.0
 70
    11
 71
     3
 72
    20
 73
    16
 74
     0
 42
0.0000000001
 43
0.0000000001
 12
1.0
 22
0.0
 32
0.0
 13
1.0
 23
0.0
 33
0.0
 40
0.0
 40
0.0
 40
0.0
 40
0.0
 40
0.2
 40
0.2
 40
0.2
 40
0.2
 40
0.4
 40
0.4
 40
0.4
 40
0.4
 40
0.6
 40
0.6
 40
0.6
 40
0.6
 40
1.0
 40
1.0
 40
1.0
 40
1.0
 10
196.6076
 20
131.7736
 30
0.0
 10
196.6076
 20
131.7736
 30
0.0
 10
128.5974
 20
131.7736
 30
0.0
 10
128.5974
 20
131.7736
 30
0.0
 10
128.5974
 20
131.7736
 30
0.0
 10
128.5974
 20
131.7736
 30
0.0
 10
128.5974
 20
-106.2618
 30
0.0
 10
128.5974
 20
-106.2618
 30
0.0
 10
128.5974
 20
-106.2618
 30
0.0
 10
128.5974
 20
-106.2618
 30
0.0
 10
196.6076
 20
-106.2618
 30
0.0
 10
196.6076
 20
-106.2618
 30
0.0
 10
196.6076
 20
-106.2618
 30
0.0
 10
196.6076
 20
-106.2618
 30
0.0
 10
196.6076
 20
131.7736
 30
0.0
 10
196.6076
 20
131.7736
 30
0.0
  0
SPLINE
  5
8A
330
1F
100
AcDbEntity
  8
layer 1
 62
     7
370
     9
100
AcDbSpline
210
0.0
220
0.0
230
1.0
 70
    11
 71
     3
 72
    32
 73
    28
 74
     0
 42
0.0000000001
 43
0.0000000001
 12
1.0
 22
0.0
 32
0.0
 13
1.0
 23
0.0
 33
0.0
 40
0.0
 40
0.0
 40
0.0
 40
0.0
 40
0.125
 40
0.125
 40
0.125
 40
0.125
 40
0.25
 40
0.25
 40
0.25
 40
0.25
 40
0.375
 40
0.375
 40
0.375
 40
0.375
 40
0.5
 40
0.5
 40
0.5
 40
0.5
 40
0.625
 40
0.625
 40
0.625
 40
0.625
 40
0.75
 40
0.75
 40
0.75
 40
0.75
 40
1.0
 40
1.0
 40
1.0
 40
1.0
 10
132.965
 20
-101.1972
 30
0.0
 10
132.965
 20
-101.1972
 30
0.0
 10
132.965
 20
-92.378
 30
0.0
 10
132.965
 20
-92.378
 30
0.0
 10
132.965
 20
-92.378
 30
0.0
 10
137.3362
 20
-87.6731
 30
0.0
 10
146.2705
 20
-79.5921
 30
0.0
 10
154.22
 20
-83.3538
 30
0.0
 10
154.22
 20
-83.3538
 30
0.0
 10
157.6596
 20
-86.925
 30
0.0
 10
162.1665
 20
-90.6338
 30
0.0
 10
162.1665
 20
-90.6338
 30
0.0
 10
162.1665
 20
-90.6338
 30
0.0
 10
162.1665
 20
-90.6338
 30
0.0
 10
151.492
 20
-87.0626
 30
0.0
 10
147.8153
 20
-93.3809
 30
0.0
 10
147.8153
 20
-93.3809
 30
0.0
 10
145.7988
 20
-91.3205
 30
0.0
 10
145.4431
 20
-89.9469
 30
0.0
 10
145.4431
 20
-89.2602
 30
0.0
 10
145.4431
 20
-89.2602
 30
0.0
 10
145.4431
 20
-88.5771
 30
0.0
 10
142.9133
 20
-90.9006
 30
0.0
 10
146.3872
 20
-101.1972
 30
0.0
 10
146.3872
 20
-101.1972
 30
0.0
 10
146.3872
 20
-101.1972
 30
0.0
 10
132.965
 20
-101.1972
 30
0.0
 10
132.965
 20
-101.1972
 30
0.0
  0
SPLINE
  5
8B
330
1F
100
AcDbEntity
  8
layer 1
 62
     7
370
     9
100
AcDbSpline
210
0.0
220
0.0
230
1.0
 70
    11
 71
     3
 72
   160
 73
   156
 74
     0
 42
0.0000000001
 43
0.0000000001
 12
1.0
 22
0.0
 32
0.0
 13
1.0
 23
0.0
 33
0.0
 40
0.0
 40
0.0
 40
0.0
 40
0.0
 40
0.025
 40
0.025
 40
0.025
 40
0.025
 40
0.05
 40
0.05
 40
0.05
 40
0.05
 40
0.075
 40
0.075
 40
0.075
 40
0.075
 40
0.1
 40
0.1
 40
0.1
 40
0.1
 40
0.125
 40
0.125
 40
0.125
 40
0.125
 40
0.15
 40
0.15
 40
0.15
 40
0.15
 40
0.175
 40
0.175
 40
0.175
 40
0.175
 40
0.2
 40
0.2
 40
0.2
 40
0.2
 40
0.225
 40
0.225
 40
0.225
 40
0.225
 40
0.25
 40
0.25
 40
0.25
 40
0.25
 40
0.275
 40
0.275
 40
0.275
 40
0.275
 40
0.3
 40
0.3
 40
0.3
 40
0.3
 40
0.325
 40
0.325
 40
0.325
 40
0.325
 40
0.35
 40
0.35
 40
0.35
 40
0.35
 40
0.375
 40
0.375
 40
0.375
 40
0.375
 40
0.4
 40
0.4
 40
0.4
 40
0.4
 40
0.425
 40
0.425
 40
0.425
 40
0.425
 40
0.45
 40
0.45
 40
0.45
 40
0.45
 40
0.475
 40
0.475
 40
0.475
 40
0.475
 40
0.5
 40
0.5
 40
0.5
 40
0.5
 40
0.525
 40
0.525
 40
0.525
 40
0.525
 40
0.55
 40
0.55
 40
0.55
 40
0.55
 40
0.575
 40
0.575
 40
0.575
 40
0.575
 40
0.6
 40
0.6
 40
0.6
 40
0.6
 40
0.625
 40
0.625
 40
0.625
 40
0.625
 40
0.65
 40
0.65
 40
0.65
 40
0.65
 40
0.675
 40
0.675
 40
0.675
 40
0.675
 40
0.7
 40
0.7
 40
0.7
 40
0.7
 40
0.725
 40
0.725
 40
0.725
 40
0.725
 40
0.75
 40
0.75
 40
0.75
 40
0.75
 40
0.775
 40
0.775
 40
0.775
 40
0.775
 40
0.8
 40
0.8
 40
0.8
 40
0.8
 40
0.825
 40
0.825
 40
0.825
 40
0.825
 40
0.85
 40
0.85
 40
0.85
 40
0.85
 40
0.875
 40
0.875
 40
0.875
 40
0.875
 40
0.9
 40
0.9
 40
0.9
 40
0.9
 40
0.925
 40
0.925
 40
0.925
 40
0.925
 40
0.95
 40
0.95
 40
0.95
 40
0.95
 40
1.0
 40
1.0
 40
1.0
 40
1.0
 10
132.965
 20
-87.8683
 30
0.0
 10
132.965
 20
-87.8683
 30
0.0
 10
132.965
 20
-79.0094
 30
0.0
 10
132.965
 20
-79.0094
 30
0.0
 10
132.965
 20
-79.0094
 30
0.0
 10
138.2415
 20
-75.1118
 30
0.0
 10
137.897
 20
-71.755
 30
0.0
 10
137.4429
 20
-69.7827
 30
0.0
 10
137.4429
 20
-69.7827
 30
0.0
 10
137.0499
 20
-68.5997
 30
0.0
 10
134.5227
 20
-67.4769
 30
0.0
 10
132.965
 20
-65.4158
 30
0.0
 10
132.965
 20
-65.4158
 30
0.0
 10
132.965
 20
-65.4158
 30
0.0
 10
132.965
 20
-61.3261
 30
0.0
 10
132.965
 20
-61.3261
 30
0.0
 10
132.965
 20
-61.3261
 30
0.0
 10
138.3544
 20
-60.7468
 30
0.0
 10
151.7941
 20
-57.1459
 30
0.0
 10
151.7941
 20
-57.1459
 30
0.0
 10
151.7941
 20
-57.1459
 30
0.0
 10
151.7941
 20
-57.1459
 30
0.0
 10
151.3195
 20
-58.5196
 30
0.0
 10
152.2685
 20
-60.3053
 30
0.0
 10
152.2685
 20
-60.3053
 30
0.0
 10
155.9377
 20
-60.9427
 30
0.0
 10
157.7624
 20
-59.0329
 30
0.0
 10
159.0044
 20
-57.6266
 30
0.0
 10
159.0044
 20
-57.6266
 30
0.0
 10
160.0239
 20
-56.4716
 30
0.0
 10
159.8043
 20
-56.231
 30
0.0
 10
160.2458
 20
-57.7348
 30
0.0
 10
160.2458
 20
-57.7348
 30
0.0
 10
161.0572
 20
-60.4994
 30
0.0
 10
162.4684
 20
-60.7173
 30
0.0
 10
162.4684
 20
-60.7173
 30
0.0
 10
162.4684
 20
-60.7173
 30
0.0
 10
162.4684
 20
-60.7173
 30
0.0
 10
161.8753
 20
-58.1077
 30
0.0
 10
162.9427
 20
-57.1459
 30
0.0
 10
162.9427
 20
-57.1459
 30
0.0
 10
162.9427
 20
-58.0413
 30
0.0
 10
163.8877
 20
-58.9368
 30
0.0
 10
166.3547
 20
-59.9062
 30
0.0
 10
166.3547
 20
-59.9062
 30
0.0
 10
168.7948
 20
-60.8653
 30
0.0
 10
171.3936
 20
-60.8846
 30
0.0
 10
172.6205
 20
-57.8149
 30
0.0
 10
172.6205
 20
-57.8149
 30
0.0
 10
174.0908
 20
-54.1372
 30
0.0
 10
173.86
 20
-49.5088
 30
0.0
 10
169.5304
 20
-48.5693
 30
0.0
 10
169.5304
 20
-48.5693
 30
0.0
 10
168.4847
 20
-48.3425
 30
0.0
 10
167.6535
 20
-48.8983
 30
0.0
 10
167.3773
 20
-49.7269
 30
0.0
 10
167.3773
 20
-49.7269
 30
0.0
 10
166.6883
 20
-51.7925
 30
0.0
 10
168.1704
 20
-52.1441
 30
0.0
 10
169.4527
 20
-52.5175
 30
0.0
 10
169.4527
 20
-52.5175
 30
0.0
 10
170.6141
 20
-52.8555
 30
0.0
 10
171.1768
 20
-53.2329
 30
0.0
 10
171.3064
 20
-54.7748
 30
0.0
 10
171.3064
 20
-54.7748
 30
0.0
 10
171.5058
 20
-57.1487
 30
0.0
 10
168.4396
 20
-57.794
 30
0.0
 10
166.0718
 20
-57.0391
 30
0.0
 10
166.0718
 20
-57.0391
 30
0.0
 10
163.1781
 20
-56.1159
 30
0.0
 10
161.9348
 20
-51.4615
 30
0.0
 10
164.6034
 20
-47.2564
 30
0.0
 10
164.6034
 20
-47.2564
 30
0.0
 10
168.3149
 20
-42.958
 30
0.0
 10
186.8993
 20
-39.2263
 30
0.0
 10
191.9279
 20
-41.7372
 30
0.0
 10
191.9279
 20
-41.7372
 30
0.0
 10
191.9279
 20
-41.7372
 30
0.0
 10
191.9279
 20
-48.4361
 30
0.0
 10
191.9279
 20
-48.4361
 30
0.0
 10
191.9279
 20
-48.4361
 30
0.0
 10
191.7044
 20
-47.9111
 30
0.0
 10
191.4299
 20
-47.3827
 30
0.0
 10
191.0956
 20
-46.8556
 30
0.0
 10
191.0956
 20
-46.8556
 30
0.0
 10
184.1311
 20
-38.5223
 30
0.0
 10
174.5389
 20
-46.2194
 30
0.0
 10
176.15
 20
-57.0463
 30
0.0
 10
176.15
 20
-57.0463
 30
0.0
 10
176.2205
 20
-60.7951
 30
0.0
 10
175.8628
 20
-60.5498
 30
0.0
 10
172.7491
 20
-61.2423
 30
0.0
 10
172.7491
 20
-61.2423
 30
0.0
 10
170.149
 20
-62.3252
 30
0.0
 10
168.9831
 20
-64.8104
 30
0.0
 10
167.4499
 20
-67.8599
 30
0.0
 10
167.4499
 20
-67.8599
 30
0.0
 10
164.1289
 20
-70.7442
 30
0.0
 10
159.7404
 20
-60.8547
 30
0.0
 10
158.1985
 20
-60.3053
 30
0.0
 10
158.1985
 20
-60.3053
 30
0.0
 10
157.7242
 20
-63.0523
 30
0.0
 10
159.7404
 20
-63.0523
 30
0.0
 10
159.3846
 20
-67.1729
 30
0.0
 10
159.3846
 20
-67.1729
 30
0.0
 10
151.7941
 20
-60.0305
 30
0.0
 10
149.1847
 20
-65.7995
 30
0.0
 10
150.6078
 20
-67.3104
 30
0.0
 10
150.6078
 20
-67.3104
 30
0.0
 10
152.3507
 20
-66.7793
 30
0.0
 10
154.0937
 20
-68.6309
 30
0.0
 10
155.6721
 20
-70.3236
 30
0.0
 10
155.6721
 20
-70.3236
 30
0.0
 10
157.4455
 20
-72.2247
 30
0.0
 10
154.8552
 20
-74.4816
 30
0.0
 10
154.7592
 20
-78.1615
 30
0.0
 10
154.7592
 20
-78.1615
 30
0.0
 10
152.8615
 20
-79.9471
 30
0.0
 10
145.4011
 20
-80.3537
 30
0.0
 10
145.2825
 20
-79.5296
 30
0.0
 10
145.2825
 20
-79.5296
 30
0.0
 10
145.1891
 20
-78.8796
 30
0.0
 10
146.2228
 20
-77.6149
 30
0.0
 10
147.5163
 20
-76.7043
 30
0.0
 10
147.5163
 20
-76.7043
 30
0.0
 10
149.8825
 20
-75.0389
 30
0.0
 10
148.8623
 20
-74.3034
 30
0.0
 10
146.8126
 20
-73.354
 30
0.0
 10
146.8126
 20
-73.354
 30
0.0
 10
147.0559
 20
-72.4527
 30
0.0
 10
147.0054
 20
-71.4909
 30
0.0
 10
146.8774
 20
-70.7236
 30
0.0
 10
146.8774
 20
-70.7236
 30
0.0
 10
146.6379
 20
-69.2868
 30
0.0
 10
146.5535
 20
-68.7301
 30
0.0
 10
145.5279
 20
-69.9994
 30
0.0
 10
145.5279
 20
-69.9994
 30
0.0
 10
145.1559
 20
-70.4599
 30
0.0
 10
144.5374
 20
-71.3266
 30
0.0
 10
144.3298
 20
-72.4082
 30
0.0
 10
144.3298
 20
-72.4082
 30
0.0
 10
143.7185
 20
-72.9232
 30
0.0
 10
142.9189
 20
-72.9233
 30
0.0
 10
142.0354
 20
-73.1384
 30
0.0
 10
142.0354
 20
-73.1384
 30
0.0
 10
139.1023
 20
-73.8527
 30
0.0
 10
140.8695
 20
-74.873
 30
0.0
 10
141.562
 20
-76.5114
 30
0.0
 10
141.562
 20
-76.5114
 30
0.0
 10
141.9347
 20
-77.393
 30
0.0
 10
142.3111
 20
-79.4674
 30
0.0
 10
142.5428
 20
-81.2917
 30
0.0
 10
142.5428
 20
-81.2917
 30
0.0
 10
139.4714
 20
-82.4938
 30
0.0
 10
136.4123
 20
-85.4718
 30
0.0
 10
132.965
 20
-87.8683
 30
0.0
  0
SPLINE
  5
8C
330
1F
100
AcDbEntity
  8
layer 1
 62
     7
370
     9
100
AcDbSpline
210
0.0
220
0.0
230
1.0
 70
    11
 71
     3
 72
    72
 73
    68
 74
     0
 42
0.0000000001
 43
0.0000000001
 12
1.0
 22
0.0
 32
0.0
 13
1.0
 23
0.0
 33
0.0
 40
0.0
 40
0.0
 40
0.0
 40
0.0
 40
0.0555555555555556
 40
0.0555555555555556
 40
0.0555555555555556
 40
0.0555555555555556
 40
0.1111111111111111
 40
0.1111111111111111
 40
0.1111111111111111
 40
0.1111111111111111
 40
0.1666666666666667
 40
0.1666666666666667
 40
0.1666666666666667
 40
0.1666666666666667
 40
0.2222222222222222
 40
0.2222222222222222
 40
0.2222222222222222
 40
0.2222222222222222
 40
0.2777777777777778
 40
0.2777777777777778
 40
0.2777777777777778
 40
0.2777777777777778
 40
0.3333333333333333
 40
0.3333333333333333
 40
0.3333333333333333
 40
0.3333333333333333
 40
0.3888888888888889
 40
0.3888888888888889
 40
0.3888888888888889
 40
0.3888888888888889
 40
0.4444444444444444
 40
0.4444444444444444
 40
0.4444444444444444
 40
0.4444444444444444
 40
0.5
 40
0.5
 40
0.5
 40
0.5
 40
0.5555555555555556
 40
0.5555555555555556
 40
0.5555555555555556
 40
0.5555555555555556
 40
0.6111111111111112
 40
0.6111111111111112
 40
0.6111111111111112
 40
0.6111111111111112
 40
0.6666666666666666
 40
0.6666666666666666
 40
0.6666666666666666
 40
0.6666666666666666
 40
0.7222222222222222
 40
0.7222222222222222
 40
0.7222222222222222
 40
0.7222222222222222
 40
0.7777777777777778
 40
0.7777777777777778
 40
0.7777777777777778
 40
0.7777777777777778
 40
0.8333333333333334
 40
0.8333333333333334
 40
0.8333333333333334
 40
0.8333333333333334
 40
0.8888888888888888
 40
0.8888888888888888
 40
0.8888888888888888
 40
0.8888888888888888
 40
1.0
 40
1.0
 40
1.0
 40
1.0
 10
132.965
 20
-54.1671
 30
0.0
 10
132.965
 20
-54.1671
 30
0.0
 10
132.965
 20
-48.9426
 30
0.0
 10
132.965
 20
-48.9426
 30
0.0
 10
132.965
 20
-48.9426
 30
0.0
 10
136.3767
 20
-48.9213
 30
0.0
 10
143.2032
 20
-47.8635
 30
0.0
 10
144.3153
 20
-39.894
 30
0.0
 10
144.3153
 20
-39.894
 30
0.0
 10
145.0957
 20
-34.3011
 30
0.0
 10
137.9618
 20
-25.9145
 30
0.0
 10
132.965
 20
-26.1732
 30
0.0
 10
132.965
 20
-26.1732
 30
0.0
 10
132.965
 20
-26.1732
 30
0.0
 10
132.965
 20
-17.3912
 30
0.0
 10
132.965
 20
-17.3912
 30
0.0
 10
132.965
 20
-17.3912
 30
0.0
 10
134.2436
 20
-18.3688
 30
0.0
 10
137.4757
 20
-20.4127
 30
0.0
 10
139.134
 20
-17.5959
 30
0.0
 10
139.134
 20
-17.5959
 30
0.0
 10
139.6933
 20
-18.0815
 30
0.0
 10
142.2089
 20
-21.8043
 30
0.0
 10
143.0477
 20
-20.8331
 30
0.0
 10
143.0477
 20
-20.8331
 30
0.0
 10
142.768
 20
-22.4517
 30
0.0
 10
141.5102
 20
-28.7644
 30
0.0
 10
147.1007
 20
-29.8974
 30
0.0
 10
147.1007
 20
-29.8974
 30
0.0
 10
150.3153
 20
-26.4984
 30
0.0
 10
149.4768
 20
-24.394
 30
0.0
 10
149.4768
 20
-22.29
 30
0.0
 10
149.4768
 20
-22.29
 30
0.0
 10
151.154
 20
-23.9084
 30
0.0
 10
150.0358
 20
-34.2676
 30
0.0
 10
152.1322
 20
-40.0948
 30
0.0
 10
152.1322
 20
-40.0948
 30
0.0
 10
151.3986
 20
-40.2768
 30
0.0
 10
150.5666
 20
-40.5274
 30
0.0
 10
149.8128
 20
-40.7691
 30
0.0
 10
149.8128
 20
-40.7691
 30
0.0
 10
145.173
 20
-42.2591
 30
0.0
 10
149.631
 20
-43.7284
 30
0.0
 10
147.7996
 20
-44.7888
 30
0.0
 10
147.7996
 20
-44.7888
 30
0.0
 10
146.9609
 20
-45.2744
 30
0.0
 10
144.8646
 20
-44.7888
 30
0.0
 10
144.5851
 20
-45.5981
 30
0.0
 10
144.5851
 20
-45.5981
 30
0.0
 10
144.3054
 20
-46.4075
 30
0.0
 10
147.2405
 20
-49.321
 30
0.0
 10
148.778
 20
-48.1879
 30
0.0
 10
148.778
 20
-48.1879
 30
0.0
 10
150.5735
 20
-48.1879
 30
0.0
 10
148.6771
 20
-50.2313
 30
0.0
 10
152.1669
 20
-49.6258
 30
0.0
 10
152.1669
 20
-49.6258
 30
0.0
 10
153.558
 20
-49.3842
 30
0.0
 10
155.2334
 20
-49.0882
 30
0.0
 10
155.6264
 20
-48.9972
 30
0.0
 10
155.6264
 20
-48.9972
 30
0.0
 10
156.3253
 20
-48.8355
 30
0.0
 10
148.778
 20
-55.148
 30
0.0
 10
144.4453
 20
-55.4717
 30
0.0
 10
144.4453
 20
-55.4717
 30
0.0
 10
140.0844
 20
-55.7447
 30
0.0
 10
135.9226
 20
-56.2483
 30
0.0
 10
132.965
 20
-54.1671
 30
0.0
  0
SPLINE
  5
8D
330
1F
100
AcDbEntity
  8
layer 1
 62
     7
370
     9
100
AcDbSpline
210
0.0
220
0.0
230
1.0
 70
    11
 71
     3
 72
    36
 73
    32
 74
     0
 42
0.0000000001
 43
0.0000000001
 12
1.0
 22
0.0
 32
0.0
 13
1.0
 23
0.0
 33
0.0
 40
0.0
 40
0.0
 40
0.0
 40
0.0
 40
0.1111111111111111
 40
0.1111111111111111
 40
0.1111111111111111
 40
0.1111111111111111
 40
0.2222222222222222
 40
0.2222222222222222
 40
0.2222222222222222
 40
0.2222222222222222
 40
0.3333333333333333
 40
0.3333333333333333
 40
0.3333333333333333
 40
0.3333333333333333
 40
0.4444444444444444
 40
0.4444444444444444
 40
0.4444444444444444
 40
0.4444444444444444
 40
0.5555555555555556
 40
0.5555555555555556
 40
0.5555555555555556
 40
0.5555555555555556
 40
0.6666666666666666
 40
0.6666666666666666
 40
0.6666666666666666
 40
0.6666666666666666
 40
0.7777777777777778
 40
0.7777777777777778
 40
0.7777777777777778
 40
0.7777777777777778
 40
1.0
 40
1.0
 40
1.0
 40
1.0
 10
132.965
 20
-43.1357
 30
0.0
 10
132.965
 20
-43.1357
 30
0.0
 10
132.965
 20
-42.616
 30
0.0
 10
132.965
 20
-42.616
 30
0.0
 10
132.965
 20
-42.616
 30
0.0
 10
133.6496
 20
-42.41
 30
0.0
 10
135.5464
 20
-41.672
 30
0.0
 10
136.9653
 20
-39.535
 30
0.0
 10
136.9653
 20
-39.535
 30
0.0
 10
137.7547
 20
-38.3464
 30
0.0
 10
138.2452
 20
-37.6603
 30
0.0
 10
137.1053
 20
-36.5029
 30
0.0
 10
137.1053
 20
-36.5029
 30
0.0
 10
136.0039
 20
-35.385
 30
0.0
 10
134.1087
 20
-35.2679
 30
0.0
 10
132.965
 20
-35.3139
 30
0.0
 10
132.965
 20
-35.3139
 30
0.0
 10
132.965
 20
-35.3139
 30
0.0
 10
132.965
 20
-30.2113
 30
0.0
 10
132.965
 20
-30.2113
 30
0.0
 10
132.965
 20
-30.2113
 30
0.0
 10
134.8189
 20
-29.466
 30
0.0
 10
136.4756
 20
-29.8774
 30
0.0
 10
138.2286
 20
-31.2531
 30
0.0
 10
138.2286
 20
-31.2531
 30
0.0
 10
145.4564
 20
-36.9242
 30
0.0
 10
142.1933
 20
-45.453
 30
0.0
 10
135.7798
 20
-45.7601
 30
0.0
 10
135.7798
 20
-45.7601
 30
0.0
 10
134.6234
 20
-45.6383
 30
0.0
 10
133.4674
 20
-43.9603
 30
0.0
 10
132.965
 20
-43.1357
 30
0.0
  0
SPLINE
  5
8E
330
1F
100
AcDbEntity
  8
layer 1
 62
     7
370
     9
100
AcDbSpline
210
0.0
220
0.0
230
1.0
 70
    11
 71
     3
 72
   416
 73
   412
 74
     0
 42
0.0000000001
 43
0.0000000001
 12
1.0
 22
0.0
 32
0.0
 13
1.0
 23
0.0
 33
0.0
 40
0.0
 40
0.0
 40
0.0
 40
0.0
 40
0.0096153846153846
 40
0.0096153846153846
 40
0.0096153846153846
 40
0.0096153846153846
 40
0.0192307692307692
 40
0.0192307692307692
 40
0.0192307692307692
 40
0.0192307692307692
 40
0.0288461538461538
 40
0.0288461538461538
 40
0.0288461538461538
 40
0.0288461538461538
 40
0.0384615384615385
 40
0.0384615384615385
 40
0.0384615384615385
 40
0.0384615384615385
 40
0.0480769230769231
 40
0.0480769230769231
 40
0.0480769230769231
 40
0.0480769230769231
 40
0.0576923076923077
 40
0.0576923076923077
 40
0.0576923076923077
 40
0.0576923076923077
 40
0.0673076923076923
 40
0.0673076923076923
 40
0.0673076923076923
 40
0.0673076923076923
 40
0.0769230769230769
 40
0.0769230769230769
 40
0.0769230769230769
 40
0.0769230769230769
 40
0.0865384615384615
 40
0.0865384615384615
 40
0.0865384615384615
 40
0.0865384615384615
 40
0.0961538461538462
 40
0.0961538461538462
 40
0.0961538461538462
 40
0.0961538461538462
 40
0.1057692307692308
 40
0.1057692307692308
 40
0.1057692307692308
 40
0.1057692307692308
 40
0.1153846153846154
 40
0.1153846153846154
 40
0.1153846153846154
 40
0.1153846153846154
 40
0.125
 40
0.125
 40
0.125
 40
0.125
 40
0.1346153846153846
 40
0.1346153846153846
 40
0.1346153846153846
 40
0.1346153846153846
 40
0.1442307692307692
 40
0.1442307692307692
 40
0.1442307692307692
 40
0.1442307692307692
 40
0.1538461538461539
 40
0.1538461538461539
 40
0.1538461538461539
 40
0.1538461538461539
 40
0.1634615384615385
 40
0.1634615384615385
 40
0.1634615384615385
 40
0.1634615384615385
 40
0.1730769230769231
 40
0.1730769230769231
 40
0.1730769230769231
 40
0.1730769230769231
 40
0.1826923076923077
 40
0.1826923076923077
 40
0.1826923076923077
 40
0.1826923076923077
 40
0.1923076923076923
 40
0.1923076923076923
 40
0.1923076923076923
 40
0.1923076923076923
 40
0.2019230769230769
 40
0.2019230769230769
 40
0.2019230769230769
 40
0.2019230769230769
 40
0.2115384615384615
 40
0.2115384615384615
 40
0.2115384615384615
 40
0.2115384615384615
 40
0.2211538461538461
 40
0.2211538461538461
 40
0.2211538461538461
 40
0.2211538461538461
 40
0.2307692307692308
 40
0.2307692307692308
 40
0.2307692307692308
 40
0.2307692307692308
 40
0.2403846153846154
 40
0.2403846153846154
 40
0.2403846153846154
 40
0.2403846153846154
 40
0.25
 40
0.25
 40
0.25
 40
0.25
 40
0.2596153846153846
 40
0.2596153846153846
 40
0.2596153846153846
 40
0.2596153846153846
 40
0.2692307692307692
 40
0.2692307692307692
 40
0.2692307692307692
 40
0.2692307692307692
 40
0.2788461538461539
 40
0.2788461538461539
 40
0.2788461538461539
 40
0.2788461538461539
 40
0.2884615384615384
 40
0.2884615384615384
 40
0.2884615384615384
 40
0.2884615384615384
 40
0.2980769230769231
 40
0.2980769230769231
 40
0.2980769230769231
 40
0.2980769230769231
 40
0.3076923076923077
 40
0.3076923076923077
 40
0.3076923076923077
 40
0.3076923076923077
 40
0.3173076923076923
 40
0.3173076923076923
 40
0.3173076923076923
 40
0.3173076923076923
 40
0.3269230769230769
 40
0.3269230769230769
 40
0.3269230769230769
 40
0.3269230769230769
 40
0.3365384615384616
 40
0.3365384615384616
 40
0.3365384615384616
 40
0.3365384615384616
 40
0.3461538461538461
 40
0.3461538461538461
 40
0.3461538461538461
 40
0.3461538461538461
 40
0.3557692307692308
 40
0.3557692307692308
 40
0.3557692307692308
 40
0.3557692307692308
 40
0.3653846153846154
 40
0.3653846153846154
 40
0.3653846153846154
 40
0.3653846153846154
 40
0.375
 40
0.375
 40
0.375
 40
0.375
 40
0.3846153846153846
 40
0.3846153846153846
 40
0.3846153846153846
 40
0.3846153846153846
 40
0.3942307692307692
 40
0.3942307692307692
 40
0.3942307692307692
 40
0.3942307692307692
 40
0.4038461538461539
 40
0.4038461538461539
 40
0.4038461538461539
 40
0.4038461538461539
 40
0.4134615384615384
 40
0.4134615384615384
 40
0.4134615384615384
 40
0.4134615384615384
 40
0.4230769230769231
 40
0.4230769230769231
 40
0.4230769230769231
 40
0.4230769230769231
 40
0.4326923076923077
 40
0.4326923076923077
 40
0.4326923076923077
 40
0.4326923076923077
 40
0.4423076923076923
 40
0.4423076923076923
 40
0.4423076923076923
 40
0.4423076923076923
 40
0.4519230769230769
 40
0.4519230769230769
 40
0.4519230769230769
 40
0.4519230769230769
 40
0.4615384615384616
 40
0.4615384615384616
 40
0.4615384615384616
 40
0.4615384615384616
 40
0.4711538461538461
 40
0.4711538461538461
 40
0.4711538461538461
 40
0.4711538461538461
 40
0.4807692307692308
 40
0.4807692307692308
 40
0.4807692307692308
 40
0.4807692307692308
 40
0.4903846153846154
 40
0.4903846153846154
 40
0.4903846153846154
 40
0.4903846153846154
 40
0.5
 40
0.5
 40
0.5
 40
0.5
 40
0.5096153846153846
 40
0.5096153846153846
 40
0.5096153846153846
 40
0.5096153846153846
 40
0.5192307692307693
 40
0.5192307692307693
 40
0.5192307692307693
 40
0.5192307692307693
 40
0.5288461538461539
 40
0.5288461538461539
 40
0.5288461538461539
 40
0.5288461538461539
 40
0.5384615384615384
 40
0.5384615384615384
 40
0.5384615384615384
 40
0.5384615384615384
 40
0.5480769230769231
 40
0.5480769230769231
 40
0.5480769230769231
 40
0.5480769230769231
 40
0.5576923076923077
 40
0.5576923076923077
 40
0.5576923076923077
 40
0.5576923076923077
 40
0.5673076923076923
 40
0.5673076923076923
 40
0.5673076923076923
 40
0.5673076923076923
 40
0.5769230769230769
 40
0.5769230769230769
 40
0.5769230769230769
 40
0.5769230769230769
 40
0.5865384615384616
 40
0.5865384615384616
 40
0.5865384615384616
 40
0.5865384615384616
 40
0.5961538461538461
 40
0.5961538461538461
 40
0.5961538461538461
 40
0.5961538461538461
 40
0.6057692307692307
 40
0.6057692307692307
 40
0.6057692307692307
 40
0.6057692307692307
 40
0.6153846153846154
 40
0.6153846153846154
 40
0.6153846153846154
 40
0.6153846153846154
 40
0.625
 40
0.625
 40
0.625
 40
0.625
 40
0.6346153846153846
 40
0.6346153846153846
 40
0.6346153846153846
 40
0.6346153846153846
 40
0.6442307692307693
 40
0.6442307692307693
 40
0.6442307692307693
 40
0.6442307692307693
 40
0.6538461538461539
 40
0.6538461538461539
 40
0.6538461538461539
 40
0.6538461538461539
 40
0.6634615384615384
 40
0.6634615384615384
 40
0.6634615384615384
 40
0.6634615384615384
 40
0.6730769230769231
 40
0.6730769230769231
 40
0.6730769230769231
 40
0.6730769230769231
 40
0.6826923076923077
 40
0.6826923076923077
 40
0.6826923076923077
 40
0.6826923076923077
 40
0.6923076923076923
 40
0.6923076923076923
 40
0.6923076923076923
 40
0.6923076923076923
 40
0.7019230769230769
 40
0.7019230769230769
 40
0.7019230769230769
 40
0.7019230769230769
 40
0.7115384615384616
 40
0.7115384615384616
 40
0.7115384615384616
 40
0.7115384615384616
 40
0.7211538461538461
 40
0.7211538461538461
 40
0.7211538461538461
 40
0.7211538461538461
 40
0.7307692307692307
 40
0.7307692307692307
 40
0.7307692307692307
 40
0.7307692307692307
 40
0.7403846153846154
 40
0.7403846153846154
 40
0.7403846153846154
 40
0.7403846153846154
 40
0.75
 40
0.75
 40
0.75
 40
0.75
 40
0.7596153846153846
 40
0.7596153846153846
 40
0.7596153846153846
 40
0.7596153846153846
 40
0.7692307692307693
 40
0.7692307692307693
 40
0.7692307692307693
 40
0.7692307692307693
 40
0.7788461538461539
 40
0.7788461538461539
 40
0.7788461538461539
 40
0.7788461538461539
 40
0.7884615384615384
 40
0.7884615384615384
 40
0.7884615384615384
 40
0.7884615384615384
 40
0.7980769230769231
 40
0.7980769230769231
 40
0.7980769230769231
 40
0.7980769230769231
 40
0.8076923076923077
 40
0.8076923076923077
 40
0.8076923076923077
 40
0.8076923076923077
 40
0.8173076923076923
 40
0.8173076923076923
 40
0.8173076923076923
 40
0.8173076923076923
 40
0.8269230769230769
 40
0.8269230769230769
 40
0.8269230769230769
 40
0.8269230769230769
 40
0.8365384615384616
 40
0.8365384615384616
 40
0.8365384615384616
 40
0.8365384615384616
 40
0.8461538461538461
 40
0.8461538461538461
 40
0.8461538461538461
 40
0.8461538461538461
 40
0.8557692307692307
 40
0.8557692307692307
 40
0.8557692307692307
 40
0.8557692307692307
 40
0.8653846153846154
 40
0.8653846153846154
 40
0.8653846153846154
 40
0.8653846153846154
 40
0.875
 40
0.875
 40
0.875
 40
0.875
 40
0.8846153846153846
 40
0.8846153846153846
 40
0.8846153846153846
 40
0.8846153846153846
 40
0.8942307692307693
 40
0.8942307692307693
 40
0.8942307692307693
 40
0.8942307692307693
 40
0.9038461538461539
 40
0.9038461538461539
 40
0.9038461538461539
 40
0.9038461538461539
 40
0.9134615384615384
 40
0.9134615384615384
 40
0.9134615384615384
 40
0.9134615384615384
 40
0.9230769230769231
 40
0.9230769230769231
 40
0.9230769230769231
 40
0.9230769230769231
 40
0.9326923076923077
 40
0.9326923076923077
 40
0.9326923076923077
 40
0.9326923076923077
 40
0.9423076923076923
 40
0.9423076923076923
 40
0.9423076923076923
 40
0.9423076923076923
 40
0.9519230769230769
 40
0.9519230769230769
 40
0.9519230769230769
 40
0.9519230769230769
 40
0.9615384615384616
 40
0.9615384615384616
 40
0.9615384615384616
 40
0.9615384615384616
 40
0.9711538461538461
 40
0.9711538461538461
 40
0.9711538461538461
 40
0.9711538461538461
 40
0.9807692307692307
 40
0.9807692307692307
 40
0.9807692307692307
 40
0.9807692307692307
 40
1.0
 40
1.0
 40
1.0
 40
1.0
 10
132.965
 20
-10.1491
 30
0.0
 10
132.965
 20
-10.1491
 30
0.0
 10
132.965
 20
-1.1061
 30
0.0
 10
132.965
 20
-1.1061
 30
0.0
 10
132.965
 20
-1.1061
 30
0.0
 10
133.4916
 20
-0.8602
 30
0.0
 10
134.0471
 20
-0.6554
 30
0.0
 10
134.5217
 20
-0.6003
 30
0.0
 10
134.5217
 20
-0.6003
 30
0.0
 10
135.9195
 20
-0.4384
 30
0.0
 10
135.9195
 20
3.2843
 30
0.0
 10
135.9195
 20
4.2556
 30
0.0
 10
135.9195
 20
4.2556
 30
0.0
 10
135.9195
 20
4.9584
 30
0.0
 10
134.0169
 20
6.2539
 30
0.0
 10
132.965
 20
6.9167
 30
0.0
 10
132.965
 20
6.9167
 30
0.0
 10
132.965
 20
6.9167
 30
0.0
 10
132.965
 20
16.4934
 30
0.0
 10
132.965
 20
16.4934
 30
0.0
 10
132.965
 20
16.4934
 30
0.0
 10
133.1286
 20
16.6523
 30
0.0
 10
133.3198
 20
16.7353
 30
0.0
 10
133.5435
 20
16.7191
 30
0.0
 10
133.5435
 20
16.7191
 30
0.0
 10
136.6531
 20
9.0886
 30
0.0
 10
144.7378
 20
14.4256
 30
0.0
 10
143.7649
 20
20.1977
 30
0.0
 10
143.7649
 20
20.1977
 30
0.0
 10
143.3328
 20
22.7608
 30
0.0
 10
140.7238
 20
24.9621
 30
0.0
 10
138.4946
 20
24.0566
 30
0.0
 10
138.4946
 20
24.0566
 30
0.0
 10
137.2886
 20
23.5667
 30
0.0
 10
136.8576
 20
22.7026
 30
0.0
 10
136.8156
 20
21.8525
 30
0.0
 10
136.8156
 20
21.8525
 30
0.0
 10
136.6807
 20
19.1242
 30
0.0
 10
137.2767
 20
19.4884
 30
0.0
 10
138.3785
 20
21.0121
 30
0.0
 10
138.3785
 20
21.0121
 30
0.0
 10
139.184
 20
22.1265
 30
0.0
 10
140.993
 20
21.9504
 30
0.0
 10
141.6518
 20
20.9377
 30
0.0
 10
141.6518
 20
20.9377
 30
0.0
 10
143.5204
 20
18.0633
 30
0.0
 10
138.4123
 20
13.2729
 30
0.0
 10
135.6686
 20
16.8634
 30
0.0
 10
135.6686
 20
16.8634
 30
0.0
 10
133.7554
 20
19.3663
 30
0.0
 10
134.1159
 20
25.2222
 30
0.0
 10
136.7633
 20
26.7783
 30
0.0
 10
136.7633
 20
26.7783
 30
0.0
 10
138.0138
 20
27.5131
 30
0.0
 10
139.832
 20
26.0533
 30
0.0
 10
140.7754
 20
25.7803
 30
0.0
 10
140.7754
 20
25.7803
 30
0.0
 10
145.6173
 20
24.251
 30
0.0
 10
147.7684
 20
29.4638
 30
0.0
 10
148.7001
 20
23.4894
 30
0.0
 10
148.7001
 20
23.4894
 30
0.0
 10
149.2859
 20
19.733
 30
0.0
 10
150.6847
 20
19.1653
 30
0.0
 10
147.9965
 20
16.1418
 30
0.0
 10
147.9965
 20
16.1418
 30
0.0
 10
144.0837
 20
11.7415
 30
0.0
 10
146.2622
 20
9.5969
 30
0.0
 10
146.2622
 20
9.5969
 30
0.0
 10
146.2622
 20
9.5969
 30
0.0
 10
146.2622
 20
9.5969
 30
0.0
 10
148.9177
 20
10.8919
 30
0.0
 10
148.9177
 20
10.8919
 30
0.0
 10
148.9177
 20
10.8919
 30
0.0
 10
148.9177
 20
10.8919
 30
0.0
 10
148.9177
 20
9.5969
 30
0.0
 10
151.0143
 20
8.9496
 30
0.0
 10
151.0143
 20
8.9496
 30
0.0
 10
152.3769
 20
9.3441
 30
0.0
 10
152.7015
 20
11.602
 30
0.0
 10
152.7474
 20
13.3057
 30
0.0
 10
152.7474
 20
13.3057
 30
0.0
 10
152.8175
 20
15.9307
 30
0.0
 10
152.2111
 20
15.3415
 30
0.0
 10
154.9417
 20
14.7995
 30
0.0
 10
154.9417
 20
14.7995
 30
0.0
 10
155.6862
 20
14.6515
 30
0.0
 10
156.6597
 20
14.4607
 30
0.0
 10
157.9218
 20
14.218
 30
0.0
 10
157.9218
 20
14.218
 30
0.0
 10
162.0088
 20
14.0843
 30
0.0
 10
164.3731
 20
15.1265
 30
0.0
 10
166.6169
 20
18.8648
 30
0.0
 10
166.6169
 20
18.8648
 30
0.0
 10
169.9245
 20
24.3761
 30
0.0
 10
168.177
 20
35.5324
 30
0.0
 10
160.0518
 20
34.8002
 30
0.0
 10
160.0518
 20
34.8002
 30
0.0
 10
157.1945
 20
34.5429
 30
0.0
 10
154.5979
 20
30.6168
 30
0.0
 10
154.4394
 20
27.491
 30
0.0
 10
154.4394
 20
27.491
 30
0.0
 10
154.2487
 20
23.7411
 30
0.0
 10
156.8626
 20
21.939
 30
0.0
 10
158.282
 20
20.9275
 30
0.0
 10
158.282
 20
20.9275
 30
0.0
 10
159.5895
 20
19.9956
 30
0.0
 10
164.0136
 20
22.0712
 30
0.0
 10
160.4177
 20
23.8475
 30
0.0
 10
160.4177
 20
23.8475
 30
0.0
 10
158.1856
 20
24.95
 30
0.0
 10
156.9594
 20
25.6494
 30
0.0
 10
157.1659
 20
27.5894
 30
0.0
 10
157.1659
 20
27.5894
 30
0.0
 10
157.6871
 20
32.4956
 30
0.0
 10
163.2778
 20
33.2648
 30
0.0
 10
165.0651
 20
29.0864
 30
0.0
 10
165.0651
 20
29.0864
 30
0.0
 10
166.6162
 20
25.4597
 30
0.0
 10
165.4814
 20
21.7241
 30
0.0
 10
162.9371
 20
19.41
 30
0.0
 10
162.9371
 20
19.41
 30
0.0
 10
159.8705
 20
16.6202
 30
0.0
 10
157.2353
 20
17.1628
 30
0.0
 10
154.9276
 20
19.02
 30
0.0
 10
154.9276
 20
19.02
 30
0.0
 10
150.4903
 20
22.5914
 30
0.0
 10
150.2203
 20
29.289
 30
0.0
 10
152.0706
 20
34.8208
 30
0.0
 10
152.0706
 20
34.8208
 30
0.0
 10
153.7385
 20
39.8071
 30
0.0
 10
157.5462
 20
41.3346
 30
0.0
 10
161.7547
 20
42.7483
 30
0.0
 10
161.7547
 20
42.7483
 30
0.0
 10
164.2535
 20
43.5873
 30
0.0
 10
165.2267
 20
43.8501
 30
0.0
 10
167.8578
 20
43.3726
 30
0.0
 10
167.8578
 20
43.3726
 30
0.0
 10
174.5866
 20
42.1509
 30
0.0
 10
182.741
 20
38.3908
 30
0.0
 10
182.741
 20
36.3044
 30
0.0
 10
182.741
 20
36.3044
 30
0.0
 10
175.8924
 20
40.6746
 30
0.0
 10
167.5066
 20
36.7899
 30
0.0
 10
167.9258
 20
35.0096
 30
0.0
 10
167.9258
 20
35.0096
 30
0.0
 10
172.8175
 20
33.391
 30
0.0
 10
170.7212
 20
30.963
 30
0.0
 10
170.7212
 20
30.963
 30
0.0
 10
170.7212
 20
30.963
 30
0.0
 10
170.7212
 20
30.963
 30
0.0
 10
172.1188
 20
30.801
 30
0.0
 10
175.7526
 20
29.506
 30
0.0
 10
175.7526
 20
29.506
 30
0.0
 10
174.0058
 20
26.9773
 30
0.0
 10
176.012
 20
19.8046
 30
0.0
 10
176.9734
 20
16.7878
 30
0.0
 10
176.9734
 20
16.7878
 30
0.0
 10
177.3453
 20
15.6208
 30
0.0
 10
177.5915
 20
15.1829
 30
0.0
 10
177.5592
 20
13.9669
 30
0.0
 10
177.5592
 20
13.9669
 30
0.0
 10
177.5321
 20
12.9606
 30
0.0
 10
177.2769
 20
11.5444
 30
0.0
 10
176.3119
 20
10.0826
 30
0.0
 10
176.3119
 20
10.0826
 30
0.0
 10
174.2153
 20
7.3309
 30
0.0
 10
171.0006
 20
9.5969
 30
0.0
 10
170.3019
 20
12.0249
 30
0.0
 10
170.3019
 20
12.0249
 30
0.0
 10
170.0989
 20
13.9065
 30
0.0
 10
170.7043
 20
14.6492
 30
0.0
 10
171.4054
 20
14.6828
 30
0.0
 10
171.4054
 20
14.6828
 30
0.0
 10
173.1019
 20
14.7644
 30
0.0
 10
173.6083
 20
14.6327
 30
0.0
 10
173.6891
 20
12.8499
 30
0.0
 10
173.6891
 20
12.8499
 30
0.0
 10
174.6901
 20
9.7874
 30
0.0
 10
177.1546
 20
13.1318
 30
0.0
 10
175.1389
 20
15.5491
 30
0.0
 10
175.1389
 20
15.5491
 30
0.0
 10
172.9868
 20
18.1305
 30
0.0
 10
169.8996
 20
17.4427
 30
0.0
 10
168.7205
 20
14.241
 30
0.0
 10
168.7205
 20
14.241
 30
0.0
 10
167.4717
 20
10.8505
 30
0.0
 10
169.8347
 20
6.8434
 30
0.0
 10
173.1108
 20
6.1522
 30
0.0
 10
173.1108
 20
6.1522
 30
0.0
 10
177.2831
 20
5.2718
 30
0.0
 10
178.5502
 20
7.75
 30
0.0
 10
179.5003
 20
10.9137
 30
0.0
 10
179.5003
 20
10.9137
 30
0.0
 10
179.8997
 20
12.2444
 30
0.0
 10
179.6024
 20
14.0111
 30
0.0
 10
180.92
 20
12.667
 30
0.0
 10
180.92
 20
12.667
 30
0.0
 10
184.8748
 20
10.7625
 30
0.0
 10
188.8208
 20
12.2578
 30
0.0
 10
189.869
 20
13.3199
 30
0.0
 10
189.869
 20
13.3199
 30
0.0
 10
190.4683
 20
13.927
 30
0.0
 10
191.3475
 20
13.9754
 30
0.0
 10
191.9279
 20
13.0685
 30
0.0
 10
191.9279
 20
13.0685
 30
0.0
 10
191.9279
 20
13.0685
 30
0.0
 10
191.9279
 20
8.1833
 30
0.0
 10
191.9279
 20
8.1833
 30
0.0
 10
191.9279
 20
8.1833
 30
0.0
 10
186.8229
 20
6.7061
 30
0.0
 10
183.6766
 20
-0.5873
 30
0.0
 10
186.5084
 20
-5.8382
 30
0.0
 10
186.5084
 20
-5.8382
 30
0.0
 10
188.1034
 20
-8.7962
 30
0.0
 10
190.8474
 20
-10.6359
 30
0.0
 10
190.8474
 20
-10.6359
 30
0.0
 10
190.8474
 20
-10.6359
 30
0.0
 10
185.2568
 20
-15.9772
 30
0.0
 10
190.9872
 20
-19.5382
 30
0.0
 10
190.9872
 20
-19.5382
 30
0.0
 10
190.9872
 20
-19.5382
 30
0.0
 10
190.9872
 20
-19.5382
 30
0.0
 10
191.127
 20
-21.6425
 30
0.0
 10
191.127
 20
-21.6425
 30
0.0
 10
191.127
 20
-21.6425
 30
0.0
 10
189.122
 20
-21.5414
 30
0.0
 10
181.8159
 20
-20.9314
 30
0.0
 10
181.9637
 20
-23.974
 30
0.0
 10
181.9637
 20
-23.974
 30
0.0
 10
182.1184
 20
-27.1364
 30
0.0
 10
185.5855
 20
-27.1978
 30
0.0
 10
189.7292
 20
-29.0881
 30
0.0
 10
189.7292
 20
-29.0881
 30
0.0
 10
182.8808
 20
-33.944
 30
0.0
 10
177.4299
 20
-31.1922
 30
0.0
 10
175.3335
 20
-27.4695
 30
0.0
 10
175.3335
 20
-27.4695
 30
0.0
 10
174.4947
 20
-24.7988
 30
0.0
 10
174.639
 20
-22.7198
 30
0.0
 10
175.1466
 20
-21.1644
 30
0.0
 10
175.1466
 20
-21.1644
 30
0.0
 10
177.1869
 20
-14.9134
 30
0.0
 10
183.0147
 20
-14.9839
 30
0.0
 10
187.4932
 20
-17.9195
 30
0.0
 10
187.4932
 20
-17.9195
 30
0.0
 10
187.4932
 20
-17.9195
 30
0.0
 10
187.4932
 20
-17.1104
 30
0.0
 10
187.3531
 20
-15.1678
 30
0.0
 10
187.3531
 20
-15.1678
 30
0.0
 10
187.2135
 20
-13.2256
 30
0.0
 10
182.3216
 20
-12.2546
 30
0.0
 10
182.3216
 20
-12.2546
 30
0.0
 10
182.3216
 20
-12.2546
 30
0.0
 10
182.3216
 20
-12.2546
 30
0.0
 10
182.741
 20
-9.6646
 30
0.0
 10
181.7626
 20
-5.1325
 30
0.0
 10
181.7626
 20
-5.1325
 30
0.0
 10
180.0855
 20
-0.6003
 30
0.0
 10
175.7526
 20
-4.9706
 30
0.0
 10
175.7526
 20
-4.9706
 30
0.0
 10
175.7526
 20
-4.9706
 30
0.0
 10
173.5614
 20
7.7191
 30
0.0
 10
156.5501
 20
7.2525
 30
0.0
 10
155.2549
 20
-4.4599
 30
0.0
 10
155.2549
 20
-4.4599
 30
0.0
 10
154.8351
 20
-8.256
 30
0.0
 10
157.1943
 20
-12.6759
 30
0.0
 10
160.2367
 20
-12.6809
 30
0.0
 10
160.2367
 20
-12.6809
 30
0.0
 10
163.027
 20
-12.6856
 30
0.0
 10
164.6924
 20
-10.3508
 30
0.0
 10
165.1029
 20
-7.5174
 30
0.0
 10
165.1029
 20
-7.5174
 30
0.0
 10
165.3952
 20
-5.5013
 30
0.0
 10
164.9867
 20
-3.7505
 30
0.0
 10
163.7787
 20
-2.7906
 30
0.0
 10
163.7787
 20
-2.7906
 30
0.0
 10
161.8578
 20
-1.2643
 30
0.0
 10
159.5554
 20
-2.9674
 30
0.0
 10
159.0996
 20
-5.3129
 30
0.0
 10
159.0996
 20
-5.3129
 30
0.0
 10
158.6466
 20
-7.639
 30
0.0
 10
160.7213
 20
-8.4771
 30
0.0
 10
161.3329
 20
-6.9933
 30
0.0
 10
161.3329
 20
-6.9933
 30
0.0
 10
161.7854
 20
-5.895
 30
0.0
 10
161.4345
 20
-5.4545
 30
0.0
 10
161.96
 20
-5.245
 30
0.0
 10
161.96
 20
-5.245
 30
0.0
 10
163.5139
 20
-4.626
 30
0.0
 10
163.6337
 20
-7.4613
 30
0.0
 10
162.8272
 20
-8.6484
 30
0.0
 10
162.8272
 20
-8.6484
 30
0.0
 10
162.0031
 20
-9.8611
 30
0.0
 10
160.5099
 20
-10.7591
 30
0.0
 10
158.9047
 20
-9.7679
 30
0.0
 10
158.9047
 20
-9.7679
 30
0.0
 10
156.7877
 20
-7.3099
 30
0.0
 10
157.2791
 20
-3.8571
 30
0.0
 10
158.9417
 20
-1.7504
 30
0.0
 10
158.9417
 20
-1.7504
 30
0.0
 10
159.9144
 20
-0.518
 30
0.0
 10
161.2946
 20
0.796
 30
0.0
 10
162.7108
 20
1.1749
 30
0.0
 10
162.7108
 20
1.1749
 30
0.0
 10
165.3392
 20
1.8785
 30
0.0
 10
169.1218
 20
0.9047
 30
0.0
 10
172.1188
 20
-2.219
 30
0.0
 10
172.1188
 20
-2.219
 30
0.0
 10
176.3119
 20
-6.7512
 30
0.0
 10
174.6345
 20
-12.9018
 30
0.0
 10
174.6345
 20
-12.9018
 30
0.0
 10
174.6345
 20
-12.9018
 30
0.0
 10
174.6345
 20
-12.9018
 30
0.0
 10
171.8629
 20
-9.8206
 30
0.0
 10
168.6894
 20
-8.9177
 30
0.0
 10
168.6894
 20
-8.9177
 30
0.0
 10
163.6246
 20
-7.477
 30
0.0
 10
161.8871
 20
-19.6591
 30
0.0
 10
165.5499
 20
-19.3763
 30
0.0
 10
165.5499
 20
-19.3763
 30
0.0
 10
165.5499
 20
-19.3763
 30
0.0
 10
166.2486
 20
-18.8908
 30
0.0
 10
166.6678
 20
-14.8441
 30
0.0
 10
166.6678
 20
-14.8441
 30
0.0
 10
169.603
 20
-9.3409
 30
0.0
 10
172.3984
 20
-14.8441
 30
0.0
 10
173.5165
 20
-18.4052
 30
0.0
 10
173.5165
 20
-18.4052
 30
0.0
 10
173.6562
 20
-21.4806
 30
0.0
 10
173.0971
 20
-22.9373
 30
0.0
 10
171.6996
 20
-22.6137
 30
0.0
 10
171.6996
 20
-22.6137
 30
0.0
 10
170.5814
 20
-20.8331
 30
0.0
 10
168.6246
 20
-22.128
 30
0.0
 10
167.227
 20
-22.7755
 30
0.0
 10
167.227
 20
-22.7755
 30
0.0
 10
165.8293
 20
-23.423
 30
0.0
 10
167.0873
 20
-24.2323
 30
0.0
 10
168.7644
 20
-25.3653
 30
0.0
 10
168.7644
 20
-25.3653
 30
0.0
 10
168.2053
 20
-28.2787
 30
0.0
 10
170.1621
 20
-28.7644
 30
0.0
 10
173.3768
 20
-30.3829
 30
0.0
 10
173.3768
 20
-30.3829
 30
0.0
 10
174.9141
 20
-34.4296
 30
0.0
 10
182.6011
 20
-37.0194
 30
0.0
 10
182.6011
 20
-37.0194
 30
0.0
 10
182.6011
 20
-37.0194
 30
0.0
 10
182.6011
 20
-37.0194
 30
0.0
 10
173.5165
 20
-40.0948
 30
0.0
 10
164.2919
 20
-42.1991
 30
0.0
 10
164.2919
 20
-42.1991
 30
0.0
 10
157.1225
 20
-43.934
 30
0.0
 10
155.524
 20
-41.7789
 30
0.0
 10
154.4158
 20
-38.2032
 30
0.0
 10
154.4158
 20
-38.2032
 30
0.0
 10
150.2429
 20
-24.7418
 30
0.0
 10
163.6101
 20
-22.0117
 30
0.0
 10
166.1136
 20
-29.81
 30
0.0
 10
166.1136
 20
-29.81
 30
0.0
 10
167.1372
 20
-32.9994
 30
0.0
 10
162.8765
 20
-40.8236
 30
0.0
 10
167.2619
 20
-39.2702
 30
0.0
 10
167.2619
 20
-39.2702
 30
0.0
 10
171.1666
 20
-31.1081
 30
0.0
 10
167.1179
 20
-21.2956
 30
0.0
 10
158.7341
 20
-21.5151
 30
0.0
 10
158.7341
 20
-21.5151
 30
0.0
 10
156.9288
 20
-21.5622
 30
0.0
 10
156.919
 20
-19.4136
 30
0.0
 10
156.8415
 20
-16.9761
 30
0.0
 10
156.8415
 20
-16.9761
 30
0.0
 10
156.7248
 20
-13.3151
 30
0.0
 10
155.2876
 20
-11.0051
 30
0.0
 10
153.6762
 20
-8.6476
 30
0.0
 10
153.6762
 20
-8.6476
 30
0.0
 10
151.9621
 20
-6.1399
 30
0.0
 10
139.779
 20
8.7001
 30
0.0
 10
145.0042
 20
-5.1325
 30
0.0
 10
145.0042
 20
-5.1325
 30
0.0
 10
142.9079
 20
-6.4677
 30
0.0
 10
141.1878
 20
-7.3158
 30
0.0
 10
139.9111
 20
-5.9213
 30
0.0
 10
139.9111
 20
-5.9213
 30
0.0
 10
138.9186
 20
-4.8373
 30
0.0
 10
138.245
 20
-2.7616
 30
0.0
 10
139.3226
 20
-1.4529
 30
0.0
 10
139.3226
 20
-1.4529
 30
0.0
 10
139.6244
 20
-1.0864
 30
0.0
 10
140.0195
 20
-0.9286
 30
0.0
 10
140.42
 20
-0.8854
 30
0.0
 10
140.42
 20
-0.8854
 30
0.0
 10
141.3013
 20
-0.7901
 30
0.0
 10
142.2089
 20
-1.2477
 30
0.0
 10
142.2089
 20
-1.2477
 30
0.0
 10
142.2089
 20
-1.2477
 30
0.0
 10
142.2089
 20
-1.2477
 30
0.0
 10
142.5473
 20
0.8427
 30
0.0
 10
140.2846
 20
1.5021
 30
0.0
 10
140.2846
 20
1.5021
 30
0.0
 10
139.0712
 20
1.8552
 30
0.0
 10
138.2335
 20
1.0522
 30
0.0
 10
137.452
 20
0.0037
 30
0.0
 10
137.452
 20
0.0037
 30
0.0
 10
134.5085
 20
-3.9436
 30
0.0
 10
139.5534
 20
-9.6646
 30
0.0
 10
139.5534
 20
-9.6646
 30
0.0
 10
139.5534
 20
-9.6646
 30
0.0
 10
139.5534
 20
-9.6646
 30
0.0
 10
132.965
 20
-10.1491
 30
0.0
 10
132.965
 20
-10.1491
 30
0.0
  0
SPLINE
  5
8F
330
1F
100
AcDbEntity
  8
layer 1
 62
     7
370
     9
100
AcDbSpline
210
0.0
220
0.0
230
1.0
 70
    11
 71
     3
 72
    40
 73
    36
 74
     0
 42
0.0000000001
 43
0.0000000001
 12
1.0
 22
0.0
 32
0.0
 13
1.0
 23
0.0
 33
0.0
 40
0.0
 40
0.0
 40
0.0
 40
0.0
 40
0.1
 40
0.1
 40
0.1
 40
0.1
 40
0.2
 40
0.2
 40
0.2
 40
0.2
 40
0.3
 40
0.3
 40
0.3
 40
0.3
 40
0.4
 40
0.4
 40
0.4
 40
0.4
 40
0.5
 40
0.5
 40
0.5
 40
0.5
 40
0.6
 40
0.6
 40
0.6
 40
0.6
 40
0.7
 40
0.7
 40
0.7
 40
0.7
 40
0.8
 40
0.8
 40
0.8
 40
0.8
 40
1.0
 40
1.0
 40
1.0
 40
1.0
 10
132.965
 20
34.3182
 30
0.0
 10
132.965
 20
34.3182
 30
0.0
 10
132.965
 20
48.8317
 30
0.0
 10
132.965
 20
48.8317
 30
0.0
 10
132.965
 20
48.8317
 30
0.0
 10
134.4894
 20
51.9531
 30
0.0
 10
137.3366
 20
54.572
 30
0.0
 10
142.3025
 20
55.4801
 30
0.0
 10
142.3025
 20
55.4801
 30
0.0
 10
142.3025
 20
55.4801
 30
0.0
 10
150.0379
 20
57.1013
 30
0.0
 10
153.2057
 20
53.5177
 30
0.0
 10
153.2057
 20
53.5177
 30
0.0
 10
155.5632
 20
51.0436
 30
0.0
 10
159.3204
 20
46.0098
 30
0.0
 10
159.3204
 20
46.0098
 30
0.0
 10
159.3204
 20
46.0098
 30
0.0
 10
159.3204
 20
46.0098
 30
0.0
 10
149.0065
 20
51.2143
 30
0.0
 10
143.9967
 20
44.8153
 30
0.0
 10
143.9967
 20
44.8153
 30
0.0
 10
143.6286
 20
47.8014
 30
0.0
 10
141.4184
 20
49.2519
 30
0.0
 10
141.1237
 20
44.986
 30
0.0
 10
141.1237
 20
44.986
 30
0.0
 10
141.7868
 20
41.0613
 30
0.0
 10
141.4184
 20
36.7953
 30
0.0
 10
147.9014
 20
34.4065
 30
0.0
 10
147.9014
 20
34.4065
 30
0.0
 10
148.4172
 20
33.8946
 30
0.0
 10
148.7119
 20
32.9562
 30
0.0
 10
148.7119
 20
32.9562
 30
0.0
 10
148.7119
 20
32.9562
 30
0.0
 10
148.7119
 20
32.9562
 30
0.0
 10
139.5669
 20
23.3382
 30
0.0
 10
132.965
 20
34.3182
 30
0.0
  0
SPLINE
  5
90
330
1F
100
AcDbEntity
  8
layer 1
 62
     7
370
     9
100
AcDbSpline
210
0.0
220
0.0
230
1.0
 70
    11
 71
     3
 72
   184
 73
   180
 74
     0
 42
0.0000000001
 43
0.0000000001
 12
1.0
 22
0.0
 32
0.0
 13
1.0
 23
0.0
 33
0.0
 40
0.0
 40
0.0
 40
0.0
 40
0.0
 40
0.0217391304347826
 40
0.0217391304347826
 40
0.0217391304347826
 40
0.0217391304347826
 40
0.0434782608695652
 40
0.0434782608695652
 40
0.0434782608695652
 40
0.0434782608695652
 40
0.0652173913043478
 40
0.0652173913043478
 40
0.0652173913043478
 40
0.0652173913043478
 40
0.0869565217391304
 40
0.0869565217391304
 40
0.0869565217391304
 40
0.0869565217391304
 40
0.108695652173913
 40
0.108695652173913
 40
0.108695652173913
 40
0.108695652173913
 40
0.1304347826086956
 40
0.1304347826086956
 40
0.1304347826086956
 40
0.1304347826086956
 40
0.1521739130434783
 40
0.1521739130434783
 40
0.1521739130434783
 40
0.1521739130434783
 40
0.1739130434782609
 40
0.1739130434782609
 40
0.1739130434782609
 40
0.1739130434782609
 40
0.1956521739130435
 40
0.1956521739130435
 40
0.1956521739130435
 40
0.1956521739130435
 40
0.2173913043478261
 40
0.2173913043478261
 40
0.2173913043478261
 40
0.2173913043478261
 40
0.2391304347826087
 40
0.2391304347826087
 40
0.2391304347826087
 40
0.2391304347826087
 40
0.2608695652173913
 40
0.2608695652173913
 40
0.2608695652173913
 40
0.2608695652173913
 40
0.2826086956521739
 40
0.2826086956521739
 40
0.2826086956521739
 40
0.2826086956521739
 40
0.3043478260869565
 40
0.3043478260869565
 40
0.3043478260869565
 40
0.3043478260869565
 40
0.3260869565217391
 40
0.3260869565217391
 40
0.3260869565217391
 40
0.3260869565217391
 40
0.3478260869565217
 40
0.3478260869565217
 40
0.3478260869565217
 40
0.3478260869565217
 40
0.3695652173913043
 40
0.3695652173913043
 40
0.3695652173913043
 40
0.3695652173913043
 40
0.391304347826087
 40
0.391304347826087
 40
0.391304347826087
 40
0.391304347826087
 40
0.4130434782608696
 40
0.4130434782608696
 40
0.4130434782608696
 40
0.4130434782608696
 40
0.4347826086956522
 40
0.4347826086956522
 40
0.4347826086956522
 40
0.4347826086956522
 40
0.4565217391304348
 40
0.4565217391304348
 40
0.4565217391304348
 40
0.4565217391304348
 40
0.4782608695652174
 40
0.4782608695652174
 40
0.4782608695652174
 40
0.4782608695652174
 40
0.5
 40
0.5
 40
0.5
 40
0.5
 40
0.5217391304347826
 40
0.5217391304347826
 40
0.5217391304347826
 40
0.5217391304347826
 40
0.5434782608695652
 40
0.5434782608695652
 40
0.5434782608695652
 40
0.5434782608695652
 40
0.5652173913043478
 40
0.5652173913043478
 40
0.5652173913043478
 40
0.5652173913043478
 40
0.5869565217391305
 40
0.5869565217391305
 40
0.5869565217391305
 40
0.5869565217391305
 40
0.6086956521739131
 40
0.6086956521739131
 40
0.6086956521739131
 40
0.6086956521739131
 40
0.6304347826086957
 40
0.6304347826086957
 40
0.6304347826086957
 40
0.6304347826086957
 40
0.6521739130434783
 40
0.6521739130434783
 40
0.6521739130434783
 40
0.6521739130434783
 40
0.6739130434782609
 40
0.6739130434782609
 40
0.6739130434782609
 40
0.6739130434782609
 40
0.6956521739130435
 40
0.6956521739130435
 40
0.6956521739130435
 40
0.6956521739130435
 40
0.717391304347826
 40
0.717391304347826
 40
0.717391304347826
 40
0.717391304347826
 40
0.7391304347826086
 40
0.7391304347826086
 40
0.7391304347826086
 40
0.7391304347826086
 40
0.7608695652173914
 40
0.7608695652173914
 40
0.7608695652173914
 40
0.7608695652173914
 40
0.782608695652174
 40
0.782608695652174
 40
0.782608695652174
 40
0.782608695652174
 40
0.8043478260869565
 40
0.8043478260869565
 40
0.8043478260869565
 40
0.8043478260869565
 40
0.8260869565217391
 40
0.8260869565217391
 40
0.8260869565217391
 40
0.8260869565217391
 40
0.8478260869565217
 40
0.8478260869565217
 40
0.8478260869565217
 40
0.8478260869565217
 40
0.8695652173913043
 40
0.8695652173913043
 40
0.8695652173913043
 40
0.8695652173913043
 40
0.8913043478260869
 40
0.8913043478260869
 40
0.8913043478260869
 40
0.8913043478260869
 40
0.9130434782608695
 40
0.9130434782608695
 40
0.9130434782608695
 40
0.9130434782608695
 40
0.9347826086956522
 40
0.9347826086956522
 40
0.9347826086956522
 40
0.9347826086956522
 40
0.9565217391304348
 40
0.9565217391304348
 40
0.9565217391304348
 40
0.9565217391304348
 40
1.0
 40
1.0
 40
1.0
 40
1.0
 10
132.965
 20
53.5722
 30
0.0
 10
132.965
 20
53.5722
 30
0.0
 10
132.965
 20
62.1298
 30
0.0
 10
132.965
 20
62.1298
 30
0.0
 10
132.965
 20
62.1298
 30
0.0
 10
135.1364
 20
64.843
 30
0.0
 10
134.8557
 20
67.1292
 30
0.0
 10
134.512
 20
68.6219
 30
0.0
 10
134.512
 20
68.6219
 30
0.0
 10
134.3351
 20
69.1549
 30
0.0
 10
133.7247
 20
69.6754
 30
0.0
 10
132.965
 20
70.2753
 30
0.0
 10
132.965
 20
70.2753
 30
0.0
 10
132.965
 20
70.2753
 30
0.0
 10
132.965
 20
77.5273
 30
0.0
 10
132.965
 20
77.5273
 30
0.0
 10
132.965
 20
77.5273
 30
0.0
 10
139.1893
 20
78.6666
 30
0.0
 10
148.8633
 20
81.2588
 30
0.0
 10
148.8633
 20
81.2588
 30
0.0
 10
148.8633
 20
81.2588
 30
0.0
 10
148.8633
 20
81.2588
 30
0.0
 10
148.3888
 20
79.8853
 30
0.0
 10
149.3377
 20
78.0996
 30
0.0
 10
149.3377
 20
78.0996
 30
0.0
 10
153.007
 20
77.4623
 30
0.0
 10
154.8316
 20
79.3719
 30
0.0
 10
156.0735
 20
80.7784
 30
0.0
 10
156.0735
 20
80.7784
 30
0.0
 10
157.0931
 20
81.9332
 30
0.0
 10
156.8735
 20
82.1737
 30
0.0
 10
157.3149
 20
80.6701
 30
0.0
 10
157.3149
 20
80.6701
 30
0.0
 10
158.1263
 20
77.9054
 30
0.0
 10
159.5376
 20
77.6875
 30
0.0
 10
159.5376
 20
77.6875
 30
0.0
 10
159.5376
 20
77.6875
 30
0.0
 10
159.5376
 20
77.6875
 30
0.0
 10
158.9447
 20
80.2973
 30
0.0
 10
160.0121
 20
81.2588
 30
0.0
 10
160.0121
 20
81.2588
 30
0.0
 10
160.0121
 20
80.3636
 30
0.0
 10
160.9568
 20
79.4679
 30
0.0
 10
163.424
 20
78.4985
 30
0.0
 10
163.424
 20
78.4985
 30
0.0
 10
165.8641
 20
77.5395
 30
0.0
 10
168.4629
 20
77.5204
 30
0.0
 10
169.6897
 20
80.59
 30
0.0
 10
169.6897
 20
80.59
 30
0.0
 10
171.16
 20
84.2675
 30
0.0
 10
170.9292
 20
88.896
 30
0.0
 10
166.5997
 20
89.8354
 30
0.0
 10
166.5997
 20
89.8354
 30
0.0
 10
165.554
 20
90.0625
 30
0.0
 10
164.7228
 20
89.5066
 30
0.0
 10
164.4465
 20
88.678
 30
0.0
 10
164.4465
 20
88.678
 30
0.0
 10
163.7576
 20
86.6123
 30
0.0
 10
165.2395
 20
86.2609
 30
0.0
 10
166.5221
 20
85.8874
 30
0.0
 10
166.5221
 20
85.8874
 30
0.0
 10
167.6835
 20
85.5492
 30
0.0
 10
168.246
 20
85.172
 30
0.0
 10
168.3755
 20
83.63
 30
0.0
 10
168.3755
 20
83.63
 30
0.0
 10
168.575
 20
81.256
 30
0.0
 10
165.5088
 20
80.611
 30
0.0
 10
163.1411
 20
81.3658
 30
0.0
 10
163.1411
 20
81.3658
 30
0.0
 10
160.2474
 20
82.2888
 30
0.0
 10
159.0041
 20
86.9435
 30
0.0
 10
161.6725
 20
91.1485
 30
0.0
 10
161.6725
 20
91.1485
 30
0.0
 10
165.554
 20
95.6437
 30
0.0
 10
186.1885
 20
100.0441
 30
0.0
 10
190.5622
 20
95.5394
 30
0.0
 10
190.5622
 20
95.5394
 30
0.0
 10
191.0055
 20
95.0829
 30
0.0
 10
191.4745
 20
94.5282
 30
0.0
 10
191.9279
 20
93.8706
 30
0.0
 10
191.9279
 20
93.8706
 30
0.0
 10
191.9279
 20
93.8706
 30
0.0
 10
191.9279
 20
76.3531
 30
0.0
 10
191.9279
 20
76.3531
 30
0.0
 10
191.9279
 20
76.3531
 30
0.0
 10
188.1107
 20
71.7422
 30
0.0
 10
180.0227
 20
73.0037
 30
0.0
 10
176.8706
 20
78.1972
 30
0.0
 10
176.8706
 20
78.1972
 30
0.0
 10
174.2339
 20
82.5415
 30
0.0
 10
175.3364
 20
90.2661
 30
0.0
 10
180.1144
 20
92.0267
 30
0.0
 10
180.1144
 20
92.0267
 30
0.0
 10
182.77
 20
93.0047
 30
0.0
 10
185.4083
 20
91.2639
 30
0.0
 10
186.1983
 20
88.2637
 30
0.0
 10
186.1983
 20
88.2637
 30
0.0
 10
186.7401
 20
86.2049
 30
0.0
 10
186.9235
 20
84.7119
 30
0.0
 10
184.9813
 20
83.736
 30
0.0
 10
184.9813
 20
83.736
 30
0.0
 10
181.1051
 20
81.7884
 30
0.0
 10
182.8346
 20
91.9663
 30
0.0
 10
179.0027
 20
87.2249
 30
0.0
 10
179.0027
 20
87.2249
 30
0.0
 10
178.4783
 20
85.4283
 30
0.0
 10
178.6153
 20
84.6457
 30
0.0
 10
179.2969
 20
82.9541
 30
0.0
 10
179.2969
 20
82.9541
 30
0.0
 10
183.0859
 20
73.5513
 30
0.0
 10
193.7991
 20
82.6641
 30
0.0
 10
188.1648
 20
91.5493
 30
0.0
 10
188.1648
 20
91.5493
 30
0.0
 10
186.0124
 20
94.9438
 30
0.0
 10
182.2369
 20
95.5337
 30
0.0
 10
179.0547
 20
94.3219
 30
0.0
 10
179.0547
 20
94.3219
 30
0.0
 10
173.544
 20
92.2236
 30
0.0
 10
172.7682
 20
87.5195
 30
0.0
 10
173.2193
 20
81.3584
 30
0.0
 10
173.2193
 20
81.3584
 30
0.0
 10
173.2898
 20
77.6098
 30
0.0
 10
172.9319
 20
77.8552
 30
0.0
 10
169.8182
 20
77.1627
 30
0.0
 10
169.8182
 20
77.1627
 30
0.0
 10
167.2183
 20
76.0798
 30
0.0
 10
166.0523
 20
73.5943
 30
0.0
 10
164.5191
 20
70.5451
 30
0.0
 10
164.5191
 20
70.5451
 30
0.0
 10
161.1982
 20
67.6605
 30
0.0
 10
156.8098
 20
77.5503
 30
0.0
 10
155.2679
 20
78.0996
 30
0.0
 10
155.2679
 20
78.0996
 30
0.0
 10
154.7934
 20
75.3525
 30
0.0
 10
156.8098
 20
75.3525
 30
0.0
 10
156.454
 20
71.2318
 30
0.0
 10
156.454
 20
71.2318
 30
0.0
 10
148.8633
 20
78.3742
 30
0.0
 10
146.2539
 20
72.6052
 30
0.0
 10
147.6771
 20
71.0944
 30
0.0
 10
147.6771
 20
71.0944
 30
0.0
 10
149.4201
 20
71.6256
 30
0.0
 10
151.163
 20
69.7738
 30
0.0
 10
152.7413
 20
68.0814
 30
0.0
 10
152.7413
 20
68.0814
 30
0.0
 10
154.5146
 20
66.1801
 30
0.0
 10
151.9245
 20
63.9233
 30
0.0
 10
151.8284
 20
60.2433
 30
0.0
 10
151.8284
 20
60.2433
 30
0.0
 10
149.9307
 20
58.4576
 30
0.0
 10
142.9329
 20
59.007
 30
0.0
 10
142.8144
 20
59.8311
 30
0.0
 10
142.8144
 20
59.8311
 30
0.0
 10
142.6957
 20
60.6554
 30
0.0
 10
143.6446
 20
60.93
 30
0.0
 10
145.7795
 20
62.5782
 30
0.0
 10
145.7795
 20
62.5782
 30
0.0
 10
146.2539
 20
65.0507
 30
0.0
 10
144.4748
 20
64.7759
 30
0.0
 10
143.8818
 20
65.0507
 30
0.0
 10
143.8818
 20
65.0507
 30
0.0
 10
144.3562
 20
66.9737
 30
0.0
 10
143.526
 20
69.1714
 30
0.0
 10
143.526
 20
69.1714
 30
0.0
 10
143.526
 20
69.1714
 30
0.0
 10
143.526
 20
69.1714
 30
0.0
 10
142.1027
 20
68.6219
 30
0.0
 10
141.6284
 20
66.1496
 30
0.0
 10
141.6284
 20
66.1496
 30
0.0
 10
140.3236
 20
65.0507
 30
0.0
 10
137.1213
 20
65.6
 30
0.0
 10
137.4771
 20
63.6772
 30
0.0
 10
137.4771
 20
63.6772
 30
0.0
 10
137.4771
 20
63.6772
 30
0.0
 10
139.0189
 20
62.5782
 30
0.0
 10
139.6119
 20
57.9082
 30
0.0
 10
139.6119
 20
57.9082
 30
0.0
 10
137.5677
 20
57.5242
 30
0.0
 10
135.0605
 20
55.5605
 30
0.0
 10
132.965
 20
53.5722
 30
0.0
  0
SPLINE
  5
91
330
1F
100
AcDbEntity
  8
layer 1
 62
     7
370
     9
100
AcDbSpline
210
0.0
220
0.0
230
1.0
 70
    11
 71
     3
 72
    72
 73
    68
 74
     0
 42
0.0000000001
 43
0.0000000001
 12
1.0
 22
0.0
 32
0.0
 13
1.0
 23
0.0
 33
0.0
 40
0.0
 40
0.0
 40
0.0
 40
0.0
 40
0.0555555555555556
 40
0.0555555555555556
 40
0.0555555555555556
 40
0.0555555555555556
 40
0.1111111111111111
 40
0.1111111111111111
 40
0.1111111111111111
 40
0.1111111111111111
 40
0.1666666666666667
 40
0.1666666666666667
 40
0.1666666666666667
 40
0.1666666666666667
 40
0.2222222222222222
 40
0.2222222222222222
 40
0.2222222222222222
 40
0.2222222222222222
 40
0.2777777777777778
 40
0.2777777777777778
 40
0.2777777777777778
 40
0.2777777777777778
 40
0.3333333333333333
 40
0.3333333333333333
 40
0.3333333333333333
 40
0.3333333333333333
 40
0.3888888888888889
 40
0.3888888888888889
 40
0.3888888888888889
 40
0.3888888888888889
 40
0.4444444444444444
 40
0.4444444444444444
 40
0.4444444444444444
 40
0.4444444444444444
 40
0.5
 40
0.5
 40
0.5
 40
0.5
 40
0.5555555555555556
 40
0.5555555555555556
 40
0.5555555555555556
 40
0.5555555555555556
 40
0.6111111111111112
 40
0.6111111111111112
 40
0.6111111111111112
 40
0.6111111111111112
 40
0.6666666666666666
 40
0.6666666666666666
 40
0.6666666666666666
 40
0.6666666666666666
 40
0.7222222222222222
 40
0.7222222222222222
 40
0.7222222222222222
 40
0.7222222222222222
 40
0.7777777777777778
 40
0.7777777777777778
 40
0.7777777777777778
 40
0.7777777777777778
 40
0.8333333333333334
 40
0.8333333333333334
 40
0.8333333333333334
 40
0.8333333333333334
 40
0.8888888888888888
 40
0.8888888888888888
 40
0.8888888888888888
 40
0.8888888888888888
 40
1.0
 40
1.0
 40
1.0
 40
1.0
 10
132.965
 20
82.2545
 30
0.0
 10
132.965
 20
82.2545
 30
0.0
 10
132.965
 20
88.8135
 30
0.0
 10
132.965
 20
88.8135
 30
0.0
 10
132.965
 20
88.8135
 30
0.0
 10
136.4806
 20
89.3717
 30
0.0
 10
140.951
 20
91.3468
 30
0.0
 10
141.8326
 20
97.6626
 30
0.0
 10
141.8326
 20
97.6626
 30
0.0
 10
142.4899
 20
102.3736
 30
0.0
 10
137.5314
 20
109.0671
 30
0.0
 10
132.965
 20
110.9062
 30
0.0
 10
132.965
 20
110.9062
 30
0.0
 10
132.965
 20
110.9062
 30
0.0
 10
132.965
 20
118.7739
 30
0.0
 10
132.965
 20
118.7739
 30
0.0
 10
132.965
 20
118.7739
 30
0.0
 10
134.2718
 20
118.3296
 30
0.0
 10
135.7133
 20
118.3675
 30
0.0
 10
136.6512
 20
119.9606
 30
0.0
 10
136.6512
 20
119.9606
 30
0.0
 10
137.2103
 20
119.4749
 30
0.0
 10
139.7261
 20
115.7521
 30
0.0
 10
140.5647
 20
116.7234
 30
0.0
 10
140.5647
 20
116.7234
 30
0.0
 10
139.8223
 20
112.424
 30
0.0
 10
142.5626
 20
104.4457
 30
0.0
 10
145.7975
 20
109.0913
 30
0.0
 10
145.7975
 20
109.0913
 30
0.0
 10
146.7411
 20
110.4464
 30
0.0
 10
147.0251
 20
111.5833
 30
0.0
 10
147.081
 20
112.6152
 30
0.0
 10
147.081
 20
112.6152
 30
0.0
 10
147.5008
 20
120.3606
 30
0.0
 10
148.9134
 20
107.7993
 30
0.0
 10
149.6495
 20
96.5707
 30
0.0
 10
149.6495
 20
96.5707
 30
0.0
 10
147.6927
 20
96.0853
 30
0.0
 10
145.0372
 20
96.0049
 30
0.0
 10
145.0372
 20
96.0049
 30
0.0
 10
145.0372
 20
96.0049
 30
0.0
 10
145.0372
 20
96.0049
 30
0.0
 10
146.1552
 20
93.2533
 30
0.0
 10
145.3167
 20
92.7676
 30
0.0
 10
145.3167
 20
92.7676
 30
0.0
 10
144.4781
 20
92.2821
 30
0.0
 10
142.3816
 20
92.7676
 30
0.0
 10
142.1021
 20
91.9582
 30
0.0
 10
142.1021
 20
91.9582
 30
0.0
 10
141.8227
 20
91.1489
 30
0.0
 10
144.7578
 20
88.2355
 30
0.0
 10
146.2951
 20
89.3687
 30
0.0
 10
146.2951
 20
89.3687
 30
0.0
 10
147.2734
 20
89.3687
 30
0.0
 10
147.6927
 20
87.588
 30
0.0
 10
147.6927
 20
87.588
 30
0.0
 10
147.6927
 20
87.588
 30
0.0
 10
147.6927
 20
87.588
 30
0.0
 10
152.4447
 20
88.3974
 30
0.0
 10
153.1436
 20
88.5592
 30
0.0
 10
153.1436
 20
88.5592
 30
0.0
 10
153.8424
 20
88.7211
 30
0.0
 10
146.2951
 20
82.4085
 30
0.0
 10
141.9624
 20
82.0847
 30
0.0
 10
141.9624
 20
82.0847
 30
0.0
 10
138.7145
 20
81.8814
 30
0.0
 10
135.5769
 20
81.5504
 30
0.0
 10
132.965
 20
82.2545
 30
0.0
  0
SPLINE
  5
92
330
1F
100
AcDbEntity
  8
layer 1
 62
     7
370
     9
100
AcDbSpline
210
0.0
220
0.0
230
1.0
 70
    11
 71
     3
 72
    40
 73
    36
 74
     0
 42
0.0000000001
 43
0.0000000001
 12
1.0
 22
0.0
 32
0.0
 13
1.0
 23
0.0
 33
0.0
 40
0.0
 40
0.0
 40
0.0
 40
0.0
 40
0.1
 40
0.1
 40
0.1
 40
0.1
 40
0.2
 40
0.2
 40
0.2
 40
0.2
 40
0.3
 40
0.3
 40
0.3
 40
0.3
 40
0.4
 40
0.4
 40
0.4
 40
0.4
 40
0.5
 40
0.5
 40
0.5
 40
0.5
 40
0.6
 40
0.6
 40
0.6
 40
0.6
 40
0.7
 40
0.7
 40
0.7
 40
0.7
 40
0.8
 40
0.8
 40
0.8
 40
0.8
 40
1.0
 40
1.0
 40
1.0
 40
1.0
 10
132.965
 20
91.2013
 30
0.0
 10
132.965
 20
91.2013
 30
0.0
 10
132.965
 20
95.8242
 30
0.0
 10
132.965
 20
95.8242
 30
0.0
 10
132.965
 20
95.8242
 30
0.0
 10
133.4321
 20
96.2374
 30
0.0
 10
133.9016
 20
96.7531
 30
0.0
 10
134.3281
 20
97.3955
 30
0.0
 10
134.3281
 20
97.3955
 30
0.0
 10
135.1173
 20
98.5843
 30
0.0
 10
135.608
 20
99.2702
 30
0.0
 10
134.468
 20
100.4278
 30
0.0
 10
134.468
 20
100.4278
 30
0.0
 10
134.0522
 20
100.8493
 30
0.0
 10
133.5238
 20
101.1286
 30
0.0
 10
132.965
 20
101.3106
 30
0.0
 10
132.965
 20
101.3106
 30
0.0
 10
132.965
 20
101.3106
 30
0.0
 10
132.965
 20
106.0848
 30
0.0
 10
132.965
 20
106.0848
 30
0.0
 10
132.965
 20
106.0848
 30
0.0
 10
135.3171
 20
105.7226
 30
0.0
 10
136.9371
 20
104.7827
 30
0.0
 10
138.3737
 20
102.4164
 30
0.0
 10
138.3737
 20
102.4164
 30
0.0
 10
141.8437
 20
96.7015
 30
0.0
 10
134.68
 20
91.1705
 30
0.0
 10
134.68
 20
91.1705
 30
0.0
 10
134.68
 20
91.1705
 30
0.0
 10
134.68
 20
91.1705
 30
0.0
 10
133.981
 20
91.0086
 30
0.0
 10
133.1426
 20
91.1705
 30
0.0
 10
133.1426
 20
91.1705
 30
0.0
 10
133.0834
 20
91.1767
 30
0.0
 10
133.0243
 20
91.1873
 30
0.0
 10
132.965
 20
91.2013
 30
0.0
  0
SPLINE
  5
93
330
1F
100
AcDbEntity
  8
layer 1
 62
     7
370
     9
100
AcDbSpline
210
0.0
220
0.0
230
1.0
 70
    11
 71
     3
 72
    32
 73
    28
 74
     0
 42
0.0000000001
 43
0.0000000001
 12
1.0
 22
0.0
 32
0.0
 13
1.0
 23
0.0
 33
0.0
 40
0.0
 40
0.0
 40
0.0
 40
0.0
 40
0.125
 40
0.125
 40
0.125
 40
0.125
 40
0.25
 40
0.25
 40
0.25
 40
0.25
 40
0.375
 40
0.375
 40
0.375
 40
0.375
 40
0.5
 40
0.5
 40
0.5
 40
0.5
 40
0.625
 40
0.625
 40
0.625
 40
0.625
 40
0.75
 40
0.75
 40
0.75
 40
0.75
 40
1.0
 40
1.0
 40
1.0
 40
1.0
 10
139.5691
 20
126.709
 30
0.0
 10
139.5691
 20
126.709
 30
0.0
 10
148.5779
 20
126.709
 30
0.0
 10
148.5779
 20
126.709
 30
0.0
 10
148.5779
 20
126.709
 30
0.0
 10
150.1104
 20
125.5851
 30
0.0
 10
151.083
 20
124.2624
 30
0.0
 10
151.6155
 20
122.4853
 30
0.0
 10
151.6155
 20
122.4853
 30
0.0
 10
152.1855
 20
120.5825
 30
0.0
 10
152.0714
 20
114.1054
 30
0.0
 10
149.8942
 20
114.5256
 30
0.0
 10
149.8942
 20
114.5256
 30
0.0
 10
149.8942
 20
114.5256
 30
0.0
 10
148.5373
 20
118.4539
 30
0.0
 10
146.3771
 20
120.1559
 30
0.0
 10
146.3771
 20
120.1559
 30
0.0
 10
144.0888
 20
121.9596
 30
0.0
 10
140.1105
 20
118.3869
 30
0.0
 10
140.1105
 20
118.5723
 30
0.0
 10
140.1105
 20
118.5723
 30
0.0
 10
140.1105
 20
118.6935
 30
0.0
 10
135.9439
 20
122.912
 30
0.0
 10
138.9312
 20
126.1064
 30
0.0
 10
138.9312
 20
126.1064
 30
0.0
 10
139.1269
 20
126.3157
 30
0.0
 10
139.3406
 20
126.517
 30
0.0
 10
139.5691
 20
126.709
 30
0.0
  0
SPLINE
  5
94
330
1F
100
AcDbEntity
  8
layer 1
 62
     7
370
     9
100
AcDbSpline
210
0.0
220
0.0
230
1.0
 70
    11
 71
     3
 72
   100
 73
    96
 74
     0
 42
0.0000000001
 43
0.0000000001
 12
1.0
 22
0.0
 32
0.0
 13
1.0
 23
0.0
 33
0.0
 40
0.0
 40
0.0
 40
0.0
 40
0.0
 40
0.04
 40
0.04
 40
0.04
 40
0.04
 40
0.08
 40
0.08
 40
0.08
 40
0.08
 40
0.12
 40
0.12
 40
0.12
 40
0.12
 40
0.16
 40
0.16
 40
0.16
 40
0.16
 40
0.2
 40
0.2
 40
0.2
 40
0.2
 40
0.24
 40
0.24
 40
0.24
 40
0.24
 40
0.28
 40
0.28
 40
0.28
 40
0.28
 40
0.32
 40
0.32
 40
0.32
 40
0.32
 40
0.36
 40
0.36
 40
0.36
 40
0.36
 40
0.4
 40
0.4
 40
0.4
 40
0.4
 40
0.44
 40
0.44
 40
0.44
 40
0.44
 40
0.48
 40
0.48
 40
0.48
 40
0.48
 40
0.52
 40
0.52
 40
0.52
 40
0.52
 40
0.56
 40
0.56
 40
0.56
 40
0.56
 40
0.6
 40
0.6
 40
0.6
 40
0.6
 40
0.64
 40
0.64
 40
0.64
 40
0.64
 40
0.68
 40
0.68
 40
0.68
 40
0.68
 40
0.72
 40
0.72
 40
0.72
 40
0.72
 40
0.76
 40
0.76
 40
0.76
 40
0.76
 40
0.8
 40
0.8
 40
0.8
 40
0.8
 40
0.84
 40
0.84
 40
0.84
 40
0.84
 40
0.88
 40
0.88
 40
0.88
 40
0.88
 40
0.92
 40
0.92
 40
0.92
 40
0.92
 40
1.0
 40
1.0
 40
1.0
 40
1.0
 10
152.3589
 20
126.709
 30
0.0
 10
152.3589
 20
126.709
 30
0.0
 10
154.2578
 20
126.709
 30
0.0
 10
154.2578
 20
126.709
 30
0.0
 10
154.2578
 20
126.709
 30
0.0
 10
154.8177
 20
125.6384
 30
0.0
 10
155.5819
 20
125.1189
 30
0.0
 10
157.4121
 20
125.116
 30
0.0
 10
157.4121
 20
125.116
 30
0.0
 10
158.1975
 20
125.1145
 30
0.0
 10
159.1044
 20
125.4127
 30
0.0
 10
160.3492
 20
126.5134
 30
0.0
 10
160.3492
 20
126.5134
 30
0.0
 10
160.4089
 20
126.5745
 30
0.0
 10
160.467
 20
126.6402
 30
0.0
 10
160.5247
 20
126.709
 30
0.0
 10
160.5247
 20
126.709
 30
0.0
 10
160.5247
 20
126.709
 30
0.0
 10
161.9868
 20
126.709
 30
0.0
 10
161.9868
 20
126.709
 30
0.0
 10
161.9868
 20
126.709
 30
0.0
 10
161.0368
 20
125.2639
 30
0.0
 10
160.5
 20
123.4055
 30
0.0
 10
160.7877
 20
122.0105
 30
0.0
 10
160.7877
 20
122.0105
 30
0.0
 10
161.136
 20
120.3208
 30
0.0
 10
160.8255
 20
118.2738
 30
0.0
 10
162.7254
 20
118.4203
 30
0.0
 10
162.7254
 20
118.4203
 30
0.0
 10
162.7254
 20
118.4203
 30
0.0
 10
163.4241
 20
118.9059
 30
0.0
 10
163.8433
 20
122.9524
 30
0.0
 10
163.8433
 20
122.9524
 30
0.0
 10
166.7785
 20
128.4558
 30
0.0
 10
169.5738
 20
122.9524
 30
0.0
 10
170.6919
 20
119.3915
 30
0.0
 10
170.6919
 20
119.3915
 30
0.0
 10
170.8316
 20
116.3161
 30
0.0
 10
170.2725
 20
114.8593
 30
0.0
 10
168.8748
 20
115.1831
 30
0.0
 10
168.8748
 20
115.1831
 30
0.0
 10
167.7569
 20
116.9636
 30
0.0
 10
165.8001
 20
115.6685
 30
0.0
 10
164.4025
 20
115.0212
 30
0.0
 10
164.4025
 20
115.0212
 30
0.0
 10
163.0048
 20
114.3738
 30
0.0
 10
164.2627
 20
113.5645
 30
0.0
 10
165.94
 20
112.4314
 30
0.0
 10
165.94
 20
112.4314
 30
0.0
 10
165.3291
 20
109.248
 30
0.0
 10
170.4236
 20
107.6683
 30
0.0
 10
172.549
 20
105.5933
 30
0.0
 10
172.549
 20
105.5933
 30
0.0
 10
177.0497
 20
101.1979
 30
0.0
 10
191.5103
 20
102.0146
 30
0.0
 10
191.5103
 20
102.0146
 30
0.0
 10
191.5103
 20
102.0146
 30
0.0
 10
191.5103
 20
102.0146
 30
0.0
 10
191.419
 20
100.11
 30
0.0
 10
191.419
 20
100.11
 30
0.0
 10
191.419
 20
100.11
 30
0.0
 10
179.7464
 20
100.6187
 30
0.0
 10
172.847
 20
98.6731
 30
0.0
 10
161.4674
 20
95.5977
 30
0.0
 10
161.4674
 20
95.5977
 30
0.0
 10
154.2979
 20
93.8628
 30
0.0
 10
152.6994
 20
96.0177
 30
0.0
 10
151.5911
 20
99.5935
 30
0.0
 10
151.5911
 20
99.5935
 30
0.0
 10
147.4183
 20
113.0549
 30
0.0
 10
160.7855
 20
115.7852
 30
0.0
 10
163.2891
 20
107.9867
 30
0.0
 10
163.2891
 20
107.9867
 30
0.0
 10
164.3128
 20
104.7973
 30
0.0
 10
160.052
 20
96.9731
 30
0.0
 10
164.4373
 20
98.5265
 30
0.0
 10
164.4373
 20
98.5265
 30
0.0
 10
168.3382
 20
102.2218
 30
0.0
 10
165.9779
 20
108.4558
 30
0.0
 10
163.8433
 20
111.9458
 30
0.0
 10
163.8433
 20
111.9458
 30
0.0
 10
162.7383
 20
115.9014
 30
0.0
 10
158.312
 20
116.3445
 30
0.0
 10
155.9094
 20
116.2816
 30
0.0
 10
155.9094
 20
116.2816
 30
0.0
 10
153.618
 20
116.2215
 30
0.0
 10
154.1408
 20
119.1209
 30
0.0
 10
154.3882
 20
121.7235
 30
0.0
 10
154.3882
 20
121.7235
 30
0.0
 10
154.5585
 20
123.5162
 30
0.0
 10
154.3125
 20
123.6616
 30
0.0
 10
153.4012
 20
125.1076
 30
0.0
 10
153.4012
 20
125.1076
 30
0.0
 10
153.0728
 20
125.6284
 30
0.0
 10
152.7218
 20
126.1637
 30
0.0
 10
152.3589
 20
126.709
 30
0.0
  0
SPLINE
  5
95
330
1F
100
AcDbEntity
  8
layer 1
 62
     7
370
     9
100
AcDbSpline
210
0.0
220
0.0
230
1.0
 70
    11
 71
     3
 72
    16
 73
    12
 74
     0
 42
0.0000000001
 43
0.0000000001
 12
1.0
 22
0.0
 32
0.0
 13
1.0
 23
0.0
 33
0.0
 40
0.0
 40
0.0
 40
0.0
 40
0.0
 40
0.25
 40
0.25
 40
0.25
 40
0.25
 40
0.5
 40
0.5
 40
0.5
 40
0.5
 40
1.0
 40
1.0
 40
1.0
 40
1.0
 10
169.8261
 20
126.709
 30
0.0
 10
169.8261
 20
126.709
 30
0.0
 10
174.1272
 20
126.709
 30
0.0
 10
174.1272
 20
126.709
 30
0.0
 10
174.1272
 20
126.709
 30
0.0
 10
174.0356
 20
125.6007
 30
0.0
 10
173.8436
 20
124.8949
 30
0.0
 10
173.8436
 20
124.8949
 30
0.0
 10
173.8436
 20
124.8949
 30
0.0
 10
173.8436
 20
124.8949
 30
0.0
 10
171.031
 20
125.7607
 30
0.0
 10
169.8261
 20
126.709
 30
0.0
  0
SPLINE
  5
96
330
1F
100
AcDbEntity
  8
layer 1
 62
     7
370
     9
100
AcDbSpline
210
0.0
220
0.0
230
1.0
 70
    11
 71
     3
 72
    48
 73
    44
 74
     0
 42
0.0000000001
 43
0.0000000001
 12
1.0
 22
0.0
 32
0.0
 13
1.0
 23
0.0
 33
0.0
 40
0.0
 40
0.0
 40
0.0
 40
0.0
 40
0.0833333333333333
 40
0.0833333333333333
 40
0.0833333333333333
 40
0.0833333333333333
 40
0.1666666666666667
 40
0.1666666666666667
 40
0.1666666666666667
 40
0.1666666666666667
 40
0.25
 40
0.25
 40
0.25
 40
0.25
 40
0.3333333333333333
 40
0.3333333333333333
 40
0.3333333333333333
 40
0.3333333333333333
 40
0.4166666666666667
 40
0.4166666666666667
 40
0.4166666666666667
 40
0.4166666666666667
 40
0.5
 40
0.5
 40
0.5
 40
0.5
 40
0.5833333333333334
 40
0.5833333333333334
 40
0.5833333333333334
 40
0.5833333333333334
 40
0.6666666666666666
 40
0.6666666666666666
 40
0.6666666666666666
 40
0.6666666666666666
 40
0.75
 40
0.75
 40
0.75
 40
0.75
 40
0.8333333333333334
 40
0.8333333333333334
 40
0.8333333333333334
 40
0.8333333333333334
 40
1.0
 40
1.0
 40
1.0
 40
1.0
 10
179.581
 20
126.709
 30
0.0
 10
179.581
 20
126.709
 30
0.0
 10
187.5729
 20
126.709
 30
0.0
 10
187.5729
 20
126.709
 30
0.0
 10
187.5729
 20
126.709
 30
0.0
 10
182.7552
 20
121.6196
 30
0.0
 10
188.1627
 20
118.2585
 30
0.0
 10
188.1627
 20
118.2585
 30
0.0
 10
188.1627
 20
118.2585
 30
0.0
 10
188.2476
 20
116.9795
 30
0.0
 10
188.7967
 20
116.1495
 30
0.0
 10
187.6914
 20
116.1745
 30
0.0
 10
187.6914
 20
116.1745
 30
0.0
 10
186.0241
 20
116.2129
 30
0.0
 10
181.3752
 20
116.2047
 30
0.0
 10
179.2176
 20
115.0212
 30
0.0
 10
179.2176
 20
115.0212
 30
0.0
 10
178.5187
 20
110.6509
 30
0.0
 10
182.2925
 20
110.8129
 30
0.0
 10
186.9047
 20
108.7086
 30
0.0
 10
186.9047
 20
108.7086
 30
0.0
 10
180.0561
 20
103.8527
 30
0.0
 10
174.6054
 20
106.6043
 30
0.0
 10
172.5089
 20
110.3272
 30
0.0
 10
172.5089
 20
110.3272
 30
0.0
 10
171.6703
 20
112.998
 30
0.0
 10
171.8144
 20
115.0769
 30
0.0
 10
172.3219
 20
116.6324
 30
0.0
 10
172.3219
 20
116.6324
 30
0.0
 10
174.3623
 20
122.8833
 30
0.0
 10
180.1902
 20
122.8127
 30
0.0
 10
184.6683
 20
119.8772
 30
0.0
 10
184.6683
 20
119.8772
 30
0.0
 10
184.6683
 20
119.8772
 30
0.0
 10
184.6683
 20
120.6863
 30
0.0
 10
184.5286
 20
122.6287
 30
0.0
 10
184.5286
 20
122.6287
 30
0.0
 10
184.3888
 20
124.5711
 30
0.0
 10
179.4971
 20
125.5424
 30
0.0
 10
179.4971
 20
125.5424
 30
0.0
 10
179.4971
 20
125.5424
 30
0.0
 10
179.4971
 20
125.5424
 30
0.0
 10
179.5618
 20
125.9448
 30
0.0
 10
179.581
 20
126.709
 30
0.0
  0
SPLINE
  5
97
330
1F
100
AcDbEntity
  8
layer 1
 62
     7
370
     9
100
AcDbSpline
210
0.0
220
0.0
230
1.0
 70
    11
 71
     3
 72
    20
 73
    16
 74
     0
 42
0.0000000001
 43
0.0000000001
 12
1.0
 22
0.0
 32
0.0
 13
1.0
 23
0.0
 33
0.0
 40
0.0
 40
0.0
 40
0.0
 40
0.0
 40
0.2
 40
0.2
 40
0.2
 40
0.2
 40
0.4
 40
0.4
 40
0.4
 40
0.4
 40
0.6
 40
0.6
 40
0.6
 40
0.6
 40
1.0
 40
1.0
 40
1.0
 40
1.0
 10
191.9279
 20
125.9437
 30
0.0
 10
191.9279
 20
125.9437
 30
0.0
 10
191.9279
 20
124.9233
 30
0.0
 10
191.9279
 20
124.9233
 30
0.0
 10
191.9279
 20
124.9233
 30
0.0
 10
190.9859
 20
123.5696
 30
0.0
 10
189.6363
 20
121.9004
 30
0.0
 10
191.9279
 20
119.0304
 30
0.0
 10
191.9279
 20
119.0304
 30
0.0
 10
191.9279
 20
119.0304
 30
0.0
 10
191.9279
 20
117.1498
 30
0.0
 10
191.9279
 20
117.1498
 30
0.0
 10
191.9279
 20
117.1498
 30
0.0
 10
190.9994
 20
117.9868
 30
0.0
 10
186.9247
 20
122.3698
 30
0.0
 10
191.9279
 20
125.9437
 30
0.0
  0
SPLINE
  5
98
330
1F
100
AcDbEntity
  8
layer 1
 62
     7
370
     9
100
AcDbSpline
210
0.0
220
0.0
230
1.0
 70
    11
 71
     3
 72
   116
 73
   112
 74
     0
 42
0.0000000001
 43
0.0000000001
 12
1.0
 22
0.0
 32
0.0
 13
1.0
 23
0.0
 33
0.0
 40
0.0
 40
0.0
 40
0.0
 40
0.0
 40
0.0344827586206897
 40
0.0344827586206897
 40
0.0344827586206897
 40
0.0344827586206897
 40
0.0689655172413793
 40
0.0689655172413793
 40
0.0689655172413793
 40
0.0689655172413793
 40
0.103448275862069
 40
0.103448275862069
 40
0.103448275862069
 40
0.103448275862069
 40
0.1379310344827586
 40
0.1379310344827586
 40
0.1379310344827586
 40
0.1379310344827586
 40
0.1724137931034483
 40
0.1724137931034483
 40
0.1724137931034483
 40
0.1724137931034483
 40
0.2068965517241379
 40
0.2068965517241379
 40
0.2068965517241379
 40
0.2068965517241379
 40
0.2413793103448276
 40
0.2413793103448276
 40
0.2413793103448276
 40
0.2413793103448276
 40
0.2758620689655172
 40
0.2758620689655172
 40
0.2758620689655172
 40
0.2758620689655172
 40
0.3103448275862069
 40
0.3103448275862069
 40
0.3103448275862069
 40
0.3103448275862069
 40
0.3448275862068966
 40
0.3448275862068966
 40
0.3448275862068966
 40
0.3448275862068966
 40
0.3793103448275862
 40
0.3793103448275862
 40
0.3793103448275862
 40
0.3793103448275862
 40
0.4137931034482759
 40
0.4137931034482759
 40
0.4137931034482759
 40
0.4137931034482759
 40
0.4482758620689655
 40
0.4482758620689655
 40
0.4482758620689655
 40
0.4482758620689655
 40
0.4827586206896552
 40
0.4827586206896552
 40
0.4827586206896552
 40
0.4827586206896552
 40
0.5172413793103449
 40
0.5172413793103449
 40
0.5172413793103449
 40
0.5172413793103449
 40
0.5517241379310345
 40
0.5517241379310345
 40
0.5517241379310345
 40
0.5517241379310345
 40
0.5862068965517241
 40
0.5862068965517241
 40
0.5862068965517241
 40
0.5862068965517241
 40
0.6206896551724138
 40
0.6206896551724138
 40
0.6206896551724138
 40
0.6206896551724138
 40
0.6551724137931034
 40
0.6551724137931034
 40
0.6551724137931034
 40
0.6551724137931034
 40
0.6896551724137931
 40
0.6896551724137931
 40
0.6896551724137931
 40
0.6896551724137931
 40
0.7241379310344828
 40
0.7241379310344828
 40
0.7241379310344828
 40
0.7241379310344828
 40
0.7586206896551724
 40
0.7586206896551724
 40
0.7586206896551724
 40
0.7586206896551724
 40
0.7931034482758621
 40
0.7931034482758621
 40
0.7931034482758621
 40
0.7931034482758621
 40
0.8275862068965517
 40
0.8275862068965517
 40
0.8275862068965517
 40
0.8275862068965517
 40
0.8620689655172413
 40
0.8620689655172413
 40
0.8620689655172413
 40
0.8620689655172413
 40
0.896551724137931
 40
0.896551724137931
 40
0.896551724137931
 40
0.896551724137931
 40
0.9310344827586207
 40
0.9310344827586207
 40
0.9310344827586207
 40
0.9310344827586207
 40
1.0
 40
1.0
 40
1.0
 40
1.0
 10
191.9279
 20
54.0796
 30
0.0
 10
191.9279
 20
54.0796
 30
0.0
 10
191.9279
 20
52.6554
 30
0.0
 10
191.9279
 20
52.6554
 30
0.0
 10
191.9279
 20
52.6554
 30
0.0
 10
191.2689
 20
51.7262
 30
0.0
 10
188.9979
 20
51.5007
 30
0.0
 10
188.1144
 20
50.7923
 30
0.0
 10
188.1144
 20
50.7923
 30
0.0
 10
186.8341
 20
49.7651
 30
0.0
 10
185.4319
 20
48.5847
 30
0.0
 10
184.9139
 20
48.2847
 30
0.0
 10
184.9139
 20
48.2847
 30
0.0
 10
184.9139
 20
51.0732
 30
0.0
 10
183.5765
 20
51.3828
 30
0.0
 10
183.5765
 20
51.3828
 30
0.0
 10
183.5765
 20
51.3828
 30
0.0
 10
183.5765
 20
51.3828
 30
0.0
 10
182.7738
 20
48.1299
 30
0.0
 10
181.3026
 20
46.8907
 30
0.0
 10
181.3026
 20
46.8907
 30
0.0
 10
177.4513
 20
50.8553
 30
0.0
 10
174.6273
 20
50.2615
 30
0.0
 10
173.856
 20
47.9629
 30
0.0
 10
173.856
 20
47.9629
 30
0.0
 10
175.7062
 20
46.0641
 30
0.0
 10
179.0333
 20
43.8307
 30
0.0
 10
180.8838
 20
42.4983
 30
0.0
 10
180.8838
 20
42.4983
 30
0.0
 10
183.0199
 20
40.9605
 30
0.0
 10
181.8093
 20
40.8075
 30
0.0
 10
180.3144
 20
41.5954
 30
0.0
 10
180.3144
 20
41.5954
 30
0.0
 10
175.8547
 20
43.946
 30
0.0
 10
170.5336
 20
45.2642
 30
0.0
 10
166.9651
 20
47.5978
 30
0.0
 10
166.9651
 20
47.5978
 30
0.0
 10
163.0733
 20
50.1425
 30
0.0
 10
163.1739
 20
54.7471
 30
0.0
 10
162.3092
 20
54.6359
 30
0.0
 10
162.3092
 20
54.6359
 30
0.0
 10
161.6402
 20
51.6926
 30
0.0
 10
161.5065
 20
53.0869
 30
0.0
 10
159.9015
 20
54.481
 30
0.0
 10
159.9015
 20
54.481
 30
0.0
 10
159.3663
 20
60.3673
 30
0.0
 10
156.4238
 20
62.536
 30
0.0
 10
157.6275
 20
62.6909
 30
0.0
 10
157.6275
 20
62.6909
 30
0.0
 10
162.0416
 20
58.6634
 30
0.0
 10
166.6166
 20
63.633
 30
0.0
 10
166.6166
 20
63.633
 30
0.0
 10
166.6166
 20
63.633
 30
0.0
 10
167.7287
 20
59.1253
 30
0.0
 10
173.5552
 20
56.5791
 30
0.0
 10
175.9793
 20
60.6764
 30
0.0
 10
175.9793
 20
60.6764
 30
0.0
 10
177.4158
 20
63.1043
 30
0.0
 10
176.5591
 20
66.4421
 30
0.0
 10
174.1526
 20
67.8339
 30
0.0
 10
174.1526
 20
67.8339
 30
0.0
 10
172.8493
 20
68.5877
 30
0.0
 10
173.884
 20
65.541
 30
0.0
 10
174.2735
 20
63.6933
 30
0.0
 10
174.2735
 20
63.6933
 30
0.0
 10
173.0367
 20
58.9731
 30
0.0
 10
166.255
 20
63.4802
 30
0.0
 10
168.6126
 20
70.5673
 30
0.0
 10
168.6126
 20
70.5673
 30
0.0
 10
171.357
 20
74.6124
 30
0.0
 10
176.9257
 20
72.7414
 30
0.0
 10
185.0788
 20
69.9894
 30
0.0
 10
185.0788
 20
69.9894
 30
0.0
 10
179.0913
 20
69.1228
 30
0.0
 10
178.5923
 20
61.0326
 30
0.0
 10
178.5923
 20
61.0326
 30
0.0
 10
178.5923
 20
61.0326
 30
0.0
 10
178.5923
 20
61.0326
 30
0.0
 10
179.0913
 20
60.4548
 30
0.0
 10
182.584
 20
60.7437
 30
0.0
 10
182.584
 20
60.7437
 30
0.0
 10
181.8356
 20
57.5655
 30
0.0
 10
176.8457
 20
56.4097
 30
0.0
 10
178.0932
 20
53.8093
 30
0.0
 10
178.0932
 20
53.8093
 30
0.0
 10
180.8371
 20
51.9014
 30
0.0
 10
184.3317
 20
55.7174
 30
0.0
 10
186.3263
 20
57.5655
 30
0.0
 10
186.3263
 20
57.5655
 30
0.0
 10
186.5081
 20
56.2313
 30
0.0
 10
186.6402
 20
49.8306
 30
0.0
 10
187.8306
 20
53.6647
 30
0.0
 10
187.8306
 20
53.6647
 30
0.0
 10
188.2987
 20
55.172
 30
0.0
 10
188.647
 20
57.7051
 30
0.0
 10
187.6899
 20
61.0771
 30
0.0
 10
187.6899
 20
61.0771
 30
0.0
 10
186.8188
 20
64.1476
 30
0.0
 10
186.1918
 20
66.9294
 30
0.0
 10
188.0947
 20
69.42
 30
0.0
 10
188.0947
 20
69.42
 30
0.0
 10
189.1986
 20
70.865
 30
0.0
 10
190.7799
 20
71.388
 30
0.0
 10
191.7583
 20
70.3334
 30
0.0
 10
191.7583
 20
70.3334
 30
0.0
 10
185.9156
 20
62.4745
 30
0.0
 10
190.1355
 20
57.9423
 30
0.0
 10
191.9054
 20
54.1298
 30
0.0
 10
191.9054
 20
54.1298
 30
0.0
 10
191.9054
 20
54.1298
 30
0.0
 10
191.9279
 20
54.0796
 30
0.0
 10
191.9279
 20
54.0796
 30
0.0
  0
SPLINE
  5
99
330
1F
100
AcDbEntity
  8
layer 1
 62
     7
370
     9
100
AcDbSpline
210
0.0
220
0.0
230
1.0
 70
    11
 71
     3
 72
    32
 73
    28
 74
     0
 42
0.0000000001
 43
0.0000000001
 12
1.0
 22
0.0
 32
0.0
 13
1.0
 23
0.0
 33
0.0
 40
0.0
 40
0.0
 40
0.0
 40
0.0
 40
0.125
 40
0.125
 40
0.125
 40
0.125
 40
0.25
 40
0.25
 40
0.25
 40
0.25
 40
0.375
 40
0.375
 40
0.375
 40
0.375
 40
0.5
 40
0.5
 40
0.5
 40
0.5
 40
0.625
 40
0.625
 40
0.625
 40
0.625
 40
0.75
 40
0.75
 40
0.75
 40
0.75
 40
1.0
 40
1.0
 40
1.0
 40
1.0
 10
191.9279
 20
49.4151
 30
0.0
 10
191.9279
 20
49.4151
 30
0.0
 10
191.9279
 20
47.1693
 30
0.0
 10
191.9279
 20
47.1693
 30
0.0
 10
191.9279
 20
47.1693
 30
0.0
 10
191.7281
 20
46.98
 30
0.0
 10
191.5048
 20
46.8071
 30
0.0
 10
191.2078
 20
46.5629
 30
0.0
 10
191.2078
 20
46.5629
 30
0.0
 10
189.4665
 20
45.1297
 30
0.0
 10
189.3522
 20
42.459
 30
0.0
 10
191.9279
 20
40.6693
 30
0.0
 10
191.9279
 20
40.6693
 30
0.0
 10
191.9279
 20
40.6693
 30
0.0
 10
191.9279
 20
38.3096
 30
0.0
 10
191.9279
 20
38.3096
 30
0.0
 10
191.9279
 20
38.3096
 30
0.0
 10
190.7785
 20
37.9298
 30
0.0
 10
187.7428
 20
37.0449
 30
0.0
 10
186.0885
 20
40.6653
 30
0.0
 10
186.0885
 20
40.6653
 30
0.0
 10
185.0981
 20
42.8329
 30
0.0
 10
185.2966
 20
45.2084
 30
0.0
 10
186.645
 20
47.0503
 30
0.0
 10
186.645
 20
47.0503
 30
0.0
 10
187.5624
 20
48.3038
 30
0.0
 10
189.14
 20
49.2289
 30
0.0
 10
191.9279
 20
49.4151
 30
0.0
  0
SPLINE
  5
9A
330
1F
100
AcDbEntity
  8
layer 1
 62
     7
370
     9
100
AcDbSpline
210
0.0
220
0.0
230
1.0
 70
    11
 71
     3
 72
    28
 73
    24
 74
     0
 42
0.0000000001
 43
0.0000000001
 12
1.0
 22
0.0
 32
0.0
 13
1.0
 23
0.0
 33
0.0
 40
0.0
 40
0.0
 40
0.0
 40
0.0
 40
0.1428571428571428
 40
0.1428571428571428
 40
0.1428571428571428
 40
0.1428571428571428
 40
0.2857142857142857
 40
0.2857142857142857
 40
0.2857142857142857
 40
0.2857142857142857
 40
0.4285714285714285
 40
0.4285714285714285
 40
0.4285714285714285
 40
0.4285714285714285
 40
0.5714285714285714
 40
0.5714285714285714
 40
0.5714285714285714
 40
0.5714285714285714
 40
0.7142857142857143
 40
0.7142857142857143
 40
0.7142857142857143
 40
0.7142857142857143
 40
1.0
 40
1.0
 40
1.0
 40
1.0
 10
191.9279
 20
34.6862
 30
0.0
 10
191.9279
 20
34.6862
 30
0.0
 10
191.9279
 20
31.4288
 30
0.0
 10
191.9279
 20
31.4288
 30
0.0
 10
191.9279
 20
31.4288
 30
0.0
 10
191.1376
 20
31.2688
 30
0.0
 10
189.994
 20
30.7985
 30
0.0
 10
189.6012
 20
29.5247
 30
0.0
 10
189.6012
 20
29.5247
 30
0.0
 10
189.067
 20
27.7922
 30
0.0
 10
192.5929
 20
25.3175
 30
0.0
 10
191.6313
 20
19.3777
 30
0.0
 10
191.6313
 20
19.3777
 30
0.0
 10
189.0579
 20
16.0663
 30
0.0
 10
186.4342
 20
15.1047
 30
0.0
 10
184.0884
 20
15.4542
 30
0.0
 10
184.0884
 20
15.4542
 30
0.0
 10
177.8513
 20
16.3831
 30
0.0
 10
175.8288
 20
23.9047
 30
0.0
 10
178.4182
 20
30.3191
 30
0.0
 10
178.4182
 20
30.3191
 30
0.0
 10
181.7187
 20
37.1176
 30
0.0
 10
190.1287
 20
35.1593
 30
0.0
 10
191.9279
 20
34.6862
 30
0.0
  0
SPLINE
  5
9B
330
1F
100
AcDbEntity
  8
layer 1
 62
     7
370
     9
100
AcDbSpline
210
0.0
220
0.0
230
1.0
 70
    11
 71
     3
 72
    24
 73
    20
 74
     0
 42
0.0000000001
 43
0.0000000001
 12
1.0
 22
0.0
 32
0.0
 13
1.0
 23
0.0
 33
0.0
 40
0.0
 40
0.0
 40
0.0
 40
0.0
 40
0.1666666666666667
 40
0.1666666666666667
 40
0.1666666666666667
 40
0.1666666666666667
 40
0.3333333333333333
 40
0.3333333333333333
 40
0.3333333333333333
 40
0.3333333333333333
 40
0.5
 40
0.5
 40
0.5
 40
0.5
 40
0.6666666666666666
 40
0.6666666666666666
 40
0.6666666666666666
 40
0.6666666666666666
 40
1.0
 40
1.0
 40
1.0
 40
1.0
 10
191.9279
 20
4.6341
 30
0.0
 10
191.9279
 20
4.6341
 30
0.0
 10
191.9279
 20
3.0275
 30
0.0
 10
191.9279
 20
3.0275
 30
0.0
 10
191.9279
 20
3.0275
 30
0.0
 10
191.3949
 20
1.0934
 30
0.0
 10
190.3043
 20
-2.1637
 30
0.0
 10
191.9279
 20
-4.5175
 30
0.0
 10
191.9279
 20
-4.5175
 30
0.0
 10
191.9279
 20
-4.5175
 30
0.0
 10
191.9279
 20
-7.2792
 30
0.0
 10
191.9279
 20
-7.2792
 30
0.0
 10
191.9279
 20
-7.2792
 30
0.0
 10
191.8762
 20
-7.3252
 30
0.0
 10
191.8451
 20
-7.3505
 30
0.0
 10
191.8451
 20
-7.3505
 30
0.0
 10
191.8451
 20
-7.3505
 30
0.0
 10
191.8451
 20
-7.3505
 30
0.0
 10
184.1689
 20
-1.1764
 30
0.0
 10
191.9279
 20
4.6341
 30
0.0
  0
SPLINE
  5
9C
330
1F
100
AcDbEntity
  8
layer 1
 62
     7
370
     9
100
AcDbSpline
210
0.0
220
0.0
230
1.0
 70
    11
 71
     3
 72
    36
 73
    32
 74
     0
 42
0.0000000001
 43
0.0000000001
 12
1.0
 22
0.0
 32
0.0
 13
1.0
 23
0.0
 33
0.0
 40
0.0
 40
0.0
 40
0.0
 40
0.0
 40
0.1111111111111111
 40
0.1111111111111111
 40
0.1111111111111111
 40
0.1111111111111111
 40
0.2222222222222222
 40
0.2222222222222222
 40
0.2222222222222222
 40
0.2222222222222222
 40
0.3333333333333333
 40
0.3333333333333333
 40
0.3333333333333333
 40
0.3333333333333333
 40
0.4444444444444444
 40
0.4444444444444444
 40
0.4444444444444444
 40
0.4444444444444444
 40
0.5555555555555556
 40
0.5555555555555556
 40
0.5555555555555556
 40
0.5555555555555556
 40
0.6666666666666666
 40
0.6666666666666666
 40
0.6666666666666666
 40
0.6666666666666666
 40
0.7777777777777778
 40
0.7777777777777778
 40
0.7777777777777778
 40
0.7777777777777778
 40
1.0
 40
1.0
 40
1.0
 40
1.0
 10
191.9279
 20
-55.6248
 30
0.0
 10
191.9279
 20
-55.6248
 30
0.0
 10
191.9279
 20
-64.2185
 30
0.0
 10
191.9279
 20
-64.2185
 30
0.0
 10
191.9279
 20
-64.2185
 30
0.0
 10
187.82
 20
-65.9471
 30
0.0
 10
182.282
 20
-64.2948
 30
0.0
 10
179.8014
 20
-60.2076
 30
0.0
 10
179.8014
 20
-60.2076
 30
0.0
 10
175.9691
 20
-53.8939
 30
0.0
 10
180.5513
 20
-43.0666
 30
0.0
 10
187.1495
 20
-47.0192
 30
0.0
 10
187.1495
 20
-47.0192
 30
0.0
 10
188.1095
 20
-47.4644
 30
0.0
 10
188.765
 20
-48.7586
 30
0.0
 10
189.129
 20
-50.141
 30
0.0
 10
189.129
 20
-50.141
 30
0.0
 10
189.6709
 20
-52.2001
 30
0.0
 10
189.8542
 20
-53.6931
 30
0.0
 10
187.9119
 20
-54.6688
 30
0.0
 10
187.9119
 20
-54.6688
 30
0.0
 10
184.036
 20
-56.6164
 30
0.0
 10
185.7654
 20
-46.4384
 30
0.0
 10
181.9335
 20
-51.18
 30
0.0
 10
181.9335
 20
-51.18
 30
0.0
 10
181.4091
 20
-52.9764
 30
0.0
 10
181.5461
 20
-53.759
 30
0.0
 10
182.2277
 20
-55.4507
 30
0.0
 10
182.2277
 20
-55.4507
 30
0.0
 10
184.6603
 20
-61.4876
 30
0.0
 10
189.9465
 20
-59.8916
 30
0.0
 10
191.9279
 20
-55.6248
 30
0.0
  0
SPLINE
  5
9D
330
1F
100
AcDbEntity
  8
layer 1
 62
     7
370
     9
100
AcDbSpline
210
0.0
220
0.0
230
1.0
 70
    11
 71
     3
 72
   120
 73
   116
 74
     0
 42
0.0000000001
 43
0.0000000001
 12
1.0
 22
0.0
 32
0.0
 13
1.0
 23
0.0
 33
0.0
 40
0.0
 40
0.0
 40
0.0
 40
0.0
 40
0.0333333333333333
 40
0.0333333333333333
 40
0.0333333333333333
 40
0.0333333333333333
 40
0.0666666666666667
 40
0.0666666666666667
 40
0.0666666666666667
 40
0.0666666666666667
 40
0.1
 40
0.1
 40
0.1
 40
0.1
 40
0.1333333333333333
 40
0.1333333333333333
 40
0.1333333333333333
 40
0.1333333333333333
 40
0.1666666666666667
 40
0.1666666666666667
 40
0.1666666666666667
 40
0.1666666666666667
 40
0.2
 40
0.2
 40
0.2
 40
0.2
 40
0.2333333333333333
 40
0.2333333333333333
 40
0.2333333333333333
 40
0.2333333333333333
 40
0.2666666666666667
 40
0.2666666666666667
 40
0.2666666666666667
 40
0.2666666666666667
 40
0.3
 40
0.3
 40
0.3
 40
0.3
 40
0.3333333333333333
 40
0.3333333333333333
 40
0.3333333333333333
 40
0.3333333333333333
 40
0.3666666666666666
 40
0.3666666666666666
 40
0.3666666666666666
 40
0.3666666666666666
 40
0.4
 40
0.4
 40
0.4
 40
0.4
 40
0.4333333333333333
 40
0.4333333333333333
 40
0.4333333333333333
 40
0.4333333333333333
 40
0.4666666666666667
 40
0.4666666666666667
 40
0.4666666666666667
 40
0.4666666666666667
 40
0.5
 40
0.5
 40
0.5
 40
0.5
 40
0.5333333333333333
 40
0.5333333333333333
 40
0.5333333333333333
 40
0.5333333333333333
 40
0.5666666666666667
 40
0.5666666666666667
 40
0.5666666666666667
 40
0.5666666666666667
 40
0.6
 40
0.6
 40
0.6
 40
0.6
 40
0.6333333333333333
 40
0.6333333333333333
 40
0.6333333333333333
 40
0.6333333333333333
 40
0.6666666666666666
 40
0.6666666666666666
 40
0.6666666666666666
 40
0.6666666666666666
 40
0.7
 40
0.7
 40
0.7
 40
0.7
 40
0.7333333333333333
 40
0.7333333333333333
 40
0.7333333333333333
 40
0.7333333333333333
 40
0.7666666666666667
 40
0.7666666666666667
 40
0.7666666666666667
 40
0.7666666666666667
 40
0.8
 40
0.8
 40
0.8
 40
0.8
 40
0.8333333333333334
 40
0.8333333333333334
 40
0.8333333333333334
 40
0.8333333333333334
 40
0.8666666666666667
 40
0.8666666666666667
 40
0.8666666666666667
 40
0.8666666666666667
 40
0.9
 40
0.9
 40
0.9
 40
0.9
 40
0.9333333333333333
 40
0.9333333333333333
 40
0.9333333333333333
 40
0.9333333333333333
 40
1.0
 40
1.0
 40
1.0
 40
1.0
 10
191.9279
 20
-66.9907
 30
0.0
 10
191.9279
 20
-66.9907
 30
0.0
 10
191.9279
 20
-71.4334
 30
0.0
 10
191.9279
 20
-71.4334
 30
0.0
 10
191.9279
 20
-71.4334
 30
0.0
 10
190.9334
 20
-74.1626
 30
0.0
 10
191.2184
 20
-76.4196
 30
0.0
 10
191.9279
 20
-78.3822
 30
0.0
 10
191.9279
 20
-78.3822
 30
0.0
 10
191.9279
 20
-78.3822
 30
0.0
 10
191.9279
 20
-86.0075
 30
0.0
 10
191.9279
 20
-86.0075
 30
0.0
 10
191.9279
 20
-86.0075
 30
0.0
 10
191.6785
 20
-86.0597
 30
0.0
 10
191.4898
 20
-86.1069
 30
0.0
 10
191.4113
 20
-86.1677
 30
0.0
 10
191.4113
 20
-86.1677
 30
0.0
 10
189.9772
 20
-87.2776
 30
0.0
 10
188.0552
 20
-88.9305
 30
0.0
 10
187.4282
 20
-89.2936
 30
0.0
 10
187.4282
 20
-89.2936
 30
0.0
 10
187.4282
 20
-86.5053
 30
0.0
 10
186.0907
 20
-86.1955
 30
0.0
 10
186.0907
 20
-86.1955
 30
0.0
 10
186.0907
 20
-86.1955
 30
0.0
 10
186.0907
 20
-86.1955
 30
0.0
 10
185.2881
 20
-89.4486
 30
0.0
 10
183.8169
 20
-90.6878
 30
0.0
 10
183.8169
 20
-90.6878
 30
0.0
 10
180.1479
 20
-86.9109
 30
0.0
 10
177.4113
 20
-87.2711
 30
0.0
 10
176.4934
 20
-89.301
 30
0.0
 10
176.4934
 20
-89.301
 30
0.0
 10
178.3336
 20
-91.204
 30
0.0
 10
181.6814
 20
-93.4516
 30
0.0
 10
183.5451
 20
-94.7929
 30
0.0
 10
183.5451
 20
-94.7929
 30
0.0
 10
185.5012
 20
-96.2004
 30
0.0
 10
184.5148
 20
-96.5696
 30
0.0
 10
183.1542
 20
-95.765
 30
0.0
 10
183.1542
 20
-95.765
 30
0.0
 10
182.1265
 20
-95.1711
 30
0.0
 10
181.1621
 20
-94.5524
 30
0.0
 10
180.2083
 20
-93.9752
 30
0.0
 10
180.2083
 20
-93.9752
 30
0.0
 10
176.9484
 20
-92.0019
 30
0.0
 10
174.2569
 20
-92.0628
 30
0.0
 10
171.0674
 20
-90.7971
 30
0.0
 10
171.0674
 20
-90.7971
 30
0.0
 10
165.5491
 20
-88.6077
 30
0.0
 10
165.7922
 20
-82.8182
 30
0.0
 10
164.8233
 20
-82.9425
 30
0.0
 10
164.8233
 20
-82.9425
 30
0.0
 10
164.3217
 20
-85.1499
 30
0.0
 10
164.121
 20
-84.9176
 30
0.0
 10
163.375
 20
-84.0752
 30
0.0
 10
163.375
 20
-84.0752
 30
0.0
 10
162.0856
 20
-82.6196
 30
0.0
 10
159.9922
 20
-74.9068
 30
0.0
 10
160.1417
 20
-74.8875
 30
0.0
 10
160.1417
 20
-74.8875
 30
0.0
 10
164.5558
 20
-78.915
 30
0.0
 10
169.1308
 20
-73.9455
 30
0.0
 10
169.1308
 20
-73.9455
 30
0.0
 10
169.1308
 20
-73.9455
 30
0.0
 10
170.2429
 20
-78.4532
 30
0.0
 10
176.0693
 20
-80.9993
 30
0.0
 10
178.4936
 20
-76.9021
 30
0.0
 10
178.4936
 20
-76.9021
 30
0.0
 10
179.9301
 20
-74.4742
 30
0.0
 10
179.0735
 20
-71.1364
 30
0.0
 10
176.6669
 20
-69.7446
 30
0.0
 10
176.6669
 20
-69.7446
 30
0.0
 10
175.3635
 20
-68.9908
 30
0.0
 10
175.1578
 20
-70.4963
 30
0.0
 10
175.5471
 20
-72.344
 30
0.0
 10
175.5471
 20
-72.344
 30
0.0
 10
176.0485
 20
-74.7212
 30
0.0
 10
175.6015
 20
-75.6257
 30
0.0
 10
172.9162
 20
-74.5276
 30
0.0
 10
172.9162
 20
-74.5276
 30
0.0
 10
170.5657
 20
-73.5661
 30
0.0
 10
170.5656
 20
-69.3946
 30
0.0
 10
171.1269
 20
-67.0111
 30
0.0
 10
171.1269
 20
-67.0111
 30
0.0
 10
173.8712
 20
-62.966
 30
0.0
 10
179.4399
 20
-64.837
 30
0.0
 10
187.5931
 20
-67.5888
 30
0.0
 10
187.5931
 20
-67.5888
 30
0.0
 10
181.6052
 20
-68.4557
 30
0.0
 10
181.1065
 20
-76.5458
 30
0.0
 10
181.1065
 20
-76.5458
 30
0.0
 10
181.1065
 20
-76.5458
 30
0.0
 10
181.1065
 20
-76.5458
 30
0.0
 10
181.6052
 20
-77.1238
 30
0.0
 10
185.0982
 20
-76.8348
 30
0.0
 10
185.0982
 20
-76.8348
 30
0.0
 10
184.3498
 20
-80.013
 30
0.0
 10
179.36
 20
-81.1687
 30
0.0
 10
180.6074
 20
-83.7692
 30
0.0
 10
180.6074
 20
-83.7692
 30
0.0
 10
183.3513
 20
-85.6769
 30
0.0
 10
186.8457
 20
-81.8611
 30
0.0
 10
188.8405
 20
-80.013
 30
0.0
 10
188.8405
 20
-80.013
 30
0.0
 10
189.0225
 20
-81.3471
 30
0.0
 10
189.1544
 20
-87.7479
 30
0.0
 10
190.3449
 20
-83.9136
 30
0.0
 10
190.3449
 20
-83.9136
 30
0.0
 10
190.8129
 20
-82.4064
 30
0.0
 10
191.1612
 20
-79.8735
 30
0.0
 10
190.2041
 20
-76.5013
 30
0.0
 10
190.2041
 20
-76.5013
 30
0.0
 10
189.2812
 20
-73.2489
 30
0.0
 10
188.4991
 20
-68.7342
 30
0.0
 10
191.9279
 20
-66.9907
 30
0.0
  0
SPLINE
  5
9E
330
1F
100
AcDbEntity
  8
layer 1
 62
     7
370
     9
100
AcDbSpline
210
0.0
220
0.0
230
1.0
 70
    11
 71
     3
 72
    20
 73
    16
 74
     0
 42
0.0000000001
 43
0.0000000001
 12
1.0
 22
0.0
 32
0.0
 13
1.0
 23
0.0
 33
0.0
 40
0.0
 40
0.0
 40
0.0
 40
0.0
 40
0.2
 40
0.2
 40
0.2
 40
0.2
 40
0.4
 40
0.4
 40
0.4
 40
0.4
 40
0.6
 40
0.6
 40
0.6
 40
0.6
 40
1.0
 40
1.0
 40
1.0
 40
1.0
 10
191.9279
 20
-88.9178
 30
0.0
 10
191.9279
 20
-88.9178
 30
0.0
 10
191.9279
 20
-100.9737
 30
0.0
 10
191.9279
 20
-100.9737
 30
0.0
 10
191.9279
 20
-100.9737
 30
0.0
 10
191.8917
 20
-101.0712
 30
0.0
 10
191.8467
 20
-101.1448
 30
0.0
 10
191.7942
 20
-101.1972
 30
0.0
 10
191.7942
 20
-101.1972
 30
0.0
 10
191.7942
 20
-101.1972
 30
0.0
 10
191.2702
 20
-101.1972
 30
0.0
 10
191.2702
 20
-101.1972
 30
0.0
 10
191.2702
 20
-101.1972
 30
0.0
 10
189.7659
 20
-100.278
 30
0.0
 10
186.9588
 20
-93.1426
 30
0.0
 10
191.9279
 20
-88.9178
 30
0.0
  0
SPLINE
  5
9F
330
1F
100
AcDbEntity
  8
layer 1
 62
     7
370
     9
100
AcDbSpline
210
0.0
220
0.0
230
1.0
 70
    11
 71
     3
 72
    16
 73
    12
 74
     0
 42
0.0000000001
 43
0.0000000001
 12
1.0
 22
0.0
 32
0.0
 13
1.0
 23
0.0
 33
0.0
 40
0.0
 40
0.0
 40
0.0
 40
0.0
 40
0.25
 40
0.25
 40
0.25
 40
0.25
 40
0.5
 40
0.5
 40
0.5
 40
0.5
 40
1.0
 40
1.0
 40
1.0
 40
1.0
 10
180.5425
 20
-101.1972
 30
0.0
 10
180.5425
 20
-101.1972
 30
0.0
 10
157.617
 20
-101.1972
 30
0.0
 10
157.617
 20
-101.1972
 30
0.0
 10
157.617
 20
-101.1972
 30
0.0
 10
158.9256
 20
-99.3411
 30
0.0
 10
166.8281
 20
-89.3496
 30
0.0
 10
180.4317
 20
-97.2268
 30
0.0
 10
180.4317
 20
-97.2268
 30
0.0
 10
180.4317
 20
-97.2268
 30
0.0
 10
180.5425
 20
-101.1972
 30
0.0
 10
180.5425
 20
-101.1972
 30
0.0
  0
SPLINE
  5
A0
330
1F
100
AcDbEntity
  8
layer 1
 62
     7
370
     9
100
AcDbSpline
210
0.0
220
0.0
230
1.0
 70
    11
 71
     3
 72
    16
 73
    12
 74
     0
 42
0.0000000001
 43
0.0000000001
 12
1.0
 22
0.0
 32
0.0
 13
1.0
 23
0.0
 33
0.0
 40
0.0
 40
0.0
 40
0.0
 40
0.0
 40
0.25
 40
0.25
 40
0.25
 40
0.25
 40
0.5
 40
0.5
 40
0.5
 40
0.5
 40
1.0
 40
1.0
 40
1.0
 40
1.0
 10
153.3048
 20
-101.1972
 30
0.0
 10
153.3048
 20
-101.1972
 30
0.0
 10
148.5222
 20
-101.1972
 30
0.0
 10
148.5222
 20
-101.1972
 30
0.0
 10
148.5222
 20
-101.1972
 30
0.0
 10
148.3633
 20
-99.7172
 30
0.0
 10
148.8593
 20
-92.168
 30
0.0
 10
157.4223
 20
-93.6557
 30
0.0
 10
157.4223
 20
-93.6557
 30
0.0
 10
157.4223
 20
-93.6557
 30
0.0
 10
153.3048
 20
-101.1972
 30
0.0
 10
153.3048
 20
-101.1972
 30
0.0
  0
SPLINE
  5
A1
330
1F
100
AcDbEntity
  8
layer 1
 62
     7
370
     9
100
AcDbSpline
210
0.0
220
0.0
230
1.0
 70
    11
 71
     3
 72
    28
 73
    24
 74
     0
 42
0.0000000001
 43
0.0000000001
 12
1.0
 22
0.0
 32
0.0
 13
1.0
 23
0.0
 33
0.0
 40
0.0
 40
0.0
 40
0.0
 40
0.0
 40
0.1428571428571428
 40
0.1428571428571428
 40
0.1428571428571428
 40
0.1428571428571428
 40
0.2857142857142857
 40
0.2857142857142857
 40
0.2857142857142857
 40
0.2857142857142857
 40
0.4285714285714285
 40
0.4285714285714285
 40
0.4285714285714285
 40
0.4285714285714285
 40
0.5714285714285714
 40
0.5714285714285714
 40
0.5714285714285714
 40
0.5714285714285714
 40
0.7142857142857143
 40
0.7142857142857143
 40
0.7142857142857143
 40
0.7142857142857143
 40
1.0
 40
1.0
 40
1.0
 40
1.0
 10
143.1873
 20
-19.3763
 30
0.0
 10
143.1873
 20
-19.2551
 30
0.0
 10
139.0207
 20
-15.0364
 30
0.0
 10
142.0081
 20
-11.8422
 30
0.0
 10
142.0081
 20
-11.8422
 30
0.0
 10
143.7431
 20
-9.9872
 30
0.0
 10
146.9004
 20
-8.7067
 30
0.0
 10
149.1284
 20
-9.7689
 30
0.0
 10
149.1284
 20
-9.7689
 30
0.0
 10
152.1834
 20
-11.2255
 30
0.0
 10
153.9109
 20
-12.8558
 30
0.0
 10
154.6923
 20
-15.4634
 30
0.0
 10
154.6923
 20
-15.4634
 30
0.0
 10
155.2624
 20
-17.3661
 30
0.0
 10
155.1483
 20
-23.8433
 30
0.0
 10
152.9709
 20
-23.423
 30
0.0
 10
152.9709
 20
-23.423
 30
0.0
 10
152.9709
 20
-23.423
 30
0.0
 10
151.614
 20
-19.4948
 30
0.0
 10
149.4541
 20
-17.7926
 30
0.0
 10
149.4541
 20
-17.7926
 30
0.0
 10
147.1655
 20
-15.989
 30
0.0
 10
143.1873
 20
-19.5616
 30
0.0
 10
143.1873
 20
-19.3763
 30
0.0
  0
SPLINE
  5
A2
330
1F
100
AcDbEntity
  8
layer 1
 62
     7
370
     9
100
AcDbSpline
210
0.0
220
0.0
230
1.0
 70
    11
 71
     3
 72
    28
 73
    24
 74
     0
 42
0.0000000001
 43
0.0000000001
 12
1.0
 22
0.0
 32
0.0
 13
1.0
 23
0.0
 33
0.0
 40
0.0
 40
0.0
 40
0.0
 40
0.0
 40
0.1428571428571428
 40
0.1428571428571428
 40
0.1428571428571428
 40
0.1428571428571428
 40
0.2857142857142857
 40
0.2857142857142857
 40
0.2857142857142857
 40
0.2857142857142857
 40
0.4285714285714285
 40
0.4285714285714285
 40
0.4285714285714285
 40
0.4285714285714285
 40
0.5714285714285714
 40
0.5714285714285714
 40
0.5714285714285714
 40
0.5714285714285714
 40
0.7142857142857143
 40
0.7142857142857143
 40
0.7142857142857143
 40
0.7142857142857143
 40
1.0
 40
1.0
 40
1.0
 40
1.0
 10
150.3327
 20
37.2219
 30
0.0
 10
150.3327
 20
37.2219
 30
0.0
 10
155.2686
 20
43.7062
 30
0.0
 10
155.2686
 20
43.7062
 30
0.0
 10
155.2686
 20
43.7062
 30
0.0
 10
155.2686
 20
43.7062
 30
0.0
 10
145.3966
 20
46.5216
 30
0.0
 10
146.1334
 20
37.9898
 30
0.0
 10
146.1334
 20
37.9898
 30
0.0
 10
146.9436
 20
37.0514
 30
0.0
 10
147.7541
 20
38.4164
 30
0.0
 10
147.7541
 20
38.4164
 30
0.0
 10
147.7541
 20
38.4164
 30
0.0
 10
147.7541
 20
38.4164
 30
0.0
 10
148.4909
 20
40.2935
 30
0.0
 10
148.4909
 20
40.2935
 30
0.0
 10
148.4909
 20
40.2935
 30
0.0
 10
148.4909
 20
40.2935
 30
0.0
 10
149.2276
 20
39.2696
 30
0.0
 10
149.3749
 20
38.0751
 30
0.0
 10
149.3749
 20
38.0751
 30
0.0
 10
149.5222
 20
36.8808
 30
0.0
 10
150.3327
 20
37.2219
 30
0.0
 10
150.3327
 20
37.2219
 30
0.0
  0
ENDSEC
  0
SECTION
  2
OBJECTS
  0
DICTIONARY
  5
C
330
0
100
AcDbDictionary
281
     1
  3
ACAD_GROUP
350
D
  3
ACAD_LAYOUT
350
1A
  3
ACAD_MATERIAL
350
3B
  3
ACAD_MLEADERSTYLE
350
C5
  3
ACAD_MLINESTYLE
350
17
  3
ACAD_PLOTSETTINGS
350
19
  3
ACAD_PLOTSTYLENAME
350
E
  3
ACAD_TABLESTYLE
350
C4
  3
ACAD_VISUALSTYLE
350
2A
  0
DICTIONARY
  5
D
102
{ACAD_REACTORS
330
C
102
}
330
C
100
AcDbDictionary
281
     1
  0
DICTIONARY
  5
1A
102
{ACAD_REACTORS
330
C
102
}
330
C
100
AcDbDictionary
281
     1
  3
Layout1
350
1E
  3
Layout2
350
26
  3
Model
350
22
  0
DICTIONARY
  5
3B
102
{ACAD_REACTORS
330
C
102
}
330
C
100
AcDbDictionary
281
     1
  3
ByBlock
350
3D
  3
ByLayer
350
3C
  3
Global
350
3E
  0
DICTIONARY
  5
C5
102
{ACAD_REACTORS
330
C
102
}
330
C
100
AcDbDictionary
281
     1
  0
DICTIONARY
  5
17
102
{ACAD_REACTORS
330
C
102
}
330
C
100
AcDbDictionary
281
     1
  3
Standard
350
18
  0
DICTIONARY
  5
19
102
{ACAD_REACTORS
330
C
102
}
330
C
100
AcDbDictionary
281
     1
  0
ACDBDICTIONARYWDFLT
  5
E
102
{ACAD_REACTORS
330
C
102
}
330
C
100
AcDbDictionary
281
     1
  3
Normal
350
F
100
AcDbDictionaryWithDefault
340
F
  0
DICTIONARY
  5
C4
102
{ACAD_REACTORS
330
C
102
}
330
C
100
AcDbDictionary
281
     1
  0
DICTIONARY
  5
2A
102
{ACAD_REACTORS
330
C
102
}
330
C
100
AcDbDictionary
281
     1
  3
2dWireframe
350
2F
  3
3D Hidden
350
31
  3
3dWireframe
350
30
  3
Basic
350
32
  3
Brighten
350
36
  3
ColorChange
350
3A
  3
Conceptual
350
34
  3
Dim
350
35
  3
Facepattern
350
39
  3
Flat
350
2B
  3
FlatWithEdges
350
2C
  3
Gouraud
350
2D
  3
GouraudWithEdges
350
2E
  3
Linepattern
350
38
  3
Realistic
350
33
  3
Thicken
350
37
  0
LAYOUT
  5
1E
102
{ACAD_REACTORS
330
1A
102
}
330
1A
100
AcDbPlotSettings
  1

  2
none_device
  4

  6

 40
0.0
 41
0.0
 42
0.0
 43
0.0
 44
0.0
 45
0.0
 46
0.0
 47
0.0
 48
0.0
 49
0.0
140
0.0
141
0.0
142
1.0
143
1.0
 70
   688
 72
     0
 73
     0
 74
     5
  7

 75
    16
 76
     0
 77
     2
 78
   300
147
1.0
148
0.0
149
0.0
100
AcDbLayout
  1
Layout1
 70
     1
 71
     1
 10
0.0
 20
0.0
 11
12.0
 21
9.0
 12
0.0
 22
0.0
 32
0.0
 14
1.000000000000000E+20
 24
1.000000000000000E+20
 34
1.000000000000000E+20
 15
-1.000000000000000E+20
 25
-1.000000000000000E+20
 35
-1.000000000000000E+20
146
0.0
 13
0.0
 23
0.0
 33
0.0
 16
1.0
 26
0.0
 36
0.0
 17
0.0
 27
1.0
 37
0.0
 76
     0
330
1B
  0
LAYOUT
  5
26
102
{ACAD_REACTORS
330
1A
102
}
330
1A
100
AcDbPlotSettings
  1

  2
none_device
  4

  6

 40
0.0
 41
0.0
 42
0.0
 43
0.0
 44
0.0
 45
0.0
 46
0.0
 47
0.0
 48
0.0
 49
0.0
140
0.0
141
0.0
142
1.0
143
1.0
 70
   688
 72
     0
 73
     0
 74
     5
  7

 75
    16
 76
     0
 77
     2
 78
   300
147
1.0
148
0.0
149
0.0
100
AcDbLayout
  1
Layout2
 70
     1
 71
     2
 10
0.0
 20
0.0
 11
0.0
 21
0.0
 12
0.0
 22
0.0
 32
0.0
 14
0.0
 24
0.0
 34
0.0
 15
0.0
 25
0.0
 35
0.0
146
0.0
 13
0.0
 23
0.0
 33
0.0
 16
1.0
 26
0.0
 36
0.0
 17
0.0
 27
1.0
 37
0.0
 76
     0
330
23
  0
LAYOUT
  5
22
102
{ACAD_REACTORS
330
1A
102
}
330
1A
100
AcDbPlotSettings
  1

  2
none_device
  4

  6

 40
0.0
 41
0.0
 42
0.0
 43
0.0
 44
0.0
 45
0.0
 46
0.0
 47
0.0
 48
0.0
 49
0.0
140
0.0
141
0.0
142
1.0
143
1.0
 70
  1712
 72
     0
 73
     0
 74
     0
  7

 75
     0
 76
     0
 77
     2
 78
   300
147
1.0
148
0.0
149
0.0
100
AcDbLayout
  1
Model
 70
     1
 71
     0
 10
0.0
 20
0.0
 11
12.0
 21
9.0
 12
0.0
 22
0.0
 32
0.0
 14
50.4836
 24
-106.2999
 34
0.0
 15
196.6457
 25
131.8919
 35
0.0
146
0.0
 13
0.0
 23
0.0
 33
0.0
 16
1.0
 26
0.0
 36
0.0
 17
0.0
 27
1.0
 37
0.0
 76
     0
330
1F
331
29
  0
MATERIAL
  5
3D
102
{ACAD_REACTORS
330
3B
102
}
330
3B
100
AcDbMaterial
  1
ByBlock
 72
     1
 94
      127
  0
MATERIAL
  5
3C
102
{ACAD_REACTORS
330
3B
102
}
330
3B
100
AcDbMaterial
  1
ByLayer
 72
     1
 94
      127
  0
MATERIAL
  5
3E
102
{ACAD_REACTORS
330
3B
102
}
330
3B
100
AcDbMaterial
  1
Global
 72
     1
 94
      127
  0
MLINESTYLE
  5
18
102
{ACAD_REACTORS
330
17
102
}
330
17
100
AcDbMlineStyle
  2
Standard
 70
     0
  3

 62
   256
 51
90.0
 52
90.0
 71
     2
 49
0.5
 62
   256
  6
BYLAYER
 49
-0.5
 62
   256
  6
BYLAYER
  0
ACDBPLACEHOLDER
  5
F
102
{ACAD_REACTORS
330
E
102
}
330
E
  0
VISUALSTYLE
  5
2F
102
{ACAD_REACTORS
330
2A
102
}
102
{ACAD_XDICTIONARY
360
AC
102
}
330
2A
100
AcDbVisualStyle
  2
2dWireframe
 70
     4
 71
     0
 72
     2
 73
     0
 90
        0
 40
-0.6
 41
-30.0
 62
     5
 63
     7
421
 16777215
 74
     1
 91
        4
 64
     7
 65
   257
 75
     1
175
     1
 42
1.0
 92
        0
 66
   257
 43
1.0
 76
     1
 77
     6
 78
     2
 67
     7
 79
     5
170
     0
171
     0
290
     0
174
     0
 93
        1
 44
0.0
173
     0
291
     0
 45
0.0
  0
VISUALSTYLE
  5
31
102
{ACAD_REACTORS
330
2A
102
}
102
{ACAD_XDICTIONARY
360
B0
102
}
330
2A
100
AcDbVisualStyle
  2
3D Hidden
 70
     6
 71
     1
 72
     2
 73
     2
 90
        0
 40
-0.6
 41
-30.0
 62
     5
 63
     7
421
 16777215
 74
     2
 91
        2
 64
     7
 65
   257
 75
     2
175
     1
 42
40.0
 92
        0
 66
   257
 43
1.0
 76
     1
 77
     6
 78
     2
 67
     7
 79
     3
170
     0
171
     0
290
     0
174
     0
 93
        1
 44
0.0
173
     0
291
     0
 45
0.0
  0
VISUALSTYLE
  5
30
102
{ACAD_REACTORS
330
2A
102
}
102
{ACAD_XDICTIONARY
360
AE
102
}
330
2A
100
AcDbVisualStyle
  2
3dWireframe
 70
     5
 71
     0
 72
     2
 73
     0
 90
        0
 40
-0.6
 41
-30.0
 62
     5
 63
     7
421
 16777215
 74
     1
 91
        4
 64
     7
 65
   257
 75
     1
175
     1
 42
1.0
 92
        0
 66
   257
 43
1.0
 76
     1
 77
     6
 78
     2
 67
     7
 79
     5
170
     0
171
     0
290
     0
174
     0
 93
        1
 44
0.0
173
     0
291
     0
 45
0.0
  0
VISUALSTYLE
  5
32
102
{ACAD_REACTORS
330
2A
102
}
102
{ACAD_XDICTIONARY
360
B2
102
}
330
2A
100
AcDbVisualStyle
  2
Basic
 70
     7
 71
     1
 72
     0
 73
     1
 90
        0
 40
-0.6
 41
-30.0
 62
     5
 63
     7
421
 16777215
 74
     0
 91
        4
 64
     7
 65
   257
 75
     1
175
     1
 42
1.0
 92
        8
 66
     7
 43
1.0
 76
     1
 77
     6
 78
     2
 67
     7
 79
     5
170
     0
171
     0
290
     0
174
     0
 93
        1
 44
0.0
173
     0
291
     1
 45
0.0
  0
VISUALSTYLE
  5
36
102
{ACAD_REACTORS
330
2A
102
}
102
{ACAD_XDICTIONARY
360
BA
102
}
330
2A
100
AcDbVisualStyle
  2
Brighten
 70
    12
 71
     2
 72
     2
 73
     0
 90
        0
 40
-0.6
 41
-30.0
 62
     5
 63
     7
421
 16777215
 74
     1
 91
        4
 64
     7
 65
   257
 75
     1
175
     1
 42
1.0
 92
        8
 66
     7
 43
1.0
 76
     1
 77
     6
 78
     2
 67
     7
 79
     5
170
     0
171
     0
290
     0
174
     0
 93
        1
 44
50.0
173
     0
291
     1
 45
0.0
  0
VISUALSTYLE
  5
3A
102
{ACAD_REACTORS
330
2A
102
}
102
{ACAD_XDICTIONARY
360
C2
102
}
330
2A
100
AcDbVisualStyle
  2
ColorChange
 70
    16
 71
     2
 72
     2
 73
     3
 90
        0
 40
-0.6
 41
-30.0
 62
     5
 63
     8
421
  8421504
 74
     1
 91
        4
 64
     7
 65
   257
 75
     1
175
     1
 42
1.0
 92
        8
 66
     8
424
  8421504
 43
1.0
 76
     1
 77
     6
 78
     2
 67
     7
 79
     5
170
     0
171
     0
290
     0
174
     0
 93
        1
 44
0.0
173
     0
291
     1
 45
0.0
  0
VISUALSTYLE
  5
34
102
{ACAD_REACTORS
330
2A
102
}
102
{ACAD_XDICTIONARY
360
B6
102
}
330
2A
100
AcDbVisualStyle
  2
Conceptual
 70
     9
 71
     3
 72
     2
 73
     0
 90
        0
 40
-0.6
 41
-30.0
 62
     5
 63
     7
421
 16777215
 74
     2
 91
        2
 64
     7
 65
   257
 75
     1
175
     1
 42
40.0
 92
        8
 66
     7
 43
1.0
 76
     1
 77
     6
 78
     2
 67
     7
 79
     3
170
     0
171
     0
290
     0
174
     0
 93
        1
 44
0.0
173
     0
291
     0
 45
0.0
  0
VISUALSTYLE
  5
35
102
{ACAD_REACTORS
330
2A
102
}
102
{ACAD_XDICTIONARY
360
B8
102
}
330
2A
100
AcDbVisualStyle
  2
Dim
 70
    11
 71
     2
 72
     2
 73
     0
 90
        0
 40
-0.6
 41
-30.0
 62
     5
 63
     7
421
 16777215
 74
     1
 91
        4
 64
     7
 65
   257
 75
     1
175
     1
 42
1.0
 92
        8
 66
     7
 43
1.0
 76
     1
 77
     6
 78
     2
 67
     7
 79
     5
170
     0
171
     0
290
     0
174
     0
 93
        1
 44
-50.0
173
     0
291
     1
 45
0.0
  0
VISUALSTYLE
  5
39
102
{ACAD_REACTORS
330
2A
102
}
102
{ACAD_XDICTIONARY
360
C0
102
}
330
2A
100
AcDbVisualStyle
  2
Facepattern
 70
    15
 71
     2
 72
     2
 73
     0
 90
        0
 40
-0.6
 41
-30.0
 62
     5
 63
     7
421
 16777215
 74
     1
 91
        4
 64
     7
 65
   257
 75
     1
175
     1
 42
1.0
 92
        8
 66
     7
 43
1.0
 76
     1
 77
     6
 78
     2
 67
     7
 79
     5
170
     0
171
     0
290
     0
174
     0
 93
        1
 44
0.0
173
     0
291
     1
 45
0.0
  0
VISUALSTYLE
  5
2B
102
{ACAD_REACTORS
330
2A
102
}
102
{ACAD_XDICTIONARY
360
A4
102
}
330
2A
100
AcDbVisualStyle
  2
Flat
 70
     0
 71
     2
 72
     1
 73
     1
 90
        2
 40
-0.6
 41
30.0
 62
     5
 63
     7
421
 16777215
 74
     0
 91
        4
 64
     7
 65
   257
 75
     1
175
     1
 42
1.0
 92
        8
 66
     7
 43
1.0
 76
     1
 77
     6
 78
     2
 67
     7
 79
     5
170
     0
171
     0
290
     0
174
     0
 93
       13
 44
0.0
173
     0
291
     1
 45
0.0
  0
VISUALSTYLE
  5
2C
102
{ACAD_REACTORS
330
2A
102
}
102
{ACAD_XDICTIONARY
360
A6
102
}
330
2A
100
AcDbVisualStyle
  2
FlatWithEdges
 70
     1
 71
     2
 72
     1
 73
     1
 90
        2
 40
-0.6
 41
30.0
 62
     5
 63
     7
421
 16777215
 74
     1
 91
        4
 64
     7
 65
   257
 75
     1
175
     1
 42
1.0
 92
        0
 66
   257
 43
1.0
 76
     1
 77
     6
 78
     2
 67
     7
 79
     5
170
     0
171
     0
290
     0
174
     0
 93
       13
 44
0.0
173
     0
291
     1
 45
0.0
  0
VISUALSTYLE
  5
2D
102
{ACAD_REACTORS
330
2A
102
}
102
{ACAD_XDICTIONARY
360
A8
102
}
330
2A
100
AcDbVisualStyle
  2
Gouraud
 70
     2
 71
     2
 72
     2
 73
     1
 90
        2
 40
-0.6
 41
30.0
 62
     5
 63
     7
421
 16777215
 74
     0
 91
        4
 64
     7
 65
   257
 75
     1
175
     1
 42
1.0
 92
        0
 66
     7
 43
1.0
 76
     1
 77
     6
 78
     2
 67
     7
 79
     5
170
     0
171
     0
290
     0
174
     0
 93
       13
 44
0.0
173
     0
291
     1
 45
0.0
  0
VISUALSTYLE
  5
2E
102
{ACAD_REACTORS
330
2A
102
}
102
{ACAD_XDICTIONARY
360
AA
102
}
330
2A
100
AcDbVisualStyle
  2
GouraudWithEdges
 70
     3
 71
     2
 72
     2
 73
     1
 90
        2
 40
-0.6
 41
30.0
 62
     5
 63
     7
421
 16777215
 74
     1
 91
        4
 64
     7
 65
   257
 75
     1
175
     1
 42
1.0
 92
        0
 66
   257
 43
1.0
 76
     1
 77
     6
 78
     2
 67
     7
 79
     5
170
     0
171
     0
290
     0
174
     0
 93
       13
 44
0.0
173
     0
291
     1
 45
0.0
  0
VISUALSTYLE
  5
38
102
{ACAD_REACTORS
330
2A
102
}
102
{ACAD_XDICTIONARY
360
BE
102
}
330
2A
100
AcDbVisualStyle
  2
Linepattern
 70
    14
 71
     2
 72
     2
 73
     0
 90
        0
 40
-0.6
 41
-30.0
 62
     5
 63
     7
421
 16777215
 74
     1
 91
        4
 64
     7
 65
   257
 75
     7
175
     7
 42
1.0
 92
        8
 66
     7
 43
1.0
 76
     1
 77
     6
 78
     2
 67
     7
 79
     5
170
     0
171
     0
290
     0
174
     0
 93
        1
 44
0.0
173
     0
291
     1
 45
0.0
  0
VISUALSTYLE
  5
33
102
{ACAD_REACTORS
330
2A
102
}
102
{ACAD_XDICTIONARY
360
B4
102
}
330
2A
100
AcDbVisualStyle
  2
Realistic
 70
     8
 71
     2
 72
     2
 73
     0
 90
        0
 40
-0.6
 41
-30.0
 62
     5
 63
     7
421
 16777215
 74
     1
 91
        0
 64
     7
 65
   257
 75
     1
175
     1
 42
1.0
 92
        8
 66
     8
424
  7895160
 43
1.0
 76
     1
 77
     6
 78
     2
 67
     7
 79
     5
170
     0
171
     0
290
     0
174
     0
 93
       13
 44
0.0
173
     0
291
     0
 45
0.0
  0
VISUALSTYLE
  5
37
102
{ACAD_REACTORS
330
2A
102
}
102
{ACAD_XDICTIONARY
360
BC
102
}
330
2A
100
AcDbVisualStyle
  2
Thicken
 70
    13
 71
     2
 72
     2
 73
     0
 90
        0
 40
-0.6
 41
-30.0
 62
     5
 63
     7
421
 16777215
 74
     1
 91
        4
 64
     7
 65
   257
 75
     1
175
     1
 42
1.0
 92
       12
 66
     7
 43
1.0
 76
     1
 77
     6
 78
     2
 67
     7
 79
     5
170
     0
171
     0
290
     0
174
     0
 93
        1
 44
0.0
173
     0
291
     1
 45
0.0
  0
DICTIONARY
  5
AC
330
2F
100
AcDbDictionary
280
     1
281
     1
  3
ACAD_XREC_ROUNDTRIP
360
AD
  0
DICTIONARY
  5
B0
330
31
100
AcDbDictionary
280
     1
281
     1
  3
ACAD_XREC_ROUNDTRIP
360
B1
  0
DICTIONARY
  5
AE
330
30
100
AcDbDictionary
280
     1
281
     1
  3
ACAD_XREC_ROUNDTRIP
360
AF
  0
DICTIONARY
  5
B2
330
32
100
AcDbDictionary
280
     1
281
     1
  3
ACAD_XREC_ROUNDTRIP
360
B3
  0
DICTIONARY
  5
BA
330
36
100
AcDbDictionary
280
     1
281
     1
  3
ACAD_XREC_ROUNDTRIP
360
BB
  0
DICTIONARY
  5
C2
330
3A
100
AcDbDictionary
280
     1
281
     1
  3
ACAD_XREC_ROUNDTRIP
360
C3
  0
DICTIONARY
  5
B6
330
34
100
AcDbDictionary
280
     1
281
     1
  3
ACAD_XREC_ROUNDTRIP
360
B7
  0
DICTIONARY
  5
B8
330
35
100
AcDbDictionary
280
     1
281
     1
  3
ACAD_XREC_ROUNDTRIP
360
B9
  0
DICTIONARY
  5
C0
330
39
100
AcDbDictionary
280
     1
281
     1
  3
ACAD_XREC_ROUNDTRIP
360
C1
  0
DICTIONARY
  5
A4
330
2B
100
AcDbDictionary
280
     1
281
     1
  3
ACAD_XREC_ROUNDTRIP
360
A5
  0
DICTIONARY
  5
A6
330
2C
100
AcDbDictionary
280
     1
281
     1
  3
ACAD_XREC_ROUNDTRIP
360
A7
  0
DICTIONARY
  5
A8
330
2D
100
AcDbDictionary
280
     1
281
     1
  3
ACAD_XREC_ROUNDTRIP
360
A9
  0
DICTIONARY
  5
AA
330
2E
100
AcDbDictionary
280
     1
281
     1
  3
ACAD_XREC_ROUNDTRIP
360
AB
  0
DICTIONARY
  5
BE
330
38
100
AcDbDictionary
280
     1
281
     1
  3
ACAD_XREC_ROUNDTRIP
360
BF
  0
DICTIONARY
  5
B4
330
33
100
AcDbDictionary
280
     1
281
     1
  3
ACAD_XREC_ROUNDTRIP
360
B5
  0
DICTIONARY
  5
BC
330
37
100
AcDbDictionary
280
     1
281
     1
  3
ACAD_XREC_ROUNDTRIP
360
BD
  0
XRECORD
  5
AD
102
{ACAD_REACTORS
330
AC
102
}
330
AC
100
AcDbXrecord
280
     1
102
RTVSPropertyOp0
 70
     1
102
RTVSPropertyOp1
 70
     1
102
RTVSPropertyOp2
 70
     1
102
RTVSPropertyOp3
 70
     1
102
RTVSPropertyOp4
 70
     1
102
RTVSPropertyOp5
 70
     1
102
RTVSPropertyOp6
 70
     1
102
RTVSPropertyOp7
 70
     1
102
RTVSPropertyOp8
 70
     1
102
RTVSPropertyOp9
 70
     1
102
RTVSPropertyOp10
 70
     1
102
RTVSPropertyOp11
 70
     1
102
RTVSPropertyOp12
 70
     1
102
RTVSPropertyOp13
 70
     1
102
RTVSPropertyOp14
 70
     1
102
RTVSPropertyOp15
 70
     1
102
RTVSPropertyOp16
 70
     1
102
RTVSPropertyOp17
 70
     1
102
RTVSPropertyOp18
 70
     1
102
RTVSPropertyOp19
 70
     1
102
RTVSPropertyOp20
 70
     1
102
RTVSPropertyOp21
 70
     1
102
RTVSPropertyOp22
 70
     1
102
RTVSPropertyOp23
 70
     1
102
RTVSPropertyOp24
 70
     1
102
RTVSPropertyOp25
 70
     1
102
RTVSPropertyOp26
 70
     1
102
RTVSPropertyOp27
 70
     1
102
RTVSPropertyOp28
 70
     1
102
RTVSPropertyOp29
 70
     1
102
RTVSPropertyOp30
 70
     1
102
RTVSPropertyOp31
 70
     1
102
RTVSPropertyOp32
 70
     1
  0
XRECORD
  5
B1
102
{ACAD_REACTORS
330
B0
102
}
330
B0
100
AcDbXrecord
280
     1
102
RTVSPropertyOp0
 70
     1
102
RTVSPropertyOp1
 70
     1
102
RTVSPropertyOp2
 70
     1
102
RTVSPropertyOp3
 70
     1
102
RTVSPropertyOp4
 70
     1
102
RTVSPropertyOp5
 70
     1
102
RTVSPropertyOp6
 70
     1
102
RTVSPropertyOp7
 70
     1
102
RTVSPropertyOp8
 70
     1
102
RTVSPropertyOp9
 70
     1
102
RTVSPropertyOp10
 70
     1
102
RTVSPropertyOp11
 70
     1
102
RTVSPropertyOp12
 70
     1
102
RTVSPropertyOp13
 70
     1
102
RTVSPropertyOp14
 70
     1
102
RTVSPropertyOp15
 70
     1
102
RTVSPropertyOp16
 70
     1
102
RTVSPropertyOp17
 70
     1
102
RTVSPropertyOp18
 70
     1
102
RTVSPropertyOp19
 70
     1
102
RTVSPropertyOp20
 70
     1
102
RTVSPropertyOp21
 70
     1
102
RTVSPropertyOp22
 70
     1
102
RTVSPropertyOp23
 70
     1
102
RTVSPropertyOp24
 70
     1
102
RTVSPropertyOp25
 70
     1
102
RTVSPropertyOp26
 70
     1
102
RTVSPropertyOp27
 70
     1
102
RTVSPropertyOp28
 70
     1
102
RTVSPropertyOp29
 70
     1
102
RTVSPropertyOp30
 70
     1
102
RTVSPropertyOp31
 70
     1
102
RTVSPropertyOp32
 70
     1
  0
XRECORD
  5
AF
102
{ACAD_REACTORS
330
AE
102
}
330
AE
100
AcDbXrecord
280
     1
102
RTVSPropertyOp0
 70
     1
102
RTVSPropertyOp1
 70
     1
102
RTVSPropertyOp2
 70
     1
102
RTVSPropertyOp3
 70
     1
102
RTVSPropertyOp4
 70
     1
102
RTVSPropertyOp5
 70
     1
102
RTVSPropertyOp6
 70
     1
102
RTVSPropertyOp7
 70
     1
102
RTVSPropertyOp8
 70
     1
102
RTVSPropertyOp9
 70
     1
102
RTVSPropertyOp10
 70
     1
102
RTVSPropertyOp11
 70
     1
102
RTVSPropertyOp12
 70
     1
102
RTVSPropertyOp13
 70
     1
102
RTVSPropertyOp14
 70
     1
102
RTVSPropertyOp15
 70
     1
102
RTVSPropertyOp16
 70
     1
102
RTVSPropertyOp17
 70
     1
102
RTVSPropertyOp18
 70
     1
102
RTVSPropertyOp19
 70
     1
102
RTVSPropertyOp20
 70
     1
102
RTVSPropertyOp21
 70
     1
102
RTVSPropertyOp22
 70
     1
102
RTVSPropertyOp23
 70
     1
102
RTVSPropertyOp24
 70
     1
102
RTVSPropertyOp25
 70
     1
102
RTVSPropertyOp26
 70
     1
102
RTVSPropertyOp27
 70
     1
102
RTVSPropertyOp28
 70
     1
102
RTVSPropertyOp29
 70
     1
102
RTVSPropertyOp30
 70
     1
102
RTVSPropertyOp31
 70
     1
102
RTVSPropertyOp32
 70
     1
  0
XRECORD
  5
B3
102
{ACAD_REACTORS
330
B2
102
}
330
B2
100
AcDbXrecord
280
     1
102
RTVSPropertyOp0
 70
     1
102
RTVSPropertyOp1
 70
     1
102
RTVSPropertyOp2
 70
     1
102
RTVSPropertyOp3
 70
     1
102
RTVSPropertyOp4
 70
     1
102
RTVSPropertyOp5
 70
     1
102
RTVSPropertyOp6
 70
     1
102
RTVSPropertyOp7
 70
     1
102
RTVSPropertyOp8
 70
     1
102
RTVSPropertyOp9
 70
     1
102
RTVSPropertyOp10
 70
     1
102
RTVSPropertyOp11
 70
     1
102
RTVSPropertyOp12
 70
     1
102
RTVSPropertyOp13
 70
     1
102
RTVSPropertyOp14
 70
     1
102
RTVSPropertyOp15
 70
     1
102
RTVSPropertyOp16
 70
     1
102
RTVSPropertyOp17
 70
     1
102
RTVSPropertyOp18
 70
     1
102
RTVSPropertyOp19
 70
     1
102
RTVSPropertyOp20
 70
     1
102
RTVSPropertyOp21
 70
     1
102
RTVSPropertyOp22
 70
     1
102
RTVSPropertyOp23
 70
     1
102
RTVSPropertyOp24
 70
     1
102
RTVSPropertyOp25
 70
     1
102
RTVSPropertyOp26
 70
     1
102
RTVSPropertyOp27
 70
     1
102
RTVSPropertyOp28
 70
     1
102
RTVSPropertyOp29
 70
     1
102
RTVSPropertyOp30
 70
     1
102
RTVSPropertyOp31
 70
     1
102
RTVSPropertyOp32
 70
     1
  0
XRECORD
  5
BB
102
{ACAD_REACTORS
330
BA
102
}
330
BA
100
AcDbXrecord
280
     1
102
RTVSPropertyOp0
 70
     1
102
RTVSPropertyOp1
 70
     1
102
RTVSPropertyOp2
 70
     1
102
RTVSPropertyOp3
 70
     1
102
RTVSPropertyOp4
 70
     1
102
RTVSPropertyOp5
 70
     1
102
RTVSPropertyOp6
 70
     1
102
RTVSPropertyOp7
 70
     1
102
RTVSPropertyOp8
 70
     1
102
RTVSPropertyOp9
 70
     1
102
RTVSPropertyOp10
 70
     1
102
RTVSPropertyOp11
 70
     1
102
RTVSPropertyOp12
 70
     1
102
RTVSPropertyOp13
 70
     1
102
RTVSPropertyOp14
 70
     1
102
RTVSPropertyOp15
 70
     1
102
RTVSPropertyOp16
 70
     1
102
RTVSPropertyOp17
 70
     1
102
RTVSPropertyOp18
 70
     1
102
RTVSPropertyOp19
 70
     1
102
RTVSPropertyOp20
 70
     1
102
RTVSPropertyOp21
 70
     1
102
RTVSPropertyOp22
 70
     1
102
RTVSPropertyOp23
 70
     1
102
RTVSPropertyOp24
 70
     1
102
RTVSPropertyOp25
 70
     1
102
RTVSPropertyOp26
 70
     1
102
RTVSPropertyOp27
 70
     1
102
RTVSPropertyOp28
 70
     1
102
RTVSPropertyOp29
 70
     1
102
RTVSPropertyOp30
 70
     1
102
RTVSPropertyOp31
 70
     1
102
RTVSPropertyOp32
 70
     1
  0
XRECORD
  5
C3
102
{ACAD_REACTORS
330
C2
102
}
330
C2
100
AcDbXrecord
280
     1
102
RTVSPropertyOp0
 70
     1
102
RTVSPropertyOp1
 70
     1
102
RTVSPropertyOp2
 70
     1
102
RTVSPropertyOp3
 70
     1
102
RTVSPropertyOp4
 70
     1
102
RTVSPropertyOp5
 70
     1
102
RTVSPropertyOp6
 70
     1
102
RTVSPropertyOp7
 70
     1
102
RTVSPropertyOp8
 70
     1
102
RTVSPropertyOp9
 70
     1
102
RTVSPropertyOp10
 70
     1
102
RTVSPropertyOp11
 70
     1
102
RTVSPropertyOp12
 70
     1
102
RTVSPropertyOp13
 70
     1
102
RTVSPropertyOp14
 70
     1
102
RTVSPropertyOp15
 70
     1
102
RTVSPropertyOp16
 70
     1
102
RTVSPropertyOp17
 70
     1
102
RTVSPropertyOp18
 70
     1
102
RTVSPropertyOp19
 70
     1
102
RTVSPropertyOp20
 70
     1
102
RTVSPropertyOp21
 70
     1
102
RTVSPropertyOp22
 70
     1
102
RTVSPropertyOp23
 70
     1
102
RTVSPropertyOp24
 70
     1
102
RTVSPropertyOp25
 70
     1
102
RTVSPropertyOp26
 70
     1
102
RTVSPropertyOp27
 70
     1
102
RTVSPropertyOp28
 70
     1
102
RTVSPropertyOp29
 70
     1
102
RTVSPropertyOp30
 70
     1
102
RTVSPropertyOp31
 70
     1
102
RTVSPropertyOp32
 70
     1
  0
XRECORD
  5
B7
102
{ACAD_REACTORS
330
B6
102
}
330
B6
100
AcDbXrecord
280
     1
102
RTVSPropertyOp0
 70
     1
102
RTVSPropertyOp1
 70
     1
102
RTVSPropertyOp2
 70
     1
102
RTVSPropertyOp3
 70
     1
102
RTVSPropertyOp4
 70
     1
102
RTVSPropertyOp5
 70
     1
102
RTVSPropertyOp6
 70
     1
102
RTVSPropertyOp7
 70
     1
102
RTVSPropertyOp8
 70
     1
102
RTVSPropertyOp9
 70
     1
102
RTVSPropertyOp10
 70
     1
102
RTVSPropertyOp11
 70
     1
102
RTVSPropertyOp12
 70
     1
102
RTVSPropertyOp13
 70
     1
102
RTVSPropertyOp14
 70
     1
102
RTVSPropertyOp15
 70
     1
102
RTVSPropertyOp16
 70
     1
102
RTVSPropertyOp17
 70
     1
102
RTVSPropertyOp18
 70
     1
102
RTVSPropertyOp19
 70
     1
102
RTVSPropertyOp20
 70
     1
102
RTVSPropertyOp21
 70
     1
102
RTVSPropertyOp22
 70
     1
102
RTVSPropertyOp23
 70
     1
102
RTVSPropertyOp24
 70
     1
102
RTVSPropertyOp25
 70
     1
102
RTVSPropertyOp26
 70
     1
102
RTVSPropertyOp27
 70
     1
102
RTVSPropertyOp28
 70
     1
102
RTVSPropertyOp29
 70
     1
102
RTVSPropertyOp30
 70
     1
102
RTVSPropertyOp31
 70
     1
102
RTVSPropertyOp32
 70
     1
  0
XRECORD
  5
B9
102
{ACAD_REACTORS
330
B8
102
}
330
B8
100
AcDbXrecord
280
     1
102
RTVSPropertyOp0
 70
     1
102
RTVSPropertyOp1
 70
     1
102
RTVSPropertyOp2
 70
     1
102
RTVSPropertyOp3
 70
     1
102
RTVSPropertyOp4
 70
     1
102
RTVSPropertyOp5
 70
     1
102
RTVSPropertyOp6
 70
     1
102
RTVSPropertyOp7
 70
     1
102
RTVSPropertyOp8
 70
     1
102
RTVSPropertyOp9
 70
     1
102
RTVSPropertyOp10
 70
     1
102
RTVSPropertyOp11
 70
     1
102
RTVSPropertyOp12
 70
     1
102
RTVSPropertyOp13
 70
     1
102
RTVSPropertyOp14
 70
     1
102
RTVSPropertyOp15
 70
     1
102
RTVSPropertyOp16
 70
     1
102
RTVSPropertyOp17
 70
     1
102
RTVSPropertyOp18
 70
     1
102
RTVSPropertyOp19
 70
     1
102
RTVSPropertyOp20
 70
     1
102
RTVSPropertyOp21
 70
     1
102
RTVSPropertyOp22
 70
     1
102
RTVSPropertyOp23
 70
     1
102
RTVSPropertyOp24
 70
     1
102
RTVSPropertyOp25
 70
     1
102
RTVSPropertyOp26
 70
     1
102
RTVSPropertyOp27
 70
     1
102
RTVSPropertyOp28
 70
     1
102
RTVSPropertyOp29
 70
     1
102
RTVSPropertyOp30
 70
     1
102
RTVSPropertyOp31
 70
     1
102
RTVSPropertyOp32
 70
     1
  0
XRECORD
  5
C1
102
{ACAD_REACTORS
330
C0
102
}
330
C0
100
AcDbXrecord
280
     1
102
RTVSPropertyOp0
 70
     1
102
RTVSPropertyOp1
 70
     1
102
RTVSPropertyOp2
 70
     1
102
RTVSPropertyOp3
 70
     1
102
RTVSPropertyOp4
 70
     1
102
RTVSPropertyOp5
 70
     1
102
RTVSPropertyOp6
 70
     1
102
RTVSPropertyOp7
 70
     1
102
RTVSPropertyOp8
 70
     1
102
RTVSPropertyOp9
 70
     1
102
RTVSPropertyOp10
 70
     1
102
RTVSPropertyOp11
 70
     1
102
RTVSPropertyOp12
 70
     1
102
RTVSPropertyOp13
 70
     1
102
RTVSPropertyOp14
 70
     1
102
RTVSPropertyOp15
 70
     1
102
RTVSPropertyOp16
 70
     1
102
RTVSPropertyOp17
 70
     1
102
RTVSPropertyOp18
 70
     1
102
RTVSPropertyOp19
 70
     1
102
RTVSPropertyOp20
 70
     1
102
RTVSPropertyOp21
 70
     1
102
RTVSPropertyOp22
 70
     1
102
RTVSPropertyOp23
 70
     1
102
RTVSPropertyOp24
 70
     1
102
RTVSPropertyOp25
 70
     1
102
RTVSPropertyOp26
 70
     1
102
RTVSPropertyOp27
 70
     1
102
RTVSPropertyOp28
 70
     1
102
RTVSPropertyOp29
 70
     1
102
RTVSPropertyOp30
 70
     1
102
RTVSPropertyOp31
 70
     1
102
RTVSPropertyOp32
 70
     1
  0
XRECORD
  5
A5
102
{ACAD_REACTORS
330
A4
102
}
330
A4
100
AcDbXrecord
280
     1
102
RTVSPropertyOp0
 70
     1
102
RTVSPropertyOp1
 70
     1
102
RTVSPropertyOp2
 70
     1
102
RTVSPropertyOp3
 70
     1
102
RTVSPropertyOp4
 70
     1
102
RTVSPropertyOp5
 70
     1
102
RTVSPropertyOp6
 70
     1
102
RTVSPropertyOp7
 70
     1
102
RTVSPropertyOp8
 70
     1
102
RTVSPropertyOp9
 70
     1
102
RTVSPropertyOp10
 70
     1
102
RTVSPropertyOp11
 70
     1
102
RTVSPropertyOp12
 70
     1
102
RTVSPropertyOp13
 70
     1
102
RTVSPropertyOp14
 70
     1
102
RTVSPropertyOp15
 70
     1
102
RTVSPropertyOp16
 70
     1
102
RTVSPropertyOp17
 70
     1
102
RTVSPropertyOp18
 70
     1
102
RTVSPropertyOp19
 70
     1
102
RTVSPropertyOp20
 70
     1
102
RTVSPropertyOp21
 70
     1
102
RTVSPropertyOp22
 70
     1
102
RTVSPropertyOp23
 70
     1
102
RTVSPropertyOp24
 70
     1
102
RTVSPropertyOp25
 70
     1
102
RTVSPropertyOp26
 70
     1
102
RTVSPropertyOp27
 70
     1
102
RTVSPropertyOp28
 70
     1
102
RTVSPropertyOp29
 70
     1
102
RTVSPropertyOp30
 70
     1
102
RTVSPropertyOp31
 70
     1
102
RTVSPropertyOp32
 70
     1
  0
XRECORD
  5
A7
102
{ACAD_REACTORS
330
A6
102
}
330
A6
100
AcDbXrecord
280
     1
102
RTVSPropertyOp0
 70
     1
102
RTVSPropertyOp1
 70
     1
102
RTVSPropertyOp2
 70
     1
102
RTVSPropertyOp3
 70
     1
102
RTVSPropertyOp4
 70
     1
102
RTVSPropertyOp5
 70
     1
102
RTVSPropertyOp6
 70
     1
102
RTVSPropertyOp7
 70
     1
102
RTVSPropertyOp8
 70
     1
102
RTVSPropertyOp9
 70
     1
102
RTVSPropertyOp10
 70
     1
102
RTVSPropertyOp11
 70
     1
102
RTVSPropertyOp12
 70
     1
102
RTVSPropertyOp13
 70
     1
102
RTVSPropertyOp14
 70
     1
102
RTVSPropertyOp15
 70
     1
102
RTVSPropertyOp16
 70
     1
102
RTVSPropertyOp17
 70
     1
102
RTVSPropertyOp18
 70
     1
102
RTVSPropertyOp19
 70
     1
102
RTVSPropertyOp20
 70
     1
102
RTVSPropertyOp21
 70
     1
102
RTVSPropertyOp22
 70
     1
102
RTVSPropertyOp23
 70
     1
102
RTVSPropertyOp24
 70
     1
102
RTVSPropertyOp25
 70
     1
102
RTVSPropertyOp26
 70
     1
102
RTVSPropertyOp27
 70
     1
102
RTVSPropertyOp28
 70
     1
102
RTVSPropertyOp29
 70
     1
102
RTVSPropertyOp30
 70
     1
102
RTVSPropertyOp31
 70
     1
102
RTVSPropertyOp32
 70
     1
  0
XRECORD
  5
A9
102
{ACAD_REACTORS
330
A8
102
}
330
A8
100
AcDbXrecord
280
     1
102
RTVSPropertyOp0
 70
     1
102
RTVSPropertyOp1
 70
     1
102
RTVSPropertyOp2
 70
     1
102
RTVSPropertyOp3
 70
     1
102
RTVSPropertyOp4
 70
     1
102
RTVSPropertyOp5
 70
     1
102
RTVSPropertyOp6
 70
     1
102
RTVSPropertyOp7
 70
     1
102
RTVSPropertyOp8
 70
     1
102
RTVSPropertyOp9
 70
     1
102
RTVSPropertyOp10
 70
     1
102
RTVSPropertyOp11
 70
     1
102
RTVSPropertyOp12
 70
     1
102
RTVSPropertyOp13
 70
     1
102
RTVSPropertyOp14
 70
     1
102
RTVSPropertyOp15
 70
     1
102
RTVSPropertyOp16
 70
     1
102
RTVSPropertyOp17
 70
     1
102
RTVSPropertyOp18
 70
     1
102
RTVSPropertyOp19
 70
     1
102
RTVSPropertyOp20
 70
     1
102
RTVSPropertyOp21
 70
     1
102
RTVSPropertyOp22
 70
     1
102
RTVSPropertyOp23
 70
     1
102
RTVSPropertyOp24
 70
     1
102
RTVSPropertyOp25
 70
     1
102
RTVSPropertyOp26
 70
     1
102
RTVSPropertyOp27
 70
     1
102
RTVSPropertyOp28
 70
     1
102
RTVSPropertyOp29
 70
     1
102
RTVSPropertyOp30
 70
     1
102
RTVSPropertyOp31
 70
     1
102
RTVSPropertyOp32
 70
     1
  0
XRECORD
  5
AB
102
{ACAD_REACTORS
330
AA
102
}
330
AA
100
AcDbXrecord
280
     1
102
RTVSPropertyOp0
 70
     1
102
RTVSPropertyOp1
 70
     1
102
RTVSPropertyOp2
 70
     1
102
RTVSPropertyOp3
 70
     1
102
RTVSPropertyOp4
 70
     1
102
RTVSPropertyOp5
 70
     1
102
RTVSPropertyOp6
 70
     1
102
RTVSPropertyOp7
 70
     1
102
RTVSPropertyOp8
 70
     1
102
RTVSPropertyOp9
 70
     1
102
RTVSPropertyOp10
 70
     1
102
RTVSPropertyOp11
 70
     1
102
RTVSPropertyOp12
 70
     1
102
RTVSPropertyOp13
 70
     1
102
RTVSPropertyOp14
 70
     1
102
RTVSPropertyOp15
 70
     1
102
RTVSPropertyOp16
 70
     1
102
RTVSPropertyOp17
 70
     1
102
RTVSPropertyOp18
 70
     1
102
RTVSPropertyOp19
 70
     1
102
RTVSPropertyOp20
 70
     1
102
RTVSPropertyOp21
 70
     1
102
RTVSPropertyOp22
 70
     1
102
RTVSPropertyOp23
 70
     1
102
RTVSPropertyOp24
 70
     1
102
RTVSPropertyOp25
 70
     1
102
RTVSPropertyOp26
 70
     1
102
RTVSPropertyOp27
 70
     1
102
RTVSPropertyOp28
 70
     1
102
RTVSPropertyOp29
 70
     1
102
RTVSPropertyOp30
 70
     1
102
RTVSPropertyOp31
 70
     1
102
RTVSPropertyOp32
 70
     1
  0
XRECORD
  5
BF
102
{ACAD_REACTORS
330
BE
102
}
330
BE
100
AcDbXrecord
280
     1
102
RTVSPropertyOp0
 70
     1
102
RTVSPropertyOp1
 70
     1
102
RTVSPropertyOp2
 70
     1
102
RTVSPropertyOp3
 70
     1
102
RTVSPropertyOp4
 70
     1
102
RTVSPropertyOp5
 70
     1
102
RTVSPropertyOp6
 70
     1
102
RTVSPropertyOp7
 70
     1
102
RTVSPropertyOp8
 70
     1
102
RTVSPropertyOp9
 70
     1
102
RTVSPropertyOp10
 70
     1
102
RTVSPropertyOp11
 70
     1
102
RTVSPropertyOp12
 70
     1
102
RTVSPropertyOp13
 70
     1
102
RTVSPropertyOp14
 70
     1
102
RTVSPropertyOp15
 70
     1
102
RTVSPropertyOp16
 70
     1
102
RTVSPropertyOp17
 70
     1
102
RTVSPropertyOp18
 70
     1
102
RTVSPropertyOp19
 70
     1
102
RTVSPropertyOp20
 70
     1
102
RTVSPropertyOp21
 70
     1
102
RTVSPropertyOp22
 70
     1
102
RTVSPropertyOp23
 70
     1
102
RTVSPropertyOp24
 70
     1
102
RTVSPropertyOp25
 70
     1
102
RTVSPropertyOp26
 70
     1
102
RTVSPropertyOp27
 70
     1
102
RTVSPropertyOp28
 70
     1
102
RTVSPropertyOp29
 70
     1
102
RTVSPropertyOp30
 70
     1
102
RTVSPropertyOp31
 70
     1
102
RTVSPropertyOp32
 70
     1
  0
XRECORD
  5
B5
102
{ACAD_REACTORS
330
B4
102
}
330
B4
100
AcDbXrecord
280
     1
102
RTVSPropertyOp0
 70
     1
102
RTVSPropertyOp1
 70
     1
102
RTVSPropertyOp2
 70
     1
102
RTVSPropertyOp3
 70
     1
102
RTVSPropertyOp4
 70
     1
102
RTVSPropertyOp5
 70
     1
102
RTVSPropertyOp6
 70
     1
102
RTVSPropertyOp7
 70
     1
102
RTVSPropertyOp8
 70
     1
102
RTVSPropertyOp9
 70
     1
102
RTVSPropertyOp10
 70
     1
102
RTVSPropertyOp11
 70
     1
102
RTVSPropertyOp12
 70
     1
102
RTVSPropertyOp13
 70
     1
102
RTVSPropertyOp14
 70
     1
102
RTVSPropertyOp15
 70
     1
102
RTVSPropertyOp16
 70
     1
102
RTVSPropertyOp17
 70
     1
102
RTVSPropertyOp18
 70
     1
102
RTVSPropertyOp19
 70
     1
102
RTVSPropertyOp20
 70
     1
102
RTVSPropertyOp21
 70
     1
102
RTVSPropertyOp22
 70
     1
102
RTVSPropertyOp23
 70
     1
102
RTVSPropertyOp24
 70
     1
102
RTVSPropertyOp25
 70
     1
102
RTVSPropertyOp26
 70
     1
102
RTVSPropertyOp27
 70
     1
102
RTVSPropertyOp28
 70
     1
102
RTVSPropertyOp29
 70
     1
102
RTVSPropertyOp30
 70
     1
102
RTVSPropertyOp31
 70
     1
102
RTVSPropertyOp32
 70
     1
  0
XRECORD
  5
BD
102
{ACAD_REACTORS
330
BC
102
}
330
BC
100
AcDbXrecord
280
     1
102
RTVSPropertyOp0
 70
     1
102
RTVSPropertyOp1
 70
     1
102
RTVSPropertyOp2
 70
     1
102
RTVSPropertyOp3
 70
     1
102
RTVSPropertyOp4
 70
     1
102
RTVSPropertyOp5
 70
     1
102
RTVSPropertyOp6
 70
     1
102
RTVSPropertyOp7
 70
     1
102
RTVSPropertyOp8
 70
     1
102
RTVSPropertyOp9
 70
     1
102
RTVSPropertyOp10
 70
     1
102
RTVSPropertyOp11
 70
     1
102
RTVSPropertyOp12
 70
     1
102
RTVSPropertyOp13
 70
     1
102
RTVSPropertyOp14
 70
     1
102
RTVSPropertyOp15
 70
     1
102
RTVSPropertyOp16
 70
     1
102
RTVSPropertyOp17
 70
     1
102
RTVSPropertyOp18
 70
     1
102
RTVSPropertyOp19
 70
     1
102
RTVSPropertyOp20
 70
     1
102
RTVSPropertyOp21
 70
     1
102
RTVSPropertyOp22
 70
     1
102
RTVSPropertyOp23
 70
     1
102
RTVSPropertyOp24
 70
     1
102
RTVSPropertyOp25
 70
     1
102
RTVSPropertyOp26
 70
     1
102
RTVSPropertyOp27
 70
     1
102
RTVSPropertyOp28
 70
     1
102
RTVSPropertyOp29
 70
     1
102
RTVSPropertyOp30
 70
     1
102
RTVSPropertyOp31
 70
     1
102
RTVSPropertyOp32
 70
     1
  0
ENDSEC
  0
EOF
