  0
SECTION
  2
HEADER
  9
$ACADVER
  1
AC1021
  9
$ACADMAINTVER
 70
    25
  9
$DWGCODEPAGE
  3
ANSI_1252
  9
$INSBASE
 10
0.0
 20
0.0
 30
0.0
  9
$EXTMIN
 10
-187.0144
 20
-115.4756
 30
0.0
  9
$EXTMAX
 10
-63.3533
 20
131.8466
 30
0.0
  9
$LIMMIN
 10
0.0
 20
0.0
  9
$LIMMAX
 10
12.0
 20
9.0
  9
$ORTHOMODE
 70
     0
  9
$REGENMODE
 70
     1
  9
$FILLMODE
 70
     1
  9
$QTEXTMODE
 70
     0
  9
$MIRRTEXT
 70
     1
  9
$LTSCALE
 40
1.0
  9
$ATTMODE
 70
     1
  9
$TEXTSIZE
 40
0.2
  9
$TRACEWID
 40
0.05
  9
$TEXTSTYLE
  7
Standard
  9
$CLAYER
  8
0
  9
$CELTYPE
  6
ByLayer
  9
$CECOLOR
 62
   256
  9
$CELTSCALE
 40
1.0
  9
$DISPSILH
 70
     0
  9
$DIMSCALE
 40
1.0
  9
$DIMASZ
 40
0.18
  9
$DIMEXO
 40
0.0625
  9
$DIMDLI
 40
0.38
  9
$DIMRND
 40
0.0
  9
$DIMDLE
 40
0.0
  9
$DIMEXE
 40
0.18
  9
$DIMTP
 40
0.0
  9
$DIMTM
 40
0.0
  9
$DIMTXT
 40
0.18
  9
$DIMCEN
 40
0.09
  9
$DIMTSZ
 40
0.0
  9
$DIMTOL
 70
     0
  9
$DIMLIM
 70
     0
  9
$DIMTIH
 70
     1
  9
$DIMTOH
 70
     1
  9
$DIMSE1
 70
     0
  9
$DIMSE2
 70
     0
  9
$DIMTAD
 70
     0
  9
$DIMZIN
 70
     0
  9
$DIMBLK
  1

  9
$DIMASO
 70
     1
  9
$DIMSHO
 70
     1
  9
$DIMPOST
  1

  9
$DIMAPOST
  1

  9
$DIMALT
 70
     0
  9
$DIMALTD
 70
     2
  9
$DIMALTF
 40
25.4
  9
$DIMLFAC
 40
1.0
  9
$DIMTOFL
 70
     0
  9
$DIMTVP
 40
0.0
  9
$DIMTIX
 70
     0
  9
$DIMSOXD
 70
     0
  9
$DIMSAH
 70
     0
  9
$DIMBLK1
  1

  9
$DIMBLK2
  1

  9
$DIMSTYLE
  2
Standard
  9
$DIMCLRD
 70
     0
  9
$DIMCLRE
 70
     0
  9
$DIMCLRT
 70
     0
  9
$DIMTFAC
 40
1.0
  9
$DIMGAP
 40
0.09
  9
$DIMJUST
 70
     0
  9
$DIMSD1
 70
     0
  9
$DIMSD2
 70
     0
  9
$DIMTOLJ
 70
     1
  9
$DIMTZIN
 70
     0
  9
$DIMALTZ
 70
     0
  9
$DIMALTTZ
 70
     0
  9
$DIMUPT
 70
     0
  9
$DIMDEC
 70
     4
  9
$DIMTDEC
 70
     4
  9
$DIMALTU
 70
     2
  9
$DIMALTTD
 70
     2
  9
$DIMTXSTY
  7
Standard
  9
$DIMAUNIT
 70
     0
  9
$DIMADEC
 70
     0
  9
$DIMALTRND
 40
0.0
  9
$DIMAZIN
 70
     0
  9
$DIMDSEP
 70
    46
  9
$DIMATFIT
 70
     3
  9
$DIMFRAC
 70
     0
  9
$DIMLDRBLK
  1

  9
$DIMLUNIT
 70
     2
  9
$DIMLWD
 70
    -2
  9
$DIMLWE
 70
    -2
  9
$DIMTMOVE
 70
     0
  9
$DIMFXL
 40
1.0
  9
$DIMFXLON
 70
     0
  9
$DIMJOGANG
 40
0.7853981633974483
  9
$DIMTFILL
 70
     0
  9
$DIMTFILLCLR
 70
     0
  9
$DIMARCSYM
 70
     0
  9
$DIMLTYPE
  6

  9
$DIMLTEX1
  6

  9
$DIMLTEX2
  6

  9
$LUNITS
 70
     2
  9
$LUPREC
 70
     4
  9
$SKETCHINC
 40
0.1
  9
$FILLETRAD
 40
0.5
  9
$AUNITS
 70
     0
  9
$AUPREC
 70
     0
  9
$MENU
  1
.
  9
$ELEVATION
 40
0.0
  9
$PELEVATION
 40
0.0
  9
$THICKNESS
 40
0.0
  9
$LIMCHECK
 70
     0
  9
$CHAMFERA
 40
0.5
  9
$CHAMFERB
 40
0.5
  9
$CHAMFERC
 40
1.0
  9
$CHAMFERD
 40
0.0
  9
$SKPOLY
 70
     0
  9
$TDCREATE
 40
2458493.720520162
  9
$TDUCREATE
 40
2458493.720520162
  9
$TDUPDATE
 40
2458493.720520324
  9
$TDUUPDATE
 40
2458493.720520324
  9
$TDINDWG
 40
0.0000000116
  9
$TDUSRTIMER
 40
0.0000000116
  9
$USRTIMER
 70
     1
  9
$ANGBASE
 50
0.0
  9
$ANGDIR
 70
     0
  9
$PDMODE
 70
     0
  9
$PDSIZE
 40
0.0
  9
$PLINEWID
 40
0.0
  9
$SPLFRAME
 70
     0
  9
$SPLINETYPE
 70
     6
  9
$SPLINESEGS
 70
     8
  9
$HANDSEED
  5
109
  9
$SURFTAB1
 70
     6
  9
$SURFTAB2
 70
     6
  9
$SURFTYPE
 70
     6
  9
$SURFU
 70
     6
  9
$SURFV
 70
     6
  9
$UCSBASE
  2

  9
$UCSNAME
  2

  9
$UCSORG
 10
0.0
 20
0.0
 30
0.0
  9
$UCSXDIR
 10
1.0
 20
0.0
 30
0.0
  9
$UCSYDIR
 10
0.0
 20
1.0
 30
0.0
  9
$UCSORTHOREF
  2

  9
$UCSORTHOVIEW
 70
     0
  9
$UCSORGTOP
 10
0.0
 20
0.0
 30
0.0
  9
$UCSORGBOTTOM
 10
0.0
 20
0.0
 30
0.0
  9
$UCSORGLEFT
 10
0.0
 20
0.0
 30
0.0
  9
$UCSORGRIGHT
 10
0.0
 20
0.0
 30
0.0
  9
$UCSORGFRONT
 10
0.0
 20
0.0
 30
0.0
  9
$UCSORGBACK
 10
0.0
 20
0.0
 30
0.0
  9
$PUCSBASE
  2

  9
$PUCSNAME
  2

  9
$PUCSORG
 10
0.0
 20
0.0
 30
0.0
  9
$PUCSXDIR
 10
1.0
 20
0.0
 30
0.0
  9
$PUCSYDIR
 10
0.0
 20
1.0
 30
0.0
  9
$PUCSORTHOREF
  2

  9
$PUCSORTHOVIEW
 70
     0
  9
$PUCSORGTOP
 10
0.0
 20
0.0
 30
0.0
  9
$PUCSORGBOTTOM
 10
0.0
 20
0.0
 30
0.0
  9
$PUCSORGLEFT
 10
0.0
 20
0.0
 30
0.0
  9
$PUCSORGRIGHT
 10
0.0
 20
0.0
 30
0.0
  9
$PUCSORGFRONT
 10
0.0
 20
0.0
 30
0.0
  9
$PUCSORGBACK
 10
0.0
 20
0.0
 30
0.0
  9
$USERI1
 70
     0
  9
$USERI2
 70
     0
  9
$USERI3
 70
     0
  9
$USERI4
 70
     0
  9
$USERI5
 70
     0
  9
$USERR1
 40
0.0
  9
$USERR2
 40
0.0
  9
$USERR3
 40
0.0
  9
$USERR4
 40
0.0
  9
$USERR5
 40
0.0
  9
$WORLDVIEW
 70
     1
  9
$SHADEDGE
 70
     3
  9
$SHADEDIF
 70
    70
  9
$TILEMODE
 70
     1
  9
$MAXACTVP
 70
    64
  9
$PINSBASE
 10
0.0
 20
0.0
 30
0.0
  9
$PLIMCHECK
 70
     0
  9
$PEXTMIN
 10
1.000000000000000E+20
 20
1.000000000000000E+20
 30
1.000000000000000E+20
  9
$PEXTMAX
 10
-1.000000000000000E+20
 20
-1.000000000000000E+20
 30
-1.000000000000000E+20
  9
$PLIMMIN
 10
0.0
 20
0.0
  9
$PLIMMAX
 10
12.0
 20
9.0
  9
$UNITMODE
 70
     0
  9
$VISRETAIN
 70
     1
  9
$PLINEGEN
 70
     0
  9
$PSLTSCALE
 70
     1
  9
$TREEDEPTH
 70
  3020
  9
$CMLSTYLE
  2
Standard
  9
$CMLJUST
 70
     0
  9
$CMLSCALE
 40
1.0
  9
$PROXYGRAPHICS
 70
     1
  9
$MEASUREMENT
 70
     0
  9
$CELWEIGHT
370
    -1
  9
$ENDCAPS
280
     0
  9
$JOINSTYLE
280
     0
  9
$LWDISPLAY
290
     0
  9
$INSUNITS
 70
     4
  9
$HYPERLINKBASE
  1

  9
$STYLESHEET
  1

  9
$XEDIT
290
     1
  9
$CEPSNTYPE
380
     0
  9
$PSTYLEMODE
290
     1
  9
$FINGERPRINTGUID
  2
{36D128FE-4B1C-494F-B638-7462032950EC}
  9
$VERSIONGUID
  2
{FAEB1C32-E019-11D5-929B-00C0DF256EC4}
  9
$EXTNAMES
290
     1
  9
$PSVPSCALE
 40
0.0
  9
$OLESTARTUP
290
     0
  9
$SORTENTS
280
   127
  9
$INDEXCTL
280
     0
  9
$HIDETEXT
280
     1
  9
$XCLIPFRAME
290
     0
  9
$HALOGAP
280
     0
  9
$OBSCOLOR
 70
   257
  9
$OBSLTYPE
280
     0
  9
$INTERSECTIONDISPLAY
280
     0
  9
$INTERSECTIONCOLOR
 70
   257
  9
$DIMASSOC
280
     2
  9
$PROJECTNAME
  1

  9
$CAMERADISPLAY
290
     0
  9
$LENSLENGTH
 40
50.0
  9
$CAMERAHEIGHT
 40
0.0
  9
$STEPSPERSEC
 40
2.0
  9
$STEPSIZE
 40
6.0
  9
$3DDWFPREC
 40
2.0
  9
$PSOLWIDTH
 40
0.25
  9
$PSOLHEIGHT
 40
4.0
  9
$LOFTANG1
 40
1.570796326794897
  9
$LOFTANG2
 40
1.570796326794897
  9
$LOFTMAG1
 40
0.0
  9
$LOFTMAG2
 40
0.0
  9
$LOFTPARAM
 70
     7
  9
$LOFTNORMALS
280
     1
  9
$LATITUDE
 40
37.795
  9
$LONGITUDE
 40
-122.394
  9
$NORTHDIRECTION
 40
0.0
  9
$TIMEZONE
 70
 -8000
  9
$LIGHTGLYPHDISPLAY
280
     1
  9
$TILEMODELIGHTSYNCH
280
     1
  9
$SOLIDHIST
280
     1
  9
$SHOWHIST
280
     1
  9
$DWFFRAME
280
     2
  9
$DGNFRAME
280
     2
  9
$REALWORLDSCALE
290
     1
  9
$INTERFERECOLOR
 62
   256
  9
$CSHADOW
280
     0
  9
$SHADOWPLANELOCATION
 40
0.0
  0
ENDSEC
  0
SECTION
  2
CLASSES
  0
CLASS
  1
ACDBDICTIONARYWDFLT
  2
AcDbDictionaryWithDefault
  3
ObjectDBX Classes
 90
        0
 91
        4
280
     0
281
     0
  0
CLASS
  1
VISUALSTYLE
  2
AcDbVisualStyle
  3
ObjectDBX Classes
 90
     4095
 91
        4
280
     0
281
     0
  0
CLASS
  1
MATERIAL
  2
AcDbMaterial
  3
ObjectDBX Classes
 90
     1153
 91
        4
280
     0
281
     0
  0
ENDSEC
  0
SECTION
  2
TABLES
  0
TABLE
  2
VPORT
  5
8
330
0
100
AcDbSymbolTable
 70
     1
  0
VPORT
  5
29
330
8
100
AcDbSymbolTableRecord
100
AcDbViewportTableRecord
  2
*Active
 70
     0
 10
0.0
 20
0.0
 11
1.0
 21
1.0
 12
10.42990654205607
 22
4.5
 13
0.0
 23
0.0
 14
0.5
 24
0.5
 15
0.5
 25
0.5
 16
0.0
 26
0.0
 36
1.0
 17
0.0
 27
0.0
 37
0.0
 40
9.0
 41
1.972972972850329
 42
50.0
 43
0.0
 44
0.0
 50
0.0
 51
0.0
 71
     0
 72
   100
 73
     1
 74
     3
 75
     0
 76
     0
 77
     0
 78
     0
281
     0
 65
     1
110
0.0
120
0.0
130
0.0
111
1.0
121
0.0
131
0.0
112
0.0
122
1.0
132
0.0
 79
     0
146
0.0
 60
     3
 61
     5
292
     1
282
     1
141
0.0
142
0.0
 63
   250
  0
ENDTAB
  0
TABLE
  2
LTYPE
  5
5
330
0
100
AcDbSymbolTable
 70
     1
  0
LTYPE
  5
14
330
5
100
AcDbSymbolTableRecord
100
AcDbLinetypeTableRecord
  2
ByBlock
 70
     0
  3

 72
    65
 73
     0
 40
0.0
  0
LTYPE
  5
15
330
5
100
AcDbSymbolTableRecord
100
AcDbLinetypeTableRecord
  2
ByLayer
 70
     0
  3

 72
    65
 73
     0
 40
0.0
  0
LTYPE
  5
16
330
5
100
AcDbSymbolTableRecord
100
AcDbLinetypeTableRecord
  2
Continuous
 70
     0
  3
Solid line
 72
    65
 73
     0
 40
0.0
  0
ENDTAB
  0
TABLE
  2
LAYER
  5
2
330
0
100
AcDbSymbolTable
 70
     3
  0
LAYER
  5
10
330
2
100
AcDbSymbolTableRecord
100
AcDbLayerTableRecord
  2
0
 70
     0
 62
     7
  6
Continuous
370
    -3
390
F
347
3E
  0
LAYER
  5
40
330
2
100
AcDbSymbolTableRecord
100
AcDbLayerTableRecord
  2
layer 1
 70
     0
 62
     7
  6
Continuous
370
    -3
390
F
347
3E
  0
LAYER
  5
E6
330
2
100
AcDbSymbolTableRecord
100
AcDbLayerTableRecord
  2
Master Guides
 70
     0
 62
     7
  6
Continuous
370
    -3
390
F
347
3E
  0
ENDTAB
  0
TABLE
  2
STYLE
  5
3
330
0
100
AcDbSymbolTable
 70
     1
  0
STYLE
  5
11
330
3
100
AcDbSymbolTableRecord
100
AcDbTextStyleTableRecord
  2
Standard
 70
     0
 40
0.0
 41
1.0
 50
0.0
 71
     0
 42
0.2
  3
txt
  4

  0
ENDTAB
  0
TABLE
  2
VIEW
  5
6
330
0
100
AcDbSymbolTable
 70
     0
  0
ENDTAB
  0
TABLE
  2
UCS
  5
7
330
0
100
AcDbSymbolTable
 70
     0
  0
ENDTAB
  0
TABLE
  2
APPID
  5
9
330
0
100
AcDbSymbolTable
 70
     2
  0
APPID
  5
12
330
9
100
AcDbSymbolTableRecord
100
AcDbRegAppTableRecord
  2
ACAD
 70
     0
  0
APPID
  5
3F
330
9
100
AcDbSymbolTableRecord
100
AcDbRegAppTableRecord
  2
ODA
 70
     0
  0
ENDTAB
  0
TABLE
  2
DIMSTYLE
  5
A
330
0
100
AcDbSymbolTable
 70
     1
100
AcDbDimStyleTable
  0
DIMSTYLE
105
27
330
A
100
AcDbSymbolTableRecord
100
AcDbDimStyleTableRecord
  2
Standard
 70
     0
178
     0
340
11
  0
ENDTAB
  0
TABLE
  2
BLOCK_RECORD
  5
1
330
0
100
AcDbSymbolTable
 70
     1
  0
BLOCK_RECORD
  5
1F
330
1
100
AcDbSymbolTableRecord
100
AcDbBlockTableRecord
  2
*Model_Space
340
22
 70
     0
280
     1
281
     0
  0
BLOCK_RECORD
  5
1B
330
1
100
AcDbSymbolTableRecord
100
AcDbBlockTableRecord
  2
*Paper_Space
340
1E
 70
     0
280
     1
281
     0
  0
BLOCK_RECORD
  5
23
330
1
100
AcDbSymbolTableRecord
100
AcDbBlockTableRecord
  2
*Paper_Space0
340
26
 70
     0
280
     1
281
     0
  0
ENDTAB
  0
ENDSEC
  0
SECTION
  2
BLOCKS
  0
BLOCK
  5
20
330
1F
100
AcDbEntity
  8
0
100
AcDbBlockBegin
  2
*Model_Space
 70
     0
 10
0.0
 20
0.0
 30
0.0
  3
*Model_Space
  1

  0
ENDBLK
  5
21
330
1F
100
AcDbEntity
  8
0
100
AcDbBlockEnd
  0
BLOCK
  5
1C
330
1B
100
AcDbEntity
 67
     1
  8
0
100
AcDbBlockBegin
  2
*Paper_Space
 70
     0
 10
0.0
 20
0.0
 30
0.0
  3
*Paper_Space
  1

  0
ENDBLK
  5
1D
330
1B
100
AcDbEntity
 67
     1
  8
0
100
AcDbBlockEnd
  0
BLOCK
  5
24
330
23
100
AcDbEntity
  8
0
100
AcDbBlockBegin
  2
*Paper_Space0
 70
     0
 10
0.0
 20
0.0
 30
0.0
  3
*Paper_Space0
  1

  0
ENDBLK
  5
25
330
23
100
AcDbEntity
  8
0
100
AcDbBlockEnd
  0
ENDSEC
  0
SECTION
  2
ENTITIES
  0
SPLINE
  5
41
330
1F
100
AcDbEntity
  8
layer 1
 62
   250
100
AcDbSpline
210
0.0
220
0.0
230
1.0
 70
    11
 71
     3
 72
    20
 73
    16
 74
     0
 42
0.0000000001
 43
0.0000000001
 12
1.0
 22
0.0
 32
0.0
 13
1.0
 23
0.0
 33
0.0
 40
0.0
 40
0.0
 40
0.0
 40
0.0
 40
0.2
 40
0.2
 40
0.2
 40
0.2
 40
0.4
 40
0.4
 40
0.4
 40
0.4
 40
0.6
 40
0.6
 40
0.6
 40
0.6
 40
1.0
 40
1.0
 40
1.0
 40
1.0
 10
-187.0144
 20
131.8466
 30
0.0
 10
-187.0144
 20
131.8466
 30
0.0
 10
-63.3533
 20
131.8466
 30
0.0
 10
-63.3533
 20
131.8466
 30
0.0
 10
-63.3533
 20
131.8466
 30
0.0
 10
-63.3533
 20
131.8466
 30
0.0
 10
-63.3533
 20
-115.4756
 30
0.0
 10
-63.3533
 20
-115.4756
 30
0.0
 10
-63.3533
 20
-115.4756
 30
0.0
 10
-63.3533
 20
-115.4756
 30
0.0
 10
-187.0144
 20
-115.4756
 30
0.0
 10
-187.0144
 20
-115.4756
 30
0.0
 10
-187.0144
 20
-115.4756
 30
0.0
 10
-187.0144
 20
-115.4756
 30
0.0
 10
-187.0144
 20
131.8466
 30
0.0
 10
-187.0144
 20
131.8466
 30
0.0
  0
SPLINE
  5
42
330
1F
100
AcDbEntity
  8
layer 1
 62
     7
100
AcDbSpline
210
0.0
220
0.0
230
1.0
 70
    11
 71
     3
 72
    20
 73
    16
 74
     0
 42
0.0000000001
 43
0.0000000001
 12
1.0
 22
0.0
 32
0.0
 13
1.0
 23
0.0
 33
0.0
 40
0.0
 40
0.0
 40
0.0
 40
0.0
 40
0.2
 40
0.2
 40
0.2
 40
0.2
 40
0.4
 40
0.4
 40
0.4
 40
0.4
 40
0.6
 40
0.6
 40
0.6
 40
0.6
 40
1.0
 40
1.0
 40
1.0
 40
1.0
 10
-151.8017
 20
115.7566
 30
0.0
 10
-151.8017
 20
115.7566
 30
0.0
 10
-148.9894
 20
114.202
 30
0.0
 10
-148.9894
 20
114.202
 30
0.0
 10
-148.9894
 20
114.202
 30
0.0
 10
-148.9894
 20
114.202
 30
0.0
 10
-148.9894
 20
86.1813
 30
0.0
 10
-148.9894
 20
86.1813
 30
0.0
 10
-148.9894
 20
86.1813
 30
0.0
 10
-148.9894
 20
86.1813
 30
0.0
 10
-151.8017
 20
87.7359
 30
0.0
 10
-151.8017
 20
87.7359
 30
0.0
 10
-151.8017
 20
87.7359
 30
0.0
 10
-151.8017
 20
87.7359
 30
0.0
 10
-151.8017
 20
115.7566
 30
0.0
 10
-151.8017
 20
115.7566
 30
0.0
  0
SPLINE
  5
43
330
1F
100
AcDbEntity
  8
layer 1
 62
     7
100
AcDbSpline
210
0.0
220
0.0
230
1.0
 70
    11
 71
     3
 72
    20
 73
    16
 74
     0
 42
0.0000000001
 43
0.0000000001
 12
1.0
 22
0.0
 32
0.0
 13
1.0
 23
0.0
 33
0.0
 40
0.0
 40
0.0
 40
0.0
 40
0.0
 40
0.2
 40
0.2
 40
0.2
 40
0.2
 40
0.4
 40
0.4
 40
0.4
 40
0.4
 40
0.6
 40
0.6
 40
0.6
 40
0.6
 40
1.0
 40
1.0
 40
1.0
 40
1.0
 10
-146.3323
 20
112.7068
 30
0.0
 10
-146.3323
 20
112.7068
 30
0.0
 10
-143.52
 20
111.1521
 30
0.0
 10
-143.52
 20
111.1521
 30
0.0
 10
-143.52
 20
111.1521
 30
0.0
 10
-143.52
 20
111.1521
 30
0.0
 10
-143.52
 20
83.1315
 30
0.0
 10
-143.52
 20
83.1315
 30
0.0
 10
-143.52
 20
83.1315
 30
0.0
 10
-143.52
 20
83.1315
 30
0.0
 10
-146.3323
 20
84.6861
 30
0.0
 10
-146.3323
 20
84.6861
 30
0.0
 10
-146.3323
 20
84.6861
 30
0.0
 10
-146.3323
 20
84.6861
 30
0.0
 10
-146.3323
 20
112.7068
 30
0.0
 10
-146.3323
 20
112.7068
 30
0.0
  0
SPLINE
  5
44
330
1F
100
AcDbEntity
  8
layer 1
 62
     7
100
AcDbSpline
210
0.0
220
0.0
230
1.0
 70
    11
 71
     3
 72
    20
 73
    16
 74
     0
 42
0.0000000001
 43
0.0000000001
 12
1.0
 22
0.0
 32
0.0
 13
1.0
 23
0.0
 33
0.0
 40
0.0
 40
0.0
 40
0.0
 40
0.0
 40
0.2
 40
0.2
 40
0.2
 40
0.2
 40
0.4
 40
0.4
 40
0.4
 40
0.4
 40
0.6
 40
0.6
 40
0.6
 40
0.6
 40
1.0
 40
1.0
 40
1.0
 40
1.0
 10
-140.8629
 20
109.6569
 30
0.0
 10
-140.8629
 20
109.6569
 30
0.0
 10
-138.0506
 20
108.1023
 30
0.0
 10
-138.0506
 20
108.1023
 30
0.0
 10
-138.0506
 20
108.1023
 30
0.0
 10
-138.0506
 20
108.1023
 30
0.0
 10
-138.0506
 20
80.0816
 30
0.0
 10
-138.0506
 20
80.0816
 30
0.0
 10
-138.0506
 20
80.0816
 30
0.0
 10
-138.0506
 20
80.0816
 30
0.0
 10
-140.8629
 20
81.6362
 30
0.0
 10
-140.8629
 20
81.6362
 30
0.0
 10
-140.8629
 20
81.6362
 30
0.0
 10
-140.8629
 20
81.6362
 30
0.0
 10
-140.8629
 20
109.6569
 30
0.0
 10
-140.8629
 20
109.6569
 30
0.0
  0
SPLINE
  5
45
330
1F
100
AcDbEntity
  8
layer 1
 62
     7
100
AcDbSpline
210
0.0
220
0.0
230
1.0
 70
    11
 71
     3
 72
    20
 73
    16
 74
     0
 42
0.0000000001
 43
0.0000000001
 12
1.0
 22
0.0
 32
0.0
 13
1.0
 23
0.0
 33
0.0
 40
0.0
 40
0.0
 40
0.0
 40
0.0
 40
0.2
 40
0.2
 40
0.2
 40
0.2
 40
0.4
 40
0.4
 40
0.4
 40
0.4
 40
0.6
 40
0.6
 40
0.6
 40
0.6
 40
1.0
 40
1.0
 40
1.0
 40
1.0
 10
-135.3935
 20
106.6071
 30
0.0
 10
-135.3935
 20
106.6071
 30
0.0
 10
-132.5812
 20
105.0524
 30
0.0
 10
-132.5812
 20
105.0524
 30
0.0
 10
-132.5812
 20
105.0524
 30
0.0
 10
-132.5812
 20
105.0524
 30
0.0
 10
-132.5812
 20
77.0317
 30
0.0
 10
-132.5812
 20
77.0317
 30
0.0
 10
-132.5812
 20
77.0317
 30
0.0
 10
-132.5812
 20
77.0317
 30
0.0
 10
-135.3935
 20
78.5864
 30
0.0
 10
-135.3935
 20
78.5864
 30
0.0
 10
-135.3935
 20
78.5864
 30
0.0
 10
-135.3935
 20
78.5864
 30
0.0
 10
-135.3935
 20
106.6071
 30
0.0
 10
-135.3935
 20
106.6071
 30
0.0
  0
SPLINE
  5
46
330
1F
100
AcDbEntity
  8
layer 1
 62
     7
100
AcDbSpline
210
0.0
220
0.0
230
1.0
 70
    11
 71
     3
 72
    20
 73
    16
 74
     0
 42
0.0000000001
 43
0.0000000001
 12
1.0
 22
0.0
 32
0.0
 13
1.0
 23
0.0
 33
0.0
 40
0.0
 40
0.0
 40
0.0
 40
0.0
 40
0.2
 40
0.2
 40
0.2
 40
0.2
 40
0.4
 40
0.4
 40
0.4
 40
0.4
 40
0.6
 40
0.6
 40
0.6
 40
0.6
 40
1.0
 40
1.0
 40
1.0
 40
1.0
 10
-129.9241
 20
103.5572
 30
0.0
 10
-129.9241
 20
103.5572
 30
0.0
 10
-127.1117
 20
102.0026
 30
0.0
 10
-127.1117
 20
102.0026
 30
0.0
 10
-127.1117
 20
102.0026
 30
0.0
 10
-127.1117
 20
102.0026
 30
0.0
 10
-127.1117
 20
73.9819
 30
0.0
 10
-127.1117
 20
73.9819
 30
0.0
 10
-127.1117
 20
73.9819
 30
0.0
 10
-127.1117
 20
73.9819
 30
0.0
 10
-129.9241
 20
75.5365
 30
0.0
 10
-129.9241
 20
75.5365
 30
0.0
 10
-129.9241
 20
75.5365
 30
0.0
 10
-129.9241
 20
75.5365
 30
0.0
 10
-129.9241
 20
103.5572
 30
0.0
 10
-129.9241
 20
103.5572
 30
0.0
  0
SPLINE
  5
47
330
1F
100
AcDbEntity
  8
layer 1
 62
     7
100
AcDbSpline
210
0.0
220
0.0
230
1.0
 70
    11
 71
     3
 72
    20
 73
    16
 74
     0
 42
0.0000000001
 43
0.0000000001
 12
1.0
 22
0.0
 32
0.0
 13
1.0
 23
0.0
 33
0.0
 40
0.0
 40
0.0
 40
0.0
 40
0.0
 40
0.2
 40
0.2
 40
0.2
 40
0.2
 40
0.4
 40
0.4
 40
0.4
 40
0.4
 40
0.6
 40
0.6
 40
0.6
 40
0.6
 40
1.0
 40
1.0
 40
1.0
 40
1.0
 10
-95.001
 20
121.5943
 30
0.0
 10
-95.001
 20
121.5943
 30
0.0
 10
-95.0047
 20
124.8077
 30
0.0
 10
-95.0047
 20
124.8077
 30
0.0
 10
-95.0047
 20
124.8077
 30
0.0
 10
-95.0047
 20
124.8077
 30
0.0
 10
-94.4033
 20
125.1085
 30
0.0
 10
-94.4033
 20
125.1085
 30
0.0
 10
-94.4033
 20
125.1085
 30
0.0
 10
-94.4033
 20
125.1085
 30
0.0
 10
-88.6362
 20
125.1225
 30
0.0
 10
-88.6362
 20
125.1225
 30
0.0
 10
-88.6362
 20
125.1225
 30
0.0
 10
-88.6362
 20
125.1225
 30
0.0
 10
-95.001
 20
121.5943
 30
0.0
 10
-95.001
 20
121.5943
 30
0.0
  0
SPLINE
  5
48
330
1F
100
AcDbEntity
  8
layer 1
 62
     7
100
AcDbSpline
210
0.0
220
0.0
230
1.0
 70
    11
 71
     3
 72
    20
 73
    16
 74
     0
 42
0.0000000001
 43
0.0000000001
 12
1.0
 22
0.0
 32
0.0
 13
1.0
 23
0.0
 33
0.0
 40
0.0
 40
0.0
 40
0.0
 40
0.0
 40
0.2
 40
0.2
 40
0.2
 40
0.2
 40
0.4
 40
0.4
 40
0.4
 40
0.4
 40
0.6
 40
0.6
 40
0.6
 40
0.6
 40
1.0
 40
1.0
 40
1.0
 40
1.0
 10
-98.8062
 20
26.2547
 30
0.0
 10
-98.8062
 20
26.2547
 30
0.0
 10
-101.6186
 20
27.8094
 30
0.0
 10
-101.6186
 20
27.8094
 30
0.0
 10
-101.6186
 20
27.8094
 30
0.0
 10
-101.6186
 20
27.8094
 30
0.0
 10
-101.6186
 20
55.83
 30
0.0
 10
-101.6186
 20
55.83
 30
0.0
 10
-101.6186
 20
55.83
 30
0.0
 10
-101.6186
 20
55.83
 30
0.0
 10
-98.8062
 20
54.2754
 30
0.0
 10
-98.8062
 20
54.2754
 30
0.0
 10
-98.8062
 20
54.2754
 30
0.0
 10
-98.8062
 20
54.2754
 30
0.0
 10
-98.8062
 20
26.2547
 30
0.0
 10
-98.8062
 20
26.2547
 30
0.0
  0
SPLINE
  5
49
330
1F
100
AcDbEntity
  8
layer 1
 62
     7
100
AcDbSpline
210
0.0
220
0.0
230
1.0
 70
    11
 71
     3
 72
    20
 73
    16
 74
     0
 42
0.0000000001
 43
0.0000000001
 12
1.0
 22
0.0
 32
0.0
 13
1.0
 23
0.0
 33
0.0
 40
0.0
 40
0.0
 40
0.0
 40
0.0
 40
0.2
 40
0.2
 40
0.2
 40
0.2
 40
0.4
 40
0.4
 40
0.4
 40
0.4
 40
0.6
 40
0.6
 40
0.6
 40
0.6
 40
1.0
 40
1.0
 40
1.0
 40
1.0
 10
-104.2756
 20
29.3046
 30
0.0
 10
-104.2756
 20
29.3046
 30
0.0
 10
-107.088
 20
30.8592
 30
0.0
 10
-107.088
 20
30.8592
 30
0.0
 10
-107.088
 20
30.8592
 30
0.0
 10
-107.088
 20
30.8592
 30
0.0
 10
-107.088
 20
58.8799
 30
0.0
 10
-107.088
 20
58.8799
 30
0.0
 10
-107.088
 20
58.8799
 30
0.0
 10
-107.088
 20
58.8799
 30
0.0
 10
-104.2756
 20
57.3253
 30
0.0
 10
-104.2756
 20
57.3253
 30
0.0
 10
-104.2756
 20
57.3253
 30
0.0
 10
-104.2756
 20
57.3253
 30
0.0
 10
-104.2756
 20
29.3046
 30
0.0
 10
-104.2756
 20
29.3046
 30
0.0
  0
SPLINE
  5
4A
330
1F
100
AcDbEntity
  8
layer 1
 62
     7
100
AcDbSpline
210
0.0
220
0.0
230
1.0
 70
    11
 71
     3
 72
    20
 73
    16
 74
     0
 42
0.0000000001
 43
0.0000000001
 12
1.0
 22
0.0
 32
0.0
 13
1.0
 23
0.0
 33
0.0
 40
0.0
 40
0.0
 40
0.0
 40
0.0
 40
0.2
 40
0.2
 40
0.2
 40
0.2
 40
0.4
 40
0.4
 40
0.4
 40
0.4
 40
0.6
 40
0.6
 40
0.6
 40
0.6
 40
1.0
 40
1.0
 40
1.0
 40
1.0
 10
-109.7451
 20
32.3544
 30
0.0
 10
-109.7451
 20
32.3544
 30
0.0
 10
-112.5574
 20
33.9091
 30
0.0
 10
-112.5574
 20
33.9091
 30
0.0
 10
-112.5574
 20
33.9091
 30
0.0
 10
-112.5574
 20
33.9091
 30
0.0
 10
-112.5574
 20
61.9298
 30
0.0
 10
-112.5574
 20
61.9298
 30
0.0
 10
-112.5574
 20
61.9298
 30
0.0
 10
-112.5574
 20
61.9298
 30
0.0
 10
-109.7451
 20
60.3751
 30
0.0
 10
-109.7451
 20
60.3751
 30
0.0
 10
-109.7451
 20
60.3751
 30
0.0
 10
-109.7451
 20
60.3751
 30
0.0
 10
-109.7451
 20
32.3544
 30
0.0
 10
-109.7451
 20
32.3544
 30
0.0
  0
SPLINE
  5
4B
330
1F
100
AcDbEntity
  8
layer 1
 62
     7
100
AcDbSpline
210
0.0
220
0.0
230
1.0
 70
    11
 71
     3
 72
    20
 73
    16
 74
     0
 42
0.0000000001
 43
0.0000000001
 12
1.0
 22
0.0
 32
0.0
 13
1.0
 23
0.0
 33
0.0
 40
0.0
 40
0.0
 40
0.0
 40
0.0
 40
0.2
 40
0.2
 40
0.2
 40
0.2
 40
0.4
 40
0.4
 40
0.4
 40
0.4
 40
0.6
 40
0.6
 40
0.6
 40
0.6
 40
1.0
 40
1.0
 40
1.0
 40
1.0
 10
-115.2145
 20
35.4043
 30
0.0
 10
-115.2145
 20
35.4043
 30
0.0
 10
-118.0268
 20
36.9589
 30
0.0
 10
-118.0268
 20
36.9589
 30
0.0
 10
-118.0268
 20
36.9589
 30
0.0
 10
-118.0268
 20
36.9589
 30
0.0
 10
-118.0268
 20
64.9796
 30
0.0
 10
-118.0268
 20
64.9796
 30
0.0
 10
-118.0268
 20
64.9796
 30
0.0
 10
-118.0268
 20
64.9796
 30
0.0
 10
-115.2145
 20
63.425
 30
0.0
 10
-115.2145
 20
63.425
 30
0.0
 10
-115.2145
 20
63.425
 30
0.0
 10
-115.2145
 20
63.425
 30
0.0
 10
-115.2145
 20
35.4043
 30
0.0
 10
-115.2145
 20
35.4043
 30
0.0
  0
SPLINE
  5
4C
330
1F
100
AcDbEntity
  8
layer 1
 62
     7
100
AcDbSpline
210
0.0
220
0.0
230
1.0
 70
    11
 71
     3
 72
    20
 73
    16
 74
     0
 42
0.0000000001
 43
0.0000000001
 12
1.0
 22
0.0
 32
0.0
 13
1.0
 23
0.0
 33
0.0
 40
0.0
 40
0.0
 40
0.0
 40
0.0
 40
0.2
 40
0.2
 40
0.2
 40
0.2
 40
0.4
 40
0.4
 40
0.4
 40
0.4
 40
0.6
 40
0.6
 40
0.6
 40
0.6
 40
1.0
 40
1.0
 40
1.0
 40
1.0
 10
-120.6839
 20
38.4541
 30
0.0
 10
-120.6839
 20
38.4541
 30
0.0
 10
-123.4962
 20
40.0088
 30
0.0
 10
-123.4962
 20
40.0088
 30
0.0
 10
-123.4962
 20
40.0088
 30
0.0
 10
-123.4962
 20
40.0088
 30
0.0
 10
-123.4962
 20
68.0295
 30
0.0
 10
-123.4962
 20
68.0295
 30
0.0
 10
-123.4962
 20
68.0295
 30
0.0
 10
-123.4962
 20
68.0295
 30
0.0
 10
-120.6839
 20
66.4748
 30
0.0
 10
-120.6839
 20
66.4748
 30
0.0
 10
-120.6839
 20
66.4748
 30
0.0
 10
-120.6839
 20
66.4748
 30
0.0
 10
-120.6839
 20
38.4541
 30
0.0
 10
-120.6839
 20
38.4541
 30
0.0
  0
SPLINE
  5
4D
330
1F
100
AcDbEntity
  8
layer 1
 62
     7
100
AcDbSpline
210
0.0
220
0.0
230
1.0
 70
    11
 71
     3
 72
    20
 73
    16
 74
     0
 42
0.0000000001
 43
0.0000000001
 12
1.0
 22
0.0
 32
0.0
 13
1.0
 23
0.0
 33
0.0
 40
0.0
 40
0.0
 40
0.0
 40
0.0
 40
0.2
 40
0.2
 40
0.2
 40
0.2
 40
0.4
 40
0.4
 40
0.4
 40
0.4
 40
0.6
 40
0.6
 40
0.6
 40
0.6
 40
1.0
 40
1.0
 40
1.0
 40
1.0
 10
-127.1201
 20
68.0111
 30
0.0
 10
-127.1201
 20
68.0111
 30
0.0
 10
-127.1163
 20
64.7977
 30
0.0
 10
-127.1163
 20
64.7977
 30
0.0
 10
-127.1163
 20
64.7977
 30
0.0
 10
-127.1163
 20
64.7977
 30
0.0
 10
-151.6238
 20
51.213
 30
0.0
 10
-151.6238
 20
51.213
 30
0.0
 10
-151.6238
 20
51.213
 30
0.0
 10
-151.6238
 20
51.213
 30
0.0
 10
-151.6275
 20
54.4264
 30
0.0
 10
-151.6275
 20
54.4264
 30
0.0
 10
-151.6275
 20
54.4264
 30
0.0
 10
-151.6275
 20
54.4264
 30
0.0
 10
-127.1201
 20
68.0111
 30
0.0
 10
-127.1201
 20
68.0111
 30
0.0
  0
SPLINE
  5
4E
330
1F
100
AcDbEntity
  8
layer 1
 62
     7
100
AcDbSpline
210
0.0
220
0.0
230
1.0
 70
    11
 71
     3
 72
    20
 73
    16
 74
     0
 42
0.0000000001
 43
0.0000000001
 12
1.0
 22
0.0
 32
0.0
 13
1.0
 23
0.0
 33
0.0
 40
0.0
 40
0.0
 40
0.0
 40
0.0
 40
0.2
 40
0.2
 40
0.2
 40
0.2
 40
0.4
 40
0.4
 40
0.4
 40
0.4
 40
0.6
 40
0.6
 40
0.6
 40
0.6
 40
1.0
 40
1.0
 40
1.0
 40
1.0
 10
-127.1199
 20
61.844
 30
0.0
 10
-127.1199
 20
61.844
 30
0.0
 10
-127.1162
 20
58.6306
 30
0.0
 10
-127.1162
 20
58.6306
 30
0.0
 10
-127.1162
 20
58.6306
 30
0.0
 10
-127.1162
 20
58.6306
 30
0.0
 10
-151.6237
 20
45.0459
 30
0.0
 10
-151.6237
 20
45.0459
 30
0.0
 10
-151.6237
 20
45.0459
 30
0.0
 10
-151.6237
 20
45.0459
 30
0.0
 10
-151.6274
 20
48.2593
 30
0.0
 10
-151.6274
 20
48.2593
 30
0.0
 10
-151.6274
 20
48.2593
 30
0.0
 10
-151.6274
 20
48.2593
 30
0.0
 10
-127.1199
 20
61.844
 30
0.0
 10
-127.1199
 20
61.844
 30
0.0
  0
SPLINE
  5
4F
330
1F
100
AcDbEntity
  8
layer 1
 62
     7
100
AcDbSpline
210
0.0
220
0.0
230
1.0
 70
    11
 71
     3
 72
    20
 73
    16
 74
     0
 42
0.0000000001
 43
0.0000000001
 12
1.0
 22
0.0
 32
0.0
 13
1.0
 23
0.0
 33
0.0
 40
0.0
 40
0.0
 40
0.0
 40
0.0
 40
0.2
 40
0.2
 40
0.2
 40
0.2
 40
0.4
 40
0.4
 40
0.4
 40
0.4
 40
0.6
 40
0.6
 40
0.6
 40
0.6
 40
1.0
 40
1.0
 40
1.0
 40
1.0
 10
-127.12
 20
55.6772
 30
0.0
 10
-127.12
 20
55.6772
 30
0.0
 10
-127.1162
 20
52.4638
 30
0.0
 10
-127.1162
 20
52.4638
 30
0.0
 10
-127.1162
 20
52.4638
 30
0.0
 10
-127.1162
 20
52.4638
 30
0.0
 10
-151.6237
 20
38.8791
 30
0.0
 10
-151.6237
 20
38.8791
 30
0.0
 10
-151.6237
 20
38.8791
 30
0.0
 10
-151.6237
 20
38.8791
 30
0.0
 10
-151.6274
 20
42.0925
 30
0.0
 10
-151.6274
 20
42.0925
 30
0.0
 10
-151.6274
 20
42.0925
 30
0.0
 10
-151.6274
 20
42.0925
 30
0.0
 10
-127.12
 20
55.6772
 30
0.0
 10
-127.12
 20
55.6772
 30
0.0
  0
SPLINE
  5
50
330
1F
100
AcDbEntity
  8
layer 1
 62
     7
100
AcDbSpline
210
0.0
220
0.0
230
1.0
 70
    11
 71
     3
 72
    20
 73
    16
 74
     0
 42
0.0000000001
 43
0.0000000001
 12
1.0
 22
0.0
 32
0.0
 13
1.0
 23
0.0
 33
0.0
 40
0.0
 40
0.0
 40
0.0
 40
0.0
 40
0.2
 40
0.2
 40
0.2
 40
0.2
 40
0.4
 40
0.4
 40
0.4
 40
0.4
 40
0.6
 40
0.6
 40
0.6
 40
0.6
 40
1.0
 40
1.0
 40
1.0
 40
1.0
 10
-127.12
 20
49.5103
 30
0.0
 10
-127.12
 20
49.5103
 30
0.0
 10
-127.1163
 20
46.2968
 30
0.0
 10
-127.1163
 20
46.2968
 30
0.0
 10
-127.1163
 20
46.2968
 30
0.0
 10
-127.1163
 20
46.2968
 30
0.0
 10
-151.6237
 20
32.7121
 30
0.0
 10
-151.6237
 20
32.7121
 30
0.0
 10
-151.6237
 20
32.7121
 30
0.0
 10
-151.6237
 20
32.7121
 30
0.0
 10
-151.6274
 20
35.9256
 30
0.0
 10
-151.6274
 20
35.9256
 30
0.0
 10
-151.6274
 20
35.9256
 30
0.0
 10
-151.6274
 20
35.9256
 30
0.0
 10
-127.12
 20
49.5103
 30
0.0
 10
-127.12
 20
49.5103
 30
0.0
  0
SPLINE
  5
51
330
1F
100
AcDbEntity
  8
layer 1
 62
     7
100
AcDbSpline
210
0.0
220
0.0
230
1.0
 70
    11
 71
     3
 72
    20
 73
    16
 74
     0
 42
0.0000000001
 43
0.0000000001
 12
1.0
 22
0.0
 32
0.0
 13
1.0
 23
0.0
 33
0.0
 40
0.0
 40
0.0
 40
0.0
 40
0.0
 40
0.2
 40
0.2
 40
0.2
 40
0.2
 40
0.4
 40
0.4
 40
0.4
 40
0.4
 40
0.6
 40
0.6
 40
0.6
 40
0.6
 40
1.0
 40
1.0
 40
1.0
 40
1.0
 10
-127.12
 20
43.3433
 30
0.0
 10
-127.12
 20
43.3433
 30
0.0
 10
-127.1163
 20
40.1299
 30
0.0
 10
-127.1163
 20
40.1299
 30
0.0
 10
-127.1163
 20
40.1299
 30
0.0
 10
-127.1163
 20
40.1299
 30
0.0
 10
-151.6237
 20
26.5452
 30
0.0
 10
-151.6237
 20
26.5452
 30
0.0
 10
-151.6237
 20
26.5452
 30
0.0
 10
-151.6237
 20
26.5452
 30
0.0
 10
-151.6275
 20
29.7586
 30
0.0
 10
-151.6275
 20
29.7586
 30
0.0
 10
-151.6275
 20
29.7586
 30
0.0
 10
-151.6275
 20
29.7586
 30
0.0
 10
-127.12
 20
43.3433
 30
0.0
 10
-127.12
 20
43.3433
 30
0.0
  0
SPLINE
  5
52
330
1F
100
AcDbEntity
  8
layer 1
 62
     7
100
AcDbSpline
210
0.0
220
0.0
230
1.0
 70
    11
 71
     3
 72
    20
 73
    16
 74
     0
 42
0.0000000001
 43
0.0000000001
 12
1.0
 22
0.0
 32
0.0
 13
1.0
 23
0.0
 33
0.0
 40
0.0
 40
0.0
 40
0.0
 40
0.0
 40
0.2
 40
0.2
 40
0.2
 40
0.2
 40
0.4
 40
0.4
 40
0.4
 40
0.4
 40
0.6
 40
0.6
 40
0.6
 40
0.6
 40
1.0
 40
1.0
 40
1.0
 40
1.0
 10
-129.0966
 20
71.0772
 30
0.0
 10
-129.0966
 20
71.0772
 30
0.0
 10
-131.8884
 20
69.4859
 30
0.0
 10
-131.8884
 20
69.4859
 30
0.0
 10
-131.8884
 20
69.4859
 30
0.0
 10
-131.8884
 20
69.4859
 30
0.0
 10
-156.581
 20
83.3827
 30
0.0
 10
-156.581
 20
83.3827
 30
0.0
 10
-156.581
 20
83.3827
 30
0.0
 10
-156.581
 20
83.3827
 30
0.0
 10
-153.7893
 20
84.9741
 30
0.0
 10
-153.7893
 20
84.9741
 30
0.0
 10
-153.7893
 20
84.9741
 30
0.0
 10
-153.7893
 20
84.9741
 30
0.0
 10
-129.0966
 20
71.0772
 30
0.0
 10
-129.0966
 20
71.0772
 30
0.0
  0
SPLINE
  5
53
330
1F
100
AcDbEntity
  8
layer 1
 62
     7
100
AcDbSpline
210
0.0
220
0.0
230
1.0
 70
    11
 71
     3
 72
    20
 73
    16
 74
     0
 42
0.0000000001
 43
0.0000000001
 12
1.0
 22
0.0
 32
0.0
 13
1.0
 23
0.0
 33
0.0
 40
0.0
 40
0.0
 40
0.0
 40
0.0
 40
0.2
 40
0.2
 40
0.2
 40
0.2
 40
0.4
 40
0.4
 40
0.4
 40
0.4
 40
0.6
 40
0.6
 40
0.6
 40
0.6
 40
1.0
 40
1.0
 40
1.0
 40
1.0
 10
-134.519
 20
68.0273
 30
0.0
 10
-134.519
 20
68.0273
 30
0.0
 10
-137.3108
 20
66.436
 30
0.0
 10
-137.3108
 20
66.436
 30
0.0
 10
-137.3108
 20
66.436
 30
0.0
 10
-137.3108
 20
66.436
 30
0.0
 10
-161.9423
 20
80.3349
 30
0.0
 10
-161.9423
 20
80.3349
 30
0.0
 10
-161.9423
 20
80.3349
 30
0.0
 10
-161.9423
 20
80.3349
 30
0.0
 10
-159.1506
 20
81.9262
 30
0.0
 10
-159.1506
 20
81.9262
 30
0.0
 10
-159.1506
 20
81.9262
 30
0.0
 10
-159.1506
 20
81.9262
 30
0.0
 10
-134.519
 20
68.0273
 30
0.0
 10
-134.519
 20
68.0273
 30
0.0
  0
SPLINE
  5
54
330
1F
100
AcDbEntity
  8
layer 1
 62
     7
100
AcDbSpline
210
0.0
220
0.0
230
1.0
 70
    11
 71
     3
 72
    20
 73
    16
 74
     0
 42
0.0000000001
 43
0.0000000001
 12
1.0
 22
0.0
 32
0.0
 13
1.0
 23
0.0
 33
0.0
 40
0.0
 40
0.0
 40
0.0
 40
0.0
 40
0.2
 40
0.2
 40
0.2
 40
0.2
 40
0.4
 40
0.4
 40
0.4
 40
0.4
 40
0.6
 40
0.6
 40
0.6
 40
0.6
 40
1.0
 40
1.0
 40
1.0
 40
1.0
 10
-140.1104
 20
64.9277
 30
0.0
 10
-140.1104
 20
64.9277
 30
0.0
 10
-142.9021
 20
63.3364
 30
0.0
 10
-142.9021
 20
63.3364
 30
0.0
 10
-142.9021
 20
63.3364
 30
0.0
 10
-142.9021
 20
63.3364
 30
0.0
 10
-167.3035
 20
77.2874
 30
0.0
 10
-167.3035
 20
77.2874
 30
0.0
 10
-167.3035
 20
77.2874
 30
0.0
 10
-167.3035
 20
77.2874
 30
0.0
 10
-164.5117
 20
78.8787
 30
0.0
 10
-164.5117
 20
78.8787
 30
0.0
 10
-164.5117
 20
78.8787
 30
0.0
 10
-164.5117
 20
78.8787
 30
0.0
 10
-140.1104
 20
64.9277
 30
0.0
 10
-140.1104
 20
64.9277
 30
0.0
  0
SPLINE
  5
55
330
1F
100
AcDbEntity
  8
layer 1
 62
     7
100
AcDbSpline
210
0.0
220
0.0
230
1.0
 70
    11
 71
     3
 72
    20
 73
    16
 74
     0
 42
0.0000000001
 43
0.0000000001
 12
1.0
 22
0.0
 32
0.0
 13
1.0
 23
0.0
 33
0.0
 40
0.0
 40
0.0
 40
0.0
 40
0.0
 40
0.2
 40
0.2
 40
0.2
 40
0.2
 40
0.4
 40
0.4
 40
0.4
 40
0.4
 40
0.6
 40
0.6
 40
0.6
 40
0.6
 40
1.0
 40
1.0
 40
1.0
 40
1.0
 10
-145.69
 20
61.8353
 30
0.0
 10
-145.69
 20
61.8353
 30
0.0
 10
-148.4818
 20
60.244
 30
0.0
 10
-148.4818
 20
60.244
 30
0.0
 10
-148.4818
 20
60.244
 30
0.0
 10
-148.4818
 20
60.244
 30
0.0
 10
-172.6648
 20
74.2397
 30
0.0
 10
-172.6648
 20
74.2397
 30
0.0
 10
-172.6648
 20
74.2397
 30
0.0
 10
-172.6648
 20
74.2397
 30
0.0
 10
-169.873
 20
75.831
 30
0.0
 10
-169.873
 20
75.831
 30
0.0
 10
-169.873
 20
75.831
 30
0.0
 10
-169.873
 20
75.831
 30
0.0
 10
-145.69
 20
61.8353
 30
0.0
 10
-145.69
 20
61.8353
 30
0.0
  0
SPLINE
  5
56
330
1F
100
AcDbEntity
  8
layer 1
 62
     7
100
AcDbSpline
210
0.0
220
0.0
230
1.0
 70
    11
 71
     3
 72
    20
 73
    16
 74
     0
 42
0.0000000001
 43
0.0000000001
 12
1.0
 22
0.0
 32
0.0
 13
1.0
 23
0.0
 33
0.0
 40
0.0
 40
0.0
 40
0.0
 40
0.0
 40
0.2
 40
0.2
 40
0.2
 40
0.2
 40
0.4
 40
0.4
 40
0.4
 40
0.4
 40
0.6
 40
0.6
 40
0.6
 40
0.6
 40
1.0
 40
1.0
 40
1.0
 40
1.0
 10
-150.9036
 20
58.9453
 30
0.0
 10
-150.9036
 20
58.9453
 30
0.0
 10
-153.6953
 20
57.354
 30
0.0
 10
-153.6953
 20
57.354
 30
0.0
 10
-153.6953
 20
57.354
 30
0.0
 10
-153.6953
 20
57.354
 30
0.0
 10
-178.026
 20
71.1921
 30
0.0
 10
-178.026
 20
71.1921
 30
0.0
 10
-178.026
 20
71.1921
 30
0.0
 10
-178.026
 20
71.1921
 30
0.0
 10
-175.2343
 20
72.7834
 30
0.0
 10
-175.2343
 20
72.7834
 30
0.0
 10
-175.2343
 20
72.7834
 30
0.0
 10
-175.2343
 20
72.7834
 30
0.0
 10
-150.9036
 20
58.9453
 30
0.0
 10
-150.9036
 20
58.9453
 30
0.0
  0
SPLINE
  5
57
330
1F
100
AcDbEntity
  8
layer 1
 62
     7
100
AcDbSpline
210
0.0
220
0.0
230
1.0
 70
    11
 71
     3
 72
    20
 73
    16
 74
     0
 42
0.0000000001
 43
0.0000000001
 12
1.0
 22
0.0
 32
0.0
 13
1.0
 23
0.0
 33
0.0
 40
0.0
 40
0.0
 40
0.0
 40
0.0
 40
0.2
 40
0.2
 40
0.2
 40
0.2
 40
0.4
 40
0.4
 40
0.4
 40
0.4
 40
0.6
 40
0.6
 40
0.6
 40
0.6
 40
1.0
 40
1.0
 40
1.0
 40
1.0
 10
-70.2045
 20
121.1203
 30
0.0
 10
-70.2045
 20
121.1203
 30
0.0
 10
-70.2324
 20
117.9491
 30
0.0
 10
-70.2324
 20
117.9491
 30
0.0
 10
-70.2324
 20
117.9491
 30
0.0
 10
-70.2324
 20
117.9491
 30
0.0
 10
-82.6435
 20
125.0825
 30
0.0
 10
-82.6435
 20
125.0825
 30
0.0
 10
-82.6435
 20
125.0825
 30
0.0
 10
-82.6435
 20
125.0825
 30
0.0
 10
-77.2189
 20
125.1306
 30
0.0
 10
-77.2189
 20
125.1306
 30
0.0
 10
-77.2189
 20
125.1306
 30
0.0
 10
-77.2189
 20
125.1306
 30
0.0
 10
-70.2045
 20
121.1203
 30
0.0
 10
-70.2045
 20
121.1203
 30
0.0
  0
SPLINE
  5
58
330
1F
100
AcDbEntity
  8
layer 1
 62
     7
100
AcDbSpline
210
0.0
220
0.0
230
1.0
 70
    11
 71
     3
 72
    20
 73
    16
 74
     0
 42
0.0000000001
 43
0.0000000001
 12
1.0
 22
0.0
 32
0.0
 13
1.0
 23
0.0
 33
0.0
 40
0.0
 40
0.0
 40
0.0
 40
0.0
 40
0.2
 40
0.2
 40
0.2
 40
0.2
 40
0.4
 40
0.4
 40
0.4
 40
0.4
 40
0.6
 40
0.6
 40
0.6
 40
0.6
 40
1.0
 40
1.0
 40
1.0
 40
1.0
 10
-70.2024
 20
114.9025
 30
0.0
 10
-70.2024
 20
114.9025
 30
0.0
 10
-70.1857
 20
111.686
 30
0.0
 10
-70.1857
 20
111.686
 30
0.0
 10
-70.1857
 20
111.686
 30
0.0
 10
-70.1857
 20
111.686
 30
0.0
 10
-87.7944
 20
121.8769
 30
0.0
 10
-87.7944
 20
121.8769
 30
0.0
 10
-87.7944
 20
121.8769
 30
0.0
 10
-87.7944
 20
121.8769
 30
0.0
 10
-85.0027
 20
123.4682
 30
0.0
 10
-85.0027
 20
123.4682
 30
0.0
 10
-85.0027
 20
123.4682
 30
0.0
 10
-85.0027
 20
123.4682
 30
0.0
 10
-70.2024
 20
114.9025
 30
0.0
 10
-70.2024
 20
114.9025
 30
0.0
  0
SPLINE
  5
59
330
1F
100
AcDbEntity
  8
layer 1
 62
     7
100
AcDbSpline
210
0.0
220
0.0
230
1.0
 70
    11
 71
     3
 72
    20
 73
    16
 74
     0
 42
0.0000000001
 43
0.0000000001
 12
1.0
 22
0.0
 32
0.0
 13
1.0
 23
0.0
 33
0.0
 40
0.0
 40
0.0
 40
0.0
 40
0.0
 40
0.2
 40
0.2
 40
0.2
 40
0.2
 40
0.4
 40
0.4
 40
0.4
 40
0.4
 40
0.6
 40
0.6
 40
0.6
 40
0.6
 40
1.0
 40
1.0
 40
1.0
 40
1.0
 10
-70.1423
 20
108.9196
 30
0.0
 10
-70.1423
 20
108.9196
 30
0.0
 10
-70.1746
 20
105.7589
 30
0.0
 10
-70.1746
 20
105.7589
 30
0.0
 10
-70.1746
 20
105.7589
 30
0.0
 10
-70.1746
 20
105.7589
 30
0.0
 10
-93.1557
 20
118.8293
 30
0.0
 10
-93.1557
 20
118.8293
 30
0.0
 10
-93.1557
 20
118.8293
 30
0.0
 10
-93.1557
 20
118.8293
 30
0.0
 10
-90.3639
 20
120.4206
 30
0.0
 10
-90.3639
 20
120.4206
 30
0.0
 10
-90.3639
 20
120.4206
 30
0.0
 10
-90.3639
 20
120.4206
 30
0.0
 10
-70.1423
 20
108.9196
 30
0.0
 10
-70.1423
 20
108.9196
 30
0.0
  0
SPLINE
  5
5A
330
1F
100
AcDbEntity
  8
layer 1
 62
     7
100
AcDbSpline
210
0.0
220
0.0
230
1.0
 70
    11
 71
     3
 72
    20
 73
    16
 74
     0
 42
0.0000000001
 43
0.0000000001
 12
1.0
 22
0.0
 32
0.0
 13
1.0
 23
0.0
 33
0.0
 40
0.0
 40
0.0
 40
0.0
 40
0.0
 40
0.2
 40
0.2
 40
0.2
 40
0.2
 40
0.4
 40
0.4
 40
0.4
 40
0.4
 40
0.6
 40
0.6
 40
0.6
 40
0.6
 40
1.0
 40
1.0
 40
1.0
 40
1.0
 10
-151.8017
 20
20.5299
 30
0.0
 10
-151.8017
 20
20.5299
 30
0.0
 10
-148.9894
 20
18.9753
 30
0.0
 10
-148.9894
 20
18.9753
 30
0.0
 10
-148.9894
 20
18.9753
 30
0.0
 10
-148.9894
 20
18.9753
 30
0.0
 10
-148.9894
 20
-9.0454
 30
0.0
 10
-148.9894
 20
-9.0454
 30
0.0
 10
-148.9894
 20
-9.0454
 30
0.0
 10
-148.9894
 20
-9.0454
 30
0.0
 10
-151.8017
 20
-7.4908
 30
0.0
 10
-151.8017
 20
-7.4908
 30
0.0
 10
-151.8017
 20
-7.4908
 30
0.0
 10
-151.8017
 20
-7.4908
 30
0.0
 10
-151.8017
 20
20.5299
 30
0.0
 10
-151.8017
 20
20.5299
 30
0.0
  0
SPLINE
  5
5B
330
1F
100
AcDbEntity
  8
layer 1
 62
     7
100
AcDbSpline
210
0.0
220
0.0
230
1.0
 70
    11
 71
     3
 72
    20
 73
    16
 74
     0
 42
0.0000000001
 43
0.0000000001
 12
1.0
 22
0.0
 32
0.0
 13
1.0
 23
0.0
 33
0.0
 40
0.0
 40
0.0
 40
0.0
 40
0.0
 40
0.2
 40
0.2
 40
0.2
 40
0.2
 40
0.4
 40
0.4
 40
0.4
 40
0.4
 40
0.6
 40
0.6
 40
0.6
 40
0.6
 40
1.0
 40
1.0
 40
1.0
 40
1.0
 10
-146.3323
 20
17.4801
 30
0.0
 10
-146.3323
 20
17.4801
 30
0.0
 10
-143.52
 20
15.9254
 30
0.0
 10
-143.52
 20
15.9254
 30
0.0
 10
-143.52
 20
15.9254
 30
0.0
 10
-143.52
 20
15.9254
 30
0.0
 10
-143.52
 20
-12.0953
 30
0.0
 10
-143.52
 20
-12.0953
 30
0.0
 10
-143.52
 20
-12.0953
 30
0.0
 10
-143.52
 20
-12.0953
 30
0.0
 10
-146.3323
 20
-10.5406
 30
0.0
 10
-146.3323
 20
-10.5406
 30
0.0
 10
-146.3323
 20
-10.5406
 30
0.0
 10
-146.3323
 20
-10.5406
 30
0.0
 10
-146.3323
 20
17.4801
 30
0.0
 10
-146.3323
 20
17.4801
 30
0.0
  0
SPLINE
  5
5C
330
1F
100
AcDbEntity
  8
layer 1
 62
     7
100
AcDbSpline
210
0.0
220
0.0
230
1.0
 70
    11
 71
     3
 72
    20
 73
    16
 74
     0
 42
0.0000000001
 43
0.0000000001
 12
1.0
 22
0.0
 32
0.0
 13
1.0
 23
0.0
 33
0.0
 40
0.0
 40
0.0
 40
0.0
 40
0.0
 40
0.2
 40
0.2
 40
0.2
 40
0.2
 40
0.4
 40
0.4
 40
0.4
 40
0.4
 40
0.6
 40
0.6
 40
0.6
 40
0.6
 40
1.0
 40
1.0
 40
1.0
 40
1.0
 10
-140.8629
 20
14.4302
 30
0.0
 10
-140.8629
 20
14.4302
 30
0.0
 10
-138.0506
 20
12.8756
 30
0.0
 10
-138.0506
 20
12.8756
 30
0.0
 10
-138.0506
 20
12.8756
 30
0.0
 10
-138.0506
 20
12.8756
 30
0.0
 10
-138.0506
 20
-15.1451
 30
0.0
 10
-138.0506
 20
-15.1451
 30
0.0
 10
-138.0506
 20
-15.1451
 30
0.0
 10
-138.0506
 20
-15.1451
 30
0.0
 10
-140.8629
 20
-13.5905
 30
0.0
 10
-140.8629
 20
-13.5905
 30
0.0
 10
-140.8629
 20
-13.5905
 30
0.0
 10
-140.8629
 20
-13.5905
 30
0.0
 10
-140.8629
 20
14.4302
 30
0.0
 10
-140.8629
 20
14.4302
 30
0.0
  0
SPLINE
  5
5D
330
1F
100
AcDbEntity
  8
layer 1
 62
     7
100
AcDbSpline
210
0.0
220
0.0
230
1.0
 70
    11
 71
     3
 72
    20
 73
    16
 74
     0
 42
0.0000000001
 43
0.0000000001
 12
1.0
 22
0.0
 32
0.0
 13
1.0
 23
0.0
 33
0.0
 40
0.0
 40
0.0
 40
0.0
 40
0.0
 40
0.2
 40
0.2
 40
0.2
 40
0.2
 40
0.4
 40
0.4
 40
0.4
 40
0.4
 40
0.6
 40
0.6
 40
0.6
 40
0.6
 40
1.0
 40
1.0
 40
1.0
 40
1.0
 10
-135.3935
 20
11.3803
 30
0.0
 10
-135.3935
 20
11.3803
 30
0.0
 10
-132.5812
 20
9.8257
 30
0.0
 10
-132.5812
 20
9.8257
 30
0.0
 10
-132.5812
 20
9.8257
 30
0.0
 10
-132.5812
 20
9.8257
 30
0.0
 10
-132.5812
 20
-18.195
 30
0.0
 10
-132.5812
 20
-18.195
 30
0.0
 10
-132.5812
 20
-18.195
 30
0.0
 10
-132.5812
 20
-18.195
 30
0.0
 10
-135.3935
 20
-16.6403
 30
0.0
 10
-135.3935
 20
-16.6403
 30
0.0
 10
-135.3935
 20
-16.6403
 30
0.0
 10
-135.3935
 20
-16.6403
 30
0.0
 10
-135.3935
 20
11.3803
 30
0.0
 10
-135.3935
 20
11.3803
 30
0.0
  0
SPLINE
  5
5E
330
1F
100
AcDbEntity
  8
layer 1
 62
     7
100
AcDbSpline
210
0.0
220
0.0
230
1.0
 70
    11
 71
     3
 72
    20
 73
    16
 74
     0
 42
0.0000000001
 43
0.0000000001
 12
1.0
 22
0.0
 32
0.0
 13
1.0
 23
0.0
 33
0.0
 40
0.0
 40
0.0
 40
0.0
 40
0.0
 40
0.2
 40
0.2
 40
0.2
 40
0.2
 40
0.4
 40
0.4
 40
0.4
 40
0.4
 40
0.6
 40
0.6
 40
0.6
 40
0.6
 40
1.0
 40
1.0
 40
1.0
 40
1.0
 10
-129.9241
 20
8.3305
 30
0.0
 10
-129.9241
 20
8.3305
 30
0.0
 10
-127.1117
 20
6.7759
 30
0.0
 10
-127.1117
 20
6.7759
 30
0.0
 10
-127.1117
 20
6.7759
 30
0.0
 10
-127.1117
 20
6.7759
 30
0.0
 10
-127.1117
 20
-21.2448
 30
0.0
 10
-127.1117
 20
-21.2448
 30
0.0
 10
-127.1117
 20
-21.2448
 30
0.0
 10
-127.1117
 20
-21.2448
 30
0.0
 10
-129.9241
 20
-19.6902
 30
0.0
 10
-129.9241
 20
-19.6902
 30
0.0
 10
-129.9241
 20
-19.6902
 30
0.0
 10
-129.9241
 20
-19.6902
 30
0.0
 10
-129.9241
 20
8.3305
 30
0.0
 10
-129.9241
 20
8.3305
 30
0.0
  0
SPLINE
  5
5F
330
1F
100
AcDbEntity
  8
layer 1
 62
     7
100
AcDbSpline
210
0.0
220
0.0
230
1.0
 70
    11
 71
     3
 72
    20
 73
    16
 74
     0
 42
0.0000000001
 43
0.0000000001
 12
1.0
 22
0.0
 32
0.0
 13
1.0
 23
0.0
 33
0.0
 40
0.0
 40
0.0
 40
0.0
 40
0.0
 40
0.2
 40
0.2
 40
0.2
 40
0.2
 40
0.4
 40
0.4
 40
0.4
 40
0.4
 40
0.6
 40
0.6
 40
0.6
 40
0.6
 40
1.0
 40
1.0
 40
1.0
 40
1.0
 10
-180.1106
 20
-21.2265
 30
0.0
 10
-180.1106
 20
-21.2265
 30
0.0
 10
-180.1144
 20
-18.013
 30
0.0
 10
-180.1144
 20
-18.013
 30
0.0
 10
-180.1144
 20
-18.013
 30
0.0
 10
-180.1144
 20
-18.013
 30
0.0
 10
-155.6069
 20
-4.4283
 30
0.0
 10
-155.6069
 20
-4.4283
 30
0.0
 10
-155.6069
 20
-4.4283
 30
0.0
 10
-155.6069
 20
-4.4283
 30
0.0
 10
-155.6032
 20
-7.6418
 30
0.0
 10
-155.6032
 20
-7.6418
 30
0.0
 10
-155.6032
 20
-7.6418
 30
0.0
 10
-155.6032
 20
-7.6418
 30
0.0
 10
-180.1106
 20
-21.2265
 30
0.0
 10
-180.1106
 20
-21.2265
 30
0.0
  0
SPLINE
  5
60
330
1F
100
AcDbEntity
  8
layer 1
 62
     7
100
AcDbSpline
210
0.0
220
0.0
230
1.0
 70
    11
 71
     3
 72
    20
 73
    16
 74
     0
 42
0.0000000001
 43
0.0000000001
 12
1.0
 22
0.0
 32
0.0
 13
1.0
 23
0.0
 33
0.0
 40
0.0
 40
0.0
 40
0.0
 40
0.0
 40
0.2
 40
0.2
 40
0.2
 40
0.2
 40
0.4
 40
0.4
 40
0.4
 40
0.4
 40
0.6
 40
0.6
 40
0.6
 40
0.6
 40
1.0
 40
1.0
 40
1.0
 40
1.0
 10
-180.1107
 20
-15.0594
 30
0.0
 10
-180.1107
 20
-15.0594
 30
0.0
 10
-180.1145
 20
-11.846
 30
0.0
 10
-180.1145
 20
-11.846
 30
0.0
 10
-180.1145
 20
-11.846
 30
0.0
 10
-180.1145
 20
-11.846
 30
0.0
 10
-155.607
 20
1.7387
 30
0.0
 10
-155.607
 20
1.7387
 30
0.0
 10
-155.607
 20
1.7387
 30
0.0
 10
-155.607
 20
1.7387
 30
0.0
 10
-155.6033
 20
-1.4747
 30
0.0
 10
-155.6033
 20
-1.4747
 30
0.0
 10
-155.6033
 20
-1.4747
 30
0.0
 10
-155.6033
 20
-1.4747
 30
0.0
 10
-180.1107
 20
-15.0594
 30
0.0
 10
-180.1107
 20
-15.0594
 30
0.0
  0
SPLINE
  5
61
330
1F
100
AcDbEntity
  8
layer 1
 62
     7
100
AcDbSpline
210
0.0
220
0.0
230
1.0
 70
    11
 71
     3
 72
    20
 73
    16
 74
     0
 42
0.0000000001
 43
0.0000000001
 12
1.0
 22
0.0
 32
0.0
 13
1.0
 23
0.0
 33
0.0
 40
0.0
 40
0.0
 40
0.0
 40
0.0
 40
0.2
 40
0.2
 40
0.2
 40
0.2
 40
0.4
 40
0.4
 40
0.4
 40
0.4
 40
0.6
 40
0.6
 40
0.6
 40
0.6
 40
1.0
 40
1.0
 40
1.0
 40
1.0
 10
-180.1107
 20
-8.8926
 30
0.0
 10
-180.1107
 20
-8.8926
 30
0.0
 10
-180.1144
 20
-5.6791
 30
0.0
 10
-180.1144
 20
-5.6791
 30
0.0
 10
-180.1144
 20
-5.6791
 30
0.0
 10
-180.1144
 20
-5.6791
 30
0.0
 10
-155.607
 20
7.9056
 30
0.0
 10
-155.607
 20
7.9056
 30
0.0
 10
-155.607
 20
7.9056
 30
0.0
 10
-155.607
 20
7.9056
 30
0.0
 10
-155.6033
 20
4.6921
 30
0.0
 10
-155.6033
 20
4.6921
 30
0.0
 10
-155.6033
 20
4.6921
 30
0.0
 10
-155.6033
 20
4.6921
 30
0.0
 10
-180.1107
 20
-8.8926
 30
0.0
 10
-180.1107
 20
-8.8926
 30
0.0
  0
SPLINE
  5
62
330
1F
100
AcDbEntity
  8
layer 1
 62
     7
100
AcDbSpline
210
0.0
220
0.0
230
1.0
 70
    11
 71
     3
 72
    20
 73
    16
 74
     0
 42
0.0000000001
 43
0.0000000001
 12
1.0
 22
0.0
 32
0.0
 13
1.0
 23
0.0
 33
0.0
 40
0.0
 40
0.0
 40
0.0
 40
0.0
 40
0.2
 40
0.2
 40
0.2
 40
0.2
 40
0.4
 40
0.4
 40
0.4
 40
0.4
 40
0.6
 40
0.6
 40
0.6
 40
0.6
 40
1.0
 40
1.0
 40
1.0
 40
1.0
 10
-180.1107
 20
-2.7256
 30
0.0
 10
-180.1107
 20
-2.7256
 30
0.0
 10
-180.1144
 20
0.4878
 30
0.0
 10
-180.1144
 20
0.4878
 30
0.0
 10
-180.1144
 20
0.4878
 30
0.0
 10
-180.1144
 20
0.4878
 30
0.0
 10
-155.607
 20
14.0725
 30
0.0
 10
-155.607
 20
14.0725
 30
0.0
 10
-155.607
 20
14.0725
 30
0.0
 10
-155.607
 20
14.0725
 30
0.0
 10
-155.6032
 20
10.8591
 30
0.0
 10
-155.6032
 20
10.8591
 30
0.0
 10
-155.6032
 20
10.8591
 30
0.0
 10
-155.6032
 20
10.8591
 30
0.0
 10
-180.1107
 20
-2.7256
 30
0.0
 10
-180.1107
 20
-2.7256
 30
0.0
  0
SPLINE
  5
63
330
1F
100
AcDbEntity
  8
layer 1
 62
     7
100
AcDbSpline
210
0.0
220
0.0
230
1.0
 70
    11
 71
     3
 72
    20
 73
    16
 74
     0
 42
0.0000000001
 43
0.0000000001
 12
1.0
 22
0.0
 32
0.0
 13
1.0
 23
0.0
 33
0.0
 40
0.0
 40
0.0
 40
0.0
 40
0.0
 40
0.2
 40
0.2
 40
0.2
 40
0.2
 40
0.4
 40
0.4
 40
0.4
 40
0.4
 40
0.6
 40
0.6
 40
0.6
 40
0.6
 40
1.0
 40
1.0
 40
1.0
 40
1.0
 10
-180.1107
 20
3.4413
 30
0.0
 10
-180.1107
 20
3.4413
 30
0.0
 10
-180.1144
 20
6.6548
 30
0.0
 10
-180.1144
 20
6.6548
 30
0.0
 10
-180.1144
 20
6.6548
 30
0.0
 10
-180.1144
 20
6.6548
 30
0.0
 10
-155.607
 20
20.2395
 30
0.0
 10
-155.607
 20
20.2395
 30
0.0
 10
-155.607
 20
20.2395
 30
0.0
 10
-155.607
 20
20.2395
 30
0.0
 10
-155.6032
 20
17.026
 30
0.0
 10
-155.6032
 20
17.026
 30
0.0
 10
-155.6032
 20
17.026
 30
0.0
 10
-155.6032
 20
17.026
 30
0.0
 10
-180.1107
 20
3.4413
 30
0.0
 10
-180.1107
 20
3.4413
 30
0.0
  0
SPLINE
  5
64
330
1F
100
AcDbEntity
  8
layer 1
 62
     7
100
AcDbSpline
210
0.0
220
0.0
230
1.0
 70
    11
 71
     3
 72
    20
 73
    16
 74
     0
 42
0.0000000001
 43
0.0000000001
 12
1.0
 22
0.0
 32
0.0
 13
1.0
 23
0.0
 33
0.0
 40
0.0
 40
0.0
 40
0.0
 40
0.0
 40
0.2
 40
0.2
 40
0.2
 40
0.2
 40
0.4
 40
0.4
 40
0.4
 40
0.4
 40
0.6
 40
0.6
 40
0.6
 40
0.6
 40
1.0
 40
1.0
 40
1.0
 40
1.0
 10
-98.8062
 20
-68.972
 30
0.0
 10
-98.8062
 20
-68.972
 30
0.0
 10
-101.6186
 20
-67.4174
 30
0.0
 10
-101.6186
 20
-67.4174
 30
0.0
 10
-101.6186
 20
-67.4174
 30
0.0
 10
-101.6186
 20
-67.4174
 30
0.0
 10
-101.6186
 20
-39.3967
 30
0.0
 10
-101.6186
 20
-39.3967
 30
0.0
 10
-101.6186
 20
-39.3967
 30
0.0
 10
-101.6186
 20
-39.3967
 30
0.0
 10
-98.8062
 20
-40.9513
 30
0.0
 10
-98.8062
 20
-40.9513
 30
0.0
 10
-98.8062
 20
-40.9513
 30
0.0
 10
-98.8062
 20
-40.9513
 30
0.0
 10
-98.8062
 20
-68.972
 30
0.0
 10
-98.8062
 20
-68.972
 30
0.0
  0
SPLINE
  5
65
330
1F
100
AcDbEntity
  8
layer 1
 62
     7
100
AcDbSpline
210
0.0
220
0.0
230
1.0
 70
    11
 71
     3
 72
    20
 73
    16
 74
     0
 42
0.0000000001
 43
0.0000000001
 12
1.0
 22
0.0
 32
0.0
 13
1.0
 23
0.0
 33
0.0
 40
0.0
 40
0.0
 40
0.0
 40
0.0
 40
0.2
 40
0.2
 40
0.2
 40
0.2
 40
0.4
 40
0.4
 40
0.4
 40
0.4
 40
0.6
 40
0.6
 40
0.6
 40
0.6
 40
1.0
 40
1.0
 40
1.0
 40
1.0
 10
-104.2756
 20
-65.9221
 30
0.0
 10
-104.2756
 20
-65.9221
 30
0.0
 10
-107.088
 20
-64.3675
 30
0.0
 10
-107.088
 20
-64.3675
 30
0.0
 10
-107.088
 20
-64.3675
 30
0.0
 10
-107.088
 20
-64.3675
 30
0.0
 10
-107.088
 20
-36.3468
 30
0.0
 10
-107.088
 20
-36.3468
 30
0.0
 10
-107.088
 20
-36.3468
 30
0.0
 10
-107.088
 20
-36.3468
 30
0.0
 10
-104.2756
 20
-37.9015
 30
0.0
 10
-104.2756
 20
-37.9015
 30
0.0
 10
-104.2756
 20
-37.9015
 30
0.0
 10
-104.2756
 20
-37.9015
 30
0.0
 10
-104.2756
 20
-65.9221
 30
0.0
 10
-104.2756
 20
-65.9221
 30
0.0
  0
SPLINE
  5
66
330
1F
100
AcDbEntity
  8
layer 1
 62
     7
100
AcDbSpline
210
0.0
220
0.0
230
1.0
 70
    11
 71
     3
 72
    20
 73
    16
 74
     0
 42
0.0000000001
 43
0.0000000001
 12
1.0
 22
0.0
 32
0.0
 13
1.0
 23
0.0
 33
0.0
 40
0.0
 40
0.0
 40
0.0
 40
0.0
 40
0.2
 40
0.2
 40
0.2
 40
0.2
 40
0.4
 40
0.4
 40
0.4
 40
0.4
 40
0.6
 40
0.6
 40
0.6
 40
0.6
 40
1.0
 40
1.0
 40
1.0
 40
1.0
 10
-109.7451
 20
-62.8723
 30
0.0
 10
-109.7451
 20
-62.8723
 30
0.0
 10
-112.5574
 20
-61.3177
 30
0.0
 10
-112.5574
 20
-61.3177
 30
0.0
 10
-112.5574
 20
-61.3177
 30
0.0
 10
-112.5574
 20
-61.3177
 30
0.0
 10
-112.5574
 20
-33.297
 30
0.0
 10
-112.5574
 20
-33.297
 30
0.0
 10
-112.5574
 20
-33.297
 30
0.0
 10
-112.5574
 20
-33.297
 30
0.0
 10
-109.7451
 20
-34.8516
 30
0.0
 10
-109.7451
 20
-34.8516
 30
0.0
 10
-109.7451
 20
-34.8516
 30
0.0
 10
-109.7451
 20
-34.8516
 30
0.0
 10
-109.7451
 20
-62.8723
 30
0.0
 10
-109.7451
 20
-62.8723
 30
0.0
  0
SPLINE
  5
67
330
1F
100
AcDbEntity
  8
layer 1
 62
     7
100
AcDbSpline
210
0.0
220
0.0
230
1.0
 70
    11
 71
     3
 72
    20
 73
    16
 74
     0
 42
0.0000000001
 43
0.0000000001
 12
1.0
 22
0.0
 32
0.0
 13
1.0
 23
0.0
 33
0.0
 40
0.0
 40
0.0
 40
0.0
 40
0.0
 40
0.2
 40
0.2
 40
0.2
 40
0.2
 40
0.4
 40
0.4
 40
0.4
 40
0.4
 40
0.6
 40
0.6
 40
0.6
 40
0.6
 40
1.0
 40
1.0
 40
1.0
 40
1.0
 10
-115.2145
 20
-59.8224
 30
0.0
 10
-115.2145
 20
-59.8224
 30
0.0
 10
-118.0268
 20
-58.2678
 30
0.0
 10
-118.0268
 20
-58.2678
 30
0.0
 10
-118.0268
 20
-58.2678
 30
0.0
 10
-118.0268
 20
-58.2678
 30
0.0
 10
-118.0268
 20
-30.2471
 30
0.0
 10
-118.0268
 20
-30.2471
 30
0.0
 10
-118.0268
 20
-30.2471
 30
0.0
 10
-118.0268
 20
-30.2471
 30
0.0
 10
-115.2145
 20
-31.8017
 30
0.0
 10
-115.2145
 20
-31.8017
 30
0.0
 10
-115.2145
 20
-31.8017
 30
0.0
 10
-115.2145
 20
-31.8017
 30
0.0
 10
-115.2145
 20
-59.8224
 30
0.0
 10
-115.2145
 20
-59.8224
 30
0.0
  0
SPLINE
  5
68
330
1F
100
AcDbEntity
  8
layer 1
 62
     7
100
AcDbSpline
210
0.0
220
0.0
230
1.0
 70
    11
 71
     3
 72
    20
 73
    16
 74
     0
 42
0.0000000001
 43
0.0000000001
 12
1.0
 22
0.0
 32
0.0
 13
1.0
 23
0.0
 33
0.0
 40
0.0
 40
0.0
 40
0.0
 40
0.0
 40
0.2
 40
0.2
 40
0.2
 40
0.2
 40
0.4
 40
0.4
 40
0.4
 40
0.4
 40
0.6
 40
0.6
 40
0.6
 40
0.6
 40
1.0
 40
1.0
 40
1.0
 40
1.0
 10
-120.6839
 20
-56.7726
 30
0.0
 10
-120.6839
 20
-56.7726
 30
0.0
 10
-123.4962
 20
-55.2179
 30
0.0
 10
-123.4962
 20
-55.2179
 30
0.0
 10
-123.4962
 20
-55.2179
 30
0.0
 10
-123.4962
 20
-55.2179
 30
0.0
 10
-123.4962
 20
-27.1973
 30
0.0
 10
-123.4962
 20
-27.1973
 30
0.0
 10
-123.4962
 20
-27.1973
 30
0.0
 10
-123.4962
 20
-27.1973
 30
0.0
 10
-120.6839
 20
-28.7519
 30
0.0
 10
-120.6839
 20
-28.7519
 30
0.0
 10
-120.6839
 20
-28.7519
 30
0.0
 10
-120.6839
 20
-28.7519
 30
0.0
 10
-120.6839
 20
-56.7726
 30
0.0
 10
-120.6839
 20
-56.7726
 30
0.0
  0
SPLINE
  5
69
330
1F
100
AcDbEntity
  8
layer 1
 62
     7
100
AcDbSpline
210
0.0
220
0.0
230
1.0
 70
    11
 71
     3
 72
    20
 73
    16
 74
     0
 42
0.0000000001
 43
0.0000000001
 12
1.0
 22
0.0
 32
0.0
 13
1.0
 23
0.0
 33
0.0
 40
0.0
 40
0.0
 40
0.0
 40
0.0
 40
0.2
 40
0.2
 40
0.2
 40
0.2
 40
0.4
 40
0.4
 40
0.4
 40
0.4
 40
0.6
 40
0.6
 40
0.6
 40
0.6
 40
1.0
 40
1.0
 40
1.0
 40
1.0
 10
-127.1201
 20
-27.2156
 30
0.0
 10
-127.1201
 20
-27.2156
 30
0.0
 10
-127.1163
 20
-30.429
 30
0.0
 10
-127.1163
 20
-30.429
 30
0.0
 10
-127.1163
 20
-30.429
 30
0.0
 10
-127.1163
 20
-30.429
 30
0.0
 10
-151.6238
 20
-44.0137
 30
0.0
 10
-151.6238
 20
-44.0137
 30
0.0
 10
-151.6238
 20
-44.0137
 30
0.0
 10
-151.6238
 20
-44.0137
 30
0.0
 10
-151.6275
 20
-40.8003
 30
0.0
 10
-151.6275
 20
-40.8003
 30
0.0
 10
-151.6275
 20
-40.8003
 30
0.0
 10
-151.6275
 20
-40.8003
 30
0.0
 10
-127.1201
 20
-27.2156
 30
0.0
 10
-127.1201
 20
-27.2156
 30
0.0
  0
SPLINE
  5
6A
330
1F
100
AcDbEntity
  8
layer 1
 62
     7
100
AcDbSpline
210
0.0
220
0.0
230
1.0
 70
    11
 71
     3
 72
    20
 73
    16
 74
     0
 42
0.0000000001
 43
0.0000000001
 12
1.0
 22
0.0
 32
0.0
 13
1.0
 23
0.0
 33
0.0
 40
0.0
 40
0.0
 40
0.0
 40
0.0
 40
0.2
 40
0.2
 40
0.2
 40
0.2
 40
0.4
 40
0.4
 40
0.4
 40
0.4
 40
0.6
 40
0.6
 40
0.6
 40
0.6
 40
1.0
 40
1.0
 40
1.0
 40
1.0
 10
-127.1199
 20
-33.3827
 30
0.0
 10
-127.1199
 20
-33.3827
 30
0.0
 10
-127.1162
 20
-36.5961
 30
0.0
 10
-127.1162
 20
-36.5961
 30
0.0
 10
-127.1162
 20
-36.5961
 30
0.0
 10
-127.1162
 20
-36.5961
 30
0.0
 10
-151.6237
 20
-50.1808
 30
0.0
 10
-151.6237
 20
-50.1808
 30
0.0
 10
-151.6237
 20
-50.1808
 30
0.0
 10
-151.6237
 20
-50.1808
 30
0.0
 10
-151.6274
 20
-46.9674
 30
0.0
 10
-151.6274
 20
-46.9674
 30
0.0
 10
-151.6274
 20
-46.9674
 30
0.0
 10
-151.6274
 20
-46.9674
 30
0.0
 10
-127.1199
 20
-33.3827
 30
0.0
 10
-127.1199
 20
-33.3827
 30
0.0
  0
SPLINE
  5
6B
330
1F
100
AcDbEntity
  8
layer 1
 62
     7
100
AcDbSpline
210
0.0
220
0.0
230
1.0
 70
    11
 71
     3
 72
    20
 73
    16
 74
     0
 42
0.0000000001
 43
0.0000000001
 12
1.0
 22
0.0
 32
0.0
 13
1.0
 23
0.0
 33
0.0
 40
0.0
 40
0.0
 40
0.0
 40
0.0
 40
0.2
 40
0.2
 40
0.2
 40
0.2
 40
0.4
 40
0.4
 40
0.4
 40
0.4
 40
0.6
 40
0.6
 40
0.6
 40
0.6
 40
1.0
 40
1.0
 40
1.0
 40
1.0
 10
-127.12
 20
-39.5495
 30
0.0
 10
-127.12
 20
-39.5495
 30
0.0
 10
-127.1162
 20
-42.7629
 30
0.0
 10
-127.1162
 20
-42.7629
 30
0.0
 10
-127.1162
 20
-42.7629
 30
0.0
 10
-127.1162
 20
-42.7629
 30
0.0
 10
-151.6237
 20
-56.3476
 30
0.0
 10
-151.6237
 20
-56.3476
 30
0.0
 10
-151.6237
 20
-56.3476
 30
0.0
 10
-151.6237
 20
-56.3476
 30
0.0
 10
-151.6274
 20
-53.1342
 30
0.0
 10
-151.6274
 20
-53.1342
 30
0.0
 10
-151.6274
 20
-53.1342
 30
0.0
 10
-151.6274
 20
-53.1342
 30
0.0
 10
-127.12
 20
-39.5495
 30
0.0
 10
-127.12
 20
-39.5495
 30
0.0
  0
SPLINE
  5
6C
330
1F
100
AcDbEntity
  8
layer 1
 62
     7
100
AcDbSpline
210
0.0
220
0.0
230
1.0
 70
    11
 71
     3
 72
    20
 73
    16
 74
     0
 42
0.0000000001
 43
0.0000000001
 12
1.0
 22
0.0
 32
0.0
 13
1.0
 23
0.0
 33
0.0
 40
0.0
 40
0.0
 40
0.0
 40
0.0
 40
0.2
 40
0.2
 40
0.2
 40
0.2
 40
0.4
 40
0.4
 40
0.4
 40
0.4
 40
0.6
 40
0.6
 40
0.6
 40
0.6
 40
1.0
 40
1.0
 40
1.0
 40
1.0
 10
-127.12
 20
-45.7165
 30
0.0
 10
-127.12
 20
-45.7165
 30
0.0
 10
-127.1163
 20
-48.9299
 30
0.0
 10
-127.1163
 20
-48.9299
 30
0.0
 10
-127.1163
 20
-48.9299
 30
0.0
 10
-127.1163
 20
-48.9299
 30
0.0
 10
-151.6237
 20
-62.5146
 30
0.0
 10
-151.6237
 20
-62.5146
 30
0.0
 10
-151.6237
 20
-62.5146
 30
0.0
 10
-151.6237
 20
-62.5146
 30
0.0
 10
-151.6274
 20
-59.3012
 30
0.0
 10
-151.6274
 20
-59.3012
 30
0.0
 10
-151.6274
 20
-59.3012
 30
0.0
 10
-151.6274
 20
-59.3012
 30
0.0
 10
-127.12
 20
-45.7165
 30
0.0
 10
-127.12
 20
-45.7165
 30
0.0
  0
SPLINE
  5
6D
330
1F
100
AcDbEntity
  8
layer 1
 62
     7
100
AcDbSpline
210
0.0
220
0.0
230
1.0
 70
    11
 71
     3
 72
    20
 73
    16
 74
     0
 42
0.0000000001
 43
0.0000000001
 12
1.0
 22
0.0
 32
0.0
 13
1.0
 23
0.0
 33
0.0
 40
0.0
 40
0.0
 40
0.0
 40
0.0
 40
0.2
 40
0.2
 40
0.2
 40
0.2
 40
0.4
 40
0.4
 40
0.4
 40
0.4
 40
0.6
 40
0.6
 40
0.6
 40
0.6
 40
1.0
 40
1.0
 40
1.0
 40
1.0
 10
-127.12
 20
-51.8834
 30
0.0
 10
-127.12
 20
-51.8834
 30
0.0
 10
-127.1163
 20
-55.0968
 30
0.0
 10
-127.1163
 20
-55.0968
 30
0.0
 10
-127.1163
 20
-55.0968
 30
0.0
 10
-127.1163
 20
-55.0968
 30
0.0
 10
-151.6237
 20
-68.6815
 30
0.0
 10
-151.6237
 20
-68.6815
 30
0.0
 10
-151.6237
 20
-68.6815
 30
0.0
 10
-151.6237
 20
-68.6815
 30
0.0
 10
-151.6275
 20
-65.4681
 30
0.0
 10
-151.6275
 20
-65.4681
 30
0.0
 10
-151.6275
 20
-65.4681
 30
0.0
 10
-151.6275
 20
-65.4681
 30
0.0
 10
-127.12
 20
-51.8834
 30
0.0
 10
-127.12
 20
-51.8834
 30
0.0
  0
SPLINE
  5
6E
330
1F
100
AcDbEntity
  8
layer 1
 62
     7
100
AcDbSpline
210
0.0
220
0.0
230
1.0
 70
    11
 71
     3
 72
    20
 73
    16
 74
     0
 42
0.0000000001
 43
0.0000000001
 12
1.0
 22
0.0
 32
0.0
 13
1.0
 23
0.0
 33
0.0
 40
0.0
 40
0.0
 40
0.0
 40
0.0
 40
0.2
 40
0.2
 40
0.2
 40
0.2
 40
0.4
 40
0.4
 40
0.4
 40
0.4
 40
0.6
 40
0.6
 40
0.6
 40
0.6
 40
1.0
 40
1.0
 40
1.0
 40
1.0
 10
-129.0966
 20
-24.1495
 30
0.0
 10
-129.0966
 20
-24.1495
 30
0.0
 10
-131.8884
 20
-25.7408
 30
0.0
 10
-131.8884
 20
-25.7408
 30
0.0
 10
-131.8884
 20
-25.7408
 30
0.0
 10
-131.8884
 20
-25.7408
 30
0.0
 10
-156.581
 20
-11.844
 30
0.0
 10
-156.581
 20
-11.844
 30
0.0
 10
-156.581
 20
-11.844
 30
0.0
 10
-156.581
 20
-11.844
 30
0.0
 10
-153.7893
 20
-10.2527
 30
0.0
 10
-153.7893
 20
-10.2527
 30
0.0
 10
-153.7893
 20
-10.2527
 30
0.0
 10
-153.7893
 20
-10.2527
 30
0.0
 10
-129.0966
 20
-24.1495
 30
0.0
 10
-129.0966
 20
-24.1495
 30
0.0
  0
SPLINE
  5
6F
330
1F
100
AcDbEntity
  8
layer 1
 62
     7
100
AcDbSpline
210
0.0
220
0.0
230
1.0
 70
    11
 71
     3
 72
    20
 73
    16
 74
     0
 42
0.0000000001
 43
0.0000000001
 12
1.0
 22
0.0
 32
0.0
 13
1.0
 23
0.0
 33
0.0
 40
0.0
 40
0.0
 40
0.0
 40
0.0
 40
0.2
 40
0.2
 40
0.2
 40
0.2
 40
0.4
 40
0.4
 40
0.4
 40
0.4
 40
0.6
 40
0.6
 40
0.6
 40
0.6
 40
1.0
 40
1.0
 40
1.0
 40
1.0
 10
-134.519
 20
-27.1994
 30
0.0
 10
-134.519
 20
-27.1994
 30
0.0
 10
-137.3108
 20
-28.7907
 30
0.0
 10
-137.3108
 20
-28.7907
 30
0.0
 10
-137.3108
 20
-28.7907
 30
0.0
 10
-137.3108
 20
-28.7907
 30
0.0
 10
-161.9423
 20
-14.8918
 30
0.0
 10
-161.9423
 20
-14.8918
 30
0.0
 10
-161.9423
 20
-14.8918
 30
0.0
 10
-161.9423
 20
-14.8918
 30
0.0
 10
-159.1506
 20
-13.3005
 30
0.0
 10
-159.1506
 20
-13.3005
 30
0.0
 10
-159.1506
 20
-13.3005
 30
0.0
 10
-159.1506
 20
-13.3005
 30
0.0
 10
-134.519
 20
-27.1994
 30
0.0
 10
-134.519
 20
-27.1994
 30
0.0
  0
SPLINE
  5
70
330
1F
100
AcDbEntity
  8
layer 1
 62
     7
100
AcDbSpline
210
0.0
220
0.0
230
1.0
 70
    11
 71
     3
 72
    20
 73
    16
 74
     0
 42
0.0000000001
 43
0.0000000001
 12
1.0
 22
0.0
 32
0.0
 13
1.0
 23
0.0
 33
0.0
 40
0.0
 40
0.0
 40
0.0
 40
0.0
 40
0.2
 40
0.2
 40
0.2
 40
0.2
 40
0.4
 40
0.4
 40
0.4
 40
0.4
 40
0.6
 40
0.6
 40
0.6
 40
0.6
 40
1.0
 40
1.0
 40
1.0
 40
1.0
 10
-140.1104
 20
-30.299
 30
0.0
 10
-140.1104
 20
-30.299
 30
0.0
 10
-142.9021
 20
-31.8903
 30
0.0
 10
-142.9021
 20
-31.8903
 30
0.0
 10
-142.9021
 20
-31.8903
 30
0.0
 10
-142.9021
 20
-31.8903
 30
0.0
 10
-167.3035
 20
-17.9394
 30
0.0
 10
-167.3035
 20
-17.9394
 30
0.0
 10
-167.3035
 20
-17.9394
 30
0.0
 10
-167.3035
 20
-17.9394
 30
0.0
 10
-164.5117
 20
-16.3481
 30
0.0
 10
-164.5117
 20
-16.3481
 30
0.0
 10
-164.5117
 20
-16.3481
 30
0.0
 10
-164.5117
 20
-16.3481
 30
0.0
 10
-140.1104
 20
-30.299
 30
0.0
 10
-140.1104
 20
-30.299
 30
0.0
  0
SPLINE
  5
71
330
1F
100
AcDbEntity
  8
layer 1
 62
     7
100
AcDbSpline
210
0.0
220
0.0
230
1.0
 70
    11
 71
     3
 72
    20
 73
    16
 74
     0
 42
0.0000000001
 43
0.0000000001
 12
1.0
 22
0.0
 32
0.0
 13
1.0
 23
0.0
 33
0.0
 40
0.0
 40
0.0
 40
0.0
 40
0.0
 40
0.2
 40
0.2
 40
0.2
 40
0.2
 40
0.4
 40
0.4
 40
0.4
 40
0.4
 40
0.6
 40
0.6
 40
0.6
 40
0.6
 40
1.0
 40
1.0
 40
1.0
 40
1.0
 10
-145.69
 20
-33.3914
 30
0.0
 10
-145.69
 20
-33.3914
 30
0.0
 10
-148.4818
 20
-34.9828
 30
0.0
 10
-148.4818
 20
-34.9828
 30
0.0
 10
-148.4818
 20
-34.9828
 30
0.0
 10
-148.4818
 20
-34.9828
 30
0.0
 10
-172.6648
 20
-20.987
 30
0.0
 10
-172.6648
 20
-20.987
 30
0.0
 10
-172.6648
 20
-20.987
 30
0.0
 10
-172.6648
 20
-20.987
 30
0.0
 10
-169.873
 20
-19.3957
 30
0.0
 10
-169.873
 20
-19.3957
 30
0.0
 10
-169.873
 20
-19.3957
 30
0.0
 10
-169.873
 20
-19.3957
 30
0.0
 10
-145.69
 20
-33.3914
 30
0.0
 10
-145.69
 20
-33.3914
 30
0.0
  0
SPLINE
  5
72
330
1F
100
AcDbEntity
  8
layer 1
 62
     7
100
AcDbSpline
210
0.0
220
0.0
230
1.0
 70
    11
 71
     3
 72
    20
 73
    16
 74
     0
 42
0.0000000001
 43
0.0000000001
 12
1.0
 22
0.0
 32
0.0
 13
1.0
 23
0.0
 33
0.0
 40
0.0
 40
0.0
 40
0.0
 40
0.0
 40
0.2
 40
0.2
 40
0.2
 40
0.2
 40
0.4
 40
0.4
 40
0.4
 40
0.4
 40
0.6
 40
0.6
 40
0.6
 40
0.6
 40
1.0
 40
1.0
 40
1.0
 40
1.0
 10
-150.9036
 20
-36.2814
 30
0.0
 10
-150.9036
 20
-36.2814
 30
0.0
 10
-153.6953
 20
-37.8727
 30
0.0
 10
-153.6953
 20
-37.8727
 30
0.0
 10
-153.6953
 20
-37.8727
 30
0.0
 10
-153.6953
 20
-37.8727
 30
0.0
 10
-178.026
 20
-24.0346
 30
0.0
 10
-178.026
 20
-24.0346
 30
0.0
 10
-178.026
 20
-24.0346
 30
0.0
 10
-178.026
 20
-24.0346
 30
0.0
 10
-175.2343
 20
-22.4433
 30
0.0
 10
-175.2343
 20
-22.4433
 30
0.0
 10
-175.2343
 20
-22.4433
 30
0.0
 10
-175.2343
 20
-22.4433
 30
0.0
 10
-150.9036
 20
-36.2814
 30
0.0
 10
-150.9036
 20
-36.2814
 30
0.0
  0
SPLINE
  5
73
330
1F
100
AcDbEntity
  8
layer 1
 62
     7
100
AcDbSpline
210
0.0
220
0.0
230
1.0
 70
    11
 71
     3
 72
    20
 73
    16
 74
     0
 42
0.0000000001
 43
0.0000000001
 12
1.0
 22
0.0
 32
0.0
 13
1.0
 23
0.0
 33
0.0
 40
0.0
 40
0.0
 40
0.0
 40
0.0
 40
0.2
 40
0.2
 40
0.2
 40
0.2
 40
0.4
 40
0.4
 40
0.4
 40
0.4
 40
0.6
 40
0.6
 40
0.6
 40
0.6
 40
1.0
 40
1.0
 40
1.0
 40
1.0
 10
-72.4559
 20
-24.1495
 30
0.0
 10
-72.4559
 20
-24.1495
 30
0.0
 10
-75.2477
 20
-25.7408
 30
0.0
 10
-75.2477
 20
-25.7408
 30
0.0
 10
-75.2477
 20
-25.7408
 30
0.0
 10
-75.2477
 20
-25.7408
 30
0.0
 10
-99.9403
 20
-11.844
 30
0.0
 10
-99.9403
 20
-11.844
 30
0.0
 10
-99.9403
 20
-11.844
 30
0.0
 10
-99.9403
 20
-11.844
 30
0.0
 10
-97.1485
 20
-10.2527
 30
0.0
 10
-97.1485
 20
-10.2527
 30
0.0
 10
-97.1485
 20
-10.2527
 30
0.0
 10
-97.1485
 20
-10.2527
 30
0.0
 10
-72.4559
 20
-24.1495
 30
0.0
 10
-72.4559
 20
-24.1495
 30
0.0
  0
SPLINE
  5
74
330
1F
100
AcDbEntity
  8
layer 1
 62
     7
100
AcDbSpline
210
0.0
220
0.0
230
1.0
 70
    11
 71
     3
 72
    20
 73
    16
 74
     0
 42
0.0000000001
 43
0.0000000001
 12
1.0
 22
0.0
 32
0.0
 13
1.0
 23
0.0
 33
0.0
 40
0.0
 40
0.0
 40
0.0
 40
0.0
 40
0.2
 40
0.2
 40
0.2
 40
0.2
 40
0.4
 40
0.4
 40
0.4
 40
0.4
 40
0.6
 40
0.6
 40
0.6
 40
0.6
 40
1.0
 40
1.0
 40
1.0
 40
1.0
 10
-77.8783
 20
-27.1994
 30
0.0
 10
-77.8783
 20
-27.1994
 30
0.0
 10
-80.67
 20
-28.7907
 30
0.0
 10
-80.67
 20
-28.7907
 30
0.0
 10
-80.67
 20
-28.7907
 30
0.0
 10
-80.67
 20
-28.7907
 30
0.0
 10
-105.3016
 20
-14.8918
 30
0.0
 10
-105.3016
 20
-14.8918
 30
0.0
 10
-105.3016
 20
-14.8918
 30
0.0
 10
-105.3016
 20
-14.8918
 30
0.0
 10
-102.5099
 20
-13.3005
 30
0.0
 10
-102.5099
 20
-13.3005
 30
0.0
 10
-102.5099
 20
-13.3005
 30
0.0
 10
-102.5099
 20
-13.3005
 30
0.0
 10
-77.8783
 20
-27.1994
 30
0.0
 10
-77.8783
 20
-27.1994
 30
0.0
  0
SPLINE
  5
75
330
1F
100
AcDbEntity
  8
layer 1
 62
     7
100
AcDbSpline
210
0.0
220
0.0
230
1.0
 70
    11
 71
     3
 72
    20
 73
    16
 74
     0
 42
0.0000000001
 43
0.0000000001
 12
1.0
 22
0.0
 32
0.0
 13
1.0
 23
0.0
 33
0.0
 40
0.0
 40
0.0
 40
0.0
 40
0.0
 40
0.2
 40
0.2
 40
0.2
 40
0.2
 40
0.4
 40
0.4
 40
0.4
 40
0.4
 40
0.6
 40
0.6
 40
0.6
 40
0.6
 40
1.0
 40
1.0
 40
1.0
 40
1.0
 10
-83.4696
 20
-30.299
 30
0.0
 10
-83.4696
 20
-30.299
 30
0.0
 10
-86.2614
 20
-31.8903
 30
0.0
 10
-86.2614
 20
-31.8903
 30
0.0
 10
-86.2614
 20
-31.8903
 30
0.0
 10
-86.2614
 20
-31.8903
 30
0.0
 10
-110.6628
 20
-17.9394
 30
0.0
 10
-110.6628
 20
-17.9394
 30
0.0
 10
-110.6628
 20
-17.9394
 30
0.0
 10
-110.6628
 20
-17.9394
 30
0.0
 10
-107.871
 20
-16.3481
 30
0.0
 10
-107.871
 20
-16.3481
 30
0.0
 10
-107.871
 20
-16.3481
 30
0.0
 10
-107.871
 20
-16.3481
 30
0.0
 10
-83.4696
 20
-30.299
 30
0.0
 10
-83.4696
 20
-30.299
 30
0.0
  0
SPLINE
  5
76
330
1F
100
AcDbEntity
  8
layer 1
 62
     7
100
AcDbSpline
210
0.0
220
0.0
230
1.0
 70
    11
 71
     3
 72
    20
 73
    16
 74
     0
 42
0.0000000001
 43
0.0000000001
 12
1.0
 22
0.0
 32
0.0
 13
1.0
 23
0.0
 33
0.0
 40
0.0
 40
0.0
 40
0.0
 40
0.0
 40
0.2
 40
0.2
 40
0.2
 40
0.2
 40
0.4
 40
0.4
 40
0.4
 40
0.4
 40
0.6
 40
0.6
 40
0.6
 40
0.6
 40
1.0
 40
1.0
 40
1.0
 40
1.0
 10
-89.0493
 20
-33.3914
 30
0.0
 10
-89.0493
 20
-33.3914
 30
0.0
 10
-91.8411
 20
-34.9828
 30
0.0
 10
-91.8411
 20
-34.9828
 30
0.0
 10
-91.8411
 20
-34.9828
 30
0.0
 10
-91.8411
 20
-34.9828
 30
0.0
 10
-116.024
 20
-20.987
 30
0.0
 10
-116.024
 20
-20.987
 30
0.0
 10
-116.024
 20
-20.987
 30
0.0
 10
-116.024
 20
-20.987
 30
0.0
 10
-113.2323
 20
-19.3957
 30
0.0
 10
-113.2323
 20
-19.3957
 30
0.0
 10
-113.2323
 20
-19.3957
 30
0.0
 10
-113.2323
 20
-19.3957
 30
0.0
 10
-89.0493
 20
-33.3914
 30
0.0
 10
-89.0493
 20
-33.3914
 30
0.0
  0
SPLINE
  5
77
330
1F
100
AcDbEntity
  8
layer 1
 62
     7
100
AcDbSpline
210
0.0
220
0.0
230
1.0
 70
    11
 71
     3
 72
    20
 73
    16
 74
     0
 42
0.0000000001
 43
0.0000000001
 12
1.0
 22
0.0
 32
0.0
 13
1.0
 23
0.0
 33
0.0
 40
0.0
 40
0.0
 40
0.0
 40
0.0
 40
0.2
 40
0.2
 40
0.2
 40
0.2
 40
0.4
 40
0.4
 40
0.4
 40
0.4
 40
0.6
 40
0.6
 40
0.6
 40
0.6
 40
1.0
 40
1.0
 40
1.0
 40
1.0
 10
-94.2628
 20
-36.2814
 30
0.0
 10
-94.2628
 20
-36.2814
 30
0.0
 10
-97.0546
 20
-37.8727
 30
0.0
 10
-97.0546
 20
-37.8727
 30
0.0
 10
-97.0546
 20
-37.8727
 30
0.0
 10
-97.0546
 20
-37.8727
 30
0.0
 10
-121.3853
 20
-24.0346
 30
0.0
 10
-121.3853
 20
-24.0346
 30
0.0
 10
-121.3853
 20
-24.0346
 30
0.0
 10
-121.3853
 20
-24.0346
 30
0.0
 10
-118.5935
 20
-22.4433
 30
0.0
 10
-118.5935
 20
-22.4433
 30
0.0
 10
-118.5935
 20
-22.4433
 30
0.0
 10
-118.5935
 20
-22.4433
 30
0.0
 10
-94.2628
 20
-36.2814
 30
0.0
 10
-94.2628
 20
-36.2814
 30
0.0
  0
SPLINE
  5
78
330
1F
100
AcDbEntity
  8
layer 1
 62
     7
100
AcDbSpline
210
0.0
220
0.0
230
1.0
 70
    11
 71
     3
 72
    20
 73
    16
 74
     0
 42
0.0000000001
 43
0.0000000001
 12
1.0
 22
0.0
 32
0.0
 13
1.0
 23
0.0
 33
0.0
 40
0.0
 40
0.0
 40
0.0
 40
0.0
 40
0.2
 40
0.2
 40
0.2
 40
0.2
 40
0.4
 40
0.4
 40
0.4
 40
0.4
 40
0.6
 40
0.6
 40
0.6
 40
0.6
 40
1.0
 40
1.0
 40
1.0
 40
1.0
 10
-151.8017
 20
-74.8796
 30
0.0
 10
-151.8017
 20
-74.8796
 30
0.0
 10
-148.9894
 20
-76.4342
 30
0.0
 10
-148.9894
 20
-76.4342
 30
0.0
 10
-148.9894
 20
-76.4342
 30
0.0
 10
-148.9894
 20
-76.4342
 30
0.0
 10
-148.9894
 20
-104.4549
 30
0.0
 10
-148.9894
 20
-104.4549
 30
0.0
 10
-148.9894
 20
-104.4549
 30
0.0
 10
-148.9894
 20
-104.4549
 30
0.0
 10
-151.8017
 20
-102.9003
 30
0.0
 10
-151.8017
 20
-102.9003
 30
0.0
 10
-151.8017
 20
-102.9003
 30
0.0
 10
-151.8017
 20
-102.9003
 30
0.0
 10
-151.8017
 20
-74.8796
 30
0.0
 10
-151.8017
 20
-74.8796
 30
0.0
  0
SPLINE
  5
79
330
1F
100
AcDbEntity
  8
layer 1
 62
     7
100
AcDbSpline
210
0.0
220
0.0
230
1.0
 70
    11
 71
     3
 72
    20
 73
    16
 74
     0
 42
0.0000000001
 43
0.0000000001
 12
1.0
 22
0.0
 32
0.0
 13
1.0
 23
0.0
 33
0.0
 40
0.0
 40
0.0
 40
0.0
 40
0.0
 40
0.2
 40
0.2
 40
0.2
 40
0.2
 40
0.4
 40
0.4
 40
0.4
 40
0.4
 40
0.6
 40
0.6
 40
0.6
 40
0.6
 40
1.0
 40
1.0
 40
1.0
 40
1.0
 10
-146.3323
 20
-77.9294
 30
0.0
 10
-146.3323
 20
-77.9294
 30
0.0
 10
-143.52
 20
-79.4841
 30
0.0
 10
-143.52
 20
-79.4841
 30
0.0
 10
-143.52
 20
-79.4841
 30
0.0
 10
-143.52
 20
-79.4841
 30
0.0
 10
-143.52
 20
-107.5048
 30
0.0
 10
-143.52
 20
-107.5048
 30
0.0
 10
-143.52
 20
-107.5048
 30
0.0
 10
-143.52
 20
-107.5048
 30
0.0
 10
-146.3323
 20
-105.9501
 30
0.0
 10
-146.3323
 20
-105.9501
 30
0.0
 10
-146.3323
 20
-105.9501
 30
0.0
 10
-146.3323
 20
-105.9501
 30
0.0
 10
-146.3323
 20
-77.9294
 30
0.0
 10
-146.3323
 20
-77.9294
 30
0.0
  0
SPLINE
  5
7A
330
1F
100
AcDbEntity
  8
layer 1
 62
     7
100
AcDbSpline
210
0.0
220
0.0
230
1.0
 70
    11
 71
     3
 72
    20
 73
    16
 74
     0
 42
0.0000000001
 43
0.0000000001
 12
1.0
 22
0.0
 32
0.0
 13
1.0
 23
0.0
 33
0.0
 40
0.0
 40
0.0
 40
0.0
 40
0.0
 40
0.2
 40
0.2
 40
0.2
 40
0.2
 40
0.4
 40
0.4
 40
0.4
 40
0.4
 40
0.6
 40
0.6
 40
0.6
 40
0.6
 40
1.0
 40
1.0
 40
1.0
 40
1.0
 10
-140.8629
 20
-80.9793
 30
0.0
 10
-140.8629
 20
-80.9793
 30
0.0
 10
-138.0506
 20
-82.5339
 30
0.0
 10
-138.0506
 20
-82.5339
 30
0.0
 10
-138.0506
 20
-82.5339
 30
0.0
 10
-138.0506
 20
-82.5339
 30
0.0
 10
-138.0506
 20
-108.7219
 30
0.0
 10
-138.0506
 20
-108.7219
 30
0.0
 10
-138.0506
 20
-108.7219
 30
0.0
 10
-138.0506
 20
-108.7219
 30
0.0
 10
-140.8629
 20
-108.7267
 30
0.0
 10
-140.8629
 20
-108.7267
 30
0.0
 10
-140.8629
 20
-108.7267
 30
0.0
 10
-140.8629
 20
-108.7267
 30
0.0
 10
-140.8629
 20
-80.9793
 30
0.0
 10
-140.8629
 20
-80.9793
 30
0.0
  0
SPLINE
  5
7B
330
1F
100
AcDbEntity
  8
layer 1
 62
     7
100
AcDbSpline
210
0.0
220
0.0
230
1.0
 70
    11
 71
     3
 72
    20
 73
    16
 74
     0
 42
0.0000000001
 43
0.0000000001
 12
1.0
 22
0.0
 32
0.0
 13
1.0
 23
0.0
 33
0.0
 40
0.0
 40
0.0
 40
0.0
 40
0.0
 40
0.2
 40
0.2
 40
0.2
 40
0.2
 40
0.4
 40
0.4
 40
0.4
 40
0.4
 40
0.6
 40
0.6
 40
0.6
 40
0.6
 40
1.0
 40
1.0
 40
1.0
 40
1.0
 10
-135.3935
 20
-84.0292
 30
0.0
 10
-135.3935
 20
-84.0292
 30
0.0
 10
-132.5812
 20
-85.5838
 30
0.0
 10
-132.5812
 20
-85.5838
 30
0.0
 10
-132.5812
 20
-85.5838
 30
0.0
 10
-132.5812
 20
-85.5838
 30
0.0
 10
-132.5812
 20
-108.7328
 30
0.0
 10
-132.5812
 20
-108.7328
 30
0.0
 10
-132.5812
 20
-108.7328
 30
0.0
 10
-132.5812
 20
-108.7328
 30
0.0
 10
-135.3935
 20
-108.7216
 30
0.0
 10
-135.3935
 20
-108.7216
 30
0.0
 10
-135.3935
 20
-108.7216
 30
0.0
 10
-135.3935
 20
-108.7216
 30
0.0
 10
-135.3935
 20
-84.0292
 30
0.0
 10
-135.3935
 20
-84.0292
 30
0.0
  0
SPLINE
  5
7C
330
1F
100
AcDbEntity
  8
layer 1
 62
     7
100
AcDbSpline
210
0.0
220
0.0
230
1.0
 70
    11
 71
     3
 72
    20
 73
    16
 74
     0
 42
0.0000000001
 43
0.0000000001
 12
1.0
 22
0.0
 32
0.0
 13
1.0
 23
0.0
 33
0.0
 40
0.0
 40
0.0
 40
0.0
 40
0.0
 40
0.2
 40
0.2
 40
0.2
 40
0.2
 40
0.4
 40
0.4
 40
0.4
 40
0.4
 40
0.6
 40
0.6
 40
0.6
 40
0.6
 40
1.0
 40
1.0
 40
1.0
 40
1.0
 10
-129.9241
 20
-87.079
 30
0.0
 10
-129.9241
 20
-87.079
 30
0.0
 10
-127.1117
 20
-88.6336
 30
0.0
 10
-127.1117
 20
-88.6336
 30
0.0
 10
-127.1117
 20
-88.6336
 30
0.0
 10
-127.1117
 20
-88.6336
 30
0.0
 10
-127.1117
 20
-108.7278
 30
0.0
 10
-127.1117
 20
-108.7278
 30
0.0
 10
-127.1117
 20
-108.7278
 30
0.0
 10
-127.1117
 20
-108.7278
 30
0.0
 10
-129.9241
 20
-108.7326
 30
0.0
 10
-129.9241
 20
-108.7326
 30
0.0
 10
-129.9241
 20
-108.7326
 30
0.0
 10
-129.9241
 20
-108.7326
 30
0.0
 10
-129.9241
 20
-87.079
 30
0.0
 10
-129.9241
 20
-87.079
 30
0.0
  0
SPLINE
  5
7D
330
1F
100
AcDbEntity
  8
layer 1
 62
     7
100
AcDbSpline
210
0.0
220
0.0
230
1.0
 70
    11
 71
     3
 72
    20
 73
    16
 74
     0
 42
0.0000000001
 43
0.0000000001
 12
1.0
 22
0.0
 32
0.0
 13
1.0
 23
0.0
 33
0.0
 40
0.0
 40
0.0
 40
0.0
 40
0.0
 40
0.2
 40
0.2
 40
0.2
 40
0.2
 40
0.4
 40
0.4
 40
0.4
 40
0.4
 40
0.6
 40
0.6
 40
0.6
 40
0.6
 40
1.0
 40
1.0
 40
1.0
 40
1.0
 10
-109.1994
 20
-108.7157
 30
0.0
 10
-109.1994
 20
-108.7157
 30
0.0
 10
-115.0033
 20
-108.7174
 30
0.0
 10
-115.0033
 20
-108.7174
 30
0.0
 10
-115.0033
 20
-108.7174
 30
0.0
 10
-115.0033
 20
-108.7174
 30
0.0
 10
-98.9842
 20
-99.8378
 30
0.0
 10
-98.9842
 20
-99.8378
 30
0.0
 10
-98.9842
 20
-99.8378
 30
0.0
 10
-98.9842
 20
-99.8378
 30
0.0
 10
-98.9805
 20
-103.0513
 30
0.0
 10
-98.9805
 20
-103.0513
 30
0.0
 10
-98.9805
 20
-103.0513
 30
0.0
 10
-98.9805
 20
-103.0513
 30
0.0
 10
-109.1994
 20
-108.7157
 30
0.0
 10
-109.1994
 20
-108.7157
 30
0.0
  0
SPLINE
  5
7E
330
1F
100
AcDbEntity
  8
layer 1
 62
     7
100
AcDbSpline
210
0.0
220
0.0
230
1.0
 70
    11
 71
     3
 72
    24
 73
    20
 74
     0
 42
0.0000000001
 43
0.0000000001
 12
1.0
 22
0.0
 32
0.0
 13
1.0
 23
0.0
 33
0.0
 40
0.0
 40
0.0
 40
0.0
 40
0.0
 40
0.1666666666666667
 40
0.1666666666666667
 40
0.1666666666666667
 40
0.1666666666666667
 40
0.3333333333333333
 40
0.3333333333333333
 40
0.3333333333333333
 40
0.3333333333333333
 40
0.5
 40
0.5
 40
0.5
 40
0.5
 40
0.6666666666666666
 40
0.6666666666666666
 40
0.6666666666666666
 40
0.6666666666666666
 40
1.0
 40
1.0
 40
1.0
 40
1.0
 10
-123.488
 20
-108.7186
 30
0.0
 10
-123.488
 20
-108.7186
 30
0.0
 10
-123.4916
 20
-107.2554
 30
0.0
 10
-123.4916
 20
-107.2554
 30
0.0
 10
-123.4916
 20
-107.2554
 30
0.0
 10
-123.4916
 20
-107.2554
 30
0.0
 10
-98.9843
 20
-93.6707
 30
0.0
 10
-98.9843
 20
-93.6707
 30
0.0
 10
-98.9843
 20
-93.6707
 30
0.0
 10
-98.9843
 20
-93.6707
 30
0.0
 10
-98.9806
 20
-96.8842
 30
0.0
 10
-98.9806
 20
-96.8842
 30
0.0
 10
-98.9806
 20
-96.8842
 30
0.0
 10
-98.9806
 20
-96.8842
 30
0.0
 10
-120.3244
 20
-108.7152
 30
0.0
 10
-120.3244
 20
-108.7152
 30
0.0
 10
-120.3244
 20
-108.7152
 30
0.0
 10
-120.3244
 20
-108.7152
 30
0.0
 10
-123.488
 20
-108.7186
 30
0.0
 10
-123.488
 20
-108.7186
 30
0.0
  0
SPLINE
  5
7F
330
1F
100
AcDbEntity
  8
layer 1
 62
     7
100
AcDbSpline
210
0.0
220
0.0
230
1.0
 70
    11
 71
     3
 72
    24
 73
    20
 74
     0
 42
0.0000000001
 43
0.0000000001
 12
1.0
 22
0.0
 32
0.0
 13
1.0
 23
0.0
 33
0.0
 40
0.0
 40
0.0
 40
0.0
 40
0.0
 40
0.1666666666666667
 40
0.1666666666666667
 40
0.1666666666666667
 40
0.1666666666666667
 40
0.3333333333333333
 40
0.3333333333333333
 40
0.3333333333333333
 40
0.3333333333333333
 40
0.5
 40
0.5
 40
0.5
 40
0.5
 40
0.6666666666666666
 40
0.6666666666666666
 40
0.6666666666666666
 40
0.6666666666666666
 40
1.0
 40
1.0
 40
1.0
 40
1.0
 10
-123.488
 20
-104.3021
 30
0.0
 10
-123.488
 20
-104.3021
 30
0.0
 10
-123.4917
 20
-101.0886
 30
0.0
 10
-123.4917
 20
-101.0886
 30
0.0
 10
-123.4917
 20
-101.0886
 30
0.0
 10
-123.4917
 20
-101.0886
 30
0.0
 10
-98.9843
 20
-87.5039
 30
0.0
 10
-98.9843
 20
-87.5039
 30
0.0
 10
-98.9843
 20
-87.5039
 30
0.0
 10
-98.9843
 20
-87.5039
 30
0.0
 10
-98.9805
 20
-90.7174
 30
0.0
 10
-98.9805
 20
-90.7174
 30
0.0
 10
-98.9805
 20
-90.7174
 30
0.0
 10
-98.9805
 20
-90.7174
 30
0.0
 10
-120.3244
 20
-102.5484
 30
0.0
 10
-120.3244
 20
-102.5484
 30
0.0
 10
-120.3244
 20
-102.5484
 30
0.0
 10
-120.3244
 20
-102.5484
 30
0.0
 10
-123.488
 20
-104.3021
 30
0.0
 10
-123.488
 20
-104.3021
 30
0.0
  0
SPLINE
  5
80
330
1F
100
AcDbEntity
  8
layer 1
 62
     7
100
AcDbSpline
210
0.0
220
0.0
230
1.0
 70
    11
 71
     3
 72
    24
 73
    20
 74
     0
 42
0.0000000001
 43
0.0000000001
 12
1.0
 22
0.0
 32
0.0
 13
1.0
 23
0.0
 33
0.0
 40
0.0
 40
0.0
 40
0.0
 40
0.0
 40
0.1666666666666667
 40
0.1666666666666667
 40
0.1666666666666667
 40
0.1666666666666667
 40
0.3333333333333333
 40
0.3333333333333333
 40
0.3333333333333333
 40
0.3333333333333333
 40
0.5
 40
0.5
 40
0.5
 40
0.5
 40
0.6666666666666666
 40
0.6666666666666666
 40
0.6666666666666666
 40
0.6666666666666666
 40
1.0
 40
1.0
 40
1.0
 40
1.0
 10
-123.488
 20
-98.1351
 30
0.0
 10
-123.488
 20
-98.1351
 30
0.0
 10
-123.4917
 20
-94.9217
 30
0.0
 10
-123.4917
 20
-94.9217
 30
0.0
 10
-123.4917
 20
-94.9217
 30
0.0
 10
-123.4917
 20
-94.9217
 30
0.0
 10
-98.9843
 20
-81.337
 30
0.0
 10
-98.9843
 20
-81.337
 30
0.0
 10
-98.9843
 20
-81.337
 30
0.0
 10
-98.9843
 20
-81.337
 30
0.0
 10
-98.9805
 20
-84.5504
 30
0.0
 10
-98.9805
 20
-84.5504
 30
0.0
 10
-98.9805
 20
-84.5504
 30
0.0
 10
-98.9805
 20
-84.5504
 30
0.0
 10
-120.3243
 20
-96.3815
 30
0.0
 10
-120.3243
 20
-96.3815
 30
0.0
 10
-120.3243
 20
-96.3815
 30
0.0
 10
-120.3243
 20
-96.3815
 30
0.0
 10
-123.488
 20
-98.1351
 30
0.0
 10
-123.488
 20
-98.1351
 30
0.0
  0
SPLINE
  5
81
330
1F
100
AcDbEntity
  8
layer 1
 62
     7
100
AcDbSpline
210
0.0
220
0.0
230
1.0
 70
    11
 71
     3
 72
    24
 73
    20
 74
     0
 42
0.0000000001
 43
0.0000000001
 12
1.0
 22
0.0
 32
0.0
 13
1.0
 23
0.0
 33
0.0
 40
0.0
 40
0.0
 40
0.0
 40
0.0
 40
0.1666666666666667
 40
0.1666666666666667
 40
0.1666666666666667
 40
0.1666666666666667
 40
0.3333333333333333
 40
0.3333333333333333
 40
0.3333333333333333
 40
0.3333333333333333
 40
0.5
 40
0.5
 40
0.5
 40
0.5
 40
0.6666666666666666
 40
0.6666666666666666
 40
0.6666666666666666
 40
0.6666666666666666
 40
1.0
 40
1.0
 40
1.0
 40
1.0
 10
-123.4879
 20
-91.9682
 30
0.0
 10
-123.4879
 20
-91.9682
 30
0.0
 10
-123.4917
 20
-88.7547
 30
0.0
 10
-123.4917
 20
-88.7547
 30
0.0
 10
-123.4917
 20
-88.7547
 30
0.0
 10
-123.4917
 20
-88.7547
 30
0.0
 10
-98.9842
 20
-75.17
 30
0.0
 10
-98.9842
 20
-75.17
 30
0.0
 10
-98.9842
 20
-75.17
 30
0.0
 10
-98.9842
 20
-75.17
 30
0.0
 10
-98.9805
 20
-78.3835
 30
0.0
 10
-98.9805
 20
-78.3835
 30
0.0
 10
-98.9805
 20
-78.3835
 30
0.0
 10
-98.9805
 20
-78.3835
 30
0.0
 10
-120.3243
 20
-90.2145
 30
0.0
 10
-120.3243
 20
-90.2145
 30
0.0
 10
-120.3243
 20
-90.2145
 30
0.0
 10
-120.3243
 20
-90.2145
 30
0.0
 10
-123.4879
 20
-91.9682
 30
0.0
 10
-123.4879
 20
-91.9682
 30
0.0
  0
SPLINE
  5
82
330
1F
100
AcDbEntity
  8
layer 1
 62
     7
100
AcDbSpline
210
0.0
220
0.0
230
1.0
 70
    11
 71
     3
 72
    20
 73
    16
 74
     0
 42
0.0000000001
 43
0.0000000001
 12
1.0
 22
0.0
 32
0.0
 13
1.0
 23
0.0
 33
0.0
 40
0.0
 40
0.0
 40
0.0
 40
0.0
 40
0.2
 40
0.2
 40
0.2
 40
0.2
 40
0.4
 40
0.4
 40
0.4
 40
0.4
 40
0.6
 40
0.6
 40
0.6
 40
0.6
 40
1.0
 40
1.0
 40
1.0
 40
1.0
 10
-148.4367
 20
-108.6743
 30
0.0
 10
-148.4367
 20
-108.6743
 30
0.0
 10
-153.9047
 20
-108.7596
 30
0.0
 10
-153.9047
 20
-108.7596
 30
0.0
 10
-153.9047
 20
-108.7596
 30
0.0
 10
-153.9047
 20
-108.7596
 30
0.0
 10
-156.581
 20
-107.2535
 30
0.0
 10
-156.581
 20
-107.2535
 30
0.0
 10
-156.581
 20
-107.2535
 30
0.0
 10
-156.581
 20
-107.2535
 30
0.0
 10
-153.7893
 20
-105.6622
 30
0.0
 10
-153.7893
 20
-105.6622
 30
0.0
 10
-153.7893
 20
-105.6622
 30
0.0
 10
-153.7893
 20
-105.6622
 30
0.0
 10
-148.4367
 20
-108.6743
 30
0.0
 10
-148.4367
 20
-108.6743
 30
0.0
  0
SPLINE
  5
83
330
1F
100
AcDbEntity
  8
layer 1
 62
     7
100
AcDbSpline
210
0.0
220
0.0
230
1.0
 70
    11
 71
     3
 72
    20
 73
    16
 74
     0
 42
0.0000000001
 43
0.0000000001
 12
1.0
 22
0.0
 32
0.0
 13
1.0
 23
0.0
 33
0.0
 40
0.0
 40
0.0
 40
0.0
 40
0.0
 40
0.2
 40
0.2
 40
0.2
 40
0.2
 40
0.4
 40
0.4
 40
0.4
 40
0.4
 40
0.6
 40
0.6
 40
0.6
 40
0.6
 40
1.0
 40
1.0
 40
1.0
 40
1.0
 10
-91.4727
 20
-108.6743
 30
0.0
 10
-91.4727
 20
-108.6743
 30
0.0
 10
-96.9406
 20
-108.7596
 30
0.0
 10
-96.9406
 20
-108.7596
 30
0.0
 10
-96.9406
 20
-108.7596
 30
0.0
 10
-96.9406
 20
-108.7596
 30
0.0
 10
-99.617
 20
-107.2535
 30
0.0
 10
-99.617
 20
-107.2535
 30
0.0
 10
-99.617
 20
-107.2535
 30
0.0
 10
-99.617
 20
-107.2535
 30
0.0
 10
-96.8252
 20
-105.6622
 30
0.0
 10
-96.8252
 20
-105.6622
 30
0.0
 10
-96.8252
 20
-105.6622
 30
0.0
 10
-96.8252
 20
-105.6622
 30
0.0
 10
-91.4727
 20
-108.6743
 30
0.0
 10
-91.4727
 20
-108.6743
 30
0.0
  0
SPLINE
  5
84
330
1F
100
AcDbEntity
  8
layer 1
 62
     7
100
AcDbSpline
210
0.0
220
0.0
230
1.0
 70
    11
 71
     3
 72
    20
 73
    16
 74
     0
 42
0.0000000001
 43
0.0000000001
 12
1.0
 22
0.0
 32
0.0
 13
1.0
 23
0.0
 33
0.0
 40
0.0
 40
0.0
 40
0.0
 40
0.0
 40
0.2
 40
0.2
 40
0.2
 40
0.2
 40
0.4
 40
0.4
 40
0.4
 40
0.4
 40
0.6
 40
0.6
 40
0.6
 40
0.6
 40
1.0
 40
1.0
 40
1.0
 40
1.0
 10
-94.8967
 20
-74.8801
 30
0.0
 10
-94.8967
 20
-74.8801
 30
0.0
 10
-92.0843
 20
-76.4348
 30
0.0
 10
-92.0843
 20
-76.4348
 30
0.0
 10
-92.0843
 20
-76.4348
 30
0.0
 10
-92.0843
 20
-76.4348
 30
0.0
 10
-92.0843
 20
-104.4555
 30
0.0
 10
-92.0843
 20
-104.4555
 30
0.0
 10
-92.0843
 20
-104.4555
 30
0.0
 10
-92.0843
 20
-104.4555
 30
0.0
 10
-94.8967
 20
-102.9008
 30
0.0
 10
-94.8967
 20
-102.9008
 30
0.0
 10
-94.8967
 20
-102.9008
 30
0.0
 10
-94.8967
 20
-102.9008
 30
0.0
 10
-94.8967
 20
-74.8801
 30
0.0
 10
-94.8967
 20
-74.8801
 30
0.0
  0
SPLINE
  5
85
330
1F
100
AcDbEntity
  8
layer 1
 62
     7
100
AcDbSpline
210
0.0
220
0.0
230
1.0
 70
    11
 71
     3
 72
    20
 73
    16
 74
     0
 42
0.0000000001
 43
0.0000000001
 12
1.0
 22
0.0
 32
0.0
 13
1.0
 23
0.0
 33
0.0
 40
0.0
 40
0.0
 40
0.0
 40
0.0
 40
0.2
 40
0.2
 40
0.2
 40
0.2
 40
0.4
 40
0.4
 40
0.4
 40
0.4
 40
0.6
 40
0.6
 40
0.6
 40
0.6
 40
1.0
 40
1.0
 40
1.0
 40
1.0
 10
-89.4273
 20
-77.93
 30
0.0
 10
-89.4273
 20
-77.93
 30
0.0
 10
-86.6149
 20
-79.4846
 30
0.0
 10
-86.6149
 20
-79.4846
 30
0.0
 10
-86.6149
 20
-79.4846
 30
0.0
 10
-86.6149
 20
-79.4846
 30
0.0
 10
-86.6149
 20
-107.5053
 30
0.0
 10
-86.6149
 20
-107.5053
 30
0.0
 10
-86.6149
 20
-107.5053
 30
0.0
 10
-86.6149
 20
-107.5053
 30
0.0
 10
-89.4273
 20
-105.9507
 30
0.0
 10
-89.4273
 20
-105.9507
 30
0.0
 10
-89.4273
 20
-105.9507
 30
0.0
 10
-89.4273
 20
-105.9507
 30
0.0
 10
-89.4273
 20
-77.93
 30
0.0
 10
-89.4273
 20
-77.93
 30
0.0
  0
SPLINE
  5
86
330
1F
100
AcDbEntity
  8
layer 1
 62
     7
100
AcDbSpline
210
0.0
220
0.0
230
1.0
 70
    11
 71
     3
 72
    20
 73
    16
 74
     0
 42
0.0000000001
 43
0.0000000001
 12
1.0
 22
0.0
 32
0.0
 13
1.0
 23
0.0
 33
0.0
 40
0.0
 40
0.0
 40
0.0
 40
0.0
 40
0.2
 40
0.2
 40
0.2
 40
0.2
 40
0.4
 40
0.4
 40
0.4
 40
0.4
 40
0.6
 40
0.6
 40
0.6
 40
0.6
 40
1.0
 40
1.0
 40
1.0
 40
1.0
 10
-83.9578
 20
-80.9798
 30
0.0
 10
-83.9578
 20
-80.9798
 30
0.0
 10
-81.1455
 20
-82.5345
 30
0.0
 10
-81.1455
 20
-82.5345
 30
0.0
 10
-81.1455
 20
-82.5345
 30
0.0
 10
-81.1455
 20
-82.5345
 30
0.0
 10
-81.1455
 20
-108.7224
 30
0.0
 10
-81.1455
 20
-108.7224
 30
0.0
 10
-81.1455
 20
-108.7224
 30
0.0
 10
-81.1455
 20
-108.7224
 30
0.0
 10
-83.9578
 20
-108.7273
 30
0.0
 10
-83.9578
 20
-108.7273
 30
0.0
 10
-83.9578
 20
-108.7273
 30
0.0
 10
-83.9578
 20
-108.7273
 30
0.0
 10
-83.9578
 20
-80.9798
 30
0.0
 10
-83.9578
 20
-80.9798
 30
0.0
  0
SPLINE
  5
87
330
1F
100
AcDbEntity
  8
layer 1
 62
     7
100
AcDbSpline
210
0.0
220
0.0
230
1.0
 70
    11
 71
     3
 72
    20
 73
    16
 74
     0
 42
0.0000000001
 43
0.0000000001
 12
1.0
 22
0.0
 32
0.0
 13
1.0
 23
0.0
 33
0.0
 40
0.0
 40
0.0
 40
0.0
 40
0.0
 40
0.2
 40
0.2
 40
0.2
 40
0.2
 40
0.4
 40
0.4
 40
0.4
 40
0.4
 40
0.6
 40
0.6
 40
0.6
 40
0.6
 40
1.0
 40
1.0
 40
1.0
 40
1.0
 10
-78.4884
 20
-84.0297
 30
0.0
 10
-78.4884
 20
-84.0297
 30
0.0
 10
-75.6761
 20
-85.5843
 30
0.0
 10
-75.6761
 20
-85.5843
 30
0.0
 10
-75.6761
 20
-85.5843
 30
0.0
 10
-75.6761
 20
-85.5843
 30
0.0
 10
-75.6761
 20
-108.7333
 30
0.0
 10
-75.6761
 20
-108.7333
 30
0.0
 10
-75.6761
 20
-108.7333
 30
0.0
 10
-75.6761
 20
-108.7333
 30
0.0
 10
-78.4884
 20
-108.7222
 30
0.0
 10
-78.4884
 20
-108.7222
 30
0.0
 10
-78.4884
 20
-108.7222
 30
0.0
 10
-78.4884
 20
-108.7222
 30
0.0
 10
-78.4884
 20
-84.0297
 30
0.0
 10
-78.4884
 20
-84.0297
 30
0.0
  0
SPLINE
  5
88
330
1F
100
AcDbEntity
  8
layer 1
 62
     7
100
AcDbSpline
210
0.0
220
0.0
230
1.0
 70
    11
 71
     3
 72
    20
 73
    16
 74
     0
 42
0.0000000001
 43
0.0000000001
 12
1.0
 22
0.0
 32
0.0
 13
1.0
 23
0.0
 33
0.0
 40
0.0
 40
0.0
 40
0.0
 40
0.0
 40
0.2
 40
0.2
 40
0.2
 40
0.2
 40
0.4
 40
0.4
 40
0.4
 40
0.4
 40
0.6
 40
0.6
 40
0.6
 40
0.6
 40
1.0
 40
1.0
 40
1.0
 40
1.0
 10
-73.019
 20
-87.0796
 30
0.0
 10
-73.019
 20
-87.0796
 30
0.0
 10
-70.2067
 20
-88.6342
 30
0.0
 10
-70.2067
 20
-88.6342
 30
0.0
 10
-70.2067
 20
-88.6342
 30
0.0
 10
-70.2067
 20
-88.6342
 30
0.0
 10
-70.2067
 20
-108.7284
 30
0.0
 10
-70.2067
 20
-108.7284
 30
0.0
 10
-70.2067
 20
-108.7284
 30
0.0
 10
-70.2067
 20
-108.7284
 30
0.0
 10
-73.019
 20
-108.7332
 30
0.0
 10
-73.019
 20
-108.7332
 30
0.0
 10
-73.019
 20
-108.7332
 30
0.0
 10
-73.019
 20
-108.7332
 30
0.0
 10
-73.019
 20
-87.0796
 30
0.0
 10
-73.019
 20
-87.0796
 30
0.0
  0
SPLINE
  5
89
330
1F
100
AcDbEntity
  8
layer 1
 62
     7
100
AcDbSpline
210
0.0
220
0.0
230
1.0
 70
    11
 71
     3
 72
    20
 73
    16
 74
     0
 42
0.0000000001
 43
0.0000000001
 12
1.0
 22
0.0
 32
0.0
 13
1.0
 23
0.0
 33
0.0
 40
0.0
 40
0.0
 40
0.0
 40
0.0
 40
0.2
 40
0.2
 40
0.2
 40
0.2
 40
0.4
 40
0.4
 40
0.4
 40
0.4
 40
0.6
 40
0.6
 40
0.6
 40
0.6
 40
1.0
 40
1.0
 40
1.0
 40
1.0
 10
-165.8649
 20
-108.7157
 30
0.0
 10
-165.8649
 20
-108.7157
 30
0.0
 10
-171.6688
 20
-108.7174
 30
0.0
 10
-171.6688
 20
-108.7174
 30
0.0
 10
-171.6688
 20
-108.7174
 30
0.0
 10
-171.6688
 20
-108.7174
 30
0.0
 10
-155.6497
 20
-99.8378
 30
0.0
 10
-155.6497
 20
-99.8378
 30
0.0
 10
-155.6497
 20
-99.8378
 30
0.0
 10
-155.6497
 20
-99.8378
 30
0.0
 10
-155.6459
 20
-103.0513
 30
0.0
 10
-155.6459
 20
-103.0513
 30
0.0
 10
-155.6459
 20
-103.0513
 30
0.0
 10
-155.6459
 20
-103.0513
 30
0.0
 10
-165.8649
 20
-108.7157
 30
0.0
 10
-165.8649
 20
-108.7157
 30
0.0
  0
SPLINE
  5
8A
330
1F
100
AcDbEntity
  8
layer 1
 62
     7
100
AcDbSpline
210
0.0
220
0.0
230
1.0
 70
    11
 71
     3
 72
    24
 73
    20
 74
     0
 42
0.0000000001
 43
0.0000000001
 12
1.0
 22
0.0
 32
0.0
 13
1.0
 23
0.0
 33
0.0
 40
0.0
 40
0.0
 40
0.0
 40
0.0
 40
0.1666666666666667
 40
0.1666666666666667
 40
0.1666666666666667
 40
0.1666666666666667
 40
0.3333333333333333
 40
0.3333333333333333
 40
0.3333333333333333
 40
0.3333333333333333
 40
0.5
 40
0.5
 40
0.5
 40
0.5
 40
0.6666666666666666
 40
0.6666666666666666
 40
0.6666666666666666
 40
0.6666666666666666
 40
1.0
 40
1.0
 40
1.0
 40
1.0
 10
-180.1535
 20
-108.7186
 30
0.0
 10
-180.1535
 20
-108.7186
 30
0.0
 10
-180.1571
 20
-107.2554
 30
0.0
 10
-180.1571
 20
-107.2554
 30
0.0
 10
-180.1571
 20
-107.2554
 30
0.0
 10
-180.1571
 20
-107.2554
 30
0.0
 10
-155.6498
 20
-93.6707
 30
0.0
 10
-155.6498
 20
-93.6707
 30
0.0
 10
-155.6498
 20
-93.6707
 30
0.0
 10
-155.6498
 20
-93.6707
 30
0.0
 10
-155.6461
 20
-96.8842
 30
0.0
 10
-155.6461
 20
-96.8842
 30
0.0
 10
-155.6461
 20
-96.8842
 30
0.0
 10
-155.6461
 20
-96.8842
 30
0.0
 10
-176.9899
 20
-108.7152
 30
0.0
 10
-176.9899
 20
-108.7152
 30
0.0
 10
-176.9899
 20
-108.7152
 30
0.0
 10
-176.9899
 20
-108.7152
 30
0.0
 10
-180.1535
 20
-108.7186
 30
0.0
 10
-180.1535
 20
-108.7186
 30
0.0
  0
SPLINE
  5
8B
330
1F
100
AcDbEntity
  8
layer 1
 62
     7
100
AcDbSpline
210
0.0
220
0.0
230
1.0
 70
    11
 71
     3
 72
    24
 73
    20
 74
     0
 42
0.0000000001
 43
0.0000000001
 12
1.0
 22
0.0
 32
0.0
 13
1.0
 23
0.0
 33
0.0
 40
0.0
 40
0.0
 40
0.0
 40
0.0
 40
0.1666666666666667
 40
0.1666666666666667
 40
0.1666666666666667
 40
0.1666666666666667
 40
0.3333333333333333
 40
0.3333333333333333
 40
0.3333333333333333
 40
0.3333333333333333
 40
0.5
 40
0.5
 40
0.5
 40
0.5
 40
0.6666666666666666
 40
0.6666666666666666
 40
0.6666666666666666
 40
0.6666666666666666
 40
1.0
 40
1.0
 40
1.0
 40
1.0
 10
-180.1535
 20
-104.3021
 30
0.0
 10
-180.1535
 20
-104.3021
 30
0.0
 10
-180.1572
 20
-101.0886
 30
0.0
 10
-180.1572
 20
-101.0886
 30
0.0
 10
-180.1572
 20
-101.0886
 30
0.0
 10
-180.1572
 20
-101.0886
 30
0.0
 10
-155.6498
 20
-87.5039
 30
0.0
 10
-155.6498
 20
-87.5039
 30
0.0
 10
-155.6498
 20
-87.5039
 30
0.0
 10
-155.6498
 20
-87.5039
 30
0.0
 10
-155.646
 20
-90.7174
 30
0.0
 10
-155.646
 20
-90.7174
 30
0.0
 10
-155.646
 20
-90.7174
 30
0.0
 10
-155.646
 20
-90.7174
 30
0.0
 10
-176.9898
 20
-102.5484
 30
0.0
 10
-176.9898
 20
-102.5484
 30
0.0
 10
-176.9898
 20
-102.5484
 30
0.0
 10
-176.9898
 20
-102.5484
 30
0.0
 10
-180.1535
 20
-104.3021
 30
0.0
 10
-180.1535
 20
-104.3021
 30
0.0
  0
SPLINE
  5
8C
330
1F
100
AcDbEntity
  8
layer 1
 62
     7
100
AcDbSpline
210
0.0
220
0.0
230
1.0
 70
    11
 71
     3
 72
    24
 73
    20
 74
     0
 42
0.0000000001
 43
0.0000000001
 12
1.0
 22
0.0
 32
0.0
 13
1.0
 23
0.0
 33
0.0
 40
0.0
 40
0.0
 40
0.0
 40
0.0
 40
0.1666666666666667
 40
0.1666666666666667
 40
0.1666666666666667
 40
0.1666666666666667
 40
0.3333333333333333
 40
0.3333333333333333
 40
0.3333333333333333
 40
0.3333333333333333
 40
0.5
 40
0.5
 40
0.5
 40
0.5
 40
0.6666666666666666
 40
0.6666666666666666
 40
0.6666666666666666
 40
0.6666666666666666
 40
1.0
 40
1.0
 40
1.0
 40
1.0
 10
-180.1535
 20
-98.1351
 30
0.0
 10
-180.1535
 20
-98.1351
 30
0.0
 10
-180.1572
 20
-94.9217
 30
0.0
 10
-180.1572
 20
-94.9217
 30
0.0
 10
-180.1572
 20
-94.9217
 30
0.0
 10
-180.1572
 20
-94.9217
 30
0.0
 10
-155.6497
 20
-81.337
 30
0.0
 10
-155.6497
 20
-81.337
 30
0.0
 10
-155.6497
 20
-81.337
 30
0.0
 10
-155.6497
 20
-81.337
 30
0.0
 10
-155.646
 20
-84.5504
 30
0.0
 10
-155.646
 20
-84.5504
 30
0.0
 10
-155.646
 20
-84.5504
 30
0.0
 10
-155.646
 20
-84.5504
 30
0.0
 10
-176.9898
 20
-96.3815
 30
0.0
 10
-176.9898
 20
-96.3815
 30
0.0
 10
-176.9898
 20
-96.3815
 30
0.0
 10
-176.9898
 20
-96.3815
 30
0.0
 10
-180.1535
 20
-98.1351
 30
0.0
 10
-180.1535
 20
-98.1351
 30
0.0
  0
SPLINE
  5
8D
330
1F
100
AcDbEntity
  8
layer 1
 62
     7
100
AcDbSpline
210
0.0
220
0.0
230
1.0
 70
    11
 71
     3
 72
    24
 73
    20
 74
     0
 42
0.0000000001
 43
0.0000000001
 12
1.0
 22
0.0
 32
0.0
 13
1.0
 23
0.0
 33
0.0
 40
0.0
 40
0.0
 40
0.0
 40
0.0
 40
0.1666666666666667
 40
0.1666666666666667
 40
0.1666666666666667
 40
0.1666666666666667
 40
0.3333333333333333
 40
0.3333333333333333
 40
0.3333333333333333
 40
0.3333333333333333
 40
0.5
 40
0.5
 40
0.5
 40
0.5
 40
0.6666666666666666
 40
0.6666666666666666
 40
0.6666666666666666
 40
0.6666666666666666
 40
1.0
 40
1.0
 40
1.0
 40
1.0
 10
-180.1534
 20
-91.9682
 30
0.0
 10
-180.1534
 20
-91.9682
 30
0.0
 10
-180.1572
 20
-88.7547
 30
0.0
 10
-180.1572
 20
-88.7547
 30
0.0
 10
-180.1572
 20
-88.7547
 30
0.0
 10
-180.1572
 20
-88.7547
 30
0.0
 10
-155.6497
 20
-75.17
 30
0.0
 10
-155.6497
 20
-75.17
 30
0.0
 10
-155.6497
 20
-75.17
 30
0.0
 10
-155.6497
 20
-75.17
 30
0.0
 10
-155.646
 20
-78.3835
 30
0.0
 10
-155.646
 20
-78.3835
 30
0.0
 10
-155.646
 20
-78.3835
 30
0.0
 10
-155.646
 20
-78.3835
 30
0.0
 10
-176.9898
 20
-90.2145
 30
0.0
 10
-176.9898
 20
-90.2145
 30
0.0
 10
-176.9898
 20
-90.2145
 30
0.0
 10
-176.9898
 20
-90.2145
 30
0.0
 10
-180.1534
 20
-91.9682
 30
0.0
 10
-180.1534
 20
-91.9682
 30
0.0
  0
SPLINE
  5
8E
330
1F
100
AcDbEntity
  8
layer 1
 62
     7
100
AcDbSpline
210
0.0
220
0.0
230
1.0
 70
    11
 71
     3
 72
    20
 73
    16
 74
     0
 42
0.0000000001
 43
0.0000000001
 12
1.0
 22
0.0
 32
0.0
 13
1.0
 23
0.0
 33
0.0
 40
0.0
 40
0.0
 40
0.0
 40
0.0
 40
0.2
 40
0.2
 40
0.2
 40
0.2
 40
0.4
 40
0.4
 40
0.4
 40
0.4
 40
0.6
 40
0.6
 40
0.6
 40
0.6
 40
1.0
 40
1.0
 40
1.0
 40
1.0
 10
-100.6793
 20
-71.8999
 30
0.0
 10
-100.6793
 20
-71.8999
 30
0.0
 10
-103.4711
 20
-73.4912
 30
0.0
 10
-103.4711
 20
-73.4912
 30
0.0
 10
-103.4711
 20
-73.4912
 30
0.0
 10
-103.4711
 20
-73.4912
 30
0.0
 10
-128.1637
 20
-59.5944
 30
0.0
 10
-128.1637
 20
-59.5944
 30
0.0
 10
-128.1637
 20
-59.5944
 30
0.0
 10
-128.1637
 20
-59.5944
 30
0.0
 10
-125.3719
 20
-58.0031
 30
0.0
 10
-125.3719
 20
-58.0031
 30
0.0
 10
-125.3719
 20
-58.0031
 30
0.0
 10
-125.3719
 20
-58.0031
 30
0.0
 10
-100.6793
 20
-71.8999
 30
0.0
 10
-100.6793
 20
-71.8999
 30
0.0
  0
SPLINE
  5
8F
330
1F
100
AcDbEntity
  8
layer 1
 62
     7
100
AcDbSpline
210
0.0
220
0.0
230
1.0
 70
    11
 71
     3
 72
    20
 73
    16
 74
     0
 42
0.0000000001
 43
0.0000000001
 12
1.0
 22
0.0
 32
0.0
 13
1.0
 23
0.0
 33
0.0
 40
0.0
 40
0.0
 40
0.0
 40
0.0
 40
0.2
 40
0.2
 40
0.2
 40
0.2
 40
0.4
 40
0.4
 40
0.4
 40
0.4
 40
0.6
 40
0.6
 40
0.6
 40
0.6
 40
1.0
 40
1.0
 40
1.0
 40
1.0
 10
-106.1017
 20
-74.9498
 30
0.0
 10
-106.1017
 20
-74.9498
 30
0.0
 10
-108.8934
 20
-76.5411
 30
0.0
 10
-108.8934
 20
-76.5411
 30
0.0
 10
-108.8934
 20
-76.5411
 30
0.0
 10
-108.8934
 20
-76.5411
 30
0.0
 10
-133.525
 20
-62.6422
 30
0.0
 10
-133.525
 20
-62.6422
 30
0.0
 10
-133.525
 20
-62.6422
 30
0.0
 10
-133.525
 20
-62.6422
 30
0.0
 10
-130.7333
 20
-61.0509
 30
0.0
 10
-130.7333
 20
-61.0509
 30
0.0
 10
-130.7333
 20
-61.0509
 30
0.0
 10
-130.7333
 20
-61.0509
 30
0.0
 10
-106.1017
 20
-74.9498
 30
0.0
 10
-106.1017
 20
-74.9498
 30
0.0
  0
SPLINE
  5
90
330
1F
100
AcDbEntity
  8
layer 1
 62
     7
100
AcDbSpline
210
0.0
220
0.0
230
1.0
 70
    11
 71
     3
 72
    20
 73
    16
 74
     0
 42
0.0000000001
 43
0.0000000001
 12
1.0
 22
0.0
 32
0.0
 13
1.0
 23
0.0
 33
0.0
 40
0.0
 40
0.0
 40
0.0
 40
0.0
 40
0.2
 40
0.2
 40
0.2
 40
0.2
 40
0.4
 40
0.4
 40
0.4
 40
0.4
 40
0.6
 40
0.6
 40
0.6
 40
0.6
 40
1.0
 40
1.0
 40
1.0
 40
1.0
 10
-111.6931
 20
-78.0494
 30
0.0
 10
-111.6931
 20
-78.0494
 30
0.0
 10
-114.4848
 20
-79.6407
 30
0.0
 10
-114.4848
 20
-79.6407
 30
0.0
 10
-114.4848
 20
-79.6407
 30
0.0
 10
-114.4848
 20
-79.6407
 30
0.0
 10
-138.8862
 20
-65.6898
 30
0.0
 10
-138.8862
 20
-65.6898
 30
0.0
 10
-138.8862
 20
-65.6898
 30
0.0
 10
-138.8862
 20
-65.6898
 30
0.0
 10
-136.0944
 20
-64.0985
 30
0.0
 10
-136.0944
 20
-64.0985
 30
0.0
 10
-136.0944
 20
-64.0985
 30
0.0
 10
-136.0944
 20
-64.0985
 30
0.0
 10
-111.6931
 20
-78.0494
 30
0.0
 10
-111.6931
 20
-78.0494
 30
0.0
  0
SPLINE
  5
91
330
1F
100
AcDbEntity
  8
layer 1
 62
     7
100
AcDbSpline
210
0.0
220
0.0
230
1.0
 70
    11
 71
     3
 72
    20
 73
    16
 74
     0
 42
0.0000000001
 43
0.0000000001
 12
1.0
 22
0.0
 32
0.0
 13
1.0
 23
0.0
 33
0.0
 40
0.0
 40
0.0
 40
0.0
 40
0.0
 40
0.2
 40
0.2
 40
0.2
 40
0.2
 40
0.4
 40
0.4
 40
0.4
 40
0.4
 40
0.6
 40
0.6
 40
0.6
 40
0.6
 40
1.0
 40
1.0
 40
1.0
 40
1.0
 10
-117.2727
 20
-81.1419
 30
0.0
 10
-117.2727
 20
-81.1419
 30
0.0
 10
-120.0645
 20
-82.7332
 30
0.0
 10
-120.0645
 20
-82.7332
 30
0.0
 10
-120.0645
 20
-82.7332
 30
0.0
 10
-120.0645
 20
-82.7332
 30
0.0
 10
-144.2474
 20
-68.7374
 30
0.0
 10
-144.2474
 20
-68.7374
 30
0.0
 10
-144.2474
 20
-68.7374
 30
0.0
 10
-144.2474
 20
-68.7374
 30
0.0
 10
-141.4557
 20
-67.1461
 30
0.0
 10
-141.4557
 20
-67.1461
 30
0.0
 10
-141.4557
 20
-67.1461
 30
0.0
 10
-141.4557
 20
-67.1461
 30
0.0
 10
-117.2727
 20
-81.1419
 30
0.0
 10
-117.2727
 20
-81.1419
 30
0.0
  0
SPLINE
  5
92
330
1F
100
AcDbEntity
  8
layer 1
 62
     7
100
AcDbSpline
210
0.0
220
0.0
230
1.0
 70
    11
 71
     3
 72
    20
 73
    16
 74
     0
 42
0.0000000001
 43
0.0000000001
 12
1.0
 22
0.0
 32
0.0
 13
1.0
 23
0.0
 33
0.0
 40
0.0
 40
0.0
 40
0.0
 40
0.0
 40
0.2
 40
0.2
 40
0.2
 40
0.2
 40
0.4
 40
0.4
 40
0.4
 40
0.4
 40
0.6
 40
0.6
 40
0.6
 40
0.6
 40
1.0
 40
1.0
 40
1.0
 40
1.0
 10
-122.4862
 20
-84.0318
 30
0.0
 10
-122.4862
 20
-84.0318
 30
0.0
 10
-125.278
 20
-85.6231
 30
0.0
 10
-125.278
 20
-85.6231
 30
0.0
 10
-125.278
 20
-85.6231
 30
0.0
 10
-125.278
 20
-85.6231
 30
0.0
 10
-149.6087
 20
-71.7851
 30
0.0
 10
-149.6087
 20
-71.7851
 30
0.0
 10
-149.6087
 20
-71.7851
 30
0.0
 10
-149.6087
 20
-71.7851
 30
0.0
 10
-146.8169
 20
-70.1938
 30
0.0
 10
-146.8169
 20
-70.1938
 30
0.0
 10
-146.8169
 20
-70.1938
 30
0.0
 10
-146.8169
 20
-70.1938
 30
0.0
 10
-122.4862
 20
-84.0318
 30
0.0
 10
-122.4862
 20
-84.0318
 30
0.0
  0
SPLINE
  5
93
330
1F
100
AcDbEntity
  8
layer 1
 62
     7
100
AcDbSpline
210
0.0
220
0.0
230
1.0
 70
    11
 71
     3
 72
    20
 73
    16
 74
     0
 42
0.0000000001
 43
0.0000000001
 12
1.0
 22
0.0
 32
0.0
 13
1.0
 23
0.0
 33
0.0
 40
0.0
 40
0.0
 40
0.0
 40
0.0
 40
0.2
 40
0.2
 40
0.2
 40
0.2
 40
0.4
 40
0.4
 40
0.4
 40
0.4
 40
0.6
 40
0.6
 40
0.6
 40
0.6
 40
1.0
 40
1.0
 40
1.0
 40
1.0
 10
-100.6793
 20
118.686
 30
0.0
 10
-100.6793
 20
118.686
 30
0.0
 10
-103.4711
 20
117.0947
 30
0.0
 10
-103.4711
 20
117.0947
 30
0.0
 10
-103.4711
 20
117.0947
 30
0.0
 10
-103.4711
 20
117.0947
 30
0.0
 10
-117.5332
 20
125.0951
 30
0.0
 10
-117.5332
 20
125.0951
 30
0.0
 10
-117.5332
 20
125.0951
 30
0.0
 10
-117.5332
 20
125.0951
 30
0.0
 10
-112.0633
 20
125.0927
 30
0.0
 10
-112.0633
 20
125.0927
 30
0.0
 10
-112.0633
 20
125.0927
 30
0.0
 10
-112.0633
 20
125.0927
 30
0.0
 10
-100.6793
 20
118.686
 30
0.0
 10
-100.6793
 20
118.686
 30
0.0
  0
SPLINE
  5
94
330
1F
100
AcDbEntity
  8
layer 1
 62
     7
100
AcDbSpline
210
0.0
220
0.0
230
1.0
 70
    11
 71
     3
 72
    20
 73
    16
 74
     0
 42
0.0000000001
 43
0.0000000001
 12
1.0
 22
0.0
 32
0.0
 13
1.0
 23
0.0
 33
0.0
 40
0.0
 40
0.0
 40
0.0
 40
0.0
 40
0.2
 40
0.2
 40
0.2
 40
0.2
 40
0.4
 40
0.4
 40
0.4
 40
0.4
 40
0.6
 40
0.6
 40
0.6
 40
0.6
 40
1.0
 40
1.0
 40
1.0
 40
1.0
 10
-106.1017
 20
115.6361
 30
0.0
 10
-106.1017
 20
115.6361
 30
0.0
 10
-108.8934
 20
114.0448
 30
0.0
 10
-108.8934
 20
114.0448
 30
0.0
 10
-108.8934
 20
114.0448
 30
0.0
 10
-108.8934
 20
114.0448
 30
0.0
 10
-128.4893
 20
125.102
 30
0.0
 10
-128.4893
 20
125.102
 30
0.0
 10
-128.4893
 20
125.102
 30
0.0
 10
-128.4893
 20
125.102
 30
0.0
 10
-122.8691
 20
125.0972
 30
0.0
 10
-122.8691
 20
125.0972
 30
0.0
 10
-122.8691
 20
125.0972
 30
0.0
 10
-122.8691
 20
125.0972
 30
0.0
 10
-106.1017
 20
115.6361
 30
0.0
 10
-106.1017
 20
115.6361
 30
0.0
  0
SPLINE
  5
95
330
1F
100
AcDbEntity
  8
layer 1
 62
     7
100
AcDbSpline
210
0.0
220
0.0
230
1.0
 70
    11
 71
     3
 72
    24
 73
    20
 74
     0
 42
0.0000000001
 43
0.0000000001
 12
1.0
 22
0.0
 32
0.0
 13
1.0
 23
0.0
 33
0.0
 40
0.0
 40
0.0
 40
0.0
 40
0.0
 40
0.1666666666666667
 40
0.1666666666666667
 40
0.1666666666666667
 40
0.1666666666666667
 40
0.3333333333333333
 40
0.3333333333333333
 40
0.3333333333333333
 40
0.3333333333333333
 40
0.5
 40
0.5
 40
0.5
 40
0.5
 40
0.6666666666666666
 40
0.6666666666666666
 40
0.6666666666666666
 40
0.6666666666666666
 40
1.0
 40
1.0
 40
1.0
 40
1.0
 10
-111.6931
 20
112.5365
 30
0.0
 10
-111.6931
 20
112.5365
 30
0.0
 10
-114.4848
 20
110.9452
 30
0.0
 10
-114.4848
 20
110.9452
 30
0.0
 10
-114.4848
 20
110.9452
 30
0.0
 10
-114.4848
 20
110.9452
 30
0.0
 10
-138.8862
 20
124.8961
 30
0.0
 10
-138.8862
 20
124.8961
 30
0.0
 10
-138.8862
 20
124.8961
 30
0.0
 10
-138.8862
 20
124.8961
 30
0.0
 10
-138.52
 20
125.1047
 30
0.0
 10
-138.52
 20
125.1047
 30
0.0
 10
-138.52
 20
125.1047
 30
0.0
 10
-138.52
 20
125.1047
 30
0.0
 10
-133.6892
 20
125.0988
 30
0.0
 10
-133.6892
 20
125.0988
 30
0.0
 10
-133.6892
 20
125.0988
 30
0.0
 10
-133.6892
 20
125.0988
 30
0.0
 10
-111.6931
 20
112.5365
 30
0.0
 10
-111.6931
 20
112.5365
 30
0.0
  0
SPLINE
  5
96
330
1F
100
AcDbEntity
  8
layer 1
 62
     7
100
AcDbSpline
210
0.0
220
0.0
230
1.0
 70
    11
 71
     3
 72
    20
 73
    16
 74
     0
 42
0.0000000001
 43
0.0000000001
 12
1.0
 22
0.0
 32
0.0
 13
1.0
 23
0.0
 33
0.0
 40
0.0
 40
0.0
 40
0.0
 40
0.0
 40
0.2
 40
0.2
 40
0.2
 40
0.2
 40
0.4
 40
0.4
 40
0.4
 40
0.4
 40
0.6
 40
0.6
 40
0.6
 40
0.6
 40
1.0
 40
1.0
 40
1.0
 40
1.0
 10
-117.2727
 20
109.444
 30
0.0
 10
-117.2727
 20
109.444
 30
0.0
 10
-120.0645
 20
107.8527
 30
0.0
 10
-120.0645
 20
107.8527
 30
0.0
 10
-120.0645
 20
107.8527
 30
0.0
 10
-120.0645
 20
107.8527
 30
0.0
 10
-144.2474
 20
121.8485
 30
0.0
 10
-144.2474
 20
121.8485
 30
0.0
 10
-144.2474
 20
121.8485
 30
0.0
 10
-144.2474
 20
121.8485
 30
0.0
 10
-141.4557
 20
123.4398
 30
0.0
 10
-141.4557
 20
123.4398
 30
0.0
 10
-141.4557
 20
123.4398
 30
0.0
 10
-141.4557
 20
123.4398
 30
0.0
 10
-117.2727
 20
109.444
 30
0.0
 10
-117.2727
 20
109.444
 30
0.0
  0
SPLINE
  5
97
330
1F
100
AcDbEntity
  8
layer 1
 62
     7
100
AcDbSpline
210
0.0
220
0.0
230
1.0
 70
    11
 71
     3
 72
    20
 73
    16
 74
     0
 42
0.0000000001
 43
0.0000000001
 12
1.0
 22
0.0
 32
0.0
 13
1.0
 23
0.0
 33
0.0
 40
0.0
 40
0.0
 40
0.0
 40
0.0
 40
0.2
 40
0.2
 40
0.2
 40
0.2
 40
0.4
 40
0.4
 40
0.4
 40
0.4
 40
0.6
 40
0.6
 40
0.6
 40
0.6
 40
1.0
 40
1.0
 40
1.0
 40
1.0
 10
-122.4862
 20
106.554
 30
0.0
 10
-122.4862
 20
106.554
 30
0.0
 10
-125.278
 20
104.9627
 30
0.0
 10
-125.278
 20
104.9627
 30
0.0
 10
-125.278
 20
104.9627
 30
0.0
 10
-125.278
 20
104.9627
 30
0.0
 10
-149.6087
 20
118.8008
 30
0.0
 10
-149.6087
 20
118.8008
 30
0.0
 10
-149.6087
 20
118.8008
 30
0.0
 10
-149.6087
 20
118.8008
 30
0.0
 10
-146.8169
 20
120.3921
 30
0.0
 10
-146.8169
 20
120.3921
 30
0.0
 10
-146.8169
 20
120.3921
 30
0.0
 10
-146.8169
 20
120.3921
 30
0.0
 10
-122.4862
 20
106.554
 30
0.0
 10
-122.4862
 20
106.554
 30
0.0
  0
SPLINE
  5
98
330
1F
100
AcDbEntity
  8
layer 1
 62
     7
100
AcDbSpline
210
0.0
220
0.0
230
1.0
 70
    11
 71
     3
 72
    20
 73
    16
 74
     0
 42
0.0000000001
 43
0.0000000001
 12
1.0
 22
0.0
 32
0.0
 13
1.0
 23
0.0
 33
0.0
 40
0.0
 40
0.0
 40
0.0
 40
0.0
 40
0.2
 40
0.2
 40
0.2
 40
0.2
 40
0.4
 40
0.4
 40
0.4
 40
0.4
 40
0.6
 40
0.6
 40
0.6
 40
0.6
 40
1.0
 40
1.0
 40
1.0
 40
1.0
 10
-95.0139
 20
20.5299
 30
0.0
 10
-95.0139
 20
20.5299
 30
0.0
 10
-92.2015
 20
18.9753
 30
0.0
 10
-92.2015
 20
18.9753
 30
0.0
 10
-92.2015
 20
18.9753
 30
0.0
 10
-92.2015
 20
18.9753
 30
0.0
 10
-92.2015
 20
-9.0454
 30
0.0
 10
-92.2015
 20
-9.0454
 30
0.0
 10
-92.2015
 20
-9.0454
 30
0.0
 10
-92.2015
 20
-9.0454
 30
0.0
 10
-95.0139
 20
-7.4908
 30
0.0
 10
-95.0139
 20
-7.4908
 30
0.0
 10
-95.0139
 20
-7.4908
 30
0.0
 10
-95.0139
 20
-7.4908
 30
0.0
 10
-95.0139
 20
20.5299
 30
0.0
 10
-95.0139
 20
20.5299
 30
0.0
  0
SPLINE
  5
99
330
1F
100
AcDbEntity
  8
layer 1
 62
     7
100
AcDbSpline
210
0.0
220
0.0
230
1.0
 70
    11
 71
     3
 72
    20
 73
    16
 74
     0
 42
0.0000000001
 43
0.0000000001
 12
1.0
 22
0.0
 32
0.0
 13
1.0
 23
0.0
 33
0.0
 40
0.0
 40
0.0
 40
0.0
 40
0.0
 40
0.2
 40
0.2
 40
0.2
 40
0.2
 40
0.4
 40
0.4
 40
0.4
 40
0.4
 40
0.6
 40
0.6
 40
0.6
 40
0.6
 40
1.0
 40
1.0
 40
1.0
 40
1.0
 10
-89.5444
 20
17.4801
 30
0.0
 10
-89.5444
 20
17.4801
 30
0.0
 10
-86.7321
 20
15.9254
 30
0.0
 10
-86.7321
 20
15.9254
 30
0.0
 10
-86.7321
 20
15.9254
 30
0.0
 10
-86.7321
 20
15.9254
 30
0.0
 10
-86.7321
 20
-12.0953
 30
0.0
 10
-86.7321
 20
-12.0953
 30
0.0
 10
-86.7321
 20
-12.0953
 30
0.0
 10
-86.7321
 20
-12.0953
 30
0.0
 10
-89.5444
 20
-10.5406
 30
0.0
 10
-89.5444
 20
-10.5406
 30
0.0
 10
-89.5444
 20
-10.5406
 30
0.0
 10
-89.5444
 20
-10.5406
 30
0.0
 10
-89.5444
 20
17.4801
 30
0.0
 10
-89.5444
 20
17.4801
 30
0.0
  0
SPLINE
  5
9A
330
1F
100
AcDbEntity
  8
layer 1
 62
     7
100
AcDbSpline
210
0.0
220
0.0
230
1.0
 70
    11
 71
     3
 72
    20
 73
    16
 74
     0
 42
0.0000000001
 43
0.0000000001
 12
1.0
 22
0.0
 32
0.0
 13
1.0
 23
0.0
 33
0.0
 40
0.0
 40
0.0
 40
0.0
 40
0.0
 40
0.2
 40
0.2
 40
0.2
 40
0.2
 40
0.4
 40
0.4
 40
0.4
 40
0.4
 40
0.6
 40
0.6
 40
0.6
 40
0.6
 40
1.0
 40
1.0
 40
1.0
 40
1.0
 10
-84.075
 20
14.4302
 30
0.0
 10
-84.075
 20
14.4302
 30
0.0
 10
-81.2627
 20
12.8756
 30
0.0
 10
-81.2627
 20
12.8756
 30
0.0
 10
-81.2627
 20
12.8756
 30
0.0
 10
-81.2627
 20
12.8756
 30
0.0
 10
-81.2627
 20
-15.1451
 30
0.0
 10
-81.2627
 20
-15.1451
 30
0.0
 10
-81.2627
 20
-15.1451
 30
0.0
 10
-81.2627
 20
-15.1451
 30
0.0
 10
-84.075
 20
-13.5905
 30
0.0
 10
-84.075
 20
-13.5905
 30
0.0
 10
-84.075
 20
-13.5905
 30
0.0
 10
-84.075
 20
-13.5905
 30
0.0
 10
-84.075
 20
14.4302
 30
0.0
 10
-84.075
 20
14.4302
 30
0.0
  0
SPLINE
  5
9B
330
1F
100
AcDbEntity
  8
layer 1
 62
     7
100
AcDbSpline
210
0.0
220
0.0
230
1.0
 70
    11
 71
     3
 72
    20
 73
    16
 74
     0
 42
0.0000000001
 43
0.0000000001
 12
1.0
 22
0.0
 32
0.0
 13
1.0
 23
0.0
 33
0.0
 40
0.0
 40
0.0
 40
0.0
 40
0.0
 40
0.2
 40
0.2
 40
0.2
 40
0.2
 40
0.4
 40
0.4
 40
0.4
 40
0.4
 40
0.6
 40
0.6
 40
0.6
 40
0.6
 40
1.0
 40
1.0
 40
1.0
 40
1.0
 10
-78.6056
 20
11.3803
 30
0.0
 10
-78.6056
 20
11.3803
 30
0.0
 10
-75.7933
 20
9.8257
 30
0.0
 10
-75.7933
 20
9.8257
 30
0.0
 10
-75.7933
 20
9.8257
 30
0.0
 10
-75.7933
 20
9.8257
 30
0.0
 10
-75.7933
 20
-18.195
 30
0.0
 10
-75.7933
 20
-18.195
 30
0.0
 10
-75.7933
 20
-18.195
 30
0.0
 10
-75.7933
 20
-18.195
 30
0.0
 10
-78.6056
 20
-16.6403
 30
0.0
 10
-78.6056
 20
-16.6403
 30
0.0
 10
-78.6056
 20
-16.6403
 30
0.0
 10
-78.6056
 20
-16.6403
 30
0.0
 10
-78.6056
 20
11.3803
 30
0.0
 10
-78.6056
 20
11.3803
 30
0.0
  0
SPLINE
  5
9C
330
1F
100
AcDbEntity
  8
layer 1
 62
     7
100
AcDbSpline
210
0.0
220
0.0
230
1.0
 70
    11
 71
     3
 72
    20
 73
    16
 74
     0
 42
0.0000000001
 43
0.0000000001
 12
1.0
 22
0.0
 32
0.0
 13
1.0
 23
0.0
 33
0.0
 40
0.0
 40
0.0
 40
0.0
 40
0.0
 40
0.2
 40
0.2
 40
0.2
 40
0.2
 40
0.4
 40
0.4
 40
0.4
 40
0.4
 40
0.6
 40
0.6
 40
0.6
 40
0.6
 40
1.0
 40
1.0
 40
1.0
 40
1.0
 10
-73.1362
 20
8.3305
 30
0.0
 10
-73.1362
 20
8.3305
 30
0.0
 10
-70.3239
 20
6.7759
 30
0.0
 10
-70.3239
 20
6.7759
 30
0.0
 10
-70.3239
 20
6.7759
 30
0.0
 10
-70.3239
 20
6.7759
 30
0.0
 10
-70.3239
 20
-21.2448
 30
0.0
 10
-70.3239
 20
-21.2448
 30
0.0
 10
-70.3239
 20
-21.2448
 30
0.0
 10
-70.3239
 20
-21.2448
 30
0.0
 10
-73.1362
 20
-19.6902
 30
0.0
 10
-73.1362
 20
-19.6902
 30
0.0
 10
-73.1362
 20
-19.6902
 30
0.0
 10
-73.1362
 20
-19.6902
 30
0.0
 10
-73.1362
 20
8.3305
 30
0.0
 10
-73.1362
 20
8.3305
 30
0.0
  0
SPLINE
  5
9D
330
1F
100
AcDbEntity
  8
layer 1
 62
     7
100
AcDbSpline
210
0.0
220
0.0
230
1.0
 70
    11
 71
     3
 72
    20
 73
    16
 74
     0
 42
0.0000000001
 43
0.0000000001
 12
1.0
 22
0.0
 32
0.0
 13
1.0
 23
0.0
 33
0.0
 40
0.0
 40
0.0
 40
0.0
 40
0.0
 40
0.2
 40
0.2
 40
0.2
 40
0.2
 40
0.4
 40
0.4
 40
0.4
 40
0.4
 40
0.6
 40
0.6
 40
0.6
 40
0.6
 40
1.0
 40
1.0
 40
1.0
 40
1.0
 10
-155.5353
 20
26.2547
 30
0.0
 10
-155.5353
 20
26.2547
 30
0.0
 10
-158.3476
 20
27.8094
 30
0.0
 10
-158.3476
 20
27.8094
 30
0.0
 10
-158.3476
 20
27.8094
 30
0.0
 10
-158.3476
 20
27.8094
 30
0.0
 10
-158.3476
 20
55.83
 30
0.0
 10
-158.3476
 20
55.83
 30
0.0
 10
-158.3476
 20
55.83
 30
0.0
 10
-158.3476
 20
55.83
 30
0.0
 10
-155.5353
 20
54.2754
 30
0.0
 10
-155.5353
 20
54.2754
 30
0.0
 10
-155.5353
 20
54.2754
 30
0.0
 10
-155.5353
 20
54.2754
 30
0.0
 10
-155.5353
 20
26.2547
 30
0.0
 10
-155.5353
 20
26.2547
 30
0.0
  0
SPLINE
  5
9E
330
1F
100
AcDbEntity
  8
layer 1
 62
     7
100
AcDbSpline
210
0.0
220
0.0
230
1.0
 70
    11
 71
     3
 72
    20
 73
    16
 74
     0
 42
0.0000000001
 43
0.0000000001
 12
1.0
 22
0.0
 32
0.0
 13
1.0
 23
0.0
 33
0.0
 40
0.0
 40
0.0
 40
0.0
 40
0.0
 40
0.2
 40
0.2
 40
0.2
 40
0.2
 40
0.4
 40
0.4
 40
0.4
 40
0.4
 40
0.6
 40
0.6
 40
0.6
 40
0.6
 40
1.0
 40
1.0
 40
1.0
 40
1.0
 10
-161.0047
 20
29.3046
 30
0.0
 10
-161.0047
 20
29.3046
 30
0.0
 10
-163.817
 20
30.8592
 30
0.0
 10
-163.817
 20
30.8592
 30
0.0
 10
-163.817
 20
30.8592
 30
0.0
 10
-163.817
 20
30.8592
 30
0.0
 10
-163.817
 20
58.8799
 30
0.0
 10
-163.817
 20
58.8799
 30
0.0
 10
-163.817
 20
58.8799
 30
0.0
 10
-163.817
 20
58.8799
 30
0.0
 10
-161.0047
 20
57.3253
 30
0.0
 10
-161.0047
 20
57.3253
 30
0.0
 10
-161.0047
 20
57.3253
 30
0.0
 10
-161.0047
 20
57.3253
 30
0.0
 10
-161.0047
 20
29.3046
 30
0.0
 10
-161.0047
 20
29.3046
 30
0.0
  0
SPLINE
  5
9F
330
1F
100
AcDbEntity
  8
layer 1
 62
     7
100
AcDbSpline
210
0.0
220
0.0
230
1.0
 70
    11
 71
     3
 72
    20
 73
    16
 74
     0
 42
0.0000000001
 43
0.0000000001
 12
1.0
 22
0.0
 32
0.0
 13
1.0
 23
0.0
 33
0.0
 40
0.0
 40
0.0
 40
0.0
 40
0.0
 40
0.2
 40
0.2
 40
0.2
 40
0.2
 40
0.4
 40
0.4
 40
0.4
 40
0.4
 40
0.6
 40
0.6
 40
0.6
 40
0.6
 40
1.0
 40
1.0
 40
1.0
 40
1.0
 10
-166.4741
 20
32.3544
 30
0.0
 10
-166.4741
 20
32.3544
 30
0.0
 10
-169.2864
 20
33.9091
 30
0.0
 10
-169.2864
 20
33.9091
 30
0.0
 10
-169.2864
 20
33.9091
 30
0.0
 10
-169.2864
 20
33.9091
 30
0.0
 10
-169.2864
 20
61.9298
 30
0.0
 10
-169.2864
 20
61.9298
 30
0.0
 10
-169.2864
 20
61.9298
 30
0.0
 10
-169.2864
 20
61.9298
 30
0.0
 10
-166.4741
 20
60.3751
 30
0.0
 10
-166.4741
 20
60.3751
 30
0.0
 10
-166.4741
 20
60.3751
 30
0.0
 10
-166.4741
 20
60.3751
 30
0.0
 10
-166.4741
 20
32.3544
 30
0.0
 10
-166.4741
 20
32.3544
 30
0.0
  0
SPLINE
  5
A0
330
1F
100
AcDbEntity
  8
layer 1
 62
     7
100
AcDbSpline
210
0.0
220
0.0
230
1.0
 70
    11
 71
     3
 72
    20
 73
    16
 74
     0
 42
0.0000000001
 43
0.0000000001
 12
1.0
 22
0.0
 32
0.0
 13
1.0
 23
0.0
 33
0.0
 40
0.0
 40
0.0
 40
0.0
 40
0.0
 40
0.2
 40
0.2
 40
0.2
 40
0.2
 40
0.4
 40
0.4
 40
0.4
 40
0.4
 40
0.6
 40
0.6
 40
0.6
 40
0.6
 40
1.0
 40
1.0
 40
1.0
 40
1.0
 10
-171.9435
 20
35.4043
 30
0.0
 10
-171.9435
 20
35.4043
 30
0.0
 10
-174.7558
 20
36.9589
 30
0.0
 10
-174.7558
 20
36.9589
 30
0.0
 10
-174.7558
 20
36.9589
 30
0.0
 10
-174.7558
 20
36.9589
 30
0.0
 10
-174.7558
 20
64.9796
 30
0.0
 10
-174.7558
 20
64.9796
 30
0.0
 10
-174.7558
 20
64.9796
 30
0.0
 10
-174.7558
 20
64.9796
 30
0.0
 10
-171.9435
 20
63.425
 30
0.0
 10
-171.9435
 20
63.425
 30
0.0
 10
-171.9435
 20
63.425
 30
0.0
 10
-171.9435
 20
63.425
 30
0.0
 10
-171.9435
 20
35.4043
 30
0.0
 10
-171.9435
 20
35.4043
 30
0.0
  0
SPLINE
  5
A1
330
1F
100
AcDbEntity
  8
layer 1
 62
     7
100
AcDbSpline
210
0.0
220
0.0
230
1.0
 70
    11
 71
     3
 72
    20
 73
    16
 74
     0
 42
0.0000000001
 43
0.0000000001
 12
1.0
 22
0.0
 32
0.0
 13
1.0
 23
0.0
 33
0.0
 40
0.0
 40
0.0
 40
0.0
 40
0.0
 40
0.2
 40
0.2
 40
0.2
 40
0.2
 40
0.4
 40
0.4
 40
0.4
 40
0.4
 40
0.6
 40
0.6
 40
0.6
 40
0.6
 40
1.0
 40
1.0
 40
1.0
 40
1.0
 10
-177.4129
 20
38.4541
 30
0.0
 10
-177.4129
 20
38.4541
 30
0.0
 10
-180.2253
 20
40.0088
 30
0.0
 10
-180.2253
 20
40.0088
 30
0.0
 10
-180.2253
 20
40.0088
 30
0.0
 10
-180.2253
 20
40.0088
 30
0.0
 10
-180.2253
 20
68.0295
 30
0.0
 10
-180.2253
 20
68.0295
 30
0.0
 10
-180.2253
 20
68.0295
 30
0.0
 10
-180.2253
 20
68.0295
 30
0.0
 10
-177.4129
 20
66.4748
 30
0.0
 10
-177.4129
 20
66.4748
 30
0.0
 10
-177.4129
 20
66.4748
 30
0.0
 10
-177.4129
 20
66.4748
 30
0.0
 10
-177.4129
 20
38.4541
 30
0.0
 10
-177.4129
 20
38.4541
 30
0.0
  0
SPLINE
  5
A2
330
1F
100
AcDbEntity
  8
layer 1
 62
     7
100
AcDbSpline
210
0.0
220
0.0
230
1.0
 70
    11
 71
     3
 72
    20
 73
    16
 74
     0
 42
0.0000000001
 43
0.0000000001
 12
1.0
 22
0.0
 32
0.0
 13
1.0
 23
0.0
 33
0.0
 40
0.0
 40
0.0
 40
0.0
 40
0.0
 40
0.2
 40
0.2
 40
0.2
 40
0.2
 40
0.4
 40
0.4
 40
0.4
 40
0.4
 40
0.6
 40
0.6
 40
0.6
 40
0.6
 40
1.0
 40
1.0
 40
1.0
 40
1.0
 10
-70.2235
 20
68.0111
 30
0.0
 10
-70.2235
 20
68.0111
 30
0.0
 10
-70.2198
 20
64.7977
 30
0.0
 10
-70.2198
 20
64.7977
 30
0.0
 10
-70.2198
 20
64.7977
 30
0.0
 10
-70.2198
 20
64.7977
 30
0.0
 10
-94.7272
 20
51.213
 30
0.0
 10
-94.7272
 20
51.213
 30
0.0
 10
-94.7272
 20
51.213
 30
0.0
 10
-94.7272
 20
51.213
 30
0.0
 10
-94.731
 20
54.4264
 30
0.0
 10
-94.731
 20
54.4264
 30
0.0
 10
-94.731
 20
54.4264
 30
0.0
 10
-94.731
 20
54.4264
 30
0.0
 10
-70.2235
 20
68.0111
 30
0.0
 10
-70.2235
 20
68.0111
 30
0.0
  0
SPLINE
  5
A3
330
1F
100
AcDbEntity
  8
layer 1
 62
     7
100
AcDbSpline
210
0.0
220
0.0
230
1.0
 70
    11
 71
     3
 72
    20
 73
    16
 74
     0
 42
0.0000000001
 43
0.0000000001
 12
1.0
 22
0.0
 32
0.0
 13
1.0
 23
0.0
 33
0.0
 40
0.0
 40
0.0
 40
0.0
 40
0.0
 40
0.2
 40
0.2
 40
0.2
 40
0.2
 40
0.4
 40
0.4
 40
0.4
 40
0.4
 40
0.6
 40
0.6
 40
0.6
 40
0.6
 40
1.0
 40
1.0
 40
1.0
 40
1.0
 10
-70.2234
 20
61.844
 30
0.0
 10
-70.2234
 20
61.844
 30
0.0
 10
-70.2197
 20
58.6306
 30
0.0
 10
-70.2197
 20
58.6306
 30
0.0
 10
-70.2197
 20
58.6306
 30
0.0
 10
-70.2197
 20
58.6306
 30
0.0
 10
-94.7271
 20
45.0459
 30
0.0
 10
-94.7271
 20
45.0459
 30
0.0
 10
-94.7271
 20
45.0459
 30
0.0
 10
-94.7271
 20
45.0459
 30
0.0
 10
-94.7309
 20
48.2593
 30
0.0
 10
-94.7309
 20
48.2593
 30
0.0
 10
-94.7309
 20
48.2593
 30
0.0
 10
-94.7309
 20
48.2593
 30
0.0
 10
-70.2234
 20
61.844
 30
0.0
 10
-70.2234
 20
61.844
 30
0.0
  0
SPLINE
  5
A4
330
1F
100
AcDbEntity
  8
layer 1
 62
     7
100
AcDbSpline
210
0.0
220
0.0
230
1.0
 70
    11
 71
     3
 72
    20
 73
    16
 74
     0
 42
0.0000000001
 43
0.0000000001
 12
1.0
 22
0.0
 32
0.0
 13
1.0
 23
0.0
 33
0.0
 40
0.0
 40
0.0
 40
0.0
 40
0.0
 40
0.2
 40
0.2
 40
0.2
 40
0.2
 40
0.4
 40
0.4
 40
0.4
 40
0.4
 40
0.6
 40
0.6
 40
0.6
 40
0.6
 40
1.0
 40
1.0
 40
1.0
 40
1.0
 10
-70.2234
 20
55.6772
 30
0.0
 10
-70.2234
 20
55.6772
 30
0.0
 10
-70.2197
 20
52.4638
 30
0.0
 10
-70.2197
 20
52.4638
 30
0.0
 10
-70.2197
 20
52.4638
 30
0.0
 10
-70.2197
 20
52.4638
 30
0.0
 10
-94.7271
 20
38.8791
 30
0.0
 10
-94.7271
 20
38.8791
 30
0.0
 10
-94.7271
 20
38.8791
 30
0.0
 10
-94.7271
 20
38.8791
 30
0.0
 10
-94.7309
 20
42.0925
 30
0.0
 10
-94.7309
 20
42.0925
 30
0.0
 10
-94.7309
 20
42.0925
 30
0.0
 10
-94.7309
 20
42.0925
 30
0.0
 10
-70.2234
 20
55.6772
 30
0.0
 10
-70.2234
 20
55.6772
 30
0.0
  0
SPLINE
  5
A5
330
1F
100
AcDbEntity
  8
layer 1
 62
     7
100
AcDbSpline
210
0.0
220
0.0
230
1.0
 70
    11
 71
     3
 72
    20
 73
    16
 74
     0
 42
0.0000000001
 43
0.0000000001
 12
1.0
 22
0.0
 32
0.0
 13
1.0
 23
0.0
 33
0.0
 40
0.0
 40
0.0
 40
0.0
 40
0.0
 40
0.2
 40
0.2
 40
0.2
 40
0.2
 40
0.4
 40
0.4
 40
0.4
 40
0.4
 40
0.6
 40
0.6
 40
0.6
 40
0.6
 40
1.0
 40
1.0
 40
1.0
 40
1.0
 10
-70.2235
 20
49.5103
 30
0.0
 10
-70.2235
 20
49.5103
 30
0.0
 10
-70.2197
 20
46.2968
 30
0.0
 10
-70.2197
 20
46.2968
 30
0.0
 10
-70.2197
 20
46.2968
 30
0.0
 10
-70.2197
 20
46.2968
 30
0.0
 10
-94.7272
 20
32.7121
 30
0.0
 10
-94.7272
 20
32.7121
 30
0.0
 10
-94.7272
 20
32.7121
 30
0.0
 10
-94.7272
 20
32.7121
 30
0.0
 10
-94.7309
 20
35.9256
 30
0.0
 10
-94.7309
 20
35.9256
 30
0.0
 10
-94.7309
 20
35.9256
 30
0.0
 10
-94.7309
 20
35.9256
 30
0.0
 10
-70.2235
 20
49.5103
 30
0.0
 10
-70.2235
 20
49.5103
 30
0.0
  0
SPLINE
  5
A6
330
1F
100
AcDbEntity
  8
layer 1
 62
     7
100
AcDbSpline
210
0.0
220
0.0
230
1.0
 70
    11
 71
     3
 72
    20
 73
    16
 74
     0
 42
0.0000000001
 43
0.0000000001
 12
1.0
 22
0.0
 32
0.0
 13
1.0
 23
0.0
 33
0.0
 40
0.0
 40
0.0
 40
0.0
 40
0.0
 40
0.2
 40
0.2
 40
0.2
 40
0.2
 40
0.4
 40
0.4
 40
0.4
 40
0.4
 40
0.6
 40
0.6
 40
0.6
 40
0.6
 40
1.0
 40
1.0
 40
1.0
 40
1.0
 10
-70.2235
 20
43.3433
 30
0.0
 10
-70.2235
 20
43.3433
 30
0.0
 10
-70.2197
 20
40.1299
 30
0.0
 10
-70.2197
 20
40.1299
 30
0.0
 10
-70.2197
 20
40.1299
 30
0.0
 10
-70.2197
 20
40.1299
 30
0.0
 10
-94.7272
 20
26.5452
 30
0.0
 10
-94.7272
 20
26.5452
 30
0.0
 10
-94.7272
 20
26.5452
 30
0.0
 10
-94.7272
 20
26.5452
 30
0.0
 10
-94.7309
 20
29.7586
 30
0.0
 10
-94.7309
 20
29.7586
 30
0.0
 10
-94.7309
 20
29.7586
 30
0.0
 10
-94.7309
 20
29.7586
 30
0.0
 10
-70.2235
 20
43.3433
 30
0.0
 10
-70.2235
 20
43.3433
 30
0.0
  0
SPLINE
  5
A7
330
1F
100
AcDbEntity
  8
layer 1
 62
     7
100
AcDbSpline
210
0.0
220
0.0
230
1.0
 70
    11
 71
     3
 72
    20
 73
    16
 74
     0
 42
0.0000000001
 43
0.0000000001
 12
1.0
 22
0.0
 32
0.0
 13
1.0
 23
0.0
 33
0.0
 40
0.0
 40
0.0
 40
0.0
 40
0.0
 40
0.2
 40
0.2
 40
0.2
 40
0.2
 40
0.4
 40
0.4
 40
0.4
 40
0.4
 40
0.6
 40
0.6
 40
0.6
 40
0.6
 40
1.0
 40
1.0
 40
1.0
 40
1.0
 10
-123.4794
 20
-21.2265
 30
0.0
 10
-123.4794
 20
-21.2265
 30
0.0
 10
-123.4831
 20
-18.013
 30
0.0
 10
-123.4831
 20
-18.013
 30
0.0
 10
-123.4831
 20
-18.013
 30
0.0
 10
-123.4831
 20
-18.013
 30
0.0
 10
-98.9757
 20
-4.4283
 30
0.0
 10
-98.9757
 20
-4.4283
 30
0.0
 10
-98.9757
 20
-4.4283
 30
0.0
 10
-98.9757
 20
-4.4283
 30
0.0
 10
-98.9719
 20
-7.6418
 30
0.0
 10
-98.9719
 20
-7.6418
 30
0.0
 10
-98.9719
 20
-7.6418
 30
0.0
 10
-98.9719
 20
-7.6418
 30
0.0
 10
-123.4794
 20
-21.2265
 30
0.0
 10
-123.4794
 20
-21.2265
 30
0.0
  0
SPLINE
  5
A8
330
1F
100
AcDbEntity
  8
layer 1
 62
     7
100
AcDbSpline
210
0.0
220
0.0
230
1.0
 70
    11
 71
     3
 72
    20
 73
    16
 74
     0
 42
0.0000000001
 43
0.0000000001
 12
1.0
 22
0.0
 32
0.0
 13
1.0
 23
0.0
 33
0.0
 40
0.0
 40
0.0
 40
0.0
 40
0.0
 40
0.2
 40
0.2
 40
0.2
 40
0.2
 40
0.4
 40
0.4
 40
0.4
 40
0.4
 40
0.6
 40
0.6
 40
0.6
 40
0.6
 40
1.0
 40
1.0
 40
1.0
 40
1.0
 10
-123.4795
 20
-15.0594
 30
0.0
 10
-123.4795
 20
-15.0594
 30
0.0
 10
-123.4832
 20
-11.846
 30
0.0
 10
-123.4832
 20
-11.846
 30
0.0
 10
-123.4832
 20
-11.846
 30
0.0
 10
-123.4832
 20
-11.846
 30
0.0
 10
-98.9758
 20
1.7387
 30
0.0
 10
-98.9758
 20
1.7387
 30
0.0
 10
-98.9758
 20
1.7387
 30
0.0
 10
-98.9758
 20
1.7387
 30
0.0
 10
-98.972
 20
-1.4747
 30
0.0
 10
-98.972
 20
-1.4747
 30
0.0
 10
-98.972
 20
-1.4747
 30
0.0
 10
-98.972
 20
-1.4747
 30
0.0
 10
-123.4795
 20
-15.0594
 30
0.0
 10
-123.4795
 20
-15.0594
 30
0.0
  0
SPLINE
  5
A9
330
1F
100
AcDbEntity
  8
layer 1
 62
     7
100
AcDbSpline
210
0.0
220
0.0
230
1.0
 70
    11
 71
     3
 72
    20
 73
    16
 74
     0
 42
0.0000000001
 43
0.0000000001
 12
1.0
 22
0.0
 32
0.0
 13
1.0
 23
0.0
 33
0.0
 40
0.0
 40
0.0
 40
0.0
 40
0.0
 40
0.2
 40
0.2
 40
0.2
 40
0.2
 40
0.4
 40
0.4
 40
0.4
 40
0.4
 40
0.6
 40
0.6
 40
0.6
 40
0.6
 40
1.0
 40
1.0
 40
1.0
 40
1.0
 10
-123.4795
 20
-8.8926
 30
0.0
 10
-123.4795
 20
-8.8926
 30
0.0
 10
-123.4832
 20
-5.6791
 30
0.0
 10
-123.4832
 20
-5.6791
 30
0.0
 10
-123.4832
 20
-5.6791
 30
0.0
 10
-123.4832
 20
-5.6791
 30
0.0
 10
-98.9758
 20
7.9056
 30
0.0
 10
-98.9758
 20
7.9056
 30
0.0
 10
-98.9758
 20
7.9056
 30
0.0
 10
-98.9758
 20
7.9056
 30
0.0
 10
-98.972
 20
4.6921
 30
0.0
 10
-98.972
 20
4.6921
 30
0.0
 10
-98.972
 20
4.6921
 30
0.0
 10
-98.972
 20
4.6921
 30
0.0
 10
-123.4795
 20
-8.8926
 30
0.0
 10
-123.4795
 20
-8.8926
 30
0.0
  0
SPLINE
  5
AA
330
1F
100
AcDbEntity
  8
layer 1
 62
     7
100
AcDbSpline
210
0.0
220
0.0
230
1.0
 70
    11
 71
     3
 72
    20
 73
    16
 74
     0
 42
0.0000000001
 43
0.0000000001
 12
1.0
 22
0.0
 32
0.0
 13
1.0
 23
0.0
 33
0.0
 40
0.0
 40
0.0
 40
0.0
 40
0.0
 40
0.2
 40
0.2
 40
0.2
 40
0.2
 40
0.4
 40
0.4
 40
0.4
 40
0.4
 40
0.6
 40
0.6
 40
0.6
 40
0.6
 40
1.0
 40
1.0
 40
1.0
 40
1.0
 10
-123.4794
 20
-2.7256
 30
0.0
 10
-123.4794
 20
-2.7256
 30
0.0
 10
-123.4832
 20
0.4878
 30
0.0
 10
-123.4832
 20
0.4878
 30
0.0
 10
-123.4832
 20
0.4878
 30
0.0
 10
-123.4832
 20
0.4878
 30
0.0
 10
-98.9757
 20
14.0725
 30
0.0
 10
-98.9757
 20
14.0725
 30
0.0
 10
-98.9757
 20
14.0725
 30
0.0
 10
-98.9757
 20
14.0725
 30
0.0
 10
-98.972
 20
10.8591
 30
0.0
 10
-98.972
 20
10.8591
 30
0.0
 10
-98.972
 20
10.8591
 30
0.0
 10
-98.972
 20
10.8591
 30
0.0
 10
-123.4794
 20
-2.7256
 30
0.0
 10
-123.4794
 20
-2.7256
 30
0.0
  0
SPLINE
  5
AB
330
1F
100
AcDbEntity
  8
layer 1
 62
     7
100
AcDbSpline
210
0.0
220
0.0
230
1.0
 70
    11
 71
     3
 72
    20
 73
    16
 74
     0
 42
0.0000000001
 43
0.0000000001
 12
1.0
 22
0.0
 32
0.0
 13
1.0
 23
0.0
 33
0.0
 40
0.0
 40
0.0
 40
0.0
 40
0.0
 40
0.2
 40
0.2
 40
0.2
 40
0.2
 40
0.4
 40
0.4
 40
0.4
 40
0.4
 40
0.6
 40
0.6
 40
0.6
 40
0.6
 40
1.0
 40
1.0
 40
1.0
 40
1.0
 10
-123.4794
 20
3.4413
 30
0.0
 10
-123.4794
 20
3.4413
 30
0.0
 10
-123.4832
 20
6.6548
 30
0.0
 10
-123.4832
 20
6.6548
 30
0.0
 10
-123.4832
 20
6.6548
 30
0.0
 10
-123.4832
 20
6.6548
 30
0.0
 10
-98.9757
 20
20.2395
 30
0.0
 10
-98.9757
 20
20.2395
 30
0.0
 10
-98.9757
 20
20.2395
 30
0.0
 10
-98.9757
 20
20.2395
 30
0.0
 10
-98.972
 20
17.026
 30
0.0
 10
-98.972
 20
17.026
 30
0.0
 10
-98.972
 20
17.026
 30
0.0
 10
-98.972
 20
17.026
 30
0.0
 10
-123.4794
 20
3.4413
 30
0.0
 10
-123.4794
 20
3.4413
 30
0.0
  0
SPLINE
  5
AC
330
1F
100
AcDbEntity
  8
layer 1
 62
     7
100
AcDbSpline
210
0.0
220
0.0
230
1.0
 70
    11
 71
     3
 72
    20
 73
    16
 74
     0
 42
0.0000000001
 43
0.0000000001
 12
1.0
 22
0.0
 32
0.0
 13
1.0
 23
0.0
 33
0.0
 40
0.0
 40
0.0
 40
0.0
 40
0.0
 40
0.2
 40
0.2
 40
0.2
 40
0.2
 40
0.4
 40
0.4
 40
0.4
 40
0.4
 40
0.6
 40
0.6
 40
0.6
 40
0.6
 40
1.0
 40
1.0
 40
1.0
 40
1.0
 10
-155.454
 20
-68.972
 30
0.0
 10
-155.454
 20
-68.972
 30
0.0
 10
-158.2663
 20
-67.4174
 30
0.0
 10
-158.2663
 20
-67.4174
 30
0.0
 10
-158.2663
 20
-67.4174
 30
0.0
 10
-158.2663
 20
-67.4174
 30
0.0
 10
-158.2663
 20
-39.3967
 30
0.0
 10
-158.2663
 20
-39.3967
 30
0.0
 10
-158.2663
 20
-39.3967
 30
0.0
 10
-158.2663
 20
-39.3967
 30
0.0
 10
-155.454
 20
-40.9513
 30
0.0
 10
-155.454
 20
-40.9513
 30
0.0
 10
-155.454
 20
-40.9513
 30
0.0
 10
-155.454
 20
-40.9513
 30
0.0
 10
-155.454
 20
-68.972
 30
0.0
 10
-155.454
 20
-68.972
 30
0.0
  0
SPLINE
  5
AD
330
1F
100
AcDbEntity
  8
layer 1
 62
     7
100
AcDbSpline
210
0.0
220
0.0
230
1.0
 70
    11
 71
     3
 72
    20
 73
    16
 74
     0
 42
0.0000000001
 43
0.0000000001
 12
1.0
 22
0.0
 32
0.0
 13
1.0
 23
0.0
 33
0.0
 40
0.0
 40
0.0
 40
0.0
 40
0.0
 40
0.2
 40
0.2
 40
0.2
 40
0.2
 40
0.4
 40
0.4
 40
0.4
 40
0.4
 40
0.6
 40
0.6
 40
0.6
 40
0.6
 40
1.0
 40
1.0
 40
1.0
 40
1.0
 10
-160.9234
 20
-65.9221
 30
0.0
 10
-160.9234
 20
-65.9221
 30
0.0
 10
-163.7357
 20
-64.3675
 30
0.0
 10
-163.7357
 20
-64.3675
 30
0.0
 10
-163.7357
 20
-64.3675
 30
0.0
 10
-163.7357
 20
-64.3675
 30
0.0
 10
-163.7357
 20
-36.3468
 30
0.0
 10
-163.7357
 20
-36.3468
 30
0.0
 10
-163.7357
 20
-36.3468
 30
0.0
 10
-163.7357
 20
-36.3468
 30
0.0
 10
-160.9234
 20
-37.9015
 30
0.0
 10
-160.9234
 20
-37.9015
 30
0.0
 10
-160.9234
 20
-37.9015
 30
0.0
 10
-160.9234
 20
-37.9015
 30
0.0
 10
-160.9234
 20
-65.9221
 30
0.0
 10
-160.9234
 20
-65.9221
 30
0.0
  0
SPLINE
  5
AE
330
1F
100
AcDbEntity
  8
layer 1
 62
     7
100
AcDbSpline
210
0.0
220
0.0
230
1.0
 70
    11
 71
     3
 72
    20
 73
    16
 74
     0
 42
0.0000000001
 43
0.0000000001
 12
1.0
 22
0.0
 32
0.0
 13
1.0
 23
0.0
 33
0.0
 40
0.0
 40
0.0
 40
0.0
 40
0.0
 40
0.2
 40
0.2
 40
0.2
 40
0.2
 40
0.4
 40
0.4
 40
0.4
 40
0.4
 40
0.6
 40
0.6
 40
0.6
 40
0.6
 40
1.0
 40
1.0
 40
1.0
 40
1.0
 10
-166.3928
 20
-62.8723
 30
0.0
 10
-166.3928
 20
-62.8723
 30
0.0
 10
-169.2051
 20
-61.3177
 30
0.0
 10
-169.2051
 20
-61.3177
 30
0.0
 10
-169.2051
 20
-61.3177
 30
0.0
 10
-169.2051
 20
-61.3177
 30
0.0
 10
-169.2051
 20
-33.297
 30
0.0
 10
-169.2051
 20
-33.297
 30
0.0
 10
-169.2051
 20
-33.297
 30
0.0
 10
-169.2051
 20
-33.297
 30
0.0
 10
-166.3928
 20
-34.8516
 30
0.0
 10
-166.3928
 20
-34.8516
 30
0.0
 10
-166.3928
 20
-34.8516
 30
0.0
 10
-166.3928
 20
-34.8516
 30
0.0
 10
-166.3928
 20
-62.8723
 30
0.0
 10
-166.3928
 20
-62.8723
 30
0.0
  0
SPLINE
  5
AF
330
1F
100
AcDbEntity
  8
layer 1
 62
     7
100
AcDbSpline
210
0.0
220
0.0
230
1.0
 70
    11
 71
     3
 72
    20
 73
    16
 74
     0
 42
0.0000000001
 43
0.0000000001
 12
1.0
 22
0.0
 32
0.0
 13
1.0
 23
0.0
 33
0.0
 40
0.0
 40
0.0
 40
0.0
 40
0.0
 40
0.2
 40
0.2
 40
0.2
 40
0.2
 40
0.4
 40
0.4
 40
0.4
 40
0.4
 40
0.6
 40
0.6
 40
0.6
 40
0.6
 40
1.0
 40
1.0
 40
1.0
 40
1.0
 10
-171.8622
 20
-59.8224
 30
0.0
 10
-171.8622
 20
-59.8224
 30
0.0
 10
-174.6746
 20
-58.2678
 30
0.0
 10
-174.6746
 20
-58.2678
 30
0.0
 10
-174.6746
 20
-58.2678
 30
0.0
 10
-174.6746
 20
-58.2678
 30
0.0
 10
-174.6746
 20
-30.2471
 30
0.0
 10
-174.6746
 20
-30.2471
 30
0.0
 10
-174.6746
 20
-30.2471
 30
0.0
 10
-174.6746
 20
-30.2471
 30
0.0
 10
-171.8622
 20
-31.8017
 30
0.0
 10
-171.8622
 20
-31.8017
 30
0.0
 10
-171.8622
 20
-31.8017
 30
0.0
 10
-171.8622
 20
-31.8017
 30
0.0
 10
-171.8622
 20
-59.8224
 30
0.0
 10
-171.8622
 20
-59.8224
 30
0.0
  0
SPLINE
  5
B0
330
1F
100
AcDbEntity
  8
layer 1
 62
     7
100
AcDbSpline
210
0.0
220
0.0
230
1.0
 70
    11
 71
     3
 72
    20
 73
    16
 74
     0
 42
0.0000000001
 43
0.0000000001
 12
1.0
 22
0.0
 32
0.0
 13
1.0
 23
0.0
 33
0.0
 40
0.0
 40
0.0
 40
0.0
 40
0.0
 40
0.2
 40
0.2
 40
0.2
 40
0.2
 40
0.4
 40
0.4
 40
0.4
 40
0.4
 40
0.6
 40
0.6
 40
0.6
 40
0.6
 40
1.0
 40
1.0
 40
1.0
 40
1.0
 10
-177.3316
 20
-56.7726
 30
0.0
 10
-177.3316
 20
-56.7726
 30
0.0
 10
-180.144
 20
-55.2179
 30
0.0
 10
-180.144
 20
-55.2179
 30
0.0
 10
-180.144
 20
-55.2179
 30
0.0
 10
-180.144
 20
-55.2179
 30
0.0
 10
-180.144
 20
-27.1973
 30
0.0
 10
-180.144
 20
-27.1973
 30
0.0
 10
-180.144
 20
-27.1973
 30
0.0
 10
-180.144
 20
-27.1973
 30
0.0
 10
-177.3316
 20
-28.7519
 30
0.0
 10
-177.3316
 20
-28.7519
 30
0.0
 10
-177.3316
 20
-28.7519
 30
0.0
 10
-177.3316
 20
-28.7519
 30
0.0
 10
-177.3316
 20
-56.7726
 30
0.0
 10
-177.3316
 20
-56.7726
 30
0.0
  0
SPLINE
  5
B1
330
1F
100
AcDbEntity
  8
layer 1
 62
     7
100
AcDbSpline
210
0.0
220
0.0
230
1.0
 70
    11
 71
     3
 72
    20
 73
    16
 74
     0
 42
0.0000000001
 43
0.0000000001
 12
1.0
 22
0.0
 32
0.0
 13
1.0
 23
0.0
 33
0.0
 40
0.0
 40
0.0
 40
0.0
 40
0.0
 40
0.2
 40
0.2
 40
0.2
 40
0.2
 40
0.4
 40
0.4
 40
0.4
 40
0.4
 40
0.6
 40
0.6
 40
0.6
 40
0.6
 40
1.0
 40
1.0
 40
1.0
 40
1.0
 10
-70.2096
 20
-27.2156
 30
0.0
 10
-70.2096
 20
-27.2156
 30
0.0
 10
-70.2059
 20
-30.429
 30
0.0
 10
-70.2059
 20
-30.429
 30
0.0
 10
-70.2059
 20
-30.429
 30
0.0
 10
-70.2059
 20
-30.429
 30
0.0
 10
-94.7133
 20
-44.0137
 30
0.0
 10
-94.7133
 20
-44.0137
 30
0.0
 10
-94.7133
 20
-44.0137
 30
0.0
 10
-94.7133
 20
-44.0137
 30
0.0
 10
-94.7171
 20
-40.8003
 30
0.0
 10
-94.7171
 20
-40.8003
 30
0.0
 10
-94.7171
 20
-40.8003
 30
0.0
 10
-94.7171
 20
-40.8003
 30
0.0
 10
-70.2096
 20
-27.2156
 30
0.0
 10
-70.2096
 20
-27.2156
 30
0.0
  0
SPLINE
  5
B2
330
1F
100
AcDbEntity
  8
layer 1
 62
     7
100
AcDbSpline
210
0.0
220
0.0
230
1.0
 70
    11
 71
     3
 72
    20
 73
    16
 74
     0
 42
0.0000000001
 43
0.0000000001
 12
1.0
 22
0.0
 32
0.0
 13
1.0
 23
0.0
 33
0.0
 40
0.0
 40
0.0
 40
0.0
 40
0.0
 40
0.2
 40
0.2
 40
0.2
 40
0.2
 40
0.4
 40
0.4
 40
0.4
 40
0.4
 40
0.6
 40
0.6
 40
0.6
 40
0.6
 40
1.0
 40
1.0
 40
1.0
 40
1.0
 10
-70.2095
 20
-33.3827
 30
0.0
 10
-70.2095
 20
-33.3827
 30
0.0
 10
-70.2058
 20
-36.5961
 30
0.0
 10
-70.2058
 20
-36.5961
 30
0.0
 10
-70.2058
 20
-36.5961
 30
0.0
 10
-70.2058
 20
-36.5961
 30
0.0
 10
-94.7132
 20
-50.1808
 30
0.0
 10
-94.7132
 20
-50.1808
 30
0.0
 10
-94.7132
 20
-50.1808
 30
0.0
 10
-94.7132
 20
-50.1808
 30
0.0
 10
-94.717
 20
-46.9674
 30
0.0
 10
-94.717
 20
-46.9674
 30
0.0
 10
-94.717
 20
-46.9674
 30
0.0
 10
-94.717
 20
-46.9674
 30
0.0
 10
-70.2095
 20
-33.3827
 30
0.0
 10
-70.2095
 20
-33.3827
 30
0.0
  0
SPLINE
  5
B3
330
1F
100
AcDbEntity
  8
layer 1
 62
     7
100
AcDbSpline
210
0.0
220
0.0
230
1.0
 70
    11
 71
     3
 72
    20
 73
    16
 74
     0
 42
0.0000000001
 43
0.0000000001
 12
1.0
 22
0.0
 32
0.0
 13
1.0
 23
0.0
 33
0.0
 40
0.0
 40
0.0
 40
0.0
 40
0.0
 40
0.2
 40
0.2
 40
0.2
 40
0.2
 40
0.4
 40
0.4
 40
0.4
 40
0.4
 40
0.6
 40
0.6
 40
0.6
 40
0.6
 40
1.0
 40
1.0
 40
1.0
 40
1.0
 10
-70.2095
 20
-39.5495
 30
0.0
 10
-70.2095
 20
-39.5495
 30
0.0
 10
-70.2058
 20
-42.7629
 30
0.0
 10
-70.2058
 20
-42.7629
 30
0.0
 10
-70.2058
 20
-42.7629
 30
0.0
 10
-70.2058
 20
-42.7629
 30
0.0
 10
-94.7133
 20
-56.3476
 30
0.0
 10
-94.7133
 20
-56.3476
 30
0.0
 10
-94.7133
 20
-56.3476
 30
0.0
 10
-94.7133
 20
-56.3476
 30
0.0
 10
-94.717
 20
-53.1342
 30
0.0
 10
-94.717
 20
-53.1342
 30
0.0
 10
-94.717
 20
-53.1342
 30
0.0
 10
-94.717
 20
-53.1342
 30
0.0
 10
-70.2095
 20
-39.5495
 30
0.0
 10
-70.2095
 20
-39.5495
 30
0.0
  0
SPLINE
  5
B4
330
1F
100
AcDbEntity
  8
layer 1
 62
     7
100
AcDbSpline
210
0.0
220
0.0
230
1.0
 70
    11
 71
     3
 72
    20
 73
    16
 74
     0
 42
0.0000000001
 43
0.0000000001
 12
1.0
 22
0.0
 32
0.0
 13
1.0
 23
0.0
 33
0.0
 40
0.0
 40
0.0
 40
0.0
 40
0.0
 40
0.2
 40
0.2
 40
0.2
 40
0.2
 40
0.4
 40
0.4
 40
0.4
 40
0.4
 40
0.6
 40
0.6
 40
0.6
 40
0.6
 40
1.0
 40
1.0
 40
1.0
 40
1.0
 10
-70.2096
 20
-45.7165
 30
0.0
 10
-70.2096
 20
-45.7165
 30
0.0
 10
-70.2058
 20
-48.9299
 30
0.0
 10
-70.2058
 20
-48.9299
 30
0.0
 10
-70.2058
 20
-48.9299
 30
0.0
 10
-70.2058
 20
-48.9299
 30
0.0
 10
-94.7133
 20
-62.5146
 30
0.0
 10
-94.7133
 20
-62.5146
 30
0.0
 10
-94.7133
 20
-62.5146
 30
0.0
 10
-94.7133
 20
-62.5146
 30
0.0
 10
-94.717
 20
-59.3012
 30
0.0
 10
-94.717
 20
-59.3012
 30
0.0
 10
-94.717
 20
-59.3012
 30
0.0
 10
-94.717
 20
-59.3012
 30
0.0
 10
-70.2096
 20
-45.7165
 30
0.0
 10
-70.2096
 20
-45.7165
 30
0.0
  0
SPLINE
  5
B5
330
1F
100
AcDbEntity
  8
layer 1
 62
     7
100
AcDbSpline
210
0.0
220
0.0
230
1.0
 70
    11
 71
     3
 72
    20
 73
    16
 74
     0
 42
0.0000000001
 43
0.0000000001
 12
1.0
 22
0.0
 32
0.0
 13
1.0
 23
0.0
 33
0.0
 40
0.0
 40
0.0
 40
0.0
 40
0.0
 40
0.2
 40
0.2
 40
0.2
 40
0.2
 40
0.4
 40
0.4
 40
0.4
 40
0.4
 40
0.6
 40
0.6
 40
0.6
 40
0.6
 40
1.0
 40
1.0
 40
1.0
 40
1.0
 10
-70.2096
 20
-51.8834
 30
0.0
 10
-70.2096
 20
-51.8834
 30
0.0
 10
-70.2059
 20
-55.0968
 30
0.0
 10
-70.2059
 20
-55.0968
 30
0.0
 10
-70.2059
 20
-55.0968
 30
0.0
 10
-70.2059
 20
-55.0968
 30
0.0
 10
-94.7133
 20
-68.6815
 30
0.0
 10
-94.7133
 20
-68.6815
 30
0.0
 10
-94.7133
 20
-68.6815
 30
0.0
 10
-94.7133
 20
-68.6815
 30
0.0
 10
-94.717
 20
-65.4681
 30
0.0
 10
-94.717
 20
-65.4681
 30
0.0
 10
-94.717
 20
-65.4681
 30
0.0
 10
-94.717
 20
-65.4681
 30
0.0
 10
-70.2096
 20
-51.8834
 30
0.0
 10
-70.2096
 20
-51.8834
 30
0.0
  0
SPLINE
  5
B6
330
1F
100
AcDbEntity
  8
layer 1
 62
     7
100
AcDbSpline
210
0.0
220
0.0
230
1.0
 70
    11
 71
     3
 72
    20
 73
    16
 74
     0
 42
0.0000000001
 43
0.0000000001
 12
1.0
 22
0.0
 32
0.0
 13
1.0
 23
0.0
 33
0.0
 40
0.0
 40
0.0
 40
0.0
 40
0.0
 40
0.2
 40
0.2
 40
0.2
 40
0.2
 40
0.4
 40
0.4
 40
0.4
 40
0.4
 40
0.6
 40
0.6
 40
0.6
 40
0.6
 40
1.0
 40
1.0
 40
1.0
 40
1.0
 10
-94.9337
 20
115.7566
 30
0.0
 10
-94.9337
 20
115.7566
 30
0.0
 10
-92.1213
 20
114.202
 30
0.0
 10
-92.1213
 20
114.202
 30
0.0
 10
-92.1213
 20
114.202
 30
0.0
 10
-92.1213
 20
114.202
 30
0.0
 10
-92.1213
 20
86.1813
 30
0.0
 10
-92.1213
 20
86.1813
 30
0.0
 10
-92.1213
 20
86.1813
 30
0.0
 10
-92.1213
 20
86.1813
 30
0.0
 10
-94.9337
 20
87.7359
 30
0.0
 10
-94.9337
 20
87.7359
 30
0.0
 10
-94.9337
 20
87.7359
 30
0.0
 10
-94.9337
 20
87.7359
 30
0.0
 10
-94.9337
 20
115.7566
 30
0.0
 10
-94.9337
 20
115.7566
 30
0.0
  0
SPLINE
  5
B7
330
1F
100
AcDbEntity
  8
layer 1
 62
     7
100
AcDbSpline
210
0.0
220
0.0
230
1.0
 70
    11
 71
     3
 72
    20
 73
    16
 74
     0
 42
0.0000000001
 43
0.0000000001
 12
1.0
 22
0.0
 32
0.0
 13
1.0
 23
0.0
 33
0.0
 40
0.0
 40
0.0
 40
0.0
 40
0.0
 40
0.2
 40
0.2
 40
0.2
 40
0.2
 40
0.4
 40
0.4
 40
0.4
 40
0.4
 40
0.6
 40
0.6
 40
0.6
 40
0.6
 40
1.0
 40
1.0
 40
1.0
 40
1.0
 10
-89.4643
 20
112.7068
 30
0.0
 10
-89.4643
 20
112.7068
 30
0.0
 10
-86.6519
 20
111.1521
 30
0.0
 10
-86.6519
 20
111.1521
 30
0.0
 10
-86.6519
 20
111.1521
 30
0.0
 10
-86.6519
 20
111.1521
 30
0.0
 10
-86.6519
 20
83.1315
 30
0.0
 10
-86.6519
 20
83.1315
 30
0.0
 10
-86.6519
 20
83.1315
 30
0.0
 10
-86.6519
 20
83.1315
 30
0.0
 10
-89.4643
 20
84.6861
 30
0.0
 10
-89.4643
 20
84.6861
 30
0.0
 10
-89.4643
 20
84.6861
 30
0.0
 10
-89.4643
 20
84.6861
 30
0.0
 10
-89.4643
 20
112.7068
 30
0.0
 10
-89.4643
 20
112.7068
 30
0.0
  0
SPLINE
  5
B8
330
1F
100
AcDbEntity
  8
layer 1
 62
     7
100
AcDbSpline
210
0.0
220
0.0
230
1.0
 70
    11
 71
     3
 72
    20
 73
    16
 74
     0
 42
0.0000000001
 43
0.0000000001
 12
1.0
 22
0.0
 32
0.0
 13
1.0
 23
0.0
 33
0.0
 40
0.0
 40
0.0
 40
0.0
 40
0.0
 40
0.2
 40
0.2
 40
0.2
 40
0.2
 40
0.4
 40
0.4
 40
0.4
 40
0.4
 40
0.6
 40
0.6
 40
0.6
 40
0.6
 40
1.0
 40
1.0
 40
1.0
 40
1.0
 10
-83.9948
 20
109.6569
 30
0.0
 10
-83.9948
 20
109.6569
 30
0.0
 10
-81.1825
 20
108.1023
 30
0.0
 10
-81.1825
 20
108.1023
 30
0.0
 10
-81.1825
 20
108.1023
 30
0.0
 10
-81.1825
 20
108.1023
 30
0.0
 10
-81.1825
 20
80.0816
 30
0.0
 10
-81.1825
 20
80.0816
 30
0.0
 10
-81.1825
 20
80.0816
 30
0.0
 10
-81.1825
 20
80.0816
 30
0.0
 10
-83.9948
 20
81.6362
 30
0.0
 10
-83.9948
 20
81.6362
 30
0.0
 10
-83.9948
 20
81.6362
 30
0.0
 10
-83.9948
 20
81.6362
 30
0.0
 10
-83.9948
 20
109.6569
 30
0.0
 10
-83.9948
 20
109.6569
 30
0.0
  0
SPLINE
  5
B9
330
1F
100
AcDbEntity
  8
layer 1
 62
     7
100
AcDbSpline
210
0.0
220
0.0
230
1.0
 70
    11
 71
     3
 72
    20
 73
    16
 74
     0
 42
0.0000000001
 43
0.0000000001
 12
1.0
 22
0.0
 32
0.0
 13
1.0
 23
0.0
 33
0.0
 40
0.0
 40
0.0
 40
0.0
 40
0.0
 40
0.2
 40
0.2
 40
0.2
 40
0.2
 40
0.4
 40
0.4
 40
0.4
 40
0.4
 40
0.6
 40
0.6
 40
0.6
 40
0.6
 40
1.0
 40
1.0
 40
1.0
 40
1.0
 10
-78.5254
 20
106.6071
 30
0.0
 10
-78.5254
 20
106.6071
 30
0.0
 10
-75.7131
 20
105.0524
 30
0.0
 10
-75.7131
 20
105.0524
 30
0.0
 10
-75.7131
 20
105.0524
 30
0.0
 10
-75.7131
 20
105.0524
 30
0.0
 10
-75.7131
 20
77.0317
 30
0.0
 10
-75.7131
 20
77.0317
 30
0.0
 10
-75.7131
 20
77.0317
 30
0.0
 10
-75.7131
 20
77.0317
 30
0.0
 10
-78.5254
 20
78.5864
 30
0.0
 10
-78.5254
 20
78.5864
 30
0.0
 10
-78.5254
 20
78.5864
 30
0.0
 10
-78.5254
 20
78.5864
 30
0.0
 10
-78.5254
 20
106.6071
 30
0.0
 10
-78.5254
 20
106.6071
 30
0.0
  0
SPLINE
  5
BA
330
1F
100
AcDbEntity
  8
layer 1
 62
     7
100
AcDbSpline
210
0.0
220
0.0
230
1.0
 70
    11
 71
     3
 72
    20
 73
    16
 74
     0
 42
0.0000000001
 43
0.0000000001
 12
1.0
 22
0.0
 32
0.0
 13
1.0
 23
0.0
 33
0.0
 40
0.0
 40
0.0
 40
0.0
 40
0.0
 40
0.2
 40
0.2
 40
0.2
 40
0.2
 40
0.4
 40
0.4
 40
0.4
 40
0.4
 40
0.6
 40
0.6
 40
0.6
 40
0.6
 40
1.0
 40
1.0
 40
1.0
 40
1.0
 10
-73.056
 20
103.5572
 30
0.0
 10
-73.056
 20
103.5572
 30
0.0
 10
-70.2437
 20
102.0026
 30
0.0
 10
-70.2437
 20
102.0026
 30
0.0
 10
-70.2437
 20
102.0026
 30
0.0
 10
-70.2437
 20
102.0026
 30
0.0
 10
-70.2437
 20
73.9819
 30
0.0
 10
-70.2437
 20
73.9819
 30
0.0
 10
-70.2437
 20
73.9819
 30
0.0
 10
-70.2437
 20
73.9819
 30
0.0
 10
-73.056
 20
75.5365
 30
0.0
 10
-73.056
 20
75.5365
 30
0.0
 10
-73.056
 20
75.5365
 30
0.0
 10
-73.056
 20
75.5365
 30
0.0
 10
-73.056
 20
103.5572
 30
0.0
 10
-73.056
 20
103.5572
 30
0.0
  0
SPLINE
  5
BB
330
1F
100
AcDbEntity
  8
layer 1
 62
     7
100
AcDbSpline
210
0.0
220
0.0
230
1.0
 70
    11
 71
     3
 72
    20
 73
    16
 74
     0
 42
0.0000000001
 43
0.0000000001
 12
1.0
 22
0.0
 32
0.0
 13
1.0
 23
0.0
 33
0.0
 40
0.0
 40
0.0
 40
0.0
 40
0.0
 40
0.2
 40
0.2
 40
0.2
 40
0.2
 40
0.4
 40
0.4
 40
0.4
 40
0.4
 40
0.6
 40
0.6
 40
0.6
 40
0.6
 40
1.0
 40
1.0
 40
1.0
 40
1.0
 10
-180.1212
 20
74.0002
 30
0.0
 10
-180.1212
 20
74.0002
 30
0.0
 10
-180.1249
 20
77.2137
 30
0.0
 10
-180.1249
 20
77.2137
 30
0.0
 10
-180.1249
 20
77.2137
 30
0.0
 10
-180.1249
 20
77.2137
 30
0.0
 10
-155.6175
 20
90.7984
 30
0.0
 10
-155.6175
 20
90.7984
 30
0.0
 10
-155.6175
 20
90.7984
 30
0.0
 10
-155.6175
 20
90.7984
 30
0.0
 10
-155.6138
 20
87.5849
 30
0.0
 10
-155.6138
 20
87.5849
 30
0.0
 10
-155.6138
 20
87.5849
 30
0.0
 10
-155.6138
 20
87.5849
 30
0.0
 10
-180.1212
 20
74.0002
 30
0.0
 10
-180.1212
 20
74.0002
 30
0.0
  0
SPLINE
  5
BC
330
1F
100
AcDbEntity
  8
layer 1
 62
     7
100
AcDbSpline
210
0.0
220
0.0
230
1.0
 70
    11
 71
     3
 72
    20
 73
    16
 74
     0
 42
0.0000000001
 43
0.0000000001
 12
1.0
 22
0.0
 32
0.0
 13
1.0
 23
0.0
 33
0.0
 40
0.0
 40
0.0
 40
0.0
 40
0.0
 40
0.2
 40
0.2
 40
0.2
 40
0.2
 40
0.4
 40
0.4
 40
0.4
 40
0.4
 40
0.6
 40
0.6
 40
0.6
 40
0.6
 40
1.0
 40
1.0
 40
1.0
 40
1.0
 10
-180.1213
 20
80.1673
 30
0.0
 10
-180.1213
 20
80.1673
 30
0.0
 10
-180.1251
 20
83.3808
 30
0.0
 10
-180.1251
 20
83.3808
 30
0.0
 10
-180.1251
 20
83.3808
 30
0.0
 10
-180.1251
 20
83.3808
 30
0.0
 10
-155.6176
 20
96.9655
 30
0.0
 10
-155.6176
 20
96.9655
 30
0.0
 10
-155.6176
 20
96.9655
 30
0.0
 10
-155.6176
 20
96.9655
 30
0.0
 10
-155.6139
 20
93.752
 30
0.0
 10
-155.6139
 20
93.752
 30
0.0
 10
-155.6139
 20
93.752
 30
0.0
 10
-155.6139
 20
93.752
 30
0.0
 10
-180.1213
 20
80.1673
 30
0.0
 10
-180.1213
 20
80.1673
 30
0.0
  0
SPLINE
  5
BD
330
1F
100
AcDbEntity
  8
layer 1
 62
     7
100
AcDbSpline
210
0.0
220
0.0
230
1.0
 70
    11
 71
     3
 72
    20
 73
    16
 74
     0
 42
0.0000000001
 43
0.0000000001
 12
1.0
 22
0.0
 32
0.0
 13
1.0
 23
0.0
 33
0.0
 40
0.0
 40
0.0
 40
0.0
 40
0.0
 40
0.2
 40
0.2
 40
0.2
 40
0.2
 40
0.4
 40
0.4
 40
0.4
 40
0.4
 40
0.6
 40
0.6
 40
0.6
 40
0.6
 40
1.0
 40
1.0
 40
1.0
 40
1.0
 10
-180.1213
 20
86.3341
 30
0.0
 10
-180.1213
 20
86.3341
 30
0.0
 10
-180.125
 20
89.5476
 30
0.0
 10
-180.125
 20
89.5476
 30
0.0
 10
-180.125
 20
89.5476
 30
0.0
 10
-180.125
 20
89.5476
 30
0.0
 10
-155.6176
 20
103.1323
 30
0.0
 10
-155.6176
 20
103.1323
 30
0.0
 10
-155.6176
 20
103.1323
 30
0.0
 10
-155.6176
 20
103.1323
 30
0.0
 10
-155.6139
 20
99.9188
 30
0.0
 10
-155.6139
 20
99.9188
 30
0.0
 10
-155.6139
 20
99.9188
 30
0.0
 10
-155.6139
 20
99.9188
 30
0.0
 10
-180.1213
 20
86.3341
 30
0.0
 10
-180.1213
 20
86.3341
 30
0.0
  0
SPLINE
  5
BE
330
1F
100
AcDbEntity
  8
layer 1
 62
     7
100
AcDbSpline
210
0.0
220
0.0
230
1.0
 70
    11
 71
     3
 72
    20
 73
    16
 74
     0
 42
0.0000000001
 43
0.0000000001
 12
1.0
 22
0.0
 32
0.0
 13
1.0
 23
0.0
 33
0.0
 40
0.0
 40
0.0
 40
0.0
 40
0.0
 40
0.2
 40
0.2
 40
0.2
 40
0.2
 40
0.4
 40
0.4
 40
0.4
 40
0.4
 40
0.6
 40
0.6
 40
0.6
 40
0.6
 40
1.0
 40
1.0
 40
1.0
 40
1.0
 10
-180.1213
 20
92.5011
 30
0.0
 10
-180.1213
 20
92.5011
 30
0.0
 10
-180.125
 20
95.7145
 30
0.0
 10
-180.125
 20
95.7145
 30
0.0
 10
-180.125
 20
95.7145
 30
0.0
 10
-180.125
 20
95.7145
 30
0.0
 10
-155.6176
 20
109.2992
 30
0.0
 10
-155.6176
 20
109.2992
 30
0.0
 10
-155.6176
 20
109.2992
 30
0.0
 10
-155.6176
 20
109.2992
 30
0.0
 10
-155.6138
 20
106.0858
 30
0.0
 10
-155.6138
 20
106.0858
 30
0.0
 10
-155.6138
 20
106.0858
 30
0.0
 10
-155.6138
 20
106.0858
 30
0.0
 10
-180.1213
 20
92.5011
 30
0.0
 10
-180.1213
 20
92.5011
 30
0.0
  0
SPLINE
  5
BF
330
1F
100
AcDbEntity
  8
layer 1
 62
     7
100
AcDbSpline
210
0.0
220
0.0
230
1.0
 70
    11
 71
     3
 72
    20
 73
    16
 74
     0
 42
0.0000000001
 43
0.0000000001
 12
1.0
 22
0.0
 32
0.0
 13
1.0
 23
0.0
 33
0.0
 40
0.0
 40
0.0
 40
0.0
 40
0.0
 40
0.2
 40
0.2
 40
0.2
 40
0.2
 40
0.4
 40
0.4
 40
0.4
 40
0.4
 40
0.6
 40
0.6
 40
0.6
 40
0.6
 40
1.0
 40
1.0
 40
1.0
 40
1.0
 10
-180.1213
 20
98.668
 30
0.0
 10
-180.1213
 20
98.668
 30
0.0
 10
-180.125
 20
101.8815
 30
0.0
 10
-180.125
 20
101.8815
 30
0.0
 10
-180.125
 20
101.8815
 30
0.0
 10
-180.125
 20
101.8815
 30
0.0
 10
-155.6175
 20
115.4662
 30
0.0
 10
-155.6175
 20
115.4662
 30
0.0
 10
-155.6175
 20
115.4662
 30
0.0
 10
-155.6175
 20
115.4662
 30
0.0
 10
-155.6138
 20
112.2527
 30
0.0
 10
-155.6138
 20
112.2527
 30
0.0
 10
-155.6138
 20
112.2527
 30
0.0
 10
-155.6138
 20
112.2527
 30
0.0
 10
-180.1213
 20
98.668
 30
0.0
 10
-180.1213
 20
98.668
 30
0.0
  0
SPLINE
  5
C0
330
1F
100
AcDbEntity
  8
layer 1
 62
     7
100
AcDbSpline
210
0.0
220
0.0
230
1.0
 70
    11
 71
     3
 72
    20
 73
    16
 74
     0
 42
0.0000000001
 43
0.0000000001
 12
1.0
 22
0.0
 32
0.0
 13
1.0
 23
0.0
 33
0.0
 40
0.0
 40
0.0
 40
0.0
 40
0.0
 40
0.2
 40
0.2
 40
0.2
 40
0.2
 40
0.4
 40
0.4
 40
0.4
 40
0.4
 40
0.6
 40
0.6
 40
0.6
 40
0.6
 40
1.0
 40
1.0
 40
1.0
 40
1.0
 10
-98.6282
 20
121.5943
 30
0.0
 10
-98.6282
 20
121.5943
 30
0.0
 10
-98.6246
 20
125.1139
 30
0.0
 10
-98.6246
 20
125.1139
 30
0.0
 10
-98.6246
 20
125.1139
 30
0.0
 10
-98.6246
 20
125.1139
 30
0.0
 10
-101.4491
 20
125.1086
 30
0.0
 10
-101.4491
 20
125.1086
 30
0.0
 10
-101.4491
 20
125.1086
 30
0.0
 10
-101.4491
 20
125.1086
 30
0.0
 10
-101.453
 20
123.1601
 30
0.0
 10
-101.453
 20
123.1601
 30
0.0
 10
-101.453
 20
123.1601
 30
0.0
 10
-101.453
 20
123.1601
 30
0.0
 10
-98.6282
 20
121.5943
 30
0.0
 10
-98.6282
 20
121.5943
 30
0.0
  0
SPLINE
  5
C1
330
1F
100
AcDbEntity
  8
layer 1
 62
     7
100
AcDbSpline
210
0.0
220
0.0
230
1.0
 70
    11
 71
     3
 72
    20
 73
    16
 74
     0
 42
0.0000000001
 43
0.0000000001
 12
1.0
 22
0.0
 32
0.0
 13
1.0
 23
0.0
 33
0.0
 40
0.0
 40
0.0
 40
0.0
 40
0.0
 40
0.2
 40
0.2
 40
0.2
 40
0.2
 40
0.4
 40
0.4
 40
0.4
 40
0.4
 40
0.6
 40
0.6
 40
0.6
 40
0.6
 40
1.0
 40
1.0
 40
1.0
 40
1.0
 10
-151.8351
 20
121.5943
 30
0.0
 10
-151.8351
 20
121.5943
 30
0.0
 10
-151.8388
 20
124.8077
 30
0.0
 10
-151.8388
 20
124.8077
 30
0.0
 10
-151.8388
 20
124.8077
 30
0.0
 10
-151.8388
 20
124.8077
 30
0.0
 10
-151.2374
 20
125.1085
 30
0.0
 10
-151.2374
 20
125.1085
 30
0.0
 10
-151.2374
 20
125.1085
 30
0.0
 10
-151.2374
 20
125.1085
 30
0.0
 10
-145.4703
 20
125.1225
 30
0.0
 10
-145.4703
 20
125.1225
 30
0.0
 10
-145.4703
 20
125.1225
 30
0.0
 10
-145.4703
 20
125.1225
 30
0.0
 10
-151.8351
 20
121.5943
 30
0.0
 10
-151.8351
 20
121.5943
 30
0.0
  0
SPLINE
  5
C2
330
1F
100
AcDbEntity
  8
layer 1
 62
     7
100
AcDbSpline
210
0.0
220
0.0
230
1.0
 70
    11
 71
     3
 72
    20
 73
    16
 74
     0
 42
0.0000000001
 43
0.0000000001
 12
1.0
 22
0.0
 32
0.0
 13
1.0
 23
0.0
 33
0.0
 40
0.0
 40
0.0
 40
0.0
 40
0.0
 40
0.2
 40
0.2
 40
0.2
 40
0.2
 40
0.4
 40
0.4
 40
0.4
 40
0.4
 40
0.6
 40
0.6
 40
0.6
 40
0.6
 40
1.0
 40
1.0
 40
1.0
 40
1.0
 10
-180.112
 20
116.1529
 30
0.0
 10
-180.112
 20
116.1529
 30
0.0
 10
-180.0841
 20
119.3242
 30
0.0
 10
-180.0841
 20
119.3242
 30
0.0
 10
-180.0841
 20
119.3242
 30
0.0
 10
-180.0841
 20
119.3242
 30
0.0
 10
-168.0264
 20
112.4209
 30
0.0
 10
-168.0264
 20
112.4209
 30
0.0
 10
-168.0264
 20
112.4209
 30
0.0
 10
-168.0264
 20
112.4209
 30
0.0
 10
-170.8977
 20
110.8291
 30
0.0
 10
-170.8977
 20
110.8291
 30
0.0
 10
-170.8977
 20
110.8291
 30
0.0
 10
-170.8977
 20
110.8291
 30
0.0
 10
-180.112
 20
116.1529
 30
0.0
 10
-180.112
 20
116.1529
 30
0.0
  0
SPLINE
  5
C3
330
1F
100
AcDbEntity
  8
layer 1
 62
     7
100
AcDbSpline
210
0.0
220
0.0
230
1.0
 70
    11
 71
     3
 72
    24
 73
    20
 74
     0
 42
0.0000000001
 43
0.0000000001
 12
1.0
 22
0.0
 32
0.0
 13
1.0
 23
0.0
 33
0.0
 40
0.0
 40
0.0
 40
0.0
 40
0.0
 40
0.1666666666666667
 40
0.1666666666666667
 40
0.1666666666666667
 40
0.1666666666666667
 40
0.3333333333333333
 40
0.3333333333333333
 40
0.3333333333333333
 40
0.3333333333333333
 40
0.5
 40
0.5
 40
0.5
 40
0.5
 40
0.6666666666666666
 40
0.6666666666666666
 40
0.6666666666666666
 40
0.6666666666666666
 40
1.0
 40
1.0
 40
1.0
 40
1.0
 10
-180.1142
 20
122.3708
 30
0.0
 10
-180.1142
 20
122.3708
 30
0.0
 10
-180.1282
 20
125.0852
 30
0.0
 10
-180.1282
 20
125.0852
 30
0.0
 10
-180.1282
 20
125.0852
 30
0.0
 10
-180.1282
 20
125.0852
 30
0.0
 10
-179.3321
 20
125.1207
 30
0.0
 10
-179.3321
 20
125.1207
 30
0.0
 10
-179.3321
 20
125.1207
 30
0.0
 10
-179.3321
 20
125.1207
 30
0.0
 10
-162.5888
 20
115.4349
 30
0.0
 10
-162.5888
 20
115.4349
 30
0.0
 10
-162.5888
 20
115.4349
 30
0.0
 10
-162.5888
 20
115.4349
 30
0.0
 10
-165.4192
 20
113.8659
 30
0.0
 10
-165.4192
 20
113.8659
 30
0.0
 10
-165.4192
 20
113.8659
 30
0.0
 10
-165.4192
 20
113.8659
 30
0.0
 10
-180.1142
 20
122.3708
 30
0.0
 10
-180.1142
 20
122.3708
 30
0.0
  0
SPLINE
  5
C4
330
1F
100
AcDbEntity
  8
layer 1
 62
     7
100
AcDbSpline
210
0.0
220
0.0
230
1.0
 70
    11
 71
     3
 72
    20
 73
    16
 74
     0
 42
0.0000000001
 43
0.0000000001
 12
1.0
 22
0.0
 32
0.0
 13
1.0
 23
0.0
 33
0.0
 40
0.0
 40
0.0
 40
0.0
 40
0.0
 40
0.2
 40
0.2
 40
0.2
 40
0.2
 40
0.4
 40
0.4
 40
0.4
 40
0.4
 40
0.6
 40
0.6
 40
0.6
 40
0.6
 40
1.0
 40
1.0
 40
1.0
 40
1.0
 10
-174.4339
 20
125.0889
 30
0.0
 10
-174.4339
 20
125.0889
 30
0.0
 10
-168.8637
 20
125.1
 30
0.0
 10
-168.8637
 20
125.1
 30
0.0
 10
-168.8637
 20
125.1
 30
0.0
 10
-168.8637
 20
125.1
 30
0.0
 10
-157.1609
 20
118.444
 30
0.0
 10
-157.1609
 20
118.444
 30
0.0
 10
-157.1609
 20
118.444
 30
0.0
 10
-157.1609
 20
118.444
 30
0.0
 10
-159.9914
 20
116.8747
 30
0.0
 10
-159.9914
 20
116.8747
 30
0.0
 10
-159.9914
 20
116.8747
 30
0.0
 10
-159.9914
 20
116.8747
 30
0.0
 10
-174.4339
 20
125.0889
 30
0.0
 10
-174.4339
 20
125.0889
 30
0.0
  0
SPLINE
  5
C5
330
1F
100
AcDbEntity
  8
layer 1
 62
     7
100
AcDbSpline
210
0.0
220
0.0
230
1.0
 70
    11
 71
     3
 72
    20
 73
    16
 74
     0
 42
0.0000000001
 43
0.0000000001
 12
1.0
 22
0.0
 32
0.0
 13
1.0
 23
0.0
 33
0.0
 40
0.0
 40
0.0
 40
0.0
 40
0.0
 40
0.2
 40
0.2
 40
0.2
 40
0.2
 40
0.4
 40
0.4
 40
0.4
 40
0.4
 40
0.6
 40
0.6
 40
0.6
 40
0.6
 40
1.0
 40
1.0
 40
1.0
 40
1.0
 10
-155.4623
 20
121.5943
 30
0.0
 10
-155.4623
 20
121.5943
 30
0.0
 10
-155.4586
 20
125.1139
 30
0.0
 10
-155.4586
 20
125.1139
 30
0.0
 10
-155.4586
 20
125.1139
 30
0.0
 10
-155.4586
 20
125.1139
 30
0.0
 10
-158.2832
 20
125.1086
 30
0.0
 10
-158.2832
 20
125.1086
 30
0.0
 10
-158.2832
 20
125.1086
 30
0.0
 10
-158.2832
 20
125.1086
 30
0.0
 10
-158.2871
 20
123.1601
 30
0.0
 10
-158.2871
 20
123.1601
 30
0.0
 10
-158.2871
 20
123.1601
 30
0.0
 10
-158.2871
 20
123.1601
 30
0.0
 10
-155.4623
 20
121.5943
 30
0.0
 10
-155.4623
 20
121.5943
 30
0.0
  0
SPLINE
  5
C6
330
1F
100
AcDbEntity
  8
layer 1
 62
     7
100
AcDbSpline
210
0.0
220
0.0
230
1.0
 70
    11
 71
     3
 72
    20
 73
    16
 74
     0
 42
0.0000000001
 43
0.0000000001
 12
1.0
 22
0.0
 32
0.0
 13
1.0
 23
0.0
 33
0.0
 40
0.0
 40
0.0
 40
0.0
 40
0.0
 40
0.2
 40
0.2
 40
0.2
 40
0.2
 40
0.4
 40
0.4
 40
0.4
 40
0.4
 40
0.6
 40
0.6
 40
0.6
 40
0.6
 40
1.0
 40
1.0
 40
1.0
 40
1.0
 10
-180.1098
 20
109.9949
 30
0.0
 10
-180.1098
 20
109.9949
 30
0.0
 10
-180.0819
 20
113.1662
 30
0.0
 10
-180.0819
 20
113.1662
 30
0.0
 10
-180.0819
 20
113.1662
 30
0.0
 10
-180.0819
 20
113.1662
 30
0.0
 10
-173.571
 20
109.3474
 30
0.0
 10
-173.571
 20
109.3474
 30
0.0
 10
-173.571
 20
109.3474
 30
0.0
 10
-173.571
 20
109.3474
 30
0.0
 10
-176.2577
 20
107.8581
 30
0.0
 10
-176.2577
 20
107.8581
 30
0.0
 10
-176.2577
 20
107.8581
 30
0.0
 10
-176.2577
 20
107.8581
 30
0.0
 10
-180.1098
 20
109.9949
 30
0.0
 10
-180.1098
 20
109.9949
 30
0.0
  0
SPLINE
  5
C7
330
1F
100
AcDbEntity
  8
layer 1
 62
     7
100
AcDbSpline
210
0.0
220
0.0
230
1.0
 70
    11
 71
     3
 72
    20
 73
    16
 74
     0
 42
0.0000000001
 43
0.0000000001
 12
1.0
 22
0.0
 32
0.0
 13
1.0
 23
0.0
 33
0.0
 40
0.0
 40
0.0
 40
0.0
 40
0.0
 40
0.2
 40
0.2
 40
0.2
 40
0.2
 40
0.4
 40
0.4
 40
0.4
 40
0.4
 40
0.6
 40
0.6
 40
0.6
 40
0.6
 40
1.0
 40
1.0
 40
1.0
 40
1.0
 10
-123.4794
 20
74.2605
 30
0.0
 10
-123.4794
 20
74.2605
 30
0.0
 10
-123.4831
 20
77.4739
 30
0.0
 10
-123.4831
 20
77.4739
 30
0.0
 10
-123.4831
 20
77.4739
 30
0.0
 10
-123.4831
 20
77.4739
 30
0.0
 10
-98.9757
 20
91.0586
 30
0.0
 10
-98.9757
 20
91.0586
 30
0.0
 10
-98.9757
 20
91.0586
 30
0.0
 10
-98.9757
 20
91.0586
 30
0.0
 10
-98.9719
 20
87.8452
 30
0.0
 10
-98.9719
 20
87.8452
 30
0.0
 10
-98.9719
 20
87.8452
 30
0.0
 10
-98.9719
 20
87.8452
 30
0.0
 10
-123.4794
 20
74.2605
 30
0.0
 10
-123.4794
 20
74.2605
 30
0.0
  0
SPLINE
  5
C8
330
1F
100
AcDbEntity
  8
layer 1
 62
     7
100
AcDbSpline
210
0.0
220
0.0
230
1.0
 70
    11
 71
     3
 72
    20
 73
    16
 74
     0
 42
0.0000000001
 43
0.0000000001
 12
1.0
 22
0.0
 32
0.0
 13
1.0
 23
0.0
 33
0.0
 40
0.0
 40
0.0
 40
0.0
 40
0.0
 40
0.2
 40
0.2
 40
0.2
 40
0.2
 40
0.4
 40
0.4
 40
0.4
 40
0.4
 40
0.6
 40
0.6
 40
0.6
 40
0.6
 40
1.0
 40
1.0
 40
1.0
 40
1.0
 10
-123.4795
 20
80.4275
 30
0.0
 10
-123.4795
 20
80.4275
 30
0.0
 10
-123.4832
 20
83.641
 30
0.0
 10
-123.4832
 20
83.641
 30
0.0
 10
-123.4832
 20
83.641
 30
0.0
 10
-123.4832
 20
83.641
 30
0.0
 10
-98.9758
 20
97.2257
 30
0.0
 10
-98.9758
 20
97.2257
 30
0.0
 10
-98.9758
 20
97.2257
 30
0.0
 10
-98.9758
 20
97.2257
 30
0.0
 10
-98.972
 20
94.0122
 30
0.0
 10
-98.972
 20
94.0122
 30
0.0
 10
-98.972
 20
94.0122
 30
0.0
 10
-98.972
 20
94.0122
 30
0.0
 10
-123.4795
 20
80.4275
 30
0.0
 10
-123.4795
 20
80.4275
 30
0.0
  0
SPLINE
  5
C9
330
1F
100
AcDbEntity
  8
layer 1
 62
     7
100
AcDbSpline
210
0.0
220
0.0
230
1.0
 70
    11
 71
     3
 72
    20
 73
    16
 74
     0
 42
0.0000000001
 43
0.0000000001
 12
1.0
 22
0.0
 32
0.0
 13
1.0
 23
0.0
 33
0.0
 40
0.0
 40
0.0
 40
0.0
 40
0.0
 40
0.2
 40
0.2
 40
0.2
 40
0.2
 40
0.4
 40
0.4
 40
0.4
 40
0.4
 40
0.6
 40
0.6
 40
0.6
 40
0.6
 40
1.0
 40
1.0
 40
1.0
 40
1.0
 10
-123.4795
 20
86.5944
 30
0.0
 10
-123.4795
 20
86.5944
 30
0.0
 10
-123.4832
 20
89.8078
 30
0.0
 10
-123.4832
 20
89.8078
 30
0.0
 10
-123.4832
 20
89.8078
 30
0.0
 10
-123.4832
 20
89.8078
 30
0.0
 10
-98.9758
 20
103.3925
 30
0.0
 10
-98.9758
 20
103.3925
 30
0.0
 10
-98.9758
 20
103.3925
 30
0.0
 10
-98.9758
 20
103.3925
 30
0.0
 10
-98.972
 20
100.1791
 30
0.0
 10
-98.972
 20
100.1791
 30
0.0
 10
-98.972
 20
100.1791
 30
0.0
 10
-98.972
 20
100.1791
 30
0.0
 10
-123.4795
 20
86.5944
 30
0.0
 10
-123.4795
 20
86.5944
 30
0.0
  0
SPLINE
  5
CA
330
1F
100
AcDbEntity
  8
layer 1
 62
     7
100
AcDbSpline
210
0.0
220
0.0
230
1.0
 70
    11
 71
     3
 72
    20
 73
    16
 74
     0
 42
0.0000000001
 43
0.0000000001
 12
1.0
 22
0.0
 32
0.0
 13
1.0
 23
0.0
 33
0.0
 40
0.0
 40
0.0
 40
0.0
 40
0.0
 40
0.2
 40
0.2
 40
0.2
 40
0.2
 40
0.4
 40
0.4
 40
0.4
 40
0.4
 40
0.6
 40
0.6
 40
0.6
 40
0.6
 40
1.0
 40
1.0
 40
1.0
 40
1.0
 10
-123.4794
 20
92.7613
 30
0.0
 10
-123.4794
 20
92.7613
 30
0.0
 10
-123.4832
 20
95.9747
 30
0.0
 10
-123.4832
 20
95.9747
 30
0.0
 10
-123.4832
 20
95.9747
 30
0.0
 10
-123.4832
 20
95.9747
 30
0.0
 10
-98.9757
 20
109.5594
 30
0.0
 10
-98.9757
 20
109.5594
 30
0.0
 10
-98.9757
 20
109.5594
 30
0.0
 10
-98.9757
 20
109.5594
 30
0.0
 10
-98.972
 20
106.346
 30
0.0
 10
-98.972
 20
106.346
 30
0.0
 10
-98.972
 20
106.346
 30
0.0
 10
-98.972
 20
106.346
 30
0.0
 10
-123.4794
 20
92.7613
 30
0.0
 10
-123.4794
 20
92.7613
 30
0.0
  0
SPLINE
  5
CB
330
1F
100
AcDbEntity
  8
layer 1
 62
     7
100
AcDbSpline
210
0.0
220
0.0
230
1.0
 70
    11
 71
     3
 72
    20
 73
    16
 74
     0
 42
0.0000000001
 43
0.0000000001
 12
1.0
 22
0.0
 32
0.0
 13
1.0
 23
0.0
 33
0.0
 40
0.0
 40
0.0
 40
0.0
 40
0.0
 40
0.2
 40
0.2
 40
0.2
 40
0.2
 40
0.4
 40
0.4
 40
0.4
 40
0.4
 40
0.6
 40
0.6
 40
0.6
 40
0.6
 40
1.0
 40
1.0
 40
1.0
 40
1.0
 10
-123.4794
 20
98.9282
 30
0.0
 10
-123.4794
 20
98.9282
 30
0.0
 10
-123.4832
 20
102.1417
 30
0.0
 10
-123.4832
 20
102.1417
 30
0.0
 10
-123.4832
 20
102.1417
 30
0.0
 10
-123.4832
 20
102.1417
 30
0.0
 10
-98.9757
 20
115.7264
 30
0.0
 10
-98.9757
 20
115.7264
 30
0.0
 10
-98.9757
 20
115.7264
 30
0.0
 10
-98.9757
 20
115.7264
 30
0.0
 10
-98.972
 20
112.5129
 30
0.0
 10
-98.972
 20
112.5129
 30
0.0
 10
-98.972
 20
112.5129
 30
0.0
 10
-98.972
 20
112.5129
 30
0.0
 10
-123.4794
 20
98.9282
 30
0.0
 10
-123.4794
 20
98.9282
 30
0.0
  0
SPLINE
  5
CC
330
1F
100
AcDbEntity
  8
layer 1
 62
     7
100
AcDbSpline
210
0.0
220
0.0
230
1.0
 70
    11
 71
     3
 72
    20
 73
    16
 74
     0
 42
0.0000000001
 43
0.0000000001
 12
1.0
 22
0.0
 32
0.0
 13
1.0
 23
0.0
 33
0.0
 40
0.0
 40
0.0
 40
0.0
 40
0.0
 40
0.2
 40
0.2
 40
0.2
 40
0.2
 40
0.4
 40
0.4
 40
0.4
 40
0.4
 40
0.6
 40
0.6
 40
0.6
 40
0.6
 40
1.0
 40
1.0
 40
1.0
 40
1.0
 10
-72.261
 20
71.0772
 30
0.0
 10
-72.261
 20
71.0772
 30
0.0
 10
-75.0528
 20
69.4859
 30
0.0
 10
-75.0528
 20
69.4859
 30
0.0
 10
-75.0528
 20
69.4859
 30
0.0
 10
-75.0528
 20
69.4859
 30
0.0
 10
-99.7454
 20
83.3827
 30
0.0
 10
-99.7454
 20
83.3827
 30
0.0
 10
-99.7454
 20
83.3827
 30
0.0
 10
-99.7454
 20
83.3827
 30
0.0
 10
-96.9537
 20
84.9741
 30
0.0
 10
-96.9537
 20
84.9741
 30
0.0
 10
-96.9537
 20
84.9741
 30
0.0
 10
-96.9537
 20
84.9741
 30
0.0
 10
-72.261
 20
71.0772
 30
0.0
 10
-72.261
 20
71.0772
 30
0.0
  0
SPLINE
  5
CD
330
1F
100
AcDbEntity
  8
layer 1
 62
     7
100
AcDbSpline
210
0.0
220
0.0
230
1.0
 70
    11
 71
     3
 72
    20
 73
    16
 74
     0
 42
0.0000000001
 43
0.0000000001
 12
1.0
 22
0.0
 32
0.0
 13
1.0
 23
0.0
 33
0.0
 40
0.0
 40
0.0
 40
0.0
 40
0.0
 40
0.2
 40
0.2
 40
0.2
 40
0.2
 40
0.4
 40
0.4
 40
0.4
 40
0.4
 40
0.6
 40
0.6
 40
0.6
 40
0.6
 40
1.0
 40
1.0
 40
1.0
 40
1.0
 10
-77.6834
 20
68.0273
 30
0.0
 10
-77.6834
 20
68.0273
 30
0.0
 10
-80.4751
 20
66.436
 30
0.0
 10
-80.4751
 20
66.436
 30
0.0
 10
-80.4751
 20
66.436
 30
0.0
 10
-80.4751
 20
66.436
 30
0.0
 10
-105.1067
 20
80.3349
 30
0.0
 10
-105.1067
 20
80.3349
 30
0.0
 10
-105.1067
 20
80.3349
 30
0.0
 10
-105.1067
 20
80.3349
 30
0.0
 10
-102.315
 20
81.9262
 30
0.0
 10
-102.315
 20
81.9262
 30
0.0
 10
-102.315
 20
81.9262
 30
0.0
 10
-102.315
 20
81.9262
 30
0.0
 10
-77.6834
 20
68.0273
 30
0.0
 10
-77.6834
 20
68.0273
 30
0.0
  0
SPLINE
  5
CE
330
1F
100
AcDbEntity
  8
layer 1
 62
     7
100
AcDbSpline
210
0.0
220
0.0
230
1.0
 70
    11
 71
     3
 72
    20
 73
    16
 74
     0
 42
0.0000000001
 43
0.0000000001
 12
1.0
 22
0.0
 32
0.0
 13
1.0
 23
0.0
 33
0.0
 40
0.0
 40
0.0
 40
0.0
 40
0.0
 40
0.2
 40
0.2
 40
0.2
 40
0.2
 40
0.4
 40
0.4
 40
0.4
 40
0.4
 40
0.6
 40
0.6
 40
0.6
 40
0.6
 40
1.0
 40
1.0
 40
1.0
 40
1.0
 10
-83.2748
 20
64.9277
 30
0.0
 10
-83.2748
 20
64.9277
 30
0.0
 10
-86.0665
 20
63.3364
 30
0.0
 10
-86.0665
 20
63.3364
 30
0.0
 10
-86.0665
 20
63.3364
 30
0.0
 10
-86.0665
 20
63.3364
 30
0.0
 10
-110.4679
 20
77.2874
 30
0.0
 10
-110.4679
 20
77.2874
 30
0.0
 10
-110.4679
 20
77.2874
 30
0.0
 10
-110.4679
 20
77.2874
 30
0.0
 10
-107.6761
 20
78.8787
 30
0.0
 10
-107.6761
 20
78.8787
 30
0.0
 10
-107.6761
 20
78.8787
 30
0.0
 10
-107.6761
 20
78.8787
 30
0.0
 10
-83.2748
 20
64.9277
 30
0.0
 10
-83.2748
 20
64.9277
 30
0.0
  0
SPLINE
  5
CF
330
1F
100
AcDbEntity
  8
layer 1
 62
     7
100
AcDbSpline
210
0.0
220
0.0
230
1.0
 70
    11
 71
     3
 72
    20
 73
    16
 74
     0
 42
0.0000000001
 43
0.0000000001
 12
1.0
 22
0.0
 32
0.0
 13
1.0
 23
0.0
 33
0.0
 40
0.0
 40
0.0
 40
0.0
 40
0.0
 40
0.2
 40
0.2
 40
0.2
 40
0.2
 40
0.4
 40
0.4
 40
0.4
 40
0.4
 40
0.6
 40
0.6
 40
0.6
 40
0.6
 40
1.0
 40
1.0
 40
1.0
 40
1.0
 10
-88.8544
 20
61.8353
 30
0.0
 10
-88.8544
 20
61.8353
 30
0.0
 10
-91.6462
 20
60.244
 30
0.0
 10
-91.6462
 20
60.244
 30
0.0
 10
-91.6462
 20
60.244
 30
0.0
 10
-91.6462
 20
60.244
 30
0.0
 10
-115.8291
 20
74.2397
 30
0.0
 10
-115.8291
 20
74.2397
 30
0.0
 10
-115.8291
 20
74.2397
 30
0.0
 10
-115.8291
 20
74.2397
 30
0.0
 10
-113.0374
 20
75.831
 30
0.0
 10
-113.0374
 20
75.831
 30
0.0
 10
-113.0374
 20
75.831
 30
0.0
 10
-113.0374
 20
75.831
 30
0.0
 10
-88.8544
 20
61.8353
 30
0.0
 10
-88.8544
 20
61.8353
 30
0.0
  0
SPLINE
  5
D0
330
1F
100
AcDbEntity
  8
layer 1
 62
     7
100
AcDbSpline
210
0.0
220
0.0
230
1.0
 70
    11
 71
     3
 72
    20
 73
    16
 74
     0
 42
0.0000000001
 43
0.0000000001
 12
1.0
 22
0.0
 32
0.0
 13
1.0
 23
0.0
 33
0.0
 40
0.0
 40
0.0
 40
0.0
 40
0.0
 40
0.2
 40
0.2
 40
0.2
 40
0.2
 40
0.4
 40
0.4
 40
0.4
 40
0.4
 40
0.6
 40
0.6
 40
0.6
 40
0.6
 40
1.0
 40
1.0
 40
1.0
 40
1.0
 10
-94.068
 20
58.9453
 30
0.0
 10
-94.068
 20
58.9453
 30
0.0
 10
-96.8597
 20
57.354
 30
0.0
 10
-96.8597
 20
57.354
 30
0.0
 10
-96.8597
 20
57.354
 30
0.0
 10
-96.8597
 20
57.354
 30
0.0
 10
-121.1904
 20
71.1921
 30
0.0
 10
-121.1904
 20
71.1921
 30
0.0
 10
-121.1904
 20
71.1921
 30
0.0
 10
-121.1904
 20
71.1921
 30
0.0
 10
-118.3986
 20
72.7834
 30
0.0
 10
-118.3986
 20
72.7834
 30
0.0
 10
-118.3986
 20
72.7834
 30
0.0
 10
-118.3986
 20
72.7834
 30
0.0
 10
-94.068
 20
58.9453
 30
0.0
 10
-94.068
 20
58.9453
 30
0.0
  0
SPLINE
  5
D1
330
1F
100
AcDbEntity
  8
layer 1
 62
     7
100
AcDbSpline
210
0.0
220
0.0
230
1.0
 70
    11
 71
     3
 72
    20
 73
    16
 74
     0
 42
0.0000000001
 43
0.0000000001
 12
1.0
 22
0.0
 32
0.0
 13
1.0
 23
0.0
 33
0.0
 40
0.0
 40
0.0
 40
0.0
 40
0.0
 40
0.2
 40
0.2
 40
0.2
 40
0.2
 40
0.4
 40
0.4
 40
0.4
 40
0.4
 40
0.6
 40
0.6
 40
0.6
 40
0.6
 40
1.0
 40
1.0
 40
1.0
 40
1.0
 10
-100.8119
 20
23.6184
 30
0.0
 10
-100.8119
 20
23.6184
 30
0.0
 10
-103.6037
 20
22.0271
 30
0.0
 10
-103.6037
 20
22.0271
 30
0.0
 10
-103.6037
 20
22.0271
 30
0.0
 10
-103.6037
 20
22.0271
 30
0.0
 10
-128.2963
 20
35.9239
 30
0.0
 10
-128.2963
 20
35.9239
 30
0.0
 10
-128.2963
 20
35.9239
 30
0.0
 10
-128.2963
 20
35.9239
 30
0.0
 10
-125.5045
 20
37.5152
 30
0.0
 10
-125.5045
 20
37.5152
 30
0.0
 10
-125.5045
 20
37.5152
 30
0.0
 10
-125.5045
 20
37.5152
 30
0.0
 10
-100.8119
 20
23.6184
 30
0.0
 10
-100.8119
 20
23.6184
 30
0.0
  0
SPLINE
  5
D2
330
1F
100
AcDbEntity
  8
layer 1
 62
     7
100
AcDbSpline
210
0.0
220
0.0
230
1.0
 70
    11
 71
     3
 72
    20
 73
    16
 74
     0
 42
0.0000000001
 43
0.0000000001
 12
1.0
 22
0.0
 32
0.0
 13
1.0
 23
0.0
 33
0.0
 40
0.0
 40
0.0
 40
0.0
 40
0.0
 40
0.2
 40
0.2
 40
0.2
 40
0.2
 40
0.4
 40
0.4
 40
0.4
 40
0.4
 40
0.6
 40
0.6
 40
0.6
 40
0.6
 40
1.0
 40
1.0
 40
1.0
 40
1.0
 10
-106.2343
 20
20.5685
 30
0.0
 10
-106.2343
 20
20.5685
 30
0.0
 10
-109.026
 20
18.9772
 30
0.0
 10
-109.026
 20
18.9772
 30
0.0
 10
-109.026
 20
18.9772
 30
0.0
 10
-109.026
 20
18.9772
 30
0.0
 10
-133.6576
 20
32.8761
 30
0.0
 10
-133.6576
 20
32.8761
 30
0.0
 10
-133.6576
 20
32.8761
 30
0.0
 10
-133.6576
 20
32.8761
 30
0.0
 10
-130.8658
 20
34.4674
 30
0.0
 10
-130.8658
 20
34.4674
 30
0.0
 10
-130.8658
 20
34.4674
 30
0.0
 10
-130.8658
 20
34.4674
 30
0.0
 10
-106.2343
 20
20.5685
 30
0.0
 10
-106.2343
 20
20.5685
 30
0.0
  0
SPLINE
  5
D3
330
1F
100
AcDbEntity
  8
layer 1
 62
     7
100
AcDbSpline
210
0.0
220
0.0
230
1.0
 70
    11
 71
     3
 72
    20
 73
    16
 74
     0
 42
0.0000000001
 43
0.0000000001
 12
1.0
 22
0.0
 32
0.0
 13
1.0
 23
0.0
 33
0.0
 40
0.0
 40
0.0
 40
0.0
 40
0.0
 40
0.2
 40
0.2
 40
0.2
 40
0.2
 40
0.4
 40
0.4
 40
0.4
 40
0.4
 40
0.6
 40
0.6
 40
0.6
 40
0.6
 40
1.0
 40
1.0
 40
1.0
 40
1.0
 10
-111.8256
 20
17.4689
 30
0.0
 10
-111.8256
 20
17.4689
 30
0.0
 10
-114.6174
 20
15.8776
 30
0.0
 10
-114.6174
 20
15.8776
 30
0.0
 10
-114.6174
 20
15.8776
 30
0.0
 10
-114.6174
 20
15.8776
 30
0.0
 10
-139.0187
 20
29.8285
 30
0.0
 10
-139.0187
 20
29.8285
 30
0.0
 10
-139.0187
 20
29.8285
 30
0.0
 10
-139.0187
 20
29.8285
 30
0.0
 10
-136.227
 20
31.4198
 30
0.0
 10
-136.227
 20
31.4198
 30
0.0
 10
-136.227
 20
31.4198
 30
0.0
 10
-136.227
 20
31.4198
 30
0.0
 10
-111.8256
 20
17.4689
 30
0.0
 10
-111.8256
 20
17.4689
 30
0.0
  0
SPLINE
  5
D4
330
1F
100
AcDbEntity
  8
layer 1
 62
     7
100
AcDbSpline
210
0.0
220
0.0
230
1.0
 70
    11
 71
     3
 72
    20
 73
    16
 74
     0
 42
0.0000000001
 43
0.0000000001
 12
1.0
 22
0.0
 32
0.0
 13
1.0
 23
0.0
 33
0.0
 40
0.0
 40
0.0
 40
0.0
 40
0.0
 40
0.2
 40
0.2
 40
0.2
 40
0.2
 40
0.4
 40
0.4
 40
0.4
 40
0.4
 40
0.6
 40
0.6
 40
0.6
 40
0.6
 40
1.0
 40
1.0
 40
1.0
 40
1.0
 10
-117.4053
 20
14.3764
 30
0.0
 10
-117.4053
 20
14.3764
 30
0.0
 10
-120.197
 20
12.7851
 30
0.0
 10
-120.197
 20
12.7851
 30
0.0
 10
-120.197
 20
12.7851
 30
0.0
 10
-120.197
 20
12.7851
 30
0.0
 10
-144.38
 20
26.7809
 30
0.0
 10
-144.38
 20
26.7809
 30
0.0
 10
-144.38
 20
26.7809
 30
0.0
 10
-144.38
 20
26.7809
 30
0.0
 10
-141.5882
 20
28.3722
 30
0.0
 10
-141.5882
 20
28.3722
 30
0.0
 10
-141.5882
 20
28.3722
 30
0.0
 10
-141.5882
 20
28.3722
 30
0.0
 10
-117.4053
 20
14.3764
 30
0.0
 10
-117.4053
 20
14.3764
 30
0.0
  0
SPLINE
  5
D5
330
1F
100
AcDbEntity
  8
layer 1
 62
     7
100
AcDbSpline
210
0.0
220
0.0
230
1.0
 70
    11
 71
     3
 72
    20
 73
    16
 74
     0
 42
0.0000000001
 43
0.0000000001
 12
1.0
 22
0.0
 32
0.0
 13
1.0
 23
0.0
 33
0.0
 40
0.0
 40
0.0
 40
0.0
 40
0.0
 40
0.2
 40
0.2
 40
0.2
 40
0.2
 40
0.4
 40
0.4
 40
0.4
 40
0.4
 40
0.6
 40
0.6
 40
0.6
 40
0.6
 40
1.0
 40
1.0
 40
1.0
 40
1.0
 10
-122.6188
 20
11.4864
 30
0.0
 10
-122.6188
 20
11.4864
 30
0.0
 10
-125.4106
 20
9.8951
 30
0.0
 10
-125.4106
 20
9.8951
 30
0.0
 10
-125.4106
 20
9.8951
 30
0.0
 10
-125.4106
 20
9.8951
 30
0.0
 10
-149.7413
 20
23.7332
 30
0.0
 10
-149.7413
 20
23.7332
 30
0.0
 10
-149.7413
 20
23.7332
 30
0.0
 10
-149.7413
 20
23.7332
 30
0.0
 10
-146.9495
 20
25.3245
 30
0.0
 10
-146.9495
 20
25.3245
 30
0.0
 10
-146.9495
 20
25.3245
 30
0.0
 10
-146.9495
 20
25.3245
 30
0.0
 10
-122.6188
 20
11.4864
 30
0.0
 10
-122.6188
 20
11.4864
 30
0.0
  0
SPLINE
  5
D6
330
1F
100
AcDbEntity
  8
layer 1
 62
     7
100
AcDbSpline
210
0.0
220
0.0
230
1.0
 70
    11
 71
     3
 72
    20
 73
    16
 74
     0
 42
0.0000000001
 43
0.0000000001
 12
1.0
 22
0.0
 32
0.0
 13
1.0
 23
0.0
 33
0.0
 40
0.0
 40
0.0
 40
0.0
 40
0.0
 40
0.2
 40
0.2
 40
0.2
 40
0.2
 40
0.4
 40
0.4
 40
0.4
 40
0.4
 40
0.6
 40
0.6
 40
0.6
 40
0.6
 40
1.0
 40
1.0
 40
1.0
 40
1.0
 10
-70.2045
 20
25.7896
 30
0.0
 10
-70.2045
 20
25.7896
 30
0.0
 10
-70.2324
 20
22.6184
 30
0.0
 10
-70.2324
 20
22.6184
 30
0.0
 10
-70.2324
 20
22.6184
 30
0.0
 10
-70.2324
 20
22.6184
 30
0.0
 10
-82.3333
 20
29.5734
 30
0.0
 10
-82.3333
 20
29.5734
 30
0.0
 10
-82.3333
 20
29.5734
 30
0.0
 10
-82.3333
 20
29.5734
 30
0.0
 10
-79.3834
 20
31.2596
 30
0.0
 10
-79.3834
 20
31.2596
 30
0.0
 10
-79.3834
 20
31.2596
 30
0.0
 10
-79.3834
 20
31.2596
 30
0.0
 10
-70.2045
 20
25.7896
 30
0.0
 10
-70.2045
 20
25.7896
 30
0.0
  0
SPLINE
  5
D7
330
1F
100
AcDbEntity
  8
layer 1
 62
     7
100
AcDbSpline
210
0.0
220
0.0
230
1.0
 70
    11
 71
     3
 72
    20
 73
    16
 74
     0
 42
0.0000000001
 43
0.0000000001
 12
1.0
 22
0.0
 32
0.0
 13
1.0
 23
0.0
 33
0.0
 40
0.0
 40
0.0
 40
0.0
 40
0.0
 40
0.2
 40
0.2
 40
0.2
 40
0.2
 40
0.4
 40
0.4
 40
0.4
 40
0.4
 40
0.6
 40
0.6
 40
0.6
 40
0.6
 40
1.0
 40
1.0
 40
1.0
 40
1.0
 10
-70.2024
 20
19.5718
 30
0.0
 10
-70.2024
 20
19.5718
 30
0.0
 10
-70.1857
 20
16.3553
 30
0.0
 10
-70.1857
 20
16.3553
 30
0.0
 10
-70.1857
 20
16.3553
 30
0.0
 10
-70.1857
 20
16.3553
 30
0.0
 10
-87.7944
 20
26.5462
 30
0.0
 10
-87.7944
 20
26.5462
 30
0.0
 10
-87.7944
 20
26.5462
 30
0.0
 10
-87.7944
 20
26.5462
 30
0.0
 10
-85.0027
 20
28.1375
 30
0.0
 10
-85.0027
 20
28.1375
 30
0.0
 10
-85.0027
 20
28.1375
 30
0.0
 10
-85.0027
 20
28.1375
 30
0.0
 10
-70.2024
 20
19.5718
 30
0.0
 10
-70.2024
 20
19.5718
 30
0.0
  0
SPLINE
  5
D8
330
1F
100
AcDbEntity
  8
layer 1
 62
     7
100
AcDbSpline
210
0.0
220
0.0
230
1.0
 70
    11
 71
     3
 72
    20
 73
    16
 74
     0
 42
0.0000000001
 43
0.0000000001
 12
1.0
 22
0.0
 32
0.0
 13
1.0
 23
0.0
 33
0.0
 40
0.0
 40
0.0
 40
0.0
 40
0.0
 40
0.2
 40
0.2
 40
0.2
 40
0.2
 40
0.4
 40
0.4
 40
0.4
 40
0.4
 40
0.6
 40
0.6
 40
0.6
 40
0.6
 40
1.0
 40
1.0
 40
1.0
 40
1.0
 10
-70.1423
 20
13.5889
 30
0.0
 10
-70.1423
 20
13.5889
 30
0.0
 10
-70.1746
 20
10.4282
 30
0.0
 10
-70.1746
 20
10.4282
 30
0.0
 10
-70.1746
 20
10.4282
 30
0.0
 10
-70.1746
 20
10.4282
 30
0.0
 10
-93.1557
 20
23.4986
 30
0.0
 10
-93.1557
 20
23.4986
 30
0.0
 10
-93.1557
 20
23.4986
 30
0.0
 10
-93.1557
 20
23.4986
 30
0.0
 10
-90.3639
 20
25.0899
 30
0.0
 10
-90.3639
 20
25.0899
 30
0.0
 10
-90.3639
 20
25.0899
 30
0.0
 10
-90.3639
 20
25.0899
 30
0.0
 10
-70.1423
 20
13.5889
 30
0.0
 10
-70.1423
 20
13.5889
 30
0.0
  0
SPLINE
  5
D9
330
1F
100
AcDbEntity
  8
layer 1
 62
     7
100
AcDbSpline
210
0.0
220
0.0
230
1.0
 70
    11
 71
     3
 72
    20
 73
    16
 74
     0
 42
0.0000000001
 43
0.0000000001
 12
1.0
 22
0.0
 32
0.0
 13
1.0
 23
0.0
 33
0.0
 40
0.0
 40
0.0
 40
0.0
 40
0.0
 40
0.2
 40
0.2
 40
0.2
 40
0.2
 40
0.4
 40
0.4
 40
0.4
 40
0.4
 40
0.6
 40
0.6
 40
0.6
 40
0.6
 40
1.0
 40
1.0
 40
1.0
 40
1.0
 10
-70.2037
 20
29.1649
 30
0.0
 10
-70.2037
 20
29.1649
 30
0.0
 10
-70.2
 20
32.3783
 30
0.0
 10
-70.2
 20
32.3783
 30
0.0
 10
-70.2
 20
32.3783
 30
0.0
 10
-70.2
 20
32.3783
 30
0.0
 10
-73.6022
 20
34.4419
 30
0.0
 10
-73.6022
 20
34.4419
 30
0.0
 10
-73.6022
 20
34.4419
 30
0.0
 10
-73.6022
 20
34.4419
 30
0.0
 10
-76.6227
 20
32.7578
 30
0.0
 10
-76.6227
 20
32.7578
 30
0.0
 10
-76.6227
 20
32.7578
 30
0.0
 10
-76.6227
 20
32.7578
 30
0.0
 10
-70.2037
 20
29.1649
 30
0.0
 10
-70.2037
 20
29.1649
 30
0.0
  0
SPLINE
  5
DA
330
1F
100
AcDbEntity
  8
layer 1
 62
     7
100
AcDbSpline
210
0.0
220
0.0
230
1.0
 70
    11
 71
     3
 72
    20
 73
    16
 74
     0
 42
0.0000000001
 43
0.0000000001
 12
1.0
 22
0.0
 32
0.0
 13
1.0
 23
0.0
 33
0.0
 40
0.0
 40
0.0
 40
0.0
 40
0.0
 40
0.2
 40
0.2
 40
0.2
 40
0.2
 40
0.4
 40
0.4
 40
0.4
 40
0.4
 40
0.6
 40
0.6
 40
0.6
 40
0.6
 40
1.0
 40
1.0
 40
1.0
 40
1.0
 10
-180.1032
 20
-74.095
 30
0.0
 10
-180.1032
 20
-74.095
 30
0.0
 10
-180.0753
 20
-70.9238
 30
0.0
 10
-180.0753
 20
-70.9238
 30
0.0
 10
-180.0753
 20
-70.9238
 30
0.0
 10
-180.0753
 20
-70.9238
 30
0.0
 10
-167.9744
 20
-77.8788
 30
0.0
 10
-167.9744
 20
-77.8788
 30
0.0
 10
-167.9744
 20
-77.8788
 30
0.0
 10
-167.9744
 20
-77.8788
 30
0.0
 10
-170.9244
 20
-79.565
 30
0.0
 10
-170.9244
 20
-79.565
 30
0.0
 10
-170.9244
 20
-79.565
 30
0.0
 10
-170.9244
 20
-79.565
 30
0.0
 10
-180.1032
 20
-74.095
 30
0.0
 10
-180.1032
 20
-74.095
 30
0.0
  0
SPLINE
  5
DB
330
1F
100
AcDbEntity
  8
layer 1
 62
     7
100
AcDbSpline
210
0.0
220
0.0
230
1.0
 70
    11
 71
     3
 72
    20
 73
    16
 74
     0
 42
0.0000000001
 43
0.0000000001
 12
1.0
 22
0.0
 32
0.0
 13
1.0
 23
0.0
 33
0.0
 40
0.0
 40
0.0
 40
0.0
 40
0.0
 40
0.2
 40
0.2
 40
0.2
 40
0.2
 40
0.4
 40
0.4
 40
0.4
 40
0.4
 40
0.6
 40
0.6
 40
0.6
 40
0.6
 40
1.0
 40
1.0
 40
1.0
 40
1.0
 10
-180.1054
 20
-67.8772
 30
0.0
 10
-180.1054
 20
-67.8772
 30
0.0
 10
-180.122
 20
-64.6607
 30
0.0
 10
-180.122
 20
-64.6607
 30
0.0
 10
-180.122
 20
-64.6607
 30
0.0
 10
-180.122
 20
-64.6607
 30
0.0
 10
-162.5133
 20
-74.8516
 30
0.0
 10
-162.5133
 20
-74.8516
 30
0.0
 10
-162.5133
 20
-74.8516
 30
0.0
 10
-162.5133
 20
-74.8516
 30
0.0
 10
-165.3051
 20
-76.4429
 30
0.0
 10
-165.3051
 20
-76.4429
 30
0.0
 10
-165.3051
 20
-76.4429
 30
0.0
 10
-165.3051
 20
-76.4429
 30
0.0
 10
-180.1054
 20
-67.8772
 30
0.0
 10
-180.1054
 20
-67.8772
 30
0.0
  0
SPLINE
  5
DC
330
1F
100
AcDbEntity
  8
layer 1
 62
     7
100
AcDbSpline
210
0.0
220
0.0
230
1.0
 70
    11
 71
     3
 72
    20
 73
    16
 74
     0
 42
0.0000000001
 43
0.0000000001
 12
1.0
 22
0.0
 32
0.0
 13
1.0
 23
0.0
 33
0.0
 40
0.0
 40
0.0
 40
0.0
 40
0.0
 40
0.2
 40
0.2
 40
0.2
 40
0.2
 40
0.4
 40
0.4
 40
0.4
 40
0.4
 40
0.6
 40
0.6
 40
0.6
 40
0.6
 40
1.0
 40
1.0
 40
1.0
 40
1.0
 10
-180.1654
 20
-61.8943
 30
0.0
 10
-180.1654
 20
-61.8943
 30
0.0
 10
-180.1332
 20
-58.7336
 30
0.0
 10
-180.1332
 20
-58.7336
 30
0.0
 10
-180.1332
 20
-58.7336
 30
0.0
 10
-180.1332
 20
-58.7336
 30
0.0
 10
-157.1521
 20
-71.804
 30
0.0
 10
-157.1521
 20
-71.804
 30
0.0
 10
-157.1521
 20
-71.804
 30
0.0
 10
-157.1521
 20
-71.804
 30
0.0
 10
-159.9438
 20
-73.3953
 30
0.0
 10
-159.9438
 20
-73.3953
 30
0.0
 10
-159.9438
 20
-73.3953
 30
0.0
 10
-159.9438
 20
-73.3953
 30
0.0
 10
-180.1654
 20
-61.8943
 30
0.0
 10
-180.1654
 20
-61.8943
 30
0.0
  0
SPLINE
  5
DD
330
1F
100
AcDbEntity
  8
layer 1
 62
     7
100
AcDbSpline
210
0.0
220
0.0
230
1.0
 70
    11
 71
     3
 72
    20
 73
    16
 74
     0
 42
0.0000000001
 43
0.0000000001
 12
1.0
 22
0.0
 32
0.0
 13
1.0
 23
0.0
 33
0.0
 40
0.0
 40
0.0
 40
0.0
 40
0.0
 40
0.2
 40
0.2
 40
0.2
 40
0.2
 40
0.4
 40
0.4
 40
0.4
 40
0.4
 40
0.6
 40
0.6
 40
0.6
 40
0.6
 40
1.0
 40
1.0
 40
1.0
 40
1.0
 10
-180.104
 20
-77.4703
 30
0.0
 10
-180.104
 20
-77.4703
 30
0.0
 10
-180.1078
 20
-80.6837
 30
0.0
 10
-180.1078
 20
-80.6837
 30
0.0
 10
-180.1078
 20
-80.6837
 30
0.0
 10
-180.1078
 20
-80.6837
 30
0.0
 10
-176.7055
 20
-82.7473
 30
0.0
 10
-176.7055
 20
-82.7473
 30
0.0
 10
-176.7055
 20
-82.7473
 30
0.0
 10
-176.7055
 20
-82.7473
 30
0.0
 10
-173.685
 20
-81.0632
 30
0.0
 10
-173.685
 20
-81.0632
 30
0.0
 10
-173.685
 20
-81.0632
 30
0.0
 10
-173.685
 20
-81.0632
 30
0.0
 10
-180.104
 20
-77.4703
 30
0.0
 10
-180.104
 20
-77.4703
 30
0.0
  0
SPLINE
  5
DE
330
1F
100
AcDbEntity
  8
layer 1
 62
     7
100
AcDbSpline
210
0.0
220
0.0
230
1.0
 70
    11
 71
     3
 72
    20
 73
    16
 74
     0
 42
0.0000000001
 43
0.0000000001
 12
1.0
 22
0.0
 32
0.0
 13
1.0
 23
0.0
 33
0.0
 40
0.0
 40
0.0
 40
0.0
 40
0.0
 40
0.2
 40
0.2
 40
0.2
 40
0.2
 40
0.4
 40
0.4
 40
0.4
 40
0.4
 40
0.6
 40
0.6
 40
0.6
 40
0.6
 40
1.0
 40
1.0
 40
1.0
 40
1.0
 10
-180.1032
 20
21.0617
 30
0.0
 10
-180.1032
 20
21.0617
 30
0.0
 10
-180.0753
 20
24.233
 30
0.0
 10
-180.0753
 20
24.233
 30
0.0
 10
-180.0753
 20
24.233
 30
0.0
 10
-180.0753
 20
24.233
 30
0.0
 10
-167.9744
 20
17.2779
 30
0.0
 10
-167.9744
 20
17.2779
 30
0.0
 10
-167.9744
 20
17.2779
 30
0.0
 10
-167.9744
 20
17.2779
 30
0.0
 10
-170.9244
 20
15.5917
 30
0.0
 10
-170.9244
 20
15.5917
 30
0.0
 10
-170.9244
 20
15.5917
 30
0.0
 10
-170.9244
 20
15.5917
 30
0.0
 10
-180.1032
 20
21.0617
 30
0.0
 10
-180.1032
 20
21.0617
 30
0.0
  0
SPLINE
  5
DF
330
1F
100
AcDbEntity
  8
layer 1
 62
     7
100
AcDbSpline
210
0.0
220
0.0
230
1.0
 70
    11
 71
     3
 72
    20
 73
    16
 74
     0
 42
0.0000000001
 43
0.0000000001
 12
1.0
 22
0.0
 32
0.0
 13
1.0
 23
0.0
 33
0.0
 40
0.0
 40
0.0
 40
0.0
 40
0.0
 40
0.2
 40
0.2
 40
0.2
 40
0.2
 40
0.4
 40
0.4
 40
0.4
 40
0.4
 40
0.6
 40
0.6
 40
0.6
 40
0.6
 40
1.0
 40
1.0
 40
1.0
 40
1.0
 10
-180.1054
 20
27.2796
 30
0.0
 10
-180.1054
 20
27.2796
 30
0.0
 10
-180.122
 20
30.4961
 30
0.0
 10
-180.122
 20
30.4961
 30
0.0
 10
-180.122
 20
30.4961
 30
0.0
 10
-180.122
 20
30.4961
 30
0.0
 10
-162.5133
 20
20.3051
 30
0.0
 10
-162.5133
 20
20.3051
 30
0.0
 10
-162.5133
 20
20.3051
 30
0.0
 10
-162.5133
 20
20.3051
 30
0.0
 10
-165.3051
 20
18.7138
 30
0.0
 10
-165.3051
 20
18.7138
 30
0.0
 10
-165.3051
 20
18.7138
 30
0.0
 10
-165.3051
 20
18.7138
 30
0.0
 10
-180.1054
 20
27.2796
 30
0.0
 10
-180.1054
 20
27.2796
 30
0.0
  0
SPLINE
  5
E0
330
1F
100
AcDbEntity
  8
layer 1
 62
     7
100
AcDbSpline
210
0.0
220
0.0
230
1.0
 70
    11
 71
     3
 72
    20
 73
    16
 74
     0
 42
0.0000000001
 43
0.0000000001
 12
1.0
 22
0.0
 32
0.0
 13
1.0
 23
0.0
 33
0.0
 40
0.0
 40
0.0
 40
0.0
 40
0.0
 40
0.2
 40
0.2
 40
0.2
 40
0.2
 40
0.4
 40
0.4
 40
0.4
 40
0.4
 40
0.6
 40
0.6
 40
0.6
 40
0.6
 40
1.0
 40
1.0
 40
1.0
 40
1.0
 10
-180.1654
 20
33.2624
 30
0.0
 10
-180.1654
 20
33.2624
 30
0.0
 10
-180.1332
 20
36.4232
 30
0.0
 10
-180.1332
 20
36.4232
 30
0.0
 10
-180.1332
 20
36.4232
 30
0.0
 10
-180.1332
 20
36.4232
 30
0.0
 10
-157.1521
 20
23.3527
 30
0.0
 10
-157.1521
 20
23.3527
 30
0.0
 10
-157.1521
 20
23.3527
 30
0.0
 10
-157.1521
 20
23.3527
 30
0.0
 10
-159.9438
 20
21.7614
 30
0.0
 10
-159.9438
 20
21.7614
 30
0.0
 10
-159.9438
 20
21.7614
 30
0.0
 10
-159.9438
 20
21.7614
 30
0.0
 10
-180.1654
 20
33.2624
 30
0.0
 10
-180.1654
 20
33.2624
 30
0.0
  0
SPLINE
  5
E1
330
1F
100
AcDbEntity
  8
layer 1
 62
     7
100
AcDbSpline
210
0.0
220
0.0
230
1.0
 70
    11
 71
     3
 72
    20
 73
    16
 74
     0
 42
0.0000000001
 43
0.0000000001
 12
1.0
 22
0.0
 32
0.0
 13
1.0
 23
0.0
 33
0.0
 40
0.0
 40
0.0
 40
0.0
 40
0.0
 40
0.2
 40
0.2
 40
0.2
 40
0.2
 40
0.4
 40
0.4
 40
0.4
 40
0.4
 40
0.6
 40
0.6
 40
0.6
 40
0.6
 40
1.0
 40
1.0
 40
1.0
 40
1.0
 10
-180.104
 20
17.6864
 30
0.0
 10
-180.104
 20
17.6864
 30
0.0
 10
-180.1078
 20
14.473
 30
0.0
 10
-180.1078
 20
14.473
 30
0.0
 10
-180.1078
 20
14.473
 30
0.0
 10
-180.1078
 20
14.473
 30
0.0
 10
-176.7055
 20
12.4094
 30
0.0
 10
-176.7055
 20
12.4094
 30
0.0
 10
-176.7055
 20
12.4094
 30
0.0
 10
-176.7055
 20
12.4094
 30
0.0
 10
-173.685
 20
14.0936
 30
0.0
 10
-173.685
 20
14.0936
 30
0.0
 10
-173.685
 20
14.0936
 30
0.0
 10
-173.685
 20
14.0936
 30
0.0
 10
-180.104
 20
17.6864
 30
0.0
 10
-180.104
 20
17.6864
 30
0.0
  0
SPLINE
  5
E2
330
1F
100
AcDbEntity
  8
layer 1
 62
     7
100
AcDbSpline
210
0.0
220
0.0
230
1.0
 70
    11
 71
     3
 72
    20
 73
    16
 74
     0
 42
0.0000000001
 43
0.0000000001
 12
1.0
 22
0.0
 32
0.0
 13
1.0
 23
0.0
 33
0.0
 40
0.0
 40
0.0
 40
0.0
 40
0.0
 40
0.2
 40
0.2
 40
0.2
 40
0.2
 40
0.4
 40
0.4
 40
0.4
 40
0.4
 40
0.6
 40
0.6
 40
0.6
 40
0.6
 40
1.0
 40
1.0
 40
1.0
 40
1.0
 10
-70.2045
 20
-69.4765
 30
0.0
 10
-70.2045
 20
-69.4765
 30
0.0
 10
-70.2324
 20
-72.6478
 30
0.0
 10
-70.2324
 20
-72.6478
 30
0.0
 10
-70.2324
 20
-72.6478
 30
0.0
 10
-70.2324
 20
-72.6478
 30
0.0
 10
-82.3333
 20
-65.6928
 30
0.0
 10
-82.3333
 20
-65.6928
 30
0.0
 10
-82.3333
 20
-65.6928
 30
0.0
 10
-82.3333
 20
-65.6928
 30
0.0
 10
-79.3834
 20
-64.0066
 30
0.0
 10
-79.3834
 20
-64.0066
 30
0.0
 10
-79.3834
 20
-64.0066
 30
0.0
 10
-79.3834
 20
-64.0066
 30
0.0
 10
-70.2045
 20
-69.4765
 30
0.0
 10
-70.2045
 20
-69.4765
 30
0.0
  0
SPLINE
  5
E3
330
1F
100
AcDbEntity
  8
layer 1
 62
     7
100
AcDbSpline
210
0.0
220
0.0
230
1.0
 70
    11
 71
     3
 72
    20
 73
    16
 74
     0
 42
0.0000000001
 43
0.0000000001
 12
1.0
 22
0.0
 32
0.0
 13
1.0
 23
0.0
 33
0.0
 40
0.0
 40
0.0
 40
0.0
 40
0.0
 40
0.2
 40
0.2
 40
0.2
 40
0.2
 40
0.4
 40
0.4
 40
0.4
 40
0.4
 40
0.6
 40
0.6
 40
0.6
 40
0.6
 40
1.0
 40
1.0
 40
1.0
 40
1.0
 10
-70.2024
 20
-75.6944
 30
0.0
 10
-70.2024
 20
-75.6944
 30
0.0
 10
-70.1857
 20
-78.9109
 30
0.0
 10
-70.1857
 20
-78.9109
 30
0.0
 10
-70.1857
 20
-78.9109
 30
0.0
 10
-70.1857
 20
-78.9109
 30
0.0
 10
-87.7944
 20
-68.7199
 30
0.0
 10
-87.7944
 20
-68.7199
 30
0.0
 10
-87.7944
 20
-68.7199
 30
0.0
 10
-87.7944
 20
-68.7199
 30
0.0
 10
-85.0027
 20
-67.1286
 30
0.0
 10
-85.0027
 20
-67.1286
 30
0.0
 10
-85.0027
 20
-67.1286
 30
0.0
 10
-85.0027
 20
-67.1286
 30
0.0
 10
-70.2024
 20
-75.6944
 30
0.0
 10
-70.2024
 20
-75.6944
 30
0.0
  0
SPLINE
  5
E4
330
1F
100
AcDbEntity
  8
layer 1
 62
     7
100
AcDbSpline
210
0.0
220
0.0
230
1.0
 70
    11
 71
     3
 72
    20
 73
    16
 74
     0
 42
0.0000000001
 43
0.0000000001
 12
1.0
 22
0.0
 32
0.0
 13
1.0
 23
0.0
 33
0.0
 40
0.0
 40
0.0
 40
0.0
 40
0.0
 40
0.2
 40
0.2
 40
0.2
 40
0.2
 40
0.4
 40
0.4
 40
0.4
 40
0.4
 40
0.6
 40
0.6
 40
0.6
 40
0.6
 40
1.0
 40
1.0
 40
1.0
 40
1.0
 10
-70.1423
 20
-81.6773
 30
0.0
 10
-70.1423
 20
-81.6773
 30
0.0
 10
-70.1746
 20
-84.838
 30
0.0
 10
-70.1746
 20
-84.838
 30
0.0
 10
-70.1746
 20
-84.838
 30
0.0
 10
-70.1746
 20
-84.838
 30
0.0
 10
-93.1557
 20
-71.7676
 30
0.0
 10
-93.1557
 20
-71.7676
 30
0.0
 10
-93.1557
 20
-71.7676
 30
0.0
 10
-93.1557
 20
-71.7676
 30
0.0
 10
-90.3639
 20
-70.1763
 30
0.0
 10
-90.3639
 20
-70.1763
 30
0.0
 10
-90.3639
 20
-70.1763
 30
0.0
 10
-90.3639
 20
-70.1763
 30
0.0
 10
-70.1423
 20
-81.6773
 30
0.0
 10
-70.1423
 20
-81.6773
 30
0.0
  0
SPLINE
  5
E5
330
1F
100
AcDbEntity
  8
layer 1
 62
     7
100
AcDbSpline
210
0.0
220
0.0
230
1.0
 70
    11
 71
     3
 72
    20
 73
    16
 74
     0
 42
0.0000000001
 43
0.0000000001
 12
1.0
 22
0.0
 32
0.0
 13
1.0
 23
0.0
 33
0.0
 40
0.0
 40
0.0
 40
0.0
 40
0.0
 40
0.2
 40
0.2
 40
0.2
 40
0.2
 40
0.4
 40
0.4
 40
0.4
 40
0.4
 40
0.6
 40
0.6
 40
0.6
 40
0.6
 40
1.0
 40
1.0
 40
1.0
 40
1.0
 10
-70.2037
 20
-66.1013
 30
0.0
 10
-70.2037
 20
-66.1013
 30
0.0
 10
-70.2
 20
-62.8878
 30
0.0
 10
-70.2
 20
-62.8878
 30
0.0
 10
-70.2
 20
-62.8878
 30
0.0
 10
-70.2
 20
-62.8878
 30
0.0
 10
-73.6022
 20
-60.8243
 30
0.0
 10
-73.6022
 20
-60.8243
 30
0.0
 10
-73.6022
 20
-60.8243
 30
0.0
 10
-73.6022
 20
-60.8243
 30
0.0
 10
-76.6227
 20
-62.5084
 30
0.0
 10
-76.6227
 20
-62.5084
 30
0.0
 10
-76.6227
 20
-62.5084
 30
0.0
 10
-76.6227
 20
-62.5084
 30
0.0
 10
-70.2037
 20
-66.1013
 30
0.0
 10
-70.2037
 20
-66.1013
 30
0.0
  0
ENDSEC
  0
SECTION
  2
OBJECTS
  0
DICTIONARY
  5
C
330
0
100
AcDbDictionary
281
     1
  3
ACAD_GROUP
350
D
  3
ACAD_LAYOUT
350
1A
  3
ACAD_MATERIAL
350
3B
  3
ACAD_MLEADERSTYLE
350
108
  3
ACAD_MLINESTYLE
350
17
  3
ACAD_PLOTSETTINGS
350
19
  3
ACAD_PLOTSTYLENAME
350
E
  3
ACAD_TABLESTYLE
350
107
  3
ACAD_VISUALSTYLE
350
2A
  0
DICTIONARY
  5
D
102
{ACAD_REACTORS
330
C
102
}
330
C
100
AcDbDictionary
281
     1
  0
DICTIONARY
  5
1A
102
{ACAD_REACTORS
330
C
102
}
330
C
100
AcDbDictionary
281
     1
  3
Layout1
350
1E
  3
Layout2
350
26
  3
Model
350
22
  0
DICTIONARY
  5
3B
102
{ACAD_REACTORS
330
C
102
}
330
C
100
AcDbDictionary
281
     1
  3
ByBlock
350
3D
  3
ByLayer
350
3C
  3
Global
350
3E
  0
DICTIONARY
  5
108
102
{ACAD_REACTORS
330
C
102
}
330
C
100
AcDbDictionary
281
     1
  0
DICTIONARY
  5
17
102
{ACAD_REACTORS
330
C
102
}
330
C
100
AcDbDictionary
281
     1
  3
Standard
350
18
  0
DICTIONARY
  5
19
102
{ACAD_REACTORS
330
C
102
}
330
C
100
AcDbDictionary
281
     1
  0
ACDBDICTIONARYWDFLT
  5
E
102
{ACAD_REACTORS
330
C
102
}
330
C
100
AcDbDictionary
281
     1
  3
Normal
350
F
100
AcDbDictionaryWithDefault
340
F
  0
DICTIONARY
  5
107
102
{ACAD_REACTORS
330
C
102
}
330
C
100
AcDbDictionary
281
     1
  0
DICTIONARY
  5
2A
102
{ACAD_REACTORS
330
C
102
}
330
C
100
AcDbDictionary
281
     1
  3
2dWireframe
350
2F
  3
3D Hidden
350
31
  3
3dWireframe
350
30
  3
Basic
350
32
  3
Brighten
350
36
  3
ColorChange
350
3A
  3
Conceptual
350
34
  3
Dim
350
35
  3
Facepattern
350
39
  3
Flat
350
2B
  3
FlatWithEdges
350
2C
  3
Gouraud
350
2D
  3
GouraudWithEdges
350
2E
  3
Linepattern
350
38
  3
Realistic
350
33
  3
Thicken
350
37
  0
LAYOUT
  5
1E
102
{ACAD_REACTORS
330
1A
102
}
330
1A
100
AcDbPlotSettings
  1

  2
none_device
  4

  6

 40
0.0
 41
0.0
 42
0.0
 43
0.0
 44
0.0
 45
0.0
 46
0.0
 47
0.0
 48
0.0
 49
0.0
140
0.0
141
0.0
142
1.0
143
1.0
 70
   688
 72
     0
 73
     0
 74
     5
  7

 75
    16
 76
     0
 77
     2
 78
   300
147
1.0
148
0.0
149
0.0
100
AcDbLayout
  1
Layout1
 70
     1
 71
     1
 10
0.0
 20
0.0
 11
12.0
 21
9.0
 12
0.0
 22
0.0
 32
0.0
 14
1.000000000000000E+20
 24
1.000000000000000E+20
 34
1.000000000000000E+20
 15
-1.000000000000000E+20
 25
-1.000000000000000E+20
 35
-1.000000000000000E+20
146
0.0
 13
0.0
 23
0.0
 33
0.0
 16
1.0
 26
0.0
 36
0.0
 17
0.0
 27
1.0
 37
0.0
 76
     0
330
1B
  0
LAYOUT
  5
26
102
{ACAD_REACTORS
330
1A
102
}
330
1A
100
AcDbPlotSettings
  1

  2
none_device
  4

  6

 40
0.0
 41
0.0
 42
0.0
 43
0.0
 44
0.0
 45
0.0
 46
0.0
 47
0.0
 48
0.0
 49
0.0
140
0.0
141
0.0
142
1.0
143
1.0
 70
   688
 72
     0
 73
     0
 74
     5
  7

 75
    16
 76
     0
 77
     2
 78
   300
147
1.0
148
0.0
149
0.0
100
AcDbLayout
  1
Layout2
 70
     1
 71
     2
 10
0.0
 20
0.0
 11
0.0
 21
0.0
 12
0.0
 22
0.0
 32
0.0
 14
0.0
 24
0.0
 34
0.0
 15
0.0
 25
0.0
 35
0.0
146
0.0
 13
0.0
 23
0.0
 33
0.0
 16
1.0
 26
0.0
 36
0.0
 17
0.0
 27
1.0
 37
0.0
 76
     0
330
23
  0
LAYOUT
  5
22
102
{ACAD_REACTORS
330
1A
102
}
330
1A
100
AcDbPlotSettings
  1

  2
none_device
  4

  6

 40
0.0
 41
0.0
 42
0.0
 43
0.0
 44
0.0
 45
0.0
 46
0.0
 47
0.0
 48
0.0
 49
0.0
140
0.0
141
0.0
142
1.0
143
1.0
 70
  1712
 72
     0
 73
     0
 74
     0
  7

 75
     0
 76
     0
 77
     2
 78
   300
147
1.0
148
0.0
149
0.0
100
AcDbLayout
  1
Model
 70
     1
 71
     0
 10
0.0
 20
0.0
 11
12.0
 21
9.0
 12
0.0
 22
0.0
 32
0.0
 14
-187.0144
 24
-115.4756
 34
0.0
 15
-63.3533
 25
131.8466
 35
0.0
146
0.0
 13
0.0
 23
0.0
 33
0.0
 16
1.0
 26
0.0
 36
0.0
 17
0.0
 27
1.0
 37
0.0
 76
     0
330
1F
331
29
  0
MATERIAL
  5
3D
102
{ACAD_REACTORS
330
3B
102
}
330
3B
100
AcDbMaterial
  1
ByBlock
 72
     1
 94
      127
  0
MATERIAL
  5
3C
102
{ACAD_REACTORS
330
3B
102
}
330
3B
100
AcDbMaterial
  1
ByLayer
 72
     1
 94
      127
  0
MATERIAL
  5
3E
102
{ACAD_REACTORS
330
3B
102
}
330
3B
100
AcDbMaterial
  1
Global
 72
     1
 94
      127
  0
MLINESTYLE
  5
18
102
{ACAD_REACTORS
330
17
102
}
330
17
100
AcDbMlineStyle
  2
Standard
 70
     0
  3

 62
   256
 51
90.0
 52
90.0
 71
     2
 49
0.5
 62
   256
  6
BYLAYER
 49
-0.5
 62
   256
  6
BYLAYER
  0
ACDBPLACEHOLDER
  5
F
102
{ACAD_REACTORS
330
E
102
}
330
E
  0
VISUALSTYLE
  5
2F
102
{ACAD_REACTORS
330
2A
102
}
102
{ACAD_XDICTIONARY
360
EF
102
}
330
2A
100
AcDbVisualStyle
  2
2dWireframe
 70
     4
 71
     0
 72
     2
 73
     0
 90
        0
 40
-0.6
 41
-30.0
 62
     5
 63
     7
421
 16777215
 74
     1
 91
        4
 64
     7
 65
   257
 75
     1
175
     1
 42
1.0
 92
        0
 66
   257
 43
1.0
 76
     1
 77
     6
 78
     2
 67
     7
 79
     5
170
     0
171
     0
290
     0
174
     0
 93
        1
 44
0.0
173
     0
291
     0
 45
0.0
  0
VISUALSTYLE
  5
31
102
{ACAD_REACTORS
330
2A
102
}
102
{ACAD_XDICTIONARY
360
F3
102
}
330
2A
100
AcDbVisualStyle
  2
3D Hidden
 70
     6
 71
     1
 72
     2
 73
     2
 90
        0
 40
-0.6
 41
-30.0
 62
     5
 63
     7
421
 16777215
 74
     2
 91
        2
 64
     7
 65
   257
 75
     2
175
     1
 42
40.0
 92
        0
 66
   257
 43
1.0
 76
     1
 77
     6
 78
     2
 67
     7
 79
     3
170
     0
171
     0
290
     0
174
     0
 93
        1
 44
0.0
173
     0
291
     0
 45
0.0
  0
VISUALSTYLE
  5
30
102
{ACAD_REACTORS
330
2A
102
}
102
{ACAD_XDICTIONARY
360
F1
102
}
330
2A
100
AcDbVisualStyle
  2
3dWireframe
 70
     5
 71
     0
 72
     2
 73
     0
 90
        0
 40
-0.6
 41
-30.0
 62
     5
 63
     7
421
 16777215
 74
     1
 91
        4
 64
     7
 65
   257
 75
     1
175
     1
 42
1.0
 92
        0
 66
   257
 43
1.0
 76
     1
 77
     6
 78
     2
 67
     7
 79
     5
170
     0
171
     0
290
     0
174
     0
 93
        1
 44
0.0
173
     0
291
     0
 45
0.0
  0
VISUALSTYLE
  5
32
102
{ACAD_REACTORS
330
2A
102
}
102
{ACAD_XDICTIONARY
360
F5
102
}
330
2A
100
AcDbVisualStyle
  2
Basic
 70
     7
 71
     1
 72
     0
 73
     1
 90
        0
 40
-0.6
 41
-30.0
 62
     5
 63
     7
421
 16777215
 74
     0
 91
        4
 64
     7
 65
   257
 75
     1
175
     1
 42
1.0
 92
        8
 66
     7
 43
1.0
 76
     1
 77
     6
 78
     2
 67
     7
 79
     5
170
     0
171
     0
290
     0
174
     0
 93
        1
 44
0.0
173
     0
291
     1
 45
0.0
  0
VISUALSTYLE
  5
36
102
{ACAD_REACTORS
330
2A
102
}
102
{ACAD_XDICTIONARY
360
FD
102
}
330
2A
100
AcDbVisualStyle
  2
Brighten
 70
    12
 71
     2
 72
     2
 73
     0
 90
        0
 40
-0.6
 41
-30.0
 62
     5
 63
     7
421
 16777215
 74
     1
 91
        4
 64
     7
 65
   257
 75
     1
175
     1
 42
1.0
 92
        8
 66
     7
 43
1.0
 76
     1
 77
     6
 78
     2
 67
     7
 79
     5
170
     0
171
     0
290
     0
174
     0
 93
        1
 44
50.0
173
     0
291
     1
 45
0.0
  0
VISUALSTYLE
  5
3A
102
{ACAD_REACTORS
330
2A
102
}
102
{ACAD_XDICTIONARY
360
105
102
}
330
2A
100
AcDbVisualStyle
  2
ColorChange
 70
    16
 71
     2
 72
     2
 73
     3
 90
        0
 40
-0.6
 41
-30.0
 62
     5
 63
     8
421
  8421504
 74
     1
 91
        4
 64
     7
 65
   257
 75
     1
175
     1
 42
1.0
 92
        8
 66
     8
424
  8421504
 43
1.0
 76
     1
 77
     6
 78
     2
 67
     7
 79
     5
170
     0
171
     0
290
     0
174
     0
 93
        1
 44
0.0
173
     0
291
     1
 45
0.0
  0
VISUALSTYLE
  5
34
102
{ACAD_REACTORS
330
2A
102
}
102
{ACAD_XDICTIONARY
360
F9
102
}
330
2A
100
AcDbVisualStyle
  2
Conceptual
 70
     9
 71
     3
 72
     2
 73
     0
 90
        0
 40
-0.6
 41
-30.0
 62
     5
 63
     7
421
 16777215
 74
     2
 91
        2
 64
     7
 65
   257
 75
     1
175
     1
 42
40.0
 92
        8
 66
     7
 43
1.0
 76
     1
 77
     6
 78
     2
 67
     7
 79
     3
170
     0
171
     0
290
     0
174
     0
 93
        1
 44
0.0
173
     0
291
     0
 45
0.0
  0
VISUALSTYLE
  5
35
102
{ACAD_REACTORS
330
2A
102
}
102
{ACAD_XDICTIONARY
360
FB
102
}
330
2A
100
AcDbVisualStyle
  2
Dim
 70
    11
 71
     2
 72
     2
 73
     0
 90
        0
 40
-0.6
 41
-30.0
 62
     5
 63
     7
421
 16777215
 74
     1
 91
        4
 64
     7
 65
   257
 75
     1
175
     1
 42
1.0
 92
        8
 66
     7
 43
1.0
 76
     1
 77
     6
 78
     2
 67
     7
 79
     5
170
     0
171
     0
290
     0
174
     0
 93
        1
 44
-50.0
173
     0
291
     1
 45
0.0
  0
VISUALSTYLE
  5
39
102
{ACAD_REACTORS
330
2A
102
}
102
{ACAD_XDICTIONARY
360
103
102
}
330
2A
100
AcDbVisualStyle
  2
Facepattern
 70
    15
 71
     2
 72
     2
 73
     0
 90
        0
 40
-0.6
 41
-30.0
 62
     5
 63
     7
421
 16777215
 74
     1
 91
        4
 64
     7
 65
   257
 75
     1
175
     1
 42
1.0
 92
        8
 66
     7
 43
1.0
 76
     1
 77
     6
 78
     2
 67
     7
 79
     5
170
     0
171
     0
290
     0
174
     0
 93
        1
 44
0.0
173
     0
291
     1
 45
0.0
  0
VISUALSTYLE
  5
2B
102
{ACAD_REACTORS
330
2A
102
}
102
{ACAD_XDICTIONARY
360
E7
102
}
330
2A
100
AcDbVisualStyle
  2
Flat
 70
     0
 71
     2
 72
     1
 73
     1
 90
        2
 40
-0.6
 41
30.0
 62
     5
 63
     7
421
 16777215
 74
     0
 91
        4
 64
     7
 65
   257
 75
     1
175
     1
 42
1.0
 92
        8
 66
     7
 43
1.0
 76
     1
 77
     6
 78
     2
 67
     7
 79
     5
170
     0
171
     0
290
     0
174
     0
 93
       13
 44
0.0
173
     0
291
     1
 45
0.0
  0
VISUALSTYLE
  5
2C
102
{ACAD_REACTORS
330
2A
102
}
102
{ACAD_XDICTIONARY
360
E9
102
}
330
2A
100
AcDbVisualStyle
  2
FlatWithEdges
 70
     1
 71
     2
 72
     1
 73
     1
 90
        2
 40
-0.6
 41
30.0
 62
     5
 63
     7
421
 16777215
 74
     1
 91
        4
 64
     7
 65
   257
 75
     1
175
     1
 42
1.0
 92
        0
 66
   257
 43
1.0
 76
     1
 77
     6
 78
     2
 67
     7
 79
     5
170
     0
171
     0
290
     0
174
     0
 93
       13
 44
0.0
173
     0
291
     1
 45
0.0
  0
VISUALSTYLE
  5
2D
102
{ACAD_REACTORS
330
2A
102
}
102
{ACAD_XDICTIONARY
360
EB
102
}
330
2A
100
AcDbVisualStyle
  2
Gouraud
 70
     2
 71
     2
 72
     2
 73
     1
 90
        2
 40
-0.6
 41
30.0
 62
     5
 63
     7
421
 16777215
 74
     0
 91
        4
 64
     7
 65
   257
 75
     1
175
     1
 42
1.0
 92
        0
 66
     7
 43
1.0
 76
     1
 77
     6
 78
     2
 67
     7
 79
     5
170
     0
171
     0
290
     0
174
     0
 93
       13
 44
0.0
173
     0
291
     1
 45
0.0
  0
VISUALSTYLE
  5
2E
102
{ACAD_REACTORS
330
2A
102
}
102
{ACAD_XDICTIONARY
360
ED
102
}
330
2A
100
AcDbVisualStyle
  2
GouraudWithEdges
 70
     3
 71
     2
 72
     2
 73
     1
 90
        2
 40
-0.6
 41
30.0
 62
     5
 63
     7
421
 16777215
 74
     1
 91
        4
 64
     7
 65
   257
 75
     1
175
     1
 42
1.0
 92
        0
 66
   257
 43
1.0
 76
     1
 77
     6
 78
     2
 67
     7
 79
     5
170
     0
171
     0
290
     0
174
     0
 93
       13
 44
0.0
173
     0
291
     1
 45
0.0
  0
VISUALSTYLE
  5
38
102
{ACAD_REACTORS
330
2A
102
}
102
{ACAD_XDICTIONARY
360
101
102
}
330
2A
100
AcDbVisualStyle
  2
Linepattern
 70
    14
 71
     2
 72
     2
 73
     0
 90
        0
 40
-0.6
 41
-30.0
 62
     5
 63
     7
421
 16777215
 74
     1
 91
        4
 64
     7
 65
   257
 75
     7
175
     7
 42
1.0
 92
        8
 66
     7
 43
1.0
 76
     1
 77
     6
 78
     2
 67
     7
 79
     5
170
     0
171
     0
290
     0
174
     0
 93
        1
 44
0.0
173
     0
291
     1
 45
0.0
  0
VISUALSTYLE
  5
33
102
{ACAD_REACTORS
330
2A
102
}
102
{ACAD_XDICTIONARY
360
F7
102
}
330
2A
100
AcDbVisualStyle
  2
Realistic
 70
     8
 71
     2
 72
     2
 73
     0
 90
        0
 40
-0.6
 41
-30.0
 62
     5
 63
     7
421
 16777215
 74
     1
 91
        0
 64
     7
 65
   257
 75
     1
175
     1
 42
1.0
 92
        8
 66
     8
424
  7895160
 43
1.0
 76
     1
 77
     6
 78
     2
 67
     7
 79
     5
170
     0
171
     0
290
     0
174
     0
 93
       13
 44
0.0
173
     0
291
     0
 45
0.0
  0
VISUALSTYLE
  5
37
102
{ACAD_REACTORS
330
2A
102
}
102
{ACAD_XDICTIONARY
360
FF
102
}
330
2A
100
AcDbVisualStyle
  2
Thicken
 70
    13
 71
     2
 72
     2
 73
     0
 90
        0
 40
-0.6
 41
-30.0
 62
     5
 63
     7
421
 16777215
 74
     1
 91
        4
 64
     7
 65
   257
 75
     1
175
     1
 42
1.0
 92
       12
 66
     7
 43
1.0
 76
     1
 77
     6
 78
     2
 67
     7
 79
     5
170
     0
171
     0
290
     0
174
     0
 93
        1
 44
0.0
173
     0
291
     1
 45
0.0
  0
DICTIONARY
  5
EF
330
2F
100
AcDbDictionary
280
     1
281
     1
  3
ACAD_XREC_ROUNDTRIP
360
F0
  0
DICTIONARY
  5
F3
330
31
100
AcDbDictionary
280
     1
281
     1
  3
ACAD_XREC_ROUNDTRIP
360
F4
  0
DICTIONARY
  5
F1
330
30
100
AcDbDictionary
280
     1
281
     1
  3
ACAD_XREC_ROUNDTRIP
360
F2
  0
DICTIONARY
  5
F5
330
32
100
AcDbDictionary
280
     1
281
     1
  3
ACAD_XREC_ROUNDTRIP
360
F6
  0
DICTIONARY
  5
FD
330
36
100
AcDbDictionary
280
     1
281
     1
  3
ACAD_XREC_ROUNDTRIP
360
FE
  0
DICTIONARY
  5
105
330
3A
100
AcDbDictionary
280
     1
281
     1
  3
ACAD_XREC_ROUNDTRIP
360
106
  0
DICTIONARY
  5
F9
330
34
100
AcDbDictionary
280
     1
281
     1
  3
ACAD_XREC_ROUNDTRIP
360
FA
  0
DICTIONARY
  5
FB
330
35
100
AcDbDictionary
280
     1
281
     1
  3
ACAD_XREC_ROUNDTRIP
360
FC
  0
DICTIONARY
  5
103
330
39
100
AcDbDictionary
280
     1
281
     1
  3
ACAD_XREC_ROUNDTRIP
360
104
  0
DICTIONARY
  5
E7
330
2B
100
AcDbDictionary
280
     1
281
     1
  3
ACAD_XREC_ROUNDTRIP
360
E8
  0
DICTIONARY
  5
E9
330
2C
100
AcDbDictionary
280
     1
281
     1
  3
ACAD_XREC_ROUNDTRIP
360
EA
  0
DICTIONARY
  5
EB
330
2D
100
AcDbDictionary
280
     1
281
     1
  3
ACAD_XREC_ROUNDTRIP
360
EC
  0
DICTIONARY
  5
ED
330
2E
100
AcDbDictionary
280
     1
281
     1
  3
ACAD_XREC_ROUNDTRIP
360
EE
  0
DICTIONARY
  5
101
330
38
100
AcDbDictionary
280
     1
281
     1
  3
ACAD_XREC_ROUNDTRIP
360
102
  0
DICTIONARY
  5
F7
330
33
100
AcDbDictionary
280
     1
281
     1
  3
ACAD_XREC_ROUNDTRIP
360
F8
  0
DICTIONARY
  5
FF
330
37
100
AcDbDictionary
280
     1
281
     1
  3
ACAD_XREC_ROUNDTRIP
360
100
  0
XRECORD
  5
F0
102
{ACAD_REACTORS
330
EF
102
}
330
EF
100
AcDbXrecord
280
     1
102
RTVSPropertyOp0
 70
     1
102
RTVSPropertyOp1
 70
     1
102
RTVSPropertyOp2
 70
     1
102
RTVSPropertyOp3
 70
     1
102
RTVSPropertyOp4
 70
     1
102
RTVSPropertyOp5
 70
     1
102
RTVSPropertyOp6
 70
     1
102
RTVSPropertyOp7
 70
     1
102
RTVSPropertyOp8
 70
     1
102
RTVSPropertyOp9
 70
     1
102
RTVSPropertyOp10
 70
     1
102
RTVSPropertyOp11
 70
     1
102
RTVSPropertyOp12
 70
     1
102
RTVSPropertyOp13
 70
     1
102
RTVSPropertyOp14
 70
     1
102
RTVSPropertyOp15
 70
     1
102
RTVSPropertyOp16
 70
     1
102
RTVSPropertyOp17
 70
     1
102
RTVSPropertyOp18
 70
     1
102
RTVSPropertyOp19
 70
     1
102
RTVSPropertyOp20
 70
     1
102
RTVSPropertyOp21
 70
     1
102
RTVSPropertyOp22
 70
     1
102
RTVSPropertyOp23
 70
     1
102
RTVSPropertyOp24
 70
     1
102
RTVSPropertyOp25
 70
     1
102
RTVSPropertyOp26
 70
     1
102
RTVSPropertyOp27
 70
     1
102
RTVSPropertyOp28
 70
     1
102
RTVSPropertyOp29
 70
     1
102
RTVSPropertyOp30
 70
     1
102
RTVSPropertyOp31
 70
     1
102
RTVSPropertyOp32
 70
     1
  0
XRECORD
  5
F4
102
{ACAD_REACTORS
330
F3
102
}
330
F3
100
AcDbXrecord
280
     1
102
RTVSPropertyOp0
 70
     1
102
RTVSPropertyOp1
 70
     1
102
RTVSPropertyOp2
 70
     1
102
RTVSPropertyOp3
 70
     1
102
RTVSPropertyOp4
 70
     1
102
RTVSPropertyOp5
 70
     1
102
RTVSPropertyOp6
 70
     1
102
RTVSPropertyOp7
 70
     1
102
RTVSPropertyOp8
 70
     1
102
RTVSPropertyOp9
 70
     1
102
RTVSPropertyOp10
 70
     1
102
RTVSPropertyOp11
 70
     1
102
RTVSPropertyOp12
 70
     1
102
RTVSPropertyOp13
 70
     1
102
RTVSPropertyOp14
 70
     1
102
RTVSPropertyOp15
 70
     1
102
RTVSPropertyOp16
 70
     1
102
RTVSPropertyOp17
 70
     1
102
RTVSPropertyOp18
 70
     1
102
RTVSPropertyOp19
 70
     1
102
RTVSPropertyOp20
 70
     1
102
RTVSPropertyOp21
 70
     1
102
RTVSPropertyOp22
 70
     1
102
RTVSPropertyOp23
 70
     1
102
RTVSPropertyOp24
 70
     1
102
RTVSPropertyOp25
 70
     1
102
RTVSPropertyOp26
 70
     1
102
RTVSPropertyOp27
 70
     1
102
RTVSPropertyOp28
 70
     1
102
RTVSPropertyOp29
 70
     1
102
RTVSPropertyOp30
 70
     1
102
RTVSPropertyOp31
 70
     1
102
RTVSPropertyOp32
 70
     1
  0
XRECORD
  5
F2
102
{ACAD_REACTORS
330
F1
102
}
330
F1
100
AcDbXrecord
280
     1
102
RTVSPropertyOp0
 70
     1
102
RTVSPropertyOp1
 70
     1
102
RTVSPropertyOp2
 70
     1
102
RTVSPropertyOp3
 70
     1
102
RTVSPropertyOp4
 70
     1
102
RTVSPropertyOp5
 70
     1
102
RTVSPropertyOp6
 70
     1
102
RTVSPropertyOp7
 70
     1
102
RTVSPropertyOp8
 70
     1
102
RTVSPropertyOp9
 70
     1
102
RTVSPropertyOp10
 70
     1
102
RTVSPropertyOp11
 70
     1
102
RTVSPropertyOp12
 70
     1
102
RTVSPropertyOp13
 70
     1
102
RTVSPropertyOp14
 70
     1
102
RTVSPropertyOp15
 70
     1
102
RTVSPropertyOp16
 70
     1
102
RTVSPropertyOp17
 70
     1
102
RTVSPropertyOp18
 70
     1
102
RTVSPropertyOp19
 70
     1
102
RTVSPropertyOp20
 70
     1
102
RTVSPropertyOp21
 70
     1
102
RTVSPropertyOp22
 70
     1
102
RTVSPropertyOp23
 70
     1
102
RTVSPropertyOp24
 70
     1
102
RTVSPropertyOp25
 70
     1
102
RTVSPropertyOp26
 70
     1
102
RTVSPropertyOp27
 70
     1
102
RTVSPropertyOp28
 70
     1
102
RTVSPropertyOp29
 70
     1
102
RTVSPropertyOp30
 70
     1
102
RTVSPropertyOp31
 70
     1
102
RTVSPropertyOp32
 70
     1
  0
XRECORD
  5
F6
102
{ACAD_REACTORS
330
F5
102
}
330
F5
100
AcDbXrecord
280
     1
102
RTVSPropertyOp0
 70
     1
102
RTVSPropertyOp1
 70
     1
102
RTVSPropertyOp2
 70
     1
102
RTVSPropertyOp3
 70
     1
102
RTVSPropertyOp4
 70
     1
102
RTVSPropertyOp5
 70
     1
102
RTVSPropertyOp6
 70
     1
102
RTVSPropertyOp7
 70
     1
102
RTVSPropertyOp8
 70
     1
102
RTVSPropertyOp9
 70
     1
102
RTVSPropertyOp10
 70
     1
102
RTVSPropertyOp11
 70
     1
102
RTVSPropertyOp12
 70
     1
102
RTVSPropertyOp13
 70
     1
102
RTVSPropertyOp14
 70
     1
102
RTVSPropertyOp15
 70
     1
102
RTVSPropertyOp16
 70
     1
102
RTVSPropertyOp17
 70
     1
102
RTVSPropertyOp18
 70
     1
102
RTVSPropertyOp19
 70
     1
102
RTVSPropertyOp20
 70
     1
102
RTVSPropertyOp21
 70
     1
102
RTVSPropertyOp22
 70
     1
102
RTVSPropertyOp23
 70
     1
102
RTVSPropertyOp24
 70
     1
102
RTVSPropertyOp25
 70
     1
102
RTVSPropertyOp26
 70
     1
102
RTVSPropertyOp27
 70
     1
102
RTVSPropertyOp28
 70
     1
102
RTVSPropertyOp29
 70
     1
102
RTVSPropertyOp30
 70
     1
102
RTVSPropertyOp31
 70
     1
102
RTVSPropertyOp32
 70
     1
  0
XRECORD
  5
FE
102
{ACAD_REACTORS
330
FD
102
}
330
FD
100
AcDbXrecord
280
     1
102
RTVSPropertyOp0
 70
     1
102
RTVSPropertyOp1
 70
     1
102
RTVSPropertyOp2
 70
     1
102
RTVSPropertyOp3
 70
     1
102
RTVSPropertyOp4
 70
     1
102
RTVSPropertyOp5
 70
     1
102
RTVSPropertyOp6
 70
     1
102
RTVSPropertyOp7
 70
     1
102
RTVSPropertyOp8
 70
     1
102
RTVSPropertyOp9
 70
     1
102
RTVSPropertyOp10
 70
     1
102
RTVSPropertyOp11
 70
     1
102
RTVSPropertyOp12
 70
     1
102
RTVSPropertyOp13
 70
     1
102
RTVSPropertyOp14
 70
     1
102
RTVSPropertyOp15
 70
     1
102
RTVSPropertyOp16
 70
     1
102
RTVSPropertyOp17
 70
     1
102
RTVSPropertyOp18
 70
     1
102
RTVSPropertyOp19
 70
     1
102
RTVSPropertyOp20
 70
     1
102
RTVSPropertyOp21
 70
     1
102
RTVSPropertyOp22
 70
     1
102
RTVSPropertyOp23
 70
     1
102
RTVSPropertyOp24
 70
     1
102
RTVSPropertyOp25
 70
     1
102
RTVSPropertyOp26
 70
     1
102
RTVSPropertyOp27
 70
     1
102
RTVSPropertyOp28
 70
     1
102
RTVSPropertyOp29
 70
     1
102
RTVSPropertyOp30
 70
     1
102
RTVSPropertyOp31
 70
     1
102
RTVSPropertyOp32
 70
     1
  0
XRECORD
  5
106
102
{ACAD_REACTORS
330
105
102
}
330
105
100
AcDbXrecord
280
     1
102
RTVSPropertyOp0
 70
     1
102
RTVSPropertyOp1
 70
     1
102
RTVSPropertyOp2
 70
     1
102
RTVSPropertyOp3
 70
     1
102
RTVSPropertyOp4
 70
     1
102
RTVSPropertyOp5
 70
     1
102
RTVSPropertyOp6
 70
     1
102
RTVSPropertyOp7
 70
     1
102
RTVSPropertyOp8
 70
     1
102
RTVSPropertyOp9
 70
     1
102
RTVSPropertyOp10
 70
     1
102
RTVSPropertyOp11
 70
     1
102
RTVSPropertyOp12
 70
     1
102
RTVSPropertyOp13
 70
     1
102
RTVSPropertyOp14
 70
     1
102
RTVSPropertyOp15
 70
     1
102
RTVSPropertyOp16
 70
     1
102
RTVSPropertyOp17
 70
     1
102
RTVSPropertyOp18
 70
     1
102
RTVSPropertyOp19
 70
     1
102
RTVSPropertyOp20
 70
     1
102
RTVSPropertyOp21
 70
     1
102
RTVSPropertyOp22
 70
     1
102
RTVSPropertyOp23
 70
     1
102
RTVSPropertyOp24
 70
     1
102
RTVSPropertyOp25
 70
     1
102
RTVSPropertyOp26
 70
     1
102
RTVSPropertyOp27
 70
     1
102
RTVSPropertyOp28
 70
     1
102
RTVSPropertyOp29
 70
     1
102
RTVSPropertyOp30
 70
     1
102
RTVSPropertyOp31
 70
     1
102
RTVSPropertyOp32
 70
     1
  0
XRECORD
  5
FA
102
{ACAD_REACTORS
330
F9
102
}
330
F9
100
AcDbXrecord
280
     1
102
RTVSPropertyOp0
 70
     1
102
RTVSPropertyOp1
 70
     1
102
RTVSPropertyOp2
 70
     1
102
RTVSPropertyOp3
 70
     1
102
RTVSPropertyOp4
 70
     1
102
RTVSPropertyOp5
 70
     1
102
RTVSPropertyOp6
 70
     1
102
RTVSPropertyOp7
 70
     1
102
RTVSPropertyOp8
 70
     1
102
RTVSPropertyOp9
 70
     1
102
RTVSPropertyOp10
 70
     1
102
RTVSPropertyOp11
 70
     1
102
RTVSPropertyOp12
 70
     1
102
RTVSPropertyOp13
 70
     1
102
RTVSPropertyOp14
 70
     1
102
RTVSPropertyOp15
 70
     1
102
RTVSPropertyOp16
 70
     1
102
RTVSPropertyOp17
 70
     1
102
RTVSPropertyOp18
 70
     1
102
RTVSPropertyOp19
 70
     1
102
RTVSPropertyOp20
 70
     1
102
RTVSPropertyOp21
 70
     1
102
RTVSPropertyOp22
 70
     1
102
RTVSPropertyOp23
 70
     1
102
RTVSPropertyOp24
 70
     1
102
RTVSPropertyOp25
 70
     1
102
RTVSPropertyOp26
 70
     1
102
RTVSPropertyOp27
 70
     1
102
RTVSPropertyOp28
 70
     1
102
RTVSPropertyOp29
 70
     1
102
RTVSPropertyOp30
 70
     1
102
RTVSPropertyOp31
 70
     1
102
RTVSPropertyOp32
 70
     1
  0
XRECORD
  5
FC
102
{ACAD_REACTORS
330
FB
102
}
330
FB
100
AcDbXrecord
280
     1
102
RTVSPropertyOp0
 70
     1
102
RTVSPropertyOp1
 70
     1
102
RTVSPropertyOp2
 70
     1
102
RTVSPropertyOp3
 70
     1
102
RTVSPropertyOp4
 70
     1
102
RTVSPropertyOp5
 70
     1
102
RTVSPropertyOp6
 70
     1
102
RTVSPropertyOp7
 70
     1
102
RTVSPropertyOp8
 70
     1
102
RTVSPropertyOp9
 70
     1
102
RTVSPropertyOp10
 70
     1
102
RTVSPropertyOp11
 70
     1
102
RTVSPropertyOp12
 70
     1
102
RTVSPropertyOp13
 70
     1
102
RTVSPropertyOp14
 70
     1
102
RTVSPropertyOp15
 70
     1
102
RTVSPropertyOp16
 70
     1
102
RTVSPropertyOp17
 70
     1
102
RTVSPropertyOp18
 70
     1
102
RTVSPropertyOp19
 70
     1
102
RTVSPropertyOp20
 70
     1
102
RTVSPropertyOp21
 70
     1
102
RTVSPropertyOp22
 70
     1
102
RTVSPropertyOp23
 70
     1
102
RTVSPropertyOp24
 70
     1
102
RTVSPropertyOp25
 70
     1
102
RTVSPropertyOp26
 70
     1
102
RTVSPropertyOp27
 70
     1
102
RTVSPropertyOp28
 70
     1
102
RTVSPropertyOp29
 70
     1
102
RTVSPropertyOp30
 70
     1
102
RTVSPropertyOp31
 70
     1
102
RTVSPropertyOp32
 70
     1
  0
XRECORD
  5
104
102
{ACAD_REACTORS
330
103
102
}
330
103
100
AcDbXrecord
280
     1
102
RTVSPropertyOp0
 70
     1
102
RTVSPropertyOp1
 70
     1
102
RTVSPropertyOp2
 70
     1
102
RTVSPropertyOp3
 70
     1
102
RTVSPropertyOp4
 70
     1
102
RTVSPropertyOp5
 70
     1
102
RTVSPropertyOp6
 70
     1
102
RTVSPropertyOp7
 70
     1
102
RTVSPropertyOp8
 70
     1
102
RTVSPropertyOp9
 70
     1
102
RTVSPropertyOp10
 70
     1
102
RTVSPropertyOp11
 70
     1
102
RTVSPropertyOp12
 70
     1
102
RTVSPropertyOp13
 70
     1
102
RTVSPropertyOp14
 70
     1
102
RTVSPropertyOp15
 70
     1
102
RTVSPropertyOp16
 70
     1
102
RTVSPropertyOp17
 70
     1
102
RTVSPropertyOp18
 70
     1
102
RTVSPropertyOp19
 70
     1
102
RTVSPropertyOp20
 70
     1
102
RTVSPropertyOp21
 70
     1
102
RTVSPropertyOp22
 70
     1
102
RTVSPropertyOp23
 70
     1
102
RTVSPropertyOp24
 70
     1
102
RTVSPropertyOp25
 70
     1
102
RTVSPropertyOp26
 70
     1
102
RTVSPropertyOp27
 70
     1
102
RTVSPropertyOp28
 70
     1
102
RTVSPropertyOp29
 70
     1
102
RTVSPropertyOp30
 70
     1
102
RTVSPropertyOp31
 70
     1
102
RTVSPropertyOp32
 70
     1
  0
XRECORD
  5
E8
102
{ACAD_REACTORS
330
E7
102
}
330
E7
100
AcDbXrecord
280
     1
102
RTVSPropertyOp0
 70
     1
102
RTVSPropertyOp1
 70
     1
102
RTVSPropertyOp2
 70
     1
102
RTVSPropertyOp3
 70
     1
102
RTVSPropertyOp4
 70
     1
102
RTVSPropertyOp5
 70
     1
102
RTVSPropertyOp6
 70
     1
102
RTVSPropertyOp7
 70
     1
102
RTVSPropertyOp8
 70
     1
102
RTVSPropertyOp9
 70
     1
102
RTVSPropertyOp10
 70
     1
102
RTVSPropertyOp11
 70
     1
102
RTVSPropertyOp12
 70
     1
102
RTVSPropertyOp13
 70
     1
102
RTVSPropertyOp14
 70
     1
102
RTVSPropertyOp15
 70
     1
102
RTVSPropertyOp16
 70
     1
102
RTVSPropertyOp17
 70
     1
102
RTVSPropertyOp18
 70
     1
102
RTVSPropertyOp19
 70
     1
102
RTVSPropertyOp20
 70
     1
102
RTVSPropertyOp21
 70
     1
102
RTVSPropertyOp22
 70
     1
102
RTVSPropertyOp23
 70
     1
102
RTVSPropertyOp24
 70
     1
102
RTVSPropertyOp25
 70
     1
102
RTVSPropertyOp26
 70
     1
102
RTVSPropertyOp27
 70
     1
102
RTVSPropertyOp28
 70
     1
102
RTVSPropertyOp29
 70
     1
102
RTVSPropertyOp30
 70
     1
102
RTVSPropertyOp31
 70
     1
102
RTVSPropertyOp32
 70
     1
  0
XRECORD
  5
EA
102
{ACAD_REACTORS
330
E9
102
}
330
E9
100
AcDbXrecord
280
     1
102
RTVSPropertyOp0
 70
     1
102
RTVSPropertyOp1
 70
     1
102
RTVSPropertyOp2
 70
     1
102
RTVSPropertyOp3
 70
     1
102
RTVSPropertyOp4
 70
     1
102
RTVSPropertyOp5
 70
     1
102
RTVSPropertyOp6
 70
     1
102
RTVSPropertyOp7
 70
     1
102
RTVSPropertyOp8
 70
     1
102
RTVSPropertyOp9
 70
     1
102
RTVSPropertyOp10
 70
     1
102
RTVSPropertyOp11
 70
     1
102
RTVSPropertyOp12
 70
     1
102
RTVSPropertyOp13
 70
     1
102
RTVSPropertyOp14
 70
     1
102
RTVSPropertyOp15
 70
     1
102
RTVSPropertyOp16
 70
     1
102
RTVSPropertyOp17
 70
     1
102
RTVSPropertyOp18
 70
     1
102
RTVSPropertyOp19
 70
     1
102
RTVSPropertyOp20
 70
     1
102
RTVSPropertyOp21
 70
     1
102
RTVSPropertyOp22
 70
     1
102
RTVSPropertyOp23
 70
     1
102
RTVSPropertyOp24
 70
     1
102
RTVSPropertyOp25
 70
     1
102
RTVSPropertyOp26
 70
     1
102
RTVSPropertyOp27
 70
     1
102
RTVSPropertyOp28
 70
     1
102
RTVSPropertyOp29
 70
     1
102
RTVSPropertyOp30
 70
     1
102
RTVSPropertyOp31
 70
     1
102
RTVSPropertyOp32
 70
     1
  0
XRECORD
  5
EC
102
{ACAD_REACTORS
330
EB
102
}
330
EB
100
AcDbXrecord
280
     1
102
RTVSPropertyOp0
 70
     1
102
RTVSPropertyOp1
 70
     1
102
RTVSPropertyOp2
 70
     1
102
RTVSPropertyOp3
 70
     1
102
RTVSPropertyOp4
 70
     1
102
RTVSPropertyOp5
 70
     1
102
RTVSPropertyOp6
 70
     1
102
RTVSPropertyOp7
 70
     1
102
RTVSPropertyOp8
 70
     1
102
RTVSPropertyOp9
 70
     1
102
RTVSPropertyOp10
 70
     1
102
RTVSPropertyOp11
 70
     1
102
RTVSPropertyOp12
 70
     1
102
RTVSPropertyOp13
 70
     1
102
RTVSPropertyOp14
 70
     1
102
RTVSPropertyOp15
 70
     1
102
RTVSPropertyOp16
 70
     1
102
RTVSPropertyOp17
 70
     1
102
RTVSPropertyOp18
 70
     1
102
RTVSPropertyOp19
 70
     1
102
RTVSPropertyOp20
 70
     1
102
RTVSPropertyOp21
 70
     1
102
RTVSPropertyOp22
 70
     1
102
RTVSPropertyOp23
 70
     1
102
RTVSPropertyOp24
 70
     1
102
RTVSPropertyOp25
 70
     1
102
RTVSPropertyOp26
 70
     1
102
RTVSPropertyOp27
 70
     1
102
RTVSPropertyOp28
 70
     1
102
RTVSPropertyOp29
 70
     1
102
RTVSPropertyOp30
 70
     1
102
RTVSPropertyOp31
 70
     1
102
RTVSPropertyOp32
 70
     1
  0
XRECORD
  5
EE
102
{ACAD_REACTORS
330
ED
102
}
330
ED
100
AcDbXrecord
280
     1
102
RTVSPropertyOp0
 70
     1
102
RTVSPropertyOp1
 70
     1
102
RTVSPropertyOp2
 70
     1
102
RTVSPropertyOp3
 70
     1
102
RTVSPropertyOp4
 70
     1
102
RTVSPropertyOp5
 70
     1
102
RTVSPropertyOp6
 70
     1
102
RTVSPropertyOp7
 70
     1
102
RTVSPropertyOp8
 70
     1
102
RTVSPropertyOp9
 70
     1
102
RTVSPropertyOp10
 70
     1
102
RTVSPropertyOp11
 70
     1
102
RTVSPropertyOp12
 70
     1
102
RTVSPropertyOp13
 70
     1
102
RTVSPropertyOp14
 70
     1
102
RTVSPropertyOp15
 70
     1
102
RTVSPropertyOp16
 70
     1
102
RTVSPropertyOp17
 70
     1
102
RTVSPropertyOp18
 70
     1
102
RTVSPropertyOp19
 70
     1
102
RTVSPropertyOp20
 70
     1
102
RTVSPropertyOp21
 70
     1
102
RTVSPropertyOp22
 70
     1
102
RTVSPropertyOp23
 70
     1
102
RTVSPropertyOp24
 70
     1
102
RTVSPropertyOp25
 70
     1
102
RTVSPropertyOp26
 70
     1
102
RTVSPropertyOp27
 70
     1
102
RTVSPropertyOp28
 70
     1
102
RTVSPropertyOp29
 70
     1
102
RTVSPropertyOp30
 70
     1
102
RTVSPropertyOp31
 70
     1
102
RTVSPropertyOp32
 70
     1
  0
XRECORD
  5
102
102
{ACAD_REACTORS
330
101
102
}
330
101
100
AcDbXrecord
280
     1
102
RTVSPropertyOp0
 70
     1
102
RTVSPropertyOp1
 70
     1
102
RTVSPropertyOp2
 70
     1
102
RTVSPropertyOp3
 70
     1
102
RTVSPropertyOp4
 70
     1
102
RTVSPropertyOp5
 70
     1
102
RTVSPropertyOp6
 70
     1
102
RTVSPropertyOp7
 70
     1
102
RTVSPropertyOp8
 70
     1
102
RTVSPropertyOp9
 70
     1
102
RTVSPropertyOp10
 70
     1
102
RTVSPropertyOp11
 70
     1
102
RTVSPropertyOp12
 70
     1
102
RTVSPropertyOp13
 70
     1
102
RTVSPropertyOp14
 70
     1
102
RTVSPropertyOp15
 70
     1
102
RTVSPropertyOp16
 70
     1
102
RTVSPropertyOp17
 70
     1
102
RTVSPropertyOp18
 70
     1
102
RTVSPropertyOp19
 70
     1
102
RTVSPropertyOp20
 70
     1
102
RTVSPropertyOp21
 70
     1
102
RTVSPropertyOp22
 70
     1
102
RTVSPropertyOp23
 70
     1
102
RTVSPropertyOp24
 70
     1
102
RTVSPropertyOp25
 70
     1
102
RTVSPropertyOp26
 70
     1
102
RTVSPropertyOp27
 70
     1
102
RTVSPropertyOp28
 70
     1
102
RTVSPropertyOp29
 70
     1
102
RTVSPropertyOp30
 70
     1
102
RTVSPropertyOp31
 70
     1
102
RTVSPropertyOp32
 70
     1
  0
XRECORD
  5
F8
102
{ACAD_REACTORS
330
F7
102
}
330
F7
100
AcDbXrecord
280
     1
102
RTVSPropertyOp0
 70
     1
102
RTVSPropertyOp1
 70
     1
102
RTVSPropertyOp2
 70
     1
102
RTVSPropertyOp3
 70
     1
102
RTVSPropertyOp4
 70
     1
102
RTVSPropertyOp5
 70
     1
102
RTVSPropertyOp6
 70
     1
102
RTVSPropertyOp7
 70
     1
102
RTVSPropertyOp8
 70
     1
102
RTVSPropertyOp9
 70
     1
102
RTVSPropertyOp10
 70
     1
102
RTVSPropertyOp11
 70
     1
102
RTVSPropertyOp12
 70
     1
102
RTVSPropertyOp13
 70
     1
102
RTVSPropertyOp14
 70
     1
102
RTVSPropertyOp15
 70
     1
102
RTVSPropertyOp16
 70
     1
102
RTVSPropertyOp17
 70
     1
102
RTVSPropertyOp18
 70
     1
102
RTVSPropertyOp19
 70
     1
102
RTVSPropertyOp20
 70
     1
102
RTVSPropertyOp21
 70
     1
102
RTVSPropertyOp22
 70
     1
102
RTVSPropertyOp23
 70
     1
102
RTVSPropertyOp24
 70
     1
102
RTVSPropertyOp25
 70
     1
102
RTVSPropertyOp26
 70
     1
102
RTVSPropertyOp27
 70
     1
102
RTVSPropertyOp28
 70
     1
102
RTVSPropertyOp29
 70
     1
102
RTVSPropertyOp30
 70
     1
102
RTVSPropertyOp31
 70
     1
102
RTVSPropertyOp32
 70
     1
  0
XRECORD
  5
100
102
{ACAD_REACTORS
330
FF
102
}
330
FF
100
AcDbXrecord
280
     1
102
RTVSPropertyOp0
 70
     1
102
RTVSPropertyOp1
 70
     1
102
RTVSPropertyOp2
 70
     1
102
RTVSPropertyOp3
 70
     1
102
RTVSPropertyOp4
 70
     1
102
RTVSPropertyOp5
 70
     1
102
RTVSPropertyOp6
 70
     1
102
RTVSPropertyOp7
 70
     1
102
RTVSPropertyOp8
 70
     1
102
RTVSPropertyOp9
 70
     1
102
RTVSPropertyOp10
 70
     1
102
RTVSPropertyOp11
 70
     1
102
RTVSPropertyOp12
 70
     1
102
RTVSPropertyOp13
 70
     1
102
RTVSPropertyOp14
 70
     1
102
RTVSPropertyOp15
 70
     1
102
RTVSPropertyOp16
 70
     1
102
RTVSPropertyOp17
 70
     1
102
RTVSPropertyOp18
 70
     1
102
RTVSPropertyOp19
 70
     1
102
RTVSPropertyOp20
 70
     1
102
RTVSPropertyOp21
 70
     1
102
RTVSPropertyOp22
 70
     1
102
RTVSPropertyOp23
 70
     1
102
RTVSPropertyOp24
 70
     1
102
RTVSPropertyOp25
 70
     1
102
RTVSPropertyOp26
 70
     1
102
RTVSPropertyOp27
 70
     1
102
RTVSPropertyOp28
 70
     1
102
RTVSPropertyOp29
 70
     1
102
RTVSPropertyOp30
 70
     1
102
RTVSPropertyOp31
 70
     1
102
RTVSPropertyOp32
 70
     1
  0
ENDSEC
  0
EOF
