  0
SECTION
  2
HEADER
  9
$ACADVER
  1
AC1021
  9
$ACADMAINTVER
 70
    25
  9
$DWGCODEPAGE
  3
ANSI_1252
  9
$INSBASE
 10
0.0
 20
0.0
 30
0.0
  9
$EXTMIN
 10
15.8219
 20
-85.3617
 30
0.0
  9
$EXTMAX
 10
196.14
 20
94.9564
 30
0.0
  9
$LIMMIN
 10
0.0
 20
0.0
  9
$LIMMAX
 10
12.0
 20
9.0
  9
$ORTHOMODE
 70
     0
  9
$REGENMODE
 70
     1
  9
$FILLMODE
 70
     1
  9
$QTEXTMODE
 70
     0
  9
$MIRRTEXT
 70
     1
  9
$LTSCALE
 40
1.0
  9
$ATTMODE
 70
     1
  9
$TEXTSIZE
 40
0.2
  9
$TRACEWID
 40
0.05
  9
$TEXTSTYLE
  7
Standard
  9
$CLAYER
  8
0
  9
$CELTYPE
  6
ByLayer
  9
$CECOLOR
 62
   256
  9
$CELTSCALE
 40
1.0
  9
$DISPSILH
 70
     0
  9
$DIMSCALE
 40
1.0
  9
$DIMASZ
 40
0.18
  9
$DIMEXO
 40
0.0625
  9
$DIMDLI
 40
0.38
  9
$DIMRND
 40
0.0
  9
$DIMDLE
 40
0.0
  9
$DIMEXE
 40
0.18
  9
$DIMTP
 40
0.0
  9
$DIMTM
 40
0.0
  9
$DIMTXT
 40
0.18
  9
$DIMCEN
 40
0.09
  9
$DIMTSZ
 40
0.0
  9
$DIMTOL
 70
     0
  9
$DIMLIM
 70
     0
  9
$DIMTIH
 70
     1
  9
$DIMTOH
 70
     1
  9
$DIMSE1
 70
     0
  9
$DIMSE2
 70
     0
  9
$DIMTAD
 70
     0
  9
$DIMZIN
 70
     0
  9
$DIMBLK
  1

  9
$DIMASO
 70
     1
  9
$DIMSHO
 70
     1
  9
$DIMPOST
  1

  9
$DIMAPOST
  1

  9
$DIMALT
 70
     0
  9
$DIMALTD
 70
     2
  9
$DIMALTF
 40
25.4
  9
$DIMLFAC
 40
1.0
  9
$DIMTOFL
 70
     0
  9
$DIMTVP
 40
0.0
  9
$DIMTIX
 70
     0
  9
$DIMSOXD
 70
     0
  9
$DIMSAH
 70
     0
  9
$DIMBLK1
  1

  9
$DIMBLK2
  1

  9
$DIMSTYLE
  2
Standard
  9
$DIMCLRD
 70
     0
  9
$DIMCLRE
 70
     0
  9
$DIMCLRT
 70
     0
  9
$DIMTFAC
 40
1.0
  9
$DIMGAP
 40
0.09
  9
$DIMJUST
 70
     0
  9
$DIMSD1
 70
     0
  9
$DIMSD2
 70
     0
  9
$DIMTOLJ
 70
     1
  9
$DIMTZIN
 70
     0
  9
$DIMALTZ
 70
     0
  9
$DIMALTTZ
 70
     0
  9
$DIMUPT
 70
     0
  9
$DIMDEC
 70
     4
  9
$DIMTDEC
 70
     4
  9
$DIMALTU
 70
     2
  9
$DIMALTTD
 70
     2
  9
$DIMTXSTY
  7
Standard
  9
$DIMAUNIT
 70
     0
  9
$DIMADEC
 70
     0
  9
$DIMALTRND
 40
0.0
  9
$DIMAZIN
 70
     0
  9
$DIMDSEP
 70
    46
  9
$DIMATFIT
 70
     3
  9
$DIMFRAC
 70
     0
  9
$DIMLDRBLK
  1

  9
$DIMLUNIT
 70
     2
  9
$DIMLWD
 70
    -2
  9
$DIMLWE
 70
    -2
  9
$DIMTMOVE
 70
     0
  9
$DIMFXL
 40
1.0
  9
$DIMFXLON
 70
     0
  9
$DIMJOGANG
 40
0.7853981633974483
  9
$DIMTFILL
 70
     0
  9
$DIMTFILLCLR
 70
     0
  9
$DIMARCSYM
 70
     0
  9
$DIMLTYPE
  6

  9
$DIMLTEX1
  6

  9
$DIMLTEX2
  6

  9
$LUNITS
 70
     2
  9
$LUPREC
 70
     4
  9
$SKETCHINC
 40
0.1
  9
$FILLETRAD
 40
0.5
  9
$AUNITS
 70
     0
  9
$AUPREC
 70
     0
  9
$MENU
  1
.
  9
$ELEVATION
 40
0.0
  9
$PELEVATION
 40
0.0
  9
$THICKNESS
 40
0.0
  9
$LIMCHECK
 70
     0
  9
$CHAMFERA
 40
0.5
  9
$CHAMFERB
 40
0.5
  9
$CHAMFERC
 40
1.0
  9
$CHAMFERD
 40
0.0
  9
$SKPOLY
 70
     0
  9
$TDCREATE
 40
2458492.846732697
  9
$TDUCREATE
 40
2458492.846732697
  9
$TDUPDATE
 40
2458492.846733021
  9
$TDUUPDATE
 40
2458492.846733021
  9
$TDINDWG
 40
0.0000000116
  9
$TDUSRTIMER
 40
0.0000000116
  9
$USRTIMER
 70
     1
  9
$ANGBASE
 50
0.0
  9
$ANGDIR
 70
     0
  9
$PDMODE
 70
     0
  9
$PDSIZE
 40
0.0
  9
$PLINEWID
 40
0.0
  9
$SPLFRAME
 70
     0
  9
$SPLINETYPE
 70
     6
  9
$SPLINESEGS
 70
     8
  9
$HANDSEED
  5
89
  9
$SURFTAB1
 70
     6
  9
$SURFTAB2
 70
     6
  9
$SURFTYPE
 70
     6
  9
$SURFU
 70
     6
  9
$SURFV
 70
     6
  9
$UCSBASE
  2

  9
$UCSNAME
  2

  9
$UCSORG
 10
0.0
 20
0.0
 30
0.0
  9
$UCSXDIR
 10
1.0
 20
0.0
 30
0.0
  9
$UCSYDIR
 10
0.0
 20
1.0
 30
0.0
  9
$UCSORTHOREF
  2

  9
$UCSORTHOVIEW
 70
     0
  9
$UCSORGTOP
 10
0.0
 20
0.0
 30
0.0
  9
$UCSORGBOTTOM
 10
0.0
 20
0.0
 30
0.0
  9
$UCSORGLEFT
 10
0.0
 20
0.0
 30
0.0
  9
$UCSORGRIGHT
 10
0.0
 20
0.0
 30
0.0
  9
$UCSORGFRONT
 10
0.0
 20
0.0
 30
0.0
  9
$UCSORGBACK
 10
0.0
 20
0.0
 30
0.0
  9
$PUCSBASE
  2

  9
$PUCSNAME
  2

  9
$PUCSORG
 10
0.0
 20
0.0
 30
0.0
  9
$PUCSXDIR
 10
1.0
 20
0.0
 30
0.0
  9
$PUCSYDIR
 10
0.0
 20
1.0
 30
0.0
  9
$PUCSORTHOREF
  2

  9
$PUCSORTHOVIEW
 70
     0
  9
$PUCSORGTOP
 10
0.0
 20
0.0
 30
0.0
  9
$PUCSORGBOTTOM
 10
0.0
 20
0.0
 30
0.0
  9
$PUCSORGLEFT
 10
0.0
 20
0.0
 30
0.0
  9
$PUCSORGRIGHT
 10
0.0
 20
0.0
 30
0.0
  9
$PUCSORGFRONT
 10
0.0
 20
0.0
 30
0.0
  9
$PUCSORGBACK
 10
0.0
 20
0.0
 30
0.0
  9
$USERI1
 70
     0
  9
$USERI2
 70
     0
  9
$USERI3
 70
     0
  9
$USERI4
 70
     0
  9
$USERI5
 70
     0
  9
$USERR1
 40
0.0
  9
$USERR2
 40
0.0
  9
$USERR3
 40
0.0
  9
$USERR4
 40
0.0
  9
$USERR5
 40
0.0
  9
$WORLDVIEW
 70
     1
  9
$SHADEDGE
 70
     3
  9
$SHADEDIF
 70
    70
  9
$TILEMODE
 70
     1
  9
$MAXACTVP
 70
    64
  9
$PINSBASE
 10
0.0
 20
0.0
 30
0.0
  9
$PLIMCHECK
 70
     0
  9
$PEXTMIN
 10
1.000000000000000E+20
 20
1.000000000000000E+20
 30
1.000000000000000E+20
  9
$PEXTMAX
 10
-1.000000000000000E+20
 20
-1.000000000000000E+20
 30
-1.000000000000000E+20
  9
$PLIMMIN
 10
0.0
 20
0.0
  9
$PLIMMAX
 10
12.0
 20
9.0
  9
$UNITMODE
 70
     0
  9
$VISRETAIN
 70
     1
  9
$PLINEGEN
 70
     0
  9
$PSLTSCALE
 70
     1
  9
$TREEDEPTH
 70
  3020
  9
$CMLSTYLE
  2
Standard
  9
$CMLJUST
 70
     0
  9
$CMLSCALE
 40
1.0
  9
$PROXYGRAPHICS
 70
     1
  9
$MEASUREMENT
 70
     0
  9
$CELWEIGHT
370
    -1
  9
$ENDCAPS
280
     0
  9
$JOINSTYLE
280
     0
  9
$LWDISPLAY
290
     0
  9
$INSUNITS
 70
     4
  9
$HYPERLINKBASE
  1

  9
$STYLESHEET
  1

  9
$XEDIT
290
     1
  9
$CEPSNTYPE
380
     0
  9
$PSTYLEMODE
290
     1
  9
$FINGERPRINTGUID
  2
{D0CE1B68-3872-41B0-9302-0EF5F60F8280}
  9
$VERSIONGUID
  2
{FAEB1C32-E019-11D5-929B-00C0DF256EC4}
  9
$EXTNAMES
290
     1
  9
$PSVPSCALE
 40
0.0
  9
$OLESTARTUP
290
     0
  9
$SORTENTS
280
   127
  9
$INDEXCTL
280
     0
  9
$HIDETEXT
280
     1
  9
$XCLIPFRAME
290
     0
  9
$HALOGAP
280
     0
  9
$OBSCOLOR
 70
   257
  9
$OBSLTYPE
280
     0
  9
$INTERSECTIONDISPLAY
280
     0
  9
$INTERSECTIONCOLOR
 70
   257
  9
$DIMASSOC
280
     2
  9
$PROJECTNAME
  1

  9
$CAMERADISPLAY
290
     0
  9
$LENSLENGTH
 40
50.0
  9
$CAMERAHEIGHT
 40
0.0
  9
$STEPSPERSEC
 40
2.0
  9
$STEPSIZE
 40
6.0
  9
$3DDWFPREC
 40
2.0
  9
$PSOLWIDTH
 40
0.25
  9
$PSOLHEIGHT
 40
4.0
  9
$LOFTANG1
 40
1.570796326794897
  9
$LOFTANG2
 40
1.570796326794897
  9
$LOFTMAG1
 40
0.0
  9
$LOFTMAG2
 40
0.0
  9
$LOFTPARAM
 70
     7
  9
$LOFTNORMALS
280
     1
  9
$LATITUDE
 40
37.795
  9
$LONGITUDE
 40
-122.394
  9
$NORTHDIRECTION
 40
0.0
  9
$TIMEZONE
 70
 -8000
  9
$LIGHTGLYPHDISPLAY
280
     1
  9
$TILEMODELIGHTSYNCH
280
     1
  9
$SOLIDHIST
280
     1
  9
$SHOWHIST
280
     1
  9
$DWFFRAME
280
     2
  9
$DGNFRAME
280
     2
  9
$REALWORLDSCALE
290
     1
  9
$INTERFERECOLOR
 62
   256
  9
$CSHADOW
280
     0
  9
$SHADOWPLANELOCATION
 40
0.0
  0
ENDSEC
  0
SECTION
  2
CLASSES
  0
CLASS
  1
ACDBDICTIONARYWDFLT
  2
AcDbDictionaryWithDefault
  3
ObjectDBX Classes
 90
        0
 91
        4
280
     0
281
     0
  0
CLASS
  1
VISUALSTYLE
  2
AcDbVisualStyle
  3
ObjectDBX Classes
 90
     4095
 91
        4
280
     0
281
     0
  0
CLASS
  1
MATERIAL
  2
AcDbMaterial
  3
ObjectDBX Classes
 90
     1153
 91
        4
280
     0
281
     0
  0
CLASS
  1
IMAGEDEF
  2
AcDbRasterImageDef
  3
ISM
 90
        0
 91
        4
280
     0
281
     0
  0
CLASS
  1
IMAGE
  2
AcDbRasterImage
  3
ISM
 90
      127
 91
        5
280
     0
281
     1
  0
CLASS
  1
IMAGEDEF_REACTOR
  2
AcDbRasterImageDefReactor
  3
ISM
 90
        1
 91
        4
280
     0
281
     0
  0
ENDSEC
  0
SECTION
  2
TABLES
  0
TABLE
  2
VPORT
  5
8
330
0
100
AcDbSymbolTable
 70
     1
  0
VPORT
  5
29
330
8
100
AcDbSymbolTableRecord
100
AcDbViewportTableRecord
  2
*Active
 70
     0
 10
0.0
 20
0.0
 11
1.0
 21
1.0
 12
10.42990654205607
 22
4.5
 13
0.0
 23
0.0
 14
0.5
 24
0.5
 15
0.5
 25
0.5
 16
0.0
 26
0.0
 36
1.0
 17
0.0
 27
0.0
 37
0.0
 40
9.0
 41
1.972972972850329
 42
50.0
 43
0.0
 44
0.0
 50
0.0
 51
0.0
 71
     0
 72
   100
 73
     1
 74
     3
 75
     0
 76
     0
 77
     0
 78
     0
281
     0
 65
     1
110
0.0
120
0.0
130
0.0
111
1.0
121
0.0
131
0.0
112
0.0
122
1.0
132
0.0
 79
     0
146
0.0
 60
     3
 61
     5
292
     1
282
     1
141
0.0
142
0.0
 63
   250
  0
ENDTAB
  0
TABLE
  2
LTYPE
  5
5
330
0
100
AcDbSymbolTable
 70
     1
  0
LTYPE
  5
14
330
5
100
AcDbSymbolTableRecord
100
AcDbLinetypeTableRecord
  2
ByBlock
 70
     0
  3

 72
    65
 73
     0
 40
0.0
  0
LTYPE
  5
15
330
5
100
AcDbSymbolTableRecord
100
AcDbLinetypeTableRecord
  2
ByLayer
 70
     0
  3

 72
    65
 73
     0
 40
0.0
  0
LTYPE
  5
16
330
5
100
AcDbSymbolTableRecord
100
AcDbLinetypeTableRecord
  2
Continuous
 70
     0
  3
Solid line
 72
    65
 73
     0
 40
0.0
  0
ENDTAB
  0
TABLE
  2
LAYER
  5
2
330
0
100
AcDbSymbolTable
 70
     2
  0
LAYER
  5
10
330
2
100
AcDbSymbolTableRecord
100
AcDbLayerTableRecord
  2
0
 70
     0
 62
     7
  6
Continuous
370
    -3
390
F
347
3E
  0
LAYER
  5
40
330
2
100
AcDbSymbolTableRecord
100
AcDbLayerTableRecord
  2
layer 1
 70
     0
 62
     7
  6
Continuous
370
    -3
390
F
347
3E
  0
ENDTAB
  0
TABLE
  2
STYLE
  5
3
330
0
100
AcDbSymbolTable
 70
     1
  0
STYLE
  5
11
330
3
100
AcDbSymbolTableRecord
100
AcDbTextStyleTableRecord
  2
Standard
 70
     0
 40
0.0
 41
1.0
 50
0.0
 71
     0
 42
0.2
  3
txt
  4

  0
ENDTAB
  0
TABLE
  2
VIEW
  5
6
330
0
100
AcDbSymbolTable
 70
     0
  0
ENDTAB
  0
TABLE
  2
UCS
  5
7
330
0
100
AcDbSymbolTable
 70
     0
  0
ENDTAB
  0
TABLE
  2
APPID
  5
9
330
0
100
AcDbSymbolTable
 70
     2
  0
APPID
  5
12
330
9
100
AcDbSymbolTableRecord
100
AcDbRegAppTableRecord
  2
ACAD
 70
     0
  0
APPID
  5
3F
330
9
100
AcDbSymbolTableRecord
100
AcDbRegAppTableRecord
  2
ODA
 70
     0
  0
ENDTAB
  0
TABLE
  2
DIMSTYLE
  5
A
330
0
100
AcDbSymbolTable
 70
     1
100
AcDbDimStyleTable
  0
DIMSTYLE
105
27
330
A
100
AcDbSymbolTableRecord
100
AcDbDimStyleTableRecord
  2
Standard
 70
     0
178
     0
340
11
  0
ENDTAB
  0
TABLE
  2
BLOCK_RECORD
  5
1
330
0
100
AcDbSymbolTable
 70
     1
  0
BLOCK_RECORD
  5
1F
330
1
100
AcDbSymbolTableRecord
100
AcDbBlockTableRecord
  2
*Model_Space
340
22
 70
     0
280
     1
281
     0
  0
BLOCK_RECORD
  5
1B
330
1
100
AcDbSymbolTableRecord
100
AcDbBlockTableRecord
  2
*Paper_Space
340
1E
 70
     0
280
     1
281
     0
  0
BLOCK_RECORD
  5
23
330
1
100
AcDbSymbolTableRecord
100
AcDbBlockTableRecord
  2
*Paper_Space0
340
26
 70
     0
280
     1
281
     0
  0
ENDTAB
  0
ENDSEC
  0
SECTION
  2
BLOCKS
  0
BLOCK
  5
20
330
1F
100
AcDbEntity
  8
0
100
AcDbBlockBegin
  2
*Model_Space
 70
     0
 10
0.0
 20
0.0
 30
0.0
  3
*Model_Space
  1

  0
ENDBLK
  5
21
330
1F
100
AcDbEntity
  8
0
100
AcDbBlockEnd
  0
BLOCK
  5
1C
330
1B
100
AcDbEntity
 67
     1
  8
0
100
AcDbBlockBegin
  2
*Paper_Space
 70
     0
 10
0.0
 20
0.0
 30
0.0
  3
*Paper_Space
  1

  0
ENDBLK
  5
1D
330
1B
100
AcDbEntity
 67
     1
  8
0
100
AcDbBlockEnd
  0
BLOCK
  5
24
330
23
100
AcDbEntity
  8
0
100
AcDbBlockBegin
  2
*Paper_Space0
 70
     0
 10
0.0
 20
0.0
 30
0.0
  3
*Paper_Space0
  1

  0
ENDBLK
  5
25
330
23
100
AcDbEntity
  8
0
100
AcDbBlockEnd
  0
ENDSEC
  0
SECTION
  2
ENTITIES
  0
LWPOLYLINE
  5
41
330
1F
100
AcDbEntity
  8
layer 1
 62
   250
370
     9
100
AcDbPolyline
 90
        5
 70
     1
 43
0.0
 10
15.86
 20
-85.3235
 10
196.1018
 20
-85.3235
 10
196.1018
 20
94.9183
 10
15.86
 20
94.9183
 10
15.86
 20
-85.3235
  0
IMAGE
  5
44
330
1F
100
AcDbEntity
  8
layer 1
 62
   250
 92
      140
310
8C00000001000000840000000600000005000000304CA60A46FD61403C4ED1915C1654C00000000000000000304CA60A46DD67403C4ED1915C1654C00000000000000000304CA60A46DD6740789CA223B94C49C00000000000000000304CA60A46FD6140789CA223B94C49C00000000000000000304CA60A46FD61403C4ED1
310
915C1654C00000000000000000
100
AcDbRasterImage
 90
        0
 10
143.9148
 20
-80.3494
 30
0.0
 11
0.01388888888888889
 21
0.0
 31
0.0
 12
0.0
 22
0.01388888888888889
 32
0.0
 13
3384.0
 23
2142.0
340
43
 70
     3
280
     1
281
    50
282
    50
283
     0
360
45
 71
     1
 91
        2
 14
143.9148
 24
-80.3494
 14
190.9224
 24
-50.5859
  0
SPLINE
  5
46
330
1F
100
AcDbEntity
  8
layer 1
 62
     7
370
     9
100
AcDbSpline
210
0.0
220
0.0
230
1.0
 70
    11
 71
     3
 72
    96
 73
    92
 74
     0
 42
0.0000000001
 43
0.0000000001
 12
1.0
 22
0.0
 32
0.0
 13
1.0
 23
0.0
 33
0.0
 40
0.0
 40
0.0
 40
0.0
 40
0.0
 40
0.0416666666666667
 40
0.0416666666666667
 40
0.0416666666666667
 40
0.0416666666666667
 40
0.0833333333333333
 40
0.0833333333333333
 40
0.0833333333333333
 40
0.0833333333333333
 40
0.125
 40
0.125
 40
0.125
 40
0.125
 40
0.1666666666666667
 40
0.1666666666666667
 40
0.1666666666666667
 40
0.1666666666666667
 40
0.2083333333333333
 40
0.2083333333333333
 40
0.2083333333333333
 40
0.2083333333333333
 40
0.25
 40
0.25
 40
0.25
 40
0.25
 40
0.2916666666666667
 40
0.2916666666666667
 40
0.2916666666666667
 40
0.2916666666666667
 40
0.3333333333333333
 40
0.3333333333333333
 40
0.3333333333333333
 40
0.3333333333333333
 40
0.375
 40
0.375
 40
0.375
 40
0.375
 40
0.4166666666666667
 40
0.4166666666666667
 40
0.4166666666666667
 40
0.4166666666666667
 40
0.4583333333333333
 40
0.4583333333333333
 40
0.4583333333333333
 40
0.4583333333333333
 40
0.5
 40
0.5
 40
0.5
 40
0.5
 40
0.5416666666666666
 40
0.5416666666666666
 40
0.5416666666666666
 40
0.5416666666666666
 40
0.5833333333333334
 40
0.5833333333333334
 40
0.5833333333333334
 40
0.5833333333333334
 40
0.625
 40
0.625
 40
0.625
 40
0.625
 40
0.6666666666666666
 40
0.6666666666666666
 40
0.6666666666666666
 40
0.6666666666666666
 40
0.7083333333333334
 40
0.7083333333333334
 40
0.7083333333333334
 40
0.7083333333333334
 40
0.75
 40
0.75
 40
0.75
 40
0.75
 40
0.7916666666666666
 40
0.7916666666666666
 40
0.7916666666666666
 40
0.7916666666666666
 40
0.8333333333333334
 40
0.8333333333333334
 40
0.8333333333333334
 40
0.8333333333333334
 40
0.875
 40
0.875
 40
0.875
 40
0.875
 40
0.9166666666666666
 40
0.9166666666666666
 40
0.9166666666666666
 40
0.9166666666666666
 40
1.0
 40
1.0
 40
1.0
 40
1.0
 10
191.1117
 20
-74.1357
 30
0.0
 10
184.4718
 20
-79.6753
 30
0.0
 10
176.803
 20
-79.3881
 30
0.0
 10
174.5015
 20
-69.5982
 30
0.0
 10
174.5015
 20
-69.5982
 30
0.0
 10
174.132
 20
-68.3993
 30
0.0
 10
174.2716
 20
-68.451
 30
0.0
 10
176.2546
 20
-70.2499
 30
0.0
 10
176.2546
 20
-70.2499
 30
0.0
 10
180.968
 20
-75.0268
 30
0.0
 10
187.6166
 20
-70.5682
 30
0.0
 10
185.3835
 20
-64.649
 30
0.0
 10
185.3835
 20
-64.649
 30
0.0
 10
184.4537
 20
-62.6817
 30
0.0
 10
181.6221
 20
-60.1396
 30
0.0
 10
179.2934
 20
-59.1971
 30
0.0
 10
179.2934
 20
-59.1971
 30
0.0
 10
178.1439
 20
-58.5207
 30
0.0
 10
176.809
 20
-58.2332
 30
0.0
 10
175.1464
 20
-56.4515
 30
0.0
 10
175.1464
 20
-56.4515
 30
0.0
 10
172.6246
 20
-53.7488
 30
0.0
 10
171.9771
 20
-53.3058
 30
0.0
 10
171.2405
 20
-53.7789
 30
0.0
 10
171.2405
 20
-53.7789
 30
0.0
 10
170.3104
 20
-54.3761
 30
0.0
 10
170.3033
 20
-54.5365
 30
0.0
 10
170.9099
 20
-61.3276
 30
0.0
 10
170.9099
 20
-61.3276
 30
0.0
 10
171.2302
 20
-64.915
 30
0.0
 10
171.1362
 20
-65.5875
 30
0.0
 10
169.962
 20
-68.1056
 30
0.0
 10
169.962
 20
-68.1056
 30
0.0
 10
169.2451
 20
-69.6431
 30
0.0
 10
168.3001
 20
-71.3702
 30
0.0
 10
167.8622
 20
-71.9438
 30
0.0
 10
167.8622
 20
-71.9438
 30
0.0
 10
167.0724
 20
-72.9781
 30
0.0
 10
167.0551
 20
-72.9762
 30
0.0
 10
165.7036
 20
-71.7014
 30
0.0
 10
165.7036
 20
-71.7014
 30
0.0
 10
164.9544
 20
-70.9947
 30
0.0
 10
163.6415
 20
-68.9889
 30
0.0
 10
162.7862
 20
-67.2445
 30
0.0
 10
162.7862
 20
-67.2445
 30
0.0
 10
161.4825
 20
-64.5855
 30
0.0
 10
161.1932
 20
-63.2762
 30
0.0
 10
160.997
 20
-59.1448
 30
0.0
 10
160.997
 20
-59.1448
 30
0.0
 10
160.7373
 20
-53.6794
 30
0.0
 10
160.1022
 20
-51.5436
 30
0.0
 10
158.5935
 20
-51.0629
 30
0.0
 10
158.5935
 20
-51.0629
 30
0.0
 10
157.0968
 20
-50.5859
 30
0.0
 10
156.2347
 20
-51.6116
 30
0.0
 10
155.8245
 20
-54.3572
 30
0.0
 10
155.8245
 20
-54.3572
 30
0.0
 10
155.1817
 20
-58.6614
 30
0.0
 10
153.5136
 20
-60.835
 30
0.0
 10
149.6652
 20
-62.3831
 30
0.0
 10
149.6652
 20
-62.3831
 30
0.0
 10
149.6652
 20
-62.3831
 30
0.0
 10
147.5101
 20
-63.25
 30
0.0
 10
147.5101
 20
-63.25
 30
0.0
 10
147.5101
 20
-63.25
 30
0.0
 10
147.5101
 20
-63.25
 30
0.0
 10
149.5873
 20
-64.1324
 30
0.0
 10
149.5873
 20
-64.1324
 30
0.0
 10
149.5873
 20
-64.1324
 30
0.0
 10
150.7295
 20
-64.6175
 30
0.0
 10
151.7521
 20
-65.0977
 30
0.0
 10
151.8593
 20
-65.1991
 30
0.0
 10
151.8593
 20
-65.1991
 30
0.0
 10
151.9666
 20
-65.3006
 30
0.0
 10
151.3138
 20
-66.0093
 30
0.0
 10
150.4086
 20
-66.7742
 30
0.0
 10
150.4086
 20
-66.7742
 30
0.0
 10
148.6302
 20
-68.2767
 30
0.0
 10
147.1368
 20
-70.8906
 30
0.0
 10
145.6822
 20
-75.0469
 30
0.0
 10
145.6822
 20
-75.0469
 30
0.0
 10
145.1755
 20
-76.4945
 30
0.0
 10
144.1151
 20
-79.8543
 30
0.0
 10
143.9148
 20
-80.3494
 30
0.0
 10
143.9148
 20
-80.3494
 30
0.0
 10
143.9148
 20
-80.3494
 30
0.0
 10
191.1276
 20
-80.2267
 30
0.0
 10
191.1276
 20
-80.2267
 30
0.0
 10
191.1276
 20
-80.2267
 30
0.0
 10
191.1276
 20
-80.2267
 30
0.0
 10
191.1117
 20
-74.1357
 30
0.0
 10
191.1117
 20
-74.1357
 30
0.0
  0
SPLINE
  5
47
330
1F
100
AcDbEntity
  8
layer 1
 62
     7
370
     9
100
AcDbSpline
210
0.0
220
0.0
230
1.0
 70
    11
 71
     3
 72
    48
 73
    44
 74
     0
 42
0.0000000001
 43
0.0000000001
 12
1.0
 22
0.0
 32
0.0
 13
1.0
 23
0.0
 33
0.0
 40
0.0
 40
0.0
 40
0.0
 40
0.0
 40
0.0833333333333333
 40
0.0833333333333333
 40
0.0833333333333333
 40
0.0833333333333333
 40
0.1666666666666667
 40
0.1666666666666667
 40
0.1666666666666667
 40
0.1666666666666667
 40
0.25
 40
0.25
 40
0.25
 40
0.25
 40
0.3333333333333333
 40
0.3333333333333333
 40
0.3333333333333333
 40
0.3333333333333333
 40
0.4166666666666667
 40
0.4166666666666667
 40
0.4166666666666667
 40
0.4166666666666667
 40
0.5
 40
0.5
 40
0.5
 40
0.5
 40
0.5833333333333334
 40
0.5833333333333334
 40
0.5833333333333334
 40
0.5833333333333334
 40
0.6666666666666666
 40
0.6666666666666666
 40
0.6666666666666666
 40
0.6666666666666666
 40
0.75
 40
0.75
 40
0.75
 40
0.75
 40
0.8333333333333334
 40
0.8333333333333334
 40
0.8333333333333334
 40
0.8333333333333334
 40
1.0
 40
1.0
 40
1.0
 40
1.0
 10
73.5826
 20
-80.335
 30
0.0
 10
73.8788
 20
-80.0378
 30
0.0
 10
71.6472
 20
-76.9588
 30
0.0
 10
69.9906
 20
-74.7801
 30
0.0
 10
69.9906
 20
-74.7801
 30
0.0
 10
69.5301
 20
-74.1743
 30
0.0
 10
68.5581
 20
-73.7617
 30
0.0
 10
67.87
 20
-73.7305
 30
0.0
 10
67.87
 20
-73.7305
 30
0.0
 10
67.3271
 20
-73.7059
 30
0.0
 10
62.741
 20
-73.4089
 30
0.0
 10
55.6011
 20
-73.2328
 30
0.0
 10
55.6011
 20
-73.2328
 30
0.0
 10
46.0846
 20
-72.9983
 30
0.0
 10
41.5108
 20
-72.6669
 30
0.0
 10
38.4655
 20
-71.991
 30
0.0
 10
38.4655
 20
-71.991
 30
0.0
 10
34.4101
 20
-71.0909
 30
0.0
 10
28.0818
 20
-68.4235
 30
0.0
 10
26.0033
 20
-66.738
 30
0.0
 10
26.0033
 20
-66.738
 30
0.0
 10
24.9731
 20
-65.9027
 30
0.0
 10
24.9753
 20
-65.8875
 30
0.0
 10
26.263
 20
-64.8615
 30
0.0
 10
26.263
 20
-64.8615
 30
0.0
 10
28.499
 20
-63.0798
 30
0.0
 10
31.1288
 20
-61.8901
 30
0.0
 10
33.6811
 20
-61.5058
 30
0.0
 10
33.6811
 20
-61.5058
 30
0.0
 10
37.6059
 20
-60.9148
 30
0.0
 10
37.4626
 20
-60.3475
 30
0.0
 10
32.8864
 20
-58.3589
 30
0.0
 10
32.8864
 20
-58.3589
 30
0.0
 10
25.5687
 20
-55.6455
 30
0.0
 10
23.0999
 20
-52.9047
 30
0.0
 10
20.9924
 20
-46.5768
 30
0.0
 10
20.9924
 20
-46.5768
 30
0.0
 10
20.9924
 20
-46.5768
 30
0.0
 10
21.0312
 20
-80.2636
 30
0.0
 10
21.0312
 20
-80.2636
 30
0.0
 10
21.0312
 20
-80.2636
 30
0.0
 10
21.0312
 20
-80.2636
 30
0.0
 10
73.5826
 20
-80.335
 30
0.0
 10
73.5826
 20
-80.335
 30
0.0
  0
SPLINE
  5
48
330
1F
100
AcDbEntity
  8
layer 1
 62
     7
370
     9
100
AcDbSpline
210
0.0
220
0.0
230
1.0
 70
    11
 71
     3
 72
    52
 73
    48
 74
     0
 42
0.0000000001
 43
0.0000000001
 12
1.0
 22
0.0
 32
0.0
 13
1.0
 23
0.0
 33
0.0
 40
0.0
 40
0.0
 40
0.0
 40
0.0
 40
0.0769230769230769
 40
0.0769230769230769
 40
0.0769230769230769
 40
0.0769230769230769
 40
0.1538461538461539
 40
0.1538461538461539
 40
0.1538461538461539
 40
0.1538461538461539
 40
0.2307692307692308
 40
0.2307692307692308
 40
0.2307692307692308
 40
0.2307692307692308
 40
0.3076923076923077
 40
0.3076923076923077
 40
0.3076923076923077
 40
0.3076923076923077
 40
0.3846153846153846
 40
0.3846153846153846
 40
0.3846153846153846
 40
0.3846153846153846
 40
0.4615384615384616
 40
0.4615384615384616
 40
0.4615384615384616
 40
0.4615384615384616
 40
0.5384615384615384
 40
0.5384615384615384
 40
0.5384615384615384
 40
0.5384615384615384
 40
0.6153846153846154
 40
0.6153846153846154
 40
0.6153846153846154
 40
0.6153846153846154
 40
0.6923076923076923
 40
0.6923076923076923
 40
0.6923076923076923
 40
0.6923076923076923
 40
0.7692307692307693
 40
0.7692307692307693
 40
0.7692307692307693
 40
0.7692307692307693
 40
0.8461538461538461
 40
0.8461538461538461
 40
0.8461538461538461
 40
0.8461538461538461
 40
1.0
 40
1.0
 40
1.0
 40
1.0
 10
95.0953
 20
-79.2288
 30
0.0
 10
96.0887
 20
-78.4442
 30
0.0
 10
96.0871
 20
-78.4212
 30
0.0
 10
94.9949
 20
-77.6411
 30
0.0
 10
94.9949
 20
-77.6411
 30
0.0
 10
94.3853
 20
-77.2057
 30
0.0
 10
91.0068
 20
-75.4525
 30
0.0
 10
87.4867
 20
-73.7448
 30
0.0
 10
87.4867
 20
-73.7448
 30
0.0
 10
83.9669
 20
-72.0372
 30
0.0
 10
81.3374
 20
-70.64
 30
0.0
 10
81.6435
 20
-70.64
 30
0.0
 10
81.6435
 20
-70.64
 30
0.0
 10
81.9496
 20
-70.64
 30
0.0
 10
85.0946
 20
-71.2345
 30
0.0
 10
88.6323
 20
-71.9613
 30
0.0
 10
88.6323
 20
-71.9613
 30
0.0
 10
95.0795
 20
-73.2855
 30
0.0
 10
97.4013
 20
-73.301
 30
0.0
 10
97.4013
 20
-72.0191
 30
0.0
 10
97.4013
 20
-72.0191
 30
0.0
 10
97.4013
 20
-70.9724
 30
0.0
 10
90.6791
 20
-64.6849
 30
0.0
 10
88.2052
 20
-63.4178
 30
0.0
 10
88.2052
 20
-63.4178
 30
0.0
 10
84.4717
 20
-61.5056
 30
0.0
 10
83.067
 20
-61.838
 30
0.0
 10
78.2672
 20
-65.7692
 30
0.0
 10
78.2672
 20
-65.7692
 30
0.0
 10
76.8116
 20
-66.9615
 30
0.0
 10
75.3505
 20
-68.0273
 30
0.0
 10
75.0205
 20
-68.1378
 30
0.0
 10
75.0205
 20
-68.1378
 30
0.0
 10
74.056
 20
-68.4606
 30
0.0
 10
77.1608
 20
-75.8171
 30
0.0
 10
79.0757
 20
-77.7467
 30
0.0
 10
79.0757
 20
-77.7467
 30
0.0
 10
81.0643
 20
-79.7505
 30
0.0
 10
81.548
 20
-79.8625
 30
0.0
 10
88.6045
 20
-79.954
 30
0.0
 10
88.6045
 20
-79.954
 30
0.0
 10
92.8166
 20
-80.0085
 30
0.0
 10
94.3209
 20
-79.8404
 30
0.0
 10
95.0951
 20
-79.229
 30
0.0
 10
95.0951
 20
-79.229
 30
0.0
 10
95.0951
 20
-79.229
 30
0.0
 10
95.0953
 20
-79.2288
 30
0.0
 10
95.0953
 20
-79.2288
 30
0.0
  0
SPLINE
  5
49
330
1F
100
AcDbEntity
  8
layer 1
 62
     7
370
     9
100
AcDbSpline
210
0.0
220
0.0
230
1.0
 70
    11
 71
     3
 72
    20
 73
    16
 74
     0
 42
0.0000000001
 43
0.0000000001
 12
1.0
 22
0.0
 32
0.0
 13
1.0
 23
0.0
 33
0.0
 40
0.0
 40
0.0
 40
0.0
 40
0.0
 40
0.2
 40
0.2
 40
0.2
 40
0.2
 40
0.4
 40
0.4
 40
0.4
 40
0.4
 40
0.6
 40
0.6
 40
0.6
 40
0.6
 40
1.0
 40
1.0
 40
1.0
 40
1.0
 10
100.5539
 20
-80.2558
 30
0.0
 10
100.5539
 20
-80.2558
 30
0.0
 10
116.1318
 20
-80.2148
 30
0.0
 10
116.1318
 20
-80.2148
 30
0.0
 10
116.1318
 20
-80.2148
 30
0.0
 10
115.1111
 20
-74.2341
 30
0.0
 10
112.2978
 20
-72.1013
 30
0.0
 10
108.5175
 20
-72.0251
 30
0.0
 10
108.5175
 20
-72.0251
 30
0.0
 10
104.3541
 20
-71.9414
 30
0.0
 10
100.4562
 20
-75.2468
 30
0.0
 10
100.5537
 20
-80.2558
 30
0.0
 10
100.5537
 20
-80.2558
 30
0.0
 10
100.5537
 20
-80.2558
 30
0.0
 10
100.5539
 20
-80.2558
 30
0.0
 10
100.5539
 20
-80.2558
 30
0.0
  0
SPLINE
  5
4A
330
1F
100
AcDbEntity
  8
layer 1
 62
     7
370
     9
100
AcDbSpline
210
0.0
220
0.0
230
1.0
 70
    11
 71
     3
 72
    44
 73
    40
 74
     0
 42
0.0000000001
 43
0.0000000001
 12
1.0
 22
0.0
 32
0.0
 13
1.0
 23
0.0
 33
0.0
 40
0.0
 40
0.0
 40
0.0
 40
0.0
 40
0.0909090909090909
 40
0.0909090909090909
 40
0.0909090909090909
 40
0.0909090909090909
 40
0.1818181818181818
 40
0.1818181818181818
 40
0.1818181818181818
 40
0.1818181818181818
 40
0.2727272727272727
 40
0.2727272727272727
 40
0.2727272727272727
 40
0.2727272727272727
 40
0.3636363636363636
 40
0.3636363636363636
 40
0.3636363636363636
 40
0.3636363636363636
 40
0.4545454545454545
 40
0.4545454545454545
 40
0.4545454545454545
 40
0.4545454545454545
 40
0.5454545454545454
 40
0.5454545454545454
 40
0.5454545454545454
 40
0.5454545454545454
 40
0.6363636363636364
 40
0.6363636363636364
 40
0.6363636363636364
 40
0.6363636363636364
 40
0.7272727272727273
 40
0.7272727272727273
 40
0.7272727272727273
 40
0.7272727272727273
 40
0.8181818181818182
 40
0.8181818181818182
 40
0.8181818181818182
 40
0.8181818181818182
 40
1.0
 40
1.0
 40
1.0
 40
1.0
 10
140.1105
 20
-72.733
 30
0.0
 10
141.4671
 20
-70.013
 30
0.0
 10
142.577
 20
-67.6081
 30
0.0
 10
142.577
 20
-67.3889
 30
0.0
 10
142.577
 20
-67.3889
 30
0.0
 10
142.4195
 20
-66.4995
 30
0.0
 10
139.714
 20
-65.9521
 30
0.0
 10
137.7215
 20
-65.0055
 30
0.0
 10
137.7215
 20
-65.0055
 30
0.0
 10
132.8308
 20
-62.6825
 30
0.0
 10
130.3435
 20
-63.3652
 30
0.0
 10
125.4492
 20
-66.925
 30
0.0
 10
125.4492
 20
-66.925
 30
0.0
 10
120.667
 20
-70.4035
 30
0.0
 10
119.3313
 20
-72.0948
 30
0.0
 10
120.6972
 20
-72.9424
 30
0.0
 10
120.6972
 20
-72.9424
 30
0.0
 10
120.9438
 20
-73.0954
 30
0.0
 10
124.8569
 20
-72.4241
 30
0.0
 10
129.3929
 20
-71.4506
 30
0.0
 10
129.3929
 20
-71.4506
 30
0.0
 10
133.9289
 20
-70.4771
 30
0.0
 10
137.7244
 20
-69.7651
 30
0.0
 10
137.8273
 20
-69.8685
 30
0.0
 10
137.8273
 20
-69.8685
 30
0.0
 10
137.9303
 20
-69.972
 30
0.0
 10
134.4845
 20
-71.8317
 30
0.0
 10
130.1702
 20
-74.0012
 30
0.0
 10
130.1702
 20
-74.0012
 30
0.0
 10
125.3115
 20
-76.4445
 30
0.0
 10
122.3257
 20
-78.2424
 30
0.0
 10
122.3257
 20
-78.7249
 30
0.0
 10
122.3257
 20
-78.7249
 30
0.0
 10
122.3257
 20
-79.9451
 30
0.0
 10
133.3444
 20
-79.8354
 30
0.0
 10
135.8264
 20
-78.5904
 30
0.0
 10
135.8264
 20
-78.5904
 30
0.0
 10
137.8182
 20
-77.8002
 30
0.0
 10
139.7575
 20
-73.4411
 30
0.0
 10
140.1105
 20
-72.733
 30
0.0
  0
SPLINE
  5
4B
330
1F
100
AcDbEntity
  8
layer 1
 62
     7
370
     9
100
AcDbSpline
210
0.0
220
0.0
230
1.0
 70
    11
 71
     3
 72
    56
 73
    52
 74
     0
 42
0.0000000001
 43
0.0000000001
 12
1.0
 22
0.0
 32
0.0
 13
1.0
 23
0.0
 33
0.0
 40
0.0
 40
0.0
 40
0.0
 40
0.0
 40
0.0714285714285714
 40
0.0714285714285714
 40
0.0714285714285714
 40
0.0714285714285714
 40
0.1428571428571428
 40
0.1428571428571428
 40
0.1428571428571428
 40
0.1428571428571428
 40
0.2142857142857143
 40
0.2142857142857143
 40
0.2142857142857143
 40
0.2142857142857143
 40
0.2857142857142857
 40
0.2857142857142857
 40
0.2857142857142857
 40
0.2857142857142857
 40
0.3571428571428572
 40
0.3571428571428572
 40
0.3571428571428572
 40
0.3571428571428572
 40
0.4285714285714285
 40
0.4285714285714285
 40
0.4285714285714285
 40
0.4285714285714285
 40
0.5
 40
0.5
 40
0.5
 40
0.5
 40
0.5714285714285714
 40
0.5714285714285714
 40
0.5714285714285714
 40
0.5714285714285714
 40
0.6428571428571429
 40
0.6428571428571429
 40
0.6428571428571429
 40
0.6428571428571429
 40
0.7142857142857143
 40
0.7142857142857143
 40
0.7142857142857143
 40
0.7142857142857143
 40
0.7857142857142857
 40
0.7857142857142857
 40
0.7857142857142857
 40
0.7857142857142857
 40
0.8571428571428571
 40
0.8571428571428571
 40
0.8571428571428571
 40
0.8571428571428571
 40
1.0
 40
1.0
 40
1.0
 40
1.0
 10
100.3346
 20
-67.7588
 30
0.0
 10
100.5018
 20
-67.321
 30
0.0
 10
99.9013
 20
-64.0063
 30
0.0
 10
99.0
 20
-60.3927
 30
0.0
 10
99.0
 20
-60.3927
 30
0.0
 10
98.0987
 20
-56.7792
 30
0.0
 10
97.437
 20
-53.7465
 30
0.0
 10
97.5296
 20
-53.6536
 30
0.0
 10
97.5296
 20
-53.6536
 30
0.0
 10
97.6222
 20
-53.5607
 30
0.0
 10
99.1652
 20
-56.2845
 30
0.0
 10
100.9586
 20
-59.7063
 30
0.0
 10
100.9586
 20
-59.7063
 30
0.0
 10
102.7521
 20
-63.1282
 30
0.0
 10
104.419
 20
-66.0518
 30
0.0
 10
104.6631
 20
-66.2033
 30
0.0
 10
104.6631
 20
-66.2033
 30
0.0
 10
104.9072
 20
-66.3547
 30
0.0
 10
105.5061
 20
-66.0776
 30
0.0
 10
105.9941
 20
-65.5877
 30
0.0
 10
105.9941
 20
-65.5877
 30
0.0
 10
107.8322
 20
-63.742
 30
0.0
 10
105.8146
 20
-53.3499
 30
0.0
 10
103.1346
 20
-50.8607
 30
0.0
 10
103.1346
 20
-50.8607
 30
0.0
 10
102.3432
 20
-50.1257
 30
0.0
 10
100.2039
 20
-48.9965
 30
0.0
 10
98.3804
 20
-48.3511
 30
0.0
 10
98.3804
 20
-48.3511
 30
0.0
 10
94.5143
 20
-46.9829
 30
0.0
 10
94.286
 20
-46.9556
 30
0.0
 10
94.286
 20
-47.8581
 30
0.0
 10
94.286
 20
-47.8581
 30
0.0
 10
94.286
 20
-48.232
 30
0.0
 10
93.5635
 20
-49.6819
 30
0.0
 10
92.6805
 20
-51.0801
 30
0.0
 10
92.6805
 20
-51.0801
 30
0.0
 10
90.4408
 20
-54.6263
 30
0.0
 10
90.262
 20
-56.399
 30
0.0
 10
91.8042
 20
-59.7731
 30
0.0
 10
91.8042
 20
-59.7731
 30
0.0
 10
93.1888
 20
-62.8025
 30
0.0
 10
98.0905
 20
-68.5545
 30
0.0
 10
99.2874
 20
-68.5545
 30
0.0
 10
99.2874
 20
-68.5545
 30
0.0
 10
99.6961
 20
-68.5545
 30
0.0
 10
100.1673
 20
-68.1963
 30
0.0
 10
100.3347
 20
-67.7586
 30
0.0
 10
100.3347
 20
-67.7586
 30
0.0
 10
100.3347
 20
-67.7586
 30
0.0
 10
100.3346
 20
-67.7588
 30
0.0
 10
100.3346
 20
-67.7588
 30
0.0
  0
SPLINE
  5
4C
330
1F
100
AcDbEntity
  8
layer 1
 62
     7
370
     9
100
AcDbSpline
210
0.0
220
0.0
230
1.0
 70
    11
 71
     3
 72
    48
 73
    44
 74
     0
 42
0.0000000001
 43
0.0000000001
 12
1.0
 22
0.0
 32
0.0
 13
1.0
 23
0.0
 33
0.0
 40
0.0
 40
0.0
 40
0.0
 40
0.0
 40
0.0833333333333333
 40
0.0833333333333333
 40
0.0833333333333333
 40
0.0833333333333333
 40
0.1666666666666667
 40
0.1666666666666667
 40
0.1666666666666667
 40
0.1666666666666667
 40
0.25
 40
0.25
 40
0.25
 40
0.25
 40
0.3333333333333333
 40
0.3333333333333333
 40
0.3333333333333333
 40
0.3333333333333333
 40
0.4166666666666667
 40
0.4166666666666667
 40
0.4166666666666667
 40
0.4166666666666667
 40
0.5
 40
0.5
 40
0.5
 40
0.5
 40
0.5833333333333334
 40
0.5833333333333334
 40
0.5833333333333334
 40
0.5833333333333334
 40
0.6666666666666666
 40
0.6666666666666666
 40
0.6666666666666666
 40
0.6666666666666666
 40
0.75
 40
0.75
 40
0.75
 40
0.75
 40
0.8333333333333334
 40
0.8333333333333334
 40
0.8333333333333334
 40
0.8333333333333334
 40
1.0
 40
1.0
 40
1.0
 40
1.0
 10
121.9319
 20
-65.2961
 30
0.0
 10
125.0975
 20
-61.8772
 30
0.0
 10
126.9993
 20
-58.6148
 30
0.0
 10
126.9993
 20
-56.603
 30
0.0
 10
126.9993
 20
-56.603
 30
0.0
 10
126.9993
 20
-55.9456
 30
0.0
 10
126.24
 20
-53.4309
 30
0.0
 10
125.3117
 20
-51.0147
 30
0.0
 10
125.3117
 20
-51.0147
 30
0.0
 10
123.8712
 20
-47.2648
 30
0.0
 10
123.4721
 20
-46.6568
 30
0.0
 10
122.5856
 20
-46.8631
 30
0.0
 10
122.5856
 20
-46.8631
 30
0.0
 10
118.0354
 20
-47.9225
 30
0.0
 10
114.5812
 20
-49.0541
 30
0.0
 10
113.4173
 20
-49.8666
 30
0.0
 10
113.4173
 20
-49.8666
 30
0.0
 10
111.5392
 20
-51.1775
 30
0.0
 10
110.38
 20
-54.8129
 30
0.0
 10
110.0201
 20
-60.5204
 30
0.0
 10
110.0201
 20
-60.5204
 30
0.0
 10
109.7629
 20
-64.5978
 30
0.0
 10
109.8393
 20
-65.3053
 30
0.0
 10
110.5677
 20
-65.586
 30
0.0
 10
110.5677
 20
-65.586
 30
0.0
 10
111.6932
 20
-66.0196
 30
0.0
 10
112.7755
 20
-64.7871
 30
0.0
 10
116.9707
 20
-58.2947
 30
0.0
 10
116.9707
 20
-58.2947
 30
0.0
 10
118.8776
 20
-55.3436
 30
0.0
 10
120.504
 20
-52.9955
 30
0.0
 10
120.5849
 20
-53.0769
 30
0.0
 10
120.5849
 20
-53.0769
 30
0.0
 10
120.6658
 20
-53.1581
 30
0.0
 10
119.7095
 20
-56.3571
 30
0.0
 10
118.4596
 20
-60.1857
 30
0.0
 10
118.4596
 20
-60.1857
 30
0.0
 10
117.2097
 20
-64.0143
 30
0.0
 10
116.3082
 20
-67.4635
 30
0.0
 10
116.4562
 20
-67.8507
 30
0.0
 10
116.4562
 20
-67.8507
 30
0.0
 10
117.0459
 20
-69.3941
 30
0.0
 10
118.9679
 20
-68.4975
 30
0.0
 10
121.9319
 20
-65.2961
 30
0.0
  0
SPLINE
  5
4D
330
1F
100
AcDbEntity
  8
layer 1
 62
     7
370
     9
100
AcDbSpline
210
0.0
220
0.0
230
1.0
 70
    11
 71
     3
 72
    88
 73
    84
 74
     0
 42
0.0000000001
 43
0.0000000001
 12
1.0
 22
0.0
 32
0.0
 13
1.0
 23
0.0
 33
0.0
 40
0.0
 40
0.0
 40
0.0
 40
0.0
 40
0.0454545454545455
 40
0.0454545454545455
 40
0.0454545454545455
 40
0.0454545454545455
 40
0.0909090909090909
 40
0.0909090909090909
 40
0.0909090909090909
 40
0.0909090909090909
 40
0.1363636363636364
 40
0.1363636363636364
 40
0.1363636363636364
 40
0.1363636363636364
 40
0.1818181818181818
 40
0.1818181818181818
 40
0.1818181818181818
 40
0.1818181818181818
 40
0.2272727272727273
 40
0.2272727272727273
 40
0.2272727272727273
 40
0.2272727272727273
 40
0.2727272727272727
 40
0.2727272727272727
 40
0.2727272727272727
 40
0.2727272727272727
 40
0.3181818181818182
 40
0.3181818181818182
 40
0.3181818181818182
 40
0.3181818181818182
 40
0.3636363636363636
 40
0.3636363636363636
 40
0.3636363636363636
 40
0.3636363636363636
 40
0.4090909090909091
 40
0.4090909090909091
 40
0.4090909090909091
 40
0.4090909090909091
 40
0.4545454545454545
 40
0.4545454545454545
 40
0.4545454545454545
 40
0.4545454545454545
 40
0.5
 40
0.5
 40
0.5
 40
0.5
 40
0.5454545454545454
 40
0.5454545454545454
 40
0.5454545454545454
 40
0.5454545454545454
 40
0.5909090909090909
 40
0.5909090909090909
 40
0.5909090909090909
 40
0.5909090909090909
 40
0.6363636363636364
 40
0.6363636363636364
 40
0.6363636363636364
 40
0.6363636363636364
 40
0.6818181818181818
 40
0.6818181818181818
 40
0.6818181818181818
 40
0.6818181818181818
 40
0.7272727272727273
 40
0.7272727272727273
 40
0.7272727272727273
 40
0.7272727272727273
 40
0.7727272727272727
 40
0.7727272727272727
 40
0.7727272727272727
 40
0.7727272727272727
 40
0.8181818181818182
 40
0.8181818181818182
 40
0.8181818181818182
 40
0.8181818181818182
 40
0.8636363636363636
 40
0.8636363636363636
 40
0.8636363636363636
 40
0.8636363636363636
 40
0.9090909090909091
 40
0.9090909090909091
 40
0.9090909090909091
 40
0.9090909090909091
 40
1.0
 40
1.0
 40
1.0
 40
1.0
 10
66.2458
 20
-67.217
 30
0.0
 10
66.2458
 20
-67.0548
 30
0.0
 10
66.0226
 20
-66.5033
 30
0.0
 10
65.7496
 20
-65.9913
 30
0.0
 10
65.7496
 20
-65.9913
 30
0.0
 10
65.3168
 20
-65.1792
 30
0.0
 10
65.6013
 20
-64.9825
 30
0.0
 10
67.9812
 20
-64.4477
 30
0.0
 10
67.9812
 20
-64.4477
 30
0.0
 10
69.7891
 20
-64.0416
 30
0.0
 10
72.2462
 20
-62.7845
 30
0.0
 10
75.2675
 20
-60.7204
 30
0.0
 10
75.2675
 20
-60.7204
 30
0.0
 10
77.7747
 20
-59.0074
 30
0.0
 10
80.4508
 20
-57.5657
 30
0.0
 10
81.2144
 20
-57.5167
 30
0.0
 10
81.2144
 20
-57.5167
 30
0.0
 10
81.9779
 20
-57.4678
 30
0.0
 10
83.1863
 20
-57.409
 30
0.0
 10
83.8998
 20
-57.3864
 30
0.0
 10
83.8998
 20
-57.3864
 30
0.0
 10
85.0355
 20
-57.3503
 30
0.0
 10
85.2367
 20
-57.0528
 30
0.0
 10
85.5153
 20
-54.9991
 30
0.0
 10
85.5153
 20
-54.9991
 30
0.0
 10
85.9343
 20
-51.9088
 30
0.0
 10
85.7323
 20
-51.5171
 30
0.0
 10
83.5041
 20
-51.0973
 30
0.0
 10
83.5041
 20
-51.0973
 30
0.0
 10
77.2723
 20
-49.9234
 30
0.0
 10
72.477
 20
-44.8664
 30
0.0
 10
72.477
 20
-39.468
 30
0.0
 10
72.477
 20
-39.468
 30
0.0
 10
72.477
 20
-34.7764
 30
0.0
 10
77.1315
 20
-29.103
 30
0.0
 10
81.9754
 20
-27.8903
 30
0.0
 10
81.9754
 20
-27.8903
 30
0.0
 10
84.9203
 20
-27.1529
 30
0.0
 10
85.6898
 20
-26.6677
 30
0.0
 10
85.8744
 20
-25.4319
 30
0.0
 10
85.8744
 20
-25.4319
 30
0.0
 10
86.2491
 20
-22.924
 30
0.0
 10
81.2452
 20
-22.8379
 30
0.0
 10
75.1569
 20
-25.2475
 30
0.0
 10
75.1569
 20
-25.2475
 30
0.0
 10
72.0687
 20
-26.4698
 30
0.0
 10
68.8946
 20
-26.5973
 30
0.0
 10
63.7228
 20
-25.7067
 30
0.0
 10
63.7228
 20
-25.7067
 30
0.0
 10
60.5738
 20
-25.1645
 30
0.0
 10
59.8477
 20
-25.203
 30
0.0
 10
57.7034
 20
-26.0252
 30
0.0
 10
57.7034
 20
-26.0252
 30
0.0
 10
55.2092
 20
-26.9816
 30
0.0
 10
54.0305
 20
-28.4117
 30
0.0
 10
55.378
 20
-28.8464
 30
0.0
 10
55.378
 20
-28.8464
 30
0.0
 10
65.6584
 20
-34.7319
 30
0.0
 10
62.5889
 20
-47.4822
 30
0.0
 10
51.1561
 20
-47.4026
 30
0.0
 10
51.1561
 20
-47.4026
 30
0.0
 10
48.1882
 20
-47.4463
 30
0.0
 10
47.469
 20
-46.9185
 30
0.0
 10
49.0149
 20
-45.8313
 30
0.0
 10
49.0149
 20
-45.8313
 30
0.0
 10
51.9364
 20
-43.7767
 30
0.0
 10
52.6924
 20
-38.3839
 30
0.0
 10
50.3667
 20
-36.19
 30
0.0
 10
50.3667
 20
-36.19
 30
0.0
 10
48.3719
 20
-34.3084
 30
0.0
 10
45.0279
 20
-34.4233
 30
0.0
 10
42.9254
 20
-36.4458
 30
0.0
 10
42.9254
 20
-36.4458
 30
0.0
 10
35.2683
 20
-43.8117
 30
0.0
 10
45.1899
 20
-60.4743
 30
0.0
 10
60.6722
 20
-66.2501
 30
0.0
 10
60.6722
 20
-66.2501
 30
0.0
 10
63.7819
 20
-67.4102
 30
0.0
 10
66.2462
 20
-67.8378
 30
0.0
 10
66.2462
 20
-67.2172
 30
0.0
 10
66.2462
 20
-67.2172
 30
0.0
 10
66.2462
 20
-67.2172
 30
0.0
 10
66.2458
 20
-67.217
 30
0.0
 10
66.2458
 20
-67.217
 30
0.0
  0
SPLINE
  5
4E
330
1F
100
AcDbEntity
  8
layer 1
 62
     7
370
     9
100
AcDbSpline
210
0.0
220
0.0
230
1.0
 70
    11
 71
     3
 72
    56
 73
    52
 74
     0
 42
0.0000000001
 43
0.0000000001
 12
1.0
 22
0.0
 32
0.0
 13
1.0
 23
0.0
 33
0.0
 40
0.0
 40
0.0
 40
0.0
 40
0.0
 40
0.0714285714285714
 40
0.0714285714285714
 40
0.0714285714285714
 40
0.0714285714285714
 40
0.1428571428571428
 40
0.1428571428571428
 40
0.1428571428571428
 40
0.1428571428571428
 40
0.2142857142857143
 40
0.2142857142857143
 40
0.2142857142857143
 40
0.2142857142857143
 40
0.2857142857142857
 40
0.2857142857142857
 40
0.2857142857142857
 40
0.2857142857142857
 40
0.3571428571428572
 40
0.3571428571428572
 40
0.3571428571428572
 40
0.3571428571428572
 40
0.4285714285714285
 40
0.4285714285714285
 40
0.4285714285714285
 40
0.4285714285714285
 40
0.5
 40
0.5
 40
0.5
 40
0.5
 40
0.5714285714285714
 40
0.5714285714285714
 40
0.5714285714285714
 40
0.5714285714285714
 40
0.6428571428571429
 40
0.6428571428571429
 40
0.6428571428571429
 40
0.6428571428571429
 40
0.7142857142857143
 40
0.7142857142857143
 40
0.7142857142857143
 40
0.7142857142857143
 40
0.7857142857142857
 40
0.7857142857142857
 40
0.7857142857142857
 40
0.7857142857142857
 40
0.8571428571428571
 40
0.8571428571428571
 40
0.8571428571428571
 40
0.8571428571428571
 40
1.0
 40
1.0
 40
1.0
 40
1.0
 10
141.0171
 20
-60.0822
 30
0.0
 10
141.0161
 20
-60.0106
 30
0.0
 10
140.4318
 20
-58.7976
 30
0.0
 10
139.7191
 20
-57.387
 30
0.0
 10
139.7191
 20
-57.387
 30
0.0
 10
138.9782
 20
-55.9209
 30
0.0
 10
138.4231
 20
-53.9276
 30
0.0
 10
138.4231
 20
-52.734
 30
0.0
 10
138.4231
 20
-52.734
 30
0.0
 10
138.4231
 20
-52.734
 30
0.0
 10
138.4231
 20
-50.6459
 30
0.0
 10
138.4231
 20
-50.6459
 30
0.0
 10
138.4231
 20
-50.6459
 30
0.0
 10
138.4231
 20
-50.6459
 30
0.0
 10
139.5915
 20
-51.7144
 30
0.0
 10
139.5915
 20
-51.7144
 30
0.0
 10
139.5915
 20
-51.7144
 30
0.0
 10
142.4602
 20
-54.3379
 30
0.0
 10
145.0686
 20
-54.6566
 30
0.0
 10
146.6936
 20
-52.5821
 30
0.0
 10
146.6936
 20
-52.5821
 30
0.0
 10
150.1647
 20
-48.1512
 30
0.0
 10
143.9735
 20
-41.4429
 30
0.0
 10
136.4131
 20
-41.4429
 30
0.0
 10
136.4131
 20
-41.4429
 30
0.0
 10
133.3395
 20
-41.4429
 30
0.0
 10
130.6605
 20
-42.2767
 30
0.0
 10
129.5089
 20
-43.5915
 30
0.0
 10
129.5089
 20
-43.5915
 30
0.0
 10
128.4912
 20
-44.7535
 30
0.0
 10
128.9107
 20
-46.8891
 30
0.0
 10
130.9526
 20
-50.9408
 30
0.0
 10
130.9526
 20
-50.9408
 30
0.0
 10
131.6342
 20
-52.2933
 30
0.0
 10
132.192
 20
-54.2003
 30
0.0
 10
132.192
 20
-55.1782
 30
0.0
 10
132.192
 20
-55.1782
 30
0.0
 10
132.192
 20
-57.306
 30
0.0
 10
132.8168
 20
-57.8952
 30
0.0
 10
135.5671
 20
-58.3607
 30
0.0
 10
135.5671
 20
-58.3607
 30
0.0
 10
136.7094
 20
-58.5541
 30
0.0
 10
138.2284
 20
-59.0416
 30
0.0
 10
138.9423
 20
-59.4438
 30
0.0
 10
138.9423
 20
-59.4438
 30
0.0
 10
140.1466
 20
-60.1226
 30
0.0
 10
141.0224
 20
-60.392
 30
0.0
 10
141.0171
 20
-60.082
 30
0.0
 10
141.0171
 20
-60.082
 30
0.0
 10
141.0171
 20
-60.082
 30
0.0
 10
141.0171
 20
-60.0822
 30
0.0
 10
141.0171
 20
-60.0822
 30
0.0
  0
SPLINE
  5
4F
330
1F
100
AcDbEntity
  8
layer 1
 62
     7
370
     9
100
AcDbSpline
210
0.0
220
0.0
230
1.0
 70
    11
 71
     3
 72
    56
 73
    52
 74
     0
 42
0.0000000001
 43
0.0000000001
 12
1.0
 22
0.0
 32
0.0
 13
1.0
 23
0.0
 33
0.0
 40
0.0
 40
0.0
 40
0.0
 40
0.0
 40
0.0714285714285714
 40
0.0714285714285714
 40
0.0714285714285714
 40
0.0714285714285714
 40
0.1428571428571428
 40
0.1428571428571428
 40
0.1428571428571428
 40
0.1428571428571428
 40
0.2142857142857143
 40
0.2142857142857143
 40
0.2142857142857143
 40
0.2142857142857143
 40
0.2857142857142857
 40
0.2857142857142857
 40
0.2857142857142857
 40
0.2857142857142857
 40
0.3571428571428572
 40
0.3571428571428572
 40
0.3571428571428572
 40
0.3571428571428572
 40
0.4285714285714285
 40
0.4285714285714285
 40
0.4285714285714285
 40
0.4285714285714285
 40
0.5
 40
0.5
 40
0.5
 40
0.5
 40
0.5714285714285714
 40
0.5714285714285714
 40
0.5714285714285714
 40
0.5714285714285714
 40
0.6428571428571429
 40
0.6428571428571429
 40
0.6428571428571429
 40
0.6428571428571429
 40
0.7142857142857143
 40
0.7142857142857143
 40
0.7142857142857143
 40
0.7142857142857143
 40
0.7857142857142857
 40
0.7857142857142857
 40
0.7857142857142857
 40
0.7857142857142857
 40
0.8571428571428571
 40
0.8571428571428571
 40
0.8571428571428571
 40
0.8571428571428571
 40
1.0
 40
1.0
 40
1.0
 40
1.0
 10
191.0481
 20
-13.3651
 30
0.0
 10
188.2369
 20
-20.4869
 30
0.0
 10
181.1407
 20
-20.9224
 30
0.0
 10
175.8687
 20
-18.5325
 30
0.0
 10
175.8687
 20
-18.5325
 30
0.0
 10
173.3155
 20
-17.2247
 30
0.0
 10
173.2135
 20
-17.2198
 30
0.0
 10
173.2135
 20
-18.4078
 30
0.0
 10
173.2135
 20
-18.4078
 30
0.0
 10
172.7131
 20
-23.0721
 30
0.0
 10
169.1936
 20
-28.5374
 30
0.0
 10
165.0854
 20
-29.9817
 30
0.0
 10
165.0854
 20
-29.9817
 30
0.0
 10
162.491
 20
-30.8186
 30
0.0
 10
161.1871
 20
-31.997
 30
0.0
 10
161.3776
 20
-33.3331
 30
0.0
 10
161.3776
 20
-33.3331
 30
0.0
 10
161.5037
 20
-34.2178
 30
0.0
 10
161.967
 20
-34.4327
 30
0.0
 10
164.0343
 20
-34.565
 30
0.0
 10
164.0343
 20
-34.565
 30
0.0
 10
166.0885
 20
-34.6965
 30
0.0
 10
166.975
 20
-34.4461
 30
0.0
 10
168.9673
 20
-33.1707
 30
0.0
 10
168.9673
 20
-33.1707
 30
0.0
 10
173.8156
 20
-29.9514
 30
0.0
 10
180.6135
 20
-28.7837
 30
0.0
 10
185.7711
 20
-30.6919
 30
0.0
 10
185.7711
 20
-30.6919
 30
0.0
 10
188.0812
 20
-31.6041
 30
0.0
 10
188.1769
 20
-31.7208
 30
0.0
 10
187.6827
 20
-33.0261
 30
0.0
 10
187.6827
 20
-33.0261
 30
0.0
 10
186.3452
 20
-36.5582
 30
0.0
 10
183.5695
 20
-38.7666
 30
0.0
 10
179.054
 20
-39.8913
 30
0.0
 10
179.054
 20
-39.8913
 30
0.0
 10
176.5028
 20
-40.5268
 30
0.0
 10
174.7744
 20
-42.5364
 30
0.0
 10
175.757
 20
-43.7252
 30
0.0
 10
175.757
 20
-43.7252
 30
0.0
 10
176.0811
 20
-44.1171
 30
0.0
 10
178.08
 20
-45.0728
 30
0.0
 10
180.199
 20
-45.8488
 30
0.0
 10
180.199
 20
-45.8488
 30
0.0
 10
185.5476
 20
-47.7687
 30
0.0
 10
190.2148
 20
-52.4106
 30
0.0
 10
190.9705
 20
-56.8264
 30
0.0
 10
190.9705
 20
-56.8264
 30
0.0
 10
190.9705
 20
-56.8264
 30
0.0
 10
191.0481
 20
-13.3651
 30
0.0
 10
191.0481
 20
-13.3651
 30
0.0
  0
SPLINE
  5
50
330
1F
100
AcDbEntity
  8
layer 1
 62
     7
370
     9
100
AcDbSpline
210
0.0
220
0.0
230
1.0
 70
    11
 71
     3
 72
    40
 73
    36
 74
     0
 42
0.0000000001
 43
0.0000000001
 12
1.0
 22
0.0
 32
0.0
 13
1.0
 23
0.0
 33
0.0
 40
0.0
 40
0.0
 40
0.0
 40
0.0
 40
0.1
 40
0.1
 40
0.1
 40
0.1
 40
0.2
 40
0.2
 40
0.2
 40
0.2
 40
0.3
 40
0.3
 40
0.3
 40
0.3
 40
0.4
 40
0.4
 40
0.4
 40
0.4
 40
0.5
 40
0.5
 40
0.5
 40
0.5
 40
0.6
 40
0.6
 40
0.6
 40
0.6
 40
0.7
 40
0.7
 40
0.7
 40
0.7
 40
0.8
 40
0.8
 40
0.8
 40
0.8
 40
1.0
 40
1.0
 40
1.0
 40
1.0
 10
179.4445
 20
-50.8344
 30
0.0
 10
179.4445
 20
-50.1671
 30
0.0
 10
176.6398
 20
-48.4149
 30
0.0
 10
171.1364
 20
-45.6445
 30
0.0
 10
171.1364
 20
-45.6445
 30
0.0
 10
168.7089
 20
-44.4223
 30
0.0
 10
164.4208
 20
-41.9111
 30
0.0
 10
161.6075
 20
-40.0639
 30
0.0
 10
161.6075
 20
-40.0639
 30
0.0
 10
149.6997
 20
-32.2454
 30
0.0
 10
142.8131
 20
-30.0166
 30
0.0
 10
138.6142
 20
-32.6223
 30
0.0
 10
138.6142
 20
-32.6223
 30
0.0
 10
137.6523
 20
-33.2191
 30
0.0
 10
136.8654
 20
-33.8923
 30
0.0
 10
136.8654
 20
-34.1179
 30
0.0
 10
136.8654
 20
-34.1179
 30
0.0
 10
136.8654
 20
-34.3435
 30
0.0
 10
138.5594
 20
-34.6386
 30
0.0
 10
140.6301
 20
-34.7734
 30
0.0
 10
140.6301
 20
-34.7734
 30
0.0
 10
145.5599
 20
-35.0947
 30
0.0
 10
151.7295
 20
-37.6163
 30
0.0
 10
159.3785
 20
-42.4363
 30
0.0
 10
159.3785
 20
-42.4363
 30
0.0
 10
165.496
 20
-46.2913
 30
0.0
 10
167.9581
 20
-47.5173
 30
0.0
 10
174.2521
 20
-49.8427
 30
0.0
 10
174.2521
 20
-49.8427
 30
0.0
 10
178.5458
 20
-51.4291
 30
0.0
 10
179.4447
 20
-51.6008
 30
0.0
 10
179.4447
 20
-50.8344
 30
0.0
 10
179.4447
 20
-50.8344
 30
0.0
 10
179.4447
 20
-50.8344
 30
0.0
 10
179.4445
 20
-50.8344
 30
0.0
 10
179.4445
 20
-50.8344
 30
0.0
  0
SPLINE
  5
51
330
1F
100
AcDbEntity
  8
layer 1
 62
     7
370
     9
100
AcDbSpline
210
0.0
220
0.0
230
1.0
 70
    11
 71
     3
 72
    44
 73
    40
 74
     0
 42
0.0000000001
 43
0.0000000001
 12
1.0
 22
0.0
 32
0.0
 13
1.0
 23
0.0
 33
0.0
 40
0.0
 40
0.0
 40
0.0
 40
0.0
 40
0.0909090909090909
 40
0.0909090909090909
 40
0.0909090909090909
 40
0.0909090909090909
 40
0.1818181818181818
 40
0.1818181818181818
 40
0.1818181818181818
 40
0.1818181818181818
 40
0.2727272727272727
 40
0.2727272727272727
 40
0.2727272727272727
 40
0.2727272727272727
 40
0.3636363636363636
 40
0.3636363636363636
 40
0.3636363636363636
 40
0.3636363636363636
 40
0.4545454545454545
 40
0.4545454545454545
 40
0.4545454545454545
 40
0.4545454545454545
 40
0.5454545454545454
 40
0.5454545454545454
 40
0.5454545454545454
 40
0.5454545454545454
 40
0.6363636363636364
 40
0.6363636363636364
 40
0.6363636363636364
 40
0.6363636363636364
 40
0.7272727272727273
 40
0.7272727272727273
 40
0.7272727272727273
 40
0.7272727272727273
 40
0.8181818181818182
 40
0.8181818181818182
 40
0.8181818181818182
 40
0.8181818181818182
 40
1.0
 40
1.0
 40
1.0
 40
1.0
 10
87.8248
 20
-48.0907
 30
0.0
 10
90.2252
 20
-43.4926
 30
0.0
 10
90.6512
 20
-42.4162
 30
0.0
 10
90.6512
 20
-40.947
 30
0.0
 10
90.6512
 20
-40.947
 30
0.0
 10
90.6512
 20
-39.1583
 30
0.0
 10
90.9772
 20
-39.0191
 30
0.0
 10
92.5593
 20
-40.1318
 30
0.0
 10
92.5593
 20
-40.1318
 30
0.0
 10
93.1646
 20
-40.5574
 30
0.0
 10
96.3277
 20
-41.1513
 30
0.0
 10
98.9989
 20
-42.0415
 30
0.0
 10
98.9989
 20
-42.0415
 30
0.0
 10
101.67
 20
-42.9317
 30
0.0
 10
104.4019
 20
-44.712
 30
0.0
 10
105.659
 20
-45.4076
 30
0.0
 10
105.659
 20
-45.4076
 30
0.0
 10
106.9161
 20
-46.1031
 30
0.0
 10
108.0527
 20
-46.5639
 30
0.0
 10
108.1847
 20
-46.4314
 30
0.0
 10
108.1847
 20
-46.4314
 30
0.0
 10
108.6526
 20
-45.9614
 30
0.0
 10
106.1994
 20
-42.6008
 30
0.0
 10
103.6199
 20
-40.1782
 30
0.0
 10
103.6199
 20
-40.1782
 30
0.0
 10
99.0156
 20
-35.8539
 30
0.0
 10
92.3002
 20
-33.694
 30
0.0
 10
87.9459
 20
-35.1368
 30
0.0
 10
87.9459
 20
-35.1368
 30
0.0
 10
82.577
 20
-36.916
 30
0.0
 10
80.5972
 20
-43.8741
 30
0.0
 10
84.2274
 20
-48.2059
 30
0.0
 10
84.2274
 20
-48.2059
 30
0.0
 10
85.9181
 20
-50.2235
 30
0.0
 10
86.7252
 20
-50.1976
 30
0.0
 10
87.825
 20
-48.0909
 30
0.0
 10
87.825
 20
-48.0909
 30
0.0
 10
87.825
 20
-48.0909
 30
0.0
 10
87.8248
 20
-48.0907
 30
0.0
 10
87.8248
 20
-48.0907
 30
0.0
  0
SPLINE
  5
52
330
1F
100
AcDbEntity
  8
layer 1
 62
     7
370
     9
100
AcDbSpline
210
0.0
220
0.0
230
1.0
 70
    11
 71
     3
 72
    48
 73
    44
 74
     0
 42
0.0000000001
 43
0.0000000001
 12
1.0
 22
0.0
 32
0.0
 13
1.0
 23
0.0
 33
0.0
 40
0.0
 40
0.0
 40
0.0
 40
0.0
 40
0.0833333333333333
 40
0.0833333333333333
 40
0.0833333333333333
 40
0.0833333333333333
 40
0.1666666666666667
 40
0.1666666666666667
 40
0.1666666666666667
 40
0.1666666666666667
 40
0.25
 40
0.25
 40
0.25
 40
0.25
 40
0.3333333333333333
 40
0.3333333333333333
 40
0.3333333333333333
 40
0.3333333333333333
 40
0.4166666666666667
 40
0.4166666666666667
 40
0.4166666666666667
 40
0.4166666666666667
 40
0.5
 40
0.5
 40
0.5
 40
0.5
 40
0.5833333333333334
 40
0.5833333333333334
 40
0.5833333333333334
 40
0.5833333333333334
 40
0.6666666666666666
 40
0.6666666666666666
 40
0.6666666666666666
 40
0.6666666666666666
 40
0.75
 40
0.75
 40
0.75
 40
0.75
 40
0.8333333333333334
 40
0.8333333333333334
 40
0.8333333333333334
 40
0.8333333333333334
 40
1.0
 40
1.0
 40
1.0
 40
1.0
 10
118.6912
 20
-41.9701
 30
0.0
 10
119.359
 20
-41.5417
 30
0.0
 10
119.2543
 20
-41.0774
 30
0.0
 10
117.9589
 20
-38.7193
 30
0.0
 10
117.9589
 20
-38.7193
 30
0.0
 10
114.126
 20
-31.7419
 30
0.0
 10
107.7706
 20
-25.3416
 30
0.0
 10
97.7102
 20
-18.3272
 30
0.0
 10
97.7102
 20
-18.3272
 30
0.0
 10
90.5937
 20
-13.3655
 30
0.0
 10
88.7487
 20
-11.3884
 30
0.0
 10
84.3625
 20
-4.0234
 30
0.0
 10
84.3625
 20
-4.0234
 30
0.0
 10
75.582
 20
10.7204
 30
0.0
 10
68.8365
 20
16.8118
 30
0.0
 10
60.8226
 20
17.2343
 30
0.0
 10
60.8226
 20
17.2343
 30
0.0
 10
59.093
 20
17.3255
 30
0.0
 10
58.3791
 20
17.2784
 30
0.0
 10
59.2358
 20
17.1297
 30
0.0
 10
59.2358
 20
17.1297
 30
0.0
 10
60.0926
 20
16.981
 30
0.0
 10
62.4292
 20
16.0848
 30
0.0
 10
64.4284
 20
15.1382
 30
0.0
 10
64.4284
 20
15.1382
 30
0.0
 10
70.6194
 20
12.2066
 30
0.0
 10
74.6465
 20
7.344
 30
0.0
 10
80.4155
 20
-4.1645
 30
0.0
 10
80.4155
 20
-4.1645
 30
0.0
 10
85.24
 20
-13.7892
 30
0.0
 10
89.3264
 20
-18.5934
 30
0.0
 10
97.9207
 20
-24.7443
 30
0.0
 10
97.9207
 20
-24.7443
 30
0.0
 10
103.1514
 20
-28.4879
 30
0.0
 10
109.2847
 20
-34.604
 30
0.0
 10
112.7197
 20
-39.5018
 30
0.0
 10
112.7197
 20
-39.5018
 30
0.0
 10
114.4566
 20
-41.9785
 30
0.0
 10
115.0519
 20
-42.4638
 30
0.0
 10
116.3546
 20
-42.4666
 30
0.0
 10
116.3546
 20
-42.4666
 30
0.0
 10
117.2115
 20
-42.4681
 30
0.0
 10
118.2629
 20
-42.2449
 30
0.0
 10
118.6912
 20
-41.9701
 30
0.0
  0
SPLINE
  5
53
330
1F
100
AcDbEntity
  8
layer 1
 62
     7
370
     9
100
AcDbSpline
210
0.0
220
0.0
230
1.0
 70
    11
 71
     3
 72
   136
 73
   132
 74
     0
 42
0.0000000001
 43
0.0000000001
 12
1.0
 22
0.0
 32
0.0
 13
1.0
 23
0.0
 33
0.0
 40
0.0
 40
0.0
 40
0.0
 40
0.0
 40
0.0294117647058824
 40
0.0294117647058824
 40
0.0294117647058824
 40
0.0294117647058824
 40
0.0588235294117647
 40
0.0588235294117647
 40
0.0588235294117647
 40
0.0588235294117647
 40
0.0882352941176471
 40
0.0882352941176471
 40
0.0882352941176471
 40
0.0882352941176471
 40
0.1176470588235294
 40
0.1176470588235294
 40
0.1176470588235294
 40
0.1176470588235294
 40
0.1470588235294118
 40
0.1470588235294118
 40
0.1470588235294118
 40
0.1470588235294118
 40
0.1764705882352941
 40
0.1764705882352941
 40
0.1764705882352941
 40
0.1764705882352941
 40
0.2058823529411765
 40
0.2058823529411765
 40
0.2058823529411765
 40
0.2058823529411765
 40
0.2352941176470588
 40
0.2352941176470588
 40
0.2352941176470588
 40
0.2352941176470588
 40
0.2647058823529412
 40
0.2647058823529412
 40
0.2647058823529412
 40
0.2647058823529412
 40
0.2941176470588235
 40
0.2941176470588235
 40
0.2941176470588235
 40
0.2941176470588235
 40
0.3235294117647059
 40
0.3235294117647059
 40
0.3235294117647059
 40
0.3235294117647059
 40
0.3529411764705883
 40
0.3529411764705883
 40
0.3529411764705883
 40
0.3529411764705883
 40
0.3823529411764706
 40
0.3823529411764706
 40
0.3823529411764706
 40
0.3823529411764706
 40
0.4117647058823529
 40
0.4117647058823529
 40
0.4117647058823529
 40
0.4117647058823529
 40
0.4411764705882353
 40
0.4411764705882353
 40
0.4411764705882353
 40
0.4411764705882353
 40
0.4705882352941176
 40
0.4705882352941176
 40
0.4705882352941176
 40
0.4705882352941176
 40
0.5
 40
0.5
 40
0.5
 40
0.5
 40
0.5294117647058824
 40
0.5294117647058824
 40
0.5294117647058824
 40
0.5294117647058824
 40
0.5588235294117647
 40
0.5588235294117647
 40
0.5588235294117647
 40
0.5588235294117647
 40
0.5882352941176471
 40
0.5882352941176471
 40
0.5882352941176471
 40
0.5882352941176471
 40
0.6176470588235294
 40
0.6176470588235294
 40
0.6176470588235294
 40
0.6176470588235294
 40
0.6470588235294118
 40
0.6470588235294118
 40
0.6470588235294118
 40
0.6470588235294118
 40
0.6764705882352942
 40
0.6764705882352942
 40
0.6764705882352942
 40
0.6764705882352942
 40
0.7058823529411765
 40
0.7058823529411765
 40
0.7058823529411765
 40
0.7058823529411765
 40
0.7352941176470589
 40
0.7352941176470589
 40
0.7352941176470589
 40
0.7352941176470589
 40
0.7647058823529411
 40
0.7647058823529411
 40
0.7647058823529411
 40
0.7647058823529411
 40
0.7941176470588235
 40
0.7941176470588235
 40
0.7941176470588235
 40
0.7941176470588235
 40
0.8235294117647058
 40
0.8235294117647058
 40
0.8235294117647058
 40
0.8235294117647058
 40
0.8529411764705882
 40
0.8529411764705882
 40
0.8529411764705882
 40
0.8529411764705882
 40
0.8823529411764706
 40
0.8823529411764706
 40
0.8823529411764706
 40
0.8823529411764706
 40
0.9117647058823529
 40
0.9117647058823529
 40
0.9117647058823529
 40
0.9117647058823529
 40
0.9411764705882353
 40
0.9411764705882353
 40
0.9411764705882353
 40
0.9411764705882353
 40
1.0
 40
1.0
 40
1.0
 40
1.0
 10
30.2026
 20
-35.8092
 30
0.0
 10
27.0576
 20
-28.783
 30
0.0
 10
26.3762
 20
-25.1267
 30
0.0
 10
27.5388
 20
-21.5153
 30
0.0
 10
27.5388
 20
-21.5153
 30
0.0
 10
28.6766
 20
-17.981
 30
0.0
 10
30.9781
 20
-14.3643
 30
0.0
 10
33.6064
 20
-11.9802
 30
0.0
 10
33.6064
 20
-11.9802
 30
0.0
 10
36.0585
 20
-9.756
 30
0.0
 10
36.4887
 20
-9.9397
 30
0.0
 10
38.2385
 20
-13.9568
 30
0.0
 10
38.2385
 20
-13.9568
 30
0.0
 10
39.1765
 20
-16.1103
 30
0.0
 10
39.4319
 20
-17.683
 30
0.0
 10
39.4639
 20
-21.4997
 30
0.0
 10
39.4639
 20
-21.4997
 30
0.0
 10
39.4861
 20
-24.1518
 30
0.0
 10
39.6674
 20
-26.3221
 30
0.0
 10
39.867
 20
-26.3225
 30
0.0
 10
39.867
 20
-26.3225
 30
0.0
 10
40.0667
 20
-26.3229
 30
0.0
 10
40.8814
 20
-25.4657
 30
0.0
 10
41.6777
 20
-24.4176
 30
0.0
 10
41.6777
 20
-24.4176
 30
0.0
 10
43.3775
 20
-22.18
 30
0.0
 10
46.4899
 20
-20.6156
 30
0.0
 10
49.2744
 20
-20.5996
 30
0.0
 10
49.2744
 20
-20.5996
 30
0.0
 10
51.8387
 20
-20.5847
 30
0.0
 10
52.4782
 20
-20.2094
 30
0.0
 10
56.2468
 20
-16.5067
 30
0.0
 10
56.2468
 20
-16.5067
 30
0.0
 10
60.1484
 20
-12.6734
 30
0.0
 10
62.7895
 20
-11.8184
 30
0.0
 10
67.7199
 20
-12.7925
 30
0.0
 10
67.7199
 20
-12.7925
 30
0.0
 10
74.3028
 20
-14.0929
 30
0.0
 10
75.8615
 20
-11.6119
 30
0.0
 10
71.0992
 20
-7.4134
 30
0.0
 10
71.0992
 20
-7.4134
 30
0.0
 10
70.0014
 20
-6.4456
 30
0.0
 10
68.3881
 20
-3.916
 30
0.0
 10
66.95
 20
-0.9075
 30
0.0
 10
66.95
 20
-0.9075
 30
0.0
 10
63.5863
 20
6.1297
 30
0.0
 10
60.6052
 20
9.1514
 30
0.0
 10
55.9918
 20
10.2007
 30
0.0
 10
55.9918
 20
10.2007
 30
0.0
 10
52.0804
 20
11.0901
 30
0.0
 10
47.8012
 20
8.4647
 30
0.0
 10
47.2111
 20
4.8136
 30
0.0
 10
47.2111
 20
4.8136
 30
0.0
 10
46.658
 20
1.3914
 30
0.0
 10
50.0571
 20
-3.3826
 30
0.0
 10
53.0471
 20
-3.3826
 30
0.0
 10
53.0471
 20
-3.3826
 30
0.0
 10
54.3716
 20
-3.3826
 30
0.0
 10
53.8209
 20
-4.3105
 30
0.0
 10
52.1487
 20
-4.8958
 30
0.0
 10
52.1487
 20
-4.8958
 30
0.0
 10
49.0045
 20
-5.9963
 30
0.0
 10
45.3597
 20
-5.6179
 30
0.0
 10
42.8174
 20
-3.9271
 30
0.0
 10
42.8174
 20
-3.9271
 30
0.0
 10
36.0731
 20
0.5584
 30
0.0
 10
36.4024
 20
10.1324
 30
0.0
 10
43.5413
 20
17.112
 30
0.0
 10
43.5413
 20
17.112
 30
0.0
 10
52.1434
 20
23.8216
 30
0.0
 10
57.5601
 20
24.2502
 30
0.0
 10
66.8619
 20
24.2502
 30
0.0
 10
66.8619
 20
24.2502
 30
0.0
 10
63.7209
 20
25.7911
 30
0.0
 10
60.6046
 20
29.227
 30
0.0
 10
60.0893
 20
32.5923
 30
0.0
 10
60.0893
 20
32.5923
 30
0.0
 10
58.7482
 20
29.5028
 30
0.0
 10
56.9691
 20
28.0189
 30
0.0
 10
54.677
 20
26.0249
 30
0.0
 10
54.677
 20
26.0249
 30
0.0
 10
52.6215
 20
24.2793
 30
0.0
 10
47.4489
 20
21.8276
 30
0.0
 10
44.8269
 20
21.3563
 30
0.0
 10
44.8269
 20
21.3563
 30
0.0
 10
42.9798
 20
21.0241
 30
0.0
 10
42.8796
 20
21.077
 30
0.0
 10
42.8796
 20
22.3844
 30
0.0
 10
42.8796
 20
22.3844
 30
0.0
 10
42.8796
 20
24.3445
 30
0.0
 10
44.1741
 20
27.2008
 30
0.0
 10
46.0185
 20
29.3098
 30
0.0
 10
46.0185
 20
29.3098
 30
0.0
 10
47.3218
 20
30.8001
 30
0.0
 10
47.4889
 20
31.2597
 30
0.0
 10
46.9605
 20
31.8991
 30
0.0
 10
46.9605
 20
31.8991
 30
0.0
 10
46.2066
 20
32.8111
 30
0.0
 10
45.3158
 20
32.6473
 30
0.0
 10
40.9175
 20
30.7885
 30
0.0
 10
40.9175
 20
30.7885
 30
0.0
 10
38.1299
 20
29.6105
 30
0.0
 10
37.0366
 20
29.4317
 30
0.0
 10
33.3789
 20
29.5561
 30
0.0
 10
33.3789
 20
29.5561
 30
0.0
 10
28.2087
 20
29.7319
 30
0.0
 10
25.8426
 20
28.6848
 30
0.0
 10
24.9021
 20
25.8047
 30
0.0
 10
24.9021
 20
25.8047
 30
0.0
 10
23.7164
 20
22.1738
 30
0.0
 10
25.9432
 20
19.5582
 30
0.0
 10
30.2199
 20
19.5582
 30
0.0
 10
30.2199
 20
19.5582
 30
0.0
 10
30.2199
 20
19.5582
 30
0.0
 10
32.6554
 20
19.5582
 30
0.0
 10
32.6554
 20
19.5582
 30
0.0
 10
32.6554
 20
19.5582
 30
0.0
 10
30.8491
 20
15.3053
 30
0.0
 10
25.2037
 20
15.4046
 30
0.0
 10
20.9772
 20
15.0457
 30
0.0
 10
20.9772
 20
15.0457
 30
0.0
 10
20.9772
 20
15.0457
 30
0.0
 10
20.9128
 20
-35.7501
 30
0.0
 10
20.9128
 20
-35.7501
 30
0.0
 10
20.9128
 20
-35.7501
 30
0.0
 10
23.6606
 20
-35.2077
 30
0.0
 10
27.8231
 20
-36.3916
 30
0.0
 10
32.4944
 20
-41.1855
 30
0.0
 10
32.4944
 20
-41.1855
 30
0.0
 10
31.7783
 20
-39.3644
 30
0.0
 10
31.0041
 20
-37.5999
 30
0.0
 10
30.2026
 20
-35.8092
 30
0.0
  0
SPLINE
  5
54
330
1F
100
AcDbEntity
  8
layer 1
 62
     7
370
     9
100
AcDbSpline
210
0.0
220
0.0
230
1.0
 70
    11
 71
     3
 72
    80
 73
    76
 74
     0
 42
0.0000000001
 43
0.0000000001
 12
1.0
 22
0.0
 32
0.0
 13
1.0
 23
0.0
 33
0.0
 40
0.0
 40
0.0
 40
0.0
 40
0.0
 40
0.05
 40
0.05
 40
0.05
 40
0.05
 40
0.1
 40
0.1
 40
0.1
 40
0.1
 40
0.15
 40
0.15
 40
0.15
 40
0.15
 40
0.2
 40
0.2
 40
0.2
 40
0.2
 40
0.25
 40
0.25
 40
0.25
 40
0.25
 40
0.3
 40
0.3
 40
0.3
 40
0.3
 40
0.35
 40
0.35
 40
0.35
 40
0.35
 40
0.4
 40
0.4
 40
0.4
 40
0.4
 40
0.45
 40
0.45
 40
0.45
 40
0.45
 40
0.5
 40
0.5
 40
0.5
 40
0.5
 40
0.55
 40
0.55
 40
0.55
 40
0.55
 40
0.6
 40
0.6
 40
0.6
 40
0.6
 40
0.65
 40
0.65
 40
0.65
 40
0.65
 40
0.7
 40
0.7
 40
0.7
 40
0.7
 40
0.75
 40
0.75
 40
0.75
 40
0.75
 40
0.8
 40
0.8
 40
0.8
 40
0.8
 40
0.85
 40
0.85
 40
0.85
 40
0.85
 40
0.9
 40
0.9
 40
0.9
 40
0.9
 40
1.0
 40
1.0
 40
1.0
 40
1.0
 10
126.0081
 20
-31.0467
 30
0.0
 10
130.071
 20
-20.2088
 30
0.0
 10
132.2083
 20
-4.699
 30
0.0
 10
130.6026
 20
2.2942
 30
0.0
 10
130.6026
 20
2.2942
 30
0.0
 10
129.3321
 20
7.828
 30
0.0
 10
126.1583
 20
12.3811
 30
0.0
 10
122.1344
 20
14.4423
 30
0.0
 10
122.1344
 20
14.4423
 30
0.0
 10
119.0926
 20
16.0005
 30
0.0
 10
114.5781
 20
15.5998
 30
0.0
 10
112.4846
 20
13.5859
 30
0.0
 10
112.4846
 20
13.5859
 30
0.0
 10
110.7348
 20
11.9025
 30
0.0
 10
110.1946
 20
10.068
 30
0.0
 10
110.7991
 20
7.861
 30
0.0
 10
110.7991
 20
7.861
 30
0.0
 10
111.3427
 20
5.8765
 30
0.0
 10
112.1327
 20
5.6486
 30
0.0
 10
112.8659
 20
7.2646
 30
0.0
 10
112.8659
 20
7.2646
 30
0.0
 10
113.6982
 20
9.0988
 30
0.0
 10
115.7758
 20
10.2985
 30
0.0
 10
118.2319
 20
10.3632
 30
0.0
 10
118.2319
 20
10.3632
 30
0.0
 10
119.9992
 20
10.4097
 30
0.0
 10
120.5956
 20
10.14
 30
0.0
 10
121.8558
 20
8.7238
 30
0.0
 10
121.8558
 20
8.7238
 30
0.0
 10
123.0804
 20
7.3479
 30
0.0
 10
123.3643
 20
6.554
 30
0.0
 10
123.3643
 20
4.507
 30
0.0
 10
123.3643
 20
4.507
 30
0.0
 10
123.3643
 20
-2.2823
 30
0.0
 10
115.5948
 20
-5.9659
 30
0.0
 10
108.384
 20
-2.5953
 30
0.0
 10
108.384
 20
-2.5953
 30
0.0
 10
106.8562
 20
-1.8812
 30
0.0
 10
105.5439
 20
-1.2971
 30
0.0
 10
105.4679
 20
-1.2971
 30
0.0
 10
105.4679
 20
-1.2971
 30
0.0
 10
105.3919
 20
-1.2971
 30
0.0
 10
105.4938
 20
-2.1995
 30
0.0
 10
105.6948
 20
-3.3024
 30
0.0
 10
105.6948
 20
-3.3024
 30
0.0
 10
105.8957
 20
-4.4053
 30
0.0
 10
105.8493
 20
-7.0448
 30
0.0
 10
105.5917
 20
-9.168
 30
0.0
 10
105.5917
 20
-9.168
 30
0.0
 10
105.0277
 20
-13.8169
 30
0.0
 10
105.6426
 20
-16.503
 30
0.0
 10
107.4618
 20
-17.3352
 30
0.0
 10
107.4618
 20
-17.3352
 30
0.0
 10
109.2584
 20
-18.157
 30
0.0
 10
110.4962
 20
-17.0846
 30
0.0
 10
112.7731
 20
-12.7337
 30
0.0
 10
112.7731
 20
-12.7337
 30
0.0
 10
114.4615
 20
-9.5078
 30
0.0
 10
119.0244
 20
-4.4254
 30
0.0
 10
120.2326
 20
-4.4254
 30
0.0
 10
120.2326
 20
-4.4254
 30
0.0
 10
120.8606
 20
-4.4254
 30
0.0
 10
123.7109
 20
-10.1698
 30
0.0
 10
124.613
 20
-13.253
 30
0.0
 10
124.613
 20
-13.253
 30
0.0
 10
126.0448
 20
-18.1479
 30
0.0
 10
125.5437
 20
-29.1534
 30
0.0
 10
123.6259
 20
-34.9259
 30
0.0
 10
123.6259
 20
-34.9259
 30
0.0
 10
122.8199
 20
-37.352
 30
0.0
 10
124.9362
 20
-33.9055
 30
0.0
 10
126.0079
 20
-31.0467
 30
0.0
 10
126.0079
 20
-31.0467
 30
0.0
 10
126.0079
 20
-31.0467
 30
0.0
 10
126.0081
 20
-31.0467
 30
0.0
 10
126.0081
 20
-31.0467
 30
0.0
  0
SPLINE
  5
55
330
1F
100
AcDbEntity
  8
layer 1
 62
     7
370
     9
100
AcDbSpline
210
0.0
220
0.0
230
1.0
 70
    11
 71
     3
 72
    60
 73
    56
 74
     0
 42
0.0000000001
 43
0.0000000001
 12
1.0
 22
0.0
 32
0.0
 13
1.0
 23
0.0
 33
0.0
 40
0.0
 40
0.0
 40
0.0
 40
0.0
 40
0.0666666666666667
 40
0.0666666666666667
 40
0.0666666666666667
 40
0.0666666666666667
 40
0.1333333333333333
 40
0.1333333333333333
 40
0.1333333333333333
 40
0.1333333333333333
 40
0.2
 40
0.2
 40
0.2
 40
0.2
 40
0.2666666666666667
 40
0.2666666666666667
 40
0.2666666666666667
 40
0.2666666666666667
 40
0.3333333333333333
 40
0.3333333333333333
 40
0.3333333333333333
 40
0.3333333333333333
 40
0.4
 40
0.4
 40
0.4
 40
0.4
 40
0.4666666666666667
 40
0.4666666666666667
 40
0.4666666666666667
 40
0.4666666666666667
 40
0.5333333333333333
 40
0.5333333333333333
 40
0.5333333333333333
 40
0.5333333333333333
 40
0.6
 40
0.6
 40
0.6
 40
0.6
 40
0.6666666666666666
 40
0.6666666666666666
 40
0.6666666666666666
 40
0.6666666666666666
 40
0.7333333333333333
 40
0.7333333333333333
 40
0.7333333333333333
 40
0.7333333333333333
 40
0.8
 40
0.8
 40
0.8
 40
0.8
 40
0.8666666666666667
 40
0.8666666666666667
 40
0.8666666666666667
 40
0.8666666666666667
 40
1.0
 40
1.0
 40
1.0
 40
1.0
 10
135.1014
 20
-25.3359
 30
0.0
 10
140.3174
 20
-15.6273
 30
0.0
 10
142.9344
 20
-6.0435
 30
0.0
 10
143.4703
 20
5.3135
 30
0.0
 10
143.4703
 20
5.3135
 30
0.0
 10
143.8218
 20
12.764
 30
0.0
 10
143.127
 20
17.9943
 30
0.0
 10
141.0101
 20
23.8306
 30
0.0
 10
141.0101
 20
23.8306
 30
0.0
 10
137.1058
 20
34.5949
 30
0.0
 10
129.9789
 20
40.245
 30
0.0
 10
123.653
 20
37.5911
 30
0.0
 10
123.653
 20
37.5911
 30
0.0
 10
121.1163
 20
36.5269
 30
0.0
 10
119.7298
 20
34.9324
 30
0.0
 10
119.7298
 20
33.0794
 30
0.0
 10
119.7298
 20
33.0794
 30
0.0
 10
119.7298
 20
30.7345
 30
0.0
 10
120.4821
 20
29.6923
 30
0.0
 10
122.8663
 20
28.7344
 30
0.0
 10
122.8663
 20
28.7344
 30
0.0
 10
125.3406
 20
27.7404
 30
0.0
 10
128.1122
 20
28.2238
 30
0.0
 10
129.9858
 20
29.9765
 30
0.0
 10
129.9858
 20
29.9765
 30
0.0
 10
131.5375
 20
31.4281
 30
0.0
 10
131.6683
 20
31.3173
 30
0.0
 10
131.0528
 20
29.073
 30
0.0
 10
131.0528
 20
29.073
 30
0.0
 10
130.3431
 20
26.4861
 30
0.0
 10
128.9363
 20
24.5705
 30
0.0
 10
126.749
 20
23.2133
 30
0.0
 10
126.749
 20
23.2133
 30
0.0
 10
126.749
 20
23.2133
 30
0.0
 10
124.9594
 20
22.1028
 30
0.0
 10
124.9594
 20
22.1028
 30
0.0
 10
124.9594
 20
22.1028
 30
0.0
 10
124.9594
 20
22.1028
 30
0.0
 10
127.6671
 20
19.8874
 30
0.0
 10
127.6671
 20
19.8874
 30
0.0
 10
127.6671
 20
19.8874
 30
0.0
 10
134.9429
 20
13.9346
 30
0.0
 10
137.7794
 20
6.6361
 30
0.0
 10
137.2173
 20
-4.6862
 30
0.0
 10
137.2173
 20
-4.6862
 30
0.0
 10
136.865
 20
-11.7813
 30
0.0
 10
135.233
 20
-18.2878
 30
0.0
 10
130.4172
 20
-31.7977
 30
0.0
 10
130.4172
 20
-31.7977
 30
0.0
 10
129.697
 20
-33.8181
 30
0.0
 10
132.9706
 20
-29.3025
 30
0.0
 10
135.1018
 20
-25.3359
 30
0.0
 10
135.1018
 20
-25.3359
 30
0.0
 10
135.1018
 20
-25.3359
 30
0.0
 10
135.1014
 20
-25.3359
 30
0.0
 10
135.1014
 20
-25.3359
 30
0.0
  0
SPLINE
  5
56
330
1F
100
AcDbEntity
  8
layer 1
 62
     7
370
     9
100
AcDbSpline
210
0.0
220
0.0
230
1.0
 70
    11
 71
     3
 72
    56
 73
    52
 74
     0
 42
0.0000000001
 43
0.0000000001
 12
1.0
 22
0.0
 32
0.0
 13
1.0
 23
0.0
 33
0.0
 40
0.0
 40
0.0
 40
0.0
 40
0.0
 40
0.0714285714285714
 40
0.0714285714285714
 40
0.0714285714285714
 40
0.0714285714285714
 40
0.1428571428571428
 40
0.1428571428571428
 40
0.1428571428571428
 40
0.1428571428571428
 40
0.2142857142857143
 40
0.2142857142857143
 40
0.2142857142857143
 40
0.2142857142857143
 40
0.2857142857142857
 40
0.2857142857142857
 40
0.2857142857142857
 40
0.2857142857142857
 40
0.3571428571428572
 40
0.3571428571428572
 40
0.3571428571428572
 40
0.3571428571428572
 40
0.4285714285714285
 40
0.4285714285714285
 40
0.4285714285714285
 40
0.4285714285714285
 40
0.5
 40
0.5
 40
0.5
 40
0.5
 40
0.5714285714285714
 40
0.5714285714285714
 40
0.5714285714285714
 40
0.5714285714285714
 40
0.6428571428571429
 40
0.6428571428571429
 40
0.6428571428571429
 40
0.6428571428571429
 40
0.7142857142857143
 40
0.7142857142857143
 40
0.7142857142857143
 40
0.7142857142857143
 40
0.7857142857142857
 40
0.7857142857142857
 40
0.7857142857142857
 40
0.7857142857142857
 40
0.8571428571428571
 40
0.8571428571428571
 40
0.8571428571428571
 40
0.8571428571428571
 40
1.0
 40
1.0
 40
1.0
 40
1.0
 10
150.9738
 20
-21.2077
 30
0.0
 10
155.9411
 20
-18.7859
 30
0.0
 10
159.232
 20
-17.9812
 30
0.0
 10
164.1685
 20
-17.9812
 30
0.0
 10
164.1685
 20
-17.9812
 30
0.0
 10
166.8837
 20
-17.9812
 30
0.0
 10
167.693
 20
-17.7657
 30
0.0
 10
168.9008
 20
-16.7214
 30
0.0
 10
168.9008
 20
-16.7214
 30
0.0
 10
170.3043
 20
-15.5078
 30
0.0
 10
170.3521
 20
-15.306
 30
0.0
 10
170.2063
 20
-11.2132
 30
0.0
 10
170.2063
 20
-11.2132
 30
0.0
 10
170.0807
 20
-7.6886
 30
0.0
 10
170.2334
 20
-6.6749
 30
0.0
 10
171.1023
 20
-5.2631
 30
0.0
 10
171.1023
 20
-5.2631
 30
0.0
 10
173.0127
 20
-2.1591
 30
0.0
 10
176.6578
 20
-1.4268
 30
0.0
 10
179.0607
 20
-3.6643
 30
0.0
 10
179.0607
 20
-3.6643
 30
0.0
 10
180.92
 20
-5.3675
 30
0.0
 10
180.9637
 20
-8.164
 30
0.0
 10
179.893
 20
-10.2908
 30
0.0
 10
179.893
 20
-10.2908
 30
0.0
 10
179.2697
 20
-11.4641
 30
0.0
 10
180.4459
 20
-11.5192
 30
0.0
 10
182.5708
 20
-10.4157
 30
0.0
 10
182.5708
 20
-10.4157
 30
0.0
 10
184.3962
 20
-9.4678
 30
0.0
 10
185.1567
 20
-8.1715
 30
0.0
 10
185.1567
 20
-6.0069
 30
0.0
 10
185.1567
 20
-6.0069
 30
0.0
 10
185.1567
 20
0.7138
 30
0.0
 10
177.6944
 20
4.858
 30
0.0
 10
169.6656
 20
2.5961
 30
0.0
 10
169.6656
 20
2.5961
 30
0.0
 10
162.2007
 20
0.493
 30
0.0
 10
154.5964
 20
-7.36
 30
0.0
 10
147.5327
 20
-20.2606
 30
0.0
 10
147.5327
 20
-20.2606
 30
0.0
 10
146.4536
 20
-22.2314
 30
0.0
 10
145.7736
 20
-23.7445
 30
0.0
 10
146.0212
 20
-23.6231
 30
0.0
 10
146.0212
 20
-23.6231
 30
0.0
 10
146.269
 20
-23.5017
 30
0.0
 10
148.4976
 20
-22.4146
 30
0.0
 10
150.9738
 20
-21.2075
 30
0.0
 10
150.9738
 20
-21.2075
 30
0.0
 10
150.9738
 20
-21.2075
 30
0.0
 10
150.9738
 20
-21.2077
 30
0.0
 10
150.9738
 20
-21.2077
 30
0.0
  0
SPLINE
  5
57
330
1F
100
AcDbEntity
  8
layer 1
 62
     7
370
     9
100
AcDbSpline
210
0.0
220
0.0
230
1.0
 70
    11
 71
     3
 72
    72
 73
    68
 74
     0
 42
0.0000000001
 43
0.0000000001
 12
1.0
 22
0.0
 32
0.0
 13
1.0
 23
0.0
 33
0.0
 40
0.0
 40
0.0
 40
0.0
 40
0.0
 40
0.0555555555555556
 40
0.0555555555555556
 40
0.0555555555555556
 40
0.0555555555555556
 40
0.1111111111111111
 40
0.1111111111111111
 40
0.1111111111111111
 40
0.1111111111111111
 40
0.1666666666666667
 40
0.1666666666666667
 40
0.1666666666666667
 40
0.1666666666666667
 40
0.2222222222222222
 40
0.2222222222222222
 40
0.2222222222222222
 40
0.2222222222222222
 40
0.2777777777777778
 40
0.2777777777777778
 40
0.2777777777777778
 40
0.2777777777777778
 40
0.3333333333333333
 40
0.3333333333333333
 40
0.3333333333333333
 40
0.3333333333333333
 40
0.3888888888888889
 40
0.3888888888888889
 40
0.3888888888888889
 40
0.3888888888888889
 40
0.4444444444444444
 40
0.4444444444444444
 40
0.4444444444444444
 40
0.4444444444444444
 40
0.5
 40
0.5
 40
0.5
 40
0.5
 40
0.5555555555555556
 40
0.5555555555555556
 40
0.5555555555555556
 40
0.5555555555555556
 40
0.6111111111111112
 40
0.6111111111111112
 40
0.6111111111111112
 40
0.6111111111111112
 40
0.6666666666666666
 40
0.6666666666666666
 40
0.6666666666666666
 40
0.6666666666666666
 40
0.7222222222222222
 40
0.7222222222222222
 40
0.7222222222222222
 40
0.7222222222222222
 40
0.7777777777777778
 40
0.7777777777777778
 40
0.7777777777777778
 40
0.7777777777777778
 40
0.8333333333333334
 40
0.8333333333333334
 40
0.8333333333333334
 40
0.8333333333333334
 40
0.8888888888888888
 40
0.8888888888888888
 40
0.8888888888888888
 40
0.8888888888888888
 40
1.0
 40
1.0
 40
1.0
 40
1.0
 10
152.7846
 20
4.1819
 30
0.0
 10
156.1918
 20
16.5274
 30
0.0
 10
156.9328
 20
29.9431
 30
0.0
 10
154.4069
 20
36.8257
 30
0.0
 10
154.4069
 20
36.8257
 30
0.0
 10
151.7332
 20
44.1111
 30
0.0
 10
147.3573
 20
49.4378
 30
0.0
 10
141.7981
 20
52.1745
 30
0.0
 10
141.7981
 20
52.1745
 30
0.0
 10
133.7171
 20
55.6984
 30
0.0
 10
126.8196
 20
52.5632
 30
0.0
 10
121.8323
 20
49.69
 30
0.0
 10
121.8323
 20
49.69
 30
0.0
 10
119.0913
 20
48.1072
 30
0.0
 10
119.0421
 20
48.0396
 30
0.0
 10
120.2745
 20
47.5482
 30
0.0
 10
120.2745
 20
47.5482
 30
0.0
 10
122.2446
 20
46.7627
 30
0.0
 10
125.0154
 20
45.3887
 30
0.0
 10
126.836
 20
44.2944
 30
0.0
 10
126.836
 20
44.2944
 30
0.0
 10
129.0012
 20
42.993
 30
0.0
 10
129.3632
 20
43.4774
 30
0.0
 10
128.0781
 20
45.9552
 30
0.0
 10
128.0781
 20
45.9552
 30
0.0
 10
127.5025
 20
47.065
 30
0.0
 10
126.9658
 20
48.5596
 30
0.0
 10
126.8855
 20
49.2764
 30
0.0
 10
126.8855
 20
49.2764
 30
0.0
 10
126.7465
 20
50.5185
 30
0.0
 10
126.865
 20
50.579
 30
0.0
 10
129.402
 20
50.561
 30
0.0
 10
129.402
 20
50.561
 30
0.0
 10
133.9049
 20
50.5292
 30
0.0
 10
137.9728
 20
47.0107
 30
0.0
 10
138.7234
 20
42.4984
 30
0.0
 10
138.7234
 20
42.4984
 30
0.0
 10
139.2933
 20
39.0728
 30
0.0
 10
140.528
 20
35.1991
 30
0.0
 10
141.0499
 20
35.1991
 30
0.0
 10
141.0499
 20
35.1991
 30
0.0
 10
141.6112
 20
35.1991
 30
0.0
 10
141.6369
 20
35.2622
 30
0.0
 10
142.5936
 20
38.9792
 30
0.0
 10
142.5936
 20
38.9792
 30
0.0
 10
142.9441
 20
40.3412
 30
0.0
 10
143.5296
 20
41.4556
 30
0.0
 10
143.8944
 20
41.4556
 30
0.0
 10
143.8944
 20
41.4556
 30
0.0
 10
145.0992
 20
41.4556
 30
0.0
 10
149.2529
 20
36.2413
 30
0.0
 10
150.3119
 20
33.3993
 30
0.0
 10
150.3119
 20
33.3993
 30
0.0
 10
152.1235
 20
28.5377
 30
0.0
 10
152.6435
 20
22.4028
 30
0.0
 10
151.9459
 20
14.1234
 30
0.0
 10
151.9459
 20
14.1234
 30
0.0
 10
151.6057
 20
10.0867
 30
0.0
 10
150.9943
 20
5.0244
 30
0.0
 10
150.587
 20
2.8739
 30
0.0
 10
150.587
 20
2.8739
 30
0.0
 10
150.1797
 20
0.7231
 30
0.0
 10
149.8569
 20
-1.5057
 30
0.0
 10
149.8696
 20
-2.0793
 30
0.0
 10
149.8696
 20
-2.0793
 30
0.0
 10
149.8875
 20
-2.9006
 30
0.0
 10
150.757
 20
-3.6106
 30
0.0
 10
152.7846
 20
4.1819
 30
0.0
  0
SPLINE
  5
58
330
1F
100
AcDbEntity
  8
layer 1
 62
     7
370
     9
100
AcDbSpline
210
0.0
220
0.0
230
1.0
 70
    11
 71
     3
 72
   128
 73
   124
 74
     0
 42
0.0000000001
 43
0.0000000001
 12
1.0
 22
0.0
 32
0.0
 13
1.0
 23
0.0
 33
0.0
 40
0.0
 40
0.0
 40
0.0
 40
0.0
 40
0.03125
 40
0.03125
 40
0.03125
 40
0.03125
 40
0.0625
 40
0.0625
 40
0.0625
 40
0.0625
 40
0.09375
 40
0.09375
 40
0.09375
 40
0.09375
 40
0.125
 40
0.125
 40
0.125
 40
0.125
 40
0.15625
 40
0.15625
 40
0.15625
 40
0.15625
 40
0.1875
 40
0.1875
 40
0.1875
 40
0.1875
 40
0.21875
 40
0.21875
 40
0.21875
 40
0.21875
 40
0.25
 40
0.25
 40
0.25
 40
0.25
 40
0.28125
 40
0.28125
 40
0.28125
 40
0.28125
 40
0.3125
 40
0.3125
 40
0.3125
 40
0.3125
 40
0.34375
 40
0.34375
 40
0.34375
 40
0.34375
 40
0.375
 40
0.375
 40
0.375
 40
0.375
 40
0.40625
 40
0.40625
 40
0.40625
 40
0.40625
 40
0.4375
 40
0.4375
 40
0.4375
 40
0.4375
 40
0.46875
 40
0.46875
 40
0.46875
 40
0.46875
 40
0.5
 40
0.5
 40
0.5
 40
0.5
 40
0.53125
 40
0.53125
 40
0.53125
 40
0.53125
 40
0.5625
 40
0.5625
 40
0.5625
 40
0.5625
 40
0.59375
 40
0.59375
 40
0.59375
 40
0.59375
 40
0.625
 40
0.625
 40
0.625
 40
0.625
 40
0.65625
 40
0.65625
 40
0.65625
 40
0.65625
 40
0.6875
 40
0.6875
 40
0.6875
 40
0.6875
 40
0.71875
 40
0.71875
 40
0.71875
 40
0.71875
 40
0.75
 40
0.75
 40
0.75
 40
0.75
 40
0.78125
 40
0.78125
 40
0.78125
 40
0.78125
 40
0.8125
 40
0.8125
 40
0.8125
 40
0.8125
 40
0.84375
 40
0.84375
 40
0.84375
 40
0.84375
 40
0.875
 40
0.875
 40
0.875
 40
0.875
 40
0.90625
 40
0.90625
 40
0.90625
 40
0.90625
 40
0.9375
 40
0.9375
 40
0.9375
 40
0.9375
 40
1.0
 40
1.0
 40
1.0
 40
1.0
 10
91.0785
 20
-1.6689
 30
0.0
 10
91.3835
 20
-1.2998
 30
0.0
 10
91.8566
 20
0.8092
 30
0.0
 10
92.1296
 20
3.0181
 30
0.0
 10
92.1296
 20
3.0181
 30
0.0
 10
92.6055
 20
6.8674
 30
0.0
 10
93.909
 20
10.1341
 30
0.0
 10
95.1322
 20
10.5434
 30
0.0
 10
95.1322
 20
10.5434
 30
0.0
 10
95.4496
 20
10.6496
 30
0.0
 10
96.7931
 20
9.906
 30
0.0
 10
98.1176
 20
8.8907
 30
0.0
 10
98.1176
 20
8.8907
 30
0.0
 10
99.4422
 20
7.8754
 30
0.0
 10
100.6075
 20
7.045
 30
0.0
 10
100.7071
 20
7.045
 30
0.0
 10
100.7071
 20
7.045
 30
0.0
 10
100.8068
 20
7.045
 30
0.0
 10
101.0372
 20
8.4746
 30
0.0
 10
101.2189
 20
10.2218
 30
0.0
 10
101.2189
 20
10.2218
 30
0.0
 10
101.5866
 20
13.7537
 30
0.0
 10
103.0866
 20
17.6001
 30
0.0
 10
104.8261
 20
19.4708
 30
0.0
 10
104.8261
 20
19.4708
 30
0.0
 10
106.4488
 20
21.216
 30
0.0
 10
109.7908
 20
23.0689
 30
0.0
 10
112.0703
 20
23.4875
 30
0.0
 10
112.0703
 20
23.4875
 30
0.0
 10
113.1412
 20
23.6842
 30
0.0
 10
114.0176
 20
23.952
 30
0.0
 10
114.0176
 20
24.0826
 30
0.0
 10
114.0176
 20
24.0826
 30
0.0
 10
114.0176
 20
24.2131
 30
0.0
 10
113.4046
 20
25.1271
 30
0.0
 10
112.6552
 20
26.1133
 30
0.0
 10
112.6552
 20
26.1133
 30
0.0
 10
110.288
 20
29.2295
 30
0.0
 10
110.3289
 20
34.8588
 30
0.0
 10
112.74
 20
37.7357
 30
0.0
 10
112.74
 20
37.7357
 30
0.0
 10
113.4426
 20
38.5742
 30
0.0
 10
114.0176
 20
39.3962
 30
0.0
 10
114.0176
 20
39.5625
 30
0.0
 10
114.0176
 20
39.5625
 30
0.0
 10
114.0176
 20
39.7288
 30
0.0
 10
113.2582
 20
40.2497
 30
0.0
 10
112.33
 20
40.7199
 30
0.0
 10
112.33
 20
40.7199
 30
0.0
 10
110.3993
 20
41.698
 30
0.0
 10
107.7864
 20
44.0182
 30
0.0
 10
107.7864
 20
44.7544
 30
0.0
 10
107.7864
 20
44.7544
 30
0.0
 10
107.7864
 20
45.0276
 30
0.0
 10
108.1952
 20
45.585
 30
0.0
 10
108.6951
 20
45.9931
 30
0.0
 10
108.6951
 20
45.9931
 30
0.0
 10
109.195
 20
46.4012
 30
0.0
 10
109.3701
 20
46.8415
 30
0.0
 10
109.0847
 20
46.9715
 30
0.0
 10
109.0847
 20
46.9715
 30
0.0
 10
107.0958
 20
47.8771
 30
0.0
 10
107.0496
 20
48.113
 30
0.0
 10
108.4481
 20
50.2347
 30
0.0
 10
108.4481
 20
50.2347
 30
0.0
 10
109.2026
 20
51.3795
 30
0.0
 10
110.9183
 20
53.2159
 30
0.0
 10
112.2604
 20
54.3157
 30
0.0
 10
112.2604
 20
54.3157
 30
0.0
 10
116.0241
 20
57.3991
 30
0.0
 10
116.6139
 20
58.0586
 30
0.0
 10
116.6139
 20
59.1826
 30
0.0
 10
116.6139
 20
59.1826
 30
0.0
 10
116.6139
 20
59.9843
 30
0.0
 10
116.2676
 20
60.2253
 30
0.0
 10
115.1166
 20
60.2253
 30
0.0
 10
115.1166
 20
60.2253
 30
0.0
 10
113.3208
 20
60.2253
 30
0.0
 10
110.905
 20
57.7485
 30
0.0
 10
108.3814
 20
53.3195
 30
0.0
 10
108.3814
 20
53.3195
 30
0.0
 10
106.2234
 20
49.5325
 30
0.0
 10
102.7158
 20
46.4418
 30
0.0
 10
99.3073
 20
45.3239
 30
0.0
 10
99.3073
 20
45.3239
 30
0.0
 10
97.8307
 20
44.8397
 30
0.0
 10
96.5445
 20
44.3773
 30
0.0
 10
96.4493
 20
44.2965
 30
0.0
 10
96.4493
 20
44.2965
 30
0.0
 10
96.3542
 20
44.2157
 30
0.0
 10
97.4423
 20
43.0156
 30
0.0
 10
98.8675
 20
41.6295
 30
0.0
 10
98.8675
 20
41.6295
 30
0.0
 10
104.225
 20
36.4191
 30
0.0
 10
103.7166
 20
28.8833
 30
0.0
 10
97.6053
 20
22.9196
 30
0.0
 10
97.6053
 20
22.9196
 30
0.0
 10
94.2862
 20
19.6808
 30
0.0
 10
90.5898
 20
18.4036
 30
0.0
 10
84.5496
 20
18.409
 30
0.0
 10
84.5496
 20
18.409
 30
0.0
 10
81.9079
 20
18.4116
 30
0.0
 10
79.7466
 20
18.3673
 30
0.0
 10
79.7466
 20
18.3109
 30
0.0
 10
79.7466
 20
18.3109
 30
0.0
 10
79.7466
 20
18.2545
 30
0.0
 10
80.7196
 20
17.1629
 30
0.0
 10
81.9087
 20
15.8851
 30
0.0
 10
81.9087
 20
15.8851
 30
0.0
 10
84.9012
 20
12.6699
 30
0.0
 10
86.4162
 20
9.065
 30
0.0
 10
87.0791
 20
3.5831
 30
0.0
 10
87.0791
 20
3.5831
 30
0.0
 10
87.3863
 20
1.0422
 30
0.0
 10
87.8769
 20
-1.3298
 30
0.0
 10
88.1693
 20
-1.6882
 30
0.0
 10
88.1693
 20
-1.6882
 30
0.0
 10
88.8587
 20
-2.5331
 30
0.0
 10
90.3724
 20
-2.5231
 30
0.0
 10
91.0783
 20
-1.6691
 30
0.0
 10
91.0783
 20
-1.6691
 30
0.0
 10
91.0783
 20
-1.6691
 30
0.0
 10
91.0785
 20
-1.6689
 30
0.0
 10
91.0785
 20
-1.6689
 30
0.0
  0
SPLINE
  5
59
330
1F
100
AcDbEntity
  8
layer 1
 62
     7
370
     9
100
AcDbSpline
210
0.0
220
0.0
230
1.0
 70
    11
 71
     3
 72
    56
 73
    52
 74
     0
 42
0.0000000001
 43
0.0000000001
 12
1.0
 22
0.0
 32
0.0
 13
1.0
 23
0.0
 33
0.0
 40
0.0
 40
0.0
 40
0.0
 40
0.0
 40
0.0714285714285714
 40
0.0714285714285714
 40
0.0714285714285714
 40
0.0714285714285714
 40
0.1428571428571428
 40
0.1428571428571428
 40
0.1428571428571428
 40
0.1428571428571428
 40
0.2142857142857143
 40
0.2142857142857143
 40
0.2142857142857143
 40
0.2142857142857143
 40
0.2857142857142857
 40
0.2857142857142857
 40
0.2857142857142857
 40
0.2857142857142857
 40
0.3571428571428572
 40
0.3571428571428572
 40
0.3571428571428572
 40
0.3571428571428572
 40
0.4285714285714285
 40
0.4285714285714285
 40
0.4285714285714285
 40
0.4285714285714285
 40
0.5
 40
0.5
 40
0.5
 40
0.5
 40
0.5714285714285714
 40
0.5714285714285714
 40
0.5714285714285714
 40
0.5714285714285714
 40
0.6428571428571429
 40
0.6428571428571429
 40
0.6428571428571429
 40
0.6428571428571429
 40
0.7142857142857143
 40
0.7142857142857143
 40
0.7142857142857143
 40
0.7142857142857143
 40
0.7857142857142857
 40
0.7857142857142857
 40
0.7857142857142857
 40
0.7857142857142857
 40
0.8571428571428571
 40
0.8571428571428571
 40
0.8571428571428571
 40
0.8571428571428571
 40
1.0
 40
1.0
 40
1.0
 40
1.0
 10
191.0653
 20
49.1105
 30
0.0
 10
189.242
 20
43.8303
 30
0.0
 10
185.201
 20
41.2002
 30
0.0
 10
181.5215
 20
39.3839
 30
0.0
 10
181.5215
 20
39.3839
 30
0.0
 10
180.2363
 20
38.7678
 30
0.0
 10
178.6005
 20
37.9758
 30
0.0
 10
177.8866
 20
37.6239
 30
0.0
 10
177.8866
 20
37.6239
 30
0.0
 10
175.9356
 20
36.6623
 30
0.0
 10
176.2848
 20
35.239
 30
0.0
 10
178.9252
 20
33.3903
 30
0.0
 10
178.9252
 20
33.3903
 30
0.0
 10
181.587
 20
31.5265
 30
0.0
 10
183.0782
 20
28.9926
 30
0.0
 10
183.0765
 20
26.336
 30
0.0
 10
183.0765
 20
26.336
 30
0.0
 10
183.0749
 20
24.2362
 30
0.0
 10
181.6069
 20
21.544
 30
0.0
 10
179.8228
 20
20.3703
 30
0.0
 10
179.8228
 20
20.3703
 30
0.0
 10
178.4463
 20
19.4647
 30
0.0
 10
174.4945
 20
18.6245
 30
0.0
 10
173.0441
 20
18.9292
 30
0.0
 10
173.0441
 20
18.9292
 30
0.0
 10
172.1354
 20
19.12
 30
0.0
 10
172.1344
 20
19.1706
 30
0.0
 10
173.0182
 20
20.1511
 30
0.0
 10
173.0182
 20
20.1511
 30
0.0
 10
174.2225
 20
21.4872
 30
0.0
 10
174.201
 20
24.4306
 30
0.0
 10
172.9769
 20
25.7885
 30
0.0
 10
172.9769
 20
25.7885
 30
0.0
 10
171.6917
 20
27.2144
 30
0.0
 10
169.1462
 20
27.1629
 30
0.0
 10
166.9289
 20
25.6662
 30
0.0
 10
166.9289
 20
25.6662
 30
0.0
 10
164.3816
 20
23.9465
 30
0.0
 10
162.2725
 20
19.2713
 30
0.0
 10
160.2593
 20
10.8814
 30
0.0
 10
160.2593
 20
10.8814
 30
0.0
 10
159.3057
 20
6.9074
 30
0.0
 10
158.5559
 20
5.1548
 30
0.0
 10
157.9145
 20
1.9082
 30
0.0
 10
157.9145
 20
1.9082
 30
0.0
 10
167.0262
 20
14.8695
 30
0.0
 10
183.6972
 20
13.4602
 30
0.0
 10
191.0711
 20
2.2244
 30
0.0
 10
191.0711
 20
2.2244
 30
0.0
 10
191.0711
 20
2.2244
 30
0.0
 10
191.0653
 20
49.1105
 30
0.0
 10
191.0653
 20
49.1105
 30
0.0
  0
SPLINE
  5
5A
330
1F
100
AcDbEntity
  8
layer 1
 62
     7
370
     9
100
AcDbSpline
210
0.0
220
0.0
230
1.0
 70
    11
 71
     3
 72
    68
 73
    64
 74
     0
 42
0.0000000001
 43
0.0000000001
 12
1.0
 22
0.0
 32
0.0
 13
1.0
 23
0.0
 33
0.0
 40
0.0
 40
0.0
 40
0.0
 40
0.0
 40
0.0588235294117647
 40
0.0588235294117647
 40
0.0588235294117647
 40
0.0588235294117647
 40
0.1176470588235294
 40
0.1176470588235294
 40
0.1176470588235294
 40
0.1176470588235294
 40
0.1764705882352941
 40
0.1764705882352941
 40
0.1764705882352941
 40
0.1764705882352941
 40
0.2352941176470588
 40
0.2352941176470588
 40
0.2352941176470588
 40
0.2352941176470588
 40
0.2941176470588235
 40
0.2941176470588235
 40
0.2941176470588235
 40
0.2941176470588235
 40
0.3529411764705883
 40
0.3529411764705883
 40
0.3529411764705883
 40
0.3529411764705883
 40
0.4117647058823529
 40
0.4117647058823529
 40
0.4117647058823529
 40
0.4117647058823529
 40
0.4705882352941176
 40
0.4705882352941176
 40
0.4705882352941176
 40
0.4705882352941176
 40
0.5294117647058824
 40
0.5294117647058824
 40
0.5294117647058824
 40
0.5294117647058824
 40
0.5882352941176471
 40
0.5882352941176471
 40
0.5882352941176471
 40
0.5882352941176471
 40
0.6470588235294118
 40
0.6470588235294118
 40
0.6470588235294118
 40
0.6470588235294118
 40
0.7058823529411765
 40
0.7058823529411765
 40
0.7058823529411765
 40
0.7058823529411765
 40
0.7647058823529411
 40
0.7647058823529411
 40
0.7647058823529411
 40
0.7647058823529411
 40
0.8235294117647058
 40
0.8235294117647058
 40
0.8235294117647058
 40
0.8235294117647058
 40
0.8823529411764706
 40
0.8823529411764706
 40
0.8823529411764706
 40
0.8823529411764706
 40
1.0
 40
1.0
 40
1.0
 40
1.0
 10
90.6637
 20
26.927
 30
0.0
 10
93.2307
 20
28.3757
 30
0.0
 10
95.3244
 20
31.343
 30
0.0
 10
95.3244
 20
33.5328
 30
0.0
 10
95.3244
 20
33.5328
 30
0.0
 10
95.3244
 20
35.3809
 30
0.0
 10
95.0218
 20
35.5278
 30
0.0
 10
93.5376
 20
34.4005
 30
0.0
 10
93.5376
 20
34.4005
 30
0.0
 10
92.2438
 20
33.418
 30
0.0
 10
89.1168
 20
33.4157
 30
0.0
 10
87.7226
 20
34.3964
 30
0.0
 10
87.7226
 20
34.3964
 30
0.0
 10
85.9259
 20
35.6601
 30
0.0
 10
85.2098
 20
38.0447
 30
0.0
 10
85.9161
 20
40.4121
 30
0.0
 10
85.9161
 20
40.4121
 30
0.0
 10
86.5197
 20
42.4346
 30
0.0
 10
88.5939
 20
44.584
 30
0.0
 10
89.9423
 20
44.584
 30
0.0
 10
89.9423
 20
44.584
 30
0.0
 10
90.8976
 20
44.584
 30
0.0
 10
90.8549
 20
44.7575
 30
0.0
 10
89.3529
 20
46.9799
 30
0.0
 10
89.3529
 20
46.9799
 30
0.0
 10
88.639
 20
48.0363
 30
0.0
 10
88.0549
 20
49.3106
 30
0.0
 10
88.0549
 20
49.8118
 30
0.0
 10
88.0549
 20
49.8118
 30
0.0
 10
88.0549
 20
50.571
 30
0.0
 10
87.4604
 20
50.7566
 30
0.0
 10
84.4925
 20
50.925
 30
0.0
 10
84.4925
 20
50.925
 30
0.0
 10
79.7226
 20
51.1957
 30
0.0
 10
77.2887
 20
52.7805
 30
0.0
 10
75.2544
 20
56.9401
 30
0.0
 10
75.2544
 20
56.9401
 30
0.0
 10
73.9521
 20
59.6029
 30
0.0
 10
73.7753
 20
60.5411
 30
0.0
 10
73.7753
 20
64.7874
 30
0.0
 10
73.7753
 20
64.7874
 30
0.0
 10
73.7753
 20
69.9098
 30
0.0
 10
73.2919
 20
70.6104
 30
0.0
 10
72.0871
 20
67.2346
 30
0.0
 10
72.0871
 20
67.2346
 30
0.0
 10
71.1136
 20
64.5073
 30
0.0
 10
71.1411
 20
59.9025
 30
0.0
 10
72.1625
 20
54.5629
 30
0.0
 10
72.1625
 20
54.5629
 30
0.0
 10
72.6903
 20
51.8044
 30
0.0
 10
72.9981
 20
47.4014
 30
0.0
 10
73.0014
 20
42.5712
 30
0.0
 10
73.0014
 20
42.5712
 30
0.0
 10
73.0061
 20
35.6301
 30
0.0
 10
73.1186
 20
34.6968
 30
0.0
 10
74.2437
 20
32.2707
 30
0.0
 10
74.2437
 20
32.2707
 30
0.0
 10
77.0684
 20
26.1797
 30
0.0
 10
84.8512
 20
23.6468
 30
0.0
 10
90.6638
 20
26.927
 30
0.0
 10
90.6638
 20
26.927
 30
0.0
 10
90.6638
 20
26.927
 30
0.0
 10
90.6637
 20
26.927
 30
0.0
 10
90.6637
 20
26.927
 30
0.0
  0
SPLINE
  5
5B
330
1F
100
AcDbEntity
  8
layer 1
 62
     7
370
     9
100
AcDbSpline
210
0.0
220
0.0
230
1.0
 70
    11
 71
     3
 72
    32
 73
    28
 74
     0
 42
0.0000000001
 43
0.0000000001
 12
1.0
 22
0.0
 32
0.0
 13
1.0
 23
0.0
 33
0.0
 40
0.0
 40
0.0
 40
0.0
 40
0.0
 40
0.125
 40
0.125
 40
0.125
 40
0.125
 40
0.25
 40
0.25
 40
0.25
 40
0.25
 40
0.375
 40
0.375
 40
0.375
 40
0.375
 40
0.5
 40
0.5
 40
0.5
 40
0.5
 40
0.625
 40
0.625
 40
0.625
 40
0.625
 40
0.75
 40
0.75
 40
0.75
 40
0.75
 40
1.0
 40
1.0
 40
1.0
 40
1.0
 10
69.9581
 20
31.1586
 30
0.0
 10
68.6889
 20
34.2003
 30
0.0
 10
68.5967
 20
34.9722
 30
0.0
 10
68.5702
 20
42.7592
 30
0.0
 10
68.5702
 20
42.7592
 30
0.0
 10
68.5546
 20
47.3474
 30
0.0
 10
68.2126
 20
53.1501
 30
0.0
 10
67.8104
 20
55.6543
 30
0.0
 10
67.8104
 20
55.6543
 30
0.0
 10
67.099
 20
60.0827
 30
0.0
 10
67.3497
 20
63.9614
 30
0.0
 10
68.6747
 20
69.0282
 30
0.0
 10
68.6747
 20
69.0282
 30
0.0
 10
69.3022
 20
71.4278
 30
0.0
 10
67.6521
 20
69.8875
 30
0.0
 10
65.9122
 20
66.4496
 30
0.0
 10
65.9122
 20
66.4496
 30
0.0
 10
61.3486
 20
57.4321
 30
0.0
 10
61.2053
 20
43.72
 30
0.0
 10
65.5759
 20
34.2809
 30
0.0
 10
65.5759
 20
34.2809
 30
0.0
 10
66.8553
 20
31.5181
 30
0.0
 10
69.8119
 20
27.9001
 30
0.0
 10
70.7902
 20
27.9001
 30
0.0
 10
70.7902
 20
27.9001
 30
0.0
 10
71.0803
 20
27.9001
 30
0.0
 10
70.7058
 20
29.3664
 30
0.0
 10
69.9581
 20
31.1586
 30
0.0
  0
SPLINE
  5
5C
330
1F
100
AcDbEntity
  8
layer 1
 62
     7
370
     9
100
AcDbSpline
210
0.0
220
0.0
230
1.0
 70
    11
 71
     3
 72
    36
 73
    32
 74
     0
 42
0.0000000001
 43
0.0000000001
 12
1.0
 22
0.0
 32
0.0
 13
1.0
 23
0.0
 33
0.0
 40
0.0
 40
0.0
 40
0.0
 40
0.0
 40
0.1111111111111111
 40
0.1111111111111111
 40
0.1111111111111111
 40
0.1111111111111111
 40
0.2222222222222222
 40
0.2222222222222222
 40
0.2222222222222222
 40
0.2222222222222222
 40
0.3333333333333333
 40
0.3333333333333333
 40
0.3333333333333333
 40
0.3333333333333333
 40
0.4444444444444444
 40
0.4444444444444444
 40
0.4444444444444444
 40
0.4444444444444444
 40
0.5555555555555556
 40
0.5555555555555556
 40
0.5555555555555556
 40
0.5555555555555556
 40
0.6666666666666666
 40
0.6666666666666666
 40
0.6666666666666666
 40
0.6666666666666666
 40
0.7777777777777778
 40
0.7777777777777778
 40
0.7777777777777778
 40
0.7777777777777778
 40
1.0
 40
1.0
 40
1.0
 40
1.0
 10
162.7956
 20
33.8191
 30
0.0
 10
164.7467
 20
38.3898
 30
0.0
 10
167.7014
 20
40.805
 30
0.0
 10
173.7327
 20
42.7598
 30
0.0
 10
173.7327
 20
42.7598
 30
0.0
 10
177.5528
 20
43.9979
 30
0.0
 10
181.0413
 20
45.7901
 30
0.0
 10
182.2541
 20
47.1378
 30
0.0
 10
182.2541
 20
47.1378
 30
0.0
 10
183.5768
 20
48.6072
 30
0.0
 10
183.1071
 20
48.9302
 30
0.0
 10
180.9524
 20
48.0326
 30
0.0
 10
180.9524
 20
48.0326
 30
0.0
 10
179.9803
 20
47.6278
 30
0.0
 10
176.9248
 20
46.8175
 30
0.0
 10
174.1624
 20
46.2322
 30
0.0
 10
174.1624
 20
46.2322
 30
0.0
 10
166.2298
 20
44.551
 30
0.0
 10
161.8014
 20
41.7221
 30
0.0
 10
160.7056
 20
37.6354
 30
0.0
 10
160.7056
 20
37.6354
 30
0.0
 10
160.1209
 20
35.4552
 30
0.0
 10
160.5246
 20
31.5497
 30
0.0
 10
161.3347
 20
31.5497
 30
0.0
 10
161.3347
 20
31.5497
 30
0.0
 10
161.6053
 20
31.5497
 30
0.0
 10
162.2627
 20
32.571
 30
0.0
 10
162.7957
 20
33.8193
 30
0.0
 10
162.7957
 20
33.8193
 30
0.0
 10
162.7957
 20
33.8193
 30
0.0
 10
162.7956
 20
33.8191
 30
0.0
 10
162.7956
 20
33.8191
 30
0.0
  0
SPLINE
  5
5D
330
1F
100
AcDbEntity
  8
layer 1
 62
     7
370
     9
100
AcDbSpline
210
0.0
220
0.0
230
1.0
 70
    11
 71
     3
 72
    40
 73
    36
 74
     0
 42
0.0000000001
 43
0.0000000001
 12
1.0
 22
0.0
 32
0.0
 13
1.0
 23
0.0
 33
0.0
 40
0.0
 40
0.0
 40
0.0
 40
0.0
 40
0.1
 40
0.1
 40
0.1
 40
0.1
 40
0.2
 40
0.2
 40
0.2
 40
0.2
 40
0.3
 40
0.3
 40
0.3
 40
0.3
 40
0.4
 40
0.4
 40
0.4
 40
0.4
 40
0.5
 40
0.5
 40
0.5
 40
0.5
 40
0.6
 40
0.6
 40
0.6
 40
0.6
 40
0.7
 40
0.7
 40
0.7
 40
0.7
 40
0.8
 40
0.8
 40
0.8
 40
0.8
 40
1.0
 40
1.0
 40
1.0
 40
1.0
 10
37.8439
 20
36.2718
 30
0.0
 10
45.6122
 20
38.041
 30
0.0
 10
50.9807
 20
40.3467
 30
0.0
 10
54.01
 20
43.2155
 30
0.0
 10
54.01
 20
43.2155
 30
0.0
 10
55.643
 20
44.7618
 30
0.0
 10
56.8685
 20
47.3954
 30
0.0
 10
56.246
 20
48.0203
 30
0.0
 10
56.246
 20
48.0203
 30
0.0
 10
56.1039
 20
48.163
 30
0.0
 10
53.686
 20
46.8239
 30
0.0
 10
50.873
 20
45.0444
 30
0.0
 10
50.873
 20
45.0444
 30
0.0
 10
45.4322
 20
41.6026
 30
0.0
 10
41.1797
 20
39.72
 30
0.0
 10
34.0515
 20
37.5972
 30
0.0
 10
34.0515
 20
37.5972
 30
0.0
 10
31.2936
 20
36.7759
 30
0.0
 10
28.956
 20
35.7009
 30
0.0
 10
27.8203
 20
34.7317
 30
0.0
 10
27.8203
 20
34.7317
 30
0.0
 10
27.8203
 20
34.7317
 30
0.0
 10
26.0029
 20
33.1807
 30
0.0
 10
26.0029
 20
33.1807
 30
0.0
 10
26.0029
 20
33.1807
 30
0.0
 10
26.0029
 20
33.1807
 30
0.0
 10
28.3395
 20
33.9101
 30
0.0
 10
28.3395
 20
33.9101
 30
0.0
 10
28.3395
 20
33.9101
 30
0.0
 10
29.6247
 20
34.3111
 30
0.0
 10
33.9016
 20
35.374
 30
0.0
 10
37.8437
 20
36.2718
 30
0.0
 10
37.8437
 20
36.2718
 30
0.0
 10
37.8437
 20
36.2718
 30
0.0
 10
37.8439
 20
36.2718
 30
0.0
 10
37.8439
 20
36.2718
 30
0.0
  0
SPLINE
  5
5E
330
1F
100
AcDbEntity
  8
layer 1
 62
     7
370
     9
100
AcDbSpline
210
0.0
220
0.0
230
1.0
 70
    11
 71
     3
 72
    48
 73
    44
 74
     0
 42
0.0000000001
 43
0.0000000001
 12
1.0
 22
0.0
 32
0.0
 13
1.0
 23
0.0
 33
0.0
 40
0.0
 40
0.0
 40
0.0
 40
0.0
 40
0.0833333333333333
 40
0.0833333333333333
 40
0.0833333333333333
 40
0.0833333333333333
 40
0.1666666666666667
 40
0.1666666666666667
 40
0.1666666666666667
 40
0.1666666666666667
 40
0.25
 40
0.25
 40
0.25
 40
0.25
 40
0.3333333333333333
 40
0.3333333333333333
 40
0.3333333333333333
 40
0.3333333333333333
 40
0.4166666666666667
 40
0.4166666666666667
 40
0.4166666666666667
 40
0.4166666666666667
 40
0.5
 40
0.5
 40
0.5
 40
0.5
 40
0.5833333333333334
 40
0.5833333333333334
 40
0.5833333333333334
 40
0.5833333333333334
 40
0.6666666666666666
 40
0.6666666666666666
 40
0.6666666666666666
 40
0.6666666666666666
 40
0.75
 40
0.75
 40
0.75
 40
0.75
 40
0.8333333333333334
 40
0.8333333333333334
 40
0.8333333333333334
 40
0.8333333333333334
 40
1.0
 40
1.0
 40
1.0
 40
1.0
 10
20.9555
 20
37.3928
 30
0.0
 10
21.5205
 20
40.2675
 30
0.0
 10
28.8811
 20
42.1462
 30
0.0
 10
33.5323
 20
42.3624
 30
0.0
 10
33.5323
 20
42.3624
 30
0.0
 10
38.5407
 20
42.5954
 30
0.0
 10
40.6309
 20
43.2213
 30
0.0
 10
41.0731
 20
44.6203
 30
0.0
 10
41.0731
 20
44.6203
 30
0.0
 10
41.5585
 20
46.1565
 30
0.0
 10
40.4432
 20
47.613
 30
0.0
 10
37.7203
 20
48.9983
 30
0.0
 10
37.7203
 20
48.9983
 30
0.0
 10
36.3314
 20
49.705
 30
0.0
 10
34.465
 20
51.1709
 30
0.0
 10
33.5725
 20
52.2562
 30
0.0
 10
33.5725
 20
52.2562
 30
0.0
 10
31.9221
 20
54.263
 30
0.0
 10
29.9454
 20
59.4043
 30
0.0
 10
30.5794
 20
60.0409
 30
0.0
 10
30.5794
 20
60.0409
 30
0.0
 10
30.7711
 20
60.2333
 30
0.0
 10
32.2733
 20
60.4074
 30
0.0
 10
33.9176
 20
60.4281
 30
0.0
 10
33.9176
 20
60.4281
 30
0.0
 10
36.4905
 20
60.4603
 30
0.0
 10
37.5866
 20
60.1217
 30
0.0
 10
41.7771
 20
57.9993
 30
0.0
 10
41.7771
 20
57.9993
 30
0.0
 10
47.0582
 20
55.3243
 30
0.0
 10
49.1248
 20
54.996
 30
0.0
 10
52.0144
 20
56.3727
 30
0.0
 10
52.0144
 20
56.3727
 30
0.0
 10
57.1569
 20
59.8727
 30
0.0
 10
60.7276
 20
66.7986
 30
0.0
 10
61.8445
 20
72.1173
 30
0.0
 10
61.8445
 20
72.1173
 30
0.0
 10
50.2178
 20
62.0277
 30
0.0
 10
27.849
 20
57.404
 30
0.0
 10
21.0132
 20
72.9491
 30
0.0
 10
21.0132
 20
72.9491
 30
0.0
 10
21.0132
 20
72.9491
 30
0.0
 10
20.9555
 20
37.3928
 30
0.0
 10
20.9555
 20
37.3928
 30
0.0
  0
SPLINE
  5
5F
330
1F
100
AcDbEntity
  8
layer 1
 62
     7
370
     9
100
AcDbSpline
210
0.0
220
0.0
230
1.0
 70
    11
 71
     3
 72
    40
 73
    36
 74
     0
 42
0.0000000001
 43
0.0000000001
 12
1.0
 22
0.0
 32
0.0
 13
1.0
 23
0.0
 33
0.0
 40
0.0
 40
0.0
 40
0.0
 40
0.0
 40
0.1
 40
0.1
 40
0.1
 40
0.1
 40
0.2
 40
0.2
 40
0.2
 40
0.2
 40
0.3
 40
0.3
 40
0.3
 40
0.3
 40
0.4
 40
0.4
 40
0.4
 40
0.4
 40
0.5
 40
0.5
 40
0.5
 40
0.5
 40
0.6
 40
0.6
 40
0.6
 40
0.6
 40
0.7
 40
0.7
 40
0.7
 40
0.7
 40
0.8
 40
0.8
 40
0.8
 40
0.8
 40
1.0
 40
1.0
 40
1.0
 40
1.0
 10
163.4469
 20
63.9515
 30
0.0
 10
163.4469
 20
63.9515
 30
0.0
 10
167.1286
 20
67.4169
 30
0.0
 10
167.1286
 20
67.4169
 30
0.0
 10
167.1286
 20
67.4169
 30
0.0
 10
167.1286
 20
67.4169
 30
0.0
 10
165.7572
 20
70.1799
 30
0.0
 10
165.7572
 20
70.1799
 30
0.0
 10
165.7572
 20
70.1799
 30
0.0
 10
164.5707
 20
72.5709
 30
0.0
 10
163.9109
 20
75.8665
 30
0.0
 10
164.6188
 20
75.8665
 30
0.0
 10
164.6188
 20
75.8665
 30
0.0
 10
166.0306
 20
72.4696
 30
0.0
 10
170.0047
 20
72.2733
 30
0.0
 10
172.1748
 20
74.3024
 30
0.0
 10
172.1748
 20
74.3024
 30
0.0
 10
173.419
 20
75.5517
 30
0.0
 10
174.0359
 20
77.4222
 30
0.0
 10
172.9884
 20
79.456
 30
0.0
 10
172.9884
 20
79.456
 30
0.0
 10
169.5929
 20
83.5542
 30
0.0
 10
163.0995
 20
80.6813
 30
0.0
 10
160.1708
 20
77.6269
 30
0.0
 10
160.1708
 20
77.6269
 30
0.0
 10
154.5781
 20
71.4559
 30
0.0
 10
152.3996
 20
59.2731
 30
0.0
 10
155.3108
 20
50.4494
 30
0.0
 10
155.3108
 20
50.4494
 30
0.0
 10
155.7732
 20
49.0475
 30
0.0
 10
156.4788
 20
49.9148
 30
0.0
 10
156.7952
 20
52.2742
 30
0.0
 10
156.7952
 20
52.2742
 30
0.0
 10
158.0098
 20
58.0693
 30
0.0
 10
159.814
 20
60.5319
 30
0.0
 10
163.4469
 20
63.9515
 30
0.0
  0
SPLINE
  5
60
330
1F
100
AcDbEntity
  8
layer 1
 62
     7
370
     9
100
AcDbSpline
210
0.0
220
0.0
230
1.0
 70
    11
 71
     3
 72
    76
 73
    72
 74
     0
 42
0.0000000001
 43
0.0000000001
 12
1.0
 22
0.0
 32
0.0
 13
1.0
 23
0.0
 33
0.0
 40
0.0
 40
0.0
 40
0.0
 40
0.0
 40
0.0526315789473684
 40
0.0526315789473684
 40
0.0526315789473684
 40
0.0526315789473684
 40
0.1052631578947368
 40
0.1052631578947368
 40
0.1052631578947368
 40
0.1052631578947368
 40
0.1578947368421053
 40
0.1578947368421053
 40
0.1578947368421053
 40
0.1578947368421053
 40
0.2105263157894737
 40
0.2105263157894737
 40
0.2105263157894737
 40
0.2105263157894737
 40
0.2631578947368421
 40
0.2631578947368421
 40
0.2631578947368421
 40
0.2631578947368421
 40
0.3157894736842105
 40
0.3157894736842105
 40
0.3157894736842105
 40
0.3157894736842105
 40
0.3684210526315789
 40
0.3684210526315789
 40
0.3684210526315789
 40
0.3684210526315789
 40
0.4210526315789473
 40
0.4210526315789473
 40
0.4210526315789473
 40
0.4210526315789473
 40
0.4736842105263158
 40
0.4736842105263158
 40
0.4736842105263158
 40
0.4736842105263158
 40
0.5263157894736842
 40
0.5263157894736842
 40
0.5263157894736842
 40
0.5263157894736842
 40
0.5789473684210527
 40
0.5789473684210527
 40
0.5789473684210527
 40
0.5789473684210527
 40
0.631578947368421
 40
0.631578947368421
 40
0.631578947368421
 40
0.631578947368421
 40
0.6842105263157895
 40
0.6842105263157895
 40
0.6842105263157895
 40
0.6842105263157895
 40
0.7368421052631579
 40
0.7368421052631579
 40
0.7368421052631579
 40
0.7368421052631579
 40
0.7894736842105263
 40
0.7894736842105263
 40
0.7894736842105263
 40
0.7894736842105263
 40
0.8421052631578947
 40
0.8421052631578947
 40
0.8421052631578947
 40
0.8421052631578947
 40
0.8947368421052632
 40
0.8947368421052632
 40
0.8947368421052632
 40
0.8947368421052632
 40
1.0
 40
1.0
 40
1.0
 40
1.0
 10
96.1514
 20
51.0634
 30
0.0
 10
97.3553
 20
51.91
 30
0.0
 10
98.5317
 20
54.4513
 30
0.0
 10
99.7128
 20
58.7569
 30
0.0
 10
99.7128
 20
58.7569
 30
0.0
 10
100.7483
 20
62.5312
 30
0.0
 10
102.4848
 20
64.5842
 30
0.0
 10
106.2602
 20
66.4978
 30
0.0
 10
106.2602
 20
66.4978
 30
0.0
 10
109.5106
 20
68.1455
 30
0.0
 10
110.3324
 20
68.941
 30
0.0
 10
109.2242
 20
69.3678
 30
0.0
 10
109.2242
 20
69.3678
 30
0.0
 10
108.2278
 20
69.7517
 30
0.0
 10
104.4447
 20
68.3219
 30
0.0
 10
102.4557
 20
66.8095
 30
0.0
 10
102.4557
 20
66.8095
 30
0.0
 10
100.3677
 20
65.2218
 30
0.0
 10
95.9337
 20
63.738
 30
0.0
 10
93.956
 20
63.965
 30
0.0
 10
93.956
 20
63.965
 30
0.0
 10
92.5645
 20
64.1246
 30
0.0
 10
92.4782
 20
64.2706
 30
0.0
 10
92.6205
 20
66.2213
 30
0.0
 10
92.6205
 20
66.2213
 30
0.0
 10
93.1644
 20
73.6726
 30
0.0
 10
100.804
 20
79.7605
 30
0.0
 10
111.479
 20
81.2492
 30
0.0
 10
111.479
 20
81.2492
 30
0.0
 10
111.479
 20
81.2492
 30
0.0
 10
116.3542
 20
81.9292
 30
0.0
 10
116.3542
 20
81.9292
 30
0.0
 10
116.3542
 20
81.9292
 30
0.0
 10
116.3542
 20
81.9292
 30
0.0
 10
114.2771
 20
82.6021
 30
0.0
 10
114.2771
 20
82.6021
 30
0.0
 10
114.2771
 20
82.6021
 30
0.0
 10
99.6305
 20
85.9879
 30
0.0
 10
84.9491
 20
82.0219
 30
0.0
 10
79.2231
 20
70.9135
 30
0.0
 10
79.2231
 20
70.9135
 30
0.0
 10
77.5866
 20
67.5213
 30
0.0
 10
77.2196
 20
62.6107
 30
0.0
 10
78.4272
 20
60.2657
 30
0.0
 10
78.4272
 20
60.2657
 30
0.0
 10
79.3516
 20
58.4708
 30
0.0
 10
82.2341
 20
56.888
 30
0.0
 10
83.6117
 20
57.4186
 30
0.0
 10
83.6117
 20
57.4186
 30
0.0
 10
84.6469
 20
57.8176
 30
0.0
 10
84.6307
 20
57.9663
 30
0.0
 10
83.381
 20
59.5616
 30
0.0
 10
83.381
 20
59.5616
 30
0.0
 10
80.1047
 20
63.7438
 30
0.0
 10
85.868
 20
68.179
 30
0.0
 10
90.0203
 20
64.6709
 30
0.0
 10
90.0203
 20
64.6709
 30
0.0
 10
92.2783
 20
62.7631
 30
0.0
 10
93.0414
 20
59.5421
 30
0.0
 10
91.9424
 20
56.5579
 30
0.0
 10
91.9424
 20
56.5579
 30
0.0
 10
90.6194
 20
52.9657
 30
0.0
 10
90.4751
 20
51.942
 30
0.0
 10
91.1725
 20
51.0983
 30
0.0
 10
91.1725
 20
51.0983
 30
0.0
 10
91.989
 20
50.1104
 30
0.0
 10
94.7684
 20
50.091
 30
0.0
 10
96.1513
 20
51.0634
 30
0.0
 10
96.1513
 20
51.0634
 30
0.0
 10
96.1513
 20
51.0634
 30
0.0
 10
96.1514
 20
51.0634
 30
0.0
 10
96.1514
 20
51.0634
 30
0.0
  0
SPLINE
  5
61
330
1F
100
AcDbEntity
  8
layer 1
 62
     7
370
     9
100
AcDbSpline
210
0.0
220
0.0
230
1.0
 70
    11
 71
     3
 72
    24
 73
    20
 74
     0
 42
0.0000000001
 43
0.0000000001
 12
1.0
 22
0.0
 32
0.0
 13
1.0
 23
0.0
 33
0.0
 40
0.0
 40
0.0
 40
0.0
 40
0.0
 40
0.1666666666666667
 40
0.1666666666666667
 40
0.1666666666666667
 40
0.1666666666666667
 40
0.3333333333333333
 40
0.3333333333333333
 40
0.3333333333333333
 40
0.3333333333333333
 40
0.5
 40
0.5
 40
0.5
 40
0.5
 40
0.6666666666666666
 40
0.6666666666666666
 40
0.6666666666666666
 40
0.6666666666666666
 40
1.0
 40
1.0
 40
1.0
 40
1.0
 10
136.8652
 20
58.6681
 30
0.0
 10
141.8545
 20
58.705
 30
0.0
 10
139.5202
 20
59.7722
 30
0.0
 10
133.7246
 20
60.1039
 30
0.0
 10
133.7246
 20
60.1039
 30
0.0
 10
128.2923
 20
60.415
 30
0.0
 10
123.0619
 20
59.3121
 30
0.0
 10
119.8532
 20
57.1792
 30
0.0
 10
119.8532
 20
57.1792
 30
0.0
 10
117.9246
 20
55.8973
 30
0.0
 10
113.4986
 20
51.3518
 30
0.0
 10
113.4986
 20
50.6533
 30
0.0
 10
113.4986
 20
50.6533
 30
0.0
 10
113.4986
 20
50.085
 30
0.0
 10
115.9824
 20
50.6709
 30
0.0
 10
119.8653
 20
53.355
 30
0.0
 10
119.8653
 20
53.355
 30
0.0
 10
125.3047
 20
57.0242
 30
0.0
 10
130.2913
 20
58.6197
 30
0.0
 10
136.8652
 20
58.6681
 30
0.0
  0
SPLINE
  5
62
330
1F
100
AcDbEntity
  8
layer 1
 62
     7
370
     9
100
AcDbSpline
210
0.0
220
0.0
230
1.0
 70
    11
 71
     3
 72
    68
 73
    64
 74
     0
 42
0.0000000001
 43
0.0000000001
 12
1.0
 22
0.0
 32
0.0
 13
1.0
 23
0.0
 33
0.0
 40
0.0
 40
0.0
 40
0.0
 40
0.0
 40
0.0588235294117647
 40
0.0588235294117647
 40
0.0588235294117647
 40
0.0588235294117647
 40
0.1176470588235294
 40
0.1176470588235294
 40
0.1176470588235294
 40
0.1176470588235294
 40
0.1764705882352941
 40
0.1764705882352941
 40
0.1764705882352941
 40
0.1764705882352941
 40
0.2352941176470588
 40
0.2352941176470588
 40
0.2352941176470588
 40
0.2352941176470588
 40
0.2941176470588235
 40
0.2941176470588235
 40
0.2941176470588235
 40
0.2941176470588235
 40
0.3529411764705883
 40
0.3529411764705883
 40
0.3529411764705883
 40
0.3529411764705883
 40
0.4117647058823529
 40
0.4117647058823529
 40
0.4117647058823529
 40
0.4117647058823529
 40
0.4705882352941176
 40
0.4705882352941176
 40
0.4705882352941176
 40
0.4705882352941176
 40
0.5294117647058824
 40
0.5294117647058824
 40
0.5294117647058824
 40
0.5294117647058824
 40
0.5882352941176471
 40
0.5882352941176471
 40
0.5882352941176471
 40
0.5882352941176471
 40
0.6470588235294118
 40
0.6470588235294118
 40
0.6470588235294118
 40
0.6470588235294118
 40
0.7058823529411765
 40
0.7058823529411765
 40
0.7058823529411765
 40
0.7058823529411765
 40
0.7647058823529411
 40
0.7647058823529411
 40
0.7647058823529411
 40
0.7647058823529411
 40
0.8235294117647058
 40
0.8235294117647058
 40
0.8235294117647058
 40
0.8235294117647058
 40
0.8823529411764706
 40
0.8823529411764706
 40
0.8823529411764706
 40
0.8823529411764706
 40
1.0
 40
1.0
 40
1.0
 40
1.0
 10
174.844
 20
53.1868
 30
0.0
 10
178.3268
 20
54.8627
 30
0.0
 10
179.0248
 20
55.0116
 30
0.0
 10
183.3966
 20
55.0116
 30
0.0
 10
183.3966
 20
55.0116
 30
0.0
 10
188.9478
 20
55.0116
 30
0.0
 10
190.2868
 20
55.9992
 30
0.0
 10
191.0477
 20
59.2969
 30
0.0
 10
191.0477
 20
59.2969
 30
0.0
 10
191.0477
 20
59.2969
 30
0.0
 10
191.044
 20
89.8442
 30
0.0
 10
191.044
 20
89.8442
 30
0.0
 10
191.044
 20
89.8442
 30
0.0
 10
191.044
 20
89.8442
 30
0.0
 10
184.6372
 20
89.8421
 30
0.0
 10
184.6372
 20
89.8421
 30
0.0
 10
184.6372
 20
89.8421
 30
0.0
 10
178.9396
 20
89.8401
 30
0.0
 10
178.5391
 20
89.9332
 30
0.0
 10
175.9259
 20
88.5385
 30
0.0
 10
175.9259
 20
88.5385
 30
0.0
 10
173.8538
 20
87.4327
 30
0.0
 10
173.221
 20
86.8222
 30
0.0
 10
173.3296
 20
86.0336
 30
0.0
 10
173.3296
 20
86.0336
 30
0.0
 10
173.4551
 20
85.1214
 30
0.0
 10
173.9932
 20
84.9508
 30
0.0
 10
177.6271
 20
84.6715
 30
0.0
 10
177.6271
 20
84.6715
 30
0.0
 10
179.9119
 20
84.4958
 30
0.0
 10
182.6027
 20
84.0028
 30
0.0
 10
183.6068
 20
83.576
 30
0.0
 10
183.6068
 20
83.576
 30
0.0
 10
185.5506
 20
82.7497
 30
0.0
 10
188.7912
 20
79.4256
 30
0.0
 10
188.7912
 20
78.2581
 30
0.0
 10
188.7912
 20
78.2581
 30
0.0
 10
188.7912
 20
77.1019
 30
0.0
 10
185.6256
 20
76.1222
 30
0.0
 10
182.1707
 20
76.2088
 30
0.0
 10
182.1707
 20
76.2088
 30
0.0
 10
182.1707
 20
76.2088
 30
0.0
 10
178.9254
 20
76.2902
 30
0.0
 10
178.9254
 20
76.2902
 30
0.0
 10
178.9254
 20
76.2902
 30
0.0
 10
178.9254
 20
76.2902
 30
0.0
 10
178.9254
 20
73.9761
 30
0.0
 10
178.9254
 20
73.9761
 30
0.0
 10
178.9254
 20
73.9761
 30
0.0
 10
178.9254
 20
69.2946
 30
0.0
 10
176.4955
 20
66.4818
 30
0.0
 10
172.4512
 20
66.4818
 30
0.0
 10
172.4512
 20
66.4818
 30
0.0
 10
170.9274
 20
66.4818
 30
0.0
 10
171.0116
 20
66.7094
 30
0.0
 10
170.8779
 20
62.2307
 30
0.0
 10
170.8779
 20
62.2307
 30
0.0
 10
170.7978
 20
59.5434
 30
0.0
 10
170.464
 20
58.2299
 30
0.0
 10
169.3976
 20
56.4028
 30
0.0
 10
169.3976
 20
56.4028
 30
0.0
 10
166.3676
 20
51.2115
 30
0.0
 10
168.3305
 20
50.0526
 30
0.0
 10
174.844
 20
53.1868
 30
0.0
  0
SPLINE
  5
63
330
1F
100
AcDbEntity
  8
layer 1
 62
     7
370
     9
100
AcDbSpline
210
0.0
220
0.0
230
1.0
 70
    11
 71
     3
 72
    28
 73
    24
 74
     0
 42
0.0000000001
 43
0.0000000001
 12
1.0
 22
0.0
 32
0.0
 13
1.0
 23
0.0
 33
0.0
 40
0.0
 40
0.0
 40
0.0
 40
0.0
 40
0.1428571428571428
 40
0.1428571428571428
 40
0.1428571428571428
 40
0.1428571428571428
 40
0.2857142857142857
 40
0.2857142857142857
 40
0.2857142857142857
 40
0.2857142857142857
 40
0.4285714285714285
 40
0.4285714285714285
 40
0.4285714285714285
 40
0.4285714285714285
 40
0.5714285714285714
 40
0.5714285714285714
 40
0.5714285714285714
 40
0.5714285714285714
 40
0.7142857142857143
 40
0.7142857142857143
 40
0.7142857142857143
 40
0.7142857142857143
 40
1.0
 40
1.0
 40
1.0
 40
1.0
 10
126.7396
 20
65.2253
 30
0.0
 10
135.2369
 20
65.3524
 30
0.0
 10
135.1018
 20
65.3407
 30
0.0
 10
134.5026
 20
65.8975
 30
0.0
 10
134.5026
 20
65.8975
 30
0.0
 10
132.7998
 20
67.4799
 30
0.0
 10
124.0757
 20
68.7382
 30
0.0
 10
119.4083
 20
68.0744
 30
0.0
 10
119.4083
 20
68.0744
 30
0.0
 10
113.5358
 20
67.1645
 30
0.0
 10
105.133
 20
63.2854
 30
0.0
 10
103.1133
 20
55.3943
 30
0.0
 10
103.1133
 20
55.3943
 30
0.0
 10
103.1133
 20
55.2991
 30
0.0
 10
104.4871
 20
56.5624
 30
0.0
 10
106.1659
 20
58.2016
 30
0.0
 10
106.1659
 20
58.2016
 30
0.0
 10
107.8447
 20
59.8411
 30
0.0
 10
110.1371
 20
61.6528
 30
0.0
 10
111.2598
 20
62.228
 30
0.0
 10
111.2598
 20
62.228
 30
0.0
 10
116.3353
 20
64.7404
 30
0.0
 10
119.9267
 20
65.2294
 30
0.0
 10
126.7396
 20
65.2253
 30
0.0
  0
SPLINE
  5
64
330
1F
100
AcDbEntity
  8
layer 1
 62
     7
370
     9
100
AcDbSpline
210
0.0
220
0.0
230
1.0
 70
    11
 71
     3
 72
    52
 73
    48
 74
     0
 42
0.0000000001
 43
0.0000000001
 12
1.0
 22
0.0
 32
0.0
 13
1.0
 23
0.0
 33
0.0
 40
0.0
 40
0.0
 40
0.0
 40
0.0
 40
0.0769230769230769
 40
0.0769230769230769
 40
0.0769230769230769
 40
0.0769230769230769
 40
0.1538461538461539
 40
0.1538461538461539
 40
0.1538461538461539
 40
0.1538461538461539
 40
0.2307692307692308
 40
0.2307692307692308
 40
0.2307692307692308
 40
0.2307692307692308
 40
0.3076923076923077
 40
0.3076923076923077
 40
0.3076923076923077
 40
0.3076923076923077
 40
0.3846153846153846
 40
0.3846153846153846
 40
0.3846153846153846
 40
0.3846153846153846
 40
0.4615384615384616
 40
0.4615384615384616
 40
0.4615384615384616
 40
0.4615384615384616
 40
0.5384615384615384
 40
0.5384615384615384
 40
0.5384615384615384
 40
0.5384615384615384
 40
0.6153846153846154
 40
0.6153846153846154
 40
0.6153846153846154
 40
0.6153846153846154
 40
0.6923076923076923
 40
0.6923076923076923
 40
0.6923076923076923
 40
0.6923076923076923
 40
0.7692307692307693
 40
0.7692307692307693
 40
0.7692307692307693
 40
0.7692307692307693
 40
0.8461538461538461
 40
0.8461538461538461
 40
0.8461538461538461
 40
0.8461538461538461
 40
1.0
 40
1.0
 40
1.0
 40
1.0
 10
145.4047
 20
69.4798
 30
0.0
 10
143.9891
 20
74.1076
 30
0.0
 10
143.8716
 20
78.9802
 30
0.0
 10
145.0791
 20
82.9694
 30
0.0
 10
145.0791
 20
82.9694
 30
0.0
 10
145.6761
 20
84.9414
 30
0.0
 10
146.5006
 20
87.0153
 30
0.0
 10
146.911
 20
87.5781
 30
0.0
 10
146.911
 20
87.5781
 30
0.0
 10
147.5614
 20
88.4697
 30
0.0
 10
147.7698
 20
88.5073
 30
0.0
 10
148.5329
 20
87.8717
 30
0.0
 10
148.5329
 20
87.8717
 30
0.0
 10
149.0145
 20
87.4704
 30
0.0
 10
149.9741
 20
86.0213
 30
0.0
 10
150.6654
 20
84.6514
 30
0.0
 10
150.6654
 20
84.6514
 30
0.0
 10
152.7704
 20
80.4803
 30
0.0
 10
155.0731
 20
80.105
 30
0.0
 10
157.2114
 20
83.584
 30
0.0
 10
157.2114
 20
83.584
 30
0.0
 10
157.8632
 20
84.6446
 30
0.0
 10
159.1572
 20
86.3587
 30
0.0
 10
160.0869
 20
87.3933
 30
0.0
 10
160.0869
 20
87.3933
 30
0.0
 10
160.0869
 20
87.3933
 30
0.0
 10
162.7417
 20
89.9182
 30
0.0
 10
162.7417
 20
89.9182
 30
0.0
 10
162.7417
 20
89.9182
 30
0.0
 10
162.7417
 20
89.9182
 30
0.0
 10
112.5234
 20
89.822
 30
0.0
 10
112.5234
 20
89.822
 30
0.0
 10
112.5234
 20
89.822
 30
0.0
 10
126.2563
 20
86.2965
 30
0.0
 10
132.9043
 20
79.3266
 30
0.0
 10
139.2018
 20
72.9544
 30
0.0
 10
139.2018
 20
72.9544
 30
0.0
 10
142.3434
 20
69.7536
 30
0.0
 10
145.1946
 20
67.1052
 30
0.0
 10
145.5379
 20
67.0691
 30
0.0
 10
145.5379
 20
67.0691
 30
0.0
 10
146.0027
 20
67.0203
 30
0.0
 10
145.9686
 20
67.6361
 30
0.0
 10
145.4045
 20
69.48
 30
0.0
 10
145.4045
 20
69.48
 30
0.0
 10
145.4045
 20
69.48
 30
0.0
 10
145.4047
 20
69.4798
 30
0.0
 10
145.4047
 20
69.4798
 30
0.0
  0
SPLINE
  5
65
330
1F
100
AcDbEntity
  8
layer 1
 62
     7
370
     9
100
AcDbSpline
210
0.0
220
0.0
230
1.0
 70
    11
 71
     3
 72
    40
 73
    36
 74
     0
 42
0.0000000001
 43
0.0000000001
 12
1.0
 22
0.0
 32
0.0
 13
1.0
 23
0.0
 33
0.0
 40
0.0
 40
0.0
 40
0.0
 40
0.0
 40
0.1
 40
0.1
 40
0.1
 40
0.1
 40
0.2
 40
0.2
 40
0.2
 40
0.2
 40
0.3
 40
0.3
 40
0.3
 40
0.3
 40
0.4
 40
0.4
 40
0.4
 40
0.4
 40
0.5
 40
0.5
 40
0.5
 40
0.5
 40
0.6
 40
0.6
 40
0.6
 40
0.6
 40
0.7
 40
0.7
 40
0.7
 40
0.7
 40
0.8
 40
0.8
 40
0.8
 40
0.8
 40
1.0
 40
1.0
 40
1.0
 40
1.0
 10
86.5238
 20
89.886
 30
0.0
 10
86.5238
 20
89.886
 30
0.0
 10
21.0702
 20
89.9438
 30
0.0
 10
21.0702
 20
89.9438
 30
0.0
 10
21.0702
 20
89.9438
 30
0.0
 10
21.0702
 20
89.9438
 30
0.0
 10
20.8344
 20
79.3904
 30
0.0
 10
20.8344
 20
79.3904
 30
0.0
 10
20.8344
 20
79.3904
 30
0.0
 10
22.6419
 20
88.7363
 30
0.0
 10
31.8178
 20
90.4961
 30
0.0
 10
37.7022
 20
87.7278
 30
0.0
 10
37.7022
 20
87.7278
 30
0.0
 10
42.0804
 20
85.507
 30
0.0
 10
42.9623
 20
81.1602
 30
0.0
 10
41.1916
 20
77.4132
 30
0.0
 10
41.1916
 20
77.4132
 30
0.0
 10
37.9014
 20
72.6203
 30
0.0
 10
30.9198
 20
75.627
 30
0.0
 10
33.1159
 20
81.6017
 30
0.0
 10
33.1159
 20
81.6017
 30
0.0
 10
32.0964
 20
81.6017
 30
0.0
 10
30.4369
 20
79.8528
 30
0.0
 10
29.8967
 20
78.2093
 30
0.0
 10
29.8967
 20
78.2093
 30
0.0
 10
28.8326
 20
74.9716
 30
0.0
 10
30.2215
 20
72.0966
 30
0.0
 10
33.5329
 20
70.6824
 30
0.0
 10
33.5329
 20
70.6824
 30
0.0
 10
35.8337
 20
69.7
 30
0.0
 10
41.7215
 20
70.4443
 30
0.0
 10
47.7427
 20
72.4792
 30
0.0
 10
47.7427
 20
72.4792
 30
0.0
 10
61.0647
 20
77.6304
 30
0.0
 10
73.7452
 20
83.5214
 30
0.0
 10
86.5238
 20
89.886
 30
0.0
  0
SPLINE
  5
66
330
1F
100
AcDbEntity
  8
layer 1
 62
     7
370
     9
100
AcDbSpline
210
0.0
220
0.0
230
1.0
 70
    11
 71
     3
 72
    20
 73
    16
 74
     0
 42
0.0000000001
 43
0.0000000001
 12
1.0
 22
0.0
 32
0.0
 13
1.0
 23
0.0
 33
0.0
 40
0.0
 40
0.0
 40
0.0
 40
0.0
 40
0.2
 40
0.2
 40
0.2
 40
0.2
 40
0.4
 40
0.4
 40
0.4
 40
0.4
 40
0.6
 40
0.6
 40
0.6
 40
0.6
 40
1.0
 40
1.0
 40
1.0
 40
1.0
 10
102.9201
 20
71.4969
 30
0.0
 10
114.1562
 20
75.7024
 30
0.0
 10
124.0981
 20
74.6945
 30
0.0
 10
134.3987
 20
70.8938
 30
0.0
 10
134.3987
 20
70.8938
 30
0.0
 10
135.9551
 20
70.2902
 30
0.0
 10
135.4047
 20
71.0519
 30
0.0
 10
132.8938
 20
72.9768
 30
0.0
 10
132.8938
 20
72.9768
 30
0.0
 10
124.4217
 20
79.4722
 30
0.0
 10
108.0012
 20
78.9695
 30
0.0
 10
101.5948
 20
72.0186
 30
0.0
 10
101.5948
 20
72.0186
 30
0.0
 10
99.3395
 20
69.5715
 30
0.0
 10
101.1087
 20
70.8556
 30
0.0
 10
102.9201
 20
71.4969
 30
0.0
  0
ENDSEC
  0
SECTION
  2
OBJECTS
  0
DICTIONARY
  5
C
330
0
100
AcDbDictionary
281
     1
  3
ACAD_GROUP
350
D
  3
ACAD_IMAGE_DICT
350
42
  3
ACAD_LAYOUT
350
1A
  3
ACAD_MATERIAL
350
3B
  3
ACAD_MLEADERSTYLE
350
88
  3
ACAD_MLINESTYLE
350
17
  3
ACAD_PLOTSETTINGS
350
19
  3
ACAD_PLOTSTYLENAME
350
E
  3
ACAD_TABLESTYLE
350
87
  3
ACAD_VISUALSTYLE
350
2A
  0
IMAGEDEF_REACTOR
  5
45
330
44
100
AcDbRasterImageDefReactor
 90
        2
330
44
  0
DICTIONARY
  5
D
102
{ACAD_REACTORS
330
C
102
}
330
C
100
AcDbDictionary
281
     1
  0
DICTIONARY
  5
42
102
{ACAD_REACTORS
330
C
102
}
330
C
100
AcDbDictionary
281
     1
  3
Image #1
350
43
  0
DICTIONARY
  5
1A
102
{ACAD_REACTORS
330
C
102
}
330
C
100
AcDbDictionary
281
     1
  3
Layout1
350
1E
  3
Layout2
350
26
  3
Model
350
22
  0
DICTIONARY
  5
3B
102
{ACAD_REACTORS
330
C
102
}
330
C
100
AcDbDictionary
281
     1
  3
ByBlock
350
3D
  3
ByLayer
350
3C
  3
Global
350
3E
  0
DICTIONARY
  5
88
102
{ACAD_REACTORS
330
C
102
}
330
C
100
AcDbDictionary
281
     1
  0
DICTIONARY
  5
17
102
{ACAD_REACTORS
330
C
102
}
330
C
100
AcDbDictionary
281
     1
  3
Standard
350
18
  0
DICTIONARY
  5
19
102
{ACAD_REACTORS
330
C
102
}
330
C
100
AcDbDictionary
281
     1
  0
ACDBDICTIONARYWDFLT
  5
E
102
{ACAD_REACTORS
330
C
102
}
330
C
100
AcDbDictionary
281
     1
  3
Normal
350
F
100
AcDbDictionaryWithDefault
340
F
  0
DICTIONARY
  5
87
102
{ACAD_REACTORS
330
C
102
}
330
C
100
AcDbDictionary
281
     1
  0
DICTIONARY
  5
2A
102
{ACAD_REACTORS
330
C
102
}
330
C
100
AcDbDictionary
281
     1
  3
2dWireframe
350
2F
  3
3D Hidden
350
31
  3
3dWireframe
350
30
  3
Basic
350
32
  3
Brighten
350
36
  3
ColorChange
350
3A
  3
Conceptual
350
34
  3
Dim
350
35
  3
Facepattern
350
39
  3
Flat
350
2B
  3
FlatWithEdges
350
2C
  3
Gouraud
350
2D
  3
GouraudWithEdges
350
2E
  3
Linepattern
350
38
  3
Realistic
350
33
  3
Thicken
350
37
  0
IMAGEDEF
  5
43
102
{ACAD_REACTORS
330
42
330
45
102
}
330
42
100
AcDbRasterImageDef
 90
        0
  1
C:\Users\abdou\Desktop\New folder (4)\c12_ACD_0.jpg
 10
3384.0
 20
2142.0
 11
0.0002955082742316785
 21
0.0002955082742316785
280
     1
281
     5
  0
LAYOUT
  5
1E
102
{ACAD_REACTORS
330
1A
102
}
330
1A
100
AcDbPlotSettings
  1

  2
none_device
  4

  6

 40
0.0
 41
0.0
 42
0.0
 43
0.0
 44
0.0
 45
0.0
 46
0.0
 47
0.0
 48
0.0
 49
0.0
140
0.0
141
0.0
142
1.0
143
1.0
 70
   688
 72
     0
 73
     0
 74
     5
  7

 75
    16
 76
     0
 77
     2
 78
   300
147
1.0
148
0.0
149
0.0
100
AcDbLayout
  1
Layout1
 70
     1
 71
     1
 10
0.0
 20
0.0
 11
12.0
 21
9.0
 12
0.0
 22
0.0
 32
0.0
 14
1.000000000000000E+20
 24
1.000000000000000E+20
 34
1.000000000000000E+20
 15
-1.000000000000000E+20
 25
-1.000000000000000E+20
 35
-1.000000000000000E+20
146
0.0
 13
0.0
 23
0.0
 33
0.0
 16
1.0
 26
0.0
 36
0.0
 17
0.0
 27
1.0
 37
0.0
 76
     0
330
1B
  0
LAYOUT
  5
26
102
{ACAD_REACTORS
330
1A
102
}
330
1A
100
AcDbPlotSettings
  1

  2
none_device
  4

  6

 40
0.0
 41
0.0
 42
0.0
 43
0.0
 44
0.0
 45
0.0
 46
0.0
 47
0.0
 48
0.0
 49
0.0
140
0.0
141
0.0
142
1.0
143
1.0
 70
   688
 72
     0
 73
     0
 74
     5
  7

 75
    16
 76
     0
 77
     2
 78
   300
147
1.0
148
0.0
149
0.0
100
AcDbLayout
  1
Layout2
 70
     1
 71
     2
 10
0.0
 20
0.0
 11
0.0
 21
0.0
 12
0.0
 22
0.0
 32
0.0
 14
0.0
 24
0.0
 34
0.0
 15
0.0
 25
0.0
 35
0.0
146
0.0
 13
0.0
 23
0.0
 33
0.0
 16
1.0
 26
0.0
 36
0.0
 17
0.0
 27
1.0
 37
0.0
 76
     0
330
23
  0
LAYOUT
  5
22
102
{ACAD_REACTORS
330
1A
102
}
330
1A
100
AcDbPlotSettings
  1

  2
none_device
  4

  6

 40
0.0
 41
0.0
 42
0.0
 43
0.0
 44
0.0
 45
0.0
 46
0.0
 47
0.0
 48
0.0
 49
0.0
140
0.0
141
0.0
142
1.0
143
1.0
 70
  1712
 72
     0
 73
     0
 74
     0
  7

 75
     0
 76
     0
 77
     2
 78
   300
147
1.0
148
0.0
149
0.0
100
AcDbLayout
  1
Model
 70
     1
 71
     0
 10
0.0
 20
0.0
 11
12.0
 21
9.0
 12
0.0
 22
0.0
 32
0.0
 14
15.8219
 24
-85.3617
 34
0.0
 15
196.14
 25
94.9564
 35
0.0
146
0.0
 13
0.0
 23
0.0
 33
0.0
 16
1.0
 26
0.0
 36
0.0
 17
0.0
 27
1.0
 37
0.0
 76
     0
330
1F
331
29
  0
MATERIAL
  5
3D
102
{ACAD_REACTORS
330
3B
102
}
330
3B
100
AcDbMaterial
  1
ByBlock
 72
     1
 94
      127
  0
MATERIAL
  5
3C
102
{ACAD_REACTORS
330
3B
102
}
330
3B
100
AcDbMaterial
  1
ByLayer
 72
     1
 94
      127
  0
MATERIAL
  5
3E
102
{ACAD_REACTORS
330
3B
102
}
330
3B
100
AcDbMaterial
  1
Global
 72
     1
 94
      127
  0
MLINESTYLE
  5
18
102
{ACAD_REACTORS
330
17
102
}
330
17
100
AcDbMlineStyle
  2
Standard
 70
     0
  3

 62
   256
 51
90.0
 52
90.0
 71
     2
 49
0.5
 62
   256
  6
BYLAYER
 49
-0.5
 62
   256
  6
BYLAYER
  0
ACDBPLACEHOLDER
  5
F
102
{ACAD_REACTORS
330
E
102
}
330
E
  0
VISUALSTYLE
  5
2F
102
{ACAD_REACTORS
330
2A
102
}
102
{ACAD_XDICTIONARY
360
6F
102
}
330
2A
100
AcDbVisualStyle
  2
2dWireframe
 70
     4
 71
     0
 72
     2
 73
     0
 90
        0
 40
-0.6
 41
-30.0
 62
     5
 63
     7
421
 16777215
 74
     1
 91
        4
 64
     7
 65
   257
 75
     1
175
     1
 42
1.0
 92
        0
 66
   257
 43
1.0
 76
     1
 77
     6
 78
     2
 67
     7
 79
     5
170
     0
171
     0
290
     0
174
     0
 93
        1
 44
0.0
173
     0
291
     0
 45
0.0
  0
VISUALSTYLE
  5
31
102
{ACAD_REACTORS
330
2A
102
}
102
{ACAD_XDICTIONARY
360
73
102
}
330
2A
100
AcDbVisualStyle
  2
3D Hidden
 70
     6
 71
     1
 72
     2
 73
     2
 90
        0
 40
-0.6
 41
-30.0
 62
     5
 63
     7
421
 16777215
 74
     2
 91
        2
 64
     7
 65
   257
 75
     2
175
     1
 42
40.0
 92
        0
 66
   257
 43
1.0
 76
     1
 77
     6
 78
     2
 67
     7
 79
     3
170
     0
171
     0
290
     0
174
     0
 93
        1
 44
0.0
173
     0
291
     0
 45
0.0
  0
VISUALSTYLE
  5
30
102
{ACAD_REACTORS
330
2A
102
}
102
{ACAD_XDICTIONARY
360
71
102
}
330
2A
100
AcDbVisualStyle
  2
3dWireframe
 70
     5
 71
     0
 72
     2
 73
     0
 90
        0
 40
-0.6
 41
-30.0
 62
     5
 63
     7
421
 16777215
 74
     1
 91
        4
 64
     7
 65
   257
 75
     1
175
     1
 42
1.0
 92
        0
 66
   257
 43
1.0
 76
     1
 77
     6
 78
     2
 67
     7
 79
     5
170
     0
171
     0
290
     0
174
     0
 93
        1
 44
0.0
173
     0
291
     0
 45
0.0
  0
VISUALSTYLE
  5
32
102
{ACAD_REACTORS
330
2A
102
}
102
{ACAD_XDICTIONARY
360
75
102
}
330
2A
100
AcDbVisualStyle
  2
Basic
 70
     7
 71
     1
 72
     0
 73
     1
 90
        0
 40
-0.6
 41
-30.0
 62
     5
 63
     7
421
 16777215
 74
     0
 91
        4
 64
     7
 65
   257
 75
     1
175
     1
 42
1.0
 92
        8
 66
     7
 43
1.0
 76
     1
 77
     6
 78
     2
 67
     7
 79
     5
170
     0
171
     0
290
     0
174
     0
 93
        1
 44
0.0
173
     0
291
     1
 45
0.0
  0
VISUALSTYLE
  5
36
102
{ACAD_REACTORS
330
2A
102
}
102
{ACAD_XDICTIONARY
360
7D
102
}
330
2A
100
AcDbVisualStyle
  2
Brighten
 70
    12
 71
     2
 72
     2
 73
     0
 90
        0
 40
-0.6
 41
-30.0
 62
     5
 63
     7
421
 16777215
 74
     1
 91
        4
 64
     7
 65
   257
 75
     1
175
     1
 42
1.0
 92
        8
 66
     7
 43
1.0
 76
     1
 77
     6
 78
     2
 67
     7
 79
     5
170
     0
171
     0
290
     0
174
     0
 93
        1
 44
50.0
173
     0
291
     1
 45
0.0
  0
VISUALSTYLE
  5
3A
102
{ACAD_REACTORS
330
2A
102
}
102
{ACAD_XDICTIONARY
360
85
102
}
330
2A
100
AcDbVisualStyle
  2
ColorChange
 70
    16
 71
     2
 72
     2
 73
     3
 90
        0
 40
-0.6
 41
-30.0
 62
     5
 63
     8
421
  8421504
 74
     1
 91
        4
 64
     7
 65
   257
 75
     1
175
     1
 42
1.0
 92
        8
 66
     8
424
  8421504
 43
1.0
 76
     1
 77
     6
 78
     2
 67
     7
 79
     5
170
     0
171
     0
290
     0
174
     0
 93
        1
 44
0.0
173
     0
291
     1
 45
0.0
  0
VISUALSTYLE
  5
34
102
{ACAD_REACTORS
330
2A
102
}
102
{ACAD_XDICTIONARY
360
79
102
}
330
2A
100
AcDbVisualStyle
  2
Conceptual
 70
     9
 71
     3
 72
     2
 73
     0
 90
        0
 40
-0.6
 41
-30.0
 62
     5
 63
     7
421
 16777215
 74
     2
 91
        2
 64
     7
 65
   257
 75
     1
175
     1
 42
40.0
 92
        8
 66
     7
 43
1.0
 76
     1
 77
     6
 78
     2
 67
     7
 79
     3
170
     0
171
     0
290
     0
174
     0
 93
        1
 44
0.0
173
     0
291
     0
 45
0.0
  0
VISUALSTYLE
  5
35
102
{ACAD_REACTORS
330
2A
102
}
102
{ACAD_XDICTIONARY
360
7B
102
}
330
2A
100
AcDbVisualStyle
  2
Dim
 70
    11
 71
     2
 72
     2
 73
     0
 90
        0
 40
-0.6
 41
-30.0
 62
     5
 63
     7
421
 16777215
 74
     1
 91
        4
 64
     7
 65
   257
 75
     1
175
     1
 42
1.0
 92
        8
 66
     7
 43
1.0
 76
     1
 77
     6
 78
     2
 67
     7
 79
     5
170
     0
171
     0
290
     0
174
     0
 93
        1
 44
-50.0
173
     0
291
     1
 45
0.0
  0
VISUALSTYLE
  5
39
102
{ACAD_REACTORS
330
2A
102
}
102
{ACAD_XDICTIONARY
360
83
102
}
330
2A
100
AcDbVisualStyle
  2
Facepattern
 70
    15
 71
     2
 72
     2
 73
     0
 90
        0
 40
-0.6
 41
-30.0
 62
     5
 63
     7
421
 16777215
 74
     1
 91
        4
 64
     7
 65
   257
 75
     1
175
     1
 42
1.0
 92
        8
 66
     7
 43
1.0
 76
     1
 77
     6
 78
     2
 67
     7
 79
     5
170
     0
171
     0
290
     0
174
     0
 93
        1
 44
0.0
173
     0
291
     1
 45
0.0
  0
VISUALSTYLE
  5
2B
102
{ACAD_REACTORS
330
2A
102
}
102
{ACAD_XDICTIONARY
360
67
102
}
330
2A
100
AcDbVisualStyle
  2
Flat
 70
     0
 71
     2
 72
     1
 73
     1
 90
        2
 40
-0.6
 41
30.0
 62
     5
 63
     7
421
 16777215
 74
     0
 91
        4
 64
     7
 65
   257
 75
     1
175
     1
 42
1.0
 92
        8
 66
     7
 43
1.0
 76
     1
 77
     6
 78
     2
 67
     7
 79
     5
170
     0
171
     0
290
     0
174
     0
 93
       13
 44
0.0
173
     0
291
     1
 45
0.0
  0
VISUALSTYLE
  5
2C
102
{ACAD_REACTORS
330
2A
102
}
102
{ACAD_XDICTIONARY
360
69
102
}
330
2A
100
AcDbVisualStyle
  2
FlatWithEdges
 70
     1
 71
     2
 72
     1
 73
     1
 90
        2
 40
-0.6
 41
30.0
 62
     5
 63
     7
421
 16777215
 74
     1
 91
        4
 64
     7
 65
   257
 75
     1
175
     1
 42
1.0
 92
        0
 66
   257
 43
1.0
 76
     1
 77
     6
 78
     2
 67
     7
 79
     5
170
     0
171
     0
290
     0
174
     0
 93
       13
 44
0.0
173
     0
291
     1
 45
0.0
  0
VISUALSTYLE
  5
2D
102
{ACAD_REACTORS
330
2A
102
}
102
{ACAD_XDICTIONARY
360
6B
102
}
330
2A
100
AcDbVisualStyle
  2
Gouraud
 70
     2
 71
     2
 72
     2
 73
     1
 90
        2
 40
-0.6
 41
30.0
 62
     5
 63
     7
421
 16777215
 74
     0
 91
        4
 64
     7
 65
   257
 75
     1
175
     1
 42
1.0
 92
        0
 66
     7
 43
1.0
 76
     1
 77
     6
 78
     2
 67
     7
 79
     5
170
     0
171
     0
290
     0
174
     0
 93
       13
 44
0.0
173
     0
291
     1
 45
0.0
  0
VISUALSTYLE
  5
2E
102
{ACAD_REACTORS
330
2A
102
}
102
{ACAD_XDICTIONARY
360
6D
102
}
330
2A
100
AcDbVisualStyle
  2
GouraudWithEdges
 70
     3
 71
     2
 72
     2
 73
     1
 90
        2
 40
-0.6
 41
30.0
 62
     5
 63
     7
421
 16777215
 74
     1
 91
        4
 64
     7
 65
   257
 75
     1
175
     1
 42
1.0
 92
        0
 66
   257
 43
1.0
 76
     1
 77
     6
 78
     2
 67
     7
 79
     5
170
     0
171
     0
290
     0
174
     0
 93
       13
 44
0.0
173
     0
291
     1
 45
0.0
  0
VISUALSTYLE
  5
38
102
{ACAD_REACTORS
330
2A
102
}
102
{ACAD_XDICTIONARY
360
81
102
}
330
2A
100
AcDbVisualStyle
  2
Linepattern
 70
    14
 71
     2
 72
     2
 73
     0
 90
        0
 40
-0.6
 41
-30.0
 62
     5
 63
     7
421
 16777215
 74
     1
 91
        4
 64
     7
 65
   257
 75
     7
175
     7
 42
1.0
 92
        8
 66
     7
 43
1.0
 76
     1
 77
     6
 78
     2
 67
     7
 79
     5
170
     0
171
     0
290
     0
174
     0
 93
        1
 44
0.0
173
     0
291
     1
 45
0.0
  0
VISUALSTYLE
  5
33
102
{ACAD_REACTORS
330
2A
102
}
102
{ACAD_XDICTIONARY
360
77
102
}
330
2A
100
AcDbVisualStyle
  2
Realistic
 70
     8
 71
     2
 72
     2
 73
     0
 90
        0
 40
-0.6
 41
-30.0
 62
     5
 63
     7
421
 16777215
 74
     1
 91
        0
 64
     7
 65
   257
 75
     1
175
     1
 42
1.0
 92
        8
 66
     8
424
  7895160
 43
1.0
 76
     1
 77
     6
 78
     2
 67
     7
 79
     5
170
     0
171
     0
290
     0
174
     0
 93
       13
 44
0.0
173
     0
291
     0
 45
0.0
  0
VISUALSTYLE
  5
37
102
{ACAD_REACTORS
330
2A
102
}
102
{ACAD_XDICTIONARY
360
7F
102
}
330
2A
100
AcDbVisualStyle
  2
Thicken
 70
    13
 71
     2
 72
     2
 73
     0
 90
        0
 40
-0.6
 41
-30.0
 62
     5
 63
     7
421
 16777215
 74
     1
 91
        4
 64
     7
 65
   257
 75
     1
175
     1
 42
1.0
 92
       12
 66
     7
 43
1.0
 76
     1
 77
     6
 78
     2
 67
     7
 79
     5
170
     0
171
     0
290
     0
174
     0
 93
        1
 44
0.0
173
     0
291
     1
 45
0.0
  0
DICTIONARY
  5
6F
330
2F
100
AcDbDictionary
280
     1
281
     1
  3
ACAD_XREC_ROUNDTRIP
360
70
  0
DICTIONARY
  5
73
330
31
100
AcDbDictionary
280
     1
281
     1
  3
ACAD_XREC_ROUNDTRIP
360
74
  0
DICTIONARY
  5
71
330
30
100
AcDbDictionary
280
     1
281
     1
  3
ACAD_XREC_ROUNDTRIP
360
72
  0
DICTIONARY
  5
75
330
32
100
AcDbDictionary
280
     1
281
     1
  3
ACAD_XREC_ROUNDTRIP
360
76
  0
DICTIONARY
  5
7D
330
36
100
AcDbDictionary
280
     1
281
     1
  3
ACAD_XREC_ROUNDTRIP
360
7E
  0
DICTIONARY
  5
85
330
3A
100
AcDbDictionary
280
     1
281
     1
  3
ACAD_XREC_ROUNDTRIP
360
86
  0
DICTIONARY
  5
79
330
34
100
AcDbDictionary
280
     1
281
     1
  3
ACAD_XREC_ROUNDTRIP
360
7A
  0
DICTIONARY
  5
7B
330
35
100
AcDbDictionary
280
     1
281
     1
  3
ACAD_XREC_ROUNDTRIP
360
7C
  0
DICTIONARY
  5
83
330
39
100
AcDbDictionary
280
     1
281
     1
  3
ACAD_XREC_ROUNDTRIP
360
84
  0
DICTIONARY
  5
67
330
2B
100
AcDbDictionary
280
     1
281
     1
  3
ACAD_XREC_ROUNDTRIP
360
68
  0
DICTIONARY
  5
69
330
2C
100
AcDbDictionary
280
     1
281
     1
  3
ACAD_XREC_ROUNDTRIP
360
6A
  0
DICTIONARY
  5
6B
330
2D
100
AcDbDictionary
280
     1
281
     1
  3
ACAD_XREC_ROUNDTRIP
360
6C
  0
DICTIONARY
  5
6D
330
2E
100
AcDbDictionary
280
     1
281
     1
  3
ACAD_XREC_ROUNDTRIP
360
6E
  0
DICTIONARY
  5
81
330
38
100
AcDbDictionary
280
     1
281
     1
  3
ACAD_XREC_ROUNDTRIP
360
82
  0
DICTIONARY
  5
77
330
33
100
AcDbDictionary
280
     1
281
     1
  3
ACAD_XREC_ROUNDTRIP
360
78
  0
DICTIONARY
  5
7F
330
37
100
AcDbDictionary
280
     1
281
     1
  3
ACAD_XREC_ROUNDTRIP
360
80
  0
XRECORD
  5
70
102
{ACAD_REACTORS
330
6F
102
}
330
6F
100
AcDbXrecord
280
     1
102
RTVSPropertyOp0
 70
     1
102
RTVSPropertyOp1
 70
     1
102
RTVSPropertyOp2
 70
     1
102
RTVSPropertyOp3
 70
     1
102
RTVSPropertyOp4
 70
     1
102
RTVSPropertyOp5
 70
     1
102
RTVSPropertyOp6
 70
     1
102
RTVSPropertyOp7
 70
     1
102
RTVSPropertyOp8
 70
     1
102
RTVSPropertyOp9
 70
     1
102
RTVSPropertyOp10
 70
     1
102
RTVSPropertyOp11
 70
     1
102
RTVSPropertyOp12
 70
     1
102
RTVSPropertyOp13
 70
     1
102
RTVSPropertyOp14
 70
     1
102
RTVSPropertyOp15
 70
     1
102
RTVSPropertyOp16
 70
     1
102
RTVSPropertyOp17
 70
     1
102
RTVSPropertyOp18
 70
     1
102
RTVSPropertyOp19
 70
     1
102
RTVSPropertyOp20
 70
     1
102
RTVSPropertyOp21
 70
     1
102
RTVSPropertyOp22
 70
     1
102
RTVSPropertyOp23
 70
     1
102
RTVSPropertyOp24
 70
     1
102
RTVSPropertyOp25
 70
     1
102
RTVSPropertyOp26
 70
     1
102
RTVSPropertyOp27
 70
     1
102
RTVSPropertyOp28
 70
     1
102
RTVSPropertyOp29
 70
     1
102
RTVSPropertyOp30
 70
     1
102
RTVSPropertyOp31
 70
     1
102
RTVSPropertyOp32
 70
     1
  0
XRECORD
  5
74
102
{ACAD_REACTORS
330
73
102
}
330
73
100
AcDbXrecord
280
     1
102
RTVSPropertyOp0
 70
     1
102
RTVSPropertyOp1
 70
     1
102
RTVSPropertyOp2
 70
     1
102
RTVSPropertyOp3
 70
     1
102
RTVSPropertyOp4
 70
     1
102
RTVSPropertyOp5
 70
     1
102
RTVSPropertyOp6
 70
     1
102
RTVSPropertyOp7
 70
     1
102
RTVSPropertyOp8
 70
     1
102
RTVSPropertyOp9
 70
     1
102
RTVSPropertyOp10
 70
     1
102
RTVSPropertyOp11
 70
     1
102
RTVSPropertyOp12
 70
     1
102
RTVSPropertyOp13
 70
     1
102
RTVSPropertyOp14
 70
     1
102
RTVSPropertyOp15
 70
     1
102
RTVSPropertyOp16
 70
     1
102
RTVSPropertyOp17
 70
     1
102
RTVSPropertyOp18
 70
     1
102
RTVSPropertyOp19
 70
     1
102
RTVSPropertyOp20
 70
     1
102
RTVSPropertyOp21
 70
     1
102
RTVSPropertyOp22
 70
     1
102
RTVSPropertyOp23
 70
     1
102
RTVSPropertyOp24
 70
     1
102
RTVSPropertyOp25
 70
     1
102
RTVSPropertyOp26
 70
     1
102
RTVSPropertyOp27
 70
     1
102
RTVSPropertyOp28
 70
     1
102
RTVSPropertyOp29
 70
     1
102
RTVSPropertyOp30
 70
     1
102
RTVSPropertyOp31
 70
     1
102
RTVSPropertyOp32
 70
     1
  0
XRECORD
  5
72
102
{ACAD_REACTORS
330
71
102
}
330
71
100
AcDbXrecord
280
     1
102
RTVSPropertyOp0
 70
     1
102
RTVSPropertyOp1
 70
     1
102
RTVSPropertyOp2
 70
     1
102
RTVSPropertyOp3
 70
     1
102
RTVSPropertyOp4
 70
     1
102
RTVSPropertyOp5
 70
     1
102
RTVSPropertyOp6
 70
     1
102
RTVSPropertyOp7
 70
     1
102
RTVSPropertyOp8
 70
     1
102
RTVSPropertyOp9
 70
     1
102
RTVSPropertyOp10
 70
     1
102
RTVSPropertyOp11
 70
     1
102
RTVSPropertyOp12
 70
     1
102
RTVSPropertyOp13
 70
     1
102
RTVSPropertyOp14
 70
     1
102
RTVSPropertyOp15
 70
     1
102
RTVSPropertyOp16
 70
     1
102
RTVSPropertyOp17
 70
     1
102
RTVSPropertyOp18
 70
     1
102
RTVSPropertyOp19
 70
     1
102
RTVSPropertyOp20
 70
     1
102
RTVSPropertyOp21
 70
     1
102
RTVSPropertyOp22
 70
     1
102
RTVSPropertyOp23
 70
     1
102
RTVSPropertyOp24
 70
     1
102
RTVSPropertyOp25
 70
     1
102
RTVSPropertyOp26
 70
     1
102
RTVSPropertyOp27
 70
     1
102
RTVSPropertyOp28
 70
     1
102
RTVSPropertyOp29
 70
     1
102
RTVSPropertyOp30
 70
     1
102
RTVSPropertyOp31
 70
     1
102
RTVSPropertyOp32
 70
     1
  0
XRECORD
  5
76
102
{ACAD_REACTORS
330
75
102
}
330
75
100
AcDbXrecord
280
     1
102
RTVSPropertyOp0
 70
     1
102
RTVSPropertyOp1
 70
     1
102
RTVSPropertyOp2
 70
     1
102
RTVSPropertyOp3
 70
     1
102
RTVSPropertyOp4
 70
     1
102
RTVSPropertyOp5
 70
     1
102
RTVSPropertyOp6
 70
     1
102
RTVSPropertyOp7
 70
     1
102
RTVSPropertyOp8
 70
     1
102
RTVSPropertyOp9
 70
     1
102
RTVSPropertyOp10
 70
     1
102
RTVSPropertyOp11
 70
     1
102
RTVSPropertyOp12
 70
     1
102
RTVSPropertyOp13
 70
     1
102
RTVSPropertyOp14
 70
     1
102
RTVSPropertyOp15
 70
     1
102
RTVSPropertyOp16
 70
     1
102
RTVSPropertyOp17
 70
     1
102
RTVSPropertyOp18
 70
     1
102
RTVSPropertyOp19
 70
     1
102
RTVSPropertyOp20
 70
     1
102
RTVSPropertyOp21
 70
     1
102
RTVSPropertyOp22
 70
     1
102
RTVSPropertyOp23
 70
     1
102
RTVSPropertyOp24
 70
     1
102
RTVSPropertyOp25
 70
     1
102
RTVSPropertyOp26
 70
     1
102
RTVSPropertyOp27
 70
     1
102
RTVSPropertyOp28
 70
     1
102
RTVSPropertyOp29
 70
     1
102
RTVSPropertyOp30
 70
     1
102
RTVSPropertyOp31
 70
     1
102
RTVSPropertyOp32
 70
     1
  0
XRECORD
  5
7E
102
{ACAD_REACTORS
330
7D
102
}
330
7D
100
AcDbXrecord
280
     1
102
RTVSPropertyOp0
 70
     1
102
RTVSPropertyOp1
 70
     1
102
RTVSPropertyOp2
 70
     1
102
RTVSPropertyOp3
 70
     1
102
RTVSPropertyOp4
 70
     1
102
RTVSPropertyOp5
 70
     1
102
RTVSPropertyOp6
 70
     1
102
RTVSPropertyOp7
 70
     1
102
RTVSPropertyOp8
 70
     1
102
RTVSPropertyOp9
 70
     1
102
RTVSPropertyOp10
 70
     1
102
RTVSPropertyOp11
 70
     1
102
RTVSPropertyOp12
 70
     1
102
RTVSPropertyOp13
 70
     1
102
RTVSPropertyOp14
 70
     1
102
RTVSPropertyOp15
 70
     1
102
RTVSPropertyOp16
 70
     1
102
RTVSPropertyOp17
 70
     1
102
RTVSPropertyOp18
 70
     1
102
RTVSPropertyOp19
 70
     1
102
RTVSPropertyOp20
 70
     1
102
RTVSPropertyOp21
 70
     1
102
RTVSPropertyOp22
 70
     1
102
RTVSPropertyOp23
 70
     1
102
RTVSPropertyOp24
 70
     1
102
RTVSPropertyOp25
 70
     1
102
RTVSPropertyOp26
 70
     1
102
RTVSPropertyOp27
 70
     1
102
RTVSPropertyOp28
 70
     1
102
RTVSPropertyOp29
 70
     1
102
RTVSPropertyOp30
 70
     1
102
RTVSPropertyOp31
 70
     1
102
RTVSPropertyOp32
 70
     1
  0
XRECORD
  5
86
102
{ACAD_REACTORS
330
85
102
}
330
85
100
AcDbXrecord
280
     1
102
RTVSPropertyOp0
 70
     1
102
RTVSPropertyOp1
 70
     1
102
RTVSPropertyOp2
 70
     1
102
RTVSPropertyOp3
 70
     1
102
RTVSPropertyOp4
 70
     1
102
RTVSPropertyOp5
 70
     1
102
RTVSPropertyOp6
 70
     1
102
RTVSPropertyOp7
 70
     1
102
RTVSPropertyOp8
 70
     1
102
RTVSPropertyOp9
 70
     1
102
RTVSPropertyOp10
 70
     1
102
RTVSPropertyOp11
 70
     1
102
RTVSPropertyOp12
 70
     1
102
RTVSPropertyOp13
 70
     1
102
RTVSPropertyOp14
 70
     1
102
RTVSPropertyOp15
 70
     1
102
RTVSPropertyOp16
 70
     1
102
RTVSPropertyOp17
 70
     1
102
RTVSPropertyOp18
 70
     1
102
RTVSPropertyOp19
 70
     1
102
RTVSPropertyOp20
 70
     1
102
RTVSPropertyOp21
 70
     1
102
RTVSPropertyOp22
 70
     1
102
RTVSPropertyOp23
 70
     1
102
RTVSPropertyOp24
 70
     1
102
RTVSPropertyOp25
 70
     1
102
RTVSPropertyOp26
 70
     1
102
RTVSPropertyOp27
 70
     1
102
RTVSPropertyOp28
 70
     1
102
RTVSPropertyOp29
 70
     1
102
RTVSPropertyOp30
 70
     1
102
RTVSPropertyOp31
 70
     1
102
RTVSPropertyOp32
 70
     1
  0
XRECORD
  5
7A
102
{ACAD_REACTORS
330
79
102
}
330
79
100
AcDbXrecord
280
     1
102
RTVSPropertyOp0
 70
     1
102
RTVSPropertyOp1
 70
     1
102
RTVSPropertyOp2
 70
     1
102
RTVSPropertyOp3
 70
     1
102
RTVSPropertyOp4
 70
     1
102
RTVSPropertyOp5
 70
     1
102
RTVSPropertyOp6
 70
     1
102
RTVSPropertyOp7
 70
     1
102
RTVSPropertyOp8
 70
     1
102
RTVSPropertyOp9
 70
     1
102
RTVSPropertyOp10
 70
     1
102
RTVSPropertyOp11
 70
     1
102
RTVSPropertyOp12
 70
     1
102
RTVSPropertyOp13
 70
     1
102
RTVSPropertyOp14
 70
     1
102
RTVSPropertyOp15
 70
     1
102
RTVSPropertyOp16
 70
     1
102
RTVSPropertyOp17
 70
     1
102
RTVSPropertyOp18
 70
     1
102
RTVSPropertyOp19
 70
     1
102
RTVSPropertyOp20
 70
     1
102
RTVSPropertyOp21
 70
     1
102
RTVSPropertyOp22
 70
     1
102
RTVSPropertyOp23
 70
     1
102
RTVSPropertyOp24
 70
     1
102
RTVSPropertyOp25
 70
     1
102
RTVSPropertyOp26
 70
     1
102
RTVSPropertyOp27
 70
     1
102
RTVSPropertyOp28
 70
     1
102
RTVSPropertyOp29
 70
     1
102
RTVSPropertyOp30
 70
     1
102
RTVSPropertyOp31
 70
     1
102
RTVSPropertyOp32
 70
     1
  0
XRECORD
  5
7C
102
{ACAD_REACTORS
330
7B
102
}
330
7B
100
AcDbXrecord
280
     1
102
RTVSPropertyOp0
 70
     1
102
RTVSPropertyOp1
 70
     1
102
RTVSPropertyOp2
 70
     1
102
RTVSPropertyOp3
 70
     1
102
RTVSPropertyOp4
 70
     1
102
RTVSPropertyOp5
 70
     1
102
RTVSPropertyOp6
 70
     1
102
RTVSPropertyOp7
 70
     1
102
RTVSPropertyOp8
 70
     1
102
RTVSPropertyOp9
 70
     1
102
RTVSPropertyOp10
 70
     1
102
RTVSPropertyOp11
 70
     1
102
RTVSPropertyOp12
 70
     1
102
RTVSPropertyOp13
 70
     1
102
RTVSPropertyOp14
 70
     1
102
RTVSPropertyOp15
 70
     1
102
RTVSPropertyOp16
 70
     1
102
RTVSPropertyOp17
 70
     1
102
RTVSPropertyOp18
 70
     1
102
RTVSPropertyOp19
 70
     1
102
RTVSPropertyOp20
 70
     1
102
RTVSPropertyOp21
 70
     1
102
RTVSPropertyOp22
 70
     1
102
RTVSPropertyOp23
 70
     1
102
RTVSPropertyOp24
 70
     1
102
RTVSPropertyOp25
 70
     1
102
RTVSPropertyOp26
 70
     1
102
RTVSPropertyOp27
 70
     1
102
RTVSPropertyOp28
 70
     1
102
RTVSPropertyOp29
 70
     1
102
RTVSPropertyOp30
 70
     1
102
RTVSPropertyOp31
 70
     1
102
RTVSPropertyOp32
 70
     1
  0
XRECORD
  5
84
102
{ACAD_REACTORS
330
83
102
}
330
83
100
AcDbXrecord
280
     1
102
RTVSPropertyOp0
 70
     1
102
RTVSPropertyOp1
 70
     1
102
RTVSPropertyOp2
 70
     1
102
RTVSPropertyOp3
 70
     1
102
RTVSPropertyOp4
 70
     1
102
RTVSPropertyOp5
 70
     1
102
RTVSPropertyOp6
 70
     1
102
RTVSPropertyOp7
 70
     1
102
RTVSPropertyOp8
 70
     1
102
RTVSPropertyOp9
 70
     1
102
RTVSPropertyOp10
 70
     1
102
RTVSPropertyOp11
 70
     1
102
RTVSPropertyOp12
 70
     1
102
RTVSPropertyOp13
 70
     1
102
RTVSPropertyOp14
 70
     1
102
RTVSPropertyOp15
 70
     1
102
RTVSPropertyOp16
 70
     1
102
RTVSPropertyOp17
 70
     1
102
RTVSPropertyOp18
 70
     1
102
RTVSPropertyOp19
 70
     1
102
RTVSPropertyOp20
 70
     1
102
RTVSPropertyOp21
 70
     1
102
RTVSPropertyOp22
 70
     1
102
RTVSPropertyOp23
 70
     1
102
RTVSPropertyOp24
 70
     1
102
RTVSPropertyOp25
 70
     1
102
RTVSPropertyOp26
 70
     1
102
RTVSPropertyOp27
 70
     1
102
RTVSPropertyOp28
 70
     1
102
RTVSPropertyOp29
 70
     1
102
RTVSPropertyOp30
 70
     1
102
RTVSPropertyOp31
 70
     1
102
RTVSPropertyOp32
 70
     1
  0
XRECORD
  5
68
102
{ACAD_REACTORS
330
67
102
}
330
67
100
AcDbXrecord
280
     1
102
RTVSPropertyOp0
 70
     1
102
RTVSPropertyOp1
 70
     1
102
RTVSPropertyOp2
 70
     1
102
RTVSPropertyOp3
 70
     1
102
RTVSPropertyOp4
 70
     1
102
RTVSPropertyOp5
 70
     1
102
RTVSPropertyOp6
 70
     1
102
RTVSPropertyOp7
 70
     1
102
RTVSPropertyOp8
 70
     1
102
RTVSPropertyOp9
 70
     1
102
RTVSPropertyOp10
 70
     1
102
RTVSPropertyOp11
 70
     1
102
RTVSPropertyOp12
 70
     1
102
RTVSPropertyOp13
 70
     1
102
RTVSPropertyOp14
 70
     1
102
RTVSPropertyOp15
 70
     1
102
RTVSPropertyOp16
 70
     1
102
RTVSPropertyOp17
 70
     1
102
RTVSPropertyOp18
 70
     1
102
RTVSPropertyOp19
 70
     1
102
RTVSPropertyOp20
 70
     1
102
RTVSPropertyOp21
 70
     1
102
RTVSPropertyOp22
 70
     1
102
RTVSPropertyOp23
 70
     1
102
RTVSPropertyOp24
 70
     1
102
RTVSPropertyOp25
 70
     1
102
RTVSPropertyOp26
 70
     1
102
RTVSPropertyOp27
 70
     1
102
RTVSPropertyOp28
 70
     1
102
RTVSPropertyOp29
 70
     1
102
RTVSPropertyOp30
 70
     1
102
RTVSPropertyOp31
 70
     1
102
RTVSPropertyOp32
 70
     1
  0
XRECORD
  5
6A
102
{ACAD_REACTORS
330
69
102
}
330
69
100
AcDbXrecord
280
     1
102
RTVSPropertyOp0
 70
     1
102
RTVSPropertyOp1
 70
     1
102
RTVSPropertyOp2
 70
     1
102
RTVSPropertyOp3
 70
     1
102
RTVSPropertyOp4
 70
     1
102
RTVSPropertyOp5
 70
     1
102
RTVSPropertyOp6
 70
     1
102
RTVSPropertyOp7
 70
     1
102
RTVSPropertyOp8
 70
     1
102
RTVSPropertyOp9
 70
     1
102
RTVSPropertyOp10
 70
     1
102
RTVSPropertyOp11
 70
     1
102
RTVSPropertyOp12
 70
     1
102
RTVSPropertyOp13
 70
     1
102
RTVSPropertyOp14
 70
     1
102
RTVSPropertyOp15
 70
     1
102
RTVSPropertyOp16
 70
     1
102
RTVSPropertyOp17
 70
     1
102
RTVSPropertyOp18
 70
     1
102
RTVSPropertyOp19
 70
     1
102
RTVSPropertyOp20
 70
     1
102
RTVSPropertyOp21
 70
     1
102
RTVSPropertyOp22
 70
     1
102
RTVSPropertyOp23
 70
     1
102
RTVSPropertyOp24
 70
     1
102
RTVSPropertyOp25
 70
     1
102
RTVSPropertyOp26
 70
     1
102
RTVSPropertyOp27
 70
     1
102
RTVSPropertyOp28
 70
     1
102
RTVSPropertyOp29
 70
     1
102
RTVSPropertyOp30
 70
     1
102
RTVSPropertyOp31
 70
     1
102
RTVSPropertyOp32
 70
     1
  0
XRECORD
  5
6C
102
{ACAD_REACTORS
330
6B
102
}
330
6B
100
AcDbXrecord
280
     1
102
RTVSPropertyOp0
 70
     1
102
RTVSPropertyOp1
 70
     1
102
RTVSPropertyOp2
 70
     1
102
RTVSPropertyOp3
 70
     1
102
RTVSPropertyOp4
 70
     1
102
RTVSPropertyOp5
 70
     1
102
RTVSPropertyOp6
 70
     1
102
RTVSPropertyOp7
 70
     1
102
RTVSPropertyOp8
 70
     1
102
RTVSPropertyOp9
 70
     1
102
RTVSPropertyOp10
 70
     1
102
RTVSPropertyOp11
 70
     1
102
RTVSPropertyOp12
 70
     1
102
RTVSPropertyOp13
 70
     1
102
RTVSPropertyOp14
 70
     1
102
RTVSPropertyOp15
 70
     1
102
RTVSPropertyOp16
 70
     1
102
RTVSPropertyOp17
 70
     1
102
RTVSPropertyOp18
 70
     1
102
RTVSPropertyOp19
 70
     1
102
RTVSPropertyOp20
 70
     1
102
RTVSPropertyOp21
 70
     1
102
RTVSPropertyOp22
 70
     1
102
RTVSPropertyOp23
 70
     1
102
RTVSPropertyOp24
 70
     1
102
RTVSPropertyOp25
 70
     1
102
RTVSPropertyOp26
 70
     1
102
RTVSPropertyOp27
 70
     1
102
RTVSPropertyOp28
 70
     1
102
RTVSPropertyOp29
 70
     1
102
RTVSPropertyOp30
 70
     1
102
RTVSPropertyOp31
 70
     1
102
RTVSPropertyOp32
 70
     1
  0
XRECORD
  5
6E
102
{ACAD_REACTORS
330
6D
102
}
330
6D
100
AcDbXrecord
280
     1
102
RTVSPropertyOp0
 70
     1
102
RTVSPropertyOp1
 70
     1
102
RTVSPropertyOp2
 70
     1
102
RTVSPropertyOp3
 70
     1
102
RTVSPropertyOp4
 70
     1
102
RTVSPropertyOp5
 70
     1
102
RTVSPropertyOp6
 70
     1
102
RTVSPropertyOp7
 70
     1
102
RTVSPropertyOp8
 70
     1
102
RTVSPropertyOp9
 70
     1
102
RTVSPropertyOp10
 70
     1
102
RTVSPropertyOp11
 70
     1
102
RTVSPropertyOp12
 70
     1
102
RTVSPropertyOp13
 70
     1
102
RTVSPropertyOp14
 70
     1
102
RTVSPropertyOp15
 70
     1
102
RTVSPropertyOp16
 70
     1
102
RTVSPropertyOp17
 70
     1
102
RTVSPropertyOp18
 70
     1
102
RTVSPropertyOp19
 70
     1
102
RTVSPropertyOp20
 70
     1
102
RTVSPropertyOp21
 70
     1
102
RTVSPropertyOp22
 70
     1
102
RTVSPropertyOp23
 70
     1
102
RTVSPropertyOp24
 70
     1
102
RTVSPropertyOp25
 70
     1
102
RTVSPropertyOp26
 70
     1
102
RTVSPropertyOp27
 70
     1
102
RTVSPropertyOp28
 70
     1
102
RTVSPropertyOp29
 70
     1
102
RTVSPropertyOp30
 70
     1
102
RTVSPropertyOp31
 70
     1
102
RTVSPropertyOp32
 70
     1
  0
XRECORD
  5
82
102
{ACAD_REACTORS
330
81
102
}
330
81
100
AcDbXrecord
280
     1
102
RTVSPropertyOp0
 70
     1
102
RTVSPropertyOp1
 70
     1
102
RTVSPropertyOp2
 70
     1
102
RTVSPropertyOp3
 70
     1
102
RTVSPropertyOp4
 70
     1
102
RTVSPropertyOp5
 70
     1
102
RTVSPropertyOp6
 70
     1
102
RTVSPropertyOp7
 70
     1
102
RTVSPropertyOp8
 70
     1
102
RTVSPropertyOp9
 70
     1
102
RTVSPropertyOp10
 70
     1
102
RTVSPropertyOp11
 70
     1
102
RTVSPropertyOp12
 70
     1
102
RTVSPropertyOp13
 70
     1
102
RTVSPropertyOp14
 70
     1
102
RTVSPropertyOp15
 70
     1
102
RTVSPropertyOp16
 70
     1
102
RTVSPropertyOp17
 70
     1
102
RTVSPropertyOp18
 70
     1
102
RTVSPropertyOp19
 70
     1
102
RTVSPropertyOp20
 70
     1
102
RTVSPropertyOp21
 70
     1
102
RTVSPropertyOp22
 70
     1
102
RTVSPropertyOp23
 70
     1
102
RTVSPropertyOp24
 70
     1
102
RTVSPropertyOp25
 70
     1
102
RTVSPropertyOp26
 70
     1
102
RTVSPropertyOp27
 70
     1
102
RTVSPropertyOp28
 70
     1
102
RTVSPropertyOp29
 70
     1
102
RTVSPropertyOp30
 70
     1
102
RTVSPropertyOp31
 70
     1
102
RTVSPropertyOp32
 70
     1
  0
XRECORD
  5
78
102
{ACAD_REACTORS
330
77
102
}
330
77
100
AcDbXrecord
280
     1
102
RTVSPropertyOp0
 70
     1
102
RTVSPropertyOp1
 70
     1
102
RTVSPropertyOp2
 70
     1
102
RTVSPropertyOp3
 70
     1
102
RTVSPropertyOp4
 70
     1
102
RTVSPropertyOp5
 70
     1
102
RTVSPropertyOp6
 70
     1
102
RTVSPropertyOp7
 70
     1
102
RTVSPropertyOp8
 70
     1
102
RTVSPropertyOp9
 70
     1
102
RTVSPropertyOp10
 70
     1
102
RTVSPropertyOp11
 70
     1
102
RTVSPropertyOp12
 70
     1
102
RTVSPropertyOp13
 70
     1
102
RTVSPropertyOp14
 70
     1
102
RTVSPropertyOp15
 70
     1
102
RTVSPropertyOp16
 70
     1
102
RTVSPropertyOp17
 70
     1
102
RTVSPropertyOp18
 70
     1
102
RTVSPropertyOp19
 70
     1
102
RTVSPropertyOp20
 70
     1
102
RTVSPropertyOp21
 70
     1
102
RTVSPropertyOp22
 70
     1
102
RTVSPropertyOp23
 70
     1
102
RTVSPropertyOp24
 70
     1
102
RTVSPropertyOp25
 70
     1
102
RTVSPropertyOp26
 70
     1
102
RTVSPropertyOp27
 70
     1
102
RTVSPropertyOp28
 70
     1
102
RTVSPropertyOp29
 70
     1
102
RTVSPropertyOp30
 70
     1
102
RTVSPropertyOp31
 70
     1
102
RTVSPropertyOp32
 70
     1
  0
XRECORD
  5
80
102
{ACAD_REACTORS
330
7F
102
}
330
7F
100
AcDbXrecord
280
     1
102
RTVSPropertyOp0
 70
     1
102
RTVSPropertyOp1
 70
     1
102
RTVSPropertyOp2
 70
     1
102
RTVSPropertyOp3
 70
     1
102
RTVSPropertyOp4
 70
     1
102
RTVSPropertyOp5
 70
     1
102
RTVSPropertyOp6
 70
     1
102
RTVSPropertyOp7
 70
     1
102
RTVSPropertyOp8
 70
     1
102
RTVSPropertyOp9
 70
     1
102
RTVSPropertyOp10
 70
     1
102
RTVSPropertyOp11
 70
     1
102
RTVSPropertyOp12
 70
     1
102
RTVSPropertyOp13
 70
     1
102
RTVSPropertyOp14
 70
     1
102
RTVSPropertyOp15
 70
     1
102
RTVSPropertyOp16
 70
     1
102
RTVSPropertyOp17
 70
     1
102
RTVSPropertyOp18
 70
     1
102
RTVSPropertyOp19
 70
     1
102
RTVSPropertyOp20
 70
     1
102
RTVSPropertyOp21
 70
     1
102
RTVSPropertyOp22
 70
     1
102
RTVSPropertyOp23
 70
     1
102
RTVSPropertyOp24
 70
     1
102
RTVSPropertyOp25
 70
     1
102
RTVSPropertyOp26
 70
     1
102
RTVSPropertyOp27
 70
     1
102
RTVSPropertyOp28
 70
     1
102
RTVSPropertyOp29
 70
     1
102
RTVSPropertyOp30
 70
     1
102
RTVSPropertyOp31
 70
     1
102
RTVSPropertyOp32
 70
     1
  0
ENDSEC
  0
EOF
