  0
SECTION
  2
HEADER
  9
$ACADVER
  1
AC1021
  9
$ACADMAINTVER
 70
    25
  9
$DWGCODEPAGE
  3
ANSI_1252
  9
$INSBASE
 10
0.0
 20
0.0
 30
0.0
  9
$EXTMIN
 10
-40.1572
 20
-114.2963
 30
0.0
  9
$EXTMAX
 10
50.276
 20
131.8829
 30
0.0
  9
$LIMMIN
 10
0.0
 20
0.0
  9
$LIMMAX
 10
12.0
 20
9.0
  9
$ORTHOMODE
 70
     0
  9
$REGENMODE
 70
     1
  9
$FILLMODE
 70
     1
  9
$QTEXTMODE
 70
     0
  9
$MIRRTEXT
 70
     1
  9
$LTSCALE
 40
1.0
  9
$ATTMODE
 70
     1
  9
$TEXTSIZE
 40
0.2
  9
$TRACEWID
 40
0.05
  9
$TEXTSTYLE
  7
Standard
  9
$CLAYER
  8
0
  9
$CELTYPE
  6
ByLayer
  9
$CECOLOR
 62
   256
  9
$CELTSCALE
 40
1.0
  9
$DISPSILH
 70
     0
  9
$DIMSCALE
 40
1.0
  9
$DIMASZ
 40
0.18
  9
$DIMEXO
 40
0.0625
  9
$DIMDLI
 40
0.38
  9
$DIMRND
 40
0.0
  9
$DIMDLE
 40
0.0
  9
$DIMEXE
 40
0.18
  9
$DIMTP
 40
0.0
  9
$DIMTM
 40
0.0
  9
$DIMTXT
 40
0.18
  9
$DIMCEN
 40
0.09
  9
$DIMTSZ
 40
0.0
  9
$DIMTOL
 70
     0
  9
$DIMLIM
 70
     0
  9
$DIMTIH
 70
     1
  9
$DIMTOH
 70
     1
  9
$DIMSE1
 70
     0
  9
$DIMSE2
 70
     0
  9
$DIMTAD
 70
     0
  9
$DIMZIN
 70
     0
  9
$DIMBLK
  1

  9
$DIMASO
 70
     1
  9
$DIMSHO
 70
     1
  9
$DIMPOST
  1

  9
$DIMAPOST
  1

  9
$DIMALT
 70
     0
  9
$DIMALTD
 70
     2
  9
$DIMALTF
 40
25.4
  9
$DIMLFAC
 40
1.0
  9
$DIMTOFL
 70
     0
  9
$DIMTVP
 40
0.0
  9
$DIMTIX
 70
     0
  9
$DIMSOXD
 70
     0
  9
$DIMSAH
 70
     0
  9
$DIMBLK1
  1

  9
$DIMBLK2
  1

  9
$DIMSTYLE
  2
Standard
  9
$DIMCLRD
 70
     0
  9
$DIMCLRE
 70
     0
  9
$DIMCLRT
 70
     0
  9
$DIMTFAC
 40
1.0
  9
$DIMGAP
 40
0.09
  9
$DIMJUST
 70
     0
  9
$DIMSD1
 70
     0
  9
$DIMSD2
 70
     0
  9
$DIMTOLJ
 70
     1
  9
$DIMTZIN
 70
     0
  9
$DIMALTZ
 70
     0
  9
$DIMALTTZ
 70
     0
  9
$DIMUPT
 70
     0
  9
$DIMDEC
 70
     4
  9
$DIMTDEC
 70
     4
  9
$DIMALTU
 70
     2
  9
$DIMALTTD
 70
     2
  9
$DIMTXSTY
  7
Standard
  9
$DIMAUNIT
 70
     0
  9
$DIMADEC
 70
     0
  9
$DIMALTRND
 40
0.0
  9
$DIMAZIN
 70
     0
  9
$DIMDSEP
 70
    46
  9
$DIMATFIT
 70
     3
  9
$DIMFRAC
 70
     0
  9
$DIMLDRBLK
  1

  9
$DIMLUNIT
 70
     2
  9
$DIMLWD
 70
    -2
  9
$DIMLWE
 70
    -2
  9
$DIMTMOVE
 70
     0
  9
$DIMFXL
 40
1.0
  9
$DIMFXLON
 70
     0
  9
$DIMJOGANG
 40
0.7853981633974483
  9
$DIMTFILL
 70
     0
  9
$DIMTFILLCLR
 70
     0
  9
$DIMARCSYM
 70
     0
  9
$DIMLTYPE
  6

  9
$DIMLTEX1
  6

  9
$DIMLTEX2
  6

  9
$LUNITS
 70
     2
  9
$LUPREC
 70
     4
  9
$SKETCHINC
 40
0.1
  9
$FILLETRAD
 40
0.5
  9
$AUNITS
 70
     0
  9
$AUPREC
 70
     0
  9
$MENU
  1
.
  9
$ELEVATION
 40
0.0
  9
$PELEVATION
 40
0.0
  9
$THICKNESS
 40
0.0
  9
$LIMCHECK
 70
     0
  9
$CHAMFERA
 40
0.5
  9
$CHAMFERB
 40
0.5
  9
$CHAMFERC
 40
1.0
  9
$CHAMFERD
 40
0.0
  9
$SKPOLY
 70
     0
  9
$TDCREATE
 40
2458493.719601007
  9
$TDUCREATE
 40
2458493.719601007
  9
$TDUPDATE
 40
2458493.719601099
  9
$TDUUPDATE
 40
2458493.719601099
  9
$TDINDWG
 40
0.0000000116
  9
$TDUSRTIMER
 40
0.0000000116
  9
$USRTIMER
 70
     1
  9
$ANGBASE
 50
0.0
  9
$ANGDIR
 70
     0
  9
$PDMODE
 70
     0
  9
$PDSIZE
 40
0.0
  9
$PLINEWID
 40
0.0
  9
$SPLFRAME
 70
     0
  9
$SPLINETYPE
 70
     6
  9
$SPLINESEGS
 70
     8
  9
$HANDSEED
  5
96
  9
$SURFTAB1
 70
     6
  9
$SURFTAB2
 70
     6
  9
$SURFTYPE
 70
     6
  9
$SURFU
 70
     6
  9
$SURFV
 70
     6
  9
$UCSBASE
  2

  9
$UCSNAME
  2

  9
$UCSORG
 10
0.0
 20
0.0
 30
0.0
  9
$UCSXDIR
 10
1.0
 20
0.0
 30
0.0
  9
$UCSYDIR
 10
0.0
 20
1.0
 30
0.0
  9
$UCSORTHOREF
  2

  9
$UCSORTHOVIEW
 70
     0
  9
$UCSORGTOP
 10
0.0
 20
0.0
 30
0.0
  9
$UCSORGBOTTOM
 10
0.0
 20
0.0
 30
0.0
  9
$UCSORGLEFT
 10
0.0
 20
0.0
 30
0.0
  9
$UCSORGRIGHT
 10
0.0
 20
0.0
 30
0.0
  9
$UCSORGFRONT
 10
0.0
 20
0.0
 30
0.0
  9
$UCSORGBACK
 10
0.0
 20
0.0
 30
0.0
  9
$PUCSBASE
  2

  9
$PUCSNAME
  2

  9
$PUCSORG
 10
0.0
 20
0.0
 30
0.0
  9
$PUCSXDIR
 10
1.0
 20
0.0
 30
0.0
  9
$PUCSYDIR
 10
0.0
 20
1.0
 30
0.0
  9
$PUCSORTHOREF
  2

  9
$PUCSORTHOVIEW
 70
     0
  9
$PUCSORGTOP
 10
0.0
 20
0.0
 30
0.0
  9
$PUCSORGBOTTOM
 10
0.0
 20
0.0
 30
0.0
  9
$PUCSORGLEFT
 10
0.0
 20
0.0
 30
0.0
  9
$PUCSORGRIGHT
 10
0.0
 20
0.0
 30
0.0
  9
$PUCSORGFRONT
 10
0.0
 20
0.0
 30
0.0
  9
$PUCSORGBACK
 10
0.0
 20
0.0
 30
0.0
  9
$USERI1
 70
     0
  9
$USERI2
 70
     0
  9
$USERI3
 70
     0
  9
$USERI4
 70
     0
  9
$USERI5
 70
     0
  9
$USERR1
 40
0.0
  9
$USERR2
 40
0.0
  9
$USERR3
 40
0.0
  9
$USERR4
 40
0.0
  9
$USERR5
 40
0.0
  9
$WORLDVIEW
 70
     1
  9
$SHADEDGE
 70
     3
  9
$SHADEDIF
 70
    70
  9
$TILEMODE
 70
     1
  9
$MAXACTVP
 70
    64
  9
$PINSBASE
 10
0.0
 20
0.0
 30
0.0
  9
$PLIMCHECK
 70
     0
  9
$PEXTMIN
 10
1.000000000000000E+20
 20
1.000000000000000E+20
 30
1.000000000000000E+20
  9
$PEXTMAX
 10
-1.000000000000000E+20
 20
-1.000000000000000E+20
 30
-1.000000000000000E+20
  9
$PLIMMIN
 10
0.0
 20
0.0
  9
$PLIMMAX
 10
12.0
 20
9.0
  9
$UNITMODE
 70
     0
  9
$VISRETAIN
 70
     1
  9
$PLINEGEN
 70
     0
  9
$PSLTSCALE
 70
     1
  9
$TREEDEPTH
 70
  3020
  9
$CMLSTYLE
  2
Standard
  9
$CMLJUST
 70
     0
  9
$CMLSCALE
 40
1.0
  9
$PROXYGRAPHICS
 70
     1
  9
$MEASUREMENT
 70
     0
  9
$CELWEIGHT
370
    -1
  9
$ENDCAPS
280
     0
  9
$JOINSTYLE
280
     0
  9
$LWDISPLAY
290
     0
  9
$INSUNITS
 70
     4
  9
$HYPERLINKBASE
  1

  9
$STYLESHEET
  1

  9
$XEDIT
290
     1
  9
$CEPSNTYPE
380
     0
  9
$PSTYLEMODE
290
     1
  9
$FINGERPRINTGUID
  2
{E9A9BB80-667E-4BF7-A8E7-C4A56E27295A}
  9
$VERSIONGUID
  2
{FAEB1C32-E019-11D5-929B-00C0DF256EC4}
  9
$EXTNAMES
290
     1
  9
$PSVPSCALE
 40
0.0
  9
$OLESTARTUP
290
     0
  9
$SORTENTS
280
   127
  9
$INDEXCTL
280
     0
  9
$HIDETEXT
280
     1
  9
$XCLIPFRAME
290
     0
  9
$HALOGAP
280
     0
  9
$OBSCOLOR
 70
   257
  9
$OBSLTYPE
280
     0
  9
$INTERSECTIONDISPLAY
280
     0
  9
$INTERSECTIONCOLOR
 70
   257
  9
$DIMASSOC
280
     2
  9
$PROJECTNAME
  1

  9
$CAMERADISPLAY
290
     0
  9
$LENSLENGTH
 40
50.0
  9
$CAMERAHEIGHT
 40
0.0
  9
$STEPSPERSEC
 40
2.0
  9
$STEPSIZE
 40
6.0
  9
$3DDWFPREC
 40
2.0
  9
$PSOLWIDTH
 40
0.25
  9
$PSOLHEIGHT
 40
4.0
  9
$LOFTANG1
 40
1.570796326794897
  9
$LOFTANG2
 40
1.570796326794897
  9
$LOFTMAG1
 40
0.0
  9
$LOFTMAG2
 40
0.0
  9
$LOFTPARAM
 70
     7
  9
$LOFTNORMALS
280
     1
  9
$LATITUDE
 40
37.795
  9
$LONGITUDE
 40
-122.394
  9
$NORTHDIRECTION
 40
0.0
  9
$TIMEZONE
 70
 -8000
  9
$LIGHTGLYPHDISPLAY
280
     1
  9
$TILEMODELIGHTSYNCH
280
     1
  9
$SOLIDHIST
280
     1
  9
$SHOWHIST
280
     1
  9
$DWFFRAME
280
     2
  9
$DGNFRAME
280
     2
  9
$REALWORLDSCALE
290
     1
  9
$INTERFERECOLOR
 62
   256
  9
$CSHADOW
280
     0
  9
$SHADOWPLANELOCATION
 40
0.0
  0
ENDSEC
  0
SECTION
  2
CLASSES
  0
CLASS
  1
ACDBDICTIONARYWDFLT
  2
AcDbDictionaryWithDefault
  3
ObjectDBX Classes
 90
        0
 91
        4
280
     0
281
     0
  0
CLASS
  1
VISUALSTYLE
  2
AcDbVisualStyle
  3
ObjectDBX Classes
 90
     4095
 91
        4
280
     0
281
     0
  0
CLASS
  1
MATERIAL
  2
AcDbMaterial
  3
ObjectDBX Classes
 90
     1153
 91
        4
280
     0
281
     0
  0
ENDSEC
  0
SECTION
  2
TABLES
  0
TABLE
  2
VPORT
  5
8
330
0
100
AcDbSymbolTable
 70
     1
  0
VPORT
  5
29
330
8
100
AcDbSymbolTableRecord
100
AcDbViewportTableRecord
  2
*Active
 70
     0
 10
0.0
 20
0.0
 11
1.0
 21
1.0
 12
10.42990654205607
 22
4.5
 13
0.0
 23
0.0
 14
0.5
 24
0.5
 15
0.5
 25
0.5
 16
0.0
 26
0.0
 36
1.0
 17
0.0
 27
0.0
 37
0.0
 40
9.0
 41
1.972972972850329
 42
50.0
 43
0.0
 44
0.0
 50
0.0
 51
0.0
 71
     0
 72
   100
 73
     1
 74
     3
 75
     0
 76
     0
 77
     0
 78
     0
281
     0
 65
     1
110
0.0
120
0.0
130
0.0
111
1.0
121
0.0
131
0.0
112
0.0
122
1.0
132
0.0
 79
     0
146
0.0
 60
     3
 61
     5
292
     1
282
     1
141
0.0
142
0.0
 63
   250
  0
ENDTAB
  0
TABLE
  2
LTYPE
  5
5
330
0
100
AcDbSymbolTable
 70
     1
  0
LTYPE
  5
14
330
5
100
AcDbSymbolTableRecord
100
AcDbLinetypeTableRecord
  2
ByBlock
 70
     0
  3

 72
    65
 73
     0
 40
0.0
  0
LTYPE
  5
15
330
5
100
AcDbSymbolTableRecord
100
AcDbLinetypeTableRecord
  2
ByLayer
 70
     0
  3

 72
    65
 73
     0
 40
0.0
  0
LTYPE
  5
16
330
5
100
AcDbSymbolTableRecord
100
AcDbLinetypeTableRecord
  2
Continuous
 70
     0
  3
Solid line
 72
    65
 73
     0
 40
0.0
  0
ENDTAB
  0
TABLE
  2
LAYER
  5
2
330
0
100
AcDbSymbolTable
 70
     3
  0
LAYER
  5
10
330
2
100
AcDbSymbolTableRecord
100
AcDbLayerTableRecord
  2
0
 70
     0
 62
     7
  6
Continuous
370
    -3
390
F
347
3E
  0
LAYER
  5
40
330
2
100
AcDbSymbolTableRecord
100
AcDbLayerTableRecord
  2
layer 1
 70
     0
 62
     7
  6
Continuous
370
    -3
390
F
347
3E
  0
LAYER
  5
73
330
2
100
AcDbSymbolTableRecord
100
AcDbLayerTableRecord
  2
Master Guides
 70
     0
 62
     7
  6
Continuous
370
    -3
390
F
347
3E
  0
ENDTAB
  0
TABLE
  2
STYLE
  5
3
330
0
100
AcDbSymbolTable
 70
     1
  0
STYLE
  5
11
330
3
100
AcDbSymbolTableRecord
100
AcDbTextStyleTableRecord
  2
Standard
 70
     0
 40
0.0
 41
1.0
 50
0.0
 71
     0
 42
0.2
  3
txt
  4

  0
ENDTAB
  0
TABLE
  2
VIEW
  5
6
330
0
100
AcDbSymbolTable
 70
     0
  0
ENDTAB
  0
TABLE
  2
UCS
  5
7
330
0
100
AcDbSymbolTable
 70
     0
  0
ENDTAB
  0
TABLE
  2
APPID
  5
9
330
0
100
AcDbSymbolTable
 70
     2
  0
APPID
  5
12
330
9
100
AcDbSymbolTableRecord
100
AcDbRegAppTableRecord
  2
ACAD
 70
     0
  0
APPID
  5
3F
330
9
100
AcDbSymbolTableRecord
100
AcDbRegAppTableRecord
  2
ODA
 70
     0
  0
ENDTAB
  0
TABLE
  2
DIMSTYLE
  5
A
330
0
100
AcDbSymbolTable
 70
     1
100
AcDbDimStyleTable
  0
DIMSTYLE
105
27
330
A
100
AcDbSymbolTableRecord
100
AcDbDimStyleTableRecord
  2
Standard
 70
     0
178
     0
340
11
  0
ENDTAB
  0
TABLE
  2
BLOCK_RECORD
  5
1
330
0
100
AcDbSymbolTable
 70
     1
  0
BLOCK_RECORD
  5
1F
330
1
100
AcDbSymbolTableRecord
100
AcDbBlockTableRecord
  2
*Model_Space
340
22
 70
     0
280
     1
281
     0
  0
BLOCK_RECORD
  5
1B
330
1
100
AcDbSymbolTableRecord
100
AcDbBlockTableRecord
  2
*Paper_Space
340
1E
 70
     0
280
     1
281
     0
  0
BLOCK_RECORD
  5
23
330
1
100
AcDbSymbolTableRecord
100
AcDbBlockTableRecord
  2
*Paper_Space0
340
26
 70
     0
280
     1
281
     0
  0
ENDTAB
  0
ENDSEC
  0
SECTION
  2
BLOCKS
  0
BLOCK
  5
20
330
1F
100
AcDbEntity
  8
0
100
AcDbBlockBegin
  2
*Model_Space
 70
     0
 10
0.0
 20
0.0
 30
0.0
  3
*Model_Space
  1

  0
ENDBLK
  5
21
330
1F
100
AcDbEntity
  8
0
100
AcDbBlockEnd
  0
BLOCK
  5
1C
330
1B
100
AcDbEntity
 67
     1
  8
0
100
AcDbBlockBegin
  2
*Paper_Space
 70
     0
 10
0.0
 20
0.0
 30
0.0
  3
*Paper_Space
  1

  0
ENDBLK
  5
1D
330
1B
100
AcDbEntity
 67
     1
  8
0
100
AcDbBlockEnd
  0
BLOCK
  5
24
330
23
100
AcDbEntity
  8
0
100
AcDbBlockBegin
  2
*Paper_Space0
 70
     0
 10
0.0
 20
0.0
 30
0.0
  3
*Paper_Space0
  1

  0
ENDBLK
  5
25
330
23
100
AcDbEntity
  8
0
100
AcDbBlockEnd
  0
ENDSEC
  0
SECTION
  2
ENTITIES
  0
SPLINE
  5
41
330
1F
100
AcDbEntity
  8
layer 1
 62
   250
100
AcDbSpline
210
0.0
220
0.0
230
1.0
 70
    11
 71
     3
 72
    20
 73
    16
 74
     0
 42
0.0000000001
 43
0.0000000001
 12
1.0
 22
0.0
 32
0.0
 13
1.0
 23
0.0
 33
0.0
 40
0.0
 40
0.0
 40
0.0
 40
0.0
 40
0.2
 40
0.2
 40
0.2
 40
0.2
 40
0.4
 40
0.4
 40
0.4
 40
0.4
 40
0.6
 40
0.6
 40
0.6
 40
0.6
 40
1.0
 40
1.0
 40
1.0
 40
1.0
 10
-40.1572
 20
131.8829
 30
0.0
 10
-40.1572
 20
131.8829
 30
0.0
 10
50.276
 20
131.8829
 30
0.0
 10
50.276
 20
131.8829
 30
0.0
 10
50.276
 20
131.8829
 30
0.0
 10
50.276
 20
131.8829
 30
0.0
 10
50.276
 20
-114.2963
 30
0.0
 10
50.276
 20
-114.2963
 30
0.0
 10
50.276
 20
-114.2963
 30
0.0
 10
50.276
 20
-114.2963
 30
0.0
 10
-40.1572
 20
-114.2963
 30
0.0
 10
-40.1572
 20
-114.2963
 30
0.0
 10
-40.1572
 20
-114.2963
 30
0.0
 10
-40.1572
 20
-114.2963
 30
0.0
 10
-40.1572
 20
131.8829
 30
0.0
 10
-40.1572
 20
131.8829
 30
0.0
  0
SPLINE
  5
42
330
1F
100
AcDbEntity
  8
layer 1
 62
     7
100
AcDbSpline
210
0.0
220
0.0
230
1.0
 70
    11
 71
     3
 72
    32
 73
    28
 74
     0
 42
0.0000000001
 43
0.0000000001
 12
1.0
 22
0.0
 32
0.0
 13
1.0
 23
0.0
 33
0.0
 40
0.0
 40
0.0
 40
0.0
 40
0.0
 40
0.125
 40
0.125
 40
0.125
 40
0.125
 40
0.25
 40
0.25
 40
0.25
 40
0.25
 40
0.375
 40
0.375
 40
0.375
 40
0.375
 40
0.5
 40
0.5
 40
0.5
 40
0.5
 40
0.625
 40
0.625
 40
0.625
 40
0.625
 40
0.75
 40
0.75
 40
0.75
 40
0.75
 40
1.0
 40
1.0
 40
1.0
 40
1.0
 10
29.5965
 20
35.9709
 30
0.0
 10
29.5965
 20
35.9709
 30
0.0
 10
22.3772
 20
28.6699
 30
0.0
 10
22.3772
 20
28.6699
 30
0.0
 10
22.3772
 20
28.6699
 30
0.0
 10
20.6521
 20
34.3012
 30
0.0
 10
17.3913
 20
36.9483
 30
0.0
 10
12.5082
 20
38.2626
 30
0.0
 10
12.5082
 20
38.2626
 30
0.0
 10
13.5284
 20
42.4162
 30
0.0
 10
11.7672
 20
45.7584
 30
0.0
 10
7.3116
 20
48.1369
 30
0.0
 10
7.3116
 20
48.1369
 30
0.0
 10
11.7672
 20
50.5155
 30
0.0
 10
13.5284
 20
53.8577
 30
0.0
 10
12.5082
 20
58.0112
 30
0.0
 10
12.5082
 20
58.0112
 30
0.0
 10
17.3913
 20
59.3255
 30
0.0
 10
20.6521
 20
61.9727
 30
0.0
 10
22.3772
 20
67.6039
 30
0.0
 10
22.3772
 20
67.6039
 30
0.0
 10
22.3772
 20
67.6039
 30
0.0
 10
29.5965
 20
60.3029
 30
0.0
 10
29.5965
 20
60.3029
 30
0.0
 10
29.5965
 20
60.3029
 30
0.0
 10
29.5965
 20
60.3029
 30
0.0
 10
29.5965
 20
35.9709
 30
0.0
 10
29.5965
 20
35.9709
 30
0.0
  0
SPLINE
  5
43
330
1F
100
AcDbEntity
  8
layer 1
 62
     7
100
AcDbSpline
210
0.0
220
0.0
230
1.0
 70
    11
 71
     3
 72
    32
 73
    28
 74
     0
 42
0.0000000001
 43
0.0000000001
 12
1.0
 22
0.0
 32
0.0
 13
1.0
 23
0.0
 33
0.0
 40
0.0
 40
0.0
 40
0.0
 40
0.0
 40
0.125
 40
0.125
 40
0.125
 40
0.125
 40
0.25
 40
0.25
 40
0.25
 40
0.25
 40
0.375
 40
0.375
 40
0.375
 40
0.375
 40
0.5
 40
0.5
 40
0.5
 40
0.5
 40
0.625
 40
0.625
 40
0.625
 40
0.625
 40
0.75
 40
0.75
 40
0.75
 40
0.75
 40
1.0
 40
1.0
 40
1.0
 40
1.0
 10
-19.672
 20
35.9709
 30
0.0
 10
-19.672
 20
35.9709
 30
0.0
 10
-12.4527
 20
28.6699
 30
0.0
 10
-12.4527
 20
28.6699
 30
0.0
 10
-12.4527
 20
28.6699
 30
0.0
 10
-10.7276
 20
34.3012
 30
0.0
 10
-7.4669
 20
36.9483
 30
0.0
 10
-2.5837
 20
38.2626
 30
0.0
 10
-2.5837
 20
38.2626
 30
0.0
 10
-3.6039
 20
42.4162
 30
0.0
 10
-1.8427
 20
45.7584
 30
0.0
 10
2.6129
 20
48.1369
 30
0.0
 10
2.6129
 20
48.1369
 30
0.0
 10
-1.8427
 20
50.5155
 30
0.0
 10
-3.6039
 20
53.8577
 30
0.0
 10
-2.5837
 20
58.0112
 30
0.0
 10
-2.5837
 20
58.0112
 30
0.0
 10
-7.4669
 20
59.3255
 30
0.0
 10
-10.7276
 20
61.9727
 30
0.0
 10
-12.4527
 20
67.6039
 30
0.0
 10
-12.4527
 20
67.6039
 30
0.0
 10
-12.4527
 20
67.6039
 30
0.0
 10
-19.672
 20
60.3029
 30
0.0
 10
-19.672
 20
60.3029
 30
0.0
 10
-19.672
 20
60.3029
 30
0.0
 10
-19.672
 20
60.3029
 30
0.0
 10
-19.672
 20
35.9709
 30
0.0
 10
-19.672
 20
35.9709
 30
0.0
  0
SPLINE
  5
44
330
1F
100
AcDbEntity
  8
layer 1
 62
     7
100
AcDbSpline
210
0.0
220
0.0
230
1.0
 70
    11
 71
     3
 72
    32
 73
    28
 74
     0
 42
0.0000000001
 43
0.0000000001
 12
1.0
 22
0.0
 32
0.0
 13
1.0
 23
0.0
 33
0.0
 40
0.0
 40
0.0
 40
0.0
 40
0.0
 40
0.125
 40
0.125
 40
0.125
 40
0.125
 40
0.25
 40
0.25
 40
0.25
 40
0.25
 40
0.375
 40
0.375
 40
0.375
 40
0.375
 40
0.5
 40
0.5
 40
0.5
 40
0.5
 40
0.625
 40
0.625
 40
0.625
 40
0.625
 40
0.75
 40
0.75
 40
0.75
 40
0.75
 40
1.0
 40
1.0
 40
1.0
 40
1.0
 10
29.5965
 20
-42.4932
 30
0.0
 10
29.5965
 20
-42.4932
 30
0.0
 10
22.3772
 20
-49.7942
 30
0.0
 10
22.3772
 20
-49.7942
 30
0.0
 10
22.3772
 20
-49.7942
 30
0.0
 10
20.6521
 20
-44.1629
 30
0.0
 10
17.3913
 20
-41.5158
 30
0.0
 10
12.5082
 20
-40.2014
 30
0.0
 10
12.5082
 20
-40.2014
 30
0.0
 10
13.5284
 20
-36.0479
 30
0.0
 10
11.7672
 20
-32.7057
 30
0.0
 10
7.3116
 20
-30.3271
 30
0.0
 10
7.3116
 20
-30.3271
 30
0.0
 10
11.7672
 20
-27.9486
 30
0.0
 10
13.5284
 20
-24.6064
 30
0.0
 10
12.5082
 20
-20.4528
 30
0.0
 10
12.5082
 20
-20.4528
 30
0.0
 10
17.3913
 20
-19.1385
 30
0.0
 10
20.6521
 20
-16.4914
 30
0.0
 10
22.3772
 20
-10.8601
 30
0.0
 10
22.3772
 20
-10.8601
 30
0.0
 10
22.3772
 20
-10.8601
 30
0.0
 10
29.5965
 20
-18.1611
 30
0.0
 10
29.5965
 20
-18.1611
 30
0.0
 10
29.5965
 20
-18.1611
 30
0.0
 10
29.5965
 20
-18.1611
 30
0.0
 10
29.5965
 20
-42.4932
 30
0.0
 10
29.5965
 20
-42.4932
 30
0.0
  0
SPLINE
  5
45
330
1F
100
AcDbEntity
  8
layer 1
 62
     7
100
AcDbSpline
210
0.0
220
0.0
230
1.0
 70
    11
 71
     3
 72
    20
 73
    16
 74
     0
 42
0.0000000001
 43
0.0000000001
 12
1.0
 22
0.0
 32
0.0
 13
1.0
 23
0.0
 33
0.0
 40
0.0
 40
0.0
 40
0.0
 40
0.0
 40
0.2
 40
0.2
 40
0.2
 40
0.2
 40
0.4
 40
0.4
 40
0.4
 40
0.4
 40
0.6
 40
0.6
 40
0.6
 40
0.6
 40
1.0
 40
1.0
 40
1.0
 40
1.0
 10
-34.7408
 20
-108.7161
 30
0.0
 10
-34.7408
 20
-108.7161
 30
0.0
 10
-34.7408
 20
-97.5855
 30
0.0
 10
-34.7408
 20
-97.5855
 30
0.0
 10
-34.7408
 20
-97.5855
 30
0.0
 10
-34.7408
 20
-97.5855
 30
0.0
 10
-23.6102
 20
-97.5855
 30
0.0
 10
-23.6102
 20
-97.5855
 30
0.0
 10
-23.6102
 20
-97.5855
 30
0.0
 10
-23.6102
 20
-97.5855
 30
0.0
 10
-23.6102
 20
-108.7161
 30
0.0
 10
-23.6102
 20
-108.7161
 30
0.0
 10
-23.6102
 20
-108.7161
 30
0.0
 10
-23.6102
 20
-108.7161
 30
0.0
 10
-34.7408
 20
-108.7161
 30
0.0
 10
-34.7408
 20
-108.7161
 30
0.0
  0
SPLINE
  5
46
330
1F
100
AcDbEntity
  8
layer 1
 62
     7
100
AcDbSpline
210
0.0
220
0.0
230
1.0
 70
    11
 71
     3
 72
    28
 73
    24
 74
     0
 42
0.0000000001
 43
0.0000000001
 12
1.0
 22
0.0
 32
0.0
 13
1.0
 23
0.0
 33
0.0
 40
0.0
 40
0.0
 40
0.0
 40
0.0
 40
0.1428571428571428
 40
0.1428571428571428
 40
0.1428571428571428
 40
0.1428571428571428
 40
0.2857142857142857
 40
0.2857142857142857
 40
0.2857142857142857
 40
0.2857142857142857
 40
0.4285714285714285
 40
0.4285714285714285
 40
0.4285714285714285
 40
0.4285714285714285
 40
0.5714285714285714
 40
0.5714285714285714
 40
0.5714285714285714
 40
0.5714285714285714
 40
0.7142857142857143
 40
0.7142857142857143
 40
0.7142857142857143
 40
0.7142857142857143
 40
1.0
 40
1.0
 40
1.0
 40
1.0
 10
-34.7408
 20
-93.7506
 30
0.0
 10
-34.7408
 20
-93.7506
 30
0.0
 10
-34.7408
 20
-81.5911
 30
0.0
 10
-34.7408
 20
-81.5911
 30
0.0
 10
-34.7408
 20
-81.5911
 30
0.0
 10
-34.7408
 20
-81.5911
 30
0.0
 10
-24.4744
 20
-81.5911
 30
0.0
 10
-24.4744
 20
-81.5911
 30
0.0
 10
-24.4744
 20
-81.5911
 30
0.0
 10
-24.4744
 20
-81.5911
 30
0.0
 10
-24.5506
 20
-71.678
 30
0.0
 10
-24.5506
 20
-71.678
 30
0.0
 10
-24.5506
 20
-71.678
 30
0.0
 10
-17.0929
 20
-73.1241
 30
0.0
 10
-15.6337
 20
-74.9255
 30
0.0
 10
-13.6152
 20
-84.9988
 30
0.0
 10
-13.6152
 20
-84.9988
 30
0.0
 10
-13.6152
 20
-84.9988
 30
0.0
 10
-22.4918
 20
-93.7506
 30
0.0
 10
-22.4918
 20
-93.7506
 30
0.0
 10
-22.4918
 20
-93.7506
 30
0.0
 10
-22.4918
 20
-93.7506
 30
0.0
 10
-34.7408
 20
-93.7506
 30
0.0
 10
-34.7408
 20
-93.7506
 30
0.0
  0
SPLINE
  5
47
330
1F
100
AcDbEntity
  8
layer 1
 62
     7
100
AcDbSpline
210
0.0
220
0.0
230
1.0
 70
    11
 71
     3
 72
    24
 73
    20
 74
     0
 42
0.0000000001
 43
0.0000000001
 12
1.0
 22
0.0
 32
0.0
 13
1.0
 23
0.0
 33
0.0
 40
0.0
 40
0.0
 40
0.0
 40
0.0
 40
0.1666666666666667
 40
0.1666666666666667
 40
0.1666666666666667
 40
0.1666666666666667
 40
0.3333333333333333
 40
0.3333333333333333
 40
0.3333333333333333
 40
0.3333333333333333
 40
0.5
 40
0.5
 40
0.5
 40
0.5
 40
0.6666666666666666
 40
0.6666666666666666
 40
0.6666666666666666
 40
0.6666666666666666
 40
1.0
 40
1.0
 40
1.0
 40
1.0
 10
-19.672
 20
-108.7161
 30
0.0
 10
-19.672
 20
-108.7161
 30
0.0
 10
-19.672
 20
-96.5715
 30
0.0
 10
-19.672
 20
-96.5715
 30
0.0
 10
-19.672
 20
-96.5715
 30
0.0
 10
-19.672
 20
-96.5715
 30
0.0
 10
-12.4527
 20
-89.2704
 30
0.0
 10
-12.4527
 20
-89.2704
 30
0.0
 10
-12.4527
 20
-89.2704
 30
0.0
 10
-10.7276
 20
-94.9017
 30
0.0
 10
-7.4669
 20
-97.5488
 30
0.0
 10
-2.5837
 20
-98.8632
 30
0.0
 10
-2.5837
 20
-98.8632
 30
0.0
 10
-3.6039
 20
-103.0167
 30
0.0
 10
-1.8427
 20
-106.3589
 30
0.0
 10
2.6129
 20
-108.7161
 30
0.0
 10
2.6129
 20
-108.7161
 30
0.0
 10
2.6129
 20
-108.7161
 30
0.0
 10
-19.672
 20
-108.7161
 30
0.0
 10
-19.672
 20
-108.7161
 30
0.0
  0
SPLINE
  5
48
330
1F
100
AcDbEntity
  8
layer 1
 62
     7
100
AcDbSpline
210
0.0
220
0.0
230
1.0
 70
    11
 71
     3
 72
    28
 73
    24
 74
     0
 42
0.0000000001
 43
0.0000000001
 12
1.0
 22
0.0
 32
0.0
 13
1.0
 23
0.0
 33
0.0
 40
0.0
 40
0.0
 40
0.0
 40
0.0
 40
0.1428571428571428
 40
0.1428571428571428
 40
0.1428571428571428
 40
0.1428571428571428
 40
0.2857142857142857
 40
0.2857142857142857
 40
0.2857142857142857
 40
0.2857142857142857
 40
0.4285714285714285
 40
0.4285714285714285
 40
0.4285714285714285
 40
0.4285714285714285
 40
0.5714285714285714
 40
0.5714285714285714
 40
0.5714285714285714
 40
0.5714285714285714
 40
0.7142857142857143
 40
0.7142857142857143
 40
0.7142857142857143
 40
0.7142857142857143
 40
1.0
 40
1.0
 40
1.0
 40
1.0
 10
-19.1871
 20
-69.5323
 30
0.0
 10
-13.6812
 20
-70.637
 30
0.0
 10
-12.2298
 20
-75.8659
 30
0.0
 10
-10.3814
 20
-81.6874
 30
0.0
 10
-10.3814
 20
-81.6874
 30
0.0
 10
-10.3814
 20
-81.6874
 30
0.0
 10
-2.2311
 20
-73.5226
 30
0.0
 10
-2.2311
 20
-73.5226
 30
0.0
 10
-2.2311
 20
-73.5226
 30
0.0
 10
-2.2311
 20
-73.5226
 30
0.0
 10
-6.4393
 20
-69.5323
 30
0.0
 10
-6.4393
 20
-69.5323
 30
0.0
 10
-6.4393
 20
-69.5323
 30
0.0
 10
-6.4393
 20
-69.5323
 30
0.0
 10
-2.2311
 20
-65.542
 30
0.0
 10
-2.2311
 20
-65.542
 30
0.0
 10
-2.2311
 20
-65.542
 30
0.0
 10
-2.2311
 20
-65.542
 30
0.0
 10
-10.3814
 20
-57.3772
 30
0.0
 10
-10.3814
 20
-57.3772
 30
0.0
 10
-10.3814
 20
-57.3772
 30
0.0
 10
-12.2298
 20
-63.1987
 30
0.0
 10
-13.6812
 20
-68.4276
 30
0.0
 10
-19.1871
 20
-69.5323
 30
0.0
  0
SPLINE
  5
49
330
1F
100
AcDbEntity
  8
layer 1
 62
     7
100
AcDbSpline
210
0.0
220
0.0
230
1.0
 70
    11
 71
     3
 72
    20
 73
    16
 74
     0
 42
0.0000000001
 43
0.0000000001
 12
1.0
 22
0.0
 32
0.0
 13
1.0
 23
0.0
 33
0.0
 40
0.0
 40
0.0
 40
0.0
 40
0.0
 40
0.2
 40
0.2
 40
0.2
 40
0.2
 40
0.4
 40
0.4
 40
0.4
 40
0.4
 40
0.6
 40
0.6
 40
0.6
 40
0.6
 40
1.0
 40
1.0
 40
1.0
 40
1.0
 10
5.0373
 20
-75.7354
 30
0.0
 10
5.0373
 20
-75.7354
 30
0.0
 10
-1.1421
 20
-69.5559
 30
0.0
 10
-1.1421
 20
-69.5559
 30
0.0
 10
-1.1421
 20
-69.5559
 30
0.0
 10
-1.1421
 20
-69.5559
 30
0.0
 10
5.0373
 20
-63.3765
 30
0.0
 10
5.0373
 20
-63.3765
 30
0.0
 10
5.0373
 20
-63.3765
 30
0.0
 10
5.0373
 20
-63.3765
 30
0.0
 10
11.2167
 20
-69.5559
 30
0.0
 10
11.2167
 20
-69.5559
 30
0.0
 10
11.2167
 20
-69.5559
 30
0.0
 10
11.2167
 20
-69.5559
 30
0.0
 10
5.0373
 20
-75.7354
 30
0.0
 10
5.0373
 20
-75.7354
 30
0.0
  0
SPLINE
  5
4A
330
1F
100
AcDbEntity
  8
layer 1
 62
     7
100
AcDbSpline
210
0.0
220
0.0
230
1.0
 70
    11
 71
     3
 72
    20
 73
    16
 74
     0
 42
0.0000000001
 43
0.0000000001
 12
1.0
 22
0.0
 32
0.0
 13
1.0
 23
0.0
 33
0.0
 40
0.0
 40
0.0
 40
0.0
 40
0.0
 40
0.2
 40
0.2
 40
0.2
 40
0.2
 40
0.4
 40
0.4
 40
0.4
 40
0.4
 40
0.6
 40
0.6
 40
0.6
 40
0.6
 40
1.0
 40
1.0
 40
1.0
 40
1.0
 10
-34.748
 20
-61.1003
 30
0.0
 10
-34.748
 20
-61.1003
 30
0.0
 10
-34.748
 20
-78.0768
 30
0.0
 10
-34.748
 20
-78.0768
 30
0.0
 10
-34.748
 20
-78.0768
 30
0.0
 10
-34.748
 20
-78.0768
 30
0.0
 10
-28.3877
 20
-78.0768
 30
0.0
 10
-28.3877
 20
-78.0768
 30
0.0
 10
-28.3877
 20
-78.0768
 30
0.0
 10
-28.3877
 20
-78.0768
 30
0.0
 10
-28.3877
 20
-61.1003
 30
0.0
 10
-28.3877
 20
-61.1003
 30
0.0
 10
-28.3877
 20
-61.1003
 30
0.0
 10
-28.3877
 20
-61.1003
 30
0.0
 10
-34.748
 20
-61.1003
 30
0.0
 10
-34.748
 20
-61.1003
 30
0.0
  0
SPLINE
  5
4B
330
1F
100
AcDbEntity
  8
layer 1
 62
     7
100
AcDbSpline
210
0.0
220
0.0
230
1.0
 70
    11
 71
     3
 72
    28
 73
    24
 74
     0
 42
0.0000000001
 43
0.0000000001
 12
1.0
 22
0.0
 32
0.0
 13
1.0
 23
0.0
 33
0.0
 40
0.0
 40
0.0
 40
0.0
 40
0.0
 40
0.1428571428571428
 40
0.1428571428571428
 40
0.1428571428571428
 40
0.1428571428571428
 40
0.2857142857142857
 40
0.2857142857142857
 40
0.2857142857142857
 40
0.2857142857142857
 40
0.4285714285714285
 40
0.4285714285714285
 40
0.4285714285714285
 40
0.4285714285714285
 40
0.5714285714285714
 40
0.5714285714285714
 40
0.5714285714285714
 40
0.5714285714285714
 40
0.7142857142857143
 40
0.7142857142857143
 40
0.7142857142857143
 40
0.7142857142857143
 40
1.0
 40
1.0
 40
1.0
 40
1.0
 10
-34.7408
 20
-45.314
 30
0.0
 10
-34.7408
 20
-45.314
 30
0.0
 10
-34.7408
 20
-57.4735
 30
0.0
 10
-34.7408
 20
-57.4735
 30
0.0
 10
-34.7408
 20
-57.4735
 30
0.0
 10
-34.7408
 20
-57.4735
 30
0.0
 10
-24.4744
 20
-57.4735
 30
0.0
 10
-24.4744
 20
-57.4735
 30
0.0
 10
-24.4744
 20
-57.4735
 30
0.0
 10
-24.4744
 20
-57.4735
 30
0.0
 10
-24.5506
 20
-67.3866
 30
0.0
 10
-24.5506
 20
-67.3866
 30
0.0
 10
-24.5506
 20
-67.3866
 30
0.0
 10
-17.0929
 20
-65.9405
 30
0.0
 10
-15.6337
 20
-64.1391
 30
0.0
 10
-13.6152
 20
-54.0658
 30
0.0
 10
-13.6152
 20
-54.0658
 30
0.0
 10
-13.6152
 20
-54.0658
 30
0.0
 10
-22.4918
 20
-45.314
 30
0.0
 10
-22.4918
 20
-45.314
 30
0.0
 10
-22.4918
 20
-45.314
 30
0.0
 10
-22.4918
 20
-45.314
 30
0.0
 10
-34.7408
 20
-45.314
 30
0.0
 10
-34.7408
 20
-45.314
 30
0.0
  0
SPLINE
  5
4C
330
1F
100
AcDbEntity
  8
layer 1
 62
     7
100
AcDbSpline
210
0.0
220
0.0
230
1.0
 70
    11
 71
     3
 72
    32
 73
    28
 74
     0
 42
0.0000000001
 43
0.0000000001
 12
1.0
 22
0.0
 32
0.0
 13
1.0
 23
0.0
 33
0.0
 40
0.0
 40
0.0
 40
0.0
 40
0.0
 40
0.125
 40
0.125
 40
0.125
 40
0.125
 40
0.25
 40
0.25
 40
0.25
 40
0.25
 40
0.375
 40
0.375
 40
0.375
 40
0.375
 40
0.5
 40
0.5
 40
0.5
 40
0.5
 40
0.625
 40
0.625
 40
0.625
 40
0.625
 40
0.75
 40
0.75
 40
0.75
 40
0.75
 40
1.0
 40
1.0
 40
1.0
 40
1.0
 10
-19.672
 20
-42.4932
 30
0.0
 10
-19.672
 20
-42.4932
 30
0.0
 10
-12.4527
 20
-49.7942
 30
0.0
 10
-12.4527
 20
-49.7942
 30
0.0
 10
-12.4527
 20
-49.7942
 30
0.0
 10
-10.7276
 20
-44.1629
 30
0.0
 10
-7.4669
 20
-41.5158
 30
0.0
 10
-2.5837
 20
-40.2014
 30
0.0
 10
-2.5837
 20
-40.2014
 30
0.0
 10
-3.6039
 20
-36.0479
 30
0.0
 10
-1.8427
 20
-32.7057
 30
0.0
 10
2.6129
 20
-30.3271
 30
0.0
 10
2.6129
 20
-30.3271
 30
0.0
 10
-1.8427
 20
-27.9486
 30
0.0
 10
-3.6039
 20
-24.6064
 30
0.0
 10
-2.5837
 20
-20.4528
 30
0.0
 10
-2.5837
 20
-20.4528
 30
0.0
 10
-7.4669
 20
-19.1385
 30
0.0
 10
-10.7276
 20
-16.4914
 30
0.0
 10
-12.4527
 20
-10.8601
 30
0.0
 10
-12.4527
 20
-10.8601
 30
0.0
 10
-12.4527
 20
-10.8601
 30
0.0
 10
-19.672
 20
-18.1611
 30
0.0
 10
-19.672
 20
-18.1611
 30
0.0
 10
-19.672
 20
-18.1611
 30
0.0
 10
-19.672
 20
-18.1611
 30
0.0
 10
-19.672
 20
-42.4932
 30
0.0
 10
-19.672
 20
-42.4932
 30
0.0
  0
SPLINE
  5
4D
330
1F
100
AcDbEntity
  8
layer 1
 62
     7
100
AcDbSpline
210
0.0
220
0.0
230
1.0
 70
    11
 71
     3
 72
    20
 73
    16
 74
     0
 42
0.0000000001
 43
0.0000000001
 12
1.0
 22
0.0
 32
0.0
 13
1.0
 23
0.0
 33
0.0
 40
0.0
 40
0.0
 40
0.0
 40
0.0
 40
0.2
 40
0.2
 40
0.2
 40
0.2
 40
0.4
 40
0.4
 40
0.4
 40
0.4
 40
0.6
 40
0.6
 40
0.6
 40
0.6
 40
1.0
 40
1.0
 40
1.0
 40
1.0
 10
44.6615
 20
-108.7161
 30
0.0
 10
44.6615
 20
-108.7161
 30
0.0
 10
44.6615
 20
-97.5855
 30
0.0
 10
44.6615
 20
-97.5855
 30
0.0
 10
44.6615
 20
-97.5855
 30
0.0
 10
44.6615
 20
-97.5855
 30
0.0
 10
33.5309
 20
-97.5855
 30
0.0
 10
33.5309
 20
-97.5855
 30
0.0
 10
33.5309
 20
-97.5855
 30
0.0
 10
33.5309
 20
-97.5855
 30
0.0
 10
33.5309
 20
-108.7161
 30
0.0
 10
33.5309
 20
-108.7161
 30
0.0
 10
33.5309
 20
-108.7161
 30
0.0
 10
33.5309
 20
-108.7161
 30
0.0
 10
44.6615
 20
-108.7161
 30
0.0
 10
44.6615
 20
-108.7161
 30
0.0
  0
SPLINE
  5
4E
330
1F
100
AcDbEntity
  8
layer 1
 62
     7
100
AcDbSpline
210
0.0
220
0.0
230
1.0
 70
    11
 71
     3
 72
    28
 73
    24
 74
     0
 42
0.0000000001
 43
0.0000000001
 12
1.0
 22
0.0
 32
0.0
 13
1.0
 23
0.0
 33
0.0
 40
0.0
 40
0.0
 40
0.0
 40
0.0
 40
0.1428571428571428
 40
0.1428571428571428
 40
0.1428571428571428
 40
0.1428571428571428
 40
0.2857142857142857
 40
0.2857142857142857
 40
0.2857142857142857
 40
0.2857142857142857
 40
0.4285714285714285
 40
0.4285714285714285
 40
0.4285714285714285
 40
0.4285714285714285
 40
0.5714285714285714
 40
0.5714285714285714
 40
0.5714285714285714
 40
0.5714285714285714
 40
0.7142857142857143
 40
0.7142857142857143
 40
0.7142857142857143
 40
0.7142857142857143
 40
1.0
 40
1.0
 40
1.0
 40
1.0
 10
44.6615
 20
-93.7506
 30
0.0
 10
44.6615
 20
-93.7506
 30
0.0
 10
44.6615
 20
-81.5911
 30
0.0
 10
44.6615
 20
-81.5911
 30
0.0
 10
44.6615
 20
-81.5911
 30
0.0
 10
44.6615
 20
-81.5911
 30
0.0
 10
34.3951
 20
-81.5911
 30
0.0
 10
34.3951
 20
-81.5911
 30
0.0
 10
34.3951
 20
-81.5911
 30
0.0
 10
34.3951
 20
-81.5911
 30
0.0
 10
34.4713
 20
-71.678
 30
0.0
 10
34.4713
 20
-71.678
 30
0.0
 10
34.4713
 20
-71.678
 30
0.0
 10
27.0136
 20
-73.1241
 30
0.0
 10
25.5544
 20
-74.9255
 30
0.0
 10
23.5359
 20
-84.9988
 30
0.0
 10
23.5359
 20
-84.9988
 30
0.0
 10
23.5359
 20
-84.9988
 30
0.0
 10
32.4125
 20
-93.7506
 30
0.0
 10
32.4125
 20
-93.7506
 30
0.0
 10
32.4125
 20
-93.7506
 30
0.0
 10
32.4125
 20
-93.7506
 30
0.0
 10
44.6615
 20
-93.7506
 30
0.0
 10
44.6615
 20
-93.7506
 30
0.0
  0
SPLINE
  5
4F
330
1F
100
AcDbEntity
  8
layer 1
 62
     7
100
AcDbSpline
210
0.0
220
0.0
230
1.0
 70
    11
 71
     3
 72
    24
 73
    20
 74
     0
 42
0.0000000001
 43
0.0000000001
 12
1.0
 22
0.0
 32
0.0
 13
1.0
 23
0.0
 33
0.0
 40
0.0
 40
0.0
 40
0.0
 40
0.0
 40
0.1666666666666667
 40
0.1666666666666667
 40
0.1666666666666667
 40
0.1666666666666667
 40
0.3333333333333333
 40
0.3333333333333333
 40
0.3333333333333333
 40
0.3333333333333333
 40
0.5
 40
0.5
 40
0.5
 40
0.5
 40
0.6666666666666666
 40
0.6666666666666666
 40
0.6666666666666666
 40
0.6666666666666666
 40
1.0
 40
1.0
 40
1.0
 40
1.0
 10
29.5927
 20
-108.7161
 30
0.0
 10
29.5927
 20
-108.7161
 30
0.0
 10
29.5927
 20
-96.5715
 30
0.0
 10
29.5927
 20
-96.5715
 30
0.0
 10
29.5927
 20
-96.5715
 30
0.0
 10
29.5927
 20
-96.5715
 30
0.0
 10
22.3734
 20
-89.2704
 30
0.0
 10
22.3734
 20
-89.2704
 30
0.0
 10
22.3734
 20
-89.2704
 30
0.0
 10
20.6483
 20
-94.9017
 30
0.0
 10
17.3876
 20
-97.5488
 30
0.0
 10
12.5044
 20
-98.8632
 30
0.0
 10
12.5044
 20
-98.8632
 30
0.0
 10
13.5246
 20
-103.0167
 30
0.0
 10
11.7634
 20
-106.3589
 30
0.0
 10
7.3078
 20
-108.7161
 30
0.0
 10
7.3078
 20
-108.7161
 30
0.0
 10
7.3078
 20
-108.7161
 30
0.0
 10
29.5927
 20
-108.7161
 30
0.0
 10
29.5927
 20
-108.7161
 30
0.0
  0
SPLINE
  5
50
330
1F
100
AcDbEntity
  8
layer 1
 62
     7
100
AcDbSpline
210
0.0
220
0.0
230
1.0
 70
    11
 71
     3
 72
    84
 73
    80
 74
     0
 42
0.0000000001
 43
0.0000000001
 12
1.0
 22
0.0
 32
0.0
 13
1.0
 23
0.0
 33
0.0
 40
0.0
 40
0.0
 40
0.0
 40
0.0
 40
0.0476190476190476
 40
0.0476190476190476
 40
0.0476190476190476
 40
0.0476190476190476
 40
0.0952380952380952
 40
0.0952380952380952
 40
0.0952380952380952
 40
0.0952380952380952
 40
0.1428571428571428
 40
0.1428571428571428
 40
0.1428571428571428
 40
0.1428571428571428
 40
0.1904761904761905
 40
0.1904761904761905
 40
0.1904761904761905
 40
0.1904761904761905
 40
0.2380952380952381
 40
0.2380952380952381
 40
0.2380952380952381
 40
0.2380952380952381
 40
0.2857142857142857
 40
0.2857142857142857
 40
0.2857142857142857
 40
0.2857142857142857
 40
0.3333333333333333
 40
0.3333333333333333
 40
0.3333333333333333
 40
0.3333333333333333
 40
0.3809523809523809
 40
0.3809523809523809
 40
0.3809523809523809
 40
0.3809523809523809
 40
0.4285714285714285
 40
0.4285714285714285
 40
0.4285714285714285
 40
0.4285714285714285
 40
0.4761904761904762
 40
0.4761904761904762
 40
0.4761904761904762
 40
0.4761904761904762
 40
0.5238095238095238
 40
0.5238095238095238
 40
0.5238095238095238
 40
0.5238095238095238
 40
0.5714285714285714
 40
0.5714285714285714
 40
0.5714285714285714
 40
0.5714285714285714
 40
0.6190476190476191
 40
0.6190476190476191
 40
0.6190476190476191
 40
0.6190476190476191
 40
0.6666666666666666
 40
0.6666666666666666
 40
0.6666666666666666
 40
0.6666666666666666
 40
0.7142857142857143
 40
0.7142857142857143
 40
0.7142857142857143
 40
0.7142857142857143
 40
0.7619047619047619
 40
0.7619047619047619
 40
0.7619047619047619
 40
0.7619047619047619
 40
0.8095238095238095
 40
0.8095238095238095
 40
0.8095238095238095
 40
0.8095238095238095
 40
0.8571428571428571
 40
0.8571428571428571
 40
0.8571428571428571
 40
0.8571428571428571
 40
0.9047619047619048
 40
0.9047619047619048
 40
0.9047619047619048
 40
0.9047619047619048
 40
1.0
 40
1.0
 40
1.0
 40
1.0
 10
4.9603
 20
-91.8572
 30
0.0
 10
6.3354
 20
-91.0311
 30
0.0
 10
7.0623
 20
-89.0631
 30
0.0
 10
7.0487
 20
-87.4976
 30
0.0
 10
7.0487
 20
-87.4976
 30
0.0
 10
8.1086
 20
-87.2777
 30
0.0
 10
9.4994
 20
-87.4851
 30
0.0
 10
10.8067
 20
-85.237
 30
0.0
 10
10.8067
 20
-85.237
 30
0.0
 10
11.0135
 20
-84.7697
 30
0.0
 10
10.747
 20
-84.7222
 30
0.0
 10
10.3777
 20
-84.7458
 30
0.0
 10
10.3777
 20
-84.7458
 30
0.0
 10
8.848
 20
-84.8434
 30
0.0
 10
6.7716
 20
-83.5326
 30
0.0
 10
6.727
 20
-82.5615
 30
0.0
 10
6.727
 20
-82.5615
 30
0.0
 10
6.727
 20
-82.5615
 30
0.0
 10
6.7848
 20
-78.8889
 30
0.0
 10
6.7848
 20
-78.8889
 30
0.0
 10
6.7848
 20
-78.8889
 30
0.0
 10
6.7848
 20
-78.8889
 30
0.0
 10
9.5481
 20
-76.2713
 30
0.0
 10
9.5481
 20
-76.2713
 30
0.0
 10
9.5481
 20
-76.2713
 30
0.0
 10
9.5481
 20
-76.2713
 30
0.0
 10
19.0498
 20
-85.7474
 30
0.0
 10
19.0498
 20
-85.7474
 30
0.0
 10
19.0498
 20
-85.7474
 30
0.0
 10
18.6316
 20
-92.2338
 30
0.0
 10
13.5074
 20
-95.9237
 30
0.0
 10
8.1538
 20
-95.9249
 30
0.0
 10
8.1538
 20
-95.9249
 30
0.0
 10
7.7444
 20
-96.3657
 30
0.0
 10
7.4769
 20
-96.8726
 30
0.0
 10
7.4721
 20
-97.4754
 30
0.0
 10
7.4721
 20
-97.4754
 30
0.0
 10
10.2484
 20
-99.455
 30
0.0
 10
9.1317
 20
-105.1995
 30
0.0
 10
4.9603
 20
-105.225
 30
0.0
 10
4.9603
 20
-105.225
 30
0.0
 10
0.789
 20
-105.1995
 30
0.0
 10
-0.3277
 20
-99.455
 30
0.0
 10
2.4486
 20
-97.4754
 30
0.0
 10
2.4486
 20
-97.4754
 30
0.0
 10
2.4438
 20
-96.8726
 30
0.0
 10
2.1763
 20
-96.3657
 30
0.0
 10
1.7669
 20
-95.9249
 30
0.0
 10
1.7669
 20
-95.9249
 30
0.0
 10
-3.5867
 20
-95.9237
 30
0.0
 10
-8.7109
 20
-92.2338
 30
0.0
 10
-9.1291
 20
-85.7474
 30
0.0
 10
-9.1291
 20
-85.7474
 30
0.0
 10
-9.1291
 20
-85.7474
 30
0.0
 10
0.3726
 20
-76.2713
 30
0.0
 10
0.3726
 20
-76.2713
 30
0.0
 10
0.3726
 20
-76.2713
 30
0.0
 10
0.3726
 20
-76.2713
 30
0.0
 10
3.1359
 20
-78.8889
 30
0.0
 10
3.1359
 20
-78.8889
 30
0.0
 10
3.1359
 20
-78.8889
 30
0.0
 10
3.1359
 20
-78.8889
 30
0.0
 10
3.1937
 20
-82.5615
 30
0.0
 10
3.1937
 20
-82.5615
 30
0.0
 10
3.1937
 20
-82.5615
 30
0.0
 10
3.1491
 20
-83.5326
 30
0.0
 10
1.0727
 20
-84.8434
 30
0.0
 10
-0.457
 20
-84.7458
 30
0.0
 10
-0.457
 20
-84.7458
 30
0.0
 10
-0.8263
 20
-84.7222
 30
0.0
 10
-1.0928
 20
-84.7697
 30
0.0
 10
-0.886
 20
-85.237
 30
0.0
 10
-0.886
 20
-85.237
 30
0.0
 10
0.4213
 20
-87.4851
 30
0.0
 10
1.8121
 20
-87.2777
 30
0.0
 10
2.872
 20
-87.4976
 30
0.0
 10
2.872
 20
-87.4976
 30
0.0
 10
2.8584
 20
-89.0631
 30
0.0
 10
3.5853
 20
-91.0311
 30
0.0
 10
4.9603
 20
-91.8572
 30
0.0
  0
SPLINE
  5
51
330
1F
100
AcDbEntity
  8
layer 1
 62
     7
100
AcDbSpline
210
0.0
220
0.0
230
1.0
 70
    11
 71
     3
 72
    28
 73
    24
 74
     0
 42
0.0000000001
 43
0.0000000001
 12
1.0
 22
0.0
 32
0.0
 13
1.0
 23
0.0
 33
0.0
 40
0.0
 40
0.0
 40
0.0
 40
0.0
 40
0.1428571428571428
 40
0.1428571428571428
 40
0.1428571428571428
 40
0.1428571428571428
 40
0.2857142857142857
 40
0.2857142857142857
 40
0.2857142857142857
 40
0.2857142857142857
 40
0.4285714285714285
 40
0.4285714285714285
 40
0.4285714285714285
 40
0.4285714285714285
 40
0.5714285714285714
 40
0.5714285714285714
 40
0.5714285714285714
 40
0.5714285714285714
 40
0.7142857142857143
 40
0.7142857142857143
 40
0.7142857142857143
 40
0.7142857142857143
 40
1.0
 40
1.0
 40
1.0
 40
1.0
 10
29.1078
 20
-69.5323
 30
0.0
 10
23.6019
 20
-70.637
 30
0.0
 10
22.1505
 20
-75.8659
 30
0.0
 10
20.3021
 20
-81.6874
 30
0.0
 10
20.3021
 20
-81.6874
 30
0.0
 10
20.3021
 20
-81.6874
 30
0.0
 10
12.1518
 20
-73.5226
 30
0.0
 10
12.1518
 20
-73.5226
 30
0.0
 10
12.1518
 20
-73.5226
 30
0.0
 10
12.1518
 20
-73.5226
 30
0.0
 10
16.36
 20
-69.5323
 30
0.0
 10
16.36
 20
-69.5323
 30
0.0
 10
16.36
 20
-69.5323
 30
0.0
 10
16.36
 20
-69.5323
 30
0.0
 10
12.1518
 20
-65.542
 30
0.0
 10
12.1518
 20
-65.542
 30
0.0
 10
12.1518
 20
-65.542
 30
0.0
 10
12.1518
 20
-65.542
 30
0.0
 10
20.3021
 20
-57.3772
 30
0.0
 10
20.3021
 20
-57.3772
 30
0.0
 10
20.3021
 20
-57.3772
 30
0.0
 10
22.1505
 20
-63.1987
 30
0.0
 10
23.6019
 20
-68.4276
 30
0.0
 10
29.1078
 20
-69.5323
 30
0.0
  0
SPLINE
  5
52
330
1F
100
AcDbEntity
  8
layer 1
 62
     7
100
AcDbSpline
210
0.0
220
0.0
230
1.0
 70
    11
 71
     3
 72
    20
 73
    16
 74
     0
 42
0.0000000001
 43
0.0000000001
 12
1.0
 22
0.0
 32
0.0
 13
1.0
 23
0.0
 33
0.0
 40
0.0
 40
0.0
 40
0.0
 40
0.0
 40
0.2
 40
0.2
 40
0.2
 40
0.2
 40
0.4
 40
0.4
 40
0.4
 40
0.4
 40
0.6
 40
0.6
 40
0.6
 40
0.6
 40
1.0
 40
1.0
 40
1.0
 40
1.0
 10
44.6687
 20
-61.1003
 30
0.0
 10
44.6687
 20
-61.1003
 30
0.0
 10
44.6687
 20
-78.0768
 30
0.0
 10
44.6687
 20
-78.0768
 30
0.0
 10
44.6687
 20
-78.0768
 30
0.0
 10
44.6687
 20
-78.0768
 30
0.0
 10
38.3084
 20
-78.0768
 30
0.0
 10
38.3084
 20
-78.0768
 30
0.0
 10
38.3084
 20
-78.0768
 30
0.0
 10
38.3084
 20
-78.0768
 30
0.0
 10
38.3084
 20
-61.1003
 30
0.0
 10
38.3084
 20
-61.1003
 30
0.0
 10
38.3084
 20
-61.1003
 30
0.0
 10
38.3084
 20
-61.1003
 30
0.0
 10
44.6687
 20
-61.1003
 30
0.0
 10
44.6687
 20
-61.1003
 30
0.0
  0
SPLINE
  5
53
330
1F
100
AcDbEntity
  8
layer 1
 62
     7
100
AcDbSpline
210
0.0
220
0.0
230
1.0
 70
    11
 71
     3
 72
    28
 73
    24
 74
     0
 42
0.0000000001
 43
0.0000000001
 12
1.0
 22
0.0
 32
0.0
 13
1.0
 23
0.0
 33
0.0
 40
0.0
 40
0.0
 40
0.0
 40
0.0
 40
0.1428571428571428
 40
0.1428571428571428
 40
0.1428571428571428
 40
0.1428571428571428
 40
0.2857142857142857
 40
0.2857142857142857
 40
0.2857142857142857
 40
0.2857142857142857
 40
0.4285714285714285
 40
0.4285714285714285
 40
0.4285714285714285
 40
0.4285714285714285
 40
0.5714285714285714
 40
0.5714285714285714
 40
0.5714285714285714
 40
0.5714285714285714
 40
0.7142857142857143
 40
0.7142857142857143
 40
0.7142857142857143
 40
0.7142857142857143
 40
1.0
 40
1.0
 40
1.0
 40
1.0
 10
44.6615
 20
-45.314
 30
0.0
 10
44.6615
 20
-45.314
 30
0.0
 10
44.6615
 20
-57.4735
 30
0.0
 10
44.6615
 20
-57.4735
 30
0.0
 10
44.6615
 20
-57.4735
 30
0.0
 10
44.6615
 20
-57.4735
 30
0.0
 10
34.3951
 20
-57.4735
 30
0.0
 10
34.3951
 20
-57.4735
 30
0.0
 10
34.3951
 20
-57.4735
 30
0.0
 10
34.3951
 20
-57.4735
 30
0.0
 10
34.4713
 20
-67.3866
 30
0.0
 10
34.4713
 20
-67.3866
 30
0.0
 10
34.4713
 20
-67.3866
 30
0.0
 10
27.0136
 20
-65.9405
 30
0.0
 10
25.5544
 20
-64.1391
 30
0.0
 10
23.5359
 20
-54.0658
 30
0.0
 10
23.5359
 20
-54.0658
 30
0.0
 10
23.5359
 20
-54.0658
 30
0.0
 10
32.4125
 20
-45.314
 30
0.0
 10
32.4125
 20
-45.314
 30
0.0
 10
32.4125
 20
-45.314
 30
0.0
 10
32.4125
 20
-45.314
 30
0.0
 10
44.6615
 20
-45.314
 30
0.0
 10
44.6615
 20
-45.314
 30
0.0
  0
SPLINE
  5
54
330
1F
100
AcDbEntity
  8
layer 1
 62
     7
100
AcDbSpline
210
0.0
220
0.0
230
1.0
 70
    11
 71
     3
 72
    84
 73
    80
 74
     0
 42
0.0000000001
 43
0.0000000001
 12
1.0
 22
0.0
 32
0.0
 13
1.0
 23
0.0
 33
0.0
 40
0.0
 40
0.0
 40
0.0
 40
0.0
 40
0.0476190476190476
 40
0.0476190476190476
 40
0.0476190476190476
 40
0.0476190476190476
 40
0.0952380952380952
 40
0.0952380952380952
 40
0.0952380952380952
 40
0.0952380952380952
 40
0.1428571428571428
 40
0.1428571428571428
 40
0.1428571428571428
 40
0.1428571428571428
 40
0.1904761904761905
 40
0.1904761904761905
 40
0.1904761904761905
 40
0.1904761904761905
 40
0.2380952380952381
 40
0.2380952380952381
 40
0.2380952380952381
 40
0.2380952380952381
 40
0.2857142857142857
 40
0.2857142857142857
 40
0.2857142857142857
 40
0.2857142857142857
 40
0.3333333333333333
 40
0.3333333333333333
 40
0.3333333333333333
 40
0.3333333333333333
 40
0.3809523809523809
 40
0.3809523809523809
 40
0.3809523809523809
 40
0.3809523809523809
 40
0.4285714285714285
 40
0.4285714285714285
 40
0.4285714285714285
 40
0.4285714285714285
 40
0.4761904761904762
 40
0.4761904761904762
 40
0.4761904761904762
 40
0.4761904761904762
 40
0.5238095238095238
 40
0.5238095238095238
 40
0.5238095238095238
 40
0.5238095238095238
 40
0.5714285714285714
 40
0.5714285714285714
 40
0.5714285714285714
 40
0.5714285714285714
 40
0.6190476190476191
 40
0.6190476190476191
 40
0.6190476190476191
 40
0.6190476190476191
 40
0.6666666666666666
 40
0.6666666666666666
 40
0.6666666666666666
 40
0.6666666666666666
 40
0.7142857142857143
 40
0.7142857142857143
 40
0.7142857142857143
 40
0.7142857142857143
 40
0.7619047619047619
 40
0.7619047619047619
 40
0.7619047619047619
 40
0.7619047619047619
 40
0.8095238095238095
 40
0.8095238095238095
 40
0.8095238095238095
 40
0.8095238095238095
 40
0.8571428571428571
 40
0.8571428571428571
 40
0.8571428571428571
 40
0.8571428571428571
 40
0.9047619047619048
 40
0.9047619047619048
 40
0.9047619047619048
 40
0.9047619047619048
 40
1.0
 40
1.0
 40
1.0
 40
1.0
 10
4.9603
 20
-33.8396
 30
0.0
 10
9.1317
 20
-33.8651
 30
0.0
 10
10.2484
 20
-39.6096
 30
0.0
 10
7.4721
 20
-41.5892
 30
0.0
 10
7.4721
 20
-41.5892
 30
0.0
 10
7.4769
 20
-42.1921
 30
0.0
 10
7.7444
 20
-42.6989
 30
0.0
 10
8.1538
 20
-43.1397
 30
0.0
 10
8.1538
 20
-43.1397
 30
0.0
 10
13.5074
 20
-43.141
 30
0.0
 10
18.6316
 20
-46.8308
 30
0.0
 10
19.0498
 20
-53.3172
 30
0.0
 10
19.0498
 20
-53.3172
 30
0.0
 10
19.0498
 20
-53.3172
 30
0.0
 10
9.5481
 20
-62.7933
 30
0.0
 10
9.5481
 20
-62.7933
 30
0.0
 10
9.5481
 20
-62.7933
 30
0.0
 10
9.5481
 20
-62.7933
 30
0.0
 10
6.7848
 20
-60.1758
 30
0.0
 10
6.7848
 20
-60.1758
 30
0.0
 10
6.7848
 20
-60.1758
 30
0.0
 10
6.7848
 20
-60.1758
 30
0.0
 10
6.727
 20
-56.5031
 30
0.0
 10
6.727
 20
-56.5031
 30
0.0
 10
6.727
 20
-56.5031
 30
0.0
 10
6.7716
 20
-55.532
 30
0.0
 10
8.848
 20
-54.2212
 30
0.0
 10
10.3777
 20
-54.3188
 30
0.0
 10
10.3777
 20
-54.3188
 30
0.0
 10
10.747
 20
-54.3424
 30
0.0
 10
11.0135
 20
-54.295
 30
0.0
 10
10.8067
 20
-53.8276
 30
0.0
 10
10.8067
 20
-53.8276
 30
0.0
 10
9.4994
 20
-51.5795
 30
0.0
 10
8.1086
 20
-51.7869
 30
0.0
 10
7.0487
 20
-51.567
 30
0.0
 10
7.0487
 20
-51.567
 30
0.0
 10
7.0623
 20
-50.0015
 30
0.0
 10
6.3354
 20
-48.0335
 30
0.0
 10
4.9603
 20
-47.2074
 30
0.0
 10
4.9603
 20
-47.2074
 30
0.0
 10
3.5853
 20
-48.0335
 30
0.0
 10
2.8584
 20
-50.0015
 30
0.0
 10
2.872
 20
-51.567
 30
0.0
 10
2.872
 20
-51.567
 30
0.0
 10
1.8121
 20
-51.7869
 30
0.0
 10
0.4213
 20
-51.5795
 30
0.0
 10
-0.886
 20
-53.8276
 30
0.0
 10
-0.886
 20
-53.8276
 30
0.0
 10
-1.0928
 20
-54.295
 30
0.0
 10
-0.8263
 20
-54.3424
 30
0.0
 10
-0.457
 20
-54.3188
 30
0.0
 10
-0.457
 20
-54.3188
 30
0.0
 10
1.0727
 20
-54.2212
 30
0.0
 10
3.1491
 20
-55.532
 30
0.0
 10
3.1937
 20
-56.5031
 30
0.0
 10
3.1937
 20
-56.5031
 30
0.0
 10
3.1937
 20
-56.5031
 30
0.0
 10
3.1359
 20
-60.1758
 30
0.0
 10
3.1359
 20
-60.1758
 30
0.0
 10
3.1359
 20
-60.1758
 30
0.0
 10
3.1359
 20
-60.1758
 30
0.0
 10
0.3726
 20
-62.7933
 30
0.0
 10
0.3726
 20
-62.7933
 30
0.0
 10
0.3726
 20
-62.7933
 30
0.0
 10
0.3726
 20
-62.7933
 30
0.0
 10
-9.1291
 20
-53.3172
 30
0.0
 10
-9.1291
 20
-53.3172
 30
0.0
 10
-9.1291
 20
-53.3172
 30
0.0
 10
-8.7109
 20
-46.8308
 30
0.0
 10
-3.5867
 20
-43.141
 30
0.0
 10
1.7669
 20
-43.1397
 30
0.0
 10
1.7669
 20
-43.1397
 30
0.0
 10
2.1763
 20
-42.6989
 30
0.0
 10
2.4438
 20
-42.1921
 30
0.0
 10
2.4486
 20
-41.5892
 30
0.0
 10
2.4486
 20
-41.5892
 30
0.0
 10
-0.3277
 20
-39.6096
 30
0.0
 10
0.789
 20
-33.8651
 30
0.0
 10
4.9603
 20
-33.8396
 30
0.0
  0
SPLINE
  5
55
330
1F
100
AcDbEntity
  8
layer 1
 62
     7
100
AcDbSpline
210
0.0
220
0.0
230
1.0
 70
    11
 71
     3
 72
    20
 73
    16
 74
     0
 42
0.0000000001
 43
0.0000000001
 12
1.0
 22
0.0
 32
0.0
 13
1.0
 23
0.0
 33
0.0
 40
0.0
 40
0.0
 40
0.0
 40
0.0
 40
0.2
 40
0.2
 40
0.2
 40
0.2
 40
0.4
 40
0.4
 40
0.4
 40
0.4
 40
0.6
 40
0.6
 40
0.6
 40
0.6
 40
1.0
 40
1.0
 40
1.0
 40
1.0
 10
-34.7408
 20
-41.4791
 30
0.0
 10
-34.7408
 20
-41.4791
 30
0.0
 10
-34.7408
 20
-19.1752
 30
0.0
 10
-34.7408
 20
-19.1752
 30
0.0
 10
-34.7408
 20
-19.1752
 30
0.0
 10
-34.7408
 20
-19.1752
 30
0.0
 10
-23.6102
 20
-19.1752
 30
0.0
 10
-23.6102
 20
-19.1752
 30
0.0
 10
-23.6102
 20
-19.1752
 30
0.0
 10
-23.6102
 20
-19.1752
 30
0.0
 10
-23.6102
 20
-41.4791
 30
0.0
 10
-23.6102
 20
-41.4791
 30
0.0
 10
-23.6102
 20
-41.4791
 30
0.0
 10
-23.6102
 20
-41.4791
 30
0.0
 10
-34.7408
 20
-41.4791
 30
0.0
 10
-34.7408
 20
-41.4791
 30
0.0
  0
SPLINE
  5
56
330
1F
100
AcDbEntity
  8
layer 1
 62
     7
100
AcDbSpline
210
0.0
220
0.0
230
1.0
 70
    11
 71
     3
 72
    28
 73
    24
 74
     0
 42
0.0000000001
 43
0.0000000001
 12
1.0
 22
0.0
 32
0.0
 13
1.0
 23
0.0
 33
0.0
 40
0.0
 40
0.0
 40
0.0
 40
0.0
 40
0.1428571428571428
 40
0.1428571428571428
 40
0.1428571428571428
 40
0.1428571428571428
 40
0.2857142857142857
 40
0.2857142857142857
 40
0.2857142857142857
 40
0.2857142857142857
 40
0.4285714285714285
 40
0.4285714285714285
 40
0.4285714285714285
 40
0.4285714285714285
 40
0.5714285714285714
 40
0.5714285714285714
 40
0.5714285714285714
 40
0.5714285714285714
 40
0.7142857142857143
 40
0.7142857142857143
 40
0.7142857142857143
 40
0.7142857142857143
 40
1.0
 40
1.0
 40
1.0
 40
1.0
 10
-34.7408
 20
-15.3403
 30
0.0
 10
-34.7408
 20
-15.3403
 30
0.0
 10
-34.7408
 20
-3.1808
 30
0.0
 10
-34.7408
 20
-3.1808
 30
0.0
 10
-34.7408
 20
-3.1808
 30
0.0
 10
-34.7408
 20
-3.1808
 30
0.0
 10
-24.4744
 20
-3.1808
 30
0.0
 10
-24.4744
 20
-3.1808
 30
0.0
 10
-24.4744
 20
-3.1808
 30
0.0
 10
-24.4744
 20
-3.1808
 30
0.0
 10
-24.5506
 20
6.7323
 30
0.0
 10
-24.5506
 20
6.7323
 30
0.0
 10
-24.5506
 20
6.7323
 30
0.0
 10
-17.0929
 20
5.2862
 30
0.0
 10
-15.6337
 20
3.4848
 30
0.0
 10
-13.6152
 20
-6.5885
 30
0.0
 10
-13.6152
 20
-6.5885
 30
0.0
 10
-13.6152
 20
-6.5885
 30
0.0
 10
-22.4918
 20
-15.3403
 30
0.0
 10
-22.4918
 20
-15.3403
 30
0.0
 10
-22.4918
 20
-15.3403
 30
0.0
 10
-22.4918
 20
-15.3403
 30
0.0
 10
-34.7408
 20
-15.3403
 30
0.0
 10
-34.7408
 20
-15.3403
 30
0.0
  0
SPLINE
  5
57
330
1F
100
AcDbEntity
  8
layer 1
 62
     7
100
AcDbSpline
210
0.0
220
0.0
230
1.0
 70
    11
 71
     3
 72
    28
 73
    24
 74
     0
 42
0.0000000001
 43
0.0000000001
 12
1.0
 22
0.0
 32
0.0
 13
1.0
 23
0.0
 33
0.0
 40
0.0
 40
0.0
 40
0.0
 40
0.0
 40
0.1428571428571428
 40
0.1428571428571428
 40
0.1428571428571428
 40
0.1428571428571428
 40
0.2857142857142857
 40
0.2857142857142857
 40
0.2857142857142857
 40
0.2857142857142857
 40
0.4285714285714285
 40
0.4285714285714285
 40
0.4285714285714285
 40
0.4285714285714285
 40
0.5714285714285714
 40
0.5714285714285714
 40
0.5714285714285714
 40
0.5714285714285714
 40
0.7142857142857143
 40
0.7142857142857143
 40
0.7142857142857143
 40
0.7142857142857143
 40
1.0
 40
1.0
 40
1.0
 40
1.0
 10
-19.1871
 20
8.8781
 30
0.0
 10
-13.6812
 20
7.7733
 30
0.0
 10
-12.2298
 20
2.5444
 30
0.0
 10
-10.3814
 20
-3.2771
 30
0.0
 10
-10.3814
 20
-3.2771
 30
0.0
 10
-10.3814
 20
-3.2771
 30
0.0
 10
-2.2311
 20
4.8877
 30
0.0
 10
-2.2311
 20
4.8877
 30
0.0
 10
-2.2311
 20
4.8877
 30
0.0
 10
-2.2311
 20
4.8877
 30
0.0
 10
-6.4393
 20
8.8781
 30
0.0
 10
-6.4393
 20
8.8781
 30
0.0
 10
-6.4393
 20
8.8781
 30
0.0
 10
-6.4393
 20
8.8781
 30
0.0
 10
-2.2311
 20
12.8683
 30
0.0
 10
-2.2311
 20
12.8683
 30
0.0
 10
-2.2311
 20
12.8683
 30
0.0
 10
-2.2311
 20
12.8683
 30
0.0
 10
-10.3814
 20
21.0331
 30
0.0
 10
-10.3814
 20
21.0331
 30
0.0
 10
-10.3814
 20
21.0331
 30
0.0
 10
-12.2298
 20
15.2116
 30
0.0
 10
-13.6812
 20
9.9827
 30
0.0
 10
-19.1871
 20
8.8781
 30
0.0
  0
SPLINE
  5
58
330
1F
100
AcDbEntity
  8
layer 1
 62
     7
100
AcDbSpline
210
0.0
220
0.0
230
1.0
 70
    11
 71
     3
 72
    20
 73
    16
 74
     0
 42
0.0000000001
 43
0.0000000001
 12
1.0
 22
0.0
 32
0.0
 13
1.0
 23
0.0
 33
0.0
 40
0.0
 40
0.0
 40
0.0
 40
0.0
 40
0.2
 40
0.2
 40
0.2
 40
0.2
 40
0.4
 40
0.4
 40
0.4
 40
0.4
 40
0.6
 40
0.6
 40
0.6
 40
0.6
 40
1.0
 40
1.0
 40
1.0
 40
1.0
 10
5.0373
 20
2.6749
 30
0.0
 10
5.0373
 20
2.6749
 30
0.0
 10
-1.1421
 20
8.8544
 30
0.0
 10
-1.1421
 20
8.8544
 30
0.0
 10
-1.1421
 20
8.8544
 30
0.0
 10
-1.1421
 20
8.8544
 30
0.0
 10
5.0373
 20
15.0338
 30
0.0
 10
5.0373
 20
15.0338
 30
0.0
 10
5.0373
 20
15.0338
 30
0.0
 10
5.0373
 20
15.0338
 30
0.0
 10
11.2167
 20
8.8544
 30
0.0
 10
11.2167
 20
8.8544
 30
0.0
 10
11.2167
 20
8.8544
 30
0.0
 10
11.2167
 20
8.8544
 30
0.0
 10
5.0373
 20
2.6749
 30
0.0
 10
5.0373
 20
2.6749
 30
0.0
  0
SPLINE
  5
59
330
1F
100
AcDbEntity
  8
layer 1
 62
     7
100
AcDbSpline
210
0.0
220
0.0
230
1.0
 70
    11
 71
     3
 72
    20
 73
    16
 74
     0
 42
0.0000000001
 43
0.0000000001
 12
1.0
 22
0.0
 32
0.0
 13
1.0
 23
0.0
 33
0.0
 40
0.0
 40
0.0
 40
0.0
 40
0.0
 40
0.2
 40
0.2
 40
0.2
 40
0.2
 40
0.4
 40
0.4
 40
0.4
 40
0.4
 40
0.6
 40
0.6
 40
0.6
 40
0.6
 40
1.0
 40
1.0
 40
1.0
 40
1.0
 10
-34.748
 20
17.31
 30
0.0
 10
-34.748
 20
17.31
 30
0.0
 10
-34.748
 20
0.3335
 30
0.0
 10
-34.748
 20
0.3335
 30
0.0
 10
-34.748
 20
0.3335
 30
0.0
 10
-34.748
 20
0.3335
 30
0.0
 10
-28.3877
 20
0.3335
 30
0.0
 10
-28.3877
 20
0.3335
 30
0.0
 10
-28.3877
 20
0.3335
 30
0.0
 10
-28.3877
 20
0.3335
 30
0.0
 10
-28.3877
 20
17.31
 30
0.0
 10
-28.3877
 20
17.31
 30
0.0
 10
-28.3877
 20
17.31
 30
0.0
 10
-28.3877
 20
17.31
 30
0.0
 10
-34.748
 20
17.31
 30
0.0
 10
-34.748
 20
17.31
 30
0.0
  0
SPLINE
  5
5A
330
1F
100
AcDbEntity
  8
layer 1
 62
     7
100
AcDbSpline
210
0.0
220
0.0
230
1.0
 70
    11
 71
     3
 72
    28
 73
    24
 74
     0
 42
0.0000000001
 43
0.0000000001
 12
1.0
 22
0.0
 32
0.0
 13
1.0
 23
0.0
 33
0.0
 40
0.0
 40
0.0
 40
0.0
 40
0.0
 40
0.1428571428571428
 40
0.1428571428571428
 40
0.1428571428571428
 40
0.1428571428571428
 40
0.2857142857142857
 40
0.2857142857142857
 40
0.2857142857142857
 40
0.2857142857142857
 40
0.4285714285714285
 40
0.4285714285714285
 40
0.4285714285714285
 40
0.4285714285714285
 40
0.5714285714285714
 40
0.5714285714285714
 40
0.5714285714285714
 40
0.5714285714285714
 40
0.7142857142857143
 40
0.7142857142857143
 40
0.7142857142857143
 40
0.7142857142857143
 40
1.0
 40
1.0
 40
1.0
 40
1.0
 10
-34.7408
 20
33.0963
 30
0.0
 10
-34.7408
 20
33.0963
 30
0.0
 10
-34.7408
 20
20.9368
 30
0.0
 10
-34.7408
 20
20.9368
 30
0.0
 10
-34.7408
 20
20.9368
 30
0.0
 10
-34.7408
 20
20.9368
 30
0.0
 10
-24.4744
 20
20.9368
 30
0.0
 10
-24.4744
 20
20.9368
 30
0.0
 10
-24.4744
 20
20.9368
 30
0.0
 10
-24.4744
 20
20.9368
 30
0.0
 10
-24.5506
 20
11.0237
 30
0.0
 10
-24.5506
 20
11.0237
 30
0.0
 10
-24.5506
 20
11.0237
 30
0.0
 10
-17.0929
 20
12.4699
 30
0.0
 10
-15.6337
 20
14.2712
 30
0.0
 10
-13.6152
 20
24.3446
 30
0.0
 10
-13.6152
 20
24.3446
 30
0.0
 10
-13.6152
 20
24.3446
 30
0.0
 10
-22.4918
 20
33.0963
 30
0.0
 10
-22.4918
 20
33.0963
 30
0.0
 10
-22.4918
 20
33.0963
 30
0.0
 10
-22.4918
 20
33.0963
 30
0.0
 10
-34.7408
 20
33.0963
 30
0.0
 10
-34.7408
 20
33.0963
 30
0.0
  0
SPLINE
  5
5B
330
1F
100
AcDbEntity
  8
layer 1
 62
     7
100
AcDbSpline
210
0.0
220
0.0
230
1.0
 70
    11
 71
     3
 72
    20
 73
    16
 74
     0
 42
0.0000000001
 43
0.0000000001
 12
1.0
 22
0.0
 32
0.0
 13
1.0
 23
0.0
 33
0.0
 40
0.0
 40
0.0
 40
0.0
 40
0.0
 40
0.2
 40
0.2
 40
0.2
 40
0.2
 40
0.4
 40
0.4
 40
0.4
 40
0.4
 40
0.6
 40
0.6
 40
0.6
 40
0.6
 40
1.0
 40
1.0
 40
1.0
 40
1.0
 10
44.6615
 20
-41.4364
 30
0.0
 10
44.6615
 20
-41.4364
 30
0.0
 10
44.6615
 20
-19.1752
 30
0.0
 10
44.6615
 20
-19.1752
 30
0.0
 10
44.6615
 20
-19.1752
 30
0.0
 10
44.6615
 20
-19.1752
 30
0.0
 10
33.5309
 20
-19.1752
 30
0.0
 10
33.5309
 20
-19.1752
 30
0.0
 10
33.5309
 20
-19.1752
 30
0.0
 10
33.5309
 20
-19.1752
 30
0.0
 10
33.5309
 20
-41.4364
 30
0.0
 10
33.5309
 20
-41.4364
 30
0.0
 10
33.5309
 20
-41.4364
 30
0.0
 10
33.5309
 20
-41.4364
 30
0.0
 10
44.6615
 20
-41.4364
 30
0.0
 10
44.6615
 20
-41.4364
 30
0.0
  0
SPLINE
  5
5C
330
1F
100
AcDbEntity
  8
layer 1
 62
     7
100
AcDbSpline
210
0.0
220
0.0
230
1.0
 70
    11
 71
     3
 72
    28
 73
    24
 74
     0
 42
0.0000000001
 43
0.0000000001
 12
1.0
 22
0.0
 32
0.0
 13
1.0
 23
0.0
 33
0.0
 40
0.0
 40
0.0
 40
0.0
 40
0.0
 40
0.1428571428571428
 40
0.1428571428571428
 40
0.1428571428571428
 40
0.1428571428571428
 40
0.2857142857142857
 40
0.2857142857142857
 40
0.2857142857142857
 40
0.2857142857142857
 40
0.4285714285714285
 40
0.4285714285714285
 40
0.4285714285714285
 40
0.4285714285714285
 40
0.5714285714285714
 40
0.5714285714285714
 40
0.5714285714285714
 40
0.5714285714285714
 40
0.7142857142857143
 40
0.7142857142857143
 40
0.7142857142857143
 40
0.7142857142857143
 40
1.0
 40
1.0
 40
1.0
 40
1.0
 10
44.6615
 20
-15.3403
 30
0.0
 10
44.6615
 20
-15.3403
 30
0.0
 10
44.6615
 20
-3.1808
 30
0.0
 10
44.6615
 20
-3.1808
 30
0.0
 10
44.6615
 20
-3.1808
 30
0.0
 10
44.6615
 20
-3.1808
 30
0.0
 10
34.3951
 20
-3.1808
 30
0.0
 10
34.3951
 20
-3.1808
 30
0.0
 10
34.3951
 20
-3.1808
 30
0.0
 10
34.3951
 20
-3.1808
 30
0.0
 10
34.4713
 20
6.7323
 30
0.0
 10
34.4713
 20
6.7323
 30
0.0
 10
34.4713
 20
6.7323
 30
0.0
 10
27.0136
 20
5.2862
 30
0.0
 10
25.5544
 20
3.4848
 30
0.0
 10
23.5359
 20
-6.5885
 30
0.0
 10
23.5359
 20
-6.5885
 30
0.0
 10
23.5359
 20
-6.5885
 30
0.0
 10
32.4125
 20
-15.3403
 30
0.0
 10
32.4125
 20
-15.3403
 30
0.0
 10
32.4125
 20
-15.3403
 30
0.0
 10
32.4125
 20
-15.3403
 30
0.0
 10
44.6615
 20
-15.3403
 30
0.0
 10
44.6615
 20
-15.3403
 30
0.0
  0
SPLINE
  5
5D
330
1F
100
AcDbEntity
  8
layer 1
 62
     7
100
AcDbSpline
210
0.0
220
0.0
230
1.0
 70
    11
 71
     3
 72
    84
 73
    80
 74
     0
 42
0.0000000001
 43
0.0000000001
 12
1.0
 22
0.0
 32
0.0
 13
1.0
 23
0.0
 33
0.0
 40
0.0
 40
0.0
 40
0.0
 40
0.0
 40
0.0476190476190476
 40
0.0476190476190476
 40
0.0476190476190476
 40
0.0476190476190476
 40
0.0952380952380952
 40
0.0952380952380952
 40
0.0952380952380952
 40
0.0952380952380952
 40
0.1428571428571428
 40
0.1428571428571428
 40
0.1428571428571428
 40
0.1428571428571428
 40
0.1904761904761905
 40
0.1904761904761905
 40
0.1904761904761905
 40
0.1904761904761905
 40
0.2380952380952381
 40
0.2380952380952381
 40
0.2380952380952381
 40
0.2380952380952381
 40
0.2857142857142857
 40
0.2857142857142857
 40
0.2857142857142857
 40
0.2857142857142857
 40
0.3333333333333333
 40
0.3333333333333333
 40
0.3333333333333333
 40
0.3333333333333333
 40
0.3809523809523809
 40
0.3809523809523809
 40
0.3809523809523809
 40
0.3809523809523809
 40
0.4285714285714285
 40
0.4285714285714285
 40
0.4285714285714285
 40
0.4285714285714285
 40
0.4761904761904762
 40
0.4761904761904762
 40
0.4761904761904762
 40
0.4761904761904762
 40
0.5238095238095238
 40
0.5238095238095238
 40
0.5238095238095238
 40
0.5238095238095238
 40
0.5714285714285714
 40
0.5714285714285714
 40
0.5714285714285714
 40
0.5714285714285714
 40
0.6190476190476191
 40
0.6190476190476191
 40
0.6190476190476191
 40
0.6190476190476191
 40
0.6666666666666666
 40
0.6666666666666666
 40
0.6666666666666666
 40
0.6666666666666666
 40
0.7142857142857143
 40
0.7142857142857143
 40
0.7142857142857143
 40
0.7142857142857143
 40
0.7619047619047619
 40
0.7619047619047619
 40
0.7619047619047619
 40
0.7619047619047619
 40
0.8095238095238095
 40
0.8095238095238095
 40
0.8095238095238095
 40
0.8095238095238095
 40
0.8571428571428571
 40
0.8571428571428571
 40
0.8571428571428571
 40
0.8571428571428571
 40
0.9047619047619048
 40
0.9047619047619048
 40
0.9047619047619048
 40
0.9047619047619048
 40
1.0
 40
1.0
 40
1.0
 40
1.0
 10
4.9603
 20
-13.4469
 30
0.0
 10
6.3354
 20
-12.6208
 30
0.0
 10
7.0623
 20
-10.6528
 30
0.0
 10
7.0487
 20
-9.0873
 30
0.0
 10
7.0487
 20
-9.0873
 30
0.0
 10
8.1086
 20
-8.8674
 30
0.0
 10
9.4994
 20
-9.0747
 30
0.0
 10
10.8067
 20
-6.8267
 30
0.0
 10
10.8067
 20
-6.8267
 30
0.0
 10
11.0135
 20
-6.3593
 30
0.0
 10
10.747
 20
-6.3119
 30
0.0
 10
10.3777
 20
-6.3354
 30
0.0
 10
10.3777
 20
-6.3354
 30
0.0
 10
8.848
 20
-6.4331
 30
0.0
 10
6.7716
 20
-5.1223
 30
0.0
 10
6.727
 20
-4.1511
 30
0.0
 10
6.727
 20
-4.1511
 30
0.0
 10
6.727
 20
-4.1511
 30
0.0
 10
6.7848
 20
-0.4785
 30
0.0
 10
6.7848
 20
-0.4785
 30
0.0
 10
6.7848
 20
-0.4785
 30
0.0
 10
6.7848
 20
-0.4785
 30
0.0
 10
9.5481
 20
2.139
 30
0.0
 10
9.5481
 20
2.139
 30
0.0
 10
9.5481
 20
2.139
 30
0.0
 10
9.5481
 20
2.139
 30
0.0
 10
19.0498
 20
-7.3371
 30
0.0
 10
19.0498
 20
-7.3371
 30
0.0
 10
19.0498
 20
-7.3371
 30
0.0
 10
18.6316
 20
-13.8235
 30
0.0
 10
13.5074
 20
-17.5133
 30
0.0
 10
8.1538
 20
-17.5146
 30
0.0
 10
8.1538
 20
-17.5146
 30
0.0
 10
7.7444
 20
-17.9553
 30
0.0
 10
7.4769
 20
-18.4622
 30
0.0
 10
7.4721
 20
-19.0651
 30
0.0
 10
7.4721
 20
-19.0651
 30
0.0
 10
10.2484
 20
-21.0446
 30
0.0
 10
9.1317
 20
-26.7892
 30
0.0
 10
4.9603
 20
-26.8146
 30
0.0
 10
4.9603
 20
-26.8146
 30
0.0
 10
0.789
 20
-26.7892
 30
0.0
 10
-0.3277
 20
-21.0446
 30
0.0
 10
2.4486
 20
-19.0651
 30
0.0
 10
2.4486
 20
-19.0651
 30
0.0
 10
2.4438
 20
-18.4622
 30
0.0
 10
2.1763
 20
-17.9553
 30
0.0
 10
1.7669
 20
-17.5146
 30
0.0
 10
1.7669
 20
-17.5146
 30
0.0
 10
-3.5867
 20
-17.5133
 30
0.0
 10
-8.7109
 20
-13.8235
 30
0.0
 10
-9.1291
 20
-7.3371
 30
0.0
 10
-9.1291
 20
-7.3371
 30
0.0
 10
-9.1291
 20
-7.3371
 30
0.0
 10
0.3726
 20
2.139
 30
0.0
 10
0.3726
 20
2.139
 30
0.0
 10
0.3726
 20
2.139
 30
0.0
 10
0.3726
 20
2.139
 30
0.0
 10
3.1359
 20
-0.4785
 30
0.0
 10
3.1359
 20
-0.4785
 30
0.0
 10
3.1359
 20
-0.4785
 30
0.0
 10
3.1359
 20
-0.4785
 30
0.0
 10
3.1937
 20
-4.1511
 30
0.0
 10
3.1937
 20
-4.1511
 30
0.0
 10
3.1937
 20
-4.1511
 30
0.0
 10
3.1491
 20
-5.1223
 30
0.0
 10
1.0727
 20
-6.4331
 30
0.0
 10
-0.457
 20
-6.3354
 30
0.0
 10
-0.457
 20
-6.3354
 30
0.0
 10
-0.8263
 20
-6.3119
 30
0.0
 10
-1.0928
 20
-6.3593
 30
0.0
 10
-0.886
 20
-6.8267
 30
0.0
 10
-0.886
 20
-6.8267
 30
0.0
 10
0.4213
 20
-9.0747
 30
0.0
 10
1.8121
 20
-8.8674
 30
0.0
 10
2.872
 20
-9.0873
 30
0.0
 10
2.872
 20
-9.0873
 30
0.0
 10
2.8584
 20
-10.6528
 30
0.0
 10
3.5853
 20
-12.6208
 30
0.0
 10
4.9603
 20
-13.4469
 30
0.0
  0
SPLINE
  5
5E
330
1F
100
AcDbEntity
  8
layer 1
 62
     7
100
AcDbSpline
210
0.0
220
0.0
230
1.0
 70
    11
 71
     3
 72
    28
 73
    24
 74
     0
 42
0.0000000001
 43
0.0000000001
 12
1.0
 22
0.0
 32
0.0
 13
1.0
 23
0.0
 33
0.0
 40
0.0
 40
0.0
 40
0.0
 40
0.0
 40
0.1428571428571428
 40
0.1428571428571428
 40
0.1428571428571428
 40
0.1428571428571428
 40
0.2857142857142857
 40
0.2857142857142857
 40
0.2857142857142857
 40
0.2857142857142857
 40
0.4285714285714285
 40
0.4285714285714285
 40
0.4285714285714285
 40
0.4285714285714285
 40
0.5714285714285714
 40
0.5714285714285714
 40
0.5714285714285714
 40
0.5714285714285714
 40
0.7142857142857143
 40
0.7142857142857143
 40
0.7142857142857143
 40
0.7142857142857143
 40
1.0
 40
1.0
 40
1.0
 40
1.0
 10
29.1078
 20
8.8781
 30
0.0
 10
23.6019
 20
7.7733
 30
0.0
 10
22.1505
 20
2.5444
 30
0.0
 10
20.3021
 20
-3.2771
 30
0.0
 10
20.3021
 20
-3.2771
 30
0.0
 10
20.3021
 20
-3.2771
 30
0.0
 10
12.1518
 20
4.8877
 30
0.0
 10
12.1518
 20
4.8877
 30
0.0
 10
12.1518
 20
4.8877
 30
0.0
 10
12.1518
 20
4.8877
 30
0.0
 10
16.36
 20
8.8781
 30
0.0
 10
16.36
 20
8.8781
 30
0.0
 10
16.36
 20
8.8781
 30
0.0
 10
16.36
 20
8.8781
 30
0.0
 10
12.1518
 20
12.8683
 30
0.0
 10
12.1518
 20
12.8683
 30
0.0
 10
12.1518
 20
12.8683
 30
0.0
 10
12.1518
 20
12.8683
 30
0.0
 10
20.3021
 20
21.0331
 30
0.0
 10
20.3021
 20
21.0331
 30
0.0
 10
20.3021
 20
21.0331
 30
0.0
 10
22.1505
 20
15.2116
 30
0.0
 10
23.6019
 20
9.9827
 30
0.0
 10
29.1078
 20
8.8781
 30
0.0
  0
SPLINE
  5
5F
330
1F
100
AcDbEntity
  8
layer 1
 62
     7
100
AcDbSpline
210
0.0
220
0.0
230
1.0
 70
    11
 71
     3
 72
    20
 73
    16
 74
     0
 42
0.0000000001
 43
0.0000000001
 12
1.0
 22
0.0
 32
0.0
 13
1.0
 23
0.0
 33
0.0
 40
0.0
 40
0.0
 40
0.0
 40
0.0
 40
0.2
 40
0.2
 40
0.2
 40
0.2
 40
0.4
 40
0.4
 40
0.4
 40
0.4
 40
0.6
 40
0.6
 40
0.6
 40
0.6
 40
1.0
 40
1.0
 40
1.0
 40
1.0
 10
44.6687
 20
17.31
 30
0.0
 10
44.6687
 20
17.31
 30
0.0
 10
44.6687
 20
0.3335
 30
0.0
 10
44.6687
 20
0.3335
 30
0.0
 10
44.6687
 20
0.3335
 30
0.0
 10
44.6687
 20
0.3335
 30
0.0
 10
38.3084
 20
0.3335
 30
0.0
 10
38.3084
 20
0.3335
 30
0.0
 10
38.3084
 20
0.3335
 30
0.0
 10
38.3084
 20
0.3335
 30
0.0
 10
38.3084
 20
17.31
 30
0.0
 10
38.3084
 20
17.31
 30
0.0
 10
38.3084
 20
17.31
 30
0.0
 10
38.3084
 20
17.31
 30
0.0
 10
44.6687
 20
17.31
 30
0.0
 10
44.6687
 20
17.31
 30
0.0
  0
SPLINE
  5
60
330
1F
100
AcDbEntity
  8
layer 1
 62
     7
100
AcDbSpline
210
0.0
220
0.0
230
1.0
 70
    11
 71
     3
 72
    28
 73
    24
 74
     0
 42
0.0000000001
 43
0.0000000001
 12
1.0
 22
0.0
 32
0.0
 13
1.0
 23
0.0
 33
0.0
 40
0.0
 40
0.0
 40
0.0
 40
0.0
 40
0.1428571428571428
 40
0.1428571428571428
 40
0.1428571428571428
 40
0.1428571428571428
 40
0.2857142857142857
 40
0.2857142857142857
 40
0.2857142857142857
 40
0.2857142857142857
 40
0.4285714285714285
 40
0.4285714285714285
 40
0.4285714285714285
 40
0.4285714285714285
 40
0.5714285714285714
 40
0.5714285714285714
 40
0.5714285714285714
 40
0.5714285714285714
 40
0.7142857142857143
 40
0.7142857142857143
 40
0.7142857142857143
 40
0.7142857142857143
 40
1.0
 40
1.0
 40
1.0
 40
1.0
 10
44.6615
 20
33.0963
 30
0.0
 10
44.6615
 20
33.0963
 30
0.0
 10
44.6615
 20
20.9368
 30
0.0
 10
44.6615
 20
20.9368
 30
0.0
 10
44.6615
 20
20.9368
 30
0.0
 10
44.6615
 20
20.9368
 30
0.0
 10
34.3951
 20
20.9368
 30
0.0
 10
34.3951
 20
20.9368
 30
0.0
 10
34.3951
 20
20.9368
 30
0.0
 10
34.3951
 20
20.9368
 30
0.0
 10
34.4713
 20
11.0237
 30
0.0
 10
34.4713
 20
11.0237
 30
0.0
 10
34.4713
 20
11.0237
 30
0.0
 10
27.0136
 20
12.4699
 30
0.0
 10
25.5544
 20
14.2712
 30
0.0
 10
23.5359
 20
24.3446
 30
0.0
 10
23.5359
 20
24.3446
 30
0.0
 10
23.5359
 20
24.3446
 30
0.0
 10
32.4125
 20
33.0963
 30
0.0
 10
32.4125
 20
33.0963
 30
0.0
 10
32.4125
 20
33.0963
 30
0.0
 10
32.4125
 20
33.0963
 30
0.0
 10
44.6615
 20
33.0963
 30
0.0
 10
44.6615
 20
33.0963
 30
0.0
  0
SPLINE
  5
61
330
1F
100
AcDbEntity
  8
layer 1
 62
     7
100
AcDbSpline
210
0.0
220
0.0
230
1.0
 70
    11
 71
     3
 72
    84
 73
    80
 74
     0
 42
0.0000000001
 43
0.0000000001
 12
1.0
 22
0.0
 32
0.0
 13
1.0
 23
0.0
 33
0.0
 40
0.0
 40
0.0
 40
0.0
 40
0.0
 40
0.0476190476190476
 40
0.0476190476190476
 40
0.0476190476190476
 40
0.0476190476190476
 40
0.0952380952380952
 40
0.0952380952380952
 40
0.0952380952380952
 40
0.0952380952380952
 40
0.1428571428571428
 40
0.1428571428571428
 40
0.1428571428571428
 40
0.1428571428571428
 40
0.1904761904761905
 40
0.1904761904761905
 40
0.1904761904761905
 40
0.1904761904761905
 40
0.2380952380952381
 40
0.2380952380952381
 40
0.2380952380952381
 40
0.2380952380952381
 40
0.2857142857142857
 40
0.2857142857142857
 40
0.2857142857142857
 40
0.2857142857142857
 40
0.3333333333333333
 40
0.3333333333333333
 40
0.3333333333333333
 40
0.3333333333333333
 40
0.3809523809523809
 40
0.3809523809523809
 40
0.3809523809523809
 40
0.3809523809523809
 40
0.4285714285714285
 40
0.4285714285714285
 40
0.4285714285714285
 40
0.4285714285714285
 40
0.4761904761904762
 40
0.4761904761904762
 40
0.4761904761904762
 40
0.4761904761904762
 40
0.5238095238095238
 40
0.5238095238095238
 40
0.5238095238095238
 40
0.5238095238095238
 40
0.5714285714285714
 40
0.5714285714285714
 40
0.5714285714285714
 40
0.5714285714285714
 40
0.6190476190476191
 40
0.6190476190476191
 40
0.6190476190476191
 40
0.6190476190476191
 40
0.6666666666666666
 40
0.6666666666666666
 40
0.6666666666666666
 40
0.6666666666666666
 40
0.7142857142857143
 40
0.7142857142857143
 40
0.7142857142857143
 40
0.7142857142857143
 40
0.7619047619047619
 40
0.7619047619047619
 40
0.7619047619047619
 40
0.7619047619047619
 40
0.8095238095238095
 40
0.8095238095238095
 40
0.8095238095238095
 40
0.8095238095238095
 40
0.8571428571428571
 40
0.8571428571428571
 40
0.8571428571428571
 40
0.8571428571428571
 40
0.9047619047619048
 40
0.9047619047619048
 40
0.9047619047619048
 40
0.9047619047619048
 40
1.0
 40
1.0
 40
1.0
 40
1.0
 10
4.9603
 20
44.5707
 30
0.0
 10
9.1317
 20
44.5453
 30
0.0
 10
10.2484
 20
38.8007
 30
0.0
 10
7.4721
 20
36.8211
 30
0.0
 10
7.4721
 20
36.8211
 30
0.0
 10
7.4769
 20
36.2183
 30
0.0
 10
7.7444
 20
35.7114
 30
0.0
 10
8.1538
 20
35.2707
 30
0.0
 10
8.1538
 20
35.2707
 30
0.0
 10
13.5074
 20
35.2694
 30
0.0
 10
18.6316
 20
31.5796
 30
0.0
 10
19.0498
 20
25.0932
 30
0.0
 10
19.0498
 20
25.0932
 30
0.0
 10
19.0498
 20
25.0932
 30
0.0
 10
9.5481
 20
15.6171
 30
0.0
 10
9.5481
 20
15.6171
 30
0.0
 10
9.5481
 20
15.6171
 30
0.0
 10
9.5481
 20
15.6171
 30
0.0
 10
6.7848
 20
18.2346
 30
0.0
 10
6.7848
 20
18.2346
 30
0.0
 10
6.7848
 20
18.2346
 30
0.0
 10
6.7848
 20
18.2346
 30
0.0
 10
6.727
 20
21.9072
 30
0.0
 10
6.727
 20
21.9072
 30
0.0
 10
6.727
 20
21.9072
 30
0.0
 10
6.7716
 20
22.8784
 30
0.0
 10
8.848
 20
24.1891
 30
0.0
 10
10.3777
 20
24.0915
 30
0.0
 10
10.3777
 20
24.0915
 30
0.0
 10
10.747
 20
24.0679
 30
0.0
 10
11.0135
 20
24.1154
 30
0.0
 10
10.8067
 20
24.5827
 30
0.0
 10
10.8067
 20
24.5827
 30
0.0
 10
9.4994
 20
26.8308
 30
0.0
 10
8.1086
 20
26.6234
 30
0.0
 10
7.0487
 20
26.8434
 30
0.0
 10
7.0487
 20
26.8434
 30
0.0
 10
7.0623
 20
28.4088
 30
0.0
 10
6.3354
 20
30.3768
 30
0.0
 10
4.9603
 20
31.2029
 30
0.0
 10
4.9603
 20
31.2029
 30
0.0
 10
3.5853
 20
30.3768
 30
0.0
 10
2.8584
 20
28.4088
 30
0.0
 10
2.872
 20
26.8434
 30
0.0
 10
2.872
 20
26.8434
 30
0.0
 10
1.8121
 20
26.6234
 30
0.0
 10
0.4213
 20
26.8308
 30
0.0
 10
-0.886
 20
24.5827
 30
0.0
 10
-0.886
 20
24.5827
 30
0.0
 10
-1.0928
 20
24.1154
 30
0.0
 10
-0.8263
 20
24.0679
 30
0.0
 10
-0.457
 20
24.0915
 30
0.0
 10
-0.457
 20
24.0915
 30
0.0
 10
1.0727
 20
24.1891
 30
0.0
 10
3.1491
 20
22.8784
 30
0.0
 10
3.1937
 20
21.9072
 30
0.0
 10
3.1937
 20
21.9072
 30
0.0
 10
3.1937
 20
21.9072
 30
0.0
 10
3.1359
 20
18.2346
 30
0.0
 10
3.1359
 20
18.2346
 30
0.0
 10
3.1359
 20
18.2346
 30
0.0
 10
3.1359
 20
18.2346
 30
0.0
 10
0.3726
 20
15.6171
 30
0.0
 10
0.3726
 20
15.6171
 30
0.0
 10
0.3726
 20
15.6171
 30
0.0
 10
0.3726
 20
15.6171
 30
0.0
 10
-9.1291
 20
25.0932
 30
0.0
 10
-9.1291
 20
25.0932
 30
0.0
 10
-9.1291
 20
25.0932
 30
0.0
 10
-8.7109
 20
31.5796
 30
0.0
 10
-3.5867
 20
35.2694
 30
0.0
 10
1.7669
 20
35.2707
 30
0.0
 10
1.7669
 20
35.2707
 30
0.0
 10
2.1763
 20
35.7114
 30
0.0
 10
2.4438
 20
36.2183
 30
0.0
 10
2.4486
 20
36.8211
 30
0.0
 10
2.4486
 20
36.8211
 30
0.0
 10
-0.3277
 20
38.8007
 30
0.0
 10
0.789
 20
44.5453
 30
0.0
 10
4.9603
 20
44.5707
 30
0.0
  0
SPLINE
  5
62
330
1F
100
AcDbEntity
  8
layer 1
 62
     7
100
AcDbSpline
210
0.0
220
0.0
230
1.0
 70
    11
 71
     3
 72
    20
 73
    16
 74
     0
 42
0.0000000001
 43
0.0000000001
 12
1.0
 22
0.0
 32
0.0
 13
1.0
 23
0.0
 33
0.0
 40
0.0
 40
0.0
 40
0.0
 40
0.0
 40
0.2
 40
0.2
 40
0.2
 40
0.2
 40
0.4
 40
0.4
 40
0.4
 40
0.4
 40
0.6
 40
0.6
 40
0.6
 40
0.6
 40
1.0
 40
1.0
 40
1.0
 40
1.0
 10
-34.7448
 20
36.9312
 30
0.0
 10
-34.7448
 20
36.9312
 30
0.0
 10
-34.7448
 20
59.1925
 30
0.0
 10
-34.7448
 20
59.1925
 30
0.0
 10
-34.7448
 20
59.1925
 30
0.0
 10
-34.7448
 20
59.1925
 30
0.0
 10
-23.6142
 20
59.1925
 30
0.0
 10
-23.6142
 20
59.1925
 30
0.0
 10
-23.6142
 20
59.1925
 30
0.0
 10
-23.6142
 20
59.1925
 30
0.0
 10
-23.6142
 20
36.9312
 30
0.0
 10
-23.6142
 20
36.9312
 30
0.0
 10
-23.6142
 20
36.9312
 30
0.0
 10
-23.6142
 20
36.9312
 30
0.0
 10
-34.7448
 20
36.9312
 30
0.0
 10
-34.7448
 20
36.9312
 30
0.0
  0
SPLINE
  5
63
330
1F
100
AcDbEntity
  8
layer 1
 62
     7
100
AcDbSpline
210
0.0
220
0.0
230
1.0
 70
    11
 71
     3
 72
    28
 73
    24
 74
     0
 42
0.0000000001
 43
0.0000000001
 12
1.0
 22
0.0
 32
0.0
 13
1.0
 23
0.0
 33
0.0
 40
0.0
 40
0.0
 40
0.0
 40
0.0
 40
0.1428571428571428
 40
0.1428571428571428
 40
0.1428571428571428
 40
0.1428571428571428
 40
0.2857142857142857
 40
0.2857142857142857
 40
0.2857142857142857
 40
0.2857142857142857
 40
0.4285714285714285
 40
0.4285714285714285
 40
0.4285714285714285
 40
0.4285714285714285
 40
0.5714285714285714
 40
0.5714285714285714
 40
0.5714285714285714
 40
0.5714285714285714
 40
0.7142857142857143
 40
0.7142857142857143
 40
0.7142857142857143
 40
0.7142857142857143
 40
1.0
 40
1.0
 40
1.0
 40
1.0
 10
-34.7448
 20
63.0274
 30
0.0
 10
-34.7448
 20
63.0274
 30
0.0
 10
-34.7448
 20
75.1868
 30
0.0
 10
-34.7448
 20
75.1868
 30
0.0
 10
-34.7448
 20
75.1868
 30
0.0
 10
-34.7448
 20
75.1868
 30
0.0
 10
-24.4784
 20
75.1868
 30
0.0
 10
-24.4784
 20
75.1868
 30
0.0
 10
-24.4784
 20
75.1868
 30
0.0
 10
-24.4784
 20
75.1868
 30
0.0
 10
-24.5547
 20
85.0999
 30
0.0
 10
-24.5547
 20
85.0999
 30
0.0
 10
-24.5547
 20
85.0999
 30
0.0
 10
-17.0969
 20
83.6538
 30
0.0
 10
-15.6378
 20
81.8525
 30
0.0
 10
-13.6192
 20
71.7791
 30
0.0
 10
-13.6192
 20
71.7791
 30
0.0
 10
-13.6192
 20
71.7791
 30
0.0
 10
-22.4959
 20
63.0274
 30
0.0
 10
-22.4959
 20
63.0274
 30
0.0
 10
-22.4959
 20
63.0274
 30
0.0
 10
-22.4959
 20
63.0274
 30
0.0
 10
-34.7448
 20
63.0274
 30
0.0
 10
-34.7448
 20
63.0274
 30
0.0
  0
SPLINE
  5
64
330
1F
100
AcDbEntity
  8
layer 1
 62
     7
100
AcDbSpline
210
0.0
220
0.0
230
1.0
 70
    11
 71
     3
 72
    28
 73
    24
 74
     0
 42
0.0000000001
 43
0.0000000001
 12
1.0
 22
0.0
 32
0.0
 13
1.0
 23
0.0
 33
0.0
 40
0.0
 40
0.0
 40
0.0
 40
0.0
 40
0.1428571428571428
 40
0.1428571428571428
 40
0.1428571428571428
 40
0.1428571428571428
 40
0.2857142857142857
 40
0.2857142857142857
 40
0.2857142857142857
 40
0.2857142857142857
 40
0.4285714285714285
 40
0.4285714285714285
 40
0.4285714285714285
 40
0.4285714285714285
 40
0.5714285714285714
 40
0.5714285714285714
 40
0.5714285714285714
 40
0.5714285714285714
 40
0.7142857142857143
 40
0.7142857142857143
 40
0.7142857142857143
 40
0.7142857142857143
 40
1.0
 40
1.0
 40
1.0
 40
1.0
 10
-19.1911
 20
87.2457
 30
0.0
 10
-13.6852
 20
86.1409
 30
0.0
 10
-12.2338
 20
80.9121
 30
0.0
 10
-10.3855
 20
75.0906
 30
0.0
 10
-10.3855
 20
75.0906
 30
0.0
 10
-10.3855
 20
75.0906
 30
0.0
 10
-2.2351
 20
83.2553
 30
0.0
 10
-2.2351
 20
83.2553
 30
0.0
 10
-2.2351
 20
83.2553
 30
0.0
 10
-2.2351
 20
83.2553
 30
0.0
 10
-6.4433
 20
87.2457
 30
0.0
 10
-6.4433
 20
87.2457
 30
0.0
 10
-6.4433
 20
87.2457
 30
0.0
 10
-6.4433
 20
87.2457
 30
0.0
 10
-2.2351
 20
91.2359
 30
0.0
 10
-2.2351
 20
91.2359
 30
0.0
 10
-2.2351
 20
91.2359
 30
0.0
 10
-2.2351
 20
91.2359
 30
0.0
 10
-10.3855
 20
99.4007
 30
0.0
 10
-10.3855
 20
99.4007
 30
0.0
 10
-10.3855
 20
99.4007
 30
0.0
 10
-12.2338
 20
93.5792
 30
0.0
 10
-13.6852
 20
88.3503
 30
0.0
 10
-19.1911
 20
87.2457
 30
0.0
  0
SPLINE
  5
65
330
1F
100
AcDbEntity
  8
layer 1
 62
     7
100
AcDbSpline
210
0.0
220
0.0
230
1.0
 70
    11
 71
     3
 72
    20
 73
    16
 74
     0
 42
0.0000000001
 43
0.0000000001
 12
1.0
 22
0.0
 32
0.0
 13
1.0
 23
0.0
 33
0.0
 40
0.0
 40
0.0
 40
0.0
 40
0.0
 40
0.2
 40
0.2
 40
0.2
 40
0.2
 40
0.4
 40
0.4
 40
0.4
 40
0.4
 40
0.6
 40
0.6
 40
0.6
 40
0.6
 40
1.0
 40
1.0
 40
1.0
 40
1.0
 10
5.0333
 20
81.0426
 30
0.0
 10
5.0333
 20
81.0426
 30
0.0
 10
-1.1462
 20
87.222
 30
0.0
 10
-1.1462
 20
87.222
 30
0.0
 10
-1.1462
 20
87.222
 30
0.0
 10
-1.1462
 20
87.222
 30
0.0
 10
5.0333
 20
93.4014
 30
0.0
 10
5.0333
 20
93.4014
 30
0.0
 10
5.0333
 20
93.4014
 30
0.0
 10
5.0333
 20
93.4014
 30
0.0
 10
11.2127
 20
87.222
 30
0.0
 10
11.2127
 20
87.222
 30
0.0
 10
11.2127
 20
87.222
 30
0.0
 10
11.2127
 20
87.222
 30
0.0
 10
5.0333
 20
81.0426
 30
0.0
 10
5.0333
 20
81.0426
 30
0.0
  0
SPLINE
  5
66
330
1F
100
AcDbEntity
  8
layer 1
 62
     7
100
AcDbSpline
210
0.0
220
0.0
230
1.0
 70
    11
 71
     3
 72
    20
 73
    16
 74
     0
 42
0.0000000001
 43
0.0000000001
 12
1.0
 22
0.0
 32
0.0
 13
1.0
 23
0.0
 33
0.0
 40
0.0
 40
0.0
 40
0.0
 40
0.0
 40
0.2
 40
0.2
 40
0.2
 40
0.2
 40
0.4
 40
0.4
 40
0.4
 40
0.4
 40
0.6
 40
0.6
 40
0.6
 40
0.6
 40
1.0
 40
1.0
 40
1.0
 40
1.0
 10
-34.7448
 20
126.4294
 30
0.0
 10
-34.7448
 20
126.4294
 30
0.0
 10
-34.7448
 20
115.2988
 30
0.0
 10
-34.7448
 20
115.2988
 30
0.0
 10
-34.7448
 20
115.2988
 30
0.0
 10
-34.7448
 20
115.2988
 30
0.0
 10
-23.6142
 20
115.2988
 30
0.0
 10
-23.6142
 20
115.2988
 30
0.0
 10
-23.6142
 20
115.2988
 30
0.0
 10
-23.6142
 20
115.2988
 30
0.0
 10
-23.6142
 20
126.4294
 30
0.0
 10
-23.6142
 20
126.4294
 30
0.0
 10
-23.6142
 20
126.4294
 30
0.0
 10
-23.6142
 20
126.4294
 30
0.0
 10
-34.7448
 20
126.4294
 30
0.0
 10
-34.7448
 20
126.4294
 30
0.0
  0
SPLINE
  5
67
330
1F
100
AcDbEntity
  8
layer 1
 62
     7
100
AcDbSpline
210
0.0
220
0.0
230
1.0
 70
    11
 71
     3
 72
    20
 73
    16
 74
     0
 42
0.0000000001
 43
0.0000000001
 12
1.0
 22
0.0
 32
0.0
 13
1.0
 23
0.0
 33
0.0
 40
0.0
 40
0.0
 40
0.0
 40
0.0
 40
0.2
 40
0.2
 40
0.2
 40
0.2
 40
0.4
 40
0.4
 40
0.4
 40
0.4
 40
0.6
 40
0.6
 40
0.6
 40
0.6
 40
1.0
 40
1.0
 40
1.0
 40
1.0
 10
-34.752
 20
95.6777
 30
0.0
 10
-34.752
 20
95.6777
 30
0.0
 10
-34.752
 20
78.7011
 30
0.0
 10
-34.752
 20
78.7011
 30
0.0
 10
-34.752
 20
78.7011
 30
0.0
 10
-34.752
 20
78.7011
 30
0.0
 10
-28.3917
 20
78.7011
 30
0.0
 10
-28.3917
 20
78.7011
 30
0.0
 10
-28.3917
 20
78.7011
 30
0.0
 10
-28.3917
 20
78.7011
 30
0.0
 10
-28.3917
 20
95.6777
 30
0.0
 10
-28.3917
 20
95.6777
 30
0.0
 10
-28.3917
 20
95.6777
 30
0.0
 10
-28.3917
 20
95.6777
 30
0.0
 10
-34.752
 20
95.6777
 30
0.0
 10
-34.752
 20
95.6777
 30
0.0
  0
SPLINE
  5
68
330
1F
100
AcDbEntity
  8
layer 1
 62
     7
100
AcDbSpline
210
0.0
220
0.0
230
1.0
 70
    11
 71
     3
 72
    28
 73
    24
 74
     0
 42
0.0000000001
 43
0.0000000001
 12
1.0
 22
0.0
 32
0.0
 13
1.0
 23
0.0
 33
0.0
 40
0.0
 40
0.0
 40
0.0
 40
0.0
 40
0.1428571428571428
 40
0.1428571428571428
 40
0.1428571428571428
 40
0.1428571428571428
 40
0.2857142857142857
 40
0.2857142857142857
 40
0.2857142857142857
 40
0.2857142857142857
 40
0.4285714285714285
 40
0.4285714285714285
 40
0.4285714285714285
 40
0.4285714285714285
 40
0.5714285714285714
 40
0.5714285714285714
 40
0.5714285714285714
 40
0.5714285714285714
 40
0.7142857142857143
 40
0.7142857142857143
 40
0.7142857142857143
 40
0.7142857142857143
 40
1.0
 40
1.0
 40
1.0
 40
1.0
 10
-34.7448
 20
111.4639
 30
0.0
 10
-34.7448
 20
111.4639
 30
0.0
 10
-34.7448
 20
99.3044
 30
0.0
 10
-34.7448
 20
99.3044
 30
0.0
 10
-34.7448
 20
99.3044
 30
0.0
 10
-34.7448
 20
99.3044
 30
0.0
 10
-24.4784
 20
99.3044
 30
0.0
 10
-24.4784
 20
99.3044
 30
0.0
 10
-24.4784
 20
99.3044
 30
0.0
 10
-24.4784
 20
99.3044
 30
0.0
 10
-24.5547
 20
89.3913
 30
0.0
 10
-24.5547
 20
89.3913
 30
0.0
 10
-24.5547
 20
89.3913
 30
0.0
 10
-17.0969
 20
90.8375
 30
0.0
 10
-15.6378
 20
92.6388
 30
0.0
 10
-13.6192
 20
102.7122
 30
0.0
 10
-13.6192
 20
102.7122
 30
0.0
 10
-13.6192
 20
102.7122
 30
0.0
 10
-22.4959
 20
111.4639
 30
0.0
 10
-22.4959
 20
111.4639
 30
0.0
 10
-22.4959
 20
111.4639
 30
0.0
 10
-22.4959
 20
111.4639
 30
0.0
 10
-34.7448
 20
111.4639
 30
0.0
 10
-34.7448
 20
111.4639
 30
0.0
  0
SPLINE
  5
69
330
1F
100
AcDbEntity
  8
layer 1
 62
     7
100
AcDbSpline
210
0.0
220
0.0
230
1.0
 70
    11
 71
     3
 72
    24
 73
    20
 74
     0
 42
0.0000000001
 43
0.0000000001
 12
1.0
 22
0.0
 32
0.0
 13
1.0
 23
0.0
 33
0.0
 40
0.0
 40
0.0
 40
0.0
 40
0.0
 40
0.1666666666666667
 40
0.1666666666666667
 40
0.1666666666666667
 40
0.1666666666666667
 40
0.3333333333333333
 40
0.3333333333333333
 40
0.3333333333333333
 40
0.3333333333333333
 40
0.5
 40
0.5
 40
0.5
 40
0.5
 40
0.6666666666666666
 40
0.6666666666666666
 40
0.6666666666666666
 40
0.6666666666666666
 40
1.0
 40
1.0
 40
1.0
 40
1.0
 10
-19.676
 20
126.4294
 30
0.0
 10
-19.676
 20
126.4294
 30
0.0
 10
-19.676
 20
114.2848
 30
0.0
 10
-19.676
 20
114.2848
 30
0.0
 10
-19.676
 20
114.2848
 30
0.0
 10
-19.676
 20
114.2848
 30
0.0
 10
-12.4567
 20
106.9838
 30
0.0
 10
-12.4567
 20
106.9838
 30
0.0
 10
-12.4567
 20
106.9838
 30
0.0
 10
-10.7316
 20
112.6151
 30
0.0
 10
-7.4709
 20
115.2622
 30
0.0
 10
-2.5877
 20
116.5765
 30
0.0
 10
-2.5877
 20
116.5765
 30
0.0
 10
-3.6079
 20
120.73
 30
0.0
 10
-1.8467
 20
124.0723
 30
0.0
 10
2.6089
 20
126.4294
 30
0.0
 10
2.6089
 20
126.4294
 30
0.0
 10
2.6089
 20
126.4294
 30
0.0
 10
-19.676
 20
126.4294
 30
0.0
 10
-19.676
 20
126.4294
 30
0.0
  0
SPLINE
  5
6A
330
1F
100
AcDbEntity
  8
layer 1
 62
     7
100
AcDbSpline
210
0.0
220
0.0
230
1.0
 70
    11
 71
     3
 72
    20
 73
    16
 74
     0
 42
0.0000000001
 43
0.0000000001
 12
1.0
 22
0.0
 32
0.0
 13
1.0
 23
0.0
 33
0.0
 40
0.0
 40
0.0
 40
0.0
 40
0.0
 40
0.2
 40
0.2
 40
0.2
 40
0.2
 40
0.4
 40
0.4
 40
0.4
 40
0.4
 40
0.6
 40
0.6
 40
0.6
 40
0.6
 40
1.0
 40
1.0
 40
1.0
 40
1.0
 10
44.6575
 20
36.9313
 30
0.0
 10
44.6575
 20
36.9313
 30
0.0
 10
44.6575
 20
59.1925
 30
0.0
 10
44.6575
 20
59.1925
 30
0.0
 10
44.6575
 20
59.1925
 30
0.0
 10
44.6575
 20
59.1925
 30
0.0
 10
33.5269
 20
59.1925
 30
0.0
 10
33.5269
 20
59.1925
 30
0.0
 10
33.5269
 20
59.1925
 30
0.0
 10
33.5269
 20
59.1925
 30
0.0
 10
33.5269
 20
36.9313
 30
0.0
 10
33.5269
 20
36.9313
 30
0.0
 10
33.5269
 20
36.9313
 30
0.0
 10
33.5269
 20
36.9313
 30
0.0
 10
44.6575
 20
36.9313
 30
0.0
 10
44.6575
 20
36.9313
 30
0.0
  0
SPLINE
  5
6B
330
1F
100
AcDbEntity
  8
layer 1
 62
     7
100
AcDbSpline
210
0.0
220
0.0
230
1.0
 70
    11
 71
     3
 72
    28
 73
    24
 74
     0
 42
0.0000000001
 43
0.0000000001
 12
1.0
 22
0.0
 32
0.0
 13
1.0
 23
0.0
 33
0.0
 40
0.0
 40
0.0
 40
0.0
 40
0.0
 40
0.1428571428571428
 40
0.1428571428571428
 40
0.1428571428571428
 40
0.1428571428571428
 40
0.2857142857142857
 40
0.2857142857142857
 40
0.2857142857142857
 40
0.2857142857142857
 40
0.4285714285714285
 40
0.4285714285714285
 40
0.4285714285714285
 40
0.4285714285714285
 40
0.5714285714285714
 40
0.5714285714285714
 40
0.5714285714285714
 40
0.5714285714285714
 40
0.7142857142857143
 40
0.7142857142857143
 40
0.7142857142857143
 40
0.7142857142857143
 40
1.0
 40
1.0
 40
1.0
 40
1.0
 10
44.6575
 20
63.0274
 30
0.0
 10
44.6575
 20
63.0274
 30
0.0
 10
44.6575
 20
75.1868
 30
0.0
 10
44.6575
 20
75.1868
 30
0.0
 10
44.6575
 20
75.1868
 30
0.0
 10
44.6575
 20
75.1868
 30
0.0
 10
34.391
 20
75.1868
 30
0.0
 10
34.391
 20
75.1868
 30
0.0
 10
34.391
 20
75.1868
 30
0.0
 10
34.391
 20
75.1868
 30
0.0
 10
34.4673
 20
85.0999
 30
0.0
 10
34.4673
 20
85.0999
 30
0.0
 10
34.4673
 20
85.0999
 30
0.0
 10
27.0096
 20
83.6538
 30
0.0
 10
25.5504
 20
81.8525
 30
0.0
 10
23.5319
 20
71.7791
 30
0.0
 10
23.5319
 20
71.7791
 30
0.0
 10
23.5319
 20
71.7791
 30
0.0
 10
32.4085
 20
63.0274
 30
0.0
 10
32.4085
 20
63.0274
 30
0.0
 10
32.4085
 20
63.0274
 30
0.0
 10
32.4085
 20
63.0274
 30
0.0
 10
44.6575
 20
63.0274
 30
0.0
 10
44.6575
 20
63.0274
 30
0.0
  0
SPLINE
  5
6C
330
1F
100
AcDbEntity
  8
layer 1
 62
     7
100
AcDbSpline
210
0.0
220
0.0
230
1.0
 70
    11
 71
     3
 72
    84
 73
    80
 74
     0
 42
0.0000000001
 43
0.0000000001
 12
1.0
 22
0.0
 32
0.0
 13
1.0
 23
0.0
 33
0.0
 40
0.0
 40
0.0
 40
0.0
 40
0.0
 40
0.0476190476190476
 40
0.0476190476190476
 40
0.0476190476190476
 40
0.0476190476190476
 40
0.0952380952380952
 40
0.0952380952380952
 40
0.0952380952380952
 40
0.0952380952380952
 40
0.1428571428571428
 40
0.1428571428571428
 40
0.1428571428571428
 40
0.1428571428571428
 40
0.1904761904761905
 40
0.1904761904761905
 40
0.1904761904761905
 40
0.1904761904761905
 40
0.2380952380952381
 40
0.2380952380952381
 40
0.2380952380952381
 40
0.2380952380952381
 40
0.2857142857142857
 40
0.2857142857142857
 40
0.2857142857142857
 40
0.2857142857142857
 40
0.3333333333333333
 40
0.3333333333333333
 40
0.3333333333333333
 40
0.3333333333333333
 40
0.3809523809523809
 40
0.3809523809523809
 40
0.3809523809523809
 40
0.3809523809523809
 40
0.4285714285714285
 40
0.4285714285714285
 40
0.4285714285714285
 40
0.4285714285714285
 40
0.4761904761904762
 40
0.4761904761904762
 40
0.4761904761904762
 40
0.4761904761904762
 40
0.5238095238095238
 40
0.5238095238095238
 40
0.5238095238095238
 40
0.5238095238095238
 40
0.5714285714285714
 40
0.5714285714285714
 40
0.5714285714285714
 40
0.5714285714285714
 40
0.6190476190476191
 40
0.6190476190476191
 40
0.6190476190476191
 40
0.6190476190476191
 40
0.6666666666666666
 40
0.6666666666666666
 40
0.6666666666666666
 40
0.6666666666666666
 40
0.7142857142857143
 40
0.7142857142857143
 40
0.7142857142857143
 40
0.7142857142857143
 40
0.7619047619047619
 40
0.7619047619047619
 40
0.7619047619047619
 40
0.7619047619047619
 40
0.8095238095238095
 40
0.8095238095238095
 40
0.8095238095238095
 40
0.8095238095238095
 40
0.8571428571428571
 40
0.8571428571428571
 40
0.8571428571428571
 40
0.8571428571428571
 40
0.9047619047619048
 40
0.9047619047619048
 40
0.9047619047619048
 40
0.9047619047619048
 40
1.0
 40
1.0
 40
1.0
 40
1.0
 10
4.9563
 20
64.9207
 30
0.0
 10
6.3314
 20
65.7468
 30
0.0
 10
7.0583
 20
67.7148
 30
0.0
 10
7.0446
 20
69.2803
 30
0.0
 10
7.0446
 20
69.2803
 30
0.0
 10
8.1046
 20
69.5002
 30
0.0
 10
9.4954
 20
69.2929
 30
0.0
 10
10.8027
 20
71.5409
 30
0.0
 10
10.8027
 20
71.5409
 30
0.0
 10
11.0095
 20
72.0083
 30
0.0
 10
10.743
 20
72.0557
 30
0.0
 10
10.3737
 20
72.0322
 30
0.0
 10
10.3737
 20
72.0322
 30
0.0
 10
8.844
 20
71.9345
 30
0.0
 10
6.7676
 20
73.2453
 30
0.0
 10
6.7229
 20
74.2165
 30
0.0
 10
6.7229
 20
74.2165
 30
0.0
 10
6.7229
 20
74.2165
 30
0.0
 10
6.7808
 20
77.8891
 30
0.0
 10
6.7808
 20
77.8891
 30
0.0
 10
6.7808
 20
77.8891
 30
0.0
 10
6.7808
 20
77.8891
 30
0.0
 10
9.5441
 20
80.5066
 30
0.0
 10
9.5441
 20
80.5066
 30
0.0
 10
9.5441
 20
80.5066
 30
0.0
 10
9.5441
 20
80.5066
 30
0.0
 10
19.0458
 20
71.0305
 30
0.0
 10
19.0458
 20
71.0305
 30
0.0
 10
19.0458
 20
71.0305
 30
0.0
 10
18.6276
 20
64.5441
 30
0.0
 10
13.5033
 20
60.8543
 30
0.0
 10
8.1498
 20
60.853
 30
0.0
 10
8.1498
 20
60.853
 30
0.0
 10
7.7404
 20
60.4123
 30
0.0
 10
7.4728
 20
59.9054
 30
0.0
 10
7.4681
 20
59.3025
 30
0.0
 10
7.4681
 20
59.3025
 30
0.0
 10
10.2443
 20
57.323
 30
0.0
 10
9.1276
 20
51.5784
 30
0.0
 10
4.9563
 20
51.553
 30
0.0
 10
4.9563
 20
51.553
 30
0.0
 10
0.785
 20
51.5784
 30
0.0
 10
-0.3317
 20
57.323
 30
0.0
 10
2.4446
 20
59.3025
 30
0.0
 10
2.4446
 20
59.3025
 30
0.0
 10
2.4398
 20
59.9054
 30
0.0
 10
2.1723
 20
60.4123
 30
0.0
 10
1.7629
 20
60.853
 30
0.0
 10
1.7629
 20
60.853
 30
0.0
 10
-3.5907
 20
60.8543
 30
0.0
 10
-8.7149
 20
64.5441
 30
0.0
 10
-9.1331
 20
71.0305
 30
0.0
 10
-9.1331
 20
71.0305
 30
0.0
 10
-9.1331
 20
71.0305
 30
0.0
 10
0.3686
 20
80.5066
 30
0.0
 10
0.3686
 20
80.5066
 30
0.0
 10
0.3686
 20
80.5066
 30
0.0
 10
0.3686
 20
80.5066
 30
0.0
 10
3.1318
 20
77.8891
 30
0.0
 10
3.1318
 20
77.8891
 30
0.0
 10
3.1318
 20
77.8891
 30
0.0
 10
3.1318
 20
77.8891
 30
0.0
 10
3.1897
 20
74.2165
 30
0.0
 10
3.1897
 20
74.2165
 30
0.0
 10
3.1897
 20
74.2165
 30
0.0
 10
3.1451
 20
73.2453
 30
0.0
 10
1.0687
 20
71.9345
 30
0.0
 10
-0.4611
 20
72.0322
 30
0.0
 10
-0.4611
 20
72.0322
 30
0.0
 10
-0.8303
 20
72.0557
 30
0.0
 10
-1.0968
 20
72.0083
 30
0.0
 10
-0.8901
 20
71.5409
 30
0.0
 10
-0.8901
 20
71.5409
 30
0.0
 10
0.4172
 20
69.2929
 30
0.0
 10
1.8081
 20
69.5002
 30
0.0
 10
2.868
 20
69.2803
 30
0.0
 10
2.868
 20
69.2803
 30
0.0
 10
2.8544
 20
67.7148
 30
0.0
 10
3.5813
 20
65.7468
 30
0.0
 10
4.9563
 20
64.9207
 30
0.0
  0
SPLINE
  5
6D
330
1F
100
AcDbEntity
  8
layer 1
 62
     7
100
AcDbSpline
210
0.0
220
0.0
230
1.0
 70
    11
 71
     3
 72
    28
 73
    24
 74
     0
 42
0.0000000001
 43
0.0000000001
 12
1.0
 22
0.0
 32
0.0
 13
1.0
 23
0.0
 33
0.0
 40
0.0
 40
0.0
 40
0.0
 40
0.0
 40
0.1428571428571428
 40
0.1428571428571428
 40
0.1428571428571428
 40
0.1428571428571428
 40
0.2857142857142857
 40
0.2857142857142857
 40
0.2857142857142857
 40
0.2857142857142857
 40
0.4285714285714285
 40
0.4285714285714285
 40
0.4285714285714285
 40
0.4285714285714285
 40
0.5714285714285714
 40
0.5714285714285714
 40
0.5714285714285714
 40
0.5714285714285714
 40
0.7142857142857143
 40
0.7142857142857143
 40
0.7142857142857143
 40
0.7142857142857143
 40
1.0
 40
1.0
 40
1.0
 40
1.0
 10
29.1037
 20
87.2457
 30
0.0
 10
23.5979
 20
86.1409
 30
0.0
 10
22.1464
 20
80.9121
 30
0.0
 10
20.2981
 20
75.0906
 30
0.0
 10
20.2981
 20
75.0906
 30
0.0
 10
20.2981
 20
75.0906
 30
0.0
 10
12.1478
 20
83.2553
 30
0.0
 10
12.1478
 20
83.2553
 30
0.0
 10
12.1478
 20
83.2553
 30
0.0
 10
12.1478
 20
83.2553
 30
0.0
 10
16.3559
 20
87.2457
 30
0.0
 10
16.3559
 20
87.2457
 30
0.0
 10
16.3559
 20
87.2457
 30
0.0
 10
16.3559
 20
87.2457
 30
0.0
 10
12.1478
 20
91.2359
 30
0.0
 10
12.1478
 20
91.2359
 30
0.0
 10
12.1478
 20
91.2359
 30
0.0
 10
12.1478
 20
91.2359
 30
0.0
 10
20.2981
 20
99.4007
 30
0.0
 10
20.2981
 20
99.4007
 30
0.0
 10
20.2981
 20
99.4007
 30
0.0
 10
22.1464
 20
93.5792
 30
0.0
 10
23.5979
 20
88.3503
 30
0.0
 10
29.1037
 20
87.2457
 30
0.0
  0
SPLINE
  5
6E
330
1F
100
AcDbEntity
  8
layer 1
 62
     7
100
AcDbSpline
210
0.0
220
0.0
230
1.0
 70
    11
 71
     3
 72
    20
 73
    16
 74
     0
 42
0.0000000001
 43
0.0000000001
 12
1.0
 22
0.0
 32
0.0
 13
1.0
 23
0.0
 33
0.0
 40
0.0
 40
0.0
 40
0.0
 40
0.0
 40
0.2
 40
0.2
 40
0.2
 40
0.2
 40
0.4
 40
0.4
 40
0.4
 40
0.4
 40
0.6
 40
0.6
 40
0.6
 40
0.6
 40
1.0
 40
1.0
 40
1.0
 40
1.0
 10
44.6575
 20
126.4294
 30
0.0
 10
44.6575
 20
126.4294
 30
0.0
 10
44.6575
 20
115.2988
 30
0.0
 10
44.6575
 20
115.2988
 30
0.0
 10
44.6575
 20
115.2988
 30
0.0
 10
44.6575
 20
115.2988
 30
0.0
 10
33.5269
 20
115.2988
 30
0.0
 10
33.5269
 20
115.2988
 30
0.0
 10
33.5269
 20
115.2988
 30
0.0
 10
33.5269
 20
115.2988
 30
0.0
 10
33.5269
 20
126.4294
 30
0.0
 10
33.5269
 20
126.4294
 30
0.0
 10
33.5269
 20
126.4294
 30
0.0
 10
33.5269
 20
126.4294
 30
0.0
 10
44.6575
 20
126.4294
 30
0.0
 10
44.6575
 20
126.4294
 30
0.0
  0
SPLINE
  5
6F
330
1F
100
AcDbEntity
  8
layer 1
 62
     7
100
AcDbSpline
210
0.0
220
0.0
230
1.0
 70
    11
 71
     3
 72
    20
 73
    16
 74
     0
 42
0.0000000001
 43
0.0000000001
 12
1.0
 22
0.0
 32
0.0
 13
1.0
 23
0.0
 33
0.0
 40
0.0
 40
0.0
 40
0.0
 40
0.0
 40
0.2
 40
0.2
 40
0.2
 40
0.2
 40
0.4
 40
0.4
 40
0.4
 40
0.4
 40
0.6
 40
0.6
 40
0.6
 40
0.6
 40
1.0
 40
1.0
 40
1.0
 40
1.0
 10
44.6647
 20
95.6777
 30
0.0
 10
44.6647
 20
95.6777
 30
0.0
 10
44.6647
 20
78.7011
 30
0.0
 10
44.6647
 20
78.7011
 30
0.0
 10
44.6647
 20
78.7011
 30
0.0
 10
44.6647
 20
78.7011
 30
0.0
 10
38.3043
 20
78.7011
 30
0.0
 10
38.3043
 20
78.7011
 30
0.0
 10
38.3043
 20
78.7011
 30
0.0
 10
38.3043
 20
78.7011
 30
0.0
 10
38.3043
 20
95.6777
 30
0.0
 10
38.3043
 20
95.6777
 30
0.0
 10
38.3043
 20
95.6777
 30
0.0
 10
38.3043
 20
95.6777
 30
0.0
 10
44.6647
 20
95.6777
 30
0.0
 10
44.6647
 20
95.6777
 30
0.0
  0
SPLINE
  5
70
330
1F
100
AcDbEntity
  8
layer 1
 62
     7
100
AcDbSpline
210
0.0
220
0.0
230
1.0
 70
    11
 71
     3
 72
    28
 73
    24
 74
     0
 42
0.0000000001
 43
0.0000000001
 12
1.0
 22
0.0
 32
0.0
 13
1.0
 23
0.0
 33
0.0
 40
0.0
 40
0.0
 40
0.0
 40
0.0
 40
0.1428571428571428
 40
0.1428571428571428
 40
0.1428571428571428
 40
0.1428571428571428
 40
0.2857142857142857
 40
0.2857142857142857
 40
0.2857142857142857
 40
0.2857142857142857
 40
0.4285714285714285
 40
0.4285714285714285
 40
0.4285714285714285
 40
0.4285714285714285
 40
0.5714285714285714
 40
0.5714285714285714
 40
0.5714285714285714
 40
0.5714285714285714
 40
0.7142857142857143
 40
0.7142857142857143
 40
0.7142857142857143
 40
0.7142857142857143
 40
1.0
 40
1.0
 40
1.0
 40
1.0
 10
44.6575
 20
111.4639
 30
0.0
 10
44.6575
 20
111.4639
 30
0.0
 10
44.6575
 20
99.3044
 30
0.0
 10
44.6575
 20
99.3044
 30
0.0
 10
44.6575
 20
99.3044
 30
0.0
 10
44.6575
 20
99.3044
 30
0.0
 10
34.391
 20
99.3044
 30
0.0
 10
34.391
 20
99.3044
 30
0.0
 10
34.391
 20
99.3044
 30
0.0
 10
34.391
 20
99.3044
 30
0.0
 10
34.4673
 20
89.3913
 30
0.0
 10
34.4673
 20
89.3913
 30
0.0
 10
34.4673
 20
89.3913
 30
0.0
 10
27.0096
 20
90.8375
 30
0.0
 10
25.5504
 20
92.6388
 30
0.0
 10
23.5319
 20
102.7122
 30
0.0
 10
23.5319
 20
102.7122
 30
0.0
 10
23.5319
 20
102.7122
 30
0.0
 10
32.4085
 20
111.4639
 30
0.0
 10
32.4085
 20
111.4639
 30
0.0
 10
32.4085
 20
111.4639
 30
0.0
 10
32.4085
 20
111.4639
 30
0.0
 10
44.6575
 20
111.4639
 30
0.0
 10
44.6575
 20
111.4639
 30
0.0
  0
SPLINE
  5
71
330
1F
100
AcDbEntity
  8
layer 1
 62
     7
100
AcDbSpline
210
0.0
220
0.0
230
1.0
 70
    11
 71
     3
 72
    24
 73
    20
 74
     0
 42
0.0000000001
 43
0.0000000001
 12
1.0
 22
0.0
 32
0.0
 13
1.0
 23
0.0
 33
0.0
 40
0.0
 40
0.0
 40
0.0
 40
0.0
 40
0.1666666666666667
 40
0.1666666666666667
 40
0.1666666666666667
 40
0.1666666666666667
 40
0.3333333333333333
 40
0.3333333333333333
 40
0.3333333333333333
 40
0.3333333333333333
 40
0.5
 40
0.5
 40
0.5
 40
0.5
 40
0.6666666666666666
 40
0.6666666666666666
 40
0.6666666666666666
 40
0.6666666666666666
 40
1.0
 40
1.0
 40
1.0
 40
1.0
 10
29.5887
 20
126.4294
 30
0.0
 10
29.5887
 20
126.4294
 30
0.0
 10
29.5887
 20
114.2848
 30
0.0
 10
29.5887
 20
114.2848
 30
0.0
 10
29.5887
 20
114.2848
 30
0.0
 10
29.5887
 20
114.2848
 30
0.0
 10
22.3693
 20
106.9838
 30
0.0
 10
22.3693
 20
106.9838
 30
0.0
 10
22.3693
 20
106.9838
 30
0.0
 10
20.6442
 20
112.6151
 30
0.0
 10
17.3835
 20
115.2622
 30
0.0
 10
12.5004
 20
116.5765
 30
0.0
 10
12.5004
 20
116.5765
 30
0.0
 10
13.5205
 20
120.73
 30
0.0
 10
11.7593
 20
124.0723
 30
0.0
 10
7.3038
 20
126.4294
 30
0.0
 10
7.3038
 20
126.4294
 30
0.0
 10
7.3038
 20
126.4294
 30
0.0
 10
29.5887
 20
126.4294
 30
0.0
 10
29.5887
 20
126.4294
 30
0.0
  0
SPLINE
  5
72
330
1F
100
AcDbEntity
  8
layer 1
 62
     7
100
AcDbSpline
210
0.0
220
0.0
230
1.0
 70
    11
 71
     3
 72
    84
 73
    80
 74
     0
 42
0.0000000001
 43
0.0000000001
 12
1.0
 22
0.0
 32
0.0
 13
1.0
 23
0.0
 33
0.0
 40
0.0
 40
0.0
 40
0.0
 40
0.0
 40
0.0476190476190476
 40
0.0476190476190476
 40
0.0476190476190476
 40
0.0476190476190476
 40
0.0952380952380952
 40
0.0952380952380952
 40
0.0952380952380952
 40
0.0952380952380952
 40
0.1428571428571428
 40
0.1428571428571428
 40
0.1428571428571428
 40
0.1428571428571428
 40
0.1904761904761905
 40
0.1904761904761905
 40
0.1904761904761905
 40
0.1904761904761905
 40
0.2380952380952381
 40
0.2380952380952381
 40
0.2380952380952381
 40
0.2380952380952381
 40
0.2857142857142857
 40
0.2857142857142857
 40
0.2857142857142857
 40
0.2857142857142857
 40
0.3333333333333333
 40
0.3333333333333333
 40
0.3333333333333333
 40
0.3333333333333333
 40
0.3809523809523809
 40
0.3809523809523809
 40
0.3809523809523809
 40
0.3809523809523809
 40
0.4285714285714285
 40
0.4285714285714285
 40
0.4285714285714285
 40
0.4285714285714285
 40
0.4761904761904762
 40
0.4761904761904762
 40
0.4761904761904762
 40
0.4761904761904762
 40
0.5238095238095238
 40
0.5238095238095238
 40
0.5238095238095238
 40
0.5238095238095238
 40
0.5714285714285714
 40
0.5714285714285714
 40
0.5714285714285714
 40
0.5714285714285714
 40
0.6190476190476191
 40
0.6190476190476191
 40
0.6190476190476191
 40
0.6190476190476191
 40
0.6666666666666666
 40
0.6666666666666666
 40
0.6666666666666666
 40
0.6666666666666666
 40
0.7142857142857143
 40
0.7142857142857143
 40
0.7142857142857143
 40
0.7142857142857143
 40
0.7619047619047619
 40
0.7619047619047619
 40
0.7619047619047619
 40
0.7619047619047619
 40
0.8095238095238095
 40
0.8095238095238095
 40
0.8095238095238095
 40
0.8095238095238095
 40
0.8571428571428571
 40
0.8571428571428571
 40
0.8571428571428571
 40
0.8571428571428571
 40
0.9047619047619048
 40
0.9047619047619048
 40
0.9047619047619048
 40
0.9047619047619048
 40
1.0
 40
1.0
 40
1.0
 40
1.0
 10
4.9563
 20
122.9383
 30
0.0
 10
9.1276
 20
122.9129
 30
0.0
 10
10.2443
 20
117.1683
 30
0.0
 10
7.4681
 20
115.1887
 30
0.0
 10
7.4681
 20
115.1887
 30
0.0
 10
7.4728
 20
114.5859
 30
0.0
 10
7.7404
 20
114.079
 30
0.0
 10
8.1498
 20
113.6383
 30
0.0
 10
8.1498
 20
113.6383
 30
0.0
 10
13.5033
 20
113.637
 30
0.0
 10
18.6276
 20
109.9472
 30
0.0
 10
19.0458
 20
103.4608
 30
0.0
 10
19.0458
 20
103.4608
 30
0.0
 10
19.0458
 20
103.4608
 30
0.0
 10
9.5441
 20
93.9847
 30
0.0
 10
9.5441
 20
93.9847
 30
0.0
 10
9.5441
 20
93.9847
 30
0.0
 10
9.5441
 20
93.9847
 30
0.0
 10
6.7808
 20
96.6022
 30
0.0
 10
6.7808
 20
96.6022
 30
0.0
 10
6.7808
 20
96.6022
 30
0.0
 10
6.7808
 20
96.6022
 30
0.0
 10
6.7229
 20
100.2748
 30
0.0
 10
6.7229
 20
100.2748
 30
0.0
 10
6.7229
 20
100.2748
 30
0.0
 10
6.7676
 20
101.246
 30
0.0
 10
8.844
 20
102.5568
 30
0.0
 10
10.3737
 20
102.4591
 30
0.0
 10
10.3737
 20
102.4591
 30
0.0
 10
10.743
 20
102.4355
 30
0.0
 10
11.0095
 20
102.483
 30
0.0
 10
10.8027
 20
102.9503
 30
0.0
 10
10.8027
 20
102.9503
 30
0.0
 10
9.4954
 20
105.1984
 30
0.0
 10
8.1046
 20
104.9911
 30
0.0
 10
7.0446
 20
105.211
 30
0.0
 10
7.0446
 20
105.211
 30
0.0
 10
7.0583
 20
106.7765
 30
0.0
 10
6.3314
 20
108.7445
 30
0.0
 10
4.9563
 20
109.5705
 30
0.0
 10
4.9563
 20
109.5705
 30
0.0
 10
3.5813
 20
108.7445
 30
0.0
 10
2.8544
 20
106.7765
 30
0.0
 10
2.868
 20
105.211
 30
0.0
 10
2.868
 20
105.211
 30
0.0
 10
1.8081
 20
104.9911
 30
0.0
 10
0.4172
 20
105.1984
 30
0.0
 10
-0.8901
 20
102.9503
 30
0.0
 10
-0.8901
 20
102.9503
 30
0.0
 10
-1.0968
 20
102.483
 30
0.0
 10
-0.8303
 20
102.4355
 30
0.0
 10
-0.4611
 20
102.4591
 30
0.0
 10
-0.4611
 20
102.4591
 30
0.0
 10
1.0687
 20
102.5568
 30
0.0
 10
3.1451
 20
101.246
 30
0.0
 10
3.1897
 20
100.2748
 30
0.0
 10
3.1897
 20
100.2748
 30
0.0
 10
3.1897
 20
100.2748
 30
0.0
 10
3.1318
 20
96.6022
 30
0.0
 10
3.1318
 20
96.6022
 30
0.0
 10
3.1318
 20
96.6022
 30
0.0
 10
3.1318
 20
96.6022
 30
0.0
 10
0.3686
 20
93.9847
 30
0.0
 10
0.3686
 20
93.9847
 30
0.0
 10
0.3686
 20
93.9847
 30
0.0
 10
0.3686
 20
93.9847
 30
0.0
 10
-9.1331
 20
103.4608
 30
0.0
 10
-9.1331
 20
103.4608
 30
0.0
 10
-9.1331
 20
103.4608
 30
0.0
 10
-8.7149
 20
109.9472
 30
0.0
 10
-3.5907
 20
113.637
 30
0.0
 10
1.7629
 20
113.6383
 30
0.0
 10
1.7629
 20
113.6383
 30
0.0
 10
2.1723
 20
114.079
 30
0.0
 10
2.4398
 20
114.5859
 30
0.0
 10
2.4446
 20
115.1887
 30
0.0
 10
2.4446
 20
115.1887
 30
0.0
 10
-0.3317
 20
117.1683
 30
0.0
 10
0.785
 20
122.9129
 30
0.0
 10
4.9563
 20
122.9383
 30
0.0
  0
ENDSEC
  0
SECTION
  2
OBJECTS
  0
DICTIONARY
  5
C
330
0
100
AcDbDictionary
281
     1
  3
ACAD_GROUP
350
D
  3
ACAD_LAYOUT
350
1A
  3
ACAD_MATERIAL
350
3B
  3
ACAD_MLEADERSTYLE
350
95
  3
ACAD_MLINESTYLE
350
17
  3
ACAD_PLOTSETTINGS
350
19
  3
ACAD_PLOTSTYLENAME
350
E
  3
ACAD_TABLESTYLE
350
94
  3
ACAD_VISUALSTYLE
350
2A
  0
DICTIONARY
  5
D
102
{ACAD_REACTORS
330
C
102
}
330
C
100
AcDbDictionary
281
     1
  0
DICTIONARY
  5
1A
102
{ACAD_REACTORS
330
C
102
}
330
C
100
AcDbDictionary
281
     1
  3
Layout1
350
1E
  3
Layout2
350
26
  3
Model
350
22
  0
DICTIONARY
  5
3B
102
{ACAD_REACTORS
330
C
102
}
330
C
100
AcDbDictionary
281
     1
  3
ByBlock
350
3D
  3
ByLayer
350
3C
  3
Global
350
3E
  0
DICTIONARY
  5
95
102
{ACAD_REACTORS
330
C
102
}
330
C
100
AcDbDictionary
281
     1
  0
DICTIONARY
  5
17
102
{ACAD_REACTORS
330
C
102
}
330
C
100
AcDbDictionary
281
     1
  3
Standard
350
18
  0
DICTIONARY
  5
19
102
{ACAD_REACTORS
330
C
102
}
330
C
100
AcDbDictionary
281
     1
  0
ACDBDICTIONARYWDFLT
  5
E
102
{ACAD_REACTORS
330
C
102
}
330
C
100
AcDbDictionary
281
     1
  3
Normal
350
F
100
AcDbDictionaryWithDefault
340
F
  0
DICTIONARY
  5
94
102
{ACAD_REACTORS
330
C
102
}
330
C
100
AcDbDictionary
281
     1
  0
DICTIONARY
  5
2A
102
{ACAD_REACTORS
330
C
102
}
330
C
100
AcDbDictionary
281
     1
  3
2dWireframe
350
2F
  3
3D Hidden
350
31
  3
3dWireframe
350
30
  3
Basic
350
32
  3
Brighten
350
36
  3
ColorChange
350
3A
  3
Conceptual
350
34
  3
Dim
350
35
  3
Facepattern
350
39
  3
Flat
350
2B
  3
FlatWithEdges
350
2C
  3
Gouraud
350
2D
  3
GouraudWithEdges
350
2E
  3
Linepattern
350
38
  3
Realistic
350
33
  3
Thicken
350
37
  0
LAYOUT
  5
1E
102
{ACAD_REACTORS
330
1A
102
}
330
1A
100
AcDbPlotSettings
  1

  2
none_device
  4

  6

 40
0.0
 41
0.0
 42
0.0
 43
0.0
 44
0.0
 45
0.0
 46
0.0
 47
0.0
 48
0.0
 49
0.0
140
0.0
141
0.0
142
1.0
143
1.0
 70
   688
 72
     0
 73
     0
 74
     5
  7

 75
    16
 76
     0
 77
     2
 78
   300
147
1.0
148
0.0
149
0.0
100
AcDbLayout
  1
Layout1
 70
     1
 71
     1
 10
0.0
 20
0.0
 11
12.0
 21
9.0
 12
0.0
 22
0.0
 32
0.0
 14
1.000000000000000E+20
 24
1.000000000000000E+20
 34
1.000000000000000E+20
 15
-1.000000000000000E+20
 25
-1.000000000000000E+20
 35
-1.000000000000000E+20
146
0.0
 13
0.0
 23
0.0
 33
0.0
 16
1.0
 26
0.0
 36
0.0
 17
0.0
 27
1.0
 37
0.0
 76
     0
330
1B
  0
LAYOUT
  5
26
102
{ACAD_REACTORS
330
1A
102
}
330
1A
100
AcDbPlotSettings
  1

  2
none_device
  4

  6

 40
0.0
 41
0.0
 42
0.0
 43
0.0
 44
0.0
 45
0.0
 46
0.0
 47
0.0
 48
0.0
 49
0.0
140
0.0
141
0.0
142
1.0
143
1.0
 70
   688
 72
     0
 73
     0
 74
     5
  7

 75
    16
 76
     0
 77
     2
 78
   300
147
1.0
148
0.0
149
0.0
100
AcDbLayout
  1
Layout2
 70
     1
 71
     2
 10
0.0
 20
0.0
 11
0.0
 21
0.0
 12
0.0
 22
0.0
 32
0.0
 14
0.0
 24
0.0
 34
0.0
 15
0.0
 25
0.0
 35
0.0
146
0.0
 13
0.0
 23
0.0
 33
0.0
 16
1.0
 26
0.0
 36
0.0
 17
0.0
 27
1.0
 37
0.0
 76
     0
330
23
  0
LAYOUT
  5
22
102
{ACAD_REACTORS
330
1A
102
}
330
1A
100
AcDbPlotSettings
  1

  2
none_device
  4

  6

 40
0.0
 41
0.0
 42
0.0
 43
0.0
 44
0.0
 45
0.0
 46
0.0
 47
0.0
 48
0.0
 49
0.0
140
0.0
141
0.0
142
1.0
143
1.0
 70
  1712
 72
     0
 73
     0
 74
     0
  7

 75
     0
 76
     0
 77
     2
 78
   300
147
1.0
148
0.0
149
0.0
100
AcDbLayout
  1
Model
 70
     1
 71
     0
 10
0.0
 20
0.0
 11
12.0
 21
9.0
 12
0.0
 22
0.0
 32
0.0
 14
-40.1572
 24
-114.2963
 34
0.0
 15
50.276
 25
131.8829
 35
0.0
146
0.0
 13
0.0
 23
0.0
 33
0.0
 16
1.0
 26
0.0
 36
0.0
 17
0.0
 27
1.0
 37
0.0
 76
     0
330
1F
331
29
  0
MATERIAL
  5
3D
102
{ACAD_REACTORS
330
3B
102
}
330
3B
100
AcDbMaterial
  1
ByBlock
 72
     1
 94
      127
  0
MATERIAL
  5
3C
102
{ACAD_REACTORS
330
3B
102
}
330
3B
100
AcDbMaterial
  1
ByLayer
 72
     1
 94
      127
  0
MATERIAL
  5
3E
102
{ACAD_REACTORS
330
3B
102
}
330
3B
100
AcDbMaterial
  1
Global
 72
     1
 94
      127
  0
MLINESTYLE
  5
18
102
{ACAD_REACTORS
330
17
102
}
330
17
100
AcDbMlineStyle
  2
Standard
 70
     0
  3

 62
   256
 51
90.0
 52
90.0
 71
     2
 49
0.5
 62
   256
  6
BYLAYER
 49
-0.5
 62
   256
  6
BYLAYER
  0
ACDBPLACEHOLDER
  5
F
102
{ACAD_REACTORS
330
E
102
}
330
E
  0
VISUALSTYLE
  5
2F
102
{ACAD_REACTORS
330
2A
102
}
102
{ACAD_XDICTIONARY
360
7C
102
}
330
2A
100
AcDbVisualStyle
  2
2dWireframe
 70
     4
 71
     0
 72
     2
 73
     0
 90
        0
 40
-0.6
 41
-30.0
 62
     5
 63
     7
421
 16777215
 74
     1
 91
        4
 64
     7
 65
   257
 75
     1
175
     1
 42
1.0
 92
        0
 66
   257
 43
1.0
 76
     1
 77
     6
 78
     2
 67
     7
 79
     5
170
     0
171
     0
290
     0
174
     0
 93
        1
 44
0.0
173
     0
291
     0
 45
0.0
  0
VISUALSTYLE
  5
31
102
{ACAD_REACTORS
330
2A
102
}
102
{ACAD_XDICTIONARY
360
80
102
}
330
2A
100
AcDbVisualStyle
  2
3D Hidden
 70
     6
 71
     1
 72
     2
 73
     2
 90
        0
 40
-0.6
 41
-30.0
 62
     5
 63
     7
421
 16777215
 74
     2
 91
        2
 64
     7
 65
   257
 75
     2
175
     1
 42
40.0
 92
        0
 66
   257
 43
1.0
 76
     1
 77
     6
 78
     2
 67
     7
 79
     3
170
     0
171
     0
290
     0
174
     0
 93
        1
 44
0.0
173
     0
291
     0
 45
0.0
  0
VISUALSTYLE
  5
30
102
{ACAD_REACTORS
330
2A
102
}
102
{ACAD_XDICTIONARY
360
7E
102
}
330
2A
100
AcDbVisualStyle
  2
3dWireframe
 70
     5
 71
     0
 72
     2
 73
     0
 90
        0
 40
-0.6
 41
-30.0
 62
     5
 63
     7
421
 16777215
 74
     1
 91
        4
 64
     7
 65
   257
 75
     1
175
     1
 42
1.0
 92
        0
 66
   257
 43
1.0
 76
     1
 77
     6
 78
     2
 67
     7
 79
     5
170
     0
171
     0
290
     0
174
     0
 93
        1
 44
0.0
173
     0
291
     0
 45
0.0
  0
VISUALSTYLE
  5
32
102
{ACAD_REACTORS
330
2A
102
}
102
{ACAD_XDICTIONARY
360
82
102
}
330
2A
100
AcDbVisualStyle
  2
Basic
 70
     7
 71
     1
 72
     0
 73
     1
 90
        0
 40
-0.6
 41
-30.0
 62
     5
 63
     7
421
 16777215
 74
     0
 91
        4
 64
     7
 65
   257
 75
     1
175
     1
 42
1.0
 92
        8
 66
     7
 43
1.0
 76
     1
 77
     6
 78
     2
 67
     7
 79
     5
170
     0
171
     0
290
     0
174
     0
 93
        1
 44
0.0
173
     0
291
     1
 45
0.0
  0
VISUALSTYLE
  5
36
102
{ACAD_REACTORS
330
2A
102
}
102
{ACAD_XDICTIONARY
360
8A
102
}
330
2A
100
AcDbVisualStyle
  2
Brighten
 70
    12
 71
     2
 72
     2
 73
     0
 90
        0
 40
-0.6
 41
-30.0
 62
     5
 63
     7
421
 16777215
 74
     1
 91
        4
 64
     7
 65
   257
 75
     1
175
     1
 42
1.0
 92
        8
 66
     7
 43
1.0
 76
     1
 77
     6
 78
     2
 67
     7
 79
     5
170
     0
171
     0
290
     0
174
     0
 93
        1
 44
50.0
173
     0
291
     1
 45
0.0
  0
VISUALSTYLE
  5
3A
102
{ACAD_REACTORS
330
2A
102
}
102
{ACAD_XDICTIONARY
360
92
102
}
330
2A
100
AcDbVisualStyle
  2
ColorChange
 70
    16
 71
     2
 72
     2
 73
     3
 90
        0
 40
-0.6
 41
-30.0
 62
     5
 63
     8
421
  8421504
 74
     1
 91
        4
 64
     7
 65
   257
 75
     1
175
     1
 42
1.0
 92
        8
 66
     8
424
  8421504
 43
1.0
 76
     1
 77
     6
 78
     2
 67
     7
 79
     5
170
     0
171
     0
290
     0
174
     0
 93
        1
 44
0.0
173
     0
291
     1
 45
0.0
  0
VISUALSTYLE
  5
34
102
{ACAD_REACTORS
330
2A
102
}
102
{ACAD_XDICTIONARY
360
86
102
}
330
2A
100
AcDbVisualStyle
  2
Conceptual
 70
     9
 71
     3
 72
     2
 73
     0
 90
        0
 40
-0.6
 41
-30.0
 62
     5
 63
     7
421
 16777215
 74
     2
 91
        2
 64
     7
 65
   257
 75
     1
175
     1
 42
40.0
 92
        8
 66
     7
 43
1.0
 76
     1
 77
     6
 78
     2
 67
     7
 79
     3
170
     0
171
     0
290
     0
174
     0
 93
        1
 44
0.0
173
     0
291
     0
 45
0.0
  0
VISUALSTYLE
  5
35
102
{ACAD_REACTORS
330
2A
102
}
102
{ACAD_XDICTIONARY
360
88
102
}
330
2A
100
AcDbVisualStyle
  2
Dim
 70
    11
 71
     2
 72
     2
 73
     0
 90
        0
 40
-0.6
 41
-30.0
 62
     5
 63
     7
421
 16777215
 74
     1
 91
        4
 64
     7
 65
   257
 75
     1
175
     1
 42
1.0
 92
        8
 66
     7
 43
1.0
 76
     1
 77
     6
 78
     2
 67
     7
 79
     5
170
     0
171
     0
290
     0
174
     0
 93
        1
 44
-50.0
173
     0
291
     1
 45
0.0
  0
VISUALSTYLE
  5
39
102
{ACAD_REACTORS
330
2A
102
}
102
{ACAD_XDICTIONARY
360
90
102
}
330
2A
100
AcDbVisualStyle
  2
Facepattern
 70
    15
 71
     2
 72
     2
 73
     0
 90
        0
 40
-0.6
 41
-30.0
 62
     5
 63
     7
421
 16777215
 74
     1
 91
        4
 64
     7
 65
   257
 75
     1
175
     1
 42
1.0
 92
        8
 66
     7
 43
1.0
 76
     1
 77
     6
 78
     2
 67
     7
 79
     5
170
     0
171
     0
290
     0
174
     0
 93
        1
 44
0.0
173
     0
291
     1
 45
0.0
  0
VISUALSTYLE
  5
2B
102
{ACAD_REACTORS
330
2A
102
}
102
{ACAD_XDICTIONARY
360
74
102
}
330
2A
100
AcDbVisualStyle
  2
Flat
 70
     0
 71
     2
 72
     1
 73
     1
 90
        2
 40
-0.6
 41
30.0
 62
     5
 63
     7
421
 16777215
 74
     0
 91
        4
 64
     7
 65
   257
 75
     1
175
     1
 42
1.0
 92
        8
 66
     7
 43
1.0
 76
     1
 77
     6
 78
     2
 67
     7
 79
     5
170
     0
171
     0
290
     0
174
     0
 93
       13
 44
0.0
173
     0
291
     1
 45
0.0
  0
VISUALSTYLE
  5
2C
102
{ACAD_REACTORS
330
2A
102
}
102
{ACAD_XDICTIONARY
360
76
102
}
330
2A
100
AcDbVisualStyle
  2
FlatWithEdges
 70
     1
 71
     2
 72
     1
 73
     1
 90
        2
 40
-0.6
 41
30.0
 62
     5
 63
     7
421
 16777215
 74
     1
 91
        4
 64
     7
 65
   257
 75
     1
175
     1
 42
1.0
 92
        0
 66
   257
 43
1.0
 76
     1
 77
     6
 78
     2
 67
     7
 79
     5
170
     0
171
     0
290
     0
174
     0
 93
       13
 44
0.0
173
     0
291
     1
 45
0.0
  0
VISUALSTYLE
  5
2D
102
{ACAD_REACTORS
330
2A
102
}
102
{ACAD_XDICTIONARY
360
78
102
}
330
2A
100
AcDbVisualStyle
  2
Gouraud
 70
     2
 71
     2
 72
     2
 73
     1
 90
        2
 40
-0.6
 41
30.0
 62
     5
 63
     7
421
 16777215
 74
     0
 91
        4
 64
     7
 65
   257
 75
     1
175
     1
 42
1.0
 92
        0
 66
     7
 43
1.0
 76
     1
 77
     6
 78
     2
 67
     7
 79
     5
170
     0
171
     0
290
     0
174
     0
 93
       13
 44
0.0
173
     0
291
     1
 45
0.0
  0
VISUALSTYLE
  5
2E
102
{ACAD_REACTORS
330
2A
102
}
102
{ACAD_XDICTIONARY
360
7A
102
}
330
2A
100
AcDbVisualStyle
  2
GouraudWithEdges
 70
     3
 71
     2
 72
     2
 73
     1
 90
        2
 40
-0.6
 41
30.0
 62
     5
 63
     7
421
 16777215
 74
     1
 91
        4
 64
     7
 65
   257
 75
     1
175
     1
 42
1.0
 92
        0
 66
   257
 43
1.0
 76
     1
 77
     6
 78
     2
 67
     7
 79
     5
170
     0
171
     0
290
     0
174
     0
 93
       13
 44
0.0
173
     0
291
     1
 45
0.0
  0
VISUALSTYLE
  5
38
102
{ACAD_REACTORS
330
2A
102
}
102
{ACAD_XDICTIONARY
360
8E
102
}
330
2A
100
AcDbVisualStyle
  2
Linepattern
 70
    14
 71
     2
 72
     2
 73
     0
 90
        0
 40
-0.6
 41
-30.0
 62
     5
 63
     7
421
 16777215
 74
     1
 91
        4
 64
     7
 65
   257
 75
     7
175
     7
 42
1.0
 92
        8
 66
     7
 43
1.0
 76
     1
 77
     6
 78
     2
 67
     7
 79
     5
170
     0
171
     0
290
     0
174
     0
 93
        1
 44
0.0
173
     0
291
     1
 45
0.0
  0
VISUALSTYLE
  5
33
102
{ACAD_REACTORS
330
2A
102
}
102
{ACAD_XDICTIONARY
360
84
102
}
330
2A
100
AcDbVisualStyle
  2
Realistic
 70
     8
 71
     2
 72
     2
 73
     0
 90
        0
 40
-0.6
 41
-30.0
 62
     5
 63
     7
421
 16777215
 74
     1
 91
        0
 64
     7
 65
   257
 75
     1
175
     1
 42
1.0
 92
        8
 66
     8
424
  7895160
 43
1.0
 76
     1
 77
     6
 78
     2
 67
     7
 79
     5
170
     0
171
     0
290
     0
174
     0
 93
       13
 44
0.0
173
     0
291
     0
 45
0.0
  0
VISUALSTYLE
  5
37
102
{ACAD_REACTORS
330
2A
102
}
102
{ACAD_XDICTIONARY
360
8C
102
}
330
2A
100
AcDbVisualStyle
  2
Thicken
 70
    13
 71
     2
 72
     2
 73
     0
 90
        0
 40
-0.6
 41
-30.0
 62
     5
 63
     7
421
 16777215
 74
     1
 91
        4
 64
     7
 65
   257
 75
     1
175
     1
 42
1.0
 92
       12
 66
     7
 43
1.0
 76
     1
 77
     6
 78
     2
 67
     7
 79
     5
170
     0
171
     0
290
     0
174
     0
 93
        1
 44
0.0
173
     0
291
     1
 45
0.0
  0
DICTIONARY
  5
7C
330
2F
100
AcDbDictionary
280
     1
281
     1
  3
ACAD_XREC_ROUNDTRIP
360
7D
  0
DICTIONARY
  5
80
330
31
100
AcDbDictionary
280
     1
281
     1
  3
ACAD_XREC_ROUNDTRIP
360
81
  0
DICTIONARY
  5
7E
330
30
100
AcDbDictionary
280
     1
281
     1
  3
ACAD_XREC_ROUNDTRIP
360
7F
  0
DICTIONARY
  5
82
330
32
100
AcDbDictionary
280
     1
281
     1
  3
ACAD_XREC_ROUNDTRIP
360
83
  0
DICTIONARY
  5
8A
330
36
100
AcDbDictionary
280
     1
281
     1
  3
ACAD_XREC_ROUNDTRIP
360
8B
  0
DICTIONARY
  5
92
330
3A
100
AcDbDictionary
280
     1
281
     1
  3
ACAD_XREC_ROUNDTRIP
360
93
  0
DICTIONARY
  5
86
330
34
100
AcDbDictionary
280
     1
281
     1
  3
ACAD_XREC_ROUNDTRIP
360
87
  0
DICTIONARY
  5
88
330
35
100
AcDbDictionary
280
     1
281
     1
  3
ACAD_XREC_ROUNDTRIP
360
89
  0
DICTIONARY
  5
90
330
39
100
AcDbDictionary
280
     1
281
     1
  3
ACAD_XREC_ROUNDTRIP
360
91
  0
DICTIONARY
  5
74
330
2B
100
AcDbDictionary
280
     1
281
     1
  3
ACAD_XREC_ROUNDTRIP
360
75
  0
DICTIONARY
  5
76
330
2C
100
AcDbDictionary
280
     1
281
     1
  3
ACAD_XREC_ROUNDTRIP
360
77
  0
DICTIONARY
  5
78
330
2D
100
AcDbDictionary
280
     1
281
     1
  3
ACAD_XREC_ROUNDTRIP
360
79
  0
DICTIONARY
  5
7A
330
2E
100
AcDbDictionary
280
     1
281
     1
  3
ACAD_XREC_ROUNDTRIP
360
7B
  0
DICTIONARY
  5
8E
330
38
100
AcDbDictionary
280
     1
281
     1
  3
ACAD_XREC_ROUNDTRIP
360
8F
  0
DICTIONARY
  5
84
330
33
100
AcDbDictionary
280
     1
281
     1
  3
ACAD_XREC_ROUNDTRIP
360
85
  0
DICTIONARY
  5
8C
330
37
100
AcDbDictionary
280
     1
281
     1
  3
ACAD_XREC_ROUNDTRIP
360
8D
  0
XRECORD
  5
7D
102
{ACAD_REACTORS
330
7C
102
}
330
7C
100
AcDbXrecord
280
     1
102
RTVSPropertyOp0
 70
     1
102
RTVSPropertyOp1
 70
     1
102
RTVSPropertyOp2
 70
     1
102
RTVSPropertyOp3
 70
     1
102
RTVSPropertyOp4
 70
     1
102
RTVSPropertyOp5
 70
     1
102
RTVSPropertyOp6
 70
     1
102
RTVSPropertyOp7
 70
     1
102
RTVSPropertyOp8
 70
     1
102
RTVSPropertyOp9
 70
     1
102
RTVSPropertyOp10
 70
     1
102
RTVSPropertyOp11
 70
     1
102
RTVSPropertyOp12
 70
     1
102
RTVSPropertyOp13
 70
     1
102
RTVSPropertyOp14
 70
     1
102
RTVSPropertyOp15
 70
     1
102
RTVSPropertyOp16
 70
     1
102
RTVSPropertyOp17
 70
     1
102
RTVSPropertyOp18
 70
     1
102
RTVSPropertyOp19
 70
     1
102
RTVSPropertyOp20
 70
     1
102
RTVSPropertyOp21
 70
     1
102
RTVSPropertyOp22
 70
     1
102
RTVSPropertyOp23
 70
     1
102
RTVSPropertyOp24
 70
     1
102
RTVSPropertyOp25
 70
     1
102
RTVSPropertyOp26
 70
     1
102
RTVSPropertyOp27
 70
     1
102
RTVSPropertyOp28
 70
     1
102
RTVSPropertyOp29
 70
     1
102
RTVSPropertyOp30
 70
     1
102
RTVSPropertyOp31
 70
     1
102
RTVSPropertyOp32
 70
     1
  0
XRECORD
  5
81
102
{ACAD_REACTORS
330
80
102
}
330
80
100
AcDbXrecord
280
     1
102
RTVSPropertyOp0
 70
     1
102
RTVSPropertyOp1
 70
     1
102
RTVSPropertyOp2
 70
     1
102
RTVSPropertyOp3
 70
     1
102
RTVSPropertyOp4
 70
     1
102
RTVSPropertyOp5
 70
     1
102
RTVSPropertyOp6
 70
     1
102
RTVSPropertyOp7
 70
     1
102
RTVSPropertyOp8
 70
     1
102
RTVSPropertyOp9
 70
     1
102
RTVSPropertyOp10
 70
     1
102
RTVSPropertyOp11
 70
     1
102
RTVSPropertyOp12
 70
     1
102
RTVSPropertyOp13
 70
     1
102
RTVSPropertyOp14
 70
     1
102
RTVSPropertyOp15
 70
     1
102
RTVSPropertyOp16
 70
     1
102
RTVSPropertyOp17
 70
     1
102
RTVSPropertyOp18
 70
     1
102
RTVSPropertyOp19
 70
     1
102
RTVSPropertyOp20
 70
     1
102
RTVSPropertyOp21
 70
     1
102
RTVSPropertyOp22
 70
     1
102
RTVSPropertyOp23
 70
     1
102
RTVSPropertyOp24
 70
     1
102
RTVSPropertyOp25
 70
     1
102
RTVSPropertyOp26
 70
     1
102
RTVSPropertyOp27
 70
     1
102
RTVSPropertyOp28
 70
     1
102
RTVSPropertyOp29
 70
     1
102
RTVSPropertyOp30
 70
     1
102
RTVSPropertyOp31
 70
     1
102
RTVSPropertyOp32
 70
     1
  0
XRECORD
  5
7F
102
{ACAD_REACTORS
330
7E
102
}
330
7E
100
AcDbXrecord
280
     1
102
RTVSPropertyOp0
 70
     1
102
RTVSPropertyOp1
 70
     1
102
RTVSPropertyOp2
 70
     1
102
RTVSPropertyOp3
 70
     1
102
RTVSPropertyOp4
 70
     1
102
RTVSPropertyOp5
 70
     1
102
RTVSPropertyOp6
 70
     1
102
RTVSPropertyOp7
 70
     1
102
RTVSPropertyOp8
 70
     1
102
RTVSPropertyOp9
 70
     1
102
RTVSPropertyOp10
 70
     1
102
RTVSPropertyOp11
 70
     1
102
RTVSPropertyOp12
 70
     1
102
RTVSPropertyOp13
 70
     1
102
RTVSPropertyOp14
 70
     1
102
RTVSPropertyOp15
 70
     1
102
RTVSPropertyOp16
 70
     1
102
RTVSPropertyOp17
 70
     1
102
RTVSPropertyOp18
 70
     1
102
RTVSPropertyOp19
 70
     1
102
RTVSPropertyOp20
 70
     1
102
RTVSPropertyOp21
 70
     1
102
RTVSPropertyOp22
 70
     1
102
RTVSPropertyOp23
 70
     1
102
RTVSPropertyOp24
 70
     1
102
RTVSPropertyOp25
 70
     1
102
RTVSPropertyOp26
 70
     1
102
RTVSPropertyOp27
 70
     1
102
RTVSPropertyOp28
 70
     1
102
RTVSPropertyOp29
 70
     1
102
RTVSPropertyOp30
 70
     1
102
RTVSPropertyOp31
 70
     1
102
RTVSPropertyOp32
 70
     1
  0
XRECORD
  5
83
102
{ACAD_REACTORS
330
82
102
}
330
82
100
AcDbXrecord
280
     1
102
RTVSPropertyOp0
 70
     1
102
RTVSPropertyOp1
 70
     1
102
RTVSPropertyOp2
 70
     1
102
RTVSPropertyOp3
 70
     1
102
RTVSPropertyOp4
 70
     1
102
RTVSPropertyOp5
 70
     1
102
RTVSPropertyOp6
 70
     1
102
RTVSPropertyOp7
 70
     1
102
RTVSPropertyOp8
 70
     1
102
RTVSPropertyOp9
 70
     1
102
RTVSPropertyOp10
 70
     1
102
RTVSPropertyOp11
 70
     1
102
RTVSPropertyOp12
 70
     1
102
RTVSPropertyOp13
 70
     1
102
RTVSPropertyOp14
 70
     1
102
RTVSPropertyOp15
 70
     1
102
RTVSPropertyOp16
 70
     1
102
RTVSPropertyOp17
 70
     1
102
RTVSPropertyOp18
 70
     1
102
RTVSPropertyOp19
 70
     1
102
RTVSPropertyOp20
 70
     1
102
RTVSPropertyOp21
 70
     1
102
RTVSPropertyOp22
 70
     1
102
RTVSPropertyOp23
 70
     1
102
RTVSPropertyOp24
 70
     1
102
RTVSPropertyOp25
 70
     1
102
RTVSPropertyOp26
 70
     1
102
RTVSPropertyOp27
 70
     1
102
RTVSPropertyOp28
 70
     1
102
RTVSPropertyOp29
 70
     1
102
RTVSPropertyOp30
 70
     1
102
RTVSPropertyOp31
 70
     1
102
RTVSPropertyOp32
 70
     1
  0
XRECORD
  5
8B
102
{ACAD_REACTORS
330
8A
102
}
330
8A
100
AcDbXrecord
280
     1
102
RTVSPropertyOp0
 70
     1
102
RTVSPropertyOp1
 70
     1
102
RTVSPropertyOp2
 70
     1
102
RTVSPropertyOp3
 70
     1
102
RTVSPropertyOp4
 70
     1
102
RTVSPropertyOp5
 70
     1
102
RTVSPropertyOp6
 70
     1
102
RTVSPropertyOp7
 70
     1
102
RTVSPropertyOp8
 70
     1
102
RTVSPropertyOp9
 70
     1
102
RTVSPropertyOp10
 70
     1
102
RTVSPropertyOp11
 70
     1
102
RTVSPropertyOp12
 70
     1
102
RTVSPropertyOp13
 70
     1
102
RTVSPropertyOp14
 70
     1
102
RTVSPropertyOp15
 70
     1
102
RTVSPropertyOp16
 70
     1
102
RTVSPropertyOp17
 70
     1
102
RTVSPropertyOp18
 70
     1
102
RTVSPropertyOp19
 70
     1
102
RTVSPropertyOp20
 70
     1
102
RTVSPropertyOp21
 70
     1
102
RTVSPropertyOp22
 70
     1
102
RTVSPropertyOp23
 70
     1
102
RTVSPropertyOp24
 70
     1
102
RTVSPropertyOp25
 70
     1
102
RTVSPropertyOp26
 70
     1
102
RTVSPropertyOp27
 70
     1
102
RTVSPropertyOp28
 70
     1
102
RTVSPropertyOp29
 70
     1
102
RTVSPropertyOp30
 70
     1
102
RTVSPropertyOp31
 70
     1
102
RTVSPropertyOp32
 70
     1
  0
XRECORD
  5
93
102
{ACAD_REACTORS
330
92
102
}
330
92
100
AcDbXrecord
280
     1
102
RTVSPropertyOp0
 70
     1
102
RTVSPropertyOp1
 70
     1
102
RTVSPropertyOp2
 70
     1
102
RTVSPropertyOp3
 70
     1
102
RTVSPropertyOp4
 70
     1
102
RTVSPropertyOp5
 70
     1
102
RTVSPropertyOp6
 70
     1
102
RTVSPropertyOp7
 70
     1
102
RTVSPropertyOp8
 70
     1
102
RTVSPropertyOp9
 70
     1
102
RTVSPropertyOp10
 70
     1
102
RTVSPropertyOp11
 70
     1
102
RTVSPropertyOp12
 70
     1
102
RTVSPropertyOp13
 70
     1
102
RTVSPropertyOp14
 70
     1
102
RTVSPropertyOp15
 70
     1
102
RTVSPropertyOp16
 70
     1
102
RTVSPropertyOp17
 70
     1
102
RTVSPropertyOp18
 70
     1
102
RTVSPropertyOp19
 70
     1
102
RTVSPropertyOp20
 70
     1
102
RTVSPropertyOp21
 70
     1
102
RTVSPropertyOp22
 70
     1
102
RTVSPropertyOp23
 70
     1
102
RTVSPropertyOp24
 70
     1
102
RTVSPropertyOp25
 70
     1
102
RTVSPropertyOp26
 70
     1
102
RTVSPropertyOp27
 70
     1
102
RTVSPropertyOp28
 70
     1
102
RTVSPropertyOp29
 70
     1
102
RTVSPropertyOp30
 70
     1
102
RTVSPropertyOp31
 70
     1
102
RTVSPropertyOp32
 70
     1
  0
XRECORD
  5
87
102
{ACAD_REACTORS
330
86
102
}
330
86
100
AcDbXrecord
280
     1
102
RTVSPropertyOp0
 70
     1
102
RTVSPropertyOp1
 70
     1
102
RTVSPropertyOp2
 70
     1
102
RTVSPropertyOp3
 70
     1
102
RTVSPropertyOp4
 70
     1
102
RTVSPropertyOp5
 70
     1
102
RTVSPropertyOp6
 70
     1
102
RTVSPropertyOp7
 70
     1
102
RTVSPropertyOp8
 70
     1
102
RTVSPropertyOp9
 70
     1
102
RTVSPropertyOp10
 70
     1
102
RTVSPropertyOp11
 70
     1
102
RTVSPropertyOp12
 70
     1
102
RTVSPropertyOp13
 70
     1
102
RTVSPropertyOp14
 70
     1
102
RTVSPropertyOp15
 70
     1
102
RTVSPropertyOp16
 70
     1
102
RTVSPropertyOp17
 70
     1
102
RTVSPropertyOp18
 70
     1
102
RTVSPropertyOp19
 70
     1
102
RTVSPropertyOp20
 70
     1
102
RTVSPropertyOp21
 70
     1
102
RTVSPropertyOp22
 70
     1
102
RTVSPropertyOp23
 70
     1
102
RTVSPropertyOp24
 70
     1
102
RTVSPropertyOp25
 70
     1
102
RTVSPropertyOp26
 70
     1
102
RTVSPropertyOp27
 70
     1
102
RTVSPropertyOp28
 70
     1
102
RTVSPropertyOp29
 70
     1
102
RTVSPropertyOp30
 70
     1
102
RTVSPropertyOp31
 70
     1
102
RTVSPropertyOp32
 70
     1
  0
XRECORD
  5
89
102
{ACAD_REACTORS
330
88
102
}
330
88
100
AcDbXrecord
280
     1
102
RTVSPropertyOp0
 70
     1
102
RTVSPropertyOp1
 70
     1
102
RTVSPropertyOp2
 70
     1
102
RTVSPropertyOp3
 70
     1
102
RTVSPropertyOp4
 70
     1
102
RTVSPropertyOp5
 70
     1
102
RTVSPropertyOp6
 70
     1
102
RTVSPropertyOp7
 70
     1
102
RTVSPropertyOp8
 70
     1
102
RTVSPropertyOp9
 70
     1
102
RTVSPropertyOp10
 70
     1
102
RTVSPropertyOp11
 70
     1
102
RTVSPropertyOp12
 70
     1
102
RTVSPropertyOp13
 70
     1
102
RTVSPropertyOp14
 70
     1
102
RTVSPropertyOp15
 70
     1
102
RTVSPropertyOp16
 70
     1
102
RTVSPropertyOp17
 70
     1
102
RTVSPropertyOp18
 70
     1
102
RTVSPropertyOp19
 70
     1
102
RTVSPropertyOp20
 70
     1
102
RTVSPropertyOp21
 70
     1
102
RTVSPropertyOp22
 70
     1
102
RTVSPropertyOp23
 70
     1
102
RTVSPropertyOp24
 70
     1
102
RTVSPropertyOp25
 70
     1
102
RTVSPropertyOp26
 70
     1
102
RTVSPropertyOp27
 70
     1
102
RTVSPropertyOp28
 70
     1
102
RTVSPropertyOp29
 70
     1
102
RTVSPropertyOp30
 70
     1
102
RTVSPropertyOp31
 70
     1
102
RTVSPropertyOp32
 70
     1
  0
XRECORD
  5
91
102
{ACAD_REACTORS
330
90
102
}
330
90
100
AcDbXrecord
280
     1
102
RTVSPropertyOp0
 70
     1
102
RTVSPropertyOp1
 70
     1
102
RTVSPropertyOp2
 70
     1
102
RTVSPropertyOp3
 70
     1
102
RTVSPropertyOp4
 70
     1
102
RTVSPropertyOp5
 70
     1
102
RTVSPropertyOp6
 70
     1
102
RTVSPropertyOp7
 70
     1
102
RTVSPropertyOp8
 70
     1
102
RTVSPropertyOp9
 70
     1
102
RTVSPropertyOp10
 70
     1
102
RTVSPropertyOp11
 70
     1
102
RTVSPropertyOp12
 70
     1
102
RTVSPropertyOp13
 70
     1
102
RTVSPropertyOp14
 70
     1
102
RTVSPropertyOp15
 70
     1
102
RTVSPropertyOp16
 70
     1
102
RTVSPropertyOp17
 70
     1
102
RTVSPropertyOp18
 70
     1
102
RTVSPropertyOp19
 70
     1
102
RTVSPropertyOp20
 70
     1
102
RTVSPropertyOp21
 70
     1
102
RTVSPropertyOp22
 70
     1
102
RTVSPropertyOp23
 70
     1
102
RTVSPropertyOp24
 70
     1
102
RTVSPropertyOp25
 70
     1
102
RTVSPropertyOp26
 70
     1
102
RTVSPropertyOp27
 70
     1
102
RTVSPropertyOp28
 70
     1
102
RTVSPropertyOp29
 70
     1
102
RTVSPropertyOp30
 70
     1
102
RTVSPropertyOp31
 70
     1
102
RTVSPropertyOp32
 70
     1
  0
XRECORD
  5
75
102
{ACAD_REACTORS
330
74
102
}
330
74
100
AcDbXrecord
280
     1
102
RTVSPropertyOp0
 70
     1
102
RTVSPropertyOp1
 70
     1
102
RTVSPropertyOp2
 70
     1
102
RTVSPropertyOp3
 70
     1
102
RTVSPropertyOp4
 70
     1
102
RTVSPropertyOp5
 70
     1
102
RTVSPropertyOp6
 70
     1
102
RTVSPropertyOp7
 70
     1
102
RTVSPropertyOp8
 70
     1
102
RTVSPropertyOp9
 70
     1
102
RTVSPropertyOp10
 70
     1
102
RTVSPropertyOp11
 70
     1
102
RTVSPropertyOp12
 70
     1
102
RTVSPropertyOp13
 70
     1
102
RTVSPropertyOp14
 70
     1
102
RTVSPropertyOp15
 70
     1
102
RTVSPropertyOp16
 70
     1
102
RTVSPropertyOp17
 70
     1
102
RTVSPropertyOp18
 70
     1
102
RTVSPropertyOp19
 70
     1
102
RTVSPropertyOp20
 70
     1
102
RTVSPropertyOp21
 70
     1
102
RTVSPropertyOp22
 70
     1
102
RTVSPropertyOp23
 70
     1
102
RTVSPropertyOp24
 70
     1
102
RTVSPropertyOp25
 70
     1
102
RTVSPropertyOp26
 70
     1
102
RTVSPropertyOp27
 70
     1
102
RTVSPropertyOp28
 70
     1
102
RTVSPropertyOp29
 70
     1
102
RTVSPropertyOp30
 70
     1
102
RTVSPropertyOp31
 70
     1
102
RTVSPropertyOp32
 70
     1
  0
XRECORD
  5
77
102
{ACAD_REACTORS
330
76
102
}
330
76
100
AcDbXrecord
280
     1
102
RTVSPropertyOp0
 70
     1
102
RTVSPropertyOp1
 70
     1
102
RTVSPropertyOp2
 70
     1
102
RTVSPropertyOp3
 70
     1
102
RTVSPropertyOp4
 70
     1
102
RTVSPropertyOp5
 70
     1
102
RTVSPropertyOp6
 70
     1
102
RTVSPropertyOp7
 70
     1
102
RTVSPropertyOp8
 70
     1
102
RTVSPropertyOp9
 70
     1
102
RTVSPropertyOp10
 70
     1
102
RTVSPropertyOp11
 70
     1
102
RTVSPropertyOp12
 70
     1
102
RTVSPropertyOp13
 70
     1
102
RTVSPropertyOp14
 70
     1
102
RTVSPropertyOp15
 70
     1
102
RTVSPropertyOp16
 70
     1
102
RTVSPropertyOp17
 70
     1
102
RTVSPropertyOp18
 70
     1
102
RTVSPropertyOp19
 70
     1
102
RTVSPropertyOp20
 70
     1
102
RTVSPropertyOp21
 70
     1
102
RTVSPropertyOp22
 70
     1
102
RTVSPropertyOp23
 70
     1
102
RTVSPropertyOp24
 70
     1
102
RTVSPropertyOp25
 70
     1
102
RTVSPropertyOp26
 70
     1
102
RTVSPropertyOp27
 70
     1
102
RTVSPropertyOp28
 70
     1
102
RTVSPropertyOp29
 70
     1
102
RTVSPropertyOp30
 70
     1
102
RTVSPropertyOp31
 70
     1
102
RTVSPropertyOp32
 70
     1
  0
XRECORD
  5
79
102
{ACAD_REACTORS
330
78
102
}
330
78
100
AcDbXrecord
280
     1
102
RTVSPropertyOp0
 70
     1
102
RTVSPropertyOp1
 70
     1
102
RTVSPropertyOp2
 70
     1
102
RTVSPropertyOp3
 70
     1
102
RTVSPropertyOp4
 70
     1
102
RTVSPropertyOp5
 70
     1
102
RTVSPropertyOp6
 70
     1
102
RTVSPropertyOp7
 70
     1
102
RTVSPropertyOp8
 70
     1
102
RTVSPropertyOp9
 70
     1
102
RTVSPropertyOp10
 70
     1
102
RTVSPropertyOp11
 70
     1
102
RTVSPropertyOp12
 70
     1
102
RTVSPropertyOp13
 70
     1
102
RTVSPropertyOp14
 70
     1
102
RTVSPropertyOp15
 70
     1
102
RTVSPropertyOp16
 70
     1
102
RTVSPropertyOp17
 70
     1
102
RTVSPropertyOp18
 70
     1
102
RTVSPropertyOp19
 70
     1
102
RTVSPropertyOp20
 70
     1
102
RTVSPropertyOp21
 70
     1
102
RTVSPropertyOp22
 70
     1
102
RTVSPropertyOp23
 70
     1
102
RTVSPropertyOp24
 70
     1
102
RTVSPropertyOp25
 70
     1
102
RTVSPropertyOp26
 70
     1
102
RTVSPropertyOp27
 70
     1
102
RTVSPropertyOp28
 70
     1
102
RTVSPropertyOp29
 70
     1
102
RTVSPropertyOp30
 70
     1
102
RTVSPropertyOp31
 70
     1
102
RTVSPropertyOp32
 70
     1
  0
XRECORD
  5
7B
102
{ACAD_REACTORS
330
7A
102
}
330
7A
100
AcDbXrecord
280
     1
102
RTVSPropertyOp0
 70
     1
102
RTVSPropertyOp1
 70
     1
102
RTVSPropertyOp2
 70
     1
102
RTVSPropertyOp3
 70
     1
102
RTVSPropertyOp4
 70
     1
102
RTVSPropertyOp5
 70
     1
102
RTVSPropertyOp6
 70
     1
102
RTVSPropertyOp7
 70
     1
102
RTVSPropertyOp8
 70
     1
102
RTVSPropertyOp9
 70
     1
102
RTVSPropertyOp10
 70
     1
102
RTVSPropertyOp11
 70
     1
102
RTVSPropertyOp12
 70
     1
102
RTVSPropertyOp13
 70
     1
102
RTVSPropertyOp14
 70
     1
102
RTVSPropertyOp15
 70
     1
102
RTVSPropertyOp16
 70
     1
102
RTVSPropertyOp17
 70
     1
102
RTVSPropertyOp18
 70
     1
102
RTVSPropertyOp19
 70
     1
102
RTVSPropertyOp20
 70
     1
102
RTVSPropertyOp21
 70
     1
102
RTVSPropertyOp22
 70
     1
102
RTVSPropertyOp23
 70
     1
102
RTVSPropertyOp24
 70
     1
102
RTVSPropertyOp25
 70
     1
102
RTVSPropertyOp26
 70
     1
102
RTVSPropertyOp27
 70
     1
102
RTVSPropertyOp28
 70
     1
102
RTVSPropertyOp29
 70
     1
102
RTVSPropertyOp30
 70
     1
102
RTVSPropertyOp31
 70
     1
102
RTVSPropertyOp32
 70
     1
  0
XRECORD
  5
8F
102
{ACAD_REACTORS
330
8E
102
}
330
8E
100
AcDbXrecord
280
     1
102
RTVSPropertyOp0
 70
     1
102
RTVSPropertyOp1
 70
     1
102
RTVSPropertyOp2
 70
     1
102
RTVSPropertyOp3
 70
     1
102
RTVSPropertyOp4
 70
     1
102
RTVSPropertyOp5
 70
     1
102
RTVSPropertyOp6
 70
     1
102
RTVSPropertyOp7
 70
     1
102
RTVSPropertyOp8
 70
     1
102
RTVSPropertyOp9
 70
     1
102
RTVSPropertyOp10
 70
     1
102
RTVSPropertyOp11
 70
     1
102
RTVSPropertyOp12
 70
     1
102
RTVSPropertyOp13
 70
     1
102
RTVSPropertyOp14
 70
     1
102
RTVSPropertyOp15
 70
     1
102
RTVSPropertyOp16
 70
     1
102
RTVSPropertyOp17
 70
     1
102
RTVSPropertyOp18
 70
     1
102
RTVSPropertyOp19
 70
     1
102
RTVSPropertyOp20
 70
     1
102
RTVSPropertyOp21
 70
     1
102
RTVSPropertyOp22
 70
     1
102
RTVSPropertyOp23
 70
     1
102
RTVSPropertyOp24
 70
     1
102
RTVSPropertyOp25
 70
     1
102
RTVSPropertyOp26
 70
     1
102
RTVSPropertyOp27
 70
     1
102
RTVSPropertyOp28
 70
     1
102
RTVSPropertyOp29
 70
     1
102
RTVSPropertyOp30
 70
     1
102
RTVSPropertyOp31
 70
     1
102
RTVSPropertyOp32
 70
     1
  0
XRECORD
  5
85
102
{ACAD_REACTORS
330
84
102
}
330
84
100
AcDbXrecord
280
     1
102
RTVSPropertyOp0
 70
     1
102
RTVSPropertyOp1
 70
     1
102
RTVSPropertyOp2
 70
     1
102
RTVSPropertyOp3
 70
     1
102
RTVSPropertyOp4
 70
     1
102
RTVSPropertyOp5
 70
     1
102
RTVSPropertyOp6
 70
     1
102
RTVSPropertyOp7
 70
     1
102
RTVSPropertyOp8
 70
     1
102
RTVSPropertyOp9
 70
     1
102
RTVSPropertyOp10
 70
     1
102
RTVSPropertyOp11
 70
     1
102
RTVSPropertyOp12
 70
     1
102
RTVSPropertyOp13
 70
     1
102
RTVSPropertyOp14
 70
     1
102
RTVSPropertyOp15
 70
     1
102
RTVSPropertyOp16
 70
     1
102
RTVSPropertyOp17
 70
     1
102
RTVSPropertyOp18
 70
     1
102
RTVSPropertyOp19
 70
     1
102
RTVSPropertyOp20
 70
     1
102
RTVSPropertyOp21
 70
     1
102
RTVSPropertyOp22
 70
     1
102
RTVSPropertyOp23
 70
     1
102
RTVSPropertyOp24
 70
     1
102
RTVSPropertyOp25
 70
     1
102
RTVSPropertyOp26
 70
     1
102
RTVSPropertyOp27
 70
     1
102
RTVSPropertyOp28
 70
     1
102
RTVSPropertyOp29
 70
     1
102
RTVSPropertyOp30
 70
     1
102
RTVSPropertyOp31
 70
     1
102
RTVSPropertyOp32
 70
     1
  0
XRECORD
  5
8D
102
{ACAD_REACTORS
330
8C
102
}
330
8C
100
AcDbXrecord
280
     1
102
RTVSPropertyOp0
 70
     1
102
RTVSPropertyOp1
 70
     1
102
RTVSPropertyOp2
 70
     1
102
RTVSPropertyOp3
 70
     1
102
RTVSPropertyOp4
 70
     1
102
RTVSPropertyOp5
 70
     1
102
RTVSPropertyOp6
 70
     1
102
RTVSPropertyOp7
 70
     1
102
RTVSPropertyOp8
 70
     1
102
RTVSPropertyOp9
 70
     1
102
RTVSPropertyOp10
 70
     1
102
RTVSPropertyOp11
 70
     1
102
RTVSPropertyOp12
 70
     1
102
RTVSPropertyOp13
 70
     1
102
RTVSPropertyOp14
 70
     1
102
RTVSPropertyOp15
 70
     1
102
RTVSPropertyOp16
 70
     1
102
RTVSPropertyOp17
 70
     1
102
RTVSPropertyOp18
 70
     1
102
RTVSPropertyOp19
 70
     1
102
RTVSPropertyOp20
 70
     1
102
RTVSPropertyOp21
 70
     1
102
RTVSPropertyOp22
 70
     1
102
RTVSPropertyOp23
 70
     1
102
RTVSPropertyOp24
 70
     1
102
RTVSPropertyOp25
 70
     1
102
RTVSPropertyOp26
 70
     1
102
RTVSPropertyOp27
 70
     1
102
RTVSPropertyOp28
 70
     1
102
RTVSPropertyOp29
 70
     1
102
RTVSPropertyOp30
 70
     1
102
RTVSPropertyOp31
 70
     1
102
RTVSPropertyOp32
 70
     1
  0
ENDSEC
  0
EOF
