  0
SECTION
  2
HEADER
  9
$ACADVER
  1
AC1021
  9
$ACADMAINTVER
 70
    25
  9
$DWGCODEPAGE
  3
ANSI_1252
  9
$INSBASE
 10
0.0
 20
0.0
 30
0.0
  9
$EXTMIN
 10
-187.0251
 20
-115.165
 30
0.0
  9
$EXTMAX
 10
67.3165
 20
131.858
 30
0.0
  9
$LIMMIN
 10
0.0
 20
0.0
  9
$LIMMAX
 10
12.0
 20
9.0
  9
$ORTHOMODE
 70
     0
  9
$REGENMODE
 70
     1
  9
$FILLMODE
 70
     1
  9
$QTEXTMODE
 70
     0
  9
$MIRRTEXT
 70
     1
  9
$LTSCALE
 40
1.0
  9
$ATTMODE
 70
     1
  9
$TEXTSIZE
 40
0.2
  9
$TRACEWID
 40
0.05
  9
$TEXTSTYLE
  7
Standard
  9
$CLAYER
  8
0
  9
$CELTYPE
  6
ByLayer
  9
$CECOLOR
 62
   256
  9
$CELTSCALE
 40
1.0
  9
$DISPSILH
 70
     0
  9
$DIMSCALE
 40
1.0
  9
$DIMASZ
 40
0.18
  9
$DIMEXO
 40
0.0625
  9
$DIMDLI
 40
0.38
  9
$DIMRND
 40
0.0
  9
$DIMDLE
 40
0.0
  9
$DIMEXE
 40
0.18
  9
$DIMTP
 40
0.0
  9
$DIMTM
 40
0.0
  9
$DIMTXT
 40
0.18
  9
$DIMCEN
 40
0.09
  9
$DIMTSZ
 40
0.0
  9
$DIMTOL
 70
     0
  9
$DIMLIM
 70
     0
  9
$DIMTIH
 70
     1
  9
$DIMTOH
 70
     1
  9
$DIMSE1
 70
     0
  9
$DIMSE2
 70
     0
  9
$DIMTAD
 70
     0
  9
$DIMZIN
 70
     0
  9
$DIMBLK
  1

  9
$DIMASO
 70
     1
  9
$DIMSHO
 70
     1
  9
$DIMPOST
  1

  9
$DIMAPOST
  1

  9
$DIMALT
 70
     0
  9
$DIMALTD
 70
     2
  9
$DIMALTF
 40
25.4
  9
$DIMLFAC
 40
1.0
  9
$DIMTOFL
 70
     0
  9
$DIMTVP
 40
0.0
  9
$DIMTIX
 70
     0
  9
$DIMSOXD
 70
     0
  9
$DIMSAH
 70
     0
  9
$DIMBLK1
  1

  9
$DIMBLK2
  1

  9
$DIMSTYLE
  2
Standard
  9
$DIMCLRD
 70
     0
  9
$DIMCLRE
 70
     0
  9
$DIMCLRT
 70
     0
  9
$DIMTFAC
 40
1.0
  9
$DIMGAP
 40
0.09
  9
$DIMJUST
 70
     0
  9
$DIMSD1
 70
     0
  9
$DIMSD2
 70
     0
  9
$DIMTOLJ
 70
     1
  9
$DIMTZIN
 70
     0
  9
$DIMALTZ
 70
     0
  9
$DIMALTTZ
 70
     0
  9
$DIMUPT
 70
     0
  9
$DIMDEC
 70
     4
  9
$DIMTDEC
 70
     4
  9
$DIMALTU
 70
     2
  9
$DIMALTTD
 70
     2
  9
$DIMTXSTY
  7
Standard
  9
$DIMAUNIT
 70
     0
  9
$DIMADEC
 70
     0
  9
$DIMALTRND
 40
0.0
  9
$DIMAZIN
 70
     0
  9
$DIMDSEP
 70
    46
  9
$DIMATFIT
 70
     3
  9
$DIMFRAC
 70
     0
  9
$DIMLDRBLK
  1

  9
$DIMLUNIT
 70
     2
  9
$DIMLWD
 70
    -2
  9
$DIMLWE
 70
    -2
  9
$DIMTMOVE
 70
     0
  9
$DIMFXL
 40
1.0
  9
$DIMFXLON
 70
     0
  9
$DIMJOGANG
 40
0.7853981633974483
  9
$DIMTFILL
 70
     0
  9
$DIMTFILLCLR
 70
     0
  9
$DIMARCSYM
 70
     0
  9
$DIMLTYPE
  6

  9
$DIMLTEX1
  6

  9
$DIMLTEX2
  6

  9
$LUNITS
 70
     2
  9
$LUPREC
 70
     4
  9
$SKETCHINC
 40
0.1
  9
$FILLETRAD
 40
0.5
  9
$AUNITS
 70
     0
  9
$AUPREC
 70
     0
  9
$MENU
  1
.
  9
$ELEVATION
 40
0.0
  9
$PELEVATION
 40
0.0
  9
$THICKNESS
 40
0.0
  9
$LIMCHECK
 70
     0
  9
$CHAMFERA
 40
0.5
  9
$CHAMFERB
 40
0.5
  9
$CHAMFERC
 40
1.0
  9
$CHAMFERD
 40
0.0
  9
$SKPOLY
 70
     0
  9
$TDCREATE
 40
2458493.718468819
  9
$TDUCREATE
 40
2458493.718468819
  9
$TDUPDATE
 40
2458493.71846941
  9
$TDUUPDATE
 40
2458493.71846941
  9
$TDINDWG
 40
0.0000000116
  9
$TDUSRTIMER
 40
0.0000000116
  9
$USRTIMER
 70
     1
  9
$ANGBASE
 50
0.0
  9
$ANGDIR
 70
     0
  9
$PDMODE
 70
     0
  9
$PDSIZE
 40
0.0
  9
$PLINEWID
 40
0.0
  9
$SPLFRAME
 70
     0
  9
$SPLINETYPE
 70
     6
  9
$SPLINESEGS
 70
     8
  9
$HANDSEED
  5
17E
  9
$SURFTAB1
 70
     6
  9
$SURFTAB2
 70
     6
  9
$SURFTYPE
 70
     6
  9
$SURFU
 70
     6
  9
$SURFV
 70
     6
  9
$UCSBASE
  2

  9
$UCSNAME
  2

  9
$UCSORG
 10
0.0
 20
0.0
 30
0.0
  9
$UCSXDIR
 10
1.0
 20
0.0
 30
0.0
  9
$UCSYDIR
 10
0.0
 20
1.0
 30
0.0
  9
$UCSORTHOREF
  2

  9
$UCSORTHOVIEW
 70
     0
  9
$UCSORGTOP
 10
0.0
 20
0.0
 30
0.0
  9
$UCSORGBOTTOM
 10
0.0
 20
0.0
 30
0.0
  9
$UCSORGLEFT
 10
0.0
 20
0.0
 30
0.0
  9
$UCSORGRIGHT
 10
0.0
 20
0.0
 30
0.0
  9
$UCSORGFRONT
 10
0.0
 20
0.0
 30
0.0
  9
$UCSORGBACK
 10
0.0
 20
0.0
 30
0.0
  9
$PUCSBASE
  2

  9
$PUCSNAME
  2

  9
$PUCSORG
 10
0.0
 20
0.0
 30
0.0
  9
$PUCSXDIR
 10
1.0
 20
0.0
 30
0.0
  9
$PUCSYDIR
 10
0.0
 20
1.0
 30
0.0
  9
$PUCSORTHOREF
  2

  9
$PUCSORTHOVIEW
 70
     0
  9
$PUCSORGTOP
 10
0.0
 20
0.0
 30
0.0
  9
$PUCSORGBOTTOM
 10
0.0
 20
0.0
 30
0.0
  9
$PUCSORGLEFT
 10
0.0
 20
0.0
 30
0.0
  9
$PUCSORGRIGHT
 10
0.0
 20
0.0
 30
0.0
  9
$PUCSORGFRONT
 10
0.0
 20
0.0
 30
0.0
  9
$PUCSORGBACK
 10
0.0
 20
0.0
 30
0.0
  9
$USERI1
 70
     0
  9
$USERI2
 70
     0
  9
$USERI3
 70
     0
  9
$USERI4
 70
     0
  9
$USERI5
 70
     0
  9
$USERR1
 40
0.0
  9
$USERR2
 40
0.0
  9
$USERR3
 40
0.0
  9
$USERR4
 40
0.0
  9
$USERR5
 40
0.0
  9
$WORLDVIEW
 70
     1
  9
$SHADEDGE
 70
     3
  9
$SHADEDIF
 70
    70
  9
$TILEMODE
 70
     1
  9
$MAXACTVP
 70
    64
  9
$PINSBASE
 10
0.0
 20
0.0
 30
0.0
  9
$PLIMCHECK
 70
     0
  9
$PEXTMIN
 10
1.000000000000000E+20
 20
1.000000000000000E+20
 30
1.000000000000000E+20
  9
$PEXTMAX
 10
-1.000000000000000E+20
 20
-1.000000000000000E+20
 30
-1.000000000000000E+20
  9
$PLIMMIN
 10
0.0
 20
0.0
  9
$PLIMMAX
 10
12.0
 20
9.0
  9
$UNITMODE
 70
     0
  9
$VISRETAIN
 70
     1
  9
$PLINEGEN
 70
     0
  9
$PSLTSCALE
 70
     1
  9
$TREEDEPTH
 70
  3020
  9
$CMLSTYLE
  2
Standard
  9
$CMLJUST
 70
     0
  9
$CMLSCALE
 40
1.0
  9
$PROXYGRAPHICS
 70
     1
  9
$MEASUREMENT
 70
     0
  9
$CELWEIGHT
370
    -1
  9
$ENDCAPS
280
     0
  9
$JOINSTYLE
280
     0
  9
$LWDISPLAY
290
     0
  9
$INSUNITS
 70
     4
  9
$HYPERLINKBASE
  1

  9
$STYLESHEET
  1

  9
$XEDIT
290
     1
  9
$CEPSNTYPE
380
     0
  9
$PSTYLEMODE
290
     1
  9
$FINGERPRINTGUID
  2
{17076D1C-4D7C-436C-AA12-A81EFB6662F9}
  9
$VERSIONGUID
  2
{FAEB1C32-E019-11D5-929B-00C0DF256EC4}
  9
$EXTNAMES
290
     1
  9
$PSVPSCALE
 40
0.0
  9
$OLESTARTUP
290
     0
  9
$SORTENTS
280
   127
  9
$INDEXCTL
280
     0
  9
$HIDETEXT
280
     1
  9
$XCLIPFRAME
290
     0
  9
$HALOGAP
280
     0
  9
$OBSCOLOR
 70
   257
  9
$OBSLTYPE
280
     0
  9
$INTERSECTIONDISPLAY
280
     0
  9
$INTERSECTIONCOLOR
 70
   257
  9
$DIMASSOC
280
     2
  9
$PROJECTNAME
  1

  9
$CAMERADISPLAY
290
     0
  9
$LENSLENGTH
 40
50.0
  9
$CAMERAHEIGHT
 40
0.0
  9
$STEPSPERSEC
 40
2.0
  9
$STEPSIZE
 40
6.0
  9
$3DDWFPREC
 40
2.0
  9
$PSOLWIDTH
 40
0.25
  9
$PSOLHEIGHT
 40
4.0
  9
$LOFTANG1
 40
1.570796326794897
  9
$LOFTANG2
 40
1.570796326794897
  9
$LOFTMAG1
 40
0.0
  9
$LOFTMAG2
 40
0.0
  9
$LOFTPARAM
 70
     7
  9
$LOFTNORMALS
280
     1
  9
$LATITUDE
 40
37.795
  9
$LONGITUDE
 40
-122.394
  9
$NORTHDIRECTION
 40
0.0
  9
$TIMEZONE
 70
 -8000
  9
$LIGHTGLYPHDISPLAY
280
     1
  9
$TILEMODELIGHTSYNCH
280
     1
  9
$SOLIDHIST
280
     1
  9
$SHOWHIST
280
     1
  9
$DWFFRAME
280
     2
  9
$DGNFRAME
280
     2
  9
$REALWORLDSCALE
290
     1
  9
$INTERFERECOLOR
 62
   256
  9
$CSHADOW
280
     0
  9
$SHADOWPLANELOCATION
 40
0.0
  0
ENDSEC
  0
SECTION
  2
CLASSES
  0
CLASS
  1
ACDBDICTIONARYWDFLT
  2
AcDbDictionaryWithDefault
  3
ObjectDBX Classes
 90
        0
 91
        4
280
     0
281
     0
  0
CLASS
  1
VISUALSTYLE
  2
AcDbVisualStyle
  3
ObjectDBX Classes
 90
     4095
 91
        4
280
     0
281
     0
  0
CLASS
  1
MATERIAL
  2
AcDbMaterial
  3
ObjectDBX Classes
 90
     1153
 91
        4
280
     0
281
     0
  0
ENDSEC
  0
SECTION
  2
TABLES
  0
TABLE
  2
VPORT
  5
8
330
0
100
AcDbSymbolTable
 70
     1
  0
VPORT
  5
29
330
8
100
AcDbSymbolTableRecord
100
AcDbViewportTableRecord
  2
*Active
 70
     0
 10
0.0
 20
0.0
 11
1.0
 21
1.0
 12
10.42990654205607
 22
4.5
 13
0.0
 23
0.0
 14
0.5
 24
0.5
 15
0.5
 25
0.5
 16
0.0
 26
0.0
 36
1.0
 17
0.0
 27
0.0
 37
0.0
 40
9.0
 41
1.972972972850329
 42
50.0
 43
0.0
 44
0.0
 50
0.0
 51
0.0
 71
     0
 72
   100
 73
     1
 74
     3
 75
     0
 76
     0
 77
     0
 78
     0
281
     0
 65
     1
110
0.0
120
0.0
130
0.0
111
1.0
121
0.0
131
0.0
112
0.0
122
1.0
132
0.0
 79
     0
146
0.0
 60
     3
 61
     5
292
     1
282
     1
141
0.0
142
0.0
 63
   250
  0
ENDTAB
  0
TABLE
  2
LTYPE
  5
5
330
0
100
AcDbSymbolTable
 70
     1
  0
LTYPE
  5
14
330
5
100
AcDbSymbolTableRecord
100
AcDbLinetypeTableRecord
  2
ByBlock
 70
     0
  3

 72
    65
 73
     0
 40
0.0
  0
LTYPE
  5
15
330
5
100
AcDbSymbolTableRecord
100
AcDbLinetypeTableRecord
  2
ByLayer
 70
     0
  3

 72
    65
 73
     0
 40
0.0
  0
LTYPE
  5
16
330
5
100
AcDbSymbolTableRecord
100
AcDbLinetypeTableRecord
  2
Continuous
 70
     0
  3
Solid line
 72
    65
 73
     0
 40
0.0
  0
ENDTAB
  0
TABLE
  2
LAYER
  5
2
330
0
100
AcDbSymbolTable
 70
     3
  0
LAYER
  5
10
330
2
100
AcDbSymbolTableRecord
100
AcDbLayerTableRecord
  2
0
 70
     0
 62
     7
  6
Continuous
370
    -3
390
F
347
3E
  0
LAYER
  5
40
330
2
100
AcDbSymbolTableRecord
100
AcDbLayerTableRecord
  2
layer 1
 70
     0
 62
     7
  6
Continuous
370
    -3
390
F
347
3E
  0
LAYER
  5
15B
330
2
100
AcDbSymbolTableRecord
100
AcDbLayerTableRecord
  2
Master Guides
 70
     0
 62
     7
  6
Continuous
370
    -3
390
F
347
3E
  0
ENDTAB
  0
TABLE
  2
STYLE
  5
3
330
0
100
AcDbSymbolTable
 70
     1
  0
STYLE
  5
11
330
3
100
AcDbSymbolTableRecord
100
AcDbTextStyleTableRecord
  2
Standard
 70
     0
 40
0.0
 41
1.0
 50
0.0
 71
     0
 42
0.2
  3
txt
  4

  0
ENDTAB
  0
TABLE
  2
VIEW
  5
6
330
0
100
AcDbSymbolTable
 70
     0
  0
ENDTAB
  0
TABLE
  2
UCS
  5
7
330
0
100
AcDbSymbolTable
 70
     0
  0
ENDTAB
  0
TABLE
  2
APPID
  5
9
330
0
100
AcDbSymbolTable
 70
     2
  0
APPID
  5
12
330
9
100
AcDbSymbolTableRecord
100
AcDbRegAppTableRecord
  2
ACAD
 70
     0
  0
APPID
  5
3F
330
9
100
AcDbSymbolTableRecord
100
AcDbRegAppTableRecord
  2
ODA
 70
     0
  0
ENDTAB
  0
TABLE
  2
DIMSTYLE
  5
A
330
0
100
AcDbSymbolTable
 70
     1
100
AcDbDimStyleTable
  0
DIMSTYLE
105
27
330
A
100
AcDbSymbolTableRecord
100
AcDbDimStyleTableRecord
  2
Standard
 70
     0
178
     0
340
11
  0
ENDTAB
  0
TABLE
  2
BLOCK_RECORD
  5
1
330
0
100
AcDbSymbolTable
 70
     1
  0
BLOCK_RECORD
  5
1F
330
1
100
AcDbSymbolTableRecord
100
AcDbBlockTableRecord
  2
*Model_Space
340
22
 70
     0
280
     1
281
     0
  0
BLOCK_RECORD
  5
1B
330
1
100
AcDbSymbolTableRecord
100
AcDbBlockTableRecord
  2
*Paper_Space
340
1E
 70
     0
280
     1
281
     0
  0
BLOCK_RECORD
  5
23
330
1
100
AcDbSymbolTableRecord
100
AcDbBlockTableRecord
  2
*Paper_Space0
340
26
 70
     0
280
     1
281
     0
  0
ENDTAB
  0
ENDSEC
  0
SECTION
  2
BLOCKS
  0
BLOCK
  5
20
330
1F
100
AcDbEntity
  8
0
100
AcDbBlockBegin
  2
*Model_Space
 70
     0
 10
0.0
 20
0.0
 30
0.0
  3
*Model_Space
  1

  0
ENDBLK
  5
21
330
1F
100
AcDbEntity
  8
0
100
AcDbBlockEnd
  0
BLOCK
  5
1C
330
1B
100
AcDbEntity
 67
     1
  8
0
100
AcDbBlockBegin
  2
*Paper_Space
 70
     0
 10
0.0
 20
0.0
 30
0.0
  3
*Paper_Space
  1

  0
ENDBLK
  5
1D
330
1B
100
AcDbEntity
 67
     1
  8
0
100
AcDbBlockEnd
  0
BLOCK
  5
24
330
23
100
AcDbEntity
  8
0
100
AcDbBlockBegin
  2
*Paper_Space0
 70
     0
 10
0.0
 20
0.0
 30
0.0
  3
*Paper_Space0
  1

  0
ENDBLK
  5
25
330
23
100
AcDbEntity
  8
0
100
AcDbBlockEnd
  0
ENDSEC
  0
SECTION
  2
ENTITIES
  0
SPLINE
  5
41
330
1F
100
AcDbEntity
  8
layer 1
100
AcDbSpline
210
0.0
220
0.0
230
1.0
 70
    11
 71
     3
 72
    20
 73
    16
 74
     0
 42
0.0000000001
 43
0.0000000001
 12
1.0
 22
0.0
 32
0.0
 13
1.0
 23
0.0
 33
0.0
 40
0.0
 40
0.0
 40
0.0
 40
0.0
 40
0.2
 40
0.2
 40
0.2
 40
0.2
 40
0.4
 40
0.4
 40
0.4
 40
0.4
 40
0.6
 40
0.6
 40
0.6
 40
0.6
 40
1.0
 40
1.0
 40
1.0
 40
1.0
 10
-187.0251
 20
-114.9873
 30
0.0
 10
-187.0251
 20
-114.9873
 30
0.0
 10
-62.8529
 20
-114.9873
 30
0.0
 10
-62.8529
 20
-114.9873
 30
0.0
 10
-62.8529
 20
-114.9873
 30
0.0
 10
-62.8529
 20
-114.9873
 30
0.0
 10
-62.8529
 20
131.8575
 30
0.0
 10
-62.8529
 20
131.8575
 30
0.0
 10
-62.8529
 20
131.8575
 30
0.0
 10
-62.8529
 20
131.8575
 30
0.0
 10
-187.0251
 20
131.8575
 30
0.0
 10
-187.0251
 20
131.8575
 30
0.0
 10
-187.0251
 20
131.8575
 30
0.0
 10
-187.0251
 20
131.8575
 30
0.0
 10
-187.0251
 20
-114.9873
 30
0.0
 10
-187.0251
 20
-114.9873
 30
0.0
  0
SPLINE
  5
42
330
1F
100
AcDbEntity
  8
layer 1
 62
     7
100
AcDbSpline
210
0.0
220
0.0
230
1.0
 70
    11
 71
     3
 72
    16
 73
    12
 74
     0
 42
0.0000000001
 43
0.0000000001
 12
1.0
 22
0.0
 32
0.0
 13
1.0
 23
0.0
 33
0.0
 40
0.0
 40
0.0
 40
0.0
 40
0.0
 40
0.25
 40
0.25
 40
0.25
 40
0.25
 40
0.5
 40
0.5
 40
0.5
 40
0.5
 40
1.0
 40
1.0
 40
1.0
 40
1.0
 10
-126.7367
 20
97.1814
 30
0.0
 10
-126.7367
 20
97.1814
 30
0.0
 10
-126.7367
 20
60.9065
 30
0.0
 10
-126.7367
 20
60.9065
 30
0.0
 10
-126.7367
 20
60.9065
 30
0.0
 10
-126.7367
 20
60.9065
 30
0.0
 10
-137.1244
 20
79.2637
 30
0.0
 10
-137.1244
 20
79.2637
 30
0.0
 10
-137.1244
 20
79.2637
 30
0.0
 10
-137.1244
 20
79.2637
 30
0.0
 10
-126.7367
 20
97.1814
 30
0.0
 10
-126.7367
 20
97.1814
 30
0.0
  0
SPLINE
  5
43
330
1F
100
AcDbEntity
  8
layer 1
 62
     7
100
AcDbSpline
210
0.0
220
0.0
230
1.0
 70
    11
 71
     3
 72
    16
 73
    12
 74
     0
 42
0.0000000001
 43
0.0000000001
 12
1.0
 22
0.0
 32
0.0
 13
1.0
 23
0.0
 33
0.0
 40
0.0
 40
0.0
 40
0.0
 40
0.0
 40
0.25
 40
0.25
 40
0.25
 40
0.25
 40
0.5
 40
0.5
 40
0.5
 40
0.5
 40
1.0
 40
1.0
 40
1.0
 40
1.0
 10
-123.329
 20
97.1814
 30
0.0
 10
-123.329
 20
97.1814
 30
0.0
 10
-123.329
 20
60.9065
 30
0.0
 10
-123.329
 20
60.9065
 30
0.0
 10
-123.329
 20
60.9065
 30
0.0
 10
-123.329
 20
60.9065
 30
0.0
 10
-112.9412
 20
79.2637
 30
0.0
 10
-112.9412
 20
79.2637
 30
0.0
 10
-112.9412
 20
79.2637
 30
0.0
 10
-112.9412
 20
79.2637
 30
0.0
 10
-123.329
 20
97.1814
 30
0.0
 10
-123.329
 20
97.1814
 30
0.0
  0
SPLINE
  5
44
330
1F
100
AcDbEntity
  8
layer 1
 62
     7
100
AcDbSpline
210
0.0
220
0.0
230
1.0
 70
    11
 71
     3
 72
    16
 73
    12
 74
     0
 42
0.0000000001
 43
0.0000000001
 12
1.0
 22
0.0
 32
0.0
 13
1.0
 23
0.0
 33
0.0
 40
0.0
 40
0.0
 40
0.0
 40
0.0
 40
0.25
 40
0.25
 40
0.25
 40
0.25
 40
0.5
 40
0.5
 40
0.5
 40
0.5
 40
1.0
 40
1.0
 40
1.0
 40
1.0
 10
-161.8732
 20
75.0401
 30
0.0
 10
-161.8732
 20
75.0401
 30
0.0
 10
-130.4582
 20
56.9027
 30
0.0
 10
-130.4582
 20
56.9027
 30
0.0
 10
-130.4582
 20
56.9027
 30
0.0
 10
-130.4582
 20
56.9027
 30
0.0
 10
-151.55
 20
57.0853
 30
0.0
 10
-151.55
 20
57.0853
 30
0.0
 10
-151.55
 20
57.0853
 30
0.0
 10
-151.55
 20
57.0853
 30
0.0
 10
-161.8732
 20
75.0401
 30
0.0
 10
-161.8732
 20
75.0401
 30
0.0
  0
SPLINE
  5
45
330
1F
100
AcDbEntity
  8
layer 1
 62
     7
100
AcDbSpline
210
0.0
220
0.0
230
1.0
 70
    11
 71
     3
 72
    16
 73
    12
 74
     0
 42
0.0000000001
 43
0.0000000001
 12
1.0
 22
0.0
 32
0.0
 13
1.0
 23
0.0
 33
0.0
 40
0.0
 40
0.0
 40
0.0
 40
0.0
 40
0.25
 40
0.25
 40
0.25
 40
0.25
 40
0.5
 40
0.5
 40
0.5
 40
0.5
 40
1.0
 40
1.0
 40
1.0
 40
1.0
 10
-160.1694
 20
77.9913
 30
0.0
 10
-160.1694
 20
77.9913
 30
0.0
 10
-128.7544
 20
59.8539
 30
0.0
 10
-128.7544
 20
59.8539
 30
0.0
 10
-128.7544
 20
59.8539
 30
0.0
 10
-128.7544
 20
59.8539
 30
0.0
 10
-139.4583
 20
78.0287
 30
0.0
 10
-139.4583
 20
78.0287
 30
0.0
 10
-139.4583
 20
78.0287
 30
0.0
 10
-139.4583
 20
78.0287
 30
0.0
 10
-160.1694
 20
77.9913
 30
0.0
 10
-160.1694
 20
77.9913
 30
0.0
  0
SPLINE
  5
46
330
1F
100
AcDbEntity
  8
layer 1
 62
     7
100
AcDbSpline
210
0.0
220
0.0
230
1.0
 70
    11
 71
     3
 72
    16
 73
    12
 74
     0
 42
0.0000000001
 43
0.0000000001
 12
1.0
 22
0.0
 32
0.0
 13
1.0
 23
0.0
 33
0.0
 40
0.0
 40
0.0
 40
0.0
 40
0.0
 40
0.25
 40
0.25
 40
0.25
 40
0.25
 40
0.5
 40
0.5
 40
0.5
 40
0.5
 40
1.0
 40
1.0
 40
1.0
 40
1.0
 10
-88.4673
 20
75.0401
 30
0.0
 10
-88.4673
 20
75.0401
 30
0.0
 10
-119.8822
 20
56.9027
 30
0.0
 10
-119.8822
 20
56.9027
 30
0.0
 10
-119.8822
 20
56.9027
 30
0.0
 10
-119.8822
 20
56.9027
 30
0.0
 10
-98.7904
 20
57.0853
 30
0.0
 10
-98.7904
 20
57.0853
 30
0.0
 10
-98.7904
 20
57.0853
 30
0.0
 10
-98.7904
 20
57.0853
 30
0.0
 10
-88.4673
 20
75.0401
 30
0.0
 10
-88.4673
 20
75.0401
 30
0.0
  0
SPLINE
  5
47
330
1F
100
AcDbEntity
  8
layer 1
 62
     7
100
AcDbSpline
210
0.0
220
0.0
230
1.0
 70
    11
 71
     3
 72
    16
 73
    12
 74
     0
 42
0.0000000001
 43
0.0000000001
 12
1.0
 22
0.0
 32
0.0
 13
1.0
 23
0.0
 33
0.0
 40
0.0
 40
0.0
 40
0.0
 40
0.0
 40
0.25
 40
0.25
 40
0.25
 40
0.25
 40
0.5
 40
0.5
 40
0.5
 40
0.5
 40
1.0
 40
1.0
 40
1.0
 40
1.0
 10
-90.1711
 20
77.9913
 30
0.0
 10
-90.1711
 20
77.9913
 30
0.0
 10
-121.5861
 20
59.8539
 30
0.0
 10
-121.5861
 20
59.8539
 30
0.0
 10
-121.5861
 20
59.8539
 30
0.0
 10
-121.5861
 20
59.8539
 30
0.0
 10
-110.8822
 20
78.0287
 30
0.0
 10
-110.8822
 20
78.0287
 30
0.0
 10
-110.8822
 20
78.0287
 30
0.0
 10
-110.8822
 20
78.0287
 30
0.0
 10
-90.1711
 20
77.9913
 30
0.0
 10
-90.1711
 20
77.9913
 30
0.0
  0
SPLINE
  5
48
330
1F
100
AcDbEntity
  8
layer 1
 62
     7
100
AcDbSpline
210
0.0
220
0.0
230
1.0
 70
    11
 71
     3
 72
    16
 73
    12
 74
     0
 42
0.0000000001
 43
0.0000000001
 12
1.0
 22
0.0
 32
0.0
 13
1.0
 23
0.0
 33
0.0
 40
0.0
 40
0.0
 40
0.0
 40
0.0
 40
0.25
 40
0.25
 40
0.25
 40
0.25
 40
0.5
 40
0.5
 40
0.5
 40
0.5
 40
1.0
 40
1.0
 40
1.0
 40
1.0
 10
-126.7367
 20
14.2523
 30
0.0
 10
-126.7367
 20
14.2523
 30
0.0
 10
-126.7367
 20
50.5272
 30
0.0
 10
-126.7367
 20
50.5272
 30
0.0
 10
-126.7367
 20
50.5272
 30
0.0
 10
-126.7367
 20
50.5272
 30
0.0
 10
-137.1244
 20
32.1699
 30
0.0
 10
-137.1244
 20
32.1699
 30
0.0
 10
-137.1244
 20
32.1699
 30
0.0
 10
-137.1244
 20
32.1699
 30
0.0
 10
-126.7367
 20
14.2523
 30
0.0
 10
-126.7367
 20
14.2523
 30
0.0
  0
SPLINE
  5
49
330
1F
100
AcDbEntity
  8
layer 1
 62
     7
100
AcDbSpline
210
0.0
220
0.0
230
1.0
 70
    11
 71
     3
 72
    16
 73
    12
 74
     0
 42
0.0000000001
 43
0.0000000001
 12
1.0
 22
0.0
 32
0.0
 13
1.0
 23
0.0
 33
0.0
 40
0.0
 40
0.0
 40
0.0
 40
0.0
 40
0.25
 40
0.25
 40
0.25
 40
0.25
 40
0.5
 40
0.5
 40
0.5
 40
0.5
 40
1.0
 40
1.0
 40
1.0
 40
1.0
 10
-123.329
 20
14.2523
 30
0.0
 10
-123.329
 20
14.2523
 30
0.0
 10
-123.329
 20
50.5272
 30
0.0
 10
-123.329
 20
50.5272
 30
0.0
 10
-123.329
 20
50.5272
 30
0.0
 10
-123.329
 20
50.5272
 30
0.0
 10
-112.9412
 20
32.1699
 30
0.0
 10
-112.9412
 20
32.1699
 30
0.0
 10
-112.9412
 20
32.1699
 30
0.0
 10
-112.9412
 20
32.1699
 30
0.0
 10
-123.329
 20
14.2523
 30
0.0
 10
-123.329
 20
14.2523
 30
0.0
  0
SPLINE
  5
4A
330
1F
100
AcDbEntity
  8
layer 1
 62
     7
100
AcDbSpline
210
0.0
220
0.0
230
1.0
 70
    11
 71
     3
 72
    16
 73
    12
 74
     0
 42
0.0000000001
 43
0.0000000001
 12
1.0
 22
0.0
 32
0.0
 13
1.0
 23
0.0
 33
0.0
 40
0.0
 40
0.0
 40
0.0
 40
0.0
 40
0.25
 40
0.25
 40
0.25
 40
0.25
 40
0.5
 40
0.5
 40
0.5
 40
0.5
 40
1.0
 40
1.0
 40
1.0
 40
1.0
 10
-161.8732
 20
36.3935
 30
0.0
 10
-161.8732
 20
36.3935
 30
0.0
 10
-130.4582
 20
54.5309
 30
0.0
 10
-130.4582
 20
54.5309
 30
0.0
 10
-130.4582
 20
54.5309
 30
0.0
 10
-130.4582
 20
54.5309
 30
0.0
 10
-151.55
 20
54.3483
 30
0.0
 10
-151.55
 20
54.3483
 30
0.0
 10
-151.55
 20
54.3483
 30
0.0
 10
-151.55
 20
54.3483
 30
0.0
 10
-161.8732
 20
36.3935
 30
0.0
 10
-161.8732
 20
36.3935
 30
0.0
  0
SPLINE
  5
4B
330
1F
100
AcDbEntity
  8
layer 1
 62
     7
100
AcDbSpline
210
0.0
220
0.0
230
1.0
 70
    11
 71
     3
 72
    16
 73
    12
 74
     0
 42
0.0000000001
 43
0.0000000001
 12
1.0
 22
0.0
 32
0.0
 13
1.0
 23
0.0
 33
0.0
 40
0.0
 40
0.0
 40
0.0
 40
0.0
 40
0.25
 40
0.25
 40
0.25
 40
0.25
 40
0.5
 40
0.5
 40
0.5
 40
0.5
 40
1.0
 40
1.0
 40
1.0
 40
1.0
 10
-160.1694
 20
33.4424
 30
0.0
 10
-160.1694
 20
33.4424
 30
0.0
 10
-128.7544
 20
51.5798
 30
0.0
 10
-128.7544
 20
51.5798
 30
0.0
 10
-128.7544
 20
51.5798
 30
0.0
 10
-128.7544
 20
51.5798
 30
0.0
 10
-139.4583
 20
33.4051
 30
0.0
 10
-139.4583
 20
33.4051
 30
0.0
 10
-139.4583
 20
33.4051
 30
0.0
 10
-139.4583
 20
33.4051
 30
0.0
 10
-160.1694
 20
33.4424
 30
0.0
 10
-160.1694
 20
33.4424
 30
0.0
  0
SPLINE
  5
4C
330
1F
100
AcDbEntity
  8
layer 1
 62
     7
100
AcDbSpline
210
0.0
220
0.0
230
1.0
 70
    11
 71
     3
 72
    16
 73
    12
 74
     0
 42
0.0000000001
 43
0.0000000001
 12
1.0
 22
0.0
 32
0.0
 13
1.0
 23
0.0
 33
0.0
 40
0.0
 40
0.0
 40
0.0
 40
0.0
 40
0.25
 40
0.25
 40
0.25
 40
0.25
 40
0.5
 40
0.5
 40
0.5
 40
0.5
 40
1.0
 40
1.0
 40
1.0
 40
1.0
 10
-88.4673
 20
36.3935
 30
0.0
 10
-88.4673
 20
36.3935
 30
0.0
 10
-119.8822
 20
54.5309
 30
0.0
 10
-119.8822
 20
54.5309
 30
0.0
 10
-119.8822
 20
54.5309
 30
0.0
 10
-119.8822
 20
54.5309
 30
0.0
 10
-98.7904
 20
54.3483
 30
0.0
 10
-98.7904
 20
54.3483
 30
0.0
 10
-98.7904
 20
54.3483
 30
0.0
 10
-98.7904
 20
54.3483
 30
0.0
 10
-88.4673
 20
36.3935
 30
0.0
 10
-88.4673
 20
36.3935
 30
0.0
  0
SPLINE
  5
4D
330
1F
100
AcDbEntity
  8
layer 1
 62
     7
100
AcDbSpline
210
0.0
220
0.0
230
1.0
 70
    11
 71
     3
 72
    16
 73
    12
 74
     0
 42
0.0000000001
 43
0.0000000001
 12
1.0
 22
0.0
 32
0.0
 13
1.0
 23
0.0
 33
0.0
 40
0.0
 40
0.0
 40
0.0
 40
0.0
 40
0.25
 40
0.25
 40
0.25
 40
0.25
 40
0.5
 40
0.5
 40
0.5
 40
0.5
 40
1.0
 40
1.0
 40
1.0
 40
1.0
 10
-90.1711
 20
33.4424
 30
0.0
 10
-90.1711
 20
33.4424
 30
0.0
 10
-121.5861
 20
51.5798
 30
0.0
 10
-121.5861
 20
51.5798
 30
0.0
 10
-121.5861
 20
51.5798
 30
0.0
 10
-121.5861
 20
51.5798
 30
0.0
 10
-110.8822
 20
33.405
 30
0.0
 10
-110.8822
 20
33.405
 30
0.0
 10
-110.8822
 20
33.405
 30
0.0
 10
-110.8822
 20
33.405
 30
0.0
 10
-90.1711
 20
33.4424
 30
0.0
 10
-90.1711
 20
33.4424
 30
0.0
  0
SPLINE
  5
4E
330
1F
100
AcDbEntity
  8
layer 1
 62
     7
100
AcDbSpline
210
0.0
220
0.0
230
1.0
 70
    11
 71
     3
 72
    16
 73
    12
 74
     0
 42
0.0000000001
 43
0.0000000001
 12
1.0
 22
0.0
 32
0.0
 13
1.0
 23
0.0
 33
0.0
 40
0.0
 40
0.0
 40
0.0
 40
0.0
 40
0.25
 40
0.25
 40
0.25
 40
0.25
 40
0.5
 40
0.5
 40
0.5
 40
0.5
 40
1.0
 40
1.0
 40
1.0
 40
1.0
 10
-126.7367
 20
124.7977
 30
0.0
 10
-126.7367
 20
124.7977
 30
0.0
 10
-126.7367
 20
107.6518
 30
0.0
 10
-126.7367
 20
107.6518
 30
0.0
 10
-126.7367
 20
107.6518
 30
0.0
 10
-126.7367
 20
107.6518
 30
0.0
 10
-136.4845
 20
124.8783
 30
0.0
 10
-136.4845
 20
124.8783
 30
0.0
 10
-136.4845
 20
124.8783
 30
0.0
 10
-136.4845
 20
124.8783
 30
0.0
 10
-126.7367
 20
124.7977
 30
0.0
 10
-126.7367
 20
124.7977
 30
0.0
  0
SPLINE
  5
4F
330
1F
100
AcDbEntity
  8
layer 1
 62
     7
100
AcDbSpline
210
0.0
220
0.0
230
1.0
 70
    11
 71
     3
 72
    16
 73
    12
 74
     0
 42
0.0000000001
 43
0.0000000001
 12
1.0
 22
0.0
 32
0.0
 13
1.0
 23
0.0
 33
0.0
 40
0.0
 40
0.0
 40
0.0
 40
0.0
 40
0.25
 40
0.25
 40
0.25
 40
0.25
 40
0.5
 40
0.5
 40
0.5
 40
0.5
 40
1.0
 40
1.0
 40
1.0
 40
1.0
 10
-161.8732
 20
121.7856
 30
0.0
 10
-161.8732
 20
121.7856
 30
0.0
 10
-130.4582
 20
103.6482
 30
0.0
 10
-130.4582
 20
103.6482
 30
0.0
 10
-130.4582
 20
103.6482
 30
0.0
 10
-130.4582
 20
103.6482
 30
0.0
 10
-151.55
 20
103.8308
 30
0.0
 10
-151.55
 20
103.8308
 30
0.0
 10
-151.55
 20
103.8308
 30
0.0
 10
-151.55
 20
103.8308
 30
0.0
 10
-161.8732
 20
121.7856
 30
0.0
 10
-161.8732
 20
121.7856
 30
0.0
  0
SPLINE
  5
50
330
1F
100
AcDbEntity
  8
layer 1
 62
     7
100
AcDbSpline
210
0.0
220
0.0
230
1.0
 70
    11
 71
     3
 72
    16
 73
    12
 74
     0
 42
0.0000000001
 43
0.0000000001
 12
1.0
 22
0.0
 32
0.0
 13
1.0
 23
0.0
 33
0.0
 40
0.0
 40
0.0
 40
0.0
 40
0.0
 40
0.25
 40
0.25
 40
0.25
 40
0.25
 40
0.5
 40
0.5
 40
0.5
 40
0.5
 40
1.0
 40
1.0
 40
1.0
 40
1.0
 10
-160.1694
 20
124.7366
 30
0.0
 10
-160.1694
 20
124.7366
 30
0.0
 10
-128.7544
 20
106.5992
 30
0.0
 10
-128.7544
 20
106.5992
 30
0.0
 10
-128.7544
 20
106.5992
 30
0.0
 10
-128.7544
 20
106.5992
 30
0.0
 10
-139.4583
 20
124.7739
 30
0.0
 10
-139.4583
 20
124.7739
 30
0.0
 10
-139.4583
 20
124.7739
 30
0.0
 10
-139.4583
 20
124.7739
 30
0.0
 10
-160.1694
 20
124.7366
 30
0.0
 10
-160.1694
 20
124.7366
 30
0.0
  0
SPLINE
  5
51
330
1F
100
AcDbEntity
  8
layer 1
 62
     7
100
AcDbSpline
210
0.0
220
0.0
230
1.0
 70
    11
 71
     3
 72
    16
 73
    12
 74
     0
 42
0.0000000001
 43
0.0000000001
 12
1.0
 22
0.0
 32
0.0
 13
1.0
 23
0.0
 33
0.0
 40
0.0
 40
0.0
 40
0.0
 40
0.0
 40
0.25
 40
0.25
 40
0.25
 40
0.25
 40
0.5
 40
0.5
 40
0.5
 40
0.5
 40
1.0
 40
1.0
 40
1.0
 40
1.0
 10
-88.4673
 20
121.7856
 30
0.0
 10
-88.4673
 20
121.7856
 30
0.0
 10
-119.8822
 20
103.6482
 30
0.0
 10
-119.8822
 20
103.6482
 30
0.0
 10
-119.8822
 20
103.6482
 30
0.0
 10
-119.8822
 20
103.6482
 30
0.0
 10
-98.7904
 20
103.8308
 30
0.0
 10
-98.7904
 20
103.8308
 30
0.0
 10
-98.7904
 20
103.8308
 30
0.0
 10
-98.7904
 20
103.8308
 30
0.0
 10
-88.4673
 20
121.7856
 30
0.0
 10
-88.4673
 20
121.7856
 30
0.0
  0
SPLINE
  5
52
330
1F
100
AcDbEntity
  8
layer 1
 62
     7
100
AcDbSpline
210
0.0
220
0.0
230
1.0
 70
    11
 71
     3
 72
    16
 73
    12
 74
     0
 42
0.0000000001
 43
0.0000000001
 12
1.0
 22
0.0
 32
0.0
 13
1.0
 23
0.0
 33
0.0
 40
0.0
 40
0.0
 40
0.0
 40
0.0
 40
0.25
 40
0.25
 40
0.25
 40
0.25
 40
0.5
 40
0.5
 40
0.5
 40
0.5
 40
1.0
 40
1.0
 40
1.0
 40
1.0
 10
-90.1711
 20
124.7366
 30
0.0
 10
-90.1711
 20
124.7366
 30
0.0
 10
-121.5861
 20
106.5992
 30
0.0
 10
-121.5861
 20
106.5992
 30
0.0
 10
-121.5861
 20
106.5992
 30
0.0
 10
-121.5861
 20
106.5992
 30
0.0
 10
-110.8822
 20
124.7739
 30
0.0
 10
-110.8822
 20
124.7739
 30
0.0
 10
-110.8822
 20
124.7739
 30
0.0
 10
-110.8822
 20
124.7739
 30
0.0
 10
-90.1711
 20
124.7366
 30
0.0
 10
-90.1711
 20
124.7366
 30
0.0
  0
SPLINE
  5
53
330
1F
100
AcDbEntity
  8
layer 1
 62
     7
100
AcDbSpline
210
0.0
220
0.0
230
1.0
 70
    11
 71
     3
 72
    16
 73
    12
 74
     0
 42
0.0000000001
 43
0.0000000001
 12
1.0
 22
0.0
 32
0.0
 13
1.0
 23
0.0
 33
0.0
 40
0.0
 40
0.0
 40
0.0
 40
0.0
 40
0.25
 40
0.25
 40
0.25
 40
0.25
 40
0.5
 40
0.5
 40
0.5
 40
0.5
 40
1.0
 40
1.0
 40
1.0
 40
1.0
 10
-161.8732
 20
83.1389
 30
0.0
 10
-161.8732
 20
83.1389
 30
0.0
 10
-130.4582
 20
101.2764
 30
0.0
 10
-130.4582
 20
101.2764
 30
0.0
 10
-130.4582
 20
101.2764
 30
0.0
 10
-130.4582
 20
101.2764
 30
0.0
 10
-151.55
 20
101.0938
 30
0.0
 10
-151.55
 20
101.0938
 30
0.0
 10
-151.55
 20
101.0938
 30
0.0
 10
-151.55
 20
101.0938
 30
0.0
 10
-161.8732
 20
83.1389
 30
0.0
 10
-161.8732
 20
83.1389
 30
0.0
  0
SPLINE
  5
54
330
1F
100
AcDbEntity
  8
layer 1
 62
     7
100
AcDbSpline
210
0.0
220
0.0
230
1.0
 70
    11
 71
     3
 72
    16
 73
    12
 74
     0
 42
0.0000000001
 43
0.0000000001
 12
1.0
 22
0.0
 32
0.0
 13
1.0
 23
0.0
 33
0.0
 40
0.0
 40
0.0
 40
0.0
 40
0.0
 40
0.25
 40
0.25
 40
0.25
 40
0.25
 40
0.5
 40
0.5
 40
0.5
 40
0.5
 40
1.0
 40
1.0
 40
1.0
 40
1.0
 10
-160.1694
 20
80.5422
 30
0.0
 10
-160.1694
 20
80.5422
 30
0.0
 10
-128.7544
 20
98.6796
 30
0.0
 10
-128.7544
 20
98.6796
 30
0.0
 10
-128.7544
 20
98.6796
 30
0.0
 10
-128.7544
 20
98.6796
 30
0.0
 10
-139.4583
 20
80.5048
 30
0.0
 10
-139.4583
 20
80.5048
 30
0.0
 10
-139.4583
 20
80.5048
 30
0.0
 10
-139.4583
 20
80.5048
 30
0.0
 10
-160.1694
 20
80.5422
 30
0.0
 10
-160.1694
 20
80.5422
 30
0.0
  0
SPLINE
  5
55
330
1F
100
AcDbEntity
  8
layer 1
 62
     7
100
AcDbSpline
210
0.0
220
0.0
230
1.0
 70
    11
 71
     3
 72
    16
 73
    12
 74
     0
 42
0.0000000001
 43
0.0000000001
 12
1.0
 22
0.0
 32
0.0
 13
1.0
 23
0.0
 33
0.0
 40
0.0
 40
0.0
 40
0.0
 40
0.0
 40
0.25
 40
0.25
 40
0.25
 40
0.25
 40
0.5
 40
0.5
 40
0.5
 40
0.5
 40
1.0
 40
1.0
 40
1.0
 40
1.0
 10
-88.4673
 20
83.1389
 30
0.0
 10
-88.4673
 20
83.1389
 30
0.0
 10
-119.8822
 20
101.2764
 30
0.0
 10
-119.8822
 20
101.2764
 30
0.0
 10
-119.8822
 20
101.2764
 30
0.0
 10
-119.8822
 20
101.2764
 30
0.0
 10
-98.7904
 20
101.0938
 30
0.0
 10
-98.7904
 20
101.0938
 30
0.0
 10
-98.7904
 20
101.0938
 30
0.0
 10
-98.7904
 20
101.0938
 30
0.0
 10
-88.4673
 20
83.1389
 30
0.0
 10
-88.4673
 20
83.1389
 30
0.0
  0
SPLINE
  5
56
330
1F
100
AcDbEntity
  8
layer 1
 62
     7
100
AcDbSpline
210
0.0
220
0.0
230
1.0
 70
    11
 71
     3
 72
    16
 73
    12
 74
     0
 42
0.0000000001
 43
0.0000000001
 12
1.0
 22
0.0
 32
0.0
 13
1.0
 23
0.0
 33
0.0
 40
0.0
 40
0.0
 40
0.0
 40
0.0
 40
0.25
 40
0.25
 40
0.25
 40
0.25
 40
0.5
 40
0.5
 40
0.5
 40
0.5
 40
1.0
 40
1.0
 40
1.0
 40
1.0
 10
-90.1711
 20
80.5422
 30
0.0
 10
-90.1711
 20
80.5422
 30
0.0
 10
-121.5861
 20
98.6796
 30
0.0
 10
-121.5861
 20
98.6796
 30
0.0
 10
-121.5861
 20
98.6796
 30
0.0
 10
-121.5861
 20
98.6796
 30
0.0
 10
-110.8822
 20
80.5048
 30
0.0
 10
-110.8822
 20
80.5048
 30
0.0
 10
-110.8822
 20
80.5048
 30
0.0
 10
-110.8822
 20
80.5048
 30
0.0
 10
-90.1711
 20
80.5422
 30
0.0
 10
-90.1711
 20
80.5422
 30
0.0
  0
SPLINE
  5
57
330
1F
100
AcDbEntity
  8
layer 1
 62
     7
100
AcDbSpline
210
0.0
220
0.0
230
1.0
 70
    11
 71
     3
 72
    16
 73
    12
 74
     0
 42
0.0000000001
 43
0.0000000001
 12
1.0
 22
0.0
 32
0.0
 13
1.0
 23
0.0
 33
0.0
 40
0.0
 40
0.0
 40
0.0
 40
0.0
 40
0.25
 40
0.25
 40
0.25
 40
0.25
 40
0.5
 40
0.5
 40
0.5
 40
0.5
 40
1.0
 40
1.0
 40
1.0
 40
1.0
 10
-123.5299
 20
124.7977
 30
0.0
 10
-123.5299
 20
124.7977
 30
0.0
 10
-123.5299
 20
107.6518
 30
0.0
 10
-123.5299
 20
107.6518
 30
0.0
 10
-123.5299
 20
107.6518
 30
0.0
 10
-123.5299
 20
107.6518
 30
0.0
 10
-113.782
 20
124.8783
 30
0.0
 10
-113.782
 20
124.8783
 30
0.0
 10
-113.782
 20
124.8783
 30
0.0
 10
-113.782
 20
124.8783
 30
0.0
 10
-123.5299
 20
124.7977
 30
0.0
 10
-123.5299
 20
124.7977
 30
0.0
  0
SPLINE
  5
58
330
1F
100
AcDbEntity
  8
layer 1
 62
     7
100
AcDbSpline
210
0.0
220
0.0
230
1.0
 70
    11
 71
     3
 72
    16
 73
    12
 74
     0
 42
0.0000000001
 43
0.0000000001
 12
1.0
 22
0.0
 32
0.0
 13
1.0
 23
0.0
 33
0.0
 40
0.0
 40
0.0
 40
0.0
 40
0.0
 40
0.25
 40
0.25
 40
0.25
 40
0.25
 40
0.5
 40
0.5
 40
0.5
 40
0.5
 40
1.0
 40
1.0
 40
1.0
 40
1.0
 10
-167.4871
 20
120.6866
 30
0.0
 10
-167.4871
 20
120.6866
 30
0.0
 10
-167.4871
 20
84.4117
 30
0.0
 10
-167.4871
 20
84.4117
 30
0.0
 10
-167.4871
 20
84.4117
 30
0.0
 10
-167.4871
 20
84.4117
 30
0.0
 10
-177.8749
 20
102.769
 30
0.0
 10
-177.8749
 20
102.769
 30
0.0
 10
-177.8749
 20
102.769
 30
0.0
 10
-177.8749
 20
102.769
 30
0.0
 10
-167.4871
 20
120.6866
 30
0.0
 10
-167.4871
 20
120.6866
 30
0.0
  0
SPLINE
  5
59
330
1F
100
AcDbEntity
  8
layer 1
 62
     7
100
AcDbSpline
210
0.0
220
0.0
230
1.0
 70
    11
 71
     3
 72
    16
 73
    12
 74
     0
 42
0.0000000001
 43
0.0000000001
 12
1.0
 22
0.0
 32
0.0
 13
1.0
 23
0.0
 33
0.0
 40
0.0
 40
0.0
 40
0.0
 40
0.0
 40
0.25
 40
0.25
 40
0.25
 40
0.25
 40
0.5
 40
0.5
 40
0.5
 40
0.5
 40
1.0
 40
1.0
 40
1.0
 40
1.0
 10
-164.0794
 20
120.6866
 30
0.0
 10
-164.0794
 20
120.6866
 30
0.0
 10
-164.0794
 20
84.4117
 30
0.0
 10
-164.0794
 20
84.4117
 30
0.0
 10
-164.0794
 20
84.4117
 30
0.0
 10
-164.0794
 20
84.4117
 30
0.0
 10
-153.6917
 20
102.769
 30
0.0
 10
-153.6917
 20
102.769
 30
0.0
 10
-153.6917
 20
102.769
 30
0.0
 10
-153.6917
 20
102.769
 30
0.0
 10
-164.0794
 20
120.6866
 30
0.0
 10
-164.0794
 20
120.6866
 30
0.0
  0
SPLINE
  5
5A
330
1F
100
AcDbEntity
  8
layer 1
 62
     7
100
AcDbSpline
210
0.0
220
0.0
230
1.0
 70
    11
 71
     3
 72
    16
 73
    12
 74
     0
 42
0.0000000001
 43
0.0000000001
 12
1.0
 22
0.0
 32
0.0
 13
1.0
 23
0.0
 33
0.0
 40
0.0
 40
0.0
 40
0.0
 40
0.0
 40
0.25
 40
0.25
 40
0.25
 40
0.25
 40
0.5
 40
0.5
 40
0.5
 40
0.5
 40
1.0
 40
1.0
 40
1.0
 40
1.0
 10
-86.2225
 20
120.6866
 30
0.0
 10
-86.2225
 20
120.6866
 30
0.0
 10
-86.2225
 20
84.4117
 30
0.0
 10
-86.2225
 20
84.4117
 30
0.0
 10
-86.2225
 20
84.4117
 30
0.0
 10
-86.2225
 20
84.4117
 30
0.0
 10
-96.6102
 20
102.769
 30
0.0
 10
-96.6102
 20
102.769
 30
0.0
 10
-96.6102
 20
102.769
 30
0.0
 10
-96.6102
 20
102.769
 30
0.0
 10
-86.2225
 20
120.6866
 30
0.0
 10
-86.2225
 20
120.6866
 30
0.0
  0
SPLINE
  5
5B
330
1F
100
AcDbEntity
  8
layer 1
 62
     7
100
AcDbSpline
210
0.0
220
0.0
230
1.0
 70
    11
 71
     3
 72
    16
 73
    12
 74
     0
 42
0.0000000001
 43
0.0000000001
 12
1.0
 22
0.0
 32
0.0
 13
1.0
 23
0.0
 33
0.0
 40
0.0
 40
0.0
 40
0.0
 40
0.0
 40
0.25
 40
0.25
 40
0.25
 40
0.25
 40
0.5
 40
0.5
 40
0.5
 40
0.5
 40
1.0
 40
1.0
 40
1.0
 40
1.0
 10
-82.8149
 20
120.6866
 30
0.0
 10
-82.8149
 20
120.6866
 30
0.0
 10
-82.8149
 20
84.4117
 30
0.0
 10
-82.8149
 20
84.4117
 30
0.0
 10
-82.8149
 20
84.4117
 30
0.0
 10
-82.8149
 20
84.4117
 30
0.0
 10
-72.4272
 20
102.769
 30
0.0
 10
-72.4272
 20
102.769
 30
0.0
 10
-72.4272
 20
102.769
 30
0.0
 10
-72.4272
 20
102.769
 30
0.0
 10
-82.8149
 20
120.6866
 30
0.0
 10
-82.8149
 20
120.6866
 30
0.0
  0
SPLINE
  5
5C
330
1F
100
AcDbEntity
  8
layer 1
 62
     7
100
AcDbSpline
210
0.0
220
0.0
230
1.0
 70
    11
 71
     3
 72
    16
 73
    12
 74
     0
 42
0.0000000001
 43
0.0000000001
 12
1.0
 22
0.0
 32
0.0
 13
1.0
 23
0.0
 33
0.0
 40
0.0
 40
0.0
 40
0.0
 40
0.0
 40
0.25
 40
0.25
 40
0.25
 40
0.25
 40
0.5
 40
0.5
 40
0.5
 40
0.5
 40
1.0
 40
1.0
 40
1.0
 40
1.0
 10
-167.4871
 20
74.0305
 30
0.0
 10
-167.4871
 20
74.0305
 30
0.0
 10
-167.4871
 20
37.7556
 30
0.0
 10
-167.4871
 20
37.7556
 30
0.0
 10
-167.4871
 20
37.7556
 30
0.0
 10
-167.4871
 20
37.7556
 30
0.0
 10
-177.8749
 20
56.1128
 30
0.0
 10
-177.8749
 20
56.1128
 30
0.0
 10
-177.8749
 20
56.1128
 30
0.0
 10
-177.8749
 20
56.1128
 30
0.0
 10
-167.4871
 20
74.0305
 30
0.0
 10
-167.4871
 20
74.0305
 30
0.0
  0
SPLINE
  5
5D
330
1F
100
AcDbEntity
  8
layer 1
 62
     7
100
AcDbSpline
210
0.0
220
0.0
230
1.0
 70
    11
 71
     3
 72
    16
 73
    12
 74
     0
 42
0.0000000001
 43
0.0000000001
 12
1.0
 22
0.0
 32
0.0
 13
1.0
 23
0.0
 33
0.0
 40
0.0
 40
0.0
 40
0.0
 40
0.0
 40
0.25
 40
0.25
 40
0.25
 40
0.25
 40
0.5
 40
0.5
 40
0.5
 40
0.5
 40
1.0
 40
1.0
 40
1.0
 40
1.0
 10
-164.0794
 20
74.0305
 30
0.0
 10
-164.0794
 20
74.0305
 30
0.0
 10
-164.0794
 20
37.7556
 30
0.0
 10
-164.0794
 20
37.7556
 30
0.0
 10
-164.0794
 20
37.7556
 30
0.0
 10
-164.0794
 20
37.7556
 30
0.0
 10
-153.6917
 20
56.1128
 30
0.0
 10
-153.6917
 20
56.1128
 30
0.0
 10
-153.6917
 20
56.1128
 30
0.0
 10
-153.6917
 20
56.1128
 30
0.0
 10
-164.0794
 20
74.0305
 30
0.0
 10
-164.0794
 20
74.0305
 30
0.0
  0
SPLINE
  5
5E
330
1F
100
AcDbEntity
  8
layer 1
 62
     7
100
AcDbSpline
210
0.0
220
0.0
230
1.0
 70
    11
 71
     3
 72
    16
 73
    12
 74
     0
 42
0.0000000001
 43
0.0000000001
 12
1.0
 22
0.0
 32
0.0
 13
1.0
 23
0.0
 33
0.0
 40
0.0
 40
0.0
 40
0.0
 40
0.0
 40
0.25
 40
0.25
 40
0.25
 40
0.25
 40
0.5
 40
0.5
 40
0.5
 40
0.5
 40
1.0
 40
1.0
 40
1.0
 40
1.0
 10
-86.2225
 20
74.0305
 30
0.0
 10
-86.2225
 20
74.0305
 30
0.0
 10
-86.2225
 20
37.7556
 30
0.0
 10
-86.2225
 20
37.7556
 30
0.0
 10
-86.2225
 20
37.7556
 30
0.0
 10
-86.2225
 20
37.7556
 30
0.0
 10
-96.6102
 20
56.1128
 30
0.0
 10
-96.6102
 20
56.1128
 30
0.0
 10
-96.6102
 20
56.1128
 30
0.0
 10
-96.6102
 20
56.1128
 30
0.0
 10
-86.2225
 20
74.0305
 30
0.0
 10
-86.2225
 20
74.0305
 30
0.0
  0
SPLINE
  5
5F
330
1F
100
AcDbEntity
  8
layer 1
 62
     7
100
AcDbSpline
210
0.0
220
0.0
230
1.0
 70
    11
 71
     3
 72
    16
 73
    12
 74
     0
 42
0.0000000001
 43
0.0000000001
 12
1.0
 22
0.0
 32
0.0
 13
1.0
 23
0.0
 33
0.0
 40
0.0
 40
0.0
 40
0.0
 40
0.0
 40
0.25
 40
0.25
 40
0.25
 40
0.25
 40
0.5
 40
0.5
 40
0.5
 40
0.5
 40
1.0
 40
1.0
 40
1.0
 40
1.0
 10
-82.8149
 20
74.0305
 30
0.0
 10
-82.8149
 20
74.0305
 30
0.0
 10
-82.8149
 20
37.7556
 30
0.0
 10
-82.8149
 20
37.7556
 30
0.0
 10
-82.8149
 20
37.7556
 30
0.0
 10
-82.8149
 20
37.7556
 30
0.0
 10
-72.4272
 20
56.1128
 30
0.0
 10
-72.4272
 20
56.1128
 30
0.0
 10
-72.4272
 20
56.1128
 30
0.0
 10
-72.4272
 20
56.1128
 30
0.0
 10
-82.8149
 20
74.0305
 30
0.0
 10
-82.8149
 20
74.0305
 30
0.0
  0
SPLINE
  5
60
330
1F
100
AcDbEntity
  8
layer 1
 62
     7
100
AcDbSpline
210
0.0
220
0.0
230
1.0
 70
    11
 71
     3
 72
    16
 73
    12
 74
     0
 42
0.0000000001
 43
0.0000000001
 12
1.0
 22
0.0
 32
0.0
 13
1.0
 23
0.0
 33
0.0
 40
0.0
 40
0.0
 40
0.0
 40
0.0
 40
0.25
 40
0.25
 40
0.25
 40
0.25
 40
0.5
 40
0.5
 40
0.5
 40
0.5
 40
1.0
 40
1.0
 40
1.0
 40
1.0
 10
-167.4871
 20
27.0199
 30
0.0
 10
-167.4871
 20
27.0199
 30
0.0
 10
-167.4871
 20
-9.255
 30
0.0
 10
-167.4871
 20
-9.255
 30
0.0
 10
-167.4871
 20
-9.255
 30
0.0
 10
-167.4871
 20
-9.255
 30
0.0
 10
-177.8749
 20
9.1022
 30
0.0
 10
-177.8749
 20
9.1022
 30
0.0
 10
-177.8749
 20
9.1022
 30
0.0
 10
-177.8749
 20
9.1022
 30
0.0
 10
-167.4871
 20
27.0199
 30
0.0
 10
-167.4871
 20
27.0199
 30
0.0
  0
SPLINE
  5
61
330
1F
100
AcDbEntity
  8
layer 1
 62
     7
100
AcDbSpline
210
0.0
220
0.0
230
1.0
 70
    11
 71
     3
 72
    16
 73
    12
 74
     0
 42
0.0000000001
 43
0.0000000001
 12
1.0
 22
0.0
 32
0.0
 13
1.0
 23
0.0
 33
0.0
 40
0.0
 40
0.0
 40
0.0
 40
0.0
 40
0.25
 40
0.25
 40
0.25
 40
0.25
 40
0.5
 40
0.5
 40
0.5
 40
0.5
 40
1.0
 40
1.0
 40
1.0
 40
1.0
 10
-164.0794
 20
27.0199
 30
0.0
 10
-164.0794
 20
27.0199
 30
0.0
 10
-164.0794
 20
-9.255
 30
0.0
 10
-164.0794
 20
-9.255
 30
0.0
 10
-164.0794
 20
-9.255
 30
0.0
 10
-164.0794
 20
-9.255
 30
0.0
 10
-153.6917
 20
9.1022
 30
0.0
 10
-153.6917
 20
9.1022
 30
0.0
 10
-153.6917
 20
9.1022
 30
0.0
 10
-153.6917
 20
9.1022
 30
0.0
 10
-164.0794
 20
27.0199
 30
0.0
 10
-164.0794
 20
27.0199
 30
0.0
  0
SPLINE
  5
62
330
1F
100
AcDbEntity
  8
layer 1
 62
     7
100
AcDbSpline
210
0.0
220
0.0
230
1.0
 70
    11
 71
     3
 72
    16
 73
    12
 74
     0
 42
0.0000000001
 43
0.0000000001
 12
1.0
 22
0.0
 32
0.0
 13
1.0
 23
0.0
 33
0.0
 40
0.0
 40
0.0
 40
0.0
 40
0.0
 40
0.25
 40
0.25
 40
0.25
 40
0.25
 40
0.5
 40
0.5
 40
0.5
 40
0.5
 40
1.0
 40
1.0
 40
1.0
 40
1.0
 10
-86.2225
 20
27.0199
 30
0.0
 10
-86.2225
 20
27.0199
 30
0.0
 10
-86.2225
 20
-9.255
 30
0.0
 10
-86.2225
 20
-9.255
 30
0.0
 10
-86.2225
 20
-9.255
 30
0.0
 10
-86.2225
 20
-9.255
 30
0.0
 10
-96.6102
 20
9.1022
 30
0.0
 10
-96.6102
 20
9.1022
 30
0.0
 10
-96.6102
 20
9.1022
 30
0.0
 10
-96.6102
 20
9.1022
 30
0.0
 10
-86.2225
 20
27.0199
 30
0.0
 10
-86.2225
 20
27.0199
 30
0.0
  0
SPLINE
  5
63
330
1F
100
AcDbEntity
  8
layer 1
 62
     7
100
AcDbSpline
210
0.0
220
0.0
230
1.0
 70
    11
 71
     3
 72
    16
 73
    12
 74
     0
 42
0.0000000001
 43
0.0000000001
 12
1.0
 22
0.0
 32
0.0
 13
1.0
 23
0.0
 33
0.0
 40
0.0
 40
0.0
 40
0.0
 40
0.0
 40
0.25
 40
0.25
 40
0.25
 40
0.25
 40
0.5
 40
0.5
 40
0.5
 40
0.5
 40
1.0
 40
1.0
 40
1.0
 40
1.0
 10
-82.8149
 20
27.0199
 30
0.0
 10
-82.8149
 20
27.0199
 30
0.0
 10
-82.8149
 20
-9.255
 30
0.0
 10
-82.8149
 20
-9.255
 30
0.0
 10
-82.8149
 20
-9.255
 30
0.0
 10
-82.8149
 20
-9.255
 30
0.0
 10
-72.4272
 20
9.1022
 30
0.0
 10
-72.4272
 20
9.1022
 30
0.0
 10
-72.4272
 20
9.1022
 30
0.0
 10
-72.4272
 20
9.1022
 30
0.0
 10
-82.8149
 20
27.0199
 30
0.0
 10
-82.8149
 20
27.0199
 30
0.0
  0
SPLINE
  5
64
330
1F
100
AcDbEntity
  8
layer 1
 62
     7
100
AcDbSpline
210
0.0
220
0.0
230
1.0
 70
    11
 71
     3
 72
    16
 73
    12
 74
     0
 42
0.0000000001
 43
0.0000000001
 12
1.0
 22
0.0
 32
0.0
 13
1.0
 23
0.0
 33
0.0
 40
0.0
 40
0.0
 40
0.0
 40
0.0
 40
0.25
 40
0.25
 40
0.25
 40
0.25
 40
0.5
 40
0.5
 40
0.5
 40
0.5
 40
1.0
 40
1.0
 40
1.0
 40
1.0
 10
-161.8732
 20
28.502
 30
0.0
 10
-161.8732
 20
28.502
 30
0.0
 10
-130.4582
 20
10.3646
 30
0.0
 10
-130.4582
 20
10.3646
 30
0.0
 10
-130.4582
 20
10.3646
 30
0.0
 10
-130.4582
 20
10.3646
 30
0.0
 10
-151.55
 20
10.5472
 30
0.0
 10
-151.55
 20
10.5472
 30
0.0
 10
-151.55
 20
10.5472
 30
0.0
 10
-151.55
 20
10.5472
 30
0.0
 10
-161.8732
 20
28.502
 30
0.0
 10
-161.8732
 20
28.502
 30
0.0
  0
SPLINE
  5
65
330
1F
100
AcDbEntity
  8
layer 1
 62
     7
100
AcDbSpline
210
0.0
220
0.0
230
1.0
 70
    11
 71
     3
 72
    16
 73
    12
 74
     0
 42
0.0000000001
 43
0.0000000001
 12
1.0
 22
0.0
 32
0.0
 13
1.0
 23
0.0
 33
0.0
 40
0.0
 40
0.0
 40
0.0
 40
0.0
 40
0.25
 40
0.25
 40
0.25
 40
0.25
 40
0.5
 40
0.5
 40
0.5
 40
0.5
 40
1.0
 40
1.0
 40
1.0
 40
1.0
 10
-160.1694
 20
31.4531
 30
0.0
 10
-160.1694
 20
31.4531
 30
0.0
 10
-128.7544
 20
13.3157
 30
0.0
 10
-128.7544
 20
13.3157
 30
0.0
 10
-128.7544
 20
13.3157
 30
0.0
 10
-128.7544
 20
13.3157
 30
0.0
 10
-139.4583
 20
31.4905
 30
0.0
 10
-139.4583
 20
31.4905
 30
0.0
 10
-139.4583
 20
31.4905
 30
0.0
 10
-139.4583
 20
31.4905
 30
0.0
 10
-160.1694
 20
31.4531
 30
0.0
 10
-160.1694
 20
31.4531
 30
0.0
  0
SPLINE
  5
66
330
1F
100
AcDbEntity
  8
layer 1
 62
     7
100
AcDbSpline
210
0.0
220
0.0
230
1.0
 70
    11
 71
     3
 72
    16
 73
    12
 74
     0
 42
0.0000000001
 43
0.0000000001
 12
1.0
 22
0.0
 32
0.0
 13
1.0
 23
0.0
 33
0.0
 40
0.0
 40
0.0
 40
0.0
 40
0.0
 40
0.25
 40
0.25
 40
0.25
 40
0.25
 40
0.5
 40
0.5
 40
0.5
 40
0.5
 40
1.0
 40
1.0
 40
1.0
 40
1.0
 10
-88.4673
 20
28.502
 30
0.0
 10
-88.4673
 20
28.502
 30
0.0
 10
-119.8822
 20
10.3646
 30
0.0
 10
-119.8822
 20
10.3646
 30
0.0
 10
-119.8822
 20
10.3646
 30
0.0
 10
-119.8822
 20
10.3646
 30
0.0
 10
-98.7904
 20
10.5472
 30
0.0
 10
-98.7904
 20
10.5472
 30
0.0
 10
-98.7904
 20
10.5472
 30
0.0
 10
-98.7904
 20
10.5472
 30
0.0
 10
-88.4673
 20
28.502
 30
0.0
 10
-88.4673
 20
28.502
 30
0.0
  0
SPLINE
  5
67
330
1F
100
AcDbEntity
  8
layer 1
 62
     7
100
AcDbSpline
210
0.0
220
0.0
230
1.0
 70
    11
 71
     3
 72
    16
 73
    12
 74
     0
 42
0.0000000001
 43
0.0000000001
 12
1.0
 22
0.0
 32
0.0
 13
1.0
 23
0.0
 33
0.0
 40
0.0
 40
0.0
 40
0.0
 40
0.0
 40
0.25
 40
0.25
 40
0.25
 40
0.25
 40
0.5
 40
0.5
 40
0.5
 40
0.5
 40
1.0
 40
1.0
 40
1.0
 40
1.0
 10
-90.1711
 20
31.4531
 30
0.0
 10
-90.1711
 20
31.4531
 30
0.0
 10
-121.5861
 20
13.3157
 30
0.0
 10
-121.5861
 20
13.3157
 30
0.0
 10
-121.5861
 20
13.3157
 30
0.0
 10
-121.5861
 20
13.3157
 30
0.0
 10
-110.8822
 20
31.4905
 30
0.0
 10
-110.8822
 20
31.4905
 30
0.0
 10
-110.8822
 20
31.4905
 30
0.0
 10
-110.8822
 20
31.4905
 30
0.0
 10
-90.1711
 20
31.4531
 30
0.0
 10
-90.1711
 20
31.4531
 30
0.0
  0
SPLINE
  5
68
330
1F
100
AcDbEntity
  8
layer 1
 62
     7
100
AcDbSpline
210
0.0
220
0.0
230
1.0
 70
    11
 71
     3
 72
    16
 73
    12
 74
     0
 42
0.0000000001
 43
0.0000000001
 12
1.0
 22
0.0
 32
0.0
 13
1.0
 23
0.0
 33
0.0
 40
0.0
 40
0.0
 40
0.0
 40
0.0
 40
0.25
 40
0.25
 40
0.25
 40
0.25
 40
0.5
 40
0.5
 40
0.5
 40
0.5
 40
1.0
 40
1.0
 40
1.0
 40
1.0
 10
-126.7367
 20
-32.2859
 30
0.0
 10
-126.7367
 20
-32.2859
 30
0.0
 10
-126.7367
 20
3.989
 30
0.0
 10
-126.7367
 20
3.989
 30
0.0
 10
-126.7367
 20
3.989
 30
0.0
 10
-126.7367
 20
3.989
 30
0.0
 10
-137.1244
 20
-14.3682
 30
0.0
 10
-137.1244
 20
-14.3682
 30
0.0
 10
-137.1244
 20
-14.3682
 30
0.0
 10
-137.1244
 20
-14.3682
 30
0.0
 10
-126.7367
 20
-32.2859
 30
0.0
 10
-126.7367
 20
-32.2859
 30
0.0
  0
SPLINE
  5
69
330
1F
100
AcDbEntity
  8
layer 1
 62
     7
100
AcDbSpline
210
0.0
220
0.0
230
1.0
 70
    11
 71
     3
 72
    16
 73
    12
 74
     0
 42
0.0000000001
 43
0.0000000001
 12
1.0
 22
0.0
 32
0.0
 13
1.0
 23
0.0
 33
0.0
 40
0.0
 40
0.0
 40
0.0
 40
0.0
 40
0.25
 40
0.25
 40
0.25
 40
0.25
 40
0.5
 40
0.5
 40
0.5
 40
0.5
 40
1.0
 40
1.0
 40
1.0
 40
1.0
 10
-123.329
 20
-32.2859
 30
0.0
 10
-123.329
 20
-32.2859
 30
0.0
 10
-123.329
 20
3.989
 30
0.0
 10
-123.329
 20
3.989
 30
0.0
 10
-123.329
 20
3.989
 30
0.0
 10
-123.329
 20
3.989
 30
0.0
 10
-112.9412
 20
-14.3682
 30
0.0
 10
-112.9412
 20
-14.3682
 30
0.0
 10
-112.9412
 20
-14.3682
 30
0.0
 10
-112.9412
 20
-14.3682
 30
0.0
 10
-123.329
 20
-32.2859
 30
0.0
 10
-123.329
 20
-32.2859
 30
0.0
  0
SPLINE
  5
6A
330
1F
100
AcDbEntity
  8
layer 1
 62
     7
100
AcDbSpline
210
0.0
220
0.0
230
1.0
 70
    11
 71
     3
 72
    16
 73
    12
 74
     0
 42
0.0000000001
 43
0.0000000001
 12
1.0
 22
0.0
 32
0.0
 13
1.0
 23
0.0
 33
0.0
 40
0.0
 40
0.0
 40
0.0
 40
0.0
 40
0.25
 40
0.25
 40
0.25
 40
0.25
 40
0.5
 40
0.5
 40
0.5
 40
0.5
 40
1.0
 40
1.0
 40
1.0
 40
1.0
 10
-161.8732
 20
-10.1446
 30
0.0
 10
-161.8732
 20
-10.1446
 30
0.0
 10
-130.4582
 20
7.9928
 30
0.0
 10
-130.4582
 20
7.9928
 30
0.0
 10
-130.4582
 20
7.9928
 30
0.0
 10
-130.4582
 20
7.9928
 30
0.0
 10
-151.55
 20
7.8102
 30
0.0
 10
-151.55
 20
7.8102
 30
0.0
 10
-151.55
 20
7.8102
 30
0.0
 10
-151.55
 20
7.8102
 30
0.0
 10
-161.8732
 20
-10.1446
 30
0.0
 10
-161.8732
 20
-10.1446
 30
0.0
  0
SPLINE
  5
6B
330
1F
100
AcDbEntity
  8
layer 1
 62
     7
100
AcDbSpline
210
0.0
220
0.0
230
1.0
 70
    11
 71
     3
 72
    16
 73
    12
 74
     0
 42
0.0000000001
 43
0.0000000001
 12
1.0
 22
0.0
 32
0.0
 13
1.0
 23
0.0
 33
0.0
 40
0.0
 40
0.0
 40
0.0
 40
0.0
 40
0.25
 40
0.25
 40
0.25
 40
0.25
 40
0.5
 40
0.5
 40
0.5
 40
0.5
 40
1.0
 40
1.0
 40
1.0
 40
1.0
 10
-160.1694
 20
-13.0958
 30
0.0
 10
-160.1694
 20
-13.0958
 30
0.0
 10
-128.7544
 20
5.0416
 30
0.0
 10
-128.7544
 20
5.0416
 30
0.0
 10
-128.7544
 20
5.0416
 30
0.0
 10
-128.7544
 20
5.0416
 30
0.0
 10
-139.4583
 20
-13.1332
 30
0.0
 10
-139.4583
 20
-13.1332
 30
0.0
 10
-139.4583
 20
-13.1332
 30
0.0
 10
-139.4583
 20
-13.1332
 30
0.0
 10
-160.1694
 20
-13.0958
 30
0.0
 10
-160.1694
 20
-13.0958
 30
0.0
  0
SPLINE
  5
6C
330
1F
100
AcDbEntity
  8
layer 1
 62
     7
100
AcDbSpline
210
0.0
220
0.0
230
1.0
 70
    11
 71
     3
 72
    16
 73
    12
 74
     0
 42
0.0000000001
 43
0.0000000001
 12
1.0
 22
0.0
 32
0.0
 13
1.0
 23
0.0
 33
0.0
 40
0.0
 40
0.0
 40
0.0
 40
0.0
 40
0.25
 40
0.25
 40
0.25
 40
0.25
 40
0.5
 40
0.5
 40
0.5
 40
0.5
 40
1.0
 40
1.0
 40
1.0
 40
1.0
 10
-88.4673
 20
-10.1446
 30
0.0
 10
-88.4673
 20
-10.1446
 30
0.0
 10
-119.8822
 20
7.9928
 30
0.0
 10
-119.8822
 20
7.9928
 30
0.0
 10
-119.8822
 20
7.9928
 30
0.0
 10
-119.8822
 20
7.9928
 30
0.0
 10
-98.7904
 20
7.8102
 30
0.0
 10
-98.7904
 20
7.8102
 30
0.0
 10
-98.7904
 20
7.8102
 30
0.0
 10
-98.7904
 20
7.8102
 30
0.0
 10
-88.4673
 20
-10.1446
 30
0.0
 10
-88.4673
 20
-10.1446
 30
0.0
  0
SPLINE
  5
6D
330
1F
100
AcDbEntity
  8
layer 1
 62
     7
100
AcDbSpline
210
0.0
220
0.0
230
1.0
 70
    11
 71
     3
 72
    16
 73
    12
 74
     0
 42
0.0000000001
 43
0.0000000001
 12
1.0
 22
0.0
 32
0.0
 13
1.0
 23
0.0
 33
0.0
 40
0.0
 40
0.0
 40
0.0
 40
0.0
 40
0.25
 40
0.25
 40
0.25
 40
0.25
 40
0.5
 40
0.5
 40
0.5
 40
0.5
 40
1.0
 40
1.0
 40
1.0
 40
1.0
 10
-90.1711
 20
-13.0958
 30
0.0
 10
-90.1711
 20
-13.0958
 30
0.0
 10
-121.5861
 20
5.0416
 30
0.0
 10
-121.5861
 20
5.0416
 30
0.0
 10
-121.5861
 20
5.0416
 30
0.0
 10
-121.5861
 20
5.0416
 30
0.0
 10
-110.8822
 20
-13.1332
 30
0.0
 10
-110.8822
 20
-13.1332
 30
0.0
 10
-110.8822
 20
-13.1332
 30
0.0
 10
-110.8822
 20
-13.1332
 30
0.0
 10
-90.1711
 20
-13.0958
 30
0.0
 10
-90.1711
 20
-13.0958
 30
0.0
  0
SPLINE
  5
6E
330
1F
100
AcDbEntity
  8
layer 1
 62
     7
100
AcDbSpline
210
0.0
220
0.0
230
1.0
 70
    11
 71
     3
 72
    16
 73
    12
 74
     0
 42
0.0000000001
 43
0.0000000001
 12
1.0
 22
0.0
 32
0.0
 13
1.0
 23
0.0
 33
0.0
 40
0.0
 40
0.0
 40
0.0
 40
0.0
 40
0.25
 40
0.25
 40
0.25
 40
0.25
 40
0.5
 40
0.5
 40
0.5
 40
0.5
 40
1.0
 40
1.0
 40
1.0
 40
1.0
 10
-161.8732
 20
-18.5085
 30
0.0
 10
-161.8732
 20
-18.5085
 30
0.0
 10
-130.4582
 20
-36.6459
 30
0.0
 10
-130.4582
 20
-36.6459
 30
0.0
 10
-130.4582
 20
-36.6459
 30
0.0
 10
-130.4582
 20
-36.6459
 30
0.0
 10
-151.55
 20
-36.4633
 30
0.0
 10
-151.55
 20
-36.4633
 30
0.0
 10
-151.55
 20
-36.4633
 30
0.0
 10
-151.55
 20
-36.4633
 30
0.0
 10
-161.8732
 20
-18.5085
 30
0.0
 10
-161.8732
 20
-18.5085
 30
0.0
  0
SPLINE
  5
6F
330
1F
100
AcDbEntity
  8
layer 1
 62
     7
100
AcDbSpline
210
0.0
220
0.0
230
1.0
 70
    11
 71
     3
 72
    16
 73
    12
 74
     0
 42
0.0000000001
 43
0.0000000001
 12
1.0
 22
0.0
 32
0.0
 13
1.0
 23
0.0
 33
0.0
 40
0.0
 40
0.0
 40
0.0
 40
0.0
 40
0.25
 40
0.25
 40
0.25
 40
0.25
 40
0.5
 40
0.5
 40
0.5
 40
0.5
 40
1.0
 40
1.0
 40
1.0
 40
1.0
 10
-160.1694
 20
-15.5575
 30
0.0
 10
-160.1694
 20
-15.5575
 30
0.0
 10
-128.7544
 20
-33.6949
 30
0.0
 10
-128.7544
 20
-33.6949
 30
0.0
 10
-128.7544
 20
-33.6949
 30
0.0
 10
-128.7544
 20
-33.6949
 30
0.0
 10
-139.4583
 20
-15.5201
 30
0.0
 10
-139.4583
 20
-15.5201
 30
0.0
 10
-139.4583
 20
-15.5201
 30
0.0
 10
-139.4583
 20
-15.5201
 30
0.0
 10
-160.1694
 20
-15.5575
 30
0.0
 10
-160.1694
 20
-15.5575
 30
0.0
  0
SPLINE
  5
70
330
1F
100
AcDbEntity
  8
layer 1
 62
     7
100
AcDbSpline
210
0.0
220
0.0
230
1.0
 70
    11
 71
     3
 72
    16
 73
    12
 74
     0
 42
0.0000000001
 43
0.0000000001
 12
1.0
 22
0.0
 32
0.0
 13
1.0
 23
0.0
 33
0.0
 40
0.0
 40
0.0
 40
0.0
 40
0.0
 40
0.25
 40
0.25
 40
0.25
 40
0.25
 40
0.5
 40
0.5
 40
0.5
 40
0.5
 40
1.0
 40
1.0
 40
1.0
 40
1.0
 10
-88.4673
 20
-18.5085
 30
0.0
 10
-88.4673
 20
-18.5085
 30
0.0
 10
-119.8822
 20
-36.6459
 30
0.0
 10
-119.8822
 20
-36.6459
 30
0.0
 10
-119.8822
 20
-36.6459
 30
0.0
 10
-119.8822
 20
-36.6459
 30
0.0
 10
-98.7904
 20
-36.4633
 30
0.0
 10
-98.7904
 20
-36.4633
 30
0.0
 10
-98.7904
 20
-36.4633
 30
0.0
 10
-98.7904
 20
-36.4633
 30
0.0
 10
-88.4673
 20
-18.5085
 30
0.0
 10
-88.4673
 20
-18.5085
 30
0.0
  0
SPLINE
  5
71
330
1F
100
AcDbEntity
  8
layer 1
 62
     7
100
AcDbSpline
210
0.0
220
0.0
230
1.0
 70
    11
 71
     3
 72
    16
 73
    12
 74
     0
 42
0.0000000001
 43
0.0000000001
 12
1.0
 22
0.0
 32
0.0
 13
1.0
 23
0.0
 33
0.0
 40
0.0
 40
0.0
 40
0.0
 40
0.0
 40
0.25
 40
0.25
 40
0.25
 40
0.25
 40
0.5
 40
0.5
 40
0.5
 40
0.5
 40
1.0
 40
1.0
 40
1.0
 40
1.0
 10
-90.1711
 20
-15.5575
 30
0.0
 10
-90.1711
 20
-15.5575
 30
0.0
 10
-121.5861
 20
-33.6949
 30
0.0
 10
-121.5861
 20
-33.6949
 30
0.0
 10
-121.5861
 20
-33.6949
 30
0.0
 10
-121.5861
 20
-33.6949
 30
0.0
 10
-110.8822
 20
-15.5201
 30
0.0
 10
-110.8822
 20
-15.5201
 30
0.0
 10
-110.8822
 20
-15.5201
 30
0.0
 10
-110.8822
 20
-15.5201
 30
0.0
 10
-90.1711
 20
-15.5575
 30
0.0
 10
-90.1711
 20
-15.5575
 30
0.0
  0
SPLINE
  5
72
330
1F
100
AcDbEntity
  8
layer 1
 62
     7
100
AcDbSpline
210
0.0
220
0.0
230
1.0
 70
    11
 71
     3
 72
    16
 73
    12
 74
     0
 42
0.0000000001
 43
0.0000000001
 12
1.0
 22
0.0
 32
0.0
 13
1.0
 23
0.0
 33
0.0
 40
0.0
 40
0.0
 40
0.0
 40
0.0
 40
0.25
 40
0.25
 40
0.25
 40
0.25
 40
0.5
 40
0.5
 40
0.5
 40
0.5
 40
1.0
 40
1.0
 40
1.0
 40
1.0
 10
-126.7367
 20
-79.2965
 30
0.0
 10
-126.7367
 20
-79.2965
 30
0.0
 10
-126.7367
 20
-43.0216
 30
0.0
 10
-126.7367
 20
-43.0216
 30
0.0
 10
-126.7367
 20
-43.0216
 30
0.0
 10
-126.7367
 20
-43.0216
 30
0.0
 10
-137.1244
 20
-61.3788
 30
0.0
 10
-137.1244
 20
-61.3788
 30
0.0
 10
-137.1244
 20
-61.3788
 30
0.0
 10
-137.1244
 20
-61.3788
 30
0.0
 10
-126.7367
 20
-79.2965
 30
0.0
 10
-126.7367
 20
-79.2965
 30
0.0
  0
SPLINE
  5
73
330
1F
100
AcDbEntity
  8
layer 1
 62
     7
100
AcDbSpline
210
0.0
220
0.0
230
1.0
 70
    11
 71
     3
 72
    16
 73
    12
 74
     0
 42
0.0000000001
 43
0.0000000001
 12
1.0
 22
0.0
 32
0.0
 13
1.0
 23
0.0
 33
0.0
 40
0.0
 40
0.0
 40
0.0
 40
0.0
 40
0.25
 40
0.25
 40
0.25
 40
0.25
 40
0.5
 40
0.5
 40
0.5
 40
0.5
 40
1.0
 40
1.0
 40
1.0
 40
1.0
 10
-123.329
 20
-79.2965
 30
0.0
 10
-123.329
 20
-79.2965
 30
0.0
 10
-123.329
 20
-43.0216
 30
0.0
 10
-123.329
 20
-43.0216
 30
0.0
 10
-123.329
 20
-43.0216
 30
0.0
 10
-123.329
 20
-43.0216
 30
0.0
 10
-112.9412
 20
-61.3788
 30
0.0
 10
-112.9412
 20
-61.3788
 30
0.0
 10
-112.9412
 20
-61.3788
 30
0.0
 10
-112.9412
 20
-61.3788
 30
0.0
 10
-123.329
 20
-79.2965
 30
0.0
 10
-123.329
 20
-79.2965
 30
0.0
  0
SPLINE
  5
74
330
1F
100
AcDbEntity
  8
layer 1
 62
     7
100
AcDbSpline
210
0.0
220
0.0
230
1.0
 70
    11
 71
     3
 72
    16
 73
    12
 74
     0
 42
0.0000000001
 43
0.0000000001
 12
1.0
 22
0.0
 32
0.0
 13
1.0
 23
0.0
 33
0.0
 40
0.0
 40
0.0
 40
0.0
 40
0.0
 40
0.25
 40
0.25
 40
0.25
 40
0.25
 40
0.5
 40
0.5
 40
0.5
 40
0.5
 40
1.0
 40
1.0
 40
1.0
 40
1.0
 10
-161.8732
 20
-57.1552
 30
0.0
 10
-161.8732
 20
-57.1552
 30
0.0
 10
-130.4582
 20
-39.0178
 30
0.0
 10
-130.4582
 20
-39.0178
 30
0.0
 10
-130.4582
 20
-39.0178
 30
0.0
 10
-130.4582
 20
-39.0178
 30
0.0
 10
-151.55
 20
-39.2004
 30
0.0
 10
-151.55
 20
-39.2004
 30
0.0
 10
-151.55
 20
-39.2004
 30
0.0
 10
-151.55
 20
-39.2004
 30
0.0
 10
-161.8732
 20
-57.1552
 30
0.0
 10
-161.8732
 20
-57.1552
 30
0.0
  0
SPLINE
  5
75
330
1F
100
AcDbEntity
  8
layer 1
 62
     7
100
AcDbSpline
210
0.0
220
0.0
230
1.0
 70
    11
 71
     3
 72
    16
 73
    12
 74
     0
 42
0.0000000001
 43
0.0000000001
 12
1.0
 22
0.0
 32
0.0
 13
1.0
 23
0.0
 33
0.0
 40
0.0
 40
0.0
 40
0.0
 40
0.0
 40
0.25
 40
0.25
 40
0.25
 40
0.25
 40
0.5
 40
0.5
 40
0.5
 40
0.5
 40
1.0
 40
1.0
 40
1.0
 40
1.0
 10
-160.1694
 20
-60.1063
 30
0.0
 10
-160.1694
 20
-60.1063
 30
0.0
 10
-128.7544
 20
-41.9689
 30
0.0
 10
-128.7544
 20
-41.9689
 30
0.0
 10
-128.7544
 20
-41.9689
 30
0.0
 10
-128.7544
 20
-41.9689
 30
0.0
 10
-139.4583
 20
-60.1437
 30
0.0
 10
-139.4583
 20
-60.1437
 30
0.0
 10
-139.4583
 20
-60.1437
 30
0.0
 10
-139.4583
 20
-60.1437
 30
0.0
 10
-160.1694
 20
-60.1063
 30
0.0
 10
-160.1694
 20
-60.1063
 30
0.0
  0
SPLINE
  5
76
330
1F
100
AcDbEntity
  8
layer 1
 62
     7
100
AcDbSpline
210
0.0
220
0.0
230
1.0
 70
    11
 71
     3
 72
    16
 73
    12
 74
     0
 42
0.0000000001
 43
0.0000000001
 12
1.0
 22
0.0
 32
0.0
 13
1.0
 23
0.0
 33
0.0
 40
0.0
 40
0.0
 40
0.0
 40
0.0
 40
0.25
 40
0.25
 40
0.25
 40
0.25
 40
0.5
 40
0.5
 40
0.5
 40
0.5
 40
1.0
 40
1.0
 40
1.0
 40
1.0
 10
-88.4673
 20
-57.1552
 30
0.0
 10
-88.4673
 20
-57.1552
 30
0.0
 10
-119.8822
 20
-39.0178
 30
0.0
 10
-119.8822
 20
-39.0178
 30
0.0
 10
-119.8822
 20
-39.0178
 30
0.0
 10
-119.8822
 20
-39.0178
 30
0.0
 10
-98.7904
 20
-39.2004
 30
0.0
 10
-98.7904
 20
-39.2004
 30
0.0
 10
-98.7904
 20
-39.2004
 30
0.0
 10
-98.7904
 20
-39.2004
 30
0.0
 10
-88.4673
 20
-57.1552
 30
0.0
 10
-88.4673
 20
-57.1552
 30
0.0
  0
SPLINE
  5
77
330
1F
100
AcDbEntity
  8
layer 1
 62
     7
100
AcDbSpline
210
0.0
220
0.0
230
1.0
 70
    11
 71
     3
 72
    16
 73
    12
 74
     0
 42
0.0000000001
 43
0.0000000001
 12
1.0
 22
0.0
 32
0.0
 13
1.0
 23
0.0
 33
0.0
 40
0.0
 40
0.0
 40
0.0
 40
0.0
 40
0.25
 40
0.25
 40
0.25
 40
0.25
 40
0.5
 40
0.5
 40
0.5
 40
0.5
 40
1.0
 40
1.0
 40
1.0
 40
1.0
 10
-90.1711
 20
-60.1063
 30
0.0
 10
-90.1711
 20
-60.1063
 30
0.0
 10
-121.5861
 20
-41.9689
 30
0.0
 10
-121.5861
 20
-41.9689
 30
0.0
 10
-121.5861
 20
-41.9689
 30
0.0
 10
-121.5861
 20
-41.9689
 30
0.0
 10
-110.8822
 20
-60.1437
 30
0.0
 10
-110.8822
 20
-60.1437
 30
0.0
 10
-110.8822
 20
-60.1437
 30
0.0
 10
-110.8822
 20
-60.1437
 30
0.0
 10
-90.1711
 20
-60.1063
 30
0.0
 10
-90.1711
 20
-60.1063
 30
0.0
  0
SPLINE
  5
78
330
1F
100
AcDbEntity
  8
layer 1
 62
     7
100
AcDbSpline
210
0.0
220
0.0
230
1.0
 70
    11
 71
     3
 72
    16
 73
    12
 74
     0
 42
0.0000000001
 43
0.0000000001
 12
1.0
 22
0.0
 32
0.0
 13
1.0
 23
0.0
 33
0.0
 40
0.0
 40
0.0
 40
0.0
 40
0.0
 40
0.25
 40
0.25
 40
0.25
 40
0.25
 40
0.5
 40
0.5
 40
0.5
 40
0.5
 40
1.0
 40
1.0
 40
1.0
 40
1.0
 10
-161.8732
 20
-65.2829
 30
0.0
 10
-161.8732
 20
-65.2829
 30
0.0
 10
-130.4582
 20
-83.4203
 30
0.0
 10
-130.4582
 20
-83.4203
 30
0.0
 10
-130.4582
 20
-83.4203
 30
0.0
 10
-130.4582
 20
-83.4203
 30
0.0
 10
-151.55
 20
-83.2377
 30
0.0
 10
-151.55
 20
-83.2377
 30
0.0
 10
-151.55
 20
-83.2377
 30
0.0
 10
-151.55
 20
-83.2377
 30
0.0
 10
-161.8732
 20
-65.2829
 30
0.0
 10
-161.8732
 20
-65.2829
 30
0.0
  0
SPLINE
  5
79
330
1F
100
AcDbEntity
  8
layer 1
 62
     7
100
AcDbSpline
210
0.0
220
0.0
230
1.0
 70
    11
 71
     3
 72
    16
 73
    12
 74
     0
 42
0.0000000001
 43
0.0000000001
 12
1.0
 22
0.0
 32
0.0
 13
1.0
 23
0.0
 33
0.0
 40
0.0
 40
0.0
 40
0.0
 40
0.0
 40
0.25
 40
0.25
 40
0.25
 40
0.25
 40
0.5
 40
0.5
 40
0.5
 40
0.5
 40
1.0
 40
1.0
 40
1.0
 40
1.0
 10
-160.1694
 20
-62.3317
 30
0.0
 10
-160.1694
 20
-62.3317
 30
0.0
 10
-128.7544
 20
-80.4691
 30
0.0
 10
-128.7544
 20
-80.4691
 30
0.0
 10
-128.7544
 20
-80.4691
 30
0.0
 10
-128.7544
 20
-80.4691
 30
0.0
 10
-139.4583
 20
-62.2943
 30
0.0
 10
-139.4583
 20
-62.2943
 30
0.0
 10
-139.4583
 20
-62.2943
 30
0.0
 10
-139.4583
 20
-62.2943
 30
0.0
 10
-160.1694
 20
-62.3317
 30
0.0
 10
-160.1694
 20
-62.3317
 30
0.0
  0
SPLINE
  5
7A
330
1F
100
AcDbEntity
  8
layer 1
 62
     7
100
AcDbSpline
210
0.0
220
0.0
230
1.0
 70
    11
 71
     3
 72
    16
 73
    12
 74
     0
 42
0.0000000001
 43
0.0000000001
 12
1.0
 22
0.0
 32
0.0
 13
1.0
 23
0.0
 33
0.0
 40
0.0
 40
0.0
 40
0.0
 40
0.0
 40
0.25
 40
0.25
 40
0.25
 40
0.25
 40
0.5
 40
0.5
 40
0.5
 40
0.5
 40
1.0
 40
1.0
 40
1.0
 40
1.0
 10
-88.4673
 20
-65.2829
 30
0.0
 10
-88.4673
 20
-65.2829
 30
0.0
 10
-119.8822
 20
-83.4203
 30
0.0
 10
-119.8822
 20
-83.4203
 30
0.0
 10
-119.8822
 20
-83.4203
 30
0.0
 10
-119.8822
 20
-83.4203
 30
0.0
 10
-98.7904
 20
-83.2377
 30
0.0
 10
-98.7904
 20
-83.2377
 30
0.0
 10
-98.7904
 20
-83.2377
 30
0.0
 10
-98.7904
 20
-83.2377
 30
0.0
 10
-88.4673
 20
-65.2829
 30
0.0
 10
-88.4673
 20
-65.2829
 30
0.0
  0
SPLINE
  5
7B
330
1F
100
AcDbEntity
  8
layer 1
 62
     7
100
AcDbSpline
210
0.0
220
0.0
230
1.0
 70
    11
 71
     3
 72
    16
 73
    12
 74
     0
 42
0.0000000001
 43
0.0000000001
 12
1.0
 22
0.0
 32
0.0
 13
1.0
 23
0.0
 33
0.0
 40
0.0
 40
0.0
 40
0.0
 40
0.0
 40
0.25
 40
0.25
 40
0.25
 40
0.25
 40
0.5
 40
0.5
 40
0.5
 40
0.5
 40
1.0
 40
1.0
 40
1.0
 40
1.0
 10
-90.1711
 20
-62.3317
 30
0.0
 10
-90.1711
 20
-62.3317
 30
0.0
 10
-121.5861
 20
-80.4691
 30
0.0
 10
-121.5861
 20
-80.4691
 30
0.0
 10
-121.5861
 20
-80.4691
 30
0.0
 10
-121.5861
 20
-80.4691
 30
0.0
 10
-110.8822
 20
-62.2943
 30
0.0
 10
-110.8822
 20
-62.2943
 30
0.0
 10
-110.8822
 20
-62.2943
 30
0.0
 10
-110.8822
 20
-62.2943
 30
0.0
 10
-90.1711
 20
-62.3317
 30
0.0
 10
-90.1711
 20
-62.3317
 30
0.0
  0
SPLINE
  5
7C
330
1F
100
AcDbEntity
  8
layer 1
 62
     7
100
AcDbSpline
210
0.0
220
0.0
230
1.0
 70
    11
 71
     3
 72
    16
 73
    12
 74
     0
 42
0.0000000001
 43
0.0000000001
 12
1.0
 22
0.0
 32
0.0
 13
1.0
 23
0.0
 33
0.0
 40
0.0
 40
0.0
 40
0.0
 40
0.0
 40
0.25
 40
0.25
 40
0.25
 40
0.25
 40
0.5
 40
0.5
 40
0.5
 40
0.5
 40
1.0
 40
1.0
 40
1.0
 40
1.0
 10
-126.7367
 20
-106.9564
 30
0.0
 10
-126.7367
 20
-106.9564
 30
0.0
 10
-126.7367
 20
-89.7958
 30
0.0
 10
-126.7367
 20
-89.7958
 30
0.0
 10
-126.7367
 20
-89.7958
 30
0.0
 10
-126.7367
 20
-89.7958
 30
0.0
 10
-136.4242
 20
-106.9156
 30
0.0
 10
-136.4242
 20
-106.9156
 30
0.0
 10
-136.4242
 20
-106.9156
 30
0.0
 10
-136.4242
 20
-106.9156
 30
0.0
 10
-126.7367
 20
-106.9564
 30
0.0
 10
-126.7367
 20
-106.9564
 30
0.0
  0
SPLINE
  5
7D
330
1F
100
AcDbEntity
  8
layer 1
 62
     7
100
AcDbSpline
210
0.0
220
0.0
230
1.0
 70
    11
 71
     3
 72
    16
 73
    12
 74
     0
 42
0.0000000001
 43
0.0000000001
 12
1.0
 22
0.0
 32
0.0
 13
1.0
 23
0.0
 33
0.0
 40
0.0
 40
0.0
 40
0.0
 40
0.0
 40
0.25
 40
0.25
 40
0.25
 40
0.25
 40
0.5
 40
0.5
 40
0.5
 40
0.5
 40
1.0
 40
1.0
 40
1.0
 40
1.0
 10
-161.8732
 20
-103.9295
 30
0.0
 10
-161.8732
 20
-103.9295
 30
0.0
 10
-130.4582
 20
-85.7921
 30
0.0
 10
-130.4582
 20
-85.7921
 30
0.0
 10
-130.4582
 20
-85.7921
 30
0.0
 10
-130.4582
 20
-85.7921
 30
0.0
 10
-151.55
 20
-85.9747
 30
0.0
 10
-151.55
 20
-85.9747
 30
0.0
 10
-151.55
 20
-85.9747
 30
0.0
 10
-151.55
 20
-85.9747
 30
0.0
 10
-161.8732
 20
-103.9295
 30
0.0
 10
-161.8732
 20
-103.9295
 30
0.0
  0
SPLINE
  5
7E
330
1F
100
AcDbEntity
  8
layer 1
 62
     7
100
AcDbSpline
210
0.0
220
0.0
230
1.0
 70
    11
 71
     3
 72
    16
 73
    12
 74
     0
 42
0.0000000001
 43
0.0000000001
 12
1.0
 22
0.0
 32
0.0
 13
1.0
 23
0.0
 33
0.0
 40
0.0
 40
0.0
 40
0.0
 40
0.0
 40
0.25
 40
0.25
 40
0.25
 40
0.25
 40
0.5
 40
0.5
 40
0.5
 40
0.5
 40
1.0
 40
1.0
 40
1.0
 40
1.0
 10
-160.1694
 20
-106.8806
 30
0.0
 10
-160.1694
 20
-106.8806
 30
0.0
 10
-128.7544
 20
-88.7432
 30
0.0
 10
-128.7544
 20
-88.7432
 30
0.0
 10
-128.7544
 20
-88.7432
 30
0.0
 10
-128.7544
 20
-88.7432
 30
0.0
 10
-139.4583
 20
-106.918
 30
0.0
 10
-139.4583
 20
-106.918
 30
0.0
 10
-139.4583
 20
-106.918
 30
0.0
 10
-139.4583
 20
-106.918
 30
0.0
 10
-160.1694
 20
-106.8806
 30
0.0
 10
-160.1694
 20
-106.8806
 30
0.0
  0
SPLINE
  5
7F
330
1F
100
AcDbEntity
  8
layer 1
 62
     7
100
AcDbSpline
210
0.0
220
0.0
230
1.0
 70
    11
 71
     3
 72
    16
 73
    12
 74
     0
 42
0.0000000001
 43
0.0000000001
 12
1.0
 22
0.0
 32
0.0
 13
1.0
 23
0.0
 33
0.0
 40
0.0
 40
0.0
 40
0.0
 40
0.0
 40
0.25
 40
0.25
 40
0.25
 40
0.25
 40
0.5
 40
0.5
 40
0.5
 40
0.5
 40
1.0
 40
1.0
 40
1.0
 40
1.0
 10
-88.4673
 20
-103.9295
 30
0.0
 10
-88.4673
 20
-103.9295
 30
0.0
 10
-119.8822
 20
-85.7921
 30
0.0
 10
-119.8822
 20
-85.7921
 30
0.0
 10
-119.8822
 20
-85.7921
 30
0.0
 10
-119.8822
 20
-85.7921
 30
0.0
 10
-98.7904
 20
-85.9747
 30
0.0
 10
-98.7904
 20
-85.9747
 30
0.0
 10
-98.7904
 20
-85.9747
 30
0.0
 10
-98.7904
 20
-85.9747
 30
0.0
 10
-88.4673
 20
-103.9295
 30
0.0
 10
-88.4673
 20
-103.9295
 30
0.0
  0
SPLINE
  5
80
330
1F
100
AcDbEntity
  8
layer 1
 62
     7
100
AcDbSpline
210
0.0
220
0.0
230
1.0
 70
    11
 71
     3
 72
    16
 73
    12
 74
     0
 42
0.0000000001
 43
0.0000000001
 12
1.0
 22
0.0
 32
0.0
 13
1.0
 23
0.0
 33
0.0
 40
0.0
 40
0.0
 40
0.0
 40
0.0
 40
0.25
 40
0.25
 40
0.25
 40
0.25
 40
0.5
 40
0.5
 40
0.5
 40
0.5
 40
1.0
 40
1.0
 40
1.0
 40
1.0
 10
-90.1711
 20
-106.8806
 30
0.0
 10
-90.1711
 20
-106.8806
 30
0.0
 10
-121.5861
 20
-88.7432
 30
0.0
 10
-121.5861
 20
-88.7432
 30
0.0
 10
-121.5861
 20
-88.7432
 30
0.0
 10
-121.5861
 20
-88.7432
 30
0.0
 10
-110.8822
 20
-106.918
 30
0.0
 10
-110.8822
 20
-106.918
 30
0.0
 10
-110.8822
 20
-106.918
 30
0.0
 10
-110.8822
 20
-106.918
 30
0.0
 10
-90.1711
 20
-106.8806
 30
0.0
 10
-90.1711
 20
-106.8806
 30
0.0
  0
SPLINE
  5
81
330
1F
100
AcDbEntity
  8
layer 1
 62
     7
100
AcDbSpline
210
0.0
220
0.0
230
1.0
 70
    11
 71
     3
 72
    16
 73
    12
 74
     0
 42
0.0000000001
 43
0.0000000001
 12
1.0
 22
0.0
 32
0.0
 13
1.0
 23
0.0
 33
0.0
 40
0.0
 40
0.0
 40
0.0
 40
0.0
 40
0.25
 40
0.25
 40
0.25
 40
0.25
 40
0.5
 40
0.5
 40
0.5
 40
0.5
 40
1.0
 40
1.0
 40
1.0
 40
1.0
 10
-167.4871
 20
-19.8726
 30
0.0
 10
-167.4871
 20
-19.8726
 30
0.0
 10
-167.4871
 20
-56.1475
 30
0.0
 10
-167.4871
 20
-56.1475
 30
0.0
 10
-167.4871
 20
-56.1475
 30
0.0
 10
-167.4871
 20
-56.1475
 30
0.0
 10
-177.8749
 20
-37.7903
 30
0.0
 10
-177.8749
 20
-37.7903
 30
0.0
 10
-177.8749
 20
-37.7903
 30
0.0
 10
-177.8749
 20
-37.7903
 30
0.0
 10
-167.4871
 20
-19.8726
 30
0.0
 10
-167.4871
 20
-19.8726
 30
0.0
  0
SPLINE
  5
82
330
1F
100
AcDbEntity
  8
layer 1
 62
     7
100
AcDbSpline
210
0.0
220
0.0
230
1.0
 70
    11
 71
     3
 72
    16
 73
    12
 74
     0
 42
0.0000000001
 43
0.0000000001
 12
1.0
 22
0.0
 32
0.0
 13
1.0
 23
0.0
 33
0.0
 40
0.0
 40
0.0
 40
0.0
 40
0.0
 40
0.25
 40
0.25
 40
0.25
 40
0.25
 40
0.5
 40
0.5
 40
0.5
 40
0.5
 40
1.0
 40
1.0
 40
1.0
 40
1.0
 10
-164.0794
 20
-19.8726
 30
0.0
 10
-164.0794
 20
-19.8726
 30
0.0
 10
-164.0794
 20
-56.1475
 30
0.0
 10
-164.0794
 20
-56.1475
 30
0.0
 10
-164.0794
 20
-56.1475
 30
0.0
 10
-164.0794
 20
-56.1475
 30
0.0
 10
-153.6917
 20
-37.7903
 30
0.0
 10
-153.6917
 20
-37.7903
 30
0.0
 10
-153.6917
 20
-37.7903
 30
0.0
 10
-153.6917
 20
-37.7903
 30
0.0
 10
-164.0794
 20
-19.8726
 30
0.0
 10
-164.0794
 20
-19.8726
 30
0.0
  0
SPLINE
  5
83
330
1F
100
AcDbEntity
  8
layer 1
 62
     7
100
AcDbSpline
210
0.0
220
0.0
230
1.0
 70
    11
 71
     3
 72
    16
 73
    12
 74
     0
 42
0.0000000001
 43
0.0000000001
 12
1.0
 22
0.0
 32
0.0
 13
1.0
 23
0.0
 33
0.0
 40
0.0
 40
0.0
 40
0.0
 40
0.0
 40
0.25
 40
0.25
 40
0.25
 40
0.25
 40
0.5
 40
0.5
 40
0.5
 40
0.5
 40
1.0
 40
1.0
 40
1.0
 40
1.0
 10
-86.2225
 20
-19.8726
 30
0.0
 10
-86.2225
 20
-19.8726
 30
0.0
 10
-86.2225
 20
-56.1475
 30
0.0
 10
-86.2225
 20
-56.1475
 30
0.0
 10
-86.2225
 20
-56.1475
 30
0.0
 10
-86.2225
 20
-56.1475
 30
0.0
 10
-96.6102
 20
-37.7903
 30
0.0
 10
-96.6102
 20
-37.7903
 30
0.0
 10
-96.6102
 20
-37.7903
 30
0.0
 10
-96.6102
 20
-37.7903
 30
0.0
 10
-86.2225
 20
-19.8726
 30
0.0
 10
-86.2225
 20
-19.8726
 30
0.0
  0
SPLINE
  5
84
330
1F
100
AcDbEntity
  8
layer 1
 62
     7
100
AcDbSpline
210
0.0
220
0.0
230
1.0
 70
    11
 71
     3
 72
    16
 73
    12
 74
     0
 42
0.0000000001
 43
0.0000000001
 12
1.0
 22
0.0
 32
0.0
 13
1.0
 23
0.0
 33
0.0
 40
0.0
 40
0.0
 40
0.0
 40
0.0
 40
0.25
 40
0.25
 40
0.25
 40
0.25
 40
0.5
 40
0.5
 40
0.5
 40
0.5
 40
1.0
 40
1.0
 40
1.0
 40
1.0
 10
-82.8149
 20
-19.8726
 30
0.0
 10
-82.8149
 20
-19.8726
 30
0.0
 10
-82.8149
 20
-56.1475
 30
0.0
 10
-82.8149
 20
-56.1475
 30
0.0
 10
-82.8149
 20
-56.1475
 30
0.0
 10
-82.8149
 20
-56.1475
 30
0.0
 10
-72.4272
 20
-37.7903
 30
0.0
 10
-72.4272
 20
-37.7903
 30
0.0
 10
-72.4272
 20
-37.7903
 30
0.0
 10
-72.4272
 20
-37.7903
 30
0.0
 10
-82.8149
 20
-19.8726
 30
0.0
 10
-82.8149
 20
-19.8726
 30
0.0
  0
SPLINE
  5
85
330
1F
100
AcDbEntity
  8
layer 1
 62
     7
100
AcDbSpline
210
0.0
220
0.0
230
1.0
 70
    11
 71
     3
 72
    16
 73
    12
 74
     0
 42
0.0000000001
 43
0.0000000001
 12
1.0
 22
0.0
 32
0.0
 13
1.0
 23
0.0
 33
0.0
 40
0.0
 40
0.0
 40
0.0
 40
0.0
 40
0.25
 40
0.25
 40
0.25
 40
0.25
 40
0.5
 40
0.5
 40
0.5
 40
0.5
 40
1.0
 40
1.0
 40
1.0
 40
1.0
 10
-167.4871
 20
-66.6469
 30
0.0
 10
-167.4871
 20
-66.6469
 30
0.0
 10
-167.4871
 20
-102.9218
 30
0.0
 10
-167.4871
 20
-102.9218
 30
0.0
 10
-167.4871
 20
-102.9218
 30
0.0
 10
-167.4871
 20
-102.9218
 30
0.0
 10
-177.8749
 20
-84.5645
 30
0.0
 10
-177.8749
 20
-84.5645
 30
0.0
 10
-177.8749
 20
-84.5645
 30
0.0
 10
-177.8749
 20
-84.5645
 30
0.0
 10
-167.4871
 20
-66.6469
 30
0.0
 10
-167.4871
 20
-66.6469
 30
0.0
  0
SPLINE
  5
86
330
1F
100
AcDbEntity
  8
layer 1
 62
     7
100
AcDbSpline
210
0.0
220
0.0
230
1.0
 70
    11
 71
     3
 72
    16
 73
    12
 74
     0
 42
0.0000000001
 43
0.0000000001
 12
1.0
 22
0.0
 32
0.0
 13
1.0
 23
0.0
 33
0.0
 40
0.0
 40
0.0
 40
0.0
 40
0.0
 40
0.25
 40
0.25
 40
0.25
 40
0.25
 40
0.5
 40
0.5
 40
0.5
 40
0.5
 40
1.0
 40
1.0
 40
1.0
 40
1.0
 10
-164.0794
 20
-66.6469
 30
0.0
 10
-164.0794
 20
-66.6469
 30
0.0
 10
-164.0794
 20
-102.9218
 30
0.0
 10
-164.0794
 20
-102.9218
 30
0.0
 10
-164.0794
 20
-102.9218
 30
0.0
 10
-164.0794
 20
-102.9218
 30
0.0
 10
-153.6917
 20
-84.5645
 30
0.0
 10
-153.6917
 20
-84.5645
 30
0.0
 10
-153.6917
 20
-84.5645
 30
0.0
 10
-153.6917
 20
-84.5645
 30
0.0
 10
-164.0794
 20
-66.6469
 30
0.0
 10
-164.0794
 20
-66.6469
 30
0.0
  0
SPLINE
  5
87
330
1F
100
AcDbEntity
  8
layer 1
 62
     7
100
AcDbSpline
210
0.0
220
0.0
230
1.0
 70
    11
 71
     3
 72
    16
 73
    12
 74
     0
 42
0.0000000001
 43
0.0000000001
 12
1.0
 22
0.0
 32
0.0
 13
1.0
 23
0.0
 33
0.0
 40
0.0
 40
0.0
 40
0.0
 40
0.0
 40
0.25
 40
0.25
 40
0.25
 40
0.25
 40
0.5
 40
0.5
 40
0.5
 40
0.5
 40
1.0
 40
1.0
 40
1.0
 40
1.0
 10
-86.2225
 20
-66.6469
 30
0.0
 10
-86.2225
 20
-66.6469
 30
0.0
 10
-86.2225
 20
-102.9218
 30
0.0
 10
-86.2225
 20
-102.9218
 30
0.0
 10
-86.2225
 20
-102.9218
 30
0.0
 10
-86.2225
 20
-102.9218
 30
0.0
 10
-96.6102
 20
-84.5645
 30
0.0
 10
-96.6102
 20
-84.5645
 30
0.0
 10
-96.6102
 20
-84.5645
 30
0.0
 10
-96.6102
 20
-84.5645
 30
0.0
 10
-86.2225
 20
-66.6469
 30
0.0
 10
-86.2225
 20
-66.6469
 30
0.0
  0
SPLINE
  5
88
330
1F
100
AcDbEntity
  8
layer 1
 62
     7
100
AcDbSpline
210
0.0
220
0.0
230
1.0
 70
    11
 71
     3
 72
    16
 73
    12
 74
     0
 42
0.0000000001
 43
0.0000000001
 12
1.0
 22
0.0
 32
0.0
 13
1.0
 23
0.0
 33
0.0
 40
0.0
 40
0.0
 40
0.0
 40
0.0
 40
0.25
 40
0.25
 40
0.25
 40
0.25
 40
0.5
 40
0.5
 40
0.5
 40
0.5
 40
1.0
 40
1.0
 40
1.0
 40
1.0
 10
-82.8149
 20
-66.6469
 30
0.0
 10
-82.8149
 20
-66.6469
 30
0.0
 10
-82.8149
 20
-102.9218
 30
0.0
 10
-82.8149
 20
-102.9218
 30
0.0
 10
-82.8149
 20
-102.9218
 30
0.0
 10
-82.8149
 20
-102.9218
 30
0.0
 10
-72.4272
 20
-84.5645
 30
0.0
 10
-72.4272
 20
-84.5645
 30
0.0
 10
-72.4272
 20
-84.5645
 30
0.0
 10
-72.4272
 20
-84.5645
 30
0.0
 10
-82.8149
 20
-66.6469
 30
0.0
 10
-82.8149
 20
-66.6469
 30
0.0
  0
SPLINE
  5
89
330
1F
100
AcDbEntity
  8
layer 1
 62
     7
100
AcDbSpline
210
0.0
220
0.0
230
1.0
 70
    11
 71
     3
 72
    16
 73
    12
 74
     0
 42
0.0000000001
 43
0.0000000001
 12
1.0
 22
0.0
 32
0.0
 13
1.0
 23
0.0
 33
0.0
 40
0.0
 40
0.0
 40
0.0
 40
0.0
 40
0.25
 40
0.25
 40
0.25
 40
0.25
 40
0.5
 40
0.5
 40
0.5
 40
0.5
 40
1.0
 40
1.0
 40
1.0
 40
1.0
 10
-169.6137
 20
-57.1552
 30
0.0
 10
-169.6137
 20
-57.1552
 30
0.0
 10
-179.5699
 20
-51.407
 30
0.0
 10
-179.5699
 20
-51.407
 30
0.0
 10
-179.5699
 20
-51.407
 30
0.0
 10
-179.5699
 20
-51.407
 30
0.0
 10
-179.6504
 20
-39.6987
 30
0.0
 10
-179.6504
 20
-39.6987
 30
0.0
 10
-179.6504
 20
-39.6987
 30
0.0
 10
-179.6504
 20
-39.6987
 30
0.0
 10
-169.6137
 20
-57.1552
 30
0.0
 10
-169.6137
 20
-57.1552
 30
0.0
  0
SPLINE
  5
8A
330
1F
100
AcDbEntity
  8
layer 1
 62
     7
100
AcDbSpline
210
0.0
220
0.0
230
1.0
 70
    11
 71
     3
 72
    16
 73
    12
 74
     0
 42
0.0000000001
 43
0.0000000001
 12
1.0
 22
0.0
 32
0.0
 13
1.0
 23
0.0
 33
0.0
 40
0.0
 40
0.0
 40
0.0
 40
0.0
 40
0.25
 40
0.25
 40
0.25
 40
0.25
 40
0.5
 40
0.5
 40
0.5
 40
0.5
 40
1.0
 40
1.0
 40
1.0
 40
1.0
 10
-171.3175
 20
-60.1063
 30
0.0
 10
-171.3175
 20
-60.1063
 30
0.0
 10
-179.7152
 20
-55.2578
 30
0.0
 10
-179.7152
 20
-55.2578
 30
0.0
 10
-179.7152
 20
-55.2578
 30
0.0
 10
-179.7152
 20
-55.2578
 30
0.0
 10
-179.6156
 20
-60.1213
 30
0.0
 10
-179.6156
 20
-60.1213
 30
0.0
 10
-179.6156
 20
-60.1213
 30
0.0
 10
-179.6156
 20
-60.1213
 30
0.0
 10
-171.3175
 20
-60.1063
 30
0.0
 10
-171.3175
 20
-60.1063
 30
0.0
  0
SPLINE
  5
8B
330
1F
100
AcDbEntity
  8
layer 1
 62
     7
100
AcDbSpline
210
0.0
220
0.0
230
1.0
 70
    11
 71
     3
 72
    16
 73
    12
 74
     0
 42
0.0000000001
 43
0.0000000001
 12
1.0
 22
0.0
 32
0.0
 13
1.0
 23
0.0
 33
0.0
 40
0.0
 40
0.0
 40
0.0
 40
0.0
 40
0.25
 40
0.25
 40
0.25
 40
0.25
 40
0.5
 40
0.5
 40
0.5
 40
0.5
 40
1.0
 40
1.0
 40
1.0
 40
1.0
 10
-169.6137
 20
-65.2829
 30
0.0
 10
-169.6137
 20
-65.2829
 30
0.0
 10
-179.6714
 20
-71.0897
 30
0.0
 10
-179.6714
 20
-71.0897
 30
0.0
 10
-179.6714
 20
-71.0897
 30
0.0
 10
-179.6714
 20
-71.0897
 30
0.0
 10
-179.7005
 20
-82.8266
 30
0.0
 10
-179.7005
 20
-82.8266
 30
0.0
 10
-179.7005
 20
-82.8266
 30
0.0
 10
-179.7005
 20
-82.8266
 30
0.0
 10
-169.6137
 20
-65.2829
 30
0.0
 10
-169.6137
 20
-65.2829
 30
0.0
  0
SPLINE
  5
8C
330
1F
100
AcDbEntity
  8
layer 1
 62
     7
100
AcDbSpline
210
0.0
220
0.0
230
1.0
 70
    11
 71
     3
 72
    16
 73
    12
 74
     0
 42
0.0000000001
 43
0.0000000001
 12
1.0
 22
0.0
 32
0.0
 13
1.0
 23
0.0
 33
0.0
 40
0.0
 40
0.0
 40
0.0
 40
0.0
 40
0.25
 40
0.25
 40
0.25
 40
0.25
 40
0.5
 40
0.5
 40
0.5
 40
0.5
 40
1.0
 40
1.0
 40
1.0
 40
1.0
 10
-171.3175
 20
-62.3317
 30
0.0
 10
-171.3175
 20
-62.3317
 30
0.0
 10
-179.6283
 20
-67.1301
 30
0.0
 10
-179.6283
 20
-67.1301
 30
0.0
 10
-179.6283
 20
-67.1301
 30
0.0
 10
-179.6283
 20
-67.1301
 30
0.0
 10
-179.6704
 20
-62.3167
 30
0.0
 10
-179.6704
 20
-62.3167
 30
0.0
 10
-179.6704
 20
-62.3167
 30
0.0
 10
-179.6704
 20
-62.3167
 30
0.0
 10
-171.3175
 20
-62.3317
 30
0.0
 10
-171.3175
 20
-62.3317
 30
0.0
  0
SPLINE
  5
8D
330
1F
100
AcDbEntity
  8
layer 1
 62
     7
100
AcDbSpline
210
0.0
220
0.0
230
1.0
 70
    11
 71
     3
 72
    16
 73
    12
 74
     0
 42
0.0000000001
 43
0.0000000001
 12
1.0
 22
0.0
 32
0.0
 13
1.0
 23
0.0
 33
0.0
 40
0.0
 40
0.0
 40
0.0
 40
0.0
 40
0.25
 40
0.25
 40
0.25
 40
0.25
 40
0.5
 40
0.5
 40
0.5
 40
0.5
 40
1.0
 40
1.0
 40
1.0
 40
1.0
 10
-80.6104
 20
-57.1552
 30
0.0
 10
-80.6104
 20
-57.1552
 30
0.0
 10
-70.6542
 20
-51.407
 30
0.0
 10
-70.6542
 20
-51.407
 30
0.0
 10
-70.6542
 20
-51.407
 30
0.0
 10
-70.6542
 20
-51.407
 30
0.0
 10
-70.5738
 20
-39.6988
 30
0.0
 10
-70.5738
 20
-39.6988
 30
0.0
 10
-70.5738
 20
-39.6988
 30
0.0
 10
-70.5738
 20
-39.6988
 30
0.0
 10
-80.6104
 20
-57.1552
 30
0.0
 10
-80.6104
 20
-57.1552
 30
0.0
  0
SPLINE
  5
8E
330
1F
100
AcDbEntity
  8
layer 1
 62
     7
100
AcDbSpline
210
0.0
220
0.0
230
1.0
 70
    11
 71
     3
 72
    16
 73
    12
 74
     0
 42
0.0000000001
 43
0.0000000001
 12
1.0
 22
0.0
 32
0.0
 13
1.0
 23
0.0
 33
0.0
 40
0.0
 40
0.0
 40
0.0
 40
0.0
 40
0.25
 40
0.25
 40
0.25
 40
0.25
 40
0.5
 40
0.5
 40
0.5
 40
0.5
 40
1.0
 40
1.0
 40
1.0
 40
1.0
 10
-78.9066
 20
-60.1063
 30
0.0
 10
-78.9066
 20
-60.1063
 30
0.0
 10
-70.5088
 20
-55.2578
 30
0.0
 10
-70.5088
 20
-55.2578
 30
0.0
 10
-70.5088
 20
-55.2578
 30
0.0
 10
-70.5088
 20
-55.2578
 30
0.0
 10
-70.6085
 20
-60.1213
 30
0.0
 10
-70.6085
 20
-60.1213
 30
0.0
 10
-70.6085
 20
-60.1213
 30
0.0
 10
-70.6085
 20
-60.1213
 30
0.0
 10
-78.9066
 20
-60.1063
 30
0.0
 10
-78.9066
 20
-60.1063
 30
0.0
  0
SPLINE
  5
8F
330
1F
100
AcDbEntity
  8
layer 1
 62
     7
100
AcDbSpline
210
0.0
220
0.0
230
1.0
 70
    11
 71
     3
 72
    16
 73
    12
 74
     0
 42
0.0000000001
 43
0.0000000001
 12
1.0
 22
0.0
 32
0.0
 13
1.0
 23
0.0
 33
0.0
 40
0.0
 40
0.0
 40
0.0
 40
0.0
 40
0.25
 40
0.25
 40
0.25
 40
0.25
 40
0.5
 40
0.5
 40
0.5
 40
0.5
 40
1.0
 40
1.0
 40
1.0
 40
1.0
 10
-80.6104
 20
-65.2829
 30
0.0
 10
-80.6104
 20
-65.2829
 30
0.0
 10
-70.5527
 20
-71.0897
 30
0.0
 10
-70.5527
 20
-71.0897
 30
0.0
 10
-70.5527
 20
-71.0897
 30
0.0
 10
-70.5527
 20
-71.0897
 30
0.0
 10
-70.5237
 20
-82.8266
 30
0.0
 10
-70.5237
 20
-82.8266
 30
0.0
 10
-70.5237
 20
-82.8266
 30
0.0
 10
-70.5237
 20
-82.8266
 30
0.0
 10
-80.6104
 20
-65.2829
 30
0.0
 10
-80.6104
 20
-65.2829
 30
0.0
  0
SPLINE
  5
90
330
1F
100
AcDbEntity
  8
layer 1
 62
     7
100
AcDbSpline
210
0.0
220
0.0
230
1.0
 70
    11
 71
     3
 72
    16
 73
    12
 74
     0
 42
0.0000000001
 43
0.0000000001
 12
1.0
 22
0.0
 32
0.0
 13
1.0
 23
0.0
 33
0.0
 40
0.0
 40
0.0
 40
0.0
 40
0.0
 40
0.25
 40
0.25
 40
0.25
 40
0.25
 40
0.5
 40
0.5
 40
0.5
 40
0.5
 40
1.0
 40
1.0
 40
1.0
 40
1.0
 10
-78.9066
 20
-62.3317
 30
0.0
 10
-78.9066
 20
-62.3317
 30
0.0
 10
-70.5958
 20
-67.1299
 30
0.0
 10
-70.5958
 20
-67.1299
 30
0.0
 10
-70.5958
 20
-67.1299
 30
0.0
 10
-70.5958
 20
-67.1299
 30
0.0
 10
-70.5537
 20
-62.3167
 30
0.0
 10
-70.5537
 20
-62.3167
 30
0.0
 10
-70.5537
 20
-62.3167
 30
0.0
 10
-70.5537
 20
-62.3167
 30
0.0
 10
-78.9066
 20
-62.3317
 30
0.0
 10
-78.9066
 20
-62.3317
 30
0.0
  0
SPLINE
  5
91
330
1F
100
AcDbEntity
  8
layer 1
 62
     7
100
AcDbSpline
210
0.0
220
0.0
230
1.0
 70
    11
 71
     3
 72
    16
 73
    12
 74
     0
 42
0.0000000001
 43
0.0000000001
 12
1.0
 22
0.0
 32
0.0
 13
1.0
 23
0.0
 33
0.0
 40
0.0
 40
0.0
 40
0.0
 40
0.0
 40
0.25
 40
0.25
 40
0.25
 40
0.25
 40
0.5
 40
0.5
 40
0.5
 40
0.5
 40
1.0
 40
1.0
 40
1.0
 40
1.0
 10
-169.6137
 20
-10.4447
 30
0.0
 10
-169.6137
 20
-10.4447
 30
0.0
 10
-179.5699
 20
-4.6965
 30
0.0
 10
-179.5699
 20
-4.6965
 30
0.0
 10
-179.5699
 20
-4.6965
 30
0.0
 10
-179.5699
 20
-4.6965
 30
0.0
 10
-179.6504
 20
7.0119
 30
0.0
 10
-179.6504
 20
7.0119
 30
0.0
 10
-179.6504
 20
7.0119
 30
0.0
 10
-179.6504
 20
7.0119
 30
0.0
 10
-169.6137
 20
-10.4447
 30
0.0
 10
-169.6137
 20
-10.4447
 30
0.0
  0
SPLINE
  5
92
330
1F
100
AcDbEntity
  8
layer 1
 62
     7
100
AcDbSpline
210
0.0
220
0.0
230
1.0
 70
    11
 71
     3
 72
    16
 73
    12
 74
     0
 42
0.0000000001
 43
0.0000000001
 12
1.0
 22
0.0
 32
0.0
 13
1.0
 23
0.0
 33
0.0
 40
0.0
 40
0.0
 40
0.0
 40
0.0
 40
0.25
 40
0.25
 40
0.25
 40
0.25
 40
0.5
 40
0.5
 40
0.5
 40
0.5
 40
1.0
 40
1.0
 40
1.0
 40
1.0
 10
-171.3175
 20
-13.3957
 30
0.0
 10
-171.3175
 20
-13.3957
 30
0.0
 10
-179.7152
 20
-8.5473
 30
0.0
 10
-179.7152
 20
-8.5473
 30
0.0
 10
-179.7152
 20
-8.5473
 30
0.0
 10
-179.7152
 20
-8.5473
 30
0.0
 10
-179.6156
 20
-13.4108
 30
0.0
 10
-179.6156
 20
-13.4108
 30
0.0
 10
-179.6156
 20
-13.4108
 30
0.0
 10
-179.6156
 20
-13.4108
 30
0.0
 10
-171.3175
 20
-13.3957
 30
0.0
 10
-171.3175
 20
-13.3957
 30
0.0
  0
SPLINE
  5
93
330
1F
100
AcDbEntity
  8
layer 1
 62
     7
100
AcDbSpline
210
0.0
220
0.0
230
1.0
 70
    11
 71
     3
 72
    16
 73
    12
 74
     0
 42
0.0000000001
 43
0.0000000001
 12
1.0
 22
0.0
 32
0.0
 13
1.0
 23
0.0
 33
0.0
 40
0.0
 40
0.0
 40
0.0
 40
0.0
 40
0.25
 40
0.25
 40
0.25
 40
0.25
 40
0.5
 40
0.5
 40
0.5
 40
0.5
 40
1.0
 40
1.0
 40
1.0
 40
1.0
 10
-169.6137
 20
-18.5723
 30
0.0
 10
-169.6137
 20
-18.5723
 30
0.0
 10
-179.6714
 20
-24.3791
 30
0.0
 10
-179.6714
 20
-24.3791
 30
0.0
 10
-179.6714
 20
-24.3791
 30
0.0
 10
-179.6714
 20
-24.3791
 30
0.0
 10
-179.7005
 20
-36.116
 30
0.0
 10
-179.7005
 20
-36.116
 30
0.0
 10
-179.7005
 20
-36.116
 30
0.0
 10
-179.7005
 20
-36.116
 30
0.0
 10
-169.6137
 20
-18.5723
 30
0.0
 10
-169.6137
 20
-18.5723
 30
0.0
  0
SPLINE
  5
94
330
1F
100
AcDbEntity
  8
layer 1
 62
     7
100
AcDbSpline
210
0.0
220
0.0
230
1.0
 70
    11
 71
     3
 72
    16
 73
    12
 74
     0
 42
0.0000000001
 43
0.0000000001
 12
1.0
 22
0.0
 32
0.0
 13
1.0
 23
0.0
 33
0.0
 40
0.0
 40
0.0
 40
0.0
 40
0.0
 40
0.25
 40
0.25
 40
0.25
 40
0.25
 40
0.5
 40
0.5
 40
0.5
 40
0.5
 40
1.0
 40
1.0
 40
1.0
 40
1.0
 10
-171.3175
 20
-15.6212
 30
0.0
 10
-171.3175
 20
-15.6212
 30
0.0
 10
-179.6283
 20
-20.4195
 30
0.0
 10
-179.6283
 20
-20.4195
 30
0.0
 10
-179.6283
 20
-20.4195
 30
0.0
 10
-179.6283
 20
-20.4195
 30
0.0
 10
-179.6704
 20
-15.6061
 30
0.0
 10
-179.6704
 20
-15.6061
 30
0.0
 10
-179.6704
 20
-15.6061
 30
0.0
 10
-179.6704
 20
-15.6061
 30
0.0
 10
-171.3175
 20
-15.6212
 30
0.0
 10
-171.3175
 20
-15.6212
 30
0.0
  0
SPLINE
  5
95
330
1F
100
AcDbEntity
  8
layer 1
 62
     7
100
AcDbSpline
210
0.0
220
0.0
230
1.0
 70
    11
 71
     3
 72
    16
 73
    12
 74
     0
 42
0.0000000001
 43
0.0000000001
 12
1.0
 22
0.0
 32
0.0
 13
1.0
 23
0.0
 33
0.0
 40
0.0
 40
0.0
 40
0.0
 40
0.0
 40
0.25
 40
0.25
 40
0.25
 40
0.25
 40
0.5
 40
0.5
 40
0.5
 40
0.5
 40
1.0
 40
1.0
 40
1.0
 40
1.0
 10
-80.6104
 20
-10.4447
 30
0.0
 10
-80.6104
 20
-10.4447
 30
0.0
 10
-70.6542
 20
-4.6965
 30
0.0
 10
-70.6542
 20
-4.6965
 30
0.0
 10
-70.6542
 20
-4.6965
 30
0.0
 10
-70.6542
 20
-4.6965
 30
0.0
 10
-70.5738
 20
7.0117
 30
0.0
 10
-70.5738
 20
7.0117
 30
0.0
 10
-70.5738
 20
7.0117
 30
0.0
 10
-70.5738
 20
7.0117
 30
0.0
 10
-80.6104
 20
-10.4447
 30
0.0
 10
-80.6104
 20
-10.4447
 30
0.0
  0
SPLINE
  5
96
330
1F
100
AcDbEntity
  8
layer 1
 62
     7
100
AcDbSpline
210
0.0
220
0.0
230
1.0
 70
    11
 71
     3
 72
    16
 73
    12
 74
     0
 42
0.0000000001
 43
0.0000000001
 12
1.0
 22
0.0
 32
0.0
 13
1.0
 23
0.0
 33
0.0
 40
0.0
 40
0.0
 40
0.0
 40
0.0
 40
0.25
 40
0.25
 40
0.25
 40
0.25
 40
0.5
 40
0.5
 40
0.5
 40
0.5
 40
1.0
 40
1.0
 40
1.0
 40
1.0
 10
-78.9066
 20
-13.3957
 30
0.0
 10
-78.9066
 20
-13.3957
 30
0.0
 10
-70.5088
 20
-8.5473
 30
0.0
 10
-70.5088
 20
-8.5473
 30
0.0
 10
-70.5088
 20
-8.5473
 30
0.0
 10
-70.5088
 20
-8.5473
 30
0.0
 10
-70.6085
 20
-13.4108
 30
0.0
 10
-70.6085
 20
-13.4108
 30
0.0
 10
-70.6085
 20
-13.4108
 30
0.0
 10
-70.6085
 20
-13.4108
 30
0.0
 10
-78.9066
 20
-13.3957
 30
0.0
 10
-78.9066
 20
-13.3957
 30
0.0
  0
SPLINE
  5
97
330
1F
100
AcDbEntity
  8
layer 1
 62
     7
100
AcDbSpline
210
0.0
220
0.0
230
1.0
 70
    11
 71
     3
 72
    16
 73
    12
 74
     0
 42
0.0000000001
 43
0.0000000001
 12
1.0
 22
0.0
 32
0.0
 13
1.0
 23
0.0
 33
0.0
 40
0.0
 40
0.0
 40
0.0
 40
0.0
 40
0.25
 40
0.25
 40
0.25
 40
0.25
 40
0.5
 40
0.5
 40
0.5
 40
0.5
 40
1.0
 40
1.0
 40
1.0
 40
1.0
 10
-80.6104
 20
-18.5723
 30
0.0
 10
-80.6104
 20
-18.5723
 30
0.0
 10
-70.5527
 20
-24.3791
 30
0.0
 10
-70.5527
 20
-24.3791
 30
0.0
 10
-70.5527
 20
-24.3791
 30
0.0
 10
-70.5527
 20
-24.3791
 30
0.0
 10
-70.5237
 20
-36.116
 30
0.0
 10
-70.5237
 20
-36.116
 30
0.0
 10
-70.5237
 20
-36.116
 30
0.0
 10
-70.5237
 20
-36.116
 30
0.0
 10
-80.6104
 20
-18.5723
 30
0.0
 10
-80.6104
 20
-18.5723
 30
0.0
  0
SPLINE
  5
98
330
1F
100
AcDbEntity
  8
layer 1
 62
     7
100
AcDbSpline
210
0.0
220
0.0
230
1.0
 70
    11
 71
     3
 72
    16
 73
    12
 74
     0
 42
0.0000000001
 43
0.0000000001
 12
1.0
 22
0.0
 32
0.0
 13
1.0
 23
0.0
 33
0.0
 40
0.0
 40
0.0
 40
0.0
 40
0.0
 40
0.25
 40
0.25
 40
0.25
 40
0.25
 40
0.5
 40
0.5
 40
0.5
 40
0.5
 40
1.0
 40
1.0
 40
1.0
 40
1.0
 10
-78.9066
 20
-15.6212
 30
0.0
 10
-78.9066
 20
-15.6212
 30
0.0
 10
-70.5958
 20
-20.4194
 30
0.0
 10
-70.5958
 20
-20.4194
 30
0.0
 10
-70.5958
 20
-20.4194
 30
0.0
 10
-70.5958
 20
-20.4194
 30
0.0
 10
-70.5537
 20
-15.6061
 30
0.0
 10
-70.5537
 20
-15.6061
 30
0.0
 10
-70.5537
 20
-15.6061
 30
0.0
 10
-70.5537
 20
-15.6061
 30
0.0
 10
-78.9066
 20
-15.6212
 30
0.0
 10
-78.9066
 20
-15.6212
 30
0.0
  0
SPLINE
  5
99
330
1F
100
AcDbEntity
  8
layer 1
 62
     7
100
AcDbSpline
210
0.0
220
0.0
230
1.0
 70
    11
 71
     3
 72
    16
 73
    12
 74
     0
 42
0.0000000001
 43
0.0000000001
 12
1.0
 22
0.0
 32
0.0
 13
1.0
 23
0.0
 33
0.0
 40
0.0
 40
0.0
 40
0.0
 40
0.0
 40
0.25
 40
0.25
 40
0.25
 40
0.25
 40
0.5
 40
0.5
 40
0.5
 40
0.5
 40
1.0
 40
1.0
 40
1.0
 40
1.0
 10
-169.6137
 20
36.4725
 30
0.0
 10
-169.6137
 20
36.4725
 30
0.0
 10
-179.5699
 20
42.2209
 30
0.0
 10
-179.5699
 20
42.2209
 30
0.0
 10
-179.5699
 20
42.2209
 30
0.0
 10
-179.5699
 20
42.2209
 30
0.0
 10
-179.6504
 20
53.9291
 30
0.0
 10
-179.6504
 20
53.9291
 30
0.0
 10
-179.6504
 20
53.9291
 30
0.0
 10
-179.6504
 20
53.9291
 30
0.0
 10
-169.6137
 20
36.4725
 30
0.0
 10
-169.6137
 20
36.4725
 30
0.0
  0
SPLINE
  5
9A
330
1F
100
AcDbEntity
  8
layer 1
 62
     7
100
AcDbSpline
210
0.0
220
0.0
230
1.0
 70
    11
 71
     3
 72
    16
 73
    12
 74
     0
 42
0.0000000001
 43
0.0000000001
 12
1.0
 22
0.0
 32
0.0
 13
1.0
 23
0.0
 33
0.0
 40
0.0
 40
0.0
 40
0.0
 40
0.0
 40
0.25
 40
0.25
 40
0.25
 40
0.25
 40
0.5
 40
0.5
 40
0.5
 40
0.5
 40
1.0
 40
1.0
 40
1.0
 40
1.0
 10
-171.3175
 20
33.5215
 30
0.0
 10
-171.3175
 20
33.5215
 30
0.0
 10
-179.7152
 20
38.3699
 30
0.0
 10
-179.7152
 20
38.3699
 30
0.0
 10
-179.7152
 20
38.3699
 30
0.0
 10
-179.7152
 20
38.3699
 30
0.0
 10
-179.6156
 20
33.5065
 30
0.0
 10
-179.6156
 20
33.5065
 30
0.0
 10
-179.6156
 20
33.5065
 30
0.0
 10
-179.6156
 20
33.5065
 30
0.0
 10
-171.3175
 20
33.5215
 30
0.0
 10
-171.3175
 20
33.5215
 30
0.0
  0
SPLINE
  5
9B
330
1F
100
AcDbEntity
  8
layer 1
 62
     7
100
AcDbSpline
210
0.0
220
0.0
230
1.0
 70
    11
 71
     3
 72
    16
 73
    12
 74
     0
 42
0.0000000001
 43
0.0000000001
 12
1.0
 22
0.0
 32
0.0
 13
1.0
 23
0.0
 33
0.0
 40
0.0
 40
0.0
 40
0.0
 40
0.0
 40
0.25
 40
0.25
 40
0.25
 40
0.25
 40
0.5
 40
0.5
 40
0.5
 40
0.5
 40
1.0
 40
1.0
 40
1.0
 40
1.0
 10
-169.6137
 20
28.3449
 30
0.0
 10
-169.6137
 20
28.3449
 30
0.0
 10
-179.6714
 20
22.5381
 30
0.0
 10
-179.6714
 20
22.5381
 30
0.0
 10
-179.6714
 20
22.5381
 30
0.0
 10
-179.6714
 20
22.5381
 30
0.0
 10
-179.7005
 20
10.8012
 30
0.0
 10
-179.7005
 20
10.8012
 30
0.0
 10
-179.7005
 20
10.8012
 30
0.0
 10
-179.7005
 20
10.8012
 30
0.0
 10
-169.6137
 20
28.3449
 30
0.0
 10
-169.6137
 20
28.3449
 30
0.0
  0
SPLINE
  5
9C
330
1F
100
AcDbEntity
  8
layer 1
 62
     7
100
AcDbSpline
210
0.0
220
0.0
230
1.0
 70
    11
 71
     3
 72
    16
 73
    12
 74
     0
 42
0.0000000001
 43
0.0000000001
 12
1.0
 22
0.0
 32
0.0
 13
1.0
 23
0.0
 33
0.0
 40
0.0
 40
0.0
 40
0.0
 40
0.0
 40
0.25
 40
0.25
 40
0.25
 40
0.25
 40
0.5
 40
0.5
 40
0.5
 40
0.5
 40
1.0
 40
1.0
 40
1.0
 40
1.0
 10
-171.3175
 20
31.296
 30
0.0
 10
-171.3175
 20
31.296
 30
0.0
 10
-179.6283
 20
26.4977
 30
0.0
 10
-179.6283
 20
26.4977
 30
0.0
 10
-179.6283
 20
26.4977
 30
0.0
 10
-179.6283
 20
26.4977
 30
0.0
 10
-179.6704
 20
31.3111
 30
0.0
 10
-179.6704
 20
31.3111
 30
0.0
 10
-179.6704
 20
31.3111
 30
0.0
 10
-179.6704
 20
31.3111
 30
0.0
 10
-171.3175
 20
31.296
 30
0.0
 10
-171.3175
 20
31.296
 30
0.0
  0
SPLINE
  5
9D
330
1F
100
AcDbEntity
  8
layer 1
 62
     7
100
AcDbSpline
210
0.0
220
0.0
230
1.0
 70
    11
 71
     3
 72
    16
 73
    12
 74
     0
 42
0.0000000001
 43
0.0000000001
 12
1.0
 22
0.0
 32
0.0
 13
1.0
 23
0.0
 33
0.0
 40
0.0
 40
0.0
 40
0.0
 40
0.0
 40
0.25
 40
0.25
 40
0.25
 40
0.25
 40
0.5
 40
0.5
 40
0.5
 40
0.5
 40
1.0
 40
1.0
 40
1.0
 40
1.0
 10
-80.6104
 20
36.4725
 30
0.0
 10
-80.6104
 20
36.4725
 30
0.0
 10
-70.6542
 20
42.2207
 30
0.0
 10
-70.6542
 20
42.2207
 30
0.0
 10
-70.6542
 20
42.2207
 30
0.0
 10
-70.6542
 20
42.2207
 30
0.0
 10
-70.5738
 20
53.929
 30
0.0
 10
-70.5738
 20
53.929
 30
0.0
 10
-70.5738
 20
53.929
 30
0.0
 10
-70.5738
 20
53.929
 30
0.0
 10
-80.6104
 20
36.4725
 30
0.0
 10
-80.6104
 20
36.4725
 30
0.0
  0
SPLINE
  5
9E
330
1F
100
AcDbEntity
  8
layer 1
 62
     7
100
AcDbSpline
210
0.0
220
0.0
230
1.0
 70
    11
 71
     3
 72
    16
 73
    12
 74
     0
 42
0.0000000001
 43
0.0000000001
 12
1.0
 22
0.0
 32
0.0
 13
1.0
 23
0.0
 33
0.0
 40
0.0
 40
0.0
 40
0.0
 40
0.0
 40
0.25
 40
0.25
 40
0.25
 40
0.25
 40
0.5
 40
0.5
 40
0.5
 40
0.5
 40
1.0
 40
1.0
 40
1.0
 40
1.0
 10
-78.9066
 20
33.5215
 30
0.0
 10
-78.9066
 20
33.5215
 30
0.0
 10
-70.5088
 20
38.3699
 30
0.0
 10
-70.5088
 20
38.3699
 30
0.0
 10
-70.5088
 20
38.3699
 30
0.0
 10
-70.5088
 20
38.3699
 30
0.0
 10
-70.6085
 20
33.5065
 30
0.0
 10
-70.6085
 20
33.5065
 30
0.0
 10
-70.6085
 20
33.5065
 30
0.0
 10
-70.6085
 20
33.5065
 30
0.0
 10
-78.9066
 20
33.5215
 30
0.0
 10
-78.9066
 20
33.5215
 30
0.0
  0
SPLINE
  5
9F
330
1F
100
AcDbEntity
  8
layer 1
 62
     7
100
AcDbSpline
210
0.0
220
0.0
230
1.0
 70
    11
 71
     3
 72
    16
 73
    12
 74
     0
 42
0.0000000001
 43
0.0000000001
 12
1.0
 22
0.0
 32
0.0
 13
1.0
 23
0.0
 33
0.0
 40
0.0
 40
0.0
 40
0.0
 40
0.0
 40
0.25
 40
0.25
 40
0.25
 40
0.25
 40
0.5
 40
0.5
 40
0.5
 40
0.5
 40
1.0
 40
1.0
 40
1.0
 40
1.0
 10
-80.6104
 20
28.3449
 30
0.0
 10
-80.6104
 20
28.3449
 30
0.0
 10
-70.5527
 20
22.5381
 30
0.0
 10
-70.5527
 20
22.5381
 30
0.0
 10
-70.5527
 20
22.5381
 30
0.0
 10
-70.5527
 20
22.5381
 30
0.0
 10
-70.5237
 20
10.8012
 30
0.0
 10
-70.5237
 20
10.8012
 30
0.0
 10
-70.5237
 20
10.8012
 30
0.0
 10
-70.5237
 20
10.8012
 30
0.0
 10
-80.6104
 20
28.3449
 30
0.0
 10
-80.6104
 20
28.3449
 30
0.0
  0
SPLINE
  5
A0
330
1F
100
AcDbEntity
  8
layer 1
 62
     7
100
AcDbSpline
210
0.0
220
0.0
230
1.0
 70
    11
 71
     3
 72
    16
 73
    12
 74
     0
 42
0.0000000001
 43
0.0000000001
 12
1.0
 22
0.0
 32
0.0
 13
1.0
 23
0.0
 33
0.0
 40
0.0
 40
0.0
 40
0.0
 40
0.0
 40
0.25
 40
0.25
 40
0.25
 40
0.25
 40
0.5
 40
0.5
 40
0.5
 40
0.5
 40
1.0
 40
1.0
 40
1.0
 40
1.0
 10
-78.9066
 20
31.296
 30
0.0
 10
-78.9066
 20
31.296
 30
0.0
 10
-70.5958
 20
26.4978
 30
0.0
 10
-70.5958
 20
26.4978
 30
0.0
 10
-70.5958
 20
26.4978
 30
0.0
 10
-70.5958
 20
26.4978
 30
0.0
 10
-70.5537
 20
31.3111
 30
0.0
 10
-70.5537
 20
31.3111
 30
0.0
 10
-70.5537
 20
31.3111
 30
0.0
 10
-70.5537
 20
31.3111
 30
0.0
 10
-78.9066
 20
31.296
 30
0.0
 10
-78.9066
 20
31.296
 30
0.0
  0
SPLINE
  5
A1
330
1F
100
AcDbEntity
  8
layer 1
 62
     7
100
AcDbSpline
210
0.0
220
0.0
230
1.0
 70
    11
 71
     3
 72
    16
 73
    12
 74
     0
 42
0.0000000001
 43
0.0000000001
 12
1.0
 22
0.0
 32
0.0
 13
1.0
 23
0.0
 33
0.0
 40
0.0
 40
0.0
 40
0.0
 40
0.0
 40
0.25
 40
0.25
 40
0.25
 40
0.25
 40
0.5
 40
0.5
 40
0.5
 40
0.5
 40
1.0
 40
1.0
 40
1.0
 40
1.0
 10
-169.6137
 20
83.0797
 30
0.0
 10
-169.6137
 20
83.0797
 30
0.0
 10
-179.5699
 20
88.8281
 30
0.0
 10
-179.5699
 20
88.8281
 30
0.0
 10
-179.5699
 20
88.8281
 30
0.0
 10
-179.5699
 20
88.8281
 30
0.0
 10
-179.6504
 20
100.5363
 30
0.0
 10
-179.6504
 20
100.5363
 30
0.0
 10
-179.6504
 20
100.5363
 30
0.0
 10
-179.6504
 20
100.5363
 30
0.0
 10
-169.6137
 20
83.0797
 30
0.0
 10
-169.6137
 20
83.0797
 30
0.0
  0
SPLINE
  5
A2
330
1F
100
AcDbEntity
  8
layer 1
 62
     7
100
AcDbSpline
210
0.0
220
0.0
230
1.0
 70
    11
 71
     3
 72
    16
 73
    12
 74
     0
 42
0.0000000001
 43
0.0000000001
 12
1.0
 22
0.0
 32
0.0
 13
1.0
 23
0.0
 33
0.0
 40
0.0
 40
0.0
 40
0.0
 40
0.0
 40
0.25
 40
0.25
 40
0.25
 40
0.25
 40
0.5
 40
0.5
 40
0.5
 40
0.5
 40
1.0
 40
1.0
 40
1.0
 40
1.0
 10
-171.3175
 20
80.5421
 30
0.0
 10
-171.3175
 20
80.5421
 30
0.0
 10
-179.7152
 20
85.3905
 30
0.0
 10
-179.7152
 20
85.3905
 30
0.0
 10
-179.7152
 20
85.3905
 30
0.0
 10
-179.7152
 20
85.3905
 30
0.0
 10
-179.6156
 20
80.527
 30
0.0
 10
-179.6156
 20
80.527
 30
0.0
 10
-179.6156
 20
80.527
 30
0.0
 10
-179.6156
 20
80.527
 30
0.0
 10
-171.3175
 20
80.5421
 30
0.0
 10
-171.3175
 20
80.5421
 30
0.0
  0
SPLINE
  5
A3
330
1F
100
AcDbEntity
  8
layer 1
 62
     7
100
AcDbSpline
210
0.0
220
0.0
230
1.0
 70
    11
 71
     3
 72
    16
 73
    12
 74
     0
 42
0.0000000001
 43
0.0000000001
 12
1.0
 22
0.0
 32
0.0
 13
1.0
 23
0.0
 33
0.0
 40
0.0
 40
0.0
 40
0.0
 40
0.0
 40
0.25
 40
0.25
 40
0.25
 40
0.25
 40
0.5
 40
0.5
 40
0.5
 40
0.5
 40
1.0
 40
1.0
 40
1.0
 40
1.0
 10
-169.6137
 20
74.9521
 30
0.0
 10
-169.6137
 20
74.9521
 30
0.0
 10
-179.6714
 20
69.1453
 30
0.0
 10
-179.6714
 20
69.1453
 30
0.0
 10
-179.6714
 20
69.1453
 30
0.0
 10
-179.6714
 20
69.1453
 30
0.0
 10
-179.7005
 20
57.4084
 30
0.0
 10
-179.7005
 20
57.4084
 30
0.0
 10
-179.7005
 20
57.4084
 30
0.0
 10
-179.7005
 20
57.4084
 30
0.0
 10
-169.6137
 20
74.9521
 30
0.0
 10
-169.6137
 20
74.9521
 30
0.0
  0
SPLINE
  5
A4
330
1F
100
AcDbEntity
  8
layer 1
 62
     7
100
AcDbSpline
210
0.0
220
0.0
230
1.0
 70
    11
 71
     3
 72
    16
 73
    12
 74
     0
 42
0.0000000001
 43
0.0000000001
 12
1.0
 22
0.0
 32
0.0
 13
1.0
 23
0.0
 33
0.0
 40
0.0
 40
0.0
 40
0.0
 40
0.0
 40
0.25
 40
0.25
 40
0.25
 40
0.25
 40
0.5
 40
0.5
 40
0.5
 40
0.5
 40
1.0
 40
1.0
 40
1.0
 40
1.0
 10
-171.3175
 20
77.9033
 30
0.0
 10
-171.3175
 20
77.9033
 30
0.0
 10
-179.6283
 20
73.1049
 30
0.0
 10
-179.6283
 20
73.1049
 30
0.0
 10
-179.6283
 20
73.1049
 30
0.0
 10
-179.6283
 20
73.1049
 30
0.0
 10
-179.6704
 20
77.9183
 30
0.0
 10
-179.6704
 20
77.9183
 30
0.0
 10
-179.6704
 20
77.9183
 30
0.0
 10
-179.6704
 20
77.9183
 30
0.0
 10
-171.3175
 20
77.9033
 30
0.0
 10
-171.3175
 20
77.9033
 30
0.0
  0
SPLINE
  5
A5
330
1F
100
AcDbEntity
  8
layer 1
 62
     7
100
AcDbSpline
210
0.0
220
0.0
230
1.0
 70
    11
 71
     3
 72
    16
 73
    12
 74
     0
 42
0.0000000001
 43
0.0000000001
 12
1.0
 22
0.0
 32
0.0
 13
1.0
 23
0.0
 33
0.0
 40
0.0
 40
0.0
 40
0.0
 40
0.0
 40
0.25
 40
0.25
 40
0.25
 40
0.25
 40
0.5
 40
0.5
 40
0.5
 40
0.5
 40
1.0
 40
1.0
 40
1.0
 40
1.0
 10
-80.6104
 20
83.0797
 30
0.0
 10
-80.6104
 20
83.0797
 30
0.0
 10
-70.6542
 20
88.828
 30
0.0
 10
-70.6542
 20
88.828
 30
0.0
 10
-70.6542
 20
88.828
 30
0.0
 10
-70.6542
 20
88.828
 30
0.0
 10
-70.5738
 20
100.5362
 30
0.0
 10
-70.5738
 20
100.5362
 30
0.0
 10
-70.5738
 20
100.5362
 30
0.0
 10
-70.5738
 20
100.5362
 30
0.0
 10
-80.6104
 20
83.0797
 30
0.0
 10
-80.6104
 20
83.0797
 30
0.0
  0
SPLINE
  5
A6
330
1F
100
AcDbEntity
  8
layer 1
 62
     7
100
AcDbSpline
210
0.0
220
0.0
230
1.0
 70
    11
 71
     3
 72
    16
 73
    12
 74
     0
 42
0.0000000001
 43
0.0000000001
 12
1.0
 22
0.0
 32
0.0
 13
1.0
 23
0.0
 33
0.0
 40
0.0
 40
0.0
 40
0.0
 40
0.0
 40
0.25
 40
0.25
 40
0.25
 40
0.25
 40
0.5
 40
0.5
 40
0.5
 40
0.5
 40
1.0
 40
1.0
 40
1.0
 40
1.0
 10
-78.9066
 20
80.5421
 30
0.0
 10
-78.9066
 20
80.5421
 30
0.0
 10
-70.5088
 20
85.3905
 30
0.0
 10
-70.5088
 20
85.3905
 30
0.0
 10
-70.5088
 20
85.3905
 30
0.0
 10
-70.5088
 20
85.3905
 30
0.0
 10
-70.6085
 20
80.527
 30
0.0
 10
-70.6085
 20
80.527
 30
0.0
 10
-70.6085
 20
80.527
 30
0.0
 10
-70.6085
 20
80.527
 30
0.0
 10
-78.9066
 20
80.5421
 30
0.0
 10
-78.9066
 20
80.5421
 30
0.0
  0
SPLINE
  5
A7
330
1F
100
AcDbEntity
  8
layer 1
 62
     7
100
AcDbSpline
210
0.0
220
0.0
230
1.0
 70
    11
 71
     3
 72
    16
 73
    12
 74
     0
 42
0.0000000001
 43
0.0000000001
 12
1.0
 22
0.0
 32
0.0
 13
1.0
 23
0.0
 33
0.0
 40
0.0
 40
0.0
 40
0.0
 40
0.0
 40
0.25
 40
0.25
 40
0.25
 40
0.25
 40
0.5
 40
0.5
 40
0.5
 40
0.5
 40
1.0
 40
1.0
 40
1.0
 40
1.0
 10
-80.6104
 20
74.9521
 30
0.0
 10
-80.6104
 20
74.9521
 30
0.0
 10
-70.5527
 20
69.1453
 30
0.0
 10
-70.5527
 20
69.1453
 30
0.0
 10
-70.5527
 20
69.1453
 30
0.0
 10
-70.5527
 20
69.1453
 30
0.0
 10
-70.5237
 20
57.4084
 30
0.0
 10
-70.5237
 20
57.4084
 30
0.0
 10
-70.5237
 20
57.4084
 30
0.0
 10
-70.5237
 20
57.4084
 30
0.0
 10
-80.6104
 20
74.9521
 30
0.0
 10
-80.6104
 20
74.9521
 30
0.0
  0
SPLINE
  5
A8
330
1F
100
AcDbEntity
  8
layer 1
 62
     7
100
AcDbSpline
210
0.0
220
0.0
230
1.0
 70
    11
 71
     3
 72
    16
 73
    12
 74
     0
 42
0.0000000001
 43
0.0000000001
 12
1.0
 22
0.0
 32
0.0
 13
1.0
 23
0.0
 33
0.0
 40
0.0
 40
0.0
 40
0.0
 40
0.0
 40
0.25
 40
0.25
 40
0.25
 40
0.25
 40
0.5
 40
0.5
 40
0.5
 40
0.5
 40
1.0
 40
1.0
 40
1.0
 40
1.0
 10
-78.9066
 20
77.9033
 30
0.0
 10
-78.9066
 20
77.9033
 30
0.0
 10
-70.5958
 20
73.105
 30
0.0
 10
-70.5958
 20
73.105
 30
0.0
 10
-70.5958
 20
73.105
 30
0.0
 10
-70.5958
 20
73.105
 30
0.0
 10
-70.5537
 20
77.9183
 30
0.0
 10
-70.5537
 20
77.9183
 30
0.0
 10
-70.5537
 20
77.9183
 30
0.0
 10
-70.5537
 20
77.9183
 30
0.0
 10
-78.9066
 20
77.9033
 30
0.0
 10
-78.9066
 20
77.9033
 30
0.0
  0
SPLINE
  5
A9
330
1F
100
AcDbEntity
  8
layer 1
 62
     7
100
AcDbSpline
210
0.0
220
0.0
230
1.0
 70
    11
 71
     3
 72
    16
 73
    12
 74
     0
 42
0.0000000001
 43
0.0000000001
 12
1.0
 22
0.0
 32
0.0
 13
1.0
 23
0.0
 33
0.0
 40
0.0
 40
0.0
 40
0.0
 40
0.0
 40
0.25
 40
0.25
 40
0.25
 40
0.25
 40
0.5
 40
0.5
 40
0.5
 40
0.5
 40
1.0
 40
1.0
 40
1.0
 40
1.0
 10
-80.6104
 20
121.8693
 30
0.0
 10
-80.6104
 20
121.8693
 30
0.0
 10
-70.5527
 20
116.0625
 30
0.0
 10
-70.5527
 20
116.0625
 30
0.0
 10
-70.5527
 20
116.0625
 30
0.0
 10
-70.5527
 20
116.0625
 30
0.0
 10
-70.5237
 20
104.3256
 30
0.0
 10
-70.5237
 20
104.3256
 30
0.0
 10
-70.5237
 20
104.3256
 30
0.0
 10
-70.5237
 20
104.3256
 30
0.0
 10
-80.6104
 20
121.8693
 30
0.0
 10
-80.6104
 20
121.8693
 30
0.0
  0
SPLINE
  5
AA
330
1F
100
AcDbEntity
  8
layer 1
 62
     7
100
AcDbSpline
210
0.0
220
0.0
230
1.0
 70
    11
 71
     3
 72
    16
 73
    12
 74
     0
 42
0.0000000001
 43
0.0000000001
 12
1.0
 22
0.0
 32
0.0
 13
1.0
 23
0.0
 33
0.0
 40
0.0
 40
0.0
 40
0.0
 40
0.0
 40
0.25
 40
0.25
 40
0.25
 40
0.25
 40
0.5
 40
0.5
 40
0.5
 40
0.5
 40
1.0
 40
1.0
 40
1.0
 40
1.0
 10
-78.9066
 20
124.8205
 30
0.0
 10
-78.9066
 20
124.8205
 30
0.0
 10
-70.5958
 20
120.0223
 30
0.0
 10
-70.5958
 20
120.0223
 30
0.0
 10
-70.5958
 20
120.0223
 30
0.0
 10
-70.5958
 20
120.0223
 30
0.0
 10
-70.5537
 20
124.8355
 30
0.0
 10
-70.5537
 20
124.8355
 30
0.0
 10
-70.5537
 20
124.8355
 30
0.0
 10
-70.5537
 20
124.8355
 30
0.0
 10
-78.9066
 20
124.8205
 30
0.0
 10
-78.9066
 20
124.8205
 30
0.0
  0
SPLINE
  5
AB
330
1F
100
AcDbEntity
  8
layer 1
 62
     7
100
AcDbSpline
210
0.0
220
0.0
230
1.0
 70
    11
 71
     3
 72
    16
 73
    12
 74
     0
 42
0.0000000001
 43
0.0000000001
 12
1.0
 22
0.0
 32
0.0
 13
1.0
 23
0.0
 33
0.0
 40
0.0
 40
0.0
 40
0.0
 40
0.0
 40
0.25
 40
0.25
 40
0.25
 40
0.25
 40
0.5
 40
0.5
 40
0.5
 40
0.5
 40
1.0
 40
1.0
 40
1.0
 40
1.0
 10
-169.6286
 20
121.8693
 30
0.0
 10
-169.6286
 20
121.8693
 30
0.0
 10
-179.6863
 20
116.0625
 30
0.0
 10
-179.6863
 20
116.0625
 30
0.0
 10
-179.6863
 20
116.0625
 30
0.0
 10
-179.6863
 20
116.0625
 30
0.0
 10
-179.7152
 20
104.3256
 30
0.0
 10
-179.7152
 20
104.3256
 30
0.0
 10
-179.7152
 20
104.3256
 30
0.0
 10
-179.7152
 20
104.3256
 30
0.0
 10
-169.6286
 20
121.8693
 30
0.0
 10
-169.6286
 20
121.8693
 30
0.0
  0
SPLINE
  5
AC
330
1F
100
AcDbEntity
  8
layer 1
 62
     7
100
AcDbSpline
210
0.0
220
0.0
230
1.0
 70
    11
 71
     3
 72
    16
 73
    12
 74
     0
 42
0.0000000001
 43
0.0000000001
 12
1.0
 22
0.0
 32
0.0
 13
1.0
 23
0.0
 33
0.0
 40
0.0
 40
0.0
 40
0.0
 40
0.0
 40
0.25
 40
0.25
 40
0.25
 40
0.25
 40
0.5
 40
0.5
 40
0.5
 40
0.5
 40
1.0
 40
1.0
 40
1.0
 40
1.0
 10
-171.3324
 20
124.8205
 30
0.0
 10
-171.3324
 20
124.8205
 30
0.0
 10
-179.6432
 20
120.0223
 30
0.0
 10
-179.6432
 20
120.0223
 30
0.0
 10
-179.6432
 20
120.0223
 30
0.0
 10
-179.6432
 20
120.0223
 30
0.0
 10
-179.6853
 20
124.8355
 30
0.0
 10
-179.6853
 20
124.8355
 30
0.0
 10
-179.6853
 20
124.8355
 30
0.0
 10
-179.6853
 20
124.8355
 30
0.0
 10
-171.3324
 20
124.8205
 30
0.0
 10
-171.3324
 20
124.8205
 30
0.0
  0
SPLINE
  5
AD
330
1F
100
AcDbEntity
  8
layer 1
 62
     7
100
AcDbSpline
210
0.0
220
0.0
230
1.0
 70
    11
 71
     3
 72
    16
 73
    12
 74
     0
 42
0.0000000001
 43
0.0000000001
 12
1.0
 22
0.0
 32
0.0
 13
1.0
 23
0.0
 33
0.0
 40
0.0
 40
0.0
 40
0.0
 40
0.0
 40
0.25
 40
0.25
 40
0.25
 40
0.25
 40
0.5
 40
0.5
 40
0.5
 40
0.5
 40
1.0
 40
1.0
 40
1.0
 40
1.0
 10
-80.6104
 20
-103.7624
 30
0.0
 10
-80.6104
 20
-103.7624
 30
0.0
 10
-70.6542
 20
-98.0142
 30
0.0
 10
-70.6542
 20
-98.0142
 30
0.0
 10
-70.6542
 20
-98.0142
 30
0.0
 10
-70.6542
 20
-98.0142
 30
0.0
 10
-70.5738
 20
-86.306
 30
0.0
 10
-70.5738
 20
-86.306
 30
0.0
 10
-70.5738
 20
-86.306
 30
0.0
 10
-70.5738
 20
-86.306
 30
0.0
 10
-80.6104
 20
-103.7624
 30
0.0
 10
-80.6104
 20
-103.7624
 30
0.0
  0
SPLINE
  5
AE
330
1F
100
AcDbEntity
  8
layer 1
 62
     7
100
AcDbSpline
210
0.0
220
0.0
230
1.0
 70
    11
 71
     3
 72
    16
 73
    12
 74
     0
 42
0.0000000001
 43
0.0000000001
 12
1.0
 22
0.0
 32
0.0
 13
1.0
 23
0.0
 33
0.0
 40
0.0
 40
0.0
 40
0.0
 40
0.0
 40
0.25
 40
0.25
 40
0.25
 40
0.25
 40
0.5
 40
0.5
 40
0.5
 40
0.5
 40
1.0
 40
1.0
 40
1.0
 40
1.0
 10
-78.9066
 20
-106.7135
 30
0.0
 10
-78.9066
 20
-106.7135
 30
0.0
 10
-70.5088
 20
-101.865
 30
0.0
 10
-70.5088
 20
-101.865
 30
0.0
 10
-70.5088
 20
-101.865
 30
0.0
 10
-70.5088
 20
-101.865
 30
0.0
 10
-70.6085
 20
-106.7285
 30
0.0
 10
-70.6085
 20
-106.7285
 30
0.0
 10
-70.6085
 20
-106.7285
 30
0.0
 10
-70.6085
 20
-106.7285
 30
0.0
 10
-78.9066
 20
-106.7135
 30
0.0
 10
-78.9066
 20
-106.7135
 30
0.0
  0
SPLINE
  5
AF
330
1F
100
AcDbEntity
  8
layer 1
 62
     7
100
AcDbSpline
210
0.0
220
0.0
230
1.0
 70
    11
 71
     3
 72
    16
 73
    12
 74
     0
 42
0.0000000001
 43
0.0000000001
 12
1.0
 22
0.0
 32
0.0
 13
1.0
 23
0.0
 33
0.0
 40
0.0
 40
0.0
 40
0.0
 40
0.0
 40
0.25
 40
0.25
 40
0.25
 40
0.25
 40
0.5
 40
0.5
 40
0.5
 40
0.5
 40
1.0
 40
1.0
 40
1.0
 40
1.0
 10
-169.7142
 20
-103.7624
 30
0.0
 10
-169.7142
 20
-103.7624
 30
0.0
 10
-179.6705
 20
-98.0142
 30
0.0
 10
-179.6705
 20
-98.0142
 30
0.0
 10
-179.6705
 20
-98.0142
 30
0.0
 10
-179.6705
 20
-98.0142
 30
0.0
 10
-179.7508
 20
-86.306
 30
0.0
 10
-179.7508
 20
-86.306
 30
0.0
 10
-179.7508
 20
-86.306
 30
0.0
 10
-179.7508
 20
-86.306
 30
0.0
 10
-169.7142
 20
-103.7624
 30
0.0
 10
-169.7142
 20
-103.7624
 30
0.0
  0
SPLINE
  5
B0
330
1F
100
AcDbEntity
  8
layer 1
 62
     7
100
AcDbSpline
210
0.0
220
0.0
230
1.0
 70
    11
 71
     3
 72
    16
 73
    12
 74
     0
 42
0.0000000001
 43
0.0000000001
 12
1.0
 22
0.0
 32
0.0
 13
1.0
 23
0.0
 33
0.0
 40
0.0
 40
0.0
 40
0.0
 40
0.0
 40
0.25
 40
0.25
 40
0.25
 40
0.25
 40
0.5
 40
0.5
 40
0.5
 40
0.5
 40
1.0
 40
1.0
 40
1.0
 40
1.0
 10
-171.4181
 20
-106.7135
 30
0.0
 10
-171.4181
 20
-106.7135
 30
0.0
 10
-179.8158
 20
-101.865
 30
0.0
 10
-179.8158
 20
-101.865
 30
0.0
 10
-179.8158
 20
-101.865
 30
0.0
 10
-179.8158
 20
-101.865
 30
0.0
 10
-179.7161
 20
-106.7285
 30
0.0
 10
-179.7161
 20
-106.7285
 30
0.0
 10
-179.7161
 20
-106.7285
 30
0.0
 10
-179.7161
 20
-106.7285
 30
0.0
 10
-171.4181
 20
-106.7135
 30
0.0
 10
-171.4181
 20
-106.7135
 30
0.0
  0
SPLINE
  5
B1
330
1F
100
AcDbEntity
  8
layer 1
 62
     7
100
AcDbSpline
210
0.0
220
0.0
230
1.0
 70
    11
 71
     3
 72
    16
 73
    12
 74
     0
 42
0.0000000001
 43
0.0000000001
 12
1.0
 22
0.0
 32
0.0
 13
1.0
 23
0.0
 33
0.0
 40
0.0
 40
0.0
 40
0.0
 40
0.0
 40
0.25
 40
0.25
 40
0.25
 40
0.25
 40
0.5
 40
0.5
 40
0.5
 40
0.5
 40
1.0
 40
1.0
 40
1.0
 40
1.0
 10
-123.583
 20
-106.9564
 30
0.0
 10
-123.583
 20
-106.9564
 30
0.0
 10
-123.583
 20
-89.7958
 30
0.0
 10
-123.583
 20
-89.7958
 30
0.0
 10
-123.583
 20
-89.7958
 30
0.0
 10
-123.583
 20
-89.7958
 30
0.0
 10
-113.8954
 20
-106.9156
 30
0.0
 10
-113.8954
 20
-106.9156
 30
0.0
 10
-113.8954
 20
-106.9156
 30
0.0
 10
-113.8954
 20
-106.9156
 30
0.0
 10
-123.583
 20
-106.9564
 30
0.0
 10
-123.583
 20
-106.9564
 30
0.0
  0
SPLINE
  5
B2
330
1F
100
AcDbEntity
  8
layer 1
100
AcDbSpline
210
0.0
220
0.0
230
1.0
 70
    11
 71
     3
 72
    20
 73
    16
 74
     0
 42
0.0000000001
 43
0.0000000001
 12
1.0
 22
0.0
 32
0.0
 13
1.0
 23
0.0
 33
0.0
 40
0.0
 40
0.0
 40
0.0
 40
0.0
 40
0.2
 40
0.2
 40
0.2
 40
0.2
 40
0.4
 40
0.4
 40
0.4
 40
0.4
 40
0.6
 40
0.6
 40
0.6
 40
0.6
 40
1.0
 40
1.0
 40
1.0
 40
1.0
 10
-57.2124
 20
131.858
 30
0.0
 10
-57.2124
 20
131.858
 30
0.0
 10
67.3165
 20
131.858
 30
0.0
 10
67.3165
 20
131.858
 30
0.0
 10
67.3165
 20
131.858
 30
0.0
 10
67.3165
 20
131.858
 30
0.0
 10
67.3165
 20
-115.165
 30
0.0
 10
67.3165
 20
-115.165
 30
0.0
 10
67.3165
 20
-115.165
 30
0.0
 10
67.3165
 20
-115.165
 30
0.0
 10
-57.2124
 20
-115.165
 30
0.0
 10
-57.2124
 20
-115.165
 30
0.0
 10
-57.2124
 20
-115.165
 30
0.0
 10
-57.2124
 20
-115.165
 30
0.0
 10
-57.2124
 20
131.858
 30
0.0
 10
-57.2124
 20
131.858
 30
0.0
  0
SPLINE
  5
B3
330
1F
100
AcDbEntity
  8
layer 1
 62
     7
100
AcDbSpline
210
0.0
220
0.0
230
1.0
 70
    11
 71
     3
 72
    16
 73
    12
 74
     0
 42
0.0000000001
 43
0.0000000001
 12
1.0
 22
0.0
 32
0.0
 13
1.0
 23
0.0
 33
0.0
 40
0.0
 40
0.0
 40
0.0
 40
0.0
 40
0.25
 40
0.25
 40
0.25
 40
0.25
 40
0.5
 40
0.5
 40
0.5
 40
0.5
 40
1.0
 40
1.0
 40
1.0
 40
1.0
 10
6.66
 20
43.9971
 30
0.0
 10
6.66
 20
43.9971
 30
0.0
 10
6.4487
 20
16.2853
 30
0.0
 10
6.4487
 20
16.2853
 30
0.0
 10
6.4487
 20
16.2853
 30
0.0
 10
6.4487
 20
16.2853
 30
0.0
 10
13.4248
 20
37.2145
 30
0.0
 10
13.4248
 20
37.2145
 30
0.0
 10
13.4248
 20
37.2145
 30
0.0
 10
13.4248
 20
37.2145
 30
0.0
 10
6.66
 20
43.9971
 30
0.0
 10
6.66
 20
43.9971
 30
0.0
  0
SPLINE
  5
B4
330
1F
100
AcDbEntity
  8
layer 1
 62
     7
100
AcDbSpline
210
0.0
220
0.0
230
1.0
 70
    11
 71
     3
 72
    16
 73
    12
 74
     0
 42
0.0000000001
 43
0.0000000001
 12
1.0
 22
0.0
 32
0.0
 13
1.0
 23
0.0
 33
0.0
 40
0.0
 40
0.0
 40
0.0
 40
0.0
 40
0.25
 40
0.25
 40
0.25
 40
0.25
 40
0.5
 40
0.5
 40
0.5
 40
0.5
 40
1.0
 40
1.0
 40
1.0
 40
1.0
 10
15.5806
 20
34.8722
 30
0.0
 10
15.5806
 20
34.8722
 30
0.0
 10
8.2736
 20
13.3652
 30
0.0
 10
8.2736
 20
13.3652
 30
0.0
 10
8.2736
 20
13.3652
 30
0.0
 10
8.2736
 20
13.3652
 30
0.0
 10
22.874
 20
27.847
 30
0.0
 10
22.874
 20
27.847
 30
0.0
 10
22.874
 20
27.847
 30
0.0
 10
22.874
 20
27.847
 30
0.0
 10
15.5806
 20
34.8722
 30
0.0
 10
15.5806
 20
34.8722
 30
0.0
  0
SPLINE
  5
B5
330
1F
100
AcDbEntity
  8
layer 1
 62
     7
100
AcDbSpline
210
0.0
220
0.0
230
1.0
 70
    11
 71
     3
 72
    16
 73
    12
 74
     0
 42
0.0000000001
 43
0.0000000001
 12
1.0
 22
0.0
 32
0.0
 13
1.0
 23
0.0
 33
0.0
 40
0.0
 40
0.0
 40
0.0
 40
0.0
 40
0.25
 40
0.25
 40
0.25
 40
0.25
 40
0.5
 40
0.5
 40
0.5
 40
0.5
 40
1.0
 40
1.0
 40
1.0
 40
1.0
 10
24.7456
 20
25.9102
 30
0.0
 10
24.7456
 20
25.9102
 30
0.0
 10
10.5033
 20
11.3796
 30
0.0
 10
10.5033
 20
11.3796
 30
0.0
 10
10.5033
 20
11.3796
 30
0.0
 10
10.5033
 20
11.3796
 30
0.0
 10
31.8361
 20
18.7231
 30
0.0
 10
31.8361
 20
18.7231
 30
0.0
 10
31.8361
 20
18.7231
 30
0.0
 10
31.8361
 20
18.7231
 30
0.0
 10
24.7456
 20
25.9102
 30
0.0
 10
24.7456
 20
25.9102
 30
0.0
  0
SPLINE
  5
B6
330
1F
100
AcDbEntity
  8
layer 1
 62
     7
100
AcDbSpline
210
0.0
220
0.0
230
1.0
 70
    11
 71
     3
 72
    16
 73
    12
 74
     0
 42
0.0000000001
 43
0.0000000001
 12
1.0
 22
0.0
 32
0.0
 13
1.0
 23
0.0
 33
0.0
 40
0.0
 40
0.0
 40
0.0
 40
0.0
 40
0.25
 40
0.25
 40
0.25
 40
0.25
 40
0.5
 40
0.5
 40
0.5
 40
0.5
 40
1.0
 40
1.0
 40
1.0
 40
1.0
 10
33.951
 20
16.7455
 30
0.0
 10
33.951
 20
16.7455
 30
0.0
 10
14.073
 20
9.5543
 30
0.0
 10
14.073
 20
9.5543
 30
0.0
 10
14.073
 20
9.5543
 30
0.0
 10
14.073
 20
9.5543
 30
0.0
 10
41.0414
 20
9.5585
 30
0.0
 10
41.0414
 20
9.5585
 30
0.0
 10
41.0414
 20
9.5585
 30
0.0
 10
41.0414
 20
9.5585
 30
0.0
 10
33.951
 20
16.7455
 30
0.0
 10
33.951
 20
16.7455
 30
0.0
  0
SPLINE
  5
B7
330
1F
100
AcDbEntity
  8
layer 1
 62
     7
100
AcDbSpline
210
0.0
220
0.0
230
1.0
 70
    11
 71
     3
 72
    16
 73
    12
 74
     0
 42
0.0000000001
 43
0.0000000001
 12
1.0
 22
0.0
 32
0.0
 13
1.0
 23
0.0
 33
0.0
 40
0.0
 40
0.0
 40
0.0
 40
0.0
 40
0.25
 40
0.25
 40
0.25
 40
0.25
 40
0.5
 40
0.5
 40
0.5
 40
0.5
 40
1.0
 40
1.0
 40
1.0
 40
1.0
 10
3.635
 20
43.9971
 30
0.0
 10
3.635
 20
43.9971
 30
0.0
 10
3.846
 20
16.2853
 30
0.0
 10
3.846
 20
16.2853
 30
0.0
 10
3.846
 20
16.2853
 30
0.0
 10
3.846
 20
16.2853
 30
0.0
 10
-3.1301
 20
37.2145
 30
0.0
 10
-3.1301
 20
37.2145
 30
0.0
 10
-3.1301
 20
37.2145
 30
0.0
 10
-3.1301
 20
37.2145
 30
0.0
 10
3.635
 20
43.9971
 30
0.0
 10
3.635
 20
43.9971
 30
0.0
  0
SPLINE
  5
B8
330
1F
100
AcDbEntity
  8
layer 1
 62
     7
100
AcDbSpline
210
0.0
220
0.0
230
1.0
 70
    11
 71
     3
 72
    16
 73
    12
 74
     0
 42
0.0000000001
 43
0.0000000001
 12
1.0
 22
0.0
 32
0.0
 13
1.0
 23
0.0
 33
0.0
 40
0.0
 40
0.0
 40
0.0
 40
0.0
 40
0.25
 40
0.25
 40
0.25
 40
0.25
 40
0.5
 40
0.5
 40
0.5
 40
0.5
 40
1.0
 40
1.0
 40
1.0
 40
1.0
 10
-5.2859
 20
34.8722
 30
0.0
 10
-5.2859
 20
34.8722
 30
0.0
 10
2.021
 20
13.3652
 30
0.0
 10
2.021
 20
13.3652
 30
0.0
 10
2.021
 20
13.3652
 30
0.0
 10
2.021
 20
13.3652
 30
0.0
 10
-12.5792
 20
27.847
 30
0.0
 10
-12.5792
 20
27.847
 30
0.0
 10
-12.5792
 20
27.847
 30
0.0
 10
-12.5792
 20
27.847
 30
0.0
 10
-5.2859
 20
34.8722
 30
0.0
 10
-5.2859
 20
34.8722
 30
0.0
  0
SPLINE
  5
B9
330
1F
100
AcDbEntity
  8
layer 1
 62
     7
100
AcDbSpline
210
0.0
220
0.0
230
1.0
 70
    11
 71
     3
 72
    16
 73
    12
 74
     0
 42
0.0000000001
 43
0.0000000001
 12
1.0
 22
0.0
 32
0.0
 13
1.0
 23
0.0
 33
0.0
 40
0.0
 40
0.0
 40
0.0
 40
0.0
 40
0.25
 40
0.25
 40
0.25
 40
0.25
 40
0.5
 40
0.5
 40
0.5
 40
0.5
 40
1.0
 40
1.0
 40
1.0
 40
1.0
 10
-14.4519
 20
25.9102
 30
0.0
 10
-14.4519
 20
25.9102
 30
0.0
 10
-0.2101
 20
11.3796
 30
0.0
 10
-0.2101
 20
11.3796
 30
0.0
 10
-0.2101
 20
11.3796
 30
0.0
 10
-0.2101
 20
11.3796
 30
0.0
 10
-21.541
 20
18.7231
 30
0.0
 10
-21.541
 20
18.7231
 30
0.0
 10
-21.541
 20
18.7231
 30
0.0
 10
-21.541
 20
18.7231
 30
0.0
 10
-14.4519
 20
25.9102
 30
0.0
 10
-14.4519
 20
25.9102
 30
0.0
  0
SPLINE
  5
BA
330
1F
100
AcDbEntity
  8
layer 1
 62
     7
100
AcDbSpline
210
0.0
220
0.0
230
1.0
 70
    11
 71
     3
 72
    16
 73
    12
 74
     0
 42
0.0000000001
 43
0.0000000001
 12
1.0
 22
0.0
 32
0.0
 13
1.0
 23
0.0
 33
0.0
 40
0.0
 40
0.0
 40
0.0
 40
0.0
 40
0.25
 40
0.25
 40
0.25
 40
0.25
 40
0.5
 40
0.5
 40
0.5
 40
0.5
 40
1.0
 40
1.0
 40
1.0
 40
1.0
 10
-23.6563
 20
16.7455
 30
0.0
 10
-23.6563
 20
16.7455
 30
0.0
 10
-3.7783
 20
9.5543
 30
0.0
 10
-3.7783
 20
9.5543
 30
0.0
 10
-3.7783
 20
9.5543
 30
0.0
 10
-3.7783
 20
9.5543
 30
0.0
 10
-30.7468
 20
9.5585
 30
0.0
 10
-30.7468
 20
9.5585
 30
0.0
 10
-30.7468
 20
9.5585
 30
0.0
 10
-30.7468
 20
9.5585
 30
0.0
 10
-23.6563
 20
16.7455
 30
0.0
 10
-23.6563
 20
16.7455
 30
0.0
  0
SPLINE
  5
BB
330
1F
100
AcDbEntity
  8
layer 1
 62
     7
100
AcDbSpline
210
0.0
220
0.0
230
1.0
 70
    11
 71
     3
 72
    16
 73
    12
 74
     0
 42
0.0000000001
 43
0.0000000001
 12
1.0
 22
0.0
 32
0.0
 13
1.0
 23
0.0
 33
0.0
 40
0.0
 40
0.0
 40
0.0
 40
0.0
 40
0.25
 40
0.25
 40
0.25
 40
0.25
 40
0.5
 40
0.5
 40
0.5
 40
0.5
 40
1.0
 40
1.0
 40
1.0
 40
1.0
 10
6.66
 20
-27.8835
 30
0.0
 10
6.66
 20
-27.8835
 30
0.0
 10
6.4487
 20
-0.1727
 30
0.0
 10
6.4487
 20
-0.1727
 30
0.0
 10
6.4487
 20
-0.1727
 30
0.0
 10
6.4487
 20
-0.1727
 30
0.0
 10
13.4248
 20
-21.1021
 30
0.0
 10
13.4248
 20
-21.1021
 30
0.0
 10
13.4248
 20
-21.1021
 30
0.0
 10
13.4248
 20
-21.1021
 30
0.0
 10
6.66
 20
-27.8835
 30
0.0
 10
6.66
 20
-27.8835
 30
0.0
  0
SPLINE
  5
BC
330
1F
100
AcDbEntity
  8
layer 1
 62
     7
100
AcDbSpline
210
0.0
220
0.0
230
1.0
 70
    11
 71
     3
 72
    16
 73
    12
 74
     0
 42
0.0000000001
 43
0.0000000001
 12
1.0
 22
0.0
 32
0.0
 13
1.0
 23
0.0
 33
0.0
 40
0.0
 40
0.0
 40
0.0
 40
0.0
 40
0.25
 40
0.25
 40
0.25
 40
0.25
 40
0.5
 40
0.5
 40
0.5
 40
0.5
 40
1.0
 40
1.0
 40
1.0
 40
1.0
 10
15.5806
 20
-18.7596
 30
0.0
 10
15.5806
 20
-18.7596
 30
0.0
 10
8.2736
 20
2.7473
 30
0.0
 10
8.2736
 20
2.7473
 30
0.0
 10
8.2736
 20
2.7473
 30
0.0
 10
8.2736
 20
2.7473
 30
0.0
 10
22.874
 20
-11.7344
 30
0.0
 10
22.874
 20
-11.7344
 30
0.0
 10
22.874
 20
-11.7344
 30
0.0
 10
22.874
 20
-11.7344
 30
0.0
 10
15.5806
 20
-18.7596
 30
0.0
 10
15.5806
 20
-18.7596
 30
0.0
  0
SPLINE
  5
BD
330
1F
100
AcDbEntity
  8
layer 1
 62
     7
100
AcDbSpline
210
0.0
220
0.0
230
1.0
 70
    11
 71
     3
 72
    16
 73
    12
 74
     0
 42
0.0000000001
 43
0.0000000001
 12
1.0
 22
0.0
 32
0.0
 13
1.0
 23
0.0
 33
0.0
 40
0.0
 40
0.0
 40
0.0
 40
0.0
 40
0.25
 40
0.25
 40
0.25
 40
0.25
 40
0.5
 40
0.5
 40
0.5
 40
0.5
 40
1.0
 40
1.0
 40
1.0
 40
1.0
 10
24.7456
 20
-9.7966
 30
0.0
 10
24.7456
 20
-9.7966
 30
0.0
 10
10.5033
 20
4.7344
 30
0.0
 10
10.5033
 20
4.7344
 30
0.0
 10
10.5033
 20
4.7344
 30
0.0
 10
10.5033
 20
4.7344
 30
0.0
 10
31.8361
 20
-2.6091
 30
0.0
 10
31.8361
 20
-2.6091
 30
0.0
 10
31.8361
 20
-2.6091
 30
0.0
 10
31.8361
 20
-2.6091
 30
0.0
 10
24.7456
 20
-9.7966
 30
0.0
 10
24.7456
 20
-9.7966
 30
0.0
  0
SPLINE
  5
BE
330
1F
100
AcDbEntity
  8
layer 1
 62
     7
100
AcDbSpline
210
0.0
220
0.0
230
1.0
 70
    11
 71
     3
 72
    16
 73
    12
 74
     0
 42
0.0000000001
 43
0.0000000001
 12
1.0
 22
0.0
 32
0.0
 13
1.0
 23
0.0
 33
0.0
 40
0.0
 40
0.0
 40
0.0
 40
0.0
 40
0.25
 40
0.25
 40
0.25
 40
0.25
 40
0.5
 40
0.5
 40
0.5
 40
0.5
 40
1.0
 40
1.0
 40
1.0
 40
1.0
 10
33.951
 20
-0.632
 30
0.0
 10
33.951
 20
-0.632
 30
0.0
 10
14.073
 20
6.5593
 30
0.0
 10
14.073
 20
6.5593
 30
0.0
 10
14.073
 20
6.5593
 30
0.0
 10
14.073
 20
6.5593
 30
0.0
 10
41.0414
 20
6.5554
 30
0.0
 10
41.0414
 20
6.5554
 30
0.0
 10
41.0414
 20
6.5554
 30
0.0
 10
41.0414
 20
6.5554
 30
0.0
 10
33.951
 20
-0.632
 30
0.0
 10
33.951
 20
-0.632
 30
0.0
  0
SPLINE
  5
BF
330
1F
100
AcDbEntity
  8
layer 1
 62
     7
100
AcDbSpline
210
0.0
220
0.0
230
1.0
 70
    11
 71
     3
 72
    16
 73
    12
 74
     0
 42
0.0000000001
 43
0.0000000001
 12
1.0
 22
0.0
 32
0.0
 13
1.0
 23
0.0
 33
0.0
 40
0.0
 40
0.0
 40
0.0
 40
0.0
 40
0.25
 40
0.25
 40
0.25
 40
0.25
 40
0.5
 40
0.5
 40
0.5
 40
0.5
 40
1.0
 40
1.0
 40
1.0
 40
1.0
 10
3.635
 20
-27.8835
 30
0.0
 10
3.635
 20
-27.8835
 30
0.0
 10
3.846
 20
-0.1727
 30
0.0
 10
3.846
 20
-0.1727
 30
0.0
 10
3.846
 20
-0.1727
 30
0.0
 10
3.846
 20
-0.1727
 30
0.0
 10
-3.1301
 20
-21.1021
 30
0.0
 10
-3.1301
 20
-21.1021
 30
0.0
 10
-3.1301
 20
-21.1021
 30
0.0
 10
-3.1301
 20
-21.1021
 30
0.0
 10
3.635
 20
-27.8835
 30
0.0
 10
3.635
 20
-27.8835
 30
0.0
  0
SPLINE
  5
C0
330
1F
100
AcDbEntity
  8
layer 1
 62
     7
100
AcDbSpline
210
0.0
220
0.0
230
1.0
 70
    11
 71
     3
 72
    16
 73
    12
 74
     0
 42
0.0000000001
 43
0.0000000001
 12
1.0
 22
0.0
 32
0.0
 13
1.0
 23
0.0
 33
0.0
 40
0.0
 40
0.0
 40
0.0
 40
0.0
 40
0.25
 40
0.25
 40
0.25
 40
0.25
 40
0.5
 40
0.5
 40
0.5
 40
0.5
 40
1.0
 40
1.0
 40
1.0
 40
1.0
 10
-5.2859
 20
-18.7596
 30
0.0
 10
-5.2859
 20
-18.7596
 30
0.0
 10
2.021
 20
2.7473
 30
0.0
 10
2.021
 20
2.7473
 30
0.0
 10
2.021
 20
2.7473
 30
0.0
 10
2.021
 20
2.7473
 30
0.0
 10
-12.5792
 20
-11.7344
 30
0.0
 10
-12.5792
 20
-11.7344
 30
0.0
 10
-12.5792
 20
-11.7344
 30
0.0
 10
-12.5792
 20
-11.7344
 30
0.0
 10
-5.2859
 20
-18.7596
 30
0.0
 10
-5.2859
 20
-18.7596
 30
0.0
  0
SPLINE
  5
C1
330
1F
100
AcDbEntity
  8
layer 1
 62
     7
100
AcDbSpline
210
0.0
220
0.0
230
1.0
 70
    11
 71
     3
 72
    16
 73
    12
 74
     0
 42
0.0000000001
 43
0.0000000001
 12
1.0
 22
0.0
 32
0.0
 13
1.0
 23
0.0
 33
0.0
 40
0.0
 40
0.0
 40
0.0
 40
0.0
 40
0.25
 40
0.25
 40
0.25
 40
0.25
 40
0.5
 40
0.5
 40
0.5
 40
0.5
 40
1.0
 40
1.0
 40
1.0
 40
1.0
 10
-14.4519
 20
-9.7966
 30
0.0
 10
-14.4519
 20
-9.7966
 30
0.0
 10
-0.2101
 20
4.7344
 30
0.0
 10
-0.2101
 20
4.7344
 30
0.0
 10
-0.2101
 20
4.7344
 30
0.0
 10
-0.2101
 20
4.7344
 30
0.0
 10
-21.541
 20
-2.6091
 30
0.0
 10
-21.541
 20
-2.6091
 30
0.0
 10
-21.541
 20
-2.6091
 30
0.0
 10
-21.541
 20
-2.6091
 30
0.0
 10
-14.4519
 20
-9.7966
 30
0.0
 10
-14.4519
 20
-9.7966
 30
0.0
  0
SPLINE
  5
C2
330
1F
100
AcDbEntity
  8
layer 1
 62
     7
100
AcDbSpline
210
0.0
220
0.0
230
1.0
 70
    11
 71
     3
 72
    16
 73
    12
 74
     0
 42
0.0000000001
 43
0.0000000001
 12
1.0
 22
0.0
 32
0.0
 13
1.0
 23
0.0
 33
0.0
 40
0.0
 40
0.0
 40
0.0
 40
0.0
 40
0.25
 40
0.25
 40
0.25
 40
0.25
 40
0.5
 40
0.5
 40
0.5
 40
0.5
 40
1.0
 40
1.0
 40
1.0
 40
1.0
 10
-23.6563
 20
-0.632
 30
0.0
 10
-23.6563
 20
-0.632
 30
0.0
 10
-3.7783
 20
6.5593
 30
0.0
 10
-3.7783
 20
6.5593
 30
0.0
 10
-3.7783
 20
6.5593
 30
0.0
 10
-3.7783
 20
6.5593
 30
0.0
 10
-30.7468
 20
6.5554
 30
0.0
 10
-30.7468
 20
6.5554
 30
0.0
 10
-30.7468
 20
6.5554
 30
0.0
 10
-30.7468
 20
6.5554
 30
0.0
 10
-23.6563
 20
-0.632
 30
0.0
 10
-23.6563
 20
-0.632
 30
0.0
  0
SPLINE
  5
C3
330
1F
100
AcDbEntity
  8
layer 1
 62
     7
100
AcDbSpline
210
0.0
220
0.0
230
1.0
 70
    11
 71
     3
 72
    16
 73
    12
 74
     0
 42
0.0000000001
 43
0.0000000001
 12
1.0
 22
0.0
 32
0.0
 13
1.0
 23
0.0
 33
0.0
 40
0.0
 40
0.0
 40
0.0
 40
0.0
 40
0.25
 40
0.25
 40
0.25
 40
0.25
 40
0.5
 40
0.5
 40
0.5
 40
0.5
 40
1.0
 40
1.0
 40
1.0
 40
1.0
 10
46.0765
 20
83.7383
 30
0.0
 10
46.0765
 20
83.7383
 30
0.0
 10
45.8656
 20
56.0274
 30
0.0
 10
45.8656
 20
56.0274
 30
0.0
 10
45.8656
 20
56.0274
 30
0.0
 10
45.8656
 20
56.0274
 30
0.0
 10
52.843
 20
76.9571
 30
0.0
 10
52.843
 20
76.9571
 30
0.0
 10
52.843
 20
76.9571
 30
0.0
 10
52.843
 20
76.9571
 30
0.0
 10
46.0765
 20
83.7383
 30
0.0
 10
46.0765
 20
83.7383
 30
0.0
  0
SPLINE
  5
C4
330
1F
100
AcDbEntity
  8
layer 1
 62
     7
100
AcDbSpline
210
0.0
220
0.0
230
1.0
 70
    11
 71
     3
 72
    16
 73
    12
 74
     0
 42
0.0000000001
 43
0.0000000001
 12
1.0
 22
0.0
 32
0.0
 13
1.0
 23
0.0
 33
0.0
 40
0.0
 40
0.0
 40
0.0
 40
0.0
 40
0.25
 40
0.25
 40
0.25
 40
0.25
 40
0.5
 40
0.5
 40
0.5
 40
0.5
 40
1.0
 40
1.0
 40
1.0
 40
1.0
 10
43.0518
 20
83.7383
 30
0.0
 10
43.0518
 20
83.7383
 30
0.0
 10
43.2627
 20
56.0274
 30
0.0
 10
43.2627
 20
56.0274
 30
0.0
 10
43.2627
 20
56.0274
 30
0.0
 10
43.2627
 20
56.0274
 30
0.0
 10
36.2867
 20
76.9571
 30
0.0
 10
36.2867
 20
76.9571
 30
0.0
 10
36.2867
 20
76.9571
 30
0.0
 10
36.2867
 20
76.9571
 30
0.0
 10
43.0518
 20
83.7383
 30
0.0
 10
43.0518
 20
83.7383
 30
0.0
  0
SPLINE
  5
C5
330
1F
100
AcDbEntity
  8
layer 1
 62
     7
100
AcDbSpline
210
0.0
220
0.0
230
1.0
 70
    11
 71
     3
 72
    16
 73
    12
 74
     0
 42
0.0000000001
 43
0.0000000001
 12
1.0
 22
0.0
 32
0.0
 13
1.0
 23
0.0
 33
0.0
 40
0.0
 40
0.0
 40
0.0
 40
0.0
 40
0.25
 40
0.25
 40
0.25
 40
0.25
 40
0.5
 40
0.5
 40
0.5
 40
0.5
 40
1.0
 40
1.0
 40
1.0
 40
1.0
 10
34.131
 20
74.6145
 30
0.0
 10
34.131
 20
74.6145
 30
0.0
 10
41.438
 20
53.1073
 30
0.0
 10
41.438
 20
53.1073
 30
0.0
 10
41.438
 20
53.1073
 30
0.0
 10
41.438
 20
53.1073
 30
0.0
 10
26.8376
 20
67.5894
 30
0.0
 10
26.8376
 20
67.5894
 30
0.0
 10
26.8376
 20
67.5894
 30
0.0
 10
26.8376
 20
67.5894
 30
0.0
 10
34.131
 20
74.6145
 30
0.0
 10
34.131
 20
74.6145
 30
0.0
  0
SPLINE
  5
C6
330
1F
100
AcDbEntity
  8
layer 1
 62
     7
100
AcDbSpline
210
0.0
220
0.0
230
1.0
 70
    11
 71
     3
 72
    16
 73
    12
 74
     0
 42
0.0000000001
 43
0.0000000001
 12
1.0
 22
0.0
 32
0.0
 13
1.0
 23
0.0
 33
0.0
 40
0.0
 40
0.0
 40
0.0
 40
0.0
 40
0.25
 40
0.25
 40
0.25
 40
0.25
 40
0.5
 40
0.5
 40
0.5
 40
0.5
 40
1.0
 40
1.0
 40
1.0
 40
1.0
 10
24.966
 20
65.6527
 30
0.0
 10
24.966
 20
65.6527
 30
0.0
 10
39.2082
 20
51.1202
 30
0.0
 10
39.2082
 20
51.1202
 30
0.0
 10
39.2082
 20
51.1202
 30
0.0
 10
39.2082
 20
51.1202
 30
0.0
 10
17.8759
 20
58.4642
 30
0.0
 10
17.8759
 20
58.4642
 30
0.0
 10
17.8759
 20
58.4642
 30
0.0
 10
17.8759
 20
58.4642
 30
0.0
 10
24.966
 20
65.6527
 30
0.0
 10
24.966
 20
65.6527
 30
0.0
  0
SPLINE
  5
C7
330
1F
100
AcDbEntity
  8
layer 1
 62
     7
100
AcDbSpline
210
0.0
220
0.0
230
1.0
 70
    11
 71
     3
 72
    16
 73
    12
 74
     0
 42
0.0000000001
 43
0.0000000001
 12
1.0
 22
0.0
 32
0.0
 13
1.0
 23
0.0
 33
0.0
 40
0.0
 40
0.0
 40
0.0
 40
0.0
 40
0.25
 40
0.25
 40
0.25
 40
0.25
 40
0.5
 40
0.5
 40
0.5
 40
0.5
 40
1.0
 40
1.0
 40
1.0
 40
1.0
 10
15.7605
 20
56.4866
 30
0.0
 10
15.7605
 20
56.4866
 30
0.0
 10
35.64
 20
49.2954
 30
0.0
 10
35.64
 20
49.2954
 30
0.0
 10
35.64
 20
49.2954
 30
0.0
 10
35.64
 20
49.2954
 30
0.0
 10
8.6701
 20
49.2995
 30
0.0
 10
8.6701
 20
49.2995
 30
0.0
 10
8.6701
 20
49.2995
 30
0.0
 10
8.6701
 20
49.2995
 30
0.0
 10
15.7605
 20
56.4866
 30
0.0
 10
15.7605
 20
56.4866
 30
0.0
  0
SPLINE
  5
C8
330
1F
100
AcDbEntity
  8
layer 1
 62
     7
100
AcDbSpline
210
0.0
220
0.0
230
1.0
 70
    11
 71
     3
 72
    16
 73
    12
 74
     0
 42
0.0000000001
 43
0.0000000001
 12
1.0
 22
0.0
 32
0.0
 13
1.0
 23
0.0
 33
0.0
 40
0.0
 40
0.0
 40
0.0
 40
0.0
 40
0.25
 40
0.25
 40
0.25
 40
0.25
 40
0.5
 40
0.5
 40
0.5
 40
0.5
 40
1.0
 40
1.0
 40
1.0
 40
1.0
 10
46.0765
 20
11.8576
 30
0.0
 10
46.0765
 20
11.8576
 30
0.0
 10
45.8656
 20
39.5694
 30
0.0
 10
45.8656
 20
39.5694
 30
0.0
 10
45.8656
 20
39.5694
 30
0.0
 10
45.8656
 20
39.5694
 30
0.0
 10
52.843
 20
18.6402
 30
0.0
 10
52.843
 20
18.6402
 30
0.0
 10
52.843
 20
18.6402
 30
0.0
 10
52.843
 20
18.6402
 30
0.0
 10
46.0765
 20
11.8576
 30
0.0
 10
46.0765
 20
11.8576
 30
0.0
  0
SPLINE
  5
C9
330
1F
100
AcDbEntity
  8
layer 1
 62
     7
100
AcDbSpline
210
0.0
220
0.0
230
1.0
 70
    11
 71
     3
 72
    16
 73
    12
 74
     0
 42
0.0000000001
 43
0.0000000001
 12
1.0
 22
0.0
 32
0.0
 13
1.0
 23
0.0
 33
0.0
 40
0.0
 40
0.0
 40
0.0
 40
0.0
 40
0.25
 40
0.25
 40
0.25
 40
0.25
 40
0.5
 40
0.5
 40
0.5
 40
0.5
 40
1.0
 40
1.0
 40
1.0
 40
1.0
 10
43.0518
 20
11.8576
 30
0.0
 10
43.0518
 20
11.8576
 30
0.0
 10
43.2627
 20
39.5694
 30
0.0
 10
43.2627
 20
39.5694
 30
0.0
 10
43.2627
 20
39.5694
 30
0.0
 10
43.2627
 20
39.5694
 30
0.0
 10
36.2867
 20
18.6402
 30
0.0
 10
36.2867
 20
18.6402
 30
0.0
 10
36.2867
 20
18.6402
 30
0.0
 10
36.2867
 20
18.6402
 30
0.0
 10
43.0518
 20
11.8576
 30
0.0
 10
43.0518
 20
11.8576
 30
0.0
  0
SPLINE
  5
CA
330
1F
100
AcDbEntity
  8
layer 1
 62
     7
100
AcDbSpline
210
0.0
220
0.0
230
1.0
 70
    11
 71
     3
 72
    16
 73
    12
 74
     0
 42
0.0000000001
 43
0.0000000001
 12
1.0
 22
0.0
 32
0.0
 13
1.0
 23
0.0
 33
0.0
 40
0.0
 40
0.0
 40
0.0
 40
0.0
 40
0.25
 40
0.25
 40
0.25
 40
0.25
 40
0.5
 40
0.5
 40
0.5
 40
0.5
 40
1.0
 40
1.0
 40
1.0
 40
1.0
 10
34.131
 20
20.9828
 30
0.0
 10
34.131
 20
20.9828
 30
0.0
 10
41.438
 20
42.4895
 30
0.0
 10
41.438
 20
42.4895
 30
0.0
 10
41.438
 20
42.4895
 30
0.0
 10
41.438
 20
42.4895
 30
0.0
 10
26.8376
 20
28.0077
 30
0.0
 10
26.8376
 20
28.0077
 30
0.0
 10
26.8376
 20
28.0077
 30
0.0
 10
26.8376
 20
28.0077
 30
0.0
 10
34.131
 20
20.9828
 30
0.0
 10
34.131
 20
20.9828
 30
0.0
  0
SPLINE
  5
CB
330
1F
100
AcDbEntity
  8
layer 1
 62
     7
100
AcDbSpline
210
0.0
220
0.0
230
1.0
 70
    11
 71
     3
 72
    16
 73
    12
 74
     0
 42
0.0000000001
 43
0.0000000001
 12
1.0
 22
0.0
 32
0.0
 13
1.0
 23
0.0
 33
0.0
 40
0.0
 40
0.0
 40
0.0
 40
0.0
 40
0.25
 40
0.25
 40
0.25
 40
0.25
 40
0.5
 40
0.5
 40
0.5
 40
0.5
 40
1.0
 40
1.0
 40
1.0
 40
1.0
 10
24.966
 20
29.9445
 30
0.0
 10
24.966
 20
29.9445
 30
0.0
 10
39.2082
 20
44.4765
 30
0.0
 10
39.2082
 20
44.4765
 30
0.0
 10
39.2082
 20
44.4765
 30
0.0
 10
39.2082
 20
44.4765
 30
0.0
 10
17.8759
 20
37.1316
 30
0.0
 10
17.8759
 20
37.1316
 30
0.0
 10
17.8759
 20
37.1316
 30
0.0
 10
17.8759
 20
37.1316
 30
0.0
 10
24.966
 20
29.9445
 30
0.0
 10
24.966
 20
29.9445
 30
0.0
  0
SPLINE
  5
CC
330
1F
100
AcDbEntity
  8
layer 1
 62
     7
100
AcDbSpline
210
0.0
220
0.0
230
1.0
 70
    11
 71
     3
 72
    16
 73
    12
 74
     0
 42
0.0000000001
 43
0.0000000001
 12
1.0
 22
0.0
 32
0.0
 13
1.0
 23
0.0
 33
0.0
 40
0.0
 40
0.0
 40
0.0
 40
0.0
 40
0.25
 40
0.25
 40
0.25
 40
0.25
 40
0.5
 40
0.5
 40
0.5
 40
0.5
 40
1.0
 40
1.0
 40
1.0
 40
1.0
 10
15.7605
 20
39.1092
 30
0.0
 10
15.7605
 20
39.1092
 30
0.0
 10
35.64
 20
46.3003
 30
0.0
 10
35.64
 20
46.3003
 30
0.0
 10
35.64
 20
46.3003
 30
0.0
 10
35.64
 20
46.3003
 30
0.0
 10
8.6701
 20
46.2962
 30
0.0
 10
8.6701
 20
46.2962
 30
0.0
 10
8.6701
 20
46.2962
 30
0.0
 10
8.6701
 20
46.2962
 30
0.0
 10
15.7605
 20
39.1092
 30
0.0
 10
15.7605
 20
39.1092
 30
0.0
  0
SPLINE
  5
CD
330
1F
100
AcDbEntity
  8
layer 1
 62
     7
100
AcDbSpline
210
0.0
220
0.0
230
1.0
 70
    11
 71
     3
 72
    16
 73
    12
 74
     0
 42
0.0000000001
 43
0.0000000001
 12
1.0
 22
0.0
 32
0.0
 13
1.0
 23
0.0
 33
0.0
 40
0.0
 40
0.0
 40
0.0
 40
0.0
 40
0.25
 40
0.25
 40
0.25
 40
0.25
 40
0.5
 40
0.5
 40
0.5
 40
0.5
 40
1.0
 40
1.0
 40
1.0
 40
1.0
 10
-32.9203
 20
83.7383
 30
0.0
 10
-32.9203
 20
83.7383
 30
0.0
 10
-33.1303
 20
56.0274
 30
0.0
 10
-33.1303
 20
56.0274
 30
0.0
 10
-33.1303
 20
56.0274
 30
0.0
 10
-33.1303
 20
56.0274
 30
0.0
 10
-26.1542
 20
76.9571
 30
0.0
 10
-26.1542
 20
76.9571
 30
0.0
 10
-26.1542
 20
76.9571
 30
0.0
 10
-26.1542
 20
76.9571
 30
0.0
 10
-32.9203
 20
83.7383
 30
0.0
 10
-32.9203
 20
83.7383
 30
0.0
  0
SPLINE
  5
CE
330
1F
100
AcDbEntity
  8
layer 1
 62
     7
100
AcDbSpline
210
0.0
220
0.0
230
1.0
 70
    11
 71
     3
 72
    16
 73
    12
 74
     0
 42
0.0000000001
 43
0.0000000001
 12
1.0
 22
0.0
 32
0.0
 13
1.0
 23
0.0
 33
0.0
 40
0.0
 40
0.0
 40
0.0
 40
0.0
 40
0.25
 40
0.25
 40
0.25
 40
0.25
 40
0.5
 40
0.5
 40
0.5
 40
0.5
 40
1.0
 40
1.0
 40
1.0
 40
1.0
 10
-23.998
 20
74.6145
 30
0.0
 10
-23.998
 20
74.6145
 30
0.0
 10
-31.305
 20
53.1073
 30
0.0
 10
-31.305
 20
53.1073
 30
0.0
 10
-31.305
 20
53.1073
 30
0.0
 10
-31.305
 20
53.1073
 30
0.0
 10
-16.7047
 20
67.5894
 30
0.0
 10
-16.7047
 20
67.5894
 30
0.0
 10
-16.7047
 20
67.5894
 30
0.0
 10
-16.7047
 20
67.5894
 30
0.0
 10
-23.998
 20
74.6145
 30
0.0
 10
-23.998
 20
74.6145
 30
0.0
  0
SPLINE
  5
CF
330
1F
100
AcDbEntity
  8
layer 1
 62
     7
100
AcDbSpline
210
0.0
220
0.0
230
1.0
 70
    11
 71
     3
 72
    16
 73
    12
 74
     0
 42
0.0000000001
 43
0.0000000001
 12
1.0
 22
0.0
 32
0.0
 13
1.0
 23
0.0
 33
0.0
 40
0.0
 40
0.0
 40
0.0
 40
0.0
 40
0.25
 40
0.25
 40
0.25
 40
0.25
 40
0.5
 40
0.5
 40
0.5
 40
0.5
 40
1.0
 40
1.0
 40
1.0
 40
1.0
 10
-14.8334
 20
65.6527
 30
0.0
 10
-14.8334
 20
65.6527
 30
0.0
 10
-29.0756
 20
51.1202
 30
0.0
 10
-29.0756
 20
51.1202
 30
0.0
 10
-29.0756
 20
51.1202
 30
0.0
 10
-29.0756
 20
51.1202
 30
0.0
 10
-7.743
 20
58.4642
 30
0.0
 10
-7.743
 20
58.4642
 30
0.0
 10
-7.743
 20
58.4642
 30
0.0
 10
-7.743
 20
58.4642
 30
0.0
 10
-14.8334
 20
65.6527
 30
0.0
 10
-14.8334
 20
65.6527
 30
0.0
  0
SPLINE
  5
D0
330
1F
100
AcDbEntity
  8
layer 1
 62
     7
100
AcDbSpline
210
0.0
220
0.0
230
1.0
 70
    11
 71
     3
 72
    16
 73
    12
 74
     0
 42
0.0000000001
 43
0.0000000001
 12
1.0
 22
0.0
 32
0.0
 13
1.0
 23
0.0
 33
0.0
 40
0.0
 40
0.0
 40
0.0
 40
0.0
 40
0.25
 40
0.25
 40
0.25
 40
0.25
 40
0.5
 40
0.5
 40
0.5
 40
0.5
 40
1.0
 40
1.0
 40
1.0
 40
1.0
 10
-5.6279
 20
56.4866
 30
0.0
 10
-5.6279
 20
56.4866
 30
0.0
 10
-25.507
 20
49.2954
 30
0.0
 10
-25.507
 20
49.2954
 30
0.0
 10
-25.507
 20
49.2954
 30
0.0
 10
-25.507
 20
49.2954
 30
0.0
 10
1.4624
 20
49.2995
 30
0.0
 10
1.4624
 20
49.2995
 30
0.0
 10
1.4624
 20
49.2995
 30
0.0
 10
1.4624
 20
49.2995
 30
0.0
 10
-5.6279
 20
56.4866
 30
0.0
 10
-5.6279
 20
56.4866
 30
0.0
  0
SPLINE
  5
D1
330
1F
100
AcDbEntity
  8
layer 1
 62
     7
100
AcDbSpline
210
0.0
220
0.0
230
1.0
 70
    11
 71
     3
 72
    16
 73
    12
 74
     0
 42
0.0000000001
 43
0.0000000001
 12
1.0
 22
0.0
 32
0.0
 13
1.0
 23
0.0
 33
0.0
 40
0.0
 40
0.0
 40
0.0
 40
0.0
 40
0.25
 40
0.25
 40
0.25
 40
0.25
 40
0.5
 40
0.5
 40
0.5
 40
0.5
 40
1.0
 40
1.0
 40
1.0
 40
1.0
 10
-35.944
 20
83.7383
 30
0.0
 10
-35.944
 20
83.7383
 30
0.0
 10
-35.7327
 20
56.0274
 30
0.0
 10
-35.7327
 20
56.0274
 30
0.0
 10
-35.7327
 20
56.0274
 30
0.0
 10
-35.7327
 20
56.0274
 30
0.0
 10
-42.7101
 20
76.9571
 30
0.0
 10
-42.7101
 20
76.9571
 30
0.0
 10
-42.7101
 20
76.9571
 30
0.0
 10
-42.7101
 20
76.9571
 30
0.0
 10
-35.944
 20
83.7383
 30
0.0
 10
-35.944
 20
83.7383
 30
0.0
  0
SPLINE
  5
D2
330
1F
100
AcDbEntity
  8
layer 1
 62
     7
100
AcDbSpline
210
0.0
220
0.0
230
1.0
 70
    11
 71
     3
 72
    16
 73
    12
 74
     0
 42
0.0000000001
 43
0.0000000001
 12
1.0
 22
0.0
 32
0.0
 13
1.0
 23
0.0
 33
0.0
 40
0.0
 40
0.0
 40
0.0
 40
0.0
 40
0.25
 40
0.25
 40
0.25
 40
0.25
 40
0.5
 40
0.5
 40
0.5
 40
0.5
 40
1.0
 40
1.0
 40
1.0
 40
1.0
 10
-32.9203
 20
11.8576
 30
0.0
 10
-32.9203
 20
11.8576
 30
0.0
 10
-33.1303
 20
39.5694
 30
0.0
 10
-33.1303
 20
39.5694
 30
0.0
 10
-33.1303
 20
39.5694
 30
0.0
 10
-33.1303
 20
39.5694
 30
0.0
 10
-26.1542
 20
18.6402
 30
0.0
 10
-26.1542
 20
18.6402
 30
0.0
 10
-26.1542
 20
18.6402
 30
0.0
 10
-26.1542
 20
18.6402
 30
0.0
 10
-32.9203
 20
11.8576
 30
0.0
 10
-32.9203
 20
11.8576
 30
0.0
  0
SPLINE
  5
D3
330
1F
100
AcDbEntity
  8
layer 1
 62
     7
100
AcDbSpline
210
0.0
220
0.0
230
1.0
 70
    11
 71
     3
 72
    16
 73
    12
 74
     0
 42
0.0000000001
 43
0.0000000001
 12
1.0
 22
0.0
 32
0.0
 13
1.0
 23
0.0
 33
0.0
 40
0.0
 40
0.0
 40
0.0
 40
0.0
 40
0.25
 40
0.25
 40
0.25
 40
0.25
 40
0.5
 40
0.5
 40
0.5
 40
0.5
 40
1.0
 40
1.0
 40
1.0
 40
1.0
 10
-23.998
 20
20.9828
 30
0.0
 10
-23.998
 20
20.9828
 30
0.0
 10
-31.305
 20
42.4895
 30
0.0
 10
-31.305
 20
42.4895
 30
0.0
 10
-31.305
 20
42.4895
 30
0.0
 10
-31.305
 20
42.4895
 30
0.0
 10
-16.7047
 20
28.0077
 30
0.0
 10
-16.7047
 20
28.0077
 30
0.0
 10
-16.7047
 20
28.0077
 30
0.0
 10
-16.7047
 20
28.0077
 30
0.0
 10
-23.998
 20
20.9828
 30
0.0
 10
-23.998
 20
20.9828
 30
0.0
  0
SPLINE
  5
D4
330
1F
100
AcDbEntity
  8
layer 1
 62
     7
100
AcDbSpline
210
0.0
220
0.0
230
1.0
 70
    11
 71
     3
 72
    16
 73
    12
 74
     0
 42
0.0000000001
 43
0.0000000001
 12
1.0
 22
0.0
 32
0.0
 13
1.0
 23
0.0
 33
0.0
 40
0.0
 40
0.0
 40
0.0
 40
0.0
 40
0.25
 40
0.25
 40
0.25
 40
0.25
 40
0.5
 40
0.5
 40
0.5
 40
0.5
 40
1.0
 40
1.0
 40
1.0
 40
1.0
 10
-14.8334
 20
29.9445
 30
0.0
 10
-14.8334
 20
29.9445
 30
0.0
 10
-29.0756
 20
44.4765
 30
0.0
 10
-29.0756
 20
44.4765
 30
0.0
 10
-29.0756
 20
44.4765
 30
0.0
 10
-29.0756
 20
44.4765
 30
0.0
 10
-7.743
 20
37.1316
 30
0.0
 10
-7.743
 20
37.1316
 30
0.0
 10
-7.743
 20
37.1316
 30
0.0
 10
-7.743
 20
37.1316
 30
0.0
 10
-14.8334
 20
29.9445
 30
0.0
 10
-14.8334
 20
29.9445
 30
0.0
  0
SPLINE
  5
D5
330
1F
100
AcDbEntity
  8
layer 1
 62
     7
100
AcDbSpline
210
0.0
220
0.0
230
1.0
 70
    11
 71
     3
 72
    16
 73
    12
 74
     0
 42
0.0000000001
 43
0.0000000001
 12
1.0
 22
0.0
 32
0.0
 13
1.0
 23
0.0
 33
0.0
 40
0.0
 40
0.0
 40
0.0
 40
0.0
 40
0.25
 40
0.25
 40
0.25
 40
0.25
 40
0.5
 40
0.5
 40
0.5
 40
0.5
 40
1.0
 40
1.0
 40
1.0
 40
1.0
 10
-5.6279
 20
39.1092
 30
0.0
 10
-5.6279
 20
39.1092
 30
0.0
 10
-25.507
 20
46.3003
 30
0.0
 10
-25.507
 20
46.3003
 30
0.0
 10
-25.507
 20
46.3003
 30
0.0
 10
-25.507
 20
46.3003
 30
0.0
 10
1.4624
 20
46.2962
 30
0.0
 10
1.4624
 20
46.2962
 30
0.0
 10
1.4624
 20
46.2962
 30
0.0
 10
1.4624
 20
46.2962
 30
0.0
 10
-5.6279
 20
39.1092
 30
0.0
 10
-5.6279
 20
39.1092
 30
0.0
  0
SPLINE
  5
D6
330
1F
100
AcDbEntity
  8
layer 1
 62
     7
100
AcDbSpline
210
0.0
220
0.0
230
1.0
 70
    11
 71
     3
 72
    16
 73
    12
 74
     0
 42
0.0000000001
 43
0.0000000001
 12
1.0
 22
0.0
 32
0.0
 13
1.0
 23
0.0
 33
0.0
 40
0.0
 40
0.0
 40
0.0
 40
0.0
 40
0.25
 40
0.25
 40
0.25
 40
0.25
 40
0.5
 40
0.5
 40
0.5
 40
0.5
 40
1.0
 40
1.0
 40
1.0
 40
1.0
 10
-35.944
 20
11.8576
 30
0.0
 10
-35.944
 20
11.8576
 30
0.0
 10
-35.7327
 20
39.5694
 30
0.0
 10
-35.7327
 20
39.5694
 30
0.0
 10
-35.7327
 20
39.5694
 30
0.0
 10
-35.7327
 20
39.5694
 30
0.0
 10
-42.7101
 20
18.6402
 30
0.0
 10
-42.7101
 20
18.6402
 30
0.0
 10
-42.7101
 20
18.6402
 30
0.0
 10
-42.7101
 20
18.6402
 30
0.0
 10
-35.944
 20
11.8576
 30
0.0
 10
-35.944
 20
11.8576
 30
0.0
  0
SPLINE
  5
D7
330
1F
100
AcDbEntity
  8
layer 1
 62
     7
100
AcDbSpline
210
0.0
220
0.0
230
1.0
 70
    11
 71
     3
 72
    16
 73
    12
 74
     0
 42
0.0000000001
 43
0.0000000001
 12
1.0
 22
0.0
 32
0.0
 13
1.0
 23
0.0
 33
0.0
 40
0.0
 40
0.0
 40
0.0
 40
0.0
 40
0.25
 40
0.25
 40
0.25
 40
0.25
 40
0.5
 40
0.5
 40
0.5
 40
0.5
 40
1.0
 40
1.0
 40
1.0
 40
1.0
 10
6.66
 20
122.9099
 30
0.0
 10
6.66
 20
122.9099
 30
0.0
 10
6.4487
 20
95.1992
 30
0.0
 10
6.4487
 20
95.1992
 30
0.0
 10
6.4487
 20
95.1992
 30
0.0
 10
6.4487
 20
95.1992
 30
0.0
 10
13.4248
 20
116.1285
 30
0.0
 10
13.4248
 20
116.1285
 30
0.0
 10
13.4248
 20
116.1285
 30
0.0
 10
13.4248
 20
116.1285
 30
0.0
 10
6.66
 20
122.9099
 30
0.0
 10
6.66
 20
122.9099
 30
0.0
  0
SPLINE
  5
D8
330
1F
100
AcDbEntity
  8
layer 1
 62
     7
100
AcDbSpline
210
0.0
220
0.0
230
1.0
 70
    11
 71
     3
 72
    16
 73
    12
 74
     0
 42
0.0000000001
 43
0.0000000001
 12
1.0
 22
0.0
 32
0.0
 13
1.0
 23
0.0
 33
0.0
 40
0.0
 40
0.0
 40
0.0
 40
0.0
 40
0.25
 40
0.25
 40
0.25
 40
0.25
 40
0.5
 40
0.5
 40
0.5
 40
0.5
 40
1.0
 40
1.0
 40
1.0
 40
1.0
 10
15.5806
 20
113.7862
 30
0.0
 10
15.5806
 20
113.7862
 30
0.0
 10
8.2736
 20
92.2791
 30
0.0
 10
8.2736
 20
92.2791
 30
0.0
 10
8.2736
 20
92.2791
 30
0.0
 10
8.2736
 20
92.2791
 30
0.0
 10
22.874
 20
106.7609
 30
0.0
 10
22.874
 20
106.7609
 30
0.0
 10
22.874
 20
106.7609
 30
0.0
 10
22.874
 20
106.7609
 30
0.0
 10
15.5806
 20
113.7862
 30
0.0
 10
15.5806
 20
113.7862
 30
0.0
  0
SPLINE
  5
D9
330
1F
100
AcDbEntity
  8
layer 1
 62
     7
100
AcDbSpline
210
0.0
220
0.0
230
1.0
 70
    11
 71
     3
 72
    16
 73
    12
 74
     0
 42
0.0000000001
 43
0.0000000001
 12
1.0
 22
0.0
 32
0.0
 13
1.0
 23
0.0
 33
0.0
 40
0.0
 40
0.0
 40
0.0
 40
0.0
 40
0.25
 40
0.25
 40
0.25
 40
0.25
 40
0.5
 40
0.5
 40
0.5
 40
0.5
 40
1.0
 40
1.0
 40
1.0
 40
1.0
 10
24.7456
 20
104.8243
 30
0.0
 10
24.7456
 20
104.8243
 30
0.0
 10
10.5033
 20
90.2922
 30
0.0
 10
10.5033
 20
90.2922
 30
0.0
 10
10.5033
 20
90.2922
 30
0.0
 10
10.5033
 20
90.2922
 30
0.0
 10
31.8361
 20
97.6369
 30
0.0
 10
31.8361
 20
97.6369
 30
0.0
 10
31.8361
 20
97.6369
 30
0.0
 10
31.8361
 20
97.6369
 30
0.0
 10
24.7456
 20
104.8243
 30
0.0
 10
24.7456
 20
104.8243
 30
0.0
  0
SPLINE
  5
DA
330
1F
100
AcDbEntity
  8
layer 1
 62
     7
100
AcDbSpline
210
0.0
220
0.0
230
1.0
 70
    11
 71
     3
 72
    16
 73
    12
 74
     0
 42
0.0000000001
 43
0.0000000001
 12
1.0
 22
0.0
 32
0.0
 13
1.0
 23
0.0
 33
0.0
 40
0.0
 40
0.0
 40
0.0
 40
0.0
 40
0.25
 40
0.25
 40
0.25
 40
0.25
 40
0.5
 40
0.5
 40
0.5
 40
0.5
 40
1.0
 40
1.0
 40
1.0
 40
1.0
 10
33.951
 20
95.6595
 30
0.0
 10
33.951
 20
95.6595
 30
0.0
 10
14.073
 20
88.4668
 30
0.0
 10
14.073
 20
88.4668
 30
0.0
 10
14.073
 20
88.4668
 30
0.0
 10
14.073
 20
88.4668
 30
0.0
 10
41.0414
 20
88.4724
 30
0.0
 10
41.0414
 20
88.4724
 30
0.0
 10
41.0414
 20
88.4724
 30
0.0
 10
41.0414
 20
88.4724
 30
0.0
 10
33.951
 20
95.6595
 30
0.0
 10
33.951
 20
95.6595
 30
0.0
  0
SPLINE
  5
DB
330
1F
100
AcDbEntity
  8
layer 1
 62
     7
100
AcDbSpline
210
0.0
220
0.0
230
1.0
 70
    11
 71
     3
 72
    16
 73
    12
 74
     0
 42
0.0000000001
 43
0.0000000001
 12
1.0
 22
0.0
 32
0.0
 13
1.0
 23
0.0
 33
0.0
 40
0.0
 40
0.0
 40
0.0
 40
0.0
 40
0.25
 40
0.25
 40
0.25
 40
0.25
 40
0.5
 40
0.5
 40
0.5
 40
0.5
 40
1.0
 40
1.0
 40
1.0
 40
1.0
 10
3.635
 20
122.9099
 30
0.0
 10
3.635
 20
122.9099
 30
0.0
 10
3.846
 20
95.1992
 30
0.0
 10
3.846
 20
95.1992
 30
0.0
 10
3.846
 20
95.1992
 30
0.0
 10
3.846
 20
95.1992
 30
0.0
 10
-3.1301
 20
116.1285
 30
0.0
 10
-3.1301
 20
116.1285
 30
0.0
 10
-3.1301
 20
116.1285
 30
0.0
 10
-3.1301
 20
116.1285
 30
0.0
 10
3.635
 20
122.9099
 30
0.0
 10
3.635
 20
122.9099
 30
0.0
  0
SPLINE
  5
DC
330
1F
100
AcDbEntity
  8
layer 1
 62
     7
100
AcDbSpline
210
0.0
220
0.0
230
1.0
 70
    11
 71
     3
 72
    16
 73
    12
 74
     0
 42
0.0000000001
 43
0.0000000001
 12
1.0
 22
0.0
 32
0.0
 13
1.0
 23
0.0
 33
0.0
 40
0.0
 40
0.0
 40
0.0
 40
0.0
 40
0.25
 40
0.25
 40
0.25
 40
0.25
 40
0.5
 40
0.5
 40
0.5
 40
0.5
 40
1.0
 40
1.0
 40
1.0
 40
1.0
 10
-5.2859
 20
113.7862
 30
0.0
 10
-5.2859
 20
113.7862
 30
0.0
 10
2.021
 20
92.2791
 30
0.0
 10
2.021
 20
92.2791
 30
0.0
 10
2.021
 20
92.2791
 30
0.0
 10
2.021
 20
92.2791
 30
0.0
 10
-12.5792
 20
106.7609
 30
0.0
 10
-12.5792
 20
106.7609
 30
0.0
 10
-12.5792
 20
106.7609
 30
0.0
 10
-12.5792
 20
106.7609
 30
0.0
 10
-5.2859
 20
113.7862
 30
0.0
 10
-5.2859
 20
113.7862
 30
0.0
  0
SPLINE
  5
DD
330
1F
100
AcDbEntity
  8
layer 1
 62
     7
100
AcDbSpline
210
0.0
220
0.0
230
1.0
 70
    11
 71
     3
 72
    16
 73
    12
 74
     0
 42
0.0000000001
 43
0.0000000001
 12
1.0
 22
0.0
 32
0.0
 13
1.0
 23
0.0
 33
0.0
 40
0.0
 40
0.0
 40
0.0
 40
0.0
 40
0.25
 40
0.25
 40
0.25
 40
0.25
 40
0.5
 40
0.5
 40
0.5
 40
0.5
 40
1.0
 40
1.0
 40
1.0
 40
1.0
 10
-14.4519
 20
104.8243
 30
0.0
 10
-14.4519
 20
104.8243
 30
0.0
 10
-0.2101
 20
90.2922
 30
0.0
 10
-0.2101
 20
90.2922
 30
0.0
 10
-0.2101
 20
90.2922
 30
0.0
 10
-0.2101
 20
90.2922
 30
0.0
 10
-21.541
 20
97.6369
 30
0.0
 10
-21.541
 20
97.6369
 30
0.0
 10
-21.541
 20
97.6369
 30
0.0
 10
-21.541
 20
97.6369
 30
0.0
 10
-14.4519
 20
104.8243
 30
0.0
 10
-14.4519
 20
104.8243
 30
0.0
  0
SPLINE
  5
DE
330
1F
100
AcDbEntity
  8
layer 1
 62
     7
100
AcDbSpline
210
0.0
220
0.0
230
1.0
 70
    11
 71
     3
 72
    16
 73
    12
 74
     0
 42
0.0000000001
 43
0.0000000001
 12
1.0
 22
0.0
 32
0.0
 13
1.0
 23
0.0
 33
0.0
 40
0.0
 40
0.0
 40
0.0
 40
0.0
 40
0.25
 40
0.25
 40
0.25
 40
0.25
 40
0.5
 40
0.5
 40
0.5
 40
0.5
 40
1.0
 40
1.0
 40
1.0
 40
1.0
 10
-23.6563
 20
95.6595
 30
0.0
 10
-23.6563
 20
95.6595
 30
0.0
 10
-3.7783
 20
88.4668
 30
0.0
 10
-3.7783
 20
88.4668
 30
0.0
 10
-3.7783
 20
88.4668
 30
0.0
 10
-3.7783
 20
88.4668
 30
0.0
 10
-30.7468
 20
88.4724
 30
0.0
 10
-30.7468
 20
88.4724
 30
0.0
 10
-30.7468
 20
88.4724
 30
0.0
 10
-30.7468
 20
88.4724
 30
0.0
 10
-23.6563
 20
95.6595
 30
0.0
 10
-23.6563
 20
95.6595
 30
0.0
  0
SPLINE
  5
DF
330
1F
100
AcDbEntity
  8
layer 1
 62
     7
100
AcDbSpline
210
0.0
220
0.0
230
1.0
 70
    11
 71
     3
 72
    16
 73
    12
 74
     0
 42
0.0000000001
 43
0.0000000001
 12
1.0
 22
0.0
 32
0.0
 13
1.0
 23
0.0
 33
0.0
 40
0.0
 40
0.0
 40
0.0
 40
0.0
 40
0.25
 40
0.25
 40
0.25
 40
0.25
 40
0.5
 40
0.5
 40
0.5
 40
0.5
 40
1.0
 40
1.0
 40
1.0
 40
1.0
 10
6.66
 20
51.0304
 30
0.0
 10
6.66
 20
51.0304
 30
0.0
 10
6.4487
 20
78.7413
 30
0.0
 10
6.4487
 20
78.7413
 30
0.0
 10
6.4487
 20
78.7413
 30
0.0
 10
6.4487
 20
78.7413
 30
0.0
 10
13.4248
 20
57.8118
 30
0.0
 10
13.4248
 20
57.8118
 30
0.0
 10
13.4248
 20
57.8118
 30
0.0
 10
13.4248
 20
57.8118
 30
0.0
 10
6.66
 20
51.0304
 30
0.0
 10
6.66
 20
51.0304
 30
0.0
  0
SPLINE
  5
E0
330
1F
100
AcDbEntity
  8
layer 1
 62
     7
100
AcDbSpline
210
0.0
220
0.0
230
1.0
 70
    11
 71
     3
 72
    16
 73
    12
 74
     0
 42
0.0000000001
 43
0.0000000001
 12
1.0
 22
0.0
 32
0.0
 13
1.0
 23
0.0
 33
0.0
 40
0.0
 40
0.0
 40
0.0
 40
0.0
 40
0.25
 40
0.25
 40
0.25
 40
0.25
 40
0.5
 40
0.5
 40
0.5
 40
0.5
 40
1.0
 40
1.0
 40
1.0
 40
1.0
 10
15.5806
 20
60.1543
 30
0.0
 10
15.5806
 20
60.1543
 30
0.0
 10
8.2736
 20
81.6611
 30
0.0
 10
8.2736
 20
81.6611
 30
0.0
 10
8.2736
 20
81.6611
 30
0.0
 10
8.2736
 20
81.6611
 30
0.0
 10
22.874
 20
67.1795
 30
0.0
 10
22.874
 20
67.1795
 30
0.0
 10
22.874
 20
67.1795
 30
0.0
 10
22.874
 20
67.1795
 30
0.0
 10
15.5806
 20
60.1543
 30
0.0
 10
15.5806
 20
60.1543
 30
0.0
  0
SPLINE
  5
E1
330
1F
100
AcDbEntity
  8
layer 1
 62
     7
100
AcDbSpline
210
0.0
220
0.0
230
1.0
 70
    11
 71
     3
 72
    16
 73
    12
 74
     0
 42
0.0000000001
 43
0.0000000001
 12
1.0
 22
0.0
 32
0.0
 13
1.0
 23
0.0
 33
0.0
 40
0.0
 40
0.0
 40
0.0
 40
0.0
 40
0.25
 40
0.25
 40
0.25
 40
0.25
 40
0.5
 40
0.5
 40
0.5
 40
0.5
 40
1.0
 40
1.0
 40
1.0
 40
1.0
 10
24.7456
 20
69.1159
 30
0.0
 10
24.7456
 20
69.1159
 30
0.0
 10
10.5033
 20
83.6483
 30
0.0
 10
10.5033
 20
83.6483
 30
0.0
 10
10.5033
 20
83.6483
 30
0.0
 10
10.5033
 20
83.6483
 30
0.0
 10
31.8361
 20
76.3032
 30
0.0
 10
31.8361
 20
76.3032
 30
0.0
 10
31.8361
 20
76.3032
 30
0.0
 10
31.8361
 20
76.3032
 30
0.0
 10
24.7456
 20
69.1159
 30
0.0
 10
24.7456
 20
69.1159
 30
0.0
  0
SPLINE
  5
E2
330
1F
100
AcDbEntity
  8
layer 1
 62
     7
100
AcDbSpline
210
0.0
220
0.0
230
1.0
 70
    11
 71
     3
 72
    16
 73
    12
 74
     0
 42
0.0000000001
 43
0.0000000001
 12
1.0
 22
0.0
 32
0.0
 13
1.0
 23
0.0
 33
0.0
 40
0.0
 40
0.0
 40
0.0
 40
0.0
 40
0.25
 40
0.25
 40
0.25
 40
0.25
 40
0.5
 40
0.5
 40
0.5
 40
0.5
 40
1.0
 40
1.0
 40
1.0
 40
1.0
 10
33.951
 20
78.281
 30
0.0
 10
33.951
 20
78.281
 30
0.0
 10
14.073
 20
85.4736
 30
0.0
 10
14.073
 20
85.4736
 30
0.0
 10
14.073
 20
85.4736
 30
0.0
 10
14.073
 20
85.4736
 30
0.0
 10
41.0414
 20
85.4693
 30
0.0
 10
41.0414
 20
85.4693
 30
0.0
 10
41.0414
 20
85.4693
 30
0.0
 10
41.0414
 20
85.4693
 30
0.0
 10
33.951
 20
78.281
 30
0.0
 10
33.951
 20
78.281
 30
0.0
  0
SPLINE
  5
E3
330
1F
100
AcDbEntity
  8
layer 1
 62
     7
100
AcDbSpline
210
0.0
220
0.0
230
1.0
 70
    11
 71
     3
 72
    16
 73
    12
 74
     0
 42
0.0000000001
 43
0.0000000001
 12
1.0
 22
0.0
 32
0.0
 13
1.0
 23
0.0
 33
0.0
 40
0.0
 40
0.0
 40
0.0
 40
0.0
 40
0.25
 40
0.25
 40
0.25
 40
0.25
 40
0.5
 40
0.5
 40
0.5
 40
0.5
 40
1.0
 40
1.0
 40
1.0
 40
1.0
 10
3.635
 20
51.0304
 30
0.0
 10
3.635
 20
51.0304
 30
0.0
 10
3.846
 20
78.7413
 30
0.0
 10
3.846
 20
78.7413
 30
0.0
 10
3.846
 20
78.7413
 30
0.0
 10
3.846
 20
78.7413
 30
0.0
 10
-3.1301
 20
57.8118
 30
0.0
 10
-3.1301
 20
57.8118
 30
0.0
 10
-3.1301
 20
57.8118
 30
0.0
 10
-3.1301
 20
57.8118
 30
0.0
 10
3.635
 20
51.0304
 30
0.0
 10
3.635
 20
51.0304
 30
0.0
  0
SPLINE
  5
E4
330
1F
100
AcDbEntity
  8
layer 1
 62
     7
100
AcDbSpline
210
0.0
220
0.0
230
1.0
 70
    11
 71
     3
 72
    16
 73
    12
 74
     0
 42
0.0000000001
 43
0.0000000001
 12
1.0
 22
0.0
 32
0.0
 13
1.0
 23
0.0
 33
0.0
 40
0.0
 40
0.0
 40
0.0
 40
0.0
 40
0.25
 40
0.25
 40
0.25
 40
0.25
 40
0.5
 40
0.5
 40
0.5
 40
0.5
 40
1.0
 40
1.0
 40
1.0
 40
1.0
 10
-5.2859
 20
60.1543
 30
0.0
 10
-5.2859
 20
60.1543
 30
0.0
 10
2.021
 20
81.6611
 30
0.0
 10
2.021
 20
81.6611
 30
0.0
 10
2.021
 20
81.6611
 30
0.0
 10
2.021
 20
81.6611
 30
0.0
 10
-12.5792
 20
67.1795
 30
0.0
 10
-12.5792
 20
67.1795
 30
0.0
 10
-12.5792
 20
67.1795
 30
0.0
 10
-12.5792
 20
67.1795
 30
0.0
 10
-5.2859
 20
60.1543
 30
0.0
 10
-5.2859
 20
60.1543
 30
0.0
  0
SPLINE
  5
E5
330
1F
100
AcDbEntity
  8
layer 1
 62
     7
100
AcDbSpline
210
0.0
220
0.0
230
1.0
 70
    11
 71
     3
 72
    16
 73
    12
 74
     0
 42
0.0000000001
 43
0.0000000001
 12
1.0
 22
0.0
 32
0.0
 13
1.0
 23
0.0
 33
0.0
 40
0.0
 40
0.0
 40
0.0
 40
0.0
 40
0.25
 40
0.25
 40
0.25
 40
0.25
 40
0.5
 40
0.5
 40
0.5
 40
0.5
 40
1.0
 40
1.0
 40
1.0
 40
1.0
 10
-14.4519
 20
69.1159
 30
0.0
 10
-14.4519
 20
69.1159
 30
0.0
 10
-0.2101
 20
83.6483
 30
0.0
 10
-0.2101
 20
83.6483
 30
0.0
 10
-0.2101
 20
83.6483
 30
0.0
 10
-0.2101
 20
83.6483
 30
0.0
 10
-21.541
 20
76.3032
 30
0.0
 10
-21.541
 20
76.3032
 30
0.0
 10
-21.541
 20
76.3032
 30
0.0
 10
-21.541
 20
76.3032
 30
0.0
 10
-14.4519
 20
69.1159
 30
0.0
 10
-14.4519
 20
69.1159
 30
0.0
  0
SPLINE
  5
E6
330
1F
100
AcDbEntity
  8
layer 1
 62
     7
100
AcDbSpline
210
0.0
220
0.0
230
1.0
 70
    11
 71
     3
 72
    16
 73
    12
 74
     0
 42
0.0000000001
 43
0.0000000001
 12
1.0
 22
0.0
 32
0.0
 13
1.0
 23
0.0
 33
0.0
 40
0.0
 40
0.0
 40
0.0
 40
0.0
 40
0.25
 40
0.25
 40
0.25
 40
0.25
 40
0.5
 40
0.5
 40
0.5
 40
0.5
 40
1.0
 40
1.0
 40
1.0
 40
1.0
 10
-23.6563
 20
78.281
 30
0.0
 10
-23.6563
 20
78.281
 30
0.0
 10
-3.7783
 20
85.4736
 30
0.0
 10
-3.7783
 20
85.4736
 30
0.0
 10
-3.7783
 20
85.4736
 30
0.0
 10
-3.7783
 20
85.4736
 30
0.0
 10
-30.7468
 20
85.4693
 30
0.0
 10
-30.7468
 20
85.4693
 30
0.0
 10
-30.7468
 20
85.4693
 30
0.0
 10
-30.7468
 20
85.4693
 30
0.0
 10
-23.6563
 20
78.281
 30
0.0
 10
-23.6563
 20
78.281
 30
0.0
  0
SPLINE
  5
E7
330
1F
100
AcDbEntity
  8
layer 1
 62
     7
100
AcDbSpline
210
0.0
220
0.0
230
1.0
 70
    11
 71
     3
 72
    16
 73
    12
 74
     0
 42
0.0000000001
 43
0.0000000001
 12
1.0
 22
0.0
 32
0.0
 13
1.0
 23
0.0
 33
0.0
 40
0.0
 40
0.0
 40
0.0
 40
0.0
 40
0.25
 40
0.25
 40
0.25
 40
0.25
 40
0.5
 40
0.5
 40
0.5
 40
0.5
 40
1.0
 40
1.0
 40
1.0
 40
1.0
 10
46.0765
 20
90.7714
 30
0.0
 10
46.0765
 20
90.7714
 30
0.0
 10
45.8656
 20
118.482
 30
0.0
 10
45.8656
 20
118.482
 30
0.0
 10
45.8656
 20
118.482
 30
0.0
 10
45.8656
 20
118.482
 30
0.0
 10
52.843
 20
97.5526
 30
0.0
 10
52.843
 20
97.5526
 30
0.0
 10
52.843
 20
97.5526
 30
0.0
 10
52.843
 20
97.5526
 30
0.0
 10
46.0765
 20
90.7714
 30
0.0
 10
46.0765
 20
90.7714
 30
0.0
  0
SPLINE
  5
E8
330
1F
100
AcDbEntity
  8
layer 1
 62
     7
100
AcDbSpline
210
0.0
220
0.0
230
1.0
 70
    11
 71
     3
 72
    16
 73
    12
 74
     0
 42
0.0000000001
 43
0.0000000001
 12
1.0
 22
0.0
 32
0.0
 13
1.0
 23
0.0
 33
0.0
 40
0.0
 40
0.0
 40
0.0
 40
0.0
 40
0.25
 40
0.25
 40
0.25
 40
0.25
 40
0.5
 40
0.5
 40
0.5
 40
0.5
 40
1.0
 40
1.0
 40
1.0
 40
1.0
 10
43.0518
 20
90.7714
 30
0.0
 10
43.0518
 20
90.7714
 30
0.0
 10
43.2627
 20
118.482
 30
0.0
 10
43.2627
 20
118.482
 30
0.0
 10
43.2627
 20
118.482
 30
0.0
 10
43.2627
 20
118.482
 30
0.0
 10
36.2867
 20
97.5526
 30
0.0
 10
36.2867
 20
97.5526
 30
0.0
 10
36.2867
 20
97.5526
 30
0.0
 10
36.2867
 20
97.5526
 30
0.0
 10
43.0518
 20
90.7714
 30
0.0
 10
43.0518
 20
90.7714
 30
0.0
  0
SPLINE
  5
E9
330
1F
100
AcDbEntity
  8
layer 1
 62
     7
100
AcDbSpline
210
0.0
220
0.0
230
1.0
 70
    11
 71
     3
 72
    16
 73
    12
 74
     0
 42
0.0000000001
 43
0.0000000001
 12
1.0
 22
0.0
 32
0.0
 13
1.0
 23
0.0
 33
0.0
 40
0.0
 40
0.0
 40
0.0
 40
0.0
 40
0.25
 40
0.25
 40
0.25
 40
0.25
 40
0.5
 40
0.5
 40
0.5
 40
0.5
 40
1.0
 40
1.0
 40
1.0
 40
1.0
 10
34.131
 20
99.8954
 30
0.0
 10
34.131
 20
99.8954
 30
0.0
 10
41.438
 20
121.4021
 30
0.0
 10
41.438
 20
121.4021
 30
0.0
 10
41.438
 20
121.4021
 30
0.0
 10
41.438
 20
121.4021
 30
0.0
 10
26.8376
 20
106.9203
 30
0.0
 10
26.8376
 20
106.9203
 30
0.0
 10
26.8376
 20
106.9203
 30
0.0
 10
26.8376
 20
106.9203
 30
0.0
 10
34.131
 20
99.8954
 30
0.0
 10
34.131
 20
99.8954
 30
0.0
  0
SPLINE
  5
EA
330
1F
100
AcDbEntity
  8
layer 1
 62
     7
100
AcDbSpline
210
0.0
220
0.0
230
1.0
 70
    11
 71
     3
 72
    16
 73
    12
 74
     0
 42
0.0000000001
 43
0.0000000001
 12
1.0
 22
0.0
 32
0.0
 13
1.0
 23
0.0
 33
0.0
 40
0.0
 40
0.0
 40
0.0
 40
0.0
 40
0.25
 40
0.25
 40
0.25
 40
0.25
 40
0.5
 40
0.5
 40
0.5
 40
0.5
 40
1.0
 40
1.0
 40
1.0
 40
1.0
 10
24.966
 20
108.8584
 30
0.0
 10
24.966
 20
108.8584
 30
0.0
 10
39.2082
 20
123.3894
 30
0.0
 10
39.2082
 20
123.3894
 30
0.0
 10
39.2082
 20
123.3894
 30
0.0
 10
39.2082
 20
123.3894
 30
0.0
 10
17.8759
 20
116.0456
 30
0.0
 10
17.8759
 20
116.0456
 30
0.0
 10
17.8759
 20
116.0456
 30
0.0
 10
17.8759
 20
116.0456
 30
0.0
 10
24.966
 20
108.8584
 30
0.0
 10
24.966
 20
108.8584
 30
0.0
  0
SPLINE
  5
EB
330
1F
100
AcDbEntity
  8
layer 1
 62
     7
100
AcDbSpline
210
0.0
220
0.0
230
1.0
 70
    11
 71
     3
 72
    16
 73
    12
 74
     0
 42
0.0000000001
 43
0.0000000001
 12
1.0
 22
0.0
 32
0.0
 13
1.0
 23
0.0
 33
0.0
 40
0.0
 40
0.0
 40
0.0
 40
0.0
 40
0.25
 40
0.25
 40
0.25
 40
0.25
 40
0.5
 40
0.5
 40
0.5
 40
0.5
 40
1.0
 40
1.0
 40
1.0
 40
1.0
 10
15.7605
 20
118.023
 30
0.0
 10
15.7605
 20
118.023
 30
0.0
 10
35.64
 20
125.2143
 30
0.0
 10
35.64
 20
125.2143
 30
0.0
 10
35.64
 20
125.2143
 30
0.0
 10
35.64
 20
125.2143
 30
0.0
 10
8.6701
 20
125.2102
 30
0.0
 10
8.6701
 20
125.2102
 30
0.0
 10
8.6701
 20
125.2102
 30
0.0
 10
8.6701
 20
125.2102
 30
0.0
 10
15.7605
 20
118.023
 30
0.0
 10
15.7605
 20
118.023
 30
0.0
  0
SPLINE
  5
EC
330
1F
100
AcDbEntity
  8
layer 1
 62
     7
100
AcDbSpline
210
0.0
220
0.0
230
1.0
 70
    11
 71
     3
 72
    16
 73
    12
 74
     0
 42
0.0000000001
 43
0.0000000001
 12
1.0
 22
0.0
 32
0.0
 13
1.0
 23
0.0
 33
0.0
 40
0.0
 40
0.0
 40
0.0
 40
0.0
 40
0.25
 40
0.25
 40
0.25
 40
0.25
 40
0.5
 40
0.5
 40
0.5
 40
0.5
 40
1.0
 40
1.0
 40
1.0
 40
1.0
 10
-32.9203
 20
90.7714
 30
0.0
 10
-32.9203
 20
90.7714
 30
0.0
 10
-33.1303
 20
118.482
 30
0.0
 10
-33.1303
 20
118.482
 30
0.0
 10
-33.1303
 20
118.482
 30
0.0
 10
-33.1303
 20
118.482
 30
0.0
 10
-26.1542
 20
97.5526
 30
0.0
 10
-26.1542
 20
97.5526
 30
0.0
 10
-26.1542
 20
97.5526
 30
0.0
 10
-26.1542
 20
97.5526
 30
0.0
 10
-32.9203
 20
90.7714
 30
0.0
 10
-32.9203
 20
90.7714
 30
0.0
  0
SPLINE
  5
ED
330
1F
100
AcDbEntity
  8
layer 1
 62
     7
100
AcDbSpline
210
0.0
220
0.0
230
1.0
 70
    11
 71
     3
 72
    16
 73
    12
 74
     0
 42
0.0000000001
 43
0.0000000001
 12
1.0
 22
0.0
 32
0.0
 13
1.0
 23
0.0
 33
0.0
 40
0.0
 40
0.0
 40
0.0
 40
0.0
 40
0.25
 40
0.25
 40
0.25
 40
0.25
 40
0.5
 40
0.5
 40
0.5
 40
0.5
 40
1.0
 40
1.0
 40
1.0
 40
1.0
 10
-23.998
 20
99.8954
 30
0.0
 10
-23.998
 20
99.8954
 30
0.0
 10
-31.305
 20
121.4021
 30
0.0
 10
-31.305
 20
121.4021
 30
0.0
 10
-31.305
 20
121.4021
 30
0.0
 10
-31.305
 20
121.4021
 30
0.0
 10
-16.7047
 20
106.9203
 30
0.0
 10
-16.7047
 20
106.9203
 30
0.0
 10
-16.7047
 20
106.9203
 30
0.0
 10
-16.7047
 20
106.9203
 30
0.0
 10
-23.998
 20
99.8954
 30
0.0
 10
-23.998
 20
99.8954
 30
0.0
  0
SPLINE
  5
EE
330
1F
100
AcDbEntity
  8
layer 1
 62
     7
100
AcDbSpline
210
0.0
220
0.0
230
1.0
 70
    11
 71
     3
 72
    16
 73
    12
 74
     0
 42
0.0000000001
 43
0.0000000001
 12
1.0
 22
0.0
 32
0.0
 13
1.0
 23
0.0
 33
0.0
 40
0.0
 40
0.0
 40
0.0
 40
0.0
 40
0.25
 40
0.25
 40
0.25
 40
0.25
 40
0.5
 40
0.5
 40
0.5
 40
0.5
 40
1.0
 40
1.0
 40
1.0
 40
1.0
 10
-14.8334
 20
108.8584
 30
0.0
 10
-14.8334
 20
108.8584
 30
0.0
 10
-29.0756
 20
123.3894
 30
0.0
 10
-29.0756
 20
123.3894
 30
0.0
 10
-29.0756
 20
123.3894
 30
0.0
 10
-29.0756
 20
123.3894
 30
0.0
 10
-7.743
 20
116.0456
 30
0.0
 10
-7.743
 20
116.0456
 30
0.0
 10
-7.743
 20
116.0456
 30
0.0
 10
-7.743
 20
116.0456
 30
0.0
 10
-14.8334
 20
108.8584
 30
0.0
 10
-14.8334
 20
108.8584
 30
0.0
  0
SPLINE
  5
EF
330
1F
100
AcDbEntity
  8
layer 1
 62
     7
100
AcDbSpline
210
0.0
220
0.0
230
1.0
 70
    11
 71
     3
 72
    16
 73
    12
 74
     0
 42
0.0000000001
 43
0.0000000001
 12
1.0
 22
0.0
 32
0.0
 13
1.0
 23
0.0
 33
0.0
 40
0.0
 40
0.0
 40
0.0
 40
0.0
 40
0.25
 40
0.25
 40
0.25
 40
0.25
 40
0.5
 40
0.5
 40
0.5
 40
0.5
 40
1.0
 40
1.0
 40
1.0
 40
1.0
 10
-5.6279
 20
118.023
 30
0.0
 10
-5.6279
 20
118.023
 30
0.0
 10
-25.507
 20
125.2143
 30
0.0
 10
-25.507
 20
125.2143
 30
0.0
 10
-25.507
 20
125.2143
 30
0.0
 10
-25.507
 20
125.2143
 30
0.0
 10
1.4624
 20
125.2102
 30
0.0
 10
1.4624
 20
125.2102
 30
0.0
 10
1.4624
 20
125.2102
 30
0.0
 10
1.4624
 20
125.2102
 30
0.0
 10
-5.6279
 20
118.023
 30
0.0
 10
-5.6279
 20
118.023
 30
0.0
  0
SPLINE
  5
F0
330
1F
100
AcDbEntity
  8
layer 1
 62
     7
100
AcDbSpline
210
0.0
220
0.0
230
1.0
 70
    11
 71
     3
 72
    16
 73
    12
 74
     0
 42
0.0000000001
 43
0.0000000001
 12
1.0
 22
0.0
 32
0.0
 13
1.0
 23
0.0
 33
0.0
 40
0.0
 40
0.0
 40
0.0
 40
0.0
 40
0.25
 40
0.25
 40
0.25
 40
0.25
 40
0.5
 40
0.5
 40
0.5
 40
0.5
 40
1.0
 40
1.0
 40
1.0
 40
1.0
 10
-35.944
 20
90.7714
 30
0.0
 10
-35.944
 20
90.7714
 30
0.0
 10
-35.7327
 20
118.482
 30
0.0
 10
-35.7327
 20
118.482
 30
0.0
 10
-35.7327
 20
118.482
 30
0.0
 10
-35.7327
 20
118.482
 30
0.0
 10
-42.7101
 20
97.5526
 30
0.0
 10
-42.7101
 20
97.5526
 30
0.0
 10
-42.7101
 20
97.5526
 30
0.0
 10
-42.7101
 20
97.5526
 30
0.0
 10
-35.944
 20
90.7714
 30
0.0
 10
-35.944
 20
90.7714
 30
0.0
  0
SPLINE
  5
F1
330
1F
100
AcDbEntity
  8
layer 1
 62
     7
100
AcDbSpline
210
0.0
220
0.0
230
1.0
 70
    11
 71
     3
 72
    16
 73
    12
 74
     0
 42
0.0000000001
 43
0.0000000001
 12
1.0
 22
0.0
 32
0.0
 13
1.0
 23
0.0
 33
0.0
 40
0.0
 40
0.0
 40
0.0
 40
0.0
 40
0.25
 40
0.25
 40
0.25
 40
0.25
 40
0.5
 40
0.5
 40
0.5
 40
0.5
 40
1.0
 40
1.0
 40
1.0
 40
1.0
 10
6.66
 20
-35.1455
 30
0.0
 10
6.66
 20
-35.1455
 30
0.0
 10
6.4487
 20
-62.8573
 30
0.0
 10
6.4487
 20
-62.8573
 30
0.0
 10
6.4487
 20
-62.8573
 30
0.0
 10
6.4487
 20
-62.8573
 30
0.0
 10
13.4248
 20
-41.9282
 30
0.0
 10
13.4248
 20
-41.9282
 30
0.0
 10
13.4248
 20
-41.9282
 30
0.0
 10
13.4248
 20
-41.9282
 30
0.0
 10
6.66
 20
-35.1455
 30
0.0
 10
6.66
 20
-35.1455
 30
0.0
  0
SPLINE
  5
F2
330
1F
100
AcDbEntity
  8
layer 1
 62
     7
100
AcDbSpline
210
0.0
220
0.0
230
1.0
 70
    11
 71
     3
 72
    16
 73
    12
 74
     0
 42
0.0000000001
 43
0.0000000001
 12
1.0
 22
0.0
 32
0.0
 13
1.0
 23
0.0
 33
0.0
 40
0.0
 40
0.0
 40
0.0
 40
0.0
 40
0.25
 40
0.25
 40
0.25
 40
0.25
 40
0.5
 40
0.5
 40
0.5
 40
0.5
 40
1.0
 40
1.0
 40
1.0
 40
1.0
 10
15.5806
 20
-44.2707
 30
0.0
 10
15.5806
 20
-44.2707
 30
0.0
 10
8.2736
 20
-65.7774
 30
0.0
 10
8.2736
 20
-65.7774
 30
0.0
 10
8.2736
 20
-65.7774
 30
0.0
 10
8.2736
 20
-65.7774
 30
0.0
 10
22.874
 20
-51.2956
 30
0.0
 10
22.874
 20
-51.2956
 30
0.0
 10
22.874
 20
-51.2956
 30
0.0
 10
22.874
 20
-51.2956
 30
0.0
 10
15.5806
 20
-44.2707
 30
0.0
 10
15.5806
 20
-44.2707
 30
0.0
  0
SPLINE
  5
F3
330
1F
100
AcDbEntity
  8
layer 1
 62
     7
100
AcDbSpline
210
0.0
220
0.0
230
1.0
 70
    11
 71
     3
 72
    16
 73
    12
 74
     0
 42
0.0000000001
 43
0.0000000001
 12
1.0
 22
0.0
 32
0.0
 13
1.0
 23
0.0
 33
0.0
 40
0.0
 40
0.0
 40
0.0
 40
0.0
 40
0.25
 40
0.25
 40
0.25
 40
0.25
 40
0.5
 40
0.5
 40
0.5
 40
0.5
 40
1.0
 40
1.0
 40
1.0
 40
1.0
 10
24.7456
 20
-53.2325
 30
0.0
 10
24.7456
 20
-53.2325
 30
0.0
 10
10.5033
 20
-67.7644
 30
0.0
 10
10.5033
 20
-67.7644
 30
0.0
 10
10.5033
 20
-67.7644
 30
0.0
 10
10.5033
 20
-67.7644
 30
0.0
 10
31.8361
 20
-60.4195
 30
0.0
 10
31.8361
 20
-60.4195
 30
0.0
 10
31.8361
 20
-60.4195
 30
0.0
 10
31.8361
 20
-60.4195
 30
0.0
 10
24.7456
 20
-53.2325
 30
0.0
 10
24.7456
 20
-53.2325
 30
0.0
  0
SPLINE
  5
F4
330
1F
100
AcDbEntity
  8
layer 1
 62
     7
100
AcDbSpline
210
0.0
220
0.0
230
1.0
 70
    11
 71
     3
 72
    16
 73
    12
 74
     0
 42
0.0000000001
 43
0.0000000001
 12
1.0
 22
0.0
 32
0.0
 13
1.0
 23
0.0
 33
0.0
 40
0.0
 40
0.0
 40
0.0
 40
0.0
 40
0.25
 40
0.25
 40
0.25
 40
0.25
 40
0.5
 40
0.5
 40
0.5
 40
0.5
 40
1.0
 40
1.0
 40
1.0
 40
1.0
 10
33.951
 20
-62.3971
 30
0.0
 10
33.951
 20
-62.3971
 30
0.0
 10
14.073
 20
-69.5897
 30
0.0
 10
14.073
 20
-69.5897
 30
0.0
 10
14.073
 20
-69.5897
 30
0.0
 10
14.073
 20
-69.5897
 30
0.0
 10
41.0414
 20
-69.5842
 30
0.0
 10
41.0414
 20
-69.5842
 30
0.0
 10
41.0414
 20
-69.5842
 30
0.0
 10
41.0414
 20
-69.5842
 30
0.0
 10
33.951
 20
-62.3971
 30
0.0
 10
33.951
 20
-62.3971
 30
0.0
  0
SPLINE
  5
F5
330
1F
100
AcDbEntity
  8
layer 1
 62
     7
100
AcDbSpline
210
0.0
220
0.0
230
1.0
 70
    11
 71
     3
 72
    16
 73
    12
 74
     0
 42
0.0000000001
 43
0.0000000001
 12
1.0
 22
0.0
 32
0.0
 13
1.0
 23
0.0
 33
0.0
 40
0.0
 40
0.0
 40
0.0
 40
0.0
 40
0.25
 40
0.25
 40
0.25
 40
0.25
 40
0.5
 40
0.5
 40
0.5
 40
0.5
 40
1.0
 40
1.0
 40
1.0
 40
1.0
 10
3.635
 20
-35.1455
 30
0.0
 10
3.635
 20
-35.1455
 30
0.0
 10
3.846
 20
-62.8573
 30
0.0
 10
3.846
 20
-62.8573
 30
0.0
 10
3.846
 20
-62.8573
 30
0.0
 10
3.846
 20
-62.8573
 30
0.0
 10
-3.1301
 20
-41.9282
 30
0.0
 10
-3.1301
 20
-41.9282
 30
0.0
 10
-3.1301
 20
-41.9282
 30
0.0
 10
-3.1301
 20
-41.9282
 30
0.0
 10
3.635
 20
-35.1455
 30
0.0
 10
3.635
 20
-35.1455
 30
0.0
  0
SPLINE
  5
F6
330
1F
100
AcDbEntity
  8
layer 1
 62
     7
100
AcDbSpline
210
0.0
220
0.0
230
1.0
 70
    11
 71
     3
 72
    16
 73
    12
 74
     0
 42
0.0000000001
 43
0.0000000001
 12
1.0
 22
0.0
 32
0.0
 13
1.0
 23
0.0
 33
0.0
 40
0.0
 40
0.0
 40
0.0
 40
0.0
 40
0.25
 40
0.25
 40
0.25
 40
0.25
 40
0.5
 40
0.5
 40
0.5
 40
0.5
 40
1.0
 40
1.0
 40
1.0
 40
1.0
 10
-5.2859
 20
-44.2707
 30
0.0
 10
-5.2859
 20
-44.2707
 30
0.0
 10
2.021
 20
-65.7774
 30
0.0
 10
2.021
 20
-65.7774
 30
0.0
 10
2.021
 20
-65.7774
 30
0.0
 10
2.021
 20
-65.7774
 30
0.0
 10
-12.5792
 20
-51.2956
 30
0.0
 10
-12.5792
 20
-51.2956
 30
0.0
 10
-12.5792
 20
-51.2956
 30
0.0
 10
-12.5792
 20
-51.2956
 30
0.0
 10
-5.2859
 20
-44.2707
 30
0.0
 10
-5.2859
 20
-44.2707
 30
0.0
  0
SPLINE
  5
F7
330
1F
100
AcDbEntity
  8
layer 1
 62
     7
100
AcDbSpline
210
0.0
220
0.0
230
1.0
 70
    11
 71
     3
 72
    16
 73
    12
 74
     0
 42
0.0000000001
 43
0.0000000001
 12
1.0
 22
0.0
 32
0.0
 13
1.0
 23
0.0
 33
0.0
 40
0.0
 40
0.0
 40
0.0
 40
0.0
 40
0.25
 40
0.25
 40
0.25
 40
0.25
 40
0.5
 40
0.5
 40
0.5
 40
0.5
 40
1.0
 40
1.0
 40
1.0
 40
1.0
 10
-14.4519
 20
-53.2325
 30
0.0
 10
-14.4519
 20
-53.2325
 30
0.0
 10
-0.2101
 20
-67.7644
 30
0.0
 10
-0.2101
 20
-67.7644
 30
0.0
 10
-0.2101
 20
-67.7644
 30
0.0
 10
-0.2101
 20
-67.7644
 30
0.0
 10
-21.541
 20
-60.4195
 30
0.0
 10
-21.541
 20
-60.4195
 30
0.0
 10
-21.541
 20
-60.4195
 30
0.0
 10
-21.541
 20
-60.4195
 30
0.0
 10
-14.4519
 20
-53.2325
 30
0.0
 10
-14.4519
 20
-53.2325
 30
0.0
  0
SPLINE
  5
F8
330
1F
100
AcDbEntity
  8
layer 1
 62
     7
100
AcDbSpline
210
0.0
220
0.0
230
1.0
 70
    11
 71
     3
 72
    16
 73
    12
 74
     0
 42
0.0000000001
 43
0.0000000001
 12
1.0
 22
0.0
 32
0.0
 13
1.0
 23
0.0
 33
0.0
 40
0.0
 40
0.0
 40
0.0
 40
0.0
 40
0.25
 40
0.25
 40
0.25
 40
0.25
 40
0.5
 40
0.5
 40
0.5
 40
0.5
 40
1.0
 40
1.0
 40
1.0
 40
1.0
 10
-23.6563
 20
-62.3971
 30
0.0
 10
-23.6563
 20
-62.3971
 30
0.0
 10
-3.7783
 20
-69.5897
 30
0.0
 10
-3.7783
 20
-69.5897
 30
0.0
 10
-3.7783
 20
-69.5897
 30
0.0
 10
-3.7783
 20
-69.5897
 30
0.0
 10
-30.7468
 20
-69.5842
 30
0.0
 10
-30.7468
 20
-69.5842
 30
0.0
 10
-30.7468
 20
-69.5842
 30
0.0
 10
-30.7468
 20
-69.5842
 30
0.0
 10
-23.6563
 20
-62.3971
 30
0.0
 10
-23.6563
 20
-62.3971
 30
0.0
  0
SPLINE
  5
F9
330
1F
100
AcDbEntity
  8
layer 1
 62
     7
100
AcDbSpline
210
0.0
220
0.0
230
1.0
 70
    11
 71
     3
 72
    16
 73
    12
 74
     0
 42
0.0000000001
 43
0.0000000001
 12
1.0
 22
0.0
 32
0.0
 13
1.0
 23
0.0
 33
0.0
 40
0.0
 40
0.0
 40
0.0
 40
0.0
 40
0.25
 40
0.25
 40
0.25
 40
0.25
 40
0.5
 40
0.5
 40
0.5
 40
0.5
 40
1.0
 40
1.0
 40
1.0
 40
1.0
 10
6.66
 20
-107.0261
 30
0.0
 10
6.66
 20
-107.0261
 30
0.0
 10
6.4487
 20
-79.3154
 30
0.0
 10
6.4487
 20
-79.3154
 30
0.0
 10
6.4487
 20
-79.3154
 30
0.0
 10
6.4487
 20
-79.3154
 30
0.0
 10
13.4248
 20
-100.2449
 30
0.0
 10
13.4248
 20
-100.2449
 30
0.0
 10
13.4248
 20
-100.2449
 30
0.0
 10
13.4248
 20
-100.2449
 30
0.0
 10
6.66
 20
-107.0261
 30
0.0
 10
6.66
 20
-107.0261
 30
0.0
  0
SPLINE
  5
FA
330
1F
100
AcDbEntity
  8
layer 1
 62
     7
100
AcDbSpline
210
0.0
220
0.0
230
1.0
 70
    11
 71
     3
 72
    16
 73
    12
 74
     0
 42
0.0000000001
 43
0.0000000001
 12
1.0
 22
0.0
 32
0.0
 13
1.0
 23
0.0
 33
0.0
 40
0.0
 40
0.0
 40
0.0
 40
0.0
 40
0.25
 40
0.25
 40
0.25
 40
0.25
 40
0.5
 40
0.5
 40
0.5
 40
0.5
 40
1.0
 40
1.0
 40
1.0
 40
1.0
 10
15.5806
 20
-97.9023
 30
0.0
 10
15.5806
 20
-97.9023
 30
0.0
 10
8.2736
 20
-76.3953
 30
0.0
 10
8.2736
 20
-76.3953
 30
0.0
 10
8.2736
 20
-76.3953
 30
0.0
 10
8.2736
 20
-76.3953
 30
0.0
 10
22.874
 20
-90.8775
 30
0.0
 10
22.874
 20
-90.8775
 30
0.0
 10
22.874
 20
-90.8775
 30
0.0
 10
22.874
 20
-90.8775
 30
0.0
 10
15.5806
 20
-97.9023
 30
0.0
 10
15.5806
 20
-97.9023
 30
0.0
  0
SPLINE
  5
FB
330
1F
100
AcDbEntity
  8
layer 1
 62
     7
100
AcDbSpline
210
0.0
220
0.0
230
1.0
 70
    11
 71
     3
 72
    16
 73
    12
 74
     0
 42
0.0000000001
 43
0.0000000001
 12
1.0
 22
0.0
 32
0.0
 13
1.0
 23
0.0
 33
0.0
 40
0.0
 40
0.0
 40
0.0
 40
0.0
 40
0.25
 40
0.25
 40
0.25
 40
0.25
 40
0.5
 40
0.5
 40
0.5
 40
0.5
 40
1.0
 40
1.0
 40
1.0
 40
1.0
 10
24.7456
 20
-88.9406
 30
0.0
 10
24.7456
 20
-88.9406
 30
0.0
 10
10.5033
 20
-74.4083
 30
0.0
 10
10.5033
 20
-74.4083
 30
0.0
 10
10.5033
 20
-74.4083
 30
0.0
 10
10.5033
 20
-74.4083
 30
0.0
 10
31.8361
 20
-81.7536
 30
0.0
 10
31.8361
 20
-81.7536
 30
0.0
 10
31.8361
 20
-81.7536
 30
0.0
 10
31.8361
 20
-81.7536
 30
0.0
 10
24.7456
 20
-88.9406
 30
0.0
 10
24.7456
 20
-88.9406
 30
0.0
  0
SPLINE
  5
FC
330
1F
100
AcDbEntity
  8
layer 1
 62
     7
100
AcDbSpline
210
0.0
220
0.0
230
1.0
 70
    11
 71
     3
 72
    16
 73
    12
 74
     0
 42
0.0000000001
 43
0.0000000001
 12
1.0
 22
0.0
 32
0.0
 13
1.0
 23
0.0
 33
0.0
 40
0.0
 40
0.0
 40
0.0
 40
0.0
 40
0.25
 40
0.25
 40
0.25
 40
0.25
 40
0.5
 40
0.5
 40
0.5
 40
0.5
 40
1.0
 40
1.0
 40
1.0
 40
1.0
 10
33.951
 20
-79.7759
 30
0.0
 10
33.951
 20
-79.7759
 30
0.0
 10
14.073
 20
-72.5834
 30
0.0
 10
14.073
 20
-72.5834
 30
0.0
 10
14.073
 20
-72.5834
 30
0.0
 10
14.073
 20
-72.5834
 30
0.0
 10
41.0414
 20
-72.5875
 30
0.0
 10
41.0414
 20
-72.5875
 30
0.0
 10
41.0414
 20
-72.5875
 30
0.0
 10
41.0414
 20
-72.5875
 30
0.0
 10
33.951
 20
-79.7759
 30
0.0
 10
33.951
 20
-79.7759
 30
0.0
  0
SPLINE
  5
FD
330
1F
100
AcDbEntity
  8
layer 1
 62
     7
100
AcDbSpline
210
0.0
220
0.0
230
1.0
 70
    11
 71
     3
 72
    16
 73
    12
 74
     0
 42
0.0000000001
 43
0.0000000001
 12
1.0
 22
0.0
 32
0.0
 13
1.0
 23
0.0
 33
0.0
 40
0.0
 40
0.0
 40
0.0
 40
0.0
 40
0.25
 40
0.25
 40
0.25
 40
0.25
 40
0.5
 40
0.5
 40
0.5
 40
0.5
 40
1.0
 40
1.0
 40
1.0
 40
1.0
 10
3.635
 20
-107.0261
 30
0.0
 10
3.635
 20
-107.0261
 30
0.0
 10
3.846
 20
-79.3154
 30
0.0
 10
3.846
 20
-79.3154
 30
0.0
 10
3.846
 20
-79.3154
 30
0.0
 10
3.846
 20
-79.3154
 30
0.0
 10
-3.1301
 20
-100.2449
 30
0.0
 10
-3.1301
 20
-100.2449
 30
0.0
 10
-3.1301
 20
-100.2449
 30
0.0
 10
-3.1301
 20
-100.2449
 30
0.0
 10
3.635
 20
-107.0261
 30
0.0
 10
3.635
 20
-107.0261
 30
0.0
  0
SPLINE
  5
FE
330
1F
100
AcDbEntity
  8
layer 1
 62
     7
100
AcDbSpline
210
0.0
220
0.0
230
1.0
 70
    11
 71
     3
 72
    16
 73
    12
 74
     0
 42
0.0000000001
 43
0.0000000001
 12
1.0
 22
0.0
 32
0.0
 13
1.0
 23
0.0
 33
0.0
 40
0.0
 40
0.0
 40
0.0
 40
0.0
 40
0.25
 40
0.25
 40
0.25
 40
0.25
 40
0.5
 40
0.5
 40
0.5
 40
0.5
 40
1.0
 40
1.0
 40
1.0
 40
1.0
 10
-5.2859
 20
-97.9023
 30
0.0
 10
-5.2859
 20
-97.9023
 30
0.0
 10
2.021
 20
-76.3953
 30
0.0
 10
2.021
 20
-76.3953
 30
0.0
 10
2.021
 20
-76.3953
 30
0.0
 10
2.021
 20
-76.3953
 30
0.0
 10
-12.5792
 20
-90.8775
 30
0.0
 10
-12.5792
 20
-90.8775
 30
0.0
 10
-12.5792
 20
-90.8775
 30
0.0
 10
-12.5792
 20
-90.8775
 30
0.0
 10
-5.2859
 20
-97.9023
 30
0.0
 10
-5.2859
 20
-97.9023
 30
0.0
  0
SPLINE
  5
FF
330
1F
100
AcDbEntity
  8
layer 1
 62
     7
100
AcDbSpline
210
0.0
220
0.0
230
1.0
 70
    11
 71
     3
 72
    16
 73
    12
 74
     0
 42
0.0000000001
 43
0.0000000001
 12
1.0
 22
0.0
 32
0.0
 13
1.0
 23
0.0
 33
0.0
 40
0.0
 40
0.0
 40
0.0
 40
0.0
 40
0.25
 40
0.25
 40
0.25
 40
0.25
 40
0.5
 40
0.5
 40
0.5
 40
0.5
 40
1.0
 40
1.0
 40
1.0
 40
1.0
 10
-14.4519
 20
-88.9406
 30
0.0
 10
-14.4519
 20
-88.9406
 30
0.0
 10
-0.2101
 20
-74.4083
 30
0.0
 10
-0.2101
 20
-74.4083
 30
0.0
 10
-0.2101
 20
-74.4083
 30
0.0
 10
-0.2101
 20
-74.4083
 30
0.0
 10
-21.541
 20
-81.7536
 30
0.0
 10
-21.541
 20
-81.7536
 30
0.0
 10
-21.541
 20
-81.7536
 30
0.0
 10
-21.541
 20
-81.7536
 30
0.0
 10
-14.4519
 20
-88.9406
 30
0.0
 10
-14.4519
 20
-88.9406
 30
0.0
  0
SPLINE
  5
100
330
1F
100
AcDbEntity
  8
layer 1
 62
     7
100
AcDbSpline
210
0.0
220
0.0
230
1.0
 70
    11
 71
     3
 72
    16
 73
    12
 74
     0
 42
0.0000000001
 43
0.0000000001
 12
1.0
 22
0.0
 32
0.0
 13
1.0
 23
0.0
 33
0.0
 40
0.0
 40
0.0
 40
0.0
 40
0.0
 40
0.25
 40
0.25
 40
0.25
 40
0.25
 40
0.5
 40
0.5
 40
0.5
 40
0.5
 40
1.0
 40
1.0
 40
1.0
 40
1.0
 10
-23.6563
 20
-79.7759
 30
0.0
 10
-23.6563
 20
-79.7759
 30
0.0
 10
-3.7783
 20
-72.5834
 30
0.0
 10
-3.7783
 20
-72.5834
 30
0.0
 10
-3.7783
 20
-72.5834
 30
0.0
 10
-3.7783
 20
-72.5834
 30
0.0
 10
-30.7468
 20
-72.5875
 30
0.0
 10
-30.7468
 20
-72.5875
 30
0.0
 10
-30.7468
 20
-72.5875
 30
0.0
 10
-30.7468
 20
-72.5875
 30
0.0
 10
-23.6563
 20
-79.7759
 30
0.0
 10
-23.6563
 20
-79.7759
 30
0.0
  0
SPLINE
  5
101
330
1F
100
AcDbEntity
  8
layer 1
 62
     7
100
AcDbSpline
210
0.0
220
0.0
230
1.0
 70
    11
 71
     3
 72
    16
 73
    12
 74
     0
 42
0.0000000001
 43
0.0000000001
 12
1.0
 22
0.0
 32
0.0
 13
1.0
 23
0.0
 33
0.0
 40
0.0
 40
0.0
 40
0.0
 40
0.0
 40
0.25
 40
0.25
 40
0.25
 40
0.25
 40
0.5
 40
0.5
 40
0.5
 40
0.5
 40
1.0
 40
1.0
 40
1.0
 40
1.0
 10
46.0765
 20
4.5956
 30
0.0
 10
46.0765
 20
4.5956
 30
0.0
 10
45.8656
 20
-23.1151
 30
0.0
 10
45.8656
 20
-23.1151
 30
0.0
 10
45.8656
 20
-23.1151
 30
0.0
 10
45.8656
 20
-23.1151
 30
0.0
 10
52.843
 20
-2.1859
 30
0.0
 10
52.843
 20
-2.1859
 30
0.0
 10
52.843
 20
-2.1859
 30
0.0
 10
52.843
 20
-2.1859
 30
0.0
 10
46.0765
 20
4.5956
 30
0.0
 10
46.0765
 20
4.5956
 30
0.0
  0
SPLINE
  5
102
330
1F
100
AcDbEntity
  8
layer 1
 62
     7
100
AcDbSpline
210
0.0
220
0.0
230
1.0
 70
    11
 71
     3
 72
    16
 73
    12
 74
     0
 42
0.0000000001
 43
0.0000000001
 12
1.0
 22
0.0
 32
0.0
 13
1.0
 23
0.0
 33
0.0
 40
0.0
 40
0.0
 40
0.0
 40
0.0
 40
0.25
 40
0.25
 40
0.25
 40
0.25
 40
0.5
 40
0.5
 40
0.5
 40
0.5
 40
1.0
 40
1.0
 40
1.0
 40
1.0
 10
43.0518
 20
4.5956
 30
0.0
 10
43.0518
 20
4.5956
 30
0.0
 10
43.2627
 20
-23.1151
 30
0.0
 10
43.2627
 20
-23.1151
 30
0.0
 10
43.2627
 20
-23.1151
 30
0.0
 10
43.2627
 20
-23.1151
 30
0.0
 10
36.2867
 20
-2.1859
 30
0.0
 10
36.2867
 20
-2.1859
 30
0.0
 10
36.2867
 20
-2.1859
 30
0.0
 10
36.2867
 20
-2.1859
 30
0.0
 10
43.0518
 20
4.5956
 30
0.0
 10
43.0518
 20
4.5956
 30
0.0
  0
SPLINE
  5
103
330
1F
100
AcDbEntity
  8
layer 1
 62
     7
100
AcDbSpline
210
0.0
220
0.0
230
1.0
 70
    11
 71
     3
 72
    16
 73
    12
 74
     0
 42
0.0000000001
 43
0.0000000001
 12
1.0
 22
0.0
 32
0.0
 13
1.0
 23
0.0
 33
0.0
 40
0.0
 40
0.0
 40
0.0
 40
0.0
 40
0.25
 40
0.25
 40
0.25
 40
0.25
 40
0.5
 40
0.5
 40
0.5
 40
0.5
 40
1.0
 40
1.0
 40
1.0
 40
1.0
 10
34.131
 20
-4.5282
 30
0.0
 10
34.131
 20
-4.5282
 30
0.0
 10
41.438
 20
-26.0353
 30
0.0
 10
41.438
 20
-26.0353
 30
0.0
 10
41.438
 20
-26.0353
 30
0.0
 10
41.438
 20
-26.0353
 30
0.0
 10
26.8376
 20
-11.5534
 30
0.0
 10
26.8376
 20
-11.5534
 30
0.0
 10
26.8376
 20
-11.5534
 30
0.0
 10
26.8376
 20
-11.5534
 30
0.0
 10
34.131
 20
-4.5282
 30
0.0
 10
34.131
 20
-4.5282
 30
0.0
  0
SPLINE
  5
104
330
1F
100
AcDbEntity
  8
layer 1
 62
     7
100
AcDbSpline
210
0.0
220
0.0
230
1.0
 70
    11
 71
     3
 72
    16
 73
    12
 74
     0
 42
0.0000000001
 43
0.0000000001
 12
1.0
 22
0.0
 32
0.0
 13
1.0
 23
0.0
 33
0.0
 40
0.0
 40
0.0
 40
0.0
 40
0.0
 40
0.25
 40
0.25
 40
0.25
 40
0.25
 40
0.5
 40
0.5
 40
0.5
 40
0.5
 40
1.0
 40
1.0
 40
1.0
 40
1.0
 10
24.966
 20
-13.4914
 30
0.0
 10
24.966
 20
-13.4914
 30
0.0
 10
39.2082
 20
-28.0222
 30
0.0
 10
39.2082
 20
-28.0222
 30
0.0
 10
39.2082
 20
-28.0222
 30
0.0
 10
39.2082
 20
-28.0222
 30
0.0
 10
17.8759
 20
-20.6787
 30
0.0
 10
17.8759
 20
-20.6787
 30
0.0
 10
17.8759
 20
-20.6787
 30
0.0
 10
17.8759
 20
-20.6787
 30
0.0
 10
24.966
 20
-13.4914
 30
0.0
 10
24.966
 20
-13.4914
 30
0.0
  0
SPLINE
  5
105
330
1F
100
AcDbEntity
  8
layer 1
 62
     7
100
AcDbSpline
210
0.0
220
0.0
230
1.0
 70
    11
 71
     3
 72
    16
 73
    12
 74
     0
 42
0.0000000001
 43
0.0000000001
 12
1.0
 22
0.0
 32
0.0
 13
1.0
 23
0.0
 33
0.0
 40
0.0
 40
0.0
 40
0.0
 40
0.0
 40
0.25
 40
0.25
 40
0.25
 40
0.25
 40
0.5
 40
0.5
 40
0.5
 40
0.5
 40
1.0
 40
1.0
 40
1.0
 40
1.0
 10
15.7605
 20
-22.656
 30
0.0
 10
15.7605
 20
-22.656
 30
0.0
 10
35.64
 20
-29.8472
 30
0.0
 10
35.64
 20
-29.8472
 30
0.0
 10
35.64
 20
-29.8472
 30
0.0
 10
35.64
 20
-29.8472
 30
0.0
 10
8.6701
 20
-29.8433
 30
0.0
 10
8.6701
 20
-29.8433
 30
0.0
 10
8.6701
 20
-29.8433
 30
0.0
 10
8.6701
 20
-29.8433
 30
0.0
 10
15.7605
 20
-22.656
 30
0.0
 10
15.7605
 20
-22.656
 30
0.0
  0
SPLINE
  5
106
330
1F
100
AcDbEntity
  8
layer 1
 62
     7
100
AcDbSpline
210
0.0
220
0.0
230
1.0
 70
    11
 71
     3
 72
    16
 73
    12
 74
     0
 42
0.0000000001
 43
0.0000000001
 12
1.0
 22
0.0
 32
0.0
 13
1.0
 23
0.0
 33
0.0
 40
0.0
 40
0.0
 40
0.0
 40
0.0
 40
0.25
 40
0.25
 40
0.25
 40
0.25
 40
0.5
 40
0.5
 40
0.5
 40
0.5
 40
1.0
 40
1.0
 40
1.0
 40
1.0
 10
46.0765
 20
-67.285
 30
0.0
 10
46.0765
 20
-67.285
 30
0.0
 10
45.8656
 20
-39.5732
 30
0.0
 10
45.8656
 20
-39.5732
 30
0.0
 10
45.8656
 20
-39.5732
 30
0.0
 10
45.8656
 20
-39.5732
 30
0.0
 10
52.843
 20
-60.5025
 30
0.0
 10
52.843
 20
-60.5025
 30
0.0
 10
52.843
 20
-60.5025
 30
0.0
 10
52.843
 20
-60.5025
 30
0.0
 10
46.0765
 20
-67.285
 30
0.0
 10
46.0765
 20
-67.285
 30
0.0
  0
SPLINE
  5
107
330
1F
100
AcDbEntity
  8
layer 1
 62
     7
100
AcDbSpline
210
0.0
220
0.0
230
1.0
 70
    11
 71
     3
 72
    16
 73
    12
 74
     0
 42
0.0000000001
 43
0.0000000001
 12
1.0
 22
0.0
 32
0.0
 13
1.0
 23
0.0
 33
0.0
 40
0.0
 40
0.0
 40
0.0
 40
0.0
 40
0.25
 40
0.25
 40
0.25
 40
0.25
 40
0.5
 40
0.5
 40
0.5
 40
0.5
 40
1.0
 40
1.0
 40
1.0
 40
1.0
 10
43.0518
 20
-67.285
 30
0.0
 10
43.0518
 20
-67.285
 30
0.0
 10
43.2627
 20
-39.5732
 30
0.0
 10
43.2627
 20
-39.5732
 30
0.0
 10
43.2627
 20
-39.5732
 30
0.0
 10
43.2627
 20
-39.5732
 30
0.0
 10
36.2867
 20
-60.5025
 30
0.0
 10
36.2867
 20
-60.5025
 30
0.0
 10
36.2867
 20
-60.5025
 30
0.0
 10
36.2867
 20
-60.5025
 30
0.0
 10
43.0518
 20
-67.285
 30
0.0
 10
43.0518
 20
-67.285
 30
0.0
  0
SPLINE
  5
108
330
1F
100
AcDbEntity
  8
layer 1
 62
     7
100
AcDbSpline
210
0.0
220
0.0
230
1.0
 70
    11
 71
     3
 72
    16
 73
    12
 74
     0
 42
0.0000000001
 43
0.0000000001
 12
1.0
 22
0.0
 32
0.0
 13
1.0
 23
0.0
 33
0.0
 40
0.0
 40
0.0
 40
0.0
 40
0.0
 40
0.25
 40
0.25
 40
0.25
 40
0.25
 40
0.5
 40
0.5
 40
0.5
 40
0.5
 40
1.0
 40
1.0
 40
1.0
 40
1.0
 10
34.131
 20
-58.1615
 30
0.0
 10
34.131
 20
-58.1615
 30
0.0
 10
41.438
 20
-36.6546
 30
0.0
 10
41.438
 20
-36.6546
 30
0.0
 10
41.438
 20
-36.6546
 30
0.0
 10
41.438
 20
-36.6546
 30
0.0
 10
26.8376
 20
-51.1349
 30
0.0
 10
26.8376
 20
-51.1349
 30
0.0
 10
26.8376
 20
-51.1349
 30
0.0
 10
26.8376
 20
-51.1349
 30
0.0
 10
34.131
 20
-58.1615
 30
0.0
 10
34.131
 20
-58.1615
 30
0.0
  0
SPLINE
  5
109
330
1F
100
AcDbEntity
  8
layer 1
 62
     7
100
AcDbSpline
210
0.0
220
0.0
230
1.0
 70
    11
 71
     3
 72
    16
 73
    12
 74
     0
 42
0.0000000001
 43
0.0000000001
 12
1.0
 22
0.0
 32
0.0
 13
1.0
 23
0.0
 33
0.0
 40
0.0
 40
0.0
 40
0.0
 40
0.0
 40
0.25
 40
0.25
 40
0.25
 40
0.25
 40
0.5
 40
0.5
 40
0.5
 40
0.5
 40
1.0
 40
1.0
 40
1.0
 40
1.0
 10
24.966
 20
-49.1981
 30
0.0
 10
24.966
 20
-49.1981
 30
0.0
 10
39.2082
 20
-34.6675
 30
0.0
 10
39.2082
 20
-34.6675
 30
0.0
 10
39.2082
 20
-34.6675
 30
0.0
 10
39.2082
 20
-34.6675
 30
0.0
 10
17.8759
 20
-42.0111
 30
0.0
 10
17.8759
 20
-42.0111
 30
0.0
 10
17.8759
 20
-42.0111
 30
0.0
 10
17.8759
 20
-42.0111
 30
0.0
 10
24.966
 20
-49.1981
 30
0.0
 10
24.966
 20
-49.1981
 30
0.0
  0
SPLINE
  5
10A
330
1F
100
AcDbEntity
  8
layer 1
 62
     7
100
AcDbSpline
210
0.0
220
0.0
230
1.0
 70
    11
 71
     3
 72
    16
 73
    12
 74
     0
 42
0.0000000001
 43
0.0000000001
 12
1.0
 22
0.0
 32
0.0
 13
1.0
 23
0.0
 33
0.0
 40
0.0
 40
0.0
 40
0.0
 40
0.0
 40
0.25
 40
0.25
 40
0.25
 40
0.25
 40
0.5
 40
0.5
 40
0.5
 40
0.5
 40
1.0
 40
1.0
 40
1.0
 40
1.0
 10
15.7605
 20
-40.0334
 30
0.0
 10
15.7605
 20
-40.0334
 30
0.0
 10
35.64
 20
-32.8423
 30
0.0
 10
35.64
 20
-32.8423
 30
0.0
 10
35.64
 20
-32.8423
 30
0.0
 10
35.64
 20
-32.8423
 30
0.0
 10
8.6701
 20
-32.8464
 30
0.0
 10
8.6701
 20
-32.8464
 30
0.0
 10
8.6701
 20
-32.8464
 30
0.0
 10
8.6701
 20
-32.8464
 30
0.0
 10
15.7605
 20
-40.0334
 30
0.0
 10
15.7605
 20
-40.0334
 30
0.0
  0
SPLINE
  5
10B
330
1F
100
AcDbEntity
  8
layer 1
 62
     7
100
AcDbSpline
210
0.0
220
0.0
230
1.0
 70
    11
 71
     3
 72
    16
 73
    12
 74
     0
 42
0.0000000001
 43
0.0000000001
 12
1.0
 22
0.0
 32
0.0
 13
1.0
 23
0.0
 33
0.0
 40
0.0
 40
0.0
 40
0.0
 40
0.0
 40
0.25
 40
0.25
 40
0.25
 40
0.25
 40
0.5
 40
0.5
 40
0.5
 40
0.5
 40
1.0
 40
1.0
 40
1.0
 40
1.0
 10
-32.9203
 20
4.5956
 30
0.0
 10
-32.9203
 20
4.5956
 30
0.0
 10
-33.1303
 20
-23.1151
 30
0.0
 10
-33.1303
 20
-23.1151
 30
0.0
 10
-33.1303
 20
-23.1151
 30
0.0
 10
-33.1303
 20
-23.1151
 30
0.0
 10
-26.1542
 20
-2.1859
 30
0.0
 10
-26.1542
 20
-2.1859
 30
0.0
 10
-26.1542
 20
-2.1859
 30
0.0
 10
-26.1542
 20
-2.1859
 30
0.0
 10
-32.9203
 20
4.5956
 30
0.0
 10
-32.9203
 20
4.5956
 30
0.0
  0
SPLINE
  5
10C
330
1F
100
AcDbEntity
  8
layer 1
 62
     7
100
AcDbSpline
210
0.0
220
0.0
230
1.0
 70
    11
 71
     3
 72
    16
 73
    12
 74
     0
 42
0.0000000001
 43
0.0000000001
 12
1.0
 22
0.0
 32
0.0
 13
1.0
 23
0.0
 33
0.0
 40
0.0
 40
0.0
 40
0.0
 40
0.0
 40
0.25
 40
0.25
 40
0.25
 40
0.25
 40
0.5
 40
0.5
 40
0.5
 40
0.5
 40
1.0
 40
1.0
 40
1.0
 40
1.0
 10
-23.998
 20
-4.5282
 30
0.0
 10
-23.998
 20
-4.5282
 30
0.0
 10
-31.305
 20
-26.0353
 30
0.0
 10
-31.305
 20
-26.0353
 30
0.0
 10
-31.305
 20
-26.0353
 30
0.0
 10
-31.305
 20
-26.0353
 30
0.0
 10
-16.7047
 20
-11.5534
 30
0.0
 10
-16.7047
 20
-11.5534
 30
0.0
 10
-16.7047
 20
-11.5534
 30
0.0
 10
-16.7047
 20
-11.5534
 30
0.0
 10
-23.998
 20
-4.5282
 30
0.0
 10
-23.998
 20
-4.5282
 30
0.0
  0
SPLINE
  5
10D
330
1F
100
AcDbEntity
  8
layer 1
 62
     7
100
AcDbSpline
210
0.0
220
0.0
230
1.0
 70
    11
 71
     3
 72
    16
 73
    12
 74
     0
 42
0.0000000001
 43
0.0000000001
 12
1.0
 22
0.0
 32
0.0
 13
1.0
 23
0.0
 33
0.0
 40
0.0
 40
0.0
 40
0.0
 40
0.0
 40
0.25
 40
0.25
 40
0.25
 40
0.25
 40
0.5
 40
0.5
 40
0.5
 40
0.5
 40
1.0
 40
1.0
 40
1.0
 40
1.0
 10
-14.8334
 20
-13.4914
 30
0.0
 10
-14.8334
 20
-13.4914
 30
0.0
 10
-29.0756
 20
-28.0222
 30
0.0
 10
-29.0756
 20
-28.0222
 30
0.0
 10
-29.0756
 20
-28.0222
 30
0.0
 10
-29.0756
 20
-28.0222
 30
0.0
 10
-7.743
 20
-20.6787
 30
0.0
 10
-7.743
 20
-20.6787
 30
0.0
 10
-7.743
 20
-20.6787
 30
0.0
 10
-7.743
 20
-20.6787
 30
0.0
 10
-14.8334
 20
-13.4914
 30
0.0
 10
-14.8334
 20
-13.4914
 30
0.0
  0
SPLINE
  5
10E
330
1F
100
AcDbEntity
  8
layer 1
 62
     7
100
AcDbSpline
210
0.0
220
0.0
230
1.0
 70
    11
 71
     3
 72
    16
 73
    12
 74
     0
 42
0.0000000001
 43
0.0000000001
 12
1.0
 22
0.0
 32
0.0
 13
1.0
 23
0.0
 33
0.0
 40
0.0
 40
0.0
 40
0.0
 40
0.0
 40
0.25
 40
0.25
 40
0.25
 40
0.25
 40
0.5
 40
0.5
 40
0.5
 40
0.5
 40
1.0
 40
1.0
 40
1.0
 40
1.0
 10
-5.6279
 20
-22.656
 30
0.0
 10
-5.6279
 20
-22.656
 30
0.0
 10
-25.507
 20
-29.8472
 30
0.0
 10
-25.507
 20
-29.8472
 30
0.0
 10
-25.507
 20
-29.8472
 30
0.0
 10
-25.507
 20
-29.8472
 30
0.0
 10
1.4624
 20
-29.8433
 30
0.0
 10
1.4624
 20
-29.8433
 30
0.0
 10
1.4624
 20
-29.8433
 30
0.0
 10
1.4624
 20
-29.8433
 30
0.0
 10
-5.6279
 20
-22.656
 30
0.0
 10
-5.6279
 20
-22.656
 30
0.0
  0
SPLINE
  5
10F
330
1F
100
AcDbEntity
  8
layer 1
 62
     7
100
AcDbSpline
210
0.0
220
0.0
230
1.0
 70
    11
 71
     3
 72
    16
 73
    12
 74
     0
 42
0.0000000001
 43
0.0000000001
 12
1.0
 22
0.0
 32
0.0
 13
1.0
 23
0.0
 33
0.0
 40
0.0
 40
0.0
 40
0.0
 40
0.0
 40
0.25
 40
0.25
 40
0.25
 40
0.25
 40
0.5
 40
0.5
 40
0.5
 40
0.5
 40
1.0
 40
1.0
 40
1.0
 40
1.0
 10
-35.944
 20
4.5956
 30
0.0
 10
-35.944
 20
4.5956
 30
0.0
 10
-35.7327
 20
-23.1151
 30
0.0
 10
-35.7327
 20
-23.1151
 30
0.0
 10
-35.7327
 20
-23.1151
 30
0.0
 10
-35.7327
 20
-23.1151
 30
0.0
 10
-42.7101
 20
-2.1859
 30
0.0
 10
-42.7101
 20
-2.1859
 30
0.0
 10
-42.7101
 20
-2.1859
 30
0.0
 10
-42.7101
 20
-2.1859
 30
0.0
 10
-35.944
 20
4.5956
 30
0.0
 10
-35.944
 20
4.5956
 30
0.0
  0
SPLINE
  5
110
330
1F
100
AcDbEntity
  8
layer 1
 62
     7
100
AcDbSpline
210
0.0
220
0.0
230
1.0
 70
    11
 71
     3
 72
    16
 73
    12
 74
     0
 42
0.0000000001
 43
0.0000000001
 12
1.0
 22
0.0
 32
0.0
 13
1.0
 23
0.0
 33
0.0
 40
0.0
 40
0.0
 40
0.0
 40
0.0
 40
0.25
 40
0.25
 40
0.25
 40
0.25
 40
0.5
 40
0.5
 40
0.5
 40
0.5
 40
1.0
 40
1.0
 40
1.0
 40
1.0
 10
-32.9203
 20
-67.285
 30
0.0
 10
-32.9203
 20
-67.285
 30
0.0
 10
-33.1303
 20
-39.5732
 30
0.0
 10
-33.1303
 20
-39.5732
 30
0.0
 10
-33.1303
 20
-39.5732
 30
0.0
 10
-33.1303
 20
-39.5732
 30
0.0
 10
-26.1542
 20
-60.5025
 30
0.0
 10
-26.1542
 20
-60.5025
 30
0.0
 10
-26.1542
 20
-60.5025
 30
0.0
 10
-26.1542
 20
-60.5025
 30
0.0
 10
-32.9203
 20
-67.285
 30
0.0
 10
-32.9203
 20
-67.285
 30
0.0
  0
SPLINE
  5
111
330
1F
100
AcDbEntity
  8
layer 1
 62
     7
100
AcDbSpline
210
0.0
220
0.0
230
1.0
 70
    11
 71
     3
 72
    16
 73
    12
 74
     0
 42
0.0000000001
 43
0.0000000001
 12
1.0
 22
0.0
 32
0.0
 13
1.0
 23
0.0
 33
0.0
 40
0.0
 40
0.0
 40
0.0
 40
0.0
 40
0.25
 40
0.25
 40
0.25
 40
0.25
 40
0.5
 40
0.5
 40
0.5
 40
0.5
 40
1.0
 40
1.0
 40
1.0
 40
1.0
 10
-23.998
 20
-58.1615
 30
0.0
 10
-23.998
 20
-58.1615
 30
0.0
 10
-31.305
 20
-36.6546
 30
0.0
 10
-31.305
 20
-36.6546
 30
0.0
 10
-31.305
 20
-36.6546
 30
0.0
 10
-31.305
 20
-36.6546
 30
0.0
 10
-16.7047
 20
-51.1349
 30
0.0
 10
-16.7047
 20
-51.1349
 30
0.0
 10
-16.7047
 20
-51.1349
 30
0.0
 10
-16.7047
 20
-51.1349
 30
0.0
 10
-23.998
 20
-58.1615
 30
0.0
 10
-23.998
 20
-58.1615
 30
0.0
  0
SPLINE
  5
112
330
1F
100
AcDbEntity
  8
layer 1
 62
     7
100
AcDbSpline
210
0.0
220
0.0
230
1.0
 70
    11
 71
     3
 72
    16
 73
    12
 74
     0
 42
0.0000000001
 43
0.0000000001
 12
1.0
 22
0.0
 32
0.0
 13
1.0
 23
0.0
 33
0.0
 40
0.0
 40
0.0
 40
0.0
 40
0.0
 40
0.25
 40
0.25
 40
0.25
 40
0.25
 40
0.5
 40
0.5
 40
0.5
 40
0.5
 40
1.0
 40
1.0
 40
1.0
 40
1.0
 10
-14.8334
 20
-49.1981
 30
0.0
 10
-14.8334
 20
-49.1981
 30
0.0
 10
-29.0756
 20
-34.6675
 30
0.0
 10
-29.0756
 20
-34.6675
 30
0.0
 10
-29.0756
 20
-34.6675
 30
0.0
 10
-29.0756
 20
-34.6675
 30
0.0
 10
-7.743
 20
-42.0111
 30
0.0
 10
-7.743
 20
-42.0111
 30
0.0
 10
-7.743
 20
-42.0111
 30
0.0
 10
-7.743
 20
-42.0111
 30
0.0
 10
-14.8334
 20
-49.1981
 30
0.0
 10
-14.8334
 20
-49.1981
 30
0.0
  0
SPLINE
  5
113
330
1F
100
AcDbEntity
  8
layer 1
 62
     7
100
AcDbSpline
210
0.0
220
0.0
230
1.0
 70
    11
 71
     3
 72
    16
 73
    12
 74
     0
 42
0.0000000001
 43
0.0000000001
 12
1.0
 22
0.0
 32
0.0
 13
1.0
 23
0.0
 33
0.0
 40
0.0
 40
0.0
 40
0.0
 40
0.0
 40
0.25
 40
0.25
 40
0.25
 40
0.25
 40
0.5
 40
0.5
 40
0.5
 40
0.5
 40
1.0
 40
1.0
 40
1.0
 40
1.0
 10
-5.6279
 20
-40.0334
 30
0.0
 10
-5.6279
 20
-40.0334
 30
0.0
 10
-25.507
 20
-32.8423
 30
0.0
 10
-25.507
 20
-32.8423
 30
0.0
 10
-25.507
 20
-32.8423
 30
0.0
 10
-25.507
 20
-32.8423
 30
0.0
 10
1.4624
 20
-32.8464
 30
0.0
 10
1.4624
 20
-32.8464
 30
0.0
 10
1.4624
 20
-32.8464
 30
0.0
 10
1.4624
 20
-32.8464
 30
0.0
 10
-5.6279
 20
-40.0334
 30
0.0
 10
-5.6279
 20
-40.0334
 30
0.0
  0
SPLINE
  5
114
330
1F
100
AcDbEntity
  8
layer 1
 62
     7
100
AcDbSpline
210
0.0
220
0.0
230
1.0
 70
    11
 71
     3
 72
    16
 73
    12
 74
     0
 42
0.0000000001
 43
0.0000000001
 12
1.0
 22
0.0
 32
0.0
 13
1.0
 23
0.0
 33
0.0
 40
0.0
 40
0.0
 40
0.0
 40
0.0
 40
0.25
 40
0.25
 40
0.25
 40
0.25
 40
0.5
 40
0.5
 40
0.5
 40
0.5
 40
1.0
 40
1.0
 40
1.0
 40
1.0
 10
-35.944
 20
-67.285
 30
0.0
 10
-35.944
 20
-67.285
 30
0.0
 10
-35.7327
 20
-39.5732
 30
0.0
 10
-35.7327
 20
-39.5732
 30
0.0
 10
-35.7327
 20
-39.5732
 30
0.0
 10
-35.7327
 20
-39.5732
 30
0.0
 10
-42.7101
 20
-60.5025
 30
0.0
 10
-42.7101
 20
-60.5025
 30
0.0
 10
-42.7101
 20
-60.5025
 30
0.0
 10
-42.7101
 20
-60.5025
 30
0.0
 10
-35.944
 20
-67.285
 30
0.0
 10
-35.944
 20
-67.285
 30
0.0
  0
SPLINE
  5
115
330
1F
100
AcDbEntity
  8
layer 1
 62
     7
100
AcDbSpline
210
0.0
220
0.0
230
1.0
 70
    11
 71
     3
 72
    16
 73
    12
 74
     0
 42
0.0000000001
 43
0.0000000001
 12
1.0
 22
0.0
 32
0.0
 13
1.0
 23
0.0
 33
0.0
 40
0.0
 40
0.0
 40
0.0
 40
0.0
 40
0.25
 40
0.25
 40
0.25
 40
0.25
 40
0.5
 40
0.5
 40
0.5
 40
0.5
 40
1.0
 40
1.0
 40
1.0
 40
1.0
 10
46.0765
 20
-74.0881
 30
0.0
 10
46.0765
 20
-74.0881
 30
0.0
 10
45.8656
 20
-101.8004
 30
0.0
 10
45.8656
 20
-101.8004
 30
0.0
 10
45.8656
 20
-101.8004
 30
0.0
 10
45.8656
 20
-101.8004
 30
0.0
 10
52.843
 20
-80.8707
 30
0.0
 10
52.843
 20
-80.8707
 30
0.0
 10
52.843
 20
-80.8707
 30
0.0
 10
52.843
 20
-80.8707
 30
0.0
 10
46.0765
 20
-74.0881
 30
0.0
 10
46.0765
 20
-74.0881
 30
0.0
  0
SPLINE
  5
116
330
1F
100
AcDbEntity
  8
layer 1
 62
     7
100
AcDbSpline
210
0.0
220
0.0
230
1.0
 70
    11
 71
     3
 72
    16
 73
    12
 74
     0
 42
0.0000000001
 43
0.0000000001
 12
1.0
 22
0.0
 32
0.0
 13
1.0
 23
0.0
 33
0.0
 40
0.0
 40
0.0
 40
0.0
 40
0.0
 40
0.25
 40
0.25
 40
0.25
 40
0.25
 40
0.5
 40
0.5
 40
0.5
 40
0.5
 40
1.0
 40
1.0
 40
1.0
 40
1.0
 10
43.0518
 20
-74.0881
 30
0.0
 10
43.0518
 20
-74.0881
 30
0.0
 10
43.2627
 20
-101.8004
 30
0.0
 10
43.2627
 20
-101.8004
 30
0.0
 10
43.2627
 20
-101.8004
 30
0.0
 10
43.2627
 20
-101.8004
 30
0.0
 10
36.2867
 20
-80.8707
 30
0.0
 10
36.2867
 20
-80.8707
 30
0.0
 10
36.2867
 20
-80.8707
 30
0.0
 10
36.2867
 20
-80.8707
 30
0.0
 10
43.0518
 20
-74.0881
 30
0.0
 10
43.0518
 20
-74.0881
 30
0.0
  0
SPLINE
  5
117
330
1F
100
AcDbEntity
  8
layer 1
 62
     7
100
AcDbSpline
210
0.0
220
0.0
230
1.0
 70
    11
 71
     3
 72
    16
 73
    12
 74
     0
 42
0.0000000001
 43
0.0000000001
 12
1.0
 22
0.0
 32
0.0
 13
1.0
 23
0.0
 33
0.0
 40
0.0
 40
0.0
 40
0.0
 40
0.0
 40
0.25
 40
0.25
 40
0.25
 40
0.25
 40
0.5
 40
0.5
 40
0.5
 40
0.5
 40
1.0
 40
1.0
 40
1.0
 40
1.0
 10
34.131
 20
-83.2134
 30
0.0
 10
34.131
 20
-83.2134
 30
0.0
 10
41.438
 20
-104.7204
 30
0.0
 10
41.438
 20
-104.7204
 30
0.0
 10
41.438
 20
-104.7204
 30
0.0
 10
41.438
 20
-104.7204
 30
0.0
 10
26.8376
 20
-90.2387
 30
0.0
 10
26.8376
 20
-90.2387
 30
0.0
 10
26.8376
 20
-90.2387
 30
0.0
 10
26.8376
 20
-90.2387
 30
0.0
 10
34.131
 20
-83.2134
 30
0.0
 10
34.131
 20
-83.2134
 30
0.0
  0
SPLINE
  5
118
330
1F
100
AcDbEntity
  8
layer 1
 62
     7
100
AcDbSpline
210
0.0
220
0.0
230
1.0
 70
    11
 71
     3
 72
    16
 73
    12
 74
     0
 42
0.0000000001
 43
0.0000000001
 12
1.0
 22
0.0
 32
0.0
 13
1.0
 23
0.0
 33
0.0
 40
0.0
 40
0.0
 40
0.0
 40
0.0
 40
0.25
 40
0.25
 40
0.25
 40
0.25
 40
0.5
 40
0.5
 40
0.5
 40
0.5
 40
1.0
 40
1.0
 40
1.0
 40
1.0
 10
24.966
 20
-92.1751
 30
0.0
 10
24.966
 20
-92.1751
 30
0.0
 10
39.2082
 20
-106.7075
 30
0.0
 10
39.2082
 20
-106.7075
 30
0.0
 10
39.2082
 20
-106.7075
 30
0.0
 10
39.2082
 20
-106.7075
 30
0.0
 10
17.8759
 20
-99.3621
 30
0.0
 10
17.8759
 20
-99.3621
 30
0.0
 10
17.8759
 20
-99.3621
 30
0.0
 10
17.8759
 20
-99.3621
 30
0.0
 10
24.966
 20
-92.1751
 30
0.0
 10
24.966
 20
-92.1751
 30
0.0
  0
SPLINE
  5
119
330
1F
100
AcDbEntity
  8
layer 1
 62
     7
100
AcDbSpline
210
0.0
220
0.0
230
1.0
 70
    11
 71
     3
 72
    16
 73
    12
 74
     0
 42
0.0000000001
 43
0.0000000001
 12
1.0
 22
0.0
 32
0.0
 13
1.0
 23
0.0
 33
0.0
 40
0.0
 40
0.0
 40
0.0
 40
0.0
 40
0.25
 40
0.25
 40
0.25
 40
0.25
 40
0.5
 40
0.5
 40
0.5
 40
0.5
 40
1.0
 40
1.0
 40
1.0
 40
1.0
 10
15.7605
 20
-101.3398
 30
0.0
 10
15.7605
 20
-101.3398
 30
0.0
 10
35.64
 20
-108.531
 30
0.0
 10
35.64
 20
-108.531
 30
0.0
 10
35.64
 20
-108.531
 30
0.0
 10
35.64
 20
-108.531
 30
0.0
 10
8.6701
 20
-108.5271
 30
0.0
 10
8.6701
 20
-108.5271
 30
0.0
 10
8.6701
 20
-108.5271
 30
0.0
 10
8.6701
 20
-108.5271
 30
0.0
 10
15.7605
 20
-101.3398
 30
0.0
 10
15.7605
 20
-101.3398
 30
0.0
  0
SPLINE
  5
11A
330
1F
100
AcDbEntity
  8
layer 1
 62
     7
100
AcDbSpline
210
0.0
220
0.0
230
1.0
 70
    11
 71
     3
 72
    16
 73
    12
 74
     0
 42
0.0000000001
 43
0.0000000001
 12
1.0
 22
0.0
 32
0.0
 13
1.0
 23
0.0
 33
0.0
 40
0.0
 40
0.0
 40
0.0
 40
0.0
 40
0.25
 40
0.25
 40
0.25
 40
0.25
 40
0.5
 40
0.5
 40
0.5
 40
0.5
 40
1.0
 40
1.0
 40
1.0
 40
1.0
 10
-32.9203
 20
-74.0881
 30
0.0
 10
-32.9203
 20
-74.0881
 30
0.0
 10
-33.1303
 20
-101.8004
 30
0.0
 10
-33.1303
 20
-101.8004
 30
0.0
 10
-33.1303
 20
-101.8004
 30
0.0
 10
-33.1303
 20
-101.8004
 30
0.0
 10
-26.1542
 20
-80.8707
 30
0.0
 10
-26.1542
 20
-80.8707
 30
0.0
 10
-26.1542
 20
-80.8707
 30
0.0
 10
-26.1542
 20
-80.8707
 30
0.0
 10
-32.9203
 20
-74.0881
 30
0.0
 10
-32.9203
 20
-74.0881
 30
0.0
  0
SPLINE
  5
11B
330
1F
100
AcDbEntity
  8
layer 1
 62
     7
100
AcDbSpline
210
0.0
220
0.0
230
1.0
 70
    11
 71
     3
 72
    16
 73
    12
 74
     0
 42
0.0000000001
 43
0.0000000001
 12
1.0
 22
0.0
 32
0.0
 13
1.0
 23
0.0
 33
0.0
 40
0.0
 40
0.0
 40
0.0
 40
0.0
 40
0.25
 40
0.25
 40
0.25
 40
0.25
 40
0.5
 40
0.5
 40
0.5
 40
0.5
 40
1.0
 40
1.0
 40
1.0
 40
1.0
 10
-23.998
 20
-83.2134
 30
0.0
 10
-23.998
 20
-83.2134
 30
0.0
 10
-31.305
 20
-104.7204
 30
0.0
 10
-31.305
 20
-104.7204
 30
0.0
 10
-31.305
 20
-104.7204
 30
0.0
 10
-31.305
 20
-104.7204
 30
0.0
 10
-16.7047
 20
-90.2387
 30
0.0
 10
-16.7047
 20
-90.2387
 30
0.0
 10
-16.7047
 20
-90.2387
 30
0.0
 10
-16.7047
 20
-90.2387
 30
0.0
 10
-23.998
 20
-83.2134
 30
0.0
 10
-23.998
 20
-83.2134
 30
0.0
  0
SPLINE
  5
11C
330
1F
100
AcDbEntity
  8
layer 1
 62
     7
100
AcDbSpline
210
0.0
220
0.0
230
1.0
 70
    11
 71
     3
 72
    16
 73
    12
 74
     0
 42
0.0000000001
 43
0.0000000001
 12
1.0
 22
0.0
 32
0.0
 13
1.0
 23
0.0
 33
0.0
 40
0.0
 40
0.0
 40
0.0
 40
0.0
 40
0.25
 40
0.25
 40
0.25
 40
0.25
 40
0.5
 40
0.5
 40
0.5
 40
0.5
 40
1.0
 40
1.0
 40
1.0
 40
1.0
 10
-14.8334
 20
-92.1751
 30
0.0
 10
-14.8334
 20
-92.1751
 30
0.0
 10
-29.0756
 20
-106.7075
 30
0.0
 10
-29.0756
 20
-106.7075
 30
0.0
 10
-29.0756
 20
-106.7075
 30
0.0
 10
-29.0756
 20
-106.7075
 30
0.0
 10
-7.743
 20
-99.3621
 30
0.0
 10
-7.743
 20
-99.3621
 30
0.0
 10
-7.743
 20
-99.3621
 30
0.0
 10
-7.743
 20
-99.3621
 30
0.0
 10
-14.8334
 20
-92.1751
 30
0.0
 10
-14.8334
 20
-92.1751
 30
0.0
  0
SPLINE
  5
11D
330
1F
100
AcDbEntity
  8
layer 1
 62
     7
100
AcDbSpline
210
0.0
220
0.0
230
1.0
 70
    11
 71
     3
 72
    16
 73
    12
 74
     0
 42
0.0000000001
 43
0.0000000001
 12
1.0
 22
0.0
 32
0.0
 13
1.0
 23
0.0
 33
0.0
 40
0.0
 40
0.0
 40
0.0
 40
0.0
 40
0.25
 40
0.25
 40
0.25
 40
0.25
 40
0.5
 40
0.5
 40
0.5
 40
0.5
 40
1.0
 40
1.0
 40
1.0
 40
1.0
 10
-5.6279
 20
-101.3398
 30
0.0
 10
-5.6279
 20
-101.3398
 30
0.0
 10
-25.507
 20
-108.531
 30
0.0
 10
-25.507
 20
-108.531
 30
0.0
 10
-25.507
 20
-108.531
 30
0.0
 10
-25.507
 20
-108.531
 30
0.0
 10
1.4624
 20
-108.5271
 30
0.0
 10
1.4624
 20
-108.5271
 30
0.0
 10
1.4624
 20
-108.5271
 30
0.0
 10
1.4624
 20
-108.5271
 30
0.0
 10
-5.6279
 20
-101.3398
 30
0.0
 10
-5.6279
 20
-101.3398
 30
0.0
  0
SPLINE
  5
11E
330
1F
100
AcDbEntity
  8
layer 1
 62
     7
100
AcDbSpline
210
0.0
220
0.0
230
1.0
 70
    11
 71
     3
 72
    16
 73
    12
 74
     0
 42
0.0000000001
 43
0.0000000001
 12
1.0
 22
0.0
 32
0.0
 13
1.0
 23
0.0
 33
0.0
 40
0.0
 40
0.0
 40
0.0
 40
0.0
 40
0.25
 40
0.25
 40
0.25
 40
0.25
 40
0.5
 40
0.5
 40
0.5
 40
0.5
 40
1.0
 40
1.0
 40
1.0
 40
1.0
 10
-35.944
 20
-74.0881
 30
0.0
 10
-35.944
 20
-74.0881
 30
0.0
 10
-35.7327
 20
-101.8004
 30
0.0
 10
-35.7327
 20
-101.8004
 30
0.0
 10
-35.7327
 20
-101.8004
 30
0.0
 10
-35.7327
 20
-101.8004
 30
0.0
 10
-42.7101
 20
-80.8707
 30
0.0
 10
-42.7101
 20
-80.8707
 30
0.0
 10
-42.7101
 20
-80.8707
 30
0.0
 10
-42.7101
 20
-80.8707
 30
0.0
 10
-35.944
 20
-74.0881
 30
0.0
 10
-35.944
 20
-74.0881
 30
0.0
  0
SPLINE
  5
11F
330
1F
100
AcDbEntity
  8
layer 1
 62
     7
100
AcDbSpline
210
0.0
220
0.0
230
1.0
 70
    11
 71
     3
 72
    20
 73
    16
 74
     0
 42
0.0000000001
 43
0.0000000001
 12
1.0
 22
0.0
 32
0.0
 13
1.0
 23
0.0
 33
0.0
 40
0.0
 40
0.0
 40
0.0
 40
0.0
 40
0.2
 40
0.2
 40
0.2
 40
0.2
 40
0.4
 40
0.4
 40
0.4
 40
0.4
 40
0.6
 40
0.6
 40
0.6
 40
0.6
 40
1.0
 40
1.0
 40
1.0
 40
1.0
 10
-44.8663
 20
-83.2134
 30
0.0
 10
-44.8663
 20
-83.2134
 30
0.0
 10
-37.5579
 20
-104.7204
 30
0.0
 10
-37.5579
 20
-104.7204
 30
0.0
 10
-37.5579
 20
-104.7204
 30
0.0
 10
-37.5579
 20
-104.7204
 30
0.0
 10
-49.8385
 20
-92.5388
 30
0.0
 10
-49.8385
 20
-92.5388
 30
0.0
 10
-49.8385
 20
-92.5388
 30
0.0
 10
-49.8385
 20
-92.5388
 30
0.0
 10
-49.9056
 20
-88.0675
 30
0.0
 10
-49.9056
 20
-88.0675
 30
0.0
 10
-49.9056
 20
-88.0675
 30
0.0
 10
-49.9056
 20
-88.0675
 30
0.0
 10
-44.8663
 20
-83.2134
 30
0.0
 10
-44.8663
 20
-83.2134
 30
0.0
  0
SPLINE
  5
120
330
1F
100
AcDbEntity
  8
layer 1
 62
     7
100
AcDbSpline
210
0.0
220
0.0
230
1.0
 70
    11
 71
     3
 72
    16
 73
    12
 74
     0
 42
0.0000000001
 43
0.0000000001
 12
1.0
 22
0.0
 32
0.0
 13
1.0
 23
0.0
 33
0.0
 40
0.0
 40
0.0
 40
0.0
 40
0.0
 40
0.25
 40
0.25
 40
0.25
 40
0.25
 40
0.5
 40
0.5
 40
0.5
 40
0.5
 40
1.0
 40
1.0
 40
1.0
 40
1.0
 10
-49.8469
 20
-96.4435
 30
0.0
 10
-49.8469
 20
-96.4435
 30
0.0
 10
-39.7887
 20
-106.7075
 30
0.0
 10
-39.7887
 20
-106.7075
 30
0.0
 10
-39.7887
 20
-106.7075
 30
0.0
 10
-39.7887
 20
-106.7075
 30
0.0
 10
-49.8469
 20
-103.2439
 30
0.0
 10
-49.8469
 20
-103.2439
 30
0.0
 10
-49.8469
 20
-103.2439
 30
0.0
 10
-49.8469
 20
-103.2439
 30
0.0
 10
-49.8469
 20
-96.4435
 30
0.0
 10
-49.8469
 20
-96.4435
 30
0.0
  0
SPLINE
  5
121
330
1F
100
AcDbEntity
  8
layer 1
 62
     7
100
AcDbSpline
210
0.0
220
0.0
230
1.0
 70
    11
 71
     3
 72
    16
 73
    12
 74
     0
 42
0.0000000001
 43
0.0000000001
 12
1.0
 22
0.0
 32
0.0
 13
1.0
 23
0.0
 33
0.0
 40
0.0
 40
0.0
 40
0.0
 40
0.0
 40
0.25
 40
0.25
 40
0.25
 40
0.25
 40
0.5
 40
0.5
 40
0.5
 40
0.5
 40
1.0
 40
1.0
 40
1.0
 40
1.0
 10
-49.8577
 20
-106.1803
 30
0.0
 10
-49.8577
 20
-106.1803
 30
0.0
 10
-43.3573
 20
-108.531
 30
0.0
 10
-43.3573
 20
-108.531
 30
0.0
 10
-43.3573
 20
-108.531
 30
0.0
 10
-43.3573
 20
-108.531
 30
0.0
 10
-49.8319
 20
-108.531
 30
0.0
 10
-49.8319
 20
-108.531
 30
0.0
 10
-49.8319
 20
-108.531
 30
0.0
 10
-49.8319
 20
-108.531
 30
0.0
 10
-49.8577
 20
-106.1803
 30
0.0
 10
-49.8577
 20
-106.1803
 30
0.0
  0
SPLINE
  5
122
330
1F
100
AcDbEntity
  8
layer 1
 62
     7
100
AcDbSpline
210
0.0
220
0.0
230
1.0
 70
    11
 71
     3
 72
    16
 73
    12
 74
     0
 42
0.0000000001
 43
0.0000000001
 12
1.0
 22
0.0
 32
0.0
 13
1.0
 23
0.0
 33
0.0
 40
0.0
 40
0.0
 40
0.0
 40
0.0
 40
0.25
 40
0.25
 40
0.25
 40
0.25
 40
0.5
 40
0.5
 40
0.5
 40
0.5
 40
1.0
 40
1.0
 40
1.0
 40
1.0
 10
-49.8536
 20
-61.1454
 30
0.0
 10
-49.8536
 20
-61.1454
 30
0.0
 10
-47.0778
 20
-60.1908
 30
0.0
 10
-47.0778
 20
-60.1908
 30
0.0
 10
-47.0778
 20
-60.1908
 30
0.0
 10
-47.0778
 20
-60.1908
 30
0.0
 10
-49.8933
 20
-57.3359
 30
0.0
 10
-49.8933
 20
-57.3359
 30
0.0
 10
-49.8933
 20
-57.3359
 30
0.0
 10
-49.8933
 20
-57.3359
 30
0.0
 10
-49.8536
 20
-61.1454
 30
0.0
 10
-49.8536
 20
-61.1454
 30
0.0
  0
SPLINE
  5
123
330
1F
100
AcDbEntity
  8
layer 1
 62
     7
100
AcDbSpline
210
0.0
220
0.0
230
1.0
 70
    11
 71
     3
 72
    20
 73
    16
 74
     0
 42
0.0000000001
 43
0.0000000001
 12
1.0
 22
0.0
 32
0.0
 13
1.0
 23
0.0
 33
0.0
 40
0.0
 40
0.0
 40
0.0
 40
0.0
 40
0.2
 40
0.2
 40
0.2
 40
0.2
 40
0.4
 40
0.4
 40
0.4
 40
0.4
 40
0.6
 40
0.6
 40
0.6
 40
0.6
 40
1.0
 40
1.0
 40
1.0
 40
1.0
 10
-44.9615
 20
-62.1684
 30
0.0
 10
-44.9615
 20
-62.1684
 30
0.0
 10
-49.8522
 20
-63.9375
 30
0.0
 10
-49.8522
 20
-63.9375
 30
0.0
 10
-49.8522
 20
-63.9375
 30
0.0
 10
-49.8522
 20
-63.9375
 30
0.0
 10
-49.8634
 20
-69.3568
 30
0.0
 10
-49.8634
 20
-69.3568
 30
0.0
 10
-49.8634
 20
-69.3568
 30
0.0
 10
-49.8634
 20
-69.3568
 30
0.0
 10
-37.8724
 20
-69.3554
 30
0.0
 10
-37.8724
 20
-69.3554
 30
0.0
 10
-37.8724
 20
-69.3554
 30
0.0
 10
-37.8724
 20
-69.3554
 30
0.0
 10
-44.9615
 20
-62.1684
 30
0.0
 10
-44.9615
 20
-62.1684
 30
0.0
  0
SPLINE
  5
124
330
1F
100
AcDbEntity
  8
layer 1
 62
     7
100
AcDbSpline
210
0.0
220
0.0
230
1.0
 70
    11
 71
     3
 72
    16
 73
    12
 74
     0
 42
0.0000000001
 43
0.0000000001
 12
1.0
 22
0.0
 32
0.0
 13
1.0
 23
0.0
 33
0.0
 40
0.0
 40
0.0
 40
0.0
 40
0.0
 40
0.25
 40
0.25
 40
0.25
 40
0.25
 40
0.5
 40
0.5
 40
0.5
 40
0.5
 40
1.0
 40
1.0
 40
1.0
 40
1.0
 10
-49.8385
 20
-80.5726
 30
0.0
 10
-49.8385
 20
-80.5726
 30
0.0
 10
-47.0778
 20
-81.5231
 30
0.0
 10
-47.0778
 20
-81.5231
 30
0.0
 10
-47.0778
 20
-81.5231
 30
0.0
 10
-47.0778
 20
-81.5231
 30
0.0
 10
-49.8835
 20
-84.3672
 30
0.0
 10
-49.8835
 20
-84.3672
 30
0.0
 10
-49.8835
 20
-84.3672
 30
0.0
 10
-49.8835
 20
-84.3672
 30
0.0
 10
-49.8385
 20
-80.5726
 30
0.0
 10
-49.8385
 20
-80.5726
 30
0.0
  0
SPLINE
  5
125
330
1F
100
AcDbEntity
  8
layer 1
 62
     7
100
AcDbSpline
210
0.0
220
0.0
230
1.0
 70
    11
 71
     3
 72
    20
 73
    16
 74
     0
 42
0.0000000001
 43
0.0000000001
 12
1.0
 22
0.0
 32
0.0
 13
1.0
 23
0.0
 33
0.0
 40
0.0
 40
0.0
 40
0.0
 40
0.0
 40
0.2
 40
0.2
 40
0.2
 40
0.2
 40
0.4
 40
0.4
 40
0.4
 40
0.4
 40
0.6
 40
0.6
 40
0.6
 40
0.6
 40
1.0
 40
1.0
 40
1.0
 40
1.0
 10
-44.9615
 20
-79.5458
 30
0.0
 10
-44.9615
 20
-79.5458
 30
0.0
 10
-49.8376
 20
-77.782
 30
0.0
 10
-49.8376
 20
-77.782
 30
0.0
 10
-49.8376
 20
-77.782
 30
0.0
 10
-49.8376
 20
-77.782
 30
0.0
 10
-49.8634
 20
-72.3571
 30
0.0
 10
-49.8634
 20
-72.3571
 30
0.0
 10
-49.8634
 20
-72.3571
 30
0.0
 10
-49.8634
 20
-72.3571
 30
0.0
 10
-37.8724
 20
-72.3584
 30
0.0
 10
-37.8724
 20
-72.3584
 30
0.0
 10
-37.8724
 20
-72.3584
 30
0.0
 10
-37.8724
 20
-72.3584
 30
0.0
 10
-44.9615
 20
-79.5458
 30
0.0
 10
-44.9615
 20
-79.5458
 30
0.0
  0
SPLINE
  5
126
330
1F
100
AcDbEntity
  8
layer 1
 62
     7
100
AcDbSpline
210
0.0
220
0.0
230
1.0
 70
    11
 71
     3
 72
    16
 73
    12
 74
     0
 42
0.0000000001
 43
0.0000000001
 12
1.0
 22
0.0
 32
0.0
 13
1.0
 23
0.0
 33
0.0
 40
0.0
 40
0.0
 40
0.0
 40
0.0
 40
0.25
 40
0.25
 40
0.25
 40
0.25
 40
0.5
 40
0.5
 40
0.5
 40
0.5
 40
1.0
 40
1.0
 40
1.0
 40
1.0
 10
60.0437
 20
-61.1454
 30
0.0
 10
60.0437
 20
-61.1454
 30
0.0
 10
57.268
 20
-60.1908
 30
0.0
 10
57.268
 20
-60.1908
 30
0.0
 10
57.268
 20
-60.1908
 30
0.0
 10
57.268
 20
-60.1908
 30
0.0
 10
60.0831
 20
-57.3359
 30
0.0
 10
60.0831
 20
-57.3359
 30
0.0
 10
60.0831
 20
-57.3359
 30
0.0
 10
60.0831
 20
-57.3359
 30
0.0
 10
60.0437
 20
-61.1454
 30
0.0
 10
60.0437
 20
-61.1454
 30
0.0
  0
SPLINE
  5
127
330
1F
100
AcDbEntity
  8
layer 1
 62
     7
100
AcDbSpline
210
0.0
220
0.0
230
1.0
 70
    11
 71
     3
 72
    20
 73
    16
 74
     0
 42
0.0000000001
 43
0.0000000001
 12
1.0
 22
0.0
 32
0.0
 13
1.0
 23
0.0
 33
0.0
 40
0.0
 40
0.0
 40
0.0
 40
0.0
 40
0.2
 40
0.2
 40
0.2
 40
0.2
 40
0.4
 40
0.4
 40
0.4
 40
0.4
 40
0.6
 40
0.6
 40
0.6
 40
0.6
 40
1.0
 40
1.0
 40
1.0
 40
1.0
 10
55.1516
 20
-62.1684
 30
0.0
 10
55.1516
 20
-62.1684
 30
0.0
 10
60.0422
 20
-63.9375
 30
0.0
 10
60.0422
 20
-63.9375
 30
0.0
 10
60.0422
 20
-63.9375
 30
0.0
 10
60.0422
 20
-63.9375
 30
0.0
 10
60.0531
 20
-69.3568
 30
0.0
 10
60.0531
 20
-69.3568
 30
0.0
 10
60.0531
 20
-69.3568
 30
0.0
 10
60.0531
 20
-69.3568
 30
0.0
 10
48.0625
 20
-69.3554
 30
0.0
 10
48.0625
 20
-69.3554
 30
0.0
 10
48.0625
 20
-69.3554
 30
0.0
 10
48.0625
 20
-69.3554
 30
0.0
 10
55.1516
 20
-62.1684
 30
0.0
 10
55.1516
 20
-62.1684
 30
0.0
  0
SPLINE
  5
128
330
1F
100
AcDbEntity
  8
layer 1
 62
     7
100
AcDbSpline
210
0.0
220
0.0
230
1.0
 70
    11
 71
     3
 72
    16
 73
    12
 74
     0
 42
0.0000000001
 43
0.0000000001
 12
1.0
 22
0.0
 32
0.0
 13
1.0
 23
0.0
 33
0.0
 40
0.0
 40
0.0
 40
0.0
 40
0.0
 40
0.25
 40
0.25
 40
0.25
 40
0.25
 40
0.5
 40
0.5
 40
0.5
 40
0.5
 40
1.0
 40
1.0
 40
1.0
 40
1.0
 10
60.0287
 20
-80.5726
 30
0.0
 10
60.0287
 20
-80.5726
 30
0.0
 10
57.268
 20
-81.5231
 30
0.0
 10
57.268
 20
-81.5231
 30
0.0
 10
57.268
 20
-81.5231
 30
0.0
 10
57.268
 20
-81.5231
 30
0.0
 10
60.0736
 20
-84.3672
 30
0.0
 10
60.0736
 20
-84.3672
 30
0.0
 10
60.0736
 20
-84.3672
 30
0.0
 10
60.0736
 20
-84.3672
 30
0.0
 10
60.0287
 20
-80.5726
 30
0.0
 10
60.0287
 20
-80.5726
 30
0.0
  0
SPLINE
  5
129
330
1F
100
AcDbEntity
  8
layer 1
 62
     7
100
AcDbSpline
210
0.0
220
0.0
230
1.0
 70
    11
 71
     3
 72
    20
 73
    16
 74
     0
 42
0.0000000001
 43
0.0000000001
 12
1.0
 22
0.0
 32
0.0
 13
1.0
 23
0.0
 33
0.0
 40
0.0
 40
0.0
 40
0.0
 40
0.0
 40
0.2
 40
0.2
 40
0.2
 40
0.2
 40
0.4
 40
0.4
 40
0.4
 40
0.4
 40
0.6
 40
0.6
 40
0.6
 40
0.6
 40
1.0
 40
1.0
 40
1.0
 40
1.0
 10
55.1516
 20
-79.5458
 30
0.0
 10
55.1516
 20
-79.5458
 30
0.0
 10
60.0274
 20
-77.782
 30
0.0
 10
60.0274
 20
-77.782
 30
0.0
 10
60.0274
 20
-77.782
 30
0.0
 10
60.0274
 20
-77.782
 30
0.0
 10
60.0531
 20
-72.3571
 30
0.0
 10
60.0531
 20
-72.3571
 30
0.0
 10
60.0531
 20
-72.3571
 30
0.0
 10
60.0531
 20
-72.3571
 30
0.0
 10
48.0625
 20
-72.3584
 30
0.0
 10
48.0625
 20
-72.3584
 30
0.0
 10
48.0625
 20
-72.3584
 30
0.0
 10
48.0625
 20
-72.3584
 30
0.0
 10
55.1516
 20
-79.5458
 30
0.0
 10
55.1516
 20
-79.5458
 30
0.0
  0
SPLINE
  5
12A
330
1F
100
AcDbEntity
  8
layer 1
 62
     7
100
AcDbSpline
210
0.0
220
0.0
230
1.0
 70
    11
 71
     3
 72
    20
 73
    16
 74
     0
 42
0.0000000001
 43
0.0000000001
 12
1.0
 22
0.0
 32
0.0
 13
1.0
 23
0.0
 33
0.0
 40
0.0
 40
0.0
 40
0.0
 40
0.0
 40
0.2
 40
0.2
 40
0.2
 40
0.2
 40
0.4
 40
0.4
 40
0.4
 40
0.4
 40
0.6
 40
0.6
 40
0.6
 40
0.6
 40
1.0
 40
1.0
 40
1.0
 40
1.0
 10
54.9772
 20
-83.2134
 30
0.0
 10
54.9772
 20
-83.2134
 30
0.0
 10
47.6689
 20
-104.7204
 30
0.0
 10
47.6689
 20
-104.7204
 30
0.0
 10
47.6689
 20
-104.7204
 30
0.0
 10
47.6689
 20
-104.7204
 30
0.0
 10
59.9496
 20
-92.5388
 30
0.0
 10
59.9496
 20
-92.5388
 30
0.0
 10
59.9496
 20
-92.5388
 30
0.0
 10
59.9496
 20
-92.5388
 30
0.0
 10
60.0165
 20
-88.0675
 30
0.0
 10
60.0165
 20
-88.0675
 30
0.0
 10
60.0165
 20
-88.0675
 30
0.0
 10
60.0165
 20
-88.0675
 30
0.0
 10
54.9772
 20
-83.2134
 30
0.0
 10
54.9772
 20
-83.2134
 30
0.0
  0
SPLINE
  5
12B
330
1F
100
AcDbEntity
  8
layer 1
 62
     7
100
AcDbSpline
210
0.0
220
0.0
230
1.0
 70
    11
 71
     3
 72
    16
 73
    12
 74
     0
 42
0.0000000001
 43
0.0000000001
 12
1.0
 22
0.0
 32
0.0
 13
1.0
 23
0.0
 33
0.0
 40
0.0
 40
0.0
 40
0.0
 40
0.0
 40
0.25
 40
0.25
 40
0.25
 40
0.25
 40
0.5
 40
0.5
 40
0.5
 40
0.5
 40
1.0
 40
1.0
 40
1.0
 40
1.0
 10
59.9918
 20
-96.4435
 30
0.0
 10
59.9918
 20
-96.4435
 30
0.0
 10
49.8996
 20
-106.7075
 30
0.0
 10
49.8996
 20
-106.7075
 30
0.0
 10
49.8996
 20
-106.7075
 30
0.0
 10
49.8996
 20
-106.7075
 30
0.0
 10
59.9579
 20
-103.2439
 30
0.0
 10
59.9579
 20
-103.2439
 30
0.0
 10
59.9579
 20
-103.2439
 30
0.0
 10
59.9579
 20
-103.2439
 30
0.0
 10
59.9918
 20
-96.4435
 30
0.0
 10
59.9918
 20
-96.4435
 30
0.0
  0
SPLINE
  5
12C
330
1F
100
AcDbEntity
  8
layer 1
 62
     7
100
AcDbSpline
210
0.0
220
0.0
230
1.0
 70
    11
 71
     3
 72
    16
 73
    12
 74
     0
 42
0.0000000001
 43
0.0000000001
 12
1.0
 22
0.0
 32
0.0
 13
1.0
 23
0.0
 33
0.0
 40
0.0
 40
0.0
 40
0.0
 40
0.0
 40
0.25
 40
0.25
 40
0.25
 40
0.25
 40
0.5
 40
0.5
 40
0.5
 40
0.5
 40
1.0
 40
1.0
 40
1.0
 40
1.0
 10
59.9686
 20
-106.1803
 30
0.0
 10
59.9686
 20
-106.1803
 30
0.0
 10
53.4681
 20
-108.531
 30
0.0
 10
53.4681
 20
-108.531
 30
0.0
 10
53.4681
 20
-108.531
 30
0.0
 10
53.4681
 20
-108.531
 30
0.0
 10
59.9428
 20
-108.531
 30
0.0
 10
59.9428
 20
-108.531
 30
0.0
 10
59.9428
 20
-108.531
 30
0.0
 10
59.9428
 20
-108.531
 30
0.0
 10
59.9686
 20
-106.1803
 30
0.0
 10
59.9686
 20
-106.1803
 30
0.0
  0
SPLINE
  5
12D
330
1F
100
AcDbEntity
  8
layer 1
 62
     7
100
AcDbSpline
210
0.0
220
0.0
230
1.0
 70
    11
 71
     3
 72
    16
 73
    12
 74
     0
 42
0.0000000001
 43
0.0000000001
 12
1.0
 22
0.0
 32
0.0
 13
1.0
 23
0.0
 33
0.0
 40
0.0
 40
0.0
 40
0.0
 40
0.0
 40
0.25
 40
0.25
 40
0.25
 40
0.25
 40
0.5
 40
0.5
 40
0.5
 40
0.5
 40
1.0
 40
1.0
 40
1.0
 40
1.0
 10
60.0437
 20
17.6786
 30
0.0
 10
60.0437
 20
17.6786
 30
0.0
 10
57.268
 20
18.6346
 30
0.0
 10
57.268
 20
18.6346
 30
0.0
 10
57.268
 20
18.6346
 30
0.0
 10
57.268
 20
18.6346
 30
0.0
 10
60.0831
 20
21.4881
 30
0.0
 10
60.0831
 20
21.4881
 30
0.0
 10
60.0831
 20
21.4881
 30
0.0
 10
60.0831
 20
21.4881
 30
0.0
 10
60.0437
 20
17.6786
 30
0.0
 10
60.0437
 20
17.6786
 30
0.0
  0
SPLINE
  5
12E
330
1F
100
AcDbEntity
  8
layer 1
 62
     7
100
AcDbSpline
210
0.0
220
0.0
230
1.0
 70
    11
 71
     3
 72
    20
 73
    16
 74
     0
 42
0.0000000001
 43
0.0000000001
 12
1.0
 22
0.0
 32
0.0
 13
1.0
 23
0.0
 33
0.0
 40
0.0
 40
0.0
 40
0.0
 40
0.0
 40
0.2
 40
0.2
 40
0.2
 40
0.2
 40
0.4
 40
0.4
 40
0.4
 40
0.4
 40
0.6
 40
0.6
 40
0.6
 40
0.6
 40
1.0
 40
1.0
 40
1.0
 40
1.0
 10
55.1516
 20
16.6569
 30
0.0
 10
55.1516
 20
16.6569
 30
0.0
 10
60.0422
 20
14.8878
 30
0.0
 10
60.0422
 20
14.8878
 30
0.0
 10
60.0422
 20
14.8878
 30
0.0
 10
60.0422
 20
14.8878
 30
0.0
 10
60.0531
 20
9.4672
 30
0.0
 10
60.0531
 20
9.4672
 30
0.0
 10
60.0531
 20
9.4672
 30
0.0
 10
60.0531
 20
9.4672
 30
0.0
 10
48.0625
 20
9.4699
 30
0.0
 10
48.0625
 20
9.4699
 30
0.0
 10
48.0625
 20
9.4699
 30
0.0
 10
48.0625
 20
9.4699
 30
0.0
 10
55.1516
 20
16.6569
 30
0.0
 10
55.1516
 20
16.6569
 30
0.0
  0
SPLINE
  5
12F
330
1F
100
AcDbEntity
  8
layer 1
 62
     7
100
AcDbSpline
210
0.0
220
0.0
230
1.0
 70
    11
 71
     3
 72
    16
 73
    12
 74
     0
 42
0.0000000001
 43
0.0000000001
 12
1.0
 22
0.0
 32
0.0
 13
1.0
 23
0.0
 33
0.0
 40
0.0
 40
0.0
 40
0.0
 40
0.0
 40
0.25
 40
0.25
 40
0.25
 40
0.25
 40
0.5
 40
0.5
 40
0.5
 40
0.5
 40
1.0
 40
1.0
 40
1.0
 40
1.0
 10
60.0287
 20
-1.7473
 30
0.0
 10
60.0287
 20
-1.7473
 30
0.0
 10
57.268
 20
-2.6978
 30
0.0
 10
57.268
 20
-2.6978
 30
0.0
 10
57.268
 20
-2.6978
 30
0.0
 10
57.268
 20
-2.6978
 30
0.0
 10
60.0736
 20
-5.5428
 30
0.0
 10
60.0736
 20
-5.5428
 30
0.0
 10
60.0736
 20
-5.5428
 30
0.0
 10
60.0736
 20
-5.5428
 30
0.0
 10
60.0287
 20
-1.7473
 30
0.0
 10
60.0287
 20
-1.7473
 30
0.0
  0
SPLINE
  5
130
330
1F
100
AcDbEntity
  8
layer 1
 62
     7
100
AcDbSpline
210
0.0
220
0.0
230
1.0
 70
    11
 71
     3
 72
    20
 73
    16
 74
     0
 42
0.0000000001
 43
0.0000000001
 12
1.0
 22
0.0
 32
0.0
 13
1.0
 23
0.0
 33
0.0
 40
0.0
 40
0.0
 40
0.0
 40
0.0
 40
0.2
 40
0.2
 40
0.2
 40
0.2
 40
0.4
 40
0.4
 40
0.4
 40
0.4
 40
0.6
 40
0.6
 40
0.6
 40
0.6
 40
1.0
 40
1.0
 40
1.0
 40
1.0
 10
55.1516
 20
-0.7201
 30
0.0
 10
55.1516
 20
-0.7201
 30
0.0
 10
60.0274
 20
1.0434
 30
0.0
 10
60.0274
 20
1.0434
 30
0.0
 10
60.0274
 20
1.0434
 30
0.0
 10
60.0274
 20
1.0434
 30
0.0
 10
60.0531
 20
6.4683
 30
0.0
 10
60.0531
 20
6.4683
 30
0.0
 10
60.0531
 20
6.4683
 30
0.0
 10
60.0531
 20
6.4683
 30
0.0
 10
48.0625
 20
6.4669
 30
0.0
 10
48.0625
 20
6.4669
 30
0.0
 10
48.0625
 20
6.4669
 30
0.0
 10
48.0625
 20
6.4669
 30
0.0
 10
55.1516
 20
-0.7201
 30
0.0
 10
55.1516
 20
-0.7201
 30
0.0
  0
SPLINE
  5
131
330
1F
100
AcDbEntity
  8
layer 1
 62
     7
100
AcDbSpline
210
0.0
220
0.0
230
1.0
 70
    11
 71
     3
 72
    20
 73
    16
 74
     0
 42
0.0000000001
 43
0.0000000001
 12
1.0
 22
0.0
 32
0.0
 13
1.0
 23
0.0
 33
0.0
 40
0.0
 40
0.0
 40
0.0
 40
0.0
 40
0.2
 40
0.2
 40
0.2
 40
0.2
 40
0.4
 40
0.4
 40
0.4
 40
0.4
 40
0.6
 40
0.6
 40
0.6
 40
0.6
 40
1.0
 40
1.0
 40
1.0
 40
1.0
 10
54.9772
 20
-4.3881
 30
0.0
 10
54.9772
 20
-4.3881
 30
0.0
 10
47.6689
 20
-25.8951
 30
0.0
 10
47.6689
 20
-25.8951
 30
0.0
 10
47.6689
 20
-25.8951
 30
0.0
 10
47.6689
 20
-25.8951
 30
0.0
 10
59.9496
 20
-13.7148
 30
0.0
 10
59.9496
 20
-13.7148
 30
0.0
 10
59.9496
 20
-13.7148
 30
0.0
 10
59.9496
 20
-13.7148
 30
0.0
 10
60.0165
 20
-9.2422
 30
0.0
 10
60.0165
 20
-9.2422
 30
0.0
 10
60.0165
 20
-9.2422
 30
0.0
 10
60.0165
 20
-9.2422
 30
0.0
 10
54.9772
 20
-4.3881
 30
0.0
 10
54.9772
 20
-4.3881
 30
0.0
  0
SPLINE
  5
132
330
1F
100
AcDbEntity
  8
layer 1
 62
     7
100
AcDbSpline
210
0.0
220
0.0
230
1.0
 70
    11
 71
     3
 72
    16
 73
    12
 74
     0
 42
0.0000000001
 43
0.0000000001
 12
1.0
 22
0.0
 32
0.0
 13
1.0
 23
0.0
 33
0.0
 40
0.0
 40
0.0
 40
0.0
 40
0.0
 40
0.25
 40
0.25
 40
0.25
 40
0.25
 40
0.5
 40
0.5
 40
0.5
 40
0.5
 40
1.0
 40
1.0
 40
1.0
 40
1.0
 10
59.9918
 20
-17.6196
 30
0.0
 10
59.9918
 20
-17.6196
 30
0.0
 10
49.8996
 20
-27.8822
 30
0.0
 10
49.8996
 20
-27.8822
 30
0.0
 10
49.8996
 20
-27.8822
 30
0.0
 10
49.8996
 20
-27.8822
 30
0.0
 10
59.9579
 20
-24.4184
 30
0.0
 10
59.9579
 20
-24.4184
 30
0.0
 10
59.9579
 20
-24.4184
 30
0.0
 10
59.9579
 20
-24.4184
 30
0.0
 10
59.9918
 20
-17.6196
 30
0.0
 10
59.9918
 20
-17.6196
 30
0.0
  0
SPLINE
  5
133
330
1F
100
AcDbEntity
  8
layer 1
 62
     7
100
AcDbSpline
210
0.0
220
0.0
230
1.0
 70
    11
 71
     3
 72
    16
 73
    12
 74
     0
 42
0.0000000001
 43
0.0000000001
 12
1.0
 22
0.0
 32
0.0
 13
1.0
 23
0.0
 33
0.0
 40
0.0
 40
0.0
 40
0.0
 40
0.0
 40
0.25
 40
0.25
 40
0.25
 40
0.25
 40
0.5
 40
0.5
 40
0.5
 40
0.5
 40
1.0
 40
1.0
 40
1.0
 40
1.0
 10
59.9686
 20
-27.355
 30
0.0
 10
59.9686
 20
-27.355
 30
0.0
 10
53.4681
 20
-29.707
 30
0.0
 10
53.4681
 20
-29.707
 30
0.0
 10
53.4681
 20
-29.707
 30
0.0
 10
53.4681
 20
-29.707
 30
0.0
 10
59.9428
 20
-29.7056
 30
0.0
 10
59.9428
 20
-29.7056
 30
0.0
 10
59.9428
 20
-29.7056
 30
0.0
 10
59.9428
 20
-29.7056
 30
0.0
 10
59.9686
 20
-27.355
 30
0.0
 10
59.9686
 20
-27.355
 30
0.0
  0
SPLINE
  5
134
330
1F
100
AcDbEntity
  8
layer 1
 62
     7
100
AcDbSpline
210
0.0
220
0.0
230
1.0
 70
    11
 71
     3
 72
    20
 73
    16
 74
     0
 42
0.0000000001
 43
0.0000000001
 12
1.0
 22
0.0
 32
0.0
 13
1.0
 23
0.0
 33
0.0
 40
0.0
 40
0.0
 40
0.0
 40
0.0
 40
0.2
 40
0.2
 40
0.2
 40
0.2
 40
0.4
 40
0.4
 40
0.4
 40
0.4
 40
0.6
 40
0.6
 40
0.6
 40
0.6
 40
1.0
 40
1.0
 40
1.0
 40
1.0
 10
55.0003
 20
-58.1152
 30
0.0
 10
55.0003
 20
-58.1152
 30
0.0
 10
47.6933
 20
-36.6081
 30
0.0
 10
47.6933
 20
-36.6081
 30
0.0
 10
47.6933
 20
-36.6081
 30
0.0
 10
47.6933
 20
-36.6081
 30
0.0
 10
59.9729
 20
-48.7898
 30
0.0
 10
59.9729
 20
-48.7898
 30
0.0
 10
59.9729
 20
-48.7898
 30
0.0
 10
59.9729
 20
-48.7898
 30
0.0
 10
60.0395
 20
-53.2611
 30
0.0
 10
60.0395
 20
-53.2611
 30
0.0
 10
60.0395
 20
-53.2611
 30
0.0
 10
60.0395
 20
-53.2611
 30
0.0
 10
55.0003
 20
-58.1152
 30
0.0
 10
55.0003
 20
-58.1152
 30
0.0
  0
SPLINE
  5
135
330
1F
100
AcDbEntity
  8
layer 1
 62
     7
100
AcDbSpline
210
0.0
220
0.0
230
1.0
 70
    11
 71
     3
 72
    16
 73
    12
 74
     0
 42
0.0000000001
 43
0.0000000001
 12
1.0
 22
0.0
 32
0.0
 13
1.0
 23
0.0
 33
0.0
 40
0.0
 40
0.0
 40
0.0
 40
0.0
 40
0.25
 40
0.25
 40
0.25
 40
0.25
 40
0.5
 40
0.5
 40
0.5
 40
0.5
 40
1.0
 40
1.0
 40
1.0
 40
1.0
 10
59.9686
 20
-44.9558
 30
0.0
 10
59.9686
 20
-44.9558
 30
0.0
 10
49.8751
 20
-34.6933
 30
0.0
 10
49.8751
 20
-34.6933
 30
0.0
 10
49.8751
 20
-34.6933
 30
0.0
 10
49.8751
 20
-34.6933
 30
0.0
 10
59.9345
 20
-38.157
 30
0.0
 10
59.9345
 20
-38.157
 30
0.0
 10
59.9345
 20
-38.157
 30
0.0
 10
59.9345
 20
-38.157
 30
0.0
 10
59.9686
 20
-44.9558
 30
0.0
 10
59.9686
 20
-44.9558
 30
0.0
  0
SPLINE
  5
136
330
1F
100
AcDbEntity
  8
layer 1
 62
     7
100
AcDbSpline
210
0.0
220
0.0
230
1.0
 70
    11
 71
     3
 72
    16
 73
    12
 74
     0
 42
0.0000000001
 43
0.0000000001
 12
1.0
 22
0.0
 32
0.0
 13
1.0
 23
0.0
 33
0.0
 40
0.0
 40
0.0
 40
0.0
 40
0.0
 40
0.25
 40
0.25
 40
0.25
 40
0.25
 40
0.5
 40
0.5
 40
0.5
 40
0.5
 40
1.0
 40
1.0
 40
1.0
 40
1.0
 10
59.9686
 20
-35.1483
 30
0.0
 10
59.9686
 20
-35.1483
 30
0.0
 10
53.4681
 20
-32.7973
 30
0.0
 10
53.4681
 20
-32.7973
 30
0.0
 10
53.4681
 20
-32.7973
 30
0.0
 10
53.4681
 20
-32.7973
 30
0.0
 10
59.9428
 20
-32.7973
 30
0.0
 10
59.9428
 20
-32.7973
 30
0.0
 10
59.9428
 20
-32.7973
 30
0.0
 10
59.9428
 20
-32.7973
 30
0.0
 10
59.9686
 20
-35.1483
 30
0.0
 10
59.9686
 20
-35.1483
 30
0.0
  0
SPLINE
  5
137
330
1F
100
AcDbEntity
  8
layer 1
 62
     7
100
AcDbSpline
210
0.0
220
0.0
230
1.0
 70
    11
 71
     3
 72
    16
 73
    12
 74
     0
 42
0.0000000001
 43
0.0000000001
 12
1.0
 22
0.0
 32
0.0
 13
1.0
 23
0.0
 33
0.0
 40
0.0
 40
0.0
 40
0.0
 40
0.0
 40
0.25
 40
0.25
 40
0.25
 40
0.25
 40
0.5
 40
0.5
 40
0.5
 40
0.5
 40
1.0
 40
1.0
 40
1.0
 40
1.0
 10
60.0437
 20
96.8103
 30
0.0
 10
60.0437
 20
96.8103
 30
0.0
 10
57.268
 20
97.765
 30
0.0
 10
57.268
 20
97.765
 30
0.0
 10
57.268
 20
97.765
 30
0.0
 10
57.268
 20
97.765
 30
0.0
 10
60.0831
 20
100.6198
 30
0.0
 10
60.0831
 20
100.6198
 30
0.0
 10
60.0831
 20
100.6198
 30
0.0
 10
60.0831
 20
100.6198
 30
0.0
 10
60.0437
 20
96.8103
 30
0.0
 10
60.0437
 20
96.8103
 30
0.0
  0
SPLINE
  5
138
330
1F
100
AcDbEntity
  8
layer 1
 62
     7
100
AcDbSpline
210
0.0
220
0.0
230
1.0
 70
    11
 71
     3
 72
    20
 73
    16
 74
     0
 42
0.0000000001
 43
0.0000000001
 12
1.0
 22
0.0
 32
0.0
 13
1.0
 23
0.0
 33
0.0
 40
0.0
 40
0.0
 40
0.0
 40
0.0
 40
0.2
 40
0.2
 40
0.2
 40
0.2
 40
0.4
 40
0.4
 40
0.4
 40
0.4
 40
0.6
 40
0.6
 40
0.6
 40
0.6
 40
1.0
 40
1.0
 40
1.0
 40
1.0
 10
55.1516
 20
95.7878
 30
0.0
 10
55.1516
 20
95.7878
 30
0.0
 10
60.0422
 20
94.0183
 30
0.0
 10
60.0422
 20
94.0183
 30
0.0
 10
60.0422
 20
94.0183
 30
0.0
 10
60.0422
 20
94.0183
 30
0.0
 10
60.0531
 20
88.5991
 30
0.0
 10
60.0531
 20
88.5991
 30
0.0
 10
60.0531
 20
88.5991
 30
0.0
 10
60.0531
 20
88.5991
 30
0.0
 10
48.0625
 20
88.6004
 30
0.0
 10
48.0625
 20
88.6004
 30
0.0
 10
48.0625
 20
88.6004
 30
0.0
 10
48.0625
 20
88.6004
 30
0.0
 10
55.1516
 20
95.7878
 30
0.0
 10
55.1516
 20
95.7878
 30
0.0
  0
SPLINE
  5
139
330
1F
100
AcDbEntity
  8
layer 1
 62
     7
100
AcDbSpline
210
0.0
220
0.0
230
1.0
 70
    11
 71
     3
 72
    16
 73
    12
 74
     0
 42
0.0000000001
 43
0.0000000001
 12
1.0
 22
0.0
 32
0.0
 13
1.0
 23
0.0
 33
0.0
 40
0.0
 40
0.0
 40
0.0
 40
0.0
 40
0.25
 40
0.25
 40
0.25
 40
0.25
 40
0.5
 40
0.5
 40
0.5
 40
0.5
 40
1.0
 40
1.0
 40
1.0
 40
1.0
 10
60.0287
 20
77.3831
 30
0.0
 10
60.0287
 20
77.3831
 30
0.0
 10
57.268
 20
76.4327
 30
0.0
 10
57.268
 20
76.4327
 30
0.0
 10
57.268
 20
76.4327
 30
0.0
 10
57.268
 20
76.4327
 30
0.0
 10
60.0736
 20
73.5889
 30
0.0
 10
60.0736
 20
73.5889
 30
0.0
 10
60.0736
 20
73.5889
 30
0.0
 10
60.0736
 20
73.5889
 30
0.0
 10
60.0287
 20
77.3831
 30
0.0
 10
60.0287
 20
77.3831
 30
0.0
  0
SPLINE
  5
13A
330
1F
100
AcDbEntity
  8
layer 1
 62
     7
100
AcDbSpline
210
0.0
220
0.0
230
1.0
 70
    11
 71
     3
 72
    20
 73
    16
 74
     0
 42
0.0000000001
 43
0.0000000001
 12
1.0
 22
0.0
 32
0.0
 13
1.0
 23
0.0
 33
0.0
 40
0.0
 40
0.0
 40
0.0
 40
0.0
 40
0.2
 40
0.2
 40
0.2
 40
0.2
 40
0.4
 40
0.4
 40
0.4
 40
0.4
 40
0.6
 40
0.6
 40
0.6
 40
0.6
 40
1.0
 40
1.0
 40
1.0
 40
1.0
 10
55.1516
 20
78.4102
 30
0.0
 10
55.1516
 20
78.4102
 30
0.0
 10
60.0274
 20
80.1738
 30
0.0
 10
60.0274
 20
80.1738
 30
0.0
 10
60.0274
 20
80.1738
 30
0.0
 10
60.0274
 20
80.1738
 30
0.0
 10
60.0531
 20
85.6001
 30
0.0
 10
60.0531
 20
85.6001
 30
0.0
 10
60.0531
 20
85.6001
 30
0.0
 10
60.0531
 20
85.6001
 30
0.0
 10
48.0625
 20
85.5974
 30
0.0
 10
48.0625
 20
85.5974
 30
0.0
 10
48.0625
 20
85.5974
 30
0.0
 10
48.0625
 20
85.5974
 30
0.0
 10
55.1516
 20
78.4102
 30
0.0
 10
55.1516
 20
78.4102
 30
0.0
  0
SPLINE
  5
13B
330
1F
100
AcDbEntity
  8
layer 1
 62
     7
100
AcDbSpline
210
0.0
220
0.0
230
1.0
 70
    11
 71
     3
 72
    20
 73
    16
 74
     0
 42
0.0000000001
 43
0.0000000001
 12
1.0
 22
0.0
 32
0.0
 13
1.0
 23
0.0
 33
0.0
 40
0.0
 40
0.0
 40
0.0
 40
0.0
 40
0.2
 40
0.2
 40
0.2
 40
0.2
 40
0.4
 40
0.4
 40
0.4
 40
0.4
 40
0.6
 40
0.6
 40
0.6
 40
0.6
 40
1.0
 40
1.0
 40
1.0
 40
1.0
 10
54.9772
 20
74.7423
 30
0.0
 10
54.9772
 20
74.7423
 30
0.0
 10
47.6689
 20
53.2367
 30
0.0
 10
47.6689
 20
53.2367
 30
0.0
 10
47.6689
 20
53.2367
 30
0.0
 10
47.6689
 20
53.2367
 30
0.0
 10
59.9496
 20
65.4169
 30
0.0
 10
59.9496
 20
65.4169
 30
0.0
 10
59.9496
 20
65.4169
 30
0.0
 10
59.9496
 20
65.4169
 30
0.0
 10
60.0165
 20
69.8882
 30
0.0
 10
60.0165
 20
69.8882
 30
0.0
 10
60.0165
 20
69.8882
 30
0.0
 10
60.0165
 20
69.8882
 30
0.0
 10
54.9772
 20
74.7423
 30
0.0
 10
54.9772
 20
74.7423
 30
0.0
  0
SPLINE
  5
13C
330
1F
100
AcDbEntity
  8
layer 1
 62
     7
100
AcDbSpline
210
0.0
220
0.0
230
1.0
 70
    11
 71
     3
 72
    16
 73
    12
 74
     0
 42
0.0000000001
 43
0.0000000001
 12
1.0
 22
0.0
 32
0.0
 13
1.0
 23
0.0
 33
0.0
 40
0.0
 40
0.0
 40
0.0
 40
0.0
 40
0.25
 40
0.25
 40
0.25
 40
0.25
 40
0.5
 40
0.5
 40
0.5
 40
0.5
 40
1.0
 40
1.0
 40
1.0
 40
1.0
 10
59.9918
 20
61.5122
 30
0.0
 10
59.9918
 20
61.5122
 30
0.0
 10
49.8996
 20
51.2496
 30
0.0
 10
49.8996
 20
51.2496
 30
0.0
 10
49.8996
 20
51.2496
 30
0.0
 10
49.8996
 20
51.2496
 30
0.0
 10
59.9579
 20
54.7119
 30
0.0
 10
59.9579
 20
54.7119
 30
0.0
 10
59.9579
 20
54.7119
 30
0.0
 10
59.9579
 20
54.7119
 30
0.0
 10
59.9918
 20
61.5122
 30
0.0
 10
59.9918
 20
61.5122
 30
0.0
  0
SPLINE
  5
13D
330
1F
100
AcDbEntity
  8
layer 1
 62
     7
100
AcDbSpline
210
0.0
220
0.0
230
1.0
 70
    11
 71
     3
 72
    16
 73
    12
 74
     0
 42
0.0000000001
 43
0.0000000001
 12
1.0
 22
0.0
 32
0.0
 13
1.0
 23
0.0
 33
0.0
 40
0.0
 40
0.0
 40
0.0
 40
0.0
 40
0.25
 40
0.25
 40
0.25
 40
0.25
 40
0.5
 40
0.5
 40
0.5
 40
0.5
 40
1.0
 40
1.0
 40
1.0
 40
1.0
 10
59.9686
 20
51.7754
 30
0.0
 10
59.9686
 20
51.7754
 30
0.0
 10
53.4681
 20
49.4248
 30
0.0
 10
53.4681
 20
49.4248
 30
0.0
 10
53.4681
 20
49.4248
 30
0.0
 10
53.4681
 20
49.4248
 30
0.0
 10
59.9428
 20
49.4248
 30
0.0
 10
59.9428
 20
49.4248
 30
0.0
 10
59.9428
 20
49.4248
 30
0.0
 10
59.9428
 20
49.4248
 30
0.0
 10
59.9686
 20
51.7754
 30
0.0
 10
59.9686
 20
51.7754
 30
0.0
  0
SPLINE
  5
13E
330
1F
100
AcDbEntity
  8
layer 1
 62
     7
100
AcDbSpline
210
0.0
220
0.0
230
1.0
 70
    11
 71
     3
 72
    20
 73
    16
 74
     0
 42
0.0000000001
 43
0.0000000001
 12
1.0
 22
0.0
 32
0.0
 13
1.0
 23
0.0
 33
0.0
 40
0.0
 40
0.0
 40
0.0
 40
0.0
 40
0.2
 40
0.2
 40
0.2
 40
0.2
 40
0.4
 40
0.4
 40
0.4
 40
0.4
 40
0.6
 40
0.6
 40
0.6
 40
0.6
 40
1.0
 40
1.0
 40
1.0
 40
1.0
 10
55.0003
 20
21.0152
 30
0.0
 10
55.0003
 20
21.0152
 30
0.0
 10
47.6933
 20
42.5222
 30
0.0
 10
47.6933
 20
42.5222
 30
0.0
 10
47.6933
 20
42.5222
 30
0.0
 10
47.6933
 20
42.5222
 30
0.0
 10
59.9729
 20
30.342
 30
0.0
 10
59.9729
 20
30.342
 30
0.0
 10
59.9729
 20
30.342
 30
0.0
 10
59.9729
 20
30.342
 30
0.0
 10
60.0395
 20
25.8694
 30
0.0
 10
60.0395
 20
25.8694
 30
0.0
 10
60.0395
 20
25.8694
 30
0.0
 10
60.0395
 20
25.8694
 30
0.0
 10
55.0003
 20
21.0152
 30
0.0
 10
55.0003
 20
21.0152
 30
0.0
  0
SPLINE
  5
13F
330
1F
100
AcDbEntity
  8
layer 1
 62
     7
100
AcDbSpline
210
0.0
220
0.0
230
1.0
 70
    11
 71
     3
 72
    16
 73
    12
 74
     0
 42
0.0000000001
 43
0.0000000001
 12
1.0
 22
0.0
 32
0.0
 13
1.0
 23
0.0
 33
0.0
 40
0.0
 40
0.0
 40
0.0
 40
0.0
 40
0.25
 40
0.25
 40
0.25
 40
0.25
 40
0.5
 40
0.5
 40
0.5
 40
0.5
 40
1.0
 40
1.0
 40
1.0
 40
1.0
 10
59.9686
 20
34.1749
 30
0.0
 10
59.9686
 20
34.1749
 30
0.0
 10
49.8751
 20
44.4371
 30
0.0
 10
49.8751
 20
44.4371
 30
0.0
 10
49.8751
 20
44.4371
 30
0.0
 10
49.8751
 20
44.4371
 30
0.0
 10
59.9345
 20
40.9739
 30
0.0
 10
59.9345
 20
40.9739
 30
0.0
 10
59.9345
 20
40.9739
 30
0.0
 10
59.9345
 20
40.9739
 30
0.0
 10
59.9686
 20
34.1749
 30
0.0
 10
59.9686
 20
34.1749
 30
0.0
  0
SPLINE
  5
140
330
1F
100
AcDbEntity
  8
layer 1
 62
     7
100
AcDbSpline
210
0.0
220
0.0
230
1.0
 70
    11
 71
     3
 72
    16
 73
    12
 74
     0
 42
0.0000000001
 43
0.0000000001
 12
1.0
 22
0.0
 32
0.0
 13
1.0
 23
0.0
 33
0.0
 40
0.0
 40
0.0
 40
0.0
 40
0.0
 40
0.25
 40
0.25
 40
0.25
 40
0.25
 40
0.5
 40
0.5
 40
0.5
 40
0.5
 40
1.0
 40
1.0
 40
1.0
 40
1.0
 10
59.9686
 20
43.9825
 30
0.0
 10
59.9686
 20
43.9825
 30
0.0
 10
53.4681
 20
46.3346
 30
0.0
 10
53.4681
 20
46.3346
 30
0.0
 10
53.4681
 20
46.3346
 30
0.0
 10
53.4681
 20
46.3346
 30
0.0
 10
59.9428
 20
46.3331
 30
0.0
 10
59.9428
 20
46.3331
 30
0.0
 10
59.9428
 20
46.3331
 30
0.0
 10
59.9428
 20
46.3331
 30
0.0
 10
59.9686
 20
43.9825
 30
0.0
 10
59.9686
 20
43.9825
 30
0.0
  0
SPLINE
  5
141
330
1F
100
AcDbEntity
  8
layer 1
 62
     7
100
AcDbSpline
210
0.0
220
0.0
230
1.0
 70
    11
 71
     3
 72
    20
 73
    16
 74
     0
 42
0.0000000001
 43
0.0000000001
 12
1.0
 22
0.0
 32
0.0
 13
1.0
 23
0.0
 33
0.0
 40
0.0
 40
0.0
 40
0.0
 40
0.0
 40
0.2
 40
0.2
 40
0.2
 40
0.2
 40
0.4
 40
0.4
 40
0.4
 40
0.4
 40
0.6
 40
0.6
 40
0.6
 40
0.6
 40
1.0
 40
1.0
 40
1.0
 40
1.0
 10
55.0003
 20
99.9062
 30
0.0
 10
55.0003
 20
99.9062
 30
0.0
 10
47.6933
 20
121.413
 30
0.0
 10
47.6933
 20
121.413
 30
0.0
 10
47.6933
 20
121.413
 30
0.0
 10
47.6933
 20
121.413
 30
0.0
 10
59.9729
 20
109.233
 30
0.0
 10
59.9729
 20
109.233
 30
0.0
 10
59.9729
 20
109.233
 30
0.0
 10
59.9729
 20
109.233
 30
0.0
 10
60.0395
 20
104.7602
 30
0.0
 10
60.0395
 20
104.7602
 30
0.0
 10
60.0395
 20
104.7602
 30
0.0
 10
60.0395
 20
104.7602
 30
0.0
 10
55.0003
 20
99.9062
 30
0.0
 10
55.0003
 20
99.9062
 30
0.0
  0
SPLINE
  5
142
330
1F
100
AcDbEntity
  8
layer 1
 62
     7
100
AcDbSpline
210
0.0
220
0.0
230
1.0
 70
    11
 71
     3
 72
    16
 73
    12
 74
     0
 42
0.0000000001
 43
0.0000000001
 12
1.0
 22
0.0
 32
0.0
 13
1.0
 23
0.0
 33
0.0
 40
0.0
 40
0.0
 40
0.0
 40
0.0
 40
0.25
 40
0.25
 40
0.25
 40
0.25
 40
0.5
 40
0.5
 40
0.5
 40
0.5
 40
1.0
 40
1.0
 40
1.0
 40
1.0
 10
59.9686
 20
113.0654
 30
0.0
 10
59.9686
 20
113.0654
 30
0.0
 10
49.8751
 20
123.328
 30
0.0
 10
49.8751
 20
123.328
 30
0.0
 10
49.8751
 20
123.328
 30
0.0
 10
49.8751
 20
123.328
 30
0.0
 10
59.9345
 20
119.8645
 30
0.0
 10
59.9345
 20
119.8645
 30
0.0
 10
59.9345
 20
119.8645
 30
0.0
 10
59.9345
 20
119.8645
 30
0.0
 10
59.9686
 20
113.0654
 30
0.0
 10
59.9686
 20
113.0654
 30
0.0
  0
SPLINE
  5
143
330
1F
100
AcDbEntity
  8
layer 1
 62
     7
100
AcDbSpline
210
0.0
220
0.0
230
1.0
 70
    11
 71
     3
 72
    16
 73
    12
 74
     0
 42
0.0000000001
 43
0.0000000001
 12
1.0
 22
0.0
 32
0.0
 13
1.0
 23
0.0
 33
0.0
 40
0.0
 40
0.0
 40
0.0
 40
0.0
 40
0.25
 40
0.25
 40
0.25
 40
0.25
 40
0.5
 40
0.5
 40
0.5
 40
0.5
 40
1.0
 40
1.0
 40
1.0
 40
1.0
 10
59.9686
 20
122.873
 30
0.0
 10
59.9686
 20
122.873
 30
0.0
 10
53.4681
 20
125.2252
 30
0.0
 10
53.4681
 20
125.2252
 30
0.0
 10
53.4681
 20
125.2252
 30
0.0
 10
53.4681
 20
125.2252
 30
0.0
 10
59.9428
 20
125.2238
 30
0.0
 10
59.9428
 20
125.2238
 30
0.0
 10
59.9428
 20
125.2238
 30
0.0
 10
59.9428
 20
125.2238
 30
0.0
 10
59.9686
 20
122.873
 30
0.0
 10
59.9686
 20
122.873
 30
0.0
  0
SPLINE
  5
144
330
1F
100
AcDbEntity
  8
layer 1
 62
     7
100
AcDbSpline
210
0.0
220
0.0
230
1.0
 70
    11
 71
     3
 72
    16
 73
    12
 74
     0
 42
0.0000000001
 43
0.0000000001
 12
1.0
 22
0.0
 32
0.0
 13
1.0
 23
0.0
 33
0.0
 40
0.0
 40
0.0
 40
0.0
 40
0.0
 40
0.25
 40
0.25
 40
0.25
 40
0.25
 40
0.5
 40
0.5
 40
0.5
 40
0.5
 40
1.0
 40
1.0
 40
1.0
 40
1.0
 10
-49.8919
 20
96.8103
 30
0.0
 10
-49.8919
 20
96.8103
 30
0.0
 10
-47.1162
 20
97.765
 30
0.0
 10
-47.1162
 20
97.765
 30
0.0
 10
-47.1162
 20
97.765
 30
0.0
 10
-47.1162
 20
97.765
 30
0.0
 10
-49.9313
 20
100.6198
 30
0.0
 10
-49.9313
 20
100.6198
 30
0.0
 10
-49.9313
 20
100.6198
 30
0.0
 10
-49.9313
 20
100.6198
 30
0.0
 10
-49.8919
 20
96.8103
 30
0.0
 10
-49.8919
 20
96.8103
 30
0.0
  0
SPLINE
  5
145
330
1F
100
AcDbEntity
  8
layer 1
 62
     7
100
AcDbSpline
210
0.0
220
0.0
230
1.0
 70
    11
 71
     3
 72
    20
 73
    16
 74
     0
 42
0.0000000001
 43
0.0000000001
 12
1.0
 22
0.0
 32
0.0
 13
1.0
 23
0.0
 33
0.0
 40
0.0
 40
0.0
 40
0.0
 40
0.0
 40
0.2
 40
0.2
 40
0.2
 40
0.2
 40
0.4
 40
0.4
 40
0.4
 40
0.4
 40
0.6
 40
0.6
 40
0.6
 40
0.6
 40
1.0
 40
1.0
 40
1.0
 40
1.0
 10
-45.0008
 20
95.7878
 30
0.0
 10
-45.0008
 20
95.7878
 30
0.0
 10
-49.8919
 20
94.0183
 30
0.0
 10
-49.8919
 20
94.0183
 30
0.0
 10
-49.8919
 20
94.0183
 30
0.0
 10
-49.8919
 20
94.0183
 30
0.0
 10
-49.9027
 20
88.5991
 30
0.0
 10
-49.9027
 20
88.5991
 30
0.0
 10
-49.9027
 20
88.5991
 30
0.0
 10
-49.9027
 20
88.5991
 30
0.0
 10
-37.9105
 20
88.6004
 30
0.0
 10
-37.9105
 20
88.6004
 30
0.0
 10
-37.9105
 20
88.6004
 30
0.0
 10
-37.9105
 20
88.6004
 30
0.0
 10
-45.0008
 20
95.7878
 30
0.0
 10
-45.0008
 20
95.7878
 30
0.0
  0
SPLINE
  5
146
330
1F
100
AcDbEntity
  8
layer 1
 62
     7
100
AcDbSpline
210
0.0
220
0.0
230
1.0
 70
    11
 71
     3
 72
    16
 73
    12
 74
     0
 42
0.0000000001
 43
0.0000000001
 12
1.0
 22
0.0
 32
0.0
 13
1.0
 23
0.0
 33
0.0
 40
0.0
 40
0.0
 40
0.0
 40
0.0
 40
0.25
 40
0.25
 40
0.25
 40
0.25
 40
0.5
 40
0.5
 40
0.5
 40
0.5
 40
1.0
 40
1.0
 40
1.0
 40
1.0
 10
-49.8784
 20
77.3831
 30
0.0
 10
-49.8784
 20
77.3831
 30
0.0
 10
-47.1162
 20
76.4327
 30
0.0
 10
-47.1162
 20
76.4327
 30
0.0
 10
-47.1162
 20
76.4327
 30
0.0
 10
-47.1162
 20
76.4327
 30
0.0
 10
-49.9219
 20
73.5889
 30
0.0
 10
-49.9219
 20
73.5889
 30
0.0
 10
-49.9219
 20
73.5889
 30
0.0
 10
-49.9219
 20
73.5889
 30
0.0
 10
-49.8784
 20
77.3831
 30
0.0
 10
-49.8784
 20
77.3831
 30
0.0
  0
SPLINE
  5
147
330
1F
100
AcDbEntity
  8
layer 1
 62
     7
100
AcDbSpline
210
0.0
220
0.0
230
1.0
 70
    11
 71
     3
 72
    20
 73
    16
 74
     0
 42
0.0000000001
 43
0.0000000001
 12
1.0
 22
0.0
 32
0.0
 13
1.0
 23
0.0
 33
0.0
 40
0.0
 40
0.0
 40
0.0
 40
0.0
 40
0.2
 40
0.2
 40
0.2
 40
0.2
 40
0.4
 40
0.4
 40
0.4
 40
0.4
 40
0.6
 40
0.6
 40
0.6
 40
0.6
 40
1.0
 40
1.0
 40
1.0
 40
1.0
 10
-45.0008
 20
78.4102
 30
0.0
 10
-45.0008
 20
78.4102
 30
0.0
 10
-49.8755
 20
80.1738
 30
0.0
 10
-49.8755
 20
80.1738
 30
0.0
 10
-49.8755
 20
80.1738
 30
0.0
 10
-49.8755
 20
80.1738
 30
0.0
 10
-49.9027
 20
85.6001
 30
0.0
 10
-49.9027
 20
85.6001
 30
0.0
 10
-49.9027
 20
85.6001
 30
0.0
 10
-49.9027
 20
85.6001
 30
0.0
 10
-37.9105
 20
85.5974
 30
0.0
 10
-37.9105
 20
85.5974
 30
0.0
 10
-37.9105
 20
85.5974
 30
0.0
 10
-37.9105
 20
85.5974
 30
0.0
 10
-45.0008
 20
78.4102
 30
0.0
 10
-45.0008
 20
78.4102
 30
0.0
  0
SPLINE
  5
148
330
1F
100
AcDbEntity
  8
layer 1
 62
     7
100
AcDbSpline
210
0.0
220
0.0
230
1.0
 70
    11
 71
     3
 72
    20
 73
    16
 74
     0
 42
0.0000000001
 43
0.0000000001
 12
1.0
 22
0.0
 32
0.0
 13
1.0
 23
0.0
 33
0.0
 40
0.0
 40
0.0
 40
0.0
 40
0.0
 40
0.2
 40
0.2
 40
0.2
 40
0.2
 40
0.4
 40
0.4
 40
0.4
 40
0.4
 40
0.6
 40
0.6
 40
0.6
 40
0.6
 40
1.0
 40
1.0
 40
1.0
 40
1.0
 10
-44.8499
 20
99.9062
 30
0.0
 10
-44.8499
 20
99.9062
 30
0.0
 10
-37.5415
 20
121.413
 30
0.0
 10
-37.5415
 20
121.413
 30
0.0
 10
-37.5415
 20
121.413
 30
0.0
 10
-37.5415
 20
121.413
 30
0.0
 10
-49.8225
 20
109.233
 30
0.0
 10
-49.8225
 20
109.233
 30
0.0
 10
-49.8225
 20
109.233
 30
0.0
 10
-49.8225
 20
109.233
 30
0.0
 10
-49.8891
 20
104.7602
 30
0.0
 10
-49.8891
 20
104.7602
 30
0.0
 10
-49.8891
 20
104.7602
 30
0.0
 10
-49.8891
 20
104.7602
 30
0.0
 10
-44.8499
 20
99.9062
 30
0.0
 10
-44.8499
 20
99.9062
 30
0.0
  0
SPLINE
  5
149
330
1F
100
AcDbEntity
  8
layer 1
 62
     7
100
AcDbSpline
210
0.0
220
0.0
230
1.0
 70
    11
 71
     3
 72
    16
 73
    12
 74
     0
 42
0.0000000001
 43
0.0000000001
 12
1.0
 22
0.0
 32
0.0
 13
1.0
 23
0.0
 33
0.0
 40
0.0
 40
0.0
 40
0.0
 40
0.0
 40
0.25
 40
0.25
 40
0.25
 40
0.25
 40
0.5
 40
0.5
 40
0.5
 40
0.5
 40
1.0
 40
1.0
 40
1.0
 40
1.0
 10
-49.817
 20
113.0654
 30
0.0
 10
-49.817
 20
113.0654
 30
0.0
 10
-39.7249
 20
123.328
 30
0.0
 10
-39.7249
 20
123.328
 30
0.0
 10
-39.7249
 20
123.328
 30
0.0
 10
-39.7249
 20
123.328
 30
0.0
 10
-49.7828
 20
119.8645
 30
0.0
 10
-49.7828
 20
119.8645
 30
0.0
 10
-49.7828
 20
119.8645
 30
0.0
 10
-49.7828
 20
119.8645
 30
0.0
 10
-49.817
 20
113.0654
 30
0.0
 10
-49.817
 20
113.0654
 30
0.0
  0
SPLINE
  5
14A
330
1F
100
AcDbEntity
  8
layer 1
 62
     7
100
AcDbSpline
210
0.0
220
0.0
230
1.0
 70
    11
 71
     3
 72
    16
 73
    12
 74
     0
 42
0.0000000001
 43
0.0000000001
 12
1.0
 22
0.0
 32
0.0
 13
1.0
 23
0.0
 33
0.0
 40
0.0
 40
0.0
 40
0.0
 40
0.0
 40
0.25
 40
0.25
 40
0.25
 40
0.25
 40
0.5
 40
0.5
 40
0.5
 40
0.5
 40
1.0
 40
1.0
 40
1.0
 40
1.0
 10
-49.8184
 20
122.873
 30
0.0
 10
-49.8184
 20
122.873
 30
0.0
 10
-43.3175
 20
125.2252
 30
0.0
 10
-43.3175
 20
125.2252
 30
0.0
 10
-43.3175
 20
125.2252
 30
0.0
 10
-43.3175
 20
125.2252
 30
0.0
 10
-49.7926
 20
125.2238
 30
0.0
 10
-49.7926
 20
125.2238
 30
0.0
 10
-49.7926
 20
125.2238
 30
0.0
 10
-49.7926
 20
125.2238
 30
0.0
 10
-49.8184
 20
122.873
 30
0.0
 10
-49.8184
 20
122.873
 30
0.0
  0
SPLINE
  5
14B
330
1F
100
AcDbEntity
  8
layer 1
 62
     7
100
AcDbSpline
210
0.0
220
0.0
230
1.0
 70
    11
 71
     3
 72
    16
 73
    12
 74
     0
 42
0.0000000001
 43
0.0000000001
 12
1.0
 22
0.0
 32
0.0
 13
1.0
 23
0.0
 33
0.0
 40
0.0
 40
0.0
 40
0.0
 40
0.0
 40
0.25
 40
0.25
 40
0.25
 40
0.25
 40
0.5
 40
0.5
 40
0.5
 40
0.5
 40
1.0
 40
1.0
 40
1.0
 40
1.0
 10
-49.9394
 20
17.6786
 30
0.0
 10
-49.9394
 20
17.6786
 30
0.0
 10
-47.164
 20
18.6346
 30
0.0
 10
-47.164
 20
18.6346
 30
0.0
 10
-47.164
 20
18.6346
 30
0.0
 10
-47.164
 20
18.6346
 30
0.0
 10
-49.9791
 20
21.4881
 30
0.0
 10
-49.9791
 20
21.4881
 30
0.0
 10
-49.9791
 20
21.4881
 30
0.0
 10
-49.9791
 20
21.4881
 30
0.0
 10
-49.9394
 20
17.6786
 30
0.0
 10
-49.9394
 20
17.6786
 30
0.0
  0
SPLINE
  5
14C
330
1F
100
AcDbEntity
  8
layer 1
 62
     7
100
AcDbSpline
210
0.0
220
0.0
230
1.0
 70
    11
 71
     3
 72
    16
 73
    12
 74
     0
 42
0.0000000001
 43
0.0000000001
 12
1.0
 22
0.0
 32
0.0
 13
1.0
 23
0.0
 33
0.0
 40
0.0
 40
0.0
 40
0.0
 40
0.0
 40
0.25
 40
0.25
 40
0.25
 40
0.25
 40
0.5
 40
0.5
 40
0.5
 40
0.5
 40
1.0
 40
1.0
 40
1.0
 40
1.0
 10
-49.9247
 20
-1.7473
 30
0.0
 10
-49.9247
 20
-1.7473
 30
0.0
 10
-47.164
 20
-2.6978
 30
0.0
 10
-47.164
 20
-2.6978
 30
0.0
 10
-47.164
 20
-2.6978
 30
0.0
 10
-47.164
 20
-2.6978
 30
0.0
 10
-49.9693
 20
-5.5428
 30
0.0
 10
-49.9693
 20
-5.5428
 30
0.0
 10
-49.9693
 20
-5.5428
 30
0.0
 10
-49.9693
 20
-5.5428
 30
0.0
 10
-49.9247
 20
-1.7473
 30
0.0
 10
-49.9247
 20
-1.7473
 30
0.0
  0
SPLINE
  5
14D
330
1F
100
AcDbEntity
  8
layer 1
 62
     7
100
AcDbSpline
210
0.0
220
0.0
230
1.0
 70
    11
 71
     3
 72
    16
 73
    12
 74
     0
 42
0.0000000001
 43
0.0000000001
 12
1.0
 22
0.0
 32
0.0
 13
1.0
 23
0.0
 33
0.0
 40
0.0
 40
0.0
 40
0.0
 40
0.0
 40
0.25
 40
0.25
 40
0.25
 40
0.25
 40
0.5
 40
0.5
 40
0.5
 40
0.5
 40
1.0
 40
1.0
 40
1.0
 40
1.0
 10
-49.8878
 20
-17.6196
 30
0.0
 10
-49.8878
 20
-17.6196
 30
0.0
 10
-39.7956
 20
-27.8822
 30
0.0
 10
-39.7956
 20
-27.8822
 30
0.0
 10
-39.7956
 20
-27.8822
 30
0.0
 10
-39.7956
 20
-27.8822
 30
0.0
 10
-49.8536
 20
-24.4184
 30
0.0
 10
-49.8536
 20
-24.4184
 30
0.0
 10
-49.8536
 20
-24.4184
 30
0.0
 10
-49.8536
 20
-24.4184
 30
0.0
 10
-49.8878
 20
-17.6196
 30
0.0
 10
-49.8878
 20
-17.6196
 30
0.0
  0
SPLINE
  5
14E
330
1F
100
AcDbEntity
  8
layer 1
 62
     7
100
AcDbSpline
210
0.0
220
0.0
230
1.0
 70
    11
 71
     3
 72
    16
 73
    12
 74
     0
 42
0.0000000001
 43
0.0000000001
 12
1.0
 22
0.0
 32
0.0
 13
1.0
 23
0.0
 33
0.0
 40
0.0
 40
0.0
 40
0.0
 40
0.0
 40
0.25
 40
0.25
 40
0.25
 40
0.25
 40
0.5
 40
0.5
 40
0.5
 40
0.5
 40
1.0
 40
1.0
 40
1.0
 40
1.0
 10
-49.8647
 20
-27.355
 30
0.0
 10
-49.8647
 20
-27.355
 30
0.0
 10
-43.3639
 20
-29.707
 30
0.0
 10
-43.3639
 20
-29.707
 30
0.0
 10
-43.3639
 20
-29.707
 30
0.0
 10
-43.3639
 20
-29.707
 30
0.0
 10
-49.8385
 20
-29.7056
 30
0.0
 10
-49.8385
 20
-29.7056
 30
0.0
 10
-49.8385
 20
-29.7056
 30
0.0
 10
-49.8385
 20
-29.7056
 30
0.0
 10
-49.8647
 20
-27.355
 30
0.0
 10
-49.8647
 20
-27.355
 30
0.0
  0
SPLINE
  5
14F
330
1F
100
AcDbEntity
  8
layer 1
 62
     7
100
AcDbSpline
210
0.0
220
0.0
230
1.0
 70
    11
 71
     3
 72
    20
 73
    16
 74
     0
 42
0.0000000001
 43
0.0000000001
 12
1.0
 22
0.0
 32
0.0
 13
1.0
 23
0.0
 33
0.0
 40
0.0
 40
0.0
 40
0.0
 40
0.0
 40
0.2
 40
0.2
 40
0.2
 40
0.2
 40
0.4
 40
0.4
 40
0.4
 40
0.4
 40
0.6
 40
0.6
 40
0.6
 40
0.6
 40
1.0
 40
1.0
 40
1.0
 40
1.0
 10
-44.8963
 20
-58.1152
 30
0.0
 10
-44.8963
 20
-58.1152
 30
0.0
 10
-37.5893
 20
-36.6081
 30
0.0
 10
-37.5893
 20
-36.6081
 30
0.0
 10
-37.5893
 20
-36.6081
 30
0.0
 10
-37.5893
 20
-36.6081
 30
0.0
 10
-49.8686
 20
-48.7898
 30
0.0
 10
-49.8686
 20
-48.7898
 30
0.0
 10
-49.8686
 20
-48.7898
 30
0.0
 10
-49.8686
 20
-48.7898
 30
0.0
 10
-49.9355
 20
-53.2611
 30
0.0
 10
-49.9355
 20
-53.2611
 30
0.0
 10
-49.9355
 20
-53.2611
 30
0.0
 10
-49.9355
 20
-53.2611
 30
0.0
 10
-44.8963
 20
-58.1152
 30
0.0
 10
-44.8963
 20
-58.1152
 30
0.0
  0
SPLINE
  5
150
330
1F
100
AcDbEntity
  8
layer 1
 62
     7
100
AcDbSpline
210
0.0
220
0.0
230
1.0
 70
    11
 71
     3
 72
    16
 73
    12
 74
     0
 42
0.0000000001
 43
0.0000000001
 12
1.0
 22
0.0
 32
0.0
 13
1.0
 23
0.0
 33
0.0
 40
0.0
 40
0.0
 40
0.0
 40
0.0
 40
0.25
 40
0.25
 40
0.25
 40
0.25
 40
0.5
 40
0.5
 40
0.5
 40
0.5
 40
1.0
 40
1.0
 40
1.0
 40
1.0
 10
-49.8634
 20
-44.9558
 30
0.0
 10
-49.8634
 20
-44.9558
 30
0.0
 10
-39.7709
 20
-34.6933
 30
0.0
 10
-39.7709
 20
-34.6933
 30
0.0
 10
-39.7709
 20
-34.6933
 30
0.0
 10
-39.7709
 20
-34.6933
 30
0.0
 10
-49.8305
 20
-38.157
 30
0.0
 10
-49.8305
 20
-38.157
 30
0.0
 10
-49.8305
 20
-38.157
 30
0.0
 10
-49.8305
 20
-38.157
 30
0.0
 10
-49.8634
 20
-44.9558
 30
0.0
 10
-49.8634
 20
-44.9558
 30
0.0
  0
SPLINE
  5
151
330
1F
100
AcDbEntity
  8
layer 1
 62
     7
100
AcDbSpline
210
0.0
220
0.0
230
1.0
 70
    11
 71
     3
 72
    16
 73
    12
 74
     0
 42
0.0000000001
 43
0.0000000001
 12
1.0
 22
0.0
 32
0.0
 13
1.0
 23
0.0
 33
0.0
 40
0.0
 40
0.0
 40
0.0
 40
0.0
 40
0.25
 40
0.25
 40
0.25
 40
0.25
 40
0.5
 40
0.5
 40
0.5
 40
0.5
 40
1.0
 40
1.0
 40
1.0
 40
1.0
 10
-49.8647
 20
-35.1483
 30
0.0
 10
-49.8647
 20
-35.1483
 30
0.0
 10
-43.3639
 20
-32.7973
 30
0.0
 10
-43.3639
 20
-32.7973
 30
0.0
 10
-43.3639
 20
-32.7973
 30
0.0
 10
-43.3639
 20
-32.7973
 30
0.0
 10
-49.8385
 20
-32.7973
 30
0.0
 10
-49.8385
 20
-32.7973
 30
0.0
 10
-49.8385
 20
-32.7973
 30
0.0
 10
-49.8385
 20
-32.7973
 30
0.0
 10
-49.8647
 20
-35.1483
 30
0.0
 10
-49.8647
 20
-35.1483
 30
0.0
  0
SPLINE
  5
152
330
1F
100
AcDbEntity
  8
layer 1
 62
     7
100
AcDbSpline
210
0.0
220
0.0
230
1.0
 70
    11
 71
     3
 72
    16
 73
    12
 74
     0
 42
0.0000000001
 43
0.0000000001
 12
1.0
 22
0.0
 32
0.0
 13
1.0
 23
0.0
 33
0.0
 40
0.0
 40
0.0
 40
0.0
 40
0.0
 40
0.25
 40
0.25
 40
0.25
 40
0.25
 40
0.5
 40
0.5
 40
0.5
 40
0.5
 40
1.0
 40
1.0
 40
1.0
 40
1.0
 10
-49.8878
 20
61.5122
 30
0.0
 10
-49.8878
 20
61.5122
 30
0.0
 10
-39.7956
 20
51.2496
 30
0.0
 10
-39.7956
 20
51.2496
 30
0.0
 10
-39.7956
 20
51.2496
 30
0.0
 10
-39.7956
 20
51.2496
 30
0.0
 10
-49.8536
 20
54.7119
 30
0.0
 10
-49.8536
 20
54.7119
 30
0.0
 10
-49.8536
 20
54.7119
 30
0.0
 10
-49.8536
 20
54.7119
 30
0.0
 10
-49.8878
 20
61.5122
 30
0.0
 10
-49.8878
 20
61.5122
 30
0.0
  0
SPLINE
  5
153
330
1F
100
AcDbEntity
  8
layer 1
 62
     7
100
AcDbSpline
210
0.0
220
0.0
230
1.0
 70
    11
 71
     3
 72
    16
 73
    12
 74
     0
 42
0.0000000001
 43
0.0000000001
 12
1.0
 22
0.0
 32
0.0
 13
1.0
 23
0.0
 33
0.0
 40
0.0
 40
0.0
 40
0.0
 40
0.0
 40
0.25
 40
0.25
 40
0.25
 40
0.25
 40
0.5
 40
0.5
 40
0.5
 40
0.5
 40
1.0
 40
1.0
 40
1.0
 40
1.0
 10
-49.8647
 20
51.7754
 30
0.0
 10
-49.8647
 20
51.7754
 30
0.0
 10
-43.3639
 20
49.4248
 30
0.0
 10
-43.3639
 20
49.4248
 30
0.0
 10
-43.3639
 20
49.4248
 30
0.0
 10
-43.3639
 20
49.4248
 30
0.0
 10
-49.8385
 20
49.4248
 30
0.0
 10
-49.8385
 20
49.4248
 30
0.0
 10
-49.8385
 20
49.4248
 30
0.0
 10
-49.8385
 20
49.4248
 30
0.0
 10
-49.8647
 20
51.7754
 30
0.0
 10
-49.8647
 20
51.7754
 30
0.0
  0
SPLINE
  5
154
330
1F
100
AcDbEntity
  8
layer 1
 62
     7
100
AcDbSpline
210
0.0
220
0.0
230
1.0
 70
    11
 71
     3
 72
    16
 73
    12
 74
     0
 42
0.0000000001
 43
0.0000000001
 12
1.0
 22
0.0
 32
0.0
 13
1.0
 23
0.0
 33
0.0
 40
0.0
 40
0.0
 40
0.0
 40
0.0
 40
0.25
 40
0.25
 40
0.25
 40
0.25
 40
0.5
 40
0.5
 40
0.5
 40
0.5
 40
1.0
 40
1.0
 40
1.0
 40
1.0
 10
-49.8634
 20
34.1749
 30
0.0
 10
-49.8634
 20
34.1749
 30
0.0
 10
-39.7709
 20
44.4371
 30
0.0
 10
-39.7709
 20
44.4371
 30
0.0
 10
-39.7709
 20
44.4371
 30
0.0
 10
-39.7709
 20
44.4371
 30
0.0
 10
-49.8305
 20
40.9739
 30
0.0
 10
-49.8305
 20
40.9739
 30
0.0
 10
-49.8305
 20
40.9739
 30
0.0
 10
-49.8305
 20
40.9739
 30
0.0
 10
-49.8634
 20
34.1749
 30
0.0
 10
-49.8634
 20
34.1749
 30
0.0
  0
SPLINE
  5
155
330
1F
100
AcDbEntity
  8
layer 1
 62
     7
100
AcDbSpline
210
0.0
220
0.0
230
1.0
 70
    11
 71
     3
 72
    16
 73
    12
 74
     0
 42
0.0000000001
 43
0.0000000001
 12
1.0
 22
0.0
 32
0.0
 13
1.0
 23
0.0
 33
0.0
 40
0.0
 40
0.0
 40
0.0
 40
0.0
 40
0.25
 40
0.25
 40
0.25
 40
0.25
 40
0.5
 40
0.5
 40
0.5
 40
0.5
 40
1.0
 40
1.0
 40
1.0
 40
1.0
 10
-49.8647
 20
43.9825
 30
0.0
 10
-49.8647
 20
43.9825
 30
0.0
 10
-43.3639
 20
46.3346
 30
0.0
 10
-43.3639
 20
46.3346
 30
0.0
 10
-43.3639
 20
46.3346
 30
0.0
 10
-43.3639
 20
46.3346
 30
0.0
 10
-49.8385
 20
46.3331
 30
0.0
 10
-49.8385
 20
46.3331
 30
0.0
 10
-49.8385
 20
46.3331
 30
0.0
 10
-49.8385
 20
46.3331
 30
0.0
 10
-49.8647
 20
43.9825
 30
0.0
 10
-49.8647
 20
43.9825
 30
0.0
  0
SPLINE
  5
156
330
1F
100
AcDbEntity
  8
layer 1
 62
     7
100
AcDbSpline
210
0.0
220
0.0
230
1.0
 70
    11
 71
     3
 72
    20
 73
    16
 74
     0
 42
0.0000000001
 43
0.0000000001
 12
1.0
 22
0.0
 32
0.0
 13
1.0
 23
0.0
 33
0.0
 40
0.0
 40
0.0
 40
0.0
 40
0.0
 40
0.2
 40
0.2
 40
0.2
 40
0.2
 40
0.4
 40
0.4
 40
0.4
 40
0.4
 40
0.6
 40
0.6
 40
0.6
 40
0.6
 40
1.0
 40
1.0
 40
1.0
 40
1.0
 10
-44.9984
 20
16.6569
 30
0.0
 10
-44.9984
 20
16.6569
 30
0.0
 10
-49.8891
 20
14.8878
 30
0.0
 10
-49.8891
 20
14.8878
 30
0.0
 10
-49.8891
 20
14.8878
 30
0.0
 10
-49.8891
 20
14.8878
 30
0.0
 10
-49.9
 20
9.4672
 30
0.0
 10
-49.9
 20
9.4672
 30
0.0
 10
-49.9
 20
9.4672
 30
0.0
 10
-49.9
 20
9.4672
 30
0.0
 10
-37.9094
 20
9.4699
 30
0.0
 10
-37.9094
 20
9.4699
 30
0.0
 10
-37.9094
 20
9.4699
 30
0.0
 10
-37.9094
 20
9.4699
 30
0.0
 10
-44.9984
 20
16.6569
 30
0.0
 10
-44.9984
 20
16.6569
 30
0.0
  0
SPLINE
  5
157
330
1F
100
AcDbEntity
  8
layer 1
 62
     7
100
AcDbSpline
210
0.0
220
0.0
230
1.0
 70
    11
 71
     3
 72
    20
 73
    16
 74
     0
 42
0.0000000001
 43
0.0000000001
 12
1.0
 22
0.0
 32
0.0
 13
1.0
 23
0.0
 33
0.0
 40
0.0
 40
0.0
 40
0.0
 40
0.0
 40
0.2
 40
0.2
 40
0.2
 40
0.2
 40
0.4
 40
0.4
 40
0.4
 40
0.4
 40
0.6
 40
0.6
 40
0.6
 40
0.6
 40
1.0
 40
1.0
 40
1.0
 40
1.0
 10
-44.9984
 20
-0.6058
 30
0.0
 10
-44.9984
 20
-0.6058
 30
0.0
 10
-49.8741
 20
1.1563
 30
0.0
 10
-49.8741
 20
1.1563
 30
0.0
 10
-49.8741
 20
1.1563
 30
0.0
 10
-49.8741
 20
1.1563
 30
0.0
 10
-49.9
 20
6.5827
 30
0.0
 10
-49.9
 20
6.5827
 30
0.0
 10
-49.9
 20
6.5827
 30
0.0
 10
-49.9
 20
6.5827
 30
0.0
 10
-37.9094
 20
6.5812
 30
0.0
 10
-37.9094
 20
6.5812
 30
0.0
 10
-37.9094
 20
6.5812
 30
0.0
 10
-37.9094
 20
6.5812
 30
0.0
 10
-44.9984
 20
-0.6058
 30
0.0
 10
-44.9984
 20
-0.6058
 30
0.0
  0
SPLINE
  5
158
330
1F
100
AcDbEntity
  8
layer 1
 62
     7
100
AcDbSpline
210
0.0
220
0.0
230
1.0
 70
    11
 71
     3
 72
    20
 73
    16
 74
     0
 42
0.0000000001
 43
0.0000000001
 12
1.0
 22
0.0
 32
0.0
 13
1.0
 23
0.0
 33
0.0
 40
0.0
 40
0.0
 40
0.0
 40
0.0
 40
0.2
 40
0.2
 40
0.2
 40
0.2
 40
0.4
 40
0.4
 40
0.4
 40
0.4
 40
0.6
 40
0.6
 40
0.6
 40
0.6
 40
1.0
 40
1.0
 40
1.0
 40
1.0
 10
-44.8241
 20
-4.3881
 30
0.0
 10
-44.8241
 20
-4.3881
 30
0.0
 10
-37.5157
 20
-25.8951
 30
0.0
 10
-37.5157
 20
-25.8951
 30
0.0
 10
-37.5157
 20
-25.8951
 30
0.0
 10
-37.5157
 20
-25.8951
 30
0.0
 10
-49.7963
 20
-13.7148
 30
0.0
 10
-49.7963
 20
-13.7148
 30
0.0
 10
-49.7963
 20
-13.7148
 30
0.0
 10
-49.7963
 20
-13.7148
 30
0.0
 10
-49.8634
 20
-9.2422
 30
0.0
 10
-49.8634
 20
-9.2422
 30
0.0
 10
-49.8634
 20
-9.2422
 30
0.0
 10
-49.8634
 20
-9.2422
 30
0.0
 10
-44.8241
 20
-4.3881
 30
0.0
 10
-44.8241
 20
-4.3881
 30
0.0
  0
SPLINE
  5
159
330
1F
100
AcDbEntity
  8
layer 1
 62
     7
100
AcDbSpline
210
0.0
220
0.0
230
1.0
 70
    11
 71
     3
 72
    20
 73
    16
 74
     0
 42
0.0000000001
 43
0.0000000001
 12
1.0
 22
0.0
 32
0.0
 13
1.0
 23
0.0
 33
0.0
 40
0.0
 40
0.0
 40
0.0
 40
0.0
 40
0.2
 40
0.2
 40
0.2
 40
0.2
 40
0.4
 40
0.4
 40
0.4
 40
0.4
 40
0.6
 40
0.6
 40
0.6
 40
0.6
 40
1.0
 40
1.0
 40
1.0
 40
1.0
 10
-44.8471
 20
21.0152
 30
0.0
 10
-44.8471
 20
21.0152
 30
0.0
 10
-37.5401
 20
42.5222
 30
0.0
 10
-37.5401
 20
42.5222
 30
0.0
 10
-37.5401
 20
42.5222
 30
0.0
 10
-37.5401
 20
42.5222
 30
0.0
 10
-49.8198
 20
30.342
 30
0.0
 10
-49.8198
 20
30.342
 30
0.0
 10
-49.8198
 20
30.342
 30
0.0
 10
-49.8198
 20
30.342
 30
0.0
 10
-49.8864
 20
25.8694
 30
0.0
 10
-49.8864
 20
25.8694
 30
0.0
 10
-49.8864
 20
25.8694
 30
0.0
 10
-49.8864
 20
25.8694
 30
0.0
 10
-44.8471
 20
21.0152
 30
0.0
 10
-44.8471
 20
21.0152
 30
0.0
  0
SPLINE
  5
15A
330
1F
100
AcDbEntity
  8
layer 1
 62
     7
100
AcDbSpline
210
0.0
220
0.0
230
1.0
 70
    11
 71
     3
 72
    20
 73
    16
 74
     0
 42
0.0000000001
 43
0.0000000001
 12
1.0
 22
0.0
 32
0.0
 13
1.0
 23
0.0
 33
0.0
 40
0.0
 40
0.0
 40
0.0
 40
0.0
 40
0.2
 40
0.2
 40
0.2
 40
0.2
 40
0.4
 40
0.4
 40
0.4
 40
0.4
 40
0.6
 40
0.6
 40
0.6
 40
0.6
 40
1.0
 40
1.0
 40
1.0
 40
1.0
 10
-44.8241
 20
74.6552
 30
0.0
 10
-44.8241
 20
74.6552
 30
0.0
 10
-37.5157
 20
53.1485
 30
0.0
 10
-37.5157
 20
53.1485
 30
0.0
 10
-37.5157
 20
53.1485
 30
0.0
 10
-37.5157
 20
53.1485
 30
0.0
 10
-49.7963
 20
65.3283
 30
0.0
 10
-49.7963
 20
65.3283
 30
0.0
 10
-49.7963
 20
65.3283
 30
0.0
 10
-49.7963
 20
65.3283
 30
0.0
 10
-49.8634
 20
69.8011
 30
0.0
 10
-49.8634
 20
69.8011
 30
0.0
 10
-49.8634
 20
69.8011
 30
0.0
 10
-49.8634
 20
69.8011
 30
0.0
 10
-44.8241
 20
74.6552
 30
0.0
 10
-44.8241
 20
74.6552
 30
0.0
  0
ENDSEC
  0
SECTION
  2
OBJECTS
  0
DICTIONARY
  5
C
330
0
100
AcDbDictionary
281
     1
  3
ACAD_GROUP
350
D
  3
ACAD_LAYOUT
350
1A
  3
ACAD_MATERIAL
350
3B
  3
ACAD_MLEADERSTYLE
350
17D
  3
ACAD_MLINESTYLE
350
17
  3
ACAD_PLOTSETTINGS
350
19
  3
ACAD_PLOTSTYLENAME
350
E
  3
ACAD_TABLESTYLE
350
17C
  3
ACAD_VISUALSTYLE
350
2A
  0
DICTIONARY
  5
D
102
{ACAD_REACTORS
330
C
102
}
330
C
100
AcDbDictionary
281
     1
  0
DICTIONARY
  5
1A
102
{ACAD_REACTORS
330
C
102
}
330
C
100
AcDbDictionary
281
     1
  3
Layout1
350
1E
  3
Layout2
350
26
  3
Model
350
22
  0
DICTIONARY
  5
3B
102
{ACAD_REACTORS
330
C
102
}
330
C
100
AcDbDictionary
281
     1
  3
ByBlock
350
3D
  3
ByLayer
350
3C
  3
Global
350
3E
  0
DICTIONARY
  5
17D
102
{ACAD_REACTORS
330
C
102
}
330
C
100
AcDbDictionary
281
     1
  0
DICTIONARY
  5
17
102
{ACAD_REACTORS
330
C
102
}
330
C
100
AcDbDictionary
281
     1
  3
Standard
350
18
  0
DICTIONARY
  5
19
102
{ACAD_REACTORS
330
C
102
}
330
C
100
AcDbDictionary
281
     1
  0
ACDBDICTIONARYWDFLT
  5
E
102
{ACAD_REACTORS
330
C
102
}
330
C
100
AcDbDictionary
281
     1
  3
Normal
350
F
100
AcDbDictionaryWithDefault
340
F
  0
DICTIONARY
  5
17C
102
{ACAD_REACTORS
330
C
102
}
330
C
100
AcDbDictionary
281
     1
  0
DICTIONARY
  5
2A
102
{ACAD_REACTORS
330
C
102
}
330
C
100
AcDbDictionary
281
     1
  3
2dWireframe
350
2F
  3
3D Hidden
350
31
  3
3dWireframe
350
30
  3
Basic
350
32
  3
Brighten
350
36
  3
ColorChange
350
3A
  3
Conceptual
350
34
  3
Dim
350
35
  3
Facepattern
350
39
  3
Flat
350
2B
  3
FlatWithEdges
350
2C
  3
Gouraud
350
2D
  3
GouraudWithEdges
350
2E
  3
Linepattern
350
38
  3
Realistic
350
33
  3
Thicken
350
37
  0
LAYOUT
  5
1E
102
{ACAD_REACTORS
330
1A
102
}
330
1A
100
AcDbPlotSettings
  1

  2
none_device
  4

  6

 40
0.0
 41
0.0
 42
0.0
 43
0.0
 44
0.0
 45
0.0
 46
0.0
 47
0.0
 48
0.0
 49
0.0
140
0.0
141
0.0
142
1.0
143
1.0
 70
   688
 72
     0
 73
     0
 74
     5
  7

 75
    16
 76
     0
 77
     2
 78
   300
147
1.0
148
0.0
149
0.0
100
AcDbLayout
  1
Layout1
 70
     1
 71
     1
 10
0.0
 20
0.0
 11
12.0
 21
9.0
 12
0.0
 22
0.0
 32
0.0
 14
1.000000000000000E+20
 24
1.000000000000000E+20
 34
1.000000000000000E+20
 15
-1.000000000000000E+20
 25
-1.000000000000000E+20
 35
-1.000000000000000E+20
146
0.0
 13
0.0
 23
0.0
 33
0.0
 16
1.0
 26
0.0
 36
0.0
 17
0.0
 27
1.0
 37
0.0
 76
     0
330
1B
  0
LAYOUT
  5
26
102
{ACAD_REACTORS
330
1A
102
}
330
1A
100
AcDbPlotSettings
  1

  2
none_device
  4

  6

 40
0.0
 41
0.0
 42
0.0
 43
0.0
 44
0.0
 45
0.0
 46
0.0
 47
0.0
 48
0.0
 49
0.0
140
0.0
141
0.0
142
1.0
143
1.0
 70
   688
 72
     0
 73
     0
 74
     5
  7

 75
    16
 76
     0
 77
     2
 78
   300
147
1.0
148
0.0
149
0.0
100
AcDbLayout
  1
Layout2
 70
     1
 71
     2
 10
0.0
 20
0.0
 11
0.0
 21
0.0
 12
0.0
 22
0.0
 32
0.0
 14
0.0
 24
0.0
 34
0.0
 15
0.0
 25
0.0
 35
0.0
146
0.0
 13
0.0
 23
0.0
 33
0.0
 16
1.0
 26
0.0
 36
0.0
 17
0.0
 27
1.0
 37
0.0
 76
     0
330
23
  0
LAYOUT
  5
22
102
{ACAD_REACTORS
330
1A
102
}
330
1A
100
AcDbPlotSettings
  1

  2
none_device
  4

  6

 40
0.0
 41
0.0
 42
0.0
 43
0.0
 44
0.0
 45
0.0
 46
0.0
 47
0.0
 48
0.0
 49
0.0
140
0.0
141
0.0
142
1.0
143
1.0
 70
  1712
 72
     0
 73
     0
 74
     0
  7

 75
     0
 76
     0
 77
     2
 78
   300
147
1.0
148
0.0
149
0.0
100
AcDbLayout
  1
Model
 70
     1
 71
     0
 10
0.0
 20
0.0
 11
12.0
 21
9.0
 12
0.0
 22
0.0
 32
0.0
 14
-187.0251
 24
-115.165
 34
0.0
 15
67.3165
 25
131.858
 35
0.0
146
0.0
 13
0.0
 23
0.0
 33
0.0
 16
1.0
 26
0.0
 36
0.0
 17
0.0
 27
1.0
 37
0.0
 76
     0
330
1F
331
29
  0
MATERIAL
  5
3D
102
{ACAD_REACTORS
330
3B
102
}
330
3B
100
AcDbMaterial
  1
ByBlock
 72
     1
 94
      127
  0
MATERIAL
  5
3C
102
{ACAD_REACTORS
330
3B
102
}
330
3B
100
AcDbMaterial
  1
ByLayer
 72
     1
 94
      127
  0
MATERIAL
  5
3E
102
{ACAD_REACTORS
330
3B
102
}
330
3B
100
AcDbMaterial
  1
Global
 72
     1
 94
      127
  0
MLINESTYLE
  5
18
102
{ACAD_REACTORS
330
17
102
}
330
17
100
AcDbMlineStyle
  2
Standard
 70
     0
  3

 62
   256
 51
90.0
 52
90.0
 71
     2
 49
0.5
 62
   256
  6
BYLAYER
 49
-0.5
 62
   256
  6
BYLAYER
  0
ACDBPLACEHOLDER
  5
F
102
{ACAD_REACTORS
330
E
102
}
330
E
  0
VISUALSTYLE
  5
2F
102
{ACAD_REACTORS
330
2A
102
}
102
{ACAD_XDICTIONARY
360
164
102
}
330
2A
100
AcDbVisualStyle
  2
2dWireframe
 70
     4
 71
     0
 72
     2
 73
     0
 90
        0
 40
-0.6
 41
-30.0
 62
     5
 63
     7
421
 16777215
 74
     1
 91
        4
 64
     7
 65
   257
 75
     1
175
     1
 42
1.0
 92
        0
 66
   257
 43
1.0
 76
     1
 77
     6
 78
     2
 67
     7
 79
     5
170
     0
171
     0
290
     0
174
     0
 93
        1
 44
0.0
173
     0
291
     0
 45
0.0
  0
VISUALSTYLE
  5
31
102
{ACAD_REACTORS
330
2A
102
}
102
{ACAD_XDICTIONARY
360
168
102
}
330
2A
100
AcDbVisualStyle
  2
3D Hidden
 70
     6
 71
     1
 72
     2
 73
     2
 90
        0
 40
-0.6
 41
-30.0
 62
     5
 63
     7
421
 16777215
 74
     2
 91
        2
 64
     7
 65
   257
 75
     2
175
     1
 42
40.0
 92
        0
 66
   257
 43
1.0
 76
     1
 77
     6
 78
     2
 67
     7
 79
     3
170
     0
171
     0
290
     0
174
     0
 93
        1
 44
0.0
173
     0
291
     0
 45
0.0
  0
VISUALSTYLE
  5
30
102
{ACAD_REACTORS
330
2A
102
}
102
{ACAD_XDICTIONARY
360
166
102
}
330
2A
100
AcDbVisualStyle
  2
3dWireframe
 70
     5
 71
     0
 72
     2
 73
     0
 90
        0
 40
-0.6
 41
-30.0
 62
     5
 63
     7
421
 16777215
 74
     1
 91
        4
 64
     7
 65
   257
 75
     1
175
     1
 42
1.0
 92
        0
 66
   257
 43
1.0
 76
     1
 77
     6
 78
     2
 67
     7
 79
     5
170
     0
171
     0
290
     0
174
     0
 93
        1
 44
0.0
173
     0
291
     0
 45
0.0
  0
VISUALSTYLE
  5
32
102
{ACAD_REACTORS
330
2A
102
}
102
{ACAD_XDICTIONARY
360
16A
102
}
330
2A
100
AcDbVisualStyle
  2
Basic
 70
     7
 71
     1
 72
     0
 73
     1
 90
        0
 40
-0.6
 41
-30.0
 62
     5
 63
     7
421
 16777215
 74
     0
 91
        4
 64
     7
 65
   257
 75
     1
175
     1
 42
1.0
 92
        8
 66
     7
 43
1.0
 76
     1
 77
     6
 78
     2
 67
     7
 79
     5
170
     0
171
     0
290
     0
174
     0
 93
        1
 44
0.0
173
     0
291
     1
 45
0.0
  0
VISUALSTYLE
  5
36
102
{ACAD_REACTORS
330
2A
102
}
102
{ACAD_XDICTIONARY
360
172
102
}
330
2A
100
AcDbVisualStyle
  2
Brighten
 70
    12
 71
     2
 72
     2
 73
     0
 90
        0
 40
-0.6
 41
-30.0
 62
     5
 63
     7
421
 16777215
 74
     1
 91
        4
 64
     7
 65
   257
 75
     1
175
     1
 42
1.0
 92
        8
 66
     7
 43
1.0
 76
     1
 77
     6
 78
     2
 67
     7
 79
     5
170
     0
171
     0
290
     0
174
     0
 93
        1
 44
50.0
173
     0
291
     1
 45
0.0
  0
VISUALSTYLE
  5
3A
102
{ACAD_REACTORS
330
2A
102
}
102
{ACAD_XDICTIONARY
360
17A
102
}
330
2A
100
AcDbVisualStyle
  2
ColorChange
 70
    16
 71
     2
 72
     2
 73
     3
 90
        0
 40
-0.6
 41
-30.0
 62
     5
 63
     8
421
  8421504
 74
     1
 91
        4
 64
     7
 65
   257
 75
     1
175
     1
 42
1.0
 92
        8
 66
     8
424
  8421504
 43
1.0
 76
     1
 77
     6
 78
     2
 67
     7
 79
     5
170
     0
171
     0
290
     0
174
     0
 93
        1
 44
0.0
173
     0
291
     1
 45
0.0
  0
VISUALSTYLE
  5
34
102
{ACAD_REACTORS
330
2A
102
}
102
{ACAD_XDICTIONARY
360
16E
102
}
330
2A
100
AcDbVisualStyle
  2
Conceptual
 70
     9
 71
     3
 72
     2
 73
     0
 90
        0
 40
-0.6
 41
-30.0
 62
     5
 63
     7
421
 16777215
 74
     2
 91
        2
 64
     7
 65
   257
 75
     1
175
     1
 42
40.0
 92
        8
 66
     7
 43
1.0
 76
     1
 77
     6
 78
     2
 67
     7
 79
     3
170
     0
171
     0
290
     0
174
     0
 93
        1
 44
0.0
173
     0
291
     0
 45
0.0
  0
VISUALSTYLE
  5
35
102
{ACAD_REACTORS
330
2A
102
}
102
{ACAD_XDICTIONARY
360
170
102
}
330
2A
100
AcDbVisualStyle
  2
Dim
 70
    11
 71
     2
 72
     2
 73
     0
 90
        0
 40
-0.6
 41
-30.0
 62
     5
 63
     7
421
 16777215
 74
     1
 91
        4
 64
     7
 65
   257
 75
     1
175
     1
 42
1.0
 92
        8
 66
     7
 43
1.0
 76
     1
 77
     6
 78
     2
 67
     7
 79
     5
170
     0
171
     0
290
     0
174
     0
 93
        1
 44
-50.0
173
     0
291
     1
 45
0.0
  0
VISUALSTYLE
  5
39
102
{ACAD_REACTORS
330
2A
102
}
102
{ACAD_XDICTIONARY
360
178
102
}
330
2A
100
AcDbVisualStyle
  2
Facepattern
 70
    15
 71
     2
 72
     2
 73
     0
 90
        0
 40
-0.6
 41
-30.0
 62
     5
 63
     7
421
 16777215
 74
     1
 91
        4
 64
     7
 65
   257
 75
     1
175
     1
 42
1.0
 92
        8
 66
     7
 43
1.0
 76
     1
 77
     6
 78
     2
 67
     7
 79
     5
170
     0
171
     0
290
     0
174
     0
 93
        1
 44
0.0
173
     0
291
     1
 45
0.0
  0
VISUALSTYLE
  5
2B
102
{ACAD_REACTORS
330
2A
102
}
102
{ACAD_XDICTIONARY
360
15C
102
}
330
2A
100
AcDbVisualStyle
  2
Flat
 70
     0
 71
     2
 72
     1
 73
     1
 90
        2
 40
-0.6
 41
30.0
 62
     5
 63
     7
421
 16777215
 74
     0
 91
        4
 64
     7
 65
   257
 75
     1
175
     1
 42
1.0
 92
        8
 66
     7
 43
1.0
 76
     1
 77
     6
 78
     2
 67
     7
 79
     5
170
     0
171
     0
290
     0
174
     0
 93
       13
 44
0.0
173
     0
291
     1
 45
0.0
  0
VISUALSTYLE
  5
2C
102
{ACAD_REACTORS
330
2A
102
}
102
{ACAD_XDICTIONARY
360
15E
102
}
330
2A
100
AcDbVisualStyle
  2
FlatWithEdges
 70
     1
 71
     2
 72
     1
 73
     1
 90
        2
 40
-0.6
 41
30.0
 62
     5
 63
     7
421
 16777215
 74
     1
 91
        4
 64
     7
 65
   257
 75
     1
175
     1
 42
1.0
 92
        0
 66
   257
 43
1.0
 76
     1
 77
     6
 78
     2
 67
     7
 79
     5
170
     0
171
     0
290
     0
174
     0
 93
       13
 44
0.0
173
     0
291
     1
 45
0.0
  0
VISUALSTYLE
  5
2D
102
{ACAD_REACTORS
330
2A
102
}
102
{ACAD_XDICTIONARY
360
160
102
}
330
2A
100
AcDbVisualStyle
  2
Gouraud
 70
     2
 71
     2
 72
     2
 73
     1
 90
        2
 40
-0.6
 41
30.0
 62
     5
 63
     7
421
 16777215
 74
     0
 91
        4
 64
     7
 65
   257
 75
     1
175
     1
 42
1.0
 92
        0
 66
     7
 43
1.0
 76
     1
 77
     6
 78
     2
 67
     7
 79
     5
170
     0
171
     0
290
     0
174
     0
 93
       13
 44
0.0
173
     0
291
     1
 45
0.0
  0
VISUALSTYLE
  5
2E
102
{ACAD_REACTORS
330
2A
102
}
102
{ACAD_XDICTIONARY
360
162
102
}
330
2A
100
AcDbVisualStyle
  2
GouraudWithEdges
 70
     3
 71
     2
 72
     2
 73
     1
 90
        2
 40
-0.6
 41
30.0
 62
     5
 63
     7
421
 16777215
 74
     1
 91
        4
 64
     7
 65
   257
 75
     1
175
     1
 42
1.0
 92
        0
 66
   257
 43
1.0
 76
     1
 77
     6
 78
     2
 67
     7
 79
     5
170
     0
171
     0
290
     0
174
     0
 93
       13
 44
0.0
173
     0
291
     1
 45
0.0
  0
VISUALSTYLE
  5
38
102
{ACAD_REACTORS
330
2A
102
}
102
{ACAD_XDICTIONARY
360
176
102
}
330
2A
100
AcDbVisualStyle
  2
Linepattern
 70
    14
 71
     2
 72
     2
 73
     0
 90
        0
 40
-0.6
 41
-30.0
 62
     5
 63
     7
421
 16777215
 74
     1
 91
        4
 64
     7
 65
   257
 75
     7
175
     7
 42
1.0
 92
        8
 66
     7
 43
1.0
 76
     1
 77
     6
 78
     2
 67
     7
 79
     5
170
     0
171
     0
290
     0
174
     0
 93
        1
 44
0.0
173
     0
291
     1
 45
0.0
  0
VISUALSTYLE
  5
33
102
{ACAD_REACTORS
330
2A
102
}
102
{ACAD_XDICTIONARY
360
16C
102
}
330
2A
100
AcDbVisualStyle
  2
Realistic
 70
     8
 71
     2
 72
     2
 73
     0
 90
        0
 40
-0.6
 41
-30.0
 62
     5
 63
     7
421
 16777215
 74
     1
 91
        0
 64
     7
 65
   257
 75
     1
175
     1
 42
1.0
 92
        8
 66
     8
424
  7895160
 43
1.0
 76
     1
 77
     6
 78
     2
 67
     7
 79
     5
170
     0
171
     0
290
     0
174
     0
 93
       13
 44
0.0
173
     0
291
     0
 45
0.0
  0
VISUALSTYLE
  5
37
102
{ACAD_REACTORS
330
2A
102
}
102
{ACAD_XDICTIONARY
360
174
102
}
330
2A
100
AcDbVisualStyle
  2
Thicken
 70
    13
 71
     2
 72
     2
 73
     0
 90
        0
 40
-0.6
 41
-30.0
 62
     5
 63
     7
421
 16777215
 74
     1
 91
        4
 64
     7
 65
   257
 75
     1
175
     1
 42
1.0
 92
       12
 66
     7
 43
1.0
 76
     1
 77
     6
 78
     2
 67
     7
 79
     5
170
     0
171
     0
290
     0
174
     0
 93
        1
 44
0.0
173
     0
291
     1
 45
0.0
  0
DICTIONARY
  5
164
330
2F
100
AcDbDictionary
280
     1
281
     1
  3
ACAD_XREC_ROUNDTRIP
360
165
  0
DICTIONARY
  5
168
330
31
100
AcDbDictionary
280
     1
281
     1
  3
ACAD_XREC_ROUNDTRIP
360
169
  0
DICTIONARY
  5
166
330
30
100
AcDbDictionary
280
     1
281
     1
  3
ACAD_XREC_ROUNDTRIP
360
167
  0
DICTIONARY
  5
16A
330
32
100
AcDbDictionary
280
     1
281
     1
  3
ACAD_XREC_ROUNDTRIP
360
16B
  0
DICTIONARY
  5
172
330
36
100
AcDbDictionary
280
     1
281
     1
  3
ACAD_XREC_ROUNDTRIP
360
173
  0
DICTIONARY
  5
17A
330
3A
100
AcDbDictionary
280
     1
281
     1
  3
ACAD_XREC_ROUNDTRIP
360
17B
  0
DICTIONARY
  5
16E
330
34
100
AcDbDictionary
280
     1
281
     1
  3
ACAD_XREC_ROUNDTRIP
360
16F
  0
DICTIONARY
  5
170
330
35
100
AcDbDictionary
280
     1
281
     1
  3
ACAD_XREC_ROUNDTRIP
360
171
  0
DICTIONARY
  5
178
330
39
100
AcDbDictionary
280
     1
281
     1
  3
ACAD_XREC_ROUNDTRIP
360
179
  0
DICTIONARY
  5
15C
330
2B
100
AcDbDictionary
280
     1
281
     1
  3
ACAD_XREC_ROUNDTRIP
360
15D
  0
DICTIONARY
  5
15E
330
2C
100
AcDbDictionary
280
     1
281
     1
  3
ACAD_XREC_ROUNDTRIP
360
15F
  0
DICTIONARY
  5
160
330
2D
100
AcDbDictionary
280
     1
281
     1
  3
ACAD_XREC_ROUNDTRIP
360
161
  0
DICTIONARY
  5
162
330
2E
100
AcDbDictionary
280
     1
281
     1
  3
ACAD_XREC_ROUNDTRIP
360
163
  0
DICTIONARY
  5
176
330
38
100
AcDbDictionary
280
     1
281
     1
  3
ACAD_XREC_ROUNDTRIP
360
177
  0
DICTIONARY
  5
16C
330
33
100
AcDbDictionary
280
     1
281
     1
  3
ACAD_XREC_ROUNDTRIP
360
16D
  0
DICTIONARY
  5
174
330
37
100
AcDbDictionary
280
     1
281
     1
  3
ACAD_XREC_ROUNDTRIP
360
175
  0
XRECORD
  5
165
102
{ACAD_REACTORS
330
164
102
}
330
164
100
AcDbXrecord
280
     1
102
RTVSPropertyOp0
 70
     1
102
RTVSPropertyOp1
 70
     1
102
RTVSPropertyOp2
 70
     1
102
RTVSPropertyOp3
 70
     1
102
RTVSPropertyOp4
 70
     1
102
RTVSPropertyOp5
 70
     1
102
RTVSPropertyOp6
 70
     1
102
RTVSPropertyOp7
 70
     1
102
RTVSPropertyOp8
 70
     1
102
RTVSPropertyOp9
 70
     1
102
RTVSPropertyOp10
 70
     1
102
RTVSPropertyOp11
 70
     1
102
RTVSPropertyOp12
 70
     1
102
RTVSPropertyOp13
 70
     1
102
RTVSPropertyOp14
 70
     1
102
RTVSPropertyOp15
 70
     1
102
RTVSPropertyOp16
 70
     1
102
RTVSPropertyOp17
 70
     1
102
RTVSPropertyOp18
 70
     1
102
RTVSPropertyOp19
 70
     1
102
RTVSPropertyOp20
 70
     1
102
RTVSPropertyOp21
 70
     1
102
RTVSPropertyOp22
 70
     1
102
RTVSPropertyOp23
 70
     1
102
RTVSPropertyOp24
 70
     1
102
RTVSPropertyOp25
 70
     1
102
RTVSPropertyOp26
 70
     1
102
RTVSPropertyOp27
 70
     1
102
RTVSPropertyOp28
 70
     1
102
RTVSPropertyOp29
 70
     1
102
RTVSPropertyOp30
 70
     1
102
RTVSPropertyOp31
 70
     1
102
RTVSPropertyOp32
 70
     1
  0
XRECORD
  5
169
102
{ACAD_REACTORS
330
168
102
}
330
168
100
AcDbXrecord
280
     1
102
RTVSPropertyOp0
 70
     1
102
RTVSPropertyOp1
 70
     1
102
RTVSPropertyOp2
 70
     1
102
RTVSPropertyOp3
 70
     1
102
RTVSPropertyOp4
 70
     1
102
RTVSPropertyOp5
 70
     1
102
RTVSPropertyOp6
 70
     1
102
RTVSPropertyOp7
 70
     1
102
RTVSPropertyOp8
 70
     1
102
RTVSPropertyOp9
 70
     1
102
RTVSPropertyOp10
 70
     1
102
RTVSPropertyOp11
 70
     1
102
RTVSPropertyOp12
 70
     1
102
RTVSPropertyOp13
 70
     1
102
RTVSPropertyOp14
 70
     1
102
RTVSPropertyOp15
 70
     1
102
RTVSPropertyOp16
 70
     1
102
RTVSPropertyOp17
 70
     1
102
RTVSPropertyOp18
 70
     1
102
RTVSPropertyOp19
 70
     1
102
RTVSPropertyOp20
 70
     1
102
RTVSPropertyOp21
 70
     1
102
RTVSPropertyOp22
 70
     1
102
RTVSPropertyOp23
 70
     1
102
RTVSPropertyOp24
 70
     1
102
RTVSPropertyOp25
 70
     1
102
RTVSPropertyOp26
 70
     1
102
RTVSPropertyOp27
 70
     1
102
RTVSPropertyOp28
 70
     1
102
RTVSPropertyOp29
 70
     1
102
RTVSPropertyOp30
 70
     1
102
RTVSPropertyOp31
 70
     1
102
RTVSPropertyOp32
 70
     1
  0
XRECORD
  5
167
102
{ACAD_REACTORS
330
166
102
}
330
166
100
AcDbXrecord
280
     1
102
RTVSPropertyOp0
 70
     1
102
RTVSPropertyOp1
 70
     1
102
RTVSPropertyOp2
 70
     1
102
RTVSPropertyOp3
 70
     1
102
RTVSPropertyOp4
 70
     1
102
RTVSPropertyOp5
 70
     1
102
RTVSPropertyOp6
 70
     1
102
RTVSPropertyOp7
 70
     1
102
RTVSPropertyOp8
 70
     1
102
RTVSPropertyOp9
 70
     1
102
RTVSPropertyOp10
 70
     1
102
RTVSPropertyOp11
 70
     1
102
RTVSPropertyOp12
 70
     1
102
RTVSPropertyOp13
 70
     1
102
RTVSPropertyOp14
 70
     1
102
RTVSPropertyOp15
 70
     1
102
RTVSPropertyOp16
 70
     1
102
RTVSPropertyOp17
 70
     1
102
RTVSPropertyOp18
 70
     1
102
RTVSPropertyOp19
 70
     1
102
RTVSPropertyOp20
 70
     1
102
RTVSPropertyOp21
 70
     1
102
RTVSPropertyOp22
 70
     1
102
RTVSPropertyOp23
 70
     1
102
RTVSPropertyOp24
 70
     1
102
RTVSPropertyOp25
 70
     1
102
RTVSPropertyOp26
 70
     1
102
RTVSPropertyOp27
 70
     1
102
RTVSPropertyOp28
 70
     1
102
RTVSPropertyOp29
 70
     1
102
RTVSPropertyOp30
 70
     1
102
RTVSPropertyOp31
 70
     1
102
RTVSPropertyOp32
 70
     1
  0
XRECORD
  5
16B
102
{ACAD_REACTORS
330
16A
102
}
330
16A
100
AcDbXrecord
280
     1
102
RTVSPropertyOp0
 70
     1
102
RTVSPropertyOp1
 70
     1
102
RTVSPropertyOp2
 70
     1
102
RTVSPropertyOp3
 70
     1
102
RTVSPropertyOp4
 70
     1
102
RTVSPropertyOp5
 70
     1
102
RTVSPropertyOp6
 70
     1
102
RTVSPropertyOp7
 70
     1
102
RTVSPropertyOp8
 70
     1
102
RTVSPropertyOp9
 70
     1
102
RTVSPropertyOp10
 70
     1
102
RTVSPropertyOp11
 70
     1
102
RTVSPropertyOp12
 70
     1
102
RTVSPropertyOp13
 70
     1
102
RTVSPropertyOp14
 70
     1
102
RTVSPropertyOp15
 70
     1
102
RTVSPropertyOp16
 70
     1
102
RTVSPropertyOp17
 70
     1
102
RTVSPropertyOp18
 70
     1
102
RTVSPropertyOp19
 70
     1
102
RTVSPropertyOp20
 70
     1
102
RTVSPropertyOp21
 70
     1
102
RTVSPropertyOp22
 70
     1
102
RTVSPropertyOp23
 70
     1
102
RTVSPropertyOp24
 70
     1
102
RTVSPropertyOp25
 70
     1
102
RTVSPropertyOp26
 70
     1
102
RTVSPropertyOp27
 70
     1
102
RTVSPropertyOp28
 70
     1
102
RTVSPropertyOp29
 70
     1
102
RTVSPropertyOp30
 70
     1
102
RTVSPropertyOp31
 70
     1
102
RTVSPropertyOp32
 70
     1
  0
XRECORD
  5
173
102
{ACAD_REACTORS
330
172
102
}
330
172
100
AcDbXrecord
280
     1
102
RTVSPropertyOp0
 70
     1
102
RTVSPropertyOp1
 70
     1
102
RTVSPropertyOp2
 70
     1
102
RTVSPropertyOp3
 70
     1
102
RTVSPropertyOp4
 70
     1
102
RTVSPropertyOp5
 70
     1
102
RTVSPropertyOp6
 70
     1
102
RTVSPropertyOp7
 70
     1
102
RTVSPropertyOp8
 70
     1
102
RTVSPropertyOp9
 70
     1
102
RTVSPropertyOp10
 70
     1
102
RTVSPropertyOp11
 70
     1
102
RTVSPropertyOp12
 70
     1
102
RTVSPropertyOp13
 70
     1
102
RTVSPropertyOp14
 70
     1
102
RTVSPropertyOp15
 70
     1
102
RTVSPropertyOp16
 70
     1
102
RTVSPropertyOp17
 70
     1
102
RTVSPropertyOp18
 70
     1
102
RTVSPropertyOp19
 70
     1
102
RTVSPropertyOp20
 70
     1
102
RTVSPropertyOp21
 70
     1
102
RTVSPropertyOp22
 70
     1
102
RTVSPropertyOp23
 70
     1
102
RTVSPropertyOp24
 70
     1
102
RTVSPropertyOp25
 70
     1
102
RTVSPropertyOp26
 70
     1
102
RTVSPropertyOp27
 70
     1
102
RTVSPropertyOp28
 70
     1
102
RTVSPropertyOp29
 70
     1
102
RTVSPropertyOp30
 70
     1
102
RTVSPropertyOp31
 70
     1
102
RTVSPropertyOp32
 70
     1
  0
XRECORD
  5
17B
102
{ACAD_REACTORS
330
17A
102
}
330
17A
100
AcDbXrecord
280
     1
102
RTVSPropertyOp0
 70
     1
102
RTVSPropertyOp1
 70
     1
102
RTVSPropertyOp2
 70
     1
102
RTVSPropertyOp3
 70
     1
102
RTVSPropertyOp4
 70
     1
102
RTVSPropertyOp5
 70
     1
102
RTVSPropertyOp6
 70
     1
102
RTVSPropertyOp7
 70
     1
102
RTVSPropertyOp8
 70
     1
102
RTVSPropertyOp9
 70
     1
102
RTVSPropertyOp10
 70
     1
102
RTVSPropertyOp11
 70
     1
102
RTVSPropertyOp12
 70
     1
102
RTVSPropertyOp13
 70
     1
102
RTVSPropertyOp14
 70
     1
102
RTVSPropertyOp15
 70
     1
102
RTVSPropertyOp16
 70
     1
102
RTVSPropertyOp17
 70
     1
102
RTVSPropertyOp18
 70
     1
102
RTVSPropertyOp19
 70
     1
102
RTVSPropertyOp20
 70
     1
102
RTVSPropertyOp21
 70
     1
102
RTVSPropertyOp22
 70
     1
102
RTVSPropertyOp23
 70
     1
102
RTVSPropertyOp24
 70
     1
102
RTVSPropertyOp25
 70
     1
102
RTVSPropertyOp26
 70
     1
102
RTVSPropertyOp27
 70
     1
102
RTVSPropertyOp28
 70
     1
102
RTVSPropertyOp29
 70
     1
102
RTVSPropertyOp30
 70
     1
102
RTVSPropertyOp31
 70
     1
102
RTVSPropertyOp32
 70
     1
  0
XRECORD
  5
16F
102
{ACAD_REACTORS
330
16E
102
}
330
16E
100
AcDbXrecord
280
     1
102
RTVSPropertyOp0
 70
     1
102
RTVSPropertyOp1
 70
     1
102
RTVSPropertyOp2
 70
     1
102
RTVSPropertyOp3
 70
     1
102
RTVSPropertyOp4
 70
     1
102
RTVSPropertyOp5
 70
     1
102
RTVSPropertyOp6
 70
     1
102
RTVSPropertyOp7
 70
     1
102
RTVSPropertyOp8
 70
     1
102
RTVSPropertyOp9
 70
     1
102
RTVSPropertyOp10
 70
     1
102
RTVSPropertyOp11
 70
     1
102
RTVSPropertyOp12
 70
     1
102
RTVSPropertyOp13
 70
     1
102
RTVSPropertyOp14
 70
     1
102
RTVSPropertyOp15
 70
     1
102
RTVSPropertyOp16
 70
     1
102
RTVSPropertyOp17
 70
     1
102
RTVSPropertyOp18
 70
     1
102
RTVSPropertyOp19
 70
     1
102
RTVSPropertyOp20
 70
     1
102
RTVSPropertyOp21
 70
     1
102
RTVSPropertyOp22
 70
     1
102
RTVSPropertyOp23
 70
     1
102
RTVSPropertyOp24
 70
     1
102
RTVSPropertyOp25
 70
     1
102
RTVSPropertyOp26
 70
     1
102
RTVSPropertyOp27
 70
     1
102
RTVSPropertyOp28
 70
     1
102
RTVSPropertyOp29
 70
     1
102
RTVSPropertyOp30
 70
     1
102
RTVSPropertyOp31
 70
     1
102
RTVSPropertyOp32
 70
     1
  0
XRECORD
  5
171
102
{ACAD_REACTORS
330
170
102
}
330
170
100
AcDbXrecord
280
     1
102
RTVSPropertyOp0
 70
     1
102
RTVSPropertyOp1
 70
     1
102
RTVSPropertyOp2
 70
     1
102
RTVSPropertyOp3
 70
     1
102
RTVSPropertyOp4
 70
     1
102
RTVSPropertyOp5
 70
     1
102
RTVSPropertyOp6
 70
     1
102
RTVSPropertyOp7
 70
     1
102
RTVSPropertyOp8
 70
     1
102
RTVSPropertyOp9
 70
     1
102
RTVSPropertyOp10
 70
     1
102
RTVSPropertyOp11
 70
     1
102
RTVSPropertyOp12
 70
     1
102
RTVSPropertyOp13
 70
     1
102
RTVSPropertyOp14
 70
     1
102
RTVSPropertyOp15
 70
     1
102
RTVSPropertyOp16
 70
     1
102
RTVSPropertyOp17
 70
     1
102
RTVSPropertyOp18
 70
     1
102
RTVSPropertyOp19
 70
     1
102
RTVSPropertyOp20
 70
     1
102
RTVSPropertyOp21
 70
     1
102
RTVSPropertyOp22
 70
     1
102
RTVSPropertyOp23
 70
     1
102
RTVSPropertyOp24
 70
     1
102
RTVSPropertyOp25
 70
     1
102
RTVSPropertyOp26
 70
     1
102
RTVSPropertyOp27
 70
     1
102
RTVSPropertyOp28
 70
     1
102
RTVSPropertyOp29
 70
     1
102
RTVSPropertyOp30
 70
     1
102
RTVSPropertyOp31
 70
     1
102
RTVSPropertyOp32
 70
     1
  0
XRECORD
  5
179
102
{ACAD_REACTORS
330
178
102
}
330
178
100
AcDbXrecord
280
     1
102
RTVSPropertyOp0
 70
     1
102
RTVSPropertyOp1
 70
     1
102
RTVSPropertyOp2
 70
     1
102
RTVSPropertyOp3
 70
     1
102
RTVSPropertyOp4
 70
     1
102
RTVSPropertyOp5
 70
     1
102
RTVSPropertyOp6
 70
     1
102
RTVSPropertyOp7
 70
     1
102
RTVSPropertyOp8
 70
     1
102
RTVSPropertyOp9
 70
     1
102
RTVSPropertyOp10
 70
     1
102
RTVSPropertyOp11
 70
     1
102
RTVSPropertyOp12
 70
     1
102
RTVSPropertyOp13
 70
     1
102
RTVSPropertyOp14
 70
     1
102
RTVSPropertyOp15
 70
     1
102
RTVSPropertyOp16
 70
     1
102
RTVSPropertyOp17
 70
     1
102
RTVSPropertyOp18
 70
     1
102
RTVSPropertyOp19
 70
     1
102
RTVSPropertyOp20
 70
     1
102
RTVSPropertyOp21
 70
     1
102
RTVSPropertyOp22
 70
     1
102
RTVSPropertyOp23
 70
     1
102
RTVSPropertyOp24
 70
     1
102
RTVSPropertyOp25
 70
     1
102
RTVSPropertyOp26
 70
     1
102
RTVSPropertyOp27
 70
     1
102
RTVSPropertyOp28
 70
     1
102
RTVSPropertyOp29
 70
     1
102
RTVSPropertyOp30
 70
     1
102
RTVSPropertyOp31
 70
     1
102
RTVSPropertyOp32
 70
     1
  0
XRECORD
  5
15D
102
{ACAD_REACTORS
330
15C
102
}
330
15C
100
AcDbXrecord
280
     1
102
RTVSPropertyOp0
 70
     1
102
RTVSPropertyOp1
 70
     1
102
RTVSPropertyOp2
 70
     1
102
RTVSPropertyOp3
 70
     1
102
RTVSPropertyOp4
 70
     1
102
RTVSPropertyOp5
 70
     1
102
RTVSPropertyOp6
 70
     1
102
RTVSPropertyOp7
 70
     1
102
RTVSPropertyOp8
 70
     1
102
RTVSPropertyOp9
 70
     1
102
RTVSPropertyOp10
 70
     1
102
RTVSPropertyOp11
 70
     1
102
RTVSPropertyOp12
 70
     1
102
RTVSPropertyOp13
 70
     1
102
RTVSPropertyOp14
 70
     1
102
RTVSPropertyOp15
 70
     1
102
RTVSPropertyOp16
 70
     1
102
RTVSPropertyOp17
 70
     1
102
RTVSPropertyOp18
 70
     1
102
RTVSPropertyOp19
 70
     1
102
RTVSPropertyOp20
 70
     1
102
RTVSPropertyOp21
 70
     1
102
RTVSPropertyOp22
 70
     1
102
RTVSPropertyOp23
 70
     1
102
RTVSPropertyOp24
 70
     1
102
RTVSPropertyOp25
 70
     1
102
RTVSPropertyOp26
 70
     1
102
RTVSPropertyOp27
 70
     1
102
RTVSPropertyOp28
 70
     1
102
RTVSPropertyOp29
 70
     1
102
RTVSPropertyOp30
 70
     1
102
RTVSPropertyOp31
 70
     1
102
RTVSPropertyOp32
 70
     1
  0
XRECORD
  5
15F
102
{ACAD_REACTORS
330
15E
102
}
330
15E
100
AcDbXrecord
280
     1
102
RTVSPropertyOp0
 70
     1
102
RTVSPropertyOp1
 70
     1
102
RTVSPropertyOp2
 70
     1
102
RTVSPropertyOp3
 70
     1
102
RTVSPropertyOp4
 70
     1
102
RTVSPropertyOp5
 70
     1
102
RTVSPropertyOp6
 70
     1
102
RTVSPropertyOp7
 70
     1
102
RTVSPropertyOp8
 70
     1
102
RTVSPropertyOp9
 70
     1
102
RTVSPropertyOp10
 70
     1
102
RTVSPropertyOp11
 70
     1
102
RTVSPropertyOp12
 70
     1
102
RTVSPropertyOp13
 70
     1
102
RTVSPropertyOp14
 70
     1
102
RTVSPropertyOp15
 70
     1
102
RTVSPropertyOp16
 70
     1
102
RTVSPropertyOp17
 70
     1
102
RTVSPropertyOp18
 70
     1
102
RTVSPropertyOp19
 70
     1
102
RTVSPropertyOp20
 70
     1
102
RTVSPropertyOp21
 70
     1
102
RTVSPropertyOp22
 70
     1
102
RTVSPropertyOp23
 70
     1
102
RTVSPropertyOp24
 70
     1
102
RTVSPropertyOp25
 70
     1
102
RTVSPropertyOp26
 70
     1
102
RTVSPropertyOp27
 70
     1
102
RTVSPropertyOp28
 70
     1
102
RTVSPropertyOp29
 70
     1
102
RTVSPropertyOp30
 70
     1
102
RTVSPropertyOp31
 70
     1
102
RTVSPropertyOp32
 70
     1
  0
XRECORD
  5
161
102
{ACAD_REACTORS
330
160
102
}
330
160
100
AcDbXrecord
280
     1
102
RTVSPropertyOp0
 70
     1
102
RTVSPropertyOp1
 70
     1
102
RTVSPropertyOp2
 70
     1
102
RTVSPropertyOp3
 70
     1
102
RTVSPropertyOp4
 70
     1
102
RTVSPropertyOp5
 70
     1
102
RTVSPropertyOp6
 70
     1
102
RTVSPropertyOp7
 70
     1
102
RTVSPropertyOp8
 70
     1
102
RTVSPropertyOp9
 70
     1
102
RTVSPropertyOp10
 70
     1
102
RTVSPropertyOp11
 70
     1
102
RTVSPropertyOp12
 70
     1
102
RTVSPropertyOp13
 70
     1
102
RTVSPropertyOp14
 70
     1
102
RTVSPropertyOp15
 70
     1
102
RTVSPropertyOp16
 70
     1
102
RTVSPropertyOp17
 70
     1
102
RTVSPropertyOp18
 70
     1
102
RTVSPropertyOp19
 70
     1
102
RTVSPropertyOp20
 70
     1
102
RTVSPropertyOp21
 70
     1
102
RTVSPropertyOp22
 70
     1
102
RTVSPropertyOp23
 70
     1
102
RTVSPropertyOp24
 70
     1
102
RTVSPropertyOp25
 70
     1
102
RTVSPropertyOp26
 70
     1
102
RTVSPropertyOp27
 70
     1
102
RTVSPropertyOp28
 70
     1
102
RTVSPropertyOp29
 70
     1
102
RTVSPropertyOp30
 70
     1
102
RTVSPropertyOp31
 70
     1
102
RTVSPropertyOp32
 70
     1
  0
XRECORD
  5
163
102
{ACAD_REACTORS
330
162
102
}
330
162
100
AcDbXrecord
280
     1
102
RTVSPropertyOp0
 70
     1
102
RTVSPropertyOp1
 70
     1
102
RTVSPropertyOp2
 70
     1
102
RTVSPropertyOp3
 70
     1
102
RTVSPropertyOp4
 70
     1
102
RTVSPropertyOp5
 70
     1
102
RTVSPropertyOp6
 70
     1
102
RTVSPropertyOp7
 70
     1
102
RTVSPropertyOp8
 70
     1
102
RTVSPropertyOp9
 70
     1
102
RTVSPropertyOp10
 70
     1
102
RTVSPropertyOp11
 70
     1
102
RTVSPropertyOp12
 70
     1
102
RTVSPropertyOp13
 70
     1
102
RTVSPropertyOp14
 70
     1
102
RTVSPropertyOp15
 70
     1
102
RTVSPropertyOp16
 70
     1
102
RTVSPropertyOp17
 70
     1
102
RTVSPropertyOp18
 70
     1
102
RTVSPropertyOp19
 70
     1
102
RTVSPropertyOp20
 70
     1
102
RTVSPropertyOp21
 70
     1
102
RTVSPropertyOp22
 70
     1
102
RTVSPropertyOp23
 70
     1
102
RTVSPropertyOp24
 70
     1
102
RTVSPropertyOp25
 70
     1
102
RTVSPropertyOp26
 70
     1
102
RTVSPropertyOp27
 70
     1
102
RTVSPropertyOp28
 70
     1
102
RTVSPropertyOp29
 70
     1
102
RTVSPropertyOp30
 70
     1
102
RTVSPropertyOp31
 70
     1
102
RTVSPropertyOp32
 70
     1
  0
XRECORD
  5
177
102
{ACAD_REACTORS
330
176
102
}
330
176
100
AcDbXrecord
280
     1
102
RTVSPropertyOp0
 70
     1
102
RTVSPropertyOp1
 70
     1
102
RTVSPropertyOp2
 70
     1
102
RTVSPropertyOp3
 70
     1
102
RTVSPropertyOp4
 70
     1
102
RTVSPropertyOp5
 70
     1
102
RTVSPropertyOp6
 70
     1
102
RTVSPropertyOp7
 70
     1
102
RTVSPropertyOp8
 70
     1
102
RTVSPropertyOp9
 70
     1
102
RTVSPropertyOp10
 70
     1
102
RTVSPropertyOp11
 70
     1
102
RTVSPropertyOp12
 70
     1
102
RTVSPropertyOp13
 70
     1
102
RTVSPropertyOp14
 70
     1
102
RTVSPropertyOp15
 70
     1
102
RTVSPropertyOp16
 70
     1
102
RTVSPropertyOp17
 70
     1
102
RTVSPropertyOp18
 70
     1
102
RTVSPropertyOp19
 70
     1
102
RTVSPropertyOp20
 70
     1
102
RTVSPropertyOp21
 70
     1
102
RTVSPropertyOp22
 70
     1
102
RTVSPropertyOp23
 70
     1
102
RTVSPropertyOp24
 70
     1
102
RTVSPropertyOp25
 70
     1
102
RTVSPropertyOp26
 70
     1
102
RTVSPropertyOp27
 70
     1
102
RTVSPropertyOp28
 70
     1
102
RTVSPropertyOp29
 70
     1
102
RTVSPropertyOp30
 70
     1
102
RTVSPropertyOp31
 70
     1
102
RTVSPropertyOp32
 70
     1
  0
XRECORD
  5
16D
102
{ACAD_REACTORS
330
16C
102
}
330
16C
100
AcDbXrecord
280
     1
102
RTVSPropertyOp0
 70
     1
102
RTVSPropertyOp1
 70
     1
102
RTVSPropertyOp2
 70
     1
102
RTVSPropertyOp3
 70
     1
102
RTVSPropertyOp4
 70
     1
102
RTVSPropertyOp5
 70
     1
102
RTVSPropertyOp6
 70
     1
102
RTVSPropertyOp7
 70
     1
102
RTVSPropertyOp8
 70
     1
102
RTVSPropertyOp9
 70
     1
102
RTVSPropertyOp10
 70
     1
102
RTVSPropertyOp11
 70
     1
102
RTVSPropertyOp12
 70
     1
102
RTVSPropertyOp13
 70
     1
102
RTVSPropertyOp14
 70
     1
102
RTVSPropertyOp15
 70
     1
102
RTVSPropertyOp16
 70
     1
102
RTVSPropertyOp17
 70
     1
102
RTVSPropertyOp18
 70
     1
102
RTVSPropertyOp19
 70
     1
102
RTVSPropertyOp20
 70
     1
102
RTVSPropertyOp21
 70
     1
102
RTVSPropertyOp22
 70
     1
102
RTVSPropertyOp23
 70
     1
102
RTVSPropertyOp24
 70
     1
102
RTVSPropertyOp25
 70
     1
102
RTVSPropertyOp26
 70
     1
102
RTVSPropertyOp27
 70
     1
102
RTVSPropertyOp28
 70
     1
102
RTVSPropertyOp29
 70
     1
102
RTVSPropertyOp30
 70
     1
102
RTVSPropertyOp31
 70
     1
102
RTVSPropertyOp32
 70
     1
  0
XRECORD
  5
175
102
{ACAD_REACTORS
330
174
102
}
330
174
100
AcDbXrecord
280
     1
102
RTVSPropertyOp0
 70
     1
102
RTVSPropertyOp1
 70
     1
102
RTVSPropertyOp2
 70
     1
102
RTVSPropertyOp3
 70
     1
102
RTVSPropertyOp4
 70
     1
102
RTVSPropertyOp5
 70
     1
102
RTVSPropertyOp6
 70
     1
102
RTVSPropertyOp7
 70
     1
102
RTVSPropertyOp8
 70
     1
102
RTVSPropertyOp9
 70
     1
102
RTVSPropertyOp10
 70
     1
102
RTVSPropertyOp11
 70
     1
102
RTVSPropertyOp12
 70
     1
102
RTVSPropertyOp13
 70
     1
102
RTVSPropertyOp14
 70
     1
102
RTVSPropertyOp15
 70
     1
102
RTVSPropertyOp16
 70
     1
102
RTVSPropertyOp17
 70
     1
102
RTVSPropertyOp18
 70
     1
102
RTVSPropertyOp19
 70
     1
102
RTVSPropertyOp20
 70
     1
102
RTVSPropertyOp21
 70
     1
102
RTVSPropertyOp22
 70
     1
102
RTVSPropertyOp23
 70
     1
102
RTVSPropertyOp24
 70
     1
102
RTVSPropertyOp25
 70
     1
102
RTVSPropertyOp26
 70
     1
102
RTVSPropertyOp27
 70
     1
102
RTVSPropertyOp28
 70
     1
102
RTVSPropertyOp29
 70
     1
102
RTVSPropertyOp30
 70
     1
102
RTVSPropertyOp31
 70
     1
102
RTVSPropertyOp32
 70
     1
  0
ENDSEC
  0
EOF
