  0
SECTION
  2
HEADER
  9
$ACADVER
  1
AC1021
  9
$ACADMAINTVER
 70
    25
  9
$DWGCODEPAGE
  3
ANSI_1252
  9
$INSBASE
 10
0.0
 20
0.0
 30
0.0
  9
$EXTMIN
 10
71.4296
 20
-114.6908
 30
0.0
  9
$EXTMAX
 10
195.4337
 20
131.7713
 30
0.0
  9
$LIMMIN
 10
0.0
 20
0.0
  9
$LIMMAX
 10
12.0
 20
9.0
  9
$ORTHOMODE
 70
     0
  9
$REGENMODE
 70
     1
  9
$FILLMODE
 70
     1
  9
$QTEXTMODE
 70
     0
  9
$MIRRTEXT
 70
     1
  9
$LTSCALE
 40
1.0
  9
$ATTMODE
 70
     1
  9
$TEXTSIZE
 40
0.2
  9
$TRACEWID
 40
0.05
  9
$TEXTSTYLE
  7
Standard
  9
$CLAYER
  8
0
  9
$CELTYPE
  6
ByLayer
  9
$CECOLOR
 62
   256
  9
$CELTSCALE
 40
1.0
  9
$DISPSILH
 70
     0
  9
$DIMSCALE
 40
1.0
  9
$DIMASZ
 40
0.18
  9
$DIMEXO
 40
0.0625
  9
$DIMDLI
 40
0.38
  9
$DIMRND
 40
0.0
  9
$DIMDLE
 40
0.0
  9
$DIMEXE
 40
0.18
  9
$DIMTP
 40
0.0
  9
$DIMTM
 40
0.0
  9
$DIMTXT
 40
0.18
  9
$DIMCEN
 40
0.09
  9
$DIMTSZ
 40
0.0
  9
$DIMTOL
 70
     0
  9
$DIMLIM
 70
     0
  9
$DIMTIH
 70
     1
  9
$DIMTOH
 70
     1
  9
$DIMSE1
 70
     0
  9
$DIMSE2
 70
     0
  9
$DIMTAD
 70
     0
  9
$DIMZIN
 70
     0
  9
$DIMBLK
  1

  9
$DIMASO
 70
     1
  9
$DIMSHO
 70
     1
  9
$DIMPOST
  1

  9
$DIMAPOST
  1

  9
$DIMALT
 70
     0
  9
$DIMALTD
 70
     2
  9
$DIMALTF
 40
25.4
  9
$DIMLFAC
 40
1.0
  9
$DIMTOFL
 70
     0
  9
$DIMTVP
 40
0.0
  9
$DIMTIX
 70
     0
  9
$DIMSOXD
 70
     0
  9
$DIMSAH
 70
     0
  9
$DIMBLK1
  1

  9
$DIMBLK2
  1

  9
$DIMSTYLE
  2
Standard
  9
$DIMCLRD
 70
     0
  9
$DIMCLRE
 70
     0
  9
$DIMCLRT
 70
     0
  9
$DIMTFAC
 40
1.0
  9
$DIMGAP
 40
0.09
  9
$DIMJUST
 70
     0
  9
$DIMSD1
 70
     0
  9
$DIMSD2
 70
     0
  9
$DIMTOLJ
 70
     1
  9
$DIMTZIN
 70
     0
  9
$DIMALTZ
 70
     0
  9
$DIMALTTZ
 70
     0
  9
$DIMUPT
 70
     0
  9
$DIMDEC
 70
     4
  9
$DIMTDEC
 70
     4
  9
$DIMALTU
 70
     2
  9
$DIMALTTD
 70
     2
  9
$DIMTXSTY
  7
Standard
  9
$DIMAUNIT
 70
     0
  9
$DIMADEC
 70
     0
  9
$DIMALTRND
 40
0.0
  9
$DIMAZIN
 70
     0
  9
$DIMDSEP
 70
    46
  9
$DIMATFIT
 70
     3
  9
$DIMFRAC
 70
     0
  9
$DIMLDRBLK
  1

  9
$DIMLUNIT
 70
     2
  9
$DIMLWD
 70
    -2
  9
$DIMLWE
 70
    -2
  9
$DIMTMOVE
 70
     0
  9
$DIMFXL
 40
1.0
  9
$DIMFXLON
 70
     0
  9
$DIMJOGANG
 40
0.7853981633974483
  9
$DIMTFILL
 70
     0
  9
$DIMTFILLCLR
 70
     0
  9
$DIMARCSYM
 70
     0
  9
$DIMLTYPE
  6

  9
$DIMLTEX1
  6

  9
$DIMLTEX2
  6

  9
$LUNITS
 70
     2
  9
$LUPREC
 70
     4
  9
$SKETCHINC
 40
0.1
  9
$FILLETRAD
 40
0.5
  9
$AUNITS
 70
     0
  9
$AUPREC
 70
     0
  9
$MENU
  1
.
  9
$ELEVATION
 40
0.0
  9
$PELEVATION
 40
0.0
  9
$THICKNESS
 40
0.0
  9
$LIMCHECK
 70
     0
  9
$CHAMFERA
 40
0.5
  9
$CHAMFERB
 40
0.5
  9
$CHAMFERC
 40
1.0
  9
$CHAMFERD
 40
0.0
  9
$SKPOLY
 70
     0
  9
$TDCREATE
 40
2458493.717715347
  9
$TDUCREATE
 40
2458493.717715347
  9
$TDUPDATE
 40
2458493.71771544
  9
$TDUUPDATE
 40
2458493.71771544
  9
$TDINDWG
 40
0.0000000116
  9
$TDUSRTIMER
 40
0.0000000116
  9
$USRTIMER
 70
     1
  9
$ANGBASE
 50
0.0
  9
$ANGDIR
 70
     0
  9
$PDMODE
 70
     0
  9
$PDSIZE
 40
0.0
  9
$PLINEWID
 40
0.0
  9
$SPLFRAME
 70
     0
  9
$SPLINETYPE
 70
     6
  9
$SPLINESEGS
 70
     8
  9
$HANDSEED
  5
C0
  9
$SURFTAB1
 70
     6
  9
$SURFTAB2
 70
     6
  9
$SURFTYPE
 70
     6
  9
$SURFU
 70
     6
  9
$SURFV
 70
     6
  9
$UCSBASE
  2

  9
$UCSNAME
  2

  9
$UCSORG
 10
0.0
 20
0.0
 30
0.0
  9
$UCSXDIR
 10
1.0
 20
0.0
 30
0.0
  9
$UCSYDIR
 10
0.0
 20
1.0
 30
0.0
  9
$UCSORTHOREF
  2

  9
$UCSORTHOVIEW
 70
     0
  9
$UCSORGTOP
 10
0.0
 20
0.0
 30
0.0
  9
$UCSORGBOTTOM
 10
0.0
 20
0.0
 30
0.0
  9
$UCSORGLEFT
 10
0.0
 20
0.0
 30
0.0
  9
$UCSORGRIGHT
 10
0.0
 20
0.0
 30
0.0
  9
$UCSORGFRONT
 10
0.0
 20
0.0
 30
0.0
  9
$UCSORGBACK
 10
0.0
 20
0.0
 30
0.0
  9
$PUCSBASE
  2

  9
$PUCSNAME
  2

  9
$PUCSORG
 10
0.0
 20
0.0
 30
0.0
  9
$PUCSXDIR
 10
1.0
 20
0.0
 30
0.0
  9
$PUCSYDIR
 10
0.0
 20
1.0
 30
0.0
  9
$PUCSORTHOREF
  2

  9
$PUCSORTHOVIEW
 70
     0
  9
$PUCSORGTOP
 10
0.0
 20
0.0
 30
0.0
  9
$PUCSORGBOTTOM
 10
0.0
 20
0.0
 30
0.0
  9
$PUCSORGLEFT
 10
0.0
 20
0.0
 30
0.0
  9
$PUCSORGRIGHT
 10
0.0
 20
0.0
 30
0.0
  9
$PUCSORGFRONT
 10
0.0
 20
0.0
 30
0.0
  9
$PUCSORGBACK
 10
0.0
 20
0.0
 30
0.0
  9
$USERI1
 70
     0
  9
$USERI2
 70
     0
  9
$USERI3
 70
     0
  9
$USERI4
 70
     0
  9
$USERI5
 70
     0
  9
$USERR1
 40
0.0
  9
$USERR2
 40
0.0
  9
$USERR3
 40
0.0
  9
$USERR4
 40
0.0
  9
$USERR5
 40
0.0
  9
$WORLDVIEW
 70
     1
  9
$SHADEDGE
 70
     3
  9
$SHADEDIF
 70
    70
  9
$TILEMODE
 70
     1
  9
$MAXACTVP
 70
    64
  9
$PINSBASE
 10
0.0
 20
0.0
 30
0.0
  9
$PLIMCHECK
 70
     0
  9
$PEXTMIN
 10
1.000000000000000E+20
 20
1.000000000000000E+20
 30
1.000000000000000E+20
  9
$PEXTMAX
 10
-1.000000000000000E+20
 20
-1.000000000000000E+20
 30
-1.000000000000000E+20
  9
$PLIMMIN
 10
0.0
 20
0.0
  9
$PLIMMAX
 10
12.0
 20
9.0
  9
$UNITMODE
 70
     0
  9
$VISRETAIN
 70
     1
  9
$PLINEGEN
 70
     0
  9
$PSLTSCALE
 70
     1
  9
$TREEDEPTH
 70
  3020
  9
$CMLSTYLE
  2
Standard
  9
$CMLJUST
 70
     0
  9
$CMLSCALE
 40
1.0
  9
$PROXYGRAPHICS
 70
     1
  9
$MEASUREMENT
 70
     0
  9
$CELWEIGHT
370
    -1
  9
$ENDCAPS
280
     0
  9
$JOINSTYLE
280
     0
  9
$LWDISPLAY
290
     0
  9
$INSUNITS
 70
     4
  9
$HYPERLINKBASE
  1

  9
$STYLESHEET
  1

  9
$XEDIT
290
     1
  9
$CEPSNTYPE
380
     0
  9
$PSTYLEMODE
290
     1
  9
$FINGERPRINTGUID
  2
{344DAF39-7FC2-4C09-86EF-DC977BC0B754}
  9
$VERSIONGUID
  2
{FAEB1C32-E019-11D5-929B-00C0DF256EC4}
  9
$EXTNAMES
290
     1
  9
$PSVPSCALE
 40
0.0
  9
$OLESTARTUP
290
     0
  9
$SORTENTS
280
   127
  9
$INDEXCTL
280
     0
  9
$HIDETEXT
280
     1
  9
$XCLIPFRAME
290
     0
  9
$HALOGAP
280
     0
  9
$OBSCOLOR
 70
   257
  9
$OBSLTYPE
280
     0
  9
$INTERSECTIONDISPLAY
280
     0
  9
$INTERSECTIONCOLOR
 70
   257
  9
$DIMASSOC
280
     2
  9
$PROJECTNAME
  1

  9
$CAMERADISPLAY
290
     0
  9
$LENSLENGTH
 40
50.0
  9
$CAMERAHEIGHT
 40
0.0
  9
$STEPSPERSEC
 40
2.0
  9
$STEPSIZE
 40
6.0
  9
$3DDWFPREC
 40
2.0
  9
$PSOLWIDTH
 40
0.25
  9
$PSOLHEIGHT
 40
4.0
  9
$LOFTANG1
 40
1.570796326794897
  9
$LOFTANG2
 40
1.570796326794897
  9
$LOFTMAG1
 40
0.0
  9
$LOFTMAG2
 40
0.0
  9
$LOFTPARAM
 70
     7
  9
$LOFTNORMALS
280
     1
  9
$LATITUDE
 40
37.795
  9
$LONGITUDE
 40
-122.394
  9
$NORTHDIRECTION
 40
0.0
  9
$TIMEZONE
 70
 -8000
  9
$LIGHTGLYPHDISPLAY
280
     1
  9
$TILEMODELIGHTSYNCH
280
     1
  9
$SOLIDHIST
280
     1
  9
$SHOWHIST
280
     1
  9
$DWFFRAME
280
     2
  9
$DGNFRAME
280
     2
  9
$REALWORLDSCALE
290
     1
  9
$INTERFERECOLOR
 62
   256
  9
$CSHADOW
280
     0
  9
$SHADOWPLANELOCATION
 40
0.0
  0
ENDSEC
  0
SECTION
  2
CLASSES
  0
CLASS
  1
ACDBDICTIONARYWDFLT
  2
AcDbDictionaryWithDefault
  3
ObjectDBX Classes
 90
        0
 91
        4
280
     0
281
     0
  0
CLASS
  1
VISUALSTYLE
  2
AcDbVisualStyle
  3
ObjectDBX Classes
 90
     4095
 91
        4
280
     0
281
     0
  0
CLASS
  1
MATERIAL
  2
AcDbMaterial
  3
ObjectDBX Classes
 90
     1153
 91
        4
280
     0
281
     0
  0
ENDSEC
  0
SECTION
  2
TABLES
  0
TABLE
  2
VPORT
  5
8
330
0
100
AcDbSymbolTable
 70
     1
  0
VPORT
  5
29
330
8
100
AcDbSymbolTableRecord
100
AcDbViewportTableRecord
  2
*Active
 70
     0
 10
0.0
 20
0.0
 11
1.0
 21
1.0
 12
10.42990654205607
 22
4.5
 13
0.0
 23
0.0
 14
0.5
 24
0.5
 15
0.5
 25
0.5
 16
0.0
 26
0.0
 36
1.0
 17
0.0
 27
0.0
 37
0.0
 40
9.0
 41
1.972972972850329
 42
50.0
 43
0.0
 44
0.0
 50
0.0
 51
0.0
 71
     0
 72
   100
 73
     1
 74
     3
 75
     0
 76
     0
 77
     0
 78
     0
281
     0
 65
     1
110
0.0
120
0.0
130
0.0
111
1.0
121
0.0
131
0.0
112
0.0
122
1.0
132
0.0
 79
     0
146
0.0
 60
     3
 61
     5
292
     1
282
     1
141
0.0
142
0.0
 63
   250
  0
ENDTAB
  0
TABLE
  2
LTYPE
  5
5
330
0
100
AcDbSymbolTable
 70
     1
  0
LTYPE
  5
14
330
5
100
AcDbSymbolTableRecord
100
AcDbLinetypeTableRecord
  2
ByBlock
 70
     0
  3

 72
    65
 73
     0
 40
0.0
  0
LTYPE
  5
15
330
5
100
AcDbSymbolTableRecord
100
AcDbLinetypeTableRecord
  2
ByLayer
 70
     0
  3

 72
    65
 73
     0
 40
0.0
  0
LTYPE
  5
16
330
5
100
AcDbSymbolTableRecord
100
AcDbLinetypeTableRecord
  2
Continuous
 70
     0
  3
Solid line
 72
    65
 73
     0
 40
0.0
  0
ENDTAB
  0
TABLE
  2
LAYER
  5
2
330
0
100
AcDbSymbolTable
 70
     3
  0
LAYER
  5
10
330
2
100
AcDbSymbolTableRecord
100
AcDbLayerTableRecord
  2
0
 70
     0
 62
     7
  6
Continuous
370
    -3
390
F
347
3E
  0
LAYER
  5
40
330
2
100
AcDbSymbolTableRecord
100
AcDbLayerTableRecord
  2
layer 1
 70
     0
 62
     7
  6
Continuous
370
    -3
390
F
347
3E
  0
LAYER
  5
9D
330
2
100
AcDbSymbolTableRecord
100
AcDbLayerTableRecord
  2
Master Guides
 70
     0
 62
     7
  6
Continuous
370
    -3
390
F
347
3E
  0
ENDTAB
  0
TABLE
  2
STYLE
  5
3
330
0
100
AcDbSymbolTable
 70
     1
  0
STYLE
  5
11
330
3
100
AcDbSymbolTableRecord
100
AcDbTextStyleTableRecord
  2
Standard
 70
     0
 40
0.0
 41
1.0
 50
0.0
 71
     0
 42
0.2
  3
txt
  4

  0
ENDTAB
  0
TABLE
  2
VIEW
  5
6
330
0
100
AcDbSymbolTable
 70
     0
  0
ENDTAB
  0
TABLE
  2
UCS
  5
7
330
0
100
AcDbSymbolTable
 70
     0
  0
ENDTAB
  0
TABLE
  2
APPID
  5
9
330
0
100
AcDbSymbolTable
 70
     2
  0
APPID
  5
12
330
9
100
AcDbSymbolTableRecord
100
AcDbRegAppTableRecord
  2
ACAD
 70
     0
  0
APPID
  5
3F
330
9
100
AcDbSymbolTableRecord
100
AcDbRegAppTableRecord
  2
ODA
 70
     0
  0
ENDTAB
  0
TABLE
  2
DIMSTYLE
  5
A
330
0
100
AcDbSymbolTable
 70
     1
100
AcDbDimStyleTable
  0
DIMSTYLE
105
27
330
A
100
AcDbSymbolTableRecord
100
AcDbDimStyleTableRecord
  2
Standard
 70
     0
178
     0
340
11
  0
ENDTAB
  0
TABLE
  2
BLOCK_RECORD
  5
1
330
0
100
AcDbSymbolTable
 70
     1
  0
BLOCK_RECORD
  5
1F
330
1
100
AcDbSymbolTableRecord
100
AcDbBlockTableRecord
  2
*Model_Space
340
22
 70
     0
280
     1
281
     0
  0
BLOCK_RECORD
  5
1B
330
1
100
AcDbSymbolTableRecord
100
AcDbBlockTableRecord
  2
*Paper_Space
340
1E
 70
     0
280
     1
281
     0
  0
BLOCK_RECORD
  5
23
330
1
100
AcDbSymbolTableRecord
100
AcDbBlockTableRecord
  2
*Paper_Space0
340
26
 70
     0
280
     1
281
     0
  0
ENDTAB
  0
ENDSEC
  0
SECTION
  2
BLOCKS
  0
BLOCK
  5
20
330
1F
100
AcDbEntity
  8
0
100
AcDbBlockBegin
  2
*Model_Space
 70
     0
 10
0.0
 20
0.0
 30
0.0
  3
*Model_Space
  1

  0
ENDBLK
  5
21
330
1F
100
AcDbEntity
  8
0
100
AcDbBlockEnd
  0
BLOCK
  5
1C
330
1B
100
AcDbEntity
 67
     1
  8
0
100
AcDbBlockBegin
  2
*Paper_Space
 70
     0
 10
0.0
 20
0.0
 30
0.0
  3
*Paper_Space
  1

  0
ENDBLK
  5
1D
330
1B
100
AcDbEntity
 67
     1
  8
0
100
AcDbBlockEnd
  0
BLOCK
  5
24
330
23
100
AcDbEntity
  8
0
100
AcDbBlockBegin
  2
*Paper_Space0
 70
     0
 10
0.0
 20
0.0
 30
0.0
  3
*Paper_Space0
  1

  0
ENDBLK
  5
25
330
23
100
AcDbEntity
  8
0
100
AcDbBlockEnd
  0
ENDSEC
  0
SECTION
  2
ENTITIES
  0
SPLINE
  5
41
330
1F
100
AcDbEntity
  8
layer 1
100
AcDbSpline
210
0.0
220
0.0
230
1.0
 70
    11
 71
     3
 72
    20
 73
    16
 74
     0
 42
0.0000000001
 43
0.0000000001
 12
1.0
 22
0.0
 32
0.0
 13
1.0
 23
0.0
 33
0.0
 40
0.0
 40
0.0
 40
0.0
 40
0.0
 40
0.2
 40
0.2
 40
0.2
 40
0.2
 40
0.4
 40
0.4
 40
0.4
 40
0.4
 40
0.6
 40
0.6
 40
0.6
 40
0.6
 40
1.0
 40
1.0
 40
1.0
 40
1.0
 10
71.4296
 20
-114.6908
 30
0.0
 10
71.4296
 20
-114.6908
 30
0.0
 10
195.4337
 20
-114.6908
 30
0.0
 10
195.4337
 20
-114.6908
 30
0.0
 10
195.4337
 20
-114.6908
 30
0.0
 10
195.4337
 20
-114.6908
 30
0.0
 10
195.4337
 20
131.7713
 30
0.0
 10
195.4337
 20
131.7713
 30
0.0
 10
195.4337
 20
131.7713
 30
0.0
 10
195.4337
 20
131.7713
 30
0.0
 10
71.4296
 20
131.7713
 30
0.0
 10
71.4296
 20
131.7713
 30
0.0
 10
71.4296
 20
131.7713
 30
0.0
 10
71.4296
 20
131.7713
 30
0.0
 10
71.4296
 20
-114.6908
 30
0.0
 10
71.4296
 20
-114.6908
 30
0.0
  0
SPLINE
  5
42
330
1F
100
AcDbEntity
  8
layer 1
 62
     7
100
AcDbSpline
210
0.0
220
0.0
230
1.0
 70
    11
 71
     3
 72
    20
 73
    16
 74
     0
 42
0.0000000001
 43
0.0000000001
 12
1.0
 22
0.0
 32
0.0
 13
1.0
 23
0.0
 33
0.0
 40
0.0
 40
0.0
 40
0.0
 40
0.0
 40
0.2
 40
0.2
 40
0.2
 40
0.2
 40
0.4
 40
0.4
 40
0.4
 40
0.4
 40
0.6
 40
0.6
 40
0.6
 40
0.6
 40
1.0
 40
1.0
 40
1.0
 40
1.0
 10
106.2569
 20
85.492
 30
0.0
 10
106.2569
 20
85.492
 30
0.0
 10
114.1914
 20
93.4266
 30
0.0
 10
114.1914
 20
93.4266
 30
0.0
 10
114.1914
 20
93.4266
 30
0.0
 10
114.1914
 20
93.4266
 30
0.0
 10
122.1259
 20
85.492
 30
0.0
 10
122.1259
 20
85.492
 30
0.0
 10
122.1259
 20
85.492
 30
0.0
 10
122.1259
 20
85.492
 30
0.0
 10
114.1914
 20
77.5575
 30
0.0
 10
114.1914
 20
77.5575
 30
0.0
 10
114.1914
 20
77.5575
 30
0.0
 10
114.1914
 20
77.5575
 30
0.0
 10
106.2569
 20
85.492
 30
0.0
 10
106.2569
 20
85.492
 30
0.0
  0
SPLINE
  5
43
330
1F
100
AcDbEntity
  8
layer 1
 62
     7
100
AcDbSpline
210
0.0
220
0.0
230
1.0
 70
    11
 71
     3
 72
    20
 73
    16
 74
     0
 42
0.0000000001
 43
0.0000000001
 12
1.0
 22
0.0
 32
0.0
 13
1.0
 23
0.0
 33
0.0
 40
0.0
 40
0.0
 40
0.0
 40
0.0
 40
0.2
 40
0.2
 40
0.2
 40
0.2
 40
0.4
 40
0.4
 40
0.4
 40
0.4
 40
0.6
 40
0.6
 40
0.6
 40
0.6
 40
1.0
 40
1.0
 40
1.0
 40
1.0
 10
91.1036
 20
85.3721
 30
0.0
 10
91.1036
 20
85.3721
 30
0.0
 10
95.178
 20
89.4464
 30
0.0
 10
95.178
 20
89.4464
 30
0.0
 10
95.178
 20
89.4464
 30
0.0
 10
95.178
 20
89.4464
 30
0.0
 10
99.2523
 20
85.3721
 30
0.0
 10
99.2523
 20
85.3721
 30
0.0
 10
99.2523
 20
85.3721
 30
0.0
 10
99.2523
 20
85.3721
 30
0.0
 10
95.178
 20
81.2978
 30
0.0
 10
95.178
 20
81.2978
 30
0.0
 10
95.178
 20
81.2978
 30
0.0
 10
95.178
 20
81.2978
 30
0.0
 10
91.1036
 20
85.3721
 30
0.0
 10
91.1036
 20
85.3721
 30
0.0
  0
SPLINE
  5
44
330
1F
100
AcDbEntity
  8
layer 1
 62
     7
100
AcDbSpline
210
0.0
220
0.0
230
1.0
 70
    11
 71
     3
 72
    84
 73
    80
 74
     0
 42
0.0000000001
 43
0.0000000001
 12
1.0
 22
0.0
 32
0.0
 13
1.0
 23
0.0
 33
0.0
 40
0.0
 40
0.0
 40
0.0
 40
0.0
 40
0.0476190476190476
 40
0.0476190476190476
 40
0.0476190476190476
 40
0.0476190476190476
 40
0.0952380952380952
 40
0.0952380952380952
 40
0.0952380952380952
 40
0.0952380952380952
 40
0.1428571428571428
 40
0.1428571428571428
 40
0.1428571428571428
 40
0.1428571428571428
 40
0.1904761904761905
 40
0.1904761904761905
 40
0.1904761904761905
 40
0.1904761904761905
 40
0.2380952380952381
 40
0.2380952380952381
 40
0.2380952380952381
 40
0.2380952380952381
 40
0.2857142857142857
 40
0.2857142857142857
 40
0.2857142857142857
 40
0.2857142857142857
 40
0.3333333333333333
 40
0.3333333333333333
 40
0.3333333333333333
 40
0.3333333333333333
 40
0.3809523809523809
 40
0.3809523809523809
 40
0.3809523809523809
 40
0.3809523809523809
 40
0.4285714285714285
 40
0.4285714285714285
 40
0.4285714285714285
 40
0.4285714285714285
 40
0.4761904761904762
 40
0.4761904761904762
 40
0.4761904761904762
 40
0.4761904761904762
 40
0.5238095238095238
 40
0.5238095238095238
 40
0.5238095238095238
 40
0.5238095238095238
 40
0.5714285714285714
 40
0.5714285714285714
 40
0.5714285714285714
 40
0.5714285714285714
 40
0.6190476190476191
 40
0.6190476190476191
 40
0.6190476190476191
 40
0.6190476190476191
 40
0.6666666666666666
 40
0.6666666666666666
 40
0.6666666666666666
 40
0.6666666666666666
 40
0.7142857142857143
 40
0.7142857142857143
 40
0.7142857142857143
 40
0.7142857142857143
 40
0.7619047619047619
 40
0.7619047619047619
 40
0.7619047619047619
 40
0.7619047619047619
 40
0.8095238095238095
 40
0.8095238095238095
 40
0.8095238095238095
 40
0.8095238095238095
 40
0.8571428571428571
 40
0.8571428571428571
 40
0.8571428571428571
 40
0.8571428571428571
 40
0.9047619047619048
 40
0.9047619047619048
 40
0.9047619047619048
 40
0.9047619047619048
 40
1.0
 40
1.0
 40
1.0
 40
1.0
 10
108.6753
 20
66.2965
 30
0.0
 10
108.6658
 20
67.4433
 30
0.0
 10
108.0973
 20
68.0465
 30
0.0
 10
108.0973
 20
68.0465
 30
0.0
 10
108.0973
 20
68.0465
 30
0.0
 10
108.0973
 20
68.0465
 30
0.0
 10
98.3931
 20
77.8345
 30
0.0
 10
98.3931
 20
77.8345
 30
0.0
 10
98.3931
 20
77.8345
 30
0.0
 10
98.3931
 20
77.8345
 30
0.0
 10
102.716
 20
82.1573
 30
0.0
 10
102.716
 20
82.1573
 30
0.0
 10
102.716
 20
82.1573
 30
0.0
 10
102.716
 20
82.1573
 30
0.0
 10
112.3804
 20
72.6475
 30
0.0
 10
112.3804
 20
72.6475
 30
0.0
 10
112.3804
 20
72.6475
 30
0.0
 10
112.3804
 20
72.6475
 30
0.0
 10
113.3048
 20
71.7141
 30
0.0
 10
114.2703
 20
71.8054
 30
0.0
 10
114.2703
 20
71.8054
 30
0.0
 10
115.236
 20
71.8967
 30
0.0
 10
116.1263
 20
72.6827
 30
0.0
 10
116.1263
 20
72.6827
 30
0.0
 10
116.1263
 20
72.6827
 30
0.0
 10
116.1263
 20
72.6827
 30
0.0
 10
125.8222
 20
82.1043
 30
0.0
 10
125.8222
 20
82.1043
 30
0.0
 10
125.8222
 20
82.1043
 30
0.0
 10
125.8222
 20
82.1043
 30
0.0
 10
130.1451
 20
77.7814
 30
0.0
 10
130.1451
 20
77.7814
 30
0.0
 10
130.1451
 20
77.7814
 30
0.0
 10
130.1451
 20
77.7814
 30
0.0
 10
120.5001
 20
68.2425
 30
0.0
 10
120.5001
 20
68.2425
 30
0.0
 10
120.5001
 20
68.2425
 30
0.0
 10
120.5001
 20
68.2425
 30
0.0
 10
119.7014
 20
67.3687
 30
0.0
 10
119.7062
 20
66.3656
 30
0.0
 10
119.7062
 20
66.3656
 30
0.0
 10
119.7111
 20
65.3626
 30
0.0
 10
120.307
 20
64.6531
 30
0.0
 10
120.307
 20
64.6531
 30
0.0
 10
120.307
 20
64.6531
 30
0.0
 10
120.307
 20
64.6531
 30
0.0
 10
130.1373
 20
54.804
 30
0.0
 10
130.1373
 20
54.804
 30
0.0
 10
130.1373
 20
54.804
 30
0.0
 10
130.1373
 20
54.804
 30
0.0
 10
125.7123
 20
50.379
 30
0.0
 10
125.7123
 20
50.379
 30
0.0
 10
125.7123
 20
50.379
 30
0.0
 10
125.7123
 20
50.379
 30
0.0
 10
116.3859
 20
59.7054
 30
0.0
 10
116.3859
 20
59.7054
 30
0.0
 10
116.3859
 20
59.7054
 30
0.0
 10
116.3859
 20
59.7054
 30
0.0
 10
115.4378
 20
60.8442
 30
0.0
 10
114.2875
 20
60.8298
 30
0.0
 10
114.2875
 20
60.8298
 30
0.0
 10
113.1373
 20
60.8153
 30
0.0
 10
112.372
 20
59.9826
 30
0.0
 10
112.372
 20
59.9826
 30
0.0
 10
112.372
 20
59.9826
 30
0.0
 10
112.372
 20
59.9826
 30
0.0
 10
102.8598
 20
50.2919
 30
0.0
 10
102.8598
 20
50.2919
 30
0.0
 10
102.8598
 20
50.2919
 30
0.0
 10
102.8598
 20
50.2919
 30
0.0
 10
98.4009
 20
54.7508
 30
0.0
 10
98.4009
 20
54.7508
 30
0.0
 10
98.4009
 20
54.7508
 30
0.0
 10
98.4009
 20
54.7508
 30
0.0
 10
108.187
 20
64.6435
 30
0.0
 10
108.187
 20
64.6435
 30
0.0
 10
108.187
 20
64.6435
 30
0.0
 10
108.187
 20
64.6435
 30
0.0
 10
108.6847
 20
65.1497
 30
0.0
 10
108.6753
 20
66.2965
 30
0.0
  0
SPLINE
  5
45
330
1F
100
AcDbEntity
  8
layer 1
 62
     7
100
AcDbSpline
210
0.0
220
0.0
230
1.0
 70
    11
 71
     3
 72
    20
 73
    16
 74
     0
 42
0.0000000001
 43
0.0000000001
 12
1.0
 22
0.0
 32
0.0
 13
1.0
 23
0.0
 33
0.0
 40
0.0
 40
0.0
 40
0.0
 40
0.0
 40
0.2
 40
0.2
 40
0.2
 40
0.2
 40
0.4
 40
0.4
 40
0.4
 40
0.4
 40
0.6
 40
0.6
 40
0.6
 40
0.6
 40
1.0
 40
1.0
 40
1.0
 40
1.0
 10
125.5791
 20
66.2609
 30
0.0
 10
125.5791
 20
66.2609
 30
0.0
 10
133.5136
 20
74.1955
 30
0.0
 10
133.5136
 20
74.1955
 30
0.0
 10
133.5136
 20
74.1955
 30
0.0
 10
133.5136
 20
74.1955
 30
0.0
 10
141.4482
 20
66.2609
 30
0.0
 10
141.4482
 20
66.2609
 30
0.0
 10
141.4482
 20
66.2609
 30
0.0
 10
141.4482
 20
66.2609
 30
0.0
 10
133.5136
 20
58.3264
 30
0.0
 10
133.5136
 20
58.3264
 30
0.0
 10
133.5136
 20
58.3264
 30
0.0
 10
133.5136
 20
58.3264
 30
0.0
 10
125.5791
 20
66.2609
 30
0.0
 10
125.5791
 20
66.2609
 30
0.0
  0
SPLINE
  5
46
330
1F
100
AcDbEntity
  8
layer 1
 62
     7
100
AcDbSpline
210
0.0
220
0.0
230
1.0
 70
    11
 71
     3
 72
    88
 73
    84
 74
     0
 42
0.0000000001
 43
0.0000000001
 12
1.0
 22
0.0
 32
0.0
 13
1.0
 23
0.0
 33
0.0
 40
0.0
 40
0.0
 40
0.0
 40
0.0
 40
0.0454545454545455
 40
0.0454545454545455
 40
0.0454545454545455
 40
0.0454545454545455
 40
0.0909090909090909
 40
0.0909090909090909
 40
0.0909090909090909
 40
0.0909090909090909
 40
0.1363636363636364
 40
0.1363636363636364
 40
0.1363636363636364
 40
0.1363636363636364
 40
0.1818181818181818
 40
0.1818181818181818
 40
0.1818181818181818
 40
0.1818181818181818
 40
0.2272727272727273
 40
0.2272727272727273
 40
0.2272727272727273
 40
0.2272727272727273
 40
0.2727272727272727
 40
0.2727272727272727
 40
0.2727272727272727
 40
0.2727272727272727
 40
0.3181818181818182
 40
0.3181818181818182
 40
0.3181818181818182
 40
0.3181818181818182
 40
0.3636363636363636
 40
0.3636363636363636
 40
0.3636363636363636
 40
0.3636363636363636
 40
0.4090909090909091
 40
0.4090909090909091
 40
0.4090909090909091
 40
0.4090909090909091
 40
0.4545454545454545
 40
0.4545454545454545
 40
0.4545454545454545
 40
0.4545454545454545
 40
0.5
 40
0.5
 40
0.5
 40
0.5
 40
0.5454545454545454
 40
0.5454545454545454
 40
0.5454545454545454
 40
0.5454545454545454
 40
0.5909090909090909
 40
0.5909090909090909
 40
0.5909090909090909
 40
0.5909090909090909
 40
0.6363636363636364
 40
0.6363636363636364
 40
0.6363636363636364
 40
0.6363636363636364
 40
0.6818181818181818
 40
0.6818181818181818
 40
0.6818181818181818
 40
0.6818181818181818
 40
0.7272727272727273
 40
0.7272727272727273
 40
0.7272727272727273
 40
0.7272727272727273
 40
0.7727272727272727
 40
0.7727272727272727
 40
0.7727272727272727
 40
0.7727272727272727
 40
0.8181818181818182
 40
0.8181818181818182
 40
0.8181818181818182
 40
0.8181818181818182
 40
0.8636363636363636
 40
0.8636363636363636
 40
0.8636363636363636
 40
0.8636363636363636
 40
0.9090909090909091
 40
0.9090909090909091
 40
0.9090909090909091
 40
0.9090909090909091
 40
1.0
 40
1.0
 40
1.0
 40
1.0
 10
147.1374
 20
66.2965
 30
0.0
 10
147.128
 20
67.4433
 30
0.0
 10
146.5595
 20
68.0465
 30
0.0
 10
146.5595
 20
68.0465
 30
0.0
 10
146.5595
 20
68.0465
 30
0.0
 10
146.5595
 20
68.0465
 30
0.0
 10
136.8553
 20
77.8345
 30
0.0
 10
136.8553
 20
77.8345
 30
0.0
 10
136.8553
 20
77.8345
 30
0.0
 10
136.8553
 20
77.8345
 30
0.0
 10
141.1781
 20
82.1573
 30
0.0
 10
141.1781
 20
82.1573
 30
0.0
 10
141.1781
 20
82.1573
 30
0.0
 10
141.1781
 20
82.1573
 30
0.0
 10
150.8425
 20
72.6475
 30
0.0
 10
150.8425
 20
72.6475
 30
0.0
 10
150.8425
 20
72.6475
 30
0.0
 10
150.8425
 20
72.6475
 30
0.0
 10
151.767
 20
71.7141
 30
0.0
 10
152.7325
 20
71.8054
 30
0.0
 10
152.7325
 20
71.8054
 30
0.0
 10
153.6982
 20
71.8967
 30
0.0
 10
154.5885
 20
72.6827
 30
0.0
 10
154.5885
 20
72.6827
 30
0.0
 10
154.5885
 20
72.6827
 30
0.0
 10
154.5885
 20
72.6827
 30
0.0
 10
164.2844
 20
82.1043
 30
0.0
 10
164.2844
 20
82.1043
 30
0.0
 10
164.2844
 20
82.1043
 30
0.0
 10
164.2844
 20
82.1043
 30
0.0
 10
168.6072
 20
77.7814
 30
0.0
 10
168.6072
 20
77.7814
 30
0.0
 10
168.6072
 20
77.7814
 30
0.0
 10
168.6072
 20
77.7814
 30
0.0
 10
158.9623
 20
68.2425
 30
0.0
 10
158.9623
 20
68.2425
 30
0.0
 10
158.9623
 20
68.2425
 30
0.0
 10
158.9623
 20
68.2425
 30
0.0
 10
158.1635
 20
67.3687
 30
0.0
 10
158.1684
 20
66.3656
 30
0.0
 10
158.1684
 20
66.3656
 30
0.0
 10
158.1733
 20
65.3626
 30
0.0
 10
158.7692
 20
64.6531
 30
0.0
 10
158.7692
 20
64.6531
 30
0.0
 10
158.7692
 20
64.6531
 30
0.0
 10
158.7692
 20
64.6531
 30
0.0
 10
168.5995
 20
54.804
 30
0.0
 10
168.5995
 20
54.804
 30
0.0
 10
168.5995
 20
54.804
 30
0.0
 10
168.5995
 20
54.804
 30
0.0
 10
164.1745
 20
50.379
 30
0.0
 10
164.1745
 20
50.379
 30
0.0
 10
164.1745
 20
50.379
 30
0.0
 10
164.1745
 20
50.379
 30
0.0
 10
154.848
 20
59.7054
 30
0.0
 10
154.848
 20
59.7054
 30
0.0
 10
154.848
 20
59.7054
 30
0.0
 10
154.848
 20
59.7054
 30
0.0
 10
153.9
 20
60.8442
 30
0.0
 10
152.7497
 20
60.8298
 30
0.0
 10
152.7497
 20
60.8298
 30
0.0
 10
151.5995
 20
60.8153
 30
0.0
 10
150.8341
 20
59.9826
 30
0.0
 10
150.8341
 20
59.9826
 30
0.0
 10
150.8341
 20
59.9826
 30
0.0
 10
150.8341
 20
59.9826
 30
0.0
 10
141.322
 20
50.2919
 30
0.0
 10
141.322
 20
50.2919
 30
0.0
 10
141.322
 20
50.2919
 30
0.0
 10
141.322
 20
50.2919
 30
0.0
 10
136.8629
 20
54.7509
 30
0.0
 10
136.8629
 20
54.7509
 30
0.0
 10
136.8629
 20
54.7509
 30
0.0
 10
136.8629
 20
54.7509
 30
0.0
 10
146.6492
 20
64.6436
 30
0.0
 10
146.6492
 20
64.6436
 30
0.0
 10
146.6492
 20
64.6436
 30
0.0
 10
146.6492
 20
64.6436
 30
0.0
 10
147.1469
 20
65.1498
 30
0.0
 10
147.1374
 20
66.2967
 30
0.0
 10
147.1374
 20
66.2967
 30
0.0
 10
147.1374
 20
66.2967
 30
0.0
 10
147.1374
 20
66.2965
 30
0.0
 10
147.1374
 20
66.2965
 30
0.0
  0
SPLINE
  5
47
330
1F
100
AcDbEntity
  8
layer 1
 62
     7
100
AcDbSpline
210
0.0
220
0.0
230
1.0
 70
    11
 71
     3
 72
    20
 73
    16
 74
     0
 42
0.0000000001
 43
0.0000000001
 12
1.0
 22
0.0
 32
0.0
 13
1.0
 23
0.0
 33
0.0
 40
0.0
 40
0.0
 40
0.0
 40
0.0
 40
0.2
 40
0.2
 40
0.2
 40
0.2
 40
0.4
 40
0.4
 40
0.4
 40
0.4
 40
0.6
 40
0.6
 40
0.6
 40
0.6
 40
1.0
 40
1.0
 40
1.0
 40
1.0
 10
164.0413
 20
66.2609
 30
0.0
 10
164.0413
 20
66.2609
 30
0.0
 10
171.9758
 20
74.1955
 30
0.0
 10
171.9758
 20
74.1955
 30
0.0
 10
171.9758
 20
74.1955
 30
0.0
 10
171.9758
 20
74.1955
 30
0.0
 10
179.9104
 20
66.2609
 30
0.0
 10
179.9104
 20
66.2609
 30
0.0
 10
179.9104
 20
66.2609
 30
0.0
 10
179.9104
 20
66.2609
 30
0.0
 10
171.9758
 20
58.3264
 30
0.0
 10
171.9758
 20
58.3264
 30
0.0
 10
171.9758
 20
58.3264
 30
0.0
 10
171.9758
 20
58.3264
 30
0.0
 10
164.0413
 20
66.2609
 30
0.0
 10
164.0413
 20
66.2609
 30
0.0
  0
SPLINE
  5
48
330
1F
100
AcDbEntity
  8
layer 1
 62
     7
100
AcDbSpline
210
0.0
220
0.0
230
1.0
 70
    11
 71
     3
 72
    20
 73
    16
 74
     0
 42
0.0000000001
 43
0.0000000001
 12
1.0
 22
0.0
 32
0.0
 13
1.0
 23
0.0
 33
0.0
 40
0.0
 40
0.0
 40
0.0
 40
0.0
 40
0.2
 40
0.2
 40
0.2
 40
0.2
 40
0.4
 40
0.4
 40
0.4
 40
0.4
 40
0.6
 40
0.6
 40
0.6
 40
0.6
 40
1.0
 40
1.0
 40
1.0
 40
1.0
 10
87.0258
 20
66.2609
 30
0.0
 10
87.0258
 20
66.2609
 30
0.0
 10
94.9603
 20
74.1955
 30
0.0
 10
94.9603
 20
74.1955
 30
0.0
 10
94.9603
 20
74.1955
 30
0.0
 10
94.9603
 20
74.1955
 30
0.0
 10
102.8949
 20
66.2609
 30
0.0
 10
102.8949
 20
66.2609
 30
0.0
 10
102.8949
 20
66.2609
 30
0.0
 10
102.8949
 20
66.2609
 30
0.0
 10
94.9603
 20
58.3264
 30
0.0
 10
94.9603
 20
58.3264
 30
0.0
 10
94.9603
 20
58.3264
 30
0.0
 10
94.9603
 20
58.3264
 30
0.0
 10
87.0258
 20
66.2609
 30
0.0
 10
87.0258
 20
66.2609
 30
0.0
  0
SPLINE
  5
49
330
1F
100
AcDbEntity
  8
layer 1
 62
     7
100
AcDbSpline
210
0.0
220
0.0
230
1.0
 70
    11
 71
     3
 72
    40
 73
    36
 74
     0
 42
0.0000000001
 43
0.0000000001
 12
1.0
 22
0.0
 32
0.0
 13
1.0
 23
0.0
 33
0.0
 40
0.0
 40
0.0
 40
0.0
 40
0.0
 40
0.1
 40
0.1
 40
0.1
 40
0.1
 40
0.2
 40
0.2
 40
0.2
 40
0.2
 40
0.3
 40
0.3
 40
0.3
 40
0.3
 40
0.4
 40
0.4
 40
0.4
 40
0.4
 40
0.5
 40
0.5
 40
0.5
 40
0.5
 40
0.6
 40
0.6
 40
0.6
 40
0.6
 40
0.7
 40
0.7
 40
0.7
 40
0.7
 40
0.8
 40
0.8
 40
0.8
 40
0.8
 40
1.0
 40
1.0
 40
1.0
 40
1.0
 10
78.8623
 20
74.0241
 30
0.0
 10
78.8623
 20
74.0241
 30
0.0
 10
87.1779
 20
82.1043
 30
0.0
 10
87.1779
 20
82.1043
 30
0.0
 10
87.1779
 20
82.1043
 30
0.0
 10
87.1779
 20
82.1043
 30
0.0
 10
91.5007
 20
77.7814
 30
0.0
 10
91.5007
 20
77.7814
 30
0.0
 10
91.5007
 20
77.7814
 30
0.0
 10
91.5007
 20
77.7814
 30
0.0
 10
81.8557
 20
68.2425
 30
0.0
 10
81.8557
 20
68.2425
 30
0.0
 10
81.8557
 20
68.2425
 30
0.0
 10
81.8557
 20
68.2425
 30
0.0
 10
81.057
 20
67.3687
 30
0.0
 10
81.0619
 20
66.3656
 30
0.0
 10
81.0619
 20
66.3656
 30
0.0
 10
81.0667
 20
65.3626
 30
0.0
 10
81.6627
 20
64.6531
 30
0.0
 10
81.6627
 20
64.6531
 30
0.0
 10
81.6627
 20
64.6531
 30
0.0
 10
81.6627
 20
64.6531
 30
0.0
 10
91.493
 20
54.804
 30
0.0
 10
91.493
 20
54.804
 30
0.0
 10
91.493
 20
54.804
 30
0.0
 10
91.493
 20
54.804
 30
0.0
 10
87.0679
 20
50.379
 30
0.0
 10
87.0679
 20
50.379
 30
0.0
 10
87.0679
 20
50.379
 30
0.0
 10
87.0679
 20
50.379
 30
0.0
 10
78.8611
 20
58.5858
 30
0.0
 10
78.8611
 20
58.5858
 30
0.0
 10
78.8611
 20
58.5858
 30
0.0
 10
78.8611
 20
58.5858
 30
0.0
 10
78.8623
 20
74.0241
 30
0.0
 10
78.8623
 20
74.0241
 30
0.0
  0
SPLINE
  5
4A
330
1F
100
AcDbEntity
  8
layer 1
 62
     7
100
AcDbSpline
210
0.0
220
0.0
230
1.0
 70
    11
 71
     3
 72
    40
 73
    36
 74
     0
 42
0.0000000001
 43
0.0000000001
 12
1.0
 22
0.0
 32
0.0
 13
1.0
 23
0.0
 33
0.0
 40
0.0
 40
0.0
 40
0.0
 40
0.0
 40
0.1
 40
0.1
 40
0.1
 40
0.1
 40
0.2
 40
0.2
 40
0.2
 40
0.2
 40
0.3
 40
0.3
 40
0.3
 40
0.3
 40
0.4
 40
0.4
 40
0.4
 40
0.4
 40
0.5
 40
0.5
 40
0.5
 40
0.5
 40
0.6
 40
0.6
 40
0.6
 40
0.6
 40
0.7
 40
0.7
 40
0.7
 40
0.7
 40
0.8
 40
0.8
 40
0.8
 40
0.8
 40
1.0
 40
1.0
 40
1.0
 40
1.0
 10
188.1107
 20
74.0241
 30
0.0
 10
188.1107
 20
74.0241
 30
0.0
 10
179.7952
 20
82.1043
 30
0.0
 10
179.7952
 20
82.1043
 30
0.0
 10
179.7952
 20
82.1043
 30
0.0
 10
179.7952
 20
82.1043
 30
0.0
 10
175.4723
 20
77.7814
 30
0.0
 10
175.4723
 20
77.7814
 30
0.0
 10
175.4723
 20
77.7814
 30
0.0
 10
175.4723
 20
77.7814
 30
0.0
 10
185.1173
 20
68.2425
 30
0.0
 10
185.1173
 20
68.2425
 30
0.0
 10
185.1173
 20
68.2425
 30
0.0
 10
185.1173
 20
68.2425
 30
0.0
 10
185.916
 20
67.3687
 30
0.0
 10
185.9112
 20
66.3656
 30
0.0
 10
185.9112
 20
66.3656
 30
0.0
 10
185.9063
 20
65.3626
 30
0.0
 10
185.3104
 20
64.6531
 30
0.0
 10
185.3104
 20
64.6531
 30
0.0
 10
185.3104
 20
64.6531
 30
0.0
 10
185.3104
 20
64.6531
 30
0.0
 10
175.4801
 20
54.804
 30
0.0
 10
175.4801
 20
54.804
 30
0.0
 10
175.4801
 20
54.804
 30
0.0
 10
175.4801
 20
54.804
 30
0.0
 10
179.9051
 20
50.379
 30
0.0
 10
179.9051
 20
50.379
 30
0.0
 10
179.9051
 20
50.379
 30
0.0
 10
179.9051
 20
50.379
 30
0.0
 10
188.1119
 20
58.5858
 30
0.0
 10
188.1119
 20
58.5858
 30
0.0
 10
188.1119
 20
58.5858
 30
0.0
 10
188.1119
 20
58.5858
 30
0.0
 10
188.1107
 20
74.0241
 30
0.0
 10
188.1107
 20
74.0241
 30
0.0
  0
SPLINE
  5
4B
330
1F
100
AcDbEntity
  8
layer 1
 62
     7
100
AcDbSpline
210
0.0
220
0.0
230
1.0
 70
    11
 71
     3
 72
    20
 73
    16
 74
     0
 42
0.0000000001
 43
0.0000000001
 12
1.0
 22
0.0
 32
0.0
 13
1.0
 23
0.0
 33
0.0
 40
0.0
 40
0.0
 40
0.0
 40
0.0
 40
0.2
 40
0.2
 40
0.2
 40
0.2
 40
0.4
 40
0.4
 40
0.4
 40
0.4
 40
0.6
 40
0.6
 40
0.6
 40
0.6
 40
1.0
 40
1.0
 40
1.0
 40
1.0
 10
144.719
 20
85.4009
 30
0.0
 10
144.719
 20
85.4009
 30
0.0
 10
152.6536
 20
93.3354
 30
0.0
 10
152.6536
 20
93.3354
 30
0.0
 10
152.6536
 20
93.3354
 30
0.0
 10
152.6536
 20
93.3354
 30
0.0
 10
160.5881
 20
85.4009
 30
0.0
 10
160.5881
 20
85.4009
 30
0.0
 10
160.5881
 20
85.4009
 30
0.0
 10
160.5881
 20
85.4009
 30
0.0
 10
152.6536
 20
77.4663
 30
0.0
 10
152.6536
 20
77.4663
 30
0.0
 10
152.6536
 20
77.4663
 30
0.0
 10
152.6536
 20
77.4663
 30
0.0
 10
144.719
 20
85.4009
 30
0.0
 10
144.719
 20
85.4009
 30
0.0
  0
SPLINE
  5
4C
330
1F
100
AcDbEntity
  8
layer 1
 62
     7
100
AcDbSpline
210
0.0
220
0.0
230
1.0
 70
    11
 71
     3
 72
    20
 73
    16
 74
     0
 42
0.0000000001
 43
0.0000000001
 12
1.0
 22
0.0
 32
0.0
 13
1.0
 23
0.0
 33
0.0
 40
0.0
 40
0.0
 40
0.0
 40
0.0
 40
0.2
 40
0.2
 40
0.2
 40
0.2
 40
0.4
 40
0.4
 40
0.4
 40
0.4
 40
0.6
 40
0.6
 40
0.6
 40
0.6
 40
1.0
 40
1.0
 40
1.0
 40
1.0
 10
129.5658
 20
85.3721
 30
0.0
 10
129.5658
 20
85.3721
 30
0.0
 10
133.6401
 20
89.4464
 30
0.0
 10
133.6401
 20
89.4464
 30
0.0
 10
133.6401
 20
89.4464
 30
0.0
 10
133.6401
 20
89.4464
 30
0.0
 10
137.7145
 20
85.3721
 30
0.0
 10
137.7145
 20
85.3721
 30
0.0
 10
137.7145
 20
85.3721
 30
0.0
 10
137.7145
 20
85.3721
 30
0.0
 10
133.6401
 20
81.2978
 30
0.0
 10
133.6401
 20
81.2978
 30
0.0
 10
133.6401
 20
81.2978
 30
0.0
 10
133.6401
 20
81.2978
 30
0.0
 10
129.5658
 20
85.3721
 30
0.0
 10
129.5658
 20
85.3721
 30
0.0
  0
SPLINE
  5
4D
330
1F
100
AcDbEntity
  8
layer 1
 62
     7
100
AcDbSpline
210
0.0
220
0.0
230
1.0
 70
    11
 71
     3
 72
    20
 73
    16
 74
     0
 42
0.0000000001
 43
0.0000000001
 12
1.0
 22
0.0
 32
0.0
 13
1.0
 23
0.0
 33
0.0
 40
0.0
 40
0.0
 40
0.0
 40
0.0
 40
0.2
 40
0.2
 40
0.2
 40
0.2
 40
0.4
 40
0.4
 40
0.4
 40
0.4
 40
0.6
 40
0.6
 40
0.6
 40
0.6
 40
1.0
 40
1.0
 40
1.0
 40
1.0
 10
168.028
 20
85.3721
 30
0.0
 10
168.028
 20
85.3721
 30
0.0
 10
172.1023
 20
89.4464
 30
0.0
 10
172.1023
 20
89.4464
 30
0.0
 10
172.1023
 20
89.4464
 30
0.0
 10
172.1023
 20
89.4464
 30
0.0
 10
176.1766
 20
85.3721
 30
0.0
 10
176.1766
 20
85.3721
 30
0.0
 10
176.1766
 20
85.3721
 30
0.0
 10
176.1766
 20
85.3721
 30
0.0
 10
172.1023
 20
81.2978
 30
0.0
 10
172.1023
 20
81.2978
 30
0.0
 10
172.1023
 20
81.2978
 30
0.0
 10
172.1023
 20
81.2978
 30
0.0
 10
168.028
 20
85.3721
 30
0.0
 10
168.028
 20
85.3721
 30
0.0
  0
SPLINE
  5
4E
330
1F
100
AcDbEntity
  8
layer 1
 62
     7
100
AcDbSpline
210
0.0
220
0.0
230
1.0
 70
    11
 71
     3
 72
    16
 73
    12
 74
     0
 42
0.0000000001
 43
0.0000000001
 12
1.0
 22
0.0
 32
0.0
 13
1.0
 23
0.0
 33
0.0
 40
0.0
 40
0.0
 40
0.0
 40
0.0
 40
0.25
 40
0.25
 40
0.25
 40
0.25
 40
0.5
 40
0.5
 40
0.5
 40
0.5
 40
1.0
 40
1.0
 40
1.0
 40
1.0
 10
78.7891
 20
90.4357
 30
0.0
 10
78.7891
 20
90.4357
 30
0.0
 10
83.6417
 20
85.5832
 30
0.0
 10
83.6417
 20
85.5832
 30
0.0
 10
83.6417
 20
85.5832
 30
0.0
 10
83.6417
 20
85.5832
 30
0.0
 10
78.7416
 20
80.6831
 30
0.0
 10
78.7416
 20
80.6831
 30
0.0
 10
78.7416
 20
80.6831
 30
0.0
 10
78.7416
 20
80.6831
 30
0.0
 10
78.7891
 20
90.4357
 30
0.0
 10
78.7891
 20
90.4357
 30
0.0
  0
SPLINE
  5
4F
330
1F
100
AcDbEntity
  8
layer 1
 62
     7
100
AcDbSpline
210
0.0
220
0.0
230
1.0
 70
    11
 71
     3
 72
    16
 73
    12
 74
     0
 42
0.0000000001
 43
0.0000000001
 12
1.0
 22
0.0
 32
0.0
 13
1.0
 23
0.0
 33
0.0
 40
0.0
 40
0.0
 40
0.0
 40
0.0
 40
0.25
 40
0.25
 40
0.25
 40
0.25
 40
0.5
 40
0.5
 40
0.5
 40
0.5
 40
1.0
 40
1.0
 40
1.0
 40
1.0
 10
188.0653
 20
90.3446
 30
0.0
 10
188.0653
 20
90.3446
 30
0.0
 10
183.2127
 20
85.492
 30
0.0
 10
183.2127
 20
85.492
 30
0.0
 10
183.2127
 20
85.492
 30
0.0
 10
183.2127
 20
85.492
 30
0.0
 10
188.1129
 20
80.5919
 30
0.0
 10
188.1129
 20
80.5919
 30
0.0
 10
188.1129
 20
80.5919
 30
0.0
 10
188.1129
 20
80.5919
 30
0.0
 10
188.0653
 20
90.3446
 30
0.0
 10
188.0653
 20
90.3446
 30
0.0
  0
SPLINE
  5
50
330
1F
100
AcDbEntity
  8
layer 1
 62
     7
100
AcDbSpline
210
0.0
220
0.0
230
1.0
 70
    11
 71
     3
 72
    24
 73
    20
 74
     0
 42
0.0000000001
 43
0.0000000001
 12
1.0
 22
0.0
 32
0.0
 13
1.0
 23
0.0
 33
0.0
 40
0.0
 40
0.0
 40
0.0
 40
0.0
 40
0.1666666666666667
 40
0.1666666666666667
 40
0.1666666666666667
 40
0.1666666666666667
 40
0.3333333333333333
 40
0.3333333333333333
 40
0.3333333333333333
 40
0.3333333333333333
 40
0.5
 40
0.5
 40
0.5
 40
0.5
 40
0.6666666666666666
 40
0.6666666666666666
 40
0.6666666666666666
 40
0.6666666666666666
 40
1.0
 40
1.0
 40
1.0
 40
1.0
 10
91.1036
 20
123.7829
 30
0.0
 10
91.1036
 20
123.7829
 30
0.0
 10
92.2125
 20
124.8918
 30
0.0
 10
92.2125
 20
124.8918
 30
0.0
 10
92.2125
 20
124.8918
 30
0.0
 10
92.2125
 20
124.8918
 30
0.0
 10
98.1316
 20
124.9034
 30
0.0
 10
98.1316
 20
124.9034
 30
0.0
 10
98.1316
 20
124.9034
 30
0.0
 10
98.1316
 20
124.9034
 30
0.0
 10
99.2521
 20
123.7829
 30
0.0
 10
99.2521
 20
123.7829
 30
0.0
 10
99.2521
 20
123.7829
 30
0.0
 10
99.2521
 20
123.7829
 30
0.0
 10
95.1778
 20
119.7086
 30
0.0
 10
95.1778
 20
119.7086
 30
0.0
 10
95.1778
 20
119.7086
 30
0.0
 10
95.1778
 20
119.7086
 30
0.0
 10
91.1036
 20
123.7829
 30
0.0
 10
91.1036
 20
123.7829
 30
0.0
  0
SPLINE
  5
51
330
1F
100
AcDbEntity
  8
layer 1
 62
     7
100
AcDbSpline
210
0.0
220
0.0
230
1.0
 70
    11
 71
     3
 72
    88
 73
    84
 74
     0
 42
0.0000000001
 43
0.0000000001
 12
1.0
 22
0.0
 32
0.0
 13
1.0
 23
0.0
 33
0.0
 40
0.0
 40
0.0
 40
0.0
 40
0.0
 40
0.0454545454545455
 40
0.0454545454545455
 40
0.0454545454545455
 40
0.0454545454545455
 40
0.0909090909090909
 40
0.0909090909090909
 40
0.0909090909090909
 40
0.0909090909090909
 40
0.1363636363636364
 40
0.1363636363636364
 40
0.1363636363636364
 40
0.1363636363636364
 40
0.1818181818181818
 40
0.1818181818181818
 40
0.1818181818181818
 40
0.1818181818181818
 40
0.2272727272727273
 40
0.2272727272727273
 40
0.2272727272727273
 40
0.2272727272727273
 40
0.2727272727272727
 40
0.2727272727272727
 40
0.2727272727272727
 40
0.2727272727272727
 40
0.3181818181818182
 40
0.3181818181818182
 40
0.3181818181818182
 40
0.3181818181818182
 40
0.3636363636363636
 40
0.3636363636363636
 40
0.3636363636363636
 40
0.3636363636363636
 40
0.4090909090909091
 40
0.4090909090909091
 40
0.4090909090909091
 40
0.4090909090909091
 40
0.4545454545454545
 40
0.4545454545454545
 40
0.4545454545454545
 40
0.4545454545454545
 40
0.5
 40
0.5
 40
0.5
 40
0.5
 40
0.5454545454545454
 40
0.5454545454545454
 40
0.5454545454545454
 40
0.5454545454545454
 40
0.5909090909090909
 40
0.5909090909090909
 40
0.5909090909090909
 40
0.5909090909090909
 40
0.6363636363636364
 40
0.6363636363636364
 40
0.6363636363636364
 40
0.6363636363636364
 40
0.6818181818181818
 40
0.6818181818181818
 40
0.6818181818181818
 40
0.6818181818181818
 40
0.7272727272727273
 40
0.7272727272727273
 40
0.7272727272727273
 40
0.7272727272727273
 40
0.7727272727272727
 40
0.7727272727272727
 40
0.7727272727272727
 40
0.7727272727272727
 40
0.8181818181818182
 40
0.8181818181818182
 40
0.8181818181818182
 40
0.8181818181818182
 40
0.8636363636363636
 40
0.8636363636363636
 40
0.8636363636363636
 40
0.8636363636363636
 40
0.9090909090909091
 40
0.9090909090909091
 40
0.9090909090909091
 40
0.9090909090909091
 40
1.0
 40
1.0
 40
1.0
 40
1.0
 10
108.6753
 20
104.7073
 30
0.0
 10
108.6658
 20
105.8541
 30
0.0
 10
108.0973
 20
106.4573
 30
0.0
 10
108.0973
 20
106.4573
 30
0.0
 10
108.0973
 20
106.4573
 30
0.0
 10
108.0973
 20
106.4573
 30
0.0
 10
98.3931
 20
116.2453
 30
0.0
 10
98.3931
 20
116.2453
 30
0.0
 10
98.3931
 20
116.2453
 30
0.0
 10
98.3931
 20
116.2453
 30
0.0
 10
102.716
 20
120.5681
 30
0.0
 10
102.716
 20
120.5681
 30
0.0
 10
102.716
 20
120.5681
 30
0.0
 10
102.716
 20
120.5681
 30
0.0
 10
112.3804
 20
111.0583
 30
0.0
 10
112.3804
 20
111.0583
 30
0.0
 10
112.3804
 20
111.0583
 30
0.0
 10
112.3804
 20
111.0583
 30
0.0
 10
113.3048
 20
110.125
 30
0.0
 10
114.2703
 20
110.2163
 30
0.0
 10
114.2703
 20
110.2163
 30
0.0
 10
115.236
 20
110.3075
 30
0.0
 10
116.1263
 20
111.0935
 30
0.0
 10
116.1263
 20
111.0935
 30
0.0
 10
116.1263
 20
111.0935
 30
0.0
 10
116.1263
 20
111.0935
 30
0.0
 10
125.8222
 20
120.5151
 30
0.0
 10
125.8222
 20
120.5151
 30
0.0
 10
125.8222
 20
120.5151
 30
0.0
 10
125.8222
 20
120.5151
 30
0.0
 10
130.1451
 20
116.1922
 30
0.0
 10
130.1451
 20
116.1922
 30
0.0
 10
130.1451
 20
116.1922
 30
0.0
 10
130.1451
 20
116.1922
 30
0.0
 10
120.5001
 20
106.6533
 30
0.0
 10
120.5001
 20
106.6533
 30
0.0
 10
120.5001
 20
106.6533
 30
0.0
 10
120.5001
 20
106.6533
 30
0.0
 10
119.7014
 20
105.7795
 30
0.0
 10
119.7062
 20
104.7764
 30
0.0
 10
119.7062
 20
104.7764
 30
0.0
 10
119.7111
 20
103.7734
 30
0.0
 10
120.307
 20
103.0639
 30
0.0
 10
120.307
 20
103.0639
 30
0.0
 10
120.307
 20
103.0639
 30
0.0
 10
120.307
 20
103.0639
 30
0.0
 10
130.1373
 20
93.2148
 30
0.0
 10
130.1373
 20
93.2148
 30
0.0
 10
130.1373
 20
93.2148
 30
0.0
 10
130.1373
 20
93.2148
 30
0.0
 10
125.7123
 20
88.7898
 30
0.0
 10
125.7123
 20
88.7898
 30
0.0
 10
125.7123
 20
88.7898
 30
0.0
 10
125.7123
 20
88.7898
 30
0.0
 10
116.3859
 20
98.1162
 30
0.0
 10
116.3859
 20
98.1162
 30
0.0
 10
116.3859
 20
98.1162
 30
0.0
 10
116.3859
 20
98.1162
 30
0.0
 10
115.4378
 20
99.255
 30
0.0
 10
114.2875
 20
99.2406
 30
0.0
 10
114.2875
 20
99.2406
 30
0.0
 10
113.1373
 20
99.2261
 30
0.0
 10
112.372
 20
98.3934
 30
0.0
 10
112.372
 20
98.3934
 30
0.0
 10
112.372
 20
98.3934
 30
0.0
 10
112.372
 20
98.3934
 30
0.0
 10
102.8598
 20
88.7026
 30
0.0
 10
102.8598
 20
88.7026
 30
0.0
 10
102.8598
 20
88.7026
 30
0.0
 10
102.8598
 20
88.7026
 30
0.0
 10
98.4009
 20
93.1616
 30
0.0
 10
98.4009
 20
93.1616
 30
0.0
 10
98.4009
 20
93.1616
 30
0.0
 10
98.4009
 20
93.1616
 30
0.0
 10
108.187
 20
103.0542
 30
0.0
 10
108.187
 20
103.0542
 30
0.0
 10
108.187
 20
103.0542
 30
0.0
 10
108.187
 20
103.0542
 30
0.0
 10
108.6847
 20
103.5604
 30
0.0
 10
108.6753
 20
104.7072
 30
0.0
 10
108.6753
 20
104.7072
 30
0.0
 10
108.6753
 20
104.7072
 30
0.0
 10
108.6753
 20
104.7073
 30
0.0
 10
108.6753
 20
104.7073
 30
0.0
  0
SPLINE
  5
52
330
1F
100
AcDbEntity
  8
layer 1
 62
     7
100
AcDbSpline
210
0.0
220
0.0
230
1.0
 70
    11
 71
     3
 72
    20
 73
    16
 74
     0
 42
0.0000000001
 43
0.0000000001
 12
1.0
 22
0.0
 32
0.0
 13
1.0
 23
0.0
 33
0.0
 40
0.0
 40
0.0
 40
0.0
 40
0.0
 40
0.2
 40
0.2
 40
0.2
 40
0.2
 40
0.4
 40
0.4
 40
0.4
 40
0.4
 40
0.6
 40
0.6
 40
0.6
 40
0.6
 40
1.0
 40
1.0
 40
1.0
 40
1.0
 10
125.5791
 20
104.6716
 30
0.0
 10
125.5791
 20
104.6716
 30
0.0
 10
133.5136
 20
112.6061
 30
0.0
 10
133.5136
 20
112.6061
 30
0.0
 10
133.5136
 20
112.6061
 30
0.0
 10
133.5136
 20
112.6061
 30
0.0
 10
141.4482
 20
104.6716
 30
0.0
 10
141.4482
 20
104.6716
 30
0.0
 10
141.4482
 20
104.6716
 30
0.0
 10
141.4482
 20
104.6716
 30
0.0
 10
133.5136
 20
96.7371
 30
0.0
 10
133.5136
 20
96.7371
 30
0.0
 10
133.5136
 20
96.7371
 30
0.0
 10
133.5136
 20
96.7371
 30
0.0
 10
125.5791
 20
104.6716
 30
0.0
 10
125.5791
 20
104.6716
 30
0.0
  0
SPLINE
  5
53
330
1F
100
AcDbEntity
  8
layer 1
 62
     7
100
AcDbSpline
210
0.0
220
0.0
230
1.0
 70
    11
 71
     3
 72
    88
 73
    84
 74
     0
 42
0.0000000001
 43
0.0000000001
 12
1.0
 22
0.0
 32
0.0
 13
1.0
 23
0.0
 33
0.0
 40
0.0
 40
0.0
 40
0.0
 40
0.0
 40
0.0454545454545455
 40
0.0454545454545455
 40
0.0454545454545455
 40
0.0454545454545455
 40
0.0909090909090909
 40
0.0909090909090909
 40
0.0909090909090909
 40
0.0909090909090909
 40
0.1363636363636364
 40
0.1363636363636364
 40
0.1363636363636364
 40
0.1363636363636364
 40
0.1818181818181818
 40
0.1818181818181818
 40
0.1818181818181818
 40
0.1818181818181818
 40
0.2272727272727273
 40
0.2272727272727273
 40
0.2272727272727273
 40
0.2272727272727273
 40
0.2727272727272727
 40
0.2727272727272727
 40
0.2727272727272727
 40
0.2727272727272727
 40
0.3181818181818182
 40
0.3181818181818182
 40
0.3181818181818182
 40
0.3181818181818182
 40
0.3636363636363636
 40
0.3636363636363636
 40
0.3636363636363636
 40
0.3636363636363636
 40
0.4090909090909091
 40
0.4090909090909091
 40
0.4090909090909091
 40
0.4090909090909091
 40
0.4545454545454545
 40
0.4545454545454545
 40
0.4545454545454545
 40
0.4545454545454545
 40
0.5
 40
0.5
 40
0.5
 40
0.5
 40
0.5454545454545454
 40
0.5454545454545454
 40
0.5454545454545454
 40
0.5454545454545454
 40
0.5909090909090909
 40
0.5909090909090909
 40
0.5909090909090909
 40
0.5909090909090909
 40
0.6363636363636364
 40
0.6363636363636364
 40
0.6363636363636364
 40
0.6363636363636364
 40
0.6818181818181818
 40
0.6818181818181818
 40
0.6818181818181818
 40
0.6818181818181818
 40
0.7272727272727273
 40
0.7272727272727273
 40
0.7272727272727273
 40
0.7272727272727273
 40
0.7727272727272727
 40
0.7727272727272727
 40
0.7727272727272727
 40
0.7727272727272727
 40
0.8181818181818182
 40
0.8181818181818182
 40
0.8181818181818182
 40
0.8181818181818182
 40
0.8636363636363636
 40
0.8636363636363636
 40
0.8636363636363636
 40
0.8636363636363636
 40
0.9090909090909091
 40
0.9090909090909091
 40
0.9090909090909091
 40
0.9090909090909091
 40
1.0
 40
1.0
 40
1.0
 40
1.0
 10
147.1374
 20
104.7073
 30
0.0
 10
147.128
 20
105.8541
 30
0.0
 10
146.5595
 20
106.4573
 30
0.0
 10
146.5595
 20
106.4573
 30
0.0
 10
146.5595
 20
106.4573
 30
0.0
 10
146.5595
 20
106.4573
 30
0.0
 10
136.8553
 20
116.2453
 30
0.0
 10
136.8553
 20
116.2453
 30
0.0
 10
136.8553
 20
116.2453
 30
0.0
 10
136.8553
 20
116.2453
 30
0.0
 10
141.1781
 20
120.5681
 30
0.0
 10
141.1781
 20
120.5681
 30
0.0
 10
141.1781
 20
120.5681
 30
0.0
 10
141.1781
 20
120.5681
 30
0.0
 10
150.8425
 20
111.0583
 30
0.0
 10
150.8425
 20
111.0583
 30
0.0
 10
150.8425
 20
111.0583
 30
0.0
 10
150.8425
 20
111.0583
 30
0.0
 10
151.767
 20
110.125
 30
0.0
 10
152.7325
 20
110.2163
 30
0.0
 10
152.7325
 20
110.2163
 30
0.0
 10
153.6982
 20
110.3075
 30
0.0
 10
154.5885
 20
111.0935
 30
0.0
 10
154.5885
 20
111.0935
 30
0.0
 10
154.5885
 20
111.0935
 30
0.0
 10
154.5885
 20
111.0935
 30
0.0
 10
164.2844
 20
120.5151
 30
0.0
 10
164.2844
 20
120.5151
 30
0.0
 10
164.2844
 20
120.5151
 30
0.0
 10
164.2844
 20
120.5151
 30
0.0
 10
168.6072
 20
116.1922
 30
0.0
 10
168.6072
 20
116.1922
 30
0.0
 10
168.6072
 20
116.1922
 30
0.0
 10
168.6072
 20
116.1922
 30
0.0
 10
158.9623
 20
106.6533
 30
0.0
 10
158.9623
 20
106.6533
 30
0.0
 10
158.9623
 20
106.6533
 30
0.0
 10
158.9623
 20
106.6533
 30
0.0
 10
158.1635
 20
105.7795
 30
0.0
 10
158.1684
 20
104.7764
 30
0.0
 10
158.1684
 20
104.7764
 30
0.0
 10
158.1733
 20
103.7734
 30
0.0
 10
158.7692
 20
103.0639
 30
0.0
 10
158.7692
 20
103.0639
 30
0.0
 10
158.7692
 20
103.0639
 30
0.0
 10
158.7692
 20
103.0639
 30
0.0
 10
168.5995
 20
93.2148
 30
0.0
 10
168.5995
 20
93.2148
 30
0.0
 10
168.5995
 20
93.2148
 30
0.0
 10
168.5995
 20
93.2148
 30
0.0
 10
164.1745
 20
88.7898
 30
0.0
 10
164.1745
 20
88.7898
 30
0.0
 10
164.1745
 20
88.7898
 30
0.0
 10
164.1745
 20
88.7898
 30
0.0
 10
154.848
 20
98.1162
 30
0.0
 10
154.848
 20
98.1162
 30
0.0
 10
154.848
 20
98.1162
 30
0.0
 10
154.848
 20
98.1162
 30
0.0
 10
153.9
 20
99.255
 30
0.0
 10
152.7497
 20
99.2406
 30
0.0
 10
152.7497
 20
99.2406
 30
0.0
 10
151.5995
 20
99.2261
 30
0.0
 10
150.8341
 20
98.3934
 30
0.0
 10
150.8341
 20
98.3934
 30
0.0
 10
150.8341
 20
98.3934
 30
0.0
 10
150.8341
 20
98.3934
 30
0.0
 10
141.322
 20
88.7026
 30
0.0
 10
141.322
 20
88.7026
 30
0.0
 10
141.322
 20
88.7026
 30
0.0
 10
141.322
 20
88.7026
 30
0.0
 10
136.863
 20
93.1616
 30
0.0
 10
136.863
 20
93.1616
 30
0.0
 10
136.863
 20
93.1616
 30
0.0
 10
136.863
 20
93.1616
 30
0.0
 10
146.6492
 20
103.0542
 30
0.0
 10
146.6492
 20
103.0542
 30
0.0
 10
146.6492
 20
103.0542
 30
0.0
 10
146.6492
 20
103.0542
 30
0.0
 10
147.1469
 20
103.5604
 30
0.0
 10
147.1374
 20
104.7072
 30
0.0
 10
147.1374
 20
104.7072
 30
0.0
 10
147.1374
 20
104.7072
 30
0.0
 10
147.1374
 20
104.7073
 30
0.0
 10
147.1374
 20
104.7073
 30
0.0
  0
SPLINE
  5
54
330
1F
100
AcDbEntity
  8
layer 1
 62
     7
100
AcDbSpline
210
0.0
220
0.0
230
1.0
 70
    11
 71
     3
 72
    20
 73
    16
 74
     0
 42
0.0000000001
 43
0.0000000001
 12
1.0
 22
0.0
 32
0.0
 13
1.0
 23
0.0
 33
0.0
 40
0.0
 40
0.0
 40
0.0
 40
0.0
 40
0.2
 40
0.2
 40
0.2
 40
0.2
 40
0.4
 40
0.4
 40
0.4
 40
0.4
 40
0.6
 40
0.6
 40
0.6
 40
0.6
 40
1.0
 40
1.0
 40
1.0
 40
1.0
 10
164.0413
 20
104.6716
 30
0.0
 10
164.0413
 20
104.6716
 30
0.0
 10
171.9758
 20
112.6061
 30
0.0
 10
171.9758
 20
112.6061
 30
0.0
 10
171.9758
 20
112.6061
 30
0.0
 10
171.9758
 20
112.6061
 30
0.0
 10
179.9104
 20
104.6716
 30
0.0
 10
179.9104
 20
104.6716
 30
0.0
 10
179.9104
 20
104.6716
 30
0.0
 10
179.9104
 20
104.6716
 30
0.0
 10
171.9758
 20
96.7371
 30
0.0
 10
171.9758
 20
96.7371
 30
0.0
 10
171.9758
 20
96.7371
 30
0.0
 10
171.9758
 20
96.7371
 30
0.0
 10
164.0413
 20
104.6716
 30
0.0
 10
164.0413
 20
104.6716
 30
0.0
  0
SPLINE
  5
55
330
1F
100
AcDbEntity
  8
layer 1
 62
     7
100
AcDbSpline
210
0.0
220
0.0
230
1.0
 70
    11
 71
     3
 72
    20
 73
    16
 74
     0
 42
0.0000000001
 43
0.0000000001
 12
1.0
 22
0.0
 32
0.0
 13
1.0
 23
0.0
 33
0.0
 40
0.0
 40
0.0
 40
0.0
 40
0.0
 40
0.2
 40
0.2
 40
0.2
 40
0.2
 40
0.4
 40
0.4
 40
0.4
 40
0.4
 40
0.6
 40
0.6
 40
0.6
 40
0.6
 40
1.0
 40
1.0
 40
1.0
 40
1.0
 10
87.0258
 20
104.6716
 30
0.0
 10
87.0258
 20
104.6716
 30
0.0
 10
94.9603
 20
112.6061
 30
0.0
 10
94.9603
 20
112.6061
 30
0.0
 10
94.9603
 20
112.6061
 30
0.0
 10
94.9603
 20
112.6061
 30
0.0
 10
102.8949
 20
104.6716
 30
0.0
 10
102.8949
 20
104.6716
 30
0.0
 10
102.8949
 20
104.6716
 30
0.0
 10
102.8949
 20
104.6716
 30
0.0
 10
94.9603
 20
96.7371
 30
0.0
 10
94.9603
 20
96.7371
 30
0.0
 10
94.9603
 20
96.7371
 30
0.0
 10
94.9603
 20
96.7371
 30
0.0
 10
87.0258
 20
104.6716
 30
0.0
 10
87.0258
 20
104.6716
 30
0.0
  0
SPLINE
  5
56
330
1F
100
AcDbEntity
  8
layer 1
 62
     7
100
AcDbSpline
210
0.0
220
0.0
230
1.0
 70
    11
 71
     3
 72
    40
 73
    36
 74
     0
 42
0.0000000001
 43
0.0000000001
 12
1.0
 22
0.0
 32
0.0
 13
1.0
 23
0.0
 33
0.0
 40
0.0
 40
0.0
 40
0.0
 40
0.0
 40
0.1
 40
0.1
 40
0.1
 40
0.1
 40
0.2
 40
0.2
 40
0.2
 40
0.2
 40
0.3
 40
0.3
 40
0.3
 40
0.3
 40
0.4
 40
0.4
 40
0.4
 40
0.4
 40
0.5
 40
0.5
 40
0.5
 40
0.5
 40
0.6
 40
0.6
 40
0.6
 40
0.6
 40
0.7
 40
0.7
 40
0.7
 40
0.7
 40
0.8
 40
0.8
 40
0.8
 40
0.8
 40
1.0
 40
1.0
 40
1.0
 40
1.0
 10
78.8623
 20
112.4347
 30
0.0
 10
78.8623
 20
112.4347
 30
0.0
 10
87.1779
 20
120.5149
 30
0.0
 10
87.1779
 20
120.5149
 30
0.0
 10
87.1779
 20
120.5149
 30
0.0
 10
87.1779
 20
120.5149
 30
0.0
 10
91.5007
 20
116.1921
 30
0.0
 10
91.5007
 20
116.1921
 30
0.0
 10
91.5007
 20
116.1921
 30
0.0
 10
91.5007
 20
116.1921
 30
0.0
 10
81.8557
 20
106.6531
 30
0.0
 10
81.8557
 20
106.6531
 30
0.0
 10
81.8557
 20
106.6531
 30
0.0
 10
81.8557
 20
106.6531
 30
0.0
 10
81.057
 20
105.7794
 30
0.0
 10
81.0619
 20
104.7763
 30
0.0
 10
81.0619
 20
104.7763
 30
0.0
 10
81.0667
 20
103.7733
 30
0.0
 10
81.6627
 20
103.0638
 30
0.0
 10
81.6627
 20
103.0638
 30
0.0
 10
81.6627
 20
103.0638
 30
0.0
 10
81.6627
 20
103.0638
 30
0.0
 10
91.493
 20
93.2147
 30
0.0
 10
91.493
 20
93.2147
 30
0.0
 10
91.493
 20
93.2147
 30
0.0
 10
91.493
 20
93.2147
 30
0.0
 10
87.0679
 20
88.7897
 30
0.0
 10
87.0679
 20
88.7897
 30
0.0
 10
87.0679
 20
88.7897
 30
0.0
 10
87.0679
 20
88.7897
 30
0.0
 10
78.8611
 20
96.9965
 30
0.0
 10
78.8611
 20
96.9965
 30
0.0
 10
78.8611
 20
96.9965
 30
0.0
 10
78.8611
 20
96.9965
 30
0.0
 10
78.8623
 20
112.4347
 30
0.0
 10
78.8623
 20
112.4347
 30
0.0
  0
SPLINE
  5
57
330
1F
100
AcDbEntity
  8
layer 1
 62
     7
100
AcDbSpline
210
0.0
220
0.0
230
1.0
 70
    11
 71
     3
 72
    40
 73
    36
 74
     0
 42
0.0000000001
 43
0.0000000001
 12
1.0
 22
0.0
 32
0.0
 13
1.0
 23
0.0
 33
0.0
 40
0.0
 40
0.0
 40
0.0
 40
0.0
 40
0.1
 40
0.1
 40
0.1
 40
0.1
 40
0.2
 40
0.2
 40
0.2
 40
0.2
 40
0.3
 40
0.3
 40
0.3
 40
0.3
 40
0.4
 40
0.4
 40
0.4
 40
0.4
 40
0.5
 40
0.5
 40
0.5
 40
0.5
 40
0.6
 40
0.6
 40
0.6
 40
0.6
 40
0.7
 40
0.7
 40
0.7
 40
0.7
 40
0.8
 40
0.8
 40
0.8
 40
0.8
 40
1.0
 40
1.0
 40
1.0
 40
1.0
 10
188.1107
 20
112.4347
 30
0.0
 10
188.1107
 20
112.4347
 30
0.0
 10
179.7952
 20
120.5149
 30
0.0
 10
179.7952
 20
120.5149
 30
0.0
 10
179.7952
 20
120.5149
 30
0.0
 10
179.7952
 20
120.5149
 30
0.0
 10
175.4723
 20
116.1921
 30
0.0
 10
175.4723
 20
116.1921
 30
0.0
 10
175.4723
 20
116.1921
 30
0.0
 10
175.4723
 20
116.1921
 30
0.0
 10
185.1173
 20
106.6531
 30
0.0
 10
185.1173
 20
106.6531
 30
0.0
 10
185.1173
 20
106.6531
 30
0.0
 10
185.1173
 20
106.6531
 30
0.0
 10
185.916
 20
105.7794
 30
0.0
 10
185.9112
 20
104.7763
 30
0.0
 10
185.9112
 20
104.7763
 30
0.0
 10
185.9063
 20
103.7733
 30
0.0
 10
185.3104
 20
103.0638
 30
0.0
 10
185.3104
 20
103.0638
 30
0.0
 10
185.3104
 20
103.0638
 30
0.0
 10
185.3104
 20
103.0638
 30
0.0
 10
175.4801
 20
93.2147
 30
0.0
 10
175.4801
 20
93.2147
 30
0.0
 10
175.4801
 20
93.2147
 30
0.0
 10
175.4801
 20
93.2147
 30
0.0
 10
179.9051
 20
88.7897
 30
0.0
 10
179.9051
 20
88.7897
 30
0.0
 10
179.9051
 20
88.7897
 30
0.0
 10
179.9051
 20
88.7897
 30
0.0
 10
188.1119
 20
96.9965
 30
0.0
 10
188.1119
 20
96.9965
 30
0.0
 10
188.1119
 20
96.9965
 30
0.0
 10
188.1119
 20
96.9965
 30
0.0
 10
188.1107
 20
112.4347
 30
0.0
 10
188.1107
 20
112.4347
 30
0.0
  0
SPLINE
  5
58
330
1F
100
AcDbEntity
  8
layer 1
 62
     7
100
AcDbSpline
210
0.0
220
0.0
230
1.0
 70
    11
 71
     3
 72
    20
 73
    16
 74
     0
 42
0.0000000001
 43
0.0000000001
 12
1.0
 22
0.0
 32
0.0
 13
1.0
 23
0.0
 33
0.0
 40
0.0
 40
0.0
 40
0.0
 40
0.0
 40
0.2
 40
0.2
 40
0.2
 40
0.2
 40
0.4
 40
0.4
 40
0.4
 40
0.4
 40
0.6
 40
0.6
 40
0.6
 40
0.6
 40
1.0
 40
1.0
 40
1.0
 40
1.0
 10
82.768
 20
124.8676
 30
0.0
 10
82.768
 20
124.8676
 30
0.0
 10
83.6417
 20
123.9939
 30
0.0
 10
83.6417
 20
123.9939
 30
0.0
 10
83.6417
 20
123.9939
 30
0.0
 10
83.6417
 20
123.9939
 30
0.0
 10
78.7416
 20
119.0937
 30
0.0
 10
78.7416
 20
119.0937
 30
0.0
 10
78.7416
 20
119.0937
 30
0.0
 10
78.7416
 20
119.0937
 30
0.0
 10
78.7697
 20
124.8776
 30
0.0
 10
78.7697
 20
124.8776
 30
0.0
 10
78.7697
 20
124.8776
 30
0.0
 10
78.7697
 20
124.8776
 30
0.0
 10
82.768
 20
124.8676
 30
0.0
 10
82.768
 20
124.8676
 30
0.0
  0
SPLINE
  5
59
330
1F
100
AcDbEntity
  8
layer 1
 62
     7
100
AcDbSpline
210
0.0
220
0.0
230
1.0
 70
    11
 71
     3
 72
    24
 73
    20
 74
     0
 42
0.0000000001
 43
0.0000000001
 12
1.0
 22
0.0
 32
0.0
 13
1.0
 23
0.0
 33
0.0
 40
0.0
 40
0.0
 40
0.0
 40
0.0
 40
0.1666666666666667
 40
0.1666666666666667
 40
0.1666666666666667
 40
0.1666666666666667
 40
0.3333333333333333
 40
0.3333333333333333
 40
0.3333333333333333
 40
0.3333333333333333
 40
0.5
 40
0.5
 40
0.5
 40
0.5
 40
0.6666666666666666
 40
0.6666666666666666
 40
0.6666666666666666
 40
0.6666666666666666
 40
1.0
 40
1.0
 40
1.0
 40
1.0
 10
106.2569
 20
123.9027
 30
0.0
 10
106.2569
 20
123.9027
 30
0.0
 10
107.2102
 20
124.856
 30
0.0
 10
107.2102
 20
124.856
 30
0.0
 10
107.2102
 20
124.856
 30
0.0
 10
107.2102
 20
124.856
 30
0.0
 10
121.1479
 20
124.8807
 30
0.0
 10
121.1479
 20
124.8807
 30
0.0
 10
121.1479
 20
124.8807
 30
0.0
 10
121.1479
 20
124.8807
 30
0.0
 10
122.1259
 20
123.9027
 30
0.0
 10
122.1259
 20
123.9027
 30
0.0
 10
122.1259
 20
123.9027
 30
0.0
 10
122.1259
 20
123.9027
 30
0.0
 10
114.1914
 20
115.9682
 30
0.0
 10
114.1914
 20
115.9682
 30
0.0
 10
114.1914
 20
115.9682
 30
0.0
 10
114.1914
 20
115.9682
 30
0.0
 10
106.2569
 20
123.9027
 30
0.0
 10
106.2569
 20
123.9027
 30
0.0
  0
SPLINE
  5
5A
330
1F
100
AcDbEntity
  8
layer 1
 62
     7
100
AcDbSpline
210
0.0
220
0.0
230
1.0
 70
    11
 71
     3
 72
    20
 73
    16
 74
     0
 42
0.0000000001
 43
0.0000000001
 12
1.0
 22
0.0
 32
0.0
 13
1.0
 23
0.0
 33
0.0
 40
0.0
 40
0.0
 40
0.0
 40
0.0
 40
0.2
 40
0.2
 40
0.2
 40
0.2
 40
0.4
 40
0.4
 40
0.4
 40
0.4
 40
0.6
 40
0.6
 40
0.6
 40
0.6
 40
1.0
 40
1.0
 40
1.0
 40
1.0
 10
106.2569
 20
46.9523
 30
0.0
 10
106.2569
 20
46.9523
 30
0.0
 10
114.1914
 20
54.8869
 30
0.0
 10
114.1914
 20
54.8869
 30
0.0
 10
114.1914
 20
54.8869
 30
0.0
 10
114.1914
 20
54.8869
 30
0.0
 10
122.1259
 20
46.9523
 30
0.0
 10
122.1259
 20
46.9523
 30
0.0
 10
122.1259
 20
46.9523
 30
0.0
 10
122.1259
 20
46.9523
 30
0.0
 10
114.1914
 20
39.0178
 30
0.0
 10
114.1914
 20
39.0178
 30
0.0
 10
114.1914
 20
39.0178
 30
0.0
 10
114.1914
 20
39.0178
 30
0.0
 10
106.2569
 20
46.9523
 30
0.0
 10
106.2569
 20
46.9523
 30
0.0
  0
SPLINE
  5
5B
330
1F
100
AcDbEntity
  8
layer 1
 62
     7
100
AcDbSpline
210
0.0
220
0.0
230
1.0
 70
    11
 71
     3
 72
    20
 73
    16
 74
     0
 42
0.0000000001
 43
0.0000000001
 12
1.0
 22
0.0
 32
0.0
 13
1.0
 23
0.0
 33
0.0
 40
0.0
 40
0.0
 40
0.0
 40
0.0
 40
0.2
 40
0.2
 40
0.2
 40
0.2
 40
0.4
 40
0.4
 40
0.4
 40
0.4
 40
0.6
 40
0.6
 40
0.6
 40
0.6
 40
1.0
 40
1.0
 40
1.0
 40
1.0
 10
91.1036
 20
46.8324
 30
0.0
 10
91.1036
 20
46.8324
 30
0.0
 10
95.178
 20
50.9067
 30
0.0
 10
95.178
 20
50.9067
 30
0.0
 10
95.178
 20
50.9067
 30
0.0
 10
95.178
 20
50.9067
 30
0.0
 10
99.2523
 20
46.8324
 30
0.0
 10
99.2523
 20
46.8324
 30
0.0
 10
99.2523
 20
46.8324
 30
0.0
 10
99.2523
 20
46.8324
 30
0.0
 10
95.178
 20
42.7581
 30
0.0
 10
95.178
 20
42.7581
 30
0.0
 10
95.178
 20
42.7581
 30
0.0
 10
95.178
 20
42.7581
 30
0.0
 10
91.1036
 20
46.8324
 30
0.0
 10
91.1036
 20
46.8324
 30
0.0
  0
SPLINE
  5
5C
330
1F
100
AcDbEntity
  8
layer 1
 62
     7
100
AcDbSpline
210
0.0
220
0.0
230
1.0
 70
    11
 71
     3
 72
    84
 73
    80
 74
     0
 42
0.0000000001
 43
0.0000000001
 12
1.0
 22
0.0
 32
0.0
 13
1.0
 23
0.0
 33
0.0
 40
0.0
 40
0.0
 40
0.0
 40
0.0
 40
0.0476190476190476
 40
0.0476190476190476
 40
0.0476190476190476
 40
0.0476190476190476
 40
0.0952380952380952
 40
0.0952380952380952
 40
0.0952380952380952
 40
0.0952380952380952
 40
0.1428571428571428
 40
0.1428571428571428
 40
0.1428571428571428
 40
0.1428571428571428
 40
0.1904761904761905
 40
0.1904761904761905
 40
0.1904761904761905
 40
0.1904761904761905
 40
0.2380952380952381
 40
0.2380952380952381
 40
0.2380952380952381
 40
0.2380952380952381
 40
0.2857142857142857
 40
0.2857142857142857
 40
0.2857142857142857
 40
0.2857142857142857
 40
0.3333333333333333
 40
0.3333333333333333
 40
0.3333333333333333
 40
0.3333333333333333
 40
0.3809523809523809
 40
0.3809523809523809
 40
0.3809523809523809
 40
0.3809523809523809
 40
0.4285714285714285
 40
0.4285714285714285
 40
0.4285714285714285
 40
0.4285714285714285
 40
0.4761904761904762
 40
0.4761904761904762
 40
0.4761904761904762
 40
0.4761904761904762
 40
0.5238095238095238
 40
0.5238095238095238
 40
0.5238095238095238
 40
0.5238095238095238
 40
0.5714285714285714
 40
0.5714285714285714
 40
0.5714285714285714
 40
0.5714285714285714
 40
0.6190476190476191
 40
0.6190476190476191
 40
0.6190476190476191
 40
0.6190476190476191
 40
0.6666666666666666
 40
0.6666666666666666
 40
0.6666666666666666
 40
0.6666666666666666
 40
0.7142857142857143
 40
0.7142857142857143
 40
0.7142857142857143
 40
0.7142857142857143
 40
0.7619047619047619
 40
0.7619047619047619
 40
0.7619047619047619
 40
0.7619047619047619
 40
0.8095238095238095
 40
0.8095238095238095
 40
0.8095238095238095
 40
0.8095238095238095
 40
0.8571428571428571
 40
0.8571428571428571
 40
0.8571428571428571
 40
0.8571428571428571
 40
0.9047619047619048
 40
0.9047619047619048
 40
0.9047619047619048
 40
0.9047619047619048
 40
1.0
 40
1.0
 40
1.0
 40
1.0
 10
108.6753
 20
27.7568
 30
0.0
 10
108.6658
 20
28.9037
 30
0.0
 10
108.0973
 20
29.5068
 30
0.0
 10
108.0973
 20
29.5068
 30
0.0
 10
108.0973
 20
29.5068
 30
0.0
 10
108.0973
 20
29.5068
 30
0.0
 10
98.3931
 20
39.2948
 30
0.0
 10
98.3931
 20
39.2948
 30
0.0
 10
98.3931
 20
39.2948
 30
0.0
 10
98.3931
 20
39.2948
 30
0.0
 10
102.716
 20
43.6176
 30
0.0
 10
102.716
 20
43.6176
 30
0.0
 10
102.716
 20
43.6176
 30
0.0
 10
102.716
 20
43.6176
 30
0.0
 10
112.3804
 20
34.1078
 30
0.0
 10
112.3804
 20
34.1078
 30
0.0
 10
112.3804
 20
34.1078
 30
0.0
 10
112.3804
 20
34.1078
 30
0.0
 10
113.3048
 20
33.1745
 30
0.0
 10
114.2703
 20
33.2658
 30
0.0
 10
114.2703
 20
33.2658
 30
0.0
 10
115.236
 20
33.357
 30
0.0
 10
116.1263
 20
34.143
 30
0.0
 10
116.1263
 20
34.143
 30
0.0
 10
116.1263
 20
34.143
 30
0.0
 10
116.1263
 20
34.143
 30
0.0
 10
125.8222
 20
43.5646
 30
0.0
 10
125.8222
 20
43.5646
 30
0.0
 10
125.8222
 20
43.5646
 30
0.0
 10
125.8222
 20
43.5646
 30
0.0
 10
130.1451
 20
39.2418
 30
0.0
 10
130.1451
 20
39.2418
 30
0.0
 10
130.1451
 20
39.2418
 30
0.0
 10
130.1451
 20
39.2418
 30
0.0
 10
120.5001
 20
29.7028
 30
0.0
 10
120.5001
 20
29.7028
 30
0.0
 10
120.5001
 20
29.7028
 30
0.0
 10
120.5001
 20
29.7028
 30
0.0
 10
119.7014
 20
28.8291
 30
0.0
 10
119.7062
 20
27.8259
 30
0.0
 10
119.7062
 20
27.8259
 30
0.0
 10
119.7111
 20
26.823
 30
0.0
 10
120.307
 20
26.1134
 30
0.0
 10
120.307
 20
26.1134
 30
0.0
 10
120.307
 20
26.1134
 30
0.0
 10
120.307
 20
26.1134
 30
0.0
 10
130.1373
 20
16.2643
 30
0.0
 10
130.1373
 20
16.2643
 30
0.0
 10
130.1373
 20
16.2643
 30
0.0
 10
130.1373
 20
16.2643
 30
0.0
 10
125.7123
 20
11.8393
 30
0.0
 10
125.7123
 20
11.8393
 30
0.0
 10
125.7123
 20
11.8393
 30
0.0
 10
125.7123
 20
11.8393
 30
0.0
 10
116.3859
 20
21.1657
 30
0.0
 10
116.3859
 20
21.1657
 30
0.0
 10
116.3859
 20
21.1657
 30
0.0
 10
116.3859
 20
21.1657
 30
0.0
 10
115.4378
 20
22.3045
 30
0.0
 10
114.2875
 20
22.2901
 30
0.0
 10
114.2875
 20
22.2901
 30
0.0
 10
113.1373
 20
22.2756
 30
0.0
 10
112.372
 20
21.4429
 30
0.0
 10
112.372
 20
21.4429
 30
0.0
 10
112.372
 20
21.4429
 30
0.0
 10
112.372
 20
21.4429
 30
0.0
 10
102.8598
 20
11.7522
 30
0.0
 10
102.8598
 20
11.7522
 30
0.0
 10
102.8598
 20
11.7522
 30
0.0
 10
102.8598
 20
11.7522
 30
0.0
 10
98.4009
 20
16.2113
 30
0.0
 10
98.4009
 20
16.2113
 30
0.0
 10
98.4009
 20
16.2113
 30
0.0
 10
98.4009
 20
16.2113
 30
0.0
 10
108.187
 20
26.1038
 30
0.0
 10
108.187
 20
26.1038
 30
0.0
 10
108.187
 20
26.1038
 30
0.0
 10
108.187
 20
26.1038
 30
0.0
 10
108.6847
 20
26.61
 30
0.0
 10
108.6753
 20
27.7568
 30
0.0
  0
SPLINE
  5
5D
330
1F
100
AcDbEntity
  8
layer 1
 62
     7
100
AcDbSpline
210
0.0
220
0.0
230
1.0
 70
    11
 71
     3
 72
    20
 73
    16
 74
     0
 42
0.0000000001
 43
0.0000000001
 12
1.0
 22
0.0
 32
0.0
 13
1.0
 23
0.0
 33
0.0
 40
0.0
 40
0.0
 40
0.0
 40
0.0
 40
0.2
 40
0.2
 40
0.2
 40
0.2
 40
0.4
 40
0.4
 40
0.4
 40
0.4
 40
0.6
 40
0.6
 40
0.6
 40
0.6
 40
1.0
 40
1.0
 40
1.0
 40
1.0
 10
125.5791
 20
27.7213
 30
0.0
 10
125.5791
 20
27.7213
 30
0.0
 10
133.5136
 20
35.6558
 30
0.0
 10
133.5136
 20
35.6558
 30
0.0
 10
133.5136
 20
35.6558
 30
0.0
 10
133.5136
 20
35.6558
 30
0.0
 10
141.4482
 20
27.7213
 30
0.0
 10
141.4482
 20
27.7213
 30
0.0
 10
141.4482
 20
27.7213
 30
0.0
 10
141.4482
 20
27.7213
 30
0.0
 10
133.5136
 20
19.7867
 30
0.0
 10
133.5136
 20
19.7867
 30
0.0
 10
133.5136
 20
19.7867
 30
0.0
 10
133.5136
 20
19.7867
 30
0.0
 10
125.5791
 20
27.7213
 30
0.0
 10
125.5791
 20
27.7213
 30
0.0
  0
SPLINE
  5
5E
330
1F
100
AcDbEntity
  8
layer 1
 62
     7
100
AcDbSpline
210
0.0
220
0.0
230
1.0
 70
    11
 71
     3
 72
    88
 73
    84
 74
     0
 42
0.0000000001
 43
0.0000000001
 12
1.0
 22
0.0
 32
0.0
 13
1.0
 23
0.0
 33
0.0
 40
0.0
 40
0.0
 40
0.0
 40
0.0
 40
0.0454545454545455
 40
0.0454545454545455
 40
0.0454545454545455
 40
0.0454545454545455
 40
0.0909090909090909
 40
0.0909090909090909
 40
0.0909090909090909
 40
0.0909090909090909
 40
0.1363636363636364
 40
0.1363636363636364
 40
0.1363636363636364
 40
0.1363636363636364
 40
0.1818181818181818
 40
0.1818181818181818
 40
0.1818181818181818
 40
0.1818181818181818
 40
0.2272727272727273
 40
0.2272727272727273
 40
0.2272727272727273
 40
0.2272727272727273
 40
0.2727272727272727
 40
0.2727272727272727
 40
0.2727272727272727
 40
0.2727272727272727
 40
0.3181818181818182
 40
0.3181818181818182
 40
0.3181818181818182
 40
0.3181818181818182
 40
0.3636363636363636
 40
0.3636363636363636
 40
0.3636363636363636
 40
0.3636363636363636
 40
0.4090909090909091
 40
0.4090909090909091
 40
0.4090909090909091
 40
0.4090909090909091
 40
0.4545454545454545
 40
0.4545454545454545
 40
0.4545454545454545
 40
0.4545454545454545
 40
0.5
 40
0.5
 40
0.5
 40
0.5
 40
0.5454545454545454
 40
0.5454545454545454
 40
0.5454545454545454
 40
0.5454545454545454
 40
0.5909090909090909
 40
0.5909090909090909
 40
0.5909090909090909
 40
0.5909090909090909
 40
0.6363636363636364
 40
0.6363636363636364
 40
0.6363636363636364
 40
0.6363636363636364
 40
0.6818181818181818
 40
0.6818181818181818
 40
0.6818181818181818
 40
0.6818181818181818
 40
0.7272727272727273
 40
0.7272727272727273
 40
0.7272727272727273
 40
0.7272727272727273
 40
0.7727272727272727
 40
0.7727272727272727
 40
0.7727272727272727
 40
0.7727272727272727
 40
0.8181818181818182
 40
0.8181818181818182
 40
0.8181818181818182
 40
0.8181818181818182
 40
0.8636363636363636
 40
0.8636363636363636
 40
0.8636363636363636
 40
0.8636363636363636
 40
0.9090909090909091
 40
0.9090909090909091
 40
0.9090909090909091
 40
0.9090909090909091
 40
1.0
 40
1.0
 40
1.0
 40
1.0
 10
147.1374
 20
27.7568
 30
0.0
 10
147.128
 20
28.9037
 30
0.0
 10
146.5595
 20
29.5068
 30
0.0
 10
146.5595
 20
29.5068
 30
0.0
 10
146.5595
 20
29.5068
 30
0.0
 10
146.5595
 20
29.5068
 30
0.0
 10
136.8553
 20
39.2948
 30
0.0
 10
136.8553
 20
39.2948
 30
0.0
 10
136.8553
 20
39.2948
 30
0.0
 10
136.8553
 20
39.2948
 30
0.0
 10
141.1781
 20
43.6176
 30
0.0
 10
141.1781
 20
43.6176
 30
0.0
 10
141.1781
 20
43.6176
 30
0.0
 10
141.1781
 20
43.6176
 30
0.0
 10
150.8425
 20
34.1078
 30
0.0
 10
150.8425
 20
34.1078
 30
0.0
 10
150.8425
 20
34.1078
 30
0.0
 10
150.8425
 20
34.1078
 30
0.0
 10
151.767
 20
33.1745
 30
0.0
 10
152.7325
 20
33.2658
 30
0.0
 10
152.7325
 20
33.2658
 30
0.0
 10
153.6982
 20
33.357
 30
0.0
 10
154.5885
 20
34.143
 30
0.0
 10
154.5885
 20
34.143
 30
0.0
 10
154.5885
 20
34.143
 30
0.0
 10
154.5885
 20
34.143
 30
0.0
 10
164.2844
 20
43.5646
 30
0.0
 10
164.2844
 20
43.5646
 30
0.0
 10
164.2844
 20
43.5646
 30
0.0
 10
164.2844
 20
43.5646
 30
0.0
 10
168.6072
 20
39.2418
 30
0.0
 10
168.6072
 20
39.2418
 30
0.0
 10
168.6072
 20
39.2418
 30
0.0
 10
168.6072
 20
39.2418
 30
0.0
 10
158.9623
 20
29.7028
 30
0.0
 10
158.9623
 20
29.7028
 30
0.0
 10
158.9623
 20
29.7028
 30
0.0
 10
158.9623
 20
29.7028
 30
0.0
 10
158.1635
 20
28.8291
 30
0.0
 10
158.1684
 20
27.8259
 30
0.0
 10
158.1684
 20
27.8259
 30
0.0
 10
158.1733
 20
26.823
 30
0.0
 10
158.7692
 20
26.1134
 30
0.0
 10
158.7692
 20
26.1134
 30
0.0
 10
158.7692
 20
26.1134
 30
0.0
 10
158.7692
 20
26.1134
 30
0.0
 10
168.5995
 20
16.2643
 30
0.0
 10
168.5995
 20
16.2643
 30
0.0
 10
168.5995
 20
16.2643
 30
0.0
 10
168.5995
 20
16.2643
 30
0.0
 10
164.1745
 20
11.8393
 30
0.0
 10
164.1745
 20
11.8393
 30
0.0
 10
164.1745
 20
11.8393
 30
0.0
 10
164.1745
 20
11.8393
 30
0.0
 10
154.848
 20
21.1657
 30
0.0
 10
154.848
 20
21.1657
 30
0.0
 10
154.848
 20
21.1657
 30
0.0
 10
154.848
 20
21.1657
 30
0.0
 10
153.9
 20
22.3045
 30
0.0
 10
152.7497
 20
22.2901
 30
0.0
 10
152.7497
 20
22.2901
 30
0.0
 10
151.5995
 20
22.2756
 30
0.0
 10
150.8341
 20
21.4429
 30
0.0
 10
150.8341
 20
21.4429
 30
0.0
 10
150.8341
 20
21.4429
 30
0.0
 10
150.8341
 20
21.4429
 30
0.0
 10
141.322
 20
11.7522
 30
0.0
 10
141.322
 20
11.7522
 30
0.0
 10
141.322
 20
11.7522
 30
0.0
 10
141.322
 20
11.7522
 30
0.0
 10
136.8629
 20
16.2113
 30
0.0
 10
136.8629
 20
16.2113
 30
0.0
 10
136.8629
 20
16.2113
 30
0.0
 10
136.8629
 20
16.2113
 30
0.0
 10
146.6492
 20
26.104
 30
0.0
 10
146.6492
 20
26.104
 30
0.0
 10
146.6492
 20
26.104
 30
0.0
 10
146.6492
 20
26.104
 30
0.0
 10
147.1469
 20
26.6102
 30
0.0
 10
147.1374
 20
27.757
 30
0.0
 10
147.1374
 20
27.757
 30
0.0
 10
147.1374
 20
27.757
 30
0.0
 10
147.1374
 20
27.7568
 30
0.0
 10
147.1374
 20
27.7568
 30
0.0
  0
SPLINE
  5
5F
330
1F
100
AcDbEntity
  8
layer 1
 62
     7
100
AcDbSpline
210
0.0
220
0.0
230
1.0
 70
    11
 71
     3
 72
    20
 73
    16
 74
     0
 42
0.0000000001
 43
0.0000000001
 12
1.0
 22
0.0
 32
0.0
 13
1.0
 23
0.0
 33
0.0
 40
0.0
 40
0.0
 40
0.0
 40
0.0
 40
0.2
 40
0.2
 40
0.2
 40
0.2
 40
0.4
 40
0.4
 40
0.4
 40
0.4
 40
0.6
 40
0.6
 40
0.6
 40
0.6
 40
1.0
 40
1.0
 40
1.0
 40
1.0
 10
164.0413
 20
27.7213
 30
0.0
 10
164.0413
 20
27.7213
 30
0.0
 10
171.9758
 20
35.6558
 30
0.0
 10
171.9758
 20
35.6558
 30
0.0
 10
171.9758
 20
35.6558
 30
0.0
 10
171.9758
 20
35.6558
 30
0.0
 10
179.9104
 20
27.7213
 30
0.0
 10
179.9104
 20
27.7213
 30
0.0
 10
179.9104
 20
27.7213
 30
0.0
 10
179.9104
 20
27.7213
 30
0.0
 10
171.9758
 20
19.7867
 30
0.0
 10
171.9758
 20
19.7867
 30
0.0
 10
171.9758
 20
19.7867
 30
0.0
 10
171.9758
 20
19.7867
 30
0.0
 10
164.0413
 20
27.7213
 30
0.0
 10
164.0413
 20
27.7213
 30
0.0
  0
SPLINE
  5
60
330
1F
100
AcDbEntity
  8
layer 1
 62
     7
100
AcDbSpline
210
0.0
220
0.0
230
1.0
 70
    11
 71
     3
 72
    20
 73
    16
 74
     0
 42
0.0000000001
 43
0.0000000001
 12
1.0
 22
0.0
 32
0.0
 13
1.0
 23
0.0
 33
0.0
 40
0.0
 40
0.0
 40
0.0
 40
0.0
 40
0.2
 40
0.2
 40
0.2
 40
0.2
 40
0.4
 40
0.4
 40
0.4
 40
0.4
 40
0.6
 40
0.6
 40
0.6
 40
0.6
 40
1.0
 40
1.0
 40
1.0
 40
1.0
 10
87.0258
 20
27.7213
 30
0.0
 10
87.0258
 20
27.7213
 30
0.0
 10
94.9603
 20
35.6558
 30
0.0
 10
94.9603
 20
35.6558
 30
0.0
 10
94.9603
 20
35.6558
 30
0.0
 10
94.9603
 20
35.6558
 30
0.0
 10
102.8949
 20
27.7213
 30
0.0
 10
102.8949
 20
27.7213
 30
0.0
 10
102.8949
 20
27.7213
 30
0.0
 10
102.8949
 20
27.7213
 30
0.0
 10
94.9603
 20
19.7867
 30
0.0
 10
94.9603
 20
19.7867
 30
0.0
 10
94.9603
 20
19.7867
 30
0.0
 10
94.9603
 20
19.7867
 30
0.0
 10
87.0258
 20
27.7213
 30
0.0
 10
87.0258
 20
27.7213
 30
0.0
  0
SPLINE
  5
61
330
1F
100
AcDbEntity
  8
layer 1
 62
     7
100
AcDbSpline
210
0.0
220
0.0
230
1.0
 70
    11
 71
     3
 72
    40
 73
    36
 74
     0
 42
0.0000000001
 43
0.0000000001
 12
1.0
 22
0.0
 32
0.0
 13
1.0
 23
0.0
 33
0.0
 40
0.0
 40
0.0
 40
0.0
 40
0.0
 40
0.1
 40
0.1
 40
0.1
 40
0.1
 40
0.2
 40
0.2
 40
0.2
 40
0.2
 40
0.3
 40
0.3
 40
0.3
 40
0.3
 40
0.4
 40
0.4
 40
0.4
 40
0.4
 40
0.5
 40
0.5
 40
0.5
 40
0.5
 40
0.6
 40
0.6
 40
0.6
 40
0.6
 40
0.7
 40
0.7
 40
0.7
 40
0.7
 40
0.8
 40
0.8
 40
0.8
 40
0.8
 40
1.0
 40
1.0
 40
1.0
 40
1.0
 10
78.8623
 20
35.4844
 30
0.0
 10
78.8623
 20
35.4844
 30
0.0
 10
87.1779
 20
43.5646
 30
0.0
 10
87.1779
 20
43.5646
 30
0.0
 10
87.1779
 20
43.5646
 30
0.0
 10
87.1779
 20
43.5646
 30
0.0
 10
91.5007
 20
39.2418
 30
0.0
 10
91.5007
 20
39.2418
 30
0.0
 10
91.5007
 20
39.2418
 30
0.0
 10
91.5007
 20
39.2418
 30
0.0
 10
81.8557
 20
29.7028
 30
0.0
 10
81.8557
 20
29.7028
 30
0.0
 10
81.8557
 20
29.7028
 30
0.0
 10
81.8557
 20
29.7028
 30
0.0
 10
81.057
 20
28.8291
 30
0.0
 10
81.0619
 20
27.8259
 30
0.0
 10
81.0619
 20
27.8259
 30
0.0
 10
81.0667
 20
26.823
 30
0.0
 10
81.6627
 20
26.1134
 30
0.0
 10
81.6627
 20
26.1134
 30
0.0
 10
81.6627
 20
26.1134
 30
0.0
 10
81.6627
 20
26.1134
 30
0.0
 10
91.493
 20
16.2643
 30
0.0
 10
91.493
 20
16.2643
 30
0.0
 10
91.493
 20
16.2643
 30
0.0
 10
91.493
 20
16.2643
 30
0.0
 10
87.0679
 20
11.8393
 30
0.0
 10
87.0679
 20
11.8393
 30
0.0
 10
87.0679
 20
11.8393
 30
0.0
 10
87.0679
 20
11.8393
 30
0.0
 10
78.8611
 20
20.0461
 30
0.0
 10
78.8611
 20
20.0461
 30
0.0
 10
78.8611
 20
20.0461
 30
0.0
 10
78.8611
 20
20.0461
 30
0.0
 10
78.8623
 20
35.4844
 30
0.0
 10
78.8623
 20
35.4844
 30
0.0
  0
SPLINE
  5
62
330
1F
100
AcDbEntity
  8
layer 1
 62
     7
100
AcDbSpline
210
0.0
220
0.0
230
1.0
 70
    11
 71
     3
 72
    40
 73
    36
 74
     0
 42
0.0000000001
 43
0.0000000001
 12
1.0
 22
0.0
 32
0.0
 13
1.0
 23
0.0
 33
0.0
 40
0.0
 40
0.0
 40
0.0
 40
0.0
 40
0.1
 40
0.1
 40
0.1
 40
0.1
 40
0.2
 40
0.2
 40
0.2
 40
0.2
 40
0.3
 40
0.3
 40
0.3
 40
0.3
 40
0.4
 40
0.4
 40
0.4
 40
0.4
 40
0.5
 40
0.5
 40
0.5
 40
0.5
 40
0.6
 40
0.6
 40
0.6
 40
0.6
 40
0.7
 40
0.7
 40
0.7
 40
0.7
 40
0.8
 40
0.8
 40
0.8
 40
0.8
 40
1.0
 40
1.0
 40
1.0
 40
1.0
 10
188.1107
 20
35.4844
 30
0.0
 10
188.1107
 20
35.4844
 30
0.0
 10
179.7952
 20
43.5646
 30
0.0
 10
179.7952
 20
43.5646
 30
0.0
 10
179.7952
 20
43.5646
 30
0.0
 10
179.7952
 20
43.5646
 30
0.0
 10
175.4723
 20
39.2418
 30
0.0
 10
175.4723
 20
39.2418
 30
0.0
 10
175.4723
 20
39.2418
 30
0.0
 10
175.4723
 20
39.2418
 30
0.0
 10
185.1173
 20
29.7028
 30
0.0
 10
185.1173
 20
29.7028
 30
0.0
 10
185.1173
 20
29.7028
 30
0.0
 10
185.1173
 20
29.7028
 30
0.0
 10
185.916
 20
28.8291
 30
0.0
 10
185.9112
 20
27.8259
 30
0.0
 10
185.9112
 20
27.8259
 30
0.0
 10
185.9063
 20
26.823
 30
0.0
 10
185.3104
 20
26.1134
 30
0.0
 10
185.3104
 20
26.1134
 30
0.0
 10
185.3104
 20
26.1134
 30
0.0
 10
185.3104
 20
26.1134
 30
0.0
 10
175.4801
 20
16.2643
 30
0.0
 10
175.4801
 20
16.2643
 30
0.0
 10
175.4801
 20
16.2643
 30
0.0
 10
175.4801
 20
16.2643
 30
0.0
 10
179.9051
 20
11.8393
 30
0.0
 10
179.9051
 20
11.8393
 30
0.0
 10
179.9051
 20
11.8393
 30
0.0
 10
179.9051
 20
11.8393
 30
0.0
 10
188.1119
 20
20.0461
 30
0.0
 10
188.1119
 20
20.0461
 30
0.0
 10
188.1119
 20
20.0461
 30
0.0
 10
188.1119
 20
20.0461
 30
0.0
 10
188.1107
 20
35.4844
 30
0.0
 10
188.1107
 20
35.4844
 30
0.0
  0
SPLINE
  5
63
330
1F
100
AcDbEntity
  8
layer 1
 62
     7
100
AcDbSpline
210
0.0
220
0.0
230
1.0
 70
    11
 71
     3
 72
    20
 73
    16
 74
     0
 42
0.0000000001
 43
0.0000000001
 12
1.0
 22
0.0
 32
0.0
 13
1.0
 23
0.0
 33
0.0
 40
0.0
 40
0.0
 40
0.0
 40
0.0
 40
0.2
 40
0.2
 40
0.2
 40
0.2
 40
0.4
 40
0.4
 40
0.4
 40
0.4
 40
0.6
 40
0.6
 40
0.6
 40
0.6
 40
1.0
 40
1.0
 40
1.0
 40
1.0
 10
144.719
 20
46.8612
 30
0.0
 10
144.719
 20
46.8612
 30
0.0
 10
152.6536
 20
54.7957
 30
0.0
 10
152.6536
 20
54.7957
 30
0.0
 10
152.6536
 20
54.7957
 30
0.0
 10
152.6536
 20
54.7957
 30
0.0
 10
160.5881
 20
46.8612
 30
0.0
 10
160.5881
 20
46.8612
 30
0.0
 10
160.5881
 20
46.8612
 30
0.0
 10
160.5881
 20
46.8612
 30
0.0
 10
152.6536
 20
38.9266
 30
0.0
 10
152.6536
 20
38.9266
 30
0.0
 10
152.6536
 20
38.9266
 30
0.0
 10
152.6536
 20
38.9266
 30
0.0
 10
144.719
 20
46.8612
 30
0.0
 10
144.719
 20
46.8612
 30
0.0
  0
SPLINE
  5
64
330
1F
100
AcDbEntity
  8
layer 1
 62
     7
100
AcDbSpline
210
0.0
220
0.0
230
1.0
 70
    11
 71
     3
 72
    20
 73
    16
 74
     0
 42
0.0000000001
 43
0.0000000001
 12
1.0
 22
0.0
 32
0.0
 13
1.0
 23
0.0
 33
0.0
 40
0.0
 40
0.0
 40
0.0
 40
0.0
 40
0.2
 40
0.2
 40
0.2
 40
0.2
 40
0.4
 40
0.4
 40
0.4
 40
0.4
 40
0.6
 40
0.6
 40
0.6
 40
0.6
 40
1.0
 40
1.0
 40
1.0
 40
1.0
 10
129.5658
 20
46.8324
 30
0.0
 10
129.5658
 20
46.8324
 30
0.0
 10
133.6401
 20
50.9067
 30
0.0
 10
133.6401
 20
50.9067
 30
0.0
 10
133.6401
 20
50.9067
 30
0.0
 10
133.6401
 20
50.9067
 30
0.0
 10
137.7145
 20
46.8324
 30
0.0
 10
137.7145
 20
46.8324
 30
0.0
 10
137.7145
 20
46.8324
 30
0.0
 10
137.7145
 20
46.8324
 30
0.0
 10
133.6401
 20
42.7581
 30
0.0
 10
133.6401
 20
42.7581
 30
0.0
 10
133.6401
 20
42.7581
 30
0.0
 10
133.6401
 20
42.7581
 30
0.0
 10
129.5658
 20
46.8324
 30
0.0
 10
129.5658
 20
46.8324
 30
0.0
  0
SPLINE
  5
65
330
1F
100
AcDbEntity
  8
layer 1
 62
     7
100
AcDbSpline
210
0.0
220
0.0
230
1.0
 70
    11
 71
     3
 72
    20
 73
    16
 74
     0
 42
0.0000000001
 43
0.0000000001
 12
1.0
 22
0.0
 32
0.0
 13
1.0
 23
0.0
 33
0.0
 40
0.0
 40
0.0
 40
0.0
 40
0.0
 40
0.2
 40
0.2
 40
0.2
 40
0.2
 40
0.4
 40
0.4
 40
0.4
 40
0.4
 40
0.6
 40
0.6
 40
0.6
 40
0.6
 40
1.0
 40
1.0
 40
1.0
 40
1.0
 10
168.028
 20
46.8324
 30
0.0
 10
168.028
 20
46.8324
 30
0.0
 10
172.1023
 20
50.9067
 30
0.0
 10
172.1023
 20
50.9067
 30
0.0
 10
172.1023
 20
50.9067
 30
0.0
 10
172.1023
 20
50.9067
 30
0.0
 10
176.1766
 20
46.8324
 30
0.0
 10
176.1766
 20
46.8324
 30
0.0
 10
176.1766
 20
46.8324
 30
0.0
 10
176.1766
 20
46.8324
 30
0.0
 10
172.1023
 20
42.7581
 30
0.0
 10
172.1023
 20
42.7581
 30
0.0
 10
172.1023
 20
42.7581
 30
0.0
 10
172.1023
 20
42.7581
 30
0.0
 10
168.028
 20
46.8324
 30
0.0
 10
168.028
 20
46.8324
 30
0.0
  0
SPLINE
  5
66
330
1F
100
AcDbEntity
  8
layer 1
 62
     7
100
AcDbSpline
210
0.0
220
0.0
230
1.0
 70
    11
 71
     3
 72
    16
 73
    12
 74
     0
 42
0.0000000001
 43
0.0000000001
 12
1.0
 22
0.0
 32
0.0
 13
1.0
 23
0.0
 33
0.0
 40
0.0
 40
0.0
 40
0.0
 40
0.0
 40
0.25
 40
0.25
 40
0.25
 40
0.25
 40
0.5
 40
0.5
 40
0.5
 40
0.5
 40
1.0
 40
1.0
 40
1.0
 40
1.0
 10
78.7891
 20
51.8961
 30
0.0
 10
78.7891
 20
51.8961
 30
0.0
 10
83.6417
 20
47.0435
 30
0.0
 10
83.6417
 20
47.0435
 30
0.0
 10
83.6417
 20
47.0435
 30
0.0
 10
83.6417
 20
47.0435
 30
0.0
 10
78.7416
 20
42.1434
 30
0.0
 10
78.7416
 20
42.1434
 30
0.0
 10
78.7416
 20
42.1434
 30
0.0
 10
78.7416
 20
42.1434
 30
0.0
 10
78.7891
 20
51.8961
 30
0.0
 10
78.7891
 20
51.8961
 30
0.0
  0
SPLINE
  5
67
330
1F
100
AcDbEntity
  8
layer 1
 62
     7
100
AcDbSpline
210
0.0
220
0.0
230
1.0
 70
    11
 71
     3
 72
    16
 73
    12
 74
     0
 42
0.0000000001
 43
0.0000000001
 12
1.0
 22
0.0
 32
0.0
 13
1.0
 23
0.0
 33
0.0
 40
0.0
 40
0.0
 40
0.0
 40
0.0
 40
0.25
 40
0.25
 40
0.25
 40
0.25
 40
0.5
 40
0.5
 40
0.5
 40
0.5
 40
1.0
 40
1.0
 40
1.0
 40
1.0
 10
188.0653
 20
51.805
 30
0.0
 10
188.0653
 20
51.805
 30
0.0
 10
183.2127
 20
46.9525
 30
0.0
 10
183.2127
 20
46.9525
 30
0.0
 10
183.2127
 20
46.9525
 30
0.0
 10
183.2127
 20
46.9525
 30
0.0
 10
188.1129
 20
42.0524
 30
0.0
 10
188.1129
 20
42.0524
 30
0.0
 10
188.1129
 20
42.0524
 30
0.0
 10
188.1129
 20
42.0524
 30
0.0
 10
188.0653
 20
51.805
 30
0.0
 10
188.0653
 20
51.805
 30
0.0
  0
SPLINE
  5
68
330
1F
100
AcDbEntity
  8
layer 1
 62
     7
100
AcDbSpline
210
0.0
220
0.0
230
1.0
 70
    11
 71
     3
 72
    20
 73
    16
 74
     0
 42
0.0000000001
 43
0.0000000001
 12
1.0
 22
0.0
 32
0.0
 13
1.0
 23
0.0
 33
0.0
 40
0.0
 40
0.0
 40
0.0
 40
0.0
 40
0.2
 40
0.2
 40
0.2
 40
0.2
 40
0.4
 40
0.4
 40
0.4
 40
0.4
 40
0.6
 40
0.6
 40
0.6
 40
0.6
 40
1.0
 40
1.0
 40
1.0
 40
1.0
 10
106.2569
 20
8.5417
 30
0.0
 10
106.2569
 20
8.5417
 30
0.0
 10
114.1914
 20
16.4762
 30
0.0
 10
114.1914
 20
16.4762
 30
0.0
 10
114.1914
 20
16.4762
 30
0.0
 10
114.1914
 20
16.4762
 30
0.0
 10
122.1259
 20
8.5417
 30
0.0
 10
122.1259
 20
8.5417
 30
0.0
 10
122.1259
 20
8.5417
 30
0.0
 10
122.1259
 20
8.5417
 30
0.0
 10
114.1914
 20
0.6071
 30
0.0
 10
114.1914
 20
0.6071
 30
0.0
 10
114.1914
 20
0.6071
 30
0.0
 10
114.1914
 20
0.6071
 30
0.0
 10
106.2569
 20
8.5417
 30
0.0
 10
106.2569
 20
8.5417
 30
0.0
  0
SPLINE
  5
69
330
1F
100
AcDbEntity
  8
layer 1
 62
     7
100
AcDbSpline
210
0.0
220
0.0
230
1.0
 70
    11
 71
     3
 72
    20
 73
    16
 74
     0
 42
0.0000000001
 43
0.0000000001
 12
1.0
 22
0.0
 32
0.0
 13
1.0
 23
0.0
 33
0.0
 40
0.0
 40
0.0
 40
0.0
 40
0.0
 40
0.2
 40
0.2
 40
0.2
 40
0.2
 40
0.4
 40
0.4
 40
0.4
 40
0.4
 40
0.6
 40
0.6
 40
0.6
 40
0.6
 40
1.0
 40
1.0
 40
1.0
 40
1.0
 10
91.1036
 20
8.4217
 30
0.0
 10
91.1036
 20
8.4217
 30
0.0
 10
95.178
 20
12.496
 30
0.0
 10
95.178
 20
12.496
 30
0.0
 10
95.178
 20
12.496
 30
0.0
 10
95.178
 20
12.496
 30
0.0
 10
99.2523
 20
8.4217
 30
0.0
 10
99.2523
 20
8.4217
 30
0.0
 10
99.2523
 20
8.4217
 30
0.0
 10
99.2523
 20
8.4217
 30
0.0
 10
95.178
 20
4.3474
 30
0.0
 10
95.178
 20
4.3474
 30
0.0
 10
95.178
 20
4.3474
 30
0.0
 10
95.178
 20
4.3474
 30
0.0
 10
91.1036
 20
8.4217
 30
0.0
 10
91.1036
 20
8.4217
 30
0.0
  0
SPLINE
  5
6A
330
1F
100
AcDbEntity
  8
layer 1
 62
     7
100
AcDbSpline
210
0.0
220
0.0
230
1.0
 70
    11
 71
     3
 72
    84
 73
    80
 74
     0
 42
0.0000000001
 43
0.0000000001
 12
1.0
 22
0.0
 32
0.0
 13
1.0
 23
0.0
 33
0.0
 40
0.0
 40
0.0
 40
0.0
 40
0.0
 40
0.0476190476190476
 40
0.0476190476190476
 40
0.0476190476190476
 40
0.0476190476190476
 40
0.0952380952380952
 40
0.0952380952380952
 40
0.0952380952380952
 40
0.0952380952380952
 40
0.1428571428571428
 40
0.1428571428571428
 40
0.1428571428571428
 40
0.1428571428571428
 40
0.1904761904761905
 40
0.1904761904761905
 40
0.1904761904761905
 40
0.1904761904761905
 40
0.2380952380952381
 40
0.2380952380952381
 40
0.2380952380952381
 40
0.2380952380952381
 40
0.2857142857142857
 40
0.2857142857142857
 40
0.2857142857142857
 40
0.2857142857142857
 40
0.3333333333333333
 40
0.3333333333333333
 40
0.3333333333333333
 40
0.3333333333333333
 40
0.3809523809523809
 40
0.3809523809523809
 40
0.3809523809523809
 40
0.3809523809523809
 40
0.4285714285714285
 40
0.4285714285714285
 40
0.4285714285714285
 40
0.4285714285714285
 40
0.4761904761904762
 40
0.4761904761904762
 40
0.4761904761904762
 40
0.4761904761904762
 40
0.5238095238095238
 40
0.5238095238095238
 40
0.5238095238095238
 40
0.5238095238095238
 40
0.5714285714285714
 40
0.5714285714285714
 40
0.5714285714285714
 40
0.5714285714285714
 40
0.6190476190476191
 40
0.6190476190476191
 40
0.6190476190476191
 40
0.6190476190476191
 40
0.6666666666666666
 40
0.6666666666666666
 40
0.6666666666666666
 40
0.6666666666666666
 40
0.7142857142857143
 40
0.7142857142857143
 40
0.7142857142857143
 40
0.7142857142857143
 40
0.7619047619047619
 40
0.7619047619047619
 40
0.7619047619047619
 40
0.7619047619047619
 40
0.8095238095238095
 40
0.8095238095238095
 40
0.8095238095238095
 40
0.8095238095238095
 40
0.8571428571428571
 40
0.8571428571428571
 40
0.8571428571428571
 40
0.8571428571428571
 40
0.9047619047619048
 40
0.9047619047619048
 40
0.9047619047619048
 40
0.9047619047619048
 40
1.0
 40
1.0
 40
1.0
 40
1.0
 10
108.6753
 20
-10.6538
 30
0.0
 10
108.6658
 20
-9.507
 30
0.0
 10
108.0973
 20
-8.9039
 30
0.0
 10
108.0973
 20
-8.9039
 30
0.0
 10
108.0973
 20
-8.9039
 30
0.0
 10
108.0973
 20
-8.9039
 30
0.0
 10
98.3931
 20
0.8841
 30
0.0
 10
98.3931
 20
0.8841
 30
0.0
 10
98.3931
 20
0.8841
 30
0.0
 10
98.3931
 20
0.8841
 30
0.0
 10
102.716
 20
5.207
 30
0.0
 10
102.716
 20
5.207
 30
0.0
 10
102.716
 20
5.207
 30
0.0
 10
102.716
 20
5.207
 30
0.0
 10
112.3804
 20
-4.3028
 30
0.0
 10
112.3804
 20
-4.3028
 30
0.0
 10
112.3804
 20
-4.3028
 30
0.0
 10
112.3804
 20
-4.3028
 30
0.0
 10
113.3048
 20
-5.2362
 30
0.0
 10
114.2703
 20
-5.1449
 30
0.0
 10
114.2703
 20
-5.1449
 30
0.0
 10
115.236
 20
-5.0536
 30
0.0
 10
116.1263
 20
-4.2676
 30
0.0
 10
116.1263
 20
-4.2676
 30
0.0
 10
116.1263
 20
-4.2676
 30
0.0
 10
116.1263
 20
-4.2676
 30
0.0
 10
125.8222
 20
5.1539
 30
0.0
 10
125.8222
 20
5.1539
 30
0.0
 10
125.8222
 20
5.1539
 30
0.0
 10
125.8222
 20
5.1539
 30
0.0
 10
130.1451
 20
0.8311
 30
0.0
 10
130.1451
 20
0.8311
 30
0.0
 10
130.1451
 20
0.8311
 30
0.0
 10
130.1451
 20
0.8311
 30
0.0
 10
120.5001
 20
-8.7079
 30
0.0
 10
120.5001
 20
-8.7079
 30
0.0
 10
120.5001
 20
-8.7079
 30
0.0
 10
120.5001
 20
-8.7079
 30
0.0
 10
119.7014
 20
-9.5816
 30
0.0
 10
119.7062
 20
-10.5848
 30
0.0
 10
119.7062
 20
-10.5848
 30
0.0
 10
119.7111
 20
-11.5877
 30
0.0
 10
120.307
 20
-12.2973
 30
0.0
 10
120.307
 20
-12.2973
 30
0.0
 10
120.307
 20
-12.2973
 30
0.0
 10
120.307
 20
-12.2973
 30
0.0
 10
130.1373
 20
-22.1464
 30
0.0
 10
130.1373
 20
-22.1464
 30
0.0
 10
130.1373
 20
-22.1464
 30
0.0
 10
130.1373
 20
-22.1464
 30
0.0
 10
125.7123
 20
-26.5714
 30
0.0
 10
125.7123
 20
-26.5714
 30
0.0
 10
125.7123
 20
-26.5714
 30
0.0
 10
125.7123
 20
-26.5714
 30
0.0
 10
116.3859
 20
-17.2449
 30
0.0
 10
116.3859
 20
-17.2449
 30
0.0
 10
116.3859
 20
-17.2449
 30
0.0
 10
116.3859
 20
-17.2449
 30
0.0
 10
115.4378
 20
-16.1061
 30
0.0
 10
114.2875
 20
-16.1206
 30
0.0
 10
114.2875
 20
-16.1206
 30
0.0
 10
113.1373
 20
-16.135
 30
0.0
 10
112.372
 20
-16.9678
 30
0.0
 10
112.372
 20
-16.9678
 30
0.0
 10
112.372
 20
-16.9678
 30
0.0
 10
112.372
 20
-16.9678
 30
0.0
 10
102.8598
 20
-26.6586
 30
0.0
 10
102.8598
 20
-26.6586
 30
0.0
 10
102.8598
 20
-26.6586
 30
0.0
 10
102.8598
 20
-26.6586
 30
0.0
 10
98.4009
 20
-22.1996
 30
0.0
 10
98.4009
 20
-22.1996
 30
0.0
 10
98.4009
 20
-22.1996
 30
0.0
 10
98.4009
 20
-22.1996
 30
0.0
 10
108.187
 20
-12.3069
 30
0.0
 10
108.187
 20
-12.3069
 30
0.0
 10
108.187
 20
-12.3069
 30
0.0
 10
108.187
 20
-12.3069
 30
0.0
 10
108.6847
 20
-11.8006
 30
0.0
 10
108.6753
 20
-10.6538
 30
0.0
  0
SPLINE
  5
6B
330
1F
100
AcDbEntity
  8
layer 1
 62
     7
100
AcDbSpline
210
0.0
220
0.0
230
1.0
 70
    11
 71
     3
 72
    20
 73
    16
 74
     0
 42
0.0000000001
 43
0.0000000001
 12
1.0
 22
0.0
 32
0.0
 13
1.0
 23
0.0
 33
0.0
 40
0.0
 40
0.0
 40
0.0
 40
0.0
 40
0.2
 40
0.2
 40
0.2
 40
0.2
 40
0.4
 40
0.4
 40
0.4
 40
0.4
 40
0.6
 40
0.6
 40
0.6
 40
0.6
 40
1.0
 40
1.0
 40
1.0
 40
1.0
 10
125.5791
 20
-10.6894
 30
0.0
 10
125.5791
 20
-10.6894
 30
0.0
 10
133.5136
 20
-2.7549
 30
0.0
 10
133.5136
 20
-2.7549
 30
0.0
 10
133.5136
 20
-2.7549
 30
0.0
 10
133.5136
 20
-2.7549
 30
0.0
 10
141.4482
 20
-10.6894
 30
0.0
 10
141.4482
 20
-10.6894
 30
0.0
 10
141.4482
 20
-10.6894
 30
0.0
 10
141.4482
 20
-10.6894
 30
0.0
 10
133.5136
 20
-18.624
 30
0.0
 10
133.5136
 20
-18.624
 30
0.0
 10
133.5136
 20
-18.624
 30
0.0
 10
133.5136
 20
-18.624
 30
0.0
 10
125.5791
 20
-10.6894
 30
0.0
 10
125.5791
 20
-10.6894
 30
0.0
  0
SPLINE
  5
6C
330
1F
100
AcDbEntity
  8
layer 1
 62
     7
100
AcDbSpline
210
0.0
220
0.0
230
1.0
 70
    11
 71
     3
 72
    88
 73
    84
 74
     0
 42
0.0000000001
 43
0.0000000001
 12
1.0
 22
0.0
 32
0.0
 13
1.0
 23
0.0
 33
0.0
 40
0.0
 40
0.0
 40
0.0
 40
0.0
 40
0.0454545454545455
 40
0.0454545454545455
 40
0.0454545454545455
 40
0.0454545454545455
 40
0.0909090909090909
 40
0.0909090909090909
 40
0.0909090909090909
 40
0.0909090909090909
 40
0.1363636363636364
 40
0.1363636363636364
 40
0.1363636363636364
 40
0.1363636363636364
 40
0.1818181818181818
 40
0.1818181818181818
 40
0.1818181818181818
 40
0.1818181818181818
 40
0.2272727272727273
 40
0.2272727272727273
 40
0.2272727272727273
 40
0.2272727272727273
 40
0.2727272727272727
 40
0.2727272727272727
 40
0.2727272727272727
 40
0.2727272727272727
 40
0.3181818181818182
 40
0.3181818181818182
 40
0.3181818181818182
 40
0.3181818181818182
 40
0.3636363636363636
 40
0.3636363636363636
 40
0.3636363636363636
 40
0.3636363636363636
 40
0.4090909090909091
 40
0.4090909090909091
 40
0.4090909090909091
 40
0.4090909090909091
 40
0.4545454545454545
 40
0.4545454545454545
 40
0.4545454545454545
 40
0.4545454545454545
 40
0.5
 40
0.5
 40
0.5
 40
0.5
 40
0.5454545454545454
 40
0.5454545454545454
 40
0.5454545454545454
 40
0.5454545454545454
 40
0.5909090909090909
 40
0.5909090909090909
 40
0.5909090909090909
 40
0.5909090909090909
 40
0.6363636363636364
 40
0.6363636363636364
 40
0.6363636363636364
 40
0.6363636363636364
 40
0.6818181818181818
 40
0.6818181818181818
 40
0.6818181818181818
 40
0.6818181818181818
 40
0.7272727272727273
 40
0.7272727272727273
 40
0.7272727272727273
 40
0.7272727272727273
 40
0.7727272727272727
 40
0.7727272727272727
 40
0.7727272727272727
 40
0.7727272727272727
 40
0.8181818181818182
 40
0.8181818181818182
 40
0.8181818181818182
 40
0.8181818181818182
 40
0.8636363636363636
 40
0.8636363636363636
 40
0.8636363636363636
 40
0.8636363636363636
 40
0.9090909090909091
 40
0.9090909090909091
 40
0.9090909090909091
 40
0.9090909090909091
 40
1.0
 40
1.0
 40
1.0
 40
1.0
 10
147.1374
 20
-10.6538
 30
0.0
 10
147.128
 20
-9.507
 30
0.0
 10
146.5595
 20
-8.9039
 30
0.0
 10
146.5595
 20
-8.9039
 30
0.0
 10
146.5595
 20
-8.9039
 30
0.0
 10
146.5595
 20
-8.9039
 30
0.0
 10
136.8553
 20
0.8841
 30
0.0
 10
136.8553
 20
0.8841
 30
0.0
 10
136.8553
 20
0.8841
 30
0.0
 10
136.8553
 20
0.8841
 30
0.0
 10
141.1781
 20
5.207
 30
0.0
 10
141.1781
 20
5.207
 30
0.0
 10
141.1781
 20
5.207
 30
0.0
 10
141.1781
 20
5.207
 30
0.0
 10
150.8425
 20
-4.3028
 30
0.0
 10
150.8425
 20
-4.3028
 30
0.0
 10
150.8425
 20
-4.3028
 30
0.0
 10
150.8425
 20
-4.3028
 30
0.0
 10
151.767
 20
-5.2362
 30
0.0
 10
152.7325
 20
-5.1449
 30
0.0
 10
152.7325
 20
-5.1449
 30
0.0
 10
153.6982
 20
-5.0536
 30
0.0
 10
154.5885
 20
-4.2676
 30
0.0
 10
154.5885
 20
-4.2676
 30
0.0
 10
154.5885
 20
-4.2676
 30
0.0
 10
154.5885
 20
-4.2676
 30
0.0
 10
164.2844
 20
5.1539
 30
0.0
 10
164.2844
 20
5.1539
 30
0.0
 10
164.2844
 20
5.1539
 30
0.0
 10
164.2844
 20
5.1539
 30
0.0
 10
168.6072
 20
0.8311
 30
0.0
 10
168.6072
 20
0.8311
 30
0.0
 10
168.6072
 20
0.8311
 30
0.0
 10
168.6072
 20
0.8311
 30
0.0
 10
158.9623
 20
-8.7079
 30
0.0
 10
158.9623
 20
-8.7079
 30
0.0
 10
158.9623
 20
-8.7079
 30
0.0
 10
158.9623
 20
-8.7079
 30
0.0
 10
158.1635
 20
-9.5816
 30
0.0
 10
158.1684
 20
-10.5848
 30
0.0
 10
158.1684
 20
-10.5848
 30
0.0
 10
158.1733
 20
-11.5877
 30
0.0
 10
158.7692
 20
-12.2973
 30
0.0
 10
158.7692
 20
-12.2973
 30
0.0
 10
158.7692
 20
-12.2973
 30
0.0
 10
158.7692
 20
-12.2973
 30
0.0
 10
168.5995
 20
-22.1464
 30
0.0
 10
168.5995
 20
-22.1464
 30
0.0
 10
168.5995
 20
-22.1464
 30
0.0
 10
168.5995
 20
-22.1464
 30
0.0
 10
164.1745
 20
-26.5714
 30
0.0
 10
164.1745
 20
-26.5714
 30
0.0
 10
164.1745
 20
-26.5714
 30
0.0
 10
164.1745
 20
-26.5714
 30
0.0
 10
154.848
 20
-17.2449
 30
0.0
 10
154.848
 20
-17.2449
 30
0.0
 10
154.848
 20
-17.2449
 30
0.0
 10
154.848
 20
-17.2449
 30
0.0
 10
153.9
 20
-16.1061
 30
0.0
 10
152.7497
 20
-16.1206
 30
0.0
 10
152.7497
 20
-16.1206
 30
0.0
 10
151.5995
 20
-16.135
 30
0.0
 10
150.8341
 20
-16.9678
 30
0.0
 10
150.8341
 20
-16.9678
 30
0.0
 10
150.8341
 20
-16.9678
 30
0.0
 10
150.8341
 20
-16.9678
 30
0.0
 10
141.322
 20
-26.6585
 30
0.0
 10
141.322
 20
-26.6585
 30
0.0
 10
141.322
 20
-26.6585
 30
0.0
 10
141.322
 20
-26.6585
 30
0.0
 10
136.8629
 20
-22.1994
 30
0.0
 10
136.8629
 20
-22.1994
 30
0.0
 10
136.8629
 20
-22.1994
 30
0.0
 10
136.8629
 20
-22.1994
 30
0.0
 10
146.6492
 20
-12.3067
 30
0.0
 10
146.6492
 20
-12.3067
 30
0.0
 10
146.6492
 20
-12.3067
 30
0.0
 10
146.6492
 20
-12.3067
 30
0.0
 10
147.1469
 20
-11.8005
 30
0.0
 10
147.1374
 20
-10.6537
 30
0.0
 10
147.1374
 20
-10.6537
 30
0.0
 10
147.1374
 20
-10.6537
 30
0.0
 10
147.1374
 20
-10.6538
 30
0.0
 10
147.1374
 20
-10.6538
 30
0.0
  0
SPLINE
  5
6D
330
1F
100
AcDbEntity
  8
layer 1
 62
     7
100
AcDbSpline
210
0.0
220
0.0
230
1.0
 70
    11
 71
     3
 72
    20
 73
    16
 74
     0
 42
0.0000000001
 43
0.0000000001
 12
1.0
 22
0.0
 32
0.0
 13
1.0
 23
0.0
 33
0.0
 40
0.0
 40
0.0
 40
0.0
 40
0.0
 40
0.2
 40
0.2
 40
0.2
 40
0.2
 40
0.4
 40
0.4
 40
0.4
 40
0.4
 40
0.6
 40
0.6
 40
0.6
 40
0.6
 40
1.0
 40
1.0
 40
1.0
 40
1.0
 10
164.0413
 20
-10.6894
 30
0.0
 10
164.0413
 20
-10.6894
 30
0.0
 10
171.9758
 20
-2.7549
 30
0.0
 10
171.9758
 20
-2.7549
 30
0.0
 10
171.9758
 20
-2.7549
 30
0.0
 10
171.9758
 20
-2.7549
 30
0.0
 10
179.9104
 20
-10.6894
 30
0.0
 10
179.9104
 20
-10.6894
 30
0.0
 10
179.9104
 20
-10.6894
 30
0.0
 10
179.9104
 20
-10.6894
 30
0.0
 10
171.9758
 20
-18.624
 30
0.0
 10
171.9758
 20
-18.624
 30
0.0
 10
171.9758
 20
-18.624
 30
0.0
 10
171.9758
 20
-18.624
 30
0.0
 10
164.0413
 20
-10.6894
 30
0.0
 10
164.0413
 20
-10.6894
 30
0.0
  0
SPLINE
  5
6E
330
1F
100
AcDbEntity
  8
layer 1
 62
     7
100
AcDbSpline
210
0.0
220
0.0
230
1.0
 70
    11
 71
     3
 72
    20
 73
    16
 74
     0
 42
0.0000000001
 43
0.0000000001
 12
1.0
 22
0.0
 32
0.0
 13
1.0
 23
0.0
 33
0.0
 40
0.0
 40
0.0
 40
0.0
 40
0.0
 40
0.2
 40
0.2
 40
0.2
 40
0.2
 40
0.4
 40
0.4
 40
0.4
 40
0.4
 40
0.6
 40
0.6
 40
0.6
 40
0.6
 40
1.0
 40
1.0
 40
1.0
 40
1.0
 10
87.0258
 20
-10.6894
 30
0.0
 10
87.0258
 20
-10.6894
 30
0.0
 10
94.9603
 20
-2.7549
 30
0.0
 10
94.9603
 20
-2.7549
 30
0.0
 10
94.9603
 20
-2.7549
 30
0.0
 10
94.9603
 20
-2.7549
 30
0.0
 10
102.8949
 20
-10.6894
 30
0.0
 10
102.8949
 20
-10.6894
 30
0.0
 10
102.8949
 20
-10.6894
 30
0.0
 10
102.8949
 20
-10.6894
 30
0.0
 10
94.9603
 20
-18.624
 30
0.0
 10
94.9603
 20
-18.624
 30
0.0
 10
94.9603
 20
-18.624
 30
0.0
 10
94.9603
 20
-18.624
 30
0.0
 10
87.0258
 20
-10.6894
 30
0.0
 10
87.0258
 20
-10.6894
 30
0.0
  0
SPLINE
  5
6F
330
1F
100
AcDbEntity
  8
layer 1
 62
     7
100
AcDbSpline
210
0.0
220
0.0
230
1.0
 70
    11
 71
     3
 72
    40
 73
    36
 74
     0
 42
0.0000000001
 43
0.0000000001
 12
1.0
 22
0.0
 32
0.0
 13
1.0
 23
0.0
 33
0.0
 40
0.0
 40
0.0
 40
0.0
 40
0.0
 40
0.1
 40
0.1
 40
0.1
 40
0.1
 40
0.2
 40
0.2
 40
0.2
 40
0.2
 40
0.3
 40
0.3
 40
0.3
 40
0.3
 40
0.4
 40
0.4
 40
0.4
 40
0.4
 40
0.5
 40
0.5
 40
0.5
 40
0.5
 40
0.6
 40
0.6
 40
0.6
 40
0.6
 40
0.7
 40
0.7
 40
0.7
 40
0.7
 40
0.8
 40
0.8
 40
0.8
 40
0.8
 40
1.0
 40
1.0
 40
1.0
 40
1.0
 10
78.8623
 20
-2.9264
 30
0.0
 10
78.8623
 20
-2.9264
 30
0.0
 10
87.1779
 20
5.1538
 30
0.0
 10
87.1779
 20
5.1538
 30
0.0
 10
87.1779
 20
5.1538
 30
0.0
 10
87.1779
 20
5.1538
 30
0.0
 10
91.5007
 20
0.8309
 30
0.0
 10
91.5007
 20
0.8309
 30
0.0
 10
91.5007
 20
0.8309
 30
0.0
 10
91.5007
 20
0.8309
 30
0.0
 10
81.8557
 20
-8.708
 30
0.0
 10
81.8557
 20
-8.708
 30
0.0
 10
81.8557
 20
-8.708
 30
0.0
 10
81.8557
 20
-8.708
 30
0.0
 10
81.057
 20
-9.5818
 30
0.0
 10
81.0619
 20
-10.5849
 30
0.0
 10
81.0619
 20
-10.5849
 30
0.0
 10
81.0667
 20
-11.5879
 30
0.0
 10
81.6627
 20
-12.2974
 30
0.0
 10
81.6627
 20
-12.2974
 30
0.0
 10
81.6627
 20
-12.2974
 30
0.0
 10
81.6627
 20
-12.2974
 30
0.0
 10
91.493
 20
-22.1465
 30
0.0
 10
91.493
 20
-22.1465
 30
0.0
 10
91.493
 20
-22.1465
 30
0.0
 10
91.493
 20
-22.1465
 30
0.0
 10
87.0679
 20
-26.5715
 30
0.0
 10
87.0679
 20
-26.5715
 30
0.0
 10
87.0679
 20
-26.5715
 30
0.0
 10
87.0679
 20
-26.5715
 30
0.0
 10
78.8611
 20
-18.3647
 30
0.0
 10
78.8611
 20
-18.3647
 30
0.0
 10
78.8611
 20
-18.3647
 30
0.0
 10
78.8611
 20
-18.3647
 30
0.0
 10
78.8623
 20
-2.9264
 30
0.0
 10
78.8623
 20
-2.9264
 30
0.0
  0
SPLINE
  5
70
330
1F
100
AcDbEntity
  8
layer 1
 62
     7
100
AcDbSpline
210
0.0
220
0.0
230
1.0
 70
    11
 71
     3
 72
    40
 73
    36
 74
     0
 42
0.0000000001
 43
0.0000000001
 12
1.0
 22
0.0
 32
0.0
 13
1.0
 23
0.0
 33
0.0
 40
0.0
 40
0.0
 40
0.0
 40
0.0
 40
0.1
 40
0.1
 40
0.1
 40
0.1
 40
0.2
 40
0.2
 40
0.2
 40
0.2
 40
0.3
 40
0.3
 40
0.3
 40
0.3
 40
0.4
 40
0.4
 40
0.4
 40
0.4
 40
0.5
 40
0.5
 40
0.5
 40
0.5
 40
0.6
 40
0.6
 40
0.6
 40
0.6
 40
0.7
 40
0.7
 40
0.7
 40
0.7
 40
0.8
 40
0.8
 40
0.8
 40
0.8
 40
1.0
 40
1.0
 40
1.0
 40
1.0
 10
188.1107
 20
-2.9264
 30
0.0
 10
188.1107
 20
-2.9264
 30
0.0
 10
179.7952
 20
5.1538
 30
0.0
 10
179.7952
 20
5.1538
 30
0.0
 10
179.7952
 20
5.1538
 30
0.0
 10
179.7952
 20
5.1538
 30
0.0
 10
175.4723
 20
0.8309
 30
0.0
 10
175.4723
 20
0.8309
 30
0.0
 10
175.4723
 20
0.8309
 30
0.0
 10
175.4723
 20
0.8309
 30
0.0
 10
185.1173
 20
-8.708
 30
0.0
 10
185.1173
 20
-8.708
 30
0.0
 10
185.1173
 20
-8.708
 30
0.0
 10
185.1173
 20
-8.708
 30
0.0
 10
185.916
 20
-9.5818
 30
0.0
 10
185.9112
 20
-10.5849
 30
0.0
 10
185.9112
 20
-10.5849
 30
0.0
 10
185.9063
 20
-11.5879
 30
0.0
 10
185.3104
 20
-12.2974
 30
0.0
 10
185.3104
 20
-12.2974
 30
0.0
 10
185.3104
 20
-12.2974
 30
0.0
 10
185.3104
 20
-12.2974
 30
0.0
 10
175.4801
 20
-22.1465
 30
0.0
 10
175.4801
 20
-22.1465
 30
0.0
 10
175.4801
 20
-22.1465
 30
0.0
 10
175.4801
 20
-22.1465
 30
0.0
 10
179.9051
 20
-26.5715
 30
0.0
 10
179.9051
 20
-26.5715
 30
0.0
 10
179.9051
 20
-26.5715
 30
0.0
 10
179.9051
 20
-26.5715
 30
0.0
 10
188.1119
 20
-18.3647
 30
0.0
 10
188.1119
 20
-18.3647
 30
0.0
 10
188.1119
 20
-18.3647
 30
0.0
 10
188.1119
 20
-18.3647
 30
0.0
 10
188.1107
 20
-2.9264
 30
0.0
 10
188.1107
 20
-2.9264
 30
0.0
  0
SPLINE
  5
71
330
1F
100
AcDbEntity
  8
layer 1
 62
     7
100
AcDbSpline
210
0.0
220
0.0
230
1.0
 70
    11
 71
     3
 72
    20
 73
    16
 74
     0
 42
0.0000000001
 43
0.0000000001
 12
1.0
 22
0.0
 32
0.0
 13
1.0
 23
0.0
 33
0.0
 40
0.0
 40
0.0
 40
0.0
 40
0.0
 40
0.2
 40
0.2
 40
0.2
 40
0.2
 40
0.4
 40
0.4
 40
0.4
 40
0.4
 40
0.6
 40
0.6
 40
0.6
 40
0.6
 40
1.0
 40
1.0
 40
1.0
 40
1.0
 10
144.719
 20
8.4505
 30
0.0
 10
144.719
 20
8.4505
 30
0.0
 10
152.6536
 20
16.385
 30
0.0
 10
152.6536
 20
16.385
 30
0.0
 10
152.6536
 20
16.385
 30
0.0
 10
152.6536
 20
16.385
 30
0.0
 10
160.5881
 20
8.4505
 30
0.0
 10
160.5881
 20
8.4505
 30
0.0
 10
160.5881
 20
8.4505
 30
0.0
 10
160.5881
 20
8.4505
 30
0.0
 10
152.6536
 20
0.516
 30
0.0
 10
152.6536
 20
0.516
 30
0.0
 10
152.6536
 20
0.516
 30
0.0
 10
152.6536
 20
0.516
 30
0.0
 10
144.719
 20
8.4505
 30
0.0
 10
144.719
 20
8.4505
 30
0.0
  0
SPLINE
  5
72
330
1F
100
AcDbEntity
  8
layer 1
 62
     7
100
AcDbSpline
210
0.0
220
0.0
230
1.0
 70
    11
 71
     3
 72
    20
 73
    16
 74
     0
 42
0.0000000001
 43
0.0000000001
 12
1.0
 22
0.0
 32
0.0
 13
1.0
 23
0.0
 33
0.0
 40
0.0
 40
0.0
 40
0.0
 40
0.0
 40
0.2
 40
0.2
 40
0.2
 40
0.2
 40
0.4
 40
0.4
 40
0.4
 40
0.4
 40
0.6
 40
0.6
 40
0.6
 40
0.6
 40
1.0
 40
1.0
 40
1.0
 40
1.0
 10
129.5658
 20
8.4217
 30
0.0
 10
129.5658
 20
8.4217
 30
0.0
 10
133.6401
 20
12.496
 30
0.0
 10
133.6401
 20
12.496
 30
0.0
 10
133.6401
 20
12.496
 30
0.0
 10
133.6401
 20
12.496
 30
0.0
 10
137.7145
 20
8.4217
 30
0.0
 10
137.7145
 20
8.4217
 30
0.0
 10
137.7145
 20
8.4217
 30
0.0
 10
137.7145
 20
8.4217
 30
0.0
 10
133.6401
 20
4.3474
 30
0.0
 10
133.6401
 20
4.3474
 30
0.0
 10
133.6401
 20
4.3474
 30
0.0
 10
133.6401
 20
4.3474
 30
0.0
 10
129.5658
 20
8.4217
 30
0.0
 10
129.5658
 20
8.4217
 30
0.0
  0
SPLINE
  5
73
330
1F
100
AcDbEntity
  8
layer 1
 62
     7
100
AcDbSpline
210
0.0
220
0.0
230
1.0
 70
    11
 71
     3
 72
    20
 73
    16
 74
     0
 42
0.0000000001
 43
0.0000000001
 12
1.0
 22
0.0
 32
0.0
 13
1.0
 23
0.0
 33
0.0
 40
0.0
 40
0.0
 40
0.0
 40
0.0
 40
0.2
 40
0.2
 40
0.2
 40
0.2
 40
0.4
 40
0.4
 40
0.4
 40
0.4
 40
0.6
 40
0.6
 40
0.6
 40
0.6
 40
1.0
 40
1.0
 40
1.0
 40
1.0
 10
168.028
 20
8.4217
 30
0.0
 10
168.028
 20
8.4217
 30
0.0
 10
172.1023
 20
12.496
 30
0.0
 10
172.1023
 20
12.496
 30
0.0
 10
172.1023
 20
12.496
 30
0.0
 10
172.1023
 20
12.496
 30
0.0
 10
176.1766
 20
8.4217
 30
0.0
 10
176.1766
 20
8.4217
 30
0.0
 10
176.1766
 20
8.4217
 30
0.0
 10
176.1766
 20
8.4217
 30
0.0
 10
172.1023
 20
4.3474
 30
0.0
 10
172.1023
 20
4.3474
 30
0.0
 10
172.1023
 20
4.3474
 30
0.0
 10
172.1023
 20
4.3474
 30
0.0
 10
168.028
 20
8.4217
 30
0.0
 10
168.028
 20
8.4217
 30
0.0
  0
SPLINE
  5
74
330
1F
100
AcDbEntity
  8
layer 1
 62
     7
100
AcDbSpline
210
0.0
220
0.0
230
1.0
 70
    11
 71
     3
 72
    16
 73
    12
 74
     0
 42
0.0000000001
 43
0.0000000001
 12
1.0
 22
0.0
 32
0.0
 13
1.0
 23
0.0
 33
0.0
 40
0.0
 40
0.0
 40
0.0
 40
0.0
 40
0.25
 40
0.25
 40
0.25
 40
0.25
 40
0.5
 40
0.5
 40
0.5
 40
0.5
 40
1.0
 40
1.0
 40
1.0
 40
1.0
 10
78.7891
 20
13.4854
 30
0.0
 10
78.7891
 20
13.4854
 30
0.0
 10
83.6417
 20
8.6328
 30
0.0
 10
83.6417
 20
8.6328
 30
0.0
 10
83.6417
 20
8.6328
 30
0.0
 10
83.6417
 20
8.6328
 30
0.0
 10
78.7416
 20
3.7326
 30
0.0
 10
78.7416
 20
3.7326
 30
0.0
 10
78.7416
 20
3.7326
 30
0.0
 10
78.7416
 20
3.7326
 30
0.0
 10
78.7891
 20
13.4854
 30
0.0
 10
78.7891
 20
13.4854
 30
0.0
  0
SPLINE
  5
75
330
1F
100
AcDbEntity
  8
layer 1
 62
     7
100
AcDbSpline
210
0.0
220
0.0
230
1.0
 70
    11
 71
     3
 72
    16
 73
    12
 74
     0
 42
0.0000000001
 43
0.0000000001
 12
1.0
 22
0.0
 32
0.0
 13
1.0
 23
0.0
 33
0.0
 40
0.0
 40
0.0
 40
0.0
 40
0.0
 40
0.25
 40
0.25
 40
0.25
 40
0.25
 40
0.5
 40
0.5
 40
0.5
 40
0.5
 40
1.0
 40
1.0
 40
1.0
 40
1.0
 10
188.0653
 20
13.3942
 30
0.0
 10
188.0653
 20
13.3942
 30
0.0
 10
183.2127
 20
8.5417
 30
0.0
 10
183.2127
 20
8.5417
 30
0.0
 10
183.2127
 20
8.5417
 30
0.0
 10
183.2127
 20
8.5417
 30
0.0
 10
188.1129
 20
3.6415
 30
0.0
 10
188.1129
 20
3.6415
 30
0.0
 10
188.1129
 20
3.6415
 30
0.0
 10
188.1129
 20
3.6415
 30
0.0
 10
188.0653
 20
13.3942
 30
0.0
 10
188.0653
 20
13.3942
 30
0.0
  0
SPLINE
  5
76
330
1F
100
AcDbEntity
  8
layer 1
 62
     7
100
AcDbSpline
210
0.0
220
0.0
230
1.0
 70
    11
 71
     3
 72
    20
 73
    16
 74
     0
 42
0.0000000001
 43
0.0000000001
 12
1.0
 22
0.0
 32
0.0
 13
1.0
 23
0.0
 33
0.0
 40
0.0
 40
0.0
 40
0.0
 40
0.0
 40
0.2
 40
0.2
 40
0.2
 40
0.2
 40
0.4
 40
0.4
 40
0.4
 40
0.4
 40
0.6
 40
0.6
 40
0.6
 40
0.6
 40
1.0
 40
1.0
 40
1.0
 40
1.0
 10
106.2569
 20
-29.998
 30
0.0
 10
106.2569
 20
-29.998
 30
0.0
 10
114.1914
 20
-22.0635
 30
0.0
 10
114.1914
 20
-22.0635
 30
0.0
 10
114.1914
 20
-22.0635
 30
0.0
 10
114.1914
 20
-22.0635
 30
0.0
 10
122.1259
 20
-29.998
 30
0.0
 10
122.1259
 20
-29.998
 30
0.0
 10
122.1259
 20
-29.998
 30
0.0
 10
122.1259
 20
-29.998
 30
0.0
 10
114.1914
 20
-37.9326
 30
0.0
 10
114.1914
 20
-37.9326
 30
0.0
 10
114.1914
 20
-37.9326
 30
0.0
 10
114.1914
 20
-37.9326
 30
0.0
 10
106.2569
 20
-29.998
 30
0.0
 10
106.2569
 20
-29.998
 30
0.0
  0
SPLINE
  5
77
330
1F
100
AcDbEntity
  8
layer 1
 62
     7
100
AcDbSpline
210
0.0
220
0.0
230
1.0
 70
    11
 71
     3
 72
    20
 73
    16
 74
     0
 42
0.0000000001
 43
0.0000000001
 12
1.0
 22
0.0
 32
0.0
 13
1.0
 23
0.0
 33
0.0
 40
0.0
 40
0.0
 40
0.0
 40
0.0
 40
0.2
 40
0.2
 40
0.2
 40
0.2
 40
0.4
 40
0.4
 40
0.4
 40
0.4
 40
0.6
 40
0.6
 40
0.6
 40
0.6
 40
1.0
 40
1.0
 40
1.0
 40
1.0
 10
91.1036
 20
-30.1179
 30
0.0
 10
91.1036
 20
-30.1179
 30
0.0
 10
95.178
 20
-26.0436
 30
0.0
 10
95.178
 20
-26.0436
 30
0.0
 10
95.178
 20
-26.0436
 30
0.0
 10
95.178
 20
-26.0436
 30
0.0
 10
99.2523
 20
-30.1179
 30
0.0
 10
99.2523
 20
-30.1179
 30
0.0
 10
99.2523
 20
-30.1179
 30
0.0
 10
99.2523
 20
-30.1179
 30
0.0
 10
95.178
 20
-34.1923
 30
0.0
 10
95.178
 20
-34.1923
 30
0.0
 10
95.178
 20
-34.1923
 30
0.0
 10
95.178
 20
-34.1923
 30
0.0
 10
91.1036
 20
-30.1179
 30
0.0
 10
91.1036
 20
-30.1179
 30
0.0
  0
SPLINE
  5
78
330
1F
100
AcDbEntity
  8
layer 1
 62
     7
100
AcDbSpline
210
0.0
220
0.0
230
1.0
 70
    11
 71
     3
 72
    84
 73
    80
 74
     0
 42
0.0000000001
 43
0.0000000001
 12
1.0
 22
0.0
 32
0.0
 13
1.0
 23
0.0
 33
0.0
 40
0.0
 40
0.0
 40
0.0
 40
0.0
 40
0.0476190476190476
 40
0.0476190476190476
 40
0.0476190476190476
 40
0.0476190476190476
 40
0.0952380952380952
 40
0.0952380952380952
 40
0.0952380952380952
 40
0.0952380952380952
 40
0.1428571428571428
 40
0.1428571428571428
 40
0.1428571428571428
 40
0.1428571428571428
 40
0.1904761904761905
 40
0.1904761904761905
 40
0.1904761904761905
 40
0.1904761904761905
 40
0.2380952380952381
 40
0.2380952380952381
 40
0.2380952380952381
 40
0.2380952380952381
 40
0.2857142857142857
 40
0.2857142857142857
 40
0.2857142857142857
 40
0.2857142857142857
 40
0.3333333333333333
 40
0.3333333333333333
 40
0.3333333333333333
 40
0.3333333333333333
 40
0.3809523809523809
 40
0.3809523809523809
 40
0.3809523809523809
 40
0.3809523809523809
 40
0.4285714285714285
 40
0.4285714285714285
 40
0.4285714285714285
 40
0.4285714285714285
 40
0.4761904761904762
 40
0.4761904761904762
 40
0.4761904761904762
 40
0.4761904761904762
 40
0.5238095238095238
 40
0.5238095238095238
 40
0.5238095238095238
 40
0.5238095238095238
 40
0.5714285714285714
 40
0.5714285714285714
 40
0.5714285714285714
 40
0.5714285714285714
 40
0.6190476190476191
 40
0.6190476190476191
 40
0.6190476190476191
 40
0.6190476190476191
 40
0.6666666666666666
 40
0.6666666666666666
 40
0.6666666666666666
 40
0.6666666666666666
 40
0.7142857142857143
 40
0.7142857142857143
 40
0.7142857142857143
 40
0.7142857142857143
 40
0.7619047619047619
 40
0.7619047619047619
 40
0.7619047619047619
 40
0.7619047619047619
 40
0.8095238095238095
 40
0.8095238095238095
 40
0.8095238095238095
 40
0.8095238095238095
 40
0.8571428571428571
 40
0.8571428571428571
 40
0.8571428571428571
 40
0.8571428571428571
 40
0.9047619047619048
 40
0.9047619047619048
 40
0.9047619047619048
 40
0.9047619047619048
 40
1.0
 40
1.0
 40
1.0
 40
1.0
 10
108.6753
 20
-49.1935
 30
0.0
 10
108.6658
 20
-48.0467
 30
0.0
 10
108.0973
 20
-47.4435
 30
0.0
 10
108.0973
 20
-47.4435
 30
0.0
 10
108.0973
 20
-47.4435
 30
0.0
 10
108.0973
 20
-47.4435
 30
0.0
 10
98.3931
 20
-37.6555
 30
0.0
 10
98.3931
 20
-37.6555
 30
0.0
 10
98.3931
 20
-37.6555
 30
0.0
 10
98.3931
 20
-37.6555
 30
0.0
 10
102.716
 20
-33.3327
 30
0.0
 10
102.716
 20
-33.3327
 30
0.0
 10
102.716
 20
-33.3327
 30
0.0
 10
102.716
 20
-33.3327
 30
0.0
 10
112.3804
 20
-42.8425
 30
0.0
 10
112.3804
 20
-42.8425
 30
0.0
 10
112.3804
 20
-42.8425
 30
0.0
 10
112.3804
 20
-42.8425
 30
0.0
 10
113.3048
 20
-43.7759
 30
0.0
 10
114.2703
 20
-43.6846
 30
0.0
 10
114.2703
 20
-43.6846
 30
0.0
 10
115.236
 20
-43.5933
 30
0.0
 10
116.1263
 20
-42.8073
 30
0.0
 10
116.1263
 20
-42.8073
 30
0.0
 10
116.1263
 20
-42.8073
 30
0.0
 10
116.1263
 20
-42.8073
 30
0.0
 10
125.8222
 20
-33.3858
 30
0.0
 10
125.8222
 20
-33.3858
 30
0.0
 10
125.8222
 20
-33.3858
 30
0.0
 10
125.8222
 20
-33.3858
 30
0.0
 10
130.1451
 20
-37.7086
 30
0.0
 10
130.1451
 20
-37.7086
 30
0.0
 10
130.1451
 20
-37.7086
 30
0.0
 10
130.1451
 20
-37.7086
 30
0.0
 10
120.5001
 20
-47.2476
 30
0.0
 10
120.5001
 20
-47.2476
 30
0.0
 10
120.5001
 20
-47.2476
 30
0.0
 10
120.5001
 20
-47.2476
 30
0.0
 10
119.7014
 20
-48.1213
 30
0.0
 10
119.7062
 20
-49.1244
 30
0.0
 10
119.7062
 20
-49.1244
 30
0.0
 10
119.7111
 20
-50.1274
 30
0.0
 10
120.307
 20
-50.837
 30
0.0
 10
120.307
 20
-50.837
 30
0.0
 10
120.307
 20
-50.837
 30
0.0
 10
120.307
 20
-50.837
 30
0.0
 10
130.1373
 20
-60.686
 30
0.0
 10
130.1373
 20
-60.686
 30
0.0
 10
130.1373
 20
-60.686
 30
0.0
 10
130.1373
 20
-60.686
 30
0.0
 10
125.7123
 20
-65.1111
 30
0.0
 10
125.7123
 20
-65.1111
 30
0.0
 10
125.7123
 20
-65.1111
 30
0.0
 10
125.7123
 20
-65.1111
 30
0.0
 10
116.3859
 20
-55.7846
 30
0.0
 10
116.3859
 20
-55.7846
 30
0.0
 10
116.3859
 20
-55.7846
 30
0.0
 10
116.3859
 20
-55.7846
 30
0.0
 10
115.4378
 20
-54.6458
 30
0.0
 10
114.2875
 20
-54.6603
 30
0.0
 10
114.2875
 20
-54.6603
 30
0.0
 10
113.1373
 20
-54.6747
 30
0.0
 10
112.372
 20
-55.5075
 30
0.0
 10
112.372
 20
-55.5075
 30
0.0
 10
112.372
 20
-55.5075
 30
0.0
 10
112.372
 20
-55.5075
 30
0.0
 10
102.8598
 20
-65.1981
 30
0.0
 10
102.8598
 20
-65.1981
 30
0.0
 10
102.8598
 20
-65.1981
 30
0.0
 10
102.8598
 20
-65.1981
 30
0.0
 10
98.4009
 20
-60.7392
 30
0.0
 10
98.4009
 20
-60.7392
 30
0.0
 10
98.4009
 20
-60.7392
 30
0.0
 10
98.4009
 20
-60.7392
 30
0.0
 10
108.187
 20
-50.8465
 30
0.0
 10
108.187
 20
-50.8465
 30
0.0
 10
108.187
 20
-50.8465
 30
0.0
 10
108.187
 20
-50.8465
 30
0.0
 10
108.6847
 20
-50.3403
 30
0.0
 10
108.6753
 20
-49.1935
 30
0.0
  0
SPLINE
  5
79
330
1F
100
AcDbEntity
  8
layer 1
 62
     7
100
AcDbSpline
210
0.0
220
0.0
230
1.0
 70
    11
 71
     3
 72
    20
 73
    16
 74
     0
 42
0.0000000001
 43
0.0000000001
 12
1.0
 22
0.0
 32
0.0
 13
1.0
 23
0.0
 33
0.0
 40
0.0
 40
0.0
 40
0.0
 40
0.0
 40
0.2
 40
0.2
 40
0.2
 40
0.2
 40
0.4
 40
0.4
 40
0.4
 40
0.4
 40
0.6
 40
0.6
 40
0.6
 40
0.6
 40
1.0
 40
1.0
 40
1.0
 40
1.0
 10
125.5791
 20
-49.2291
 30
0.0
 10
125.5791
 20
-49.2291
 30
0.0
 10
133.5136
 20
-41.2946
 30
0.0
 10
133.5136
 20
-41.2946
 30
0.0
 10
133.5136
 20
-41.2946
 30
0.0
 10
133.5136
 20
-41.2946
 30
0.0
 10
141.4482
 20
-49.2291
 30
0.0
 10
141.4482
 20
-49.2291
 30
0.0
 10
141.4482
 20
-49.2291
 30
0.0
 10
141.4482
 20
-49.2291
 30
0.0
 10
133.5136
 20
-57.1636
 30
0.0
 10
133.5136
 20
-57.1636
 30
0.0
 10
133.5136
 20
-57.1636
 30
0.0
 10
133.5136
 20
-57.1636
 30
0.0
 10
125.5791
 20
-49.2291
 30
0.0
 10
125.5791
 20
-49.2291
 30
0.0
  0
SPLINE
  5
7A
330
1F
100
AcDbEntity
  8
layer 1
 62
     7
100
AcDbSpline
210
0.0
220
0.0
230
1.0
 70
    11
 71
     3
 72
    88
 73
    84
 74
     0
 42
0.0000000001
 43
0.0000000001
 12
1.0
 22
0.0
 32
0.0
 13
1.0
 23
0.0
 33
0.0
 40
0.0
 40
0.0
 40
0.0
 40
0.0
 40
0.0454545454545455
 40
0.0454545454545455
 40
0.0454545454545455
 40
0.0454545454545455
 40
0.0909090909090909
 40
0.0909090909090909
 40
0.0909090909090909
 40
0.0909090909090909
 40
0.1363636363636364
 40
0.1363636363636364
 40
0.1363636363636364
 40
0.1363636363636364
 40
0.1818181818181818
 40
0.1818181818181818
 40
0.1818181818181818
 40
0.1818181818181818
 40
0.2272727272727273
 40
0.2272727272727273
 40
0.2272727272727273
 40
0.2272727272727273
 40
0.2727272727272727
 40
0.2727272727272727
 40
0.2727272727272727
 40
0.2727272727272727
 40
0.3181818181818182
 40
0.3181818181818182
 40
0.3181818181818182
 40
0.3181818181818182
 40
0.3636363636363636
 40
0.3636363636363636
 40
0.3636363636363636
 40
0.3636363636363636
 40
0.4090909090909091
 40
0.4090909090909091
 40
0.4090909090909091
 40
0.4090909090909091
 40
0.4545454545454545
 40
0.4545454545454545
 40
0.4545454545454545
 40
0.4545454545454545
 40
0.5
 40
0.5
 40
0.5
 40
0.5
 40
0.5454545454545454
 40
0.5454545454545454
 40
0.5454545454545454
 40
0.5454545454545454
 40
0.5909090909090909
 40
0.5909090909090909
 40
0.5909090909090909
 40
0.5909090909090909
 40
0.6363636363636364
 40
0.6363636363636364
 40
0.6363636363636364
 40
0.6363636363636364
 40
0.6818181818181818
 40
0.6818181818181818
 40
0.6818181818181818
 40
0.6818181818181818
 40
0.7272727272727273
 40
0.7272727272727273
 40
0.7272727272727273
 40
0.7272727272727273
 40
0.7727272727272727
 40
0.7727272727272727
 40
0.7727272727272727
 40
0.7727272727272727
 40
0.8181818181818182
 40
0.8181818181818182
 40
0.8181818181818182
 40
0.8181818181818182
 40
0.8636363636363636
 40
0.8636363636363636
 40
0.8636363636363636
 40
0.8636363636363636
 40
0.9090909090909091
 40
0.9090909090909091
 40
0.9090909090909091
 40
0.9090909090909091
 40
1.0
 40
1.0
 40
1.0
 40
1.0
 10
147.1374
 20
-49.1935
 30
0.0
 10
147.128
 20
-48.0467
 30
0.0
 10
146.5595
 20
-47.4435
 30
0.0
 10
146.5595
 20
-47.4435
 30
0.0
 10
146.5595
 20
-47.4435
 30
0.0
 10
146.5595
 20
-47.4435
 30
0.0
 10
136.8553
 20
-37.6555
 30
0.0
 10
136.8553
 20
-37.6555
 30
0.0
 10
136.8553
 20
-37.6555
 30
0.0
 10
136.8553
 20
-37.6555
 30
0.0
 10
141.1781
 20
-33.3327
 30
0.0
 10
141.1781
 20
-33.3327
 30
0.0
 10
141.1781
 20
-33.3327
 30
0.0
 10
141.1781
 20
-33.3327
 30
0.0
 10
150.8425
 20
-42.8425
 30
0.0
 10
150.8425
 20
-42.8425
 30
0.0
 10
150.8425
 20
-42.8425
 30
0.0
 10
150.8425
 20
-42.8425
 30
0.0
 10
151.767
 20
-43.7759
 30
0.0
 10
152.7325
 20
-43.6846
 30
0.0
 10
152.7325
 20
-43.6846
 30
0.0
 10
153.6982
 20
-43.5933
 30
0.0
 10
154.5885
 20
-42.8073
 30
0.0
 10
154.5885
 20
-42.8073
 30
0.0
 10
154.5885
 20
-42.8073
 30
0.0
 10
154.5885
 20
-42.8073
 30
0.0
 10
164.2844
 20
-33.3858
 30
0.0
 10
164.2844
 20
-33.3858
 30
0.0
 10
164.2844
 20
-33.3858
 30
0.0
 10
164.2844
 20
-33.3858
 30
0.0
 10
168.6072
 20
-37.7086
 30
0.0
 10
168.6072
 20
-37.7086
 30
0.0
 10
168.6072
 20
-37.7086
 30
0.0
 10
168.6072
 20
-37.7086
 30
0.0
 10
158.9623
 20
-47.2476
 30
0.0
 10
158.9623
 20
-47.2476
 30
0.0
 10
158.9623
 20
-47.2476
 30
0.0
 10
158.9623
 20
-47.2476
 30
0.0
 10
158.1635
 20
-48.1213
 30
0.0
 10
158.1684
 20
-49.1244
 30
0.0
 10
158.1684
 20
-49.1244
 30
0.0
 10
158.1733
 20
-50.1274
 30
0.0
 10
158.7692
 20
-50.837
 30
0.0
 10
158.7692
 20
-50.837
 30
0.0
 10
158.7692
 20
-50.837
 30
0.0
 10
158.7692
 20
-50.837
 30
0.0
 10
168.5995
 20
-60.686
 30
0.0
 10
168.5995
 20
-60.686
 30
0.0
 10
168.5995
 20
-60.686
 30
0.0
 10
168.5995
 20
-60.686
 30
0.0
 10
164.1745
 20
-65.1111
 30
0.0
 10
164.1745
 20
-65.1111
 30
0.0
 10
164.1745
 20
-65.1111
 30
0.0
 10
164.1745
 20
-65.1111
 30
0.0
 10
154.848
 20
-55.7846
 30
0.0
 10
154.848
 20
-55.7846
 30
0.0
 10
154.848
 20
-55.7846
 30
0.0
 10
154.848
 20
-55.7846
 30
0.0
 10
153.9
 20
-54.6458
 30
0.0
 10
152.7497
 20
-54.6603
 30
0.0
 10
152.7497
 20
-54.6603
 30
0.0
 10
151.5995
 20
-54.6747
 30
0.0
 10
150.8341
 20
-55.5075
 30
0.0
 10
150.8341
 20
-55.5075
 30
0.0
 10
150.8341
 20
-55.5075
 30
0.0
 10
150.8341
 20
-55.5075
 30
0.0
 10
141.322
 20
-65.1981
 30
0.0
 10
141.322
 20
-65.1981
 30
0.0
 10
141.322
 20
-65.1981
 30
0.0
 10
141.322
 20
-65.1981
 30
0.0
 10
136.8629
 20
-60.7391
 30
0.0
 10
136.8629
 20
-60.7391
 30
0.0
 10
136.8629
 20
-60.7391
 30
0.0
 10
136.8629
 20
-60.7391
 30
0.0
 10
146.6492
 20
-50.8464
 30
0.0
 10
146.6492
 20
-50.8464
 30
0.0
 10
146.6492
 20
-50.8464
 30
0.0
 10
146.6492
 20
-50.8464
 30
0.0
 10
147.1469
 20
-50.3402
 30
0.0
 10
147.1374
 20
-49.1934
 30
0.0
 10
147.1374
 20
-49.1934
 30
0.0
 10
147.1374
 20
-49.1934
 30
0.0
 10
147.1374
 20
-49.1935
 30
0.0
 10
147.1374
 20
-49.1935
 30
0.0
  0
SPLINE
  5
7B
330
1F
100
AcDbEntity
  8
layer 1
 62
     7
100
AcDbSpline
210
0.0
220
0.0
230
1.0
 70
    11
 71
     3
 72
    20
 73
    16
 74
     0
 42
0.0000000001
 43
0.0000000001
 12
1.0
 22
0.0
 32
0.0
 13
1.0
 23
0.0
 33
0.0
 40
0.0
 40
0.0
 40
0.0
 40
0.0
 40
0.2
 40
0.2
 40
0.2
 40
0.2
 40
0.4
 40
0.4
 40
0.4
 40
0.4
 40
0.6
 40
0.6
 40
0.6
 40
0.6
 40
1.0
 40
1.0
 40
1.0
 40
1.0
 10
164.0413
 20
-49.2291
 30
0.0
 10
164.0413
 20
-49.2291
 30
0.0
 10
171.9758
 20
-41.2946
 30
0.0
 10
171.9758
 20
-41.2946
 30
0.0
 10
171.9758
 20
-41.2946
 30
0.0
 10
171.9758
 20
-41.2946
 30
0.0
 10
179.9104
 20
-49.2291
 30
0.0
 10
179.9104
 20
-49.2291
 30
0.0
 10
179.9104
 20
-49.2291
 30
0.0
 10
179.9104
 20
-49.2291
 30
0.0
 10
171.9758
 20
-57.1636
 30
0.0
 10
171.9758
 20
-57.1636
 30
0.0
 10
171.9758
 20
-57.1636
 30
0.0
 10
171.9758
 20
-57.1636
 30
0.0
 10
164.0413
 20
-49.2291
 30
0.0
 10
164.0413
 20
-49.2291
 30
0.0
  0
SPLINE
  5
7C
330
1F
100
AcDbEntity
  8
layer 1
 62
     7
100
AcDbSpline
210
0.0
220
0.0
230
1.0
 70
    11
 71
     3
 72
    20
 73
    16
 74
     0
 42
0.0000000001
 43
0.0000000001
 12
1.0
 22
0.0
 32
0.0
 13
1.0
 23
0.0
 33
0.0
 40
0.0
 40
0.0
 40
0.0
 40
0.0
 40
0.2
 40
0.2
 40
0.2
 40
0.2
 40
0.4
 40
0.4
 40
0.4
 40
0.4
 40
0.6
 40
0.6
 40
0.6
 40
0.6
 40
1.0
 40
1.0
 40
1.0
 40
1.0
 10
87.0258
 20
-49.2291
 30
0.0
 10
87.0258
 20
-49.2291
 30
0.0
 10
94.9603
 20
-41.2946
 30
0.0
 10
94.9603
 20
-41.2946
 30
0.0
 10
94.9603
 20
-41.2946
 30
0.0
 10
94.9603
 20
-41.2946
 30
0.0
 10
102.8949
 20
-49.2291
 30
0.0
 10
102.8949
 20
-49.2291
 30
0.0
 10
102.8949
 20
-49.2291
 30
0.0
 10
102.8949
 20
-49.2291
 30
0.0
 10
94.9603
 20
-57.1636
 30
0.0
 10
94.9603
 20
-57.1636
 30
0.0
 10
94.9603
 20
-57.1636
 30
0.0
 10
94.9603
 20
-57.1636
 30
0.0
 10
87.0258
 20
-49.2291
 30
0.0
 10
87.0258
 20
-49.2291
 30
0.0
  0
SPLINE
  5
7D
330
1F
100
AcDbEntity
  8
layer 1
 62
     7
100
AcDbSpline
210
0.0
220
0.0
230
1.0
 70
    11
 71
     3
 72
    40
 73
    36
 74
     0
 42
0.0000000001
 43
0.0000000001
 12
1.0
 22
0.0
 32
0.0
 13
1.0
 23
0.0
 33
0.0
 40
0.0
 40
0.0
 40
0.0
 40
0.0
 40
0.1
 40
0.1
 40
0.1
 40
0.1
 40
0.2
 40
0.2
 40
0.2
 40
0.2
 40
0.3
 40
0.3
 40
0.3
 40
0.3
 40
0.4
 40
0.4
 40
0.4
 40
0.4
 40
0.5
 40
0.5
 40
0.5
 40
0.5
 40
0.6
 40
0.6
 40
0.6
 40
0.6
 40
0.7
 40
0.7
 40
0.7
 40
0.7
 40
0.8
 40
0.8
 40
0.8
 40
0.8
 40
1.0
 40
1.0
 40
1.0
 40
1.0
 10
78.8623
 20
-41.466
 30
0.0
 10
78.8623
 20
-41.466
 30
0.0
 10
87.1779
 20
-33.3858
 30
0.0
 10
87.1779
 20
-33.3858
 30
0.0
 10
87.1779
 20
-33.3858
 30
0.0
 10
87.1779
 20
-33.3858
 30
0.0
 10
91.5007
 20
-37.7086
 30
0.0
 10
91.5007
 20
-37.7086
 30
0.0
 10
91.5007
 20
-37.7086
 30
0.0
 10
91.5007
 20
-37.7086
 30
0.0
 10
81.8557
 20
-47.2476
 30
0.0
 10
81.8557
 20
-47.2476
 30
0.0
 10
81.8557
 20
-47.2476
 30
0.0
 10
81.8557
 20
-47.2476
 30
0.0
 10
81.057
 20
-48.1213
 30
0.0
 10
81.0619
 20
-49.1244
 30
0.0
 10
81.0619
 20
-49.1244
 30
0.0
 10
81.0667
 20
-50.1274
 30
0.0
 10
81.6627
 20
-50.837
 30
0.0
 10
81.6627
 20
-50.837
 30
0.0
 10
81.6627
 20
-50.837
 30
0.0
 10
81.6627
 20
-50.837
 30
0.0
 10
91.493
 20
-60.686
 30
0.0
 10
91.493
 20
-60.686
 30
0.0
 10
91.493
 20
-60.686
 30
0.0
 10
91.493
 20
-60.686
 30
0.0
 10
87.0679
 20
-65.1111
 30
0.0
 10
87.0679
 20
-65.1111
 30
0.0
 10
87.0679
 20
-65.1111
 30
0.0
 10
87.0679
 20
-65.1111
 30
0.0
 10
78.8611
 20
-56.9042
 30
0.0
 10
78.8611
 20
-56.9042
 30
0.0
 10
78.8611
 20
-56.9042
 30
0.0
 10
78.8611
 20
-56.9042
 30
0.0
 10
78.8623
 20
-41.466
 30
0.0
 10
78.8623
 20
-41.466
 30
0.0
  0
SPLINE
  5
7E
330
1F
100
AcDbEntity
  8
layer 1
 62
     7
100
AcDbSpline
210
0.0
220
0.0
230
1.0
 70
    11
 71
     3
 72
    40
 73
    36
 74
     0
 42
0.0000000001
 43
0.0000000001
 12
1.0
 22
0.0
 32
0.0
 13
1.0
 23
0.0
 33
0.0
 40
0.0
 40
0.0
 40
0.0
 40
0.0
 40
0.1
 40
0.1
 40
0.1
 40
0.1
 40
0.2
 40
0.2
 40
0.2
 40
0.2
 40
0.3
 40
0.3
 40
0.3
 40
0.3
 40
0.4
 40
0.4
 40
0.4
 40
0.4
 40
0.5
 40
0.5
 40
0.5
 40
0.5
 40
0.6
 40
0.6
 40
0.6
 40
0.6
 40
0.7
 40
0.7
 40
0.7
 40
0.7
 40
0.8
 40
0.8
 40
0.8
 40
0.8
 40
1.0
 40
1.0
 40
1.0
 40
1.0
 10
188.1107
 20
-41.466
 30
0.0
 10
188.1107
 20
-41.466
 30
0.0
 10
179.7952
 20
-33.3858
 30
0.0
 10
179.7952
 20
-33.3858
 30
0.0
 10
179.7952
 20
-33.3858
 30
0.0
 10
179.7952
 20
-33.3858
 30
0.0
 10
175.4723
 20
-37.7086
 30
0.0
 10
175.4723
 20
-37.7086
 30
0.0
 10
175.4723
 20
-37.7086
 30
0.0
 10
175.4723
 20
-37.7086
 30
0.0
 10
185.1173
 20
-47.2476
 30
0.0
 10
185.1173
 20
-47.2476
 30
0.0
 10
185.1173
 20
-47.2476
 30
0.0
 10
185.1173
 20
-47.2476
 30
0.0
 10
185.916
 20
-48.1213
 30
0.0
 10
185.9112
 20
-49.1244
 30
0.0
 10
185.9112
 20
-49.1244
 30
0.0
 10
185.9063
 20
-50.1274
 30
0.0
 10
185.3104
 20
-50.837
 30
0.0
 10
185.3104
 20
-50.837
 30
0.0
 10
185.3104
 20
-50.837
 30
0.0
 10
185.3104
 20
-50.837
 30
0.0
 10
175.4801
 20
-60.686
 30
0.0
 10
175.4801
 20
-60.686
 30
0.0
 10
175.4801
 20
-60.686
 30
0.0
 10
175.4801
 20
-60.686
 30
0.0
 10
179.9051
 20
-65.1111
 30
0.0
 10
179.9051
 20
-65.1111
 30
0.0
 10
179.9051
 20
-65.1111
 30
0.0
 10
179.9051
 20
-65.1111
 30
0.0
 10
188.1119
 20
-56.9042
 30
0.0
 10
188.1119
 20
-56.9042
 30
0.0
 10
188.1119
 20
-56.9042
 30
0.0
 10
188.1119
 20
-56.9042
 30
0.0
 10
188.1107
 20
-41.466
 30
0.0
 10
188.1107
 20
-41.466
 30
0.0
  0
SPLINE
  5
7F
330
1F
100
AcDbEntity
  8
layer 1
 62
     7
100
AcDbSpline
210
0.0
220
0.0
230
1.0
 70
    11
 71
     3
 72
    20
 73
    16
 74
     0
 42
0.0000000001
 43
0.0000000001
 12
1.0
 22
0.0
 32
0.0
 13
1.0
 23
0.0
 33
0.0
 40
0.0
 40
0.0
 40
0.0
 40
0.0
 40
0.2
 40
0.2
 40
0.2
 40
0.2
 40
0.4
 40
0.4
 40
0.4
 40
0.4
 40
0.6
 40
0.6
 40
0.6
 40
0.6
 40
1.0
 40
1.0
 40
1.0
 40
1.0
 10
144.719
 20
-30.0892
 30
0.0
 10
144.719
 20
-30.0892
 30
0.0
 10
152.6536
 20
-22.1546
 30
0.0
 10
152.6536
 20
-22.1546
 30
0.0
 10
152.6536
 20
-22.1546
 30
0.0
 10
152.6536
 20
-22.1546
 30
0.0
 10
160.5881
 20
-30.0892
 30
0.0
 10
160.5881
 20
-30.0892
 30
0.0
 10
160.5881
 20
-30.0892
 30
0.0
 10
160.5881
 20
-30.0892
 30
0.0
 10
152.6536
 20
-38.0237
 30
0.0
 10
152.6536
 20
-38.0237
 30
0.0
 10
152.6536
 20
-38.0237
 30
0.0
 10
152.6536
 20
-38.0237
 30
0.0
 10
144.719
 20
-30.0892
 30
0.0
 10
144.719
 20
-30.0892
 30
0.0
  0
SPLINE
  5
80
330
1F
100
AcDbEntity
  8
layer 1
 62
     7
100
AcDbSpline
210
0.0
220
0.0
230
1.0
 70
    11
 71
     3
 72
    20
 73
    16
 74
     0
 42
0.0000000001
 43
0.0000000001
 12
1.0
 22
0.0
 32
0.0
 13
1.0
 23
0.0
 33
0.0
 40
0.0
 40
0.0
 40
0.0
 40
0.0
 40
0.2
 40
0.2
 40
0.2
 40
0.2
 40
0.4
 40
0.4
 40
0.4
 40
0.4
 40
0.6
 40
0.6
 40
0.6
 40
0.6
 40
1.0
 40
1.0
 40
1.0
 40
1.0
 10
129.5658
 20
-30.1179
 30
0.0
 10
129.5658
 20
-30.1179
 30
0.0
 10
133.6401
 20
-26.0436
 30
0.0
 10
133.6401
 20
-26.0436
 30
0.0
 10
133.6401
 20
-26.0436
 30
0.0
 10
133.6401
 20
-26.0436
 30
0.0
 10
137.7145
 20
-30.1179
 30
0.0
 10
137.7145
 20
-30.1179
 30
0.0
 10
137.7145
 20
-30.1179
 30
0.0
 10
137.7145
 20
-30.1179
 30
0.0
 10
133.6401
 20
-34.1923
 30
0.0
 10
133.6401
 20
-34.1923
 30
0.0
 10
133.6401
 20
-34.1923
 30
0.0
 10
133.6401
 20
-34.1923
 30
0.0
 10
129.5658
 20
-30.1179
 30
0.0
 10
129.5658
 20
-30.1179
 30
0.0
  0
SPLINE
  5
81
330
1F
100
AcDbEntity
  8
layer 1
 62
     7
100
AcDbSpline
210
0.0
220
0.0
230
1.0
 70
    11
 71
     3
 72
    20
 73
    16
 74
     0
 42
0.0000000001
 43
0.0000000001
 12
1.0
 22
0.0
 32
0.0
 13
1.0
 23
0.0
 33
0.0
 40
0.0
 40
0.0
 40
0.0
 40
0.0
 40
0.2
 40
0.2
 40
0.2
 40
0.2
 40
0.4
 40
0.4
 40
0.4
 40
0.4
 40
0.6
 40
0.6
 40
0.6
 40
0.6
 40
1.0
 40
1.0
 40
1.0
 40
1.0
 10
168.028
 20
-30.1179
 30
0.0
 10
168.028
 20
-30.1179
 30
0.0
 10
172.1023
 20
-26.0436
 30
0.0
 10
172.1023
 20
-26.0436
 30
0.0
 10
172.1023
 20
-26.0436
 30
0.0
 10
172.1023
 20
-26.0436
 30
0.0
 10
176.1766
 20
-30.1179
 30
0.0
 10
176.1766
 20
-30.1179
 30
0.0
 10
176.1766
 20
-30.1179
 30
0.0
 10
176.1766
 20
-30.1179
 30
0.0
 10
172.1023
 20
-34.1923
 30
0.0
 10
172.1023
 20
-34.1923
 30
0.0
 10
172.1023
 20
-34.1923
 30
0.0
 10
172.1023
 20
-34.1923
 30
0.0
 10
168.028
 20
-30.1179
 30
0.0
 10
168.028
 20
-30.1179
 30
0.0
  0
SPLINE
  5
82
330
1F
100
AcDbEntity
  8
layer 1
 62
     7
100
AcDbSpline
210
0.0
220
0.0
230
1.0
 70
    11
 71
     3
 72
    16
 73
    12
 74
     0
 42
0.0000000001
 43
0.0000000001
 12
1.0
 22
0.0
 32
0.0
 13
1.0
 23
0.0
 33
0.0
 40
0.0
 40
0.0
 40
0.0
 40
0.0
 40
0.25
 40
0.25
 40
0.25
 40
0.25
 40
0.5
 40
0.5
 40
0.5
 40
0.5
 40
1.0
 40
1.0
 40
1.0
 40
1.0
 10
78.7891
 20
-25.0543
 30
0.0
 10
78.7891
 20
-25.0543
 30
0.0
 10
83.6417
 20
-29.9069
 30
0.0
 10
83.6417
 20
-29.9069
 30
0.0
 10
83.6417
 20
-29.9069
 30
0.0
 10
83.6417
 20
-29.9069
 30
0.0
 10
78.7416
 20
-34.807
 30
0.0
 10
78.7416
 20
-34.807
 30
0.0
 10
78.7416
 20
-34.807
 30
0.0
 10
78.7416
 20
-34.807
 30
0.0
 10
78.7891
 20
-25.0543
 30
0.0
 10
78.7891
 20
-25.0543
 30
0.0
  0
SPLINE
  5
83
330
1F
100
AcDbEntity
  8
layer 1
 62
     7
100
AcDbSpline
210
0.0
220
0.0
230
1.0
 70
    11
 71
     3
 72
    16
 73
    12
 74
     0
 42
0.0000000001
 43
0.0000000001
 12
1.0
 22
0.0
 32
0.0
 13
1.0
 23
0.0
 33
0.0
 40
0.0
 40
0.0
 40
0.0
 40
0.0
 40
0.25
 40
0.25
 40
0.25
 40
0.25
 40
0.5
 40
0.5
 40
0.5
 40
0.5
 40
1.0
 40
1.0
 40
1.0
 40
1.0
 10
188.0653
 20
-25.1455
 30
0.0
 10
188.0653
 20
-25.1455
 30
0.0
 10
183.2127
 20
-29.998
 30
0.0
 10
183.2127
 20
-29.998
 30
0.0
 10
183.2127
 20
-29.998
 30
0.0
 10
183.2127
 20
-29.998
 30
0.0
 10
188.1129
 20
-34.8981
 30
0.0
 10
188.1129
 20
-34.8981
 30
0.0
 10
188.1129
 20
-34.8981
 30
0.0
 10
188.1129
 20
-34.8981
 30
0.0
 10
188.0653
 20
-25.1455
 30
0.0
 10
188.0653
 20
-25.1455
 30
0.0
  0
SPLINE
  5
84
330
1F
100
AcDbEntity
  8
layer 1
 62
     7
100
AcDbSpline
210
0.0
220
0.0
230
1.0
 70
    11
 71
     3
 72
    20
 73
    16
 74
     0
 42
0.0000000001
 43
0.0000000001
 12
1.0
 22
0.0
 32
0.0
 13
1.0
 23
0.0
 33
0.0
 40
0.0
 40
0.0
 40
0.0
 40
0.0
 40
0.2
 40
0.2
 40
0.2
 40
0.2
 40
0.4
 40
0.4
 40
0.4
 40
0.4
 40
0.6
 40
0.6
 40
0.6
 40
0.6
 40
1.0
 40
1.0
 40
1.0
 40
1.0
 10
106.2569
 20
-68.5377
 30
0.0
 10
106.2569
 20
-68.5377
 30
0.0
 10
114.1914
 20
-60.6032
 30
0.0
 10
114.1914
 20
-60.6032
 30
0.0
 10
114.1914
 20
-60.6032
 30
0.0
 10
114.1914
 20
-60.6032
 30
0.0
 10
122.1259
 20
-68.5377
 30
0.0
 10
122.1259
 20
-68.5377
 30
0.0
 10
122.1259
 20
-68.5377
 30
0.0
 10
122.1259
 20
-68.5377
 30
0.0
 10
114.1914
 20
-76.4722
 30
0.0
 10
114.1914
 20
-76.4722
 30
0.0
 10
114.1914
 20
-76.4722
 30
0.0
 10
114.1914
 20
-76.4722
 30
0.0
 10
106.2569
 20
-68.5377
 30
0.0
 10
106.2569
 20
-68.5377
 30
0.0
  0
SPLINE
  5
85
330
1F
100
AcDbEntity
  8
layer 1
 62
     7
100
AcDbSpline
210
0.0
220
0.0
230
1.0
 70
    11
 71
     3
 72
    20
 73
    16
 74
     0
 42
0.0000000001
 43
0.0000000001
 12
1.0
 22
0.0
 32
0.0
 13
1.0
 23
0.0
 33
0.0
 40
0.0
 40
0.0
 40
0.0
 40
0.0
 40
0.2
 40
0.2
 40
0.2
 40
0.2
 40
0.4
 40
0.4
 40
0.4
 40
0.4
 40
0.6
 40
0.6
 40
0.6
 40
0.6
 40
1.0
 40
1.0
 40
1.0
 40
1.0
 10
91.1036
 20
-68.6575
 30
0.0
 10
91.1036
 20
-68.6575
 30
0.0
 10
95.178
 20
-64.5832
 30
0.0
 10
95.178
 20
-64.5832
 30
0.0
 10
95.178
 20
-64.5832
 30
0.0
 10
95.178
 20
-64.5832
 30
0.0
 10
99.2523
 20
-68.6575
 30
0.0
 10
99.2523
 20
-68.6575
 30
0.0
 10
99.2523
 20
-68.6575
 30
0.0
 10
99.2523
 20
-68.6575
 30
0.0
 10
95.178
 20
-72.7318
 30
0.0
 10
95.178
 20
-72.7318
 30
0.0
 10
95.178
 20
-72.7318
 30
0.0
 10
95.178
 20
-72.7318
 30
0.0
 10
91.1036
 20
-68.6575
 30
0.0
 10
91.1036
 20
-68.6575
 30
0.0
  0
SPLINE
  5
86
330
1F
100
AcDbEntity
  8
layer 1
 62
     7
100
AcDbSpline
210
0.0
220
0.0
230
1.0
 70
    11
 71
     3
 72
    88
 73
    84
 74
     0
 42
0.0000000001
 43
0.0000000001
 12
1.0
 22
0.0
 32
0.0
 13
1.0
 23
0.0
 33
0.0
 40
0.0
 40
0.0
 40
0.0
 40
0.0
 40
0.0454545454545455
 40
0.0454545454545455
 40
0.0454545454545455
 40
0.0454545454545455
 40
0.0909090909090909
 40
0.0909090909090909
 40
0.0909090909090909
 40
0.0909090909090909
 40
0.1363636363636364
 40
0.1363636363636364
 40
0.1363636363636364
 40
0.1363636363636364
 40
0.1818181818181818
 40
0.1818181818181818
 40
0.1818181818181818
 40
0.1818181818181818
 40
0.2272727272727273
 40
0.2272727272727273
 40
0.2272727272727273
 40
0.2272727272727273
 40
0.2727272727272727
 40
0.2727272727272727
 40
0.2727272727272727
 40
0.2727272727272727
 40
0.3181818181818182
 40
0.3181818181818182
 40
0.3181818181818182
 40
0.3181818181818182
 40
0.3636363636363636
 40
0.3636363636363636
 40
0.3636363636363636
 40
0.3636363636363636
 40
0.4090909090909091
 40
0.4090909090909091
 40
0.4090909090909091
 40
0.4090909090909091
 40
0.4545454545454545
 40
0.4545454545454545
 40
0.4545454545454545
 40
0.4545454545454545
 40
0.5
 40
0.5
 40
0.5
 40
0.5
 40
0.5454545454545454
 40
0.5454545454545454
 40
0.5454545454545454
 40
0.5454545454545454
 40
0.5909090909090909
 40
0.5909090909090909
 40
0.5909090909090909
 40
0.5909090909090909
 40
0.6363636363636364
 40
0.6363636363636364
 40
0.6363636363636364
 40
0.6363636363636364
 40
0.6818181818181818
 40
0.6818181818181818
 40
0.6818181818181818
 40
0.6818181818181818
 40
0.7272727272727273
 40
0.7272727272727273
 40
0.7272727272727273
 40
0.7272727272727273
 40
0.7727272727272727
 40
0.7727272727272727
 40
0.7727272727272727
 40
0.7727272727272727
 40
0.8181818181818182
 40
0.8181818181818182
 40
0.8181818181818182
 40
0.8181818181818182
 40
0.8636363636363636
 40
0.8636363636363636
 40
0.8636363636363636
 40
0.8636363636363636
 40
0.9090909090909091
 40
0.9090909090909091
 40
0.9090909090909091
 40
0.9090909090909091
 40
1.0
 40
1.0
 40
1.0
 40
1.0
 10
108.6753
 20
-87.7331
 30
0.0
 10
108.6658
 20
-86.5862
 30
0.0
 10
108.0973
 20
-85.9831
 30
0.0
 10
108.0973
 20
-85.9831
 30
0.0
 10
108.0973
 20
-85.9831
 30
0.0
 10
108.0973
 20
-85.9831
 30
0.0
 10
98.3931
 20
-76.1951
 30
0.0
 10
98.3931
 20
-76.1951
 30
0.0
 10
98.3931
 20
-76.1951
 30
0.0
 10
98.3931
 20
-76.1951
 30
0.0
 10
102.716
 20
-71.8723
 30
0.0
 10
102.716
 20
-71.8723
 30
0.0
 10
102.716
 20
-71.8723
 30
0.0
 10
102.716
 20
-71.8723
 30
0.0
 10
112.3804
 20
-81.3821
 30
0.0
 10
112.3804
 20
-81.3821
 30
0.0
 10
112.3804
 20
-81.3821
 30
0.0
 10
112.3804
 20
-81.3821
 30
0.0
 10
113.3048
 20
-82.3154
 30
0.0
 10
114.2703
 20
-82.2241
 30
0.0
 10
114.2703
 20
-82.2241
 30
0.0
 10
115.236
 20
-82.1329
 30
0.0
 10
116.1263
 20
-81.3469
 30
0.0
 10
116.1263
 20
-81.3469
 30
0.0
 10
116.1263
 20
-81.3469
 30
0.0
 10
116.1263
 20
-81.3469
 30
0.0
 10
125.8222
 20
-71.9253
 30
0.0
 10
125.8222
 20
-71.9253
 30
0.0
 10
125.8222
 20
-71.9253
 30
0.0
 10
125.8222
 20
-71.9253
 30
0.0
 10
130.1451
 20
-76.2481
 30
0.0
 10
130.1451
 20
-76.2481
 30
0.0
 10
130.1451
 20
-76.2481
 30
0.0
 10
130.1451
 20
-76.2481
 30
0.0
 10
120.5001
 20
-85.7871
 30
0.0
 10
120.5001
 20
-85.7871
 30
0.0
 10
120.5001
 20
-85.7871
 30
0.0
 10
120.5001
 20
-85.7871
 30
0.0
 10
119.7014
 20
-86.6608
 30
0.0
 10
119.7062
 20
-87.664
 30
0.0
 10
119.7062
 20
-87.664
 30
0.0
 10
119.7111
 20
-88.6669
 30
0.0
 10
120.307
 20
-89.3765
 30
0.0
 10
120.307
 20
-89.3765
 30
0.0
 10
120.307
 20
-89.3765
 30
0.0
 10
120.307
 20
-89.3765
 30
0.0
 10
130.1373
 20
-99.2256
 30
0.0
 10
130.1373
 20
-99.2256
 30
0.0
 10
130.1373
 20
-99.2256
 30
0.0
 10
130.1373
 20
-99.2256
 30
0.0
 10
125.7123
 20
-103.6506
 30
0.0
 10
125.7123
 20
-103.6506
 30
0.0
 10
125.7123
 20
-103.6506
 30
0.0
 10
125.7123
 20
-103.6506
 30
0.0
 10
116.3859
 20
-94.3242
 30
0.0
 10
116.3859
 20
-94.3242
 30
0.0
 10
116.3859
 20
-94.3242
 30
0.0
 10
116.3859
 20
-94.3242
 30
0.0
 10
115.4378
 20
-93.1854
 30
0.0
 10
114.2875
 20
-93.1998
 30
0.0
 10
114.2875
 20
-93.1998
 30
0.0
 10
113.1373
 20
-93.2143
 30
0.0
 10
112.372
 20
-94.047
 30
0.0
 10
112.372
 20
-94.047
 30
0.0
 10
112.372
 20
-94.047
 30
0.0
 10
112.372
 20
-94.047
 30
0.0
 10
102.8598
 20
-103.7378
 30
0.0
 10
102.8598
 20
-103.7378
 30
0.0
 10
102.8598
 20
-103.7378
 30
0.0
 10
102.8598
 20
-103.7378
 30
0.0
 10
98.4009
 20
-99.2788
 30
0.0
 10
98.4009
 20
-99.2788
 30
0.0
 10
98.4009
 20
-99.2788
 30
0.0
 10
98.4009
 20
-99.2788
 30
0.0
 10
108.187
 20
-89.3862
 30
0.0
 10
108.187
 20
-89.3862
 30
0.0
 10
108.187
 20
-89.3862
 30
0.0
 10
108.187
 20
-89.3862
 30
0.0
 10
108.6847
 20
-88.88
 30
0.0
 10
108.6753
 20
-87.7332
 30
0.0
 10
108.6753
 20
-87.7332
 30
0.0
 10
108.6753
 20
-87.7332
 30
0.0
 10
108.6753
 20
-87.7331
 30
0.0
 10
108.6753
 20
-87.7331
 30
0.0
  0
SPLINE
  5
87
330
1F
100
AcDbEntity
  8
layer 1
 62
     7
100
AcDbSpline
210
0.0
220
0.0
230
1.0
 70
    11
 71
     3
 72
    20
 73
    16
 74
     0
 42
0.0000000001
 43
0.0000000001
 12
1.0
 22
0.0
 32
0.0
 13
1.0
 23
0.0
 33
0.0
 40
0.0
 40
0.0
 40
0.0
 40
0.0
 40
0.2
 40
0.2
 40
0.2
 40
0.2
 40
0.4
 40
0.4
 40
0.4
 40
0.4
 40
0.6
 40
0.6
 40
0.6
 40
0.6
 40
1.0
 40
1.0
 40
1.0
 40
1.0
 10
125.5791
 20
-87.7688
 30
0.0
 10
125.5791
 20
-87.7688
 30
0.0
 10
133.5136
 20
-79.8342
 30
0.0
 10
133.5136
 20
-79.8342
 30
0.0
 10
133.5136
 20
-79.8342
 30
0.0
 10
133.5136
 20
-79.8342
 30
0.0
 10
141.4482
 20
-87.7688
 30
0.0
 10
141.4482
 20
-87.7688
 30
0.0
 10
141.4482
 20
-87.7688
 30
0.0
 10
141.4482
 20
-87.7688
 30
0.0
 10
133.5136
 20
-95.7033
 30
0.0
 10
133.5136
 20
-95.7033
 30
0.0
 10
133.5136
 20
-95.7033
 30
0.0
 10
133.5136
 20
-95.7033
 30
0.0
 10
125.5791
 20
-87.7688
 30
0.0
 10
125.5791
 20
-87.7688
 30
0.0
  0
SPLINE
  5
88
330
1F
100
AcDbEntity
  8
layer 1
 62
     7
100
AcDbSpline
210
0.0
220
0.0
230
1.0
 70
    11
 71
     3
 72
    88
 73
    84
 74
     0
 42
0.0000000001
 43
0.0000000001
 12
1.0
 22
0.0
 32
0.0
 13
1.0
 23
0.0
 33
0.0
 40
0.0
 40
0.0
 40
0.0
 40
0.0
 40
0.0454545454545455
 40
0.0454545454545455
 40
0.0454545454545455
 40
0.0454545454545455
 40
0.0909090909090909
 40
0.0909090909090909
 40
0.0909090909090909
 40
0.0909090909090909
 40
0.1363636363636364
 40
0.1363636363636364
 40
0.1363636363636364
 40
0.1363636363636364
 40
0.1818181818181818
 40
0.1818181818181818
 40
0.1818181818181818
 40
0.1818181818181818
 40
0.2272727272727273
 40
0.2272727272727273
 40
0.2272727272727273
 40
0.2272727272727273
 40
0.2727272727272727
 40
0.2727272727272727
 40
0.2727272727272727
 40
0.2727272727272727
 40
0.3181818181818182
 40
0.3181818181818182
 40
0.3181818181818182
 40
0.3181818181818182
 40
0.3636363636363636
 40
0.3636363636363636
 40
0.3636363636363636
 40
0.3636363636363636
 40
0.4090909090909091
 40
0.4090909090909091
 40
0.4090909090909091
 40
0.4090909090909091
 40
0.4545454545454545
 40
0.4545454545454545
 40
0.4545454545454545
 40
0.4545454545454545
 40
0.5
 40
0.5
 40
0.5
 40
0.5
 40
0.5454545454545454
 40
0.5454545454545454
 40
0.5454545454545454
 40
0.5454545454545454
 40
0.5909090909090909
 40
0.5909090909090909
 40
0.5909090909090909
 40
0.5909090909090909
 40
0.6363636363636364
 40
0.6363636363636364
 40
0.6363636363636364
 40
0.6363636363636364
 40
0.6818181818181818
 40
0.6818181818181818
 40
0.6818181818181818
 40
0.6818181818181818
 40
0.7272727272727273
 40
0.7272727272727273
 40
0.7272727272727273
 40
0.7272727272727273
 40
0.7727272727272727
 40
0.7727272727272727
 40
0.7727272727272727
 40
0.7727272727272727
 40
0.8181818181818182
 40
0.8181818181818182
 40
0.8181818181818182
 40
0.8181818181818182
 40
0.8636363636363636
 40
0.8636363636363636
 40
0.8636363636363636
 40
0.8636363636363636
 40
0.9090909090909091
 40
0.9090909090909091
 40
0.9090909090909091
 40
0.9090909090909091
 40
1.0
 40
1.0
 40
1.0
 40
1.0
 10
147.1374
 20
-87.7331
 30
0.0
 10
147.128
 20
-86.5862
 30
0.0
 10
146.5595
 20
-85.9831
 30
0.0
 10
146.5595
 20
-85.9831
 30
0.0
 10
146.5595
 20
-85.9831
 30
0.0
 10
146.5595
 20
-85.9831
 30
0.0
 10
136.8553
 20
-76.1951
 30
0.0
 10
136.8553
 20
-76.1951
 30
0.0
 10
136.8553
 20
-76.1951
 30
0.0
 10
136.8553
 20
-76.1951
 30
0.0
 10
141.1781
 20
-71.8723
 30
0.0
 10
141.1781
 20
-71.8723
 30
0.0
 10
141.1781
 20
-71.8723
 30
0.0
 10
141.1781
 20
-71.8723
 30
0.0
 10
150.8425
 20
-81.3821
 30
0.0
 10
150.8425
 20
-81.3821
 30
0.0
 10
150.8425
 20
-81.3821
 30
0.0
 10
150.8425
 20
-81.3821
 30
0.0
 10
151.767
 20
-82.3154
 30
0.0
 10
152.7325
 20
-82.2241
 30
0.0
 10
152.7325
 20
-82.2241
 30
0.0
 10
153.6982
 20
-82.1329
 30
0.0
 10
154.5885
 20
-81.3469
 30
0.0
 10
154.5885
 20
-81.3469
 30
0.0
 10
154.5885
 20
-81.3469
 30
0.0
 10
154.5885
 20
-81.3469
 30
0.0
 10
164.2844
 20
-71.9253
 30
0.0
 10
164.2844
 20
-71.9253
 30
0.0
 10
164.2844
 20
-71.9253
 30
0.0
 10
164.2844
 20
-71.9253
 30
0.0
 10
168.6072
 20
-76.2481
 30
0.0
 10
168.6072
 20
-76.2481
 30
0.0
 10
168.6072
 20
-76.2481
 30
0.0
 10
168.6072
 20
-76.2481
 30
0.0
 10
158.9623
 20
-85.7871
 30
0.0
 10
158.9623
 20
-85.7871
 30
0.0
 10
158.9623
 20
-85.7871
 30
0.0
 10
158.9623
 20
-85.7871
 30
0.0
 10
158.1635
 20
-86.6608
 30
0.0
 10
158.1684
 20
-87.664
 30
0.0
 10
158.1684
 20
-87.664
 30
0.0
 10
158.1733
 20
-88.6669
 30
0.0
 10
158.7692
 20
-89.3765
 30
0.0
 10
158.7692
 20
-89.3765
 30
0.0
 10
158.7692
 20
-89.3765
 30
0.0
 10
158.7692
 20
-89.3765
 30
0.0
 10
168.5995
 20
-99.2256
 30
0.0
 10
168.5995
 20
-99.2256
 30
0.0
 10
168.5995
 20
-99.2256
 30
0.0
 10
168.5995
 20
-99.2256
 30
0.0
 10
164.1745
 20
-103.6506
 30
0.0
 10
164.1745
 20
-103.6506
 30
0.0
 10
164.1745
 20
-103.6506
 30
0.0
 10
164.1745
 20
-103.6506
 30
0.0
 10
154.848
 20
-94.3242
 30
0.0
 10
154.848
 20
-94.3242
 30
0.0
 10
154.848
 20
-94.3242
 30
0.0
 10
154.848
 20
-94.3242
 30
0.0
 10
153.9
 20
-93.1854
 30
0.0
 10
152.7497
 20
-93.1998
 30
0.0
 10
152.7497
 20
-93.1998
 30
0.0
 10
151.5995
 20
-93.2143
 30
0.0
 10
150.8341
 20
-94.047
 30
0.0
 10
150.8341
 20
-94.047
 30
0.0
 10
150.8341
 20
-94.047
 30
0.0
 10
150.8341
 20
-94.047
 30
0.0
 10
141.322
 20
-103.7377
 30
0.0
 10
141.322
 20
-103.7377
 30
0.0
 10
141.322
 20
-103.7377
 30
0.0
 10
141.322
 20
-103.7377
 30
0.0
 10
136.8629
 20
-99.2786
 30
0.0
 10
136.8629
 20
-99.2786
 30
0.0
 10
136.8629
 20
-99.2786
 30
0.0
 10
136.8629
 20
-99.2786
 30
0.0
 10
146.6492
 20
-89.3859
 30
0.0
 10
146.6492
 20
-89.3859
 30
0.0
 10
146.6492
 20
-89.3859
 30
0.0
 10
146.6492
 20
-89.3859
 30
0.0
 10
147.1469
 20
-88.8797
 30
0.0
 10
147.1374
 20
-87.7329
 30
0.0
 10
147.1374
 20
-87.7329
 30
0.0
 10
147.1374
 20
-87.7329
 30
0.0
 10
147.1374
 20
-87.7331
 30
0.0
 10
147.1374
 20
-87.7331
 30
0.0
  0
SPLINE
  5
89
330
1F
100
AcDbEntity
  8
layer 1
 62
     7
100
AcDbSpline
210
0.0
220
0.0
230
1.0
 70
    11
 71
     3
 72
    20
 73
    16
 74
     0
 42
0.0000000001
 43
0.0000000001
 12
1.0
 22
0.0
 32
0.0
 13
1.0
 23
0.0
 33
0.0
 40
0.0
 40
0.0
 40
0.0
 40
0.0
 40
0.2
 40
0.2
 40
0.2
 40
0.2
 40
0.4
 40
0.4
 40
0.4
 40
0.4
 40
0.6
 40
0.6
 40
0.6
 40
0.6
 40
1.0
 40
1.0
 40
1.0
 40
1.0
 10
164.0413
 20
-87.7688
 30
0.0
 10
164.0413
 20
-87.7688
 30
0.0
 10
171.9758
 20
-79.8342
 30
0.0
 10
171.9758
 20
-79.8342
 30
0.0
 10
171.9758
 20
-79.8342
 30
0.0
 10
171.9758
 20
-79.8342
 30
0.0
 10
179.9104
 20
-87.7688
 30
0.0
 10
179.9104
 20
-87.7688
 30
0.0
 10
179.9104
 20
-87.7688
 30
0.0
 10
179.9104
 20
-87.7688
 30
0.0
 10
171.9758
 20
-95.7033
 30
0.0
 10
171.9758
 20
-95.7033
 30
0.0
 10
171.9758
 20
-95.7033
 30
0.0
 10
171.9758
 20
-95.7033
 30
0.0
 10
164.0413
 20
-87.7688
 30
0.0
 10
164.0413
 20
-87.7688
 30
0.0
  0
SPLINE
  5
8A
330
1F
100
AcDbEntity
  8
layer 1
 62
     7
100
AcDbSpline
210
0.0
220
0.0
230
1.0
 70
    11
 71
     3
 72
    20
 73
    16
 74
     0
 42
0.0000000001
 43
0.0000000001
 12
1.0
 22
0.0
 32
0.0
 13
1.0
 23
0.0
 33
0.0
 40
0.0
 40
0.0
 40
0.0
 40
0.0
 40
0.2
 40
0.2
 40
0.2
 40
0.2
 40
0.4
 40
0.4
 40
0.4
 40
0.4
 40
0.6
 40
0.6
 40
0.6
 40
0.6
 40
1.0
 40
1.0
 40
1.0
 40
1.0
 10
87.0258
 20
-87.7688
 30
0.0
 10
87.0258
 20
-87.7688
 30
0.0
 10
94.9603
 20
-79.8342
 30
0.0
 10
94.9603
 20
-79.8342
 30
0.0
 10
94.9603
 20
-79.8342
 30
0.0
 10
94.9603
 20
-79.8342
 30
0.0
 10
102.8949
 20
-87.7688
 30
0.0
 10
102.8949
 20
-87.7688
 30
0.0
 10
102.8949
 20
-87.7688
 30
0.0
 10
102.8949
 20
-87.7688
 30
0.0
 10
94.9603
 20
-95.7033
 30
0.0
 10
94.9603
 20
-95.7033
 30
0.0
 10
94.9603
 20
-95.7033
 30
0.0
 10
94.9603
 20
-95.7033
 30
0.0
 10
87.0258
 20
-87.7688
 30
0.0
 10
87.0258
 20
-87.7688
 30
0.0
  0
SPLINE
  5
8B
330
1F
100
AcDbEntity
  8
layer 1
 62
     7
100
AcDbSpline
210
0.0
220
0.0
230
1.0
 70
    11
 71
     3
 72
    40
 73
    36
 74
     0
 42
0.0000000001
 43
0.0000000001
 12
1.0
 22
0.0
 32
0.0
 13
1.0
 23
0.0
 33
0.0
 40
0.0
 40
0.0
 40
0.0
 40
0.0
 40
0.1
 40
0.1
 40
0.1
 40
0.1
 40
0.2
 40
0.2
 40
0.2
 40
0.2
 40
0.3
 40
0.3
 40
0.3
 40
0.3
 40
0.4
 40
0.4
 40
0.4
 40
0.4
 40
0.5
 40
0.5
 40
0.5
 40
0.5
 40
0.6
 40
0.6
 40
0.6
 40
0.6
 40
0.7
 40
0.7
 40
0.7
 40
0.7
 40
0.8
 40
0.8
 40
0.8
 40
0.8
 40
1.0
 40
1.0
 40
1.0
 40
1.0
 10
78.8623
 20
-80.0057
 30
0.0
 10
78.8623
 20
-80.0057
 30
0.0
 10
87.1779
 20
-71.9254
 30
0.0
 10
87.1779
 20
-71.9254
 30
0.0
 10
87.1779
 20
-71.9254
 30
0.0
 10
87.1779
 20
-71.9254
 30
0.0
 10
91.5007
 20
-76.2483
 30
0.0
 10
91.5007
 20
-76.2483
 30
0.0
 10
91.5007
 20
-76.2483
 30
0.0
 10
91.5007
 20
-76.2483
 30
0.0
 10
81.8557
 20
-85.7872
 30
0.0
 10
81.8557
 20
-85.7872
 30
0.0
 10
81.8557
 20
-85.7872
 30
0.0
 10
81.8557
 20
-85.7872
 30
0.0
 10
81.057
 20
-86.661
 30
0.0
 10
81.0619
 20
-87.6641
 30
0.0
 10
81.0619
 20
-87.6641
 30
0.0
 10
81.0667
 20
-88.6671
 30
0.0
 10
81.6627
 20
-89.3766
 30
0.0
 10
81.6627
 20
-89.3766
 30
0.0
 10
81.6627
 20
-89.3766
 30
0.0
 10
81.6627
 20
-89.3766
 30
0.0
 10
91.493
 20
-99.2257
 30
0.0
 10
91.493
 20
-99.2257
 30
0.0
 10
91.493
 20
-99.2257
 30
0.0
 10
91.493
 20
-99.2257
 30
0.0
 10
87.0679
 20
-103.6507
 30
0.0
 10
87.0679
 20
-103.6507
 30
0.0
 10
87.0679
 20
-103.6507
 30
0.0
 10
87.0679
 20
-103.6507
 30
0.0
 10
78.8611
 20
-95.4439
 30
0.0
 10
78.8611
 20
-95.4439
 30
0.0
 10
78.8611
 20
-95.4439
 30
0.0
 10
78.8611
 20
-95.4439
 30
0.0
 10
78.8623
 20
-80.0057
 30
0.0
 10
78.8623
 20
-80.0057
 30
0.0
  0
SPLINE
  5
8C
330
1F
100
AcDbEntity
  8
layer 1
 62
     7
100
AcDbSpline
210
0.0
220
0.0
230
1.0
 70
    11
 71
     3
 72
    40
 73
    36
 74
     0
 42
0.0000000001
 43
0.0000000001
 12
1.0
 22
0.0
 32
0.0
 13
1.0
 23
0.0
 33
0.0
 40
0.0
 40
0.0
 40
0.0
 40
0.0
 40
0.1
 40
0.1
 40
0.1
 40
0.1
 40
0.2
 40
0.2
 40
0.2
 40
0.2
 40
0.3
 40
0.3
 40
0.3
 40
0.3
 40
0.4
 40
0.4
 40
0.4
 40
0.4
 40
0.5
 40
0.5
 40
0.5
 40
0.5
 40
0.6
 40
0.6
 40
0.6
 40
0.6
 40
0.7
 40
0.7
 40
0.7
 40
0.7
 40
0.8
 40
0.8
 40
0.8
 40
0.8
 40
1.0
 40
1.0
 40
1.0
 40
1.0
 10
188.1107
 20
-80.0057
 30
0.0
 10
188.1107
 20
-80.0057
 30
0.0
 10
179.7952
 20
-71.9254
 30
0.0
 10
179.7952
 20
-71.9254
 30
0.0
 10
179.7952
 20
-71.9254
 30
0.0
 10
179.7952
 20
-71.9254
 30
0.0
 10
175.4723
 20
-76.2483
 30
0.0
 10
175.4723
 20
-76.2483
 30
0.0
 10
175.4723
 20
-76.2483
 30
0.0
 10
175.4723
 20
-76.2483
 30
0.0
 10
185.1173
 20
-85.7872
 30
0.0
 10
185.1173
 20
-85.7872
 30
0.0
 10
185.1173
 20
-85.7872
 30
0.0
 10
185.1173
 20
-85.7872
 30
0.0
 10
185.916
 20
-86.661
 30
0.0
 10
185.9112
 20
-87.6641
 30
0.0
 10
185.9112
 20
-87.6641
 30
0.0
 10
185.9063
 20
-88.6671
 30
0.0
 10
185.3104
 20
-89.3766
 30
0.0
 10
185.3104
 20
-89.3766
 30
0.0
 10
185.3104
 20
-89.3766
 30
0.0
 10
185.3104
 20
-89.3766
 30
0.0
 10
175.4801
 20
-99.2257
 30
0.0
 10
175.4801
 20
-99.2257
 30
0.0
 10
175.4801
 20
-99.2257
 30
0.0
 10
175.4801
 20
-99.2257
 30
0.0
 10
179.9051
 20
-103.6507
 30
0.0
 10
179.9051
 20
-103.6507
 30
0.0
 10
179.9051
 20
-103.6507
 30
0.0
 10
179.9051
 20
-103.6507
 30
0.0
 10
188.1119
 20
-95.4439
 30
0.0
 10
188.1119
 20
-95.4439
 30
0.0
 10
188.1119
 20
-95.4439
 30
0.0
 10
188.1119
 20
-95.4439
 30
0.0
 10
188.1107
 20
-80.0057
 30
0.0
 10
188.1107
 20
-80.0057
 30
0.0
  0
SPLINE
  5
8D
330
1F
100
AcDbEntity
  8
layer 1
 62
     7
100
AcDbSpline
210
0.0
220
0.0
230
1.0
 70
    11
 71
     3
 72
    20
 73
    16
 74
     0
 42
0.0000000001
 43
0.0000000001
 12
1.0
 22
0.0
 32
0.0
 13
1.0
 23
0.0
 33
0.0
 40
0.0
 40
0.0
 40
0.0
 40
0.0
 40
0.2
 40
0.2
 40
0.2
 40
0.2
 40
0.4
 40
0.4
 40
0.4
 40
0.4
 40
0.6
 40
0.6
 40
0.6
 40
0.6
 40
1.0
 40
1.0
 40
1.0
 40
1.0
 10
144.719
 20
-68.6288
 30
0.0
 10
144.719
 20
-68.6288
 30
0.0
 10
152.6536
 20
-60.6943
 30
0.0
 10
152.6536
 20
-60.6943
 30
0.0
 10
152.6536
 20
-60.6943
 30
0.0
 10
152.6536
 20
-60.6943
 30
0.0
 10
160.5881
 20
-68.6288
 30
0.0
 10
160.5881
 20
-68.6288
 30
0.0
 10
160.5881
 20
-68.6288
 30
0.0
 10
160.5881
 20
-68.6288
 30
0.0
 10
152.6536
 20
-76.5634
 30
0.0
 10
152.6536
 20
-76.5634
 30
0.0
 10
152.6536
 20
-76.5634
 30
0.0
 10
152.6536
 20
-76.5634
 30
0.0
 10
144.719
 20
-68.6288
 30
0.0
 10
144.719
 20
-68.6288
 30
0.0
  0
SPLINE
  5
8E
330
1F
100
AcDbEntity
  8
layer 1
 62
     7
100
AcDbSpline
210
0.0
220
0.0
230
1.0
 70
    11
 71
     3
 72
    20
 73
    16
 74
     0
 42
0.0000000001
 43
0.0000000001
 12
1.0
 22
0.0
 32
0.0
 13
1.0
 23
0.0
 33
0.0
 40
0.0
 40
0.0
 40
0.0
 40
0.0
 40
0.2
 40
0.2
 40
0.2
 40
0.2
 40
0.4
 40
0.4
 40
0.4
 40
0.4
 40
0.6
 40
0.6
 40
0.6
 40
0.6
 40
1.0
 40
1.0
 40
1.0
 40
1.0
 10
129.5658
 20
-68.6575
 30
0.0
 10
129.5658
 20
-68.6575
 30
0.0
 10
133.6401
 20
-64.5832
 30
0.0
 10
133.6401
 20
-64.5832
 30
0.0
 10
133.6401
 20
-64.5832
 30
0.0
 10
133.6401
 20
-64.5832
 30
0.0
 10
137.7145
 20
-68.6575
 30
0.0
 10
137.7145
 20
-68.6575
 30
0.0
 10
137.7145
 20
-68.6575
 30
0.0
 10
137.7145
 20
-68.6575
 30
0.0
 10
133.6401
 20
-72.7318
 30
0.0
 10
133.6401
 20
-72.7318
 30
0.0
 10
133.6401
 20
-72.7318
 30
0.0
 10
133.6401
 20
-72.7318
 30
0.0
 10
129.5658
 20
-68.6575
 30
0.0
 10
129.5658
 20
-68.6575
 30
0.0
  0
SPLINE
  5
8F
330
1F
100
AcDbEntity
  8
layer 1
 62
     7
100
AcDbSpline
210
0.0
220
0.0
230
1.0
 70
    11
 71
     3
 72
    20
 73
    16
 74
     0
 42
0.0000000001
 43
0.0000000001
 12
1.0
 22
0.0
 32
0.0
 13
1.0
 23
0.0
 33
0.0
 40
0.0
 40
0.0
 40
0.0
 40
0.0
 40
0.2
 40
0.2
 40
0.2
 40
0.2
 40
0.4
 40
0.4
 40
0.4
 40
0.4
 40
0.6
 40
0.6
 40
0.6
 40
0.6
 40
1.0
 40
1.0
 40
1.0
 40
1.0
 10
168.028
 20
-68.6576
 30
0.0
 10
168.028
 20
-68.6576
 30
0.0
 10
172.1023
 20
-64.5833
 30
0.0
 10
172.1023
 20
-64.5833
 30
0.0
 10
172.1023
 20
-64.5833
 30
0.0
 10
172.1023
 20
-64.5833
 30
0.0
 10
176.1766
 20
-68.6576
 30
0.0
 10
176.1766
 20
-68.6576
 30
0.0
 10
176.1766
 20
-68.6576
 30
0.0
 10
176.1766
 20
-68.6576
 30
0.0
 10
172.1023
 20
-72.7319
 30
0.0
 10
172.1023
 20
-72.7319
 30
0.0
 10
172.1023
 20
-72.7319
 30
0.0
 10
172.1023
 20
-72.7319
 30
0.0
 10
168.028
 20
-68.6576
 30
0.0
 10
168.028
 20
-68.6576
 30
0.0
  0
SPLINE
  5
90
330
1F
100
AcDbEntity
  8
layer 1
 62
     7
100
AcDbSpline
210
0.0
220
0.0
230
1.0
 70
    11
 71
     3
 72
    16
 73
    12
 74
     0
 42
0.0000000001
 43
0.0000000001
 12
1.0
 22
0.0
 32
0.0
 13
1.0
 23
0.0
 33
0.0
 40
0.0
 40
0.0
 40
0.0
 40
0.0
 40
0.25
 40
0.25
 40
0.25
 40
0.25
 40
0.5
 40
0.5
 40
0.5
 40
0.5
 40
1.0
 40
1.0
 40
1.0
 40
1.0
 10
78.7891
 20
-63.5938
 30
0.0
 10
78.7891
 20
-63.5938
 30
0.0
 10
83.6417
 20
-68.4465
 30
0.0
 10
83.6417
 20
-68.4465
 30
0.0
 10
83.6417
 20
-68.4465
 30
0.0
 10
83.6417
 20
-68.4465
 30
0.0
 10
78.7416
 20
-73.3466
 30
0.0
 10
78.7416
 20
-73.3466
 30
0.0
 10
78.7416
 20
-73.3466
 30
0.0
 10
78.7416
 20
-73.3466
 30
0.0
 10
78.7891
 20
-63.5938
 30
0.0
 10
78.7891
 20
-63.5938
 30
0.0
  0
SPLINE
  5
91
330
1F
100
AcDbEntity
  8
layer 1
 62
     7
100
AcDbSpline
210
0.0
220
0.0
230
1.0
 70
    11
 71
     3
 72
    16
 73
    12
 74
     0
 42
0.0000000001
 43
0.0000000001
 12
1.0
 22
0.0
 32
0.0
 13
1.0
 23
0.0
 33
0.0
 40
0.0
 40
0.0
 40
0.0
 40
0.0
 40
0.25
 40
0.25
 40
0.25
 40
0.25
 40
0.5
 40
0.5
 40
0.5
 40
0.5
 40
1.0
 40
1.0
 40
1.0
 40
1.0
 10
188.0653
 20
-63.685
 30
0.0
 10
188.0653
 20
-63.685
 30
0.0
 10
183.2127
 20
-68.5376
 30
0.0
 10
183.2127
 20
-68.5376
 30
0.0
 10
183.2127
 20
-68.5376
 30
0.0
 10
183.2127
 20
-68.5376
 30
0.0
 10
188.1129
 20
-73.4377
 30
0.0
 10
188.1129
 20
-73.4377
 30
0.0
 10
188.1129
 20
-73.4377
 30
0.0
 10
188.1129
 20
-73.4377
 30
0.0
 10
188.0653
 20
-63.685
 30
0.0
 10
188.0653
 20
-63.685
 30
0.0
  0
SPLINE
  5
92
330
1F
100
AcDbEntity
  8
layer 1
 62
     7
100
AcDbSpline
210
0.0
220
0.0
230
1.0
 70
    11
 71
     3
 72
    24
 73
    20
 74
     0
 42
0.0000000001
 43
0.0000000001
 12
1.0
 22
0.0
 32
0.0
 13
1.0
 23
0.0
 33
0.0
 40
0.0
 40
0.0
 40
0.0
 40
0.0
 40
0.1666666666666667
 40
0.1666666666666667
 40
0.1666666666666667
 40
0.1666666666666667
 40
0.3333333333333333
 40
0.3333333333333333
 40
0.3333333333333333
 40
0.3333333333333333
 40
0.5
 40
0.5
 40
0.5
 40
0.5
 40
0.6666666666666666
 40
0.6666666666666666
 40
0.6666666666666666
 40
0.6666666666666666
 40
1.0
 40
1.0
 40
1.0
 40
1.0
 10
176.1782
 20
123.7829
 30
0.0
 10
176.1782
 20
123.7829
 30
0.0
 10
175.0694
 20
124.8918
 30
0.0
 10
175.0694
 20
124.8918
 30
0.0
 10
175.0694
 20
124.8918
 30
0.0
 10
175.0694
 20
124.8918
 30
0.0
 10
169.1502
 20
124.9034
 30
0.0
 10
169.1502
 20
124.9034
 30
0.0
 10
169.1502
 20
124.9034
 30
0.0
 10
169.1502
 20
124.9034
 30
0.0
 10
168.0297
 20
123.7829
 30
0.0
 10
168.0297
 20
123.7829
 30
0.0
 10
168.0297
 20
123.7829
 30
0.0
 10
168.0297
 20
123.7829
 30
0.0
 10
172.104
 20
119.7086
 30
0.0
 10
172.104
 20
119.7086
 30
0.0
 10
172.104
 20
119.7086
 30
0.0
 10
172.104
 20
119.7086
 30
0.0
 10
176.1782
 20
123.7829
 30
0.0
 10
176.1782
 20
123.7829
 30
0.0
  0
SPLINE
  5
93
330
1F
100
AcDbEntity
  8
layer 1
 62
     7
100
AcDbSpline
210
0.0
220
0.0
230
1.0
 70
    11
 71
     3
 72
    20
 73
    16
 74
     0
 42
0.0000000001
 43
0.0000000001
 12
1.0
 22
0.0
 32
0.0
 13
1.0
 23
0.0
 33
0.0
 40
0.0
 40
0.0
 40
0.0
 40
0.0
 40
0.2
 40
0.2
 40
0.2
 40
0.2
 40
0.4
 40
0.4
 40
0.4
 40
0.4
 40
0.6
 40
0.6
 40
0.6
 40
0.6
 40
1.0
 40
1.0
 40
1.0
 40
1.0
 10
184.0954
 20
124.8676
 30
0.0
 10
184.0954
 20
124.8676
 30
0.0
 10
183.2217
 20
123.9939
 30
0.0
 10
183.2217
 20
123.9939
 30
0.0
 10
183.2217
 20
123.9939
 30
0.0
 10
183.2217
 20
123.9939
 30
0.0
 10
188.1218
 20
119.0937
 30
0.0
 10
188.1218
 20
119.0937
 30
0.0
 10
188.1218
 20
119.0937
 30
0.0
 10
188.1218
 20
119.0937
 30
0.0
 10
188.0935
 20
124.8776
 30
0.0
 10
188.0935
 20
124.8776
 30
0.0
 10
188.0935
 20
124.8776
 30
0.0
 10
188.0935
 20
124.8776
 30
0.0
 10
184.0954
 20
124.8676
 30
0.0
 10
184.0954
 20
124.8676
 30
0.0
  0
SPLINE
  5
94
330
1F
100
AcDbEntity
  8
layer 1
 62
     7
100
AcDbSpline
210
0.0
220
0.0
230
1.0
 70
    11
 71
     3
 72
    24
 73
    20
 74
     0
 42
0.0000000001
 43
0.0000000001
 12
1.0
 22
0.0
 32
0.0
 13
1.0
 23
0.0
 33
0.0
 40
0.0
 40
0.0
 40
0.0
 40
0.0
 40
0.1666666666666667
 40
0.1666666666666667
 40
0.1666666666666667
 40
0.1666666666666667
 40
0.3333333333333333
 40
0.3333333333333333
 40
0.3333333333333333
 40
0.3333333333333333
 40
0.5
 40
0.5
 40
0.5
 40
0.5
 40
0.6666666666666666
 40
0.6666666666666666
 40
0.6666666666666666
 40
0.6666666666666666
 40
1.0
 40
1.0
 40
1.0
 40
1.0
 10
160.6064
 20
123.9027
 30
0.0
 10
160.6064
 20
123.9027
 30
0.0
 10
159.653
 20
124.856
 30
0.0
 10
159.653
 20
124.856
 30
0.0
 10
159.653
 20
124.856
 30
0.0
 10
159.653
 20
124.856
 30
0.0
 10
145.7153
 20
124.8807
 30
0.0
 10
145.7153
 20
124.8807
 30
0.0
 10
145.7153
 20
124.8807
 30
0.0
 10
145.7153
 20
124.8807
 30
0.0
 10
144.7373
 20
123.9027
 30
0.0
 10
144.7373
 20
123.9027
 30
0.0
 10
144.7373
 20
123.9027
 30
0.0
 10
144.7373
 20
123.9027
 30
0.0
 10
152.6718
 20
115.9682
 30
0.0
 10
152.6718
 20
115.9682
 30
0.0
 10
152.6718
 20
115.9682
 30
0.0
 10
152.6718
 20
115.9682
 30
0.0
 10
160.6064
 20
123.9027
 30
0.0
 10
160.6064
 20
123.9027
 30
0.0
  0
SPLINE
  5
95
330
1F
100
AcDbEntity
  8
layer 1
 62
     7
100
AcDbSpline
210
0.0
220
0.0
230
1.0
 70
    11
 71
     3
 72
    24
 73
    20
 74
     0
 42
0.0000000001
 43
0.0000000001
 12
1.0
 22
0.0
 32
0.0
 13
1.0
 23
0.0
 33
0.0
 40
0.0
 40
0.0
 40
0.0
 40
0.0
 40
0.1666666666666667
 40
0.1666666666666667
 40
0.1666666666666667
 40
0.1666666666666667
 40
0.3333333333333333
 40
0.3333333333333333
 40
0.3333333333333333
 40
0.3333333333333333
 40
0.5
 40
0.5
 40
0.5
 40
0.5
 40
0.6666666666666666
 40
0.6666666666666666
 40
0.6666666666666666
 40
0.6666666666666666
 40
1.0
 40
1.0
 40
1.0
 40
1.0
 10
137.7197
 20
123.7829
 30
0.0
 10
137.7197
 20
123.7829
 30
0.0
 10
136.6109
 20
124.8918
 30
0.0
 10
136.6109
 20
124.8918
 30
0.0
 10
136.6109
 20
124.8918
 30
0.0
 10
136.6109
 20
124.8918
 30
0.0
 10
130.6917
 20
124.9034
 30
0.0
 10
130.6917
 20
124.9034
 30
0.0
 10
130.6917
 20
124.9034
 30
0.0
 10
130.6917
 20
124.9034
 30
0.0
 10
129.5712
 20
123.7829
 30
0.0
 10
129.5712
 20
123.7829
 30
0.0
 10
129.5712
 20
123.7829
 30
0.0
 10
129.5712
 20
123.7829
 30
0.0
 10
133.6455
 20
119.7086
 30
0.0
 10
133.6455
 20
119.7086
 30
0.0
 10
133.6455
 20
119.7086
 30
0.0
 10
133.6455
 20
119.7086
 30
0.0
 10
137.7197
 20
123.7829
 30
0.0
 10
137.7197
 20
123.7829
 30
0.0
  0
SPLINE
  5
96
330
1F
100
AcDbEntity
  8
layer 1
 62
     7
100
AcDbSpline
210
0.0
220
0.0
230
1.0
 70
    11
 71
     3
 72
    24
 73
    20
 74
     0
 42
0.0000000001
 43
0.0000000001
 12
1.0
 22
0.0
 32
0.0
 13
1.0
 23
0.0
 33
0.0
 40
0.0
 40
0.0
 40
0.0
 40
0.0
 40
0.1666666666666667
 40
0.1666666666666667
 40
0.1666666666666667
 40
0.1666666666666667
 40
0.3333333333333333
 40
0.3333333333333333
 40
0.3333333333333333
 40
0.3333333333333333
 40
0.5
 40
0.5
 40
0.5
 40
0.5
 40
0.6666666666666666
 40
0.6666666666666666
 40
0.6666666666666666
 40
0.6666666666666666
 40
1.0
 40
1.0
 40
1.0
 40
1.0
 10
91.1036
 20
-106.7025
 30
0.0
 10
91.1036
 20
-106.7025
 30
0.0
 10
92.2125
 20
-107.8113
 30
0.0
 10
92.2125
 20
-107.8113
 30
0.0
 10
92.2125
 20
-107.8113
 30
0.0
 10
92.2125
 20
-107.8113
 30
0.0
 10
98.1316
 20
-107.823
 30
0.0
 10
98.1316
 20
-107.823
 30
0.0
 10
98.1316
 20
-107.823
 30
0.0
 10
98.1316
 20
-107.823
 30
0.0
 10
99.2521
 20
-106.7025
 30
0.0
 10
99.2521
 20
-106.7025
 30
0.0
 10
99.2521
 20
-106.7025
 30
0.0
 10
99.2521
 20
-106.7025
 30
0.0
 10
95.1778
 20
-102.6282
 30
0.0
 10
95.1778
 20
-102.6282
 30
0.0
 10
95.1778
 20
-102.6282
 30
0.0
 10
95.1778
 20
-102.6282
 30
0.0
 10
91.1036
 20
-106.7025
 30
0.0
 10
91.1036
 20
-106.7025
 30
0.0
  0
SPLINE
  5
97
330
1F
100
AcDbEntity
  8
layer 1
 62
     7
100
AcDbSpline
210
0.0
220
0.0
230
1.0
 70
    11
 71
     3
 72
    20
 73
    16
 74
     0
 42
0.0000000001
 43
0.0000000001
 12
1.0
 22
0.0
 32
0.0
 13
1.0
 23
0.0
 33
0.0
 40
0.0
 40
0.0
 40
0.0
 40
0.0
 40
0.2
 40
0.2
 40
0.2
 40
0.2
 40
0.4
 40
0.4
 40
0.4
 40
0.4
 40
0.6
 40
0.6
 40
0.6
 40
0.6
 40
1.0
 40
1.0
 40
1.0
 40
1.0
 10
82.768
 20
-107.7873
 30
0.0
 10
82.768
 20
-107.7873
 30
0.0
 10
83.6417
 20
-106.9136
 30
0.0
 10
83.6417
 20
-106.9136
 30
0.0
 10
83.6417
 20
-106.9136
 30
0.0
 10
83.6417
 20
-106.9136
 30
0.0
 10
78.7416
 20
-102.0135
 30
0.0
 10
78.7416
 20
-102.0135
 30
0.0
 10
78.7416
 20
-102.0135
 30
0.0
 10
78.7416
 20
-102.0135
 30
0.0
 10
78.7697
 20
-107.7973
 30
0.0
 10
78.7697
 20
-107.7973
 30
0.0
 10
78.7697
 20
-107.7973
 30
0.0
 10
78.7697
 20
-107.7973
 30
0.0
 10
82.768
 20
-107.7873
 30
0.0
 10
82.768
 20
-107.7873
 30
0.0
  0
SPLINE
  5
98
330
1F
100
AcDbEntity
  8
layer 1
 62
     7
100
AcDbSpline
210
0.0
220
0.0
230
1.0
 70
    11
 71
     3
 72
    24
 73
    20
 74
     0
 42
0.0000000001
 43
0.0000000001
 12
1.0
 22
0.0
 32
0.0
 13
1.0
 23
0.0
 33
0.0
 40
0.0
 40
0.0
 40
0.0
 40
0.0
 40
0.1666666666666667
 40
0.1666666666666667
 40
0.1666666666666667
 40
0.1666666666666667
 40
0.3333333333333333
 40
0.3333333333333333
 40
0.3333333333333333
 40
0.3333333333333333
 40
0.5
 40
0.5
 40
0.5
 40
0.5
 40
0.6666666666666666
 40
0.6666666666666666
 40
0.6666666666666666
 40
0.6666666666666666
 40
1.0
 40
1.0
 40
1.0
 40
1.0
 10
106.2569
 20
-106.8224
 30
0.0
 10
106.2569
 20
-106.8224
 30
0.0
 10
107.2102
 20
-107.7757
 30
0.0
 10
107.2102
 20
-107.7757
 30
0.0
 10
107.2102
 20
-107.7757
 30
0.0
 10
107.2102
 20
-107.7757
 30
0.0
 10
121.1479
 20
-107.8004
 30
0.0
 10
121.1479
 20
-107.8004
 30
0.0
 10
121.1479
 20
-107.8004
 30
0.0
 10
121.1479
 20
-107.8004
 30
0.0
 10
122.1259
 20
-106.8224
 30
0.0
 10
122.1259
 20
-106.8224
 30
0.0
 10
122.1259
 20
-106.8224
 30
0.0
 10
122.1259
 20
-106.8224
 30
0.0
 10
114.1914
 20
-98.8879
 30
0.0
 10
114.1914
 20
-98.8879
 30
0.0
 10
114.1914
 20
-98.8879
 30
0.0
 10
114.1914
 20
-98.8879
 30
0.0
 10
106.2569
 20
-106.8224
 30
0.0
 10
106.2569
 20
-106.8224
 30
0.0
  0
SPLINE
  5
99
330
1F
100
AcDbEntity
  8
layer 1
 62
     7
100
AcDbSpline
210
0.0
220
0.0
230
1.0
 70
    11
 71
     3
 72
    24
 73
    20
 74
     0
 42
0.0000000001
 43
0.0000000001
 12
1.0
 22
0.0
 32
0.0
 13
1.0
 23
0.0
 33
0.0
 40
0.0
 40
0.0
 40
0.0
 40
0.0
 40
0.1666666666666667
 40
0.1666666666666667
 40
0.1666666666666667
 40
0.1666666666666667
 40
0.3333333333333333
 40
0.3333333333333333
 40
0.3333333333333333
 40
0.3333333333333333
 40
0.5
 40
0.5
 40
0.5
 40
0.5
 40
0.6666666666666666
 40
0.6666666666666666
 40
0.6666666666666666
 40
0.6666666666666666
 40
1.0
 40
1.0
 40
1.0
 40
1.0
 10
176.1782
 20
-106.7025
 30
0.0
 10
176.1782
 20
-106.7025
 30
0.0
 10
175.0694
 20
-107.8113
 30
0.0
 10
175.0694
 20
-107.8113
 30
0.0
 10
175.0694
 20
-107.8113
 30
0.0
 10
175.0694
 20
-107.8113
 30
0.0
 10
169.1502
 20
-107.823
 30
0.0
 10
169.1502
 20
-107.823
 30
0.0
 10
169.1502
 20
-107.823
 30
0.0
 10
169.1502
 20
-107.823
 30
0.0
 10
168.0297
 20
-106.7025
 30
0.0
 10
168.0297
 20
-106.7025
 30
0.0
 10
168.0297
 20
-106.7025
 30
0.0
 10
168.0297
 20
-106.7025
 30
0.0
 10
172.104
 20
-102.6282
 30
0.0
 10
172.104
 20
-102.6282
 30
0.0
 10
172.104
 20
-102.6282
 30
0.0
 10
172.104
 20
-102.6282
 30
0.0
 10
176.1782
 20
-106.7025
 30
0.0
 10
176.1782
 20
-106.7025
 30
0.0
  0
SPLINE
  5
9A
330
1F
100
AcDbEntity
  8
layer 1
 62
     7
100
AcDbSpline
210
0.0
220
0.0
230
1.0
 70
    11
 71
     3
 72
    20
 73
    16
 74
     0
 42
0.0000000001
 43
0.0000000001
 12
1.0
 22
0.0
 32
0.0
 13
1.0
 23
0.0
 33
0.0
 40
0.0
 40
0.0
 40
0.0
 40
0.0
 40
0.2
 40
0.2
 40
0.2
 40
0.2
 40
0.4
 40
0.4
 40
0.4
 40
0.4
 40
0.6
 40
0.6
 40
0.6
 40
0.6
 40
1.0
 40
1.0
 40
1.0
 40
1.0
 10
184.0954
 20
-107.7873
 30
0.0
 10
184.0954
 20
-107.7873
 30
0.0
 10
183.2217
 20
-106.9136
 30
0.0
 10
183.2217
 20
-106.9136
 30
0.0
 10
183.2217
 20
-106.9136
 30
0.0
 10
183.2217
 20
-106.9136
 30
0.0
 10
188.1218
 20
-102.0135
 30
0.0
 10
188.1218
 20
-102.0135
 30
0.0
 10
188.1218
 20
-102.0135
 30
0.0
 10
188.1218
 20
-102.0135
 30
0.0
 10
188.0935
 20
-107.7973
 30
0.0
 10
188.0935
 20
-107.7973
 30
0.0
 10
188.0935
 20
-107.7973
 30
0.0
 10
188.0935
 20
-107.7973
 30
0.0
 10
184.0954
 20
-107.7873
 30
0.0
 10
184.0954
 20
-107.7873
 30
0.0
  0
SPLINE
  5
9B
330
1F
100
AcDbEntity
  8
layer 1
 62
     7
100
AcDbSpline
210
0.0
220
0.0
230
1.0
 70
    11
 71
     3
 72
    24
 73
    20
 74
     0
 42
0.0000000001
 43
0.0000000001
 12
1.0
 22
0.0
 32
0.0
 13
1.0
 23
0.0
 33
0.0
 40
0.0
 40
0.0
 40
0.0
 40
0.0
 40
0.1666666666666667
 40
0.1666666666666667
 40
0.1666666666666667
 40
0.1666666666666667
 40
0.3333333333333333
 40
0.3333333333333333
 40
0.3333333333333333
 40
0.3333333333333333
 40
0.5
 40
0.5
 40
0.5
 40
0.5
 40
0.6666666666666666
 40
0.6666666666666666
 40
0.6666666666666666
 40
0.6666666666666666
 40
1.0
 40
1.0
 40
1.0
 40
1.0
 10
160.6064
 20
-106.8224
 30
0.0
 10
160.6064
 20
-106.8224
 30
0.0
 10
159.653
 20
-107.7757
 30
0.0
 10
159.653
 20
-107.7757
 30
0.0
 10
159.653
 20
-107.7757
 30
0.0
 10
159.653
 20
-107.7757
 30
0.0
 10
145.7153
 20
-107.8004
 30
0.0
 10
145.7153
 20
-107.8004
 30
0.0
 10
145.7153
 20
-107.8004
 30
0.0
 10
145.7153
 20
-107.8004
 30
0.0
 10
144.7373
 20
-106.8224
 30
0.0
 10
144.7373
 20
-106.8224
 30
0.0
 10
144.7373
 20
-106.8224
 30
0.0
 10
144.7373
 20
-106.8224
 30
0.0
 10
152.6718
 20
-98.8879
 30
0.0
 10
152.6718
 20
-98.8879
 30
0.0
 10
152.6718
 20
-98.8879
 30
0.0
 10
152.6718
 20
-98.8879
 30
0.0
 10
160.6064
 20
-106.8224
 30
0.0
 10
160.6064
 20
-106.8224
 30
0.0
  0
SPLINE
  5
9C
330
1F
100
AcDbEntity
  8
layer 1
 62
     7
100
AcDbSpline
210
0.0
220
0.0
230
1.0
 70
    11
 71
     3
 72
    24
 73
    20
 74
     0
 42
0.0000000001
 43
0.0000000001
 12
1.0
 22
0.0
 32
0.0
 13
1.0
 23
0.0
 33
0.0
 40
0.0
 40
0.0
 40
0.0
 40
0.0
 40
0.1666666666666667
 40
0.1666666666666667
 40
0.1666666666666667
 40
0.1666666666666667
 40
0.3333333333333333
 40
0.3333333333333333
 40
0.3333333333333333
 40
0.3333333333333333
 40
0.5
 40
0.5
 40
0.5
 40
0.5
 40
0.6666666666666666
 40
0.6666666666666666
 40
0.6666666666666666
 40
0.6666666666666666
 40
1.0
 40
1.0
 40
1.0
 40
1.0
 10
137.7197
 20
-106.7025
 30
0.0
 10
137.7197
 20
-106.7025
 30
0.0
 10
136.6109
 20
-107.8113
 30
0.0
 10
136.6109
 20
-107.8113
 30
0.0
 10
136.6109
 20
-107.8113
 30
0.0
 10
136.6109
 20
-107.8113
 30
0.0
 10
130.6917
 20
-107.823
 30
0.0
 10
130.6917
 20
-107.823
 30
0.0
 10
130.6917
 20
-107.823
 30
0.0
 10
130.6917
 20
-107.823
 30
0.0
 10
129.5712
 20
-106.7025
 30
0.0
 10
129.5712
 20
-106.7025
 30
0.0
 10
129.5712
 20
-106.7025
 30
0.0
 10
129.5712
 20
-106.7025
 30
0.0
 10
133.6455
 20
-102.6282
 30
0.0
 10
133.6455
 20
-102.6282
 30
0.0
 10
133.6455
 20
-102.6282
 30
0.0
 10
133.6455
 20
-102.6282
 30
0.0
 10
137.7197
 20
-106.7025
 30
0.0
 10
137.7197
 20
-106.7025
 30
0.0
  0
ENDSEC
  0
SECTION
  2
OBJECTS
  0
DICTIONARY
  5
C
330
0
100
AcDbDictionary
281
     1
  3
ACAD_GROUP
350
D
  3
ACAD_LAYOUT
350
1A
  3
ACAD_MATERIAL
350
3B
  3
ACAD_MLEADERSTYLE
350
BF
  3
ACAD_MLINESTYLE
350
17
  3
ACAD_PLOTSETTINGS
350
19
  3
ACAD_PLOTSTYLENAME
350
E
  3
ACAD_TABLESTYLE
350
BE
  3
ACAD_VISUALSTYLE
350
2A
  0
DICTIONARY
  5
D
102
{ACAD_REACTORS
330
C
102
}
330
C
100
AcDbDictionary
281
     1
  0
DICTIONARY
  5
1A
102
{ACAD_REACTORS
330
C
102
}
330
C
100
AcDbDictionary
281
     1
  3
Layout1
350
1E
  3
Layout2
350
26
  3
Model
350
22
  0
DICTIONARY
  5
3B
102
{ACAD_REACTORS
330
C
102
}
330
C
100
AcDbDictionary
281
     1
  3
ByBlock
350
3D
  3
ByLayer
350
3C
  3
Global
350
3E
  0
DICTIONARY
  5
BF
102
{ACAD_REACTORS
330
C
102
}
330
C
100
AcDbDictionary
281
     1
  0
DICTIONARY
  5
17
102
{ACAD_REACTORS
330
C
102
}
330
C
100
AcDbDictionary
281
     1
  3
Standard
350
18
  0
DICTIONARY
  5
19
102
{ACAD_REACTORS
330
C
102
}
330
C
100
AcDbDictionary
281
     1
  0
ACDBDICTIONARYWDFLT
  5
E
102
{ACAD_REACTORS
330
C
102
}
330
C
100
AcDbDictionary
281
     1
  3
Normal
350
F
100
AcDbDictionaryWithDefault
340
F
  0
DICTIONARY
  5
BE
102
{ACAD_REACTORS
330
C
102
}
330
C
100
AcDbDictionary
281
     1
  0
DICTIONARY
  5
2A
102
{ACAD_REACTORS
330
C
102
}
330
C
100
AcDbDictionary
281
     1
  3
2dWireframe
350
2F
  3
3D Hidden
350
31
  3
3dWireframe
350
30
  3
Basic
350
32
  3
Brighten
350
36
  3
ColorChange
350
3A
  3
Conceptual
350
34
  3
Dim
350
35
  3
Facepattern
350
39
  3
Flat
350
2B
  3
FlatWithEdges
350
2C
  3
Gouraud
350
2D
  3
GouraudWithEdges
350
2E
  3
Linepattern
350
38
  3
Realistic
350
33
  3
Thicken
350
37
  0
LAYOUT
  5
1E
102
{ACAD_REACTORS
330
1A
102
}
330
1A
100
AcDbPlotSettings
  1

  2
none_device
  4

  6

 40
0.0
 41
0.0
 42
0.0
 43
0.0
 44
0.0
 45
0.0
 46
0.0
 47
0.0
 48
0.0
 49
0.0
140
0.0
141
0.0
142
1.0
143
1.0
 70
   688
 72
     0
 73
     0
 74
     5
  7

 75
    16
 76
     0
 77
     2
 78
   300
147
1.0
148
0.0
149
0.0
100
AcDbLayout
  1
Layout1
 70
     1
 71
     1
 10
0.0
 20
0.0
 11
12.0
 21
9.0
 12
0.0
 22
0.0
 32
0.0
 14
1.000000000000000E+20
 24
1.000000000000000E+20
 34
1.000000000000000E+20
 15
-1.000000000000000E+20
 25
-1.000000000000000E+20
 35
-1.000000000000000E+20
146
0.0
 13
0.0
 23
0.0
 33
0.0
 16
1.0
 26
0.0
 36
0.0
 17
0.0
 27
1.0
 37
0.0
 76
     0
330
1B
  0
LAYOUT
  5
26
102
{ACAD_REACTORS
330
1A
102
}
330
1A
100
AcDbPlotSettings
  1

  2
none_device
  4

  6

 40
0.0
 41
0.0
 42
0.0
 43
0.0
 44
0.0
 45
0.0
 46
0.0
 47
0.0
 48
0.0
 49
0.0
140
0.0
141
0.0
142
1.0
143
1.0
 70
   688
 72
     0
 73
     0
 74
     5
  7

 75
    16
 76
     0
 77
     2
 78
   300
147
1.0
148
0.0
149
0.0
100
AcDbLayout
  1
Layout2
 70
     1
 71
     2
 10
0.0
 20
0.0
 11
0.0
 21
0.0
 12
0.0
 22
0.0
 32
0.0
 14
0.0
 24
0.0
 34
0.0
 15
0.0
 25
0.0
 35
0.0
146
0.0
 13
0.0
 23
0.0
 33
0.0
 16
1.0
 26
0.0
 36
0.0
 17
0.0
 27
1.0
 37
0.0
 76
     0
330
23
  0
LAYOUT
  5
22
102
{ACAD_REACTORS
330
1A
102
}
330
1A
100
AcDbPlotSettings
  1

  2
none_device
  4

  6

 40
0.0
 41
0.0
 42
0.0
 43
0.0
 44
0.0
 45
0.0
 46
0.0
 47
0.0
 48
0.0
 49
0.0
140
0.0
141
0.0
142
1.0
143
1.0
 70
  1712
 72
     0
 73
     0
 74
     0
  7

 75
     0
 76
     0
 77
     2
 78
   300
147
1.0
148
0.0
149
0.0
100
AcDbLayout
  1
Model
 70
     1
 71
     0
 10
0.0
 20
0.0
 11
12.0
 21
9.0
 12
0.0
 22
0.0
 32
0.0
 14
71.4296
 24
-114.6908
 34
0.0
 15
195.4337
 25
131.7713
 35
0.0
146
0.0
 13
0.0
 23
0.0
 33
0.0
 16
1.0
 26
0.0
 36
0.0
 17
0.0
 27
1.0
 37
0.0
 76
     0
330
1F
331
29
  0
MATERIAL
  5
3D
102
{ACAD_REACTORS
330
3B
102
}
330
3B
100
AcDbMaterial
  1
ByBlock
 72
     1
 94
      127
  0
MATERIAL
  5
3C
102
{ACAD_REACTORS
330
3B
102
}
330
3B
100
AcDbMaterial
  1
ByLayer
 72
     1
 94
      127
  0
MATERIAL
  5
3E
102
{ACAD_REACTORS
330
3B
102
}
330
3B
100
AcDbMaterial
  1
Global
 72
     1
 94
      127
  0
MLINESTYLE
  5
18
102
{ACAD_REACTORS
330
17
102
}
330
17
100
AcDbMlineStyle
  2
Standard
 70
     0
  3

 62
   256
 51
90.0
 52
90.0
 71
     2
 49
0.5
 62
   256
  6
BYLAYER
 49
-0.5
 62
   256
  6
BYLAYER
  0
ACDBPLACEHOLDER
  5
F
102
{ACAD_REACTORS
330
E
102
}
330
E
  0
VISUALSTYLE
  5
2F
102
{ACAD_REACTORS
330
2A
102
}
102
{ACAD_XDICTIONARY
360
A6
102
}
330
2A
100
AcDbVisualStyle
  2
2dWireframe
 70
     4
 71
     0
 72
     2
 73
     0
 90
        0
 40
-0.6
 41
-30.0
 62
     5
 63
     7
421
 16777215
 74
     1
 91
        4
 64
     7
 65
   257
 75
     1
175
     1
 42
1.0
 92
        0
 66
   257
 43
1.0
 76
     1
 77
     6
 78
     2
 67
     7
 79
     5
170
     0
171
     0
290
     0
174
     0
 93
        1
 44
0.0
173
     0
291
     0
 45
0.0
  0
VISUALSTYLE
  5
31
102
{ACAD_REACTORS
330
2A
102
}
102
{ACAD_XDICTIONARY
360
AA
102
}
330
2A
100
AcDbVisualStyle
  2
3D Hidden
 70
     6
 71
     1
 72
     2
 73
     2
 90
        0
 40
-0.6
 41
-30.0
 62
     5
 63
     7
421
 16777215
 74
     2
 91
        2
 64
     7
 65
   257
 75
     2
175
     1
 42
40.0
 92
        0
 66
   257
 43
1.0
 76
     1
 77
     6
 78
     2
 67
     7
 79
     3
170
     0
171
     0
290
     0
174
     0
 93
        1
 44
0.0
173
     0
291
     0
 45
0.0
  0
VISUALSTYLE
  5
30
102
{ACAD_REACTORS
330
2A
102
}
102
{ACAD_XDICTIONARY
360
A8
102
}
330
2A
100
AcDbVisualStyle
  2
3dWireframe
 70
     5
 71
     0
 72
     2
 73
     0
 90
        0
 40
-0.6
 41
-30.0
 62
     5
 63
     7
421
 16777215
 74
     1
 91
        4
 64
     7
 65
   257
 75
     1
175
     1
 42
1.0
 92
        0
 66
   257
 43
1.0
 76
     1
 77
     6
 78
     2
 67
     7
 79
     5
170
     0
171
     0
290
     0
174
     0
 93
        1
 44
0.0
173
     0
291
     0
 45
0.0
  0
VISUALSTYLE
  5
32
102
{ACAD_REACTORS
330
2A
102
}
102
{ACAD_XDICTIONARY
360
AC
102
}
330
2A
100
AcDbVisualStyle
  2
Basic
 70
     7
 71
     1
 72
     0
 73
     1
 90
        0
 40
-0.6
 41
-30.0
 62
     5
 63
     7
421
 16777215
 74
     0
 91
        4
 64
     7
 65
   257
 75
     1
175
     1
 42
1.0
 92
        8
 66
     7
 43
1.0
 76
     1
 77
     6
 78
     2
 67
     7
 79
     5
170
     0
171
     0
290
     0
174
     0
 93
        1
 44
0.0
173
     0
291
     1
 45
0.0
  0
VISUALSTYLE
  5
36
102
{ACAD_REACTORS
330
2A
102
}
102
{ACAD_XDICTIONARY
360
B4
102
}
330
2A
100
AcDbVisualStyle
  2
Brighten
 70
    12
 71
     2
 72
     2
 73
     0
 90
        0
 40
-0.6
 41
-30.0
 62
     5
 63
     7
421
 16777215
 74
     1
 91
        4
 64
     7
 65
   257
 75
     1
175
     1
 42
1.0
 92
        8
 66
     7
 43
1.0
 76
     1
 77
     6
 78
     2
 67
     7
 79
     5
170
     0
171
     0
290
     0
174
     0
 93
        1
 44
50.0
173
     0
291
     1
 45
0.0
  0
VISUALSTYLE
  5
3A
102
{ACAD_REACTORS
330
2A
102
}
102
{ACAD_XDICTIONARY
360
BC
102
}
330
2A
100
AcDbVisualStyle
  2
ColorChange
 70
    16
 71
     2
 72
     2
 73
     3
 90
        0
 40
-0.6
 41
-30.0
 62
     5
 63
     8
421
  8421504
 74
     1
 91
        4
 64
     7
 65
   257
 75
     1
175
     1
 42
1.0
 92
        8
 66
     8
424
  8421504
 43
1.0
 76
     1
 77
     6
 78
     2
 67
     7
 79
     5
170
     0
171
     0
290
     0
174
     0
 93
        1
 44
0.0
173
     0
291
     1
 45
0.0
  0
VISUALSTYLE
  5
34
102
{ACAD_REACTORS
330
2A
102
}
102
{ACAD_XDICTIONARY
360
B0
102
}
330
2A
100
AcDbVisualStyle
  2
Conceptual
 70
     9
 71
     3
 72
     2
 73
     0
 90
        0
 40
-0.6
 41
-30.0
 62
     5
 63
     7
421
 16777215
 74
     2
 91
        2
 64
     7
 65
   257
 75
     1
175
     1
 42
40.0
 92
        8
 66
     7
 43
1.0
 76
     1
 77
     6
 78
     2
 67
     7
 79
     3
170
     0
171
     0
290
     0
174
     0
 93
        1
 44
0.0
173
     0
291
     0
 45
0.0
  0
VISUALSTYLE
  5
35
102
{ACAD_REACTORS
330
2A
102
}
102
{ACAD_XDICTIONARY
360
B2
102
}
330
2A
100
AcDbVisualStyle
  2
Dim
 70
    11
 71
     2
 72
     2
 73
     0
 90
        0
 40
-0.6
 41
-30.0
 62
     5
 63
     7
421
 16777215
 74
     1
 91
        4
 64
     7
 65
   257
 75
     1
175
     1
 42
1.0
 92
        8
 66
     7
 43
1.0
 76
     1
 77
     6
 78
     2
 67
     7
 79
     5
170
     0
171
     0
290
     0
174
     0
 93
        1
 44
-50.0
173
     0
291
     1
 45
0.0
  0
VISUALSTYLE
  5
39
102
{ACAD_REACTORS
330
2A
102
}
102
{ACAD_XDICTIONARY
360
BA
102
}
330
2A
100
AcDbVisualStyle
  2
Facepattern
 70
    15
 71
     2
 72
     2
 73
     0
 90
        0
 40
-0.6
 41
-30.0
 62
     5
 63
     7
421
 16777215
 74
     1
 91
        4
 64
     7
 65
   257
 75
     1
175
     1
 42
1.0
 92
        8
 66
     7
 43
1.0
 76
     1
 77
     6
 78
     2
 67
     7
 79
     5
170
     0
171
     0
290
     0
174
     0
 93
        1
 44
0.0
173
     0
291
     1
 45
0.0
  0
VISUALSTYLE
  5
2B
102
{ACAD_REACTORS
330
2A
102
}
102
{ACAD_XDICTIONARY
360
9E
102
}
330
2A
100
AcDbVisualStyle
  2
Flat
 70
     0
 71
     2
 72
     1
 73
     1
 90
        2
 40
-0.6
 41
30.0
 62
     5
 63
     7
421
 16777215
 74
     0
 91
        4
 64
     7
 65
   257
 75
     1
175
     1
 42
1.0
 92
        8
 66
     7
 43
1.0
 76
     1
 77
     6
 78
     2
 67
     7
 79
     5
170
     0
171
     0
290
     0
174
     0
 93
       13
 44
0.0
173
     0
291
     1
 45
0.0
  0
VISUALSTYLE
  5
2C
102
{ACAD_REACTORS
330
2A
102
}
102
{ACAD_XDICTIONARY
360
A0
102
}
330
2A
100
AcDbVisualStyle
  2
FlatWithEdges
 70
     1
 71
     2
 72
     1
 73
     1
 90
        2
 40
-0.6
 41
30.0
 62
     5
 63
     7
421
 16777215
 74
     1
 91
        4
 64
     7
 65
   257
 75
     1
175
     1
 42
1.0
 92
        0
 66
   257
 43
1.0
 76
     1
 77
     6
 78
     2
 67
     7
 79
     5
170
     0
171
     0
290
     0
174
     0
 93
       13
 44
0.0
173
     0
291
     1
 45
0.0
  0
VISUALSTYLE
  5
2D
102
{ACAD_REACTORS
330
2A
102
}
102
{ACAD_XDICTIONARY
360
A2
102
}
330
2A
100
AcDbVisualStyle
  2
Gouraud
 70
     2
 71
     2
 72
     2
 73
     1
 90
        2
 40
-0.6
 41
30.0
 62
     5
 63
     7
421
 16777215
 74
     0
 91
        4
 64
     7
 65
   257
 75
     1
175
     1
 42
1.0
 92
        0
 66
     7
 43
1.0
 76
     1
 77
     6
 78
     2
 67
     7
 79
     5
170
     0
171
     0
290
     0
174
     0
 93
       13
 44
0.0
173
     0
291
     1
 45
0.0
  0
VISUALSTYLE
  5
2E
102
{ACAD_REACTORS
330
2A
102
}
102
{ACAD_XDICTIONARY
360
A4
102
}
330
2A
100
AcDbVisualStyle
  2
GouraudWithEdges
 70
     3
 71
     2
 72
     2
 73
     1
 90
        2
 40
-0.6
 41
30.0
 62
     5
 63
     7
421
 16777215
 74
     1
 91
        4
 64
     7
 65
   257
 75
     1
175
     1
 42
1.0
 92
        0
 66
   257
 43
1.0
 76
     1
 77
     6
 78
     2
 67
     7
 79
     5
170
     0
171
     0
290
     0
174
     0
 93
       13
 44
0.0
173
     0
291
     1
 45
0.0
  0
VISUALSTYLE
  5
38
102
{ACAD_REACTORS
330
2A
102
}
102
{ACAD_XDICTIONARY
360
B8
102
}
330
2A
100
AcDbVisualStyle
  2
Linepattern
 70
    14
 71
     2
 72
     2
 73
     0
 90
        0
 40
-0.6
 41
-30.0
 62
     5
 63
     7
421
 16777215
 74
     1
 91
        4
 64
     7
 65
   257
 75
     7
175
     7
 42
1.0
 92
        8
 66
     7
 43
1.0
 76
     1
 77
     6
 78
     2
 67
     7
 79
     5
170
     0
171
     0
290
     0
174
     0
 93
        1
 44
0.0
173
     0
291
     1
 45
0.0
  0
VISUALSTYLE
  5
33
102
{ACAD_REACTORS
330
2A
102
}
102
{ACAD_XDICTIONARY
360
AE
102
}
330
2A
100
AcDbVisualStyle
  2
Realistic
 70
     8
 71
     2
 72
     2
 73
     0
 90
        0
 40
-0.6
 41
-30.0
 62
     5
 63
     7
421
 16777215
 74
     1
 91
        0
 64
     7
 65
   257
 75
     1
175
     1
 42
1.0
 92
        8
 66
     8
424
  7895160
 43
1.0
 76
     1
 77
     6
 78
     2
 67
     7
 79
     5
170
     0
171
     0
290
     0
174
     0
 93
       13
 44
0.0
173
     0
291
     0
 45
0.0
  0
VISUALSTYLE
  5
37
102
{ACAD_REACTORS
330
2A
102
}
102
{ACAD_XDICTIONARY
360
B6
102
}
330
2A
100
AcDbVisualStyle
  2
Thicken
 70
    13
 71
     2
 72
     2
 73
     0
 90
        0
 40
-0.6
 41
-30.0
 62
     5
 63
     7
421
 16777215
 74
     1
 91
        4
 64
     7
 65
   257
 75
     1
175
     1
 42
1.0
 92
       12
 66
     7
 43
1.0
 76
     1
 77
     6
 78
     2
 67
     7
 79
     5
170
     0
171
     0
290
     0
174
     0
 93
        1
 44
0.0
173
     0
291
     1
 45
0.0
  0
DICTIONARY
  5
A6
330
2F
100
AcDbDictionary
280
     1
281
     1
  3
ACAD_XREC_ROUNDTRIP
360
A7
  0
DICTIONARY
  5
AA
330
31
100
AcDbDictionary
280
     1
281
     1
  3
ACAD_XREC_ROUNDTRIP
360
AB
  0
DICTIONARY
  5
A8
330
30
100
AcDbDictionary
280
     1
281
     1
  3
ACAD_XREC_ROUNDTRIP
360
A9
  0
DICTIONARY
  5
AC
330
32
100
AcDbDictionary
280
     1
281
     1
  3
ACAD_XREC_ROUNDTRIP
360
AD
  0
DICTIONARY
  5
B4
330
36
100
AcDbDictionary
280
     1
281
     1
  3
ACAD_XREC_ROUNDTRIP
360
B5
  0
DICTIONARY
  5
BC
330
3A
100
AcDbDictionary
280
     1
281
     1
  3
ACAD_XREC_ROUNDTRIP
360
BD
  0
DICTIONARY
  5
B0
330
34
100
AcDbDictionary
280
     1
281
     1
  3
ACAD_XREC_ROUNDTRIP
360
B1
  0
DICTIONARY
  5
B2
330
35
100
AcDbDictionary
280
     1
281
     1
  3
ACAD_XREC_ROUNDTRIP
360
B3
  0
DICTIONARY
  5
BA
330
39
100
AcDbDictionary
280
     1
281
     1
  3
ACAD_XREC_ROUNDTRIP
360
BB
  0
DICTIONARY
  5
9E
330
2B
100
AcDbDictionary
280
     1
281
     1
  3
ACAD_XREC_ROUNDTRIP
360
9F
  0
DICTIONARY
  5
A0
330
2C
100
AcDbDictionary
280
     1
281
     1
  3
ACAD_XREC_ROUNDTRIP
360
A1
  0
DICTIONARY
  5
A2
330
2D
100
AcDbDictionary
280
     1
281
     1
  3
ACAD_XREC_ROUNDTRIP
360
A3
  0
DICTIONARY
  5
A4
330
2E
100
AcDbDictionary
280
     1
281
     1
  3
ACAD_XREC_ROUNDTRIP
360
A5
  0
DICTIONARY
  5
B8
330
38
100
AcDbDictionary
280
     1
281
     1
  3
ACAD_XREC_ROUNDTRIP
360
B9
  0
DICTIONARY
  5
AE
330
33
100
AcDbDictionary
280
     1
281
     1
  3
ACAD_XREC_ROUNDTRIP
360
AF
  0
DICTIONARY
  5
B6
330
37
100
AcDbDictionary
280
     1
281
     1
  3
ACAD_XREC_ROUNDTRIP
360
B7
  0
XRECORD
  5
A7
102
{ACAD_REACTORS
330
A6
102
}
330
A6
100
AcDbXrecord
280
     1
102
RTVSPropertyOp0
 70
     1
102
RTVSPropertyOp1
 70
     1
102
RTVSPropertyOp2
 70
     1
102
RTVSPropertyOp3
 70
     1
102
RTVSPropertyOp4
 70
     1
102
RTVSPropertyOp5
 70
     1
102
RTVSPropertyOp6
 70
     1
102
RTVSPropertyOp7
 70
     1
102
RTVSPropertyOp8
 70
     1
102
RTVSPropertyOp9
 70
     1
102
RTVSPropertyOp10
 70
     1
102
RTVSPropertyOp11
 70
     1
102
RTVSPropertyOp12
 70
     1
102
RTVSPropertyOp13
 70
     1
102
RTVSPropertyOp14
 70
     1
102
RTVSPropertyOp15
 70
     1
102
RTVSPropertyOp16
 70
     1
102
RTVSPropertyOp17
 70
     1
102
RTVSPropertyOp18
 70
     1
102
RTVSPropertyOp19
 70
     1
102
RTVSPropertyOp20
 70
     1
102
RTVSPropertyOp21
 70
     1
102
RTVSPropertyOp22
 70
     1
102
RTVSPropertyOp23
 70
     1
102
RTVSPropertyOp24
 70
     1
102
RTVSPropertyOp25
 70
     1
102
RTVSPropertyOp26
 70
     1
102
RTVSPropertyOp27
 70
     1
102
RTVSPropertyOp28
 70
     1
102
RTVSPropertyOp29
 70
     1
102
RTVSPropertyOp30
 70
     1
102
RTVSPropertyOp31
 70
     1
102
RTVSPropertyOp32
 70
     1
  0
XRECORD
  5
AB
102
{ACAD_REACTORS
330
AA
102
}
330
AA
100
AcDbXrecord
280
     1
102
RTVSPropertyOp0
 70
     1
102
RTVSPropertyOp1
 70
     1
102
RTVSPropertyOp2
 70
     1
102
RTVSPropertyOp3
 70
     1
102
RTVSPropertyOp4
 70
     1
102
RTVSPropertyOp5
 70
     1
102
RTVSPropertyOp6
 70
     1
102
RTVSPropertyOp7
 70
     1
102
RTVSPropertyOp8
 70
     1
102
RTVSPropertyOp9
 70
     1
102
RTVSPropertyOp10
 70
     1
102
RTVSPropertyOp11
 70
     1
102
RTVSPropertyOp12
 70
     1
102
RTVSPropertyOp13
 70
     1
102
RTVSPropertyOp14
 70
     1
102
RTVSPropertyOp15
 70
     1
102
RTVSPropertyOp16
 70
     1
102
RTVSPropertyOp17
 70
     1
102
RTVSPropertyOp18
 70
     1
102
RTVSPropertyOp19
 70
     1
102
RTVSPropertyOp20
 70
     1
102
RTVSPropertyOp21
 70
     1
102
RTVSPropertyOp22
 70
     1
102
RTVSPropertyOp23
 70
     1
102
RTVSPropertyOp24
 70
     1
102
RTVSPropertyOp25
 70
     1
102
RTVSPropertyOp26
 70
     1
102
RTVSPropertyOp27
 70
     1
102
RTVSPropertyOp28
 70
     1
102
RTVSPropertyOp29
 70
     1
102
RTVSPropertyOp30
 70
     1
102
RTVSPropertyOp31
 70
     1
102
RTVSPropertyOp32
 70
     1
  0
XRECORD
  5
A9
102
{ACAD_REACTORS
330
A8
102
}
330
A8
100
AcDbXrecord
280
     1
102
RTVSPropertyOp0
 70
     1
102
RTVSPropertyOp1
 70
     1
102
RTVSPropertyOp2
 70
     1
102
RTVSPropertyOp3
 70
     1
102
RTVSPropertyOp4
 70
     1
102
RTVSPropertyOp5
 70
     1
102
RTVSPropertyOp6
 70
     1
102
RTVSPropertyOp7
 70
     1
102
RTVSPropertyOp8
 70
     1
102
RTVSPropertyOp9
 70
     1
102
RTVSPropertyOp10
 70
     1
102
RTVSPropertyOp11
 70
     1
102
RTVSPropertyOp12
 70
     1
102
RTVSPropertyOp13
 70
     1
102
RTVSPropertyOp14
 70
     1
102
RTVSPropertyOp15
 70
     1
102
RTVSPropertyOp16
 70
     1
102
RTVSPropertyOp17
 70
     1
102
RTVSPropertyOp18
 70
     1
102
RTVSPropertyOp19
 70
     1
102
RTVSPropertyOp20
 70
     1
102
RTVSPropertyOp21
 70
     1
102
RTVSPropertyOp22
 70
     1
102
RTVSPropertyOp23
 70
     1
102
RTVSPropertyOp24
 70
     1
102
RTVSPropertyOp25
 70
     1
102
RTVSPropertyOp26
 70
     1
102
RTVSPropertyOp27
 70
     1
102
RTVSPropertyOp28
 70
     1
102
RTVSPropertyOp29
 70
     1
102
RTVSPropertyOp30
 70
     1
102
RTVSPropertyOp31
 70
     1
102
RTVSPropertyOp32
 70
     1
  0
XRECORD
  5
AD
102
{ACAD_REACTORS
330
AC
102
}
330
AC
100
AcDbXrecord
280
     1
102
RTVSPropertyOp0
 70
     1
102
RTVSPropertyOp1
 70
     1
102
RTVSPropertyOp2
 70
     1
102
RTVSPropertyOp3
 70
     1
102
RTVSPropertyOp4
 70
     1
102
RTVSPropertyOp5
 70
     1
102
RTVSPropertyOp6
 70
     1
102
RTVSPropertyOp7
 70
     1
102
RTVSPropertyOp8
 70
     1
102
RTVSPropertyOp9
 70
     1
102
RTVSPropertyOp10
 70
     1
102
RTVSPropertyOp11
 70
     1
102
RTVSPropertyOp12
 70
     1
102
RTVSPropertyOp13
 70
     1
102
RTVSPropertyOp14
 70
     1
102
RTVSPropertyOp15
 70
     1
102
RTVSPropertyOp16
 70
     1
102
RTVSPropertyOp17
 70
     1
102
RTVSPropertyOp18
 70
     1
102
RTVSPropertyOp19
 70
     1
102
RTVSPropertyOp20
 70
     1
102
RTVSPropertyOp21
 70
     1
102
RTVSPropertyOp22
 70
     1
102
RTVSPropertyOp23
 70
     1
102
RTVSPropertyOp24
 70
     1
102
RTVSPropertyOp25
 70
     1
102
RTVSPropertyOp26
 70
     1
102
RTVSPropertyOp27
 70
     1
102
RTVSPropertyOp28
 70
     1
102
RTVSPropertyOp29
 70
     1
102
RTVSPropertyOp30
 70
     1
102
RTVSPropertyOp31
 70
     1
102
RTVSPropertyOp32
 70
     1
  0
XRECORD
  5
B5
102
{ACAD_REACTORS
330
B4
102
}
330
B4
100
AcDbXrecord
280
     1
102
RTVSPropertyOp0
 70
     1
102
RTVSPropertyOp1
 70
     1
102
RTVSPropertyOp2
 70
     1
102
RTVSPropertyOp3
 70
     1
102
RTVSPropertyOp4
 70
     1
102
RTVSPropertyOp5
 70
     1
102
RTVSPropertyOp6
 70
     1
102
RTVSPropertyOp7
 70
     1
102
RTVSPropertyOp8
 70
     1
102
RTVSPropertyOp9
 70
     1
102
RTVSPropertyOp10
 70
     1
102
RTVSPropertyOp11
 70
     1
102
RTVSPropertyOp12
 70
     1
102
RTVSPropertyOp13
 70
     1
102
RTVSPropertyOp14
 70
     1
102
RTVSPropertyOp15
 70
     1
102
RTVSPropertyOp16
 70
     1
102
RTVSPropertyOp17
 70
     1
102
RTVSPropertyOp18
 70
     1
102
RTVSPropertyOp19
 70
     1
102
RTVSPropertyOp20
 70
     1
102
RTVSPropertyOp21
 70
     1
102
RTVSPropertyOp22
 70
     1
102
RTVSPropertyOp23
 70
     1
102
RTVSPropertyOp24
 70
     1
102
RTVSPropertyOp25
 70
     1
102
RTVSPropertyOp26
 70
     1
102
RTVSPropertyOp27
 70
     1
102
RTVSPropertyOp28
 70
     1
102
RTVSPropertyOp29
 70
     1
102
RTVSPropertyOp30
 70
     1
102
RTVSPropertyOp31
 70
     1
102
RTVSPropertyOp32
 70
     1
  0
XRECORD
  5
BD
102
{ACAD_REACTORS
330
BC
102
}
330
BC
100
AcDbXrecord
280
     1
102
RTVSPropertyOp0
 70
     1
102
RTVSPropertyOp1
 70
     1
102
RTVSPropertyOp2
 70
     1
102
RTVSPropertyOp3
 70
     1
102
RTVSPropertyOp4
 70
     1
102
RTVSPropertyOp5
 70
     1
102
RTVSPropertyOp6
 70
     1
102
RTVSPropertyOp7
 70
     1
102
RTVSPropertyOp8
 70
     1
102
RTVSPropertyOp9
 70
     1
102
RTVSPropertyOp10
 70
     1
102
RTVSPropertyOp11
 70
     1
102
RTVSPropertyOp12
 70
     1
102
RTVSPropertyOp13
 70
     1
102
RTVSPropertyOp14
 70
     1
102
RTVSPropertyOp15
 70
     1
102
RTVSPropertyOp16
 70
     1
102
RTVSPropertyOp17
 70
     1
102
RTVSPropertyOp18
 70
     1
102
RTVSPropertyOp19
 70
     1
102
RTVSPropertyOp20
 70
     1
102
RTVSPropertyOp21
 70
     1
102
RTVSPropertyOp22
 70
     1
102
RTVSPropertyOp23
 70
     1
102
RTVSPropertyOp24
 70
     1
102
RTVSPropertyOp25
 70
     1
102
RTVSPropertyOp26
 70
     1
102
RTVSPropertyOp27
 70
     1
102
RTVSPropertyOp28
 70
     1
102
RTVSPropertyOp29
 70
     1
102
RTVSPropertyOp30
 70
     1
102
RTVSPropertyOp31
 70
     1
102
RTVSPropertyOp32
 70
     1
  0
XRECORD
  5
B1
102
{ACAD_REACTORS
330
B0
102
}
330
B0
100
AcDbXrecord
280
     1
102
RTVSPropertyOp0
 70
     1
102
RTVSPropertyOp1
 70
     1
102
RTVSPropertyOp2
 70
     1
102
RTVSPropertyOp3
 70
     1
102
RTVSPropertyOp4
 70
     1
102
RTVSPropertyOp5
 70
     1
102
RTVSPropertyOp6
 70
     1
102
RTVSPropertyOp7
 70
     1
102
RTVSPropertyOp8
 70
     1
102
RTVSPropertyOp9
 70
     1
102
RTVSPropertyOp10
 70
     1
102
RTVSPropertyOp11
 70
     1
102
RTVSPropertyOp12
 70
     1
102
RTVSPropertyOp13
 70
     1
102
RTVSPropertyOp14
 70
     1
102
RTVSPropertyOp15
 70
     1
102
RTVSPropertyOp16
 70
     1
102
RTVSPropertyOp17
 70
     1
102
RTVSPropertyOp18
 70
     1
102
RTVSPropertyOp19
 70
     1
102
RTVSPropertyOp20
 70
     1
102
RTVSPropertyOp21
 70
     1
102
RTVSPropertyOp22
 70
     1
102
RTVSPropertyOp23
 70
     1
102
RTVSPropertyOp24
 70
     1
102
RTVSPropertyOp25
 70
     1
102
RTVSPropertyOp26
 70
     1
102
RTVSPropertyOp27
 70
     1
102
RTVSPropertyOp28
 70
     1
102
RTVSPropertyOp29
 70
     1
102
RTVSPropertyOp30
 70
     1
102
RTVSPropertyOp31
 70
     1
102
RTVSPropertyOp32
 70
     1
  0
XRECORD
  5
B3
102
{ACAD_REACTORS
330
B2
102
}
330
B2
100
AcDbXrecord
280
     1
102
RTVSPropertyOp0
 70
     1
102
RTVSPropertyOp1
 70
     1
102
RTVSPropertyOp2
 70
     1
102
RTVSPropertyOp3
 70
     1
102
RTVSPropertyOp4
 70
     1
102
RTVSPropertyOp5
 70
     1
102
RTVSPropertyOp6
 70
     1
102
RTVSPropertyOp7
 70
     1
102
RTVSPropertyOp8
 70
     1
102
RTVSPropertyOp9
 70
     1
102
RTVSPropertyOp10
 70
     1
102
RTVSPropertyOp11
 70
     1
102
RTVSPropertyOp12
 70
     1
102
RTVSPropertyOp13
 70
     1
102
RTVSPropertyOp14
 70
     1
102
RTVSPropertyOp15
 70
     1
102
RTVSPropertyOp16
 70
     1
102
RTVSPropertyOp17
 70
     1
102
RTVSPropertyOp18
 70
     1
102
RTVSPropertyOp19
 70
     1
102
RTVSPropertyOp20
 70
     1
102
RTVSPropertyOp21
 70
     1
102
RTVSPropertyOp22
 70
     1
102
RTVSPropertyOp23
 70
     1
102
RTVSPropertyOp24
 70
     1
102
RTVSPropertyOp25
 70
     1
102
RTVSPropertyOp26
 70
     1
102
RTVSPropertyOp27
 70
     1
102
RTVSPropertyOp28
 70
     1
102
RTVSPropertyOp29
 70
     1
102
RTVSPropertyOp30
 70
     1
102
RTVSPropertyOp31
 70
     1
102
RTVSPropertyOp32
 70
     1
  0
XRECORD
  5
BB
102
{ACAD_REACTORS
330
BA
102
}
330
BA
100
AcDbXrecord
280
     1
102
RTVSPropertyOp0
 70
     1
102
RTVSPropertyOp1
 70
     1
102
RTVSPropertyOp2
 70
     1
102
RTVSPropertyOp3
 70
     1
102
RTVSPropertyOp4
 70
     1
102
RTVSPropertyOp5
 70
     1
102
RTVSPropertyOp6
 70
     1
102
RTVSPropertyOp7
 70
     1
102
RTVSPropertyOp8
 70
     1
102
RTVSPropertyOp9
 70
     1
102
RTVSPropertyOp10
 70
     1
102
RTVSPropertyOp11
 70
     1
102
RTVSPropertyOp12
 70
     1
102
RTVSPropertyOp13
 70
     1
102
RTVSPropertyOp14
 70
     1
102
RTVSPropertyOp15
 70
     1
102
RTVSPropertyOp16
 70
     1
102
RTVSPropertyOp17
 70
     1
102
RTVSPropertyOp18
 70
     1
102
RTVSPropertyOp19
 70
     1
102
RTVSPropertyOp20
 70
     1
102
RTVSPropertyOp21
 70
     1
102
RTVSPropertyOp22
 70
     1
102
RTVSPropertyOp23
 70
     1
102
RTVSPropertyOp24
 70
     1
102
RTVSPropertyOp25
 70
     1
102
RTVSPropertyOp26
 70
     1
102
RTVSPropertyOp27
 70
     1
102
RTVSPropertyOp28
 70
     1
102
RTVSPropertyOp29
 70
     1
102
RTVSPropertyOp30
 70
     1
102
RTVSPropertyOp31
 70
     1
102
RTVSPropertyOp32
 70
     1
  0
XRECORD
  5
9F
102
{ACAD_REACTORS
330
9E
102
}
330
9E
100
AcDbXrecord
280
     1
102
RTVSPropertyOp0
 70
     1
102
RTVSPropertyOp1
 70
     1
102
RTVSPropertyOp2
 70
     1
102
RTVSPropertyOp3
 70
     1
102
RTVSPropertyOp4
 70
     1
102
RTVSPropertyOp5
 70
     1
102
RTVSPropertyOp6
 70
     1
102
RTVSPropertyOp7
 70
     1
102
RTVSPropertyOp8
 70
     1
102
RTVSPropertyOp9
 70
     1
102
RTVSPropertyOp10
 70
     1
102
RTVSPropertyOp11
 70
     1
102
RTVSPropertyOp12
 70
     1
102
RTVSPropertyOp13
 70
     1
102
RTVSPropertyOp14
 70
     1
102
RTVSPropertyOp15
 70
     1
102
RTVSPropertyOp16
 70
     1
102
RTVSPropertyOp17
 70
     1
102
RTVSPropertyOp18
 70
     1
102
RTVSPropertyOp19
 70
     1
102
RTVSPropertyOp20
 70
     1
102
RTVSPropertyOp21
 70
     1
102
RTVSPropertyOp22
 70
     1
102
RTVSPropertyOp23
 70
     1
102
RTVSPropertyOp24
 70
     1
102
RTVSPropertyOp25
 70
     1
102
RTVSPropertyOp26
 70
     1
102
RTVSPropertyOp27
 70
     1
102
RTVSPropertyOp28
 70
     1
102
RTVSPropertyOp29
 70
     1
102
RTVSPropertyOp30
 70
     1
102
RTVSPropertyOp31
 70
     1
102
RTVSPropertyOp32
 70
     1
  0
XRECORD
  5
A1
102
{ACAD_REACTORS
330
A0
102
}
330
A0
100
AcDbXrecord
280
     1
102
RTVSPropertyOp0
 70
     1
102
RTVSPropertyOp1
 70
     1
102
RTVSPropertyOp2
 70
     1
102
RTVSPropertyOp3
 70
     1
102
RTVSPropertyOp4
 70
     1
102
RTVSPropertyOp5
 70
     1
102
RTVSPropertyOp6
 70
     1
102
RTVSPropertyOp7
 70
     1
102
RTVSPropertyOp8
 70
     1
102
RTVSPropertyOp9
 70
     1
102
RTVSPropertyOp10
 70
     1
102
RTVSPropertyOp11
 70
     1
102
RTVSPropertyOp12
 70
     1
102
RTVSPropertyOp13
 70
     1
102
RTVSPropertyOp14
 70
     1
102
RTVSPropertyOp15
 70
     1
102
RTVSPropertyOp16
 70
     1
102
RTVSPropertyOp17
 70
     1
102
RTVSPropertyOp18
 70
     1
102
RTVSPropertyOp19
 70
     1
102
RTVSPropertyOp20
 70
     1
102
RTVSPropertyOp21
 70
     1
102
RTVSPropertyOp22
 70
     1
102
RTVSPropertyOp23
 70
     1
102
RTVSPropertyOp24
 70
     1
102
RTVSPropertyOp25
 70
     1
102
RTVSPropertyOp26
 70
     1
102
RTVSPropertyOp27
 70
     1
102
RTVSPropertyOp28
 70
     1
102
RTVSPropertyOp29
 70
     1
102
RTVSPropertyOp30
 70
     1
102
RTVSPropertyOp31
 70
     1
102
RTVSPropertyOp32
 70
     1
  0
XRECORD
  5
A3
102
{ACAD_REACTORS
330
A2
102
}
330
A2
100
AcDbXrecord
280
     1
102
RTVSPropertyOp0
 70
     1
102
RTVSPropertyOp1
 70
     1
102
RTVSPropertyOp2
 70
     1
102
RTVSPropertyOp3
 70
     1
102
RTVSPropertyOp4
 70
     1
102
RTVSPropertyOp5
 70
     1
102
RTVSPropertyOp6
 70
     1
102
RTVSPropertyOp7
 70
     1
102
RTVSPropertyOp8
 70
     1
102
RTVSPropertyOp9
 70
     1
102
RTVSPropertyOp10
 70
     1
102
RTVSPropertyOp11
 70
     1
102
RTVSPropertyOp12
 70
     1
102
RTVSPropertyOp13
 70
     1
102
RTVSPropertyOp14
 70
     1
102
RTVSPropertyOp15
 70
     1
102
RTVSPropertyOp16
 70
     1
102
RTVSPropertyOp17
 70
     1
102
RTVSPropertyOp18
 70
     1
102
RTVSPropertyOp19
 70
     1
102
RTVSPropertyOp20
 70
     1
102
RTVSPropertyOp21
 70
     1
102
RTVSPropertyOp22
 70
     1
102
RTVSPropertyOp23
 70
     1
102
RTVSPropertyOp24
 70
     1
102
RTVSPropertyOp25
 70
     1
102
RTVSPropertyOp26
 70
     1
102
RTVSPropertyOp27
 70
     1
102
RTVSPropertyOp28
 70
     1
102
RTVSPropertyOp29
 70
     1
102
RTVSPropertyOp30
 70
     1
102
RTVSPropertyOp31
 70
     1
102
RTVSPropertyOp32
 70
     1
  0
XRECORD
  5
A5
102
{ACAD_REACTORS
330
A4
102
}
330
A4
100
AcDbXrecord
280
     1
102
RTVSPropertyOp0
 70
     1
102
RTVSPropertyOp1
 70
     1
102
RTVSPropertyOp2
 70
     1
102
RTVSPropertyOp3
 70
     1
102
RTVSPropertyOp4
 70
     1
102
RTVSPropertyOp5
 70
     1
102
RTVSPropertyOp6
 70
     1
102
RTVSPropertyOp7
 70
     1
102
RTVSPropertyOp8
 70
     1
102
RTVSPropertyOp9
 70
     1
102
RTVSPropertyOp10
 70
     1
102
RTVSPropertyOp11
 70
     1
102
RTVSPropertyOp12
 70
     1
102
RTVSPropertyOp13
 70
     1
102
RTVSPropertyOp14
 70
     1
102
RTVSPropertyOp15
 70
     1
102
RTVSPropertyOp16
 70
     1
102
RTVSPropertyOp17
 70
     1
102
RTVSPropertyOp18
 70
     1
102
RTVSPropertyOp19
 70
     1
102
RTVSPropertyOp20
 70
     1
102
RTVSPropertyOp21
 70
     1
102
RTVSPropertyOp22
 70
     1
102
RTVSPropertyOp23
 70
     1
102
RTVSPropertyOp24
 70
     1
102
RTVSPropertyOp25
 70
     1
102
RTVSPropertyOp26
 70
     1
102
RTVSPropertyOp27
 70
     1
102
RTVSPropertyOp28
 70
     1
102
RTVSPropertyOp29
 70
     1
102
RTVSPropertyOp30
 70
     1
102
RTVSPropertyOp31
 70
     1
102
RTVSPropertyOp32
 70
     1
  0
XRECORD
  5
B9
102
{ACAD_REACTORS
330
B8
102
}
330
B8
100
AcDbXrecord
280
     1
102
RTVSPropertyOp0
 70
     1
102
RTVSPropertyOp1
 70
     1
102
RTVSPropertyOp2
 70
     1
102
RTVSPropertyOp3
 70
     1
102
RTVSPropertyOp4
 70
     1
102
RTVSPropertyOp5
 70
     1
102
RTVSPropertyOp6
 70
     1
102
RTVSPropertyOp7
 70
     1
102
RTVSPropertyOp8
 70
     1
102
RTVSPropertyOp9
 70
     1
102
RTVSPropertyOp10
 70
     1
102
RTVSPropertyOp11
 70
     1
102
RTVSPropertyOp12
 70
     1
102
RTVSPropertyOp13
 70
     1
102
RTVSPropertyOp14
 70
     1
102
RTVSPropertyOp15
 70
     1
102
RTVSPropertyOp16
 70
     1
102
RTVSPropertyOp17
 70
     1
102
RTVSPropertyOp18
 70
     1
102
RTVSPropertyOp19
 70
     1
102
RTVSPropertyOp20
 70
     1
102
RTVSPropertyOp21
 70
     1
102
RTVSPropertyOp22
 70
     1
102
RTVSPropertyOp23
 70
     1
102
RTVSPropertyOp24
 70
     1
102
RTVSPropertyOp25
 70
     1
102
RTVSPropertyOp26
 70
     1
102
RTVSPropertyOp27
 70
     1
102
RTVSPropertyOp28
 70
     1
102
RTVSPropertyOp29
 70
     1
102
RTVSPropertyOp30
 70
     1
102
RTVSPropertyOp31
 70
     1
102
RTVSPropertyOp32
 70
     1
  0
XRECORD
  5
AF
102
{ACAD_REACTORS
330
AE
102
}
330
AE
100
AcDbXrecord
280
     1
102
RTVSPropertyOp0
 70
     1
102
RTVSPropertyOp1
 70
     1
102
RTVSPropertyOp2
 70
     1
102
RTVSPropertyOp3
 70
     1
102
RTVSPropertyOp4
 70
     1
102
RTVSPropertyOp5
 70
     1
102
RTVSPropertyOp6
 70
     1
102
RTVSPropertyOp7
 70
     1
102
RTVSPropertyOp8
 70
     1
102
RTVSPropertyOp9
 70
     1
102
RTVSPropertyOp10
 70
     1
102
RTVSPropertyOp11
 70
     1
102
RTVSPropertyOp12
 70
     1
102
RTVSPropertyOp13
 70
     1
102
RTVSPropertyOp14
 70
     1
102
RTVSPropertyOp15
 70
     1
102
RTVSPropertyOp16
 70
     1
102
RTVSPropertyOp17
 70
     1
102
RTVSPropertyOp18
 70
     1
102
RTVSPropertyOp19
 70
     1
102
RTVSPropertyOp20
 70
     1
102
RTVSPropertyOp21
 70
     1
102
RTVSPropertyOp22
 70
     1
102
RTVSPropertyOp23
 70
     1
102
RTVSPropertyOp24
 70
     1
102
RTVSPropertyOp25
 70
     1
102
RTVSPropertyOp26
 70
     1
102
RTVSPropertyOp27
 70
     1
102
RTVSPropertyOp28
 70
     1
102
RTVSPropertyOp29
 70
     1
102
RTVSPropertyOp30
 70
     1
102
RTVSPropertyOp31
 70
     1
102
RTVSPropertyOp32
 70
     1
  0
XRECORD
  5
B7
102
{ACAD_REACTORS
330
B6
102
}
330
B6
100
AcDbXrecord
280
     1
102
RTVSPropertyOp0
 70
     1
102
RTVSPropertyOp1
 70
     1
102
RTVSPropertyOp2
 70
     1
102
RTVSPropertyOp3
 70
     1
102
RTVSPropertyOp4
 70
     1
102
RTVSPropertyOp5
 70
     1
102
RTVSPropertyOp6
 70
     1
102
RTVSPropertyOp7
 70
     1
102
RTVSPropertyOp8
 70
     1
102
RTVSPropertyOp9
 70
     1
102
RTVSPropertyOp10
 70
     1
102
RTVSPropertyOp11
 70
     1
102
RTVSPropertyOp12
 70
     1
102
RTVSPropertyOp13
 70
     1
102
RTVSPropertyOp14
 70
     1
102
RTVSPropertyOp15
 70
     1
102
RTVSPropertyOp16
 70
     1
102
RTVSPropertyOp17
 70
     1
102
RTVSPropertyOp18
 70
     1
102
RTVSPropertyOp19
 70
     1
102
RTVSPropertyOp20
 70
     1
102
RTVSPropertyOp21
 70
     1
102
RTVSPropertyOp22
 70
     1
102
RTVSPropertyOp23
 70
     1
102
RTVSPropertyOp24
 70
     1
102
RTVSPropertyOp25
 70
     1
102
RTVSPropertyOp26
 70
     1
102
RTVSPropertyOp27
 70
     1
102
RTVSPropertyOp28
 70
     1
102
RTVSPropertyOp29
 70
     1
102
RTVSPropertyOp30
 70
     1
102
RTVSPropertyOp31
 70
     1
102
RTVSPropertyOp32
 70
     1
  0
ENDSEC
  0
EOF
