  0
SECTION
  2
HEADER
  9
$ACADVER
  1
AC1021
  9
$ACADMAINTVER
 70
    25
  9
$DWGCODEPAGE
  3
ANSI_1252
  9
$INSBASE
 10
0.0
 20
0.0
 30
0.0
  9
$EXTMIN
 10
-187.2178
 20
-114.6908
 30
0.0
  9
$EXTMAX
 10
-62.5948
 20
131.7228
 30
0.0
  9
$LIMMIN
 10
0.0
 20
0.0
  9
$LIMMAX
 10
12.0
 20
9.0
  9
$ORTHOMODE
 70
     0
  9
$REGENMODE
 70
     1
  9
$FILLMODE
 70
     1
  9
$QTEXTMODE
 70
     0
  9
$MIRRTEXT
 70
     1
  9
$LTSCALE
 40
1.0
  9
$ATTMODE
 70
     1
  9
$TEXTSIZE
 40
0.2
  9
$TRACEWID
 40
0.05
  9
$TEXTSTYLE
  7
Standard
  9
$CLAYER
  8
0
  9
$CELTYPE
  6
ByLayer
  9
$CECOLOR
 62
   256
  9
$CELTSCALE
 40
1.0
  9
$DISPSILH
 70
     0
  9
$DIMSCALE
 40
1.0
  9
$DIMASZ
 40
0.18
  9
$DIMEXO
 40
0.0625
  9
$DIMDLI
 40
0.38
  9
$DIMRND
 40
0.0
  9
$DIMDLE
 40
0.0
  9
$DIMEXE
 40
0.18
  9
$DIMTP
 40
0.0
  9
$DIMTM
 40
0.0
  9
$DIMTXT
 40
0.18
  9
$DIMCEN
 40
0.09
  9
$DIMTSZ
 40
0.0
  9
$DIMTOL
 70
     0
  9
$DIMLIM
 70
     0
  9
$DIMTIH
 70
     1
  9
$DIMTOH
 70
     1
  9
$DIMSE1
 70
     0
  9
$DIMSE2
 70
     0
  9
$DIMTAD
 70
     0
  9
$DIMZIN
 70
     0
  9
$DIMBLK
  1

  9
$DIMASO
 70
     1
  9
$DIMSHO
 70
     1
  9
$DIMPOST
  1

  9
$DIMAPOST
  1

  9
$DIMALT
 70
     0
  9
$DIMALTD
 70
     2
  9
$DIMALTF
 40
25.4
  9
$DIMLFAC
 40
1.0
  9
$DIMTOFL
 70
     0
  9
$DIMTVP
 40
0.0
  9
$DIMTIX
 70
     0
  9
$DIMSOXD
 70
     0
  9
$DIMSAH
 70
     0
  9
$DIMBLK1
  1

  9
$DIMBLK2
  1

  9
$DIMSTYLE
  2
Standard
  9
$DIMCLRD
 70
     0
  9
$DIMCLRE
 70
     0
  9
$DIMCLRT
 70
     0
  9
$DIMTFAC
 40
1.0
  9
$DIMGAP
 40
0.09
  9
$DIMJUST
 70
     0
  9
$DIMSD1
 70
     0
  9
$DIMSD2
 70
     0
  9
$DIMTOLJ
 70
     1
  9
$DIMTZIN
 70
     0
  9
$DIMALTZ
 70
     0
  9
$DIMALTTZ
 70
     0
  9
$DIMUPT
 70
     0
  9
$DIMDEC
 70
     4
  9
$DIMTDEC
 70
     4
  9
$DIMALTU
 70
     2
  9
$DIMALTTD
 70
     2
  9
$DIMTXSTY
  7
Standard
  9
$DIMAUNIT
 70
     0
  9
$DIMADEC
 70
     0
  9
$DIMALTRND
 40
0.0
  9
$DIMAZIN
 70
     0
  9
$DIMDSEP
 70
    46
  9
$DIMATFIT
 70
     3
  9
$DIMFRAC
 70
     0
  9
$DIMLDRBLK
  1

  9
$DIMLUNIT
 70
     2
  9
$DIMLWD
 70
    -2
  9
$DIMLWE
 70
    -2
  9
$DIMTMOVE
 70
     0
  9
$DIMFXL
 40
1.0
  9
$DIMFXLON
 70
     0
  9
$DIMJOGANG
 40
0.7853981633974483
  9
$DIMTFILL
 70
     0
  9
$DIMTFILLCLR
 70
     0
  9
$DIMARCSYM
 70
     0
  9
$DIMLTYPE
  6

  9
$DIMLTEX1
  6

  9
$DIMLTEX2
  6

  9
$LUNITS
 70
     2
  9
$LUPREC
 70
     4
  9
$SKETCHINC
 40
0.1
  9
$FILLETRAD
 40
0.5
  9
$AUNITS
 70
     0
  9
$AUPREC
 70
     0
  9
$MENU
  1
.
  9
$ELEVATION
 40
0.0
  9
$PELEVATION
 40
0.0
  9
$THICKNESS
 40
0.0
  9
$LIMCHECK
 70
     0
  9
$CHAMFERA
 40
0.5
  9
$CHAMFERB
 40
0.5
  9
$CHAMFERC
 40
1.0
  9
$CHAMFERD
 40
0.0
  9
$SKPOLY
 70
     0
  9
$TDCREATE
 40
2458493.716869167
  9
$TDUCREATE
 40
2458493.716869167
  9
$TDUPDATE
 40
2458493.716869421
  9
$TDUUPDATE
 40
2458493.716869421
  9
$TDINDWG
 40
0.0000000116
  9
$TDUSRTIMER
 40
0.0000000116
  9
$USRTIMER
 70
     1
  9
$ANGBASE
 50
0.0
  9
$ANGDIR
 70
     0
  9
$PDMODE
 70
     0
  9
$PDSIZE
 40
0.0
  9
$PLINEWID
 40
0.0
  9
$SPLFRAME
 70
     0
  9
$SPLINETYPE
 70
     6
  9
$SPLINESEGS
 70
     8
  9
$HANDSEED
  5
100
  9
$SURFTAB1
 70
     6
  9
$SURFTAB2
 70
     6
  9
$SURFTYPE
 70
     6
  9
$SURFU
 70
     6
  9
$SURFV
 70
     6
  9
$UCSBASE
  2

  9
$UCSNAME
  2

  9
$UCSORG
 10
0.0
 20
0.0
 30
0.0
  9
$UCSXDIR
 10
1.0
 20
0.0
 30
0.0
  9
$UCSYDIR
 10
0.0
 20
1.0
 30
0.0
  9
$UCSORTHOREF
  2

  9
$UCSORTHOVIEW
 70
     0
  9
$UCSORGTOP
 10
0.0
 20
0.0
 30
0.0
  9
$UCSORGBOTTOM
 10
0.0
 20
0.0
 30
0.0
  9
$UCSORGLEFT
 10
0.0
 20
0.0
 30
0.0
  9
$UCSORGRIGHT
 10
0.0
 20
0.0
 30
0.0
  9
$UCSORGFRONT
 10
0.0
 20
0.0
 30
0.0
  9
$UCSORGBACK
 10
0.0
 20
0.0
 30
0.0
  9
$PUCSBASE
  2

  9
$PUCSNAME
  2

  9
$PUCSORG
 10
0.0
 20
0.0
 30
0.0
  9
$PUCSXDIR
 10
1.0
 20
0.0
 30
0.0
  9
$PUCSYDIR
 10
0.0
 20
1.0
 30
0.0
  9
$PUCSORTHOREF
  2

  9
$PUCSORTHOVIEW
 70
     0
  9
$PUCSORGTOP
 10
0.0
 20
0.0
 30
0.0
  9
$PUCSORGBOTTOM
 10
0.0
 20
0.0
 30
0.0
  9
$PUCSORGLEFT
 10
0.0
 20
0.0
 30
0.0
  9
$PUCSORGRIGHT
 10
0.0
 20
0.0
 30
0.0
  9
$PUCSORGFRONT
 10
0.0
 20
0.0
 30
0.0
  9
$PUCSORGBACK
 10
0.0
 20
0.0
 30
0.0
  9
$USERI1
 70
     0
  9
$USERI2
 70
     0
  9
$USERI3
 70
     0
  9
$USERI4
 70
     0
  9
$USERI5
 70
     0
  9
$USERR1
 40
0.0
  9
$USERR2
 40
0.0
  9
$USERR3
 40
0.0
  9
$USERR4
 40
0.0
  9
$USERR5
 40
0.0
  9
$WORLDVIEW
 70
     1
  9
$SHADEDGE
 70
     3
  9
$SHADEDIF
 70
    70
  9
$TILEMODE
 70
     1
  9
$MAXACTVP
 70
    64
  9
$PINSBASE
 10
0.0
 20
0.0
 30
0.0
  9
$PLIMCHECK
 70
     0
  9
$PEXTMIN
 10
1.000000000000000E+20
 20
1.000000000000000E+20
 30
1.000000000000000E+20
  9
$PEXTMAX
 10
-1.000000000000000E+20
 20
-1.000000000000000E+20
 30
-1.000000000000000E+20
  9
$PLIMMIN
 10
0.0
 20
0.0
  9
$PLIMMAX
 10
12.0
 20
9.0
  9
$UNITMODE
 70
     0
  9
$VISRETAIN
 70
     1
  9
$PLINEGEN
 70
     0
  9
$PSLTSCALE
 70
     1
  9
$TREEDEPTH
 70
  3020
  9
$CMLSTYLE
  2
Standard
  9
$CMLJUST
 70
     0
  9
$CMLSCALE
 40
1.0
  9
$PROXYGRAPHICS
 70
     1
  9
$MEASUREMENT
 70
     0
  9
$CELWEIGHT
370
    -1
  9
$ENDCAPS
280
     0
  9
$JOINSTYLE
280
     0
  9
$LWDISPLAY
290
     0
  9
$INSUNITS
 70
     4
  9
$HYPERLINKBASE
  1

  9
$STYLESHEET
  1

  9
$XEDIT
290
     1
  9
$CEPSNTYPE
380
     0
  9
$PSTYLEMODE
290
     1
  9
$FINGERPRINTGUID
  2
{DDA2D79E-E3FE-41B8-80ED-D6EA854BA28E}
  9
$VERSIONGUID
  2
{FAEB1C32-E019-11D5-929B-00C0DF256EC4}
  9
$EXTNAMES
290
     1
  9
$PSVPSCALE
 40
0.0
  9
$OLESTARTUP
290
     0
  9
$SORTENTS
280
   127
  9
$INDEXCTL
280
     0
  9
$HIDETEXT
280
     1
  9
$XCLIPFRAME
290
     0
  9
$HALOGAP
280
     0
  9
$OBSCOLOR
 70
   257
  9
$OBSLTYPE
280
     0
  9
$INTERSECTIONDISPLAY
280
     0
  9
$INTERSECTIONCOLOR
 70
   257
  9
$DIMASSOC
280
     2
  9
$PROJECTNAME
  1

  9
$CAMERADISPLAY
290
     0
  9
$LENSLENGTH
 40
50.0
  9
$CAMERAHEIGHT
 40
0.0
  9
$STEPSPERSEC
 40
2.0
  9
$STEPSIZE
 40
6.0
  9
$3DDWFPREC
 40
2.0
  9
$PSOLWIDTH
 40
0.25
  9
$PSOLHEIGHT
 40
4.0
  9
$LOFTANG1
 40
1.570796326794897
  9
$LOFTANG2
 40
1.570796326794897
  9
$LOFTMAG1
 40
0.0
  9
$LOFTMAG2
 40
0.0
  9
$LOFTPARAM
 70
     7
  9
$LOFTNORMALS
280
     1
  9
$LATITUDE
 40
37.795
  9
$LONGITUDE
 40
-122.394
  9
$NORTHDIRECTION
 40
0.0
  9
$TIMEZONE
 70
 -8000
  9
$LIGHTGLYPHDISPLAY
280
     1
  9
$TILEMODELIGHTSYNCH
280
     1
  9
$SOLIDHIST
280
     1
  9
$SHOWHIST
280
     1
  9
$DWFFRAME
280
     2
  9
$DGNFRAME
280
     2
  9
$REALWORLDSCALE
290
     1
  9
$INTERFERECOLOR
 62
   256
  9
$CSHADOW
280
     0
  9
$SHADOWPLANELOCATION
 40
0.0
  0
ENDSEC
  0
SECTION
  2
CLASSES
  0
CLASS
  1
ACDBDICTIONARYWDFLT
  2
AcDbDictionaryWithDefault
  3
ObjectDBX Classes
 90
        0
 91
        4
280
     0
281
     0
  0
CLASS
  1
VISUALSTYLE
  2
AcDbVisualStyle
  3
ObjectDBX Classes
 90
     4095
 91
        4
280
     0
281
     0
  0
CLASS
  1
MATERIAL
  2
AcDbMaterial
  3
ObjectDBX Classes
 90
     1153
 91
        4
280
     0
281
     0
  0
ENDSEC
  0
SECTION
  2
TABLES
  0
TABLE
  2
VPORT
  5
8
330
0
100
AcDbSymbolTable
 70
     1
  0
VPORT
  5
29
330
8
100
AcDbSymbolTableRecord
100
AcDbViewportTableRecord
  2
*Active
 70
     0
 10
0.0
 20
0.0
 11
1.0
 21
1.0
 12
10.42990654205607
 22
4.5
 13
0.0
 23
0.0
 14
0.5
 24
0.5
 15
0.5
 25
0.5
 16
0.0
 26
0.0
 36
1.0
 17
0.0
 27
0.0
 37
0.0
 40
9.0
 41
1.972972972850329
 42
50.0
 43
0.0
 44
0.0
 50
0.0
 51
0.0
 71
     0
 72
   100
 73
     1
 74
     3
 75
     0
 76
     0
 77
     0
 78
     0
281
     0
 65
     1
110
0.0
120
0.0
130
0.0
111
1.0
121
0.0
131
0.0
112
0.0
122
1.0
132
0.0
 79
     0
146
0.0
 60
     3
 61
     5
292
     1
282
     1
141
0.0
142
0.0
 63
   250
  0
ENDTAB
  0
TABLE
  2
LTYPE
  5
5
330
0
100
AcDbSymbolTable
 70
     1
  0
LTYPE
  5
14
330
5
100
AcDbSymbolTableRecord
100
AcDbLinetypeTableRecord
  2
ByBlock
 70
     0
  3

 72
    65
 73
     0
 40
0.0
  0
LTYPE
  5
15
330
5
100
AcDbSymbolTableRecord
100
AcDbLinetypeTableRecord
  2
ByLayer
 70
     0
  3

 72
    65
 73
     0
 40
0.0
  0
LTYPE
  5
16
330
5
100
AcDbSymbolTableRecord
100
AcDbLinetypeTableRecord
  2
Continuous
 70
     0
  3
Solid line
 72
    65
 73
     0
 40
0.0
  0
ENDTAB
  0
TABLE
  2
LAYER
  5
2
330
0
100
AcDbSymbolTable
 70
     3
  0
LAYER
  5
10
330
2
100
AcDbSymbolTableRecord
100
AcDbLayerTableRecord
  2
0
 70
     0
 62
     7
  6
Continuous
370
    -3
390
F
347
3E
  0
LAYER
  5
40
330
2
100
AcDbSymbolTableRecord
100
AcDbLayerTableRecord
  2
layer 1
 70
     0
 62
     7
  6
Continuous
370
    -3
390
F
347
3E
  0
LAYER
  5
DD
330
2
100
AcDbSymbolTableRecord
100
AcDbLayerTableRecord
  2
Master Guides
 70
     0
 62
     7
  6
Continuous
370
    -3
390
F
347
3E
  0
ENDTAB
  0
TABLE
  2
STYLE
  5
3
330
0
100
AcDbSymbolTable
 70
     1
  0
STYLE
  5
11
330
3
100
AcDbSymbolTableRecord
100
AcDbTextStyleTableRecord
  2
Standard
 70
     0
 40
0.0
 41
1.0
 50
0.0
 71
     0
 42
0.2
  3
txt
  4

  0
ENDTAB
  0
TABLE
  2
VIEW
  5
6
330
0
100
AcDbSymbolTable
 70
     0
  0
ENDTAB
  0
TABLE
  2
UCS
  5
7
330
0
100
AcDbSymbolTable
 70
     0
  0
ENDTAB
  0
TABLE
  2
APPID
  5
9
330
0
100
AcDbSymbolTable
 70
     2
  0
APPID
  5
12
330
9
100
AcDbSymbolTableRecord
100
AcDbRegAppTableRecord
  2
ACAD
 70
     0
  0
APPID
  5
3F
330
9
100
AcDbSymbolTableRecord
100
AcDbRegAppTableRecord
  2
ODA
 70
     0
  0
ENDTAB
  0
TABLE
  2
DIMSTYLE
  5
A
330
0
100
AcDbSymbolTable
 70
     1
100
AcDbDimStyleTable
  0
DIMSTYLE
105
27
330
A
100
AcDbSymbolTableRecord
100
AcDbDimStyleTableRecord
  2
Standard
 70
     0
178
     0
340
11
  0
ENDTAB
  0
TABLE
  2
BLOCK_RECORD
  5
1
330
0
100
AcDbSymbolTable
 70
     1
  0
BLOCK_RECORD
  5
1F
330
1
100
AcDbSymbolTableRecord
100
AcDbBlockTableRecord
  2
*Model_Space
340
22
 70
     0
280
     1
281
     0
  0
BLOCK_RECORD
  5
1B
330
1
100
AcDbSymbolTableRecord
100
AcDbBlockTableRecord
  2
*Paper_Space
340
1E
 70
     0
280
     1
281
     0
  0
BLOCK_RECORD
  5
23
330
1
100
AcDbSymbolTableRecord
100
AcDbBlockTableRecord
  2
*Paper_Space0
340
26
 70
     0
280
     1
281
     0
  0
ENDTAB
  0
ENDSEC
  0
SECTION
  2
BLOCKS
  0
BLOCK
  5
20
330
1F
100
AcDbEntity
  8
0
100
AcDbBlockBegin
  2
*Model_Space
 70
     0
 10
0.0
 20
0.0
 30
0.0
  3
*Model_Space
  1

  0
ENDBLK
  5
21
330
1F
100
AcDbEntity
  8
0
100
AcDbBlockEnd
  0
BLOCK
  5
1C
330
1B
100
AcDbEntity
 67
     1
  8
0
100
AcDbBlockBegin
  2
*Paper_Space
 70
     0
 10
0.0
 20
0.0
 30
0.0
  3
*Paper_Space
  1

  0
ENDBLK
  5
1D
330
1B
100
AcDbEntity
 67
     1
  8
0
100
AcDbBlockEnd
  0
BLOCK
  5
24
330
23
100
AcDbEntity
  8
0
100
AcDbBlockBegin
  2
*Paper_Space0
 70
     0
 10
0.0
 20
0.0
 30
0.0
  3
*Paper_Space0
  1

  0
ENDBLK
  5
25
330
23
100
AcDbEntity
  8
0
100
AcDbBlockEnd
  0
ENDSEC
  0
SECTION
  2
ENTITIES
  0
SPLINE
  5
41
330
1F
100
AcDbEntity
  8
layer 1
100
AcDbSpline
210
0.0
220
0.0
230
1.0
 70
    11
 71
     3
 72
    20
 73
    16
 74
     0
 42
0.0000000001
 43
0.0000000001
 12
1.0
 22
0.0
 32
0.0
 13
1.0
 23
0.0
 33
0.0
 40
0.0
 40
0.0
 40
0.0
 40
0.0
 40
0.2
 40
0.2
 40
0.2
 40
0.2
 40
0.4
 40
0.4
 40
0.4
 40
0.4
 40
0.6
 40
0.6
 40
0.6
 40
0.6
 40
1.0
 40
1.0
 40
1.0
 40
1.0
 10
-187.2178
 20
-114.6908
 30
0.0
 10
-187.2178
 20
-114.6908
 30
0.0
 10
-62.5948
 20
-114.6908
 30
0.0
 10
-62.5948
 20
-114.6908
 30
0.0
 10
-62.5948
 20
-114.6908
 30
0.0
 10
-62.5948
 20
-114.6908
 30
0.0
 10
-62.5948
 20
131.7228
 30
0.0
 10
-62.5948
 20
131.7228
 30
0.0
 10
-62.5948
 20
131.7228
 30
0.0
 10
-62.5948
 20
131.7228
 30
0.0
 10
-187.2178
 20
131.7228
 30
0.0
 10
-187.2178
 20
131.7228
 30
0.0
 10
-187.2178
 20
131.7228
 30
0.0
 10
-187.2178
 20
131.7228
 30
0.0
 10
-187.2178
 20
-114.6908
 30
0.0
 10
-187.2178
 20
-114.6908
 30
0.0
  0
SPLINE
  5
42
330
1F
100
AcDbEntity
  8
layer 1
 62
     7
100
AcDbSpline
210
0.0
220
0.0
230
1.0
 70
    11
 71
     3
 72
    36
 73
    32
 74
     0
 42
0.0000000001
 43
0.0000000001
 12
1.0
 22
0.0
 32
0.0
 13
1.0
 23
0.0
 33
0.0
 40
0.0
 40
0.0
 40
0.0
 40
0.0
 40
0.1111111111111111
 40
0.1111111111111111
 40
0.1111111111111111
 40
0.1111111111111111
 40
0.2222222222222222
 40
0.2222222222222222
 40
0.2222222222222222
 40
0.2222222222222222
 40
0.3333333333333333
 40
0.3333333333333333
 40
0.3333333333333333
 40
0.3333333333333333
 40
0.4444444444444444
 40
0.4444444444444444
 40
0.4444444444444444
 40
0.4444444444444444
 40
0.5555555555555556
 40
0.5555555555555556
 40
0.5555555555555556
 40
0.5555555555555556
 40
0.6666666666666666
 40
0.6666666666666666
 40
0.6666666666666666
 40
0.6666666666666666
 40
0.7777777777777778
 40
0.7777777777777778
 40
0.7777777777777778
 40
0.7777777777777778
 40
1.0
 40
1.0
 40
1.0
 40
1.0
 10
-166.7055
 20
89.7519
 30
0.0
 10
-166.7055
 20
89.7519
 30
0.0
 10
-173.4149
 20
89.7519
 30
0.0
 10
-173.4149
 20
89.7519
 30
0.0
 10
-173.4149
 20
89.7519
 30
0.0
 10
-173.4149
 20
89.7519
 30
0.0
 10
-178.1593
 20
94.6288
 30
0.0
 10
-178.1593
 20
94.6288
 30
0.0
 10
-178.1593
 20
94.6288
 30
0.0
 10
-178.1593
 20
94.6288
 30
0.0
 10
-178.1593
 20
101.5258
 30
0.0
 10
-178.1593
 20
101.5258
 30
0.0
 10
-178.1593
 20
101.5258
 30
0.0
 10
-178.1593
 20
101.5258
 30
0.0
 10
-173.4149
 20
106.4027
 30
0.0
 10
-173.4149
 20
106.4027
 30
0.0
 10
-173.4149
 20
106.4027
 30
0.0
 10
-173.4149
 20
106.4027
 30
0.0
 10
-166.7055
 20
106.4027
 30
0.0
 10
-166.7055
 20
106.4027
 30
0.0
 10
-166.7055
 20
106.4027
 30
0.0
 10
-166.7055
 20
106.4027
 30
0.0
 10
-161.9611
 20
101.5258
 30
0.0
 10
-161.9611
 20
101.5258
 30
0.0
 10
-161.9611
 20
101.5258
 30
0.0
 10
-161.9611
 20
101.5258
 30
0.0
 10
-161.9611
 20
94.6288
 30
0.0
 10
-161.9611
 20
94.6288
 30
0.0
 10
-161.9611
 20
94.6288
 30
0.0
 10
-161.9611
 20
94.6288
 30
0.0
 10
-166.7055
 20
89.7519
 30
0.0
 10
-166.7055
 20
89.7519
 30
0.0
  0
SPLINE
  5
43
330
1F
100
AcDbEntity
  8
layer 1
 62
     7
100
AcDbSpline
210
0.0
220
0.0
230
1.0
 70
    11
 71
     3
 72
    36
 73
    32
 74
     0
 42
0.0000000001
 43
0.0000000001
 12
1.0
 22
0.0
 32
0.0
 13
1.0
 23
0.0
 33
0.0
 40
0.0
 40
0.0
 40
0.0
 40
0.0
 40
0.1111111111111111
 40
0.1111111111111111
 40
0.1111111111111111
 40
0.1111111111111111
 40
0.2222222222222222
 40
0.2222222222222222
 40
0.2222222222222222
 40
0.2222222222222222
 40
0.3333333333333333
 40
0.3333333333333333
 40
0.3333333333333333
 40
0.3333333333333333
 40
0.4444444444444444
 40
0.4444444444444444
 40
0.4444444444444444
 40
0.4444444444444444
 40
0.5555555555555556
 40
0.5555555555555556
 40
0.5555555555555556
 40
0.5555555555555556
 40
0.6666666666666666
 40
0.6666666666666666
 40
0.6666666666666666
 40
0.6666666666666666
 40
0.7777777777777778
 40
0.7777777777777778
 40
0.7777777777777778
 40
0.7777777777777778
 40
1.0
 40
1.0
 40
1.0
 40
1.0
 10
-122.1408
 20
89.6643
 30
0.0
 10
-122.1408
 20
89.6643
 30
0.0
 10
-128.8503
 20
89.6643
 30
0.0
 10
-128.8503
 20
89.6643
 30
0.0
 10
-128.8503
 20
89.6643
 30
0.0
 10
-128.8503
 20
89.6643
 30
0.0
 10
-133.5946
 20
94.5412
 30
0.0
 10
-133.5946
 20
94.5412
 30
0.0
 10
-133.5946
 20
94.5412
 30
0.0
 10
-133.5946
 20
94.5412
 30
0.0
 10
-133.5946
 20
101.4382
 30
0.0
 10
-133.5946
 20
101.4382
 30
0.0
 10
-133.5946
 20
101.4382
 30
0.0
 10
-133.5946
 20
101.4382
 30
0.0
 10
-128.8503
 20
106.315
 30
0.0
 10
-128.8503
 20
106.315
 30
0.0
 10
-128.8503
 20
106.315
 30
0.0
 10
-128.8503
 20
106.315
 30
0.0
 10
-122.1408
 20
106.315
 30
0.0
 10
-122.1408
 20
106.315
 30
0.0
 10
-122.1408
 20
106.315
 30
0.0
 10
-122.1408
 20
106.315
 30
0.0
 10
-117.3965
 20
101.4382
 30
0.0
 10
-117.3965
 20
101.4382
 30
0.0
 10
-117.3965
 20
101.4382
 30
0.0
 10
-117.3965
 20
101.4382
 30
0.0
 10
-117.3965
 20
94.5412
 30
0.0
 10
-117.3965
 20
94.5412
 30
0.0
 10
-117.3965
 20
94.5412
 30
0.0
 10
-117.3965
 20
94.5412
 30
0.0
 10
-122.1408
 20
89.6643
 30
0.0
 10
-122.1408
 20
89.6643
 30
0.0
  0
SPLINE
  5
44
330
1F
100
AcDbEntity
  8
layer 1
 62
     7
100
AcDbSpline
210
0.0
220
0.0
230
1.0
 70
    11
 71
     3
 72
    36
 73
    32
 74
     0
 42
0.0000000001
 43
0.0000000001
 12
1.0
 22
0.0
 32
0.0
 13
1.0
 23
0.0
 33
0.0
 40
0.0
 40
0.0
 40
0.0
 40
0.0
 40
0.1111111111111111
 40
0.1111111111111111
 40
0.1111111111111111
 40
0.1111111111111111
 40
0.2222222222222222
 40
0.2222222222222222
 40
0.2222222222222222
 40
0.2222222222222222
 40
0.3333333333333333
 40
0.3333333333333333
 40
0.3333333333333333
 40
0.3333333333333333
 40
0.4444444444444444
 40
0.4444444444444444
 40
0.4444444444444444
 40
0.4444444444444444
 40
0.5555555555555556
 40
0.5555555555555556
 40
0.5555555555555556
 40
0.5555555555555556
 40
0.6666666666666666
 40
0.6666666666666666
 40
0.6666666666666666
 40
0.6666666666666666
 40
0.7777777777777778
 40
0.7777777777777778
 40
0.7777777777777778
 40
0.7777777777777778
 40
1.0
 40
1.0
 40
1.0
 40
1.0
 10
-77.4884
 20
89.6643
 30
0.0
 10
-77.4884
 20
89.6643
 30
0.0
 10
-84.1979
 20
89.6643
 30
0.0
 10
-84.1979
 20
89.6643
 30
0.0
 10
-84.1979
 20
89.6643
 30
0.0
 10
-84.1979
 20
89.6643
 30
0.0
 10
-88.9422
 20
94.5412
 30
0.0
 10
-88.9422
 20
94.5412
 30
0.0
 10
-88.9422
 20
94.5412
 30
0.0
 10
-88.9422
 20
94.5412
 30
0.0
 10
-88.9422
 20
101.4382
 30
0.0
 10
-88.9422
 20
101.4382
 30
0.0
 10
-88.9422
 20
101.4382
 30
0.0
 10
-88.9422
 20
101.4382
 30
0.0
 10
-84.1979
 20
106.315
 30
0.0
 10
-84.1979
 20
106.315
 30
0.0
 10
-84.1979
 20
106.315
 30
0.0
 10
-84.1979
 20
106.315
 30
0.0
 10
-77.4884
 20
106.315
 30
0.0
 10
-77.4884
 20
106.315
 30
0.0
 10
-77.4884
 20
106.315
 30
0.0
 10
-77.4884
 20
106.315
 30
0.0
 10
-72.7441
 20
101.4382
 30
0.0
 10
-72.7441
 20
101.4382
 30
0.0
 10
-72.7441
 20
101.4382
 30
0.0
 10
-72.7441
 20
101.4382
 30
0.0
 10
-72.7441
 20
94.5412
 30
0.0
 10
-72.7441
 20
94.5412
 30
0.0
 10
-72.7441
 20
94.5412
 30
0.0
 10
-72.7441
 20
94.5412
 30
0.0
 10
-77.4884
 20
89.6643
 30
0.0
 10
-77.4884
 20
89.6643
 30
0.0
  0
SPLINE
  5
45
330
1F
100
AcDbEntity
  8
layer 1
 62
     7
100
AcDbSpline
210
0.0
220
0.0
230
1.0
 70
    11
 71
     3
 72
    20
 73
    16
 74
     0
 42
0.0000000001
 43
0.0000000001
 12
1.0
 22
0.0
 32
0.0
 13
1.0
 23
0.0
 33
0.0
 40
0.0
 40
0.0
 40
0.0
 40
0.0
 40
0.2
 40
0.2
 40
0.2
 40
0.2
 40
0.4
 40
0.4
 40
0.4
 40
0.4
 40
0.6
 40
0.6
 40
0.6
 40
0.6
 40
1.0
 40
1.0
 40
1.0
 40
1.0
 10
-106.2866
 20
98.0826
 30
0.0
 10
-106.2866
 20
98.0826
 30
0.0
 10
-103.1387
 20
101.2305
 30
0.0
 10
-103.1387
 20
101.2305
 30
0.0
 10
-103.1387
 20
101.2305
 30
0.0
 10
-103.1387
 20
101.2305
 30
0.0
 10
-99.9907
 20
98.0826
 30
0.0
 10
-99.9907
 20
98.0826
 30
0.0
 10
-99.9907
 20
98.0826
 30
0.0
 10
-99.9907
 20
98.0826
 30
0.0
 10
-103.1387
 20
94.9346
 30
0.0
 10
-103.1387
 20
94.9346
 30
0.0
 10
-103.1387
 20
94.9346
 30
0.0
 10
-103.1387
 20
94.9346
 30
0.0
 10
-106.2866
 20
98.0826
 30
0.0
 10
-106.2866
 20
98.0826
 30
0.0
  0
SPLINE
  5
46
330
1F
100
AcDbEntity
  8
layer 1
 62
     7
100
AcDbSpline
210
0.0
220
0.0
230
1.0
 70
    11
 71
     3
 72
    24
 73
    20
 74
     0
 42
0.0000000001
 43
0.0000000001
 12
1.0
 22
0.0
 32
0.0
 13
1.0
 23
0.0
 33
0.0
 40
0.0
 40
0.0
 40
0.0
 40
0.0
 40
0.1666666666666667
 40
0.1666666666666667
 40
0.1666666666666667
 40
0.1666666666666667
 40
0.3333333333333333
 40
0.3333333333333333
 40
0.3333333333333333
 40
0.3333333333333333
 40
0.5
 40
0.5
 40
0.5
 40
0.5
 40
0.6666666666666666
 40
0.6666666666666666
 40
0.6666666666666666
 40
0.6666666666666666
 40
1.0
 40
1.0
 40
1.0
 40
1.0
 10
-111.4115
 20
103.0326
 30
0.0
 10
-111.4115
 20
103.0326
 30
0.0
 10
-111.4437
 20
106.2847
 30
0.0
 10
-111.4437
 20
106.2847
 30
0.0
 10
-111.4437
 20
106.2847
 30
0.0
 10
-111.4437
 20
106.2847
 30
0.0
 10
-108.3567
 20
106.3111
 30
0.0
 10
-108.3567
 20
106.3111
 30
0.0
 10
-108.3567
 20
106.3111
 30
0.0
 10
-108.3567
 20
106.3111
 30
0.0
 10
-106.1035
 20
104.002
 30
0.0
 10
-106.1035
 20
104.002
 30
0.0
 10
-106.1035
 20
104.002
 30
0.0
 10
-106.1035
 20
104.002
 30
0.0
 10
-109.2515
 20
100.8541
 30
0.0
 10
-109.2515
 20
100.8541
 30
0.0
 10
-109.2515
 20
100.8541
 30
0.0
 10
-109.2515
 20
100.8541
 30
0.0
 10
-111.4115
 20
103.0326
 30
0.0
 10
-111.4115
 20
103.0326
 30
0.0
  0
SPLINE
  5
47
330
1F
100
AcDbEntity
  8
layer 1
 62
     7
100
AcDbSpline
210
0.0
220
0.0
230
1.0
 70
    11
 71
     3
 72
    24
 73
    20
 74
     0
 42
0.0000000001
 43
0.0000000001
 12
1.0
 22
0.0
 32
0.0
 13
1.0
 23
0.0
 33
0.0
 40
0.0
 40
0.0
 40
0.0
 40
0.0
 40
0.1666666666666667
 40
0.1666666666666667
 40
0.1666666666666667
 40
0.1666666666666667
 40
0.3333333333333333
 40
0.3333333333333333
 40
0.3333333333333333
 40
0.3333333333333333
 40
0.5
 40
0.5
 40
0.5
 40
0.5
 40
0.6666666666666666
 40
0.6666666666666666
 40
0.6666666666666666
 40
0.6666666666666666
 40
1.0
 40
1.0
 40
1.0
 40
1.0
 10
-94.809
 20
103.0742
 30
0.0
 10
-94.809
 20
103.0742
 30
0.0
 10
-94.7768
 20
106.3264
 30
0.0
 10
-94.7768
 20
106.3264
 30
0.0
 10
-94.7768
 20
106.3264
 30
0.0
 10
-94.7768
 20
106.3264
 30
0.0
 10
-97.8638
 20
106.3528
 30
0.0
 10
-97.8638
 20
106.3528
 30
0.0
 10
-97.8638
 20
106.3528
 30
0.0
 10
-97.8638
 20
106.3528
 30
0.0
 10
-100.117
 20
104.0437
 30
0.0
 10
-100.117
 20
104.0437
 30
0.0
 10
-100.117
 20
104.0437
 30
0.0
 10
-100.117
 20
104.0437
 30
0.0
 10
-96.969
 20
100.8957
 30
0.0
 10
-96.969
 20
100.8957
 30
0.0
 10
-96.969
 20
100.8957
 30
0.0
 10
-96.969
 20
100.8957
 30
0.0
 10
-94.809
 20
103.0742
 30
0.0
 10
-94.809
 20
103.0742
 30
0.0
  0
SPLINE
  5
48
330
1F
100
AcDbEntity
  8
layer 1
 62
     7
100
AcDbSpline
210
0.0
220
0.0
230
1.0
 70
    11
 71
     3
 72
    24
 73
    20
 74
     0
 42
0.0000000001
 43
0.0000000001
 12
1.0
 22
0.0
 32
0.0
 13
1.0
 23
0.0
 33
0.0
 40
0.0
 40
0.0
 40
0.0
 40
0.0
 40
0.1666666666666667
 40
0.1666666666666667
 40
0.1666666666666667
 40
0.1666666666666667
 40
0.3333333333333333
 40
0.3333333333333333
 40
0.3333333333333333
 40
0.3333333333333333
 40
0.5
 40
0.5
 40
0.5
 40
0.5
 40
0.6666666666666666
 40
0.6666666666666666
 40
0.6666666666666666
 40
0.6666666666666666
 40
1.0
 40
1.0
 40
1.0
 40
1.0
 10
-111.4115
 20
92.9576
 30
0.0
 10
-111.4115
 20
92.9576
 30
0.0
 10
-111.4437
 20
89.7054
 30
0.0
 10
-111.4437
 20
89.7054
 30
0.0
 10
-111.4437
 20
89.7054
 30
0.0
 10
-111.4437
 20
89.7054
 30
0.0
 10
-108.3567
 20
89.679
 30
0.0
 10
-108.3567
 20
89.679
 30
0.0
 10
-108.3567
 20
89.679
 30
0.0
 10
-108.3567
 20
89.679
 30
0.0
 10
-106.1035
 20
91.9881
 30
0.0
 10
-106.1035
 20
91.9881
 30
0.0
 10
-106.1035
 20
91.9881
 30
0.0
 10
-106.1035
 20
91.9881
 30
0.0
 10
-109.2515
 20
95.1361
 30
0.0
 10
-109.2515
 20
95.1361
 30
0.0
 10
-109.2515
 20
95.1361
 30
0.0
 10
-109.2515
 20
95.1361
 30
0.0
 10
-111.4115
 20
92.9576
 30
0.0
 10
-111.4115
 20
92.9576
 30
0.0
  0
SPLINE
  5
49
330
1F
100
AcDbEntity
  8
layer 1
 62
     7
100
AcDbSpline
210
0.0
220
0.0
230
1.0
 70
    11
 71
     3
 72
    24
 73
    20
 74
     0
 42
0.0000000001
 43
0.0000000001
 12
1.0
 22
0.0
 32
0.0
 13
1.0
 23
0.0
 33
0.0
 40
0.0
 40
0.0
 40
0.0
 40
0.0
 40
0.1666666666666667
 40
0.1666666666666667
 40
0.1666666666666667
 40
0.1666666666666667
 40
0.3333333333333333
 40
0.3333333333333333
 40
0.3333333333333333
 40
0.3333333333333333
 40
0.5
 40
0.5
 40
0.5
 40
0.5
 40
0.6666666666666666
 40
0.6666666666666666
 40
0.6666666666666666
 40
0.6666666666666666
 40
1.0
 40
1.0
 40
1.0
 40
1.0
 10
-94.809
 20
92.9159
 30
0.0
 10
-94.809
 20
92.9159
 30
0.0
 10
-94.7768
 20
89.6638
 30
0.0
 10
-94.7768
 20
89.6638
 30
0.0
 10
-94.7768
 20
89.6638
 30
0.0
 10
-94.7768
 20
89.6638
 30
0.0
 10
-97.8638
 20
89.6374
 30
0.0
 10
-97.8638
 20
89.6374
 30
0.0
 10
-97.8638
 20
89.6374
 30
0.0
 10
-97.8638
 20
89.6374
 30
0.0
 10
-100.117
 20
91.9465
 30
0.0
 10
-100.117
 20
91.9465
 30
0.0
 10
-100.117
 20
91.9465
 30
0.0
 10
-100.117
 20
91.9465
 30
0.0
 10
-96.969
 20
95.0944
 30
0.0
 10
-96.969
 20
95.0944
 30
0.0
 10
-96.969
 20
95.0944
 30
0.0
 10
-96.969
 20
95.0944
 30
0.0
 10
-94.809
 20
92.9159
 30
0.0
 10
-94.809
 20
92.9159
 30
0.0
  0
SPLINE
  5
4A
330
1F
100
AcDbEntity
  8
layer 1
 62
     7
100
AcDbSpline
210
0.0
220
0.0
230
1.0
 70
    11
 71
     3
 72
    20
 73
    16
 74
     0
 42
0.0000000001
 43
0.0000000001
 12
1.0
 22
0.0
 32
0.0
 13
1.0
 23
0.0
 33
0.0
 40
0.0
 40
0.0
 40
0.0
 40
0.0
 40
0.2
 40
0.2
 40
0.2
 40
0.2
 40
0.4
 40
0.4
 40
0.4
 40
0.4
 40
0.6
 40
0.6
 40
0.6
 40
0.6
 40
1.0
 40
1.0
 40
1.0
 40
1.0
 10
-151.0017
 20
98.0826
 30
0.0
 10
-151.0017
 20
98.0826
 30
0.0
 10
-147.8537
 20
101.2305
 30
0.0
 10
-147.8537
 20
101.2305
 30
0.0
 10
-147.8537
 20
101.2305
 30
0.0
 10
-147.8537
 20
101.2305
 30
0.0
 10
-144.7058
 20
98.0826
 30
0.0
 10
-144.7058
 20
98.0826
 30
0.0
 10
-144.7058
 20
98.0826
 30
0.0
 10
-144.7058
 20
98.0826
 30
0.0
 10
-147.8537
 20
94.9346
 30
0.0
 10
-147.8537
 20
94.9346
 30
0.0
 10
-147.8537
 20
94.9346
 30
0.0
 10
-147.8537
 20
94.9346
 30
0.0
 10
-151.0017
 20
98.0826
 30
0.0
 10
-151.0017
 20
98.0826
 30
0.0
  0
SPLINE
  5
4B
330
1F
100
AcDbEntity
  8
layer 1
 62
     7
100
AcDbSpline
210
0.0
220
0.0
230
1.0
 70
    11
 71
     3
 72
    24
 73
    20
 74
     0
 42
0.0000000001
 43
0.0000000001
 12
1.0
 22
0.0
 32
0.0
 13
1.0
 23
0.0
 33
0.0
 40
0.0
 40
0.0
 40
0.0
 40
0.0
 40
0.1666666666666667
 40
0.1666666666666667
 40
0.1666666666666667
 40
0.1666666666666667
 40
0.3333333333333333
 40
0.3333333333333333
 40
0.3333333333333333
 40
0.3333333333333333
 40
0.5
 40
0.5
 40
0.5
 40
0.5
 40
0.6666666666666666
 40
0.6666666666666666
 40
0.6666666666666666
 40
0.6666666666666666
 40
1.0
 40
1.0
 40
1.0
 40
1.0
 10
-156.1266
 20
103.0326
 30
0.0
 10
-156.1266
 20
103.0326
 30
0.0
 10
-156.1588
 20
106.2847
 30
0.0
 10
-156.1588
 20
106.2847
 30
0.0
 10
-156.1588
 20
106.2847
 30
0.0
 10
-156.1588
 20
106.2847
 30
0.0
 10
-153.0718
 20
106.3111
 30
0.0
 10
-153.0718
 20
106.3111
 30
0.0
 10
-153.0718
 20
106.3111
 30
0.0
 10
-153.0718
 20
106.3111
 30
0.0
 10
-150.8186
 20
104.002
 30
0.0
 10
-150.8186
 20
104.002
 30
0.0
 10
-150.8186
 20
104.002
 30
0.0
 10
-150.8186
 20
104.002
 30
0.0
 10
-153.9666
 20
100.8541
 30
0.0
 10
-153.9666
 20
100.8541
 30
0.0
 10
-153.9666
 20
100.8541
 30
0.0
 10
-153.9666
 20
100.8541
 30
0.0
 10
-156.1266
 20
103.0326
 30
0.0
 10
-156.1266
 20
103.0326
 30
0.0
  0
SPLINE
  5
4C
330
1F
100
AcDbEntity
  8
layer 1
 62
     7
100
AcDbSpline
210
0.0
220
0.0
230
1.0
 70
    11
 71
     3
 72
    24
 73
    20
 74
     0
 42
0.0000000001
 43
0.0000000001
 12
1.0
 22
0.0
 32
0.0
 13
1.0
 23
0.0
 33
0.0
 40
0.0
 40
0.0
 40
0.0
 40
0.0
 40
0.1666666666666667
 40
0.1666666666666667
 40
0.1666666666666667
 40
0.1666666666666667
 40
0.3333333333333333
 40
0.3333333333333333
 40
0.3333333333333333
 40
0.3333333333333333
 40
0.5
 40
0.5
 40
0.5
 40
0.5
 40
0.6666666666666666
 40
0.6666666666666666
 40
0.6666666666666666
 40
0.6666666666666666
 40
1.0
 40
1.0
 40
1.0
 40
1.0
 10
-139.5241
 20
103.0742
 30
0.0
 10
-139.5241
 20
103.0742
 30
0.0
 10
-139.4919
 20
106.3264
 30
0.0
 10
-139.4919
 20
106.3264
 30
0.0
 10
-139.4919
 20
106.3264
 30
0.0
 10
-139.4919
 20
106.3264
 30
0.0
 10
-142.5788
 20
106.3528
 30
0.0
 10
-142.5788
 20
106.3528
 30
0.0
 10
-142.5788
 20
106.3528
 30
0.0
 10
-142.5788
 20
106.3528
 30
0.0
 10
-144.8321
 20
104.0437
 30
0.0
 10
-144.8321
 20
104.0437
 30
0.0
 10
-144.8321
 20
104.0437
 30
0.0
 10
-144.8321
 20
104.0437
 30
0.0
 10
-141.6841
 20
100.8957
 30
0.0
 10
-141.6841
 20
100.8957
 30
0.0
 10
-141.6841
 20
100.8957
 30
0.0
 10
-141.6841
 20
100.8957
 30
0.0
 10
-139.5241
 20
103.0742
 30
0.0
 10
-139.5241
 20
103.0742
 30
0.0
  0
SPLINE
  5
4D
330
1F
100
AcDbEntity
  8
layer 1
 62
     7
100
AcDbSpline
210
0.0
220
0.0
230
1.0
 70
    11
 71
     3
 72
    24
 73
    20
 74
     0
 42
0.0000000001
 43
0.0000000001
 12
1.0
 22
0.0
 32
0.0
 13
1.0
 23
0.0
 33
0.0
 40
0.0
 40
0.0
 40
0.0
 40
0.0
 40
0.1666666666666667
 40
0.1666666666666667
 40
0.1666666666666667
 40
0.1666666666666667
 40
0.3333333333333333
 40
0.3333333333333333
 40
0.3333333333333333
 40
0.3333333333333333
 40
0.5
 40
0.5
 40
0.5
 40
0.5
 40
0.6666666666666666
 40
0.6666666666666666
 40
0.6666666666666666
 40
0.6666666666666666
 40
1.0
 40
1.0
 40
1.0
 40
1.0
 10
-156.1266
 20
92.9576
 30
0.0
 10
-156.1266
 20
92.9576
 30
0.0
 10
-156.1588
 20
89.7054
 30
0.0
 10
-156.1588
 20
89.7054
 30
0.0
 10
-156.1588
 20
89.7054
 30
0.0
 10
-156.1588
 20
89.7054
 30
0.0
 10
-153.0718
 20
89.679
 30
0.0
 10
-153.0718
 20
89.679
 30
0.0
 10
-153.0718
 20
89.679
 30
0.0
 10
-153.0718
 20
89.679
 30
0.0
 10
-150.8186
 20
91.9881
 30
0.0
 10
-150.8186
 20
91.9881
 30
0.0
 10
-150.8186
 20
91.9881
 30
0.0
 10
-150.8186
 20
91.9881
 30
0.0
 10
-153.9666
 20
95.1361
 30
0.0
 10
-153.9666
 20
95.1361
 30
0.0
 10
-153.9666
 20
95.1361
 30
0.0
 10
-153.9666
 20
95.1361
 30
0.0
 10
-156.1266
 20
92.9576
 30
0.0
 10
-156.1266
 20
92.9576
 30
0.0
  0
SPLINE
  5
4E
330
1F
100
AcDbEntity
  8
layer 1
 62
     7
100
AcDbSpline
210
0.0
220
0.0
230
1.0
 70
    11
 71
     3
 72
    24
 73
    20
 74
     0
 42
0.0000000001
 43
0.0000000001
 12
1.0
 22
0.0
 32
0.0
 13
1.0
 23
0.0
 33
0.0
 40
0.0
 40
0.0
 40
0.0
 40
0.0
 40
0.1666666666666667
 40
0.1666666666666667
 40
0.1666666666666667
 40
0.1666666666666667
 40
0.3333333333333333
 40
0.3333333333333333
 40
0.3333333333333333
 40
0.3333333333333333
 40
0.5
 40
0.5
 40
0.5
 40
0.5
 40
0.6666666666666666
 40
0.6666666666666666
 40
0.6666666666666666
 40
0.6666666666666666
 40
1.0
 40
1.0
 40
1.0
 40
1.0
 10
-139.5241
 20
92.9159
 30
0.0
 10
-139.5241
 20
92.9159
 30
0.0
 10
-139.4919
 20
89.6638
 30
0.0
 10
-139.4919
 20
89.6638
 30
0.0
 10
-139.4919
 20
89.6638
 30
0.0
 10
-139.4919
 20
89.6638
 30
0.0
 10
-142.5788
 20
89.6374
 30
0.0
 10
-142.5788
 20
89.6374
 30
0.0
 10
-142.5788
 20
89.6374
 30
0.0
 10
-142.5788
 20
89.6374
 30
0.0
 10
-144.8321
 20
91.9465
 30
0.0
 10
-144.8321
 20
91.9465
 30
0.0
 10
-144.8321
 20
91.9465
 30
0.0
 10
-144.8321
 20
91.9465
 30
0.0
 10
-141.6841
 20
95.0944
 30
0.0
 10
-141.6841
 20
95.0944
 30
0.0
 10
-141.6841
 20
95.0944
 30
0.0
 10
-141.6841
 20
95.0944
 30
0.0
 10
-139.5241
 20
92.9159
 30
0.0
 10
-139.5241
 20
92.9159
 30
0.0
  0
SPLINE
  5
4F
330
1F
100
AcDbEntity
  8
layer 1
 62
     7
100
AcDbSpline
210
0.0
220
0.0
230
1.0
 70
    11
 71
     3
 72
    36
 73
    32
 74
     0
 42
0.0000000001
 43
0.0000000001
 12
1.0
 22
0.0
 32
0.0
 13
1.0
 23
0.0
 33
0.0
 40
0.0
 40
0.0
 40
0.0
 40
0.0
 40
0.1111111111111111
 40
0.1111111111111111
 40
0.1111111111111111
 40
0.1111111111111111
 40
0.2222222222222222
 40
0.2222222222222222
 40
0.2222222222222222
 40
0.2222222222222222
 40
0.3333333333333333
 40
0.3333333333333333
 40
0.3333333333333333
 40
0.3333333333333333
 40
0.4444444444444444
 40
0.4444444444444444
 40
0.4444444444444444
 40
0.4444444444444444
 40
0.5555555555555556
 40
0.5555555555555556
 40
0.5555555555555556
 40
0.5555555555555556
 40
0.6666666666666666
 40
0.6666666666666666
 40
0.6666666666666666
 40
0.6666666666666666
 40
0.7777777777777778
 40
0.7777777777777778
 40
0.7777777777777778
 40
0.7777777777777778
 40
1.0
 40
1.0
 40
1.0
 40
1.0
 10
-166.7055
 20
45.009
 30
0.0
 10
-166.7055
 20
45.009
 30
0.0
 10
-173.4149
 20
45.009
 30
0.0
 10
-173.4149
 20
45.009
 30
0.0
 10
-173.4149
 20
45.009
 30
0.0
 10
-173.4149
 20
45.009
 30
0.0
 10
-178.1593
 20
49.8859
 30
0.0
 10
-178.1593
 20
49.8859
 30
0.0
 10
-178.1593
 20
49.8859
 30
0.0
 10
-178.1593
 20
49.8859
 30
0.0
 10
-178.1593
 20
56.7829
 30
0.0
 10
-178.1593
 20
56.7829
 30
0.0
 10
-178.1593
 20
56.7829
 30
0.0
 10
-178.1593
 20
56.7829
 30
0.0
 10
-173.4149
 20
61.6598
 30
0.0
 10
-173.4149
 20
61.6598
 30
0.0
 10
-173.4149
 20
61.6598
 30
0.0
 10
-173.4149
 20
61.6598
 30
0.0
 10
-166.7055
 20
61.6598
 30
0.0
 10
-166.7055
 20
61.6598
 30
0.0
 10
-166.7055
 20
61.6598
 30
0.0
 10
-166.7055
 20
61.6598
 30
0.0
 10
-161.9611
 20
56.7829
 30
0.0
 10
-161.9611
 20
56.7829
 30
0.0
 10
-161.9611
 20
56.7829
 30
0.0
 10
-161.9611
 20
56.7829
 30
0.0
 10
-161.9611
 20
49.8859
 30
0.0
 10
-161.9611
 20
49.8859
 30
0.0
 10
-161.9611
 20
49.8859
 30
0.0
 10
-161.9611
 20
49.8859
 30
0.0
 10
-166.7055
 20
45.009
 30
0.0
 10
-166.7055
 20
45.009
 30
0.0
  0
SPLINE
  5
50
330
1F
100
AcDbEntity
  8
layer 1
 62
     7
100
AcDbSpline
210
0.0
220
0.0
230
1.0
 70
    11
 71
     3
 72
    36
 73
    32
 74
     0
 42
0.0000000001
 43
0.0000000001
 12
1.0
 22
0.0
 32
0.0
 13
1.0
 23
0.0
 33
0.0
 40
0.0
 40
0.0
 40
0.0
 40
0.0
 40
0.1111111111111111
 40
0.1111111111111111
 40
0.1111111111111111
 40
0.1111111111111111
 40
0.2222222222222222
 40
0.2222222222222222
 40
0.2222222222222222
 40
0.2222222222222222
 40
0.3333333333333333
 40
0.3333333333333333
 40
0.3333333333333333
 40
0.3333333333333333
 40
0.4444444444444444
 40
0.4444444444444444
 40
0.4444444444444444
 40
0.4444444444444444
 40
0.5555555555555556
 40
0.5555555555555556
 40
0.5555555555555556
 40
0.5555555555555556
 40
0.6666666666666666
 40
0.6666666666666666
 40
0.6666666666666666
 40
0.6666666666666666
 40
0.7777777777777778
 40
0.7777777777777778
 40
0.7777777777777778
 40
0.7777777777777778
 40
1.0
 40
1.0
 40
1.0
 40
1.0
 10
-122.1408
 20
44.9213
 30
0.0
 10
-122.1408
 20
44.9213
 30
0.0
 10
-128.8503
 20
44.9213
 30
0.0
 10
-128.8503
 20
44.9213
 30
0.0
 10
-128.8503
 20
44.9213
 30
0.0
 10
-128.8503
 20
44.9213
 30
0.0
 10
-133.5946
 20
49.7981
 30
0.0
 10
-133.5946
 20
49.7981
 30
0.0
 10
-133.5946
 20
49.7981
 30
0.0
 10
-133.5946
 20
49.7981
 30
0.0
 10
-133.5946
 20
56.6951
 30
0.0
 10
-133.5946
 20
56.6951
 30
0.0
 10
-133.5946
 20
56.6951
 30
0.0
 10
-133.5946
 20
56.6951
 30
0.0
 10
-128.8503
 20
61.572
 30
0.0
 10
-128.8503
 20
61.572
 30
0.0
 10
-128.8503
 20
61.572
 30
0.0
 10
-128.8503
 20
61.572
 30
0.0
 10
-122.1408
 20
61.572
 30
0.0
 10
-122.1408
 20
61.572
 30
0.0
 10
-122.1408
 20
61.572
 30
0.0
 10
-122.1408
 20
61.572
 30
0.0
 10
-117.3965
 20
56.6951
 30
0.0
 10
-117.3965
 20
56.6951
 30
0.0
 10
-117.3965
 20
56.6951
 30
0.0
 10
-117.3965
 20
56.6951
 30
0.0
 10
-117.3965
 20
49.7981
 30
0.0
 10
-117.3965
 20
49.7981
 30
0.0
 10
-117.3965
 20
49.7981
 30
0.0
 10
-117.3965
 20
49.7981
 30
0.0
 10
-122.1408
 20
44.9213
 30
0.0
 10
-122.1408
 20
44.9213
 30
0.0
  0
SPLINE
  5
51
330
1F
100
AcDbEntity
  8
layer 1
 62
     7
100
AcDbSpline
210
0.0
220
0.0
230
1.0
 70
    11
 71
     3
 72
    36
 73
    32
 74
     0
 42
0.0000000001
 43
0.0000000001
 12
1.0
 22
0.0
 32
0.0
 13
1.0
 23
0.0
 33
0.0
 40
0.0
 40
0.0
 40
0.0
 40
0.0
 40
0.1111111111111111
 40
0.1111111111111111
 40
0.1111111111111111
 40
0.1111111111111111
 40
0.2222222222222222
 40
0.2222222222222222
 40
0.2222222222222222
 40
0.2222222222222222
 40
0.3333333333333333
 40
0.3333333333333333
 40
0.3333333333333333
 40
0.3333333333333333
 40
0.4444444444444444
 40
0.4444444444444444
 40
0.4444444444444444
 40
0.4444444444444444
 40
0.5555555555555556
 40
0.5555555555555556
 40
0.5555555555555556
 40
0.5555555555555556
 40
0.6666666666666666
 40
0.6666666666666666
 40
0.6666666666666666
 40
0.6666666666666666
 40
0.7777777777777778
 40
0.7777777777777778
 40
0.7777777777777778
 40
0.7777777777777778
 40
1.0
 40
1.0
 40
1.0
 40
1.0
 10
-77.4884
 20
44.9213
 30
0.0
 10
-77.4884
 20
44.9213
 30
0.0
 10
-84.1979
 20
44.9213
 30
0.0
 10
-84.1979
 20
44.9213
 30
0.0
 10
-84.1979
 20
44.9213
 30
0.0
 10
-84.1979
 20
44.9213
 30
0.0
 10
-88.9422
 20
49.7981
 30
0.0
 10
-88.9422
 20
49.7981
 30
0.0
 10
-88.9422
 20
49.7981
 30
0.0
 10
-88.9422
 20
49.7981
 30
0.0
 10
-88.9422
 20
56.6951
 30
0.0
 10
-88.9422
 20
56.6951
 30
0.0
 10
-88.9422
 20
56.6951
 30
0.0
 10
-88.9422
 20
56.6951
 30
0.0
 10
-84.1979
 20
61.572
 30
0.0
 10
-84.1979
 20
61.572
 30
0.0
 10
-84.1979
 20
61.572
 30
0.0
 10
-84.1979
 20
61.572
 30
0.0
 10
-77.4884
 20
61.572
 30
0.0
 10
-77.4884
 20
61.572
 30
0.0
 10
-77.4884
 20
61.572
 30
0.0
 10
-77.4884
 20
61.572
 30
0.0
 10
-72.7441
 20
56.6951
 30
0.0
 10
-72.7441
 20
56.6951
 30
0.0
 10
-72.7441
 20
56.6951
 30
0.0
 10
-72.7441
 20
56.6951
 30
0.0
 10
-72.7441
 20
49.7981
 30
0.0
 10
-72.7441
 20
49.7981
 30
0.0
 10
-72.7441
 20
49.7981
 30
0.0
 10
-72.7441
 20
49.7981
 30
0.0
 10
-77.4884
 20
44.9213
 30
0.0
 10
-77.4884
 20
44.9213
 30
0.0
  0
SPLINE
  5
52
330
1F
100
AcDbEntity
  8
layer 1
 62
     7
100
AcDbSpline
210
0.0
220
0.0
230
1.0
 70
    11
 71
     3
 72
    20
 73
    16
 74
     0
 42
0.0000000001
 43
0.0000000001
 12
1.0
 22
0.0
 32
0.0
 13
1.0
 23
0.0
 33
0.0
 40
0.0
 40
0.0
 40
0.0
 40
0.0
 40
0.2
 40
0.2
 40
0.2
 40
0.2
 40
0.4
 40
0.4
 40
0.4
 40
0.4
 40
0.6
 40
0.6
 40
0.6
 40
0.6
 40
1.0
 40
1.0
 40
1.0
 40
1.0
 10
-106.2866
 20
53.3395
 30
0.0
 10
-106.2866
 20
53.3395
 30
0.0
 10
-103.1387
 20
56.4875
 30
0.0
 10
-103.1387
 20
56.4875
 30
0.0
 10
-103.1387
 20
56.4875
 30
0.0
 10
-103.1387
 20
56.4875
 30
0.0
 10
-99.9907
 20
53.3395
 30
0.0
 10
-99.9907
 20
53.3395
 30
0.0
 10
-99.9907
 20
53.3395
 30
0.0
 10
-99.9907
 20
53.3395
 30
0.0
 10
-103.1387
 20
50.1916
 30
0.0
 10
-103.1387
 20
50.1916
 30
0.0
 10
-103.1387
 20
50.1916
 30
0.0
 10
-103.1387
 20
50.1916
 30
0.0
 10
-106.2866
 20
53.3395
 30
0.0
 10
-106.2866
 20
53.3395
 30
0.0
  0
SPLINE
  5
53
330
1F
100
AcDbEntity
  8
layer 1
 62
     7
100
AcDbSpline
210
0.0
220
0.0
230
1.0
 70
    11
 71
     3
 72
    24
 73
    20
 74
     0
 42
0.0000000001
 43
0.0000000001
 12
1.0
 22
0.0
 32
0.0
 13
1.0
 23
0.0
 33
0.0
 40
0.0
 40
0.0
 40
0.0
 40
0.0
 40
0.1666666666666667
 40
0.1666666666666667
 40
0.1666666666666667
 40
0.1666666666666667
 40
0.3333333333333333
 40
0.3333333333333333
 40
0.3333333333333333
 40
0.3333333333333333
 40
0.5
 40
0.5
 40
0.5
 40
0.5
 40
0.6666666666666666
 40
0.6666666666666666
 40
0.6666666666666666
 40
0.6666666666666666
 40
1.0
 40
1.0
 40
1.0
 40
1.0
 10
-111.4115
 20
58.2897
 30
0.0
 10
-111.4115
 20
58.2897
 30
0.0
 10
-111.4437
 20
61.5418
 30
0.0
 10
-111.4437
 20
61.5418
 30
0.0
 10
-111.4437
 20
61.5418
 30
0.0
 10
-111.4437
 20
61.5418
 30
0.0
 10
-108.3567
 20
61.5682
 30
0.0
 10
-108.3567
 20
61.5682
 30
0.0
 10
-108.3567
 20
61.5682
 30
0.0
 10
-108.3567
 20
61.5682
 30
0.0
 10
-106.1035
 20
59.2591
 30
0.0
 10
-106.1035
 20
59.2591
 30
0.0
 10
-106.1035
 20
59.2591
 30
0.0
 10
-106.1035
 20
59.2591
 30
0.0
 10
-109.2515
 20
56.1112
 30
0.0
 10
-109.2515
 20
56.1112
 30
0.0
 10
-109.2515
 20
56.1112
 30
0.0
 10
-109.2515
 20
56.1112
 30
0.0
 10
-111.4115
 20
58.2897
 30
0.0
 10
-111.4115
 20
58.2897
 30
0.0
  0
SPLINE
  5
54
330
1F
100
AcDbEntity
  8
layer 1
 62
     7
100
AcDbSpline
210
0.0
220
0.0
230
1.0
 70
    11
 71
     3
 72
    24
 73
    20
 74
     0
 42
0.0000000001
 43
0.0000000001
 12
1.0
 22
0.0
 32
0.0
 13
1.0
 23
0.0
 33
0.0
 40
0.0
 40
0.0
 40
0.0
 40
0.0
 40
0.1666666666666667
 40
0.1666666666666667
 40
0.1666666666666667
 40
0.1666666666666667
 40
0.3333333333333333
 40
0.3333333333333333
 40
0.3333333333333333
 40
0.3333333333333333
 40
0.5
 40
0.5
 40
0.5
 40
0.5
 40
0.6666666666666666
 40
0.6666666666666666
 40
0.6666666666666666
 40
0.6666666666666666
 40
1.0
 40
1.0
 40
1.0
 40
1.0
 10
-94.809
 20
58.3313
 30
0.0
 10
-94.809
 20
58.3313
 30
0.0
 10
-94.7768
 20
61.5835
 30
0.0
 10
-94.7768
 20
61.5835
 30
0.0
 10
-94.7768
 20
61.5835
 30
0.0
 10
-94.7768
 20
61.5835
 30
0.0
 10
-97.8638
 20
61.6099
 30
0.0
 10
-97.8638
 20
61.6099
 30
0.0
 10
-97.8638
 20
61.6099
 30
0.0
 10
-97.8638
 20
61.6099
 30
0.0
 10
-100.117
 20
59.3008
 30
0.0
 10
-100.117
 20
59.3008
 30
0.0
 10
-100.117
 20
59.3008
 30
0.0
 10
-100.117
 20
59.3008
 30
0.0
 10
-96.969
 20
56.1528
 30
0.0
 10
-96.969
 20
56.1528
 30
0.0
 10
-96.969
 20
56.1528
 30
0.0
 10
-96.969
 20
56.1528
 30
0.0
 10
-94.809
 20
58.3313
 30
0.0
 10
-94.809
 20
58.3313
 30
0.0
  0
SPLINE
  5
55
330
1F
100
AcDbEntity
  8
layer 1
 62
     7
100
AcDbSpline
210
0.0
220
0.0
230
1.0
 70
    11
 71
     3
 72
    24
 73
    20
 74
     0
 42
0.0000000001
 43
0.0000000001
 12
1.0
 22
0.0
 32
0.0
 13
1.0
 23
0.0
 33
0.0
 40
0.0
 40
0.0
 40
0.0
 40
0.0
 40
0.1666666666666667
 40
0.1666666666666667
 40
0.1666666666666667
 40
0.1666666666666667
 40
0.3333333333333333
 40
0.3333333333333333
 40
0.3333333333333333
 40
0.3333333333333333
 40
0.5
 40
0.5
 40
0.5
 40
0.5
 40
0.6666666666666666
 40
0.6666666666666666
 40
0.6666666666666666
 40
0.6666666666666666
 40
1.0
 40
1.0
 40
1.0
 40
1.0
 10
-111.4115
 20
48.2146
 30
0.0
 10
-111.4115
 20
48.2146
 30
0.0
 10
-111.4437
 20
44.9624
 30
0.0
 10
-111.4437
 20
44.9624
 30
0.0
 10
-111.4437
 20
44.9624
 30
0.0
 10
-111.4437
 20
44.9624
 30
0.0
 10
-108.3567
 20
44.936
 30
0.0
 10
-108.3567
 20
44.936
 30
0.0
 10
-108.3567
 20
44.936
 30
0.0
 10
-108.3567
 20
44.936
 30
0.0
 10
-106.1035
 20
47.2451
 30
0.0
 10
-106.1035
 20
47.2451
 30
0.0
 10
-106.1035
 20
47.2451
 30
0.0
 10
-106.1035
 20
47.2451
 30
0.0
 10
-109.2515
 20
50.3931
 30
0.0
 10
-109.2515
 20
50.3931
 30
0.0
 10
-109.2515
 20
50.3931
 30
0.0
 10
-109.2515
 20
50.3931
 30
0.0
 10
-111.4115
 20
48.2146
 30
0.0
 10
-111.4115
 20
48.2146
 30
0.0
  0
SPLINE
  5
56
330
1F
100
AcDbEntity
  8
layer 1
 62
     7
100
AcDbSpline
210
0.0
220
0.0
230
1.0
 70
    11
 71
     3
 72
    24
 73
    20
 74
     0
 42
0.0000000001
 43
0.0000000001
 12
1.0
 22
0.0
 32
0.0
 13
1.0
 23
0.0
 33
0.0
 40
0.0
 40
0.0
 40
0.0
 40
0.0
 40
0.1666666666666667
 40
0.1666666666666667
 40
0.1666666666666667
 40
0.1666666666666667
 40
0.3333333333333333
 40
0.3333333333333333
 40
0.3333333333333333
 40
0.3333333333333333
 40
0.5
 40
0.5
 40
0.5
 40
0.5
 40
0.6666666666666666
 40
0.6666666666666666
 40
0.6666666666666666
 40
0.6666666666666666
 40
1.0
 40
1.0
 40
1.0
 40
1.0
 10
-94.809
 20
48.1729
 30
0.0
 10
-94.809
 20
48.1729
 30
0.0
 10
-94.7768
 20
44.9207
 30
0.0
 10
-94.7768
 20
44.9207
 30
0.0
 10
-94.7768
 20
44.9207
 30
0.0
 10
-94.7768
 20
44.9207
 30
0.0
 10
-97.8638
 20
44.8944
 30
0.0
 10
-97.8638
 20
44.8944
 30
0.0
 10
-97.8638
 20
44.8944
 30
0.0
 10
-97.8638
 20
44.8944
 30
0.0
 10
-100.117
 20
47.2035
 30
0.0
 10
-100.117
 20
47.2035
 30
0.0
 10
-100.117
 20
47.2035
 30
0.0
 10
-100.117
 20
47.2035
 30
0.0
 10
-96.969
 20
50.3514
 30
0.0
 10
-96.969
 20
50.3514
 30
0.0
 10
-96.969
 20
50.3514
 30
0.0
 10
-96.969
 20
50.3514
 30
0.0
 10
-94.809
 20
48.1729
 30
0.0
 10
-94.809
 20
48.1729
 30
0.0
  0
SPLINE
  5
57
330
1F
100
AcDbEntity
  8
layer 1
 62
     7
100
AcDbSpline
210
0.0
220
0.0
230
1.0
 70
    11
 71
     3
 72
    20
 73
    16
 74
     0
 42
0.0000000001
 43
0.0000000001
 12
1.0
 22
0.0
 32
0.0
 13
1.0
 23
0.0
 33
0.0
 40
0.0
 40
0.0
 40
0.0
 40
0.0
 40
0.2
 40
0.2
 40
0.2
 40
0.2
 40
0.4
 40
0.4
 40
0.4
 40
0.4
 40
0.6
 40
0.6
 40
0.6
 40
0.6
 40
1.0
 40
1.0
 40
1.0
 40
1.0
 10
-151.0017
 20
53.3395
 30
0.0
 10
-151.0017
 20
53.3395
 30
0.0
 10
-147.8537
 20
56.4875
 30
0.0
 10
-147.8537
 20
56.4875
 30
0.0
 10
-147.8537
 20
56.4875
 30
0.0
 10
-147.8537
 20
56.4875
 30
0.0
 10
-144.7058
 20
53.3395
 30
0.0
 10
-144.7058
 20
53.3395
 30
0.0
 10
-144.7058
 20
53.3395
 30
0.0
 10
-144.7058
 20
53.3395
 30
0.0
 10
-147.8537
 20
50.1916
 30
0.0
 10
-147.8537
 20
50.1916
 30
0.0
 10
-147.8537
 20
50.1916
 30
0.0
 10
-147.8537
 20
50.1916
 30
0.0
 10
-151.0017
 20
53.3395
 30
0.0
 10
-151.0017
 20
53.3395
 30
0.0
  0
SPLINE
  5
58
330
1F
100
AcDbEntity
  8
layer 1
 62
     7
100
AcDbSpline
210
0.0
220
0.0
230
1.0
 70
    11
 71
     3
 72
    24
 73
    20
 74
     0
 42
0.0000000001
 43
0.0000000001
 12
1.0
 22
0.0
 32
0.0
 13
1.0
 23
0.0
 33
0.0
 40
0.0
 40
0.0
 40
0.0
 40
0.0
 40
0.1666666666666667
 40
0.1666666666666667
 40
0.1666666666666667
 40
0.1666666666666667
 40
0.3333333333333333
 40
0.3333333333333333
 40
0.3333333333333333
 40
0.3333333333333333
 40
0.5
 40
0.5
 40
0.5
 40
0.5
 40
0.6666666666666666
 40
0.6666666666666666
 40
0.6666666666666666
 40
0.6666666666666666
 40
1.0
 40
1.0
 40
1.0
 40
1.0
 10
-156.1266
 20
58.2897
 30
0.0
 10
-156.1266
 20
58.2897
 30
0.0
 10
-156.1588
 20
61.5418
 30
0.0
 10
-156.1588
 20
61.5418
 30
0.0
 10
-156.1588
 20
61.5418
 30
0.0
 10
-156.1588
 20
61.5418
 30
0.0
 10
-153.0718
 20
61.5682
 30
0.0
 10
-153.0718
 20
61.5682
 30
0.0
 10
-153.0718
 20
61.5682
 30
0.0
 10
-153.0718
 20
61.5682
 30
0.0
 10
-150.8186
 20
59.2591
 30
0.0
 10
-150.8186
 20
59.2591
 30
0.0
 10
-150.8186
 20
59.2591
 30
0.0
 10
-150.8186
 20
59.2591
 30
0.0
 10
-153.9666
 20
56.1112
 30
0.0
 10
-153.9666
 20
56.1112
 30
0.0
 10
-153.9666
 20
56.1112
 30
0.0
 10
-153.9666
 20
56.1112
 30
0.0
 10
-156.1266
 20
58.2897
 30
0.0
 10
-156.1266
 20
58.2897
 30
0.0
  0
SPLINE
  5
59
330
1F
100
AcDbEntity
  8
layer 1
 62
     7
100
AcDbSpline
210
0.0
220
0.0
230
1.0
 70
    11
 71
     3
 72
    24
 73
    20
 74
     0
 42
0.0000000001
 43
0.0000000001
 12
1.0
 22
0.0
 32
0.0
 13
1.0
 23
0.0
 33
0.0
 40
0.0
 40
0.0
 40
0.0
 40
0.0
 40
0.1666666666666667
 40
0.1666666666666667
 40
0.1666666666666667
 40
0.1666666666666667
 40
0.3333333333333333
 40
0.3333333333333333
 40
0.3333333333333333
 40
0.3333333333333333
 40
0.5
 40
0.5
 40
0.5
 40
0.5
 40
0.6666666666666666
 40
0.6666666666666666
 40
0.6666666666666666
 40
0.6666666666666666
 40
1.0
 40
1.0
 40
1.0
 40
1.0
 10
-139.5241
 20
58.3313
 30
0.0
 10
-139.5241
 20
58.3313
 30
0.0
 10
-139.4919
 20
61.5835
 30
0.0
 10
-139.4919
 20
61.5835
 30
0.0
 10
-139.4919
 20
61.5835
 30
0.0
 10
-139.4919
 20
61.5835
 30
0.0
 10
-142.5788
 20
61.6099
 30
0.0
 10
-142.5788
 20
61.6099
 30
0.0
 10
-142.5788
 20
61.6099
 30
0.0
 10
-142.5788
 20
61.6099
 30
0.0
 10
-144.8321
 20
59.3008
 30
0.0
 10
-144.8321
 20
59.3008
 30
0.0
 10
-144.8321
 20
59.3008
 30
0.0
 10
-144.8321
 20
59.3008
 30
0.0
 10
-141.6841
 20
56.1528
 30
0.0
 10
-141.6841
 20
56.1528
 30
0.0
 10
-141.6841
 20
56.1528
 30
0.0
 10
-141.6841
 20
56.1528
 30
0.0
 10
-139.5241
 20
58.3313
 30
0.0
 10
-139.5241
 20
58.3313
 30
0.0
  0
SPLINE
  5
5A
330
1F
100
AcDbEntity
  8
layer 1
 62
     7
100
AcDbSpline
210
0.0
220
0.0
230
1.0
 70
    11
 71
     3
 72
    24
 73
    20
 74
     0
 42
0.0000000001
 43
0.0000000001
 12
1.0
 22
0.0
 32
0.0
 13
1.0
 23
0.0
 33
0.0
 40
0.0
 40
0.0
 40
0.0
 40
0.0
 40
0.1666666666666667
 40
0.1666666666666667
 40
0.1666666666666667
 40
0.1666666666666667
 40
0.3333333333333333
 40
0.3333333333333333
 40
0.3333333333333333
 40
0.3333333333333333
 40
0.5
 40
0.5
 40
0.5
 40
0.5
 40
0.6666666666666666
 40
0.6666666666666666
 40
0.6666666666666666
 40
0.6666666666666666
 40
1.0
 40
1.0
 40
1.0
 40
1.0
 10
-156.1266
 20
48.2146
 30
0.0
 10
-156.1266
 20
48.2146
 30
0.0
 10
-156.1588
 20
44.9624
 30
0.0
 10
-156.1588
 20
44.9624
 30
0.0
 10
-156.1588
 20
44.9624
 30
0.0
 10
-156.1588
 20
44.9624
 30
0.0
 10
-153.0718
 20
44.936
 30
0.0
 10
-153.0718
 20
44.936
 30
0.0
 10
-153.0718
 20
44.936
 30
0.0
 10
-153.0718
 20
44.936
 30
0.0
 10
-150.8186
 20
47.2451
 30
0.0
 10
-150.8186
 20
47.2451
 30
0.0
 10
-150.8186
 20
47.2451
 30
0.0
 10
-150.8186
 20
47.2451
 30
0.0
 10
-153.9666
 20
50.3931
 30
0.0
 10
-153.9666
 20
50.3931
 30
0.0
 10
-153.9666
 20
50.3931
 30
0.0
 10
-153.9666
 20
50.3931
 30
0.0
 10
-156.1266
 20
48.2146
 30
0.0
 10
-156.1266
 20
48.2146
 30
0.0
  0
SPLINE
  5
5B
330
1F
100
AcDbEntity
  8
layer 1
 62
     7
100
AcDbSpline
210
0.0
220
0.0
230
1.0
 70
    11
 71
     3
 72
    24
 73
    20
 74
     0
 42
0.0000000001
 43
0.0000000001
 12
1.0
 22
0.0
 32
0.0
 13
1.0
 23
0.0
 33
0.0
 40
0.0
 40
0.0
 40
0.0
 40
0.0
 40
0.1666666666666667
 40
0.1666666666666667
 40
0.1666666666666667
 40
0.1666666666666667
 40
0.3333333333333333
 40
0.3333333333333333
 40
0.3333333333333333
 40
0.3333333333333333
 40
0.5
 40
0.5
 40
0.5
 40
0.5
 40
0.6666666666666666
 40
0.6666666666666666
 40
0.6666666666666666
 40
0.6666666666666666
 40
1.0
 40
1.0
 40
1.0
 40
1.0
 10
-139.5241
 20
48.1729
 30
0.0
 10
-139.5241
 20
48.1729
 30
0.0
 10
-139.4919
 20
44.9207
 30
0.0
 10
-139.4919
 20
44.9207
 30
0.0
 10
-139.4919
 20
44.9207
 30
0.0
 10
-139.4919
 20
44.9207
 30
0.0
 10
-142.5788
 20
44.8944
 30
0.0
 10
-142.5788
 20
44.8944
 30
0.0
 10
-142.5788
 20
44.8944
 30
0.0
 10
-142.5788
 20
44.8944
 30
0.0
 10
-144.8321
 20
47.2035
 30
0.0
 10
-144.8321
 20
47.2035
 30
0.0
 10
-144.8321
 20
47.2035
 30
0.0
 10
-144.8321
 20
47.2035
 30
0.0
 10
-141.6841
 20
50.3514
 30
0.0
 10
-141.6841
 20
50.3514
 30
0.0
 10
-141.6841
 20
50.3514
 30
0.0
 10
-141.6841
 20
50.3514
 30
0.0
 10
-139.5241
 20
48.1729
 30
0.0
 10
-139.5241
 20
48.1729
 30
0.0
  0
SPLINE
  5
5C
330
1F
100
AcDbEntity
  8
layer 1
 62
     7
100
AcDbSpline
210
0.0
220
0.0
230
1.0
 70
    11
 71
     3
 72
    36
 73
    32
 74
     0
 42
0.0000000001
 43
0.0000000001
 12
1.0
 22
0.0
 32
0.0
 13
1.0
 23
0.0
 33
0.0
 40
0.0
 40
0.0
 40
0.0
 40
0.0
 40
0.1111111111111111
 40
0.1111111111111111
 40
0.1111111111111111
 40
0.1111111111111111
 40
0.2222222222222222
 40
0.2222222222222222
 40
0.2222222222222222
 40
0.2222222222222222
 40
0.3333333333333333
 40
0.3333333333333333
 40
0.3333333333333333
 40
0.3333333333333333
 40
0.4444444444444444
 40
0.4444444444444444
 40
0.4444444444444444
 40
0.4444444444444444
 40
0.5555555555555556
 40
0.5555555555555556
 40
0.5555555555555556
 40
0.5555555555555556
 40
0.6666666666666666
 40
0.6666666666666666
 40
0.6666666666666666
 40
0.6666666666666666
 40
0.7777777777777778
 40
0.7777777777777778
 40
0.7777777777777778
 40
0.7777777777777778
 40
1.0
 40
1.0
 40
1.0
 40
1.0
 10
-166.7055
 20
0.4152
 30
0.0
 10
-166.7055
 20
0.4152
 30
0.0
 10
-173.4149
 20
0.4152
 30
0.0
 10
-173.4149
 20
0.4152
 30
0.0
 10
-173.4149
 20
0.4152
 30
0.0
 10
-173.4149
 20
0.4152
 30
0.0
 10
-178.1593
 20
5.2921
 30
0.0
 10
-178.1593
 20
5.2921
 30
0.0
 10
-178.1593
 20
5.2921
 30
0.0
 10
-178.1593
 20
5.2921
 30
0.0
 10
-178.1593
 20
12.1891
 30
0.0
 10
-178.1593
 20
12.1891
 30
0.0
 10
-178.1593
 20
12.1891
 30
0.0
 10
-178.1593
 20
12.1891
 30
0.0
 10
-173.4149
 20
17.066
 30
0.0
 10
-173.4149
 20
17.066
 30
0.0
 10
-173.4149
 20
17.066
 30
0.0
 10
-173.4149
 20
17.066
 30
0.0
 10
-166.7055
 20
17.066
 30
0.0
 10
-166.7055
 20
17.066
 30
0.0
 10
-166.7055
 20
17.066
 30
0.0
 10
-166.7055
 20
17.066
 30
0.0
 10
-161.9611
 20
12.1891
 30
0.0
 10
-161.9611
 20
12.1891
 30
0.0
 10
-161.9611
 20
12.1891
 30
0.0
 10
-161.9611
 20
12.1891
 30
0.0
 10
-161.9611
 20
5.2921
 30
0.0
 10
-161.9611
 20
5.2921
 30
0.0
 10
-161.9611
 20
5.2921
 30
0.0
 10
-161.9611
 20
5.2921
 30
0.0
 10
-166.7055
 20
0.4152
 30
0.0
 10
-166.7055
 20
0.4152
 30
0.0
  0
SPLINE
  5
5D
330
1F
100
AcDbEntity
  8
layer 1
 62
     7
100
AcDbSpline
210
0.0
220
0.0
230
1.0
 70
    11
 71
     3
 72
    36
 73
    32
 74
     0
 42
0.0000000001
 43
0.0000000001
 12
1.0
 22
0.0
 32
0.0
 13
1.0
 23
0.0
 33
0.0
 40
0.0
 40
0.0
 40
0.0
 40
0.0
 40
0.1111111111111111
 40
0.1111111111111111
 40
0.1111111111111111
 40
0.1111111111111111
 40
0.2222222222222222
 40
0.2222222222222222
 40
0.2222222222222222
 40
0.2222222222222222
 40
0.3333333333333333
 40
0.3333333333333333
 40
0.3333333333333333
 40
0.3333333333333333
 40
0.4444444444444444
 40
0.4444444444444444
 40
0.4444444444444444
 40
0.4444444444444444
 40
0.5555555555555556
 40
0.5555555555555556
 40
0.5555555555555556
 40
0.5555555555555556
 40
0.6666666666666666
 40
0.6666666666666666
 40
0.6666666666666666
 40
0.6666666666666666
 40
0.7777777777777778
 40
0.7777777777777778
 40
0.7777777777777778
 40
0.7777777777777778
 40
1.0
 40
1.0
 40
1.0
 40
1.0
 10
-122.1408
 20
0.3275
 30
0.0
 10
-122.1408
 20
0.3275
 30
0.0
 10
-128.8503
 20
0.3275
 30
0.0
 10
-128.8503
 20
0.3275
 30
0.0
 10
-128.8503
 20
0.3275
 30
0.0
 10
-128.8503
 20
0.3275
 30
0.0
 10
-133.5946
 20
5.2044
 30
0.0
 10
-133.5946
 20
5.2044
 30
0.0
 10
-133.5946
 20
5.2044
 30
0.0
 10
-133.5946
 20
5.2044
 30
0.0
 10
-133.5946
 20
12.1014
 30
0.0
 10
-133.5946
 20
12.1014
 30
0.0
 10
-133.5946
 20
12.1014
 30
0.0
 10
-133.5946
 20
12.1014
 30
0.0
 10
-128.8503
 20
16.9782
 30
0.0
 10
-128.8503
 20
16.9782
 30
0.0
 10
-128.8503
 20
16.9782
 30
0.0
 10
-128.8503
 20
16.9782
 30
0.0
 10
-122.1408
 20
16.9782
 30
0.0
 10
-122.1408
 20
16.9782
 30
0.0
 10
-122.1408
 20
16.9782
 30
0.0
 10
-122.1408
 20
16.9782
 30
0.0
 10
-117.3965
 20
12.1014
 30
0.0
 10
-117.3965
 20
12.1014
 30
0.0
 10
-117.3965
 20
12.1014
 30
0.0
 10
-117.3965
 20
12.1014
 30
0.0
 10
-117.3965
 20
5.2044
 30
0.0
 10
-117.3965
 20
5.2044
 30
0.0
 10
-117.3965
 20
5.2044
 30
0.0
 10
-117.3965
 20
5.2044
 30
0.0
 10
-122.1408
 20
0.3275
 30
0.0
 10
-122.1408
 20
0.3275
 30
0.0
  0
SPLINE
  5
5E
330
1F
100
AcDbEntity
  8
layer 1
 62
     7
100
AcDbSpline
210
0.0
220
0.0
230
1.0
 70
    11
 71
     3
 72
    36
 73
    32
 74
     0
 42
0.0000000001
 43
0.0000000001
 12
1.0
 22
0.0
 32
0.0
 13
1.0
 23
0.0
 33
0.0
 40
0.0
 40
0.0
 40
0.0
 40
0.0
 40
0.1111111111111111
 40
0.1111111111111111
 40
0.1111111111111111
 40
0.1111111111111111
 40
0.2222222222222222
 40
0.2222222222222222
 40
0.2222222222222222
 40
0.2222222222222222
 40
0.3333333333333333
 40
0.3333333333333333
 40
0.3333333333333333
 40
0.3333333333333333
 40
0.4444444444444444
 40
0.4444444444444444
 40
0.4444444444444444
 40
0.4444444444444444
 40
0.5555555555555556
 40
0.5555555555555556
 40
0.5555555555555556
 40
0.5555555555555556
 40
0.6666666666666666
 40
0.6666666666666666
 40
0.6666666666666666
 40
0.6666666666666666
 40
0.7777777777777778
 40
0.7777777777777778
 40
0.7777777777777778
 40
0.7777777777777778
 40
1.0
 40
1.0
 40
1.0
 40
1.0
 10
-77.4884
 20
0.3275
 30
0.0
 10
-77.4884
 20
0.3275
 30
0.0
 10
-84.1979
 20
0.3275
 30
0.0
 10
-84.1979
 20
0.3275
 30
0.0
 10
-84.1979
 20
0.3275
 30
0.0
 10
-84.1979
 20
0.3275
 30
0.0
 10
-88.9422
 20
5.2044
 30
0.0
 10
-88.9422
 20
5.2044
 30
0.0
 10
-88.9422
 20
5.2044
 30
0.0
 10
-88.9422
 20
5.2044
 30
0.0
 10
-88.9422
 20
12.1014
 30
0.0
 10
-88.9422
 20
12.1014
 30
0.0
 10
-88.9422
 20
12.1014
 30
0.0
 10
-88.9422
 20
12.1014
 30
0.0
 10
-84.1979
 20
16.9782
 30
0.0
 10
-84.1979
 20
16.9782
 30
0.0
 10
-84.1979
 20
16.9782
 30
0.0
 10
-84.1979
 20
16.9782
 30
0.0
 10
-77.4884
 20
16.9782
 30
0.0
 10
-77.4884
 20
16.9782
 30
0.0
 10
-77.4884
 20
16.9782
 30
0.0
 10
-77.4884
 20
16.9782
 30
0.0
 10
-72.7441
 20
12.1014
 30
0.0
 10
-72.7441
 20
12.1014
 30
0.0
 10
-72.7441
 20
12.1014
 30
0.0
 10
-72.7441
 20
12.1014
 30
0.0
 10
-72.7441
 20
5.2044
 30
0.0
 10
-72.7441
 20
5.2044
 30
0.0
 10
-72.7441
 20
5.2044
 30
0.0
 10
-72.7441
 20
5.2044
 30
0.0
 10
-77.4884
 20
0.3275
 30
0.0
 10
-77.4884
 20
0.3275
 30
0.0
  0
SPLINE
  5
5F
330
1F
100
AcDbEntity
  8
layer 1
 62
     7
100
AcDbSpline
210
0.0
220
0.0
230
1.0
 70
    11
 71
     3
 72
    20
 73
    16
 74
     0
 42
0.0000000001
 43
0.0000000001
 12
1.0
 22
0.0
 32
0.0
 13
1.0
 23
0.0
 33
0.0
 40
0.0
 40
0.0
 40
0.0
 40
0.0
 40
0.2
 40
0.2
 40
0.2
 40
0.2
 40
0.4
 40
0.4
 40
0.4
 40
0.4
 40
0.6
 40
0.6
 40
0.6
 40
0.6
 40
1.0
 40
1.0
 40
1.0
 40
1.0
 10
-106.2866
 20
8.7458
 30
0.0
 10
-106.2866
 20
8.7458
 30
0.0
 10
-103.1387
 20
11.8937
 30
0.0
 10
-103.1387
 20
11.8937
 30
0.0
 10
-103.1387
 20
11.8937
 30
0.0
 10
-103.1387
 20
11.8937
 30
0.0
 10
-99.9907
 20
8.7458
 30
0.0
 10
-99.9907
 20
8.7458
 30
0.0
 10
-99.9907
 20
8.7458
 30
0.0
 10
-99.9907
 20
8.7458
 30
0.0
 10
-103.1387
 20
5.5978
 30
0.0
 10
-103.1387
 20
5.5978
 30
0.0
 10
-103.1387
 20
5.5978
 30
0.0
 10
-103.1387
 20
5.5978
 30
0.0
 10
-106.2866
 20
8.7458
 30
0.0
 10
-106.2866
 20
8.7458
 30
0.0
  0
SPLINE
  5
60
330
1F
100
AcDbEntity
  8
layer 1
 62
     7
100
AcDbSpline
210
0.0
220
0.0
230
1.0
 70
    11
 71
     3
 72
    24
 73
    20
 74
     0
 42
0.0000000001
 43
0.0000000001
 12
1.0
 22
0.0
 32
0.0
 13
1.0
 23
0.0
 33
0.0
 40
0.0
 40
0.0
 40
0.0
 40
0.0
 40
0.1666666666666667
 40
0.1666666666666667
 40
0.1666666666666667
 40
0.1666666666666667
 40
0.3333333333333333
 40
0.3333333333333333
 40
0.3333333333333333
 40
0.3333333333333333
 40
0.5
 40
0.5
 40
0.5
 40
0.5
 40
0.6666666666666666
 40
0.6666666666666666
 40
0.6666666666666666
 40
0.6666666666666666
 40
1.0
 40
1.0
 40
1.0
 40
1.0
 10
-111.4115
 20
13.6958
 30
0.0
 10
-111.4115
 20
13.6958
 30
0.0
 10
-111.4437
 20
16.9479
 30
0.0
 10
-111.4437
 20
16.9479
 30
0.0
 10
-111.4437
 20
16.9479
 30
0.0
 10
-111.4437
 20
16.9479
 30
0.0
 10
-108.3567
 20
16.9743
 30
0.0
 10
-108.3567
 20
16.9743
 30
0.0
 10
-108.3567
 20
16.9743
 30
0.0
 10
-108.3567
 20
16.9743
 30
0.0
 10
-106.1035
 20
14.6652
 30
0.0
 10
-106.1035
 20
14.6652
 30
0.0
 10
-106.1035
 20
14.6652
 30
0.0
 10
-106.1035
 20
14.6652
 30
0.0
 10
-109.2515
 20
11.5173
 30
0.0
 10
-109.2515
 20
11.5173
 30
0.0
 10
-109.2515
 20
11.5173
 30
0.0
 10
-109.2515
 20
11.5173
 30
0.0
 10
-111.4115
 20
13.6958
 30
0.0
 10
-111.4115
 20
13.6958
 30
0.0
  0
SPLINE
  5
61
330
1F
100
AcDbEntity
  8
layer 1
 62
     7
100
AcDbSpline
210
0.0
220
0.0
230
1.0
 70
    11
 71
     3
 72
    24
 73
    20
 74
     0
 42
0.0000000001
 43
0.0000000001
 12
1.0
 22
0.0
 32
0.0
 13
1.0
 23
0.0
 33
0.0
 40
0.0
 40
0.0
 40
0.0
 40
0.0
 40
0.1666666666666667
 40
0.1666666666666667
 40
0.1666666666666667
 40
0.1666666666666667
 40
0.3333333333333333
 40
0.3333333333333333
 40
0.3333333333333333
 40
0.3333333333333333
 40
0.5
 40
0.5
 40
0.5
 40
0.5
 40
0.6666666666666666
 40
0.6666666666666666
 40
0.6666666666666666
 40
0.6666666666666666
 40
1.0
 40
1.0
 40
1.0
 40
1.0
 10
-94.809
 20
13.7376
 30
0.0
 10
-94.809
 20
13.7376
 30
0.0
 10
-94.7768
 20
16.9897
 30
0.0
 10
-94.7768
 20
16.9897
 30
0.0
 10
-94.7768
 20
16.9897
 30
0.0
 10
-94.7768
 20
16.9897
 30
0.0
 10
-97.8638
 20
17.0161
 30
0.0
 10
-97.8638
 20
17.0161
 30
0.0
 10
-97.8638
 20
17.0161
 30
0.0
 10
-97.8638
 20
17.0161
 30
0.0
 10
-100.117
 20
14.707
 30
0.0
 10
-100.117
 20
14.707
 30
0.0
 10
-100.117
 20
14.707
 30
0.0
 10
-100.117
 20
14.707
 30
0.0
 10
-96.969
 20
11.559
 30
0.0
 10
-96.969
 20
11.559
 30
0.0
 10
-96.969
 20
11.559
 30
0.0
 10
-96.969
 20
11.559
 30
0.0
 10
-94.809
 20
13.7376
 30
0.0
 10
-94.809
 20
13.7376
 30
0.0
  0
SPLINE
  5
62
330
1F
100
AcDbEntity
  8
layer 1
 62
     7
100
AcDbSpline
210
0.0
220
0.0
230
1.0
 70
    11
 71
     3
 72
    24
 73
    20
 74
     0
 42
0.0000000001
 43
0.0000000001
 12
1.0
 22
0.0
 32
0.0
 13
1.0
 23
0.0
 33
0.0
 40
0.0
 40
0.0
 40
0.0
 40
0.0
 40
0.1666666666666667
 40
0.1666666666666667
 40
0.1666666666666667
 40
0.1666666666666667
 40
0.3333333333333333
 40
0.3333333333333333
 40
0.3333333333333333
 40
0.3333333333333333
 40
0.5
 40
0.5
 40
0.5
 40
0.5
 40
0.6666666666666666
 40
0.6666666666666666
 40
0.6666666666666666
 40
0.6666666666666666
 40
1.0
 40
1.0
 40
1.0
 40
1.0
 10
-111.4115
 20
3.6208
 30
0.0
 10
-111.4115
 20
3.6208
 30
0.0
 10
-111.4437
 20
0.3686
 30
0.0
 10
-111.4437
 20
0.3686
 30
0.0
 10
-111.4437
 20
0.3686
 30
0.0
 10
-111.4437
 20
0.3686
 30
0.0
 10
-108.3567
 20
0.3422
 30
0.0
 10
-108.3567
 20
0.3422
 30
0.0
 10
-108.3567
 20
0.3422
 30
0.0
 10
-108.3567
 20
0.3422
 30
0.0
 10
-106.1035
 20
2.6513
 30
0.0
 10
-106.1035
 20
2.6513
 30
0.0
 10
-106.1035
 20
2.6513
 30
0.0
 10
-106.1035
 20
2.6513
 30
0.0
 10
-109.2515
 20
5.7993
 30
0.0
 10
-109.2515
 20
5.7993
 30
0.0
 10
-109.2515
 20
5.7993
 30
0.0
 10
-109.2515
 20
5.7993
 30
0.0
 10
-111.4115
 20
3.6208
 30
0.0
 10
-111.4115
 20
3.6208
 30
0.0
  0
SPLINE
  5
63
330
1F
100
AcDbEntity
  8
layer 1
 62
     7
100
AcDbSpline
210
0.0
220
0.0
230
1.0
 70
    11
 71
     3
 72
    24
 73
    20
 74
     0
 42
0.0000000001
 43
0.0000000001
 12
1.0
 22
0.0
 32
0.0
 13
1.0
 23
0.0
 33
0.0
 40
0.0
 40
0.0
 40
0.0
 40
0.0
 40
0.1666666666666667
 40
0.1666666666666667
 40
0.1666666666666667
 40
0.1666666666666667
 40
0.3333333333333333
 40
0.3333333333333333
 40
0.3333333333333333
 40
0.3333333333333333
 40
0.5
 40
0.5
 40
0.5
 40
0.5
 40
0.6666666666666666
 40
0.6666666666666666
 40
0.6666666666666666
 40
0.6666666666666666
 40
1.0
 40
1.0
 40
1.0
 40
1.0
 10
-94.809
 20
3.5791
 30
0.0
 10
-94.809
 20
3.5791
 30
0.0
 10
-94.7768
 20
0.327
 30
0.0
 10
-94.7768
 20
0.327
 30
0.0
 10
-94.7768
 20
0.327
 30
0.0
 10
-94.7768
 20
0.327
 30
0.0
 10
-97.8638
 20
0.3006
 30
0.0
 10
-97.8638
 20
0.3006
 30
0.0
 10
-97.8638
 20
0.3006
 30
0.0
 10
-97.8638
 20
0.3006
 30
0.0
 10
-100.117
 20
2.6097
 30
0.0
 10
-100.117
 20
2.6097
 30
0.0
 10
-100.117
 20
2.6097
 30
0.0
 10
-100.117
 20
2.6097
 30
0.0
 10
-96.969
 20
5.7576
 30
0.0
 10
-96.969
 20
5.7576
 30
0.0
 10
-96.969
 20
5.7576
 30
0.0
 10
-96.969
 20
5.7576
 30
0.0
 10
-94.809
 20
3.5791
 30
0.0
 10
-94.809
 20
3.5791
 30
0.0
  0
SPLINE
  5
64
330
1F
100
AcDbEntity
  8
layer 1
 62
     7
100
AcDbSpline
210
0.0
220
0.0
230
1.0
 70
    11
 71
     3
 72
    20
 73
    16
 74
     0
 42
0.0000000001
 43
0.0000000001
 12
1.0
 22
0.0
 32
0.0
 13
1.0
 23
0.0
 33
0.0
 40
0.0
 40
0.0
 40
0.0
 40
0.0
 40
0.2
 40
0.2
 40
0.2
 40
0.2
 40
0.4
 40
0.4
 40
0.4
 40
0.4
 40
0.6
 40
0.6
 40
0.6
 40
0.6
 40
1.0
 40
1.0
 40
1.0
 40
1.0
 10
-151.0017
 20
8.7458
 30
0.0
 10
-151.0017
 20
8.7458
 30
0.0
 10
-147.8537
 20
11.8937
 30
0.0
 10
-147.8537
 20
11.8937
 30
0.0
 10
-147.8537
 20
11.8937
 30
0.0
 10
-147.8537
 20
11.8937
 30
0.0
 10
-144.7058
 20
8.7458
 30
0.0
 10
-144.7058
 20
8.7458
 30
0.0
 10
-144.7058
 20
8.7458
 30
0.0
 10
-144.7058
 20
8.7458
 30
0.0
 10
-147.8537
 20
5.5978
 30
0.0
 10
-147.8537
 20
5.5978
 30
0.0
 10
-147.8537
 20
5.5978
 30
0.0
 10
-147.8537
 20
5.5978
 30
0.0
 10
-151.0017
 20
8.7458
 30
0.0
 10
-151.0017
 20
8.7458
 30
0.0
  0
SPLINE
  5
65
330
1F
100
AcDbEntity
  8
layer 1
 62
     7
100
AcDbSpline
210
0.0
220
0.0
230
1.0
 70
    11
 71
     3
 72
    24
 73
    20
 74
     0
 42
0.0000000001
 43
0.0000000001
 12
1.0
 22
0.0
 32
0.0
 13
1.0
 23
0.0
 33
0.0
 40
0.0
 40
0.0
 40
0.0
 40
0.0
 40
0.1666666666666667
 40
0.1666666666666667
 40
0.1666666666666667
 40
0.1666666666666667
 40
0.3333333333333333
 40
0.3333333333333333
 40
0.3333333333333333
 40
0.3333333333333333
 40
0.5
 40
0.5
 40
0.5
 40
0.5
 40
0.6666666666666666
 40
0.6666666666666666
 40
0.6666666666666666
 40
0.6666666666666666
 40
1.0
 40
1.0
 40
1.0
 40
1.0
 10
-156.1266
 20
13.6958
 30
0.0
 10
-156.1266
 20
13.6958
 30
0.0
 10
-156.1588
 20
16.9479
 30
0.0
 10
-156.1588
 20
16.9479
 30
0.0
 10
-156.1588
 20
16.9479
 30
0.0
 10
-156.1588
 20
16.9479
 30
0.0
 10
-153.0718
 20
16.9743
 30
0.0
 10
-153.0718
 20
16.9743
 30
0.0
 10
-153.0718
 20
16.9743
 30
0.0
 10
-153.0718
 20
16.9743
 30
0.0
 10
-150.8186
 20
14.6652
 30
0.0
 10
-150.8186
 20
14.6652
 30
0.0
 10
-150.8186
 20
14.6652
 30
0.0
 10
-150.8186
 20
14.6652
 30
0.0
 10
-153.9666
 20
11.5173
 30
0.0
 10
-153.9666
 20
11.5173
 30
0.0
 10
-153.9666
 20
11.5173
 30
0.0
 10
-153.9666
 20
11.5173
 30
0.0
 10
-156.1266
 20
13.6958
 30
0.0
 10
-156.1266
 20
13.6958
 30
0.0
  0
SPLINE
  5
66
330
1F
100
AcDbEntity
  8
layer 1
 62
     7
100
AcDbSpline
210
0.0
220
0.0
230
1.0
 70
    11
 71
     3
 72
    24
 73
    20
 74
     0
 42
0.0000000001
 43
0.0000000001
 12
1.0
 22
0.0
 32
0.0
 13
1.0
 23
0.0
 33
0.0
 40
0.0
 40
0.0
 40
0.0
 40
0.0
 40
0.1666666666666667
 40
0.1666666666666667
 40
0.1666666666666667
 40
0.1666666666666667
 40
0.3333333333333333
 40
0.3333333333333333
 40
0.3333333333333333
 40
0.3333333333333333
 40
0.5
 40
0.5
 40
0.5
 40
0.5
 40
0.6666666666666666
 40
0.6666666666666666
 40
0.6666666666666666
 40
0.6666666666666666
 40
1.0
 40
1.0
 40
1.0
 40
1.0
 10
-139.5241
 20
13.7376
 30
0.0
 10
-139.5241
 20
13.7376
 30
0.0
 10
-139.4919
 20
16.9897
 30
0.0
 10
-139.4919
 20
16.9897
 30
0.0
 10
-139.4919
 20
16.9897
 30
0.0
 10
-139.4919
 20
16.9897
 30
0.0
 10
-142.5788
 20
17.0161
 30
0.0
 10
-142.5788
 20
17.0161
 30
0.0
 10
-142.5788
 20
17.0161
 30
0.0
 10
-142.5788
 20
17.0161
 30
0.0
 10
-144.8321
 20
14.707
 30
0.0
 10
-144.8321
 20
14.707
 30
0.0
 10
-144.8321
 20
14.707
 30
0.0
 10
-144.8321
 20
14.707
 30
0.0
 10
-141.6841
 20
11.559
 30
0.0
 10
-141.6841
 20
11.559
 30
0.0
 10
-141.6841
 20
11.559
 30
0.0
 10
-141.6841
 20
11.559
 30
0.0
 10
-139.5241
 20
13.7376
 30
0.0
 10
-139.5241
 20
13.7376
 30
0.0
  0
SPLINE
  5
67
330
1F
100
AcDbEntity
  8
layer 1
 62
     7
100
AcDbSpline
210
0.0
220
0.0
230
1.0
 70
    11
 71
     3
 72
    24
 73
    20
 74
     0
 42
0.0000000001
 43
0.0000000001
 12
1.0
 22
0.0
 32
0.0
 13
1.0
 23
0.0
 33
0.0
 40
0.0
 40
0.0
 40
0.0
 40
0.0
 40
0.1666666666666667
 40
0.1666666666666667
 40
0.1666666666666667
 40
0.1666666666666667
 40
0.3333333333333333
 40
0.3333333333333333
 40
0.3333333333333333
 40
0.3333333333333333
 40
0.5
 40
0.5
 40
0.5
 40
0.5
 40
0.6666666666666666
 40
0.6666666666666666
 40
0.6666666666666666
 40
0.6666666666666666
 40
1.0
 40
1.0
 40
1.0
 40
1.0
 10
-156.1266
 20
3.6208
 30
0.0
 10
-156.1266
 20
3.6208
 30
0.0
 10
-156.1588
 20
0.3686
 30
0.0
 10
-156.1588
 20
0.3686
 30
0.0
 10
-156.1588
 20
0.3686
 30
0.0
 10
-156.1588
 20
0.3686
 30
0.0
 10
-153.0718
 20
0.3422
 30
0.0
 10
-153.0718
 20
0.3422
 30
0.0
 10
-153.0718
 20
0.3422
 30
0.0
 10
-153.0718
 20
0.3422
 30
0.0
 10
-150.8186
 20
2.6513
 30
0.0
 10
-150.8186
 20
2.6513
 30
0.0
 10
-150.8186
 20
2.6513
 30
0.0
 10
-150.8186
 20
2.6513
 30
0.0
 10
-153.9666
 20
5.7993
 30
0.0
 10
-153.9666
 20
5.7993
 30
0.0
 10
-153.9666
 20
5.7993
 30
0.0
 10
-153.9666
 20
5.7993
 30
0.0
 10
-156.1266
 20
3.6208
 30
0.0
 10
-156.1266
 20
3.6208
 30
0.0
  0
SPLINE
  5
68
330
1F
100
AcDbEntity
  8
layer 1
 62
     7
100
AcDbSpline
210
0.0
220
0.0
230
1.0
 70
    11
 71
     3
 72
    24
 73
    20
 74
     0
 42
0.0000000001
 43
0.0000000001
 12
1.0
 22
0.0
 32
0.0
 13
1.0
 23
0.0
 33
0.0
 40
0.0
 40
0.0
 40
0.0
 40
0.0
 40
0.1666666666666667
 40
0.1666666666666667
 40
0.1666666666666667
 40
0.1666666666666667
 40
0.3333333333333333
 40
0.3333333333333333
 40
0.3333333333333333
 40
0.3333333333333333
 40
0.5
 40
0.5
 40
0.5
 40
0.5
 40
0.6666666666666666
 40
0.6666666666666666
 40
0.6666666666666666
 40
0.6666666666666666
 40
1.0
 40
1.0
 40
1.0
 40
1.0
 10
-139.5241
 20
3.5791
 30
0.0
 10
-139.5241
 20
3.5791
 30
0.0
 10
-139.4919
 20
0.327
 30
0.0
 10
-139.4919
 20
0.327
 30
0.0
 10
-139.4919
 20
0.327
 30
0.0
 10
-139.4919
 20
0.327
 30
0.0
 10
-142.5788
 20
0.3006
 30
0.0
 10
-142.5788
 20
0.3006
 30
0.0
 10
-142.5788
 20
0.3006
 30
0.0
 10
-142.5788
 20
0.3006
 30
0.0
 10
-144.8321
 20
2.6097
 30
0.0
 10
-144.8321
 20
2.6097
 30
0.0
 10
-144.8321
 20
2.6097
 30
0.0
 10
-144.8321
 20
2.6097
 30
0.0
 10
-141.6841
 20
5.7576
 30
0.0
 10
-141.6841
 20
5.7576
 30
0.0
 10
-141.6841
 20
5.7576
 30
0.0
 10
-141.6841
 20
5.7576
 30
0.0
 10
-139.5241
 20
3.5791
 30
0.0
 10
-139.5241
 20
3.5791
 30
0.0
  0
SPLINE
  5
69
330
1F
100
AcDbEntity
  8
layer 1
 62
     7
100
AcDbSpline
210
0.0
220
0.0
230
1.0
 70
    11
 71
     3
 72
    36
 73
    32
 74
     0
 42
0.0000000001
 43
0.0000000001
 12
1.0
 22
0.0
 32
0.0
 13
1.0
 23
0.0
 33
0.0
 40
0.0
 40
0.0
 40
0.0
 40
0.0
 40
0.1111111111111111
 40
0.1111111111111111
 40
0.1111111111111111
 40
0.1111111111111111
 40
0.2222222222222222
 40
0.2222222222222222
 40
0.2222222222222222
 40
0.2222222222222222
 40
0.3333333333333333
 40
0.3333333333333333
 40
0.3333333333333333
 40
0.3333333333333333
 40
0.4444444444444444
 40
0.4444444444444444
 40
0.4444444444444444
 40
0.4444444444444444
 40
0.5555555555555556
 40
0.5555555555555556
 40
0.5555555555555556
 40
0.5555555555555556
 40
0.6666666666666666
 40
0.6666666666666666
 40
0.6666666666666666
 40
0.6666666666666666
 40
0.7777777777777778
 40
0.7777777777777778
 40
0.7777777777777778
 40
0.7777777777777778
 40
1.0
 40
1.0
 40
1.0
 40
1.0
 10
-166.7055
 20
-44.1787
 30
0.0
 10
-166.7055
 20
-44.1787
 30
0.0
 10
-173.4149
 20
-44.1787
 30
0.0
 10
-173.4149
 20
-44.1787
 30
0.0
 10
-173.4149
 20
-44.1787
 30
0.0
 10
-173.4149
 20
-44.1787
 30
0.0
 10
-178.1593
 20
-39.3018
 30
0.0
 10
-178.1593
 20
-39.3018
 30
0.0
 10
-178.1593
 20
-39.3018
 30
0.0
 10
-178.1593
 20
-39.3018
 30
0.0
 10
-178.1593
 20
-32.4048
 30
0.0
 10
-178.1593
 20
-32.4048
 30
0.0
 10
-178.1593
 20
-32.4048
 30
0.0
 10
-178.1593
 20
-32.4048
 30
0.0
 10
-173.4149
 20
-27.5279
 30
0.0
 10
-173.4149
 20
-27.5279
 30
0.0
 10
-173.4149
 20
-27.5279
 30
0.0
 10
-173.4149
 20
-27.5279
 30
0.0
 10
-166.7055
 20
-27.5279
 30
0.0
 10
-166.7055
 20
-27.5279
 30
0.0
 10
-166.7055
 20
-27.5279
 30
0.0
 10
-166.7055
 20
-27.5279
 30
0.0
 10
-161.9611
 20
-32.4048
 30
0.0
 10
-161.9611
 20
-32.4048
 30
0.0
 10
-161.9611
 20
-32.4048
 30
0.0
 10
-161.9611
 20
-32.4048
 30
0.0
 10
-161.9611
 20
-39.3018
 30
0.0
 10
-161.9611
 20
-39.3018
 30
0.0
 10
-161.9611
 20
-39.3018
 30
0.0
 10
-161.9611
 20
-39.3018
 30
0.0
 10
-166.7055
 20
-44.1787
 30
0.0
 10
-166.7055
 20
-44.1787
 30
0.0
  0
SPLINE
  5
6A
330
1F
100
AcDbEntity
  8
layer 1
 62
     7
100
AcDbSpline
210
0.0
220
0.0
230
1.0
 70
    11
 71
     3
 72
    36
 73
    32
 74
     0
 42
0.0000000001
 43
0.0000000001
 12
1.0
 22
0.0
 32
0.0
 13
1.0
 23
0.0
 33
0.0
 40
0.0
 40
0.0
 40
0.0
 40
0.0
 40
0.1111111111111111
 40
0.1111111111111111
 40
0.1111111111111111
 40
0.1111111111111111
 40
0.2222222222222222
 40
0.2222222222222222
 40
0.2222222222222222
 40
0.2222222222222222
 40
0.3333333333333333
 40
0.3333333333333333
 40
0.3333333333333333
 40
0.3333333333333333
 40
0.4444444444444444
 40
0.4444444444444444
 40
0.4444444444444444
 40
0.4444444444444444
 40
0.5555555555555556
 40
0.5555555555555556
 40
0.5555555555555556
 40
0.5555555555555556
 40
0.6666666666666666
 40
0.6666666666666666
 40
0.6666666666666666
 40
0.6666666666666666
 40
0.7777777777777778
 40
0.7777777777777778
 40
0.7777777777777778
 40
0.7777777777777778
 40
1.0
 40
1.0
 40
1.0
 40
1.0
 10
-122.1408
 20
-44.2663
 30
0.0
 10
-122.1408
 20
-44.2663
 30
0.0
 10
-128.8503
 20
-44.2663
 30
0.0
 10
-128.8503
 20
-44.2663
 30
0.0
 10
-128.8503
 20
-44.2663
 30
0.0
 10
-128.8503
 20
-44.2663
 30
0.0
 10
-133.5946
 20
-39.3894
 30
0.0
 10
-133.5946
 20
-39.3894
 30
0.0
 10
-133.5946
 20
-39.3894
 30
0.0
 10
-133.5946
 20
-39.3894
 30
0.0
 10
-133.5946
 20
-32.4924
 30
0.0
 10
-133.5946
 20
-32.4924
 30
0.0
 10
-133.5946
 20
-32.4924
 30
0.0
 10
-133.5946
 20
-32.4924
 30
0.0
 10
-128.8503
 20
-27.6155
 30
0.0
 10
-128.8503
 20
-27.6155
 30
0.0
 10
-128.8503
 20
-27.6155
 30
0.0
 10
-128.8503
 20
-27.6155
 30
0.0
 10
-122.1408
 20
-27.6155
 30
0.0
 10
-122.1408
 20
-27.6155
 30
0.0
 10
-122.1408
 20
-27.6155
 30
0.0
 10
-122.1408
 20
-27.6155
 30
0.0
 10
-117.3965
 20
-32.4924
 30
0.0
 10
-117.3965
 20
-32.4924
 30
0.0
 10
-117.3965
 20
-32.4924
 30
0.0
 10
-117.3965
 20
-32.4924
 30
0.0
 10
-117.3965
 20
-39.3894
 30
0.0
 10
-117.3965
 20
-39.3894
 30
0.0
 10
-117.3965
 20
-39.3894
 30
0.0
 10
-117.3965
 20
-39.3894
 30
0.0
 10
-122.1408
 20
-44.2663
 30
0.0
 10
-122.1408
 20
-44.2663
 30
0.0
  0
SPLINE
  5
6B
330
1F
100
AcDbEntity
  8
layer 1
 62
     7
100
AcDbSpline
210
0.0
220
0.0
230
1.0
 70
    11
 71
     3
 72
    36
 73
    32
 74
     0
 42
0.0000000001
 43
0.0000000001
 12
1.0
 22
0.0
 32
0.0
 13
1.0
 23
0.0
 33
0.0
 40
0.0
 40
0.0
 40
0.0
 40
0.0
 40
0.1111111111111111
 40
0.1111111111111111
 40
0.1111111111111111
 40
0.1111111111111111
 40
0.2222222222222222
 40
0.2222222222222222
 40
0.2222222222222222
 40
0.2222222222222222
 40
0.3333333333333333
 40
0.3333333333333333
 40
0.3333333333333333
 40
0.3333333333333333
 40
0.4444444444444444
 40
0.4444444444444444
 40
0.4444444444444444
 40
0.4444444444444444
 40
0.5555555555555556
 40
0.5555555555555556
 40
0.5555555555555556
 40
0.5555555555555556
 40
0.6666666666666666
 40
0.6666666666666666
 40
0.6666666666666666
 40
0.6666666666666666
 40
0.7777777777777778
 40
0.7777777777777778
 40
0.7777777777777778
 40
0.7777777777777778
 40
1.0
 40
1.0
 40
1.0
 40
1.0
 10
-77.4884
 20
-44.2663
 30
0.0
 10
-77.4884
 20
-44.2663
 30
0.0
 10
-84.1979
 20
-44.2663
 30
0.0
 10
-84.1979
 20
-44.2663
 30
0.0
 10
-84.1979
 20
-44.2663
 30
0.0
 10
-84.1979
 20
-44.2663
 30
0.0
 10
-88.9422
 20
-39.3894
 30
0.0
 10
-88.9422
 20
-39.3894
 30
0.0
 10
-88.9422
 20
-39.3894
 30
0.0
 10
-88.9422
 20
-39.3894
 30
0.0
 10
-88.9422
 20
-32.4924
 30
0.0
 10
-88.9422
 20
-32.4924
 30
0.0
 10
-88.9422
 20
-32.4924
 30
0.0
 10
-88.9422
 20
-32.4924
 30
0.0
 10
-84.1979
 20
-27.6155
 30
0.0
 10
-84.1979
 20
-27.6155
 30
0.0
 10
-84.1979
 20
-27.6155
 30
0.0
 10
-84.1979
 20
-27.6155
 30
0.0
 10
-77.4884
 20
-27.6155
 30
0.0
 10
-77.4884
 20
-27.6155
 30
0.0
 10
-77.4884
 20
-27.6155
 30
0.0
 10
-77.4884
 20
-27.6155
 30
0.0
 10
-72.7441
 20
-32.4924
 30
0.0
 10
-72.7441
 20
-32.4924
 30
0.0
 10
-72.7441
 20
-32.4924
 30
0.0
 10
-72.7441
 20
-32.4924
 30
0.0
 10
-72.7441
 20
-39.3894
 30
0.0
 10
-72.7441
 20
-39.3894
 30
0.0
 10
-72.7441
 20
-39.3894
 30
0.0
 10
-72.7441
 20
-39.3894
 30
0.0
 10
-77.4884
 20
-44.2663
 30
0.0
 10
-77.4884
 20
-44.2663
 30
0.0
  0
SPLINE
  5
6C
330
1F
100
AcDbEntity
  8
layer 1
 62
     7
100
AcDbSpline
210
0.0
220
0.0
230
1.0
 70
    11
 71
     3
 72
    20
 73
    16
 74
     0
 42
0.0000000001
 43
0.0000000001
 12
1.0
 22
0.0
 32
0.0
 13
1.0
 23
0.0
 33
0.0
 40
0.0
 40
0.0
 40
0.0
 40
0.0
 40
0.2
 40
0.2
 40
0.2
 40
0.2
 40
0.4
 40
0.4
 40
0.4
 40
0.4
 40
0.6
 40
0.6
 40
0.6
 40
0.6
 40
1.0
 40
1.0
 40
1.0
 40
1.0
 10
-106.2866
 20
-35.848
 30
0.0
 10
-106.2866
 20
-35.848
 30
0.0
 10
-103.1387
 20
-32.7
 30
0.0
 10
-103.1387
 20
-32.7
 30
0.0
 10
-103.1387
 20
-32.7
 30
0.0
 10
-103.1387
 20
-32.7
 30
0.0
 10
-99.9907
 20
-35.848
 30
0.0
 10
-99.9907
 20
-35.848
 30
0.0
 10
-99.9907
 20
-35.848
 30
0.0
 10
-99.9907
 20
-35.848
 30
0.0
 10
-103.1387
 20
-38.996
 30
0.0
 10
-103.1387
 20
-38.996
 30
0.0
 10
-103.1387
 20
-38.996
 30
0.0
 10
-103.1387
 20
-38.996
 30
0.0
 10
-106.2866
 20
-35.848
 30
0.0
 10
-106.2866
 20
-35.848
 30
0.0
  0
SPLINE
  5
6D
330
1F
100
AcDbEntity
  8
layer 1
 62
     7
100
AcDbSpline
210
0.0
220
0.0
230
1.0
 70
    11
 71
     3
 72
    24
 73
    20
 74
     0
 42
0.0000000001
 43
0.0000000001
 12
1.0
 22
0.0
 32
0.0
 13
1.0
 23
0.0
 33
0.0
 40
0.0
 40
0.0
 40
0.0
 40
0.0
 40
0.1666666666666667
 40
0.1666666666666667
 40
0.1666666666666667
 40
0.1666666666666667
 40
0.3333333333333333
 40
0.3333333333333333
 40
0.3333333333333333
 40
0.3333333333333333
 40
0.5
 40
0.5
 40
0.5
 40
0.5
 40
0.6666666666666666
 40
0.6666666666666666
 40
0.6666666666666666
 40
0.6666666666666666
 40
1.0
 40
1.0
 40
1.0
 40
1.0
 10
-111.4115
 20
-30.898
 30
0.0
 10
-111.4115
 20
-30.898
 30
0.0
 10
-111.4437
 20
-27.6458
 30
0.0
 10
-111.4437
 20
-27.6458
 30
0.0
 10
-111.4437
 20
-27.6458
 30
0.0
 10
-111.4437
 20
-27.6458
 30
0.0
 10
-108.3567
 20
-27.6195
 30
0.0
 10
-108.3567
 20
-27.6195
 30
0.0
 10
-108.3567
 20
-27.6195
 30
0.0
 10
-108.3567
 20
-27.6195
 30
0.0
 10
-106.1035
 20
-29.9285
 30
0.0
 10
-106.1035
 20
-29.9285
 30
0.0
 10
-106.1035
 20
-29.9285
 30
0.0
 10
-106.1035
 20
-29.9285
 30
0.0
 10
-109.2515
 20
-33.0765
 30
0.0
 10
-109.2515
 20
-33.0765
 30
0.0
 10
-109.2515
 20
-33.0765
 30
0.0
 10
-109.2515
 20
-33.0765
 30
0.0
 10
-111.4115
 20
-30.898
 30
0.0
 10
-111.4115
 20
-30.898
 30
0.0
  0
SPLINE
  5
6E
330
1F
100
AcDbEntity
  8
layer 1
 62
     7
100
AcDbSpline
210
0.0
220
0.0
230
1.0
 70
    11
 71
     3
 72
    24
 73
    20
 74
     0
 42
0.0000000001
 43
0.0000000001
 12
1.0
 22
0.0
 32
0.0
 13
1.0
 23
0.0
 33
0.0
 40
0.0
 40
0.0
 40
0.0
 40
0.0
 40
0.1666666666666667
 40
0.1666666666666667
 40
0.1666666666666667
 40
0.1666666666666667
 40
0.3333333333333333
 40
0.3333333333333333
 40
0.3333333333333333
 40
0.3333333333333333
 40
0.5
 40
0.5
 40
0.5
 40
0.5
 40
0.6666666666666666
 40
0.6666666666666666
 40
0.6666666666666666
 40
0.6666666666666666
 40
1.0
 40
1.0
 40
1.0
 40
1.0
 10
-94.809
 20
-30.8563
 30
0.0
 10
-94.809
 20
-30.8563
 30
0.0
 10
-94.7768
 20
-27.6042
 30
0.0
 10
-94.7768
 20
-27.6042
 30
0.0
 10
-94.7768
 20
-27.6042
 30
0.0
 10
-94.7768
 20
-27.6042
 30
0.0
 10
-97.8638
 20
-27.5778
 30
0.0
 10
-97.8638
 20
-27.5778
 30
0.0
 10
-97.8638
 20
-27.5778
 30
0.0
 10
-97.8638
 20
-27.5778
 30
0.0
 10
-100.117
 20
-29.8869
 30
0.0
 10
-100.117
 20
-29.8869
 30
0.0
 10
-100.117
 20
-29.8869
 30
0.0
 10
-100.117
 20
-29.8869
 30
0.0
 10
-96.969
 20
-33.0349
 30
0.0
 10
-96.969
 20
-33.0349
 30
0.0
 10
-96.969
 20
-33.0349
 30
0.0
 10
-96.969
 20
-33.0349
 30
0.0
 10
-94.809
 20
-30.8563
 30
0.0
 10
-94.809
 20
-30.8563
 30
0.0
  0
SPLINE
  5
6F
330
1F
100
AcDbEntity
  8
layer 1
 62
     7
100
AcDbSpline
210
0.0
220
0.0
230
1.0
 70
    11
 71
     3
 72
    24
 73
    20
 74
     0
 42
0.0000000001
 43
0.0000000001
 12
1.0
 22
0.0
 32
0.0
 13
1.0
 23
0.0
 33
0.0
 40
0.0
 40
0.0
 40
0.0
 40
0.0
 40
0.1666666666666667
 40
0.1666666666666667
 40
0.1666666666666667
 40
0.1666666666666667
 40
0.3333333333333333
 40
0.3333333333333333
 40
0.3333333333333333
 40
0.3333333333333333
 40
0.5
 40
0.5
 40
0.5
 40
0.5
 40
0.6666666666666666
 40
0.6666666666666666
 40
0.6666666666666666
 40
0.6666666666666666
 40
1.0
 40
1.0
 40
1.0
 40
1.0
 10
-111.4115
 20
-40.973
 30
0.0
 10
-111.4115
 20
-40.973
 30
0.0
 10
-111.4437
 20
-44.2251
 30
0.0
 10
-111.4437
 20
-44.2251
 30
0.0
 10
-111.4437
 20
-44.2251
 30
0.0
 10
-111.4437
 20
-44.2251
 30
0.0
 10
-108.3567
 20
-44.2515
 30
0.0
 10
-108.3567
 20
-44.2515
 30
0.0
 10
-108.3567
 20
-44.2515
 30
0.0
 10
-108.3567
 20
-44.2515
 30
0.0
 10
-106.1035
 20
-41.9424
 30
0.0
 10
-106.1035
 20
-41.9424
 30
0.0
 10
-106.1035
 20
-41.9424
 30
0.0
 10
-106.1035
 20
-41.9424
 30
0.0
 10
-109.2515
 20
-38.7945
 30
0.0
 10
-109.2515
 20
-38.7945
 30
0.0
 10
-109.2515
 20
-38.7945
 30
0.0
 10
-109.2515
 20
-38.7945
 30
0.0
 10
-111.4115
 20
-40.973
 30
0.0
 10
-111.4115
 20
-40.973
 30
0.0
  0
SPLINE
  5
70
330
1F
100
AcDbEntity
  8
layer 1
 62
     7
100
AcDbSpline
210
0.0
220
0.0
230
1.0
 70
    11
 71
     3
 72
    24
 73
    20
 74
     0
 42
0.0000000001
 43
0.0000000001
 12
1.0
 22
0.0
 32
0.0
 13
1.0
 23
0.0
 33
0.0
 40
0.0
 40
0.0
 40
0.0
 40
0.0
 40
0.1666666666666667
 40
0.1666666666666667
 40
0.1666666666666667
 40
0.1666666666666667
 40
0.3333333333333333
 40
0.3333333333333333
 40
0.3333333333333333
 40
0.3333333333333333
 40
0.5
 40
0.5
 40
0.5
 40
0.5
 40
0.6666666666666666
 40
0.6666666666666666
 40
0.6666666666666666
 40
0.6666666666666666
 40
1.0
 40
1.0
 40
1.0
 40
1.0
 10
-94.809
 20
-41.0146
 30
0.0
 10
-94.809
 20
-41.0146
 30
0.0
 10
-94.7768
 20
-44.2668
 30
0.0
 10
-94.7768
 20
-44.2668
 30
0.0
 10
-94.7768
 20
-44.2668
 30
0.0
 10
-94.7768
 20
-44.2668
 30
0.0
 10
-97.8638
 20
-44.2932
 30
0.0
 10
-97.8638
 20
-44.2932
 30
0.0
 10
-97.8638
 20
-44.2932
 30
0.0
 10
-97.8638
 20
-44.2932
 30
0.0
 10
-100.117
 20
-41.9841
 30
0.0
 10
-100.117
 20
-41.9841
 30
0.0
 10
-100.117
 20
-41.9841
 30
0.0
 10
-100.117
 20
-41.9841
 30
0.0
 10
-96.969
 20
-38.8361
 30
0.0
 10
-96.969
 20
-38.8361
 30
0.0
 10
-96.969
 20
-38.8361
 30
0.0
 10
-96.969
 20
-38.8361
 30
0.0
 10
-94.809
 20
-41.0146
 30
0.0
 10
-94.809
 20
-41.0146
 30
0.0
  0
SPLINE
  5
71
330
1F
100
AcDbEntity
  8
layer 1
 62
     7
100
AcDbSpline
210
0.0
220
0.0
230
1.0
 70
    11
 71
     3
 72
    20
 73
    16
 74
     0
 42
0.0000000001
 43
0.0000000001
 12
1.0
 22
0.0
 32
0.0
 13
1.0
 23
0.0
 33
0.0
 40
0.0
 40
0.0
 40
0.0
 40
0.0
 40
0.2
 40
0.2
 40
0.2
 40
0.2
 40
0.4
 40
0.4
 40
0.4
 40
0.4
 40
0.6
 40
0.6
 40
0.6
 40
0.6
 40
1.0
 40
1.0
 40
1.0
 40
1.0
 10
-151.0017
 20
-35.848
 30
0.0
 10
-151.0017
 20
-35.848
 30
0.0
 10
-147.8537
 20
-32.7
 30
0.0
 10
-147.8537
 20
-32.7
 30
0.0
 10
-147.8537
 20
-32.7
 30
0.0
 10
-147.8537
 20
-32.7
 30
0.0
 10
-144.7058
 20
-35.848
 30
0.0
 10
-144.7058
 20
-35.848
 30
0.0
 10
-144.7058
 20
-35.848
 30
0.0
 10
-144.7058
 20
-35.848
 30
0.0
 10
-147.8537
 20
-38.996
 30
0.0
 10
-147.8537
 20
-38.996
 30
0.0
 10
-147.8537
 20
-38.996
 30
0.0
 10
-147.8537
 20
-38.996
 30
0.0
 10
-151.0017
 20
-35.848
 30
0.0
 10
-151.0017
 20
-35.848
 30
0.0
  0
SPLINE
  5
72
330
1F
100
AcDbEntity
  8
layer 1
 62
     7
100
AcDbSpline
210
0.0
220
0.0
230
1.0
 70
    11
 71
     3
 72
    24
 73
    20
 74
     0
 42
0.0000000001
 43
0.0000000001
 12
1.0
 22
0.0
 32
0.0
 13
1.0
 23
0.0
 33
0.0
 40
0.0
 40
0.0
 40
0.0
 40
0.0
 40
0.1666666666666667
 40
0.1666666666666667
 40
0.1666666666666667
 40
0.1666666666666667
 40
0.3333333333333333
 40
0.3333333333333333
 40
0.3333333333333333
 40
0.3333333333333333
 40
0.5
 40
0.5
 40
0.5
 40
0.5
 40
0.6666666666666666
 40
0.6666666666666666
 40
0.6666666666666666
 40
0.6666666666666666
 40
1.0
 40
1.0
 40
1.0
 40
1.0
 10
-156.1266
 20
-30.898
 30
0.0
 10
-156.1266
 20
-30.898
 30
0.0
 10
-156.1588
 20
-27.6458
 30
0.0
 10
-156.1588
 20
-27.6458
 30
0.0
 10
-156.1588
 20
-27.6458
 30
0.0
 10
-156.1588
 20
-27.6458
 30
0.0
 10
-153.0718
 20
-27.6195
 30
0.0
 10
-153.0718
 20
-27.6195
 30
0.0
 10
-153.0718
 20
-27.6195
 30
0.0
 10
-153.0718
 20
-27.6195
 30
0.0
 10
-150.8186
 20
-29.9285
 30
0.0
 10
-150.8186
 20
-29.9285
 30
0.0
 10
-150.8186
 20
-29.9285
 30
0.0
 10
-150.8186
 20
-29.9285
 30
0.0
 10
-153.9666
 20
-33.0765
 30
0.0
 10
-153.9666
 20
-33.0765
 30
0.0
 10
-153.9666
 20
-33.0765
 30
0.0
 10
-153.9666
 20
-33.0765
 30
0.0
 10
-156.1266
 20
-30.898
 30
0.0
 10
-156.1266
 20
-30.898
 30
0.0
  0
SPLINE
  5
73
330
1F
100
AcDbEntity
  8
layer 1
 62
     7
100
AcDbSpline
210
0.0
220
0.0
230
1.0
 70
    11
 71
     3
 72
    24
 73
    20
 74
     0
 42
0.0000000001
 43
0.0000000001
 12
1.0
 22
0.0
 32
0.0
 13
1.0
 23
0.0
 33
0.0
 40
0.0
 40
0.0
 40
0.0
 40
0.0
 40
0.1666666666666667
 40
0.1666666666666667
 40
0.1666666666666667
 40
0.1666666666666667
 40
0.3333333333333333
 40
0.3333333333333333
 40
0.3333333333333333
 40
0.3333333333333333
 40
0.5
 40
0.5
 40
0.5
 40
0.5
 40
0.6666666666666666
 40
0.6666666666666666
 40
0.6666666666666666
 40
0.6666666666666666
 40
1.0
 40
1.0
 40
1.0
 40
1.0
 10
-139.5241
 20
-30.8563
 30
0.0
 10
-139.5241
 20
-30.8563
 30
0.0
 10
-139.4919
 20
-27.6042
 30
0.0
 10
-139.4919
 20
-27.6042
 30
0.0
 10
-139.4919
 20
-27.6042
 30
0.0
 10
-139.4919
 20
-27.6042
 30
0.0
 10
-142.5788
 20
-27.5778
 30
0.0
 10
-142.5788
 20
-27.5778
 30
0.0
 10
-142.5788
 20
-27.5778
 30
0.0
 10
-142.5788
 20
-27.5778
 30
0.0
 10
-144.8321
 20
-29.8869
 30
0.0
 10
-144.8321
 20
-29.8869
 30
0.0
 10
-144.8321
 20
-29.8869
 30
0.0
 10
-144.8321
 20
-29.8869
 30
0.0
 10
-141.6841
 20
-33.0349
 30
0.0
 10
-141.6841
 20
-33.0349
 30
0.0
 10
-141.6841
 20
-33.0349
 30
0.0
 10
-141.6841
 20
-33.0349
 30
0.0
 10
-139.5241
 20
-30.8563
 30
0.0
 10
-139.5241
 20
-30.8563
 30
0.0
  0
SPLINE
  5
74
330
1F
100
AcDbEntity
  8
layer 1
 62
     7
100
AcDbSpline
210
0.0
220
0.0
230
1.0
 70
    11
 71
     3
 72
    24
 73
    20
 74
     0
 42
0.0000000001
 43
0.0000000001
 12
1.0
 22
0.0
 32
0.0
 13
1.0
 23
0.0
 33
0.0
 40
0.0
 40
0.0
 40
0.0
 40
0.0
 40
0.1666666666666667
 40
0.1666666666666667
 40
0.1666666666666667
 40
0.1666666666666667
 40
0.3333333333333333
 40
0.3333333333333333
 40
0.3333333333333333
 40
0.3333333333333333
 40
0.5
 40
0.5
 40
0.5
 40
0.5
 40
0.6666666666666666
 40
0.6666666666666666
 40
0.6666666666666666
 40
0.6666666666666666
 40
1.0
 40
1.0
 40
1.0
 40
1.0
 10
-156.1266
 20
-40.973
 30
0.0
 10
-156.1266
 20
-40.973
 30
0.0
 10
-156.1588
 20
-44.2251
 30
0.0
 10
-156.1588
 20
-44.2251
 30
0.0
 10
-156.1588
 20
-44.2251
 30
0.0
 10
-156.1588
 20
-44.2251
 30
0.0
 10
-153.0718
 20
-44.2515
 30
0.0
 10
-153.0718
 20
-44.2515
 30
0.0
 10
-153.0718
 20
-44.2515
 30
0.0
 10
-153.0718
 20
-44.2515
 30
0.0
 10
-150.8186
 20
-41.9424
 30
0.0
 10
-150.8186
 20
-41.9424
 30
0.0
 10
-150.8186
 20
-41.9424
 30
0.0
 10
-150.8186
 20
-41.9424
 30
0.0
 10
-153.9666
 20
-38.7945
 30
0.0
 10
-153.9666
 20
-38.7945
 30
0.0
 10
-153.9666
 20
-38.7945
 30
0.0
 10
-153.9666
 20
-38.7945
 30
0.0
 10
-156.1266
 20
-40.973
 30
0.0
 10
-156.1266
 20
-40.973
 30
0.0
  0
SPLINE
  5
75
330
1F
100
AcDbEntity
  8
layer 1
 62
     7
100
AcDbSpline
210
0.0
220
0.0
230
1.0
 70
    11
 71
     3
 72
    24
 73
    20
 74
     0
 42
0.0000000001
 43
0.0000000001
 12
1.0
 22
0.0
 32
0.0
 13
1.0
 23
0.0
 33
0.0
 40
0.0
 40
0.0
 40
0.0
 40
0.0
 40
0.1666666666666667
 40
0.1666666666666667
 40
0.1666666666666667
 40
0.1666666666666667
 40
0.3333333333333333
 40
0.3333333333333333
 40
0.3333333333333333
 40
0.3333333333333333
 40
0.5
 40
0.5
 40
0.5
 40
0.5
 40
0.6666666666666666
 40
0.6666666666666666
 40
0.6666666666666666
 40
0.6666666666666666
 40
1.0
 40
1.0
 40
1.0
 40
1.0
 10
-139.5241
 20
-41.0146
 30
0.0
 10
-139.5241
 20
-41.0146
 30
0.0
 10
-139.4919
 20
-44.2668
 30
0.0
 10
-139.4919
 20
-44.2668
 30
0.0
 10
-139.4919
 20
-44.2668
 30
0.0
 10
-139.4919
 20
-44.2668
 30
0.0
 10
-142.5788
 20
-44.2932
 30
0.0
 10
-142.5788
 20
-44.2932
 30
0.0
 10
-142.5788
 20
-44.2932
 30
0.0
 10
-142.5788
 20
-44.2932
 30
0.0
 10
-144.8321
 20
-41.9841
 30
0.0
 10
-144.8321
 20
-41.9841
 30
0.0
 10
-144.8321
 20
-41.9841
 30
0.0
 10
-144.8321
 20
-41.9841
 30
0.0
 10
-141.6841
 20
-38.8361
 30
0.0
 10
-141.6841
 20
-38.8361
 30
0.0
 10
-141.6841
 20
-38.8361
 30
0.0
 10
-141.6841
 20
-38.8361
 30
0.0
 10
-139.5241
 20
-41.0146
 30
0.0
 10
-139.5241
 20
-41.0146
 30
0.0
  0
SPLINE
  5
76
330
1F
100
AcDbEntity
  8
layer 1
 62
     7
100
AcDbSpline
210
0.0
220
0.0
230
1.0
 70
    11
 71
     3
 72
    36
 73
    32
 74
     0
 42
0.0000000001
 43
0.0000000001
 12
1.0
 22
0.0
 32
0.0
 13
1.0
 23
0.0
 33
0.0
 40
0.0
 40
0.0
 40
0.0
 40
0.0
 40
0.1111111111111111
 40
0.1111111111111111
 40
0.1111111111111111
 40
0.1111111111111111
 40
0.2222222222222222
 40
0.2222222222222222
 40
0.2222222222222222
 40
0.2222222222222222
 40
0.3333333333333333
 40
0.3333333333333333
 40
0.3333333333333333
 40
0.3333333333333333
 40
0.4444444444444444
 40
0.4444444444444444
 40
0.4444444444444444
 40
0.4444444444444444
 40
0.5555555555555556
 40
0.5555555555555556
 40
0.5555555555555556
 40
0.5555555555555556
 40
0.6666666666666666
 40
0.6666666666666666
 40
0.6666666666666666
 40
0.6666666666666666
 40
0.7777777777777778
 40
0.7777777777777778
 40
0.7777777777777778
 40
0.7777777777777778
 40
1.0
 40
1.0
 40
1.0
 40
1.0
 10
-166.7055
 20
-88.9216
 30
0.0
 10
-166.7055
 20
-88.9216
 30
0.0
 10
-173.4149
 20
-88.9216
 30
0.0
 10
-173.4149
 20
-88.9216
 30
0.0
 10
-173.4149
 20
-88.9216
 30
0.0
 10
-173.4149
 20
-88.9216
 30
0.0
 10
-178.1593
 20
-84.0447
 30
0.0
 10
-178.1593
 20
-84.0447
 30
0.0
 10
-178.1593
 20
-84.0447
 30
0.0
 10
-178.1593
 20
-84.0447
 30
0.0
 10
-178.1593
 20
-77.1477
 30
0.0
 10
-178.1593
 20
-77.1477
 30
0.0
 10
-178.1593
 20
-77.1477
 30
0.0
 10
-178.1593
 20
-77.1477
 30
0.0
 10
-173.4149
 20
-72.2708
 30
0.0
 10
-173.4149
 20
-72.2708
 30
0.0
 10
-173.4149
 20
-72.2708
 30
0.0
 10
-173.4149
 20
-72.2708
 30
0.0
 10
-166.7055
 20
-72.2708
 30
0.0
 10
-166.7055
 20
-72.2708
 30
0.0
 10
-166.7055
 20
-72.2708
 30
0.0
 10
-166.7055
 20
-72.2708
 30
0.0
 10
-161.9611
 20
-77.1477
 30
0.0
 10
-161.9611
 20
-77.1477
 30
0.0
 10
-161.9611
 20
-77.1477
 30
0.0
 10
-161.9611
 20
-77.1477
 30
0.0
 10
-161.9611
 20
-84.0447
 30
0.0
 10
-161.9611
 20
-84.0447
 30
0.0
 10
-161.9611
 20
-84.0447
 30
0.0
 10
-161.9611
 20
-84.0447
 30
0.0
 10
-166.7055
 20
-88.9216
 30
0.0
 10
-166.7055
 20
-88.9216
 30
0.0
  0
SPLINE
  5
77
330
1F
100
AcDbEntity
  8
layer 1
 62
     7
100
AcDbSpline
210
0.0
220
0.0
230
1.0
 70
    11
 71
     3
 72
    36
 73
    32
 74
     0
 42
0.0000000001
 43
0.0000000001
 12
1.0
 22
0.0
 32
0.0
 13
1.0
 23
0.0
 33
0.0
 40
0.0
 40
0.0
 40
0.0
 40
0.0
 40
0.1111111111111111
 40
0.1111111111111111
 40
0.1111111111111111
 40
0.1111111111111111
 40
0.2222222222222222
 40
0.2222222222222222
 40
0.2222222222222222
 40
0.2222222222222222
 40
0.3333333333333333
 40
0.3333333333333333
 40
0.3333333333333333
 40
0.3333333333333333
 40
0.4444444444444444
 40
0.4444444444444444
 40
0.4444444444444444
 40
0.4444444444444444
 40
0.5555555555555556
 40
0.5555555555555556
 40
0.5555555555555556
 40
0.5555555555555556
 40
0.6666666666666666
 40
0.6666666666666666
 40
0.6666666666666666
 40
0.6666666666666666
 40
0.7777777777777778
 40
0.7777777777777778
 40
0.7777777777777778
 40
0.7777777777777778
 40
1.0
 40
1.0
 40
1.0
 40
1.0
 10
-122.1408
 20
-89.0093
 30
0.0
 10
-122.1408
 20
-89.0093
 30
0.0
 10
-128.8503
 20
-89.0093
 30
0.0
 10
-128.8503
 20
-89.0093
 30
0.0
 10
-128.8503
 20
-89.0093
 30
0.0
 10
-128.8503
 20
-89.0093
 30
0.0
 10
-133.5946
 20
-84.1324
 30
0.0
 10
-133.5946
 20
-84.1324
 30
0.0
 10
-133.5946
 20
-84.1324
 30
0.0
 10
-133.5946
 20
-84.1324
 30
0.0
 10
-133.5946
 20
-77.2354
 30
0.0
 10
-133.5946
 20
-77.2354
 30
0.0
 10
-133.5946
 20
-77.2354
 30
0.0
 10
-133.5946
 20
-77.2354
 30
0.0
 10
-128.8503
 20
-72.3586
 30
0.0
 10
-128.8503
 20
-72.3586
 30
0.0
 10
-128.8503
 20
-72.3586
 30
0.0
 10
-128.8503
 20
-72.3586
 30
0.0
 10
-122.1408
 20
-72.3586
 30
0.0
 10
-122.1408
 20
-72.3586
 30
0.0
 10
-122.1408
 20
-72.3586
 30
0.0
 10
-122.1408
 20
-72.3586
 30
0.0
 10
-117.3965
 20
-77.2354
 30
0.0
 10
-117.3965
 20
-77.2354
 30
0.0
 10
-117.3965
 20
-77.2354
 30
0.0
 10
-117.3965
 20
-77.2354
 30
0.0
 10
-117.3965
 20
-84.1324
 30
0.0
 10
-117.3965
 20
-84.1324
 30
0.0
 10
-117.3965
 20
-84.1324
 30
0.0
 10
-117.3965
 20
-84.1324
 30
0.0
 10
-122.1408
 20
-89.0093
 30
0.0
 10
-122.1408
 20
-89.0093
 30
0.0
  0
SPLINE
  5
78
330
1F
100
AcDbEntity
  8
layer 1
 62
     7
100
AcDbSpline
210
0.0
220
0.0
230
1.0
 70
    11
 71
     3
 72
    36
 73
    32
 74
     0
 42
0.0000000001
 43
0.0000000001
 12
1.0
 22
0.0
 32
0.0
 13
1.0
 23
0.0
 33
0.0
 40
0.0
 40
0.0
 40
0.0
 40
0.0
 40
0.1111111111111111
 40
0.1111111111111111
 40
0.1111111111111111
 40
0.1111111111111111
 40
0.2222222222222222
 40
0.2222222222222222
 40
0.2222222222222222
 40
0.2222222222222222
 40
0.3333333333333333
 40
0.3333333333333333
 40
0.3333333333333333
 40
0.3333333333333333
 40
0.4444444444444444
 40
0.4444444444444444
 40
0.4444444444444444
 40
0.4444444444444444
 40
0.5555555555555556
 40
0.5555555555555556
 40
0.5555555555555556
 40
0.5555555555555556
 40
0.6666666666666666
 40
0.6666666666666666
 40
0.6666666666666666
 40
0.6666666666666666
 40
0.7777777777777778
 40
0.7777777777777778
 40
0.7777777777777778
 40
0.7777777777777778
 40
1.0
 40
1.0
 40
1.0
 40
1.0
 10
-77.4884
 20
-89.0093
 30
0.0
 10
-77.4884
 20
-89.0093
 30
0.0
 10
-84.1979
 20
-89.0093
 30
0.0
 10
-84.1979
 20
-89.0093
 30
0.0
 10
-84.1979
 20
-89.0093
 30
0.0
 10
-84.1979
 20
-89.0093
 30
0.0
 10
-88.9422
 20
-84.1324
 30
0.0
 10
-88.9422
 20
-84.1324
 30
0.0
 10
-88.9422
 20
-84.1324
 30
0.0
 10
-88.9422
 20
-84.1324
 30
0.0
 10
-88.9422
 20
-77.2354
 30
0.0
 10
-88.9422
 20
-77.2354
 30
0.0
 10
-88.9422
 20
-77.2354
 30
0.0
 10
-88.9422
 20
-77.2354
 30
0.0
 10
-84.1979
 20
-72.3586
 30
0.0
 10
-84.1979
 20
-72.3586
 30
0.0
 10
-84.1979
 20
-72.3586
 30
0.0
 10
-84.1979
 20
-72.3586
 30
0.0
 10
-77.4884
 20
-72.3586
 30
0.0
 10
-77.4884
 20
-72.3586
 30
0.0
 10
-77.4884
 20
-72.3586
 30
0.0
 10
-77.4884
 20
-72.3586
 30
0.0
 10
-72.7441
 20
-77.2354
 30
0.0
 10
-72.7441
 20
-77.2354
 30
0.0
 10
-72.7441
 20
-77.2354
 30
0.0
 10
-72.7441
 20
-77.2354
 30
0.0
 10
-72.7441
 20
-84.1324
 30
0.0
 10
-72.7441
 20
-84.1324
 30
0.0
 10
-72.7441
 20
-84.1324
 30
0.0
 10
-72.7441
 20
-84.1324
 30
0.0
 10
-77.4884
 20
-89.0093
 30
0.0
 10
-77.4884
 20
-89.0093
 30
0.0
  0
SPLINE
  5
79
330
1F
100
AcDbEntity
  8
layer 1
 62
     7
100
AcDbSpline
210
0.0
220
0.0
230
1.0
 70
    11
 71
     3
 72
    20
 73
    16
 74
     0
 42
0.0000000001
 43
0.0000000001
 12
1.0
 22
0.0
 32
0.0
 13
1.0
 23
0.0
 33
0.0
 40
0.0
 40
0.0
 40
0.0
 40
0.0
 40
0.2
 40
0.2
 40
0.2
 40
0.2
 40
0.4
 40
0.4
 40
0.4
 40
0.4
 40
0.6
 40
0.6
 40
0.6
 40
0.6
 40
1.0
 40
1.0
 40
1.0
 40
1.0
 10
-106.2866
 20
-80.591
 30
0.0
 10
-106.2866
 20
-80.591
 30
0.0
 10
-103.1387
 20
-77.4431
 30
0.0
 10
-103.1387
 20
-77.4431
 30
0.0
 10
-103.1387
 20
-77.4431
 30
0.0
 10
-103.1387
 20
-77.4431
 30
0.0
 10
-99.9907
 20
-80.591
 30
0.0
 10
-99.9907
 20
-80.591
 30
0.0
 10
-99.9907
 20
-80.591
 30
0.0
 10
-99.9907
 20
-80.591
 30
0.0
 10
-103.1387
 20
-83.739
 30
0.0
 10
-103.1387
 20
-83.739
 30
0.0
 10
-103.1387
 20
-83.739
 30
0.0
 10
-103.1387
 20
-83.739
 30
0.0
 10
-106.2866
 20
-80.591
 30
0.0
 10
-106.2866
 20
-80.591
 30
0.0
  0
SPLINE
  5
7A
330
1F
100
AcDbEntity
  8
layer 1
 62
     7
100
AcDbSpline
210
0.0
220
0.0
230
1.0
 70
    11
 71
     3
 72
    24
 73
    20
 74
     0
 42
0.0000000001
 43
0.0000000001
 12
1.0
 22
0.0
 32
0.0
 13
1.0
 23
0.0
 33
0.0
 40
0.0
 40
0.0
 40
0.0
 40
0.0
 40
0.1666666666666667
 40
0.1666666666666667
 40
0.1666666666666667
 40
0.1666666666666667
 40
0.3333333333333333
 40
0.3333333333333333
 40
0.3333333333333333
 40
0.3333333333333333
 40
0.5
 40
0.5
 40
0.5
 40
0.5
 40
0.6666666666666666
 40
0.6666666666666666
 40
0.6666666666666666
 40
0.6666666666666666
 40
1.0
 40
1.0
 40
1.0
 40
1.0
 10
-111.4115
 20
-75.6409
 30
0.0
 10
-111.4115
 20
-75.6409
 30
0.0
 10
-111.4437
 20
-72.3887
 30
0.0
 10
-111.4437
 20
-72.3887
 30
0.0
 10
-111.4437
 20
-72.3887
 30
0.0
 10
-111.4437
 20
-72.3887
 30
0.0
 10
-108.3567
 20
-72.3623
 30
0.0
 10
-108.3567
 20
-72.3623
 30
0.0
 10
-108.3567
 20
-72.3623
 30
0.0
 10
-108.3567
 20
-72.3623
 30
0.0
 10
-106.1035
 20
-74.6714
 30
0.0
 10
-106.1035
 20
-74.6714
 30
0.0
 10
-106.1035
 20
-74.6714
 30
0.0
 10
-106.1035
 20
-74.6714
 30
0.0
 10
-109.2515
 20
-77.8194
 30
0.0
 10
-109.2515
 20
-77.8194
 30
0.0
 10
-109.2515
 20
-77.8194
 30
0.0
 10
-109.2515
 20
-77.8194
 30
0.0
 10
-111.4115
 20
-75.6409
 30
0.0
 10
-111.4115
 20
-75.6409
 30
0.0
  0
SPLINE
  5
7B
330
1F
100
AcDbEntity
  8
layer 1
 62
     7
100
AcDbSpline
210
0.0
220
0.0
230
1.0
 70
    11
 71
     3
 72
    24
 73
    20
 74
     0
 42
0.0000000001
 43
0.0000000001
 12
1.0
 22
0.0
 32
0.0
 13
1.0
 23
0.0
 33
0.0
 40
0.0
 40
0.0
 40
0.0
 40
0.0
 40
0.1666666666666667
 40
0.1666666666666667
 40
0.1666666666666667
 40
0.1666666666666667
 40
0.3333333333333333
 40
0.3333333333333333
 40
0.3333333333333333
 40
0.3333333333333333
 40
0.5
 40
0.5
 40
0.5
 40
0.5
 40
0.6666666666666666
 40
0.6666666666666666
 40
0.6666666666666666
 40
0.6666666666666666
 40
1.0
 40
1.0
 40
1.0
 40
1.0
 10
-94.809
 20
-75.5992
 30
0.0
 10
-94.809
 20
-75.5992
 30
0.0
 10
-94.7768
 20
-72.3471
 30
0.0
 10
-94.7768
 20
-72.3471
 30
0.0
 10
-94.7768
 20
-72.3471
 30
0.0
 10
-94.7768
 20
-72.3471
 30
0.0
 10
-97.8638
 20
-72.3207
 30
0.0
 10
-97.8638
 20
-72.3207
 30
0.0
 10
-97.8638
 20
-72.3207
 30
0.0
 10
-97.8638
 20
-72.3207
 30
0.0
 10
-100.117
 20
-74.6298
 30
0.0
 10
-100.117
 20
-74.6298
 30
0.0
 10
-100.117
 20
-74.6298
 30
0.0
 10
-100.117
 20
-74.6298
 30
0.0
 10
-96.969
 20
-77.7777
 30
0.0
 10
-96.969
 20
-77.7777
 30
0.0
 10
-96.969
 20
-77.7777
 30
0.0
 10
-96.969
 20
-77.7777
 30
0.0
 10
-94.809
 20
-75.5992
 30
0.0
 10
-94.809
 20
-75.5992
 30
0.0
  0
SPLINE
  5
7C
330
1F
100
AcDbEntity
  8
layer 1
 62
     7
100
AcDbSpline
210
0.0
220
0.0
230
1.0
 70
    11
 71
     3
 72
    24
 73
    20
 74
     0
 42
0.0000000001
 43
0.0000000001
 12
1.0
 22
0.0
 32
0.0
 13
1.0
 23
0.0
 33
0.0
 40
0.0
 40
0.0
 40
0.0
 40
0.0
 40
0.1666666666666667
 40
0.1666666666666667
 40
0.1666666666666667
 40
0.1666666666666667
 40
0.3333333333333333
 40
0.3333333333333333
 40
0.3333333333333333
 40
0.3333333333333333
 40
0.5
 40
0.5
 40
0.5
 40
0.5
 40
0.6666666666666666
 40
0.6666666666666666
 40
0.6666666666666666
 40
0.6666666666666666
 40
1.0
 40
1.0
 40
1.0
 40
1.0
 10
-111.4115
 20
-85.7159
 30
0.0
 10
-111.4115
 20
-85.7159
 30
0.0
 10
-111.4437
 20
-88.968
 30
0.0
 10
-111.4437
 20
-88.968
 30
0.0
 10
-111.4437
 20
-88.968
 30
0.0
 10
-111.4437
 20
-88.968
 30
0.0
 10
-108.3567
 20
-88.9944
 30
0.0
 10
-108.3567
 20
-88.9944
 30
0.0
 10
-108.3567
 20
-88.9944
 30
0.0
 10
-108.3567
 20
-88.9944
 30
0.0
 10
-106.1035
 20
-86.6853
 30
0.0
 10
-106.1035
 20
-86.6853
 30
0.0
 10
-106.1035
 20
-86.6853
 30
0.0
 10
-106.1035
 20
-86.6853
 30
0.0
 10
-109.2515
 20
-83.5374
 30
0.0
 10
-109.2515
 20
-83.5374
 30
0.0
 10
-109.2515
 20
-83.5374
 30
0.0
 10
-109.2515
 20
-83.5374
 30
0.0
 10
-111.4115
 20
-85.7159
 30
0.0
 10
-111.4115
 20
-85.7159
 30
0.0
  0
SPLINE
  5
7D
330
1F
100
AcDbEntity
  8
layer 1
 62
     7
100
AcDbSpline
210
0.0
220
0.0
230
1.0
 70
    11
 71
     3
 72
    24
 73
    20
 74
     0
 42
0.0000000001
 43
0.0000000001
 12
1.0
 22
0.0
 32
0.0
 13
1.0
 23
0.0
 33
0.0
 40
0.0
 40
0.0
 40
0.0
 40
0.0
 40
0.1666666666666667
 40
0.1666666666666667
 40
0.1666666666666667
 40
0.1666666666666667
 40
0.3333333333333333
 40
0.3333333333333333
 40
0.3333333333333333
 40
0.3333333333333333
 40
0.5
 40
0.5
 40
0.5
 40
0.5
 40
0.6666666666666666
 40
0.6666666666666666
 40
0.6666666666666666
 40
0.6666666666666666
 40
1.0
 40
1.0
 40
1.0
 40
1.0
 10
-94.809
 20
-85.7577
 30
0.0
 10
-94.809
 20
-85.7577
 30
0.0
 10
-94.7768
 20
-89.0098
 30
0.0
 10
-94.7768
 20
-89.0098
 30
0.0
 10
-94.7768
 20
-89.0098
 30
0.0
 10
-94.7768
 20
-89.0098
 30
0.0
 10
-97.8638
 20
-89.0362
 30
0.0
 10
-97.8638
 20
-89.0362
 30
0.0
 10
-97.8638
 20
-89.0362
 30
0.0
 10
-97.8638
 20
-89.0362
 30
0.0
 10
-100.117
 20
-86.7271
 30
0.0
 10
-100.117
 20
-86.7271
 30
0.0
 10
-100.117
 20
-86.7271
 30
0.0
 10
-100.117
 20
-86.7271
 30
0.0
 10
-96.969
 20
-83.5791
 30
0.0
 10
-96.969
 20
-83.5791
 30
0.0
 10
-96.969
 20
-83.5791
 30
0.0
 10
-96.969
 20
-83.5791
 30
0.0
 10
-94.809
 20
-85.7577
 30
0.0
 10
-94.809
 20
-85.7577
 30
0.0
  0
SPLINE
  5
7E
330
1F
100
AcDbEntity
  8
layer 1
 62
     7
100
AcDbSpline
210
0.0
220
0.0
230
1.0
 70
    11
 71
     3
 72
    20
 73
    16
 74
     0
 42
0.0000000001
 43
0.0000000001
 12
1.0
 22
0.0
 32
0.0
 13
1.0
 23
0.0
 33
0.0
 40
0.0
 40
0.0
 40
0.0
 40
0.0
 40
0.2
 40
0.2
 40
0.2
 40
0.2
 40
0.4
 40
0.4
 40
0.4
 40
0.4
 40
0.6
 40
0.6
 40
0.6
 40
0.6
 40
1.0
 40
1.0
 40
1.0
 40
1.0
 10
-151.0017
 20
-80.591
 30
0.0
 10
-151.0017
 20
-80.591
 30
0.0
 10
-147.8537
 20
-77.4431
 30
0.0
 10
-147.8537
 20
-77.4431
 30
0.0
 10
-147.8537
 20
-77.4431
 30
0.0
 10
-147.8537
 20
-77.4431
 30
0.0
 10
-144.7058
 20
-80.591
 30
0.0
 10
-144.7058
 20
-80.591
 30
0.0
 10
-144.7058
 20
-80.591
 30
0.0
 10
-144.7058
 20
-80.591
 30
0.0
 10
-147.8537
 20
-83.739
 30
0.0
 10
-147.8537
 20
-83.739
 30
0.0
 10
-147.8537
 20
-83.739
 30
0.0
 10
-147.8537
 20
-83.739
 30
0.0
 10
-151.0017
 20
-80.591
 30
0.0
 10
-151.0017
 20
-80.591
 30
0.0
  0
SPLINE
  5
7F
330
1F
100
AcDbEntity
  8
layer 1
 62
     7
100
AcDbSpline
210
0.0
220
0.0
230
1.0
 70
    11
 71
     3
 72
    24
 73
    20
 74
     0
 42
0.0000000001
 43
0.0000000001
 12
1.0
 22
0.0
 32
0.0
 13
1.0
 23
0.0
 33
0.0
 40
0.0
 40
0.0
 40
0.0
 40
0.0
 40
0.1666666666666667
 40
0.1666666666666667
 40
0.1666666666666667
 40
0.1666666666666667
 40
0.3333333333333333
 40
0.3333333333333333
 40
0.3333333333333333
 40
0.3333333333333333
 40
0.5
 40
0.5
 40
0.5
 40
0.5
 40
0.6666666666666666
 40
0.6666666666666666
 40
0.6666666666666666
 40
0.6666666666666666
 40
1.0
 40
1.0
 40
1.0
 40
1.0
 10
-156.1266
 20
-75.6409
 30
0.0
 10
-156.1266
 20
-75.6409
 30
0.0
 10
-156.1588
 20
-72.3887
 30
0.0
 10
-156.1588
 20
-72.3887
 30
0.0
 10
-156.1588
 20
-72.3887
 30
0.0
 10
-156.1588
 20
-72.3887
 30
0.0
 10
-153.0718
 20
-72.3623
 30
0.0
 10
-153.0718
 20
-72.3623
 30
0.0
 10
-153.0718
 20
-72.3623
 30
0.0
 10
-153.0718
 20
-72.3623
 30
0.0
 10
-150.8186
 20
-74.6714
 30
0.0
 10
-150.8186
 20
-74.6714
 30
0.0
 10
-150.8186
 20
-74.6714
 30
0.0
 10
-150.8186
 20
-74.6714
 30
0.0
 10
-153.9666
 20
-77.8194
 30
0.0
 10
-153.9666
 20
-77.8194
 30
0.0
 10
-153.9666
 20
-77.8194
 30
0.0
 10
-153.9666
 20
-77.8194
 30
0.0
 10
-156.1266
 20
-75.6409
 30
0.0
 10
-156.1266
 20
-75.6409
 30
0.0
  0
SPLINE
  5
80
330
1F
100
AcDbEntity
  8
layer 1
 62
     7
100
AcDbSpline
210
0.0
220
0.0
230
1.0
 70
    11
 71
     3
 72
    24
 73
    20
 74
     0
 42
0.0000000001
 43
0.0000000001
 12
1.0
 22
0.0
 32
0.0
 13
1.0
 23
0.0
 33
0.0
 40
0.0
 40
0.0
 40
0.0
 40
0.0
 40
0.1666666666666667
 40
0.1666666666666667
 40
0.1666666666666667
 40
0.1666666666666667
 40
0.3333333333333333
 40
0.3333333333333333
 40
0.3333333333333333
 40
0.3333333333333333
 40
0.5
 40
0.5
 40
0.5
 40
0.5
 40
0.6666666666666666
 40
0.6666666666666666
 40
0.6666666666666666
 40
0.6666666666666666
 40
1.0
 40
1.0
 40
1.0
 40
1.0
 10
-139.5241
 20
-75.5992
 30
0.0
 10
-139.5241
 20
-75.5992
 30
0.0
 10
-139.4919
 20
-72.3471
 30
0.0
 10
-139.4919
 20
-72.3471
 30
0.0
 10
-139.4919
 20
-72.3471
 30
0.0
 10
-139.4919
 20
-72.3471
 30
0.0
 10
-142.5788
 20
-72.3207
 30
0.0
 10
-142.5788
 20
-72.3207
 30
0.0
 10
-142.5788
 20
-72.3207
 30
0.0
 10
-142.5788
 20
-72.3207
 30
0.0
 10
-144.8321
 20
-74.6298
 30
0.0
 10
-144.8321
 20
-74.6298
 30
0.0
 10
-144.8321
 20
-74.6298
 30
0.0
 10
-144.8321
 20
-74.6298
 30
0.0
 10
-141.6841
 20
-77.7777
 30
0.0
 10
-141.6841
 20
-77.7777
 30
0.0
 10
-141.6841
 20
-77.7777
 30
0.0
 10
-141.6841
 20
-77.7777
 30
0.0
 10
-139.5241
 20
-75.5992
 30
0.0
 10
-139.5241
 20
-75.5992
 30
0.0
  0
SPLINE
  5
81
330
1F
100
AcDbEntity
  8
layer 1
 62
     7
100
AcDbSpline
210
0.0
220
0.0
230
1.0
 70
    11
 71
     3
 72
    24
 73
    20
 74
     0
 42
0.0000000001
 43
0.0000000001
 12
1.0
 22
0.0
 32
0.0
 13
1.0
 23
0.0
 33
0.0
 40
0.0
 40
0.0
 40
0.0
 40
0.0
 40
0.1666666666666667
 40
0.1666666666666667
 40
0.1666666666666667
 40
0.1666666666666667
 40
0.3333333333333333
 40
0.3333333333333333
 40
0.3333333333333333
 40
0.3333333333333333
 40
0.5
 40
0.5
 40
0.5
 40
0.5
 40
0.6666666666666666
 40
0.6666666666666666
 40
0.6666666666666666
 40
0.6666666666666666
 40
1.0
 40
1.0
 40
1.0
 40
1.0
 10
-156.1266
 20
-85.7159
 30
0.0
 10
-156.1266
 20
-85.7159
 30
0.0
 10
-156.1588
 20
-88.968
 30
0.0
 10
-156.1588
 20
-88.968
 30
0.0
 10
-156.1588
 20
-88.968
 30
0.0
 10
-156.1588
 20
-88.968
 30
0.0
 10
-153.0718
 20
-88.9944
 30
0.0
 10
-153.0718
 20
-88.9944
 30
0.0
 10
-153.0718
 20
-88.9944
 30
0.0
 10
-153.0718
 20
-88.9944
 30
0.0
 10
-150.8186
 20
-86.6853
 30
0.0
 10
-150.8186
 20
-86.6853
 30
0.0
 10
-150.8186
 20
-86.6853
 30
0.0
 10
-150.8186
 20
-86.6853
 30
0.0
 10
-153.9666
 20
-83.5374
 30
0.0
 10
-153.9666
 20
-83.5374
 30
0.0
 10
-153.9666
 20
-83.5374
 30
0.0
 10
-153.9666
 20
-83.5374
 30
0.0
 10
-156.1266
 20
-85.7159
 30
0.0
 10
-156.1266
 20
-85.7159
 30
0.0
  0
SPLINE
  5
82
330
1F
100
AcDbEntity
  8
layer 1
 62
     7
100
AcDbSpline
210
0.0
220
0.0
230
1.0
 70
    11
 71
     3
 72
    24
 73
    20
 74
     0
 42
0.0000000001
 43
0.0000000001
 12
1.0
 22
0.0
 32
0.0
 13
1.0
 23
0.0
 33
0.0
 40
0.0
 40
0.0
 40
0.0
 40
0.0
 40
0.1666666666666667
 40
0.1666666666666667
 40
0.1666666666666667
 40
0.1666666666666667
 40
0.3333333333333333
 40
0.3333333333333333
 40
0.3333333333333333
 40
0.3333333333333333
 40
0.5
 40
0.5
 40
0.5
 40
0.5
 40
0.6666666666666666
 40
0.6666666666666666
 40
0.6666666666666666
 40
0.6666666666666666
 40
1.0
 40
1.0
 40
1.0
 40
1.0
 10
-139.5241
 20
-85.7577
 30
0.0
 10
-139.5241
 20
-85.7577
 30
0.0
 10
-139.4919
 20
-89.0098
 30
0.0
 10
-139.4919
 20
-89.0098
 30
0.0
 10
-139.4919
 20
-89.0098
 30
0.0
 10
-139.4919
 20
-89.0098
 30
0.0
 10
-142.5788
 20
-89.0362
 30
0.0
 10
-142.5788
 20
-89.0362
 30
0.0
 10
-142.5788
 20
-89.0362
 30
0.0
 10
-142.5788
 20
-89.0362
 30
0.0
 10
-144.8321
 20
-86.7271
 30
0.0
 10
-144.8321
 20
-86.7271
 30
0.0
 10
-144.8321
 20
-86.7271
 30
0.0
 10
-144.8321
 20
-86.7271
 30
0.0
 10
-141.6841
 20
-83.5791
 30
0.0
 10
-141.6841
 20
-83.5791
 30
0.0
 10
-141.6841
 20
-83.5791
 30
0.0
 10
-141.6841
 20
-83.5791
 30
0.0
 10
-139.5241
 20
-85.7577
 30
0.0
 10
-139.5241
 20
-85.7577
 30
0.0
  0
SPLINE
  5
83
330
1F
100
AcDbEntity
  8
layer 1
 62
     7
100
AcDbSpline
210
0.0
220
0.0
230
1.0
 70
    11
 71
     3
 72
    36
 73
    32
 74
     0
 42
0.0000000001
 43
0.0000000001
 12
1.0
 22
0.0
 32
0.0
 13
1.0
 23
0.0
 33
0.0
 40
0.0
 40
0.0
 40
0.0
 40
0.0
 40
0.1111111111111111
 40
0.1111111111111111
 40
0.1111111111111111
 40
0.1111111111111111
 40
0.2222222222222222
 40
0.2222222222222222
 40
0.2222222222222222
 40
0.2222222222222222
 40
0.3333333333333333
 40
0.3333333333333333
 40
0.3333333333333333
 40
0.3333333333333333
 40
0.4444444444444444
 40
0.4444444444444444
 40
0.4444444444444444
 40
0.4444444444444444
 40
0.5555555555555556
 40
0.5555555555555556
 40
0.5555555555555556
 40
0.5555555555555556
 40
0.6666666666666666
 40
0.6666666666666666
 40
0.6666666666666666
 40
0.6666666666666666
 40
0.7777777777777778
 40
0.7777777777777778
 40
0.7777777777777778
 40
0.7777777777777778
 40
1.0
 40
1.0
 40
1.0
 40
1.0
 10
-144.334
 20
-66.6992
 30
0.0
 10
-144.334
 20
-66.6992
 30
0.0
 10
-151.0435
 20
-66.6992
 30
0.0
 10
-151.0435
 20
-66.6992
 30
0.0
 10
-151.0435
 20
-66.6992
 30
0.0
 10
-151.0435
 20
-66.6992
 30
0.0
 10
-155.7878
 20
-61.8224
 30
0.0
 10
-155.7878
 20
-61.8224
 30
0.0
 10
-155.7878
 20
-61.8224
 30
0.0
 10
-155.7878
 20
-61.8224
 30
0.0
 10
-155.7878
 20
-54.9254
 30
0.0
 10
-155.7878
 20
-54.9254
 30
0.0
 10
-155.7878
 20
-54.9254
 30
0.0
 10
-155.7878
 20
-54.9254
 30
0.0
 10
-151.0435
 20
-50.0485
 30
0.0
 10
-151.0435
 20
-50.0485
 30
0.0
 10
-151.0435
 20
-50.0485
 30
0.0
 10
-151.0435
 20
-50.0485
 30
0.0
 10
-144.334
 20
-50.0485
 30
0.0
 10
-144.334
 20
-50.0485
 30
0.0
 10
-144.334
 20
-50.0485
 30
0.0
 10
-144.334
 20
-50.0485
 30
0.0
 10
-139.5897
 20
-54.9254
 30
0.0
 10
-139.5897
 20
-54.9254
 30
0.0
 10
-139.5897
 20
-54.9254
 30
0.0
 10
-139.5897
 20
-54.9254
 30
0.0
 10
-139.5897
 20
-61.8224
 30
0.0
 10
-139.5897
 20
-61.8224
 30
0.0
 10
-139.5897
 20
-61.8224
 30
0.0
 10
-139.5897
 20
-61.8224
 30
0.0
 10
-144.334
 20
-66.6992
 30
0.0
 10
-144.334
 20
-66.6992
 30
0.0
  0
SPLINE
  5
84
330
1F
100
AcDbEntity
  8
layer 1
 62
     7
100
AcDbSpline
210
0.0
220
0.0
230
1.0
 70
    11
 71
     3
 72
    36
 73
    32
 74
     0
 42
0.0000000001
 43
0.0000000001
 12
1.0
 22
0.0
 32
0.0
 13
1.0
 23
0.0
 33
0.0
 40
0.0
 40
0.0
 40
0.0
 40
0.0
 40
0.1111111111111111
 40
0.1111111111111111
 40
0.1111111111111111
 40
0.1111111111111111
 40
0.2222222222222222
 40
0.2222222222222222
 40
0.2222222222222222
 40
0.2222222222222222
 40
0.3333333333333333
 40
0.3333333333333333
 40
0.3333333333333333
 40
0.3333333333333333
 40
0.4444444444444444
 40
0.4444444444444444
 40
0.4444444444444444
 40
0.4444444444444444
 40
0.5555555555555556
 40
0.5555555555555556
 40
0.5555555555555556
 40
0.5555555555555556
 40
0.6666666666666666
 40
0.6666666666666666
 40
0.6666666666666666
 40
0.6666666666666666
 40
0.7777777777777778
 40
0.7777777777777778
 40
0.7777777777777778
 40
0.7777777777777778
 40
1.0
 40
1.0
 40
1.0
 40
1.0
 10
-99.7694
 20
-66.787
 30
0.0
 10
-99.7694
 20
-66.787
 30
0.0
 10
-106.4788
 20
-66.787
 30
0.0
 10
-106.4788
 20
-66.787
 30
0.0
 10
-106.4788
 20
-66.787
 30
0.0
 10
-106.4788
 20
-66.787
 30
0.0
 10
-111.2232
 20
-61.9101
 30
0.0
 10
-111.2232
 20
-61.9101
 30
0.0
 10
-111.2232
 20
-61.9101
 30
0.0
 10
-111.2232
 20
-61.9101
 30
0.0
 10
-111.2232
 20
-55.0131
 30
0.0
 10
-111.2232
 20
-55.0131
 30
0.0
 10
-111.2232
 20
-55.0131
 30
0.0
 10
-111.2232
 20
-55.0131
 30
0.0
 10
-106.4788
 20
-50.1362
 30
0.0
 10
-106.4788
 20
-50.1362
 30
0.0
 10
-106.4788
 20
-50.1362
 30
0.0
 10
-106.4788
 20
-50.1362
 30
0.0
 10
-99.7694
 20
-50.1362
 30
0.0
 10
-99.7694
 20
-50.1362
 30
0.0
 10
-99.7694
 20
-50.1362
 30
0.0
 10
-99.7694
 20
-50.1362
 30
0.0
 10
-95.025
 20
-55.0131
 30
0.0
 10
-95.025
 20
-55.0131
 30
0.0
 10
-95.025
 20
-55.0131
 30
0.0
 10
-95.025
 20
-55.0131
 30
0.0
 10
-95.025
 20
-61.9101
 30
0.0
 10
-95.025
 20
-61.9101
 30
0.0
 10
-95.025
 20
-61.9101
 30
0.0
 10
-95.025
 20
-61.9101
 30
0.0
 10
-99.7694
 20
-66.787
 30
0.0
 10
-99.7694
 20
-66.787
 30
0.0
  0
SPLINE
  5
85
330
1F
100
AcDbEntity
  8
layer 1
 62
     7
100
AcDbSpline
210
0.0
220
0.0
230
1.0
 70
    11
 71
     3
 72
    20
 73
    16
 74
     0
 42
0.0000000001
 43
0.0000000001
 12
1.0
 22
0.0
 32
0.0
 13
1.0
 23
0.0
 33
0.0
 40
0.0
 40
0.0
 40
0.0
 40
0.0
 40
0.2
 40
0.2
 40
0.2
 40
0.2
 40
0.4
 40
0.4
 40
0.4
 40
0.4
 40
0.6
 40
0.6
 40
0.6
 40
0.6
 40
1.0
 40
1.0
 40
1.0
 40
1.0
 10
-83.9152
 20
-58.3687
 30
0.0
 10
-83.9152
 20
-58.3687
 30
0.0
 10
-80.7672
 20
-55.2207
 30
0.0
 10
-80.7672
 20
-55.2207
 30
0.0
 10
-80.7672
 20
-55.2207
 30
0.0
 10
-80.7672
 20
-55.2207
 30
0.0
 10
-77.6193
 20
-58.3687
 30
0.0
 10
-77.6193
 20
-58.3687
 30
0.0
 10
-77.6193
 20
-58.3687
 30
0.0
 10
-77.6193
 20
-58.3687
 30
0.0
 10
-80.7672
 20
-61.5167
 30
0.0
 10
-80.7672
 20
-61.5167
 30
0.0
 10
-80.7672
 20
-61.5167
 30
0.0
 10
-80.7672
 20
-61.5167
 30
0.0
 10
-83.9152
 20
-58.3687
 30
0.0
 10
-83.9152
 20
-58.3687
 30
0.0
  0
SPLINE
  5
86
330
1F
100
AcDbEntity
  8
layer 1
 62
     7
100
AcDbSpline
210
0.0
220
0.0
230
1.0
 70
    11
 71
     3
 72
    24
 73
    20
 74
     0
 42
0.0000000001
 43
0.0000000001
 12
1.0
 22
0.0
 32
0.0
 13
1.0
 23
0.0
 33
0.0
 40
0.0
 40
0.0
 40
0.0
 40
0.0
 40
0.1666666666666667
 40
0.1666666666666667
 40
0.1666666666666667
 40
0.1666666666666667
 40
0.3333333333333333
 40
0.3333333333333333
 40
0.3333333333333333
 40
0.3333333333333333
 40
0.5
 40
0.5
 40
0.5
 40
0.5
 40
0.6666666666666666
 40
0.6666666666666666
 40
0.6666666666666666
 40
0.6666666666666666
 40
1.0
 40
1.0
 40
1.0
 40
1.0
 10
-89.04
 20
-53.4186
 30
0.0
 10
-89.04
 20
-53.4186
 30
0.0
 10
-89.0723
 20
-50.1664
 30
0.0
 10
-89.0723
 20
-50.1664
 30
0.0
 10
-89.0723
 20
-50.1664
 30
0.0
 10
-89.0723
 20
-50.1664
 30
0.0
 10
-85.9853
 20
-50.14
 30
0.0
 10
-85.9853
 20
-50.14
 30
0.0
 10
-85.9853
 20
-50.14
 30
0.0
 10
-85.9853
 20
-50.14
 30
0.0
 10
-83.7321
 20
-52.4491
 30
0.0
 10
-83.7321
 20
-52.4491
 30
0.0
 10
-83.7321
 20
-52.4491
 30
0.0
 10
-83.7321
 20
-52.4491
 30
0.0
 10
-86.8801
 20
-55.5971
 30
0.0
 10
-86.8801
 20
-55.5971
 30
0.0
 10
-86.8801
 20
-55.5971
 30
0.0
 10
-86.8801
 20
-55.5971
 30
0.0
 10
-89.04
 20
-53.4186
 30
0.0
 10
-89.04
 20
-53.4186
 30
0.0
  0
SPLINE
  5
87
330
1F
100
AcDbEntity
  8
layer 1
 62
     7
100
AcDbSpline
210
0.0
220
0.0
230
1.0
 70
    11
 71
     3
 72
    24
 73
    20
 74
     0
 42
0.0000000001
 43
0.0000000001
 12
1.0
 22
0.0
 32
0.0
 13
1.0
 23
0.0
 33
0.0
 40
0.0
 40
0.0
 40
0.0
 40
0.0
 40
0.1666666666666667
 40
0.1666666666666667
 40
0.1666666666666667
 40
0.1666666666666667
 40
0.3333333333333333
 40
0.3333333333333333
 40
0.3333333333333333
 40
0.3333333333333333
 40
0.5
 40
0.5
 40
0.5
 40
0.5
 40
0.6666666666666666
 40
0.6666666666666666
 40
0.6666666666666666
 40
0.6666666666666666
 40
1.0
 40
1.0
 40
1.0
 40
1.0
 10
-72.4376
 20
-53.3769
 30
0.0
 10
-72.4376
 20
-53.3769
 30
0.0
 10
-72.4053
 20
-50.1247
 30
0.0
 10
-72.4053
 20
-50.1247
 30
0.0
 10
-72.4053
 20
-50.1247
 30
0.0
 10
-72.4053
 20
-50.1247
 30
0.0
 10
-75.4923
 20
-50.0984
 30
0.0
 10
-75.4923
 20
-50.0984
 30
0.0
 10
-75.4923
 20
-50.0984
 30
0.0
 10
-75.4923
 20
-50.0984
 30
0.0
 10
-77.7455
 20
-52.4075
 30
0.0
 10
-77.7455
 20
-52.4075
 30
0.0
 10
-77.7455
 20
-52.4075
 30
0.0
 10
-77.7455
 20
-52.4075
 30
0.0
 10
-74.5976
 20
-55.5554
 30
0.0
 10
-74.5976
 20
-55.5554
 30
0.0
 10
-74.5976
 20
-55.5554
 30
0.0
 10
-74.5976
 20
-55.5554
 30
0.0
 10
-72.4376
 20
-53.3769
 30
0.0
 10
-72.4376
 20
-53.3769
 30
0.0
  0
SPLINE
  5
88
330
1F
100
AcDbEntity
  8
layer 1
 62
     7
100
AcDbSpline
210
0.0
220
0.0
230
1.0
 70
    11
 71
     3
 72
    24
 73
    20
 74
     0
 42
0.0000000001
 43
0.0000000001
 12
1.0
 22
0.0
 32
0.0
 13
1.0
 23
0.0
 33
0.0
 40
0.0
 40
0.0
 40
0.0
 40
0.0
 40
0.1666666666666667
 40
0.1666666666666667
 40
0.1666666666666667
 40
0.1666666666666667
 40
0.3333333333333333
 40
0.3333333333333333
 40
0.3333333333333333
 40
0.3333333333333333
 40
0.5
 40
0.5
 40
0.5
 40
0.5
 40
0.6666666666666666
 40
0.6666666666666666
 40
0.6666666666666666
 40
0.6666666666666666
 40
1.0
 40
1.0
 40
1.0
 40
1.0
 10
-89.04
 20
-63.4936
 30
0.0
 10
-89.04
 20
-63.4936
 30
0.0
 10
-89.0723
 20
-66.7457
 30
0.0
 10
-89.0723
 20
-66.7457
 30
0.0
 10
-89.0723
 20
-66.7457
 30
0.0
 10
-89.0723
 20
-66.7457
 30
0.0
 10
-85.9853
 20
-66.7721
 30
0.0
 10
-85.9853
 20
-66.7721
 30
0.0
 10
-85.9853
 20
-66.7721
 30
0.0
 10
-85.9853
 20
-66.7721
 30
0.0
 10
-83.7321
 20
-64.463
 30
0.0
 10
-83.7321
 20
-64.463
 30
0.0
 10
-83.7321
 20
-64.463
 30
0.0
 10
-83.7321
 20
-64.463
 30
0.0
 10
-86.8801
 20
-61.315
 30
0.0
 10
-86.8801
 20
-61.315
 30
0.0
 10
-86.8801
 20
-61.315
 30
0.0
 10
-86.8801
 20
-61.315
 30
0.0
 10
-89.04
 20
-63.4936
 30
0.0
 10
-89.04
 20
-63.4936
 30
0.0
  0
SPLINE
  5
89
330
1F
100
AcDbEntity
  8
layer 1
 62
     7
100
AcDbSpline
210
0.0
220
0.0
230
1.0
 70
    11
 71
     3
 72
    24
 73
    20
 74
     0
 42
0.0000000001
 43
0.0000000001
 12
1.0
 22
0.0
 32
0.0
 13
1.0
 23
0.0
 33
0.0
 40
0.0
 40
0.0
 40
0.0
 40
0.0
 40
0.1666666666666667
 40
0.1666666666666667
 40
0.1666666666666667
 40
0.1666666666666667
 40
0.3333333333333333
 40
0.3333333333333333
 40
0.3333333333333333
 40
0.3333333333333333
 40
0.5
 40
0.5
 40
0.5
 40
0.5
 40
0.6666666666666666
 40
0.6666666666666666
 40
0.6666666666666666
 40
0.6666666666666666
 40
1.0
 40
1.0
 40
1.0
 40
1.0
 10
-72.4376
 20
-63.5353
 30
0.0
 10
-72.4376
 20
-63.5353
 30
0.0
 10
-72.4053
 20
-66.7875
 30
0.0
 10
-72.4053
 20
-66.7875
 30
0.0
 10
-72.4053
 20
-66.7875
 30
0.0
 10
-72.4053
 20
-66.7875
 30
0.0
 10
-75.4923
 20
-66.8139
 30
0.0
 10
-75.4923
 20
-66.8139
 30
0.0
 10
-75.4923
 20
-66.8139
 30
0.0
 10
-75.4923
 20
-66.8139
 30
0.0
 10
-77.7455
 20
-64.5048
 30
0.0
 10
-77.7455
 20
-64.5048
 30
0.0
 10
-77.7455
 20
-64.5048
 30
0.0
 10
-77.7455
 20
-64.5048
 30
0.0
 10
-74.5976
 20
-61.3568
 30
0.0
 10
-74.5976
 20
-61.3568
 30
0.0
 10
-74.5976
 20
-61.3568
 30
0.0
 10
-74.5976
 20
-61.3568
 30
0.0
 10
-72.4376
 20
-63.5353
 30
0.0
 10
-72.4376
 20
-63.5353
 30
0.0
  0
SPLINE
  5
8A
330
1F
100
AcDbEntity
  8
layer 1
 62
     7
100
AcDbSpline
210
0.0
220
0.0
230
1.0
 70
    11
 71
     3
 72
    20
 73
    16
 74
     0
 42
0.0000000001
 43
0.0000000001
 12
1.0
 22
0.0
 32
0.0
 13
1.0
 23
0.0
 33
0.0
 40
0.0
 40
0.0
 40
0.0
 40
0.0
 40
0.2
 40
0.2
 40
0.2
 40
0.2
 40
0.4
 40
0.4
 40
0.4
 40
0.4
 40
0.6
 40
0.6
 40
0.6
 40
0.6
 40
1.0
 40
1.0
 40
1.0
 40
1.0
 10
-128.6303
 20
-58.3687
 30
0.0
 10
-128.6303
 20
-58.3687
 30
0.0
 10
-125.4823
 20
-55.2207
 30
0.0
 10
-125.4823
 20
-55.2207
 30
0.0
 10
-125.4823
 20
-55.2207
 30
0.0
 10
-125.4823
 20
-55.2207
 30
0.0
 10
-122.3343
 20
-58.3687
 30
0.0
 10
-122.3343
 20
-58.3687
 30
0.0
 10
-122.3343
 20
-58.3687
 30
0.0
 10
-122.3343
 20
-58.3687
 30
0.0
 10
-125.4823
 20
-61.5167
 30
0.0
 10
-125.4823
 20
-61.5167
 30
0.0
 10
-125.4823
 20
-61.5167
 30
0.0
 10
-125.4823
 20
-61.5167
 30
0.0
 10
-128.6303
 20
-58.3687
 30
0.0
 10
-128.6303
 20
-58.3687
 30
0.0
  0
SPLINE
  5
8B
330
1F
100
AcDbEntity
  8
layer 1
 62
     7
100
AcDbSpline
210
0.0
220
0.0
230
1.0
 70
    11
 71
     3
 72
    24
 73
    20
 74
     0
 42
0.0000000001
 43
0.0000000001
 12
1.0
 22
0.0
 32
0.0
 13
1.0
 23
0.0
 33
0.0
 40
0.0
 40
0.0
 40
0.0
 40
0.0
 40
0.1666666666666667
 40
0.1666666666666667
 40
0.1666666666666667
 40
0.1666666666666667
 40
0.3333333333333333
 40
0.3333333333333333
 40
0.3333333333333333
 40
0.3333333333333333
 40
0.5
 40
0.5
 40
0.5
 40
0.5
 40
0.6666666666666666
 40
0.6666666666666666
 40
0.6666666666666666
 40
0.6666666666666666
 40
1.0
 40
1.0
 40
1.0
 40
1.0
 10
-133.7551
 20
-53.4186
 30
0.0
 10
-133.7551
 20
-53.4186
 30
0.0
 10
-133.7874
 20
-50.1664
 30
0.0
 10
-133.7874
 20
-50.1664
 30
0.0
 10
-133.7874
 20
-50.1664
 30
0.0
 10
-133.7874
 20
-50.1664
 30
0.0
 10
-130.7004
 20
-50.14
 30
0.0
 10
-130.7004
 20
-50.14
 30
0.0
 10
-130.7004
 20
-50.14
 30
0.0
 10
-130.7004
 20
-50.14
 30
0.0
 10
-128.4472
 20
-52.4491
 30
0.0
 10
-128.4472
 20
-52.4491
 30
0.0
 10
-128.4472
 20
-52.4491
 30
0.0
 10
-128.4472
 20
-52.4491
 30
0.0
 10
-131.5951
 20
-55.5971
 30
0.0
 10
-131.5951
 20
-55.5971
 30
0.0
 10
-131.5951
 20
-55.5971
 30
0.0
 10
-131.5951
 20
-55.5971
 30
0.0
 10
-133.7551
 20
-53.4186
 30
0.0
 10
-133.7551
 20
-53.4186
 30
0.0
  0
SPLINE
  5
8C
330
1F
100
AcDbEntity
  8
layer 1
 62
     7
100
AcDbSpline
210
0.0
220
0.0
230
1.0
 70
    11
 71
     3
 72
    24
 73
    20
 74
     0
 42
0.0000000001
 43
0.0000000001
 12
1.0
 22
0.0
 32
0.0
 13
1.0
 23
0.0
 33
0.0
 40
0.0
 40
0.0
 40
0.0
 40
0.0
 40
0.1666666666666667
 40
0.1666666666666667
 40
0.1666666666666667
 40
0.1666666666666667
 40
0.3333333333333333
 40
0.3333333333333333
 40
0.3333333333333333
 40
0.3333333333333333
 40
0.5
 40
0.5
 40
0.5
 40
0.5
 40
0.6666666666666666
 40
0.6666666666666666
 40
0.6666666666666666
 40
0.6666666666666666
 40
1.0
 40
1.0
 40
1.0
 40
1.0
 10
-117.1527
 20
-53.3769
 30
0.0
 10
-117.1527
 20
-53.3769
 30
0.0
 10
-117.1204
 20
-50.1247
 30
0.0
 10
-117.1204
 20
-50.1247
 30
0.0
 10
-117.1204
 20
-50.1247
 30
0.0
 10
-117.1204
 20
-50.1247
 30
0.0
 10
-120.2074
 20
-50.0984
 30
0.0
 10
-120.2074
 20
-50.0984
 30
0.0
 10
-120.2074
 20
-50.0984
 30
0.0
 10
-120.2074
 20
-50.0984
 30
0.0
 10
-122.4606
 20
-52.4075
 30
0.0
 10
-122.4606
 20
-52.4075
 30
0.0
 10
-122.4606
 20
-52.4075
 30
0.0
 10
-122.4606
 20
-52.4075
 30
0.0
 10
-119.3126
 20
-55.5554
 30
0.0
 10
-119.3126
 20
-55.5554
 30
0.0
 10
-119.3126
 20
-55.5554
 30
0.0
 10
-119.3126
 20
-55.5554
 30
0.0
 10
-117.1527
 20
-53.3769
 30
0.0
 10
-117.1527
 20
-53.3769
 30
0.0
  0
SPLINE
  5
8D
330
1F
100
AcDbEntity
  8
layer 1
 62
     7
100
AcDbSpline
210
0.0
220
0.0
230
1.0
 70
    11
 71
     3
 72
    24
 73
    20
 74
     0
 42
0.0000000001
 43
0.0000000001
 12
1.0
 22
0.0
 32
0.0
 13
1.0
 23
0.0
 33
0.0
 40
0.0
 40
0.0
 40
0.0
 40
0.0
 40
0.1666666666666667
 40
0.1666666666666667
 40
0.1666666666666667
 40
0.1666666666666667
 40
0.3333333333333333
 40
0.3333333333333333
 40
0.3333333333333333
 40
0.3333333333333333
 40
0.5
 40
0.5
 40
0.5
 40
0.5
 40
0.6666666666666666
 40
0.6666666666666666
 40
0.6666666666666666
 40
0.6666666666666666
 40
1.0
 40
1.0
 40
1.0
 40
1.0
 10
-133.7551
 20
-63.4936
 30
0.0
 10
-133.7551
 20
-63.4936
 30
0.0
 10
-133.7874
 20
-66.7457
 30
0.0
 10
-133.7874
 20
-66.7457
 30
0.0
 10
-133.7874
 20
-66.7457
 30
0.0
 10
-133.7874
 20
-66.7457
 30
0.0
 10
-130.7004
 20
-66.7721
 30
0.0
 10
-130.7004
 20
-66.7721
 30
0.0
 10
-130.7004
 20
-66.7721
 30
0.0
 10
-130.7004
 20
-66.7721
 30
0.0
 10
-128.4472
 20
-64.463
 30
0.0
 10
-128.4472
 20
-64.463
 30
0.0
 10
-128.4472
 20
-64.463
 30
0.0
 10
-128.4472
 20
-64.463
 30
0.0
 10
-131.5951
 20
-61.315
 30
0.0
 10
-131.5951
 20
-61.315
 30
0.0
 10
-131.5951
 20
-61.315
 30
0.0
 10
-131.5951
 20
-61.315
 30
0.0
 10
-133.7551
 20
-63.4936
 30
0.0
 10
-133.7551
 20
-63.4936
 30
0.0
  0
SPLINE
  5
8E
330
1F
100
AcDbEntity
  8
layer 1
 62
     7
100
AcDbSpline
210
0.0
220
0.0
230
1.0
 70
    11
 71
     3
 72
    24
 73
    20
 74
     0
 42
0.0000000001
 43
0.0000000001
 12
1.0
 22
0.0
 32
0.0
 13
1.0
 23
0.0
 33
0.0
 40
0.0
 40
0.0
 40
0.0
 40
0.0
 40
0.1666666666666667
 40
0.1666666666666667
 40
0.1666666666666667
 40
0.1666666666666667
 40
0.3333333333333333
 40
0.3333333333333333
 40
0.3333333333333333
 40
0.3333333333333333
 40
0.5
 40
0.5
 40
0.5
 40
0.5
 40
0.6666666666666666
 40
0.6666666666666666
 40
0.6666666666666666
 40
0.6666666666666666
 40
1.0
 40
1.0
 40
1.0
 40
1.0
 10
-117.1527
 20
-63.5353
 30
0.0
 10
-117.1527
 20
-63.5353
 30
0.0
 10
-117.1204
 20
-66.7875
 30
0.0
 10
-117.1204
 20
-66.7875
 30
0.0
 10
-117.1204
 20
-66.7875
 30
0.0
 10
-117.1204
 20
-66.7875
 30
0.0
 10
-120.2074
 20
-66.8139
 30
0.0
 10
-120.2074
 20
-66.8139
 30
0.0
 10
-120.2074
 20
-66.8139
 30
0.0
 10
-120.2074
 20
-66.8139
 30
0.0
 10
-122.4606
 20
-64.5048
 30
0.0
 10
-122.4606
 20
-64.5048
 30
0.0
 10
-122.4606
 20
-64.5048
 30
0.0
 10
-122.4606
 20
-64.5048
 30
0.0
 10
-119.3126
 20
-61.3568
 30
0.0
 10
-119.3126
 20
-61.3568
 30
0.0
 10
-119.3126
 20
-61.3568
 30
0.0
 10
-119.3126
 20
-61.3568
 30
0.0
 10
-117.1527
 20
-63.5353
 30
0.0
 10
-117.1527
 20
-63.5353
 30
0.0
  0
SPLINE
  5
8F
330
1F
100
AcDbEntity
  8
layer 1
 62
     7
100
AcDbSpline
210
0.0
220
0.0
230
1.0
 70
    11
 71
     3
 72
    20
 73
    16
 74
     0
 42
0.0000000001
 43
0.0000000001
 12
1.0
 22
0.0
 32
0.0
 13
1.0
 23
0.0
 33
0.0
 40
0.0
 40
0.0
 40
0.0
 40
0.0
 40
0.2
 40
0.2
 40
0.2
 40
0.2
 40
0.4
 40
0.4
 40
0.4
 40
0.4
 40
0.6
 40
0.6
 40
0.6
 40
0.6
 40
1.0
 40
1.0
 40
1.0
 40
1.0
 10
-173.364
 20
-58.3687
 30
0.0
 10
-173.364
 20
-58.3687
 30
0.0
 10
-170.216
 20
-55.2207
 30
0.0
 10
-170.216
 20
-55.2207
 30
0.0
 10
-170.216
 20
-55.2207
 30
0.0
 10
-170.216
 20
-55.2207
 30
0.0
 10
-167.0681
 20
-58.3687
 30
0.0
 10
-167.0681
 20
-58.3687
 30
0.0
 10
-167.0681
 20
-58.3687
 30
0.0
 10
-167.0681
 20
-58.3687
 30
0.0
 10
-170.216
 20
-61.5167
 30
0.0
 10
-170.216
 20
-61.5167
 30
0.0
 10
-170.216
 20
-61.5167
 30
0.0
 10
-170.216
 20
-61.5167
 30
0.0
 10
-173.364
 20
-58.3687
 30
0.0
 10
-173.364
 20
-58.3687
 30
0.0
  0
SPLINE
  5
90
330
1F
100
AcDbEntity
  8
layer 1
 62
     7
100
AcDbSpline
210
0.0
220
0.0
230
1.0
 70
    11
 71
     3
 72
    24
 73
    20
 74
     0
 42
0.0000000001
 43
0.0000000001
 12
1.0
 22
0.0
 32
0.0
 13
1.0
 23
0.0
 33
0.0
 40
0.0
 40
0.0
 40
0.0
 40
0.0
 40
0.1666666666666667
 40
0.1666666666666667
 40
0.1666666666666667
 40
0.1666666666666667
 40
0.3333333333333333
 40
0.3333333333333333
 40
0.3333333333333333
 40
0.3333333333333333
 40
0.5
 40
0.5
 40
0.5
 40
0.5
 40
0.6666666666666666
 40
0.6666666666666666
 40
0.6666666666666666
 40
0.6666666666666666
 40
1.0
 40
1.0
 40
1.0
 40
1.0
 10
-178.489
 20
-53.4186
 30
0.0
 10
-178.489
 20
-53.4186
 30
0.0
 10
-178.5212
 20
-50.1664
 30
0.0
 10
-178.5212
 20
-50.1664
 30
0.0
 10
-178.5212
 20
-50.1664
 30
0.0
 10
-178.5212
 20
-50.1664
 30
0.0
 10
-175.4343
 20
-50.14
 30
0.0
 10
-175.4343
 20
-50.14
 30
0.0
 10
-175.4343
 20
-50.14
 30
0.0
 10
-175.4343
 20
-50.14
 30
0.0
 10
-173.1811
 20
-52.4491
 30
0.0
 10
-173.1811
 20
-52.4491
 30
0.0
 10
-173.1811
 20
-52.4491
 30
0.0
 10
-173.1811
 20
-52.4491
 30
0.0
 10
-176.329
 20
-55.5971
 30
0.0
 10
-176.329
 20
-55.5971
 30
0.0
 10
-176.329
 20
-55.5971
 30
0.0
 10
-176.329
 20
-55.5971
 30
0.0
 10
-178.489
 20
-53.4186
 30
0.0
 10
-178.489
 20
-53.4186
 30
0.0
  0
SPLINE
  5
91
330
1F
100
AcDbEntity
  8
layer 1
 62
     7
100
AcDbSpline
210
0.0
220
0.0
230
1.0
 70
    11
 71
     3
 72
    24
 73
    20
 74
     0
 42
0.0000000001
 43
0.0000000001
 12
1.0
 22
0.0
 32
0.0
 13
1.0
 23
0.0
 33
0.0
 40
0.0
 40
0.0
 40
0.0
 40
0.0
 40
0.1666666666666667
 40
0.1666666666666667
 40
0.1666666666666667
 40
0.1666666666666667
 40
0.3333333333333333
 40
0.3333333333333333
 40
0.3333333333333333
 40
0.3333333333333333
 40
0.5
 40
0.5
 40
0.5
 40
0.5
 40
0.6666666666666666
 40
0.6666666666666666
 40
0.6666666666666666
 40
0.6666666666666666
 40
1.0
 40
1.0
 40
1.0
 40
1.0
 10
-161.8866
 20
-53.3769
 30
0.0
 10
-161.8866
 20
-53.3769
 30
0.0
 10
-161.8543
 20
-50.1247
 30
0.0
 10
-161.8543
 20
-50.1247
 30
0.0
 10
-161.8543
 20
-50.1247
 30
0.0
 10
-161.8543
 20
-50.1247
 30
0.0
 10
-164.9413
 20
-50.0984
 30
0.0
 10
-164.9413
 20
-50.0984
 30
0.0
 10
-164.9413
 20
-50.0984
 30
0.0
 10
-164.9413
 20
-50.0984
 30
0.0
 10
-167.1945
 20
-52.4075
 30
0.0
 10
-167.1945
 20
-52.4075
 30
0.0
 10
-167.1945
 20
-52.4075
 30
0.0
 10
-167.1945
 20
-52.4075
 30
0.0
 10
-164.0465
 20
-55.5554
 30
0.0
 10
-164.0465
 20
-55.5554
 30
0.0
 10
-164.0465
 20
-55.5554
 30
0.0
 10
-164.0465
 20
-55.5554
 30
0.0
 10
-161.8866
 20
-53.3769
 30
0.0
 10
-161.8866
 20
-53.3769
 30
0.0
  0
SPLINE
  5
92
330
1F
100
AcDbEntity
  8
layer 1
 62
     7
100
AcDbSpline
210
0.0
220
0.0
230
1.0
 70
    11
 71
     3
 72
    24
 73
    20
 74
     0
 42
0.0000000001
 43
0.0000000001
 12
1.0
 22
0.0
 32
0.0
 13
1.0
 23
0.0
 33
0.0
 40
0.0
 40
0.0
 40
0.0
 40
0.0
 40
0.1666666666666667
 40
0.1666666666666667
 40
0.1666666666666667
 40
0.1666666666666667
 40
0.3333333333333333
 40
0.3333333333333333
 40
0.3333333333333333
 40
0.3333333333333333
 40
0.5
 40
0.5
 40
0.5
 40
0.5
 40
0.6666666666666666
 40
0.6666666666666666
 40
0.6666666666666666
 40
0.6666666666666666
 40
1.0
 40
1.0
 40
1.0
 40
1.0
 10
-178.489
 20
-63.4936
 30
0.0
 10
-178.489
 20
-63.4936
 30
0.0
 10
-178.5212
 20
-66.7457
 30
0.0
 10
-178.5212
 20
-66.7457
 30
0.0
 10
-178.5212
 20
-66.7457
 30
0.0
 10
-178.5212
 20
-66.7457
 30
0.0
 10
-175.4343
 20
-66.7721
 30
0.0
 10
-175.4343
 20
-66.7721
 30
0.0
 10
-175.4343
 20
-66.7721
 30
0.0
 10
-175.4343
 20
-66.7721
 30
0.0
 10
-173.1811
 20
-64.463
 30
0.0
 10
-173.1811
 20
-64.463
 30
0.0
 10
-173.1811
 20
-64.463
 30
0.0
 10
-173.1811
 20
-64.463
 30
0.0
 10
-176.329
 20
-61.315
 30
0.0
 10
-176.329
 20
-61.315
 30
0.0
 10
-176.329
 20
-61.315
 30
0.0
 10
-176.329
 20
-61.315
 30
0.0
 10
-178.489
 20
-63.4936
 30
0.0
 10
-178.489
 20
-63.4936
 30
0.0
  0
SPLINE
  5
93
330
1F
100
AcDbEntity
  8
layer 1
 62
     7
100
AcDbSpline
210
0.0
220
0.0
230
1.0
 70
    11
 71
     3
 72
    24
 73
    20
 74
     0
 42
0.0000000001
 43
0.0000000001
 12
1.0
 22
0.0
 32
0.0
 13
1.0
 23
0.0
 33
0.0
 40
0.0
 40
0.0
 40
0.0
 40
0.0
 40
0.1666666666666667
 40
0.1666666666666667
 40
0.1666666666666667
 40
0.1666666666666667
 40
0.3333333333333333
 40
0.3333333333333333
 40
0.3333333333333333
 40
0.3333333333333333
 40
0.5
 40
0.5
 40
0.5
 40
0.5
 40
0.6666666666666666
 40
0.6666666666666666
 40
0.6666666666666666
 40
0.6666666666666666
 40
1.0
 40
1.0
 40
1.0
 40
1.0
 10
-161.8866
 20
-63.5353
 30
0.0
 10
-161.8866
 20
-63.5353
 30
0.0
 10
-161.8543
 20
-66.7875
 30
0.0
 10
-161.8543
 20
-66.7875
 30
0.0
 10
-161.8543
 20
-66.7875
 30
0.0
 10
-161.8543
 20
-66.7875
 30
0.0
 10
-164.9413
 20
-66.8139
 30
0.0
 10
-164.9413
 20
-66.8139
 30
0.0
 10
-164.9413
 20
-66.8139
 30
0.0
 10
-164.9413
 20
-66.8139
 30
0.0
 10
-167.1945
 20
-64.5048
 30
0.0
 10
-167.1945
 20
-64.5048
 30
0.0
 10
-167.1945
 20
-64.5048
 30
0.0
 10
-167.1945
 20
-64.5048
 30
0.0
 10
-164.0465
 20
-61.3568
 30
0.0
 10
-164.0465
 20
-61.3568
 30
0.0
 10
-164.0465
 20
-61.3568
 30
0.0
 10
-164.0465
 20
-61.3568
 30
0.0
 10
-161.8866
 20
-63.5353
 30
0.0
 10
-161.8866
 20
-63.5353
 30
0.0
  0
SPLINE
  5
94
330
1F
100
AcDbEntity
  8
layer 1
 62
     7
100
AcDbSpline
210
0.0
220
0.0
230
1.0
 70
    11
 71
     3
 72
    28
 73
    24
 74
     0
 42
0.0000000001
 43
0.0000000001
 12
1.0
 22
0.0
 32
0.0
 13
1.0
 23
0.0
 33
0.0
 40
0.0
 40
0.0
 40
0.0
 40
0.0
 40
0.1428571428571428
 40
0.1428571428571428
 40
0.1428571428571428
 40
0.1428571428571428
 40
0.2857142857142857
 40
0.2857142857142857
 40
0.2857142857142857
 40
0.2857142857142857
 40
0.4285714285714285
 40
0.4285714285714285
 40
0.4285714285714285
 40
0.4285714285714285
 40
0.5714285714285714
 40
0.5714285714285714
 40
0.5714285714285714
 40
0.5714285714285714
 40
0.7142857142857143
 40
0.7142857142857143
 40
0.7142857142857143
 40
0.7142857142857143
 40
1.0
 40
1.0
 40
1.0
 40
1.0
 10
-155.7878
 20
-106.4149
 30
0.0
 10
-155.7878
 20
-106.4149
 30
0.0
 10
-155.7878
 20
-99.518
 30
0.0
 10
-155.7878
 20
-99.518
 30
0.0
 10
-155.7878
 20
-99.518
 30
0.0
 10
-155.7878
 20
-99.518
 30
0.0
 10
-151.0435
 20
-94.6411
 30
0.0
 10
-151.0435
 20
-94.6411
 30
0.0
 10
-151.0435
 20
-94.6411
 30
0.0
 10
-151.0435
 20
-94.6411
 30
0.0
 10
-144.334
 20
-94.6411
 30
0.0
 10
-144.334
 20
-94.6411
 30
0.0
 10
-144.334
 20
-94.6411
 30
0.0
 10
-144.334
 20
-94.6411
 30
0.0
 10
-139.5897
 20
-99.518
 30
0.0
 10
-139.5897
 20
-99.518
 30
0.0
 10
-139.5897
 20
-99.518
 30
0.0
 10
-139.5897
 20
-99.518
 30
0.0
 10
-139.5897
 20
-106.4149
 30
0.0
 10
-139.5897
 20
-106.4149
 30
0.0
 10
-139.5897
 20
-106.4149
 30
0.0
 10
-139.5897
 20
-106.4149
 30
0.0
 10
-155.7878
 20
-106.4149
 30
0.0
 10
-155.7878
 20
-106.4149
 30
0.0
  0
SPLINE
  5
95
330
1F
100
AcDbEntity
  8
layer 1
 62
     7
100
AcDbSpline
210
0.0
220
0.0
230
1.0
 70
    11
 71
     3
 72
    28
 73
    24
 74
     0
 42
0.0000000001
 43
0.0000000001
 12
1.0
 22
0.0
 32
0.0
 13
1.0
 23
0.0
 33
0.0
 40
0.0
 40
0.0
 40
0.0
 40
0.0
 40
0.1428571428571428
 40
0.1428571428571428
 40
0.1428571428571428
 40
0.1428571428571428
 40
0.2857142857142857
 40
0.2857142857142857
 40
0.2857142857142857
 40
0.2857142857142857
 40
0.4285714285714285
 40
0.4285714285714285
 40
0.4285714285714285
 40
0.4285714285714285
 40
0.5714285714285714
 40
0.5714285714285714
 40
0.5714285714285714
 40
0.5714285714285714
 40
0.7142857142857143
 40
0.7142857142857143
 40
0.7142857142857143
 40
0.7142857142857143
 40
1.0
 40
1.0
 40
1.0
 40
1.0
 10
-111.2232
 20
-106.5026
 30
0.0
 10
-111.2232
 20
-106.5026
 30
0.0
 10
-111.2232
 20
-99.6056
 30
0.0
 10
-111.2232
 20
-99.6056
 30
0.0
 10
-111.2232
 20
-99.6056
 30
0.0
 10
-111.2232
 20
-99.6056
 30
0.0
 10
-106.4788
 20
-94.7287
 30
0.0
 10
-106.4788
 20
-94.7287
 30
0.0
 10
-106.4788
 20
-94.7287
 30
0.0
 10
-106.4788
 20
-94.7287
 30
0.0
 10
-99.7694
 20
-94.7287
 30
0.0
 10
-99.7694
 20
-94.7287
 30
0.0
 10
-99.7694
 20
-94.7287
 30
0.0
 10
-99.7694
 20
-94.7287
 30
0.0
 10
-95.025
 20
-99.6056
 30
0.0
 10
-95.025
 20
-99.6056
 30
0.0
 10
-95.025
 20
-99.6056
 30
0.0
 10
-95.025
 20
-99.6056
 30
0.0
 10
-95.025
 20
-106.5026
 30
0.0
 10
-95.025
 20
-106.5026
 30
0.0
 10
-95.025
 20
-106.5026
 30
0.0
 10
-95.025
 20
-106.5026
 30
0.0
 10
-111.2232
 20
-106.5026
 30
0.0
 10
-111.2232
 20
-106.5026
 30
0.0
  0
SPLINE
  5
96
330
1F
100
AcDbEntity
  8
layer 1
 62
     7
100
AcDbSpline
210
0.0
220
0.0
230
1.0
 70
    11
 71
     3
 72
    20
 73
    16
 74
     0
 42
0.0000000001
 43
0.0000000001
 12
1.0
 22
0.0
 32
0.0
 13
1.0
 23
0.0
 33
0.0
 40
0.0
 40
0.0
 40
0.0
 40
0.0
 40
0.2
 40
0.2
 40
0.2
 40
0.2
 40
0.4
 40
0.4
 40
0.4
 40
0.4
 40
0.6
 40
0.6
 40
0.6
 40
0.6
 40
1.0
 40
1.0
 40
1.0
 40
1.0
 10
-83.9152
 20
-102.9612
 30
0.0
 10
-83.9152
 20
-102.9612
 30
0.0
 10
-80.7672
 20
-99.8132
 30
0.0
 10
-80.7672
 20
-99.8132
 30
0.0
 10
-80.7672
 20
-99.8132
 30
0.0
 10
-80.7672
 20
-99.8132
 30
0.0
 10
-77.6193
 20
-102.9612
 30
0.0
 10
-77.6193
 20
-102.9612
 30
0.0
 10
-77.6193
 20
-102.9612
 30
0.0
 10
-77.6193
 20
-102.9612
 30
0.0
 10
-80.7672
 20
-106.1091
 30
0.0
 10
-80.7672
 20
-106.1091
 30
0.0
 10
-80.7672
 20
-106.1091
 30
0.0
 10
-80.7672
 20
-106.1091
 30
0.0
 10
-83.9152
 20
-102.9612
 30
0.0
 10
-83.9152
 20
-102.9612
 30
0.0
  0
SPLINE
  5
97
330
1F
100
AcDbEntity
  8
layer 1
 62
     7
100
AcDbSpline
210
0.0
220
0.0
230
1.0
 70
    11
 71
     3
 72
    24
 73
    20
 74
     0
 42
0.0000000001
 43
0.0000000001
 12
1.0
 22
0.0
 32
0.0
 13
1.0
 23
0.0
 33
0.0
 40
0.0
 40
0.0
 40
0.0
 40
0.0
 40
0.1666666666666667
 40
0.1666666666666667
 40
0.1666666666666667
 40
0.1666666666666667
 40
0.3333333333333333
 40
0.3333333333333333
 40
0.3333333333333333
 40
0.3333333333333333
 40
0.5
 40
0.5
 40
0.5
 40
0.5
 40
0.6666666666666666
 40
0.6666666666666666
 40
0.6666666666666666
 40
0.6666666666666666
 40
1.0
 40
1.0
 40
1.0
 40
1.0
 10
-89.04
 20
-98.0112
 30
0.0
 10
-89.04
 20
-98.0112
 30
0.0
 10
-89.0723
 20
-94.759
 30
0.0
 10
-89.0723
 20
-94.759
 30
0.0
 10
-89.0723
 20
-94.759
 30
0.0
 10
-89.0723
 20
-94.759
 30
0.0
 10
-85.9853
 20
-94.7326
 30
0.0
 10
-85.9853
 20
-94.7326
 30
0.0
 10
-85.9853
 20
-94.7326
 30
0.0
 10
-85.9853
 20
-94.7326
 30
0.0
 10
-83.7321
 20
-97.0417
 30
0.0
 10
-83.7321
 20
-97.0417
 30
0.0
 10
-83.7321
 20
-97.0417
 30
0.0
 10
-83.7321
 20
-97.0417
 30
0.0
 10
-86.8801
 20
-100.1897
 30
0.0
 10
-86.8801
 20
-100.1897
 30
0.0
 10
-86.8801
 20
-100.1897
 30
0.0
 10
-86.8801
 20
-100.1897
 30
0.0
 10
-89.04
 20
-98.0112
 30
0.0
 10
-89.04
 20
-98.0112
 30
0.0
  0
SPLINE
  5
98
330
1F
100
AcDbEntity
  8
layer 1
 62
     7
100
AcDbSpline
210
0.0
220
0.0
230
1.0
 70
    11
 71
     3
 72
    24
 73
    20
 74
     0
 42
0.0000000001
 43
0.0000000001
 12
1.0
 22
0.0
 32
0.0
 13
1.0
 23
0.0
 33
0.0
 40
0.0
 40
0.0
 40
0.0
 40
0.0
 40
0.1666666666666667
 40
0.1666666666666667
 40
0.1666666666666667
 40
0.1666666666666667
 40
0.3333333333333333
 40
0.3333333333333333
 40
0.3333333333333333
 40
0.3333333333333333
 40
0.5
 40
0.5
 40
0.5
 40
0.5
 40
0.6666666666666666
 40
0.6666666666666666
 40
0.6666666666666666
 40
0.6666666666666666
 40
1.0
 40
1.0
 40
1.0
 40
1.0
 10
-72.4376
 20
-97.9695
 30
0.0
 10
-72.4376
 20
-97.9695
 30
0.0
 10
-72.4053
 20
-94.7173
 30
0.0
 10
-72.4053
 20
-94.7173
 30
0.0
 10
-72.4053
 20
-94.7173
 30
0.0
 10
-72.4053
 20
-94.7173
 30
0.0
 10
-75.4923
 20
-94.691
 30
0.0
 10
-75.4923
 20
-94.691
 30
0.0
 10
-75.4923
 20
-94.691
 30
0.0
 10
-75.4923
 20
-94.691
 30
0.0
 10
-77.7455
 20
-97.0001
 30
0.0
 10
-77.7455
 20
-97.0001
 30
0.0
 10
-77.7455
 20
-97.0001
 30
0.0
 10
-77.7455
 20
-97.0001
 30
0.0
 10
-74.5976
 20
-100.148
 30
0.0
 10
-74.5976
 20
-100.148
 30
0.0
 10
-74.5976
 20
-100.148
 30
0.0
 10
-74.5976
 20
-100.148
 30
0.0
 10
-72.4376
 20
-97.9695
 30
0.0
 10
-72.4376
 20
-97.9695
 30
0.0
  0
SPLINE
  5
99
330
1F
100
AcDbEntity
  8
layer 1
 62
     7
100
AcDbSpline
210
0.0
220
0.0
230
1.0
 70
    11
 71
     3
 72
    20
 73
    16
 74
     0
 42
0.0000000001
 43
0.0000000001
 12
1.0
 22
0.0
 32
0.0
 13
1.0
 23
0.0
 33
0.0
 40
0.0
 40
0.0
 40
0.0
 40
0.0
 40
0.2
 40
0.2
 40
0.2
 40
0.2
 40
0.4
 40
0.4
 40
0.4
 40
0.4
 40
0.6
 40
0.6
 40
0.6
 40
0.6
 40
1.0
 40
1.0
 40
1.0
 40
1.0
 10
-128.6303
 20
-102.9612
 30
0.0
 10
-128.6303
 20
-102.9612
 30
0.0
 10
-125.4823
 20
-99.8132
 30
0.0
 10
-125.4823
 20
-99.8132
 30
0.0
 10
-125.4823
 20
-99.8132
 30
0.0
 10
-125.4823
 20
-99.8132
 30
0.0
 10
-122.3343
 20
-102.9612
 30
0.0
 10
-122.3343
 20
-102.9612
 30
0.0
 10
-122.3343
 20
-102.9612
 30
0.0
 10
-122.3343
 20
-102.9612
 30
0.0
 10
-125.4823
 20
-106.1091
 30
0.0
 10
-125.4823
 20
-106.1091
 30
0.0
 10
-125.4823
 20
-106.1091
 30
0.0
 10
-125.4823
 20
-106.1091
 30
0.0
 10
-128.6303
 20
-102.9612
 30
0.0
 10
-128.6303
 20
-102.9612
 30
0.0
  0
SPLINE
  5
9A
330
1F
100
AcDbEntity
  8
layer 1
 62
     7
100
AcDbSpline
210
0.0
220
0.0
230
1.0
 70
    11
 71
     3
 72
    24
 73
    20
 74
     0
 42
0.0000000001
 43
0.0000000001
 12
1.0
 22
0.0
 32
0.0
 13
1.0
 23
0.0
 33
0.0
 40
0.0
 40
0.0
 40
0.0
 40
0.0
 40
0.1666666666666667
 40
0.1666666666666667
 40
0.1666666666666667
 40
0.1666666666666667
 40
0.3333333333333333
 40
0.3333333333333333
 40
0.3333333333333333
 40
0.3333333333333333
 40
0.5
 40
0.5
 40
0.5
 40
0.5
 40
0.6666666666666666
 40
0.6666666666666666
 40
0.6666666666666666
 40
0.6666666666666666
 40
1.0
 40
1.0
 40
1.0
 40
1.0
 10
-133.7551
 20
-98.0112
 30
0.0
 10
-133.7551
 20
-98.0112
 30
0.0
 10
-133.7874
 20
-94.759
 30
0.0
 10
-133.7874
 20
-94.759
 30
0.0
 10
-133.7874
 20
-94.759
 30
0.0
 10
-133.7874
 20
-94.759
 30
0.0
 10
-130.7004
 20
-94.7326
 30
0.0
 10
-130.7004
 20
-94.7326
 30
0.0
 10
-130.7004
 20
-94.7326
 30
0.0
 10
-130.7004
 20
-94.7326
 30
0.0
 10
-128.4472
 20
-97.0417
 30
0.0
 10
-128.4472
 20
-97.0417
 30
0.0
 10
-128.4472
 20
-97.0417
 30
0.0
 10
-128.4472
 20
-97.0417
 30
0.0
 10
-131.5951
 20
-100.1897
 30
0.0
 10
-131.5951
 20
-100.1897
 30
0.0
 10
-131.5951
 20
-100.1897
 30
0.0
 10
-131.5951
 20
-100.1897
 30
0.0
 10
-133.7551
 20
-98.0112
 30
0.0
 10
-133.7551
 20
-98.0112
 30
0.0
  0
SPLINE
  5
9B
330
1F
100
AcDbEntity
  8
layer 1
 62
     7
100
AcDbSpline
210
0.0
220
0.0
230
1.0
 70
    11
 71
     3
 72
    24
 73
    20
 74
     0
 42
0.0000000001
 43
0.0000000001
 12
1.0
 22
0.0
 32
0.0
 13
1.0
 23
0.0
 33
0.0
 40
0.0
 40
0.0
 40
0.0
 40
0.0
 40
0.1666666666666667
 40
0.1666666666666667
 40
0.1666666666666667
 40
0.1666666666666667
 40
0.3333333333333333
 40
0.3333333333333333
 40
0.3333333333333333
 40
0.3333333333333333
 40
0.5
 40
0.5
 40
0.5
 40
0.5
 40
0.6666666666666666
 40
0.6666666666666666
 40
0.6666666666666666
 40
0.6666666666666666
 40
1.0
 40
1.0
 40
1.0
 40
1.0
 10
-117.1527
 20
-97.9695
 30
0.0
 10
-117.1527
 20
-97.9695
 30
0.0
 10
-117.1204
 20
-94.7173
 30
0.0
 10
-117.1204
 20
-94.7173
 30
0.0
 10
-117.1204
 20
-94.7173
 30
0.0
 10
-117.1204
 20
-94.7173
 30
0.0
 10
-120.2074
 20
-94.691
 30
0.0
 10
-120.2074
 20
-94.691
 30
0.0
 10
-120.2074
 20
-94.691
 30
0.0
 10
-120.2074
 20
-94.691
 30
0.0
 10
-122.4606
 20
-97.0001
 30
0.0
 10
-122.4606
 20
-97.0001
 30
0.0
 10
-122.4606
 20
-97.0001
 30
0.0
 10
-122.4606
 20
-97.0001
 30
0.0
 10
-119.3126
 20
-100.148
 30
0.0
 10
-119.3126
 20
-100.148
 30
0.0
 10
-119.3126
 20
-100.148
 30
0.0
 10
-119.3126
 20
-100.148
 30
0.0
 10
-117.1527
 20
-97.9695
 30
0.0
 10
-117.1527
 20
-97.9695
 30
0.0
  0
SPLINE
  5
9C
330
1F
100
AcDbEntity
  8
layer 1
 62
     7
100
AcDbSpline
210
0.0
220
0.0
230
1.0
 70
    11
 71
     3
 72
    20
 73
    16
 74
     0
 42
0.0000000001
 43
0.0000000001
 12
1.0
 22
0.0
 32
0.0
 13
1.0
 23
0.0
 33
0.0
 40
0.0
 40
0.0
 40
0.0
 40
0.0
 40
0.2
 40
0.2
 40
0.2
 40
0.2
 40
0.4
 40
0.4
 40
0.4
 40
0.4
 40
0.6
 40
0.6
 40
0.6
 40
0.6
 40
1.0
 40
1.0
 40
1.0
 40
1.0
 10
-173.364
 20
-102.9612
 30
0.0
 10
-173.364
 20
-102.9612
 30
0.0
 10
-170.216
 20
-99.8132
 30
0.0
 10
-170.216
 20
-99.8132
 30
0.0
 10
-170.216
 20
-99.8132
 30
0.0
 10
-170.216
 20
-99.8132
 30
0.0
 10
-167.0681
 20
-102.9612
 30
0.0
 10
-167.0681
 20
-102.9612
 30
0.0
 10
-167.0681
 20
-102.9612
 30
0.0
 10
-167.0681
 20
-102.9612
 30
0.0
 10
-170.216
 20
-106.1091
 30
0.0
 10
-170.216
 20
-106.1091
 30
0.0
 10
-170.216
 20
-106.1091
 30
0.0
 10
-170.216
 20
-106.1091
 30
0.0
 10
-173.364
 20
-102.9612
 30
0.0
 10
-173.364
 20
-102.9612
 30
0.0
  0
SPLINE
  5
9D
330
1F
100
AcDbEntity
  8
layer 1
 62
     7
100
AcDbSpline
210
0.0
220
0.0
230
1.0
 70
    11
 71
     3
 72
    24
 73
    20
 74
     0
 42
0.0000000001
 43
0.0000000001
 12
1.0
 22
0.0
 32
0.0
 13
1.0
 23
0.0
 33
0.0
 40
0.0
 40
0.0
 40
0.0
 40
0.0
 40
0.1666666666666667
 40
0.1666666666666667
 40
0.1666666666666667
 40
0.1666666666666667
 40
0.3333333333333333
 40
0.3333333333333333
 40
0.3333333333333333
 40
0.3333333333333333
 40
0.5
 40
0.5
 40
0.5
 40
0.5
 40
0.6666666666666666
 40
0.6666666666666666
 40
0.6666666666666666
 40
0.6666666666666666
 40
1.0
 40
1.0
 40
1.0
 40
1.0
 10
-178.489
 20
-98.0112
 30
0.0
 10
-178.489
 20
-98.0112
 30
0.0
 10
-178.5212
 20
-94.759
 30
0.0
 10
-178.5212
 20
-94.759
 30
0.0
 10
-178.5212
 20
-94.759
 30
0.0
 10
-178.5212
 20
-94.759
 30
0.0
 10
-175.4343
 20
-94.7326
 30
0.0
 10
-175.4343
 20
-94.7326
 30
0.0
 10
-175.4343
 20
-94.7326
 30
0.0
 10
-175.4343
 20
-94.7326
 30
0.0
 10
-173.1811
 20
-97.0417
 30
0.0
 10
-173.1811
 20
-97.0417
 30
0.0
 10
-173.1811
 20
-97.0417
 30
0.0
 10
-173.1811
 20
-97.0417
 30
0.0
 10
-176.329
 20
-100.1897
 30
0.0
 10
-176.329
 20
-100.1897
 30
0.0
 10
-176.329
 20
-100.1897
 30
0.0
 10
-176.329
 20
-100.1897
 30
0.0
 10
-178.489
 20
-98.0112
 30
0.0
 10
-178.489
 20
-98.0112
 30
0.0
  0
SPLINE
  5
9E
330
1F
100
AcDbEntity
  8
layer 1
 62
     7
100
AcDbSpline
210
0.0
220
0.0
230
1.0
 70
    11
 71
     3
 72
    24
 73
    20
 74
     0
 42
0.0000000001
 43
0.0000000001
 12
1.0
 22
0.0
 32
0.0
 13
1.0
 23
0.0
 33
0.0
 40
0.0
 40
0.0
 40
0.0
 40
0.0
 40
0.1666666666666667
 40
0.1666666666666667
 40
0.1666666666666667
 40
0.1666666666666667
 40
0.3333333333333333
 40
0.3333333333333333
 40
0.3333333333333333
 40
0.3333333333333333
 40
0.5
 40
0.5
 40
0.5
 40
0.5
 40
0.6666666666666666
 40
0.6666666666666666
 40
0.6666666666666666
 40
0.6666666666666666
 40
1.0
 40
1.0
 40
1.0
 40
1.0
 10
-161.8866
 20
-97.9695
 30
0.0
 10
-161.8866
 20
-97.9695
 30
0.0
 10
-161.8543
 20
-94.7173
 30
0.0
 10
-161.8543
 20
-94.7173
 30
0.0
 10
-161.8543
 20
-94.7173
 30
0.0
 10
-161.8543
 20
-94.7173
 30
0.0
 10
-164.9413
 20
-94.691
 30
0.0
 10
-164.9413
 20
-94.691
 30
0.0
 10
-164.9413
 20
-94.691
 30
0.0
 10
-164.9413
 20
-94.691
 30
0.0
 10
-167.1945
 20
-97.0001
 30
0.0
 10
-167.1945
 20
-97.0001
 30
0.0
 10
-167.1945
 20
-97.0001
 30
0.0
 10
-167.1945
 20
-97.0001
 30
0.0
 10
-164.0465
 20
-100.148
 30
0.0
 10
-164.0465
 20
-100.148
 30
0.0
 10
-164.0465
 20
-100.148
 30
0.0
 10
-164.0465
 20
-100.148
 30
0.0
 10
-161.8866
 20
-97.9695
 30
0.0
 10
-161.8866
 20
-97.9695
 30
0.0
  0
SPLINE
  5
9F
330
1F
100
AcDbEntity
  8
layer 1
 62
     7
100
AcDbSpline
210
0.0
220
0.0
230
1.0
 70
    11
 71
     3
 72
    28
 73
    24
 74
     0
 42
0.0000000001
 43
0.0000000001
 12
1.0
 22
0.0
 32
0.0
 13
1.0
 23
0.0
 33
0.0
 40
0.0
 40
0.0
 40
0.0
 40
0.0
 40
0.1428571428571428
 40
0.1428571428571428
 40
0.1428571428571428
 40
0.1428571428571428
 40
0.2857142857142857
 40
0.2857142857142857
 40
0.2857142857142857
 40
0.2857142857142857
 40
0.4285714285714285
 40
0.4285714285714285
 40
0.4285714285714285
 40
0.4285714285714285
 40
0.5714285714285714
 40
0.5714285714285714
 40
0.5714285714285714
 40
0.5714285714285714
 40
0.7142857142857143
 40
0.7142857142857143
 40
0.7142857142857143
 40
0.7142857142857143
 40
1.0
 40
1.0
 40
1.0
 40
1.0
 10
-155.888
 20
123.8748
 30
0.0
 10
-155.888
 20
123.8748
 30
0.0
 10
-155.888
 20
116.9778
 30
0.0
 10
-155.888
 20
116.9778
 30
0.0
 10
-155.888
 20
116.9778
 30
0.0
 10
-155.888
 20
116.9778
 30
0.0
 10
-151.1436
 20
112.1009
 30
0.0
 10
-151.1436
 20
112.1009
 30
0.0
 10
-151.1436
 20
112.1009
 30
0.0
 10
-151.1436
 20
112.1009
 30
0.0
 10
-144.4342
 20
112.1009
 30
0.0
 10
-144.4342
 20
112.1009
 30
0.0
 10
-144.4342
 20
112.1009
 30
0.0
 10
-144.4342
 20
112.1009
 30
0.0
 10
-139.6898
 20
116.9778
 30
0.0
 10
-139.6898
 20
116.9778
 30
0.0
 10
-139.6898
 20
116.9778
 30
0.0
 10
-139.6898
 20
116.9778
 30
0.0
 10
-139.6898
 20
123.8748
 30
0.0
 10
-139.6898
 20
123.8748
 30
0.0
 10
-139.6898
 20
123.8748
 30
0.0
 10
-139.6898
 20
123.8748
 30
0.0
 10
-155.888
 20
123.8748
 30
0.0
 10
-155.888
 20
123.8748
 30
0.0
  0
SPLINE
  5
A0
330
1F
100
AcDbEntity
  8
layer 1
 62
     7
100
AcDbSpline
210
0.0
220
0.0
230
1.0
 70
    11
 71
     3
 72
    28
 73
    24
 74
     0
 42
0.0000000001
 43
0.0000000001
 12
1.0
 22
0.0
 32
0.0
 13
1.0
 23
0.0
 33
0.0
 40
0.0
 40
0.0
 40
0.0
 40
0.0
 40
0.1428571428571428
 40
0.1428571428571428
 40
0.1428571428571428
 40
0.1428571428571428
 40
0.2857142857142857
 40
0.2857142857142857
 40
0.2857142857142857
 40
0.2857142857142857
 40
0.4285714285714285
 40
0.4285714285714285
 40
0.4285714285714285
 40
0.4285714285714285
 40
0.5714285714285714
 40
0.5714285714285714
 40
0.5714285714285714
 40
0.5714285714285714
 40
0.7142857142857143
 40
0.7142857142857143
 40
0.7142857142857143
 40
0.7142857142857143
 40
1.0
 40
1.0
 40
1.0
 40
1.0
 10
-111.3233
 20
123.9625
 30
0.0
 10
-111.3233
 20
123.9625
 30
0.0
 10
-111.3233
 20
117.0655
 30
0.0
 10
-111.3233
 20
117.0655
 30
0.0
 10
-111.3233
 20
117.0655
 30
0.0
 10
-111.3233
 20
117.0655
 30
0.0
 10
-106.579
 20
112.1886
 30
0.0
 10
-106.579
 20
112.1886
 30
0.0
 10
-106.579
 20
112.1886
 30
0.0
 10
-106.579
 20
112.1886
 30
0.0
 10
-99.8695
 20
112.1886
 30
0.0
 10
-99.8695
 20
112.1886
 30
0.0
 10
-99.8695
 20
112.1886
 30
0.0
 10
-99.8695
 20
112.1886
 30
0.0
 10
-95.1252
 20
117.0655
 30
0.0
 10
-95.1252
 20
117.0655
 30
0.0
 10
-95.1252
 20
117.0655
 30
0.0
 10
-95.1252
 20
117.0655
 30
0.0
 10
-95.1252
 20
123.9625
 30
0.0
 10
-95.1252
 20
123.9625
 30
0.0
 10
-95.1252
 20
123.9625
 30
0.0
 10
-95.1252
 20
123.9625
 30
0.0
 10
-111.3233
 20
123.9625
 30
0.0
 10
-111.3233
 20
123.9625
 30
0.0
  0
SPLINE
  5
A1
330
1F
100
AcDbEntity
  8
layer 1
 62
     7
100
AcDbSpline
210
0.0
220
0.0
230
1.0
 70
    11
 71
     3
 72
    20
 73
    16
 74
     0
 42
0.0000000001
 43
0.0000000001
 12
1.0
 22
0.0
 32
0.0
 13
1.0
 23
0.0
 33
0.0
 40
0.0
 40
0.0
 40
0.0
 40
0.0
 40
0.2
 40
0.2
 40
0.2
 40
0.2
 40
0.4
 40
0.4
 40
0.4
 40
0.4
 40
0.6
 40
0.6
 40
0.6
 40
0.6
 40
1.0
 40
1.0
 40
1.0
 40
1.0
 10
-84.0152
 20
120.4211
 30
0.0
 10
-84.0152
 20
120.4211
 30
0.0
 10
-80.8672
 20
117.2732
 30
0.0
 10
-80.8672
 20
117.2732
 30
0.0
 10
-80.8672
 20
117.2732
 30
0.0
 10
-80.8672
 20
117.2732
 30
0.0
 10
-77.7193
 20
120.4211
 30
0.0
 10
-77.7193
 20
120.4211
 30
0.0
 10
-77.7193
 20
120.4211
 30
0.0
 10
-77.7193
 20
120.4211
 30
0.0
 10
-80.8672
 20
123.5691
 30
0.0
 10
-80.8672
 20
123.5691
 30
0.0
 10
-80.8672
 20
123.5691
 30
0.0
 10
-80.8672
 20
123.5691
 30
0.0
 10
-84.0152
 20
120.4211
 30
0.0
 10
-84.0152
 20
120.4211
 30
0.0
  0
SPLINE
  5
A2
330
1F
100
AcDbEntity
  8
layer 1
 62
     7
100
AcDbSpline
210
0.0
220
0.0
230
1.0
 70
    11
 71
     3
 72
    24
 73
    20
 74
     0
 42
0.0000000001
 43
0.0000000001
 12
1.0
 22
0.0
 32
0.0
 13
1.0
 23
0.0
 33
0.0
 40
0.0
 40
0.0
 40
0.0
 40
0.0
 40
0.1666666666666667
 40
0.1666666666666667
 40
0.1666666666666667
 40
0.1666666666666667
 40
0.3333333333333333
 40
0.3333333333333333
 40
0.3333333333333333
 40
0.3333333333333333
 40
0.5
 40
0.5
 40
0.5
 40
0.5
 40
0.6666666666666666
 40
0.6666666666666666
 40
0.6666666666666666
 40
0.6666666666666666
 40
1.0
 40
1.0
 40
1.0
 40
1.0
 10
-89.1402
 20
115.471
 30
0.0
 10
-89.1402
 20
115.471
 30
0.0
 10
-89.1724
 20
112.2188
 30
0.0
 10
-89.1724
 20
112.2188
 30
0.0
 10
-89.1724
 20
112.2188
 30
0.0
 10
-89.1724
 20
112.2188
 30
0.0
 10
-86.0855
 20
112.1924
 30
0.0
 10
-86.0855
 20
112.1924
 30
0.0
 10
-86.0855
 20
112.1924
 30
0.0
 10
-86.0855
 20
112.1924
 30
0.0
 10
-83.8323
 20
114.5015
 30
0.0
 10
-83.8323
 20
114.5015
 30
0.0
 10
-83.8323
 20
114.5015
 30
0.0
 10
-83.8323
 20
114.5015
 30
0.0
 10
-86.9802
 20
117.6495
 30
0.0
 10
-86.9802
 20
117.6495
 30
0.0
 10
-86.9802
 20
117.6495
 30
0.0
 10
-86.9802
 20
117.6495
 30
0.0
 10
-89.1402
 20
115.471
 30
0.0
 10
-89.1402
 20
115.471
 30
0.0
  0
SPLINE
  5
A3
330
1F
100
AcDbEntity
  8
layer 1
 62
     7
100
AcDbSpline
210
0.0
220
0.0
230
1.0
 70
    11
 71
     3
 72
    24
 73
    20
 74
     0
 42
0.0000000001
 43
0.0000000001
 12
1.0
 22
0.0
 32
0.0
 13
1.0
 23
0.0
 33
0.0
 40
0.0
 40
0.0
 40
0.0
 40
0.0
 40
0.1666666666666667
 40
0.1666666666666667
 40
0.1666666666666667
 40
0.1666666666666667
 40
0.3333333333333333
 40
0.3333333333333333
 40
0.3333333333333333
 40
0.3333333333333333
 40
0.5
 40
0.5
 40
0.5
 40
0.5
 40
0.6666666666666666
 40
0.6666666666666666
 40
0.6666666666666666
 40
0.6666666666666666
 40
1.0
 40
1.0
 40
1.0
 40
1.0
 10
-72.5376
 20
115.4293
 30
0.0
 10
-72.5376
 20
115.4293
 30
0.0
 10
-72.5054
 20
112.1772
 30
0.0
 10
-72.5054
 20
112.1772
 30
0.0
 10
-72.5054
 20
112.1772
 30
0.0
 10
-72.5054
 20
112.1772
 30
0.0
 10
-75.5923
 20
112.1508
 30
0.0
 10
-75.5923
 20
112.1508
 30
0.0
 10
-75.5923
 20
112.1508
 30
0.0
 10
-75.5923
 20
112.1508
 30
0.0
 10
-77.8456
 20
114.4599
 30
0.0
 10
-77.8456
 20
114.4599
 30
0.0
 10
-77.8456
 20
114.4599
 30
0.0
 10
-77.8456
 20
114.4599
 30
0.0
 10
-74.6976
 20
117.6078
 30
0.0
 10
-74.6976
 20
117.6078
 30
0.0
 10
-74.6976
 20
117.6078
 30
0.0
 10
-74.6976
 20
117.6078
 30
0.0
 10
-72.5376
 20
115.4293
 30
0.0
 10
-72.5376
 20
115.4293
 30
0.0
  0
SPLINE
  5
A4
330
1F
100
AcDbEntity
  8
layer 1
 62
     7
100
AcDbSpline
210
0.0
220
0.0
230
1.0
 70
    11
 71
     3
 72
    20
 73
    16
 74
     0
 42
0.0000000001
 43
0.0000000001
 12
1.0
 22
0.0
 32
0.0
 13
1.0
 23
0.0
 33
0.0
 40
0.0
 40
0.0
 40
0.0
 40
0.0
 40
0.2
 40
0.2
 40
0.2
 40
0.2
 40
0.4
 40
0.4
 40
0.4
 40
0.4
 40
0.6
 40
0.6
 40
0.6
 40
0.6
 40
1.0
 40
1.0
 40
1.0
 40
1.0
 10
-128.7304
 20
120.4211
 30
0.0
 10
-128.7304
 20
120.4211
 30
0.0
 10
-125.5825
 20
117.2732
 30
0.0
 10
-125.5825
 20
117.2732
 30
0.0
 10
-125.5825
 20
117.2732
 30
0.0
 10
-125.5825
 20
117.2732
 30
0.0
 10
-122.4345
 20
120.4211
 30
0.0
 10
-122.4345
 20
120.4211
 30
0.0
 10
-122.4345
 20
120.4211
 30
0.0
 10
-122.4345
 20
120.4211
 30
0.0
 10
-125.5825
 20
123.5691
 30
0.0
 10
-125.5825
 20
123.5691
 30
0.0
 10
-125.5825
 20
123.5691
 30
0.0
 10
-125.5825
 20
123.5691
 30
0.0
 10
-128.7304
 20
120.4211
 30
0.0
 10
-128.7304
 20
120.4211
 30
0.0
  0
SPLINE
  5
A5
330
1F
100
AcDbEntity
  8
layer 1
 62
     7
100
AcDbSpline
210
0.0
220
0.0
230
1.0
 70
    11
 71
     3
 72
    24
 73
    20
 74
     0
 42
0.0000000001
 43
0.0000000001
 12
1.0
 22
0.0
 32
0.0
 13
1.0
 23
0.0
 33
0.0
 40
0.0
 40
0.0
 40
0.0
 40
0.0
 40
0.1666666666666667
 40
0.1666666666666667
 40
0.1666666666666667
 40
0.1666666666666667
 40
0.3333333333333333
 40
0.3333333333333333
 40
0.3333333333333333
 40
0.3333333333333333
 40
0.5
 40
0.5
 40
0.5
 40
0.5
 40
0.6666666666666666
 40
0.6666666666666666
 40
0.6666666666666666
 40
0.6666666666666666
 40
1.0
 40
1.0
 40
1.0
 40
1.0
 10
-133.8553
 20
115.471
 30
0.0
 10
-133.8553
 20
115.471
 30
0.0
 10
-133.8875
 20
112.2188
 30
0.0
 10
-133.8875
 20
112.2188
 30
0.0
 10
-133.8875
 20
112.2188
 30
0.0
 10
-133.8875
 20
112.2188
 30
0.0
 10
-130.8005
 20
112.1924
 30
0.0
 10
-130.8005
 20
112.1924
 30
0.0
 10
-130.8005
 20
112.1924
 30
0.0
 10
-130.8005
 20
112.1924
 30
0.0
 10
-128.5473
 20
114.5015
 30
0.0
 10
-128.5473
 20
114.5015
 30
0.0
 10
-128.5473
 20
114.5015
 30
0.0
 10
-128.5473
 20
114.5015
 30
0.0
 10
-131.6953
 20
117.6495
 30
0.0
 10
-131.6953
 20
117.6495
 30
0.0
 10
-131.6953
 20
117.6495
 30
0.0
 10
-131.6953
 20
117.6495
 30
0.0
 10
-133.8553
 20
115.471
 30
0.0
 10
-133.8553
 20
115.471
 30
0.0
  0
SPLINE
  5
A6
330
1F
100
AcDbEntity
  8
layer 1
 62
     7
100
AcDbSpline
210
0.0
220
0.0
230
1.0
 70
    11
 71
     3
 72
    24
 73
    20
 74
     0
 42
0.0000000001
 43
0.0000000001
 12
1.0
 22
0.0
 32
0.0
 13
1.0
 23
0.0
 33
0.0
 40
0.0
 40
0.0
 40
0.0
 40
0.0
 40
0.1666666666666667
 40
0.1666666666666667
 40
0.1666666666666667
 40
0.1666666666666667
 40
0.3333333333333333
 40
0.3333333333333333
 40
0.3333333333333333
 40
0.3333333333333333
 40
0.5
 40
0.5
 40
0.5
 40
0.5
 40
0.6666666666666666
 40
0.6666666666666666
 40
0.6666666666666666
 40
0.6666666666666666
 40
1.0
 40
1.0
 40
1.0
 40
1.0
 10
-117.2528
 20
115.4293
 30
0.0
 10
-117.2528
 20
115.4293
 30
0.0
 10
-117.2206
 20
112.1772
 30
0.0
 10
-117.2206
 20
112.1772
 30
0.0
 10
-117.2206
 20
112.1772
 30
0.0
 10
-117.2206
 20
112.1772
 30
0.0
 10
-120.3076
 20
112.1508
 30
0.0
 10
-120.3076
 20
112.1508
 30
0.0
 10
-120.3076
 20
112.1508
 30
0.0
 10
-120.3076
 20
112.1508
 30
0.0
 10
-122.5608
 20
114.4599
 30
0.0
 10
-122.5608
 20
114.4599
 30
0.0
 10
-122.5608
 20
114.4599
 30
0.0
 10
-122.5608
 20
114.4599
 30
0.0
 10
-119.4128
 20
117.6078
 30
0.0
 10
-119.4128
 20
117.6078
 30
0.0
 10
-119.4128
 20
117.6078
 30
0.0
 10
-119.4128
 20
117.6078
 30
0.0
 10
-117.2528
 20
115.4293
 30
0.0
 10
-117.2528
 20
115.4293
 30
0.0
  0
SPLINE
  5
A7
330
1F
100
AcDbEntity
  8
layer 1
 62
     7
100
AcDbSpline
210
0.0
220
0.0
230
1.0
 70
    11
 71
     3
 72
    20
 73
    16
 74
     0
 42
0.0000000001
 43
0.0000000001
 12
1.0
 22
0.0
 32
0.0
 13
1.0
 23
0.0
 33
0.0
 40
0.0
 40
0.0
 40
0.0
 40
0.0
 40
0.2
 40
0.2
 40
0.2
 40
0.2
 40
0.4
 40
0.4
 40
0.4
 40
0.4
 40
0.6
 40
0.6
 40
0.6
 40
0.6
 40
1.0
 40
1.0
 40
1.0
 40
1.0
 10
-173.4642
 20
120.4211
 30
0.0
 10
-173.4642
 20
120.4211
 30
0.0
 10
-170.3162
 20
117.2732
 30
0.0
 10
-170.3162
 20
117.2732
 30
0.0
 10
-170.3162
 20
117.2732
 30
0.0
 10
-170.3162
 20
117.2732
 30
0.0
 10
-167.1682
 20
120.4211
 30
0.0
 10
-167.1682
 20
120.4211
 30
0.0
 10
-167.1682
 20
120.4211
 30
0.0
 10
-167.1682
 20
120.4211
 30
0.0
 10
-170.3162
 20
123.5691
 30
0.0
 10
-170.3162
 20
123.5691
 30
0.0
 10
-170.3162
 20
123.5691
 30
0.0
 10
-170.3162
 20
123.5691
 30
0.0
 10
-173.4642
 20
120.4211
 30
0.0
 10
-173.4642
 20
120.4211
 30
0.0
  0
SPLINE
  5
A8
330
1F
100
AcDbEntity
  8
layer 1
 62
     7
100
AcDbSpline
210
0.0
220
0.0
230
1.0
 70
    11
 71
     3
 72
    24
 73
    20
 74
     0
 42
0.0000000001
 43
0.0000000001
 12
1.0
 22
0.0
 32
0.0
 13
1.0
 23
0.0
 33
0.0
 40
0.0
 40
0.0
 40
0.0
 40
0.0
 40
0.1666666666666667
 40
0.1666666666666667
 40
0.1666666666666667
 40
0.1666666666666667
 40
0.3333333333333333
 40
0.3333333333333333
 40
0.3333333333333333
 40
0.3333333333333333
 40
0.5
 40
0.5
 40
0.5
 40
0.5
 40
0.6666666666666666
 40
0.6666666666666666
 40
0.6666666666666666
 40
0.6666666666666666
 40
1.0
 40
1.0
 40
1.0
 40
1.0
 10
-178.5891
 20
115.471
 30
0.0
 10
-178.5891
 20
115.471
 30
0.0
 10
-178.6214
 20
112.2188
 30
0.0
 10
-178.6214
 20
112.2188
 30
0.0
 10
-178.6214
 20
112.2188
 30
0.0
 10
-178.6214
 20
112.2188
 30
0.0
 10
-175.5344
 20
112.1924
 30
0.0
 10
-175.5344
 20
112.1924
 30
0.0
 10
-175.5344
 20
112.1924
 30
0.0
 10
-175.5344
 20
112.1924
 30
0.0
 10
-173.2812
 20
114.5015
 30
0.0
 10
-173.2812
 20
114.5015
 30
0.0
 10
-173.2812
 20
114.5015
 30
0.0
 10
-173.2812
 20
114.5015
 30
0.0
 10
-176.4292
 20
117.6495
 30
0.0
 10
-176.4292
 20
117.6495
 30
0.0
 10
-176.4292
 20
117.6495
 30
0.0
 10
-176.4292
 20
117.6495
 30
0.0
 10
-178.5891
 20
115.471
 30
0.0
 10
-178.5891
 20
115.471
 30
0.0
  0
SPLINE
  5
A9
330
1F
100
AcDbEntity
  8
layer 1
 62
     7
100
AcDbSpline
210
0.0
220
0.0
230
1.0
 70
    11
 71
     3
 72
    24
 73
    20
 74
     0
 42
0.0000000001
 43
0.0000000001
 12
1.0
 22
0.0
 32
0.0
 13
1.0
 23
0.0
 33
0.0
 40
0.0
 40
0.0
 40
0.0
 40
0.0
 40
0.1666666666666667
 40
0.1666666666666667
 40
0.1666666666666667
 40
0.1666666666666667
 40
0.3333333333333333
 40
0.3333333333333333
 40
0.3333333333333333
 40
0.3333333333333333
 40
0.5
 40
0.5
 40
0.5
 40
0.5
 40
0.6666666666666666
 40
0.6666666666666666
 40
0.6666666666666666
 40
0.6666666666666666
 40
1.0
 40
1.0
 40
1.0
 40
1.0
 10
-161.9866
 20
115.4293
 30
0.0
 10
-161.9866
 20
115.4293
 30
0.0
 10
-161.9543
 20
112.1772
 30
0.0
 10
-161.9543
 20
112.1772
 30
0.0
 10
-161.9543
 20
112.1772
 30
0.0
 10
-161.9543
 20
112.1772
 30
0.0
 10
-165.0413
 20
112.1508
 30
0.0
 10
-165.0413
 20
112.1508
 30
0.0
 10
-165.0413
 20
112.1508
 30
0.0
 10
-165.0413
 20
112.1508
 30
0.0
 10
-167.2945
 20
114.4599
 30
0.0
 10
-167.2945
 20
114.4599
 30
0.0
 10
-167.2945
 20
114.4599
 30
0.0
 10
-167.2945
 20
114.4599
 30
0.0
 10
-164.1466
 20
117.6078
 30
0.0
 10
-164.1466
 20
117.6078
 30
0.0
 10
-164.1466
 20
117.6078
 30
0.0
 10
-164.1466
 20
117.6078
 30
0.0
 10
-161.9866
 20
115.4293
 30
0.0
 10
-161.9866
 20
115.4293
 30
0.0
  0
SPLINE
  5
AA
330
1F
100
AcDbEntity
  8
layer 1
 62
     7
100
AcDbSpline
210
0.0
220
0.0
230
1.0
 70
    11
 71
     3
 72
    36
 73
    32
 74
     0
 42
0.0000000001
 43
0.0000000001
 12
1.0
 22
0.0
 32
0.0
 13
1.0
 23
0.0
 33
0.0
 40
0.0
 40
0.0
 40
0.0
 40
0.0
 40
0.1111111111111111
 40
0.1111111111111111
 40
0.1111111111111111
 40
0.1111111111111111
 40
0.2222222222222222
 40
0.2222222222222222
 40
0.2222222222222222
 40
0.2222222222222222
 40
0.3333333333333333
 40
0.3333333333333333
 40
0.3333333333333333
 40
0.3333333333333333
 40
0.4444444444444444
 40
0.4444444444444444
 40
0.4444444444444444
 40
0.4444444444444444
 40
0.5555555555555556
 40
0.5555555555555556
 40
0.5555555555555556
 40
0.5555555555555556
 40
0.6666666666666666
 40
0.6666666666666666
 40
0.6666666666666666
 40
0.6666666666666666
 40
0.7777777777777778
 40
0.7777777777777778
 40
0.7777777777777778
 40
0.7777777777777778
 40
1.0
 40
1.0
 40
1.0
 40
1.0
 10
-144.334
 20
-22.2315
 30
0.0
 10
-144.334
 20
-22.2315
 30
0.0
 10
-151.0435
 20
-22.2315
 30
0.0
 10
-151.0435
 20
-22.2315
 30
0.0
 10
-151.0435
 20
-22.2315
 30
0.0
 10
-151.0435
 20
-22.2315
 30
0.0
 10
-155.7878
 20
-17.3546
 30
0.0
 10
-155.7878
 20
-17.3546
 30
0.0
 10
-155.7878
 20
-17.3546
 30
0.0
 10
-155.7878
 20
-17.3546
 30
0.0
 10
-155.7878
 20
-10.4576
 30
0.0
 10
-155.7878
 20
-10.4576
 30
0.0
 10
-155.7878
 20
-10.4576
 30
0.0
 10
-155.7878
 20
-10.4576
 30
0.0
 10
-151.0435
 20
-5.5807
 30
0.0
 10
-151.0435
 20
-5.5807
 30
0.0
 10
-151.0435
 20
-5.5807
 30
0.0
 10
-151.0435
 20
-5.5807
 30
0.0
 10
-144.334
 20
-5.5807
 30
0.0
 10
-144.334
 20
-5.5807
 30
0.0
 10
-144.334
 20
-5.5807
 30
0.0
 10
-144.334
 20
-5.5807
 30
0.0
 10
-139.5897
 20
-10.4576
 30
0.0
 10
-139.5897
 20
-10.4576
 30
0.0
 10
-139.5897
 20
-10.4576
 30
0.0
 10
-139.5897
 20
-10.4576
 30
0.0
 10
-139.5897
 20
-17.3546
 30
0.0
 10
-139.5897
 20
-17.3546
 30
0.0
 10
-139.5897
 20
-17.3546
 30
0.0
 10
-139.5897
 20
-17.3546
 30
0.0
 10
-144.334
 20
-22.2315
 30
0.0
 10
-144.334
 20
-22.2315
 30
0.0
  0
SPLINE
  5
AB
330
1F
100
AcDbEntity
  8
layer 1
 62
     7
100
AcDbSpline
210
0.0
220
0.0
230
1.0
 70
    11
 71
     3
 72
    36
 73
    32
 74
     0
 42
0.0000000001
 43
0.0000000001
 12
1.0
 22
0.0
 32
0.0
 13
1.0
 23
0.0
 33
0.0
 40
0.0
 40
0.0
 40
0.0
 40
0.0
 40
0.1111111111111111
 40
0.1111111111111111
 40
0.1111111111111111
 40
0.1111111111111111
 40
0.2222222222222222
 40
0.2222222222222222
 40
0.2222222222222222
 40
0.2222222222222222
 40
0.3333333333333333
 40
0.3333333333333333
 40
0.3333333333333333
 40
0.3333333333333333
 40
0.4444444444444444
 40
0.4444444444444444
 40
0.4444444444444444
 40
0.4444444444444444
 40
0.5555555555555556
 40
0.5555555555555556
 40
0.5555555555555556
 40
0.5555555555555556
 40
0.6666666666666666
 40
0.6666666666666666
 40
0.6666666666666666
 40
0.6666666666666666
 40
0.7777777777777778
 40
0.7777777777777778
 40
0.7777777777777778
 40
0.7777777777777778
 40
1.0
 40
1.0
 40
1.0
 40
1.0
 10
-99.7694
 20
-22.3192
 30
0.0
 10
-99.7694
 20
-22.3192
 30
0.0
 10
-106.4788
 20
-22.3192
 30
0.0
 10
-106.4788
 20
-22.3192
 30
0.0
 10
-106.4788
 20
-22.3192
 30
0.0
 10
-106.4788
 20
-22.3192
 30
0.0
 10
-111.2232
 20
-17.4423
 30
0.0
 10
-111.2232
 20
-17.4423
 30
0.0
 10
-111.2232
 20
-17.4423
 30
0.0
 10
-111.2232
 20
-17.4423
 30
0.0
 10
-111.2232
 20
-10.5454
 30
0.0
 10
-111.2232
 20
-10.5454
 30
0.0
 10
-111.2232
 20
-10.5454
 30
0.0
 10
-111.2232
 20
-10.5454
 30
0.0
 10
-106.4788
 20
-5.6685
 30
0.0
 10
-106.4788
 20
-5.6685
 30
0.0
 10
-106.4788
 20
-5.6685
 30
0.0
 10
-106.4788
 20
-5.6685
 30
0.0
 10
-99.7694
 20
-5.6685
 30
0.0
 10
-99.7694
 20
-5.6685
 30
0.0
 10
-99.7694
 20
-5.6685
 30
0.0
 10
-99.7694
 20
-5.6685
 30
0.0
 10
-95.025
 20
-10.5454
 30
0.0
 10
-95.025
 20
-10.5454
 30
0.0
 10
-95.025
 20
-10.5454
 30
0.0
 10
-95.025
 20
-10.5454
 30
0.0
 10
-95.025
 20
-17.4423
 30
0.0
 10
-95.025
 20
-17.4423
 30
0.0
 10
-95.025
 20
-17.4423
 30
0.0
 10
-95.025
 20
-17.4423
 30
0.0
 10
-99.7694
 20
-22.3192
 30
0.0
 10
-99.7694
 20
-22.3192
 30
0.0
  0
SPLINE
  5
AC
330
1F
100
AcDbEntity
  8
layer 1
 62
     7
100
AcDbSpline
210
0.0
220
0.0
230
1.0
 70
    11
 71
     3
 72
    20
 73
    16
 74
     0
 42
0.0000000001
 43
0.0000000001
 12
1.0
 22
0.0
 32
0.0
 13
1.0
 23
0.0
 33
0.0
 40
0.0
 40
0.0
 40
0.0
 40
0.0
 40
0.2
 40
0.2
 40
0.2
 40
0.2
 40
0.4
 40
0.4
 40
0.4
 40
0.4
 40
0.6
 40
0.6
 40
0.6
 40
0.6
 40
1.0
 40
1.0
 40
1.0
 40
1.0
 10
-83.9152
 20
-13.9009
 30
0.0
 10
-83.9152
 20
-13.9009
 30
0.0
 10
-80.7672
 20
-10.753
 30
0.0
 10
-80.7672
 20
-10.753
 30
0.0
 10
-80.7672
 20
-10.753
 30
0.0
 10
-80.7672
 20
-10.753
 30
0.0
 10
-77.6193
 20
-13.9009
 30
0.0
 10
-77.6193
 20
-13.9009
 30
0.0
 10
-77.6193
 20
-13.9009
 30
0.0
 10
-77.6193
 20
-13.9009
 30
0.0
 10
-80.7672
 20
-17.0489
 30
0.0
 10
-80.7672
 20
-17.0489
 30
0.0
 10
-80.7672
 20
-17.0489
 30
0.0
 10
-80.7672
 20
-17.0489
 30
0.0
 10
-83.9152
 20
-13.9009
 30
0.0
 10
-83.9152
 20
-13.9009
 30
0.0
  0
SPLINE
  5
AD
330
1F
100
AcDbEntity
  8
layer 1
 62
     7
100
AcDbSpline
210
0.0
220
0.0
230
1.0
 70
    11
 71
     3
 72
    24
 73
    20
 74
     0
 42
0.0000000001
 43
0.0000000001
 12
1.0
 22
0.0
 32
0.0
 13
1.0
 23
0.0
 33
0.0
 40
0.0
 40
0.0
 40
0.0
 40
0.0
 40
0.1666666666666667
 40
0.1666666666666667
 40
0.1666666666666667
 40
0.1666666666666667
 40
0.3333333333333333
 40
0.3333333333333333
 40
0.3333333333333333
 40
0.3333333333333333
 40
0.5
 40
0.5
 40
0.5
 40
0.5
 40
0.6666666666666666
 40
0.6666666666666666
 40
0.6666666666666666
 40
0.6666666666666666
 40
1.0
 40
1.0
 40
1.0
 40
1.0
 10
-89.04
 20
-8.9509
 30
0.0
 10
-89.04
 20
-8.9509
 30
0.0
 10
-89.0723
 20
-5.6988
 30
0.0
 10
-89.0723
 20
-5.6988
 30
0.0
 10
-89.0723
 20
-5.6988
 30
0.0
 10
-89.0723
 20
-5.6988
 30
0.0
 10
-85.9853
 20
-5.6724
 30
0.0
 10
-85.9853
 20
-5.6724
 30
0.0
 10
-85.9853
 20
-5.6724
 30
0.0
 10
-85.9853
 20
-5.6724
 30
0.0
 10
-83.7321
 20
-7.9815
 30
0.0
 10
-83.7321
 20
-7.9815
 30
0.0
 10
-83.7321
 20
-7.9815
 30
0.0
 10
-83.7321
 20
-7.9815
 30
0.0
 10
-86.8801
 20
-11.1295
 30
0.0
 10
-86.8801
 20
-11.1295
 30
0.0
 10
-86.8801
 20
-11.1295
 30
0.0
 10
-86.8801
 20
-11.1295
 30
0.0
 10
-89.04
 20
-8.9509
 30
0.0
 10
-89.04
 20
-8.9509
 30
0.0
  0
SPLINE
  5
AE
330
1F
100
AcDbEntity
  8
layer 1
 62
     7
100
AcDbSpline
210
0.0
220
0.0
230
1.0
 70
    11
 71
     3
 72
    24
 73
    20
 74
     0
 42
0.0000000001
 43
0.0000000001
 12
1.0
 22
0.0
 32
0.0
 13
1.0
 23
0.0
 33
0.0
 40
0.0
 40
0.0
 40
0.0
 40
0.0
 40
0.1666666666666667
 40
0.1666666666666667
 40
0.1666666666666667
 40
0.1666666666666667
 40
0.3333333333333333
 40
0.3333333333333333
 40
0.3333333333333333
 40
0.3333333333333333
 40
0.5
 40
0.5
 40
0.5
 40
0.5
 40
0.6666666666666666
 40
0.6666666666666666
 40
0.6666666666666666
 40
0.6666666666666666
 40
1.0
 40
1.0
 40
1.0
 40
1.0
 10
-72.4376
 20
-8.9092
 30
0.0
 10
-72.4376
 20
-8.9092
 30
0.0
 10
-72.4053
 20
-5.657
 30
0.0
 10
-72.4053
 20
-5.657
 30
0.0
 10
-72.4053
 20
-5.657
 30
0.0
 10
-72.4053
 20
-5.657
 30
0.0
 10
-75.4923
 20
-5.6306
 30
0.0
 10
-75.4923
 20
-5.6306
 30
0.0
 10
-75.4923
 20
-5.6306
 30
0.0
 10
-75.4923
 20
-5.6306
 30
0.0
 10
-77.7455
 20
-7.9397
 30
0.0
 10
-77.7455
 20
-7.9397
 30
0.0
 10
-77.7455
 20
-7.9397
 30
0.0
 10
-77.7455
 20
-7.9397
 30
0.0
 10
-74.5976
 20
-11.0877
 30
0.0
 10
-74.5976
 20
-11.0877
 30
0.0
 10
-74.5976
 20
-11.0877
 30
0.0
 10
-74.5976
 20
-11.0877
 30
0.0
 10
-72.4376
 20
-8.9092
 30
0.0
 10
-72.4376
 20
-8.9092
 30
0.0
  0
SPLINE
  5
AF
330
1F
100
AcDbEntity
  8
layer 1
 62
     7
100
AcDbSpline
210
0.0
220
0.0
230
1.0
 70
    11
 71
     3
 72
    24
 73
    20
 74
     0
 42
0.0000000001
 43
0.0000000001
 12
1.0
 22
0.0
 32
0.0
 13
1.0
 23
0.0
 33
0.0
 40
0.0
 40
0.0
 40
0.0
 40
0.0
 40
0.1666666666666667
 40
0.1666666666666667
 40
0.1666666666666667
 40
0.1666666666666667
 40
0.3333333333333333
 40
0.3333333333333333
 40
0.3333333333333333
 40
0.3333333333333333
 40
0.5
 40
0.5
 40
0.5
 40
0.5
 40
0.6666666666666666
 40
0.6666666666666666
 40
0.6666666666666666
 40
0.6666666666666666
 40
1.0
 40
1.0
 40
1.0
 40
1.0
 10
-89.04
 20
-19.0259
 30
0.0
 10
-89.04
 20
-19.0259
 30
0.0
 10
-89.0723
 20
-22.2781
 30
0.0
 10
-89.0723
 20
-22.2781
 30
0.0
 10
-89.0723
 20
-22.2781
 30
0.0
 10
-89.0723
 20
-22.2781
 30
0.0
 10
-85.9853
 20
-22.3045
 30
0.0
 10
-85.9853
 20
-22.3045
 30
0.0
 10
-85.9853
 20
-22.3045
 30
0.0
 10
-85.9853
 20
-22.3045
 30
0.0
 10
-83.7321
 20
-19.9954
 30
0.0
 10
-83.7321
 20
-19.9954
 30
0.0
 10
-83.7321
 20
-19.9954
 30
0.0
 10
-83.7321
 20
-19.9954
 30
0.0
 10
-86.8801
 20
-16.8474
 30
0.0
 10
-86.8801
 20
-16.8474
 30
0.0
 10
-86.8801
 20
-16.8474
 30
0.0
 10
-86.8801
 20
-16.8474
 30
0.0
 10
-89.04
 20
-19.0259
 30
0.0
 10
-89.04
 20
-19.0259
 30
0.0
  0
SPLINE
  5
B0
330
1F
100
AcDbEntity
  8
layer 1
 62
     7
100
AcDbSpline
210
0.0
220
0.0
230
1.0
 70
    11
 71
     3
 72
    24
 73
    20
 74
     0
 42
0.0000000001
 43
0.0000000001
 12
1.0
 22
0.0
 32
0.0
 13
1.0
 23
0.0
 33
0.0
 40
0.0
 40
0.0
 40
0.0
 40
0.0
 40
0.1666666666666667
 40
0.1666666666666667
 40
0.1666666666666667
 40
0.1666666666666667
 40
0.3333333333333333
 40
0.3333333333333333
 40
0.3333333333333333
 40
0.3333333333333333
 40
0.5
 40
0.5
 40
0.5
 40
0.5
 40
0.6666666666666666
 40
0.6666666666666666
 40
0.6666666666666666
 40
0.6666666666666666
 40
1.0
 40
1.0
 40
1.0
 40
1.0
 10
-72.4376
 20
-19.0676
 30
0.0
 10
-72.4376
 20
-19.0676
 30
0.0
 10
-72.4053
 20
-22.3197
 30
0.0
 10
-72.4053
 20
-22.3197
 30
0.0
 10
-72.4053
 20
-22.3197
 30
0.0
 10
-72.4053
 20
-22.3197
 30
0.0
 10
-75.4923
 20
-22.3461
 30
0.0
 10
-75.4923
 20
-22.3461
 30
0.0
 10
-75.4923
 20
-22.3461
 30
0.0
 10
-75.4923
 20
-22.3461
 30
0.0
 10
-77.7455
 20
-20.037
 30
0.0
 10
-77.7455
 20
-20.037
 30
0.0
 10
-77.7455
 20
-20.037
 30
0.0
 10
-77.7455
 20
-20.037
 30
0.0
 10
-74.5976
 20
-16.8891
 30
0.0
 10
-74.5976
 20
-16.8891
 30
0.0
 10
-74.5976
 20
-16.8891
 30
0.0
 10
-74.5976
 20
-16.8891
 30
0.0
 10
-72.4376
 20
-19.0676
 30
0.0
 10
-72.4376
 20
-19.0676
 30
0.0
  0
SPLINE
  5
B1
330
1F
100
AcDbEntity
  8
layer 1
 62
     7
100
AcDbSpline
210
0.0
220
0.0
230
1.0
 70
    11
 71
     3
 72
    20
 73
    16
 74
     0
 42
0.0000000001
 43
0.0000000001
 12
1.0
 22
0.0
 32
0.0
 13
1.0
 23
0.0
 33
0.0
 40
0.0
 40
0.0
 40
0.0
 40
0.0
 40
0.2
 40
0.2
 40
0.2
 40
0.2
 40
0.4
 40
0.4
 40
0.4
 40
0.4
 40
0.6
 40
0.6
 40
0.6
 40
0.6
 40
1.0
 40
1.0
 40
1.0
 40
1.0
 10
-128.6303
 20
-13.9009
 30
0.0
 10
-128.6303
 20
-13.9009
 30
0.0
 10
-125.4823
 20
-10.753
 30
0.0
 10
-125.4823
 20
-10.753
 30
0.0
 10
-125.4823
 20
-10.753
 30
0.0
 10
-125.4823
 20
-10.753
 30
0.0
 10
-122.3343
 20
-13.9009
 30
0.0
 10
-122.3343
 20
-13.9009
 30
0.0
 10
-122.3343
 20
-13.9009
 30
0.0
 10
-122.3343
 20
-13.9009
 30
0.0
 10
-125.4823
 20
-17.0489
 30
0.0
 10
-125.4823
 20
-17.0489
 30
0.0
 10
-125.4823
 20
-17.0489
 30
0.0
 10
-125.4823
 20
-17.0489
 30
0.0
 10
-128.6303
 20
-13.9009
 30
0.0
 10
-128.6303
 20
-13.9009
 30
0.0
  0
SPLINE
  5
B2
330
1F
100
AcDbEntity
  8
layer 1
 62
     7
100
AcDbSpline
210
0.0
220
0.0
230
1.0
 70
    11
 71
     3
 72
    24
 73
    20
 74
     0
 42
0.0000000001
 43
0.0000000001
 12
1.0
 22
0.0
 32
0.0
 13
1.0
 23
0.0
 33
0.0
 40
0.0
 40
0.0
 40
0.0
 40
0.0
 40
0.1666666666666667
 40
0.1666666666666667
 40
0.1666666666666667
 40
0.1666666666666667
 40
0.3333333333333333
 40
0.3333333333333333
 40
0.3333333333333333
 40
0.3333333333333333
 40
0.5
 40
0.5
 40
0.5
 40
0.5
 40
0.6666666666666666
 40
0.6666666666666666
 40
0.6666666666666666
 40
0.6666666666666666
 40
1.0
 40
1.0
 40
1.0
 40
1.0
 10
-133.7551
 20
-8.9509
 30
0.0
 10
-133.7551
 20
-8.9509
 30
0.0
 10
-133.7874
 20
-5.6988
 30
0.0
 10
-133.7874
 20
-5.6988
 30
0.0
 10
-133.7874
 20
-5.6988
 30
0.0
 10
-133.7874
 20
-5.6988
 30
0.0
 10
-130.7004
 20
-5.6724
 30
0.0
 10
-130.7004
 20
-5.6724
 30
0.0
 10
-130.7004
 20
-5.6724
 30
0.0
 10
-130.7004
 20
-5.6724
 30
0.0
 10
-128.4472
 20
-7.9815
 30
0.0
 10
-128.4472
 20
-7.9815
 30
0.0
 10
-128.4472
 20
-7.9815
 30
0.0
 10
-128.4472
 20
-7.9815
 30
0.0
 10
-131.5951
 20
-11.1295
 30
0.0
 10
-131.5951
 20
-11.1295
 30
0.0
 10
-131.5951
 20
-11.1295
 30
0.0
 10
-131.5951
 20
-11.1295
 30
0.0
 10
-133.7551
 20
-8.9509
 30
0.0
 10
-133.7551
 20
-8.9509
 30
0.0
  0
SPLINE
  5
B3
330
1F
100
AcDbEntity
  8
layer 1
 62
     7
100
AcDbSpline
210
0.0
220
0.0
230
1.0
 70
    11
 71
     3
 72
    24
 73
    20
 74
     0
 42
0.0000000001
 43
0.0000000001
 12
1.0
 22
0.0
 32
0.0
 13
1.0
 23
0.0
 33
0.0
 40
0.0
 40
0.0
 40
0.0
 40
0.0
 40
0.1666666666666667
 40
0.1666666666666667
 40
0.1666666666666667
 40
0.1666666666666667
 40
0.3333333333333333
 40
0.3333333333333333
 40
0.3333333333333333
 40
0.3333333333333333
 40
0.5
 40
0.5
 40
0.5
 40
0.5
 40
0.6666666666666666
 40
0.6666666666666666
 40
0.6666666666666666
 40
0.6666666666666666
 40
1.0
 40
1.0
 40
1.0
 40
1.0
 10
-117.1527
 20
-8.9092
 30
0.0
 10
-117.1527
 20
-8.9092
 30
0.0
 10
-117.1204
 20
-5.657
 30
0.0
 10
-117.1204
 20
-5.657
 30
0.0
 10
-117.1204
 20
-5.657
 30
0.0
 10
-117.1204
 20
-5.657
 30
0.0
 10
-120.2074
 20
-5.6306
 30
0.0
 10
-120.2074
 20
-5.6306
 30
0.0
 10
-120.2074
 20
-5.6306
 30
0.0
 10
-120.2074
 20
-5.6306
 30
0.0
 10
-122.4606
 20
-7.9397
 30
0.0
 10
-122.4606
 20
-7.9397
 30
0.0
 10
-122.4606
 20
-7.9397
 30
0.0
 10
-122.4606
 20
-7.9397
 30
0.0
 10
-119.3126
 20
-11.0877
 30
0.0
 10
-119.3126
 20
-11.0877
 30
0.0
 10
-119.3126
 20
-11.0877
 30
0.0
 10
-119.3126
 20
-11.0877
 30
0.0
 10
-117.1527
 20
-8.9092
 30
0.0
 10
-117.1527
 20
-8.9092
 30
0.0
  0
SPLINE
  5
B4
330
1F
100
AcDbEntity
  8
layer 1
 62
     7
100
AcDbSpline
210
0.0
220
0.0
230
1.0
 70
    11
 71
     3
 72
    24
 73
    20
 74
     0
 42
0.0000000001
 43
0.0000000001
 12
1.0
 22
0.0
 32
0.0
 13
1.0
 23
0.0
 33
0.0
 40
0.0
 40
0.0
 40
0.0
 40
0.0
 40
0.1666666666666667
 40
0.1666666666666667
 40
0.1666666666666667
 40
0.1666666666666667
 40
0.3333333333333333
 40
0.3333333333333333
 40
0.3333333333333333
 40
0.3333333333333333
 40
0.5
 40
0.5
 40
0.5
 40
0.5
 40
0.6666666666666666
 40
0.6666666666666666
 40
0.6666666666666666
 40
0.6666666666666666
 40
1.0
 40
1.0
 40
1.0
 40
1.0
 10
-133.7551
 20
-19.0259
 30
0.0
 10
-133.7551
 20
-19.0259
 30
0.0
 10
-133.7874
 20
-22.2781
 30
0.0
 10
-133.7874
 20
-22.2781
 30
0.0
 10
-133.7874
 20
-22.2781
 30
0.0
 10
-133.7874
 20
-22.2781
 30
0.0
 10
-130.7004
 20
-22.3045
 30
0.0
 10
-130.7004
 20
-22.3045
 30
0.0
 10
-130.7004
 20
-22.3045
 30
0.0
 10
-130.7004
 20
-22.3045
 30
0.0
 10
-128.4472
 20
-19.9954
 30
0.0
 10
-128.4472
 20
-19.9954
 30
0.0
 10
-128.4472
 20
-19.9954
 30
0.0
 10
-128.4472
 20
-19.9954
 30
0.0
 10
-131.5951
 20
-16.8474
 30
0.0
 10
-131.5951
 20
-16.8474
 30
0.0
 10
-131.5951
 20
-16.8474
 30
0.0
 10
-131.5951
 20
-16.8474
 30
0.0
 10
-133.7551
 20
-19.0259
 30
0.0
 10
-133.7551
 20
-19.0259
 30
0.0
  0
SPLINE
  5
B5
330
1F
100
AcDbEntity
  8
layer 1
 62
     7
100
AcDbSpline
210
0.0
220
0.0
230
1.0
 70
    11
 71
     3
 72
    24
 73
    20
 74
     0
 42
0.0000000001
 43
0.0000000001
 12
1.0
 22
0.0
 32
0.0
 13
1.0
 23
0.0
 33
0.0
 40
0.0
 40
0.0
 40
0.0
 40
0.0
 40
0.1666666666666667
 40
0.1666666666666667
 40
0.1666666666666667
 40
0.1666666666666667
 40
0.3333333333333333
 40
0.3333333333333333
 40
0.3333333333333333
 40
0.3333333333333333
 40
0.5
 40
0.5
 40
0.5
 40
0.5
 40
0.6666666666666666
 40
0.6666666666666666
 40
0.6666666666666666
 40
0.6666666666666666
 40
1.0
 40
1.0
 40
1.0
 40
1.0
 10
-117.1527
 20
-19.0676
 30
0.0
 10
-117.1527
 20
-19.0676
 30
0.0
 10
-117.1204
 20
-22.3197
 30
0.0
 10
-117.1204
 20
-22.3197
 30
0.0
 10
-117.1204
 20
-22.3197
 30
0.0
 10
-117.1204
 20
-22.3197
 30
0.0
 10
-120.2074
 20
-22.3461
 30
0.0
 10
-120.2074
 20
-22.3461
 30
0.0
 10
-120.2074
 20
-22.3461
 30
0.0
 10
-120.2074
 20
-22.3461
 30
0.0
 10
-122.4606
 20
-20.037
 30
0.0
 10
-122.4606
 20
-20.037
 30
0.0
 10
-122.4606
 20
-20.037
 30
0.0
 10
-122.4606
 20
-20.037
 30
0.0
 10
-119.3126
 20
-16.8891
 30
0.0
 10
-119.3126
 20
-16.8891
 30
0.0
 10
-119.3126
 20
-16.8891
 30
0.0
 10
-119.3126
 20
-16.8891
 30
0.0
 10
-117.1527
 20
-19.0676
 30
0.0
 10
-117.1527
 20
-19.0676
 30
0.0
  0
SPLINE
  5
B6
330
1F
100
AcDbEntity
  8
layer 1
 62
     7
100
AcDbSpline
210
0.0
220
0.0
230
1.0
 70
    11
 71
     3
 72
    20
 73
    16
 74
     0
 42
0.0000000001
 43
0.0000000001
 12
1.0
 22
0.0
 32
0.0
 13
1.0
 23
0.0
 33
0.0
 40
0.0
 40
0.0
 40
0.0
 40
0.0
 40
0.2
 40
0.2
 40
0.2
 40
0.2
 40
0.4
 40
0.4
 40
0.4
 40
0.4
 40
0.6
 40
0.6
 40
0.6
 40
0.6
 40
1.0
 40
1.0
 40
1.0
 40
1.0
 10
-173.364
 20
-13.9009
 30
0.0
 10
-173.364
 20
-13.9009
 30
0.0
 10
-170.216
 20
-10.753
 30
0.0
 10
-170.216
 20
-10.753
 30
0.0
 10
-170.216
 20
-10.753
 30
0.0
 10
-170.216
 20
-10.753
 30
0.0
 10
-167.0681
 20
-13.9009
 30
0.0
 10
-167.0681
 20
-13.9009
 30
0.0
 10
-167.0681
 20
-13.9009
 30
0.0
 10
-167.0681
 20
-13.9009
 30
0.0
 10
-170.216
 20
-17.0489
 30
0.0
 10
-170.216
 20
-17.0489
 30
0.0
 10
-170.216
 20
-17.0489
 30
0.0
 10
-170.216
 20
-17.0489
 30
0.0
 10
-173.364
 20
-13.9009
 30
0.0
 10
-173.364
 20
-13.9009
 30
0.0
  0
SPLINE
  5
B7
330
1F
100
AcDbEntity
  8
layer 1
 62
     7
100
AcDbSpline
210
0.0
220
0.0
230
1.0
 70
    11
 71
     3
 72
    24
 73
    20
 74
     0
 42
0.0000000001
 43
0.0000000001
 12
1.0
 22
0.0
 32
0.0
 13
1.0
 23
0.0
 33
0.0
 40
0.0
 40
0.0
 40
0.0
 40
0.0
 40
0.1666666666666667
 40
0.1666666666666667
 40
0.1666666666666667
 40
0.1666666666666667
 40
0.3333333333333333
 40
0.3333333333333333
 40
0.3333333333333333
 40
0.3333333333333333
 40
0.5
 40
0.5
 40
0.5
 40
0.5
 40
0.6666666666666666
 40
0.6666666666666666
 40
0.6666666666666666
 40
0.6666666666666666
 40
1.0
 40
1.0
 40
1.0
 40
1.0
 10
-178.489
 20
-8.9509
 30
0.0
 10
-178.489
 20
-8.9509
 30
0.0
 10
-178.5212
 20
-5.6988
 30
0.0
 10
-178.5212
 20
-5.6988
 30
0.0
 10
-178.5212
 20
-5.6988
 30
0.0
 10
-178.5212
 20
-5.6988
 30
0.0
 10
-175.4343
 20
-5.6724
 30
0.0
 10
-175.4343
 20
-5.6724
 30
0.0
 10
-175.4343
 20
-5.6724
 30
0.0
 10
-175.4343
 20
-5.6724
 30
0.0
 10
-173.1811
 20
-7.9815
 30
0.0
 10
-173.1811
 20
-7.9815
 30
0.0
 10
-173.1811
 20
-7.9815
 30
0.0
 10
-173.1811
 20
-7.9815
 30
0.0
 10
-176.329
 20
-11.1295
 30
0.0
 10
-176.329
 20
-11.1295
 30
0.0
 10
-176.329
 20
-11.1295
 30
0.0
 10
-176.329
 20
-11.1295
 30
0.0
 10
-178.489
 20
-8.9509
 30
0.0
 10
-178.489
 20
-8.9509
 30
0.0
  0
SPLINE
  5
B8
330
1F
100
AcDbEntity
  8
layer 1
 62
     7
100
AcDbSpline
210
0.0
220
0.0
230
1.0
 70
    11
 71
     3
 72
    24
 73
    20
 74
     0
 42
0.0000000001
 43
0.0000000001
 12
1.0
 22
0.0
 32
0.0
 13
1.0
 23
0.0
 33
0.0
 40
0.0
 40
0.0
 40
0.0
 40
0.0
 40
0.1666666666666667
 40
0.1666666666666667
 40
0.1666666666666667
 40
0.1666666666666667
 40
0.3333333333333333
 40
0.3333333333333333
 40
0.3333333333333333
 40
0.3333333333333333
 40
0.5
 40
0.5
 40
0.5
 40
0.5
 40
0.6666666666666666
 40
0.6666666666666666
 40
0.6666666666666666
 40
0.6666666666666666
 40
1.0
 40
1.0
 40
1.0
 40
1.0
 10
-161.8866
 20
-8.9092
 30
0.0
 10
-161.8866
 20
-8.9092
 30
0.0
 10
-161.8543
 20
-5.657
 30
0.0
 10
-161.8543
 20
-5.657
 30
0.0
 10
-161.8543
 20
-5.657
 30
0.0
 10
-161.8543
 20
-5.657
 30
0.0
 10
-164.9413
 20
-5.6306
 30
0.0
 10
-164.9413
 20
-5.6306
 30
0.0
 10
-164.9413
 20
-5.6306
 30
0.0
 10
-164.9413
 20
-5.6306
 30
0.0
 10
-167.1945
 20
-7.9397
 30
0.0
 10
-167.1945
 20
-7.9397
 30
0.0
 10
-167.1945
 20
-7.9397
 30
0.0
 10
-167.1945
 20
-7.9397
 30
0.0
 10
-164.0465
 20
-11.0877
 30
0.0
 10
-164.0465
 20
-11.0877
 30
0.0
 10
-164.0465
 20
-11.0877
 30
0.0
 10
-164.0465
 20
-11.0877
 30
0.0
 10
-161.8866
 20
-8.9092
 30
0.0
 10
-161.8866
 20
-8.9092
 30
0.0
  0
SPLINE
  5
B9
330
1F
100
AcDbEntity
  8
layer 1
 62
     7
100
AcDbSpline
210
0.0
220
0.0
230
1.0
 70
    11
 71
     3
 72
    24
 73
    20
 74
     0
 42
0.0000000001
 43
0.0000000001
 12
1.0
 22
0.0
 32
0.0
 13
1.0
 23
0.0
 33
0.0
 40
0.0
 40
0.0
 40
0.0
 40
0.0
 40
0.1666666666666667
 40
0.1666666666666667
 40
0.1666666666666667
 40
0.1666666666666667
 40
0.3333333333333333
 40
0.3333333333333333
 40
0.3333333333333333
 40
0.3333333333333333
 40
0.5
 40
0.5
 40
0.5
 40
0.5
 40
0.6666666666666666
 40
0.6666666666666666
 40
0.6666666666666666
 40
0.6666666666666666
 40
1.0
 40
1.0
 40
1.0
 40
1.0
 10
-178.489
 20
-19.0259
 30
0.0
 10
-178.489
 20
-19.0259
 30
0.0
 10
-178.5212
 20
-22.2781
 30
0.0
 10
-178.5212
 20
-22.2781
 30
0.0
 10
-178.5212
 20
-22.2781
 30
0.0
 10
-178.5212
 20
-22.2781
 30
0.0
 10
-175.4343
 20
-22.3045
 30
0.0
 10
-175.4343
 20
-22.3045
 30
0.0
 10
-175.4343
 20
-22.3045
 30
0.0
 10
-175.4343
 20
-22.3045
 30
0.0
 10
-173.1811
 20
-19.9954
 30
0.0
 10
-173.1811
 20
-19.9954
 30
0.0
 10
-173.1811
 20
-19.9954
 30
0.0
 10
-173.1811
 20
-19.9954
 30
0.0
 10
-176.329
 20
-16.8474
 30
0.0
 10
-176.329
 20
-16.8474
 30
0.0
 10
-176.329
 20
-16.8474
 30
0.0
 10
-176.329
 20
-16.8474
 30
0.0
 10
-178.489
 20
-19.0259
 30
0.0
 10
-178.489
 20
-19.0259
 30
0.0
  0
SPLINE
  5
BA
330
1F
100
AcDbEntity
  8
layer 1
 62
     7
100
AcDbSpline
210
0.0
220
0.0
230
1.0
 70
    11
 71
     3
 72
    24
 73
    20
 74
     0
 42
0.0000000001
 43
0.0000000001
 12
1.0
 22
0.0
 32
0.0
 13
1.0
 23
0.0
 33
0.0
 40
0.0
 40
0.0
 40
0.0
 40
0.0
 40
0.1666666666666667
 40
0.1666666666666667
 40
0.1666666666666667
 40
0.1666666666666667
 40
0.3333333333333333
 40
0.3333333333333333
 40
0.3333333333333333
 40
0.3333333333333333
 40
0.5
 40
0.5
 40
0.5
 40
0.5
 40
0.6666666666666666
 40
0.6666666666666666
 40
0.6666666666666666
 40
0.6666666666666666
 40
1.0
 40
1.0
 40
1.0
 40
1.0
 10
-161.8866
 20
-19.0676
 30
0.0
 10
-161.8866
 20
-19.0676
 30
0.0
 10
-161.8543
 20
-22.3197
 30
0.0
 10
-161.8543
 20
-22.3197
 30
0.0
 10
-161.8543
 20
-22.3197
 30
0.0
 10
-161.8543
 20
-22.3197
 30
0.0
 10
-164.9413
 20
-22.3461
 30
0.0
 10
-164.9413
 20
-22.3461
 30
0.0
 10
-164.9413
 20
-22.3461
 30
0.0
 10
-164.9413
 20
-22.3461
 30
0.0
 10
-167.1945
 20
-20.037
 30
0.0
 10
-167.1945
 20
-20.037
 30
0.0
 10
-167.1945
 20
-20.037
 30
0.0
 10
-167.1945
 20
-20.037
 30
0.0
 10
-164.0465
 20
-16.8891
 30
0.0
 10
-164.0465
 20
-16.8891
 30
0.0
 10
-164.0465
 20
-16.8891
 30
0.0
 10
-164.0465
 20
-16.8891
 30
0.0
 10
-161.8866
 20
-19.0676
 30
0.0
 10
-161.8866
 20
-19.0676
 30
0.0
  0
SPLINE
  5
BB
330
1F
100
AcDbEntity
  8
layer 1
 62
     7
100
AcDbSpline
210
0.0
220
0.0
230
1.0
 70
    11
 71
     3
 72
    36
 73
    32
 74
     0
 42
0.0000000001
 43
0.0000000001
 12
1.0
 22
0.0
 32
0.0
 13
1.0
 23
0.0
 33
0.0
 40
0.0
 40
0.0
 40
0.0
 40
0.0
 40
0.1111111111111111
 40
0.1111111111111111
 40
0.1111111111111111
 40
0.1111111111111111
 40
0.2222222222222222
 40
0.2222222222222222
 40
0.2222222222222222
 40
0.2222222222222222
 40
0.3333333333333333
 40
0.3333333333333333
 40
0.3333333333333333
 40
0.3333333333333333
 40
0.4444444444444444
 40
0.4444444444444444
 40
0.4444444444444444
 40
0.4444444444444444
 40
0.5555555555555556
 40
0.5555555555555556
 40
0.5555555555555556
 40
0.5555555555555556
 40
0.6666666666666666
 40
0.6666666666666666
 40
0.6666666666666666
 40
0.6666666666666666
 40
0.7777777777777778
 40
0.7777777777777778
 40
0.7777777777777778
 40
0.7777777777777778
 40
1.0
 40
1.0
 40
1.0
 40
1.0
 10
-144.334
 20
22.8495
 30
0.0
 10
-144.334
 20
22.8495
 30
0.0
 10
-151.0435
 20
22.8495
 30
0.0
 10
-151.0435
 20
22.8495
 30
0.0
 10
-151.0435
 20
22.8495
 30
0.0
 10
-151.0435
 20
22.8495
 30
0.0
 10
-155.7878
 20
27.7264
 30
0.0
 10
-155.7878
 20
27.7264
 30
0.0
 10
-155.7878
 20
27.7264
 30
0.0
 10
-155.7878
 20
27.7264
 30
0.0
 10
-155.7878
 20
34.6234
 30
0.0
 10
-155.7878
 20
34.6234
 30
0.0
 10
-155.7878
 20
34.6234
 30
0.0
 10
-155.7878
 20
34.6234
 30
0.0
 10
-151.0435
 20
39.5002
 30
0.0
 10
-151.0435
 20
39.5002
 30
0.0
 10
-151.0435
 20
39.5002
 30
0.0
 10
-151.0435
 20
39.5002
 30
0.0
 10
-144.334
 20
39.5002
 30
0.0
 10
-144.334
 20
39.5002
 30
0.0
 10
-144.334
 20
39.5002
 30
0.0
 10
-144.334
 20
39.5002
 30
0.0
 10
-139.5897
 20
34.6234
 30
0.0
 10
-139.5897
 20
34.6234
 30
0.0
 10
-139.5897
 20
34.6234
 30
0.0
 10
-139.5897
 20
34.6234
 30
0.0
 10
-139.5897
 20
27.7264
 30
0.0
 10
-139.5897
 20
27.7264
 30
0.0
 10
-139.5897
 20
27.7264
 30
0.0
 10
-139.5897
 20
27.7264
 30
0.0
 10
-144.334
 20
22.8495
 30
0.0
 10
-144.334
 20
22.8495
 30
0.0
  0
SPLINE
  5
BC
330
1F
100
AcDbEntity
  8
layer 1
 62
     7
100
AcDbSpline
210
0.0
220
0.0
230
1.0
 70
    11
 71
     3
 72
    36
 73
    32
 74
     0
 42
0.0000000001
 43
0.0000000001
 12
1.0
 22
0.0
 32
0.0
 13
1.0
 23
0.0
 33
0.0
 40
0.0
 40
0.0
 40
0.0
 40
0.0
 40
0.1111111111111111
 40
0.1111111111111111
 40
0.1111111111111111
 40
0.1111111111111111
 40
0.2222222222222222
 40
0.2222222222222222
 40
0.2222222222222222
 40
0.2222222222222222
 40
0.3333333333333333
 40
0.3333333333333333
 40
0.3333333333333333
 40
0.3333333333333333
 40
0.4444444444444444
 40
0.4444444444444444
 40
0.4444444444444444
 40
0.4444444444444444
 40
0.5555555555555556
 40
0.5555555555555556
 40
0.5555555555555556
 40
0.5555555555555556
 40
0.6666666666666666
 40
0.6666666666666666
 40
0.6666666666666666
 40
0.6666666666666666
 40
0.7777777777777778
 40
0.7777777777777778
 40
0.7777777777777778
 40
0.7777777777777778
 40
1.0
 40
1.0
 40
1.0
 40
1.0
 10
-99.7694
 20
22.7617
 30
0.0
 10
-99.7694
 20
22.7617
 30
0.0
 10
-106.4788
 20
22.7617
 30
0.0
 10
-106.4788
 20
22.7617
 30
0.0
 10
-106.4788
 20
22.7617
 30
0.0
 10
-106.4788
 20
22.7617
 30
0.0
 10
-111.2232
 20
27.6386
 30
0.0
 10
-111.2232
 20
27.6386
 30
0.0
 10
-111.2232
 20
27.6386
 30
0.0
 10
-111.2232
 20
27.6386
 30
0.0
 10
-111.2232
 20
34.5356
 30
0.0
 10
-111.2232
 20
34.5356
 30
0.0
 10
-111.2232
 20
34.5356
 30
0.0
 10
-111.2232
 20
34.5356
 30
0.0
 10
-106.4788
 20
39.4125
 30
0.0
 10
-106.4788
 20
39.4125
 30
0.0
 10
-106.4788
 20
39.4125
 30
0.0
 10
-106.4788
 20
39.4125
 30
0.0
 10
-99.7694
 20
39.4125
 30
0.0
 10
-99.7694
 20
39.4125
 30
0.0
 10
-99.7694
 20
39.4125
 30
0.0
 10
-99.7694
 20
39.4125
 30
0.0
 10
-95.025
 20
34.5356
 30
0.0
 10
-95.025
 20
34.5356
 30
0.0
 10
-95.025
 20
34.5356
 30
0.0
 10
-95.025
 20
34.5356
 30
0.0
 10
-95.025
 20
27.6386
 30
0.0
 10
-95.025
 20
27.6386
 30
0.0
 10
-95.025
 20
27.6386
 30
0.0
 10
-95.025
 20
27.6386
 30
0.0
 10
-99.7694
 20
22.7617
 30
0.0
 10
-99.7694
 20
22.7617
 30
0.0
  0
SPLINE
  5
BD
330
1F
100
AcDbEntity
  8
layer 1
 62
     7
100
AcDbSpline
210
0.0
220
0.0
230
1.0
 70
    11
 71
     3
 72
    20
 73
    16
 74
     0
 42
0.0000000001
 43
0.0000000001
 12
1.0
 22
0.0
 32
0.0
 13
1.0
 23
0.0
 33
0.0
 40
0.0
 40
0.0
 40
0.0
 40
0.0
 40
0.2
 40
0.2
 40
0.2
 40
0.2
 40
0.4
 40
0.4
 40
0.4
 40
0.4
 40
0.6
 40
0.6
 40
0.6
 40
0.6
 40
1.0
 40
1.0
 40
1.0
 40
1.0
 10
-83.9152
 20
31.18
 30
0.0
 10
-83.9152
 20
31.18
 30
0.0
 10
-80.7672
 20
34.328
 30
0.0
 10
-80.7672
 20
34.328
 30
0.0
 10
-80.7672
 20
34.328
 30
0.0
 10
-80.7672
 20
34.328
 30
0.0
 10
-77.6193
 20
31.18
 30
0.0
 10
-77.6193
 20
31.18
 30
0.0
 10
-77.6193
 20
31.18
 30
0.0
 10
-77.6193
 20
31.18
 30
0.0
 10
-80.7672
 20
28.0321
 30
0.0
 10
-80.7672
 20
28.0321
 30
0.0
 10
-80.7672
 20
28.0321
 30
0.0
 10
-80.7672
 20
28.0321
 30
0.0
 10
-83.9152
 20
31.18
 30
0.0
 10
-83.9152
 20
31.18
 30
0.0
  0
SPLINE
  5
BE
330
1F
100
AcDbEntity
  8
layer 1
 62
     7
100
AcDbSpline
210
0.0
220
0.0
230
1.0
 70
    11
 71
     3
 72
    24
 73
    20
 74
     0
 42
0.0000000001
 43
0.0000000001
 12
1.0
 22
0.0
 32
0.0
 13
1.0
 23
0.0
 33
0.0
 40
0.0
 40
0.0
 40
0.0
 40
0.0
 40
0.1666666666666667
 40
0.1666666666666667
 40
0.1666666666666667
 40
0.1666666666666667
 40
0.3333333333333333
 40
0.3333333333333333
 40
0.3333333333333333
 40
0.3333333333333333
 40
0.5
 40
0.5
 40
0.5
 40
0.5
 40
0.6666666666666666
 40
0.6666666666666666
 40
0.6666666666666666
 40
0.6666666666666666
 40
1.0
 40
1.0
 40
1.0
 40
1.0
 10
-89.04
 20
36.1302
 30
0.0
 10
-89.04
 20
36.1302
 30
0.0
 10
-89.0723
 20
39.3823
 30
0.0
 10
-89.0723
 20
39.3823
 30
0.0
 10
-89.0723
 20
39.3823
 30
0.0
 10
-89.0723
 20
39.3823
 30
0.0
 10
-85.9853
 20
39.4087
 30
0.0
 10
-85.9853
 20
39.4087
 30
0.0
 10
-85.9853
 20
39.4087
 30
0.0
 10
-85.9853
 20
39.4087
 30
0.0
 10
-83.7321
 20
37.0996
 30
0.0
 10
-83.7321
 20
37.0996
 30
0.0
 10
-83.7321
 20
37.0996
 30
0.0
 10
-83.7321
 20
37.0996
 30
0.0
 10
-86.8801
 20
33.9517
 30
0.0
 10
-86.8801
 20
33.9517
 30
0.0
 10
-86.8801
 20
33.9517
 30
0.0
 10
-86.8801
 20
33.9517
 30
0.0
 10
-89.04
 20
36.1302
 30
0.0
 10
-89.04
 20
36.1302
 30
0.0
  0
SPLINE
  5
BF
330
1F
100
AcDbEntity
  8
layer 1
 62
     7
100
AcDbSpline
210
0.0
220
0.0
230
1.0
 70
    11
 71
     3
 72
    24
 73
    20
 74
     0
 42
0.0000000001
 43
0.0000000001
 12
1.0
 22
0.0
 32
0.0
 13
1.0
 23
0.0
 33
0.0
 40
0.0
 40
0.0
 40
0.0
 40
0.0
 40
0.1666666666666667
 40
0.1666666666666667
 40
0.1666666666666667
 40
0.1666666666666667
 40
0.3333333333333333
 40
0.3333333333333333
 40
0.3333333333333333
 40
0.3333333333333333
 40
0.5
 40
0.5
 40
0.5
 40
0.5
 40
0.6666666666666666
 40
0.6666666666666666
 40
0.6666666666666666
 40
0.6666666666666666
 40
1.0
 40
1.0
 40
1.0
 40
1.0
 10
-72.4376
 20
36.1718
 30
0.0
 10
-72.4376
 20
36.1718
 30
0.0
 10
-72.4053
 20
39.424
 30
0.0
 10
-72.4053
 20
39.424
 30
0.0
 10
-72.4053
 20
39.424
 30
0.0
 10
-72.4053
 20
39.424
 30
0.0
 10
-75.4923
 20
39.4504
 30
0.0
 10
-75.4923
 20
39.4504
 30
0.0
 10
-75.4923
 20
39.4504
 30
0.0
 10
-75.4923
 20
39.4504
 30
0.0
 10
-77.7455
 20
37.1413
 30
0.0
 10
-77.7455
 20
37.1413
 30
0.0
 10
-77.7455
 20
37.1413
 30
0.0
 10
-77.7455
 20
37.1413
 30
0.0
 10
-74.5976
 20
33.9933
 30
0.0
 10
-74.5976
 20
33.9933
 30
0.0
 10
-74.5976
 20
33.9933
 30
0.0
 10
-74.5976
 20
33.9933
 30
0.0
 10
-72.4376
 20
36.1718
 30
0.0
 10
-72.4376
 20
36.1718
 30
0.0
  0
SPLINE
  5
C0
330
1F
100
AcDbEntity
  8
layer 1
 62
     7
100
AcDbSpline
210
0.0
220
0.0
230
1.0
 70
    11
 71
     3
 72
    24
 73
    20
 74
     0
 42
0.0000000001
 43
0.0000000001
 12
1.0
 22
0.0
 32
0.0
 13
1.0
 23
0.0
 33
0.0
 40
0.0
 40
0.0
 40
0.0
 40
0.0
 40
0.1666666666666667
 40
0.1666666666666667
 40
0.1666666666666667
 40
0.1666666666666667
 40
0.3333333333333333
 40
0.3333333333333333
 40
0.3333333333333333
 40
0.3333333333333333
 40
0.5
 40
0.5
 40
0.5
 40
0.5
 40
0.6666666666666666
 40
0.6666666666666666
 40
0.6666666666666666
 40
0.6666666666666666
 40
1.0
 40
1.0
 40
1.0
 40
1.0
 10
-89.04
 20
26.055
 30
0.0
 10
-89.04
 20
26.055
 30
0.0
 10
-89.0723
 20
22.8029
 30
0.0
 10
-89.0723
 20
22.8029
 30
0.0
 10
-89.0723
 20
22.8029
 30
0.0
 10
-89.0723
 20
22.8029
 30
0.0
 10
-85.9853
 20
22.7765
 30
0.0
 10
-85.9853
 20
22.7765
 30
0.0
 10
-85.9853
 20
22.7765
 30
0.0
 10
-85.9853
 20
22.7765
 30
0.0
 10
-83.7321
 20
25.0856
 30
0.0
 10
-83.7321
 20
25.0856
 30
0.0
 10
-83.7321
 20
25.0856
 30
0.0
 10
-83.7321
 20
25.0856
 30
0.0
 10
-86.8801
 20
28.2336
 30
0.0
 10
-86.8801
 20
28.2336
 30
0.0
 10
-86.8801
 20
28.2336
 30
0.0
 10
-86.8801
 20
28.2336
 30
0.0
 10
-89.04
 20
26.055
 30
0.0
 10
-89.04
 20
26.055
 30
0.0
  0
SPLINE
  5
C1
330
1F
100
AcDbEntity
  8
layer 1
 62
     7
100
AcDbSpline
210
0.0
220
0.0
230
1.0
 70
    11
 71
     3
 72
    24
 73
    20
 74
     0
 42
0.0000000001
 43
0.0000000001
 12
1.0
 22
0.0
 32
0.0
 13
1.0
 23
0.0
 33
0.0
 40
0.0
 40
0.0
 40
0.0
 40
0.0
 40
0.1666666666666667
 40
0.1666666666666667
 40
0.1666666666666667
 40
0.1666666666666667
 40
0.3333333333333333
 40
0.3333333333333333
 40
0.3333333333333333
 40
0.3333333333333333
 40
0.5
 40
0.5
 40
0.5
 40
0.5
 40
0.6666666666666666
 40
0.6666666666666666
 40
0.6666666666666666
 40
0.6666666666666666
 40
1.0
 40
1.0
 40
1.0
 40
1.0
 10
-72.4376
 20
26.0134
 30
0.0
 10
-72.4376
 20
26.0134
 30
0.0
 10
-72.4053
 20
22.7612
 30
0.0
 10
-72.4053
 20
22.7612
 30
0.0
 10
-72.4053
 20
22.7612
 30
0.0
 10
-72.4053
 20
22.7612
 30
0.0
 10
-75.4923
 20
22.7348
 30
0.0
 10
-75.4923
 20
22.7348
 30
0.0
 10
-75.4923
 20
22.7348
 30
0.0
 10
-75.4923
 20
22.7348
 30
0.0
 10
-77.7455
 20
25.0439
 30
0.0
 10
-77.7455
 20
25.0439
 30
0.0
 10
-77.7455
 20
25.0439
 30
0.0
 10
-77.7455
 20
25.0439
 30
0.0
 10
-74.5976
 20
28.1919
 30
0.0
 10
-74.5976
 20
28.1919
 30
0.0
 10
-74.5976
 20
28.1919
 30
0.0
 10
-74.5976
 20
28.1919
 30
0.0
 10
-72.4376
 20
26.0134
 30
0.0
 10
-72.4376
 20
26.0134
 30
0.0
  0
SPLINE
  5
C2
330
1F
100
AcDbEntity
  8
layer 1
 62
     7
100
AcDbSpline
210
0.0
220
0.0
230
1.0
 70
    11
 71
     3
 72
    20
 73
    16
 74
     0
 42
0.0000000001
 43
0.0000000001
 12
1.0
 22
0.0
 32
0.0
 13
1.0
 23
0.0
 33
0.0
 40
0.0
 40
0.0
 40
0.0
 40
0.0
 40
0.2
 40
0.2
 40
0.2
 40
0.2
 40
0.4
 40
0.4
 40
0.4
 40
0.4
 40
0.6
 40
0.6
 40
0.6
 40
0.6
 40
1.0
 40
1.0
 40
1.0
 40
1.0
 10
-128.6303
 20
31.18
 30
0.0
 10
-128.6303
 20
31.18
 30
0.0
 10
-125.4823
 20
34.328
 30
0.0
 10
-125.4823
 20
34.328
 30
0.0
 10
-125.4823
 20
34.328
 30
0.0
 10
-125.4823
 20
34.328
 30
0.0
 10
-122.3343
 20
31.18
 30
0.0
 10
-122.3343
 20
31.18
 30
0.0
 10
-122.3343
 20
31.18
 30
0.0
 10
-122.3343
 20
31.18
 30
0.0
 10
-125.4823
 20
28.0321
 30
0.0
 10
-125.4823
 20
28.0321
 30
0.0
 10
-125.4823
 20
28.0321
 30
0.0
 10
-125.4823
 20
28.0321
 30
0.0
 10
-128.6303
 20
31.18
 30
0.0
 10
-128.6303
 20
31.18
 30
0.0
  0
SPLINE
  5
C3
330
1F
100
AcDbEntity
  8
layer 1
 62
     7
100
AcDbSpline
210
0.0
220
0.0
230
1.0
 70
    11
 71
     3
 72
    24
 73
    20
 74
     0
 42
0.0000000001
 43
0.0000000001
 12
1.0
 22
0.0
 32
0.0
 13
1.0
 23
0.0
 33
0.0
 40
0.0
 40
0.0
 40
0.0
 40
0.0
 40
0.1666666666666667
 40
0.1666666666666667
 40
0.1666666666666667
 40
0.1666666666666667
 40
0.3333333333333333
 40
0.3333333333333333
 40
0.3333333333333333
 40
0.3333333333333333
 40
0.5
 40
0.5
 40
0.5
 40
0.5
 40
0.6666666666666666
 40
0.6666666666666666
 40
0.6666666666666666
 40
0.6666666666666666
 40
1.0
 40
1.0
 40
1.0
 40
1.0
 10
-133.7551
 20
36.1302
 30
0.0
 10
-133.7551
 20
36.1302
 30
0.0
 10
-133.7874
 20
39.3823
 30
0.0
 10
-133.7874
 20
39.3823
 30
0.0
 10
-133.7874
 20
39.3823
 30
0.0
 10
-133.7874
 20
39.3823
 30
0.0
 10
-130.7004
 20
39.4087
 30
0.0
 10
-130.7004
 20
39.4087
 30
0.0
 10
-130.7004
 20
39.4087
 30
0.0
 10
-130.7004
 20
39.4087
 30
0.0
 10
-128.4472
 20
37.0996
 30
0.0
 10
-128.4472
 20
37.0996
 30
0.0
 10
-128.4472
 20
37.0996
 30
0.0
 10
-128.4472
 20
37.0996
 30
0.0
 10
-131.5951
 20
33.9517
 30
0.0
 10
-131.5951
 20
33.9517
 30
0.0
 10
-131.5951
 20
33.9517
 30
0.0
 10
-131.5951
 20
33.9517
 30
0.0
 10
-133.7551
 20
36.1302
 30
0.0
 10
-133.7551
 20
36.1302
 30
0.0
  0
SPLINE
  5
C4
330
1F
100
AcDbEntity
  8
layer 1
 62
     7
100
AcDbSpline
210
0.0
220
0.0
230
1.0
 70
    11
 71
     3
 72
    24
 73
    20
 74
     0
 42
0.0000000001
 43
0.0000000001
 12
1.0
 22
0.0
 32
0.0
 13
1.0
 23
0.0
 33
0.0
 40
0.0
 40
0.0
 40
0.0
 40
0.0
 40
0.1666666666666667
 40
0.1666666666666667
 40
0.1666666666666667
 40
0.1666666666666667
 40
0.3333333333333333
 40
0.3333333333333333
 40
0.3333333333333333
 40
0.3333333333333333
 40
0.5
 40
0.5
 40
0.5
 40
0.5
 40
0.6666666666666666
 40
0.6666666666666666
 40
0.6666666666666666
 40
0.6666666666666666
 40
1.0
 40
1.0
 40
1.0
 40
1.0
 10
-117.1527
 20
36.1718
 30
0.0
 10
-117.1527
 20
36.1718
 30
0.0
 10
-117.1204
 20
39.424
 30
0.0
 10
-117.1204
 20
39.424
 30
0.0
 10
-117.1204
 20
39.424
 30
0.0
 10
-117.1204
 20
39.424
 30
0.0
 10
-120.2074
 20
39.4504
 30
0.0
 10
-120.2074
 20
39.4504
 30
0.0
 10
-120.2074
 20
39.4504
 30
0.0
 10
-120.2074
 20
39.4504
 30
0.0
 10
-122.4606
 20
37.1413
 30
0.0
 10
-122.4606
 20
37.1413
 30
0.0
 10
-122.4606
 20
37.1413
 30
0.0
 10
-122.4606
 20
37.1413
 30
0.0
 10
-119.3126
 20
33.9933
 30
0.0
 10
-119.3126
 20
33.9933
 30
0.0
 10
-119.3126
 20
33.9933
 30
0.0
 10
-119.3126
 20
33.9933
 30
0.0
 10
-117.1527
 20
36.1718
 30
0.0
 10
-117.1527
 20
36.1718
 30
0.0
  0
SPLINE
  5
C5
330
1F
100
AcDbEntity
  8
layer 1
 62
     7
100
AcDbSpline
210
0.0
220
0.0
230
1.0
 70
    11
 71
     3
 72
    24
 73
    20
 74
     0
 42
0.0000000001
 43
0.0000000001
 12
1.0
 22
0.0
 32
0.0
 13
1.0
 23
0.0
 33
0.0
 40
0.0
 40
0.0
 40
0.0
 40
0.0
 40
0.1666666666666667
 40
0.1666666666666667
 40
0.1666666666666667
 40
0.1666666666666667
 40
0.3333333333333333
 40
0.3333333333333333
 40
0.3333333333333333
 40
0.3333333333333333
 40
0.5
 40
0.5
 40
0.5
 40
0.5
 40
0.6666666666666666
 40
0.6666666666666666
 40
0.6666666666666666
 40
0.6666666666666666
 40
1.0
 40
1.0
 40
1.0
 40
1.0
 10
-133.7551
 20
26.055
 30
0.0
 10
-133.7551
 20
26.055
 30
0.0
 10
-133.7874
 20
22.8029
 30
0.0
 10
-133.7874
 20
22.8029
 30
0.0
 10
-133.7874
 20
22.8029
 30
0.0
 10
-133.7874
 20
22.8029
 30
0.0
 10
-130.7004
 20
22.7765
 30
0.0
 10
-130.7004
 20
22.7765
 30
0.0
 10
-130.7004
 20
22.7765
 30
0.0
 10
-130.7004
 20
22.7765
 30
0.0
 10
-128.4472
 20
25.0856
 30
0.0
 10
-128.4472
 20
25.0856
 30
0.0
 10
-128.4472
 20
25.0856
 30
0.0
 10
-128.4472
 20
25.0856
 30
0.0
 10
-131.5951
 20
28.2336
 30
0.0
 10
-131.5951
 20
28.2336
 30
0.0
 10
-131.5951
 20
28.2336
 30
0.0
 10
-131.5951
 20
28.2336
 30
0.0
 10
-133.7551
 20
26.055
 30
0.0
 10
-133.7551
 20
26.055
 30
0.0
  0
SPLINE
  5
C6
330
1F
100
AcDbEntity
  8
layer 1
 62
     7
100
AcDbSpline
210
0.0
220
0.0
230
1.0
 70
    11
 71
     3
 72
    24
 73
    20
 74
     0
 42
0.0000000001
 43
0.0000000001
 12
1.0
 22
0.0
 32
0.0
 13
1.0
 23
0.0
 33
0.0
 40
0.0
 40
0.0
 40
0.0
 40
0.0
 40
0.1666666666666667
 40
0.1666666666666667
 40
0.1666666666666667
 40
0.1666666666666667
 40
0.3333333333333333
 40
0.3333333333333333
 40
0.3333333333333333
 40
0.3333333333333333
 40
0.5
 40
0.5
 40
0.5
 40
0.5
 40
0.6666666666666666
 40
0.6666666666666666
 40
0.6666666666666666
 40
0.6666666666666666
 40
1.0
 40
1.0
 40
1.0
 40
1.0
 10
-117.1527
 20
26.0134
 30
0.0
 10
-117.1527
 20
26.0134
 30
0.0
 10
-117.1204
 20
22.7612
 30
0.0
 10
-117.1204
 20
22.7612
 30
0.0
 10
-117.1204
 20
22.7612
 30
0.0
 10
-117.1204
 20
22.7612
 30
0.0
 10
-120.2074
 20
22.7348
 30
0.0
 10
-120.2074
 20
22.7348
 30
0.0
 10
-120.2074
 20
22.7348
 30
0.0
 10
-120.2074
 20
22.7348
 30
0.0
 10
-122.4606
 20
25.0439
 30
0.0
 10
-122.4606
 20
25.0439
 30
0.0
 10
-122.4606
 20
25.0439
 30
0.0
 10
-122.4606
 20
25.0439
 30
0.0
 10
-119.3126
 20
28.1919
 30
0.0
 10
-119.3126
 20
28.1919
 30
0.0
 10
-119.3126
 20
28.1919
 30
0.0
 10
-119.3126
 20
28.1919
 30
0.0
 10
-117.1527
 20
26.0134
 30
0.0
 10
-117.1527
 20
26.0134
 30
0.0
  0
SPLINE
  5
C7
330
1F
100
AcDbEntity
  8
layer 1
 62
     7
100
AcDbSpline
210
0.0
220
0.0
230
1.0
 70
    11
 71
     3
 72
    20
 73
    16
 74
     0
 42
0.0000000001
 43
0.0000000001
 12
1.0
 22
0.0
 32
0.0
 13
1.0
 23
0.0
 33
0.0
 40
0.0
 40
0.0
 40
0.0
 40
0.0
 40
0.2
 40
0.2
 40
0.2
 40
0.2
 40
0.4
 40
0.4
 40
0.4
 40
0.4
 40
0.6
 40
0.6
 40
0.6
 40
0.6
 40
1.0
 40
1.0
 40
1.0
 40
1.0
 10
-173.364
 20
31.18
 30
0.0
 10
-173.364
 20
31.18
 30
0.0
 10
-170.216
 20
34.328
 30
0.0
 10
-170.216
 20
34.328
 30
0.0
 10
-170.216
 20
34.328
 30
0.0
 10
-170.216
 20
34.328
 30
0.0
 10
-167.0681
 20
31.18
 30
0.0
 10
-167.0681
 20
31.18
 30
0.0
 10
-167.0681
 20
31.18
 30
0.0
 10
-167.0681
 20
31.18
 30
0.0
 10
-170.216
 20
28.0321
 30
0.0
 10
-170.216
 20
28.0321
 30
0.0
 10
-170.216
 20
28.0321
 30
0.0
 10
-170.216
 20
28.0321
 30
0.0
 10
-173.364
 20
31.18
 30
0.0
 10
-173.364
 20
31.18
 30
0.0
  0
SPLINE
  5
C8
330
1F
100
AcDbEntity
  8
layer 1
 62
     7
100
AcDbSpline
210
0.0
220
0.0
230
1.0
 70
    11
 71
     3
 72
    24
 73
    20
 74
     0
 42
0.0000000001
 43
0.0000000001
 12
1.0
 22
0.0
 32
0.0
 13
1.0
 23
0.0
 33
0.0
 40
0.0
 40
0.0
 40
0.0
 40
0.0
 40
0.1666666666666667
 40
0.1666666666666667
 40
0.1666666666666667
 40
0.1666666666666667
 40
0.3333333333333333
 40
0.3333333333333333
 40
0.3333333333333333
 40
0.3333333333333333
 40
0.5
 40
0.5
 40
0.5
 40
0.5
 40
0.6666666666666666
 40
0.6666666666666666
 40
0.6666666666666666
 40
0.6666666666666666
 40
1.0
 40
1.0
 40
1.0
 40
1.0
 10
-178.489
 20
36.1302
 30
0.0
 10
-178.489
 20
36.1302
 30
0.0
 10
-178.5212
 20
39.3823
 30
0.0
 10
-178.5212
 20
39.3823
 30
0.0
 10
-178.5212
 20
39.3823
 30
0.0
 10
-178.5212
 20
39.3823
 30
0.0
 10
-175.4343
 20
39.4087
 30
0.0
 10
-175.4343
 20
39.4087
 30
0.0
 10
-175.4343
 20
39.4087
 30
0.0
 10
-175.4343
 20
39.4087
 30
0.0
 10
-173.1811
 20
37.0996
 30
0.0
 10
-173.1811
 20
37.0996
 30
0.0
 10
-173.1811
 20
37.0996
 30
0.0
 10
-173.1811
 20
37.0996
 30
0.0
 10
-176.329
 20
33.9517
 30
0.0
 10
-176.329
 20
33.9517
 30
0.0
 10
-176.329
 20
33.9517
 30
0.0
 10
-176.329
 20
33.9517
 30
0.0
 10
-178.489
 20
36.1302
 30
0.0
 10
-178.489
 20
36.1302
 30
0.0
  0
SPLINE
  5
C9
330
1F
100
AcDbEntity
  8
layer 1
 62
     7
100
AcDbSpline
210
0.0
220
0.0
230
1.0
 70
    11
 71
     3
 72
    24
 73
    20
 74
     0
 42
0.0000000001
 43
0.0000000001
 12
1.0
 22
0.0
 32
0.0
 13
1.0
 23
0.0
 33
0.0
 40
0.0
 40
0.0
 40
0.0
 40
0.0
 40
0.1666666666666667
 40
0.1666666666666667
 40
0.1666666666666667
 40
0.1666666666666667
 40
0.3333333333333333
 40
0.3333333333333333
 40
0.3333333333333333
 40
0.3333333333333333
 40
0.5
 40
0.5
 40
0.5
 40
0.5
 40
0.6666666666666666
 40
0.6666666666666666
 40
0.6666666666666666
 40
0.6666666666666666
 40
1.0
 40
1.0
 40
1.0
 40
1.0
 10
-161.8866
 20
36.1718
 30
0.0
 10
-161.8866
 20
36.1718
 30
0.0
 10
-161.8543
 20
39.424
 30
0.0
 10
-161.8543
 20
39.424
 30
0.0
 10
-161.8543
 20
39.424
 30
0.0
 10
-161.8543
 20
39.424
 30
0.0
 10
-164.9413
 20
39.4504
 30
0.0
 10
-164.9413
 20
39.4504
 30
0.0
 10
-164.9413
 20
39.4504
 30
0.0
 10
-164.9413
 20
39.4504
 30
0.0
 10
-167.1945
 20
37.1413
 30
0.0
 10
-167.1945
 20
37.1413
 30
0.0
 10
-167.1945
 20
37.1413
 30
0.0
 10
-167.1945
 20
37.1413
 30
0.0
 10
-164.0465
 20
33.9933
 30
0.0
 10
-164.0465
 20
33.9933
 30
0.0
 10
-164.0465
 20
33.9933
 30
0.0
 10
-164.0465
 20
33.9933
 30
0.0
 10
-161.8866
 20
36.1718
 30
0.0
 10
-161.8866
 20
36.1718
 30
0.0
  0
SPLINE
  5
CA
330
1F
100
AcDbEntity
  8
layer 1
 62
     7
100
AcDbSpline
210
0.0
220
0.0
230
1.0
 70
    11
 71
     3
 72
    24
 73
    20
 74
     0
 42
0.0000000001
 43
0.0000000001
 12
1.0
 22
0.0
 32
0.0
 13
1.0
 23
0.0
 33
0.0
 40
0.0
 40
0.0
 40
0.0
 40
0.0
 40
0.1666666666666667
 40
0.1666666666666667
 40
0.1666666666666667
 40
0.1666666666666667
 40
0.3333333333333333
 40
0.3333333333333333
 40
0.3333333333333333
 40
0.3333333333333333
 40
0.5
 40
0.5
 40
0.5
 40
0.5
 40
0.6666666666666666
 40
0.6666666666666666
 40
0.6666666666666666
 40
0.6666666666666666
 40
1.0
 40
1.0
 40
1.0
 40
1.0
 10
-178.489
 20
26.055
 30
0.0
 10
-178.489
 20
26.055
 30
0.0
 10
-178.5212
 20
22.8029
 30
0.0
 10
-178.5212
 20
22.8029
 30
0.0
 10
-178.5212
 20
22.8029
 30
0.0
 10
-178.5212
 20
22.8029
 30
0.0
 10
-175.4343
 20
22.7765
 30
0.0
 10
-175.4343
 20
22.7765
 30
0.0
 10
-175.4343
 20
22.7765
 30
0.0
 10
-175.4343
 20
22.7765
 30
0.0
 10
-173.1811
 20
25.0856
 30
0.0
 10
-173.1811
 20
25.0856
 30
0.0
 10
-173.1811
 20
25.0856
 30
0.0
 10
-173.1811
 20
25.0856
 30
0.0
 10
-176.329
 20
28.2336
 30
0.0
 10
-176.329
 20
28.2336
 30
0.0
 10
-176.329
 20
28.2336
 30
0.0
 10
-176.329
 20
28.2336
 30
0.0
 10
-178.489
 20
26.055
 30
0.0
 10
-178.489
 20
26.055
 30
0.0
  0
SPLINE
  5
CB
330
1F
100
AcDbEntity
  8
layer 1
 62
     7
100
AcDbSpline
210
0.0
220
0.0
230
1.0
 70
    11
 71
     3
 72
    24
 73
    20
 74
     0
 42
0.0000000001
 43
0.0000000001
 12
1.0
 22
0.0
 32
0.0
 13
1.0
 23
0.0
 33
0.0
 40
0.0
 40
0.0
 40
0.0
 40
0.0
 40
0.1666666666666667
 40
0.1666666666666667
 40
0.1666666666666667
 40
0.1666666666666667
 40
0.3333333333333333
 40
0.3333333333333333
 40
0.3333333333333333
 40
0.3333333333333333
 40
0.5
 40
0.5
 40
0.5
 40
0.5
 40
0.6666666666666666
 40
0.6666666666666666
 40
0.6666666666666666
 40
0.6666666666666666
 40
1.0
 40
1.0
 40
1.0
 40
1.0
 10
-161.8866
 20
26.0134
 30
0.0
 10
-161.8866
 20
26.0134
 30
0.0
 10
-161.8543
 20
22.7612
 30
0.0
 10
-161.8543
 20
22.7612
 30
0.0
 10
-161.8543
 20
22.7612
 30
0.0
 10
-161.8543
 20
22.7612
 30
0.0
 10
-164.9413
 20
22.7348
 30
0.0
 10
-164.9413
 20
22.7348
 30
0.0
 10
-164.9413
 20
22.7348
 30
0.0
 10
-164.9413
 20
22.7348
 30
0.0
 10
-167.1945
 20
25.0439
 30
0.0
 10
-167.1945
 20
25.0439
 30
0.0
 10
-167.1945
 20
25.0439
 30
0.0
 10
-167.1945
 20
25.0439
 30
0.0
 10
-164.0465
 20
28.1919
 30
0.0
 10
-164.0465
 20
28.1919
 30
0.0
 10
-164.0465
 20
28.1919
 30
0.0
 10
-164.0465
 20
28.1919
 30
0.0
 10
-161.8866
 20
26.0134
 30
0.0
 10
-161.8866
 20
26.0134
 30
0.0
  0
SPLINE
  5
CC
330
1F
100
AcDbEntity
  8
layer 1
 62
     7
100
AcDbSpline
210
0.0
220
0.0
230
1.0
 70
    11
 71
     3
 72
    36
 73
    32
 74
     0
 42
0.0000000001
 43
0.0000000001
 12
1.0
 22
0.0
 32
0.0
 13
1.0
 23
0.0
 33
0.0
 40
0.0
 40
0.0
 40
0.0
 40
0.0
 40
0.1111111111111111
 40
0.1111111111111111
 40
0.1111111111111111
 40
0.1111111111111111
 40
0.2222222222222222
 40
0.2222222222222222
 40
0.2222222222222222
 40
0.2222222222222222
 40
0.3333333333333333
 40
0.3333333333333333
 40
0.3333333333333333
 40
0.3333333333333333
 40
0.4444444444444444
 40
0.4444444444444444
 40
0.4444444444444444
 40
0.4444444444444444
 40
0.5555555555555556
 40
0.5555555555555556
 40
0.5555555555555556
 40
0.5555555555555556
 40
0.6666666666666666
 40
0.6666666666666666
 40
0.6666666666666666
 40
0.6666666666666666
 40
0.7777777777777778
 40
0.7777777777777778
 40
0.7777777777777778
 40
0.7777777777777778
 40
1.0
 40
1.0
 40
1.0
 40
1.0
 10
-144.334
 20
67.3171
 30
0.0
 10
-144.334
 20
67.3171
 30
0.0
 10
-151.0435
 20
67.3171
 30
0.0
 10
-151.0435
 20
67.3171
 30
0.0
 10
-151.0435
 20
67.3171
 30
0.0
 10
-151.0435
 20
67.3171
 30
0.0
 10
-155.7878
 20
72.194
 30
0.0
 10
-155.7878
 20
72.194
 30
0.0
 10
-155.7878
 20
72.194
 30
0.0
 10
-155.7878
 20
72.194
 30
0.0
 10
-155.7878
 20
79.091
 30
0.0
 10
-155.7878
 20
79.091
 30
0.0
 10
-155.7878
 20
79.091
 30
0.0
 10
-155.7878
 20
79.091
 30
0.0
 10
-151.0435
 20
83.9679
 30
0.0
 10
-151.0435
 20
83.9679
 30
0.0
 10
-151.0435
 20
83.9679
 30
0.0
 10
-151.0435
 20
83.9679
 30
0.0
 10
-144.334
 20
83.9679
 30
0.0
 10
-144.334
 20
83.9679
 30
0.0
 10
-144.334
 20
83.9679
 30
0.0
 10
-144.334
 20
83.9679
 30
0.0
 10
-139.5897
 20
79.091
 30
0.0
 10
-139.5897
 20
79.091
 30
0.0
 10
-139.5897
 20
79.091
 30
0.0
 10
-139.5897
 20
79.091
 30
0.0
 10
-139.5897
 20
72.194
 30
0.0
 10
-139.5897
 20
72.194
 30
0.0
 10
-139.5897
 20
72.194
 30
0.0
 10
-139.5897
 20
72.194
 30
0.0
 10
-144.334
 20
67.3171
 30
0.0
 10
-144.334
 20
67.3171
 30
0.0
  0
SPLINE
  5
CD
330
1F
100
AcDbEntity
  8
layer 1
 62
     7
100
AcDbSpline
210
0.0
220
0.0
230
1.0
 70
    11
 71
     3
 72
    36
 73
    32
 74
     0
 42
0.0000000001
 43
0.0000000001
 12
1.0
 22
0.0
 32
0.0
 13
1.0
 23
0.0
 33
0.0
 40
0.0
 40
0.0
 40
0.0
 40
0.0
 40
0.1111111111111111
 40
0.1111111111111111
 40
0.1111111111111111
 40
0.1111111111111111
 40
0.2222222222222222
 40
0.2222222222222222
 40
0.2222222222222222
 40
0.2222222222222222
 40
0.3333333333333333
 40
0.3333333333333333
 40
0.3333333333333333
 40
0.3333333333333333
 40
0.4444444444444444
 40
0.4444444444444444
 40
0.4444444444444444
 40
0.4444444444444444
 40
0.5555555555555556
 40
0.5555555555555556
 40
0.5555555555555556
 40
0.5555555555555556
 40
0.6666666666666666
 40
0.6666666666666666
 40
0.6666666666666666
 40
0.6666666666666666
 40
0.7777777777777778
 40
0.7777777777777778
 40
0.7777777777777778
 40
0.7777777777777778
 40
1.0
 40
1.0
 40
1.0
 40
1.0
 10
-99.7694
 20
67.2295
 30
0.0
 10
-99.7694
 20
67.2295
 30
0.0
 10
-106.4788
 20
67.2295
 30
0.0
 10
-106.4788
 20
67.2295
 30
0.0
 10
-106.4788
 20
67.2295
 30
0.0
 10
-106.4788
 20
67.2295
 30
0.0
 10
-111.2232
 20
72.1064
 30
0.0
 10
-111.2232
 20
72.1064
 30
0.0
 10
-111.2232
 20
72.1064
 30
0.0
 10
-111.2232
 20
72.1064
 30
0.0
 10
-111.2232
 20
79.0034
 30
0.0
 10
-111.2232
 20
79.0034
 30
0.0
 10
-111.2232
 20
79.0034
 30
0.0
 10
-111.2232
 20
79.0034
 30
0.0
 10
-106.4788
 20
83.8803
 30
0.0
 10
-106.4788
 20
83.8803
 30
0.0
 10
-106.4788
 20
83.8803
 30
0.0
 10
-106.4788
 20
83.8803
 30
0.0
 10
-99.7694
 20
83.8803
 30
0.0
 10
-99.7694
 20
83.8803
 30
0.0
 10
-99.7694
 20
83.8803
 30
0.0
 10
-99.7694
 20
83.8803
 30
0.0
 10
-95.025
 20
79.0034
 30
0.0
 10
-95.025
 20
79.0034
 30
0.0
 10
-95.025
 20
79.0034
 30
0.0
 10
-95.025
 20
79.0034
 30
0.0
 10
-95.025
 20
72.1064
 30
0.0
 10
-95.025
 20
72.1064
 30
0.0
 10
-95.025
 20
72.1064
 30
0.0
 10
-95.025
 20
72.1064
 30
0.0
 10
-99.7694
 20
67.2295
 30
0.0
 10
-99.7694
 20
67.2295
 30
0.0
  0
SPLINE
  5
CE
330
1F
100
AcDbEntity
  8
layer 1
 62
     7
100
AcDbSpline
210
0.0
220
0.0
230
1.0
 70
    11
 71
     3
 72
    20
 73
    16
 74
     0
 42
0.0000000001
 43
0.0000000001
 12
1.0
 22
0.0
 32
0.0
 13
1.0
 23
0.0
 33
0.0
 40
0.0
 40
0.0
 40
0.0
 40
0.0
 40
0.2
 40
0.2
 40
0.2
 40
0.2
 40
0.4
 40
0.4
 40
0.4
 40
0.4
 40
0.6
 40
0.6
 40
0.6
 40
0.6
 40
1.0
 40
1.0
 40
1.0
 40
1.0
 10
-83.9152
 20
75.6478
 30
0.0
 10
-83.9152
 20
75.6478
 30
0.0
 10
-80.7672
 20
78.7957
 30
0.0
 10
-80.7672
 20
78.7957
 30
0.0
 10
-80.7672
 20
78.7957
 30
0.0
 10
-80.7672
 20
78.7957
 30
0.0
 10
-77.6193
 20
75.6478
 30
0.0
 10
-77.6193
 20
75.6478
 30
0.0
 10
-77.6193
 20
75.6478
 30
0.0
 10
-77.6193
 20
75.6478
 30
0.0
 10
-80.7672
 20
72.4998
 30
0.0
 10
-80.7672
 20
72.4998
 30
0.0
 10
-80.7672
 20
72.4998
 30
0.0
 10
-80.7672
 20
72.4998
 30
0.0
 10
-83.9152
 20
75.6478
 30
0.0
 10
-83.9152
 20
75.6478
 30
0.0
  0
SPLINE
  5
CF
330
1F
100
AcDbEntity
  8
layer 1
 62
     7
100
AcDbSpline
210
0.0
220
0.0
230
1.0
 70
    11
 71
     3
 72
    24
 73
    20
 74
     0
 42
0.0000000001
 43
0.0000000001
 12
1.0
 22
0.0
 32
0.0
 13
1.0
 23
0.0
 33
0.0
 40
0.0
 40
0.0
 40
0.0
 40
0.0
 40
0.1666666666666667
 40
0.1666666666666667
 40
0.1666666666666667
 40
0.1666666666666667
 40
0.3333333333333333
 40
0.3333333333333333
 40
0.3333333333333333
 40
0.3333333333333333
 40
0.5
 40
0.5
 40
0.5
 40
0.5
 40
0.6666666666666666
 40
0.6666666666666666
 40
0.6666666666666666
 40
0.6666666666666666
 40
1.0
 40
1.0
 40
1.0
 40
1.0
 10
-89.04
 20
80.5978
 30
0.0
 10
-89.04
 20
80.5978
 30
0.0
 10
-89.0723
 20
83.85
 30
0.0
 10
-89.0723
 20
83.85
 30
0.0
 10
-89.0723
 20
83.85
 30
0.0
 10
-89.0723
 20
83.85
 30
0.0
 10
-85.9853
 20
83.8763
 30
0.0
 10
-85.9853
 20
83.8763
 30
0.0
 10
-85.9853
 20
83.8763
 30
0.0
 10
-85.9853
 20
83.8763
 30
0.0
 10
-83.7321
 20
81.5672
 30
0.0
 10
-83.7321
 20
81.5672
 30
0.0
 10
-83.7321
 20
81.5672
 30
0.0
 10
-83.7321
 20
81.5672
 30
0.0
 10
-86.8801
 20
78.4193
 30
0.0
 10
-86.8801
 20
78.4193
 30
0.0
 10
-86.8801
 20
78.4193
 30
0.0
 10
-86.8801
 20
78.4193
 30
0.0
 10
-89.04
 20
80.5978
 30
0.0
 10
-89.04
 20
80.5978
 30
0.0
  0
SPLINE
  5
D0
330
1F
100
AcDbEntity
  8
layer 1
 62
     7
100
AcDbSpline
210
0.0
220
0.0
230
1.0
 70
    11
 71
     3
 72
    24
 73
    20
 74
     0
 42
0.0000000001
 43
0.0000000001
 12
1.0
 22
0.0
 32
0.0
 13
1.0
 23
0.0
 33
0.0
 40
0.0
 40
0.0
 40
0.0
 40
0.0
 40
0.1666666666666667
 40
0.1666666666666667
 40
0.1666666666666667
 40
0.1666666666666667
 40
0.3333333333333333
 40
0.3333333333333333
 40
0.3333333333333333
 40
0.3333333333333333
 40
0.5
 40
0.5
 40
0.5
 40
0.5
 40
0.6666666666666666
 40
0.6666666666666666
 40
0.6666666666666666
 40
0.6666666666666666
 40
1.0
 40
1.0
 40
1.0
 40
1.0
 10
-72.4376
 20
80.6394
 30
0.0
 10
-72.4376
 20
80.6394
 30
0.0
 10
-72.4053
 20
83.8916
 30
0.0
 10
-72.4053
 20
83.8916
 30
0.0
 10
-72.4053
 20
83.8916
 30
0.0
 10
-72.4053
 20
83.8916
 30
0.0
 10
-75.4923
 20
83.918
 30
0.0
 10
-75.4923
 20
83.918
 30
0.0
 10
-75.4923
 20
83.918
 30
0.0
 10
-75.4923
 20
83.918
 30
0.0
 10
-77.7455
 20
81.6089
 30
0.0
 10
-77.7455
 20
81.6089
 30
0.0
 10
-77.7455
 20
81.6089
 30
0.0
 10
-77.7455
 20
81.6089
 30
0.0
 10
-74.5976
 20
78.4609
 30
0.0
 10
-74.5976
 20
78.4609
 30
0.0
 10
-74.5976
 20
78.4609
 30
0.0
 10
-74.5976
 20
78.4609
 30
0.0
 10
-72.4376
 20
80.6394
 30
0.0
 10
-72.4376
 20
80.6394
 30
0.0
  0
SPLINE
  5
D1
330
1F
100
AcDbEntity
  8
layer 1
 62
     7
100
AcDbSpline
210
0.0
220
0.0
230
1.0
 70
    11
 71
     3
 72
    24
 73
    20
 74
     0
 42
0.0000000001
 43
0.0000000001
 12
1.0
 22
0.0
 32
0.0
 13
1.0
 23
0.0
 33
0.0
 40
0.0
 40
0.0
 40
0.0
 40
0.0
 40
0.1666666666666667
 40
0.1666666666666667
 40
0.1666666666666667
 40
0.1666666666666667
 40
0.3333333333333333
 40
0.3333333333333333
 40
0.3333333333333333
 40
0.3333333333333333
 40
0.5
 40
0.5
 40
0.5
 40
0.5
 40
0.6666666666666666
 40
0.6666666666666666
 40
0.6666666666666666
 40
0.6666666666666666
 40
1.0
 40
1.0
 40
1.0
 40
1.0
 10
-89.04
 20
70.5228
 30
0.0
 10
-89.04
 20
70.5228
 30
0.0
 10
-89.0723
 20
67.2706
 30
0.0
 10
-89.0723
 20
67.2706
 30
0.0
 10
-89.0723
 20
67.2706
 30
0.0
 10
-89.0723
 20
67.2706
 30
0.0
 10
-85.9853
 20
67.2443
 30
0.0
 10
-85.9853
 20
67.2443
 30
0.0
 10
-85.9853
 20
67.2443
 30
0.0
 10
-85.9853
 20
67.2443
 30
0.0
 10
-83.7321
 20
69.5534
 30
0.0
 10
-83.7321
 20
69.5534
 30
0.0
 10
-83.7321
 20
69.5534
 30
0.0
 10
-83.7321
 20
69.5534
 30
0.0
 10
-86.8801
 20
72.7013
 30
0.0
 10
-86.8801
 20
72.7013
 30
0.0
 10
-86.8801
 20
72.7013
 30
0.0
 10
-86.8801
 20
72.7013
 30
0.0
 10
-89.04
 20
70.5228
 30
0.0
 10
-89.04
 20
70.5228
 30
0.0
  0
SPLINE
  5
D2
330
1F
100
AcDbEntity
  8
layer 1
 62
     7
100
AcDbSpline
210
0.0
220
0.0
230
1.0
 70
    11
 71
     3
 72
    24
 73
    20
 74
     0
 42
0.0000000001
 43
0.0000000001
 12
1.0
 22
0.0
 32
0.0
 13
1.0
 23
0.0
 33
0.0
 40
0.0
 40
0.0
 40
0.0
 40
0.0
 40
0.1666666666666667
 40
0.1666666666666667
 40
0.1666666666666667
 40
0.1666666666666667
 40
0.3333333333333333
 40
0.3333333333333333
 40
0.3333333333333333
 40
0.3333333333333333
 40
0.5
 40
0.5
 40
0.5
 40
0.5
 40
0.6666666666666666
 40
0.6666666666666666
 40
0.6666666666666666
 40
0.6666666666666666
 40
1.0
 40
1.0
 40
1.0
 40
1.0
 10
-72.4376
 20
70.4811
 30
0.0
 10
-72.4376
 20
70.4811
 30
0.0
 10
-72.4053
 20
67.229
 30
0.0
 10
-72.4053
 20
67.229
 30
0.0
 10
-72.4053
 20
67.229
 30
0.0
 10
-72.4053
 20
67.229
 30
0.0
 10
-75.4923
 20
67.2026
 30
0.0
 10
-75.4923
 20
67.2026
 30
0.0
 10
-75.4923
 20
67.2026
 30
0.0
 10
-75.4923
 20
67.2026
 30
0.0
 10
-77.7455
 20
69.5117
 30
0.0
 10
-77.7455
 20
69.5117
 30
0.0
 10
-77.7455
 20
69.5117
 30
0.0
 10
-77.7455
 20
69.5117
 30
0.0
 10
-74.5976
 20
72.6597
 30
0.0
 10
-74.5976
 20
72.6597
 30
0.0
 10
-74.5976
 20
72.6597
 30
0.0
 10
-74.5976
 20
72.6597
 30
0.0
 10
-72.4376
 20
70.4811
 30
0.0
 10
-72.4376
 20
70.4811
 30
0.0
  0
SPLINE
  5
D3
330
1F
100
AcDbEntity
  8
layer 1
 62
     7
100
AcDbSpline
210
0.0
220
0.0
230
1.0
 70
    11
 71
     3
 72
    20
 73
    16
 74
     0
 42
0.0000000001
 43
0.0000000001
 12
1.0
 22
0.0
 32
0.0
 13
1.0
 23
0.0
 33
0.0
 40
0.0
 40
0.0
 40
0.0
 40
0.0
 40
0.2
 40
0.2
 40
0.2
 40
0.2
 40
0.4
 40
0.4
 40
0.4
 40
0.4
 40
0.6
 40
0.6
 40
0.6
 40
0.6
 40
1.0
 40
1.0
 40
1.0
 40
1.0
 10
-128.6303
 20
75.6478
 30
0.0
 10
-128.6303
 20
75.6478
 30
0.0
 10
-125.4823
 20
78.7957
 30
0.0
 10
-125.4823
 20
78.7957
 30
0.0
 10
-125.4823
 20
78.7957
 30
0.0
 10
-125.4823
 20
78.7957
 30
0.0
 10
-122.3343
 20
75.6478
 30
0.0
 10
-122.3343
 20
75.6478
 30
0.0
 10
-122.3343
 20
75.6478
 30
0.0
 10
-122.3343
 20
75.6478
 30
0.0
 10
-125.4823
 20
72.4998
 30
0.0
 10
-125.4823
 20
72.4998
 30
0.0
 10
-125.4823
 20
72.4998
 30
0.0
 10
-125.4823
 20
72.4998
 30
0.0
 10
-128.6303
 20
75.6478
 30
0.0
 10
-128.6303
 20
75.6478
 30
0.0
  0
SPLINE
  5
D4
330
1F
100
AcDbEntity
  8
layer 1
 62
     7
100
AcDbSpline
210
0.0
220
0.0
230
1.0
 70
    11
 71
     3
 72
    24
 73
    20
 74
     0
 42
0.0000000001
 43
0.0000000001
 12
1.0
 22
0.0
 32
0.0
 13
1.0
 23
0.0
 33
0.0
 40
0.0
 40
0.0
 40
0.0
 40
0.0
 40
0.1666666666666667
 40
0.1666666666666667
 40
0.1666666666666667
 40
0.1666666666666667
 40
0.3333333333333333
 40
0.3333333333333333
 40
0.3333333333333333
 40
0.3333333333333333
 40
0.5
 40
0.5
 40
0.5
 40
0.5
 40
0.6666666666666666
 40
0.6666666666666666
 40
0.6666666666666666
 40
0.6666666666666666
 40
1.0
 40
1.0
 40
1.0
 40
1.0
 10
-133.7551
 20
80.5978
 30
0.0
 10
-133.7551
 20
80.5978
 30
0.0
 10
-133.7874
 20
83.85
 30
0.0
 10
-133.7874
 20
83.85
 30
0.0
 10
-133.7874
 20
83.85
 30
0.0
 10
-133.7874
 20
83.85
 30
0.0
 10
-130.7004
 20
83.8763
 30
0.0
 10
-130.7004
 20
83.8763
 30
0.0
 10
-130.7004
 20
83.8763
 30
0.0
 10
-130.7004
 20
83.8763
 30
0.0
 10
-128.4472
 20
81.5672
 30
0.0
 10
-128.4472
 20
81.5672
 30
0.0
 10
-128.4472
 20
81.5672
 30
0.0
 10
-128.4472
 20
81.5672
 30
0.0
 10
-131.5951
 20
78.4193
 30
0.0
 10
-131.5951
 20
78.4193
 30
0.0
 10
-131.5951
 20
78.4193
 30
0.0
 10
-131.5951
 20
78.4193
 30
0.0
 10
-133.7551
 20
80.5978
 30
0.0
 10
-133.7551
 20
80.5978
 30
0.0
  0
SPLINE
  5
D5
330
1F
100
AcDbEntity
  8
layer 1
 62
     7
100
AcDbSpline
210
0.0
220
0.0
230
1.0
 70
    11
 71
     3
 72
    24
 73
    20
 74
     0
 42
0.0000000001
 43
0.0000000001
 12
1.0
 22
0.0
 32
0.0
 13
1.0
 23
0.0
 33
0.0
 40
0.0
 40
0.0
 40
0.0
 40
0.0
 40
0.1666666666666667
 40
0.1666666666666667
 40
0.1666666666666667
 40
0.1666666666666667
 40
0.3333333333333333
 40
0.3333333333333333
 40
0.3333333333333333
 40
0.3333333333333333
 40
0.5
 40
0.5
 40
0.5
 40
0.5
 40
0.6666666666666666
 40
0.6666666666666666
 40
0.6666666666666666
 40
0.6666666666666666
 40
1.0
 40
1.0
 40
1.0
 40
1.0
 10
-117.1527
 20
80.6394
 30
0.0
 10
-117.1527
 20
80.6394
 30
0.0
 10
-117.1204
 20
83.8916
 30
0.0
 10
-117.1204
 20
83.8916
 30
0.0
 10
-117.1204
 20
83.8916
 30
0.0
 10
-117.1204
 20
83.8916
 30
0.0
 10
-120.2074
 20
83.918
 30
0.0
 10
-120.2074
 20
83.918
 30
0.0
 10
-120.2074
 20
83.918
 30
0.0
 10
-120.2074
 20
83.918
 30
0.0
 10
-122.4606
 20
81.6089
 30
0.0
 10
-122.4606
 20
81.6089
 30
0.0
 10
-122.4606
 20
81.6089
 30
0.0
 10
-122.4606
 20
81.6089
 30
0.0
 10
-119.3126
 20
78.4609
 30
0.0
 10
-119.3126
 20
78.4609
 30
0.0
 10
-119.3126
 20
78.4609
 30
0.0
 10
-119.3126
 20
78.4609
 30
0.0
 10
-117.1527
 20
80.6394
 30
0.0
 10
-117.1527
 20
80.6394
 30
0.0
  0
SPLINE
  5
D6
330
1F
100
AcDbEntity
  8
layer 1
 62
     7
100
AcDbSpline
210
0.0
220
0.0
230
1.0
 70
    11
 71
     3
 72
    24
 73
    20
 74
     0
 42
0.0000000001
 43
0.0000000001
 12
1.0
 22
0.0
 32
0.0
 13
1.0
 23
0.0
 33
0.0
 40
0.0
 40
0.0
 40
0.0
 40
0.0
 40
0.1666666666666667
 40
0.1666666666666667
 40
0.1666666666666667
 40
0.1666666666666667
 40
0.3333333333333333
 40
0.3333333333333333
 40
0.3333333333333333
 40
0.3333333333333333
 40
0.5
 40
0.5
 40
0.5
 40
0.5
 40
0.6666666666666666
 40
0.6666666666666666
 40
0.6666666666666666
 40
0.6666666666666666
 40
1.0
 40
1.0
 40
1.0
 40
1.0
 10
-133.7551
 20
70.5228
 30
0.0
 10
-133.7551
 20
70.5228
 30
0.0
 10
-133.7874
 20
67.2706
 30
0.0
 10
-133.7874
 20
67.2706
 30
0.0
 10
-133.7874
 20
67.2706
 30
0.0
 10
-133.7874
 20
67.2706
 30
0.0
 10
-130.7004
 20
67.2443
 30
0.0
 10
-130.7004
 20
67.2443
 30
0.0
 10
-130.7004
 20
67.2443
 30
0.0
 10
-130.7004
 20
67.2443
 30
0.0
 10
-128.4472
 20
69.5534
 30
0.0
 10
-128.4472
 20
69.5534
 30
0.0
 10
-128.4472
 20
69.5534
 30
0.0
 10
-128.4472
 20
69.5534
 30
0.0
 10
-131.5951
 20
72.7013
 30
0.0
 10
-131.5951
 20
72.7013
 30
0.0
 10
-131.5951
 20
72.7013
 30
0.0
 10
-131.5951
 20
72.7013
 30
0.0
 10
-133.7551
 20
70.5228
 30
0.0
 10
-133.7551
 20
70.5228
 30
0.0
  0
SPLINE
  5
D7
330
1F
100
AcDbEntity
  8
layer 1
 62
     7
100
AcDbSpline
210
0.0
220
0.0
230
1.0
 70
    11
 71
     3
 72
    24
 73
    20
 74
     0
 42
0.0000000001
 43
0.0000000001
 12
1.0
 22
0.0
 32
0.0
 13
1.0
 23
0.0
 33
0.0
 40
0.0
 40
0.0
 40
0.0
 40
0.0
 40
0.1666666666666667
 40
0.1666666666666667
 40
0.1666666666666667
 40
0.1666666666666667
 40
0.3333333333333333
 40
0.3333333333333333
 40
0.3333333333333333
 40
0.3333333333333333
 40
0.5
 40
0.5
 40
0.5
 40
0.5
 40
0.6666666666666666
 40
0.6666666666666666
 40
0.6666666666666666
 40
0.6666666666666666
 40
1.0
 40
1.0
 40
1.0
 40
1.0
 10
-117.1527
 20
70.4811
 30
0.0
 10
-117.1527
 20
70.4811
 30
0.0
 10
-117.1204
 20
67.229
 30
0.0
 10
-117.1204
 20
67.229
 30
0.0
 10
-117.1204
 20
67.229
 30
0.0
 10
-117.1204
 20
67.229
 30
0.0
 10
-120.2074
 20
67.2026
 30
0.0
 10
-120.2074
 20
67.2026
 30
0.0
 10
-120.2074
 20
67.2026
 30
0.0
 10
-120.2074
 20
67.2026
 30
0.0
 10
-122.4606
 20
69.5117
 30
0.0
 10
-122.4606
 20
69.5117
 30
0.0
 10
-122.4606
 20
69.5117
 30
0.0
 10
-122.4606
 20
69.5117
 30
0.0
 10
-119.3126
 20
72.6597
 30
0.0
 10
-119.3126
 20
72.6597
 30
0.0
 10
-119.3126
 20
72.6597
 30
0.0
 10
-119.3126
 20
72.6597
 30
0.0
 10
-117.1527
 20
70.4811
 30
0.0
 10
-117.1527
 20
70.4811
 30
0.0
  0
SPLINE
  5
D8
330
1F
100
AcDbEntity
  8
layer 1
 62
     7
100
AcDbSpline
210
0.0
220
0.0
230
1.0
 70
    11
 71
     3
 72
    20
 73
    16
 74
     0
 42
0.0000000001
 43
0.0000000001
 12
1.0
 22
0.0
 32
0.0
 13
1.0
 23
0.0
 33
0.0
 40
0.0
 40
0.0
 40
0.0
 40
0.0
 40
0.2
 40
0.2
 40
0.2
 40
0.2
 40
0.4
 40
0.4
 40
0.4
 40
0.4
 40
0.6
 40
0.6
 40
0.6
 40
0.6
 40
1.0
 40
1.0
 40
1.0
 40
1.0
 10
-173.364
 20
75.6478
 30
0.0
 10
-173.364
 20
75.6478
 30
0.0
 10
-170.216
 20
78.7957
 30
0.0
 10
-170.216
 20
78.7957
 30
0.0
 10
-170.216
 20
78.7957
 30
0.0
 10
-170.216
 20
78.7957
 30
0.0
 10
-167.0681
 20
75.6478
 30
0.0
 10
-167.0681
 20
75.6478
 30
0.0
 10
-167.0681
 20
75.6478
 30
0.0
 10
-167.0681
 20
75.6478
 30
0.0
 10
-170.216
 20
72.4998
 30
0.0
 10
-170.216
 20
72.4998
 30
0.0
 10
-170.216
 20
72.4998
 30
0.0
 10
-170.216
 20
72.4998
 30
0.0
 10
-173.364
 20
75.6478
 30
0.0
 10
-173.364
 20
75.6478
 30
0.0
  0
SPLINE
  5
D9
330
1F
100
AcDbEntity
  8
layer 1
 62
     7
100
AcDbSpline
210
0.0
220
0.0
230
1.0
 70
    11
 71
     3
 72
    24
 73
    20
 74
     0
 42
0.0000000001
 43
0.0000000001
 12
1.0
 22
0.0
 32
0.0
 13
1.0
 23
0.0
 33
0.0
 40
0.0
 40
0.0
 40
0.0
 40
0.0
 40
0.1666666666666667
 40
0.1666666666666667
 40
0.1666666666666667
 40
0.1666666666666667
 40
0.3333333333333333
 40
0.3333333333333333
 40
0.3333333333333333
 40
0.3333333333333333
 40
0.5
 40
0.5
 40
0.5
 40
0.5
 40
0.6666666666666666
 40
0.6666666666666666
 40
0.6666666666666666
 40
0.6666666666666666
 40
1.0
 40
1.0
 40
1.0
 40
1.0
 10
-178.489
 20
80.5978
 30
0.0
 10
-178.489
 20
80.5978
 30
0.0
 10
-178.5212
 20
83.85
 30
0.0
 10
-178.5212
 20
83.85
 30
0.0
 10
-178.5212
 20
83.85
 30
0.0
 10
-178.5212
 20
83.85
 30
0.0
 10
-175.4343
 20
83.8763
 30
0.0
 10
-175.4343
 20
83.8763
 30
0.0
 10
-175.4343
 20
83.8763
 30
0.0
 10
-175.4343
 20
83.8763
 30
0.0
 10
-173.1811
 20
81.5672
 30
0.0
 10
-173.1811
 20
81.5672
 30
0.0
 10
-173.1811
 20
81.5672
 30
0.0
 10
-173.1811
 20
81.5672
 30
0.0
 10
-176.329
 20
78.4193
 30
0.0
 10
-176.329
 20
78.4193
 30
0.0
 10
-176.329
 20
78.4193
 30
0.0
 10
-176.329
 20
78.4193
 30
0.0
 10
-178.489
 20
80.5978
 30
0.0
 10
-178.489
 20
80.5978
 30
0.0
  0
SPLINE
  5
DA
330
1F
100
AcDbEntity
  8
layer 1
 62
     7
100
AcDbSpline
210
0.0
220
0.0
230
1.0
 70
    11
 71
     3
 72
    24
 73
    20
 74
     0
 42
0.0000000001
 43
0.0000000001
 12
1.0
 22
0.0
 32
0.0
 13
1.0
 23
0.0
 33
0.0
 40
0.0
 40
0.0
 40
0.0
 40
0.0
 40
0.1666666666666667
 40
0.1666666666666667
 40
0.1666666666666667
 40
0.1666666666666667
 40
0.3333333333333333
 40
0.3333333333333333
 40
0.3333333333333333
 40
0.3333333333333333
 40
0.5
 40
0.5
 40
0.5
 40
0.5
 40
0.6666666666666666
 40
0.6666666666666666
 40
0.6666666666666666
 40
0.6666666666666666
 40
1.0
 40
1.0
 40
1.0
 40
1.0
 10
-161.8866
 20
80.6394
 30
0.0
 10
-161.8866
 20
80.6394
 30
0.0
 10
-161.8543
 20
83.8916
 30
0.0
 10
-161.8543
 20
83.8916
 30
0.0
 10
-161.8543
 20
83.8916
 30
0.0
 10
-161.8543
 20
83.8916
 30
0.0
 10
-164.9413
 20
83.918
 30
0.0
 10
-164.9413
 20
83.918
 30
0.0
 10
-164.9413
 20
83.918
 30
0.0
 10
-164.9413
 20
83.918
 30
0.0
 10
-167.1945
 20
81.6089
 30
0.0
 10
-167.1945
 20
81.6089
 30
0.0
 10
-167.1945
 20
81.6089
 30
0.0
 10
-167.1945
 20
81.6089
 30
0.0
 10
-164.0465
 20
78.4609
 30
0.0
 10
-164.0465
 20
78.4609
 30
0.0
 10
-164.0465
 20
78.4609
 30
0.0
 10
-164.0465
 20
78.4609
 30
0.0
 10
-161.8866
 20
80.6394
 30
0.0
 10
-161.8866
 20
80.6394
 30
0.0
  0
SPLINE
  5
DB
330
1F
100
AcDbEntity
  8
layer 1
 62
     7
100
AcDbSpline
210
0.0
220
0.0
230
1.0
 70
    11
 71
     3
 72
    24
 73
    20
 74
     0
 42
0.0000000001
 43
0.0000000001
 12
1.0
 22
0.0
 32
0.0
 13
1.0
 23
0.0
 33
0.0
 40
0.0
 40
0.0
 40
0.0
 40
0.0
 40
0.1666666666666667
 40
0.1666666666666667
 40
0.1666666666666667
 40
0.1666666666666667
 40
0.3333333333333333
 40
0.3333333333333333
 40
0.3333333333333333
 40
0.3333333333333333
 40
0.5
 40
0.5
 40
0.5
 40
0.5
 40
0.6666666666666666
 40
0.6666666666666666
 40
0.6666666666666666
 40
0.6666666666666666
 40
1.0
 40
1.0
 40
1.0
 40
1.0
 10
-178.489
 20
70.5228
 30
0.0
 10
-178.489
 20
70.5228
 30
0.0
 10
-178.5212
 20
67.2706
 30
0.0
 10
-178.5212
 20
67.2706
 30
0.0
 10
-178.5212
 20
67.2706
 30
0.0
 10
-178.5212
 20
67.2706
 30
0.0
 10
-175.4343
 20
67.2443
 30
0.0
 10
-175.4343
 20
67.2443
 30
0.0
 10
-175.4343
 20
67.2443
 30
0.0
 10
-175.4343
 20
67.2443
 30
0.0
 10
-173.1811
 20
69.5534
 30
0.0
 10
-173.1811
 20
69.5534
 30
0.0
 10
-173.1811
 20
69.5534
 30
0.0
 10
-173.1811
 20
69.5534
 30
0.0
 10
-176.329
 20
72.7013
 30
0.0
 10
-176.329
 20
72.7013
 30
0.0
 10
-176.329
 20
72.7013
 30
0.0
 10
-176.329
 20
72.7013
 30
0.0
 10
-178.489
 20
70.5228
 30
0.0
 10
-178.489
 20
70.5228
 30
0.0
  0
SPLINE
  5
DC
330
1F
100
AcDbEntity
  8
layer 1
 62
     7
100
AcDbSpline
210
0.0
220
0.0
230
1.0
 70
    11
 71
     3
 72
    24
 73
    20
 74
     0
 42
0.0000000001
 43
0.0000000001
 12
1.0
 22
0.0
 32
0.0
 13
1.0
 23
0.0
 33
0.0
 40
0.0
 40
0.0
 40
0.0
 40
0.0
 40
0.1666666666666667
 40
0.1666666666666667
 40
0.1666666666666667
 40
0.1666666666666667
 40
0.3333333333333333
 40
0.3333333333333333
 40
0.3333333333333333
 40
0.3333333333333333
 40
0.5
 40
0.5
 40
0.5
 40
0.5
 40
0.6666666666666666
 40
0.6666666666666666
 40
0.6666666666666666
 40
0.6666666666666666
 40
1.0
 40
1.0
 40
1.0
 40
1.0
 10
-161.8866
 20
70.4811
 30
0.0
 10
-161.8866
 20
70.4811
 30
0.0
 10
-161.8543
 20
67.229
 30
0.0
 10
-161.8543
 20
67.229
 30
0.0
 10
-161.8543
 20
67.229
 30
0.0
 10
-161.8543
 20
67.229
 30
0.0
 10
-164.9413
 20
67.2026
 30
0.0
 10
-164.9413
 20
67.2026
 30
0.0
 10
-164.9413
 20
67.2026
 30
0.0
 10
-164.9413
 20
67.2026
 30
0.0
 10
-167.1945
 20
69.5117
 30
0.0
 10
-167.1945
 20
69.5117
 30
0.0
 10
-167.1945
 20
69.5117
 30
0.0
 10
-167.1945
 20
69.5117
 30
0.0
 10
-164.0465
 20
72.6597
 30
0.0
 10
-164.0465
 20
72.6597
 30
0.0
 10
-164.0465
 20
72.6597
 30
0.0
 10
-164.0465
 20
72.6597
 30
0.0
 10
-161.8866
 20
70.4811
 30
0.0
 10
-161.8866
 20
70.4811
 30
0.0
  0
ENDSEC
  0
SECTION
  2
OBJECTS
  0
DICTIONARY
  5
C
330
0
100
AcDbDictionary
281
     1
  3
ACAD_GROUP
350
D
  3
ACAD_LAYOUT
350
1A
  3
ACAD_MATERIAL
350
3B
  3
ACAD_MLEADERSTYLE
350
FF
  3
ACAD_MLINESTYLE
350
17
  3
ACAD_PLOTSETTINGS
350
19
  3
ACAD_PLOTSTYLENAME
350
E
  3
ACAD_TABLESTYLE
350
FE
  3
ACAD_VISUALSTYLE
350
2A
  0
DICTIONARY
  5
D
102
{ACAD_REACTORS
330
C
102
}
330
C
100
AcDbDictionary
281
     1
  0
DICTIONARY
  5
1A
102
{ACAD_REACTORS
330
C
102
}
330
C
100
AcDbDictionary
281
     1
  3
Layout1
350
1E
  3
Layout2
350
26
  3
Model
350
22
  0
DICTIONARY
  5
3B
102
{ACAD_REACTORS
330
C
102
}
330
C
100
AcDbDictionary
281
     1
  3
ByBlock
350
3D
  3
ByLayer
350
3C
  3
Global
350
3E
  0
DICTIONARY
  5
FF
102
{ACAD_REACTORS
330
C
102
}
330
C
100
AcDbDictionary
281
     1
  0
DICTIONARY
  5
17
102
{ACAD_REACTORS
330
C
102
}
330
C
100
AcDbDictionary
281
     1
  3
Standard
350
18
  0
DICTIONARY
  5
19
102
{ACAD_REACTORS
330
C
102
}
330
C
100
AcDbDictionary
281
     1
  0
ACDBDICTIONARYWDFLT
  5
E
102
{ACAD_REACTORS
330
C
102
}
330
C
100
AcDbDictionary
281
     1
  3
Normal
350
F
100
AcDbDictionaryWithDefault
340
F
  0
DICTIONARY
  5
FE
102
{ACAD_REACTORS
330
C
102
}
330
C
100
AcDbDictionary
281
     1
  0
DICTIONARY
  5
2A
102
{ACAD_REACTORS
330
C
102
}
330
C
100
AcDbDictionary
281
     1
  3
2dWireframe
350
2F
  3
3D Hidden
350
31
  3
3dWireframe
350
30
  3
Basic
350
32
  3
Brighten
350
36
  3
ColorChange
350
3A
  3
Conceptual
350
34
  3
Dim
350
35
  3
Facepattern
350
39
  3
Flat
350
2B
  3
FlatWithEdges
350
2C
  3
Gouraud
350
2D
  3
GouraudWithEdges
350
2E
  3
Linepattern
350
38
  3
Realistic
350
33
  3
Thicken
350
37
  0
LAYOUT
  5
1E
102
{ACAD_REACTORS
330
1A
102
}
330
1A
100
AcDbPlotSettings
  1

  2
none_device
  4

  6

 40
0.0
 41
0.0
 42
0.0
 43
0.0
 44
0.0
 45
0.0
 46
0.0
 47
0.0
 48
0.0
 49
0.0
140
0.0
141
0.0
142
1.0
143
1.0
 70
   688
 72
     0
 73
     0
 74
     5
  7

 75
    16
 76
     0
 77
     2
 78
   300
147
1.0
148
0.0
149
0.0
100
AcDbLayout
  1
Layout1
 70
     1
 71
     1
 10
0.0
 20
0.0
 11
12.0
 21
9.0
 12
0.0
 22
0.0
 32
0.0
 14
1.000000000000000E+20
 24
1.000000000000000E+20
 34
1.000000000000000E+20
 15
-1.000000000000000E+20
 25
-1.000000000000000E+20
 35
-1.000000000000000E+20
146
0.0
 13
0.0
 23
0.0
 33
0.0
 16
1.0
 26
0.0
 36
0.0
 17
0.0
 27
1.0
 37
0.0
 76
     0
330
1B
  0
LAYOUT
  5
26
102
{ACAD_REACTORS
330
1A
102
}
330
1A
100
AcDbPlotSettings
  1

  2
none_device
  4

  6

 40
0.0
 41
0.0
 42
0.0
 43
0.0
 44
0.0
 45
0.0
 46
0.0
 47
0.0
 48
0.0
 49
0.0
140
0.0
141
0.0
142
1.0
143
1.0
 70
   688
 72
     0
 73
     0
 74
     5
  7

 75
    16
 76
     0
 77
     2
 78
   300
147
1.0
148
0.0
149
0.0
100
AcDbLayout
  1
Layout2
 70
     1
 71
     2
 10
0.0
 20
0.0
 11
0.0
 21
0.0
 12
0.0
 22
0.0
 32
0.0
 14
0.0
 24
0.0
 34
0.0
 15
0.0
 25
0.0
 35
0.0
146
0.0
 13
0.0
 23
0.0
 33
0.0
 16
1.0
 26
0.0
 36
0.0
 17
0.0
 27
1.0
 37
0.0
 76
     0
330
23
  0
LAYOUT
  5
22
102
{ACAD_REACTORS
330
1A
102
}
330
1A
100
AcDbPlotSettings
  1

  2
none_device
  4

  6

 40
0.0
 41
0.0
 42
0.0
 43
0.0
 44
0.0
 45
0.0
 46
0.0
 47
0.0
 48
0.0
 49
0.0
140
0.0
141
0.0
142
1.0
143
1.0
 70
  1712
 72
     0
 73
     0
 74
     0
  7

 75
     0
 76
     0
 77
     2
 78
   300
147
1.0
148
0.0
149
0.0
100
AcDbLayout
  1
Model
 70
     1
 71
     0
 10
0.0
 20
0.0
 11
12.0
 21
9.0
 12
0.0
 22
0.0
 32
0.0
 14
-187.2178
 24
-114.6908
 34
0.0
 15
-62.5948
 25
131.7228
 35
0.0
146
0.0
 13
0.0
 23
0.0
 33
0.0
 16
1.0
 26
0.0
 36
0.0
 17
0.0
 27
1.0
 37
0.0
 76
     0
330
1F
331
29
  0
MATERIAL
  5
3D
102
{ACAD_REACTORS
330
3B
102
}
330
3B
100
AcDbMaterial
  1
ByBlock
 72
     1
 94
      127
  0
MATERIAL
  5
3C
102
{ACAD_REACTORS
330
3B
102
}
330
3B
100
AcDbMaterial
  1
ByLayer
 72
     1
 94
      127
  0
MATERIAL
  5
3E
102
{ACAD_REACTORS
330
3B
102
}
330
3B
100
AcDbMaterial
  1
Global
 72
     1
 94
      127
  0
MLINESTYLE
  5
18
102
{ACAD_REACTORS
330
17
102
}
330
17
100
AcDbMlineStyle
  2
Standard
 70
     0
  3

 62
   256
 51
90.0
 52
90.0
 71
     2
 49
0.5
 62
   256
  6
BYLAYER
 49
-0.5
 62
   256
  6
BYLAYER
  0
ACDBPLACEHOLDER
  5
F
102
{ACAD_REACTORS
330
E
102
}
330
E
  0
VISUALSTYLE
  5
2F
102
{ACAD_REACTORS
330
2A
102
}
102
{ACAD_XDICTIONARY
360
E6
102
}
330
2A
100
AcDbVisualStyle
  2
2dWireframe
 70
     4
 71
     0
 72
     2
 73
     0
 90
        0
 40
-0.6
 41
-30.0
 62
     5
 63
     7
421
 16777215
 74
     1
 91
        4
 64
     7
 65
   257
 75
     1
175
     1
 42
1.0
 92
        0
 66
   257
 43
1.0
 76
     1
 77
     6
 78
     2
 67
     7
 79
     5
170
     0
171
     0
290
     0
174
     0
 93
        1
 44
0.0
173
     0
291
     0
 45
0.0
  0
VISUALSTYLE
  5
31
102
{ACAD_REACTORS
330
2A
102
}
102
{ACAD_XDICTIONARY
360
EA
102
}
330
2A
100
AcDbVisualStyle
  2
3D Hidden
 70
     6
 71
     1
 72
     2
 73
     2
 90
        0
 40
-0.6
 41
-30.0
 62
     5
 63
     7
421
 16777215
 74
     2
 91
        2
 64
     7
 65
   257
 75
     2
175
     1
 42
40.0
 92
        0
 66
   257
 43
1.0
 76
     1
 77
     6
 78
     2
 67
     7
 79
     3
170
     0
171
     0
290
     0
174
     0
 93
        1
 44
0.0
173
     0
291
     0
 45
0.0
  0
VISUALSTYLE
  5
30
102
{ACAD_REACTORS
330
2A
102
}
102
{ACAD_XDICTIONARY
360
E8
102
}
330
2A
100
AcDbVisualStyle
  2
3dWireframe
 70
     5
 71
     0
 72
     2
 73
     0
 90
        0
 40
-0.6
 41
-30.0
 62
     5
 63
     7
421
 16777215
 74
     1
 91
        4
 64
     7
 65
   257
 75
     1
175
     1
 42
1.0
 92
        0
 66
   257
 43
1.0
 76
     1
 77
     6
 78
     2
 67
     7
 79
     5
170
     0
171
     0
290
     0
174
     0
 93
        1
 44
0.0
173
     0
291
     0
 45
0.0
  0
VISUALSTYLE
  5
32
102
{ACAD_REACTORS
330
2A
102
}
102
{ACAD_XDICTIONARY
360
EC
102
}
330
2A
100
AcDbVisualStyle
  2
Basic
 70
     7
 71
     1
 72
     0
 73
     1
 90
        0
 40
-0.6
 41
-30.0
 62
     5
 63
     7
421
 16777215
 74
     0
 91
        4
 64
     7
 65
   257
 75
     1
175
     1
 42
1.0
 92
        8
 66
     7
 43
1.0
 76
     1
 77
     6
 78
     2
 67
     7
 79
     5
170
     0
171
     0
290
     0
174
     0
 93
        1
 44
0.0
173
     0
291
     1
 45
0.0
  0
VISUALSTYLE
  5
36
102
{ACAD_REACTORS
330
2A
102
}
102
{ACAD_XDICTIONARY
360
F4
102
}
330
2A
100
AcDbVisualStyle
  2
Brighten
 70
    12
 71
     2
 72
     2
 73
     0
 90
        0
 40
-0.6
 41
-30.0
 62
     5
 63
     7
421
 16777215
 74
     1
 91
        4
 64
     7
 65
   257
 75
     1
175
     1
 42
1.0
 92
        8
 66
     7
 43
1.0
 76
     1
 77
     6
 78
     2
 67
     7
 79
     5
170
     0
171
     0
290
     0
174
     0
 93
        1
 44
50.0
173
     0
291
     1
 45
0.0
  0
VISUALSTYLE
  5
3A
102
{ACAD_REACTORS
330
2A
102
}
102
{ACAD_XDICTIONARY
360
FC
102
}
330
2A
100
AcDbVisualStyle
  2
ColorChange
 70
    16
 71
     2
 72
     2
 73
     3
 90
        0
 40
-0.6
 41
-30.0
 62
     5
 63
     8
421
  8421504
 74
     1
 91
        4
 64
     7
 65
   257
 75
     1
175
     1
 42
1.0
 92
        8
 66
     8
424
  8421504
 43
1.0
 76
     1
 77
     6
 78
     2
 67
     7
 79
     5
170
     0
171
     0
290
     0
174
     0
 93
        1
 44
0.0
173
     0
291
     1
 45
0.0
  0
VISUALSTYLE
  5
34
102
{ACAD_REACTORS
330
2A
102
}
102
{ACAD_XDICTIONARY
360
F0
102
}
330
2A
100
AcDbVisualStyle
  2
Conceptual
 70
     9
 71
     3
 72
     2
 73
     0
 90
        0
 40
-0.6
 41
-30.0
 62
     5
 63
     7
421
 16777215
 74
     2
 91
        2
 64
     7
 65
   257
 75
     1
175
     1
 42
40.0
 92
        8
 66
     7
 43
1.0
 76
     1
 77
     6
 78
     2
 67
     7
 79
     3
170
     0
171
     0
290
     0
174
     0
 93
        1
 44
0.0
173
     0
291
     0
 45
0.0
  0
VISUALSTYLE
  5
35
102
{ACAD_REACTORS
330
2A
102
}
102
{ACAD_XDICTIONARY
360
F2
102
}
330
2A
100
AcDbVisualStyle
  2
Dim
 70
    11
 71
     2
 72
     2
 73
     0
 90
        0
 40
-0.6
 41
-30.0
 62
     5
 63
     7
421
 16777215
 74
     1
 91
        4
 64
     7
 65
   257
 75
     1
175
     1
 42
1.0
 92
        8
 66
     7
 43
1.0
 76
     1
 77
     6
 78
     2
 67
     7
 79
     5
170
     0
171
     0
290
     0
174
     0
 93
        1
 44
-50.0
173
     0
291
     1
 45
0.0
  0
VISUALSTYLE
  5
39
102
{ACAD_REACTORS
330
2A
102
}
102
{ACAD_XDICTIONARY
360
FA
102
}
330
2A
100
AcDbVisualStyle
  2
Facepattern
 70
    15
 71
     2
 72
     2
 73
     0
 90
        0
 40
-0.6
 41
-30.0
 62
     5
 63
     7
421
 16777215
 74
     1
 91
        4
 64
     7
 65
   257
 75
     1
175
     1
 42
1.0
 92
        8
 66
     7
 43
1.0
 76
     1
 77
     6
 78
     2
 67
     7
 79
     5
170
     0
171
     0
290
     0
174
     0
 93
        1
 44
0.0
173
     0
291
     1
 45
0.0
  0
VISUALSTYLE
  5
2B
102
{ACAD_REACTORS
330
2A
102
}
102
{ACAD_XDICTIONARY
360
DE
102
}
330
2A
100
AcDbVisualStyle
  2
Flat
 70
     0
 71
     2
 72
     1
 73
     1
 90
        2
 40
-0.6
 41
30.0
 62
     5
 63
     7
421
 16777215
 74
     0
 91
        4
 64
     7
 65
   257
 75
     1
175
     1
 42
1.0
 92
        8
 66
     7
 43
1.0
 76
     1
 77
     6
 78
     2
 67
     7
 79
     5
170
     0
171
     0
290
     0
174
     0
 93
       13
 44
0.0
173
     0
291
     1
 45
0.0
  0
VISUALSTYLE
  5
2C
102
{ACAD_REACTORS
330
2A
102
}
102
{ACAD_XDICTIONARY
360
E0
102
}
330
2A
100
AcDbVisualStyle
  2
FlatWithEdges
 70
     1
 71
     2
 72
     1
 73
     1
 90
        2
 40
-0.6
 41
30.0
 62
     5
 63
     7
421
 16777215
 74
     1
 91
        4
 64
     7
 65
   257
 75
     1
175
     1
 42
1.0
 92
        0
 66
   257
 43
1.0
 76
     1
 77
     6
 78
     2
 67
     7
 79
     5
170
     0
171
     0
290
     0
174
     0
 93
       13
 44
0.0
173
     0
291
     1
 45
0.0
  0
VISUALSTYLE
  5
2D
102
{ACAD_REACTORS
330
2A
102
}
102
{ACAD_XDICTIONARY
360
E2
102
}
330
2A
100
AcDbVisualStyle
  2
Gouraud
 70
     2
 71
     2
 72
     2
 73
     1
 90
        2
 40
-0.6
 41
30.0
 62
     5
 63
     7
421
 16777215
 74
     0
 91
        4
 64
     7
 65
   257
 75
     1
175
     1
 42
1.0
 92
        0
 66
     7
 43
1.0
 76
     1
 77
     6
 78
     2
 67
     7
 79
     5
170
     0
171
     0
290
     0
174
     0
 93
       13
 44
0.0
173
     0
291
     1
 45
0.0
  0
VISUALSTYLE
  5
2E
102
{ACAD_REACTORS
330
2A
102
}
102
{ACAD_XDICTIONARY
360
E4
102
}
330
2A
100
AcDbVisualStyle
  2
GouraudWithEdges
 70
     3
 71
     2
 72
     2
 73
     1
 90
        2
 40
-0.6
 41
30.0
 62
     5
 63
     7
421
 16777215
 74
     1
 91
        4
 64
     7
 65
   257
 75
     1
175
     1
 42
1.0
 92
        0
 66
   257
 43
1.0
 76
     1
 77
     6
 78
     2
 67
     7
 79
     5
170
     0
171
     0
290
     0
174
     0
 93
       13
 44
0.0
173
     0
291
     1
 45
0.0
  0
VISUALSTYLE
  5
38
102
{ACAD_REACTORS
330
2A
102
}
102
{ACAD_XDICTIONARY
360
F8
102
}
330
2A
100
AcDbVisualStyle
  2
Linepattern
 70
    14
 71
     2
 72
     2
 73
     0
 90
        0
 40
-0.6
 41
-30.0
 62
     5
 63
     7
421
 16777215
 74
     1
 91
        4
 64
     7
 65
   257
 75
     7
175
     7
 42
1.0
 92
        8
 66
     7
 43
1.0
 76
     1
 77
     6
 78
     2
 67
     7
 79
     5
170
     0
171
     0
290
     0
174
     0
 93
        1
 44
0.0
173
     0
291
     1
 45
0.0
  0
VISUALSTYLE
  5
33
102
{ACAD_REACTORS
330
2A
102
}
102
{ACAD_XDICTIONARY
360
EE
102
}
330
2A
100
AcDbVisualStyle
  2
Realistic
 70
     8
 71
     2
 72
     2
 73
     0
 90
        0
 40
-0.6
 41
-30.0
 62
     5
 63
     7
421
 16777215
 74
     1
 91
        0
 64
     7
 65
   257
 75
     1
175
     1
 42
1.0
 92
        8
 66
     8
424
  7895160
 43
1.0
 76
     1
 77
     6
 78
     2
 67
     7
 79
     5
170
     0
171
     0
290
     0
174
     0
 93
       13
 44
0.0
173
     0
291
     0
 45
0.0
  0
VISUALSTYLE
  5
37
102
{ACAD_REACTORS
330
2A
102
}
102
{ACAD_XDICTIONARY
360
F6
102
}
330
2A
100
AcDbVisualStyle
  2
Thicken
 70
    13
 71
     2
 72
     2
 73
     0
 90
        0
 40
-0.6
 41
-30.0
 62
     5
 63
     7
421
 16777215
 74
     1
 91
        4
 64
     7
 65
   257
 75
     1
175
     1
 42
1.0
 92
       12
 66
     7
 43
1.0
 76
     1
 77
     6
 78
     2
 67
     7
 79
     5
170
     0
171
     0
290
     0
174
     0
 93
        1
 44
0.0
173
     0
291
     1
 45
0.0
  0
DICTIONARY
  5
E6
330
2F
100
AcDbDictionary
280
     1
281
     1
  3
ACAD_XREC_ROUNDTRIP
360
E7
  0
DICTIONARY
  5
EA
330
31
100
AcDbDictionary
280
     1
281
     1
  3
ACAD_XREC_ROUNDTRIP
360
EB
  0
DICTIONARY
  5
E8
330
30
100
AcDbDictionary
280
     1
281
     1
  3
ACAD_XREC_ROUNDTRIP
360
E9
  0
DICTIONARY
  5
EC
330
32
100
AcDbDictionary
280
     1
281
     1
  3
ACAD_XREC_ROUNDTRIP
360
ED
  0
DICTIONARY
  5
F4
330
36
100
AcDbDictionary
280
     1
281
     1
  3
ACAD_XREC_ROUNDTRIP
360
F5
  0
DICTIONARY
  5
FC
330
3A
100
AcDbDictionary
280
     1
281
     1
  3
ACAD_XREC_ROUNDTRIP
360
FD
  0
DICTIONARY
  5
F0
330
34
100
AcDbDictionary
280
     1
281
     1
  3
ACAD_XREC_ROUNDTRIP
360
F1
  0
DICTIONARY
  5
F2
330
35
100
AcDbDictionary
280
     1
281
     1
  3
ACAD_XREC_ROUNDTRIP
360
F3
  0
DICTIONARY
  5
FA
330
39
100
AcDbDictionary
280
     1
281
     1
  3
ACAD_XREC_ROUNDTRIP
360
FB
  0
DICTIONARY
  5
DE
330
2B
100
AcDbDictionary
280
     1
281
     1
  3
ACAD_XREC_ROUNDTRIP
360
DF
  0
DICTIONARY
  5
E0
330
2C
100
AcDbDictionary
280
     1
281
     1
  3
ACAD_XREC_ROUNDTRIP
360
E1
  0
DICTIONARY
  5
E2
330
2D
100
AcDbDictionary
280
     1
281
     1
  3
ACAD_XREC_ROUNDTRIP
360
E3
  0
DICTIONARY
  5
E4
330
2E
100
AcDbDictionary
280
     1
281
     1
  3
ACAD_XREC_ROUNDTRIP
360
E5
  0
DICTIONARY
  5
F8
330
38
100
AcDbDictionary
280
     1
281
     1
  3
ACAD_XREC_ROUNDTRIP
360
F9
  0
DICTIONARY
  5
EE
330
33
100
AcDbDictionary
280
     1
281
     1
  3
ACAD_XREC_ROUNDTRIP
360
EF
  0
DICTIONARY
  5
F6
330
37
100
AcDbDictionary
280
     1
281
     1
  3
ACAD_XREC_ROUNDTRIP
360
F7
  0
XRECORD
  5
E7
102
{ACAD_REACTORS
330
E6
102
}
330
E6
100
AcDbXrecord
280
     1
102
RTVSPropertyOp0
 70
     1
102
RTVSPropertyOp1
 70
     1
102
RTVSPropertyOp2
 70
     1
102
RTVSPropertyOp3
 70
     1
102
RTVSPropertyOp4
 70
     1
102
RTVSPropertyOp5
 70
     1
102
RTVSPropertyOp6
 70
     1
102
RTVSPropertyOp7
 70
     1
102
RTVSPropertyOp8
 70
     1
102
RTVSPropertyOp9
 70
     1
102
RTVSPropertyOp10
 70
     1
102
RTVSPropertyOp11
 70
     1
102
RTVSPropertyOp12
 70
     1
102
RTVSPropertyOp13
 70
     1
102
RTVSPropertyOp14
 70
     1
102
RTVSPropertyOp15
 70
     1
102
RTVSPropertyOp16
 70
     1
102
RTVSPropertyOp17
 70
     1
102
RTVSPropertyOp18
 70
     1
102
RTVSPropertyOp19
 70
     1
102
RTVSPropertyOp20
 70
     1
102
RTVSPropertyOp21
 70
     1
102
RTVSPropertyOp22
 70
     1
102
RTVSPropertyOp23
 70
     1
102
RTVSPropertyOp24
 70
     1
102
RTVSPropertyOp25
 70
     1
102
RTVSPropertyOp26
 70
     1
102
RTVSPropertyOp27
 70
     1
102
RTVSPropertyOp28
 70
     1
102
RTVSPropertyOp29
 70
     1
102
RTVSPropertyOp30
 70
     1
102
RTVSPropertyOp31
 70
     1
102
RTVSPropertyOp32
 70
     1
  0
XRECORD
  5
EB
102
{ACAD_REACTORS
330
EA
102
}
330
EA
100
AcDbXrecord
280
     1
102
RTVSPropertyOp0
 70
     1
102
RTVSPropertyOp1
 70
     1
102
RTVSPropertyOp2
 70
     1
102
RTVSPropertyOp3
 70
     1
102
RTVSPropertyOp4
 70
     1
102
RTVSPropertyOp5
 70
     1
102
RTVSPropertyOp6
 70
     1
102
RTVSPropertyOp7
 70
     1
102
RTVSPropertyOp8
 70
     1
102
RTVSPropertyOp9
 70
     1
102
RTVSPropertyOp10
 70
     1
102
RTVSPropertyOp11
 70
     1
102
RTVSPropertyOp12
 70
     1
102
RTVSPropertyOp13
 70
     1
102
RTVSPropertyOp14
 70
     1
102
RTVSPropertyOp15
 70
     1
102
RTVSPropertyOp16
 70
     1
102
RTVSPropertyOp17
 70
     1
102
RTVSPropertyOp18
 70
     1
102
RTVSPropertyOp19
 70
     1
102
RTVSPropertyOp20
 70
     1
102
RTVSPropertyOp21
 70
     1
102
RTVSPropertyOp22
 70
     1
102
RTVSPropertyOp23
 70
     1
102
RTVSPropertyOp24
 70
     1
102
RTVSPropertyOp25
 70
     1
102
RTVSPropertyOp26
 70
     1
102
RTVSPropertyOp27
 70
     1
102
RTVSPropertyOp28
 70
     1
102
RTVSPropertyOp29
 70
     1
102
RTVSPropertyOp30
 70
     1
102
RTVSPropertyOp31
 70
     1
102
RTVSPropertyOp32
 70
     1
  0
XRECORD
  5
E9
102
{ACAD_REACTORS
330
E8
102
}
330
E8
100
AcDbXrecord
280
     1
102
RTVSPropertyOp0
 70
     1
102
RTVSPropertyOp1
 70
     1
102
RTVSPropertyOp2
 70
     1
102
RTVSPropertyOp3
 70
     1
102
RTVSPropertyOp4
 70
     1
102
RTVSPropertyOp5
 70
     1
102
RTVSPropertyOp6
 70
     1
102
RTVSPropertyOp7
 70
     1
102
RTVSPropertyOp8
 70
     1
102
RTVSPropertyOp9
 70
     1
102
RTVSPropertyOp10
 70
     1
102
RTVSPropertyOp11
 70
     1
102
RTVSPropertyOp12
 70
     1
102
RTVSPropertyOp13
 70
     1
102
RTVSPropertyOp14
 70
     1
102
RTVSPropertyOp15
 70
     1
102
RTVSPropertyOp16
 70
     1
102
RTVSPropertyOp17
 70
     1
102
RTVSPropertyOp18
 70
     1
102
RTVSPropertyOp19
 70
     1
102
RTVSPropertyOp20
 70
     1
102
RTVSPropertyOp21
 70
     1
102
RTVSPropertyOp22
 70
     1
102
RTVSPropertyOp23
 70
     1
102
RTVSPropertyOp24
 70
     1
102
RTVSPropertyOp25
 70
     1
102
RTVSPropertyOp26
 70
     1
102
RTVSPropertyOp27
 70
     1
102
RTVSPropertyOp28
 70
     1
102
RTVSPropertyOp29
 70
     1
102
RTVSPropertyOp30
 70
     1
102
RTVSPropertyOp31
 70
     1
102
RTVSPropertyOp32
 70
     1
  0
XRECORD
  5
ED
102
{ACAD_REACTORS
330
EC
102
}
330
EC
100
AcDbXrecord
280
     1
102
RTVSPropertyOp0
 70
     1
102
RTVSPropertyOp1
 70
     1
102
RTVSPropertyOp2
 70
     1
102
RTVSPropertyOp3
 70
     1
102
RTVSPropertyOp4
 70
     1
102
RTVSPropertyOp5
 70
     1
102
RTVSPropertyOp6
 70
     1
102
RTVSPropertyOp7
 70
     1
102
RTVSPropertyOp8
 70
     1
102
RTVSPropertyOp9
 70
     1
102
RTVSPropertyOp10
 70
     1
102
RTVSPropertyOp11
 70
     1
102
RTVSPropertyOp12
 70
     1
102
RTVSPropertyOp13
 70
     1
102
RTVSPropertyOp14
 70
     1
102
RTVSPropertyOp15
 70
     1
102
RTVSPropertyOp16
 70
     1
102
RTVSPropertyOp17
 70
     1
102
RTVSPropertyOp18
 70
     1
102
RTVSPropertyOp19
 70
     1
102
RTVSPropertyOp20
 70
     1
102
RTVSPropertyOp21
 70
     1
102
RTVSPropertyOp22
 70
     1
102
RTVSPropertyOp23
 70
     1
102
RTVSPropertyOp24
 70
     1
102
RTVSPropertyOp25
 70
     1
102
RTVSPropertyOp26
 70
     1
102
RTVSPropertyOp27
 70
     1
102
RTVSPropertyOp28
 70
     1
102
RTVSPropertyOp29
 70
     1
102
RTVSPropertyOp30
 70
     1
102
RTVSPropertyOp31
 70
     1
102
RTVSPropertyOp32
 70
     1
  0
XRECORD
  5
F5
102
{ACAD_REACTORS
330
F4
102
}
330
F4
100
AcDbXrecord
280
     1
102
RTVSPropertyOp0
 70
     1
102
RTVSPropertyOp1
 70
     1
102
RTVSPropertyOp2
 70
     1
102
RTVSPropertyOp3
 70
     1
102
RTVSPropertyOp4
 70
     1
102
RTVSPropertyOp5
 70
     1
102
RTVSPropertyOp6
 70
     1
102
RTVSPropertyOp7
 70
     1
102
RTVSPropertyOp8
 70
     1
102
RTVSPropertyOp9
 70
     1
102
RTVSPropertyOp10
 70
     1
102
RTVSPropertyOp11
 70
     1
102
RTVSPropertyOp12
 70
     1
102
RTVSPropertyOp13
 70
     1
102
RTVSPropertyOp14
 70
     1
102
RTVSPropertyOp15
 70
     1
102
RTVSPropertyOp16
 70
     1
102
RTVSPropertyOp17
 70
     1
102
RTVSPropertyOp18
 70
     1
102
RTVSPropertyOp19
 70
     1
102
RTVSPropertyOp20
 70
     1
102
RTVSPropertyOp21
 70
     1
102
RTVSPropertyOp22
 70
     1
102
RTVSPropertyOp23
 70
     1
102
RTVSPropertyOp24
 70
     1
102
RTVSPropertyOp25
 70
     1
102
RTVSPropertyOp26
 70
     1
102
RTVSPropertyOp27
 70
     1
102
RTVSPropertyOp28
 70
     1
102
RTVSPropertyOp29
 70
     1
102
RTVSPropertyOp30
 70
     1
102
RTVSPropertyOp31
 70
     1
102
RTVSPropertyOp32
 70
     1
  0
XRECORD
  5
FD
102
{ACAD_REACTORS
330
FC
102
}
330
FC
100
AcDbXrecord
280
     1
102
RTVSPropertyOp0
 70
     1
102
RTVSPropertyOp1
 70
     1
102
RTVSPropertyOp2
 70
     1
102
RTVSPropertyOp3
 70
     1
102
RTVSPropertyOp4
 70
     1
102
RTVSPropertyOp5
 70
     1
102
RTVSPropertyOp6
 70
     1
102
RTVSPropertyOp7
 70
     1
102
RTVSPropertyOp8
 70
     1
102
RTVSPropertyOp9
 70
     1
102
RTVSPropertyOp10
 70
     1
102
RTVSPropertyOp11
 70
     1
102
RTVSPropertyOp12
 70
     1
102
RTVSPropertyOp13
 70
     1
102
RTVSPropertyOp14
 70
     1
102
RTVSPropertyOp15
 70
     1
102
RTVSPropertyOp16
 70
     1
102
RTVSPropertyOp17
 70
     1
102
RTVSPropertyOp18
 70
     1
102
RTVSPropertyOp19
 70
     1
102
RTVSPropertyOp20
 70
     1
102
RTVSPropertyOp21
 70
     1
102
RTVSPropertyOp22
 70
     1
102
RTVSPropertyOp23
 70
     1
102
RTVSPropertyOp24
 70
     1
102
RTVSPropertyOp25
 70
     1
102
RTVSPropertyOp26
 70
     1
102
RTVSPropertyOp27
 70
     1
102
RTVSPropertyOp28
 70
     1
102
RTVSPropertyOp29
 70
     1
102
RTVSPropertyOp30
 70
     1
102
RTVSPropertyOp31
 70
     1
102
RTVSPropertyOp32
 70
     1
  0
XRECORD
  5
F1
102
{ACAD_REACTORS
330
F0
102
}
330
F0
100
AcDbXrecord
280
     1
102
RTVSPropertyOp0
 70
     1
102
RTVSPropertyOp1
 70
     1
102
RTVSPropertyOp2
 70
     1
102
RTVSPropertyOp3
 70
     1
102
RTVSPropertyOp4
 70
     1
102
RTVSPropertyOp5
 70
     1
102
RTVSPropertyOp6
 70
     1
102
RTVSPropertyOp7
 70
     1
102
RTVSPropertyOp8
 70
     1
102
RTVSPropertyOp9
 70
     1
102
RTVSPropertyOp10
 70
     1
102
RTVSPropertyOp11
 70
     1
102
RTVSPropertyOp12
 70
     1
102
RTVSPropertyOp13
 70
     1
102
RTVSPropertyOp14
 70
     1
102
RTVSPropertyOp15
 70
     1
102
RTVSPropertyOp16
 70
     1
102
RTVSPropertyOp17
 70
     1
102
RTVSPropertyOp18
 70
     1
102
RTVSPropertyOp19
 70
     1
102
RTVSPropertyOp20
 70
     1
102
RTVSPropertyOp21
 70
     1
102
RTVSPropertyOp22
 70
     1
102
RTVSPropertyOp23
 70
     1
102
RTVSPropertyOp24
 70
     1
102
RTVSPropertyOp25
 70
     1
102
RTVSPropertyOp26
 70
     1
102
RTVSPropertyOp27
 70
     1
102
RTVSPropertyOp28
 70
     1
102
RTVSPropertyOp29
 70
     1
102
RTVSPropertyOp30
 70
     1
102
RTVSPropertyOp31
 70
     1
102
RTVSPropertyOp32
 70
     1
  0
XRECORD
  5
F3
102
{ACAD_REACTORS
330
F2
102
}
330
F2
100
AcDbXrecord
280
     1
102
RTVSPropertyOp0
 70
     1
102
RTVSPropertyOp1
 70
     1
102
RTVSPropertyOp2
 70
     1
102
RTVSPropertyOp3
 70
     1
102
RTVSPropertyOp4
 70
     1
102
RTVSPropertyOp5
 70
     1
102
RTVSPropertyOp6
 70
     1
102
RTVSPropertyOp7
 70
     1
102
RTVSPropertyOp8
 70
     1
102
RTVSPropertyOp9
 70
     1
102
RTVSPropertyOp10
 70
     1
102
RTVSPropertyOp11
 70
     1
102
RTVSPropertyOp12
 70
     1
102
RTVSPropertyOp13
 70
     1
102
RTVSPropertyOp14
 70
     1
102
RTVSPropertyOp15
 70
     1
102
RTVSPropertyOp16
 70
     1
102
RTVSPropertyOp17
 70
     1
102
RTVSPropertyOp18
 70
     1
102
RTVSPropertyOp19
 70
     1
102
RTVSPropertyOp20
 70
     1
102
RTVSPropertyOp21
 70
     1
102
RTVSPropertyOp22
 70
     1
102
RTVSPropertyOp23
 70
     1
102
RTVSPropertyOp24
 70
     1
102
RTVSPropertyOp25
 70
     1
102
RTVSPropertyOp26
 70
     1
102
RTVSPropertyOp27
 70
     1
102
RTVSPropertyOp28
 70
     1
102
RTVSPropertyOp29
 70
     1
102
RTVSPropertyOp30
 70
     1
102
RTVSPropertyOp31
 70
     1
102
RTVSPropertyOp32
 70
     1
  0
XRECORD
  5
FB
102
{ACAD_REACTORS
330
FA
102
}
330
FA
100
AcDbXrecord
280
     1
102
RTVSPropertyOp0
 70
     1
102
RTVSPropertyOp1
 70
     1
102
RTVSPropertyOp2
 70
     1
102
RTVSPropertyOp3
 70
     1
102
RTVSPropertyOp4
 70
     1
102
RTVSPropertyOp5
 70
     1
102
RTVSPropertyOp6
 70
     1
102
RTVSPropertyOp7
 70
     1
102
RTVSPropertyOp8
 70
     1
102
RTVSPropertyOp9
 70
     1
102
RTVSPropertyOp10
 70
     1
102
RTVSPropertyOp11
 70
     1
102
RTVSPropertyOp12
 70
     1
102
RTVSPropertyOp13
 70
     1
102
RTVSPropertyOp14
 70
     1
102
RTVSPropertyOp15
 70
     1
102
RTVSPropertyOp16
 70
     1
102
RTVSPropertyOp17
 70
     1
102
RTVSPropertyOp18
 70
     1
102
RTVSPropertyOp19
 70
     1
102
RTVSPropertyOp20
 70
     1
102
RTVSPropertyOp21
 70
     1
102
RTVSPropertyOp22
 70
     1
102
RTVSPropertyOp23
 70
     1
102
RTVSPropertyOp24
 70
     1
102
RTVSPropertyOp25
 70
     1
102
RTVSPropertyOp26
 70
     1
102
RTVSPropertyOp27
 70
     1
102
RTVSPropertyOp28
 70
     1
102
RTVSPropertyOp29
 70
     1
102
RTVSPropertyOp30
 70
     1
102
RTVSPropertyOp31
 70
     1
102
RTVSPropertyOp32
 70
     1
  0
XRECORD
  5
DF
102
{ACAD_REACTORS
330
DE
102
}
330
DE
100
AcDbXrecord
280
     1
102
RTVSPropertyOp0
 70
     1
102
RTVSPropertyOp1
 70
     1
102
RTVSPropertyOp2
 70
     1
102
RTVSPropertyOp3
 70
     1
102
RTVSPropertyOp4
 70
     1
102
RTVSPropertyOp5
 70
     1
102
RTVSPropertyOp6
 70
     1
102
RTVSPropertyOp7
 70
     1
102
RTVSPropertyOp8
 70
     1
102
RTVSPropertyOp9
 70
     1
102
RTVSPropertyOp10
 70
     1
102
RTVSPropertyOp11
 70
     1
102
RTVSPropertyOp12
 70
     1
102
RTVSPropertyOp13
 70
     1
102
RTVSPropertyOp14
 70
     1
102
RTVSPropertyOp15
 70
     1
102
RTVSPropertyOp16
 70
     1
102
RTVSPropertyOp17
 70
     1
102
RTVSPropertyOp18
 70
     1
102
RTVSPropertyOp19
 70
     1
102
RTVSPropertyOp20
 70
     1
102
RTVSPropertyOp21
 70
     1
102
RTVSPropertyOp22
 70
     1
102
RTVSPropertyOp23
 70
     1
102
RTVSPropertyOp24
 70
     1
102
RTVSPropertyOp25
 70
     1
102
RTVSPropertyOp26
 70
     1
102
RTVSPropertyOp27
 70
     1
102
RTVSPropertyOp28
 70
     1
102
RTVSPropertyOp29
 70
     1
102
RTVSPropertyOp30
 70
     1
102
RTVSPropertyOp31
 70
     1
102
RTVSPropertyOp32
 70
     1
  0
XRECORD
  5
E1
102
{ACAD_REACTORS
330
E0
102
}
330
E0
100
AcDbXrecord
280
     1
102
RTVSPropertyOp0
 70
     1
102
RTVSPropertyOp1
 70
     1
102
RTVSPropertyOp2
 70
     1
102
RTVSPropertyOp3
 70
     1
102
RTVSPropertyOp4
 70
     1
102
RTVSPropertyOp5
 70
     1
102
RTVSPropertyOp6
 70
     1
102
RTVSPropertyOp7
 70
     1
102
RTVSPropertyOp8
 70
     1
102
RTVSPropertyOp9
 70
     1
102
RTVSPropertyOp10
 70
     1
102
RTVSPropertyOp11
 70
     1
102
RTVSPropertyOp12
 70
     1
102
RTVSPropertyOp13
 70
     1
102
RTVSPropertyOp14
 70
     1
102
RTVSPropertyOp15
 70
     1
102
RTVSPropertyOp16
 70
     1
102
RTVSPropertyOp17
 70
     1
102
RTVSPropertyOp18
 70
     1
102
RTVSPropertyOp19
 70
     1
102
RTVSPropertyOp20
 70
     1
102
RTVSPropertyOp21
 70
     1
102
RTVSPropertyOp22
 70
     1
102
RTVSPropertyOp23
 70
     1
102
RTVSPropertyOp24
 70
     1
102
RTVSPropertyOp25
 70
     1
102
RTVSPropertyOp26
 70
     1
102
RTVSPropertyOp27
 70
     1
102
RTVSPropertyOp28
 70
     1
102
RTVSPropertyOp29
 70
     1
102
RTVSPropertyOp30
 70
     1
102
RTVSPropertyOp31
 70
     1
102
RTVSPropertyOp32
 70
     1
  0
XRECORD
  5
E3
102
{ACAD_REACTORS
330
E2
102
}
330
E2
100
AcDbXrecord
280
     1
102
RTVSPropertyOp0
 70
     1
102
RTVSPropertyOp1
 70
     1
102
RTVSPropertyOp2
 70
     1
102
RTVSPropertyOp3
 70
     1
102
RTVSPropertyOp4
 70
     1
102
RTVSPropertyOp5
 70
     1
102
RTVSPropertyOp6
 70
     1
102
RTVSPropertyOp7
 70
     1
102
RTVSPropertyOp8
 70
     1
102
RTVSPropertyOp9
 70
     1
102
RTVSPropertyOp10
 70
     1
102
RTVSPropertyOp11
 70
     1
102
RTVSPropertyOp12
 70
     1
102
RTVSPropertyOp13
 70
     1
102
RTVSPropertyOp14
 70
     1
102
RTVSPropertyOp15
 70
     1
102
RTVSPropertyOp16
 70
     1
102
RTVSPropertyOp17
 70
     1
102
RTVSPropertyOp18
 70
     1
102
RTVSPropertyOp19
 70
     1
102
RTVSPropertyOp20
 70
     1
102
RTVSPropertyOp21
 70
     1
102
RTVSPropertyOp22
 70
     1
102
RTVSPropertyOp23
 70
     1
102
RTVSPropertyOp24
 70
     1
102
RTVSPropertyOp25
 70
     1
102
RTVSPropertyOp26
 70
     1
102
RTVSPropertyOp27
 70
     1
102
RTVSPropertyOp28
 70
     1
102
RTVSPropertyOp29
 70
     1
102
RTVSPropertyOp30
 70
     1
102
RTVSPropertyOp31
 70
     1
102
RTVSPropertyOp32
 70
     1
  0
XRECORD
  5
E5
102
{ACAD_REACTORS
330
E4
102
}
330
E4
100
AcDbXrecord
280
     1
102
RTVSPropertyOp0
 70
     1
102
RTVSPropertyOp1
 70
     1
102
RTVSPropertyOp2
 70
     1
102
RTVSPropertyOp3
 70
     1
102
RTVSPropertyOp4
 70
     1
102
RTVSPropertyOp5
 70
     1
102
RTVSPropertyOp6
 70
     1
102
RTVSPropertyOp7
 70
     1
102
RTVSPropertyOp8
 70
     1
102
RTVSPropertyOp9
 70
     1
102
RTVSPropertyOp10
 70
     1
102
RTVSPropertyOp11
 70
     1
102
RTVSPropertyOp12
 70
     1
102
RTVSPropertyOp13
 70
     1
102
RTVSPropertyOp14
 70
     1
102
RTVSPropertyOp15
 70
     1
102
RTVSPropertyOp16
 70
     1
102
RTVSPropertyOp17
 70
     1
102
RTVSPropertyOp18
 70
     1
102
RTVSPropertyOp19
 70
     1
102
RTVSPropertyOp20
 70
     1
102
RTVSPropertyOp21
 70
     1
102
RTVSPropertyOp22
 70
     1
102
RTVSPropertyOp23
 70
     1
102
RTVSPropertyOp24
 70
     1
102
RTVSPropertyOp25
 70
     1
102
RTVSPropertyOp26
 70
     1
102
RTVSPropertyOp27
 70
     1
102
RTVSPropertyOp28
 70
     1
102
RTVSPropertyOp29
 70
     1
102
RTVSPropertyOp30
 70
     1
102
RTVSPropertyOp31
 70
     1
102
RTVSPropertyOp32
 70
     1
  0
XRECORD
  5
F9
102
{ACAD_REACTORS
330
F8
102
}
330
F8
100
AcDbXrecord
280
     1
102
RTVSPropertyOp0
 70
     1
102
RTVSPropertyOp1
 70
     1
102
RTVSPropertyOp2
 70
     1
102
RTVSPropertyOp3
 70
     1
102
RTVSPropertyOp4
 70
     1
102
RTVSPropertyOp5
 70
     1
102
RTVSPropertyOp6
 70
     1
102
RTVSPropertyOp7
 70
     1
102
RTVSPropertyOp8
 70
     1
102
RTVSPropertyOp9
 70
     1
102
RTVSPropertyOp10
 70
     1
102
RTVSPropertyOp11
 70
     1
102
RTVSPropertyOp12
 70
     1
102
RTVSPropertyOp13
 70
     1
102
RTVSPropertyOp14
 70
     1
102
RTVSPropertyOp15
 70
     1
102
RTVSPropertyOp16
 70
     1
102
RTVSPropertyOp17
 70
     1
102
RTVSPropertyOp18
 70
     1
102
RTVSPropertyOp19
 70
     1
102
RTVSPropertyOp20
 70
     1
102
RTVSPropertyOp21
 70
     1
102
RTVSPropertyOp22
 70
     1
102
RTVSPropertyOp23
 70
     1
102
RTVSPropertyOp24
 70
     1
102
RTVSPropertyOp25
 70
     1
102
RTVSPropertyOp26
 70
     1
102
RTVSPropertyOp27
 70
     1
102
RTVSPropertyOp28
 70
     1
102
RTVSPropertyOp29
 70
     1
102
RTVSPropertyOp30
 70
     1
102
RTVSPropertyOp31
 70
     1
102
RTVSPropertyOp32
 70
     1
  0
XRECORD
  5
EF
102
{ACAD_REACTORS
330
EE
102
}
330
EE
100
AcDbXrecord
280
     1
102
RTVSPropertyOp0
 70
     1
102
RTVSPropertyOp1
 70
     1
102
RTVSPropertyOp2
 70
     1
102
RTVSPropertyOp3
 70
     1
102
RTVSPropertyOp4
 70
     1
102
RTVSPropertyOp5
 70
     1
102
RTVSPropertyOp6
 70
     1
102
RTVSPropertyOp7
 70
     1
102
RTVSPropertyOp8
 70
     1
102
RTVSPropertyOp9
 70
     1
102
RTVSPropertyOp10
 70
     1
102
RTVSPropertyOp11
 70
     1
102
RTVSPropertyOp12
 70
     1
102
RTVSPropertyOp13
 70
     1
102
RTVSPropertyOp14
 70
     1
102
RTVSPropertyOp15
 70
     1
102
RTVSPropertyOp16
 70
     1
102
RTVSPropertyOp17
 70
     1
102
RTVSPropertyOp18
 70
     1
102
RTVSPropertyOp19
 70
     1
102
RTVSPropertyOp20
 70
     1
102
RTVSPropertyOp21
 70
     1
102
RTVSPropertyOp22
 70
     1
102
RTVSPropertyOp23
 70
     1
102
RTVSPropertyOp24
 70
     1
102
RTVSPropertyOp25
 70
     1
102
RTVSPropertyOp26
 70
     1
102
RTVSPropertyOp27
 70
     1
102
RTVSPropertyOp28
 70
     1
102
RTVSPropertyOp29
 70
     1
102
RTVSPropertyOp30
 70
     1
102
RTVSPropertyOp31
 70
     1
102
RTVSPropertyOp32
 70
     1
  0
XRECORD
  5
F7
102
{ACAD_REACTORS
330
F6
102
}
330
F6
100
AcDbXrecord
280
     1
102
RTVSPropertyOp0
 70
     1
102
RTVSPropertyOp1
 70
     1
102
RTVSPropertyOp2
 70
     1
102
RTVSPropertyOp3
 70
     1
102
RTVSPropertyOp4
 70
     1
102
RTVSPropertyOp5
 70
     1
102
RTVSPropertyOp6
 70
     1
102
RTVSPropertyOp7
 70
     1
102
RTVSPropertyOp8
 70
     1
102
RTVSPropertyOp9
 70
     1
102
RTVSPropertyOp10
 70
     1
102
RTVSPropertyOp11
 70
     1
102
RTVSPropertyOp12
 70
     1
102
RTVSPropertyOp13
 70
     1
102
RTVSPropertyOp14
 70
     1
102
RTVSPropertyOp15
 70
     1
102
RTVSPropertyOp16
 70
     1
102
RTVSPropertyOp17
 70
     1
102
RTVSPropertyOp18
 70
     1
102
RTVSPropertyOp19
 70
     1
102
RTVSPropertyOp20
 70
     1
102
RTVSPropertyOp21
 70
     1
102
RTVSPropertyOp22
 70
     1
102
RTVSPropertyOp23
 70
     1
102
RTVSPropertyOp24
 70
     1
102
RTVSPropertyOp25
 70
     1
102
RTVSPropertyOp26
 70
     1
102
RTVSPropertyOp27
 70
     1
102
RTVSPropertyOp28
 70
     1
102
RTVSPropertyOp29
 70
     1
102
RTVSPropertyOp30
 70
     1
102
RTVSPropertyOp31
 70
     1
102
RTVSPropertyOp32
 70
     1
  0
ENDSEC
  0
EOF
