  0
SECTION
  2
HEADER
  9
$ACADVER
  1
AC1021
  9
$ACADMAINTVER
 70
    25
  9
$DWGCODEPAGE
  3
ANSI_1252
  9
$INSBASE
 10
0.0
 20
0.0
 30
0.0
  9
$EXTMIN
 10
-53.5261
 20
-106.3631
 30
0.0
  9
$EXTMAX
 10
70.3776
 20
131.8354
 30
0.0
  9
$LIMMIN
 10
0.0
 20
0.0
  9
$LIMMAX
 10
12.0
 20
9.0
  9
$ORTHOMODE
 70
     0
  9
$REGENMODE
 70
     1
  9
$FILLMODE
 70
     1
  9
$QTEXTMODE
 70
     0
  9
$MIRRTEXT
 70
     1
  9
$LTSCALE
 40
1.0
  9
$ATTMODE
 70
     1
  9
$TEXTSIZE
 40
0.2
  9
$TRACEWID
 40
0.05
  9
$TEXTSTYLE
  7
Standard
  9
$CLAYER
  8
0
  9
$CELTYPE
  6
ByLayer
  9
$CECOLOR
 62
   256
  9
$CELTSCALE
 40
1.0
  9
$DISPSILH
 70
     0
  9
$DIMSCALE
 40
1.0
  9
$DIMASZ
 40
0.18
  9
$DIMEXO
 40
0.0625
  9
$DIMDLI
 40
0.38
  9
$DIMRND
 40
0.0
  9
$DIMDLE
 40
0.0
  9
$DIMEXE
 40
0.18
  9
$DIMTP
 40
0.0
  9
$DIMTM
 40
0.0
  9
$DIMTXT
 40
0.18
  9
$DIMCEN
 40
0.09
  9
$DIMTSZ
 40
0.0
  9
$DIMTOL
 70
     0
  9
$DIMLIM
 70
     0
  9
$DIMTIH
 70
     1
  9
$DIMTOH
 70
     1
  9
$DIMSE1
 70
     0
  9
$DIMSE2
 70
     0
  9
$DIMTAD
 70
     0
  9
$DIMZIN
 70
     0
  9
$DIMBLK
  1

  9
$DIMASO
 70
     1
  9
$DIMSHO
 70
     1
  9
$DIMPOST
  1

  9
$DIMAPOST
  1

  9
$DIMALT
 70
     0
  9
$DIMALTD
 70
     2
  9
$DIMALTF
 40
25.4
  9
$DIMLFAC
 40
1.0
  9
$DIMTOFL
 70
     0
  9
$DIMTVP
 40
0.0
  9
$DIMTIX
 70
     0
  9
$DIMSOXD
 70
     0
  9
$DIMSAH
 70
     0
  9
$DIMBLK1
  1

  9
$DIMBLK2
  1

  9
$DIMSTYLE
  2
Standard
  9
$DIMCLRD
 70
     0
  9
$DIMCLRE
 70
     0
  9
$DIMCLRT
 70
     0
  9
$DIMTFAC
 40
1.0
  9
$DIMGAP
 40
0.09
  9
$DIMJUST
 70
     0
  9
$DIMSD1
 70
     0
  9
$DIMSD2
 70
     0
  9
$DIMTOLJ
 70
     1
  9
$DIMTZIN
 70
     0
  9
$DIMALTZ
 70
     0
  9
$DIMALTTZ
 70
     0
  9
$DIMUPT
 70
     0
  9
$DIMDEC
 70
     4
  9
$DIMTDEC
 70
     4
  9
$DIMALTU
 70
     2
  9
$DIMALTTD
 70
     2
  9
$DIMTXSTY
  7
Standard
  9
$DIMAUNIT
 70
     0
  9
$DIMADEC
 70
     0
  9
$DIMALTRND
 40
0.0
  9
$DIMAZIN
 70
     0
  9
$DIMDSEP
 70
    46
  9
$DIMATFIT
 70
     3
  9
$DIMFRAC
 70
     0
  9
$DIMLDRBLK
  1

  9
$DIMLUNIT
 70
     2
  9
$DIMLWD
 70
    -2
  9
$DIMLWE
 70
    -2
  9
$DIMTMOVE
 70
     0
  9
$DIMFXL
 40
1.0
  9
$DIMFXLON
 70
     0
  9
$DIMJOGANG
 40
0.7853981633974483
  9
$DIMTFILL
 70
     0
  9
$DIMTFILLCLR
 70
     0
  9
$DIMARCSYM
 70
     0
  9
$DIMLTYPE
  6

  9
$DIMLTEX1
  6

  9
$DIMLTEX2
  6

  9
$LUNITS
 70
     2
  9
$LUPREC
 70
     4
  9
$SKETCHINC
 40
0.1
  9
$FILLETRAD
 40
0.5
  9
$AUNITS
 70
     0
  9
$AUPREC
 70
     0
  9
$MENU
  1
.
  9
$ELEVATION
 40
0.0
  9
$PELEVATION
 40
0.0
  9
$THICKNESS
 40
0.0
  9
$LIMCHECK
 70
     0
  9
$CHAMFERA
 40
0.5
  9
$CHAMFERB
 40
0.5
  9
$CHAMFERC
 40
1.0
  9
$CHAMFERD
 40
0.0
  9
$SKPOLY
 70
     0
  9
$TDCREATE
 40
2458493.709039688
  9
$TDUCREATE
 40
2458493.709039688
  9
$TDUPDATE
 40
2458493.709039745
  9
$TDUUPDATE
 40
2458493.709039745
  9
$TDINDWG
 40
0.0000000116
  9
$TDUSRTIMER
 40
0.0000000116
  9
$USRTIMER
 70
     1
  9
$ANGBASE
 50
0.0
  9
$ANGDIR
 70
     0
  9
$PDMODE
 70
     0
  9
$PDSIZE
 40
0.0
  9
$PLINEWID
 40
0.0
  9
$SPLFRAME
 70
     0
  9
$SPLINETYPE
 70
     6
  9
$SPLINESEGS
 70
     8
  9
$HANDSEED
  5
7A
  9
$SURFTAB1
 70
     6
  9
$SURFTAB2
 70
     6
  9
$SURFTYPE
 70
     6
  9
$SURFU
 70
     6
  9
$SURFV
 70
     6
  9
$UCSBASE
  2

  9
$UCSNAME
  2

  9
$UCSORG
 10
0.0
 20
0.0
 30
0.0
  9
$UCSXDIR
 10
1.0
 20
0.0
 30
0.0
  9
$UCSYDIR
 10
0.0
 20
1.0
 30
0.0
  9
$UCSORTHOREF
  2

  9
$UCSORTHOVIEW
 70
     0
  9
$UCSORGTOP
 10
0.0
 20
0.0
 30
0.0
  9
$UCSORGBOTTOM
 10
0.0
 20
0.0
 30
0.0
  9
$UCSORGLEFT
 10
0.0
 20
0.0
 30
0.0
  9
$UCSORGRIGHT
 10
0.0
 20
0.0
 30
0.0
  9
$UCSORGFRONT
 10
0.0
 20
0.0
 30
0.0
  9
$UCSORGBACK
 10
0.0
 20
0.0
 30
0.0
  9
$PUCSBASE
  2

  9
$PUCSNAME
  2

  9
$PUCSORG
 10
0.0
 20
0.0
 30
0.0
  9
$PUCSXDIR
 10
1.0
 20
0.0
 30
0.0
  9
$PUCSYDIR
 10
0.0
 20
1.0
 30
0.0
  9
$PUCSORTHOREF
  2

  9
$PUCSORTHOVIEW
 70
     0
  9
$PUCSORGTOP
 10
0.0
 20
0.0
 30
0.0
  9
$PUCSORGBOTTOM
 10
0.0
 20
0.0
 30
0.0
  9
$PUCSORGLEFT
 10
0.0
 20
0.0
 30
0.0
  9
$PUCSORGRIGHT
 10
0.0
 20
0.0
 30
0.0
  9
$PUCSORGFRONT
 10
0.0
 20
0.0
 30
0.0
  9
$PUCSORGBACK
 10
0.0
 20
0.0
 30
0.0
  9
$USERI1
 70
     0
  9
$USERI2
 70
     0
  9
$USERI3
 70
     0
  9
$USERI4
 70
     0
  9
$USERI5
 70
     0
  9
$USERR1
 40
0.0
  9
$USERR2
 40
0.0
  9
$USERR3
 40
0.0
  9
$USERR4
 40
0.0
  9
$USERR5
 40
0.0
  9
$WORLDVIEW
 70
     1
  9
$SHADEDGE
 70
     3
  9
$SHADEDIF
 70
    70
  9
$TILEMODE
 70
     1
  9
$MAXACTVP
 70
    64
  9
$PINSBASE
 10
0.0
 20
0.0
 30
0.0
  9
$PLIMCHECK
 70
     0
  9
$PEXTMIN
 10
1.000000000000000E+20
 20
1.000000000000000E+20
 30
1.000000000000000E+20
  9
$PEXTMAX
 10
-1.000000000000000E+20
 20
-1.000000000000000E+20
 30
-1.000000000000000E+20
  9
$PLIMMIN
 10
0.0
 20
0.0
  9
$PLIMMAX
 10
12.0
 20
9.0
  9
$UNITMODE
 70
     0
  9
$VISRETAIN
 70
     1
  9
$PLINEGEN
 70
     0
  9
$PSLTSCALE
 70
     1
  9
$TREEDEPTH
 70
  3020
  9
$CMLSTYLE
  2
Standard
  9
$CMLJUST
 70
     0
  9
$CMLSCALE
 40
1.0
  9
$PROXYGRAPHICS
 70
     1
  9
$MEASUREMENT
 70
     0
  9
$CELWEIGHT
370
    -1
  9
$ENDCAPS
280
     0
  9
$JOINSTYLE
280
     0
  9
$LWDISPLAY
290
     0
  9
$INSUNITS
 70
     4
  9
$HYPERLINKBASE
  1

  9
$STYLESHEET
  1

  9
$XEDIT
290
     1
  9
$CEPSNTYPE
380
     0
  9
$PSTYLEMODE
290
     1
  9
$FINGERPRINTGUID
  2
{3D55B1AB-266B-4E29-9271-D86B497BFEED}
  9
$VERSIONGUID
  2
{FAEB1C32-E019-11D5-929B-00C0DF256EC4}
  9
$EXTNAMES
290
     1
  9
$PSVPSCALE
 40
0.0
  9
$OLESTARTUP
290
     0
  9
$SORTENTS
280
   127
  9
$INDEXCTL
280
     0
  9
$HIDETEXT
280
     1
  9
$XCLIPFRAME
290
     0
  9
$HALOGAP
280
     0
  9
$OBSCOLOR
 70
   257
  9
$OBSLTYPE
280
     0
  9
$INTERSECTIONDISPLAY
280
     0
  9
$INTERSECTIONCOLOR
 70
   257
  9
$DIMASSOC
280
     2
  9
$PROJECTNAME
  1

  9
$CAMERADISPLAY
290
     0
  9
$LENSLENGTH
 40
50.0
  9
$CAMERAHEIGHT
 40
0.0
  9
$STEPSPERSEC
 40
2.0
  9
$STEPSIZE
 40
6.0
  9
$3DDWFPREC
 40
2.0
  9
$PSOLWIDTH
 40
0.25
  9
$PSOLHEIGHT
 40
4.0
  9
$LOFTANG1
 40
1.570796326794897
  9
$LOFTANG2
 40
1.570796326794897
  9
$LOFTMAG1
 40
0.0
  9
$LOFTMAG2
 40
0.0
  9
$LOFTPARAM
 70
     7
  9
$LOFTNORMALS
280
     1
  9
$LATITUDE
 40
37.795
  9
$LONGITUDE
 40
-122.394
  9
$NORTHDIRECTION
 40
0.0
  9
$TIMEZONE
 70
 -8000
  9
$LIGHTGLYPHDISPLAY
280
     1
  9
$TILEMODELIGHTSYNCH
280
     1
  9
$SOLIDHIST
280
     1
  9
$SHOWHIST
280
     1
  9
$DWFFRAME
280
     2
  9
$DGNFRAME
280
     2
  9
$REALWORLDSCALE
290
     1
  9
$INTERFERECOLOR
 62
   256
  9
$CSHADOW
280
     0
  9
$SHADOWPLANELOCATION
 40
0.0
  0
ENDSEC
  0
SECTION
  2
CLASSES
  0
CLASS
  1
ACDBDICTIONARYWDFLT
  2
AcDbDictionaryWithDefault
  3
ObjectDBX Classes
 90
        0
 91
        4
280
     0
281
     0
  0
CLASS
  1
VISUALSTYLE
  2
AcDbVisualStyle
  3
ObjectDBX Classes
 90
     4095
 91
        4
280
     0
281
     0
  0
CLASS
  1
MATERIAL
  2
AcDbMaterial
  3
ObjectDBX Classes
 90
     1153
 91
        4
280
     0
281
     0
  0
ENDSEC
  0
SECTION
  2
TABLES
  0
TABLE
  2
VPORT
  5
8
330
0
100
AcDbSymbolTable
 70
     1
  0
VPORT
  5
29
330
8
100
AcDbSymbolTableRecord
100
AcDbViewportTableRecord
  2
*Active
 70
     0
 10
0.0
 20
0.0
 11
1.0
 21
1.0
 12
10.42990654205607
 22
4.5
 13
0.0
 23
0.0
 14
0.5
 24
0.5
 15
0.5
 25
0.5
 16
0.0
 26
0.0
 36
1.0
 17
0.0
 27
0.0
 37
0.0
 40
9.0
 41
1.972972972850329
 42
50.0
 43
0.0
 44
0.0
 50
0.0
 51
0.0
 71
     0
 72
   100
 73
     1
 74
     3
 75
     0
 76
     0
 77
     0
 78
     0
281
     0
 65
     1
110
0.0
120
0.0
130
0.0
111
1.0
121
0.0
131
0.0
112
0.0
122
1.0
132
0.0
 79
     0
146
0.0
 60
     3
 61
     5
292
     1
282
     1
141
0.0
142
0.0
 63
   250
  0
ENDTAB
  0
TABLE
  2
LTYPE
  5
5
330
0
100
AcDbSymbolTable
 70
     1
  0
LTYPE
  5
14
330
5
100
AcDbSymbolTableRecord
100
AcDbLinetypeTableRecord
  2
ByBlock
 70
     0
  3

 72
    65
 73
     0
 40
0.0
  0
LTYPE
  5
15
330
5
100
AcDbSymbolTableRecord
100
AcDbLinetypeTableRecord
  2
ByLayer
 70
     0
  3

 72
    65
 73
     0
 40
0.0
  0
LTYPE
  5
16
330
5
100
AcDbSymbolTableRecord
100
AcDbLinetypeTableRecord
  2
Continuous
 70
     0
  3
Solid line
 72
    65
 73
     0
 40
0.0
  0
ENDTAB
  0
TABLE
  2
LAYER
  5
2
330
0
100
AcDbSymbolTable
 70
     3
  0
LAYER
  5
10
330
2
100
AcDbSymbolTableRecord
100
AcDbLayerTableRecord
  2
0
 70
     0
 62
     7
  6
Continuous
370
    -3
390
F
347
3E
  0
LAYER
  5
40
330
2
100
AcDbSymbolTableRecord
100
AcDbLayerTableRecord
  2
layer 1
 70
     0
 62
     7
  6
Continuous
370
    -3
390
F
347
3E
  0
LAYER
  5
57
330
2
100
AcDbSymbolTableRecord
100
AcDbLayerTableRecord
  2
Master Guides
 70
     0
 62
     7
  6
Continuous
370
    -3
390
F
347
3E
  0
ENDTAB
  0
TABLE
  2
STYLE
  5
3
330
0
100
AcDbSymbolTable
 70
     1
  0
STYLE
  5
11
330
3
100
AcDbSymbolTableRecord
100
AcDbTextStyleTableRecord
  2
Standard
 70
     0
 40
0.0
 41
1.0
 50
0.0
 71
     0
 42
0.2
  3
txt
  4

  0
ENDTAB
  0
TABLE
  2
VIEW
  5
6
330
0
100
AcDbSymbolTable
 70
     0
  0
ENDTAB
  0
TABLE
  2
UCS
  5
7
330
0
100
AcDbSymbolTable
 70
     0
  0
ENDTAB
  0
TABLE
  2
APPID
  5
9
330
0
100
AcDbSymbolTable
 70
     2
  0
APPID
  5
12
330
9
100
AcDbSymbolTableRecord
100
AcDbRegAppTableRecord
  2
ACAD
 70
     0
  0
APPID
  5
3F
330
9
100
AcDbSymbolTableRecord
100
AcDbRegAppTableRecord
  2
ODA
 70
     0
  0
ENDTAB
  0
TABLE
  2
DIMSTYLE
  5
A
330
0
100
AcDbSymbolTable
 70
     1
100
AcDbDimStyleTable
  0
DIMSTYLE
105
27
330
A
100
AcDbSymbolTableRecord
100
AcDbDimStyleTableRecord
  2
Standard
 70
     0
178
     0
340
11
  0
ENDTAB
  0
TABLE
  2
BLOCK_RECORD
  5
1
330
0
100
AcDbSymbolTable
 70
     1
  0
BLOCK_RECORD
  5
1F
330
1
100
AcDbSymbolTableRecord
100
AcDbBlockTableRecord
  2
*Model_Space
340
22
 70
     0
280
     1
281
     0
  0
BLOCK_RECORD
  5
1B
330
1
100
AcDbSymbolTableRecord
100
AcDbBlockTableRecord
  2
*Paper_Space
340
1E
 70
     0
280
     1
281
     0
  0
BLOCK_RECORD
  5
23
330
1
100
AcDbSymbolTableRecord
100
AcDbBlockTableRecord
  2
*Paper_Space0
340
26
 70
     0
280
     1
281
     0
  0
ENDTAB
  0
ENDSEC
  0
SECTION
  2
BLOCKS
  0
BLOCK
  5
20
330
1F
100
AcDbEntity
  8
0
100
AcDbBlockBegin
  2
*Model_Space
 70
     0
 10
0.0
 20
0.0
 30
0.0
  3
*Model_Space
  1

  0
ENDBLK
  5
21
330
1F
100
AcDbEntity
  8
0
100
AcDbBlockEnd
  0
BLOCK
  5
1C
330
1B
100
AcDbEntity
 67
     1
  8
0
100
AcDbBlockBegin
  2
*Paper_Space
 70
     0
 10
0.0
 20
0.0
 30
0.0
  3
*Paper_Space
  1

  0
ENDBLK
  5
1D
330
1B
100
AcDbEntity
 67
     1
  8
0
100
AcDbBlockEnd
  0
BLOCK
  5
24
330
23
100
AcDbEntity
  8
0
100
AcDbBlockBegin
  2
*Paper_Space0
 70
     0
 10
0.0
 20
0.0
 30
0.0
  3
*Paper_Space0
  1

  0
ENDBLK
  5
25
330
23
100
AcDbEntity
  8
0
100
AcDbBlockEnd
  0
ENDSEC
  0
SECTION
  2
ENTITIES
  0
LWPOLYLINE
  5
41
330
1F
100
AcDbEntity
  8
layer 1
 62
   250
100
AcDbPolyline
 90
        5
 70
     1
 43
0.0
 10
-53.5261
 20
-106.363
 10
70.3775
 20
-106.363
 10
70.3775
 20
131.8354
 10
-53.5261
 20
131.8354
 10
-53.5261
 20
-106.363
  0
SPLINE
  5
42
330
1F
100
AcDbEntity
  8
layer 1
 62
     7
100
AcDbSpline
210
0.0
220
0.0
230
1.0
 70
    11
 71
     3
 72
    40
 73
    36
 74
     0
 42
0.0000000001
 43
0.0000000001
 12
1.0
 22
0.0
 32
0.0
 13
1.0
 23
0.0
 33
0.0
 40
0.0
 40
0.0
 40
0.0
 40
0.0
 40
0.1
 40
0.1
 40
0.1
 40
0.1
 40
0.2
 40
0.2
 40
0.2
 40
0.2
 40
0.3
 40
0.3
 40
0.3
 40
0.3
 40
0.4
 40
0.4
 40
0.4
 40
0.4
 40
0.5
 40
0.5
 40
0.5
 40
0.5
 40
0.6
 40
0.6
 40
0.6
 40
0.6
 40
0.7
 40
0.7
 40
0.7
 40
0.7
 40
0.8
 40
0.8
 40
0.8
 40
0.8
 40
1.0
 40
1.0
 40
1.0
 40
1.0
 10
-11.8277
 20
-62.1029
 30
0.0
 10
-11.8277
 20
-62.1029
 30
0.0
 10
-11.8277
 20
-44.3016
 30
0.0
 10
-11.8277
 20
-44.3016
 30
0.0
 10
-11.8277
 20
-44.3016
 30
0.0
 10
-11.8277
 20
-43.903
 30
0.0
 10
-11.5981
 20
-43.3579
 30
0.0
 10
-11.315
 20
-43.0774
 30
0.0
 10
-11.315
 20
-43.0774
 30
0.0
 10
-11.315
 20
-43.0774
 30
0.0
 10
-3.658
 20
-35.4893
 30
0.0
 10
-3.658
 20
-35.4893
 30
0.0
 10
-3.658
 20
-35.4893
 30
0.0
 10
-2.7795
 20
-34.6187
 30
0.0
 10
-1.2343
 20
-35.2249
 30
0.0
 10
-1.2343
 20
-36.5386
 30
0.0
 10
-1.2343
 20
-36.5386
 30
0.0
 10
-1.2343
 20
-36.5386
 30
0.0
 10
-1.2343
 20
-54.1515
 30
0.0
 10
-1.2343
 20
-54.1515
 30
0.0
 10
-1.2343
 20
-54.1515
 30
0.0
 10
-1.2343
 20
-54.5501
 30
0.0
 10
-1.4649
 20
-55.0942
 30
0.0
 10
-1.747
 20
-55.3757
 30
0.0
 10
-1.747
 20
-55.3757
 30
0.0
 10
-1.747
 20
-55.3757
 30
0.0
 10
-9.5116
 20
-63.1253
 30
0.0
 10
-9.5116
 20
-63.1253
 30
0.0
 10
-9.5116
 20
-63.1253
 30
0.0
 10
-10.2922
 20
-63.9044
 30
0.0
 10
-11.8276
 20
-63.2552
 30
0.0
 10
-11.8276
 20
-62.1029
 30
0.0
 10
-11.8276
 20
-62.1029
 30
0.0
 10
-11.8276
 20
-62.1029
 30
0.0
 10
-11.8277
 20
-62.1029
 30
0.0
 10
-11.8277
 20
-62.1029
 30
0.0
  0
SPLINE
  5
43
330
1F
100
AcDbEntity
  8
layer 1
 62
     7
100
AcDbSpline
210
0.0
220
0.0
230
1.0
 70
    11
 71
     3
 72
    40
 73
    36
 74
     0
 42
0.0000000001
 43
0.0000000001
 12
1.0
 22
0.0
 32
0.0
 13
1.0
 23
0.0
 33
0.0
 40
0.0
 40
0.0
 40
0.0
 40
0.0
 40
0.1
 40
0.1
 40
0.1
 40
0.1
 40
0.2
 40
0.2
 40
0.2
 40
0.2
 40
0.3
 40
0.3
 40
0.3
 40
0.3
 40
0.4
 40
0.4
 40
0.4
 40
0.4
 40
0.5
 40
0.5
 40
0.5
 40
0.5
 40
0.6
 40
0.6
 40
0.6
 40
0.6
 40
0.7
 40
0.7
 40
0.7
 40
0.7
 40
0.8
 40
0.8
 40
0.8
 40
0.8
 40
1.0
 40
1.0
 40
1.0
 40
1.0
 10
-26.9009
 20
-77.0684
 30
0.0
 10
-26.9009
 20
-77.0684
 30
0.0
 10
-26.9009
 20
-59.2671
 30
0.0
 10
-26.9009
 20
-59.2671
 30
0.0
 10
-26.9009
 20
-59.2671
 30
0.0
 10
-26.9009
 20
-58.8685
 30
0.0
 10
-26.6712
 20
-58.3234
 30
0.0
 10
-26.3882
 20
-58.0429
 30
0.0
 10
-26.3882
 20
-58.0429
 30
0.0
 10
-26.3882
 20
-58.0429
 30
0.0
 10
-18.7312
 20
-50.4548
 30
0.0
 10
-18.7312
 20
-50.4548
 30
0.0
 10
-18.7312
 20
-50.4548
 30
0.0
 10
-17.8527
 20
-49.5842
 30
0.0
 10
-16.3075
 20
-50.1903
 30
0.0
 10
-16.3075
 20
-51.5041
 30
0.0
 10
-16.3075
 20
-51.5041
 30
0.0
 10
-16.3075
 20
-51.5041
 30
0.0
 10
-16.3075
 20
-69.1169
 30
0.0
 10
-16.3075
 20
-69.1169
 30
0.0
 10
-16.3075
 20
-69.1169
 30
0.0
 10
-16.3075
 20
-69.5156
 30
0.0
 10
-16.538
 20
-70.0597
 30
0.0
 10
-16.8201
 20
-70.3412
 30
0.0
 10
-16.8201
 20
-70.3412
 30
0.0
 10
-16.8201
 20
-70.3412
 30
0.0
 10
-24.5847
 20
-78.0908
 30
0.0
 10
-24.5847
 20
-78.0908
 30
0.0
 10
-24.5847
 20
-78.0908
 30
0.0
 10
-25.3654
 20
-78.8699
 30
0.0
 10
-26.9008
 20
-78.2207
 30
0.0
 10
-26.9008
 20
-77.0683
 30
0.0
 10
-26.9008
 20
-77.0683
 30
0.0
 10
-26.9008
 20
-77.0683
 30
0.0
 10
-26.9009
 20
-77.0684
 30
0.0
 10
-26.9009
 20
-77.0684
 30
0.0
  0
SPLINE
  5
44
330
1F
100
AcDbEntity
  8
layer 1
 62
     7
100
AcDbSpline
210
0.0
220
0.0
230
1.0
 70
    11
 71
     3
 72
    40
 73
    36
 74
     0
 42
0.0000000001
 43
0.0000000001
 12
1.0
 22
0.0
 32
0.0
 13
1.0
 23
0.0
 33
0.0
 40
0.0
 40
0.0
 40
0.0
 40
0.0
 40
0.1
 40
0.1
 40
0.1
 40
0.1
 40
0.2
 40
0.2
 40
0.2
 40
0.2
 40
0.3
 40
0.3
 40
0.3
 40
0.3
 40
0.4
 40
0.4
 40
0.4
 40
0.4
 40
0.5
 40
0.5
 40
0.5
 40
0.5
 40
0.6
 40
0.6
 40
0.6
 40
0.6
 40
0.7
 40
0.7
 40
0.7
 40
0.7
 40
0.8
 40
0.8
 40
0.8
 40
0.8
 40
1.0
 40
1.0
 40
1.0
 40
1.0
 10
3.3532
 20
-47.1374
 30
0.0
 10
3.3532
 20
-47.1374
 30
0.0
 10
3.3532
 20
-29.3361
 30
0.0
 10
3.3532
 20
-29.3361
 30
0.0
 10
3.3532
 20
-29.3361
 30
0.0
 10
3.3532
 20
-28.9374
 30
0.0
 10
3.5828
 20
-28.3924
 30
0.0
 10
3.8659
 20
-28.1119
 30
0.0
 10
3.8659
 20
-28.1119
 30
0.0
 10
3.8659
 20
-28.1119
 30
0.0
 10
11.5228
 20
-20.5238
 30
0.0
 10
11.5228
 20
-20.5238
 30
0.0
 10
11.5228
 20
-20.5238
 30
0.0
 10
12.4013
 20
-19.6532
 30
0.0
 10
13.9466
 20
-20.2593
 30
0.0
 10
13.9466
 20
-21.5731
 30
0.0
 10
13.9466
 20
-21.5731
 30
0.0
 10
13.9466
 20
-21.5731
 30
0.0
 10
13.9466
 20
-39.1859
 30
0.0
 10
13.9466
 20
-39.1859
 30
0.0
 10
13.9466
 20
-39.1859
 30
0.0
 10
13.9466
 20
-39.5846
 30
0.0
 10
13.716
 20
-40.1287
 30
0.0
 10
13.4339
 20
-40.4102
 30
0.0
 10
13.4339
 20
-40.4102
 30
0.0
 10
13.4339
 20
-40.4102
 30
0.0
 10
5.6693
 20
-48.1598
 30
0.0
 10
5.6693
 20
-48.1598
 30
0.0
 10
5.6693
 20
-48.1598
 30
0.0
 10
4.8887
 20
-48.9388
 30
0.0
 10
3.3532
 20
-48.2896
 30
0.0
 10
3.3532
 20
-47.1373
 30
0.0
 10
3.3532
 20
-47.1373
 30
0.0
 10
3.3532
 20
-47.1373
 30
0.0
 10
3.3532
 20
-47.1374
 30
0.0
 10
3.3532
 20
-47.1374
 30
0.0
  0
SPLINE
  5
45
330
1F
100
AcDbEntity
  8
layer 1
 62
     7
100
AcDbSpline
210
0.0
220
0.0
230
1.0
 70
    11
 71
     3
 72
    40
 73
    36
 74
     0
 42
0.0000000001
 43
0.0000000001
 12
1.0
 22
0.0
 32
0.0
 13
1.0
 23
0.0
 33
0.0
 40
0.0
 40
0.0
 40
0.0
 40
0.0
 40
0.1
 40
0.1
 40
0.1
 40
0.1
 40
0.2
 40
0.2
 40
0.2
 40
0.2
 40
0.3
 40
0.3
 40
0.3
 40
0.3
 40
0.4
 40
0.4
 40
0.4
 40
0.4
 40
0.5
 40
0.5
 40
0.5
 40
0.5
 40
0.6
 40
0.6
 40
0.6
 40
0.6
 40
0.7
 40
0.7
 40
0.7
 40
0.7
 40
0.8
 40
0.8
 40
0.8
 40
0.8
 40
1.0
 40
1.0
 40
1.0
 40
1.0
 10
-47.0343
 20
-97.2019
 30
0.0
 10
-47.0343
 20
-97.2019
 30
0.0
 10
-47.0343
 20
-79.4006
 30
0.0
 10
-47.0343
 20
-79.4006
 30
0.0
 10
-47.0343
 20
-79.4006
 30
0.0
 10
-47.0343
 20
-78.7569
 30
0.0
 10
-46.7318
 20
-78.1808
 30
0.0
 10
-46.2742
 20
-77.7212
 30
0.0
 10
-46.2742
 20
-77.7212
 30
0.0
 10
-46.2742
 20
-77.7212
 30
0.0
 10
-34.3976
 20
-65.7919
 30
0.0
 10
-34.3976
 20
-65.7919
 30
0.0
 10
-34.3976
 20
-65.7919
 30
0.0
 10
-32.9081
 20
-64.2958
 30
0.0
 10
-31.2945
 20
-65.1073
 30
0.0
 10
-31.2945
 20
-66.6312
 30
0.0
 10
-31.2945
 20
-66.6312
 30
0.0
 10
-31.2945
 20
-66.6312
 30
0.0
 10
-31.2945
 20
-84.2441
 30
0.0
 10
-31.2945
 20
-84.2441
 30
0.0
 10
-31.2945
 20
-84.2441
 30
0.0
 10
-31.2945
 20
-84.6427
 30
0.0
 10
-31.6284
 20
-85.2866
 30
0.0
 10
-31.9846
 20
-85.6433
 30
0.0
 10
-31.9846
 20
-85.6433
 30
0.0
 10
-31.9846
 20
-85.6433
 30
0.0
 10
-44.2659
 20
-97.9442
 30
0.0
 10
-44.2659
 20
-97.9442
 30
0.0
 10
-44.2659
 20
-97.9442
 30
0.0
 10
-45.6712
 20
-99.3517
 30
0.0
 10
-47.0343
 20
-98.4241
 30
0.0
 10
-47.0343
 20
-97.2018
 30
0.0
 10
-47.0343
 20
-97.2018
 30
0.0
 10
-47.0343
 20
-97.2018
 30
0.0
 10
-47.0343
 20
-97.2019
 30
0.0
 10
-47.0343
 20
-97.2019
 30
0.0
  0
SPLINE
  5
46
330
1F
100
AcDbEntity
  8
layer 1
 62
     7
100
AcDbSpline
210
0.0
220
0.0
230
1.0
 70
    11
 71
     3
 72
    40
 73
    36
 74
     0
 42
0.0000000001
 43
0.0000000001
 12
1.0
 22
0.0
 32
0.0
 13
1.0
 23
0.0
 33
0.0
 40
0.0
 40
0.0
 40
0.0
 40
0.0
 40
0.1
 40
0.1
 40
0.1
 40
0.1
 40
0.2
 40
0.2
 40
0.2
 40
0.2
 40
0.3
 40
0.3
 40
0.3
 40
0.3
 40
0.4
 40
0.4
 40
0.4
 40
0.4
 40
0.5
 40
0.5
 40
0.5
 40
0.5
 40
0.6
 40
0.6
 40
0.6
 40
0.6
 40
0.7
 40
0.7
 40
0.7
 40
0.7
 40
0.8
 40
0.8
 40
0.8
 40
0.8
 40
1.0
 40
1.0
 40
1.0
 40
1.0
 10
-39.6151
 20
-97.9153
 30
0.0
 10
-39.6151
 20
-97.9153
 30
0.0
 10
60.6709
 20
1.9791
 30
0.0
 10
60.6709
 20
1.9791
 30
0.0
 10
60.6709
 20
1.9791
 30
0.0
 10
61.8643
 20
3.1679
 30
0.0
 10
63.5496
 20
2.9697
 30
0.0
 10
63.5576
 20
1.3023
 30
0.0
 10
63.5576
 20
1.3023
 30
0.0
 10
63.5576
 20
1.3023
 30
0.0
 10
63.6384
 20
-15.7449
 30
0.0
 10
63.6384
 20
-15.7449
 30
0.0
 10
63.6384
 20
-15.7449
 30
0.0
 10
63.6429
 20
-16.6953
 30
0.0
 10
63.2754
 20
-17.1764
 30
0.0
 10
62.7924
 20
-17.6586
 30
0.0
 10
62.7924
 20
-17.6586
 30
0.0
 10
62.7924
 20
-17.6586
 30
0.0
 10
-19.4875
 20
-99.7834
 30
0.0
 10
-19.4875
 20
-99.7834
 30
0.0
 10
-19.4875
 20
-99.7834
 30
0.0
 10
-19.7696
 20
-100.0651
 30
0.0
 10
-20.3171
 20
-100.2869
 30
0.0
 10
-20.7157
 20
-100.2866
 30
0.0
 10
-20.7157
 20
-100.2866
 30
0.0
 10
-20.7157
 20
-100.2866
 30
0.0
 10
-38.7004
 20
-100.276
 30
0.0
 10
-38.7004
 20
-100.276
 30
0.0
 10
-38.7004
 20
-100.276
 30
0.0
 10
-39.8033
 20
-100.2753
 30
0.0
 10
-40.4299
 20
-98.7301
 30
0.0
 10
-39.6151
 20
-97.9153
 30
0.0
 10
-39.6151
 20
-97.9153
 30
0.0
 10
-39.6151
 20
-97.9153
 30
0.0
 10
-39.6151
 20
-97.9153
 30
0.0
 10
-39.6151
 20
-97.9153
 30
0.0
  0
SPLINE
  5
47
330
1F
100
AcDbEntity
  8
layer 1
 62
     7
100
AcDbSpline
210
0.0
220
0.0
230
1.0
 70
    11
 71
     3
 72
    40
 73
    36
 74
     0
 42
0.0000000001
 43
0.0000000001
 12
1.0
 22
0.0
 32
0.0
 13
1.0
 23
0.0
 33
0.0
 40
0.0
 40
0.0
 40
0.0
 40
0.0
 40
0.1
 40
0.1
 40
0.1
 40
0.1
 40
0.2
 40
0.2
 40
0.2
 40
0.2
 40
0.3
 40
0.3
 40
0.3
 40
0.3
 40
0.4
 40
0.4
 40
0.4
 40
0.4
 40
0.5
 40
0.5
 40
0.5
 40
0.5
 40
0.6
 40
0.6
 40
0.6
 40
0.6
 40
0.7
 40
0.7
 40
0.7
 40
0.7
 40
0.8
 40
0.8
 40
0.8
 40
0.8
 40
1.0
 40
1.0
 40
1.0
 40
1.0
 10
-4.4001
 20
-97.9153
 30
0.0
 10
-4.4001
 20
-97.9153
 30
0.0
 10
60.6819
 20
-32.8197
 30
0.0
 10
60.6819
 20
-32.8197
 30
0.0
 10
60.6819
 20
-32.8197
 30
0.0
 10
61.8728
 20
-31.6286
 30
0.0
 10
63.5554
 20
-31.8291
 30
0.0
 10
63.5685
 20
-33.4965
 30
0.0
 10
63.5685
 20
-33.4965
 30
0.0
 10
63.5685
 20
-33.4965
 30
0.0
 10
63.6493
 20
-43.7619
 30
0.0
 10
63.6493
 20
-43.7619
 30
0.0
 10
63.6493
 20
-43.7619
 30
0.0
 10
63.6567
 20
-44.7122
 30
0.0
 10
63.2848
 20
-45.1919
 30
0.0
 10
62.8033
 20
-45.6756
 30
0.0
 10
62.8033
 20
-45.6756
 30
0.0
 10
62.8033
 20
-45.6756
 30
0.0
 10
8.9415
 20
-99.7835
 30
0.0
 10
8.9415
 20
-99.7835
 30
0.0
 10
8.9415
 20
-99.7835
 30
0.0
 10
8.6602
 20
-100.066
 30
0.0
 10
8.1118
 20
-100.2871
 30
0.0
 10
7.7133
 20
-100.2867
 30
0.0
 10
7.7133
 20
-100.2867
 30
0.0
 10
7.7133
 20
-100.2867
 30
0.0
 10
-3.2273
 20
-100.276
 30
0.0
 10
-3.2273
 20
-100.276
 30
0.0
 10
-3.2273
 20
-100.276
 30
0.0
 10
-4.6768
 20
-100.2507
 30
0.0
 10
-4.8716
 20
-98.6058
 30
0.0
 10
-4.4002
 20
-97.9153
 30
0.0
 10
-4.4002
 20
-97.9153
 30
0.0
 10
-4.4002
 20
-97.9153
 30
0.0
 10
-4.4001
 20
-97.9153
 30
0.0
 10
-4.4001
 20
-97.9153
 30
0.0
  0
SPLINE
  5
48
330
1F
100
AcDbEntity
  8
layer 1
 62
     7
100
AcDbSpline
210
0.0
220
0.0
230
1.0
 70
    11
 71
     3
 72
    40
 73
    36
 74
     0
 42
0.0000000001
 43
0.0000000001
 12
1.0
 22
0.0
 32
0.0
 13
1.0
 23
0.0
 33
0.0
 40
0.0
 40
0.0
 40
0.0
 40
0.0
 40
0.1
 40
0.1
 40
0.1
 40
0.1
 40
0.2
 40
0.2
 40
0.2
 40
0.2
 40
0.3
 40
0.3
 40
0.3
 40
0.3
 40
0.4
 40
0.4
 40
0.4
 40
0.4
 40
0.5
 40
0.5
 40
0.5
 40
0.5
 40
0.6
 40
0.6
 40
0.6
 40
0.6
 40
0.7
 40
0.7
 40
0.7
 40
0.7
 40
0.8
 40
0.8
 40
0.8
 40
0.8
 40
1.0
 40
1.0
 40
1.0
 40
1.0
 10
-4.4001
 20
-97.9153
 30
0.0
 10
-4.4001
 20
-97.9153
 30
0.0
 10
60.6819
 20
-32.8197
 30
0.0
 10
60.6819
 20
-32.8197
 30
0.0
 10
60.6819
 20
-32.8197
 30
0.0
 10
61.8728
 20
-31.6286
 30
0.0
 10
63.5554
 20
-31.8291
 30
0.0
 10
63.5685
 20
-33.4965
 30
0.0
 10
63.5685
 20
-33.4965
 30
0.0
 10
63.5685
 20
-33.4965
 30
0.0
 10
63.6493
 20
-43.7619
 30
0.0
 10
63.6493
 20
-43.7619
 30
0.0
 10
63.6493
 20
-43.7619
 30
0.0
 10
63.6567
 20
-44.7122
 30
0.0
 10
63.2848
 20
-45.1919
 30
0.0
 10
62.8033
 20
-45.6756
 30
0.0
 10
62.8033
 20
-45.6756
 30
0.0
 10
62.8033
 20
-45.6756
 30
0.0
 10
8.9415
 20
-99.7835
 30
0.0
 10
8.9415
 20
-99.7835
 30
0.0
 10
8.9415
 20
-99.7835
 30
0.0
 10
8.6602
 20
-100.066
 30
0.0
 10
8.1118
 20
-100.2871
 30
0.0
 10
7.7133
 20
-100.2867
 30
0.0
 10
7.7133
 20
-100.2867
 30
0.0
 10
7.7133
 20
-100.2867
 30
0.0
 10
-3.2273
 20
-100.276
 30
0.0
 10
-3.2273
 20
-100.276
 30
0.0
 10
-3.2273
 20
-100.276
 30
0.0
 10
-4.6768
 20
-100.2507
 30
0.0
 10
-4.8716
 20
-98.6058
 30
0.0
 10
-4.4002
 20
-97.9153
 30
0.0
 10
-4.4002
 20
-97.9153
 30
0.0
 10
-4.4002
 20
-97.9153
 30
0.0
 10
-4.4001
 20
-97.9153
 30
0.0
 10
-4.4001
 20
-97.9153
 30
0.0
  0
SPLINE
  5
49
330
1F
100
AcDbEntity
  8
layer 1
 62
     7
100
AcDbSpline
210
0.0
220
0.0
230
1.0
 70
    11
 71
     3
 72
    28
 73
    24
 74
     0
 42
0.0000000001
 43
0.0000000001
 12
1.0
 22
0.0
 32
0.0
 13
1.0
 23
0.0
 33
0.0
 40
0.0
 40
0.0
 40
0.0
 40
0.0
 40
0.1428571428571428
 40
0.1428571428571428
 40
0.1428571428571428
 40
0.1428571428571428
 40
0.2857142857142857
 40
0.2857142857142857
 40
0.2857142857142857
 40
0.2857142857142857
 40
0.4285714285714285
 40
0.4285714285714285
 40
0.4285714285714285
 40
0.4285714285714285
 40
0.5714285714285714
 40
0.5714285714285714
 40
0.5714285714285714
 40
0.5714285714285714
 40
0.7142857142857143
 40
0.7142857142857143
 40
0.7142857142857143
 40
0.7142857142857143
 40
1.0
 40
1.0
 40
1.0
 40
1.0
 10
31.038
 20
-97.8182
 30
0.0
 10
31.038
 20
-97.8182
 30
0.0
 10
60.7049
 20
-68.0155
 30
0.0
 10
60.7049
 20
-68.0155
 30
0.0
 10
60.7049
 20
-68.0155
 30
0.0
 10
61.8932
 20
-66.8217
 30
0.0
 10
63.5869
 20
-67.0248
 30
0.0
 10
63.5915
 20
-68.6923
 30
0.0
 10
63.5915
 20
-68.6923
 30
0.0
 10
63.5915
 20
-68.6923
 30
0.0
 10
63.6723
 20
-98.3472
 30
0.0
 10
63.6723
 20
-98.3472
 30
0.0
 10
63.6723
 20
-98.3472
 30
0.0
 10
63.6749
 20
-99.2977
 30
0.0
 10
63.3292
 20
-100.3101
 30
0.0
 10
61.2972
 20
-100.2507
 30
0.0
 10
61.2972
 20
-100.2507
 30
0.0
 10
61.2972
 20
-100.2507
 30
0.0
 10
32.2109
 20
-100.1789
 30
0.0
 10
32.2109
 20
-100.1789
 30
0.0
 10
32.2109
 20
-100.1789
 30
0.0
 10
30.7615
 20
-100.1536
 30
0.0
 10
30.5666
 20
-98.5087
 30
0.0
 10
31.038
 20
-97.8182
 30
0.0
  0
SPLINE
  5
4A
330
1F
100
AcDbEntity
  8
layer 1
 62
     7
100
AcDbSpline
210
0.0
220
0.0
230
1.0
 70
    11
 71
     3
 72
    40
 73
    36
 74
     0
 42
0.0000000001
 43
0.0000000001
 12
1.0
 22
0.0
 32
0.0
 13
1.0
 23
0.0
 33
0.0
 40
0.0
 40
0.0
 40
0.0
 40
0.0
 40
0.1
 40
0.1
 40
0.1
 40
0.1
 40
0.2
 40
0.2
 40
0.2
 40
0.2
 40
0.3
 40
0.3
 40
0.3
 40
0.3
 40
0.4
 40
0.4
 40
0.4
 40
0.4
 40
0.5
 40
0.5
 40
0.5
 40
0.5
 40
0.6
 40
0.6
 40
0.6
 40
0.6
 40
0.7
 40
0.7
 40
0.7
 40
0.7
 40
0.8
 40
0.8
 40
0.8
 40
0.8
 40
1.0
 40
1.0
 40
1.0
 40
1.0
 10
-47.0625
 20
-61.1589
 30
0.0
 10
-47.0682
 20
-62.8433
 30
0.0
 10
-45.7314
 20
-63.8909
 30
0.0
 10
-44.5428
 20
-62.7214
 30
0.0
 10
-44.5428
 20
-62.7214
 30
0.0
 10
-44.5428
 20
-62.7214
 30
0.0
 10
-31.9547
 20
-50.3353
 30
0.0
 10
-31.9547
 20
-50.3353
 30
0.0
 10
-31.9547
 20
-50.3353
 30
0.0
 10
-31.2773
 20
-49.6687
 30
0.0
 10
-31.198
 20
-49.0664
 30
0.0
 10
-31.1998
 20
-48.3839
 30
0.0
 10
-31.1998
 20
-48.3839
 30
0.0
 10
-31.1998
 20
-48.3839
 30
0.0
 10
-31.5092
 20
74.0362
 30
0.0
 10
-31.5092
 20
74.0362
 30
0.0
 10
-31.5092
 20
74.0362
 30
0.0
 10
-31.5108
 20
74.61
 30
0.0
 10
-31.6458
 20
75.2476
 30
0.0
 10
-32.0919
 20
75.6809
 30
0.0
 10
-32.0919
 20
75.6809
 30
0.0
 10
-32.0919
 20
75.6809
 30
0.0
 10
-44.7465
 20
87.97
 30
0.0
 10
-44.7465
 20
87.97
 30
0.0
 10
-44.7465
 20
87.97
 30
0.0
 10
-45.5377
 20
88.7384
 30
0.0
 10
-47.1066
 20
88.3401
 30
0.0
 10
-47.0626
 20
86.9476
 30
0.0
 10
-47.0626
 20
86.9476
 30
0.0
 10
-47.072
 20
37.5985
 30
0.0
 10
-46.8968
 20
-11.8053
 30
0.0
 10
-47.0626
 20
-61.1588
 30
0.0
 10
-47.0626
 20
-61.1588
 30
0.0
 10
-47.0626
 20
-61.1588
 30
0.0
 10
-47.0625
 20
-61.1589
 30
0.0
 10
-47.0625
 20
-61.1589
 30
0.0
  0
SPLINE
  5
4B
330
1F
100
AcDbEntity
  8
layer 1
 62
     7
100
AcDbSpline
210
0.0
220
0.0
230
1.0
 70
    11
 71
     3
 72
    40
 73
    36
 74
     0
 42
0.0000000001
 43
0.0000000001
 12
1.0
 22
0.0
 32
0.0
 13
1.0
 23
0.0
 33
0.0
 40
0.0
 40
0.0
 40
0.0
 40
0.0
 40
0.1
 40
0.1
 40
0.1
 40
0.1
 40
0.2
 40
0.2
 40
0.2
 40
0.2
 40
0.3
 40
0.3
 40
0.3
 40
0.3
 40
0.4
 40
0.4
 40
0.4
 40
0.4
 40
0.5
 40
0.5
 40
0.5
 40
0.5
 40
0.6
 40
0.6
 40
0.6
 40
0.6
 40
0.7
 40
0.7
 40
0.7
 40
0.7
 40
0.8
 40
0.8
 40
0.8
 40
0.8
 40
1.0
 40
1.0
 40
1.0
 40
1.0
 10
-26.9221
 20
-41.3171
 30
0.0
 10
-26.9278
 20
-43.0015
 30
0.0
 10
-25.5979
 20
-44.0421
 30
0.0
 10
-24.4024
 20
-42.8797
 30
0.0
 10
-24.4024
 20
-42.8797
 30
0.0
 10
-24.4024
 20
-42.8797
 30
0.0
 10
-16.8548
 20
-35.541
 30
0.0
 10
-16.8548
 20
-35.541
 30
0.0
 10
-16.8548
 20
-35.541
 30
0.0
 10
-16.1734
 20
-34.8785
 30
0.0
 10
-16.1007
 20
-34.2721
 30
0.0
 10
-16.0999
 20
-33.5896
 30
0.0
 10
-16.0999
 20
-33.5896
 30
0.0
 10
-16.0999
 20
-33.5896
 30
0.0
 10
-15.984
 20
59.7529
 30
0.0
 10
-15.984
 20
59.7529
 30
0.0
 10
-15.984
 20
59.7529
 30
0.0
 10
-15.984
 20
60.3267
 30
0.0
 10
-16.318
 20
60.9939
 30
0.0
 10
-16.9194
 20
61.569
 30
0.0
 10
-16.9194
 20
61.569
 30
0.0
 10
-16.9194
 20
61.569
 30
0.0
 10
-24.5854
 20
68.9027
 30
0.0
 10
-24.5854
 20
68.9027
 30
0.0
 10
-24.5854
 20
68.9027
 30
0.0
 10
-25.3823
 20
69.665
 30
0.0
 10
-26.9455
 20
69.2727
 30
0.0
 10
-26.9014
 20
67.8802
 30
0.0
 10
-26.9014
 20
67.8802
 30
0.0
 10
-26.9109
 20
18.5311
 30
0.0
 10
-26.7563
 20
8.0365
 30
0.0
 10
-26.9221
 20
-41.3171
 30
0.0
 10
-26.9221
 20
-41.3171
 30
0.0
 10
-26.9221
 20
-41.3171
 30
0.0
 10
-26.9221
 20
-41.3171
 30
0.0
 10
-26.9221
 20
-41.3171
 30
0.0
  0
SPLINE
  5
4C
330
1F
100
AcDbEntity
  8
layer 1
 62
     7
100
AcDbSpline
210
0.0
220
0.0
230
1.0
 70
    11
 71
     3
 72
    40
 73
    36
 74
     0
 42
0.0000000001
 43
0.0000000001
 12
1.0
 22
0.0
 32
0.0
 13
1.0
 23
0.0
 33
0.0
 40
0.0
 40
0.0
 40
0.0
 40
0.0
 40
0.1
 40
0.1
 40
0.1
 40
0.1
 40
0.2
 40
0.2
 40
0.2
 40
0.2
 40
0.3
 40
0.3
 40
0.3
 40
0.3
 40
0.4
 40
0.4
 40
0.4
 40
0.4
 40
0.5
 40
0.5
 40
0.5
 40
0.5
 40
0.6
 40
0.6
 40
0.6
 40
0.6
 40
0.7
 40
0.7
 40
0.7
 40
0.7
 40
0.8
 40
0.8
 40
0.8
 40
0.8
 40
1.0
 40
1.0
 40
1.0
 40
1.0
 10
-11.7801
 20
-26.3857
 30
0.0
 10
-11.7859
 20
-28.07
 30
0.0
 10
-10.4453
 20
-29.1214
 30
0.0
 10
-9.2604
 20
-27.9482
 30
0.0
 10
-9.2604
 20
-27.9482
 30
0.0
 10
-9.2604
 20
-27.9482
 30
0.0
 10
-1.8896
 20
-20.6502
 30
0.0
 10
-1.8896
 20
-20.6502
 30
0.0
 10
-1.8896
 20
-20.6502
 30
0.0
 10
-1.2142
 20
-19.9815
 30
0.0
 10
-1.1356
 20
-19.3813
 30
0.0
 10
-1.1346
 20
-18.6988
 30
0.0
 10
-1.1346
 20
-18.6988
 30
0.0
 10
-1.1346
 20
-18.6988
 30
0.0
 10
-1.0442
 20
45.1108
 30
0.0
 10
-1.0442
 20
45.1108
 30
0.0
 10
-1.0442
 20
45.1108
 30
0.0
 10
-1.0425
 20
45.6846
 30
0.0
 10
-1.4114
 20
46.3947
 30
0.0
 10
-2.005
 20
46.9779
 30
0.0
 10
-2.005
 20
46.9779
 30
0.0
 10
-2.005
 20
46.9779
 30
0.0
 10
-9.0657
 20
53.9147
 30
0.0
 10
-9.0657
 20
53.9147
 30
0.0
 10
-9.0657
 20
53.9147
 30
0.0
 10
-9.8524
 20
54.6877
 30
0.0
 10
-11.6292
 20
54.2593
 30
0.0
 10
-11.5852
 20
52.8668
 30
0.0
 10
-11.5852
 20
52.8668
 30
0.0
 10
-11.5947
 20
3.5177
 30
0.0
 10
-11.6144
 20
22.9678
 30
0.0
 10
-11.7802
 20
-26.3857
 30
0.0
 10
-11.7802
 20
-26.3857
 30
0.0
 10
-11.7802
 20
-26.3857
 30
0.0
 10
-11.7801
 20
-26.3857
 30
0.0
 10
-11.7801
 20
-26.3857
 30
0.0
  0
SPLINE
  5
4D
330
1F
100
AcDbEntity
  8
layer 1
 62
     7
100
AcDbSpline
210
0.0
220
0.0
230
1.0
 70
    11
 71
     3
 72
    40
 73
    36
 74
     0
 42
0.0000000001
 43
0.0000000001
 12
1.0
 22
0.0
 32
0.0
 13
1.0
 23
0.0
 33
0.0
 40
0.0
 40
0.0
 40
0.0
 40
0.0
 40
0.1
 40
0.1
 40
0.1
 40
0.1
 40
0.2
 40
0.2
 40
0.2
 40
0.2
 40
0.3
 40
0.3
 40
0.3
 40
0.3
 40
0.4
 40
0.4
 40
0.4
 40
0.4
 40
0.5
 40
0.5
 40
0.5
 40
0.5
 40
0.6
 40
0.6
 40
0.6
 40
0.6
 40
0.7
 40
0.7
 40
0.7
 40
0.7
 40
0.8
 40
0.8
 40
0.8
 40
0.8
 40
1.0
 40
1.0
 40
1.0
 40
1.0
 10
3.3781
 20
-11.5549
 30
0.0
 10
3.3724
 20
-13.2392
 30
0.0
 10
4.7129
 20
-14.2906
 30
0.0
 10
5.8978
 20
-13.1174
 30
0.0
 10
5.8978
 20
-13.1174
 30
0.0
 10
5.8978
 20
-13.1174
 30
0.0
 10
13.2686
 20
-5.8194
 30
0.0
 10
13.2686
 20
-5.8194
 30
0.0
 10
13.2686
 20
-5.8194
 30
0.0
 10
13.944
 20
-5.1507
 30
0.0
 10
14.0308
 20
-4.5504
 30
0.0
 10
14.0236
 20
-3.868
 30
0.0
 10
14.0236
 20
-3.868
 30
0.0
 10
14.0236
 20
-3.868
 30
0.0
 10
13.6598
 20
30.6076
 30
0.0
 10
13.6598
 20
30.6076
 30
0.0
 10
13.6598
 20
30.6076
 30
0.0
 10
13.6537
 20
31.1815
 30
0.0
 10
13.3021
 20
31.9014
 30
0.0
 10
12.699
 20
32.4747
 30
0.0
 10
12.699
 20
32.4747
 30
0.0
 10
12.699
 20
32.4747
 30
0.0
 10
5.4769
 20
39.3407
 30
0.0
 10
5.4769
 20
39.3407
 30
0.0
 10
5.4769
 20
39.3407
 30
0.0
 10
4.6775
 20
40.1006
 30
0.0
 10
3.1167
 20
39.7108
 30
0.0
 10
3.1608
 20
38.3183
 30
0.0
 10
3.1608
 20
38.3183
 30
0.0
 10
3.1514
 20
-11.0308
 30
0.0
 10
3.5439
 20
37.7987
 30
0.0
 10
3.3781
 20
-11.5548
 30
0.0
 10
3.3781
 20
-11.5548
 30
0.0
 10
3.3781
 20
-11.5548
 30
0.0
 10
3.3781
 20
-11.5549
 30
0.0
 10
3.3781
 20
-11.5549
 30
0.0
  0
SPLINE
  5
4E
330
1F
100
AcDbEntity
  8
layer 1
 62
     7
100
AcDbSpline
210
0.0
220
0.0
230
1.0
 70
    11
 71
     3
 72
    28
 73
    24
 74
     0
 42
0.0000000001
 43
0.0000000001
 12
1.0
 22
0.0
 32
0.0
 13
1.0
 23
0.0
 33
0.0
 40
0.0
 40
0.0
 40
0.0
 40
0.0
 40
0.1428571428571428
 40
0.1428571428571428
 40
0.1428571428571428
 40
0.1428571428571428
 40
0.2857142857142857
 40
0.2857142857142857
 40
0.2857142857142857
 40
0.2857142857142857
 40
0.4285714285714285
 40
0.4285714285714285
 40
0.4285714285714285
 40
0.4285714285714285
 40
0.5714285714285714
 40
0.5714285714285714
 40
0.5714285714285714
 40
0.5714285714285714
 40
0.7142857142857143
 40
0.7142857142857143
 40
0.7142857142857143
 40
0.7142857142857143
 40
1.0
 40
1.0
 40
1.0
 40
1.0
 10
18.1758
 20
-10.63
 30
0.0
 10
18.17
 20
-12.3144
 30
0.0
 10
19.5106
 20
-13.3658
 30
0.0
 10
20.6955
 20
-12.1925
 30
0.0
 10
20.6955
 20
-12.1925
 30
0.0
 10
20.6955
 20
-12.1925
 30
0.0
 10
45.1089
 20
11.9058
 30
0.0
 10
45.1089
 20
11.9058
 30
0.0
 10
45.1089
 20
11.9058
 30
0.0
 10
45.982
 20
12.6095
 30
0.0
 10
46.0208
 20
13.5937
 30
0.0
 10
44.9333
 20
14.3486
 30
0.0
 10
44.9333
 20
14.3486
 30
0.0
 10
44.9333
 20
14.3486
 30
0.0
 10
20.6063
 20
38.3474
 30
0.0
 10
20.6063
 20
38.3474
 30
0.0
 10
20.6063
 20
38.3474
 30
0.0
 10
19.807
 20
39.1073
 30
0.0
 10
18.2462
 20
38.7174
 30
0.0
 10
18.2902
 20
37.325
 30
0.0
 10
18.2902
 20
37.325
 30
0.0
 10
18.2808
 20
-12.0242
 30
0.0
 10
18.3415
 20
38.7235
 30
0.0
 10
18.1758
 20
-10.63
 30
0.0
  0
SPLINE
  5
4F
330
1F
100
AcDbEntity
  8
layer 1
 62
     7
100
AcDbSpline
210
0.0
220
0.0
230
1.0
 70
    11
 71
     3
 72
    40
 73
    36
 74
     0
 42
0.0000000001
 43
0.0000000001
 12
1.0
 22
0.0
 32
0.0
 13
1.0
 23
0.0
 33
0.0
 40
0.0
 40
0.0
 40
0.0
 40
0.0
 40
0.1
 40
0.1
 40
0.1
 40
0.1
 40
0.2
 40
0.2
 40
0.2
 40
0.2
 40
0.3
 40
0.3
 40
0.3
 40
0.3
 40
0.4
 40
0.4
 40
0.4
 40
0.4
 40
0.5
 40
0.5
 40
0.5
 40
0.5
 40
0.6
 40
0.6
 40
0.6
 40
0.6
 40
0.7
 40
0.7
 40
0.7
 40
0.7
 40
0.8
 40
0.8
 40
0.8
 40
0.8
 40
1.0
 40
1.0
 40
1.0
 40
1.0
 10
-11.8489
 20
86.3771
 30
0.0
 10
-11.8489
 20
86.3771
 30
0.0
 10
-11.8489
 20
68.5758
 30
0.0
 10
-11.8489
 20
68.5758
 30
0.0
 10
-11.8489
 20
68.5758
 30
0.0
 10
-11.8489
 20
68.1771
 30
0.0
 10
-11.6193
 20
67.6321
 30
0.0
 10
-11.3362
 20
67.3515
 30
0.0
 10
-11.3362
 20
67.3515
 30
0.0
 10
-11.3362
 20
67.3515
 30
0.0
 10
-3.6793
 20
59.7634
 30
0.0
 10
-3.6793
 20
59.7634
 30
0.0
 10
-3.6793
 20
59.7634
 30
0.0
 10
-2.8008
 20
58.8928
 30
0.0
 10
-1.2555
 20
59.499
 30
0.0
 10
-1.2555
 20
60.8128
 30
0.0
 10
-1.2555
 20
60.8128
 30
0.0
 10
-1.2555
 20
60.8128
 30
0.0
 10
-1.2555
 20
78.4256
 30
0.0
 10
-1.2555
 20
78.4256
 30
0.0
 10
-1.2555
 20
78.4256
 30
0.0
 10
-1.2555
 20
78.8243
 30
0.0
 10
-1.4861
 20
79.3683
 30
0.0
 10
-1.7682
 20
79.6499
 30
0.0
 10
-1.7682
 20
79.6499
 30
0.0
 10
-1.7682
 20
79.6499
 30
0.0
 10
-9.5328
 20
87.3994
 30
0.0
 10
-9.5328
 20
87.3994
 30
0.0
 10
-9.5328
 20
87.3994
 30
0.0
 10
-10.3134
 20
88.1785
 30
0.0
 10
-11.8489
 20
87.5293
 30
0.0
 10
-11.8489
 20
86.377
 30
0.0
 10
-11.8489
 20
86.377
 30
0.0
 10
-11.8489
 20
86.377
 30
0.0
 10
-11.8489
 20
86.3771
 30
0.0
 10
-11.8489
 20
86.3771
 30
0.0
  0
SPLINE
  5
50
330
1F
100
AcDbEntity
  8
layer 1
 62
     7
100
AcDbSpline
210
0.0
220
0.0
230
1.0
 70
    11
 71
     3
 72
    40
 73
    36
 74
     0
 42
0.0000000001
 43
0.0000000001
 12
1.0
 22
0.0
 32
0.0
 13
1.0
 23
0.0
 33
0.0
 40
0.0
 40
0.0
 40
0.0
 40
0.0
 40
0.1
 40
0.1
 40
0.1
 40
0.1
 40
0.2
 40
0.2
 40
0.2
 40
0.2
 40
0.3
 40
0.3
 40
0.3
 40
0.3
 40
0.4
 40
0.4
 40
0.4
 40
0.4
 40
0.5
 40
0.5
 40
0.5
 40
0.5
 40
0.6
 40
0.6
 40
0.6
 40
0.6
 40
0.7
 40
0.7
 40
0.7
 40
0.7
 40
0.8
 40
0.8
 40
0.8
 40
0.8
 40
1.0
 40
1.0
 40
1.0
 40
1.0
 10
-26.9221
 20
101.3425
 30
0.0
 10
-26.9221
 20
101.3425
 30
0.0
 10
-26.9221
 20
83.5413
 30
0.0
 10
-26.9221
 20
83.5413
 30
0.0
 10
-26.9221
 20
83.5413
 30
0.0
 10
-26.9221
 20
83.1426
 30
0.0
 10
-26.6925
 20
82.5975
 30
0.0
 10
-26.4094
 20
82.317
 30
0.0
 10
-26.4094
 20
82.317
 30
0.0
 10
-26.4094
 20
82.317
 30
0.0
 10
-18.7524
 20
74.7289
 30
0.0
 10
-18.7524
 20
74.7289
 30
0.0
 10
-18.7524
 20
74.7289
 30
0.0
 10
-17.8739
 20
73.8583
 30
0.0
 10
-16.3287
 20
74.4645
 30
0.0
 10
-16.3287
 20
75.7782
 30
0.0
 10
-16.3287
 20
75.7782
 30
0.0
 10
-16.3287
 20
75.7782
 30
0.0
 10
-16.3287
 20
93.3911
 30
0.0
 10
-16.3287
 20
93.3911
 30
0.0
 10
-16.3287
 20
93.3911
 30
0.0
 10
-16.3287
 20
93.7898
 30
0.0
 10
-16.5593
 20
94.3338
 30
0.0
 10
-16.8414
 20
94.6153
 30
0.0
 10
-16.8414
 20
94.6153
 30
0.0
 10
-16.8414
 20
94.6153
 30
0.0
 10
-24.606
 20
102.365
 30
0.0
 10
-24.606
 20
102.365
 30
0.0
 10
-24.606
 20
102.365
 30
0.0
 10
-25.3867
 20
103.1441
 30
0.0
 10
-26.9221
 20
102.4949
 30
0.0
 10
-26.9221
 20
101.3426
 30
0.0
 10
-26.9221
 20
101.3426
 30
0.0
 10
-26.9221
 20
101.3426
 30
0.0
 10
-26.9221
 20
101.3425
 30
0.0
 10
-26.9221
 20
101.3425
 30
0.0
  0
SPLINE
  5
51
330
1F
100
AcDbEntity
  8
layer 1
 62
     7
100
AcDbSpline
210
0.0
220
0.0
230
1.0
 70
    11
 71
     3
 72
    40
 73
    36
 74
     0
 42
0.0000000001
 43
0.0000000001
 12
1.0
 22
0.0
 32
0.0
 13
1.0
 23
0.0
 33
0.0
 40
0.0
 40
0.0
 40
0.0
 40
0.0
 40
0.1
 40
0.1
 40
0.1
 40
0.1
 40
0.2
 40
0.2
 40
0.2
 40
0.2
 40
0.3
 40
0.3
 40
0.3
 40
0.3
 40
0.4
 40
0.4
 40
0.4
 40
0.4
 40
0.5
 40
0.5
 40
0.5
 40
0.5
 40
0.6
 40
0.6
 40
0.6
 40
0.6
 40
0.7
 40
0.7
 40
0.7
 40
0.7
 40
0.8
 40
0.8
 40
0.8
 40
0.8
 40
1.0
 40
1.0
 40
1.0
 40
1.0
 10
3.3319
 20
71.4115
 30
0.0
 10
3.3319
 20
71.4115
 30
0.0
 10
3.3319
 20
53.6103
 30
0.0
 10
3.3319
 20
53.6103
 30
0.0
 10
3.3319
 20
53.6103
 30
0.0
 10
3.3319
 20
53.2116
 30
0.0
 10
3.5615
 20
52.6665
 30
0.0
 10
3.8446
 20
52.386
 30
0.0
 10
3.8446
 20
52.386
 30
0.0
 10
3.8446
 20
52.386
 30
0.0
 10
11.5015
 20
44.7979
 30
0.0
 10
11.5015
 20
44.7979
 30
0.0
 10
11.5015
 20
44.7979
 30
0.0
 10
12.38
 20
43.9273
 30
0.0
 10
13.9253
 20
44.5335
 30
0.0
 10
13.9253
 20
45.8472
 30
0.0
 10
13.9253
 20
45.8472
 30
0.0
 10
13.9253
 20
45.8472
 30
0.0
 10
13.9253
 20
63.4601
 30
0.0
 10
13.9253
 20
63.4601
 30
0.0
 10
13.9253
 20
63.4601
 30
0.0
 10
13.9253
 20
63.8588
 30
0.0
 10
13.6947
 20
64.4028
 30
0.0
 10
13.4126
 20
64.6843
 30
0.0
 10
13.4126
 20
64.6843
 30
0.0
 10
13.4126
 20
64.6843
 30
0.0
 10
5.648
 20
72.4339
 30
0.0
 10
5.648
 20
72.4339
 30
0.0
 10
5.648
 20
72.4339
 30
0.0
 10
4.8674
 20
73.213
 30
0.0
 10
3.3319
 20
72.5638
 30
0.0
 10
3.3319
 20
71.4115
 30
0.0
 10
3.3319
 20
71.4115
 30
0.0
 10
3.3319
 20
71.4115
 30
0.0
 10
3.3319
 20
71.4115
 30
0.0
 10
3.3319
 20
71.4115
 30
0.0
  0
SPLINE
  5
52
330
1F
100
AcDbEntity
  8
layer 1
 62
     7
100
AcDbSpline
210
0.0
220
0.0
230
1.0
 70
    11
 71
     3
 72
    40
 73
    36
 74
     0
 42
0.0000000001
 43
0.0000000001
 12
1.0
 22
0.0
 32
0.0
 13
1.0
 23
0.0
 33
0.0
 40
0.0
 40
0.0
 40
0.0
 40
0.0
 40
0.1
 40
0.1
 40
0.1
 40
0.1
 40
0.2
 40
0.2
 40
0.2
 40
0.2
 40
0.3
 40
0.3
 40
0.3
 40
0.3
 40
0.4
 40
0.4
 40
0.4
 40
0.4
 40
0.5
 40
0.5
 40
0.5
 40
0.5
 40
0.6
 40
0.6
 40
0.6
 40
0.6
 40
0.7
 40
0.7
 40
0.7
 40
0.7
 40
0.8
 40
0.8
 40
0.8
 40
0.8
 40
1.0
 40
1.0
 40
1.0
 40
1.0
 10
-47.0556
 20
121.476
 30
0.0
 10
-47.0556
 20
121.476
 30
0.0
 10
-47.0556
 20
103.6747
 30
0.0
 10
-47.0556
 20
103.6747
 30
0.0
 10
-47.0556
 20
103.6747
 30
0.0
 10
-47.0556
 20
103.031
 30
0.0
 10
-46.753
 20
102.4549
 30
0.0
 10
-46.2955
 20
101.9953
 30
0.0
 10
-46.2955
 20
101.9953
 30
0.0
 10
-46.2955
 20
101.9953
 30
0.0
 10
-34.4189
 20
90.0661
 30
0.0
 10
-34.4189
 20
90.0661
 30
0.0
 10
-34.4189
 20
90.0661
 30
0.0
 10
-32.9294
 20
88.57
 30
0.0
 10
-31.3158
 20
89.3815
 30
0.0
 10
-31.3158
 20
90.9054
 30
0.0
 10
-31.3158
 20
90.9054
 30
0.0
 10
-31.3158
 20
90.9054
 30
0.0
 10
-31.3158
 20
108.5182
 30
0.0
 10
-31.3158
 20
108.5182
 30
0.0
 10
-31.3158
 20
108.5182
 30
0.0
 10
-31.3158
 20
108.9169
 30
0.0
 10
-31.6497
 20
109.5608
 30
0.0
 10
-32.0059
 20
109.9175
 30
0.0
 10
-32.0059
 20
109.9175
 30
0.0
 10
-32.0059
 20
109.9175
 30
0.0
 10
-44.2872
 20
122.2183
 30
0.0
 10
-44.2872
 20
122.2183
 30
0.0
 10
-44.2872
 20
122.2183
 30
0.0
 10
-45.6925
 20
123.6258
 30
0.0
 10
-47.0556
 20
122.6983
 30
0.0
 10
-47.0556
 20
121.4759
 30
0.0
 10
-47.0556
 20
121.4759
 30
0.0
 10
-47.0556
 20
121.4759
 30
0.0
 10
-47.0556
 20
121.476
 30
0.0
 10
-47.0556
 20
121.476
 30
0.0
  0
SPLINE
  5
53
330
1F
100
AcDbEntity
  8
layer 1
 62
     7
100
AcDbSpline
210
0.0
220
0.0
230
1.0
 70
    11
 71
     3
 72
    36
 73
    32
 74
     0
 42
0.0000000001
 43
0.0000000001
 12
1.0
 22
0.0
 32
0.0
 13
1.0
 23
0.0
 33
0.0
 40
0.0
 40
0.0
 40
0.0
 40
0.0
 40
0.1111111111111111
 40
0.1111111111111111
 40
0.1111111111111111
 40
0.1111111111111111
 40
0.2222222222222222
 40
0.2222222222222222
 40
0.2222222222222222
 40
0.2222222222222222
 40
0.3333333333333333
 40
0.3333333333333333
 40
0.3333333333333333
 40
0.3333333333333333
 40
0.4444444444444444
 40
0.4444444444444444
 40
0.4444444444444444
 40
0.4444444444444444
 40
0.5555555555555556
 40
0.5555555555555556
 40
0.5555555555555556
 40
0.5555555555555556
 40
0.6666666666666666
 40
0.6666666666666666
 40
0.6666666666666666
 40
0.6666666666666666
 40
0.7777777777777778
 40
0.7777777777777778
 40
0.7777777777777778
 40
0.7777777777777778
 40
1.0
 40
1.0
 40
1.0
 40
1.0
 10
-39.6364
 20
122.1895
 30
0.0
 10
-39.6364
 20
122.1895
 30
0.0
 10
60.6496
 20
22.295
 30
0.0
 10
60.6496
 20
22.295
 30
0.0
 10
60.6496
 20
22.295
 30
0.0
 10
61.843
 20
21.1063
 30
0.0
 10
63.5283
 20
21.3044
 30
0.0
 10
63.5363
 20
22.9718
 30
0.0
 10
63.5363
 20
22.9718
 30
0.0
 10
63.5363
 20
22.9718
 30
0.0
 10
63.6171
 20
40.019
 30
0.0
 10
63.6171
 20
40.019
 30
0.0
 10
63.6171
 20
40.019
 30
0.0
 10
63.6216
 20
40.9695
 30
0.0
 10
63.2541
 20
41.4506
 30
0.0
 10
62.7711
 20
41.9327
 30
0.0
 10
62.7711
 20
41.9327
 30
0.0
 10
62.7711
 20
41.9327
 30
0.0
 10
-19.5087
 20
124.0576
 30
0.0
 10
-19.5087
 20
124.0576
 30
0.0
 10
-19.5087
 20
124.0576
 30
0.0
 10
-19.7909
 20
124.3393
 30
0.0
 10
-20.3384
 20
124.5611
 30
0.0
 10
-20.7369
 20
124.5608
 30
0.0
 10
-20.7369
 20
124.5608
 30
0.0
 10
-20.7369
 20
124.5608
 30
0.0
 10
-38.7216
 20
124.5502
 30
0.0
 10
-38.7216
 20
124.5502
 30
0.0
 10
-38.7216
 20
124.5502
 30
0.0
 10
-39.8245
 20
124.5495
 30
0.0
 10
-40.4512
 20
123.0043
 30
0.0
 10
-39.6364
 20
122.1895
 30
0.0
  0
SPLINE
  5
54
330
1F
100
AcDbEntity
  8
layer 1
 62
     7
100
AcDbSpline
210
0.0
220
0.0
230
1.0
 70
    11
 71
     3
 72
    36
 73
    32
 74
     0
 42
0.0000000001
 43
0.0000000001
 12
1.0
 22
0.0
 32
0.0
 13
1.0
 23
0.0
 33
0.0
 40
0.0
 40
0.0
 40
0.0
 40
0.0
 40
0.1111111111111111
 40
0.1111111111111111
 40
0.1111111111111111
 40
0.1111111111111111
 40
0.2222222222222222
 40
0.2222222222222222
 40
0.2222222222222222
 40
0.2222222222222222
 40
0.3333333333333333
 40
0.3333333333333333
 40
0.3333333333333333
 40
0.3333333333333333
 40
0.4444444444444444
 40
0.4444444444444444
 40
0.4444444444444444
 40
0.4444444444444444
 40
0.5555555555555556
 40
0.5555555555555556
 40
0.5555555555555556
 40
0.5555555555555556
 40
0.6666666666666666
 40
0.6666666666666666
 40
0.6666666666666666
 40
0.6666666666666666
 40
0.7777777777777778
 40
0.7777777777777778
 40
0.7777777777777778
 40
0.7777777777777778
 40
1.0
 40
1.0
 40
1.0
 40
1.0
 10
-4.4214
 20
122.1895
 30
0.0
 10
-4.4214
 20
122.1895
 30
0.0
 10
60.6606
 20
57.0939
 30
0.0
 10
60.6606
 20
57.0939
 30
0.0
 10
60.6606
 20
57.0939
 30
0.0
 10
61.8515
 20
55.9027
 30
0.0
 10
63.534
 20
56.1033
 30
0.0
 10
63.5472
 20
57.7707
 30
0.0
 10
63.5472
 20
57.7707
 30
0.0
 10
63.5472
 20
57.7707
 30
0.0
 10
63.628
 20
68.036
 30
0.0
 10
63.628
 20
68.036
 30
0.0
 10
63.628
 20
68.036
 30
0.0
 10
63.6354
 20
68.9864
 30
0.0
 10
63.2635
 20
69.466
 30
0.0
 10
62.782
 20
69.9497
 30
0.0
 10
62.782
 20
69.9497
 30
0.0
 10
62.782
 20
69.9497
 30
0.0
 10
8.9202
 20
124.0576
 30
0.0
 10
8.9202
 20
124.0576
 30
0.0
 10
8.9202
 20
124.0576
 30
0.0
 10
8.639
 20
124.3402
 30
0.0
 10
8.0906
 20
124.5612
 30
0.0
 10
7.692
 20
124.5608
 30
0.0
 10
7.692
 20
124.5608
 30
0.0
 10
7.692
 20
124.5608
 30
0.0
 10
-3.2485
 20
124.5502
 30
0.0
 10
-3.2485
 20
124.5502
 30
0.0
 10
-3.2485
 20
124.5502
 30
0.0
 10
-4.6979
 20
124.5249
 30
0.0
 10
-4.8929
 20
122.8799
 30
0.0
 10
-4.4214
 20
122.1895
 30
0.0
  0
SPLINE
  5
55
330
1F
100
AcDbEntity
  8
layer 1
 62
     7
100
AcDbSpline
210
0.0
220
0.0
230
1.0
 70
    11
 71
     3
 72
    36
 73
    32
 74
     0
 42
0.0000000001
 43
0.0000000001
 12
1.0
 22
0.0
 32
0.0
 13
1.0
 23
0.0
 33
0.0
 40
0.0
 40
0.0
 40
0.0
 40
0.0
 40
0.1111111111111111
 40
0.1111111111111111
 40
0.1111111111111111
 40
0.1111111111111111
 40
0.2222222222222222
 40
0.2222222222222222
 40
0.2222222222222222
 40
0.2222222222222222
 40
0.3333333333333333
 40
0.3333333333333333
 40
0.3333333333333333
 40
0.3333333333333333
 40
0.4444444444444444
 40
0.4444444444444444
 40
0.4444444444444444
 40
0.4444444444444444
 40
0.5555555555555556
 40
0.5555555555555556
 40
0.5555555555555556
 40
0.5555555555555556
 40
0.6666666666666666
 40
0.6666666666666666
 40
0.6666666666666666
 40
0.6666666666666666
 40
0.7777777777777778
 40
0.7777777777777778
 40
0.7777777777777778
 40
0.7777777777777778
 40
1.0
 40
1.0
 40
1.0
 40
1.0
 10
-4.4214
 20
122.1895
 30
0.0
 10
-4.4214
 20
122.1895
 30
0.0
 10
60.6606
 20
57.0939
 30
0.0
 10
60.6606
 20
57.0939
 30
0.0
 10
60.6606
 20
57.0939
 30
0.0
 10
61.8515
 20
55.9027
 30
0.0
 10
63.534
 20
56.1033
 30
0.0
 10
63.5472
 20
57.7707
 30
0.0
 10
63.5472
 20
57.7707
 30
0.0
 10
63.5472
 20
57.7707
 30
0.0
 10
63.628
 20
68.036
 30
0.0
 10
63.628
 20
68.036
 30
0.0
 10
63.628
 20
68.036
 30
0.0
 10
63.6354
 20
68.9864
 30
0.0
 10
63.2635
 20
69.466
 30
0.0
 10
62.782
 20
69.9497
 30
0.0
 10
62.782
 20
69.9497
 30
0.0
 10
62.782
 20
69.9497
 30
0.0
 10
8.9202
 20
124.0576
 30
0.0
 10
8.9202
 20
124.0576
 30
0.0
 10
8.9202
 20
124.0576
 30
0.0
 10
8.639
 20
124.3402
 30
0.0
 10
8.0906
 20
124.5612
 30
0.0
 10
7.692
 20
124.5608
 30
0.0
 10
7.692
 20
124.5608
 30
0.0
 10
7.692
 20
124.5608
 30
0.0
 10
-3.2485
 20
124.5502
 30
0.0
 10
-3.2485
 20
124.5502
 30
0.0
 10
-3.2485
 20
124.5502
 30
0.0
 10
-4.6979
 20
124.5249
 30
0.0
 10
-4.8929
 20
122.8799
 30
0.0
 10
-4.4214
 20
122.1895
 30
0.0
  0
SPLINE
  5
56
330
1F
100
AcDbEntity
  8
layer 1
 62
     7
100
AcDbSpline
210
0.0
220
0.0
230
1.0
 70
    11
 71
     3
 72
    28
 73
    24
 74
     0
 42
0.0000000001
 43
0.0000000001
 12
1.0
 22
0.0
 32
0.0
 13
1.0
 23
0.0
 33
0.0
 40
0.0
 40
0.0
 40
0.0
 40
0.0
 40
0.1428571428571428
 40
0.1428571428571428
 40
0.1428571428571428
 40
0.1428571428571428
 40
0.2857142857142857
 40
0.2857142857142857
 40
0.2857142857142857
 40
0.2857142857142857
 40
0.4285714285714285
 40
0.4285714285714285
 40
0.4285714285714285
 40
0.4285714285714285
 40
0.5714285714285714
 40
0.5714285714285714
 40
0.5714285714285714
 40
0.5714285714285714
 40
0.7142857142857143
 40
0.7142857142857143
 40
0.7142857142857143
 40
0.7142857142857143
 40
1.0
 40
1.0
 40
1.0
 40
1.0
 10
31.0168
 20
122.0924
 30
0.0
 10
31.0168
 20
122.0924
 30
0.0
 10
60.6837
 20
92.2896
 30
0.0
 10
60.6837
 20
92.2896
 30
0.0
 10
60.6837
 20
92.2896
 30
0.0
 10
61.872
 20
91.0958
 30
0.0
 10
63.5657
 20
91.2989
 30
0.0
 10
63.5702
 20
92.9664
 30
0.0
 10
63.5702
 20
92.9664
 30
0.0
 10
63.5702
 20
92.9664
 30
0.0
 10
63.6511
 20
122.6214
 30
0.0
 10
63.6511
 20
122.6214
 30
0.0
 10
63.6511
 20
122.6214
 30
0.0
 10
63.6536
 20
123.5718
 30
0.0
 10
63.308
 20
124.5842
 30
0.0
 10
61.2759
 20
124.5249
 30
0.0
 10
61.2759
 20
124.5249
 30
0.0
 10
61.2759
 20
124.5249
 30
0.0
 10
32.1897
 20
124.4531
 30
0.0
 10
32.1897
 20
124.4531
 30
0.0
 10
32.1897
 20
124.4531
 30
0.0
 10
30.7403
 20
124.4277
 30
0.0
 10
30.5454
 20
122.7828
 30
0.0
 10
31.0168
 20
122.0924
 30
0.0
  0
ENDSEC
  0
SECTION
  2
OBJECTS
  0
DICTIONARY
  5
C
330
0
100
AcDbDictionary
281
     1
  3
ACAD_GROUP
350
D
  3
ACAD_LAYOUT
350
1A
  3
ACAD_MATERIAL
350
3B
  3
ACAD_MLEADERSTYLE
350
79
  3
ACAD_MLINESTYLE
350
17
  3
ACAD_PLOTSETTINGS
350
19
  3
ACAD_PLOTSTYLENAME
350
E
  3
ACAD_TABLESTYLE
350
78
  3
ACAD_VISUALSTYLE
350
2A
  0
DICTIONARY
  5
D
102
{ACAD_REACTORS
330
C
102
}
330
C
100
AcDbDictionary
281
     1
  0
DICTIONARY
  5
1A
102
{ACAD_REACTORS
330
C
102
}
330
C
100
AcDbDictionary
281
     1
  3
Layout1
350
1E
  3
Layout2
350
26
  3
Model
350
22
  0
DICTIONARY
  5
3B
102
{ACAD_REACTORS
330
C
102
}
330
C
100
AcDbDictionary
281
     1
  3
ByBlock
350
3D
  3
ByLayer
350
3C
  3
Global
350
3E
  0
DICTIONARY
  5
79
102
{ACAD_REACTORS
330
C
102
}
330
C
100
AcDbDictionary
281
     1
  0
DICTIONARY
  5
17
102
{ACAD_REACTORS
330
C
102
}
330
C
100
AcDbDictionary
281
     1
  3
Standard
350
18
  0
DICTIONARY
  5
19
102
{ACAD_REACTORS
330
C
102
}
330
C
100
AcDbDictionary
281
     1
  0
ACDBDICTIONARYWDFLT
  5
E
102
{ACAD_REACTORS
330
C
102
}
330
C
100
AcDbDictionary
281
     1
  3
Normal
350
F
100
AcDbDictionaryWithDefault
340
F
  0
DICTIONARY
  5
78
102
{ACAD_REACTORS
330
C
102
}
330
C
100
AcDbDictionary
281
     1
  0
DICTIONARY
  5
2A
102
{ACAD_REACTORS
330
C
102
}
330
C
100
AcDbDictionary
281
     1
  3
2dWireframe
350
2F
  3
3D Hidden
350
31
  3
3dWireframe
350
30
  3
Basic
350
32
  3
Brighten
350
36
  3
ColorChange
350
3A
  3
Conceptual
350
34
  3
Dim
350
35
  3
Facepattern
350
39
  3
Flat
350
2B
  3
FlatWithEdges
350
2C
  3
Gouraud
350
2D
  3
GouraudWithEdges
350
2E
  3
Linepattern
350
38
  3
Realistic
350
33
  3
Thicken
350
37
  0
LAYOUT
  5
1E
102
{ACAD_REACTORS
330
1A
102
}
330
1A
100
AcDbPlotSettings
  1

  2
none_device
  4

  6

 40
0.0
 41
0.0
 42
0.0
 43
0.0
 44
0.0
 45
0.0
 46
0.0
 47
0.0
 48
0.0
 49
0.0
140
0.0
141
0.0
142
1.0
143
1.0
 70
   688
 72
     0
 73
     0
 74
     5
  7

 75
    16
 76
     0
 77
     2
 78
   300
147
1.0
148
0.0
149
0.0
100
AcDbLayout
  1
Layout1
 70
     1
 71
     1
 10
0.0
 20
0.0
 11
12.0
 21
9.0
 12
0.0
 22
0.0
 32
0.0
 14
1.000000000000000E+20
 24
1.000000000000000E+20
 34
1.000000000000000E+20
 15
-1.000000000000000E+20
 25
-1.000000000000000E+20
 35
-1.000000000000000E+20
146
0.0
 13
0.0
 23
0.0
 33
0.0
 16
1.0
 26
0.0
 36
0.0
 17
0.0
 27
1.0
 37
0.0
 76
     0
330
1B
  0
LAYOUT
  5
26
102
{ACAD_REACTORS
330
1A
102
}
330
1A
100
AcDbPlotSettings
  1

  2
none_device
  4

  6

 40
0.0
 41
0.0
 42
0.0
 43
0.0
 44
0.0
 45
0.0
 46
0.0
 47
0.0
 48
0.0
 49
0.0
140
0.0
141
0.0
142
1.0
143
1.0
 70
   688
 72
     0
 73
     0
 74
     5
  7

 75
    16
 76
     0
 77
     2
 78
   300
147
1.0
148
0.0
149
0.0
100
AcDbLayout
  1
Layout2
 70
     1
 71
     2
 10
0.0
 20
0.0
 11
0.0
 21
0.0
 12
0.0
 22
0.0
 32
0.0
 14
0.0
 24
0.0
 34
0.0
 15
0.0
 25
0.0
 35
0.0
146
0.0
 13
0.0
 23
0.0
 33
0.0
 16
1.0
 26
0.0
 36
0.0
 17
0.0
 27
1.0
 37
0.0
 76
     0
330
23
  0
LAYOUT
  5
22
102
{ACAD_REACTORS
330
1A
102
}
330
1A
100
AcDbPlotSettings
  1

  2
none_device
  4

  6

 40
0.0
 41
0.0
 42
0.0
 43
0.0
 44
0.0
 45
0.0
 46
0.0
 47
0.0
 48
0.0
 49
0.0
140
0.0
141
0.0
142
1.0
143
1.0
 70
  1712
 72
     0
 73
     0
 74
     0
  7

 75
     0
 76
     0
 77
     2
 78
   300
147
1.0
148
0.0
149
0.0
100
AcDbLayout
  1
Model
 70
     1
 71
     0
 10
0.0
 20
0.0
 11
12.0
 21
9.0
 12
0.0
 22
0.0
 32
0.0
 14
-53.5261
 24
-106.3631
 34
0.0
 15
70.3776
 25
131.8354
 35
0.0
146
0.0
 13
0.0
 23
0.0
 33
0.0
 16
1.0
 26
0.0
 36
0.0
 17
0.0
 27
1.0
 37
0.0
 76
     0
330
1F
331
29
  0
MATERIAL
  5
3D
102
{ACAD_REACTORS
330
3B
102
}
330
3B
100
AcDbMaterial
  1
ByBlock
 72
     1
 94
      127
  0
MATERIAL
  5
3C
102
{ACAD_REACTORS
330
3B
102
}
330
3B
100
AcDbMaterial
  1
ByLayer
 72
     1
 94
      127
  0
MATERIAL
  5
3E
102
{ACAD_REACTORS
330
3B
102
}
330
3B
100
AcDbMaterial
  1
Global
 72
     1
 94
      127
  0
MLINESTYLE
  5
18
102
{ACAD_REACTORS
330
17
102
}
330
17
100
AcDbMlineStyle
  2
Standard
 70
     0
  3

 62
   256
 51
90.0
 52
90.0
 71
     2
 49
0.5
 62
   256
  6
BYLAYER
 49
-0.5
 62
   256
  6
BYLAYER
  0
ACDBPLACEHOLDER
  5
F
102
{ACAD_REACTORS
330
E
102
}
330
E
  0
VISUALSTYLE
  5
2F
102
{ACAD_REACTORS
330
2A
102
}
102
{ACAD_XDICTIONARY
360
60
102
}
330
2A
100
AcDbVisualStyle
  2
2dWireframe
 70
     4
 71
     0
 72
     2
 73
     0
 90
        0
 40
-0.6
 41
-30.0
 62
     5
 63
     7
421
 16777215
 74
     1
 91
        4
 64
     7
 65
   257
 75
     1
175
     1
 42
1.0
 92
        0
 66
   257
 43
1.0
 76
     1
 77
     6
 78
     2
 67
     7
 79
     5
170
     0
171
     0
290
     0
174
     0
 93
        1
 44
0.0
173
     0
291
     0
 45
0.0
  0
VISUALSTYLE
  5
31
102
{ACAD_REACTORS
330
2A
102
}
102
{ACAD_XDICTIONARY
360
64
102
}
330
2A
100
AcDbVisualStyle
  2
3D Hidden
 70
     6
 71
     1
 72
     2
 73
     2
 90
        0
 40
-0.6
 41
-30.0
 62
     5
 63
     7
421
 16777215
 74
     2
 91
        2
 64
     7
 65
   257
 75
     2
175
     1
 42
40.0
 92
        0
 66
   257
 43
1.0
 76
     1
 77
     6
 78
     2
 67
     7
 79
     3
170
     0
171
     0
290
     0
174
     0
 93
        1
 44
0.0
173
     0
291
     0
 45
0.0
  0
VISUALSTYLE
  5
30
102
{ACAD_REACTORS
330
2A
102
}
102
{ACAD_XDICTIONARY
360
62
102
}
330
2A
100
AcDbVisualStyle
  2
3dWireframe
 70
     5
 71
     0
 72
     2
 73
     0
 90
        0
 40
-0.6
 41
-30.0
 62
     5
 63
     7
421
 16777215
 74
     1
 91
        4
 64
     7
 65
   257
 75
     1
175
     1
 42
1.0
 92
        0
 66
   257
 43
1.0
 76
     1
 77
     6
 78
     2
 67
     7
 79
     5
170
     0
171
     0
290
     0
174
     0
 93
        1
 44
0.0
173
     0
291
     0
 45
0.0
  0
VISUALSTYLE
  5
32
102
{ACAD_REACTORS
330
2A
102
}
102
{ACAD_XDICTIONARY
360
66
102
}
330
2A
100
AcDbVisualStyle
  2
Basic
 70
     7
 71
     1
 72
     0
 73
     1
 90
        0
 40
-0.6
 41
-30.0
 62
     5
 63
     7
421
 16777215
 74
     0
 91
        4
 64
     7
 65
   257
 75
     1
175
     1
 42
1.0
 92
        8
 66
     7
 43
1.0
 76
     1
 77
     6
 78
     2
 67
     7
 79
     5
170
     0
171
     0
290
     0
174
     0
 93
        1
 44
0.0
173
     0
291
     1
 45
0.0
  0
VISUALSTYLE
  5
36
102
{ACAD_REACTORS
330
2A
102
}
102
{ACAD_XDICTIONARY
360
6E
102
}
330
2A
100
AcDbVisualStyle
  2
Brighten
 70
    12
 71
     2
 72
     2
 73
     0
 90
        0
 40
-0.6
 41
-30.0
 62
     5
 63
     7
421
 16777215
 74
     1
 91
        4
 64
     7
 65
   257
 75
     1
175
     1
 42
1.0
 92
        8
 66
     7
 43
1.0
 76
     1
 77
     6
 78
     2
 67
     7
 79
     5
170
     0
171
     0
290
     0
174
     0
 93
        1
 44
50.0
173
     0
291
     1
 45
0.0
  0
VISUALSTYLE
  5
3A
102
{ACAD_REACTORS
330
2A
102
}
102
{ACAD_XDICTIONARY
360
76
102
}
330
2A
100
AcDbVisualStyle
  2
ColorChange
 70
    16
 71
     2
 72
     2
 73
     3
 90
        0
 40
-0.6
 41
-30.0
 62
     5
 63
     8
421
  8421504
 74
     1
 91
        4
 64
     7
 65
   257
 75
     1
175
     1
 42
1.0
 92
        8
 66
     8
424
  8421504
 43
1.0
 76
     1
 77
     6
 78
     2
 67
     7
 79
     5
170
     0
171
     0
290
     0
174
     0
 93
        1
 44
0.0
173
     0
291
     1
 45
0.0
  0
VISUALSTYLE
  5
34
102
{ACAD_REACTORS
330
2A
102
}
102
{ACAD_XDICTIONARY
360
6A
102
}
330
2A
100
AcDbVisualStyle
  2
Conceptual
 70
     9
 71
     3
 72
     2
 73
     0
 90
        0
 40
-0.6
 41
-30.0
 62
     5
 63
     7
421
 16777215
 74
     2
 91
        2
 64
     7
 65
   257
 75
     1
175
     1
 42
40.0
 92
        8
 66
     7
 43
1.0
 76
     1
 77
     6
 78
     2
 67
     7
 79
     3
170
     0
171
     0
290
     0
174
     0
 93
        1
 44
0.0
173
     0
291
     0
 45
0.0
  0
VISUALSTYLE
  5
35
102
{ACAD_REACTORS
330
2A
102
}
102
{ACAD_XDICTIONARY
360
6C
102
}
330
2A
100
AcDbVisualStyle
  2
Dim
 70
    11
 71
     2
 72
     2
 73
     0
 90
        0
 40
-0.6
 41
-30.0
 62
     5
 63
     7
421
 16777215
 74
     1
 91
        4
 64
     7
 65
   257
 75
     1
175
     1
 42
1.0
 92
        8
 66
     7
 43
1.0
 76
     1
 77
     6
 78
     2
 67
     7
 79
     5
170
     0
171
     0
290
     0
174
     0
 93
        1
 44
-50.0
173
     0
291
     1
 45
0.0
  0
VISUALSTYLE
  5
39
102
{ACAD_REACTORS
330
2A
102
}
102
{ACAD_XDICTIONARY
360
74
102
}
330
2A
100
AcDbVisualStyle
  2
Facepattern
 70
    15
 71
     2
 72
     2
 73
     0
 90
        0
 40
-0.6
 41
-30.0
 62
     5
 63
     7
421
 16777215
 74
     1
 91
        4
 64
     7
 65
   257
 75
     1
175
     1
 42
1.0
 92
        8
 66
     7
 43
1.0
 76
     1
 77
     6
 78
     2
 67
     7
 79
     5
170
     0
171
     0
290
     0
174
     0
 93
        1
 44
0.0
173
     0
291
     1
 45
0.0
  0
VISUALSTYLE
  5
2B
102
{ACAD_REACTORS
330
2A
102
}
102
{ACAD_XDICTIONARY
360
58
102
}
330
2A
100
AcDbVisualStyle
  2
Flat
 70
     0
 71
     2
 72
     1
 73
     1
 90
        2
 40
-0.6
 41
30.0
 62
     5
 63
     7
421
 16777215
 74
     0
 91
        4
 64
     7
 65
   257
 75
     1
175
     1
 42
1.0
 92
        8
 66
     7
 43
1.0
 76
     1
 77
     6
 78
     2
 67
     7
 79
     5
170
     0
171
     0
290
     0
174
     0
 93
       13
 44
0.0
173
     0
291
     1
 45
0.0
  0
VISUALSTYLE
  5
2C
102
{ACAD_REACTORS
330
2A
102
}
102
{ACAD_XDICTIONARY
360
5A
102
}
330
2A
100
AcDbVisualStyle
  2
FlatWithEdges
 70
     1
 71
     2
 72
     1
 73
     1
 90
        2
 40
-0.6
 41
30.0
 62
     5
 63
     7
421
 16777215
 74
     1
 91
        4
 64
     7
 65
   257
 75
     1
175
     1
 42
1.0
 92
        0
 66
   257
 43
1.0
 76
     1
 77
     6
 78
     2
 67
     7
 79
     5
170
     0
171
     0
290
     0
174
     0
 93
       13
 44
0.0
173
     0
291
     1
 45
0.0
  0
VISUALSTYLE
  5
2D
102
{ACAD_REACTORS
330
2A
102
}
102
{ACAD_XDICTIONARY
360
5C
102
}
330
2A
100
AcDbVisualStyle
  2
Gouraud
 70
     2
 71
     2
 72
     2
 73
     1
 90
        2
 40
-0.6
 41
30.0
 62
     5
 63
     7
421
 16777215
 74
     0
 91
        4
 64
     7
 65
   257
 75
     1
175
     1
 42
1.0
 92
        0
 66
     7
 43
1.0
 76
     1
 77
     6
 78
     2
 67
     7
 79
     5
170
     0
171
     0
290
     0
174
     0
 93
       13
 44
0.0
173
     0
291
     1
 45
0.0
  0
VISUALSTYLE
  5
2E
102
{ACAD_REACTORS
330
2A
102
}
102
{ACAD_XDICTIONARY
360
5E
102
}
330
2A
100
AcDbVisualStyle
  2
GouraudWithEdges
 70
     3
 71
     2
 72
     2
 73
     1
 90
        2
 40
-0.6
 41
30.0
 62
     5
 63
     7
421
 16777215
 74
     1
 91
        4
 64
     7
 65
   257
 75
     1
175
     1
 42
1.0
 92
        0
 66
   257
 43
1.0
 76
     1
 77
     6
 78
     2
 67
     7
 79
     5
170
     0
171
     0
290
     0
174
     0
 93
       13
 44
0.0
173
     0
291
     1
 45
0.0
  0
VISUALSTYLE
  5
38
102
{ACAD_REACTORS
330
2A
102
}
102
{ACAD_XDICTIONARY
360
72
102
}
330
2A
100
AcDbVisualStyle
  2
Linepattern
 70
    14
 71
     2
 72
     2
 73
     0
 90
        0
 40
-0.6
 41
-30.0
 62
     5
 63
     7
421
 16777215
 74
     1
 91
        4
 64
     7
 65
   257
 75
     7
175
     7
 42
1.0
 92
        8
 66
     7
 43
1.0
 76
     1
 77
     6
 78
     2
 67
     7
 79
     5
170
     0
171
     0
290
     0
174
     0
 93
        1
 44
0.0
173
     0
291
     1
 45
0.0
  0
VISUALSTYLE
  5
33
102
{ACAD_REACTORS
330
2A
102
}
102
{ACAD_XDICTIONARY
360
68
102
}
330
2A
100
AcDbVisualStyle
  2
Realistic
 70
     8
 71
     2
 72
     2
 73
     0
 90
        0
 40
-0.6
 41
-30.0
 62
     5
 63
     7
421
 16777215
 74
     1
 91
        0
 64
     7
 65
   257
 75
     1
175
     1
 42
1.0
 92
        8
 66
     8
424
  7895160
 43
1.0
 76
     1
 77
     6
 78
     2
 67
     7
 79
     5
170
     0
171
     0
290
     0
174
     0
 93
       13
 44
0.0
173
     0
291
     0
 45
0.0
  0
VISUALSTYLE
  5
37
102
{ACAD_REACTORS
330
2A
102
}
102
{ACAD_XDICTIONARY
360
70
102
}
330
2A
100
AcDbVisualStyle
  2
Thicken
 70
    13
 71
     2
 72
     2
 73
     0
 90
        0
 40
-0.6
 41
-30.0
 62
     5
 63
     7
421
 16777215
 74
     1
 91
        4
 64
     7
 65
   257
 75
     1
175
     1
 42
1.0
 92
       12
 66
     7
 43
1.0
 76
     1
 77
     6
 78
     2
 67
     7
 79
     5
170
     0
171
     0
290
     0
174
     0
 93
        1
 44
0.0
173
     0
291
     1
 45
0.0
  0
DICTIONARY
  5
60
330
2F
100
AcDbDictionary
280
     1
281
     1
  3
ACAD_XREC_ROUNDTRIP
360
61
  0
DICTIONARY
  5
64
330
31
100
AcDbDictionary
280
     1
281
     1
  3
ACAD_XREC_ROUNDTRIP
360
65
  0
DICTIONARY
  5
62
330
30
100
AcDbDictionary
280
     1
281
     1
  3
ACAD_XREC_ROUNDTRIP
360
63
  0
DICTIONARY
  5
66
330
32
100
AcDbDictionary
280
     1
281
     1
  3
ACAD_XREC_ROUNDTRIP
360
67
  0
DICTIONARY
  5
6E
330
36
100
AcDbDictionary
280
     1
281
     1
  3
ACAD_XREC_ROUNDTRIP
360
6F
  0
DICTIONARY
  5
76
330
3A
100
AcDbDictionary
280
     1
281
     1
  3
ACAD_XREC_ROUNDTRIP
360
77
  0
DICTIONARY
  5
6A
330
34
100
AcDbDictionary
280
     1
281
     1
  3
ACAD_XREC_ROUNDTRIP
360
6B
  0
DICTIONARY
  5
6C
330
35
100
AcDbDictionary
280
     1
281
     1
  3
ACAD_XREC_ROUNDTRIP
360
6D
  0
DICTIONARY
  5
74
330
39
100
AcDbDictionary
280
     1
281
     1
  3
ACAD_XREC_ROUNDTRIP
360
75
  0
DICTIONARY
  5
58
330
2B
100
AcDbDictionary
280
     1
281
     1
  3
ACAD_XREC_ROUNDTRIP
360
59
  0
DICTIONARY
  5
5A
330
2C
100
AcDbDictionary
280
     1
281
     1
  3
ACAD_XREC_ROUNDTRIP
360
5B
  0
DICTIONARY
  5
5C
330
2D
100
AcDbDictionary
280
     1
281
     1
  3
ACAD_XREC_ROUNDTRIP
360
5D
  0
DICTIONARY
  5
5E
330
2E
100
AcDbDictionary
280
     1
281
     1
  3
ACAD_XREC_ROUNDTRIP
360
5F
  0
DICTIONARY
  5
72
330
38
100
AcDbDictionary
280
     1
281
     1
  3
ACAD_XREC_ROUNDTRIP
360
73
  0
DICTIONARY
  5
68
330
33
100
AcDbDictionary
280
     1
281
     1
  3
ACAD_XREC_ROUNDTRIP
360
69
  0
DICTIONARY
  5
70
330
37
100
AcDbDictionary
280
     1
281
     1
  3
ACAD_XREC_ROUNDTRIP
360
71
  0
XRECORD
  5
61
102
{ACAD_REACTORS
330
60
102
}
330
60
100
AcDbXrecord
280
     1
102
RTVSPropertyOp0
 70
     1
102
RTVSPropertyOp1
 70
     1
102
RTVSPropertyOp2
 70
     1
102
RTVSPropertyOp3
 70
     1
102
RTVSPropertyOp4
 70
     1
102
RTVSPropertyOp5
 70
     1
102
RTVSPropertyOp6
 70
     1
102
RTVSPropertyOp7
 70
     1
102
RTVSPropertyOp8
 70
     1
102
RTVSPropertyOp9
 70
     1
102
RTVSPropertyOp10
 70
     1
102
RTVSPropertyOp11
 70
     1
102
RTVSPropertyOp12
 70
     1
102
RTVSPropertyOp13
 70
     1
102
RTVSPropertyOp14
 70
     1
102
RTVSPropertyOp15
 70
     1
102
RTVSPropertyOp16
 70
     1
102
RTVSPropertyOp17
 70
     1
102
RTVSPropertyOp18
 70
     1
102
RTVSPropertyOp19
 70
     1
102
RTVSPropertyOp20
 70
     1
102
RTVSPropertyOp21
 70
     1
102
RTVSPropertyOp22
 70
     1
102
RTVSPropertyOp23
 70
     1
102
RTVSPropertyOp24
 70
     1
102
RTVSPropertyOp25
 70
     1
102
RTVSPropertyOp26
 70
     1
102
RTVSPropertyOp27
 70
     1
102
RTVSPropertyOp28
 70
     1
102
RTVSPropertyOp29
 70
     1
102
RTVSPropertyOp30
 70
     1
102
RTVSPropertyOp31
 70
     1
102
RTVSPropertyOp32
 70
     1
  0
XRECORD
  5
65
102
{ACAD_REACTORS
330
64
102
}
330
64
100
AcDbXrecord
280
     1
102
RTVSPropertyOp0
 70
     1
102
RTVSPropertyOp1
 70
     1
102
RTVSPropertyOp2
 70
     1
102
RTVSPropertyOp3
 70
     1
102
RTVSPropertyOp4
 70
     1
102
RTVSPropertyOp5
 70
     1
102
RTVSPropertyOp6
 70
     1
102
RTVSPropertyOp7
 70
     1
102
RTVSPropertyOp8
 70
     1
102
RTVSPropertyOp9
 70
     1
102
RTVSPropertyOp10
 70
     1
102
RTVSPropertyOp11
 70
     1
102
RTVSPropertyOp12
 70
     1
102
RTVSPropertyOp13
 70
     1
102
RTVSPropertyOp14
 70
     1
102
RTVSPropertyOp15
 70
     1
102
RTVSPropertyOp16
 70
     1
102
RTVSPropertyOp17
 70
     1
102
RTVSPropertyOp18
 70
     1
102
RTVSPropertyOp19
 70
     1
102
RTVSPropertyOp20
 70
     1
102
RTVSPropertyOp21
 70
     1
102
RTVSPropertyOp22
 70
     1
102
RTVSPropertyOp23
 70
     1
102
RTVSPropertyOp24
 70
     1
102
RTVSPropertyOp25
 70
     1
102
RTVSPropertyOp26
 70
     1
102
RTVSPropertyOp27
 70
     1
102
RTVSPropertyOp28
 70
     1
102
RTVSPropertyOp29
 70
     1
102
RTVSPropertyOp30
 70
     1
102
RTVSPropertyOp31
 70
     1
102
RTVSPropertyOp32
 70
     1
  0
XRECORD
  5
63
102
{ACAD_REACTORS
330
62
102
}
330
62
100
AcDbXrecord
280
     1
102
RTVSPropertyOp0
 70
     1
102
RTVSPropertyOp1
 70
     1
102
RTVSPropertyOp2
 70
     1
102
RTVSPropertyOp3
 70
     1
102
RTVSPropertyOp4
 70
     1
102
RTVSPropertyOp5
 70
     1
102
RTVSPropertyOp6
 70
     1
102
RTVSPropertyOp7
 70
     1
102
RTVSPropertyOp8
 70
     1
102
RTVSPropertyOp9
 70
     1
102
RTVSPropertyOp10
 70
     1
102
RTVSPropertyOp11
 70
     1
102
RTVSPropertyOp12
 70
     1
102
RTVSPropertyOp13
 70
     1
102
RTVSPropertyOp14
 70
     1
102
RTVSPropertyOp15
 70
     1
102
RTVSPropertyOp16
 70
     1
102
RTVSPropertyOp17
 70
     1
102
RTVSPropertyOp18
 70
     1
102
RTVSPropertyOp19
 70
     1
102
RTVSPropertyOp20
 70
     1
102
RTVSPropertyOp21
 70
     1
102
RTVSPropertyOp22
 70
     1
102
RTVSPropertyOp23
 70
     1
102
RTVSPropertyOp24
 70
     1
102
RTVSPropertyOp25
 70
     1
102
RTVSPropertyOp26
 70
     1
102
RTVSPropertyOp27
 70
     1
102
RTVSPropertyOp28
 70
     1
102
RTVSPropertyOp29
 70
     1
102
RTVSPropertyOp30
 70
     1
102
RTVSPropertyOp31
 70
     1
102
RTVSPropertyOp32
 70
     1
  0
XRECORD
  5
67
102
{ACAD_REACTORS
330
66
102
}
330
66
100
AcDbXrecord
280
     1
102
RTVSPropertyOp0
 70
     1
102
RTVSPropertyOp1
 70
     1
102
RTVSPropertyOp2
 70
     1
102
RTVSPropertyOp3
 70
     1
102
RTVSPropertyOp4
 70
     1
102
RTVSPropertyOp5
 70
     1
102
RTVSPropertyOp6
 70
     1
102
RTVSPropertyOp7
 70
     1
102
RTVSPropertyOp8
 70
     1
102
RTVSPropertyOp9
 70
     1
102
RTVSPropertyOp10
 70
     1
102
RTVSPropertyOp11
 70
     1
102
RTVSPropertyOp12
 70
     1
102
RTVSPropertyOp13
 70
     1
102
RTVSPropertyOp14
 70
     1
102
RTVSPropertyOp15
 70
     1
102
RTVSPropertyOp16
 70
     1
102
RTVSPropertyOp17
 70
     1
102
RTVSPropertyOp18
 70
     1
102
RTVSPropertyOp19
 70
     1
102
RTVSPropertyOp20
 70
     1
102
RTVSPropertyOp21
 70
     1
102
RTVSPropertyOp22
 70
     1
102
RTVSPropertyOp23
 70
     1
102
RTVSPropertyOp24
 70
     1
102
RTVSPropertyOp25
 70
     1
102
RTVSPropertyOp26
 70
     1
102
RTVSPropertyOp27
 70
     1
102
RTVSPropertyOp28
 70
     1
102
RTVSPropertyOp29
 70
     1
102
RTVSPropertyOp30
 70
     1
102
RTVSPropertyOp31
 70
     1
102
RTVSPropertyOp32
 70
     1
  0
XRECORD
  5
6F
102
{ACAD_REACTORS
330
6E
102
}
330
6E
100
AcDbXrecord
280
     1
102
RTVSPropertyOp0
 70
     1
102
RTVSPropertyOp1
 70
     1
102
RTVSPropertyOp2
 70
     1
102
RTVSPropertyOp3
 70
     1
102
RTVSPropertyOp4
 70
     1
102
RTVSPropertyOp5
 70
     1
102
RTVSPropertyOp6
 70
     1
102
RTVSPropertyOp7
 70
     1
102
RTVSPropertyOp8
 70
     1
102
RTVSPropertyOp9
 70
     1
102
RTVSPropertyOp10
 70
     1
102
RTVSPropertyOp11
 70
     1
102
RTVSPropertyOp12
 70
     1
102
RTVSPropertyOp13
 70
     1
102
RTVSPropertyOp14
 70
     1
102
RTVSPropertyOp15
 70
     1
102
RTVSPropertyOp16
 70
     1
102
RTVSPropertyOp17
 70
     1
102
RTVSPropertyOp18
 70
     1
102
RTVSPropertyOp19
 70
     1
102
RTVSPropertyOp20
 70
     1
102
RTVSPropertyOp21
 70
     1
102
RTVSPropertyOp22
 70
     1
102
RTVSPropertyOp23
 70
     1
102
RTVSPropertyOp24
 70
     1
102
RTVSPropertyOp25
 70
     1
102
RTVSPropertyOp26
 70
     1
102
RTVSPropertyOp27
 70
     1
102
RTVSPropertyOp28
 70
     1
102
RTVSPropertyOp29
 70
     1
102
RTVSPropertyOp30
 70
     1
102
RTVSPropertyOp31
 70
     1
102
RTVSPropertyOp32
 70
     1
  0
XRECORD
  5
77
102
{ACAD_REACTORS
330
76
102
}
330
76
100
AcDbXrecord
280
     1
102
RTVSPropertyOp0
 70
     1
102
RTVSPropertyOp1
 70
     1
102
RTVSPropertyOp2
 70
     1
102
RTVSPropertyOp3
 70
     1
102
RTVSPropertyOp4
 70
     1
102
RTVSPropertyOp5
 70
     1
102
RTVSPropertyOp6
 70
     1
102
RTVSPropertyOp7
 70
     1
102
RTVSPropertyOp8
 70
     1
102
RTVSPropertyOp9
 70
     1
102
RTVSPropertyOp10
 70
     1
102
RTVSPropertyOp11
 70
     1
102
RTVSPropertyOp12
 70
     1
102
RTVSPropertyOp13
 70
     1
102
RTVSPropertyOp14
 70
     1
102
RTVSPropertyOp15
 70
     1
102
RTVSPropertyOp16
 70
     1
102
RTVSPropertyOp17
 70
     1
102
RTVSPropertyOp18
 70
     1
102
RTVSPropertyOp19
 70
     1
102
RTVSPropertyOp20
 70
     1
102
RTVSPropertyOp21
 70
     1
102
RTVSPropertyOp22
 70
     1
102
RTVSPropertyOp23
 70
     1
102
RTVSPropertyOp24
 70
     1
102
RTVSPropertyOp25
 70
     1
102
RTVSPropertyOp26
 70
     1
102
RTVSPropertyOp27
 70
     1
102
RTVSPropertyOp28
 70
     1
102
RTVSPropertyOp29
 70
     1
102
RTVSPropertyOp30
 70
     1
102
RTVSPropertyOp31
 70
     1
102
RTVSPropertyOp32
 70
     1
  0
XRECORD
  5
6B
102
{ACAD_REACTORS
330
6A
102
}
330
6A
100
AcDbXrecord
280
     1
102
RTVSPropertyOp0
 70
     1
102
RTVSPropertyOp1
 70
     1
102
RTVSPropertyOp2
 70
     1
102
RTVSPropertyOp3
 70
     1
102
RTVSPropertyOp4
 70
     1
102
RTVSPropertyOp5
 70
     1
102
RTVSPropertyOp6
 70
     1
102
RTVSPropertyOp7
 70
     1
102
RTVSPropertyOp8
 70
     1
102
RTVSPropertyOp9
 70
     1
102
RTVSPropertyOp10
 70
     1
102
RTVSPropertyOp11
 70
     1
102
RTVSPropertyOp12
 70
     1
102
RTVSPropertyOp13
 70
     1
102
RTVSPropertyOp14
 70
     1
102
RTVSPropertyOp15
 70
     1
102
RTVSPropertyOp16
 70
     1
102
RTVSPropertyOp17
 70
     1
102
RTVSPropertyOp18
 70
     1
102
RTVSPropertyOp19
 70
     1
102
RTVSPropertyOp20
 70
     1
102
RTVSPropertyOp21
 70
     1
102
RTVSPropertyOp22
 70
     1
102
RTVSPropertyOp23
 70
     1
102
RTVSPropertyOp24
 70
     1
102
RTVSPropertyOp25
 70
     1
102
RTVSPropertyOp26
 70
     1
102
RTVSPropertyOp27
 70
     1
102
RTVSPropertyOp28
 70
     1
102
RTVSPropertyOp29
 70
     1
102
RTVSPropertyOp30
 70
     1
102
RTVSPropertyOp31
 70
     1
102
RTVSPropertyOp32
 70
     1
  0
XRECORD
  5
6D
102
{ACAD_REACTORS
330
6C
102
}
330
6C
100
AcDbXrecord
280
     1
102
RTVSPropertyOp0
 70
     1
102
RTVSPropertyOp1
 70
     1
102
RTVSPropertyOp2
 70
     1
102
RTVSPropertyOp3
 70
     1
102
RTVSPropertyOp4
 70
     1
102
RTVSPropertyOp5
 70
     1
102
RTVSPropertyOp6
 70
     1
102
RTVSPropertyOp7
 70
     1
102
RTVSPropertyOp8
 70
     1
102
RTVSPropertyOp9
 70
     1
102
RTVSPropertyOp10
 70
     1
102
RTVSPropertyOp11
 70
     1
102
RTVSPropertyOp12
 70
     1
102
RTVSPropertyOp13
 70
     1
102
RTVSPropertyOp14
 70
     1
102
RTVSPropertyOp15
 70
     1
102
RTVSPropertyOp16
 70
     1
102
RTVSPropertyOp17
 70
     1
102
RTVSPropertyOp18
 70
     1
102
RTVSPropertyOp19
 70
     1
102
RTVSPropertyOp20
 70
     1
102
RTVSPropertyOp21
 70
     1
102
RTVSPropertyOp22
 70
     1
102
RTVSPropertyOp23
 70
     1
102
RTVSPropertyOp24
 70
     1
102
RTVSPropertyOp25
 70
     1
102
RTVSPropertyOp26
 70
     1
102
RTVSPropertyOp27
 70
     1
102
RTVSPropertyOp28
 70
     1
102
RTVSPropertyOp29
 70
     1
102
RTVSPropertyOp30
 70
     1
102
RTVSPropertyOp31
 70
     1
102
RTVSPropertyOp32
 70
     1
  0
XRECORD
  5
75
102
{ACAD_REACTORS
330
74
102
}
330
74
100
AcDbXrecord
280
     1
102
RTVSPropertyOp0
 70
     1
102
RTVSPropertyOp1
 70
     1
102
RTVSPropertyOp2
 70
     1
102
RTVSPropertyOp3
 70
     1
102
RTVSPropertyOp4
 70
     1
102
RTVSPropertyOp5
 70
     1
102
RTVSPropertyOp6
 70
     1
102
RTVSPropertyOp7
 70
     1
102
RTVSPropertyOp8
 70
     1
102
RTVSPropertyOp9
 70
     1
102
RTVSPropertyOp10
 70
     1
102
RTVSPropertyOp11
 70
     1
102
RTVSPropertyOp12
 70
     1
102
RTVSPropertyOp13
 70
     1
102
RTVSPropertyOp14
 70
     1
102
RTVSPropertyOp15
 70
     1
102
RTVSPropertyOp16
 70
     1
102
RTVSPropertyOp17
 70
     1
102
RTVSPropertyOp18
 70
     1
102
RTVSPropertyOp19
 70
     1
102
RTVSPropertyOp20
 70
     1
102
RTVSPropertyOp21
 70
     1
102
RTVSPropertyOp22
 70
     1
102
RTVSPropertyOp23
 70
     1
102
RTVSPropertyOp24
 70
     1
102
RTVSPropertyOp25
 70
     1
102
RTVSPropertyOp26
 70
     1
102
RTVSPropertyOp27
 70
     1
102
RTVSPropertyOp28
 70
     1
102
RTVSPropertyOp29
 70
     1
102
RTVSPropertyOp30
 70
     1
102
RTVSPropertyOp31
 70
     1
102
RTVSPropertyOp32
 70
     1
  0
XRECORD
  5
59
102
{ACAD_REACTORS
330
58
102
}
330
58
100
AcDbXrecord
280
     1
102
RTVSPropertyOp0
 70
     1
102
RTVSPropertyOp1
 70
     1
102
RTVSPropertyOp2
 70
     1
102
RTVSPropertyOp3
 70
     1
102
RTVSPropertyOp4
 70
     1
102
RTVSPropertyOp5
 70
     1
102
RTVSPropertyOp6
 70
     1
102
RTVSPropertyOp7
 70
     1
102
RTVSPropertyOp8
 70
     1
102
RTVSPropertyOp9
 70
     1
102
RTVSPropertyOp10
 70
     1
102
RTVSPropertyOp11
 70
     1
102
RTVSPropertyOp12
 70
     1
102
RTVSPropertyOp13
 70
     1
102
RTVSPropertyOp14
 70
     1
102
RTVSPropertyOp15
 70
     1
102
RTVSPropertyOp16
 70
     1
102
RTVSPropertyOp17
 70
     1
102
RTVSPropertyOp18
 70
     1
102
RTVSPropertyOp19
 70
     1
102
RTVSPropertyOp20
 70
     1
102
RTVSPropertyOp21
 70
     1
102
RTVSPropertyOp22
 70
     1
102
RTVSPropertyOp23
 70
     1
102
RTVSPropertyOp24
 70
     1
102
RTVSPropertyOp25
 70
     1
102
RTVSPropertyOp26
 70
     1
102
RTVSPropertyOp27
 70
     1
102
RTVSPropertyOp28
 70
     1
102
RTVSPropertyOp29
 70
     1
102
RTVSPropertyOp30
 70
     1
102
RTVSPropertyOp31
 70
     1
102
RTVSPropertyOp32
 70
     1
  0
XRECORD
  5
5B
102
{ACAD_REACTORS
330
5A
102
}
330
5A
100
AcDbXrecord
280
     1
102
RTVSPropertyOp0
 70
     1
102
RTVSPropertyOp1
 70
     1
102
RTVSPropertyOp2
 70
     1
102
RTVSPropertyOp3
 70
     1
102
RTVSPropertyOp4
 70
     1
102
RTVSPropertyOp5
 70
     1
102
RTVSPropertyOp6
 70
     1
102
RTVSPropertyOp7
 70
     1
102
RTVSPropertyOp8
 70
     1
102
RTVSPropertyOp9
 70
     1
102
RTVSPropertyOp10
 70
     1
102
RTVSPropertyOp11
 70
     1
102
RTVSPropertyOp12
 70
     1
102
RTVSPropertyOp13
 70
     1
102
RTVSPropertyOp14
 70
     1
102
RTVSPropertyOp15
 70
     1
102
RTVSPropertyOp16
 70
     1
102
RTVSPropertyOp17
 70
     1
102
RTVSPropertyOp18
 70
     1
102
RTVSPropertyOp19
 70
     1
102
RTVSPropertyOp20
 70
     1
102
RTVSPropertyOp21
 70
     1
102
RTVSPropertyOp22
 70
     1
102
RTVSPropertyOp23
 70
     1
102
RTVSPropertyOp24
 70
     1
102
RTVSPropertyOp25
 70
     1
102
RTVSPropertyOp26
 70
     1
102
RTVSPropertyOp27
 70
     1
102
RTVSPropertyOp28
 70
     1
102
RTVSPropertyOp29
 70
     1
102
RTVSPropertyOp30
 70
     1
102
RTVSPropertyOp31
 70
     1
102
RTVSPropertyOp32
 70
     1
  0
XRECORD
  5
5D
102
{ACAD_REACTORS
330
5C
102
}
330
5C
100
AcDbXrecord
280
     1
102
RTVSPropertyOp0
 70
     1
102
RTVSPropertyOp1
 70
     1
102
RTVSPropertyOp2
 70
     1
102
RTVSPropertyOp3
 70
     1
102
RTVSPropertyOp4
 70
     1
102
RTVSPropertyOp5
 70
     1
102
RTVSPropertyOp6
 70
     1
102
RTVSPropertyOp7
 70
     1
102
RTVSPropertyOp8
 70
     1
102
RTVSPropertyOp9
 70
     1
102
RTVSPropertyOp10
 70
     1
102
RTVSPropertyOp11
 70
     1
102
RTVSPropertyOp12
 70
     1
102
RTVSPropertyOp13
 70
     1
102
RTVSPropertyOp14
 70
     1
102
RTVSPropertyOp15
 70
     1
102
RTVSPropertyOp16
 70
     1
102
RTVSPropertyOp17
 70
     1
102
RTVSPropertyOp18
 70
     1
102
RTVSPropertyOp19
 70
     1
102
RTVSPropertyOp20
 70
     1
102
RTVSPropertyOp21
 70
     1
102
RTVSPropertyOp22
 70
     1
102
RTVSPropertyOp23
 70
     1
102
RTVSPropertyOp24
 70
     1
102
RTVSPropertyOp25
 70
     1
102
RTVSPropertyOp26
 70
     1
102
RTVSPropertyOp27
 70
     1
102
RTVSPropertyOp28
 70
     1
102
RTVSPropertyOp29
 70
     1
102
RTVSPropertyOp30
 70
     1
102
RTVSPropertyOp31
 70
     1
102
RTVSPropertyOp32
 70
     1
  0
XRECORD
  5
5F
102
{ACAD_REACTORS
330
5E
102
}
330
5E
100
AcDbXrecord
280
     1
102
RTVSPropertyOp0
 70
     1
102
RTVSPropertyOp1
 70
     1
102
RTVSPropertyOp2
 70
     1
102
RTVSPropertyOp3
 70
     1
102
RTVSPropertyOp4
 70
     1
102
RTVSPropertyOp5
 70
     1
102
RTVSPropertyOp6
 70
     1
102
RTVSPropertyOp7
 70
     1
102
RTVSPropertyOp8
 70
     1
102
RTVSPropertyOp9
 70
     1
102
RTVSPropertyOp10
 70
     1
102
RTVSPropertyOp11
 70
     1
102
RTVSPropertyOp12
 70
     1
102
RTVSPropertyOp13
 70
     1
102
RTVSPropertyOp14
 70
     1
102
RTVSPropertyOp15
 70
     1
102
RTVSPropertyOp16
 70
     1
102
RTVSPropertyOp17
 70
     1
102
RTVSPropertyOp18
 70
     1
102
RTVSPropertyOp19
 70
     1
102
RTVSPropertyOp20
 70
     1
102
RTVSPropertyOp21
 70
     1
102
RTVSPropertyOp22
 70
     1
102
RTVSPropertyOp23
 70
     1
102
RTVSPropertyOp24
 70
     1
102
RTVSPropertyOp25
 70
     1
102
RTVSPropertyOp26
 70
     1
102
RTVSPropertyOp27
 70
     1
102
RTVSPropertyOp28
 70
     1
102
RTVSPropertyOp29
 70
     1
102
RTVSPropertyOp30
 70
     1
102
RTVSPropertyOp31
 70
     1
102
RTVSPropertyOp32
 70
     1
  0
XRECORD
  5
73
102
{ACAD_REACTORS
330
72
102
}
330
72
100
AcDbXrecord
280
     1
102
RTVSPropertyOp0
 70
     1
102
RTVSPropertyOp1
 70
     1
102
RTVSPropertyOp2
 70
     1
102
RTVSPropertyOp3
 70
     1
102
RTVSPropertyOp4
 70
     1
102
RTVSPropertyOp5
 70
     1
102
RTVSPropertyOp6
 70
     1
102
RTVSPropertyOp7
 70
     1
102
RTVSPropertyOp8
 70
     1
102
RTVSPropertyOp9
 70
     1
102
RTVSPropertyOp10
 70
     1
102
RTVSPropertyOp11
 70
     1
102
RTVSPropertyOp12
 70
     1
102
RTVSPropertyOp13
 70
     1
102
RTVSPropertyOp14
 70
     1
102
RTVSPropertyOp15
 70
     1
102
RTVSPropertyOp16
 70
     1
102
RTVSPropertyOp17
 70
     1
102
RTVSPropertyOp18
 70
     1
102
RTVSPropertyOp19
 70
     1
102
RTVSPropertyOp20
 70
     1
102
RTVSPropertyOp21
 70
     1
102
RTVSPropertyOp22
 70
     1
102
RTVSPropertyOp23
 70
     1
102
RTVSPropertyOp24
 70
     1
102
RTVSPropertyOp25
 70
     1
102
RTVSPropertyOp26
 70
     1
102
RTVSPropertyOp27
 70
     1
102
RTVSPropertyOp28
 70
     1
102
RTVSPropertyOp29
 70
     1
102
RTVSPropertyOp30
 70
     1
102
RTVSPropertyOp31
 70
     1
102
RTVSPropertyOp32
 70
     1
  0
XRECORD
  5
69
102
{ACAD_REACTORS
330
68
102
}
330
68
100
AcDbXrecord
280
     1
102
RTVSPropertyOp0
 70
     1
102
RTVSPropertyOp1
 70
     1
102
RTVSPropertyOp2
 70
     1
102
RTVSPropertyOp3
 70
     1
102
RTVSPropertyOp4
 70
     1
102
RTVSPropertyOp5
 70
     1
102
RTVSPropertyOp6
 70
     1
102
RTVSPropertyOp7
 70
     1
102
RTVSPropertyOp8
 70
     1
102
RTVSPropertyOp9
 70
     1
102
RTVSPropertyOp10
 70
     1
102
RTVSPropertyOp11
 70
     1
102
RTVSPropertyOp12
 70
     1
102
RTVSPropertyOp13
 70
     1
102
RTVSPropertyOp14
 70
     1
102
RTVSPropertyOp15
 70
     1
102
RTVSPropertyOp16
 70
     1
102
RTVSPropertyOp17
 70
     1
102
RTVSPropertyOp18
 70
     1
102
RTVSPropertyOp19
 70
     1
102
RTVSPropertyOp20
 70
     1
102
RTVSPropertyOp21
 70
     1
102
RTVSPropertyOp22
 70
     1
102
RTVSPropertyOp23
 70
     1
102
RTVSPropertyOp24
 70
     1
102
RTVSPropertyOp25
 70
     1
102
RTVSPropertyOp26
 70
     1
102
RTVSPropertyOp27
 70
     1
102
RTVSPropertyOp28
 70
     1
102
RTVSPropertyOp29
 70
     1
102
RTVSPropertyOp30
 70
     1
102
RTVSPropertyOp31
 70
     1
102
RTVSPropertyOp32
 70
     1
  0
XRECORD
  5
71
102
{ACAD_REACTORS
330
70
102
}
330
70
100
AcDbXrecord
280
     1
102
RTVSPropertyOp0
 70
     1
102
RTVSPropertyOp1
 70
     1
102
RTVSPropertyOp2
 70
     1
102
RTVSPropertyOp3
 70
     1
102
RTVSPropertyOp4
 70
     1
102
RTVSPropertyOp5
 70
     1
102
RTVSPropertyOp6
 70
     1
102
RTVSPropertyOp7
 70
     1
102
RTVSPropertyOp8
 70
     1
102
RTVSPropertyOp9
 70
     1
102
RTVSPropertyOp10
 70
     1
102
RTVSPropertyOp11
 70
     1
102
RTVSPropertyOp12
 70
     1
102
RTVSPropertyOp13
 70
     1
102
RTVSPropertyOp14
 70
     1
102
RTVSPropertyOp15
 70
     1
102
RTVSPropertyOp16
 70
     1
102
RTVSPropertyOp17
 70
     1
102
RTVSPropertyOp18
 70
     1
102
RTVSPropertyOp19
 70
     1
102
RTVSPropertyOp20
 70
     1
102
RTVSPropertyOp21
 70
     1
102
RTVSPropertyOp22
 70
     1
102
RTVSPropertyOp23
 70
     1
102
RTVSPropertyOp24
 70
     1
102
RTVSPropertyOp25
 70
     1
102
RTVSPropertyOp26
 70
     1
102
RTVSPropertyOp27
 70
     1
102
RTVSPropertyOp28
 70
     1
102
RTVSPropertyOp29
 70
     1
102
RTVSPropertyOp30
 70
     1
102
RTVSPropertyOp31
 70
     1
102
RTVSPropertyOp32
 70
     1
  0
ENDSEC
  0
EOF
