  0
SECTION
  2
HEADER
  9
$ACADVER
  1
AC1021
  9
$ACADMAINTVER
 70
    25
  9
$DWGCODEPAGE
  3
ANSI_1252
  9
$INSBASE
 10
0.0
 20
0.0
 30
0.0
  9
$EXTMIN
 10
-187.3875
 20
-106.6178
 30
0.0
  9
$EXTMAX
 10
-44.7219
 20
131.7778
 30
0.0
  9
$LIMMIN
 10
0.0
 20
0.0
  9
$LIMMAX
 10
12.0
 20
9.0
  9
$ORTHOMODE
 70
     0
  9
$REGENMODE
 70
     1
  9
$FILLMODE
 70
     1
  9
$QTEXTMODE
 70
     0
  9
$MIRRTEXT
 70
     1
  9
$LTSCALE
 40
1.0
  9
$ATTMODE
 70
     1
  9
$TEXTSIZE
 40
0.2
  9
$TRACEWID
 40
0.05
  9
$TEXTSTYLE
  7
Standard
  9
$CLAYER
  8
0
  9
$CELTYPE
  6
ByLayer
  9
$CECOLOR
 62
   256
  9
$CELTSCALE
 40
1.0
  9
$DISPSILH
 70
     0
  9
$DIMSCALE
 40
1.0
  9
$DIMASZ
 40
0.18
  9
$DIMEXO
 40
0.0625
  9
$DIMDLI
 40
0.38
  9
$DIMRND
 40
0.0
  9
$DIMDLE
 40
0.0
  9
$DIMEXE
 40
0.18
  9
$DIMTP
 40
0.0
  9
$DIMTM
 40
0.0
  9
$DIMTXT
 40
0.18
  9
$DIMCEN
 40
0.09
  9
$DIMTSZ
 40
0.0
  9
$DIMTOL
 70
     0
  9
$DIMLIM
 70
     0
  9
$DIMTIH
 70
     1
  9
$DIMTOH
 70
     1
  9
$DIMSE1
 70
     0
  9
$DIMSE2
 70
     0
  9
$DIMTAD
 70
     0
  9
$DIMZIN
 70
     0
  9
$DIMBLK
  1

  9
$DIMASO
 70
     1
  9
$DIMSHO
 70
     1
  9
$DIMPOST
  1

  9
$DIMAPOST
  1

  9
$DIMALT
 70
     0
  9
$DIMALTD
 70
     2
  9
$DIMALTF
 40
25.4
  9
$DIMLFAC
 40
1.0
  9
$DIMTOFL
 70
     0
  9
$DIMTVP
 40
0.0
  9
$DIMTIX
 70
     0
  9
$DIMSOXD
 70
     0
  9
$DIMSAH
 70
     0
  9
$DIMBLK1
  1

  9
$DIMBLK2
  1

  9
$DIMSTYLE
  2
Standard
  9
$DIMCLRD
 70
     0
  9
$DIMCLRE
 70
     0
  9
$DIMCLRT
 70
     0
  9
$DIMTFAC
 40
1.0
  9
$DIMGAP
 40
0.09
  9
$DIMJUST
 70
     0
  9
$DIMSD1
 70
     0
  9
$DIMSD2
 70
     0
  9
$DIMTOLJ
 70
     1
  9
$DIMTZIN
 70
     0
  9
$DIMALTZ
 70
     0
  9
$DIMALTTZ
 70
     0
  9
$DIMUPT
 70
     0
  9
$DIMDEC
 70
     4
  9
$DIMTDEC
 70
     4
  9
$DIMALTU
 70
     2
  9
$DIMALTTD
 70
     2
  9
$DIMTXSTY
  7
Standard
  9
$DIMAUNIT
 70
     0
  9
$DIMADEC
 70
     0
  9
$DIMALTRND
 40
0.0
  9
$DIMAZIN
 70
     0
  9
$DIMDSEP
 70
    46
  9
$DIMATFIT
 70
     3
  9
$DIMFRAC
 70
     0
  9
$DIMLDRBLK
  1

  9
$DIMLUNIT
 70
     2
  9
$DIMLWD
 70
    -2
  9
$DIMLWE
 70
    -2
  9
$DIMTMOVE
 70
     0
  9
$DIMFXL
 40
1.0
  9
$DIMFXLON
 70
     0
  9
$DIMJOGANG
 40
0.7853981633974483
  9
$DIMTFILL
 70
     0
  9
$DIMTFILLCLR
 70
     0
  9
$DIMARCSYM
 70
     0
  9
$DIMLTYPE
  6

  9
$DIMLTEX1
  6

  9
$DIMLTEX2
  6

  9
$LUNITS
 70
     2
  9
$LUPREC
 70
     4
  9
$SKETCHINC
 40
0.1
  9
$FILLETRAD
 40
0.5
  9
$AUNITS
 70
     0
  9
$AUPREC
 70
     0
  9
$MENU
  1
.
  9
$ELEVATION
 40
0.0
  9
$PELEVATION
 40
0.0
  9
$THICKNESS
 40
0.0
  9
$LIMCHECK
 70
     0
  9
$CHAMFERA
 40
0.5
  9
$CHAMFERB
 40
0.5
  9
$CHAMFERC
 40
1.0
  9
$CHAMFERD
 40
0.0
  9
$SKPOLY
 70
     0
  9
$TDCREATE
 40
2458493.707039965
  9
$TDUCREATE
 40
2458493.707039965
  9
$TDUPDATE
 40
2458493.707040197
  9
$TDUUPDATE
 40
2458493.707040197
  9
$TDINDWG
 40
0.0000000116
  9
$TDUSRTIMER
 40
0.0000000116
  9
$USRTIMER
 70
     1
  9
$ANGBASE
 50
0.0
  9
$ANGDIR
 70
     0
  9
$PDMODE
 70
     0
  9
$PDSIZE
 40
0.0
  9
$PLINEWID
 40
0.0
  9
$SPLFRAME
 70
     0
  9
$SPLINETYPE
 70
     6
  9
$SPLINESEGS
 70
     8
  9
$HANDSEED
  5
119
  9
$SURFTAB1
 70
     6
  9
$SURFTAB2
 70
     6
  9
$SURFTYPE
 70
     6
  9
$SURFU
 70
     6
  9
$SURFV
 70
     6
  9
$UCSBASE
  2

  9
$UCSNAME
  2

  9
$UCSORG
 10
0.0
 20
0.0
 30
0.0
  9
$UCSXDIR
 10
1.0
 20
0.0
 30
0.0
  9
$UCSYDIR
 10
0.0
 20
1.0
 30
0.0
  9
$UCSORTHOREF
  2

  9
$UCSORTHOVIEW
 70
     0
  9
$UCSORGTOP
 10
0.0
 20
0.0
 30
0.0
  9
$UCSORGBOTTOM
 10
0.0
 20
0.0
 30
0.0
  9
$UCSORGLEFT
 10
0.0
 20
0.0
 30
0.0
  9
$UCSORGRIGHT
 10
0.0
 20
0.0
 30
0.0
  9
$UCSORGFRONT
 10
0.0
 20
0.0
 30
0.0
  9
$UCSORGBACK
 10
0.0
 20
0.0
 30
0.0
  9
$PUCSBASE
  2

  9
$PUCSNAME
  2

  9
$PUCSORG
 10
0.0
 20
0.0
 30
0.0
  9
$PUCSXDIR
 10
1.0
 20
0.0
 30
0.0
  9
$PUCSYDIR
 10
0.0
 20
1.0
 30
0.0
  9
$PUCSORTHOREF
  2

  9
$PUCSORTHOVIEW
 70
     0
  9
$PUCSORGTOP
 10
0.0
 20
0.0
 30
0.0
  9
$PUCSORGBOTTOM
 10
0.0
 20
0.0
 30
0.0
  9
$PUCSORGLEFT
 10
0.0
 20
0.0
 30
0.0
  9
$PUCSORGRIGHT
 10
0.0
 20
0.0
 30
0.0
  9
$PUCSORGFRONT
 10
0.0
 20
0.0
 30
0.0
  9
$PUCSORGBACK
 10
0.0
 20
0.0
 30
0.0
  9
$USERI1
 70
     0
  9
$USERI2
 70
     0
  9
$USERI3
 70
     0
  9
$USERI4
 70
     0
  9
$USERI5
 70
     0
  9
$USERR1
 40
0.0
  9
$USERR2
 40
0.0
  9
$USERR3
 40
0.0
  9
$USERR4
 40
0.0
  9
$USERR5
 40
0.0
  9
$WORLDVIEW
 70
     1
  9
$SHADEDGE
 70
     3
  9
$SHADEDIF
 70
    70
  9
$TILEMODE
 70
     1
  9
$MAXACTVP
 70
    64
  9
$PINSBASE
 10
0.0
 20
0.0
 30
0.0
  9
$PLIMCHECK
 70
     0
  9
$PEXTMIN
 10
1.000000000000000E+20
 20
1.000000000000000E+20
 30
1.000000000000000E+20
  9
$PEXTMAX
 10
-1.000000000000000E+20
 20
-1.000000000000000E+20
 30
-1.000000000000000E+20
  9
$PLIMMIN
 10
0.0
 20
0.0
  9
$PLIMMAX
 10
12.0
 20
9.0
  9
$UNITMODE
 70
     0
  9
$VISRETAIN
 70
     1
  9
$PLINEGEN
 70
     0
  9
$PSLTSCALE
 70
     1
  9
$TREEDEPTH
 70
  3020
  9
$CMLSTYLE
  2
Standard
  9
$CMLJUST
 70
     0
  9
$CMLSCALE
 40
1.0
  9
$PROXYGRAPHICS
 70
     1
  9
$MEASUREMENT
 70
     0
  9
$CELWEIGHT
370
    -1
  9
$ENDCAPS
280
     0
  9
$JOINSTYLE
280
     0
  9
$LWDISPLAY
290
     0
  9
$INSUNITS
 70
     4
  9
$HYPERLINKBASE
  1

  9
$STYLESHEET
  1

  9
$XEDIT
290
     1
  9
$CEPSNTYPE
380
     0
  9
$PSTYLEMODE
290
     1
  9
$FINGERPRINTGUID
  2
{AC8BF9DD-1A90-4C3B-9F52-CFDE44CA48BD}
  9
$VERSIONGUID
  2
{FAEB1C32-E019-11D5-929B-00C0DF256EC4}
  9
$EXTNAMES
290
     1
  9
$PSVPSCALE
 40
0.0
  9
$OLESTARTUP
290
     0
  9
$SORTENTS
280
   127
  9
$INDEXCTL
280
     0
  9
$HIDETEXT
280
     1
  9
$XCLIPFRAME
290
     0
  9
$HALOGAP
280
     0
  9
$OBSCOLOR
 70
   257
  9
$OBSLTYPE
280
     0
  9
$INTERSECTIONDISPLAY
280
     0
  9
$INTERSECTIONCOLOR
 70
   257
  9
$DIMASSOC
280
     2
  9
$PROJECTNAME
  1

  9
$CAMERADISPLAY
290
     0
  9
$LENSLENGTH
 40
50.0
  9
$CAMERAHEIGHT
 40
0.0
  9
$STEPSPERSEC
 40
2.0
  9
$STEPSIZE
 40
6.0
  9
$3DDWFPREC
 40
2.0
  9
$PSOLWIDTH
 40
0.25
  9
$PSOLHEIGHT
 40
4.0
  9
$LOFTANG1
 40
1.570796326794897
  9
$LOFTANG2
 40
1.570796326794897
  9
$LOFTMAG1
 40
0.0
  9
$LOFTMAG2
 40
0.0
  9
$LOFTPARAM
 70
     7
  9
$LOFTNORMALS
280
     1
  9
$LATITUDE
 40
37.795
  9
$LONGITUDE
 40
-122.394
  9
$NORTHDIRECTION
 40
0.0
  9
$TIMEZONE
 70
 -8000
  9
$LIGHTGLYPHDISPLAY
280
     1
  9
$TILEMODELIGHTSYNCH
280
     1
  9
$SOLIDHIST
280
     1
  9
$SHOWHIST
280
     1
  9
$DWFFRAME
280
     2
  9
$DGNFRAME
280
     2
  9
$REALWORLDSCALE
290
     1
  9
$INTERFERECOLOR
 62
   256
  9
$CSHADOW
280
     0
  9
$SHADOWPLANELOCATION
 40
0.0
  0
ENDSEC
  0
SECTION
  2
CLASSES
  0
CLASS
  1
ACDBDICTIONARYWDFLT
  2
AcDbDictionaryWithDefault
  3
ObjectDBX Classes
 90
        0
 91
        4
280
     0
281
     0
  0
CLASS
  1
VISUALSTYLE
  2
AcDbVisualStyle
  3
ObjectDBX Classes
 90
     4095
 91
        4
280
     0
281
     0
  0
CLASS
  1
MATERIAL
  2
AcDbMaterial
  3
ObjectDBX Classes
 90
     1153
 91
        4
280
     0
281
     0
  0
ENDSEC
  0
SECTION
  2
TABLES
  0
TABLE
  2
VPORT
  5
8
330
0
100
AcDbSymbolTable
 70
     1
  0
VPORT
  5
29
330
8
100
AcDbSymbolTableRecord
100
AcDbViewportTableRecord
  2
*Active
 70
     0
 10
0.0
 20
0.0
 11
1.0
 21
1.0
 12
10.42990654205607
 22
4.5
 13
0.0
 23
0.0
 14
0.5
 24
0.5
 15
0.5
 25
0.5
 16
0.0
 26
0.0
 36
1.0
 17
0.0
 27
0.0
 37
0.0
 40
9.0
 41
1.972972972850329
 42
50.0
 43
0.0
 44
0.0
 50
0.0
 51
0.0
 71
     0
 72
   100
 73
     1
 74
     3
 75
     0
 76
     0
 77
     0
 78
     0
281
     0
 65
     1
110
0.0
120
0.0
130
0.0
111
1.0
121
0.0
131
0.0
112
0.0
122
1.0
132
0.0
 79
     0
146
0.0
 60
     3
 61
     5
292
     1
282
     1
141
0.0
142
0.0
 63
   250
  0
ENDTAB
  0
TABLE
  2
LTYPE
  5
5
330
0
100
AcDbSymbolTable
 70
     1
  0
LTYPE
  5
14
330
5
100
AcDbSymbolTableRecord
100
AcDbLinetypeTableRecord
  2
ByBlock
 70
     0
  3

 72
    65
 73
     0
 40
0.0
  0
LTYPE
  5
15
330
5
100
AcDbSymbolTableRecord
100
AcDbLinetypeTableRecord
  2
ByLayer
 70
     0
  3

 72
    65
 73
     0
 40
0.0
  0
LTYPE
  5
16
330
5
100
AcDbSymbolTableRecord
100
AcDbLinetypeTableRecord
  2
Continuous
 70
     0
  3
Solid line
 72
    65
 73
     0
 40
0.0
  0
ENDTAB
  0
TABLE
  2
LAYER
  5
2
330
0
100
AcDbSymbolTable
 70
     3
  0
LAYER
  5
10
330
2
100
AcDbSymbolTableRecord
100
AcDbLayerTableRecord
  2
0
 70
     0
 62
     7
  6
Continuous
370
    -3
390
F
347
3E
  0
LAYER
  5
40
330
2
100
AcDbSymbolTableRecord
100
AcDbLayerTableRecord
  2
layer 1
 70
     0
 62
     7
  6
Continuous
370
    -3
390
F
347
3E
  0
LAYER
  5
F6
330
2
100
AcDbSymbolTableRecord
100
AcDbLayerTableRecord
  2
Master Guides
 70
     0
 62
     7
  6
Continuous
370
    -3
390
F
347
3E
  0
ENDTAB
  0
TABLE
  2
STYLE
  5
3
330
0
100
AcDbSymbolTable
 70
     1
  0
STYLE
  5
11
330
3
100
AcDbSymbolTableRecord
100
AcDbTextStyleTableRecord
  2
Standard
 70
     0
 40
0.0
 41
1.0
 50
0.0
 71
     0
 42
0.2
  3
txt
  4

  0
ENDTAB
  0
TABLE
  2
VIEW
  5
6
330
0
100
AcDbSymbolTable
 70
     0
  0
ENDTAB
  0
TABLE
  2
UCS
  5
7
330
0
100
AcDbSymbolTable
 70
     0
  0
ENDTAB
  0
TABLE
  2
APPID
  5
9
330
0
100
AcDbSymbolTable
 70
     2
  0
APPID
  5
12
330
9
100
AcDbSymbolTableRecord
100
AcDbRegAppTableRecord
  2
ACAD
 70
     0
  0
APPID
  5
3F
330
9
100
AcDbSymbolTableRecord
100
AcDbRegAppTableRecord
  2
ODA
 70
     0
  0
ENDTAB
  0
TABLE
  2
DIMSTYLE
  5
A
330
0
100
AcDbSymbolTable
 70
     1
100
AcDbDimStyleTable
  0
DIMSTYLE
105
27
330
A
100
AcDbSymbolTableRecord
100
AcDbDimStyleTableRecord
  2
Standard
 70
     0
178
     0
340
11
  0
ENDTAB
  0
TABLE
  2
BLOCK_RECORD
  5
1
330
0
100
AcDbSymbolTable
 70
     1
  0
BLOCK_RECORD
  5
1F
330
1
100
AcDbSymbolTableRecord
100
AcDbBlockTableRecord
  2
*Model_Space
340
22
 70
     0
280
     1
281
     0
  0
BLOCK_RECORD
  5
1B
330
1
100
AcDbSymbolTableRecord
100
AcDbBlockTableRecord
  2
*Paper_Space
340
1E
 70
     0
280
     1
281
     0
  0
BLOCK_RECORD
  5
23
330
1
100
AcDbSymbolTableRecord
100
AcDbBlockTableRecord
  2
*Paper_Space0
340
26
 70
     0
280
     1
281
     0
  0
ENDTAB
  0
ENDSEC
  0
SECTION
  2
BLOCKS
  0
BLOCK
  5
20
330
1F
100
AcDbEntity
  8
0
100
AcDbBlockBegin
  2
*Model_Space
 70
     0
 10
0.0
 20
0.0
 30
0.0
  3
*Model_Space
  1

  0
ENDBLK
  5
21
330
1F
100
AcDbEntity
  8
0
100
AcDbBlockEnd
  0
BLOCK
  5
1C
330
1B
100
AcDbEntity
 67
     1
  8
0
100
AcDbBlockBegin
  2
*Paper_Space
 70
     0
 10
0.0
 20
0.0
 30
0.0
  3
*Paper_Space
  1

  0
ENDBLK
  5
1D
330
1B
100
AcDbEntity
 67
     1
  8
0
100
AcDbBlockEnd
  0
BLOCK
  5
24
330
23
100
AcDbEntity
  8
0
100
AcDbBlockBegin
  2
*Paper_Space0
 70
     0
 10
0.0
 20
0.0
 30
0.0
  3
*Paper_Space0
  1

  0
ENDBLK
  5
25
330
23
100
AcDbEntity
  8
0
100
AcDbBlockEnd
  0
ENDSEC
  0
SECTION
  2
ENTITIES
  0
SPLINE
  5
41
330
1F
100
AcDbEntity
  8
layer 1
100
AcDbSpline
210
0.0
220
0.0
230
1.0
 70
     8
 71
     3
 72
    36
 73
    32
 74
     0
 42
0.0000000001
 43
0.0000000001
 12
1.0
 22
0.0
 32
0.0
 13
1.0
 23
0.0
 33
0.0
 40
0.0
 40
0.0
 40
0.0
 40
0.0
 40
0.1111111111111111
 40
0.1111111111111111
 40
0.1111111111111111
 40
0.1111111111111111
 40
0.2222222222222222
 40
0.2222222222222222
 40
0.2222222222222222
 40
0.2222222222222222
 40
0.3333333333333333
 40
0.3333333333333333
 40
0.3333333333333333
 40
0.3333333333333333
 40
0.4444444444444444
 40
0.4444444444444444
 40
0.4444444444444444
 40
0.4444444444444444
 40
0.5555555555555556
 40
0.5555555555555556
 40
0.5555555555555556
 40
0.5555555555555556
 40
0.6666666666666666
 40
0.6666666666666666
 40
0.6666666666666666
 40
0.6666666666666666
 40
0.7777777777777778
 40
0.7777777777777778
 40
0.7777777777777778
 40
0.7777777777777778
 40
1.0
 40
1.0
 40
1.0
 40
1.0
 10
-187.3782
 20
131.7776
 30
0.0
 10
-187.3782
 20
131.7776
 30
0.0
 10
-44.7313
 20
131.7776
 30
0.0
 10
-44.7313
 20
131.7776
 30
0.0
 10
-44.7313
 20
131.7776
 30
0.0
 10
-44.7261
 20
131.7778
 30
0.0
 10
-44.7219
 20
131.7738
 30
0.0
 10
-44.7219
 20
131.769
 30
0.0
 10
-44.7219
 20
131.769
 30
0.0
 10
-44.7219
 20
131.769
 30
0.0
 10
-44.7219
 20
-106.6091
 30
0.0
 10
-44.7219
 20
-106.6091
 30
0.0
 10
-44.7219
 20
-106.6091
 30
0.0
 10
-44.7219
 20
-106.6138
 30
0.0
 10
-44.7261
 20
-106.6178
 30
0.0
 10
-44.7313
 20
-106.6178
 30
0.0
 10
-44.7313
 20
-106.6178
 30
0.0
 10
-44.7313
 20
-106.6178
 30
0.0
 10
-187.3782
 20
-106.6178
 30
0.0
 10
-187.3782
 20
-106.6178
 30
0.0
 10
-187.3782
 20
-106.6178
 30
0.0
 10
-187.3832
 20
-106.6178
 30
0.0
 10
-187.3873
 20
-106.6138
 30
0.0
 10
-187.3873
 20
-106.609
 30
0.0
 10
-187.3873
 20
-106.609
 30
0.0
 10
-187.3873
 20
-106.609
 30
0.0
 10
-187.3875
 20
131.769
 30
0.0
 10
-187.3875
 20
131.769
 30
0.0
 10
-187.3875
 20
131.769
 30
0.0
 10
-187.3873
 20
131.7738
 30
0.0
 10
-187.3832
 20
131.7778
 30
0.0
 10
-187.378
 20
131.7778
 30
0.0
  0
SPLINE
  5
42
330
1F
100
AcDbEntity
  8
layer 1
 62
     7
100
AcDbSpline
210
0.0
220
0.0
230
1.0
 70
    11
 71
     3
 72
    24
 73
    20
 74
     0
 42
0.0000000001
 43
0.0000000001
 12
1.0
 22
0.0
 32
0.0
 13
1.0
 23
0.0
 33
0.0
 40
0.0
 40
0.0
 40
0.0
 40
0.0
 40
0.1666666666666667
 40
0.1666666666666667
 40
0.1666666666666667
 40
0.1666666666666667
 40
0.3333333333333333
 40
0.3333333333333333
 40
0.3333333333333333
 40
0.3333333333333333
 40
0.5
 40
0.5
 40
0.5
 40
0.5
 40
0.6666666666666666
 40
0.6666666666666666
 40
0.6666666666666666
 40
0.6666666666666666
 40
1.0
 40
1.0
 40
1.0
 40
1.0
 10
-139.8372
 20
57.1701
 30
0.0
 10
-135.3321
 20
57.1774
 30
0.0
 10
-128.7392
 20
55.2875
 30
0.0
 10
-124.6207
 20
52.6671
 30
0.0
 10
-124.6207
 20
52.6671
 30
0.0
 10
-124.6199
 20
50.1611
 30
0.0
 10
-124.6212
 20
49.4018
 30
0.0
 10
-124.6135
 20
47.3795
 30
0.0
 10
-124.6135
 20
47.3795
 30
0.0
 10
-127.5414
 20
45.281
 30
0.0
 10
-136.2748
 20
42.3874
 30
0.0
 10
-139.8141
 20
42.9867
 30
0.0
 10
-139.8141
 20
42.9867
 30
0.0
 10
-139.6168
 20
47.0937
 30
0.0
 10
-139.7291
 20
53.6933
 30
0.0
 10
-139.8372
 20
57.17
 30
0.0
 10
-139.8372
 20
57.17
 30
0.0
 10
-139.8372
 20
57.17
 30
0.0
 10
-139.8372
 20
57.1701
 30
0.0
 10
-139.8372
 20
57.1701
 30
0.0
  0
SPLINE
  5
43
330
1F
100
AcDbEntity
  8
layer 1
 62
     7
100
AcDbSpline
210
0.0
220
0.0
230
1.0
 70
    11
 71
     3
 72
    20
 73
    16
 74
     0
 42
0.0000000001
 43
0.0000000001
 12
1.0
 22
0.0
 32
0.0
 13
1.0
 23
0.0
 33
0.0
 40
0.0
 40
0.0
 40
0.0
 40
0.0
 40
0.2
 40
0.2
 40
0.2
 40
0.2
 40
0.4
 40
0.4
 40
0.4
 40
0.4
 40
0.6
 40
0.6
 40
0.6
 40
0.6
 40
1.0
 40
1.0
 40
1.0
 40
1.0
 10
-143.6473
 20
57.0623
 30
0.0
 10
-146.6966
 20
56.9076
 30
0.0
 10
-150.8631
 20
56.4197
 30
0.0
 10
-153.0944
 20
55.4709
 30
0.0
 10
-153.0944
 20
55.4709
 30
0.0
 10
-152.8796
 20
52.3719
 30
0.0
 10
-152.8783
 20
46.8137
 30
0.0
 10
-153.2633
 20
44.5758
 30
0.0
 10
-153.2633
 20
44.5758
 30
0.0
 10
-150.2813
 20
43.5018
 30
0.0
 10
-146.5087
 20
42.8189
 30
0.0
 10
-143.7783
 20
43.1486
 30
0.0
 10
-143.7783
 20
43.1486
 30
0.0
 10
-143.3259
 20
47.4903
 30
0.0
 10
-142.9911
 20
52.469
 30
0.0
 10
-143.6473
 20
57.0623
 30
0.0
  0
SPLINE
  5
44
330
1F
100
AcDbEntity
  8
layer 1
 62
     7
100
AcDbSpline
210
0.0
220
0.0
230
1.0
 70
    11
 71
     3
 72
    20
 73
    16
 74
     0
 42
0.0000000001
 43
0.0000000001
 12
1.0
 22
0.0
 32
0.0
 13
1.0
 23
0.0
 33
0.0
 40
0.0
 40
0.0
 40
0.0
 40
0.0
 40
0.2
 40
0.2
 40
0.2
 40
0.2
 40
0.4
 40
0.4
 40
0.4
 40
0.4
 40
0.6
 40
0.6
 40
0.6
 40
0.6
 40
1.0
 40
1.0
 40
1.0
 40
1.0
 10
-156.642
 20
54.0967
 30
0.0
 10
-159.5835
 20
53.1333
 30
0.0
 10
-161.701
 20
51.9983
 30
0.0
 10
-164.0403
 20
50.0251
 30
0.0
 10
-164.0403
 20
50.0251
 30
0.0
 10
-162.1474
 20
48.4026
 30
0.0
 10
-159.4025
 20
46.7887
 30
0.0
 10
-156.6654
 20
46.0604
 30
0.0
 10
-156.6654
 20
46.0604
 30
0.0
 10
-156.4827
 20
48.4609
 30
0.0
 10
-156.4173
 20
51.7141
 30
0.0
 10
-156.6422
 20
54.0968
 30
0.0
 10
-156.6422
 20
54.0968
 30
0.0
 10
-156.6422
 20
54.0968
 30
0.0
 10
-156.642
 20
54.0967
 30
0.0
 10
-156.642
 20
54.0967
 30
0.0
  0
SPLINE
  5
45
330
1F
100
AcDbEntity
  8
layer 1
 62
     7
100
AcDbSpline
210
0.0
220
0.0
230
1.0
 70
    11
 71
     3
 72
    24
 73
    20
 74
     0
 42
0.0000000001
 43
0.0000000001
 12
1.0
 22
0.0
 32
0.0
 13
1.0
 23
0.0
 33
0.0
 40
0.0
 40
0.0
 40
0.0
 40
0.0
 40
0.1666666666666667
 40
0.1666666666666667
 40
0.1666666666666667
 40
0.1666666666666667
 40
0.3333333333333333
 40
0.3333333333333333
 40
0.3333333333333333
 40
0.3333333333333333
 40
0.5
 40
0.5
 40
0.5
 40
0.5
 40
0.6666666666666666
 40
0.6666666666666666
 40
0.6666666666666666
 40
0.6666666666666666
 40
1.0
 40
1.0
 40
1.0
 40
1.0
 10
-121.9342
 20
74.1868
 30
0.0
 10
-119.6754
 20
70.2888
 30
0.0
 10
-118.0156
 20
63.6342
 30
0.0
 10
-118.2255
 20
58.7574
 30
0.0
 10
-118.2255
 20
58.7574
 30
0.0
 10
-120.3953
 20
57.5037
 30
0.0
 10
-121.0535
 20
57.1251
 30
0.0
 10
-122.8011
 20
56.1074
 30
0.0
 10
-122.8011
 20
56.1074
 30
0.0
 10
-126.0824
 20
57.5939
 30
0.0
 10
-132.955
 20
63.7104
 30
0.0
 10
-134.2057
 20
67.0752
 30
0.0
 10
-134.2057
 20
67.0752
 30
0.0
 10
-130.5503
 20
68.9579
 30
0.0
 10
-124.8911
 20
72.3548
 30
0.0
 10
-121.9342
 20
74.187
 30
0.0
 10
-121.9342
 20
74.187
 30
0.0
 10
-121.9342
 20
74.187
 30
0.0
 10
-121.9342
 20
74.1868
 30
0.0
 10
-121.9342
 20
74.1868
 30
0.0
  0
SPLINE
  5
46
330
1F
100
AcDbEntity
  8
layer 1
 62
     7
100
AcDbSpline
210
0.0
220
0.0
230
1.0
 70
    11
 71
     3
 72
    24
 73
    20
 74
     0
 42
0.0000000001
 43
0.0000000001
 12
1.0
 22
0.0
 32
0.0
 13
1.0
 23
0.0
 33
0.0
 40
0.0
 40
0.0
 40
0.0
 40
0.0
 40
0.1666666666666667
 40
0.1666666666666667
 40
0.1666666666666667
 40
0.1666666666666667
 40
0.3333333333333333
 40
0.3333333333333333
 40
0.3333333333333333
 40
0.3333333333333333
 40
0.5
 40
0.5
 40
0.5
 40
0.5
 40
0.6666666666666666
 40
0.6666666666666666
 40
0.6666666666666666
 40
0.6666666666666666
 40
1.0
 40
1.0
 40
1.0
 40
1.0
 10
-123.9325
 20
77.4323
 30
0.0
 10
-125.591
 20
79.9958
 30
0.0
 10
-128.0968
 20
83.3601
 30
0.0
 10
-130.0343
 20
84.8182
 30
0.0
 10
-130.0343
 20
84.8182
 30
0.0
 10
-132.6107
 20
83.0826
 30
0.0
 10
-137.4237
 20
80.3024
 30
0.0
 10
-139.5543
 20
79.5169
 30
0.0
 10
-139.5543
 20
79.5169
 30
0.0
 10
-138.9934
 20
76.3975
 30
0.0
 10
-137.6984
 20
72.7889
 30
0.0
 10
-136.0478
 20
70.5891
 30
0.0
 10
-136.0478
 20
70.5891
 30
0.0
 10
-132.0615
 20
72.3683
 30
0.0
 10
-127.5824
 20
74.5675
 30
0.0
 10
-123.9327
 20
77.4324
 30
0.0
 10
-123.9327
 20
77.4324
 30
0.0
 10
-123.9327
 20
77.4324
 30
0.0
 10
-123.9325
 20
77.4323
 30
0.0
 10
-123.9325
 20
77.4323
 30
0.0
  0
SPLINE
  5
47
330
1F
100
AcDbEntity
  8
layer 1
 62
     7
100
AcDbSpline
210
0.0
220
0.0
230
1.0
 70
    11
 71
     3
 72
    20
 73
    16
 74
     0
 42
0.0000000001
 43
0.0000000001
 12
1.0
 22
0.0
 32
0.0
 13
1.0
 23
0.0
 33
0.0
 40
0.0
 40
0.0
 40
0.0
 40
0.0
 40
0.2
 40
0.2
 40
0.2
 40
0.2
 40
0.4
 40
0.4
 40
0.4
 40
0.4
 40
0.6
 40
0.6
 40
0.6
 40
0.6
 40
1.0
 40
1.0
 40
1.0
 40
1.0
 10
-132.9983
 20
87.2033
 30
0.0
 10
-135.3033
 20
89.269
 30
0.0
 10
-137.3451
 20
90.5354
 30
0.0
 10
-140.2235
 20
91.5745
 30
0.0
 10
-140.2235
 20
91.5745
 30
0.0
 10
-140.6823
 20
89.124
 30
0.0
 10
-140.7074
 20
85.9399
 30
0.0
 10
-139.9697
 20
83.2053
 30
0.0
 10
-139.9697
 20
83.2053
 30
0.0
 10
-137.7994
 20
84.2473
 30
0.0
 10
-134.9493
 20
85.8174
 30
0.0
 10
-132.9984
 20
87.2034
 30
0.0
 10
-132.9984
 20
87.2034
 30
0.0
 10
-132.9984
 20
87.2034
 30
0.0
 10
-132.9983
 20
87.2033
 30
0.0
 10
-132.9983
 20
87.2033
 30
0.0
  0
SPLINE
  5
48
330
1F
100
AcDbEntity
  8
layer 1
 62
     7
100
AcDbSpline
210
0.0
220
0.0
230
1.0
 70
    11
 71
     3
 72
    24
 73
    20
 74
     0
 42
0.0000000001
 43
0.0000000001
 12
1.0
 22
0.0
 32
0.0
 13
1.0
 23
0.0
 33
0.0
 40
0.0
 40
0.0
 40
0.0
 40
0.0
 40
0.1666666666666667
 40
0.1666666666666667
 40
0.1666666666666667
 40
0.1666666666666667
 40
0.3333333333333333
 40
0.3333333333333333
 40
0.3333333333333333
 40
0.3333333333333333
 40
0.5
 40
0.5
 40
0.5
 40
0.5
 40
0.6666666666666666
 40
0.6666666666666666
 40
0.6666666666666666
 40
0.6666666666666666
 40
1.0
 40
1.0
 40
1.0
 40
1.0
 10
-121.8263
 20
25.614
 30
0.0
 10
-119.5675
 20
29.512
 30
0.0
 10
-117.9077
 20
36.1666
 30
0.0
 10
-118.1177
 20
41.0434
 30
0.0
 10
-118.1177
 20
41.0434
 30
0.0
 10
-120.2874
 20
42.2971
 30
0.0
 10
-120.9457
 20
42.6757
 30
0.0
 10
-122.6932
 20
43.6934
 30
0.0
 10
-122.6932
 20
43.6934
 30
0.0
 10
-125.9746
 20
42.2069
 30
0.0
 10
-132.8471
 20
36.0904
 30
0.0
 10
-134.0978
 20
32.7256
 30
0.0
 10
-134.0978
 20
32.7256
 30
0.0
 10
-130.4424
 20
30.8429
 30
0.0
 10
-124.7832
 20
27.4459
 30
0.0
 10
-121.8263
 20
25.6138
 30
0.0
 10
-121.8263
 20
25.6138
 30
0.0
 10
-121.8263
 20
25.6138
 30
0.0
 10
-121.8263
 20
25.614
 30
0.0
 10
-121.8263
 20
25.614
 30
0.0
  0
SPLINE
  5
49
330
1F
100
AcDbEntity
  8
layer 1
 62
     7
100
AcDbSpline
210
0.0
220
0.0
230
1.0
 70
    11
 71
     3
 72
    24
 73
    20
 74
     0
 42
0.0000000001
 43
0.0000000001
 12
1.0
 22
0.0
 32
0.0
 13
1.0
 23
0.0
 33
0.0
 40
0.0
 40
0.0
 40
0.0
 40
0.0
 40
0.1666666666666667
 40
0.1666666666666667
 40
0.1666666666666667
 40
0.1666666666666667
 40
0.3333333333333333
 40
0.3333333333333333
 40
0.3333333333333333
 40
0.3333333333333333
 40
0.5
 40
0.5
 40
0.5
 40
0.5
 40
0.6666666666666666
 40
0.6666666666666666
 40
0.6666666666666666
 40
0.6666666666666666
 40
1.0
 40
1.0
 40
1.0
 40
1.0
 10
-123.8246
 20
22.3683
 30
0.0
 10
-125.4831
 20
19.8048
 30
0.0
 10
-127.989
 20
16.4405
 30
0.0
 10
-129.9264
 20
14.9825
 30
0.0
 10
-129.9264
 20
14.9825
 30
0.0
 10
-132.5028
 20
16.718
 30
0.0
 10
-137.3158
 20
19.4982
 30
0.0
 10
-139.4464
 20
20.2837
 30
0.0
 10
-139.4464
 20
20.2837
 30
0.0
 10
-138.8856
 20
23.4031
 30
0.0
 10
-137.5905
 20
27.0117
 30
0.0
 10
-135.9399
 20
29.2115
 30
0.0
 10
-135.9399
 20
29.2115
 30
0.0
 10
-131.9537
 20
27.4323
 30
0.0
 10
-127.4746
 20
25.2332
 30
0.0
 10
-123.8248
 20
22.3682
 30
0.0
 10
-123.8248
 20
22.3682
 30
0.0
 10
-123.8248
 20
22.3682
 30
0.0
 10
-123.8246
 20
22.3683
 30
0.0
 10
-123.8246
 20
22.3683
 30
0.0
  0
SPLINE
  5
4A
330
1F
100
AcDbEntity
  8
layer 1
 62
     7
100
AcDbSpline
210
0.0
220
0.0
230
1.0
 70
    11
 71
     3
 72
    20
 73
    16
 74
     0
 42
0.0000000001
 43
0.0000000001
 12
1.0
 22
0.0
 32
0.0
 13
1.0
 23
0.0
 33
0.0
 40
0.0
 40
0.0
 40
0.0
 40
0.0
 40
0.2
 40
0.2
 40
0.2
 40
0.2
 40
0.4
 40
0.4
 40
0.4
 40
0.4
 40
0.6
 40
0.6
 40
0.6
 40
0.6
 40
1.0
 40
1.0
 40
1.0
 40
1.0
 10
-132.8904
 20
12.5974
 30
0.0
 10
-135.1954
 20
10.5317
 30
0.0
 10
-137.2372
 20
9.2652
 30
0.0
 10
-140.1157
 20
8.2261
 30
0.0
 10
-140.1157
 20
8.2261
 30
0.0
 10
-140.5745
 20
10.6767
 30
0.0
 10
-140.5995
 20
13.8607
 30
0.0
 10
-139.8618
 20
16.5953
 30
0.0
 10
-139.8618
 20
16.5953
 30
0.0
 10
-137.6915
 20
15.5533
 30
0.0
 10
-134.8415
 20
13.9832
 30
0.0
 10
-132.8905
 20
12.5972
 30
0.0
 10
-132.8905
 20
12.5972
 30
0.0
 10
-132.8905
 20
12.5972
 30
0.0
 10
-132.8904
 20
12.5974
 30
0.0
 10
-132.8904
 20
12.5974
 30
0.0
  0
SPLINE
  5
4B
330
1F
100
AcDbEntity
  8
layer 1
 62
     7
100
AcDbSpline
210
0.0
220
0.0
230
1.0
 70
    11
 71
     3
 72
    24
 73
    20
 74
     0
 42
0.0000000001
 43
0.0000000001
 12
1.0
 22
0.0
 32
0.0
 13
1.0
 23
0.0
 33
0.0
 40
0.0
 40
0.0
 40
0.0
 40
0.0
 40
0.1666666666666667
 40
0.1666666666666667
 40
0.1666666666666667
 40
0.1666666666666667
 40
0.3333333333333333
 40
0.3333333333333333
 40
0.3333333333333333
 40
0.3333333333333333
 40
0.5
 40
0.5
 40
0.5
 40
0.5
 40
0.6666666666666666
 40
0.6666666666666666
 40
0.6666666666666666
 40
0.6666666666666666
 40
1.0
 40
1.0
 40
1.0
 40
1.0
 10
-92.0351
 20
57.1701
 30
0.0
 10
-96.5402
 20
57.1774
 30
0.0
 10
-103.1331
 20
55.2875
 30
0.0
 10
-107.2516
 20
52.6671
 30
0.0
 10
-107.2516
 20
52.6671
 30
0.0
 10
-107.2524
 20
50.1611
 30
0.0
 10
-107.2511
 20
49.4018
 30
0.0
 10
-107.2589
 20
47.3795
 30
0.0
 10
-107.2589
 20
47.3795
 30
0.0
 10
-104.3309
 20
45.281
 30
0.0
 10
-95.5976
 20
42.3874
 30
0.0
 10
-92.0582
 20
42.9867
 30
0.0
 10
-92.0582
 20
42.9867
 30
0.0
 10
-92.2555
 20
47.0937
 30
0.0
 10
-92.1433
 20
53.6933
 30
0.0
 10
-92.0351
 20
57.17
 30
0.0
 10
-92.0351
 20
57.17
 30
0.0
 10
-92.0351
 20
57.17
 30
0.0
 10
-92.0351
 20
57.1701
 30
0.0
 10
-92.0351
 20
57.1701
 30
0.0
  0
SPLINE
  5
4C
330
1F
100
AcDbEntity
  8
layer 1
 62
     7
100
AcDbSpline
210
0.0
220
0.0
230
1.0
 70
    11
 71
     3
 72
    20
 73
    16
 74
     0
 42
0.0000000001
 43
0.0000000001
 12
1.0
 22
0.0
 32
0.0
 13
1.0
 23
0.0
 33
0.0
 40
0.0
 40
0.0
 40
0.0
 40
0.0
 40
0.2
 40
0.2
 40
0.2
 40
0.2
 40
0.4
 40
0.4
 40
0.4
 40
0.4
 40
0.6
 40
0.6
 40
0.6
 40
0.6
 40
1.0
 40
1.0
 40
1.0
 40
1.0
 10
-88.2252
 20
57.0623
 30
0.0
 10
-85.1758
 20
56.9076
 30
0.0
 10
-81.0094
 20
56.4197
 30
0.0
 10
-78.7781
 20
55.4709
 30
0.0
 10
-78.7781
 20
55.4709
 30
0.0
 10
-78.9929
 20
52.3719
 30
0.0
 10
-78.9942
 20
46.8137
 30
0.0
 10
-78.6092
 20
44.5758
 30
0.0
 10
-78.6092
 20
44.5758
 30
0.0
 10
-81.5912
 20
43.5018
 30
0.0
 10
-85.3638
 20
42.8189
 30
0.0
 10
-88.0942
 20
43.1486
 30
0.0
 10
-88.0942
 20
43.1486
 30
0.0
 10
-88.5465
 20
47.4903
 30
0.0
 10
-88.8814
 20
52.469
 30
0.0
 10
-88.2252
 20
57.0623
 30
0.0
  0
SPLINE
  5
4D
330
1F
100
AcDbEntity
  8
layer 1
 62
     7
100
AcDbSpline
210
0.0
220
0.0
230
1.0
 70
    11
 71
     3
 72
    20
 73
    16
 74
     0
 42
0.0000000001
 43
0.0000000001
 12
1.0
 22
0.0
 32
0.0
 13
1.0
 23
0.0
 33
0.0
 40
0.0
 40
0.0
 40
0.0
 40
0.0
 40
0.2
 40
0.2
 40
0.2
 40
0.2
 40
0.4
 40
0.4
 40
0.4
 40
0.4
 40
0.6
 40
0.6
 40
0.6
 40
0.6
 40
1.0
 40
1.0
 40
1.0
 40
1.0
 10
-75.2304
 20
54.0967
 30
0.0
 10
-72.2889
 20
53.1333
 30
0.0
 10
-70.1715
 20
51.9983
 30
0.0
 10
-67.8322
 20
50.0251
 30
0.0
 10
-67.8322
 20
50.0251
 30
0.0
 10
-69.7251
 20
48.4026
 30
0.0
 10
-72.47
 20
46.7887
 30
0.0
 10
-75.2071
 20
46.0604
 30
0.0
 10
-75.2071
 20
46.0604
 30
0.0
 10
-75.3897
 20
48.4609
 30
0.0
 10
-75.4552
 20
51.7141
 30
0.0
 10
-75.2303
 20
54.0968
 30
0.0
 10
-75.2303
 20
54.0968
 30
0.0
 10
-75.2303
 20
54.0968
 30
0.0
 10
-75.2304
 20
54.0967
 30
0.0
 10
-75.2304
 20
54.0967
 30
0.0
  0
SPLINE
  5
4E
330
1F
100
AcDbEntity
  8
layer 1
 62
     7
100
AcDbSpline
210
0.0
220
0.0
230
1.0
 70
    11
 71
     3
 72
    24
 73
    20
 74
     0
 42
0.0000000001
 43
0.0000000001
 12
1.0
 22
0.0
 32
0.0
 13
1.0
 23
0.0
 33
0.0
 40
0.0
 40
0.0
 40
0.0
 40
0.0
 40
0.1666666666666667
 40
0.1666666666666667
 40
0.1666666666666667
 40
0.1666666666666667
 40
0.3333333333333333
 40
0.3333333333333333
 40
0.3333333333333333
 40
0.3333333333333333
 40
0.5
 40
0.5
 40
0.5
 40
0.5
 40
0.6666666666666666
 40
0.6666666666666666
 40
0.6666666666666666
 40
0.6666666666666666
 40
1.0
 40
1.0
 40
1.0
 40
1.0
 10
-110.3836
 20
74.1868
 30
0.0
 10
-112.6424
 20
70.2888
 30
0.0
 10
-114.3022
 20
63.6342
 30
0.0
 10
-114.0922
 20
58.7574
 30
0.0
 10
-114.0922
 20
58.7574
 30
0.0
 10
-111.9225
 20
57.5037
 30
0.0
 10
-111.2642
 20
57.1251
 30
0.0
 10
-109.5167
 20
56.1074
 30
0.0
 10
-109.5167
 20
56.1074
 30
0.0
 10
-106.2353
 20
57.5939
 30
0.0
 10
-99.3628
 20
63.7104
 30
0.0
 10
-98.1121
 20
67.0752
 30
0.0
 10
-98.1121
 20
67.0752
 30
0.0
 10
-101.7675
 20
68.9579
 30
0.0
 10
-107.4267
 20
72.3548
 30
0.0
 10
-110.3836
 20
74.187
 30
0.0
 10
-110.3836
 20
74.187
 30
0.0
 10
-110.3836
 20
74.187
 30
0.0
 10
-110.3836
 20
74.1868
 30
0.0
 10
-110.3836
 20
74.1868
 30
0.0
  0
SPLINE
  5
4F
330
1F
100
AcDbEntity
  8
layer 1
 62
     7
100
AcDbSpline
210
0.0
220
0.0
230
1.0
 70
    11
 71
     3
 72
    24
 73
    20
 74
     0
 42
0.0000000001
 43
0.0000000001
 12
1.0
 22
0.0
 32
0.0
 13
1.0
 23
0.0
 33
0.0
 40
0.0
 40
0.0
 40
0.0
 40
0.0
 40
0.1666666666666667
 40
0.1666666666666667
 40
0.1666666666666667
 40
0.1666666666666667
 40
0.3333333333333333
 40
0.3333333333333333
 40
0.3333333333333333
 40
0.3333333333333333
 40
0.5
 40
0.5
 40
0.5
 40
0.5
 40
0.6666666666666666
 40
0.6666666666666666
 40
0.6666666666666666
 40
0.6666666666666666
 40
1.0
 40
1.0
 40
1.0
 40
1.0
 10
-108.3853
 20
77.4323
 30
0.0
 10
-106.7268
 20
79.9958
 30
0.0
 10
-104.2209
 20
83.3601
 30
0.0
 10
-102.2835
 20
84.8182
 30
0.0
 10
-102.2835
 20
84.8182
 30
0.0
 10
-99.7071
 20
83.0826
 30
0.0
 10
-94.8941
 20
80.3024
 30
0.0
 10
-92.7635
 20
79.5169
 30
0.0
 10
-92.7635
 20
79.5169
 30
0.0
 10
-93.3243
 20
76.3975
 30
0.0
 10
-94.6194
 20
72.7889
 30
0.0
 10
-96.27
 20
70.5891
 30
0.0
 10
-96.27
 20
70.5891
 30
0.0
 10
-100.2562
 20
72.3683
 30
0.0
 10
-104.7353
 20
74.5675
 30
0.0
 10
-108.3851
 20
77.4324
 30
0.0
 10
-108.3851
 20
77.4324
 30
0.0
 10
-108.3851
 20
77.4324
 30
0.0
 10
-108.3853
 20
77.4323
 30
0.0
 10
-108.3853
 20
77.4323
 30
0.0
  0
SPLINE
  5
50
330
1F
100
AcDbEntity
  8
layer 1
 62
     7
100
AcDbSpline
210
0.0
220
0.0
230
1.0
 70
    11
 71
     3
 72
    20
 73
    16
 74
     0
 42
0.0000000001
 43
0.0000000001
 12
1.0
 22
0.0
 32
0.0
 13
1.0
 23
0.0
 33
0.0
 40
0.0
 40
0.0
 40
0.0
 40
0.0
 40
0.2
 40
0.2
 40
0.2
 40
0.2
 40
0.4
 40
0.4
 40
0.4
 40
0.4
 40
0.6
 40
0.6
 40
0.6
 40
0.6
 40
1.0
 40
1.0
 40
1.0
 40
1.0
 10
-99.3195
 20
87.2033
 30
0.0
 10
-97.0145
 20
89.269
 30
0.0
 10
-94.9727
 20
90.5354
 30
0.0
 10
-92.0942
 20
91.5745
 30
0.0
 10
-92.0942
 20
91.5745
 30
0.0
 10
-91.6354
 20
89.124
 30
0.0
 10
-91.6104
 20
85.9399
 30
0.0
 10
-92.3481
 20
83.2053
 30
0.0
 10
-92.3481
 20
83.2053
 30
0.0
 10
-94.5184
 20
84.2473
 30
0.0
 10
-97.3684
 20
85.8174
 30
0.0
 10
-99.3194
 20
87.2034
 30
0.0
 10
-99.3194
 20
87.2034
 30
0.0
 10
-99.3194
 20
87.2034
 30
0.0
 10
-99.3195
 20
87.2033
 30
0.0
 10
-99.3195
 20
87.2033
 30
0.0
  0
SPLINE
  5
51
330
1F
100
AcDbEntity
  8
layer 1
 62
     7
100
AcDbSpline
210
0.0
220
0.0
230
1.0
 70
    11
 71
     3
 72
    24
 73
    20
 74
     0
 42
0.0000000001
 43
0.0000000001
 12
1.0
 22
0.0
 32
0.0
 13
1.0
 23
0.0
 33
0.0
 40
0.0
 40
0.0
 40
0.0
 40
0.0
 40
0.1666666666666667
 40
0.1666666666666667
 40
0.1666666666666667
 40
0.1666666666666667
 40
0.3333333333333333
 40
0.3333333333333333
 40
0.3333333333333333
 40
0.3333333333333333
 40
0.5
 40
0.5
 40
0.5
 40
0.5
 40
0.6666666666666666
 40
0.6666666666666666
 40
0.6666666666666666
 40
0.6666666666666666
 40
1.0
 40
1.0
 40
1.0
 40
1.0
 10
-110.4915
 20
25.614
 30
0.0
 10
-112.7502
 20
29.512
 30
0.0
 10
-114.41
 20
36.1666
 30
0.0
 10
-114.2001
 20
41.0434
 30
0.0
 10
-114.2001
 20
41.0434
 30
0.0
 10
-112.0304
 20
42.2971
 30
0.0
 10
-111.3721
 20
42.6757
 30
0.0
 10
-109.6245
 20
43.6934
 30
0.0
 10
-109.6245
 20
43.6934
 30
0.0
 10
-106.3432
 20
42.2069
 30
0.0
 10
-99.4706
 20
36.0904
 30
0.0
 10
-98.22
 20
32.7256
 30
0.0
 10
-98.22
 20
32.7256
 30
0.0
 10
-101.8754
 20
30.8429
 30
0.0
 10
-107.5346
 20
27.4459
 30
0.0
 10
-110.4915
 20
25.6138
 30
0.0
 10
-110.4915
 20
25.6138
 30
0.0
 10
-110.4915
 20
25.6138
 30
0.0
 10
-110.4915
 20
25.614
 30
0.0
 10
-110.4915
 20
25.614
 30
0.0
  0
SPLINE
  5
52
330
1F
100
AcDbEntity
  8
layer 1
 62
     7
100
AcDbSpline
210
0.0
220
0.0
230
1.0
 70
    11
 71
     3
 72
    24
 73
    20
 74
     0
 42
0.0000000001
 43
0.0000000001
 12
1.0
 22
0.0
 32
0.0
 13
1.0
 23
0.0
 33
0.0
 40
0.0
 40
0.0
 40
0.0
 40
0.0
 40
0.1666666666666667
 40
0.1666666666666667
 40
0.1666666666666667
 40
0.1666666666666667
 40
0.3333333333333333
 40
0.3333333333333333
 40
0.3333333333333333
 40
0.3333333333333333
 40
0.5
 40
0.5
 40
0.5
 40
0.5
 40
0.6666666666666666
 40
0.6666666666666666
 40
0.6666666666666666
 40
0.6666666666666666
 40
1.0
 40
1.0
 40
1.0
 40
1.0
 10
-108.4931
 20
22.3683
 30
0.0
 10
-106.8346
 20
19.8048
 30
0.0
 10
-104.3288
 20
16.4405
 30
0.0
 10
-102.3914
 20
14.9825
 30
0.0
 10
-102.3914
 20
14.9825
 30
0.0
 10
-99.815
 20
16.718
 30
0.0
 10
-95.002
 20
19.4982
 30
0.0
 10
-92.8713
 20
20.2837
 30
0.0
 10
-92.8713
 20
20.2837
 30
0.0
 10
-93.4322
 20
23.4031
 30
0.0
 10
-94.7272
 20
27.0117
 30
0.0
 10
-96.3779
 20
29.2115
 30
0.0
 10
-96.3779
 20
29.2115
 30
0.0
 10
-100.3641
 20
27.4323
 30
0.0
 10
-104.8432
 20
25.2332
 30
0.0
 10
-108.493
 20
22.3682
 30
0.0
 10
-108.493
 20
22.3682
 30
0.0
 10
-108.493
 20
22.3682
 30
0.0
 10
-108.4931
 20
22.3683
 30
0.0
 10
-108.4931
 20
22.3683
 30
0.0
  0
SPLINE
  5
53
330
1F
100
AcDbEntity
  8
layer 1
 62
     7
100
AcDbSpline
210
0.0
220
0.0
230
1.0
 70
    11
 71
     3
 72
    20
 73
    16
 74
     0
 42
0.0000000001
 43
0.0000000001
 12
1.0
 22
0.0
 32
0.0
 13
1.0
 23
0.0
 33
0.0
 40
0.0
 40
0.0
 40
0.0
 40
0.0
 40
0.2
 40
0.2
 40
0.2
 40
0.2
 40
0.4
 40
0.4
 40
0.4
 40
0.4
 40
0.6
 40
0.6
 40
0.6
 40
0.6
 40
1.0
 40
1.0
 40
1.0
 40
1.0
 10
-99.4274
 20
12.5974
 30
0.0
 10
-97.1223
 20
10.5317
 30
0.0
 10
-95.0806
 20
9.2652
 30
0.0
 10
-92.2021
 20
8.2261
 30
0.0
 10
-92.2021
 20
8.2261
 30
0.0
 10
-91.7433
 20
10.6767
 30
0.0
 10
-91.7182
 20
13.8607
 30
0.0
 10
-92.4559
 20
16.5953
 30
0.0
 10
-92.4559
 20
16.5953
 30
0.0
 10
-94.6263
 20
15.5533
 30
0.0
 10
-97.4763
 20
13.9832
 30
0.0
 10
-99.4272
 20
12.5972
 30
0.0
 10
-99.4272
 20
12.5972
 30
0.0
 10
-99.4272
 20
12.5972
 30
0.0
 10
-99.4274
 20
12.5974
 30
0.0
 10
-99.4274
 20
12.5974
 30
0.0
  0
SPLINE
  5
54
330
1F
100
AcDbEntity
  8
layer 1
 62
     7
100
AcDbSpline
210
0.0
220
0.0
230
1.0
 70
    11
 71
     3
 72
    20
 73
    16
 74
     0
 42
0.0000000001
 43
0.0000000001
 12
1.0
 22
0.0
 32
0.0
 13
1.0
 23
0.0
 33
0.0
 40
0.0
 40
0.0
 40
0.0
 40
0.0
 40
0.2
 40
0.2
 40
0.2
 40
0.2
 40
0.4
 40
0.4
 40
0.4
 40
0.4
 40
0.6
 40
0.6
 40
0.6
 40
0.6
 40
1.0
 40
1.0
 40
1.0
 40
1.0
 10
-112.9375
 20
97.77
 30
0.0
 10
-113.886
 20
99.561
 30
0.0
 10
-115.1735
 20
102.3052
 30
0.0
 10
-115.9634
 20
104.2925
 30
0.0
 10
-115.9634
 20
104.2925
 30
0.0
 10
-116.7535
 20
102.3052
 30
0.0
 10
-118.0408
 20
99.561
 30
0.0
 10
-118.9893
 20
97.77
 30
0.0
 10
-118.9893
 20
97.77
 30
0.0
 10
-117.8262
 20
96.9185
 30
0.0
 10
-116.8276
 20
96.1605
 30
0.0
 10
-115.9634
 20
95.4132
 30
0.0
 10
-115.9634
 20
95.4132
 30
0.0
 10
-115.0992
 20
96.2042
 30
0.0
 10
-114.1006
 20
97.0059
 30
0.0
 10
-112.9375
 20
97.77
 30
0.0
  0
SPLINE
  5
55
330
1F
100
AcDbEntity
  8
layer 1
 62
     7
100
AcDbSpline
210
0.0
220
0.0
230
1.0
 70
    11
 71
     3
 72
    36
 73
    32
 74
     0
 42
0.0000000001
 43
0.0000000001
 12
1.0
 22
0.0
 32
0.0
 13
1.0
 23
0.0
 33
0.0
 40
0.0
 40
0.0
 40
0.0
 40
0.0
 40
0.1111111111111111
 40
0.1111111111111111
 40
0.1111111111111111
 40
0.1111111111111111
 40
0.2222222222222222
 40
0.2222222222222222
 40
0.2222222222222222
 40
0.2222222222222222
 40
0.3333333333333333
 40
0.3333333333333333
 40
0.3333333333333333
 40
0.3333333333333333
 40
0.4444444444444444
 40
0.4444444444444444
 40
0.4444444444444444
 40
0.4444444444444444
 40
0.5555555555555556
 40
0.5555555555555556
 40
0.5555555555555556
 40
0.5555555555555556
 40
0.6666666666666666
 40
0.6666666666666666
 40
0.6666666666666666
 40
0.6666666666666666
 40
0.7777777777777778
 40
0.7777777777777778
 40
0.7777777777777778
 40
0.7777777777777778
 40
1.0
 40
1.0
 40
1.0
 40
1.0
 10
-120.9764
 20
94.3983
 30
0.0
 10
-122.4261
 20
92.3231
 30
0.0
 10
-125.7363
 20
88.5235
 30
0.0
 10
-127.0804
 20
87.0404
 30
0.0
 10
-127.0804
 20
87.0404
 30
0.0
 10
-125.2132
 20
85.4851
 30
0.0
 10
-121.7065
 20
81.2108
 30
0.0
 10
-121.0203
 20
79.9344
 30
0.0
 10
-121.0203
 20
79.9344
 30
0.0
 10
-119.8062
 20
81.1668
 30
0.0
 10
-117.311
 20
83.4183
 30
0.0
 10
-115.9716
 20
84.8416
 30
0.0
 10
-115.9716
 20
84.8416
 30
0.0
 10
-114.6322
 20
83.4183
 30
0.0
 10
-112.1368
 20
81.1666
 30
0.0
 10
-110.9229
 20
79.9344
 30
0.0
 10
-110.9229
 20
79.9344
 30
0.0
 10
-110.2367
 20
81.2107
 30
0.0
 10
-106.73
 20
85.4851
 30
0.0
 10
-104.8628
 20
87.0404
 30
0.0
 10
-104.8628
 20
87.0404
 30
0.0
 10
-106.207
 20
88.5235
 30
0.0
 10
-109.5173
 20
92.3231
 30
0.0
 10
-110.9668
 20
94.3983
 30
0.0
 10
-110.9668
 20
94.3983
 30
0.0
 10
-112.8562
 20
92.4111
 30
0.0
 10
-114.7594
 20
90.4145
 30
0.0
 10
-115.9716
 20
89.371
 30
0.0
 10
-115.9716
 20
89.371
 30
0.0
 10
-117.1839
 20
90.4145
 30
0.0
 10
-119.0869
 20
92.4111
 30
0.0
 10
-120.9764
 20
94.3983
 30
0.0
  0
SPLINE
  5
56
330
1F
100
AcDbEntity
  8
layer 1
 62
     7
100
AcDbSpline
210
0.0
220
0.0
230
1.0
 70
    11
 71
     3
 72
    20
 73
    16
 74
     0
 42
0.0000000001
 43
0.0000000001
 12
1.0
 22
0.0
 32
0.0
 13
1.0
 23
0.0
 33
0.0
 40
0.0
 40
0.0
 40
0.0
 40
0.0
 40
0.2
 40
0.2
 40
0.2
 40
0.2
 40
0.4
 40
0.4
 40
0.4
 40
0.4
 40
0.6
 40
0.6
 40
0.6
 40
0.6
 40
1.0
 40
1.0
 40
1.0
 40
1.0
 10
-112.9375
 20
77.0024
 30
0.0
 10
-114.1921
 20
75.2989
 30
0.0
 10
-115.1735
 20
72.4672
 30
0.0
 10
-115.9634
 20
70.48
 30
0.0
 10
-115.9634
 20
70.48
 30
0.0
 10
-116.7535
 20
72.4672
 30
0.0
 10
-118.0408
 20
75.2115
 30
0.0
 10
-118.9893
 20
77.0024
 30
0.0
 10
-118.9893
 20
77.0024
 30
0.0
 10
-117.6513
 20
77.7665
 30
0.0
 10
-116.9151
 20
78.3933
 30
0.0
 10
-115.9634
 20
79.3592
 30
0.0
 10
-115.9634
 20
79.3592
 30
0.0
 10
-115.0555
 20
78.437
 30
0.0
 10
-114.0131
 20
77.5916
 30
0.0
 10
-112.9375
 20
77.0024
 30
0.0
  0
SPLINE
  5
57
330
1F
100
AcDbEntity
  8
layer 1
 62
     7
100
AcDbSpline
210
0.0
220
0.0
230
1.0
 70
    11
 71
     3
 72
    20
 73
    16
 74
     0
 42
0.0000000001
 43
0.0000000001
 12
1.0
 22
0.0
 32
0.0
 13
1.0
 23
0.0
 33
0.0
 40
0.0
 40
0.0
 40
0.0
 40
0.0
 40
0.2
 40
0.2
 40
0.2
 40
0.2
 40
0.4
 40
0.4
 40
0.4
 40
0.4
 40
0.6
 40
0.6
 40
0.6
 40
0.6
 40
1.0
 40
1.0
 40
1.0
 40
1.0
 10
-112.9292
 20
-51.3396
 30
0.0
 10
-113.8776
 20
-49.5486
 30
0.0
 10
-115.1651
 20
-46.8044
 30
0.0
 10
-115.955
 20
-44.8171
 30
0.0
 10
-115.955
 20
-44.8171
 30
0.0
 10
-116.7452
 20
-46.8044
 30
0.0
 10
-118.0325
 20
-49.5486
 30
0.0
 10
-118.9809
 20
-51.3396
 30
0.0
 10
-118.9809
 20
-51.3396
 30
0.0
 10
-117.9053
 20
-52.1474
 30
0.0
 10
-117.1691
 20
-53.1677
 30
0.0
 10
-115.955
 20
-53.6964
 30
0.0
 10
-115.955
 20
-53.6964
 30
0.0
 10
-114.741
 20
-53.1677
 30
0.0
 10
-114.0048
 20
-52.1474
 30
0.0
 10
-112.9292
 20
-51.3396
 30
0.0
  0
SPLINE
  5
58
330
1F
100
AcDbEntity
  8
layer 1
 62
     7
100
AcDbSpline
210
0.0
220
0.0
230
1.0
 70
    11
 71
     3
 72
    36
 73
    32
 74
     0
 42
0.0000000001
 43
0.0000000001
 12
1.0
 22
0.0
 32
0.0
 13
1.0
 23
0.0
 33
0.0
 40
0.0
 40
0.0
 40
0.0
 40
0.0
 40
0.1111111111111111
 40
0.1111111111111111
 40
0.1111111111111111
 40
0.1111111111111111
 40
0.2222222222222222
 40
0.2222222222222222
 40
0.2222222222222222
 40
0.2222222222222222
 40
0.3333333333333333
 40
0.3333333333333333
 40
0.3333333333333333
 40
0.3333333333333333
 40
0.4444444444444444
 40
0.4444444444444444
 40
0.4444444444444444
 40
0.4444444444444444
 40
0.5555555555555556
 40
0.5555555555555556
 40
0.5555555555555556
 40
0.5555555555555556
 40
0.6666666666666666
 40
0.6666666666666666
 40
0.6666666666666666
 40
0.6666666666666666
 40
0.7777777777777778
 40
0.7777777777777778
 40
0.7777777777777778
 40
0.7777777777777778
 40
1.0
 40
1.0
 40
1.0
 40
1.0
 10
-120.968
 20
-54.7113
 30
0.0
 10
-122.4177
 20
-56.7864
 30
0.0
 10
-125.728
 20
-60.586
 30
0.0
 10
-127.072
 20
-62.0692
 30
0.0
 10
-127.072
 20
-62.0692
 30
0.0
 10
-125.2049
 20
-63.6245
 30
0.0
 10
-121.6982
 20
-67.8988
 30
0.0
 10
-121.0119
 20
-69.1752
 30
0.0
 10
-121.0119
 20
-69.1752
 30
0.0
 10
-119.7979
 20
-67.9428
 30
0.0
 10
-117.3027
 20
-65.6913
 30
0.0
 10
-115.9632
 20
-64.268
 30
0.0
 10
-115.9632
 20
-64.268
 30
0.0
 10
-114.6238
 20
-65.6913
 30
0.0
 10
-112.1284
 20
-67.943
 30
0.0
 10
-110.9146
 20
-69.1752
 30
0.0
 10
-110.9146
 20
-69.1752
 30
0.0
 10
-110.2283
 20
-67.8989
 30
0.0
 10
-106.7216
 20
-63.6245
 30
0.0
 10
-104.8545
 20
-62.0692
 30
0.0
 10
-104.8545
 20
-62.0692
 30
0.0
 10
-106.1987
 20
-60.586
 30
0.0
 10
-109.5089
 20
-56.7864
 30
0.0
 10
-110.9585
 20
-54.7113
 30
0.0
 10
-110.9585
 20
-54.7113
 30
0.0
 10
-112.8478
 20
-56.6985
 30
0.0
 10
-114.751
 20
-58.6951
 30
0.0
 10
-115.9632
 20
-59.7385
 30
0.0
 10
-115.9632
 20
-59.7385
 30
0.0
 10
-117.1755
 20
-58.6951
 30
0.0
 10
-119.0785
 20
-56.6985
 30
0.0
 10
-120.968
 20
-54.7113
 30
0.0
  0
SPLINE
  5
59
330
1F
100
AcDbEntity
  8
layer 1
 62
     7
100
AcDbSpline
210
0.0
220
0.0
230
1.0
 70
    11
 71
     3
 72
    20
 73
    16
 74
     0
 42
0.0000000001
 43
0.0000000001
 12
1.0
 22
0.0
 32
0.0
 13
1.0
 23
0.0
 33
0.0
 40
0.0
 40
0.0
 40
0.0
 40
0.0
 40
0.2
 40
0.2
 40
0.2
 40
0.2
 40
0.4
 40
0.4
 40
0.4
 40
0.4
 40
0.6
 40
0.6
 40
0.6
 40
0.6
 40
1.0
 40
1.0
 40
1.0
 40
1.0
 10
-112.9292
 20
-72.1072
 30
0.0
 10
-113.8776
 20
-73.8981
 30
0.0
 10
-115.1651
 20
-76.6424
 30
0.0
 10
-115.955
 20
-78.6296
 30
0.0
 10
-115.955
 20
-78.6296
 30
0.0
 10
-116.7452
 20
-76.6424
 30
0.0
 10
-118.0325
 20
-73.8981
 30
0.0
 10
-118.9809
 20
-72.1072
 30
0.0
 10
-118.9809
 20
-72.1072
 30
0.0
 10
-117.9053
 20
-71.2994
 30
0.0
 10
-117.1691
 20
-70.2791
 30
0.0
 10
-115.955
 20
-69.7503
 30
0.0
 10
-115.955
 20
-69.7503
 30
0.0
 10
-114.741
 20
-70.2791
 30
0.0
 10
-114.0048
 20
-71.2994
 30
0.0
 10
-112.9292
 20
-72.1072
 30
0.0
  0
SPLINE
  5
5A
330
1F
100
AcDbEntity
  8
layer 1
 62
     7
100
AcDbSpline
210
0.0
220
0.0
230
1.0
 70
    11
 71
     3
 72
    24
 73
    20
 74
     0
 42
0.0000000001
 43
0.0000000001
 12
1.0
 22
0.0
 32
0.0
 13
1.0
 23
0.0
 33
0.0
 40
0.0
 40
0.0
 40
0.0
 40
0.0
 40
0.1666666666666667
 40
0.1666666666666667
 40
0.1666666666666667
 40
0.1666666666666667
 40
0.3333333333333333
 40
0.3333333333333333
 40
0.3333333333333333
 40
0.3333333333333333
 40
0.5
 40
0.5
 40
0.5
 40
0.5
 40
0.6666666666666666
 40
0.6666666666666666
 40
0.6666666666666666
 40
0.6666666666666666
 40
1.0
 40
1.0
 40
1.0
 40
1.0
 10
-75.3041
 20
19.5391
 30
0.0
 10
-70.7989
 20
19.5463
 30
0.0
 10
-64.206
 20
17.6565
 30
0.0
 10
-60.0875
 20
15.036
 30
0.0
 10
-60.0875
 20
15.036
 30
0.0
 10
-60.0867
 20
12.53
 30
0.0
 10
-60.088
 20
11.7708
 30
0.0
 10
-60.0803
 20
9.7485
 30
0.0
 10
-60.0803
 20
9.7485
 30
0.0
 10
-63.0083
 20
7.65
 30
0.0
 10
-71.7416
 20
4.7564
 30
0.0
 10
-75.2809
 20
5.3557
 30
0.0
 10
-75.2809
 20
5.3557
 30
0.0
 10
-75.0837
 20
9.4626
 30
0.0
 10
-75.1959
 20
16.0623
 30
0.0
 10
-75.3041
 20
19.5389
 30
0.0
 10
-75.3041
 20
19.5389
 30
0.0
 10
-75.3041
 20
19.5389
 30
0.0
 10
-75.3041
 20
19.5391
 30
0.0
 10
-75.3041
 20
19.5391
 30
0.0
  0
SPLINE
  5
5B
330
1F
100
AcDbEntity
  8
layer 1
 62
     7
100
AcDbSpline
210
0.0
220
0.0
230
1.0
 70
    11
 71
     3
 72
    20
 73
    16
 74
     0
 42
0.0000000001
 43
0.0000000001
 12
1.0
 22
0.0
 32
0.0
 13
1.0
 23
0.0
 33
0.0
 40
0.0
 40
0.0
 40
0.0
 40
0.0
 40
0.2
 40
0.2
 40
0.2
 40
0.2
 40
0.4
 40
0.4
 40
0.4
 40
0.4
 40
0.6
 40
0.6
 40
0.6
 40
0.6
 40
1.0
 40
1.0
 40
1.0
 40
1.0
 10
-79.1141
 20
19.4312
 30
0.0
 10
-82.1635
 20
19.2766
 30
0.0
 10
-86.3299
 20
18.7887
 30
0.0
 10
-88.5612
 20
17.8399
 30
0.0
 10
-88.5612
 20
17.8399
 30
0.0
 10
-88.3464
 20
14.7409
 30
0.0
 10
-88.3451
 20
9.1826
 30
0.0
 10
-88.7301
 20
6.9447
 30
0.0
 10
-88.7301
 20
6.9447
 30
0.0
 10
-85.7481
 20
5.8707
 30
0.0
 10
-81.9755
 20
5.1879
 30
0.0
 10
-79.2451
 20
5.5176
 30
0.0
 10
-79.2451
 20
5.5176
 30
0.0
 10
-78.7928
 20
9.8592
 30
0.0
 10
-78.4579
 20
14.838
 30
0.0
 10
-79.1141
 20
19.4312
 30
0.0
  0
SPLINE
  5
5C
330
1F
100
AcDbEntity
  8
layer 1
 62
     7
100
AcDbSpline
210
0.0
220
0.0
230
1.0
 70
    11
 71
     3
 72
    24
 73
    20
 74
     0
 42
0.0000000001
 43
0.0000000001
 12
1.0
 22
0.0
 32
0.0
 13
1.0
 23
0.0
 33
0.0
 40
0.0
 40
0.0
 40
0.0
 40
0.0
 40
0.1666666666666667
 40
0.1666666666666667
 40
0.1666666666666667
 40
0.1666666666666667
 40
0.3333333333333333
 40
0.3333333333333333
 40
0.3333333333333333
 40
0.3333333333333333
 40
0.5
 40
0.5
 40
0.5
 40
0.5
 40
0.6666666666666666
 40
0.6666666666666666
 40
0.6666666666666666
 40
0.6666666666666666
 40
1.0
 40
1.0
 40
1.0
 40
1.0
 10
-157.1738
 20
19.5391
 30
0.0
 10
-161.679
 20
19.5463
 30
0.0
 10
-168.2718
 20
17.6565
 30
0.0
 10
-172.3904
 20
15.036
 30
0.0
 10
-172.3904
 20
15.036
 30
0.0
 10
-172.3912
 20
12.53
 30
0.0
 10
-172.3899
 20
11.7708
 30
0.0
 10
-172.3976
 20
9.7485
 30
0.0
 10
-172.3976
 20
9.7485
 30
0.0
 10
-169.4696
 20
7.65
 30
0.0
 10
-160.7363
 20
4.7564
 30
0.0
 10
-157.197
 20
5.3557
 30
0.0
 10
-157.197
 20
5.3557
 30
0.0
 10
-157.3942
 20
9.4626
 30
0.0
 10
-157.282
 20
16.0623
 30
0.0
 10
-157.1738
 20
19.5389
 30
0.0
 10
-157.1738
 20
19.5389
 30
0.0
 10
-157.1738
 20
19.5389
 30
0.0
 10
-157.1738
 20
19.5391
 30
0.0
 10
-157.1738
 20
19.5391
 30
0.0
  0
SPLINE
  5
5D
330
1F
100
AcDbEntity
  8
layer 1
 62
     7
100
AcDbSpline
210
0.0
220
0.0
230
1.0
 70
    11
 71
     3
 72
    20
 73
    16
 74
     0
 42
0.0000000001
 43
0.0000000001
 12
1.0
 22
0.0
 32
0.0
 13
1.0
 23
0.0
 33
0.0
 40
0.0
 40
0.0
 40
0.0
 40
0.0
 40
0.2
 40
0.2
 40
0.2
 40
0.2
 40
0.4
 40
0.4
 40
0.4
 40
0.4
 40
0.6
 40
0.6
 40
0.6
 40
0.6
 40
1.0
 40
1.0
 40
1.0
 40
1.0
 10
-153.3639
 20
19.4312
 30
0.0
 10
-150.3146
 20
19.2766
 30
0.0
 10
-146.1481
 20
18.7887
 30
0.0
 10
-143.9169
 20
17.8399
 30
0.0
 10
-143.9169
 20
17.8399
 30
0.0
 10
-144.1316
 20
14.7409
 30
0.0
 10
-144.1329
 20
9.1826
 30
0.0
 10
-143.7479
 20
6.9447
 30
0.0
 10
-143.7479
 20
6.9447
 30
0.0
 10
-146.7299
 20
5.8707
 30
0.0
 10
-150.5025
 20
5.1879
 30
0.0
 10
-153.2329
 20
5.5176
 30
0.0
 10
-153.2329
 20
5.5176
 30
0.0
 10
-153.6853
 20
9.8592
 30
0.0
 10
-154.0201
 20
14.838
 30
0.0
 10
-153.3639
 20
19.4312
 30
0.0
  0
SPLINE
  5
5E
330
1F
100
AcDbEntity
  8
layer 1
 62
     7
100
AcDbSpline
210
0.0
220
0.0
230
1.0
 70
    11
 71
     3
 72
    20
 73
    16
 74
     0
 42
0.0000000001
 43
0.0000000001
 12
1.0
 22
0.0
 32
0.0
 13
1.0
 23
0.0
 33
0.0
 40
0.0
 40
0.0
 40
0.0
 40
0.0
 40
0.2
 40
0.2
 40
0.2
 40
0.2
 40
0.4
 40
0.4
 40
0.4
 40
0.4
 40
0.6
 40
0.6
 40
0.6
 40
0.6
 40
1.0
 40
1.0
 40
1.0
 40
1.0
 10
-73.0868
 20
71.3993
 30
0.0
 10
-72.01
 20
73.1162
 30
0.0
 10
-70.2771
 20
75.6032
 30
0.0
 10
-68.9512
 20
77.281
 30
0.0
 10
-68.9512
 20
77.281
 30
0.0
 10
-71.0672
 20
76.9716
 30
0.0
 10
-74.0875
 20
76.7145
 30
0.0
 10
-76.1127
 20
76.6404
 30
0.0
 10
-76.1127
 20
76.6404
 30
0.0
 10
-76.2686
 20
75.2074
 30
0.0
 10
-76.4256
 20
73.9635
 30
0.0
 10
-76.6407
 20
72.8414
 30
0.0
 10
-76.6407
 20
72.8414
 30
0.0
 10
-75.5235
 20
72.4886
 30
0.0
 10
-74.3299
 20
72.0245
 30
0.0
 10
-73.0868
 20
71.3993
 30
0.0
  0
SPLINE
  5
5F
330
1F
100
AcDbEntity
  8
layer 1
 62
     7
100
AcDbSpline
210
0.0
220
0.0
230
1.0
 70
    11
 71
     3
 72
    40
 73
    36
 74
     0
 42
0.0000000001
 43
0.0000000001
 12
1.0
 22
0.0
 32
0.0
 13
1.0
 23
0.0
 33
0.0
 40
0.0
 40
0.0
 40
0.0
 40
0.0
 40
0.1
 40
0.1
 40
0.1
 40
0.1
 40
0.2
 40
0.2
 40
0.2
 40
0.2
 40
0.3
 40
0.3
 40
0.3
 40
0.3
 40
0.4
 40
0.4
 40
0.4
 40
0.4
 40
0.5
 40
0.5
 40
0.5
 40
0.5
 40
0.6
 40
0.6
 40
0.6
 40
0.6
 40
0.7
 40
0.7
 40
0.7
 40
0.7
 40
0.8
 40
0.8
 40
0.8
 40
0.8
 40
1.0
 40
1.0
 40
1.0
 40
1.0
 10
-80.0262
 20
76.6753
 30
0.0
 10
-82.5481
 20
76.8931
 30
0.0
 10
-87.4938
 20
77.86
 30
0.0
 10
-89.4503
 20
78.2827
 30
0.0
 10
-89.4503
 20
78.2827
 30
0.0
 10
-89.8638
 20
75.8881
 30
0.0
 10
-91.8119
 20
70.714
 30
0.0
 10
-92.5742
 20
69.4815
 30
0.0
 10
-92.5742
 20
69.4815
 30
0.0
 10
-90.9
 20
69.0464
 30
0.0
 10
-87.7024
 20
68.0111
 30
0.0
 10
-85.8
 20
67.5629
 30
0.0
 10
-85.8
 20
67.5629
 30
0.0
 10
-86.363
 20
65.6912
 30
0.0
 10
-87.0653
 20
62.4045
 30
0.0
 10
-87.5254
 20
60.7369
 30
0.0
 10
-87.5254
 20
60.7369
 30
0.0
 10
-86.077
 20
60.7807
 30
0.0
 10
-80.622
 20
59.8809
 30
0.0
 10
-78.3415
 20
59.0418
 30
0.0
 10
-78.3415
 20
59.0418
 30
0.0
 10
-77.7292
 20
60.9475
 30
0.0
 10
-76.0937
 20
65.7141
 30
0.0
 10
-75.0214
 20
68.0071
 30
0.0
 10
-75.0214
 20
68.0071
 30
0.0
 10
-77.6871
 20
68.6498
 30
0.0
 10
-80.3678
 20
69.2995
 30
0.0
 10
-81.8776
 20
69.8276
 30
0.0
 10
-81.8776
 20
69.8276
 30
0.0
 10
-81.5801
 20
71.3992
 30
0.0
 10
-80.8025
 20
74.0457
 30
0.0
 10
-80.0262
 20
76.6754
 30
0.0
 10
-80.0262
 20
76.6754
 30
0.0
 10
-80.0262
 20
76.6754
 30
0.0
 10
-80.0262
 20
76.6753
 30
0.0
 10
-80.0262
 20
76.6753
 30
0.0
  0
SPLINE
  5
60
330
1F
100
AcDbEntity
  8
layer 1
 62
     7
100
AcDbSpline
210
0.0
220
0.0
230
1.0
 70
    11
 71
     3
 72
    20
 73
    16
 74
     0
 42
0.0000000001
 43
0.0000000001
 12
1.0
 22
0.0
 32
0.0
 13
1.0
 23
0.0
 33
0.0
 40
0.0
 40
0.0
 40
0.0
 40
0.0
 40
0.2
 40
0.2
 40
0.2
 40
0.2
 40
0.4
 40
0.4
 40
0.4
 40
0.4
 40
0.6
 40
0.6
 40
0.6
 40
0.6
 40
1.0
 40
1.0
 40
1.0
 40
1.0
 10
-91.072
 20
61.0155
 30
0.0
 10
-93.1745
 20
61.2502
 30
0.0
 10
-96.1176
 20
60.6842
 30
0.0
 10
-98.2335
 20
60.3749
 30
0.0
 10
-98.2335
 20
60.3749
 30
0.0
 10
-96.9076
 20
62.0527
 30
0.0
 10
-95.1746
 20
64.5398
 30
0.0
 10
-94.0979
 20
66.2566
 30
0.0
 10
-94.0979
 20
66.2566
 30
0.0
 10
-92.7673
 20
65.48
 30
0.0
 10
-91.8563
 20
65.1556
 30
0.0
 10
-90.5439
 20
64.8145
 30
0.0
 10
-90.5439
 20
64.8145
 30
0.0
 10
-90.8886
 20
63.567
 30
0.0
 10
-91.0995
 20
62.2416
 30
0.0
 10
-91.072
 20
61.0155
 30
0.0
  0
SPLINE
  5
61
330
1F
100
AcDbEntity
  8
layer 1
 62
     7
100
AcDbSpline
210
0.0
220
0.0
230
1.0
 70
    11
 71
     3
 72
    20
 73
    16
 74
     0
 42
0.0000000001
 43
0.0000000001
 12
1.0
 22
0.0
 32
0.0
 13
1.0
 23
0.0
 33
0.0
 40
0.0
 40
0.0
 40
0.0
 40
0.0
 40
0.2
 40
0.2
 40
0.2
 40
0.2
 40
0.4
 40
0.4
 40
0.4
 40
0.4
 40
0.6
 40
0.6
 40
0.6
 40
0.6
 40
1.0
 40
1.0
 40
1.0
 40
1.0
 10
-159.2183
 20
71.3993
 30
0.0
 10
-160.295
 20
73.1162
 30
0.0
 10
-162.028
 20
75.6032
 30
0.0
 10
-163.3539
 20
77.281
 30
0.0
 10
-163.3539
 20
77.281
 30
0.0
 10
-161.2379
 20
76.9716
 30
0.0
 10
-158.2176
 20
76.7145
 30
0.0
 10
-156.1924
 20
76.6404
 30
0.0
 10
-156.1924
 20
76.6404
 30
0.0
 10
-156.0365
 20
75.2074
 30
0.0
 10
-155.8794
 20
73.9635
 30
0.0
 10
-155.6643
 20
72.8414
 30
0.0
 10
-155.6643
 20
72.8414
 30
0.0
 10
-156.7816
 20
72.4886
 30
0.0
 10
-157.9752
 20
72.0245
 30
0.0
 10
-159.2183
 20
71.3993
 30
0.0
  0
SPLINE
  5
62
330
1F
100
AcDbEntity
  8
layer 1
 62
     7
100
AcDbSpline
210
0.0
220
0.0
230
1.0
 70
    11
 71
     3
 72
    40
 73
    36
 74
     0
 42
0.0000000001
 43
0.0000000001
 12
1.0
 22
0.0
 32
0.0
 13
1.0
 23
0.0
 33
0.0
 40
0.0
 40
0.0
 40
0.0
 40
0.0
 40
0.1
 40
0.1
 40
0.1
 40
0.1
 40
0.2
 40
0.2
 40
0.2
 40
0.2
 40
0.3
 40
0.3
 40
0.3
 40
0.3
 40
0.4
 40
0.4
 40
0.4
 40
0.4
 40
0.5
 40
0.5
 40
0.5
 40
0.5
 40
0.6
 40
0.6
 40
0.6
 40
0.6
 40
0.7
 40
0.7
 40
0.7
 40
0.7
 40
0.8
 40
0.8
 40
0.8
 40
0.8
 40
1.0
 40
1.0
 40
1.0
 40
1.0
 10
-152.2788
 20
76.6753
 30
0.0
 10
-149.7569
 20
76.8931
 30
0.0
 10
-144.8113
 20
77.86
 30
0.0
 10
-142.8548
 20
78.2827
 30
0.0
 10
-142.8548
 20
78.2827
 30
0.0
 10
-142.4413
 20
75.8881
 30
0.0
 10
-140.4931
 20
70.714
 30
0.0
 10
-139.7308
 20
69.4815
 30
0.0
 10
-139.7308
 20
69.4815
 30
0.0
 10
-141.4051
 20
69.0464
 30
0.0
 10
-144.6027
 20
68.0111
 30
0.0
 10
-146.505
 20
67.5629
 30
0.0
 10
-146.505
 20
67.5629
 30
0.0
 10
-145.9421
 20
65.6912
 30
0.0
 10
-145.2397
 20
62.4045
 30
0.0
 10
-144.7796
 20
60.7369
 30
0.0
 10
-144.7796
 20
60.7369
 30
0.0
 10
-146.228
 20
60.7807
 30
0.0
 10
-151.6831
 20
59.8809
 30
0.0
 10
-153.9636
 20
59.0418
 30
0.0
 10
-153.9636
 20
59.0418
 30
0.0
 10
-154.5759
 20
60.9475
 30
0.0
 10
-156.2114
 20
65.7141
 30
0.0
 10
-157.2836
 20
68.0071
 30
0.0
 10
-157.2836
 20
68.0071
 30
0.0
 10
-154.618
 20
68.6498
 30
0.0
 10
-151.9372
 20
69.2995
 30
0.0
 10
-150.4274
 20
69.8276
 30
0.0
 10
-150.4274
 20
69.8276
 30
0.0
 10
-150.725
 20
71.3992
 30
0.0
 10
-151.5026
 20
74.0457
 30
0.0
 10
-152.2788
 20
76.6754
 30
0.0
 10
-152.2788
 20
76.6754
 30
0.0
 10
-152.2788
 20
76.6754
 30
0.0
 10
-152.2788
 20
76.6753
 30
0.0
 10
-152.2788
 20
76.6753
 30
0.0
  0
SPLINE
  5
63
330
1F
100
AcDbEntity
  8
layer 1
 62
     7
100
AcDbSpline
210
0.0
220
0.0
230
1.0
 70
    11
 71
     3
 72
    20
 73
    16
 74
     0
 42
0.0000000001
 43
0.0000000001
 12
1.0
 22
0.0
 32
0.0
 13
1.0
 23
0.0
 33
0.0
 40
0.0
 40
0.0
 40
0.0
 40
0.0
 40
0.2
 40
0.2
 40
0.2
 40
0.2
 40
0.4
 40
0.4
 40
0.4
 40
0.4
 40
0.6
 40
0.6
 40
0.6
 40
0.6
 40
1.0
 40
1.0
 40
1.0
 40
1.0
 10
-141.2331
 20
61.0155
 30
0.0
 10
-139.1306
 20
61.2502
 30
0.0
 10
-136.1875
 20
60.6842
 30
0.0
 10
-134.0716
 20
60.3749
 30
0.0
 10
-134.0716
 20
60.3749
 30
0.0
 10
-135.3975
 20
62.0527
 30
0.0
 10
-137.1305
 20
64.5398
 30
0.0
 10
-138.2072
 20
66.2566
 30
0.0
 10
-138.2072
 20
66.2566
 30
0.0
 10
-139.5378
 20
65.48
 30
0.0
 10
-140.4488
 20
65.1556
 30
0.0
 10
-141.7612
 20
64.8145
 30
0.0
 10
-141.7612
 20
64.8145
 30
0.0
 10
-141.4165
 20
63.567
 30
0.0
 10
-141.2056
 20
62.2416
 30
0.0
 10
-141.2331
 20
61.0155
 30
0.0
  0
SPLINE
  5
64
330
1F
100
AcDbEntity
  8
layer 1
 62
     7
100
AcDbSpline
210
0.0
220
0.0
230
1.0
 70
    11
 71
     3
 72
    20
 73
    16
 74
     0
 42
0.0000000001
 43
0.0000000001
 12
1.0
 22
0.0
 32
0.0
 13
1.0
 23
0.0
 33
0.0
 40
0.0
 40
0.0
 40
0.0
 40
0.0
 40
0.2
 40
0.2
 40
0.2
 40
0.2
 40
0.4
 40
0.4
 40
0.4
 40
0.4
 40
0.6
 40
0.6
 40
0.6
 40
0.6
 40
1.0
 40
1.0
 40
1.0
 40
1.0
 10
-112.9375
 20
2.0623
 30
0.0
 10
-113.886
 20
0.2713
 30
0.0
 10
-115.1735
 20
-2.4729
 30
0.0
 10
-115.9634
 20
-4.4602
 30
0.0
 10
-115.9634
 20
-4.4602
 30
0.0
 10
-116.7535
 20
-2.4729
 30
0.0
 10
-118.0408
 20
0.2713
 30
0.0
 10
-118.9893
 20
2.0623
 30
0.0
 10
-118.9893
 20
2.0623
 30
0.0
 10
-117.8262
 20
2.9138
 30
0.0
 10
-116.8276
 20
3.6718
 30
0.0
 10
-115.9634
 20
4.4191
 30
0.0
 10
-115.9634
 20
4.4191
 30
0.0
 10
-115.0992
 20
3.6281
 30
0.0
 10
-114.1006
 20
2.8264
 30
0.0
 10
-112.9375
 20
2.0623
 30
0.0
  0
SPLINE
  5
65
330
1F
100
AcDbEntity
  8
layer 1
 62
     7
100
AcDbSpline
210
0.0
220
0.0
230
1.0
 70
    11
 71
     3
 72
    36
 73
    32
 74
     0
 42
0.0000000001
 43
0.0000000001
 12
1.0
 22
0.0
 32
0.0
 13
1.0
 23
0.0
 33
0.0
 40
0.0
 40
0.0
 40
0.0
 40
0.0
 40
0.1111111111111111
 40
0.1111111111111111
 40
0.1111111111111111
 40
0.1111111111111111
 40
0.2222222222222222
 40
0.2222222222222222
 40
0.2222222222222222
 40
0.2222222222222222
 40
0.3333333333333333
 40
0.3333333333333333
 40
0.3333333333333333
 40
0.3333333333333333
 40
0.4444444444444444
 40
0.4444444444444444
 40
0.4444444444444444
 40
0.4444444444444444
 40
0.5555555555555556
 40
0.5555555555555556
 40
0.5555555555555556
 40
0.5555555555555556
 40
0.6666666666666666
 40
0.6666666666666666
 40
0.6666666666666666
 40
0.6666666666666666
 40
0.7777777777777778
 40
0.7777777777777778
 40
0.7777777777777778
 40
0.7777777777777778
 40
1.0
 40
1.0
 40
1.0
 40
1.0
 10
-120.9764
 20
5.434
 30
0.0
 10
-122.4261
 20
7.5092
 30
0.0
 10
-125.7363
 20
11.3087
 30
0.0
 10
-127.0804
 20
12.7919
 30
0.0
 10
-127.0804
 20
12.7919
 30
0.0
 10
-125.2132
 20
14.3472
 30
0.0
 10
-121.7065
 20
18.6215
 30
0.0
 10
-121.0203
 20
19.8979
 30
0.0
 10
-121.0203
 20
19.8979
 30
0.0
 10
-119.8062
 20
18.6655
 30
0.0
 10
-117.311
 20
16.414
 30
0.0
 10
-115.9716
 20
14.9907
 30
0.0
 10
-115.9716
 20
14.9907
 30
0.0
 10
-114.6322
 20
16.414
 30
0.0
 10
-112.1368
 20
18.6657
 30
0.0
 10
-110.9229
 20
19.8979
 30
0.0
 10
-110.9229
 20
19.8979
 30
0.0
 10
-110.2367
 20
18.6216
 30
0.0
 10
-106.73
 20
14.3472
 30
0.0
 10
-104.8628
 20
12.7919
 30
0.0
 10
-104.8628
 20
12.7919
 30
0.0
 10
-106.207
 20
11.3087
 30
0.0
 10
-109.5173
 20
7.5092
 30
0.0
 10
-110.9668
 20
5.434
 30
0.0
 10
-110.9668
 20
5.434
 30
0.0
 10
-112.8562
 20
7.4212
 30
0.0
 10
-114.7594
 20
9.4178
 30
0.0
 10
-115.9716
 20
10.4613
 30
0.0
 10
-115.9716
 20
10.4613
 30
0.0
 10
-117.1839
 20
9.4178
 30
0.0
 10
-119.0869
 20
7.4212
 30
0.0
 10
-120.9764
 20
5.434
 30
0.0
  0
SPLINE
  5
66
330
1F
100
AcDbEntity
  8
layer 1
 62
     7
100
AcDbSpline
210
0.0
220
0.0
230
1.0
 70
    11
 71
     3
 72
    20
 73
    16
 74
     0
 42
0.0000000001
 43
0.0000000001
 12
1.0
 22
0.0
 32
0.0
 13
1.0
 23
0.0
 33
0.0
 40
0.0
 40
0.0
 40
0.0
 40
0.0
 40
0.2
 40
0.2
 40
0.2
 40
0.2
 40
0.4
 40
0.4
 40
0.4
 40
0.4
 40
0.6
 40
0.6
 40
0.6
 40
0.6
 40
1.0
 40
1.0
 40
1.0
 40
1.0
 10
-112.9375
 20
22.8299
 30
0.0
 10
-114.1921
 20
24.5334
 30
0.0
 10
-115.1735
 20
27.3651
 30
0.0
 10
-115.9634
 20
29.3523
 30
0.0
 10
-115.9634
 20
29.3523
 30
0.0
 10
-116.7535
 20
27.3651
 30
0.0
 10
-118.0408
 20
24.6208
 30
0.0
 10
-118.9893
 20
22.8299
 30
0.0
 10
-118.9893
 20
22.8299
 30
0.0
 10
-117.6513
 20
22.0658
 30
0.0
 10
-116.9151
 20
21.439
 30
0.0
 10
-115.9634
 20
20.4731
 30
0.0
 10
-115.9634
 20
20.4731
 30
0.0
 10
-115.0555
 20
21.3953
 30
0.0
 10
-114.0131
 20
22.2407
 30
0.0
 10
-112.9375
 20
22.8299
 30
0.0
  0
SPLINE
  5
67
330
1F
100
AcDbEntity
  8
layer 1
 62
     7
100
AcDbSpline
210
0.0
220
0.0
230
1.0
 70
    11
 71
     3
 72
    20
 73
    16
 74
     0
 42
0.0000000001
 43
0.0000000001
 12
1.0
 22
0.0
 32
0.0
 13
1.0
 23
0.0
 33
0.0
 40
0.0
 40
0.0
 40
0.0
 40
0.0
 40
0.2
 40
0.2
 40
0.2
 40
0.2
 40
0.4
 40
0.4
 40
0.4
 40
0.4
 40
0.6
 40
0.6
 40
0.6
 40
0.6
 40
1.0
 40
1.0
 40
1.0
 40
1.0
 10
-73.0868
 20
28.433
 30
0.0
 10
-72.01
 20
26.7161
 30
0.0
 10
-70.2771
 20
24.2291
 30
0.0
 10
-68.9512
 20
22.5513
 30
0.0
 10
-68.9512
 20
22.5513
 30
0.0
 10
-71.0672
 20
22.8607
 30
0.0
 10
-74.0875
 20
23.1178
 30
0.0
 10
-76.1127
 20
23.1919
 30
0.0
 10
-76.1127
 20
23.1919
 30
0.0
 10
-76.2686
 20
24.6249
 30
0.0
 10
-76.4256
 20
25.8688
 30
0.0
 10
-76.6407
 20
26.9908
 30
0.0
 10
-76.6407
 20
26.9908
 30
0.0
 10
-75.5235
 20
27.3437
 30
0.0
 10
-74.3299
 20
27.8078
 30
0.0
 10
-73.0868
 20
28.433
 30
0.0
  0
SPLINE
  5
68
330
1F
100
AcDbEntity
  8
layer 1
 62
     7
100
AcDbSpline
210
0.0
220
0.0
230
1.0
 70
    11
 71
     3
 72
    40
 73
    36
 74
     0
 42
0.0000000001
 43
0.0000000001
 12
1.0
 22
0.0
 32
0.0
 13
1.0
 23
0.0
 33
0.0
 40
0.0
 40
0.0
 40
0.0
 40
0.0
 40
0.1
 40
0.1
 40
0.1
 40
0.1
 40
0.2
 40
0.2
 40
0.2
 40
0.2
 40
0.3
 40
0.3
 40
0.3
 40
0.3
 40
0.4
 40
0.4
 40
0.4
 40
0.4
 40
0.5
 40
0.5
 40
0.5
 40
0.5
 40
0.6
 40
0.6
 40
0.6
 40
0.6
 40
0.7
 40
0.7
 40
0.7
 40
0.7
 40
0.8
 40
0.8
 40
0.8
 40
0.8
 40
1.0
 40
1.0
 40
1.0
 40
1.0
 10
-80.0262
 20
23.157
 30
0.0
 10
-82.5481
 20
22.9392
 30
0.0
 10
-87.4938
 20
21.9722
 30
0.0
 10
-89.4503
 20
21.5496
 30
0.0
 10
-89.4503
 20
21.5496
 30
0.0
 10
-89.8638
 20
23.9442
 30
0.0
 10
-91.8119
 20
29.1183
 30
0.0
 10
-92.5742
 20
30.3508
 30
0.0
 10
-92.5742
 20
30.3508
 30
0.0
 10
-90.9
 20
30.7859
 30
0.0
 10
-87.7024
 20
31.8212
 30
0.0
 10
-85.8
 20
32.2694
 30
0.0
 10
-85.8
 20
32.2694
 30
0.0
 10
-86.363
 20
34.1411
 30
0.0
 10
-87.0653
 20
37.4278
 30
0.0
 10
-87.5254
 20
39.0954
 30
0.0
 10
-87.5254
 20
39.0954
 30
0.0
 10
-86.077
 20
39.0516
 30
0.0
 10
-80.622
 20
39.9514
 30
0.0
 10
-78.3415
 20
40.7905
 30
0.0
 10
-78.3415
 20
40.7905
 30
0.0
 10
-77.7292
 20
38.8848
 30
0.0
 10
-76.0937
 20
34.1182
 30
0.0
 10
-75.0214
 20
31.8252
 30
0.0
 10
-75.0214
 20
31.8252
 30
0.0
 10
-77.6871
 20
31.1825
 30
0.0
 10
-80.3678
 20
30.5328
 30
0.0
 10
-81.8776
 20
30.0047
 30
0.0
 10
-81.8776
 20
30.0047
 30
0.0
 10
-81.5801
 20
28.4331
 30
0.0
 10
-80.8025
 20
25.7866
 30
0.0
 10
-80.0262
 20
23.1568
 30
0.0
 10
-80.0262
 20
23.1568
 30
0.0
 10
-80.0262
 20
23.1568
 30
0.0
 10
-80.0262
 20
23.157
 30
0.0
 10
-80.0262
 20
23.157
 30
0.0
  0
SPLINE
  5
69
330
1F
100
AcDbEntity
  8
layer 1
 62
     7
100
AcDbSpline
210
0.0
220
0.0
230
1.0
 70
    11
 71
     3
 72
    20
 73
    16
 74
     0
 42
0.0000000001
 43
0.0000000001
 12
1.0
 22
0.0
 32
0.0
 13
1.0
 23
0.0
 33
0.0
 40
0.0
 40
0.0
 40
0.0
 40
0.0
 40
0.2
 40
0.2
 40
0.2
 40
0.2
 40
0.4
 40
0.4
 40
0.4
 40
0.4
 40
0.6
 40
0.6
 40
0.6
 40
0.6
 40
1.0
 40
1.0
 40
1.0
 40
1.0
 10
-91.072
 20
38.8168
 30
0.0
 10
-93.1745
 20
38.5821
 30
0.0
 10
-96.1176
 20
39.1481
 30
0.0
 10
-98.2335
 20
39.4574
 30
0.0
 10
-98.2335
 20
39.4574
 30
0.0
 10
-96.9076
 20
37.7796
 30
0.0
 10
-95.1746
 20
35.2925
 30
0.0
 10
-94.0979
 20
33.5757
 30
0.0
 10
-94.0979
 20
33.5757
 30
0.0
 10
-92.7673
 20
34.3523
 30
0.0
 10
-91.8563
 20
34.6767
 30
0.0
 10
-90.5439
 20
35.0178
 30
0.0
 10
-90.5439
 20
35.0178
 30
0.0
 10
-90.8886
 20
36.2653
 30
0.0
 10
-91.0995
 20
37.5907
 30
0.0
 10
-91.072
 20
38.8168
 30
0.0
  0
SPLINE
  5
6A
330
1F
100
AcDbEntity
  8
layer 1
 62
     7
100
AcDbSpline
210
0.0
220
0.0
230
1.0
 70
    11
 71
     3
 72
    20
 73
    16
 74
     0
 42
0.0000000001
 43
0.0000000001
 12
1.0
 22
0.0
 32
0.0
 13
1.0
 23
0.0
 33
0.0
 40
0.0
 40
0.0
 40
0.0
 40
0.0
 40
0.2
 40
0.2
 40
0.2
 40
0.2
 40
0.4
 40
0.4
 40
0.4
 40
0.4
 40
0.6
 40
0.6
 40
0.6
 40
0.6
 40
1.0
 40
1.0
 40
1.0
 40
1.0
 10
-159.2183
 20
28.433
 30
0.0
 10
-160.295
 20
26.7161
 30
0.0
 10
-162.028
 20
24.2291
 30
0.0
 10
-163.3539
 20
22.5513
 30
0.0
 10
-163.3539
 20
22.5513
 30
0.0
 10
-161.2379
 20
22.8607
 30
0.0
 10
-158.2176
 20
23.1178
 30
0.0
 10
-156.1924
 20
23.1919
 30
0.0
 10
-156.1924
 20
23.1919
 30
0.0
 10
-156.0365
 20
24.6249
 30
0.0
 10
-155.8794
 20
25.8688
 30
0.0
 10
-155.6643
 20
26.9908
 30
0.0
 10
-155.6643
 20
26.9908
 30
0.0
 10
-156.7816
 20
27.3437
 30
0.0
 10
-157.9752
 20
27.8078
 30
0.0
 10
-159.2183
 20
28.433
 30
0.0
  0
SPLINE
  5
6B
330
1F
100
AcDbEntity
  8
layer 1
 62
     7
100
AcDbSpline
210
0.0
220
0.0
230
1.0
 70
    11
 71
     3
 72
    40
 73
    36
 74
     0
 42
0.0000000001
 43
0.0000000001
 12
1.0
 22
0.0
 32
0.0
 13
1.0
 23
0.0
 33
0.0
 40
0.0
 40
0.0
 40
0.0
 40
0.0
 40
0.1
 40
0.1
 40
0.1
 40
0.1
 40
0.2
 40
0.2
 40
0.2
 40
0.2
 40
0.3
 40
0.3
 40
0.3
 40
0.3
 40
0.4
 40
0.4
 40
0.4
 40
0.4
 40
0.5
 40
0.5
 40
0.5
 40
0.5
 40
0.6
 40
0.6
 40
0.6
 40
0.6
 40
0.7
 40
0.7
 40
0.7
 40
0.7
 40
0.8
 40
0.8
 40
0.8
 40
0.8
 40
1.0
 40
1.0
 40
1.0
 40
1.0
 10
-152.2788
 20
23.157
 30
0.0
 10
-149.7569
 20
22.9392
 30
0.0
 10
-144.8113
 20
21.9722
 30
0.0
 10
-142.8548
 20
21.5496
 30
0.0
 10
-142.8548
 20
21.5496
 30
0.0
 10
-142.4413
 20
23.9442
 30
0.0
 10
-140.4931
 20
29.1183
 30
0.0
 10
-139.7308
 20
30.3508
 30
0.0
 10
-139.7308
 20
30.3508
 30
0.0
 10
-141.4051
 20
30.7859
 30
0.0
 10
-144.6027
 20
31.8212
 30
0.0
 10
-146.505
 20
32.2694
 30
0.0
 10
-146.505
 20
32.2694
 30
0.0
 10
-145.9421
 20
34.1411
 30
0.0
 10
-145.2397
 20
37.4278
 30
0.0
 10
-144.7796
 20
39.0954
 30
0.0
 10
-144.7796
 20
39.0954
 30
0.0
 10
-146.228
 20
39.0516
 30
0.0
 10
-151.6831
 20
39.9514
 30
0.0
 10
-153.9636
 20
40.7905
 30
0.0
 10
-153.9636
 20
40.7905
 30
0.0
 10
-154.5759
 20
38.8848
 30
0.0
 10
-156.2114
 20
34.1182
 30
0.0
 10
-157.2836
 20
31.8252
 30
0.0
 10
-157.2836
 20
31.8252
 30
0.0
 10
-154.618
 20
31.1825
 30
0.0
 10
-151.9372
 20
30.5328
 30
0.0
 10
-150.4274
 20
30.0047
 30
0.0
 10
-150.4274
 20
30.0047
 30
0.0
 10
-150.725
 20
28.4331
 30
0.0
 10
-151.5026
 20
25.7866
 30
0.0
 10
-152.2788
 20
23.1568
 30
0.0
 10
-152.2788
 20
23.1568
 30
0.0
 10
-152.2788
 20
23.1568
 30
0.0
 10
-152.2788
 20
23.157
 30
0.0
 10
-152.2788
 20
23.157
 30
0.0
  0
SPLINE
  5
6C
330
1F
100
AcDbEntity
  8
layer 1
 62
     7
100
AcDbSpline
210
0.0
220
0.0
230
1.0
 70
    11
 71
     3
 72
    20
 73
    16
 74
     0
 42
0.0000000001
 43
0.0000000001
 12
1.0
 22
0.0
 32
0.0
 13
1.0
 23
0.0
 33
0.0
 40
0.0
 40
0.0
 40
0.0
 40
0.0
 40
0.2
 40
0.2
 40
0.2
 40
0.2
 40
0.4
 40
0.4
 40
0.4
 40
0.4
 40
0.6
 40
0.6
 40
0.6
 40
0.6
 40
1.0
 40
1.0
 40
1.0
 40
1.0
 10
-141.2331
 20
38.8168
 30
0.0
 10
-139.1306
 20
38.5821
 30
0.0
 10
-136.1875
 20
39.1481
 30
0.0
 10
-134.0716
 20
39.4574
 30
0.0
 10
-134.0716
 20
39.4574
 30
0.0
 10
-135.3975
 20
37.7796
 30
0.0
 10
-137.1305
 20
35.2925
 30
0.0
 10
-138.2072
 20
33.5757
 30
0.0
 10
-138.2072
 20
33.5757
 30
0.0
 10
-139.5378
 20
34.3523
 30
0.0
 10
-140.4488
 20
34.6767
 30
0.0
 10
-141.7612
 20
35.0178
 30
0.0
 10
-141.7612
 20
35.0178
 30
0.0
 10
-141.4165
 20
36.2653
 30
0.0
 10
-141.2056
 20
37.5907
 30
0.0
 10
-141.2331
 20
38.8168
 30
0.0
  0
SPLINE
  5
6D
330
1F
100
AcDbEntity
  8
layer 1
 62
     7
100
AcDbSpline
210
0.0
220
0.0
230
1.0
 70
    11
 71
     3
 72
    20
 73
    16
 74
     0
 42
0.0000000001
 43
0.0000000001
 12
1.0
 22
0.0
 32
0.0
 13
1.0
 23
0.0
 33
0.0
 40
0.0
 40
0.0
 40
0.0
 40
0.0
 40
0.2
 40
0.2
 40
0.2
 40
0.2
 40
0.4
 40
0.4
 40
0.4
 40
0.4
 40
0.6
 40
0.6
 40
0.6
 40
0.6
 40
1.0
 40
1.0
 40
1.0
 40
1.0
 10
-73.0868
 20
103.639
 30
0.0
 10
-72.01
 20
101.9221
 30
0.0
 10
-70.2771
 20
99.4351
 30
0.0
 10
-68.9512
 20
97.7573
 30
0.0
 10
-68.9512
 20
97.7573
 30
0.0
 10
-71.0672
 20
98.0667
 30
0.0
 10
-74.0875
 20
98.3238
 30
0.0
 10
-76.1127
 20
98.3979
 30
0.0
 10
-76.1127
 20
98.3979
 30
0.0
 10
-76.2686
 20
99.8309
 30
0.0
 10
-76.4256
 20
101.0748
 30
0.0
 10
-76.6407
 20
102.1969
 30
0.0
 10
-76.6407
 20
102.1969
 30
0.0
 10
-75.5235
 20
102.5497
 30
0.0
 10
-74.3299
 20
103.0138
 30
0.0
 10
-73.0868
 20
103.639
 30
0.0
  0
SPLINE
  5
6E
330
1F
100
AcDbEntity
  8
layer 1
 62
     7
100
AcDbSpline
210
0.0
220
0.0
230
1.0
 70
    11
 71
     3
 72
    40
 73
    36
 74
     0
 42
0.0000000001
 43
0.0000000001
 12
1.0
 22
0.0
 32
0.0
 13
1.0
 23
0.0
 33
0.0
 40
0.0
 40
0.0
 40
0.0
 40
0.0
 40
0.1
 40
0.1
 40
0.1
 40
0.1
 40
0.2
 40
0.2
 40
0.2
 40
0.2
 40
0.3
 40
0.3
 40
0.3
 40
0.3
 40
0.4
 40
0.4
 40
0.4
 40
0.4
 40
0.5
 40
0.5
 40
0.5
 40
0.5
 40
0.6
 40
0.6
 40
0.6
 40
0.6
 40
0.7
 40
0.7
 40
0.7
 40
0.7
 40
0.8
 40
0.8
 40
0.8
 40
0.8
 40
1.0
 40
1.0
 40
1.0
 40
1.0
 10
-80.0262
 20
98.3629
 30
0.0
 10
-82.5481
 20
98.145
 30
0.0
 10
-87.4938
 20
97.1781
 30
0.0
 10
-89.4503
 20
96.7555
 30
0.0
 10
-89.4503
 20
96.7555
 30
0.0
 10
-89.8638
 20
99.1501
 30
0.0
 10
-91.8119
 20
104.3241
 30
0.0
 10
-92.5742
 20
105.5566
 30
0.0
 10
-92.5742
 20
105.5566
 30
0.0
 10
-90.9
 20
105.9918
 30
0.0
 10
-87.7024
 20
107.027
 30
0.0
 10
-85.8
 20
107.4752
 30
0.0
 10
-85.8
 20
107.4752
 30
0.0
 10
-86.363
 20
109.3469
 30
0.0
 10
-87.0653
 20
112.6337
 30
0.0
 10
-87.5254
 20
114.3012
 30
0.0
 10
-87.5254
 20
114.3012
 30
0.0
 10
-86.077
 20
114.2575
 30
0.0
 10
-80.622
 20
115.1572
 30
0.0
 10
-78.3415
 20
115.9964
 30
0.0
 10
-78.3415
 20
115.9964
 30
0.0
 10
-77.7292
 20
114.0906
 30
0.0
 10
-76.0937
 20
109.3241
 30
0.0
 10
-75.0214
 20
107.0311
 30
0.0
 10
-75.0214
 20
107.0311
 30
0.0
 10
-77.6871
 20
106.3884
 30
0.0
 10
-80.3678
 20
105.7386
 30
0.0
 10
-81.8776
 20
105.2105
 30
0.0
 10
-81.8776
 20
105.2105
 30
0.0
 10
-81.5801
 20
103.639
 30
0.0
 10
-80.8025
 20
100.9925
 30
0.0
 10
-80.0262
 20
98.3627
 30
0.0
 10
-80.0262
 20
98.3627
 30
0.0
 10
-80.0262
 20
98.3627
 30
0.0
 10
-80.0262
 20
98.3629
 30
0.0
 10
-80.0262
 20
98.3629
 30
0.0
  0
SPLINE
  5
6F
330
1F
100
AcDbEntity
  8
layer 1
 62
     7
100
AcDbSpline
210
0.0
220
0.0
230
1.0
 70
    11
 71
     3
 72
    20
 73
    16
 74
     0
 42
0.0000000001
 43
0.0000000001
 12
1.0
 22
0.0
 32
0.0
 13
1.0
 23
0.0
 33
0.0
 40
0.0
 40
0.0
 40
0.0
 40
0.0
 40
0.2
 40
0.2
 40
0.2
 40
0.2
 40
0.4
 40
0.4
 40
0.4
 40
0.4
 40
0.6
 40
0.6
 40
0.6
 40
0.6
 40
1.0
 40
1.0
 40
1.0
 40
1.0
 10
-91.072
 20
114.0228
 30
0.0
 10
-93.1745
 20
113.7881
 30
0.0
 10
-96.1176
 20
114.3541
 30
0.0
 10
-98.2335
 20
114.6634
 30
0.0
 10
-98.2335
 20
114.6634
 30
0.0
 10
-96.9076
 20
112.9856
 30
0.0
 10
-95.1746
 20
110.4985
 30
0.0
 10
-94.0979
 20
108.7817
 30
0.0
 10
-94.0979
 20
108.7817
 30
0.0
 10
-92.7673
 20
109.5583
 30
0.0
 10
-91.8563
 20
109.8827
 30
0.0
 10
-90.5439
 20
110.2238
 30
0.0
 10
-90.5439
 20
110.2238
 30
0.0
 10
-90.8886
 20
111.4713
 30
0.0
 10
-91.0995
 20
112.7967
 30
0.0
 10
-91.072
 20
114.0228
 30
0.0
  0
SPLINE
  5
70
330
1F
100
AcDbEntity
  8
layer 1
 62
     7
100
AcDbSpline
210
0.0
220
0.0
230
1.0
 70
    11
 71
     3
 72
    20
 73
    16
 74
     0
 42
0.0000000001
 43
0.0000000001
 12
1.0
 22
0.0
 32
0.0
 13
1.0
 23
0.0
 33
0.0
 40
0.0
 40
0.0
 40
0.0
 40
0.0
 40
0.2
 40
0.2
 40
0.2
 40
0.2
 40
0.4
 40
0.4
 40
0.4
 40
0.4
 40
0.6
 40
0.6
 40
0.6
 40
0.6
 40
1.0
 40
1.0
 40
1.0
 40
1.0
 10
-159.2183
 20
103.639
 30
0.0
 10
-160.295
 20
101.9221
 30
0.0
 10
-162.028
 20
99.4351
 30
0.0
 10
-163.3539
 20
97.7573
 30
0.0
 10
-163.3539
 20
97.7573
 30
0.0
 10
-161.2379
 20
98.0667
 30
0.0
 10
-158.2176
 20
98.3238
 30
0.0
 10
-156.1924
 20
98.3979
 30
0.0
 10
-156.1924
 20
98.3979
 30
0.0
 10
-156.0365
 20
99.8309
 30
0.0
 10
-155.8794
 20
101.0748
 30
0.0
 10
-155.6643
 20
102.1969
 30
0.0
 10
-155.6643
 20
102.1969
 30
0.0
 10
-156.7816
 20
102.5497
 30
0.0
 10
-157.9752
 20
103.0138
 30
0.0
 10
-159.2183
 20
103.639
 30
0.0
  0
SPLINE
  5
71
330
1F
100
AcDbEntity
  8
layer 1
 62
     7
100
AcDbSpline
210
0.0
220
0.0
230
1.0
 70
    11
 71
     3
 72
    40
 73
    36
 74
     0
 42
0.0000000001
 43
0.0000000001
 12
1.0
 22
0.0
 32
0.0
 13
1.0
 23
0.0
 33
0.0
 40
0.0
 40
0.0
 40
0.0
 40
0.0
 40
0.1
 40
0.1
 40
0.1
 40
0.1
 40
0.2
 40
0.2
 40
0.2
 40
0.2
 40
0.3
 40
0.3
 40
0.3
 40
0.3
 40
0.4
 40
0.4
 40
0.4
 40
0.4
 40
0.5
 40
0.5
 40
0.5
 40
0.5
 40
0.6
 40
0.6
 40
0.6
 40
0.6
 40
0.7
 40
0.7
 40
0.7
 40
0.7
 40
0.8
 40
0.8
 40
0.8
 40
0.8
 40
1.0
 40
1.0
 40
1.0
 40
1.0
 10
-152.2788
 20
98.3629
 30
0.0
 10
-149.7569
 20
98.145
 30
0.0
 10
-144.8113
 20
97.1781
 30
0.0
 10
-142.8548
 20
96.7555
 30
0.0
 10
-142.8548
 20
96.7555
 30
0.0
 10
-142.4413
 20
99.1501
 30
0.0
 10
-140.4931
 20
104.3241
 30
0.0
 10
-139.7308
 20
105.5566
 30
0.0
 10
-139.7308
 20
105.5566
 30
0.0
 10
-141.4051
 20
105.9918
 30
0.0
 10
-144.6027
 20
107.027
 30
0.0
 10
-146.505
 20
107.4752
 30
0.0
 10
-146.505
 20
107.4752
 30
0.0
 10
-145.9421
 20
109.3469
 30
0.0
 10
-145.2397
 20
112.6337
 30
0.0
 10
-144.7796
 20
114.3012
 30
0.0
 10
-144.7796
 20
114.3012
 30
0.0
 10
-146.228
 20
114.2575
 30
0.0
 10
-151.6831
 20
115.1572
 30
0.0
 10
-153.9636
 20
115.9964
 30
0.0
 10
-153.9636
 20
115.9964
 30
0.0
 10
-154.5759
 20
114.0906
 30
0.0
 10
-156.2114
 20
109.3241
 30
0.0
 10
-157.2836
 20
107.0311
 30
0.0
 10
-157.2836
 20
107.0311
 30
0.0
 10
-154.618
 20
106.3884
 30
0.0
 10
-151.9372
 20
105.7386
 30
0.0
 10
-150.4274
 20
105.2105
 30
0.0
 10
-150.4274
 20
105.2105
 30
0.0
 10
-150.725
 20
103.639
 30
0.0
 10
-151.5026
 20
100.9925
 30
0.0
 10
-152.2788
 20
98.3627
 30
0.0
 10
-152.2788
 20
98.3627
 30
0.0
 10
-152.2788
 20
98.3627
 30
0.0
 10
-152.2788
 20
98.3629
 30
0.0
 10
-152.2788
 20
98.3629
 30
0.0
  0
SPLINE
  5
72
330
1F
100
AcDbEntity
  8
layer 1
 62
     7
100
AcDbSpline
210
0.0
220
0.0
230
1.0
 70
    11
 71
     3
 72
    20
 73
    16
 74
     0
 42
0.0000000001
 43
0.0000000001
 12
1.0
 22
0.0
 32
0.0
 13
1.0
 23
0.0
 33
0.0
 40
0.0
 40
0.0
 40
0.0
 40
0.0
 40
0.2
 40
0.2
 40
0.2
 40
0.2
 40
0.4
 40
0.4
 40
0.4
 40
0.4
 40
0.6
 40
0.6
 40
0.6
 40
0.6
 40
1.0
 40
1.0
 40
1.0
 40
1.0
 10
-141.2331
 20
114.0228
 30
0.0
 10
-139.1306
 20
113.7881
 30
0.0
 10
-136.1875
 20
114.3541
 30
0.0
 10
-134.0716
 20
114.6634
 30
0.0
 10
-134.0716
 20
114.6634
 30
0.0
 10
-135.3975
 20
112.9856
 30
0.0
 10
-137.1305
 20
110.4985
 30
0.0
 10
-138.2072
 20
108.7817
 30
0.0
 10
-138.2072
 20
108.7817
 30
0.0
 10
-139.5378
 20
109.5583
 30
0.0
 10
-140.4488
 20
109.8827
 30
0.0
 10
-141.7612
 20
110.2238
 30
0.0
 10
-141.7612
 20
110.2238
 30
0.0
 10
-141.4165
 20
111.4713
 30
0.0
 10
-141.2056
 20
112.7967
 30
0.0
 10
-141.2331
 20
114.0228
 30
0.0
  0
SPLINE
  5
73
330
1F
100
AcDbEntity
  8
layer 1
 62
     7
100
AcDbSpline
210
0.0
220
0.0
230
1.0
 70
    11
 71
     3
 72
    20
 73
    16
 74
     0
 42
0.0000000001
 43
0.0000000001
 12
1.0
 22
0.0
 32
0.0
 13
1.0
 23
0.0
 33
0.0
 40
0.0
 40
0.0
 40
0.0
 40
0.0
 40
0.2
 40
0.2
 40
0.2
 40
0.2
 40
0.4
 40
0.4
 40
0.4
 40
0.4
 40
0.6
 40
0.6
 40
0.6
 40
0.6
 40
1.0
 40
1.0
 40
1.0
 40
1.0
 10
-73.0868
 20
-3.3087
 30
0.0
 10
-72.01
 20
-1.5918
 30
0.0
 10
-70.2771
 20
0.8952
 30
0.0
 10
-68.9512
 20
2.573
 30
0.0
 10
-68.9512
 20
2.573
 30
0.0
 10
-71.0672
 20
2.2636
 30
0.0
 10
-74.0875
 20
2.0065
 30
0.0
 10
-76.1127
 20
1.9324
 30
0.0
 10
-76.1127
 20
1.9324
 30
0.0
 10
-76.2686
 20
0.4994
 30
0.0
 10
-76.4256
 20
-0.7445
 30
0.0
 10
-76.6407
 20
-1.8665
 30
0.0
 10
-76.6407
 20
-1.8665
 30
0.0
 10
-75.5235
 20
-2.2194
 30
0.0
 10
-74.3299
 20
-2.6835
 30
0.0
 10
-73.0868
 20
-3.3087
 30
0.0
  0
SPLINE
  5
74
330
1F
100
AcDbEntity
  8
layer 1
 62
     7
100
AcDbSpline
210
0.0
220
0.0
230
1.0
 70
    11
 71
     3
 72
    40
 73
    36
 74
     0
 42
0.0000000001
 43
0.0000000001
 12
1.0
 22
0.0
 32
0.0
 13
1.0
 23
0.0
 33
0.0
 40
0.0
 40
0.0
 40
0.0
 40
0.0
 40
0.1
 40
0.1
 40
0.1
 40
0.1
 40
0.2
 40
0.2
 40
0.2
 40
0.2
 40
0.3
 40
0.3
 40
0.3
 40
0.3
 40
0.4
 40
0.4
 40
0.4
 40
0.4
 40
0.5
 40
0.5
 40
0.5
 40
0.5
 40
0.6
 40
0.6
 40
0.6
 40
0.6
 40
0.7
 40
0.7
 40
0.7
 40
0.7
 40
0.8
 40
0.8
 40
0.8
 40
0.8
 40
1.0
 40
1.0
 40
1.0
 40
1.0
 10
-80.0262
 20
1.9675
 30
0.0
 10
-82.5481
 20
2.1853
 30
0.0
 10
-87.4938
 20
3.1522
 30
0.0
 10
-89.4503
 20
3.5748
 30
0.0
 10
-89.4503
 20
3.5748
 30
0.0
 10
-89.8638
 20
1.1802
 30
0.0
 10
-91.8119
 20
-3.9938
 30
0.0
 10
-92.5742
 20
-5.2263
 30
0.0
 10
-92.5742
 20
-5.2263
 30
0.0
 10
-90.9
 20
-5.6615
 30
0.0
 10
-87.7024
 20
-6.6967
 30
0.0
 10
-85.8
 20
-7.1449
 30
0.0
 10
-85.8
 20
-7.1449
 30
0.0
 10
-86.363
 20
-9.0166
 30
0.0
 10
-87.0653
 20
-12.3034
 30
0.0
 10
-87.5254
 20
-13.9709
 30
0.0
 10
-87.5254
 20
-13.9709
 30
0.0
 10
-86.077
 20
-13.9272
 30
0.0
 10
-80.622
 20
-14.8269
 30
0.0
 10
-78.3415
 20
-15.666
 30
0.0
 10
-78.3415
 20
-15.666
 30
0.0
 10
-77.7292
 20
-13.7603
 30
0.0
 10
-76.0937
 20
-8.9938
 30
0.0
 10
-75.0214
 20
-6.7008
 30
0.0
 10
-75.0214
 20
-6.7008
 30
0.0
 10
-77.6871
 20
-6.0581
 30
0.0
 10
-80.3678
 20
-5.4083
 30
0.0
 10
-81.8776
 20
-4.8802
 30
0.0
 10
-81.8776
 20
-4.8802
 30
0.0
 10
-81.5801
 20
-3.3087
 30
0.0
 10
-80.8025
 20
-0.6622
 30
0.0
 10
-80.0262
 20
1.9676
 30
0.0
 10
-80.0262
 20
1.9676
 30
0.0
 10
-80.0262
 20
1.9676
 30
0.0
 10
-80.0262
 20
1.9675
 30
0.0
 10
-80.0262
 20
1.9675
 30
0.0
  0
SPLINE
  5
75
330
1F
100
AcDbEntity
  8
layer 1
 62
     7
100
AcDbSpline
210
0.0
220
0.0
230
1.0
 70
    11
 71
     3
 72
    20
 73
    16
 74
     0
 42
0.0000000001
 43
0.0000000001
 12
1.0
 22
0.0
 32
0.0
 13
1.0
 23
0.0
 33
0.0
 40
0.0
 40
0.0
 40
0.0
 40
0.0
 40
0.2
 40
0.2
 40
0.2
 40
0.2
 40
0.4
 40
0.4
 40
0.4
 40
0.4
 40
0.6
 40
0.6
 40
0.6
 40
0.6
 40
1.0
 40
1.0
 40
1.0
 40
1.0
 10
-91.072
 20
-13.6923
 30
0.0
 10
-93.1745
 20
-13.4576
 30
0.0
 10
-96.1176
 20
-14.0236
 30
0.0
 10
-98.2335
 20
-14.3329
 30
0.0
 10
-98.2335
 20
-14.3329
 30
0.0
 10
-96.9076
 20
-12.6551
 30
0.0
 10
-95.1746
 20
-10.1681
 30
0.0
 10
-94.0979
 20
-8.4512
 30
0.0
 10
-94.0979
 20
-8.4512
 30
0.0
 10
-92.7673
 20
-9.2278
 30
0.0
 10
-91.8563
 20
-9.5522
 30
0.0
 10
-90.5439
 20
-9.8933
 30
0.0
 10
-90.5439
 20
-9.8933
 30
0.0
 10
-90.8886
 20
-11.1408
 30
0.0
 10
-91.0995
 20
-12.4662
 30
0.0
 10
-91.072
 20
-13.6923
 30
0.0
  0
SPLINE
  5
76
330
1F
100
AcDbEntity
  8
layer 1
 62
     7
100
AcDbSpline
210
0.0
220
0.0
230
1.0
 70
    11
 71
     3
 72
    20
 73
    16
 74
     0
 42
0.0000000001
 43
0.0000000001
 12
1.0
 22
0.0
 32
0.0
 13
1.0
 23
0.0
 33
0.0
 40
0.0
 40
0.0
 40
0.0
 40
0.0
 40
0.2
 40
0.2
 40
0.2
 40
0.2
 40
0.4
 40
0.4
 40
0.4
 40
0.4
 40
0.6
 40
0.6
 40
0.6
 40
0.6
 40
1.0
 40
1.0
 40
1.0
 40
1.0
 10
-159.2183
 20
-3.3087
 30
0.0
 10
-160.295
 20
-1.5918
 30
0.0
 10
-162.028
 20
0.8952
 30
0.0
 10
-163.3539
 20
2.573
 30
0.0
 10
-163.3539
 20
2.573
 30
0.0
 10
-161.2379
 20
2.2636
 30
0.0
 10
-158.2176
 20
2.0065
 30
0.0
 10
-156.1924
 20
1.9324
 30
0.0
 10
-156.1924
 20
1.9324
 30
0.0
 10
-156.0365
 20
0.4994
 30
0.0
 10
-155.8794
 20
-0.7445
 30
0.0
 10
-155.6643
 20
-1.8665
 30
0.0
 10
-155.6643
 20
-1.8665
 30
0.0
 10
-156.7816
 20
-2.2194
 30
0.0
 10
-157.9752
 20
-2.6835
 30
0.0
 10
-159.2183
 20
-3.3087
 30
0.0
  0
SPLINE
  5
77
330
1F
100
AcDbEntity
  8
layer 1
 62
     7
100
AcDbSpline
210
0.0
220
0.0
230
1.0
 70
    11
 71
     3
 72
    40
 73
    36
 74
     0
 42
0.0000000001
 43
0.0000000001
 12
1.0
 22
0.0
 32
0.0
 13
1.0
 23
0.0
 33
0.0
 40
0.0
 40
0.0
 40
0.0
 40
0.0
 40
0.1
 40
0.1
 40
0.1
 40
0.1
 40
0.2
 40
0.2
 40
0.2
 40
0.2
 40
0.3
 40
0.3
 40
0.3
 40
0.3
 40
0.4
 40
0.4
 40
0.4
 40
0.4
 40
0.5
 40
0.5
 40
0.5
 40
0.5
 40
0.6
 40
0.6
 40
0.6
 40
0.6
 40
0.7
 40
0.7
 40
0.7
 40
0.7
 40
0.8
 40
0.8
 40
0.8
 40
0.8
 40
1.0
 40
1.0
 40
1.0
 40
1.0
 10
-152.2788
 20
1.9675
 30
0.0
 10
-149.7569
 20
2.1853
 30
0.0
 10
-144.8113
 20
3.1522
 30
0.0
 10
-142.8548
 20
3.5748
 30
0.0
 10
-142.8548
 20
3.5748
 30
0.0
 10
-142.4413
 20
1.1802
 30
0.0
 10
-140.4931
 20
-3.9938
 30
0.0
 10
-139.7308
 20
-5.2263
 30
0.0
 10
-139.7308
 20
-5.2263
 30
0.0
 10
-141.4051
 20
-5.6615
 30
0.0
 10
-144.6027
 20
-6.6967
 30
0.0
 10
-146.505
 20
-7.1449
 30
0.0
 10
-146.505
 20
-7.1449
 30
0.0
 10
-145.9421
 20
-9.0166
 30
0.0
 10
-145.2397
 20
-12.3034
 30
0.0
 10
-144.7796
 20
-13.9709
 30
0.0
 10
-144.7796
 20
-13.9709
 30
0.0
 10
-146.228
 20
-13.9272
 30
0.0
 10
-151.6831
 20
-14.8269
 30
0.0
 10
-153.9636
 20
-15.666
 30
0.0
 10
-153.9636
 20
-15.666
 30
0.0
 10
-154.5759
 20
-13.7603
 30
0.0
 10
-156.2114
 20
-8.9938
 30
0.0
 10
-157.2836
 20
-6.7008
 30
0.0
 10
-157.2836
 20
-6.7008
 30
0.0
 10
-154.618
 20
-6.0581
 30
0.0
 10
-151.9372
 20
-5.4083
 30
0.0
 10
-150.4274
 20
-4.8802
 30
0.0
 10
-150.4274
 20
-4.8802
 30
0.0
 10
-150.725
 20
-3.3087
 30
0.0
 10
-151.5026
 20
-0.6622
 30
0.0
 10
-152.2788
 20
1.9676
 30
0.0
 10
-152.2788
 20
1.9676
 30
0.0
 10
-152.2788
 20
1.9676
 30
0.0
 10
-152.2788
 20
1.9675
 30
0.0
 10
-152.2788
 20
1.9675
 30
0.0
  0
SPLINE
  5
78
330
1F
100
AcDbEntity
  8
layer 1
 62
     7
100
AcDbSpline
210
0.0
220
0.0
230
1.0
 70
    11
 71
     3
 72
    20
 73
    16
 74
     0
 42
0.0000000001
 43
0.0000000001
 12
1.0
 22
0.0
 32
0.0
 13
1.0
 23
0.0
 33
0.0
 40
0.0
 40
0.0
 40
0.0
 40
0.0
 40
0.2
 40
0.2
 40
0.2
 40
0.2
 40
0.4
 40
0.4
 40
0.4
 40
0.4
 40
0.6
 40
0.6
 40
0.6
 40
0.6
 40
1.0
 40
1.0
 40
1.0
 40
1.0
 10
-141.2331
 20
-13.6923
 30
0.0
 10
-139.1306
 20
-13.4576
 30
0.0
 10
-136.1875
 20
-14.0236
 30
0.0
 10
-134.0716
 20
-14.3329
 30
0.0
 10
-134.0716
 20
-14.3329
 30
0.0
 10
-135.3975
 20
-12.6551
 30
0.0
 10
-137.1305
 20
-10.1681
 30
0.0
 10
-138.2072
 20
-8.4512
 30
0.0
 10
-138.2072
 20
-8.4512
 30
0.0
 10
-139.5378
 20
-9.2278
 30
0.0
 10
-140.4488
 20
-9.5522
 30
0.0
 10
-141.7612
 20
-9.8933
 30
0.0
 10
-141.7612
 20
-9.8933
 30
0.0
 10
-141.4165
 20
-11.1408
 30
0.0
 10
-141.2056
 20
-12.4662
 30
0.0
 10
-141.2331
 20
-13.6923
 30
0.0
  0
SPLINE
  5
79
330
1F
100
AcDbEntity
  8
layer 1
 62
     7
100
AcDbSpline
210
0.0
220
0.0
230
1.0
 70
    11
 71
     3
 72
    20
 73
    16
 74
     0
 42
0.0000000001
 43
0.0000000001
 12
1.0
 22
0.0
 32
0.0
 13
1.0
 23
0.0
 33
0.0
 40
0.0
 40
0.0
 40
0.0
 40
0.0
 40
0.2
 40
0.2
 40
0.2
 40
0.2
 40
0.4
 40
0.4
 40
0.4
 40
0.4
 40
0.6
 40
0.6
 40
0.6
 40
0.6
 40
1.0
 40
1.0
 40
1.0
 40
1.0
 10
-73.0868
 20
-45.8878
 30
0.0
 10
-72.01
 20
-47.6046
 30
0.0
 10
-70.2771
 20
-50.0916
 30
0.0
 10
-68.9512
 20
-51.7694
 30
0.0
 10
-68.9512
 20
-51.7694
 30
0.0
 10
-71.0672
 20
-51.46
 30
0.0
 10
-74.0875
 20
-51.2029
 30
0.0
 10
-76.1127
 20
-51.1288
 30
0.0
 10
-76.1127
 20
-51.1288
 30
0.0
 10
-76.2686
 20
-49.6959
 30
0.0
 10
-76.4256
 20
-48.452
 30
0.0
 10
-76.6407
 20
-47.3299
 30
0.0
 10
-76.6407
 20
-47.3299
 30
0.0
 10
-75.5235
 20
-46.977
 30
0.0
 10
-74.3299
 20
-46.5129
 30
0.0
 10
-73.0868
 20
-45.8878
 30
0.0
  0
SPLINE
  5
7A
330
1F
100
AcDbEntity
  8
layer 1
 62
     7
100
AcDbSpline
210
0.0
220
0.0
230
1.0
 70
    11
 71
     3
 72
    40
 73
    36
 74
     0
 42
0.0000000001
 43
0.0000000001
 12
1.0
 22
0.0
 32
0.0
 13
1.0
 23
0.0
 33
0.0
 40
0.0
 40
0.0
 40
0.0
 40
0.0
 40
0.1
 40
0.1
 40
0.1
 40
0.1
 40
0.2
 40
0.2
 40
0.2
 40
0.2
 40
0.3
 40
0.3
 40
0.3
 40
0.3
 40
0.4
 40
0.4
 40
0.4
 40
0.4
 40
0.5
 40
0.5
 40
0.5
 40
0.5
 40
0.6
 40
0.6
 40
0.6
 40
0.6
 40
0.7
 40
0.7
 40
0.7
 40
0.7
 40
0.8
 40
0.8
 40
0.8
 40
0.8
 40
1.0
 40
1.0
 40
1.0
 40
1.0
 10
-80.0262
 20
-51.1639
 30
0.0
 10
-82.5481
 20
-51.3817
 30
0.0
 10
-87.4938
 20
-52.3486
 30
0.0
 10
-89.4503
 20
-52.7713
 30
0.0
 10
-89.4503
 20
-52.7713
 30
0.0
 10
-89.8638
 20
-50.3767
 30
0.0
 10
-91.8119
 20
-45.2026
 30
0.0
 10
-92.5742
 20
-43.9701
 30
0.0
 10
-92.5742
 20
-43.9701
 30
0.0
 10
-90.9
 20
-43.5349
 30
0.0
 10
-87.7024
 20
-42.4997
 30
0.0
 10
-85.8
 20
-42.0515
 30
0.0
 10
-85.8
 20
-42.0515
 30
0.0
 10
-86.363
 20
-40.1798
 30
0.0
 10
-87.0653
 20
-36.893
 30
0.0
 10
-87.5254
 20
-35.2255
 30
0.0
 10
-87.5254
 20
-35.2255
 30
0.0
 10
-86.077
 20
-35.2693
 30
0.0
 10
-80.622
 20
-34.3695
 30
0.0
 10
-78.3415
 20
-33.5304
 30
0.0
 10
-78.3415
 20
-33.5304
 30
0.0
 10
-77.7292
 20
-35.4361
 30
0.0
 10
-76.0937
 20
-40.2027
 30
0.0
 10
-75.0214
 20
-42.4957
 30
0.0
 10
-75.0214
 20
-42.4957
 30
0.0
 10
-77.6871
 20
-43.1384
 30
0.0
 10
-80.3678
 20
-43.7881
 30
0.0
 10
-81.8776
 20
-44.3162
 30
0.0
 10
-81.8776
 20
-44.3162
 30
0.0
 10
-81.5801
 20
-45.8878
 30
0.0
 10
-80.8025
 20
-48.5343
 30
0.0
 10
-80.0262
 20
-51.164
 30
0.0
 10
-80.0262
 20
-51.164
 30
0.0
 10
-80.0262
 20
-51.164
 30
0.0
 10
-80.0262
 20
-51.1639
 30
0.0
 10
-80.0262
 20
-51.1639
 30
0.0
  0
SPLINE
  5
7B
330
1F
100
AcDbEntity
  8
layer 1
 62
     7
100
AcDbSpline
210
0.0
220
0.0
230
1.0
 70
    11
 71
     3
 72
    20
 73
    16
 74
     0
 42
0.0000000001
 43
0.0000000001
 12
1.0
 22
0.0
 32
0.0
 13
1.0
 23
0.0
 33
0.0
 40
0.0
 40
0.0
 40
0.0
 40
0.0
 40
0.2
 40
0.2
 40
0.2
 40
0.2
 40
0.4
 40
0.4
 40
0.4
 40
0.4
 40
0.6
 40
0.6
 40
0.6
 40
0.6
 40
1.0
 40
1.0
 40
1.0
 40
1.0
 10
-91.072
 20
-35.504
 30
0.0
 10
-93.1745
 20
-35.7387
 30
0.0
 10
-96.1176
 20
-35.1727
 30
0.0
 10
-98.2335
 20
-34.8634
 30
0.0
 10
-98.2335
 20
-34.8634
 30
0.0
 10
-96.9076
 20
-36.5412
 30
0.0
 10
-95.1746
 20
-39.0282
 30
0.0
 10
-94.0979
 20
-40.7451
 30
0.0
 10
-94.0979
 20
-40.7451
 30
0.0
 10
-92.7673
 20
-39.9684
 30
0.0
 10
-91.8563
 20
-39.644
 30
0.0
 10
-90.5439
 20
-39.3029
 30
0.0
 10
-90.5439
 20
-39.3029
 30
0.0
 10
-90.8886
 20
-38.0555
 30
0.0
 10
-91.0995
 20
-36.73
 30
0.0
 10
-91.072
 20
-35.504
 30
0.0
  0
SPLINE
  5
7C
330
1F
100
AcDbEntity
  8
layer 1
 62
     7
100
AcDbSpline
210
0.0
220
0.0
230
1.0
 70
    11
 71
     3
 72
    20
 73
    16
 74
     0
 42
0.0000000001
 43
0.0000000001
 12
1.0
 22
0.0
 32
0.0
 13
1.0
 23
0.0
 33
0.0
 40
0.0
 40
0.0
 40
0.0
 40
0.0
 40
0.2
 40
0.2
 40
0.2
 40
0.2
 40
0.4
 40
0.4
 40
0.4
 40
0.4
 40
0.6
 40
0.6
 40
0.6
 40
0.6
 40
1.0
 40
1.0
 40
1.0
 40
1.0
 10
-159.2183
 20
-45.8878
 30
0.0
 10
-160.295
 20
-47.6046
 30
0.0
 10
-162.028
 20
-50.0916
 30
0.0
 10
-163.3539
 20
-51.7694
 30
0.0
 10
-163.3539
 20
-51.7694
 30
0.0
 10
-161.2379
 20
-51.46
 30
0.0
 10
-158.2176
 20
-51.2029
 30
0.0
 10
-156.1924
 20
-51.1288
 30
0.0
 10
-156.1924
 20
-51.1288
 30
0.0
 10
-156.0365
 20
-49.6959
 30
0.0
 10
-155.8794
 20
-48.452
 30
0.0
 10
-155.6643
 20
-47.3299
 30
0.0
 10
-155.6643
 20
-47.3299
 30
0.0
 10
-156.7816
 20
-46.977
 30
0.0
 10
-157.9752
 20
-46.5129
 30
0.0
 10
-159.2183
 20
-45.8878
 30
0.0
  0
SPLINE
  5
7D
330
1F
100
AcDbEntity
  8
layer 1
 62
     7
100
AcDbSpline
210
0.0
220
0.0
230
1.0
 70
    11
 71
     3
 72
    40
 73
    36
 74
     0
 42
0.0000000001
 43
0.0000000001
 12
1.0
 22
0.0
 32
0.0
 13
1.0
 23
0.0
 33
0.0
 40
0.0
 40
0.0
 40
0.0
 40
0.0
 40
0.1
 40
0.1
 40
0.1
 40
0.1
 40
0.2
 40
0.2
 40
0.2
 40
0.2
 40
0.3
 40
0.3
 40
0.3
 40
0.3
 40
0.4
 40
0.4
 40
0.4
 40
0.4
 40
0.5
 40
0.5
 40
0.5
 40
0.5
 40
0.6
 40
0.6
 40
0.6
 40
0.6
 40
0.7
 40
0.7
 40
0.7
 40
0.7
 40
0.8
 40
0.8
 40
0.8
 40
0.8
 40
1.0
 40
1.0
 40
1.0
 40
1.0
 10
-152.2788
 20
-51.1639
 30
0.0
 10
-149.7569
 20
-51.3817
 30
0.0
 10
-144.8113
 20
-52.3486
 30
0.0
 10
-142.8548
 20
-52.7713
 30
0.0
 10
-142.8548
 20
-52.7713
 30
0.0
 10
-142.4413
 20
-50.3767
 30
0.0
 10
-140.4931
 20
-45.2026
 30
0.0
 10
-139.7308
 20
-43.9701
 30
0.0
 10
-139.7308
 20
-43.9701
 30
0.0
 10
-141.4051
 20
-43.5349
 30
0.0
 10
-144.6027
 20
-42.4997
 30
0.0
 10
-146.505
 20
-42.0515
 30
0.0
 10
-146.505
 20
-42.0515
 30
0.0
 10
-145.9421
 20
-40.1798
 30
0.0
 10
-145.2397
 20
-36.893
 30
0.0
 10
-144.7796
 20
-35.2255
 30
0.0
 10
-144.7796
 20
-35.2255
 30
0.0
 10
-146.228
 20
-35.2693
 30
0.0
 10
-151.6831
 20
-34.3695
 30
0.0
 10
-153.9636
 20
-33.5304
 30
0.0
 10
-153.9636
 20
-33.5304
 30
0.0
 10
-154.5759
 20
-35.4361
 30
0.0
 10
-156.2114
 20
-40.2027
 30
0.0
 10
-157.2836
 20
-42.4957
 30
0.0
 10
-157.2836
 20
-42.4957
 30
0.0
 10
-154.618
 20
-43.1384
 30
0.0
 10
-151.9372
 20
-43.7881
 30
0.0
 10
-150.4274
 20
-44.3162
 30
0.0
 10
-150.4274
 20
-44.3162
 30
0.0
 10
-150.725
 20
-45.8878
 30
0.0
 10
-151.5026
 20
-48.5343
 30
0.0
 10
-152.2788
 20
-51.164
 30
0.0
 10
-152.2788
 20
-51.164
 30
0.0
 10
-152.2788
 20
-51.164
 30
0.0
 10
-152.2788
 20
-51.1639
 30
0.0
 10
-152.2788
 20
-51.1639
 30
0.0
  0
SPLINE
  5
7E
330
1F
100
AcDbEntity
  8
layer 1
 62
     7
100
AcDbSpline
210
0.0
220
0.0
230
1.0
 70
    11
 71
     3
 72
    20
 73
    16
 74
     0
 42
0.0000000001
 43
0.0000000001
 12
1.0
 22
0.0
 32
0.0
 13
1.0
 23
0.0
 33
0.0
 40
0.0
 40
0.0
 40
0.0
 40
0.0
 40
0.2
 40
0.2
 40
0.2
 40
0.2
 40
0.4
 40
0.4
 40
0.4
 40
0.4
 40
0.6
 40
0.6
 40
0.6
 40
0.6
 40
1.0
 40
1.0
 40
1.0
 40
1.0
 10
-141.2331
 20
-35.504
 30
0.0
 10
-139.1306
 20
-35.7387
 30
0.0
 10
-136.1875
 20
-35.1727
 30
0.0
 10
-134.0716
 20
-34.8634
 30
0.0
 10
-134.0716
 20
-34.8634
 30
0.0
 10
-135.3975
 20
-36.5412
 30
0.0
 10
-137.1305
 20
-39.0282
 30
0.0
 10
-138.2072
 20
-40.7451
 30
0.0
 10
-138.2072
 20
-40.7451
 30
0.0
 10
-139.5378
 20
-39.9684
 30
0.0
 10
-140.4488
 20
-39.644
 30
0.0
 10
-141.7612
 20
-39.3029
 30
0.0
 10
-141.7612
 20
-39.3029
 30
0.0
 10
-141.4165
 20
-38.0555
 30
0.0
 10
-141.2056
 20
-36.73
 30
0.0
 10
-141.2331
 20
-35.504
 30
0.0
  0
SPLINE
  5
7F
330
1F
100
AcDbEntity
  8
layer 1
 62
     7
100
AcDbSpline
210
0.0
220
0.0
230
1.0
 70
    11
 71
     3
 72
    20
 73
    16
 74
     0
 42
0.0000000001
 43
0.0000000001
 12
1.0
 22
0.0
 32
0.0
 13
1.0
 23
0.0
 33
0.0
 40
0.0
 40
0.0
 40
0.0
 40
0.0
 40
0.2
 40
0.2
 40
0.2
 40
0.2
 40
0.4
 40
0.4
 40
0.4
 40
0.4
 40
0.6
 40
0.6
 40
0.6
 40
0.6
 40
1.0
 40
1.0
 40
1.0
 40
1.0
 10
-73.0868
 20
-78.1411
 30
0.0
 10
-72.01
 20
-76.4242
 30
0.0
 10
-70.2771
 20
-73.9372
 30
0.0
 10
-68.9512
 20
-72.2594
 30
0.0
 10
-68.9512
 20
-72.2594
 30
0.0
 10
-71.0672
 20
-72.5688
 30
0.0
 10
-74.0875
 20
-72.8259
 30
0.0
 10
-76.1127
 20
-72.9
 30
0.0
 10
-76.1127
 20
-72.9
 30
0.0
 10
-76.2686
 20
-74.333
 30
0.0
 10
-76.4256
 20
-75.5769
 30
0.0
 10
-76.6407
 20
-76.699
 30
0.0
 10
-76.6407
 20
-76.699
 30
0.0
 10
-75.5235
 20
-77.0518
 30
0.0
 10
-74.3299
 20
-77.5159
 30
0.0
 10
-73.0868
 20
-78.1411
 30
0.0
  0
SPLINE
  5
80
330
1F
100
AcDbEntity
  8
layer 1
 62
     7
100
AcDbSpline
210
0.0
220
0.0
230
1.0
 70
    11
 71
     3
 72
    40
 73
    36
 74
     0
 42
0.0000000001
 43
0.0000000001
 12
1.0
 22
0.0
 32
0.0
 13
1.0
 23
0.0
 33
0.0
 40
0.0
 40
0.0
 40
0.0
 40
0.0
 40
0.1
 40
0.1
 40
0.1
 40
0.1
 40
0.2
 40
0.2
 40
0.2
 40
0.2
 40
0.3
 40
0.3
 40
0.3
 40
0.3
 40
0.4
 40
0.4
 40
0.4
 40
0.4
 40
0.5
 40
0.5
 40
0.5
 40
0.5
 40
0.6
 40
0.6
 40
0.6
 40
0.6
 40
0.7
 40
0.7
 40
0.7
 40
0.7
 40
0.8
 40
0.8
 40
0.8
 40
0.8
 40
1.0
 40
1.0
 40
1.0
 40
1.0
 10
-80.0262
 20
-72.865
 30
0.0
 10
-82.5481
 20
-72.6471
 30
0.0
 10
-87.4938
 20
-71.6802
 30
0.0
 10
-89.4503
 20
-71.2576
 30
0.0
 10
-89.4503
 20
-71.2576
 30
0.0
 10
-89.8638
 20
-73.6522
 30
0.0
 10
-91.8119
 20
-78.8262
 30
0.0
 10
-92.5742
 20
-80.0587
 30
0.0
 10
-92.5742
 20
-80.0587
 30
0.0
 10
-90.9
 20
-80.4939
 30
0.0
 10
-87.7024
 20
-81.5291
 30
0.0
 10
-85.8
 20
-81.9773
 30
0.0
 10
-85.8
 20
-81.9773
 30
0.0
 10
-86.363
 20
-83.849
 30
0.0
 10
-87.0653
 20
-87.1358
 30
0.0
 10
-87.5254
 20
-88.8033
 30
0.0
 10
-87.5254
 20
-88.8033
 30
0.0
 10
-86.077
 20
-88.7596
 30
0.0
 10
-80.622
 20
-89.6593
 30
0.0
 10
-78.3415
 20
-90.4985
 30
0.0
 10
-78.3415
 20
-90.4985
 30
0.0
 10
-77.7292
 20
-88.5927
 30
0.0
 10
-76.0937
 20
-83.8262
 30
0.0
 10
-75.0214
 20
-81.5332
 30
0.0
 10
-75.0214
 20
-81.5332
 30
0.0
 10
-77.6871
 20
-80.8905
 30
0.0
 10
-80.3678
 20
-80.2407
 30
0.0
 10
-81.8776
 20
-79.7126
 30
0.0
 10
-81.8776
 20
-79.7126
 30
0.0
 10
-81.5801
 20
-78.1411
 30
0.0
 10
-80.8025
 20
-75.4946
 30
0.0
 10
-80.0262
 20
-72.8648
 30
0.0
 10
-80.0262
 20
-72.8648
 30
0.0
 10
-80.0262
 20
-72.8648
 30
0.0
 10
-80.0262
 20
-72.865
 30
0.0
 10
-80.0262
 20
-72.865
 30
0.0
  0
SPLINE
  5
81
330
1F
100
AcDbEntity
  8
layer 1
 62
     7
100
AcDbSpline
210
0.0
220
0.0
230
1.0
 70
    11
 71
     3
 72
    20
 73
    16
 74
     0
 42
0.0000000001
 43
0.0000000001
 12
1.0
 22
0.0
 32
0.0
 13
1.0
 23
0.0
 33
0.0
 40
0.0
 40
0.0
 40
0.0
 40
0.0
 40
0.2
 40
0.2
 40
0.2
 40
0.2
 40
0.4
 40
0.4
 40
0.4
 40
0.4
 40
0.6
 40
0.6
 40
0.6
 40
0.6
 40
1.0
 40
1.0
 40
1.0
 40
1.0
 10
-91.072
 20
-88.5247
 30
0.0
 10
-93.1745
 20
-88.29
 30
0.0
 10
-96.1176
 20
-88.856
 30
0.0
 10
-98.2335
 20
-89.1653
 30
0.0
 10
-98.2335
 20
-89.1653
 30
0.0
 10
-96.9076
 20
-87.4875
 30
0.0
 10
-95.1746
 20
-85.0005
 30
0.0
 10
-94.0979
 20
-83.2836
 30
0.0
 10
-94.0979
 20
-83.2836
 30
0.0
 10
-92.7673
 20
-84.0602
 30
0.0
 10
-91.8563
 20
-84.3846
 30
0.0
 10
-90.5439
 20
-84.7258
 30
0.0
 10
-90.5439
 20
-84.7258
 30
0.0
 10
-90.8886
 20
-85.9732
 30
0.0
 10
-91.0995
 20
-87.2986
 30
0.0
 10
-91.072
 20
-88.5247
 30
0.0
  0
SPLINE
  5
82
330
1F
100
AcDbEntity
  8
layer 1
 62
     7
100
AcDbSpline
210
0.0
220
0.0
230
1.0
 70
    11
 71
     3
 72
    20
 73
    16
 74
     0
 42
0.0000000001
 43
0.0000000001
 12
1.0
 22
0.0
 32
0.0
 13
1.0
 23
0.0
 33
0.0
 40
0.0
 40
0.0
 40
0.0
 40
0.0
 40
0.2
 40
0.2
 40
0.2
 40
0.2
 40
0.4
 40
0.4
 40
0.4
 40
0.4
 40
0.6
 40
0.6
 40
0.6
 40
0.6
 40
1.0
 40
1.0
 40
1.0
 40
1.0
 10
-159.2183
 20
-78.1411
 30
0.0
 10
-160.295
 20
-76.4242
 30
0.0
 10
-162.028
 20
-73.9372
 30
0.0
 10
-163.3539
 20
-72.2594
 30
0.0
 10
-163.3539
 20
-72.2594
 30
0.0
 10
-161.2379
 20
-72.5688
 30
0.0
 10
-158.2176
 20
-72.8259
 30
0.0
 10
-156.1924
 20
-72.9
 30
0.0
 10
-156.1924
 20
-72.9
 30
0.0
 10
-156.0365
 20
-74.333
 30
0.0
 10
-155.8794
 20
-75.5769
 30
0.0
 10
-155.6643
 20
-76.699
 30
0.0
 10
-155.6643
 20
-76.699
 30
0.0
 10
-156.7816
 20
-77.0518
 30
0.0
 10
-157.9752
 20
-77.5159
 30
0.0
 10
-159.2183
 20
-78.1411
 30
0.0
  0
SPLINE
  5
83
330
1F
100
AcDbEntity
  8
layer 1
 62
     7
100
AcDbSpline
210
0.0
220
0.0
230
1.0
 70
    11
 71
     3
 72
    40
 73
    36
 74
     0
 42
0.0000000001
 43
0.0000000001
 12
1.0
 22
0.0
 32
0.0
 13
1.0
 23
0.0
 33
0.0
 40
0.0
 40
0.0
 40
0.0
 40
0.0
 40
0.1
 40
0.1
 40
0.1
 40
0.1
 40
0.2
 40
0.2
 40
0.2
 40
0.2
 40
0.3
 40
0.3
 40
0.3
 40
0.3
 40
0.4
 40
0.4
 40
0.4
 40
0.4
 40
0.5
 40
0.5
 40
0.5
 40
0.5
 40
0.6
 40
0.6
 40
0.6
 40
0.6
 40
0.7
 40
0.7
 40
0.7
 40
0.7
 40
0.8
 40
0.8
 40
0.8
 40
0.8
 40
1.0
 40
1.0
 40
1.0
 40
1.0
 10
-152.2788
 20
-72.865
 30
0.0
 10
-149.7569
 20
-72.6471
 30
0.0
 10
-144.8113
 20
-71.6802
 30
0.0
 10
-142.8548
 20
-71.2576
 30
0.0
 10
-142.8548
 20
-71.2576
 30
0.0
 10
-142.4413
 20
-73.6522
 30
0.0
 10
-140.4931
 20
-78.8262
 30
0.0
 10
-139.7308
 20
-80.0587
 30
0.0
 10
-139.7308
 20
-80.0587
 30
0.0
 10
-141.4051
 20
-80.4939
 30
0.0
 10
-144.6027
 20
-81.5291
 30
0.0
 10
-146.505
 20
-81.9773
 30
0.0
 10
-146.505
 20
-81.9773
 30
0.0
 10
-145.9421
 20
-83.849
 30
0.0
 10
-145.2397
 20
-87.1358
 30
0.0
 10
-144.7796
 20
-88.8033
 30
0.0
 10
-144.7796
 20
-88.8033
 30
0.0
 10
-146.228
 20
-88.7596
 30
0.0
 10
-151.6831
 20
-89.6593
 30
0.0
 10
-153.9636
 20
-90.4985
 30
0.0
 10
-153.9636
 20
-90.4985
 30
0.0
 10
-154.5759
 20
-88.5927
 30
0.0
 10
-156.2114
 20
-83.8262
 30
0.0
 10
-157.2836
 20
-81.5332
 30
0.0
 10
-157.2836
 20
-81.5332
 30
0.0
 10
-154.618
 20
-80.8905
 30
0.0
 10
-151.9372
 20
-80.2407
 30
0.0
 10
-150.4274
 20
-79.7126
 30
0.0
 10
-150.4274
 20
-79.7126
 30
0.0
 10
-150.725
 20
-78.1411
 30
0.0
 10
-151.5026
 20
-75.4946
 30
0.0
 10
-152.2788
 20
-72.8648
 30
0.0
 10
-152.2788
 20
-72.8648
 30
0.0
 10
-152.2788
 20
-72.8648
 30
0.0
 10
-152.2788
 20
-72.865
 30
0.0
 10
-152.2788
 20
-72.865
 30
0.0
  0
SPLINE
  5
84
330
1F
100
AcDbEntity
  8
layer 1
 62
     7
100
AcDbSpline
210
0.0
220
0.0
230
1.0
 70
    11
 71
     3
 72
    20
 73
    16
 74
     0
 42
0.0000000001
 43
0.0000000001
 12
1.0
 22
0.0
 32
0.0
 13
1.0
 23
0.0
 33
0.0
 40
0.0
 40
0.0
 40
0.0
 40
0.0
 40
0.2
 40
0.2
 40
0.2
 40
0.2
 40
0.4
 40
0.4
 40
0.4
 40
0.4
 40
0.6
 40
0.6
 40
0.6
 40
0.6
 40
1.0
 40
1.0
 40
1.0
 40
1.0
 10
-141.2331
 20
-88.5247
 30
0.0
 10
-139.1306
 20
-88.29
 30
0.0
 10
-136.1875
 20
-88.856
 30
0.0
 10
-134.0716
 20
-89.1653
 30
0.0
 10
-134.0716
 20
-89.1653
 30
0.0
 10
-135.3975
 20
-87.4875
 30
0.0
 10
-137.1305
 20
-85.0005
 30
0.0
 10
-138.2072
 20
-83.2836
 30
0.0
 10
-138.2072
 20
-83.2836
 30
0.0
 10
-139.5378
 20
-84.0602
 30
0.0
 10
-140.4488
 20
-84.3846
 30
0.0
 10
-141.7612
 20
-84.7258
 30
0.0
 10
-141.7612
 20
-84.7258
 30
0.0
 10
-141.4165
 20
-85.9732
 30
0.0
 10
-141.2056
 20
-87.2986
 30
0.0
 10
-141.2331
 20
-88.5247
 30
0.0
  0
SPLINE
  5
85
330
1F
100
AcDbEntity
  8
layer 1
 62
     7
100
AcDbSpline
210
0.0
220
0.0
230
1.0
 70
    11
 71
     3
 72
    24
 73
    20
 74
     0
 42
0.0000000001
 43
0.0000000001
 12
1.0
 22
0.0
 32
0.0
 13
1.0
 23
0.0
 33
0.0
 40
0.0
 40
0.0
 40
0.0
 40
0.0
 40
0.1666666666666667
 40
0.1666666666666667
 40
0.1666666666666667
 40
0.1666666666666667
 40
0.3333333333333333
 40
0.3333333333333333
 40
0.3333333333333333
 40
0.3333333333333333
 40
0.5
 40
0.5
 40
0.5
 40
0.5
 40
0.6666666666666666
 40
0.6666666666666666
 40
0.6666666666666666
 40
0.6666666666666666
 40
1.0
 40
1.0
 40
1.0
 40
1.0
 10
-139.8372
 20
-17.2887
 30
0.0
 10
-135.3321
 20
-17.2815
 30
0.0
 10
-128.7392
 20
-19.1713
 30
0.0
 10
-124.6207
 20
-21.7918
 30
0.0
 10
-124.6207
 20
-21.7918
 30
0.0
 10
-124.6199
 20
-24.2978
 30
0.0
 10
-124.6212
 20
-25.057
 30
0.0
 10
-124.6135
 20
-27.0793
 30
0.0
 10
-124.6135
 20
-27.0793
 30
0.0
 10
-127.5414
 20
-29.1778
 30
0.0
 10
-136.2748
 20
-32.0714
 30
0.0
 10
-139.8141
 20
-31.4721
 30
0.0
 10
-139.8141
 20
-31.4721
 30
0.0
 10
-139.6168
 20
-27.3651
 30
0.0
 10
-139.7291
 20
-20.7655
 30
0.0
 10
-139.8372
 20
-17.2889
 30
0.0
 10
-139.8372
 20
-17.2889
 30
0.0
 10
-139.8372
 20
-17.2889
 30
0.0
 10
-139.8372
 20
-17.2887
 30
0.0
 10
-139.8372
 20
-17.2887
 30
0.0
  0
SPLINE
  5
86
330
1F
100
AcDbEntity
  8
layer 1
 62
     7
100
AcDbSpline
210
0.0
220
0.0
230
1.0
 70
    11
 71
     3
 72
    20
 73
    16
 74
     0
 42
0.0000000001
 43
0.0000000001
 12
1.0
 22
0.0
 32
0.0
 13
1.0
 23
0.0
 33
0.0
 40
0.0
 40
0.0
 40
0.0
 40
0.0
 40
0.2
 40
0.2
 40
0.2
 40
0.2
 40
0.4
 40
0.4
 40
0.4
 40
0.4
 40
0.6
 40
0.6
 40
0.6
 40
0.6
 40
1.0
 40
1.0
 40
1.0
 40
1.0
 10
-143.6473
 20
-17.3966
 30
0.0
 10
-146.6966
 20
-17.5512
 30
0.0
 10
-150.8631
 20
-18.0391
 30
0.0
 10
-153.0944
 20
-18.9879
 30
0.0
 10
-153.0944
 20
-18.9879
 30
0.0
 10
-152.8796
 20
-22.0869
 30
0.0
 10
-152.8783
 20
-27.6452
 30
0.0
 10
-153.2633
 20
-29.883
 30
0.0
 10
-153.2633
 20
-29.883
 30
0.0
 10
-150.2813
 20
-30.957
 30
0.0
 10
-146.5087
 20
-31.6399
 30
0.0
 10
-143.7783
 20
-31.3102
 30
0.0
 10
-143.7783
 20
-31.3102
 30
0.0
 10
-143.3259
 20
-26.9685
 30
0.0
 10
-142.9911
 20
-21.9898
 30
0.0
 10
-143.6473
 20
-17.3966
 30
0.0
  0
SPLINE
  5
87
330
1F
100
AcDbEntity
  8
layer 1
 62
     7
100
AcDbSpline
210
0.0
220
0.0
230
1.0
 70
    11
 71
     3
 72
    20
 73
    16
 74
     0
 42
0.0000000001
 43
0.0000000001
 12
1.0
 22
0.0
 32
0.0
 13
1.0
 23
0.0
 33
0.0
 40
0.0
 40
0.0
 40
0.0
 40
0.0
 40
0.2
 40
0.2
 40
0.2
 40
0.2
 40
0.4
 40
0.4
 40
0.4
 40
0.4
 40
0.6
 40
0.6
 40
0.6
 40
0.6
 40
1.0
 40
1.0
 40
1.0
 40
1.0
 10
-156.642
 20
-20.3622
 30
0.0
 10
-159.5835
 20
-21.3256
 30
0.0
 10
-161.701
 20
-22.4605
 30
0.0
 10
-164.0403
 20
-24.4338
 30
0.0
 10
-164.0403
 20
-24.4338
 30
0.0
 10
-162.1474
 20
-26.0563
 30
0.0
 10
-159.4025
 20
-27.6701
 30
0.0
 10
-156.6654
 20
-28.3985
 30
0.0
 10
-156.6654
 20
-28.3985
 30
0.0
 10
-156.4827
 20
-25.9979
 30
0.0
 10
-156.4173
 20
-22.7447
 30
0.0
 10
-156.6422
 20
-20.362
 30
0.0
 10
-156.6422
 20
-20.362
 30
0.0
 10
-156.6422
 20
-20.362
 30
0.0
 10
-156.642
 20
-20.3622
 30
0.0
 10
-156.642
 20
-20.3622
 30
0.0
  0
SPLINE
  5
88
330
1F
100
AcDbEntity
  8
layer 1
 62
     7
100
AcDbSpline
210
0.0
220
0.0
230
1.0
 70
    11
 71
     3
 72
    24
 73
    20
 74
     0
 42
0.0000000001
 43
0.0000000001
 12
1.0
 22
0.0
 32
0.0
 13
1.0
 23
0.0
 33
0.0
 40
0.0
 40
0.0
 40
0.0
 40
0.0
 40
0.1666666666666667
 40
0.1666666666666667
 40
0.1666666666666667
 40
0.1666666666666667
 40
0.3333333333333333
 40
0.3333333333333333
 40
0.3333333333333333
 40
0.3333333333333333
 40
0.5
 40
0.5
 40
0.5
 40
0.5
 40
0.6666666666666666
 40
0.6666666666666666
 40
0.6666666666666666
 40
0.6666666666666666
 40
1.0
 40
1.0
 40
1.0
 40
1.0
 10
-92.0351
 20
-17.2887
 30
0.0
 10
-96.5402
 20
-17.2815
 30
0.0
 10
-103.1331
 20
-19.1713
 30
0.0
 10
-107.2516
 20
-21.7918
 30
0.0
 10
-107.2516
 20
-21.7918
 30
0.0
 10
-107.2524
 20
-24.2978
 30
0.0
 10
-107.2511
 20
-25.057
 30
0.0
 10
-107.2589
 20
-27.0793
 30
0.0
 10
-107.2589
 20
-27.0793
 30
0.0
 10
-104.3309
 20
-29.1778
 30
0.0
 10
-95.5976
 20
-32.0714
 30
0.0
 10
-92.0582
 20
-31.4721
 30
0.0
 10
-92.0582
 20
-31.4721
 30
0.0
 10
-92.2555
 20
-27.3651
 30
0.0
 10
-92.1433
 20
-20.7655
 30
0.0
 10
-92.0351
 20
-17.2889
 30
0.0
 10
-92.0351
 20
-17.2889
 30
0.0
 10
-92.0351
 20
-17.2889
 30
0.0
 10
-92.0351
 20
-17.2887
 30
0.0
 10
-92.0351
 20
-17.2887
 30
0.0
  0
SPLINE
  5
89
330
1F
100
AcDbEntity
  8
layer 1
 62
     7
100
AcDbSpline
210
0.0
220
0.0
230
1.0
 70
    11
 71
     3
 72
    20
 73
    16
 74
     0
 42
0.0000000001
 43
0.0000000001
 12
1.0
 22
0.0
 32
0.0
 13
1.0
 23
0.0
 33
0.0
 40
0.0
 40
0.0
 40
0.0
 40
0.0
 40
0.2
 40
0.2
 40
0.2
 40
0.2
 40
0.4
 40
0.4
 40
0.4
 40
0.4
 40
0.6
 40
0.6
 40
0.6
 40
0.6
 40
1.0
 40
1.0
 40
1.0
 40
1.0
 10
-88.2252
 20
-17.3966
 30
0.0
 10
-85.1758
 20
-17.5512
 30
0.0
 10
-81.0094
 20
-18.0391
 30
0.0
 10
-78.7781
 20
-18.9879
 30
0.0
 10
-78.7781
 20
-18.9879
 30
0.0
 10
-78.9929
 20
-22.0869
 30
0.0
 10
-78.9942
 20
-27.6452
 30
0.0
 10
-78.6092
 20
-29.883
 30
0.0
 10
-78.6092
 20
-29.883
 30
0.0
 10
-81.5912
 20
-30.957
 30
0.0
 10
-85.3638
 20
-31.6399
 30
0.0
 10
-88.0942
 20
-31.3102
 30
0.0
 10
-88.0942
 20
-31.3102
 30
0.0
 10
-88.5465
 20
-26.9685
 30
0.0
 10
-88.8814
 20
-21.9898
 30
0.0
 10
-88.2252
 20
-17.3966
 30
0.0
  0
SPLINE
  5
8A
330
1F
100
AcDbEntity
  8
layer 1
 62
     7
100
AcDbSpline
210
0.0
220
0.0
230
1.0
 70
    11
 71
     3
 72
    20
 73
    16
 74
     0
 42
0.0000000001
 43
0.0000000001
 12
1.0
 22
0.0
 32
0.0
 13
1.0
 23
0.0
 33
0.0
 40
0.0
 40
0.0
 40
0.0
 40
0.0
 40
0.2
 40
0.2
 40
0.2
 40
0.2
 40
0.4
 40
0.4
 40
0.4
 40
0.4
 40
0.6
 40
0.6
 40
0.6
 40
0.6
 40
1.0
 40
1.0
 40
1.0
 40
1.0
 10
-75.2304
 20
-20.3622
 30
0.0
 10
-72.2889
 20
-21.3256
 30
0.0
 10
-70.1715
 20
-22.4605
 30
0.0
 10
-67.8322
 20
-24.4338
 30
0.0
 10
-67.8322
 20
-24.4338
 30
0.0
 10
-69.7251
 20
-26.0563
 30
0.0
 10
-72.47
 20
-27.6701
 30
0.0
 10
-75.2071
 20
-28.3985
 30
0.0
 10
-75.2071
 20
-28.3985
 30
0.0
 10
-75.3897
 20
-25.9979
 30
0.0
 10
-75.4552
 20
-22.7447
 30
0.0
 10
-75.2303
 20
-20.362
 30
0.0
 10
-75.2303
 20
-20.362
 30
0.0
 10
-75.2303
 20
-20.362
 30
0.0
 10
-75.2304
 20
-20.3622
 30
0.0
 10
-75.2304
 20
-20.3622
 30
0.0
  0
SPLINE
  5
8B
330
1F
100
AcDbEntity
  8
layer 1
 62
     7
100
AcDbSpline
210
0.0
220
0.0
230
1.0
 70
    11
 71
     3
 72
    24
 73
    20
 74
     0
 42
0.0000000001
 43
0.0000000001
 12
1.0
 22
0.0
 32
0.0
 13
1.0
 23
0.0
 33
0.0
 40
0.0
 40
0.0
 40
0.0
 40
0.0
 40
0.1666666666666667
 40
0.1666666666666667
 40
0.1666666666666667
 40
0.1666666666666667
 40
0.3333333333333333
 40
0.3333333333333333
 40
0.3333333333333333
 40
0.3333333333333333
 40
0.5
 40
0.5
 40
0.5
 40
0.5
 40
0.6666666666666666
 40
0.6666666666666666
 40
0.6666666666666666
 40
0.6666666666666666
 40
1.0
 40
1.0
 40
1.0
 40
1.0
 10
-139.8372
 20
-17.2887
 30
0.0
 10
-135.3321
 20
-17.2815
 30
0.0
 10
-128.7392
 20
-19.1713
 30
0.0
 10
-124.6207
 20
-21.7918
 30
0.0
 10
-124.6207
 20
-21.7918
 30
0.0
 10
-124.6199
 20
-24.2978
 30
0.0
 10
-124.6212
 20
-25.057
 30
0.0
 10
-124.6135
 20
-27.0793
 30
0.0
 10
-124.6135
 20
-27.0793
 30
0.0
 10
-127.5414
 20
-29.1778
 30
0.0
 10
-136.2748
 20
-32.0714
 30
0.0
 10
-139.8141
 20
-31.4721
 30
0.0
 10
-139.8141
 20
-31.4721
 30
0.0
 10
-139.6168
 20
-27.3651
 30
0.0
 10
-139.7291
 20
-20.7655
 30
0.0
 10
-139.8372
 20
-17.2889
 30
0.0
 10
-139.8372
 20
-17.2889
 30
0.0
 10
-139.8372
 20
-17.2889
 30
0.0
 10
-139.8372
 20
-17.2887
 30
0.0
 10
-139.8372
 20
-17.2887
 30
0.0
  0
SPLINE
  5
8C
330
1F
100
AcDbEntity
  8
layer 1
 62
     7
100
AcDbSpline
210
0.0
220
0.0
230
1.0
 70
    11
 71
     3
 72
    20
 73
    16
 74
     0
 42
0.0000000001
 43
0.0000000001
 12
1.0
 22
0.0
 32
0.0
 13
1.0
 23
0.0
 33
0.0
 40
0.0
 40
0.0
 40
0.0
 40
0.0
 40
0.2
 40
0.2
 40
0.2
 40
0.2
 40
0.4
 40
0.4
 40
0.4
 40
0.4
 40
0.6
 40
0.6
 40
0.6
 40
0.6
 40
1.0
 40
1.0
 40
1.0
 40
1.0
 10
-143.6473
 20
-17.3966
 30
0.0
 10
-146.6966
 20
-17.5512
 30
0.0
 10
-150.8631
 20
-18.0391
 30
0.0
 10
-153.0944
 20
-18.9879
 30
0.0
 10
-153.0944
 20
-18.9879
 30
0.0
 10
-152.8796
 20
-22.0869
 30
0.0
 10
-152.8783
 20
-27.6452
 30
0.0
 10
-153.2633
 20
-29.883
 30
0.0
 10
-153.2633
 20
-29.883
 30
0.0
 10
-150.2813
 20
-30.957
 30
0.0
 10
-146.5087
 20
-31.6399
 30
0.0
 10
-143.7783
 20
-31.3102
 30
0.0
 10
-143.7783
 20
-31.3102
 30
0.0
 10
-143.3259
 20
-26.9685
 30
0.0
 10
-142.9911
 20
-21.9898
 30
0.0
 10
-143.6473
 20
-17.3966
 30
0.0
  0
SPLINE
  5
8D
330
1F
100
AcDbEntity
  8
layer 1
 62
     7
100
AcDbSpline
210
0.0
220
0.0
230
1.0
 70
    11
 71
     3
 72
    20
 73
    16
 74
     0
 42
0.0000000001
 43
0.0000000001
 12
1.0
 22
0.0
 32
0.0
 13
1.0
 23
0.0
 33
0.0
 40
0.0
 40
0.0
 40
0.0
 40
0.0
 40
0.2
 40
0.2
 40
0.2
 40
0.2
 40
0.4
 40
0.4
 40
0.4
 40
0.4
 40
0.6
 40
0.6
 40
0.6
 40
0.6
 40
1.0
 40
1.0
 40
1.0
 40
1.0
 10
-156.642
 20
-20.3622
 30
0.0
 10
-159.5835
 20
-21.3256
 30
0.0
 10
-161.701
 20
-22.4605
 30
0.0
 10
-164.0403
 20
-24.4338
 30
0.0
 10
-164.0403
 20
-24.4338
 30
0.0
 10
-162.1474
 20
-26.0563
 30
0.0
 10
-159.4025
 20
-27.6701
 30
0.0
 10
-156.6654
 20
-28.3985
 30
0.0
 10
-156.6654
 20
-28.3985
 30
0.0
 10
-156.4827
 20
-25.9979
 30
0.0
 10
-156.4173
 20
-22.7447
 30
0.0
 10
-156.6422
 20
-20.362
 30
0.0
 10
-156.6422
 20
-20.362
 30
0.0
 10
-156.6422
 20
-20.362
 30
0.0
 10
-156.642
 20
-20.3622
 30
0.0
 10
-156.642
 20
-20.3622
 30
0.0
  0
SPLINE
  5
8E
330
1F
100
AcDbEntity
  8
layer 1
 62
     7
100
AcDbSpline
210
0.0
220
0.0
230
1.0
 70
    11
 71
     3
 72
    24
 73
    20
 74
     0
 42
0.0000000001
 43
0.0000000001
 12
1.0
 22
0.0
 32
0.0
 13
1.0
 23
0.0
 33
0.0
 40
0.0
 40
0.0
 40
0.0
 40
0.0
 40
0.1666666666666667
 40
0.1666666666666667
 40
0.1666666666666667
 40
0.1666666666666667
 40
0.3333333333333333
 40
0.3333333333333333
 40
0.3333333333333333
 40
0.3333333333333333
 40
0.5
 40
0.5
 40
0.5
 40
0.5
 40
0.6666666666666666
 40
0.6666666666666666
 40
0.6666666666666666
 40
0.6666666666666666
 40
1.0
 40
1.0
 40
1.0
 40
1.0
 10
-92.0351
 20
-17.2887
 30
0.0
 10
-96.5402
 20
-17.2815
 30
0.0
 10
-103.1331
 20
-19.1713
 30
0.0
 10
-107.2516
 20
-21.7918
 30
0.0
 10
-107.2516
 20
-21.7918
 30
0.0
 10
-107.2524
 20
-24.2978
 30
0.0
 10
-107.2511
 20
-25.057
 30
0.0
 10
-107.2589
 20
-27.0793
 30
0.0
 10
-107.2589
 20
-27.0793
 30
0.0
 10
-104.3309
 20
-29.1778
 30
0.0
 10
-95.5976
 20
-32.0714
 30
0.0
 10
-92.0582
 20
-31.4721
 30
0.0
 10
-92.0582
 20
-31.4721
 30
0.0
 10
-92.2555
 20
-27.3651
 30
0.0
 10
-92.1433
 20
-20.7655
 30
0.0
 10
-92.0351
 20
-17.2889
 30
0.0
 10
-92.0351
 20
-17.2889
 30
0.0
 10
-92.0351
 20
-17.2889
 30
0.0
 10
-92.0351
 20
-17.2887
 30
0.0
 10
-92.0351
 20
-17.2887
 30
0.0
  0
SPLINE
  5
8F
330
1F
100
AcDbEntity
  8
layer 1
 62
     7
100
AcDbSpline
210
0.0
220
0.0
230
1.0
 70
    11
 71
     3
 72
    20
 73
    16
 74
     0
 42
0.0000000001
 43
0.0000000001
 12
1.0
 22
0.0
 32
0.0
 13
1.0
 23
0.0
 33
0.0
 40
0.0
 40
0.0
 40
0.0
 40
0.0
 40
0.2
 40
0.2
 40
0.2
 40
0.2
 40
0.4
 40
0.4
 40
0.4
 40
0.4
 40
0.6
 40
0.6
 40
0.6
 40
0.6
 40
1.0
 40
1.0
 40
1.0
 40
1.0
 10
-88.2252
 20
-17.3966
 30
0.0
 10
-85.1758
 20
-17.5512
 30
0.0
 10
-81.0094
 20
-18.0391
 30
0.0
 10
-78.7781
 20
-18.9879
 30
0.0
 10
-78.7781
 20
-18.9879
 30
0.0
 10
-78.9929
 20
-22.0869
 30
0.0
 10
-78.9942
 20
-27.6452
 30
0.0
 10
-78.6092
 20
-29.883
 30
0.0
 10
-78.6092
 20
-29.883
 30
0.0
 10
-81.5912
 20
-30.957
 30
0.0
 10
-85.3638
 20
-31.6399
 30
0.0
 10
-88.0942
 20
-31.3102
 30
0.0
 10
-88.0942
 20
-31.3102
 30
0.0
 10
-88.5465
 20
-26.9685
 30
0.0
 10
-88.8814
 20
-21.9898
 30
0.0
 10
-88.2252
 20
-17.3966
 30
0.0
  0
SPLINE
  5
90
330
1F
100
AcDbEntity
  8
layer 1
 62
     7
100
AcDbSpline
210
0.0
220
0.0
230
1.0
 70
    11
 71
     3
 72
    20
 73
    16
 74
     0
 42
0.0000000001
 43
0.0000000001
 12
1.0
 22
0.0
 32
0.0
 13
1.0
 23
0.0
 33
0.0
 40
0.0
 40
0.0
 40
0.0
 40
0.0
 40
0.2
 40
0.2
 40
0.2
 40
0.2
 40
0.4
 40
0.4
 40
0.4
 40
0.4
 40
0.6
 40
0.6
 40
0.6
 40
0.6
 40
1.0
 40
1.0
 40
1.0
 40
1.0
 10
-75.2304
 20
-20.3622
 30
0.0
 10
-72.2889
 20
-21.3256
 30
0.0
 10
-70.1715
 20
-22.4605
 30
0.0
 10
-67.8322
 20
-24.4338
 30
0.0
 10
-67.8322
 20
-24.4338
 30
0.0
 10
-69.7251
 20
-26.0563
 30
0.0
 10
-72.47
 20
-27.6701
 30
0.0
 10
-75.2071
 20
-28.3985
 30
0.0
 10
-75.2071
 20
-28.3985
 30
0.0
 10
-75.3897
 20
-25.9979
 30
0.0
 10
-75.4552
 20
-22.7447
 30
0.0
 10
-75.2303
 20
-20.362
 30
0.0
 10
-75.2303
 20
-20.362
 30
0.0
 10
-75.2303
 20
-20.362
 30
0.0
 10
-75.2304
 20
-20.3622
 30
0.0
 10
-75.2304
 20
-20.3622
 30
0.0
  0
SPLINE
  5
91
330
1F
100
AcDbEntity
  8
layer 1
 62
     7
100
AcDbSpline
210
0.0
220
0.0
230
1.0
 70
    11
 71
     3
 72
    28
 73
    24
 74
     0
 42
0.0000000001
 43
0.0000000001
 12
1.0
 22
0.0
 32
0.0
 13
1.0
 23
0.0
 33
0.0
 40
0.0
 40
0.0
 40
0.0
 40
0.0
 40
0.1428571428571428
 40
0.1428571428571428
 40
0.1428571428571428
 40
0.1428571428571428
 40
0.2857142857142857
 40
0.2857142857142857
 40
0.2857142857142857
 40
0.2857142857142857
 40
0.4285714285714285
 40
0.4285714285714285
 40
0.4285714285714285
 40
0.4285714285714285
 40
0.5714285714285714
 40
0.5714285714285714
 40
0.5714285714285714
 40
0.5714285714285714
 40
0.7142857142857143
 40
0.7142857142857143
 40
0.7142857142857143
 40
0.7142857142857143
 40
1.0
 40
1.0
 40
1.0
 40
1.0
 10
-111.0995
 20
47.1128
 30
0.0
 10
-111.0995
 20
47.1128
 30
0.0
 10
-116.0247
 20
44.2647
 30
0.0
 10
-116.0247
 20
44.2647
 30
0.0
 10
-116.0247
 20
44.2647
 30
0.0
 10
-116.0247
 20
44.2647
 30
0.0
 10
-120.9499
 20
47.1128
 30
0.0
 10
-120.9499
 20
47.1128
 30
0.0
 10
-120.9499
 20
47.1128
 30
0.0
 10
-120.9499
 20
47.1128
 30
0.0
 10
-120.9499
 20
52.809
 30
0.0
 10
-120.9499
 20
52.809
 30
0.0
 10
-120.9499
 20
52.809
 30
0.0
 10
-120.9499
 20
52.809
 30
0.0
 10
-116.0247
 20
55.6571
 30
0.0
 10
-116.0247
 20
55.6571
 30
0.0
 10
-116.0247
 20
55.6571
 30
0.0
 10
-116.0247
 20
55.6571
 30
0.0
 10
-111.0995
 20
52.809
 30
0.0
 10
-111.0995
 20
52.809
 30
0.0
 10
-111.0995
 20
52.809
 30
0.0
 10
-111.0995
 20
52.809
 30
0.0
 10
-111.0995
 20
47.1128
 30
0.0
 10
-111.0995
 20
47.1128
 30
0.0
  0
SPLINE
  5
92
330
1F
100
AcDbEntity
  8
layer 1
 62
     7
100
AcDbSpline
210
0.0
220
0.0
230
1.0
 70
    11
 71
     3
 72
    28
 73
    24
 74
     0
 42
0.0000000001
 43
0.0000000001
 12
1.0
 22
0.0
 32
0.0
 13
1.0
 23
0.0
 33
0.0
 40
0.0
 40
0.0
 40
0.0
 40
0.0
 40
0.1428571428571428
 40
0.1428571428571428
 40
0.1428571428571428
 40
0.1428571428571428
 40
0.2857142857142857
 40
0.2857142857142857
 40
0.2857142857142857
 40
0.2857142857142857
 40
0.4285714285714285
 40
0.4285714285714285
 40
0.4285714285714285
 40
0.4285714285714285
 40
0.5714285714285714
 40
0.5714285714285714
 40
0.5714285714285714
 40
0.5714285714285714
 40
0.7142857142857143
 40
0.7142857142857143
 40
0.7142857142857143
 40
0.7142857142857143
 40
1.0
 40
1.0
 40
1.0
 40
1.0
 10
-111.0995
 20
-27.3462
 30
0.0
 10
-111.0995
 20
-27.3462
 30
0.0
 10
-116.0247
 20
-30.1942
 30
0.0
 10
-116.0247
 20
-30.1942
 30
0.0
 10
-116.0247
 20
-30.1942
 30
0.0
 10
-116.0247
 20
-30.1942
 30
0.0
 10
-120.9499
 20
-27.3462
 30
0.0
 10
-120.9499
 20
-27.3462
 30
0.0
 10
-120.9499
 20
-27.3462
 30
0.0
 10
-120.9499
 20
-27.3462
 30
0.0
 10
-120.9499
 20
-21.65
 30
0.0
 10
-120.9499
 20
-21.65
 30
0.0
 10
-120.9499
 20
-21.65
 30
0.0
 10
-120.9499
 20
-21.65
 30
0.0
 10
-116.0247
 20
-18.8019
 30
0.0
 10
-116.0247
 20
-18.8019
 30
0.0
 10
-116.0247
 20
-18.8019
 30
0.0
 10
-116.0247
 20
-18.8019
 30
0.0
 10
-111.0995
 20
-21.65
 30
0.0
 10
-111.0995
 20
-21.65
 30
0.0
 10
-111.0995
 20
-21.65
 30
0.0
 10
-111.0995
 20
-21.65
 30
0.0
 10
-111.0995
 20
-27.3462
 30
0.0
 10
-111.0995
 20
-27.3462
 30
0.0
  0
SPLINE
  5
93
330
1F
100
AcDbEntity
  8
layer 1
 62
     7
100
AcDbSpline
210
0.0
220
0.0
230
1.0
 70
    11
 71
     3
 72
    24
 73
    20
 74
     0
 42
0.0000000001
 43
0.0000000001
 12
1.0
 22
0.0
 32
0.0
 13
1.0
 23
0.0
 33
0.0
 40
0.0
 40
0.0
 40
0.0
 40
0.0
 40
0.1666666666666667
 40
0.1666666666666667
 40
0.1666666666666667
 40
0.1666666666666667
 40
0.3333333333333333
 40
0.3333333333333333
 40
0.3333333333333333
 40
0.3333333333333333
 40
0.5
 40
0.5
 40
0.5
 40
0.5
 40
0.6666666666666666
 40
0.6666666666666666
 40
0.6666666666666666
 40
0.6666666666666666
 40
1.0
 40
1.0
 40
1.0
 40
1.0
 10
-121.9342
 20
-0.2722
 30
0.0
 10
-119.6754
 20
-4.1702
 30
0.0
 10
-118.0156
 20
-10.8248
 30
0.0
 10
-118.2255
 20
-15.7016
 30
0.0
 10
-118.2255
 20
-15.7016
 30
0.0
 10
-120.3953
 20
-16.9553
 30
0.0
 10
-121.0535
 20
-17.3339
 30
0.0
 10
-122.8011
 20
-18.3516
 30
0.0
 10
-122.8011
 20
-18.3516
 30
0.0
 10
-126.0824
 20
-16.8651
 30
0.0
 10
-132.955
 20
-10.7486
 30
0.0
 10
-134.2057
 20
-7.3838
 30
0.0
 10
-134.2057
 20
-7.3838
 30
0.0
 10
-130.5503
 20
-5.501
 30
0.0
 10
-124.8911
 20
-2.1041
 30
0.0
 10
-121.9342
 20
-0.272
 30
0.0
 10
-121.9342
 20
-0.272
 30
0.0
 10
-121.9342
 20
-0.272
 30
0.0
 10
-121.9342
 20
-0.2722
 30
0.0
 10
-121.9342
 20
-0.2722
 30
0.0
  0
SPLINE
  5
94
330
1F
100
AcDbEntity
  8
layer 1
 62
     7
100
AcDbSpline
210
0.0
220
0.0
230
1.0
 70
    11
 71
     3
 72
    24
 73
    20
 74
     0
 42
0.0000000001
 43
0.0000000001
 12
1.0
 22
0.0
 32
0.0
 13
1.0
 23
0.0
 33
0.0
 40
0.0
 40
0.0
 40
0.0
 40
0.0
 40
0.1666666666666667
 40
0.1666666666666667
 40
0.1666666666666667
 40
0.1666666666666667
 40
0.3333333333333333
 40
0.3333333333333333
 40
0.3333333333333333
 40
0.3333333333333333
 40
0.5
 40
0.5
 40
0.5
 40
0.5
 40
0.6666666666666666
 40
0.6666666666666666
 40
0.6666666666666666
 40
0.6666666666666666
 40
1.0
 40
1.0
 40
1.0
 40
1.0
 10
-123.9325
 20
2.9735
 30
0.0
 10
-125.591
 20
5.537
 30
0.0
 10
-128.0968
 20
8.9013
 30
0.0
 10
-130.0343
 20
10.3593
 30
0.0
 10
-130.0343
 20
10.3593
 30
0.0
 10
-132.6107
 20
8.6238
 30
0.0
 10
-137.4237
 20
5.8436
 30
0.0
 10
-139.5543
 20
5.0581
 30
0.0
 10
-139.5543
 20
5.0581
 30
0.0
 10
-138.9934
 20
1.9387
 30
0.0
 10
-137.6984
 20
-1.6699
 30
0.0
 10
-136.0478
 20
-3.8697
 30
0.0
 10
-136.0478
 20
-3.8697
 30
0.0
 10
-132.0615
 20
-2.0905
 30
0.0
 10
-127.5824
 20
0.1087
 30
0.0
 10
-123.9327
 20
2.9736
 30
0.0
 10
-123.9327
 20
2.9736
 30
0.0
 10
-123.9327
 20
2.9736
 30
0.0
 10
-123.9325
 20
2.9735
 30
0.0
 10
-123.9325
 20
2.9735
 30
0.0
  0
SPLINE
  5
95
330
1F
100
AcDbEntity
  8
layer 1
 62
     7
100
AcDbSpline
210
0.0
220
0.0
230
1.0
 70
    11
 71
     3
 72
    24
 73
    20
 74
     0
 42
0.0000000001
 43
0.0000000001
 12
1.0
 22
0.0
 32
0.0
 13
1.0
 23
0.0
 33
0.0
 40
0.0
 40
0.0
 40
0.0
 40
0.0
 40
0.1666666666666667
 40
0.1666666666666667
 40
0.1666666666666667
 40
0.1666666666666667
 40
0.3333333333333333
 40
0.3333333333333333
 40
0.3333333333333333
 40
0.3333333333333333
 40
0.5
 40
0.5
 40
0.5
 40
0.5
 40
0.6666666666666666
 40
0.6666666666666666
 40
0.6666666666666666
 40
0.6666666666666666
 40
1.0
 40
1.0
 40
1.0
 40
1.0
 10
-121.8263
 20
-48.8448
 30
0.0
 10
-119.5675
 20
-44.9469
 30
0.0
 10
-117.9077
 20
-38.2923
 30
0.0
 10
-118.1177
 20
-33.4154
 30
0.0
 10
-118.1177
 20
-33.4154
 30
0.0
 10
-120.2874
 20
-32.1617
 30
0.0
 10
-120.9457
 20
-31.7831
 30
0.0
 10
-122.6932
 20
-30.7654
 30
0.0
 10
-122.6932
 20
-30.7654
 30
0.0
 10
-125.9746
 20
-32.2519
 30
0.0
 10
-132.8471
 20
-38.3685
 30
0.0
 10
-134.0978
 20
-41.7332
 30
0.0
 10
-134.0978
 20
-41.7332
 30
0.0
 10
-130.4424
 20
-43.616
 30
0.0
 10
-124.7832
 20
-47.0129
 30
0.0
 10
-121.8263
 20
-48.845
 30
0.0
 10
-121.8263
 20
-48.845
 30
0.0
 10
-121.8263
 20
-48.845
 30
0.0
 10
-121.8263
 20
-48.8448
 30
0.0
 10
-121.8263
 20
-48.8448
 30
0.0
  0
SPLINE
  5
96
330
1F
100
AcDbEntity
  8
layer 1
 62
     7
100
AcDbSpline
210
0.0
220
0.0
230
1.0
 70
    11
 71
     3
 72
    24
 73
    20
 74
     0
 42
0.0000000001
 43
0.0000000001
 12
1.0
 22
0.0
 32
0.0
 13
1.0
 23
0.0
 33
0.0
 40
0.0
 40
0.0
 40
0.0
 40
0.0
 40
0.1666666666666667
 40
0.1666666666666667
 40
0.1666666666666667
 40
0.1666666666666667
 40
0.3333333333333333
 40
0.3333333333333333
 40
0.3333333333333333
 40
0.3333333333333333
 40
0.5
 40
0.5
 40
0.5
 40
0.5
 40
0.6666666666666666
 40
0.6666666666666666
 40
0.6666666666666666
 40
0.6666666666666666
 40
1.0
 40
1.0
 40
1.0
 40
1.0
 10
-123.8246
 20
-52.0905
 30
0.0
 10
-125.4831
 20
-54.654
 30
0.0
 10
-127.989
 20
-58.0183
 30
0.0
 10
-129.9264
 20
-59.4763
 30
0.0
 10
-129.9264
 20
-59.4763
 30
0.0
 10
-132.5028
 20
-57.7408
 30
0.0
 10
-137.3158
 20
-54.9606
 30
0.0
 10
-139.4464
 20
-54.1751
 30
0.0
 10
-139.4464
 20
-54.1751
 30
0.0
 10
-138.8856
 20
-51.0557
 30
0.0
 10
-137.5905
 20
-47.4471
 30
0.0
 10
-135.9399
 20
-45.2473
 30
0.0
 10
-135.9399
 20
-45.2473
 30
0.0
 10
-131.9537
 20
-47.0265
 30
0.0
 10
-127.4746
 20
-49.2257
 30
0.0
 10
-123.8248
 20
-52.0906
 30
0.0
 10
-123.8248
 20
-52.0906
 30
0.0
 10
-123.8248
 20
-52.0906
 30
0.0
 10
-123.8246
 20
-52.0905
 30
0.0
 10
-123.8246
 20
-52.0905
 30
0.0
  0
SPLINE
  5
97
330
1F
100
AcDbEntity
  8
layer 1
 62
     7
100
AcDbSpline
210
0.0
220
0.0
230
1.0
 70
    11
 71
     3
 72
    16
 73
    12
 74
     0
 42
0.0000000001
 43
0.0000000001
 12
1.0
 22
0.0
 32
0.0
 13
1.0
 23
0.0
 33
0.0
 40
0.0
 40
0.0
 40
0.0
 40
0.0
 40
0.25
 40
0.25
 40
0.25
 40
0.25
 40
0.5
 40
0.5
 40
0.5
 40
0.5
 40
1.0
 40
1.0
 40
1.0
 40
1.0
 10
-75.4418
 20
-100.027
 30
0.0
 10
-75.4145
 20
-98.5764
 30
0.0
 10
-75.2364
 20
-97.0892
 30
0.0
 10
-74.8658
 20
-95.7154
 30
0.0
 10
-74.8658
 20
-95.7154
 30
0.0
 10
-72.6955
 20
-96.7574
 30
0.0
 10
-69.8455
 20
-98.6035
 30
0.0
 10
-67.8946
 20
-99.9896
 30
0.0
 10
-67.8946
 20
-99.9896
 30
0.0
 10
-67.8946
 20
-99.9896
 30
0.0
 10
-75.4418
 20
-100.027
 30
0.0
 10
-75.4418
 20
-100.027
 30
0.0
  0
SPLINE
  5
98
330
1F
100
AcDbEntity
  8
layer 1
 62
     7
100
AcDbSpline
210
0.0
220
0.0
230
1.0
 70
    11
 71
     3
 72
    24
 73
    20
 74
     0
 42
0.0000000001
 43
0.0000000001
 12
1.0
 22
0.0
 32
0.0
 13
1.0
 23
0.0
 33
0.0
 40
0.0
 40
0.0
 40
0.0
 40
0.0
 40
0.1666666666666667
 40
0.1666666666666667
 40
0.1666666666666667
 40
0.1666666666666667
 40
0.3333333333333333
 40
0.3333333333333333
 40
0.3333333333333333
 40
0.3333333333333333
 40
0.5
 40
0.5
 40
0.5
 40
0.5
 40
0.6666666666666666
 40
0.6666666666666666
 40
0.6666666666666666
 40
0.6666666666666666
 40
1.0
 40
1.0
 40
1.0
 40
1.0
 10
-110.3836
 20
-0.2722
 30
0.0
 10
-112.6424
 20
-4.1702
 30
0.0
 10
-114.3022
 20
-10.8248
 30
0.0
 10
-114.0922
 20
-15.7016
 30
0.0
 10
-114.0922
 20
-15.7016
 30
0.0
 10
-111.9225
 20
-16.9553
 30
0.0
 10
-111.2642
 20
-17.3339
 30
0.0
 10
-109.5167
 20
-18.3516
 30
0.0
 10
-109.5167
 20
-18.3516
 30
0.0
 10
-106.2353
 20
-16.8651
 30
0.0
 10
-99.3628
 20
-10.7486
 30
0.0
 10
-98.1121
 20
-7.3838
 30
0.0
 10
-98.1121
 20
-7.3838
 30
0.0
 10
-101.7675
 20
-5.501
 30
0.0
 10
-107.4267
 20
-2.1041
 30
0.0
 10
-110.3836
 20
-0.272
 30
0.0
 10
-110.3836
 20
-0.272
 30
0.0
 10
-110.3836
 20
-0.272
 30
0.0
 10
-110.3836
 20
-0.2722
 30
0.0
 10
-110.3836
 20
-0.2722
 30
0.0
  0
SPLINE
  5
99
330
1F
100
AcDbEntity
  8
layer 1
 62
     7
100
AcDbSpline
210
0.0
220
0.0
230
1.0
 70
    11
 71
     3
 72
    24
 73
    20
 74
     0
 42
0.0000000001
 43
0.0000000001
 12
1.0
 22
0.0
 32
0.0
 13
1.0
 23
0.0
 33
0.0
 40
0.0
 40
0.0
 40
0.0
 40
0.0
 40
0.1666666666666667
 40
0.1666666666666667
 40
0.1666666666666667
 40
0.1666666666666667
 40
0.3333333333333333
 40
0.3333333333333333
 40
0.3333333333333333
 40
0.3333333333333333
 40
0.5
 40
0.5
 40
0.5
 40
0.5
 40
0.6666666666666666
 40
0.6666666666666666
 40
0.6666666666666666
 40
0.6666666666666666
 40
1.0
 40
1.0
 40
1.0
 40
1.0
 10
-108.3853
 20
2.9735
 30
0.0
 10
-106.7268
 20
5.537
 30
0.0
 10
-104.2209
 20
8.9013
 30
0.0
 10
-102.2835
 20
10.3593
 30
0.0
 10
-102.2835
 20
10.3593
 30
0.0
 10
-99.7071
 20
8.6238
 30
0.0
 10
-94.8941
 20
5.8436
 30
0.0
 10
-92.7635
 20
5.0581
 30
0.0
 10
-92.7635
 20
5.0581
 30
0.0
 10
-93.3243
 20
1.9387
 30
0.0
 10
-94.6194
 20
-1.6699
 30
0.0
 10
-96.27
 20
-3.8697
 30
0.0
 10
-96.27
 20
-3.8697
 30
0.0
 10
-100.2562
 20
-2.0905
 30
0.0
 10
-104.7353
 20
0.1087
 30
0.0
 10
-108.3851
 20
2.9736
 30
0.0
 10
-108.3851
 20
2.9736
 30
0.0
 10
-108.3851
 20
2.9736
 30
0.0
 10
-108.3853
 20
2.9735
 30
0.0
 10
-108.3853
 20
2.9735
 30
0.0
  0
SPLINE
  5
9A
330
1F
100
AcDbEntity
  8
layer 1
 62
     7
100
AcDbSpline
210
0.0
220
0.0
230
1.0
 70
    11
 71
     3
 72
    24
 73
    20
 74
     0
 42
0.0000000001
 43
0.0000000001
 12
1.0
 22
0.0
 32
0.0
 13
1.0
 23
0.0
 33
0.0
 40
0.0
 40
0.0
 40
0.0
 40
0.0
 40
0.1666666666666667
 40
0.1666666666666667
 40
0.1666666666666667
 40
0.1666666666666667
 40
0.3333333333333333
 40
0.3333333333333333
 40
0.3333333333333333
 40
0.3333333333333333
 40
0.5
 40
0.5
 40
0.5
 40
0.5
 40
0.6666666666666666
 40
0.6666666666666666
 40
0.6666666666666666
 40
0.6666666666666666
 40
1.0
 40
1.0
 40
1.0
 40
1.0
 10
-110.4915
 20
-48.8448
 30
0.0
 10
-112.7502
 20
-44.9469
 30
0.0
 10
-114.41
 20
-38.2923
 30
0.0
 10
-114.2001
 20
-33.4154
 30
0.0
 10
-114.2001
 20
-33.4154
 30
0.0
 10
-112.0304
 20
-32.1617
 30
0.0
 10
-111.3721
 20
-31.7831
 30
0.0
 10
-109.6245
 20
-30.7654
 30
0.0
 10
-109.6245
 20
-30.7654
 30
0.0
 10
-106.3432
 20
-32.2519
 30
0.0
 10
-99.4706
 20
-38.3685
 30
0.0
 10
-98.22
 20
-41.7332
 30
0.0
 10
-98.22
 20
-41.7332
 30
0.0
 10
-101.8754
 20
-43.616
 30
0.0
 10
-107.5346
 20
-47.0129
 30
0.0
 10
-110.4915
 20
-48.845
 30
0.0
 10
-110.4915
 20
-48.845
 30
0.0
 10
-110.4915
 20
-48.845
 30
0.0
 10
-110.4915
 20
-48.8448
 30
0.0
 10
-110.4915
 20
-48.8448
 30
0.0
  0
SPLINE
  5
9B
330
1F
100
AcDbEntity
  8
layer 1
 62
     7
100
AcDbSpline
210
0.0
220
0.0
230
1.0
 70
    11
 71
     3
 72
    24
 73
    20
 74
     0
 42
0.0000000001
 43
0.0000000001
 12
1.0
 22
0.0
 32
0.0
 13
1.0
 23
0.0
 33
0.0
 40
0.0
 40
0.0
 40
0.0
 40
0.0
 40
0.1666666666666667
 40
0.1666666666666667
 40
0.1666666666666667
 40
0.1666666666666667
 40
0.3333333333333333
 40
0.3333333333333333
 40
0.3333333333333333
 40
0.3333333333333333
 40
0.5
 40
0.5
 40
0.5
 40
0.5
 40
0.6666666666666666
 40
0.6666666666666666
 40
0.6666666666666666
 40
0.6666666666666666
 40
1.0
 40
1.0
 40
1.0
 40
1.0
 10
-108.4931
 20
-52.0905
 30
0.0
 10
-106.8346
 20
-54.654
 30
0.0
 10
-104.3288
 20
-58.0183
 30
0.0
 10
-102.3914
 20
-59.4763
 30
0.0
 10
-102.3914
 20
-59.4763
 30
0.0
 10
-99.815
 20
-57.7408
 30
0.0
 10
-95.002
 20
-54.9606
 30
0.0
 10
-92.8713
 20
-54.1751
 30
0.0
 10
-92.8713
 20
-54.1751
 30
0.0
 10
-93.4322
 20
-51.0557
 30
0.0
 10
-94.7272
 20
-47.4471
 30
0.0
 10
-96.3779
 20
-45.2473
 30
0.0
 10
-96.3779
 20
-45.2473
 30
0.0
 10
-100.3641
 20
-47.0265
 30
0.0
 10
-104.8432
 20
-49.2257
 30
0.0
 10
-108.493
 20
-52.0906
 30
0.0
 10
-108.493
 20
-52.0906
 30
0.0
 10
-108.493
 20
-52.0906
 30
0.0
 10
-108.4931
 20
-52.0905
 30
0.0
 10
-108.4931
 20
-52.0905
 30
0.0
  0
SPLINE
  5
9C
330
1F
100
AcDbEntity
  8
layer 1
 62
     7
100
AcDbSpline
210
0.0
220
0.0
230
1.0
 70
    11
 71
     3
 72
    20
 73
    16
 74
     0
 42
0.0000000001
 43
0.0000000001
 12
1.0
 22
0.0
 32
0.0
 13
1.0
 23
0.0
 33
0.0
 40
0.0
 40
0.0
 40
0.0
 40
0.0
 40
0.2
 40
0.2
 40
0.2
 40
0.2
 40
0.4
 40
0.4
 40
0.4
 40
0.4
 40
0.6
 40
0.6
 40
0.6
 40
0.6
 40
1.0
 40
1.0
 40
1.0
 40
1.0
 10
-99.4274
 20
-61.8615
 30
0.0
 10
-97.1223
 20
-63.9272
 30
0.0
 10
-95.0806
 20
-65.1936
 30
0.0
 10
-92.2021
 20
-66.2327
 30
0.0
 10
-92.2021
 20
-66.2327
 30
0.0
 10
-91.7433
 20
-63.7822
 30
0.0
 10
-91.7182
 20
-60.5981
 30
0.0
 10
-92.4559
 20
-57.8635
 30
0.0
 10
-92.4559
 20
-57.8635
 30
0.0
 10
-94.6263
 20
-58.9055
 30
0.0
 10
-97.4763
 20
-60.4756
 30
0.0
 10
-99.4272
 20
-61.8616
 30
0.0
 10
-99.4272
 20
-61.8616
 30
0.0
 10
-99.4272
 20
-61.8616
 30
0.0
 10
-99.4274
 20
-61.8615
 30
0.0
 10
-99.4274
 20
-61.8615
 30
0.0
  0
SPLINE
  5
9D
330
1F
100
AcDbEntity
  8
layer 1
 62
     7
100
AcDbSpline
210
0.0
220
0.0
230
1.0
 70
    11
 71
     3
 72
    24
 73
    20
 74
     0
 42
0.0000000001
 43
0.0000000001
 12
1.0
 22
0.0
 32
0.0
 13
1.0
 23
0.0
 33
0.0
 40
0.0
 40
0.0
 40
0.0
 40
0.0
 40
0.1666666666666667
 40
0.1666666666666667
 40
0.1666666666666667
 40
0.1666666666666667
 40
0.3333333333333333
 40
0.3333333333333333
 40
0.3333333333333333
 40
0.3333333333333333
 40
0.5
 40
0.5
 40
0.5
 40
0.5
 40
0.6666666666666666
 40
0.6666666666666666
 40
0.6666666666666666
 40
0.6666666666666666
 40
1.0
 40
1.0
 40
1.0
 40
1.0
 10
-121.9342
 20
-75.478
 30
0.0
 10
-119.6754
 20
-79.376
 30
0.0
 10
-118.0156
 20
-86.0306
 30
0.0
 10
-118.2255
 20
-90.9074
 30
0.0
 10
-118.2255
 20
-90.9074
 30
0.0
 10
-120.3953
 20
-92.1611
 30
0.0
 10
-121.0535
 20
-92.5397
 30
0.0
 10
-122.8011
 20
-93.5575
 30
0.0
 10
-122.8011
 20
-93.5575
 30
0.0
 10
-126.0824
 20
-92.071
 30
0.0
 10
-132.955
 20
-85.9544
 30
0.0
 10
-134.2057
 20
-82.5896
 30
0.0
 10
-134.2057
 20
-82.5896
 30
0.0
 10
-130.5503
 20
-80.7069
 30
0.0
 10
-124.8911
 20
-77.31
 30
0.0
 10
-121.9342
 20
-75.4779
 30
0.0
 10
-121.9342
 20
-75.4779
 30
0.0
 10
-121.9342
 20
-75.4779
 30
0.0
 10
-121.9342
 20
-75.478
 30
0.0
 10
-121.9342
 20
-75.478
 30
0.0
  0
SPLINE
  5
9E
330
1F
100
AcDbEntity
  8
layer 1
 62
     7
100
AcDbSpline
210
0.0
220
0.0
230
1.0
 70
    11
 71
     3
 72
    24
 73
    20
 74
     0
 42
0.0000000001
 43
0.0000000001
 12
1.0
 22
0.0
 32
0.0
 13
1.0
 23
0.0
 33
0.0
 40
0.0
 40
0.0
 40
0.0
 40
0.0
 40
0.1666666666666667
 40
0.1666666666666667
 40
0.1666666666666667
 40
0.1666666666666667
 40
0.3333333333333333
 40
0.3333333333333333
 40
0.3333333333333333
 40
0.3333333333333333
 40
0.5
 40
0.5
 40
0.5
 40
0.5
 40
0.6666666666666666
 40
0.6666666666666666
 40
0.6666666666666666
 40
0.6666666666666666
 40
1.0
 40
1.0
 40
1.0
 40
1.0
 10
-123.9325
 20
-72.2324
 30
0.0
 10
-125.591
 20
-69.6688
 30
0.0
 10
-128.0968
 20
-66.3046
 30
0.0
 10
-130.0343
 20
-64.8465
 30
0.0
 10
-130.0343
 20
-64.8465
 30
0.0
 10
-132.6107
 20
-66.582
 30
0.0
 10
-137.4237
 20
-69.3623
 30
0.0
 10
-139.5543
 20
-70.1477
 30
0.0
 10
-139.5543
 20
-70.1477
 30
0.0
 10
-138.9934
 20
-73.2672
 30
0.0
 10
-137.6984
 20
-76.8758
 30
0.0
 10
-136.0478
 20
-79.0756
 30
0.0
 10
-136.0478
 20
-79.0756
 30
0.0
 10
-132.0615
 20
-77.2963
 30
0.0
 10
-127.5824
 20
-75.0972
 30
0.0
 10
-123.9327
 20
-72.2322
 30
0.0
 10
-123.9327
 20
-72.2322
 30
0.0
 10
-123.9327
 20
-72.2322
 30
0.0
 10
-123.9325
 20
-72.2324
 30
0.0
 10
-123.9325
 20
-72.2324
 30
0.0
  0
SPLINE
  5
9F
330
1F
100
AcDbEntity
  8
layer 1
 62
     7
100
AcDbSpline
210
0.0
220
0.0
230
1.0
 70
    11
 71
     3
 72
    24
 73
    20
 74
     0
 42
0.0000000001
 43
0.0000000001
 12
1.0
 22
0.0
 32
0.0
 13
1.0
 23
0.0
 33
0.0
 40
0.0
 40
0.0
 40
0.0
 40
0.0
 40
0.1666666666666667
 40
0.1666666666666667
 40
0.1666666666666667
 40
0.1666666666666667
 40
0.3333333333333333
 40
0.3333333333333333
 40
0.3333333333333333
 40
0.3333333333333333
 40
0.5
 40
0.5
 40
0.5
 40
0.5
 40
0.6666666666666666
 40
0.6666666666666666
 40
0.6666666666666666
 40
0.6666666666666666
 40
1.0
 40
1.0
 40
1.0
 40
1.0
 10
-110.3836
 20
-75.478
 30
0.0
 10
-112.6424
 20
-79.376
 30
0.0
 10
-114.3022
 20
-86.0306
 30
0.0
 10
-114.0922
 20
-90.9074
 30
0.0
 10
-114.0922
 20
-90.9074
 30
0.0
 10
-111.9225
 20
-92.1611
 30
0.0
 10
-111.2642
 20
-92.5397
 30
0.0
 10
-109.5167
 20
-93.5575
 30
0.0
 10
-109.5167
 20
-93.5575
 30
0.0
 10
-106.2353
 20
-92.071
 30
0.0
 10
-99.3628
 20
-85.9544
 30
0.0
 10
-98.1121
 20
-82.5896
 30
0.0
 10
-98.1121
 20
-82.5896
 30
0.0
 10
-101.7675
 20
-80.7069
 30
0.0
 10
-107.4267
 20
-77.31
 30
0.0
 10
-110.3836
 20
-75.4779
 30
0.0
 10
-110.3836
 20
-75.4779
 30
0.0
 10
-110.3836
 20
-75.4779
 30
0.0
 10
-110.3836
 20
-75.478
 30
0.0
 10
-110.3836
 20
-75.478
 30
0.0
  0
SPLINE
  5
A0
330
1F
100
AcDbEntity
  8
layer 1
 62
     7
100
AcDbSpline
210
0.0
220
0.0
230
1.0
 70
    11
 71
     3
 72
    24
 73
    20
 74
     0
 42
0.0000000001
 43
0.0000000001
 12
1.0
 22
0.0
 32
0.0
 13
1.0
 23
0.0
 33
0.0
 40
0.0
 40
0.0
 40
0.0
 40
0.0
 40
0.1666666666666667
 40
0.1666666666666667
 40
0.1666666666666667
 40
0.1666666666666667
 40
0.3333333333333333
 40
0.3333333333333333
 40
0.3333333333333333
 40
0.3333333333333333
 40
0.5
 40
0.5
 40
0.5
 40
0.5
 40
0.6666666666666666
 40
0.6666666666666666
 40
0.6666666666666666
 40
0.6666666666666666
 40
1.0
 40
1.0
 40
1.0
 40
1.0
 10
-108.3853
 20
-72.2324
 30
0.0
 10
-106.7268
 20
-69.6688
 30
0.0
 10
-104.2209
 20
-66.3046
 30
0.0
 10
-102.2835
 20
-64.8465
 30
0.0
 10
-102.2835
 20
-64.8465
 30
0.0
 10
-99.7071
 20
-66.582
 30
0.0
 10
-94.8941
 20
-69.3623
 30
0.0
 10
-92.7635
 20
-70.1477
 30
0.0
 10
-92.7635
 20
-70.1477
 30
0.0
 10
-93.3243
 20
-73.2672
 30
0.0
 10
-94.6194
 20
-76.8758
 30
0.0
 10
-96.27
 20
-79.0756
 30
0.0
 10
-96.27
 20
-79.0756
 30
0.0
 10
-100.2562
 20
-77.2963
 30
0.0
 10
-104.7353
 20
-75.0972
 30
0.0
 10
-108.3851
 20
-72.2322
 30
0.0
 10
-108.3851
 20
-72.2322
 30
0.0
 10
-108.3851
 20
-72.2322
 30
0.0
 10
-108.3853
 20
-72.2324
 30
0.0
 10
-108.3853
 20
-72.2324
 30
0.0
  0
SPLINE
  5
A1
330
1F
100
AcDbEntity
  8
layer 1
 62
     7
100
AcDbSpline
210
0.0
220
0.0
230
1.0
 70
    11
 71
     3
 72
    24
 73
    20
 74
     0
 42
0.0000000001
 43
0.0000000001
 12
1.0
 22
0.0
 32
0.0
 13
1.0
 23
0.0
 33
0.0
 40
0.0
 40
0.0
 40
0.0
 40
0.0
 40
0.1666666666666667
 40
0.1666666666666667
 40
0.1666666666666667
 40
0.1666666666666667
 40
0.3333333333333333
 40
0.3333333333333333
 40
0.3333333333333333
 40
0.3333333333333333
 40
0.5
 40
0.5
 40
0.5
 40
0.5
 40
0.6666666666666666
 40
0.6666666666666666
 40
0.6666666666666666
 40
0.6666666666666666
 40
1.0
 40
1.0
 40
1.0
 40
1.0
 10
-75.0904
 20
-55.1408
 30
0.0
 10
-70.5853
 20
-55.1336
 30
0.0
 10
-63.9924
 20
-57.0234
 30
0.0
 10
-59.8739
 20
-59.6439
 30
0.0
 10
-59.8739
 20
-59.6439
 30
0.0
 10
-59.8731
 20
-62.1499
 30
0.0
 10
-59.8743
 20
-62.9091
 30
0.0
 10
-59.8666
 20
-64.9314
 30
0.0
 10
-59.8666
 20
-64.9314
 30
0.0
 10
-62.7946
 20
-67.0299
 30
0.0
 10
-71.5279
 20
-69.9235
 30
0.0
 10
-75.0673
 20
-69.3242
 30
0.0
 10
-75.0673
 20
-69.3242
 30
0.0
 10
-74.87
 20
-65.2172
 30
0.0
 10
-74.9822
 20
-58.6176
 30
0.0
 10
-75.0904
 20
-55.141
 30
0.0
 10
-75.0904
 20
-55.141
 30
0.0
 10
-75.0904
 20
-55.141
 30
0.0
 10
-75.0904
 20
-55.1408
 30
0.0
 10
-75.0904
 20
-55.1408
 30
0.0
  0
SPLINE
  5
A2
330
1F
100
AcDbEntity
  8
layer 1
 62
     7
100
AcDbSpline
210
0.0
220
0.0
230
1.0
 70
    11
 71
     3
 72
    20
 73
    16
 74
     0
 42
0.0000000001
 43
0.0000000001
 12
1.0
 22
0.0
 32
0.0
 13
1.0
 23
0.0
 33
0.0
 40
0.0
 40
0.0
 40
0.0
 40
0.0
 40
0.2
 40
0.2
 40
0.2
 40
0.2
 40
0.4
 40
0.4
 40
0.4
 40
0.4
 40
0.6
 40
0.6
 40
0.6
 40
0.6
 40
1.0
 40
1.0
 40
1.0
 40
1.0
 10
-78.9005
 20
-55.2487
 30
0.0
 10
-81.9498
 20
-55.4033
 30
0.0
 10
-86.1163
 20
-55.8912
 30
0.0
 10
-88.3475
 20
-56.84
 30
0.0
 10
-88.3475
 20
-56.84
 30
0.0
 10
-88.1328
 20
-59.939
 30
0.0
 10
-88.1315
 20
-65.4972
 30
0.0
 10
-88.5165
 20
-67.7351
 30
0.0
 10
-88.5165
 20
-67.7351
 30
0.0
 10
-85.5345
 20
-68.8091
 30
0.0
 10
-81.7619
 20
-69.492
 30
0.0
 10
-79.0315
 20
-69.1623
 30
0.0
 10
-79.0315
 20
-69.1623
 30
0.0
 10
-78.5791
 20
-64.8206
 30
0.0
 10
-78.2443
 20
-59.8419
 30
0.0
 10
-78.9005
 20
-55.2487
 30
0.0
  0
SPLINE
  5
A3
330
1F
100
AcDbEntity
  8
layer 1
 62
     7
100
AcDbSpline
210
0.0
220
0.0
230
1.0
 70
    11
 71
     3
 72
    24
 73
    20
 74
     0
 42
0.0000000001
 43
0.0000000001
 12
1.0
 22
0.0
 32
0.0
 13
1.0
 23
0.0
 33
0.0
 40
0.0
 40
0.0
 40
0.0
 40
0.0
 40
0.1666666666666667
 40
0.1666666666666667
 40
0.1666666666666667
 40
0.1666666666666667
 40
0.3333333333333333
 40
0.3333333333333333
 40
0.3333333333333333
 40
0.3333333333333333
 40
0.5
 40
0.5
 40
0.5
 40
0.5
 40
0.6666666666666666
 40
0.6666666666666666
 40
0.6666666666666666
 40
0.6666666666666666
 40
1.0
 40
1.0
 40
1.0
 40
1.0
 10
-157.2799
 20
-54.7672
 30
0.0
 10
-161.7851
 20
-54.76
 30
0.0
 10
-168.3779
 20
-56.6498
 30
0.0
 10
-172.4965
 20
-59.2703
 30
0.0
 10
-172.4965
 20
-59.2703
 30
0.0
 10
-172.4973
 20
-61.7763
 30
0.0
 10
-172.496
 20
-62.5355
 30
0.0
 10
-172.5037
 20
-64.5578
 30
0.0
 10
-172.5037
 20
-64.5578
 30
0.0
 10
-169.5757
 20
-66.6563
 30
0.0
 10
-160.8424
 20
-69.5499
 30
0.0
 10
-157.3031
 20
-68.9506
 30
0.0
 10
-157.3031
 20
-68.9506
 30
0.0
 10
-157.5003
 20
-64.8436
 30
0.0
 10
-157.3881
 20
-58.244
 30
0.0
 10
-157.2799
 20
-54.7674
 30
0.0
 10
-157.2799
 20
-54.7674
 30
0.0
 10
-157.2799
 20
-54.7674
 30
0.0
 10
-157.2799
 20
-54.7672
 30
0.0
 10
-157.2799
 20
-54.7672
 30
0.0
  0
SPLINE
  5
A4
330
1F
100
AcDbEntity
  8
layer 1
 62
     7
100
AcDbSpline
210
0.0
220
0.0
230
1.0
 70
    11
 71
     3
 72
    20
 73
    16
 74
     0
 42
0.0000000001
 43
0.0000000001
 12
1.0
 22
0.0
 32
0.0
 13
1.0
 23
0.0
 33
0.0
 40
0.0
 40
0.0
 40
0.0
 40
0.0
 40
0.2
 40
0.2
 40
0.2
 40
0.2
 40
0.4
 40
0.4
 40
0.4
 40
0.4
 40
0.6
 40
0.6
 40
0.6
 40
0.6
 40
1.0
 40
1.0
 40
1.0
 40
1.0
 10
-153.47
 20
-54.8751
 30
0.0
 10
-150.4207
 20
-55.0297
 30
0.0
 10
-146.2542
 20
-55.5176
 30
0.0
 10
-144.023
 20
-56.4664
 30
0.0
 10
-144.023
 20
-56.4664
 30
0.0
 10
-144.2377
 20
-59.5654
 30
0.0
 10
-144.239
 20
-65.1237
 30
0.0
 10
-143.854
 20
-67.3615
 30
0.0
 10
-143.854
 20
-67.3615
 30
0.0
 10
-146.836
 20
-68.4355
 30
0.0
 10
-150.6086
 20
-69.1184
 30
0.0
 10
-153.339
 20
-68.7887
 30
0.0
 10
-153.339
 20
-68.7887
 30
0.0
 10
-153.7914
 20
-64.447
 30
0.0
 10
-154.1262
 20
-59.4683
 30
0.0
 10
-153.47
 20
-54.8751
 30
0.0
  0
SPLINE
  5
A5
330
1F
100
AcDbEntity
  8
layer 1
 62
     7
100
AcDbSpline
210
0.0
220
0.0
230
1.0
 70
    11
 71
     3
 72
    24
 73
    20
 74
     0
 42
0.0000000001
 43
0.0000000001
 12
1.0
 22
0.0
 32
0.0
 13
1.0
 23
0.0
 33
0.0
 40
0.0
 40
0.0
 40
0.0
 40
0.0
 40
0.1666666666666667
 40
0.1666666666666667
 40
0.1666666666666667
 40
0.1666666666666667
 40
0.3333333333333333
 40
0.3333333333333333
 40
0.3333333333333333
 40
0.3333333333333333
 40
0.5
 40
0.5
 40
0.5
 40
0.5
 40
0.6666666666666666
 40
0.6666666666666666
 40
0.6666666666666666
 40
0.6666666666666666
 40
1.0
 40
1.0
 40
1.0
 40
1.0
 10
-175.3794
 20
-37.7505
 30
0.0
 10
-177.6382
 20
-41.6485
 30
0.0
 10
-179.298
 20
-48.3031
 30
0.0
 10
-179.0881
 20
-53.1799
 30
0.0
 10
-179.0881
 20
-53.1799
 30
0.0
 10
-176.9184
 20
-54.4336
 30
0.0
 10
-176.2601
 20
-54.8122
 30
0.0
 10
-174.5125
 20
-55.8299
 30
0.0
 10
-174.5125
 20
-55.8299
 30
0.0
 10
-171.2312
 20
-54.3434
 30
0.0
 10
-164.3586
 20
-48.2269
 30
0.0
 10
-163.1079
 20
-44.8621
 30
0.0
 10
-163.1079
 20
-44.8621
 30
0.0
 10
-166.7633
 20
-42.9794
 30
0.0
 10
-172.4225
 20
-39.5825
 30
0.0
 10
-175.3794
 20
-37.7504
 30
0.0
 10
-175.3794
 20
-37.7504
 30
0.0
 10
-175.3794
 20
-37.7504
 30
0.0
 10
-175.3794
 20
-37.7505
 30
0.0
 10
-175.3794
 20
-37.7505
 30
0.0
  0
SPLINE
  5
A6
330
1F
100
AcDbEntity
  8
layer 1
 62
     7
100
AcDbSpline
210
0.0
220
0.0
230
1.0
 70
    11
 71
     3
 72
    24
 73
    20
 74
     0
 42
0.0000000001
 43
0.0000000001
 12
1.0
 22
0.0
 32
0.0
 13
1.0
 23
0.0
 33
0.0
 40
0.0
 40
0.0
 40
0.0
 40
0.0
 40
0.1666666666666667
 40
0.1666666666666667
 40
0.1666666666666667
 40
0.1666666666666667
 40
0.3333333333333333
 40
0.3333333333333333
 40
0.3333333333333333
 40
0.3333333333333333
 40
0.5
 40
0.5
 40
0.5
 40
0.5
 40
0.6666666666666666
 40
0.6666666666666666
 40
0.6666666666666666
 40
0.6666666666666666
 40
1.0
 40
1.0
 40
1.0
 40
1.0
 10
-173.3811
 20
-34.505
 30
0.0
 10
-171.7226
 20
-31.9415
 30
0.0
 10
-169.2168
 20
-28.5772
 30
0.0
 10
-167.2793
 20
-27.1192
 30
0.0
 10
-167.2793
 20
-27.1192
 30
0.0
 10
-164.7029
 20
-28.8547
 30
0.0
 10
-159.8899
 20
-31.6349
 30
0.0
 10
-157.7593
 20
-32.4204
 30
0.0
 10
-157.7593
 20
-32.4204
 30
0.0
 10
-158.3202
 20
-35.5398
 30
0.0
 10
-159.6152
 20
-39.1484
 30
0.0
 10
-161.2658
 20
-41.3482
 30
0.0
 10
-161.2658
 20
-41.3482
 30
0.0
 10
-165.2521
 20
-39.569
 30
0.0
 10
-169.7312
 20
-37.3698
 30
0.0
 10
-173.3809
 20
-34.5049
 30
0.0
 10
-173.3809
 20
-34.5049
 30
0.0
 10
-173.3809
 20
-34.5049
 30
0.0
 10
-173.3811
 20
-34.505
 30
0.0
 10
-173.3811
 20
-34.505
 30
0.0
  0
SPLINE
  5
A7
330
1F
100
AcDbEntity
  8
layer 1
 62
     7
100
AcDbSpline
210
0.0
220
0.0
230
1.0
 70
    11
 71
     3
 72
    24
 73
    20
 74
     0
 42
0.0000000001
 43
0.0000000001
 12
1.0
 22
0.0
 32
0.0
 13
1.0
 23
0.0
 33
0.0
 40
0.0
 40
0.0
 40
0.0
 40
0.0
 40
0.1666666666666667
 40
0.1666666666666667
 40
0.1666666666666667
 40
0.1666666666666667
 40
0.3333333333333333
 40
0.3333333333333333
 40
0.3333333333333333
 40
0.3333333333333333
 40
0.5
 40
0.5
 40
0.5
 40
0.5
 40
0.6666666666666666
 40
0.6666666666666666
 40
0.6666666666666666
 40
0.6666666666666666
 40
1.0
 40
1.0
 40
1.0
 40
1.0
 10
-56.9383
 20
-37.6261
 30
0.0
 10
-54.6796
 20
-41.5241
 30
0.0
 10
-53.0198
 20
-48.1787
 30
0.0
 10
-53.2297
 20
-53.0555
 30
0.0
 10
-53.2297
 20
-53.0555
 30
0.0
 10
-55.3994
 20
-54.3092
 30
0.0
 10
-56.0577
 20
-54.6878
 30
0.0
 10
-57.8053
 20
-55.7055
 30
0.0
 10
-57.8053
 20
-55.7055
 30
0.0
 10
-61.0866
 20
-54.219
 30
0.0
 10
-67.9592
 20
-48.1025
 30
0.0
 10
-69.2098
 20
-44.7377
 30
0.0
 10
-69.2098
 20
-44.7377
 30
0.0
 10
-65.5544
 20
-42.855
 30
0.0
 10
-59.8952
 20
-39.4581
 30
0.0
 10
-56.9383
 20
-37.6259
 30
0.0
 10
-56.9383
 20
-37.6259
 30
0.0
 10
-56.9383
 20
-37.6259
 30
0.0
 10
-56.9383
 20
-37.6261
 30
0.0
 10
-56.9383
 20
-37.6261
 30
0.0
  0
SPLINE
  5
A8
330
1F
100
AcDbEntity
  8
layer 1
 62
     7
100
AcDbSpline
210
0.0
220
0.0
230
1.0
 70
    11
 71
     3
 72
    24
 73
    20
 74
     0
 42
0.0000000001
 43
0.0000000001
 12
1.0
 22
0.0
 32
0.0
 13
1.0
 23
0.0
 33
0.0
 40
0.0
 40
0.0
 40
0.0
 40
0.0
 40
0.1666666666666667
 40
0.1666666666666667
 40
0.1666666666666667
 40
0.1666666666666667
 40
0.3333333333333333
 40
0.3333333333333333
 40
0.3333333333333333
 40
0.3333333333333333
 40
0.5
 40
0.5
 40
0.5
 40
0.5
 40
0.6666666666666666
 40
0.6666666666666666
 40
0.6666666666666666
 40
0.6666666666666666
 40
1.0
 40
1.0
 40
1.0
 40
1.0
 10
-58.9367
 20
-34.3805
 30
0.0
 10
-60.5952
 20
-31.8169
 30
0.0
 10
-63.101
 20
-28.4526
 30
0.0
 10
-65.0384
 20
-26.9946
 30
0.0
 10
-65.0384
 20
-26.9946
 30
0.0
 10
-67.6148
 20
-28.7301
 30
0.0
 10
-72.4278
 20
-31.5103
 30
0.0
 10
-74.5585
 20
-32.2958
 30
0.0
 10
-74.5585
 20
-32.2958
 30
0.0
 10
-73.9976
 20
-35.4152
 30
0.0
 10
-72.7026
 20
-39.0239
 30
0.0
 10
-71.0519
 20
-41.2236
 30
0.0
 10
-71.0519
 20
-41.2236
 30
0.0
 10
-67.0657
 20
-39.4444
 30
0.0
 10
-62.5866
 20
-37.2453
 30
0.0
 10
-58.9368
 20
-34.3803
 30
0.0
 10
-58.9368
 20
-34.3803
 30
0.0
 10
-58.9368
 20
-34.3803
 30
0.0
 10
-58.9367
 20
-34.3805
 30
0.0
 10
-58.9367
 20
-34.3805
 30
0.0
  0
SPLINE
  5
A9
330
1F
100
AcDbEntity
  8
layer 1
 62
     7
100
AcDbSpline
210
0.0
220
0.0
230
1.0
 70
    11
 71
     3
 72
    24
 73
    20
 74
     0
 42
0.0000000001
 43
0.0000000001
 12
1.0
 22
0.0
 32
0.0
 13
1.0
 23
0.0
 33
0.0
 40
0.0
 40
0.0
 40
0.0
 40
0.0
 40
0.1666666666666667
 40
0.1666666666666667
 40
0.1666666666666667
 40
0.1666666666666667
 40
0.3333333333333333
 40
0.3333333333333333
 40
0.3333333333333333
 40
0.3333333333333333
 40
0.5
 40
0.5
 40
0.5
 40
0.5
 40
0.6666666666666666
 40
0.6666666666666666
 40
0.6666666666666666
 40
0.6666666666666666
 40
1.0
 40
1.0
 40
1.0
 40
1.0
 10
-75.0904
 20
94.773
 30
0.0
 10
-70.5853
 20
94.7803
 30
0.0
 10
-63.9924
 20
92.8904
 30
0.0
 10
-59.8739
 20
90.27
 30
0.0
 10
-59.8739
 20
90.27
 30
0.0
 10
-59.8731
 20
87.764
 30
0.0
 10
-59.8743
 20
87.0047
 30
0.0
 10
-59.8666
 20
84.9824
 30
0.0
 10
-59.8666
 20
84.9824
 30
0.0
 10
-62.7946
 20
82.884
 30
0.0
 10
-71.5279
 20
79.9904
 30
0.0
 10
-75.0673
 20
80.5897
 30
0.0
 10
-75.0673
 20
80.5897
 30
0.0
 10
-74.87
 20
84.6966
 30
0.0
 10
-74.9822
 20
91.2962
 30
0.0
 10
-75.0904
 20
94.7729
 30
0.0
 10
-75.0904
 20
94.7729
 30
0.0
 10
-75.0904
 20
94.7729
 30
0.0
 10
-75.0904
 20
94.773
 30
0.0
 10
-75.0904
 20
94.773
 30
0.0
  0
SPLINE
  5
AA
330
1F
100
AcDbEntity
  8
layer 1
 62
     7
100
AcDbSpline
210
0.0
220
0.0
230
1.0
 70
    11
 71
     3
 72
    20
 73
    16
 74
     0
 42
0.0000000001
 43
0.0000000001
 12
1.0
 22
0.0
 32
0.0
 13
1.0
 23
0.0
 33
0.0
 40
0.0
 40
0.0
 40
0.0
 40
0.0
 40
0.2
 40
0.2
 40
0.2
 40
0.2
 40
0.4
 40
0.4
 40
0.4
 40
0.4
 40
0.6
 40
0.6
 40
0.6
 40
0.6
 40
1.0
 40
1.0
 40
1.0
 40
1.0
 10
-78.9005
 20
94.6652
 30
0.0
 10
-81.9498
 20
94.5105
 30
0.0
 10
-86.1163
 20
94.0226
 30
0.0
 10
-88.3475
 20
93.0739
 30
0.0
 10
-88.3475
 20
93.0739
 30
0.0
 10
-88.1328
 20
89.9748
 30
0.0
 10
-88.1315
 20
84.4166
 30
0.0
 10
-88.5165
 20
82.1787
 30
0.0
 10
-88.5165
 20
82.1787
 30
0.0
 10
-85.5345
 20
81.1047
 30
0.0
 10
-81.7619
 20
80.4218
 30
0.0
 10
-79.0315
 20
80.7515
 30
0.0
 10
-79.0315
 20
80.7515
 30
0.0
 10
-78.5791
 20
85.0932
 30
0.0
 10
-78.2443
 20
90.0719
 30
0.0
 10
-78.9005
 20
94.6652
 30
0.0
  0
SPLINE
  5
AB
330
1F
100
AcDbEntity
  8
layer 1
 62
     7
100
AcDbSpline
210
0.0
220
0.0
230
1.0
 70
    11
 71
     3
 72
    24
 73
    20
 74
     0
 42
0.0000000001
 43
0.0000000001
 12
1.0
 22
0.0
 32
0.0
 13
1.0
 23
0.0
 33
0.0
 40
0.0
 40
0.0
 40
0.0
 40
0.0
 40
0.1666666666666667
 40
0.1666666666666667
 40
0.1666666666666667
 40
0.1666666666666667
 40
0.3333333333333333
 40
0.3333333333333333
 40
0.3333333333333333
 40
0.3333333333333333
 40
0.5
 40
0.5
 40
0.5
 40
0.5
 40
0.6666666666666666
 40
0.6666666666666666
 40
0.6666666666666666
 40
0.6666666666666666
 40
1.0
 40
1.0
 40
1.0
 40
1.0
 10
-157.2799
 20
94.6486
 30
0.0
 10
-161.7851
 20
94.6559
 30
0.0
 10
-168.3779
 20
92.766
 30
0.0
 10
-172.4965
 20
90.1456
 30
0.0
 10
-172.4965
 20
90.1456
 30
0.0
 10
-172.4973
 20
87.6396
 30
0.0
 10
-172.496
 20
86.8803
 30
0.0
 10
-172.5037
 20
84.858
 30
0.0
 10
-172.5037
 20
84.858
 30
0.0
 10
-169.5757
 20
82.7595
 30
0.0
 10
-160.8424
 20
79.8659
 30
0.0
 10
-157.3031
 20
80.4652
 30
0.0
 10
-157.3031
 20
80.4652
 30
0.0
 10
-157.5003
 20
84.5722
 30
0.0
 10
-157.3881
 20
91.1718
 30
0.0
 10
-157.2799
 20
94.6485
 30
0.0
 10
-157.2799
 20
94.6485
 30
0.0
 10
-157.2799
 20
94.6485
 30
0.0
 10
-157.2799
 20
94.6486
 30
0.0
 10
-157.2799
 20
94.6486
 30
0.0
  0
SPLINE
  5
AC
330
1F
100
AcDbEntity
  8
layer 1
 62
     7
100
AcDbSpline
210
0.0
220
0.0
230
1.0
 70
    11
 71
     3
 72
    20
 73
    16
 74
     0
 42
0.0000000001
 43
0.0000000001
 12
1.0
 22
0.0
 32
0.0
 13
1.0
 23
0.0
 33
0.0
 40
0.0
 40
0.0
 40
0.0
 40
0.0
 40
0.2
 40
0.2
 40
0.2
 40
0.2
 40
0.4
 40
0.4
 40
0.4
 40
0.4
 40
0.6
 40
0.6
 40
0.6
 40
0.6
 40
1.0
 40
1.0
 40
1.0
 40
1.0
 10
-153.47
 20
94.5408
 30
0.0
 10
-150.4207
 20
94.3861
 30
0.0
 10
-146.2542
 20
93.8982
 30
0.0
 10
-144.023
 20
92.9494
 30
0.0
 10
-144.023
 20
92.9494
 30
0.0
 10
-144.2377
 20
89.8504
 30
0.0
 10
-144.239
 20
84.2922
 30
0.0
 10
-143.854
 20
82.0543
 30
0.0
 10
-143.854
 20
82.0543
 30
0.0
 10
-146.836
 20
80.9803
 30
0.0
 10
-150.6086
 20
80.2974
 30
0.0
 10
-153.339
 20
80.6271
 30
0.0
 10
-153.339
 20
80.6271
 30
0.0
 10
-153.7914
 20
84.9688
 30
0.0
 10
-154.1262
 20
89.9475
 30
0.0
 10
-153.47
 20
94.5408
 30
0.0
  0
SPLINE
  5
AD
330
1F
100
AcDbEntity
  8
layer 1
 62
     7
100
AcDbSpline
210
0.0
220
0.0
230
1.0
 70
    11
 71
     3
 72
    24
 73
    20
 74
     0
 42
0.0000000001
 43
0.0000000001
 12
1.0
 22
0.0
 32
0.0
 13
1.0
 23
0.0
 33
0.0
 40
0.0
 40
0.0
 40
0.0
 40
0.0
 40
0.1666666666666667
 40
0.1666666666666667
 40
0.1666666666666667
 40
0.1666666666666667
 40
0.3333333333333333
 40
0.3333333333333333
 40
0.3333333333333333
 40
0.3333333333333333
 40
0.5
 40
0.5
 40
0.5
 40
0.5
 40
0.6666666666666666
 40
0.6666666666666666
 40
0.6666666666666666
 40
0.6666666666666666
 40
1.0
 40
1.0
 40
1.0
 40
1.0
 10
-175.3794
 20
111.6651
 30
0.0
 10
-177.6382
 20
107.7672
 30
0.0
 10
-179.298
 20
101.1126
 30
0.0
 10
-179.0881
 20
96.2358
 30
0.0
 10
-179.0881
 20
96.2358
 30
0.0
 10
-176.9184
 20
94.982
 30
0.0
 10
-176.2601
 20
94.6034
 30
0.0
 10
-174.5125
 20
93.5857
 30
0.0
 10
-174.5125
 20
93.5857
 30
0.0
 10
-171.2312
 20
95.0722
 30
0.0
 10
-164.3586
 20
101.1888
 30
0.0
 10
-163.1079
 20
104.5535
 30
0.0
 10
-163.1079
 20
104.5535
 30
0.0
 10
-166.7633
 20
106.4363
 30
0.0
 10
-172.4225
 20
109.8332
 30
0.0
 10
-175.3794
 20
111.6653
 30
0.0
 10
-175.3794
 20
111.6653
 30
0.0
 10
-175.3794
 20
111.6653
 30
0.0
 10
-175.3794
 20
111.6651
 30
0.0
 10
-175.3794
 20
111.6651
 30
0.0
  0
SPLINE
  5
AE
330
1F
100
AcDbEntity
  8
layer 1
 62
     7
100
AcDbSpline
210
0.0
220
0.0
230
1.0
 70
    11
 71
     3
 72
    24
 73
    20
 74
     0
 42
0.0000000001
 43
0.0000000001
 12
1.0
 22
0.0
 32
0.0
 13
1.0
 23
0.0
 33
0.0
 40
0.0
 40
0.0
 40
0.0
 40
0.0
 40
0.1666666666666667
 40
0.1666666666666667
 40
0.1666666666666667
 40
0.1666666666666667
 40
0.3333333333333333
 40
0.3333333333333333
 40
0.3333333333333333
 40
0.3333333333333333
 40
0.5
 40
0.5
 40
0.5
 40
0.5
 40
0.6666666666666666
 40
0.6666666666666666
 40
0.6666666666666666
 40
0.6666666666666666
 40
1.0
 40
1.0
 40
1.0
 40
1.0
 10
-173.3811
 20
114.9108
 30
0.0
 10
-171.7226
 20
117.4743
 30
0.0
 10
-169.2168
 20
120.8386
 30
0.0
 10
-167.2793
 20
122.2967
 30
0.0
 10
-167.2793
 20
122.2967
 30
0.0
 10
-164.7029
 20
120.5611
 30
0.0
 10
-159.8899
 20
117.7809
 30
0.0
 10
-157.7593
 20
116.9954
 30
0.0
 10
-157.7593
 20
116.9954
 30
0.0
 10
-158.3202
 20
113.876
 30
0.0
 10
-159.6152
 20
110.2674
 30
0.0
 10
-161.2658
 20
108.0676
 30
0.0
 10
-161.2658
 20
108.0676
 30
0.0
 10
-165.2521
 20
109.8468
 30
0.0
 10
-169.7312
 20
112.046
 30
0.0
 10
-173.3809
 20
114.9109
 30
0.0
 10
-173.3809
 20
114.9109
 30
0.0
 10
-173.3809
 20
114.9109
 30
0.0
 10
-173.3811
 20
114.9108
 30
0.0
 10
-173.3811
 20
114.9108
 30
0.0
  0
SPLINE
  5
AF
330
1F
100
AcDbEntity
  8
layer 1
 62
     7
100
AcDbSpline
210
0.0
220
0.0
230
1.0
 70
    11
 71
     3
 72
    24
 73
    20
 74
     0
 42
0.0000000001
 43
0.0000000001
 12
1.0
 22
0.0
 32
0.0
 13
1.0
 23
0.0
 33
0.0
 40
0.0
 40
0.0
 40
0.0
 40
0.0
 40
0.1666666666666667
 40
0.1666666666666667
 40
0.1666666666666667
 40
0.1666666666666667
 40
0.3333333333333333
 40
0.3333333333333333
 40
0.3333333333333333
 40
0.3333333333333333
 40
0.5
 40
0.5
 40
0.5
 40
0.5
 40
0.6666666666666666
 40
0.6666666666666666
 40
0.6666666666666666
 40
0.6666666666666666
 40
1.0
 40
1.0
 40
1.0
 40
1.0
 10
-56.9383
 20
111.7897
 30
0.0
 10
-54.6796
 20
107.8917
 30
0.0
 10
-53.0198
 20
101.2371
 30
0.0
 10
-53.2297
 20
96.3603
 30
0.0
 10
-53.2297
 20
96.3603
 30
0.0
 10
-55.3994
 20
95.1066
 30
0.0
 10
-56.0577
 20
94.728
 30
0.0
 10
-57.8053
 20
93.7103
 30
0.0
 10
-57.8053
 20
93.7103
 30
0.0
 10
-61.0866
 20
95.1968
 30
0.0
 10
-67.9592
 20
101.3133
 30
0.0
 10
-69.2098
 20
104.6781
 30
0.0
 10
-69.2098
 20
104.6781
 30
0.0
 10
-65.5544
 20
106.5609
 30
0.0
 10
-59.8952
 20
109.9578
 30
0.0
 10
-56.9383
 20
111.7899
 30
0.0
 10
-56.9383
 20
111.7899
 30
0.0
 10
-56.9383
 20
111.7899
 30
0.0
 10
-56.9383
 20
111.7897
 30
0.0
 10
-56.9383
 20
111.7897
 30
0.0
  0
SPLINE
  5
B0
330
1F
100
AcDbEntity
  8
layer 1
 62
     7
100
AcDbSpline
210
0.0
220
0.0
230
1.0
 70
    11
 71
     3
 72
    24
 73
    20
 74
     0
 42
0.0000000001
 43
0.0000000001
 12
1.0
 22
0.0
 32
0.0
 13
1.0
 23
0.0
 33
0.0
 40
0.0
 40
0.0
 40
0.0
 40
0.0
 40
0.1666666666666667
 40
0.1666666666666667
 40
0.1666666666666667
 40
0.1666666666666667
 40
0.3333333333333333
 40
0.3333333333333333
 40
0.3333333333333333
 40
0.3333333333333333
 40
0.5
 40
0.5
 40
0.5
 40
0.5
 40
0.6666666666666666
 40
0.6666666666666666
 40
0.6666666666666666
 40
0.6666666666666666
 40
1.0
 40
1.0
 40
1.0
 40
1.0
 10
-58.9367
 20
115.0354
 30
0.0
 10
-60.5952
 20
117.5989
 30
0.0
 10
-63.101
 20
120.9632
 30
0.0
 10
-65.0384
 20
122.4212
 30
0.0
 10
-65.0384
 20
122.4212
 30
0.0
 10
-67.6148
 20
120.6857
 30
0.0
 10
-72.4278
 20
117.9055
 30
0.0
 10
-74.5585
 20
117.12
 30
0.0
 10
-74.5585
 20
117.12
 30
0.0
 10
-73.9976
 20
114.0006
 30
0.0
 10
-72.7026
 20
110.392
 30
0.0
 10
-71.0519
 20
108.1922
 30
0.0
 10
-71.0519
 20
108.1922
 30
0.0
 10
-67.0657
 20
109.9714
 30
0.0
 10
-62.5866
 20
112.1706
 30
0.0
 10
-58.9368
 20
115.0355
 30
0.0
 10
-58.9368
 20
115.0355
 30
0.0
 10
-58.9368
 20
115.0355
 30
0.0
 10
-58.9367
 20
115.0354
 30
0.0
 10
-58.9367
 20
115.0354
 30
0.0
  0
SPLINE
  5
B1
330
1F
100
AcDbEntity
  8
layer 1
 62
     7
100
AcDbSpline
210
0.0
220
0.0
230
1.0
 70
    11
 71
     3
 72
    24
 73
    20
 74
     0
 42
0.0000000001
 43
0.0000000001
 12
1.0
 22
0.0
 32
0.0
 13
1.0
 23
0.0
 33
0.0
 40
0.0
 40
0.0
 40
0.0
 40
0.0
 40
0.1666666666666667
 40
0.1666666666666667
 40
0.1666666666666667
 40
0.1666666666666667
 40
0.3333333333333333
 40
0.3333333333333333
 40
0.3333333333333333
 40
0.3333333333333333
 40
0.5
 40
0.5
 40
0.5
 40
0.5
 40
0.6666666666666666
 40
0.6666666666666666
 40
0.6666666666666666
 40
0.6666666666666666
 40
1.0
 40
1.0
 40
1.0
 40
1.0
 10
-175.3794
 20
36.7083
 30
0.0
 10
-177.6382
 20
32.8103
 30
0.0
 10
-179.298
 20
26.1557
 30
0.0
 10
-179.0881
 20
21.2789
 30
0.0
 10
-179.0881
 20
21.2789
 30
0.0
 10
-176.9184
 20
20.0252
 30
0.0
 10
-176.2601
 20
19.6466
 30
0.0
 10
-174.5125
 20
18.6289
 30
0.0
 10
-174.5125
 20
18.6289
 30
0.0
 10
-171.2312
 20
20.1154
 30
0.0
 10
-164.3586
 20
26.2319
 30
0.0
 10
-163.1079
 20
29.5967
 30
0.0
 10
-163.1079
 20
29.5967
 30
0.0
 10
-166.7633
 20
31.4794
 30
0.0
 10
-172.4225
 20
34.8763
 30
0.0
 10
-175.3794
 20
36.7085
 30
0.0
 10
-175.3794
 20
36.7085
 30
0.0
 10
-175.3794
 20
36.7085
 30
0.0
 10
-175.3794
 20
36.7083
 30
0.0
 10
-175.3794
 20
36.7083
 30
0.0
  0
SPLINE
  5
B2
330
1F
100
AcDbEntity
  8
layer 1
 62
     7
100
AcDbSpline
210
0.0
220
0.0
230
1.0
 70
    11
 71
     3
 72
    24
 73
    20
 74
     0
 42
0.0000000001
 43
0.0000000001
 12
1.0
 22
0.0
 32
0.0
 13
1.0
 23
0.0
 33
0.0
 40
0.0
 40
0.0
 40
0.0
 40
0.0
 40
0.1666666666666667
 40
0.1666666666666667
 40
0.1666666666666667
 40
0.1666666666666667
 40
0.3333333333333333
 40
0.3333333333333333
 40
0.3333333333333333
 40
0.3333333333333333
 40
0.5
 40
0.5
 40
0.5
 40
0.5
 40
0.6666666666666666
 40
0.6666666666666666
 40
0.6666666666666666
 40
0.6666666666666666
 40
1.0
 40
1.0
 40
1.0
 40
1.0
 10
-173.3811
 20
39.9539
 30
0.0
 10
-171.7226
 20
42.5175
 30
0.0
 10
-169.2168
 20
45.8818
 30
0.0
 10
-167.2793
 20
47.3398
 30
0.0
 10
-167.2793
 20
47.3398
 30
0.0
 10
-164.7029
 20
45.6043
 30
0.0
 10
-159.8899
 20
42.8241
 30
0.0
 10
-157.7593
 20
42.0386
 30
0.0
 10
-157.7593
 20
42.0386
 30
0.0
 10
-158.3202
 20
38.9192
 30
0.0
 10
-159.6152
 20
35.3105
 30
0.0
 10
-161.2658
 20
33.1108
 30
0.0
 10
-161.2658
 20
33.1108
 30
0.0
 10
-165.2521
 20
34.89
 30
0.0
 10
-169.7312
 20
37.0891
 30
0.0
 10
-173.3809
 20
39.9541
 30
0.0
 10
-173.3809
 20
39.9541
 30
0.0
 10
-173.3809
 20
39.9541
 30
0.0
 10
-173.3811
 20
39.9539
 30
0.0
 10
-173.3811
 20
39.9539
 30
0.0
  0
SPLINE
  5
B3
330
1F
100
AcDbEntity
  8
layer 1
 62
     7
100
AcDbSpline
210
0.0
220
0.0
230
1.0
 70
    11
 71
     3
 72
    24
 73
    20
 74
     0
 42
0.0000000001
 43
0.0000000001
 12
1.0
 22
0.0
 32
0.0
 13
1.0
 23
0.0
 33
0.0
 40
0.0
 40
0.0
 40
0.0
 40
0.0
 40
0.1666666666666667
 40
0.1666666666666667
 40
0.1666666666666667
 40
0.1666666666666667
 40
0.3333333333333333
 40
0.3333333333333333
 40
0.3333333333333333
 40
0.3333333333333333
 40
0.5
 40
0.5
 40
0.5
 40
0.5
 40
0.6666666666666666
 40
0.6666666666666666
 40
0.6666666666666666
 40
0.6666666666666666
 40
1.0
 40
1.0
 40
1.0
 40
1.0
 10
-56.9383
 20
36.3347
 30
0.0
 10
-54.6796
 20
32.4367
 30
0.0
 10
-53.0198
 20
25.7821
 30
0.0
 10
-53.2297
 20
20.9053
 30
0.0
 10
-53.2297
 20
20.9053
 30
0.0
 10
-55.3994
 20
19.6516
 30
0.0
 10
-56.0577
 20
19.273
 30
0.0
 10
-57.8053
 20
18.2553
 30
0.0
 10
-57.8053
 20
18.2553
 30
0.0
 10
-61.0866
 20
19.7418
 30
0.0
 10
-67.9592
 20
25.8583
 30
0.0
 10
-69.2098
 20
29.2231
 30
0.0
 10
-69.2098
 20
29.2231
 30
0.0
 10
-65.5544
 20
31.1058
 30
0.0
 10
-59.8952
 20
34.5028
 30
0.0
 10
-56.9383
 20
36.3349
 30
0.0
 10
-56.9383
 20
36.3349
 30
0.0
 10
-56.9383
 20
36.3349
 30
0.0
 10
-56.9383
 20
36.3347
 30
0.0
 10
-56.9383
 20
36.3347
 30
0.0
  0
SPLINE
  5
B4
330
1F
100
AcDbEntity
  8
layer 1
 62
     7
100
AcDbSpline
210
0.0
220
0.0
230
1.0
 70
    11
 71
     3
 72
    24
 73
    20
 74
     0
 42
0.0000000001
 43
0.0000000001
 12
1.0
 22
0.0
 32
0.0
 13
1.0
 23
0.0
 33
0.0
 40
0.0
 40
0.0
 40
0.0
 40
0.0
 40
0.1666666666666667
 40
0.1666666666666667
 40
0.1666666666666667
 40
0.1666666666666667
 40
0.3333333333333333
 40
0.3333333333333333
 40
0.3333333333333333
 40
0.3333333333333333
 40
0.5
 40
0.5
 40
0.5
 40
0.5
 40
0.6666666666666666
 40
0.6666666666666666
 40
0.6666666666666666
 40
0.6666666666666666
 40
1.0
 40
1.0
 40
1.0
 40
1.0
 10
-58.9367
 20
39.5803
 30
0.0
 10
-60.5952
 20
42.1439
 30
0.0
 10
-63.101
 20
45.5082
 30
0.0
 10
-65.0384
 20
46.9662
 30
0.0
 10
-65.0384
 20
46.9662
 30
0.0
 10
-67.6148
 20
45.2307
 30
0.0
 10
-72.4278
 20
42.4505
 30
0.0
 10
-74.5585
 20
41.665
 30
0.0
 10
-74.5585
 20
41.665
 30
0.0
 10
-73.9976
 20
38.5456
 30
0.0
 10
-72.7026
 20
34.9369
 30
0.0
 10
-71.0519
 20
32.7372
 30
0.0
 10
-71.0519
 20
32.7372
 30
0.0
 10
-67.0657
 20
34.5164
 30
0.0
 10
-62.5866
 20
36.7155
 30
0.0
 10
-58.9368
 20
39.5805
 30
0.0
 10
-58.9368
 20
39.5805
 30
0.0
 10
-58.9368
 20
39.5805
 30
0.0
 10
-58.9367
 20
39.5803
 30
0.0
 10
-58.9367
 20
39.5803
 30
0.0
  0
SPLINE
  5
B5
330
1F
100
AcDbEntity
  8
layer 1
 62
     7
100
AcDbSpline
210
0.0
220
0.0
230
1.0
 70
    11
 71
     3
 72
    24
 73
    20
 74
     0
 42
0.0000000001
 43
0.0000000001
 12
1.0
 22
0.0
 32
0.0
 13
1.0
 23
0.0
 33
0.0
 40
0.0
 40
0.0
 40
0.0
 40
0.0
 40
0.1666666666666667
 40
0.1666666666666667
 40
0.1666666666666667
 40
0.1666666666666667
 40
0.3333333333333333
 40
0.3333333333333333
 40
0.3333333333333333
 40
0.3333333333333333
 40
0.5
 40
0.5
 40
0.5
 40
0.5
 40
0.6666666666666666
 40
0.6666666666666666
 40
0.6666666666666666
 40
0.6666666666666666
 40
1.0
 40
1.0
 40
1.0
 40
1.0
 10
-175.3794
 20
-11.3311
 30
0.0
 10
-177.6382
 20
-7.4332
 30
0.0
 10
-179.298
 20
-0.7786
 30
0.0
 10
-179.0881
 20
4.0983
 30
0.0
 10
-179.0881
 20
4.0983
 30
0.0
 10
-176.9184
 20
5.352
 30
0.0
 10
-176.2601
 20
5.7306
 30
0.0
 10
-174.5125
 20
6.7483
 30
0.0
 10
-174.5125
 20
6.7483
 30
0.0
 10
-171.2312
 20
5.2618
 30
0.0
 10
-164.3586
 20
-0.8548
 30
0.0
 10
-163.1079
 20
-4.2195
 30
0.0
 10
-163.1079
 20
-4.2195
 30
0.0
 10
-166.7633
 20
-6.1023
 30
0.0
 10
-172.4225
 20
-9.4992
 30
0.0
 10
-175.3794
 20
-11.3313
 30
0.0
 10
-175.3794
 20
-11.3313
 30
0.0
 10
-175.3794
 20
-11.3313
 30
0.0
 10
-175.3794
 20
-11.3311
 30
0.0
 10
-175.3794
 20
-11.3311
 30
0.0
  0
SPLINE
  5
B6
330
1F
100
AcDbEntity
  8
layer 1
 62
     7
100
AcDbSpline
210
0.0
220
0.0
230
1.0
 70
    11
 71
     3
 72
    24
 73
    20
 74
     0
 42
0.0000000001
 43
0.0000000001
 12
1.0
 22
0.0
 32
0.0
 13
1.0
 23
0.0
 33
0.0
 40
0.0
 40
0.0
 40
0.0
 40
0.0
 40
0.1666666666666667
 40
0.1666666666666667
 40
0.1666666666666667
 40
0.1666666666666667
 40
0.3333333333333333
 40
0.3333333333333333
 40
0.3333333333333333
 40
0.3333333333333333
 40
0.5
 40
0.5
 40
0.5
 40
0.5
 40
0.6666666666666666
 40
0.6666666666666666
 40
0.6666666666666666
 40
0.6666666666666666
 40
1.0
 40
1.0
 40
1.0
 40
1.0
 10
-173.3811
 20
-14.5766
 30
0.0
 10
-171.7226
 20
-17.1402
 30
0.0
 10
-169.2168
 20
-20.5044
 30
0.0
 10
-167.2793
 20
-21.9625
 30
0.0
 10
-167.2793
 20
-21.9625
 30
0.0
 10
-164.7029
 20
-20.227
 30
0.0
 10
-159.8899
 20
-17.4467
 30
0.0
 10
-157.7593
 20
-16.6613
 30
0.0
 10
-157.7593
 20
-16.6613
 30
0.0
 10
-158.3202
 20
-13.5418
 30
0.0
 10
-159.6152
 20
-9.9332
 30
0.0
 10
-161.2658
 20
-7.7334
 30
0.0
 10
-161.2658
 20
-7.7334
 30
0.0
 10
-165.2521
 20
-9.5127
 30
0.0
 10
-169.7312
 20
-11.7118
 30
0.0
 10
-173.3809
 20
-14.5768
 30
0.0
 10
-173.3809
 20
-14.5768
 30
0.0
 10
-173.3809
 20
-14.5768
 30
0.0
 10
-173.3811
 20
-14.5766
 30
0.0
 10
-173.3811
 20
-14.5766
 30
0.0
  0
SPLINE
  5
B7
330
1F
100
AcDbEntity
  8
layer 1
 62
     7
100
AcDbSpline
210
0.0
220
0.0
230
1.0
 70
    11
 71
     3
 72
    24
 73
    20
 74
     0
 42
0.0000000001
 43
0.0000000001
 12
1.0
 22
0.0
 32
0.0
 13
1.0
 23
0.0
 33
0.0
 40
0.0
 40
0.0
 40
0.0
 40
0.0
 40
0.1666666666666667
 40
0.1666666666666667
 40
0.1666666666666667
 40
0.1666666666666667
 40
0.3333333333333333
 40
0.3333333333333333
 40
0.3333333333333333
 40
0.3333333333333333
 40
0.5
 40
0.5
 40
0.5
 40
0.5
 40
0.6666666666666666
 40
0.6666666666666666
 40
0.6666666666666666
 40
0.6666666666666666
 40
1.0
 40
1.0
 40
1.0
 40
1.0
 10
-175.3794
 20
63.1278
 30
0.0
 10
-177.6382
 20
67.0258
 30
0.0
 10
-179.298
 20
73.6804
 30
0.0
 10
-179.0881
 20
78.5572
 30
0.0
 10
-179.0881
 20
78.5572
 30
0.0
 10
-176.9184
 20
79.811
 30
0.0
 10
-176.2601
 20
80.1895
 30
0.0
 10
-174.5125
 20
81.2073
 30
0.0
 10
-174.5125
 20
81.2073
 30
0.0
 10
-171.2312
 20
79.7208
 30
0.0
 10
-164.3586
 20
73.6042
 30
0.0
 10
-163.1079
 20
70.2395
 30
0.0
 10
-163.1079
 20
70.2395
 30
0.0
 10
-166.7633
 20
68.3567
 30
0.0
 10
-172.4225
 20
64.9598
 30
0.0
 10
-175.3794
 20
63.1277
 30
0.0
 10
-175.3794
 20
63.1277
 30
0.0
 10
-175.3794
 20
63.1277
 30
0.0
 10
-175.3794
 20
63.1278
 30
0.0
 10
-175.3794
 20
63.1278
 30
0.0
  0
SPLINE
  5
B8
330
1F
100
AcDbEntity
  8
layer 1
 62
     7
100
AcDbSpline
210
0.0
220
0.0
230
1.0
 70
    11
 71
     3
 72
    24
 73
    20
 74
     0
 42
0.0000000001
 43
0.0000000001
 12
1.0
 22
0.0
 32
0.0
 13
1.0
 23
0.0
 33
0.0
 40
0.0
 40
0.0
 40
0.0
 40
0.0
 40
0.1666666666666667
 40
0.1666666666666667
 40
0.1666666666666667
 40
0.1666666666666667
 40
0.3333333333333333
 40
0.3333333333333333
 40
0.3333333333333333
 40
0.3333333333333333
 40
0.5
 40
0.5
 40
0.5
 40
0.5
 40
0.6666666666666666
 40
0.6666666666666666
 40
0.6666666666666666
 40
0.6666666666666666
 40
1.0
 40
1.0
 40
1.0
 40
1.0
 10
-173.3811
 20
59.8822
 30
0.0
 10
-171.7226
 20
57.3187
 30
0.0
 10
-169.2168
 20
53.9544
 30
0.0
 10
-167.2793
 20
52.4963
 30
0.0
 10
-167.2793
 20
52.4963
 30
0.0
 10
-164.7029
 20
54.2318
 30
0.0
 10
-159.8899
 20
57.0121
 30
0.0
 10
-157.7593
 20
57.7975
 30
0.0
 10
-157.7593
 20
57.7975
 30
0.0
 10
-158.3202
 20
60.917
 30
0.0
 10
-159.6152
 20
64.5256
 30
0.0
 10
-161.2658
 20
66.7254
 30
0.0
 10
-161.2658
 20
66.7254
 30
0.0
 10
-165.2521
 20
64.9461
 30
0.0
 10
-169.7312
 20
62.747
 30
0.0
 10
-173.3809
 20
59.8821
 30
0.0
 10
-173.3809
 20
59.8821
 30
0.0
 10
-173.3809
 20
59.8821
 30
0.0
 10
-173.3811
 20
59.8822
 30
0.0
 10
-173.3811
 20
59.8822
 30
0.0
  0
SPLINE
  5
B9
330
1F
100
AcDbEntity
  8
layer 1
 62
     7
100
AcDbSpline
210
0.0
220
0.0
230
1.0
 70
    11
 71
     3
 72
    24
 73
    20
 74
     0
 42
0.0000000001
 43
0.0000000001
 12
1.0
 22
0.0
 32
0.0
 13
1.0
 23
0.0
 33
0.0
 40
0.0
 40
0.0
 40
0.0
 40
0.0
 40
0.1666666666666667
 40
0.1666666666666667
 40
0.1666666666666667
 40
0.1666666666666667
 40
0.3333333333333333
 40
0.3333333333333333
 40
0.3333333333333333
 40
0.3333333333333333
 40
0.5
 40
0.5
 40
0.5
 40
0.5
 40
0.6666666666666666
 40
0.6666666666666666
 40
0.6666666666666666
 40
0.6666666666666666
 40
1.0
 40
1.0
 40
1.0
 40
1.0
 10
-175.3794
 20
-86.537
 30
0.0
 10
-177.6382
 20
-82.639
 30
0.0
 10
-179.298
 20
-75.9844
 30
0.0
 10
-179.0881
 20
-71.1076
 30
0.0
 10
-179.0881
 20
-71.1076
 30
0.0
 10
-176.9184
 20
-69.8539
 30
0.0
 10
-176.2601
 20
-69.4753
 30
0.0
 10
-174.5125
 20
-68.4575
 30
0.0
 10
-174.5125
 20
-68.4575
 30
0.0
 10
-171.2312
 20
-69.944
 30
0.0
 10
-164.3586
 20
-76.0606
 30
0.0
 10
-163.1079
 20
-79.4254
 30
0.0
 10
-163.1079
 20
-79.4254
 30
0.0
 10
-166.7633
 20
-81.3081
 30
0.0
 10
-172.4225
 20
-84.705
 30
0.0
 10
-175.3794
 20
-86.5371
 30
0.0
 10
-175.3794
 20
-86.5371
 30
0.0
 10
-175.3794
 20
-86.5371
 30
0.0
 10
-175.3794
 20
-86.537
 30
0.0
 10
-175.3794
 20
-86.537
 30
0.0
  0
SPLINE
  5
BA
330
1F
100
AcDbEntity
  8
layer 1
 62
     7
100
AcDbSpline
210
0.0
220
0.0
230
1.0
 70
    11
 71
     3
 72
    24
 73
    20
 74
     0
 42
0.0000000001
 43
0.0000000001
 12
1.0
 22
0.0
 32
0.0
 13
1.0
 23
0.0
 33
0.0
 40
0.0
 40
0.0
 40
0.0
 40
0.0
 40
0.1666666666666667
 40
0.1666666666666667
 40
0.1666666666666667
 40
0.1666666666666667
 40
0.3333333333333333
 40
0.3333333333333333
 40
0.3333333333333333
 40
0.3333333333333333
 40
0.5
 40
0.5
 40
0.5
 40
0.5
 40
0.6666666666666666
 40
0.6666666666666666
 40
0.6666666666666666
 40
0.6666666666666666
 40
1.0
 40
1.0
 40
1.0
 40
1.0
 10
-173.3811
 20
-89.7826
 30
0.0
 10
-171.7226
 20
-92.3462
 30
0.0
 10
-169.2168
 20
-95.7104
 30
0.0
 10
-167.2793
 20
-97.1685
 30
0.0
 10
-167.2793
 20
-97.1685
 30
0.0
 10
-164.7029
 20
-95.433
 30
0.0
 10
-159.8899
 20
-92.6527
 30
0.0
 10
-157.7593
 20
-91.8673
 30
0.0
 10
-157.7593
 20
-91.8673
 30
0.0
 10
-158.3202
 20
-88.7478
 30
0.0
 10
-159.6152
 20
-85.1392
 30
0.0
 10
-161.2658
 20
-82.9394
 30
0.0
 10
-161.2658
 20
-82.9394
 30
0.0
 10
-165.2521
 20
-84.7187
 30
0.0
 10
-169.7312
 20
-86.9178
 30
0.0
 10
-173.3809
 20
-89.7828
 30
0.0
 10
-173.3809
 20
-89.7828
 30
0.0
 10
-173.3809
 20
-89.7828
 30
0.0
 10
-173.3811
 20
-89.7826
 30
0.0
 10
-173.3811
 20
-89.7826
 30
0.0
  0
SPLINE
  5
BB
330
1F
100
AcDbEntity
  8
layer 1
 62
     7
100
AcDbSpline
210
0.0
220
0.0
230
1.0
 70
    11
 71
     3
 72
    24
 73
    20
 74
     0
 42
0.0000000001
 43
0.0000000001
 12
1.0
 22
0.0
 32
0.0
 13
1.0
 23
0.0
 33
0.0
 40
0.0
 40
0.0
 40
0.0
 40
0.0
 40
0.1666666666666667
 40
0.1666666666666667
 40
0.1666666666666667
 40
0.1666666666666667
 40
0.3333333333333333
 40
0.3333333333333333
 40
0.3333333333333333
 40
0.3333333333333333
 40
0.5
 40
0.5
 40
0.5
 40
0.5
 40
0.6666666666666666
 40
0.6666666666666666
 40
0.6666666666666666
 40
0.6666666666666666
 40
1.0
 40
1.0
 40
1.0
 40
1.0
 10
-56.8949
 20
-86.537
 30
0.0
 10
-54.6362
 20
-82.639
 30
0.0
 10
-52.9764
 20
-75.9844
 30
0.0
 10
-53.1863
 20
-71.1076
 30
0.0
 10
-53.1863
 20
-71.1076
 30
0.0
 10
-55.356
 20
-69.8539
 30
0.0
 10
-56.0143
 20
-69.4753
 30
0.0
 10
-57.7619
 20
-68.4575
 30
0.0
 10
-57.7619
 20
-68.4575
 30
0.0
 10
-61.0432
 20
-69.944
 30
0.0
 10
-67.9158
 20
-76.0606
 30
0.0
 10
-69.1664
 20
-79.4254
 30
0.0
 10
-69.1664
 20
-79.4254
 30
0.0
 10
-65.511
 20
-81.3081
 30
0.0
 10
-59.8518
 20
-84.705
 30
0.0
 10
-56.8949
 20
-86.5371
 30
0.0
 10
-56.8949
 20
-86.5371
 30
0.0
 10
-56.8949
 20
-86.5371
 30
0.0
 10
-56.8949
 20
-86.537
 30
0.0
 10
-56.8949
 20
-86.537
 30
0.0
  0
SPLINE
  5
BC
330
1F
100
AcDbEntity
  8
layer 1
 62
     7
100
AcDbSpline
210
0.0
220
0.0
230
1.0
 70
    11
 71
     3
 72
    24
 73
    20
 74
     0
 42
0.0000000001
 43
0.0000000001
 12
1.0
 22
0.0
 32
0.0
 13
1.0
 23
0.0
 33
0.0
 40
0.0
 40
0.0
 40
0.0
 40
0.0
 40
0.1666666666666667
 40
0.1666666666666667
 40
0.1666666666666667
 40
0.1666666666666667
 40
0.3333333333333333
 40
0.3333333333333333
 40
0.3333333333333333
 40
0.3333333333333333
 40
0.5
 40
0.5
 40
0.5
 40
0.5
 40
0.6666666666666666
 40
0.6666666666666666
 40
0.6666666666666666
 40
0.6666666666666666
 40
1.0
 40
1.0
 40
1.0
 40
1.0
 10
-58.8933
 20
-89.7826
 30
0.0
 10
-60.5518
 20
-92.3462
 30
0.0
 10
-63.0576
 20
-95.7104
 30
0.0
 10
-64.995
 20
-97.1685
 30
0.0
 10
-64.995
 20
-97.1685
 30
0.0
 10
-67.5714
 20
-95.433
 30
0.0
 10
-72.3844
 20
-92.6527
 30
0.0
 10
-74.5151
 20
-91.8673
 30
0.0
 10
-74.5151
 20
-91.8673
 30
0.0
 10
-73.9542
 20
-88.7478
 30
0.0
 10
-72.6592
 20
-85.1392
 30
0.0
 10
-71.0085
 20
-82.9394
 30
0.0
 10
-71.0085
 20
-82.9394
 30
0.0
 10
-67.0223
 20
-84.7187
 30
0.0
 10
-62.5432
 20
-86.9178
 30
0.0
 10
-58.8934
 20
-89.7828
 30
0.0
 10
-58.8934
 20
-89.7828
 30
0.0
 10
-58.8934
 20
-89.7828
 30
0.0
 10
-58.8933
 20
-89.7826
 30
0.0
 10
-58.8933
 20
-89.7826
 30
0.0
  0
SPLINE
  5
BD
330
1F
100
AcDbEntity
  8
layer 1
 62
     7
100
AcDbSpline
210
0.0
220
0.0
230
1.0
 70
    11
 71
     3
 72
    24
 73
    20
 74
     0
 42
0.0000000001
 43
0.0000000001
 12
1.0
 22
0.0
 32
0.0
 13
1.0
 23
0.0
 33
0.0
 40
0.0
 40
0.0
 40
0.0
 40
0.0
 40
0.1666666666666667
 40
0.1666666666666667
 40
0.1666666666666667
 40
0.1666666666666667
 40
0.3333333333333333
 40
0.3333333333333333
 40
0.3333333333333333
 40
0.3333333333333333
 40
0.5
 40
0.5
 40
0.5
 40
0.5
 40
0.6666666666666666
 40
0.6666666666666666
 40
0.6666666666666666
 40
0.6666666666666666
 40
1.0
 40
1.0
 40
1.0
 40
1.0
 10
-56.8949
 20
-11.5801
 30
0.0
 10
-54.6362
 20
-7.6822
 30
0.0
 10
-52.9764
 20
-1.0276
 30
0.0
 10
-53.1863
 20
3.8493
 30
0.0
 10
-53.1863
 20
3.8493
 30
0.0
 10
-55.356
 20
5.103
 30
0.0
 10
-56.0143
 20
5.4816
 30
0.0
 10
-57.7619
 20
6.4993
 30
0.0
 10
-57.7619
 20
6.4993
 30
0.0
 10
-61.0432
 20
5.0128
 30
0.0
 10
-67.9158
 20
-1.1038
 30
0.0
 10
-69.1664
 20
-4.4685
 30
0.0
 10
-69.1664
 20
-4.4685
 30
0.0
 10
-65.511
 20
-6.3513
 30
0.0
 10
-59.8518
 20
-9.7482
 30
0.0
 10
-56.8949
 20
-11.5803
 30
0.0
 10
-56.8949
 20
-11.5803
 30
0.0
 10
-56.8949
 20
-11.5803
 30
0.0
 10
-56.8949
 20
-11.5801
 30
0.0
 10
-56.8949
 20
-11.5801
 30
0.0
  0
SPLINE
  5
BE
330
1F
100
AcDbEntity
  8
layer 1
 62
     7
100
AcDbSpline
210
0.0
220
0.0
230
1.0
 70
    11
 71
     3
 72
    24
 73
    20
 74
     0
 42
0.0000000001
 43
0.0000000001
 12
1.0
 22
0.0
 32
0.0
 13
1.0
 23
0.0
 33
0.0
 40
0.0
 40
0.0
 40
0.0
 40
0.0
 40
0.1666666666666667
 40
0.1666666666666667
 40
0.1666666666666667
 40
0.1666666666666667
 40
0.3333333333333333
 40
0.3333333333333333
 40
0.3333333333333333
 40
0.3333333333333333
 40
0.5
 40
0.5
 40
0.5
 40
0.5
 40
0.6666666666666666
 40
0.6666666666666666
 40
0.6666666666666666
 40
0.6666666666666666
 40
1.0
 40
1.0
 40
1.0
 40
1.0
 10
-58.8933
 20
-14.8258
 30
0.0
 10
-60.5518
 20
-17.3893
 30
0.0
 10
-63.0576
 20
-20.7536
 30
0.0
 10
-64.995
 20
-22.2116
 30
0.0
 10
-64.995
 20
-22.2116
 30
0.0
 10
-67.5714
 20
-20.4761
 30
0.0
 10
-72.3844
 20
-17.6959
 30
0.0
 10
-74.5151
 20
-16.9104
 30
0.0
 10
-74.5151
 20
-16.9104
 30
0.0
 10
-73.9542
 20
-13.791
 30
0.0
 10
-72.6592
 20
-10.1824
 30
0.0
 10
-71.0085
 20
-7.9826
 30
0.0
 10
-71.0085
 20
-7.9826
 30
0.0
 10
-67.0223
 20
-9.7618
 30
0.0
 10
-62.5432
 20
-11.961
 30
0.0
 10
-58.8934
 20
-14.8259
 30
0.0
 10
-58.8934
 20
-14.8259
 30
0.0
 10
-58.8934
 20
-14.8259
 30
0.0
 10
-58.8933
 20
-14.8258
 30
0.0
 10
-58.8933
 20
-14.8258
 30
0.0
  0
SPLINE
  5
BF
330
1F
100
AcDbEntity
  8
layer 1
 62
     7
100
AcDbSpline
210
0.0
220
0.0
230
1.0
 70
    11
 71
     3
 72
    24
 73
    20
 74
     0
 42
0.0000000001
 43
0.0000000001
 12
1.0
 22
0.0
 32
0.0
 13
1.0
 23
0.0
 33
0.0
 40
0.0
 40
0.0
 40
0.0
 40
0.0
 40
0.1666666666666667
 40
0.1666666666666667
 40
0.1666666666666667
 40
0.1666666666666667
 40
0.3333333333333333
 40
0.3333333333333333
 40
0.3333333333333333
 40
0.3333333333333333
 40
0.5
 40
0.5
 40
0.5
 40
0.5
 40
0.6666666666666666
 40
0.6666666666666666
 40
0.6666666666666666
 40
0.6666666666666666
 40
1.0
 40
1.0
 40
1.0
 40
1.0
 10
-56.8949
 20
63.1278
 30
0.0
 10
-54.6362
 20
67.0258
 30
0.0
 10
-52.9764
 20
73.6804
 30
0.0
 10
-53.1863
 20
78.5572
 30
0.0
 10
-53.1863
 20
78.5572
 30
0.0
 10
-55.356
 20
79.811
 30
0.0
 10
-56.0143
 20
80.1895
 30
0.0
 10
-57.7619
 20
81.2073
 30
0.0
 10
-57.7619
 20
81.2073
 30
0.0
 10
-61.0432
 20
79.7208
 30
0.0
 10
-67.9158
 20
73.6042
 30
0.0
 10
-69.1664
 20
70.2395
 30
0.0
 10
-69.1664
 20
70.2395
 30
0.0
 10
-65.511
 20
68.3567
 30
0.0
 10
-59.8518
 20
64.9598
 30
0.0
 10
-56.8949
 20
63.1277
 30
0.0
 10
-56.8949
 20
63.1277
 30
0.0
 10
-56.8949
 20
63.1277
 30
0.0
 10
-56.8949
 20
63.1278
 30
0.0
 10
-56.8949
 20
63.1278
 30
0.0
  0
SPLINE
  5
C0
330
1F
100
AcDbEntity
  8
layer 1
 62
     7
100
AcDbSpline
210
0.0
220
0.0
230
1.0
 70
    11
 71
     3
 72
    24
 73
    20
 74
     0
 42
0.0000000001
 43
0.0000000001
 12
1.0
 22
0.0
 32
0.0
 13
1.0
 23
0.0
 33
0.0
 40
0.0
 40
0.0
 40
0.0
 40
0.0
 40
0.1666666666666667
 40
0.1666666666666667
 40
0.1666666666666667
 40
0.1666666666666667
 40
0.3333333333333333
 40
0.3333333333333333
 40
0.3333333333333333
 40
0.3333333333333333
 40
0.5
 40
0.5
 40
0.5
 40
0.5
 40
0.6666666666666666
 40
0.6666666666666666
 40
0.6666666666666666
 40
0.6666666666666666
 40
1.0
 40
1.0
 40
1.0
 40
1.0
 10
-58.8933
 20
59.8822
 30
0.0
 10
-60.5518
 20
57.3187
 30
0.0
 10
-63.0576
 20
53.9544
 30
0.0
 10
-64.995
 20
52.4963
 30
0.0
 10
-64.995
 20
52.4963
 30
0.0
 10
-67.5714
 20
54.2318
 30
0.0
 10
-72.3844
 20
57.0121
 30
0.0
 10
-74.5151
 20
57.7975
 30
0.0
 10
-74.5151
 20
57.7975
 30
0.0
 10
-73.9542
 20
60.917
 30
0.0
 10
-72.6592
 20
64.5256
 30
0.0
 10
-71.0085
 20
66.7254
 30
0.0
 10
-71.0085
 20
66.7254
 30
0.0
 10
-67.0223
 20
64.9461
 30
0.0
 10
-62.5432
 20
62.747
 30
0.0
 10
-58.8934
 20
59.8821
 30
0.0
 10
-58.8934
 20
59.8821
 30
0.0
 10
-58.8934
 20
59.8821
 30
0.0
 10
-58.8933
 20
59.8822
 30
0.0
 10
-58.8933
 20
59.8822
 30
0.0
  0
SPLINE
  5
C1
330
1F
100
AcDbEntity
  8
layer 1
 62
     7
100
AcDbSpline
210
0.0
220
0.0
230
1.0
 70
    11
 71
     3
 72
    24
 73
    20
 74
     0
 42
0.0000000001
 43
0.0000000001
 12
1.0
 22
0.0
 32
0.0
 13
1.0
 23
0.0
 33
0.0
 40
0.0
 40
0.0
 40
0.0
 40
0.0
 40
0.1666666666666667
 40
0.1666666666666667
 40
0.1666666666666667
 40
0.1666666666666667
 40
0.3333333333333333
 40
0.3333333333333333
 40
0.3333333333333333
 40
0.3333333333333333
 40
0.5
 40
0.5
 40
0.5
 40
0.5
 40
0.6666666666666666
 40
0.6666666666666666
 40
0.6666666666666666
 40
0.6666666666666666
 40
1.0
 40
1.0
 40
1.0
 40
1.0
 10
-121.8263
 20
100.82
 30
0.0
 10
-119.5675
 20
104.718
 30
0.0
 10
-117.9077
 20
111.3726
 30
0.0
 10
-118.1177
 20
116.2494
 30
0.0
 10
-118.1177
 20
116.2494
 30
0.0
 10
-120.2874
 20
117.5031
 30
0.0
 10
-120.9457
 20
117.8817
 30
0.0
 10
-122.6932
 20
118.8994
 30
0.0
 10
-122.6932
 20
118.8994
 30
0.0
 10
-125.9746
 20
117.4129
 30
0.0
 10
-132.8471
 20
111.2964
 30
0.0
 10
-134.0978
 20
107.9316
 30
0.0
 10
-134.0978
 20
107.9316
 30
0.0
 10
-130.4424
 20
106.0489
 30
0.0
 10
-124.7832
 20
102.652
 30
0.0
 10
-121.8263
 20
100.8198
 30
0.0
 10
-121.8263
 20
100.8198
 30
0.0
 10
-121.8263
 20
100.8198
 30
0.0
 10
-121.8263
 20
100.82
 30
0.0
 10
-121.8263
 20
100.82
 30
0.0
  0
SPLINE
  5
C2
330
1F
100
AcDbEntity
  8
layer 1
 62
     7
100
AcDbSpline
210
0.0
220
0.0
230
1.0
 70
    11
 71
     3
 72
    24
 73
    20
 74
     0
 42
0.0000000001
 43
0.0000000001
 12
1.0
 22
0.0
 32
0.0
 13
1.0
 23
0.0
 33
0.0
 40
0.0
 40
0.0
 40
0.0
 40
0.0
 40
0.1666666666666667
 40
0.1666666666666667
 40
0.1666666666666667
 40
0.1666666666666667
 40
0.3333333333333333
 40
0.3333333333333333
 40
0.3333333333333333
 40
0.3333333333333333
 40
0.5
 40
0.5
 40
0.5
 40
0.5
 40
0.6666666666666666
 40
0.6666666666666666
 40
0.6666666666666666
 40
0.6666666666666666
 40
1.0
 40
1.0
 40
1.0
 40
1.0
 10
-123.8246
 20
97.5744
 30
0.0
 10
-125.4831
 20
95.0108
 30
0.0
 10
-127.989
 20
91.6465
 30
0.0
 10
-129.9264
 20
90.1885
 30
0.0
 10
-129.9264
 20
90.1885
 30
0.0
 10
-132.5028
 20
91.924
 30
0.0
 10
-137.3158
 20
94.7042
 30
0.0
 10
-139.4464
 20
95.4897
 30
0.0
 10
-139.4464
 20
95.4897
 30
0.0
 10
-138.8856
 20
98.6091
 30
0.0
 10
-137.5905
 20
102.2178
 30
0.0
 10
-135.9399
 20
104.4175
 30
0.0
 10
-135.9399
 20
104.4175
 30
0.0
 10
-131.9537
 20
102.6383
 30
0.0
 10
-127.4746
 20
100.4392
 30
0.0
 10
-123.8248
 20
97.5742
 30
0.0
 10
-123.8248
 20
97.5742
 30
0.0
 10
-123.8248
 20
97.5742
 30
0.0
 10
-123.8246
 20
97.5744
 30
0.0
 10
-123.8246
 20
97.5744
 30
0.0
  0
SPLINE
  5
C3
330
1F
100
AcDbEntity
  8
layer 1
 62
     7
100
AcDbSpline
210
0.0
220
0.0
230
1.0
 70
    11
 71
     3
 72
    24
 73
    20
 74
     0
 42
0.0000000001
 43
0.0000000001
 12
1.0
 22
0.0
 32
0.0
 13
1.0
 23
0.0
 33
0.0
 40
0.0
 40
0.0
 40
0.0
 40
0.0
 40
0.1666666666666667
 40
0.1666666666666667
 40
0.1666666666666667
 40
0.1666666666666667
 40
0.3333333333333333
 40
0.3333333333333333
 40
0.3333333333333333
 40
0.3333333333333333
 40
0.5
 40
0.5
 40
0.5
 40
0.5
 40
0.6666666666666666
 40
0.6666666666666666
 40
0.6666666666666666
 40
0.6666666666666666
 40
1.0
 40
1.0
 40
1.0
 40
1.0
 10
-110.4915
 20
100.82
 30
0.0
 10
-112.7502
 20
104.718
 30
0.0
 10
-114.41
 20
111.3726
 30
0.0
 10
-114.2001
 20
116.2494
 30
0.0
 10
-114.2001
 20
116.2494
 30
0.0
 10
-112.0304
 20
117.5031
 30
0.0
 10
-111.3721
 20
117.8817
 30
0.0
 10
-109.6245
 20
118.8994
 30
0.0
 10
-109.6245
 20
118.8994
 30
0.0
 10
-106.3432
 20
117.4129
 30
0.0
 10
-99.4706
 20
111.2964
 30
0.0
 10
-98.22
 20
107.9316
 30
0.0
 10
-98.22
 20
107.9316
 30
0.0
 10
-101.8754
 20
106.0489
 30
0.0
 10
-107.5346
 20
102.652
 30
0.0
 10
-110.4915
 20
100.8198
 30
0.0
 10
-110.4915
 20
100.8198
 30
0.0
 10
-110.4915
 20
100.8198
 30
0.0
 10
-110.4915
 20
100.82
 30
0.0
 10
-110.4915
 20
100.82
 30
0.0
  0
SPLINE
  5
C4
330
1F
100
AcDbEntity
  8
layer 1
 62
     7
100
AcDbSpline
210
0.0
220
0.0
230
1.0
 70
    11
 71
     3
 72
    24
 73
    20
 74
     0
 42
0.0000000001
 43
0.0000000001
 12
1.0
 22
0.0
 32
0.0
 13
1.0
 23
0.0
 33
0.0
 40
0.0
 40
0.0
 40
0.0
 40
0.0
 40
0.1666666666666667
 40
0.1666666666666667
 40
0.1666666666666667
 40
0.1666666666666667
 40
0.3333333333333333
 40
0.3333333333333333
 40
0.3333333333333333
 40
0.3333333333333333
 40
0.5
 40
0.5
 40
0.5
 40
0.5
 40
0.6666666666666666
 40
0.6666666666666666
 40
0.6666666666666666
 40
0.6666666666666666
 40
1.0
 40
1.0
 40
1.0
 40
1.0
 10
-108.4931
 20
97.5744
 30
0.0
 10
-106.8346
 20
95.0108
 30
0.0
 10
-104.3288
 20
91.6465
 30
0.0
 10
-102.3914
 20
90.1885
 30
0.0
 10
-102.3914
 20
90.1885
 30
0.0
 10
-99.815
 20
91.924
 30
0.0
 10
-95.002
 20
94.7042
 30
0.0
 10
-92.8713
 20
95.4897
 30
0.0
 10
-92.8713
 20
95.4897
 30
0.0
 10
-93.4322
 20
98.6091
 30
0.0
 10
-94.7272
 20
102.2178
 30
0.0
 10
-96.3779
 20
104.4175
 30
0.0
 10
-96.3779
 20
104.4175
 30
0.0
 10
-100.3641
 20
102.6383
 30
0.0
 10
-104.8432
 20
100.4392
 30
0.0
 10
-108.493
 20
97.5742
 30
0.0
 10
-108.493
 20
97.5742
 30
0.0
 10
-108.493
 20
97.5742
 30
0.0
 10
-108.4931
 20
97.5744
 30
0.0
 10
-108.4931
 20
97.5744
 30
0.0
  0
SPLINE
  5
C5
330
1F
100
AcDbEntity
  8
layer 1
 62
     7
100
AcDbSpline
210
0.0
220
0.0
230
1.0
 70
    11
 71
     3
 72
    24
 73
    20
 74
     0
 42
0.0000000001
 43
0.0000000001
 12
1.0
 22
0.0
 32
0.0
 13
1.0
 23
0.0
 33
0.0
 40
0.0
 40
0.0
 40
0.0
 40
0.0
 40
0.1666666666666667
 40
0.1666666666666667
 40
0.1666666666666667
 40
0.1666666666666667
 40
0.3333333333333333
 40
0.3333333333333333
 40
0.3333333333333333
 40
0.3333333333333333
 40
0.5
 40
0.5
 40
0.5
 40
0.5
 40
0.6666666666666666
 40
0.6666666666666666
 40
0.6666666666666666
 40
0.6666666666666666
 40
1.0
 40
1.0
 40
1.0
 40
1.0
 10
-92.2841
 20
-92.3701
 30
0.0
 10
-96.7892
 20
-92.3629
 30
0.0
 10
-103.3821
 20
-94.2527
 30
0.0
 10
-107.5006
 20
-96.8732
 30
0.0
 10
-107.5006
 20
-96.8732
 30
0.0
 10
-107.5011
 20
-98.2446
 30
0.0
 10
-107.501
 20
-99.0929
 30
0.0
 10
-107.5019
 20
-99.9114
 30
0.0
 10
-107.5019
 20
-99.9114
 30
0.0
 10
-107.5019
 20
-99.9114
 30
0.0
 10
-92.4141
 20
-100.0286
 30
0.0
 10
-92.4141
 20
-100.0286
 30
0.0
 10
-92.4141
 20
-100.0286
 30
0.0
 10
-92.4047
 20
-97.154
 30
0.0
 10
-92.3437
 20
-94.2874
 30
0.0
 10
-92.2839
 20
-92.3703
 30
0.0
 10
-92.2839
 20
-92.3703
 30
0.0
 10
-92.2839
 20
-92.3703
 30
0.0
 10
-92.2841
 20
-92.3701
 30
0.0
 10
-92.2841
 20
-92.3701
 30
0.0
  0
SPLINE
  5
C6
330
1F
100
AcDbEntity
  8
layer 1
 62
     7
100
AcDbSpline
210
0.0
220
0.0
230
1.0
 70
    11
 71
     3
 72
    24
 73
    20
 74
     0
 42
0.0000000001
 43
0.0000000001
 12
1.0
 22
0.0
 32
0.0
 13
1.0
 23
0.0
 33
0.0
 40
0.0
 40
0.0
 40
0.0
 40
0.0
 40
0.1666666666666667
 40
0.1666666666666667
 40
0.1666666666666667
 40
0.1666666666666667
 40
0.3333333333333333
 40
0.3333333333333333
 40
0.3333333333333333
 40
0.3333333333333333
 40
0.5
 40
0.5
 40
0.5
 40
0.5
 40
0.6666666666666666
 40
0.6666666666666666
 40
0.6666666666666666
 40
0.6666666666666666
 40
1.0
 40
1.0
 40
1.0
 40
1.0
 10
-88.4742
 20
-92.478
 30
0.0
 10
-85.4248
 20
-92.6326
 30
0.0
 10
-81.2584
 20
-93.1205
 30
0.0
 10
-79.0271
 20
-94.0693
 30
0.0
 10
-79.0271
 20
-94.0693
 30
0.0
 10
-79.1379
 20
-95.6664
 30
0.0
 10
-79.1919
 20
-97.9165
 30
0.0
 10
-79.1655
 20
-100.0286
 30
0.0
 10
-79.1655
 20
-100.0286
 30
0.0
 10
-79.1655
 20
-100.0286
 30
0.0
 10
-88.8102
 20
-100.0269
 30
0.0
 10
-88.8102
 20
-100.0269
 30
0.0
 10
-88.8102
 20
-100.0269
 30
0.0
 10
-88.8928
 20
-97.5046
 30
0.0
 10
-88.8256
 20
-94.9361
 30
0.0
 10
-88.4744
 20
-92.478
 30
0.0
 10
-88.4744
 20
-92.478
 30
0.0
 10
-88.4744
 20
-92.478
 30
0.0
 10
-88.4742
 20
-92.478
 30
0.0
 10
-88.4742
 20
-92.478
 30
0.0
  0
SPLINE
  5
C7
330
1F
100
AcDbEntity
  8
layer 1
 62
     7
100
AcDbSpline
210
0.0
220
0.0
230
1.0
 70
    11
 71
     3
 72
    16
 73
    12
 74
     0
 42
0.0000000001
 43
0.0000000001
 12
1.0
 22
0.0
 32
0.0
 13
1.0
 23
0.0
 33
0.0
 40
0.0
 40
0.0
 40
0.0
 40
0.0
 40
0.25
 40
0.25
 40
0.25
 40
0.25
 40
0.5
 40
0.5
 40
0.5
 40
0.5
 40
1.0
 40
1.0
 40
1.0
 40
1.0
 10
-156.7356
 20
-100.027
 30
0.0
 10
-156.7629
 20
-98.5764
 30
0.0
 10
-156.9411
 20
-97.0892
 30
0.0
 10
-157.3116
 20
-95.7154
 30
0.0
 10
-157.3116
 20
-95.7154
 30
0.0
 10
-159.4819
 20
-96.7574
 30
0.0
 10
-162.332
 20
-98.6035
 30
0.0
 10
-164.2829
 20
-99.9896
 30
0.0
 10
-164.2829
 20
-99.9896
 30
0.0
 10
-164.2829
 20
-99.9896
 30
0.0
 10
-156.7356
 20
-100.027
 30
0.0
 10
-156.7356
 20
-100.027
 30
0.0
  0
SPLINE
  5
C8
330
1F
100
AcDbEntity
  8
layer 1
 62
     7
100
AcDbSpline
210
0.0
220
0.0
230
1.0
 70
    11
 71
     3
 72
    24
 73
    20
 74
     0
 42
0.0000000001
 43
0.0000000001
 12
1.0
 22
0.0
 32
0.0
 13
1.0
 23
0.0
 33
0.0
 40
0.0
 40
0.0
 40
0.0
 40
0.0
 40
0.1666666666666667
 40
0.1666666666666667
 40
0.1666666666666667
 40
0.1666666666666667
 40
0.3333333333333333
 40
0.3333333333333333
 40
0.3333333333333333
 40
0.3333333333333333
 40
0.5
 40
0.5
 40
0.5
 40
0.5
 40
0.6666666666666666
 40
0.6666666666666666
 40
0.6666666666666666
 40
0.6666666666666666
 40
1.0
 40
1.0
 40
1.0
 40
1.0
 10
-139.8933
 20
-92.3701
 30
0.0
 10
-135.3882
 20
-92.3629
 30
0.0
 10
-128.7953
 20
-94.2527
 30
0.0
 10
-124.6768
 20
-96.8732
 30
0.0
 10
-124.6768
 20
-96.8732
 30
0.0
 10
-124.6763
 20
-98.2446
 30
0.0
 10
-124.6765
 20
-99.0929
 30
0.0
 10
-124.6755
 20
-99.9114
 30
0.0
 10
-124.6755
 20
-99.9114
 30
0.0
 10
-124.6755
 20
-99.9114
 30
0.0
 10
-139.7633
 20
-100.0286
 30
0.0
 10
-139.7633
 20
-100.0286
 30
0.0
 10
-139.7633
 20
-100.0286
 30
0.0
 10
-139.7728
 20
-97.154
 30
0.0
 10
-139.8337
 20
-94.2874
 30
0.0
 10
-139.8935
 20
-92.3703
 30
0.0
 10
-139.8935
 20
-92.3703
 30
0.0
 10
-139.8935
 20
-92.3703
 30
0.0
 10
-139.8933
 20
-92.3701
 30
0.0
 10
-139.8933
 20
-92.3701
 30
0.0
  0
SPLINE
  5
C9
330
1F
100
AcDbEntity
  8
layer 1
 62
     7
100
AcDbSpline
210
0.0
220
0.0
230
1.0
 70
    11
 71
     3
 72
    24
 73
    20
 74
     0
 42
0.0000000001
 43
0.0000000001
 12
1.0
 22
0.0
 32
0.0
 13
1.0
 23
0.0
 33
0.0
 40
0.0
 40
0.0
 40
0.0
 40
0.0
 40
0.1666666666666667
 40
0.1666666666666667
 40
0.1666666666666667
 40
0.1666666666666667
 40
0.3333333333333333
 40
0.3333333333333333
 40
0.3333333333333333
 40
0.3333333333333333
 40
0.5
 40
0.5
 40
0.5
 40
0.5
 40
0.6666666666666666
 40
0.6666666666666666
 40
0.6666666666666666
 40
0.6666666666666666
 40
1.0
 40
1.0
 40
1.0
 40
1.0
 10
-143.7032
 20
-92.478
 30
0.0
 10
-146.7526
 20
-92.6326
 30
0.0
 10
-150.919
 20
-93.1205
 30
0.0
 10
-153.1503
 20
-94.0693
 30
0.0
 10
-153.1503
 20
-94.0693
 30
0.0
 10
-153.0395
 20
-95.6664
 30
0.0
 10
-152.9855
 20
-97.9165
 30
0.0
 10
-153.0119
 20
-100.0286
 30
0.0
 10
-153.0119
 20
-100.0286
 30
0.0
 10
-153.0119
 20
-100.0286
 30
0.0
 10
-143.3673
 20
-100.0269
 30
0.0
 10
-143.3673
 20
-100.0269
 30
0.0
 10
-143.3673
 20
-100.0269
 30
0.0
 10
-143.2846
 20
-97.5046
 30
0.0
 10
-143.3518
 20
-94.9361
 30
0.0
 10
-143.7031
 20
-92.478
 30
0.0
 10
-143.7031
 20
-92.478
 30
0.0
 10
-143.7031
 20
-92.478
 30
0.0
 10
-143.7032
 20
-92.478
 30
0.0
 10
-143.7032
 20
-92.478
 30
0.0
  0
SPLINE
  5
CA
330
1F
100
AcDbEntity
  8
layer 1
 62
     7
100
AcDbSpline
210
0.0
220
0.0
230
1.0
 70
    11
 71
     3
 72
    24
 73
    20
 74
     0
 42
0.0000000001
 43
0.0000000001
 12
1.0
 22
0.0
 32
0.0
 13
1.0
 23
0.0
 33
0.0
 40
0.0
 40
0.0
 40
0.0
 40
0.0
 40
0.1666666666666667
 40
0.1666666666666667
 40
0.1666666666666667
 40
0.1666666666666667
 40
0.3333333333333333
 40
0.3333333333333333
 40
0.3333333333333333
 40
0.3333333333333333
 40
0.5
 40
0.5
 40
0.5
 40
0.5
 40
0.6666666666666666
 40
0.6666666666666666
 40
0.6666666666666666
 40
0.6666666666666666
 40
1.0
 40
1.0
 40
1.0
 40
1.0
 10
-120.95
 20
-100.0222
 30
0.0
 10
-120.95
 20
-100.0222
 30
0.0
 10
-120.95
 20
-96.6938
 30
0.0
 10
-120.95
 20
-96.6938
 30
0.0
 10
-120.95
 20
-96.6938
 30
0.0
 10
-120.95
 20
-96.6938
 30
0.0
 10
-116.0248
 20
-93.8457
 30
0.0
 10
-116.0248
 20
-93.8457
 30
0.0
 10
-116.0248
 20
-93.8457
 30
0.0
 10
-116.0248
 20
-93.8457
 30
0.0
 10
-111.0996
 20
-96.6938
 30
0.0
 10
-111.0996
 20
-96.6938
 30
0.0
 10
-111.0996
 20
-96.6938
 30
0.0
 10
-111.0996
 20
-96.6938
 30
0.0
 10
-111.0996
 20
-99.987
 30
0.0
 10
-111.0996
 20
-99.987
 30
0.0
 10
-111.0996
 20
-99.987
 30
0.0
 10
-111.0996
 20
-99.987
 30
0.0
 10
-120.95
 20
-100.0222
 30
0.0
 10
-120.95
 20
-100.0222
 30
0.0
  0
SPLINE
  5
CB
330
1F
100
AcDbEntity
  8
layer 1
 62
     7
100
AcDbSpline
210
0.0
220
0.0
230
1.0
 70
    11
 71
     3
 72
    16
 73
    12
 74
     0
 42
0.0000000001
 43
0.0000000001
 12
1.0
 22
0.0
 32
0.0
 13
1.0
 23
0.0
 33
0.0
 40
0.0
 40
0.0
 40
0.0
 40
0.0
 40
0.25
 40
0.25
 40
0.25
 40
0.25
 40
0.5
 40
0.5
 40
0.5
 40
0.5
 40
1.0
 40
1.0
 40
1.0
 40
1.0
 10
-75.4418
 20
125.1669
 30
0.0
 10
-75.4145
 20
123.7163
 30
0.0
 10
-75.2364
 20
122.2291
 30
0.0
 10
-74.8658
 20
120.8553
 30
0.0
 10
-74.8658
 20
120.8553
 30
0.0
 10
-72.6955
 20
121.8973
 30
0.0
 10
-69.8455
 20
123.7434
 30
0.0
 10
-67.8946
 20
125.1295
 30
0.0
 10
-67.8946
 20
125.1295
 30
0.0
 10
-67.8946
 20
125.1295
 30
0.0
 10
-75.4418
 20
125.1669
 30
0.0
 10
-75.4418
 20
125.1669
 30
0.0
  0
SPLINE
  5
CC
330
1F
100
AcDbEntity
  8
layer 1
 62
     7
100
AcDbSpline
210
0.0
220
0.0
230
1.0
 70
    11
 71
     3
 72
    24
 73
    20
 74
     0
 42
0.0000000001
 43
0.0000000001
 12
1.0
 22
0.0
 32
0.0
 13
1.0
 23
0.0
 33
0.0
 40
0.0
 40
0.0
 40
0.0
 40
0.0
 40
0.1666666666666667
 40
0.1666666666666667
 40
0.1666666666666667
 40
0.1666666666666667
 40
0.3333333333333333
 40
0.3333333333333333
 40
0.3333333333333333
 40
0.3333333333333333
 40
0.5
 40
0.5
 40
0.5
 40
0.5
 40
0.6666666666666666
 40
0.6666666666666666
 40
0.6666666666666666
 40
0.6666666666666666
 40
1.0
 40
1.0
 40
1.0
 40
1.0
 10
-92.2841
 20
117.51
 30
0.0
 10
-96.7892
 20
117.5028
 30
0.0
 10
-103.3821
 20
119.3926
 30
0.0
 10
-107.5006
 20
122.0131
 30
0.0
 10
-107.5006
 20
122.0131
 30
0.0
 10
-107.5011
 20
123.3845
 30
0.0
 10
-107.501
 20
124.2328
 30
0.0
 10
-107.5019
 20
125.0513
 30
0.0
 10
-107.5019
 20
125.0513
 30
0.0
 10
-107.5019
 20
125.0513
 30
0.0
 10
-92.4141
 20
125.1685
 30
0.0
 10
-92.4141
 20
125.1685
 30
0.0
 10
-92.4141
 20
125.1685
 30
0.0
 10
-92.4047
 20
122.2939
 30
0.0
 10
-92.3437
 20
119.4273
 30
0.0
 10
-92.2839
 20
117.5102
 30
0.0
 10
-92.2839
 20
117.5102
 30
0.0
 10
-92.2839
 20
117.5102
 30
0.0
 10
-92.2841
 20
117.51
 30
0.0
 10
-92.2841
 20
117.51
 30
0.0
  0
SPLINE
  5
CD
330
1F
100
AcDbEntity
  8
layer 1
 62
     7
100
AcDbSpline
210
0.0
220
0.0
230
1.0
 70
    11
 71
     3
 72
    24
 73
    20
 74
     0
 42
0.0000000001
 43
0.0000000001
 12
1.0
 22
0.0
 32
0.0
 13
1.0
 23
0.0
 33
0.0
 40
0.0
 40
0.0
 40
0.0
 40
0.0
 40
0.1666666666666667
 40
0.1666666666666667
 40
0.1666666666666667
 40
0.1666666666666667
 40
0.3333333333333333
 40
0.3333333333333333
 40
0.3333333333333333
 40
0.3333333333333333
 40
0.5
 40
0.5
 40
0.5
 40
0.5
 40
0.6666666666666666
 40
0.6666666666666666
 40
0.6666666666666666
 40
0.6666666666666666
 40
1.0
 40
1.0
 40
1.0
 40
1.0
 10
-88.4742
 20
117.6179
 30
0.0
 10
-85.4248
 20
117.7725
 30
0.0
 10
-81.2584
 20
118.2604
 30
0.0
 10
-79.0271
 20
119.2092
 30
0.0
 10
-79.0271
 20
119.2092
 30
0.0
 10
-79.1379
 20
120.8063
 30
0.0
 10
-79.1919
 20
123.0564
 30
0.0
 10
-79.1655
 20
125.1685
 30
0.0
 10
-79.1655
 20
125.1685
 30
0.0
 10
-79.1655
 20
125.1685
 30
0.0
 10
-88.8102
 20
125.1668
 30
0.0
 10
-88.8102
 20
125.1668
 30
0.0
 10
-88.8102
 20
125.1668
 30
0.0
 10
-88.8928
 20
122.6445
 30
0.0
 10
-88.8256
 20
120.076
 30
0.0
 10
-88.4744
 20
117.6179
 30
0.0
 10
-88.4744
 20
117.6179
 30
0.0
 10
-88.4744
 20
117.6179
 30
0.0
 10
-88.4742
 20
117.6179
 30
0.0
 10
-88.4742
 20
117.6179
 30
0.0
  0
SPLINE
  5
CE
330
1F
100
AcDbEntity
  8
layer 1
 62
     7
100
AcDbSpline
210
0.0
220
0.0
230
1.0
 70
    11
 71
     3
 72
    16
 73
    12
 74
     0
 42
0.0000000001
 43
0.0000000001
 12
1.0
 22
0.0
 32
0.0
 13
1.0
 23
0.0
 33
0.0
 40
0.0
 40
0.0
 40
0.0
 40
0.0
 40
0.25
 40
0.25
 40
0.25
 40
0.25
 40
0.5
 40
0.5
 40
0.5
 40
0.5
 40
1.0
 40
1.0
 40
1.0
 40
1.0
 10
-156.7356
 20
125.1669
 30
0.0
 10
-156.7629
 20
123.7163
 30
0.0
 10
-156.9411
 20
122.2291
 30
0.0
 10
-157.3116
 20
120.8553
 30
0.0
 10
-157.3116
 20
120.8553
 30
0.0
 10
-159.4819
 20
121.8973
 30
0.0
 10
-162.332
 20
123.7434
 30
0.0
 10
-164.2829
 20
125.1295
 30
0.0
 10
-164.2829
 20
125.1295
 30
0.0
 10
-164.2829
 20
125.1295
 30
0.0
 10
-156.7356
 20
125.1669
 30
0.0
 10
-156.7356
 20
125.1669
 30
0.0
  0
SPLINE
  5
CF
330
1F
100
AcDbEntity
  8
layer 1
 62
     7
100
AcDbSpline
210
0.0
220
0.0
230
1.0
 70
    11
 71
     3
 72
    24
 73
    20
 74
     0
 42
0.0000000001
 43
0.0000000001
 12
1.0
 22
0.0
 32
0.0
 13
1.0
 23
0.0
 33
0.0
 40
0.0
 40
0.0
 40
0.0
 40
0.0
 40
0.1666666666666667
 40
0.1666666666666667
 40
0.1666666666666667
 40
0.1666666666666667
 40
0.3333333333333333
 40
0.3333333333333333
 40
0.3333333333333333
 40
0.3333333333333333
 40
0.5
 40
0.5
 40
0.5
 40
0.5
 40
0.6666666666666666
 40
0.6666666666666666
 40
0.6666666666666666
 40
0.6666666666666666
 40
1.0
 40
1.0
 40
1.0
 40
1.0
 10
-139.8933
 20
117.51
 30
0.0
 10
-135.3882
 20
117.5028
 30
0.0
 10
-128.7953
 20
119.3926
 30
0.0
 10
-124.6768
 20
122.0131
 30
0.0
 10
-124.6768
 20
122.0131
 30
0.0
 10
-124.6763
 20
123.3845
 30
0.0
 10
-124.6765
 20
124.2328
 30
0.0
 10
-124.6755
 20
125.0513
 30
0.0
 10
-124.6755
 20
125.0513
 30
0.0
 10
-124.6755
 20
125.0513
 30
0.0
 10
-139.7633
 20
125.1685
 30
0.0
 10
-139.7633
 20
125.1685
 30
0.0
 10
-139.7633
 20
125.1685
 30
0.0
 10
-139.7728
 20
122.2939
 30
0.0
 10
-139.8337
 20
119.4273
 30
0.0
 10
-139.8935
 20
117.5102
 30
0.0
 10
-139.8935
 20
117.5102
 30
0.0
 10
-139.8935
 20
117.5102
 30
0.0
 10
-139.8933
 20
117.51
 30
0.0
 10
-139.8933
 20
117.51
 30
0.0
  0
SPLINE
  5
D0
330
1F
100
AcDbEntity
  8
layer 1
 62
     7
100
AcDbSpline
210
0.0
220
0.0
230
1.0
 70
    11
 71
     3
 72
    24
 73
    20
 74
     0
 42
0.0000000001
 43
0.0000000001
 12
1.0
 22
0.0
 32
0.0
 13
1.0
 23
0.0
 33
0.0
 40
0.0
 40
0.0
 40
0.0
 40
0.0
 40
0.1666666666666667
 40
0.1666666666666667
 40
0.1666666666666667
 40
0.1666666666666667
 40
0.3333333333333333
 40
0.3333333333333333
 40
0.3333333333333333
 40
0.3333333333333333
 40
0.5
 40
0.5
 40
0.5
 40
0.5
 40
0.6666666666666666
 40
0.6666666666666666
 40
0.6666666666666666
 40
0.6666666666666666
 40
1.0
 40
1.0
 40
1.0
 40
1.0
 10
-143.7032
 20
117.6179
 30
0.0
 10
-146.7526
 20
117.7725
 30
0.0
 10
-150.919
 20
118.2604
 30
0.0
 10
-153.1503
 20
119.2092
 30
0.0
 10
-153.1503
 20
119.2092
 30
0.0
 10
-153.0395
 20
120.8063
 30
0.0
 10
-152.9855
 20
123.0564
 30
0.0
 10
-153.0119
 20
125.1685
 30
0.0
 10
-153.0119
 20
125.1685
 30
0.0
 10
-153.0119
 20
125.1685
 30
0.0
 10
-143.3673
 20
125.1668
 30
0.0
 10
-143.3673
 20
125.1668
 30
0.0
 10
-143.3673
 20
125.1668
 30
0.0
 10
-143.2846
 20
122.6445
 30
0.0
 10
-143.3518
 20
120.076
 30
0.0
 10
-143.7031
 20
117.6179
 30
0.0
 10
-143.7031
 20
117.6179
 30
0.0
 10
-143.7031
 20
117.6179
 30
0.0
 10
-143.7032
 20
117.6179
 30
0.0
 10
-143.7032
 20
117.6179
 30
0.0
  0
SPLINE
  5
D1
330
1F
100
AcDbEntity
  8
layer 1
 62
     7
100
AcDbSpline
210
0.0
220
0.0
230
1.0
 70
    11
 71
     3
 72
    24
 73
    20
 74
     0
 42
0.0000000001
 43
0.0000000001
 12
1.0
 22
0.0
 32
0.0
 13
1.0
 23
0.0
 33
0.0
 40
0.0
 40
0.0
 40
0.0
 40
0.0
 40
0.1666666666666667
 40
0.1666666666666667
 40
0.1666666666666667
 40
0.1666666666666667
 40
0.3333333333333333
 40
0.3333333333333333
 40
0.3333333333333333
 40
0.3333333333333333
 40
0.5
 40
0.5
 40
0.5
 40
0.5
 40
0.6666666666666666
 40
0.6666666666666666
 40
0.6666666666666666
 40
0.6666666666666666
 40
1.0
 40
1.0
 40
1.0
 40
1.0
 10
-120.95
 20
125.1621
 30
0.0
 10
-120.95
 20
125.1621
 30
0.0
 10
-120.95
 20
121.8337
 30
0.0
 10
-120.95
 20
121.8337
 30
0.0
 10
-120.95
 20
121.8337
 30
0.0
 10
-120.95
 20
121.8337
 30
0.0
 10
-116.0248
 20
118.9856
 30
0.0
 10
-116.0248
 20
118.9856
 30
0.0
 10
-116.0248
 20
118.9856
 30
0.0
 10
-116.0248
 20
118.9856
 30
0.0
 10
-111.0996
 20
121.8337
 30
0.0
 10
-111.0996
 20
121.8337
 30
0.0
 10
-111.0996
 20
121.8337
 30
0.0
 10
-111.0996
 20
121.8337
 30
0.0
 10
-111.0996
 20
125.1269
 30
0.0
 10
-111.0996
 20
125.1269
 30
0.0
 10
-111.0996
 20
125.1269
 30
0.0
 10
-111.0996
 20
125.1269
 30
0.0
 10
-120.95
 20
125.1621
 30
0.0
 10
-120.95
 20
125.1621
 30
0.0
  0
SPLINE
  5
D2
330
1F
100
AcDbEntity
  8
layer 1
 62
     7
100
AcDbSpline
210
0.0
220
0.0
230
1.0
 70
    11
 71
     3
 72
    20
 73
    16
 74
     0
 42
0.0000000001
 43
0.0000000001
 12
1.0
 22
0.0
 32
0.0
 13
1.0
 23
0.0
 33
0.0
 40
0.0
 40
0.0
 40
0.0
 40
0.0
 40
0.2
 40
0.2
 40
0.2
 40
0.2
 40
0.4
 40
0.4
 40
0.4
 40
0.4
 40
0.6
 40
0.6
 40
0.6
 40
0.6
 40
1.0
 40
1.0
 40
1.0
 40
1.0
 10
-52.0937
 20
82.0183
 30
0.0
 10
-52.0937
 20
82.0183
 30
0.0
 10
-56.4437
 20
84.5452
 30
0.0
 10
-56.4437
 20
84.5452
 30
0.0
 10
-56.4437
 20
84.5452
 30
0.0
 10
-56.4437
 20
84.5452
 30
0.0
 10
-56.4437
 20
90.2414
 30
0.0
 10
-56.4437
 20
90.2414
 30
0.0
 10
-56.4437
 20
90.2414
 30
0.0
 10
-56.4437
 20
90.2414
 30
0.0
 10
-52.0927
 20
92.7573
 30
0.0
 10
-52.0927
 20
92.7573
 30
0.0
 10
-52.0927
 20
92.7573
 30
0.0
 10
-52.0927
 20
92.7573
 30
0.0
 10
-52.0937
 20
82.0183
 30
0.0
 10
-52.0937
 20
82.0183
 30
0.0
  0
SPLINE
  5
D3
330
1F
100
AcDbEntity
  8
layer 1
 62
     7
100
AcDbSpline
210
0.0
220
0.0
230
1.0
 70
    11
 71
     3
 72
    20
 73
    16
 74
     0
 42
0.0000000001
 43
0.0000000001
 12
1.0
 22
0.0
 32
0.0
 13
1.0
 23
0.0
 33
0.0
 40
0.0
 40
0.0
 40
0.0
 40
0.0
 40
0.2
 40
0.2
 40
0.2
 40
0.2
 40
0.4
 40
0.4
 40
0.4
 40
0.4
 40
0.6
 40
0.6
 40
0.6
 40
0.6
 40
1.0
 40
1.0
 40
1.0
 40
1.0
 10
-52.0937
 20
7.3097
 30
0.0
 10
-52.0937
 20
7.3097
 30
0.0
 10
-56.4437
 20
9.8366
 30
0.0
 10
-56.4437
 20
9.8366
 30
0.0
 10
-56.4437
 20
9.8366
 30
0.0
 10
-56.4437
 20
9.8366
 30
0.0
 10
-56.4437
 20
15.5327
 30
0.0
 10
-56.4437
 20
15.5327
 30
0.0
 10
-56.4437
 20
15.5327
 30
0.0
 10
-56.4437
 20
15.5327
 30
0.0
 10
-52.0927
 20
18.0487
 30
0.0
 10
-52.0927
 20
18.0487
 30
0.0
 10
-52.0927
 20
18.0487
 30
0.0
 10
-52.0927
 20
18.0487
 30
0.0
 10
-52.0937
 20
7.3097
 30
0.0
 10
-52.0937
 20
7.3097
 30
0.0
  0
SPLINE
  5
D4
330
1F
100
AcDbEntity
  8
layer 1
 62
     7
100
AcDbSpline
210
0.0
220
0.0
230
1.0
 70
    11
 71
     3
 72
    20
 73
    16
 74
     0
 42
0.0000000001
 43
0.0000000001
 12
1.0
 22
0.0
 32
0.0
 13
1.0
 23
0.0
 33
0.0
 40
0.0
 40
0.0
 40
0.0
 40
0.0
 40
0.2
 40
0.2
 40
0.2
 40
0.2
 40
0.4
 40
0.4
 40
0.4
 40
0.4
 40
0.6
 40
0.6
 40
0.6
 40
0.6
 40
1.0
 40
1.0
 40
1.0
 40
1.0
 10
-52.0937
 20
-67.6179
 30
0.0
 10
-52.0937
 20
-67.6179
 30
0.0
 10
-56.4437
 20
-65.091
 30
0.0
 10
-56.4437
 20
-65.091
 30
0.0
 10
-56.4437
 20
-65.091
 30
0.0
 10
-56.4437
 20
-65.091
 30
0.0
 10
-56.4437
 20
-59.3948
 30
0.0
 10
-56.4437
 20
-59.3948
 30
0.0
 10
-56.4437
 20
-59.3948
 30
0.0
 10
-56.4437
 20
-59.3948
 30
0.0
 10
-52.0927
 20
-56.8789
 30
0.0
 10
-52.0927
 20
-56.8789
 30
0.0
 10
-52.0927
 20
-56.8789
 30
0.0
 10
-52.0927
 20
-56.8789
 30
0.0
 10
-52.0937
 20
-67.6179
 30
0.0
 10
-52.0937
 20
-67.6179
 30
0.0
  0
SPLINE
  5
D5
330
1F
100
AcDbEntity
  8
layer 1
 62
     7
100
AcDbSpline
210
0.0
220
0.0
230
1.0
 70
    11
 71
     3
 72
    20
 73
    16
 74
     0
 42
0.0000000001
 43
0.0000000001
 12
1.0
 22
0.0
 32
0.0
 13
1.0
 23
0.0
 33
0.0
 40
0.0
 40
0.0
 40
0.0
 40
0.0
 40
0.2
 40
0.2
 40
0.2
 40
0.2
 40
0.4
 40
0.4
 40
0.4
 40
0.4
 40
0.6
 40
0.6
 40
0.6
 40
0.6
 40
1.0
 40
1.0
 40
1.0
 40
1.0
 10
-180.0076
 20
-67.6179
 30
0.0
 10
-180.0076
 20
-67.6179
 30
0.0
 10
-175.6576
 20
-65.091
 30
0.0
 10
-175.6576
 20
-65.091
 30
0.0
 10
-175.6576
 20
-65.091
 30
0.0
 10
-175.6576
 20
-65.091
 30
0.0
 10
-175.6576
 20
-59.3948
 30
0.0
 10
-175.6576
 20
-59.3948
 30
0.0
 10
-175.6576
 20
-59.3948
 30
0.0
 10
-175.6576
 20
-59.3948
 30
0.0
 10
-180.0085
 20
-56.8789
 30
0.0
 10
-180.0085
 20
-56.8789
 30
0.0
 10
-180.0085
 20
-56.8789
 30
0.0
 10
-180.0085
 20
-56.8789
 30
0.0
 10
-180.0076
 20
-67.6179
 30
0.0
 10
-180.0076
 20
-67.6179
 30
0.0
  0
SPLINE
  5
D6
330
1F
100
AcDbEntity
  8
layer 1
 62
     7
100
AcDbSpline
210
0.0
220
0.0
230
1.0
 70
    11
 71
     3
 72
    20
 73
    16
 74
     0
 42
0.0000000001
 43
0.0000000001
 12
1.0
 22
0.0
 32
0.0
 13
1.0
 23
0.0
 33
0.0
 40
0.0
 40
0.0
 40
0.0
 40
0.0
 40
0.2
 40
0.2
 40
0.2
 40
0.2
 40
0.4
 40
0.4
 40
0.4
 40
0.4
 40
0.6
 40
0.6
 40
0.6
 40
0.6
 40
1.0
 40
1.0
 40
1.0
 40
1.0
 10
-180.0076
 20
6.6523
 30
0.0
 10
-180.0076
 20
6.6523
 30
0.0
 10
-175.6576
 20
9.1792
 30
0.0
 10
-175.6576
 20
9.1792
 30
0.0
 10
-175.6576
 20
9.1792
 30
0.0
 10
-175.6576
 20
9.1792
 30
0.0
 10
-175.6576
 20
14.8754
 30
0.0
 10
-175.6576
 20
14.8754
 30
0.0
 10
-175.6576
 20
14.8754
 30
0.0
 10
-175.6576
 20
14.8754
 30
0.0
 10
-180.0085
 20
17.3914
 30
0.0
 10
-180.0085
 20
17.3914
 30
0.0
 10
-180.0085
 20
17.3914
 30
0.0
 10
-180.0085
 20
17.3914
 30
0.0
 10
-180.0076
 20
6.6523
 30
0.0
 10
-180.0076
 20
6.6523
 30
0.0
  0
SPLINE
  5
D7
330
1F
100
AcDbEntity
  8
layer 1
 62
     7
100
AcDbSpline
210
0.0
220
0.0
230
1.0
 70
    11
 71
     3
 72
    20
 73
    16
 74
     0
 42
0.0000000001
 43
0.0000000001
 12
1.0
 22
0.0
 32
0.0
 13
1.0
 23
0.0
 33
0.0
 40
0.0
 40
0.0
 40
0.0
 40
0.0
 40
0.2
 40
0.2
 40
0.2
 40
0.2
 40
0.4
 40
0.4
 40
0.4
 40
0.4
 40
0.6
 40
0.6
 40
0.6
 40
0.6
 40
1.0
 40
1.0
 40
1.0
 40
1.0
 10
-180.0076
 20
82.2372
 30
0.0
 10
-180.0076
 20
82.2372
 30
0.0
 10
-175.6576
 20
84.7641
 30
0.0
 10
-175.6576
 20
84.7641
 30
0.0
 10
-175.6576
 20
84.7641
 30
0.0
 10
-175.6576
 20
84.7641
 30
0.0
 10
-175.6576
 20
90.4603
 30
0.0
 10
-175.6576
 20
90.4603
 30
0.0
 10
-175.6576
 20
90.4603
 30
0.0
 10
-175.6576
 20
90.4603
 30
0.0
 10
-180.0085
 20
92.9763
 30
0.0
 10
-180.0085
 20
92.9763
 30
0.0
 10
-180.0085
 20
92.9763
 30
0.0
 10
-180.0085
 20
92.9763
 30
0.0
 10
-180.0076
 20
82.2372
 30
0.0
 10
-180.0076
 20
82.2372
 30
0.0
  0
SPLINE
  5
D8
330
1F
100
AcDbEntity
  8
layer 1
 62
     7
100
AcDbSpline
210
0.0
220
0.0
230
1.0
 70
    11
 71
     3
 72
    28
 73
    24
 74
     0
 42
0.0000000001
 43
0.0000000001
 12
1.0
 22
0.0
 32
0.0
 13
1.0
 23
0.0
 33
0.0
 40
0.0
 40
0.0
 40
0.0
 40
0.0
 40
0.1428571428571428
 40
0.1428571428571428
 40
0.1428571428571428
 40
0.1428571428571428
 40
0.2857142857142857
 40
0.2857142857142857
 40
0.2857142857142857
 40
0.2857142857142857
 40
0.4285714285714285
 40
0.4285714285714285
 40
0.4285714285714285
 40
0.4285714285714285
 40
0.5714285714285714
 40
0.5714285714285714
 40
0.5714285714285714
 40
0.5714285714285714
 40
0.7142857142857143
 40
0.7142857142857143
 40
0.7142857142857143
 40
0.7142857142857143
 40
1.0
 40
1.0
 40
1.0
 40
1.0
 10
-62.2316
 20
50.0395
 30
0.0
 10
-60.0263
 20
48.2754
 30
0.0
 10
-57.6045
 20
45.3317
 30
0.0
 10
-56.0879
 20
42.6958
 30
0.0
 10
-56.0879
 20
42.6958
 30
0.0
 10
-54.6894
 20
44.1369
 30
0.0
 10
-53.6355
 20
45.0661
 30
0.0
 10
-52.0938
 20
46.5246
 30
0.0
 10
-52.0938
 20
46.5246
 30
0.0
 10
-52.0938
 20
46.5246
 30
0.0
 10
-52.0938
 20
53.7263
 30
0.0
 10
-52.0938
 20
53.7263
 30
0.0
 10
-52.0938
 20
53.7263
 30
0.0
 10
-53.3943
 20
54.7215
 30
0.0
 10
-54.6878
 20
56.0929
 30
0.0
 10
-56.0482
 20
57.3455
 30
0.0
 10
-56.0482
 20
57.3455
 30
0.0
 10
-57.2999
 20
55.2298
 30
0.0
 10
-59.0868
 20
52.9043
 30
0.0
 10
-62.2316
 20
50.0394
 30
0.0
 10
-62.2316
 20
50.0394
 30
0.0
 10
-62.2316
 20
50.0394
 30
0.0
 10
-62.2316
 20
50.0395
 30
0.0
 10
-62.2316
 20
50.0395
 30
0.0
  0
SPLINE
  5
D9
330
1F
100
AcDbEntity
  8
layer 1
 62
     7
100
AcDbSpline
210
0.0
220
0.0
230
1.0
 70
    11
 71
     3
 72
    16
 73
    12
 74
     0
 42
0.0000000001
 43
0.0000000001
 12
1.0
 22
0.0
 32
0.0
 13
1.0
 23
0.0
 33
0.0
 40
0.0
 40
0.0
 40
0.0
 40
0.0
 40
0.25
 40
0.25
 40
0.25
 40
0.25
 40
0.5
 40
0.5
 40
0.5
 40
0.5
 40
1.0
 40
1.0
 40
1.0
 40
1.0
 10
-54.3208
 20
60.972
 30
0.0
 10
-53.7129
 20
60.4813
 30
0.0
 10
-53.0661
 20
59.8329
 30
0.0
 10
-52.0938
 20
59.1051
 30
0.0
 10
-52.0938
 20
59.1051
 30
0.0
 10
-52.0938
 20
59.1051
 30
0.0
 10
-52.0938
 20
64.3292
 30
0.0
 10
-52.0938
 20
64.3292
 30
0.0
 10
-52.0938
 20
64.3292
 30
0.0
 10
-52.6733
 20
62.9629
 30
0.0
 10
-53.4771
 20
61.7876
 30
0.0
 10
-54.3208
 20
60.972
 30
0.0
  0
SPLINE
  5
DA
330
1F
100
AcDbEntity
  8
layer 1
 62
     7
100
AcDbSpline
210
0.0
220
0.0
230
1.0
 70
    11
 71
     3
 72
    16
 73
    12
 74
     0
 42
0.0000000001
 43
0.0000000001
 12
1.0
 22
0.0
 32
0.0
 13
1.0
 23
0.0
 33
0.0
 40
0.0
 40
0.0
 40
0.0
 40
0.0
 40
0.25
 40
0.25
 40
0.25
 40
0.25
 40
0.5
 40
0.5
 40
0.5
 40
0.5
 40
1.0
 40
1.0
 40
1.0
 40
1.0
 10
-54.3208
 20
39.0593
 30
0.0
 10
-53.7129
 20
39.55
 30
0.0
 10
-53.0661
 20
40.1984
 30
0.0
 10
-52.0938
 20
40.9262
 30
0.0
 10
-52.0938
 20
40.9262
 30
0.0
 10
-52.0938
 20
40.9262
 30
0.0
 10
-52.0938
 20
35.7021
 30
0.0
 10
-52.0938
 20
35.7021
 30
0.0
 10
-52.0938
 20
35.7021
 30
0.0
 10
-52.6733
 20
37.0684
 30
0.0
 10
-53.4771
 20
38.2437
 30
0.0
 10
-54.3208
 20
39.0593
 30
0.0
  0
SPLINE
  5
DB
330
1F
100
AcDbEntity
  8
layer 1
 62
     7
100
AcDbSpline
210
0.0
220
0.0
230
1.0
 70
    11
 71
     3
 72
    28
 73
    24
 74
     0
 42
0.0000000001
 43
0.0000000001
 12
1.0
 22
0.0
 32
0.0
 13
1.0
 23
0.0
 33
0.0
 40
0.0
 40
0.0
 40
0.0
 40
0.0
 40
0.1428571428571428
 40
0.1428571428571428
 40
0.1428571428571428
 40
0.1428571428571428
 40
0.2857142857142857
 40
0.2857142857142857
 40
0.2857142857142857
 40
0.2857142857142857
 40
0.4285714285714285
 40
0.4285714285714285
 40
0.4285714285714285
 40
0.4285714285714285
 40
0.5714285714285714
 40
0.5714285714285714
 40
0.5714285714285714
 40
0.5714285714285714
 40
0.7142857142857143
 40
0.7142857142857143
 40
0.7142857142857143
 40
0.7142857142857143
 40
1.0
 40
1.0
 40
1.0
 40
1.0
 10
-62.2316
 20
-24.6749
 30
0.0
 10
-60.0263
 20
-26.439
 30
0.0
 10
-57.6045
 20
-29.3828
 30
0.0
 10
-56.0879
 20
-32.0186
 30
0.0
 10
-56.0879
 20
-32.0186
 30
0.0
 10
-54.6894
 20
-30.5775
 30
0.0
 10
-53.6355
 20
-29.6483
 30
0.0
 10
-52.0938
 20
-28.1898
 30
0.0
 10
-52.0938
 20
-28.1898
 30
0.0
 10
-52.0938
 20
-28.1898
 30
0.0
 10
-52.0938
 20
-20.9881
 30
0.0
 10
-52.0938
 20
-20.9881
 30
0.0
 10
-52.0938
 20
-20.9881
 30
0.0
 10
-53.3943
 20
-19.9929
 30
0.0
 10
-54.6878
 20
-18.6215
 30
0.0
 10
-56.0482
 20
-17.3689
 30
0.0
 10
-56.0482
 20
-17.3689
 30
0.0
 10
-57.2999
 20
-19.4846
 30
0.0
 10
-59.0868
 20
-21.8101
 30
0.0
 10
-62.2316
 20
-24.6751
 30
0.0
 10
-62.2316
 20
-24.6751
 30
0.0
 10
-62.2316
 20
-24.6751
 30
0.0
 10
-62.2316
 20
-24.6749
 30
0.0
 10
-62.2316
 20
-24.6749
 30
0.0
  0
SPLINE
  5
DC
330
1F
100
AcDbEntity
  8
layer 1
 62
     7
100
AcDbSpline
210
0.0
220
0.0
230
1.0
 70
    11
 71
     3
 72
    16
 73
    12
 74
     0
 42
0.0000000001
 43
0.0000000001
 12
1.0
 22
0.0
 32
0.0
 13
1.0
 23
0.0
 33
0.0
 40
0.0
 40
0.0
 40
0.0
 40
0.0
 40
0.25
 40
0.25
 40
0.25
 40
0.25
 40
0.5
 40
0.5
 40
0.5
 40
0.5
 40
1.0
 40
1.0
 40
1.0
 40
1.0
 10
-54.3208
 20
-13.7423
 30
0.0
 10
-53.7129
 20
-14.2329
 30
0.0
 10
-53.0661
 20
-14.8814
 30
0.0
 10
-52.0938
 20
-15.6091
 30
0.0
 10
-52.0938
 20
-15.6091
 30
0.0
 10
-52.0938
 20
-15.6091
 30
0.0
 10
-52.0938
 20
-10.3851
 30
0.0
 10
-52.0938
 20
-10.3851
 30
0.0
 10
-52.0938
 20
-10.3851
 30
0.0
 10
-52.6733
 20
-11.7513
 30
0.0
 10
-53.4771
 20
-12.9266
 30
0.0
 10
-54.3208
 20
-13.7423
 30
0.0
  0
SPLINE
  5
DD
330
1F
100
AcDbEntity
  8
layer 1
 62
     7
100
AcDbSpline
210
0.0
220
0.0
230
1.0
 70
    11
 71
     3
 72
    16
 73
    12
 74
     0
 42
0.0000000001
 43
0.0000000001
 12
1.0
 22
0.0
 32
0.0
 13
1.0
 23
0.0
 33
0.0
 40
0.0
 40
0.0
 40
0.0
 40
0.0
 40
0.25
 40
0.25
 40
0.25
 40
0.25
 40
0.5
 40
0.5
 40
0.5
 40
0.5
 40
1.0
 40
1.0
 40
1.0
 40
1.0
 10
-54.3208
 20
-35.6551
 30
0.0
 10
-53.7129
 20
-35.1645
 30
0.0
 10
-53.0661
 20
-34.516
 30
0.0
 10
-52.0938
 20
-33.7882
 30
0.0
 10
-52.0938
 20
-33.7882
 30
0.0
 10
-52.0938
 20
-33.7882
 30
0.0
 10
-52.0938
 20
-39.0123
 30
0.0
 10
-52.0938
 20
-39.0123
 30
0.0
 10
-52.0938
 20
-39.0123
 30
0.0
 10
-52.6733
 20
-37.646
 30
0.0
 10
-53.4771
 20
-36.4707
 30
0.0
 10
-54.3208
 20
-35.6551
 30
0.0
  0
SPLINE
  5
DE
330
1F
100
AcDbEntity
  8
layer 1
 62
     7
100
AcDbSpline
210
0.0
220
0.0
230
1.0
 70
    11
 71
     3
 72
    20
 73
    16
 74
     0
 42
0.0000000001
 43
0.0000000001
 12
1.0
 22
0.0
 32
0.0
 13
1.0
 23
0.0
 33
0.0
 40
0.0
 40
0.0
 40
0.0
 40
0.0
 40
0.2
 40
0.2
 40
0.2
 40
0.2
 40
0.4
 40
0.4
 40
0.4
 40
0.4
 40
0.6
 40
0.6
 40
0.6
 40
0.6
 40
1.0
 40
1.0
 40
1.0
 40
1.0
 10
-62.2316
 20
125.1935
 30
0.0
 10
-60.0263
 20
123.4293
 30
0.0
 10
-57.6045
 20
120.4856
 30
0.0
 10
-56.0879
 20
117.8497
 30
0.0
 10
-56.0879
 20
117.8497
 30
0.0
 10
-54.6894
 20
119.2909
 30
0.0
 10
-53.6355
 20
120.22
 30
0.0
 10
-52.0938
 20
121.6786
 30
0.0
 10
-52.0938
 20
121.6786
 30
0.0
 10
-52.0938
 20
121.6786
 30
0.0
 10
-52.0938
 20
125.2417
 30
0.0
 10
-52.0938
 20
125.2417
 30
0.0
 10
-52.0938
 20
125.2417
 30
0.0
 10
-52.0938
 20
125.2417
 30
0.0
 10
-62.2316
 20
125.1935
 30
0.0
 10
-62.2316
 20
125.1935
 30
0.0
  0
SPLINE
  5
DF
330
1F
100
AcDbEntity
  8
layer 1
 62
     7
100
AcDbSpline
210
0.0
220
0.0
230
1.0
 70
    11
 71
     3
 72
    16
 73
    12
 74
     0
 42
0.0000000001
 43
0.0000000001
 12
1.0
 22
0.0
 32
0.0
 13
1.0
 23
0.0
 33
0.0
 40
0.0
 40
0.0
 40
0.0
 40
0.0
 40
0.25
 40
0.25
 40
0.25
 40
0.25
 40
0.5
 40
0.5
 40
0.5
 40
0.5
 40
1.0
 40
1.0
 40
1.0
 40
1.0
 10
-54.3208
 20
114.2131
 30
0.0
 10
-53.7129
 20
114.7037
 30
0.0
 10
-53.0661
 20
115.3522
 30
0.0
 10
-52.0938
 20
116.0799
 30
0.0
 10
-52.0938
 20
116.0799
 30
0.0
 10
-52.0938
 20
116.0799
 30
0.0
 10
-52.0938
 20
110.8559
 30
0.0
 10
-52.0938
 20
110.8559
 30
0.0
 10
-52.0938
 20
110.8559
 30
0.0
 10
-52.6733
 20
112.2222
 30
0.0
 10
-53.4771
 20
113.3974
 30
0.0
 10
-54.3208
 20
114.2131
 30
0.0
  0
SPLINE
  5
E0
330
1F
100
AcDbEntity
  8
layer 1
 62
     7
100
AcDbSpline
210
0.0
220
0.0
230
1.0
 70
    11
 71
     3
 72
    28
 73
    24
 74
     0
 42
0.0000000001
 43
0.0000000001
 12
1.0
 22
0.0
 32
0.0
 13
1.0
 23
0.0
 33
0.0
 40
0.0
 40
0.0
 40
0.0
 40
0.0
 40
0.1428571428571428
 40
0.1428571428571428
 40
0.1428571428571428
 40
0.1428571428571428
 40
0.2857142857142857
 40
0.2857142857142857
 40
0.2857142857142857
 40
0.2857142857142857
 40
0.4285714285714285
 40
0.4285714285714285
 40
0.4285714285714285
 40
0.4285714285714285
 40
0.5714285714285714
 40
0.5714285714285714
 40
0.5714285714285714
 40
0.5714285714285714
 40
0.7142857142857143
 40
0.7142857142857143
 40
0.7142857142857143
 40
0.7142857142857143
 40
1.0
 40
1.0
 40
1.0
 40
1.0
 10
-62.2316
 20
-24.6749
 30
0.0
 10
-60.0263
 20
-26.439
 30
0.0
 10
-57.6045
 20
-29.3828
 30
0.0
 10
-56.0879
 20
-32.0186
 30
0.0
 10
-56.0879
 20
-32.0186
 30
0.0
 10
-54.6894
 20
-30.5775
 30
0.0
 10
-53.6355
 20
-29.6483
 30
0.0
 10
-52.0938
 20
-28.1898
 30
0.0
 10
-52.0938
 20
-28.1898
 30
0.0
 10
-52.0938
 20
-28.1898
 30
0.0
 10
-52.0938
 20
-20.9881
 30
0.0
 10
-52.0938
 20
-20.9881
 30
0.0
 10
-52.0938
 20
-20.9881
 30
0.0
 10
-53.3943
 20
-19.9929
 30
0.0
 10
-54.6878
 20
-18.6215
 30
0.0
 10
-56.0482
 20
-17.3689
 30
0.0
 10
-56.0482
 20
-17.3689
 30
0.0
 10
-57.2999
 20
-19.4846
 30
0.0
 10
-59.0868
 20
-21.8101
 30
0.0
 10
-62.2316
 20
-24.6751
 30
0.0
 10
-62.2316
 20
-24.6751
 30
0.0
 10
-62.2316
 20
-24.6751
 30
0.0
 10
-62.2316
 20
-24.6749
 30
0.0
 10
-62.2316
 20
-24.6749
 30
0.0
  0
SPLINE
  5
E1
330
1F
100
AcDbEntity
  8
layer 1
 62
     7
100
AcDbSpline
210
0.0
220
0.0
230
1.0
 70
    11
 71
     3
 72
    16
 73
    12
 74
     0
 42
0.0000000001
 43
0.0000000001
 12
1.0
 22
0.0
 32
0.0
 13
1.0
 23
0.0
 33
0.0
 40
0.0
 40
0.0
 40
0.0
 40
0.0
 40
0.25
 40
0.25
 40
0.25
 40
0.25
 40
0.5
 40
0.5
 40
0.5
 40
0.5
 40
1.0
 40
1.0
 40
1.0
 40
1.0
 10
-54.3208
 20
-13.7423
 30
0.0
 10
-53.7129
 20
-14.2329
 30
0.0
 10
-53.0661
 20
-14.8814
 30
0.0
 10
-52.0938
 20
-15.6091
 30
0.0
 10
-52.0938
 20
-15.6091
 30
0.0
 10
-52.0938
 20
-15.6091
 30
0.0
 10
-52.0938
 20
-10.3851
 30
0.0
 10
-52.0938
 20
-10.3851
 30
0.0
 10
-52.0938
 20
-10.3851
 30
0.0
 10
-52.6733
 20
-11.7513
 30
0.0
 10
-53.4771
 20
-12.9266
 30
0.0
 10
-54.3208
 20
-13.7423
 30
0.0
  0
SPLINE
  5
E2
330
1F
100
AcDbEntity
  8
layer 1
 62
     7
100
AcDbSpline
210
0.0
220
0.0
230
1.0
 70
    11
 71
     3
 72
    16
 73
    12
 74
     0
 42
0.0000000001
 43
0.0000000001
 12
1.0
 22
0.0
 32
0.0
 13
1.0
 23
0.0
 33
0.0
 40
0.0
 40
0.0
 40
0.0
 40
0.0
 40
0.25
 40
0.25
 40
0.25
 40
0.25
 40
0.5
 40
0.5
 40
0.5
 40
0.5
 40
1.0
 40
1.0
 40
1.0
 40
1.0
 10
-54.3208
 20
-35.6551
 30
0.0
 10
-53.7129
 20
-35.1645
 30
0.0
 10
-53.0661
 20
-34.516
 30
0.0
 10
-52.0938
 20
-33.7882
 30
0.0
 10
-52.0938
 20
-33.7882
 30
0.0
 10
-52.0938
 20
-33.7882
 30
0.0
 10
-52.0938
 20
-39.0123
 30
0.0
 10
-52.0938
 20
-39.0123
 30
0.0
 10
-52.0938
 20
-39.0123
 30
0.0
 10
-52.6733
 20
-37.646
 30
0.0
 10
-53.4771
 20
-36.4707
 30
0.0
 10
-54.3208
 20
-35.6551
 30
0.0
  0
SPLINE
  5
E3
330
1F
100
AcDbEntity
  8
layer 1
 62
     7
100
AcDbSpline
210
0.0
220
0.0
230
1.0
 70
    11
 71
     3
 72
    20
 73
    16
 74
     0
 42
0.0000000001
 43
0.0000000001
 12
1.0
 22
0.0
 32
0.0
 13
1.0
 23
0.0
 33
0.0
 40
0.0
 40
0.0
 40
0.0
 40
0.0
 40
0.2
 40
0.2
 40
0.2
 40
0.2
 40
0.4
 40
0.4
 40
0.4
 40
0.4
 40
0.6
 40
0.6
 40
0.6
 40
0.6
 40
1.0
 40
1.0
 40
1.0
 40
1.0
 10
-62.2316
 20
-99.9894
 30
0.0
 10
-62.2316
 20
-99.9894
 30
0.0
 10
-52.0938
 20
-100.0299
 30
0.0
 10
-52.0938
 20
-100.0299
 30
0.0
 10
-52.0938
 20
-100.0299
 30
0.0
 10
-52.0938
 20
-100.0299
 30
0.0
 10
-52.0938
 20
-96.3025
 30
0.0
 10
-52.0938
 20
-96.3025
 30
0.0
 10
-52.0938
 20
-96.3025
 30
0.0
 10
-53.3943
 20
-95.3073
 30
0.0
 10
-54.6878
 20
-93.9359
 30
0.0
 10
-56.0482
 20
-92.6833
 30
0.0
 10
-56.0482
 20
-92.6833
 30
0.0
 10
-57.2999
 20
-94.799
 30
0.0
 10
-59.0868
 20
-97.1244
 30
0.0
 10
-62.2316
 20
-99.9894
 30
0.0
  0
SPLINE
  5
E4
330
1F
100
AcDbEntity
  8
layer 1
 62
     7
100
AcDbSpline
210
0.0
220
0.0
230
1.0
 70
    11
 71
     3
 72
    16
 73
    12
 74
     0
 42
0.0000000001
 43
0.0000000001
 12
1.0
 22
0.0
 32
0.0
 13
1.0
 23
0.0
 33
0.0
 40
0.0
 40
0.0
 40
0.0
 40
0.0
 40
0.25
 40
0.25
 40
0.25
 40
0.25
 40
0.5
 40
0.5
 40
0.5
 40
0.5
 40
1.0
 40
1.0
 40
1.0
 40
1.0
 10
-54.3208
 20
-88.6765
 30
0.0
 10
-53.7129
 20
-89.1671
 30
0.0
 10
-53.0661
 20
-89.8156
 30
0.0
 10
-52.0938
 20
-90.5433
 30
0.0
 10
-52.0938
 20
-90.5433
 30
0.0
 10
-52.0938
 20
-90.5433
 30
0.0
 10
-52.0938
 20
-85.3193
 30
0.0
 10
-52.0938
 20
-85.3193
 30
0.0
 10
-52.0938
 20
-85.3193
 30
0.0
 10
-52.6733
 20
-86.6855
 30
0.0
 10
-53.4771
 20
-87.8608
 30
0.0
 10
-54.3208
 20
-88.6765
 30
0.0
  0
SPLINE
  5
E5
330
1F
100
AcDbEntity
  8
layer 1
 62
     7
100
AcDbSpline
210
0.0
220
0.0
230
1.0
 70
    11
 71
     3
 72
    24
 73
    20
 74
     0
 42
0.0000000001
 43
0.0000000001
 12
1.0
 22
0.0
 32
0.0
 13
1.0
 23
0.0
 33
0.0
 40
0.0
 40
0.0
 40
0.0
 40
0.0
 40
0.1666666666666667
 40
0.1666666666666667
 40
0.1666666666666667
 40
0.1666666666666667
 40
0.3333333333333333
 40
0.3333333333333333
 40
0.3333333333333333
 40
0.3333333333333333
 40
0.5
 40
0.5
 40
0.5
 40
0.5
 40
0.6666666666666666
 40
0.6666666666666666
 40
0.6666666666666666
 40
0.6666666666666666
 40
1.0
 40
1.0
 40
1.0
 40
1.0
 10
-169.8787
 20
-99.9894
 30
0.0
 10
-169.8787
 20
-99.9894
 30
0.0
 10
-180.0166
 20
-100.0815
 30
0.0
 10
-180.0166
 20
-100.0815
 30
0.0
 10
-180.0166
 20
-100.0815
 30
0.0
 10
-180.0166
 20
-100.0815
 30
0.0
 10
-180.0166
 20
-96.3027
 30
0.0
 10
-180.0166
 20
-96.3027
 30
0.0
 10
-180.0166
 20
-96.3027
 30
0.0
 10
-178.7161
 20
-95.3074
 30
0.0
 10
-177.4226
 20
-93.936
 30
0.0
 10
-176.0622
 20
-92.6834
 30
0.0
 10
-176.0622
 20
-92.6834
 30
0.0
 10
-174.8105
 20
-94.7991
 30
0.0
 10
-173.0236
 20
-97.1246
 30
0.0
 10
-169.8787
 20
-99.9896
 30
0.0
 10
-169.8787
 20
-99.9896
 30
0.0
 10
-169.8787
 20
-99.9896
 30
0.0
 10
-169.8787
 20
-99.9894
 30
0.0
 10
-169.8787
 20
-99.9894
 30
0.0
  0
SPLINE
  5
E6
330
1F
100
AcDbEntity
  8
layer 1
 62
     7
100
AcDbSpline
210
0.0
220
0.0
230
1.0
 70
    11
 71
     3
 72
    16
 73
    12
 74
     0
 42
0.0000000001
 43
0.0000000001
 12
1.0
 22
0.0
 32
0.0
 13
1.0
 23
0.0
 33
0.0
 40
0.0
 40
0.0
 40
0.0
 40
0.0
 40
0.25
 40
0.25
 40
0.25
 40
0.25
 40
0.5
 40
0.5
 40
0.5
 40
0.5
 40
1.0
 40
1.0
 40
1.0
 40
1.0
 10
-177.7896
 20
-88.6765
 30
0.0
 10
-178.3975
 20
-89.1671
 30
0.0
 10
-179.0443
 20
-89.8156
 30
0.0
 10
-180.0166
 20
-90.5433
 30
0.0
 10
-180.0166
 20
-90.5433
 30
0.0
 10
-180.0166
 20
-90.5433
 30
0.0
 10
-180.0166
 20
-85.3193
 30
0.0
 10
-180.0166
 20
-85.3193
 30
0.0
 10
-180.0166
 20
-85.3193
 30
0.0
 10
-179.4371
 20
-86.6855
 30
0.0
 10
-178.6333
 20
-87.8608
 30
0.0
 10
-177.7896
 20
-88.6765
 30
0.0
  0
SPLINE
  5
E7
330
1F
100
AcDbEntity
  8
layer 1
 62
     7
100
AcDbSpline
210
0.0
220
0.0
230
1.0
 70
    11
 71
     3
 72
    28
 73
    24
 74
     0
 42
0.0000000001
 43
0.0000000001
 12
1.0
 22
0.0
 32
0.0
 13
1.0
 23
0.0
 33
0.0
 40
0.0
 40
0.0
 40
0.0
 40
0.0
 40
0.1428571428571428
 40
0.1428571428571428
 40
0.1428571428571428
 40
0.1428571428571428
 40
0.2857142857142857
 40
0.2857142857142857
 40
0.2857142857142857
 40
0.2857142857142857
 40
0.4285714285714285
 40
0.4285714285714285
 40
0.4285714285714285
 40
0.4285714285714285
 40
0.5714285714285714
 40
0.5714285714285714
 40
0.5714285714285714
 40
0.5714285714285714
 40
0.7142857142857143
 40
0.7142857142857143
 40
0.7142857142857143
 40
0.7142857142857143
 40
1.0
 40
1.0
 40
1.0
 40
1.0
 10
-169.8787
 20
-24.8945
 30
0.0
 10
-172.0841
 20
-26.6586
 30
0.0
 10
-174.5059
 20
-29.6023
 30
0.0
 10
-176.0225
 20
-32.2382
 30
0.0
 10
-176.0225
 20
-32.2382
 30
0.0
 10
-177.421
 20
-30.7971
 30
0.0
 10
-178.4749
 20
-29.8679
 30
0.0
 10
-180.0166
 20
-28.4094
 30
0.0
 10
-180.0166
 20
-28.4094
 30
0.0
 10
-180.0166
 20
-28.4094
 30
0.0
 10
-180.0166
 20
-21.2077
 30
0.0
 10
-180.0166
 20
-21.2077
 30
0.0
 10
-180.0166
 20
-21.2077
 30
0.0
 10
-178.7161
 20
-20.2125
 30
0.0
 10
-177.4226
 20
-18.8411
 30
0.0
 10
-176.0622
 20
-17.5885
 30
0.0
 10
-176.0622
 20
-17.5885
 30
0.0
 10
-174.8105
 20
-19.7042
 30
0.0
 10
-173.0236
 20
-22.0297
 30
0.0
 10
-169.8787
 20
-24.8946
 30
0.0
 10
-169.8787
 20
-24.8946
 30
0.0
 10
-169.8787
 20
-24.8946
 30
0.0
 10
-169.8787
 20
-24.8945
 30
0.0
 10
-169.8787
 20
-24.8945
 30
0.0
  0
SPLINE
  5
E8
330
1F
100
AcDbEntity
  8
layer 1
 62
     7
100
AcDbSpline
210
0.0
220
0.0
230
1.0
 70
    11
 71
     3
 72
    16
 73
    12
 74
     0
 42
0.0000000001
 43
0.0000000001
 12
1.0
 22
0.0
 32
0.0
 13
1.0
 23
0.0
 33
0.0
 40
0.0
 40
0.0
 40
0.0
 40
0.0
 40
0.25
 40
0.25
 40
0.25
 40
0.25
 40
0.5
 40
0.5
 40
0.5
 40
0.5
 40
1.0
 40
1.0
 40
1.0
 40
1.0
 10
-177.7896
 20
-13.962
 30
0.0
 10
-178.3975
 20
-14.4527
 30
0.0
 10
-179.0443
 20
-15.1011
 30
0.0
 10
-180.0166
 20
-15.8289
 30
0.0
 10
-180.0166
 20
-15.8289
 30
0.0
 10
-180.0166
 20
-15.8289
 30
0.0
 10
-180.0166
 20
-10.6048
 30
0.0
 10
-180.0166
 20
-10.6048
 30
0.0
 10
-180.0166
 20
-10.6048
 30
0.0
 10
-179.4371
 20
-11.9711
 30
0.0
 10
-178.6333
 20
-13.1464
 30
0.0
 10
-177.7896
 20
-13.962
 30
0.0
  0
SPLINE
  5
E9
330
1F
100
AcDbEntity
  8
layer 1
 62
     7
100
AcDbSpline
210
0.0
220
0.0
230
1.0
 70
    11
 71
     3
 72
    16
 73
    12
 74
     0
 42
0.0000000001
 43
0.0000000001
 12
1.0
 22
0.0
 32
0.0
 13
1.0
 23
0.0
 33
0.0
 40
0.0
 40
0.0
 40
0.0
 40
0.0
 40
0.25
 40
0.25
 40
0.25
 40
0.25
 40
0.5
 40
0.5
 40
0.5
 40
0.5
 40
1.0
 40
1.0
 40
1.0
 40
1.0
 10
-177.7896
 20
-35.8748
 30
0.0
 10
-178.3975
 20
-35.3842
 30
0.0
 10
-179.0443
 20
-34.7357
 30
0.0
 10
-180.0166
 20
-34.008
 30
0.0
 10
-180.0166
 20
-34.008
 30
0.0
 10
-180.0166
 20
-34.008
 30
0.0
 10
-180.0166
 20
-39.232
 30
0.0
 10
-180.0166
 20
-39.232
 30
0.0
 10
-180.0166
 20
-39.232
 30
0.0
 10
-179.4371
 20
-37.8658
 30
0.0
 10
-178.6333
 20
-36.6905
 30
0.0
 10
-177.7896
 20
-35.8748
 30
0.0
  0
SPLINE
  5
EA
330
1F
100
AcDbEntity
  8
layer 1
 62
     7
100
AcDbSpline
210
0.0
220
0.0
230
1.0
 70
    11
 71
     3
 72
    28
 73
    24
 74
     0
 42
0.0000000001
 43
0.0000000001
 12
1.0
 22
0.0
 32
0.0
 13
1.0
 23
0.0
 33
0.0
 40
0.0
 40
0.0
 40
0.0
 40
0.0
 40
0.1428571428571428
 40
0.1428571428571428
 40
0.1428571428571428
 40
0.1428571428571428
 40
0.2857142857142857
 40
0.2857142857142857
 40
0.2857142857142857
 40
0.2857142857142857
 40
0.4285714285714285
 40
0.4285714285714285
 40
0.4285714285714285
 40
0.4285714285714285
 40
0.5714285714285714
 40
0.5714285714285714
 40
0.5714285714285714
 40
0.5714285714285714
 40
0.7142857142857143
 40
0.7142857142857143
 40
0.7142857142857143
 40
0.7142857142857143
 40
1.0
 40
1.0
 40
1.0
 40
1.0
 10
-169.8787
 20
-24.8945
 30
0.0
 10
-172.0841
 20
-26.6586
 30
0.0
 10
-174.5059
 20
-29.6023
 30
0.0
 10
-176.0225
 20
-32.2382
 30
0.0
 10
-176.0225
 20
-32.2382
 30
0.0
 10
-177.421
 20
-30.7971
 30
0.0
 10
-178.4749
 20
-29.8679
 30
0.0
 10
-180.0166
 20
-28.4094
 30
0.0
 10
-180.0166
 20
-28.4094
 30
0.0
 10
-180.0166
 20
-28.4094
 30
0.0
 10
-180.0166
 20
-21.2077
 30
0.0
 10
-180.0166
 20
-21.2077
 30
0.0
 10
-180.0166
 20
-21.2077
 30
0.0
 10
-178.7161
 20
-20.2125
 30
0.0
 10
-177.4226
 20
-18.8411
 30
0.0
 10
-176.0622
 20
-17.5885
 30
0.0
 10
-176.0622
 20
-17.5885
 30
0.0
 10
-174.8105
 20
-19.7042
 30
0.0
 10
-173.0236
 20
-22.0297
 30
0.0
 10
-169.8787
 20
-24.8946
 30
0.0
 10
-169.8787
 20
-24.8946
 30
0.0
 10
-169.8787
 20
-24.8946
 30
0.0
 10
-169.8787
 20
-24.8945
 30
0.0
 10
-169.8787
 20
-24.8945
 30
0.0
  0
SPLINE
  5
EB
330
1F
100
AcDbEntity
  8
layer 1
 62
     7
100
AcDbSpline
210
0.0
220
0.0
230
1.0
 70
    11
 71
     3
 72
    16
 73
    12
 74
     0
 42
0.0000000001
 43
0.0000000001
 12
1.0
 22
0.0
 32
0.0
 13
1.0
 23
0.0
 33
0.0
 40
0.0
 40
0.0
 40
0.0
 40
0.0
 40
0.25
 40
0.25
 40
0.25
 40
0.25
 40
0.5
 40
0.5
 40
0.5
 40
0.5
 40
1.0
 40
1.0
 40
1.0
 40
1.0
 10
-177.7896
 20
-13.962
 30
0.0
 10
-178.3975
 20
-14.4527
 30
0.0
 10
-179.0443
 20
-15.1011
 30
0.0
 10
-180.0166
 20
-15.8289
 30
0.0
 10
-180.0166
 20
-15.8289
 30
0.0
 10
-180.0166
 20
-15.8289
 30
0.0
 10
-180.0166
 20
-10.6048
 30
0.0
 10
-180.0166
 20
-10.6048
 30
0.0
 10
-180.0166
 20
-10.6048
 30
0.0
 10
-179.4371
 20
-11.9711
 30
0.0
 10
-178.6333
 20
-13.1464
 30
0.0
 10
-177.7896
 20
-13.962
 30
0.0
  0
SPLINE
  5
EC
330
1F
100
AcDbEntity
  8
layer 1
 62
     7
100
AcDbSpline
210
0.0
220
0.0
230
1.0
 70
    11
 71
     3
 72
    16
 73
    12
 74
     0
 42
0.0000000001
 43
0.0000000001
 12
1.0
 22
0.0
 32
0.0
 13
1.0
 23
0.0
 33
0.0
 40
0.0
 40
0.0
 40
0.0
 40
0.0
 40
0.25
 40
0.25
 40
0.25
 40
0.25
 40
0.5
 40
0.5
 40
0.5
 40
0.5
 40
1.0
 40
1.0
 40
1.0
 40
1.0
 10
-177.7896
 20
-35.8748
 30
0.0
 10
-178.3975
 20
-35.3842
 30
0.0
 10
-179.0443
 20
-34.7357
 30
0.0
 10
-180.0166
 20
-34.008
 30
0.0
 10
-180.0166
 20
-34.008
 30
0.0
 10
-180.0166
 20
-34.008
 30
0.0
 10
-180.0166
 20
-39.232
 30
0.0
 10
-180.0166
 20
-39.232
 30
0.0
 10
-180.0166
 20
-39.232
 30
0.0
 10
-179.4371
 20
-37.8658
 30
0.0
 10
-178.6333
 20
-36.6905
 30
0.0
 10
-177.7896
 20
-35.8748
 30
0.0
  0
SPLINE
  5
ED
330
1F
100
AcDbEntity
  8
layer 1
 62
     7
100
AcDbSpline
210
0.0
220
0.0
230
1.0
 70
    11
 71
     3
 72
    28
 73
    24
 74
     0
 42
0.0000000001
 43
0.0000000001
 12
1.0
 22
0.0
 32
0.0
 13
1.0
 23
0.0
 33
0.0
 40
0.0
 40
0.0
 40
0.0
 40
0.0
 40
0.1428571428571428
 40
0.1428571428571428
 40
0.1428571428571428
 40
0.1428571428571428
 40
0.2857142857142857
 40
0.2857142857142857
 40
0.2857142857142857
 40
0.2857142857142857
 40
0.4285714285714285
 40
0.4285714285714285
 40
0.4285714285714285
 40
0.4285714285714285
 40
0.5714285714285714
 40
0.5714285714285714
 40
0.5714285714285714
 40
0.5714285714285714
 40
0.7142857142857143
 40
0.7142857142857143
 40
0.7142857142857143
 40
0.7142857142857143
 40
1.0
 40
1.0
 40
1.0
 40
1.0
 10
-169.8787
 20
49.8198
 30
0.0
 10
-172.0841
 20
48.0557
 30
0.0
 10
-174.5059
 20
45.1119
 30
0.0
 10
-176.0225
 20
42.476
 30
0.0
 10
-176.0225
 20
42.476
 30
0.0
 10
-177.421
 20
43.9172
 30
0.0
 10
-178.4749
 20
44.8463
 30
0.0
 10
-180.0166
 20
46.3049
 30
0.0
 10
-180.0166
 20
46.3049
 30
0.0
 10
-180.0166
 20
46.3049
 30
0.0
 10
-180.0166
 20
53.5065
 30
0.0
 10
-180.0166
 20
53.5065
 30
0.0
 10
-180.0166
 20
53.5065
 30
0.0
 10
-178.7161
 20
54.5018
 30
0.0
 10
-177.4226
 20
55.8732
 30
0.0
 10
-176.0622
 20
57.1258
 30
0.0
 10
-176.0622
 20
57.1258
 30
0.0
 10
-174.8105
 20
55.0101
 30
0.0
 10
-173.0236
 20
52.6846
 30
0.0
 10
-169.8787
 20
49.8196
 30
0.0
 10
-169.8787
 20
49.8196
 30
0.0
 10
-169.8787
 20
49.8196
 30
0.0
 10
-169.8787
 20
49.8198
 30
0.0
 10
-169.8787
 20
49.8198
 30
0.0
  0
SPLINE
  5
EE
330
1F
100
AcDbEntity
  8
layer 1
 62
     7
100
AcDbSpline
210
0.0
220
0.0
230
1.0
 70
    11
 71
     3
 72
    16
 73
    12
 74
     0
 42
0.0000000001
 43
0.0000000001
 12
1.0
 22
0.0
 32
0.0
 13
1.0
 23
0.0
 33
0.0
 40
0.0
 40
0.0
 40
0.0
 40
0.0
 40
0.25
 40
0.25
 40
0.25
 40
0.25
 40
0.5
 40
0.5
 40
0.5
 40
0.5
 40
1.0
 40
1.0
 40
1.0
 40
1.0
 10
-177.7896
 20
60.7524
 30
0.0
 10
-178.3975
 20
60.2618
 30
0.0
 10
-179.0443
 20
59.6133
 30
0.0
 10
-180.0166
 20
58.8855
 30
0.0
 10
-180.0166
 20
58.8855
 30
0.0
 10
-180.0166
 20
58.8855
 30
0.0
 10
-180.0166
 20
64.1096
 30
0.0
 10
-180.0166
 20
64.1096
 30
0.0
 10
-180.0166
 20
64.1096
 30
0.0
 10
-179.4371
 20
62.7433
 30
0.0
 10
-178.6333
 20
61.568
 30
0.0
 10
-177.7896
 20
60.7524
 30
0.0
  0
SPLINE
  5
EF
330
1F
100
AcDbEntity
  8
layer 1
 62
     7
100
AcDbSpline
210
0.0
220
0.0
230
1.0
 70
    11
 71
     3
 72
    16
 73
    12
 74
     0
 42
0.0000000001
 43
0.0000000001
 12
1.0
 22
0.0
 32
0.0
 13
1.0
 23
0.0
 33
0.0
 40
0.0
 40
0.0
 40
0.0
 40
0.0
 40
0.25
 40
0.25
 40
0.25
 40
0.25
 40
0.5
 40
0.5
 40
0.5
 40
0.5
 40
1.0
 40
1.0
 40
1.0
 40
1.0
 10
-177.7896
 20
38.8396
 30
0.0
 10
-178.3975
 20
39.3302
 30
0.0
 10
-179.0443
 20
39.9787
 30
0.0
 10
-180.0166
 20
40.7064
 30
0.0
 10
-180.0166
 20
40.7064
 30
0.0
 10
-180.0166
 20
40.7064
 30
0.0
 10
-180.0166
 20
35.4824
 30
0.0
 10
-180.0166
 20
35.4824
 30
0.0
 10
-180.0166
 20
35.4824
 30
0.0
 10
-179.4371
 20
36.8486
 30
0.0
 10
-178.6333
 20
38.0239
 30
0.0
 10
-177.7896
 20
38.8396
 30
0.0
  0
SPLINE
  5
F0
330
1F
100
AcDbEntity
  8
layer 1
 62
     7
100
AcDbSpline
210
0.0
220
0.0
230
1.0
 70
    11
 71
     3
 72
    28
 73
    24
 74
     0
 42
0.0000000001
 43
0.0000000001
 12
1.0
 22
0.0
 32
0.0
 13
1.0
 23
0.0
 33
0.0
 40
0.0
 40
0.0
 40
0.0
 40
0.0
 40
0.1428571428571428
 40
0.1428571428571428
 40
0.1428571428571428
 40
0.1428571428571428
 40
0.2857142857142857
 40
0.2857142857142857
 40
0.2857142857142857
 40
0.2857142857142857
 40
0.4285714285714285
 40
0.4285714285714285
 40
0.4285714285714285
 40
0.4285714285714285
 40
0.5714285714285714
 40
0.5714285714285714
 40
0.5714285714285714
 40
0.5714285714285714
 40
0.7142857142857143
 40
0.7142857142857143
 40
0.7142857142857143
 40
0.7142857142857143
 40
1.0
 40
1.0
 40
1.0
 40
1.0
 10
-169.8787
 20
49.8198
 30
0.0
 10
-172.0841
 20
48.0557
 30
0.0
 10
-174.5059
 20
45.1119
 30
0.0
 10
-176.0225
 20
42.476
 30
0.0
 10
-176.0225
 20
42.476
 30
0.0
 10
-177.421
 20
43.9172
 30
0.0
 10
-178.4749
 20
44.8463
 30
0.0
 10
-180.0166
 20
46.3049
 30
0.0
 10
-180.0166
 20
46.3049
 30
0.0
 10
-180.0166
 20
46.3049
 30
0.0
 10
-180.0166
 20
53.5065
 30
0.0
 10
-180.0166
 20
53.5065
 30
0.0
 10
-180.0166
 20
53.5065
 30
0.0
 10
-178.7161
 20
54.5018
 30
0.0
 10
-177.4226
 20
55.8732
 30
0.0
 10
-176.0622
 20
57.1258
 30
0.0
 10
-176.0622
 20
57.1258
 30
0.0
 10
-174.8105
 20
55.0101
 30
0.0
 10
-173.0236
 20
52.6846
 30
0.0
 10
-169.8787
 20
49.8196
 30
0.0
 10
-169.8787
 20
49.8196
 30
0.0
 10
-169.8787
 20
49.8196
 30
0.0
 10
-169.8787
 20
49.8198
 30
0.0
 10
-169.8787
 20
49.8198
 30
0.0
  0
SPLINE
  5
F1
330
1F
100
AcDbEntity
  8
layer 1
 62
     7
100
AcDbSpline
210
0.0
220
0.0
230
1.0
 70
    11
 71
     3
 72
    16
 73
    12
 74
     0
 42
0.0000000001
 43
0.0000000001
 12
1.0
 22
0.0
 32
0.0
 13
1.0
 23
0.0
 33
0.0
 40
0.0
 40
0.0
 40
0.0
 40
0.0
 40
0.25
 40
0.25
 40
0.25
 40
0.25
 40
0.5
 40
0.5
 40
0.5
 40
0.5
 40
1.0
 40
1.0
 40
1.0
 40
1.0
 10
-177.7896
 20
60.7524
 30
0.0
 10
-178.3975
 20
60.2618
 30
0.0
 10
-179.0443
 20
59.6133
 30
0.0
 10
-180.0166
 20
58.8855
 30
0.0
 10
-180.0166
 20
58.8855
 30
0.0
 10
-180.0166
 20
58.8855
 30
0.0
 10
-180.0166
 20
64.1096
 30
0.0
 10
-180.0166
 20
64.1096
 30
0.0
 10
-180.0166
 20
64.1096
 30
0.0
 10
-179.4371
 20
62.7433
 30
0.0
 10
-178.6333
 20
61.568
 30
0.0
 10
-177.7896
 20
60.7524
 30
0.0
  0
SPLINE
  5
F2
330
1F
100
AcDbEntity
  8
layer 1
 62
     7
100
AcDbSpline
210
0.0
220
0.0
230
1.0
 70
    11
 71
     3
 72
    16
 73
    12
 74
     0
 42
0.0000000001
 43
0.0000000001
 12
1.0
 22
0.0
 32
0.0
 13
1.0
 23
0.0
 33
0.0
 40
0.0
 40
0.0
 40
0.0
 40
0.0
 40
0.25
 40
0.25
 40
0.25
 40
0.25
 40
0.5
 40
0.5
 40
0.5
 40
0.5
 40
1.0
 40
1.0
 40
1.0
 40
1.0
 10
-177.7896
 20
38.8396
 30
0.0
 10
-178.3975
 20
39.3302
 30
0.0
 10
-179.0443
 20
39.9787
 30
0.0
 10
-180.0166
 20
40.7064
 30
0.0
 10
-180.0166
 20
40.7064
 30
0.0
 10
-180.0166
 20
40.7064
 30
0.0
 10
-180.0166
 20
35.4824
 30
0.0
 10
-180.0166
 20
35.4824
 30
0.0
 10
-180.0166
 20
35.4824
 30
0.0
 10
-179.4371
 20
36.8486
 30
0.0
 10
-178.6333
 20
38.0239
 30
0.0
 10
-177.7896
 20
38.8396
 30
0.0
  0
SPLINE
  5
F3
330
1F
100
AcDbEntity
  8
layer 1
 62
     7
100
AcDbSpline
210
0.0
220
0.0
230
1.0
 70
    11
 71
     3
 72
    16
 73
    12
 74
     0
 42
0.0000000001
 43
0.0000000001
 12
1.0
 22
0.0
 32
0.0
 13
1.0
 23
0.0
 33
0.0
 40
0.0
 40
0.0
 40
0.0
 40
0.0
 40
0.25
 40
0.25
 40
0.25
 40
0.25
 40
0.5
 40
0.5
 40
0.5
 40
0.5
 40
1.0
 40
1.0
 40
1.0
 40
1.0
 10
-177.7896
 20
114.2615
 30
0.0
 10
-178.3975
 20
114.7521
 30
0.0
 10
-179.0443
 20
115.4006
 30
0.0
 10
-180.0166
 20
116.1283
 30
0.0
 10
-180.0166
 20
116.1283
 30
0.0
 10
-180.0166
 20
116.1283
 30
0.0
 10
-180.0166
 20
110.9043
 30
0.0
 10
-180.0166
 20
110.9043
 30
0.0
 10
-180.0166
 20
110.9043
 30
0.0
 10
-179.4371
 20
112.2705
 30
0.0
 10
-178.6333
 20
113.4458
 30
0.0
 10
-177.7896
 20
114.2615
 30
0.0
  0
SPLINE
  5
F4
330
1F
100
AcDbEntity
  8
layer 1
 62
     7
100
AcDbSpline
210
0.0
220
0.0
230
1.0
 70
    11
 71
     3
 72
    20
 73
    16
 74
     0
 42
0.0000000001
 43
0.0000000001
 12
1.0
 22
0.0
 32
0.0
 13
1.0
 23
0.0
 33
0.0
 40
0.0
 40
0.0
 40
0.0
 40
0.0
 40
0.2
 40
0.2
 40
0.2
 40
0.2
 40
0.4
 40
0.4
 40
0.4
 40
0.4
 40
0.6
 40
0.6
 40
0.6
 40
0.6
 40
1.0
 40
1.0
 40
1.0
 40
1.0
 10
-169.8787
 20
125.2417
 30
0.0
 10
-172.0841
 20
123.4776
 30
0.0
 10
-174.5059
 20
120.5338
 30
0.0
 10
-176.0225
 20
117.8979
 30
0.0
 10
-176.0225
 20
117.8979
 30
0.0
 10
-177.421
 20
119.3391
 30
0.0
 10
-178.4749
 20
120.2682
 30
0.0
 10
-180.0166
 20
121.7268
 30
0.0
 10
-180.0166
 20
121.7268
 30
0.0
 10
-180.0166
 20
121.7268
 30
0.0
 10
-180.0166
 20
125.1473
 30
0.0
 10
-180.0166
 20
125.1473
 30
0.0
 10
-180.0166
 20
125.1473
 30
0.0
 10
-180.0166
 20
125.1473
 30
0.0
 10
-169.8787
 20
125.2417
 30
0.0
 10
-169.8787
 20
125.2417
 30
0.0
  0
SPLINE
  5
F5
330
1F
100
AcDbEntity
  8
layer 1
 62
     7
100
AcDbSpline
210
0.0
220
0.0
230
1.0
 70
    11
 71
     3
 72
    20
 73
    16
 74
     0
 42
0.0000000001
 43
0.0000000001
 12
1.0
 22
0.0
 32
0.0
 13
1.0
 23
0.0
 33
0.0
 40
0.0
 40
0.0
 40
0.0
 40
0.0
 40
0.2
 40
0.2
 40
0.2
 40
0.2
 40
0.4
 40
0.4
 40
0.4
 40
0.4
 40
0.6
 40
0.6
 40
0.6
 40
0.6
 40
1.0
 40
1.0
 40
1.0
 40
1.0
 10
-132.7869
 20
-61.8615
 30
0.0
 10
-135.0919
 20
-63.9272
 30
0.0
 10
-137.1337
 20
-65.1936
 30
0.0
 10
-140.0121
 20
-66.2327
 30
0.0
 10
-140.0121
 20
-66.2327
 30
0.0
 10
-140.4709
 20
-63.7822
 30
0.0
 10
-140.496
 20
-60.5981
 30
0.0
 10
-139.7583
 20
-57.8635
 30
0.0
 10
-139.7583
 20
-57.8635
 30
0.0
 10
-137.588
 20
-58.9055
 30
0.0
 10
-134.7379
 20
-60.4756
 30
0.0
 10
-132.787
 20
-61.8616
 30
0.0
 10
-132.787
 20
-61.8616
 30
0.0
 10
-132.787
 20
-61.8616
 30
0.0
 10
-132.7869
 20
-61.8615
 30
0.0
 10
-132.7869
 20
-61.8615
 30
0.0
  0
ENDSEC
  0
SECTION
  2
OBJECTS
  0
DICTIONARY
  5
C
330
0
100
AcDbDictionary
281
     1
  3
ACAD_GROUP
350
D
  3
ACAD_LAYOUT
350
1A
  3
ACAD_MATERIAL
350
3B
  3
ACAD_MLEADERSTYLE
350
118
  3
ACAD_MLINESTYLE
350
17
  3
ACAD_PLOTSETTINGS
350
19
  3
ACAD_PLOTSTYLENAME
350
E
  3
ACAD_TABLESTYLE
350
117
  3
ACAD_VISUALSTYLE
350
2A
  0
DICTIONARY
  5
D
102
{ACAD_REACTORS
330
C
102
}
330
C
100
AcDbDictionary
281
     1
  0
DICTIONARY
  5
1A
102
{ACAD_REACTORS
330
C
102
}
330
C
100
AcDbDictionary
281
     1
  3
Layout1
350
1E
  3
Layout2
350
26
  3
Model
350
22
  0
DICTIONARY
  5
3B
102
{ACAD_REACTORS
330
C
102
}
330
C
100
AcDbDictionary
281
     1
  3
ByBlock
350
3D
  3
ByLayer
350
3C
  3
Global
350
3E
  0
DICTIONARY
  5
118
102
{ACAD_REACTORS
330
C
102
}
330
C
100
AcDbDictionary
281
     1
  0
DICTIONARY
  5
17
102
{ACAD_REACTORS
330
C
102
}
330
C
100
AcDbDictionary
281
     1
  3
Standard
350
18
  0
DICTIONARY
  5
19
102
{ACAD_REACTORS
330
C
102
}
330
C
100
AcDbDictionary
281
     1
  0
ACDBDICTIONARYWDFLT
  5
E
102
{ACAD_REACTORS
330
C
102
}
330
C
100
AcDbDictionary
281
     1
  3
Normal
350
F
100
AcDbDictionaryWithDefault
340
F
  0
DICTIONARY
  5
117
102
{ACAD_REACTORS
330
C
102
}
330
C
100
AcDbDictionary
281
     1
  0
DICTIONARY
  5
2A
102
{ACAD_REACTORS
330
C
102
}
330
C
100
AcDbDictionary
281
     1
  3
2dWireframe
350
2F
  3
3D Hidden
350
31
  3
3dWireframe
350
30
  3
Basic
350
32
  3
Brighten
350
36
  3
ColorChange
350
3A
  3
Conceptual
350
34
  3
Dim
350
35
  3
Facepattern
350
39
  3
Flat
350
2B
  3
FlatWithEdges
350
2C
  3
Gouraud
350
2D
  3
GouraudWithEdges
350
2E
  3
Linepattern
350
38
  3
Realistic
350
33
  3
Thicken
350
37
  0
LAYOUT
  5
1E
102
{ACAD_REACTORS
330
1A
102
}
330
1A
100
AcDbPlotSettings
  1

  2
none_device
  4

  6

 40
0.0
 41
0.0
 42
0.0
 43
0.0
 44
0.0
 45
0.0
 46
0.0
 47
0.0
 48
0.0
 49
0.0
140
0.0
141
0.0
142
1.0
143
1.0
 70
   688
 72
     0
 73
     0
 74
     5
  7

 75
    16
 76
     0
 77
     2
 78
   300
147
1.0
148
0.0
149
0.0
100
AcDbLayout
  1
Layout1
 70
     1
 71
     1
 10
0.0
 20
0.0
 11
12.0
 21
9.0
 12
0.0
 22
0.0
 32
0.0
 14
1.000000000000000E+20
 24
1.000000000000000E+20
 34
1.000000000000000E+20
 15
-1.000000000000000E+20
 25
-1.000000000000000E+20
 35
-1.000000000000000E+20
146
0.0
 13
0.0
 23
0.0
 33
0.0
 16
1.0
 26
0.0
 36
0.0
 17
0.0
 27
1.0
 37
0.0
 76
     0
330
1B
  0
LAYOUT
  5
26
102
{ACAD_REACTORS
330
1A
102
}
330
1A
100
AcDbPlotSettings
  1

  2
none_device
  4

  6

 40
0.0
 41
0.0
 42
0.0
 43
0.0
 44
0.0
 45
0.0
 46
0.0
 47
0.0
 48
0.0
 49
0.0
140
0.0
141
0.0
142
1.0
143
1.0
 70
   688
 72
     0
 73
     0
 74
     5
  7

 75
    16
 76
     0
 77
     2
 78
   300
147
1.0
148
0.0
149
0.0
100
AcDbLayout
  1
Layout2
 70
     1
 71
     2
 10
0.0
 20
0.0
 11
0.0
 21
0.0
 12
0.0
 22
0.0
 32
0.0
 14
0.0
 24
0.0
 34
0.0
 15
0.0
 25
0.0
 35
0.0
146
0.0
 13
0.0
 23
0.0
 33
0.0
 16
1.0
 26
0.0
 36
0.0
 17
0.0
 27
1.0
 37
0.0
 76
     0
330
23
  0
LAYOUT
  5
22
102
{ACAD_REACTORS
330
1A
102
}
330
1A
100
AcDbPlotSettings
  1

  2
none_device
  4

  6

 40
0.0
 41
0.0
 42
0.0
 43
0.0
 44
0.0
 45
0.0
 46
0.0
 47
0.0
 48
0.0
 49
0.0
140
0.0
141
0.0
142
1.0
143
1.0
 70
  1712
 72
     0
 73
     0
 74
     0
  7

 75
     0
 76
     0
 77
     2
 78
   300
147
1.0
148
0.0
149
0.0
100
AcDbLayout
  1
Model
 70
     1
 71
     0
 10
0.0
 20
0.0
 11
12.0
 21
9.0
 12
0.0
 22
0.0
 32
0.0
 14
-187.3875
 24
-106.6178
 34
0.0
 15
-44.7219
 25
131.7778
 35
0.0
146
0.0
 13
0.0
 23
0.0
 33
0.0
 16
1.0
 26
0.0
 36
0.0
 17
0.0
 27
1.0
 37
0.0
 76
     0
330
1F
331
29
  0
MATERIAL
  5
3D
102
{ACAD_REACTORS
330
3B
102
}
330
3B
100
AcDbMaterial
  1
ByBlock
 72
     1
 94
      127
  0
MATERIAL
  5
3C
102
{ACAD_REACTORS
330
3B
102
}
330
3B
100
AcDbMaterial
  1
ByLayer
 72
     1
 94
      127
  0
MATERIAL
  5
3E
102
{ACAD_REACTORS
330
3B
102
}
330
3B
100
AcDbMaterial
  1
Global
 72
     1
 94
      127
  0
MLINESTYLE
  5
18
102
{ACAD_REACTORS
330
17
102
}
330
17
100
AcDbMlineStyle
  2
Standard
 70
     0
  3

 62
   256
 51
90.0
 52
90.0
 71
     2
 49
0.5
 62
   256
  6
BYLAYER
 49
-0.5
 62
   256
  6
BYLAYER
  0
ACDBPLACEHOLDER
  5
F
102
{ACAD_REACTORS
330
E
102
}
330
E
  0
VISUALSTYLE
  5
2F
102
{ACAD_REACTORS
330
2A
102
}
102
{ACAD_XDICTIONARY
360
FF
102
}
330
2A
100
AcDbVisualStyle
  2
2dWireframe
 70
     4
 71
     0
 72
     2
 73
     0
 90
        0
 40
-0.6
 41
-30.0
 62
     5
 63
     7
421
 16777215
 74
     1
 91
        4
 64
     7
 65
   257
 75
     1
175
     1
 42
1.0
 92
        0
 66
   257
 43
1.0
 76
     1
 77
     6
 78
     2
 67
     7
 79
     5
170
     0
171
     0
290
     0
174
     0
 93
        1
 44
0.0
173
     0
291
     0
 45
0.0
  0
VISUALSTYLE
  5
31
102
{ACAD_REACTORS
330
2A
102
}
102
{ACAD_XDICTIONARY
360
103
102
}
330
2A
100
AcDbVisualStyle
  2
3D Hidden
 70
     6
 71
     1
 72
     2
 73
     2
 90
        0
 40
-0.6
 41
-30.0
 62
     5
 63
     7
421
 16777215
 74
     2
 91
        2
 64
     7
 65
   257
 75
     2
175
     1
 42
40.0
 92
        0
 66
   257
 43
1.0
 76
     1
 77
     6
 78
     2
 67
     7
 79
     3
170
     0
171
     0
290
     0
174
     0
 93
        1
 44
0.0
173
     0
291
     0
 45
0.0
  0
VISUALSTYLE
  5
30
102
{ACAD_REACTORS
330
2A
102
}
102
{ACAD_XDICTIONARY
360
101
102
}
330
2A
100
AcDbVisualStyle
  2
3dWireframe
 70
     5
 71
     0
 72
     2
 73
     0
 90
        0
 40
-0.6
 41
-30.0
 62
     5
 63
     7
421
 16777215
 74
     1
 91
        4
 64
     7
 65
   257
 75
     1
175
     1
 42
1.0
 92
        0
 66
   257
 43
1.0
 76
     1
 77
     6
 78
     2
 67
     7
 79
     5
170
     0
171
     0
290
     0
174
     0
 93
        1
 44
0.0
173
     0
291
     0
 45
0.0
  0
VISUALSTYLE
  5
32
102
{ACAD_REACTORS
330
2A
102
}
102
{ACAD_XDICTIONARY
360
105
102
}
330
2A
100
AcDbVisualStyle
  2
Basic
 70
     7
 71
     1
 72
     0
 73
     1
 90
        0
 40
-0.6
 41
-30.0
 62
     5
 63
     7
421
 16777215
 74
     0
 91
        4
 64
     7
 65
   257
 75
     1
175
     1
 42
1.0
 92
        8
 66
     7
 43
1.0
 76
     1
 77
     6
 78
     2
 67
     7
 79
     5
170
     0
171
     0
290
     0
174
     0
 93
        1
 44
0.0
173
     0
291
     1
 45
0.0
  0
VISUALSTYLE
  5
36
102
{ACAD_REACTORS
330
2A
102
}
102
{ACAD_XDICTIONARY
360
10D
102
}
330
2A
100
AcDbVisualStyle
  2
Brighten
 70
    12
 71
     2
 72
     2
 73
     0
 90
        0
 40
-0.6
 41
-30.0
 62
     5
 63
     7
421
 16777215
 74
     1
 91
        4
 64
     7
 65
   257
 75
     1
175
     1
 42
1.0
 92
        8
 66
     7
 43
1.0
 76
     1
 77
     6
 78
     2
 67
     7
 79
     5
170
     0
171
     0
290
     0
174
     0
 93
        1
 44
50.0
173
     0
291
     1
 45
0.0
  0
VISUALSTYLE
  5
3A
102
{ACAD_REACTORS
330
2A
102
}
102
{ACAD_XDICTIONARY
360
115
102
}
330
2A
100
AcDbVisualStyle
  2
ColorChange
 70
    16
 71
     2
 72
     2
 73
     3
 90
        0
 40
-0.6
 41
-30.0
 62
     5
 63
     8
421
  8421504
 74
     1
 91
        4
 64
     7
 65
   257
 75
     1
175
     1
 42
1.0
 92
        8
 66
     8
424
  8421504
 43
1.0
 76
     1
 77
     6
 78
     2
 67
     7
 79
     5
170
     0
171
     0
290
     0
174
     0
 93
        1
 44
0.0
173
     0
291
     1
 45
0.0
  0
VISUALSTYLE
  5
34
102
{ACAD_REACTORS
330
2A
102
}
102
{ACAD_XDICTIONARY
360
109
102
}
330
2A
100
AcDbVisualStyle
  2
Conceptual
 70
     9
 71
     3
 72
     2
 73
     0
 90
        0
 40
-0.6
 41
-30.0
 62
     5
 63
     7
421
 16777215
 74
     2
 91
        2
 64
     7
 65
   257
 75
     1
175
     1
 42
40.0
 92
        8
 66
     7
 43
1.0
 76
     1
 77
     6
 78
     2
 67
     7
 79
     3
170
     0
171
     0
290
     0
174
     0
 93
        1
 44
0.0
173
     0
291
     0
 45
0.0
  0
VISUALSTYLE
  5
35
102
{ACAD_REACTORS
330
2A
102
}
102
{ACAD_XDICTIONARY
360
10B
102
}
330
2A
100
AcDbVisualStyle
  2
Dim
 70
    11
 71
     2
 72
     2
 73
     0
 90
        0
 40
-0.6
 41
-30.0
 62
     5
 63
     7
421
 16777215
 74
     1
 91
        4
 64
     7
 65
   257
 75
     1
175
     1
 42
1.0
 92
        8
 66
     7
 43
1.0
 76
     1
 77
     6
 78
     2
 67
     7
 79
     5
170
     0
171
     0
290
     0
174
     0
 93
        1
 44
-50.0
173
     0
291
     1
 45
0.0
  0
VISUALSTYLE
  5
39
102
{ACAD_REACTORS
330
2A
102
}
102
{ACAD_XDICTIONARY
360
113
102
}
330
2A
100
AcDbVisualStyle
  2
Facepattern
 70
    15
 71
     2
 72
     2
 73
     0
 90
        0
 40
-0.6
 41
-30.0
 62
     5
 63
     7
421
 16777215
 74
     1
 91
        4
 64
     7
 65
   257
 75
     1
175
     1
 42
1.0
 92
        8
 66
     7
 43
1.0
 76
     1
 77
     6
 78
     2
 67
     7
 79
     5
170
     0
171
     0
290
     0
174
     0
 93
        1
 44
0.0
173
     0
291
     1
 45
0.0
  0
VISUALSTYLE
  5
2B
102
{ACAD_REACTORS
330
2A
102
}
102
{ACAD_XDICTIONARY
360
F7
102
}
330
2A
100
AcDbVisualStyle
  2
Flat
 70
     0
 71
     2
 72
     1
 73
     1
 90
        2
 40
-0.6
 41
30.0
 62
     5
 63
     7
421
 16777215
 74
     0
 91
        4
 64
     7
 65
   257
 75
     1
175
     1
 42
1.0
 92
        8
 66
     7
 43
1.0
 76
     1
 77
     6
 78
     2
 67
     7
 79
     5
170
     0
171
     0
290
     0
174
     0
 93
       13
 44
0.0
173
     0
291
     1
 45
0.0
  0
VISUALSTYLE
  5
2C
102
{ACAD_REACTORS
330
2A
102
}
102
{ACAD_XDICTIONARY
360
F9
102
}
330
2A
100
AcDbVisualStyle
  2
FlatWithEdges
 70
     1
 71
     2
 72
     1
 73
     1
 90
        2
 40
-0.6
 41
30.0
 62
     5
 63
     7
421
 16777215
 74
     1
 91
        4
 64
     7
 65
   257
 75
     1
175
     1
 42
1.0
 92
        0
 66
   257
 43
1.0
 76
     1
 77
     6
 78
     2
 67
     7
 79
     5
170
     0
171
     0
290
     0
174
     0
 93
       13
 44
0.0
173
     0
291
     1
 45
0.0
  0
VISUALSTYLE
  5
2D
102
{ACAD_REACTORS
330
2A
102
}
102
{ACAD_XDICTIONARY
360
FB
102
}
330
2A
100
AcDbVisualStyle
  2
Gouraud
 70
     2
 71
     2
 72
     2
 73
     1
 90
        2
 40
-0.6
 41
30.0
 62
     5
 63
     7
421
 16777215
 74
     0
 91
        4
 64
     7
 65
   257
 75
     1
175
     1
 42
1.0
 92
        0
 66
     7
 43
1.0
 76
     1
 77
     6
 78
     2
 67
     7
 79
     5
170
     0
171
     0
290
     0
174
     0
 93
       13
 44
0.0
173
     0
291
     1
 45
0.0
  0
VISUALSTYLE
  5
2E
102
{ACAD_REACTORS
330
2A
102
}
102
{ACAD_XDICTIONARY
360
FD
102
}
330
2A
100
AcDbVisualStyle
  2
GouraudWithEdges
 70
     3
 71
     2
 72
     2
 73
     1
 90
        2
 40
-0.6
 41
30.0
 62
     5
 63
     7
421
 16777215
 74
     1
 91
        4
 64
     7
 65
   257
 75
     1
175
     1
 42
1.0
 92
        0
 66
   257
 43
1.0
 76
     1
 77
     6
 78
     2
 67
     7
 79
     5
170
     0
171
     0
290
     0
174
     0
 93
       13
 44
0.0
173
     0
291
     1
 45
0.0
  0
VISUALSTYLE
  5
38
102
{ACAD_REACTORS
330
2A
102
}
102
{ACAD_XDICTIONARY
360
111
102
}
330
2A
100
AcDbVisualStyle
  2
Linepattern
 70
    14
 71
     2
 72
     2
 73
     0
 90
        0
 40
-0.6
 41
-30.0
 62
     5
 63
     7
421
 16777215
 74
     1
 91
        4
 64
     7
 65
   257
 75
     7
175
     7
 42
1.0
 92
        8
 66
     7
 43
1.0
 76
     1
 77
     6
 78
     2
 67
     7
 79
     5
170
     0
171
     0
290
     0
174
     0
 93
        1
 44
0.0
173
     0
291
     1
 45
0.0
  0
VISUALSTYLE
  5
33
102
{ACAD_REACTORS
330
2A
102
}
102
{ACAD_XDICTIONARY
360
107
102
}
330
2A
100
AcDbVisualStyle
  2
Realistic
 70
     8
 71
     2
 72
     2
 73
     0
 90
        0
 40
-0.6
 41
-30.0
 62
     5
 63
     7
421
 16777215
 74
     1
 91
        0
 64
     7
 65
   257
 75
     1
175
     1
 42
1.0
 92
        8
 66
     8
424
  7895160
 43
1.0
 76
     1
 77
     6
 78
     2
 67
     7
 79
     5
170
     0
171
     0
290
     0
174
     0
 93
       13
 44
0.0
173
     0
291
     0
 45
0.0
  0
VISUALSTYLE
  5
37
102
{ACAD_REACTORS
330
2A
102
}
102
{ACAD_XDICTIONARY
360
10F
102
}
330
2A
100
AcDbVisualStyle
  2
Thicken
 70
    13
 71
     2
 72
     2
 73
     0
 90
        0
 40
-0.6
 41
-30.0
 62
     5
 63
     7
421
 16777215
 74
     1
 91
        4
 64
     7
 65
   257
 75
     1
175
     1
 42
1.0
 92
       12
 66
     7
 43
1.0
 76
     1
 77
     6
 78
     2
 67
     7
 79
     5
170
     0
171
     0
290
     0
174
     0
 93
        1
 44
0.0
173
     0
291
     1
 45
0.0
  0
DICTIONARY
  5
FF
330
2F
100
AcDbDictionary
280
     1
281
     1
  3
ACAD_XREC_ROUNDTRIP
360
100
  0
DICTIONARY
  5
103
330
31
100
AcDbDictionary
280
     1
281
     1
  3
ACAD_XREC_ROUNDTRIP
360
104
  0
DICTIONARY
  5
101
330
30
100
AcDbDictionary
280
     1
281
     1
  3
ACAD_XREC_ROUNDTRIP
360
102
  0
DICTIONARY
  5
105
330
32
100
AcDbDictionary
280
     1
281
     1
  3
ACAD_XREC_ROUNDTRIP
360
106
  0
DICTIONARY
  5
10D
330
36
100
AcDbDictionary
280
     1
281
     1
  3
ACAD_XREC_ROUNDTRIP
360
10E
  0
DICTIONARY
  5
115
330
3A
100
AcDbDictionary
280
     1
281
     1
  3
ACAD_XREC_ROUNDTRIP
360
116
  0
DICTIONARY
  5
109
330
34
100
AcDbDictionary
280
     1
281
     1
  3
ACAD_XREC_ROUNDTRIP
360
10A
  0
DICTIONARY
  5
10B
330
35
100
AcDbDictionary
280
     1
281
     1
  3
ACAD_XREC_ROUNDTRIP
360
10C
  0
DICTIONARY
  5
113
330
39
100
AcDbDictionary
280
     1
281
     1
  3
ACAD_XREC_ROUNDTRIP
360
114
  0
DICTIONARY
  5
F7
330
2B
100
AcDbDictionary
280
     1
281
     1
  3
ACAD_XREC_ROUNDTRIP
360
F8
  0
DICTIONARY
  5
F9
330
2C
100
AcDbDictionary
280
     1
281
     1
  3
ACAD_XREC_ROUNDTRIP
360
FA
  0
DICTIONARY
  5
FB
330
2D
100
AcDbDictionary
280
     1
281
     1
  3
ACAD_XREC_ROUNDTRIP
360
FC
  0
DICTIONARY
  5
FD
330
2E
100
AcDbDictionary
280
     1
281
     1
  3
ACAD_XREC_ROUNDTRIP
360
FE
  0
DICTIONARY
  5
111
330
38
100
AcDbDictionary
280
     1
281
     1
  3
ACAD_XREC_ROUNDTRIP
360
112
  0
DICTIONARY
  5
107
330
33
100
AcDbDictionary
280
     1
281
     1
  3
ACAD_XREC_ROUNDTRIP
360
108
  0
DICTIONARY
  5
10F
330
37
100
AcDbDictionary
280
     1
281
     1
  3
ACAD_XREC_ROUNDTRIP
360
110
  0
XRECORD
  5
100
102
{ACAD_REACTORS
330
FF
102
}
330
FF
100
AcDbXrecord
280
     1
102
RTVSPropertyOp0
 70
     1
102
RTVSPropertyOp1
 70
     1
102
RTVSPropertyOp2
 70
     1
102
RTVSPropertyOp3
 70
     1
102
RTVSPropertyOp4
 70
     1
102
RTVSPropertyOp5
 70
     1
102
RTVSPropertyOp6
 70
     1
102
RTVSPropertyOp7
 70
     1
102
RTVSPropertyOp8
 70
     1
102
RTVSPropertyOp9
 70
     1
102
RTVSPropertyOp10
 70
     1
102
RTVSPropertyOp11
 70
     1
102
RTVSPropertyOp12
 70
     1
102
RTVSPropertyOp13
 70
     1
102
RTVSPropertyOp14
 70
     1
102
RTVSPropertyOp15
 70
     1
102
RTVSPropertyOp16
 70
     1
102
RTVSPropertyOp17
 70
     1
102
RTVSPropertyOp18
 70
     1
102
RTVSPropertyOp19
 70
     1
102
RTVSPropertyOp20
 70
     1
102
RTVSPropertyOp21
 70
     1
102
RTVSPropertyOp22
 70
     1
102
RTVSPropertyOp23
 70
     1
102
RTVSPropertyOp24
 70
     1
102
RTVSPropertyOp25
 70
     1
102
RTVSPropertyOp26
 70
     1
102
RTVSPropertyOp27
 70
     1
102
RTVSPropertyOp28
 70
     1
102
RTVSPropertyOp29
 70
     1
102
RTVSPropertyOp30
 70
     1
102
RTVSPropertyOp31
 70
     1
102
RTVSPropertyOp32
 70
     1
  0
XRECORD
  5
104
102
{ACAD_REACTORS
330
103
102
}
330
103
100
AcDbXrecord
280
     1
102
RTVSPropertyOp0
 70
     1
102
RTVSPropertyOp1
 70
     1
102
RTVSPropertyOp2
 70
     1
102
RTVSPropertyOp3
 70
     1
102
RTVSPropertyOp4
 70
     1
102
RTVSPropertyOp5
 70
     1
102
RTVSPropertyOp6
 70
     1
102
RTVSPropertyOp7
 70
     1
102
RTVSPropertyOp8
 70
     1
102
RTVSPropertyOp9
 70
     1
102
RTVSPropertyOp10
 70
     1
102
RTVSPropertyOp11
 70
     1
102
RTVSPropertyOp12
 70
     1
102
RTVSPropertyOp13
 70
     1
102
RTVSPropertyOp14
 70
     1
102
RTVSPropertyOp15
 70
     1
102
RTVSPropertyOp16
 70
     1
102
RTVSPropertyOp17
 70
     1
102
RTVSPropertyOp18
 70
     1
102
RTVSPropertyOp19
 70
     1
102
RTVSPropertyOp20
 70
     1
102
RTVSPropertyOp21
 70
     1
102
RTVSPropertyOp22
 70
     1
102
RTVSPropertyOp23
 70
     1
102
RTVSPropertyOp24
 70
     1
102
RTVSPropertyOp25
 70
     1
102
RTVSPropertyOp26
 70
     1
102
RTVSPropertyOp27
 70
     1
102
RTVSPropertyOp28
 70
     1
102
RTVSPropertyOp29
 70
     1
102
RTVSPropertyOp30
 70
     1
102
RTVSPropertyOp31
 70
     1
102
RTVSPropertyOp32
 70
     1
  0
XRECORD
  5
102
102
{ACAD_REACTORS
330
101
102
}
330
101
100
AcDbXrecord
280
     1
102
RTVSPropertyOp0
 70
     1
102
RTVSPropertyOp1
 70
     1
102
RTVSPropertyOp2
 70
     1
102
RTVSPropertyOp3
 70
     1
102
RTVSPropertyOp4
 70
     1
102
RTVSPropertyOp5
 70
     1
102
RTVSPropertyOp6
 70
     1
102
RTVSPropertyOp7
 70
     1
102
RTVSPropertyOp8
 70
     1
102
RTVSPropertyOp9
 70
     1
102
RTVSPropertyOp10
 70
     1
102
RTVSPropertyOp11
 70
     1
102
RTVSPropertyOp12
 70
     1
102
RTVSPropertyOp13
 70
     1
102
RTVSPropertyOp14
 70
     1
102
RTVSPropertyOp15
 70
     1
102
RTVSPropertyOp16
 70
     1
102
RTVSPropertyOp17
 70
     1
102
RTVSPropertyOp18
 70
     1
102
RTVSPropertyOp19
 70
     1
102
RTVSPropertyOp20
 70
     1
102
RTVSPropertyOp21
 70
     1
102
RTVSPropertyOp22
 70
     1
102
RTVSPropertyOp23
 70
     1
102
RTVSPropertyOp24
 70
     1
102
RTVSPropertyOp25
 70
     1
102
RTVSPropertyOp26
 70
     1
102
RTVSPropertyOp27
 70
     1
102
RTVSPropertyOp28
 70
     1
102
RTVSPropertyOp29
 70
     1
102
RTVSPropertyOp30
 70
     1
102
RTVSPropertyOp31
 70
     1
102
RTVSPropertyOp32
 70
     1
  0
XRECORD
  5
106
102
{ACAD_REACTORS
330
105
102
}
330
105
100
AcDbXrecord
280
     1
102
RTVSPropertyOp0
 70
     1
102
RTVSPropertyOp1
 70
     1
102
RTVSPropertyOp2
 70
     1
102
RTVSPropertyOp3
 70
     1
102
RTVSPropertyOp4
 70
     1
102
RTVSPropertyOp5
 70
     1
102
RTVSPropertyOp6
 70
     1
102
RTVSPropertyOp7
 70
     1
102
RTVSPropertyOp8
 70
     1
102
RTVSPropertyOp9
 70
     1
102
RTVSPropertyOp10
 70
     1
102
RTVSPropertyOp11
 70
     1
102
RTVSPropertyOp12
 70
     1
102
RTVSPropertyOp13
 70
     1
102
RTVSPropertyOp14
 70
     1
102
RTVSPropertyOp15
 70
     1
102
RTVSPropertyOp16
 70
     1
102
RTVSPropertyOp17
 70
     1
102
RTVSPropertyOp18
 70
     1
102
RTVSPropertyOp19
 70
     1
102
RTVSPropertyOp20
 70
     1
102
RTVSPropertyOp21
 70
     1
102
RTVSPropertyOp22
 70
     1
102
RTVSPropertyOp23
 70
     1
102
RTVSPropertyOp24
 70
     1
102
RTVSPropertyOp25
 70
     1
102
RTVSPropertyOp26
 70
     1
102
RTVSPropertyOp27
 70
     1
102
RTVSPropertyOp28
 70
     1
102
RTVSPropertyOp29
 70
     1
102
RTVSPropertyOp30
 70
     1
102
RTVSPropertyOp31
 70
     1
102
RTVSPropertyOp32
 70
     1
  0
XRECORD
  5
10E
102
{ACAD_REACTORS
330
10D
102
}
330
10D
100
AcDbXrecord
280
     1
102
RTVSPropertyOp0
 70
     1
102
RTVSPropertyOp1
 70
     1
102
RTVSPropertyOp2
 70
     1
102
RTVSPropertyOp3
 70
     1
102
RTVSPropertyOp4
 70
     1
102
RTVSPropertyOp5
 70
     1
102
RTVSPropertyOp6
 70
     1
102
RTVSPropertyOp7
 70
     1
102
RTVSPropertyOp8
 70
     1
102
RTVSPropertyOp9
 70
     1
102
RTVSPropertyOp10
 70
     1
102
RTVSPropertyOp11
 70
     1
102
RTVSPropertyOp12
 70
     1
102
RTVSPropertyOp13
 70
     1
102
RTVSPropertyOp14
 70
     1
102
RTVSPropertyOp15
 70
     1
102
RTVSPropertyOp16
 70
     1
102
RTVSPropertyOp17
 70
     1
102
RTVSPropertyOp18
 70
     1
102
RTVSPropertyOp19
 70
     1
102
RTVSPropertyOp20
 70
     1
102
RTVSPropertyOp21
 70
     1
102
RTVSPropertyOp22
 70
     1
102
RTVSPropertyOp23
 70
     1
102
RTVSPropertyOp24
 70
     1
102
RTVSPropertyOp25
 70
     1
102
RTVSPropertyOp26
 70
     1
102
RTVSPropertyOp27
 70
     1
102
RTVSPropertyOp28
 70
     1
102
RTVSPropertyOp29
 70
     1
102
RTVSPropertyOp30
 70
     1
102
RTVSPropertyOp31
 70
     1
102
RTVSPropertyOp32
 70
     1
  0
XRECORD
  5
116
102
{ACAD_REACTORS
330
115
102
}
330
115
100
AcDbXrecord
280
     1
102
RTVSPropertyOp0
 70
     1
102
RTVSPropertyOp1
 70
     1
102
RTVSPropertyOp2
 70
     1
102
RTVSPropertyOp3
 70
     1
102
RTVSPropertyOp4
 70
     1
102
RTVSPropertyOp5
 70
     1
102
RTVSPropertyOp6
 70
     1
102
RTVSPropertyOp7
 70
     1
102
RTVSPropertyOp8
 70
     1
102
RTVSPropertyOp9
 70
     1
102
RTVSPropertyOp10
 70
     1
102
RTVSPropertyOp11
 70
     1
102
RTVSPropertyOp12
 70
     1
102
RTVSPropertyOp13
 70
     1
102
RTVSPropertyOp14
 70
     1
102
RTVSPropertyOp15
 70
     1
102
RTVSPropertyOp16
 70
     1
102
RTVSPropertyOp17
 70
     1
102
RTVSPropertyOp18
 70
     1
102
RTVSPropertyOp19
 70
     1
102
RTVSPropertyOp20
 70
     1
102
RTVSPropertyOp21
 70
     1
102
RTVSPropertyOp22
 70
     1
102
RTVSPropertyOp23
 70
     1
102
RTVSPropertyOp24
 70
     1
102
RTVSPropertyOp25
 70
     1
102
RTVSPropertyOp26
 70
     1
102
RTVSPropertyOp27
 70
     1
102
RTVSPropertyOp28
 70
     1
102
RTVSPropertyOp29
 70
     1
102
RTVSPropertyOp30
 70
     1
102
RTVSPropertyOp31
 70
     1
102
RTVSPropertyOp32
 70
     1
  0
XRECORD
  5
10A
102
{ACAD_REACTORS
330
109
102
}
330
109
100
AcDbXrecord
280
     1
102
RTVSPropertyOp0
 70
     1
102
RTVSPropertyOp1
 70
     1
102
RTVSPropertyOp2
 70
     1
102
RTVSPropertyOp3
 70
     1
102
RTVSPropertyOp4
 70
     1
102
RTVSPropertyOp5
 70
     1
102
RTVSPropertyOp6
 70
     1
102
RTVSPropertyOp7
 70
     1
102
RTVSPropertyOp8
 70
     1
102
RTVSPropertyOp9
 70
     1
102
RTVSPropertyOp10
 70
     1
102
RTVSPropertyOp11
 70
     1
102
RTVSPropertyOp12
 70
     1
102
RTVSPropertyOp13
 70
     1
102
RTVSPropertyOp14
 70
     1
102
RTVSPropertyOp15
 70
     1
102
RTVSPropertyOp16
 70
     1
102
RTVSPropertyOp17
 70
     1
102
RTVSPropertyOp18
 70
     1
102
RTVSPropertyOp19
 70
     1
102
RTVSPropertyOp20
 70
     1
102
RTVSPropertyOp21
 70
     1
102
RTVSPropertyOp22
 70
     1
102
RTVSPropertyOp23
 70
     1
102
RTVSPropertyOp24
 70
     1
102
RTVSPropertyOp25
 70
     1
102
RTVSPropertyOp26
 70
     1
102
RTVSPropertyOp27
 70
     1
102
RTVSPropertyOp28
 70
     1
102
RTVSPropertyOp29
 70
     1
102
RTVSPropertyOp30
 70
     1
102
RTVSPropertyOp31
 70
     1
102
RTVSPropertyOp32
 70
     1
  0
XRECORD
  5
10C
102
{ACAD_REACTORS
330
10B
102
}
330
10B
100
AcDbXrecord
280
     1
102
RTVSPropertyOp0
 70
     1
102
RTVSPropertyOp1
 70
     1
102
RTVSPropertyOp2
 70
     1
102
RTVSPropertyOp3
 70
     1
102
RTVSPropertyOp4
 70
     1
102
RTVSPropertyOp5
 70
     1
102
RTVSPropertyOp6
 70
     1
102
RTVSPropertyOp7
 70
     1
102
RTVSPropertyOp8
 70
     1
102
RTVSPropertyOp9
 70
     1
102
RTVSPropertyOp10
 70
     1
102
RTVSPropertyOp11
 70
     1
102
RTVSPropertyOp12
 70
     1
102
RTVSPropertyOp13
 70
     1
102
RTVSPropertyOp14
 70
     1
102
RTVSPropertyOp15
 70
     1
102
RTVSPropertyOp16
 70
     1
102
RTVSPropertyOp17
 70
     1
102
RTVSPropertyOp18
 70
     1
102
RTVSPropertyOp19
 70
     1
102
RTVSPropertyOp20
 70
     1
102
RTVSPropertyOp21
 70
     1
102
RTVSPropertyOp22
 70
     1
102
RTVSPropertyOp23
 70
     1
102
RTVSPropertyOp24
 70
     1
102
RTVSPropertyOp25
 70
     1
102
RTVSPropertyOp26
 70
     1
102
RTVSPropertyOp27
 70
     1
102
RTVSPropertyOp28
 70
     1
102
RTVSPropertyOp29
 70
     1
102
RTVSPropertyOp30
 70
     1
102
RTVSPropertyOp31
 70
     1
102
RTVSPropertyOp32
 70
     1
  0
XRECORD
  5
114
102
{ACAD_REACTORS
330
113
102
}
330
113
100
AcDbXrecord
280
     1
102
RTVSPropertyOp0
 70
     1
102
RTVSPropertyOp1
 70
     1
102
RTVSPropertyOp2
 70
     1
102
RTVSPropertyOp3
 70
     1
102
RTVSPropertyOp4
 70
     1
102
RTVSPropertyOp5
 70
     1
102
RTVSPropertyOp6
 70
     1
102
RTVSPropertyOp7
 70
     1
102
RTVSPropertyOp8
 70
     1
102
RTVSPropertyOp9
 70
     1
102
RTVSPropertyOp10
 70
     1
102
RTVSPropertyOp11
 70
     1
102
RTVSPropertyOp12
 70
     1
102
RTVSPropertyOp13
 70
     1
102
RTVSPropertyOp14
 70
     1
102
RTVSPropertyOp15
 70
     1
102
RTVSPropertyOp16
 70
     1
102
RTVSPropertyOp17
 70
     1
102
RTVSPropertyOp18
 70
     1
102
RTVSPropertyOp19
 70
     1
102
RTVSPropertyOp20
 70
     1
102
RTVSPropertyOp21
 70
     1
102
RTVSPropertyOp22
 70
     1
102
RTVSPropertyOp23
 70
     1
102
RTVSPropertyOp24
 70
     1
102
RTVSPropertyOp25
 70
     1
102
RTVSPropertyOp26
 70
     1
102
RTVSPropertyOp27
 70
     1
102
RTVSPropertyOp28
 70
     1
102
RTVSPropertyOp29
 70
     1
102
RTVSPropertyOp30
 70
     1
102
RTVSPropertyOp31
 70
     1
102
RTVSPropertyOp32
 70
     1
  0
XRECORD
  5
F8
102
{ACAD_REACTORS
330
F7
102
}
330
F7
100
AcDbXrecord
280
     1
102
RTVSPropertyOp0
 70
     1
102
RTVSPropertyOp1
 70
     1
102
RTVSPropertyOp2
 70
     1
102
RTVSPropertyOp3
 70
     1
102
RTVSPropertyOp4
 70
     1
102
RTVSPropertyOp5
 70
     1
102
RTVSPropertyOp6
 70
     1
102
RTVSPropertyOp7
 70
     1
102
RTVSPropertyOp8
 70
     1
102
RTVSPropertyOp9
 70
     1
102
RTVSPropertyOp10
 70
     1
102
RTVSPropertyOp11
 70
     1
102
RTVSPropertyOp12
 70
     1
102
RTVSPropertyOp13
 70
     1
102
RTVSPropertyOp14
 70
     1
102
RTVSPropertyOp15
 70
     1
102
RTVSPropertyOp16
 70
     1
102
RTVSPropertyOp17
 70
     1
102
RTVSPropertyOp18
 70
     1
102
RTVSPropertyOp19
 70
     1
102
RTVSPropertyOp20
 70
     1
102
RTVSPropertyOp21
 70
     1
102
RTVSPropertyOp22
 70
     1
102
RTVSPropertyOp23
 70
     1
102
RTVSPropertyOp24
 70
     1
102
RTVSPropertyOp25
 70
     1
102
RTVSPropertyOp26
 70
     1
102
RTVSPropertyOp27
 70
     1
102
RTVSPropertyOp28
 70
     1
102
RTVSPropertyOp29
 70
     1
102
RTVSPropertyOp30
 70
     1
102
RTVSPropertyOp31
 70
     1
102
RTVSPropertyOp32
 70
     1
  0
XRECORD
  5
FA
102
{ACAD_REACTORS
330
F9
102
}
330
F9
100
AcDbXrecord
280
     1
102
RTVSPropertyOp0
 70
     1
102
RTVSPropertyOp1
 70
     1
102
RTVSPropertyOp2
 70
     1
102
RTVSPropertyOp3
 70
     1
102
RTVSPropertyOp4
 70
     1
102
RTVSPropertyOp5
 70
     1
102
RTVSPropertyOp6
 70
     1
102
RTVSPropertyOp7
 70
     1
102
RTVSPropertyOp8
 70
     1
102
RTVSPropertyOp9
 70
     1
102
RTVSPropertyOp10
 70
     1
102
RTVSPropertyOp11
 70
     1
102
RTVSPropertyOp12
 70
     1
102
RTVSPropertyOp13
 70
     1
102
RTVSPropertyOp14
 70
     1
102
RTVSPropertyOp15
 70
     1
102
RTVSPropertyOp16
 70
     1
102
RTVSPropertyOp17
 70
     1
102
RTVSPropertyOp18
 70
     1
102
RTVSPropertyOp19
 70
     1
102
RTVSPropertyOp20
 70
     1
102
RTVSPropertyOp21
 70
     1
102
RTVSPropertyOp22
 70
     1
102
RTVSPropertyOp23
 70
     1
102
RTVSPropertyOp24
 70
     1
102
RTVSPropertyOp25
 70
     1
102
RTVSPropertyOp26
 70
     1
102
RTVSPropertyOp27
 70
     1
102
RTVSPropertyOp28
 70
     1
102
RTVSPropertyOp29
 70
     1
102
RTVSPropertyOp30
 70
     1
102
RTVSPropertyOp31
 70
     1
102
RTVSPropertyOp32
 70
     1
  0
XRECORD
  5
FC
102
{ACAD_REACTORS
330
FB
102
}
330
FB
100
AcDbXrecord
280
     1
102
RTVSPropertyOp0
 70
     1
102
RTVSPropertyOp1
 70
     1
102
RTVSPropertyOp2
 70
     1
102
RTVSPropertyOp3
 70
     1
102
RTVSPropertyOp4
 70
     1
102
RTVSPropertyOp5
 70
     1
102
RTVSPropertyOp6
 70
     1
102
RTVSPropertyOp7
 70
     1
102
RTVSPropertyOp8
 70
     1
102
RTVSPropertyOp9
 70
     1
102
RTVSPropertyOp10
 70
     1
102
RTVSPropertyOp11
 70
     1
102
RTVSPropertyOp12
 70
     1
102
RTVSPropertyOp13
 70
     1
102
RTVSPropertyOp14
 70
     1
102
RTVSPropertyOp15
 70
     1
102
RTVSPropertyOp16
 70
     1
102
RTVSPropertyOp17
 70
     1
102
RTVSPropertyOp18
 70
     1
102
RTVSPropertyOp19
 70
     1
102
RTVSPropertyOp20
 70
     1
102
RTVSPropertyOp21
 70
     1
102
RTVSPropertyOp22
 70
     1
102
RTVSPropertyOp23
 70
     1
102
RTVSPropertyOp24
 70
     1
102
RTVSPropertyOp25
 70
     1
102
RTVSPropertyOp26
 70
     1
102
RTVSPropertyOp27
 70
     1
102
RTVSPropertyOp28
 70
     1
102
RTVSPropertyOp29
 70
     1
102
RTVSPropertyOp30
 70
     1
102
RTVSPropertyOp31
 70
     1
102
RTVSPropertyOp32
 70
     1
  0
XRECORD
  5
FE
102
{ACAD_REACTORS
330
FD
102
}
330
FD
100
AcDbXrecord
280
     1
102
RTVSPropertyOp0
 70
     1
102
RTVSPropertyOp1
 70
     1
102
RTVSPropertyOp2
 70
     1
102
RTVSPropertyOp3
 70
     1
102
RTVSPropertyOp4
 70
     1
102
RTVSPropertyOp5
 70
     1
102
RTVSPropertyOp6
 70
     1
102
RTVSPropertyOp7
 70
     1
102
RTVSPropertyOp8
 70
     1
102
RTVSPropertyOp9
 70
     1
102
RTVSPropertyOp10
 70
     1
102
RTVSPropertyOp11
 70
     1
102
RTVSPropertyOp12
 70
     1
102
RTVSPropertyOp13
 70
     1
102
RTVSPropertyOp14
 70
     1
102
RTVSPropertyOp15
 70
     1
102
RTVSPropertyOp16
 70
     1
102
RTVSPropertyOp17
 70
     1
102
RTVSPropertyOp18
 70
     1
102
RTVSPropertyOp19
 70
     1
102
RTVSPropertyOp20
 70
     1
102
RTVSPropertyOp21
 70
     1
102
RTVSPropertyOp22
 70
     1
102
RTVSPropertyOp23
 70
     1
102
RTVSPropertyOp24
 70
     1
102
RTVSPropertyOp25
 70
     1
102
RTVSPropertyOp26
 70
     1
102
RTVSPropertyOp27
 70
     1
102
RTVSPropertyOp28
 70
     1
102
RTVSPropertyOp29
 70
     1
102
RTVSPropertyOp30
 70
     1
102
RTVSPropertyOp31
 70
     1
102
RTVSPropertyOp32
 70
     1
  0
XRECORD
  5
112
102
{ACAD_REACTORS
330
111
102
}
330
111
100
AcDbXrecord
280
     1
102
RTVSPropertyOp0
 70
     1
102
RTVSPropertyOp1
 70
     1
102
RTVSPropertyOp2
 70
     1
102
RTVSPropertyOp3
 70
     1
102
RTVSPropertyOp4
 70
     1
102
RTVSPropertyOp5
 70
     1
102
RTVSPropertyOp6
 70
     1
102
RTVSPropertyOp7
 70
     1
102
RTVSPropertyOp8
 70
     1
102
RTVSPropertyOp9
 70
     1
102
RTVSPropertyOp10
 70
     1
102
RTVSPropertyOp11
 70
     1
102
RTVSPropertyOp12
 70
     1
102
RTVSPropertyOp13
 70
     1
102
RTVSPropertyOp14
 70
     1
102
RTVSPropertyOp15
 70
     1
102
RTVSPropertyOp16
 70
     1
102
RTVSPropertyOp17
 70
     1
102
RTVSPropertyOp18
 70
     1
102
RTVSPropertyOp19
 70
     1
102
RTVSPropertyOp20
 70
     1
102
RTVSPropertyOp21
 70
     1
102
RTVSPropertyOp22
 70
     1
102
RTVSPropertyOp23
 70
     1
102
RTVSPropertyOp24
 70
     1
102
RTVSPropertyOp25
 70
     1
102
RTVSPropertyOp26
 70
     1
102
RTVSPropertyOp27
 70
     1
102
RTVSPropertyOp28
 70
     1
102
RTVSPropertyOp29
 70
     1
102
RTVSPropertyOp30
 70
     1
102
RTVSPropertyOp31
 70
     1
102
RTVSPropertyOp32
 70
     1
  0
XRECORD
  5
108
102
{ACAD_REACTORS
330
107
102
}
330
107
100
AcDbXrecord
280
     1
102
RTVSPropertyOp0
 70
     1
102
RTVSPropertyOp1
 70
     1
102
RTVSPropertyOp2
 70
     1
102
RTVSPropertyOp3
 70
     1
102
RTVSPropertyOp4
 70
     1
102
RTVSPropertyOp5
 70
     1
102
RTVSPropertyOp6
 70
     1
102
RTVSPropertyOp7
 70
     1
102
RTVSPropertyOp8
 70
     1
102
RTVSPropertyOp9
 70
     1
102
RTVSPropertyOp10
 70
     1
102
RTVSPropertyOp11
 70
     1
102
RTVSPropertyOp12
 70
     1
102
RTVSPropertyOp13
 70
     1
102
RTVSPropertyOp14
 70
     1
102
RTVSPropertyOp15
 70
     1
102
RTVSPropertyOp16
 70
     1
102
RTVSPropertyOp17
 70
     1
102
RTVSPropertyOp18
 70
     1
102
RTVSPropertyOp19
 70
     1
102
RTVSPropertyOp20
 70
     1
102
RTVSPropertyOp21
 70
     1
102
RTVSPropertyOp22
 70
     1
102
RTVSPropertyOp23
 70
     1
102
RTVSPropertyOp24
 70
     1
102
RTVSPropertyOp25
 70
     1
102
RTVSPropertyOp26
 70
     1
102
RTVSPropertyOp27
 70
     1
102
RTVSPropertyOp28
 70
     1
102
RTVSPropertyOp29
 70
     1
102
RTVSPropertyOp30
 70
     1
102
RTVSPropertyOp31
 70
     1
102
RTVSPropertyOp32
 70
     1
  0
XRECORD
  5
110
102
{ACAD_REACTORS
330
10F
102
}
330
10F
100
AcDbXrecord
280
     1
102
RTVSPropertyOp0
 70
     1
102
RTVSPropertyOp1
 70
     1
102
RTVSPropertyOp2
 70
     1
102
RTVSPropertyOp3
 70
     1
102
RTVSPropertyOp4
 70
     1
102
RTVSPropertyOp5
 70
     1
102
RTVSPropertyOp6
 70
     1
102
RTVSPropertyOp7
 70
     1
102
RTVSPropertyOp8
 70
     1
102
RTVSPropertyOp9
 70
     1
102
RTVSPropertyOp10
 70
     1
102
RTVSPropertyOp11
 70
     1
102
RTVSPropertyOp12
 70
     1
102
RTVSPropertyOp13
 70
     1
102
RTVSPropertyOp14
 70
     1
102
RTVSPropertyOp15
 70
     1
102
RTVSPropertyOp16
 70
     1
102
RTVSPropertyOp17
 70
     1
102
RTVSPropertyOp18
 70
     1
102
RTVSPropertyOp19
 70
     1
102
RTVSPropertyOp20
 70
     1
102
RTVSPropertyOp21
 70
     1
102
RTVSPropertyOp22
 70
     1
102
RTVSPropertyOp23
 70
     1
102
RTVSPropertyOp24
 70
     1
102
RTVSPropertyOp25
 70
     1
102
RTVSPropertyOp26
 70
     1
102
RTVSPropertyOp27
 70
     1
102
RTVSPropertyOp28
 70
     1
102
RTVSPropertyOp29
 70
     1
102
RTVSPropertyOp30
 70
     1
102
RTVSPropertyOp31
 70
     1
102
RTVSPropertyOp32
 70
     1
  0
ENDSEC
  0
EOF
