  0
SECTION
  2
HEADER
  9
$ACADVER
  1
AC1021
  9
$ACADMAINTVER
 70
    25
  9
$DWGCODEPAGE
  3
ANSI_1252
  9
$INSBASE
 10
0.0
 20
0.0
 30
0.0
  9
$EXTMIN
 10
-187.3277
 20
-115.4061
 30
0.0
  9
$EXTMAX
 10
196.4149
 20
131.7999
 30
0.0
  9
$LIMMIN
 10
0.0
 20
0.0
  9
$LIMMAX
 10
12.0
 20
9.0
  9
$ORTHOMODE
 70
     0
  9
$REGENMODE
 70
     1
  9
$FILLMODE
 70
     1
  9
$QTEXTMODE
 70
     0
  9
$MIRRTEXT
 70
     1
  9
$LTSCALE
 40
1.0
  9
$ATTMODE
 70
     1
  9
$TEXTSIZE
 40
0.2
  9
$TRACEWID
 40
0.05
  9
$TEXTSTYLE
  7
Standard
  9
$CLAYER
  8
0
  9
$CELTYPE
  6
ByLayer
  9
$CECOLOR
 62
   256
  9
$CELTSCALE
 40
1.0
  9
$DISPSILH
 70
     0
  9
$DIMSCALE
 40
1.0
  9
$DIMASZ
 40
0.18
  9
$DIMEXO
 40
0.0625
  9
$DIMDLI
 40
0.38
  9
$DIMRND
 40
0.0
  9
$DIMDLE
 40
0.0
  9
$DIMEXE
 40
0.18
  9
$DIMTP
 40
0.0
  9
$DIMTM
 40
0.0
  9
$DIMTXT
 40
0.18
  9
$DIMCEN
 40
0.09
  9
$DIMTSZ
 40
0.0
  9
$DIMTOL
 70
     0
  9
$DIMLIM
 70
     0
  9
$DIMTIH
 70
     1
  9
$DIMTOH
 70
     1
  9
$DIMSE1
 70
     0
  9
$DIMSE2
 70
     0
  9
$DIMTAD
 70
     0
  9
$DIMZIN
 70
     0
  9
$DIMBLK
  1

  9
$DIMASO
 70
     1
  9
$DIMSHO
 70
     1
  9
$DIMPOST
  1

  9
$DIMAPOST
  1

  9
$DIMALT
 70
     0
  9
$DIMALTD
 70
     2
  9
$DIMALTF
 40
25.4
  9
$DIMLFAC
 40
1.0
  9
$DIMTOFL
 70
     0
  9
$DIMTVP
 40
0.0
  9
$DIMTIX
 70
     0
  9
$DIMSOXD
 70
     0
  9
$DIMSAH
 70
     0
  9
$DIMBLK1
  1

  9
$DIMBLK2
  1

  9
$DIMSTYLE
  2
Standard
  9
$DIMCLRD
 70
     0
  9
$DIMCLRE
 70
     0
  9
$DIMCLRT
 70
     0
  9
$DIMTFAC
 40
1.0
  9
$DIMGAP
 40
0.09
  9
$DIMJUST
 70
     0
  9
$DIMSD1
 70
     0
  9
$DIMSD2
 70
     0
  9
$DIMTOLJ
 70
     1
  9
$DIMTZIN
 70
     0
  9
$DIMALTZ
 70
     0
  9
$DIMALTTZ
 70
     0
  9
$DIMUPT
 70
     0
  9
$DIMDEC
 70
     4
  9
$DIMTDEC
 70
     4
  9
$DIMALTU
 70
     2
  9
$DIMALTTD
 70
     2
  9
$DIMTXSTY
  7
Standard
  9
$DIMAUNIT
 70
     0
  9
$DIMADEC
 70
     0
  9
$DIMALTRND
 40
0.0
  9
$DIMAZIN
 70
     0
  9
$DIMDSEP
 70
    46
  9
$DIMATFIT
 70
     3
  9
$DIMFRAC
 70
     0
  9
$DIMLDRBLK
  1

  9
$DIMLUNIT
 70
     2
  9
$DIMLWD
 70
    -2
  9
$DIMLWE
 70
    -2
  9
$DIMTMOVE
 70
     0
  9
$DIMFXL
 40
1.0
  9
$DIMFXLON
 70
     0
  9
$DIMJOGANG
 40
0.7853981633974483
  9
$DIMTFILL
 70
     0
  9
$DIMTFILLCLR
 70
     0
  9
$DIMARCSYM
 70
     0
  9
$DIMLTYPE
  6

  9
$DIMLTEX1
  6

  9
$DIMLTEX2
  6

  9
$LUNITS
 70
     2
  9
$LUPREC
 70
     4
  9
$SKETCHINC
 40
0.1
  9
$FILLETRAD
 40
0.5
  9
$AUNITS
 70
     0
  9
$AUPREC
 70
     0
  9
$MENU
  1
.
  9
$ELEVATION
 40
0.0
  9
$PELEVATION
 40
0.0
  9
$THICKNESS
 40
0.0
  9
$LIMCHECK
 70
     0
  9
$CHAMFERA
 40
0.5
  9
$CHAMFERB
 40
0.5
  9
$CHAMFERC
 40
1.0
  9
$CHAMFERD
 40
0.0
  9
$SKPOLY
 70
     0
  9
$TDCREATE
 40
2458492.846102569
  9
$TDUCREATE
 40
2458492.846102569
  9
$TDUPDATE
 40
2458492.846116354
  9
$TDUUPDATE
 40
2458492.846116354
  9
$TDINDWG
 40
0.0000000116
  9
$TDUSRTIMER
 40
0.0000000116
  9
$USRTIMER
 70
     1
  9
$ANGBASE
 50
0.0
  9
$ANGDIR
 70
     0
  9
$PDMODE
 70
     0
  9
$PDSIZE
 40
0.0
  9
$PLINEWID
 40
0.0
  9
$SPLFRAME
 70
     0
  9
$SPLINETYPE
 70
     6
  9
$SPLINESEGS
 70
     8
  9
$HANDSEED
  5
17E
  9
$SURFTAB1
 70
     6
  9
$SURFTAB2
 70
     6
  9
$SURFTYPE
 70
     6
  9
$SURFU
 70
     6
  9
$SURFV
 70
     6
  9
$UCSBASE
  2

  9
$UCSNAME
  2

  9
$UCSORG
 10
0.0
 20
0.0
 30
0.0
  9
$UCSXDIR
 10
1.0
 20
0.0
 30
0.0
  9
$UCSYDIR
 10
0.0
 20
1.0
 30
0.0
  9
$UCSORTHOREF
  2

  9
$UCSORTHOVIEW
 70
     0
  9
$UCSORGTOP
 10
0.0
 20
0.0
 30
0.0
  9
$UCSORGBOTTOM
 10
0.0
 20
0.0
 30
0.0
  9
$UCSORGLEFT
 10
0.0
 20
0.0
 30
0.0
  9
$UCSORGRIGHT
 10
0.0
 20
0.0
 30
0.0
  9
$UCSORGFRONT
 10
0.0
 20
0.0
 30
0.0
  9
$UCSORGBACK
 10
0.0
 20
0.0
 30
0.0
  9
$PUCSBASE
  2

  9
$PUCSNAME
  2

  9
$PUCSORG
 10
0.0
 20
0.0
 30
0.0
  9
$PUCSXDIR
 10
1.0
 20
0.0
 30
0.0
  9
$PUCSYDIR
 10
0.0
 20
1.0
 30
0.0
  9
$PUCSORTHOREF
  2

  9
$PUCSORTHOVIEW
 70
     0
  9
$PUCSORGTOP
 10
0.0
 20
0.0
 30
0.0
  9
$PUCSORGBOTTOM
 10
0.0
 20
0.0
 30
0.0
  9
$PUCSORGLEFT
 10
0.0
 20
0.0
 30
0.0
  9
$PUCSORGRIGHT
 10
0.0
 20
0.0
 30
0.0
  9
$PUCSORGFRONT
 10
0.0
 20
0.0
 30
0.0
  9
$PUCSORGBACK
 10
0.0
 20
0.0
 30
0.0
  9
$USERI1
 70
     0
  9
$USERI2
 70
     0
  9
$USERI3
 70
     0
  9
$USERI4
 70
     0
  9
$USERI5
 70
     0
  9
$USERR1
 40
0.0
  9
$USERR2
 40
0.0
  9
$USERR3
 40
0.0
  9
$USERR4
 40
0.0
  9
$USERR5
 40
0.0
  9
$WORLDVIEW
 70
     1
  9
$SHADEDGE
 70
     3
  9
$SHADEDIF
 70
    70
  9
$TILEMODE
 70
     1
  9
$MAXACTVP
 70
    64
  9
$PINSBASE
 10
0.0
 20
0.0
 30
0.0
  9
$PLIMCHECK
 70
     0
  9
$PEXTMIN
 10
1.000000000000000E+20
 20
1.000000000000000E+20
 30
1.000000000000000E+20
  9
$PEXTMAX
 10
-1.000000000000000E+20
 20
-1.000000000000000E+20
 30
-1.000000000000000E+20
  9
$PLIMMIN
 10
0.0
 20
0.0
  9
$PLIMMAX
 10
12.0
 20
9.0
  9
$UNITMODE
 70
     0
  9
$VISRETAIN
 70
     1
  9
$PLINEGEN
 70
     0
  9
$PSLTSCALE
 70
     1
  9
$TREEDEPTH
 70
  3020
  9
$CMLSTYLE
  2
Standard
  9
$CMLJUST
 70
     0
  9
$CMLSCALE
 40
1.0
  9
$PROXYGRAPHICS
 70
     1
  9
$MEASUREMENT
 70
     0
  9
$CELWEIGHT
370
    -1
  9
$ENDCAPS
280
     0
  9
$JOINSTYLE
280
     0
  9
$LWDISPLAY
290
     0
  9
$INSUNITS
 70
     4
  9
$HYPERLINKBASE
  1

  9
$STYLESHEET
  1

  9
$XEDIT
290
     1
  9
$CEPSNTYPE
380
     0
  9
$PSTYLEMODE
290
     1
  9
$FINGERPRINTGUID
  2
{14E70F01-5CDD-4668-9380-F65C6A6981AB}
  9
$VERSIONGUID
  2
{FAEB1C32-E019-11D5-929B-00C0DF256EC4}
  9
$EXTNAMES
290
     1
  9
$PSVPSCALE
 40
0.0
  9
$OLESTARTUP
290
     0
  9
$SORTENTS
280
   127
  9
$INDEXCTL
280
     0
  9
$HIDETEXT
280
     1
  9
$XCLIPFRAME
290
     0
  9
$HALOGAP
280
     0
  9
$OBSCOLOR
 70
   257
  9
$OBSLTYPE
280
     0
  9
$INTERSECTIONDISPLAY
280
     0
  9
$INTERSECTIONCOLOR
 70
   257
  9
$DIMASSOC
280
     2
  9
$PROJECTNAME
  1

  9
$CAMERADISPLAY
290
     0
  9
$LENSLENGTH
 40
50.0
  9
$CAMERAHEIGHT
 40
0.0
  9
$STEPSPERSEC
 40
2.0
  9
$STEPSIZE
 40
6.0
  9
$3DDWFPREC
 40
2.0
  9
$PSOLWIDTH
 40
0.25
  9
$PSOLHEIGHT
 40
4.0
  9
$LOFTANG1
 40
1.570796326794897
  9
$LOFTANG2
 40
1.570796326794897
  9
$LOFTMAG1
 40
0.0
  9
$LOFTMAG2
 40
0.0
  9
$LOFTPARAM
 70
     7
  9
$LOFTNORMALS
280
     1
  9
$LATITUDE
 40
37.795
  9
$LONGITUDE
 40
-122.394
  9
$NORTHDIRECTION
 40
0.0
  9
$TIMEZONE
 70
 -8000
  9
$LIGHTGLYPHDISPLAY
280
     1
  9
$TILEMODELIGHTSYNCH
280
     1
  9
$SOLIDHIST
280
     1
  9
$SHOWHIST
280
     1
  9
$DWFFRAME
280
     2
  9
$DGNFRAME
280
     2
  9
$REALWORLDSCALE
290
     1
  9
$INTERFERECOLOR
 62
   256
  9
$CSHADOW
280
     0
  9
$SHADOWPLANELOCATION
 40
0.0
  0
ENDSEC
  0
SECTION
  2
CLASSES
  0
CLASS
  1
ACDBDICTIONARYWDFLT
  2
AcDbDictionaryWithDefault
  3
ObjectDBX Classes
 90
        0
 91
        4
280
     0
281
     0
  0
CLASS
  1
VISUALSTYLE
  2
AcDbVisualStyle
  3
ObjectDBX Classes
 90
     4095
 91
        4
280
     0
281
     0
  0
CLASS
  1
MATERIAL
  2
AcDbMaterial
  3
ObjectDBX Classes
 90
     1153
 91
        4
280
     0
281
     0
  0
CLASS
  1
IMAGEDEF
  2
AcDbRasterImageDef
  3
ISM
 90
        0
 91
        4
280
     0
281
     0
  0
CLASS
  1
IMAGE
  2
AcDbRasterImage
  3
ISM
 90
      127
 91
        5
280
     0
281
     1
  0
CLASS
  1
IMAGEDEF_REACTOR
  2
AcDbRasterImageDefReactor
  3
ISM
 90
        1
 91
        4
280
     0
281
     0
  0
ENDSEC
  0
SECTION
  2
TABLES
  0
TABLE
  2
VPORT
  5
8
330
0
100
AcDbSymbolTable
 70
     1
  0
VPORT
  5
29
330
8
100
AcDbSymbolTableRecord
100
AcDbViewportTableRecord
  2
*Active
 70
     0
 10
0.0
 20
0.0
 11
1.0
 21
1.0
 12
10.42990654205607
 22
4.5
 13
0.0
 23
0.0
 14
0.5
 24
0.5
 15
0.5
 25
0.5
 16
0.0
 26
0.0
 36
1.0
 17
0.0
 27
0.0
 37
0.0
 40
9.0
 41
1.972972972850329
 42
50.0
 43
0.0
 44
0.0
 50
0.0
 51
0.0
 71
     0
 72
   100
 73
     1
 74
     3
 75
     0
 76
     0
 77
     0
 78
     0
281
     0
 65
     1
110
0.0
120
0.0
130
0.0
111
1.0
121
0.0
131
0.0
112
0.0
122
1.0
132
0.0
 79
     0
146
0.0
 60
     3
 61
     5
292
     1
282
     1
141
0.0
142
0.0
 63
   250
  0
ENDTAB
  0
TABLE
  2
LTYPE
  5
5
330
0
100
AcDbSymbolTable
 70
     1
  0
LTYPE
  5
14
330
5
100
AcDbSymbolTableRecord
100
AcDbLinetypeTableRecord
  2
ByBlock
 70
     0
  3

 72
    65
 73
     0
 40
0.0
  0
LTYPE
  5
15
330
5
100
AcDbSymbolTableRecord
100
AcDbLinetypeTableRecord
  2
ByLayer
 70
     0
  3

 72
    65
 73
     0
 40
0.0
  0
LTYPE
  5
16
330
5
100
AcDbSymbolTableRecord
100
AcDbLinetypeTableRecord
  2
Continuous
 70
     0
  3
Solid line
 72
    65
 73
     0
 40
0.0
  0
ENDTAB
  0
TABLE
  2
LAYER
  5
2
330
0
100
AcDbSymbolTable
 70
     2
  0
LAYER
  5
10
330
2
100
AcDbSymbolTableRecord
100
AcDbLayerTableRecord
  2
0
 70
     0
 62
     7
  6
Continuous
370
    -3
390
F
347
3E
  0
LAYER
  5
40
330
2
100
AcDbSymbolTableRecord
100
AcDbLayerTableRecord
  2
layer 1
 70
     0
 62
     7
  6
Continuous
370
    -3
390
F
347
3E
  0
ENDTAB
  0
TABLE
  2
STYLE
  5
3
330
0
100
AcDbSymbolTable
 70
     1
  0
STYLE
  5
11
330
3
100
AcDbSymbolTableRecord
100
AcDbTextStyleTableRecord
  2
Standard
 70
     0
 40
0.0
 41
1.0
 50
0.0
 71
     0
 42
0.2
  3
txt
  4

  0
ENDTAB
  0
TABLE
  2
VIEW
  5
6
330
0
100
AcDbSymbolTable
 70
     0
  0
ENDTAB
  0
TABLE
  2
UCS
  5
7
330
0
100
AcDbSymbolTable
 70
     0
  0
ENDTAB
  0
TABLE
  2
APPID
  5
9
330
0
100
AcDbSymbolTable
 70
     2
  0
APPID
  5
12
330
9
100
AcDbSymbolTableRecord
100
AcDbRegAppTableRecord
  2
ACAD
 70
     0
  0
APPID
  5
3F
330
9
100
AcDbSymbolTableRecord
100
AcDbRegAppTableRecord
  2
ODA
 70
     0
  0
ENDTAB
  0
TABLE
  2
DIMSTYLE
  5
A
330
0
100
AcDbSymbolTable
 70
     1
100
AcDbDimStyleTable
  0
DIMSTYLE
105
27
330
A
100
AcDbSymbolTableRecord
100
AcDbDimStyleTableRecord
  2
Standard
 70
     0
178
     0
340
11
  0
ENDTAB
  0
TABLE
  2
BLOCK_RECORD
  5
1
330
0
100
AcDbSymbolTable
 70
     1
  0
BLOCK_RECORD
  5
1F
330
1
100
AcDbSymbolTableRecord
100
AcDbBlockTableRecord
  2
*Model_Space
340
22
 70
     0
280
     1
281
     0
  0
BLOCK_RECORD
  5
1B
330
1
100
AcDbSymbolTableRecord
100
AcDbBlockTableRecord
  2
*Paper_Space
340
1E
 70
     0
280
     1
281
     0
  0
BLOCK_RECORD
  5
23
330
1
100
AcDbSymbolTableRecord
100
AcDbBlockTableRecord
  2
*Paper_Space0
340
26
 70
     0
280
     1
281
     0
  0
ENDTAB
  0
ENDSEC
  0
SECTION
  2
BLOCKS
  0
BLOCK
  5
20
330
1F
100
AcDbEntity
  8
0
100
AcDbBlockBegin
  2
*Model_Space
 70
     0
 10
0.0
 20
0.0
 30
0.0
  3
*Model_Space
  1

  0
ENDBLK
  5
21
330
1F
100
AcDbEntity
  8
0
100
AcDbBlockEnd
  0
BLOCK
  5
1C
330
1B
100
AcDbEntity
 67
     1
  8
0
100
AcDbBlockBegin
  2
*Paper_Space
 70
     0
 10
0.0
 20
0.0
 30
0.0
  3
*Paper_Space
  1

  0
ENDBLK
  5
1D
330
1B
100
AcDbEntity
 67
     1
  8
0
100
AcDbBlockEnd
  0
BLOCK
  5
24
330
23
100
AcDbEntity
  8
0
100
AcDbBlockBegin
  2
*Paper_Space0
 70
     0
 10
0.0
 20
0.0
 30
0.0
  3
*Paper_Space0
  1

  0
ENDBLK
  5
25
330
23
100
AcDbEntity
  8
0
100
AcDbBlockEnd
  0
ENDSEC
  0
SECTION
  2
ENTITIES
  0
LWPOLYLINE
  5
41
330
1F
100
AcDbEntity
  8
layer 1
 62
   250
370
     9
100
AcDbPolyline
 90
        5
 70
     1
 43
0.0
 10
-187.2896
 20
-115.0092
 10
-98.4034
 20
-115.0092
 10
-98.4034
 20
131.7618
 10
-187.2896
 20
131.7618
 10
-187.2896
 20
-115.0092
  0
IMAGE
  5
44
330
1F
100
AcDbEntity
  8
layer 1
 62
   250
 92
      140
310
8C000000010000008400000006000000050000006A4DF38E539666C0A0ABADD85FBA554000000000000000006A4DF38E53D661C0A0ABADD85FBA554000000000000000006A4DF38E53D661C011C8744A7C615F4000000000000000006A4DF38E539666C011C8744A7C615F4000000000000000006A4DF38E539666C0A0ABAD
310
D85FBA55400000000000000000
100
AcDbRasterImage
 90
        0
 10
-180.6977
 20
86.9121
 30
0.0
 11
0.01388888888888889
 21
0.0
 31
0.0
 12
0.0
 22
0.01388888888888889
 32
0.0
 13
2736.0
 23
2780.0
340
43
 70
     3
280
     1
281
    50
282
    50
283
     0
360
45
 71
     1
 91
        2
 14
-180.6977
 24
86.9121
 14
-142.6866
 24
125.5325
  0
IMAGE
  5
47
330
1F
100
AcDbEntity
  8
layer 1
 62
   250
 92
      140
310
8C000000010000008400000006000000050000006A4DF38E539666C04F1E166A4D57534000000000000000004D8681728C9862C04F1E166A4D57534000000000000000004D8681728C9862C0DD014FF830985A4000000000000000006A4DF38E539666C0DD014FF830985A4000000000000000006A4DF38E539666C04F1E16
310
6A4D5753400000000000000000
100
AcDbRasterImage
 90
        0
 10
-180.6977
 20
77.3641
 30
0.0
 11
0.01388888888888889
 21
0.0
 31
0.0
 12
0.0
 22
0.01388888888888889
 32
0.0
 13
2299.0
 23
2089.0
340
46
 70
     3
280
     1
281
    50
282
    50
283
     0
360
48
 71
     1
 91
        2
 14
-180.6977
 24
77.3641
 14
-148.7634
 24
106.3853
  0
IMAGE
  5
4A
330
1F
100
AcDbEntity
  8
layer 1
 62
   250
 92
      140
310
8C00000001000000840000000600000005000000ED9E3C2CD46A65C0B81E85EB51D04C400000000000000000252D2065623662C0B81E85EB51D04C400000000000000000252D2065623662C03FC850D961A654400000000000000000ED9E3C2CD46A65C03FC850D961A654400000000000000000ED9E3C2CD46A65C0B81E85
310
EB51D04C400000000000000000
100
AcDbRasterImage
 90
        0
 10
-171.3384
 20
57.6275
 30
0.0
 11
0.01388888888888889
 21
0.0
 31
0.0
 12
0.0
 22
0.01388888888888889
 32
0.0
 13
1846.0
 23
1798.0
340
49
 70
     3
280
     1
281
    50
282
    50
283
     0
360
4B
 71
     1
 91
        2
 14
-171.3384
 24
57.6275
 14
-145.6938
 24
82.6048
  0
IMAGE
  5
4D
330
1F
100
AcDbEntity
  8
layer 1
 62
   250
 92
      140
310
8C00000001000000840000000600000005000000B30C71AC8B9766C0F41FD26F5F472A4000000000000000002429381EA8DA63C0F41FD26F5F472A4000000000000000002429381EA8DA63C0FE43FAEDEB9052400000000000000000B30C71AC8B9766C0FE43FAEDEB9052400000000000000000B30C71AC8B9766C0F41FD2
310
6F5F472A400000000000000000
100
AcDbRasterImage
 90
        0
 10
-180.7358
 20
13.1394
 30
0.0
 11
0.01388888888888889
 21
0.0
 31
0.0
 12
0.0
 22
0.01388888888888889
 32
0.0
 13
1577.0
 23
4401.0
340
4C
 70
     3
280
     1
281
    50
282
    50
283
     0
360
4E
 71
     1
 91
        2
 14
-180.7358
 24
13.1394
 14
-158.8293
 24
74.2752
  0
IMAGE
  5
50
330
1F
100
AcDbEntity
  8
layer 1
 62
   250
 92
      140
310
8C000000010000008400000006000000050000002FDD2406811D65C03155302AA993274000000000000000002FDD2406816962C03155302AA993274000000000000000002FDD2406816962C0982A1895D4693B4000000000000000002FDD2406811D65C0982A1895D4693B4000000000000000002FDD2406811D65C0315530
310
2AA99327400000000000000000
100
AcDbRasterImage
 90
        0
 10
-168.922
 20
11.7884
 30
0.0
 11
0.01388888888888889
 21
0.0
 31
0.0
 12
0.0
 22
0.01388888888888889
 32
0.0
 13
1557.0
 23
1125.0
340
4F
 70
     3
280
     1
281
    50
282
    50
283
     0
360
51
 71
     1
 91
        2
 14
-168.922
 24
11.7884
 14
-147.2943
 24
27.4152
  0
IMAGE
  5
53
330
1F
100
AcDbEntity
  8
layer 1
 62
   250
 92
      140
310
8C0000000100000084000000060000000500000095D4096822F063C0D0D556EC2FF34040000000000000000006F1D0D93E7763C0D0D556EC2FF34040000000000000000006F1D0D93E7763C009643A25BED64240000000000000000095D4096822F063C009643A25BED64240000000000000000095D4096822F063C0D0D556
310
EC2FF340400000000000000000
100
AcDbRasterImage
 90
        0
 10
-159.5042
 20
33.8999
 30
0.0
 11
0.01388888888888889
 21
0.0
 31
0.0
 12
0.0
 22
0.01388888888888889
 32
0.0
 13
272.0
 23
272.0
340
52
 70
     3
280
     1
281
    50
282
    50
283
     0
360
54
 71
     1
 91
        2
 14
-159.5042
 24
33.8999
 14
-155.724
 24
37.6799
  0
IMAGE
  5
56
330
1F
100
AcDbEntity
  8
layer 1
 62
   250
 92
      140
310
8C00000001000000840000000600000005000000E0BE0E9C33E061C0A0ABADD85FBA55400000000000000000BF7D1D3867405AC0A0ABADD85FBA55400000000000000000BF7D1D3867405AC011C8744A7C615F400000000000000000E0BE0E9C33E061C011C8744A7C615F400000000000000000E0BE0E9C33E061C0A0ABAD
310
D85FBA55400000000000000000
100
AcDbRasterImage
 90
        0
 10
-143.0063
 20
86.9121
 30
0.0
 11
0.01388888888888889
 21
0.0
 31
0.0
 12
0.0
 22
0.01388888888888889
 32
0.0
 13
2736.0
 23
2780.0
340
55
 70
     3
280
     1
281
    50
282
    50
283
     0
360
57
 71
     1
 91
        2
 14
-143.0063
 24
86.9121
 14
-104.9952
 24
125.5325
  0
IMAGE
  5
59
330
1F
100
AcDbEntity
  8
layer 1
 62
   250
 92
      140
310
8C0000000100000084000000060000000500000039B4C876BE1D61C04F1E166A4D575340000000000000000038DAADB4EE3F5AC04F1E166A4D575340000000000000000038DAADB4EE3F5AC0DD014FF830985A40000000000000000039B4C876BE1D61C0DD014FF830985A40000000000000000039B4C876BE1D61C04F1E16
310
6A4D5753400000000000000000
100
AcDbRasterImage
 90
        0
 10
-136.9295
 20
77.3641
 30
0.0
 11
0.01388888888888889
 21
0.0
 31
0.0
 12
0.0
 22
0.01388888888888889
 32
0.0
 13
2299.0
 23
2089.0
340
58
 70
     3
280
     1
281
    50
282
    50
283
     0
360
5A
 71
     1
 91
        2
 14
-136.9295
 24
77.3641
 14
-104.9952
 24
106.3853
  0
IMAGE
  5
5C
330
1F
100
AcDbEntity
  8
layer 1
 62
   250
 92
      140
310
8C00000001000000840000000600000005000000E02D90A0F87F61C0B81E85EB51D04C4000000000000000003178E7B20D975CC0B81E85EB51D04C4000000000000000003178E7B20D975CC03FC850D961A654400000000000000000E02D90A0F87F61C03FC850D961A654400000000000000000E02D90A0F87F61C0B81E85
310
EB51D04C400000000000000000
100
AcDbRasterImage
 90
        0
 10
-139.9991
 20
57.6275
 30
0.0
 11
0.01388888888888889
 21
0.0
 31
0.0
 12
0.0
 22
0.01388888888888889
 32
0.0
 13
1846.0
 23
1798.0
340
5B
 70
     3
280
     1
281
    50
282
    50
283
     0
360
5D
 71
     1
 91
        2
 14
-139.9991
 24
57.6275
 14
-114.3544
 24
82.6048
  0
IMAGE
  5
5F
330
1F
100
AcDbEntity
  8
layer 1
 62
   250
 92
      140
310
8C000000010000008400000006000000050000002506819543B75FC0F41FD26F5F472A400000000000000000083F0F797C3D5AC0F41FD26F5F472A400000000000000000083F0F797C3D5AC0FE43FAEDEB90524000000000000000002506819543B75FC0FE43FAEDEB90524000000000000000002506819543B75FC0F41FD2
310
6F5F472A400000000000000000
100
AcDbRasterImage
 90
        0
 10
-126.8635
 20
13.1394
 30
0.0
 11
0.01388888888888889
 21
0.0
 31
0.0
 12
0.0
 22
0.01388888888888889
 32
0.0
 13
1577.0
 23
4401.0
340
5E
 70
     3
280
     1
281
    50
282
    50
283
     0
360
60
 71
     1
 91
        2
 14
-126.8635
 24
13.1394
 14
-104.9571
 24
74.2752
  0
IMAGE
  5
62
330
1F
100
AcDbEntity
  8
layer 1
 62
   250
 92
      140
310
8C00000001000000840000000600000005000000986E1283C04C61C03155302AA993274000000000000000002FDD240681315DC03155302AA993274000000000000000002FDD240681315DC0982A1895D4693B400000000000000000986E1283C04C61C0982A1895D4693B400000000000000000986E1283C04C61C0315530
310
2AA99327400000000000000000
100
AcDbRasterImage
 90
        0
 10
-138.3985
 20
11.7884
 30
0.0
 11
0.01388888888888889
 21
0.0
 31
0.0
 12
0.0
 22
0.01388888888888889
 32
0.0
 13
1557.0
 23
1125.0
340
61
 70
     3
280
     1
281
    50
282
    50
283
     0
360
63
 71
     1
 91
        2
 14
-138.3985
 24
11.7884
 14
-116.7709
 24
27.4152
  0
IMAGE
  5
65
330
1F
100
AcDbEntity
  8
layer 1
 62
   250
 92
      140
310
8C0000000100000084000000060000000500000005A3923A013F60C0D0D556EC2FF340400000000000000000ED7EB3583B8C5FC0D0D556EC2FF340400000000000000000ED7EB3583B8C5FC009643A25BED64240000000000000000005A3923A013F60C009643A25BED64240000000000000000005A3923A013F60C0D0D556
310
EC2FF340400000000000000000
100
AcDbRasterImage
 90
        0
 10
-129.9689
 20
33.8999
 30
0.0
 11
0.01388888888888889
 21
0.0
 31
0.0
 12
0.0
 22
0.01388888888888889
 32
0.0
 13
272.0
 23
272.0
340
64
 70
     3
280
     1
281
    50
282
    50
283
     0
360
66
 71
     1
 91
        2
 14
-129.9689
 24
33.8999
 14
-126.1887
 24
37.6799
  0
IMAGE
  5
68
330
1F
100
AcDbEntity
  8
layer 1
 62
   250
 92
      140
310
8C00000001000000840000000600000005000000302AA913D09E62C0C6FEB27BF29032400000000000000000BE0DE2A1B31761C0C6FEB27BF29032400000000000000000BE0DE2A1B31761C02AF1F504EB544E400000000000000000302AA913D09E62C02AF1F504EB544E400000000000000000302AA913D09E62C0C6FEB2
310
7BF29032400000000000000000
100
AcDbRasterImage
 90
        0
 10
-148.9629
 20
18.5662
 30
0.0
 11
0.01388888888888889
 21
0.0
 31
0.0
 12
0.0
 22
0.01388888888888889
 32
0.0
 13
880.0
 23
3031.0
340
67
 70
     3
280
     1
281
    50
282
    50
283
     0
360
69
 71
     1
 91
        2
 14
-148.9629
 24
18.5662
 14
-136.73
 24
60.6755
  0
IMAGE
  5
6B
330
1F
100
AcDbEntity
  8
layer 1
 62
   250
 92
      140
310
8C000000010000008400000006000000050000006A4DF38E539666C0C6293A92CB3F5BC000000000000000006A4DF38E53D661C0C6293A92CB3F5BC000000000000000006A4DF38E53D661C0550D7320AF9851C000000000000000006A4DF38E539666C0550D7320AF9851C000000000000000006A4DF38E539666C0C6293A
310
92CB3F5BC00000000000000000
100
AcDbRasterImage
 90
        0
 10
-180.6977
 20
-108.9968
 30
0.0
 11
0.01388888888888889
 21
0.0
 31
0.0
 12
0.0
 22
0.01388888888888889
 32
0.0
 13
2736.0
 23
2780.0
340
6A
 70
     3
280
     1
281
    50
282
    50
283
     0
360
6C
 71
     1
 91
        2
 14
-180.6977
 24
-108.9968
 14
-142.6866
 24
-70.37639999999999
  0
IMAGE
  5
6E
330
1F
100
AcDbEntity
  8
layer 1
 62
   250
 92
      140
310
8C000000010000008400000006000000050000006A4DF38E539666C0EE7C3F355E7656C000000000000000004D8681728C9862C0EE7C3F355E7656C000000000000000004D8681728C9862C0C0320D4EF56A4EC000000000000000006A4DF38E539666C0C0320D4EF56A4EC000000000000000006A4DF38E539666C0EE7C3F
310
355E7656C00000000000000000
100
AcDbRasterImage
 90
        0
 10
-180.6977
 20
-89.8495
 30
0.0
 11
0.01388888888888889
 21
0.0
 31
0.0
 12
0.0
 22
0.01388888888888889
 32
0.0
 13
2299.0
 23
2089.0
340
6D
 70
     3
280
     1
281
    50
282
    50
283
     0
360
6F
 71
     1
 91
        2
 14
-180.6977
 24
-89.8495
 14
-148.7634
 24
-60.8284
  0
IMAGE
  5
71
330
1F
100
AcDbEntity
  8
layer 1
 62
   250
 92
      140
310
8C00000001000000840000000600000005000000ED9E3C2CD46A65C0D50968226C8450C00000000000000000252D2065623662C0D50968226C8450C00000000000000000252D2065623662C0E3A1B37D668C44C00000000000000000ED9E3C2CD46A65C0E3A1B37D668C44C00000000000000000ED9E3C2CD46A65C0D50968
310
226C8450C00000000000000000
100
AcDbRasterImage
 90
        0
 10
-171.3384
 20
-66.0691
 30
0.0
 11
0.01388888888888889
 21
0.0
 31
0.0
 12
0.0
 22
0.01388888888888889
 32
0.0
 13
1846.0
 23
1798.0
340
70
 70
     3
280
     1
281
    50
282
    50
283
     0
360
72
 71
     1
 91
        2
 14
-171.3384
 24
-66.0691
 14
-145.6938
 24
-41.0917
  0
IMAGE
  5
74
330
1F
100
AcDbEntity
  8
layer 1
 62
   250
 92
      140
310
8C00000001000000840000000600000005000000B30C71AC8B9766C0CA54C1A8A4DE4CC000000000000000002429381EA8DA63C0CA54C1A8A4DE4CC000000000000000002429381EA8DA63C064B3EA73B5150B400000000000000000B30C71AC8B9766C064B3EA73B5150B400000000000000000B30C71AC8B9766C0CA54C1
310
A8A4DE4CC00000000000000000
100
AcDbRasterImage
 90
        0
 10
-180.7358
 20
-57.7394
 30
0.0
 11
0.01388888888888889
 21
0.0
 31
0.0
 12
0.0
 22
0.01388888888888889
 32
0.0
 13
1577.0
 23
4401.0
340
73
 70
     3
280
     1
281
    50
282
    50
283
     0
360
75
 71
     1
 91
        2
 14
-180.7358
 24
-57.7394
 14
-158.8293
 24
3.396199999999993
  0
IMAGE
  5
77
330
1F
100
AcDbEntity
  8
layer 1
 62
   250
 92
      140
310
8C000000010000008400000006000000050000002FDD2406811D65C0FCA9F1D24DC225C000000000000000002FDD2406816962C0FCA9F1D24DC225C000000000000000002FDD2406816962C008AC1C5A64FB124000000000000000002FDD2406811D65C008AC1C5A64FB124000000000000000002FDD2406811D65C0FCA9F1
310
D24DC225C00000000000000000
100
AcDbRasterImage
 90
        0
 10
-168.922
 20
-10.8795
 30
0.0
 11
0.01388888888888889
 21
0.0
 31
0.0
 12
0.0
 22
0.01388888888888889
 32
0.0
 13
1557.0
 23
1125.0
340
76
 70
     3
280
     1
281
    50
282
    50
283
     0
360
78
 71
     1
 91
        2
 14
-168.922
 24
-10.8795
 14
-147.2943
 24
4.747299999999999
  0
IMAGE
  5
7A
330
1F
100
AcDbEntity
  8
layer 1
 62
   250
 92
      140
310
8C0000000100000084000000060000000500000095D4096822F063C0865AD3BCE32435C0000000000000000006F1D0D93E7763C0865AD3BCE32435C0000000000000000006F1D0D93E7763C0153E0C4BC75D31C0000000000000000095D4096822F063C0153E0C4BC75D31C0000000000000000095D4096822F063C0865AD3
310
BCE32435C00000000000000000
100
AcDbRasterImage
 90
        0
 10
-159.5042
 20
-21.1441
 30
0.0
 11
0.01388888888888889
 21
0.0
 31
0.0
 12
0.0
 22
0.01388888888888889
 32
0.0
 13
272.0
 23
272.0
340
79
 70
     3
280
     1
281
    50
282
    50
283
     0
360
7B
 71
     1
 91
        2
 14
-159.5042
 24
-21.1441
 14
-155.724
 24
-17.3642
  0
IMAGE
  5
7D
330
1F
100
AcDbEntity
  8
layer 1
 62
   250
 92
      140
310
8C00000001000000840000000600000005000000E0BE0E9C33E061C0C6293A92CB3F5BC00000000000000000BF7D1D3867405AC0C6293A92CB3F5BC00000000000000000BF7D1D3867405AC0550D7320AF9851C00000000000000000E0BE0E9C33E061C0550D7320AF9851C00000000000000000E0BE0E9C33E061C0C6293A
310
92CB3F5BC00000000000000000
100
AcDbRasterImage
 90
        0
 10
-143.0063
 20
-108.9968
 30
0.0
 11
0.01388888888888889
 21
0.0
 31
0.0
 12
0.0
 22
0.01388888888888889
 32
0.0
 13
2736.0
 23
2780.0
340
7C
 70
     3
280
     1
281
    50
282
    50
283
     0
360
7E
 71
     1
 91
        2
 14
-143.0063
 24
-108.9968
 14
-104.9952
 24
-70.37639999999999
  0
IMAGE
  5
80
330
1F
100
AcDbEntity
  8
layer 1
 62
   250
 92
      140
310
8C0000000100000084000000060000000500000039B4C876BE1D61C0EE7C3F355E7656C0000000000000000038DAADB4EE3F5AC0EE7C3F355E7656C0000000000000000038DAADB4EE3F5AC0C0320D4EF56A4EC0000000000000000039B4C876BE1D61C0C0320D4EF56A4EC0000000000000000039B4C876BE1D61C0EE7C3F
310
355E7656C00000000000000000
100
AcDbRasterImage
 90
        0
 10
-136.9295
 20
-89.8495
 30
0.0
 11
0.01388888888888889
 21
0.0
 31
0.0
 12
0.0
 22
0.01388888888888889
 32
0.0
 13
2299.0
 23
2089.0
340
7F
 70
     3
280
     1
281
    50
282
    50
283
     0
360
81
 71
     1
 91
        2
 14
-136.9295
 24
-89.8495
 14
-104.9952
 24
-60.8284
  0
IMAGE
  5
83
330
1F
100
AcDbEntity
  8
layer 1
 62
   250
 92
      140
310
8C00000001000000840000000600000005000000E02D90A0F87F61C0D50968226C8450C000000000000000003178E7B20D975CC0D50968226C8450C000000000000000003178E7B20D975CC0E3A1B37D668C44C00000000000000000E02D90A0F87F61C0E3A1B37D668C44C00000000000000000E02D90A0F87F61C0D50968
310
226C8450C00000000000000000
100
AcDbRasterImage
 90
        0
 10
-139.9991
 20
-66.0691
 30
0.0
 11
0.01388888888888889
 21
0.0
 31
0.0
 12
0.0
 22
0.01388888888888889
 32
0.0
 13
1846.0
 23
1798.0
340
82
 70
     3
280
     1
281
    50
282
    50
283
     0
360
84
 71
     1
 91
        2
 14
-139.9991
 24
-66.0691
 14
-114.3544
 24
-41.0917
  0
IMAGE
  5
86
330
1F
100
AcDbEntity
  8
layer 1
 62
   250
 92
      140
310
8C000000010000008400000006000000050000002506819543B75FC066F7E461A1DE4CC00000000000000000083F0F797C3D5AC066F7E461A1DE4CC00000000000000000083F0F797C3D5AC09489B0E1E9150B4000000000000000002506819543B75FC09489B0E1E9150B4000000000000000002506819543B75FC066F7E4
310
61A1DE4CC00000000000000000
100
AcDbRasterImage
 90
        0
 10
-126.8635
 20
-57.7393
 30
0.0
 11
0.01388888888888889
 21
0.0
 31
0.0
 12
0.0
 22
0.01388888888888889
 32
0.0
 13
1577.0
 23
4401.0
340
85
 70
     3
280
     1
281
    50
282
    50
283
     0
360
87
 71
     1
 91
        2
 14
-126.8635
 24
-57.7393
 14
-104.9571
 24
3.3962
  0
IMAGE
  5
89
330
1F
100
AcDbEntity
  8
layer 1
 62
   250
 92
      140
310
8C00000001000000840000000600000005000000986E1283C04C61C0FCA9F1D24DC225C000000000000000002FDD240681315DC0FCA9F1D24DC225C000000000000000002FDD240681315DC008AC1C5A64FB12400000000000000000986E1283C04C61C008AC1C5A64FB12400000000000000000986E1283C04C61C0FCA9F1
310
D24DC225C00000000000000000
100
AcDbRasterImage
 90
        0
 10
-138.3985
 20
-10.8795
 30
0.0
 11
0.01388888888888889
 21
0.0
 31
0.0
 12
0.0
 22
0.01388888888888889
 32
0.0
 13
1557.0
 23
1125.0
340
88
 70
     3
280
     1
281
    50
282
    50
283
     0
360
8A
 71
     1
 91
        2
 14
-138.3985
 24
-10.8795
 14
-116.7709
 24
4.747299999999999
  0
IMAGE
  5
8C
330
1F
100
AcDbEntity
  8
layer 1
 62
   250
 92
      140
310
8C0000000100000084000000060000000500000005A3923A013F60C0865AD3BCE32435C00000000000000000ED7EB3583B8C5FC0865AD3BCE32435C00000000000000000ED7EB3583B8C5FC0153E0C4BC75D31C0000000000000000005A3923A013F60C0153E0C4BC75D31C0000000000000000005A3923A013F60C0865AD3
310
BCE32435C00000000000000000
100
AcDbRasterImage
 90
        0
 10
-129.9689
 20
-21.1441
 30
0.0
 11
0.01388888888888889
 21
0.0
 31
0.0
 12
0.0
 22
0.01388888888888889
 32
0.0
 13
272.0
 23
272.0
340
8B
 70
     3
280
     1
281
    50
282
    50
283
     0
360
8D
 71
     1
 91
        2
 14
-129.9689
 24
-21.1441
 14
-126.1887
 24
-17.3642
  0
IMAGE
  5
8F
330
1F
100
AcDbEntity
  8
layer 1
 62
   250
 92
      140
310
8C00000001000000840000000600000005000000302AA913D09E62C0B515FBCBEE1146C00000000000000000BE0DE2A1B31761C0B515FBCBEE1146C00000000000000000BE0DE2A1B31761C0DC3EEA4DD05700C00000000000000000302AA913D09E62C0DC3EEA4DD05700C00000000000000000302AA913D09E62C0B515FB
310
CBEE1146C00000000000000000
100
AcDbRasterImage
 90
        0
 10
-148.9629
 20
-44.1401
 30
0.0
 11
0.01388888888888889
 21
0.0
 31
0.0
 12
0.0
 22
0.01388888888888889
 32
0.0
 13
880.0
 23
3031.0
340
8E
 70
     3
280
     1
281
    50
282
    50
283
     0
360
90
 71
     1
 91
        2
 14
-148.9629
 24
-44.1401
 14
-136.73
 24
-2.0304
  0
IMAGE
  5
92
330
1F
100
AcDbEntity
  8
layer 1
 62
   250
 92
      140
310
8C0000000100000084000000060000000500000091ED7C3F352662C0355EBA490C8218400000000000000000020A44B1519D61C0355EBA490C8218400000000000000000020A44B1519D61C0FE676B083FCF2440000000000000000091ED7C3F352662C0FE676B083FCF2440000000000000000091ED7C3F352662C0355EBA
310
490C8218400000000000000000
100
AcDbRasterImage
 90
        0
 10
-145.194
 20
6.127
 30
0.0
 11
0.01388888888888889
 21
0.0
 31
0.0
 12
0.0
 22
0.01388888888888889
 32
0.0
 13
308.0
 23
308.0
340
91
 70
     3
280
     1
281
    50
282
    50
283
     0
360
93
 71
     1
 91
        2
 14
-145.194
 24
6.127
 14
-140.9121
 24
10.4087
  0
SPLINE
  5
94
330
1F
100
AcDbEntity
  8
layer 1
 62
     7
100
AcDbSpline
210
0.0
220
0.0
230
1.0
 70
    11
 71
     3
 72
    44
 73
    40
 74
     0
 42
0.0000000001
 43
0.0000000001
 12
1.0
 22
0.0
 32
0.0
 13
1.0
 23
0.0
 33
0.0
 40
0.0
 40
0.0
 40
0.0
 40
0.0
 40
0.0909090909090909
 40
0.0909090909090909
 40
0.0909090909090909
 40
0.0909090909090909
 40
0.1818181818181818
 40
0.1818181818181818
 40
0.1818181818181818
 40
0.1818181818181818
 40
0.2727272727272727
 40
0.2727272727272727
 40
0.2727272727272727
 40
0.2727272727272727
 40
0.3636363636363636
 40
0.3636363636363636
 40
0.3636363636363636
 40
0.3636363636363636
 40
0.4545454545454545
 40
0.4545454545454545
 40
0.4545454545454545
 40
0.4545454545454545
 40
0.5454545454545454
 40
0.5454545454545454
 40
0.5454545454545454
 40
0.5454545454545454
 40
0.6363636363636364
 40
0.6363636363636364
 40
0.6363636363636364
 40
0.6363636363636364
 40
0.7272727272727273
 40
0.7272727272727273
 40
0.7272727272727273
 40
0.7272727272727273
 40
0.8181818181818182
 40
0.8181818181818182
 40
0.8181818181818182
 40
0.8181818181818182
 40
1.0
 40
1.0
 40
1.0
 40
1.0
 10
-167.3385
 20
114.2761
 30
0.0
 10
-167.4527
 20
113.0145
 30
0.0
 10
-165.6244
 20
109.36
 30
0.0
 10
-166.0766
 20
108.577
 30
0.0
 10
-166.0766
 20
108.577
 30
0.0
 10
-172.8638
 20
113.1395
 30
0.0
 10
-179.3956
 20
108.7613
 30
0.0
 10
-180.6977
 20
103.2788
 30
0.0
 10
-180.6977
 20
103.2788
 30
0.0
 10
-180.6977
 20
103.2788
 30
0.0
 10
-180.6977
 20
125.5325
 30
0.0
 10
-180.6977
 20
125.5325
 30
0.0
 10
-180.6977
 20
125.5325
 30
0.0
 10
-180.6977
 20
125.5325
 30
0.0
 10
-145.7039
 20
125.5325
 30
0.0
 10
-145.7039
 20
125.5325
 30
0.0
 10
-145.7039
 20
125.5325
 30
0.0
 10
-147.0441
 20
123.5084
 30
0.0
 10
-148.1249
 20
120.2964
 30
0.0
 10
-147.8597
 20
116.6662
 30
0.0
 10
-147.8597
 20
116.6662
 30
0.0
 10
-147.3553
 20
109.7566
 30
0.0
 10
-149.1969
 20
117.0094
 30
0.0
 10
-152.2732
 20
116.63
 30
0.0
 10
-152.2732
 20
116.63
 30
0.0
 10
-149.9935
 20
112.1311
 30
0.0
 10
-152.9728
 20
108.7903
 30
0.0
 10
-149.4374
 20
103.0915
 30
0.0
 10
-149.4374
 20
103.0915
 30
0.0
 10
-145.258
 20
96.355
 30
0.0
 10
-142.6866
 20
90.4408
 30
0.0
 10
-145.6238
 20
89.2662
 30
0.0
 10
-145.6238
 20
89.2662
 30
0.0
 10
-145.727
 20
89.2262
 30
0.0
 10
-145.8292
 20
89.1842
 30
0.0
 10
-145.9303
 20
89.1398
 30
0.0
 10
-145.9303
 20
89.1398
 30
0.0
 10
-152.1689
 20
86.9121
 30
0.0
 10
-149.0152
 20
111.1848
 30
0.0
 10
-167.3385
 20
114.2761
 30
0.0
  0
SPLINE
  5
95
330
1F
100
AcDbEntity
  8
layer 1
 62
     7
100
AcDbSpline
210
0.0
220
0.0
230
1.0
 70
    11
 71
     3
 72
    32
 73
    28
 74
     0
 42
0.0000000001
 43
0.0000000001
 12
1.0
 22
0.0
 32
0.0
 13
1.0
 23
0.0
 33
0.0
 40
0.0
 40
0.0
 40
0.0
 40
0.0
 40
0.125
 40
0.125
 40
0.125
 40
0.125
 40
0.25
 40
0.25
 40
0.25
 40
0.25
 40
0.375
 40
0.375
 40
0.375
 40
0.375
 40
0.5
 40
0.5
 40
0.5
 40
0.5
 40
0.625
 40
0.625
 40
0.625
 40
0.625
 40
0.75
 40
0.75
 40
0.75
 40
0.75
 40
1.0
 40
1.0
 40
1.0
 40
1.0
 10
-150.1473
 20
84.4702
 30
0.0
 10
-151.0206
 20
82.0506
 30
0.0
 10
-152.478
 20
83.4877
 30
0.0
 10
-155.8966
 20
85.3664
 30
0.0
 10
-155.8966
 20
85.3664
 30
0.0
 10
-159.9164
 20
87.5759
 30
0.0
 10
-168.044
 20
87.3829
 30
0.0
 10
-172.859
 20
82.9782
 30
0.0
 10
-172.859
 20
82.9782
 30
0.0
 10
-176.1539
 20
79.9646
 30
0.0
 10
-178.845
 20
77.9354
 30
0.0
 10
-180.6977
 20
77.3641
 30
0.0
 10
-180.6977
 20
77.3641
 30
0.0
 10
-180.6977
 20
77.3641
 30
0.0
 10
-180.6977
 20
99.3912
 30
0.0
 10
-180.6977
 20
99.3912
 30
0.0
 10
-180.6977
 20
99.3912
 30
0.0
 10
-179.8825
 20
96.1129
 30
0.0
 10
-176.8615
 20
93.0792
 30
0.0
 10
-170.6172
 20
91.8869
 30
0.0
 10
-170.6172
 20
91.8869
 30
0.0
 10
-177.5595
 20
102.5062
 30
0.0
 10
-160.5872
 20
106.3853
 30
0.0
 10
-156.5045
 20
95.9505
 30
0.0
 10
-156.5045
 20
95.9505
 30
0.0
 10
-154.2319
 20
90.1425
 30
0.0
 10
-148.7634
 20
88.5487
 30
0.0
 10
-150.1473
 20
84.4702
 30
0.0
  0
SPLINE
  5
96
330
1F
100
AcDbEntity
  8
layer 1
 62
     7
100
AcDbSpline
210
0.0
220
0.0
230
1.0
 70
    11
 71
     3
 72
    20
 73
    16
 74
     0
 42
0.0000000001
 43
0.0000000001
 12
1.0
 22
0.0
 32
0.0
 13
1.0
 23
0.0
 33
0.0
 40
0.0
 40
0.0
 40
0.0
 40
0.0
 40
0.2
 40
0.2
 40
0.2
 40
0.2
 40
0.4
 40
0.4
 40
0.4
 40
0.4
 40
0.6
 40
0.6
 40
0.6
 40
0.6
 40
1.0
 40
1.0
 40
1.0
 40
1.0
 10
-155.5439
 20
57.6275
 30
0.0
 10
-171.3384
 20
60.8841
 30
0.0
 10
-164.821
 20
82.6048
 30
0.0
 10
-148.5441
 20
76.9825
 30
0.0
 10
-148.5441
 20
76.9825
 30
0.0
 10
-148.5441
 20
76.9825
 30
0.0
 10
-148.5441
 20
76.9825
 30
0.0
 10
-148.5441
 20
76.9825
 30
0.0
 10
-148.5441
 20
76.9825
 30
0.0
 10
-147.7651
 20
76.1189
 30
0.0
 10
-146.7919
 20
75.432
 30
0.0
 10
-145.6938
 20
74.9927
 30
0.0
 10
-145.6938
 20
74.9927
 30
0.0
 10
-145.6938
 20
74.9927
 30
0.0
 10
-155.5439
 20
57.6275
 30
0.0
 10
-155.5439
 20
57.6275
 30
0.0
  0
SPLINE
  5
97
330
1F
100
AcDbEntity
  8
layer 1
 62
     7
100
AcDbSpline
210
0.0
220
0.0
230
1.0
 70
    11
 71
     3
 72
    24
 73
    20
 74
     0
 42
0.0000000001
 43
0.0000000001
 12
1.0
 22
0.0
 32
0.0
 13
1.0
 23
0.0
 33
0.0
 40
0.0
 40
0.0
 40
0.0
 40
0.0
 40
0.1666666666666667
 40
0.1666666666666667
 40
0.1666666666666667
 40
0.1666666666666667
 40
0.3333333333333333
 40
0.3333333333333333
 40
0.3333333333333333
 40
0.3333333333333333
 40
0.5
 40
0.5
 40
0.5
 40
0.5
 40
0.6666666666666666
 40
0.6666666666666666
 40
0.6666666666666666
 40
0.6666666666666666
 40
1.0
 40
1.0
 40
1.0
 40
1.0
 10
-180.6977
 20
74.175
 30
0.0
 10
-180.0696
 20
73.4664
 30
0.0
 10
-179.4059
 20
73.0278
 30
0.0
 10
-178.6967
 20
72.9521
 30
0.0
 10
-178.6967
 20
72.9521
 30
0.0
 10
-177.2722
 20
69.8894
 30
0.0
 10
-175.1069
 20
68.3907
 30
0.0
 10
-172.2009
 20
68.4557
 30
0.0
 10
-172.2009
 20
68.4557
 30
0.0
 10
-175.4691
 20
59.3799
 30
0.0
 10
-168.7076
 20
48.6427
 30
0.0
 10
-158.9098
 20
51.6939
 30
0.0
 10
-158.9098
 20
51.6939
 30
0.0
 10
-158.9098
 20
51.6939
 30
0.0
 10
-180.6977
 20
13.2836
 30
0.0
 10
-180.6977
 20
13.2836
 30
0.0
 10
-180.6977
 20
13.2836
 30
0.0
 10
-180.6977
 20
13.2836
 30
0.0
 10
-180.6977
 20
74.175
 30
0.0
 10
-180.6977
 20
74.175
 30
0.0
  0
SPLINE
  5
98
330
1F
100
AcDbEntity
  8
layer 1
 62
     7
100
AcDbSpline
210
0.0
220
0.0
230
1.0
 70
    11
 71
     3
 72
    24
 73
    20
 74
     0
 42
0.0000000001
 43
0.0000000001
 12
1.0
 22
0.0
 32
0.0
 13
1.0
 23
0.0
 33
0.0
 40
0.0
 40
0.0
 40
0.0
 40
0.0
 40
0.1666666666666667
 40
0.1666666666666667
 40
0.1666666666666667
 40
0.1666666666666667
 40
0.3333333333333333
 40
0.3333333333333333
 40
0.3333333333333333
 40
0.3333333333333333
 40
0.5
 40
0.5
 40
0.5
 40
0.5
 40
0.6666666666666666
 40
0.6666666666666666
 40
0.6666666666666666
 40
0.6666666666666666
 40
1.0
 40
1.0
 40
1.0
 40
1.0
 10
-163.1083
 20
11.8375
 30
0.0
 10
-170.4546
 20
16.4055
 30
0.0
 10
-166.0098
 20
23.0112
 30
0.0
 10
-160.1451
 20
22.7643
 30
0.0
 10
-160.1451
 20
22.7643
 30
0.0
 10
-160.6544
 20
20.4161
 30
0.0
 10
-159.3053
 20
19.2192
 30
0.0
 10
-157.7355
 20
20.0547
 30
0.0
 10
-157.7355
 20
20.0547
 30
0.0
 10
-156.2354
 20
20.8533
 30
0.0
 10
-151.1745
 20
24.3864
 30
0.0
 10
-147.3663
 20
15.9736
 30
0.0
 10
-147.3663
 20
15.9736
 30
0.0
 10
-149.0311
 20
28.4301
 30
0.0
 10
-160.4045
 20
29.182
 30
0.0
 10
-165.5424
 20
25.3057
 30
0.0
 10
-165.5424
 20
25.3057
 30
0.0
 10
-170.3687
 20
21.665
 30
0.0
 10
-170.3079
 20
12.3557
 30
0.0
 10
-163.1083
 20
11.8375
 30
0.0
  0
SPLINE
  5
99
330
1F
100
AcDbEntity
  8
layer 1
 62
     7
370
    25
100
AcDbSpline
210
0.0
220
0.0
230
1.0
 70
    11
 71
     3
 72
    20
 73
    16
 74
     0
 42
0.0000000001
 43
0.0000000001
 12
1.0
 22
0.0
 32
0.0
 13
1.0
 23
0.0
 33
0.0
 40
0.0
 40
0.0
 40
0.0
 40
0.0
 40
0.2
 40
0.2
 40
0.2
 40
0.2
 40
0.4
 40
0.4
 40
0.4
 40
0.4
 40
0.6
 40
0.6
 40
0.6
 40
0.6
 40
1.0
 40
1.0
 40
1.0
 40
1.0
 10
-159.4661
 20
35.7898
 30
0.0
 10
-159.4661
 20
34.7672
 30
0.0
 10
-158.6368
 20
33.938
 30
0.0
 10
-157.6141
 20
33.938
 30
0.0
 10
-157.6141
 20
33.938
 30
0.0
 10
-156.5913
 20
33.938
 30
0.0
 10
-155.7621
 20
34.7672
 30
0.0
 10
-155.7621
 20
35.7898
 30
0.0
 10
-155.7621
 20
35.7898
 30
0.0
 10
-155.7621
 20
36.8125
 30
0.0
 10
-156.5913
 20
37.6418
 30
0.0
 10
-157.6141
 20
37.6418
 30
0.0
 10
-157.6141
 20
37.6418
 30
0.0
 10
-158.6368
 20
37.6418
 30
0.0
 10
-159.4661
 20
36.8125
 30
0.0
 10
-159.4661
 20
35.7898
 30
0.0
  0
SPLINE
  5
9A
330
1F
100
AcDbEntity
  8
layer 1
 62
     7
100
AcDbSpline
210
0.0
220
0.0
230
1.0
 70
    11
 71
     3
 72
    44
 73
    40
 74
     0
 42
0.0000000001
 43
0.0000000001
 12
1.0
 22
0.0
 32
0.0
 13
1.0
 23
0.0
 33
0.0
 40
0.0
 40
0.0
 40
0.0
 40
0.0
 40
0.0909090909090909
 40
0.0909090909090909
 40
0.0909090909090909
 40
0.0909090909090909
 40
0.1818181818181818
 40
0.1818181818181818
 40
0.1818181818181818
 40
0.1818181818181818
 40
0.2727272727272727
 40
0.2727272727272727
 40
0.2727272727272727
 40
0.2727272727272727
 40
0.3636363636363636
 40
0.3636363636363636
 40
0.3636363636363636
 40
0.3636363636363636
 40
0.4545454545454545
 40
0.4545454545454545
 40
0.4545454545454545
 40
0.4545454545454545
 40
0.5454545454545454
 40
0.5454545454545454
 40
0.5454545454545454
 40
0.5454545454545454
 40
0.6363636363636364
 40
0.6363636363636364
 40
0.6363636363636364
 40
0.6363636363636364
 40
0.7272727272727273
 40
0.7272727272727273
 40
0.7272727272727273
 40
0.7272727272727273
 40
0.8181818181818182
 40
0.8181818181818182
 40
0.8181818181818182
 40
0.8181818181818182
 40
1.0
 40
1.0
 40
1.0
 40
1.0
 10
-118.3544
 20
114.2761
 30
0.0
 10
-118.2402
 20
113.0145
 30
0.0
 10
-120.0685
 20
109.36
 30
0.0
 10
-119.6163
 20
108.577
 30
0.0
 10
-119.6163
 20
108.577
 30
0.0
 10
-112.8291
 20
113.1395
 30
0.0
 10
-106.2973
 20
108.7613
 30
0.0
 10
-104.9952
 20
103.2788
 30
0.0
 10
-104.9952
 20
103.2788
 30
0.0
 10
-104.9952
 20
103.2788
 30
0.0
 10
-104.9952
 20
125.5325
 30
0.0
 10
-104.9952
 20
125.5325
 30
0.0
 10
-104.9952
 20
125.5325
 30
0.0
 10
-104.9952
 20
125.5325
 30
0.0
 10
-139.989
 20
125.5325
 30
0.0
 10
-139.989
 20
125.5325
 30
0.0
 10
-139.989
 20
125.5325
 30
0.0
 10
-138.6488
 20
123.5084
 30
0.0
 10
-137.568
 20
120.2964
 30
0.0
 10
-137.8331
 20
116.6662
 30
0.0
 10
-137.8331
 20
116.6662
 30
0.0
 10
-138.3376
 20
109.7566
 30
0.0
 10
-136.496
 20
117.0094
 30
0.0
 10
-133.4197
 20
116.63
 30
0.0
 10
-133.4197
 20
116.63
 30
0.0
 10
-135.6994
 20
112.1311
 30
0.0
 10
-132.7201
 20
108.7903
 30
0.0
 10
-136.2555
 20
103.0915
 30
0.0
 10
-136.2555
 20
103.0915
 30
0.0
 10
-140.4349
 20
96.355
 30
0.0
 10
-143.0063
 20
90.4408
 30
0.0
 10
-140.0691
 20
89.2662
 30
0.0
 10
-140.0691
 20
89.2662
 30
0.0
 10
-139.9659
 20
89.2262
 30
0.0
 10
-139.8637
 20
89.1842
 30
0.0
 10
-139.7625
 20
89.1398
 30
0.0
 10
-139.7625
 20
89.1398
 30
0.0
 10
-133.524
 20
86.9121
 30
0.0
 10
-136.6777
 20
111.1848
 30
0.0
 10
-118.3544
 20
114.2761
 30
0.0
  0
SPLINE
  5
9B
330
1F
100
AcDbEntity
  8
layer 1
 62
     7
100
AcDbSpline
210
0.0
220
0.0
230
1.0
 70
    11
 71
     3
 72
    32
 73
    28
 74
     0
 42
0.0000000001
 43
0.0000000001
 12
1.0
 22
0.0
 32
0.0
 13
1.0
 23
0.0
 33
0.0
 40
0.0
 40
0.0
 40
0.0
 40
0.0
 40
0.125
 40
0.125
 40
0.125
 40
0.125
 40
0.25
 40
0.25
 40
0.25
 40
0.25
 40
0.375
 40
0.375
 40
0.375
 40
0.375
 40
0.5
 40
0.5
 40
0.5
 40
0.5
 40
0.625
 40
0.625
 40
0.625
 40
0.625
 40
0.75
 40
0.75
 40
0.75
 40
0.75
 40
1.0
 40
1.0
 40
1.0
 40
1.0
 10
-135.5456
 20
84.4702
 30
0.0
 10
-134.6723
 20
82.0506
 30
0.0
 10
-133.2149
 20
83.4877
 30
0.0
 10
-129.7963
 20
85.3664
 30
0.0
 10
-129.7963
 20
85.3664
 30
0.0
 10
-125.7765
 20
87.5759
 30
0.0
 10
-117.6489
 20
87.3829
 30
0.0
 10
-112.8339
 20
82.9782
 30
0.0
 10
-112.8339
 20
82.9782
 30
0.0
 10
-109.539
 20
79.9646
 30
0.0
 10
-106.8479
 20
77.9354
 30
0.0
 10
-104.9952
 20
77.3641
 30
0.0
 10
-104.9952
 20
77.3641
 30
0.0
 10
-104.9952
 20
77.3641
 30
0.0
 10
-104.9952
 20
99.3912
 30
0.0
 10
-104.9952
 20
99.3912
 30
0.0
 10
-104.9952
 20
99.3912
 30
0.0
 10
-105.8104
 20
96.1129
 30
0.0
 10
-108.8314
 20
93.0792
 30
0.0
 10
-115.0757
 20
91.8869
 30
0.0
 10
-115.0757
 20
91.8869
 30
0.0
 10
-108.1334
 20
102.5062
 30
0.0
 10
-125.1057
 20
106.3853
 30
0.0
 10
-129.1884
 20
95.9505
 30
0.0
 10
-129.1884
 20
95.9505
 30
0.0
 10
-131.461
 20
90.1425
 30
0.0
 10
-136.9295
 20
88.5487
 30
0.0
 10
-135.5456
 20
84.4702
 30
0.0
  0
SPLINE
  5
9C
330
1F
100
AcDbEntity
  8
layer 1
 62
     7
100
AcDbSpline
210
0.0
220
0.0
230
1.0
 70
    11
 71
     3
 72
    20
 73
    16
 74
     0
 42
0.0000000001
 43
0.0000000001
 12
1.0
 22
0.0
 32
0.0
 13
1.0
 23
0.0
 33
0.0
 40
0.0
 40
0.0
 40
0.0
 40
0.0
 40
0.2
 40
0.2
 40
0.2
 40
0.2
 40
0.4
 40
0.4
 40
0.4
 40
0.4
 40
0.6
 40
0.6
 40
0.6
 40
0.6
 40
1.0
 40
1.0
 40
1.0
 40
1.0
 10
-130.149
 20
57.6275
 30
0.0
 10
-114.3544
 20
60.8841
 30
0.0
 10
-120.8719
 20
82.6048
 30
0.0
 10
-137.1488
 20
76.9825
 30
0.0
 10
-137.1488
 20
76.9825
 30
0.0
 10
-137.1488
 20
76.9825
 30
0.0
 10
-137.1488
 20
76.9825
 30
0.0
 10
-137.1488
 20
76.9825
 30
0.0
 10
-137.1488
 20
76.9825
 30
0.0
 10
-137.9278
 20
76.1189
 30
0.0
 10
-138.901
 20
75.432
 30
0.0
 10
-139.9991
 20
74.9927
 30
0.0
 10
-139.9991
 20
74.9927
 30
0.0
 10
-139.9991
 20
74.9927
 30
0.0
 10
-130.149
 20
57.6275
 30
0.0
 10
-130.149
 20
57.6275
 30
0.0
  0
SPLINE
  5
9D
330
1F
100
AcDbEntity
  8
layer 1
 62
     7
100
AcDbSpline
210
0.0
220
0.0
230
1.0
 70
    11
 71
     3
 72
    24
 73
    20
 74
     0
 42
0.0000000001
 43
0.0000000001
 12
1.0
 22
0.0
 32
0.0
 13
1.0
 23
0.0
 33
0.0
 40
0.0
 40
0.0
 40
0.0
 40
0.0
 40
0.1666666666666667
 40
0.1666666666666667
 40
0.1666666666666667
 40
0.1666666666666667
 40
0.3333333333333333
 40
0.3333333333333333
 40
0.3333333333333333
 40
0.3333333333333333
 40
0.5
 40
0.5
 40
0.5
 40
0.5
 40
0.6666666666666666
 40
0.6666666666666666
 40
0.6666666666666666
 40
0.6666666666666666
 40
1.0
 40
1.0
 40
1.0
 40
1.0
 10
-104.9952
 20
74.175
 30
0.0
 10
-105.6233
 20
73.4664
 30
0.0
 10
-106.287
 20
73.0278
 30
0.0
 10
-106.9962
 20
72.9521
 30
0.0
 10
-106.9962
 20
72.9521
 30
0.0
 10
-108.4207
 20
69.8894
 30
0.0
 10
-110.586
 20
68.3907
 30
0.0
 10
-113.492
 20
68.4557
 30
0.0
 10
-113.492
 20
68.4557
 30
0.0
 10
-110.2238
 20
59.3799
 30
0.0
 10
-116.9853
 20
48.6427
 30
0.0
 10
-126.7831
 20
51.6939
 30
0.0
 10
-126.7831
 20
51.6939
 30
0.0
 10
-126.7831
 20
51.6939
 30
0.0
 10
-104.9952
 20
13.2836
 30
0.0
 10
-104.9952
 20
13.2836
 30
0.0
 10
-104.9952
 20
13.2836
 30
0.0
 10
-104.9952
 20
13.2836
 30
0.0
 10
-104.9952
 20
74.175
 30
0.0
 10
-104.9952
 20
74.175
 30
0.0
  0
SPLINE
  5
9E
330
1F
100
AcDbEntity
  8
layer 1
 62
     7
100
AcDbSpline
210
0.0
220
0.0
230
1.0
 70
    11
 71
     3
 72
    24
 73
    20
 74
     0
 42
0.0000000001
 43
0.0000000001
 12
1.0
 22
0.0
 32
0.0
 13
1.0
 23
0.0
 33
0.0
 40
0.0
 40
0.0
 40
0.0
 40
0.0
 40
0.1666666666666667
 40
0.1666666666666667
 40
0.1666666666666667
 40
0.1666666666666667
 40
0.3333333333333333
 40
0.3333333333333333
 40
0.3333333333333333
 40
0.3333333333333333
 40
0.5
 40
0.5
 40
0.5
 40
0.5
 40
0.6666666666666666
 40
0.6666666666666666
 40
0.6666666666666666
 40
0.6666666666666666
 40
1.0
 40
1.0
 40
1.0
 40
1.0
 10
-122.5846
 20
11.8375
 30
0.0
 10
-115.2383
 20
16.4055
 30
0.0
 10
-119.6831
 20
23.0112
 30
0.0
 10
-125.5478
 20
22.7643
 30
0.0
 10
-125.5478
 20
22.7643
 30
0.0
 10
-125.0385
 20
20.4161
 30
0.0
 10
-126.3876
 20
19.2192
 30
0.0
 10
-127.9574
 20
20.0547
 30
0.0
 10
-127.9574
 20
20.0547
 30
0.0
 10
-129.4575
 20
20.8533
 30
0.0
 10
-134.5184
 20
24.3864
 30
0.0
 10
-138.3266
 20
15.9736
 30
0.0
 10
-138.3266
 20
15.9736
 30
0.0
 10
-136.6618
 20
28.4301
 30
0.0
 10
-125.2884
 20
29.182
 30
0.0
 10
-120.1505
 20
25.3057
 30
0.0
 10
-120.1505
 20
25.3057
 30
0.0
 10
-115.3242
 20
21.665
 30
0.0
 10
-115.385
 20
12.3557
 30
0.0
 10
-122.5846
 20
11.8375
 30
0.0
  0
SPLINE
  5
9F
330
1F
100
AcDbEntity
  8
layer 1
 62
     7
370
    25
100
AcDbSpline
210
0.0
220
0.0
230
1.0
 70
    11
 71
     3
 72
    20
 73
    16
 74
     0
 42
0.0000000001
 43
0.0000000001
 12
1.0
 22
0.0
 32
0.0
 13
1.0
 23
0.0
 33
0.0
 40
0.0
 40
0.0
 40
0.0
 40
0.0
 40
0.2
 40
0.2
 40
0.2
 40
0.2
 40
0.4
 40
0.4
 40
0.4
 40
0.4
 40
0.6
 40
0.6
 40
0.6
 40
0.6
 40
1.0
 40
1.0
 40
1.0
 40
1.0
 10
-126.2268
 20
35.7898
 30
0.0
 10
-126.2268
 20
34.7672
 30
0.0
 10
-127.0561
 20
33.938
 30
0.0
 10
-128.0788
 20
33.938
 30
0.0
 10
-128.0788
 20
33.938
 30
0.0
 10
-129.1016
 20
33.938
 30
0.0
 10
-129.9308
 20
34.7672
 30
0.0
 10
-129.9308
 20
35.7898
 30
0.0
 10
-129.9308
 20
35.7898
 30
0.0
 10
-129.9308
 20
36.8125
 30
0.0
 10
-129.1016
 20
37.6418
 30
0.0
 10
-128.0788
 20
37.6418
 30
0.0
 10
-128.0788
 20
37.6418
 30
0.0
 10
-127.0561
 20
37.6418
 30
0.0
 10
-126.2268
 20
36.8125
 30
0.0
 10
-126.2268
 20
35.7898
 30
0.0
  0
SPLINE
  5
A0
330
1F
100
AcDbEntity
  8
layer 1
 62
     7
100
AcDbSpline
210
0.0
220
0.0
230
1.0
 70
    11
 71
     3
 72
    36
 73
    32
 74
     0
 42
0.0000000001
 43
0.0000000001
 12
1.0
 22
0.0
 32
0.0
 13
1.0
 23
0.0
 33
0.0
 40
0.0
 40
0.0
 40
0.0
 40
0.0
 40
0.1111111111111111
 40
0.1111111111111111
 40
0.1111111111111111
 40
0.1111111111111111
 40
0.2222222222222222
 40
0.2222222222222222
 40
0.2222222222222222
 40
0.2222222222222222
 40
0.3333333333333333
 40
0.3333333333333333
 40
0.3333333333333333
 40
0.3333333333333333
 40
0.4444444444444444
 40
0.4444444444444444
 40
0.4444444444444444
 40
0.4444444444444444
 40
0.5555555555555556
 40
0.5555555555555556
 40
0.5555555555555556
 40
0.5555555555555556
 40
0.6666666666666666
 40
0.6666666666666666
 40
0.6666666666666666
 40
0.6666666666666666
 40
0.7777777777777778
 40
0.7777777777777778
 40
0.7777777777777778
 40
0.7777777777777778
 40
1.0
 40
1.0
 40
1.0
 40
1.0
 10
-142.8464
 20
18.6111
 30
0.0
 10
-144.2378
 20
19.4905
 30
0.0
 10
-144.0187
 20
23.2167
 30
0.0
 10
-144.1553
 20
28.5055
 30
0.0
 10
-144.1553
 20
28.5055
 30
0.0
 10
-144.3937
 20
37.7371
 30
0.0
 10
-149.249
 20
43.7289
 30
0.0
 10
-148.9076
 20
48.0984
 30
0.0
 10
-148.9076
 20
48.0984
 30
0.0
 10
-147.5467
 20
48.0989
 30
0.0
 10
-146.186
 20
47.9349
 30
0.0
 10
-144.8256
 20
46.6138
 30
0.0
 10
-144.8256
 20
46.6138
 30
0.0
 10
-145.1976
 20
56.9629
 30
0.0
 10
-144.2249
 20
59.9123
 30
0.0
 10
-142.8464
 20
60.6328
 30
0.0
 10
-142.8464
 20
60.6328
 30
0.0
 10
-141.468
 20
59.9123
 30
0.0
 10
-140.4953
 20
56.9629
 30
0.0
 10
-140.8673
 20
46.6138
 30
0.0
 10
-140.8673
 20
46.6138
 30
0.0
 10
-139.5069
 20
47.9349
 30
0.0
 10
-138.1462
 20
48.0989
 30
0.0
 10
-136.7853
 20
48.0984
 30
0.0
 10
-136.7853
 20
48.0984
 30
0.0
 10
-136.4439
 20
43.7289
 30
0.0
 10
-141.2992
 20
37.7371
 30
0.0
 10
-141.5376
 20
28.5055
 30
0.0
 10
-141.5376
 20
28.5055
 30
0.0
 10
-141.6742
 20
23.2167
 30
0.0
 10
-141.4551
 20
19.4905
 30
0.0
 10
-142.8464
 20
18.6111
 30
0.0
  0
SPLINE
  5
A1
330
1F
100
AcDbEntity
  8
layer 1
 62
     7
100
AcDbSpline
210
0.0
220
0.0
230
1.0
 70
    11
 71
     3
 72
    44
 73
    40
 74
     0
 42
0.0000000001
 43
0.0000000001
 12
1.0
 22
0.0
 32
0.0
 13
1.0
 23
0.0
 33
0.0
 40
0.0
 40
0.0
 40
0.0
 40
0.0
 40
0.0909090909090909
 40
0.0909090909090909
 40
0.0909090909090909
 40
0.0909090909090909
 40
0.1818181818181818
 40
0.1818181818181818
 40
0.1818181818181818
 40
0.1818181818181818
 40
0.2727272727272727
 40
0.2727272727272727
 40
0.2727272727272727
 40
0.2727272727272727
 40
0.3636363636363636
 40
0.3636363636363636
 40
0.3636363636363636
 40
0.3636363636363636
 40
0.4545454545454545
 40
0.4545454545454545
 40
0.4545454545454545
 40
0.4545454545454545
 40
0.5454545454545454
 40
0.5454545454545454
 40
0.5454545454545454
 40
0.5454545454545454
 40
0.6363636363636364
 40
0.6363636363636364
 40
0.6363636363636364
 40
0.6363636363636364
 40
0.7272727272727273
 40
0.7272727272727273
 40
0.7272727272727273
 40
0.7272727272727273
 40
0.8181818181818182
 40
0.8181818181818182
 40
0.8181818181818182
 40
0.8181818181818182
 40
1.0
 40
1.0
 40
1.0
 40
1.0
 10
-167.3385
 20
-97.7403
 30
0.0
 10
-167.4527
 20
-96.4787
 30
0.0
 10
-165.6244
 20
-92.8242
 30
0.0
 10
-166.0766
 20
-92.0413
 30
0.0
 10
-166.0766
 20
-92.0413
 30
0.0
 10
-172.8638
 20
-96.6038
 30
0.0
 10
-179.3956
 20
-92.2256
 30
0.0
 10
-180.6977
 20
-86.7431
 30
0.0
 10
-180.6977
 20
-86.7431
 30
0.0
 10
-180.6977
 20
-86.7431
 30
0.0
 10
-180.6977
 20
-108.9968
 30
0.0
 10
-180.6977
 20
-108.9968
 30
0.0
 10
-180.6977
 20
-108.9968
 30
0.0
 10
-180.6977
 20
-108.9968
 30
0.0
 10
-145.7039
 20
-108.9968
 30
0.0
 10
-145.7039
 20
-108.9968
 30
0.0
 10
-145.7039
 20
-108.9968
 30
0.0
 10
-147.0441
 20
-106.9727
 30
0.0
 10
-148.1249
 20
-103.7607
 30
0.0
 10
-147.8597
 20
-100.1304
 30
0.0
 10
-147.8597
 20
-100.1304
 30
0.0
 10
-147.3553
 20
-93.2209
 30
0.0
 10
-149.1969
 20
-100.4736
 30
0.0
 10
-152.2732
 20
-100.0943
 30
0.0
 10
-152.2732
 20
-100.0943
 30
0.0
 10
-149.9935
 20
-95.5953
 30
0.0
 10
-152.9728
 20
-92.2546
 30
0.0
 10
-149.4374
 20
-86.5558
 30
0.0
 10
-149.4374
 20
-86.5558
 30
0.0
 10
-145.258
 20
-79.8192
 30
0.0
 10
-142.6866
 20
-73.9051
 30
0.0
 10
-145.6238
 20
-72.7305
 30
0.0
 10
-145.6238
 20
-72.7305
 30
0.0
 10
-145.727
 20
-72.6904
 30
0.0
 10
-145.8292
 20
-72.6485
 30
0.0
 10
-145.9303
 20
-72.604
 30
0.0
 10
-145.9303
 20
-72.604
 30
0.0
 10
-152.1689
 20
-70.3764
 30
0.0
 10
-149.0152
 20
-94.6491
 30
0.0
 10
-167.3385
 20
-97.7403
 30
0.0
  0
SPLINE
  5
A2
330
1F
100
AcDbEntity
  8
layer 1
 62
     7
100
AcDbSpline
210
0.0
220
0.0
230
1.0
 70
    11
 71
     3
 72
    32
 73
    28
 74
     0
 42
0.0000000001
 43
0.0000000001
 12
1.0
 22
0.0
 32
0.0
 13
1.0
 23
0.0
 33
0.0
 40
0.0
 40
0.0
 40
0.0
 40
0.0
 40
0.125
 40
0.125
 40
0.125
 40
0.125
 40
0.25
 40
0.25
 40
0.25
 40
0.25
 40
0.375
 40
0.375
 40
0.375
 40
0.375
 40
0.5
 40
0.5
 40
0.5
 40
0.5
 40
0.625
 40
0.625
 40
0.625
 40
0.625
 40
0.75
 40
0.75
 40
0.75
 40
0.75
 40
1.0
 40
1.0
 40
1.0
 40
1.0
 10
-150.1473
 20
-67.9344
 30
0.0
 10
-151.0206
 20
-65.5149
 30
0.0
 10
-152.478
 20
-66.952
 30
0.0
 10
-155.8966
 20
-68.8307
 30
0.0
 10
-155.8966
 20
-68.8307
 30
0.0
 10
-159.9164
 20
-71.0404
 30
0.0
 10
-168.044
 20
-70.8472
 30
0.0
 10
-172.859
 20
-66.4425
 30
0.0
 10
-172.859
 20
-66.4425
 30
0.0
 10
-176.1539
 20
-63.4288
 30
0.0
 10
-178.845
 20
-61.3997
 30
0.0
 10
-180.6977
 20
-60.8284
 30
0.0
 10
-180.6977
 20
-60.8284
 30
0.0
 10
-180.6977
 20
-60.8284
 30
0.0
 10
-180.6977
 20
-82.8555
 30
0.0
 10
-180.6977
 20
-82.8555
 30
0.0
 10
-180.6977
 20
-82.8555
 30
0.0
 10
-179.8825
 20
-79.5772
 30
0.0
 10
-176.8615
 20
-76.5435
 30
0.0
 10
-170.6172
 20
-75.3512
 30
0.0
 10
-170.6172
 20
-75.3512
 30
0.0
 10
-177.5595
 20
-85.9705
 30
0.0
 10
-160.5872
 20
-89.8495
 30
0.0
 10
-156.5045
 20
-79.4148
 30
0.0
 10
-156.5045
 20
-79.4148
 30
0.0
 10
-154.2319
 20
-73.6068
 30
0.0
 10
-148.7634
 20
-72.013
 30
0.0
 10
-150.1473
 20
-67.9344
 30
0.0
  0
SPLINE
  5
A3
330
1F
100
AcDbEntity
  8
layer 1
 62
     7
100
AcDbSpline
210
0.0
220
0.0
230
1.0
 70
    11
 71
     3
 72
    20
 73
    16
 74
     0
 42
0.0000000001
 43
0.0000000001
 12
1.0
 22
0.0
 32
0.0
 13
1.0
 23
0.0
 33
0.0
 40
0.0
 40
0.0
 40
0.0
 40
0.0
 40
0.2
 40
0.2
 40
0.2
 40
0.2
 40
0.4
 40
0.4
 40
0.4
 40
0.4
 40
0.6
 40
0.6
 40
0.6
 40
0.6
 40
1.0
 40
1.0
 40
1.0
 40
1.0
 10
-155.5439
 20
-41.0917
 30
0.0
 10
-171.3384
 20
-44.3484
 30
0.0
 10
-164.821
 20
-66.0691
 30
0.0
 10
-148.5441
 20
-60.4467
 30
0.0
 10
-148.5441
 20
-60.4467
 30
0.0
 10
-148.5441
 20
-60.4467
 30
0.0
 10
-148.5441
 20
-60.4467
 30
0.0
 10
-148.5441
 20
-60.4467
 30
0.0
 10
-148.5441
 20
-60.4467
 30
0.0
 10
-147.7651
 20
-59.5832
 30
0.0
 10
-146.7919
 20
-58.8963
 30
0.0
 10
-145.6938
 20
-58.457
 30
0.0
 10
-145.6938
 20
-58.457
 30
0.0
 10
-145.6938
 20
-58.457
 30
0.0
 10
-155.5439
 20
-41.0917
 30
0.0
 10
-155.5439
 20
-41.0917
 30
0.0
  0
SPLINE
  5
A4
330
1F
100
AcDbEntity
  8
layer 1
 62
     7
100
AcDbSpline
210
0.0
220
0.0
230
1.0
 70
    11
 71
     3
 72
    24
 73
    20
 74
     0
 42
0.0000000001
 43
0.0000000001
 12
1.0
 22
0.0
 32
0.0
 13
1.0
 23
0.0
 33
0.0
 40
0.0
 40
0.0
 40
0.0
 40
0.0
 40
0.1666666666666667
 40
0.1666666666666667
 40
0.1666666666666667
 40
0.1666666666666667
 40
0.3333333333333333
 40
0.3333333333333333
 40
0.3333333333333333
 40
0.3333333333333333
 40
0.5
 40
0.5
 40
0.5
 40
0.5
 40
0.6666666666666666
 40
0.6666666666666666
 40
0.6666666666666666
 40
0.6666666666666666
 40
1.0
 40
1.0
 40
1.0
 40
1.0
 10
-180.6977
 20
-57.6392
 30
0.0
 10
-180.0696
 20
-56.9307
 30
0.0
 10
-179.4059
 20
-56.4921
 30
0.0
 10
-178.6967
 20
-56.4163
 30
0.0
 10
-178.6967
 20
-56.4163
 30
0.0
 10
-177.2722
 20
-53.3536
 30
0.0
 10
-175.1069
 20
-51.855
 30
0.0
 10
-172.2009
 20
-51.9199
 30
0.0
 10
-172.2009
 20
-51.9199
 30
0.0
 10
-175.4691
 20
-42.8442
 30
0.0
 10
-168.7076
 20
-32.107
 30
0.0
 10
-158.9098
 20
-35.1582
 30
0.0
 10
-158.9098
 20
-35.1582
 30
0.0
 10
-158.9098
 20
-35.1582
 30
0.0
 10
-180.6977
 20
3.2521
 30
0.0
 10
-180.6977
 20
3.2521
 30
0.0
 10
-180.6977
 20
3.2521
 30
0.0
 10
-180.6977
 20
3.2521
 30
0.0
 10
-180.6977
 20
-57.6392
 30
0.0
 10
-180.6977
 20
-57.6392
 30
0.0
  0
SPLINE
  5
A5
330
1F
100
AcDbEntity
  8
layer 1
 62
     7
100
AcDbSpline
210
0.0
220
0.0
230
1.0
 70
    11
 71
     3
 72
    24
 73
    20
 74
     0
 42
0.0000000001
 43
0.0000000001
 12
1.0
 22
0.0
 32
0.0
 13
1.0
 23
0.0
 33
0.0
 40
0.0
 40
0.0
 40
0.0
 40
0.0
 40
0.1666666666666667
 40
0.1666666666666667
 40
0.1666666666666667
 40
0.1666666666666667
 40
0.3333333333333333
 40
0.3333333333333333
 40
0.3333333333333333
 40
0.3333333333333333
 40
0.5
 40
0.5
 40
0.5
 40
0.5
 40
0.6666666666666666
 40
0.6666666666666666
 40
0.6666666666666666
 40
0.6666666666666666
 40
1.0
 40
1.0
 40
1.0
 40
1.0
 10
-163.1083
 20
4.6983
 30
0.0
 10
-170.4546
 20
0.1302
 30
0.0
 10
-166.0098
 20
-6.4755
 30
0.0
 10
-160.1451
 20
-6.2285
 30
0.0
 10
-160.1451
 20
-6.2285
 30
0.0
 10
-160.6544
 20
-3.8804
 30
0.0
 10
-159.3053
 20
-2.6835
 30
0.0
 10
-157.7355
 20
-3.5189
 30
0.0
 10
-157.7355
 20
-3.5189
 30
0.0
 10
-156.2354
 20
-4.3176
 30
0.0
 10
-151.1745
 20
-7.8506
 30
0.0
 10
-147.3663
 20
0.5621
 30
0.0
 10
-147.3663
 20
0.5621
 30
0.0
 10
-149.0311
 20
-11.8944
 30
0.0
 10
-160.4045
 20
-12.6463
 30
0.0
 10
-165.5424
 20
-8.77
 30
0.0
 10
-165.5424
 20
-8.77
 30
0.0
 10
-170.3687
 20
-5.1293
 30
0.0
 10
-170.3079
 20
4.18
 30
0.0
 10
-163.1083
 20
4.6983
 30
0.0
  0
SPLINE
  5
A6
330
1F
100
AcDbEntity
  8
layer 1
 62
     7
370
    25
100
AcDbSpline
210
0.0
220
0.0
230
1.0
 70
    11
 71
     3
 72
    20
 73
    16
 74
     0
 42
0.0000000001
 43
0.0000000001
 12
1.0
 22
0.0
 32
0.0
 13
1.0
 23
0.0
 33
0.0
 40
0.0
 40
0.0
 40
0.0
 40
0.0
 40
0.2
 40
0.2
 40
0.2
 40
0.2
 40
0.4
 40
0.4
 40
0.4
 40
0.4
 40
0.6
 40
0.6
 40
0.6
 40
0.6
 40
1.0
 40
1.0
 40
1.0
 40
1.0
 10
-159.4661
 20
-19.254
 30
0.0
 10
-159.4661
 20
-18.2315
 30
0.0
 10
-158.6368
 20
-17.4023
 30
0.0
 10
-157.6141
 20
-17.4023
 30
0.0
 10
-157.6141
 20
-17.4023
 30
0.0
 10
-156.5913
 20
-17.4023
 30
0.0
 10
-155.7621
 20
-18.2315
 30
0.0
 10
-155.7621
 20
-19.254
 30
0.0
 10
-155.7621
 20
-19.254
 30
0.0
 10
-155.7621
 20
-20.2768
 30
0.0
 10
-156.5913
 20
-21.106
 30
0.0
 10
-157.6141
 20
-21.106
 30
0.0
 10
-157.6141
 20
-21.106
 30
0.0
 10
-158.6368
 20
-21.106
 30
0.0
 10
-159.4661
 20
-20.2768
 30
0.0
 10
-159.4661
 20
-19.254
 30
0.0
  0
SPLINE
  5
A7
330
1F
100
AcDbEntity
  8
layer 1
 62
     7
100
AcDbSpline
210
0.0
220
0.0
230
1.0
 70
    11
 71
     3
 72
    44
 73
    40
 74
     0
 42
0.0000000001
 43
0.0000000001
 12
1.0
 22
0.0
 32
0.0
 13
1.0
 23
0.0
 33
0.0
 40
0.0
 40
0.0
 40
0.0
 40
0.0
 40
0.0909090909090909
 40
0.0909090909090909
 40
0.0909090909090909
 40
0.0909090909090909
 40
0.1818181818181818
 40
0.1818181818181818
 40
0.1818181818181818
 40
0.1818181818181818
 40
0.2727272727272727
 40
0.2727272727272727
 40
0.2727272727272727
 40
0.2727272727272727
 40
0.3636363636363636
 40
0.3636363636363636
 40
0.3636363636363636
 40
0.3636363636363636
 40
0.4545454545454545
 40
0.4545454545454545
 40
0.4545454545454545
 40
0.4545454545454545
 40
0.5454545454545454
 40
0.5454545454545454
 40
0.5454545454545454
 40
0.5454545454545454
 40
0.6363636363636364
 40
0.6363636363636364
 40
0.6363636363636364
 40
0.6363636363636364
 40
0.7272727272727273
 40
0.7272727272727273
 40
0.7272727272727273
 40
0.7272727272727273
 40
0.8181818181818182
 40
0.8181818181818182
 40
0.8181818181818182
 40
0.8181818181818182
 40
1.0
 40
1.0
 40
1.0
 40
1.0
 10
-118.3544
 20
-97.7403
 30
0.0
 10
-118.2402
 20
-96.4787
 30
0.0
 10
-120.0685
 20
-92.8242
 30
0.0
 10
-119.6163
 20
-92.0413
 30
0.0
 10
-119.6163
 20
-92.0413
 30
0.0
 10
-112.8291
 20
-96.6038
 30
0.0
 10
-106.2973
 20
-92.2256
 30
0.0
 10
-104.9952
 20
-86.7431
 30
0.0
 10
-104.9952
 20
-86.7431
 30
0.0
 10
-104.9952
 20
-86.7431
 30
0.0
 10
-104.9952
 20
-108.9968
 30
0.0
 10
-104.9952
 20
-108.9968
 30
0.0
 10
-104.9952
 20
-108.9968
 30
0.0
 10
-104.9952
 20
-108.9968
 30
0.0
 10
-139.989
 20
-108.9968
 30
0.0
 10
-139.989
 20
-108.9968
 30
0.0
 10
-139.989
 20
-108.9968
 30
0.0
 10
-138.6488
 20
-106.9727
 30
0.0
 10
-137.568
 20
-103.7607
 30
0.0
 10
-137.8331
 20
-100.1304
 30
0.0
 10
-137.8331
 20
-100.1304
 30
0.0
 10
-138.3376
 20
-93.2209
 30
0.0
 10
-136.496
 20
-100.4736
 30
0.0
 10
-133.4197
 20
-100.0943
 30
0.0
 10
-133.4197
 20
-100.0943
 30
0.0
 10
-135.6994
 20
-95.5953
 30
0.0
 10
-132.7201
 20
-92.2546
 30
0.0
 10
-136.2555
 20
-86.5558
 30
0.0
 10
-136.2555
 20
-86.5558
 30
0.0
 10
-140.4349
 20
-79.8192
 30
0.0
 10
-143.0063
 20
-73.9051
 30
0.0
 10
-140.0691
 20
-72.7305
 30
0.0
 10
-140.0691
 20
-72.7305
 30
0.0
 10
-139.9659
 20
-72.6904
 30
0.0
 10
-139.8637
 20
-72.6485
 30
0.0
 10
-139.7625
 20
-72.604
 30
0.0
 10
-139.7625
 20
-72.604
 30
0.0
 10
-133.524
 20
-70.3764
 30
0.0
 10
-136.6777
 20
-94.6491
 30
0.0
 10
-118.3544
 20
-97.7403
 30
0.0
  0
SPLINE
  5
A8
330
1F
100
AcDbEntity
  8
layer 1
 62
     7
100
AcDbSpline
210
0.0
220
0.0
230
1.0
 70
    11
 71
     3
 72
    32
 73
    28
 74
     0
 42
0.0000000001
 43
0.0000000001
 12
1.0
 22
0.0
 32
0.0
 13
1.0
 23
0.0
 33
0.0
 40
0.0
 40
0.0
 40
0.0
 40
0.0
 40
0.125
 40
0.125
 40
0.125
 40
0.125
 40
0.25
 40
0.25
 40
0.25
 40
0.25
 40
0.375
 40
0.375
 40
0.375
 40
0.375
 40
0.5
 40
0.5
 40
0.5
 40
0.5
 40
0.625
 40
0.625
 40
0.625
 40
0.625
 40
0.75
 40
0.75
 40
0.75
 40
0.75
 40
1.0
 40
1.0
 40
1.0
 40
1.0
 10
-135.5456
 20
-67.9344
 30
0.0
 10
-134.6723
 20
-65.5149
 30
0.0
 10
-133.2149
 20
-66.952
 30
0.0
 10
-129.7963
 20
-68.8307
 30
0.0
 10
-129.7963
 20
-68.8307
 30
0.0
 10
-125.7765
 20
-71.0404
 30
0.0
 10
-117.6489
 20
-70.8472
 30
0.0
 10
-112.8339
 20
-66.4425
 30
0.0
 10
-112.8339
 20
-66.4425
 30
0.0
 10
-109.539
 20
-63.4288
 30
0.0
 10
-106.8479
 20
-61.3997
 30
0.0
 10
-104.9952
 20
-60.8284
 30
0.0
 10
-104.9952
 20
-60.8284
 30
0.0
 10
-104.9952
 20
-60.8284
 30
0.0
 10
-104.9952
 20
-82.8555
 30
0.0
 10
-104.9952
 20
-82.8555
 30
0.0
 10
-104.9952
 20
-82.8555
 30
0.0
 10
-105.8104
 20
-79.5772
 30
0.0
 10
-108.8314
 20
-76.5435
 30
0.0
 10
-115.0757
 20
-75.3512
 30
0.0
 10
-115.0757
 20
-75.3512
 30
0.0
 10
-108.1334
 20
-85.9705
 30
0.0
 10
-125.1057
 20
-89.8495
 30
0.0
 10
-129.1884
 20
-79.4148
 30
0.0
 10
-129.1884
 20
-79.4148
 30
0.0
 10
-131.461
 20
-73.6068
 30
0.0
 10
-136.9295
 20
-72.013
 30
0.0
 10
-135.5456
 20
-67.9344
 30
0.0
  0
SPLINE
  5
A9
330
1F
100
AcDbEntity
  8
layer 1
 62
     7
100
AcDbSpline
210
0.0
220
0.0
230
1.0
 70
    11
 71
     3
 72
    20
 73
    16
 74
     0
 42
0.0000000001
 43
0.0000000001
 12
1.0
 22
0.0
 32
0.0
 13
1.0
 23
0.0
 33
0.0
 40
0.0
 40
0.0
 40
0.0
 40
0.0
 40
0.2
 40
0.2
 40
0.2
 40
0.2
 40
0.4
 40
0.4
 40
0.4
 40
0.4
 40
0.6
 40
0.6
 40
0.6
 40
0.6
 40
1.0
 40
1.0
 40
1.0
 40
1.0
 10
-130.149
 20
-41.0917
 30
0.0
 10
-114.3544
 20
-44.3484
 30
0.0
 10
-120.8719
 20
-66.0691
 30
0.0
 10
-137.1488
 20
-60.4467
 30
0.0
 10
-137.1488
 20
-60.4467
 30
0.0
 10
-137.1488
 20
-60.4467
 30
0.0
 10
-137.1488
 20
-60.4467
 30
0.0
 10
-137.1488
 20
-60.4467
 30
0.0
 10
-137.1488
 20
-60.4467
 30
0.0
 10
-137.9278
 20
-59.5832
 30
0.0
 10
-138.901
 20
-58.8963
 30
0.0
 10
-139.9991
 20
-58.457
 30
0.0
 10
-139.9991
 20
-58.457
 30
0.0
 10
-139.9991
 20
-58.457
 30
0.0
 10
-130.149
 20
-41.0917
 30
0.0
 10
-130.149
 20
-41.0917
 30
0.0
  0
SPLINE
  5
AA
330
1F
100
AcDbEntity
  8
layer 1
 62
     7
100
AcDbSpline
210
0.0
220
0.0
230
1.0
 70
    11
 71
     3
 72
    24
 73
    20
 74
     0
 42
0.0000000001
 43
0.0000000001
 12
1.0
 22
0.0
 32
0.0
 13
1.0
 23
0.0
 33
0.0
 40
0.0
 40
0.0
 40
0.0
 40
0.0
 40
0.1666666666666667
 40
0.1666666666666667
 40
0.1666666666666667
 40
0.1666666666666667
 40
0.3333333333333333
 40
0.3333333333333333
 40
0.3333333333333333
 40
0.3333333333333333
 40
0.5
 40
0.5
 40
0.5
 40
0.5
 40
0.6666666666666666
 40
0.6666666666666666
 40
0.6666666666666666
 40
0.6666666666666666
 40
1.0
 40
1.0
 40
1.0
 40
1.0
 10
-104.9952
 20
-57.6392
 30
0.0
 10
-105.6233
 20
-56.9307
 30
0.0
 10
-106.287
 20
-56.4921
 30
0.0
 10
-106.9962
 20
-56.4163
 30
0.0
 10
-106.9962
 20
-56.4163
 30
0.0
 10
-108.4207
 20
-53.3536
 30
0.0
 10
-110.586
 20
-51.855
 30
0.0
 10
-113.492
 20
-51.9199
 30
0.0
 10
-113.492
 20
-51.9199
 30
0.0
 10
-110.2238
 20
-42.8442
 30
0.0
 10
-116.9853
 20
-32.107
 30
0.0
 10
-126.7831
 20
-35.1582
 30
0.0
 10
-126.7831
 20
-35.1582
 30
0.0
 10
-126.7831
 20
-35.1582
 30
0.0
 10
-104.9952
 20
3.2521
 30
0.0
 10
-104.9952
 20
3.2521
 30
0.0
 10
-104.9952
 20
3.2521
 30
0.0
 10
-104.9952
 20
3.2521
 30
0.0
 10
-104.9952
 20
-57.6392
 30
0.0
 10
-104.9952
 20
-57.6392
 30
0.0
  0
SPLINE
  5
AB
330
1F
100
AcDbEntity
  8
layer 1
 62
     7
100
AcDbSpline
210
0.0
220
0.0
230
1.0
 70
    11
 71
     3
 72
    24
 73
    20
 74
     0
 42
0.0000000001
 43
0.0000000001
 12
1.0
 22
0.0
 32
0.0
 13
1.0
 23
0.0
 33
0.0
 40
0.0
 40
0.0
 40
0.0
 40
0.0
 40
0.1666666666666667
 40
0.1666666666666667
 40
0.1666666666666667
 40
0.1666666666666667
 40
0.3333333333333333
 40
0.3333333333333333
 40
0.3333333333333333
 40
0.3333333333333333
 40
0.5
 40
0.5
 40
0.5
 40
0.5
 40
0.6666666666666666
 40
0.6666666666666666
 40
0.6666666666666666
 40
0.6666666666666666
 40
1.0
 40
1.0
 40
1.0
 40
1.0
 10
-122.5846
 20
4.6983
 30
0.0
 10
-115.2383
 20
0.1302
 30
0.0
 10
-119.6831
 20
-6.4755
 30
0.0
 10
-125.5478
 20
-6.2285
 30
0.0
 10
-125.5478
 20
-6.2285
 30
0.0
 10
-125.0385
 20
-3.8804
 30
0.0
 10
-126.3876
 20
-2.6835
 30
0.0
 10
-127.9574
 20
-3.5189
 30
0.0
 10
-127.9574
 20
-3.5189
 30
0.0
 10
-129.4575
 20
-4.3176
 30
0.0
 10
-134.5184
 20
-7.8506
 30
0.0
 10
-138.3266
 20
0.5621
 30
0.0
 10
-138.3266
 20
0.5621
 30
0.0
 10
-136.6618
 20
-11.8944
 30
0.0
 10
-125.2884
 20
-12.6463
 30
0.0
 10
-120.1505
 20
-8.77
 30
0.0
 10
-120.1505
 20
-8.77
 30
0.0
 10
-115.3242
 20
-5.1293
 30
0.0
 10
-115.385
 20
4.18
 30
0.0
 10
-122.5846
 20
4.6983
 30
0.0
  0
SPLINE
  5
AC
330
1F
100
AcDbEntity
  8
layer 1
 62
     7
370
    25
100
AcDbSpline
210
0.0
220
0.0
230
1.0
 70
    11
 71
     3
 72
    20
 73
    16
 74
     0
 42
0.0000000001
 43
0.0000000001
 12
1.0
 22
0.0
 32
0.0
 13
1.0
 23
0.0
 33
0.0
 40
0.0
 40
0.0
 40
0.0
 40
0.0
 40
0.2
 40
0.2
 40
0.2
 40
0.2
 40
0.4
 40
0.4
 40
0.4
 40
0.4
 40
0.6
 40
0.6
 40
0.6
 40
0.6
 40
1.0
 40
1.0
 40
1.0
 40
1.0
 10
-126.2268
 20
-19.254
 30
0.0
 10
-126.2268
 20
-18.2315
 30
0.0
 10
-127.0561
 20
-17.4023
 30
0.0
 10
-128.0788
 20
-17.4023
 30
0.0
 10
-128.0788
 20
-17.4023
 30
0.0
 10
-129.1016
 20
-17.4023
 30
0.0
 10
-129.9308
 20
-18.2315
 30
0.0
 10
-129.9308
 20
-19.254
 30
0.0
 10
-129.9308
 20
-19.254
 30
0.0
 10
-129.9308
 20
-20.2768
 30
0.0
 10
-129.1016
 20
-21.106
 30
0.0
 10
-128.0788
 20
-21.106
 30
0.0
 10
-128.0788
 20
-21.106
 30
0.0
 10
-127.0561
 20
-21.106
 30
0.0
 10
-126.2268
 20
-20.2768
 30
0.0
 10
-126.2268
 20
-19.254
 30
0.0
  0
SPLINE
  5
AD
330
1F
100
AcDbEntity
  8
layer 1
 62
     7
100
AcDbSpline
210
0.0
220
0.0
230
1.0
 70
    11
 71
     3
 72
    36
 73
    32
 74
     0
 42
0.0000000001
 43
0.0000000001
 12
1.0
 22
0.0
 32
0.0
 13
1.0
 23
0.0
 33
0.0
 40
0.0
 40
0.0
 40
0.0
 40
0.0
 40
0.1111111111111111
 40
0.1111111111111111
 40
0.1111111111111111
 40
0.1111111111111111
 40
0.2222222222222222
 40
0.2222222222222222
 40
0.2222222222222222
 40
0.2222222222222222
 40
0.3333333333333333
 40
0.3333333333333333
 40
0.3333333333333333
 40
0.3333333333333333
 40
0.4444444444444444
 40
0.4444444444444444
 40
0.4444444444444444
 40
0.4444444444444444
 40
0.5555555555555556
 40
0.5555555555555556
 40
0.5555555555555556
 40
0.5555555555555556
 40
0.6666666666666666
 40
0.6666666666666666
 40
0.6666666666666666
 40
0.6666666666666666
 40
0.7777777777777778
 40
0.7777777777777778
 40
0.7777777777777778
 40
0.7777777777777778
 40
1.0
 40
1.0
 40
1.0
 40
1.0
 10
-142.8464
 20
-2.0753
 30
0.0
 10
-144.2378
 20
-2.9548
 30
0.0
 10
-144.0187
 20
-6.6812
 30
0.0
 10
-144.1553
 20
-11.9697
 30
0.0
 10
-144.1553
 20
-11.9697
 30
0.0
 10
-144.3937
 20
-21.2014
 30
0.0
 10
-149.249
 20
-27.1932
 30
0.0
 10
-148.9076
 20
-31.5627
 30
0.0
 10
-148.9076
 20
-31.5627
 30
0.0
 10
-147.5467
 20
-31.5631
 30
0.0
 10
-146.186
 20
-31.3991
 30
0.0
 10
-144.8256
 20
-30.0781
 30
0.0
 10
-144.8256
 20
-30.0781
 30
0.0
 10
-145.1976
 20
-40.4272
 30
0.0
 10
-144.2249
 20
-43.3765
 30
0.0
 10
-142.8464
 20
-44.0973
 30
0.0
 10
-142.8464
 20
-44.0973
 30
0.0
 10
-141.468
 20
-43.3765
 30
0.0
 10
-140.4953
 20
-40.4272
 30
0.0
 10
-140.8673
 20
-30.0781
 30
0.0
 10
-140.8673
 20
-30.0781
 30
0.0
 10
-139.5069
 20
-31.3991
 30
0.0
 10
-138.1462
 20
-31.5631
 30
0.0
 10
-136.7853
 20
-31.5627
 30
0.0
 10
-136.7853
 20
-31.5627
 30
0.0
 10
-136.4439
 20
-27.1932
 30
0.0
 10
-141.2992
 20
-21.2014
 30
0.0
 10
-141.5376
 20
-11.9697
 30
0.0
 10
-141.5376
 20
-11.9697
 30
0.0
 10
-141.6742
 20
-6.6812
 30
0.0
 10
-141.4551
 20
-2.9548
 30
0.0
 10
-142.8464
 20
-2.0753
 30
0.0
  0
SPLINE
  5
AE
330
1F
100
AcDbEntity
  8
layer 1
 62
     7
370
    25
100
AcDbSpline
210
0.0
220
0.0
230
1.0
 70
    11
 71
     3
 72
    20
 73
    16
 74
     0
 42
0.0000000001
 43
0.0000000001
 12
1.0
 22
0.0
 32
0.0
 13
1.0
 23
0.0
 33
0.0
 40
0.0
 40
0.0
 40
0.0
 40
0.0
 40
0.2
 40
0.2
 40
0.2
 40
0.2
 40
0.4
 40
0.4
 40
0.4
 40
0.4
 40
0.6
 40
0.6
 40
0.6
 40
0.6
 40
1.0
 40
1.0
 40
1.0
 40
1.0
 10
-140.9502
 20
8.2678
 30
0.0
 10
-140.9502
 20
9.4289
 30
0.0
 10
-141.8919
 20
10.3706
 30
0.0
 10
-143.0531
 20
10.3706
 30
0.0
 10
-143.0531
 20
10.3706
 30
0.0
 10
-144.2143
 20
10.3706
 30
0.0
 10
-145.1559
 20
9.4289
 30
0.0
 10
-145.1559
 20
8.2678
 30
0.0
 10
-145.1559
 20
8.2678
 30
0.0
 10
-145.1559
 20
7.1068
 30
0.0
 10
-144.2143
 20
6.1651
 30
0.0
 10
-143.0531
 20
6.1651
 30
0.0
 10
-143.0531
 20
6.1651
 30
0.0
 10
-141.8919
 20
6.1651
 30
0.0
 10
-140.9502
 20
7.1068
 30
0.0
 10
-140.9502
 20
8.2678
 30
0.0
  0
SPLINE
  5
AF
330
1F
100
AcDbEntity
  8
layer 1
 62
     7
370
    25
100
AcDbSpline
210
0.0
220
0.0
230
1.0
 70
     8
 71
     3
 72
     8
 73
     4
 74
     0
 42
0.0000000001
 43
0.0000000001
 12
1.0
 22
0.0
 32
0.0
 13
1.0
 23
0.0
 33
0.0
 40
0.0
 40
0.0
 40
0.0
 40
0.0
 40
1.0
 40
1.0
 40
1.0
 40
1.0
 10
-147.5684
 20
25.6139
 30
0.0
 10
-152.2419
 20
34.1543
 30
0.0
 10
-156.5001
 20
38.4784
 30
0.0
 10
-162.6172
 20
34.6124
 30
0.0
  0
SPLINE
  5
B0
330
1F
100
AcDbEntity
  8
layer 1
 62
     7
370
    25
100
AcDbSpline
210
0.0
220
0.0
230
1.0
 70
     8
 71
     3
 72
     8
 73
     4
 74
     0
 42
0.0000000001
 43
0.0000000001
 12
1.0
 22
0.0
 32
0.0
 13
1.0
 23
0.0
 33
0.0
 40
0.0
 40
0.0
 40
0.0
 40
0.0
 40
1.0
 40
1.0
 40
1.0
 40
1.0
 10
-138.1245
 20
25.6139
 30
0.0
 10
-133.451
 20
34.1543
 30
0.0
 10
-129.1928
 20
38.4784
 30
0.0
 10
-123.0757
 20
34.6124
 30
0.0
  0
SPLINE
  5
B1
330
1F
100
AcDbEntity
  8
layer 1
 62
     7
370
    25
100
AcDbSpline
210
0.0
220
0.0
230
1.0
 70
     8
 71
     3
 72
     8
 73
     4
 74
     0
 42
0.0000000001
 43
0.0000000001
 12
1.0
 22
0.0
 32
0.0
 13
1.0
 23
0.0
 33
0.0
 40
0.0
 40
0.0
 40
0.0
 40
0.0
 40
1.0
 40
1.0
 40
1.0
 40
1.0
 10
-147.5684
 20
-9.0782
 30
0.0
 10
-152.2419
 20
-17.6186
 30
0.0
 10
-156.5001
 20
-21.9426
 30
0.0
 10
-162.6172
 20
-18.0767
 30
0.0
  0
SPLINE
  5
B2
330
1F
100
AcDbEntity
  8
layer 1
 62
     7
370
    25
100
AcDbSpline
210
0.0
220
0.0
230
1.0
 70
     8
 71
     3
 72
     8
 73
     4
 74
     0
 42
0.0000000001
 43
0.0000000001
 12
1.0
 22
0.0
 32
0.0
 13
1.0
 23
0.0
 33
0.0
 40
0.0
 40
0.0
 40
0.0
 40
0.0
 40
1.0
 40
1.0
 40
1.0
 40
1.0
 10
-138.1245
 20
-9.0782
 30
0.0
 10
-133.451
 20
-17.6186
 30
0.0
 10
-129.1928
 20
-21.9426
 30
0.0
 10
-123.0757
 20
-18.0767
 30
0.0
  0
LWPOLYLINE
  5
B3
330
1F
100
AcDbEntity
  8
layer 1
 62
   250
370
     9
100
AcDbPolyline
 90
        5
 70
     1
 43
0.0
 10
-49.2492
 20
-115.368
 10
196.3768
 20
-115.368
 10
196.3768
 20
131.6536
 10
-49.2492
 20
131.6536
 10
-49.2492
 20
-115.368
  0
SPLINE
  5
B4
330
1F
100
AcDbEntity
  8
layer 1
 62
     7
370
    25
100
AcDbSpline
210
0.0
220
0.0
230
1.0
 70
    24
 71
     3
 72
     8
 73
     4
 74
     0
 42
0.0000000001
 43
0.0000000001
 12
1.0
 22
0.0
 32
0.0
 13
1.0
 23
0.0
 33
0.0
 40
0.0
 40
0.0
 40
0.0
 40
0.0
 40
1.0
 40
1.0
 40
1.0
 40
1.0
 10
27.1519
 20
54.5556
 30
0.0
 10
27.1519
 20
54.5556
 30
0.0
 10
58.4165
 20
23.2903
 30
0.0
 10
58.4165
 20
23.2903
 30
0.0
  0
SPLINE
  5
B5
330
1F
100
AcDbEntity
  8
layer 1
 62
     7
370
    25
100
AcDbSpline
210
0.0
220
0.0
230
1.0
 70
    24
 71
     3
 72
     8
 73
     4
 74
     0
 42
0.0000000001
 43
0.0000000001
 12
1.0
 22
0.0
 32
0.0
 13
1.0
 23
0.0
 33
0.0
 40
0.0
 40
0.0
 40
0.0
 40
0.0
 40
1.0
 40
1.0
 40
1.0
 40
1.0
 10
119.9757
 20
54.5556
 30
0.0
 10
119.9757
 20
54.5556
 30
0.0
 10
88.7111
 20
23.2903
 30
0.0
 10
88.7111
 20
23.2903
 30
0.0
  0
IMAGE
  5
B7
330
1F
100
AcDbEntity
  8
layer 1
 62
     7
 92
      140
310
8C000000010000008400000006000000050000004C37894160595340C9E53FA4DF0651C00000000000000000A18CDE96B5FE5B40C9E53FA4DF0651C00000000000000000A18CDE96B5FE5B409E5CFE43FAED14C000000000000000004C378941605953409E5CFE43FAED14C000000000000000004C37894160595340C9E53F
310
A4DF0651C00000000000000000
100
AcDbRasterImage
 90
        0
 10
77.3965
 20
-68.1074
 30
0.0
 11
0.01388888888888889
 21
0.0
 31
0.0
 12
0.0
 22
0.01388888888888889
 32
0.0
 13
2490.0
 23
4527.0
340
B6
 70
     3
280
     1
281
    50
282
    50
283
     0
360
B8
 71
     1
 91
        2
 14
77.3965
 24
-68.1074
 14
111.9925
 24
-5.229599999999998
  0
IMAGE
  5
BA
330
1F
100
AcDbEntity
  8
layer 1
 62
     7
 92
      140
310
8C000000010000008400000006000000050000005396218E75495940EE7C3F355E1257C000000000000000000D049FAAF37A6040EE7C3F355E1257C000000000000000000D049FAAF37A60406ADDB7F89F6D4AC000000000000000005396218E754959406ADDB7F89F6D4AC000000000000000005396218E75495940EE7C3F
310
355E1257C00000000000000000
100
AcDbRasterImage
 90
        0
 10
101.1478
 20
-92.287
 30
0.0
 11
0.01388888888888889
 21
0.0
 31
0.0
 12
0.0
 22
0.01388888888888889
 32
0.0
 13
2210.0
 23
2839.0
340
B9
 70
     3
280
     1
281
    50
282
    50
283
     0
360
BB
 71
     1
 91
        2
 14
101.1478
 24
-92.287
 14
131.843
 24
-52.8531
  0
IMAGE
  5
BD
330
1F
100
AcDbEntity
  8
layer 1
 62
     7
 92
      140
310
8C000000010000008400000006000000050000005DFE43FAEDBB5540613255302A493EC000000000000000002EFF21FDF6B96240613255302A493EC000000000000000002EFF21FDF6B96240CE8B0094AC30114000000000000000005DFE43FAEDBB5540CE8B0094AC30114000000000000000005DFE43FAEDBB5540613255
310
302A493EC00000000000000000
100
AcDbRasterImage
 90
        0
 10
86.9364
 20
-30.2858
 30
0.0
 11
0.01388888888888889
 21
0.0
 31
0.0
 12
0.0
 22
0.01388888888888889
 32
0.0
 13
4527.0
 23
2490.0
340
BC
 70
     3
280
     1
281
    50
282
    50
283
     0
360
BE
 71
     1
 91
        2
 14
86.9364
 24
-30.2858
 14
149.8141
 24
4.310199999999998
  0
IMAGE
  5
C0
330
1F
100
AcDbEntity
  8
layer 1
 62
     7
 92
      140
310
8C000000010000008400000006000000050000004772F90FE9D16040EF384547721149C0000000000000000064396B2CB0BF6540EF384547721149C0000000000000000064396B2CB0BF6540C1AA18721D7133C000000000000000004772F90FE9D16040C1AA18721D7133C000000000000000004772F90FE9D16040EF3845
310
47721149C00000000000000000
100
AcDbRasterImage
 90
        0
 10
134.5597
 20
-50.1363
 30
0.0
 11
0.01388888888888889
 21
0.0
 31
0.0
 12
0.0
 22
0.01388888888888889
 32
0.0
 13
2839.0
 23
2210.0
340
BF
 70
     3
280
     1
281
    50
282
    50
283
     0
360
C1
 71
     1
 91
        2
 14
134.5597
 24
-50.1363
 14
173.9938
 24
-19.4413
  0
IMAGE
  5
C3
330
1F
100
AcDbEntity
  8
layer 1
 62
     7
 92
      140
310
8C000000010000008400000006000000050000002497FF907EBB5D4072F90FE9B7EF46C00000000000000000B27A381F62E45F4072F90FE9B7EF46C00000000000000000B27A381F62E45F4056329ECCF09D42C000000000000000002497FF907EBB5D4056329ECCF09D42C000000000000000002497FF907EBB5D4072F90F
310
E9B7EF46C00000000000000000
100
AcDbRasterImage
 90
        0
 10
118.9296
 20
-45.8728
 30
0.0
 11
0.01388888888888889
 21
0.0
 31
0.0
 12
0.0
 22
0.01388888888888889
 32
0.0
 13
622.0
 23
622.0
340
C2
 70
     3
280
     1
281
    50
282
    50
283
     0
360
C4
 71
     1
 91
        2
 14
118.9296
 24
-45.8728
 14
127.5794
 24
-37.2228
  0
IMAGE
  5
C6
330
1F
100
AcDbEntity
  8
layer 1
 62
     7
 92
      140
310
8C0000000100000084000000060000000500000037894160E52262402CD49AE61DA75AC0000000000000000038894160E5C267402CD49AE61DA75AC0000000000000000038894160E5C2674059A835CD3B5E48C0000000000000000037894160E522624059A835CD3B5E48C0000000000000000037894160E52262402CD49A
310
E61DA75AC00000000000000000
100
AcDbRasterImage
 90
        0
 10
145.0905
 20
-106.6112
 30
0.0
 11
0.01388888888888889
 21
0.0
 31
0.0
 12
0.0
 22
0.01388888888888889
 32
0.0
 13
3240.0
 23
4167.0
340
C5
 70
     3
280
     1
281
    50
282
    50
283
     0
360
C7
 71
     1
 91
        2
 14
145.0905
 24
-106.6112
 14
190.0927
 24
-48.7276
  0
IMAGE
  5
C9
330
1F
100
AcDbEntity
  8
layer 1
 62
     7
 92
      140
310
8C0000000100000084000000060000000500000003780B2428D464402EFF21FDF6DD46C00000000000000000AE22B6CED2C267402EFF21FDF6DD46C00000000000000000AE22B6CED2C267403AB19AC1F23A1C40000000000000000003780B2428D464403AB19AC1F23A1C40000000000000000003780B2428D464402EFF21
310
FDF6DD46C00000000000000000
100
AcDbRasterImage
 90
        0
 10
166.6299
 20
-45.7341
 30
0.0
 11
0.01388888888888889
 21
0.0
 31
0.0
 12
0.0
 22
0.01388888888888889
 32
0.0
 13
1689.0
 23
3801.0
340
C8
 70
     3
280
     1
281
    50
282
    50
283
     0
360
CA
 71
     1
 91
        2
 14
166.6299
 24
-45.7341
 14
190.0926
 24
7.066099999999999
  0
IMAGE
  5
CC
330
1F
100
AcDbEntity
  8
layer 1
 62
     7
 92
      140
310
8C00000001000000840000000600000005000000F7065F984CAD5240143FC6DCB5185BC00000000000000000DA3FED7B85DB5F40143FC6DCB5185BC00000000000000000DA3FED7B85DB5F40BFE97087603B55C00000000000000000F7065F984CAD5240BFE97087603B55C00000000000000000F7065F984CAD5240143FC6
310
DCB5185BC00000000000000000
100
AcDbRasterImage
 90
        0
 10
74.7078
 20
-108.3861
 30
0.0
 11
0.01388888888888889
 21
0.0
 31
0.0
 12
0.0
 22
0.01388888888888889
 32
0.0
 13
3796.0
 23
1689.0
340
CB
 70
     3
280
     1
281
    50
282
    50
283
     0
360
CD
 71
     1
 91
        2
 14
74.7078
 24
-108.3861
 14
127.441
 24
-84.92269999999999
  0
IMAGE
  5
CF
330
1F
100
AcDbEntity
  8
layer 1
 62
     7
 92
      140
310
8C000000010000008400000006000000050000003D2CD49AE64D6040143FC6DCB5185BC000000000000000003D2CD49AE6896740143FC6DCB5185BC000000000000000003D2CD49AE6896740287E8CB96BB14FC000000000000000003D2CD49AE64D6040287E8CB96BB14FC000000000000000003D2CD49AE64D6040143FC6
310
DCB5185BC00000000000000000
100
AcDbRasterImage
 90
        0
 10
130.4344
 20
-108.3861
 30
0.0
 11
0.01388888888888889
 21
0.0
 31
0.0
 12
0.0
 22
0.01388888888888889
 32
0.0
 13
4167.0
 23
3240.0
340
CE
 70
     3
280
     1
281
    50
282
    50
283
     0
360
D0
 71
     1
 91
        2
 14
130.4344
 24
-108.3861
 14
188.318
 24
-63.384
  0
IMAGE
  5
D2
330
1F
100
AcDbEntity
  8
layer 1
 62
     7
 92
      140
310
8C0000000100000084000000060000000500000045D8F0F44A914140C9E53FA4DF0651C0000000000000000078C1CDCFFA6D5140C9E53FA4DF0651C0000000000000000078C1CDCFFA6D51409E5CFE43FAED14C0000000000000000045D8F0F44A9141409E5CFE43FAED14C0000000000000000045D8F0F44A914140C9E53F
310
A4DF0651C00000000000000000
100
AcDbRasterImage
 90
        0
 10
35.1351
 20
-68.1074
 30
0.0
 11
0.01388888888888889
 21
0.0
 31
0.0
 12
0.0
 22
0.01388888888888889
 32
0.0
 13
2490.0
 23
4527.0
340
D1
 70
     3
280
     1
281
    50
282
    50
283
     0
360
D3
 71
     1
 91
        2
 14
35.1351
 24
-68.1074
 14
69.731
 24
-5.229599999999998
  0
IMAGE
  5
D5
330
1F
100
AcDbEntity
  8
layer 1
 62
     7
 92
      140
310
8C000000010000008400000006000000050000008B6CE7FBA9912E40EE7C3F355E1257C00000000000000000B1BE320D4EFD4640EE7C3F355E1257C00000000000000000B1BE320D4EFD46406ADDB7F89F6D4AC000000000000000008B6CE7FBA9912E406ADDB7F89F6D4AC000000000000000008B6CE7FBA9912E40EE7C3F
310
355E1257C00000000000000000
100
AcDbRasterImage
 90
        0
 10
15.2845
 20
-92.287
 30
0.0
 11
0.01388888888888889
 21
0.0
 31
0.0
 12
0.0
 22
0.01388888888888889
 32
0.0
 13
2210.0
 23
2839.0
340
D4
 70
     3
280
     1
281
    50
282
    50
283
     0
360
D6
 71
     1
 91
        2
 14
15.2845
 24
-92.287
 14
45.9798
 24
-52.8531
  0
IMAGE
  5
D8
330
1F
100
AcDbEntity
  8
layer 1
 62
     7
 92
      140
310
8C00000001000000840000000600000005000000CBA145B6F37D05C0613255302A493EC00000000000000000E3A59BC420184E40613255302A493EC00000000000000000E3A59BC420184E40CE8B0094AC3011400000000000000000CBA145B6F37D05C0CE8B0094AC3011400000000000000000CBA145B6F37D05C0613255
310
302A493EC00000000000000000
100
AcDbRasterImage
 90
        0
 10
-2.6865
 20
-30.2858
 30
0.0
 11
0.01388888888888889
 21
0.0
 31
0.0
 12
0.0
 22
0.01388888888888889
 32
0.0
 13
4527.0
 23
2490.0
340
D7
 70
     3
280
     1
281
    50
282
    50
283
     0
360
D9
 71
     1
 91
        2
 14
-2.6865
 24
-30.2858
 14
60.1911
 24
4.310199999999998
  0
IMAGE
  5
DB
330
1F
100
AcDbEntity
  8
layer 1
 62
     7
 92
      140
310
8C0000000100000084000000060000000500000092CB7F48BFDD3AC0EF384547721149C00000000000000000A4DA1C36F3202940EF384547721149C00000000000000000A4DA1C36F3202940C1AA18721D7133C0000000000000000092CB7F48BFDD3AC0C1AA18721D7133C0000000000000000092CB7F48BFDD3AC0EF3845
310
47721149C00000000000000000
100
AcDbRasterImage
 90
        0
 10
-26.8662
 20
-50.1363
 30
0.0
 11
0.01388888888888889
 21
0.0
 31
0.0
 12
0.0
 22
0.01388888888888889
 32
0.0
 13
2839.0
 23
2210.0
340
DA
 70
     3
280
     1
281
    50
282
    50
283
     0
360
DC
 71
     1
 91
        2
 14
-26.8662
 24
-50.1363
 14
12.5678
 24
-19.4413
  0
IMAGE
  5
DE
330
1F
100
AcDbEntity
  8
layer 1
 62
     7
 92
      140
310
8C00000001000000840000000600000005000000CEAACFD5568C334072F90FE9B7EF46C000000000000000000639B30EE52F3C4072F90FE9B7EF46C000000000000000000639B30EE52F3C4056329ECCF09D42C00000000000000000CEAACFD5568C334056329ECCF09D42C00000000000000000CEAACFD5568C334072F90F
310
E9B7EF46C00000000000000000
100
AcDbRasterImage
 90
        0
 10
19.5482
 20
-45.8728
 30
0.0
 11
0.01388888888888889
 21
0.0
 31
0.0
 12
0.0
 22
0.01388888888888889
 32
0.0
 13
622.0
 23
622.0
340
DD
 70
     3
280
     1
281
    50
282
    50
283
     0
360
DF
 71
     1
 91
        2
 14
19.5482
 24
-45.8728
 14
28.198
 24
-37.2228
  0
IMAGE
  5
E1
330
1F
100
AcDbEntity
  8
layer 1
 62
     7
 92
      140
310
8C000000010000008400000006000000050000004FAF9465887B45C02CD49AE61DA75AC00000000000000000100BB5A6794700402CD49AE61DA75AC00000000000000000100BB5A67947004059A835CD3B5E48C000000000000000004FAF9465887B45C059A835CD3B5E48C000000000000000004FAF9465887B45C02CD49A
310
E61DA75AC00000000000000000
100
AcDbRasterImage
 90
        0
 10
-42.9651
 20
-106.6112
 30
0.0
 11
0.01388888888888889
 21
0.0
 31
0.0
 12
0.0
 22
0.01388888888888889
 32
0.0
 13
3240.0
 23
4167.0
340
E0
 70
     3
280
     1
281
    50
282
    50
283
     0
360
E2
 71
     1
 91
        2
 14
-42.9651
 24
-106.6112
 14
2.036999999999999
 24
-48.7276
  0
IMAGE
  5
E4
330
1F
100
AcDbEntity
  8
layer 1
 62
     7
 92
      140
310
8C00000001000000840000000600000005000000EC51B81E857B45C02EFF21FDF6DD46C00000000000000000844E1BE8B48133C02EFF21FDF6DD46C00000000000000000844E1BE8B48133C03AB19AC1F23A1C400000000000000000EC51B81E857B45C03AB19AC1F23A1C400000000000000000EC51B81E857B45C02EFF21
310
FDF6DD46C00000000000000000
100
AcDbRasterImage
 90
        0
 10
-42.965
 20
-45.7341
 30
0.0
 11
0.01388888888888889
 21
0.0
 31
0.0
 12
0.0
 22
0.01388888888888889
 32
0.0
 13
1689.0
 23
3801.0
340
E3
 70
     3
280
     1
281
    50
282
    50
283
     0
360
E5
 71
     1
 91
        2
 14
-42.965
 24
-45.7341
 14
-19.5023
 24
7.066099999999999
  0
IMAGE
  5
E7
330
1F
100
AcDbEntity
  8
layer 1
 62
     7
 92
      140
310
8C0000000100000084000000060000000500000039B4C876BEAF3340143FC6DCB5185BC00000000000000000F2654081281A5240143FC6DCB5185BC00000000000000000F2654081281A5240BFE97087603B55C0000000000000000039B4C876BEAF3340BFE97087603B55C0000000000000000039B4C876BEAF3340143FC6
310
DCB5185BC00000000000000000
100
AcDbRasterImage
 90
        0
 10
19.6865
 20
-108.3861
 30
0.0
 11
0.01388888888888889
 21
0.0
 31
0.0
 12
0.0
 22
0.01388888888888889
 32
0.0
 13
3796.0
 23
1689.0
340
E6
 70
     3
280
     1
281
    50
282
    50
283
     0
360
E8
 71
     1
 91
        2
 14
19.6865
 24
-108.3861
 14
72.41969999999999
 24
-84.92269999999999
  0
IMAGE
  5
EA
330
1F
100
AcDbEntity
  8
layer 1
 62
     7
 92
      140
310
8C000000010000008400000006000000050000004694F6065F9844C0143FC6DCB5185BC0000000000000000072D712F241AF3040143FC6DCB5185BC0000000000000000072D712F241AF3040287E8CB96BB14FC000000000000000004694F6065F9844C0287E8CB96BB14FC000000000000000004694F6065F9844C0143FC6
310
DCB5185BC00000000000000000
100
AcDbRasterImage
 90
        0
 10
-41.1904
 20
-108.3861
 30
0.0
 11
0.01388888888888889
 21
0.0
 31
0.0
 12
0.0
 22
0.01388888888888889
 32
0.0
 13
4167.0
 23
3240.0
340
E9
 70
     3
280
     1
281
    50
282
    50
283
     0
360
EB
 71
     1
 91
        2
 14
-41.1904
 24
-108.3861
 14
16.6931
 24
-63.384
  0
IMAGE
  5
ED
330
1F
100
AcDbEntity
  8
layer 1
 62
     7
 92
      140
310
8C00000001000000840000000600000005000000849ECDAACF754F40BA6B09F9A06357C000000000000000005E96D8F1AE0C5540BA6B09F9A06357C000000000000000005E96D8F1AE0C55407F08F672B2C721C00000000000000000849ECDAACF754F407F08F672B2C721C00000000000000000849ECDAACF754F40BA6B09
310
F9A06357C00000000000000000
100
AcDbRasterImage
 90
        0
 10
62.9204
 20
-93.5567
 30
0.0
 11
0.01388888888888889
 21
0.0
 31
0.0
 12
0.0
 22
0.01388888888888889
 32
0.0
 13
1532.0
 23
6096.0
340
EC
 70
     3
280
     1
281
    50
282
    50
283
     0
360
EE
 71
     1
 91
        2
 14
62.9204
 24
-93.5567
 14
84.2071
 24
-8.887800000000013
  0
IMAGE
  5
F0
330
1F
100
AcDbEntity
  8
layer 1
 62
     7
 92
      140
310
8C000000010000008400000006000000050000004C378941605953404ED1915CFE8335400000000000000000A18CDE96B5FE5B404ED1915CFE8335400000000000000000A18CDE96B5FE5B4053742497FF18554000000000000000004C3789416059534053742497FF18554000000000000000004C378941605953404ED191
310
5CFE8335400000000000000000
100
AcDbRasterImage
 90
        0
 10
77.3965
 20
21.5156
 30
0.0
 11
0.01388888888888889
 21
0.0
 31
0.0
 12
0.0
 22
0.01388888888888889
 32
0.0
 13
2490.0
 23
4527.0
340
EF
 70
     3
280
     1
281
    50
282
    50
283
     0
360
F1
 71
     1
 91
        2
 14
77.3965
 24
21.5156
 14
111.9925
 24
84.39320000000001
  0
IMAGE
  5
F3
330
1F
100
AcDbEntity
  8
layer 1
 62
     7
 92
      140
310
8C000000010000008400000006000000050000005396218E7549594070CE88D2DE48514000000000000000000D049FAAF37A604070CE88D2DE48514000000000000000000D049FAAF37A6040A95C6C0B6D245B4000000000000000005396218E75495940A95C6C0B6D245B4000000000000000005396218E7549594070CE88
310
D2DE4851400000000000000000
100
AcDbRasterImage
 90
        0
 10
101.1478
 20
69.1386
 30
0.0
 11
0.01388888888888889
 21
0.0
 31
0.0
 12
0.0
 22
0.01388888888888889
 32
0.0
 13
2210.0
 23
2839.0
340
F2
 70
     3
280
     1
281
    50
282
    50
283
     0
360
F4
 71
     1
 91
        2
 14
101.1478
 24
69.1386
 14
131.843
 24
108.573
  0
IMAGE
  5
F6
330
1F
100
AcDbEntity
  8
layer 1
 62
     7
 92
      140
310
8C000000010000008400000006000000050000005DFE43FAEDBB5540186A4DF38EF3274000000000000000002EFF21FDF6B96240186A4DF38EF3274000000000000000002EFF21FDF6B9624030057E678E47474000000000000000005DFE43FAEDBB554030057E678E47474000000000000000005DFE43FAEDBB5540186A4D
310
F38EF327400000000000000000
100
AcDbRasterImage
 90
        0
 10
86.9364
 20
11.9757
 30
0.0
 11
0.01388888888888889
 21
0.0
 31
0.0
 12
0.0
 22
0.01388888888888889
 32
0.0
 13
4527.0
 23
2490.0
340
F5
 70
     3
280
     1
281
    50
282
    50
283
     0
360
F7
 71
     1
 91
        2
 14
86.9364
 24
11.9757
 14
149.8141
 24
46.5716
  0
IMAGE
  5
F9
330
1F
100
AcDbEntity
  8
layer 1
 62
     7
 92
      140
310
8C000000010000008400000006000000050000004772F90FE9D16040CC5D4BC807DD4140000000000000000064396B2CB0BF6540CC5D4BC807DD4140000000000000000064396B2CB0BF6540AD2042ABF59A504000000000000000004772F90FE9D16040AD2042ABF59A504000000000000000004772F90FE9D16040CC5D4B
310
C807DD41400000000000000000
100
AcDbRasterImage
 90
        0
 10
134.5597
 20
35.7268
 30
0.0
 11
0.01388888888888889
 21
0.0
 31
0.0
 12
0.0
 22
0.01388888888888889
 32
0.0
 13
2839.0
 23
2210.0
340
F8
 70
     3
280
     1
281
    50
282
    50
283
     0
360
FA
 71
     1
 91
        2
 14
134.5597
 24
35.7268
 14
173.9938
 24
66.4222
  0
IMAGE
  5
FC
330
1F
100
AcDbEntity
  8
layer 1
 62
     7
 92
      140
310
8C000000010000008400000006000000050000002497FF907EBB5D40371AC05B20C14A400000000000000000B27A381F62E45F40371AC05B20C14A400000000000000000B27A381F62E45F4053E13178E7124F4000000000000000002497FF907EBB5D4053E13178E7124F4000000000000000002497FF907EBB5D40371AC0
310
5B20C14A400000000000000000
100
AcDbRasterImage
 90
        0
 10
118.9296
 20
53.5088
 30
0.0
 11
0.01388888888888889
 21
0.0
 31
0.0
 12
0.0
 22
0.01388888888888889
 32
0.0
 13
622.0
 23
622.0
340
FB
 70
     3
280
     1
281
    50
282
    50
283
     0
360
FD
 71
     1
 91
        2
 14
118.9296
 24
53.5088
 14
127.5794
 24
62.1584
  0
IMAGE
  5
FF
330
1F
100
AcDbEntity
  8
layer 1
 62
     7
 92
      140
310
8C0000000100000084000000060000000500000037894160E52262400E71AC8BDB405040000000000000000038894160E5C267400E71AC8BDB405040000000000000000038894160E5C267400D71AC8BDBB85E40000000000000000037894160E52262400D71AC8BDBB85E40000000000000000037894160E52262400E71AC
310
8BDB4050400000000000000000
100
AcDbRasterImage
 90
        0
 10
145.0905
 20
65.0134
 30
0.0
 11
0.01388888888888889
 21
0.0
 31
0.0
 12
0.0
 22
0.01388888888888889
 32
0.0
 13
3240.0
 23
4167.0
340
FE
 70
     3
280
     1
281
    50
282
    50
283
     0
360
100
 71
     1
 91
        2
 14
145.0905
 24
65.0134
 14
190.0927
 24
122.8971
  0
IMAGE
  5
102
330
1F
100
AcDbEntity
  8
layer 1
 62
     7
 92
      140
310
8C0000000100000084000000060000000500000003780B2428D464409006F016487022400000000000000000AE22B6CED2C267409006F016487022400000000000000000AE22B6CED2C26740FA56115B67014F40000000000000000003780B2428D46440FA56115B67014F40000000000000000003780B2428D464409006F0
310
16487022400000000000000000
100
AcDbRasterImage
 90
        0
 10
166.6299
 20
9.2193
 30
0.0
 11
0.01388888888888889
 21
0.0
 31
0.0
 12
0.0
 22
0.01388888888888889
 32
0.0
 13
1689.0
 23
3801.0
340
101
 70
     3
280
     1
281
    50
282
    50
283
     0
360
103
 71
     1
 91
        2
 14
166.6299
 24
9.2193
 14
190.0926
 24
62.0201
  0
IMAGE
  5
105
330
1F
100
AcDbEntity
  8
layer 1
 62
     7
 92
      140
310
8C00000001000000840000000600000005000000F7065F984CAD524036AB3E575B4D59400000000000000000DA3FED7B85DB5F4036AB3E575B4D59400000000000000000DA3FED7B85DB5F408B0094ACB02A5F400000000000000000F7065F984CAD52408B0094ACB02A5F400000000000000000F7065F984CAD524036AB3E
310
575B4D59400000000000000000
100
AcDbRasterImage
 90
        0
 10
74.7078
 20
101.2087
 30
0.0
 11
0.01388888888888889
 21
0.0
 31
0.0
 12
0.0
 22
0.01388888888888889
 32
0.0
 13
3796.0
 23
1689.0
340
104
 70
     3
280
     1
281
    50
282
    50
283
     0
360
106
 71
     1
 91
        2
 14
74.7078
 24
101.2087
 14
127.441
 24
124.6717
  0
IMAGE
  5
108
330
1F
100
AcDbEntity
  8
layer 1
 62
     7
 92
      140
310
8C000000010000008400000006000000050000003D2CD49AE64D604050FC1873D7EA534000000000000000003D2CD49AE689674050FC1873D7EA534000000000000000003D2CD49AE68967404FFC1873D72A5F4000000000000000003D2CD49AE64D60404FFC1873D72A5F4000000000000000003D2CD49AE64D604050FC18
310
73D7EA53400000000000000000
100
AcDbRasterImage
 90
        0
 10
130.4344
 20
79.6694
 30
0.0
 11
0.01388888888888889
 21
0.0
 31
0.0
 12
0.0
 22
0.01388888888888889
 32
0.0
 13
4167.0
 23
3240.0
340
107
 70
     3
280
     1
281
    50
282
    50
283
     0
360
109
 71
     1
 91
        2
 14
130.4344
 24
79.6694
 14
188.318
 24
124.6717
  0
IMAGE
  5
10B
330
1F
100
AcDbEntity
  8
layer 1
 62
     7
 92
      140
310
8C0000000100000084000000060000000500000045D8F0F44A9141404ED1915CFE833540000000000000000078C1CDCFFA6D51404ED1915CFE833540000000000000000078C1CDCFFA6D514053742497FF185540000000000000000045D8F0F44A91414053742497FF185540000000000000000045D8F0F44A9141404ED191
310
5CFE8335400000000000000000
100
AcDbRasterImage
 90
        0
 10
35.1351
 20
21.5156
 30
0.0
 11
0.01388888888888889
 21
0.0
 31
0.0
 12
0.0
 22
0.01388888888888889
 32
0.0
 13
2490.0
 23
4527.0
340
10A
 70
     3
280
     1
281
    50
282
    50
283
     0
360
10C
 71
     1
 91
        2
 14
35.1351
 24
21.5156
 14
69.731
 24
84.39320000000001
  0
IMAGE
  5
10E
330
1F
100
AcDbEntity
  8
layer 1
 62
     7
 92
      140
310
8C000000010000008400000006000000050000008B6CE7FBA9912E4070CE88D2DE4851400000000000000000B1BE320D4EFD464070CE88D2DE4851400000000000000000B1BE320D4EFD4640A95C6C0B6D245B4000000000000000008B6CE7FBA9912E40A95C6C0B6D245B4000000000000000008B6CE7FBA9912E4070CE88
310
D2DE4851400000000000000000
100
AcDbRasterImage
 90
        0
 10
15.2845
 20
69.1386
 30
0.0
 11
0.01388888888888889
 21
0.0
 31
0.0
 12
0.0
 22
0.01388888888888889
 32
0.0
 13
2210.0
 23
2839.0
340
10D
 70
     3
280
     1
281
    50
282
    50
283
     0
360
10F
 71
     1
 91
        2
 14
15.2845
 24
69.1386
 14
45.9798
 24
108.573
  0
IMAGE
  5
111
330
1F
100
AcDbEntity
  8
layer 1
 62
     7
 92
      140
310
8C00000001000000840000000600000005000000CBA145B6F37D05C0186A4DF38EF327400000000000000000E3A59BC420184E40186A4DF38EF327400000000000000000E3A59BC420184E4030057E678E4747400000000000000000CBA145B6F37D05C030057E678E4747400000000000000000CBA145B6F37D05C0186A4D
310
F38EF327400000000000000000
100
AcDbRasterImage
 90
        0
 10
-2.6865
 20
11.9757
 30
0.0
 11
0.01388888888888889
 21
0.0
 31
0.0
 12
0.0
 22
0.01388888888888889
 32
0.0
 13
4527.0
 23
2490.0
340
110
 70
     3
280
     1
281
    50
282
    50
283
     0
360
112
 71
     1
 91
        2
 14
-2.6865
 24
11.9757
 14
60.1911
 24
46.5716
  0
IMAGE
  5
114
330
1F
100
AcDbEntity
  8
layer 1
 62
     7
 92
      140
310
8C0000000100000084000000060000000500000092CB7F48BFDD3AC0CC5D4BC807DD41400000000000000000A4DA1C36F3202940CC5D4BC807DD41400000000000000000A4DA1C36F3202940AD2042ABF59A5040000000000000000092CB7F48BFDD3AC0AD2042ABF59A5040000000000000000092CB7F48BFDD3AC0CC5D4B
310
C807DD41400000000000000000
100
AcDbRasterImage
 90
        0
 10
-26.8662
 20
35.7268
 30
0.0
 11
0.01388888888888889
 21
0.0
 31
0.0
 12
0.0
 22
0.01388888888888889
 32
0.0
 13
2839.0
 23
2210.0
340
113
 70
     3
280
     1
281
    50
282
    50
283
     0
360
115
 71
     1
 91
        2
 14
-26.8662
 24
35.7268
 14
12.5678
 24
66.4222
  0
IMAGE
  5
117
330
1F
100
AcDbEntity
  8
layer 1
 62
     7
 92
      140
310
8C00000001000000840000000600000005000000CEAACFD5568C3340371AC05B20C14A4000000000000000000639B30EE52F3C40371AC05B20C14A4000000000000000000639B30EE52F3C4053E13178E7124F400000000000000000CEAACFD5568C334053E13178E7124F400000000000000000CEAACFD5568C3340371AC0
310
5B20C14A400000000000000000
100
AcDbRasterImage
 90
        0
 10
19.5482
 20
53.5088
 30
0.0
 11
0.01388888888888889
 21
0.0
 31
0.0
 12
0.0
 22
0.01388888888888889
 32
0.0
 13
622.0
 23
622.0
340
116
 70
     3
280
     1
281
    50
282
    50
283
     0
360
118
 71
     1
 91
        2
 14
19.5482
 24
53.5088
 14
28.198
 24
62.1584
  0
IMAGE
  5
11A
330
1F
100
AcDbEntity
  8
layer 1
 62
     7
 92
      140
310
8C000000010000008400000006000000050000004FAF9465887B45C00E71AC8BDB4050400000000000000000100BB5A6794700400E71AC8BDB4050400000000000000000100BB5A6794700400D71AC8BDBB85E4000000000000000004FAF9465887B45C00D71AC8BDBB85E4000000000000000004FAF9465887B45C00E71AC
310
8BDB4050400000000000000000
100
AcDbRasterImage
 90
        0
 10
-42.9651
 20
65.0134
 30
0.0
 11
0.01388888888888889
 21
0.0
 31
0.0
 12
0.0
 22
0.01388888888888889
 32
0.0
 13
3240.0
 23
4167.0
340
119
 70
     3
280
     1
281
    50
282
    50
283
     0
360
11B
 71
     1
 91
        2
 14
-42.9651
 24
65.0134
 14
2.036999999999999
 24
122.8971
  0
IMAGE
  5
11D
330
1F
100
AcDbEntity
  8
layer 1
 62
     7
 92
      140
310
8C00000001000000840000000600000005000000EC51B81E857B45C09006F016487022400000000000000000844E1BE8B48133C09006F016487022400000000000000000844E1BE8B48133C0FA56115B67014F400000000000000000EC51B81E857B45C0FA56115B67014F400000000000000000EC51B81E857B45C09006F0
310
16487022400000000000000000
100
AcDbRasterImage
 90
        0
 10
-42.965
 20
9.2193
 30
0.0
 11
0.01388888888888889
 21
0.0
 31
0.0
 12
0.0
 22
0.01388888888888889
 32
0.0
 13
1689.0
 23
3801.0
340
11C
 70
     3
280
     1
281
    50
282
    50
283
     0
360
11E
 71
     1
 91
        2
 14
-42.965
 24
9.2193
 14
-19.5023
 24
62.0201
  0
IMAGE
  5
120
330
1F
100
AcDbEntity
  8
layer 1
 62
     7
 92
      140
310
8C0000000100000084000000060000000500000039B4C876BEAF334036AB3E575B4D59400000000000000000F2654081281A524036AB3E575B4D59400000000000000000F2654081281A52408B0094ACB02A5F40000000000000000039B4C876BEAF33408B0094ACB02A5F40000000000000000039B4C876BEAF334036AB3E
310
575B4D59400000000000000000
100
AcDbRasterImage
 90
        0
 10
19.6865
 20
101.2087
 30
0.0
 11
0.01388888888888889
 21
0.0
 31
0.0
 12
0.0
 22
0.01388888888888889
 32
0.0
 13
3796.0
 23
1689.0
340
11F
 70
     3
280
     1
281
    50
282
    50
283
     0
360
121
 71
     1
 91
        2
 14
19.6865
 24
101.2087
 14
72.41969999999999
 24
124.6717
  0
IMAGE
  5
123
330
1F
100
AcDbEntity
  8
layer 1
 62
     7
 92
      140
310
8C000000010000008400000006000000050000004694F6065F9844C050FC1873D7EA5340000000000000000072D712F241AF304050FC1873D7EA5340000000000000000072D712F241AF30404FFC1873D72A5F4000000000000000004694F6065F9844C04FFC1873D72A5F4000000000000000004694F6065F9844C050FC18
310
73D7EA53400000000000000000
100
AcDbRasterImage
 90
        0
 10
-41.1904
 20
79.6694
 30
0.0
 11
0.01388888888888889
 21
0.0
 31
0.0
 12
0.0
 22
0.01388888888888889
 32
0.0
 13
4167.0
 23
3240.0
340
122
 70
     3
280
     1
281
    50
282
    50
283
     0
360
124
 71
     1
 91
        2
 14
-41.1904
 24
79.6694
 14
16.6931
 24
124.6717
  0
IMAGE
  5
126
330
1F
100
AcDbEntity
  8
layer 1
 62
     7
 92
      140
310
8C00000001000000840000000600000005000000849ECDAACF754F40946588635D2C394000000000000000005E96D8F1AE0C5540946588635D2C394000000000000000005E96D8F1AE0C55400FC48C03C2755B400000000000000000849ECDAACF754F400FC48C03C2755B400000000000000000849ECDAACF754F40946588
310
635D2C39400000000000000000
100
AcDbRasterImage
 90
        0
 10
62.9204
 20
25.1733
 30
0.0
 11
0.01388888888888889
 21
0.0
 31
0.0
 12
0.0
 22
0.01388888888888889
 32
0.0
 13
1532.0
 23
6096.0
340
125
 70
     3
280
     1
281
    50
282
    50
283
     0
360
127
 71
     1
 91
        2
 14
62.9204
 24
25.1733
 14
84.2071
 24
109.8422
  0
IMAGE
  5
129
330
1F
100
AcDbEntity
  8
layer 1
 62
     7
 92
      140
310
8C00000001000000840000000600000005000000832F4CA60AA65640A88251499D0004C00000000000000000166D7BA85AE86540A88251499D0004C00000000000000000166D7BA85AE865401DEC9CC808C732400000000000000000832F4CA60AA656401DEC9CC808C732400000000000000000832F4CA60AA65640A88251
310
499D0004C00000000000000000
100
AcDbRasterImage
 90
        0
 10
90.5944
 20
-2.5003
 30
0.0
 11
0.01388888888888889
 21
0.0
 31
0.0
 12
0.0
 22
0.01388888888888889
 32
0.0
 13
6096.0
 23
1532.0
340
128
 70
     3
280
     1
281
    50
282
    50
283
     0
360
12A
 71
     1
 91
        2
 14
90.5944
 24
-2.5003
 14
175.2633
 24
18.7863
  0
IMAGE
  5
12C
330
1F
100
AcDbEntity
  8
layer 1
 62
     7
 92
      140
310
8C00000001000000840000000600000005000000F7065F984C49514040F163CC5DCB0D4000000000000000004C5CB4EDA17E534040F163CC5DCB0D4000000000000000004C5CB4EDA17E5340FBA6C31D821D29400000000000000000F7065F984C495140FBA6C31D821D29400000000000000000F7065F984C49514040F163
310
CC5DCB0D400000000000000000
100
AcDbRasterImage
 90
        0
 10
69.1453
 20
3.7243
 30
0.0
 11
0.01388888888888889
 21
0.0
 31
0.0
 12
0.0
 22
0.01388888888888889
 32
0.0
 13
636.0
 23
636.0
340
12B
 70
     3
280
     1
281
    50
282
    50
283
     0
360
12D
 71
     1
 91
        2
 14
69.1453
 24
3.7243
 14
77.98230000000001
 24
12.5613
  0
IMAGE
  5
12F
330
1F
100
AcDbEntity
  8
layer 1
 62
     7
 92
      140
310
8C000000010000008400000006000000050000006D567DAEB6223CC0A88251499D0004C0000000000000000020AA16FEF9434C40A88251499D0004C0000000000000000020AA16FEF9434C401DEC9CC808C7324000000000000000006D567DAEB6223CC01DEC9CC808C7324000000000000000006D567DAEB6223CC0A88251
310
499D0004C00000000000000000
100
AcDbRasterImage
 90
        0
 10
-28.1356
 20
-2.5003
 30
0.0
 11
0.01388888888888889
 21
0.0
 31
0.0
 12
0.0
 22
0.01388888888888889
 32
0.0
 13
6096.0
 23
1532.0
340
12E
 70
     3
280
     1
281
    50
282
    50
283
     0
360
130
 71
     1
 91
        2
 14
-28.1356
 24
-2.5003
 14
56.5331
 24
18.7863
  0
SPLINE
  5
131
330
1F
100
AcDbEntity
  8
layer 1
 62
     7
370
    18
100
AcDbSpline
210
0.0
220
0.0
230
1.0
 70
    11
 71
     3
 72
    44
 73
    40
 74
     0
 42
0.0000000001
 43
0.0000000001
 12
1.0
 22
0.0
 32
0.0
 13
1.0
 23
0.0
 33
0.0
 40
0.0
 40
0.0
 40
0.0
 40
0.0
 40
0.0909090909090909
 40
0.0909090909090909
 40
0.0909090909090909
 40
0.0909090909090909
 40
0.1818181818181818
 40
0.1818181818181818
 40
0.1818181818181818
 40
0.1818181818181818
 40
0.2727272727272727
 40
0.2727272727272727
 40
0.2727272727272727
 40
0.2727272727272727
 40
0.3636363636363636
 40
0.3636363636363636
 40
0.3636363636363636
 40
0.3636363636363636
 40
0.4545454545454545
 40
0.4545454545454545
 40
0.4545454545454545
 40
0.4545454545454545
 40
0.5454545454545454
 40
0.5454545454545454
 40
0.5454545454545454
 40
0.5454545454545454
 40
0.6363636363636364
 40
0.6363636363636364
 40
0.6363636363636364
 40
0.6363636363636364
 40
0.7272727272727273
 40
0.7272727272727273
 40
0.7272727272727273
 40
0.7272727272727273
 40
0.8181818181818182
 40
0.8181818181818182
 40
0.8181818181818182
 40
0.8181818181818182
 40
1.0
 40
1.0
 40
1.0
 40
1.0
 10
97.6507
 20
-47.574
 30
0.0
 10
97.6104
 20
-43.9851
 30
0.0
 10
93.8592
 20
-43.8078
 30
0.0
 10
94.6096
 20
-36.625
 30
0.0
 10
94.6096
 20
-36.625
 30
0.0
 10
90.5035
 20
-37.678
 30
0.0
 10
93.7589
 20
-34.6803
 30
0.0
 10
86.4513
 20
-24.9137
 30
0.0
 10
86.4513
 20
-24.9137
 30
0.0
 10
82.0929
 20
-19.0889
 30
0.0
 10
78.0034
 20
-11.8909
 30
0.0
 10
77.4563
 20
-5.4817
 30
0.0
 10
77.4563
 20
-5.4817
 30
0.0
 10
81.2271
 20
-14.9177
 30
0.0
 10
89.8803
 20
-23.4129
 30
0.0
 10
95.5338
 20
-28.0501
 30
0.0
 10
95.5338
 20
-28.0501
 30
0.0
 10
110.0151
 20
-39.9272
 30
0.0
 10
115.2161
 20
-51.8486
 30
0.0
 10
109.9454
 20
-62.6093
 30
0.0
 10
109.9454
 20
-62.6093
 30
0.0
 10
106.1451
 20
-70.368
 30
0.0
 10
96.3512
 20
-69.0184
 30
0.0
 10
94.9873
 20
-63.7842
 30
0.0
 10
94.9873
 20
-63.7842
 30
0.0
 10
99.1741
 20
-68.0729
 30
0.0
 10
105.561
 20
-67.6144
 30
0.0
 10
108.5273
 20
-61.9583
 30
0.0
 10
108.5273
 20
-61.9583
 30
0.0
 10
110.4252
 20
-58.3395
 30
0.0
 10
109.2434
 20
-52.5679
 30
0.0
 10
106.2201
 20
-50.0669
 30
0.0
 10
106.2201
 20
-50.0669
 30
0.0
 10
102.6928
 20
-47.1483
 30
0.0
 10
101.8076
 20
-44.5901
 30
0.0
 10
101.5436
 20
-41.9779
 30
0.0
 10
101.5436
 20
-41.9779
 30
0.0
 10
100.8852
 20
-44.4116
 30
0.0
 10
99.7703
 20
-46.4393
 30
0.0
 10
97.6507
 20
-47.574
 30
0.0
  0
SPLINE
  5
132
330
1F
100
AcDbEntity
  8
layer 1
 62
     7
370
    18
100
AcDbSpline
210
0.0
220
0.0
230
1.0
 70
    11
 71
     3
 72
    24
 73
    20
 74
     0
 42
0.0000000001
 43
0.0000000001
 12
1.0
 22
0.0
 32
0.0
 13
1.0
 23
0.0
 33
0.0
 40
0.0
 40
0.0
 40
0.0
 40
0.0
 40
0.1666666666666667
 40
0.1666666666666667
 40
0.1666666666666667
 40
0.1666666666666667
 40
0.3333333333333333
 40
0.3333333333333333
 40
0.3333333333333333
 40
0.3333333333333333
 40
0.5
 40
0.5
 40
0.5
 40
0.5
 40
0.6666666666666666
 40
0.6666666666666666
 40
0.6666666666666666
 40
0.6666666666666666
 40
1.0
 40
1.0
 40
1.0
 40
1.0
 10
128.9182
 20
-52.9936
 30
0.0
 10
128.9182
 20
-52.9936
 30
0.0
 10
101.2158
 20
-80.6958
 30
0.0
 10
101.2158
 20
-80.6958
 30
0.0
 10
101.2158
 20
-80.6958
 30
0.0
 10
100.3359
 20
-95.4897
 30
0.0
 10
119.1413
 20
-97.2637
 30
0.0
 10
124.5336
 20
-79.0355
 30
0.0
 10
124.5336
 20
-79.0355
 30
0.0
 10
126.7843
 20
-71.4272
 30
0.0
 10
128.8502
 20
-66.2747
 30
0.0
 10
131.7888
 20
-62.8911
 30
0.0
 10
131.7888
 20
-62.8911
 30
0.0
 10
129.7559
 20
-61.2216
 30
0.0
 10
128.4587
 20
-58.6886
 30
0.0
 10
128.4587
 20
-55.8534
 30
0.0
 10
128.4587
 20
-55.8534
 30
0.0
 10
128.4587
 20
-54.854
 30
0.0
 10
128.6204
 20
-53.8931
 30
0.0
 10
128.9182
 20
-52.9936
 30
0.0
  0
SPLINE
  5
133
330
1F
100
AcDbEntity
  8
layer 1
 62
     7
370
    18
100
AcDbSpline
210
0.0
220
0.0
230
1.0
 70
    11
 71
     3
 72
    44
 73
    40
 74
     0
 42
0.0000000001
 43
0.0000000001
 12
1.0
 22
0.0
 32
0.0
 13
1.0
 23
0.0
 33
0.0
 40
0.0
 40
0.0
 40
0.0
 40
0.0
 40
0.0909090909090909
 40
0.0909090909090909
 40
0.0909090909090909
 40
0.0909090909090909
 40
0.1818181818181818
 40
0.1818181818181818
 40
0.1818181818181818
 40
0.1818181818181818
 40
0.2727272727272727
 40
0.2727272727272727
 40
0.2727272727272727
 40
0.2727272727272727
 40
0.3636363636363636
 40
0.3636363636363636
 40
0.3636363636363636
 40
0.3636363636363636
 40
0.4545454545454545
 40
0.4545454545454545
 40
0.4545454545454545
 40
0.4545454545454545
 40
0.5454545454545454
 40
0.5454545454545454
 40
0.5454545454545454
 40
0.5454545454545454
 40
0.6363636363636364
 40
0.6363636363636364
 40
0.6363636363636364
 40
0.6363636363636364
 40
0.7272727272727273
 40
0.7272727272727273
 40
0.7272727272727273
 40
0.7272727272727273
 40
0.8181818181818182
 40
0.8181818181818182
 40
0.8181818181818182
 40
0.8181818181818182
 40
1.0
 40
1.0
 40
1.0
 40
1.0
 10
129.2805
 20
-15.9439
 30
0.0
 10
125.6919
 20
-15.9039
 30
0.0
 10
125.5144
 20
-12.1524
 30
0.0
 10
118.3318
 20
-12.9028
 30
0.0
 10
118.3318
 20
-12.9028
 30
0.0
 10
119.3846
 20
-8.7967
 30
0.0
 10
116.3871
 20
-12.0523
 30
0.0
 10
106.6205
 20
-4.7446
 30
0.0
 10
106.6205
 20
-4.7446
 30
0.0
 10
100.7956
 20
-0.3862
 30
0.0
 10
93.5974
 20
3.7034
 30
0.0
 10
87.1885
 20
4.2505
 30
0.0
 10
87.1885
 20
4.2505
 30
0.0
 10
96.6242
 20
0.4797
 30
0.0
 10
105.1197
 20
-8.1737
 30
0.0
 10
109.7566
 20
-13.8272
 30
0.0
 10
109.7566
 20
-13.8272
 30
0.0
 10
121.634
 20
-28.3085
 30
0.0
 10
133.5553
 20
-33.5093
 30
0.0
 10
144.316
 20
-28.2388
 30
0.0
 10
144.316
 20
-28.2388
 30
0.0
 10
152.0748
 20
-24.4383
 30
0.0
 10
150.725
 20
-14.6444
 30
0.0
 10
145.491
 20
-13.2805
 30
0.0
 10
145.491
 20
-13.2805
 30
0.0
 10
149.7797
 20
-17.4673
 30
0.0
 10
149.3212
 20
-23.8542
 30
0.0
 10
143.6651
 20
-26.8208
 30
0.0
 10
143.6651
 20
-26.8208
 30
0.0
 10
140.0461
 20
-28.7184
 30
0.0
 10
134.2745
 20
-27.5368
 30
0.0
 10
131.7734
 20
-24.5133
 30
0.0
 10
131.7734
 20
-24.5133
 30
0.0
 10
128.8551
 20
-20.986
 30
0.0
 10
126.2966
 20
-20.101
 30
0.0
 10
123.6845
 20
-19.8368
 30
0.0
 10
123.6845
 20
-19.8368
 30
0.0
 10
126.1182
 20
-19.1784
 30
0.0
 10
128.1458
 20
-18.0635
 30
0.0
 10
129.2805
 20
-15.9439
 30
0.0
  0
SPLINE
  5
134
330
1F
100
AcDbEntity
  8
layer 1
 62
     7
370
    18
100
AcDbSpline
210
0.0
220
0.0
230
1.0
 70
    11
 71
     3
 72
    24
 73
    20
 74
     0
 42
0.0000000001
 43
0.0000000001
 12
1.0
 22
0.0
 32
0.0
 13
1.0
 23
0.0
 33
0.0
 40
0.0
 40
0.0
 40
0.0
 40
0.0
 40
0.1666666666666667
 40
0.1666666666666667
 40
0.1666666666666667
 40
0.1666666666666667
 40
0.3333333333333333
 40
0.3333333333333333
 40
0.3333333333333333
 40
0.3333333333333333
 40
0.5
 40
0.5
 40
0.5
 40
0.5
 40
0.6666666666666666
 40
0.6666666666666666
 40
0.6666666666666666
 40
0.6666666666666666
 40
1.0
 40
1.0
 40
1.0
 40
1.0
 10
134.7002
 20
-47.2116
 30
0.0
 10
134.7002
 20
-47.2116
 30
0.0
 10
162.4026
 20
-19.5093
 30
0.0
 10
162.4026
 20
-19.5093
 30
0.0
 10
162.4026
 20
-19.5093
 30
0.0
 10
177.1965
 20
-18.6293
 30
0.0
 10
178.9705
 20
-37.4347
 30
0.0
 10
160.7423
 20
-42.8271
 30
0.0
 10
160.7423
 20
-42.8271
 30
0.0
 10
153.134
 20
-45.0778
 30
0.0
 10
147.9815
 20
-47.1435
 30
0.0
 10
144.5979
 20
-50.0821
 30
0.0
 10
144.5979
 20
-50.0821
 30
0.0
 10
142.9284
 20
-48.0491
 30
0.0
 10
140.3954
 20
-46.7519
 30
0.0
 10
137.5602
 20
-46.7519
 30
0.0
 10
137.5602
 20
-46.7519
 30
0.0
 10
136.5608
 20
-46.7519
 30
0.0
 10
135.5997
 20
-46.9138
 30
0.0
 10
134.7002
 20
-47.2116
 30
0.0
  0
SPLINE
  5
135
330
1F
100
AcDbEntity
  8
layer 1
 62
     7
370
    18
100
AcDbSpline
210
0.0
220
0.0
230
1.0
 70
    11
 71
     3
 72
    36
 73
    32
 74
     0
 42
0.0000000001
 43
0.0000000001
 12
1.0
 22
0.0
 32
0.0
 13
1.0
 23
0.0
 33
0.0
 40
0.0
 40
0.0
 40
0.0
 40
0.0
 40
0.1111111111111111
 40
0.1111111111111111
 40
0.1111111111111111
 40
0.1111111111111111
 40
0.2222222222222222
 40
0.2222222222222222
 40
0.2222222222222222
 40
0.2222222222222222
 40
0.3333333333333333
 40
0.3333333333333333
 40
0.3333333333333333
 40
0.3333333333333333
 40
0.4444444444444444
 40
0.4444444444444444
 40
0.4444444444444444
 40
0.4444444444444444
 40
0.5555555555555556
 40
0.5555555555555556
 40
0.5555555555555556
 40
0.5555555555555556
 40
0.6666666666666666
 40
0.6666666666666666
 40
0.6666666666666666
 40
0.6666666666666666
 40
0.7777777777777778
 40
0.7777777777777778
 40
0.7777777777777778
 40
0.7777777777777778
 40
1.0
 40
1.0
 40
1.0
 40
1.0
 10
126.2861
 20
-44.5788
 30
0.0
 10
126.2861
 20
-44.5788
 30
0.0
 10
126.2854
 20
-44.5793
 30
0.0
 10
126.2854
 20
-44.5793
 30
0.0
 10
126.2854
 20
-44.5793
 30
0.0
 10
125.5095
 20
-45.355
 30
0.0
 10
124.4382
 20
-45.8347
 30
0.0
 10
123.2549
 20
-45.8347
 30
0.0
 10
123.2549
 20
-45.8347
 30
0.0
 10
120.8876
 20
-45.8347
 30
0.0
 10
118.9677
 20
-43.9149
 30
0.0
 10
118.9677
 20
-41.5474
 30
0.0
 10
118.9677
 20
-41.5474
 30
0.0
 10
118.9677
 20
-40.3643
 30
0.0
 10
119.4475
 20
-39.2928
 30
0.0
 10
120.223
 20
-38.5169
 30
0.0
 10
120.223
 20
-38.5169
 30
0.0
 10
120.223
 20
-38.5169
 30
0.0
 10
120.2236
 20
-38.5164
 30
0.0
 10
120.2236
 20
-38.5164
 30
0.0
 10
120.2236
 20
-38.5164
 30
0.0
 10
120.9995
 20
-37.741
 30
0.0
 10
122.0709
 20
-37.2609
 30
0.0
 10
123.2542
 20
-37.2609
 30
0.0
 10
123.2542
 20
-37.2609
 30
0.0
 10
125.6215
 20
-37.2609
 30
0.0
 10
127.5413
 20
-39.1808
 30
0.0
 10
127.5413
 20
-41.5483
 30
0.0
 10
127.5413
 20
-41.5483
 30
0.0
 10
127.5413
 20
-42.7314
 30
0.0
 10
127.0615
 20
-43.8027
 30
0.0
 10
126.2861
 20
-44.5788
 30
0.0
  0
SPLINE
  5
136
330
1F
100
AcDbEntity
  8
layer 1
 62
     7
370
    18
100
AcDbSpline
210
0.0
220
0.0
230
1.0
 70
    11
 71
     3
 72
    52
 73
    48
 74
     0
 42
0.0000000001
 43
0.0000000001
 12
1.0
 22
0.0
 32
0.0
 13
1.0
 23
0.0
 33
0.0
 40
0.0
 40
0.0
 40
0.0
 40
0.0
 40
0.0769230769230769
 40
0.0769230769230769
 40
0.0769230769230769
 40
0.0769230769230769
 40
0.1538461538461539
 40
0.1538461538461539
 40
0.1538461538461539
 40
0.1538461538461539
 40
0.2307692307692308
 40
0.2307692307692308
 40
0.2307692307692308
 40
0.2307692307692308
 40
0.3076923076923077
 40
0.3076923076923077
 40
0.3076923076923077
 40
0.3076923076923077
 40
0.3846153846153846
 40
0.3846153846153846
 40
0.3846153846153846
 40
0.3846153846153846
 40
0.4615384615384616
 40
0.4615384615384616
 40
0.4615384615384616
 40
0.4615384615384616
 40
0.5384615384615384
 40
0.5384615384615384
 40
0.5384615384615384
 40
0.5384615384615384
 40
0.6153846153846154
 40
0.6153846153846154
 40
0.6153846153846154
 40
0.6153846153846154
 40
0.6923076923076923
 40
0.6923076923076923
 40
0.6923076923076923
 40
0.6923076923076923
 40
0.7692307692307693
 40
0.7692307692307693
 40
0.7692307692307693
 40
0.7692307692307693
 40
0.8461538461538461
 40
0.8461538461538461
 40
0.8461538461538461
 40
0.8461538461538461
 40
1.0
 40
1.0
 40
1.0
 40
1.0
 10
190.0546
 20
-48.7852
 30
0.0
 10
190.0546
 20
-48.7852
 30
0.0
 10
190.0546
 20
-106.4539
 30
0.0
 10
190.0546
 20
-106.4539
 30
0.0
 10
190.0546
 20
-106.4539
 30
0.0
 10
188.0573
 20
-102.5639
 30
0.0
 10
182.2681
 20
-90.28
 30
0.0
 10
175.4305
 20
-86.6013
 30
0.0
 10
175.4305
 20
-86.6013
 30
0.0
 10
171.1559
 20
-84.3014
 30
0.0
 10
174.0945
 20
-82.5043
 30
0.0
 10
175.8964
 20
-82.5258
 30
0.0
 10
175.8964
 20
-82.5258
 30
0.0
 10
178.879
 20
-82.561
 30
0.0
 10
182.1929
 20
-82.0788
 30
0.0
 10
183.4235
 20
-78.2341
 30
0.0
 10
183.4235
 20
-78.2341
 30
0.0
 10
178.419
 20
-78.8828
 30
0.0
 10
177.922
 20
-71.3797
 30
0.0
 10
169.8718
 20
-75.0705
 30
0.0
 10
169.8718
 20
-75.0705
 30
0.0
 10
170.2799
 20
-73.8645
 30
0.0
 10
170.3831
 20
-72.5567
 30
0.0
 10
169.8159
 20
-71.0255
 30
0.0
 10
169.8159
 20
-71.0255
 30
0.0
 10
162.8032
 20
-75.4979
 30
0.0
 10
152.5564
 20
-66.8506
 30
0.0
 10
145.1414
 20
-60.8922
 30
0.0
 10
145.1414
 20
-60.8922
 30
0.0
 10
146.1024
 20
-59.4493
 30
0.0
 10
146.6622
 20
-57.7169
 30
0.0
 10
146.6622
 20
-55.8541
 30
0.0
 10
146.6622
 20
-55.8541
 30
0.0
 10
146.6622
 20
-55.298
 30
0.0
 10
146.6125
 20
-54.7539
 30
0.0
 10
146.5168
 20
-54.2251
 30
0.0
 10
146.5168
 20
-54.2251
 30
0.0
 10
164.9131
 20
-48.7967
 30
0.0
 10
165.5515
 20
-59.795
 30
0.0
 10
176.5671
 20
-57.4675
 30
0.0
 10
176.5671
 20
-57.4675
 30
0.0
 10
170.9183
 20
-54.8364
 30
0.0
 10
172.6978
 20
-51.79
 30
0.0
 10
177.7775
 20
-52.5019
 30
0.0
 10
177.7775
 20
-52.5019
 30
0.0
 10
182.1025
 20
-53.1084
 30
0.0
 10
185.883
 20
-50.5603
 30
0.0
 10
190.0546
 20
-48.7852
 30
0.0
  0
SPLINE
  5
137
330
1F
100
AcDbEntity
  8
layer 1
 62
     7
370
    18
100
AcDbSpline
210
0.0
220
0.0
230
1.0
 70
    11
 71
     3
 72
    20
 73
    16
 74
     0
 42
0.0000000001
 43
0.0000000001
 12
1.0
 22
0.0
 32
0.0
 13
1.0
 23
0.0
 33
0.0
 40
0.0
 40
0.0
 40
0.0
 40
0.0
 40
0.2
 40
0.2
 40
0.2
 40
0.2
 40
0.4
 40
0.4
 40
0.4
 40
0.4
 40
0.6
 40
0.6
 40
0.6
 40
0.6
 40
1.0
 40
1.0
 40
1.0
 40
1.0
 10
190.0546
 20
-45.6759
 30
0.0
 10
185.5433
 20
-43.687
 30
0.0
 10
183.2127
 20
-41.8706
 30
0.0
 10
179.1159
 20
-42.1128
 30
0.0
 10
179.1159
 20
-42.1128
 30
0.0
 10
190.7717
 20
-31.8862
 30
0.0
 10
186.4067
 20
-11.1904
 30
0.0
 10
166.7517
 20
-15.1601
 30
0.0
 10
166.7517
 20
-15.1601
 30
0.0
 10
166.7517
 20
-15.1601
 30
0.0
 10
190.0544
 20
6.9777
 30
0.0
 10
190.0544
 20
6.9777
 30
0.0
 10
190.0544
 20
6.9777
 30
0.0
 10
190.0544
 20
6.9777
 30
0.0
 10
190.0546
 20
-45.6759
 30
0.0
 10
190.0546
 20
-45.6759
 30
0.0
  0
SPLINE
  5
138
330
1F
100
AcDbEntity
  8
layer 1
 62
     7
370
    18
100
AcDbSpline
210
0.0
220
0.0
230
1.0
 70
    11
 71
     3
 72
    20
 73
    16
 74
     0
 42
0.0000000001
 43
0.0000000001
 12
1.0
 22
0.0
 32
0.0
 13
1.0
 23
0.0
 33
0.0
 40
0.0
 40
0.0
 40
0.0
 40
0.0
 40
0.2
 40
0.2
 40
0.2
 40
0.2
 40
0.4
 40
0.4
 40
0.4
 40
0.4
 40
0.6
 40
0.6
 40
0.6
 40
0.6
 40
1.0
 40
1.0
 40
1.0
 40
1.0
 10
127.3827
 20
-108.348
 30
0.0
 10
127.3827
 20
-108.348
 30
0.0
 10
74.7962
 20
-108.348
 30
0.0
 10
74.7962
 20
-108.348
 30
0.0
 10
74.7962
 20
-108.348
 30
0.0
 10
74.7962
 20
-108.348
 30
0.0
 10
96.8667
 20
-85.0449
 30
0.0
 10
96.8667
 20
-85.0449
 30
0.0
 10
96.8667
 20
-85.0449
 30
0.0
 10
92.8972
 20
-104.7002
 30
0.0
 10
113.593
 20
-109.0652
 30
0.0
 10
123.8193
 20
-97.4093
 30
0.0
 10
123.8193
 20
-97.4093
 30
0.0
 10
123.5771
 20
-101.506
 30
0.0
 10
125.3938
 20
-103.8367
 30
0.0
 10
127.3827
 20
-108.348
 30
0.0
  0
SPLINE
  5
139
330
1F
100
AcDbEntity
  8
layer 1
 62
     7
370
    18
100
AcDbSpline
210
0.0
220
0.0
230
1.0
 70
    11
 71
     3
 72
    52
 73
    48
 74
     0
 42
0.0000000001
 43
0.0000000001
 12
1.0
 22
0.0
 32
0.0
 13
1.0
 23
0.0
 33
0.0
 40
0.0
 40
0.0
 40
0.0
 40
0.0
 40
0.0769230769230769
 40
0.0769230769230769
 40
0.0769230769230769
 40
0.0769230769230769
 40
0.1538461538461539
 40
0.1538461538461539
 40
0.1538461538461539
 40
0.1538461538461539
 40
0.2307692307692308
 40
0.2307692307692308
 40
0.2307692307692308
 40
0.2307692307692308
 40
0.3076923076923077
 40
0.3076923076923077
 40
0.3076923076923077
 40
0.3076923076923077
 40
0.3846153846153846
 40
0.3846153846153846
 40
0.3846153846153846
 40
0.3846153846153846
 40
0.4615384615384616
 40
0.4615384615384616
 40
0.4615384615384616
 40
0.4615384615384616
 40
0.5384615384615384
 40
0.5384615384615384
 40
0.5384615384615384
 40
0.5384615384615384
 40
0.6153846153846154
 40
0.6153846153846154
 40
0.6153846153846154
 40
0.6153846153846154
 40
0.6923076923076923
 40
0.6923076923076923
 40
0.6923076923076923
 40
0.6923076923076923
 40
0.7692307692307693
 40
0.7692307692307693
 40
0.7692307692307693
 40
0.7692307692307693
 40
0.8461538461538461
 40
0.8461538461538461
 40
0.8461538461538461
 40
0.8461538461538461
 40
1.0
 40
1.0
 40
1.0
 40
1.0
 10
188.1607
 20
-108.348
 30
0.0
 10
188.1607
 20
-108.348
 30
0.0
 10
130.492
 20
-108.348
 30
0.0
 10
130.492
 20
-108.348
 30
0.0
 10
130.492
 20
-108.348
 30
0.0
 10
132.2669
 20
-104.1762
 30
0.0
 10
134.815
 20
-100.3959
 30
0.0
 10
134.2087
 20
-96.0709
 30
0.0
 10
134.2087
 20
-96.0709
 30
0.0
 10
133.4966
 20
-90.9912
 30
0.0
 10
136.543
 20
-89.2117
 30
0.0
 10
139.1743
 20
-94.8606
 30
0.0
 10
139.1743
 20
-94.8606
 30
0.0
 10
141.5015
 20
-83.8449
 30
0.0
 10
130.5032
 20
-83.2063
 30
0.0
 10
135.9319
 20
-64.8102
 30
0.0
 10
135.9319
 20
-64.8102
 30
0.0
 10
136.4605
 20
-64.9057
 30
0.0
 10
137.0045
 20
-64.9556
 30
0.0
 10
137.5607
 20
-64.9556
 30
0.0
 10
137.5607
 20
-64.9556
 30
0.0
 10
139.4235
 20
-64.9556
 30
0.0
 10
141.1561
 20
-64.3958
 30
0.0
 10
142.5988
 20
-63.4349
 30
0.0
 10
142.5988
 20
-63.4349
 30
0.0
 10
148.5574
 20
-70.8496
 30
0.0
 10
157.2047
 20
-81.0964
 30
0.0
 10
152.7323
 20
-88.1091
 30
0.0
 10
152.7323
 20
-88.1091
 30
0.0
 10
154.2635
 20
-88.6765
 30
0.0
 10
155.5713
 20
-88.5731
 30
0.0
 10
156.777
 20
-88.165
 30
0.0
 10
156.777
 20
-88.165
 30
0.0
 10
153.0863
 20
-96.2152
 30
0.0
 10
160.5896
 20
-96.7124
 30
0.0
 10
159.9407
 20
-101.7169
 30
0.0
 10
159.9407
 20
-101.7169
 30
0.0
 10
163.7854
 20
-100.4863
 30
0.0
 10
164.2678
 20
-97.1724
 30
0.0
 10
164.2324
 20
-94.1898
 30
0.0
 10
164.2324
 20
-94.1898
 30
0.0
 10
164.2111
 20
-92.3877
 30
0.0
 10
166.0082
 20
-89.4493
 30
0.0
 10
168.3079
 20
-93.7239
 30
0.0
 10
168.3079
 20
-93.7239
 30
0.0
 10
171.9866
 20
-100.5613
 30
0.0
 10
184.2707
 20
-106.3507
 30
0.0
 10
188.1607
 20
-108.348
 30
0.0
  0
SPLINE
  5
13A
330
1F
100
AcDbEntity
  8
layer 1
 62
     7
370
    18
100
AcDbSpline
210
0.0
220
0.0
230
1.0
 70
    11
 71
     3
 72
    44
 73
    40
 74
     0
 42
0.0000000001
 43
0.0000000001
 12
1.0
 22
0.0
 32
0.0
 13
1.0
 23
0.0
 33
0.0
 40
0.0
 40
0.0
 40
0.0
 40
0.0
 40
0.0909090909090909
 40
0.0909090909090909
 40
0.0909090909090909
 40
0.0909090909090909
 40
0.1818181818181818
 40
0.1818181818181818
 40
0.1818181818181818
 40
0.1818181818181818
 40
0.2727272727272727
 40
0.2727272727272727
 40
0.2727272727272727
 40
0.2727272727272727
 40
0.3636363636363636
 40
0.3636363636363636
 40
0.3636363636363636
 40
0.3636363636363636
 40
0.4545454545454545
 40
0.4545454545454545
 40
0.4545454545454545
 40
0.4545454545454545
 40
0.5454545454545454
 40
0.5454545454545454
 40
0.5454545454545454
 40
0.5454545454545454
 40
0.6363636363636364
 40
0.6363636363636364
 40
0.6363636363636364
 40
0.6363636363636364
 40
0.7272727272727273
 40
0.7272727272727273
 40
0.7272727272727273
 40
0.7272727272727273
 40
0.8181818181818182
 40
0.8181818181818182
 40
0.8181818181818182
 40
0.8181818181818182
 40
1.0
 40
1.0
 40
1.0
 40
1.0
 10
49.4769
 20
-47.574
 30
0.0
 10
49.5172
 20
-43.9851
 30
0.0
 10
53.2684
 20
-43.8078
 30
0.0
 10
52.518
 20
-36.625
 30
0.0
 10
52.518
 20
-36.625
 30
0.0
 10
56.6241
 20
-37.678
 30
0.0
 10
53.3687
 20
-34.6803
 30
0.0
 10
60.6763
 20
-24.9137
 30
0.0
 10
60.6763
 20
-24.9137
 30
0.0
 10
65.0347
 20
-19.0889
 30
0.0
 10
69.1242
 20
-11.8909
 30
0.0
 10
69.6713
 20
-5.4817
 30
0.0
 10
69.6713
 20
-5.4817
 30
0.0
 10
65.9005
 20
-14.9177
 30
0.0
 10
57.2473
 20
-23.4129
 30
0.0
 10
51.5938
 20
-28.0501
 30
0.0
 10
51.5938
 20
-28.0501
 30
0.0
 10
37.1125
 20
-39.9272
 30
0.0
 10
31.9115
 20
-51.8486
 30
0.0
 10
37.1822
 20
-62.6093
 30
0.0
 10
37.1822
 20
-62.6093
 30
0.0
 10
40.9825
 20
-70.368
 30
0.0
 10
50.7764
 20
-69.0184
 30
0.0
 10
52.1403
 20
-63.7842
 30
0.0
 10
52.1403
 20
-63.7842
 30
0.0
 10
47.9535
 20
-68.0729
 30
0.0
 10
41.5666
 20
-67.6144
 30
0.0
 10
38.6003
 20
-61.9583
 30
0.0
 10
38.6003
 20
-61.9583
 30
0.0
 10
36.7024
 20
-58.3395
 30
0.0
 10
37.8842
 20
-52.5679
 30
0.0
 10
40.9075
 20
-50.0669
 30
0.0
 10
40.9075
 20
-50.0669
 30
0.0
 10
44.4348
 20
-47.1483
 30
0.0
 10
45.32
 20
-44.5901
 30
0.0
 10
45.584
 20
-41.9779
 30
0.0
 10
45.584
 20
-41.9779
 30
0.0
 10
46.2424
 20
-44.4116
 30
0.0
 10
47.3573
 20
-46.4393
 30
0.0
 10
49.4769
 20
-47.574
 30
0.0
  0
SPLINE
  5
13B
330
1F
100
AcDbEntity
  8
layer 1
 62
     7
370
    18
100
AcDbSpline
210
0.0
220
0.0
230
1.0
 70
    11
 71
     3
 72
    24
 73
    20
 74
     0
 42
0.0000000001
 43
0.0000000001
 12
1.0
 22
0.0
 32
0.0
 13
1.0
 23
0.0
 33
0.0
 40
0.0
 40
0.0
 40
0.0
 40
0.0
 40
0.1666666666666667
 40
0.1666666666666667
 40
0.1666666666666667
 40
0.1666666666666667
 40
0.3333333333333333
 40
0.3333333333333333
 40
0.3333333333333333
 40
0.3333333333333333
 40
0.5
 40
0.5
 40
0.5
 40
0.5
 40
0.6666666666666666
 40
0.6666666666666666
 40
0.6666666666666666
 40
0.6666666666666666
 40
1.0
 40
1.0
 40
1.0
 40
1.0
 10
18.2094
 20
-52.9936
 30
0.0
 10
18.2094
 20
-52.9936
 30
0.0
 10
45.9118
 20
-80.6958
 30
0.0
 10
45.9118
 20
-80.6958
 30
0.0
 10
45.9118
 20
-80.6958
 30
0.0
 10
46.7917
 20
-95.4897
 30
0.0
 10
27.9863
 20
-97.2637
 30
0.0
 10
22.594
 20
-79.0355
 30
0.0
 10
22.594
 20
-79.0355
 30
0.0
 10
20.3433
 20
-71.4272
 30
0.0
 10
18.2774
 20
-66.2747
 30
0.0
 10
15.3388
 20
-62.8911
 30
0.0
 10
15.3388
 20
-62.8911
 30
0.0
 10
17.3717
 20
-61.2216
 30
0.0
 10
18.6689
 20
-58.6886
 30
0.0
 10
18.6689
 20
-55.8534
 30
0.0
 10
18.6689
 20
-55.8534
 30
0.0
 10
18.6689
 20
-54.854
 30
0.0
 10
18.5072
 20
-53.8931
 30
0.0
 10
18.2094
 20
-52.9936
 30
0.0
  0
SPLINE
  5
13C
330
1F
100
AcDbEntity
  8
layer 1
 62
     7
370
    18
100
AcDbSpline
210
0.0
220
0.0
230
1.0
 70
    11
 71
     3
 72
    44
 73
    40
 74
     0
 42
0.0000000001
 43
0.0000000001
 12
1.0
 22
0.0
 32
0.0
 13
1.0
 23
0.0
 33
0.0
 40
0.0
 40
0.0
 40
0.0
 40
0.0
 40
0.0909090909090909
 40
0.0909090909090909
 40
0.0909090909090909
 40
0.0909090909090909
 40
0.1818181818181818
 40
0.1818181818181818
 40
0.1818181818181818
 40
0.1818181818181818
 40
0.2727272727272727
 40
0.2727272727272727
 40
0.2727272727272727
 40
0.2727272727272727
 40
0.3636363636363636
 40
0.3636363636363636
 40
0.3636363636363636
 40
0.3636363636363636
 40
0.4545454545454545
 40
0.4545454545454545
 40
0.4545454545454545
 40
0.4545454545454545
 40
0.5454545454545454
 40
0.5454545454545454
 40
0.5454545454545454
 40
0.5454545454545454
 40
0.6363636363636364
 40
0.6363636363636364
 40
0.6363636363636364
 40
0.6363636363636364
 40
0.7272727272727273
 40
0.7272727272727273
 40
0.7272727272727273
 40
0.7272727272727273
 40
0.8181818181818182
 40
0.8181818181818182
 40
0.8181818181818182
 40
0.8181818181818182
 40
1.0
 40
1.0
 40
1.0
 40
1.0
 10
17.8471
 20
-15.9439
 30
0.0
 10
21.4357
 20
-15.9039
 30
0.0
 10
21.6133
 20
-12.1524
 30
0.0
 10
28.7959
 20
-12.9028
 30
0.0
 10
28.7959
 20
-12.9028
 30
0.0
 10
27.743
 20
-8.7967
 30
0.0
 10
30.7405
 20
-12.0523
 30
0.0
 10
40.5071
 20
-4.7446
 30
0.0
 10
40.5071
 20
-4.7446
 30
0.0
 10
46.332
 20
-0.3862
 30
0.0
 10
53.5302
 20
3.7034
 30
0.0
 10
59.9391
 20
4.2505
 30
0.0
 10
59.9391
 20
4.2505
 30
0.0
 10
50.5034
 20
0.4797
 30
0.0
 10
42.0079
 20
-8.1737
 30
0.0
 10
37.371
 20
-13.8272
 30
0.0
 10
37.371
 20
-13.8272
 30
0.0
 10
25.4936
 20
-28.3085
 30
0.0
 10
13.5723
 20
-33.5093
 30
0.0
 10
2.8116
 20
-28.2388
 30
0.0
 10
2.8116
 20
-28.2388
 30
0.0
 10
-4.9472
 20
-24.4383
 30
0.0
 10
-3.5973
 20
-14.6444
 30
0.0
 10
1.6366
 20
-13.2805
 30
0.0
 10
1.6366
 20
-13.2805
 30
0.0
 10
-2.6521
 20
-17.4673
 30
0.0
 10
-2.1936
 20
-23.8542
 30
0.0
 10
3.4625
 20
-26.8208
 30
0.0
 10
3.4625
 20
-26.8208
 30
0.0
 10
7.0815
 20
-28.7184
 30
0.0
 10
12.8531
 20
-27.5368
 30
0.0
 10
15.3542
 20
-24.5133
 30
0.0
 10
15.3542
 20
-24.5133
 30
0.0
 10
18.2725
 20
-20.986
 30
0.0
 10
20.831
 20
-20.101
 30
0.0
 10
23.4431
 20
-19.8368
 30
0.0
 10
23.4431
 20
-19.8368
 30
0.0
 10
21.0094
 20
-19.1784
 30
0.0
 10
18.9818
 20
-18.0635
 30
0.0
 10
17.8471
 20
-15.9439
 30
0.0
  0
SPLINE
  5
13D
330
1F
100
AcDbEntity
  8
layer 1
 62
     7
370
    18
100
AcDbSpline
210
0.0
220
0.0
230
1.0
 70
    11
 71
     3
 72
    24
 73
    20
 74
     0
 42
0.0000000001
 43
0.0000000001
 12
1.0
 22
0.0
 32
0.0
 13
1.0
 23
0.0
 33
0.0
 40
0.0
 40
0.0
 40
0.0
 40
0.0
 40
0.1666666666666667
 40
0.1666666666666667
 40
0.1666666666666667
 40
0.1666666666666667
 40
0.3333333333333333
 40
0.3333333333333333
 40
0.3333333333333333
 40
0.3333333333333333
 40
0.5
 40
0.5
 40
0.5
 40
0.5
 40
0.6666666666666666
 40
0.6666666666666666
 40
0.6666666666666666
 40
0.6666666666666666
 40
1.0
 40
1.0
 40
1.0
 40
1.0
 10
12.4274
 20
-47.2116
 30
0.0
 10
12.4274
 20
-47.2116
 30
0.0
 10
-15.275
 20
-19.5093
 30
0.0
 10
-15.275
 20
-19.5093
 30
0.0
 10
-15.275
 20
-19.5093
 30
0.0
 10
-30.0689
 20
-18.6293
 30
0.0
 10
-31.8429
 20
-37.4347
 30
0.0
 10
-13.6147
 20
-42.8271
 30
0.0
 10
-13.6147
 20
-42.8271
 30
0.0
 10
-6.0064
 20
-45.0778
 30
0.0
 10
-0.8539
 20
-47.1435
 30
0.0
 10
2.5298
 20
-50.0821
 30
0.0
 10
2.5298
 20
-50.0821
 30
0.0
 10
4.1992
 20
-48.0491
 30
0.0
 10
6.7322
 20
-46.7519
 30
0.0
 10
9.5674
 20
-46.7519
 30
0.0
 10
9.5674
 20
-46.7519
 30
0.0
 10
10.5668
 20
-46.7519
 30
0.0
 10
11.5279
 20
-46.9138
 30
0.0
 10
12.4274
 20
-47.2116
 30
0.0
  0
SPLINE
  5
13E
330
1F
100
AcDbEntity
  8
layer 1
 62
     7
370
    18
100
AcDbSpline
210
0.0
220
0.0
230
1.0
 70
    11
 71
     3
 72
    36
 73
    32
 74
     0
 42
0.0000000001
 43
0.0000000001
 12
1.0
 22
0.0
 32
0.0
 13
1.0
 23
0.0
 33
0.0
 40
0.0
 40
0.0
 40
0.0
 40
0.0
 40
0.1111111111111111
 40
0.1111111111111111
 40
0.1111111111111111
 40
0.1111111111111111
 40
0.2222222222222222
 40
0.2222222222222222
 40
0.2222222222222222
 40
0.2222222222222222
 40
0.3333333333333333
 40
0.3333333333333333
 40
0.3333333333333333
 40
0.3333333333333333
 40
0.4444444444444444
 40
0.4444444444444444
 40
0.4444444444444444
 40
0.4444444444444444
 40
0.5555555555555556
 40
0.5555555555555556
 40
0.5555555555555556
 40
0.5555555555555556
 40
0.6666666666666666
 40
0.6666666666666666
 40
0.6666666666666666
 40
0.6666666666666666
 40
0.7777777777777778
 40
0.7777777777777778
 40
0.7777777777777778
 40
0.7777777777777778
 40
1.0
 40
1.0
 40
1.0
 40
1.0
 10
20.8415
 20
-44.5788
 30
0.0
 10
20.8415
 20
-44.5788
 30
0.0
 10
20.8422
 20
-44.5793
 30
0.0
 10
20.8422
 20
-44.5793
 30
0.0
 10
20.8422
 20
-44.5793
 30
0.0
 10
21.6181
 20
-45.355
 30
0.0
 10
22.6894
 20
-45.8347
 30
0.0
 10
23.8727
 20
-45.8347
 30
0.0
 10
23.8727
 20
-45.8347
 30
0.0
 10
26.24
 20
-45.8347
 30
0.0
 10
28.1599
 20
-43.9149
 30
0.0
 10
28.1599
 20
-41.5474
 30
0.0
 10
28.1599
 20
-41.5474
 30
0.0
 10
28.1599
 20
-40.3643
 30
0.0
 10
27.6801
 20
-39.2928
 30
0.0
 10
26.9046
 20
-38.5169
 30
0.0
 10
26.9046
 20
-38.5169
 30
0.0
 10
26.9046
 20
-38.5169
 30
0.0
 10
26.904
 20
-38.5164
 30
0.0
 10
26.904
 20
-38.5164
 30
0.0
 10
26.904
 20
-38.5164
 30
0.0
 10
26.1281
 20
-37.741
 30
0.0
 10
25.0567
 20
-37.2609
 30
0.0
 10
23.8734
 20
-37.2609
 30
0.0
 10
23.8734
 20
-37.2609
 30
0.0
 10
21.5061
 20
-37.2609
 30
0.0
 10
19.5863
 20
-39.1808
 30
0.0
 10
19.5863
 20
-41.5483
 30
0.0
 10
19.5863
 20
-41.5483
 30
0.0
 10
19.5863
 20
-42.7314
 30
0.0
 10
20.0661
 20
-43.8027
 30
0.0
 10
20.8415
 20
-44.5788
 30
0.0
  0
SPLINE
  5
13F
330
1F
100
AcDbEntity
  8
layer 1
 62
     7
370
    18
100
AcDbSpline
210
0.0
220
0.0
230
1.0
 70
    11
 71
     3
 72
    52
 73
    48
 74
     0
 42
0.0000000001
 43
0.0000000001
 12
1.0
 22
0.0
 32
0.0
 13
1.0
 23
0.0
 33
0.0
 40
0.0
 40
0.0
 40
0.0
 40
0.0
 40
0.0769230769230769
 40
0.0769230769230769
 40
0.0769230769230769
 40
0.0769230769230769
 40
0.1538461538461539
 40
0.1538461538461539
 40
0.1538461538461539
 40
0.1538461538461539
 40
0.2307692307692308
 40
0.2307692307692308
 40
0.2307692307692308
 40
0.2307692307692308
 40
0.3076923076923077
 40
0.3076923076923077
 40
0.3076923076923077
 40
0.3076923076923077
 40
0.3846153846153846
 40
0.3846153846153846
 40
0.3846153846153846
 40
0.3846153846153846
 40
0.4615384615384616
 40
0.4615384615384616
 40
0.4615384615384616
 40
0.4615384615384616
 40
0.5384615384615384
 40
0.5384615384615384
 40
0.5384615384615384
 40
0.5384615384615384
 40
0.6153846153846154
 40
0.6153846153846154
 40
0.6153846153846154
 40
0.6153846153846154
 40
0.6923076923076923
 40
0.6923076923076923
 40
0.6923076923076923
 40
0.6923076923076923
 40
0.7692307692307693
 40
0.7692307692307693
 40
0.7692307692307693
 40
0.7692307692307693
 40
0.8461538461538461
 40
0.8461538461538461
 40
0.8461538461538461
 40
0.8461538461538461
 40
1.0
 40
1.0
 40
1.0
 40
1.0
 10
-42.927
 20
-48.7852
 30
0.0
 10
-42.927
 20
-48.7852
 30
0.0
 10
-42.927
 20
-106.4539
 30
0.0
 10
-42.927
 20
-106.4539
 30
0.0
 10
-42.927
 20
-106.4539
 30
0.0
 10
-40.9297
 20
-102.5639
 30
0.0
 10
-35.1405
 20
-90.28
 30
0.0
 10
-28.3029
 20
-86.6013
 30
0.0
 10
-28.3029
 20
-86.6013
 30
0.0
 10
-24.0283
 20
-84.3014
 30
0.0
 10
-26.9669
 20
-82.5043
 30
0.0
 10
-28.7688
 20
-82.5258
 30
0.0
 10
-28.7688
 20
-82.5258
 30
0.0
 10
-31.7514
 20
-82.561
 30
0.0
 10
-35.0653
 20
-82.0788
 30
0.0
 10
-36.2959
 20
-78.2341
 30
0.0
 10
-36.2959
 20
-78.2341
 30
0.0
 10
-31.2914
 20
-78.8828
 30
0.0
 10
-30.7944
 20
-71.3797
 30
0.0
 10
-22.7442
 20
-75.0705
 30
0.0
 10
-22.7442
 20
-75.0705
 30
0.0
 10
-23.1523
 20
-73.8645
 30
0.0
 10
-23.2555
 20
-72.5567
 30
0.0
 10
-22.6883
 20
-71.0255
 30
0.0
 10
-22.6883
 20
-71.0255
 30
0.0
 10
-15.6756
 20
-75.4979
 30
0.0
 10
-5.4287
 20
-66.8506
 30
0.0
 10
1.9862
 20
-60.8922
 30
0.0
 10
1.9862
 20
-60.8922
 30
0.0
 10
1.0253
 20
-59.4493
 30
0.0
 10
0.4654
 20
-57.7169
 30
0.0
 10
0.4654
 20
-55.8541
 30
0.0
 10
0.4654
 20
-55.8541
 30
0.0
 10
0.4654
 20
-55.298
 30
0.0
 10
0.5151
 20
-54.7539
 30
0.0
 10
0.6108
 20
-54.2251
 30
0.0
 10
0.6108
 20
-54.2251
 30
0.0
 10
-17.7855
 20
-48.7967
 30
0.0
 10
-18.4239
 20
-59.795
 30
0.0
 10
-29.4395
 20
-57.4675
 30
0.0
 10
-29.4395
 20
-57.4675
 30
0.0
 10
-23.7907
 20
-54.8364
 30
0.0
 10
-25.5702
 20
-51.79
 30
0.0
 10
-30.6499
 20
-52.5019
 30
0.0
 10
-30.6499
 20
-52.5019
 30
0.0
 10
-34.9749
 20
-53.1084
 30
0.0
 10
-38.7554
 20
-50.5603
 30
0.0
 10
-42.927
 20
-48.7852
 30
0.0
  0
SPLINE
  5
140
330
1F
100
AcDbEntity
  8
layer 1
 62
     7
370
    18
100
AcDbSpline
210
0.0
220
0.0
230
1.0
 70
    11
 71
     3
 72
    20
 73
    16
 74
     0
 42
0.0000000001
 43
0.0000000001
 12
1.0
 22
0.0
 32
0.0
 13
1.0
 23
0.0
 33
0.0
 40
0.0
 40
0.0
 40
0.0
 40
0.0
 40
0.2
 40
0.2
 40
0.2
 40
0.2
 40
0.4
 40
0.4
 40
0.4
 40
0.4
 40
0.6
 40
0.6
 40
0.6
 40
0.6
 40
1.0
 40
1.0
 40
1.0
 40
1.0
 10
-42.927
 20
-45.6759
 30
0.0
 10
-38.4157
 20
-43.687
 30
0.0
 10
-36.0851
 20
-41.8706
 30
0.0
 10
-31.9883
 20
-42.1128
 30
0.0
 10
-31.9883
 20
-42.1128
 30
0.0
 10
-43.6441
 20
-31.8862
 30
0.0
 10
-39.2791
 20
-11.1904
 30
0.0
 10
-19.6241
 20
-15.1601
 30
0.0
 10
-19.6241
 20
-15.1601
 30
0.0
 10
-19.6241
 20
-15.1601
 30
0.0
 10
-42.9268
 20
6.9777
 30
0.0
 10
-42.9268
 20
6.9777
 30
0.0
 10
-42.9268
 20
6.9777
 30
0.0
 10
-42.9268
 20
6.9777
 30
0.0
 10
-42.927
 20
-45.6759
 30
0.0
 10
-42.927
 20
-45.6759
 30
0.0
  0
SPLINE
  5
141
330
1F
100
AcDbEntity
  8
layer 1
 62
     7
370
    18
100
AcDbSpline
210
0.0
220
0.0
230
1.0
 70
    11
 71
     3
 72
    20
 73
    16
 74
     0
 42
0.0000000001
 43
0.0000000001
 12
1.0
 22
0.0
 32
0.0
 13
1.0
 23
0.0
 33
0.0
 40
0.0
 40
0.0
 40
0.0
 40
0.0
 40
0.2
 40
0.2
 40
0.2
 40
0.2
 40
0.4
 40
0.4
 40
0.4
 40
0.4
 40
0.6
 40
0.6
 40
0.6
 40
0.6
 40
1.0
 40
1.0
 40
1.0
 40
1.0
 10
19.7449
 20
-108.348
 30
0.0
 10
19.7449
 20
-108.348
 30
0.0
 10
72.3314
 20
-108.348
 30
0.0
 10
72.3314
 20
-108.348
 30
0.0
 10
72.3314
 20
-108.348
 30
0.0
 10
72.3314
 20
-108.348
 30
0.0
 10
50.2609
 20
-85.0449
 30
0.0
 10
50.2609
 20
-85.0449
 30
0.0
 10
50.2609
 20
-85.0449
 30
0.0
 10
54.2304
 20
-104.7002
 30
0.0
 10
33.5346
 20
-109.0652
 30
0.0
 10
23.3083
 20
-97.4093
 30
0.0
 10
23.3083
 20
-97.4093
 30
0.0
 10
23.5505
 20
-101.506
 30
0.0
 10
21.7338
 20
-103.8367
 30
0.0
 10
19.7449
 20
-108.348
 30
0.0
  0
SPLINE
  5
142
330
1F
100
AcDbEntity
  8
layer 1
 62
     7
370
    18
100
AcDbSpline
210
0.0
220
0.0
230
1.0
 70
    11
 71
     3
 72
    52
 73
    48
 74
     0
 42
0.0000000001
 43
0.0000000001
 12
1.0
 22
0.0
 32
0.0
 13
1.0
 23
0.0
 33
0.0
 40
0.0
 40
0.0
 40
0.0
 40
0.0
 40
0.0769230769230769
 40
0.0769230769230769
 40
0.0769230769230769
 40
0.0769230769230769
 40
0.1538461538461539
 40
0.1538461538461539
 40
0.1538461538461539
 40
0.1538461538461539
 40
0.2307692307692308
 40
0.2307692307692308
 40
0.2307692307692308
 40
0.2307692307692308
 40
0.3076923076923077
 40
0.3076923076923077
 40
0.3076923076923077
 40
0.3076923076923077
 40
0.3846153846153846
 40
0.3846153846153846
 40
0.3846153846153846
 40
0.3846153846153846
 40
0.4615384615384616
 40
0.4615384615384616
 40
0.4615384615384616
 40
0.4615384615384616
 40
0.5384615384615384
 40
0.5384615384615384
 40
0.5384615384615384
 40
0.5384615384615384
 40
0.6153846153846154
 40
0.6153846153846154
 40
0.6153846153846154
 40
0.6153846153846154
 40
0.6923076923076923
 40
0.6923076923076923
 40
0.6923076923076923
 40
0.6923076923076923
 40
0.7692307692307693
 40
0.7692307692307693
 40
0.7692307692307693
 40
0.7692307692307693
 40
0.8461538461538461
 40
0.8461538461538461
 40
0.8461538461538461
 40
0.8461538461538461
 40
1.0
 40
1.0
 40
1.0
 40
1.0
 10
-41.0331
 20
-108.348
 30
0.0
 10
-41.0331
 20
-108.348
 30
0.0
 10
16.6356
 20
-108.348
 30
0.0
 10
16.6356
 20
-108.348
 30
0.0
 10
16.6356
 20
-108.348
 30
0.0
 10
14.8607
 20
-104.1762
 30
0.0
 10
12.3126
 20
-100.3959
 30
0.0
 10
12.9189
 20
-96.0709
 30
0.0
 10
12.9189
 20
-96.0709
 30
0.0
 10
13.631
 20
-90.9912
 30
0.0
 10
10.5846
 20
-89.2117
 30
0.0
 10
7.9533
 20
-94.8606
 30
0.0
 10
7.9533
 20
-94.8606
 30
0.0
 10
5.6261
 20
-83.8449
 30
0.0
 10
16.6244
 20
-83.2063
 30
0.0
 10
11.1957
 20
-64.8102
 30
0.0
 10
11.1957
 20
-64.8102
 30
0.0
 10
10.6671
 20
-64.9057
 30
0.0
 10
10.1231
 20
-64.9556
 30
0.0
 10
9.5669
 20
-64.9556
 30
0.0
 10
9.5669
 20
-64.9556
 30
0.0
 10
7.7041
 20
-64.9556
 30
0.0
 10
5.9715
 20
-64.3958
 30
0.0
 10
4.5288
 20
-63.4349
 30
0.0
 10
4.5288
 20
-63.4349
 30
0.0
 10
-1.4298
 20
-70.8496
 30
0.0
 10
-10.0771
 20
-81.0964
 30
0.0
 10
-5.6047
 20
-88.1091
 30
0.0
 10
-5.6047
 20
-88.1091
 30
0.0
 10
-7.1358
 20
-88.6765
 30
0.0
 10
-8.4437
 20
-88.5731
 30
0.0
 10
-9.6494
 20
-88.165
 30
0.0
 10
-9.6494
 20
-88.165
 30
0.0
 10
-5.9587
 20
-96.2152
 30
0.0
 10
-13.462
 20
-96.7124
 30
0.0
 10
-12.8131
 20
-101.7169
 30
0.0
 10
-12.8131
 20
-101.7169
 30
0.0
 10
-16.6578
 20
-100.4863
 30
0.0
 10
-17.1402
 20
-97.1724
 30
0.0
 10
-17.1048
 20
-94.1898
 30
0.0
 10
-17.1048
 20
-94.1898
 30
0.0
 10
-17.0835
 20
-92.3877
 30
0.0
 10
-18.8806
 20
-89.4493
 30
0.0
 10
-21.1803
 20
-93.7239
 30
0.0
 10
-21.1803
 20
-93.7239
 30
0.0
 10
-24.8589
 20
-100.5613
 30
0.0
 10
-37.1431
 20
-106.3507
 30
0.0
 10
-41.0331
 20
-108.348
 30
0.0
  0
SPLINE
  5
143
330
1F
100
AcDbEntity
  8
layer 1
 62
     7
370
    18
100
AcDbSpline
210
0.0
220
0.0
230
1.0
 70
    11
 71
     3
 72
    52
 73
    48
 74
     0
 42
0.0000000001
 43
0.0000000001
 12
1.0
 22
0.0
 32
0.0
 13
1.0
 23
0.0
 33
0.0
 40
0.0
 40
0.0
 40
0.0
 40
0.0
 40
0.0769230769230769
 40
0.0769230769230769
 40
0.0769230769230769
 40
0.0769230769230769
 40
0.1538461538461539
 40
0.1538461538461539
 40
0.1538461538461539
 40
0.1538461538461539
 40
0.2307692307692308
 40
0.2307692307692308
 40
0.2307692307692308
 40
0.2307692307692308
 40
0.3076923076923077
 40
0.3076923076923077
 40
0.3076923076923077
 40
0.3076923076923077
 40
0.3846153846153846
 40
0.3846153846153846
 40
0.3846153846153846
 40
0.3846153846153846
 40
0.4615384615384616
 40
0.4615384615384616
 40
0.4615384615384616
 40
0.4615384615384616
 40
0.5384615384615384
 40
0.5384615384615384
 40
0.5384615384615384
 40
0.5384615384615384
 40
0.6153846153846154
 40
0.6153846153846154
 40
0.6153846153846154
 40
0.6153846153846154
 40
0.6923076923076923
 40
0.6923076923076923
 40
0.6923076923076923
 40
0.6923076923076923
 40
0.7692307692307693
 40
0.7692307692307693
 40
0.7692307692307693
 40
0.7692307692307693
 40
0.8461538461538461
 40
0.8461538461538461
 40
0.8461538461538461
 40
0.8461538461538461
 40
1.0
 40
1.0
 40
1.0
 40
1.0
 10
73.5638
 20
-93.1031
 30
0.0
 10
74.1751
 20
-85.8538
 30
0.0
 10
78.5542
 20
-79.0311
 30
0.0
 10
75.3928
 20
-71.3555
 30
0.0
 10
75.3928
 20
-71.3555
 30
0.0
 10
78.329
 20
-73.1647
 30
0.0
 10
81.2497
 20
-74.1525
 30
0.0
 10
84.1377
 20
-74.0106
 30
0.0
 10
84.1377
 20
-74.0106
 30
0.0
 10
81.7141
 20
-70.4276
 30
0.0
 10
83.3057
 20
-66.4791
 30
0.0
 10
76.8669
 20
-63.2611
 30
0.0
 10
76.8669
 20
-63.2611
 30
0.0
 10
86.4399
 20
-63.084
 30
0.0
 10
78.6992
 20
-58.6152
 30
0.0
 10
76.2831
 20
-52.3928
 30
0.0
 10
76.2831
 20
-52.3928
 30
0.0
 10
73.6104
 20
-45.5105
 30
0.0
 10
74.4823
 20
-26.4059
 30
0.0
 10
74.3014
 20
-15.9932
 30
0.0
 10
74.3014
 20
-15.9932
 30
0.0
 10
74.2407
 20
-12.4985
 30
0.0
 10
74.1243
 20
-9.9143
 30
0.0
 10
73.5638
 20
-8.9626
 30
0.0
 10
73.5638
 20
-8.9626
 30
0.0
 10
73.0033
 20
-9.9143
 30
0.0
 10
72.8869
 20
-12.4985
 30
0.0
 10
72.8262
 20
-15.9932
 30
0.0
 10
72.8262
 20
-15.9932
 30
0.0
 10
72.6454
 20
-26.4059
 30
0.0
 10
73.5172
 20
-45.5105
 30
0.0
 10
70.8445
 20
-52.3928
 30
0.0
 10
70.8445
 20
-52.3928
 30
0.0
 10
68.4284
 20
-58.6152
 30
0.0
 10
60.6877
 20
-63.084
 30
0.0
 10
70.2607
 20
-63.2611
 30
0.0
 10
70.2607
 20
-63.2611
 30
0.0
 10
63.8219
 20
-66.4791
 30
0.0
 10
65.4135
 20
-70.4276
 30
0.0
 10
62.9899
 20
-74.0106
 30
0.0
 10
62.9899
 20
-74.0106
 30
0.0
 10
65.8779
 20
-74.1525
 30
0.0
 10
68.7986
 20
-73.1647
 30
0.0
 10
71.7348
 20
-71.3555
 30
0.0
 10
71.7348
 20
-71.3555
 30
0.0
 10
68.5734
 20
-79.0311
 30
0.0
 10
72.9525
 20
-85.8538
 30
0.0
 10
73.5638
 20
-93.1031
 30
0.0
  0
SPLINE
  5
144
330
1F
100
AcDbEntity
  8
layer 1
 62
     7
370
    18
100
AcDbSpline
210
0.0
220
0.0
230
1.0
 70
    11
 71
     3
 72
    44
 73
    40
 74
     0
 42
0.0000000001
 43
0.0000000001
 12
1.0
 22
0.0
 32
0.0
 13
1.0
 23
0.0
 33
0.0
 40
0.0
 40
0.0
 40
0.0
 40
0.0
 40
0.0909090909090909
 40
0.0909090909090909
 40
0.0909090909090909
 40
0.0909090909090909
 40
0.1818181818181818
 40
0.1818181818181818
 40
0.1818181818181818
 40
0.1818181818181818
 40
0.2727272727272727
 40
0.2727272727272727
 40
0.2727272727272727
 40
0.2727272727272727
 40
0.3636363636363636
 40
0.3636363636363636
 40
0.3636363636363636
 40
0.3636363636363636
 40
0.4545454545454545
 40
0.4545454545454545
 40
0.4545454545454545
 40
0.4545454545454545
 40
0.5454545454545454
 40
0.5454545454545454
 40
0.5454545454545454
 40
0.5454545454545454
 40
0.6363636363636364
 40
0.6363636363636364
 40
0.6363636363636364
 40
0.6363636363636364
 40
0.7272727272727273
 40
0.7272727272727273
 40
0.7272727272727273
 40
0.7272727272727273
 40
0.8181818181818182
 40
0.8181818181818182
 40
0.8181818181818182
 40
0.8181818181818182
 40
1.0
 40
1.0
 40
1.0
 40
1.0
 10
97.6507
 20
63.8595
 30
0.0
 10
97.6104
 20
60.2711
 30
0.0
 10
93.8592
 20
60.0935
 30
0.0
 10
94.6096
 20
52.9109
 30
0.0
 10
94.6096
 20
52.9109
 30
0.0
 10
90.5035
 20
53.9636
 30
0.0
 10
93.7589
 20
50.9663
 30
0.0
 10
86.4513
 20
41.1997
 30
0.0
 10
86.4513
 20
41.1997
 30
0.0
 10
82.0929
 20
35.3748
 30
0.0
 10
78.0034
 20
28.1764
 30
0.0
 10
77.4563
 20
21.7677
 30
0.0
 10
77.4563
 20
21.7677
 30
0.0
 10
81.2271
 20
31.2032
 30
0.0
 10
89.8803
 20
39.6989
 30
0.0
 10
95.5338
 20
44.3356
 30
0.0
 10
95.5338
 20
44.3356
 30
0.0
 10
110.0151
 20
56.2132
 30
0.0
 10
115.2161
 20
68.1345
 30
0.0
 10
109.9454
 20
78.8952
 30
0.0
 10
109.9454
 20
78.8952
 30
0.0
 10
106.1451
 20
86.654
 30
0.0
 10
96.3512
 20
85.3039
 30
0.0
 10
94.9873
 20
80.07
 30
0.0
 10
94.9873
 20
80.07
 30
0.0
 10
99.1741
 20
84.3589
 30
0.0
 10
105.561
 20
83.9002
 30
0.0
 10
108.5273
 20
78.2443
 30
0.0
 10
108.5273
 20
78.2443
 30
0.0
 10
110.4252
 20
74.6251
 30
0.0
 10
109.2434
 20
68.8535
 30
0.0
 10
106.2201
 20
66.3524
 30
0.0
 10
106.2201
 20
66.3524
 30
0.0
 10
102.6928
 20
63.4343
 30
0.0
 10
101.8076
 20
60.8758
 30
0.0
 10
101.5436
 20
58.2635
 30
0.0
 10
101.5436
 20
58.2635
 30
0.0
 10
100.8852
 20
60.6972
 30
0.0
 10
99.7703
 20
62.725
 30
0.0
 10
97.6507
 20
63.8595
 30
0.0
  0
SPLINE
  5
145
330
1F
100
AcDbEntity
  8
layer 1
 62
     7
370
    18
100
AcDbSpline
210
0.0
220
0.0
230
1.0
 70
    11
 71
     3
 72
    24
 73
    20
 74
     0
 42
0.0000000001
 43
0.0000000001
 12
1.0
 22
0.0
 32
0.0
 13
1.0
 23
0.0
 33
0.0
 40
0.0
 40
0.0
 40
0.0
 40
0.0
 40
0.1666666666666667
 40
0.1666666666666667
 40
0.1666666666666667
 40
0.1666666666666667
 40
0.3333333333333333
 40
0.3333333333333333
 40
0.3333333333333333
 40
0.3333333333333333
 40
0.5
 40
0.5
 40
0.5
 40
0.5
 40
0.6666666666666666
 40
0.6666666666666666
 40
0.6666666666666666
 40
0.6666666666666666
 40
1.0
 40
1.0
 40
1.0
 40
1.0
 10
128.9182
 20
69.2791
 30
0.0
 10
128.9182
 20
69.2791
 30
0.0
 10
101.2158
 20
96.9818
 30
0.0
 10
101.2158
 20
96.9818
 30
0.0
 10
101.2158
 20
96.9818
 30
0.0
 10
100.3359
 20
111.7757
 30
0.0
 10
119.1413
 20
113.5497
 30
0.0
 10
124.5336
 20
95.3215
 30
0.0
 10
124.5336
 20
95.3215
 30
0.0
 10
126.7843
 20
87.7132
 30
0.0
 10
128.8502
 20
82.5605
 30
0.0
 10
131.7888
 20
79.177
 30
0.0
 10
131.7888
 20
79.177
 30
0.0
 10
129.7559
 20
77.5076
 30
0.0
 10
128.4587
 20
74.9746
 30
0.0
 10
128.4587
 20
72.1394
 30
0.0
 10
128.4587
 20
72.1394
 30
0.0
 10
128.4587
 20
71.14
 30
0.0
 10
128.6204
 20
70.1787
 30
0.0
 10
128.9182
 20
69.2791
 30
0.0
  0
SPLINE
  5
146
330
1F
100
AcDbEntity
  8
layer 1
 62
     7
370
    18
100
AcDbSpline
210
0.0
220
0.0
230
1.0
 70
    11
 71
     3
 72
    44
 73
    40
 74
     0
 42
0.0000000001
 43
0.0000000001
 12
1.0
 22
0.0
 32
0.0
 13
1.0
 23
0.0
 33
0.0
 40
0.0
 40
0.0
 40
0.0
 40
0.0
 40
0.0909090909090909
 40
0.0909090909090909
 40
0.0909090909090909
 40
0.0909090909090909
 40
0.1818181818181818
 40
0.1818181818181818
 40
0.1818181818181818
 40
0.1818181818181818
 40
0.2727272727272727
 40
0.2727272727272727
 40
0.2727272727272727
 40
0.2727272727272727
 40
0.3636363636363636
 40
0.3636363636363636
 40
0.3636363636363636
 40
0.3636363636363636
 40
0.4545454545454545
 40
0.4545454545454545
 40
0.4545454545454545
 40
0.4545454545454545
 40
0.5454545454545454
 40
0.5454545454545454
 40
0.5454545454545454
 40
0.5454545454545454
 40
0.6363636363636364
 40
0.6363636363636364
 40
0.6363636363636364
 40
0.6363636363636364
 40
0.7272727272727273
 40
0.7272727272727273
 40
0.7272727272727273
 40
0.7272727272727273
 40
0.8181818181818182
 40
0.8181818181818182
 40
0.8181818181818182
 40
0.8181818181818182
 40
1.0
 40
1.0
 40
1.0
 40
1.0
 10
129.2805
 20
32.2299
 30
0.0
 10
125.6919
 20
32.1894
 30
0.0
 10
125.5144
 20
28.4384
 30
0.0
 10
118.3318
 20
29.1888
 30
0.0
 10
118.3318
 20
29.1888
 30
0.0
 10
119.3846
 20
25.0827
 30
0.0
 10
116.3871
 20
28.3379
 30
0.0
 10
106.6205
 20
21.0305
 30
0.0
 10
106.6205
 20
21.0305
 30
0.0
 10
100.7956
 20
16.6721
 30
0.0
 10
93.5974
 20
12.5826
 30
0.0
 10
87.1885
 20
12.0355
 30
0.0
 10
87.1885
 20
12.0355
 30
0.0
 10
96.6242
 20
15.8063
 30
0.0
 10
105.1197
 20
24.4593
 30
0.0
 10
109.7566
 20
30.113
 30
0.0
 10
109.7566
 20
30.113
 30
0.0
 10
121.634
 20
44.5941
 30
0.0
 10
133.5553
 20
49.7953
 30
0.0
 10
144.316
 20
44.5243
 30
0.0
 10
144.316
 20
44.5243
 30
0.0
 10
152.0748
 20
40.7243
 30
0.0
 10
150.725
 20
30.9302
 30
0.0
 10
145.491
 20
29.5665
 30
0.0
 10
145.491
 20
29.5665
 30
0.0
 10
149.7797
 20
33.7533
 30
0.0
 10
149.3212
 20
40.1402
 30
0.0
 10
143.6651
 20
43.1063
 30
0.0
 10
143.6651
 20
43.1063
 30
0.0
 10
140.0461
 20
45.0044
 30
0.0
 10
134.2745
 20
43.8224
 30
0.0
 10
131.7734
 20
40.7993
 30
0.0
 10
131.7734
 20
40.7993
 30
0.0
 10
128.8551
 20
37.272
 30
0.0
 10
126.2966
 20
36.3866
 30
0.0
 10
123.6845
 20
36.1228
 30
0.0
 10
123.6845
 20
36.1228
 30
0.0
 10
126.1182
 20
35.4644
 30
0.0
 10
128.1458
 20
34.3495
 30
0.0
 10
129.2805
 20
32.2299
 30
0.0
  0
SPLINE
  5
147
330
1F
100
AcDbEntity
  8
layer 1
 62
     7
370
    18
100
AcDbSpline
210
0.0
220
0.0
230
1.0
 70
    11
 71
     3
 72
    24
 73
    20
 74
     0
 42
0.0000000001
 43
0.0000000001
 12
1.0
 22
0.0
 32
0.0
 13
1.0
 23
0.0
 33
0.0
 40
0.0
 40
0.0
 40
0.0
 40
0.0
 40
0.1666666666666667
 40
0.1666666666666667
 40
0.1666666666666667
 40
0.1666666666666667
 40
0.3333333333333333
 40
0.3333333333333333
 40
0.3333333333333333
 40
0.3333333333333333
 40
0.5
 40
0.5
 40
0.5
 40
0.5
 40
0.6666666666666666
 40
0.6666666666666666
 40
0.6666666666666666
 40
0.6666666666666666
 40
1.0
 40
1.0
 40
1.0
 40
1.0
 10
134.7002
 20
63.4972
 30
0.0
 10
134.7002
 20
63.4972
 30
0.0
 10
162.4026
 20
35.7948
 30
0.0
 10
162.4026
 20
35.7948
 30
0.0
 10
162.4026
 20
35.7948
 30
0.0
 10
177.1965
 20
34.9148
 30
0.0
 10
178.9705
 20
53.7203
 30
0.0
 10
160.7423
 20
59.1126
 30
0.0
 10
160.7423
 20
59.1126
 30
0.0
 10
153.134
 20
61.3633
 30
0.0
 10
147.9815
 20
63.4294
 30
0.0
 10
144.5979
 20
66.368
 30
0.0
 10
144.5979
 20
66.368
 30
0.0
 10
142.9284
 20
64.3351
 30
0.0
 10
140.3954
 20
63.0379
 30
0.0
 10
137.5602
 20
63.0379
 30
0.0
 10
137.5602
 20
63.0379
 30
0.0
 10
136.5608
 20
63.0379
 30
0.0
 10
135.5997
 20
63.1993
 30
0.0
 10
134.7002
 20
63.4972
 30
0.0
  0
SPLINE
  5
148
330
1F
100
AcDbEntity
  8
layer 1
 62
     7
370
    18
100
AcDbSpline
210
0.0
220
0.0
230
1.0
 70
    11
 71
     3
 72
    36
 73
    32
 74
     0
 42
0.0000000001
 43
0.0000000001
 12
1.0
 22
0.0
 32
0.0
 13
1.0
 23
0.0
 33
0.0
 40
0.0
 40
0.0
 40
0.0
 40
0.0
 40
0.1111111111111111
 40
0.1111111111111111
 40
0.1111111111111111
 40
0.1111111111111111
 40
0.2222222222222222
 40
0.2222222222222222
 40
0.2222222222222222
 40
0.2222222222222222
 40
0.3333333333333333
 40
0.3333333333333333
 40
0.3333333333333333
 40
0.3333333333333333
 40
0.4444444444444444
 40
0.4444444444444444
 40
0.4444444444444444
 40
0.4444444444444444
 40
0.5555555555555556
 40
0.5555555555555556
 40
0.5555555555555556
 40
0.5555555555555556
 40
0.6666666666666666
 40
0.6666666666666666
 40
0.6666666666666666
 40
0.6666666666666666
 40
0.7777777777777778
 40
0.7777777777777778
 40
0.7777777777777778
 40
0.7777777777777778
 40
1.0
 40
1.0
 40
1.0
 40
1.0
 10
126.2861
 20
60.8644
 30
0.0
 10
126.2861
 20
60.8644
 30
0.0
 10
126.2854
 20
60.8653
 30
0.0
 10
126.2854
 20
60.8653
 30
0.0
 10
126.2854
 20
60.8653
 30
0.0
 10
125.5095
 20
61.6405
 30
0.0
 10
124.4382
 20
62.1203
 30
0.0
 10
123.2549
 20
62.1203
 30
0.0
 10
123.2549
 20
62.1203
 30
0.0
 10
120.8876
 20
62.1203
 30
0.0
 10
118.9677
 20
60.2005
 30
0.0
 10
118.9677
 20
57.8334
 30
0.0
 10
118.9677
 20
57.8334
 30
0.0
 10
118.9677
 20
56.6499
 30
0.0
 10
119.4475
 20
55.5787
 30
0.0
 10
120.223
 20
54.8028
 30
0.0
 10
120.223
 20
54.8028
 30
0.0
 10
120.223
 20
54.8028
 30
0.0
 10
120.2236
 20
54.802
 30
0.0
 10
120.2236
 20
54.802
 30
0.0
 10
120.2236
 20
54.802
 30
0.0
 10
120.9995
 20
54.0265
 30
0.0
 10
122.0709
 20
53.5469
 30
0.0
 10
123.2542
 20
53.5469
 30
0.0
 10
123.2542
 20
53.5469
 30
0.0
 10
125.6215
 20
53.5469
 30
0.0
 10
127.5413
 20
55.4668
 30
0.0
 10
127.5413
 20
57.8338
 30
0.0
 10
127.5413
 20
57.8338
 30
0.0
 10
127.5413
 20
59.0174
 30
0.0
 10
127.0615
 20
60.0887
 30
0.0
 10
126.2861
 20
60.8644
 30
0.0
  0
SPLINE
  5
149
330
1F
100
AcDbEntity
  8
layer 1
 62
     7
370
    18
100
AcDbSpline
210
0.0
220
0.0
230
1.0
 70
    11
 71
     3
 72
    52
 73
    48
 74
     0
 42
0.0000000001
 43
0.0000000001
 12
1.0
 22
0.0
 32
0.0
 13
1.0
 23
0.0
 33
0.0
 40
0.0
 40
0.0
 40
0.0
 40
0.0
 40
0.0769230769230769
 40
0.0769230769230769
 40
0.0769230769230769
 40
0.0769230769230769
 40
0.1538461538461539
 40
0.1538461538461539
 40
0.1538461538461539
 40
0.1538461538461539
 40
0.2307692307692308
 40
0.2307692307692308
 40
0.2307692307692308
 40
0.2307692307692308
 40
0.3076923076923077
 40
0.3076923076923077
 40
0.3076923076923077
 40
0.3076923076923077
 40
0.3846153846153846
 40
0.3846153846153846
 40
0.3846153846153846
 40
0.3846153846153846
 40
0.4615384615384616
 40
0.4615384615384616
 40
0.4615384615384616
 40
0.4615384615384616
 40
0.5384615384615384
 40
0.5384615384615384
 40
0.5384615384615384
 40
0.5384615384615384
 40
0.6153846153846154
 40
0.6153846153846154
 40
0.6153846153846154
 40
0.6153846153846154
 40
0.6923076923076923
 40
0.6923076923076923
 40
0.6923076923076923
 40
0.6923076923076923
 40
0.7692307692307693
 40
0.7692307692307693
 40
0.7692307692307693
 40
0.7692307692307693
 40
0.8461538461538461
 40
0.8461538461538461
 40
0.8461538461538461
 40
0.8461538461538461
 40
1.0
 40
1.0
 40
1.0
 40
1.0
 10
190.0546
 20
65.071
 30
0.0
 10
190.0546
 20
65.071
 30
0.0
 10
190.0546
 20
122.7399
 30
0.0
 10
190.0546
 20
122.7399
 30
0.0
 10
190.0546
 20
122.7399
 30
0.0
 10
188.0573
 20
118.8499
 30
0.0
 10
182.2681
 20
106.5655
 30
0.0
 10
175.4305
 20
102.8869
 30
0.0
 10
175.4305
 20
102.8869
 30
0.0
 10
171.1559
 20
100.5874
 30
0.0
 10
174.0945
 20
98.7901
 30
0.0
 10
175.8964
 20
98.8114
 30
0.0
 10
175.8964
 20
98.8114
 30
0.0
 10
178.879
 20
98.847
 30
0.0
 10
182.1929
 20
98.3644
 30
0.0
 10
183.4235
 20
94.5196
 30
0.0
 10
183.4235
 20
94.5196
 30
0.0
 10
178.419
 20
95.1688
 30
0.0
 10
177.922
 20
87.6653
 30
0.0
 10
169.8718
 20
91.356
 30
0.0
 10
169.8718
 20
91.356
 30
0.0
 10
170.2799
 20
90.1505
 30
0.0
 10
170.3831
 20
88.8426
 30
0.0
 10
169.8159
 20
87.3115
 30
0.0
 10
169.8159
 20
87.3115
 30
0.0
 10
162.8032
 20
91.7839
 30
0.0
 10
152.5564
 20
83.1366
 30
0.0
 10
145.1414
 20
77.1778
 30
0.0
 10
145.1414
 20
77.1778
 30
0.0
 10
146.1024
 20
75.7353
 30
0.0
 10
146.6622
 20
74.0025
 30
0.0
 10
146.6622
 20
72.1396
 30
0.0
 10
146.6622
 20
72.1396
 30
0.0
 10
146.6622
 20
71.5835
 30
0.0
 10
146.6125
 20
71.0395
 30
0.0
 10
146.5168
 20
70.5111
 30
0.0
 10
146.5168
 20
70.5111
 30
0.0
 10
164.9131
 20
65.0822
 30
0.0
 10
165.5515
 20
76.0805
 30
0.0
 10
176.5671
 20
73.7532
 30
0.0
 10
176.5671
 20
73.7532
 30
0.0
 10
170.9183
 20
71.122
 30
0.0
 10
172.6978
 20
68.0756
 30
0.0
 10
177.7775
 20
68.7879
 30
0.0
 10
177.7775
 20
68.7879
 30
0.0
 10
182.1025
 20
69.394
 30
0.0
 10
185.883
 20
66.8458
 30
0.0
 10
190.0546
 20
65.071
 30
0.0
  0
SPLINE
  5
14A
330
1F
100
AcDbEntity
  8
layer 1
 62
     7
370
    18
100
AcDbSpline
210
0.0
220
0.0
230
1.0
 70
    11
 71
     3
 72
    20
 73
    16
 74
     0
 42
0.0000000001
 43
0.0000000001
 12
1.0
 22
0.0
 32
0.0
 13
1.0
 23
0.0
 33
0.0
 40
0.0
 40
0.0
 40
0.0
 40
0.0
 40
0.2
 40
0.2
 40
0.2
 40
0.2
 40
0.4
 40
0.4
 40
0.4
 40
0.4
 40
0.6
 40
0.6
 40
0.6
 40
0.6
 40
1.0
 40
1.0
 40
1.0
 40
1.0
 10
190.0546
 20
61.9619
 30
0.0
 10
185.5433
 20
59.973
 30
0.0
 10
183.2127
 20
58.1561
 30
0.0
 10
179.1159
 20
58.3983
 30
0.0
 10
179.1159
 20
58.3983
 30
0.0
 10
190.7717
 20
48.1722
 30
0.0
 10
186.4067
 20
27.4764
 30
0.0
 10
166.7517
 20
31.4456
 30
0.0
 10
166.7517
 20
31.4456
 30
0.0
 10
166.7517
 20
31.4456
 30
0.0
 10
190.0544
 20
9.3078
 30
0.0
 10
190.0544
 20
9.3078
 30
0.0
 10
190.0544
 20
9.3078
 30
0.0
 10
190.0544
 20
9.3078
 30
0.0
 10
190.0546
 20
61.9619
 30
0.0
 10
190.0546
 20
61.9619
 30
0.0
  0
SPLINE
  5
14B
330
1F
100
AcDbEntity
  8
layer 1
 62
     7
370
    18
100
AcDbSpline
210
0.0
220
0.0
230
1.0
 70
    11
 71
     3
 72
    20
 73
    16
 74
     0
 42
0.0000000001
 43
0.0000000001
 12
1.0
 22
0.0
 32
0.0
 13
1.0
 23
0.0
 33
0.0
 40
0.0
 40
0.0
 40
0.0
 40
0.0
 40
0.2
 40
0.2
 40
0.2
 40
0.2
 40
0.4
 40
0.4
 40
0.4
 40
0.4
 40
0.6
 40
0.6
 40
0.6
 40
0.6
 40
1.0
 40
1.0
 40
1.0
 40
1.0
 10
127.3827
 20
124.6336
 30
0.0
 10
127.3827
 20
124.6336
 30
0.0
 10
74.7962
 20
124.6336
 30
0.0
 10
74.7962
 20
124.6336
 30
0.0
 10
74.7962
 20
124.6336
 30
0.0
 10
74.7962
 20
124.6336
 30
0.0
 10
96.8667
 20
101.3309
 30
0.0
 10
96.8667
 20
101.3309
 30
0.0
 10
96.8667
 20
101.3309
 30
0.0
 10
92.8972
 20
120.9857
 30
0.0
 10
113.593
 20
125.3507
 30
0.0
 10
123.8193
 20
113.6949
 30
0.0
 10
123.8193
 20
113.6949
 30
0.0
 10
123.5771
 20
117.7919
 30
0.0
 10
125.3938
 20
120.1223
 30
0.0
 10
127.3827
 20
124.6336
 30
0.0
  0
SPLINE
  5
14C
330
1F
100
AcDbEntity
  8
layer 1
 62
     7
370
    18
100
AcDbSpline
210
0.0
220
0.0
230
1.0
 70
    11
 71
     3
 72
    52
 73
    48
 74
     0
 42
0.0000000001
 43
0.0000000001
 12
1.0
 22
0.0
 32
0.0
 13
1.0
 23
0.0
 33
0.0
 40
0.0
 40
0.0
 40
0.0
 40
0.0
 40
0.0769230769230769
 40
0.0769230769230769
 40
0.0769230769230769
 40
0.0769230769230769
 40
0.1538461538461539
 40
0.1538461538461539
 40
0.1538461538461539
 40
0.1538461538461539
 40
0.2307692307692308
 40
0.2307692307692308
 40
0.2307692307692308
 40
0.2307692307692308
 40
0.3076923076923077
 40
0.3076923076923077
 40
0.3076923076923077
 40
0.3076923076923077
 40
0.3846153846153846
 40
0.3846153846153846
 40
0.3846153846153846
 40
0.3846153846153846
 40
0.4615384615384616
 40
0.4615384615384616
 40
0.4615384615384616
 40
0.4615384615384616
 40
0.5384615384615384
 40
0.5384615384615384
 40
0.5384615384615384
 40
0.5384615384615384
 40
0.6153846153846154
 40
0.6153846153846154
 40
0.6153846153846154
 40
0.6153846153846154
 40
0.6923076923076923
 40
0.6923076923076923
 40
0.6923076923076923
 40
0.6923076923076923
 40
0.7692307692307693
 40
0.7692307692307693
 40
0.7692307692307693
 40
0.7692307692307693
 40
0.8461538461538461
 40
0.8461538461538461
 40
0.8461538461538461
 40
0.8461538461538461
 40
1.0
 40
1.0
 40
1.0
 40
1.0
 10
188.1607
 20
124.6336
 30
0.0
 10
188.1607
 20
124.6336
 30
0.0
 10
130.492
 20
124.6336
 30
0.0
 10
130.492
 20
124.6336
 30
0.0
 10
130.492
 20
124.6336
 30
0.0
 10
132.2669
 20
120.4621
 30
0.0
 10
134.815
 20
116.6814
 30
0.0
 10
134.2087
 20
112.3565
 30
0.0
 10
134.2087
 20
112.3565
 30
0.0
 10
133.4966
 20
107.2767
 30
0.0
 10
136.543
 20
105.4975
 30
0.0
 10
139.1743
 20
111.1461
 30
0.0
 10
139.1743
 20
111.1461
 30
0.0
 10
141.5015
 20
100.1307
 30
0.0
 10
130.5032
 20
99.4923
 30
0.0
 10
135.9319
 20
81.0958
 30
0.0
 10
135.9319
 20
81.0958
 30
0.0
 10
136.4605
 20
81.1915
 30
0.0
 10
137.0045
 20
81.2412
 30
0.0
 10
137.5607
 20
81.2412
 30
0.0
 10
137.5607
 20
81.2412
 30
0.0
 10
139.4235
 20
81.2412
 30
0.0
 10
141.1561
 20
80.6815
 30
0.0
 10
142.5988
 20
79.7204
 30
0.0
 10
142.5988
 20
79.7204
 30
0.0
 10
148.5574
 20
87.1355
 30
0.0
 10
157.2047
 20
97.3824
 30
0.0
 10
152.7323
 20
104.3951
 30
0.0
 10
152.7323
 20
104.3951
 30
0.0
 10
154.2635
 20
104.962
 30
0.0
 10
155.5713
 20
104.8591
 30
0.0
 10
156.777
 20
104.451
 30
0.0
 10
156.777
 20
104.451
 30
0.0
 10
153.0863
 20
112.5012
 30
0.0
 10
160.5896
 20
112.998
 30
0.0
 10
159.9407
 20
118.0025
 30
0.0
 10
159.9407
 20
118.0025
 30
0.0
 10
163.7854
 20
116.7719
 30
0.0
 10
164.2678
 20
113.458
 30
0.0
 10
164.2324
 20
110.4754
 30
0.0
 10
164.2324
 20
110.4754
 30
0.0
 10
164.2111
 20
108.6737
 30
0.0
 10
166.0082
 20
105.7348
 30
0.0
 10
168.3079
 20
110.0094
 30
0.0
 10
168.3079
 20
110.0094
 30
0.0
 10
171.9866
 20
116.8473
 30
0.0
 10
184.2707
 20
122.6363
 30
0.0
 10
188.1607
 20
124.6336
 30
0.0
  0
SPLINE
  5
14D
330
1F
100
AcDbEntity
  8
layer 1
 62
     7
370
    18
100
AcDbSpline
210
0.0
220
0.0
230
1.0
 70
    11
 71
     3
 72
    44
 73
    40
 74
     0
 42
0.0000000001
 43
0.0000000001
 12
1.0
 22
0.0
 32
0.0
 13
1.0
 23
0.0
 33
0.0
 40
0.0
 40
0.0
 40
0.0
 40
0.0
 40
0.0909090909090909
 40
0.0909090909090909
 40
0.0909090909090909
 40
0.0909090909090909
 40
0.1818181818181818
 40
0.1818181818181818
 40
0.1818181818181818
 40
0.1818181818181818
 40
0.2727272727272727
 40
0.2727272727272727
 40
0.2727272727272727
 40
0.2727272727272727
 40
0.3636363636363636
 40
0.3636363636363636
 40
0.3636363636363636
 40
0.3636363636363636
 40
0.4545454545454545
 40
0.4545454545454545
 40
0.4545454545454545
 40
0.4545454545454545
 40
0.5454545454545454
 40
0.5454545454545454
 40
0.5454545454545454
 40
0.5454545454545454
 40
0.6363636363636364
 40
0.6363636363636364
 40
0.6363636363636364
 40
0.6363636363636364
 40
0.7272727272727273
 40
0.7272727272727273
 40
0.7272727272727273
 40
0.7272727272727273
 40
0.8181818181818182
 40
0.8181818181818182
 40
0.8181818181818182
 40
0.8181818181818182
 40
1.0
 40
1.0
 40
1.0
 40
1.0
 10
49.4769
 20
63.8595
 30
0.0
 10
49.5172
 20
60.2711
 30
0.0
 10
53.2684
 20
60.0935
 30
0.0
 10
52.518
 20
52.9109
 30
0.0
 10
52.518
 20
52.9109
 30
0.0
 10
56.6241
 20
53.9636
 30
0.0
 10
53.3687
 20
50.9663
 30
0.0
 10
60.6763
 20
41.1997
 30
0.0
 10
60.6763
 20
41.1997
 30
0.0
 10
65.0347
 20
35.3748
 30
0.0
 10
69.1242
 20
28.1764
 30
0.0
 10
69.6713
 20
21.7677
 30
0.0
 10
69.6713
 20
21.7677
 30
0.0
 10
65.9005
 20
31.2032
 30
0.0
 10
57.2473
 20
39.6989
 30
0.0
 10
51.5938
 20
44.3356
 30
0.0
 10
51.5938
 20
44.3356
 30
0.0
 10
37.1125
 20
56.2132
 30
0.0
 10
31.9115
 20
68.1345
 30
0.0
 10
37.1822
 20
78.8952
 30
0.0
 10
37.1822
 20
78.8952
 30
0.0
 10
40.9825
 20
86.654
 30
0.0
 10
50.7764
 20
85.3039
 30
0.0
 10
52.1403
 20
80.07
 30
0.0
 10
52.1403
 20
80.07
 30
0.0
 10
47.9535
 20
84.3589
 30
0.0
 10
41.5666
 20
83.9002
 30
0.0
 10
38.6003
 20
78.2443
 30
0.0
 10
38.6003
 20
78.2443
 30
0.0
 10
36.7024
 20
74.6251
 30
0.0
 10
37.8842
 20
68.8535
 30
0.0
 10
40.9075
 20
66.3524
 30
0.0
 10
40.9075
 20
66.3524
 30
0.0
 10
44.4348
 20
63.4343
 30
0.0
 10
45.32
 20
60.8758
 30
0.0
 10
45.584
 20
58.2635
 30
0.0
 10
45.584
 20
58.2635
 30
0.0
 10
46.2424
 20
60.6972
 30
0.0
 10
47.3573
 20
62.725
 30
0.0
 10
49.4769
 20
63.8595
 30
0.0
  0
SPLINE
  5
14E
330
1F
100
AcDbEntity
  8
layer 1
 62
     7
370
    18
100
AcDbSpline
210
0.0
220
0.0
230
1.0
 70
    11
 71
     3
 72
    24
 73
    20
 74
     0
 42
0.0000000001
 43
0.0000000001
 12
1.0
 22
0.0
 32
0.0
 13
1.0
 23
0.0
 33
0.0
 40
0.0
 40
0.0
 40
0.0
 40
0.0
 40
0.1666666666666667
 40
0.1666666666666667
 40
0.1666666666666667
 40
0.1666666666666667
 40
0.3333333333333333
 40
0.3333333333333333
 40
0.3333333333333333
 40
0.3333333333333333
 40
0.5
 40
0.5
 40
0.5
 40
0.5
 40
0.6666666666666666
 40
0.6666666666666666
 40
0.6666666666666666
 40
0.6666666666666666
 40
1.0
 40
1.0
 40
1.0
 40
1.0
 10
18.2094
 20
69.2791
 30
0.0
 10
18.2094
 20
69.2791
 30
0.0
 10
45.9118
 20
96.9818
 30
0.0
 10
45.9118
 20
96.9818
 30
0.0
 10
45.9118
 20
96.9818
 30
0.0
 10
46.7917
 20
111.7757
 30
0.0
 10
27.9863
 20
113.5497
 30
0.0
 10
22.594
 20
95.3215
 30
0.0
 10
22.594
 20
95.3215
 30
0.0
 10
20.3433
 20
87.7132
 30
0.0
 10
18.2774
 20
82.5605
 30
0.0
 10
15.3388
 20
79.177
 30
0.0
 10
15.3388
 20
79.177
 30
0.0
 10
17.3717
 20
77.5076
 30
0.0
 10
18.6689
 20
74.9746
 30
0.0
 10
18.6689
 20
72.1394
 30
0.0
 10
18.6689
 20
72.1394
 30
0.0
 10
18.6689
 20
71.14
 30
0.0
 10
18.5072
 20
70.1787
 30
0.0
 10
18.2094
 20
69.2791
 30
0.0
  0
SPLINE
  5
14F
330
1F
100
AcDbEntity
  8
layer 1
 62
     7
370
    18
100
AcDbSpline
210
0.0
220
0.0
230
1.0
 70
    11
 71
     3
 72
    44
 73
    40
 74
     0
 42
0.0000000001
 43
0.0000000001
 12
1.0
 22
0.0
 32
0.0
 13
1.0
 23
0.0
 33
0.0
 40
0.0
 40
0.0
 40
0.0
 40
0.0
 40
0.0909090909090909
 40
0.0909090909090909
 40
0.0909090909090909
 40
0.0909090909090909
 40
0.1818181818181818
 40
0.1818181818181818
 40
0.1818181818181818
 40
0.1818181818181818
 40
0.2727272727272727
 40
0.2727272727272727
 40
0.2727272727272727
 40
0.2727272727272727
 40
0.3636363636363636
 40
0.3636363636363636
 40
0.3636363636363636
 40
0.3636363636363636
 40
0.4545454545454545
 40
0.4545454545454545
 40
0.4545454545454545
 40
0.4545454545454545
 40
0.5454545454545454
 40
0.5454545454545454
 40
0.5454545454545454
 40
0.5454545454545454
 40
0.6363636363636364
 40
0.6363636363636364
 40
0.6363636363636364
 40
0.6363636363636364
 40
0.7272727272727273
 40
0.7272727272727273
 40
0.7272727272727273
 40
0.7272727272727273
 40
0.8181818181818182
 40
0.8181818181818182
 40
0.8181818181818182
 40
0.8181818181818182
 40
1.0
 40
1.0
 40
1.0
 40
1.0
 10
17.8471
 20
32.2299
 30
0.0
 10
21.4357
 20
32.1894
 30
0.0
 10
21.6133
 20
28.4384
 30
0.0
 10
28.7959
 20
29.1888
 30
0.0
 10
28.7959
 20
29.1888
 30
0.0
 10
27.743
 20
25.0827
 30
0.0
 10
30.7405
 20
28.3379
 30
0.0
 10
40.5071
 20
21.0305
 30
0.0
 10
40.5071
 20
21.0305
 30
0.0
 10
46.332
 20
16.6721
 30
0.0
 10
53.5302
 20
12.5826
 30
0.0
 10
59.9391
 20
12.0355
 30
0.0
 10
59.9391
 20
12.0355
 30
0.0
 10
50.5034
 20
15.8063
 30
0.0
 10
42.0079
 20
24.4593
 30
0.0
 10
37.371
 20
30.113
 30
0.0
 10
37.371
 20
30.113
 30
0.0
 10
25.4936
 20
44.5941
 30
0.0
 10
13.5723
 20
49.7953
 30
0.0
 10
2.8116
 20
44.5243
 30
0.0
 10
2.8116
 20
44.5243
 30
0.0
 10
-4.9472
 20
40.7243
 30
0.0
 10
-3.5973
 20
30.9302
 30
0.0
 10
1.6366
 20
29.5665
 30
0.0
 10
1.6366
 20
29.5665
 30
0.0
 10
-2.6521
 20
33.7533
 30
0.0
 10
-2.1936
 20
40.1402
 30
0.0
 10
3.4625
 20
43.1063
 30
0.0
 10
3.4625
 20
43.1063
 30
0.0
 10
7.0815
 20
45.0044
 30
0.0
 10
12.8531
 20
43.8224
 30
0.0
 10
15.3542
 20
40.7993
 30
0.0
 10
15.3542
 20
40.7993
 30
0.0
 10
18.2725
 20
37.272
 30
0.0
 10
20.831
 20
36.3866
 30
0.0
 10
23.4431
 20
36.1228
 30
0.0
 10
23.4431
 20
36.1228
 30
0.0
 10
21.0094
 20
35.4644
 30
0.0
 10
18.9818
 20
34.3495
 30
0.0
 10
17.8471
 20
32.2299
 30
0.0
  0
SPLINE
  5
150
330
1F
100
AcDbEntity
  8
layer 1
 62
     7
370
    18
100
AcDbSpline
210
0.0
220
0.0
230
1.0
 70
    11
 71
     3
 72
    24
 73
    20
 74
     0
 42
0.0000000001
 43
0.0000000001
 12
1.0
 22
0.0
 32
0.0
 13
1.0
 23
0.0
 33
0.0
 40
0.0
 40
0.0
 40
0.0
 40
0.0
 40
0.1666666666666667
 40
0.1666666666666667
 40
0.1666666666666667
 40
0.1666666666666667
 40
0.3333333333333333
 40
0.3333333333333333
 40
0.3333333333333333
 40
0.3333333333333333
 40
0.5
 40
0.5
 40
0.5
 40
0.5
 40
0.6666666666666666
 40
0.6666666666666666
 40
0.6666666666666666
 40
0.6666666666666666
 40
1.0
 40
1.0
 40
1.0
 40
1.0
 10
12.4274
 20
63.4972
 30
0.0
 10
12.4274
 20
63.4972
 30
0.0
 10
-15.275
 20
35.7948
 30
0.0
 10
-15.275
 20
35.7948
 30
0.0
 10
-15.275
 20
35.7948
 30
0.0
 10
-30.0689
 20
34.9148
 30
0.0
 10
-31.8429
 20
53.7203
 30
0.0
 10
-13.6147
 20
59.1126
 30
0.0
 10
-13.6147
 20
59.1126
 30
0.0
 10
-6.0064
 20
61.3633
 30
0.0
 10
-0.8539
 20
63.4294
 30
0.0
 10
2.5298
 20
66.368
 30
0.0
 10
2.5298
 20
66.368
 30
0.0
 10
4.1992
 20
64.3351
 30
0.0
 10
6.7322
 20
63.0379
 30
0.0
 10
9.5674
 20
63.0379
 30
0.0
 10
9.5674
 20
63.0379
 30
0.0
 10
10.5668
 20
63.0379
 30
0.0
 10
11.5279
 20
63.1993
 30
0.0
 10
12.4274
 20
63.4972
 30
0.0
  0
SPLINE
  5
151
330
1F
100
AcDbEntity
  8
layer 1
 62
     7
370
    18
100
AcDbSpline
210
0.0
220
0.0
230
1.0
 70
    11
 71
     3
 72
    36
 73
    32
 74
     0
 42
0.0000000001
 43
0.0000000001
 12
1.0
 22
0.0
 32
0.0
 13
1.0
 23
0.0
 33
0.0
 40
0.0
 40
0.0
 40
0.0
 40
0.0
 40
0.1111111111111111
 40
0.1111111111111111
 40
0.1111111111111111
 40
0.1111111111111111
 40
0.2222222222222222
 40
0.2222222222222222
 40
0.2222222222222222
 40
0.2222222222222222
 40
0.3333333333333333
 40
0.3333333333333333
 40
0.3333333333333333
 40
0.3333333333333333
 40
0.4444444444444444
 40
0.4444444444444444
 40
0.4444444444444444
 40
0.4444444444444444
 40
0.5555555555555556
 40
0.5555555555555556
 40
0.5555555555555556
 40
0.5555555555555556
 40
0.6666666666666666
 40
0.6666666666666666
 40
0.6666666666666666
 40
0.6666666666666666
 40
0.7777777777777778
 40
0.7777777777777778
 40
0.7777777777777778
 40
0.7777777777777778
 40
1.0
 40
1.0
 40
1.0
 40
1.0
 10
20.8415
 20
60.8644
 30
0.0
 10
20.8415
 20
60.8644
 30
0.0
 10
20.8422
 20
60.8653
 30
0.0
 10
20.8422
 20
60.8653
 30
0.0
 10
20.8422
 20
60.8653
 30
0.0
 10
21.6181
 20
61.6405
 30
0.0
 10
22.6894
 20
62.1203
 30
0.0
 10
23.8727
 20
62.1203
 30
0.0
 10
23.8727
 20
62.1203
 30
0.0
 10
26.24
 20
62.1203
 30
0.0
 10
28.1599
 20
60.2005
 30
0.0
 10
28.1599
 20
57.8334
 30
0.0
 10
28.1599
 20
57.8334
 30
0.0
 10
28.1599
 20
56.6499
 30
0.0
 10
27.6801
 20
55.5787
 30
0.0
 10
26.9046
 20
54.8028
 30
0.0
 10
26.9046
 20
54.8028
 30
0.0
 10
26.9046
 20
54.8028
 30
0.0
 10
26.904
 20
54.802
 30
0.0
 10
26.904
 20
54.802
 30
0.0
 10
26.904
 20
54.802
 30
0.0
 10
26.1281
 20
54.0265
 30
0.0
 10
25.0567
 20
53.5469
 30
0.0
 10
23.8734
 20
53.5469
 30
0.0
 10
23.8734
 20
53.5469
 30
0.0
 10
21.5061
 20
53.5469
 30
0.0
 10
19.5863
 20
55.4668
 30
0.0
 10
19.5863
 20
57.8338
 30
0.0
 10
19.5863
 20
57.8338
 30
0.0
 10
19.5863
 20
59.0174
 30
0.0
 10
20.0661
 20
60.0887
 30
0.0
 10
20.8415
 20
60.8644
 30
0.0
  0
SPLINE
  5
152
330
1F
100
AcDbEntity
  8
layer 1
 62
     7
370
    18
100
AcDbSpline
210
0.0
220
0.0
230
1.0
 70
    11
 71
     3
 72
    52
 73
    48
 74
     0
 42
0.0000000001
 43
0.0000000001
 12
1.0
 22
0.0
 32
0.0
 13
1.0
 23
0.0
 33
0.0
 40
0.0
 40
0.0
 40
0.0
 40
0.0
 40
0.0769230769230769
 40
0.0769230769230769
 40
0.0769230769230769
 40
0.0769230769230769
 40
0.1538461538461539
 40
0.1538461538461539
 40
0.1538461538461539
 40
0.1538461538461539
 40
0.2307692307692308
 40
0.2307692307692308
 40
0.2307692307692308
 40
0.2307692307692308
 40
0.3076923076923077
 40
0.3076923076923077
 40
0.3076923076923077
 40
0.3076923076923077
 40
0.3846153846153846
 40
0.3846153846153846
 40
0.3846153846153846
 40
0.3846153846153846
 40
0.4615384615384616
 40
0.4615384615384616
 40
0.4615384615384616
 40
0.4615384615384616
 40
0.5384615384615384
 40
0.5384615384615384
 40
0.5384615384615384
 40
0.5384615384615384
 40
0.6153846153846154
 40
0.6153846153846154
 40
0.6153846153846154
 40
0.6153846153846154
 40
0.6923076923076923
 40
0.6923076923076923
 40
0.6923076923076923
 40
0.6923076923076923
 40
0.7692307692307693
 40
0.7692307692307693
 40
0.7692307692307693
 40
0.7692307692307693
 40
0.8461538461538461
 40
0.8461538461538461
 40
0.8461538461538461
 40
0.8461538461538461
 40
1.0
 40
1.0
 40
1.0
 40
1.0
 10
-42.927
 20
65.071
 30
0.0
 10
-42.927
 20
65.071
 30
0.0
 10
-42.927
 20
122.7399
 30
0.0
 10
-42.927
 20
122.7399
 30
0.0
 10
-42.927
 20
122.7399
 30
0.0
 10
-40.9297
 20
118.8499
 30
0.0
 10
-35.1405
 20
106.5655
 30
0.0
 10
-28.3029
 20
102.8869
 30
0.0
 10
-28.3029
 20
102.8869
 30
0.0
 10
-24.0283
 20
100.5874
 30
0.0
 10
-26.9669
 20
98.7901
 30
0.0
 10
-28.7688
 20
98.8114
 30
0.0
 10
-28.7688
 20
98.8114
 30
0.0
 10
-31.7514
 20
98.847
 30
0.0
 10
-35.0653
 20
98.3644
 30
0.0
 10
-36.2959
 20
94.5196
 30
0.0
 10
-36.2959
 20
94.5196
 30
0.0
 10
-31.2914
 20
95.1688
 30
0.0
 10
-30.7944
 20
87.6653
 30
0.0
 10
-22.7442
 20
91.356
 30
0.0
 10
-22.7442
 20
91.356
 30
0.0
 10
-23.1523
 20
90.1505
 30
0.0
 10
-23.2555
 20
88.8426
 30
0.0
 10
-22.6883
 20
87.3115
 30
0.0
 10
-22.6883
 20
87.3115
 30
0.0
 10
-15.6756
 20
91.7839
 30
0.0
 10
-5.4287
 20
83.1366
 30
0.0
 10
1.9862
 20
77.1778
 30
0.0
 10
1.9862
 20
77.1778
 30
0.0
 10
1.0253
 20
75.7353
 30
0.0
 10
0.4654
 20
74.0025
 30
0.0
 10
0.4654
 20
72.1396
 30
0.0
 10
0.4654
 20
72.1396
 30
0.0
 10
0.4654
 20
71.5835
 30
0.0
 10
0.5151
 20
71.0395
 30
0.0
 10
0.6108
 20
70.5111
 30
0.0
 10
0.6108
 20
70.5111
 30
0.0
 10
-17.7855
 20
65.0822
 30
0.0
 10
-18.4239
 20
76.0805
 30
0.0
 10
-29.4395
 20
73.7532
 30
0.0
 10
-29.4395
 20
73.7532
 30
0.0
 10
-23.7907
 20
71.122
 30
0.0
 10
-25.5702
 20
68.0756
 30
0.0
 10
-30.6499
 20
68.7879
 30
0.0
 10
-30.6499
 20
68.7879
 30
0.0
 10
-34.9749
 20
69.394
 30
0.0
 10
-38.7554
 20
66.8458
 30
0.0
 10
-42.927
 20
65.071
 30
0.0
  0
SPLINE
  5
153
330
1F
100
AcDbEntity
  8
layer 1
 62
     7
370
    18
100
AcDbSpline
210
0.0
220
0.0
230
1.0
 70
    11
 71
     3
 72
    20
 73
    16
 74
     0
 42
0.0000000001
 43
0.0000000001
 12
1.0
 22
0.0
 32
0.0
 13
1.0
 23
0.0
 33
0.0
 40
0.0
 40
0.0
 40
0.0
 40
0.0
 40
0.2
 40
0.2
 40
0.2
 40
0.2
 40
0.4
 40
0.4
 40
0.4
 40
0.4
 40
0.6
 40
0.6
 40
0.6
 40
0.6
 40
1.0
 40
1.0
 40
1.0
 40
1.0
 10
-42.927
 20
61.9619
 30
0.0
 10
-38.4157
 20
59.973
 30
0.0
 10
-36.0851
 20
58.1561
 30
0.0
 10
-31.9883
 20
58.3983
 30
0.0
 10
-31.9883
 20
58.3983
 30
0.0
 10
-43.6441
 20
48.1722
 30
0.0
 10
-39.2791
 20
27.4764
 30
0.0
 10
-19.6241
 20
31.4456
 30
0.0
 10
-19.6241
 20
31.4456
 30
0.0
 10
-19.6241
 20
31.4456
 30
0.0
 10
-42.9268
 20
9.3078
 30
0.0
 10
-42.9268
 20
9.3078
 30
0.0
 10
-42.9268
 20
9.3078
 30
0.0
 10
-42.9268
 20
9.3078
 30
0.0
 10
-42.927
 20
61.9619
 30
0.0
 10
-42.927
 20
61.9619
 30
0.0
  0
SPLINE
  5
154
330
1F
100
AcDbEntity
  8
layer 1
 62
     7
370
    18
100
AcDbSpline
210
0.0
220
0.0
230
1.0
 70
    11
 71
     3
 72
    20
 73
    16
 74
     0
 42
0.0000000001
 43
0.0000000001
 12
1.0
 22
0.0
 32
0.0
 13
1.0
 23
0.0
 33
0.0
 40
0.0
 40
0.0
 40
0.0
 40
0.0
 40
0.2
 40
0.2
 40
0.2
 40
0.2
 40
0.4
 40
0.4
 40
0.4
 40
0.4
 40
0.6
 40
0.6
 40
0.6
 40
0.6
 40
1.0
 40
1.0
 40
1.0
 40
1.0
 10
19.7449
 20
124.6336
 30
0.0
 10
19.7449
 20
124.6336
 30
0.0
 10
72.3314
 20
124.6336
 30
0.0
 10
72.3314
 20
124.6336
 30
0.0
 10
72.3314
 20
124.6336
 30
0.0
 10
72.3314
 20
124.6336
 30
0.0
 10
50.2609
 20
101.3309
 30
0.0
 10
50.2609
 20
101.3309
 30
0.0
 10
50.2609
 20
101.3309
 30
0.0
 10
54.2304
 20
120.9857
 30
0.0
 10
33.5346
 20
125.3507
 30
0.0
 10
23.3083
 20
113.6949
 30
0.0
 10
23.3083
 20
113.6949
 30
0.0
 10
23.5505
 20
117.7919
 30
0.0
 10
21.7338
 20
120.1223
 30
0.0
 10
19.7449
 20
124.6336
 30
0.0
  0
SPLINE
  5
155
330
1F
100
AcDbEntity
  8
layer 1
 62
     7
370
    18
100
AcDbSpline
210
0.0
220
0.0
230
1.0
 70
    11
 71
     3
 72
    52
 73
    48
 74
     0
 42
0.0000000001
 43
0.0000000001
 12
1.0
 22
0.0
 32
0.0
 13
1.0
 23
0.0
 33
0.0
 40
0.0
 40
0.0
 40
0.0
 40
0.0
 40
0.0769230769230769
 40
0.0769230769230769
 40
0.0769230769230769
 40
0.0769230769230769
 40
0.1538461538461539
 40
0.1538461538461539
 40
0.1538461538461539
 40
0.1538461538461539
 40
0.2307692307692308
 40
0.2307692307692308
 40
0.2307692307692308
 40
0.2307692307692308
 40
0.3076923076923077
 40
0.3076923076923077
 40
0.3076923076923077
 40
0.3076923076923077
 40
0.3846153846153846
 40
0.3846153846153846
 40
0.3846153846153846
 40
0.3846153846153846
 40
0.4615384615384616
 40
0.4615384615384616
 40
0.4615384615384616
 40
0.4615384615384616
 40
0.5384615384615384
 40
0.5384615384615384
 40
0.5384615384615384
 40
0.5384615384615384
 40
0.6153846153846154
 40
0.6153846153846154
 40
0.6153846153846154
 40
0.6153846153846154
 40
0.6923076923076923
 40
0.6923076923076923
 40
0.6923076923076923
 40
0.6923076923076923
 40
0.7692307692307693
 40
0.7692307692307693
 40
0.7692307692307693
 40
0.7692307692307693
 40
0.8461538461538461
 40
0.8461538461538461
 40
0.8461538461538461
 40
0.8461538461538461
 40
1.0
 40
1.0
 40
1.0
 40
1.0
 10
-41.0331
 20
124.6336
 30
0.0
 10
-41.0331
 20
124.6336
 30
0.0
 10
16.6356
 20
124.6336
 30
0.0
 10
16.6356
 20
124.6336
 30
0.0
 10
16.6356
 20
124.6336
 30
0.0
 10
14.8607
 20
120.4621
 30
0.0
 10
12.3126
 20
116.6814
 30
0.0
 10
12.9189
 20
112.3565
 30
0.0
 10
12.9189
 20
112.3565
 30
0.0
 10
13.631
 20
107.2767
 30
0.0
 10
10.5846
 20
105.4975
 30
0.0
 10
7.9533
 20
111.1461
 30
0.0
 10
7.9533
 20
111.1461
 30
0.0
 10
5.6261
 20
100.1307
 30
0.0
 10
16.6244
 20
99.4923
 30
0.0
 10
11.1957
 20
81.0958
 30
0.0
 10
11.1957
 20
81.0958
 30
0.0
 10
10.6671
 20
81.1915
 30
0.0
 10
10.1231
 20
81.2412
 30
0.0
 10
9.5669
 20
81.2412
 30
0.0
 10
9.5669
 20
81.2412
 30
0.0
 10
7.7041
 20
81.2412
 30
0.0
 10
5.9715
 20
80.6815
 30
0.0
 10
4.5288
 20
79.7204
 30
0.0
 10
4.5288
 20
79.7204
 30
0.0
 10
-1.4298
 20
87.1355
 30
0.0
 10
-10.0771
 20
97.3824
 30
0.0
 10
-5.6047
 20
104.3951
 30
0.0
 10
-5.6047
 20
104.3951
 30
0.0
 10
-7.1358
 20
104.962
 30
0.0
 10
-8.4437
 20
104.8591
 30
0.0
 10
-9.6494
 20
104.451
 30
0.0
 10
-9.6494
 20
104.451
 30
0.0
 10
-5.9587
 20
112.5012
 30
0.0
 10
-13.462
 20
112.998
 30
0.0
 10
-12.8131
 20
118.0025
 30
0.0
 10
-12.8131
 20
118.0025
 30
0.0
 10
-16.6578
 20
116.7719
 30
0.0
 10
-17.1402
 20
113.458
 30
0.0
 10
-17.1048
 20
110.4754
 30
0.0
 10
-17.1048
 20
110.4754
 30
0.0
 10
-17.0835
 20
108.6737
 30
0.0
 10
-18.8806
 20
105.7348
 30
0.0
 10
-21.1803
 20
110.0094
 30
0.0
 10
-21.1803
 20
110.0094
 30
0.0
 10
-24.8589
 20
116.8473
 30
0.0
 10
-37.1431
 20
122.6363
 30
0.0
 10
-41.0331
 20
124.6336
 30
0.0
  0
SPLINE
  5
156
330
1F
100
AcDbEntity
  8
layer 1
 62
     7
370
    18
100
AcDbSpline
210
0.0
220
0.0
230
1.0
 70
    11
 71
     3
 72
    52
 73
    48
 74
     0
 42
0.0000000001
 43
0.0000000001
 12
1.0
 22
0.0
 32
0.0
 13
1.0
 23
0.0
 33
0.0
 40
0.0
 40
0.0
 40
0.0
 40
0.0
 40
0.0769230769230769
 40
0.0769230769230769
 40
0.0769230769230769
 40
0.0769230769230769
 40
0.1538461538461539
 40
0.1538461538461539
 40
0.1538461538461539
 40
0.1538461538461539
 40
0.2307692307692308
 40
0.2307692307692308
 40
0.2307692307692308
 40
0.2307692307692308
 40
0.3076923076923077
 40
0.3076923076923077
 40
0.3076923076923077
 40
0.3076923076923077
 40
0.3846153846153846
 40
0.3846153846153846
 40
0.3846153846153846
 40
0.3846153846153846
 40
0.4615384615384616
 40
0.4615384615384616
 40
0.4615384615384616
 40
0.4615384615384616
 40
0.5384615384615384
 40
0.5384615384615384
 40
0.5384615384615384
 40
0.5384615384615384
 40
0.6153846153846154
 40
0.6153846153846154
 40
0.6153846153846154
 40
0.6153846153846154
 40
0.6923076923076923
 40
0.6923076923076923
 40
0.6923076923076923
 40
0.6923076923076923
 40
0.7692307692307693
 40
0.7692307692307693
 40
0.7692307692307693
 40
0.7692307692307693
 40
0.8461538461538461
 40
0.8461538461538461
 40
0.8461538461538461
 40
0.8461538461538461
 40
1.0
 40
1.0
 40
1.0
 40
1.0
 10
73.5638
 20
109.3886
 30
0.0
 10
74.1751
 20
102.1398
 30
0.0
 10
78.5542
 20
95.3167
 30
0.0
 10
75.3928
 20
87.6413
 30
0.0
 10
75.3928
 20
87.6413
 30
0.0
 10
78.329
 20
89.4507
 30
0.0
 10
81.2497
 20
90.438
 30
0.0
 10
84.1377
 20
90.2965
 30
0.0
 10
84.1377
 20
90.2965
 30
0.0
 10
81.7141
 20
86.7132
 30
0.0
 10
83.3057
 20
82.7646
 30
0.0
 10
76.8669
 20
79.5471
 30
0.0
 10
76.8669
 20
79.5471
 30
0.0
 10
86.4399
 20
79.3698
 30
0.0
 10
78.6992
 20
74.9009
 30
0.0
 10
76.2831
 20
68.6788
 30
0.0
 10
76.2831
 20
68.6788
 30
0.0
 10
73.6104
 20
61.796
 30
0.0
 10
74.4823
 20
42.6914
 30
0.0
 10
74.3014
 20
32.2792
 30
0.0
 10
74.3014
 20
32.2792
 30
0.0
 10
74.2407
 20
28.7844
 30
0.0
 10
74.1243
 20
26.2002
 30
0.0
 10
73.5638
 20
25.2481
 30
0.0
 10
73.5638
 20
25.2481
 30
0.0
 10
73.0033
 20
26.2002
 30
0.0
 10
72.8869
 20
28.7844
 30
0.0
 10
72.8262
 20
32.2792
 30
0.0
 10
72.8262
 20
32.2792
 30
0.0
 10
72.6454
 20
42.6914
 30
0.0
 10
73.5172
 20
61.796
 30
0.0
 10
70.8445
 20
68.6788
 30
0.0
 10
70.8445
 20
68.6788
 30
0.0
 10
68.4284
 20
74.9009
 30
0.0
 10
60.6877
 20
79.3698
 30
0.0
 10
70.2607
 20
79.5471
 30
0.0
 10
70.2607
 20
79.5471
 30
0.0
 10
63.8219
 20
82.7646
 30
0.0
 10
65.4135
 20
86.7132
 30
0.0
 10
62.9899
 20
90.2965
 30
0.0
 10
62.9899
 20
90.2965
 30
0.0
 10
65.8779
 20
90.438
 30
0.0
 10
68.7986
 20
89.4507
 30
0.0
 10
71.7348
 20
87.6413
 30
0.0
 10
71.7348
 20
87.6413
 30
0.0
 10
68.5734
 20
95.3167
 30
0.0
 10
72.9525
 20
102.1398
 30
0.0
 10
73.5638
 20
109.3886
 30
0.0
  0
SPLINE
  5
157
330
1F
100
AcDbEntity
  8
layer 1
 62
     7
370
    18
100
AcDbSpline
210
0.0
220
0.0
230
1.0
 70
    11
 71
     3
 72
    52
 73
    48
 74
     0
 42
0.0000000001
 43
0.0000000001
 12
1.0
 22
0.0
 32
0.0
 13
1.0
 23
0.0
 33
0.0
 40
0.0
 40
0.0
 40
0.0
 40
0.0
 40
0.0769230769230769
 40
0.0769230769230769
 40
0.0769230769230769
 40
0.0769230769230769
 40
0.1538461538461539
 40
0.1538461538461539
 40
0.1538461538461539
 40
0.1538461538461539
 40
0.2307692307692308
 40
0.2307692307692308
 40
0.2307692307692308
 40
0.2307692307692308
 40
0.3076923076923077
 40
0.3076923076923077
 40
0.3076923076923077
 40
0.3076923076923077
 40
0.3846153846153846
 40
0.3846153846153846
 40
0.3846153846153846
 40
0.3846153846153846
 40
0.4615384615384616
 40
0.4615384615384616
 40
0.4615384615384616
 40
0.4615384615384616
 40
0.5384615384615384
 40
0.5384615384615384
 40
0.5384615384615384
 40
0.5384615384615384
 40
0.6153846153846154
 40
0.6153846153846154
 40
0.6153846153846154
 40
0.6153846153846154
 40
0.6923076923076923
 40
0.6923076923076923
 40
0.6923076923076923
 40
0.6923076923076923
 40
0.7692307692307693
 40
0.7692307692307693
 40
0.7692307692307693
 40
0.7692307692307693
 40
0.8461538461538461
 40
0.8461538461538461
 40
0.8461538461538461
 40
0.8461538461538461
 40
1.0
 40
1.0
 40
1.0
 40
1.0
 10
90.6692
 20
8.143
 30
0.0
 10
91.6211
 20
7.5822
 30
0.0
 10
94.2053
 20
7.4661
 30
0.0
 10
97.7
 20
7.4052
 30
0.0
 10
97.7
 20
7.4052
 30
0.0
 10
108.1124
 20
7.2243
 30
0.0
 10
127.2171
 20
8.0964
 30
0.0
 10
134.0996
 20
5.4237
 30
0.0
 10
134.0996
 20
5.4237
 30
0.0
 10
140.3217
 20
3.0076
 30
0.0
 10
144.7906
 20
-4.7333
 30
0.0
 10
144.9679
 20
4.8399
 30
0.0
 10
144.9679
 20
4.8399
 30
0.0
 10
148.1856
 20
-1.5992
 30
0.0
 10
152.1342
 20
-0.0073
 30
0.0
 10
155.7174
 20
-2.4309
 30
0.0
 10
155.7174
 20
-2.4309
 30
0.0
 10
155.859
 20
0.4571
 30
0.0
 10
154.8715
 20
3.3776
 30
0.0
 10
153.0623
 20
6.3138
 30
0.0
 10
153.0623
 20
6.3138
 30
0.0
 10
160.7377
 20
3.1526
 30
0.0
 10
167.5606
 20
7.5314
 30
0.0
 10
174.8097
 20
8.143
 30
0.0
 10
174.8097
 20
8.143
 30
0.0
 10
167.5606
 20
8.7541
 30
0.0
 10
160.7377
 20
13.1334
 30
0.0
 10
153.0623
 20
9.972
 30
0.0
 10
153.0623
 20
9.972
 30
0.0
 10
154.8715
 20
12.9081
 30
0.0
 10
155.859
 20
15.8289
 30
0.0
 10
155.7174
 20
18.7169
 30
0.0
 10
155.7174
 20
18.7169
 30
0.0
 10
152.1342
 20
16.2933
 30
0.0
 10
148.1856
 20
17.8847
 30
0.0
 10
144.9679
 20
11.4461
 30
0.0
 10
144.9679
 20
11.4461
 30
0.0
 10
144.7906
 20
21.0189
 30
0.0
 10
140.3217
 20
13.2784
 30
0.0
 10
134.0996
 20
10.8623
 30
0.0
 10
134.0996
 20
10.8623
 30
0.0
 10
127.2171
 20
8.1896
 30
0.0
 10
108.1124
 20
9.0612
 30
0.0
 10
97.7
 20
8.8804
 30
0.0
 10
97.7
 20
8.8804
 30
0.0
 10
94.2053
 20
8.8199
 30
0.0
 10
91.6211
 20
8.7033
 30
0.0
 10
90.6692
 20
8.143
 30
0.0
  0
SPLINE
  5
158
330
1F
100
AcDbEntity
  8
layer 1
 62
     7
370
    18
100
AcDbSpline
210
0.0
220
0.0
230
1.0
 70
    11
 71
     3
 72
    20
 73
    16
 74
     0
 42
0.0000000001
 43
0.0000000001
 12
1.0
 22
0.0
 32
0.0
 13
1.0
 23
0.0
 33
0.0
 40
0.0
 40
0.0
 40
0.0
 40
0.0
 40
0.2
 40
0.2
 40
0.2
 40
0.2
 40
0.4
 40
0.4
 40
0.4
 40
0.4
 40
0.6
 40
0.6
 40
0.6
 40
0.6
 40
1.0
 40
1.0
 40
1.0
 40
1.0
 10
69.1834
 20
8.143
 30
0.0
 10
69.1834
 20
5.7242
 30
0.0
 10
71.145
 20
3.7624
 30
0.0
 10
73.5638
 20
3.7624
 30
0.0
 10
73.5638
 20
3.7624
 30
0.0
 10
75.9826
 20
3.7624
 30
0.0
 10
77.9442
 20
5.7242
 30
0.0
 10
77.9442
 20
8.143
 30
0.0
 10
77.9442
 20
8.143
 30
0.0
 10
77.9442
 20
10.5618
 30
0.0
 10
75.9826
 20
12.5232
 30
0.0
 10
73.5638
 20
12.5232
 30
0.0
 10
73.5638
 20
12.5232
 30
0.0
 10
71.145
 20
12.5232
 30
0.0
 10
69.1834
 20
10.5618
 30
0.0
 10
69.1834
 20
8.143
 30
0.0
  0
SPLINE
  5
159
330
1F
100
AcDbEntity
  8
layer 1
 62
     7
370
    18
100
AcDbSpline
210
0.0
220
0.0
230
1.0
 70
    11
 71
     3
 72
    52
 73
    48
 74
     0
 42
0.0000000001
 43
0.0000000001
 12
1.0
 22
0.0
 32
0.0
 13
1.0
 23
0.0
 33
0.0
 40
0.0
 40
0.0
 40
0.0
 40
0.0
 40
0.0769230769230769
 40
0.0769230769230769
 40
0.0769230769230769
 40
0.0769230769230769
 40
0.1538461538461539
 40
0.1538461538461539
 40
0.1538461538461539
 40
0.1538461538461539
 40
0.2307692307692308
 40
0.2307692307692308
 40
0.2307692307692308
 40
0.2307692307692308
 40
0.3076923076923077
 40
0.3076923076923077
 40
0.3076923076923077
 40
0.3076923076923077
 40
0.3846153846153846
 40
0.3846153846153846
 40
0.3846153846153846
 40
0.3846153846153846
 40
0.4615384615384616
 40
0.4615384615384616
 40
0.4615384615384616
 40
0.4615384615384616
 40
0.5384615384615384
 40
0.5384615384615384
 40
0.5384615384615384
 40
0.5384615384615384
 40
0.6153846153846154
 40
0.6153846153846154
 40
0.6153846153846154
 40
0.6153846153846154
 40
0.6923076923076923
 40
0.6923076923076923
 40
0.6923076923076923
 40
0.6923076923076923
 40
0.7692307692307693
 40
0.7692307692307693
 40
0.7692307692307693
 40
0.7692307692307693
 40
0.8461538461538461
 40
0.8461538461538461
 40
0.8461538461538461
 40
0.8461538461538461
 40
1.0
 40
1.0
 40
1.0
 40
1.0
 10
-27.682
 20
8.143
 30
0.0
 10
-20.433
 20
7.5314
 30
0.0
 10
-13.6101
 20
3.1526
 30
0.0
 10
-5.9347
 20
6.3138
 30
0.0
 10
-5.9347
 20
6.3138
 30
0.0
 10
-7.7439
 20
3.3776
 30
0.0
 10
-8.7314
 20
0.4571
 30
0.0
 10
-8.5897
 20
-2.4309
 30
0.0
 10
-8.5897
 20
-2.4309
 30
0.0
 10
-5.0066
 20
-0.0073
 30
0.0
 10
-1.058
 20
-1.5992
 30
0.0
 10
2.1597
 20
4.8399
 30
0.0
 10
2.1597
 20
4.8399
 30
0.0
 10
2.337
 20
-4.7333
 30
0.0
 10
6.8059
 20
3.0076
 30
0.0
 10
13.028
 20
5.4237
 30
0.0
 10
13.028
 20
5.4237
 30
0.0
 10
19.9105
 20
8.0964
 30
0.0
 10
39.0152
 20
7.2243
 30
0.0
 10
49.4276
 20
7.4052
 30
0.0
 10
49.4276
 20
7.4052
 30
0.0
 10
52.9224
 20
7.4661
 30
0.0
 10
55.5065
 20
7.5822
 30
0.0
 10
56.4584
 20
8.143
 30
0.0
 10
56.4584
 20
8.143
 30
0.0
 10
55.5065
 20
8.7033
 30
0.0
 10
52.9224
 20
8.8199
 30
0.0
 10
49.4276
 20
8.8804
 30
0.0
 10
49.4276
 20
8.8804
 30
0.0
 10
39.0152
 20
9.0612
 30
0.0
 10
19.9105
 20
8.1896
 30
0.0
 10
13.028
 20
10.8623
 30
0.0
 10
13.028
 20
10.8623
 30
0.0
 10
6.8059
 20
13.2784
 30
0.0
 10
2.337
 20
21.0189
 30
0.0
 10
2.1597
 20
11.4461
 30
0.0
 10
2.1597
 20
11.4461
 30
0.0
 10
-1.058
 20
17.8847
 30
0.0
 10
-5.0066
 20
16.2933
 30
0.0
 10
-8.5897
 20
18.7169
 30
0.0
 10
-8.5897
 20
18.7169
 30
0.0
 10
-8.7314
 20
15.8289
 30
0.0
 10
-7.7439
 20
12.9081
 30
0.0
 10
-5.9347
 20
9.972
 30
0.0
 10
-5.9347
 20
9.972
 30
0.0
 10
-13.6101
 20
13.1334
 30
0.0
 10
-20.433
 20
8.7541
 30
0.0
 10
-27.682
 20
8.143
 30
0.0
  0
SPLINE
  5
15A
330
1F
100
AcDbEntity
  8
layer 1
 62
     7
370
    25
100
AcDbSpline
210
0.0
220
0.0
230
1.0
 70
    24
 71
     3
 72
     8
 73
     4
 74
     0
 42
0.0000000001
 43
0.0000000001
 12
1.0
 22
0.0
 32
0.0
 13
1.0
 23
0.0
 33
0.0
 40
0.0
 40
0.0
 40
0.0
 40
0.0
 40
1.0
 40
1.0
 40
1.0
 40
1.0
 10
27.1519
 20
-38.2696
 30
0.0
 10
27.1519
 20
-38.2696
 30
0.0
 10
58.4165
 20
-7.0047
 30
0.0
 10
58.4165
 20
-7.0047
 30
0.0
  0
SPLINE
  5
15B
330
1F
100
AcDbEntity
  8
layer 1
 62
     7
370
    25
100
AcDbSpline
210
0.0
220
0.0
230
1.0
 70
    24
 71
     3
 72
     8
 73
     4
 74
     0
 42
0.0000000001
 43
0.0000000001
 12
1.0
 22
0.0
 32
0.0
 13
1.0
 23
0.0
 33
0.0
 40
0.0
 40
0.0
 40
0.0
 40
0.0
 40
1.0
 40
1.0
 40
1.0
 40
1.0
 10
119.9757
 20
-38.2696
 30
0.0
 10
119.9757
 20
-38.2696
 30
0.0
 10
88.7111
 20
-7.0047
 30
0.0
 10
88.7111
 20
-7.0047
 30
0.0
  0
ENDSEC
  0
SECTION
  2
OBJECTS
  0
DICTIONARY
  5
C
330
0
100
AcDbDictionary
281
     1
  3
ACAD_GROUP
350
D
  3
ACAD_IMAGE_DICT
350
42
  3
ACAD_LAYOUT
350
1A
  3
ACAD_MATERIAL
350
3B
  3
ACAD_MLEADERSTYLE
350
17D
  3
ACAD_MLINESTYLE
350
17
  3
ACAD_PLOTSETTINGS
350
19
  3
ACAD_PLOTSTYLENAME
350
E
  3
ACAD_TABLESTYLE
350
17C
  3
ACAD_VISUALSTYLE
350
2A
  0
IMAGEDEF_REACTOR
  5
45
330
44
100
AcDbRasterImageDefReactor
 90
        2
330
44
  0
IMAGEDEF_REACTOR
  5
48
330
47
100
AcDbRasterImageDefReactor
 90
        2
330
47
  0
IMAGEDEF_REACTOR
  5
4B
330
4A
100
AcDbRasterImageDefReactor
 90
        2
330
4A
  0
IMAGEDEF_REACTOR
  5
4E
330
4D
100
AcDbRasterImageDefReactor
 90
        2
330
4D
  0
IMAGEDEF_REACTOR
  5
51
330
50
100
AcDbRasterImageDefReactor
 90
        2
330
50
  0
IMAGEDEF_REACTOR
  5
54
330
53
100
AcDbRasterImageDefReactor
 90
        2
330
53
  0
IMAGEDEF_REACTOR
  5
57
330
56
100
AcDbRasterImageDefReactor
 90
        2
330
56
  0
IMAGEDEF_REACTOR
  5
5A
330
59
100
AcDbRasterImageDefReactor
 90
        2
330
59
  0
IMAGEDEF_REACTOR
  5
5D
330
5C
100
AcDbRasterImageDefReactor
 90
        2
330
5C
  0
IMAGEDEF_REACTOR
  5
60
330
5F
100
AcDbRasterImageDefReactor
 90
        2
330
5F
  0
IMAGEDEF_REACTOR
  5
63
330
62
100
AcDbRasterImageDefReactor
 90
        2
330
62
  0
IMAGEDEF_REACTOR
  5
66
330
65
100
AcDbRasterImageDefReactor
 90
        2
330
65
  0
IMAGEDEF_REACTOR
  5
69
330
68
100
AcDbRasterImageDefReactor
 90
        2
330
68
  0
IMAGEDEF_REACTOR
  5
6C
330
6B
100
AcDbRasterImageDefReactor
 90
        2
330
6B
  0
IMAGEDEF_REACTOR
  5
6F
330
6E
100
AcDbRasterImageDefReactor
 90
        2
330
6E
  0
IMAGEDEF_REACTOR
  5
72
330
71
100
AcDbRasterImageDefReactor
 90
        2
330
71
  0
IMAGEDEF_REACTOR
  5
75
330
74
100
AcDbRasterImageDefReactor
 90
        2
330
74
  0
IMAGEDEF_REACTOR
  5
78
330
77
100
AcDbRasterImageDefReactor
 90
        2
330
77
  0
IMAGEDEF_REACTOR
  5
7B
330
7A
100
AcDbRasterImageDefReactor
 90
        2
330
7A
  0
IMAGEDEF_REACTOR
  5
7E
330
7D
100
AcDbRasterImageDefReactor
 90
        2
330
7D
  0
IMAGEDEF_REACTOR
  5
81
330
80
100
AcDbRasterImageDefReactor
 90
        2
330
80
  0
IMAGEDEF_REACTOR
  5
84
330
83
100
AcDbRasterImageDefReactor
 90
        2
330
83
  0
IMAGEDEF_REACTOR
  5
87
330
86
100
AcDbRasterImageDefReactor
 90
        2
330
86
  0
IMAGEDEF_REACTOR
  5
8A
330
89
100
AcDbRasterImageDefReactor
 90
        2
330
89
  0
IMAGEDEF_REACTOR
  5
8D
330
8C
100
AcDbRasterImageDefReactor
 90
        2
330
8C
  0
IMAGEDEF_REACTOR
  5
90
330
8F
100
AcDbRasterImageDefReactor
 90
        2
330
8F
  0
IMAGEDEF_REACTOR
  5
93
330
92
100
AcDbRasterImageDefReactor
 90
        2
330
92
  0
IMAGEDEF_REACTOR
  5
B8
330
B7
100
AcDbRasterImageDefReactor
 90
        2
330
B7
  0
IMAGEDEF_REACTOR
  5
BB
330
BA
100
AcDbRasterImageDefReactor
 90
        2
330
BA
  0
IMAGEDEF_REACTOR
  5
BE
330
BD
100
AcDbRasterImageDefReactor
 90
        2
330
BD
  0
IMAGEDEF_REACTOR
  5
C1
330
C0
100
AcDbRasterImageDefReactor
 90
        2
330
C0
  0
IMAGEDEF_REACTOR
  5
C4
330
C3
100
AcDbRasterImageDefReactor
 90
        2
330
C3
  0
IMAGEDEF_REACTOR
  5
C7
330
C6
100
AcDbRasterImageDefReactor
 90
        2
330
C6
  0
IMAGEDEF_REACTOR
  5
CA
330
C9
100
AcDbRasterImageDefReactor
 90
        2
330
C9
  0
IMAGEDEF_REACTOR
  5
CD
330
CC
100
AcDbRasterImageDefReactor
 90
        2
330
CC
  0
IMAGEDEF_REACTOR
  5
D0
330
CF
100
AcDbRasterImageDefReactor
 90
        2
330
CF
  0
IMAGEDEF_REACTOR
  5
D3
330
D2
100
AcDbRasterImageDefReactor
 90
        2
330
D2
  0
IMAGEDEF_REACTOR
  5
D6
330
D5
100
AcDbRasterImageDefReactor
 90
        2
330
D5
  0
IMAGEDEF_REACTOR
  5
D9
330
D8
100
AcDbRasterImageDefReactor
 90
        2
330
D8
  0
IMAGEDEF_REACTOR
  5
DC
330
DB
100
AcDbRasterImageDefReactor
 90
        2
330
DB
  0
IMAGEDEF_REACTOR
  5
DF
330
DE
100
AcDbRasterImageDefReactor
 90
        2
330
DE
  0
IMAGEDEF_REACTOR
  5
E2
330
E1
100
AcDbRasterImageDefReactor
 90
        2
330
E1
  0
IMAGEDEF_REACTOR
  5
E5
330
E4
100
AcDbRasterImageDefReactor
 90
        2
330
E4
  0
IMAGEDEF_REACTOR
  5
E8
330
E7
100
AcDbRasterImageDefReactor
 90
        2
330
E7
  0
IMAGEDEF_REACTOR
  5
EB
330
EA
100
AcDbRasterImageDefReactor
 90
        2
330
EA
  0
IMAGEDEF_REACTOR
  5
EE
330
ED
100
AcDbRasterImageDefReactor
 90
        2
330
ED
  0
IMAGEDEF_REACTOR
  5
F1
330
F0
100
AcDbRasterImageDefReactor
 90
        2
330
F0
  0
IMAGEDEF_REACTOR
  5
F4
330
F3
100
AcDbRasterImageDefReactor
 90
        2
330
F3
  0
IMAGEDEF_REACTOR
  5
F7
330
F6
100
AcDbRasterImageDefReactor
 90
        2
330
F6
  0
IMAGEDEF_REACTOR
  5
FA
330
F9
100
AcDbRasterImageDefReactor
 90
        2
330
F9
  0
IMAGEDEF_REACTOR
  5
FD
330
FC
100
AcDbRasterImageDefReactor
 90
        2
330
FC
  0
IMAGEDEF_REACTOR
  5
100
330
FF
100
AcDbRasterImageDefReactor
 90
        2
330
FF
  0
IMAGEDEF_REACTOR
  5
103
330
102
100
AcDbRasterImageDefReactor
 90
        2
330
102
  0
IMAGEDEF_REACTOR
  5
106
330
105
100
AcDbRasterImageDefReactor
 90
        2
330
105
  0
IMAGEDEF_REACTOR
  5
109
330
108
100
AcDbRasterImageDefReactor
 90
        2
330
108
  0
IMAGEDEF_REACTOR
  5
10C
330
10B
100
AcDbRasterImageDefReactor
 90
        2
330
10B
  0
IMAGEDEF_REACTOR
  5
10F
330
10E
100
AcDbRasterImageDefReactor
 90
        2
330
10E
  0
IMAGEDEF_REACTOR
  5
112
330
111
100
AcDbRasterImageDefReactor
 90
        2
330
111
  0
IMAGEDEF_REACTOR
  5
115
330
114
100
AcDbRasterImageDefReactor
 90
        2
330
114
  0
IMAGEDEF_REACTOR
  5
118
330
117
100
AcDbRasterImageDefReactor
 90
        2
330
117
  0
IMAGEDEF_REACTOR
  5
11B
330
11A
100
AcDbRasterImageDefReactor
 90
        2
330
11A
  0
IMAGEDEF_REACTOR
  5
11E
330
11D
100
AcDbRasterImageDefReactor
 90
        2
330
11D
  0
IMAGEDEF_REACTOR
  5
121
330
120
100
AcDbRasterImageDefReactor
 90
        2
330
120
  0
IMAGEDEF_REACTOR
  5
124
330
123
100
AcDbRasterImageDefReactor
 90
        2
330
123
  0
IMAGEDEF_REACTOR
  5
127
330
126
100
AcDbRasterImageDefReactor
 90
        2
330
126
  0
IMAGEDEF_REACTOR
  5
12A
330
129
100
AcDbRasterImageDefReactor
 90
        2
330
129
  0
IMAGEDEF_REACTOR
  5
12D
330
12C
100
AcDbRasterImageDefReactor
 90
        2
330
12C
  0
IMAGEDEF_REACTOR
  5
130
330
12F
100
AcDbRasterImageDefReactor
 90
        2
330
12F
  0
DICTIONARY
  5
D
102
{ACAD_REACTORS
330
C
102
}
330
C
100
AcDbDictionary
281
     1
  0
DICTIONARY
  5
42
102
{ACAD_REACTORS
330
C
102
}
330
C
100
AcDbDictionary
281
     1
  3
Image #1
350
43
  3
Image #10
350
5E
  3
Image #11
350
61
  3
Image #12
350
64
  3
Image #13
350
67
  3
Image #14
350
6A
  3
Image #15
350
6D
  3
Image #16
350
70
  3
Image #17
350
73
  3
Image #18
350
76
  3
Image #19
350
79
  3
Image #2
350
46
  3
Image #20
350
7C
  3
Image #21
350
7F
  3
Image #22
350
82
  3
Image #23
350
85
  3
Image #24
350
88
  3
Image #25
350
8B
  3
Image #26
350
8E
  3
Image #27
350
91
  3
Image #28
350
B6
  3
Image #29
350
B9
  3
Image #3
350
49
  3
Image #30
350
BC
  3
Image #31
350
BF
  3
Image #32
350
C2
  3
Image #33
350
C5
  3
Image #34
350
C8
  3
Image #35
350
CB
  3
Image #36
350
CE
  3
Image #37
350
D1
  3
Image #38
350
D4
  3
Image #39
350
D7
  3
Image #4
350
4C
  3
Image #40
350
DA
  3
Image #41
350
DD
  3
Image #42
350
E0
  3
Image #43
350
E3
  3
Image #44
350
E6
  3
Image #45
350
E9
  3
Image #46
350
EC
  3
Image #47
350
EF
  3
Image #48
350
F2
  3
Image #49
350
F5
  3
Image #5
350
4F
  3
Image #50
350
F8
  3
Image #51
350
FB
  3
Image #52
350
FE
  3
Image #53
350
101
  3
Image #54
350
104
  3
Image #55
350
107
  3
Image #56
350
10A
  3
Image #57
350
10D
  3
Image #58
350
110
  3
Image #59
350
113
  3
Image #6
350
52
  3
Image #60
350
116
  3
Image #61
350
119
  3
Image #62
350
11C
  3
Image #63
350
11F
  3
Image #64
350
122
  3
Image #65
350
125
  3
Image #66
350
128
  3
Image #67
350
12B
  3
Image #68
350
12E
  3
Image #7
350
55
  3
Image #8
350
58
  3
Image #9
350
5B
  0
DICTIONARY
  5
1A
102
{ACAD_REACTORS
330
C
102
}
330
C
100
AcDbDictionary
281
     1
  3
Layout1
350
1E
  3
Layout2
350
26
  3
Model
350
22
  0
DICTIONARY
  5
3B
102
{ACAD_REACTORS
330
C
102
}
330
C
100
AcDbDictionary
281
     1
  3
ByBlock
350
3D
  3
ByLayer
350
3C
  3
Global
350
3E
  0
DICTIONARY
  5
17D
102
{ACAD_REACTORS
330
C
102
}
330
C
100
AcDbDictionary
281
     1
  0
DICTIONARY
  5
17
102
{ACAD_REACTORS
330
C
102
}
330
C
100
AcDbDictionary
281
     1
  3
Standard
350
18
  0
DICTIONARY
  5
19
102
{ACAD_REACTORS
330
C
102
}
330
C
100
AcDbDictionary
281
     1
  0
ACDBDICTIONARYWDFLT
  5
E
102
{ACAD_REACTORS
330
C
102
}
330
C
100
AcDbDictionary
281
     1
  3
Normal
350
F
100
AcDbDictionaryWithDefault
340
F
  0
DICTIONARY
  5
17C
102
{ACAD_REACTORS
330
C
102
}
330
C
100
AcDbDictionary
281
     1
  0
DICTIONARY
  5
2A
102
{ACAD_REACTORS
330
C
102
}
330
C
100
AcDbDictionary
281
     1
  3
2dWireframe
350
2F
  3
3D Hidden
350
31
  3
3dWireframe
350
30
  3
Basic
350
32
  3
Brighten
350
36
  3
ColorChange
350
3A
  3
Conceptual
350
34
  3
Dim
350
35
  3
Facepattern
350
39
  3
Flat
350
2B
  3
FlatWithEdges
350
2C
  3
Gouraud
350
2D
  3
GouraudWithEdges
350
2E
  3
Linepattern
350
38
  3
Realistic
350
33
  3
Thicken
350
37
  0
IMAGEDEF
  5
43
102
{ACAD_REACTORS
330
42
330
45
102
}
330
42
100
AcDbRasterImageDef
 90
        0
  1
C:\Users\abdou\Desktop\New folder (4)\c10_ACD_0.jpg
 10
2736.0
 20
2780.0
 11
0.0003654970760233918
 21
0.0003654970760233918
280
     1
281
     5
  0
IMAGEDEF
  5
5E
102
{ACAD_REACTORS
330
42
330
60
102
}
330
42
100
AcDbRasterImageDef
 90
        0
  1
C:\Users\abdou\Desktop\New folder (4)\c10_ACD_9.jpg
 10
1577.0
 20
4401.0
 11
0.0006341154090044388
 21
0.0006341154090044388
280
     1
281
     5
  0
IMAGEDEF
  5
61
102
{ACAD_REACTORS
330
42
330
63
102
}
330
42
100
AcDbRasterImageDef
 90
        0
  1
C:\Users\abdou\Desktop\New folder (4)\c10_ACD_10.jpg
 10
1557.0
 20
1125.0
 11
0.0006422607578676942
 21
0.0006422607578676942
280
     1
281
     5
  0
IMAGEDEF
  5
64
102
{ACAD_REACTORS
330
42
330
66
102
}
330
42
100
AcDbRasterImageDef
 90
        0
  1
C:\Users\abdou\Desktop\New folder (4)\c10_ACD_11.jpg
 10
272.0
 20
272.0
 11
0.003676470588235294
 21
0.003676470588235294
280
     1
281
     5
  0
IMAGEDEF
  5
67
102
{ACAD_REACTORS
330
42
330
69
102
}
330
42
100
AcDbRasterImageDef
 90
        0
  1
C:\Users\abdou\Desktop\New folder (4)\c10_ACD_12.jpg
 10
880.0
 20
3031.0
 11
0.001136363636363636
 21
0.001136363636363636
280
     1
281
     5
  0
IMAGEDEF
  5
6A
102
{ACAD_REACTORS
330
42
330
6C
102
}
330
42
100
AcDbRasterImageDef
 90
        0
  1
C:\Users\abdou\Desktop\New folder (4)\c10_ACD_13.jpg
 10
2736.0
 20
2780.0
 11
0.0003654970760233918
 21
0.0003654970760233918
280
     1
281
     5
  0
IMAGEDEF
  5
6D
102
{ACAD_REACTORS
330
42
330
6F
102
}
330
42
100
AcDbRasterImageDef
 90
        0
  1
C:\Users\abdou\Desktop\New folder (4)\c10_ACD_14.jpg
 10
2299.0
 20
2089.0
 11
0.0004349717268377555
 21
0.0004349717268377555
280
     1
281
     5
  0
IMAGEDEF
  5
70
102
{ACAD_REACTORS
330
42
330
72
102
}
330
42
100
AcDbRasterImageDef
 90
        0
  1
C:\Users\abdou\Desktop\New folder (4)\c10_ACD_15.jpg
 10
1846.0
 20
1798.0
 11
0.0005417118093174431
 21
0.0005417118093174431
280
     1
281
     5
  0
IMAGEDEF
  5
73
102
{ACAD_REACTORS
330
42
330
75
102
}
330
42
100
AcDbRasterImageDef
 90
        0
  1
C:\Users\abdou\Desktop\New folder (4)\c10_ACD_16.jpg
 10
1577.0
 20
4401.0
 11
0.0006341154090044388
 21
0.0006341154090044388
280
     1
281
     5
  0
IMAGEDEF
  5
76
102
{ACAD_REACTORS
330
42
330
78
102
}
330
42
100
AcDbRasterImageDef
 90
        0
  1
C:\Users\abdou\Desktop\New folder (4)\c10_ACD_17.jpg
 10
1557.0
 20
1125.0
 11
0.0006422607578676942
 21
0.0006422607578676942
280
     1
281
     5
  0
IMAGEDEF
  5
79
102
{ACAD_REACTORS
330
42
330
7B
102
}
330
42
100
AcDbRasterImageDef
 90
        0
  1
C:\Users\abdou\Desktop\New folder (4)\c10_ACD_18.jpg
 10
272.0
 20
272.0
 11
0.003676470588235294
 21
0.003676470588235294
280
     1
281
     5
  0
IMAGEDEF
  5
46
102
{ACAD_REACTORS
330
42
330
48
102
}
330
42
100
AcDbRasterImageDef
 90
        0
  1
C:\Users\abdou\Desktop\New folder (4)\c10_ACD_1.jpg
 10
2299.0
 20
2089.0
 11
0.0004349717268377555
 21
0.0004349717268377555
280
     1
281
     5
  0
IMAGEDEF
  5
7C
102
{ACAD_REACTORS
330
42
330
7E
102
}
330
42
100
AcDbRasterImageDef
 90
        0
  1
C:\Users\abdou\Desktop\New folder (4)\c10_ACD_19.jpg
 10
2736.0
 20
2780.0
 11
0.0003654970760233918
 21
0.0003654970760233918
280
     1
281
     5
  0
IMAGEDEF
  5
7F
102
{ACAD_REACTORS
330
42
330
81
102
}
330
42
100
AcDbRasterImageDef
 90
        0
  1
C:\Users\abdou\Desktop\New folder (4)\c10_ACD_20.jpg
 10
2299.0
 20
2089.0
 11
0.0004349717268377555
 21
0.0004349717268377555
280
     1
281
     5
  0
IMAGEDEF
  5
82
102
{ACAD_REACTORS
330
42
330
84
102
}
330
42
100
AcDbRasterImageDef
 90
        0
  1
C:\Users\abdou\Desktop\New folder (4)\c10_ACD_21.jpg
 10
1846.0
 20
1798.0
 11
0.0005417118093174431
 21
0.0005417118093174431
280
     1
281
     5
  0
IMAGEDEF
  5
85
102
{ACAD_REACTORS
330
42
330
87
102
}
330
42
100
AcDbRasterImageDef
 90
        0
  1
C:\Users\abdou\Desktop\New folder (4)\c10_ACD_22.jpg
 10
1577.0
 20
4401.0
 11
0.0006341154090044388
 21
0.0006341154090044388
280
     1
281
     5
  0
IMAGEDEF
  5
88
102
{ACAD_REACTORS
330
42
330
8A
102
}
330
42
100
AcDbRasterImageDef
 90
        0
  1
C:\Users\abdou\Desktop\New folder (4)\c10_ACD_23.jpg
 10
1557.0
 20
1125.0
 11
0.0006422607578676942
 21
0.0006422607578676942
280
     1
281
     5
  0
IMAGEDEF
  5
8B
102
{ACAD_REACTORS
330
42
330
8D
102
}
330
42
100
AcDbRasterImageDef
 90
        0
  1
C:\Users\abdou\Desktop\New folder (4)\c10_ACD_24.jpg
 10
272.0
 20
272.0
 11
0.003676470588235294
 21
0.003676470588235294
280
     1
281
     5
  0
IMAGEDEF
  5
8E
102
{ACAD_REACTORS
330
42
330
90
102
}
330
42
100
AcDbRasterImageDef
 90
        0
  1
C:\Users\abdou\Desktop\New folder (4)\c10_ACD_25.jpg
 10
880.0
 20
3031.0
 11
0.001136363636363636
 21
0.001136363636363636
280
     1
281
     5
  0
IMAGEDEF
  5
91
102
{ACAD_REACTORS
330
42
330
93
102
}
330
42
100
AcDbRasterImageDef
 90
        0
  1
C:\Users\abdou\Desktop\New folder (4)\c10_ACD_26.jpg
 10
308.0
 20
308.0
 11
0.003246753246753247
 21
0.003246753246753247
280
     1
281
     5
  0
IMAGEDEF
  5
B6
102
{ACAD_REACTORS
330
42
330
B8
102
}
330
42
100
AcDbRasterImageDef
 90
        0
  1
C:\Users\abdou\Desktop\New folder (4)\c10_ACD_27.jpg
 10
2490.0
 20
4527.0
 11
0.0004016064257028113
 21
0.0004016064257028113
280
     1
281
     5
  0
IMAGEDEF
  5
B9
102
{ACAD_REACTORS
330
42
330
BB
102
}
330
42
100
AcDbRasterImageDef
 90
        0
  1
C:\Users\abdou\Desktop\New folder (4)\c10_ACD_28.jpg
 10
2210.0
 20
2839.0
 11
0.0004524886877828054
 21
0.0004524886877828054
280
     1
281
     5
  0
IMAGEDEF
  5
49
102
{ACAD_REACTORS
330
42
330
4B
102
}
330
42
100
AcDbRasterImageDef
 90
        0
  1
C:\Users\abdou\Desktop\New folder (4)\c10_ACD_2.jpg
 10
1846.0
 20
1798.0
 11
0.0005417118093174431
 21
0.0005417118093174431
280
     1
281
     5
  0
IMAGEDEF
  5
BC
102
{ACAD_REACTORS
330
42
330
BE
102
}
330
42
100
AcDbRasterImageDef
 90
        0
  1
C:\Users\abdou\Desktop\New folder (4)\c10_ACD_29.jpg
 10
4527.0
 20
2490.0
 11
0.0002208968411751712
 21
0.0002208968411751712
280
     1
281
     5
  0
IMAGEDEF
  5
BF
102
{ACAD_REACTORS
330
42
330
C1
102
}
330
42
100
AcDbRasterImageDef
 90
        0
  1
C:\Users\abdou\Desktop\New folder (4)\c10_ACD_30.jpg
 10
2839.0
 20
2210.0
 11
0.0003522367030644593
 21
0.0003522367030644593
280
     1
281
     5
  0
IMAGEDEF
  5
C2
102
{ACAD_REACTORS
330
42
330
C4
102
}
330
42
100
AcDbRasterImageDef
 90
        0
  1
C:\Users\abdou\Desktop\New folder (4)\c10_ACD_31.jpg
 10
622.0
 20
622.0
 11
0.001607717041800643
 21
0.001607717041800643
280
     1
281
     5
  0
IMAGEDEF
  5
C5
102
{ACAD_REACTORS
330
42
330
C7
102
}
330
42
100
AcDbRasterImageDef
 90
        0
  1
C:\Users\abdou\Desktop\New folder (4)\c10_ACD_32.jpg
 10
3240.0
 20
4167.0
 11
0.000308641975308642
 21
0.000308641975308642
280
     1
281
     5
  0
IMAGEDEF
  5
C8
102
{ACAD_REACTORS
330
42
330
CA
102
}
330
42
100
AcDbRasterImageDef
 90
        0
  1
C:\Users\abdou\Desktop\New folder (4)\c10_ACD_33.jpg
 10
1689.0
 20
3801.0
 11
0.0005920663114268798
 21
0.0005920663114268798
280
     1
281
     5
  0
IMAGEDEF
  5
CB
102
{ACAD_REACTORS
330
42
330
CD
102
}
330
42
100
AcDbRasterImageDef
 90
        0
  1
C:\Users\abdou\Desktop\New folder (4)\c10_ACD_34.jpg
 10
3796.0
 20
1689.0
 11
0.0002634351949420442
 21
0.0002634351949420442
280
     1
281
     5
  0
IMAGEDEF
  5
CE
102
{ACAD_REACTORS
330
42
330
D0
102
}
330
42
100
AcDbRasterImageDef
 90
        0
  1
C:\Users\abdou\Desktop\New folder (4)\c10_ACD_35.jpg
 10
4167.0
 20
3240.0
 11
0.0002399808015358771
 21
0.0002399808015358771
280
     1
281
     5
  0
IMAGEDEF
  5
D1
102
{ACAD_REACTORS
330
42
330
D3
102
}
330
42
100
AcDbRasterImageDef
 90
        0
  1
C:\Users\abdou\Desktop\New folder (4)\c10_ACD_36.jpg
 10
2490.0
 20
4527.0
 11
0.0004016064257028113
 21
0.0004016064257028113
280
     1
281
     5
  0
IMAGEDEF
  5
D4
102
{ACAD_REACTORS
330
42
330
D6
102
}
330
42
100
AcDbRasterImageDef
 90
        0
  1
C:\Users\abdou\Desktop\New folder (4)\c10_ACD_37.jpg
 10
2210.0
 20
2839.0
 11
0.0004524886877828054
 21
0.0004524886877828054
280
     1
281
     5
  0
IMAGEDEF
  5
D7
102
{ACAD_REACTORS
330
42
330
D9
102
}
330
42
100
AcDbRasterImageDef
 90
        0
  1
C:\Users\abdou\Desktop\New folder (4)\c10_ACD_38.jpg
 10
4527.0
 20
2490.0
 11
0.0002208968411751712
 21
0.0002208968411751712
280
     1
281
     5
  0
IMAGEDEF
  5
4C
102
{ACAD_REACTORS
330
42
330
4E
102
}
330
42
100
AcDbRasterImageDef
 90
        0
  1
C:\Users\abdou\Desktop\New folder (4)\c10_ACD_3.jpg
 10
1577.0
 20
4401.0
 11
0.0006341154090044388
 21
0.0006341154090044388
280
     1
281
     5
  0
IMAGEDEF
  5
DA
102
{ACAD_REACTORS
330
42
330
DC
102
}
330
42
100
AcDbRasterImageDef
 90
        0
  1
C:\Users\abdou\Desktop\New folder (4)\c10_ACD_39.jpg
 10
2839.0
 20
2210.0
 11
0.0003522367030644593
 21
0.0003522367030644593
280
     1
281
     5
  0
IMAGEDEF
  5
DD
102
{ACAD_REACTORS
330
42
330
DF
102
}
330
42
100
AcDbRasterImageDef
 90
        0
  1
C:\Users\abdou\Desktop\New folder (4)\c10_ACD_40.jpg
 10
622.0
 20
622.0
 11
0.001607717041800643
 21
0.001607717041800643
280
     1
281
     5
  0
IMAGEDEF
  5
E0
102
{ACAD_REACTORS
330
42
330
E2
102
}
330
42
100
AcDbRasterImageDef
 90
        0
  1
C:\Users\abdou\Desktop\New folder (4)\c10_ACD_41.jpg
 10
3240.0
 20
4167.0
 11
0.000308641975308642
 21
0.000308641975308642
280
     1
281
     5
  0
IMAGEDEF
  5
E3
102
{ACAD_REACTORS
330
42
330
E5
102
}
330
42
100
AcDbRasterImageDef
 90
        0
  1
C:\Users\abdou\Desktop\New folder (4)\c10_ACD_42.jpg
 10
1689.0
 20
3801.0
 11
0.0005920663114268798
 21
0.0005920663114268798
280
     1
281
     5
  0
IMAGEDEF
  5
E6
102
{ACAD_REACTORS
330
42
330
E8
102
}
330
42
100
AcDbRasterImageDef
 90
        0
  1
C:\Users\abdou\Desktop\New folder (4)\c10_ACD_43.jpg
 10
3796.0
 20
1689.0
 11
0.0002634351949420442
 21
0.0002634351949420442
280
     1
281
     5
  0
IMAGEDEF
  5
E9
102
{ACAD_REACTORS
330
42
330
EB
102
}
330
42
100
AcDbRasterImageDef
 90
        0
  1
C:\Users\abdou\Desktop\New folder (4)\c10_ACD_44.jpg
 10
4167.0
 20
3240.0
 11
0.0002399808015358771
 21
0.0002399808015358771
280
     1
281
     5
  0
IMAGEDEF
  5
EC
102
{ACAD_REACTORS
330
42
330
EE
102
}
330
42
100
AcDbRasterImageDef
 90
        0
  1
C:\Users\abdou\Desktop\New folder (4)\c10_ACD_45.jpg
 10
1532.0
 20
6096.0
 11
0.0006527415143603133
 21
0.0006527415143603133
280
     1
281
     5
  0
IMAGEDEF
  5
EF
102
{ACAD_REACTORS
330
42
330
F1
102
}
330
42
100
AcDbRasterImageDef
 90
        0
  1
C:\Users\abdou\Desktop\New folder (4)\c10_ACD_46.jpg
 10
2490.0
 20
4527.0
 11
0.0004016064257028113
 21
0.0004016064257028113
280
     1
281
     5
  0
IMAGEDEF
  5
F2
102
{ACAD_REACTORS
330
42
330
F4
102
}
330
42
100
AcDbRasterImageDef
 90
        0
  1
C:\Users\abdou\Desktop\New folder (4)\c10_ACD_47.jpg
 10
2210.0
 20
2839.0
 11
0.0004524886877828054
 21
0.0004524886877828054
280
     1
281
     5
  0
IMAGEDEF
  5
F5
102
{ACAD_REACTORS
330
42
330
F7
102
}
330
42
100
AcDbRasterImageDef
 90
        0
  1
C:\Users\abdou\Desktop\New folder (4)\c10_ACD_48.jpg
 10
4527.0
 20
2490.0
 11
0.0002208968411751712
 21
0.0002208968411751712
280
     1
281
     5
  0
IMAGEDEF
  5
4F
102
{ACAD_REACTORS
330
42
330
51
102
}
330
42
100
AcDbRasterImageDef
 90
        0
  1
C:\Users\abdou\Desktop\New folder (4)\c10_ACD_4.jpg
 10
1557.0
 20
1125.0
 11
0.0006422607578676942
 21
0.0006422607578676942
280
     1
281
     5
  0
IMAGEDEF
  5
F8
102
{ACAD_REACTORS
330
42
330
FA
102
}
330
42
100
AcDbRasterImageDef
 90
        0
  1
C:\Users\abdou\Desktop\New folder (4)\c10_ACD_49.jpg
 10
2839.0
 20
2210.0
 11
0.0003522367030644593
 21
0.0003522367030644593
280
     1
281
     5
  0
IMAGEDEF
  5
FB
102
{ACAD_REACTORS
330
42
330
FD
102
}
330
42
100
AcDbRasterImageDef
 90
        0
  1
C:\Users\abdou\Desktop\New folder (4)\c10_ACD_50.jpg
 10
622.0
 20
622.0
 11
0.001607717041800643
 21
0.001607717041800643
280
     1
281
     5
  0
IMAGEDEF
  5
FE
102
{ACAD_REACTORS
330
42
330
100
102
}
330
42
100
AcDbRasterImageDef
 90
        0
  1
C:\Users\abdou\Desktop\New folder (4)\c10_ACD_51.jpg
 10
3240.0
 20
4167.0
 11
0.000308641975308642
 21
0.000308641975308642
280
     1
281
     5
  0
IMAGEDEF
  5
101
102
{ACAD_REACTORS
330
42
330
103
102
}
330
42
100
AcDbRasterImageDef
 90
        0
  1
C:\Users\abdou\Desktop\New folder (4)\c10_ACD_52.jpg
 10
1689.0
 20
3801.0
 11
0.0005920663114268798
 21
0.0005920663114268798
280
     1
281
     5
  0
IMAGEDEF
  5
104
102
{ACAD_REACTORS
330
42
330
106
102
}
330
42
100
AcDbRasterImageDef
 90
        0
  1
C:\Users\abdou\Desktop\New folder (4)\c10_ACD_53.jpg
 10
3796.0
 20
1689.0
 11
0.0002634351949420442
 21
0.0002634351949420442
280
     1
281
     5
  0
IMAGEDEF
  5
107
102
{ACAD_REACTORS
330
42
330
109
102
}
330
42
100
AcDbRasterImageDef
 90
        0
  1
C:\Users\abdou\Desktop\New folder (4)\c10_ACD_54.jpg
 10
4167.0
 20
3240.0
 11
0.0002399808015358771
 21
0.0002399808015358771
280
     1
281
     5
  0
IMAGEDEF
  5
10A
102
{ACAD_REACTORS
330
42
330
10C
102
}
330
42
100
AcDbRasterImageDef
 90
        0
  1
C:\Users\abdou\Desktop\New folder (4)\c10_ACD_55.jpg
 10
2490.0
 20
4527.0
 11
0.0004016064257028113
 21
0.0004016064257028113
280
     1
281
     5
  0
IMAGEDEF
  5
10D
102
{ACAD_REACTORS
330
42
330
10F
102
}
330
42
100
AcDbRasterImageDef
 90
        0
  1
C:\Users\abdou\Desktop\New folder (4)\c10_ACD_56.jpg
 10
2210.0
 20
2839.0
 11
0.0004524886877828054
 21
0.0004524886877828054
280
     1
281
     5
  0
IMAGEDEF
  5
110
102
{ACAD_REACTORS
330
42
330
112
102
}
330
42
100
AcDbRasterImageDef
 90
        0
  1
C:\Users\abdou\Desktop\New folder (4)\c10_ACD_57.jpg
 10
4527.0
 20
2490.0
 11
0.0002208968411751712
 21
0.0002208968411751712
280
     1
281
     5
  0
IMAGEDEF
  5
113
102
{ACAD_REACTORS
330
42
330
115
102
}
330
42
100
AcDbRasterImageDef
 90
        0
  1
C:\Users\abdou\Desktop\New folder (4)\c10_ACD_58.jpg
 10
2839.0
 20
2210.0
 11
0.0003522367030644593
 21
0.0003522367030644593
280
     1
281
     5
  0
IMAGEDEF
  5
52
102
{ACAD_REACTORS
330
42
330
54
102
}
330
42
100
AcDbRasterImageDef
 90
        0
  1
C:\Users\abdou\Desktop\New folder (4)\c10_ACD_5.jpg
 10
272.0
 20
272.0
 11
0.003676470588235294
 21
0.003676470588235294
280
     1
281
     5
  0
IMAGEDEF
  5
116
102
{ACAD_REACTORS
330
42
330
118
102
}
330
42
100
AcDbRasterImageDef
 90
        0
  1
C:\Users\abdou\Desktop\New folder (4)\c10_ACD_59.jpg
 10
622.0
 20
622.0
 11
0.001607717041800643
 21
0.001607717041800643
280
     1
281
     5
  0
IMAGEDEF
  5
119
102
{ACAD_REACTORS
330
42
330
11B
102
}
330
42
100
AcDbRasterImageDef
 90
        0
  1
C:\Users\abdou\Desktop\New folder (4)\c10_ACD_60.jpg
 10
3240.0
 20
4167.0
 11
0.000308641975308642
 21
0.000308641975308642
280
     1
281
     5
  0
IMAGEDEF
  5
11C
102
{ACAD_REACTORS
330
42
330
11E
102
}
330
42
100
AcDbRasterImageDef
 90
        0
  1
C:\Users\abdou\Desktop\New folder (4)\c10_ACD_61.jpg
 10
1689.0
 20
3801.0
 11
0.0005920663114268798
 21
0.0005920663114268798
280
     1
281
     5
  0
IMAGEDEF
  5
11F
102
{ACAD_REACTORS
330
42
330
121
102
}
330
42
100
AcDbRasterImageDef
 90
        0
  1
C:\Users\abdou\Desktop\New folder (4)\c10_ACD_62.jpg
 10
3796.0
 20
1689.0
 11
0.0002634351949420442
 21
0.0002634351949420442
280
     1
281
     5
  0
IMAGEDEF
  5
122
102
{ACAD_REACTORS
330
42
330
124
102
}
330
42
100
AcDbRasterImageDef
 90
        0
  1
C:\Users\abdou\Desktop\New folder (4)\c10_ACD_63.jpg
 10
4167.0
 20
3240.0
 11
0.0002399808015358771
 21
0.0002399808015358771
280
     1
281
     5
  0
IMAGEDEF
  5
125
102
{ACAD_REACTORS
330
42
330
127
102
}
330
42
100
AcDbRasterImageDef
 90
        0
  1
C:\Users\abdou\Desktop\New folder (4)\c10_ACD_64.jpg
 10
1532.0
 20
6096.0
 11
0.0006527415143603133
 21
0.0006527415143603133
280
     1
281
     5
  0
IMAGEDEF
  5
128
102
{ACAD_REACTORS
330
42
330
12A
102
}
330
42
100
AcDbRasterImageDef
 90
        0
  1
C:\Users\abdou\Desktop\New folder (4)\c10_ACD_65.jpg
 10
6096.0
 20
1532.0
 11
0.0001640419947506562
 21
0.0001640419947506562
280
     1
281
     5
  0
IMAGEDEF
  5
12B
102
{ACAD_REACTORS
330
42
330
12D
102
}
330
42
100
AcDbRasterImageDef
 90
        0
  1
C:\Users\abdou\Desktop\New folder (4)\c10_ACD_66.jpg
 10
636.0
 20
636.0
 11
0.001572327044025157
 21
0.001572327044025157
280
     1
281
     5
  0
IMAGEDEF
  5
12E
102
{ACAD_REACTORS
330
42
330
130
102
}
330
42
100
AcDbRasterImageDef
 90
        0
  1
C:\Users\abdou\Desktop\New folder (4)\c10_ACD_67.jpg
 10
6096.0
 20
1532.0
 11
0.0001640419947506562
 21
0.0001640419947506562
280
     1
281
     5
  0
IMAGEDEF
  5
55
102
{ACAD_REACTORS
330
42
330
57
102
}
330
42
100
AcDbRasterImageDef
 90
        0
  1
C:\Users\abdou\Desktop\New folder (4)\c10_ACD_6.jpg
 10
2736.0
 20
2780.0
 11
0.0003654970760233918
 21
0.0003654970760233918
280
     1
281
     5
  0
IMAGEDEF
  5
58
102
{ACAD_REACTORS
330
42
330
5A
102
}
330
42
100
AcDbRasterImageDef
 90
        0
  1
C:\Users\abdou\Desktop\New folder (4)\c10_ACD_7.jpg
 10
2299.0
 20
2089.0
 11
0.0004349717268377555
 21
0.0004349717268377555
280
     1
281
     5
  0
IMAGEDEF
  5
5B
102
{ACAD_REACTORS
330
42
330
5D
102
}
330
42
100
AcDbRasterImageDef
 90
        0
  1
C:\Users\abdou\Desktop\New folder (4)\c10_ACD_8.jpg
 10
1846.0
 20
1798.0
 11
0.0005417118093174431
 21
0.0005417118093174431
280
     1
281
     5
  0
LAYOUT
  5
1E
102
{ACAD_REACTORS
330
1A
102
}
330
1A
100
AcDbPlotSettings
  1

  2
none_device
  4

  6

 40
0.0
 41
0.0
 42
0.0
 43
0.0
 44
0.0
 45
0.0
 46
0.0
 47
0.0
 48
0.0
 49
0.0
140
0.0
141
0.0
142
1.0
143
1.0
 70
   688
 72
     0
 73
     0
 74
     5
  7

 75
    16
 76
     0
 77
     2
 78
   300
147
1.0
148
0.0
149
0.0
100
AcDbLayout
  1
Layout1
 70
     1
 71
     1
 10
0.0
 20
0.0
 11
12.0
 21
9.0
 12
0.0
 22
0.0
 32
0.0
 14
1.000000000000000E+20
 24
1.000000000000000E+20
 34
1.000000000000000E+20
 15
-1.000000000000000E+20
 25
-1.000000000000000E+20
 35
-1.000000000000000E+20
146
0.0
 13
0.0
 23
0.0
 33
0.0
 16
1.0
 26
0.0
 36
0.0
 17
0.0
 27
1.0
 37
0.0
 76
     0
330
1B
  0
LAYOUT
  5
26
102
{ACAD_REACTORS
330
1A
102
}
330
1A
100
AcDbPlotSettings
  1

  2
none_device
  4

  6

 40
0.0
 41
0.0
 42
0.0
 43
0.0
 44
0.0
 45
0.0
 46
0.0
 47
0.0
 48
0.0
 49
0.0
140
0.0
141
0.0
142
1.0
143
1.0
 70
   688
 72
     0
 73
     0
 74
     5
  7

 75
    16
 76
     0
 77
     2
 78
   300
147
1.0
148
0.0
149
0.0
100
AcDbLayout
  1
Layout2
 70
     1
 71
     2
 10
0.0
 20
0.0
 11
0.0
 21
0.0
 12
0.0
 22
0.0
 32
0.0
 14
0.0
 24
0.0
 34
0.0
 15
0.0
 25
0.0
 35
0.0
146
0.0
 13
0.0
 23
0.0
 33
0.0
 16
1.0
 26
0.0
 36
0.0
 17
0.0
 27
1.0
 37
0.0
 76
     0
330
23
  0
LAYOUT
  5
22
102
{ACAD_REACTORS
330
1A
102
}
330
1A
100
AcDbPlotSettings
  1

  2
none_device
  4

  6

 40
0.0
 41
0.0
 42
0.0
 43
0.0
 44
0.0
 45
0.0
 46
0.0
 47
0.0
 48
0.0
 49
0.0
140
0.0
141
0.0
142
1.0
143
1.0
 70
  1712
 72
     0
 73
     0
 74
     0
  7

 75
     0
 76
     0
 77
     2
 78
   300
147
1.0
148
0.0
149
0.0
100
AcDbLayout
  1
Model
 70
     1
 71
     0
 10
0.0
 20
0.0
 11
12.0
 21
9.0
 12
0.0
 22
0.0
 32
0.0
 14
-187.3277
 24
-115.4061
 34
0.0
 15
196.4149
 25
131.7999
 35
0.0
146
0.0
 13
0.0
 23
0.0
 33
0.0
 16
1.0
 26
0.0
 36
0.0
 17
0.0
 27
1.0
 37
0.0
 76
     0
330
1F
331
29
  0
MATERIAL
  5
3D
102
{ACAD_REACTORS
330
3B
102
}
330
3B
100
AcDbMaterial
  1
ByBlock
 72
     1
 94
      127
  0
MATERIAL
  5
3C
102
{ACAD_REACTORS
330
3B
102
}
330
3B
100
AcDbMaterial
  1
ByLayer
 72
     1
 94
      127
  0
MATERIAL
  5
3E
102
{ACAD_REACTORS
330
3B
102
}
330
3B
100
AcDbMaterial
  1
Global
 72
     1
 94
      127
  0
MLINESTYLE
  5
18
102
{ACAD_REACTORS
330
17
102
}
330
17
100
AcDbMlineStyle
  2
Standard
 70
     0
  3

 62
   256
 51
90.0
 52
90.0
 71
     2
 49
0.5
 62
   256
  6
BYLAYER
 49
-0.5
 62
   256
  6
BYLAYER
  0
ACDBPLACEHOLDER
  5
F
102
{ACAD_REACTORS
330
E
102
}
330
E
  0
VISUALSTYLE
  5
2F
102
{ACAD_REACTORS
330
2A
102
}
102
{ACAD_XDICTIONARY
360
164
102
}
330
2A
100
AcDbVisualStyle
  2
2dWireframe
 70
     4
 71
     0
 72
     2
 73
     0
 90
        0
 40
-0.6
 41
-30.0
 62
     5
 63
     7
421
 16777215
 74
     1
 91
        4
 64
     7
 65
   257
 75
     1
175
     1
 42
1.0
 92
        0
 66
   257
 43
1.0
 76
     1
 77
     6
 78
     2
 67
     7
 79
     5
170
     0
171
     0
290
     0
174
     0
 93
        1
 44
0.0
173
     0
291
     0
 45
0.0
  0
VISUALSTYLE
  5
31
102
{ACAD_REACTORS
330
2A
102
}
102
{ACAD_XDICTIONARY
360
168
102
}
330
2A
100
AcDbVisualStyle
  2
3D Hidden
 70
     6
 71
     1
 72
     2
 73
     2
 90
        0
 40
-0.6
 41
-30.0
 62
     5
 63
     7
421
 16777215
 74
     2
 91
        2
 64
     7
 65
   257
 75
     2
175
     1
 42
40.0
 92
        0
 66
   257
 43
1.0
 76
     1
 77
     6
 78
     2
 67
     7
 79
     3
170
     0
171
     0
290
     0
174
     0
 93
        1
 44
0.0
173
     0
291
     0
 45
0.0
  0
VISUALSTYLE
  5
30
102
{ACAD_REACTORS
330
2A
102
}
102
{ACAD_XDICTIONARY
360
166
102
}
330
2A
100
AcDbVisualStyle
  2
3dWireframe
 70
     5
 71
     0
 72
     2
 73
     0
 90
        0
 40
-0.6
 41
-30.0
 62
     5
 63
     7
421
 16777215
 74
     1
 91
        4
 64
     7
 65
   257
 75
     1
175
     1
 42
1.0
 92
        0
 66
   257
 43
1.0
 76
     1
 77
     6
 78
     2
 67
     7
 79
     5
170
     0
171
     0
290
     0
174
     0
 93
        1
 44
0.0
173
     0
291
     0
 45
0.0
  0
VISUALSTYLE
  5
32
102
{ACAD_REACTORS
330
2A
102
}
102
{ACAD_XDICTIONARY
360
16A
102
}
330
2A
100
AcDbVisualStyle
  2
Basic
 70
     7
 71
     1
 72
     0
 73
     1
 90
        0
 40
-0.6
 41
-30.0
 62
     5
 63
     7
421
 16777215
 74
     0
 91
        4
 64
     7
 65
   257
 75
     1
175
     1
 42
1.0
 92
        8
 66
     7
 43
1.0
 76
     1
 77
     6
 78
     2
 67
     7
 79
     5
170
     0
171
     0
290
     0
174
     0
 93
        1
 44
0.0
173
     0
291
     1
 45
0.0
  0
VISUALSTYLE
  5
36
102
{ACAD_REACTORS
330
2A
102
}
102
{ACAD_XDICTIONARY
360
172
102
}
330
2A
100
AcDbVisualStyle
  2
Brighten
 70
    12
 71
     2
 72
     2
 73
     0
 90
        0
 40
-0.6
 41
-30.0
 62
     5
 63
     7
421
 16777215
 74
     1
 91
        4
 64
     7
 65
   257
 75
     1
175
     1
 42
1.0
 92
        8
 66
     7
 43
1.0
 76
     1
 77
     6
 78
     2
 67
     7
 79
     5
170
     0
171
     0
290
     0
174
     0
 93
        1
 44
50.0
173
     0
291
     1
 45
0.0
  0
VISUALSTYLE
  5
3A
102
{ACAD_REACTORS
330
2A
102
}
102
{ACAD_XDICTIONARY
360
17A
102
}
330
2A
100
AcDbVisualStyle
  2
ColorChange
 70
    16
 71
     2
 72
     2
 73
     3
 90
        0
 40
-0.6
 41
-30.0
 62
     5
 63
     8
421
  8421504
 74
     1
 91
        4
 64
     7
 65
   257
 75
     1
175
     1
 42
1.0
 92
        8
 66
     8
424
  8421504
 43
1.0
 76
     1
 77
     6
 78
     2
 67
     7
 79
     5
170
     0
171
     0
290
     0
174
     0
 93
        1
 44
0.0
173
     0
291
     1
 45
0.0
  0
VISUALSTYLE
  5
34
102
{ACAD_REACTORS
330
2A
102
}
102
{ACAD_XDICTIONARY
360
16E
102
}
330
2A
100
AcDbVisualStyle
  2
Conceptual
 70
     9
 71
     3
 72
     2
 73
     0
 90
        0
 40
-0.6
 41
-30.0
 62
     5
 63
     7
421
 16777215
 74
     2
 91
        2
 64
     7
 65
   257
 75
     1
175
     1
 42
40.0
 92
        8
 66
     7
 43
1.0
 76
     1
 77
     6
 78
     2
 67
     7
 79
     3
170
     0
171
     0
290
     0
174
     0
 93
        1
 44
0.0
173
     0
291
     0
 45
0.0
  0
VISUALSTYLE
  5
35
102
{ACAD_REACTORS
330
2A
102
}
102
{ACAD_XDICTIONARY
360
170
102
}
330
2A
100
AcDbVisualStyle
  2
Dim
 70
    11
 71
     2
 72
     2
 73
     0
 90
        0
 40
-0.6
 41
-30.0
 62
     5
 63
     7
421
 16777215
 74
     1
 91
        4
 64
     7
 65
   257
 75
     1
175
     1
 42
1.0
 92
        8
 66
     7
 43
1.0
 76
     1
 77
     6
 78
     2
 67
     7
 79
     5
170
     0
171
     0
290
     0
174
     0
 93
        1
 44
-50.0
173
     0
291
     1
 45
0.0
  0
VISUALSTYLE
  5
39
102
{ACAD_REACTORS
330
2A
102
}
102
{ACAD_XDICTIONARY
360
178
102
}
330
2A
100
AcDbVisualStyle
  2
Facepattern
 70
    15
 71
     2
 72
     2
 73
     0
 90
        0
 40
-0.6
 41
-30.0
 62
     5
 63
     7
421
 16777215
 74
     1
 91
        4
 64
     7
 65
   257
 75
     1
175
     1
 42
1.0
 92
        8
 66
     7
 43
1.0
 76
     1
 77
     6
 78
     2
 67
     7
 79
     5
170
     0
171
     0
290
     0
174
     0
 93
        1
 44
0.0
173
     0
291
     1
 45
0.0
  0
VISUALSTYLE
  5
2B
102
{ACAD_REACTORS
330
2A
102
}
102
{ACAD_XDICTIONARY
360
15C
102
}
330
2A
100
AcDbVisualStyle
  2
Flat
 70
     0
 71
     2
 72
     1
 73
     1
 90
        2
 40
-0.6
 41
30.0
 62
     5
 63
     7
421
 16777215
 74
     0
 91
        4
 64
     7
 65
   257
 75
     1
175
     1
 42
1.0
 92
        8
 66
     7
 43
1.0
 76
     1
 77
     6
 78
     2
 67
     7
 79
     5
170
     0
171
     0
290
     0
174
     0
 93
       13
 44
0.0
173
     0
291
     1
 45
0.0
  0
VISUALSTYLE
  5
2C
102
{ACAD_REACTORS
330
2A
102
}
102
{ACAD_XDICTIONARY
360
15E
102
}
330
2A
100
AcDbVisualStyle
  2
FlatWithEdges
 70
     1
 71
     2
 72
     1
 73
     1
 90
        2
 40
-0.6
 41
30.0
 62
     5
 63
     7
421
 16777215
 74
     1
 91
        4
 64
     7
 65
   257
 75
     1
175
     1
 42
1.0
 92
        0
 66
   257
 43
1.0
 76
     1
 77
     6
 78
     2
 67
     7
 79
     5
170
     0
171
     0
290
     0
174
     0
 93
       13
 44
0.0
173
     0
291
     1
 45
0.0
  0
VISUALSTYLE
  5
2D
102
{ACAD_REACTORS
330
2A
102
}
102
{ACAD_XDICTIONARY
360
160
102
}
330
2A
100
AcDbVisualStyle
  2
Gouraud
 70
     2
 71
     2
 72
     2
 73
     1
 90
        2
 40
-0.6
 41
30.0
 62
     5
 63
     7
421
 16777215
 74
     0
 91
        4
 64
     7
 65
   257
 75
     1
175
     1
 42
1.0
 92
        0
 66
     7
 43
1.0
 76
     1
 77
     6
 78
     2
 67
     7
 79
     5
170
     0
171
     0
290
     0
174
     0
 93
       13
 44
0.0
173
     0
291
     1
 45
0.0
  0
VISUALSTYLE
  5
2E
102
{ACAD_REACTORS
330
2A
102
}
102
{ACAD_XDICTIONARY
360
162
102
}
330
2A
100
AcDbVisualStyle
  2
GouraudWithEdges
 70
     3
 71
     2
 72
     2
 73
     1
 90
        2
 40
-0.6
 41
30.0
 62
     5
 63
     7
421
 16777215
 74
     1
 91
        4
 64
     7
 65
   257
 75
     1
175
     1
 42
1.0
 92
        0
 66
   257
 43
1.0
 76
     1
 77
     6
 78
     2
 67
     7
 79
     5
170
     0
171
     0
290
     0
174
     0
 93
       13
 44
0.0
173
     0
291
     1
 45
0.0
  0
VISUALSTYLE
  5
38
102
{ACAD_REACTORS
330
2A
102
}
102
{ACAD_XDICTIONARY
360
176
102
}
330
2A
100
AcDbVisualStyle
  2
Linepattern
 70
    14
 71
     2
 72
     2
 73
     0
 90
        0
 40
-0.6
 41
-30.0
 62
     5
 63
     7
421
 16777215
 74
     1
 91
        4
 64
     7
 65
   257
 75
     7
175
     7
 42
1.0
 92
        8
 66
     7
 43
1.0
 76
     1
 77
     6
 78
     2
 67
     7
 79
     5
170
     0
171
     0
290
     0
174
     0
 93
        1
 44
0.0
173
     0
291
     1
 45
0.0
  0
VISUALSTYLE
  5
33
102
{ACAD_REACTORS
330
2A
102
}
102
{ACAD_XDICTIONARY
360
16C
102
}
330
2A
100
AcDbVisualStyle
  2
Realistic
 70
     8
 71
     2
 72
     2
 73
     0
 90
        0
 40
-0.6
 41
-30.0
 62
     5
 63
     7
421
 16777215
 74
     1
 91
        0
 64
     7
 65
   257
 75
     1
175
     1
 42
1.0
 92
        8
 66
     8
424
  7895160
 43
1.0
 76
     1
 77
     6
 78
     2
 67
     7
 79
     5
170
     0
171
     0
290
     0
174
     0
 93
       13
 44
0.0
173
     0
291
     0
 45
0.0
  0
VISUALSTYLE
  5
37
102
{ACAD_REACTORS
330
2A
102
}
102
{ACAD_XDICTIONARY
360
174
102
}
330
2A
100
AcDbVisualStyle
  2
Thicken
 70
    13
 71
     2
 72
     2
 73
     0
 90
        0
 40
-0.6
 41
-30.0
 62
     5
 63
     7
421
 16777215
 74
     1
 91
        4
 64
     7
 65
   257
 75
     1
175
     1
 42
1.0
 92
       12
 66
     7
 43
1.0
 76
     1
 77
     6
 78
     2
 67
     7
 79
     5
170
     0
171
     0
290
     0
174
     0
 93
        1
 44
0.0
173
     0
291
     1
 45
0.0
  0
DICTIONARY
  5
164
330
2F
100
AcDbDictionary
280
     1
281
     1
  3
ACAD_XREC_ROUNDTRIP
360
165
  0
DICTIONARY
  5
168
330
31
100
AcDbDictionary
280
     1
281
     1
  3
ACAD_XREC_ROUNDTRIP
360
169
  0
DICTIONARY
  5
166
330
30
100
AcDbDictionary
280
     1
281
     1
  3
ACAD_XREC_ROUNDTRIP
360
167
  0
DICTIONARY
  5
16A
330
32
100
AcDbDictionary
280
     1
281
     1
  3
ACAD_XREC_ROUNDTRIP
360
16B
  0
DICTIONARY
  5
172
330
36
100
AcDbDictionary
280
     1
281
     1
  3
ACAD_XREC_ROUNDTRIP
360
173
  0
DICTIONARY
  5
17A
330
3A
100
AcDbDictionary
280
     1
281
     1
  3
ACAD_XREC_ROUNDTRIP
360
17B
  0
DICTIONARY
  5
16E
330
34
100
AcDbDictionary
280
     1
281
     1
  3
ACAD_XREC_ROUNDTRIP
360
16F
  0
DICTIONARY
  5
170
330
35
100
AcDbDictionary
280
     1
281
     1
  3
ACAD_XREC_ROUNDTRIP
360
171
  0
DICTIONARY
  5
178
330
39
100
AcDbDictionary
280
     1
281
     1
  3
ACAD_XREC_ROUNDTRIP
360
179
  0
DICTIONARY
  5
15C
330
2B
100
AcDbDictionary
280
     1
281
     1
  3
ACAD_XREC_ROUNDTRIP
360
15D
  0
DICTIONARY
  5
15E
330
2C
100
AcDbDictionary
280
     1
281
     1
  3
ACAD_XREC_ROUNDTRIP
360
15F
  0
DICTIONARY
  5
160
330
2D
100
AcDbDictionary
280
     1
281
     1
  3
ACAD_XREC_ROUNDTRIP
360
161
  0
DICTIONARY
  5
162
330
2E
100
AcDbDictionary
280
     1
281
     1
  3
ACAD_XREC_ROUNDTRIP
360
163
  0
DICTIONARY
  5
176
330
38
100
AcDbDictionary
280
     1
281
     1
  3
ACAD_XREC_ROUNDTRIP
360
177
  0
DICTIONARY
  5
16C
330
33
100
AcDbDictionary
280
     1
281
     1
  3
ACAD_XREC_ROUNDTRIP
360
16D
  0
DICTIONARY
  5
174
330
37
100
AcDbDictionary
280
     1
281
     1
  3
ACAD_XREC_ROUNDTRIP
360
175
  0
XRECORD
  5
165
102
{ACAD_REACTORS
330
164
102
}
330
164
100
AcDbXrecord
280
     1
102
RTVSPropertyOp0
 70
     1
102
RTVSPropertyOp1
 70
     1
102
RTVSPropertyOp2
 70
     1
102
RTVSPropertyOp3
 70
     1
102
RTVSPropertyOp4
 70
     1
102
RTVSPropertyOp5
 70
     1
102
RTVSPropertyOp6
 70
     1
102
RTVSPropertyOp7
 70
     1
102
RTVSPropertyOp8
 70
     1
102
RTVSPropertyOp9
 70
     1
102
RTVSPropertyOp10
 70
     1
102
RTVSPropertyOp11
 70
     1
102
RTVSPropertyOp12
 70
     1
102
RTVSPropertyOp13
 70
     1
102
RTVSPropertyOp14
 70
     1
102
RTVSPropertyOp15
 70
     1
102
RTVSPropertyOp16
 70
     1
102
RTVSPropertyOp17
 70
     1
102
RTVSPropertyOp18
 70
     1
102
RTVSPropertyOp19
 70
     1
102
RTVSPropertyOp20
 70
     1
102
RTVSPropertyOp21
 70
     1
102
RTVSPropertyOp22
 70
     1
102
RTVSPropertyOp23
 70
     1
102
RTVSPropertyOp24
 70
     1
102
RTVSPropertyOp25
 70
     1
102
RTVSPropertyOp26
 70
     1
102
RTVSPropertyOp27
 70
     1
102
RTVSPropertyOp28
 70
     1
102
RTVSPropertyOp29
 70
     1
102
RTVSPropertyOp30
 70
     1
102
RTVSPropertyOp31
 70
     1
102
RTVSPropertyOp32
 70
     1
  0
XRECORD
  5
169
102
{ACAD_REACTORS
330
168
102
}
330
168
100
AcDbXrecord
280
     1
102
RTVSPropertyOp0
 70
     1
102
RTVSPropertyOp1
 70
     1
102
RTVSPropertyOp2
 70
     1
102
RTVSPropertyOp3
 70
     1
102
RTVSPropertyOp4
 70
     1
102
RTVSPropertyOp5
 70
     1
102
RTVSPropertyOp6
 70
     1
102
RTVSPropertyOp7
 70
     1
102
RTVSPropertyOp8
 70
     1
102
RTVSPropertyOp9
 70
     1
102
RTVSPropertyOp10
 70
     1
102
RTVSPropertyOp11
 70
     1
102
RTVSPropertyOp12
 70
     1
102
RTVSPropertyOp13
 70
     1
102
RTVSPropertyOp14
 70
     1
102
RTVSPropertyOp15
 70
     1
102
RTVSPropertyOp16
 70
     1
102
RTVSPropertyOp17
 70
     1
102
RTVSPropertyOp18
 70
     1
102
RTVSPropertyOp19
 70
     1
102
RTVSPropertyOp20
 70
     1
102
RTVSPropertyOp21
 70
     1
102
RTVSPropertyOp22
 70
     1
102
RTVSPropertyOp23
 70
     1
102
RTVSPropertyOp24
 70
     1
102
RTVSPropertyOp25
 70
     1
102
RTVSPropertyOp26
 70
     1
102
RTVSPropertyOp27
 70
     1
102
RTVSPropertyOp28
 70
     1
102
RTVSPropertyOp29
 70
     1
102
RTVSPropertyOp30
 70
     1
102
RTVSPropertyOp31
 70
     1
102
RTVSPropertyOp32
 70
     1
  0
XRECORD
  5
167
102
{ACAD_REACTORS
330
166
102
}
330
166
100
AcDbXrecord
280
     1
102
RTVSPropertyOp0
 70
     1
102
RTVSPropertyOp1
 70
     1
102
RTVSPropertyOp2
 70
     1
102
RTVSPropertyOp3
 70
     1
102
RTVSPropertyOp4
 70
     1
102
RTVSPropertyOp5
 70
     1
102
RTVSPropertyOp6
 70
     1
102
RTVSPropertyOp7
 70
     1
102
RTVSPropertyOp8
 70
     1
102
RTVSPropertyOp9
 70
     1
102
RTVSPropertyOp10
 70
     1
102
RTVSPropertyOp11
 70
     1
102
RTVSPropertyOp12
 70
     1
102
RTVSPropertyOp13
 70
     1
102
RTVSPropertyOp14
 70
     1
102
RTVSPropertyOp15
 70
     1
102
RTVSPropertyOp16
 70
     1
102
RTVSPropertyOp17
 70
     1
102
RTVSPropertyOp18
 70
     1
102
RTVSPropertyOp19
 70
     1
102
RTVSPropertyOp20
 70
     1
102
RTVSPropertyOp21
 70
     1
102
RTVSPropertyOp22
 70
     1
102
RTVSPropertyOp23
 70
     1
102
RTVSPropertyOp24
 70
     1
102
RTVSPropertyOp25
 70
     1
102
RTVSPropertyOp26
 70
     1
102
RTVSPropertyOp27
 70
     1
102
RTVSPropertyOp28
 70
     1
102
RTVSPropertyOp29
 70
     1
102
RTVSPropertyOp30
 70
     1
102
RTVSPropertyOp31
 70
     1
102
RTVSPropertyOp32
 70
     1
  0
XRECORD
  5
16B
102
{ACAD_REACTORS
330
16A
102
}
330
16A
100
AcDbXrecord
280
     1
102
RTVSPropertyOp0
 70
     1
102
RTVSPropertyOp1
 70
     1
102
RTVSPropertyOp2
 70
     1
102
RTVSPropertyOp3
 70
     1
102
RTVSPropertyOp4
 70
     1
102
RTVSPropertyOp5
 70
     1
102
RTVSPropertyOp6
 70
     1
102
RTVSPropertyOp7
 70
     1
102
RTVSPropertyOp8
 70
     1
102
RTVSPropertyOp9
 70
     1
102
RTVSPropertyOp10
 70
     1
102
RTVSPropertyOp11
 70
     1
102
RTVSPropertyOp12
 70
     1
102
RTVSPropertyOp13
 70
     1
102
RTVSPropertyOp14
 70
     1
102
RTVSPropertyOp15
 70
     1
102
RTVSPropertyOp16
 70
     1
102
RTVSPropertyOp17
 70
     1
102
RTVSPropertyOp18
 70
     1
102
RTVSPropertyOp19
 70
     1
102
RTVSPropertyOp20
 70
     1
102
RTVSPropertyOp21
 70
     1
102
RTVSPropertyOp22
 70
     1
102
RTVSPropertyOp23
 70
     1
102
RTVSPropertyOp24
 70
     1
102
RTVSPropertyOp25
 70
     1
102
RTVSPropertyOp26
 70
     1
102
RTVSPropertyOp27
 70
     1
102
RTVSPropertyOp28
 70
     1
102
RTVSPropertyOp29
 70
     1
102
RTVSPropertyOp30
 70
     1
102
RTVSPropertyOp31
 70
     1
102
RTVSPropertyOp32
 70
     1
  0
XRECORD
  5
173
102
{ACAD_REACTORS
330
172
102
}
330
172
100
AcDbXrecord
280
     1
102
RTVSPropertyOp0
 70
     1
102
RTVSPropertyOp1
 70
     1
102
RTVSPropertyOp2
 70
     1
102
RTVSPropertyOp3
 70
     1
102
RTVSPropertyOp4
 70
     1
102
RTVSPropertyOp5
 70
     1
102
RTVSPropertyOp6
 70
     1
102
RTVSPropertyOp7
 70
     1
102
RTVSPropertyOp8
 70
     1
102
RTVSPropertyOp9
 70
     1
102
RTVSPropertyOp10
 70
     1
102
RTVSPropertyOp11
 70
     1
102
RTVSPropertyOp12
 70
     1
102
RTVSPropertyOp13
 70
     1
102
RTVSPropertyOp14
 70
     1
102
RTVSPropertyOp15
 70
     1
102
RTVSPropertyOp16
 70
     1
102
RTVSPropertyOp17
 70
     1
102
RTVSPropertyOp18
 70
     1
102
RTVSPropertyOp19
 70
     1
102
RTVSPropertyOp20
 70
     1
102
RTVSPropertyOp21
 70
     1
102
RTVSPropertyOp22
 70
     1
102
RTVSPropertyOp23
 70
     1
102
RTVSPropertyOp24
 70
     1
102
RTVSPropertyOp25
 70
     1
102
RTVSPropertyOp26
 70
     1
102
RTVSPropertyOp27
 70
     1
102
RTVSPropertyOp28
 70
     1
102
RTVSPropertyOp29
 70
     1
102
RTVSPropertyOp30
 70
     1
102
RTVSPropertyOp31
 70
     1
102
RTVSPropertyOp32
 70
     1
  0
XRECORD
  5
17B
102
{ACAD_REACTORS
330
17A
102
}
330
17A
100
AcDbXrecord
280
     1
102
RTVSPropertyOp0
 70
     1
102
RTVSPropertyOp1
 70
     1
102
RTVSPropertyOp2
 70
     1
102
RTVSPropertyOp3
 70
     1
102
RTVSPropertyOp4
 70
     1
102
RTVSPropertyOp5
 70
     1
102
RTVSPropertyOp6
 70
     1
102
RTVSPropertyOp7
 70
     1
102
RTVSPropertyOp8
 70
     1
102
RTVSPropertyOp9
 70
     1
102
RTVSPropertyOp10
 70
     1
102
RTVSPropertyOp11
 70
     1
102
RTVSPropertyOp12
 70
     1
102
RTVSPropertyOp13
 70
     1
102
RTVSPropertyOp14
 70
     1
102
RTVSPropertyOp15
 70
     1
102
RTVSPropertyOp16
 70
     1
102
RTVSPropertyOp17
 70
     1
102
RTVSPropertyOp18
 70
     1
102
RTVSPropertyOp19
 70
     1
102
RTVSPropertyOp20
 70
     1
102
RTVSPropertyOp21
 70
     1
102
RTVSPropertyOp22
 70
     1
102
RTVSPropertyOp23
 70
     1
102
RTVSPropertyOp24
 70
     1
102
RTVSPropertyOp25
 70
     1
102
RTVSPropertyOp26
 70
     1
102
RTVSPropertyOp27
 70
     1
102
RTVSPropertyOp28
 70
     1
102
RTVSPropertyOp29
 70
     1
102
RTVSPropertyOp30
 70
     1
102
RTVSPropertyOp31
 70
     1
102
RTVSPropertyOp32
 70
     1
  0
XRECORD
  5
16F
102
{ACAD_REACTORS
330
16E
102
}
330
16E
100
AcDbXrecord
280
     1
102
RTVSPropertyOp0
 70
     1
102
RTVSPropertyOp1
 70
     1
102
RTVSPropertyOp2
 70
     1
102
RTVSPropertyOp3
 70
     1
102
RTVSPropertyOp4
 70
     1
102
RTVSPropertyOp5
 70
     1
102
RTVSPropertyOp6
 70
     1
102
RTVSPropertyOp7
 70
     1
102
RTVSPropertyOp8
 70
     1
102
RTVSPropertyOp9
 70
     1
102
RTVSPropertyOp10
 70
     1
102
RTVSPropertyOp11
 70
     1
102
RTVSPropertyOp12
 70
     1
102
RTVSPropertyOp13
 70
     1
102
RTVSPropertyOp14
 70
     1
102
RTVSPropertyOp15
 70
     1
102
RTVSPropertyOp16
 70
     1
102
RTVSPropertyOp17
 70
     1
102
RTVSPropertyOp18
 70
     1
102
RTVSPropertyOp19
 70
     1
102
RTVSPropertyOp20
 70
     1
102
RTVSPropertyOp21
 70
     1
102
RTVSPropertyOp22
 70
     1
102
RTVSPropertyOp23
 70
     1
102
RTVSPropertyOp24
 70
     1
102
RTVSPropertyOp25
 70
     1
102
RTVSPropertyOp26
 70
     1
102
RTVSPropertyOp27
 70
     1
102
RTVSPropertyOp28
 70
     1
102
RTVSPropertyOp29
 70
     1
102
RTVSPropertyOp30
 70
     1
102
RTVSPropertyOp31
 70
     1
102
RTVSPropertyOp32
 70
     1
  0
XRECORD
  5
171
102
{ACAD_REACTORS
330
170
102
}
330
170
100
AcDbXrecord
280
     1
102
RTVSPropertyOp0
 70
     1
102
RTVSPropertyOp1
 70
     1
102
RTVSPropertyOp2
 70
     1
102
RTVSPropertyOp3
 70
     1
102
RTVSPropertyOp4
 70
     1
102
RTVSPropertyOp5
 70
     1
102
RTVSPropertyOp6
 70
     1
102
RTVSPropertyOp7
 70
     1
102
RTVSPropertyOp8
 70
     1
102
RTVSPropertyOp9
 70
     1
102
RTVSPropertyOp10
 70
     1
102
RTVSPropertyOp11
 70
     1
102
RTVSPropertyOp12
 70
     1
102
RTVSPropertyOp13
 70
     1
102
RTVSPropertyOp14
 70
     1
102
RTVSPropertyOp15
 70
     1
102
RTVSPropertyOp16
 70
     1
102
RTVSPropertyOp17
 70
     1
102
RTVSPropertyOp18
 70
     1
102
RTVSPropertyOp19
 70
     1
102
RTVSPropertyOp20
 70
     1
102
RTVSPropertyOp21
 70
     1
102
RTVSPropertyOp22
 70
     1
102
RTVSPropertyOp23
 70
     1
102
RTVSPropertyOp24
 70
     1
102
RTVSPropertyOp25
 70
     1
102
RTVSPropertyOp26
 70
     1
102
RTVSPropertyOp27
 70
     1
102
RTVSPropertyOp28
 70
     1
102
RTVSPropertyOp29
 70
     1
102
RTVSPropertyOp30
 70
     1
102
RTVSPropertyOp31
 70
     1
102
RTVSPropertyOp32
 70
     1
  0
XRECORD
  5
179
102
{ACAD_REACTORS
330
178
102
}
330
178
100
AcDbXrecord
280
     1
102
RTVSPropertyOp0
 70
     1
102
RTVSPropertyOp1
 70
     1
102
RTVSPropertyOp2
 70
     1
102
RTVSPropertyOp3
 70
     1
102
RTVSPropertyOp4
 70
     1
102
RTVSPropertyOp5
 70
     1
102
RTVSPropertyOp6
 70
     1
102
RTVSPropertyOp7
 70
     1
102
RTVSPropertyOp8
 70
     1
102
RTVSPropertyOp9
 70
     1
102
RTVSPropertyOp10
 70
     1
102
RTVSPropertyOp11
 70
     1
102
RTVSPropertyOp12
 70
     1
102
RTVSPropertyOp13
 70
     1
102
RTVSPropertyOp14
 70
     1
102
RTVSPropertyOp15
 70
     1
102
RTVSPropertyOp16
 70
     1
102
RTVSPropertyOp17
 70
     1
102
RTVSPropertyOp18
 70
     1
102
RTVSPropertyOp19
 70
     1
102
RTVSPropertyOp20
 70
     1
102
RTVSPropertyOp21
 70
     1
102
RTVSPropertyOp22
 70
     1
102
RTVSPropertyOp23
 70
     1
102
RTVSPropertyOp24
 70
     1
102
RTVSPropertyOp25
 70
     1
102
RTVSPropertyOp26
 70
     1
102
RTVSPropertyOp27
 70
     1
102
RTVSPropertyOp28
 70
     1
102
RTVSPropertyOp29
 70
     1
102
RTVSPropertyOp30
 70
     1
102
RTVSPropertyOp31
 70
     1
102
RTVSPropertyOp32
 70
     1
  0
XRECORD
  5
15D
102
{ACAD_REACTORS
330
15C
102
}
330
15C
100
AcDbXrecord
280
     1
102
RTVSPropertyOp0
 70
     1
102
RTVSPropertyOp1
 70
     1
102
RTVSPropertyOp2
 70
     1
102
RTVSPropertyOp3
 70
     1
102
RTVSPropertyOp4
 70
     1
102
RTVSPropertyOp5
 70
     1
102
RTVSPropertyOp6
 70
     1
102
RTVSPropertyOp7
 70
     1
102
RTVSPropertyOp8
 70
     1
102
RTVSPropertyOp9
 70
     1
102
RTVSPropertyOp10
 70
     1
102
RTVSPropertyOp11
 70
     1
102
RTVSPropertyOp12
 70
     1
102
RTVSPropertyOp13
 70
     1
102
RTVSPropertyOp14
 70
     1
102
RTVSPropertyOp15
 70
     1
102
RTVSPropertyOp16
 70
     1
102
RTVSPropertyOp17
 70
     1
102
RTVSPropertyOp18
 70
     1
102
RTVSPropertyOp19
 70
     1
102
RTVSPropertyOp20
 70
     1
102
RTVSPropertyOp21
 70
     1
102
RTVSPropertyOp22
 70
     1
102
RTVSPropertyOp23
 70
     1
102
RTVSPropertyOp24
 70
     1
102
RTVSPropertyOp25
 70
     1
102
RTVSPropertyOp26
 70
     1
102
RTVSPropertyOp27
 70
     1
102
RTVSPropertyOp28
 70
     1
102
RTVSPropertyOp29
 70
     1
102
RTVSPropertyOp30
 70
     1
102
RTVSPropertyOp31
 70
     1
102
RTVSPropertyOp32
 70
     1
  0
XRECORD
  5
15F
102
{ACAD_REACTORS
330
15E
102
}
330
15E
100
AcDbXrecord
280
     1
102
RTVSPropertyOp0
 70
     1
102
RTVSPropertyOp1
 70
     1
102
RTVSPropertyOp2
 70
     1
102
RTVSPropertyOp3
 70
     1
102
RTVSPropertyOp4
 70
     1
102
RTVSPropertyOp5
 70
     1
102
RTVSPropertyOp6
 70
     1
102
RTVSPropertyOp7
 70
     1
102
RTVSPropertyOp8
 70
     1
102
RTVSPropertyOp9
 70
     1
102
RTVSPropertyOp10
 70
     1
102
RTVSPropertyOp11
 70
     1
102
RTVSPropertyOp12
 70
     1
102
RTVSPropertyOp13
 70
     1
102
RTVSPropertyOp14
 70
     1
102
RTVSPropertyOp15
 70
     1
102
RTVSPropertyOp16
 70
     1
102
RTVSPropertyOp17
 70
     1
102
RTVSPropertyOp18
 70
     1
102
RTVSPropertyOp19
 70
     1
102
RTVSPropertyOp20
 70
     1
102
RTVSPropertyOp21
 70
     1
102
RTVSPropertyOp22
 70
     1
102
RTVSPropertyOp23
 70
     1
102
RTVSPropertyOp24
 70
     1
102
RTVSPropertyOp25
 70
     1
102
RTVSPropertyOp26
 70
     1
102
RTVSPropertyOp27
 70
     1
102
RTVSPropertyOp28
 70
     1
102
RTVSPropertyOp29
 70
     1
102
RTVSPropertyOp30
 70
     1
102
RTVSPropertyOp31
 70
     1
102
RTVSPropertyOp32
 70
     1
  0
XRECORD
  5
161
102
{ACAD_REACTORS
330
160
102
}
330
160
100
AcDbXrecord
280
     1
102
RTVSPropertyOp0
 70
     1
102
RTVSPropertyOp1
 70
     1
102
RTVSPropertyOp2
 70
     1
102
RTVSPropertyOp3
 70
     1
102
RTVSPropertyOp4
 70
     1
102
RTVSPropertyOp5
 70
     1
102
RTVSPropertyOp6
 70
     1
102
RTVSPropertyOp7
 70
     1
102
RTVSPropertyOp8
 70
     1
102
RTVSPropertyOp9
 70
     1
102
RTVSPropertyOp10
 70
     1
102
RTVSPropertyOp11
 70
     1
102
RTVSPropertyOp12
 70
     1
102
RTVSPropertyOp13
 70
     1
102
RTVSPropertyOp14
 70
     1
102
RTVSPropertyOp15
 70
     1
102
RTVSPropertyOp16
 70
     1
102
RTVSPropertyOp17
 70
     1
102
RTVSPropertyOp18
 70
     1
102
RTVSPropertyOp19
 70
     1
102
RTVSPropertyOp20
 70
     1
102
RTVSPropertyOp21
 70
     1
102
RTVSPropertyOp22
 70
     1
102
RTVSPropertyOp23
 70
     1
102
RTVSPropertyOp24
 70
     1
102
RTVSPropertyOp25
 70
     1
102
RTVSPropertyOp26
 70
     1
102
RTVSPropertyOp27
 70
     1
102
RTVSPropertyOp28
 70
     1
102
RTVSPropertyOp29
 70
     1
102
RTVSPropertyOp30
 70
     1
102
RTVSPropertyOp31
 70
     1
102
RTVSPropertyOp32
 70
     1
  0
XRECORD
  5
163
102
{ACAD_REACTORS
330
162
102
}
330
162
100
AcDbXrecord
280
     1
102
RTVSPropertyOp0
 70
     1
102
RTVSPropertyOp1
 70
     1
102
RTVSPropertyOp2
 70
     1
102
RTVSPropertyOp3
 70
     1
102
RTVSPropertyOp4
 70
     1
102
RTVSPropertyOp5
 70
     1
102
RTVSPropertyOp6
 70
     1
102
RTVSPropertyOp7
 70
     1
102
RTVSPropertyOp8
 70
     1
102
RTVSPropertyOp9
 70
     1
102
RTVSPropertyOp10
 70
     1
102
RTVSPropertyOp11
 70
     1
102
RTVSPropertyOp12
 70
     1
102
RTVSPropertyOp13
 70
     1
102
RTVSPropertyOp14
 70
     1
102
RTVSPropertyOp15
 70
     1
102
RTVSPropertyOp16
 70
     1
102
RTVSPropertyOp17
 70
     1
102
RTVSPropertyOp18
 70
     1
102
RTVSPropertyOp19
 70
     1
102
RTVSPropertyOp20
 70
     1
102
RTVSPropertyOp21
 70
     1
102
RTVSPropertyOp22
 70
     1
102
RTVSPropertyOp23
 70
     1
102
RTVSPropertyOp24
 70
     1
102
RTVSPropertyOp25
 70
     1
102
RTVSPropertyOp26
 70
     1
102
RTVSPropertyOp27
 70
     1
102
RTVSPropertyOp28
 70
     1
102
RTVSPropertyOp29
 70
     1
102
RTVSPropertyOp30
 70
     1
102
RTVSPropertyOp31
 70
     1
102
RTVSPropertyOp32
 70
     1
  0
XRECORD
  5
177
102
{ACAD_REACTORS
330
176
102
}
330
176
100
AcDbXrecord
280
     1
102
RTVSPropertyOp0
 70
     1
102
RTVSPropertyOp1
 70
     1
102
RTVSPropertyOp2
 70
     1
102
RTVSPropertyOp3
 70
     1
102
RTVSPropertyOp4
 70
     1
102
RTVSPropertyOp5
 70
     1
102
RTVSPropertyOp6
 70
     1
102
RTVSPropertyOp7
 70
     1
102
RTVSPropertyOp8
 70
     1
102
RTVSPropertyOp9
 70
     1
102
RTVSPropertyOp10
 70
     1
102
RTVSPropertyOp11
 70
     1
102
RTVSPropertyOp12
 70
     1
102
RTVSPropertyOp13
 70
     1
102
RTVSPropertyOp14
 70
     1
102
RTVSPropertyOp15
 70
     1
102
RTVSPropertyOp16
 70
     1
102
RTVSPropertyOp17
 70
     1
102
RTVSPropertyOp18
 70
     1
102
RTVSPropertyOp19
 70
     1
102
RTVSPropertyOp20
 70
     1
102
RTVSPropertyOp21
 70
     1
102
RTVSPropertyOp22
 70
     1
102
RTVSPropertyOp23
 70
     1
102
RTVSPropertyOp24
 70
     1
102
RTVSPropertyOp25
 70
     1
102
RTVSPropertyOp26
 70
     1
102
RTVSPropertyOp27
 70
     1
102
RTVSPropertyOp28
 70
     1
102
RTVSPropertyOp29
 70
     1
102
RTVSPropertyOp30
 70
     1
102
RTVSPropertyOp31
 70
     1
102
RTVSPropertyOp32
 70
     1
  0
XRECORD
  5
16D
102
{ACAD_REACTORS
330
16C
102
}
330
16C
100
AcDbXrecord
280
     1
102
RTVSPropertyOp0
 70
     1
102
RTVSPropertyOp1
 70
     1
102
RTVSPropertyOp2
 70
     1
102
RTVSPropertyOp3
 70
     1
102
RTVSPropertyOp4
 70
     1
102
RTVSPropertyOp5
 70
     1
102
RTVSPropertyOp6
 70
     1
102
RTVSPropertyOp7
 70
     1
102
RTVSPropertyOp8
 70
     1
102
RTVSPropertyOp9
 70
     1
102
RTVSPropertyOp10
 70
     1
102
RTVSPropertyOp11
 70
     1
102
RTVSPropertyOp12
 70
     1
102
RTVSPropertyOp13
 70
     1
102
RTVSPropertyOp14
 70
     1
102
RTVSPropertyOp15
 70
     1
102
RTVSPropertyOp16
 70
     1
102
RTVSPropertyOp17
 70
     1
102
RTVSPropertyOp18
 70
     1
102
RTVSPropertyOp19
 70
     1
102
RTVSPropertyOp20
 70
     1
102
RTVSPropertyOp21
 70
     1
102
RTVSPropertyOp22
 70
     1
102
RTVSPropertyOp23
 70
     1
102
RTVSPropertyOp24
 70
     1
102
RTVSPropertyOp25
 70
     1
102
RTVSPropertyOp26
 70
     1
102
RTVSPropertyOp27
 70
     1
102
RTVSPropertyOp28
 70
     1
102
RTVSPropertyOp29
 70
     1
102
RTVSPropertyOp30
 70
     1
102
RTVSPropertyOp31
 70
     1
102
RTVSPropertyOp32
 70
     1
  0
XRECORD
  5
175
102
{ACAD_REACTORS
330
174
102
}
330
174
100
AcDbXrecord
280
     1
102
RTVSPropertyOp0
 70
     1
102
RTVSPropertyOp1
 70
     1
102
RTVSPropertyOp2
 70
     1
102
RTVSPropertyOp3
 70
     1
102
RTVSPropertyOp4
 70
     1
102
RTVSPropertyOp5
 70
     1
102
RTVSPropertyOp6
 70
     1
102
RTVSPropertyOp7
 70
     1
102
RTVSPropertyOp8
 70
     1
102
RTVSPropertyOp9
 70
     1
102
RTVSPropertyOp10
 70
     1
102
RTVSPropertyOp11
 70
     1
102
RTVSPropertyOp12
 70
     1
102
RTVSPropertyOp13
 70
     1
102
RTVSPropertyOp14
 70
     1
102
RTVSPropertyOp15
 70
     1
102
RTVSPropertyOp16
 70
     1
102
RTVSPropertyOp17
 70
     1
102
RTVSPropertyOp18
 70
     1
102
RTVSPropertyOp19
 70
     1
102
RTVSPropertyOp20
 70
     1
102
RTVSPropertyOp21
 70
     1
102
RTVSPropertyOp22
 70
     1
102
RTVSPropertyOp23
 70
     1
102
RTVSPropertyOp24
 70
     1
102
RTVSPropertyOp25
 70
     1
102
RTVSPropertyOp26
 70
     1
102
RTVSPropertyOp27
 70
     1
102
RTVSPropertyOp28
 70
     1
102
RTVSPropertyOp29
 70
     1
102
RTVSPropertyOp30
 70
     1
102
RTVSPropertyOp31
 70
     1
102
RTVSPropertyOp32
 70
     1
  0
ENDSEC
  0
EOF
