  0
SECTION
  2
HEADER
  9
$ACADVER
  1
AC1009
  9
$DWGCODEPAGE
  3
ansi_1252
  9
$INSBASE
 10
0.0
 20
0.0
 30
0.0
  9
$EXTMIN
 10
1.000000000000000E+20
 20
1.000000000000000E+20
 30
1.000000000000000E+20
  9
$EXTMAX
 10
-1.000000000000000E+20
 20
-1.000000000000000E+20
 30
-1.000000000000000E+20
  9
$LIMMIN
 10
0.0
 20
0.0
  9
$LIMMAX
 10
420.0
 20
297.0
  9
$ORTHOMODE
 70
     0
  9
$REGENMODE
 70
     1
  9
$FILLMODE
 70
     1
  9
$QTEXTMODE
 70
     0
  9
$MIRRTEXT
 70
     1
  9
$DRAGMODE
 70
     2
  9
$LTSCALE
 40
1.0
  9
$OSMODE
 70
    37
  9
$ATTMODE
 70
     1
  9
$TEXTSIZE
 40
2.5
  9
$TRACEWID
 40
1.0
  9
$TEXTSTYLE
  7
STANDARD
  9
$CLAYER
  8
0
  9
$CELTYPE
  6
BYLAYER
  9
$CECOLOR
 62
   256
  9
$DIMSCALE
 40
1.0
  9
$DIMASZ
 40
2.5
  9
$DIMEXO
 40
0.625
  9
$DIMDLI
 40
3.75
  9
$DIMRND
 40
0.0
  9
$DIMDLE
 40
0.0
  9
$DIMEXE
 40
1.25
  9
$DIMTP
 40
0.0
  9
$DIMTM
 40
0.0
  9
$DIMTXT
 40
2.5
  9
$DIMCEN
 40
2.5
  9
$DIMTSZ
 40
0.0
  9
$DIMTOL
 70
     0
  9
$DIMLIM
 70
     0
  9
$DIMTIH
 70
     0
  9
$DIMTOH
 70
     0
  9
$DIMSE1
 70
     0
  9
$DIMSE2
 70
     0
  9
$DIMTAD
 70
     1
  9
$DIMZIN
 70
     8
  9
$DIMBLK
  1

  9
$DIMASO
 70
     1
  9
$DIMSHO
 70
     1
  9
$DIMPOST
  1

  9
$DIMAPOST
  1

  9
$DIMALT
 70
     0
  9
$DIMALTD
 70
     3
  9
$DIMALTF
 40
0.03937007874016
  9
$DIMLFAC
 40
1.0
  9
$DIMTOFL
 70
     1
  9
$DIMTVP
 40
0.0
  9
$DIMTIX
 70
     0
  9
$DIMSOXD
 70
     0
  9
$DIMSAH
 70
     0
  9
$DIMBLK1
  1

  9
$DIMBLK2
  1

  9
$DIMSTYLE
  2
ISO-25
  9
$DIMCLRD
 70
     0
  9
$DIMCLRE
 70
     0
  9
$DIMCLRT
 70
     0
  9
$DIMTFAC
 40
1.0
  9
$DIMGAP
 40
0.625
  9
$LUNITS
 70
     2
  9
$LUPREC
 70
     4
  9
$SKETCHINC
 40
1.0
  9
$FILLETRAD
 40
10.0
  9
$AUNITS
 70
     0
  9
$AUPREC
 70
     0
  9
$MENU
  1
.
  9
$ELEVATION
 40
0.0
  9
$PELEVATION
 40
0.0
  9
$THICKNESS
 40
0.0
  9
$LIMCHECK
 70
     0
  9
$CHAMFERA
 40
10.0
  9
$CHAMFERB
 40
10.0
  9
$SKPOLY
 70
     0
  9
$TDCREATE
 40
2456664.526426285
  9
$TDUPDATE
 40
2456664.526426296
  9
$TDINDWG
 40
0.0000000116
  9
$TDUSRTIMER
 40
0.0000000116
  9
$USRTIMER
 70
     1
  9
$ANGBASE
 50
0.0
  9
$ANGDIR
 70
     0
  9
$PDMODE
 70
     0
  9
$PDSIZE
 40
0.0
  9
$PLINEWID
 40
0.0
  9
$COORDS
 70
     1
  9
$SPLFRAME
 70
     0
  9
$SPLINETYPE
 70
     6
  9
$SPLINESEGS
 70
     8
  9
$ATTDIA
 70
     0
  9
$ATTREQ
 70
     1
  9
$HANDLING
 70
     1
  9
$HANDSEED
  5
E0E
  9
$SURFTAB1
 70
     6
  9
$SURFTAB2
 70
     6
  9
$SURFTYPE
 70
     6
  9
$SURFU
 70
     6
  9
$SURFV
 70
     6
  9
$UCSNAME
  2

  9
$UCSORG
 10
0.0
 20
0.0
 30
0.0
  9
$UCSXDIR
 10
1.0
 20
0.0
 30
0.0
  9
$UCSYDIR
 10
0.0
 20
1.0
 30
0.0
  9
$PUCSNAME
  2

  9
$PUCSORG
 10
0.0
 20
0.0
 30
0.0
  9
$PUCSXDIR
 10
1.0
 20
0.0
 30
0.0
  9
$PUCSYDIR
 10
0.0
 20
1.0
 30
0.0
  9
$USERI1
 70
     0
  9
$USERI2
 70
     0
  9
$USERI3
 70
     0
  9
$USERI4
 70
     0
  9
$USERI5
 70
     0
  9
$USERR1
 40
0.0
  9
$USERR2
 40
0.0
  9
$USERR3
 40
0.0
  9
$USERR4
 40
0.0
  9
$USERR5
 40
0.0
  9
$WORLDVIEW
 70
     1
  9
$SHADEDGE
 70
     3
  9
$SHADEDIF
 70
    70
  9
$TILEMODE
 70
     1
  9
$MAXACTVP
 70
    64
  9
$PLIMCHECK
 70
     0
  9
$PEXTMIN
 10
1.000000000000000E+20
 20
1.000000000000000E+20
 30
1.000000000000000E+20
  9
$PEXTMAX
 10
-1.000000000000000E+20
 20
-1.000000000000000E+20
 30
-1.000000000000000E+20
  9
$PLIMMIN
 10
0.0
 20
0.0
  9
$PLIMMAX
 10
420.0
 20
297.0
  9
$UNITMODE
 70
     0
  9
$VISRETAIN
 70
     1
  9
$PLINEGEN
 70
     0
  9
$PSLTSCALE
 70
     1
  0
ENDSEC
  0
SECTION
  2
TABLES
  0
TABLE
  2
VPORT
 70
     1
  0
VPORT
  2
*ACTIVE
 70
     0
 10
0.0
 20
0.0
 11
1.0
 21
1.0
 12
344.1869158878504
 22
148.5
 13
0.0
 23
0.0
 14
10.0
 24
10.0
 15
10.0
 25
10.0
 16
0.0
 26
0.0
 36
1.0
 17
0.0
 27
0.0
 37
0.0
 40
297.0
 41
1.972972972850329
 42
50.0
 43
0.0
 44
0.0
 50
0.0
 51
0.0
 71
     0
 72
   100
 73
     1
 74
     3
 75
     0
 76
     0
 77
     0
 78
     0
  0
ENDTAB
  0
TABLE
  2
LTYPE
 70
     1
  0
LTYPE
  2
CONTINUOUS
 70
     0
  3
Solid line
 72
    65
 73
     0
 40
0.0
  0
ENDTAB
  0
TABLE
  2
LAYER
 70
     1
  0
LAYER
  2
0
 70
     0
 62
     7
  6
CONTINUOUS
  0
ENDTAB
  0
TABLE
  2
STYLE
 70
     1
  0
STYLE
  2
STANDARD
 70
     0
 40
0.0
 41
1.0
 50
0.0
 71
     0
 42
2.5
  3
txt
  4

  0
ENDTAB
  0
TABLE
  2
VIEW
 70
     0
  0
ENDTAB
  0
TABLE
  2
UCS
 70
     0
  0
ENDTAB
  0
TABLE
  2
APPID
 70
     1
  0
APPID
  2
ACAD
 70
     0
  0
ENDTAB
  0
TABLE
  2
DIMSTYLE
 70
     1
  0
DIMSTYLE
  2
ISO-25
 70
     0
  3

  4

  5

  6

  7

 40
1.0
 41
2.5
 42
0.625
 43
3.75
 44
1.25
 45
0.0
 46
0.0
 47
0.0
 48
0.0
140
2.5
141
2.5
142
0.0
143
0.03937007874016
144
1.0
145
0.0
146
1.0
147
0.625
 71
     0
 72
     0
 73
     0
 74
     0
 75
     0
 76
     0
 77
     1
 78
     8
170
     0
171
     3
172
     1
173
     0
174
     0
175
     0
176
     0
177
     0
178
     0
  0
ENDTAB
  0
ENDSEC
  0
SECTION
  2
BLOCKS
  0
BLOCK
  8
0
  2
$MODEL_SPACE
 70
     0
 10
0.0
 20
0.0
 30
0.0
  3
$MODEL_SPACE
  1

  0
ENDBLK
  5
21
  8
0
  0
BLOCK
 67
     1
  8
0
  2
$PAPER_SPACE
 70
     0
 10
0.0
 20
0.0
 30
0.0
  3
$PAPER_SPACE
  1

  0
ENDBLK
  5
1D
 67
     1
  8
0
  0
ENDSEC
  0
SECTION
  2
ENTITIES
  0
POLYLINE
  5
3B
  8
0
 62
     7
 66
     1
 10
0.0
 20
0.0
 30
0.0
  0
VERTEX
  5
DA
  8
0
 62
     7
 10
541.9742638888889
 20
60.87956666666666
 30
0.0
  0
VERTEX
  5
DB
  8
0
 62
     7
 10
541.9858867478862
 20
60.89603304920589
 30
0.0
  0
VERTEX
  5
DC
  8
0
 62
     7
 10
541.997837733089
 20
60.91268163901749
 30
0.0
  0
VERTEX
  5
DD
  8
0
 62
     7
 10
542.0101362901476
 20
60.92946680772569
 30
0.0
  0
VERTEX
  5
DE
  8
0
 62
     7
 10
542.022801864712
 20
60.94634292695473
 30
0.0
  0
VERTEX
  5
DF
  8
0
 62
     7
 10
542.0358539024322
 20
60.96326436832884
 30
0.0
  0
VERTEX
  5
E0
  8
0
 62
     7
 10
542.0493118489584
 20
60.98018550347222
 30
0.0
  0
VERTEX
  5
E1
  8
0
 62
     7
 10
542.0631951499405
 20
60.99706070400913
 30
0.0
  0
VERTEX
  5
E2
  8
0
 62
     7
 10
542.0775232510288
 20
61.01384434156378
 30
0.0
  0
VERTEX
  5
E3
  8
0
 62
     7
 10
542.0923155978733
 20
61.03049078776041
 30
0.0
  0
VERTEX
  5
E4
  8
0
 62
     7
 10
542.107591636124
 20
61.04695441422325
 30
0.0
  0
VERTEX
  5
E5
  8
0
 62
     7
 10
542.123370811431
 20
61.06318959257651
 30
0.0
  0
VERTEX
  5
E6
  8
0
 62
     7
 10
542.1396725694444
 20
61.07915069444444
 30
0.0
  0
VERTEX
  5
E7
  8
0
 62
     7
 10
542.1565163558145
 20
61.09479209145125
 30
0.0
  0
VERTEX
  5
E8
  8
0
 62
     7
 10
542.1739216161909
 20
61.11006815522119
 30
0.0
  0
VERTEX
  5
E9
  8
0
 62
     7
 10
542.191907796224
 20
61.12493325737847
 30
0.0
  0
VERTEX
  5
EA
  8
0
 62
     7
 10
542.2104943415638
 20
61.13934176954733
 30
0.0
  0
VERTEX
  5
EB
  8
0
 62
     7
 10
542.2297006978604
 20
61.15324806335198
 30
0.0
  0
VERTEX
  5
EC
  8
0
 62
     7
 10
542.2495463107639
 20
61.16660651041667
 30
0.0
  0
VERTEX
  5
ED
  8
0
 62
     7
 10
542.2700506259245
 20
61.17937148236562
 30
0.0
  0
VERTEX
  5
EE
  8
0
 62
     7
 10
542.2912330889918
 20
61.19149735082304
 30
0.0
  0
VERTEX
  5
EF
  8
0
 62
     7
 10
542.3131131456164
 20
61.20293848741319
 30
0.0
  0
VERTEX
  5
F0
  8
0
 62
     7
 10
542.3357102414479
 20
61.21364926376028
 30
0.0
  0
VERTEX
  5
F1
  8
0
 62
     7
 10
542.3590438221371
 20
61.22358405148855
 30
0.0
  0
VERTEX
  5
F2
  8
0
 62
     7
 10
542.3831333333334
 20
61.23269722222223
 30
0.0
  0
SEQEND
  5
F3
  8
0
 62
     7
  0
POLYLINE
  5
3C
  8
0
 62
     7
 66
     1
 10
0.0
 20
0.0
 30
0.0
  0
VERTEX
  5
F4
  8
0
 62
     7
 10
542.3831333333334
 20
61.23269722222223
 30
0.0
  0
VERTEX
  5
F5
  8
0
 62
     7
 10
544.3485631918322
 20
61.89226516786427
 30
0.0
  0
VERTEX
  5
F6
  8
0
 62
     7
 10
546.1998591804912
 20
62.43061520865484
 30
0.0
  0
VERTEX
  5
F7
  8
0
 62
     7
 10
547.9455548773872
 20
62.8526989420573
 30
0.0
  0
VERTEX
  5
F8
  8
0
 62
     7
 10
549.5941838605968
 20
63.16346796553498
 30
0.0
  0
VERTEX
  5
F9
  8
0
 62
     7
 10
551.1542797081967
 20
63.36787387655126
 30
0.0
  0
VERTEX
  5
FA
  8
0
 62
     7
 10
552.634375998264
 20
63.47086827256945
 30
0.0
  0
VERTEX
  5
FB
  8
0
 62
     7
 10
554.0430063088752
 20
63.47740275105292
 30
0.0
  0
VERTEX
  5
FC
  8
0
 62
     7
 10
555.388704218107
 20
63.39242890946502
 30
0.0
  0
VERTEX
  5
FD
  8
0
 62
     7
 10
556.6800033040365
 20
63.2208983452691
 30
0.0
  0
VERTEX
  5
FE
  8
0
 62
     7
 10
557.9254371447402
 20
62.9677626559285
 30
0.0
  0
VERTEX
  5
FF
  8
0
 62
     7
 10
559.1335393182951
 20
62.63797343890657
 30
0.0
  0
VERTEX
  5
100
  8
0
 62
     7
 10
560.3128434027778
 20
62.23648229166666
 30
0.0
  0
VERTEX
  5
101
  8
0
 62
     7
 10
561.4718829762651
 20
61.76824081167213
 30
0.0
  0
VERTEX
  5
102
  8
0
 62
     7
 10
562.6191916168337
 20
61.23820059638631
 30
0.0
  0
VERTEX
  5
103
  8
0
 62
     7
 10
563.7633029025608
 20
60.65131324327257
 30
0.0
  0
VERTEX
  5
104
  8
0
 62
     7
 10
564.9127504115227
 20
60.01253034979425
 30
0.0
  0
VERTEX
  5
105
  8
0
 62
     7
 10
566.0760677217962
 20
59.32680351341467
 30
0.0
  0
VERTEX
  5
106
  8
0
 62
     7
 10
567.2617884114584
 20
58.59908433159723
 30
0.0
  0
VERTEX
  5
107
  8
0
 62
     7
 10
568.4784460585857
 20
57.83432440180523
 30
0.0
  0
VERTEX
  5
108
  8
0
 62
     7
 10
569.7345742412551
 20
57.03747532150206
 30
0.0
  0
VERTEX
  5
109
  8
0
 62
     7
 10
571.0387065375435
 20
56.21348868815104
 30
0.0
  0
VERTEX
  5
10A
  8
0
 62
     7
 10
572.3993765255274
 20
55.36731609921553
 30
0.0
  0
VERTEX
  5
10B
  8
0
 62
     7
 10
573.8251177832835
 20
54.5039091521589
 30
0.0
  0
VERTEX
  5
10C
  8
0
 62
     7
 10
575.3244638888889
 20
53.62821944444444
 30
0.0
  0
SEQEND
  5
10D
  8
0
 62
     7
  0
POLYLINE
  5
3D
  8
0
 62
     7
 66
     1
 10
0.0
 20
0.0
 30
0.0
  0
VERTEX
  5
10E
  8
0
 62
     7
 10
575.3244638888889
 20
53.62821944444444
 30
0.0
  0
VERTEX
  5
10F
  8
0
 62
     7
 10
577.3675352518968
 20
53.66752558513375
 30
0.0
  0
VERTEX
  5
110
  8
0
 62
     7
 10
579.9262237975822
 20
53.69244623199587
 30
0.0
  0
VERTEX
  5
111
  8
0
 62
     7
 10
582.9513568359374
 20
53.70186180555555
 30
0.0
  0
VERTEX
  5
112
  8
0
 62
     7
 10
586.3937616769548
 20
53.69465272633744
 30
0.0
  0
VERTEX
  5
113
  8
0
 62
     7
 10
590.2042656306262
 20
53.66969941486624
 30
0.0
  0
VERTEX
  5
114
  8
0
 62
     7
 10
594.3336960069445
 20
53.62588229166666
 30
0.0
  0
VERTEX
  5
115
  8
0
 62
     7
 10
598.7328801159015
 20
53.56208177726336
 30
0.0
  0
VERTEX
  5
116
  8
0
 62
     7
 10
603.3526452674896
 20
53.47717829218107
 30
0.0
  0
VERTEX
  5
117
  8
0
 62
     7
 10
608.1438187717014
 20
53.37005225694443
 30
0.0
  0
VERTEX
  5
118
  8
0
 62
     7
 10
613.0572279385287
 20
53.23958409207818
 30
0.0
  0
VERTEX
  5
119
  8
0
 62
     7
 10
618.0437000779641
 20
53.08465421810699
 30
0.0
  0
VERTEX
  5
11A
  8
0
 62
     7
 10
623.0540624999999
 20
52.90414305555555
 30
0.0
  0
VERTEX
  5
11B
  8
0
 62
     7
 10
628.0391425146283
 20
52.69693102494855
 30
0.0
  0
VERTEX
  5
11C
  8
0
 62
     7
 10
632.9497674318415
 20
52.46189854681069
 30
0.0
  0
VERTEX
  5
11D
  8
0
 62
     7
 10
637.736764561632
 20
52.19792604166666
 30
0.0
  0
VERTEX
  5
11E
  8
0
 62
     7
 10
642.3509612139917
 20
51.90389393004115
 30
0.0
  0
VERTEX
  5
11F
  8
0
 62
     7
 10
646.7431846989133
 20
51.57868263245884
 30
0.0
  0
VERTEX
  5
120
  8
0
 62
     7
 10
650.8642623263888
 20
51.22117256944445
 30
0.0
  0
VERTEX
  5
121
  8
0
 62
     7
 10
654.6650214064107
 20
50.83024416152264
 30
0.0
  0
VERTEX
  5
122
  8
0
 62
     7
 10
658.0962892489712
 20
50.40477782921811
 30
0.0
  0
VERTEX
  5
123
  8
0
 62
     7
 10
661.1088931640625
 20
49.94365399305555
 30
0.0
  0
VERTEX
  5
124
  8
0
 62
     7
 10
663.6536604616768
 20
49.44575307355966
 30
0.0
  0
VERTEX
  5
125
  8
0
 62
     7
 10
665.6814184518068
 20
48.90995549125515
 30
0.0
  0
VERTEX
  5
126
  8
0
 62
     7
 10
667.1429944444444
 20
48.33514166666667
 30
0.0
  0
SEQEND
  5
127
  8
0
 62
     7
  0
POLYLINE
  5
3E
  8
0
 62
     7
 66
     1
 10
0.0
 20
0.0
 30
0.0
  0
VERTEX
  5
128
  8
0
 62
     7
 10
667.1429944444444
 20
48.33514166666667
 30
0.0
  0
VERTEX
  5
129
  8
0
 62
     7
 10
668.2092664006237
 20
48.2390059453768
 30
0.0
  0
VERTEX
  5
12A
  8
0
 62
     7
 10
669.4175822466565
 20
48.07834802597737
 30
0.0
  0
VERTEX
  5
12B
  8
0
 62
     7
 10
670.7512138237846
 20
47.85654073350694
 30
0.0
  0
VERTEX
  5
12C
  8
0
 62
     7
 10
672.193432973251
 20
47.57695689300411
 30
0.0
  0
VERTEX
  5
12D
  8
0
 62
     7
 10
673.7275115362975
 20
47.24296932950746
 30
0.0
  0
VERTEX
  5
12E
  8
0
 62
     7
 10
675.3367213541666
 20
46.85795086805556
 30
0.0
  0
VERTEX
  5
12F
  8
0
 62
     7
 10
677.0043342681005
 20
46.42527433368699
 30
0.0
  0
VERTEX
  5
130
  8
0
 62
     7
 10
678.7136221193416
 20
45.94831255144033
 30
0.0
  0
VERTEX
  5
131
  8
0
 62
     7
 10
680.4478567491319
 20
45.43043834635416
 30
0.0
  0
VERTEX
  5
132
  8
0
 62
     7
 10
682.1903099987139
 20
44.87502454346707
 30
0.0
  0
VERTEX
  5
133
  8
0
 62
     7
 10
683.92425370933
 20
44.28544396781764
 30
0.0
  0
VERTEX
  5
134
  8
0
 62
     7
 10
685.6329597222223
 20
43.66506944444445
 30
0.0
  0
VERTEX
  5
135
  8
0
 62
     7
 10
687.299699878633
 20
43.01727379838606
 30
0.0
  0
VERTEX
  5
136
  8
0
 62
     7
 10
688.9077460198043
 20
42.34542985468107
 30
0.0
  0
VERTEX
  5
137
  8
0
 62
     7
 10
690.440369986979
 20
41.65291043836805
 30
0.0
  0
VERTEX
  5
138
  8
0
 62
     7
 10
691.8808436213992
 20
40.9430883744856
 30
0.0
  0
VERTEX
  5
139
  8
0
 62
     7
 10
693.2124387643069
 20
40.21933648807227
 30
0.0
  0
VERTEX
  5
13A
  8
0
 62
     7
 10
694.4184272569444
 20
39.48502760416667
 30
0.0
  0
VERTEX
  5
13B
  8
0
 62
     7
 10
695.4820809405542
 20
38.74353454780736
 30
0.0
  0
VERTEX
  5
13C
  8
0
 62
     7
 10
696.3866716563787
 20
37.99823014403292
 30
0.0
  0
VERTEX
  5
13D
  8
0
 62
     7
 10
697.1154712456596
 20
37.25248721788195
 30
0.0
  0
VERTEX
  5
13E
  8
0
 62
     7
 10
697.6517515496398
 20
36.509678594393
 30
0.0
  0
VERTEX
  5
13F
  8
0
 62
     7
 10
697.9787844095614
 20
35.77317709860468
 30
0.0
  0
VERTEX
  5
140
  8
0
 62
     7
 10
698.0798416666665
 20
35.04635555555555
 30
0.0
  0
SEQEND
  5
141
  8
0
 62
     7
  0
POLYLINE
  5
3F
  8
0
 62
     7
 66
     1
 10
0.0
 20
0.0
 30
0.0
  0
VERTEX
  5
142
  8
0
 62
     7
 10
698.0798416666665
 20
35.04635555555555
 30
0.0
  0
VERTEX
  5
143
  8
0
 62
     7
 10
697.9587339027938
 20
34.330495489728
 30
0.0
  0
VERTEX
  5
144
  8
0
 62
     7
 10
697.6408444283693
 20
33.62576721643517
 30
0.0
  0
VERTEX
  5
145
  8
0
 62
     7
 10
697.1416718858505
 20
32.93400903862847
 30
0.0
  0
VERTEX
  5
146
  8
0
 62
     7
 10
696.4767149176954
 20
32.25705925925925
 30
0.0
  0
VERTEX
  5
147
  8
0
 62
     7
 10
695.6614721663612
 20
31.59675618127893
 30
0.0
  0
VERTEX
  5
148
  8
0
 62
     7
 10
694.7114422743055
 20
30.95493810763888
 30
0.0
  0
VERTEX
  5
149
  8
0
 62
     7
 10
693.6421238839858
 20
30.33344334129051
 30
0.0
  0
VERTEX
  5
14A
  8
0
 62
     7
 10
692.46901563786
 20
29.73411018518518
 30
0.0
  0
VERTEX
  5
14B
  8
0
 62
     7
 10
691.2076161783854
 20
29.1587769422743
 30
0.0
  0
VERTEX
  5
14C
  8
0
 62
     7
 10
689.8734241480196
 20
28.60928191550926
 30
0.0
  0
VERTEX
  5
14D
  8
0
 62
     7
 10
688.48193818922
 20
28.08746340784143
 30
0.0
  0
VERTEX
  5
14E
  8
0
 62
     7
 10
687.0486569444445
 20
27.59515972222222
 30
0.0
  0
VERTEX
  5
14F
  8
0
 62
     7
 10
685.5890790561502
 20
27.134209161603
 30
0.0
  0
VERTEX
  5
150
  8
0
 62
     7
 10
684.1187031667953
 20
26.70645002893518
 30
0.0
  0
VERTEX
  5
151
  8
0
 62
     7
 10
682.6530279188368
 20
26.31372062717014
 30
0.0
  0
VERTEX
  5
152
  8
0
 62
     7
 10
681.2075519547326
 20
25.95785925925926
 30
0.0
  0
VERTEX
  5
153
  8
0
 62
     7
 10
679.7977739169398
 20
25.64070422815394
 30
0.0
  0
VERTEX
  5
154
  8
0
 62
     7
 10
678.4391924479166
 20
25.36409383680555
 30
0.0
  0
VERTEX
  5
155
  8
0
 62
     7
 10
677.1473061901202
 20
25.12986638816551
 30
0.0
  0
VERTEX
  5
156
  8
0
 62
     7
 10
675.9376137860083
 20
24.93986018518518
 30
0.0
  0
VERTEX
  5
157
  8
0
 62
     7
 10
674.8256138780382
 20
24.79591353081597
 30
0.0
  0
VERTEX
  5
158
  8
0
 62
     7
 10
673.8268051086677
 20
24.69986472800926
 30
0.0
  0
VERTEX
  5
159
  8
0
 62
     7
 10
672.9566861203542
 20
24.65355207971643
 30
0.0
  0
VERTEX
  5
15A
  8
0
 62
     7
 10
672.2307555555556
 20
24.65881388888889
 30
0.0
  0
SEQEND
  5
15B
  8
0
 62
     7
  0
POLYLINE
  5
40
  8
0
 62
     7
 66
     1
 10
0.0
 20
0.0
 30
0.0
  0
VERTEX
  5
15C
  8
0
 62
     7
 10
672.2307555555556
 20
24.65881388888889
 30
0.0
  0
VERTEX
  5
15D
  8
0
 62
     7
 10
671.9805722620081
 20
24.06009862979841
 30
0.0
  0
VERTEX
  5
15E
  8
0
 62
     7
 10
671.4484965567129
 20
23.43970269579475
 30
0.0
  0
VERTEX
  5
15F
  8
0
 62
     7
 10
670.655455327691
 20
22.80243314344618
 30
0.0
  0
VERTEX
  5
160
  8
0
 62
     7
 10
669.622375462963
 20
22.15309702932099
 30
0.0
  0
VERTEX
  5
161
  8
0
 62
     7
 10
668.3701838505497
 20
21.49650140998746
 30
0.0
  0
VERTEX
  5
162
  8
0
 62
     7
 10
666.9198073784721
 20
20.83745334201389
 30
0.0
  0
VERTEX
  5
163
  8
0
 62
     7
 10
665.2921729347512
 20
20.18075988196856
 30
0.0
  0
VERTEX
  5
164
  8
0
 62
     7
 10
663.5082074074073
 20
19.53122808641976
 30
0.0
  0
VERTEX
  5
165
  8
0
 62
     7
 10
661.5888376844619
 20
18.89366501193576
 30
0.0
  0
VERTEX
  5
166
  8
0
 62
     7
 10
659.5549906539351
 20
18.27287771508487
 30
0.0
  0
VERTEX
  5
167
  8
0
 62
     7
 10
657.4275932038482
 20
17.67367325243537
 30
0.0
  0
VERTEX
  5
168
  8
0
 62
     7
 10
655.2275722222222
 20
17.10085868055555
 30
0.0
  0
VERTEX
  5
169
  8
0
 62
     7
 10
652.9758545970776
 20
16.5592410560137
 30
0.0
  0
VERTEX
  5
16A
  8
0
 62
     7
 10
650.6933672164353
 20
16.05362743537809
 30
0.0
  0
VERTEX
  5
16B
  8
0
 62
     7
 10
648.4010369683159
 20
15.58882487521701
 30
0.0
  0
VERTEX
  5
16C
  8
0
 62
     7
 10
646.1197907407407
 20
15.16964043209877
 30
0.0
  0
VERTEX
  5
16D
  8
0
 62
     7
 10
643.8705554217302
 20
14.80088116259163
 30
0.0
  0
VERTEX
  5
16E
  8
0
 62
     7
 10
641.6742578993055
 20
14.48735412326389
 30
0.0
  0
VERTEX
  5
16F
  8
0
 62
     7
 10
639.5518250614871
 20
14.23386637068383
 30
0.0
  0
VERTEX
  5
170
  8
0
 62
     7
 10
637.5241837962963
 20
14.04522496141975
 30
0.0
  0
VERTEX
  5
171
  8
0
 62
     7
 10
635.6122609917535
 20
13.92623695203993
 30
0.0
  0
VERTEX
  5
172
  8
0
 62
     7
 10
633.8369835358797
 20
13.88170939911265
 30
0.0
  0
VERTEX
  5
173
  8
0
 62
     7
 10
632.2192783166954
 20
13.91644935920621
 30
0.0
  0
VERTEX
  5
174
  8
0
 62
     7
 10
630.7800722222222
 20
14.03526388888889
 30
0.0
  0
SEQEND
  5
175
  8
0
 62
     7
  0
POLYLINE
  5
41
  8
0
 62
     7
 10
0.0
 20
0.0
 30
0.0
 66
     1
 70
     8
  0
VERTEX
  5
176
  8
0
 62
     7
 10
630.7800722222222
 20
14.03526388888889
 30
0.0
 70
    32
  0
VERTEX
  5
177
  8
0
 62
     7
 10
630.7794970188721
 20
14.02903847374936
 30
0.0
 70
    32
  0
VERTEX
  5
178
  8
0
 62
     7
 10
630.7778371463478
 20
14.01107370434671
 30
0.0
 70
    32
  0
VERTEX
  5
179
  8
0
 62
     7
 10
630.7751912109376
 20
13.98243679470486
 30
0.0
 70
    32
  0
VERTEX
  5
17A
  8
0
 62
     7
 10
630.7716578189302
 20
13.94419495884774
 30
0.0
 70
    32
  0
VERTEX
  5
17B
  8
0
 62
     7
 10
630.767335576614
 20
13.89741541079925
 30
0.0
 70
    32
  0
VERTEX
  5
17C
  8
0
 62
     7
 10
630.7623230902777
 20
13.84316536458333
 30
0.0
 70
    32
  0
VERTEX
  5
17D
  8
0
 62
     7
 10
630.7567189662101
 20
13.7825120342239
 30
0.0
 70
    32
  0
VERTEX
  5
17E
  8
0
 62
     7
 10
630.7506218106996
 20
13.71652263374486
 30
0.0
 70
    32
  0
VERTEX
  5
17F
  8
0
 62
     7
 10
630.7441302300347
 20
13.64626437717014
 30
0.0
 70
    32
  0
VERTEX
  5
180
  8
0
 62
     7
 10
630.7373428305041
 20
13.57280447852366
 30
0.0
 70
    32
  0
VERTEX
  5
181
  8
0
 62
     7
 10
630.7303582183963
 20
13.49721015182935
 30
0.0
 70
    32
  0
VERTEX
  5
182
  8
0
 62
     7
 10
630.7232750000001
 20
13.42054861111111
 30
0.0
 70
    32
  0
VERTEX
  5
183
  8
0
 62
     7
 10
630.7161917816036
 20
13.34388707039287
 30
0.0
 70
    32
  0
VERTEX
  5
184
  8
0
 62
     7
 10
630.7092071694958
 20
13.26829274369856
 30
0.0
 70
    32
  0
VERTEX
  5
185
  8
0
 62
     7
 10
630.7024197699652
 20
13.19483284505208
 30
0.0
 70
    32
  0
VERTEX
  5
186
  8
0
 62
     7
 10
630.6959281893005
 20
13.12457458847737
 30
0.0
 70
    32
  0
VERTEX
  5
187
  8
0
 62
     7
 10
630.6898310337899
 20
13.05858518799833
 30
0.0
 70
    32
  0
VERTEX
  5
188
  8
0
 62
     7
 10
630.6842269097223
 20
12.99793185763889
 30
0.0
 70
    32
  0
VERTEX
  5
189
  8
0
 62
     7
 10
630.679214423386
 20
12.94368181142297
 30
0.0
 70
    32
  0
VERTEX
  5
18A
  8
0
 62
     7
 10
630.6748921810699
 20
12.89690226337449
 30
0.0
 70
    32
  0
VERTEX
  5
18B
  8
0
 62
     7
 10
630.6713587890625
 20
12.85866042751736
 30
0.0
 70
    32
  0
VERTEX
  5
18C
  8
0
 62
     7
 10
630.6687128536523
 20
12.83002351787552
 30
0.0
 70
    32
  0
VERTEX
  5
18D
  8
0
 62
     7
 10
630.6670529811279
 20
12.81205874847287
 30
0.0
 70
    32
  0
VERTEX
  5
18E
  8
0
 62
     7
 10
630.6664777777778
 20
12.80583333333333
 30
0.0
 70
    32
  0
SEQEND
  5
18F
  8
0
 62
     7
  0
POLYLINE
  5
42
  8
0
 62
     7
 10
0.0
 20
0.0
 30
0.0
 66
     1
 70
     8
  0
VERTEX
  5
190
  8
0
 62
     7
 10
630.6664777777778
 20
12.80583333333333
 30
0.0
 70
    32
  0
VERTEX
  5
191
  8
0
 62
     7
 10
630.6733302002958
 20
12.80463648164223
 30
0.0
 70
    32
  0
VERTEX
  5
192
  8
0
 62
     7
 10
630.6931043338477
 20
12.80118270961934
 30
0.0
 70
    32
  0
VERTEX
  5
193
  8
0
 62
     7
 10
630.7246254774307
 20
12.79567719184028
 30
0.0
 70
    32
  0
VERTEX
  5
194
  8
0
 62
     7
 10
630.7667189300412
 20
12.78832510288066
 30
0.0
 70
    32
  0
VERTEX
  5
195
  8
0
 62
     7
 10
630.8182099906765
 20
12.7793316173161
 30
0.0
 70
    32
  0
VERTEX
  5
196
  8
0
 62
     7
 10
630.8779239583333
 20
12.76890190972222
 30
0.0
 70
    32
  0
VERTEX
  5
197
  8
0
 62
     7
 10
630.9446861320088
 20
12.75724115467464
 30
0.0
 70
    32
  0
VERTEX
  5
198
  8
0
 62
     7
 10
631.0173218106995
 20
12.74455452674897
 30
0.0
 70
    32
  0
VERTEX
  5
199
  8
0
 62
     7
 10
631.0946562934029
 20
12.73104720052083
 30
0.0
 70
    32
  0
VERTEX
  5
19A
  8
0
 62
     7
 10
631.1755148791153
 20
12.71692435056584
 30
0.0
 70
    32
  0
VERTEX
  5
19B
  8
0
 62
     7
 10
631.2587228668339
 20
12.70239115145962
 30
0.0
 70
    32
  0
VERTEX
  5
19C
  8
0
 62
     7
 10
631.3431055555556
 20
12.68765277777778
 30
0.0
 70
    32
  0
VERTEX
  5
19D
  8
0
 62
     7
 10
631.4274882442772
 20
12.67291440409594
 30
0.0
 70
    32
  0
VERTEX
  5
19E
  8
0
 62
     7
 10
631.5106962319959
 20
12.65838120498971
 30
0.0
 70
    32
  0
VERTEX
  5
19F
  8
0
 62
     7
 10
631.5915548177082
 20
12.64425835503472
 30
0.0
 70
    32
  0
VERTEX
  5
1A0
  8
0
 62
     7
 10
631.6688893004115
 20
12.63075102880658
 30
0.0
 70
    32
  0
VERTEX
  5
1A1
  8
0
 62
     7
 10
631.7415249791023
 20
12.61806440088091
 30
0.0
 70
    32
  0
VERTEX
  5
1A2
  8
0
 62
     7
 10
631.8082871527779
 20
12.60640364583333
 30
0.0
 70
    32
  0
VERTEX
  5
1A3
  8
0
 62
     7
 10
631.8680011204347
 20
12.59597393823945
 30
0.0
 70
    32
  0
VERTEX
  5
1A4
  8
0
 62
     7
 10
631.9194921810699
 20
12.5869804526749
 30
0.0
 70
    32
  0
VERTEX
  5
1A5
  8
0
 62
     7
 10
631.9615856336804
 20
12.57962836371528
 30
0.0
 70
    32
  0
VERTEX
  5
1A6
  8
0
 62
     7
 10
631.9931067772633
 20
12.57412284593621
 30
0.0
 70
    32
  0
VERTEX
  5
1A7
  8
0
 62
     7
 10
632.0128809108153
 20
12.57066907391332
 30
0.0
 70
    32
  0
VERTEX
  5
1A8
  8
0
 62
     7
 10
632.0197333333333
 20
12.56947222222222
 30
0.0
 70
    32
  0
SEQEND
  5
1A9
  8
0
 62
     7
  0
POLYLINE
  5
43
  8
0
 62
     7
 10
0.0
 20
0.0
 30
0.0
 66
     1
 70
     8
  0
VERTEX
  5
1AA
  8
0
 62
     7
 10
632.0197333333333
 20
12.56947222222222
 30
0.0
 70
    32
  0
VERTEX
  5
1AB
  8
0
 62
     7
 10
632.0217715538997
 20
12.54584958526235
 30
0.0
 70
    32
  0
VERTEX
  5
1AC
  8
0
 62
     7
 10
632.0276532761059
 20
12.47768140432099
 30
0.0
 70
    32
  0
VERTEX
  5
1AD
  8
0
 62
     7
 10
632.0370290907117
 20
12.36901727430556
 30
0.0
 70
    32
  0
VERTEX
  5
1AE
  8
0
 62
     7
 10
632.0495495884774
 20
12.22390679012346
 30
0.0
 70
    32
  0
VERTEX
  5
1AF
  8
0
 62
     7
 10
632.0648653601627
 20
12.0463995466821
 30
0.0
 70
    32
  0
VERTEX
  5
1B0
  8
0
 62
     7
 10
632.0826269965278
 20
11.84054513888889
 30
0.0
 70
    32
  0
VERTEX
  5
1B1
  8
0
 62
     7
 10
632.1024850883327
 20
11.61039316165123
 30
0.0
 70
    32
  0
VERTEX
  5
1B2
  8
0
 62
     7
 10
632.1240902263374
 20
11.35999320987654
 30
0.0
 70
    32
  0
VERTEX
  5
1B3
  8
0
 62
     7
 10
632.1470930013021
 20
11.09339487847222
 30
0.0
 70
    32
  0
VERTEX
  5
1B4
  8
0
 62
     7
 10
632.1711440039867
 20
10.81464776234568
 30
0.0
 70
    32
  0
VERTEX
  5
1B5
  8
0
 62
     7
 10
632.1958938251511
 20
10.52780145640432
 30
0.0
 70
    32
  0
VERTEX
  5
1B6
  8
0
 62
     7
 10
632.2209930555555
 20
10.23690555555556
 30
0.0
 70
    32
  0
VERTEX
  5
1B7
  8
0
 62
     7
 10
632.24609228596
 20
9.946009654706792
 30
0.0
 70
    32
  0
VERTEX
  5
1B8
  8
0
 62
     7
 10
632.2708421071245
 20
9.659163348765432
 30
0.0
 70
    32
  0
VERTEX
  5
1B9
  8
0
 62
     7
 10
632.294893109809
 20
9.38041623263889
 30
0.0
 70
    32
  0
VERTEX
  5
1BA
  8
0
 62
     7
 10
632.3178958847736
 20
9.113817901234569
 30
0.0
 70
    32
  0
VERTEX
  5
1BB
  8
0
 62
     7
 10
632.3395010227784
 20
8.863417949459878
 30
0.0
 70
    32
  0
VERTEX
  5
1BC
  8
0
 62
     7
 10
632.3593591145834
 20
8.633265972222224
 30
0.0
 70
    32
  0
VERTEX
  5
1BD
  8
0
 62
     7
 10
632.3771207509485
 20
8.427411564429015
 30
0.0
 70
    32
  0
VERTEX
  5
1BE
  8
0
 62
     7
 10
632.3924365226338
 20
8.249904320987655
 30
0.0
 70
    32
  0
VERTEX
  5
1BF
  8
0
 62
     7
 10
632.4049570203994
 20
8.104793836805557
 30
0.0
 70
    32
  0
VERTEX
  5
1C0
  8
0
 62
     7
 10
632.4143328350051
 20
7.996129706790125
 30
0.0
 70
    32
  0
VERTEX
  5
1C1
  8
0
 62
     7
 10
632.4202145572114
 20
7.927961525848766
 30
0.0
 70
    32
  0
VERTEX
  5
1C2
  8
0
 62
     7
 10
632.4222527777778
 20
7.904338888888889
 30
0.0
 70
    32
  0
SEQEND
  5
1C3
  8
0
 62
     7
  0
POLYLINE
  5
44
  8
0
 62
     7
 66
     1
 10
0.0
 20
0.0
 30
0.0
  0
VERTEX
  5
1C4
  8
0
 62
     7
 10
632.4222527777778
 20
7.904338888888889
 30
0.0
  0
VERTEX
  5
1C5
  8
0
 62
     7
 10
631.936325581115
 20
7.62724809811439
 30
0.0
  0
VERTEX
  5
1C6
  8
0
 62
     7
 10
631.2423532021604
 20
7.390103419174382
 30
0.0
  0
VERTEX
  5
1C7
  8
0
 62
     7
 10
630.3557494574652
 20
7.193641183810763
 30
0.0
  0
VERTEX
  5
1C8
  8
0
 62
     7
 10
629.2919281635802
 20
7.038597723765433
 30
0.0
  0
VERTEX
  5
1C9
  8
0
 62
     7
 10
628.0663031370561
 20
6.925709370780285
 30
0.0
  0
VERTEX
  5
1CA
  8
0
 62
     7
 10
626.6942881944444
 20
6.855712456597223
 30
0.0
  0
VERTEX
  5
1CB
  8
0
 62
     7
 10
625.1912971522955
 20
6.829343312958141
 30
0.0
  0
VERTEX
  5
1CC
  8
0
 62
     7
 10
623.5727438271604
 20
6.847338271604938
 30
0.0
  0
VERTEX
  5
1CD
  8
0
 62
     7
 10
621.8540420355903
 20
6.910433664279513
 30
0.0
  0
VERTEX
  5
1CE
  8
0
 62
     7
 10
620.0506055941357
 20
7.019365822723765
 30
0.0
  0
VERTEX
  5
1CF
  8
0
 62
     7
 10
618.177848319348
 20
7.174871078679591
 30
0.0
  0
VERTEX
  5
1D0
  8
0
 62
     7
 10
616.2511840277778
 20
7.377685763888888
 30
0.0
  0
VERTEX
  5
1D1
  8
0
 62
     7
 10
614.2860265359761
 20
7.628546210093557
 30
0.0
  0
VERTEX
  5
1D2
  8
0
 62
     7
 10
612.2977896604939
 20
7.928188749035494
 30
0.0
  0
VERTEX
  5
1D3
  8
0
 62
     7
 10
610.3018872178819
 20
8.277349712456596
 30
0.0
  0
VERTEX
  5
1D4
  8
0
 62
     7
 10
608.3137330246913
 20
8.676765432098763
 30
0.0
  0
VERTEX
  5
1D5
  8
0
 62
     7
 10
606.3487408974729
 20
9.127172239703894
 30
0.0
  0
VERTEX
  5
1D6
  8
0
 62
     7
 10
604.4223246527778
 20
9.629306467013885
 30
0.0
  0
VERTEX
  5
1D7
  8
0
 62
     7
 10
602.5498981071567
 20
10.18390444577064
 30
0.0
  0
VERTEX
  5
1D8
  8
0
 62
     7
 10
600.7468750771604
 20
10.79170250771604
 30
0.0
  0
VERTEX
  5
1D9
  8
0
 62
     7
 10
599.0286693793403
 20
11.45343698459201
 30
0.0
  0
VERTEX
  5
1DA
  8
0
 62
     7
 10
597.4106948302468
 20
12.16984420814042
 30
0.0
  0
VERTEX
  5
1DB
  8
0
 62
     7
 10
595.9083652464312
 20
12.94166051010319
 30
0.0
  0
VERTEX
  5
1DC
  8
0
 62
     7
 10
594.5370944444444
 20
13.76962222222222
 30
0.0
  0
SEQEND
  5
1DD
  8
0
 62
     7
  0
POLYLINE
  5
45
  8
0
 62
     7
 66
     1
 10
0.0
 20
0.0
 30
0.0
  0
VERTEX
  5
1DE
  8
0
 62
     7
 10
594.5370944444444
 20
13.76962222222222
 30
0.0
  0
VERTEX
  5
1DF
  8
0
 62
     7
 10
590.8457433288322
 20
13.24111122102462
 30
0.0
  0
VERTEX
  5
1E0
  8
0
 62
     7
 10
585.9477623713991
 20
12.94265006912294
 30
0.0
  0
VERTEX
  5
1E1
  8
0
 62
     7
 10
579.9582330729165
 20
12.85751321072048
 30
0.0
  0
VERTEX
  5
1E2
  8
0
 62
     7
 10
572.9922369341564
 20
12.96897509002057
 30
0.0
  0
VERTEX
  5
1E3
  8
0
 62
     7
 10
565.1648554558898
 20
13.26031015122653
 30
0.0
  0
VERTEX
  5
1E4
  8
0
 62
     7
 10
556.5911701388889
 20
13.71479283854167
 30
0.0
  0
VERTEX
  5
1E5
  8
0
 62
     7
 10
547.3862624839248
 20
14.3156975961693
 30
0.0
  0
VERTEX
  5
1E6
  8
0
 62
     7
 10
537.6652139917695
 20
15.04629886831276
 30
0.0
  0
VERTEX
  5
1E7
  8
0
 62
     7
 10
527.5431061631945
 20
15.88987109917535
 30
0.0
  0
VERTEX
  5
1E8
  8
0
 62
     7
 10
517.1350204989711
 20
16.82968873296039
 30
0.0
  0
VERTEX
  5
1E9
  8
0
 62
     7
 10
506.5560384998713
 20
17.84902621387121
 30
0.0
  0
VERTEX
  5
1EA
  8
0
 62
     7
 10
495.9212416666666
 20
18.93115798611111
 30
0.0
  0
VERTEX
  5
1EB
  8
0
 62
     7
 10
485.3457115001286
 20
20.05935849388342
 30
0.0
  0
VERTEX
  5
1EC
  8
0
 62
     7
 10
474.9445295010288
 20
21.21690218139146
 30
0.0
  0
VERTEX
  5
1ED
  8
0
 62
     7
 10
464.8327771701389
 20
22.38706349283854
 30
0.0
  0
VERTEX
  5
1EE
  8
0
 62
     7
 10
455.1255360082304
 20
23.55311687242798
 30
0.0
  0
VERTEX
  5
1EF
  8
0
 62
     7
 10
445.9378875160752
 20
24.6983367643631
 30
0.0
  0
VERTEX
  5
1F0
  8
0
 62
     7
 10
437.3849131944444
 20
25.80599761284721
 30
0.0
  0
VERTEX
  5
1F1
  8
0
 62
     7
 10
429.5816945441101
 20
26.85937386208365
 30
0.0
  0
VERTEX
  5
1F2
  8
0
 62
     7
 10
422.6433130658436
 20
27.84173995627571
 30
0.0
  0
VERTEX
  5
1F3
  8
0
 62
     7
 10
416.6848502604167
 20
28.73637033962673
 30
0.0
  0
VERTEX
  5
1F4
  8
0
 62
     7
 10
411.8213876286008
 20
29.52653945634001
 30
0.0
  0
VERTEX
  5
1F5
  8
0
 62
     7
 10
408.1680066711677
 20
30.19552175061888
 30
0.0
  0
VERTEX
  5
1F6
  8
0
 62
     7
 10
405.8397888888888
 20
30.72659166666667
 30
0.0
  0
SEQEND
  5
1F7
  8
0
 62
     7
  0
POLYLINE
  5
46
  8
0
 62
     7
 66
     1
 10
0.0
 20
0.0
 30
0.0
  0
VERTEX
  5
1F8
  8
0
 62
     7
 10
405.8397888888888
 20
30.72659166666667
 30
0.0
  0
VERTEX
  5
1F9
  8
0
 62
     7
 10
403.5030254324203
 20
30.66844406909079
 30
0.0
  0
VERTEX
  5
1FA
  8
0
 62
     7
 10
401.266714223251
 20
30.7496920781893
 30
0.0
  0
VERTEX
  5
1FB
  8
0
 62
     7
 10
399.1361677517361
 20
30.97101981336806
 30
0.0
  0
VERTEX
  5
1FC
  8
0
 62
     7
 10
397.1166985082304
 20
31.33311139403292
 30
0.0
  0
VERTEX
  5
1FD
  8
0
 62
     7
 10
395.213618983089
 20
31.83665093958977
 30
0.0
  0
VERTEX
  5
1FE
  8
0
 62
     7
 10
393.4322416666666
 20
32.48232256944445
 30
0.0
  0
VERTEX
  5
1FF
  8
0
 62
     7
 10
391.7778790493184
 20
33.27081040300283
 30
0.0
  0
VERTEX
  5
200
  8
0
 62
     7
 10
390.2558436213992
 20
34.20279855967078
 30
0.0
  0
VERTEX
  5
201
  8
0
 62
     7
 10
388.8714478732638
 20
35.27897115885417
 30
0.0
  0
VERTEX
  5
202
  8
0
 62
     7
 10
387.6300042952674
 20
36.50001231995886
 30
0.0
  0
VERTEX
  5
203
  8
0
 62
     7
 10
386.5368253777649
 20
37.86660616239069
 30
0.0
  0
VERTEX
  5
204
  8
0
 62
     7
 10
385.5972236111111
 20
39.37943680555556
 30
0.0
  0
VERTEX
  5
205
  8
0
 62
     7
 10
384.816511485661
 20
41.03918836885931
 30
0.0
  0
VERTEX
  5
206
  8
0
 62
     7
 10
384.2000014917695
 20
42.84654497170781
 30
0.0
  0
VERTEX
  5
207
  8
0
 62
     7
 10
383.7530061197916
 20
44.80219073350693
 30
0.0
  0
VERTEX
  5
208
  8
0
 62
     7
 10
383.4808378600823
 20
46.90680977366254
 30
0.0
  0
VERTEX
  5
209
  8
0
 62
     7
 10
383.3888092029964
 20
49.16108621158049
 30
0.0
  0
VERTEX
  5
20A
  8
0
 62
     7
 10
383.4822326388889
 20
51.56570416666665
 30
0.0
  0
VERTEX
  5
20B
  8
0
 62
     7
 10
383.7664206581147
 20
54.12134775832688
 30
0.0
  0
VERTEX
  5
20C
  8
0
 62
     7
 10
384.2466857510288
 20
56.82870110596706
 30
0.0
  0
VERTEX
  5
20D
  8
0
 62
     7
 10
384.9283404079861
 20
59.68844832899303
 30
0.0
  0
VERTEX
  5
20E
  8
0
 62
     7
 10
385.8166971193415
 20
62.70127354681068
 30
0.0
  0
VERTEX
  5
20F
  8
0
 62
     7
 10
386.91706837545
 20
65.86786087882584
 30
0.0
  0
VERTEX
  5
210
  8
0
 62
     7
 10
388.2347666666666
 20
69.18889444444444
 30
0.0
  0
SEQEND
  5
211
  8
0
 62
     7
  0
POLYLINE
  5
47
  8
0
 62
     7
 66
     1
 10
0.0
 20
0.0
 30
0.0
  0
VERTEX
  5
212
  8
0
 62
     7
 10
388.2347666666666
 20
69.18889444444444
 30
0.0
  0
VERTEX
  5
213
  8
0
 62
     7
 10
389.2062437837577
 20
71.38245597411105
 30
0.0
  0
VERTEX
  5
214
  8
0
 62
     7
 10
390.2331400848766
 20
73.4707373762217
 30
0.0
  0
VERTEX
  5
215
  8
0
 62
     7
 10
391.3128134114584
 20
75.44626616210937
 30
0.0
  0
VERTEX
  5
216
  8
0
 62
     7
 10
392.4426216049383
 20
77.30156984310699
 30
0.0
  0
VERTEX
  5
217
  8
0
 62
     7
 10
393.6199225067515
 20
79.02917593054751
 30
0.0
  0
VERTEX
  5
218
  8
0
 62
     7
 10
394.8420739583333
 20
80.6216119357639
 30
0.0
  0
VERTEX
  5
219
  8
0
 62
     7
 10
396.1064338011188
 20
82.07140537008905
 30
0.0
  0
VERTEX
  5
21A
  8
0
 62
     7
 10
397.4103598765432
 20
83.37108374485597
 30
0.0
  0
VERTEX
  5
21B
  8
0
 62
     7
 10
398.7512100260417
 20
84.51317457139757
 30
0.0
  0
VERTEX
  5
21C
  8
0
 62
     7
 10
400.1263420910494
 20
85.4902053610468
 30
0.0
  0
VERTEX
  5
21D
  8
0
 62
     7
 10
401.5331139130016
 20
86.29470362513663
 30
0.0
  0
VERTEX
  5
21E
  8
0
 62
     7
 10
402.9688833333333
 20
86.919196875
 30
0.0
  0
VERTEX
  5
21F
  8
0
 62
     7
 10
404.4310081934799
 20
87.35621262196983
 30
0.0
  0
VERTEX
  5
220
  8
0
 62
     7
 10
405.9168463348765
 20
87.5982783773791
 30
0.0
  0
VERTEX
  5
221
  8
0
 62
     7
 10
407.4237555989583
 20
87.63792165256076
 30
0.0
  0
VERTEX
  5
222
  8
0
 62
     7
 10
408.9490938271605
 20
87.46766995884774
 30
0.0
  0
VERTEX
  5
223
  8
0
 62
     7
 10
410.4902188609182
 20
87.08005080757297
 30
0.0
  0
VERTEX
  5
224
  8
0
 62
     7
 10
412.0444885416666
 20
86.46759171006946
 30
0.0
  0
VERTEX
  5
225
  8
0
 62
     7
 10
413.609260710841
 20
85.62282017767006
 30
0.0
  0
VERTEX
  5
226
  8
0
 62
     7
 10
415.1818932098765
 20
84.53826372170782
 30
0.0
  0
VERTEX
  5
227
  8
0
 62
     7
 10
416.7597438802083
 20
83.20644985351564
 30
0.0
  0
VERTEX
  5
228
  8
0
 62
     7
 10
418.3401705632716
 20
81.61990608442646
 30
0.0
  0
VERTEX
  5
229
  8
0
 62
     7
 10
419.9205311005015
 20
79.77115992577322
 30
0.0
  0
VERTEX
  5
22A
  8
0
 62
     7
 10
421.4981833333333
 20
77.65273888888888
 30
0.0
  0
SEQEND
  5
22B
  8
0
 62
     7
  0
POLYLINE
  5
48
  8
0
 62
     7
 10
0.0
 20
0.0
 30
0.0
 66
     1
 70
     8
  0
VERTEX
  5
22C
  8
0
 62
     7
 10
421.4981833333333
 20
77.65273888888888
 30
0.0
 70
    32
  0
VERTEX
  5
22D
  8
0
 62
     7
 10
421.5519201879179
 20
77.5805687319155
 30
0.0
 70
    32
  0
VERTEX
  5
22E
  8
0
 62
     7
 10
421.7069893968621
 20
77.37230627893517
 30
0.0
 70
    32
  0
VERTEX
  5
22F
  8
0
 62
     7
 10
421.9541789279514
 20
77.04032355685763
 30
0.0
 70
    32
  0
VERTEX
  5
230
  8
0
 62
     7
 10
422.2842767489711
 20
76.59699259259258
 30
0.0
 70
    32
  0
VERTEX
  5
231
  8
0
 62
     7
 10
422.6880708277071
 20
76.05468541304975
 30
0.0
 70
    32
  0
VERTEX
  5
232
  8
0
 62
     7
 10
423.1563491319444
 20
75.42577404513888
 30
0.0
 70
    32
  0
VERTEX
  5
233
  8
0
 62
     7
 10
423.6798996294689
 20
74.72263051576967
 30
0.0
 70
    32
  0
VERTEX
  5
234
  8
0
 62
     7
 10
424.2495102880658
 20
73.95762685185184
 30
0.0
 70
    32
  0
VERTEX
  5
235
  8
0
 62
     7
 10
424.8559690755208
 20
73.14313508029514
 30
0.0
 70
    32
  0
VERTEX
  5
236
  8
0
 62
     7
 10
425.4900639596193
 20
72.29152722800926
 30
0.0
 70
    32
  0
VERTEX
  5
237
  8
0
 62
     7
 10
426.1425829081468
 20
71.41517532190393
 30
0.0
 70
    32
  0
VERTEX
  5
238
  8
0
 62
     7
 10
426.8043138888889
 20
70.52645138888889
 30
0.0
 70
    32
  0
VERTEX
  5
239
  8
0
 62
     7
 10
427.4660448696309
 20
69.63772745587383
 30
0.0
 70
    32
  0
VERTEX
  5
23A
  8
0
 62
     7
 10
428.1185638181584
 20
68.76137554976852
 30
0.0
 70
    32
  0
VERTEX
  5
23B
  8
0
 62
     7
 10
428.752658702257
 20
67.90976769748262
 30
0.0
 70
    32
  0
VERTEX
  5
23C
  8
0
 62
     7
 10
429.359117489712
 20
67.09527592592593
 30
0.0
 70
    32
  0
VERTEX
  5
23D
  8
0
 62
     7
 10
429.9287281483089
 20
66.3302722620081
 30
0.0
 70
    32
  0
VERTEX
  5
23E
  8
0
 62
     7
 10
430.4522786458334
 20
65.6271287326389
 30
0.0
 70
    32
  0
VERTEX
  5
23F
  8
0
 62
     7
 10
430.9205569500708
 20
64.998217364728
 30
0.0
 70
    32
  0
VERTEX
  5
240
  8
0
 62
     7
 10
431.3243510288066
 20
64.45591018518519
 30
0.0
 70
    32
  0
VERTEX
  5
241
  8
0
 62
     7
 10
431.6544488498264
 20
64.01257922092014
 30
0.0
 70
    32
  0
VERTEX
  5
242
  8
0
 62
     7
 10
431.9016383809156
 20
63.68059649884259
 30
0.0
 70
    32
  0
VERTEX
  5
243
  8
0
 62
     7
 10
432.0567075898598
 20
63.47233404586225
 30
0.0
 70
    32
  0
VERTEX
  5
244
  8
0
 62
     7
 10
432.1104444444445
 20
63.40016388888888
 30
0.0
 70
    32
  0
SEQEND
  5
245
  8
0
 62
     7
  0
POLYLINE
  5
49
  8
0
 62
     7
 66
     1
 10
0.0
 20
0.0
 30
0.0
  0
VERTEX
  5
246
  8
0
 62
     7
 10
432.1104444444445
 20
63.40016388888888
 30
0.0
  0
VERTEX
  5
247
  8
0
 62
     7
 10
432.8978284694091
 20
62.3399078860436
 30
0.0
  0
VERTEX
  5
248
  8
0
 62
     7
 10
433.7195198270318
 20
61.36316742862655
 30
0.0
  0
VERTEX
  5
249
  8
0
 62
     7
 10
434.5723909830729
 20
60.46684009331597
 30
0.0
  0
VERTEX
  5
24A
  8
0
 62
     7
 10
435.4533144032922
 20
59.64782345679012
 30
0.0
  0
VERTEX
  5
24B
  8
0
 62
     7
 10
436.3591625534497
 20
58.90301509572723
 30
0.0
  0
VERTEX
  5
24C
  8
0
 62
     7
 10
437.2868078993055
 20
58.22931258680556
 30
0.0
  0
VERTEX
  5
24D
  8
0
 62
     7
 10
438.2331229066197
 20
57.62361350670332
 30
0.0
  0
VERTEX
  5
24E
  8
0
 62
     7
 10
439.1949800411523
 20
57.08281543209877
 30
0.0
  0
VERTEX
  5
24F
  8
0
 62
     7
 10
440.1692517686632
 20
56.60381593967014
 30
0.0
  0
VERTEX
  5
250
  8
0
 62
     7
 10
441.1528105549125
 20
56.18351260609568
 30
0.0
  0
VERTEX
  5
251
  8
0
 62
     7
 10
442.1425288656604
 20
55.81880300805362
 30
0.0
  0
VERTEX
  5
252
  8
0
 62
     7
 10
443.1352791666666
 20
55.50658472222222
 30
0.0
  0
VERTEX
  5
253
  8
0
 62
     7
 10
444.1279339236915
 20
55.24375532527971
 30
0.0
  0
VERTEX
  5
254
  8
0
 62
     7
 10
445.1173656024948
 20
55.02721239390433
 30
0.0
  0
VERTEX
  5
255
  8
0
 62
     7
 10
446.1004466688368
 20
54.85385350477431
 30
0.0
  0
VERTEX
  5
256
  8
0
 62
     7
 10
447.0740495884774
 20
54.7205762345679
 30
0.0
  0
VERTEX
  5
257
  8
0
 62
     7
 10
448.0350468271765
 20
54.62427815996335
 30
0.0
  0
VERTEX
  5
258
  8
0
 62
     7
 10
448.9803108506944
 20
54.56185685763889
 30
0.0
  0
VERTEX
  5
259
  8
0
 62
     7
 10
449.906714124791
 20
54.53020990427276
 30
0.0
  0
VERTEX
  5
25A
  8
0
 62
     7
 10
450.8111291152263
 20
54.52623487654321
 30
0.0
  0
VERTEX
  5
25B
  8
0
 62
     7
 10
451.6904282877604
 20
54.54682935112847
 30
0.0
  0
VERTEX
  5
25C
  8
0
 62
     7
 10
452.5414841081532
 20
54.58889090470679
 30
0.0
  0
VERTEX
  5
25D
  8
0
 62
     7
 10
453.3611690421649
 20
54.64931711395641
 30
0.0
  0
VERTEX
  5
25E
  8
0
 62
     7
 10
454.1463555555555
 20
54.72500555555555
 30
0.0
  0
SEQEND
  5
25F
  8
0
 62
     7
  0
POLYLINE
  5
4A
  8
0
 62
     7
 66
     1
 10
0.0
 20
0.0
 30
0.0
  0
VERTEX
  5
260
  8
0
 62
     7
 10
454.1463555555555
 20
54.72500555555555
 30
0.0
  0
VERTEX
  5
261
  8
0
 62
     7
 10
456.6136946638695
 20
54.98535052826807
 30
0.0
  0
VERTEX
  5
262
  8
0
 62
     7
 10
459.2716752507716
 20
55.27338779095936
 30
0.0
  0
VERTEX
  5
263
  8
0
 62
     7
 10
462.108437000868
 20
55.58529481879341
 30
0.0
  0
VERTEX
  5
264
  8
0
 62
     7
 10
465.1121195987654
 20
55.91724908693416
 30
0.0
  0
VERTEX
  5
265
  8
0
 62
     7
 10
468.2708627290702
 20
56.26542807054559
 30
0.0
  0
VERTEX
  5
266
  8
0
 62
     7
 10
471.5728060763888
 20
56.62600924479167
 30
0.0
  0
VERTEX
  5
267
  8
0
 62
     7
 10
475.0060893253279
 20
56.99517008483635
 30
0.0
  0
VERTEX
  5
268
  8
0
 62
     7
 10
478.5588521604938
 20
57.36908806584363
 30
0.0
  0
VERTEX
  5
269
  8
0
 62
     7
 10
482.219234266493
 20
57.74394066297743
 30
0.0
  0
VERTEX
  5
26A
  8
0
 62
     7
 10
485.9753753279322
 20
58.11590535140175
 30
0.0
  0
VERTEX
  5
26B
  8
0
 62
     7
 10
489.8154150294174
 20
58.48115960628054
 30
0.0
  0
VERTEX
  5
26C
  8
0
 62
     7
 10
493.7274930555556
 20
58.83588090277777
 30
0.0
  0
VERTEX
  5
26D
  8
0
 62
     7
 10
497.6997490909529
 20
59.17624671605742
 30
0.0
  0
VERTEX
  5
26E
  8
0
 62
     7
 10
501.720322820216
 20
59.49843452128344
 30
0.0
  0
VERTEX
  5
26F
  8
0
 62
     7
 10
505.7773539279513
 20
59.79862179361979
 30
0.0
  0
VERTEX
  5
270
  8
0
 62
     7
 10
509.8589820987654
 20
60.07298600823044
 30
0.0
  0
VERTEX
  5
271
  8
0
 62
     7
 10
513.9533470172646
 20
60.31770464027938
 30
0.0
  0
VERTEX
  5
272
  8
0
 62
     7
 10
518.0485883680554
 20
60.52895516493055
 30
0.0
  0
VERTEX
  5
273
  8
0
 62
     7
 10
522.1328458357445
 20
60.70291505734792
 30
0.0
  0
VERTEX
  5
274
  8
0
 62
     7
 10
526.1942591049383
 20
60.83576179269546
 30
0.0
  0
VERTEX
  5
275
  8
0
 62
     7
 10
530.2209678602431
 20
60.92367284613714
 30
0.0
  0
VERTEX
  5
276
  8
0
 62
     7
 10
534.2011117862654
 20
60.96282569283693
 30
0.0
  0
VERTEX
  5
277
  8
0
 62
     7
 10
538.1228305676119
 20
60.94939780795879
 30
0.0
  0
VERTEX
  5
278
  8
0
 62
     7
 10
541.9742638888889
 20
60.87956666666666
 30
0.0
  0
SEQEND
  5
279
  8
0
 62
     7
  0
POLYLINE
  5
4B
  8
0
 62
     7
 66
     1
 10
0.0
 20
0.0
 30
0.0
  0
VERTEX
  5
27A
  8
0
 62
     7
 10
676.7392555555556
 20
70.60035833333333
 30
0.0
  0
VERTEX
  5
27B
  8
0
 62
     7
 10
676.7091425373345
 20
71.23775946281025
 30
0.0
  0
VERTEX
  5
27C
  8
0
 62
     7
 10
676.6471721852495
 20
71.86829780896348
 30
0.0
  0
VERTEX
  5
27D
  8
0
 62
     7
 10
676.5559454698351
 20
72.49061539171007
 30
0.0
  0
VERTEX
  5
27E
  8
0
 62
     7
 10
676.4380633616256
 20
73.10335423096708
 30
0.0
  0
VERTEX
  5
27F
  8
0
 62
     7
 10
676.2961268311552
 20
73.70515634665155
 30
0.0
  0
VERTEX
  5
280
  8
0
 62
     7
 10
676.1327368489583
 20
74.29466375868056
 30
0.0
  0
VERTEX
  5
281
  8
0
 62
     7
 10
675.9504943855694
 20
74.87051848697112
 30
0.0
  0
VERTEX
  5
282
  8
0
 62
     7
 10
675.7520004115227
 20
75.43136255144032
 30
0.0
  0
VERTEX
  5
283
  8
0
 62
     7
 10
675.5398558973524
 20
75.97583797200521
 30
0.0
  0
VERTEX
  5
284
  8
0
 62
     7
 10
675.3166618135931
 20
76.50258676858283
 30
0.0
  0
VERTEX
  5
285
  8
0
 62
     7
 10
675.0850191307791
 20
77.01025096109021
 30
0.0
  0
VERTEX
  5
286
  8
0
 62
     7
 10
674.8475288194445
 20
77.49747256944443
 30
0.0
  0
VERTEX
  5
287
  8
0
 62
     7
 10
674.6067918501238
 20
77.96289361356256
 30
0.0
  0
VERTEX
  5
288
  8
0
 62
     7
 10
674.3654091933514
 20
78.40515611336163
 30
0.0
  0
VERTEX
  5
289
  8
0
 62
     7
 10
674.1259818196614
 20
78.82290208875867
 30
0.0
  0
VERTEX
  5
28A
  8
0
 62
     7
 10
673.8911106995885
 20
79.21477355967077
 30
0.0
  0
VERTEX
  5
28B
  8
0
 62
     7
 10
673.6633968036666
 20
79.57941254601498
 30
0.0
  0
VERTEX
  5
28C
  8
0
 62
     7
 10
673.4454411024306
 20
79.91546106770832
 30
0.0
  0
VERTEX
  5
28D
  8
0
 62
     7
 10
673.2398445664144
 20
80.22156114466787
 30
0.0
  0
VERTEX
  5
28E
  8
0
 62
     7
 10
673.0492081661524
 20
80.49635479681069
 30
0.0
  0
VERTEX
  5
28F
  8
0
 62
     7
 10
672.8761328721788
 20
80.7384840440538
 30
0.0
  0
VERTEX
  5
290
  8
0
 62
     7
 10
672.7232196550283
 20
80.94659090631428
 30
0.0
  0
VERTEX
  5
291
  8
0
 62
     7
 10
672.593069485235
 20
81.11931740350919
 30
0.0
  0
VERTEX
  5
292
  8
0
 62
     7
 10
672.4882833333334
 20
81.25530555555555
 30
0.0
  0
SEQEND
  5
293
  8
0
 62
     7
  0
POLYLINE
  5
4C
  8
0
 62
     7
 66
     1
 10
0.0
 20
0.0
 30
0.0
  0
VERTEX
  5
294
  8
0
 62
     7
 10
672.4882833333334
 20
81.25530555555555
 30
0.0
  0
VERTEX
  5
295
  8
0
 62
     7
 10
671.5249956165205
 20
82.35799441671489
 30
0.0
  0
VERTEX
  5
296
  8
0
 62
     7
 10
670.4010995386445
 20
83.4128221739969
 30
0.0
  0
VERTEX
  5
297
  8
0
 62
     7
 10
669.127253000217
 20
84.41945350477431
 30
0.0
  0
VERTEX
  5
298
  8
0
 62
     7
 10
667.714113901749
 20
85.37755308641975
 30
0.0
  0
VERTEX
  5
299
  8
0
 62
     7
 10
666.1723401437516
 20
86.28678559630593
 30
0.0
  0
VERTEX
  5
29A
  8
0
 62
     7
 10
664.512589626736
 20
87.14681571180554
 30
0.0
  0
VERTEX
  5
29B
  8
0
 62
     7
 10
662.7455202512137
 20
87.95730811029128
 30
0.0
  0
VERTEX
  5
29C
  8
0
 62
     7
 10
660.8817899176954
 20
88.7179274691358
 30
0.0
  0
VERTEX
  5
29D
  8
0
 62
     7
 10
658.9320565266926
 20
89.42833846571179
 30
0.0
  0
VERTEX
  5
29E
  8
0
 62
     7
 10
656.9069779787164
 20
90.08820577739198
 30
0.0
  0
VERTEX
  5
29F
  8
0
 62
     7
 10
654.8172121742782
 20
90.697194081549
 30
0.0
  0
VERTEX
  5
2A0
  8
0
 62
     7
 10
652.6734170138889
 20
91.25496805555555
 30
0.0
  0
VERTEX
  5
2A1
  8
0
 62
     7
 10
650.4862503980597
 20
91.76119237678432
 30
0.0
  0
VERTEX
  5
2A2
  8
0
 62
     7
 10
648.2663702273019
 20
92.21553172260803
 30
0.0
  0
VERTEX
  5
2A3
  8
0
 62
     7
 10
646.0244344021266
 20
92.61765077039931
 30
0.0
  0
VERTEX
  5
2A4
  8
0
 62
     7
 10
643.7711008230452
 20
92.96721419753086
 30
0.0
  0
VERTEX
  5
2A5
  8
0
 62
     7
 10
641.5170273905687
 20
93.26388668137538
 30
0.0
  0
VERTEX
  5
2A6
  8
0
 62
     7
 10
639.2728720052083
 20
93.50733289930554
 30
0.0
  0
VERTEX
  5
2A7
  8
0
 62
     7
 10
637.0492925674752
 20
93.69721752869405
 30
0.0
  0
VERTEX
  5
2A8
  8
0
 62
     7
 10
634.8569469778806
 20
93.83320524691356
 30
0.0
  0
VERTEX
  5
2A9
  8
0
 62
     7
 10
632.7064931369356
 20
93.91496073133679
 30
0.0
  0
VERTEX
  5
2AA
  8
0
 62
     7
 10
630.6085889451517
 20
93.94214865933641
 30
0.0
  0
VERTEX
  5
2AB
  8
0
 62
     7
 10
628.5738923030399
 20
93.91443370828509
 30
0.0
  0
VERTEX
  5
2AC
  8
0
 62
     7
 10
626.613061111111
 20
93.83148055555554
 30
0.0
  0
SEQEND
  5
2AD
  8
0
 62
     7
  0
POLYLINE
  5
4D
  8
0
 62
     7
 66
     1
 10
0.0
 20
0.0
 30
0.0
  0
VERTEX
  5
2AE
  8
0
 62
     7
 10
626.613061111111
 20
93.83148055555554
 30
0.0
  0
VERTEX
  5
2AF
  8
0
 62
     7
 10
624.6521032417454
 20
93.91443370828509
 30
0.0
  0
VERTEX
  5
2B0
  8
0
 62
     7
 10
622.6172915589634
 20
93.9421486593364
 30
0.0
  0
VERTEX
  5
2B1
  8
0
 62
     7
 10
620.5192845757377
 20
93.91496073133679
 30
0.0
  0
VERTEX
  5
2B2
  8
0
 62
     7
 10
618.368740805041
 20
93.83320524691356
 30
0.0
  0
VERTEX
  5
2B3
  8
0
 62
     7
 10
616.1763187598459
 20
93.69721752869404
 30
0.0
  0
VERTEX
  5
2B4
  8
0
 62
     7
 10
613.952676953125
 20
93.50733289930554
 30
0.0
  0
VERTEX
  5
2B5
  8
0
 62
     7
 10
611.7084738978508
 20
93.26388668137538
 30
0.0
  0
VERTEX
  5
2B6
  8
0
 62
     7
 10
609.4543681069958
 20
92.96721419753086
 30
0.0
  0
VERTEX
  5
2B7
  8
0
 62
     7
 10
607.201018093533
 20
92.61765077039931
 30
0.0
  0
VERTEX
  5
2B8
  8
0
 62
     7
 10
604.9590823704345
 20
92.21553172260803
 30
0.0
  0
VERTEX
  5
2B9
  8
0
 62
     7
 10
602.7392194506735
 20
91.76119237678432
 30
0.0
  0
VERTEX
  5
2BA
  8
0
 62
     7
 10
600.5520878472222
 20
91.25496805555555
 30
0.0
  0
VERTEX
  5
2BB
  8
0
 62
     7
 10
598.4083460730533
 20
90.697194081549
 30
0.0
  0
VERTEX
  5
2BC
  8
0
 62
     7
 10
596.3186526411394
 20
90.08820577739198
 30
0.0
  0
VERTEX
  5
2BD
  8
0
 62
     7
 10
594.293666064453
 20
89.4283384657118
 30
0.0
  0
VERTEX
  5
2BE
  8
0
 62
     7
 10
592.344044855967
 20
88.7179274691358
 30
0.0
  0
VERTEX
  5
2BF
  8
0
 62
     7
 10
590.4804475286537
 20
87.95730811029128
 30
0.0
  0
VERTEX
  5
2C0
  8
0
 62
     7
 10
588.7135325954861
 20
87.14681571180554
 30
0.0
  0
VERTEX
  5
2C1
  8
0
 62
     7
 10
587.0539585694364
 20
86.28678559630595
 30
0.0
  0
VERTEX
  5
2C2
  8
0
 62
     7
 10
585.5123839634773
 20
85.37755308641975
 30
0.0
  0
VERTEX
  5
2C3
  8
0
 62
     7
 10
584.0994672905815
 20
84.41945350477431
 30
0.0
  0
VERTEX
  5
2C4
  8
0
 62
     7
 10
582.8258670637217
 20
83.4128221739969
 30
0.0
  0
VERTEX
  5
2C5
  8
0
 62
     7
 10
581.7022417958703
 20
82.35799441671489
 30
0.0
  0
VERTEX
  5
2C6
  8
0
 62
     7
 10
580.73925
 20
81.25530555555555
 30
0.0
  0
SEQEND
  5
2C7
  8
0
 62
     7
  0
POLYLINE
  5
4E
  8
0
 62
     7
 66
     1
 10
0.0
 20
0.0
 30
0.0
  0
VERTEX
  5
2C8
  8
0
 62
     7
 10
580.73925
 20
81.25530555555555
 30
0.0
  0
VERTEX
  5
2C9
  8
0
 62
     7
 10
580.499582720068
 20
80.94066613317419
 30
0.0
  0
VERTEX
  5
2CA
  8
0
 62
     7
 10
580.1663331725823
 20
80.48014804687502
 30
0.0
  0
VERTEX
  5
2CB
  8
0
 62
     7
 10
579.7613141710069
 20
79.88513802625867
 30
0.0
  0
VERTEX
  5
2CC
  8
0
 62
     7
 10
579.3063385288066
 20
79.16702280092592
 30
0.0
  0
VERTEX
  5
2CD
  8
0
 62
     7
 10
578.8232190594457
 20
78.33718910047743
 30
0.0
  0
VERTEX
  5
2CE
  8
0
 62
     7
 10
578.3337685763888
 20
77.40702365451388
 30
0.0
  0
VERTEX
  5
2CF
  8
0
 62
     7
 10
577.8597998931006
 20
76.38791319263599
 30
0.0
  0
VERTEX
  5
2D0
  8
0
 62
     7
 10
577.4231258230452
 20
75.29124444444444
 30
0.0
  0
VERTEX
  5
2D1
  8
0
 62
     7
 10
577.0455591796875
 20
74.12840413953992
 30
0.0
  0
VERTEX
  5
2D2
  8
0
 62
     7
 10
576.7489127764918
 20
72.91077900752313
 30
0.0
  0
VERTEX
  5
2D3
  8
0
 62
     7
 10
576.5549994269226
 20
71.64975577799478
 30
0.0
  0
VERTEX
  5
2D4
  8
0
 62
     7
 10
576.4856319444444
 20
70.35672118055555
 30
0.0
  0
VERTEX
  5
2D5
  8
0
 62
     7
 10
576.5626231425219
 20
69.04306194480614
 30
0.0
  0
VERTEX
  5
2D6
  8
0
 62
     7
 10
576.8077858346193
 20
67.72016480034722
 30
0.0
  0
VERTEX
  5
2D7
  8
0
 62
     7
 10
577.2429328342014
 20
66.3994164767795
 30
0.0
  0
VERTEX
  5
2D8
  8
0
 62
     7
 10
577.8898769547325
 20
65.0922037037037
 30
0.0
  0
VERTEX
  5
2D9
  8
0
 62
     7
 10
578.7704310096772
 20
63.8099132107205
 30
0.0
  0
VERTEX
  5
2DA
  8
0
 62
     7
 10
579.9064078125
 20
62.56393172743056
 30
0.0
  0
VERTEX
  5
2DB
  8
0
 62
     7
 10
581.3196201766655
 20
61.36564598343461
 30
0.0
  0
VERTEX
  5
2DC
  8
0
 62
     7
 10
583.0318809156378
 20
60.22644270833334
 30
0.0
  0
VERTEX
  5
2DD
  8
0
 62
     7
 10
585.0650028428819
 20
59.15770863172743
 30
0.0
  0
VERTEX
  5
2DE
  8
0
 62
     7
 10
587.4407987718622
 20
58.1708304832176
 30
0.0
  0
VERTEX
  5
2DF
  8
0
 62
     7
 10
590.1810815160429
 20
57.27719499240451
 30
0.0
  0
VERTEX
  5
2E0
  8
0
 62
     7
 10
593.3076638888889
 20
56.48818888888889
 30
0.0
  0
SEQEND
  5
2E1
  8
0
 62
     7
  0
POLYLINE
  5
4F
  8
0
 62
     7
 66
     1
 10
0.0
 20
0.0
 30
0.0
  0
VERTEX
  5
2E2
  8
0
 62
     7
 10
593.3076638888889
 20
56.48818888888889
 30
0.0
  0
VERTEX
  5
2E3
  8
0
 62
     7
 10
593.8973273254646
 20
56.36720609266493
 30
0.0
  0
VERTEX
  5
2E4
  8
0
 62
     7
 10
594.5925979439944
 20
56.24111766493056
 30
0.0
  0
VERTEX
  5
2E5
  8
0
 62
     7
 10
595.3885201660156
 20
56.111597922092
 30
0.0
  0
VERTEX
  5
2E6
  8
0
 62
     7
 10
596.2801384130659
 20
55.98032118055555
 30
0.0
  0
VERTEX
  5
2E7
  8
0
 62
     7
 10
597.2624971066825
 20
55.84896175672743
 30
0.0
  0
VERTEX
  5
2E8
  8
0
 62
     7
 10
598.3306406684028
 20
55.71919396701388
 30
0.0
  0
VERTEX
  5
2E9
  8
0
 62
     7
 10
599.4796135197643
 20
55.59269212782118
 30
0.0
  0
VERTEX
  5
2EA
  8
0
 62
     7
 10
600.7044600823044
 20
55.47113055555555
 30
0.0
  0
VERTEX
  5
2EB
  8
0
 62
     7
 10
602.0002247775608
 20
55.35618356662326
 30
0.0
  0
VERTEX
  5
2EC
  8
0
 62
     7
 10
603.3619520270705
 20
55.24952547743055
 30
0.0
  0
VERTEX
  5
2ED
  8
0
 62
     7
 10
604.7846862523711
 20
55.15283060438367
 30
0.0
  0
VERTEX
  5
2EE
  8
0
 62
     7
 10
606.2634718749999
 20
55.06777326388889
 30
0.0
  0
VERTEX
  5
2EF
  8
0
 62
     7
 10
607.7933533164946
 20
54.99602777235243
 30
0.0
  0
VERTEX
  5
2F0
  8
0
 62
     7
 10
609.3693749983925
 20
54.93926844618055
 30
0.0
  0
VERTEX
  5
2F1
  8
0
 62
     7
 10
610.9865813422309
 20
54.89916960177951
 30
0.0
  0
VERTEX
  5
2F2
  8
0
 62
     7
 10
612.6400167695473
 20
54.87740555555555
 30
0.0
  0
VERTEX
  5
2F3
  8
0
 62
     7
 10
614.3247257018791
 20
54.87565062391493
 30
0.0
  0
VERTEX
  5
2F4
  8
0
 62
     7
 10
616.0357525607639
 20
54.89557912326389
 30
0.0
  0
VERTEX
  5
2F5
  8
0
 62
     7
 10
617.7681417677388
 20
54.93886537000867
 30
0.0
  0
VERTEX
  5
2F6
  8
0
 62
     7
 10
619.5169377443414
 20
55.00718368055555
 30
0.0
  0
VERTEX
  5
2F7
  8
0
 62
     7
 10
621.2771849121093
 20
55.10220837131076
 30
0.0
  0
VERTEX
  5
2F8
  8
0
 62
     7
 10
623.0439276925797
 20
55.22561375868056
 30
0.0
  0
VERTEX
  5
2F9
  8
0
 62
     7
 10
624.8122105072899
 20
55.37907415907118
 30
0.0
  0
VERTEX
  5
2FA
  8
0
 62
     7
 10
626.5770777777777
 20
55.56426388888889
 30
0.0
  0
SEQEND
  5
2FB
  8
0
 62
     7
  0
POLYLINE
  5
50
  8
0
 62
     7
 10
0.0
 20
0.0
 30
0.0
 66
     1
 70
     8
  0
VERTEX
  5
2FC
  8
0
 62
     7
 10
626.5770777777777
 20
55.56426388888889
 30
0.0
 70
    32
  0
VERTEX
  5
2FD
  8
0
 62
     7
 10
626.5774493377058
 20
55.56426388888889
 30
0.0
 70
    32
  0
VERTEX
  5
2FE
  8
0
 62
     7
 10
626.5785215534979
 20
55.56426388888889
 30
0.0
 70
    32
  0
VERTEX
  5
2FF
  8
0
 62
     7
 10
626.5802307291666
 20
55.56426388888889
 30
0.0
 70
    32
  0
VERTEX
  5
300
  8
0
 62
     7
 10
626.5825131687243
 20
55.56426388888889
 30
0.0
 70
    32
  0
VERTEX
  5
301
  8
0
 62
     7
 10
626.5853051761832
 20
55.56426388888889
 30
0.0
 70
    32
  0
VERTEX
  5
302
  8
0
 62
     7
 10
626.5885430555555
 20
55.56426388888889
 30
0.0
 70
    32
  0
VERTEX
  5
303
  8
0
 62
     7
 10
626.5921631108538
 20
55.56426388888889
 30
0.0
 70
    32
  0
VERTEX
  5
304
  8
0
 62
     7
 10
626.5961016460903
 20
55.56426388888889
 30
0.0
 70
    32
  0
VERTEX
  5
305
  8
0
 62
     7
 10
626.6002949652777
 20
55.56426388888889
 30
0.0
 70
    32
  0
VERTEX
  5
306
  8
0
 62
     7
 10
626.604679372428
 20
55.56426388888889
 30
0.0
 70
    32
  0
VERTEX
  5
307
  8
0
 62
     7
 10
626.6091911715534
 20
55.56426388888889
 30
0.0
 70
    32
  0
VERTEX
  5
308
  8
0
 62
     7
 10
626.6137666666666
 20
55.56426388888889
 30
0.0
 70
    32
  0
VERTEX
  5
309
  8
0
 62
     7
 10
626.6183421617798
 20
55.56426388888889
 30
0.0
 70
    32
  0
VERTEX
  5
30A
  8
0
 62
     7
 10
626.6228539609052
 20
55.56426388888889
 30
0.0
 70
    32
  0
VERTEX
  5
30B
  8
0
 62
     7
 10
626.6272383680555
 20
55.56426388888889
 30
0.0
 70
    32
  0
VERTEX
  5
30C
  8
0
 62
     7
 10
626.6314316872428
 20
55.56426388888889
 30
0.0
 70
    32
  0
VERTEX
  5
30D
  8
0
 62
     7
 10
626.6353702224793
 20
55.56426388888889
 30
0.0
 70
    32
  0
VERTEX
  5
30E
  8
0
 62
     7
 10
626.6389902777778
 20
55.56426388888889
 30
0.0
 70
    32
  0
VERTEX
  5
30F
  8
0
 62
     7
 10
626.64222815715
 20
55.56426388888889
 30
0.0
 70
    32
  0
VERTEX
  5
310
  8
0
 62
     7
 10
626.645020164609
 20
55.56426388888889
 30
0.0
 70
    32
  0
VERTEX
  5
311
  8
0
 62
     7
 10
626.6473026041666
 20
55.56426388888889
 30
0.0
 70
    32
  0
VERTEX
  5
312
  8
0
 62
     7
 10
626.6490117798353
 20
55.56426388888889
 30
0.0
 70
    32
  0
VERTEX
  5
313
  8
0
 62
     7
 10
626.6500839956276
 20
55.56426388888889
 30
0.0
 70
    32
  0
VERTEX
  5
314
  8
0
 62
     7
 10
626.6504555555555
 20
55.56426388888889
 30
0.0
 70
    32
  0
SEQEND
  5
315
  8
0
 62
     7
  0
POLYLINE
  5
51
  8
0
 62
     7
 66
     1
 10
0.0
 20
0.0
 30
0.0
  0
VERTEX
  5
316
  8
0
 62
     7
 10
626.6504555555555
 20
55.56426388888889
 30
0.0
  0
VERTEX
  5
317
  8
0
 62
     7
 10
628.415322826043
 20
55.37907415907118
 30
0.0
  0
VERTEX
  5
318
  8
0
 62
     7
 10
630.1836056407535
 20
55.22561375868055
 30
0.0
  0
VERTEX
  5
319
  8
0
 62
     7
 10
631.9503484212238
 20
55.10220837131076
 30
0.0
  0
VERTEX
  5
31A
  8
0
 62
     7
 10
633.7105955889916
 20
55.00718368055556
 30
0.0
  0
VERTEX
  5
31B
  8
0
 62
     7
 10
635.4593915655944
 20
54.93886537000868
 30
0.0
  0
VERTEX
  5
31C
  8
0
 62
     7
 10
637.1917807725692
 20
54.89557912326389
 30
0.0
  0
VERTEX
  5
31D
  8
0
 62
     7
 10
638.902807631454
 20
54.87565062391494
 30
0.0
  0
VERTEX
  5
31E
  8
0
 62
     7
 10
640.5875165637858
 20
54.87740555555555
 30
0.0
  0
VERTEX
  5
31F
  8
0
 62
     7
 10
642.2409519911023
 20
54.89916960177952
 30
0.0
  0
VERTEX
  5
320
  8
0
 62
     7
 10
643.8581583349408
 20
54.93926844618055
 30
0.0
  0
VERTEX
  5
321
  8
0
 62
     7
 10
645.4341800168386
 20
54.99602777235243
 30
0.0
  0
VERTEX
  5
322
  8
0
 62
     7
 10
646.9640614583333
 20
55.06777326388889
 30
0.0
  0
VERTEX
  5
323
  8
0
 62
     7
 10
648.4428470809623
 20
55.15283060438367
 30
0.0
  0
VERTEX
  5
324
  8
0
 62
     7
 10
649.8655813062628
 20
55.24952547743055
 30
0.0
  0
VERTEX
  5
325
  8
0
 62
     7
 10
651.2273085557724
 20
55.35618356662326
 30
0.0
  0
VERTEX
  5
326
  8
0
 62
     7
 10
652.5230732510287
 20
55.47113055555556
 30
0.0
  0
VERTEX
  5
327
  8
0
 62
     7
 10
653.7479198135688
 20
55.59269212782117
 30
0.0
  0
VERTEX
  5
328
  8
0
 62
     7
 10
654.8968926649304
 20
55.71919396701389
 30
0.0
  0
VERTEX
  5
329
  8
0
 62
     7
 10
655.9650362266509
 20
55.84896175672743
 30
0.0
  0
VERTEX
  5
32A
  8
0
 62
     7
 10
656.9473949202675
 20
55.98032118055556
 30
0.0
  0
VERTEX
  5
32B
  8
0
 62
     7
 10
657.8390131673175
 20
56.11159792209201
 30
0.0
  0
VERTEX
  5
32C
  8
0
 62
     7
 10
658.6349353893389
 20
56.24111766493055
 30
0.0
  0
VERTEX
  5
32D
  8
0
 62
     7
 10
659.3302060078687
 20
56.36720609266493
 30
0.0
  0
VERTEX
  5
32E
  8
0
 62
     7
 10
659.9198694444443
 20
56.48818888888889
 30
0.0
  0
SEQEND
  5
32F
  8
0
 62
     7
  0
POLYLINE
  5
52
  8
0
 62
     7
 66
     1
 10
0.0
 20
0.0
 30
0.0
  0
VERTEX
  5
330
  8
0
 62
     7
 10
659.9198694444443
 20
56.48818888888889
 30
0.0
  0
VERTEX
  5
331
  8
0
 62
     7
 10
661.5570965141138
 20
56.87499451276363
 30
0.0
  0
VERTEX
  5
332
  8
0
 62
     7
 10
663.0919524948558
 20
57.29023243312757
 30
0.0
  0
VERTEX
  5
333
  8
0
 62
     7
 10
664.5272932942707
 20
57.73241130642361
 30
0.0
  0
VERTEX
  5
334
  8
0
 62
     7
 10
665.8659748199586
 20
58.20003978909465
 30
0.0
  0
VERTEX
  5
335
  8
0
 62
     7
 10
667.1108529795202
 20
58.69162653758359
 30
0.0
  0
VERTEX
  5
336
  8
0
 62
     7
 10
668.2647836805554
 20
59.20568020833333
 30
0.0
  0
VERTEX
  5
337
  8
0
 62
     7
 10
669.3306228306649
 20
59.74070945778677
 30
0.0
  0
VERTEX
  5
338
  8
0
 62
     7
 10
670.3112263374485
 20
60.29522294238683
 30
0.0
  0
VERTEX
  5
339
  8
0
 62
     7
 10
671.2094501085069
 20
60.86772931857639
 30
0.0
  0
VERTEX
  5
33A
  8
0
 62
     7
 10
672.0281500514403
 20
61.45673724279835
 30
0.0
  0
VERTEX
  5
33B
  8
0
 62
     7
 10
672.7701820738489
 20
62.06075537149563
 30
0.0
  0
VERTEX
  5
33C
  8
0
 62
     7
 10
673.4384020833332
 20
62.67829236111111
 30
0.0
  0
VERTEX
  5
33D
  8
0
 62
     7
 10
674.0356659874935
 20
63.30785686808771
 30
0.0
  0
VERTEX
  5
33E
  8
0
 62
     7
 10
674.5648296939299
 20
63.94795754886831
 30
0.0
  0
VERTEX
  5
33F
  8
0
 62
     7
 10
675.0287491102431
 20
64.59710305989583
 30
0.0
  0
VERTEX
  5
340
  8
0
 62
     7
 10
675.4302801440328
 20
65.25380205761317
 30
0.0
  0
VERTEX
  5
341
  8
0
 62
     7
 10
675.7722787028999
 20
65.91656319846321
 30
0.0
  0
VERTEX
  5
342
  8
0
 62
     7
 10
676.0576006944443
 20
66.58389513888889
 30
0.0
  0
VERTEX
  5
343
  8
0
 62
     7
 10
676.2891020262666
 20
67.25430653533309
 30
0.0
  0
VERTEX
  5
344
  8
0
 62
     7
 10
676.469638605967
 20
67.92630604423867
 30
0.0
  0
VERTEX
  5
345
  8
0
 62
     7
 10
676.6020663411458
 20
68.59840232204861
 30
0.0
  0
VERTEX
  5
346
  8
0
 62
     7
 10
676.6892411394034
 20
69.26910402520576
 30
0.0
  0
VERTEX
  5
347
  8
0
 62
     7
 10
676.7340189083397
 20
69.93691981015301
 30
0.0
  0
VERTEX
  5
348
  8
0
 62
     7
 10
676.7392555555556
 20
70.60035833333333
 30
0.0
  0
SEQEND
  5
349
  8
0
 62
     7
  0
POLYLINE
  5
53
  8
0
 62
     7
 66
     1
 10
0.0
 20
0.0
 30
0.0
  0
VERTEX
  5
34A
  8
0
 62
     7
 10
362.7575083333333
 20
63.36241666666667
 30
0.0
  0
VERTEX
  5
34B
  8
0
 62
     7
 10
362.7046010577417
 20
64.20646848034015
 30
0.0
  0
VERTEX
  5
34C
  8
0
 62
     7
 10
362.5672892489712
 20
65.04441497235082
 30
0.0
  0
VERTEX
  5
34D
  8
0
 62
     7
 10
362.3440858506945
 20
65.87613334418403
 30
0.0
  0
VERTEX
  5
34E
  8
0
 62
     7
 10
362.0335038065843
 20
66.70150079732511
 30
0.0
  0
VERTEX
  5
34F
  8
0
 62
     7
 10
361.6340560603138
 20
67.52039453325939
 30
0.0
  0
VERTEX
  5
350
  8
0
 62
     7
 10
361.1442555555556
 20
68.33269175347223
 30
0.0
  0
VERTEX
  5
351
  8
0
 62
     7
 10
360.5626152359825
 20
69.13826965944895
 30
0.0
  0
VERTEX
  5
352
  8
0
 62
     7
 10
359.8876480452675
 20
69.9370054526749
 30
0.0
  0
VERTEX
  5
353
  8
0
 62
     7
 10
359.1178669270833
 20
70.72877633463543
 30
0.0
  0
VERTEX
  5
354
  8
0
 62
     7
 10
358.2517848251028
 20
71.51345950681585
 30
0.0
  0
VERTEX
  5
355
  8
0
 62
     7
 10
357.2879146829989
 20
72.29093217070152
 30
0.0
  0
VERTEX
  5
356
  8
0
 62
     7
 10
356.2247694444444
 20
73.06107152777777
 30
0.0
  0
VERTEX
  5
357
  8
0
 62
     7
 10
355.0608620531121
 20
73.82375477952996
 30
0.0
  0
VERTEX
  5
358
  8
0
 62
     7
 10
353.7947054526749
 20
74.57885912744342
 30
0.0
  0
VERTEX
  5
359
  8
0
 62
     7
 10
352.4248125868056
 20
75.32626177300347
 30
0.0
  0
VERTEX
  5
35A
  8
0
 62
     7
 10
350.949696399177
 20
76.06583991769547
 30
0.0
  0
VERTEX
  5
35B
  8
0
 62
     7
 10
349.3678698334619
 20
76.79747076300475
 30
0.0
  0
VERTEX
  5
35C
  8
0
 62
     7
 10
347.6778458333333
 20
77.52103151041666
 30
0.0
  0
VERTEX
  5
35D
  8
0
 62
     7
 10
345.878137342464
 20
78.23639936141652
 30
0.0
  0
VERTEX
  5
35E
  8
0
 62
     7
 10
343.9672573045268
 20
78.9434515174897
 30
0.0
  0
VERTEX
  5
35F
  8
0
 62
     7
 10
341.9437186631944
 20
79.64206518012152
 30
0.0
  0
VERTEX
  5
360
  8
0
 62
     7
 10
339.8060343621399
 20
80.33211755079732
 30
0.0
  0
VERTEX
  5
361
  8
0
 62
     7
 10
337.552717345036
 20
81.01348583100243
 30
0.0
  0
VERTEX
  5
362
  8
0
 62
     7
 10
335.1822805555556
 20
81.68604722222221
 30
0.0
  0
SEQEND
  5
363
  8
0
 62
     7
  0
POLYLINE
  5
54
  8
0
 62
     7
 66
     1
 10
0.0
 20
0.0
 30
0.0
  0
VERTEX
  5
364
  8
0
 62
     7
 10
335.1822805555556
 20
81.68604722222221
 30
0.0
  0
VERTEX
  5
365
  8
0
 62
     7
 10
333.6946584671586
 20
82.12153219843107
 30
0.0
  0
VERTEX
  5
366
  8
0
 62
     7
 10
331.7439650173611
 20
82.60657020318928
 30
0.0
  0
VERTEX
  5
367
  8
0
 62
     7
 10
329.3413760959201
 20
83.13418897569444
 30
0.0
  0
VERTEX
  5
368
  8
0
 62
     7
 10
326.4980675925926
 20
83.69741625514402
 30
0.0
  0
VERTEX
  5
369
  8
0
 62
     7
 10
323.2252153971355
 20
84.28927978073558
 30
0.0
  0
VERTEX
  5
36A
  8
0
 62
     7
 10
319.5339953993055
 20
84.90280729166666
 30
0.0
  0
VERTEX
  5
36B
  8
0
 62
     7
 10
315.43558348886
 20
85.53102652713477
 30
0.0
  0
VERTEX
  5
36C
  8
0
 62
     7
 10
310.9411555555556
 20
86.16696522633745
 30
0.0
  0
VERTEX
  5
36D
  8
0
 62
     7
 10
306.0618874891493
 20
86.80365112847221
 30
0.0
  0
VERTEX
  5
36E
  8
0
 62
     7
 10
300.8089551793981
 20
87.43411197273662
 30
0.0
  0
VERTEX
  5
36F
  8
0
 62
     7
 10
295.193534516059
 20
88.05137549832818
 30
0.0
  0
VERTEX
  5
370
  8
0
 62
     7
 10
289.2268013888888
 20
88.64846944444444
 30
0.0
  0
VERTEX
  5
371
  8
0
 62
     7
 10
282.9199316876446
 20
89.21842155028293
 30
0.0
  0
VERTEX
  5
372
  8
0
 62
     7
 10
276.2841013020833
 20
89.75425955504116
 30
0.0
  0
VERTEX
  5
373
  8
0
 62
     7
 10
269.3304861219618
 20
90.24901119791667
 30
0.0
  0
VERTEX
  5
374
  8
0
 62
     7
 10
262.070262037037
 20
90.69570421810698
 30
0.0
  0
VERTEX
  5
375
  8
0
 62
     7
 10
254.514604937066
 20
91.08736635480966
 30
0.0
  0
VERTEX
  5
376
  8
0
 62
     7
 10
246.6746907118056
 20
91.41702534722222
 30
0.0
  0
VERTEX
  5
377
  8
0
 62
     7
 10
238.5616952510127
 20
91.67770893454218
 30
0.0
  0
VERTEX
  5
378
  8
0
 62
     7
 10
230.1867944444445
 20
91.86244485596708
 30
0.0
  0
VERTEX
  5
379
  8
0
 62
     7
 10
221.5611641818577
 20
91.96426085069444
 30
0.0
  0
VERTEX
  5
37A
  8
0
 62
     7
 10
212.6959803530093
 20
91.9761846579218
 30
0.0
  0
VERTEX
  5
37B
  8
0
 62
     7
 10
203.6024188476563
 20
91.89124401684671
 30
0.0
  0
VERTEX
  5
37C
  8
0
 62
     7
 10
194.2916555555555
 20
91.70246666666667
 30
0.0
  0
SEQEND
  5
37D
  8
0
 62
     7
  0
POLYLINE
  5
55
  8
0
 62
     7
 66
     1
 10
0.0
 20
0.0
 30
0.0
  0
VERTEX
  5
56
  8
0
 10
194.2916555555555
 20
91.70246666666667
 30
0.0
  0
VERTEX
  5
57
  8
0
 10
175.0973694444444
 20
91.70246666666667
 30
0.0
  0
SEQEND
  5
58
  8
0
 62
     7
  0
POLYLINE
  5
59
  8
0
 62
     7
 66
     1
 10
0.0
 20
0.0
 30
0.0
  0
VERTEX
  5
37E
  8
0
 62
     7
 10
175.0973694444444
 20
91.70246666666667
 30
0.0
  0
VERTEX
  5
37F
  8
0
 62
     7
 10
165.7864776120033
 20
91.8912440168467
 30
0.0
  0
VERTEX
  5
380
  8
0
 62
     7
 10
156.6927953751928
 20
91.97618465792183
 30
0.0
  0
VERTEX
  5
381
  8
0
 62
     7
 10
147.8274990831163
 20
91.96426085069444
 30
0.0
  0
VERTEX
  5
382
  8
0
 62
     7
 10
139.2017650848766
 20
91.86244485596708
 30
0.0
  0
VERTEX
  5
383
  8
0
 62
     7
 10
130.8267697295766
 20
91.67770893454218
 30
0.0
  0
VERTEX
  5
384
  8
0
 62
     7
 10
122.7136893663194
 20
91.41702534722222
 30
0.0
  0
VERTEX
  5
385
  8
0
 62
     7
 10
114.8737003442081
 20
91.08736635480966
 30
0.0
  0
VERTEX
  5
386
  8
0
 62
     7
 10
107.3179790123457
 20
90.695704218107
 30
0.0
  0
VERTEX
  5
387
  8
0
 62
     7
 10
100.0577017198351
 20
90.24901119791667
 30
0.0
  0
VERTEX
  5
388
  8
0
 62
     7
 10
93.1040448157793
 20
89.75425955504116
 30
0.0
  0
VERTEX
  5
389
  8
0
 62
     7
 10
86.46818464928144
 20
89.21842155028293
 30
0.0
  0
VERTEX
  5
38A
  8
0
 62
     7
 10
80.16129756944444
 20
88.64846944444444
 30
0.0
  0
VERTEX
  5
38B
  8
0
 62
     7
 10
74.19455992537134
 20
88.05137549832818
 30
0.0
  0
VERTEX
  5
38C
  8
0
 62
     7
 10
68.57914806616513
 20
87.43411197273662
 30
0.0
  0
VERTEX
  5
38D
  8
0
 62
     7
 10
63.32623834092882
 20
86.80365112847223
 30
0.0
  0
VERTEX
  5
38E
  8
0
 62
     7
 10
58.44700709876545
 20
86.16696522633745
 30
0.0
  0
VERTEX
  5
38F
  8
0
 62
     7
 10
53.95263068877799
 20
85.53102652713477
 30
0.0
  0
VERTEX
  5
390
  8
0
 62
     7
 10
49.85428546006946
 20
84.90280729166666
 30
0.0
  0
VERTEX
  5
391
  8
0
 62
     7
 10
46.16314776174288
 20
84.2892797807356
 30
0.0
  0
VERTEX
  5
392
  8
0
 62
     7
 10
42.89039394290126
 20
83.69741625514402
 30
0.0
  0
VERTEX
  5
393
  8
0
 62
     7
 10
40.04720035264759
 20
83.13418897569444
 30
0.0
  0
VERTEX
  5
394
  8
0
 62
     7
 10
37.64474334008489
 20
82.60657020318929
 30
0.0
  0
VERTEX
  5
395
  8
0
 62
     7
 10
35.69419925431619
 20
82.12153219843107
 30
0.0
  0
VERTEX
  5
396
  8
0
 62
     7
 10
34.20674444444445
 20
81.68604722222221
 30
0.0
  0
SEQEND
  5
397
  8
0
 62
     7
  0
POLYLINE
  5
5A
  8
0
 62
     7
 66
     1
 10
0.0
 20
0.0
 30
0.0
  0
VERTEX
  5
398
  8
0
 62
     7
 10
34.20674444444445
 20
81.68604722222221
 30
0.0
  0
VERTEX
  5
399
  8
0
 62
     7
 10
29.21259346788194
 20
80.21603587500803
 30
0.0
  0
VERTEX
  5
39A
  8
0
 62
     7
 10
24.76146487268518
 20
78.70517687274948
 30
0.0
  0
VERTEX
  5
39B
  8
0
 62
     7
 10
20.83818370225695
 20
77.1547317328559
 30
0.0
  0
VERTEX
  5
39C
  8
0
 62
     7
 10
17.427575
 20
75.5659619727366
 30
0.0
  0
VERTEX
  5
39D
  8
0
 62
     7
 10
14.51446380931714
 20
73.94012910980099
 30
0.0
  0
VERTEX
  5
39E
  8
0
 62
     7
 10
12.08367517361111
 20
72.27849466145832
 30
0.0
  0
VERTEX
  5
39F
  8
0
 62
     7
 10
10.12003413628472
 20
70.58232014511799
 30
0.0
  0
VERTEX
  5
3A0
  8
0
 62
     7
 10
8.608365740740744
 20
68.85286707818929
 30
0.0
  0
VERTEX
  5
3A1
  8
0
 62
     7
 10
7.533495030381944
 20
67.09139697808159
 30
0.0
  0
VERTEX
  5
3A2
  8
0
 62
     7
 10
6.88024704861111
 20
65.2991713622042
 30
0.0
  0
VERTEX
  5
3A3
  8
0
 62
     7
 10
6.633446838831019
 20
63.47745174796649
 30
0.0
  0
VERTEX
  5
3A4
  8
0
 62
     7
 10
6.777919444444444
 20
61.62749965277777
 30
0.0
  0
VERTEX
  5
3A5
  8
0
 62
     7
 10
7.298489908854167
 20
59.75057659404738
 30
0.0
  0
VERTEX
  5
3A6
  8
0
 62
     7
 10
8.17998327546296
 20
57.84794408918467
 30
0.0
  0
VERTEX
  5
3A7
  8
0
 62
     7
 10
9.407224587673607
 20
55.92086365559896
 30
0.0
  0
VERTEX
  5
3A8
  8
0
 62
     7
 10
10.96503888888888
 20
53.97059681069958
 30
0.0
  0
VERTEX
  5
3A9
  8
0
 62
     7
 10
12.83825122251156
 20
51.9984050718959
 30
0.0
  0
VERTEX
  5
3AA
  8
0
 62
     7
 10
15.01168663194443
 20
50.00554995659724
 30
0.0
  0
VERTEX
  5
3AB
  8
0
 62
     7
 10
17.47017016059026
 20
47.99329298221291
 30
0.0
  0
VERTEX
  5
3AC
  8
0
 62
     7
 10
20.19852685185183
 20
45.96289566615228
 30
0.0
  0
VERTEX
  5
3AD
  8
0
 62
     7
 10
23.18158174913192
 20
43.91561952582466
 30
0.0
  0
VERTEX
  5
3AE
  8
0
 62
     7
 10
26.40415989583331
 20
41.85272607863942
 30
0.0
  0
VERTEX
  5
3AF
  8
0
 62
     7
 10
29.85108633535876
 20
39.77547684200587
 30
0.0
  0
VERTEX
  5
3B0
  8
0
 62
     7
 10
33.50718611111111
 20
37.68513333333333
 30
0.0
  0
SEQEND
  5
3B1
  8
0
 62
     7
  0
POLYLINE
  5
5B
  8
0
 62
     7
 66
     1
 10
0.0
 20
0.0
 30
0.0
  0
VERTEX
  5
3B2
  8
0
 62
     7
 10
33.50718611111111
 20
37.68513333333333
 30
0.0
  0
VERTEX
  5
3B3
  8
0
 62
     7
 10
36.7355833813577
 20
35.93270967118376
 30
0.0
  0
VERTEX
  5
3B4
  8
0
 62
     7
 10
40.02122144900977
 20
34.24610080697015
 30
0.0
  0
VERTEX
  5
3B5
  8
0
 62
     7
 10
43.36239782443577
 20
32.6236197157118
 30
0.0
  0
VERTEX
  5
3B6
  8
0
 62
     7
 10
46.75741001800411
 20
31.06357937242798
 30
0.0
  0
VERTEX
  5
3B7
  8
0
 62
     7
 10
50.20455554008326
 20
29.56429275213799
 30
0.0
  0
VERTEX
  5
3B8
  8
0
 62
     7
 10
53.70213190104167
 20
28.12407282986111
 30
0.0
  0
VERTEX
  5
3B9
  8
0
 62
     7
 10
57.24843661124775
 20
26.74123258061664
 30
0.0
  0
VERTEX
  5
3BA
  8
0
 62
     7
 10
60.84176718106995
 20
25.41408497942387
 30
0.0
  0
VERTEX
  5
3BB
  8
0
 62
     7
 10
64.48042112087673
 20
24.14094300130208
 30
0.0
  0
VERTEX
  5
3BC
  8
0
 62
     7
 10
68.16269594103652
 20
22.92011962127057
 30
0.0
  0
VERTEX
  5
3BD
  8
0
 62
     7
 10
71.88688915191776
 20
21.74992781434863
 30
0.0
  0
VERTEX
  5
3BE
  8
0
 62
     7
 10
75.65129826388889
 20
20.62868055555555
 30
0.0
  0
VERTEX
  5
3BF
  8
0
 62
     7
 10
79.45422078731835
 20
19.55469081991062
 30
0.0
  0
VERTEX
  5
3C0
  8
0
 62
     7
 10
83.29395423257459
 20
18.52627158243313
 30
0.0
  0
VERTEX
  5
3C1
  8
0
 62
     7
 10
87.16879611002602
 20
17.54173581814236
 30
0.0
  0
VERTEX
  5
3C2
  8
0
 62
     7
 10
91.07704393004114
 20
16.59939650205762
 30
0.0
  0
VERTEX
  5
3C3
  8
0
 62
     7
 10
95.01699520298833
 20
15.69756660919818
 30
0.0
  0
VERTEX
  5
3C4
  8
0
 62
     7
 10
98.98694743923609
 20
14.83455911458334
 30
0.0
  0
VERTEX
  5
3C5
  8
0
 62
     7
 10
102.9851981491528
 20
14.00868699323238
 30
0.0
  0
VERTEX
  5
3C6
  8
0
 62
     7
 10
107.010044843107
 20
13.21826322016461
 30
0.0
  0
VERTEX
  5
3C7
  8
0
 62
     7
 10
111.059785031467
 20
12.46160077039931
 30
0.0
  0
VERTEX
  5
3C8
  8
0
 62
     7
 10
115.1327162246013
 20
11.73701261895577
 30
0.0
  0
VERTEX
  5
3C9
  8
0
 62
     7
 10
119.2271359328784
 20
11.04281174085327
 30
0.0
  0
VERTEX
  5
3CA
  8
0
 62
     7
 10
123.3413416666667
 20
10.37731111111111
 30
0.0
  0
SEQEND
  5
3CB
  8
0
 62
     7
  0
POLYLINE
  5
5C
  8
0
 62
     7
 66
     1
 10
0.0
 20
0.0
 30
0.0
  0
VERTEX
  5
3CC
  8
0
 62
     7
 10
123.3413416666667
 20
10.37731111111111
 30
0.0
  0
VERTEX
  5
3CD
  8
0
 62
     7
 10
124.6255364298
 20
10.22292005007395
 30
0.0
  0
VERTEX
  5
3CE
  8
0
 62
     7
 10
126.1709432323817
 20
10.06368227559156
 30
0.0
  0
VERTEX
  5
3CF
  8
0
 62
     7
 10
127.954130219184
 20
9.901079025607638
 30
0.0
  0
VERTEX
  5
3D0
  8
0
 62
     7
 10
129.9516655349794
 20
9.736591538065841
 30
0.0
  0
VERTEX
  5
3D1
  8
0
 62
     7
 10
132.1401173245402
 20
9.57170105090985
 30
0.0
  0
VERTEX
  5
3D2
  8
0
 62
     7
 10
134.4960537326389
 20
9.407888802083333
 30
0.0
  0
VERTEX
  5
3D3
  8
0
 62
     7
 10
136.9960429040477
 20
9.246636029529963
 30
0.0
  0
VERTEX
  5
3D4
  8
0
 62
     7
 10
139.6166529835391
 20
9.089423971193415
 30
0.0
  0
VERTEX
  5
3D5
  8
0
 62
     7
 10
142.3344521158854
 20
8.93773386501736
 30
0.0
  0
VERTEX
  5
3D6
  8
0
 62
     7
 10
145.126008445859
 20
8.793046948945472
 30
0.0
  0
VERTEX
  5
3D7
  8
0
 62
     7
 10
147.9678901182324
 20
8.656844460921423
 30
0.0
  0
VERTEX
  5
3D8
  8
0
 62
     7
 10
150.8366652777778
 20
8.530607638888888
 30
0.0
  0
VERTEX
  5
3D9
  8
0
 62
     7
 10
153.7089020692676
 20
8.415817720791539
 30
0.0
  0
VERTEX
  5
3DA
  8
0
 62
     7
 10
156.5611686374743
 20
8.313955944573046
 30
0.0
  0
VERTEX
  5
3DB
  8
0
 62
     7
 10
159.3700331271701
 20
8.226503548177085
 30
0.0
  0
VERTEX
  5
3DC
  8
0
 62
     7
 10
162.1120636831275
 20
8.154941769547325
 30
0.0
  0
VERTEX
  5
3DD
  8
0
 62
     7
 10
164.763828450119
 20
8.100751846627443
 30
0.0
  0
VERTEX
  5
3DE
  8
0
 62
     7
 10
167.3018955729166
 20
8.065415017361111
 30
0.0
  0
VERTEX
  5
3DF
  8
0
 62
     7
 10
169.7028331962931
 20
8.050412519692003
 30
0.0
  0
VERTEX
  5
3E0
  8
0
 62
     7
 10
171.9432094650205
 20
8.057225591563787
 30
0.0
  0
VERTEX
  5
3E1
  8
0
 62
     7
 10
173.9995925238715
 20
8.087335470920138
 30
0.0
  0
VERTEX
  5
3E2
  8
0
 62
     7
 10
175.8485505176183
 20
8.142223395704733
 30
0.0
  0
VERTEX
  5
3E3
  8
0
 62
     7
 10
177.4666515910333
 20
8.223370603861241
 30
0.0
  0
VERTEX
  5
3E4
  8
0
 62
     7
 10
178.8304638888889
 20
8.332258333333334
 30
0.0
  0
SEQEND
  5
3E5
  8
0
 62
     7
  0
POLYLINE
  5
5D
  8
0
 62
     7
 66
     1
 10
0.0
 20
0.0
 30
0.0
  0
VERTEX
  5
5E
  8
0
 10
178.8304638888889
 20
8.332258333333334
 30
0.0
  0
VERTEX
  5
5F
  8
0
 10
190.5585611111111
 20
8.332258333333334
 30
0.0
  0
SEQEND
  5
60
  8
0
 62
     7
  0
POLYLINE
  5
61
  8
0
 62
     7
 66
     1
 10
0.0
 20
0.0
 30
0.0
  0
VERTEX
  5
3E6
  8
0
 62
     7
 10
190.5585611111111
 20
8.332258333333334
 30
0.0
  0
VERTEX
  5
3E7
  8
0
 62
     7
 10
191.9222466294528
 20
8.223370603861241
 30
0.0
  0
VERTEX
  5
3E8
  8
0
 62
     7
 10
193.5402319476594
 20
8.142223395704733
 30
0.0
  0
VERTEX
  5
3E9
  8
0
 62
     7
 10
195.3890852105035
 20
8.087335470920138
 30
0.0
  0
VERTEX
  5
3EA
  8
0
 62
     7
 10
197.4453745627572
 20
8.057225591563785
 30
0.0
  0
VERTEX
  5
3EB
  8
0
 62
     7
 10
199.685668149193
 20
8.050412519692003
 30
0.0
  0
VERTEX
  5
3EC
  8
0
 62
     7
 10
202.0865341145833
 20
8.065415017361111
 30
0.0
  0
VERTEX
  5
3ED
  8
0
 62
     7
 10
204.6245406037005
 20
8.100751846627443
 30
0.0
  0
VERTEX
  5
3EE
  8
0
 62
     7
 10
207.2762557613169
 20
8.154941769547325
 30
0.0
  0
VERTEX
  5
3EF
  8
0
 62
     7
 10
210.0182477322048
 20
8.226503548177083
 30
0.0
  0
VERTEX
  5
3F0
  8
0
 62
     7
 10
212.8270846611368
 20
8.313955944573046
 30
0.0
  0
VERTEX
  5
3F1
  8
0
 62
     7
 10
215.6793346928852
 20
8.415817720791539
 30
0.0
  0
VERTEX
  5
3F2
  8
0
 62
     7
 10
218.5515659722222
 20
8.530607638888888
 30
0.0
  0
VERTEX
  5
3F3
  8
0
 62
     7
 10
221.4203466439204
 20
8.656844460921423
 30
0.0
  0
VERTEX
  5
3F4
  8
0
 62
     7
 10
224.262244852752
 20
8.793046948945472
 30
0.0
  0
VERTEX
  5
3F5
  8
0
 62
     7
 10
227.0538287434896
 20
8.93773386501736
 30
0.0
  0
VERTEX
  5
3F6
  8
0
 62
     7
 10
229.7716664609053
 20
9.089423971193414
 30
0.0
  0
VERTEX
  5
3F7
  8
0
 62
     7
 10
232.3923261497717
 20
9.246636029529963
 30
0.0
  0
VERTEX
  5
3F8
  8
0
 62
     7
 10
234.8923759548611
 20
9.407888802083331
 30
0.0
  0
VERTEX
  5
3F9
  8
0
 62
     7
 10
237.2483840209458
 20
9.57170105090985
 30
0.0
  0
VERTEX
  5
3FA
  8
0
 62
     7
 10
239.4369184927983
 20
9.736591538065841
 30
0.0
  0
VERTEX
  5
3FB
  8
0
 62
     7
 10
241.434547515191
 20
9.901079025607636
 30
0.0
  0
VERTEX
  5
3FC
  8
0
 62
     7
 10
243.2178392328961
 20
10.06368227559156
 30
0.0
  0
VERTEX
  5
3FD
  8
0
 62
     7
 10
244.7633617906861
 20
10.22292005007394
 30
0.0
  0
VERTEX
  5
3FE
  8
0
 62
     7
 10
246.0476833333333
 20
10.37731111111111
 30
0.0
  0
SEQEND
  5
3FF
  8
0
 62
     7
  0
POLYLINE
  5
62
  8
0
 62
     7
 66
     1
 10
0.0
 20
0.0
 30
0.0
  0
VERTEX
  5
400
  8
0
 62
     7
 10
246.0476833333333
 20
10.37731111111111
 30
0.0
  0
VERTEX
  5
401
  8
0
 62
     7
 10
250.1618890671216
 20
11.04281174085327
 30
0.0
  0
VERTEX
  5
402
  8
0
 62
     7
 10
254.2563087753987
 20
11.73701261895576
 30
0.0
  0
VERTEX
  5
403
  8
0
 62
     7
 10
258.329239968533
 20
12.4616007703993
 30
0.0
  0
VERTEX
  5
404
  8
0
 62
     7
 10
262.378980156893
 20
13.21826322016461
 30
0.0
  0
VERTEX
  5
405
  8
0
 62
     7
 10
266.4038268508472
 20
14.00868699323238
 30
0.0
  0
VERTEX
  5
406
  8
0
 62
     7
 10
270.4020775607639
 20
14.83455911458333
 30
0.0
  0
VERTEX
  5
407
  8
0
 62
     7
 10
274.3720297970116
 20
15.69756660919817
 30
0.0
  0
VERTEX
  5
408
  8
0
 62
     7
 10
278.3119810699588
 20
16.59939650205761
 30
0.0
  0
VERTEX
  5
409
  8
0
 62
     7
 10
282.220228889974
 20
17.54173581814236
 30
0.0
  0
VERTEX
  5
40A
  8
0
 62
     7
 10
286.0950707674253
 20
18.52627158243313
 30
0.0
  0
VERTEX
  5
40B
  8
0
 62
     7
 10
289.9348042126817
 20
19.55469081991062
 30
0.0
  0
VERTEX
  5
40C
  8
0
 62
     7
 10
293.7377267361111
 20
20.62868055555555
 30
0.0
  0
VERTEX
  5
40D
  8
0
 62
     7
 10
297.5021358480822
 20
21.74992781434863
 30
0.0
  0
VERTEX
  5
40E
  8
0
 62
     7
 10
301.2263290589635
 20
22.92011962127057
 30
0.0
  0
VERTEX
  5
40F
  8
0
 62
     7
 10
304.9086038791232
 20
24.14094300130208
 30
0.0
  0
VERTEX
  5
410
  8
0
 62
     7
 10
308.54725781893
 20
25.41408497942386
 30
0.0
  0
VERTEX
  5
411
  8
0
 62
     7
 10
312.1405883887522
 20
26.74123258061663
 30
0.0
  0
VERTEX
  5
412
  8
0
 62
     7
 10
315.6868930989583
 20
28.1240728298611
 30
0.0
  0
VERTEX
  5
413
  8
0
 62
     7
 10
319.1844694599166
 20
29.56429275213797
 30
0.0
  0
VERTEX
  5
414
  8
0
 62
     7
 10
322.6316149819958
 20
31.06357937242797
 30
0.0
  0
VERTEX
  5
415
  8
0
 62
     7
 10
326.0266271755642
 20
32.62361971571178
 30
0.0
  0
VERTEX
  5
416
  8
0
 62
     7
 10
329.3678035509901
 20
34.24610080697015
 30
0.0
  0
VERTEX
  5
417
  8
0
 62
     7
 10
332.6534416186422
 20
35.93270967118376
 30
0.0
  0
VERTEX
  5
418
  8
0
 62
     7
 10
335.8818388888889
 20
37.68513333333333
 30
0.0
  0
SEQEND
  5
419
  8
0
 62
     7
  0
POLYLINE
  5
63
  8
0
 62
     7
 66
     1
 10
0.0
 20
0.0
 30
0.0
  0
VERTEX
  5
41A
  8
0
 62
     7
 10
335.8818388888889
 20
37.68513333333333
 30
0.0
  0
VERTEX
  5
41B
  8
0
 62
     7
 10
337.8777166288901
 20
38.81341971330053
 30
0.0
  0
VERTEX
  5
41C
  8
0
 62
     7
 10
339.8148464570473
 20
39.93807634066357
 30
0.0
  0
VERTEX
  5
41D
  8
0
 62
     7
 10
341.6908514105903
 20
41.05890569661458
 30
0.0
  0
VERTEX
  5
41E
  8
0
 62
     7
 10
343.503354526749
 20
42.17571026234567
 30
0.0
  0
VERTEX
  5
41F
  8
0
 62
     7
 10
345.2499788427533
 20
43.28829251904899
 30
0.0
  0
VERTEX
  5
420
  8
0
 62
     7
 10
346.9283473958334
 20
44.39645494791667
 30
0.0
  0
VERTEX
  5
421
  8
0
 62
     7
 10
348.5360832232189
 20
45.50000003014081
 30
0.0
  0
VERTEX
  5
422
  8
0
 62
     7
 10
350.0708093621399
 20
46.59873024691358
 30
0.0
  0
VERTEX
  5
423
  8
0
 62
     7
 10
351.5301488498264
 20
47.69244807942708
 30
0.0
  0
VERTEX
  5
424
  8
0
 62
     7
 10
352.9117247235083
 20
48.78095600887346
 30
0.0
  0
VERTEX
  5
425
  8
0
 62
     7
 10
354.2131600204153
 20
49.86405651644483
 30
0.0
  0
VERTEX
  5
426
  8
0
 62
     7
 10
355.4320777777777
 20
50.94155208333333
 30
0.0
  0
VERTEX
  5
427
  8
0
 62
     7
 10
356.5661010328254
 20
52.01324519073109
 30
0.0
  0
VERTEX
  5
428
  8
0
 62
     7
 10
357.6128528227881
 20
53.07893831983024
 30
0.0
  0
VERTEX
  5
429
  8
0
 62
     7
 10
358.5699561848958
 20
54.13843395182292
 30
0.0
  0
VERTEX
  5
42A
  8
0
 62
     7
 10
359.4350341563786
 20
55.19153456790123
 30
0.0
  0
VERTEX
  5
42B
  8
0
 62
     7
 10
360.2057097744663
 20
56.23804264925732
 30
0.0
  0
VERTEX
  5
42C
  8
0
 62
     7
 10
360.8796060763889
 20
57.27776067708333
 30
0.0
  0
VERTEX
  5
42D
  8
0
 62
     7
 10
361.4543460993763
 20
58.31049113257137
 30
0.0
  0
VERTEX
  5
42E
  8
0
 62
     7
 10
361.9275528806584
 20
59.33603649691358
 30
0.0
  0
VERTEX
  5
42F
  8
0
 62
     7
 10
362.2968494574652
 20
60.35419925130208
 30
0.0
  0
VERTEX
  5
430
  8
0
 62
     7
 10
362.5598588670268
 20
61.364781876929
 30
0.0
  0
VERTEX
  5
431
  8
0
 62
     7
 10
362.7142041465727
 20
62.36758685498649
 30
0.0
  0
VERTEX
  5
432
  8
0
 62
     7
 10
362.7575083333333
 20
63.36241666666667
 30
0.0
  0
SEQEND
  5
433
  8
0
 62
     7
  0
POLYLINE
  5
64
  8
0
 62
     7
 66
     1
 10
0.0
 20
0.0
 30
0.0
  0
VERTEX
  5
65
  8
0
 10
184.6943361111111
 20
81.49942777777777
 30
0.0
  0
VERTEX
  5
66
  8
0
 10
184.6943361111111
 20
79.7923361111111
 30
0.0
  0
SEQEND
  5
67
  8
0
 62
     7
  0
POLYLINE
  5
68
  8
0
 62
     7
 66
     1
 10
0.0
 20
0.0
 30
0.0
  0
VERTEX
  5
69
  8
0
 10
184.6943361111111
 20
51.64031666666666
 30
0.0
  0
VERTEX
  5
6A
  8
0
 10
184.6943361111111
 20
49.07985555555555
 30
0.0
  0
SEQEND
  5
6B
  8
0
 62
     7
  0
POLYLINE
  5
6C
  8
0
 62
     7
 66
     1
 10
0.0
 20
0.0
 30
0.0
  0
VERTEX
  5
6D
  8
0
 10
184.6943361111111
 20
20.92783611111111
 30
0.0
  0
VERTEX
  5
6E
  8
0
 10
184.6943361111111
 20
18.53282777777778
 30
0.0
  0
SEQEND
  5
6F
  8
0
 62
     7
  0
POLYLINE
  5
70
  8
0
 62
     7
 66
     1
 10
0.0
 20
0.0
 30
0.0
  0
VERTEX
  5
434
  8
0
 62
     7
 10
538.6200527777777
 20
24.03968888888889
 30
0.0
  0
VERTEX
  5
435
  8
0
 62
     7
 10
541.3065688353988
 20
24.28184926958751
 30
0.0
  0
VERTEX
  5
436
  8
0
 62
     7
 10
543.9993355211545
 20
24.51198136734825
 30
0.0
  0
VERTEX
  5
437
  8
0
 62
     7
 10
546.6957472710503
 20
24.72996682400174
 30
0.0
  0
VERTEX
  5
438
  8
0
 62
     7
 10
549.3931985210904
 20
24.9356872813786
 30
0.0
  0
VERTEX
  5
439
  8
0
 62
     7
 10
552.0890837072802
 20
25.12902438130948
 30
0.0
  0
VERTEX
  5
43A
  8
0
 62
     7
 10
554.7807972656249
 20
25.309859765625
 30
0.0
  0
VERTEX
  5
43B
  8
0
 62
     7
 10
557.4657336321292
 20
25.4780750761558
 30
0.0
  0
VERTEX
  5
43C
  8
0
 62
     7
 10
560.1412872427983
 20
25.63355195473251
 30
0.0
  0
VERTEX
  5
43D
  8
0
 62
     7
 10
562.8048525336371
 20
25.77617204318576
 30
0.0
  0
VERTEX
  5
43E
  8
0
 62
     7
 10
565.4538239406506
 20
25.90581698334619
 30
0.0
  0
VERTEX
  5
43F
  8
0
 62
     7
 10
568.0855958998441
 20
26.02236841704443
 30
0.0
  0
VERTEX
  5
440
  8
0
 62
     7
 10
570.6975628472221
 20
26.12570798611111
 30
0.0
  0
VERTEX
  5
441
  8
0
 62
     7
 10
573.28711921879
 20
26.21571733237686
 30
0.0
  0
VERTEX
  5
442
  8
0
 62
     7
 10
575.8516594505529
 20
26.29227809767232
 30
0.0
  0
VERTEX
  5
443
  8
0
 62
     7
 10
578.3885779785156
 20
26.35527192382812
 30
0.0
  0
VERTEX
  5
444
  8
0
 62
     7
 10
580.8952692386831
 20
26.4045804526749
 30
0.0
  0
VERTEX
  5
445
  8
0
 62
     7
 10
583.3691276670605
 20
26.44008532604327
 30
0.0
  0
VERTEX
  5
446
  8
0
 62
     7
 10
585.8075476996528
 20
26.46166818576389
 30
0.0
  0
VERTEX
  5
447
  8
0
 62
     7
 10
588.2079237724649
 20
26.46921067366737
 30
0.0
  0
VERTEX
  5
448
  8
0
 62
     7
 10
590.567650321502
 20
26.46259443158436
 30
0.0
  0
VERTEX
  5
449
  8
0
 62
     7
 10
592.884121782769
 20
26.44170110134548
 30
0.0
  0
VERTEX
  5
44A
  8
0
 62
     7
 10
595.1547325922711
 20
26.40641232478138
 30
0.0
  0
VERTEX
  5
44B
  8
0
 62
     7
 10
597.3768771860131
 20
26.35660974372267
 30
0.0
  0
VERTEX
  5
44C
  8
0
 62
     7
 10
599.54795
 20
26.292175
 30
0.0
  0
SEQEND
  5
44D
  8
0
 62
     7
  0
POLYLINE
  5
71
  8
0
 62
     7
 66
     1
 10
0.0
 20
0.0
 30
0.0
  0
VERTEX
  5
44E
  8
0
 62
     7
 10
599.54795
 20
26.292175
 30
0.0
  0
VERTEX
  5
44F
  8
0
 62
     7
 10
600.7114009034208
 20
26.25076997954442
 30
0.0
  0
VERTEX
  5
450
  8
0
 62
     7
 10
601.858408442644
 20
26.20494681552211
 30
0.0
  0
VERTEX
  5
451
  8
0
 62
     7
 10
602.9885475694444
 20
26.15468606228299
 30
0.0
  0
VERTEX
  5
452
  8
0
 62
     7
 10
604.1013932355968
 20
26.09996827417695
 30
0.0
  0
VERTEX
  5
453
  8
0
 62
     7
 10
605.1965203928755
 20
26.04077400555395
 30
0.0
  0
VERTEX
  5
454
  8
0
 62
     7
 10
606.2735039930556
 20
25.97708381076389
 30
0.0
  0
VERTEX
  5
455
  8
0
 62
     7
 10
607.3319189879114
 20
25.9088782441567
 30
0.0
  0
VERTEX
  5
456
  8
0
 62
     7
 10
608.371340329218
 20
25.8361378600823
 30
0.0
  0
VERTEX
  5
457
  8
0
 62
     7
 10
609.39134296875
 20
25.75884321289062
 30
0.0
  0
VERTEX
  5
458
  8
0
 62
     7
 10
610.3915018582819
 20
25.67697485693158
 30
0.0
  0
VERTEX
  5
459
  8
0
 62
     7
 10
611.3713919495885
 20
25.59051334655511
 30
0.0
  0
VERTEX
  5
45A
  8
0
 62
     7
 10
612.3305881944445
 20
25.49943923611111
 30
0.0
  0
VERTEX
  5
45B
  8
0
 62
     7
 10
613.2686655446245
 20
25.40373307994952
 30
0.0
  0
VERTEX
  5
45C
  8
0
 62
     7
 10
614.1851989519033
 20
25.30337543242026
 30
0.0
  0
VERTEX
  5
45D
  8
0
 62
     7
 10
615.0797633680555
 20
25.19834684787326
 30
0.0
  0
VERTEX
  5
45E
  8
0
 62
     7
 10
615.951933744856
 20
25.08862788065844
 30
0.0
  0
VERTEX
  5
45F
  8
0
 62
     7
 10
616.8012850340792
 20
24.97419908512571
 30
0.0
  0
VERTEX
  5
460
  8
0
 62
     7
 10
617.6273921875
 20
24.855041015625
 30
0.0
  0
VERTEX
  5
461
  8
0
 62
     7
 10
618.429830156893
 20
24.73113422650624
 30
0.0
  0
VERTEX
  5
462
  8
0
 62
     7
 10
619.2081738940328
 20
24.60245927211934
 30
0.0
  0
VERTEX
  5
463
  8
0
 62
     7
 10
619.9619983506943
 20
24.46899670681423
 30
0.0
  0
VERTEX
  5
464
  8
0
 62
     7
 10
620.6908784786523
 20
24.33072708494084
 30
0.0
  0
VERTEX
  5
465
  8
0
 62
     7
 10
621.3943892296811
 20
24.18763096084908
 30
0.0
  0
VERTEX
  5
466
  8
0
 62
     7
 10
622.0721055555555
 20
24.03968888888889
 30
0.0
  0
SEQEND
  5
467
  8
0
 62
     7
  0
POLYLINE
  5
72
  8
0
 62
     7
 66
     1
 10
0.0
 20
0.0
 30
0.0
  0
VERTEX
  5
468
  8
0
 62
     7
 10
538.1565027777777
 20
24.01534722222222
 30
0.0
  0
VERTEX
  5
469
  8
0
 62
     7
 10
538.1712208891943
 20
23.98712137626993
 30
0.0
  0
VERTEX
  5
46A
  8
0
 62
     7
 10
538.1858400880915
 20
23.95880764210391
 30
0.0
  0
VERTEX
  5
46B
  8
0
 62
     7
 10
538.2003753797742
 20
23.93041735026042
 30
0.0
  0
VERTEX
  5
46C
  8
0
 62
     7
 10
538.2148417695474
 20
23.90196183127572
 30
0.0
  0
VERTEX
  5
46D
  8
0
 62
     7
 10
538.2292542627155
 20
23.87345241568609
 30
0.0
  0
VERTEX
  5
46E
  8
0
 62
     7
 10
538.2436278645833
 20
23.84490043402778
 30
0.0
  0
VERTEX
  5
46F
  8
0
 62
     7
 10
538.2579775804559
 20
23.81631721683706
 30
0.0
  0
VERTEX
  5
470
  8
0
 62
     7
 10
538.2723184156378
 20
23.78771409465021
 30
0.0
  0
VERTEX
  5
471
  8
0
 62
     7
 10
538.286665375434
 20
23.75910239800347
 30
0.0
  0
VERTEX
  5
472
  8
0
 62
     7
 10
538.3010334651492
 20
23.73049345743313
 30
0.0
  0
VERTEX
  5
473
  8
0
 62
     7
 10
538.3154376900881
 20
23.70189860347544
 30
0.0
  0
VERTEX
  5
474
  8
0
 62
     7
 10
538.3298930555554
 20
23.67332916666667
 30
0.0
  0
VERTEX
  5
475
  8
0
 62
     7
 10
538.3444145668562
 20
23.64479647754308
 30
0.0
  0
VERTEX
  5
476
  8
0
 62
     7
 10
538.3590172292953
 20
23.61631186664095
 30
0.0
  0
VERTEX
  5
477
  8
0
 62
     7
 10
538.3737160481771
 20
23.58788666449652
 30
0.0
  0
VERTEX
  5
478
  8
0
 62
     7
 10
538.3885260288065
 20
23.55953220164609
 30
0.0
  0
VERTEX
  5
479
  8
0
 62
     7
 10
538.4034621764885
 20
23.5312598086259
 30
0.0
  0
VERTEX
  5
47A
  8
0
 62
     7
 10
538.4185394965276
 20
23.50308081597223
 30
0.0
  0
VERTEX
  5
47B
  8
0
 62
     7
 10
538.433772994229
 20
23.47500655422132
 30
0.0
  0
VERTEX
  5
47C
  8
0
 62
     7
 10
538.4491776748971
 20
23.44704835390947
 30
0.0
  0
VERTEX
  5
47D
  8
0
 62
     7
 10
538.4647685438367
 20
23.41921754557292
 30
0.0
  0
VERTEX
  5
47E
  8
0
 62
     7
 10
538.4805606063528
 20
23.39152545974794
 30
0.0
  0
VERTEX
  5
47F
  8
0
 62
     7
 10
538.49656886775
 20
23.36398342697081
 30
0.0
  0
VERTEX
  5
480
  8
0
 62
     7
 10
538.5128083333333
 20
23.33660277777778
 30
0.0
  0
SEQEND
  5
481
  8
0
 62
     7
  0
POLYLINE
  5
73
  8
0
 62
     7
 66
     1
 10
0.0
 20
0.0
 30
0.0
  0
VERTEX
  5
482
  8
0
 62
     7
 10
538.5128083333333
 20
23.33660277777778
 30
0.0
  0
VERTEX
  5
483
  8
0
 62
     7
 10
538.51617858093
 20
23.33071878436053
 30
0.0
  0
VERTEX
  5
484
  8
0
 62
     7
 10
538.5195884854037
 20
23.32422064525463
 30
0.0
  0
VERTEX
  5
485
  8
0
 62
     7
 10
538.5230409559462
 20
23.31717037217882
 30
0.0
  0
VERTEX
  5
486
  8
0
 62
     7
 10
538.5265389017491
 20
23.30962997685185
 30
0.0
  0
VERTEX
  5
487
  8
0
 62
     7
 10
538.530085232004
 20
23.30166147099248
 30
0.0
  0
VERTEX
  5
488
  8
0
 62
     7
 10
538.5336828559027
 20
23.29332686631944
 30
0.0
  0
VERTEX
  5
489
  8
0
 62
     7
 10
538.5373346826373
 20
23.2846881745515
 30
0.0
  0
VERTEX
  5
48A
  8
0
 62
     7
 10
538.5410436213991
 20
23.27580740740741
 30
0.0
  0
VERTEX
  5
48B
  8
0
 62
     7
 10
538.5448125813803
 20
23.2667465766059
 30
0.0
  0
VERTEX
  5
48C
  8
0
 62
     7
 10
538.5486444717721
 20
23.25756769386574
 30
0.0
  0
VERTEX
  5
48D
  8
0
 62
     7
 10
538.5525422017666
 20
23.24833277090567
 30
0.0
  0
VERTEX
  5
48E
  8
0
 62
     7
 10
538.5565086805555
 20
23.23910381944444
 30
0.0
  0
VERTEX
  5
48F
  8
0
 62
     7
 10
538.5605468173306
 20
23.22994285120081
 30
0.0
  0
VERTEX
  5
490
  8
0
 62
     7
 10
538.5646595212834
 20
23.22091187789352
 30
0.0
  0
VERTEX
  5
491
  8
0
 62
     7
 10
538.5688497016059
 20
23.21207291124132
 30
0.0
  0
VERTEX
  5
492
  8
0
 62
     7
 10
538.5731202674897
 20
23.20348796296296
 30
0.0
  0
VERTEX
  5
493
  8
0
 62
     7
 10
538.5774741281266
 20
23.1952190447772
 30
0.0
  0
VERTEX
  5
494
  8
0
 62
     7
 10
538.5819141927083
 20
23.18732816840278
 30
0.0
  0
VERTEX
  5
495
  8
0
 62
     7
 10
538.5864433704267
 20
23.17987734555845
 30
0.0
  0
VERTEX
  5
496
  8
0
 62
     7
 10
538.5910645704732
 20
23.17292858796296
 30
0.0
  0
VERTEX
  5
497
  8
0
 62
     7
 10
538.59578070204
 20
23.16654390733507
 30
0.0
  0
VERTEX
  5
498
  8
0
 62
     7
 10
538.6005946743184
 20
23.16078531539352
 30
0.0
  0
VERTEX
  5
499
  8
0
 62
     7
 10
538.6055093965005
 20
23.15571482385706
 30
0.0
  0
VERTEX
  5
49A
  8
0
 62
     7
 10
538.6105277777777
 20
23.15139444444444
 30
0.0
  0
SEQEND
  5
49B
  8
0
 62
     7
  0
POLYLINE
  5
74
  8
0
 62
     7
 66
     1
 10
0.0
 20
0.0
 30
0.0
  0
VERTEX
  5
49C
  8
0
 62
     7
 10
538.6105277777777
 20
23.15139444444444
 30
0.0
  0
VERTEX
  5
49D
  8
0
 62
     7
 10
538.6202240373023
 20
23.14437007338284
 30
0.0
  0
VERTEX
  5
49E
  8
0
 62
     7
 10
538.6308302613812
 20
23.13774594585905
 30
0.0
  0
VERTEX
  5
49F
  8
0
 62
     7
 10
538.6422715766059
 20
23.13149970703125
 30
0.0
  0
VERTEX
  5
4A0
  8
0
 62
     7
 10
538.6544731095678
 20
23.12560900205761
 30
0.0
  0
VERTEX
  5
4A1
  8
0
 62
     7
 10
538.6673599868586
 20
23.12005147609632
 30
0.0
  0
VERTEX
  5
4A2
  8
0
 62
     7
 10
538.6808573350694
 20
23.11480477430555
 30
0.0
  0
VERTEX
  5
4A3
  8
0
 62
     7
 10
538.6948902807918
 20
23.10984654184349
 30
0.0
  0
VERTEX
  5
4A4
  8
0
 62
     7
 10
538.7093839506172
 20
23.10515442386831
 30
0.0
  0
VERTEX
  5
4A5
  8
0
 62
     7
 10
538.7242634711371
 20
23.10070606553819
 30
0.0
  0
VERTEX
  5
4A6
  8
0
 62
     7
 10
538.7394539689428
 20
23.09647911201132
 30
0.0
  0
VERTEX
  5
4A7
  8
0
 62
     7
 10
538.7548805706259
 20
23.09245120844585
 30
0.0
  0
VERTEX
  5
4A8
  8
0
 62
     7
 10
538.7704684027779
 20
23.0886
 30
0.0
  0
VERTEX
  5
4A9
  8
0
 62
     7
 10
538.7861425919898
 20
23.08490313183191
 30
0.0
  0
VERTEX
  5
4AA
  8
0
 62
     7
 10
538.8018282648534
 20
23.08133824909979
 30
0.0
  0
VERTEX
  5
4AB
  8
0
 62
     7
 10
538.8174505479601
 20
23.0778829969618
 30
0.0
  0
VERTEX
  5
4AC
  8
0
 62
     7
 10
538.8329345679012
 20
23.07451502057613
 30
0.0
  0
VERTEX
  5
4AD
  8
0
 62
     7
 10
538.8482054512683
 20
23.07121196510095
 30
0.0
  0
VERTEX
  5
4AE
  8
0
 62
     7
 10
538.8631883246527
 20
23.06795147569445
 30
0.0
  0
VERTEX
  5
4AF
  8
0
 62
     7
 10
538.877808314646
 20
23.06471119751479
 30
0.0
  0
VERTEX
  5
4B0
  8
0
 62
     7
 10
538.8919905478396
 20
23.06146877572017
 30
0.0
  0
VERTEX
  5
4B1
  8
0
 62
     7
 10
538.9056601508247
 20
23.05820185546875
 30
0.0
  0
VERTEX
  5
4B2
  8
0
 62
     7
 10
538.9187422501928
 20
23.05488808191873
 30
0.0
  0
VERTEX
  5
4B3
  8
0
 62
     7
 10
538.9311619725355
 20
23.05150510022826
 30
0.0
  0
VERTEX
  5
4B4
  8
0
 62
     7
 10
538.9428444444444
 20
23.04803055555556
 30
0.0
  0
SEQEND
  5
4B5
  8
0
 62
     7
  0
POLYLINE
  5
75
  8
0
 62
     7
 66
     1
 10
0.0
 20
0.0
 30
0.0
  0
VERTEX
  5
4B6
  8
0
 62
     7
 10
538.9428444444444
 20
23.04803055555556
 30
0.0
  0
VERTEX
  5
4B7
  8
0
 62
     7
 10
538.9625104530364
 20
23.04174499160076
 30
0.0
  0
VERTEX
  5
4B8
  8
0
 62
     7
 10
538.9835868071631
 20
23.03467746752829
 30
0.0
  0
VERTEX
  5
4B9
  8
0
 62
     7
 10
539.0059441243488
 20
23.02691694335937
 30
0.0
  0
VERTEX
  5
4BA
  8
0
 62
     7
 10
539.0294530221192
 20
23.01855237911523
 30
0.0
  0
VERTEX
  5
4BB
  8
0
 62
     7
 10
539.0539841179992
 20
23.00967273481707
 30
0.0
  0
VERTEX
  5
4BC
  8
0
 62
     7
 10
539.0794080295138
 20
23.00036697048611
 30
0.0
  0
VERTEX
  5
4BD
  8
0
 62
     7
 10
539.1055953741882
 20
22.99072404614358
 30
0.0
  0
VERTEX
  5
4BE
  8
0
 62
     7
 10
539.1324167695473
 20
22.9808329218107
 30
0.0
  0
VERTEX
  5
4BF
  8
0
 62
     7
 10
539.1597428331163
 20
22.97078255750868
 30
0.0
  0
VERTEX
  5
4C0
  8
0
 62
     7
 10
539.1874441824202
 20
22.96066191325874
 30
0.0
  0
VERTEX
  5
4C1
  8
0
 62
     7
 10
539.2153914349842
 20
22.95055994908211
 30
0.0
  0
VERTEX
  5
4C2
  8
0
 62
     7
 10
539.2434552083334
 20
22.940565625
 30
0.0
  0
VERTEX
  5
4C3
  8
0
 62
     7
 10
539.2715061199926
 20
22.93076790103363
 30
0.0
  0
VERTEX
  5
4C4
  8
0
 62
     7
 10
539.2994147874872
 20
22.92125573720422
 30
0.0
  0
VERTEX
  5
4C5
  8
0
 62
     7
 10
539.3270518283421
 20
22.91211809353298
 30
0.0
  0
VERTEX
  5
4C6
  8
0
 62
     7
 10
539.3542878600824
 20
22.90344393004115
 30
0.0
  0
VERTEX
  5
4C7
  8
0
 62
     7
 10
539.3809935002331
 20
22.89532220674993
 30
0.0
  0
VERTEX
  5
4C8
  8
0
 62
     7
 10
539.4070393663194
 20
22.88784188368056
 30
0.0
  0
VERTEX
  5
4C9
  8
0
 62
     7
 10
539.4322960758664
 20
22.88109192085423
 30
0.0
  0
VERTEX
  5
4CA
  8
0
 62
     7
 10
539.4566342463993
 20
22.87516127829218
 30
0.0
  0
VERTEX
  5
4CB
  8
0
 62
     7
 10
539.4799244954427
 20
22.87013891601562
 30
0.0
  0
VERTEX
  5
4CC
  8
0
 62
     7
 10
539.5020374405221
 20
22.86611379404578
 30
0.0
  0
VERTEX
  5
4CD
  8
0
 62
     7
 10
539.5228436991625
 20
22.86317487240387
 30
0.0
  0
VERTEX
  5
4CE
  8
0
 62
     7
 10
539.5422138888889
 20
22.86141111111111
 30
0.0
  0
SEQEND
  5
4CF
  8
0
 62
     7
  0
POLYLINE
  5
76
  8
0
 62
     7
 66
     1
 10
0.0
 20
0.0
 30
0.0
  0
VERTEX
  5
4D0
  8
0
 62
     7
 10
539.5422138888889
 20
22.86141111111111
 30
0.0
  0
VERTEX
  5
4D1
  8
0
 62
     7
 10
539.562102833438
 20
22.86039309815458
 30
0.0
  0
VERTEX
  5
4D2
  8
0
 62
     7
 10
539.5821600517619
 20
22.85987424125515
 30
0.0
  0
VERTEX
  5
4D3
  8
0
 62
     7
 10
539.6023700792101
 20
22.85982085503472
 30
0.0
  0
VERTEX
  5
4D4
  8
0
 62
     7
 10
539.6227174511317
 20
22.86019925411523
 30
0.0
  0
VERTEX
  5
4D5
  8
0
 62
     7
 10
539.6431867028758
 20
22.86097575311857
 30
0.0
  0
VERTEX
  5
4D6
  8
0
 62
     7
 10
539.6637623697917
 20
22.86211666666667
 30
0.0
  0
VERTEX
  5
4D7
  8
0
 62
     7
 10
539.6844289872283
 20
22.86358830938143
 30
0.0
  0
VERTEX
  5
4D8
  8
0
 62
     7
 10
539.705171090535
 20
22.86535699588477
 30
0.0
  0
VERTEX
  5
4D9
  8
0
 62
     7
 10
539.7259732150608
 20
22.86738904079861
 30
0.0
  0
VERTEX
  5
4DA
  8
0
 62
     7
 10
539.7468198961548
 20
22.86965075874485
 30
0.0
  0
VERTEX
  5
4DB
  8
0
 62
     7
 10
539.7676956691664
 20
22.87210846434542
 30
0.0
  0
VERTEX
  5
4DC
  8
0
 62
     7
 10
539.7885850694444
 20
22.87472847222222
 30
0.0
  0
VERTEX
  5
4DD
  8
0
 62
     7
 10
539.8094726323384
 20
22.87747709699717
 30
0.0
  0
VERTEX
  5
4DE
  8
0
 62
     7
 10
539.830342893197
 20
22.88032065329218
 30
0.0
  0
VERTEX
  5
4DF
  8
0
 62
     7
 10
539.8511803873698
 20
22.88322545572917
 30
0.0
  0
VERTEX
  5
4E0
  8
0
 62
     7
 10
539.8719696502058
 20
22.88615781893004
 30
0.0
  0
VERTEX
  5
4E1
  8
0
 62
     7
 10
539.8926952170541
 20
22.88908405751671
 30
0.0
  0
VERTEX
  5
4E2
  8
0
 62
     7
 10
539.9133416232638
 20
22.89197048611111
 30
0.0
  0
VERTEX
  5
4E3
  8
0
 62
     7
 10
539.9338934041843
 20
22.89478341933513
 30
0.0
  0
VERTEX
  5
4E4
  8
0
 62
     7
 10
539.9543350951647
 20
22.89748917181069
 30
0.0
  0
VERTEX
  5
4E5
  8
0
 62
     7
 10
539.9746512315538
 20
22.90005405815972
 30
0.0
  0
VERTEX
  5
4E6
  8
0
 62
     7
 10
539.9948263487009
 20
22.90244439300412
 30
0.0
  0
VERTEX
  5
4E7
  8
0
 62
     7
 10
540.0148449819557
 20
22.90462649096579
 30
0.0
  0
VERTEX
  5
4E8
  8
0
 62
     7
 10
540.0346916666666
 20
22.90656666666666
 30
0.0
  0
SEQEND
  5
4E9
  8
0
 62
     7
  0
POLYLINE
  5
77
  8
0
 62
     7
 66
     1
 10
0.0
 20
0.0
 30
0.0
  0
VERTEX
  5
4EA
  8
0
 62
     7
 10
540.0346916666666
 20
22.90656666666666
 30
0.0
  0
VERTEX
  5
4EB
  8
0
 62
     7
 10
540.0816534219877
 20
22.91088633154095
 30
0.0
  0
VERTEX
  5
4EC
  8
0
 62
     7
 10
540.1286118087705
 20
22.91520216853138
 30
0.0
  0
VERTEX
  5
4ED
  8
0
 62
     7
 10
540.1755671332464
 20
22.91951402452256
 30
0.0
  0
VERTEX
  5
4EE
  8
0
 62
     7
 10
540.2225197016461
 20
22.92382174639917
 30
0.0
  0
VERTEX
  5
4EF
  8
0
 62
     7
 10
540.2694698201999
 20
22.92812518104584
 30
0.0
  0
VERTEX
  5
4F0
  8
0
 62
     7
 10
540.3164177951388
 20
22.93242417534722
 30
0.0
  0
VERTEX
  5
4F1
  8
0
 62
     7
 10
540.3633639326935
 20
22.93671857618795
 30
0.0
  0
VERTEX
  5
4F2
  8
0
 62
     7
 10
540.4103085390946
 20
22.94100823045267
 30
0.0
  0
VERTEX
  5
4F3
  8
0
 62
     7
 10
540.4572519205728
 20
22.94529298502604
 30
0.0
  0
VERTEX
  5
4F4
  8
0
 62
     7
 10
540.5041943833589
 20
22.94957268679269
 30
0.0
  0
VERTEX
  5
4F5
  8
0
 62
     7
 10
540.5511362336838
 20
22.95384718263728
 30
0.0
  0
VERTEX
  5
4F6
  8
0
 62
     7
 10
540.5980777777777
 20
22.95811631944444
 30
0.0
  0
VERTEX
  5
4F7
  8
0
 62
     7
 10
540.6450193218718
 20
22.96237994409883
 30
0.0
  0
VERTEX
  5
4F8
  8
0
 62
     7
 10
540.6919611721964
 20
22.96663790348508
 30
0.0
  0
VERTEX
  5
4F9
  8
0
 62
     7
 10
540.7389036349825
 20
22.97089004448785
 30
0.0
  0
VERTEX
  5
4FA
  8
0
 62
     7
 10
540.7858470164609
 20
22.97513621399177
 30
0.0
  0
VERTEX
  5
4FB
  8
0
 62
     7
 10
540.832791622862
 20
22.97937625888149
 30
0.0
  0
VERTEX
  5
4FC
  8
0
 62
     7
 10
540.8797377604166
 20
22.98361002604167
 30
0.0
  0
VERTEX
  5
4FD
  8
0
 62
     7
 10
540.9266857353556
 20
22.98783736235693
 30
0.0
  0
VERTEX
  5
4FE
  8
0
 62
     7
 10
540.9736358539095
 20
22.99205811471193
 30
0.0
  0
VERTEX
  5
4FF
  8
0
 62
     7
 10
541.020588422309
 20
22.99627212999131
 30
0.0
  0
VERTEX
  5
500
  8
0
 62
     7
 10
541.067543746785
 20
23.00047925507973
 30
0.0
  0
VERTEX
  5
501
  8
0
 62
     7
 10
541.1145021335681
 20
23.00467933686181
 30
0.0
  0
VERTEX
  5
502
  8
0
 62
     7
 10
541.1614638888889
 20
23.00887222222222
 30
0.0
  0
SEQEND
  5
503
  8
0
 62
     7
  0
POLYLINE
  5
78
  8
0
 62
     7
 66
     1
 10
0.0
 20
0.0
 30
0.0
  0
VERTEX
  5
504
  8
0
 62
     7
 10
541.1614638888889
 20
23.00887222222222
 30
0.0
  0
VERTEX
  5
505
  8
0
 62
     7
 10
541.473685747412
 20
23.03666424133552
 30
0.0
  0
VERTEX
  5
506
  8
0
 62
     7
 10
541.7858491158693
 20
23.06430038901749
 30
0.0
  0
VERTEX
  5
507
  8
0
 62
     7
 10
542.0979579752603
 20
23.09177913411458
 30
0.0
  0
VERTEX
  5
508
  8
0
 62
     7
 10
542.4100163065843
 20
23.11909894547325
 30
0.0
  0
VERTEX
  5
509
  8
0
 62
     7
 10
542.7220280908404
 20
23.14625829193994
 30
0.0
  0
VERTEX
  5
50A
  8
0
 62
     7
 10
543.0339973090277
 20
23.17325564236111
 30
0.0
  0
VERTEX
  5
50B
  8
0
 62
     7
 10
543.3459279421456
 20
23.2000894655832
 30
0.0
  0
VERTEX
  5
50C
  8
0
 62
     7
 10
543.6578239711934
 20
23.22675823045267
 30
0.0
  0
VERTEX
  5
50D
  8
0
 62
     7
 10
543.9696893771701
 20
23.25326040581597
 30
0.0
  0
VERTEX
  5
50E
  8
0
 62
     7
 10
544.281528141075
 20
23.27959446051955
 30
0.0
  0
VERTEX
  5
50F
  8
0
 62
     7
 10
544.5933442439075
 20
23.30575886340985
 30
0.0
  0
VERTEX
  5
510
  8
0
 62
     7
 10
544.9051416666666
 20
23.33175208333333
 30
0.0
  0
VERTEX
  5
511
  8
0
 62
     7
 10
545.2169243903517
 20
23.35757258913645
 30
0.0
  0
VERTEX
  5
512
  8
0
 62
     7
 10
545.5286963959619
 20
23.38321884966564
 30
0.0
  0
VERTEX
  5
513
  8
0
 62
     7
 10
545.8404616644964
 20
23.40868933376736
 30
0.0
  0
VERTEX
  5
514
  8
0
 62
     7
 10
546.1522241769549
 20
23.43398251028806
 30
0.0
  0
VERTEX
  5
515
  8
0
 62
     7
 10
546.4639879143358
 20
23.4590968480742
 30
0.0
  0
VERTEX
  5
516
  8
0
 62
     7
 10
546.775756857639
 20
23.48403081597223
 30
0.0
  0
VERTEX
  5
517
  8
0
 62
     7
 10
547.0875349878633
 20
23.50878288282857
 30
0.0
  0
VERTEX
  5
518
  8
0
 62
     7
 10
547.3993262860083
 20
23.53335151748971
 30
0.0
  0
VERTEX
  5
519
  8
0
 62
     7
 10
547.7111347330729
 20
23.55773518880208
 30
0.0
  0
VERTEX
  5
51A
  8
0
 62
     7
 10
548.0229643100566
 20
23.58193236561214
 30
0.0
  0
VERTEX
  5
51B
  8
0
 62
     7
 10
548.3348189979585
 20
23.60594151676633
 30
0.0
  0
VERTEX
  5
51C
  8
0
 62
     7
 10
548.6467027777778
 20
23.62976111111111
 30
0.0
  0
SEQEND
  5
51D
  8
0
 62
     7
  0
POLYLINE
  5
79
  8
0
 62
     7
 66
     1
 10
0.0
 20
0.0
 30
0.0
  0
VERTEX
  5
51E
  8
0
 62
     7
 10
548.6467027777778
 20
23.62976111111111
 30
0.0
  0
VERTEX
  5
51F
  8
0
 62
     7
 10
550.0298615324799
 20
23.73355252359021
 30
0.0
  0
VERTEX
  5
520
  8
0
 62
     7
 10
551.4094433593751
 20
23.83404414705504
 30
0.0
  0
VERTEX
  5
521
  8
0
 62
     7
 10
552.7856232693142
 20
23.93122143554687
 30
0.0
  0
VERTEX
  5
522
  8
0
 62
     7
 10
554.1585762731481
 20
24.025069843107
 30
0.0
  0
VERTEX
  5
523
  8
0
 62
     7
 10
555.5284773817275
 20
24.11557482377668
 30
0.0
  0
VERTEX
  5
524
  8
0
 62
     7
 10
556.8955016059028
 20
24.20272183159722
 30
0.0
  0
VERTEX
  5
525
  8
0
 62
     7
 10
558.2598239565249
 20
24.28649632060989
 30
0.0
  0
VERTEX
  5
526
  8
0
 62
     7
 10
559.6216194444445
 20
24.36688374485596
 30
0.0
  0
VERTEX
  5
527
  8
0
 62
     7
 10
560.9810630805122
 20
24.44386955837674
 30
0.0
  0
VERTEX
  5
528
  8
0
 62
     7
 10
562.3383298755787
 20
24.51743921521348
 30
0.0
  0
VERTEX
  5
529
  8
0
 62
     7
 10
563.6935948404947
 20
24.58757816940747
 30
0.0
  0
VERTEX
  5
52A
  8
0
 62
     7
 10
565.0470329861112
 20
24.654271875
 30
0.0
  0
VERTEX
  5
52B
  8
0
 62
     7
 10
566.3988193232783
 20
24.71750578603234
 30
0.0
  0
VERTEX
  5
52C
  8
0
 62
     7
 10
567.7491288628473
 20
24.77726535654578
 30
0.0
  0
VERTEX
  5
52D
  8
0
 62
     7
 10
569.0981366156684
 20
24.8335360405816
 30
0.0
  0
VERTEX
  5
52E
  8
0
 62
     7
 10
570.4460175925926
 20
24.88630329218107
 30
0.0
  0
VERTEX
  5
52F
  8
0
 62
     7
 10
571.7929468044704
 20
24.93555256538549
 30
0.0
  0
VERTEX
  5
530
  8
0
 62
     7
 10
573.1390992621527
 20
24.98126931423611
 30
0.0
  0
VERTEX
  5
531
  8
0
 62
     7
 10
574.4846499764902
 20
25.02343899277425
 30
0.0
  0
VERTEX
  5
532
  8
0
 62
     7
 10
575.8297739583332
 20
25.06204705504115
 30
0.0
  0
VERTEX
  5
533
  8
0
 62
     7
 10
577.1746462185329
 20
25.09707895507812
 30
0.0
  0
VERTEX
  5
534
  8
0
 62
     7
 10
578.5194417679397
 20
25.12852014692644
 30
0.0
  0
VERTEX
  5
535
  8
0
 62
     7
 10
579.8643356174044
 20
25.15635608462738
 30
0.0
  0
VERTEX
  5
536
  8
0
 62
     7
 10
581.2095027777777
 20
25.18057222222222
 30
0.0
  0
SEQEND
  5
537
  8
0
 62
     7
  0
POLYLINE
  5
7A
  8
0
 62
     7
 66
     1
 10
0.0
 20
0.0
 30
0.0
  0
VERTEX
  5
538
  8
0
 62
     7
 10
581.2095027777777
 20
25.18057222222222
 30
0.0
  0
VERTEX
  5
539
  8
0
 62
     7
 10
582.0150381942435
 20
25.19334242561246
 30
0.0
  0
VERTEX
  5
53A
  8
0
 62
     7
 10
582.8195840261703
 20
25.20472586323302
 30
0.0
  0
VERTEX
  5
53B
  8
0
 62
     7
 10
583.6232090223524
 20
25.21468073459201
 30
0.0
  0
VERTEX
  5
53C
  8
0
 62
     7
 10
584.4259819315844
 20
25.22316523919753
 30
0.0
  0
VERTEX
  5
53D
  8
0
 62
     7
 10
585.2279715026605
 20
25.23013757655768
 30
0.0
  0
VERTEX
  5
53E
  8
0
 62
     7
 10
586.029246484375
 20
25.23555594618055
 30
0.0
  0
VERTEX
  5
53F
  8
0
 62
     7
 10
586.8298756255224
 20
25.23937854757427
 30
0.0
  0
VERTEX
  5
540
  8
0
 62
     7
 10
587.629927674897
 20
25.24156358024691
 30
0.0
  0
VERTEX
  5
541
  8
0
 62
     7
 10
588.4294713812933
 20
25.2420692437066
 30
0.0
  0
VERTEX
  5
542
  8
0
 62
     7
 10
589.2285754935058
 20
25.24085373746142
 30
0.0
  0
VERTEX
  5
543
  8
0
 62
     7
 10
590.0273087603283
 20
25.23787526101948
 30
0.0
  0
VERTEX
  5
544
  8
0
 62
     7
 10
590.8257399305555
 20
25.23309201388889
 30
0.0
  0
VERTEX
  5
545
  8
0
 62
     7
 10
591.623937752982
 20
25.22646219557774
 30
0.0
  0
VERTEX
  5
546
  8
0
 62
     7
 10
592.4219709764018
 20
25.21794400559413
 30
0.0
  0
VERTEX
  5
547
  8
0
 62
     7
 10
593.2199083496093
 20
25.20749564344618
 30
0.0
  0
VERTEX
  5
548
  8
0
 62
     7
 10
594.0178186213991
 20
25.19507530864198
 30
0.0
  0
VERTEX
  5
549
  8
0
 62
     7
 10
594.8157705405655
 20
25.18064120068962
 30
0.0
  0
VERTEX
  5
54A
  8
0
 62
     7
 10
595.6138328559027
 20
25.16415151909722
 30
0.0
  0
VERTEX
  5
54B
  8
0
 62
     7
 10
596.4120743162053
 20
25.14556446337288
 30
0.0
  0
VERTEX
  5
54C
  8
0
 62
     7
 10
597.2105636702676
 20
25.12483823302469
 30
0.0
  0
VERTEX
  5
54D
  8
0
 62
     7
 10
598.0093696668837
 20
25.10193102756076
 30
0.0
  0
VERTEX
  5
54E
  8
0
 62
     7
 10
598.8085610548483
 20
25.07680104648919
 30
0.0
  0
VERTEX
  5
54F
  8
0
 62
     7
 10
599.6082065829555
 20
25.04940648931809
 30
0.0
  0
VERTEX
  5
550
  8
0
 62
     7
 10
600.408375
 20
25.01970555555555
 30
0.0
  0
SEQEND
  5
551
  8
0
 62
     7
  0
POLYLINE
  5
7B
  8
0
 62
     7
 66
     1
 10
0.0
 20
0.0
 30
0.0
  0
VERTEX
  5
552
  8
0
 62
     7
 10
600.408375
 20
25.01970555555555
 30
0.0
  0
VERTEX
  5
553
  8
0
 62
     7
 10
600.9812526298869
 20
24.99696547550154
 30
0.0
  0
VERTEX
  5
554
  8
0
 62
     7
 10
601.5553257844649
 20
24.97283265817901
 30
0.0
  0
VERTEX
  5
555
  8
0
 62
     7
 10
602.130239236111
 20
24.94729240451389
 30
0.0
  0
VERTEX
  5
556
  8
0
 62
     7
 10
602.7056377572017
 20
24.9203300154321
 30
0.0
  0
VERTEX
  5
557
  8
0
 62
     7
 10
603.2811661201131
 20
24.89193079185956
 30
0.0
  0
VERTEX
  5
558
  8
0
 62
     7
 10
603.8564690972222
 20
24.86208003472222
 30
0.0
  0
VERTEX
  5
559
  8
0
 62
     7
 10
604.4311914609052
 20
24.83076304494598
 30
0.0
  0
VERTEX
  5
55A
  8
0
 62
     7
 10
605.0049779835391
 20
24.79796512345679
 30
0.0
  0
VERTEX
  5
55B
  8
0
 62
     7
 10
605.5774734375
 20
24.76367157118055
 30
0.0
  0
VERTEX
  5
55C
  8
0
 62
     7
 10
606.1483225951647
 20
24.72786768904321
 30
0.0
  0
VERTEX
  5
55D
  8
0
 62
     7
 10
606.7171702289095
 20
24.69053877797068
 30
0.0
  0
VERTEX
  5
55E
  8
0
 62
     7
 10
607.2836611111111
 20
24.65167013888889
 30
0.0
  0
VERTEX
  5
55F
  8
0
 62
     7
 10
607.8474400141461
 20
24.61124707272376
 30
0.0
  0
VERTEX
  5
560
  8
0
 62
     7
 10
608.4081517103908
 20
24.56925488040123
 30
0.0
  0
VERTEX
  5
561
  8
0
 62
     7
 10
608.9654409722222
 20
24.52567886284722
 30
0.0
  0
VERTEX
  5
562
  8
0
 62
     7
 10
609.5189525720165
 20
24.48050432098766
 30
0.0
  0
VERTEX
  5
563
  8
0
 62
     7
 10
610.0683312821502
 20
24.43371655574846
 30
0.0
  0
VERTEX
  5
564
  8
0
 62
     7
 10
610.613221875
 20
24.38530086805555
 30
0.0
  0
VERTEX
  5
565
  8
0
 62
     7
 10
611.1532691229423
 20
24.33524255883488
 30
0.0
  0
VERTEX
  5
566
  8
0
 62
     7
 10
611.6881177983539
 20
24.28352692901234
 30
0.0
  0
VERTEX
  5
567
  8
0
 62
     7
 10
612.2174126736109
 20
24.23013927951389
 30
0.0
  0
VERTEX
  5
568
  8
0
 62
     7
 10
612.7407985210904
 20
24.17506491126543
 30
0.0
  0
VERTEX
  5
569
  8
0
 62
     7
 10
613.2579201131687
 20
24.1182891251929
 30
0.0
  0
VERTEX
  5
56A
  8
0
 62
     7
 10
613.7684222222222
 20
24.05979722222222
 30
0.0
  0
SEQEND
  5
56B
  8
0
 62
     7
  0
POLYLINE
  5
7C
  8
0
 62
     7
 66
     1
 10
0.0
 20
0.0
 30
0.0
  0
VERTEX
  5
56C
  8
0
 62
     7
 10
613.7684222222222
 20
24.05979722222222
 30
0.0
  0
VERTEX
  5
56D
  8
0
 62
     7
 10
614.0094822139032
 20
24.03112177854938
 30
0.0
  0
VERTEX
  5
56E
  8
0
 62
     7
 10
614.2578628038194
 20
24.00071919367284
 30
0.0
  0
VERTEX
  5
56F
  8
0
 62
     7
 10
614.5128294976128
 20
23.96868133680556
 30
0.0
  0
VERTEX
  5
570
  8
0
 62
     7
 10
614.7736478009259
 20
23.93510007716049
 30
0.0
  0
VERTEX
  5
571
  8
0
 62
     7
 10
615.0395832194009
 20
23.90006728395061
 30
0.0
  0
VERTEX
  5
572
  8
0
 62
     7
 10
615.3099012586805
 20
23.86367482638889
 30
0.0
  0
VERTEX
  5
573
  8
0
 62
     7
 10
615.5838674244069
 20
23.82601457368828
 30
0.0
  0
VERTEX
  5
574
  8
0
 62
     7
 10
615.8607472222222
 20
23.78717839506173
 30
0.0
  0
VERTEX
  5
575
  8
0
 62
     7
 10
616.139806157769
 20
23.74725815972222
 30
0.0
  0
VERTEX
  5
576
  8
0
 62
     7
 10
616.4203097366898
 20
23.70634573688272
 30
0.0
  0
VERTEX
  5
577
  8
0
 62
     7
 10
616.7015234646267
 20
23.66453299575617
 30
0.0
  0
VERTEX
  5
578
  8
0
 62
     7
 10
616.9827128472222
 20
23.62191180555556
 30
0.0
  0
VERTEX
  5
579
  8
0
 62
     7
 10
617.2631433901186
 20
23.57857403549383
 30
0.0
  0
VERTEX
  5
57A
  8
0
 62
     7
 10
617.5420805989581
 20
23.53461155478395
 30
0.0
  0
VERTEX
  5
57B
  8
0
 62
     7
 10
617.8187899793836
 20
23.49011623263889
 30
0.0
  0
VERTEX
  5
57C
  8
0
 62
     7
 10
618.092537037037
 20
23.4451799382716
 30
0.0
  0
VERTEX
  5
57D
  8
0
 62
     7
 10
618.3625872775607
 20
23.39989454089506
 30
0.0
  0
VERTEX
  5
57E
  8
0
 62
     7
 10
618.6282062065973
 20
23.35435190972222
 30
0.0
  0
VERTEX
  5
57F
  8
0
 62
     7
 10
618.8886593297887
 20
23.30864391396605
 30
0.0
  0
VERTEX
  5
580
  8
0
 62
     7
 10
619.1432121527777
 20
23.26286242283951
 30
0.0
  0
VERTEX
  5
581
  8
0
 62
     7
 10
619.3911301812066
 20
23.21709930555555
 30
0.0
  0
VERTEX
  5
582
  8
0
 62
     7
 10
619.6316789207176
 20
23.17144643132716
 30
0.0
  0
VERTEX
  5
583
  8
0
 62
     7
 10
619.864123876953
 20
23.12599566936728
 30
0.0
  0
VERTEX
  5
584
  8
0
 62
     7
 10
620.0877305555555
 20
23.08083888888889
 30
0.0
  0
SEQEND
  5
585
  8
0
 62
     7
  0
POLYLINE
  5
7D
  8
0
 62
     7
 66
     1
 10
0.0
 20
0.0
 30
0.0
  0
VERTEX
  5
586
  8
0
 62
     7
 10
620.0877305555555
 20
23.08083888888889
 30
0.0
  0
VERTEX
  5
587
  8
0
 62
     7
 10
620.114570758584
 20
23.0753138744213
 30
0.0
  0
VERTEX
  5
588
  8
0
 62
     7
 10
620.1414679205245
 20
23.06976313657407
 30
0.0
  0
VERTEX
  5
589
  8
0
 62
     7
 10
620.168420203993
 20
23.06418667534722
 30
0.0
  0
VERTEX
  5
58A
  8
0
 62
     7
 10
620.1954257716048
 20
23.05858449074074
 30
0.0
  0
VERTEX
  5
58B
  8
0
 62
     7
 10
620.222482785976
 20
23.05295658275463
 30
0.0
  0
VERTEX
  5
58C
  8
0
 62
     7
 10
620.2495894097221
 20
23.04730295138889
 30
0.0
  0
VERTEX
  5
58D
  8
0
 62
     7
 10
620.276743805459
 20
23.04162359664351
 30
0.0
  0
VERTEX
  5
58E
  8
0
 62
     7
 10
620.3039441358023
 20
23.03591851851852
 30
0.0
  0
VERTEX
  5
58F
  8
0
 62
     7
 10
620.331188563368
 20
23.03018771701389
 30
0.0
  0
VERTEX
  5
590
  8
0
 62
     7
 10
620.3584752507716
 20
23.02443119212963
 30
0.0
  0
VERTEX
  5
591
  8
0
 62
     7
 10
620.3858023606288
 20
23.01864894386574
 30
0.0
  0
VERTEX
  5
592
  8
0
 62
     7
 10
620.4131680555556
 20
23.01284097222222
 30
0.0
  0
VERTEX
  5
593
  8
0
 62
     7
 10
620.4405704981674
 20
23.00700727719907
 30
0.0
  0
VERTEX
  5
594
  8
0
 62
     7
 10
620.4680078510802
 20
23.00114785879629
 30
0.0
  0
VERTEX
  5
595
  8
0
 62
     7
 10
620.4954782769096
 20
22.99526271701389
 30
0.0
  0
VERTEX
  5
596
  8
0
 62
     7
 10
620.5229799382716
 20
22.98935185185185
 30
0.0
  0
VERTEX
  5
597
  8
0
 62
     7
 10
620.5505109977815
 20
22.98341526331019
 30
0.0
  0
VERTEX
  5
598
  8
0
 62
     7
 10
620.5780696180556
 20
22.97745295138889
 30
0.0
  0
VERTEX
  5
599
  8
0
 62
     7
 10
620.605653961709
 20
22.97146491608796
 30
0.0
  0
VERTEX
  5
59A
  8
0
 62
     7
 10
620.633262191358
 20
22.96545115740741
 30
0.0
  0
VERTEX
  5
59B
  8
0
 62
     7
 10
620.660892469618
 20
22.95941167534722
 30
0.0
  0
VERTEX
  5
59C
  8
0
 62
     7
 10
620.6885429591049
 20
22.95334646990741
 30
0.0
  0
VERTEX
  5
59D
  8
0
 62
     7
 10
620.7162118224344
 20
22.94725554108797
 30
0.0
  0
VERTEX
  5
59E
  8
0
 62
     7
 10
620.7438972222221
 20
22.94113888888889
 30
0.0
  0
SEQEND
  5
59F
  8
0
 62
     7
  0
POLYLINE
  5
7E
  8
0
 62
     7
 66
     1
 10
0.0
 20
0.0
 30
0.0
  0
VERTEX
  5
5A0
  8
0
 62
     7
 10
620.7438972222221
 20
22.94113888888889
 30
0.0
  0
VERTEX
  5
5A1
  8
0
 62
     7
 10
620.7531767272698
 20
22.93900259793756
 30
0.0
  0
VERTEX
  5
5A2
  8
0
 62
     7
 10
620.7626589570472
 20
22.93666771637089
 30
0.0
  0
VERTEX
  5
5A3
  8
0
 62
     7
 10
620.7723261501735
 20
22.93415981445312
 30
0.0
  0
VERTEX
  5
5A4
  8
0
 62
     7
 10
620.7821605452675
 20
22.93150446244856
 30
0.0
  0
VERTEX
  5
5A5
  8
0
 62
     7
 10
620.7921443809478
 20
22.92872723062146
 30
0.0
  0
VERTEX
  5
5A6
  8
0
 62
     7
 10
620.8022598958333
 20
22.92585368923611
 30
0.0
  0
VERTEX
  5
5A7
  8
0
 62
     7
 10
620.8124893285429
 20
22.92290940855678
 30
0.0
  0
VERTEX
  5
5A8
  8
0
 62
     7
 10
620.8228149176954
 20
22.91991995884773
 30
0.0
  0
VERTEX
  5
5A9
  8
0
 62
     7
 10
620.8332189019097
 20
22.91691091037326
 30
0.0
  0
VERTEX
  5
5AA
  8
0
 62
     7
 10
620.8436835198046
 20
22.91390783339763
 30
0.0
  0
VERTEX
  5
5AB
  8
0
 62
     7
 10
620.8541910099987
 20
22.91093629818512
 30
0.0
  0
VERTEX
  5
5AC
  8
0
 62
     7
 10
620.864723611111
 20
22.908021875
 30
0.0
  0
VERTEX
  5
5AD
  8
0
 62
     7
 10
620.8752635617604
 20
22.90519013410654
 30
0.0
  0
VERTEX
  5
5AE
  8
0
 62
     7
 10
620.8857931005658
 20
22.90246664576903
 30
0.0
  0
VERTEX
  5
5AF
  8
0
 62
     7
 10
620.8962944661458
 20
22.89987698025173
 30
0.0
  0
VERTEX
  5
5B0
  8
0
 62
     7
 10
620.9067498971193
 20
22.89744670781893
 30
0.0
  0
VERTEX
  5
5B1
  8
0
 62
     7
 10
620.9171416321051
 20
22.89520139873489
 30
0.0
  0
VERTEX
  5
5B2
  8
0
 62
     7
 10
620.9274519097222
 20
22.89316662326389
 30
0.0
  0
VERTEX
  5
5B3
  8
0
 62
     7
 10
620.9376629685893
 20
22.8913679516702
 30
0.0
  0
VERTEX
  5
5B4
  8
0
 62
     7
 10
620.9477570473251
 20
22.88983095421811
 30
0.0
  0
VERTEX
  5
5B5
  8
0
 62
     7
 10
620.9577163845487
 20
22.88858120117187
 30
0.0
  0
VERTEX
  5
5B6
  8
0
 62
     7
 10
620.9675232188785
 20
22.88764426279578
 30
0.0
  0
VERTEX
  5
5B7
  8
0
 62
     7
 10
620.9771597889338
 20
22.8870457093541
 30
0.0
  0
VERTEX
  5
5B8
  8
0
 62
     7
 10
620.9866083333333
 20
22.88681111111111
 30
0.0
  0
SEQEND
  5
5B9
  8
0
 62
     7
  0
POLYLINE
  5
7F
  8
0
 62
     7
 66
     1
 10
0.0
 20
0.0
 30
0.0
  0
VERTEX
  5
5BA
  8
0
 62
     7
 10
620.9866083333333
 20
22.88681111111111
 30
0.0
  0
VERTEX
  5
5BB
  8
0
 62
     7
 10
621.0115194104858
 20
22.88710593472705
 30
0.0
  0
VERTEX
  5
5BC
  8
0
 62
     7
 10
621.0366719505528
 20
22.88813341531636
 30
0.0
  0
VERTEX
  5
5BD
  8
0
 62
     7
 10
621.0620428331163
 20
22.88984348415799
 30
0.0
  0
VERTEX
  5
5BE
  8
0
 62
     7
 10
621.0876089377572
 20
22.89218607253087
 30
0.0
  0
VERTEX
  5
5BF
  8
0
 62
     7
 10
621.1133471440569
 20
22.89511111171393
 30
0.0
  0
VERTEX
  5
5C0
  8
0
 62
     7
 10
621.1392343315972
 20
22.89856853298611
 30
0.0
  0
VERTEX
  5
5C1
  8
0
 62
     7
 10
621.1652473799592
 20
22.90250826762635
 30
0.0
  0
VERTEX
  5
5C2
  8
0
 62
     7
 10
621.1913631687241
 20
22.90688024691358
 30
0.0
  0
VERTEX
  5
5C3
  8
0
 62
     7
 10
621.2175585774739
 20
22.91163440212674
 30
0.0
  0
VERTEX
  5
5C4
  8
0
 62
     7
 10
621.2438104857895
 20
22.91672066454475
 30
0.0
  0
VERTEX
  5
5C5
  8
0
 62
     7
 10
621.2700957732525
 20
22.92208896544657
 30
0.0
  0
VERTEX
  5
5C6
  8
0
 62
     7
 10
621.2963913194444
 20
22.92768923611111
 30
0.0
  0
VERTEX
  5
5C7
  8
0
 62
     7
 10
621.3226740039463
 20
22.93347140781732
 30
0.0
  0
VERTEX
  5
5C8
  8
0
 62
     7
 10
621.3489207063399
 20
22.93938541184414
 30
0.0
  0
VERTEX
  5
5C9
  8
0
 62
     7
 10
621.3751083062064
 20
22.94538117947049
 30
0.0
  0
VERTEX
  5
5CA
  8
0
 62
     7
 10
621.4012136831275
 20
22.95140864197531
 30
0.0
  0
VERTEX
  5
5CB
  8
0
 62
     7
 10
621.4272137166843
 20
22.95741773063754
 30
0.0
  0
VERTEX
  5
5CC
  8
0
 62
     7
 10
621.4530852864583
 20
22.96335837673611
 30
0.0
  0
VERTEX
  5
5CD
  8
0
 62
     7
 10
621.4788052720309
 20
22.96918051154996
 30
0.0
  0
VERTEX
  5
5CE
  8
0
 62
     7
 10
621.5043505529835
 20
22.97483406635802
 30
0.0
  0
VERTEX
  5
5CF
  8
0
 62
     7
 10
621.5296980088975
 20
22.98026897243923
 30
0.0
  0
VERTEX
  5
5D0
  8
0
 62
     7
 10
621.5548245193543
 20
22.98543516107253
 30
0.0
  0
VERTEX
  5
5D1
  8
0
 62
     7
 10
621.5797069639356
 20
22.99028256353684
 30
0.0
  0
VERTEX
  5
5D2
  8
0
 62
     7
 10
621.6043222222222
 20
22.99476111111111
 30
0.0
  0
SEQEND
  5
5D3
  8
0
 62
     7
  0
POLYLINE
  5
80
  8
0
 62
     7
 66
     1
 10
0.0
 20
0.0
 30
0.0
  0
VERTEX
  5
5D4
  8
0
 62
     7
 10
621.6043222222222
 20
22.99476111111111
 30
0.0
  0
VERTEX
  5
5D5
  8
0
 62
     7
 10
621.6162749172131
 20
22.99673407901717
 30
0.0
  0
VERTEX
  5
5D6
  8
0
 62
     7
 10
621.6289766525206
 20
22.99852836130401
 30
0.0
  0
VERTEX
  5
5D7
  8
0
 62
     7
 10
621.6423533203125
 20
23.00017473415799
 30
0.0
  0
VERTEX
  5
5D8
  8
0
 62
     7
 10
621.6563308127571
 20
23.00170397376543
 30
0.0
  0
VERTEX
  5
5D9
  8
0
 62
     7
 10
621.6708350220229
 20
23.00314685631269
 30
0.0
  0
VERTEX
  5
5DA
  8
0
 62
     7
 10
621.6857918402777
 20
23.00453415798611
 30
0.0
  0
VERTEX
  5
5DB
  8
0
 62
     7
 10
621.70112715969
 20
23.00589665497203
 30
0.0
  0
VERTEX
  5
5DC
  8
0
 62
     7
 10
621.7167668724279
 20
23.00726512345679
 30
0.0
  0
VERTEX
  5
5DD
  8
0
 62
     7
 10
621.7326368706597
 20
23.00867033962673
 30
0.0
  0
VERTEX
  5
5DE
  8
0
 62
     7
 10
621.7486630465535
 20
23.0101430796682
 30
0.0
  0
VERTEX
  5
5DF
  8
0
 62
     7
 10
621.7647712922775
 20
23.01171411976755
 30
0.0
  0
VERTEX
  5
5E0
  8
0
 62
     7
 10
621.7808875
 20
23.01341423611111
 30
0.0
  0
VERTEX
  5
5E1
  8
0
 62
     7
 10
621.7969375618891
 20
23.01527420488522
 30
0.0
  0
VERTEX
  5
5E2
  8
0
 62
     7
 10
621.8128473701132
 20
23.01732480227623
 30
0.0
  0
VERTEX
  5
5E3
  8
0
 62
     7
 10
621.8285428168402
 20
23.01959680447048
 30
0.0
  0
VERTEX
  5
5E4
  8
0
 62
     7
 10
621.8439497942387
 20
23.02212098765432
 30
0.0
  0
VERTEX
  5
5E5
  8
0
 62
     7
 10
621.8589941944767
 20
23.02492812801408
 30
0.0
  0
VERTEX
  5
5E6
  8
0
 62
     7
 10
621.8736019097223
 20
23.02804900173611
 30
0.0
  0
VERTEX
  5
5E7
  8
0
 62
     7
 10
621.8876988321438
 20
23.03151438500675
 30
0.0
  0
VERTEX
  5
5E8
  8
0
 62
     7
 10
621.9012108539094
 20
23.03535505401235
 30
0.0
  0
VERTEX
  5
5E9
  8
0
 62
     7
 10
621.9140638671876
 20
23.03960178493923
 30
0.0
  0
VERTEX
  5
5EA
  8
0
 62
     7
 10
621.926183764146
 20
23.04428535397377
 30
0.0
  0
VERTEX
  5
5EB
  8
0
 62
     7
 10
621.9374964369534
 20
23.04943653730227
 30
0.0
  0
VERTEX
  5
5EC
  8
0
 62
     7
 10
621.9479277777777
 20
23.05508611111111
 30
0.0
  0
SEQEND
  5
5ED
  8
0
 62
     7
  0
POLYLINE
  5
81
  8
0
 62
     7
 66
     1
 10
0.0
 20
0.0
 30
0.0
  0
VERTEX
  5
5EE
  8
0
 62
     7
 10
621.9479277777777
 20
23.05508611111111
 30
0.0
  0
VERTEX
  5
5EF
  8
0
 62
     7
 10
621.9502637311518
 20
23.05668024610982
 30
0.0
  0
VERTEX
  5
5F0
  8
0
 62
     7
 10
621.9524307982896
 20
23.05845383230452
 30
0.0
  0
VERTEX
  5
5F1
  8
0
 62
     7
 10
621.9544438313802
 20
23.06039155815972
 30
0.0
  0
VERTEX
  5
5F2
  8
0
 62
     7
 10
621.9563176826132
 20
23.06247811213992
 30
0.0
  0
VERTEX
  5
5F3
  8
0
 62
     7
 10
621.9580672041778
 20
23.06469818270962
 30
0.0
  0
VERTEX
  5
5F4
  8
0
 62
     7
 10
621.9597072482638
 20
23.06703645833333
 30
0.0
  0
VERTEX
  5
5F5
  8
0
 62
     7
 10
621.9612526670605
 20
23.06947762747556
 30
0.0
  0
VERTEX
  5
5F6
  8
0
 62
     7
 10
621.962718312757
 20
23.07200637860082
 30
0.0
  0
VERTEX
  5
5F7
  8
0
 62
     7
 10
621.9641190375432
 20
23.0746074001736
 30
0.0
  0
VERTEX
  5
5F8
  8
0
 62
     7
 10
621.9654696936085
 20
23.07726538065843
 30
0.0
  0
VERTEX
  5
5F9
  8
0
 62
     7
 10
621.966785133142
 20
23.0799650085198
 30
0.0
  0
VERTEX
  5
5FA
  8
0
 62
     7
 10
621.9680802083333
 20
23.08269097222222
 30
0.0
  0
VERTEX
  5
5FB
  8
0
 62
     7
 10
621.9693697713718
 20
23.0854279602302
 30
0.0
  0
VERTEX
  5
5FC
  8
0
 62
     7
 10
621.9706686744471
 20
23.08816066100823
 30
0.0
  0
VERTEX
  5
5FD
  8
0
 62
     7
 10
621.9719917697482
 20
23.09087376302083
 30
0.0
  0
VERTEX
  5
5FE
  8
0
 62
     7
 10
621.973353909465
 20
23.09355195473251
 30
0.0
  0
VERTEX
  5
5FF
  8
0
 62
     7
 10
621.9747699457866
 20
23.09617992460777
 30
0.0
  0
VERTEX
  5
600
  8
0
 62
     7
 10
621.9762547309028
 20
23.09874236111111
 30
0.0
  0
VERTEX
  5
601
  8
0
 62
     7
 10
621.9778231170026
 20
23.10122395270705
 30
0.0
  0
VERTEX
  5
602
  8
0
 62
     7
 10
621.9794899562756
 20
23.10360938786008
 30
0.0
  0
VERTEX
  5
603
  8
0
 62
     7
 10
621.9812701009115
 20
23.10588335503472
 30
0.0
  0
VERTEX
  5
604
  8
0
 62
     7
 10
621.9831784030994
 20
23.10803054269547
 30
0.0
  0
VERTEX
  5
605
  8
0
 62
     7
 10
621.9852297150286
 20
23.11003563930684
 30
0.0
  0
VERTEX
  5
606
  8
0
 62
     7
 10
621.9874388888888
 20
23.11188333333333
 30
0.0
  0
SEQEND
  5
607
  8
0
 62
     7
  0
POLYLINE
  5
82
  8
0
 62
     7
 66
     1
 10
0.0
 20
0.0
 30
0.0
  0
VERTEX
  5
608
  8
0
 62
     7
 10
621.9874388888888
 20
23.11188333333333
 30
0.0
  0
VERTEX
  5
609
  8
0
 62
     7
 10
621.9980644310218
 20
23.12153876209651
 30
0.0
  0
VERTEX
  5
60A
  8
0
 62
     7
 10
622.0116772537293
 20
23.13619539769804
 30
0.0
  0
VERTEX
  5
60B
  8
0
 62
     7
 10
622.0280014431421
 20
23.1554231391059
 30
0.0
  0
VERTEX
  5
60C
  8
0
 62
     7
 10
622.0467610853909
 20
23.17879188528806
 30
0.0
  0
VERTEX
  5
60D
  8
0
 62
     7
 10
622.0676802666055
 20
23.20587153521251
 30
0.0
  0
VERTEX
  5
60E
  8
0
 62
     7
 10
622.0904830729166
 20
23.23623198784722
 30
0.0
  0
VERTEX
  5
60F
  8
0
 62
     7
 10
622.1148935904546
 20
23.26944314216017
 30
0.0
  0
VERTEX
  5
610
  8
0
 62
     7
 10
622.1406359053498
 20
23.30507489711934
 30
0.0
  0
VERTEX
  5
611
  8
0
 62
     7
 10
622.1674341037326
 20
23.34269715169271
 30
0.0
  0
VERTEX
  5
612
  8
0
 62
     7
 10
622.1950122717335
 20
23.38187980484825
 30
0.0
  0
VERTEX
  5
613
  8
0
 62
     7
 10
622.2230944954828
 20
23.42219275555394
 30
0.0
  0
VERTEX
  5
614
  8
0
 62
     7
 10
622.251404861111
 20
23.46320590277778
 30
0.0
  0
VERTEX
  5
615
  8
0
 62
     7
 10
622.2796674547485
 20
23.50448914548772
 30
0.0
  0
VERTEX
  5
616
  8
0
 62
     7
 10
622.3076063625257
 20
23.54561238265175
 30
0.0
  0
VERTEX
  5
617
  8
0
 62
     7
 10
622.3349456705729
 20
23.58614551323785
 30
0.0
  0
VERTEX
  5
618
  8
0
 62
     7
 10
622.3614094650205
 20
23.62565843621399
 30
0.0
  0
VERTEX
  5
619
  8
0
 62
     7
 10
622.386721831999
 20
23.66372105054816
 30
0.0
  0
VERTEX
  5
61A
  8
0
 62
     7
 10
622.4106068576389
 20
23.69990325520833
 30
0.0
  0
VERTEX
  5
61B
  8
0
 62
     7
 10
622.4327886280703
 20
23.73377494916249
 30
0.0
  0
VERTEX
  5
61C
  8
0
 62
     7
 10
622.4529912294238
 20
23.7649060313786
 30
0.0
  0
VERTEX
  5
61D
  8
0
 62
     7
 10
622.4709387478299
 20
23.79286640082465
 30
0.0
  0
VERTEX
  5
61E
  8
0
 62
     7
 10
622.4863552694187
 20
23.81722595646863
 30
0.0
  0
VERTEX
  5
61F
  8
0
 62
     7
 10
622.4989648803207
 20
23.83755459727849
 30
0.0
  0
VERTEX
  5
620
  8
0
 62
     7
 10
622.5084916666666
 20
23.85342222222222
 30
0.0
  0
SEQEND
  5
621
  8
0
 62
     7
  0
POLYLINE
  5
83
  8
0
 62
     7
 66
     1
 10
0.0
 20
0.0
 30
0.0
  0
VERTEX
  5
622
  8
0
 62
     7
 10
622.5084916666666
 20
23.85342222222222
 30
0.0
  0
VERTEX
  5
623
  8
0
 62
     7
 10
622.5101195891202
 20
23.85734437411587
 30
0.0
  0
VERTEX
  5
624
  8
0
 62
     7
 10
622.5111521990741
 20
23.86242744663065
 30
0.0
  0
VERTEX
  5
625
  8
0
 62
     7
 10
622.51163359375
 20
23.86856824001736
 30
0.0
  0
VERTEX
  5
626
  8
0
 62
     7
 10
622.5116078703704
 20
23.87566355452675
 30
0.0
  0
VERTEX
  5
627
  8
0
 62
     7
 10
622.5111191261574
 20
23.88361019040959
 30
0.0
  0
VERTEX
  5
628
  8
0
 62
     7
 10
622.5102114583333
 20
23.89230494791667
 30
0.0
  0
VERTEX
  5
629
  8
0
 62
     7
 10
622.5089289641204
 20
23.90164462729874
 30
0.0
  0
VERTEX
  5
62A
  8
0
 62
     7
 10
622.5073157407408
 20
23.91152602880658
 30
0.0
  0
VERTEX
  5
62B
  8
0
 62
     7
 10
622.5054158854166
 20
23.92184595269097
 30
0.0
  0
VERTEX
  5
62C
  8
0
 62
     7
 10
622.5032734953704
 20
23.93250119920268
 30
0.0
  0
VERTEX
  5
62D
  8
0
 62
     7
 10
622.500932667824
 20
23.94338856859247
 30
0.0
  0
VERTEX
  5
62E
  8
0
 62
     7
 10
622.4984374999999
 20
23.95440486111111
 30
0.0
  0
VERTEX
  5
62F
  8
0
 62
     7
 10
622.4958320891205
 20
23.96544687700938
 30
0.0
  0
VERTEX
  5
630
  8
0
 62
     7
 10
622.4931605324073
 20
23.97641141653806
 30
0.0
  0
VERTEX
  5
631
  8
0
 62
     7
 10
622.4904669270833
 20
23.98719527994792
 30
0.0
  0
VERTEX
  5
632
  8
0
 62
     7
 10
622.4877953703703
 20
23.99769526748971
 30
0.0
  0
VERTEX
  5
633
  8
0
 62
     7
 10
622.4851899594908
 20
24.00780817941423
 30
0.0
  0
VERTEX
  5
634
  8
0
 62
     7
 10
622.4826947916667
 20
24.01743081597222
 30
0.0
  0
VERTEX
  5
635
  8
0
 62
     7
 10
622.4803539641204
 20
24.02645997741448
 30
0.0
  0
VERTEX
  5
636
  8
0
 62
     7
 10
622.4782115740741
 20
24.03479246399177
 30
0.0
  0
VERTEX
  5
637
  8
0
 62
     7
 10
622.4763117187499
 20
24.04232507595486
 30
0.0
  0
VERTEX
  5
638
  8
0
 62
     7
 10
622.4746984953703
 20
24.04895461355452
 30
0.0
  0
VERTEX
  5
639
  8
0
 62
     7
 10
622.4734160011575
 20
24.05457787704154
 30
0.0
  0
VERTEX
  5
63A
  8
0
 62
     7
 10
622.4725083333333
 20
24.05909166666666
 30
0.0
  0
SEQEND
  5
63B
  8
0
 62
     7
  0
POLYLINE
  5
84
  8
0
 62
     7
 66
     1
 10
0.0
 20
0.0
 30
0.0
  0
VERTEX
  5
63C
  8
0
 62
     7
 10
622.4725083333333
 20
24.05909166666666
 30
0.0
  0
VERTEX
  5
63D
  8
0
 62
     7
 10
622.4698751575359
 20
24.07463101228941
 30
0.0
  0
VERTEX
  5
63E
  8
0
 62
     7
 10
622.4665976723251
 20
24.09500620016718
 30
0.0
  0
VERTEX
  5
63F
  8
0
 62
     7
 10
622.4627297743057
 20
24.11974670681423
 30
0.0
  0
VERTEX
  5
640
  8
0
 62
     7
 10
622.4583253600823
 20
24.14838200874486
 30
0.0
  0
VERTEX
  5
641
  8
0
 62
     7
 10
622.4534383262602
 20
24.18044158247331
 30
0.0
  0
VERTEX
  5
642
  8
0
 62
     7
 10
622.4481225694443
 20
24.21545490451388
 30
0.0
  0
VERTEX
  5
643
  8
0
 62
     7
 10
622.4424319862397
 20
24.25295145138085
 30
0.0
  0
VERTEX
  5
644
  8
0
 62
     7
 10
622.436420473251
 20
24.29246069958848
 30
0.0
  0
VERTEX
  5
645
  8
0
 62
     7
 10
622.4301419270832
 20
24.33351212565104
 30
0.0
  0
VERTEX
  5
646
  8
0
 62
     7
 10
622.4236502443415
 20
24.37563520608282
 30
0.0
  0
VERTEX
  5
647
  8
0
 62
     7
 10
622.4169993216306
 20
24.41835941739808
 30
0.0
  0
VERTEX
  5
648
  8
0
 62
     7
 10
622.4102430555555
 20
24.46121423611111
 30
0.0
  0
VERTEX
  5
649
  8
0
 62
     7
 10
622.4034353427212
 20
24.50372913873618
 30
0.0
  0
VERTEX
  5
64A
  8
0
 62
     7
 10
622.3966300797324
 20
24.54543360178755
 30
0.0
  0
VERTEX
  5
64B
  8
0
 62
     7
 10
622.3898811631944
 20
24.58585710177952
 30
0.0
  0
VERTEX
  5
64C
  8
0
 62
     7
 10
622.3832424897118
 20
24.62452911522633
 30
0.0
  0
VERTEX
  5
64D
  8
0
 62
     7
 10
622.3767679558898
 20
24.6609791186423
 30
0.0
  0
VERTEX
  5
64E
  8
0
 62
     7
 10
622.3705114583333
 20
24.69473658854167
 30
0.0
  0
VERTEX
  5
64F
  8
0
 62
     7
 10
622.3645268936472
 20
24.72533100143872
 30
0.0
  0
VERTEX
  5
650
  8
0
 62
     7
 10
622.3588681584363
 20
24.75229183384774
 30
0.0
  0
VERTEX
  5
651
  8
0
 62
     7
 10
622.3535891493057
 20
24.77514856228299
 30
0.0
  0
VERTEX
  5
652
  8
0
 62
     7
 10
622.34874376286
 20
24.79343066325875
 30
0.0
  0
VERTEX
  5
653
  8
0
 62
     7
 10
622.3443858957047
 20
24.80666761328929
 30
0.0
  0
VERTEX
  5
654
  8
0
 62
     7
 10
622.3405694444444
 20
24.81438888888889
 30
0.0
  0
SEQEND
  5
655
  8
0
 62
     7
  0
POLYLINE
  5
85
  8
0
 62
     7
 66
     1
 10
0.0
 20
0.0
 30
0.0
  0
VERTEX
  5
656
  8
0
 62
     7
 10
622.3405694444444
 20
24.81438888888889
 30
0.0
  0
VERTEX
  5
657
  8
0
 62
     7
 10
622.3329678029754
 20
24.82320501583398
 30
0.0
  0
VERTEX
  5
658
  8
0
 62
     7
 10
622.3221631413967
 20
24.83367693222736
 30
0.0
  0
VERTEX
  5
659
  8
0
 62
     7
 10
622.3084287706163
 20
24.84565244140625
 30
0.0
  0
VERTEX
  5
65A
  8
0
 62
     7
 10
622.2920380015432
 20
24.85897934670782
 30
0.0
  0
VERTEX
  5
65B
  8
0
 62
     7
 10
622.2732641450858
 20
24.87350545146926
 30
0.0
  0
VERTEX
  5
65C
  8
0
 62
     7
 10
622.2523805121526
 20
24.88907855902778
 30
0.0
  0
VERTEX
  5
65D
  8
0
 62
     7
 10
622.2296604136526
 20
24.90554647272055
 30
0.0
  0
VERTEX
  5
65E
  8
0
 62
     7
 10
622.2053771604938
 20
24.92275699588478
 30
0.0
  0
VERTEX
  5
65F
  8
0
 62
     7
 10
622.179804063585
 20
24.94055793185764
 30
0.0
  0
VERTEX
  5
660
  8
0
 62
     7
 10
622.1532144338348
 20
24.95879708397634
 30
0.0
  0
VERTEX
  5
661
  8
0
 62
     7
 10
622.1258815821518
 20
24.97732225557806
 30
0.0
  0
VERTEX
  5
662
  8
0
 62
     7
 10
622.0980788194444
 20
24.99598125
 30
0.0
  0
VERTEX
  5
663
  8
0
 62
     7
 10
622.0700794566213
 20
25.01462187057935
 30
0.0
  0
VERTEX
  5
664
  8
0
 62
     7
 10
622.042156804591
 20
25.03309192065329
 30
0.0
  0
VERTEX
  5
665
  8
0
 62
     7
 10
622.0145841742622
 20
25.05123920355902
 30
0.0
  0
VERTEX
  5
666
  8
0
 62
     7
 10
621.9876348765431
 20
25.06891152263374
 30
0.0
  0
VERTEX
  5
667
  8
0
 62
     7
 10
621.9615822223427
 20
25.08595668121463
 30
0.0
  0
VERTEX
  5
668
  8
0
 62
     7
 10
621.9366995225695
 20
25.10222248263889
 30
0.0
  0
VERTEX
  5
669
  8
0
 62
     7
 10
621.9132600881317
 20
25.11755673024369
 30
0.0
  0
VERTEX
  5
66A
  8
0
 62
     7
 10
621.8915372299383
 20
25.13180722736625
 30
0.0
  0
VERTEX
  5
66B
  8
0
 62
     7
 10
621.8718042588977
 20
25.14482177734375
 30
0.0
  0
VERTEX
  5
66C
  8
0
 62
     7
 10
621.8543344859182
 20
25.15644818351337
 30
0.0
  0
VERTEX
  5
66D
  8
0
 62
     7
 10
621.8394012219088
 20
25.16653424921232
 30
0.0
  0
VERTEX
  5
66E
  8
0
 62
     7
 10
621.8272777777778
 20
25.17492777777777
 30
0.0
  0
SEQEND
  5
66F
  8
0
 62
     7
  0
POLYLINE
  5
86
  8
0
 62
     7
 66
     1
 10
0.0
 20
0.0
 30
0.0
  0
VERTEX
  5
670
  8
0
 62
     7
 10
621.8272777777778
 20
25.17492777777777
 30
0.0
  0
VERTEX
  5
671
  8
0
 62
     7
 10
621.8165953532906
 20
25.18257369510352
 30
0.0
  0
VERTEX
  5
672
  8
0
 62
     7
 10
621.8057226064174
 20
25.19066027842078
 30
0.0
  0
VERTEX
  5
673
  8
0
 62
     7
 10
621.7946713270399
 20
25.19913577473958
 30
0.0
  0
VERTEX
  5
674
  8
0
 62
     7
 10
621.7834533050411
 20
25.20794843106995
 30
0.0
  0
VERTEX
  5
675
  8
0
 62
     7
 10
621.7720803303032
 20
25.21704649442194
 30
0.0
  0
VERTEX
  5
676
  8
0
 62
     7
 10
621.7605641927083
 20
25.22637821180555
 30
0.0
  0
VERTEX
  5
677
  8
0
 62
     7
 10
621.748916682139
 20
25.23589183023084
 30
0.0
  0
VERTEX
  5
678
  8
0
 62
     7
 10
621.7371495884775
 20
25.24553559670782
 30
0.0
  0
VERTEX
  5
679
  8
0
 62
     7
 10
621.7252747016059
 20
25.25525775824653
 30
0.0
  0
VERTEX
  5
67A
  8
0
 62
     7
 10
621.713303811407
 20
25.26500656185699
 30
0.0
  0
VERTEX
  5
67B
  8
0
 62
     7
 10
621.7012487077627
 20
25.27473025454925
 30
0.0
  0
VERTEX
  5
67C
  8
0
 62
     7
 10
621.6891211805556
 20
25.28437708333333
 30
0.0
  0
VERTEX
  5
67D
  8
0
 62
     7
 10
621.6769330196678
 20
25.29389529521927
 30
0.0
  0
VERTEX
  5
67E
  8
0
 62
     7
 10
621.664696014982
 20
25.30323313721708
 30
0.0
  0
VERTEX
  5
67F
  8
0
 62
     7
 10
621.6524219563802
 20
25.3123388563368
 30
0.0
  0
VERTEX
  5
680
  8
0
 62
     7
 10
621.6401226337448
 20
25.32116069958848
 30
0.0
  0
VERTEX
  5
681
  8
0
 62
     7
 10
621.6278098369582
 20
25.32964691398212
 30
0.0
  0
VERTEX
  5
682
  8
0
 62
     7
 10
621.6154953559028
 20
25.33774574652777
 30
0.0
  0
VERTEX
  5
683
  8
0
 62
     7
 10
621.6031909804607
 20
25.34540544423546
 30
0.0
  0
VERTEX
  5
684
  8
0
 62
     7
 10
621.5909085005144
 20
25.35257425411523
 30
0.0
  0
VERTEX
  5
685
  8
0
 62
     7
 10
621.5786597059462
 20
25.35920042317708
 30
0.0
  0
VERTEX
  5
686
  8
0
 62
     7
 10
621.5664563866384
 20
25.36523219843107
 30
0.0
  0
VERTEX
  5
687
  8
0
 62
     7
 10
621.5543103324734
 20
25.37061782688722
 30
0.0
  0
VERTEX
  5
688
  8
0
 62
     7
 10
621.5422333333333
 20
25.37530555555556
 30
0.0
  0
SEQEND
  5
689
  8
0
 62
     7
  0
POLYLINE
  5
87
  8
0
 62
     7
 66
     1
 10
0.0
 20
0.0
 30
0.0
  0
VERTEX
  5
68A
  8
0
 62
     7
 10
621.5422333333333
 20
25.37530555555556
 30
0.0
  0
VERTEX
  5
68B
  8
0
 62
     7
 10
621.5254574536234
 20
25.38113881675186
 30
0.0
  0
VERTEX
  5
68C
  8
0
 62
     7
 10
621.5084797678755
 20
25.38665711966306
 30
0.0
  0
VERTEX
  5
68D
  8
0
 62
     7
 10
621.4913189561632
 20
25.39187990993924
 30
0.0
  0
VERTEX
  5
68E
  8
0
 62
     7
 10
621.4739936985599
 20
25.39682663323045
 30
0.0
  0
VERTEX
  5
68F
  8
0
 62
     7
 10
621.4565226751382
 20
25.40151673518679
 30
0.0
  0
VERTEX
  5
690
  8
0
 62
     7
 10
621.4389245659722
 20
25.40596966145833
 30
0.0
  0
VERTEX
  5
691
  8
0
 62
     7
 10
621.4212180511348
 20
25.41020485769515
 30
0.0
  0
VERTEX
  5
692
  8
0
 62
     7
 10
621.4034218106996
 20
25.41424176954732
 30
0.0
  0
VERTEX
  5
693
  8
0
 62
     7
 10
621.3855545247395
 20
25.41809984266493
 30
0.0
  0
VERTEX
  5
694
  8
0
 62
     7
 10
621.3676348733281
 20
25.42179852269804
 30
0.0
  0
VERTEX
  5
695
  8
0
 62
     7
 10
621.3496815365387
 20
25.42535725529675
 30
0.0
  0
VERTEX
  5
696
  8
0
 62
     7
 10
621.3317131944444
 20
25.42879548611111
 30
0.0
  0
VERTEX
  5
697
  8
0
 62
     7
 10
621.3137485271187
 20
25.43213266079121
 30
0.0
  0
VERTEX
  5
698
  8
0
 62
     7
 10
621.2958062146347
 20
25.43538822498714
 30
0.0
  0
VERTEX
  5
699
  8
0
 62
     7
 10
621.2779049370658
 20
25.43858162434896
 30
0.0
  0
VERTEX
  5
69A
  8
0
 62
     7
 10
621.2600633744858
 20
25.44173230452675
 30
0.0
  0
VERTEX
  5
69B
  8
0
 62
     7
 10
621.242300206967
 20
25.44485971117059
 30
0.0
  0
VERTEX
  5
69C
  8
0
 62
     7
 10
621.2246341145833
 20
25.44798328993055
 30
0.0
  0
VERTEX
  5
69D
  8
0
 62
     7
 10
621.207083777408
 20
25.45112248645672
 30
0.0
  0
VERTEX
  5
69E
  8
0
 62
     7
 10
621.1896678755145
 20
25.45429674639918
 30
0.0
  0
VERTEX
  5
69F
  8
0
 62
     7
 10
621.1724050889759
 20
25.45752551540799
 30
0.0
  0
VERTEX
  5
6A0
  8
0
 62
     7
 10
621.1553140978651
 20
25.46082823913323
 30
0.0
  0
VERTEX
  5
6A1
  8
0
 62
     7
 10
621.1384135822564
 20
25.46422436322499
 30
0.0
  0
VERTEX
  5
6A2
  8
0
 62
     7
 10
621.1217222222223
 20
25.46773333333333
 30
0.0
  0
SEQEND
  5
6A3
  8
0
 62
     7
  0
POLYLINE
  5
88
  8
0
 62
     7
 66
     1
 10
0.0
 20
0.0
 30
0.0
  0
VERTEX
  5
6A4
  8
0
 62
     7
 10
621.1217222222223
 20
25.46773333333333
 30
0.0
  0
VERTEX
  5
6A5
  8
0
 62
     7
 10
621.0806268265337
 20
25.47661172718943
 30
0.0
  0
VERTEX
  5
6A6
  8
0
 62
     7
 10
621.03962421875
 20
25.48543224344135
 30
0.0
  0
VERTEX
  5
6A7
  8
0
 62
     7
 10
620.9987116427951
 20
25.49419580078125
 30
0.0
  0
VERTEX
  5
6A8
  8
0
 62
     7
 10
620.9578863425926
 20
25.50290331790123
 30
0.0
  0
VERTEX
  5
6A9
  8
0
 62
     7
 10
620.917145562066
 20
25.51155571349344
 30
0.0
  0
VERTEX
  5
6AA
  8
0
 62
     7
 10
620.876486545139
 20
25.52015390624999
 30
0.0
  0
VERTEX
  5
6AB
  8
0
 62
     7
 10
620.8359065357349
 20
25.52869881486304
 30
0.0
  0
VERTEX
  5
6AC
  8
0
 62
     7
 10
620.7954027777778
 20
25.53719135802469
 30
0.0
  0
VERTEX
  5
6AD
  8
0
 62
     7
 10
620.754972515191
 20
25.54563245442708
 30
0.0
  0
VERTEX
  5
6AE
  8
0
 62
     7
 10
620.7146129918981
 20
25.55402302276234
 30
0.0
  0
VERTEX
  5
6AF
  8
0
 62
     7
 10
620.6743214518228
 20
25.5623639817226
 30
0.0
  0
VERTEX
  5
6B0
  8
0
 62
     7
 10
620.6340951388889
 20
25.57065625
 30
0.0
  0
VERTEX
  5
6B1
  8
0
 62
     7
 10
620.5939312970197
 20
25.57890074628665
 30
0.0
  0
VERTEX
  5
6B2
  8
0
 62
     7
 10
620.5538271701389
 20
25.58709838927469
 30
0.0
  0
VERTEX
  5
6B3
  8
0
 62
     7
 10
620.5137800021702
 20
25.59525009765625
 30
0.0
  0
VERTEX
  5
6B4
  8
0
 62
     7
 10
620.473787037037
 20
25.60335679012346
 30
0.0
  0
VERTEX
  5
6B5
  8
0
 62
     7
 10
620.4338455186632
 20
25.61141938536844
 30
0.0
  0
VERTEX
  5
6B6
  8
0
 62
     7
 10
620.3939526909722
 20
25.61943880208333
 30
0.0
  0
VERTEX
  5
6B7
  8
0
 62
     7
 10
620.3541057978878
 20
25.62741595896026
 30
0.0
  0
VERTEX
  5
6B8
  8
0
 62
     7
 10
620.3143020833334
 20
25.63535177469136
 30
0.0
  0
VERTEX
  5
6B9
  8
0
 62
     7
 10
620.2745387912327
 20
25.64324716796875
 30
0.0
  0
VERTEX
  5
6BA
  8
0
 62
     7
 10
620.2348131655092
 20
25.65110305748457
 30
0.0
  0
VERTEX
  5
6BB
  8
0
 62
     7
 10
620.1951224500867
 20
25.65892036193094
 30
0.0
  0
VERTEX
  5
6BC
  8
0
 62
     7
 10
620.1554638888889
 20
25.6667
 30
0.0
  0
SEQEND
  5
6BD
  8
0
 62
     7
  0
POLYLINE
  5
89
  8
0
 62
     7
 66
     1
 10
0.0
 20
0.0
 30
0.0
  0
VERTEX
  5
6BE
  8
0
 62
     7
 10
620.1554638888889
 20
25.6667
 30
0.0
  0
VERTEX
  5
6BF
  8
0
 62
     7
 10
619.9909413379307
 20
25.69874885565361
 30
0.0
  0
VERTEX
  5
6C0
  8
0
 62
     7
 10
619.8251209812242
 20
25.73050357671039
 30
0.0
  0
VERTEX
  5
6C1
  8
0
 62
     7
 10
619.6581602213541
 20
25.7619493109809
 30
0.0
  0
VERTEX
  5
6C2
  8
0
 62
     7
 10
619.4902164609053
 20
25.79307120627572
 30
0.0
  0
VERTEX
  5
6C3
  8
0
 62
     7
 10
619.3214471024626
 20
25.82385441040541
 30
0.0
  0
VERTEX
  5
6C4
  8
0
 62
     7
 10
619.1520095486111
 20
25.85428407118056
 30
0.0
  0
VERTEX
  5
6C5
  8
0
 62
     7
 10
618.9820612019355
 20
25.88434533641171
 30
0.0
  0
VERTEX
  5
6C6
  8
0
 62
     7
 10
618.8117594650205
 20
25.91402335390947
 30
0.0
  0
VERTEX
  5
6C7
  8
0
 62
     7
 10
618.6412617404515
 20
25.94330327148437
 30
0.0
  0
VERTEX
  5
6C8
  8
0
 62
     7
 10
618.4707254308128
 20
25.97217023694702
 30
0.0
  0
VERTEX
  5
6C9
  8
0
 62
     7
 10
618.3003079386896
 20
26.00060939810796
 30
0.0
  0
VERTEX
  5
6CA
  8
0
 62
     7
 10
618.1301666666666
 20
26.02860590277778
 30
0.0
  0
VERTEX
  5
6CB
  8
0
 62
     7
 10
617.960459017329
 20
26.05614489876704
 30
0.0
  0
VERTEX
  5
6CC
  8
0
 62
     7
 10
617.7913423932613
 20
26.08321153388631
 30
0.0
  0
VERTEX
  5
6CD
  8
0
 62
     7
 10
617.6229741970486
 20
26.10979095594618
 30
0.0
  0
VERTEX
  5
6CE
  8
0
 62
     7
 10
617.4555118312758
 20
26.1358683127572
 30
0.0
  0
VERTEX
  5
6CF
  8
0
 62
     7
 10
617.2891126985276
 20
26.16142875212995
 30
0.0
  0
VERTEX
  5
6D0
  8
0
 62
     7
 10
617.1239342013889
 20
26.186457421875
 30
0.0
  0
VERTEX
  5
6D1
  8
0
 62
     7
 10
616.9601337424447
 20
26.21093946980292
 30
0.0
  0
VERTEX
  5
6D2
  8
0
 62
     7
 10
616.7978687242799
 20
26.23486004372428
 30
0.0
  0
VERTEX
  5
6D3
  8
0
 62
     7
 10
616.6372965494792
 20
26.25820429144965
 30
0.0
  0
VERTEX
  5
6D4
  8
0
 62
     7
 10
616.4785746206276
 20
26.28095736078961
 30
0.0
  0
VERTEX
  5
6D5
  8
0
 62
     7
 10
616.3218603403099
 20
26.30310439955472
 30
0.0
  0
VERTEX
  5
6D6
  8
0
 62
     7
 10
616.1673111111111
 20
26.32463055555555
 30
0.0
  0
SEQEND
  5
6D7
  8
0
 62
     7
  0
POLYLINE
  5
8A
  8
0
 62
     7
 66
     1
 10
0.0
 20
0.0
 30
0.0
  0
VERTEX
  5
6D8
  8
0
 62
     7
 10
616.1673111111111
 20
26.32463055555555
 30
0.0
  0
VERTEX
  5
6D9
  8
0
 62
     7
 10
615.2701471024626
 20
26.44446710471322
 30
0.0
  0
VERTEX
  5
6DA
  8
0
 62
     7
 10
614.3622901298868
 20
26.55785014789095
 30
0.0
  0
VERTEX
  5
6DB
  8
0
 62
     7
 10
613.4442552734374
 20
26.66494811197916
 30
0.0
  0
VERTEX
  5
6DC
  8
0
 62
     7
 10
612.5165576131687
 20
26.76592942386831
 30
0.0
  0
VERTEX
  5
6DD
  8
0
 62
     7
 10
611.5797122291345
 20
26.86096251044881
 30
0.0
  0
VERTEX
  5
6DE
  8
0
 62
     7
 10
610.634234201389
 20
26.95021579861111
 30
0.0
  0
VERTEX
  5
6DF
  8
0
 62
     7
 10
609.6806386099859
 20
27.03385771524563
 30
0.0
  0
VERTEX
  5
6E0
  8
0
 62
     7
 10
608.7194405349794
 20
27.1120566872428
 30
0.0
  0
VERTEX
  5
6E1
  8
0
 62
     7
 10
607.7511550564236
 20
27.18498114149305
 30
0.0
  0
VERTEX
  5
6E2
  8
0
 62
     7
 10
606.7762972543724
 20
27.25279950488683
 30
0.0
  0
VERTEX
  5
6E3
  8
0
 62
     7
 10
605.7953822088798
 20
27.31568020431455
 30
0.0
  0
VERTEX
  5
6E4
  8
0
 62
     7
 10
604.808925
 20
27.37379166666666
 30
0.0
  0
VERTEX
  5
6E5
  8
0
 62
     7
 10
603.8174407077868
 20
27.42730231883359
 30
0.0
  0
VERTEX
  5
6E6
  8
0
 62
     7
 10
602.8214444122942
 20
27.47638058770576
 30
0.0
  0
VERTEX
  5
6E7
  8
0
 62
     7
 10
601.8214511935764
 20
27.52119490017361
 30
0.0
  0
VERTEX
  5
6E8
  8
0
 62
     7
 10
600.8179761316871
 20
27.56191368312757
 30
0.0
  0
VERTEX
  5
6E9
  8
0
 62
     7
 10
599.8115343066809
 20
27.59870536345807
 30
0.0
  0
VERTEX
  5
6EA
  8
0
 62
     7
 10
598.8026407986112
 20
27.63173836805555
 30
0.0
  0
VERTEX
  5
6EB
  8
0
 62
     7
 10
597.7918106875322
 20
27.66118112381044
 30
0.0
  0
VERTEX
  5
6EC
  8
0
 62
     7
 10
596.779559053498
 20
27.68720205761317
 30
0.0
  0
VERTEX
  5
6ED
  8
0
 62
     7
 10
595.7664009765625
 20
27.70996959635416
 30
0.0
  0
VERTEX
  5
6EE
  8
0
 62
     7
 10
594.7528515367799
 20
27.72965216692386
 30
0.0
  0
VERTEX
  5
6EF
  8
0
 62
     7
 10
593.7394258142041
 20
27.7464181962127
 30
0.0
  0
VERTEX
  5
6F0
  8
0
 62
     7
 10
592.7266388888889
 20
27.76043611111111
 30
0.0
  0
SEQEND
  5
6F1
  8
0
 62
     7
  0
POLYLINE
  5
8B
  8
0
 62
     7
 66
     1
 10
0.0
 20
0.0
 30
0.0
  0
VERTEX
  5
6F2
  8
0
 62
     7
 10
592.7266388888889
 20
27.76043611111111
 30
0.0
  0
VERTEX
  5
6F3
  8
0
 62
     7
 10
591.8847069062662
 20
27.76991696285043
 30
0.0
  0
VERTEX
  5
6F4
  8
0
 62
     7
 10
591.0394844746655
 20
27.77739108474794
 30
0.0
  0
VERTEX
  5
6F5
  8
0
 62
     7
 10
590.1912787434895
 20
27.78289124348958
 30
0.0
  0
VERTEX
  5
6F6
  8
0
 62
     7
 10
589.34039686214
 20
27.78645020576132
 30
0.0
  0
VERTEX
  5
6F7
  8
0
 62
     7
 10
588.4871459800187
 20
27.7881007382491
 30
0.0
  0
VERTEX
  5
6F8
  8
0
 62
     7
 10
587.6318332465278
 20
27.78787560763889
 30
0.0
  0
VERTEX
  5
6F9
  8
0
 62
     7
 10
586.7747658110693
 20
27.78580758061664
 30
0.0
  0
VERTEX
  5
6FA
  8
0
 62
     7
 10
585.9162508230452
 20
27.78192942386831
 30
0.0
  0
VERTEX
  5
6FB
  8
0
 62
     7
 10
585.0565954318577
 20
27.77627390407986
 30
0.0
  0
VERTEX
  5
6FC
  8
0
 62
     7
 10
584.1961067869084
 20
27.76887378793724
 30
0.0
  0
VERTEX
  5
6FD
  8
0
 62
     7
 10
583.3350920375997
 20
27.75976184212641
 30
0.0
  0
VERTEX
  5
6FE
  8
0
 62
     7
 10
582.4738583333333
 20
27.74897083333333
 30
0.0
  0
VERTEX
  5
6FF
  8
0
 62
     7
 10
581.6127128235114
 20
27.73653352824395
 30
0.0
  0
VERTEX
  5
700
  8
0
 62
     7
 10
580.7519626575361
 20
27.72248269354423
 30
0.0
  0
VERTEX
  5
701
  8
0
 62
     7
 10
579.891914984809
 20
27.70685109592013
 30
0.0
  0
VERTEX
  5
702
  8
0
 62
     7
 10
579.0328769547324
 20
27.68967150205761
 30
0.0
  0
VERTEX
  5
703
  8
0
 62
     7
 10
578.1751557167084
 20
27.67097667864262
 30
0.0
  0
VERTEX
  5
704
  8
0
 62
     7
 10
577.319058420139
 20
27.65079939236111
 30
0.0
  0
VERTEX
  5
705
  8
0
 62
     7
 10
576.4648922144258
 20
27.62917240989904
 30
0.0
  0
VERTEX
  5
706
  8
0
 62
     7
 10
575.6129642489711
 20
27.60612849794239
 30
0.0
  0
VERTEX
  5
707
  8
0
 62
     7
 10
574.7635816731771
 20
27.58170042317708
 30
0.0
  0
VERTEX
  5
708
  8
0
 62
     7
 10
573.9170516364455
 20
27.55592095228909
 30
0.0
  0
VERTEX
  5
709
  8
0
 62
     7
 10
573.0736812881785
 20
27.52882285196437
 30
0.0
  0
VERTEX
  5
70A
  8
0
 62
     7
 10
572.2337777777777
 20
27.50043888888889
 30
0.0
  0
SEQEND
  5
70B
  8
0
 62
     7
  0
POLYLINE
  5
8C
  8
0
 62
     7
 66
     1
 10
0.0
 20
0.0
 30
0.0
  0
VERTEX
  5
70C
  8
0
 62
     7
 10
572.2337777777777
 20
27.50043888888889
 30
0.0
  0
VERTEX
  5
70D
  8
0
 62
     7
 10
571.3907959342046
 20
27.47051657584233
 30
0.0
  0
VERTEX
  5
70E
  8
0
 62
     7
 10
570.5404881333591
 20
27.43888978266461
 30
0.0
  0
VERTEX
  5
70F
  8
0
 62
     7
 10
569.6834328450522
 20
27.40558851996527
 30
0.0
  0
VERTEX
  5
710
  8
0
 62
     7
 10
568.8202085390946
 20
27.37064279835391
 30
0.0
  0
VERTEX
  5
711
  8
0
 62
     7
 10
567.9513936852977
 20
27.33408262844007
 30
0.0
  0
VERTEX
  5
712
  8
0
 62
     7
 10
567.0775667534722
 20
27.29593802083333
 30
0.0
  0
VERTEX
  5
713
  8
0
 62
     7
 10
566.1993062134292
 20
27.25623898614326
 30
0.0
  0
VERTEX
  5
714
  8
0
 62
     7
 10
565.3171905349793
 20
27.21501553497942
 30
0.0
  0
VERTEX
  5
715
  8
0
 62
     7
 10
564.431798187934
 20
27.17229767795139
 30
0.0
  0
VERTEX
  5
716
  8
0
 62
     7
 10
563.5437076421038
 20
27.12811542566872
 30
0.0
  0
VERTEX
  5
717
  8
0
 62
     7
 10
562.6534973672999
 20
27.082498788741
 30
0.0
  0
VERTEX
  5
718
  8
0
 62
     7
 10
561.7617458333334
 20
27.03547777777778
 30
0.0
  0
VERTEX
  5
719
  8
0
 62
     7
 10
560.8690315100148
 20
26.98708240338863
 30
0.0
  0
VERTEX
  5
71A
  8
0
 62
     7
 10
559.9759328671554
 20
26.93734267618313
 30
0.0
  0
VERTEX
  5
71B
  8
0
 62
     7
 10
559.0830283745659
 20
26.88628860677083
 30
0.0
  0
VERTEX
  5
71C
  8
0
 62
     7
 10
558.1908965020576
 20
26.83395020576132
 30
0.0
  0
VERTEX
  5
71D
  8
0
 62
     7
 10
557.3001157194412
 20
26.78035748376414
 30
0.0
  0
VERTEX
  5
71E
  8
0
 62
     7
 10
556.4112644965277
 20
26.72554045138889
 30
0.0
  0
VERTEX
  5
71F
  8
0
 62
     7
 10
555.5249213031282
 20
26.66952911924511
 30
0.0
  0
VERTEX
  5
720
  8
0
 62
     7
 10
554.6416646090535
 20
26.61235349794238
 30
0.0
  0
VERTEX
  5
721
  8
0
 62
     7
 10
553.7620728841144
 20
26.55404359809027
 30
0.0
  0
VERTEX
  5
722
  8
0
 62
     7
 10
552.8867245981224
 20
26.49462943029835
 30
0.0
  0
VERTEX
  5
723
  8
0
 62
     7
 10
552.016198220888
 20
26.43414100517618
 30
0.0
  0
VERTEX
  5
724
  8
0
 62
     7
 10
551.1510722222222
 20
26.37260833333333
 30
0.0
  0
SEQEND
  5
725
  8
0
 62
     7
  0
POLYLINE
  5
8D
  8
0
 62
     7
 66
     1
 10
0.0
 20
0.0
 30
0.0
  0
VERTEX
  5
726
  8
0
 62
     7
 10
551.1510722222222
 20
26.37260833333333
 30
0.0
  0
VERTEX
  5
727
  8
0
 62
     7
 10
550.8075961512184
 20
26.34777766726144
 30
0.0
  0
VERTEX
  5
728
  8
0
 62
     7
 10
550.4641987815071
 20
26.32276173161008
 30
0.0
  0
VERTEX
  5
729
  8
0
 62
     7
 10
550.1208742947048
 20
26.29755899522569
 30
0.0
  0
VERTEX
  5
72A
  8
0
 62
     7
 10
549.777616872428
 20
26.27216792695473
 30
0.0
  0
VERTEX
  5
72B
  8
0
 62
     7
 10
549.4344206962929
 20
26.24658699564365
 30
0.0
  0
VERTEX
  5
72C
  8
0
 62
     7
 10
549.0912799479165
 20
26.22081467013889
 30
0.0
  0
VERTEX
  5
72D
  8
0
 62
     7
 10
548.7481888089153
 20
26.19484941928691
 30
0.0
  0
VERTEX
  5
72E
  8
0
 62
     7
 10
548.4051414609055
 20
26.16868971193416
 30
0.0
  0
VERTEX
  5
72F
  8
0
 62
     7
 10
548.0621320855034
 20
26.14233401692708
 30
0.0
  0
VERTEX
  5
730
  8
0
 62
     7
 10
547.719154864326
 20
26.11578080311214
 30
0.0
  0
VERTEX
  5
731
  8
0
 62
     7
 10
547.3762039789898
 20
26.08902853933577
 30
0.0
  0
VERTEX
  5
732
  8
0
 62
     7
 10
547.0332736111111
 20
26.06207569444445
 30
0.0
  0
VERTEX
  5
733
  8
0
 62
     7
 10
546.6903579423065
 20
26.03492073728459
 30
0.0
  0
VERTEX
  5
734
  8
0
 62
     7
 10
546.3474511541923
 20
26.00756213670267
 30
0.0
  0
VERTEX
  5
735
  8
0
 62
     7
 10
546.0045474283854
 20
25.97999836154514
 30
0.0
  0
VERTEX
  5
736
  8
0
 62
     7
 10
545.6616409465021
 20
25.95222788065844
 30
0.0
  0
VERTEX
  5
737
  8
0
 62
     7
 10
545.3187258901588
 20
25.92424916288902
 30
0.0
  0
VERTEX
  5
738
  8
0
 62
     7
 10
544.9757964409721
 20
25.89606067708333
 30
0.0
  0
VERTEX
  5
739
  8
0
 62
     7
 10
544.6328467805588
 20
25.86766089208783
 30
0.0
  0
VERTEX
  5
73A
  8
0
 62
     7
 10
544.2898710905349
 20
25.83904827674897
 30
0.0
  0
VERTEX
  5
73B
  8
0
 62
     7
 10
543.9468635525174
 20
25.8102212999132
 30
0.0
  0
VERTEX
  5
73C
  8
0
 62
     7
 10
543.6038183481223
 20
25.78117843042696
 30
0.0
  0
VERTEX
  5
73D
  8
0
 62
     7
 10
543.2607296589666
 20
25.7519181371367
 30
0.0
  0
VERTEX
  5
73E
  8
0
 62
     7
 10
542.9175916666667
 20
25.72243888888889
 30
0.0
  0
SEQEND
  5
73F
  8
0
 62
     7
  0
POLYLINE
  5
8E
  8
0
 62
     7
 66
     1
 10
0.0
 20
0.0
 30
0.0
  0
VERTEX
  5
740
  8
0
 62
     7
 10
542.9175916666667
 20
25.72243888888889
 30
0.0
  0
VERTEX
  5
741
  8
0
 62
     7
 10
542.8143987565908
 20
25.7135220630787
 30
0.0
  0
VERTEX
  5
742
  8
0
 62
     7
 10
542.7111954346708
 20
25.70458686342592
 30
0.0
  0
VERTEX
  5
743
  8
0
 62
     7
 10
542.607982313368
 20
25.69563328993056
 30
0.0
  0
VERTEX
  5
744
  8
0
 62
     7
 10
542.5047600051441
 20
25.68666134259259
 30
0.0
  0
VERTEX
  5
745
  8
0
 62
     7
 10
542.4015291224601
 20
25.67767102141203
 30
0.0
  0
VERTEX
  5
746
  8
0
 62
     7
 10
542.2982902777777
 20
25.66866232638888
 30
0.0
  0
VERTEX
  5
747
  8
0
 62
     7
 10
542.1950440835584
 20
25.65963525752315
 30
0.0
  0
VERTEX
  5
748
  8
0
 62
     7
 10
542.0917911522635
 20
25.65058981481481
 30
0.0
  0
VERTEX
  5
749
  8
0
 62
     7
 10
541.9885320963541
 20
25.64152599826389
 30
0.0
  0
VERTEX
  5
74A
  8
0
 62
     7
 10
541.8852675282922
 20
25.63244380787037
 30
0.0
  0
VERTEX
  5
74B
  8
0
 62
     7
 10
541.7819980605387
 20
25.62334324363426
 30
0.0
  0
VERTEX
  5
74C
  8
0
 62
     7
 10
541.6787243055555
 20
25.61422430555555
 30
0.0
  0
VERTEX
  5
74D
  8
0
 62
     7
 10
541.5754468758037
 20
25.60508699363426
 30
0.0
  0
VERTEX
  5
74E
  8
0
 62
     7
 10
541.4721663837448
 20
25.59593130787037
 30
0.0
  0
VERTEX
  5
74F
  8
0
 62
     7
 10
541.3688834418402
 20
25.58675724826389
 30
0.0
  0
VERTEX
  5
750
  8
0
 62
     7
 10
541.2655986625514
 20
25.57756481481481
 30
0.0
  0
VERTEX
  5
751
  8
0
 62
     7
 10
541.1623126583397
 20
25.56835400752315
 30
0.0
  0
VERTEX
  5
752
  8
0
 62
     7
 10
541.0590260416666
 20
25.55912482638889
 30
0.0
  0
VERTEX
  5
753
  8
0
 62
     7
 10
540.9557394249936
 20
25.54987727141204
 30
0.0
  0
VERTEX
  5
754
  8
0
 62
     7
 10
540.852453420782
 20
25.54061134259259
 30
0.0
  0
VERTEX
  5
755
  8
0
 62
     7
 10
540.749168641493
 20
25.53132703993055
 30
0.0
  0
VERTEX
  5
756
  8
0
 62
     7
 10
540.6458856995886
 20
25.52202436342592
 30
0.0
  0
VERTEX
  5
757
  8
0
 62
     7
 10
540.5426052075295
 20
25.5127033130787
 30
0.0
  0
VERTEX
  5
758
  8
0
 62
     7
 10
540.4393277777777
 20
25.50336388888889
 30
0.0
  0
SEQEND
  5
759
  8
0
 62
     7
  0
POLYLINE
  5
8F
  8
0
 62
     7
 66
     1
 10
0.0
 20
0.0
 30
0.0
  0
VERTEX
  5
75A
  8
0
 62
     7
 10
540.4393277777777
 20
25.50336388888889
 30
0.0
  0
VERTEX
  5
75B
  8
0
 62
     7
 10
540.4070414402086
 20
25.50045166035719
 30
0.0
  0
VERTEX
  5
75C
  8
0
 62
     7
 10
540.374741475373
 20
25.49753591017232
 30
0.0
  0
VERTEX
  5
75D
  8
0
 62
     7
 10
540.342428955078
 20
25.49461679144965
 30
0.0
  0
VERTEX
  5
75E
  8
0
 62
     7
 10
540.3101049511316
 20
25.49169445730453
 30
0.0
  0
VERTEX
  5
75F
  8
0
 62
     7
 10
540.277770535341
 20
25.4887690608523
 30
0.0
  0
VERTEX
  5
760
  8
0
 62
     7
 10
540.2454267795139
 20
25.48584075520833
 30
0.0
  0
VERTEX
  5
761
  8
0
 62
     7
 10
540.2130747554575
 20
25.48290969348797
 30
0.0
  0
VERTEX
  5
762
  8
0
 62
     7
 10
540.1807155349793
 20
25.47997602880658
 30
0.0
  0
VERTEX
  5
763
  8
0
 62
     7
 10
540.1483501898872
 20
25.47703991427952
 30
0.0
  0
VERTEX
  5
764
  8
0
 62
     7
 10
540.1159797919881
 20
25.47410150302212
 30
0.0
  0
VERTEX
  5
765
  8
0
 62
     7
 10
540.0836054130899
 20
25.47116094814976
 30
0.0
  0
VERTEX
  5
766
  8
0
 62
     7
 10
540.0512281250001
 20
25.46821840277778
 30
0.0
  0
VERTEX
  5
767
  8
0
 62
     7
 10
540.0188489995257
 20
25.46527402002154
 30
0.0
  0
VERTEX
  5
768
  8
0
 62
     7
 10
539.9864691084747
 20
25.4623279529964
 30
0.0
  0
VERTEX
  5
769
  8
0
 62
     7
 10
539.9540895236544
 20
25.45938035481771
 30
0.0
  0
VERTEX
  5
76A
  8
0
 62
     7
 10
539.9217113168723
 20
25.45643137860082
 30
0.0
  0
VERTEX
  5
76B
  8
0
 62
     7
 10
539.889335559936
 20
25.4534811774611
 30
0.0
  0
VERTEX
  5
76C
  8
0
 62
     7
 10
539.8569633246527
 20
25.45052990451389
 30
0.0
  0
VERTEX
  5
76D
  8
0
 62
     7
 10
539.8245956828301
 20
25.44757771287455
 30
0.0
  0
VERTEX
  5
76E
  8
0
 62
     7
 10
539.7922337062759
 20
25.44462475565844
 30
0.0
  0
VERTEX
  5
76F
  8
0
 62
     7
 10
539.7598784667969
 20
25.4416711859809
 30
0.0
  0
VERTEX
  5
770
  8
0
 62
     7
 10
539.7275310362011
 20
25.4387171569573
 30
0.0
  0
VERTEX
  5
771
  8
0
 62
     7
 10
539.695192486296
 20
25.435762821703
 30
0.0
  0
VERTEX
  5
772
  8
0
 62
     7
 10
539.6628638888889
 20
25.43280833333333
 30
0.0
  0
SEQEND
  5
773
  8
0
 62
     7
  0
POLYLINE
  5
90
  8
0
 62
     7
 66
     1
 10
0.0
 20
0.0
 30
0.0
  0
VERTEX
  5
774
  8
0
 62
     7
 10
539.6628638888889
 20
25.43280833333333
 30
0.0
  0
VERTEX
  5
775
  8
0
 62
     7
 10
539.6485809313111
 20
25.43160688818158
 30
0.0
  0
VERTEX
  5
776
  8
0
 62
     7
 10
539.6341414898404
 20
25.43054630915638
 30
0.0
  0
VERTEX
  5
777
  8
0
 62
     7
 10
539.6195617947049
 20
25.42960577256944
 30
0.0
  0
VERTEX
  5
778
  8
0
 62
     7
 10
539.6048580761318
 20
25.42876445473251
 30
0.0
  0
VERTEX
  5
779
  8
0
 62
     7
 10
539.5900465643487
 20
25.4280015319573
 30
0.0
  0
VERTEX
  5
77A
  8
0
 62
     7
 10
539.5751434895833
 20
25.42729618055555
 30
0.0
  0
VERTEX
  5
77B
  8
0
 62
     7
 10
539.5601650820633
 20
25.42662757683899
 30
0.0
  0
VERTEX
  5
77C
  8
0
 62
     7
 10
539.5451275720164
 20
25.42597489711934
 30
0.0
  0
VERTEX
  5
77D
  8
0
 62
     7
 10
539.5300471896701
 20
25.42531731770833
 30
0.0
  0
VERTEX
  5
77E
  8
0
 62
     7
 10
539.514940165252
 20
25.42463401491769
 30
0.0
  0
VERTEX
  5
77F
  8
0
 62
     7
 10
539.4998227289898
 20
25.42390416505916
 30
0.0
  0
VERTEX
  5
780
  8
0
 62
     7
 10
539.4847111111112
 20
25.42310694444444
 30
0.0
  0
VERTEX
  5
781
  8
0
 62
     7
 10
539.4696215418435
 20
25.42222152938529
 30
0.0
  0
VERTEX
  5
782
  8
0
 62
     7
 10
539.4545702514146
 20
25.42122709619341
 30
0.0
  0
VERTEX
  5
783
  8
0
 62
     7
 10
539.439573470052
 20
25.42010282118056
 30
0.0
  0
VERTEX
  5
784
  8
0
 62
     7
 10
539.4246474279835
 20
25.41882788065843
 30
0.0
  0
VERTEX
  5
785
  8
0
 62
     7
 10
539.4098083554366
 20
25.41738145093878
 30
0.0
  0
VERTEX
  5
786
  8
0
 62
     7
 10
539.3950724826389
 20
25.41574270833333
 30
0.0
  0
VERTEX
  5
787
  8
0
 62
     7
 10
539.380456039818
 20
25.41389082915381
 30
0.0
  0
VERTEX
  5
788
  8
0
 62
     7
 10
539.3659752572016
 20
25.41180498971193
 30
0.0
  0
VERTEX
  5
789
  8
0
 62
     7
 10
539.3516463650174
 20
25.40946436631944
 30
0.0
  0
VERTEX
  5
78A
  8
0
 62
     7
 10
539.3374855934927
 20
25.40684813528807
 30
0.0
  0
VERTEX
  5
78B
  8
0
 62
     7
 10
539.3235091728554
 20
25.40393547292953
 30
0.0
  0
VERTEX
  5
78C
  8
0
 62
     7
 10
539.3097333333333
 20
25.40070555555555
 30
0.0
  0
SEQEND
  5
78D
  8
0
 62
     7
  0
POLYLINE
  5
91
  8
0
 62
     7
 66
     1
 10
0.0
 20
0.0
 30
0.0
  0
VERTEX
  5
78E
  8
0
 62
     7
 10
539.3097333333333
 20
25.40070555555555
 30
0.0
  0
VERTEX
  5
78F
  8
0
 62
     7
 10
539.3001042914497
 20
25.39720740559896
 30
0.0
  0
VERTEX
  5
790
  8
0
 62
     7
 10
539.2833025607638
 20
25.3897712818287
 30
0.0
  0
VERTEX
  5
791
  8
0
 62
     7
 10
539.2599937337238
 20
25.37875134006076
 30
0.0
  0
VERTEX
  5
792
  8
0
 62
     7
 10
539.2308434027777
 20
25.36450173611111
 30
0.0
  0
VERTEX
  5
793
  8
0
 62
     7
 10
539.1965171603732
 20
25.34737662579572
 30
0.0
  0
VERTEX
  5
794
  8
0
 62
     7
 10
539.1576805989582
 20
25.32773016493055
 30
0.0
  0
VERTEX
  5
795
  8
0
 62
     7
 10
539.1149993109809
 20
25.3059165093316
 30
0.0
  0
VERTEX
  5
796
  8
0
 62
     7
 10
539.0691388888888
 20
25.28228981481482
 30
0.0
  0
VERTEX
  5
797
  8
0
 62
     7
 10
539.0207649251303
 20
25.25720423719618
 30
0.0
  0
VERTEX
  5
798
  8
0
 62
     7
 10
538.9705430121528
 20
25.23101393229167
 30
0.0
  0
VERTEX
  5
799
  8
0
 62
     7
 10
538.9191387424045
 20
25.20407305591724
 30
0.0
  0
VERTEX
  5
79A
  8
0
 62
     7
 10
538.8672177083333
 20
25.17673576388889
 30
0.0
  0
VERTEX
  5
79B
  8
0
 62
     7
 10
538.8154455023871
 20
25.14935621202257
 30
0.0
  0
VERTEX
  5
79C
  8
0
 62
     7
 10
538.7644877170138
 20
25.12228855613426
 30
0.0
  0
VERTEX
  5
79D
  8
0
 62
     7
 10
538.7150099446615
 20
25.09588695203993
 30
0.0
  0
VERTEX
  5
79E
  8
0
 62
     7
 10
538.6676777777777
 20
25.07050555555556
 30
0.0
  0
VERTEX
  5
79F
  8
0
 62
     7
 10
538.6231568088108
 20
25.04649852249711
 30
0.0
  0
VERTEX
  5
7A0
  8
0
 62
     7
 10
538.5821126302083
 20
25.02422000868056
 30
0.0
  0
VERTEX
  5
7A1
  8
0
 62
     7
 10
538.5452108344184
 20
25.00402416992188
 30
0.0
  0
VERTEX
  5
7A2
  8
0
 62
     7
 10
538.513117013889
 20
24.98626516203704
 30
0.0
  0
VERTEX
  5
7A3
  8
0
 62
     7
 10
538.4864967610677
 20
24.97129714084202
 30
0.0
  0
VERTEX
  5
7A4
  8
0
 62
     7
 10
538.4660156684027
 20
24.95947426215278
 30
0.0
  0
VERTEX
  5
7A5
  8
0
 62
     7
 10
538.4523393283421
 20
24.9511506817853
 30
0.0
  0
VERTEX
  5
7A6
  8
0
 62
     7
 10
538.4461333333334
 20
24.94668055555556
 30
0.0
  0
SEQEND
  5
7A7
  8
0
 62
     7
  0
POLYLINE
  5
92
  8
0
 62
     7
 66
     1
 10
0.0
 20
0.0
 30
0.0
  0
VERTEX
  5
7A8
  8
0
 62
     7
 10
538.4461333333334
 20
24.94668055555556
 30
0.0
  0
VERTEX
  5
7A9
  8
0
 62
     7
 10
538.4420225943609
 20
24.94161608655639
 30
0.0
  0
VERTEX
  5
7AA
  8
0
 62
     7
 10
538.438147653035
 20
24.93581283596965
 30
0.0
  0
VERTEX
  5
7AB
  8
0
 62
     7
 10
538.4344944227431
 20
24.92933312174479
 30
0.0
  0
VERTEX
  5
7AC
  8
0
 62
     7
 10
538.4310488168724
 20
24.92223926183128
 30
0.0
  0
VERTEX
  5
7AD
  8
0
 62
     7
 10
538.4277967488105
 20
24.91459357417856
 30
0.0
  0
VERTEX
  5
7AE
  8
0
 62
     7
 10
538.4247241319445
 20
24.90645837673611
 30
0.0
  0
VERTEX
  5
7AF
  8
0
 62
     7
 10
538.4218168796618
 20
24.89789598745338
 30
0.0
  0
VERTEX
  5
7B0
  8
0
 62
     7
 10
538.4190609053496
 20
24.88896872427983
 30
0.0
  0
VERTEX
  5
7B1
  8
0
 62
     7
 10
538.4164421223959
 20
24.87973890516493
 30
0.0
  0
VERTEX
  5
7B2
  8
0
 62
     7
 10
538.4139464441872
 20
24.87026884805813
 30
0.0
  0
VERTEX
  5
7B3
  8
0
 62
     7
 10
538.4115597841114
 20
24.86062087090888
 30
0.0
  0
VERTEX
  5
7B4
  8
0
 62
     7
 10
538.4092680555555
 20
24.85085729166666
 30
0.0
  0
VERTEX
  5
7B5
  8
0
 62
     7
 10
538.4070571719071
 20
24.84104042828093
 30
0.0
  0
VERTEX
  5
7B6
  8
0
 62
     7
 10
538.4049130465535
 20
24.83123259870113
 30
0.0
  0
VERTEX
  5
7B7
  8
0
 62
     7
 10
538.402821592882
 20
24.82149612087673
 30
0.0
  0
VERTEX
  5
7B8
  8
0
 62
     7
 10
538.4007687242799
 20
24.8118933127572
 30
0.0
  0
VERTEX
  5
7B9
  8
0
 62
     7
 10
538.3987403541345
 20
24.80248649229199
 30
0.0
  0
VERTEX
  5
7BA
  8
0
 62
     7
 10
538.3967223958333
 20
24.79333797743055
 30
0.0
  0
VERTEX
  5
7BB
  8
0
 62
     7
 10
538.3947007627636
 20
24.78451008612236
 30
0.0
  0
VERTEX
  5
7BC
  8
0
 62
     7
 10
538.3926613683128
 20
24.77606513631687
 30
0.0
  0
VERTEX
  5
7BD
  8
0
 62
     7
 10
538.3905901258681
 20
24.76806544596354
 30
0.0
  0
VERTEX
  5
7BE
  8
0
 62
     7
 10
538.3884729488168
 20
24.76057333301183
 30
0.0
  0
VERTEX
  5
7BF
  8
0
 62
     7
 10
538.3862957505464
 20
24.7536511154112
 30
0.0
  0
VERTEX
  5
7C0
  8
0
 62
     7
 10
538.3840444444444
 20
24.74736111111111
 30
0.0
  0
SEQEND
  5
7C1
  8
0
 62
     7
  0
POLYLINE
  5
93
  8
0
 62
     7
 66
     1
 10
0.0
 20
0.0
 30
0.0
  0
VERTEX
  5
7C2
  8
0
 62
     7
 10
538.3840444444444
 20
24.74736111111111
 30
0.0
  0
VERTEX
  5
7C3
  8
0
 62
     7
 10
538.3728203233507
 20
24.71768577313208
 30
0.0
  0
VERTEX
  5
7C4
  8
0
 62
     7
 10
538.3618892650462
 20
24.68784660172325
 30
0.0
  0
VERTEX
  5
7C5
  8
0
 62
     7
 10
538.3512319769966
 20
24.65785615234375
 30
0.0
  0
VERTEX
  5
7C6
  8
0
 62
     7
 10
538.3408291666666
 20
24.62772698045268
 30
0.0
  0
VERTEX
  5
7C7
  8
0
 62
     7
 10
538.330661541522
 20
24.59747164150913
 30
0.0
  0
VERTEX
  5
7C8
  8
0
 62
     7
 10
538.3207098090277
 20
24.56710269097222
 30
0.0
  0
VERTEX
  5
7C9
  8
0
 62
     7
 10
538.3109546766493
 20
24.53663268430105
 30
0.0
  0
VERTEX
  5
7CA
  8
0
 62
     7
 10
538.3013768518518
 20
24.50607417695474
 30
0.0
  0
VERTEX
  5
7CB
  8
0
 62
     7
 10
538.2919570421006
 20
24.47543972439236
 30
0.0
  0
VERTEX
  5
7CC
  8
0
 62
     7
 10
538.2826759548611
 20
24.44474188207304
 30
0.0
  0
VERTEX
  5
7CD
  8
0
 62
     7
 10
538.2735142975982
 20
24.41399320545589
 30
0.0
  0
VERTEX
  5
7CE
  8
0
 62
     7
 10
538.2644527777777
 20
24.38320625
 30
0.0
  0
VERTEX
  5
7CF
  8
0
 62
     7
 10
538.2554721028646
 20
24.35239357116448
 30
0.0
  0
VERTEX
  5
7D0
  8
0
 62
     7
 10
538.246552980324
 20
24.32156772440844
 30
0.0
  0
VERTEX
  5
7D1
  8
0
 62
     7
 10
538.2376761176215
 20
24.29074126519097
 30
0.0
  0
VERTEX
  5
7D2
  8
0
 62
     7
 10
538.2288222222221
 20
24.25992674897119
 30
0.0
  0
VERTEX
  5
7D3
  8
0
 62
     7
 10
538.2199720015914
 20
24.22913673120821
 30
0.0
  0
VERTEX
  5
7D4
  8
0
 62
     7
 10
538.2111061631944
 20
24.19838376736111
 30
0.0
  0
VERTEX
  5
7D5
  8
0
 62
     7
 10
538.2022054144965
 20
24.16768041288902
 30
0.0
  0
VERTEX
  5
7D6
  8
0
 62
     7
 10
538.193250462963
 20
24.13703922325103
 30
0.0
  0
VERTEX
  5
7D7
  8
0
 62
     7
 10
538.184222016059
 20
24.10647275390625
 30
0.0
  0
VERTEX
  5
7D8
  8
0
 62
     7
 10
538.1751007812501
 20
24.07599356031378
 30
0.0
  0
VERTEX
  5
7D9
  8
0
 62
     7
 10
538.1658674660011
 20
24.04561419793274
 30
0.0
  0
VERTEX
  5
7DA
  8
0
 62
     7
 10
538.1565027777777
 20
24.01534722222222
 30
0.0
  0
SEQEND
  5
7DB
  8
0
 62
     7
  0
POLYLINE
  5
94
  8
0
 62
     7
 66
     1
 10
0.0
 20
0.0
 30
0.0
  0
VERTEX
  5
95
  8
0
 10
395.9330833333333
 20
47.29691666666667
 30
0.0
  0
VERTEX
  5
96
  8
0
 10
433.8630444444444
 20
42.22644166666667
 30
0.0
  0
SEQEND
  5
97
  8
0
 62
     7
  0
POLYLINE
  5
98
  8
0
 62
     7
 66
     1
 10
0.0
 20
0.0
 30
0.0
  0
VERTEX
  5
7DC
  8
0
 62
     7
 10
395.5182166666667
 20
47.20378333333333
 30
0.0
  0
VERTEX
  5
7DD
  8
0
 62
     7
 10
395.5263924651974
 20
47.1726928522055
 30
0.0
  0
VERTEX
  5
7DE
  8
0
 62
     7
 10
395.5344399530607
 20
47.14151723894033
 30
0.0
  0
VERTEX
  5
7DF
  8
0
 62
     7
 10
395.5423778103298
 20
47.11026690538196
 30
0.0
  0
VERTEX
  5
7E0
  8
0
 62
     7
 10
395.5502247170782
 20
47.07895226337448
 30
0.0
  0
VERTEX
  5
7E1
  8
0
 62
     7
 10
395.5579993533789
 20
47.04758372476208
 30
0.0
  0
VERTEX
  5
7E2
  8
0
 62
     7
 10
395.5657203993055
 20
47.01617170138888
 30
0.0
  0
VERTEX
  5
7E3
  8
0
 62
     7
 10
395.5734065349312
 20
46.98472660509903
 30
0.0
  0
VERTEX
  5
7E4
  8
0
 62
     7
 10
395.5810764403293
 20
46.95325884773663
 30
0.0
  0
VERTEX
  5
7E5
  8
0
 62
     7
 10
395.5887487955729
 20
46.92177884114584
 30
0.0
  0
VERTEX
  5
7E6
  8
0
 62
     7
 10
395.5964422807356
 20
46.89029699717078
 30
0.0
  0
VERTEX
  5
7E7
  8
0
 62
     7
 10
395.6041755758905
 20
46.8588237276556
 30
0.0
  0
VERTEX
  5
7E8
  8
0
 62
     7
 10
395.6119673611111
 20
46.82736944444444
 30
0.0
  0
VERTEX
  5
7E9
  8
0
 62
     7
 10
395.6198363164705
 20
46.79594455938143
 30
0.0
  0
VERTEX
  5
7EA
  8
0
 62
     7
 10
395.6278011220422
 20
46.76455948431069
 30
0.0
  0
VERTEX
  5
7EB
  8
0
 62
     7
 10
395.6358804578992
 20
46.73322463107639
 30
0.0
  0
VERTEX
  5
7EC
  8
0
 62
     7
 10
395.6440930041152
 20
46.70195041152263
 30
0.0
  0
VERTEX
  5
7ED
  8
0
 62
     7
 10
395.6524574407632
 20
46.67074723749356
 30
0.0
  0
VERTEX
  5
7EE
  8
0
 62
     7
 10
395.6609924479167
 20
46.63962552083333
 30
0.0
  0
VERTEX
  5
7EF
  8
0
 62
     7
 10
395.6697167056487
 20
46.60859567338606
 30
0.0
  0
VERTEX
  5
7F0
  8
0
 62
     7
 10
395.6786488940329
 20
46.57766810699589
 30
0.0
  0
VERTEX
  5
7F1
  8
0
 62
     7
 10
395.6878076931424
 20
46.54685323350694
 30
0.0
  0
VERTEX
  5
7F2
  8
0
 62
     7
 10
395.6972117830504
 20
46.51616146476336
 30
0.0
  0
VERTEX
  5
7F3
  8
0
 62
     7
 10
395.7068798438303
 20
46.48560321260931
 30
0.0
  0
VERTEX
  5
7F4
  8
0
 62
     7
 10
395.7168305555555
 20
46.45518888888888
 30
0.0
  0
SEQEND
  5
7F5
  8
0
 62
     7
  0
POLYLINE
  5
99
  8
0
 62
     7
 66
     1
 10
0.0
 20
0.0
 30
0.0
  0
VERTEX
  5
7F6
  8
0
 62
     7
 10
395.7168305555555
 20
46.45518888888888
 30
0.0
  0
VERTEX
  5
7F7
  8
0
 62
     7
 10
395.7183435138968
 20
46.45018216989776
 30
0.0
  0
VERTEX
  5
7F8
  8
0
 62
     7
 10
395.7199677871013
 20
46.44413641010802
 30
0.0
  0
VERTEX
  5
7F9
  8
0
 62
     7
 10
395.7216970974391
 20
46.43715174696181
 30
0.0
  0
VERTEX
  5
7FA
  8
0
 62
     7
 10
395.723525167181
 20
46.42932831790123
 30
0.0
  0
VERTEX
  5
7FB
  8
0
 62
     7
 10
395.7254457185973
 20
46.42076626036843
 30
0.0
  0
VERTEX
  5
7FC
  8
0
 62
     7
 10
395.7274524739584
 20
46.41156571180555
 30
0.0
  0
VERTEX
  5
7FD
  8
0
 62
     7
 10
395.7295391555347
 20
46.40182680965471
 30
0.0
  0
VERTEX
  5
7FE
  8
0
 62
     7
 10
395.7316994855967
 20
46.39164969135802
 30
0.0
  0
VERTEX
  5
7FF
  8
0
 62
     7
 10
395.7339271864149
 20
46.38113449435763
 30
0.0
  0
VERTEX
  5
800
  8
0
 62
     7
 10
395.7362159802598
 20
46.37038135609567
 30
0.0
  0
VERTEX
  5
801
  8
0
 62
     7
 10
395.7385595894017
 20
46.35949041401427
 30
0.0
  0
VERTEX
  5
802
  8
0
 62
     7
 10
395.7409517361111
 20
46.34856180555555
 30
0.0
  0
VERTEX
  5
803
  8
0
 62
     7
 10
395.7433861426584
 20
46.33769566816166
 30
0.0
  0
VERTEX
  5
804
  8
0
 62
     7
 10
395.7458565313143
 20
46.32699213927469
 30
0.0
  0
VERTEX
  5
805
  8
0
 62
     7
 10
395.748356624349
 20
46.3165513563368
 30
0.0
  0
VERTEX
  5
806
  8
0
 62
     7
 10
395.7508801440329
 20
46.30647345679012
 30
0.0
  0
VERTEX
  5
807
  8
0
 62
     7
 10
395.7534208126366
 20
46.29685857807677
 30
0.0
  0
VERTEX
  5
808
  8
0
 62
     7
 10
395.7559723524305
 20
46.28780685763889
 30
0.0
  0
VERTEX
  5
809
  8
0
 62
     7
 10
395.7585284856852
 20
46.27941843291859
 30
0.0
  0
VERTEX
  5
80A
  8
0
 62
     7
 10
395.7610829346708
 20
46.27179344135802
 30
0.0
  0
VERTEX
  5
80B
  8
0
 62
     7
 10
395.763629421658
 20
46.2650320203993
 30
0.0
  0
VERTEX
  5
80C
  8
0
 62
     7
 10
395.7661616689172
 20
46.25923430748456
 30
0.0
  0
VERTEX
  5
80D
  8
0
 62
     7
 10
395.7686733987188
 20
46.25450044005594
 30
0.0
  0
VERTEX
  5
80E
  8
0
 62
     7
 10
395.7711583333333
 20
46.25093055555556
 30
0.0
  0
SEQEND
  5
80F
  8
0
 62
     7
  0
POLYLINE
  5
9A
  8
0
 62
     7
 66
     1
 10
0.0
 20
0.0
 30
0.0
  0
VERTEX
  5
810
  8
0
 62
     7
 10
395.7711583333333
 20
46.25093055555556
 30
0.0
  0
VERTEX
  5
811
  8
0
 62
     7
 10
395.7745146219136
 20
46.24767978897409
 30
0.0
  0
VERTEX
  5
812
  8
0
 62
     7
 10
395.779884683642
 20
46.24345260577417
 30
0.0
  0
VERTEX
  5
813
  8
0
 62
     7
 10
395.7870994791666
 20
46.23833459743923
 30
0.0
  0
VERTEX
  5
814
  8
0
 62
     7
 10
395.7959899691358
 20
46.23241135545267
 30
0.0
  0
VERTEX
  5
815
  8
0
 62
     7
 10
395.8063871141975
 20
46.2257684712979
 30
0.0
  0
VERTEX
  5
816
  8
0
 62
     7
 10
395.818121875
 20
46.21849153645834
 30
0.0
  0
VERTEX
  5
817
  8
0
 62
     7
 10
395.8310252121913
 20
46.21066614241737
 30
0.0
  0
VERTEX
  5
818
  8
0
 62
     7
 10
395.8449280864197
 20
46.20237788065843
 30
0.0
  0
VERTEX
  5
819
  8
0
 62
     7
 10
395.8596614583333
 20
46.19371234266492
 30
0.0
  0
VERTEX
  5
81A
  8
0
 62
     7
 10
395.8750562885802
 20
46.18475511992027
 30
0.0
  0
VERTEX
  5
81B
  8
0
 62
     7
 10
395.8909435378087
 20
46.17559180390786
 30
0.0
  0
VERTEX
  5
81C
  8
0
 62
     7
 10
395.9071541666667
 20
46.16630798611111
 30
0.0
  0
VERTEX
  5
81D
  8
0
 62
     7
 10
395.9235191358025
 20
46.15698925801343
 30
0.0
  0
VERTEX
  5
81E
  8
0
 62
     7
 10
395.9398694058642
 20
46.14772121109824
 30
0.0
  0
VERTEX
  5
81F
  8
0
 62
     7
 10
395.9560359375
 20
46.13858943684896
 30
0.0
  0
VERTEX
  5
820
  8
0
 62
     7
 10
395.971849691358
 20
46.12967952674897
 30
0.0
  0
VERTEX
  5
821
  8
0
 62
     7
 10
395.9871416280864
 20
46.12107707228169
 30
0.0
  0
VERTEX
  5
822
  8
0
 62
     7
 10
396.0017427083333
 20
46.11286766493056
 30
0.0
  0
VERTEX
  5
823
  8
0
 62
     7
 10
396.0154838927469
 20
46.10513689617895
 30
0.0
  0
VERTEX
  5
824
  8
0
 62
     7
 10
396.0281961419753
 20
46.09797035751028
 30
0.0
  0
VERTEX
  5
825
  8
0
 62
     7
 10
396.0397104166667
 20
46.09145364040799
 30
0.0
  0
VERTEX
  5
826
  8
0
 62
     7
 10
396.0498576774692
 20
46.08567233635546
 30
0.0
  0
VERTEX
  5
827
  8
0
 62
     7
 10
396.0584688850309
 20
46.0807120368361
 30
0.0
  0
VERTEX
  5
828
  8
0
 62
     7
 10
396.065375
 20
46.07665833333333
 30
0.0
  0
SEQEND
  5
829
  8
0
 62
     7
  0
POLYLINE
  5
9B
  8
0
 62
     7
 66
     1
 10
0.0
 20
0.0
 30
0.0
  0
VERTEX
  5
82A
  8
0
 62
     7
 10
396.065375
 20
46.07665833333333
 30
0.0
  0
VERTEX
  5
82B
  8
0
 62
     7
 10
396.0801439712336
 20
46.06796939420975
 30
0.0
  0
VERTEX
  5
82C
  8
0
 62
     7
 10
396.0949060522763
 20
46.05927708654836
 30
0.0
  0
VERTEX
  5
82D
  8
0
 62
     7
 10
396.1096617024739
 20
46.05058171657986
 30
0.0
  0
VERTEX
  5
82E
  8
0
 62
     7
 10
396.1244113811728
 20
46.04188359053498
 30
0.0
  0
VERTEX
  5
82F
  8
0
 62
     7
 10
396.1391555477189
 20
46.03318301464441
 30
0.0
  0
VERTEX
  5
830
  8
0
 62
     7
 10
396.1538946614583
 20
46.02448029513889
 30
0.0
  0
VERTEX
  5
831
  8
0
 62
     7
 10
396.1686291817371
 20
46.01577573824909
 30
0.0
  0
VERTEX
  5
832
  8
0
 62
     7
 10
396.1833595679012
 20
46.00706965020576
 30
0.0
  0
VERTEX
  5
833
  8
0
 62
     7
 10
396.1980862792969
 20
45.99836233723957
 30
0.0
  0
VERTEX
  5
834
  8
0
 62
     7
 10
396.21280977527
 20
45.98965410558127
 30
0.0
  0
VERTEX
  5
835
  8
0
 62
     7
 10
396.2275305151668
 20
45.98094526146154
 30
0.0
  0
VERTEX
  5
836
  8
0
 62
     7
 10
396.2422489583333
 20
45.9722361111111
 30
0.0
  0
VERTEX
  5
837
  8
0
 62
     7
 10
396.2569655641155
 20
45.96352696076066
 30
0.0
  0
VERTEX
  5
838
  8
0
 62
     7
 10
396.2716807918595
 20
45.95481811664094
 30
0.0
  0
VERTEX
  5
839
  8
0
 62
     7
 10
396.2863951009114
 20
45.94610988498263
 30
0.0
  0
VERTEX
  5
83A
  8
0
 62
     7
 10
396.3011089506173
 20
45.93740257201646
 30
0.0
  0
VERTEX
  5
83B
  8
0
 62
     7
 10
396.3158228003231
 20
45.92869648397311
 30
0.0
  0
VERTEX
  5
83C
  8
0
 62
     7
 10
396.3305371093749
 20
45.91999192708333
 30
0.0
  0
VERTEX
  5
83D
  8
0
 62
     7
 10
396.3452523371189
 20
45.91128920757779
 30
0.0
  0
VERTEX
  5
83E
  8
0
 62
     7
 10
396.3599689429012
 20
45.90258863168724
 30
0.0
  0
VERTEX
  5
83F
  8
0
 62
     7
 10
396.3746873860677
 20
45.89389050564235
 30
0.0
  0
VERTEX
  5
840
  8
0
 62
     7
 10
396.3894081259645
 20
45.88519513567387
 30
0.0
  0
VERTEX
  5
841
  8
0
 62
     7
 10
396.4041316219377
 20
45.87650282801246
 30
0.0
  0
VERTEX
  5
842
  8
0
 62
     7
 10
396.4188583333333
 20
45.86781388888888
 30
0.0
  0
SEQEND
  5
843
  8
0
 62
     7
  0
POLYLINE
  5
9C
  8
0
 62
     7
 66
     1
 10
0.0
 20
0.0
 30
0.0
  0
VERTEX
  5
844
  8
0
 62
     7
 10
396.4188583333333
 20
45.86781388888888
 30
0.0
  0
VERTEX
  5
845
  8
0
 62
     7
 10
396.4254231541763
 20
45.8638409026974
 30
0.0
  0
VERTEX
  5
846
  8
0
 62
     7
 10
396.4321450713734
 20
45.85961466370884
 30
0.0
  0
VERTEX
  5
847
  8
0
 62
     7
 10
396.439012141927
 20
45.85516487630208
 30
0.0
  0
VERTEX
  5
848
  8
0
 62
     7
 10
396.4460124228395
 20
45.85052124485596
 30
0.0
  0
VERTEX
  5
849
  8
0
 62
     7
 10
396.4531339711131
 20
45.84571347374935
 30
0.0
  0
VERTEX
  5
84A
  8
0
 62
     7
 10
396.46036484375
 20
45.8407712673611
 30
0.0
  0
VERTEX
  5
84B
  8
0
 62
     7
 10
396.4676930977527
 20
45.83572433007008
 30
0.0
  0
VERTEX
  5
84C
  8
0
 62
     7
 10
396.4751067901234
 20
45.83060236625514
 30
0.0
  0
VERTEX
  5
84D
  8
0
 62
     7
 10
396.4825939778646
 20
45.82543508029514
 30
0.0
  0
VERTEX
  5
84E
  8
0
 62
     7
 10
396.4901427179784
 20
45.82025217656893
 30
0.0
  0
VERTEX
  5
84F
  8
0
 62
     7
 10
396.4977410674672
 20
45.81508335945537
 30
0.0
  0
VERTEX
  5
850
  8
0
 62
     7
 10
396.5053770833333
 20
45.80995833333333
 30
0.0
  0
VERTEX
  5
851
  8
0
 62
     7
 10
396.513038822579
 20
45.80490680258166
 30
0.0
  0
VERTEX
  5
852
  8
0
 62
     7
 10
396.5207143422068
 20
45.79995847157922
 30
0.0
  0
VERTEX
  5
853
  8
0
 62
     7
 10
396.5283916992187
 20
45.79514304470486
 30
0.0
  0
VERTEX
  5
854
  8
0
 62
     7
 10
396.5360589506172
 20
45.79049022633745
 30
0.0
  0
VERTEX
  5
855
  8
0
 62
     7
 10
396.5437041534046
 20
45.78602972085584
 30
0.0
  0
VERTEX
  5
856
  8
0
 62
     7
 10
396.5513153645833
 20
45.78179123263889
 30
0.0
  0
VERTEX
  5
857
  8
0
 62
     7
 10
396.5588806411554
 20
45.77780446606546
 30
0.0
  0
VERTEX
  5
858
  8
0
 62
     7
 10
396.5663880401235
 20
45.7740991255144
 30
0.0
  0
VERTEX
  5
859
  8
0
 62
     7
 10
396.5738256184896
 20
45.77070491536458
 30
0.0
  0
VERTEX
  5
85A
  8
0
 62
     7
 10
396.5811814332562
 20
45.76765153999485
 30
0.0
  0
VERTEX
  5
85B
  8
0
 62
     7
 10
396.5884435414256
 20
45.76496870378407
 30
0.0
  0
VERTEX
  5
85C
  8
0
 62
     7
 10
396.5956
 20
45.76268611111111
 30
0.0
  0
SEQEND
  5
85D
  8
0
 62
     7
  0
POLYLINE
  5
9D
  8
0
 62
     7
 66
     1
 10
0.0
 20
0.0
 30
0.0
  0
VERTEX
  5
85E
  8
0
 62
     7
 10
396.5956
 20
45.76268611111111
 30
0.0
  0
VERTEX
  5
85F
  8
0
 62
     7
 10
396.6033057599103
 20
45.76053075729809
 30
0.0
  0
VERTEX
  5
860
  8
0
 62
     7
 10
396.6111571325231
 20
45.75855485468107
 30
0.0
  0
VERTEX
  5
861
  8
0
 62
     7
 10
396.6191417154948
 20
45.75674676649305
 30
0.0
  0
VERTEX
  5
862
  8
0
 62
     7
 10
396.6272471064815
 20
45.75509485596708
 30
0.0
  0
VERTEX
  5
863
  8
0
 62
     7
 10
396.6354609031395
 20
45.75358748633616
 30
0.0
  0
VERTEX
  5
864
  8
0
 62
     7
 10
396.643770703125
 20
45.75221302083332
 30
0.0
  0
VERTEX
  5
865
  8
0
 62
     7
 10
396.6521641040943
 20
45.75095982269161
 30
0.0
  0
VERTEX
  5
866
  8
0
 62
     7
 10
396.6606287037037
 20
45.74981625514403
 30
0.0
  0
VERTEX
  5
867
  8
0
 62
     7
 10
396.6691520996094
 20
45.74877068142361
 30
0.0
  0
VERTEX
  5
868
  8
0
 62
     7
 10
396.6777218894675
 20
45.74781146476337
 30
0.0
  0
VERTEX
  5
869
  8
0
 62
     7
 10
396.6863256709346
 20
45.74692696839634
 30
0.0
  0
VERTEX
  5
86A
  8
0
 62
     7
 10
396.6949510416666
 20
45.74610555555556
 30
0.0
  0
VERTEX
  5
86B
  8
0
 62
     7
 10
396.70358559932
 20
45.74533558947402
 30
0.0
  0
VERTEX
  5
86C
  8
0
 62
     7
 10
396.7122169415509
 20
45.74460543338478
 30
0.0
  0
VERTEX
  5
86D
  8
0
 62
     7
 10
396.7208326660156
 20
45.74390345052083
 30
0.0
  0
VERTEX
  5
86E
  8
0
 62
     7
 10
396.7294203703703
 20
45.74321800411522
 30
0.0
  0
VERTEX
  5
86F
  8
0
 62
     7
 10
396.7379676522714
 20
45.74253745740097
 30
0.0
  0
VERTEX
  5
870
  8
0
 62
     7
 10
396.7464621093749
 20
45.74185017361111
 30
0.0
  0
VERTEX
  5
871
  8
0
 62
     7
 10
396.7548913393373
 20
45.74114451597865
 30
0.0
  0
VERTEX
  5
872
  8
0
 62
     7
 10
396.7632429398148
 20
45.74040884773662
 30
0.0
  0
VERTEX
  5
873
  8
0
 62
     7
 10
396.7715045084635
 20
45.73963153211805
 30
0.0
  0
VERTEX
  5
874
  8
0
 62
     7
 10
396.7796636429398
 20
45.73880093235596
 30
0.0
  0
VERTEX
  5
875
  8
0
 62
     7
 10
396.7877079408998
 20
45.73790541168339
 30
0.0
  0
VERTEX
  5
876
  8
0
 62
     7
 10
396.795625
 20
45.73693333333333
 30
0.0
  0
SEQEND
  5
877
  8
0
 62
     7
  0
POLYLINE
  5
9E
  8
0
 62
     7
 66
     1
 10
0.0
 20
0.0
 30
0.0
  0
VERTEX
  5
878
  8
0
 62
     7
 10
396.795625
 20
45.73693333333333
 30
0.0
  0
VERTEX
  5
879
  8
0
 62
     7
 10
396.8095561240114
 20
45.73512356087642
 30
0.0
  0
VERTEX
  5
87A
  8
0
 62
     7
 10
396.8234803578317
 20
45.73331041988169
 30
0.0
  0
VERTEX
  5
87B
  8
0
 62
     7
 10
396.8373981608073
 20
45.73149421657986
 30
0.0
  0
VERTEX
  5
87C
  8
0
 62
     7
 10
396.8513099922839
 20
45.72967525720165
 30
0.0
  0
VERTEX
  5
87D
  8
0
 62
     7
 10
396.8652163116078
 20
45.72785384797774
 30
0.0
  0
VERTEX
  5
87E
  8
0
 62
     7
 10
396.879117578125
 20
45.72603029513888
 30
0.0
  0
VERTEX
  5
87F
  8
0
 62
     7
 10
396.8930142511815
 20
45.72420490491577
 30
0.0
  0
VERTEX
  5
880
  8
0
 62
     7
 10
396.9069067901235
 20
45.72237798353909
 30
0.0
  0
VERTEX
  5
881
  8
0
 62
     7
 10
396.9207956542969
 20
45.72054983723959
 30
0.0
  0
VERTEX
  5
882
  8
0
 62
     7
 10
396.9346813030478
 20
45.71872077224793
 30
0.0
  0
VERTEX
  5
883
  8
0
 62
     7
 10
396.9485641957224
 20
45.71689109479489
 30
0.0
  0
VERTEX
  5
884
  8
0
 62
     7
 10
396.9624447916666
 20
45.71506111111111
 30
0.0
  0
VERTEX
  5
885
  8
0
 62
     7
 10
396.9763235502267
 20
45.71323112742734
 30
0.0
  0
VERTEX
  5
886
  8
0
 62
     7
 10
396.9902009307485
 20
45.71140144997428
 30
0.0
  0
VERTEX
  5
887
  8
0
 62
     7
 10
397.0040773925782
 20
45.70957238498264
 30
0.0
  0
VERTEX
  5
888
  8
0
 62
     7
 10
397.0179533950618
 20
45.70774423868313
 30
0.0
  0
VERTEX
  5
889
  8
0
 62
     7
 10
397.0318293975454
 20
45.70591731730646
 30
0.0
  0
VERTEX
  5
88A
  8
0
 62
     7
 10
397.045705859375
 20
45.70409192708333
 30
0.0
  0
VERTEX
  5
88B
  8
0
 62
     7
 10
397.0595832398969
 20
45.70226837424447
 30
0.0
  0
VERTEX
  5
88C
  8
0
 62
     7
 10
397.0734619984569
 20
45.70044696502057
 30
0.0
  0
VERTEX
  5
88D
  8
0
 62
     7
 10
397.087342594401
 20
45.69862800564236
 30
0.0
  0
VERTEX
  5
88E
  8
0
 62
     7
 10
397.1012254870757
 20
45.69681180234053
 30
0.0
  0
VERTEX
  5
88F
  8
0
 62
     7
 10
397.1151111358266
 20
45.69499866134581
 30
0.0
  0
VERTEX
  5
890
  8
0
 62
     7
 10
397.129
 20
45.69318888888888
 30
0.0
  0
SEQEND
  5
891
  8
0
 62
     7
  0
POLYLINE
  5
9F
  8
0
 62
     7
 66
     1
 10
0.0
 20
0.0
 30
0.0
  0
VERTEX
  5
892
  8
0
 62
     7
 10
397.129
 20
45.69318888888888
 30
0.0
  0
VERTEX
  5
893
  8
0
 62
     7
 10
397.1790116345567
 20
45.6867470962336
 30
0.0
  0
VERTEX
  5
894
  8
0
 62
     7
 10
397.229033527842
 20
45.68029841338735
 30
0.0
  0
VERTEX
  5
895
  8
0
 62
     7
 10
397.2790649142795
 20
45.67384329969618
 30
0.0
  0
VERTEX
  5
896
  8
0
 62
     7
 10
397.3291050282922
 20
45.66738221450617
 30
0.0
  0
VERTEX
  5
897
  8
0
 62
     7
 10
397.3791531043033
 20
45.66091561716338
 30
0.0
  0
VERTEX
  5
898
  8
0
 62
     7
 10
397.4292083767361
 20
45.65444396701388
 30
0.0
  0
VERTEX
  5
899
  8
0
 62
     7
 10
397.4792700800138
 20
45.64796772340374
 30
0.0
  0
VERTEX
  5
89A
  8
0
 62
     7
 10
397.5293374485597
 20
45.64148734567901
 30
0.0
  0
VERTEX
  5
89B
  8
0
 62
     7
 10
397.5794097167969
 20
45.63500329318576
 30
0.0
  0
VERTEX
  5
89C
  8
0
 62
     7
 10
397.6294861191486
 20
45.62851602527006
 30
0.0
  0
VERTEX
  5
89D
  8
0
 62
     7
 10
397.6795658900382
 20
45.62202600127797
 30
0.0
  0
VERTEX
  5
89E
  8
0
 62
     7
 10
397.7296482638889
 20
45.61553368055556
 30
0.0
  0
VERTEX
  5
89F
  8
0
 62
     7
 10
397.7797324751238
 20
45.60903952244888
 30
0.0
  0
VERTEX
  5
8A0
  8
0
 62
     7
 10
397.8298177581662
 20
45.60254398630401
 30
0.0
  0
VERTEX
  5
8A1
  8
0
 62
     7
 10
397.8799033474392
 20
45.59604753146701
 30
0.0
  0
VERTEX
  5
8A2
  8
0
 62
     7
 10
397.9299884773662
 20
45.58955061728395
 30
0.0
  0
VERTEX
  5
8A3
  8
0
 62
     7
 10
397.9800723823704
 20
45.58305370310088
 30
0.0
  0
VERTEX
  5
8A4
  8
0
 62
     7
 10
398.030154296875
 20
45.57655724826388
 30
0.0
  0
VERTEX
  5
8A5
  8
0
 62
     7
 10
398.0802334553032
 20
45.57006171211902
 30
0.0
  0
VERTEX
  5
8A6
  8
0
 62
     7
 10
398.1303090920782
 20
45.56356755401234
 30
0.0
  0
VERTEX
  5
8A7
  8
0
 62
     7
 10
398.1803804416232
 20
45.55707523328992
 30
0.0
  0
VERTEX
  5
8A8
  8
0
 62
     7
 10
398.2304467383616
 20
45.55058520929784
 30
0.0
  0
VERTEX
  5
8A9
  8
0
 62
     7
 10
398.2805072167165
 20
45.54409794138214
 30
0.0
  0
VERTEX
  5
8AA
  8
0
 62
     7
 10
398.3305611111111
 20
45.53761388888888
 30
0.0
  0
SEQEND
  5
8AB
  8
0
 62
     7
  0
POLYLINE
  5
A0
  8
0
 62
     7
 66
     1
 10
0.0
 20
0.0
 30
0.0
  0
VERTEX
  5
8AC
  8
0
 62
     7
 10
398.3305611111111
 20
45.53761388888888
 30
0.0
  0
VERTEX
  5
8AD
  8
0
 62
     7
 10
398.5780788449637
 20
45.50555163564172
 30
0.0
  0
VERTEX
  5
8AE
  8
0
 62
     7
 10
398.8255967319315
 20
45.47348264531893
 30
0.0
  0
VERTEX
  5
8AF
  8
0
 62
     7
 10
399.0731149251303
 20
45.44140753038194
 30
0.0
  0
VERTEX
  5
8B0
  8
0
 62
     7
 10
399.3206335776749
 20
45.40932690329218
 30
0.0
  0
VERTEX
  5
8B1
  8
0
 62
     7
 10
399.568152842681
 20
45.37724137651105
 30
0.0
  0
VERTEX
  5
8B2
  8
0
 62
     7
 10
399.8156728732639
 20
45.34515156250001
 30
0.0
  0
VERTEX
  5
8B3
  8
0
 62
     7
 10
400.0631938225389
 20
45.31305807372043
 30
0.0
  0
VERTEX
  5
8B4
  8
0
 62
     7
 10
400.3107158436214
 20
45.28096152263374
 30
0.0
  0
VERTEX
  5
8B5
  8
0
 62
     7
 10
400.5582390896267
 20
45.24886252170138
 30
0.0
  0
VERTEX
  5
8B6
  8
0
 62
     7
 10
400.8057637136702
 20
45.21676168338477
 30
0.0
  0
VERTEX
  5
8B7
  8
0
 62
     7
 10
401.0532898688673
 20
45.18465962014533
 30
0.0
  0
VERTEX
  5
8B8
  8
0
 62
     7
 10
401.3008177083333
 20
45.15255694444444
 30
0.0
  0
VERTEX
  5
8B9
  8
0
 62
     7
 10
401.5483473851835
 20
45.12045426874356
 30
0.0
  0
VERTEX
  5
8BA
  8
0
 62
     7
 10
401.7958790525335
 20
45.08835220550411
 30
0.0
  0
VERTEX
  5
8BB
  8
0
 62
     7
 10
402.0434128634982
 20
45.05625136718749
 30
0.0
  0
VERTEX
  5
8BC
  8
0
 62
     7
 10
402.2909489711934
 20
45.02415236625514
 30
0.0
  0
VERTEX
  5
8BD
  8
0
 62
     7
 10
402.5384875287342
 20
44.99205581516847
 30
0.0
  0
VERTEX
  5
8BE
  8
0
 62
     7
 10
402.786028689236
 20
44.95996232638889
 30
0.0
  0
VERTEX
  5
8BF
  8
0
 62
     7
 10
403.0335726058144
 20
44.92787251237783
 30
0.0
  0
VERTEX
  5
8C0
  8
0
 62
     7
 10
403.2811194315843
 20
44.8957869855967
 30
0.0
  0
VERTEX
  5
8C1
  8
0
 62
     7
 10
403.5286693196614
 20
44.86370635850695
 30
0.0
  0
VERTEX
  5
8C2
  8
0
 62
     7
 10
403.776222423161
 20
44.83163124356996
 30
0.0
  0
VERTEX
  5
8C3
  8
0
 62
     7
 10
404.0237788951983
 20
44.79956225324717
 30
0.0
  0
VERTEX
  5
8C4
  8
0
 62
     7
 10
404.2713388888889
 20
44.7675
 30
0.0
  0
SEQEND
  5
8C5
  8
0
 62
     7
  0
POLYLINE
  5
A1
  8
0
 62
     7
 66
     1
 10
0.0
 20
0.0
 30
0.0
  0
VERTEX
  5
8C6
  8
0
 62
     7
 10
404.2713388888889
 20
44.7675
 30
0.0
  0
VERTEX
  5
8C7
  8
0
 62
     7
 10
405.1529376754195
 20
44.65333379730099
 30
0.0
  0
VERTEX
  5
8C8
  8
0
 62
     7
 10
406.0345497829861
 20
44.53916927887088
 30
0.0
  0
VERTEX
  5
8C9
  8
0
 62
     7
 10
406.9161738335503
 20
44.42500445421007
 30
0.0
  0
VERTEX
  5
8CA
  8
0
 62
     7
 10
407.797808449074
 20
44.31083733281893
 30
0.0
  0
VERTEX
  5
8CB
  8
0
 62
     7
 10
408.679452251519
 20
44.19666592419785
 30
0.0
  0
VERTEX
  5
8CC
  8
0
 62
     7
 10
409.5611038628472
 20
44.08248823784722
 30
0.0
  0
VERTEX
  5
8CD
  8
0
 62
     7
 10
410.4427619050202
 20
43.96830228326743
 30
0.0
  0
VERTEX
  5
8CE
  8
0
 62
     7
 10
411.324425
 20
43.85410606995885
 30
0.0
  0
VERTEX
  5
8CF
  8
0
 62
     7
 10
412.2060917697482
 20
43.73989760742187
 30
0.0
  0
VERTEX
  5
8D0
  8
0
 62
     7
 10
413.0877608362268
 20
43.62567490515689
 30
0.0
  0
VERTEX
  5
8D1
  8
0
 62
     7
 10
413.9694308213975
 20
43.51143597266429
 30
0.0
  0
VERTEX
  5
8D2
  8
0
 62
     7
 10
414.8511003472222
 20
43.39717881944444
 30
0.0
  0
VERTEX
  5
8D3
  8
0
 62
     7
 10
415.7327680356626
 20
43.28290145499776
 30
0.0
  0
VERTEX
  5
8D4
  8
0
 62
     7
 10
416.6144325086805
 20
43.16860188882458
 30
0.0
  0
VERTEX
  5
8D5
  8
0
 62
     7
 10
417.4960923882378
 20
43.05427813042535
 30
0.0
  0
VERTEX
  5
8D6
  8
0
 62
     7
 10
418.3777462962963
 20
42.93992818930041
 30
0.0
  0
VERTEX
  5
8D7
  8
0
 62
     7
 10
419.2593928548176
 20
42.82555007495016
 30
0.0
  0
VERTEX
  5
8D8
  8
0
 62
     7
 10
420.1410306857639
 20
42.711141796875
 30
0.0
  0
VERTEX
  5
8D9
  8
0
 62
     7
 10
421.0226584110966
 20
42.5967013645753
 30
0.0
  0
VERTEX
  5
8DA
  8
0
 62
     7
 10
421.9042746527778
 20
42.48222678755144
 30
0.0
  0
VERTEX
  5
8DB
  8
0
 62
     7
 10
422.7858780327691
 20
42.36771607530382
 30
0.0
  0
VERTEX
  5
8DC
  8
0
 62
     7
 10
423.6674671730324
 20
42.25316723733281
 30
0.0
  0
VERTEX
  5
8DD
  8
0
 62
     7
 10
424.5490406955295
 20
42.13857828313883
 30
0.0
  0
VERTEX
  5
8DE
  8
0
 62
     7
 10
425.4305972222222
 20
42.02394722222222
 30
0.0
  0
SEQEND
  5
8DF
  8
0
 62
     7
  0
POLYLINE
  5
A2
  8
0
 62
     7
 66
     1
 10
0.0
 20
0.0
 30
0.0
  0
VERTEX
  5
8E0
  8
0
 62
     7
 10
425.4305972222222
 20
42.02394722222222
 30
0.0
  0
VERTEX
  5
8E1
  8
0
 62
     7
 10
425.675377304567
 20
41.99211624971869
 30
0.0
  0
VERTEX
  5
8E2
  8
0
 62
     7
 10
425.9201504967207
 20
41.96029921071244
 30
0.0
  0
VERTEX
  5
8E3
  8
0
 62
     7
 10
426.1649172580295
 20
41.92849533962674
 30
0.0
  0
VERTEX
  5
8E4
  8
0
 62
     7
 10
426.4096780478395
 20
41.89670387088478
 30
0.0
  0
VERTEX
  5
8E5
  8
0
 62
     7
 10
426.6544333254967
 20
41.86492403890978
 30
0.0
  0
VERTEX
  5
8E6
  8
0
 62
     7
 10
426.8991835503472
 20
41.833155078125
 30
0.0
  0
VERTEX
  5
8E7
  8
0
 62
     7
 10
427.1439291817371
 20
41.80139622295364
 30
0.0
  0
VERTEX
  5
8E8
  8
0
 62
     7
 10
427.3886706790124
 20
41.76964670781893
 30
0.0
  0
VERTEX
  5
8E9
  8
0
 62
     7
 10
427.6334085015191
 20
41.7379057671441
 30
0.0
  0
VERTEX
  5
8EA
  8
0
 62
     7
 10
427.8781431086034
 20
41.70617263535236
 30
0.0
  0
VERTEX
  5
8EB
  8
0
 62
     7
 10
428.1228749596114
 20
41.67444654686696
 30
0.0
  0
VERTEX
  5
8EC
  8
0
 62
     7
 10
428.3676045138889
 20
41.64272673611111
 30
0.0
  0
VERTEX
  5
8ED
  8
0
 62
     7
 10
428.6123322307823
 20
41.61101243750804
 30
0.0
  0
VERTEX
  5
8EE
  8
0
 62
     7
 10
428.8570585696374
 20
41.57930288548096
 30
0.0
  0
VERTEX
  5
8EF
  8
0
 62
     7
 10
429.1017839898003
 20
41.54759731445312
 30
0.0
  0
VERTEX
  5
8F0
  8
0
 62
     7
 10
429.3465089506174
 20
41.51589495884773
 30
0.0
  0
VERTEX
  5
8F1
  8
0
 62
     7
 10
429.5912339114342
 20
41.48419505308802
 30
0.0
  0
VERTEX
  5
8F2
  8
0
 62
     7
 10
429.8359593315973
 20
41.45249683159722
 30
0.0
  0
VERTEX
  5
8F3
  8
0
 62
     7
 10
430.0806856704523
 20
41.42079952879854
 30
0.0
  0
VERTEX
  5
8F4
  8
0
 62
     7
 10
430.3254133873456
 20
41.38910237911522
 30
0.0
  0
VERTEX
  5
8F5
  8
0
 62
     7
 10
430.5701429416233
 20
41.35740461697048
 30
0.0
  0
VERTEX
  5
8F6
  8
0
 62
     7
 10
430.8148747926312
 20
41.32570547678755
 30
0.0
  0
VERTEX
  5
8F7
  8
0
 62
     7
 10
431.0596093997154
 20
41.29400419298965
 30
0.0
  0
VERTEX
  5
8F8
  8
0
 62
     7
 10
431.3043472222222
 20
41.2623
 30
0.0
  0
SEQEND
  5
8F9
  8
0
 62
     7
  0
POLYLINE
  5
A3
  8
0
 62
     7
 66
     1
 10
0.0
 20
0.0
 30
0.0
  0
VERTEX
  5
8FA
  8
0
 62
     7
 10
431.3043472222222
 20
41.2623
 30
0.0
  0
VERTEX
  5
8FB
  8
0
 62
     7
 10
431.3460226954331
 20
41.25691656619728
 30
0.0
  0
VERTEX
  5
8FC
  8
0
 62
     7
 10
431.387705058835
 20
41.25152639531893
 30
0.0
  0
VERTEX
  5
8FD
  8
0
 62
     7
 10
431.4293938530816
 20
41.2461300998264
 30
0.0
  0
VERTEX
  5
8FE
  8
0
 62
     7
 10
431.4710886188273
 20
41.24072829218107
 30
0.0
  0
VERTEX
  5
8FF
  8
0
 62
     7
 10
431.5127888967255
 20
41.23532158484439
 30
0.0
  0
VERTEX
  5
900
  8
0
 62
     7
 10
431.5544942274306
 20
41.22991059027778
 30
0.0
  0
VERTEX
  5
901
  8
0
 62
     7
 10
431.5962041515963
 20
41.22449592094264
 30
0.0
  0
VERTEX
  5
902
  8
0
 62
     7
 10
431.6379182098766
 20
41.21907818930041
 30
0.0
  0
VERTEX
  5
903
  8
0
 62
     7
 10
431.6796359429254
 20
41.2136580078125
 30
0.0
  0
VERTEX
  5
904
  8
0
 62
     7
 10
431.7213568913967
 20
41.20823598894032
 30
0.0
  0
VERTEX
  5
905
  8
0
 62
     7
 10
431.7630805959442
 20
41.20281274514532
 30
0.0
  0
VERTEX
  5
906
  8
0
 62
     7
 10
431.8048065972222
 20
41.19738888888888
 30
0.0
  0
VERTEX
  5
907
  8
0
 62
     7
 10
431.8465344358845
 20
41.19196503263246
 30
0.0
  0
VERTEX
  5
908
  8
0
 62
     7
 10
431.8882636525848
 20
41.18654178883745
 30
0.0
  0
VERTEX
  5
909
  8
0
 62
     7
 10
431.9299937879774
 20
41.18111976996528
 30
0.0
  0
VERTEX
  5
90A
  8
0
 62
     7
 10
431.971724382716
 20
41.17569958847736
 30
0.0
  0
VERTEX
  5
90B
  8
0
 62
     7
 10
432.0134549774546
 20
41.17028185683513
 30
0.0
  0
VERTEX
  5
90C
  8
0
 62
     7
 10
432.0551851128472
 20
41.16486718749999
 30
0.0
  0
VERTEX
  5
90D
  8
0
 62
     7
 10
432.0969143295476
 20
41.15945619293338
 30
0.0
  0
VERTEX
  5
90E
  8
0
 62
     7
 10
432.1386421682099
 20
41.15404948559671
 30
0.0
  0
VERTEX
  5
90F
  8
0
 62
     7
 10
432.1803681694878
 20
41.14864767795139
 30
0.0
  0
VERTEX
  5
910
  8
0
 62
     7
 10
432.2220918740355
 20
41.14325138245884
 30
0.0
  0
VERTEX
  5
911
  8
0
 62
     7
 10
432.2638128225067
 20
41.13786121158051
 30
0.0
  0
VERTEX
  5
912
  8
0
 62
     7
 10
432.3055305555555
 20
41.13247777777778
 30
0.0
  0
SEQEND
  5
913
  8
0
 62
     7
  0
POLYLINE
  5
A4
  8
0
 62
     7
 66
     1
 10
0.0
 20
0.0
 30
0.0
  0
VERTEX
  5
914
  8
0
 62
     7
 10
432.3055305555555
 20
41.13247777777778
 30
0.0
  0
VERTEX
  5
915
  8
0
 62
     7
 10
432.3194229924206
 20
41.13065573057324
 30
0.0
  0
VERTEX
  5
916
  8
0
 62
     7
 10
432.3333189509388
 20
41.12880811310443
 30
0.0
  0
VERTEX
  5
917
  8
0
 62
     7
 10
432.3472182779948
 20
41.1269387532552
 30
0.0
  0
VERTEX
  5
918
  8
0
 62
     7
 10
432.3611208204733
 20
41.12505147890947
 30
0.0
  0
VERTEX
  5
919
  8
0
 62
     7
 10
432.3750264252588
 20
41.12315011795107
 30
0.0
  0
VERTEX
  5
91A
  8
0
 62
     7
 10
432.3889349392361
 20
41.12123849826389
 30
0.0
  0
VERTEX
  5
91B
  8
0
 62
     7
 10
432.4028462092898
 20
41.1193204477318
 30
0.0
  0
VERTEX
  5
91C
  8
0
 62
     7
 10
432.4167600823046
 20
41.11739979423868
 30
0.0
  0
VERTEX
  5
91D
  8
0
 62
     7
 10
432.4306764051648
 20
41.1154803656684
 30
0.0
  0
VERTEX
  5
91E
  8
0
 62
     7
 10
432.4445950247557
 20
41.11356598990484
 30
0.0
  0
VERTEX
  5
91F
  8
0
 62
     7
 10
432.4585157879613
 20
41.11166049483185
 30
0.0
  0
VERTEX
  5
920
  8
0
 62
     7
 10
432.4724385416667
 20
41.10976770833334
 30
0.0
  0
VERTEX
  5
921
  8
0
 62
     7
 10
432.4863631327563
 20
41.10789145829314
 30
0.0
  0
VERTEX
  5
922
  8
0
 62
     7
 10
432.5002894081147
 20
41.10603557259516
 30
0.0
  0
VERTEX
  5
923
  8
0
 62
     7
 10
432.5142172146267
 20
41.10420387912326
 30
0.0
  0
VERTEX
  5
924
  8
0
 62
     7
 10
432.528146399177
 20
41.10240020576131
 30
0.0
  0
VERTEX
  5
925
  8
0
 62
     7
 10
432.54207680865
 20
41.1006283803932
 30
0.0
  0
VERTEX
  5
926
  8
0
 62
     7
 10
432.5560082899306
 20
41.09889223090278
 30
0.0
  0
VERTEX
  5
927
  8
0
 62
     7
 10
432.5699406899032
 20
41.09719558517394
 30
0.0
  0
VERTEX
  5
928
  8
0
 62
     7
 10
432.5838738554527
 20
41.09554227109054
 30
0.0
  0
VERTEX
  5
929
  8
0
 62
     7
 10
432.5978076334635
 20
41.09393611653645
 30
0.0
  0
VERTEX
  5
92A
  8
0
 62
     7
 10
432.6117418708205
 20
41.09238094939557
 30
0.0
  0
VERTEX
  5
92B
  8
0
 62
     7
 10
432.6256764144081
 20
41.09088059755176
 30
0.0
  0
VERTEX
  5
92C
  8
0
 62
     7
 10
432.6396111111111
 20
41.08943888888889
 30
0.0
  0
SEQEND
  5
92D
  8
0
 62
     7
  0
POLYLINE
  5
A5
  8
0
 62
     7
 66
     1
 10
0.0
 20
0.0
 30
0.0
  0
VERTEX
  5
92E
  8
0
 62
     7
 10
432.6396111111111
 20
41.08943888888889
 30
0.0
  0
VERTEX
  5
92F
  8
0
 62
     7
 10
432.6404448242187
 20
41.08930731176054
 30
0.0
  0
VERTEX
  5
930
  8
0
 62
     7
 10
432.6425178530092
 20
41.08901098251028
 30
0.0
  0
VERTEX
  5
931
  8
0
 62
     7
 10
432.6457171983507
 20
41.0885652126736
 30
0.0
  0
VERTEX
  5
932
  8
0
 62
     7
 10
432.6499298611111
 20
41.08798531378601
 30
0.0
  0
VERTEX
  5
933
  8
0
 62
     7
 10
432.6550428421585
 20
41.08728659738298
 30
0.0
  0
VERTEX
  5
934
  8
0
 62
     7
 10
432.6609431423611
 20
41.086484375
 30
0.0
  0
VERTEX
  5
935
  8
0
 62
     7
 10
432.6675177625868
 20
41.08559395817257
 30
0.0
  0
VERTEX
  5
936
  8
0
 62
     7
 10
432.6746537037037
 20
41.08463065843621
 30
0.0
  0
VERTEX
  5
937
  8
0
 62
     7
 10
432.6822379665798
 20
41.08360978732638
 30
0.0
  0
VERTEX
  5
938
  8
0
 62
     7
 10
432.6901575520833
 20
41.0825466563786
 30
0.0
  0
VERTEX
  5
939
  8
0
 62
     7
 10
432.6982994610822
 20
41.08145657712835
 30
0.0
  0
VERTEX
  5
93A
  8
0
 62
     7
 10
432.7065506944444
 20
41.0803548611111
 30
0.0
  0
VERTEX
  5
93B
  8
0
 62
     7
 10
432.7147982530382
 20
41.07925681986239
 30
0.0
  0
VERTEX
  5
93C
  8
0
 62
     7
 10
432.7229291377315
 20
41.0781777649177
 30
0.0
  0
VERTEX
  5
93D
  8
0
 62
     7
 10
432.7308303493924
 20
41.07713300781249
 30
0.0
  0
VERTEX
  5
93E
  8
0
 62
     7
 10
432.7383888888889
 20
41.0761378600823
 30
0.0
  0
VERTEX
  5
93F
  8
0
 62
     7
 10
432.745491757089
 20
41.0752076332626
 30
0.0
  0
VERTEX
  5
940
  8
0
 62
     7
 10
432.7520259548611
 20
41.07435763888888
 30
0.0
  0
VERTEX
  5
941
  8
0
 62
     7
 10
432.7578784830729
 20
41.07360318849666
 30
0.0
  0
VERTEX
  5
942
  8
0
 62
     7
 10
432.7629363425926
 20
41.07295959362139
 30
0.0
  0
VERTEX
  5
943
  8
0
 62
     7
 10
432.7670865342882
 20
41.07244216579861
 30
0.0
  0
VERTEX
  5
944
  8
0
 62
     7
 10
432.7702160590278
 20
41.07206621656378
 30
0.0
  0
VERTEX
  5
945
  8
0
 62
     7
 10
432.7722119176794
 20
41.07184705745242
 30
0.0
  0
VERTEX
  5
946
  8
0
 62
     7
 10
432.7729611111111
 20
41.0718
 30
0.0
  0
SEQEND
  5
947
  8
0
 62
     7
  0
POLYLINE
  5
A6
  8
0
 62
     7
 66
     1
 10
0.0
 20
0.0
 30
0.0
  0
VERTEX
  5
948
  8
0
 62
     7
 10
432.7729611111111
 20
41.0718
 30
0.0
  0
VERTEX
  5
949
  8
0
 62
     7
 10
432.7806260402601
 20
41.07204355549126
 30
0.0
  0
VERTEX
  5
94A
  8
0
 62
     7
 10
432.788441481803
 20
41.0726680619856
 30
0.0
  0
VERTEX
  5
94B
  8
0
 62
     7
 10
432.7963925835503
 20
41.07364657118055
 30
0.0
  0
VERTEX
  5
94C
  8
0
 62
     7
 10
432.8044644933127
 20
41.07495213477366
 30
0.0
  0
VERTEX
  5
94D
  8
0
 62
     7
 10
432.8126423589007
 20
41.07655780446245
 30
0.0
  0
VERTEX
  5
94E
  8
0
 62
     7
 10
432.820911328125
 20
41.07843663194444
 30
0.0
  0
VERTEX
  5
94F
  8
0
 62
     7
 10
432.829256548796
 20
41.08056166891718
 30
0.0
  0
VERTEX
  5
950
  8
0
 62
     7
 10
432.8376631687243
 20
41.08290596707819
 30
0.0
  0
VERTEX
  5
951
  8
0
 62
     7
 10
432.8461163357205
 20
41.085442578125
 30
0.0
  0
VERTEX
  5
952
  8
0
 62
     7
 10
432.8546011975951
 20
41.08814455375514
 30
0.0
  0
VERTEX
  5
953
  8
0
 62
     7
 10
432.8631029021589
 20
41.09098494566615
 30
0.0
  0
VERTEX
  5
954
  8
0
 62
     7
 10
432.8716065972222
 20
41.09393680555556
 30
0.0
  0
VERTEX
  5
955
  8
0
 62
     7
 10
432.8800974305958
 20
41.09697318512088
 30
0.0
  0
VERTEX
  5
956
  8
0
 62
     7
 10
432.88856055009
 20
41.10006713605967
 30
0.0
  0
VERTEX
  5
957
  8
0
 62
     7
 10
432.8969811035157
 20
41.10319171006945
 30
0.0
  0
VERTEX
  5
958
  8
0
 62
     7
 10
432.9053442386831
 20
41.10631995884773
 30
0.0
  0
VERTEX
  5
959
  8
0
 62
     7
 10
432.9136351034031
 20
41.10942493409207
 30
0.0
  0
VERTEX
  5
95A
  8
0
 62
     7
 10
432.921838845486
 20
41.1124796875
 30
0.0
  0
VERTEX
  5
95B
  8
0
 62
     7
 10
432.9299406127427
 20
41.11545727076902
 30
0.0
  0
VERTEX
  5
95C
  8
0
 62
     7
 10
432.9379255529835
 20
41.11833073559671
 30
0.0
  0
VERTEX
  5
95D
  8
0
 62
     7
 10
432.945778814019
 20
41.12107313368055
 30
0.0
  0
VERTEX
  5
95E
  8
0
 62
     7
 10
432.9534855436599
 20
41.12365751671811
 30
0.0
  0
VERTEX
  5
95F
  8
0
 62
     7
 10
432.9610308897168
 20
41.1260569364069
 30
0.0
  0
VERTEX
  5
960
  8
0
 62
     7
 10
432.9684
 20
41.12824444444444
 30
0.0
  0
SEQEND
  5
961
  8
0
 62
     7
  0
POLYLINE
  5
A7
  8
0
 62
     7
 66
     1
 10
0.0
 20
0.0
 30
0.0
  0
VERTEX
  5
962
  8
0
 62
     7
 10
432.9684
 20
41.12824444444444
 30
0.0
  0
VERTEX
  5
963
  8
0
 62
     7
 10
432.9847142113956
 20
41.13292056186502
 30
0.0
  0
VERTEX
  5
964
  8
0
 62
     7
 10
433.0010252073688
 20
41.13760020093878
 30
0.0
  0
VERTEX
  5
965
  8
0
 62
     7
 10
433.0173334472656
 20
41.14228320855035
 30
0.0
  0
VERTEX
  5
966
  8
0
 62
     7
 10
433.0336393904321
 20
41.14696943158435
 30
0.0
  0
VERTEX
  5
967
  8
0
 62
     7
 10
433.0499434962143
 20
41.15165871692547
 30
0.0
  0
VERTEX
  5
968
  8
0
 62
     7
 10
433.0662462239583
 20
41.15635091145833
 30
0.0
  0
VERTEX
  5
969
  8
0
 62
     7
 10
433.0825480330102
 20
41.16104586206758
 30
0.0
  0
VERTEX
  5
96A
  8
0
 62
     7
 10
433.0988493827161
 20
41.16574341563786
 30
0.0
  0
VERTEX
  5
96B
  8
0
 62
     7
 10
433.1151507324219
 20
41.17044341905381
 30
0.0
  0
VERTEX
  5
96C
  8
0
 62
     7
 10
433.1314525414737
 20
41.1751457192001
 30
0.0
  0
VERTEX
  5
96D
  8
0
 62
     7
 10
433.1477552692177
 20
41.17985016296135
 30
0.0
  0
VERTEX
  5
96E
  8
0
 62
     7
 10
433.164059375
 20
41.18455659722222
 30
0.0
  0
VERTEX
  5
96F
  8
0
 62
     7
 10
433.1803653181664
 20
41.18926486886734
 30
0.0
  0
VERTEX
  5
970
  8
0
 62
     7
 10
433.1966735580633
 20
41.19397482478138
 30
0.0
  0
VERTEX
  5
971
  8
0
 62
     7
 10
433.2129845540364
 20
41.19868631184895
 30
0.0
  0
VERTEX
  5
972
  8
0
 62
     7
 10
433.2292987654321
 20
41.20339917695473
 30
0.0
  0
VERTEX
  5
973
  8
0
 62
     7
 10
433.2456166515963
 20
41.20811326698334
 30
0.0
  0
VERTEX
  5
974
  8
0
 62
     7
 10
433.261938671875
 20
41.21282842881944
 30
0.0
  0
VERTEX
  5
975
  8
0
 62
     7
 10
433.2782652856143
 20
41.21754450934768
 30
0.0
  0
VERTEX
  5
976
  8
0
 62
     7
 10
433.2945969521605
 20
41.22226135545267
 30
0.0
  0
VERTEX
  5
977
  8
0
 62
     7
 10
433.3109341308593
 20
41.2269788140191
 30
0.0
  0
VERTEX
  5
978
  8
0
 62
     7
 10
433.327277281057
 20
41.23169673193158
 30
0.0
  0
VERTEX
  5
979
  8
0
 62
     7
 10
433.3436268620996
 20
41.23641495607478
 30
0.0
  0
VERTEX
  5
97A
  8
0
 62
     7
 10
433.3599833333333
 20
41.24113333333333
 30
0.0
  0
SEQEND
  5
97B
  8
0
 62
     7
  0
POLYLINE
  5
A8
  8
0
 62
     7
 66
     1
 10
0.0
 20
0.0
 30
0.0
  0
VERTEX
  5
97C
  8
0
 62
     7
 10
433.3599833333333
 20
41.24113333333333
 30
0.0
  0
VERTEX
  5
97D
  8
0
 62
     7
 10
433.3662349822369
 20
41.24282875413933
 30
0.0
  0
VERTEX
  5
97E
  8
0
 62
     7
 10
433.3746232028035
 20
41.24506145672583
 30
0.0
  0
VERTEX
  5
97F
  8
0
 62
     7
 10
433.3849437391493
 20
41.24778443467882
 30
0.0
  0
VERTEX
  5
980
  8
0
 62
     7
 10
433.3969923353908
 20
41.25095068158436
 30
0.0
  0
VERTEX
  5
981
  8
0
 62
     7
 10
433.4105647356449
 20
41.25451319102849
 30
0.0
  0
VERTEX
  5
982
  8
0
 62
     7
 10
433.4254566840277
 20
41.25842495659722
 30
0.0
  0
VERTEX
  5
983
  8
0
 62
     7
 10
433.441463924656
 20
41.2626389718766
 30
0.0
  0
VERTEX
  5
984
  8
0
 62
     7
 10
433.4583822016461
 20
41.26710823045268
 30
0.0
  0
VERTEX
  5
985
  8
0
 62
     7
 10
433.4760072591145
 20
41.27178572591145
 30
0.0
  0
VERTEX
  5
986
  8
0
 62
     7
 10
433.4941348411779
 20
41.27662445183898
 30
0.0
  0
VERTEX
  5
987
  8
0
 62
     7
 10
433.5125606919528
 20
41.28157740182131
 30
0.0
  0
VERTEX
  5
988
  8
0
 62
     7
 10
433.5310805555555
 20
41.28659756944445
 30
0.0
  0
VERTEX
  5
989
  8
0
 62
     7
 10
433.5494901761027
 20
41.29163794829444
 30
0.0
  0
VERTEX
  5
98A
  8
0
 62
     7
 10
433.5675852977109
 20
41.29665153195731
 30
0.0
  0
VERTEX
  5
98B
  8
0
 62
     7
 10
433.5851616644965
 20
41.30159131401909
 30
0.0
  0
VERTEX
  5
98C
  8
0
 62
     7
 10
433.6020150205761
 20
41.30641028806584
 30
0.0
  0
VERTEX
  5
98D
  8
0
 62
     7
 10
433.6179411100662
 20
41.31106144768357
 30
0.0
  0
VERTEX
  5
98E
  8
0
 62
     7
 10
433.6327356770833
 20
41.31549778645833
 30
0.0
  0
VERTEX
  5
98F
  8
0
 62
     7
 10
433.646194465744
 20
41.31967229797614
 30
0.0
  0
VERTEX
  5
990
  8
0
 62
     7
 10
433.6581132201646
 20
41.32353797582305
 30
0.0
  0
VERTEX
  5
991
  8
0
 62
     7
 10
433.6682876844617
 20
41.32704781358506
 30
0.0
  0
VERTEX
  5
992
  8
0
 62
     7
 10
433.676513602752
 20
41.33015480484825
 30
0.0
  0
VERTEX
  5
993
  8
0
 62
     7
 10
433.6825867191519
 20
41.33281194319862
 30
0.0
  0
VERTEX
  5
994
  8
0
 62
     7
 10
433.6863027777777
 20
41.33497222222222
 30
0.0
  0
SEQEND
  5
995
  8
0
 62
     7
  0
POLYLINE
  5
A9
  8
0
 62
     7
 66
     1
 10
0.0
 20
0.0
 30
0.0
  0
VERTEX
  5
996
  8
0
 62
     7
 10
433.6863027777777
 20
41.33497222222222
 30
0.0
  0
VERTEX
  5
997
  8
0
 62
     7
 10
433.6888744267216
 20
41.33754843910751
 30
0.0
  0
VERTEX
  5
998
  8
0
 62
     7
 10
433.6922209924768
 20
41.34191181841564
 30
0.0
  0
VERTEX
  5
999
  8
0
 62
     7
 10
433.6962721950954
 20
41.34790924479167
 30
0.0
  0
VERTEX
  5
99A
  8
0
 62
     7
 10
433.7009577546296
 20
41.35538760288067
 30
0.0
  0
VERTEX
  5
99B
  8
0
 62
     7
 10
433.7062073911313
 20
41.36419377732767
 30
0.0
  0
VERTEX
  5
99C
  8
0
 62
     7
 10
433.7119508246528
 20
41.37417465277777
 30
0.0
  0
VERTEX
  5
99D
  8
0
 62
     7
 10
433.7181177752459
 20
41.38517711387603
 30
0.0
  0
VERTEX
  5
99E
  8
0
 62
     7
 10
433.724637962963
 20
41.39704804526749
 30
0.0
  0
VERTEX
  5
99F
  8
0
 62
     7
 10
433.7314411078559
 20
41.40963433159722
 30
0.0
  0
VERTEX
  5
9A0
  8
0
 62
     7
 10
433.7384569299768
 20
41.42278285751028
 30
0.0
  0
VERTEX
  5
9A1
  8
0
 62
     7
 10
433.7456151493778
 20
41.43634050765175
 30
0.0
  0
VERTEX
  5
9A2
  8
0
 62
     7
 10
433.7528454861111
 20
41.45015416666666
 30
0.0
  0
VERTEX
  5
9A3
  8
0
 62
     7
 10
433.7600776602285
 20
41.4640707192001
 30
0.0
  0
VERTEX
  5
9A4
  8
0
 62
     7
 10
433.7672413917824
 20
41.47793704989712
 30
0.0
  0
VERTEX
  5
9A5
  8
0
 62
     7
 10
433.7742664008247
 20
41.49160004340278
 30
0.0
  0
VERTEX
  5
9A6
  8
0
 62
     7
 10
433.7810824074074
 20
41.50490658436213
 30
0.0
  0
VERTEX
  5
9A7
  8
0
 62
     7
 10
433.7876191315827
 20
41.51770355742026
 30
0.0
  0
VERTEX
  5
9A8
  8
0
 62
     7
 10
433.7938062934028
 20
41.52983784722222
 30
0.0
  0
VERTEX
  5
9A9
  8
0
 62
     7
 10
433.7995736129195
 20
41.54115633841307
 30
0.0
  0
VERTEX
  5
9AA
  8
0
 62
     7
 10
433.8048508101852
 20
41.55150591563785
 30
0.0
  0
VERTEX
  5
9AB
  8
0
 62
     7
 10
433.8095676052517
 20
41.56073346354167
 30
0.0
  0
VERTEX
  5
9AC
  8
0
 62
     7
 10
433.8136537181713
 20
41.56868586676955
 30
0.0
  0
VERTEX
  5
9AD
  8
0
 62
     7
 10
433.8170388689959
 20
41.57521000996655
 30
0.0
  0
VERTEX
  5
9AE
  8
0
 62
     7
 10
433.8196527777778
 20
41.58015277777778
 30
0.0
  0
SEQEND
  5
9AF
  8
0
 62
     7
  0
POLYLINE
  5
AA
  8
0
 62
     7
 66
     1
 10
0.0
 20
0.0
 30
0.0
  0
VERTEX
  5
9B0
  8
0
 62
     7
 10
433.8196527777778
 20
41.58015277777778
 30
0.0
  0
VERTEX
  5
9B1
  8
0
 62
     7
 10
433.8307917156957
 20
41.60052056508005
 30
0.0
  0
VERTEX
  5
9B2
  8
0
 62
     7
 10
433.8419790380659
 20
41.6208796248071
 30
0.0
  0
VERTEX
  5
9B3
  8
0
 62
     7
 10
433.8532080078125
 20
41.64123225368923
 30
0.0
  0
VERTEX
  5
9B4
  8
0
 62
     7
 10
433.86447188786
 20
41.66158074845679
 30
0.0
  0
VERTEX
  5
9B5
  8
0
 62
     7
 10
433.875763941133
 20
41.68192740584009
 30
0.0
  0
VERTEX
  5
9B6
  8
0
 62
     7
 10
433.8870774305556
 20
41.70227452256944
 30
0.0
  0
VERTEX
  5
9B7
  8
0
 62
     7
 10
433.8984056190521
 20
41.72262439537519
 30
0.0
  0
VERTEX
  5
9B8
  8
0
 62
     7
 10
433.9097417695473
 20
41.74297932098766
 30
0.0
  0
VERTEX
  5
9B9
  8
0
 62
     7
 10
433.9210791449652
 20
41.76334159613715
 30
0.0
  0
VERTEX
  5
9BA
  8
0
 62
     7
 10
433.9324110082305
 20
41.78371351755401
 30
0.0
  0
VERTEX
  5
9BB
  8
0
 62
     7
 10
433.9437306222673
 20
41.80409738196855
 30
0.0
  0
VERTEX
  5
9BC
  8
0
 62
     7
 10
433.9550312499999
 20
41.82449548611111
 30
0.0
  0
VERTEX
  5
9BD
  8
0
 62
     7
 10
433.9663061543531
 20
41.84491012671199
 30
0.0
  0
VERTEX
  5
9BE
  8
0
 62
     7
 10
433.977548598251
 20
41.86534360050154
 30
0.0
  0
VERTEX
  5
9BF
  8
0
 62
     7
 10
433.988751844618
 20
41.88579820421007
 30
0.0
  0
VERTEX
  5
9C0
  8
0
 62
     7
 10
433.9999091563786
 20
41.9062762345679
 30
0.0
  0
VERTEX
  5
9C1
  8
0
 62
     7
 10
434.0110137964571
 20
41.92677998830536
 30
0.0
  0
VERTEX
  5
9C2
  8
0
 62
     7
 10
434.0220590277777
 20
41.94731176215278
 30
0.0
  0
VERTEX
  5
9C3
  8
0
 62
     7
 10
434.0330381132651
 20
41.96787385284047
 30
0.0
  0
VERTEX
  5
9C4
  8
0
 62
     7
 10
434.0439443158436
 20
41.98846855709876
 30
0.0
  0
VERTEX
  5
9C5
  8
0
 62
     7
 10
434.0547708984374
 20
42.00909817165798
 30
0.0
  0
VERTEX
  5
9C6
  8
0
 62
     7
 10
434.0655111239711
 20
42.02976499324846
 30
0.0
  0
VERTEX
  5
9C7
  8
0
 62
     7
 10
434.076158255369
 20
42.0504713186005
 30
0.0
  0
VERTEX
  5
9C8
  8
0
 62
     7
 10
434.0867055555555
 20
42.07121944444444
 30
0.0
  0
SEQEND
  5
9C9
  8
0
 62
     7
  0
POLYLINE
  5
AB
  8
0
 62
     7
 66
     1
 10
0.0
 20
0.0
 30
0.0
  0
VERTEX
  5
9CA
  8
0
 62
     7
 10
434.0867055555555
 20
42.07121944444444
 30
0.0
  0
VERTEX
  5
9CB
  8
0
 62
     7
 10
434.0870836994438
 20
42.07200487517682
 30
0.0
  0
VERTEX
  5
9CC
  8
0
 62
     7
 10
434.0880917599023
 20
42.07393836484054
 30
0.0
  0
VERTEX
  5
9CD
  8
0
 62
     7
 10
434.0896724717882
 20
42.07691487630208
 30
0.0
  0
VERTEX
  5
9CE
  8
0
 62
     7
 10
434.0917685699588
 20
42.08082937242798
 30
0.0
  0
VERTEX
  5
9CF
  8
0
 62
     7
 10
434.0943227892714
 20
42.08557681608475
 30
0.0
  0
VERTEX
  5
9D0
  8
0
 62
     7
 10
434.0972778645834
 20
42.09105217013889
 30
0.0
  0
VERTEX
  5
9D1
  8
0
 62
     7
 10
434.1005765307517
 20
42.09715039745692
 30
0.0
  0
VERTEX
  5
9D2
  8
0
 62
     7
 10
434.1041615226338
 20
42.10376646090535
 30
0.0
  0
VERTEX
  5
9D3
  8
0
 62
     7
 10
434.1079755750868
 20
42.11079532335069
 30
0.0
  0
VERTEX
  5
9D4
  8
0
 62
     7
 10
434.1119614229681
 20
42.11813194765946
 30
0.0
  0
VERTEX
  5
9D5
  8
0
 62
     7
 10
434.1160618011349
 20
42.12567129669817
 30
0.0
  0
VERTEX
  5
9D6
  8
0
 62
     7
 10
434.1202194444444
 20
42.13330833333333
 30
0.0
  0
VERTEX
  5
9D7
  8
0
 62
     7
 10
434.1243770877539
 20
42.14093802043145
 30
0.0
  0
VERTEX
  5
9D8
  8
0
 62
     7
 10
434.1284774659208
 20
42.14845532085905
 30
0.0
  0
VERTEX
  5
9D9
  8
0
 62
     7
 10
434.1324633138021
 20
42.15575519748264
 30
0.0
  0
VERTEX
  5
9DA
  8
0
 62
     7
 10
434.1362773662551
 20
42.16273261316873
 30
0.0
  0
VERTEX
  5
9DB
  8
0
 62
     7
 10
434.1398623581372
 20
42.16928253078382
 30
0.0
  0
VERTEX
  5
9DC
  8
0
 62
     7
 10
434.1431610243055
 20
42.17529991319444
 30
0.0
  0
VERTEX
  5
9DD
  8
0
 62
     7
 10
434.1461160996174
 20
42.1806797232671
 30
0.0
  0
VERTEX
  5
9DE
  8
0
 62
     7
 10
434.14867031893
 20
42.18531692386831
 30
0.0
  0
VERTEX
  5
9DF
  8
0
 62
     7
 10
434.1507664171006
 20
42.18910647786458
 30
0.0
  0
VERTEX
  5
9E0
  8
0
 62
     7
 10
434.1523471289865
 20
42.19194334812241
 30
0.0
  0
VERTEX
  5
9E1
  8
0
 62
     7
 10
434.153355189445
 20
42.19372249750836
 30
0.0
  0
VERTEX
  5
9E2
  8
0
 62
     7
 10
434.1537333333333
 20
42.19433888888889
 30
0.0
  0
SEQEND
  5
9E3
  8
0
 62
     7
  0
POLYLINE
  5
AC
  8
0
 62
     7
 66
     1
 10
0.0
 20
0.0
 30
0.0
  0
VERTEX
  5
9E4
  8
0
 62
     7
 10
434.1537333333333
 20
42.19433888888889
 30
0.0
  0
VERTEX
  5
9E5
  8
0
 62
     7
 10
434.1557499391155
 20
42.19615391830632
 30
0.0
  0
VERTEX
  5
9E6
  8
0
 62
     7
 10
434.1573205198688
 20
42.19815084876542
 30
0.0
  0
VERTEX
  5
9E7
  8
0
 62
     7
 10
434.1584730957031
 20
42.20031681857638
 30
0.0
  0
VERTEX
  5
9E8
  8
0
 62
     7
 10
434.1592356867284
 20
42.20263896604938
 30
0.0
  0
VERTEX
  5
9E9
  8
0
 62
     7
 10
434.1596363130545
 20
42.20510442949459
 30
0.0
  0
VERTEX
  5
9EA
  8
0
 62
     7
 10
434.1597029947916
 20
42.20770034722221
 30
0.0
  0
VERTEX
  5
9EB
  8
0
 62
     7
 10
434.1594637520495
 20
42.21041385754243
 30
0.0
  0
VERTEX
  5
9EC
  8
0
 62
     7
 10
434.1589466049383
 20
42.21323209876543
 30
0.0
  0
VERTEX
  5
9ED
  8
0
 62
     7
 10
434.1581795735677
 20
42.21614220920138
 30
0.0
  0
VERTEX
  5
9EE
  8
0
 62
     7
 10
434.1571906780479
 20
42.21913132716049
 30
0.0
  0
VERTEX
  5
9EF
  8
0
 62
     7
 10
434.1560079384886
 20
42.22218659095293
 30
0.0
  0
VERTEX
  5
9F0
  8
0
 62
     7
 10
434.154659375
 20
42.22529513888888
 30
0.0
  0
VERTEX
  5
9F1
  8
0
 62
     7
 10
434.1531730076919
 20
42.22844410927855
 30
0.0
  0
VERTEX
  5
9F2
  8
0
 62
     7
 10
434.1515768566744
 20
42.2316206404321
 30
0.0
  0
VERTEX
  5
9F3
  8
0
 62
     7
 10
434.1498989420572
 20
42.23481187065972
 30
0.0
  0
VERTEX
  5
9F4
  8
0
 62
     7
 10
434.1481672839506
 20
42.2380049382716
 30
0.0
  0
VERTEX
  5
9F5
  8
0
 62
     7
 10
434.1464099024644
 20
42.24118698157793
 30
0.0
  0
VERTEX
  5
9F6
  8
0
 62
     7
 10
434.1446548177084
 20
42.24434513888888
 30
0.0
  0
VERTEX
  5
9F7
  8
0
 62
     7
 10
434.1429300497927
 20
42.24746654851465
 30
0.0
  0
VERTEX
  5
9F8
  8
0
 62
     7
 10
434.1412636188272
 20
42.25053834876542
 30
0.0
  0
VERTEX
  5
9F9
  8
0
 62
     7
 10
434.1396835449219
 20
42.25354767795138
 30
0.0
  0
VERTEX
  5
9FA
  8
0
 62
     7
 10
434.1382178481867
 20
42.25648167438271
 30
0.0
  0
VERTEX
  5
9FB
  8
0
 62
     7
 10
434.1368945487317
 20
42.25932747636958
 30
0.0
  0
VERTEX
  5
9FC
  8
0
 62
     7
 10
434.1357416666667
 20
42.26207222222222
 30
0.0
  0
SEQEND
  5
9FD
  8
0
 62
     7
  0
POLYLINE
  5
AD
  8
0
 62
     7
 66
     1
 10
0.0
 20
0.0
 30
0.0
  0
VERTEX
  5
9FE
  8
0
 62
     7
 10
434.1357416666667
 20
42.26207222222222
 30
0.0
  0
VERTEX
  5
9FF
  8
0
 62
     7
 10
434.1337140876173
 20
42.26755648248617
 30
0.0
  0
VERTEX
  5
A00
  8
0
 62
     7
 10
434.1317727125129
 20
42.27307182516717
 30
0.0
  0
VERTEX
  5
A01
  8
0
 62
     7
 10
434.1299118760851
 20
42.27861625976562
 30
0.0
  0
VERTEX
  5
A02
  8
0
 62
     7
 10
434.1281259130658
 20
42.2841877957819
 30
0.0
  0
VERTEX
  5
A03
  8
0
 62
     7
 10
434.126409158187
 20
42.28978444271637
 30
0.0
  0
VERTEX
  5
A04
  8
0
 62
     7
 10
434.1247559461805
 20
42.29540421006944
 30
0.0
  0
VERTEX
  5
A05
  8
0
 62
     7
 10
434.1231606117782
 20
42.3010451073415
 30
0.0
  0
VERTEX
  5
A06
  8
0
 62
     7
 10
434.1216174897119
 20
42.30670514403293
 30
0.0
  0
VERTEX
  5
A07
  8
0
 62
     7
 10
434.1201209147135
 20
42.31238232964409
 30
0.0
  0
VERTEX
  5
A08
  8
0
 62
     7
 10
434.1186652215148
 20
42.31807467367541
 30
0.0
  0
VERTEX
  5
A09
  8
0
 62
     7
 10
434.1172447448479
 20
42.32378018562724
 30
0.0
  0
VERTEX
  5
A0A
  8
0
 62
     7
 10
434.1158538194444
 20
42.329496875
 30
0.0
  0
VERTEX
  5
A0B
  8
0
 62
     7
 10
434.1144867800363
 20
42.33522275129404
 30
0.0
  0
VERTEX
  5
A0C
  8
0
 62
     7
 10
434.1131379613554
 20
42.34095582400978
 30
0.0
  0
VERTEX
  5
A0D
  8
0
 62
     7
 10
434.1118016981337
 20
42.34669410264757
 30
0.0
  0
VERTEX
  5
A0E
  8
0
 62
     7
 10
434.1104723251028
 20
42.35243559670781
 30
0.0
  0
VERTEX
  5
A0F
  8
0
 62
     7
 10
434.1091441769949
 20
42.35817831569091
 30
0.0
  0
VERTEX
  5
A10
  8
0
 62
     7
 10
434.1078115885417
 20
42.36392026909721
 30
0.0
  0
VERTEX
  5
A11
  8
0
 62
     7
 10
434.106468894475
 20
42.36965946642715
 30
0.0
  0
VERTEX
  5
A12
  8
0
 62
     7
 10
434.1051104295267
 20
42.37539391718106
 30
0.0
  0
VERTEX
  5
A13
  8
0
 62
     7
 10
434.1037305284289
 20
42.38112163085938
 30
0.0
  0
VERTEX
  5
A14
  8
0
 62
     7
 10
434.1023235259131
 20
42.38684061696244
 30
0.0
  0
VERTEX
  5
A15
  8
0
 62
     7
 10
434.1008837567114
 20
42.39254888499067
 30
0.0
  0
VERTEX
  5
A16
  8
0
 62
     7
 10
434.0994055555556
 20
42.39824444444444
 30
0.0
  0
SEQEND
  5
A17
  8
0
 62
     7
  0
POLYLINE
  5
AE
  8
0
 62
     7
 66
     1
 10
0.0
 20
0.0
 30
0.0
  0
VERTEX
  5
A18
  8
0
 62
     7
 10
434.0994055555556
 20
42.39824444444444
 30
0.0
  0
VERTEX
  5
A19
  8
0
 62
     7
 10
434.0935808688192
 20
42.42081714389627
 30
0.0
  0
VERTEX
  5
A1A
  8
0
 62
     7
 10
434.0878286056457
 20
42.44346226691101
 30
0.0
  0
VERTEX
  5
A1B
  8
0
 62
     7
 10
434.0821366699219
 20
42.46617139214409
 30
0.0
  0
VERTEX
  5
A1C
  8
0
 62
     7
 10
434.076492965535
 20
42.48893609825103
 30
0.0
  0
VERTEX
  5
A1D
  8
0
 62
     7
 10
434.0708853963719
 20
42.51174796388728
 30
0.0
  0
VERTEX
  5
A1E
  8
0
 62
     7
 10
434.0653018663194
 20
42.53459856770834
 30
0.0
  0
VERTEX
  5
A1F
  8
0
 62
     7
 10
434.0597302792647
 20
42.55747948836965
 30
0.0
  0
VERTEX
  5
A20
  8
0
 62
     7
 10
434.0541585390947
 20
42.58038230452675
 30
0.0
  0
VERTEX
  5
A21
  8
0
 62
     7
 10
434.0485745496961
 20
42.60329859483507
 30
0.0
  0
VERTEX
  5
A22
  8
0
 62
     7
 10
434.0429662149563
 20
42.6262199379501
 30
0.0
  0
VERTEX
  5
A23
  8
0
 62
     7
 10
434.0373214387619
 20
42.64913791252732
 30
0.0
  0
VERTEX
  5
A24
  8
0
 62
     7
 10
434.031628125
 20
42.67204409722222
 30
0.0
  0
VERTEX
  5
A25
  8
0
 62
     7
 10
434.0258741775575
 20
42.69493007069026
 30
0.0
  0
VERTEX
  5
A26
  8
0
 62
     7
 10
434.0200475003215
 20
42.71778741158693
 30
0.0
  0
VERTEX
  5
A27
  8
0
 62
     7
 10
434.0141359971788
 20
42.7406076985677
 30
0.0
  0
VERTEX
  5
A28
  8
0
 62
     7
 10
434.0081275720165
 20
42.76338251028807
 30
0.0
  0
VERTEX
  5
A29
  8
0
 62
     7
 10
434.0020101287214
 20
42.78610342540348
 30
0.0
  0
VERTEX
  5
A2A
  8
0
 62
     7
 10
433.9957715711805
 20
42.80876202256944
 30
0.0
  0
VERTEX
  5
A2B
  8
0
 62
     7
 10
433.9893998032809
 20
42.83134988044142
 30
0.0
  0
VERTEX
  5
A2C
  8
0
 62
     7
 10
433.9828827289094
 20
42.8538585776749
 30
0.0
  0
VERTEX
  5
A2D
  8
0
 62
     7
 10
433.976208251953
 20
42.87627969292534
 30
0.0
  0
VERTEX
  5
A2E
  8
0
 62
     7
 10
433.9693642762988
 20
42.89860480484825
 30
0.0
  0
VERTEX
  5
A2F
  8
0
 62
     7
 10
433.9623387058336
 20
42.92082549209908
 30
0.0
  0
VERTEX
  5
A30
  8
0
 62
     7
 10
433.9551194444444
 20
42.94293333333333
 30
0.0
  0
SEQEND
  5
A31
  8
0
 62
     7
  0
POLYLINE
  5
AF
  8
0
 62
     7
 66
     1
 10
0.0
 20
0.0
 30
0.0
  0
VERTEX
  5
A32
  8
0
 62
     7
 10
433.9551194444444
 20
42.94293333333333
 30
0.0
  0
VERTEX
  5
A33
  8
0
 62
     7
 10
433.9534814674158
 20
42.94822882788387
 30
0.0
  0
VERTEX
  5
A34
  8
0
 62
     7
 10
433.951746415252
 20
42.95452477816357
 30
0.0
  0
VERTEX
  5
A35
  8
0
 62
     7
 10
433.9499201063368
 20
42.96172288411457
 30
0.0
  0
VERTEX
  5
A36
  8
0
 62
     7
 10
433.9480083590534
 20
42.96972484567901
 30
0.0
  0
VERTEX
  5
A37
  8
0
 62
     7
 10
433.9460169917857
 20
42.97843236279899
 30
0.0
  0
VERTEX
  5
A38
  8
0
 62
     7
 10
433.9439518229166
 20
42.98774713541666
 30
0.0
  0
VERTEX
  5
A39
  8
0
 62
     7
 10
433.9418186708301
 20
42.99757086347415
 30
0.0
  0
VERTEX
  5
A3A
  8
0
 62
     7
 10
433.9396233539095
 20
43.00780524691358
 30
0.0
  0
VERTEX
  5
A3B
  8
0
 62
     7
 10
433.9373716905382
 20
43.01835198567708
 30
0.0
  0
VERTEX
  5
A3C
  8
0
 62
     7
 10
433.9350694990998
 20
43.02911277970678
 30
0.0
  0
VERTEX
  5
A3D
  8
0
 62
     7
 10
433.9327225979778
 20
43.03998932894483
 30
0.0
  0
VERTEX
  5
A3E
  8
0
 62
     7
 10
433.9303368055556
 20
43.05088333333333
 30
0.0
  0
VERTEX
  5
A3F
  8
0
 62
     7
 10
433.9279179402167
 20
43.06169649281443
 30
0.0
  0
VERTEX
  5
A40
  8
0
 62
     7
 10
433.9254718203446
 20
43.07233050733025
 30
0.0
  0
VERTEX
  5
A41
  8
0
 62
     7
 10
433.9230042643229
 20
43.08268707682291
 30
0.0
  0
VERTEX
  5
A42
  8
0
 62
     7
 10
433.920521090535
 20
43.09266790123456
 30
0.0
  0
VERTEX
  5
A43
  8
0
 62
     7
 10
433.9180281173643
 20
43.10217468050733
 30
0.0
  0
VERTEX
  5
A44
  8
0
 62
     7
 10
433.9155311631944
 20
43.11110911458333
 30
0.0
  0
VERTEX
  5
A45
  8
0
 62
     7
 10
433.9130360464088
 20
43.1193729034047
 30
0.0
  0
VERTEX
  5
A46
  8
0
 62
     7
 10
433.9105485853909
 20
43.12686774691358
 30
0.0
  0
VERTEX
  5
A47
  8
0
 62
     7
 10
433.9080745985243
 20
43.13349534505207
 30
0.0
  0
VERTEX
  5
A48
  8
0
 62
     7
 10
433.9056199041925
 20
43.13915739776235
 30
0.0
  0
VERTEX
  5
A49
  8
0
 62
     7
 10
433.9031903207787
 20
43.1437556049865
 30
0.0
  0
VERTEX
  5
A4A
  8
0
 62
     7
 10
433.9007916666667
 20
43.14719166666666
 30
0.0
  0
SEQEND
  5
A4B
  8
0
 62
     7
  0
POLYLINE
  5
B0
  8
0
 62
     7
 66
     1
 10
0.0
 20
0.0
 30
0.0
  0
VERTEX
  5
A4C
  8
0
 62
     7
 10
433.9007916666667
 20
43.14719166666666
 30
0.0
  0
VERTEX
  5
A4D
  8
0
 62
     7
 10
433.8968314145689
 20
43.15111152182998
 30
0.0
  0
VERTEX
  5
A4E
  8
0
 62
     7
 10
433.890886328125
 20
43.15593598251029
 30
0.0
  0
VERTEX
  5
A4F
  8
0
 62
     7
 10
433.8831286621094
 20
43.16158114149305
 30
0.0
  0
VERTEX
  5
A50
  8
0
 62
     7
 10
433.8737306712964
 20
43.16796309156378
 30
0.0
  0
VERTEX
  5
A51
  8
0
 62
     7
 10
433.86286461046
 20
43.17499792550797
 30
0.0
  0
VERTEX
  5
A52
  8
0
 62
     7
 10
433.850702734375
 20
43.18260173611111
 30
0.0
  0
VERTEX
  5
A53
  8
0
 62
     7
 10
433.8374172978154
 20
43.19069061615869
 30
0.0
  0
VERTEX
  5
A54
  8
0
 62
     7
 10
433.8231805555556
 20
43.19918065843621
 30
0.0
  0
VERTEX
  5
A55
  8
0
 62
     7
 10
433.8081647623698
 20
43.20798795572917
 30
0.0
  0
VERTEX
  5
A56
  8
0
 62
     7
 10
433.7925421730324
 20
43.21702860082304
 30
0.0
  0
VERTEX
  5
A57
  8
0
 62
     7
 10
433.7764850423177
 20
43.22621868650334
 30
0.0
  0
VERTEX
  5
A58
  8
0
 62
     7
 10
433.760165625
 20
43.23547430555556
 30
0.0
  0
VERTEX
  5
A59
  8
0
 62
     7
 10
433.7437561758536
 20
43.24471155076517
 30
0.0
  0
VERTEX
  5
A5A
  8
0
 62
     7
 10
433.7274289496528
 20
43.2538465149177
 30
0.0
  0
VERTEX
  5
A5B
  8
0
 62
     7
 10
433.7113562011718
 20
43.26279529079861
 30
0.0
  0
VERTEX
  5
A5C
  8
0
 62
     7
 10
433.6957101851852
 20
43.27147397119342
 30
0.0
  0
VERTEX
  5
A5D
  8
0
 62
     7
 10
433.680663156467
 20
43.27979864888761
 30
0.0
  0
VERTEX
  5
A5E
  8
0
 62
     7
 10
433.6663873697917
 20
43.28768541666666
 30
0.0
  0
VERTEX
  5
A5F
  8
0
 62
     7
 10
433.6530550799334
 20
43.29505036731609
 30
0.0
  0
VERTEX
  5
A60
  8
0
 62
     7
 10
433.6408385416667
 20
43.30180959362141
 30
0.0
  0
VERTEX
  5
A61
  8
0
 62
     7
 10
433.6299100097656
 20
43.30787918836805
 30
0.0
  0
VERTEX
  5
A62
  8
0
 62
     7
 10
433.6204417390045
 20
43.31317524434156
 30
0.0
  0
VERTEX
  5
A63
  8
0
 62
     7
 10
433.6126059841579
 20
43.31761385432743
 30
0.0
  0
VERTEX
  5
A64
  8
0
 62
     7
 10
433.606575
 20
43.32111111111111
 30
0.0
  0
SEQEND
  5
A65
  8
0
 62
     7
  0
POLYLINE
  5
B1
  8
0
 62
     7
 66
     1
 10
0.0
 20
0.0
 30
0.0
  0
VERTEX
  5
A66
  8
0
 62
     7
 10
433.606575
 20
43.32111111111111
 30
0.0
  0
VERTEX
  5
A67
  8
0
 62
     7
 10
433.5918060287664
 20
43.3298405747653
 30
0.0
  0
VERTEX
  5
A68
  8
0
 62
     7
 10
433.5770439477237
 20
43.33856666988169
 30
0.0
  0
VERTEX
  5
A69
  8
0
 62
     7
 10
433.562288297526
 20
43.34728970269096
 30
0.0
  0
VERTEX
  5
A6A
  8
0
 62
     7
 10
433.5475386188271
 20
43.35600997942387
 30
0.0
  0
VERTEX
  5
A6B
  8
0
 62
     7
 10
433.5327944522809
 20
43.36472780631108
 30
0.0
  0
VERTEX
  5
A6C
  8
0
 62
     7
 10
433.5180553385417
 20
43.37344348958334
 30
0.0
  0
VERTEX
  5
A6D
  8
0
 62
     7
 10
433.5033208182629
 20
43.38215733547132
 30
0.0
  0
VERTEX
  5
A6E
  8
0
 62
     7
 10
433.4885904320987
 20
43.39086965020576
 30
0.0
  0
VERTEX
  5
A6F
  8
0
 62
     7
 10
433.4738637207031
 20
43.39958074001736
 30
0.0
  0
VERTEX
  5
A70
  8
0
 62
     7
 10
433.4591402247299
 20
43.40829091113683
 30
0.0
  0
VERTEX
  5
A71
  8
0
 62
     7
 10
433.4444194848331
 20
43.41700046979489
 30
0.0
  0
VERTEX
  5
A72
  8
0
 62
     7
 10
433.4297010416666
 20
43.42570972222222
 30
0.0
  0
VERTEX
  5
A73
  8
0
 62
     7
 10
433.4149844358844
 20
43.43441897464956
 30
0.0
  0
VERTEX
  5
A74
  8
0
 62
     7
 10
433.4002692081404
 20
43.44312853330761
 30
0.0
  0
VERTEX
  5
A75
  8
0
 62
     7
 10
433.3855548990886
 20
43.45183870442708
 30
0.0
  0
VERTEX
  5
A76
  8
0
 62
     7
 10
433.3708410493828
 20
43.46054979423868
 30
0.0
  0
VERTEX
  5
A77
  8
0
 62
     7
 10
433.3561271996768
 20
43.46926210897313
 30
0.0
  0
VERTEX
  5
A78
  8
0
 62
     7
 10
433.341412890625
 20
43.47797595486111
 30
0.0
  0
VERTEX
  5
A79
  8
0
 62
     7
 10
433.3266976628809
 20
43.48669163813337
 30
0.0
  0
VERTEX
  5
A7A
  8
0
 62
     7
 10
433.3119810570987
 20
43.49540946502057
 30
0.0
  0
VERTEX
  5
A7B
  8
0
 62
     7
 10
433.2972626139322
 20
43.50412974175347
 30
0.0
  0
VERTEX
  5
A7C
  8
0
 62
     7
 10
433.2825418740355
 20
43.51285277456276
 30
0.0
  0
VERTEX
  5
A7D
  8
0
 62
     7
 10
433.2678183780623
 20
43.52157886967913
 30
0.0
  0
VERTEX
  5
A7E
  8
0
 62
     7
 10
433.2530916666666
 20
43.53030833333333
 30
0.0
  0
SEQEND
  5
A7F
  8
0
 62
     7
  0
POLYLINE
  5
B2
  8
0
 62
     7
 66
     1
 10
0.0
 20
0.0
 30
0.0
  0
VERTEX
  5
A80
  8
0
 62
     7
 10
433.2530916666666
 20
43.53030833333333
 30
0.0
  0
VERTEX
  5
A81
  8
0
 62
     7
 10
433.2465268458237
 20
43.53428131952482
 30
0.0
  0
VERTEX
  5
A82
  8
0
 62
     7
 10
433.2398049286265
 20
43.53850755851338
 30
0.0
  0
VERTEX
  5
A83
  8
0
 62
     7
 10
433.2329378580729
 20
43.54295734592013
 30
0.0
  0
VERTEX
  5
A84
  8
0
 62
     7
 10
433.2259375771605
 20
43.54760097736626
 30
0.0
  0
VERTEX
  5
A85
  8
0
 62
     7
 10
433.218816028887
 20
43.55240874847286
 30
0.0
  0
VERTEX
  5
A86
  8
0
 62
     7
 10
433.21158515625
 20
43.55735095486111
 30
0.0
  0
VERTEX
  5
A87
  8
0
 62
     7
 10
433.2042569022473
 20
43.56239789215213
 30
0.0
  0
VERTEX
  5
A88
  8
0
 62
     7
 10
433.1968432098765
 20
43.56751985596708
 30
0.0
  0
VERTEX
  5
A89
  8
0
 62
     7
 10
433.1893560221354
 20
43.57268714192708
 30
0.0
  0
VERTEX
  5
A8A
  8
0
 62
     7
 10
433.1818072820216
 20
43.57787004565328
 30
0.0
  0
VERTEX
  5
A8B
  8
0
 62
     7
 10
433.1742089325328
 20
43.58303886276684
 30
0.0
  0
VERTEX
  5
A8C
  8
0
 62
     7
 10
433.1665729166666
 20
43.58816388888889
 30
0.0
  0
VERTEX
  5
A8D
  8
0
 62
     7
 10
433.1589111774209
 20
43.59321541964056
 30
0.0
  0
VERTEX
  5
A8E
  8
0
 62
     7
 10
433.1512356577932
 20
43.59816375064301
 30
0.0
  0
VERTEX
  5
A8F
  8
0
 62
     7
 10
433.1435583007812
 20
43.60297917751735
 30
0.0
  0
VERTEX
  5
A90
  8
0
 62
     7
 10
433.1358910493827
 20
43.60763199588477
 30
0.0
  0
VERTEX
  5
A91
  8
0
 62
     7
 10
433.1282458465953
 20
43.61209250136638
 30
0.0
  0
VERTEX
  5
A92
  8
0
 62
     7
 10
433.1206346354167
 20
43.61633098958333
 30
0.0
  0
VERTEX
  5
A93
  8
0
 62
     7
 10
433.1130693588445
 20
43.62031775615676
 30
0.0
  0
VERTEX
  5
A94
  8
0
 62
     7
 10
433.1055619598765
 20
43.62402309670783
 30
0.0
  0
VERTEX
  5
A95
  8
0
 62
     7
 10
433.0981243815103
 20
43.62741730685764
 30
0.0
  0
VERTEX
  5
A96
  8
0
 62
     7
 10
433.0907685667439
 20
43.63047068222736
 30
0.0
  0
VERTEX
  5
A97
  8
0
 62
     7
 10
433.0835064585745
 20
43.63315351843815
 30
0.0
  0
VERTEX
  5
A98
  8
0
 62
     7
 10
433.07635
 20
43.63543611111111
 30
0.0
  0
SEQEND
  5
A99
  8
0
 62
     7
  0
POLYLINE
  5
B3
  8
0
 62
     7
 66
     1
 10
0.0
 20
0.0
 30
0.0
  0
VERTEX
  5
A9A
  8
0
 62
     7
 10
433.07635
 20
43.63543611111111
 30
0.0
  0
VERTEX
  5
A9B
  8
0
 62
     7
 10
433.0629528402697
 20
43.63915344569831
 30
0.0
  0
VERTEX
  5
A9C
  8
0
 62
     7
 10
433.0487388101209
 20
43.6426411072531
 30
0.0
  0
VERTEX
  5
A9D
  8
0
 62
     7
 10
433.0337803331163
 20
43.64591195746528
 30
0.0
  0
VERTEX
  5
A9E
  8
0
 62
     7
 10
433.0181498328189
 20
43.64897885802469
 30
0.0
  0
VERTEX
  5
A9F
  8
0
 62
     7
 10
433.0019197327916
 20
43.65185467062114
 30
0.0
  0
VERTEX
  5
AA0
  8
0
 62
     7
 10
432.9851624565972
 20
43.65455225694444
 30
0.0
  0
VERTEX
  5
AA1
  8
0
 62
     7
 10
432.9679504277987
 20
43.65708447868441
 30
0.0
  0
VERTEX
  5
AA2
  8
0
 62
     7
 10
432.9503560699588
 20
43.65946419753087
 30
0.0
  0
VERTEX
  5
AA3
  8
0
 62
     7
 10
432.9324518066405
 20
43.66170427517361
 30
0.0
  0
VERTEX
  5
AA4
  8
0
 62
     7
 10
432.9143100614069
 20
43.66381757330247
 30
0.0
  0
VERTEX
  5
AA5
  8
0
 62
     7
 10
432.8960032578206
 20
43.66581695360725
 30
0.0
  0
VERTEX
  5
AA6
  8
0
 62
     7
 10
432.8776038194444
 20
43.66771527777777
 30
0.0
  0
VERTEX
  5
AA7
  8
0
 62
     7
 10
432.8591841698415
 20
43.66952540750385
 30
0.0
  0
VERTEX
  5
AA8
  8
0
 62
     7
 10
432.8408167325745
 20
43.6712602044753
 30
0.0
  0
VERTEX
  5
AA9
  8
0
 62
     7
 10
432.8225739312066
 20
43.67293253038194
 30
0.0
  0
VERTEX
  5
AAA
  8
0
 62
     7
 10
432.8045281893005
 20
43.67455524691358
 30
0.0
  0
VERTEX
  5
AAB
  8
0
 62
     7
 10
432.7867519304189
 20
43.67614121576003
 30
0.0
  0
VERTEX
  5
AAC
  8
0
 62
     7
 10
432.769317578125
 20
43.67770329861111
 30
0.0
  0
VERTEX
  5
AAD
  8
0
 62
     7
 10
432.7522975559816
 20
43.67925435715663
 30
0.0
  0
VERTEX
  5
AAE
  8
0
 62
     7
 10
432.7357642875514
 20
43.68080725308641
 30
0.0
  0
VERTEX
  5
AAF
  8
0
 62
     7
 10
432.7197901963975
 20
43.68237484809027
 30
0.0
  0
VERTEX
  5
AB0
  8
0
 62
     7
 10
432.7044477060828
 20
43.68397000385801
 30
0.0
  0
VERTEX
  5
AB1
  8
0
 62
     7
 10
432.6898092401701
 20
43.68560558207948
 30
0.0
  0
VERTEX
  5
AB2
  8
0
 62
     7
 10
432.6759472222222
 20
43.68729444444444
 30
0.0
  0
SEQEND
  5
AB3
  8
0
 62
     7
  0
POLYLINE
  5
B4
  8
0
 62
     7
 66
     1
 10
0.0
 20
0.0
 30
0.0
  0
VERTEX
  5
AB4
  8
0
 62
     7
 10
432.6759472222222
 20
43.68729444444444
 30
0.0
  0
VERTEX
  5
AB5
  8
0
 62
     7
 10
432.6370111613458
 20
43.69236383865419
 30
0.0
  0
VERTEX
  5
AB6
  8
0
 62
     7
 10
432.5980784690071
 20
43.69742986432612
 30
0.0
  0
VERTEX
  5
AB7
  8
0
 62
     7
 10
432.5591488389757
 20
43.70249282769097
 30
0.0
  0
VERTEX
  5
AB8
  8
0
 62
     7
 10
432.5202219650206
 20
43.70755303497942
 30
0.0
  0
VERTEX
  5
AB9
  8
0
 62
     7
 10
432.4812975409112
 20
43.71261079242219
 30
0.0
  0
VERTEX
  5
ABA
  8
0
 62
     7
 10
432.4423752604166
 20
43.71766640625
 30
0.0
  0
VERTEX
  5
ABB
  8
0
 62
     7
 10
432.4034548173064
 20
43.72272018269354
 30
0.0
  0
VERTEX
  5
ABC
  8
0
 62
     7
 10
432.3645359053498
 20
43.72777242798353
 30
0.0
  0
VERTEX
  5
ABD
  8
0
 62
     7
 10
432.325618218316
 20
43.73282344835069
 30
0.0
  0
VERTEX
  5
ABE
  8
0
 62
     7
 10
432.2867014499743
 20
43.73787355002571
 30
0.0
  0
VERTEX
  5
ABF
  8
0
 62
     7
 10
432.2477852940939
 20
43.74292303923932
 30
0.0
  0
VERTEX
  5
AC0
  8
0
 62
     7
 10
432.2088694444444
 20
43.74797222222222
 30
0.0
  0
VERTEX
  5
AC1
  8
0
 62
     7
 10
432.1699535947948
 20
43.75302140520512
 30
0.0
  0
VERTEX
  5
AC2
  8
0
 62
     7
 10
432.1310374389146
 20
43.75807089441872
 30
0.0
  0
VERTEX
  5
AC3
  8
0
 62
     7
 10
432.0921206705729
 20
43.76312099609375
 30
0.0
  0
VERTEX
  5
AC4
  8
0
 62
     7
 10
432.0532029835391
 20
43.7681720164609
 30
0.0
  0
VERTEX
  5
AC5
  8
0
 62
     7
 10
432.0142840715824
 20
43.7732242617509
 30
0.0
  0
VERTEX
  5
AC6
  8
0
 62
     7
 10
431.9753636284722
 20
43.77827803819444
 30
0.0
  0
VERTEX
  5
AC7
  8
0
 62
     7
 10
431.9364413479777
 20
43.78333365202224
 30
0.0
  0
VERTEX
  5
AC8
  8
0
 62
     7
 10
431.8975169238682
 20
43.78839140946502
 30
0.0
  0
VERTEX
  5
AC9
  8
0
 62
     7
 10
431.8585900499132
 20
43.79345161675347
 30
0.0
  0
VERTEX
  5
ACA
  8
0
 62
     7
 10
431.8196604198817
 20
43.79851458011831
 30
0.0
  0
VERTEX
  5
ACB
  8
0
 62
     7
 10
431.780727727543
 20
43.80358060579026
 30
0.0
  0
VERTEX
  5
ACC
  8
0
 62
     7
 10
431.7417916666666
 20
43.80865
 30
0.0
  0
SEQEND
  5
ACD
  8
0
 62
     7
  0
POLYLINE
  5
B5
  8
0
 62
     7
 66
     1
 10
0.0
 20
0.0
 30
0.0
  0
VERTEX
  5
ACE
  8
0
 62
     7
 10
431.7417916666666
 20
43.80865
 30
0.0
  0
VERTEX
  5
ACF
  8
0
 62
     7
 10
431.3051022340374
 20
43.86535180583687
 30
0.0
  0
VERTEX
  5
AD0
  8
0
 62
     7
 10
430.8684229070216
 20
43.92203967817644
 30
0.0
  0
VERTEX
  5
AD1
  8
0
 62
     7
 10
430.431752766927
 20
43.97871438259548
 30
0.0
  0
VERTEX
  5
AD2
  8
0
 62
     7
 10
429.9950908950617
 20
44.03537668467078
 30
0.0
  0
VERTEX
  5
AD3
  8
0
 62
     7
 10
429.5584363727334
 20
44.09202734997911
 30
0.0
  0
VERTEX
  5
AD4
  8
0
 62
     7
 10
429.1217882812499
 20
44.14866714409722
 30
0.0
  0
VERTEX
  5
AD5
  8
0
 62
     7
 10
428.6851457019193
 20
44.20529683260191
 30
0.0
  0
VERTEX
  5
AD6
  8
0
 62
     7
 10
428.2485077160493
 20
44.26191718106995
 30
0.0
  0
VERTEX
  5
AD7
  8
0
 62
     7
 10
427.8118734049478
 20
44.31852895507812
 30
0.0
  0
VERTEX
  5
AD8
  8
0
 62
     7
 10
427.3752418499228
 20
44.37513292020319
 30
0.0
  0
VERTEX
  5
AD9
  8
0
 62
     7
 10
426.938612132282
 20
44.43172984202192
 30
0.0
  0
VERTEX
  5
ADA
  8
0
 62
     7
 10
426.5019833333333
 20
44.48832048611111
 30
0.0
  0
VERTEX
  5
ADB
  8
0
 62
     7
 10
426.0653545343846
 20
44.54490561804752
 30
0.0
  0
VERTEX
  5
ADC
  8
0
 62
     7
 10
425.6287248167438
 20
44.60148600340791
 30
0.0
  0
VERTEX
  5
ADD
  8
0
 62
     7
 10
425.1920932617187
 20
44.65806240776909
 30
0.0
  0
VERTEX
  5
ADE
  8
0
 62
     7
 10
424.7554589506173
 20
44.71463559670782
 30
0.0
  0
VERTEX
  5
ADF
  8
0
 62
     7
 10
424.3188209647473
 20
44.77120633580085
 30
0.0
  0
VERTEX
  5
AE0
  8
0
 62
     7
 10
423.8821783854166
 20
44.827775390625
 30
0.0
  0
VERTEX
  5
AE1
  8
0
 62
     7
 10
423.4455302939332
 20
44.88434352675701
 30
0.0
  0
VERTEX
  5
AE2
  8
0
 62
     7
 10
423.0088757716048
 20
44.94091150977366
 30
0.0
  0
VERTEX
  5
AE3
  8
0
 62
     7
 10
422.5722138997396
 20
44.99748010525174
 30
0.0
  0
VERTEX
  5
AE4
  8
0
 62
     7
 10
422.1355437596451
 20
45.05405007876801
 30
0.0
  0
VERTEX
  5
AE5
  8
0
 62
     7
 10
421.6988644326292
 20
45.11062219589923
 30
0.0
  0
VERTEX
  5
AE6
  8
0
 62
     7
 10
421.262175
 20
45.16719722222222
 30
0.0
  0
SEQEND
  5
AE7
  8
0
 62
     7
  0
POLYLINE
  5
B6
  8
0
 62
     7
 66
     1
 10
0.0
 20
0.0
 30
0.0
  0
VERTEX
  5
AE8
  8
0
 62
     7
 10
421.262175
 20
45.16719722222222
 30
0.0
  0
VERTEX
  5
AE9
  8
0
 62
     7
 10
420.4612335545668
 20
45.27097049053175
 30
0.0
  0
VERTEX
  5
AEA
  8
0
 62
     7
 10
419.6602852189428
 20
45.37476733860597
 30
0.0
  0
VERTEX
  5
AEB
  8
0
 62
     7
 10
418.859330452474
 20
45.47858562282986
 30
0.0
  0
VERTEX
  5
AEC
  8
0
 62
     7
 10
418.0583697145062
 20
45.58242319958848
 30
0.0
  0
VERTEX
  5
AED
  8
0
 62
     7
 10
417.2574034643856
 20
45.68627792526685
 30
0.0
  0
VERTEX
  5
AEE
  8
0
 62
     7
 10
416.4564321614583
 20
45.79014765625
 30
0.0
  0
VERTEX
  5
AEF
  8
0
 62
     7
 10
415.6554562650704
 20
45.89403024892297
 30
0.0
  0
VERTEX
  5
AF0
  8
0
 62
     7
 10
414.8544762345679
 20
45.99792355967078
 30
0.0
  0
VERTEX
  5
AF1
  8
0
 62
     7
 10
414.0534925292968
 20
46.10182544487847
 30
0.0
  0
VERTEX
  5
AF2
  8
0
 62
     7
 10
413.2525056086033
 20
46.20573376093107
 30
0.0
  0
VERTEX
  5
AF3
  8
0
 62
     7
 10
412.4515159318335
 20
46.30964636421361
 30
0.0
  0
VERTEX
  5
AF4
  8
0
 62
     7
 10
411.6505239583332
 20
46.41356111111111
 30
0.0
  0
VERTEX
  5
AF5
  8
0
 62
     7
 10
410.8495301474488
 20
46.51747585800862
 30
0.0
  0
VERTEX
  5
AF6
  8
0
 62
     7
 10
410.0485349585263
 20
46.62138846129115
 30
0.0
  0
VERTEX
  5
AF7
  8
0
 62
     7
 10
409.2475388509114
 20
46.72529677734374
 30
0.0
  0
VERTEX
  5
AF8
  8
0
 62
     7
 10
408.4465422839506
 20
46.82919866255143
 30
0.0
  0
VERTEX
  5
AF9
  8
0
 62
     7
 10
407.6455457169897
 20
46.93309197329924
 30
0.0
  0
VERTEX
  5
AFA
  8
0
 62
     7
 10
406.844549609375
 20
47.03697456597222
 30
0.0
  0
VERTEX
  5
AFB
  8
0
 62
     7
 10
406.0435544204523
 20
47.14084429695537
 30
0.0
  0
VERTEX
  5
AFC
  8
0
 62
     7
 10
405.2425606095679
 20
47.24469902263375
 30
0.0
  0
VERTEX
  5
AFD
  8
0
 62
     7
 10
404.4415686360676
 20
47.34853659939236
 30
0.0
  0
VERTEX
  5
AFE
  8
0
 62
     7
 10
403.6405789592978
 20
47.45235488361625
 30
0.0
  0
VERTEX
  5
AFF
  8
0
 62
     7
 10
402.8395920386043
 20
47.55615173169045
 30
0.0
  0
VERTEX
  5
B00
  8
0
 62
     7
 10
402.0386083333333
 20
47.65992499999999
 30
0.0
  0
SEQEND
  5
B01
  8
0
 62
     7
  0
POLYLINE
  5
B7
  8
0
 62
     7
 66
     1
 10
0.0
 20
0.0
 30
0.0
  0
VERTEX
  5
B02
  8
0
 62
     7
 10
402.0386083333333
 20
47.65992499999999
 30
0.0
  0
VERTEX
  5
B03
  8
0
 62
     7
 10
401.8633695449138
 20
47.68263506944444
 30
0.0
  0
VERTEX
  5
B04
  8
0
 62
     7
 10
401.6881374935699
 20
47.7053451388889
 30
0.0
  0
VERTEX
  5
B05
  8
0
 62
     7
 10
401.5129115668403
 20
47.72805520833333
 30
0.0
  0
VERTEX
  5
B06
  8
0
 62
     7
 10
401.3376911522633
 20
47.75076527777777
 30
0.0
  0
VERTEX
  5
B07
  8
0
 62
     7
 10
401.1624756373778
 20
47.77347534722222
 30
0.0
  0
VERTEX
  5
B08
  8
0
 62
     7
 10
400.9872644097222
 20
47.79618541666667
 30
0.0
  0
VERTEX
  5
B09
  8
0
 62
     7
 10
400.8120568568351
 20
47.8188954861111
 30
0.0
  0
VERTEX
  5
B0A
  8
0
 62
     7
 10
400.6368523662551
 20
47.84160555555555
 30
0.0
  0
VERTEX
  5
B0B
  8
0
 62
     7
 10
400.4616503255208
 20
47.864315625
 30
0.0
  0
VERTEX
  5
B0C
  8
0
 62
     7
 10
400.2864501221708
 20
47.88702569444443
 30
0.0
  0
VERTEX
  5
B0D
  8
0
 62
     7
 10
400.1112511437435
 20
47.90973576388889
 30
0.0
  0
VERTEX
  5
B0E
  8
0
 62
     7
 10
399.9360527777777
 20
47.93244583333333
 30
0.0
  0
VERTEX
  5
B0F
  8
0
 62
     7
 10
399.760854411812
 20
47.95515590277778
 30
0.0
  0
VERTEX
  5
B10
  8
0
 62
     7
 10
399.5856554333848
 20
47.97786597222222
 30
0.0
  0
VERTEX
  5
B11
  8
0
 62
     7
 10
399.4104552300347
 20
48.00057604166666
 30
0.0
  0
VERTEX
  5
B12
  8
0
 62
     7
 10
399.2352531893005
 20
48.0232861111111
 30
0.0
  0
VERTEX
  5
B13
  8
0
 62
     7
 10
399.0600486987204
 20
48.04599618055556
 30
0.0
  0
VERTEX
  5
B14
  8
0
 62
     7
 10
398.8848411458333
 20
48.06870624999999
 30
0.0
  0
VERTEX
  5
B15
  8
0
 62
     7
 10
398.7096299181777
 20
48.09141631944444
 30
0.0
  0
VERTEX
  5
B16
  8
0
 62
     7
 10
398.5344144032921
 20
48.11412638888889
 30
0.0
  0
VERTEX
  5
B17
  8
0
 62
     7
 10
398.3591939887152
 20
48.13683645833333
 30
0.0
  0
VERTEX
  5
B18
  8
0
 62
     7
 10
398.1839680619856
 20
48.15954652777778
 30
0.0
  0
VERTEX
  5
B19
  8
0
 62
     7
 10
398.0087360106417
 20
48.18225659722221
 30
0.0
  0
VERTEX
  5
B1A
  8
0
 62
     7
 10
397.8334972222222
 20
48.20496666666666
 30
0.0
  0
SEQEND
  5
B1B
  8
0
 62
     7
  0
POLYLINE
  5
B8
  8
0
 62
     7
 66
     1
 10
0.0
 20
0.0
 30
0.0
  0
VERTEX
  5
B1C
  8
0
 62
     7
 10
397.8334972222222
 20
48.20496666666666
 30
0.0
  0
VERTEX
  5
B1D
  8
0
 62
     7
 10
397.8057141603572
 20
48.20858085254308
 30
0.0
  0
VERTEX
  5
B1E
  8
0
 62
     7
 10
397.777927576839
 20
48.21219166988169
 30
0.0
  0
VERTEX
  5
B1F
  8
0
 62
     7
 10
397.750137624783
 20
48.21579942491319
 30
0.0
  0
VERTEX
  5
B20
  8
0
 62
     7
 10
397.7223444573045
 20
48.21940442386831
 30
0.0
  0
VERTEX
  5
B21
  8
0
 62
     7
 10
397.694548227519
 20
48.22300697297775
 30
0.0
  0
VERTEX
  5
B22
  8
0
 62
     7
 10
397.6667490885416
 20
48.22660737847222
 30
0.0
  0
VERTEX
  5
B23
  8
0
 62
     7
 10
397.6389471934879
 20
48.23020594658244
 30
0.0
  0
VERTEX
  5
B24
  8
0
 62
     7
 10
397.6111426954732
 20
48.23380298353909
 30
0.0
  0
VERTEX
  5
B25
  8
0
 62
     7
 10
397.5833357476129
 20
48.23739879557292
 30
0.0
  0
VERTEX
  5
B26
  8
0
 62
     7
 10
397.5555265030221
 20
48.2409936889146
 30
0.0
  0
VERTEX
  5
B27
  8
0
 62
     7
 10
397.5277151148164
 20
48.24458796979488
 30
0.0
  0
VERTEX
  5
B28
  8
0
 62
     7
 10
397.499901736111
 20
48.24818194444444
 30
0.0
  0
VERTEX
  5
B29
  8
0
 62
     7
 10
397.4720865200215
 20
48.25177591909401
 30
0.0
  0
VERTEX
  5
B2A
  8
0
 62
     7
 10
397.444269619663
 20
48.25537019997427
 30
0.0
  0
VERTEX
  5
B2B
  8
0
 62
     7
 10
397.416451188151
 20
48.25896509331597
 30
0.0
  0
VERTEX
  5
B2C
  8
0
 62
     7
 10
397.3886313786008
 20
48.26256090534979
 30
0.0
  0
VERTEX
  5
B2D
  8
0
 62
     7
 10
397.3608103441277
 20
48.26615794230645
 30
0.0
  0
VERTEX
  5
B2E
  8
0
 62
     7
 10
397.3329882378472
 20
48.26975651041666
 30
0.0
  0
VERTEX
  5
B2F
  8
0
 62
     7
 10
397.3051652128746
 20
48.27335691591114
 30
0.0
  0
VERTEX
  5
B30
  8
0
 62
     7
 10
397.2773414223251
 20
48.27695946502057
 30
0.0
  0
VERTEX
  5
B31
  8
0
 62
     7
 10
397.2495170193142
 20
48.28056446397568
 30
0.0
  0
VERTEX
  5
B32
  8
0
 62
     7
 10
397.2216921569573
 20
48.2841722190072
 30
0.0
  0
VERTEX
  5
B33
  8
0
 62
     7
 10
397.1938669883697
 20
48.28778303634579
 30
0.0
  0
VERTEX
  5
B34
  8
0
 62
     7
 10
397.1660416666667
 20
48.29139722222222
 30
0.0
  0
SEQEND
  5
B35
  8
0
 62
     7
  0
POLYLINE
  5
B9
  8
0
 62
     7
 66
     1
 10
0.0
 20
0.0
 30
0.0
  0
VERTEX
  5
B36
  8
0
 62
     7
 10
397.1660416666667
 20
48.29139722222222
 30
0.0
  0
VERTEX
  5
B37
  8
0
 62
     7
 10
397.1553130013423
 20
48.29288412543402
 30
0.0
  0
VERTEX
  5
B38
  8
0
 62
     7
 10
397.1444766959234
 20
48.2945097511574
 30
0.0
  0
VERTEX
  5
B39
  8
0
 62
     7
 10
397.133542702908
 20
48.29625480685763
 30
0.0
  0
VERTEX
  5
B3A
  8
0
 62
     7
 10
397.1225209747942
 20
48.29809999999999
 30
0.0
  0
VERTEX
  5
B3B
  8
0
 62
     7
 10
397.1114214640802
 20
48.30002603804977
 30
0.0
  0
VERTEX
  5
B3C
  8
0
 62
     7
 10
397.1002541232639
 20
48.30201362847222
 30
0.0
  0
VERTEX
  5
B3D
  8
0
 62
     7
 10
397.0890289048434
 20
48.30404347873263
 30
0.0
  0
VERTEX
  5
B3E
  8
0
 62
     7
 10
397.0777557613169
 20
48.3060962962963
 30
0.0
  0
VERTEX
  5
B3F
  8
0
 62
     7
 10
397.0664446451823
 20
48.30815278862846
 30
0.0
  0
VERTEX
  5
B40
  8
0
 62
     7
 10
397.0551055089377
 20
48.31019366319444
 30
0.0
  0
VERTEX
  5
B41
  8
0
 62
     7
 10
397.0437483050814
 20
48.31219962745948
 30
0.0
  0
VERTEX
  5
B42
  8
0
 62
     7
 10
397.0323829861111
 20
48.31415138888889
 30
0.0
  0
VERTEX
  5
B43
  8
0
 62
     7
 10
397.0210195045251
 20
48.31602965494791
 30
0.0
  0
VERTEX
  5
B44
  8
0
 62
     7
 10
397.0096678128215
 20
48.31781513310185
 30
0.0
  0
VERTEX
  5
B45
  8
0
 62
     7
 10
396.9983378634983
 20
48.31948853081597
 30
0.0
  0
VERTEX
  5
B46
  8
0
 62
     7
 10
396.9870396090535
 20
48.32103055555555
 30
0.0
  0
VERTEX
  5
B47
  8
0
 62
     7
 10
396.9757830019853
 20
48.32242191478588
 30
0.0
  0
VERTEX
  5
B48
  8
0
 62
     7
 10
396.9645779947916
 20
48.32364331597222
 30
0.0
  0
VERTEX
  5
B49
  8
0
 62
     7
 10
396.9534345399707
 20
48.32467546657985
 30
0.0
  0
VERTEX
  5
B4A
  8
0
 62
     7
 10
396.9423625900206
 20
48.32549907407407
 30
0.0
  0
VERTEX
  5
B4B
  8
0
 62
     7
 10
396.9313720974392
 20
48.32609484592013
 30
0.0
  0
VERTEX
  5
B4C
  8
0
 62
     7
 10
396.9204730147247
 20
48.32644348958333
 30
0.0
  0
VERTEX
  5
B4D
  8
0
 62
     7
 10
396.9096752943753
 20
48.32652571252893
 30
0.0
  0
VERTEX
  5
B4E
  8
0
 62
     7
 10
396.8989888888889
 20
48.32632222222222
 30
0.0
  0
SEQEND
  5
B4F
  8
0
 62
     7
  0
POLYLINE
  5
BA
  8
0
 62
     7
 66
     1
 10
0.0
 20
0.0
 30
0.0
  0
VERTEX
  5
B50
  8
0
 62
     7
 10
396.8989888888889
 20
48.32632222222222
 30
0.0
  0
VERTEX
  5
B51
  8
0
 62
     7
 10
396.8913239597399
 20
48.32591667068544
 30
0.0
  0
VERTEX
  5
B52
  8
0
 62
     7
 10
396.8835085181969
 20
48.32515772890945
 30
0.0
  0
VERTEX
  5
B53
  8
0
 62
     7
 10
396.8755574164496
 20
48.3240705078125
 30
0.0
  0
VERTEX
  5
B54
  8
0
 62
     7
 10
396.8674855066873
 20
48.32268011831276
 30
0.0
  0
VERTEX
  5
B55
  8
0
 62
     7
 10
396.8593076410991
 20
48.32101167132844
 30
0.0
  0
VERTEX
  5
B56
  8
0
 62
     7
 10
396.8510386718749
 20
48.31909027777778
 30
0.0
  0
VERTEX
  5
B57
  8
0
 62
     7
 10
396.842693451204
 20
48.31694104857896
 30
0.0
  0
VERTEX
  5
B58
  8
0
 62
     7
 10
396.8342868312757
 20
48.3145890946502
 30
0.0
  0
VERTEX
  5
B59
  8
0
 62
     7
 10
396.8258336642795
 20
48.31205952690972
 30
0.0
  0
VERTEX
  5
B5A
  8
0
 62
     7
 10
396.8173488024048
 20
48.30937745627573
 30
0.0
  0
VERTEX
  5
B5B
  8
0
 62
     7
 10
396.8088470978411
 20
48.30656799366641
 30
0.0
  0
VERTEX
  5
B5C
  8
0
 62
     7
 10
396.8003434027778
 20
48.30365625
 30
0.0
  0
VERTEX
  5
B5D
  8
0
 62
     7
 10
396.7918525694042
 20
48.3006673361947
 30
0.0
  0
VERTEX
  5
B5E
  8
0
 62
     7
 10
396.7833894499099
 20
48.29762636316872
 30
0.0
  0
VERTEX
  5
B5F
  8
0
 62
     7
 10
396.7749688964843
 20
48.29455844184028
 30
0.0
  0
VERTEX
  5
B60
  8
0
 62
     7
 10
396.7666057613169
 20
48.29148868312757
 30
0.0
  0
VERTEX
  5
B61
  8
0
 62
     7
 10
396.7583148965969
 20
48.28844219794883
 30
0.0
  0
VERTEX
  5
B62
  8
0
 62
     7
 10
396.7501111545138
 20
48.28544409722222
 30
0.0
  0
VERTEX
  5
B63
  8
0
 62
     7
 10
396.7420093872573
 20
48.28251949186599
 30
0.0
  0
VERTEX
  5
B64
  8
0
 62
     7
 10
396.7340244470164
 20
48.27969349279835
 30
0.0
  0
VERTEX
  5
B65
  8
0
 62
     7
 10
396.7261711859809
 20
48.2769912109375
 30
0.0
  0
VERTEX
  5
B66
  8
0
 62
     7
 10
396.7184644563399
 20
48.27443775720164
 30
0.0
  0
VERTEX
  5
B67
  8
0
 62
     7
 10
396.7109191102832
 20
48.272058242509
 30
0.0
  0
VERTEX
  5
B68
  8
0
 62
     7
 10
396.70355
 20
48.26987777777777
 30
0.0
  0
SEQEND
  5
B69
  8
0
 62
     7
  0
POLYLINE
  5
BB
  8
0
 62
     7
 66
     1
 10
0.0
 20
0.0
 30
0.0
  0
VERTEX
  5
B6A
  8
0
 62
     7
 10
396.70355
 20
48.26987777777777
 30
0.0
  0
VERTEX
  5
B6B
  8
0
 62
     7
 10
396.6872357886043
 20
48.26520166035719
 30
0.0
  0
VERTEX
  5
B6C
  8
0
 62
     7
 10
396.6709247926311
 20
48.26052202128343
 30
0.0
  0
VERTEX
  5
B6D
  8
0
 62
     7
 10
396.6546165527343
 20
48.25583901367187
 30
0.0
  0
VERTEX
  5
B6E
  8
0
 62
     7
 10
396.6383106095678
 20
48.25115279063786
 30
0.0
  0
VERTEX
  5
B6F
  8
0
 62
     7
 10
396.6220065037857
 20
48.24646350529674
 30
0.0
  0
VERTEX
  5
B70
  8
0
 62
     7
 10
396.6057037760417
 20
48.24177131076388
 30
0.0
  0
VERTEX
  5
B71
  8
0
 62
     7
 10
396.5894019669898
 20
48.23707636015463
 30
0.0
  0
VERTEX
  5
B72
  8
0
 62
     7
 10
396.573100617284
 20
48.23237880658436
 30
0.0
  0
VERTEX
  5
B73
  8
0
 62
     7
 10
396.5567992675781
 20
48.2276788031684
 30
0.0
  0
VERTEX
  5
B74
  8
0
 62
     7
 10
396.5404974585261
 20
48.22297650302212
 30
0.0
  0
VERTEX
  5
B75
  8
0
 62
     7
 10
396.5241947307821
 20
48.21827205926086
 30
0.0
  0
VERTEX
  5
B76
  8
0
 62
     7
 10
396.507890625
 20
48.21356562499999
 30
0.0
  0
VERTEX
  5
B77
  8
0
 62
     7
 10
396.4915846818335
 20
48.20885735335487
 30
0.0
  0
VERTEX
  5
B78
  8
0
 62
     7
 10
396.4752764419367
 20
48.20414739744083
 30
0.0
  0
VERTEX
  5
B79
  8
0
 62
     7
 10
396.4589654459635
 20
48.19943591037326
 30
0.0
  0
VERTEX
  5
B7A
  8
0
 62
     7
 10
396.442651234568
 20
48.19472304526749
 30
0.0
  0
VERTEX
  5
B7B
  8
0
 62
     7
 10
396.4263333484037
 20
48.19000895523887
 30
0.0
  0
VERTEX
  5
B7C
  8
0
 62
     7
 10
396.4100113281249
 20
48.18529379340276
 30
0.0
  0
VERTEX
  5
B7D
  8
0
 62
     7
 10
396.3936847143856
 20
48.18057771287455
 30
0.0
  0
VERTEX
  5
B7E
  8
0
 62
     7
 10
396.3773530478394
 20
48.17586086676955
 30
0.0
  0
VERTEX
  5
B7F
  8
0
 62
     7
 10
396.3610158691407
 20
48.17114340820311
 30
0.0
  0
VERTEX
  5
B80
  8
0
 62
     7
 10
396.3446727189429
 20
48.16642549029064
 30
0.0
  0
VERTEX
  5
B81
  8
0
 62
     7
 10
396.3283231379002
 20
48.16170726614743
 30
0.0
  0
VERTEX
  5
B82
  8
0
 62
     7
 10
396.3119666666666
 20
48.15698888888888
 30
0.0
  0
SEQEND
  5
B83
  8
0
 62
     7
  0
POLYLINE
  5
BC
  8
0
 62
     7
 66
     1
 10
0.0
 20
0.0
 30
0.0
  0
VERTEX
  5
B84
  8
0
 62
     7
 10
396.3119666666666
 20
48.15698888888888
 30
0.0
  0
VERTEX
  5
B85
  8
0
 62
     7
 10
396.305091685153
 20
48.15503814822851
 30
0.0
  0
VERTEX
  5
B86
  8
0
 62
     7
 10
396.2961545460391
 20
48.15256895897633
 30
0.0
  0
VERTEX
  5
B87
  8
0
 62
     7
 10
396.2853567491319
 20
48.14962878689236
 30
0.0
  0
VERTEX
  5
B88
  8
0
 62
     7
 10
396.2728997942387
 20
48.14626509773662
 30
0.0
  0
VERTEX
  5
B89
  8
0
 62
     7
 10
396.2589851811664
 20
48.14252535726916
 30
0.0
  0
VERTEX
  5
B8A
  8
0
 62
     7
 10
396.2438144097222
 20
48.13845703125
 30
0.0
  0
VERTEX
  5
B8B
  8
0
 62
     7
 10
396.2275889797132
 20
48.13410758543917
 30
0.0
  0
VERTEX
  5
B8C
  8
0
 62
     7
 10
396.2105103909465
 20
48.1295244855967
 30
0.0
  0
VERTEX
  5
B8D
  8
0
 62
     7
 10
396.1927801432292
 20
48.12475519748264
 30
0.0
  0
VERTEX
  5
B8E
  8
0
 62
     7
 10
396.1745997363683
 20
48.11984718685699
 30
0.0
  0
VERTEX
  5
B8F
  8
0
 62
     7
 10
396.156170670171
 20
48.11484791947981
 30
0.0
  0
VERTEX
  5
B90
  8
0
 62
     7
 10
396.1376944444445
 20
48.10980486111111
 30
0.0
  0
VERTEX
  5
B91
  8
0
 62
     7
 10
396.1193725589956
 20
48.10476547751092
 30
0.0
  0
VERTEX
  5
B92
  8
0
 62
     7
 10
396.1014065136317
 20
48.0997772344393
 30
0.0
  0
VERTEX
  5
B93
  8
0
 62
     7
 10
396.0839978081598
 20
48.09488759765625
 30
0.0
  0
VERTEX
  5
B94
  8
0
 62
     7
 10
396.0673479423868
 20
48.0901440329218
 30
0.0
  0
VERTEX
  5
B95
  8
0
 62
     7
 10
396.0516584161201
 20
48.08559400599601
 30
0.0
  0
VERTEX
  5
B96
  8
0
 62
     7
 10
396.0371307291666
 20
48.08128498263889
 30
0.0
  0
VERTEX
  5
B97
  8
0
 62
     7
 10
396.0239663813336
 20
48.07726442861046
 30
0.0
  0
VERTEX
  5
B98
  8
0
 62
     7
 10
396.012366872428
 20
48.07357980967078
 30
0.0
  0
VERTEX
  5
B99
  8
0
 62
     7
 10
396.002533702257
 20
48.07027859157986
 30
0.0
  0
VERTEX
  5
B9A
  8
0
 62
     7
 10
395.9946683706276
 20
48.06740824009773
 30
0.0
  0
VERTEX
  5
B9B
  8
0
 62
     7
 10
395.988972377347
 20
48.06501622098444
 30
0.0
  0
VERTEX
  5
B9C
  8
0
 62
     7
 10
395.9856472222222
 20
48.06315
 30
0.0
  0
SEQEND
  5
B9D
  8
0
 62
     7
  0
POLYLINE
  5
BD
  8
0
 62
     7
 66
     1
 10
0.0
 20
0.0
 30
0.0
  0
VERTEX
  5
B9E
  8
0
 62
     7
 10
395.9856472222222
 20
48.06315
 30
0.0
  0
VERTEX
  5
B9F
  8
0
 62
     7
 10
395.9822891217769
 20
48.0601239302019
 30
0.0
  0
VERTEX
  5
BA0
  8
0
 62
     7
 10
395.9786702658822
 20
48.05604381430041
 30
0.0
  0
VERTEX
  5
BA1
  8
0
 62
     7
 10
395.974816531033
 20
48.0509984592014
 30
0.0
  0
VERTEX
  5
BA2
  8
0
 62
     7
 10
395.9707537937243
 20
48.0450766718107
 30
0.0
  0
VERTEX
  5
BA3
  8
0
 62
     7
 10
395.966507930451
 20
48.03836725903421
 30
0.0
  0
VERTEX
  5
BA4
  8
0
 62
     7
 10
395.9621048177083
 20
48.03095902777777
 30
0.0
  0
VERTEX
  5
BA5
  8
0
 62
     7
 10
395.9575703319911
 20
48.02294078494727
 30
0.0
  0
VERTEX
  5
BA6
  8
0
 62
     7
 10
395.9529303497943
 20
48.01440133744856
 30
0.0
  0
VERTEX
  5
BA7
  8
0
 62
     7
 10
395.9482107476128
 20
48.0054294921875
 30
0.0
  0
VERTEX
  5
BA8
  8
0
 62
     7
 10
395.9434374019418
 20
47.99611405606996
 30
0.0
  0
VERTEX
  5
BA9
  8
0
 62
     7
 10
395.9386361892763
 20
47.9865438360018
 30
0.0
  0
VERTEX
  5
BAA
  8
0
 62
     7
 10
395.9338329861112
 20
47.97680763888889
 30
0.0
  0
VERTEX
  5
BAB
  8
0
 62
     7
 10
395.9290536689413
 20
47.96699427163709
 30
0.0
  0
VERTEX
  5
BAC
  8
0
 62
     7
 10
395.9243241142618
 20
47.95719254115226
 30
0.0
  0
VERTEX
  5
BAD
  8
0
 62
     7
 10
395.9196701985677
 20
47.94749125434028
 30
0.0
  0
VERTEX
  5
BAE
  8
0
 62
     7
 10
395.9151177983539
 20
47.937979218107
 30
0.0
  0
VERTEX
  5
BAF
  8
0
 62
     7
 10
395.9106927901155
 20
47.92874523935828
 30
0.0
  0
VERTEX
  5
BB0
  8
0
 62
     7
 10
395.9064210503473
 20
47.91987812499999
 30
0.0
  0
VERTEX
  5
BB1
  8
0
 62
     7
 10
395.9023284555444
 20
47.91146668193801
 30
0.0
  0
VERTEX
  5
BB2
  8
0
 62
     7
 10
395.8984408822017
 20
47.90359971707819
 30
0.0
  0
VERTEX
  5
BB3
  8
0
 62
     7
 10
395.8947842068142
 20
47.89636603732638
 30
0.0
  0
VERTEX
  5
BB4
  8
0
 62
     7
 10
395.8913843058771
 20
47.88985444958848
 30
0.0
  0
VERTEX
  5
BB5
  8
0
 62
     7
 10
395.8882670558851
 20
47.88415376077031
 30
0.0
  0
VERTEX
  5
BB6
  8
0
 62
     7
 10
395.8854583333334
 20
47.87935277777778
 30
0.0
  0
SEQEND
  5
BB7
  8
0
 62
     7
  0
POLYLINE
  5
BE
  8
0
 62
     7
 66
     1
 10
0.0
 20
0.0
 30
0.0
  0
VERTEX
  5
BB8
  8
0
 62
     7
 10
395.8854583333334
 20
47.87935277777778
 30
0.0
  0
VERTEX
  5
BB9
  8
0
 62
     7
 10
395.8689381052277
 20
47.85213963678304
 30
0.0
  0
VERTEX
  5
BBA
  8
0
 62
     7
 10
395.8526181520062
 20
47.82474857574588
 30
0.0
  0
VERTEX
  5
BBB
  8
0
 62
     7
 10
395.8364856119792
 20
47.7971927625868
 30
0.0
  0
VERTEX
  5
BBC
  8
0
 62
     7
 10
395.8205276234568
 20
47.76948536522634
 30
0.0
  0
VERTEX
  5
BBD
  8
0
 62
     7
 10
395.8047313247492
 20
47.74163955158501
 30
0.0
  0
VERTEX
  5
BBE
  8
0
 62
     7
 10
395.7890838541666
 20
47.71366848958333
 30
0.0
  0
VERTEX
  5
BBF
  8
0
 62
     7
 10
395.7735723500193
 20
47.68558534714184
 30
0.0
  0
VERTEX
  5
BC0
  8
0
 62
     7
 10
395.7581839506173
 20
47.65740329218107
 30
0.0
  0
VERTEX
  5
BC1
  8
0
 62
     7
 10
395.7429057942709
 20
47.62913549262153
 30
0.0
  0
VERTEX
  5
BC2
  8
0
 62
     7
 10
395.7277250192901
 20
47.60079511638374
 30
0.0
  0
VERTEX
  5
BC3
  8
0
 62
     7
 10
395.7126287639853
 20
47.57239533138824
 30
0.0
  0
VERTEX
  5
BC4
  8
0
 62
     7
 10
395.6976041666666
 20
47.54394930555556
 30
0.0
  0
VERTEX
  5
BC5
  8
0
 62
     7
 10
395.6826383656443
 20
47.5154702068062
 30
0.0
  0
VERTEX
  5
BC6
  8
0
 62
     7
 10
395.6677184992284
 20
47.4869712030607
 30
0.0
  0
VERTEX
  5
BC7
  8
0
 62
     7
 10
395.6528317057291
 20
47.45846546223958
 30
0.0
  0
VERTEX
  5
BC8
  8
0
 62
     7
 10
395.6379651234568
 20
47.42996615226338
 30
0.0
  0
VERTEX
  5
BC9
  8
0
 62
     7
 10
395.6231058907214
 20
47.4014864410526
 30
0.0
  0
VERTEX
  5
BCA
  8
0
 62
     7
 10
395.6082411458333
 20
47.37303949652778
 30
0.0
  0
VERTEX
  5
BCB
  8
0
 62
     7
 10
395.5933580271027
 20
47.34463848660944
 30
0.0
  0
VERTEX
  5
BCC
  8
0
 62
     7
 10
395.5784436728395
 20
47.3162965792181
 30
0.0
  0
VERTEX
  5
BCD
  8
0
 62
     7
 10
395.5634852213541
 20
47.28802694227431
 30
0.0
  0
VERTEX
  5
BCE
  8
0
 62
     7
 10
395.5484698109567
 20
47.25984274369856
 30
0.0
  0
VERTEX
  5
BCF
  8
0
 62
     7
 10
395.5333845799576
 20
47.23175715141139
 30
0.0
  0
VERTEX
  5
BD0
  8
0
 62
     7
 10
395.5182166666667
 20
47.20378333333333
 30
0.0
  0
SEQEND
  5
BD1
  8
0
 62
     7
  0
POLYLINE
  5
BF
  8
0
 62
     7
 66
     1
 10
0.0
 20
0.0
 30
0.0
  0
VERTEX
  5
BD2
  8
0
 62
     7
 10
726.7998333333334
 20
85.98499722222222
 30
0.0
  0
VERTEX
  5
BD3
  8
0
 62
     7
 10
727.8661052895127
 20
85.88886150093236
 30
0.0
  0
VERTEX
  5
BD4
  8
0
 62
     7
 10
729.0744211355453
 20
85.72820358153292
 30
0.0
  0
VERTEX
  5
BD5
  8
0
 62
     7
 10
730.4080527126736
 20
85.5063962890625
 30
0.0
  0
VERTEX
  5
BD6
  8
0
 62
     7
 10
731.85027186214
 20
85.22681244855967
 30
0.0
  0
VERTEX
  5
BD7
  8
0
 62
     7
 10
733.3843504251864
 20
84.892824885063
 30
0.0
  0
VERTEX
  5
BD8
  8
0
 62
     7
 10
734.9935602430555
 20
84.50780642361111
 30
0.0
  0
VERTEX
  5
BD9
  8
0
 62
     7
 10
736.6611731569894
 20
84.07512988924255
 30
0.0
  0
VERTEX
  5
BDA
  8
0
 62
     7
 10
738.3704610082304
 20
83.5981681069959
 30
0.0
  0
VERTEX
  5
BDB
  8
0
 62
     7
 10
740.1046956380209
 20
83.08029390190973
 30
0.0
  0
VERTEX
  5
BDC
  8
0
 62
     7
 10
741.8471488876028
 20
82.52488009902262
 30
0.0
  0
VERTEX
  5
BDD
  8
0
 62
     7
 10
743.5810925982189
 20
81.9352995233732
 30
0.0
  0
VERTEX
  5
BDE
  8
0
 62
     7
 10
745.2897986111111
 20
81.31492499999999
 30
0.0
  0
VERTEX
  5
BDF
  8
0
 62
     7
 10
746.9565387675218
 20
80.6671293539416
 30
0.0
  0
VERTEX
  5
BE0
  8
0
 62
     7
 10
748.5645849086934
 20
79.99528541023662
 30
0.0
  0
VERTEX
  5
BE1
  8
0
 62
     7
 10
750.0972088758681
 20
79.3027659939236
 30
0.0
  0
VERTEX
  5
BE2
  8
0
 62
     7
 10
751.537682510288
 20
78.59294393004114
 30
0.0
  0
VERTEX
  5
BE3
  8
0
 62
     7
 10
752.8692776531959
 20
77.86919204362782
 30
0.0
  0
VERTEX
  5
BE4
  8
0
 62
     7
 10
754.0752661458333
 20
77.13488315972222
 30
0.0
  0
VERTEX
  5
BE5
  8
0
 62
     7
 10
755.1389198294431
 20
76.3933901033629
 30
0.0
  0
VERTEX
  5
BE6
  8
0
 62
     7
 10
756.0435105452675
 20
75.64808569958848
 30
0.0
  0
VERTEX
  5
BE7
  8
0
 62
     7
 10
756.7723101345487
 20
74.9023427734375
 30
0.0
  0
VERTEX
  5
BE8
  8
0
 62
     7
 10
757.3085904385289
 20
74.15953414994856
 30
0.0
  0
VERTEX
  5
BE9
  8
0
 62
     7
 10
757.6356232984505
 20
73.42303265416022
 30
0.0
  0
VERTEX
  5
BEA
  8
0
 62
     7
 10
757.7366805555556
 20
72.6962111111111
 30
0.0
  0
SEQEND
  5
BEB
  8
0
 62
     7
  0
POLYLINE
  5
C0
  8
0
 62
     7
 66
     1
 10
0.0
 20
0.0
 30
0.0
  0
VERTEX
  5
BEC
  8
0
 62
     7
 10
757.7366805555556
 20
72.6962111111111
 30
0.0
  0
VERTEX
  5
BED
  8
0
 62
     7
 10
757.6155727916828
 20
71.98035104528354
 30
0.0
  0
VERTEX
  5
BEE
  8
0
 62
     7
 10
757.2976833172584
 20
71.27562277199074
 30
0.0
  0
VERTEX
  5
BEF
  8
0
 62
     7
 10
756.7985107747396
 20
70.583864594184
 30
0.0
  0
VERTEX
  5
BF0
  8
0
 62
     7
 10
756.1335538065845
 20
69.90691481481481
 30
0.0
  0
VERTEX
  5
BF1
  8
0
 62
     7
 10
755.3183110552501
 20
69.24661173683448
 30
0.0
  0
VERTEX
  5
BF2
  8
0
 62
     7
 10
754.3682811631944
 20
68.60479366319444
 30
0.0
  0
VERTEX
  5
BF3
  8
0
 62
     7
 10
753.2989627728749
 20
67.98329889684607
 30
0.0
  0
VERTEX
  5
BF4
  8
0
 62
     7
 10
752.125854526749
 20
67.38396574074075
 30
0.0
  0
VERTEX
  5
BF5
  8
0
 62
     7
 10
750.8644550672743
 20
66.80863249782985
 30
0.0
  0
VERTEX
  5
BF6
  8
0
 62
     7
 10
749.5302630369085
 20
66.2591374710648
 30
0.0
  0
VERTEX
  5
BF7
  8
0
 62
     7
 10
748.1387770781089
 20
65.73731896339699
 30
0.0
  0
VERTEX
  5
BF8
  8
0
 62
     7
 10
746.7054958333333
 20
65.24501527777778
 30
0.0
  0
VERTEX
  5
BF9
  8
0
 62
     7
 10
745.2459179450392
 20
64.78406471715856
 30
0.0
  0
VERTEX
  5
BFA
  8
0
 62
     7
 10
743.7755420556841
 20
64.35630558449074
 30
0.0
  0
VERTEX
  5
BFB
  8
0
 62
     7
 10
742.3098668077257
 20
63.9635761827257
 30
0.0
  0
VERTEX
  5
BFC
  8
0
 62
     7
 10
740.8643908436214
 20
63.60771481481482
 30
0.0
  0
VERTEX
  5
BFD
  8
0
 62
     7
 10
739.4546128058288
 20
63.29055978370948
 30
0.0
  0
VERTEX
  5
BFE
  8
0
 62
     7
 10
738.0960313368056
 20
63.01394939236111
 30
0.0
  0
VERTEX
  5
BFF
  8
0
 62
     7
 10
736.804145079009
 20
62.77972194372107
 30
0.0
  0
VERTEX
  5
C00
  8
0
 62
     7
 10
735.5944526748971
 20
62.58971574074074
 30
0.0
  0
VERTEX
  5
C01
  8
0
 62
     7
 10
734.4824527669268
 20
62.44576908637153
 30
0.0
  0
VERTEX
  5
C02
  8
0
 62
     7
 10
733.4836439975566
 20
62.34972028356482
 30
0.0
  0
VERTEX
  5
C03
  8
0
 62
     7
 10
732.6135250092432
 20
62.30340763527199
 30
0.0
  0
VERTEX
  5
C04
  8
0
 62
     7
 10
731.8875944444444
 20
62.30866944444445
 30
0.0
  0
SEQEND
  5
C05
  8
0
 62
     7
  0
POLYLINE
  5
C1
  8
0
 62
     7
 66
     1
 10
0.0
 20
0.0
 30
0.0
  0
VERTEX
  5
C06
  8
0
 62
     7
 10
731.8875944444444
 20
62.30866944444445
 30
0.0
  0
VERTEX
  5
C07
  8
0
 62
     7
 10
730.786489689228
 20
62.51040675897795
 30
0.0
  0
VERTEX
  5
C08
  8
0
 62
     7
 10
729.7198862638245
 20
62.91378520608282
 30
0.0
  0
VERTEX
  5
C09
  8
0
 62
     7
 10
728.6936223036025
 20
63.50061391601562
 30
0.0
  0
VERTEX
  5
C0A
  8
0
 62
     7
 10
727.71353594393
 20
64.25270201903292
 30
0.0
  0
VERTEX
  5
C0B
  8
0
 62
     7
 10
726.7854653201758
 20
65.15185864539126
 30
0.0
  0
VERTEX
  5
C0C
  8
0
 62
     7
 10
725.9152485677083
 20
66.17989292534722
 30
0.0
  0
VERTEX
  5
C0D
  8
0
 62
     7
 10
725.1087238218959
 20
67.31861398915734
 30
0.0
  0
VERTEX
  5
C0E
  8
0
 62
     7
 10
724.371729218107
 20
68.54983096707818
 30
0.0
  0
VERTEX
  5
C0F
  8
0
 62
     7
 10
723.7101028917101
 20
69.85535298936631
 30
0.0
  0
VERTEX
  5
C10
  8
0
 62
     7
 10
723.1296829780736
 20
71.21698918627828
 30
0.0
  0
VERTEX
  5
C11
  8
0
 62
     7
 10
722.6363076125658
 20
72.61654868807065
 30
0.0
  0
VERTEX
  5
C12
  8
0
 62
     7
 10
722.2358149305555
 20
74.03584062499999
 30
0.0
  0
VERTEX
  5
C13
  8
0
 62
     7
 10
721.9340430674108
 20
75.45667412732283
 30
0.0
  0
VERTEX
  5
C14
  8
0
 62
     7
 10
721.7368301585005
 20
76.86085832529577
 30
0.0
  0
VERTEX
  5
C15
  8
0
 62
     7
 10
721.6500143391927
 20
78.23020234917534
 30
0.0
  0
VERTEX
  5
C16
  8
0
 62
     7
 10
721.6794337448559
 20
79.5465153292181
 30
0.0
  0
VERTEX
  5
C17
  8
0
 62
     7
 10
721.8309265108587
 20
80.79160639568062
 30
0.0
  0
VERTEX
  5
C18
  8
0
 62
     7
 10
722.1103307725695
 20
81.94728467881944
 30
0.0
  0
VERTEX
  5
C19
  8
0
 62
     7
 10
722.5234846653566
 20
82.99535930889112
 30
0.0
  0
VERTEX
  5
C1A
  8
0
 62
     7
 10
723.0762263245883
 20
83.91763941615226
 30
0.0
  0
VERTEX
  5
C1B
  8
0
 62
     7
 10
723.7743938856337
 20
84.69593413085937
 30
0.0
  0
VERTEX
  5
C1C
  8
0
 62
     7
 10
724.6238254838606
 20
85.31205258326902
 30
0.0
  0
VERTEX
  5
C1D
  8
0
 62
     7
 10
725.6303592546377
 20
85.74780390363779
 30
0.0
  0
VERTEX
  5
C1E
  8
0
 62
     7
 10
726.7998333333334
 20
85.98499722222222
 30
0.0
  0
SEQEND
  5
C1F
  8
0
 62
     7
  0
POLYLINE
  5
C2
  8
0
 62
     7
 66
     1
 10
0.0
 20
0.0
 30
0.0
  0
VERTEX
  5
C20
  8
0
 62
     7
 10
731.940511111111
 20
75.14060833333333
 30
0.0
  0
VERTEX
  5
C21
  8
0
 62
     7
 10
732.0431965458622
 20
75.13714899811922
 30
0.0
  0
VERTEX
  5
C22
  8
0
 62
     7
 10
732.1440234664351
 20
75.12691982060186
 30
0.0
  0
VERTEX
  5
C23
  8
0
 62
     7
 10
732.2427686306423
 20
75.11014404296876
 30
0.0
  0
VERTEX
  5
C24
  8
0
 62
     7
 10
732.3392087962961
 20
75.08704490740742
 30
0.0
  0
VERTEX
  5
C25
  8
0
 62
     7
 10
732.4331207212094
 20
75.05784565610531
 30
0.0
  0
VERTEX
  5
C26
  8
0
 62
     7
 10
732.5242811631942
 20
75.02276953124999
 30
0.0
  0
VERTEX
  5
C27
  8
0
 62
     7
 10
732.6124668800635
 20
74.98203977502894
 30
0.0
  0
VERTEX
  5
C28
  8
0
 62
     7
 10
732.6974546296296
 20
74.93587962962962
 30
0.0
  0
VERTEX
  5
C29
  8
0
 62
     7
 10
732.7790211697048
 20
74.88451233723957
 30
0.0
  0
VERTEX
  5
C2A
  8
0
 62
     7
 10
732.8569432581018
 20
74.82816114004629
 30
0.0
  0
VERTEX
  5
C2B
  8
0
 62
     7
 10
732.9309976526331
 20
74.76704928023726
 30
0.0
  0
VERTEX
  5
C2C
  8
0
 62
     7
 10
733.0009611111111
 20
74.7014
 30
0.0
  0
VERTEX
  5
C2D
  8
0
 62
     7
 10
733.0666103913484
 20
74.63143654152199
 30
0.0
  0
VERTEX
  5
C2E
  8
0
 62
     7
 10
733.1277222511574
 20
74.55738214699073
 30
0.0
  0
VERTEX
  5
C2F
  8
0
 62
     7
 10
733.1840734483505
 20
74.47946005859374
 30
0.0
  0
VERTEX
  5
C30
  8
0
 62
     7
 10
733.2354407407406
 20
74.3978935185185
 30
0.0
  0
VERTEX
  5
C31
  8
0
 62
     7
 10
733.2816008861399
 20
74.31290576895253
 30
0.0
  0
VERTEX
  5
C32
  8
0
 62
     7
 10
733.3223306423611
 20
74.22472005208333
 30
0.0
  0
VERTEX
  5
C33
  8
0
 62
     7
 10
733.3574067672164
 20
74.13355961009837
 30
0.0
  0
VERTEX
  5
C34
  8
0
 62
     7
 10
733.3866060185185
 20
74.03964768518517
 30
0.0
  0
VERTEX
  5
C35
  8
0
 62
     7
 10
733.4097051540798
 20
73.94320751953126
 30
0.0
  0
VERTEX
  5
C36
  8
0
 62
     7
 10
733.4264809317128
 20
73.84446235532405
 30
0.0
  0
VERTEX
  5
C37
  8
0
 62
     7
 10
733.4367101092303
 20
73.74363543475116
 30
0.0
  0
VERTEX
  5
C38
  8
0
 62
     7
 10
733.4401694444443
 20
73.64094999999999
 30
0.0
  0
SEQEND
  5
C39
  8
0
 62
     7
  0
POLYLINE
  5
C3
  8
0
 62
     7
 66
     1
 10
0.0
 20
0.0
 30
0.0
  0
VERTEX
  5
C3A
  8
0
 62
     7
 10
733.4401694444443
 20
73.64094999999999
 30
0.0
  0
VERTEX
  5
C3B
  8
0
 62
     7
 10
733.4367101092303
 20
73.53826456524882
 30
0.0
  0
VERTEX
  5
C3C
  8
0
 62
     7
 10
733.426480931713
 20
73.43743764467591
 30
0.0
  0
VERTEX
  5
C3D
  8
0
 62
     7
 10
733.4097051540798
 20
73.33869248046872
 30
0.0
  0
VERTEX
  5
C3E
  8
0
 62
     7
 10
733.3866060185185
 20
73.2422523148148
 30
0.0
  0
VERTEX
  5
C3F
  8
0
 62
     7
 10
733.3574067672164
 20
73.14834038990162
 30
0.0
  0
VERTEX
  5
C40
  8
0
 62
     7
 10
733.3223306423611
 20
73.05717994791665
 30
0.0
  0
VERTEX
  5
C41
  8
0
 62
     7
 10
733.2816008861398
 20
72.96899423104745
 30
0.0
  0
VERTEX
  5
C42
  8
0
 62
     7
 10
733.2354407407407
 20
72.88400648148146
 30
0.0
  0
VERTEX
  5
C43
  8
0
 62
     7
 10
733.1840734483505
 20
72.80243994140622
 30
0.0
  0
VERTEX
  5
C44
  8
0
 62
     7
 10
733.1277222511574
 20
72.72451785300926
 30
0.0
  0
VERTEX
  5
C45
  8
0
 62
     7
 10
733.0666103913484
 20
72.65046345847801
 30
0.0
  0
VERTEX
  5
C46
  8
0
 62
     7
 10
733.0009611111111
 20
72.58049999999999
 30
0.0
  0
VERTEX
  5
C47
  8
0
 62
     7
 10
732.9309976526331
 20
72.51485071976273
 30
0.0
  0
VERTEX
  5
C48
  8
0
 62
     7
 10
732.8569432581018
 20
72.45373885995369
 30
0.0
  0
VERTEX
  5
C49
  8
0
 62
     7
 10
732.7790211697048
 20
72.39738766276041
 30
0.0
  0
VERTEX
  5
C4A
  8
0
 62
     7
 10
732.6974546296295
 20
72.34602037037035
 30
0.0
  0
VERTEX
  5
C4B
  8
0
 62
     7
 10
732.6124668800636
 20
72.29986022497106
 30
0.0
  0
VERTEX
  5
C4C
  8
0
 62
     7
 10
732.5242811631945
 20
72.25913046875
 30
0.0
  0
VERTEX
  5
C4D
  8
0
 62
     7
 10
732.4331207212094
 20
72.22405434389466
 30
0.0
  0
VERTEX
  5
C4E
  8
0
 62
     7
 10
732.3392087962962
 20
72.19485509259258
 30
0.0
  0
VERTEX
  5
C4F
  8
0
 62
     7
 10
732.2427686306423
 20
72.17175595703125
 30
0.0
  0
VERTEX
  5
C50
  8
0
 62
     7
 10
732.1440234664351
 20
72.15498017939815
 30
0.0
  0
VERTEX
  5
C51
  8
0
 62
     7
 10
732.0431965458623
 20
72.14475100188078
 30
0.0
  0
VERTEX
  5
C52
  8
0
 62
     7
 10
731.940511111111
 20
72.14129166666666
 30
0.0
  0
SEQEND
  5
C53
  8
0
 62
     7
  0
POLYLINE
  5
C4
  8
0
 62
     7
 66
     1
 10
0.0
 20
0.0
 30
0.0
  0
VERTEX
  5
C54
  8
0
 62
     7
 10
731.940511111111
 20
72.14129166666666
 30
0.0
  0
VERTEX
  5
C55
  8
0
 62
     7
 10
731.83782567636
 20
72.14475100188079
 30
0.0
  0
VERTEX
  5
C56
  8
0
 62
     7
 10
731.736998755787
 20
72.15498017939812
 30
0.0
  0
VERTEX
  5
C57
  8
0
 62
     7
 10
731.6382535915798
 20
72.17175595703124
 30
0.0
  0
VERTEX
  5
C58
  8
0
 62
     7
 10
731.541813425926
 20
72.19485509259259
 30
0.0
  0
VERTEX
  5
C59
  8
0
 62
     7
 10
731.4479015010127
 20
72.22405434389466
 30
0.0
  0
VERTEX
  5
C5A
  8
0
 62
     7
 10
731.3567410590279
 20
72.25913046874999
 30
0.0
  0
VERTEX
  5
C5B
  8
0
 62
     7
 10
731.2685553421585
 20
72.29986022497107
 30
0.0
  0
VERTEX
  5
C5C
  8
0
 62
     7
 10
731.1835675925925
 20
72.34602037037037
 30
0.0
  0
VERTEX
  5
C5D
  8
0
 62
     7
 10
731.1020010525173
 20
72.39738766276042
 30
0.0
  0
VERTEX
  5
C5E
  8
0
 62
     7
 10
731.0240789641203
 20
72.45373885995369
 30
0.0
  0
VERTEX
  5
C5F
  8
0
 62
     7
 10
730.950024569589
 20
72.51485071976273
 30
0.0
  0
VERTEX
  5
C60
  8
0
 62
     7
 10
730.880061111111
 20
72.58049999999999
 30
0.0
  0
VERTEX
  5
C61
  8
0
 62
     7
 10
730.8144118308737
 20
72.65046345847801
 30
0.0
  0
VERTEX
  5
C62
  8
0
 62
     7
 10
730.7532999710647
 20
72.72451785300926
 30
0.0
  0
VERTEX
  5
C63
  8
0
 62
     7
 10
730.6969487738716
 20
72.80243994140625
 30
0.0
  0
VERTEX
  5
C64
  8
0
 62
     7
 10
730.6455814814815
 20
72.88400648148148
 30
0.0
  0
VERTEX
  5
C65
  8
0
 62
     7
 10
730.5994213360821
 20
72.96899423104745
 30
0.0
  0
VERTEX
  5
C66
  8
0
 62
     7
 10
730.5586915798611
 20
73.05717994791667
 30
0.0
  0
VERTEX
  5
C67
  8
0
 62
     7
 10
730.5236154550057
 20
73.14834038990162
 30
0.0
  0
VERTEX
  5
C68
  8
0
 62
     7
 10
730.4944162037037
 20
73.2422523148148
 30
0.0
  0
VERTEX
  5
C69
  8
0
 62
     7
 10
730.4713170681423
 20
73.33869248046875
 30
0.0
  0
VERTEX
  5
C6A
  8
0
 62
     7
 10
730.4545412905094
 20
73.4374376446759
 30
0.0
  0
VERTEX
  5
C6B
  8
0
 62
     7
 10
730.444312112992
 20
73.53826456524884
 30
0.0
  0
VERTEX
  5
C6C
  8
0
 62
     7
 10
730.4408527777778
 20
73.64094999999999
 30
0.0
  0
SEQEND
  5
C6D
  8
0
 62
     7
  0
POLYLINE
  5
C5
  8
0
 62
     7
 66
     1
 10
0.0
 20
0.0
 30
0.0
  0
VERTEX
  5
C6E
  8
0
 62
     7
 10
730.4408527777778
 20
73.64094999999999
 30
0.0
  0
VERTEX
  5
C6F
  8
0
 62
     7
 10
730.4443121129918
 20
73.74363543475114
 30
0.0
  0
VERTEX
  5
C70
  8
0
 62
     7
 10
730.4545412905093
 20
73.84446235532405
 30
0.0
  0
VERTEX
  5
C71
  8
0
 62
     7
 10
730.4713170681424
 20
73.94320751953124
 30
0.0
  0
VERTEX
  5
C72
  8
0
 62
     7
 10
730.4944162037037
 20
74.03964768518517
 30
0.0
  0
VERTEX
  5
C73
  8
0
 62
     7
 10
730.5236154550057
 20
74.13355961009839
 30
0.0
  0
VERTEX
  5
C74
  8
0
 62
     7
 10
730.558691579861
 20
74.22472005208333
 30
0.0
  0
VERTEX
  5
C75
  8
0
 62
     7
 10
730.5994213360821
 20
74.31290576895255
 30
0.0
  0
VERTEX
  5
C76
  8
0
 62
     7
 10
730.6455814814815
 20
74.3978935185185
 30
0.0
  0
VERTEX
  5
C77
  8
0
 62
     7
 10
730.6969487738716
 20
74.47946005859376
 30
0.0
  0
VERTEX
  5
C78
  8
0
 62
     7
 10
730.7532999710647
 20
74.55738214699073
 30
0.0
  0
VERTEX
  5
C79
  8
0
 62
     7
 10
730.8144118308737
 20
74.63143654152199
 30
0.0
  0
VERTEX
  5
C7A
  8
0
 62
     7
 10
730.880061111111
 20
74.7014
 30
0.0
  0
VERTEX
  5
C7B
  8
0
 62
     7
 10
730.950024569589
 20
74.76704928023726
 30
0.0
  0
VERTEX
  5
C7C
  8
0
 62
     7
 10
731.0240789641203
 20
74.82816114004629
 30
0.0
  0
VERTEX
  5
C7D
  8
0
 62
     7
 10
731.1020010525173
 20
74.88451233723958
 30
0.0
  0
VERTEX
  5
C7E
  8
0
 62
     7
 10
731.1835675925925
 20
74.93587962962962
 30
0.0
  0
VERTEX
  5
C7F
  8
0
 62
     7
 10
731.2685553421585
 20
74.98203977502894
 30
0.0
  0
VERTEX
  5
C80
  8
0
 62
     7
 10
731.3567410590279
 20
75.02276953125
 30
0.0
  0
VERTEX
  5
C81
  8
0
 62
     7
 10
731.4479015010127
 20
75.05784565610531
 30
0.0
  0
VERTEX
  5
C82
  8
0
 62
     7
 10
731.5418134259259
 20
75.0870449074074
 30
0.0
  0
VERTEX
  5
C83
  8
0
 62
     7
 10
731.6382535915798
 20
75.11014404296876
 30
0.0
  0
VERTEX
  5
C84
  8
0
 62
     7
 10
731.7369987557869
 20
75.12691982060186
 30
0.0
  0
VERTEX
  5
C85
  8
0
 62
     7
 10
731.83782567636
 20
75.13714899811922
 30
0.0
  0
VERTEX
  5
C86
  8
0
 62
     7
 10
731.940511111111
 20
75.14060833333333
 30
0.0
  0
SEQEND
  5
C87
  8
0
 62
     7
  0
POLYLINE
  5
C6
  8
0
 62
     7
 66
     1
 10
0.0
 20
0.0
 30
0.0
  0
VERTEX
  5
C88
  8
0
 62
     7
 10
746.4559055555555
 20
74.40577222222221
 30
0.0
  0
VERTEX
  5
C89
  8
0
 62
     7
 10
746.5585909903067
 20
74.4023128870081
 30
0.0
  0
VERTEX
  5
C8A
  8
0
 62
     7
 10
746.6594179108796
 20
74.39208370949075
 30
0.0
  0
VERTEX
  5
C8B
  8
0
 62
     7
 10
746.7581630750868
 20
74.37530793185762
 30
0.0
  0
VERTEX
  5
C8C
  8
0
 62
     7
 10
746.8546032407406
 20
74.3522087962963
 30
0.0
  0
VERTEX
  5
C8D
  8
0
 62
     7
 10
746.948515165654
 20
74.3230095449942
 30
0.0
  0
VERTEX
  5
C8E
  8
0
 62
     7
 10
747.0396756076389
 20
74.28793342013887
 30
0.0
  0
VERTEX
  5
C8F
  8
0
 62
     7
 10
747.1278613245081
 20
74.24720366391782
 30
0.0
  0
VERTEX
  5
C90
  8
0
 62
     7
 10
747.212849074074
 20
74.2010435185185
 30
0.0
  0
VERTEX
  5
C91
  8
0
 62
     7
 10
747.2944156141492
 20
74.14967622612846
 30
0.0
  0
VERTEX
  5
C92
  8
0
 62
     7
 10
747.3723377025462
 20
74.09332502893518
 30
0.0
  0
VERTEX
  5
C93
  8
0
 62
     7
 10
747.4463920970775
 20
74.03221316912615
 30
0.0
  0
VERTEX
  5
C94
  8
0
 62
     7
 10
747.5163555555555
 20
73.96656388888889
 30
0.0
  0
VERTEX
  5
C95
  8
0
 62
     7
 10
747.5820048357928
 20
73.89660043041087
 30
0.0
  0
VERTEX
  5
C96
  8
0
 62
     7
 10
747.6431166956017
 20
73.82254603587961
 30
0.0
  0
VERTEX
  5
C97
  8
0
 62
     7
 10
747.6994678927952
 20
73.74462394748262
 30
0.0
  0
VERTEX
  5
C98
  8
0
 62
     7
 10
747.7508351851851
 20
73.6630574074074
 30
0.0
  0
VERTEX
  5
C99
  8
0
 62
     7
 10
747.7969953305844
 20
73.57806965784143
 30
0.0
  0
VERTEX
  5
C9A
  8
0
 62
     7
 10
747.8377250868054
 20
73.48988394097223
 30
0.0
  0
VERTEX
  5
C9B
  8
0
 62
     7
 10
747.8728012116609
 20
73.39872349898727
 30
0.0
  0
VERTEX
  5
C9C
  8
0
 62
     7
 10
747.902000462963
 20
73.30481157407407
 30
0.0
  0
VERTEX
  5
C9D
  8
0
 62
     7
 10
747.9250995985243
 20
73.20837140842013
 30
0.0
  0
VERTEX
  5
C9E
  8
0
 62
     7
 10
747.9418753761573
 20
73.10962624421295
 30
0.0
  0
VERTEX
  5
C9F
  8
0
 62
     7
 10
747.9521045536748
 20
73.00879932364003
 30
0.0
  0
VERTEX
  5
CA0
  8
0
 62
     7
 10
747.9555638888888
 20
72.90611388888888
 30
0.0
  0
SEQEND
  5
CA1
  8
0
 62
     7
  0
POLYLINE
  5
C7
  8
0
 62
     7
 66
     1
 10
0.0
 20
0.0
 30
0.0
  0
VERTEX
  5
CA2
  8
0
 62
     7
 10
747.9555638888888
 20
72.90611388888888
 30
0.0
  0
VERTEX
  5
CA3
  8
0
 62
     7
 10
747.9521045536748
 20
72.80342845413772
 30
0.0
  0
VERTEX
  5
CA4
  8
0
 62
     7
 10
747.9418753761574
 20
72.70260153356482
 30
0.0
  0
VERTEX
  5
CA5
  8
0
 62
     7
 10
747.9250995985242
 20
72.60385636935763
 30
0.0
  0
VERTEX
  5
CA6
  8
0
 62
     7
 10
747.9020004629629
 20
72.5074162037037
 30
0.0
  0
VERTEX
  5
CA7
  8
0
 62
     7
 10
747.8728012116608
 20
72.41350427879051
 30
0.0
  0
VERTEX
  5
CA8
  8
0
 62
     7
 10
747.8377250868056
 20
72.32234383680556
 30
0.0
  0
VERTEX
  5
CA9
  8
0
 62
     7
 10
747.7969953305844
 20
72.23415811993634
 30
0.0
  0
VERTEX
  5
CAA
  8
0
 62
     7
 10
747.7508351851851
 20
72.14917037037037
 30
0.0
  0
VERTEX
  5
CAB
  8
0
 62
     7
 10
747.6994678927952
 20
72.06760383029514
 30
0.0
  0
VERTEX
  5
CAC
  8
0
 62
     7
 10
747.6431166956017
 20
71.98968174189815
 30
0.0
  0
VERTEX
  5
CAD
  8
0
 62
     7
 10
747.5820048357928
 20
71.9156273473669
 30
0.0
  0
VERTEX
  5
CAE
  8
0
 62
     7
 10
747.5163555555555
 20
71.84566388888888
 30
0.0
  0
VERTEX
  5
CAF
  8
0
 62
     7
 10
747.4463920970775
 20
71.78001460865161
 30
0.0
  0
VERTEX
  5
CB0
  8
0
 62
     7
 10
747.3723377025462
 20
71.7189027488426
 30
0.0
  0
VERTEX
  5
CB1
  8
0
 62
     7
 10
747.2944156141493
 20
71.66255155164932
 30
0.0
  0
VERTEX
  5
CB2
  8
0
 62
     7
 10
747.212849074074
 20
71.61118425925926
 30
0.0
  0
VERTEX
  5
CB3
  8
0
 62
     7
 10
747.1278613245081
 20
71.56502411385995
 30
0.0
  0
VERTEX
  5
CB4
  8
0
 62
     7
 10
747.039675607639
 20
71.52429435763888
 30
0.0
  0
VERTEX
  5
CB5
  8
0
 62
     7
 10
746.9485151656539
 20
71.48921823278356
 30
0.0
  0
VERTEX
  5
CB6
  8
0
 62
     7
 10
746.8546032407407
 20
71.46001898148148
 30
0.0
  0
VERTEX
  5
CB7
  8
0
 62
     7
 10
746.7581630750869
 20
71.43691984592014
 30
0.0
  0
VERTEX
  5
CB8
  8
0
 62
     7
 10
746.6594179108795
 20
71.42014406828704
 30
0.0
  0
VERTEX
  5
CB9
  8
0
 62
     7
 10
746.5585909903067
 20
71.40991489076967
 30
0.0
  0
VERTEX
  5
CBA
  8
0
 62
     7
 10
746.4559055555555
 20
71.40645555555555
 30
0.0
  0
SEQEND
  5
CBB
  8
0
 62
     7
  0
POLYLINE
  5
C8
  8
0
 62
     7
 66
     1
 10
0.0
 20
0.0
 30
0.0
  0
VERTEX
  5
CBC
  8
0
 62
     7
 10
746.4559055555555
 20
71.40645555555555
 30
0.0
  0
VERTEX
  5
CBD
  8
0
 62
     7
 10
746.3532201208045
 20
71.40991489076968
 30
0.0
  0
VERTEX
  5
CBE
  8
0
 62
     7
 10
746.2523932002314
 20
71.42014406828703
 30
0.0
  0
VERTEX
  5
CBF
  8
0
 62
     7
 10
746.1536480360243
 20
71.43691984592014
 30
0.0
  0
VERTEX
  5
CC0
  8
0
 62
     7
 10
746.0572078703705
 20
71.46001898148147
 30
0.0
  0
VERTEX
  5
CC1
  8
0
 62
     7
 10
745.9632959454572
 20
71.48921823278356
 30
0.0
  0
VERTEX
  5
CC2
  8
0
 62
     7
 10
745.8721355034722
 20
71.5242943576389
 30
0.0
  0
VERTEX
  5
CC3
  8
0
 62
     7
 10
745.783949786603
 20
71.56502411385995
 30
0.0
  0
VERTEX
  5
CC4
  8
0
 62
     7
 10
745.698962037037
 20
71.61118425925925
 30
0.0
  0
VERTEX
  5
CC5
  8
0
 62
     7
 10
745.6173954969618
 20
71.66255155164932
 30
0.0
  0
VERTEX
  5
CC6
  8
0
 62
     7
 10
745.5394734085647
 20
71.7189027488426
 30
0.0
  0
VERTEX
  5
CC7
  8
0
 62
     7
 10
745.4654190140335
 20
71.78001460865161
 30
0.0
  0
VERTEX
  5
CC8
  8
0
 62
     7
 10
745.3954555555555
 20
71.84566388888888
 30
0.0
  0
VERTEX
  5
CC9
  8
0
 62
     7
 10
745.3298062753182
 20
71.9156273473669
 30
0.0
  0
VERTEX
  5
CCA
  8
0
 62
     7
 10
745.2686944155091
 20
71.98968174189815
 30
0.0
  0
VERTEX
  5
CCB
  8
0
 62
     7
 10
745.2123432183159
 20
72.06760383029514
 30
0.0
  0
VERTEX
  5
CCC
  8
0
 62
     7
 10
745.1609759259259
 20
72.14917037037037
 30
0.0
  0
VERTEX
  5
CCD
  8
0
 62
     7
 10
745.1148157805264
 20
72.23415811993632
 30
0.0
  0
VERTEX
  5
CCE
  8
0
 62
     7
 10
745.0740860243054
 20
72.32234383680554
 30
0.0
  0
VERTEX
  5
CCF
  8
0
 62
     7
 10
745.0390098994501
 20
72.41350427879051
 30
0.0
  0
VERTEX
  5
CD0
  8
0
 62
     7
 10
745.0098106481481
 20
72.5074162037037
 30
0.0
  0
VERTEX
  5
CD1
  8
0
 62
     7
 10
744.9867115125867
 20
72.60385636935763
 30
0.0
  0
VERTEX
  5
CD2
  8
0
 62
     7
 10
744.9699357349537
 20
72.7026015335648
 30
0.0
  0
VERTEX
  5
CD3
  8
0
 62
     7
 10
744.9597065574363
 20
72.80342845413772
 30
0.0
  0
VERTEX
  5
CD4
  8
0
 62
     7
 10
744.9562472222221
 20
72.90611388888888
 30
0.0
  0
SEQEND
  5
CD5
  8
0
 62
     7
  0
POLYLINE
  5
C9
  8
0
 62
     7
 66
     1
 10
0.0
 20
0.0
 30
0.0
  0
VERTEX
  5
CD6
  8
0
 62
     7
 10
744.9562472222221
 20
72.90611388888888
 30
0.0
  0
VERTEX
  5
CD7
  8
0
 62
     7
 10
744.9597065574363
 20
73.00879932364003
 30
0.0
  0
VERTEX
  5
CD8
  8
0
 62
     7
 10
744.9699357349537
 20
73.10962624421295
 30
0.0
  0
VERTEX
  5
CD9
  8
0
 62
     7
 10
744.9867115125867
 20
73.20837140842013
 30
0.0
  0
VERTEX
  5
CDA
  8
0
 62
     7
 10
745.009810648148
 20
73.30481157407407
 30
0.0
  0
VERTEX
  5
CDB
  8
0
 62
     7
 10
745.0390098994502
 20
73.39872349898727
 30
0.0
  0
VERTEX
  5
CDC
  8
0
 62
     7
 10
745.0740860243055
 20
73.48988394097222
 30
0.0
  0
VERTEX
  5
CDD
  8
0
 62
     7
 10
745.1148157805264
 20
73.57806965784143
 30
0.0
  0
VERTEX
  5
CDE
  8
0
 62
     7
 10
745.1609759259259
 20
73.6630574074074
 30
0.0
  0
VERTEX
  5
CDF
  8
0
 62
     7
 10
745.2123432183159
 20
73.74462394748264
 30
0.0
  0
VERTEX
  5
CE0
  8
0
 62
     7
 10
745.2686944155091
 20
73.82254603587961
 30
0.0
  0
VERTEX
  5
CE1
  8
0
 62
     7
 10
745.3298062753182
 20
73.89660043041087
 30
0.0
  0
VERTEX
  5
CE2
  8
0
 62
     7
 10
745.3954555555555
 20
73.96656388888889
 30
0.0
  0
VERTEX
  5
CE3
  8
0
 62
     7
 10
745.4654190140335
 20
74.03221316912615
 30
0.0
  0
VERTEX
  5
CE4
  8
0
 62
     7
 10
745.5394734085647
 20
74.09332502893518
 30
0.0
  0
VERTEX
  5
CE5
  8
0
 62
     7
 10
745.6173954969618
 20
74.14967622612846
 30
0.0
  0
VERTEX
  5
CE6
  8
0
 62
     7
 10
745.698962037037
 20
74.20104351851852
 30
0.0
  0
VERTEX
  5
CE7
  8
0
 62
     7
 10
745.783949786603
 20
74.24720366391782
 30
0.0
  0
VERTEX
  5
CE8
  8
0
 62
     7
 10
745.8721355034722
 20
74.28793342013888
 30
0.0
  0
VERTEX
  5
CE9
  8
0
 62
     7
 10
745.963295945457
 20
74.3230095449942
 30
0.0
  0
VERTEX
  5
CEA
  8
0
 62
     7
 10
746.0572078703705
 20
74.35220879629628
 30
0.0
  0
VERTEX
  5
CEB
  8
0
 62
     7
 10
746.1536480360244
 20
74.37530793185763
 30
0.0
  0
VERTEX
  5
CEC
  8
0
 62
     7
 10
746.2523932002314
 20
74.39208370949072
 30
0.0
  0
VERTEX
  5
CED
  8
0
 62
     7
 10
746.3532201208045
 20
74.4023128870081
 30
0.0
  0
VERTEX
  5
CEE
  8
0
 62
     7
 10
746.4559055555555
 20
74.40577222222221
 30
0.0
  0
SEQEND
  5
CEF
  8
0
 62
     7
  0
POLYLINE
  5
CA
  8
0
 62
     7
 66
     1
 10
0.0
 20
0.0
 30
0.0
  0
VERTEX
  5
CF0
  8
0
 62
     7
 10
792.0467888888888
 20
85.98499722222222
 30
0.0
  0
VERTEX
  5
CF1
  8
0
 62
     7
 10
790.9805169327095
 20
85.88886150093236
 30
0.0
  0
VERTEX
  5
CF2
  8
0
 62
     7
 10
789.772201086677
 20
85.72820358153292
 30
0.0
  0
VERTEX
  5
CF3
  8
0
 62
     7
 10
788.4385695095486
 20
85.5063962890625
 30
0.0
  0
VERTEX
  5
CF4
  8
0
 62
     7
 10
786.9963503600821
 20
85.22681244855967
 30
0.0
  0
VERTEX
  5
CF5
  8
0
 62
     7
 10
785.4622717970358
 20
84.892824885063
 30
0.0
  0
VERTEX
  5
CF6
  8
0
 62
     7
 10
783.8530619791666
 20
84.50780642361111
 30
0.0
  0
VERTEX
  5
CF7
  8
0
 62
     7
 10
782.1854490652327
 20
84.07512988924255
 30
0.0
  0
VERTEX
  5
CF8
  8
0
 62
     7
 10
780.4761612139916
 20
83.5981681069959
 30
0.0
  0
VERTEX
  5
CF9
  8
0
 62
     7
 10
778.7419265842013
 20
83.08029390190973
 30
0.0
  0
VERTEX
  5
CFA
  8
0
 62
     7
 10
776.9994733346193
 20
82.52488009902262
 30
0.0
  0
VERTEX
  5
CFB
  8
0
 62
     7
 10
775.2655296240033
 20
81.9352995233732
 30
0.0
  0
VERTEX
  5
CFC
  8
0
 62
     7
 10
773.556823611111
 20
81.31492499999999
 30
0.0
  0
VERTEX
  5
CFD
  8
0
 62
     7
 10
771.8900834547004
 20
80.6671293539416
 30
0.0
  0
VERTEX
  5
CFE
  8
0
 62
     7
 10
770.2820373135289
 20
79.99528541023662
 30
0.0
  0
VERTEX
  5
CFF
  8
0
 62
     7
 10
768.7494133463542
 20
79.3027659939236
 30
0.0
  0
VERTEX
  5
D00
  8
0
 62
     7
 10
767.308939711934
 20
78.59294393004114
 30
0.0
  0
VERTEX
  5
D01
  8
0
 62
     7
 10
765.9773445690265
 20
77.86919204362782
 30
0.0
  0
VERTEX
  5
D02
  8
0
 62
     7
 10
764.7713560763889
 20
77.13488315972222
 30
0.0
  0
VERTEX
  5
D03
  8
0
 62
     7
 10
763.707702392779
 20
76.3933901033629
 30
0.0
  0
VERTEX
  5
D04
  8
0
 62
     7
 10
762.8031116769546
 20
75.64808569958848
 30
0.0
  0
VERTEX
  5
D05
  8
0
 62
     7
 10
762.0743120876737
 20
74.9023427734375
 30
0.0
  0
VERTEX
  5
D06
  8
0
 62
     7
 10
761.5380317836934
 20
74.15953414994856
 30
0.0
  0
VERTEX
  5
D07
  8
0
 62
     7
 10
761.2109989237719
 20
73.42303265416022
 30
0.0
  0
VERTEX
  5
D08
  8
0
 62
     7
 10
761.1099416666666
 20
72.6962111111111
 30
0.0
  0
SEQEND
  5
D09
  8
0
 62
     7
  0
POLYLINE
  5
CB
  8
0
 62
     7
 66
     1
 10
0.0
 20
0.0
 30
0.0
  0
VERTEX
  5
D0A
  8
0
 62
     7
 10
761.1099416666666
 20
72.6962111111111
 30
0.0
  0
VERTEX
  5
D0B
  8
0
 62
     7
 10
761.2310494305395
 20
71.98035104528354
 30
0.0
  0
VERTEX
  5
D0C
  8
0
 62
     7
 10
761.548938904964
 20
71.27562277199074
 30
0.0
  0
VERTEX
  5
D0D
  8
0
 62
     7
 10
762.0481114474826
 20
70.583864594184
 30
0.0
  0
VERTEX
  5
D0E
  8
0
 62
     7
 10
762.7130684156378
 20
69.90691481481481
 30
0.0
  0
VERTEX
  5
D0F
  8
0
 62
     7
 10
763.5283111669721
 20
69.24661173683448
 30
0.0
  0
VERTEX
  5
D10
  8
0
 62
     7
 10
764.4783410590278
 20
68.60479366319444
 30
0.0
  0
VERTEX
  5
D11
  8
0
 62
     7
 10
765.5476594493473
 20
67.98329889684607
 30
0.0
  0
VERTEX
  5
D12
  8
0
 62
     7
 10
766.7207676954732
 20
67.38396574074075
 30
0.0
  0
VERTEX
  5
D13
  8
0
 62
     7
 10
767.9821671549478
 20
66.80863249782985
 30
0.0
  0
VERTEX
  5
D14
  8
0
 62
     7
 10
769.3163591853138
 20
66.2591374710648
 30
0.0
  0
VERTEX
  5
D15
  8
0
 62
     7
 10
770.7078451441132
 20
65.73731896339699
 30
0.0
  0
VERTEX
  5
D16
  8
0
 62
     7
 10
772.1411263888889
 20
65.24501527777778
 30
0.0
  0
VERTEX
  5
D17
  8
0
 62
     7
 10
773.600704277183
 20
64.78406471715856
 30
0.0
  0
VERTEX
  5
D18
  8
0
 62
     7
 10
775.071080166538
 20
64.35630558449074
 30
0.0
  0
VERTEX
  5
D19
  8
0
 62
     7
 10
776.5367554144965
 20
63.9635761827257
 30
0.0
  0
VERTEX
  5
D1A
  8
0
 62
     7
 10
777.9822313786009
 20
63.60771481481482
 30
0.0
  0
VERTEX
  5
D1B
  8
0
 62
     7
 10
779.3920094163934
 20
63.29055978370948
 30
0.0
  0
VERTEX
  5
D1C
  8
0
 62
     7
 10
780.7505908854167
 20
63.01394939236111
 30
0.0
  0
VERTEX
  5
D1D
  8
0
 62
     7
 10
782.042477143213
 20
62.77972194372107
 30
0.0
  0
VERTEX
  5
D1E
  8
0
 62
     7
 10
783.252169547325
 20
62.58971574074074
 30
0.0
  0
VERTEX
  5
D1F
  8
0
 62
     7
 10
784.3641694552952
 20
62.44576908637153
 30
0.0
  0
VERTEX
  5
D20
  8
0
 62
     7
 10
785.3629782246657
 20
62.34972028356482
 30
0.0
  0
VERTEX
  5
D21
  8
0
 62
     7
 10
786.233097212979
 20
62.30340763527199
 30
0.0
  0
VERTEX
  5
D22
  8
0
 62
     7
 10
786.9590277777778
 20
62.30866944444445
 30
0.0
  0
SEQEND
  5
D23
  8
0
 62
     7
  0
POLYLINE
  5
CC
  8
0
 62
     7
 66
     1
 10
0.0
 20
0.0
 30
0.0
  0
VERTEX
  5
D24
  8
0
 62
     7
 10
786.9590277777778
 20
62.30866944444445
 30
0.0
  0
VERTEX
  5
D25
  8
0
 62
     7
 10
788.0601325329942
 20
62.51040675897795
 30
0.0
  0
VERTEX
  5
D26
  8
0
 62
     7
 10
789.1267359583975
 20
62.91378520608282
 30
0.0
  0
VERTEX
  5
D27
  8
0
 62
     7
 10
790.1529999186197
 20
63.50061391601562
 30
0.0
  0
VERTEX
  5
D28
  8
0
 62
     7
 10
791.1330862782921
 20
64.25270201903292
 30
0.0
  0
VERTEX
  5
D29
  8
0
 62
     7
 10
792.0611569020464
 20
65.15185864539126
 30
0.0
  0
VERTEX
  5
D2A
  8
0
 62
     7
 10
792.931373654514
 20
66.17989292534722
 30
0.0
  0
VERTEX
  5
D2B
  8
0
 62
     7
 10
793.7378984003263
 20
67.31861398915734
 30
0.0
  0
VERTEX
  5
D2C
  8
0
 62
     7
 10
794.4748930041153
 20
68.54983096707818
 30
0.0
  0
VERTEX
  5
D2D
  8
0
 62
     7
 10
795.1365193305122
 20
69.85535298936631
 30
0.0
  0
VERTEX
  5
D2E
  8
0
 62
     7
 10
795.7169392441485
 20
71.21698918627828
 30
0.0
  0
VERTEX
  5
D2F
  8
0
 62
     7
 10
796.2103146096563
 20
72.61654868807065
 30
0.0
  0
VERTEX
  5
D30
  8
0
 62
     7
 10
796.6108072916667
 20
74.03584062499999
 30
0.0
  0
VERTEX
  5
D31
  8
0
 62
     7
 10
796.9125791548113
 20
75.45667412732283
 30
0.0
  0
VERTEX
  5
D32
  8
0
 62
     7
 10
797.1097920637217
 20
76.86085832529577
 30
0.0
  0
VERTEX
  5
D33
  8
0
 62
     7
 10
797.1966078830294
 20
78.23020234917534
 30
0.0
  0
VERTEX
  5
D34
  8
0
 62
     7
 10
797.1671884773662
 20
79.5465153292181
 30
0.0
  0
VERTEX
  5
D35
  8
0
 62
     7
 10
797.0156957113635
 20
80.79160639568062
 30
0.0
  0
VERTEX
  5
D36
  8
0
 62
     7
 10
796.7362914496526
 20
81.94728467881944
 30
0.0
  0
VERTEX
  5
D37
  8
0
 62
     7
 10
796.3231375568657
 20
82.99535930889112
 30
0.0
  0
VERTEX
  5
D38
  8
0
 62
     7
 10
795.7703958976336
 20
83.91763941615226
 30
0.0
  0
VERTEX
  5
D39
  8
0
 62
     7
 10
795.0722283365884
 20
84.69593413085937
 30
0.0
  0
VERTEX
  5
D3A
  8
0
 62
     7
 10
794.2227967383617
 20
85.31205258326902
 30
0.0
  0
VERTEX
  5
D3B
  8
0
 62
     7
 10
793.2162629675846
 20
85.74780390363779
 30
0.0
  0
VERTEX
  5
D3C
  8
0
 62
     7
 10
792.0467888888888
 20
85.98499722222222
 30
0.0
  0
SEQEND
  5
D3D
  8
0
 62
     7
  0
POLYLINE
  5
CD
  8
0
 62
     7
 66
     1
 10
0.0
 20
0.0
 30
0.0
  0
VERTEX
  5
D3E
  8
0
 62
     7
 10
786.9061111111112
 20
75.14060833333333
 30
0.0
  0
VERTEX
  5
D3F
  8
0
 62
     7
 10
786.8034256763599
 20
75.13714899811922
 30
0.0
  0
VERTEX
  5
D40
  8
0
 62
     7
 10
786.702598755787
 20
75.12691982060186
 30
0.0
  0
VERTEX
  5
D41
  8
0
 62
     7
 10
786.6038535915798
 20
75.11014404296876
 30
0.0
  0
VERTEX
  5
D42
  8
0
 62
     7
 10
786.507413425926
 20
75.08704490740742
 30
0.0
  0
VERTEX
  5
D43
  8
0
 62
     7
 10
786.4135015010128
 20
75.05784565610531
 30
0.0
  0
VERTEX
  5
D44
  8
0
 62
     7
 10
786.3223410590277
 20
75.02276953124999
 30
0.0
  0
VERTEX
  5
D45
  8
0
 62
     7
 10
786.2341553421586
 20
74.98203977502894
 30
0.0
  0
VERTEX
  5
D46
  8
0
 62
     7
 10
786.1491675925927
 20
74.93587962962962
 30
0.0
  0
VERTEX
  5
D47
  8
0
 62
     7
 10
786.0676010525173
 20
74.88451233723957
 30
0.0
  0
VERTEX
  5
D48
  8
0
 62
     7
 10
785.9896789641202
 20
74.82816114004629
 30
0.0
  0
VERTEX
  5
D49
  8
0
 62
     7
 10
785.915624569589
 20
74.76704928023726
 30
0.0
  0
VERTEX
  5
D4A
  8
0
 62
     7
 10
785.845661111111
 20
74.7014
 30
0.0
  0
VERTEX
  5
D4B
  8
0
 62
     7
 10
785.7800118308738
 20
74.63143654152199
 30
0.0
  0
VERTEX
  5
D4C
  8
0
 62
     7
 10
785.7188999710647
 20
74.55738214699073
 30
0.0
  0
VERTEX
  5
D4D
  8
0
 62
     7
 10
785.6625487738713
 20
74.47946005859374
 30
0.0
  0
VERTEX
  5
D4E
  8
0
 62
     7
 10
785.6111814814815
 20
74.3978935185185
 30
0.0
  0
VERTEX
  5
D4F
  8
0
 62
     7
 10
785.565021336082
 20
74.31290576895253
 30
0.0
  0
VERTEX
  5
D50
  8
0
 62
     7
 10
785.524291579861
 20
74.22472005208333
 30
0.0
  0
VERTEX
  5
D51
  8
0
 62
     7
 10
785.4892154550057
 20
74.13355961009837
 30
0.0
  0
VERTEX
  5
D52
  8
0
 62
     7
 10
785.4600162037036
 20
74.03964768518517
 30
0.0
  0
VERTEX
  5
D53
  8
0
 62
     7
 10
785.4369170681422
 20
73.94320751953126
 30
0.0
  0
VERTEX
  5
D54
  8
0
 62
     7
 10
785.4201412905092
 20
73.84446235532405
 30
0.0
  0
VERTEX
  5
D55
  8
0
 62
     7
 10
785.4099121129917
 20
73.74363543475116
 30
0.0
  0
VERTEX
  5
D56
  8
0
 62
     7
 10
785.4064527777776
 20
73.64094999999999
 30
0.0
  0
SEQEND
  5
D57
  8
0
 62
     7
  0
POLYLINE
  5
CE
  8
0
 62
     7
 66
     1
 10
0.0
 20
0.0
 30
0.0
  0
VERTEX
  5
D58
  8
0
 62
     7
 10
785.4064527777776
 20
73.64094999999999
 30
0.0
  0
VERTEX
  5
D59
  8
0
 62
     7
 10
785.4099121129917
 20
73.53826456524882
 30
0.0
  0
VERTEX
  5
D5A
  8
0
 62
     7
 10
785.4201412905092
 20
73.43743764467591
 30
0.0
  0
VERTEX
  5
D5B
  8
0
 62
     7
 10
785.4369170681422
 20
73.33869248046872
 30
0.0
  0
VERTEX
  5
D5C
  8
0
 62
     7
 10
785.4600162037036
 20
73.2422523148148
 30
0.0
  0
VERTEX
  5
D5D
  8
0
 62
     7
 10
785.4892154550057
 20
73.14834038990162
 30
0.0
  0
VERTEX
  5
D5E
  8
0
 62
     7
 10
785.5242915798609
 20
73.05717994791665
 30
0.0
  0
VERTEX
  5
D5F
  8
0
 62
     7
 10
785.5650213360822
 20
72.96899423104745
 30
0.0
  0
VERTEX
  5
D60
  8
0
 62
     7
 10
785.6111814814814
 20
72.88400648148146
 30
0.0
  0
VERTEX
  5
D61
  8
0
 62
     7
 10
785.6625487738715
 20
72.80243994140622
 30
0.0
  0
VERTEX
  5
D62
  8
0
 62
     7
 10
785.7188999710647
 20
72.72451785300926
 30
0.0
  0
VERTEX
  5
D63
  8
0
 62
     7
 10
785.7800118308738
 20
72.65046345847801
 30
0.0
  0
VERTEX
  5
D64
  8
0
 62
     7
 10
785.845661111111
 20
72.58049999999999
 30
0.0
  0
VERTEX
  5
D65
  8
0
 62
     7
 10
785.915624569589
 20
72.51485071976273
 30
0.0
  0
VERTEX
  5
D66
  8
0
 62
     7
 10
785.9896789641202
 20
72.45373885995369
 30
0.0
  0
VERTEX
  5
D67
  8
0
 62
     7
 10
786.0676010525174
 20
72.39738766276041
 30
0.0
  0
VERTEX
  5
D68
  8
0
 62
     7
 10
786.1491675925926
 20
72.34602037037035
 30
0.0
  0
VERTEX
  5
D69
  8
0
 62
     7
 10
786.2341553421585
 20
72.29986022497106
 30
0.0
  0
VERTEX
  5
D6A
  8
0
 62
     7
 10
786.3223410590277
 20
72.25913046875
 30
0.0
  0
VERTEX
  5
D6B
  8
0
 62
     7
 10
786.4135015010127
 20
72.22405434389466
 30
0.0
  0
VERTEX
  5
D6C
  8
0
 62
     7
 10
786.507413425926
 20
72.19485509259258
 30
0.0
  0
VERTEX
  5
D6D
  8
0
 62
     7
 10
786.6038535915799
 20
72.17175595703125
 30
0.0
  0
VERTEX
  5
D6E
  8
0
 62
     7
 10
786.702598755787
 20
72.15498017939815
 30
0.0
  0
VERTEX
  5
D6F
  8
0
 62
     7
 10
786.8034256763599
 20
72.14475100188078
 30
0.0
  0
VERTEX
  5
D70
  8
0
 62
     7
 10
786.9061111111112
 20
72.14129166666666
 30
0.0
  0
SEQEND
  5
D71
  8
0
 62
     7
  0
POLYLINE
  5
CF
  8
0
 62
     7
 66
     1
 10
0.0
 20
0.0
 30
0.0
  0
VERTEX
  5
D72
  8
0
 62
     7
 10
786.9061111111112
 20
72.14129166666666
 30
0.0
  0
VERTEX
  5
D73
  8
0
 62
     7
 10
787.0087965458624
 20
72.14475100188079
 30
0.0
  0
VERTEX
  5
D74
  8
0
 62
     7
 10
787.1096234664351
 20
72.15498017939812
 30
0.0
  0
VERTEX
  5
D75
  8
0
 62
     7
 10
787.2083686306422
 20
72.17175595703124
 30
0.0
  0
VERTEX
  5
D76
  8
0
 62
     7
 10
787.3048087962961
 20
72.19485509259259
 30
0.0
  0
VERTEX
  5
D77
  8
0
 62
     7
 10
787.3987207212094
 20
72.22405434389466
 30
0.0
  0
VERTEX
  5
D78
  8
0
 62
     7
 10
787.4898811631945
 20
72.25913046874999
 30
0.0
  0
VERTEX
  5
D79
  8
0
 62
     7
 10
787.5780668800637
 20
72.29986022497107
 30
0.0
  0
VERTEX
  5
D7A
  8
0
 62
     7
 10
787.6630546296296
 20
72.34602037037037
 30
0.0
  0
VERTEX
  5
D7B
  8
0
 62
     7
 10
787.7446211697048
 20
72.39738766276042
 30
0.0
  0
VERTEX
  5
D7C
  8
0
 62
     7
 10
787.8225432581019
 20
72.45373885995369
 30
0.0
  0
VERTEX
  5
D7D
  8
0
 62
     7
 10
787.8965976526331
 20
72.51485071976273
 30
0.0
  0
VERTEX
  5
D7E
  8
0
 62
     7
 10
787.9665611111111
 20
72.58049999999999
 30
0.0
  0
VERTEX
  5
D7F
  8
0
 62
     7
 10
788.0322103913484
 20
72.65046345847801
 30
0.0
  0
VERTEX
  5
D80
  8
0
 62
     7
 10
788.0933222511574
 20
72.72451785300926
 30
0.0
  0
VERTEX
  5
D81
  8
0
 62
     7
 10
788.1496734483507
 20
72.80243994140625
 30
0.0
  0
VERTEX
  5
D82
  8
0
 62
     7
 10
788.2010407407408
 20
72.88400648148148
 30
0.0
  0
VERTEX
  5
D83
  8
0
 62
     7
 10
788.2472008861398
 20
72.96899423104745
 30
0.0
  0
VERTEX
  5
D84
  8
0
 62
     7
 10
788.2879306423612
 20
73.05717994791667
 30
0.0
  0
VERTEX
  5
D85
  8
0
 62
     7
 10
788.3230067672164
 20
73.14834038990162
 30
0.0
  0
VERTEX
  5
D86
  8
0
 62
     7
 10
788.3522060185185
 20
73.2422523148148
 30
0.0
  0
VERTEX
  5
D87
  8
0
 62
     7
 10
788.3753051540798
 20
73.33869248046875
 30
0.0
  0
VERTEX
  5
D88
  8
0
 62
     7
 10
788.3920809317129
 20
73.4374376446759
 30
0.0
  0
VERTEX
  5
D89
  8
0
 62
     7
 10
788.4023101092304
 20
73.53826456524884
 30
0.0
  0
VERTEX
  5
D8A
  8
0
 62
     7
 10
788.4057694444444
 20
73.64094999999999
 30
0.0
  0
SEQEND
  5
D8B
  8
0
 62
     7
  0
POLYLINE
  5
D0
  8
0
 62
     7
 66
     1
 10
0.0
 20
0.0
 30
0.0
  0
VERTEX
  5
D8C
  8
0
 62
     7
 10
788.4057694444444
 20
73.64094999999999
 30
0.0
  0
VERTEX
  5
D8D
  8
0
 62
     7
 10
788.4023101092304
 20
73.74363543475114
 30
0.0
  0
VERTEX
  5
D8E
  8
0
 62
     7
 10
788.3920809317129
 20
73.84446235532405
 30
0.0
  0
VERTEX
  5
D8F
  8
0
 62
     7
 10
788.3753051540798
 20
73.94320751953124
 30
0.0
  0
VERTEX
  5
D90
  8
0
 62
     7
 10
788.3522060185187
 20
74.03964768518517
 30
0.0
  0
VERTEX
  5
D91
  8
0
 62
     7
 10
788.3230067672164
 20
74.13355961009839
 30
0.0
  0
VERTEX
  5
D92
  8
0
 62
     7
 10
788.2879306423611
 20
74.22472005208333
 30
0.0
  0
VERTEX
  5
D93
  8
0
 62
     7
 10
788.24720088614
 20
74.31290576895255
 30
0.0
  0
VERTEX
  5
D94
  8
0
 62
     7
 10
788.2010407407407
 20
74.3978935185185
 30
0.0
  0
VERTEX
  5
D95
  8
0
 62
     7
 10
788.1496734483508
 20
74.47946005859376
 30
0.0
  0
VERTEX
  5
D96
  8
0
 62
     7
 10
788.0933222511574
 20
74.55738214699073
 30
0.0
  0
VERTEX
  5
D97
  8
0
 62
     7
 10
788.0322103913484
 20
74.63143654152199
 30
0.0
  0
VERTEX
  5
D98
  8
0
 62
     7
 10
787.9665611111111
 20
74.7014
 30
0.0
  0
VERTEX
  5
D99
  8
0
 62
     7
 10
787.8965976526331
 20
74.76704928023726
 30
0.0
  0
VERTEX
  5
D9A
  8
0
 62
     7
 10
787.8225432581019
 20
74.82816114004629
 30
0.0
  0
VERTEX
  5
D9B
  8
0
 62
     7
 10
787.7446211697049
 20
74.88451233723958
 30
0.0
  0
VERTEX
  5
D9C
  8
0
 62
     7
 10
787.6630546296296
 20
74.93587962962962
 30
0.0
  0
VERTEX
  5
D9D
  8
0
 62
     7
 10
787.5780668800636
 20
74.98203977502894
 30
0.0
  0
VERTEX
  5
D9E
  8
0
 62
     7
 10
787.4898811631945
 20
75.02276953125
 30
0.0
  0
VERTEX
  5
D9F
  8
0
 62
     7
 10
787.3987207212095
 20
75.05784565610531
 30
0.0
  0
VERTEX
  5
DA0
  8
0
 62
     7
 10
787.3048087962964
 20
75.0870449074074
 30
0.0
  0
VERTEX
  5
DA1
  8
0
 62
     7
 10
787.2083686306423
 20
75.11014404296876
 30
0.0
  0
VERTEX
  5
DA2
  8
0
 62
     7
 10
787.1096234664353
 20
75.12691982060186
 30
0.0
  0
VERTEX
  5
DA3
  8
0
 62
     7
 10
787.0087965458624
 20
75.13714899811922
 30
0.0
  0
VERTEX
  5
DA4
  8
0
 62
     7
 10
786.9061111111112
 20
75.14060833333333
 30
0.0
  0
SEQEND
  5
DA5
  8
0
 62
     7
  0
POLYLINE
  5
D1
  8
0
 62
     7
 66
     1
 10
0.0
 20
0.0
 30
0.0
  0
VERTEX
  5
DA6
  8
0
 62
     7
 10
772.3907166666665
 20
74.40577222222221
 30
0.0
  0
VERTEX
  5
DA7
  8
0
 62
     7
 10
772.2880312319153
 20
74.4023128870081
 30
0.0
  0
VERTEX
  5
DA8
  8
0
 62
     7
 10
772.1872043113424
 20
74.39208370949075
 30
0.0
  0
VERTEX
  5
DA9
  8
0
 62
     7
 10
772.0884591471353
 20
74.37530793185762
 30
0.0
  0
VERTEX
  5
DAA
  8
0
 62
     7
 10
771.9920189814814
 20
74.3522087962963
 30
0.0
  0
VERTEX
  5
DAB
  8
0
 62
     7
 10
771.8981070565682
 20
74.3230095449942
 30
0.0
  0
VERTEX
  5
DAC
  8
0
 62
     7
 10
771.8069466145831
 20
74.28793342013887
 30
0.0
  0
VERTEX
  5
DAD
  8
0
 62
     7
 10
771.7187608977141
 20
74.24720366391782
 30
0.0
  0
VERTEX
  5
DAE
  8
0
 62
     7
 10
771.6337731481483
 20
74.2010435185185
 30
0.0
  0
VERTEX
  5
DAF
  8
0
 62
     7
 10
771.5522066080729
 20
74.14967622612846
 30
0.0
  0
VERTEX
  5
DB0
  8
0
 62
     7
 10
771.474284519676
 20
74.09332502893518
 30
0.0
  0
VERTEX
  5
DB1
  8
0
 62
     7
 10
771.4002301251446
 20
74.03221316912615
 30
0.0
  0
VERTEX
  5
DB2
  8
0
 62
     7
 10
771.3302666666666
 20
73.96656388888889
 30
0.0
  0
VERTEX
  5
DB3
  8
0
 62
     7
 10
771.2646173864293
 20
73.89660043041087
 30
0.0
  0
VERTEX
  5
DB4
  8
0
 62
     7
 10
771.2035055266203
 20
73.82254603587961
 30
0.0
  0
VERTEX
  5
DB5
  8
0
 62
     7
 10
771.1471543294272
 20
73.74462394748262
 30
0.0
  0
VERTEX
  5
DB6
  8
0
 62
     7
 10
771.0957870370369
 20
73.6630574074074
 30
0.0
  0
VERTEX
  5
DB7
  8
0
 62
     7
 10
771.0496268916378
 20
73.57806965784143
 30
0.0
  0
VERTEX
  5
DB8
  8
0
 62
     7
 10
771.0088971354165
 20
73.48988394097223
 30
0.0
  0
VERTEX
  5
DB9
  8
0
 62
     7
 10
770.9738210105613
 20
73.39872349898727
 30
0.0
  0
VERTEX
  5
DBA
  8
0
 62
     7
 10
770.9446217592591
 20
73.30481157407407
 30
0.0
  0
VERTEX
  5
DBB
  8
0
 62
     7
 10
770.9215226236979
 20
73.20837140842013
 30
0.0
  0
VERTEX
  5
DBC
  8
0
 62
     7
 10
770.9047468460648
 20
73.10962624421295
 30
0.0
  0
VERTEX
  5
DBD
  8
0
 62
     7
 10
770.8945176685473
 20
73.00879932364003
 30
0.0
  0
VERTEX
  5
DBE
  8
0
 62
     7
 10
770.8910583333333
 20
72.90611388888888
 30
0.0
  0
SEQEND
  5
DBF
  8
0
 62
     7
  0
POLYLINE
  5
D2
  8
0
 62
     7
 66
     1
 10
0.0
 20
0.0
 30
0.0
  0
VERTEX
  5
DC0
  8
0
 62
     7
 10
770.8910583333333
 20
72.90611388888888
 30
0.0
  0
VERTEX
  5
DC1
  8
0
 62
     7
 10
770.8945176685473
 20
72.80342845413772
 30
0.0
  0
VERTEX
  5
DC2
  8
0
 62
     7
 10
770.9047468460649
 20
72.70260153356482
 30
0.0
  0
VERTEX
  5
DC3
  8
0
 62
     7
 10
770.9215226236978
 20
72.60385636935763
 30
0.0
  0
VERTEX
  5
DC4
  8
0
 62
     7
 10
770.9446217592592
 20
72.5074162037037
 30
0.0
  0
VERTEX
  5
DC5
  8
0
 62
     7
 10
770.9738210105612
 20
72.41350427879051
 30
0.0
  0
VERTEX
  5
DC6
  8
0
 62
     7
 10
771.0088971354166
 20
72.32234383680556
 30
0.0
  0
VERTEX
  5
DC7
  8
0
 62
     7
 10
771.0496268916376
 20
72.23415811993634
 30
0.0
  0
VERTEX
  5
DC8
  8
0
 62
     7
 10
771.0957870370371
 20
72.14917037037037
 30
0.0
  0
VERTEX
  5
DC9
  8
0
 62
     7
 10
771.1471543294269
 20
72.06760383029514
 30
0.0
  0
VERTEX
  5
DCA
  8
0
 62
     7
 10
771.2035055266203
 20
71.98968174189815
 30
0.0
  0
VERTEX
  5
DCB
  8
0
 62
     7
 10
771.2646173864293
 20
71.9156273473669
 30
0.0
  0
VERTEX
  5
DCC
  8
0
 62
     7
 10
771.3302666666666
 20
71.84566388888888
 30
0.0
  0
VERTEX
  5
DCD
  8
0
 62
     7
 10
771.4002301251446
 20
71.78001460865161
 30
0.0
  0
VERTEX
  5
DCE
  8
0
 62
     7
 10
771.474284519676
 20
71.7189027488426
 30
0.0
  0
VERTEX
  5
DCF
  8
0
 62
     7
 10
771.5522066080729
 20
71.66255155164932
 30
0.0
  0
VERTEX
  5
DD0
  8
0
 62
     7
 10
771.6337731481481
 20
71.61118425925926
 30
0.0
  0
VERTEX
  5
DD1
  8
0
 62
     7
 10
771.718760897714
 20
71.56502411385995
 30
0.0
  0
VERTEX
  5
DD2
  8
0
 62
     7
 10
771.8069466145832
 20
71.52429435763888
 30
0.0
  0
VERTEX
  5
DD3
  8
0
 62
     7
 10
771.898107056568
 20
71.48921823278356
 30
0.0
  0
VERTEX
  5
DD4
  8
0
 62
     7
 10
771.9920189814814
 20
71.46001898148148
 30
0.0
  0
VERTEX
  5
DD5
  8
0
 62
     7
 10
772.0884591471354
 20
71.43691984592014
 30
0.0
  0
VERTEX
  5
DD6
  8
0
 62
     7
 10
772.1872043113424
 20
71.42014406828704
 30
0.0
  0
VERTEX
  5
DD7
  8
0
 62
     7
 10
772.2880312319153
 20
71.40991489076967
 30
0.0
  0
VERTEX
  5
DD8
  8
0
 62
     7
 10
772.3907166666665
 20
71.40645555555555
 30
0.0
  0
SEQEND
  5
DD9
  8
0
 62
     7
  0
POLYLINE
  5
D3
  8
0
 62
     7
 66
     1
 10
0.0
 20
0.0
 30
0.0
  0
VERTEX
  5
DDA
  8
0
 62
     7
 10
772.3907166666665
 20
71.40645555555555
 30
0.0
  0
VERTEX
  5
DDB
  8
0
 62
     7
 10
772.4934021014178
 20
71.40991489076968
 30
0.0
  0
VERTEX
  5
DDC
  8
0
 62
     7
 10
772.5942290219905
 20
71.42014406828703
 30
0.0
  0
VERTEX
  5
DDD
  8
0
 62
     7
 10
772.6929741861977
 20
71.43691984592014
 30
0.0
  0
VERTEX
  5
DDE
  8
0
 62
     7
 10
772.7894143518517
 20
71.46001898148147
 30
0.0
  0
VERTEX
  5
DDF
  8
0
 62
     7
 10
772.883326276765
 20
71.48921823278356
 30
0.0
  0
VERTEX
  5
DE0
  8
0
 62
     7
 10
772.9744867187499
 20
71.5242943576389
 30
0.0
  0
VERTEX
  5
DE1
  8
0
 62
     7
 10
773.0626724356191
 20
71.56502411385995
 30
0.0
  0
VERTEX
  5
DE2
  8
0
 62
     7
 10
773.147660185185
 20
71.61118425925925
 30
0.0
  0
VERTEX
  5
DE3
  8
0
 62
     7
 10
773.2292267252603
 20
71.66255155164932
 30
0.0
  0
VERTEX
  5
DE4
  8
0
 62
     7
 10
773.3071488136574
 20
71.7189027488426
 30
0.0
  0
VERTEX
  5
DE5
  8
0
 62
     7
 10
773.3812032081886
 20
71.78001460865161
 30
0.0
  0
VERTEX
  5
DE6
  8
0
 62
     7
 10
773.4511666666666
 20
71.84566388888888
 30
0.0
  0
VERTEX
  5
DE7
  8
0
 62
     7
 10
773.5168159469039
 20
71.9156273473669
 30
0.0
  0
VERTEX
  5
DE8
  8
0
 62
     7
 10
773.577927806713
 20
71.98968174189815
 30
0.0
  0
VERTEX
  5
DE9
  8
0
 62
     7
 10
773.6342790039062
 20
72.06760383029514
 30
0.0
  0
VERTEX
  5
DEA
  8
0
 62
     7
 10
773.6856462962962
 20
72.14917037037037
 30
0.0
  0
VERTEX
  5
DEB
  8
0
 62
     7
 10
773.7318064416955
 20
72.23415811993632
 30
0.0
  0
VERTEX
  5
DEC
  8
0
 62
     7
 10
773.7725361979166
 20
72.32234383680554
 30
0.0
  0
VERTEX
  5
DED
  8
0
 62
     7
 10
773.807612322772
 20
72.41350427879051
 30
0.0
  0
VERTEX
  5
DEE
  8
0
 62
     7
 10
773.836811574074
 20
72.5074162037037
 30
0.0
  0
VERTEX
  5
DEF
  8
0
 62
     7
 10
773.8599107096354
 20
72.60385636935763
 30
0.0
  0
VERTEX
  5
DF0
  8
0
 62
     7
 10
773.8766864872684
 20
72.7026015335648
 30
0.0
  0
VERTEX
  5
DF1
  8
0
 62
     7
 10
773.8869156647859
 20
72.80342845413772
 30
0.0
  0
VERTEX
  5
DF2
  8
0
 62
     7
 10
773.890375
 20
72.90611388888888
 30
0.0
  0
SEQEND
  5
DF3
  8
0
 62
     7
  0
POLYLINE
  5
D4
  8
0
 62
     7
 66
     1
 10
0.0
 20
0.0
 30
0.0
  0
VERTEX
  5
DF4
  8
0
 62
     7
 10
773.890375
 20
72.90611388888888
 30
0.0
  0
VERTEX
  5
DF5
  8
0
 62
     7
 10
773.8869156647859
 20
73.00879932364003
 30
0.0
  0
VERTEX
  5
DF6
  8
0
 62
     7
 10
773.8766864872684
 20
73.10962624421295
 30
0.0
  0
VERTEX
  5
DF7
  8
0
 62
     7
 10
773.8599107096353
 20
73.20837140842013
 30
0.0
  0
VERTEX
  5
DF8
  8
0
 62
     7
 10
773.8368115740741
 20
73.30481157407407
 30
0.0
  0
VERTEX
  5
DF9
  8
0
 62
     7
 10
773.807612322772
 20
73.39872349898727
 30
0.0
  0
VERTEX
  5
DFA
  8
0
 62
     7
 10
773.7725361979167
 20
73.48988394097222
 30
0.0
  0
VERTEX
  5
DFB
  8
0
 62
     7
 10
773.7318064416954
 20
73.57806965784143
 30
0.0
  0
VERTEX
  5
DFC
  8
0
 62
     7
 10
773.6856462962962
 20
73.6630574074074
 30
0.0
  0
VERTEX
  5
DFD
  8
0
 62
     7
 10
773.6342790039062
 20
73.74462394748264
 30
0.0
  0
VERTEX
  5
DFE
  8
0
 62
     7
 10
773.577927806713
 20
73.82254603587961
 30
0.0
  0
VERTEX
  5
DFF
  8
0
 62
     7
 10
773.5168159469039
 20
73.89660043041087
 30
0.0
  0
VERTEX
  5
E00
  8
0
 62
     7
 10
773.4511666666666
 20
73.96656388888889
 30
0.0
  0
VERTEX
  5
E01
  8
0
 62
     7
 10
773.3812032081886
 20
74.03221316912615
 30
0.0
  0
VERTEX
  5
E02
  8
0
 62
     7
 10
773.3071488136574
 20
74.09332502893518
 30
0.0
  0
VERTEX
  5
E03
  8
0
 62
     7
 10
773.2292267252603
 20
74.14967622612846
 30
0.0
  0
VERTEX
  5
E04
  8
0
 62
     7
 10
773.1476601851851
 20
74.20104351851852
 30
0.0
  0
VERTEX
  5
E05
  8
0
 62
     7
 10
773.0626724356192
 20
74.24720366391782
 30
0.0
  0
VERTEX
  5
E06
  8
0
 62
     7
 10
772.9744867187499
 20
74.28793342013888
 30
0.0
  0
VERTEX
  5
E07
  8
0
 62
     7
 10
772.8833262767649
 20
74.3230095449942
 30
0.0
  0
VERTEX
  5
E08
  8
0
 62
     7
 10
772.7894143518517
 20
74.35220879629628
 30
0.0
  0
VERTEX
  5
E09
  8
0
 62
     7
 10
772.6929741861978
 20
74.37530793185763
 30
0.0
  0
VERTEX
  5
E0A
  8
0
 62
     7
 10
772.5942290219907
 20
74.39208370949072
 30
0.0
  0
VERTEX
  5
E0B
  8
0
 62
     7
 10
772.4934021014178
 20
74.4023128870081
 30
0.0
  0
VERTEX
  5
E0C
  8
0
 62
     7
 10
772.3907166666665
 20
74.40577222222221
 30
0.0
  0
SEQEND
  5
E0D
  8
0
 62
     7
  0
ENDSEC
  0
EOF
