  0
SECTION
  2
HEADER
  9
$ACADVER
  1
AC1012
  9
$DWGCODEPAGE
  3
ascii
  9
$INSBASE
 10
0.0
 20
0.0
 30
0.0
  9
$EXTMIN
 10
1.000000000000000E+20
 20
1.000000000000000E+20
 30
1.000000000000000E+20
  9
$EXTMAX
 10
-1.000000000000000E+20
 20
-1.000000000000000E+20
 30
-1.000000000000000E+20
  9
$LIMMIN
 10
0.0
 20
0.0
  9
$LIMMAX
 10
12.0
 20
9.0
  9
$ORTHOMODE
 70
     0
  9
$REGENMODE
 70
     1
  9
$FILLMODE
 70
     1
  9
$QTEXTMODE
 70
     0
  9
$MIRRTEXT
 70
     1
  9
$DRAGMODE
 70
     2
  9
$LTSCALE
 40
1.0
  9
$OSMODE
 70
    37
  9
$ATTMODE
 70
     1
  9
$TEXTSIZE
 40
0.2
  9
$TRACEWID
 40
0.05
  9
$TEXTSTYLE
  7
STANDARD
  9
$CLAYER
  8
0
  9
$CELTYPE
  6
BYLAYER
  9
$CECOLOR
 62
   256
  9
$CELTSCALE
 40
1.0
  9
$DELOBJ
 70
     1
  9
$DISPSILH
 70
     0
  9
$DIMSCALE
 40
1.0
  9
$DIMASZ
 40
0.18
  9
$DIMEXO
 40
0.0625
  9
$DIMDLI
 40
0.38
  9
$DIMRND
 40
0.0
  9
$DIMDLE
 40
0.0
  9
$DIMEXE
 40
0.18
  9
$DIMTP
 40
0.0
  9
$DIMTM
 40
0.0
  9
$DIMTXT
 40
0.18
  9
$DIMCEN
 40
0.09
  9
$DIMTSZ
 40
0.0
  9
$DIMTOL
 70
     0
  9
$DIMLIM
 70
     0
  9
$DIMTIH
 70
     1
  9
$DIMTOH
 70
     1
  9
$DIMSE1
 70
     0
  9
$DIMSE2
 70
     0
  9
$DIMTAD
 70
     0
  9
$DIMZIN
 70
     0
  9
$DIMBLK
  1

  9
$DIMASO
 70
     1
  9
$DIMSHO
 70
     1
  9
$DIMPOST
  1

  9
$DIMAPOST
  1

  9
$DIMALT
 70
     0
  9
$DIMALTD
 70
     2
  9
$DIMALTF
 40
25.4
  9
$DIMLFAC
 40
1.0
  9
$DIMTOFL
 70
     0
  9
$DIMTVP
 40
0.0
  9
$DIMTIX
 70
     0
  9
$DIMSOXD
 70
     0
  9
$DIMSAH
 70
     0
  9
$DIMBLK1
  1

  9
$DIMBLK2
  1

  9
$DIMSTYLE
  2
STANDARD
  9
$DIMCLRD
 70
     0
  9
$DIMCLRE
 70
     0
  9
$DIMCLRT
 70
     0
  9
$DIMTFAC
 40
1.0
  9
$DIMGAP
 40
0.09
  9
$DIMJUST
 70
     0
  9
$DIMSD1
 70
     0
  9
$DIMSD2
 70
     0
  9
$DIMTOLJ
 70
     1
  9
$DIMTZIN
 70
     0
  9
$DIMALTZ
 70
     0
  9
$DIMALTTZ
 70
     0
  9
$DIMFIT
 70
     3
  9
$DIMUPT
 70
     0
  9
$DIMUNIT
 70
     2
  9
$DIMDEC
 70
     4
  9
$DIMTDEC
 70
     4
  9
$DIMALTU
 70
     2
  9
$DIMALTTD
 70
     2
  9
$DIMTXSTY
  7
STANDARD
  9
$DIMAUNIT
 70
     0
  9
$LUNITS
 70
     2
  9
$LUPREC
 70
     4
  9
$SKETCHINC
 40
0.1
  9
$FILLETRAD
 40
0.5
  9
$AUNITS
 70
     0
  9
$AUPREC
 70
     0
  9
$MENU
  1
.
  9
$ELEVATION
 40
0.0
  9
$PELEVATION
 40
0.0
  9
$THICKNESS
 40
0.0
  9
$LIMCHECK
 70
     0
  9
$CHAMFERA
 40
0.5
  9
$CHAMFERB
 40
0.5
  9
$CHAMFERC
 40
1.0
  9
$CHAMFERD
 40
0.0
  9
$SKPOLY
 70
     0
  9
$TDCREATE
 40
2457738.502331377
  9
$TDUPDATE
 40
2457738.502331389
  9
$TDINDWG
 40
0.0000000116
  9
$TDUSRTIMER
 40
0.0000000116
  9
$USRTIMER
 70
     1
  9
$ANGBASE
 50
0.0
  9
$ANGDIR
 70
     0
  9
$PDMODE
 70
     0
  9
$PDSIZE
 40
0.0
  9
$PLINEWID
 40
0.0
  9
$COORDS
 70
     1
  9
$SPLFRAME
 70
     0
  9
$SPLINETYPE
 70
     6
  9
$SPLINESEGS
 70
     8
  9
$ATTDIA
 70
     0
  9
$ATTREQ
 70
     1
  9
$HANDLING
 70
     1
  9
$HANDSEED
  5
D7
  9
$SURFTAB1
 70
     6
  9
$SURFTAB2
 70
     6
  9
$SURFTYPE
 70
     6
  9
$SURFU
 70
     6
  9
$SURFV
 70
     6
  9
$UCSNAME
  2

  9
$UCSORG
 10
0.0
 20
0.0
 30
0.0
  9
$UCSXDIR
 10
1.0
 20
0.0
 30
0.0
  9
$UCSYDIR
 10
0.0
 20
1.0
 30
0.0
  9
$PUCSNAME
  2

  9
$PUCSORG
 10
0.0
 20
0.0
 30
0.0
  9
$PUCSXDIR
 10
1.0
 20
0.0
 30
0.0
  9
$PUCSYDIR
 10
0.0
 20
1.0
 30
0.0
  9
$USERI1
 70
     0
  9
$USERI2
 70
     0
  9
$USERI3
 70
     0
  9
$USERI4
 70
     0
  9
$USERI5
 70
     0
  9
$USERR1
 40
0.0
  9
$USERR2
 40
0.0
  9
$USERR3
 40
0.0
  9
$USERR4
 40
0.0
  9
$USERR5
 40
0.0
  9
$WORLDVIEW
 70
     1
  9
$SHADEDGE
 70
     3
  9
$SHADEDIF
 70
    70
  9
$TILEMODE
 70
     1
  9
$MAXACTVP
 70
    64
  9
$PINSBASE
 10
0.0
 20
0.0
 30
0.0
  9
$PLIMCHECK
 70
     0
  9
$PEXTMIN
 10
1.000000000000000E+20
 20
1.000000000000000E+20
 30
1.000000000000000E+20
  9
$PEXTMAX
 10
-1.000000000000000E+20
 20
-1.000000000000000E+20
 30
-1.000000000000000E+20
  9
$PLIMMIN
 10
0.0
 20
0.0
  9
$PLIMMAX
 10
12.0
 20
9.0
  9
$UNITMODE
 70
     0
  9
$VISRETAIN
 70
     1
  9
$PLINEGEN
 70
     0
  9
$PSLTSCALE
 70
     1
  9
$TREEDEPTH
 70
  3020
  9
$PICKSTYLE
 70
     1
  9
$CMLSTYLE
  2
STANDARD
  9
$CMLJUST
 70
     0
  9
$CMLSCALE
 40
1.0
  9
$SAVEIMAGES
 70
     1
  0
ENDSEC
  0
SECTION
  2
CLASSES
  0
CLASS
  1
ACDBDICTIONARYWDFLT
  2
AcDbDictionaryWithDefault
  3
ObjectDBX Classes
 90
    32768
280
     0
281
     0
  0
CLASS
  1
VISUALSTYLE
  2
AcDbVisualStyle
  3
ObjectDBX Classes
 90
     4095
280
     0
281
     0
  0
CLASS
  1
XRECORD
  2
AcDbXrecord
  3
AutoCAD 2000
 90
    32768
280
     0
281
     0
  0
CLASS
  1
LWPOLYLINE
  2
AcDbPolyline
  3
AutoCAD 2000
 90
    32768
280
     0
281
     1
  0
CLASS
  1
HATCH
  2
AcDbHatch
  3
AutoCAD 2000
 90
    32768
280
     0
281
     1
  0
CLASS
  1
ACDBPLACEHOLDER
  2
AcDbPlaceHolder
  3
ObjectDBX Classes
 90
        0
280
     0
281
     0
  0
CLASS
  1
LAYOUT
  2
AcDbLayout
  3
ObjectDBX Classes
 90
        0
280
     0
281
     0
  0
ENDSEC
  0
SECTION
  2
TABLES
  0
TABLE
  2
VPORT
  5
8
330
0
100
AcDbSymbolTable
 70
     1
  0
VPORT
  5
29
330
8
100
AcDbSymbolTableRecord
100
AcDbViewportTableRecord
  2
*ACTIVE
 70
     0
 10
0.0
 20
0.0
 11
1.0
 21
1.0
 12
0.0
 22
0.0
 13
0.0
 23
0.0
 14
0.5
 24
0.5
 15
0.5
 25
0.5
 16
0.0
 26
0.0
 36
1.0
 17
811.95458984375
 27
-470.1864013671875
 37
0.0
 40
845.7794677734375
 41
0.5542775627615832
 42
50.0
 43
0.0
 44
0.0
 50
0.0
 51
0.0
 71
     0
 72
   100
 73
     1
 74
     3
 75
     0
 76
     0
 77
     0
 78
     0
  0
ENDTAB
  0
TABLE
  2
LTYPE
  5
5
330
0
100
AcDbSymbolTable
 70
     1
  0
LTYPE
  5
14
330
5
100
AcDbSymbolTableRecord
100
AcDbLinetypeTableRecord
  2
BYBLOCK
 70
     0
  3

 72
    65
 73
     0
 40
0.0
  0
LTYPE
  5
15
330
5
100
AcDbSymbolTableRecord
100
AcDbLinetypeTableRecord
  2
BYLAYER
 70
     0
  3

 72
    65
 73
     0
 40
0.0
  0
LTYPE
  5
16
330
5
100
AcDbSymbolTableRecord
100
AcDbLinetypeTableRecord
  2
CONTINUOUS
 70
     0
  3
Solid line
 72
    65
 73
     0
 40
0.0
  0
ENDTAB
  0
TABLE
  2
LAYER
  5
2
330
0
100
AcDbSymbolTable
 70
     2
  0
LAYER
  5
10
330
2
100
AcDbSymbolTableRecord
100
AcDbLayerTableRecord
  2
0
 70
     0
 62
     7
  6
CONTINUOUS
  0
LAYER
  5
3B
330
2
100
AcDbSymbolTableRecord
100
AcDbLayerTableRecord
  2
LAYER_1
 70
     0
 62
     7
  6
CONTINUOUS
  0
ENDTAB
  0
TABLE
  2
STYLE
  5
3
330
0
100
AcDbSymbolTable
 70
     1
  0
STYLE
  5
11
330
3
100
AcDbSymbolTableRecord
100
AcDbTextStyleTableRecord
  2
STANDARD
 70
     0
 40
0.0
 41
1.0
 50
0.0
 71
     0
 42
0.2
  3
txt
  4

  0
ENDTAB
  0
TABLE
  2
VIEW
  5
6
330
0
100
AcDbSymbolTable
 70
     0
  0
ENDTAB
  0
TABLE
  2
UCS
  5
7
330
0
100
AcDbSymbolTable
 70
     0
  0
ENDTAB
  0
TABLE
  2
APPID
  5
9
330
0
100
AcDbSymbolTable
 70
     1
  0
APPID
  5
12
330
9
100
AcDbSymbolTableRecord
100
AcDbRegAppTableRecord
  2
ACAD
 70
     0
  0
ENDTAB
  0
TABLE
  2
DIMSTYLE
  5
A
330
0
100
AcDbSymbolTable
 70
     1
  0
DIMSTYLE
105
27
330
A
100
AcDbSymbolTableRecord
100
AcDbDimStyleTableRecord
  2
STANDARD
 70
     0
  3

  4

  5

  6

  7

 40
1.0
 41
0.18
 42
0.0625
 43
0.38
 44
0.18
 45
0.0
 46
0.0
 47
0.0
 48
0.0
140
0.18
141
0.09
142
0.0
143
25.4
144
1.0
145
0.0
146
1.0
147
0.09
 71
     0
 72
     0
 73
     1
 74
     1
 75
     0
 76
     0
 77
     0
 78
     0
170
     0
171
     2
172
     0
173
     0
174
     0
175
     0
176
     0
177
     0
178
     0
270
     2
271
     4
272
     4
273
     2
274
     2
340
11
275
     0
280
     0
281
     0
282
     0
283
     1
284
     0
285
     0
286
     0
287
     3
288
     0
  0
ENDTAB
  0
TABLE
  2
BLOCK_RECORD
  5
1
330
0
100
AcDbSymbolTable
 70
     1
  0
BLOCK_RECORD
  5
1F
330
1
100
AcDbSymbolTableRecord
100
AcDbBlockTableRecord
  2
*MODEL_SPACE
  0
BLOCK_RECORD
  5
1B
330
1
100
AcDbSymbolTableRecord
100
AcDbBlockTableRecord
  2
*PAPER_SPACE
  0
ENDTAB
  0
ENDSEC
  0
SECTION
  2
BLOCKS
  0
BLOCK
  5
20
330
1F
100
AcDbEntity
  8
0
100
AcDbBlockBegin
  2
*MODEL_SPACE
 70
     0
 71
     0
 10
0.0
 20
0.0
 30
0.0
  3
*MODEL_SPACE
  1

  0
ENDBLK
  5
21
330
1F
100
AcDbEntity
  8
0
100
AcDbBlockEnd
  0
BLOCK
  5
1C
330
1B
100
AcDbEntity
 67
     1
  8
0
100
AcDbBlockBegin
  2
*PAPER_SPACE
 70
     0
 71
     0
 10
0.0
 20
0.0
 30
0.0
  3
*PAPER_SPACE
  1

  0
ENDBLK
  5
1D
330
1B
100
AcDbEntity
 67
     1
  8
0
100
AcDbBlockEnd
  0
ENDSEC
  0
SECTION
  2
ENTITIES
  0
SPLINE
  5
3C
330
1F
100
AcDbEntity
  8
LAYER_1
 62
   250
100
AcDbSpline
210
0.0
220
0.0
230
1.0
 70
    11
 71
     3
 72
    32
 73
    28
 74
     0
 42
0.0000000001
 43
0.0000000001
 40
0.0
 40
0.0
 40
0.0
 40
0.0
 40
1.0
 40
1.0
 40
1.0
 40
2.0
 40
2.0
 40
2.0
 40
3.0
 40
3.0
 40
3.0
 40
4.0
 40
4.0
 40
4.0
 40
5.0
 40
5.0
 40
5.0
 40
6.0
 40
6.0
 40
6.0
 40
7.0
 40
7.0
 40
7.0
 40
8.0
 40
8.0
 40
8.0
 40
9.0
 40
9.0
 40
9.0
 40
9.0
 10
786.8984375
 20
-154.80859375
 30
0.0
 10
787.74560546875
 20
-152.852783203125
 30
0.0
 10
791.271484375
 20
-154.8310546875
 30
0.0
 10
793.25390625
 20
-154.048583984375
 30
0.0
 10
794.84619140625
 20
-153.42041015625
 30
0.0
 10
795.9658203125
 20
-151.9443359375
 30
0.0
 10
797.39892578125
 20
-151.009033203125
 30
0.0
 10
798.20849609375
 20
-150.480712890625
 30
0.0
 10
799.01953125
 20
-149.18798828125
 30
0.0
 10
799.912109375
 20
-149.557861328125
 30
0.0
 10
800.35888671875
 20
-149.742919921875
 30
0.0
 10
800.224609375
 20
-150.48046875
 30
0.0
 10
800.2880859375
 20
-150.95947265625
 30
0.0
 10
800.47705078125
 20
-152.396728515625
 30
0.0
 10
800.8427734375
 20
-153.973388671875
 30
0.0
 10
800.2880859375
 20
-155.312744140625
 30
0.0
 10
799.7333984375
 20
-156.65185546875
 30
0.0
 10
798.517578125
 20
-157.764892578125
 30
0.0
 10
797.2099609375
 20
-158.390869140625
 30
0.0
 10
795.8271484375
 20
-159.052734375
 30
0.0
 10
794.1484375
 20
-159.11328125
 30
0.0
 10
792.63232421875
 20
-158.884521484375
 30
0.0
 10
791.1953125
 20
-158.667724609375
 30
0.0
 10
789.7626953125
 20
-158.061767578125
 30
0.0
 10
788.62548828125
 20
-157.157470703125
 30
0.0
 10
787.86572265625
 20
-156.55322265625
 30
0.0
 10
786.51220703125
 20
-155.699462890625
 30
0.0
 10
786.8984375
 20
-154.80859375
 30
0.0
  0
SPLINE
  5
3D
330
1F
100
AcDbEntity
  8
LAYER_1
 62
   250
100
AcDbSpline
210
0.0
220
0.0
230
1.0
 70
    11
 71
     3
 72
    32
 73
    28
 74
     0
 42
0.0000000001
 43
0.0000000001
 40
0.0
 40
0.0
 40
0.0
 40
0.0
 40
1.0
 40
1.0
 40
1.0
 40
2.0
 40
2.0
 40
2.0
 40
3.0
 40
3.0
 40
3.0
 40
4.0
 40
4.0
 40
4.0
 40
5.0
 40
5.0
 40
5.0
 40
6.0
 40
6.0
 40
6.0
 40
7.0
 40
7.0
 40
7.0
 40
8.0
 40
8.0
 40
8.0
 40
9.0
 40
9.0
 40
9.0
 40
9.0
 10
823.6328125
 20
-152.7021484375
 30
0.0
 10
825.00537109375
 20
-153.436767578125
 30
0.0
 10
825.09033203125
 20
-155.526611328125
 30
0.0
 10
826.2255859375
 20
-156.591064453125
 30
0.0
 10
827.3759765625
 20
-157.669677734375
 30
0.0
 10
829.21142578125
 20
-157.84375
 30
0.0
 10
830.326171875
 20
-158.958740234375
 30
0.0
 10
830.8837890625
 20
-159.51611328125
 30
0.0
 10
831.61328125
 20
-160.2275390625
 30
0.0
 10
831.51025390625
 20
-161.00927734375
 30
0.0
 10
831.4072265625
 20
-161.790771484375
 30
0.0
 10
830.5185546875
 20
-162.2890625
 30
0.0
 10
829.8359375
 20
-162.683349609375
 30
0.0
 10
828.81201171875
 20
-163.274658203125
 30
0.0
 10
827.578125
 20
-163.7568359375
 30
0.0
 10
826.40576171875
 20
-163.6025390625
 30
0.0
 10
825.23291015625
 20
-163.447998046875
 30
0.0
 10
824.11474609375
 20
-162.71142578125
 30
0.0
 10
823.330078125
 20
-161.82666015625
 30
0.0
 10
822.61328125
 20
-161.01904296875
 30
0.0
 10
822.232421875
 20
-159.91064453125
 30
0.0
 10
822.0546875
 20
-158.845458984375
 30
0.0
 10
821.716796875
 20
-156.822265625
 30
0.0
 10
821.0029296875
 20
-154.0986328125
 30
0.0
 10
822.505859375
 20
-152.7021484375
 30
0.0
 10
822.78076171875
 20
-152.44677734375
 30
0.0
 10
823.3017578125
 20
-152.525146484375
 30
0.0
 10
823.6328125
 20
-152.7021484375
 30
0.0
  0
SPLINE
  5
3E
330
1F
100
AcDbEntity
  8
LAYER_1
 62
   250
100
AcDbSpline
210
0.0
220
0.0
230
1.0
 70
    11
 71
     3
 72
    35
 73
    31
 74
     0
 42
0.0000000001
 43
0.0000000001
 40
0.0
 40
0.0
 40
0.0
 40
0.0
 40
1.0
 40
1.0
 40
1.0
 40
2.0
 40
2.0
 40
2.0
 40
3.0
 40
3.0
 40
3.0
 40
4.0
 40
4.0
 40
4.0
 40
5.0
 40
5.0
 40
5.0
 40
6.0
 40
6.0
 40
6.0
 40
7.0
 40
7.0
 40
7.0
 40
8.0
 40
8.0
 40
8.0
 40
9.0
 40
9.0
 40
9.0
 40
10.0
 40
10.0
 40
10.0
 40
10.0
 10
815.46484375
 20
-197.21826171875
 30
0.0
 10
814.47314453125
 20
-196.226806640625
 30
0.0
 10
815.82763671875
 20
-194.362060546875
 30
0.0
 10
815.46484375
 20
-193.007568359375
 30
0.0
 10
814.98095703125
 20
-191.20166015625
 30
0.0
 10
814.2763671875
 20
-189.080322265625
 30
0.0
 10
812.65771484375
 20
-188.1455078125
 30
0.0
 10
811.84814453125
 20
-187.67822265625
 30
0.0
 10
810.69580078125
 20
-188.544189453125
 30
0.0
 10
809.8505859375
 20
-188.1455078125
 30
0.0
 10
808.9951171875
 20
-187.7421875
 30
0.0
 10
807.9052734375
 20
-186.89013671875
 30
0.0
 10
808.04345703125
 20
-185.95458984375
 30
0.0
 10
808.26318359375
 20
-184.46630859375
 30
0.0
 10
810.36279296875
 20
-183.884765625
 30
0.0
 10
811.80224609375
 20
-183.44873046875
 30
0.0
 10
813.591796875
 20
-182.906982421875
 30
0.0
 10
815.7978515625
 20
-182.513916015625
 30
0.0
 10
817.41650390625
 20
-183.44873046875
 30
0.0
 10
819.03564453125
 20
-184.383544921875
 30
0.0
 10
819.9169921875
 20
-186.466552734375
 30
0.0
 10
820.2236328125
 20
-188.310791015625
 30
0.0
 10
820.56982421875
 20
-190.387939453125
 30
0.0
 10
819.8505859375
 20
-192.5869140625
 30
0.0
 10
819.0068359375
 20
-194.516357421875
 30
0.0
 10
818.560546875
 20
-195.537109375
 30
0.0
 10
818.02685546875
 20
-196.713623046875
 30
0.0
 10
817.033203125
 20
-197.21826171875
 30
0.0
 10
816.5673828125
 20
-197.454833984375
 30
0.0
 10
815.833984375
 20
-197.587646484375
 30
0.0
 10
815.46484375
 20
-197.21826171875
 30
0.0
  0
SPLINE
  5
3F
330
1F
100
AcDbEntity
  8
LAYER_1
 62
   250
100
AcDbSpline
210
0.0
220
0.0
230
1.0
 70
    11
 71
     3
 72
    38
 73
    34
 74
     0
 42
0.0000000001
 43
0.0000000001
 40
0.0
 40
0.0
 40
0.0
 40
0.0
 40
1.0
 40
1.0
 40
1.0
 40
2.0
 40
2.0
 40
2.0
 40
3.0
 40
3.0
 40
3.0
 40
4.0
 40
4.0
 40
4.0
 40
5.0
 40
5.0
 40
5.0
 40
6.0
 40
6.0
 40
6.0
 40
7.0
 40
7.0
 40
7.0
 40
8.0
 40
8.0
 40
8.0
 40
9.0
 40
9.0
 40
9.0
 40
10.0
 40
10.0
 40
10.0
 40
11.0
 40
11.0
 40
11.0
 40
11.0
 10
775.654296875
 20
-193.10888671875
 30
0.0
 10
776.43505859375
 20
-192.104736328125
 30
0.0
 10
776.42724609375
 20
-190.5732421875
 30
0.0
 10
777.3271484375
 20
-189.67431640625
 30
0.0
 10
778.134765625
 20
-188.867919921875
 30
0.0
 10
779.3193359375
 20
-188.514892578125
 30
0.0
 10
780.40966796875
 20
-188.17724609375
 30
0.0
 10
781.54248046875
 20
-187.826171875
 30
0.0
 10
782.8125
 20
-188.040283203125
 30
0.0
 10
783.93212890625
 20
-187.64892578125
 30
0.0
 10
784.67626953125
 20
-187.388671875
 30
0.0
 10
785.85009765625
 20
-187.2421875
 30
0.0
 10
785.982421875
 20
-186.465087890625
 30
0.0
 10
786.1806640625
 20
-185.2998046875
 30
0.0
 10
784.61279296875
 20
-184.484375
 30
0.0
 10
783.66796875
 20
-183.774169921875
 30
0.0
 10
782.765625
 20
-183.095947265625
 30
0.0
 10
781.71044921875
 20
-182.459228515625
 30
0.0
 10
780.58544921875
 20
-182.364990234375
 30
0.0
 10
778.62158203125
 20
-182.20068359375
 30
0.0
 10
776.26220703125
 20
-182.503173828125
 30
0.0
 10
774.8681640625
 20
-183.89697265625
 30
0.0
 10
773.75341796875
 20
-185.011962890625
 30
0.0
 10
773.76171875
 20
-186.8984375
 30
0.0
 10
773.642578125
 20
-188.470947265625
 30
0.0
 10
773.525390625
 20
-190.020263671875
 30
0.0
 10
773.369140625
 20
-191.76953125
 30
0.0
 10
774.1572265625
 20
-193.10888671875
 30
0.0
 10
774.32568359375
 20
-193.395263671875
 30
0.0
 10
774.638671875
 20
-193.70068359375
 30
0.0
 10
774.970703125
 20
-193.686767578125
 30
0.0
 10
775.2685546875
 20
-193.67431640625
 30
0.0
 10
775.47119140625
 20
-193.343994140625
 30
0.0
 10
775.654296875
 20
-193.10888671875
 30
0.0
  0
SPLINE
  5
40
330
1F
100
AcDbEntity
  8
LAYER_1
 62
   250
100
AcDbSpline
210
0.0
220
0.0
230
1.0
 70
    11
 71
     3
 72
    17
 73
    13
 74
     0
 42
0.0000000001
 43
0.0000000001
 40
0.0
 40
0.0
 40
0.0
 40
0.0
 40
1.0
 40
1.0
 40
1.0
 40
2.0
 40
2.0
 40
2.0
 40
3.0
 40
3.0
 40
3.0
 40
4.0
 40
4.0
 40
4.0
 40
4.0
 10
784.61376953125
 20
-194.912109375
 30
0.0
 10
782.3251953125
 20
-194.912109375
 30
0.0
 10
780.47021484375
 20
-197.562255859375
 30
0.0
 10
780.47021484375
 20
-200.8310546875
 30
0.0
 10
780.47021484375
 20
-204.10009765625
 30
0.0
 10
782.3251953125
 20
-206.750244140625
 30
0.0
 10
784.61376953125
 20
-206.750244140625
 30
0.0
 10
786.90185546875
 20
-206.750244140625
 30
0.0
 10
788.7568359375
 20
-204.10009765625
 30
0.0
 10
788.7568359375
 20
-200.8310546875
 30
0.0
 10
788.7568359375
 20
-197.562255859375
 30
0.0
 10
786.90185546875
 20
-194.912109375
 30
0.0
 10
784.61376953125
 20
-194.912109375
 30
0.0
  0
SPLINE
  5
41
330
1F
100
AcDbEntity
  8
LAYER_1
 62
   250
100
AcDbSpline
210
0.0
220
0.0
230
1.0
 70
    11
 71
     3
 72
    17
 73
    13
 74
     0
 42
0.0000000001
 43
0.0000000001
 40
0.0
 40
0.0
 40
0.0
 40
0.0
 40
1.0
 40
1.0
 40
1.0
 40
2.0
 40
2.0
 40
2.0
 40
3.0
 40
3.0
 40
3.0
 40
4.0
 40
4.0
 40
4.0
 40
4.0
 10
806.453125
 20
-196.321044921875
 30
0.0
 10
804.1650390625
 20
-196.321044921875
 30
0.0
 10
802.31005859375
 20
-198.97119140625
 30
0.0
 10
802.31005859375
 20
-202.240234375
 30
0.0
 10
802.31005859375
 20
-205.509033203125
 30
0.0
 10
804.1650390625
 20
-208.1591796875
 30
0.0
 10
806.453125
 20
-208.1591796875
 30
0.0
 10
808.74169921875
 20
-208.1591796875
 30
0.0
 10
810.5966796875
 20
-205.509033203125
 30
0.0
 10
810.5966796875
 20
-202.240234375
 30
0.0
 10
810.5966796875
 20
-198.97119140625
 30
0.0
 10
808.74169921875
 20
-196.321044921875
 30
0.0
 10
806.453125
 20
-196.321044921875
 30
0.0
  0
SPLINE
  5
42
330
1F
100
AcDbEntity
  8
LAYER_1
 62
   250
100
AcDbSpline
210
0.0
220
0.0
230
1.0
 70
    11
 71
     3
 72
    47
 73
    43
 74
     0
 42
0.0000000001
 43
0.0000000001
 40
0.0
 40
0.0
 40
0.0
 40
0.0
 40
1.0
 40
1.0
 40
1.0
 40
2.0
 40
2.0
 40
2.0
 40
3.0
 40
3.0
 40
3.0
 40
4.0
 40
4.0
 40
4.0
 40
5.0
 40
5.0
 40
5.0
 40
6.0
 40
6.0
 40
6.0
 40
7.0
 40
7.0
 40
7.0
 40
8.0
 40
8.0
 40
8.0
 40
9.0
 40
9.0
 40
9.0
 40
10.0
 40
10.0
 40
10.0
 40
11.0
 40
11.0
 40
11.0
 40
12.0
 40
12.0
 40
12.0
 40
13.0
 40
13.0
 40
13.0
 40
14.0
 40
14.0
 40
14.0
 40
14.0
 10
891.6328125
 20
-357.86279296875
 30
0.0
 10
892.25830078125
 20
-360.5078125
 30
0.0
 10
891.88671875
 20
-369.47607421875
 30
0.0
 10
891.56005859375
 20
-374.58251953125
 30
0.0
 10
891.25732421875
 20
-379.31298828125
 30
0.0
 10
890.3291015625
 20
-384.08642578125
 30
0.0
 10
888.63623046875
 20
-388.51416015625
 30
0.0
 10
887.22802734375
 20
-392.1962890625
 30
0.0
 10
885.216796875
 20
-395.71826171875
 30
0.0
 10
882.716796875
 20
-398.7666015625
 30
0.0
 10
880.65869140625
 20
-401.2763671875
 30
0.0
 10
878.59521484375
 20
-405.72607421875
 30
0.0
 10
875.39208984375
 20
-405.1982421875
 30
0.0
 10
872.2802734375
 20
-404.685546875
 30
0.0
 10
871.611328125
 20
-400.00244140625
 30
0.0
 10
870.65673828125
 20
-396.99658203125
 30
0.0
 10
868.8583984375
 20
-391.3330078125
 30
0.0
 10
868.7294921875
 20
-385.1611328125
 30
0.0
 10
869.0283203125
 20
-379.2265625
 30
0.0
 10
869.34521484375
 20
-372.9326171875
 30
0.0
 10
870.70458984375
 20
-366.6474609375
 30
0.0
 10
872.64013671875
 20
-360.650390625
 30
0.0
 10
873.1064453125
 20
-359.2060546875
 30
0.0
 10
873.7822265625
 20
-357.84375
 30
0.0
 10
874.47314453125
 20
-356.4853515625
 30
0.0
 10
874.255859375
 20
-355.44091796875
 30
0.0
 10
874.46044921875
 20
-354.6787109375
 30
0.0
 10
875.0859375
 20
-354.19873046875
 30
0.0
 10
876.02392578125
 20
-353.478515625
 30
0.0
 10
877.50341796875
 20
-354.53515625
 30
0.0
 10
878.63720703125
 20
-354.19873046875
 30
0.0
 10
881.84375
 20
-353.24658203125
 30
0.0
 10
884.11572265625
 20
-350.314453125
 30
0.0
 10
887.05517578125
 20
-348.71728515625
 30
0.0
 10
888.0703125
 20
-348.166015625
 30
0.0
 10
889.23583984375
 20
-346.7119140625
 30
0.0
 10
890.22509765625
 20
-347.30810546875
 30
0.0
 10
892.44091796875
 20
-348.64306640625
 30
0.0
 10
890.2626953125
 20
-352.5185546875
 30
0.0
 10
890.75390625
 20
-355.05810546875
 30
0.0
 10
890.93798828125
 20
-356.01171875
 30
0.0
 10
891.3271484375
 20
-356.9521484375
 30
0.0
 10
891.6328125
 20
-357.86279296875
 30
0.0
  0
SPLINE
  5
43
330
1F
100
AcDbEntity
  8
LAYER_1
 62
   250
100
AcDbSpline
210
0.0
220
0.0
230
1.0
 70
    11
 71
     3
 72
    32
 73
    28
 74
     0
 42
0.0000000001
 43
0.0000000001
 40
0.0
 40
0.0
 40
0.0
 40
0.0
 40
1.0
 40
1.0
 40
1.0
 40
2.0
 40
2.0
 40
2.0
 40
3.0
 40
3.0
 40
3.0
 40
4.0
 40
4.0
 40
4.0
 40
5.0
 40
5.0
 40
5.0
 40
6.0
 40
6.0
 40
6.0
 40
7.0
 40
7.0
 40
7.0
 40
8.0
 40
8.0
 40
8.0
 40
9.0
 40
9.0
 40
9.0
 40
9.0
 10
918.27685546875
 20
-398.06298828125
 30
0.0
 10
919.611328125
 20
-389.0400390625
 30
0.0
 10
920.1845703125
 20
-380.01025390625
 30
0.0
 10
919.9970703125
 20
-370.97314453125
 30
0.0
 10
919.8837890625
 20
-365.5029296875
 30
0.0
 10
917.66259765625
 20
-360.06982421875
 30
0.0
 10
918.27685546875
 20
-354.63330078125
 30
0.0
 10
918.8974609375
 20
-349.14404296875
 30
0.0
 10
918.14404296875
 20
-338.51416015625
 30
0.0
 10
923.65185546875
 20
-338.9384765625
 30
0.0
 10
928.94482421875
 20
-339.34619140625
 30
0.0
 10
925.29345703125
 20
-349.45166015625
 30
0.0
 10
926.44677734375
 20
-354.63330078125
 30
0.0
 10
927.560546875
 20
-359.6357421875
 30
0.0
 10
930.1787109375
 20
-364.3798828125
 30
0.0
 10
930.43017578125
 20
-369.49853515625
 30
0.0
 10
930.7001953125
 20
-374.99658203125
 30
0.0
 10
929.123046875
 20
-380.48095703125
 30
0.0
 10
927.73681640625
 20
-385.80810546875
 30
0.0
 10
926.2998046875
 20
-391.3310546875
 30
0.0
 10
925.13427734375
 20
-397.208984375
 30
0.0
 10
921.93212890625
 20
-401.93310546875
 30
0.0
 10
921.1015625
 20
-403.158203125
 30
0.0
 10
920.10888671875
 20
-404.1279296875
 30
0.0
 10
919.5087890625
 20
-403.43505859375
 30
0.0
 10
918.2177734375
 20
-401.94580078125
 30
0.0
 10
918.27685546875
 20
-400.4306640625
 30
0.0
 10
918.27685546875
 20
-398.06298828125
 30
0.0
  0
SPLINE
  5
44
330
1F
100
AcDbEntity
  8
LAYER_1
 62
   250
100
AcDbSpline
210
0.0
220
0.0
230
1.0
 70
    11
 71
     3
 72
    44
 73
    40
 74
     0
 42
0.0000000001
 43
0.0000000001
 40
0.0
 40
0.0
 40
0.0
 40
0.0
 40
1.0
 40
1.0
 40
1.0
 40
2.0
 40
2.0
 40
2.0
 40
3.0
 40
3.0
 40
3.0
 40
4.0
 40
4.0
 40
4.0
 40
5.0
 40
5.0
 40
5.0
 40
6.0
 40
6.0
 40
6.0
 40
7.0
 40
7.0
 40
7.0
 40
8.0
 40
8.0
 40
8.0
 40
9.0
 40
9.0
 40
9.0
 40
10.0
 40
10.0
 40
10.0
 40
11.0
 40
11.0
 40
11.0
 40
12.0
 40
12.0
 40
12.0
 40
13.0
 40
13.0
 40
13.0
 40
13.0
 10
773.8955078125
 20
-298.548828125
 30
0.0
 10
774.91796875
 20
-296.53955078125
 30
0.0
 10
783.6796875
 20
-301.86328125
 30
0.0
 10
788.7607421875
 20
-302.5322265625
 30
0.0
 10
792.27783203125
 20
-302.9951171875
 30
0.0
 10
795.98779296875
 20
-303.4501953125
 30
0.0
 10
799.41455078125
 20
-302.5322265625
 30
0.0
 10
805.12646484375
 20
-301.00146484375
 30
0.0
 10
810.84423828125
 20
-298.05517578125
 30
0.0
 10
814.79296875
 20
-293.6533203125
 30
0.0
 10
818.17431640625
 20
-289.88330078125
 30
0.0
 10
819.8828125
 20
-284.6923828125
 30
0.0
 10
820.92626953125
 20
-279.736328125
 30
0.0
 10
821.33251953125
 20
-277.8076171875
 30
0.0
 10
819.15771484375
 20
-274.68701171875
 30
0.0
 10
820.92626953125
 20
-273.8173828125
 30
0.0
 10
822.2451171875
 20
-273.16943359375
 30
0.0
 10
823.77197265625
 20
-275.193359375
 30
0.0
 10
824.419921875
 20
-276.51171875
 30
0.0
 10
825.11572265625
 20
-277.9267578125
 30
0.0
 10
823.6044921875
 20
-281.4951171875
 30
0.0
 10
823.2841796875
 20
-283.0390625
 30
0.0
 10
822.78173828125
 20
-285.462890625
 30
0.0
 10
822.93017578125
 20
-287.73876953125
 30
0.0
 10
822.427734375
 20
-290.1630859375
 30
0.0
 10
821.787109375
 20
-293.2509765625
 30
0.0
 10
820.74755859375
 20
-294.62353515625
 30
0.0
 10
819.1708984375
 20
-297.3544921875
 30
0.0
 10
816.6083984375
 20
-301.79296875
 30
0.0
 10
812.8583984375
 20
-303.90380859375
 30
0.0
 10
808.1240234375
 20
-305.865234375
 30
0.0
 10
803.025390625
 20
-307.97705078125
 30
0.0
 10
792.44921875
 20
-309.7685546875
 30
0.0
 10
792.0615234375
 20
-309.69775390625
 30
0.0
 10
785.28759765625
 20
-308.4638671875
 30
0.0
 10
782.1435546875
 20
-307.6650390625
 30
0.0
 10
778.1953125
 20
-304.46142578125
 30
0.0
 10
776.30517578125
 20
-302.92724609375
 30
0.0
 10
772.79150390625
 20
-300.71875
 30
0.0
 10
773.8955078125
 20
-298.548828125
 30
0.0
  0
SPLINE
  5
45
330
1F
100
AcDbEntity
  8
LAYER_1
 62
   250
100
AcDbSpline
210
0.0
220
0.0
230
1.0
 70
    11
 71
     3
 72
    17
 73
    13
 74
     0
 42
0.0000000001
 43
0.0000000001
 40
0.0
 40
0.0
 40
0.0
 40
0.0
 40
1.0
 40
1.0
 40
1.0
 40
2.0
 40
2.0
 40
2.0
 40
3.0
 40
3.0
 40
3.0
 40
4.0
 40
4.0
 40
4.0
 40
4.0
 10
909.64208984375
 20
-298.70947265625
 30
0.0
 10
906.373046875
 20
-298.70947265625
 30
0.0
 10
903.72314453125
 20
-301.359375
 30
0.0
 10
903.72314453125
 20
-304.62841796875
 30
0.0
 10
903.72314453125
 20
-307.8974609375
 30
0.0
 10
906.373046875
 20
-310.54736328125
 30
0.0
 10
909.64208984375
 20
-310.54736328125
 30
0.0
 10
912.9111328125
 20
-310.54736328125
 30
0.0
 10
915.56103515625
 20
-307.8974609375
 30
0.0
 10
915.56103515625
 20
-304.62841796875
 30
0.0
 10
915.56103515625
 20
-301.359375
 30
0.0
 10
912.9111328125
 20
-298.70947265625
 30
0.0
 10
909.64208984375
 20
-298.70947265625
 30
0.0
  0
SPLINE
  5
46
330
1F
100
AcDbEntity
  8
LAYER_1
 62
   250
100
AcDbSpline
210
0.0
220
0.0
230
1.0
 70
    11
 71
     3
 72
    17
 73
    13
 74
     0
 42
0.0000000001
 43
0.0000000001
 40
0.0
 40
0.0
 40
0.0
 40
0.0
 40
1.0
 40
1.0
 40
1.0
 40
2.0
 40
2.0
 40
2.0
 40
3.0
 40
3.0
 40
3.0
 40
4.0
 40
4.0
 40
4.0
 40
4.0
 10
911.017578125
 20
-281.33740234375
 30
0.0
 10
907.7490234375
 20
-281.33740234375
 30
0.0
 10
905.0986328125
 20
-283.9873046875
 30
0.0
 10
905.0986328125
 20
-287.25634765625
 30
0.0
 10
905.0986328125
 20
-290.525390625
 30
0.0
 10
907.7490234375
 20
-293.17529296875
 30
0.0
 10
911.017578125
 20
-293.17529296875
 30
0.0
 10
914.28662109375
 20
-293.17529296875
 30
0.0
 10
916.93701171875
 20
-290.525390625
 30
0.0
 10
916.93701171875
 20
-287.25634765625
 30
0.0
 10
916.93701171875
 20
-283.9873046875
 30
0.0
 10
914.28662109375
 20
-281.33740234375
 30
0.0
 10
911.017578125
 20
-281.33740234375
 30
0.0
  0
SPLINE
  5
47
330
1F
100
AcDbEntity
  8
LAYER_1
 62
   250
100
AcDbSpline
210
0.0
220
0.0
230
1.0
 70
    11
 71
     3
 72
    17
 73
    13
 74
     0
 42
0.0000000001
 43
0.0000000001
 40
0.0
 40
0.0
 40
0.0
 40
0.0
 40
1.0
 40
1.0
 40
1.0
 40
2.0
 40
2.0
 40
2.0
 40
3.0
 40
3.0
 40
3.0
 40
4.0
 40
4.0
 40
4.0
 40
4.0
 10
910.84619140625
 20
-263.4501953125
 30
0.0
 10
907.5771484375
 20
-263.4501953125
 30
0.0
 10
904.92724609375
 20
-266.10009765625
 30
0.0
 10
904.92724609375
 20
-269.369140625
 30
0.0
 10
904.92724609375
 20
-272.6376953125
 30
0.0
 10
907.5771484375
 20
-275.2880859375
 30
0.0
 10
910.84619140625
 20
-275.2880859375
 30
0.0
 10
914.115234375
 20
-275.2880859375
 30
0.0
 10
916.76513671875
 20
-272.6376953125
 30
0.0
 10
916.76513671875
 20
-269.369140625
 30
0.0
 10
916.76513671875
 20
-266.10009765625
 30
0.0
 10
914.115234375
 20
-263.4501953125
 30
0.0
 10
910.84619140625
 20
-263.4501953125
 30
0.0
  0
SPLINE
  5
48
330
1F
100
AcDbEntity
  8
LAYER_1
 62
   250
100
AcDbSpline
210
0.0
220
0.0
230
1.0
 70
    11
 71
     3
 72
    17
 73
    13
 74
     0
 42
0.0000000001
 43
0.0000000001
 40
0.0
 40
0.0
 40
0.0
 40
0.0
 40
1.0
 40
1.0
 40
1.0
 40
2.0
 40
2.0
 40
2.0
 40
3.0
 40
3.0
 40
3.0
 40
4.0
 40
4.0
 40
4.0
 40
4.0
 10
908.95458984375
 20
-246.59375
 30
0.0
 10
905.685546875
 20
-246.59375
 30
0.0
 10
903.03564453125
 20
-249.24365234375
 30
0.0
 10
903.03564453125
 20
-252.5126953125
 30
0.0
 10
903.03564453125
 20
-255.78173828125
 30
0.0
 10
905.685546875
 20
-258.431640625
 30
0.0
 10
908.95458984375
 20
-258.431640625
 30
0.0
 10
912.2236328125
 20
-258.431640625
 30
0.0
 10
914.87353515625
 20
-255.78173828125
 30
0.0
 10
914.87353515625
 20
-252.5126953125
 30
0.0
 10
914.87353515625
 20
-249.24365234375
 30
0.0
 10
912.2236328125
 20
-246.59375
 30
0.0
 10
908.95458984375
 20
-246.59375
 30
0.0
  0
SPLINE
  5
49
330
1F
100
AcDbEntity
  8
LAYER_1
 62
   250
100
AcDbSpline
210
0.0
220
0.0
230
1.0
 70
    11
 71
     3
 72
    17
 73
    13
 74
     0
 42
0.0000000001
 43
0.0000000001
 40
0.0
 40
0.0
 40
0.0
 40
0.0
 40
1.0
 40
1.0
 40
1.0
 40
2.0
 40
2.0
 40
2.0
 40
3.0
 40
3.0
 40
3.0
 40
4.0
 40
4.0
 40
4.0
 40
4.0
 10
885.3896484375
 20
-246.422119140625
 30
0.0
 10
882.12060546875
 20
-246.422119140625
 30
0.0
 10
879.470703125
 20
-249.072265625
 30
0.0
 10
879.470703125
 20
-252.34130859375
 30
0.0
 10
879.470703125
 20
-255.6103515625
 30
0.0
 10
882.12060546875
 20
-258.26025390625
 30
0.0
 10
885.3896484375
 20
-258.26025390625
 30
0.0
 10
888.65869140625
 20
-258.26025390625
 30
0.0
 10
891.30859375
 20
-255.6103515625
 30
0.0
 10
891.30859375
 20
-252.34130859375
 30
0.0
 10
891.30859375
 20
-249.072265625
 30
0.0
 10
888.65869140625
 20
-246.422119140625
 30
0.0
 10
885.3896484375
 20
-246.422119140625
 30
0.0
  0
SPLINE
  5
4A
330
1F
100
AcDbEntity
  8
LAYER_1
 62
   250
100
AcDbSpline
210
0.0
220
0.0
230
1.0
 70
    11
 71
     3
 72
    17
 73
    13
 74
     0
 42
0.0000000001
 43
0.0000000001
 40
0.0
 40
0.0
 40
0.0
 40
0.0
 40
1.0
 40
1.0
 40
1.0
 40
2.0
 40
2.0
 40
2.0
 40
3.0
 40
3.0
 40
3.0
 40
4.0
 40
4.0
 40
4.0
 40
4.0
 10
921.7548828125
 20
-228.3740234375
 30
0.0
 10
918.48583984375
 20
-228.3740234375
 30
0.0
 10
915.8359375
 20
-231.02392578125
 30
0.0
 10
915.8359375
 20
-234.29296875
 30
0.0
 10
915.8359375
 20
-237.56201171875
 30
0.0
 10
918.48583984375
 20
-240.2119140625
 30
0.0
 10
921.7548828125
 20
-240.2119140625
 30
0.0
 10
925.02392578125
 20
-240.2119140625
 30
0.0
 10
927.673828125
 20
-237.56201171875
 30
0.0
 10
927.673828125
 20
-234.29296875
 30
0.0
 10
927.673828125
 20
-231.02392578125
 30
0.0
 10
925.02392578125
 20
-228.3740234375
 30
0.0
 10
921.7548828125
 20
-228.3740234375
 30
0.0
  0
SPLINE
  5
4B
330
1F
100
AcDbEntity
  8
LAYER_1
 62
   250
100
AcDbSpline
210
0.0
220
0.0
230
1.0
 70
    11
 71
     3
 72
    38
 73
    34
 74
     0
 42
0.0000000001
 43
0.0000000001
 40
0.0
 40
0.0
 40
0.0
 40
0.0
 40
1.0
 40
1.0
 40
1.0
 40
2.0
 40
2.0
 40
2.0
 40
3.0
 40
3.0
 40
3.0
 40
4.0
 40
4.0
 40
4.0
 40
5.0
 40
5.0
 40
5.0
 40
6.0
 40
6.0
 40
6.0
 40
7.0
 40
7.0
 40
7.0
 40
8.0
 40
8.0
 40
8.0
 40
9.0
 40
9.0
 40
9.0
 40
10.0
 40
10.0
 40
10.0
 40
11.0
 40
11.0
 40
11.0
 40
11.0
 10
816.8212890625
 20
-422.5654296875
 30
0.0
 10
818.111328125
 20
-419.2626953125
 30
0.0
 10
820.2666015625
 20
-415.333984375
 30
0.0
 10
822.5771484375
 20
-412.64453125
 30
0.0
 10
824.4287109375
 20
-410.48974609375
 30
0.0
 10
828.77685546875
 20
-409.6103515625
 30
0.0
 10
829.32275390625
 20
-406.822265625
 30
0.0
 10
829.4794921875
 20
-406.0224609375
 30
0.0
 10
828.388671875
 20
-405.03564453125
 30
0.0
 10
827.6572265625
 20
-404.67724609375
 30
0.0
 10
826.38134765625
 20
-404.052734375
 30
0.0
 10
824.3427734375
 20
-404.67724609375
 30
0.0
 10
822.921875
 20
-404.67724609375
 30
0.0
 10
820.47265625
 20
-404.212890625
 30
0.0
 10
815.59521484375
 20
-402.0654296875
 30
0.0
 10
814.75732421875
 20
-403.12939453125
 30
0.0
 10
814.3291015625
 20
-403.67333984375
 30
0.0
 10
815.63037109375
 20
-404.51953125
 30
0.0
 10
815.7890625
 20
-405.193359375
 30
0.0
 10
816.0341796875
 20
-406.22998046875
 30
0.0
 10
815.92822265625
 20
-407.6884765625
 30
0.0
 10
815.7890625
 20
-408.74462890625
 30
0.0
 10
815.5576171875
 20
-410.50537109375
 30
0.0
 10
814.40966796875
 20
-412.69287109375
 30
0.0
 10
814.25732421875
 20
-414.4619140625
 30
0.0
 10
814.0751953125
 20
-416.5732421875
 30
0.0
 10
814.11083984375
 20
-419.52685546875
 30
0.0
 10
814.8916015625
 20
-421.49658203125
 30
0.0
 10
815.0791015625
 20
-421.9697265625
 30
0.0
 10
815.45263671875
 20
-422.677734375
 30
0.0
 10
815.9375
 20
-422.83154296875
 30
0.0
 10
816.20166015625
 20
-422.9150390625
 30
0.0
 10
816.55615234375
 20
-422.64501953125
 30
0.0
 10
816.8212890625
 20
-422.5654296875
 30
0.0
  0
POLYLINE
  5
4C
330
1F
100
AcDbEntity
  8
LAYER_1
 62
   250
100
AcDb2dPolyline
 66
     1
 10
0.0
 20
0.0
 30
0.0
  0
VERTEX
  5
4D
330
4C
100
AcDbEntity
  8
LAYER_1
 62
   250
100
AcDbVertex
100
AcDb2dVertex
 10
869.4130859375
 20
-436.708984375
 30
0.0
  0
VERTEX
  5
4E
330
4C
100
AcDbEntity
  8
LAYER_1
 62
   250
100
AcDbVertex
100
AcDb2dVertex
 10
895.46875
 20
-436.708984375
 30
0.0
  0
VERTEX
  5
4F
330
4C
100
AcDbEntity
  8
LAYER_1
 62
   250
100
AcDbVertex
100
AcDb2dVertex
 10
895.46875
 20
-435.97607421875
 30
0.0
  0
VERTEX
  5
50
330
4C
100
AcDbEntity
  8
LAYER_1
 62
   250
100
AcDbVertex
100
AcDb2dVertex
 10
882.14111328125
 20
-428.28125
 30
0.0
  0
VERTEX
  5
51
330
4C
100
AcDbEntity
  8
LAYER_1
 62
   250
100
AcDbVertex
100
AcDb2dVertex
 10
869.4130859375
 20
-436.708984375
 30
0.0
  0
SEQEND
  5
52
330
4C
100
AcDbEntity
  8
LAYER_1
  0
SPLINE
  5
53
330
1F
100
AcDbEntity
  8
LAYER_1
 62
   250
100
AcDbSpline
210
0.0
220
0.0
230
1.0
 70
    11
 71
     3
 72
    38
 73
    34
 74
     0
 42
0.0000000001
 43
0.0000000001
 40
0.0
 40
0.0
 40
0.0
 40
0.0
 40
1.0
 40
1.0
 40
1.0
 40
2.0
 40
2.0
 40
2.0
 40
3.0
 40
3.0
 40
3.0
 40
4.0
 40
4.0
 40
4.0
 40
5.0
 40
5.0
 40
5.0
 40
6.0
 40
6.0
 40
6.0
 40
7.0
 40
7.0
 40
7.0
 40
8.0
 40
8.0
 40
8.0
 40
9.0
 40
9.0
 40
9.0
 40
10.0
 40
10.0
 40
10.0
 40
11.0
 40
11.0
 40
11.0
 40
11.0
 10
891.77783203125
 20
-328.1103515625
 30
0.0
 10
891.470703125
 20
-327.36474609375
 30
0.0
 10
891.21533203125
 20
-326.60400390625
 30
0.0
 10
891.06298828125
 20
-325.81298828125
 30
0.0
 10
890.166015625
 20
-321.16796875
 30
0.0
 10
890.89453125
 20
-316.3349609375
 30
0.0
 10
891.06298828125
 20
-311.607421875
 30
0.0
 10
891.2978515625
 20
-305.009765625
 30
0.0
 10
893.1015625
 20
-298.40478515625
 30
0.0
 10
892.47314453125
 20
-291.83349609375
 30
0.0
 10
891.91064453125
 20
-285.947265625
 30
0.0
 10
892.05859375
 20
-278.86279296875
 30
0.0
 10
887.87744140625
 20
-274.681640625
 30
0.0
 10
885.08984375
 20
-271.89404296875
 30
0.0
 10
879.69384765625
 20
-273.8466796875
 30
0.0
 10
876.44287109375
 20
-271.61767578125
 30
0.0
 10
873.73828125
 20
-269.7626953125
 30
0.0
 10
868.70263671875
 20
-266.31005859375
 30
0.0
 10
870.6376953125
 20
-263.66259765625
 30
0.0
 10
873.04052734375
 20
-260.3759765625
 30
0.0
 10
878.21630859375
 20
-266.8798828125
 30
0.0
 10
882.23486328125
 20
-267.53271484375
 30
0.0
 10
886.1259765625
 20
-268.16455078125
 30
0.0
 10
890.87060546875
 20
-265.2333984375
 30
0.0
 10
894.07275390625
 20
-267.53271484375
 30
0.0
 10
897.3466796875
 20
-269.8828125
 30
0.0
 10
897.28955078125
 20
-275.02294921875
 30
0.0
 10
897.94287109375
 20
-278.99951171875
 30
0.0
 10
899.6669921875
 20
-289.50244140625
 30
0.0
 10
899.9736328125
 20
-300.51416015625
 30
0.0
 10
897.94287109375
 20
-310.96240234375
 30
0.0
 10
896.78125
 20
-316.9375
 30
0.0
 10
894.72705078125
 20
-322.65283203125
 30
0.0
 10
891.77783203125
 20
-328.1103515625
 30
0.0
  0
SPLINE
  5
54
330
1F
100
AcDbEntity
  8
LAYER_1
 62
   250
100
AcDbSpline
210
0.0
220
0.0
230
1.0
 70
    11
 71
     3
 72
    44
 73
    40
 74
     0
 42
0.0000000001
 43
0.0000000001
 40
0.0
 40
0.0
 40
0.0
 40
0.0
 40
1.0
 40
1.0
 40
1.0
 40
2.0
 40
2.0
 40
2.0
 40
3.0
 40
3.0
 40
3.0
 40
4.0
 40
4.0
 40
4.0
 40
5.0
 40
5.0
 40
5.0
 40
6.0
 40
6.0
 40
6.0
 40
7.0
 40
7.0
 40
7.0
 40
8.0
 40
8.0
 40
8.0
 40
9.0
 40
9.0
 40
9.0
 40
10.0
 40
10.0
 40
10.0
 40
11.0
 40
11.0
 40
11.0
 40
12.0
 40
12.0
 40
12.0
 40
13.0
 40
13.0
 40
13.0
 40
13.0
 10
924.8310546875
 20
-307.3408203125
 30
0.0
 10
915.4404296875
 20
-303.7783203125
 30
0.0
 10
927.546875
 20
-287.2548828125
 30
0.0
 10
926.76611328125
 20
-277.2412109375
 30
0.0
 10
926.22998046875
 20
-270.3662109375
 30
0.0
 10
923.00732421875
 20
-263.88525390625
 30
0.0
 10
922.2509765625
 20
-257.03125
 30
0.0
 10
922.078125
 20
-255.4638671875
 30
0.0
 10
921.5654296875
 20
-253.7158203125
 30
0.0
 10
922.2509765625
 20
-252.2958984375
 30
0.0
 10
923.80126953125
 20
-249.0849609375
 30
0.0
 10
928.2109375
 20
-248.25048828125
 30
0.0
 10
930.6357421875
 20
-245.63623046875
 30
0.0
 10
932.28369140625
 20
-243.860107421875
 30
0.0
 10
933.89208984375
 20
-241.892578125
 30
0.0
 10
934.720703125
 20
-239.6162109375
 30
0.0
 10
936.6416015625
 20
-234.34130859375
 30
0.0
 10
930.8740234375
 20
-223.5703125
 30
0.0
 10
936.44091796875
 20
-222.846435546875
 30
0.0
 10
940.462890625
 20
-222.323486328125
 30
0.0
 10
940.01318359375
 20
-230.25146484375
 30
0.0
 10
940.7412109375
 20
-234.2412109375
 30
0.0
 10
941.306640625
 20
-237.34375
 30
0.0
 10
941.828125
 20
-240.75146484375
 30
0.0
 10
940.7412109375
 20
-243.711669921875
 30
0.0
 10
938.60546875
 20
-249.5263671875
 30
0.0
 10
930.25341796875
 20
-251.89453125
 30
0.0
 10
928.701171875
 20
-257.89111328125
 30
0.0
 10
927.7861328125
 20
-261.42529296875
 30
0.0
 10
930.4912109375
 20
-265.00830078125
 30
0.0
 10
930.85107421875
 20
-268.64111328125
 30
0.0
 10
931.6279296875
 20
-276.48681640625
 30
0.0
 10
931.48828125
 20
-284.458984375
 30
0.0
 10
930.85107421875
 20
-292.3173828125
 30
0.0
 10
930.599609375
 20
-295.41748046875
 30
0.0
 10
930.58984375
 20
-298.68505859375
 30
0.0
 10
929.34619140625
 20
-301.5361328125
 30
0.0
 10
928.36669921875
 20
-303.7802734375
 30
0.0
 10
927.12060546875
 20
-308.20947265625
 30
0.0
 10
924.8310546875
 20
-307.3408203125
 30
0.0
  0
SPLINE
  5
55
330
1F
100
AcDbEntity
  8
LAYER_1
 62
   250
100
AcDbSpline
210
0.0
220
0.0
230
1.0
 70
    11
 71
     3
 72
    56
 73
    52
 74
     0
 42
0.0000000001
 43
0.0000000001
 40
0.0
 40
0.0
 40
0.0
 40
0.0
 40
1.0
 40
1.0
 40
1.0
 40
2.0
 40
2.0
 40
2.0
 40
3.0
 40
3.0
 40
3.0
 40
4.0
 40
4.0
 40
4.0
 40
5.0
 40
5.0
 40
5.0
 40
6.0
 40
6.0
 40
6.0
 40
7.0
 40
7.0
 40
7.0
 40
8.0
 40
8.0
 40
8.0
 40
9.0
 40
9.0
 40
9.0
 40
10.0
 40
10.0
 40
10.0
 40
11.0
 40
11.0
 40
11.0
 40
12.0
 40
12.0
 40
12.0
 40
13.0
 40
13.0
 40
13.0
 40
14.0
 40
14.0
 40
14.0
 40
15.0
 40
15.0
 40
15.0
 40
16.0
 40
16.0
 40
16.0
 40
17.0
 40
17.0
 40
17.0
 40
17.0
 10
784.13916015625
 20
-279.8486328125
 30
0.0
 10
783.6630859375
 20
-279.35107421875
 30
0.0
 10
782.689453125
 20
-279.5126953125
 30
0.0
 10
782.26806640625
 20
-278.96826171875
 30
0.0
 10
780.44287109375
 20
-276.607421875
 30
0.0
 10
780.57958984375
 20
-273.14501953125
 30
0.0
 10
780.61669921875
 20
-270.16162109375
 30
0.0
 10
780.658203125
 20
-266.826171875
 30
0.0
 10
780.74609375
 20
-263.0625
 30
0.0
 10
782.7080078125
 20
-260.36474609375
 30
0.0
 10
784.3310546875
 20
-258.1328125
 30
0.0
 10
787.1328125
 20
-256.42529296875
 30
0.0
 10
789.884765625
 20
-256.22119140625
 30
0.0
 10
791.841796875
 20
-256.076171875
 30
0.0
 10
793.9365234375
 20
-257.0400390625
 30
0.0
 10
795.3671875
 20
-258.38330078125
 30
0.0
 10
796.81396484375
 20
-259.7412109375
 30
0.0
 10
796.224609375
 20
-262.712890625
 30
0.0
 10
797.8994140625
 20
-263.77734375
 30
0.0
 10
798.564453125
 20
-264.19970703125
 30
0.0
 10
799.6630859375
 20
-264.2841796875
 30
0.0
 10
800.2666015625
 20
-263.77734375
 30
0.0
 10
801.80615234375
 20
-262.48486328125
 30
0.0
 10
801.48193359375
 20
-259.83544921875
 30
0.0
 10
801.3115234375
 20
-257.8330078125
 30
0.0
 10
801.04443359375
 20
-254.6904296875
 30
0.0
 10
800.14013671875
 20
-251.33740234375
 30
0.0
 10
798.119140625
 20
-248.91650390625
 30
0.0
 10
796.35107421875
 20
-246.7978515625
 30
0.0
 10
793.65771484375
 20
-245.267822265625
 30
0.0
 10
790.94287109375
 20
-244.773193359375
 30
0.0
 10
788.1357421875
 20
-244.261474609375
 30
0.0
 10
784.89892578125
 20
-244.637939453125
 30
0.0
 10
782.48828125
 20
-246.164306640625
 30
0.0
 10
778.94873046875
 20
-248.4052734375
 30
0.0
 10
776.5810546875
 20
-252.5126953125
 30
0.0
 10
775.3330078125
 20
-256.51171875
 30
0.0
 10
773.5712890625
 20
-262.15625
 30
0.0
 10
773.802734375
 20
-268.55712890625
 30
0.0
 10
775.3330078125
 20
-274.26904296875
 30
0.0
 10
776.2509765625
 20
-277.69580078125
 30
0.0
 10
777.58740234375
 20
-281.7216796875
 30
0.0
 10
780.66015625
 20
-283.49560546875
 30
0.0
 10
781.00146484375
 20
-283.69287109375
 30
0.0
 10
781.462890625
 20
-283.59765625
 30
0.0
 10
781.84375
 20
-283.49560546875
 30
0.0
 10
782.986328125
 20
-283.189453125
 30
0.0
 10
784.54052734375
 20
-282.84033203125
 30
0.0
 10
784.91943359375
 20
-281.72021484375
 30
0.0
 10
785.1357421875
 20
-281.08056640625
 30
0.0
 10
784.60595703125
 20
-280.3369140625
 30
0.0
 10
784.13916015625
 20
-279.8486328125
 30
0.0
  0
SPLINE
  5
56
330
1F
100
AcDbEntity
  8
LAYER_1
 62
   250
100
AcDbSpline
210
0.0
220
0.0
230
1.0
 70
    11
 71
     3
 72
    50
 73
    46
 74
     0
 42
0.0000000001
 43
0.0000000001
 40
0.0
 40
0.0
 40
0.0
 40
0.0
 40
1.0
 40
1.0
 40
1.0
 40
2.0
 40
2.0
 40
2.0
 40
3.0
 40
3.0
 40
3.0
 40
4.0
 40
4.0
 40
4.0
 40
5.0
 40
5.0
 40
5.0
 40
6.0
 40
6.0
 40
6.0
 40
7.0
 40
7.0
 40
7.0
 40
8.0
 40
8.0
 40
8.0
 40
9.0
 40
9.0
 40
9.0
 40
10.0
 40
10.0
 40
10.0
 40
11.0
 40
11.0
 40
11.0
 40
12.0
 40
12.0
 40
12.0
 40
13.0
 40
13.0
 40
13.0
 40
14.0
 40
14.0
 40
14.0
 40
15.0
 40
15.0
 40
15.0
 40
15.0
 10
732.6533203125
 20
-264.0126953125
 30
0.0
 10
734.48974609375
 20
-266.50146484375
 30
0.0
 10
738.919921875
 20
-265.7236328125
 30
0.0
 10
741.89990234375
 20
-264.8935546875
 30
0.0
 10
744.6259765625
 20
-264.1337890625
 30
0.0
 10
747.1337890625
 20
-262.169921875
 30
0.0
 10
748.724609375
 20
-259.82958984375
 30
0.0
 10
751.6064453125
 20
-255.591796875
 30
0.0
 10
753.24462890625
 20
-250.06103515625
 30
0.0
 10
752.7080078125
 20
-244.964599609375
 30
0.0
 10
752.2822265625
 20
-240.924560546875
 30
0.0
 10
750.2294921875
 20
-236.7626953125
 30
0.0
 10
747.16357421875
 20
-234.09765625
 30
0.0
 10
745.8056640625
 20
-232.917236328125
 30
0.0
 10
743.8466796875
 20
-232.164306640625
 30
0.0
 10
742.05615234375
 20
-232.33642578125
 30
0.0
 10
739.70166015625
 20
-232.5625
 30
0.0
 10
737.4228515625
 20
-234.073974609375
 30
0.0
 10
735.90478515625
 20
-235.8876953125
 30
0.0
 10
734.2900390625
 20
-237.81640625
 30
0.0
 10
732.474609375
 20
-240.629150390625
 30
0.0
 10
733.337890625
 20
-242.991943359375
 30
0.0
 10
733.6083984375
 20
-243.732421875
 30
0.0
 10
734.619140625
 20
-244.35107421875
 30
0.0
 10
735.38818359375
 20
-244.17578125
 30
0.0
 10
736.337890625
 20
-243.958984375
 30
0.0
 10
736.1748046875
 20
-242.214111328125
 30
0.0
 10
737.0361328125
 20
-241.759033203125
 30
0.0
 10
738.08203125
 20
-241.20654296875
 30
0.0
 10
739.6494140625
 20
-241.0390625
 30
0.0
 10
740.587890625
 20
-241.759033203125
 30
0.0
 10
741.8388671875
 20
-242.718994140625
 30
0.0
 10
741.66845703125
 20
-244.7626953125
 30
0.0
 10
741.8134765625
 20
-246.3330078125
 30
0.0
 10
741.994140625
 20
-248.29736328125
 30
0.0
 10
741.93603515625
 20
-250.3544921875
 30
0.0
 10
741.3515625
 20
-252.23876953125
 30
0.0
 10
740.650390625
 20
-254.49755859375
 30
0.0
 10
739.23974609375
 20
-256.51318359375
 30
0.0
 10
737.7998046875
 20
-258.3896484375
 30
0.0
 10
736.3603515625
 20
-260.26611328125
 30
0.0
 10
733.90087890625
 20
-261.3310546875
 30
0.0
 10
732.77734375
 20
-263.412109375
 30
0.0
 10
732.6806640625
 20
-263.591796875
 30
0.0
 10
732.53173828125
 20
-263.8486328125
 30
0.0
 10
732.6533203125
 20
-264.0126953125
 30
0.0
  0
SPLINE
  5
57
330
1F
100
AcDbEntity
  8
LAYER_1
 62
   250
100
AcDbSpline
210
0.0
220
0.0
230
1.0
 70
    11
 71
     3
 72
    32
 73
    28
 74
     0
 42
0.0000000001
 43
0.0000000001
 40
0.0
 40
0.0
 40
0.0
 40
0.0
 40
1.0
 40
1.0
 40
1.0
 40
2.0
 40
2.0
 40
2.0
 40
3.0
 40
3.0
 40
3.0
 40
4.0
 40
4.0
 40
4.0
 40
5.0
 40
5.0
 40
5.0
 40
6.0
 40
6.0
 40
6.0
 40
7.0
 40
7.0
 40
7.0
 40
8.0
 40
8.0
 40
8.0
 40
9.0
 40
9.0
 40
9.0
 40
9.0
 10
801.46875
 20
-327.0498046875
 30
0.0
 10
803.322265625
 20
-327.302734375
 30
0.0
 10
804.94580078125
 20
-326.95703125
 30
0.0
 10
806.330078125
 20
-326.01025390625
 30
0.0
 10
807.95703125
 20
-324.8974609375
 30
0.0
 10
808.166015625
 20
-322.50341796875
 30
0.0
 10
809.28955078125
 20
-320.88427734375
 30
0.0
 10
810.1142578125
 20
-319.6962890625
 30
0.0
 10
812.6708984375
 20
-318.8427734375
 30
0.0
 10
812.05419921875
 20
-317.5341796875
 30
0.0
 10
811.71826171875
 20
-316.82080078125
 30
0.0
 10
810.470703125
 20
-317.4521484375
 30
0.0
 10
809.6865234375
 20
-317.5341796875
 30
0.0
 10
807.3955078125
 20
-317.77392578125
 30
0.0
 10
805.0693359375
 20
-318.140625
 30
0.0
 10
802.91796875
 20
-318.96533203125
 30
0.0
 10
801.8134765625
 20
-319.388671875
 30
0.0
 10
800.43359375
 20
-319.716796875
 30
0.0
 10
799.84228515625
 20
-320.74072265625
 30
0.0
 10
799.0537109375
 20
-322.1064453125
 30
0.0
 10
799.236328125
 20
-324.0205078125
 30
0.0
 10
799.84228515625
 20
-325.47607421875
 30
0.0
 10
800.09912109375
 20
-326.09326171875
 30
0.0
 10
800.7490234375
 20
-326.4677734375
 30
0.0
 10
801.2666015625
 20
-326.89111328125
 30
0.0
 10
801.33544921875
 20
-326.947265625
 30
0.0
 10
801.40576171875
 20
-327.0009765625
 30
0.0
 10
801.46875
 20
-327.0498046875
 30
0.0
  0
SPLINE
  5
58
330
1F
100
AcDbEntity
  8
LAYER_1
 62
   250
100
AcDbSpline
210
0.0
220
0.0
230
1.0
 70
    11
 71
     3
 72
    62
 73
    58
 74
     0
 42
0.0000000001
 43
0.0000000001
 40
0.0
 40
0.0
 40
0.0
 40
0.0
 40
1.0
 40
1.0
 40
1.0
 40
2.0
 40
2.0
 40
2.0
 40
3.0
 40
3.0
 40
3.0
 40
4.0
 40
4.0
 40
4.0
 40
5.0
 40
5.0
 40
5.0
 40
6.0
 40
6.0
 40
6.0
 40
7.0
 40
7.0
 40
7.0
 40
8.0
 40
8.0
 40
8.0
 40
9.0
 40
9.0
 40
9.0
 40
10.0
 40
10.0
 40
10.0
 40
11.0
 40
11.0
 40
11.0
 40
12.0
 40
12.0
 40
12.0
 40
13.0
 40
13.0
 40
13.0
 40
14.0
 40
14.0
 40
14.0
 40
15.0
 40
15.0
 40
15.0
 40
16.0
 40
16.0
 40
16.0
 40
17.0
 40
17.0
 40
17.0
 40
18.0
 40
18.0
 40
18.0
 40
19.0
 40
19.0
 40
19.0
 40
19.0
 10
821.85546875
 20
-307.0185546875
 30
0.0
 10
823.634765625
 20
-303.89697265625
 30
0.0
 10
828.93798828125
 20
-303.123046875
 30
0.0
 10
831.52490234375
 20
-300.41357421875
 30
0.0
 10
833.39990234375
 20
-298.4501953125
 30
0.0
 10
835.1025390625
 20
-296.14697265625
 30
0.0
 10
835.5263671875
 20
-293.67138671875
 30
0.0
 10
836.0625
 20
-290.53857421875
 30
0.0
 10
834.0498046875
 20
-287.44873046875
 30
0.0
 10
833.52587890625
 20
-284.314453125
 30
0.0
 10
832.99169921875
 20
-281.12158203125
 30
0.0
 10
831.34130859375
 20
-277.794921875
 30
0.0
 10
832.3583984375
 20
-274.6826171875
 30
0.0
 10
832.87646484375
 20
-273.0986328125
 30
0.0
 10
834.56982421875
 20
-271.94091796875
 30
0.0
 10
835.85986328125
 20
-270.6923828125
 30
0.0
 10
838.029296875
 20
-268.5927734375
 30
0.0
 10
841.28759765625
 20
-267.22265625
 30
0.0
 10
842.958984375
 20
-264.8330078125
 30
0.0
 10
844.1533203125
 20
-263.1259765625
 30
0.0
 10
844.43212890625
 20
-261.06103515625
 30
0.0
 10
844.8154296875
 20
-259.11572265625
 30
0.0
 10
845.447265625
 20
-255.90478515625
 30
0.0
 10
841.8896484375
 20
-250.6123046875
 30
0.0
 10
845.529296875
 20
-249.3642578125
 30
0.0
 10
847.85400390625
 20
-248.5673828125
 30
0.0
 10
850.25
 20
-251.56787109375
 30
0.0
 10
851.19775390625
 20
-253.4921875
 30
0.0
 10
852.853515625
 20
-256.85546875
 30
0.0
 10
851.49609375
 20
-260.89453125
 30
0.0
 10
850.197265625
 20
-264.36279296875
 30
0.0
 10
849.0693359375
 20
-267.3759765625
 30
0.0
 10
846.37060546875
 20
-269.8330078125
 30
0.0
 10
844.4599609375
 20
-272.564453125
 30
0.0
 10
843.26611328125
 20
-274.271484375
 30
0.0
 10
841.4921875
 20
-275.78662109375
 30
0.0
 10
840.87451171875
 20
-277.6904296875
 30
0.0
 10
839.63818359375
 20
-281.498046875
 30
0.0
 10
840.87451171875
 20
-285.58642578125
 30
0.0
 10
840.87451171875
 20
-289.5283203125
 30
0.0
 10
840.87451171875
 20
-292.2880859375
 30
0.0
 10
842.15380859375
 20
-295.265625
 30
0.0
 10
840.87451171875
 20
-297.81494140625
 30
0.0
 10
839.412109375
 20
-300.728515625
 30
0.0
 10
835.86865234375
 20
-302.67724609375
 30
0.0
 10
832.7607421875
 20
-304.51171875
 30
0.0
 10
830.2333984375
 20
-306.00341796875
 30
0.0
 10
827.29296875
 20
-307.00341796875
 30
0.0
 10
824.3837890625
 20
-307.90478515625
 30
0.0
 10
823.712890625
 20
-308.1123046875
 30
0.0
 10
822.984375
 20
-308.17431640625
 30
0.0
 10
822.3056640625
 20
-308.3642578125
 30
0.0
 10
822.15185546875
 20
-308.4072265625
 30
0.0
 10
821.990234375
 20
-308.59228515625
 30
0.0
 10
821.85546875
 20
-308.51806640625
 30
0.0
 10
821.3525390625
 20
-308.240234375
 30
0.0
 10
821.59814453125
 20
-307.47021484375
 30
0.0
 10
821.85546875
 20
-307.0185546875
 30
0.0
  0
SPLINE
  5
59
330
1F
100
AcDbEntity
  8
LAYER_1
 62
   250
100
AcDbSpline
210
0.0
220
0.0
230
1.0
 70
    11
 71
     3
 72
    44
 73
    40
 74
     0
 42
0.0000000001
 43
0.0000000001
 40
0.0
 40
0.0
 40
0.0
 40
0.0
 40
1.0
 40
1.0
 40
1.0
 40
2.0
 40
2.0
 40
2.0
 40
3.0
 40
3.0
 40
3.0
 40
4.0
 40
4.0
 40
4.0
 40
5.0
 40
5.0
 40
5.0
 40
6.0
 40
6.0
 40
6.0
 40
7.0
 40
7.0
 40
7.0
 40
8.0
 40
8.0
 40
8.0
 40
9.0
 40
9.0
 40
9.0
 40
10.0
 40
10.0
 40
10.0
 40
11.0
 40
11.0
 40
11.0
 40
12.0
 40
12.0
 40
12.0
 40
13.0
 40
13.0
 40
13.0
 40
13.0
 10
856.85205078125
 20
-251.6865234375
 30
0.0
 10
859.80712890625
 20
-251.4892578125
 30
0.0
 10
862.37939453125
 20
-251.6865234375
 30
0.0
 10
865.138671875
 20
-251.6865234375
 30
0.0
 10
865.53271484375
 20
-251.6865234375
 30
0.0
 10
866.0439453125
 20
-251.40771484375
 30
0.0
 10
866.322265625
 20
-251.6865234375
 30
0.0
 10
866.60107421875
 20
-251.96484375
 30
0.0
 10
866.337890625
 20
-252.47607421875
 30
0.0
 10
866.322265625
 20
-252.8701171875
 30
0.0
 10
866.0830078125
 20
-259.08203125
 30
0.0
 10
866.26904296875
 20
-265.4228515625
 30
0.0
 10
864.88330078125
 20
-271.48291015625
 30
0.0
 10
863.529296875
 20
-277.40576171875
 30
0.0
 10
861.56982421875
 20
-283.39208984375
 30
0.0
 10
858.24609375
 20
-288.4775390625
 30
0.0
 10
856.30517578125
 20
-291.447265625
 30
0.0
 10
854.18359375
 20
-295.27783203125
 30
0.0
 10
850.71240234375
 20
-296.01123046875
 30
0.0
 10
849.71435546875
 20
-296.22216796875
 30
0.0
 10
848.53662109375
 20
-295.6650390625
 30
0.0
 10
847.85498046875
 20
-294.90625
 30
0.0
 10
847.064453125
 20
-294.0263671875
 30
0.0
 10
846.89111328125
 20
-292.65771484375
 30
0.0
 10
846.935546875
 20
-291.4755859375
 30
0.0
 10
847.01025390625
 20
-289.4873046875
 30
0.0
 10
847.8525390625
 20
-287.5205078125
 30
0.0
 10
848.91162109375
 20
-285.83544921875
 30
0.0
 10
849.75048828125
 20
-284.50048828125
 30
0.0
 10
851.2626953125
 20
-283.708984375
 30
0.0
 10
852.259765625
 20
-282.4873046875
 30
0.0
 10
854.0146484375
 20
-280.3369140625
 30
0.0
 10
855.7138671875
 20
-278.0634765625
 30
0.0
 10
856.85205078125
 20
-275.5322265625
 30
0.0
 10
857.98388671875
 20
-273.015625
 30
0.0
 10
858.8212890625
 20
-270.28173828125
 30
0.0
 10
858.9970703125
 20
-267.52783203125
 30
0.0
 10
859.33544921875
 20
-262.21533203125
 30
0.0
 10
857.14697265625
 20
-257.21533203125
 30
0.0
 10
856.85205078125
 20
-251.6865234375
 30
0.0
  0
SPLINE
  5
5A
330
1F
100
AcDbEntity
  8
LAYER_1
 62
   250
100
AcDbSpline
210
0.0
220
0.0
230
1.0
 70
    11
 71
     3
 72
    62
 73
    58
 74
     0
 42
0.0000000001
 43
0.0000000001
 40
0.0
 40
0.0
 40
0.0
 40
0.0
 40
1.0
 40
1.0
 40
1.0
 40
2.0
 40
2.0
 40
2.0
 40
3.0
 40
3.0
 40
3.0
 40
4.0
 40
4.0
 40
4.0
 40
5.0
 40
5.0
 40
5.0
 40
6.0
 40
6.0
 40
6.0
 40
7.0
 40
7.0
 40
7.0
 40
8.0
 40
8.0
 40
8.0
 40
9.0
 40
9.0
 40
9.0
 40
10.0
 40
10.0
 40
10.0
 40
11.0
 40
11.0
 40
11.0
 40
12.0
 40
12.0
 40
12.0
 40
13.0
 40
13.0
 40
13.0
 40
14.0
 40
14.0
 40
14.0
 40
15.0
 40
15.0
 40
15.0
 40
16.0
 40
16.0
 40
16.0
 40
17.0
 40
17.0
 40
17.0
 40
18.0
 40
18.0
 40
18.0
 40
19.0
 40
19.0
 40
19.0
 40
19.0
 10
887.1787109375
 20
-242.61279296875
 30
0.0
 10
888.3447265625
 20
-242.546630859375
 30
0.0
 10
889.451171875
 20
-241.797607421875
 30
0.0
 10
890.61328125
 20
-241.908447265625
 30
0.0
 10
892.44580078125
 20
-242.0830078125
 30
0.0
 10
894.28955078125
 20
-242.864990234375
 30
0.0
 10
895.72119140625
 20
-244.02197265625
 30
0.0
 10
896.5244140625
 20
-244.671142578125
 30
0.0
 10
896.8212890625
 20
-245.781982421875
 30
0.0
 10
897.482421875
 20
-246.57568359375
 30
0.0
 10
897.98681640625
 20
-247.181640625
 30
0.0
 10
898.375
 20
-248.35302734375
 30
0.0
 10
899.15625
 20
-248.25
 30
0.0
 10
899.93798828125
 20
-248.14697265625
 30
0.0
 10
899.8603515625
 20
-246.8251953125
 30
0.0
 10
900.34033203125
 20
-246.199462890625
 30
0.0
 10
901.06005859375
 20
-245.26123046875
 30
0.0
 10
901.80029296875
 20
-244.229736328125
 30
0.0
 10
902.8515625
 20
-243.688232421875
 30
0.0
 10
904.7822265625
 20
-242.694091796875
 30
0.0
 10
907.1142578125
 20
-242.508544921875
 30
0.0
 10
909.28271484375
 20
-242.61279296875
 30
0.0
 10
910.85791015625
 20
-242.688720703125
 30
0.0
 10
912.82666015625
 20
-245.032470703125
 30
0.0
 10
913.85693359375
 20
-243.83837890625
 30
0.0
 10
914.3349609375
 20
-243.28369140625
 30
0.0
 10
913.3525390625
 20
-242.451904296875
 30
0.0
 10
912.9814453125
 20
-241.8203125
 30
0.0
 10
912.11962890625
 20
-240.352783203125
 30
0.0
 10
910.36962890625
 20
-239.389892578125
 30
0.0
 10
909.87646484375
 20
-237.760986328125
 30
0.0
 10
909.45654296875
 20
-236.375
 30
0.0
 10
909.56103515625
 20
-234.740478515625
 30
0.0
 10
910.158203125
 20
-233.421142578125
 30
0.0
 10
910.64599609375
 20
-232.343994140625
 30
0.0
 10
912.70263671875
 20
-232.09228515625
 30
0.0
 10
912.66943359375
 20
-230.91015625
 30
0.0
 10
912.65966796875
 20
-230.556640625
 30
0.0
 10
912.2216796875
 20
-230.2841796875
 30
0.0
 10
911.8779296875
 20
-230.2021484375
 30
0.0
 10
910.34375
 20
-229.836669921875
 30
0.0
 10
908.81884765625
 20
-230.99072265625
 30
0.0
 10
907.3037109375
 20
-231.427734375
 30
0.0
 10
904.1396484375
 20
-232.3408203125
 30
0.0
 10
900.8984375
 20
-233.09130859375
 30
0.0
 10
897.85546875
 20
-234.350341796875
 30
0.0
 10
895.47216796875
 20
-235.336181640625
 30
0.0
 10
893.1630859375
 20
-236.55029296875
 30
0.0
 10
891.001953125
 20
-237.95751953125
 30
0.0
 10
889.4609375
 20
-238.96044921875
 30
0.0
 10
887.47412109375
 20
-239.729248046875
 30
0.0
 10
886.67333984375
 20
-241.384033203125
 30
0.0
 10
886.50146484375
 20
-241.739013671875
 30
0.0
 10
886.4072265625
 20
-242.277099609375
 30
0.0
 10
886.67333984375
 20
-242.56787109375
 30
0.0
 10
886.78759765625
 20
-242.692626953125
 30
0.0
 10
887.01025390625
 20
-242.62255859375
 30
0.0
 10
887.1787109375
 20
-242.61279296875
 30
0.0
  0
SPLINE
  5
5B
330
1F
100
AcDbEntity
  8
LAYER_1
 62
   250
100
AcDbSpline
210
0.0
220
0.0
230
1.0
 70
    11
 71
     3
 72
    50
 73
    46
 74
     0
 42
0.0000000001
 43
0.0000000001
 40
0.0
 40
0.0
 40
0.0
 40
0.0
 40
1.0
 40
1.0
 40
1.0
 40
2.0
 40
2.0
 40
2.0
 40
3.0
 40
3.0
 40
3.0
 40
4.0
 40
4.0
 40
4.0
 40
5.0
 40
5.0
 40
5.0
 40
6.0
 40
6.0
 40
6.0
 40
7.0
 40
7.0
 40
7.0
 40
8.0
 40
8.0
 40
8.0
 40
9.0
 40
9.0
 40
9.0
 40
10.0
 40
10.0
 40
10.0
 40
11.0
 40
11.0
 40
11.0
 40
12.0
 40
12.0
 40
12.0
 40
13.0
 40
13.0
 40
13.0
 40
14.0
 40
14.0
 40
14.0
 40
15.0
 40
15.0
 40
15.0
 40
15.0
 10
854.84716796875
 20
-427.5302734375
 30
0.0
 10
854.41650390625
 20
-424.84765625
 30
0.0
 10
853.40380859375
 20
-422.2607421875
 30
0.0
 10
852.29345703125
 20
-419.78076171875
 30
0.0
 10
851.32666015625
 20
-417.6220703125
 30
0.0
 10
850.07275390625
 20
-415.5849609375
 30
0.0
 10
848.74169921875
 20
-413.62939453125
 30
0.0
 10
847.76953125
 20
-412.2001953125
 30
0.0
 10
845.5
 20
-411.2939453125
 30
0.0
 10
845.5126953125
 20
-409.5654296875
 30
0.0
 10
845.515625
 20
-409.1484375
 30
0.0
 10
845.92822265625
 20
-408.77490234375
 30
0.0
 10
846.30517578125
 20
-408.5966796875
 30
0.0
 10
847.37353515625
 20
-408.09033203125
 30
0.0
 10
848.677734375
 20
-408.5
 30
0.0
 10
849.8564453125
 20
-408.5966796875
 30
0.0
 10
851.83154296875
 20
-408.75830078125
 30
0.0
 10
853.7529296875
 20
-409.4033203125
 30
0.0
 10
855.7275390625
 20
-409.5654296875
 30
0.0
 10
858.47802734375
 20
-409.79052734375
 30
0.0
 10
861.38037109375
 20
-408.7431640625
 30
0.0
 10
864.0146484375
 20
-409.5654296875
 30
0.0
 10
864.5556640625
 20
-409.734375
 30
0.0
 10
865.43798828125
 20
-409.96728515625
 30
0.0
 10
865.4150390625
 20
-410.5341796875
 30
0.0
 10
865.36669921875
 20
-411.7158203125
 30
0.0
 10
863.22509765625
 20
-411.5263671875
 30
0.0
 10
862.33935546875
 20
-412.3095703125
 30
0.0
 10
860.8037109375
 20
-413.66845703125
 30
0.0
 10
859.396484375
 20
-415.32373046875
 30
0.0
 10
858.6337890625
 20
-417.22705078125
 30
0.0
 10
857.78857421875
 20
-419.33740234375
 30
0.0
 10
858.556640625
 20
-421.849609375
 30
0.0
 10
857.84130859375
 20
-424.0078125
 30
0.0
 10
857.46923828125
 20
-425.13037109375
 30
0.0
 10
856.96240234375
 20
-426.3125
 30
0.0
 10
856.0654296875
 20
-427.08349609375
 30
0.0
 10
855.755859375
 20
-427.349609375
 30
0.0
 10
855.31689453125
 20
-427.419921875
 30
0.0
 10
854.923828125
 20
-427.5302734375
 30
0.0
 10
854.89892578125
 20
-427.537109375
 30
0.0
 10
854.8671875
 20
-427.560546875
 30
0.0
 10
854.84716796875
 20
-427.5439453125
 30
0.0
 10
854.84375
 20
-427.541015625
 30
0.0
 10
854.84765625
 20
-427.53466796875
 30
0.0
 10
854.84716796875
 20
-427.5302734375
 30
0.0
  0
SPLINE
  5
5C
330
1F
100
AcDbEntity
  8
LAYER_1
 62
   250
100
AcDbSpline
210
0.0
220
0.0
230
1.0
 70
    11
 71
     3
 72
    32
 73
    28
 74
     0
 42
0.0000000001
 43
0.0000000001
 40
0.0
 40
0.0
 40
0.0
 40
0.0
 40
1.0
 40
1.0
 40
1.0
 40
2.0
 40
2.0
 40
2.0
 40
3.0
 40
3.0
 40
3.0
 40
4.0
 40
4.0
 40
4.0
 40
5.0
 40
5.0
 40
5.0
 40
6.0
 40
6.0
 40
6.0
 40
7.0
 40
7.0
 40
7.0
 40
8.0
 40
8.0
 40
8.0
 40
9.0
 40
9.0
 40
9.0
 40
9.0
 10
874.37646484375
 20
-426.076171875
 30
0.0
 10
874.30517578125
 20
-423.6669921875
 30
0.0
 10
875.61181640625
 20
-421.39013671875
 30
0.0
 10
875.8603515625
 20
-418.9931640625
 30
0.0
 10
876.103515625
 20
-416.646484375
 30
0.0
 10
875.55224609375
 20
-414.24755859375
 30
0.0
 10
875.8603515625
 20
-411.90869140625
 30
0.0
 10
875.921875
 20
-411.44091796875
 30
0.0
 10
875.771484375
 20
-410.662109375
 30
0.0
 10
876.22705078125
 20
-410.5400390625
 30
0.0
 10
876.6826171875
 20
-410.41796875
 30
0.0
 10
876.92724609375
 20
-411.17919921875
 30
0.0
 10
877.22900390625
 20
-411.5419921875
 30
0.0
 10
879.099609375
 20
-413.79345703125
 30
0.0
 10
881.70703125
 20
-415.90576171875
 30
0.0
 10
882.201171875
 20
-418.79052734375
 30
0.0
 10
882.599609375
 20
-421.11572265625
 30
0.0
 10
881.87158203125
 20
-423.81591796875
 30
0.0
 10
880.36767578125
 20
-425.6337890625
 30
0.0
 10
879.5595703125
 20
-426.6103515625
 30
0.0
 10
878.18701171875
 20
-427.0634765625
 30
0.0
 10
876.939453125
 20
-427.2900390625
 30
0.0
 10
876.1865234375
 20
-427.42724609375
 30
0.0
 10
875.236328125
 20
-427.57421875
 30
0.0
 10
874.64990234375
 20
-427.08251953125
 30
0.0
 10
874.3837890625
 20
-426.859375
 30
0.0
 10
874.38671875
 20
-426.4228515625
 30
0.0
 10
874.37646484375
 20
-426.076171875
 30
0.0
  0
SPLINE
  5
5D
330
1F
100
AcDbEntity
  8
LAYER_1
 62
   250
100
AcDbSpline
210
0.0
220
0.0
230
1.0
 70
    11
 71
     3
 72
    47
 73
    43
 74
     0
 42
0.0000000001
 43
0.0000000001
 40
0.0
 40
0.0
 40
0.0
 40
0.0
 40
1.0
 40
1.0
 40
1.0
 40
2.0
 40
2.0
 40
2.0
 40
3.0
 40
3.0
 40
3.0
 40
4.0
 40
4.0
 40
4.0
 40
5.0
 40
5.0
 40
5.0
 40
6.0
 40
6.0
 40
6.0
 40
7.0
 40
7.0
 40
7.0
 40
8.0
 40
8.0
 40
8.0
 40
9.0
 40
9.0
 40
9.0
 40
10.0
 40
10.0
 40
10.0
 40
11.0
 40
11.0
 40
11.0
 40
12.0
 40
12.0
 40
12.0
 40
13.0
 40
13.0
 40
13.0
 40
14.0
 40
14.0
 40
14.0
 40
14.0
 10
932.8671875
 20
-430.81396484375
 30
0.0
 10
934.5966796875
 20
-428.552734375
 30
0.0
 10
934.92041015625
 20
-425.44775390625
 30
0.0
 10
936.4775390625
 20
-423.064453125
 30
0.0
 10
938.08056640625
 20
-420.6123046875
 30
0.0
 10
940.28515625
 20
-418.59619140625
 30
0.0
 10
942.2900390625
 20
-416.4599609375
 30
0.0
 10
943.369140625
 20
-415.31005859375
 30
0.0
 10
945.35498046875
 20
-414.66259765625
 30
0.0
 10
945.63818359375
 20
-413.111328125
 30
0.0
 10
945.75390625
 20
-412.47900390625
 30
0.0
 10
945.3837890625
 20
-411.70068359375
 30
0.0
 10
944.84375
 20
-411.35205078125
 30
0.0
 10
943.8505859375
 20
-410.71044921875
 30
0.0
 10
942.4716796875
 20
-411.4443359375
 30
0.0
 10
941.29248046875
 20
-411.35205078125
 30
0.0
 10
938.845703125
 20
-411.1611328125
 30
0.0
 10
936.43115234375
 20
-410.62060546875
 30
0.0
 10
934.01220703125
 20
-410.20751953125
 30
0.0
 10
932.1015625
 20
-409.880859375
 30
0.0
 10
930.02294921875
 20
-408.2861328125
 30
0.0
 10
928.2880859375
 20
-409.150390625
 30
0.0
 10
927.701171875
 20
-409.44287109375
 30
0.0
 10
927.33349609375
 20
-410.26025390625
 30
0.0
 10
927.4072265625
 20
-410.91162109375
 30
0.0
 10
927.47998046875
 20
-411.5537109375
 30
0.0
 10
928.3076171875
 20
-411.85546875
 30
0.0
 10
928.64013671875
 20
-412.40869140625
 30
0.0
 10
929.5068359375
 20
-413.85107421875
 30
0.0
 10
930.31884765625
 20
-415.41357421875
 30
0.0
 10
930.57763671875
 20
-417.076171875
 30
0.0
 10
930.8447265625
 20
-418.7919921875
 30
0.0
 10
930.14599609375
 20
-420.53564453125
 30
0.0
 10
930.13720703125
 20
-422.27197265625
 30
0.0
 10
930.12744140625
 20
-424.2421875
 30
0.0
 10
929.9970703125
 20
-426.28955078125
 30
0.0
 10
930.57763671875
 20
-428.17236328125
 30
0.0
 10
930.92578125
 20
-429.30224609375
 30
0.0
 10
931.1884765625
 20
-431.0439453125
 30
0.0
 10
932.353515625
 20
-431.248046875
 30
0.0
 10
932.57373046875
 20
-431.28662109375
 30
0.0
 10
932.73095703125
 20
-430.9921875
 30
0.0
 10
932.8671875
 20
-430.81396484375
 30
0.0
  0
SPLINE
  5
5E
330
1F
100
AcDbEntity
  8
LAYER_1
 62
   250
100
AcDbSpline
210
0.0
220
0.0
230
1.0
 70
    11
 71
     3
 72
    41
 73
    37
 74
     0
 42
0.0000000001
 43
0.0000000001
 40
0.0
 40
0.0
 40
0.0
 40
0.0
 40
1.0
 40
1.0
 40
1.0
 40
2.0
 40
2.0
 40
2.0
 40
3.0
 40
3.0
 40
3.0
 40
4.0
 40
4.0
 40
4.0
 40
5.0
 40
5.0
 40
5.0
 40
6.0
 40
6.0
 40
6.0
 40
7.0
 40
7.0
 40
7.0
 40
8.0
 40
8.0
 40
8.0
 40
9.0
 40
9.0
 40
9.0
 40
10.0
 40
10.0
 40
10.0
 40
11.0
 40
11.0
 40
11.0
 40
12.0
 40
12.0
 40
12.0
 40
12.0
 10
817.27880859375
 20
-345.73486328125
 30
0.0
 10
819.6005859375
 20
-346.1884765625
 30
0.0
 10
821.2451171875
 20
-343.0888671875
 30
0.0
 10
823.43017578125
 20
-342.18359375
 30
0.0
 10
824.88720703125
 20
-341.580078125
 30
0.0
 10
826.44091796875
 20
-341.1640625
 30
0.0
 10
828.00390625
 20
-340.9580078125
 30
0.0
 10
830.73974609375
 20
-340.59765625
 30
0.0
 10
833.60400390625
 20
-341.5869140625
 30
0.0
 10
836.29052734375
 20
-340.9580078125
 30
0.0
 10
836.71240234375
 20
-340.859375
 30
0.0
 10
837.27783203125
 20
-340.775390625
 30
0.0
 10
837.4560546875
 20
-340.380859375
 30
0.0
 10
837.78076171875
 20
-339.662109375
 30
0.0
 10
837.2783203125
 20
-338.75146484375
 30
0.0
 10
836.84326171875
 20
-338.09375
 30
0.0
 10
836.013671875
 20
-336.83837890625
 30
0.0
 10
834.6748046875
 20
-335.88525390625
 30
0.0
 10
833.28564453125
 20
-335.30810546875
 30
0.0
 10
831.73095703125
 20
-334.66259765625
 30
0.0
 10
829.9521484375
 20
-334.67236328125
 30
0.0
 10
828.26953125
 20
-334.6884765625
 30
0.0
 10
826.5439453125
 20
-334.70458984375
 30
0.0
 10
824.73291015625
 20
-334.75732421875
 30
0.0
 10
823.140625
 20
-335.4208984375
 30
0.0
 10
821.61962890625
 20
-336.05517578125
 30
0.0
 10
820.24462890625
 20
-337.1376953125
 30
0.0
 10
819.1953125
 20
-338.408203125
 30
0.0
 10
818.27587890625
 20
-339.521484375
 30
0.0
 10
817.6318359375
 20
-340.89697265625
 30
0.0
 10
817.27880859375
 20
-342.296875
 30
0.0
 10
817.01123046875
 20
-343.3583984375
 30
0.0
 10
816.8232421875
 20
-344.54052734375
 30
0.0
 10
817.16015625
 20
-345.58203125
 30
0.0
 10
817.1796875
 20
-345.6435546875
 30
0.0
 10
817.2158203125
 20
-345.72265625
 30
0.0
 10
817.27880859375
 20
-345.73486328125
 30
0.0
  0
SPLINE
  5
5F
330
1F
100
AcDbEntity
  8
LAYER_1
 62
   250
100
AcDbSpline
210
0.0
220
0.0
230
1.0
 70
    11
 71
     3
 72
    56
 73
    52
 74
     0
 42
0.0000000001
 43
0.0000000001
 40
0.0
 40
0.0
 40
0.0
 40
0.0
 40
1.0
 40
1.0
 40
1.0
 40
2.0
 40
2.0
 40
2.0
 40
3.0
 40
3.0
 40
3.0
 40
4.0
 40
4.0
 40
4.0
 40
5.0
 40
5.0
 40
5.0
 40
6.0
 40
6.0
 40
6.0
 40
7.0
 40
7.0
 40
7.0
 40
8.0
 40
8.0
 40
8.0
 40
9.0
 40
9.0
 40
9.0
 40
10.0
 40
10.0
 40
10.0
 40
11.0
 40
11.0
 40
11.0
 40
12.0
 40
12.0
 40
12.0
 40
13.0
 40
13.0
 40
13.0
 40
14.0
 40
14.0
 40
14.0
 40
15.0
 40
15.0
 40
15.0
 40
16.0
 40
16.0
 40
16.0
 40
17.0
 40
17.0
 40
17.0
 40
17.0
 10
841.51513671875
 20
-406.62890625
 30
0.0
 10
839.5556640625
 20
-406.84033203125
 30
0.0
 10
838.1591796875
 20
-404.2314453125
 30
0.0
 10
837.32958984375
 20
-402.44384765625
 30
0.0
 10
835.57666015625
 20
-398.66552734375
 30
0.0
 10
836.6044921875
 20
-394.13232421875
 30
0.0
 10
836.2861328125
 20
-389.9794921875
 30
0.0
 10
836.03369140625
 20
-386.68212890625
 30
0.0
 10
837.701171875
 20
-382.62451171875
 30
0.0
 10
835.5986328125
 20
-380.072265625
 30
0.0
 10
834.595703125
 20
-378.85546875
 30
0.0
 10
832.587890625
 20
-379.052734375
 30
0.0
 10
831.0244140625
 20
-378.8466796875
 30
0.0
 10
828.6796875
 20
-378.5380859375
 30
0.0
 10
826.20654296875
 20
-379.458984375
 30
0.0
 10
823.921875
 20
-378.8466796875
 30
0.0
 10
822.3984375
 20
-378.43896484375
 30
0.0
 10
820.78076171875
 20
-377.73046875
 30
0.0
 10
819.82080078125
 20
-376.4794921875
 30
0.0
 10
819.3408203125
 20
-375.85400390625
 30
0.0
 10
818.72802734375
 20
-374.81787109375
 30
0.0
 10
819.2080078125
 20
-374.1923828125
 30
0.0
 10
820.16796875
 20
-372.94140625
 30
0.0
 10
822.36865234375
 20
-374.2724609375
 30
0.0
 10
823.943359375
 20
-374.1923828125
 30
0.0
 10
825.86181640625
 20
-374.0947265625
 30
0.0
 10
827.7705078125
 20
-373.798828125
 30
0.0
 10
829.681640625
 20
-373.60546875
 30
0.0
 10
833.3466796875
 20
-373.234375
 30
0.0
 10
837.10546875
 20
-373.3564453125
 30
0.0
 10
840.689453125
 20
-372.50439453125
 30
0.0
 10
842.55224609375
 20
-372.0615234375
 30
0.0
 10
844.197265625
 20
-369.98095703125
 30
0.0
 10
846.0556640625
 20
-370.4404296875
 30
0.0
 10
846.52880859375
 20
-370.5576171875
 30
0.0
 10
846.94140625
 20
-371.060546875
 30
0.0
 10
847.01904296875
 20
-371.54150390625
 30
0.0
 10
847.169921875
 20
-372.4736328125
 30
0.0
 10
846.28173828125
 20
-373.28369140625
 30
0.0
 10
845.91845703125
 20
-374.15576171875
 30
0.0
 10
844.716796875
 20
-377.0380859375
 30
0.0
 10
842.9482421875
 20
-379.76123046875
 30
0.0
 10
842.3408203125
 20
-382.82421875
 30
0.0
 10
841.34423828125
 20
-387.85107421875
 30
0.0
 10
842.462890625
 20
-393.0908203125
 30
0.0
 10
842.3408203125
 20
-398.2138671875
 30
0.0
 10
842.27978515625
 20
-400.7802734375
 30
0.0
 10
842.7548828125
 20
-403.46875
 30
0.0
 10
841.9736328125
 20
-405.91455078125
 30
0.0
 10
841.8876953125
 20
-406.18408203125
 30
0.0
 10
841.79638671875
 20
-406.5986328125
 30
0.0
 10
841.51513671875
 20
-406.62890625
 30
0.0
  0
SPLINE
  5
60
330
1F
100
AcDbEntity
  8
LAYER_1
 62
   250
100
AcDbSpline
210
0.0
220
0.0
230
1.0
 70
    11
 71
     3
 72
    59
 73
    55
 74
     0
 42
0.0000000001
 43
0.0000000001
 40
0.0
 40
0.0
 40
0.0
 40
0.0
 40
1.0
 40
1.0
 40
1.0
 40
2.0
 40
2.0
 40
2.0
 40
3.0
 40
3.0
 40
3.0
 40
4.0
 40
4.0
 40
4.0
 40
5.0
 40
5.0
 40
5.0
 40
6.0
 40
6.0
 40
6.0
 40
7.0
 40
7.0
 40
7.0
 40
8.0
 40
8.0
 40
8.0
 40
9.0
 40
9.0
 40
9.0
 40
10.0
 40
10.0
 40
10.0
 40
11.0
 40
11.0
 40
11.0
 40
12.0
 40
12.0
 40
12.0
 40
13.0
 40
13.0
 40
13.0
 40
14.0
 40
14.0
 40
14.0
 40
15.0
 40
15.0
 40
15.0
 40
16.0
 40
16.0
 40
16.0
 40
17.0
 40
17.0
 40
17.0
 40
18.0
 40
18.0
 40
18.0
 40
18.0
 10
743.9365234375
 20
-185.729736328125
 30
0.0
 10
746.58203125
 20
-181.538818359375
 30
0.0
 10
752.38916015625
 20
-181.238525390625
 30
0.0
 10
756.708984375
 20
-179.234375
 30
0.0
 10
758.9853515625
 20
-178.178466796875
 30
0.0
 10
761.51220703125
 20
-177.685302734375
 30
0.0
 10
763.6416015625
 20
-176.318603515625
 30
0.0
 10
765.2890625
 20
-175.260986328125
 30
0.0
 10
766.8525390625
 20
-173.934326171875
 30
0.0
 10
768.03759765625
 20
-172.309326171875
 30
0.0
 10
768.19287109375
 20
-172.095947265625
 30
0.0
 10
768.16162109375
 20
-171.722900390625
 30
0.0
 10
768.37548828125
 20
-171.580322265625
 30
0.0
 10
768.7109375
 20
-171.35693359375
 30
0.0
 10
769.28076171875
 20
-171.27978515625
 30
0.0
 10
769.5595703125
 20
-171.580322265625
 30
0.0
 10
769.83837890625
 20
-171.880615234375
 30
0.0
 10
769.61083984375
 20
-172.43505859375
 30
0.0
 10
769.5595703125
 20
-172.856201171875
 30
0.0
 10
769.2509765625
 20
-175.3837890625
 30
0.0
 10
768.51611328125
 20
-177.849853515625
 30
0.0
 10
767.72119140625
 20
-180.2509765625
 30
0.0
 10
766.8408203125
 20
-182.910888671875
 30
0.0
 10
765.77978515625
 20
-185.52587890625
 30
0.0
 10
764.48681640625
 20
-187.982177734375
 30
0.0
 10
764.1142578125
 20
-188.689697265625
 30
0.0
 10
763.794921875
 20
-189.49951171875
 30
0.0
 10
763.1904296875
 20
-189.98681640625
 30
0.0
 10
762.95263671875
 20
-190.17822265625
 30
0.0
 10
762.6337890625
 20
-190.364013671875
 30
0.0
 10
762.34521484375
 20
-190.29052734375
 30
0.0
 10
761.96142578125
 20
-190.19287109375
 30
0.0
 10
761.6943359375
 20
-189.7626953125
 30
0.0
 10
761.5078125
 20
-189.38818359375
 30
0.0
 10
761.09912109375
 20
-188.567138671875
 30
0.0
 10
761.35205078125
 20
-187.4931640625
 30
0.0
 10
760.9921875
 20
-186.6455078125
 30
0.0
 10
760.775390625
 20
-186.13427734375
 30
0.0
 10
760.49169921875
 20
-185.57958984375
 30
0.0
 10
760.0341796875
 20
-185.30908203125
 30
0.0
 10
758.94384765625
 20
-184.664306640625
 30
0.0
 10
757.5576171875
 20
-184.903564453125
 30
0.0
 10
756.314453125
 20
-184.94482421875
 30
0.0
 10
753.255859375
 20
-185.0458984375
 30
0.0
 10
750.2607421875
 20
-185.98193359375
 30
0.0
 10
747.23095703125
 20
-186.4443359375
 30
0.0
 10
746.27001953125
 20
-186.5908203125
 30
0.0
 10
745.29736328125
 20
-187.02685546875
 30
0.0
 10
744.34130859375
 20
-186.848876953125
 30
0.0
 10
744.1728515625
 20
-186.817626953125
 30
0.0
 10
743.96875
 20
-186.758056640625
 30
0.0
 10
743.8837890625
 20
-186.59814453125
 30
0.0
 10
743.7509765625
 20
-186.34619140625
 30
0.0
 10
743.78515625
 20
-185.96923828125
 30
0.0
 10
743.9365234375
 20
-185.729736328125
 30
0.0
  0
SPLINE
  5
61
330
1F
100
AcDbEntity
  8
LAYER_1
 62
   250
100
AcDbSpline
210
0.0
220
0.0
230
1.0
 70
    11
 71
     3
 72
    41
 73
    37
 74
     0
 42
0.0000000001
 43
0.0000000001
 40
0.0
 40
0.0
 40
0.0
 40
0.0
 40
1.0
 40
1.0
 40
1.0
 40
2.0
 40
2.0
 40
2.0
 40
3.0
 40
3.0
 40
3.0
 40
4.0
 40
4.0
 40
4.0
 40
5.0
 40
5.0
 40
5.0
 40
6.0
 40
6.0
 40
6.0
 40
7.0
 40
7.0
 40
7.0
 40
8.0
 40
8.0
 40
8.0
 40
9.0
 40
9.0
 40
9.0
 40
10.0
 40
10.0
 40
10.0
 40
11.0
 40
11.0
 40
11.0
 40
12.0
 40
12.0
 40
12.0
 40
12.0
 10
840.63623046875
 20
-178.0517578125
 30
0.0
 10
840.408203125
 20
-180.324462890625
 30
0.0
 10
843.287109375
 20
-182.014892578125
 30
0.0
 10
845.31396484375
 20
-183.06787109375
 30
0.0
 10
846.52490234375
 20
-183.69677734375
 30
0.0
 10
848.01123046875
 20
-183.537353515625
 30
0.0
 10
849.3720703125
 20
-183.631591796875
 30
0.0
 10
851.7314453125
 20
-183.794677734375
 30
0.0
 10
854.1142578125
 20
-183.485595703125
 30
0.0
 10
856.47509765625
 20
-183.631591796875
 30
0.0
 10
859.21142578125
 20
-183.80078125
 30
0.0
 10
862.0810546875
 20
-183.676025390625
 30
0.0
 10
864.64599609375
 20
-184.64599609375
 30
0.0
 10
866.32568359375
 20
-185.28125
 30
0.0
 10
867.49951171875
 20
-186.87109375
 30
0.0
 10
869.09814453125
 20
-187.689453125
 30
0.0
 10
869.73779296875
 20
-188.016845703125
 30
0.0
 10
870.50927734375
 20
-188.788330078125
 30
0.0
 10
871.12744140625
 20
-188.422119140625
 30
0.0
 10
871.86279296875
 20
-187.986328125
 30
0.0
 10
871.787109375
 20
-186.698486328125
 30
0.0
 10
871.52197265625
 20
-185.885986328125
 30
0.0
 10
870.91015625
 20
-184.01220703125
 30
0.0
 10
868.900390625
 20
-182.900390625
 30
0.0
 10
867.33642578125
 20
-181.700439453125
 30
0.0
 10
865.1474609375
 20
-180.020751953125
 30
0.0
 10
862.77099609375
 20
-178.4501953125
 30
0.0
 10
860.16015625
 20
-177.55712890625
 30
0.0
 10
856.71142578125
 20
-176.3779296875
 30
0.0
 10
852.95654296875
 20
-176.24462890625
 30
0.0
 10
849.31591796875
 20
-176.0791015625
 30
0.0
 10
847.2138671875
 20
-175.983642578125
 30
0.0
 10
844.9921875
 20
-175.67431640625
 30
0.0
 10
843.00341796875
 20
-176.361083984375
 30
0.0
 10
842.087890625
 20
-176.677001953125
 30
0.0
 10
840.73291015625
 20
-177.087890625
 30
0.0
 10
840.63623046875
 20
-178.0517578125
 30
0.0
  0
SPLINE
  5
62
330
1F
100
AcDbEntity
  8
LAYER_1
 62
   250
100
AcDbSpline
210
0.0
220
0.0
230
1.0
 70
    11
 71
     3
 72
    47
 73
    43
 74
     0
 42
0.0000000001
 43
0.0000000001
 40
0.0
 40
0.0
 40
0.0
 40
0.0
 40
1.0
 40
1.0
 40
1.0
 40
2.0
 40
2.0
 40
2.0
 40
3.0
 40
3.0
 40
3.0
 40
4.0
 40
4.0
 40
4.0
 40
5.0
 40
5.0
 40
5.0
 40
6.0
 40
6.0
 40
6.0
 40
7.0
 40
7.0
 40
7.0
 40
8.0
 40
8.0
 40
8.0
 40
9.0
 40
9.0
 40
9.0
 40
10.0
 40
10.0
 40
10.0
 40
11.0
 40
11.0
 40
11.0
 40
12.0
 40
12.0
 40
12.0
 40
13.0
 40
13.0
 40
13.0
 40
14.0
 40
14.0
 40
14.0
 40
14.0
 10
894.689453125
 20
-424.7412109375
 30
0.0
 10
893.185546875
 20
-423.4365234375
 30
0.0
 10
893.86767578125
 20
-420.8134765625
 30
0.0
 10
893.84423828125
 20
-418.8232421875
 30
0.0
 10
893.81591796875
 20
-416.43701171875
 30
0.0
 10
894.93701171875
 20
-414.0810546875
 30
0.0
 10
894.689453125
 20
-411.70751953125
 30
0.0
 10
894.5
 20
-409.88525390625
 30
0.0
 10
893.68359375
 20
-408.1640625
 30
0.0
 10
892.92822265625
 20
-406.494140625
 30
0.0
 10
892.603515625
 20
-405.77587890625
 30
0.0
 10
891.61279296875
 20
-405.22119140625
 30
0.0
 10
891.74462890625
 20
-404.44384765625
 30
0.0
 10
891.81591796875
 20
-404.0224609375
 30
0.0
 10
892.31298828125
 20
-403.74462890625
 30
0.0
 10
892.716796875
 20
-403.60595703125
 30
0.0
 10
896.359375
 20
-402.35302734375
 30
0.0
 10
900.6376953125
 20
-402.88916015625
 30
0.0
 10
904.27099609375
 20
-404.16943359375
 30
0.0
 10
905.173828125
 20
-404.4873046875
 30
0.0
 10
906.2763671875
 20
-404.9580078125
 30
0.0
 10
906.595703125
 20
-405.8603515625
 30
0.0
 10
906.85888671875
 20
-406.603515625
 30
0.0
 10
906.4267578125
 20
-407.49560546875
 30
0.0
 10
905.98291015625
 20
-408.14697265625
 30
0.0
 10
905.3046875
 20
-409.14306640625
 30
0.0
 10
903.85888671875
 20
-409.384765625
 30
0.0
 10
903.0732421875
 20
-410.298828125
 30
0.0
 10
900.9453125
 20
-412.7734375
 30
0.0
 10
899.52197265625
 20
-415.8662109375
 30
0.0
 10
898.494140625
 20
-418.9638671875
 30
0.0
 10
897.91845703125
 20
-420.69921875
 30
0.0
 10
898.68212890625
 20
-422.880859375
 30
0.0
 10
897.6484375
 20
-424.388671875
 30
0.0
 10
897.20263671875
 20
-425.0390625
 30
0.0
 10
896.3662109375
 20
-425.75146484375
 30
0.0
 10
895.59814453125
 20
-425.57275390625
 30
0.0
 10
895.27392578125
 20
-425.4970703125
 30
0.0
 10
895.3359375
 20
-424.89794921875
 30
0.0
 10
895.0419921875
 20
-424.7412109375
 30
0.0
 10
894.9384765625
 20
-424.685546875
 30
0.0
 10
894.7783203125
 20
-424.81787109375
 30
0.0
 10
894.689453125
 20
-424.7412109375
 30
0.0
  0
SPLINE
  5
63
330
1F
100
AcDbEntity
  8
LAYER_1
 62
   250
100
AcDbSpline
210
0.0
220
0.0
230
1.0
 70
    11
 71
     3
 72
    41
 73
    37
 74
     0
 42
0.0000000001
 43
0.0000000001
 40
0.0
 40
0.0
 40
0.0
 40
0.0
 40
1.0
 40
1.0
 40
1.0
 40
2.0
 40
2.0
 40
2.0
 40
3.0
 40
3.0
 40
3.0
 40
4.0
 40
4.0
 40
4.0
 40
5.0
 40
5.0
 40
5.0
 40
6.0
 40
6.0
 40
6.0
 40
7.0
 40
7.0
 40
7.0
 40
8.0
 40
8.0
 40
8.0
 40
9.0
 40
9.0
 40
9.0
 40
10.0
 40
10.0
 40
10.0
 40
11.0
 40
11.0
 40
11.0
 40
12.0
 40
12.0
 40
12.0
 40
12.0
 10
819.5849609375
 20
-353.259765625
 30
0.0
 10
819.275390625
 20
-353.01611328125
 30
0.0
 10
818.9453125
 20
-352.75048828125
 30
0.0
 10
818.56005859375
 20
-352.66748046875
 30
0.0
 10
816.64404296875
 20
-352.25634765625
 30
0.0
 10
814.50146484375
 20
-352.4765625
 30
0.0
 10
812.705078125
 20
-353.259765625
 30
0.0
 10
810.95703125
 20
-354.02197265625
 30
0.0
 10
809.19091796875
 20
-355.3056640625
 30
0.0
 10
808.4052734375
 20
-357.04345703125
 30
0.0
 10
807.91796875
 20
-358.12109375
 30
0.0
 10
808.01220703125
 20
-359.4794921875
 30
0.0
 10
808.4052734375
 20
-360.5947265625
 30
0.0
 10
808.95166015625
 20
-362.14501953125
 30
0.0
 10
810.0185546875
 20
-363.72998046875
 30
0.0
 10
811.50146484375
 20
-364.439453125
 30
0.0
 10
814.345703125
 20
-365.80126953125
 30
0.0
 10
817.87158203125
 20
-365.017578125
 30
0.0
 10
820.9716796875
 20
-364.439453125
 30
0.0
 10
821.7529296875
 20
-364.2939453125
 30
0.0
 10
822.9326171875
 20
-364.32861328125
 30
0.0
 10
823.197265625
 20
-363.57958984375
 30
0.0
 10
823.45947265625
 20
-362.8359375
 30
0.0
 10
822.40771484375
 20
-362.2119140625
 30
0.0
 10
822.01318359375
 20
-361.529296875
 30
0.0
 10
821.22509765625
 20
-360.16357421875
 30
0.0
 10
819.96875
 20
-358.9716796875
 30
0.0
 10
819.64599609375
 20
-357.42822265625
 30
0.0
 10
819.46630859375
 20
-356.5703125
 30
0.0
 10
819.888671875
 20
-355.6875
 30
0.0
 10
819.9375
 20
-354.81201171875
 30
0.0
 10
819.95947265625
 20
-354.41845703125
 30
0.0
 10
820.083984375
 20
-353.994140625
 30
0.0
 10
819.9375
 20
-353.62841796875
 30
0.0
 10
819.8740234375
 20
-353.470703125
 30
0.0
 10
819.71875
 20
-353.3642578125
 30
0.0
 10
819.5849609375
 20
-353.259765625
 30
0.0
  0
SPLINE
  5
64
330
1F
100
AcDbEntity
  8
LAYER_1
 62
   250
100
AcDbSpline
210
0.0
220
0.0
230
1.0
 70
    11
 71
     3
 72
    47
 73
    43
 74
     0
 42
0.0000000001
 43
0.0000000001
 40
0.0
 40
0.0
 40
0.0
 40
0.0
 40
1.0
 40
1.0
 40
1.0
 40
2.0
 40
2.0
 40
2.0
 40
3.0
 40
3.0
 40
3.0
 40
4.0
 40
4.0
 40
4.0
 40
5.0
 40
5.0
 40
5.0
 40
6.0
 40
6.0
 40
6.0
 40
7.0
 40
7.0
 40
7.0
 40
8.0
 40
8.0
 40
8.0
 40
9.0
 40
9.0
 40
9.0
 40
10.0
 40
10.0
 40
10.0
 40
11.0
 40
11.0
 40
11.0
 40
12.0
 40
12.0
 40
12.0
 40
13.0
 40
13.0
 40
13.0
 40
14.0
 40
14.0
 40
14.0
 40
14.0
 10
827.60205078125
 20
-353.15869140625
 30
0.0
 10
826.2314453125
 20
-353.94970703125
 30
0.0
 10
825.4326171875
 20
-355.705078125
 30
0.0
 10
825.22607421875
 20
-357.27392578125
 30
0.0
 10
824.95068359375
 20
-359.3662109375
 30
0.0
 10
825.68798828125
 20
-361.64404296875
 30
0.0
 10
826.8662109375
 20
-363.39453125
 30
0.0
 10
827.66943359375
 20
-364.58837890625
 30
0.0
 10
828.93017578125
 20
-365.60107421875
 30
0.0
 10
830.3125
 20
-366.0029296875
 30
0.0
 10
832.61865234375
 20
-366.673828125
 30
0.0
 10
835.2626953125
 20
-366.28515625
 30
0.0
 10
837.50048828125
 20
-365.41357421875
 30
0.0
 10
838.33447265625
 20
-365.0888671875
 30
0.0
 10
839.228515625
 20
-364.56787109375
 30
0.0
 10
839.62158203125
 20
-363.76416015625
 30
0.0
 10
839.853515625
 20
-363.2900390625
 30
0.0
 10
839.728515625
 20
-362.6962890625
 30
0.0
 10
839.62158203125
 20
-362.18017578125
 30
0.0
 10
839.521484375
 20
-361.6962890625
 30
0.0
 10
839.4453125
 20
-361.08935546875
 30
0.0
 10
839.0322265625
 20
-360.81787109375
 30
0.0
 10
838.150390625
 20
-360.23876953125
 30
0.0
 10
836.90185546875
 20
-361.009765625
 30
0.0
 10
835.8642578125
 20
-360.81787109375
 30
0.0
 10
834.78515625
 20
-360.61865234375
 30
0.0
 10
833.70751953125
 20
-360.23681640625
 30
0.0
 10
832.787109375
 20
-359.6396484375
 30
0.0
 10
831.90185546875
 20
-359.0654296875
 30
0.0
 10
831.265625
 20
-358.171875
 30
0.0
 10
830.546875
 20
-357.3994140625
 30
0.0
 10
830.0166015625
 20
-356.830078125
 30
0.0
 10
829.2880859375
 20
-356.3623046875
 30
0.0
 10
829.01611328125
 20
-355.63330078125
 30
0.0
 10
828.72802734375
 20
-354.861328125
 30
0.0
 10
829.5986328125
 20
-353.7412109375
 30
0.0
 10
829.01611328125
 20
-353.15869140625
 30
0.0
 10
828.7177734375
 20
-352.8603515625
 30
0.0
 10
828.1708984375
 20
-353.15869140625
 30
0.0
 10
827.7490234375
 20
-353.15869140625
 30
0.0
 10
827.7001953125
 20
-353.15869140625
 30
0.0
 10
827.64453125
 20
-353.13427734375
 30
0.0
 10
827.60205078125
 20
-353.15869140625
 30
0.0
  0
SPLINE
  5
65
330
1F
100
AcDbEntity
  8
LAYER_1
 62
   250
100
AcDbSpline
210
0.0
220
0.0
230
1.0
 70
    11
 71
     3
 72
    35
 73
    31
 74
     0
 42
0.0000000001
 43
0.0000000001
 40
0.0
 40
0.0
 40
0.0
 40
0.0
 40
1.0
 40
1.0
 40
1.0
 40
2.0
 40
2.0
 40
2.0
 40
3.0
 40
3.0
 40
3.0
 40
4.0
 40
4.0
 40
4.0
 40
5.0
 40
5.0
 40
5.0
 40
6.0
 40
6.0
 40
6.0
 40
7.0
 40
7.0
 40
7.0
 40
8.0
 40
8.0
 40
8.0
 40
9.0
 40
9.0
 40
9.0
 40
10.0
 40
10.0
 40
10.0
 40
10.0
 10
852.0791015625
 20
-366.13330078125
 30
0.0
 10
854.09619140625
 20
-364.66845703125
 30
0.0
 10
856.38671875
 20
-363.5087890625
 30
0.0
 10
858.13330078125
 20
-361.72998046875
 30
0.0
 10
859.70068359375
 20
-360.1337890625
 30
0.0
 10
860.88525390625
 20
-358.173828125
 30
0.0
 10
861.98583984375
 20
-356.22607421875
 30
0.0
 10
862.43017578125
 20
-355.4404296875
 30
0.0
 10
862.19140625
 20
-353.86474609375
 30
0.0
 10
863.0869140625
 20
-353.7490234375
 30
0.0
 10
863.9599609375
 20
-353.63671875
 30
0.0
 10
864.484375
 20
-354.97021484375
 30
0.0
 10
864.73779296875
 20
-355.8134765625
 30
0.0
 10
865.466796875
 20
-358.23681640625
 30
0.0
 10
865.123046875
 20
-361.08935546875
 30
0.0
 10
864.0498046875
 20
-363.38134765625
 30
0.0
 10
863.38134765625
 20
-364.80908203125
 30
0.0
 10
862.14013671875
 20
-366.083984375
 30
0.0
 10
860.70166015625
 20
-366.7294921875
 30
0.0
 10
858.78173828125
 20
-367.5908203125
 30
0.0
 10
856.4970703125
 20
-367.14453125
 30
0.0
 10
854.39306640625
 20
-367.09619140625
 30
0.0
 10
853.61865234375
 20
-367.07861328125
 30
0.0
 10
852.7783203125
 20
-367.1884765625
 30
0.0
 10
852.0791015625
 20
-366.85498046875
 30
0.0
 10
851.90087890625
 20
-366.7705078125
 30
0.0
 10
851.64453125
 20
-366.63330078125
 30
0.0
 10
851.66015625
 20
-366.4365234375
 30
0.0
 10
851.673828125
 20
-366.26513671875
 30
0.0
 10
851.939453125
 20
-366.234375
 30
0.0
 10
852.0791015625
 20
-366.13330078125
 30
0.0
  0
POLYLINE
  5
66
330
1F
100
AcDbEntity
  8
LAYER_1
 62
   250
100
AcDb2dPolyline
 66
     1
 10
0.0
 20
0.0
 30
0.0
  0
VERTEX
  5
67
330
66
100
AcDbEntity
  8
LAYER_1
 62
   250
100
AcDbVertex
100
AcDb2dVertex
 10
903.427734375
 20
-336.607421875
 30
0.0
  0
VERTEX
  5
68
330
66
100
AcDbEntity
  8
LAYER_1
 62
   250
100
AcDbVertex
100
AcDb2dVertex
 10
918.17822265625
 20
-323.177734375
 30
0.0
  0
VERTEX
  5
69
330
66
100
AcDbEntity
  8
LAYER_1
 62
   250
100
AcDbVertex
100
AcDb2dVertex
 10
931.7177734375
 20
-307.54638671875
 30
0.0
  0
VERTEX
  5
6A
330
66
100
AcDbEntity
  8
LAYER_1
 62
   250
100
AcDbVertex
100
AcDb2dVertex
 10
933.3291015625
 20
-305.35107421875
 30
0.0
  0
VERTEX
  5
6B
330
66
100
AcDbEntity
  8
LAYER_1
 62
   250
100
AcDbVertex
100
AcDb2dVertex
 10
933.9208984375
 20
-305.35107421875
 30
0.0
  0
VERTEX
  5
6C
330
66
100
AcDbEntity
  8
LAYER_1
 62
   250
100
AcDbVertex
100
AcDb2dVertex
 10
933.6533203125
 20
-310.7978515625
 30
0.0
  0
VERTEX
  5
6D
330
66
100
AcDbEntity
  8
LAYER_1
 62
   250
100
AcDbVertex
100
AcDb2dVertex
 10
933.4169921875
 20
-320.7548828125
 30
0.0
  0
VERTEX
  5
6E
330
66
100
AcDbEntity
  8
LAYER_1
 62
   250
100
AcDbVertex
100
AcDb2dVertex
 10
932.3349609375
 20
-326.88671875
 30
0.0
  0
VERTEX
  5
6F
330
66
100
AcDbEntity
  8
LAYER_1
 62
   250
100
AcDbVertex
100
AcDb2dVertex
 10
931.54150390625
 20
-328.6181640625
 30
0.0
  0
VERTEX
  5
70
330
66
100
AcDbEntity
  8
LAYER_1
 62
   250
100
AcDbVertex
100
AcDb2dVertex
 10
928.6826171875
 20
-329.38427734375
 30
0.0
  0
VERTEX
  5
71
330
66
100
AcDbEntity
  8
LAYER_1
 62
   250
100
AcDbVertex
100
AcDb2dVertex
 10
923.3896484375
 20
-329.0869140625
 30
0.0
  0
VERTEX
  5
72
330
66
100
AcDbEntity
  8
LAYER_1
 62
   250
100
AcDbVertex
100
AcDb2dVertex
 10
920.53076171875
 20
-328.3212890625
 30
0.0
  0
VERTEX
  5
73
330
66
100
AcDbEntity
  8
LAYER_1
 62
   250
100
AcDbVertex
100
AcDb2dVertex
 10
919.275390625
 20
-329.57666015625
 30
0.0
  0
VERTEX
  5
74
330
66
100
AcDbEntity
  8
LAYER_1
 62
   250
100
AcDbVertex
100
AcDb2dVertex
 10
913.79541015625
 20
-334.2109375
 30
0.0
  0
VERTEX
  5
75
330
66
100
AcDbEntity
  8
LAYER_1
 62
   250
100
AcDbVertex
100
AcDb2dVertex
 10
908.45556640625
 20
-336.92431640625
 30
0.0
  0
VERTEX
  5
76
330
66
100
AcDbEntity
  8
LAYER_1
 62
   250
100
AcDbVertex
100
AcDb2dVertex
 10
904.27734375
 20
-337.98388671875
 30
0.0
  0
VERTEX
  5
77
330
66
100
AcDbEntity
  8
LAYER_1
 62
   250
100
AcDbVertex
100
AcDb2dVertex
 10
903.2958984375
 20
-337.54638671875
 30
0.0
  0
VERTEX
  5
78
330
66
100
AcDbEntity
  8
LAYER_1
 62
   250
100
AcDbVertex
100
AcDb2dVertex
 10
903.427734375
 20
-336.607421875
 30
0.0
  0
SEQEND
  5
79
330
66
100
AcDbEntity
  8
LAYER_1
  0
SPLINE
  5
7A
330
1F
100
AcDbEntity
  8
LAYER_1
 62
   250
100
AcDbSpline
210
0.0
220
0.0
230
1.0
 70
    11
 71
     3
 72
    38
 73
    34
 74
     0
 42
0.0000000001
 43
0.0000000001
 40
0.0
 40
0.0
 40
0.0
 40
0.0
 40
1.0
 40
1.0
 40
1.0
 40
2.0
 40
2.0
 40
2.0
 40
3.0
 40
3.0
 40
3.0
 40
4.0
 40
4.0
 40
4.0
 40
5.0
 40
5.0
 40
5.0
 40
6.0
 40
6.0
 40
6.0
 40
7.0
 40
7.0
 40
7.0
 40
8.0
 40
8.0
 40
8.0
 40
9.0
 40
9.0
 40
9.0
 40
10.0
 40
10.0
 40
10.0
 40
11.0
 40
11.0
 40
11.0
 40
11.0
 10
873.85009765625
 20
-344.33935546875
 30
0.0
 10
874.3603515625
 20
-342.435546875
 30
0.0
 10
876.17919921875
 20
-341.0810546875
 30
0.0
 10
876.8095703125
 20
-339.21337890625
 30
0.0
 10
877.724609375
 20
-336.501953125
 30
0.0
 10
877.71875
 20
-333.54541015625
 30
0.0
 10
877.90087890625
 20
-330.689453125
 30
0.0
 10
878.0263671875
 20
-328.72265625
 30
0.0
 10
876.80517578125
 20
-326.4091796875
 30
0.0
 10
877.90087890625
 20
-324.7705078125
 30
0.0
 10
878.14794921875
 20
-324.4013671875
 30
0.0
 10
878.693359375
 20
-324.205078125
 30
0.0
 10
879.1337890625
 20
-324.2607421875
 30
0.0
 10
880.73388671875
 20
-324.46337890625
 30
0.0
 10
882.10546875
 20
-325.8310546875
 30
0.0
 10
883.0087890625
 20
-327.1669921875
 30
0.0
 10
884.11279296875
 20
-328.7998046875
 30
0.0
 10
884.54052734375
 20
-330.9130859375
 30
0.0
 10
884.54052734375
 20
-332.88427734375
 30
0.0
 10
884.54052734375
 20
-335.24951171875
 30
0.0
 10
883.9599609375
 20
-337.74169921875
 30
0.0
 10
882.7021484375
 20
-339.7451171875
 30
0.0
 10
881.45654296875
 20
-341.7294921875
 30
0.0
 10
879.3955078125
 20
-343.15673828125
 30
0.0
 10
877.37255859375
 20
-344.33935546875
 30
0.0
 10
876.67431640625
 20
-344.74755859375
 30
0.0
 10
875.884765625
 20
-345.025390625
 30
0.0
 10
875.08837890625
 20
-345.1650390625
 30
0.0
 10
874.68212890625
 20
-345.23583984375
 30
0.0
 10
874.1416015625
 20
-345.45654296875
 30
0.0
 10
873.85009765625
 20
-345.1650390625
 30
0.0
 10
873.65576171875
 20
-344.970703125
 30
0.0
 10
873.77880859375
 20
-344.60498046875
 30
0.0
 10
873.85009765625
 20
-344.33935546875
 30
0.0
  0
SPLINE
  5
7B
330
1F
100
AcDbEntity
  8
LAYER_1
 62
   250
100
AcDbSpline
210
0.0
220
0.0
230
1.0
 70
    11
 71
     3
 72
    32
 73
    28
 74
     0
 42
0.0000000001
 43
0.0000000001
 40
0.0
 40
0.0
 40
0.0
 40
0.0
 40
1.0
 40
1.0
 40
1.0
 40
2.0
 40
2.0
 40
2.0
 40
3.0
 40
3.0
 40
3.0
 40
4.0
 40
4.0
 40
4.0
 40
5.0
 40
5.0
 40
5.0
 40
6.0
 40
6.0
 40
6.0
 40
7.0
 40
7.0
 40
7.0
 40
8.0
 40
8.0
 40
8.0
 40
9.0
 40
9.0
 40
9.0
 40
9.0
 10
840.76025390625
 20
-361.505859375
 30
0.0
 10
841.1572265625
 20
-359.46826171875
 30
0.0
 10
843.099609375
 20
-357.80322265625
 30
0.0
 10
843.099609375
 20
-355.72705078125
 30
0.0
 10
843.099609375
 20
-353.65087890625
 30
0.0
 10
839.73828125
 20
-351.7548828125
 30
0.0
 10
840.76025390625
 20
-349.94775390625
 30
0.0
 10
841.62841796875
 20
-348.41357421875
 30
0.0
 10
844.22900390625
 20
-349.029296875
 30
0.0
 10
845.9892578125
 20
-349.1220703125
 30
0.0
 10
848.74462890625
 20
-349.26708984375
 30
0.0
 10
852.0419921875
 20
-349.3154296875
 30
0.0
 10
853.9931640625
 20
-351.2666015625
 30
0.0
 10
855.1083984375
 20
-352.3818359375
 30
0.0
 10
855.677734375
 20
-354.33203125
 30
0.0
 10
855.21875
 20
-355.8408203125
 30
0.0
 10
854.52685546875
 20
-358.1162109375
 30
0.0
 10
851.9404296875
 20
-359.4228515625
 30
0.0
 10
849.841796875
 20
-360.54296875
 30
0.0
 10
847.75537109375
 20
-361.65625
 30
0.0
 10
845.3447265625
 20
-362.28759765625
 30
0.0
 10
842.98095703125
 20
-362.38134765625
 30
0.0
 10
842.2294921875
 20
-362.4111328125
 30
0.0
 10
841.2412109375
 20
-362.548828125
 30
0.0
 10
840.76025390625
 20
-361.970703125
 30
0.0
 10
840.6611328125
 20
-361.85205078125
 30
0.0
 10
840.73095703125
 20
-361.658203125
 30
0.0
 10
840.76025390625
 20
-361.505859375
 30
0.0
  0
SPLINE
  5
7C
330
1F
100
AcDbEntity
  8
LAYER_1
 62
   250
100
AcDbSpline
210
0.0
220
0.0
230
1.0
 70
    11
 71
     3
 72
    35
 73
    31
 74
     0
 42
0.0000000001
 43
0.0000000001
 40
0.0
 40
0.0
 40
0.0
 40
0.0
 40
1.0
 40
1.0
 40
1.0
 40
2.0
 40
2.0
 40
2.0
 40
3.0
 40
3.0
 40
3.0
 40
4.0
 40
4.0
 40
4.0
 40
5.0
 40
5.0
 40
5.0
 40
6.0
 40
6.0
 40
6.0
 40
7.0
 40
7.0
 40
7.0
 40
8.0
 40
8.0
 40
8.0
 40
9.0
 40
9.0
 40
9.0
 40
10.0
 40
10.0
 40
10.0
 40
10.0
 10
829.7421875
 20
-329.087890625
 30
0.0
 10
828.66015625
 20
-327.3818359375
 30
0.0
 10
830.3935546875
 20
-325.05078125
 30
0.0
 10
830.20703125
 20
-323.03955078125
 30
0.0
 10
830.0146484375
 20
-320.96533203125
 30
0.0
 10
829.26123046875
 20
-318.96923828125
 30
0.0
 10
828.58837890625
 20
-316.998046875
 30
0.0
 10
828.1318359375
 20
-315.66064453125
 30
0.0
 10
826.67724609375
 20
-314.46923828125
 30
0.0
 10
826.9501953125
 20
-313.08251953125
 30
0.0
 10
827.15185546875
 20
-312.06103515625
 30
0.0
 10
828.1259765625
 20
-310.9794921875
 30
0.0
 10
829.16162109375
 20
-310.87158203125
 30
0.0
 10
831.01025390625
 20
-310.67919921875
 30
0.0
 10
832.55810546875
 20
-312.57080078125
 30
0.0
 10
833.83642578125
 20
-313.92041015625
 30
0.0
 10
834.91015625
 20
-315.05419921875
 30
0.0
 10
835.77734375
 20
-316.4736328125
 30
0.0
 10
836.181640625
 20
-317.982421875
 30
0.0
 10
836.720703125
 20
-319.994140625
 30
0.0
 10
836.5458984375
 20
-322.1865234375
 30
0.0
 10
836.181640625
 20
-324.23681640625
 30
0.0
 10
835.9267578125
 20
-325.6708984375
 30
0.0
 10
835.64453125
 20
-327.25732421875
 30
0.0
 10
834.673828125
 20
-328.34326171875
 30
0.0
 10
833.9345703125
 20
-329.169921875
 30
0.0
 10
832.80322265625
 20
-329.77685546875
 30
0.0
 10
831.6962890625
 20
-329.83203125
 30
0.0
 10
831.00048828125
 20
-329.86669921875
 30
0.0
 10
830.11474609375
 20
-329.67578125
 30
0.0
 10
829.7421875
 20
-329.087890625
 30
0.0
  0
SPLINE
  5
7D
330
1F
100
AcDbEntity
  8
LAYER_1
 62
   250
100
AcDbSpline
210
0.0
220
0.0
230
1.0
 70
    11
 71
     3
 72
    35
 73
    31
 74
     0
 42
0.0000000001
 43
0.0000000001
 40
0.0
 40
0.0
 40
0.0
 40
0.0
 40
1.0
 40
1.0
 40
1.0
 40
2.0
 40
2.0
 40
2.0
 40
3.0
 40
3.0
 40
3.0
 40
4.0
 40
4.0
 40
4.0
 40
5.0
 40
5.0
 40
5.0
 40
6.0
 40
6.0
 40
6.0
 40
7.0
 40
7.0
 40
7.0
 40
8.0
 40
8.0
 40
8.0
 40
9.0
 40
9.0
 40
9.0
 40
10.0
 40
10.0
 40
10.0
 40
10.0
 10
824.67333984375
 20
-330.228515625
 30
0.0
 10
824.75341796875
 20
-328.513671875
 30
0.0
 10
822.5400390625
 20
-327.42236328125
 30
0.0
 10
822.095703125
 20
-325.76416015625
 30
0.0
 10
821.6513671875
 20
-324.10595703125
 30
0.0
 10
821.72119140625
 20
-322.28466796875
 30
0.0
 10
822.095703125
 20
-320.609375
 30
0.0
 10
822.4482421875
 20
-319.0322265625
 30
0.0
 10
824.56591796875
 20
-317.783203125
 30
0.0
 10
824.162109375
 20
-316.21875
 30
0.0
 10
823.97265625
 20
-315.486328125
 30
0.0
 10
823.04052734375
 20
-315.1220703125
 30
0.0
 10
822.3212890625
 20
-314.88916015625
 30
0.0
 10
821.232421875
 20
-314.537109375
 30
0.0
 10
819.94189453125
 20
-314.451171875
 30
0.0
 10
818.884765625
 20
-314.88916015625
 30
0.0
 10
817.298828125
 20
-315.54638671875
 30
0.0
 10
815.896484375
 20
-316.9482421875
 30
0.0
 10
815.2392578125
 20
-318.5341796875
 30
0.0
 10
814.14453125
 20
-321.177734375
 30
0.0
 10
813.84423828125
 20
-324.62841796875
 30
0.0
 10
815.2392578125
 20
-327.1259765625
 30
0.0
 10
816.19970703125
 20
-328.845703125
 30
0.0
 10
818.423828125
 20
-329.55712890625
 30
0.0
 10
820.27587890625
 20
-330.228515625
 30
0.0
 10
821.53759765625
 20
-330.68603515625
 30
0.0
 10
823.03076171875
 20
-331.33447265625
 30
0.0
 10
824.26416015625
 20
-330.8056640625
 30
0.0
 10
824.48046875
 20
-330.712890625
 30
0.0
 10
824.662109375
 20
-330.4638671875
 30
0.0
 10
824.67333984375
 20
-330.228515625
 30
0.0
  0
SPLINE
  5
7E
330
1F
100
AcDbEntity
  8
LAYER_1
 62
   250
100
AcDbSpline
210
0.0
220
0.0
230
1.0
 70
    11
 71
     3
 72
   473
 73
   469
 74
     0
 42
0.0000000001
 43
0.0000000001
 40
0.0
 40
0.0
 40
0.0
 40
0.0
 40
1.0
 40
1.0
 40
1.0
 40
2.0
 40
2.0
 40
2.0
 40
3.0
 40
3.0
 40
3.0
 40
4.0
 40
4.0
 40
4.0
 40
5.0
 40
5.0
 40
5.0
 40
6.0
 40
6.0
 40
6.0
 40
7.0
 40
7.0
 40
7.0
 40
8.0
 40
8.0
 40
8.0
 40
9.0
 40
9.0
 40
9.0
 40
10.0
 40
10.0
 40
10.0
 40
11.0
 40
11.0
 40
11.0
 40
12.0
 40
12.0
 40
12.0
 40
13.0
 40
13.0
 40
13.0
 40
14.0
 40
14.0
 40
14.0
 40
15.0
 40
15.0
 40
15.0
 40
16.0
 40
16.0
 40
16.0
 40
17.0
 40
17.0
 40
17.0
 40
18.0
 40
18.0
 40
18.0
 40
19.0
 40
19.0
 40
19.0
 40
20.0
 40
20.0
 40
20.0
 40
21.0
 40
21.0
 40
21.0
 40
22.0
 40
22.0
 40
22.0
 40
23.0
 40
23.0
 40
23.0
 40
24.0
 40
24.0
 40
24.0
 40
25.0
 40
25.0
 40
25.0
 40
26.0
 40
26.0
 40
26.0
 40
27.0
 40
27.0
 40
27.0
 40
28.0
 40
28.0
 40
28.0
 40
29.0
 40
29.0
 40
29.0
 40
30.0
 40
30.0
 40
30.0
 40
31.0
 40
31.0
 40
31.0
 40
32.0
 40
32.0
 40
32.0
 40
33.0
 40
33.0
 40
33.0
 40
34.0
 40
34.0
 40
34.0
 40
35.0
 40
35.0
 40
35.0
 40
36.0
 40
36.0
 40
36.0
 40
37.0
 40
37.0
 40
37.0
 40
38.0
 40
38.0
 40
38.0
 40
39.0
 40
39.0
 40
39.0
 40
40.0
 40
40.0
 40
40.0
 40
41.0
 40
41.0
 40
41.0
 40
42.0
 40
42.0
 40
42.0
 40
43.0
 40
43.0
 40
43.0
 40
44.0
 40
44.0
 40
44.0
 40
45.0
 40
45.0
 40
45.0
 40
46.0
 40
46.0
 40
46.0
 40
47.0
 40
47.0
 40
47.0
 40
48.0
 40
48.0
 40
48.0
 40
49.0
 40
49.0
 40
49.0
 40
50.0
 40
50.0
 40
50.0
 40
51.0
 40
51.0
 40
51.0
 40
52.0
 40
52.0
 40
52.0
 40
53.0
 40
53.0
 40
53.0
 40
54.0
 40
54.0
 40
54.0
 40
55.0
 40
55.0
 40
55.0
 40
56.0
 40
56.0
 40
56.0
 40
57.0
 40
57.0
 40
57.0
 40
58.0
 40
58.0
 40
58.0
 40
59.0
 40
59.0
 40
59.0
 40
60.0
 40
60.0
 40
60.0
 40
61.0
 40
61.0
 40
61.0
 40
62.0
 40
62.0
 40
62.0
 40
63.0
 40
63.0
 40
63.0
 40
64.0
 40
64.0
 40
64.0
 40
65.0
 40
65.0
 40
65.0
 40
66.0
 40
66.0
 40
66.0
 40
67.0
 40
67.0
 40
67.0
 40
68.0
 40
68.0
 40
68.0
 40
69.0
 40
69.0
 40
69.0
 40
70.0
 40
70.0
 40
70.0
 40
71.0
 40
71.0
 40
71.0
 40
72.0
 40
72.0
 40
72.0
 40
73.0
 40
73.0
 40
73.0
 40
74.0
 40
74.0
 40
74.0
 40
75.0
 40
75.0
 40
75.0
 40
76.0
 40
76.0
 40
76.0
 40
77.0
 40
77.0
 40
77.0
 40
78.0
 40
78.0
 40
78.0
 40
79.0
 40
79.0
 40
79.0
 40
80.0
 40
80.0
 40
80.0
 40
81.0
 40
81.0
 40
81.0
 40
82.0
 40
82.0
 40
82.0
 40
83.0
 40
83.0
 40
83.0
 40
84.0
 40
84.0
 40
84.0
 40
85.0
 40
85.0
 40
85.0
 40
86.0
 40
86.0
 40
86.0
 40
87.0
 40
87.0
 40
87.0
 40
88.0
 40
88.0
 40
88.0
 40
89.0
 40
89.0
 40
89.0
 40
90.0
 40
90.0
 40
90.0
 40
91.0
 40
91.0
 40
91.0
 40
92.0
 40
92.0
 40
92.0
 40
93.0
 40
93.0
 40
93.0
 40
94.0
 40
94.0
 40
94.0
 40
95.0
 40
95.0
 40
95.0
 40
96.0
 40
96.0
 40
96.0
 40
97.0
 40
97.0
 40
97.0
 40
98.0
 40
98.0
 40
98.0
 40
99.0
 40
99.0
 40
99.0
 40
100.0
 40
100.0
 40
100.0
 40
101.0
 40
101.0
 40
101.0
 40
102.0
 40
102.0
 40
102.0
 40
103.0
 40
103.0
 40
103.0
 40
104.0
 40
104.0
 40
104.0
 40
105.0
 40
105.0
 40
105.0
 40
106.0
 40
106.0
 40
106.0
 40
107.0
 40
107.0
 40
107.0
 40
108.0
 40
108.0
 40
108.0
 40
109.0
 40
109.0
 40
109.0
 40
110.0
 40
110.0
 40
110.0
 40
111.0
 40
111.0
 40
111.0
 40
112.0
 40
112.0
 40
112.0
 40
113.0
 40
113.0
 40
113.0
 40
114.0
 40
114.0
 40
114.0
 40
115.0
 40
115.0
 40
115.0
 40
116.0
 40
116.0
 40
116.0
 40
117.0
 40
117.0
 40
117.0
 40
118.0
 40
118.0
 40
118.0
 40
119.0
 40
119.0
 40
119.0
 40
120.0
 40
120.0
 40
120.0
 40
121.0
 40
121.0
 40
121.0
 40
122.0
 40
122.0
 40
122.0
 40
123.0
 40
123.0
 40
123.0
 40
124.0
 40
124.0
 40
124.0
 40
125.0
 40
125.0
 40
125.0
 40
126.0
 40
126.0
 40
126.0
 40
127.0
 40
127.0
 40
127.0
 40
128.0
 40
128.0
 40
128.0
 40
129.0
 40
129.0
 40
129.0
 40
130.0
 40
130.0
 40
130.0
 40
131.0
 40
131.0
 40
131.0
 40
132.0
 40
132.0
 40
132.0
 40
133.0
 40
133.0
 40
133.0
 40
134.0
 40
134.0
 40
134.0
 40
135.0
 40
135.0
 40
135.0
 40
136.0
 40
136.0
 40
136.0
 40
137.0
 40
137.0
 40
137.0
 40
138.0
 40
138.0
 40
138.0
 40
139.0
 40
139.0
 40
139.0
 40
140.0
 40
140.0
 40
140.0
 40
141.0
 40
141.0
 40
141.0
 40
142.0
 40
142.0
 40
142.0
 40
143.0
 40
143.0
 40
143.0
 40
144.0
 40
144.0
 40
144.0
 40
145.0
 40
145.0
 40
145.0
 40
146.0
 40
146.0
 40
146.0
 40
147.0
 40
147.0
 40
147.0
 40
148.0
 40
148.0
 40
148.0
 40
149.0
 40
149.0
 40
149.0
 40
150.0
 40
150.0
 40
150.0
 40
151.0
 40
151.0
 40
151.0
 40
152.0
 40
152.0
 40
152.0
 40
153.0
 40
153.0
 40
153.0
 40
154.0
 40
154.0
 40
154.0
 40
155.0
 40
155.0
 40
155.0
 40
156.0
 40
156.0
 40
156.0
 40
156.0
 10
820.6962890625
 20
-447.30908203125
 30
0.0
 10
820.6962890625
 20
-447.30908203125
 30
0.0
 10
820.6962890625
 20
-454.10498046875
 30
0.0
 10
820.6962890625
 20
-454.10498046875
 30
0.0
 10
820.6962890625
 20
-454.10498046875
 30
0.0
 10
937.013671875
 20
-454.10498046875
 30
0.0
 10
937.013671875
 20
-454.10498046875
 30
0.0
 10
937.013671875
 20
-454.10498046875
 30
0.0
 10
937.013671875
 20
-447.30908203125
 30
0.0
 10
937.013671875
 20
-447.30908203125
 30
0.0
 10
937.013671875
 20
-447.30908203125
 30
0.0
 10
966.44140625
 20
-447.30908203125
 30
0.0
 10
966.44140625
 20
-447.30908203125
 30
0.0
 10
967.3818359375
 20
-444.8388671875
 30
0.0
 10
967.8310546875
 20
-442.142578125
 30
0.0
 10
968.017578125
 20
-439.52294921875
 30
0.0
 10
968.29150390625
 20
-435.67138671875
 30
0.0
 10
968.32080078125
 20
-431.48291015625
 30
0.0
 10
966.63232421875
 20
-428.01025390625
 30
0.0
 10
965.94287109375
 20
-426.59228515625
 30
0.0
 10
963.8603515625
 20
-426.1298828125
 30
0.0
 10
963.2841796875
 20
-424.662109375
 30
0.0
 10
961.42236328125
 20
-419.9169921875
 30
0.0
 10
963.48779296875
 20
-414.44970703125
 30
0.0
 10
963.859375
 20
-409.36572265625
 30
0.0
 10
964.76416015625
 20
-396.97607421875
 30
0.0
 10
967.86083984375
 20
-384.701171875
 30
0.0
 10
967.890625
 20
-372.27880859375
 30
0.0
 10
967.90625
 20
-365.48828125
 30
0.0
 10
965.24658203125
 20
-358.76513671875
 30
0.0
 10
965.783203125
 20
-351.99560546875
 30
0.0
 10
965.97021484375
 20
-349.63818359375
 30
0.0
 10
966.7548828125
 20
-347.33544921875
 30
0.0
 10
967.62158203125
 20
-345.134765625
 30
0.0
 10
972.302734375
 20
-333.25244140625
 30
0.0
 10
981.14404296875
 20
-323.23095703125
 30
0.0
 10
985.6279296875
 20
-311.2724609375
 30
0.0
 10
990.15673828125
 20
-299.1943359375
 30
0.0
 10
992.93994140625
 20
-286.35986328125
 30
0.0
 10
994.412109375
 20
-273.54443359375
 30
0.0
 10
994.9970703125
 20
-268.453125
 30
0.0
 10
989.677734375
 20
-260.1162109375
 30
0.0
 10
994.412109375
 20
-258.15478515625
 30
0.0
 10
996.2333984375
 20
-257.40087890625
 30
0.0
 10
997.7080078125
 20
-260.58154296875
 30
0.0
 10
998.59765625
 20
-262.34033203125
 30
0.0
 10
999.83203125
 20
-264.7802734375
 30
0.0
 10
999.41015625
 20
-267.75732421875
 30
0.0
 10
999.8359375
 20
-270.45849609375
 30
0.0
 10
1000.33349609375
 20
-273.61328125
 30
0.0
 10
999.5625
 20
-277.29638671875
 30
0.0
 10
1001.376953125
 20
-279.9248046875
 30
0.0
 10
1002.2724609375
 20
-281.22216796875
 30
0.0
 10
1003.908203125
 20
-282.14013671875
 30
0.0
 10
1005.4775390625
 20
-282.2919921875
 30
0.0
 10
1008.8525390625
 20
-282.61962890625
 30
0.0
 10
1012.33203125
 20
-280.93505859375
 30
0.0
 10
1015.109375
 20
-278.98974609375
 30
0.0
 10
1017.7265625
 20
-277.15673828125
 30
0.0
 10
1019.8837890625
 20
-274.46337890625
 30
0.0
 10
1021.1357421875
 20
-271.52392578125
 30
0.0
 10
1022.27880859375
 20
-268.837890625
 30
0.0
 10
1023.080078125
 20
-265.6220703125
 30
0.0
 10
1022.236328125
 20
-262.82763671875
 30
0.0
 10
1022.05419921875
 20
-262.224609375
 30
0.0
 10
1021.57275390625
 20
-261.65869140625
 30
0.0
 10
1021.0
 20
-261.396484375
 30
0.0
 10
1019.2080078125
 20
-260.576171875
 30
0.0
 10
1016.95947265625
 20
-261.99365234375
 30
0.0
 10
1015.0810546875
 20
-261.396484375
 30
0.0
 10
1012.2998046875
 20
-260.51171875
 30
0.0
 10
1010.07373046875
 20
-258.3095703125
 30
0.0
 10
1007.92578125
 20
-256.3330078125
 30
0.0
 10
1003.7333984375
 20
-252.474609375
 30
0.0
 10
1000.28173828125
 20
-247.83203125
 30
0.0
 10
996.91796875
 20
-243.2333984375
 30
0.0
 10
992.38525390625
 20
-237.0361328125
 30
0.0
 10
989.51513671875
 20
-229.638671875
 30
0.0
 10
984.58935546875
 20
-223.749267578125
 30
0.0
 10
980.83203125
 20
-219.257080078125
 30
0.0
 10
976.61474609375
 20
-214.930419921875
 30
0.0
 10
971.62353515625
 20
-211.866943359375
 30
0.0
 10
965.91162109375
 20
-208.361328125
 30
0.0
 10
959.37548828125
 20
-205.9912109375
 30
0.0
 10
952.78125
 20
-204.79443359375
 30
0.0
 10
945.02392578125
 20
-203.386474609375
 30
0.0
 10
936.9365234375
 20
-203.879638671875
 30
0.0
 10
929.10546875
 20
-204.79443359375
 30
0.0
 10
920.21923828125
 20
-205.832275390625
 30
0.0
 10
911.3408203125
 20
-207.850830078125
 30
0.0
 10
902.96142578125
 20
-210.986328125
 30
0.0
 10
894.53955078125
 20
-214.137939453125
 30
0.0
 10
886.5205078125
 20
-218.53076171875
 30
0.0
 10
879.0537109375
 20
-223.542236328125
 30
0.0
 10
874.3955078125
 20
-226.668701171875
 30
0.0
 10
871.5068359375
 20
-232.69873046875
 30
0.0
 10
866.15380859375
 20
-234.378173828125
 30
0.0
 10
862.5322265625
 20
-235.514404296875
 30
0.0
 10
858.3876953125
 20
-234.591796875
 30
0.0
 10
854.8017578125
 20
-233.34619140625
 30
0.0
 10
850.67431640625
 20
-231.91259765625
 30
0.0
 10
845.89306640625
 20
-230.019775390625
 30
0.0
 10
843.81201171875
 20
-226.177734375
 30
0.0
 10
842.12255859375
 20
-223.05810546875
 30
0.0
 10
843.34912109375
 20
-219.041015625
 30
0.0
 10
843.81201171875
 20
-215.523681640625
 30
0.0
 10
844.3779296875
 20
-211.224365234375
 30
0.0
 10
847.1826171875
 20
-207.28173828125
 30
0.0
 10
847.1826171875
 20
-202.945556640625
 30
0.0
 10
847.1826171875
 20
-199.397705078125
 30
0.0
 10
842.26513671875
 20
-195.468994140625
 30
0.0
 10
844.4248046875
 20
-192.654296875
 30
0.0
 10
845.14501953125
 20
-191.716064453125
 30
0.0
 10
846.86572265625
 20
-192.24755859375
 30
0.0
 10
847.9765625
 20
-192.654296875
 30
0.0
 10
850.2080078125
 20
-193.471923828125
 30
0.0
 10
851.318359375
 20
-196.1630859375
 30
0.0
 10
853.423828125
 20
-197.264892578125
 30
0.0
 10
857.265625
 20
-199.275146484375
 30
0.0
 10
861.685546875
 20
-200.22021484375
 30
0.0
 10
866.001953125
 20
-200.63525390625
 30
0.0
 10
871.77392578125
 20
-201.18994140625
 30
0.0
 10
877.8271484375
 20
-201.110595703125
 30
0.0
 10
883.37255859375
 20
-199.414306640625
 30
0.0
 10
889.02685546875
 20
-197.6845703125
 30
0.0
 10
895.7939453125
 20
-195.65673828125
 30
0.0
 10
898.75048828125
 20
-190.535888671875
 30
0.0
 10
898.94775390625
 20
-190.1943359375
 30
0.0
 10
898.865234375
 20
-189.72900390625
 30
0.0
 10
898.75048828125
 20
-189.35205078125
 30
0.0
 10
897.6416015625
 20
-185.716796875
 30
0.0
 10
895.1591796875
 20
-182.475341796875
 30
0.0
 10
892.38134765625
 20
-179.881591796875
 30
0.0
 10
889.2119140625
 20
-176.922119140625
 30
0.0
 10
885.1103515625
 20
-175.030029296875
 30
0.0
 10
881.10400390625
 20
-173.37060546875
 30
0.0
 10
876.7333984375
 20
-171.560302734375
 30
0.0
 10
872.01904296875
 20
-170.632080078125
 30
0.0
 10
867.38232421875
 20
-169.69384765625
 30
0.0
 10
860.8828125
 20
-168.378662109375
 30
0.0
 10
853.7734375
 20
-169.523681640625
 30
0.0
 10
847.65625
 20
-166.9638671875
 30
0.0
 10
845.677734375
 20
-166.135986328125
 30
0.0
 10
843.49658203125
 20
-164.9638671875
 30
0.0
 10
842.54833984375
 20
-163.0400390625
 30
0.0
 10
842.3740234375
 20
-162.6865234375
 30
0.0
 10
842.4228515625
 20
-162.22998046875
 30
0.0
 10
842.54833984375
 20
-161.856201171875
 30
0.0
 10
844.30126953125
 20
-156.6328125
 30
0.0
 10
848.65380859375
 20
-152.57666015625
 30
0.0
 10
852.52783203125
 20
-148.65869140625
 30
0.0
 10
858.91943359375
 20
-142.194580078125
 30
0.0
 10
866.2041015625
 20
-136.427490234375
 30
0.0
 10
874.11474609375
 20
-131.94921875
 30
0.0
 10
881.70703125
 20
-127.65087890625
 30
0.0
 10
890.0859375
 20
-124.6455078125
 30
0.0
 10
898.5263671875
 20
-122.437255859375
 30
0.0
 10
900.474609375
 20
-121.927490234375
 30
0.0
 10
902.9677734375
 20
-122.880859375
 30
0.0
 10
904.5146484375
 20
-121.591796875
 30
0.0
 10
906.1298828125
 20
-120.245849609375
 30
0.0
 10
906.4482421875
 20
-117.70361328125
 30
0.0
 10
906.51123046875
 20
-115.60205078125
 30
0.0
 10
906.546875
 20
-114.420166015625
 30
0.0
 10
906.18359375
 20
-113.196044921875
 30
0.0
 10
905.591796875
 20
-112.171875
 30
0.0
 10
904.4091796875
 20
-110.12353515625
 30
0.0
 10
902.66943359375
 20
-108.23828125
 30
0.0
 10
900.5693359375
 20
-107.1494140625
 30
0.0
 10
898.37158203125
 20
-106.009521484375
 30
0.0
 10
895.7158203125
 20
-106.00537109375
 30
0.0
 10
893.24267578125
 20
-105.881103515625
 30
0.0
 10
890.4453125
 20
-105.74072265625
 30
0.0
 10
887.0146484375
 20
-108.2587890625
 30
0.0
 10
884.85205078125
 20
-106.478515625
 30
0.0
 10
882.572265625
 20
-104.60205078125
 30
0.0
 10
884.27734375
 20
-100.586181640625
 30
0.0
 10
883.76953125
 20
-97.67724609375
 30
0.0
 10
882.927734375
 20
-92.8525390625
 30
0.0
 10
882.1015625
 20
-87.9677734375
 30
0.0
 10
880.5146484375
 20
-83.333984375
 30
0.0
 10
878.54931640625
 20
-77.593505859375
 30
0.0
 10
875.91064453125
 20
-72.037353515625
 30
0.0
 10
872.8095703125
 20
-66.822265625
 30
0.0
 10
871.1640625
 20
-64.055908203125
 30
0.0
 10
869.4658203125
 20
-61.19287109375
 30
0.0
 10
867.06494140625
 20
-59.048828125
 30
0.0
 10
865.5947265625
 20
-57.736083984375
 30
0.0
 10
863.9091796875
 20
-56.1484375
 30
0.0
 10
861.93896484375
 20
-56.08935546875
 30
0.0
 10
860.9150390625
 20
-56.058837890625
 30
0.0
 10
860.0595703125
 20
-56.92822265625
 30
0.0
 10
859.18701171875
 20
-57.46533203125
 30
0.0
 10
858.107421875
 20
-58.1298828125
 30
0.0
 10
856.845703125
 20
-58.689697265625
 30
0.0
 10
856.13427734375
 20
-59.738525390625
 30
0.0
 10
854.36328125
 20
-62.347900390625
 30
0.0
 10
854.23486328125
 20
-65.78125
 30
0.0
 10
853.68310546875
 20
-68.88623046875
 30
0.0
 10
852.6123046875
 20
-74.91064453125
 30
0.0
 10
852.95654296875
 20
-81.13818359375
 30
0.0
 10
852.03173828125
 20
-87.186767578125
 30
0.0
 10
851.2763671875
 20
-92.12939453125
 30
0.0
 10
850.029296875
 20
-97.001708984375
 30
0.0
 10
848.8525390625
 20
-101.861328125
 30
0.0
 10
848.57421875
 20
-103.0107421875
 30
0.0
 10
848.123046875
 20
-104.12451171875
 30
0.0
 10
847.93310546875
 20
-105.291748046875
 30
0.0
 10
847.5458984375
 20
-107.669677734375
 30
0.0
 10
848.083984375
 20
-110.177490234375
 30
0.0
 10
847.49267578125
 20
-112.512939453125
 30
0.0
 10
846.92919921875
 20
-114.73876953125
 30
0.0
 10
846.40380859375
 20
-117.36181640625
 30
0.0
 10
844.5869140625
 20
-118.765380859375
 30
0.0
 10
843.28955078125
 20
-119.767578125
 30
0.0
 10
841.34423828125
 20
-119.998291015625
 30
0.0
 10
839.7431640625
 20
-119.64599609375
 30
0.0
 10
837.50244140625
 20
-119.1533203125
 30
0.0
 10
835.78369140625
 20
-117.249755859375
 30
0.0
 10
834.107421875
 20
-115.683349609375
 30
0.0
 10
832.17724609375
 20
-113.8798828125
 30
0.0
 10
831.50048828125
 20
-110.656005859375
 30
0.0
 10
829.1162109375
 20
-109.518798828125
 30
0.0
 10
828.048828125
 20
-109.009521484375
 30
0.0
 10
826.625
 20
-108.99462890625
 30
0.0
 10
825.56494140625
 20
-109.518798828125
 30
0.0
 10
824.2333984375
 20
-110.17724609375
 30
0.0
 10
823.72412109375
 20
-111.857177734375
 30
0.0
 10
822.85791015625
 20
-113.06396484375
 30
0.0
 10
821.6044921875
 20
-114.810546875
 30
0.0
 10
820.10205078125
 20
-116.444091796875
 30
0.0
 10
819.2509765625
 20
-118.418212890625
 30
0.0
 10
818.4052734375
 20
-120.37890625
 30
0.0
 10
818.00390625
 20
-122.544921875
 30
0.0
 10
817.841796875
 20
-124.674072265625
 30
0.0
 10
817.546875
 20
-128.55029296875
 30
0.0
 10
818.7529296875
 20
-132.43359375
 30
0.0
 10
818.65283203125
 20
-136.31982421875
 30
0.0
 10
818.6298828125
 20
-137.2099609375
 30
0.0
 10
818.93603515625
 20
-138.322509765625
 30
0.0
 10
818.32958984375
 20
-138.974609375
 30
0.0
 10
817.78515625
 20
-139.559814453125
 30
0.0
 10
816.74951171875
 20
-139.63134765625
 30
0.0
 10
815.974609375
 20
-139.436279296875
 30
0.0
 10
815.0107421875
 20
-139.193603515625
 30
0.0
 10
814.32861328125
 20
-138.28466796875
 30
0.0
 10
813.66650390625
 20
-137.543212890625
 30
0.0
 10
813.0439453125
 20
-136.846923828125
 30
0.0
 10
812.70166015625
 20
-135.93701171875
 30
0.0
 10
812.142578125
 20
-135.188720703125
 30
0.0
 10
811.56298828125
 20
-134.41259765625
 30
0.0
 10
811.21875
 20
-132.98876953125
 30
0.0
 10
810.25
 20
-132.97998046875
 30
0.0
 10
806.93994140625
 20
-132.949951171875
 30
0.0
 10
806.84375
 20
-139.555419921875
 30
0.0
 10
803.6455078125
 20
-140.410400390625
 30
0.0
 10
802.8056640625
 20
-140.634765625
 30
0.0
 10
801.740234375
 20
-140.23974609375
 30
0.0
 10
801.16845703125
 20
-139.584716796875
 30
0.0
 10
800.22705078125
 20
-138.50537109375
 30
0.0
 10
799.95068359375
 20
-136.725830078125
 30
0.0
 10
800.37353515625
 20
-135.357421875
 30
0.0
 10
800.95556640625
 20
-133.474365234375
 30
0.0
 10
803.57373046875
 20
-132.87890625
 30
0.0
 10
804.55908203125
 20
-131.172119140625
 30
0.0
 10
805.74169921875
 20
-129.123779296875
 30
0.0
 10
806.0458984375
 20
-126.650146484375
 30
0.0
 10
806.3974609375
 20
-124.311279296875
 30
0.0
 10
807.140625
 20
-119.368896484375
 30
0.0
 10
807.86328125
 20
-114.22607421875
 30
0.0
 10
806.94775390625
 20
-109.31298828125
 30
0.0
 10
806.5732421875
 20
-107.303466796875
 30
0.0
 10
806.234375
 20
-104.79638671875
 30
0.0
 10
804.52783203125
 20
-103.67138671875
 30
0.0
 10
803.21142578125
 20
-102.803466796875
 30
0.0
 10
801.20703125
 20
-102.974853515625
 30
0.0
 10
799.79248046875
 20
-103.67138671875
 30
0.0
 10
797.095703125
 20
-104.999267578125
 30
0.0
 10
796.70703125
 20
-109.040771484375
 30
0.0
 10
794.28857421875
 20
-110.826416015625
 30
0.0
 10
791.65283203125
 20
-112.773193359375
 30
0.0
 10
788.32763671875
 20
-114.614501953125
 30
0.0
 10
785.0693359375
 20
-114.2666015625
 30
0.0
 10
780.8818359375
 20
-113.8193359375
 30
0.0
 10
777.330078125
 20
-110.48876953125
 30
0.0
 10
774.421875
 20
-107.442626953125
 30
0.0
 10
771.1552734375
 20
-104.02099609375
 30
0.0
 10
769.00830078125
 20
-99.558837890625
 30
0.0
 10
767.3193359375
 20
-95.14013671875
 30
0.0
 10
765.24609375
 20
-89.717529296875
 30
0.0
 10
765.240234375
 20
-83.6865234375
 30
0.0
 10
763.74169921875
 20
-78.077880859375
 30
0.0
 10
762.6455078125
 20
-73.9755859375
 30
0.0
 10
762.8662109375
 20
-68.876953125
 30
0.0
 10
759.7841796875
 20
-65.956298828125
 30
0.0
 10
758.6396484375
 20
-64.871826171875
 30
0.0
 10
756.7578125
 20
-64.42578125
 30
0.0
 10
755.21044921875
 20
-64.730712890625
 30
0.0
 10
752.8369140625
 20
-65.19873046875
 30
0.0
 10
751.1689453125
 20
-67.45068359375
 30
0.0
 10
749.43115234375
 20
-69.134033203125
 30
0.0
 10
747.34765625
 20
-71.15234375
 30
0.0
 10
744.9052734375
 20
-73.158203125
 30
0.0
 10
743.93359375
 20
-75.8916015625
 30
0.0
 10
743.40576171875
 20
-77.37744140625
 30
0.0
 10
744.2744140625
 20
-79.087158203125
 30
0.0
 10
743.93359375
 20
-80.626708984375
 30
0.0
 10
743.7958984375
 20
-81.24951171875
 30
0.0
 10
743.41943359375
 20
-81.79736328125
 30
0.0
 10
743.125
 20
-82.36328125
 30
0.0
 10
742.03369140625
 20
-84.46142578125
 30
0.0
 10
740.47900390625
 20
-86.329345703125
 30
0.0
 10
739.57373046875
 20
-88.514404296875
 30
0.0
 10
738.97021484375
 20
-89.97119140625
 30
0.0
 10
738.4384765625
 20
-91.51416015625
 30
0.0
 10
738.34814453125
 20
-93.08837890625
 30
0.0
 10
738.2333984375
 20
-95.0859375
 30
0.0
 10
739.95361328125
 20
-97.16748046875
 30
0.0
 10
739.22900390625
 20
-99.032470703125
 30
0.0
 10
738.955078125
 20
-99.73681640625
 30
0.0
 10
738.19580078125
 20
-100.261962890625
 30
0.0
 10
737.4677734375
 20
-100.463623046875
 30
0.0
 10
736.28466796875
 20
-100.791259765625
 30
0.0
 10
735.04296875
 20
-100.029052734375
 30
0.0
 10
733.818359375
 20
-99.942138671875
 30
0.0
 10
731.06591796875
 20
-99.746337890625
 30
0.0
 10
727.921875
 20
-98.562255859375
 30
0.0
 10
725.5322265625
 20
-99.942138671875
 30
0.0
 10
724.16650390625
 20
-100.73046875
 30
0.0
 10
723.572265625
 20
-102.519775390625
 30
0.0
 10
723.16455078125
 20
-104.04296875
 30
0.0
 10
722.24609375
 20
-107.4697265625
 30
0.0
 10
721.00439453125
 20
-111.88232421875
 30
0.0
 10
723.16455078125
 20
-114.697021484375
 30
0.0
 10
724.3642578125
 20
-116.2607421875
 30
0.0
 10
727.017578125
 20
-115.588134765625
 30
0.0
 10
728.8818359375
 20
-116.22900390625
 30
0.0
 10
732.08154296875
 20
-117.329345703125
 30
0.0
 10
735.3046875
 20
-118.505615234375
 30
0.0
 10
738.23828125
 20
-120.19189453125
 30
0.0
 10
743.18115234375
 20
-123.032958984375
 30
0.0
 10
747.634765625
 20
-126.719970703125
 30
0.0
 10
751.94287109375
 20
-130.45361328125
 30
0.0
 10
755.51806640625
 20
-133.5517578125
 30
0.0
 10
758.23486328125
 20
-137.618896484375
 30
0.0
 10
761.98779296875
 20
-140.49853515625
 30
0.0
 10
765.74072265625
 20
-143.378173828125
 30
0.0
 10
771.41064453125
 20
-143.848388671875
 30
0.0
 10
774.29052734375
 20
-147.601318359375
 30
0.0
 10
775.97021484375
 20
-149.79052734375
 30
0.0
 10
776.685546875
 20
-152.857421875
 30
0.0
 10
776.43505859375
 20
-155.60546875
 30
0.0
 10
776.29052734375
 20
-157.1943359375
 30
0.0
 10
775.5390625
 20
-158.837646484375
 30
0.0
 10
774.37939453125
 20
-159.93310546875
 30
0.0
 10
766.82861328125
 20
-167.0654296875
 30
0.0
 10
754.32177734375
 20
-166.2255859375
 30
0.0
 10
745.48876953125
 20
-171.690673828125
 30
0.0
 10
742.32080078125
 20
-173.65087890625
 30
0.0
 10
739.6728515625
 20
-176.396240234375
 30
0.0
 10
737.09033203125
 20
-179.081298828125
 30
0.0
 10
734.326171875
 20
-181.95556640625
 30
0.0
 10
732.064453125
 20
-185.289794921875
 30
0.0
 10
729.53515625
 20
-188.373046875
 30
0.0
 10
729.40673828125
 20
-188.52978515625
 30
0.0
 10
729.12939453125
 20
-188.639892578125
 30
0.0
 10
729.1474609375
 20
-188.841796875
 30
0.0
 10
729.49560546875
 20
-192.792724609375
 30
0.0
 10
734.59130859375
 20
-194.967041015625
 30
0.0
 10
738.22900390625
 20
-196.54736328125
 30
0.0
 10
741.384765625
 20
-197.918701171875
 30
0.0
 10
745.05078125
 20
-197.73291015625
 30
0.0
 10
748.49169921875
 20
-197.7451171875
 30
0.0
 10
752.69189453125
 20
-197.760009765625
 30
0.0
 10
756.83642578125
 20
-196.601318359375
 30
0.0
 10
761.0302734375
 20
-196.37255859375
 30
0.0
 10
761.423828125
 20
-196.35107421875
 30
0.0
 10
761.935546875
 20
-196.09375
 30
0.0
 10
762.2138671875
 20
-196.37255859375
 30
0.0
 10
763.05029296875
 20
-197.208740234375
 30
0.0
 10
762.36865234375
 20
-198.75146484375
 30
0.0
 10
762.2138671875
 20
-199.923828125
 30
0.0
 10
761.7509765625
 20
-203.44140625
 30
0.0
 10
761.04345703125
 20
-207.041748046875
 30
0.0
 10
759.45654296875
 20
-210.215087890625
 30
0.0
 10
758.01953125
 20
-213.088623046875
 30
0.0
 10
756.18017578125
 20
-216.033935546875
 30
0.0
 10
753.4990234375
 20
-217.803955078125
 30
0.0
 10
749.22216796875
 20
-220.62744140625
 30
0.0
 10
743.29150390625
 20
-219.650146484375
 30
0.0
 10
738.6337890625
 20
-221.787109375
 30
0.0
 10
734.3017578125
 20
-223.7744140625
 30
0.0
 10
729.65283203125
 20
-226.025146484375
 30
0.0
 10
726.80859375
 20
-229.849609375
 30
0.0
 10
721.85205078125
 20
-236.515380859375
 30
0.0
 10
720.5517578125
 20
-245.423583984375
 30
0.0
 10
719.28369140625
 20
-253.63330078125
 30
0.0
 10
718.0205078125
 20
-261.814453125
 30
0.0
 10
716.8388671875
 20
-270.583984375
 30
0.0
 10
719.28369140625
 20
-278.4931640625
 30
0.0
 10
720.7509765625
 20
-283.23974609375
 30
0.0
 10
724.0595703125
 20
-287.4326171875
 30
0.0
 10
727.70361328125
 20
-290.8095703125
 30
0.0
 10
732.32958984375
 20
-295.0966796875
 30
0.0
 10
738.279296875
 20
-297.8662109375
 30
0.0
 10
744.1064453125
 20
-300.27978515625
 30
0.0
 10
745.5634765625
 20
-300.88330078125
 30
0.0
 10
747.51416015625
 20
-300.4443359375
 30
0.0
 10
748.6806640625
 20
-301.50537109375
 30
0.0
 10
751.2890625
 20
-303.87841796875
 30
0.0
 10
750.09765625
 20
-308.7373046875
 30
0.0
 10
752.3740234375
 20
-311.4306640625
 30
0.0
 10
755.427734375
 20
-315.04345703125
 30
0.0
 10
760.169921875
 20
-317.0947265625
 30
0.0
 10
764.67626953125
 20
-318.533203125
 30
0.0
 10
770.21240234375
 20
-320.30126953125
 30
0.0
 10
776.24560546875
 20
-319.90673828125
 30
0.0
 10
782.05029296875
 20
-320.181640625
 30
0.0
 10
782.837890625
 20
-320.21875
 30
0.0
 10
783.8603515625
 20
-320.73876953125
 30
0.0
 10
784.41796875
 20
-320.181640625
 30
0.0
 10
785.115234375
 20
-319.484375
 30
0.0
 10
783.4326171875
 20
-317.22216796875
 30
0.0
 10
784.41796875
 20
-317.22216796875
 30
0.0
 10
785.9951171875
 20
-317.22216796875
 30
0.0
 10
784.21240234375
 20
-320.39404296875
 30
0.0
 10
784.41796875
 20
-321.95703125
 30
0.0
 10
784.9326171875
 20
-325.865234375
 30
0.0
 10
785.5107421875
 20
-329.97802734375
 30
0.0
 10
787.48193359375
 20
-333.3916015625
 30
0.0
 10
788.4677734375
 20
-335.0986328125
 30
0.0
 10
789.71337890625
 20
-337.31982421875
 30
0.0
 10
791.66748046875
 20
-337.5771484375
 30
0.0
 10
794.01220703125
 20
-337.8857421875
 30
0.0
 10
796.14599609375
 20
-335.6982421875
 30
0.0
 10
797.818359375
 20
-334.02587890625
 30
0.0
 10
798.65478515625
 20
-333.189453125
 30
0.0
 10
798.4521484375
 20
-330.64404296875
 30
0.0
 10
799.59423828125
 20
-330.9501953125
 30
0.0
 10
800.35595703125
 20
-331.154296875
 30
0.0
 10
799.59423828125
 20
-332.529296875
 30
0.0
 10
799.59423828125
 20
-333.31787109375
 30
0.0
 10
799.59423828125
 20
-337.259765625
 30
0.0
 10
800.912109375
 20
-341.4404296875
 30
0.0
 10
799.59423828125
 20
-345.15576171875
 30
0.0
 10
797.705078125
 20
-350.4814453125
 30
0.0
 10
790.0791015625
 20
-352.80517578125
 30
0.0
 10
788.9013671875
 20
-358.33203125
 30
0.0
 10
788.162109375
 20
-361.8017578125
 30
0.0
 10
789.4990234375
 20
-365.80859375
 30
0.0
 10
791.6591796875
 20
-368.623046875
 30
0.0
 10
794.53857421875
 20
-372.3759765625
 30
0.0
 10
801.47705078125
 20
-371.7001953125
 30
0.0
 10
803.96142578125
 20
-375.72607421875
 30
0.0
 10
808.96435546875
 20
-383.83154296875
 30
0.0
 10
807.0546875
 20
-394.86083984375
 30
0.0
 10
805.64111328125
 20
-404.2802734375
 30
0.0
 10
804.73779296875
 20
-410.30126953125
 30
0.0
 10
801.673828125
 20
-415.82470703125
 30
0.0
 10
799.25830078125
 20
-421.4130859375
 30
0.0
 10
796.30810546875
 20
-428.23828125
 30
0.0
 10
790.0908203125
 20
-434.02783203125
 30
0.0
 10
789.357421875
 20
-441.42724609375
 30
0.0
 10
789.16845703125
 20
-443.3369140625
 30
0.0
 10
789.27001953125
 20
-445.705078125
 30
0.0
 10
790.31005859375
 20
-447.30908203125
 30
0.0
 10
790.31005859375
 20
-447.30908203125
 30
0.0
 10
820.6962890625
 20
-447.30908203125
 30
0.0
 10
820.6962890625
 20
-447.30908203125
 30
0.0
  0
SPLINE
  5
7F
330
1F
100
AcDbEntity
  8
LAYER_1
 62
   250
100
AcDbSpline
210
0.0
220
0.0
230
1.0
 70
    11
 71
     3
 72
    29
 73
    25
 74
     0
 42
0.0000000001
 43
0.0000000001
 40
0.0
 40
0.0
 40
0.0
 40
0.0
 40
1.0
 40
1.0
 40
1.0
 40
2.0
 40
2.0
 40
2.0
 40
3.0
 40
3.0
 40
3.0
 40
4.0
 40
4.0
 40
4.0
 40
5.0
 40
5.0
 40
5.0
 40
6.0
 40
6.0
 40
6.0
 40
7.0
 40
7.0
 40
7.0
 40
8.0
 40
8.0
 40
8.0
 40
8.0
 10
837.68505859375
 20
-315.62255859375
 30
0.0
 10
839.5791015625
 20
-316.7587890625
 30
0.0
 10
841.5234375
 20
-317.51953125
 30
0.0
 10
843.51708984375
 20
-317.90283203125
 30
0.0
 10
845.84326171875
 20
-318.35009765625
 30
0.0
 10
848.63623046875
 20
-319.85791015625
 30
0.0
 10
850.56298828125
 20
-317.90283203125
 30
0.0
 10
851.61962890625
 20
-316.83056640625
 30
0.0
 10
852.01806640625
 20
-314.486328125
 30
0.0
 10
851.91064453125
 20
-312.61376953125
 30
0.0
 10
851.826171875
 20
-311.150390625
 30
0.0
 10
851.2265625
 20
-309.6328125
 30
0.0
 10
850.400390625
 20
-308.79541015625
 30
0.0
 10
849.001953125
 20
-307.37744140625
 30
0.0
 10
847.04443359375
 20
-307.21044921875
 30
0.0
 10
845.3583984375
 20
-307.55712890625
 30
0.0
 10
843.78515625
 20
-307.88037109375
 30
0.0
 10
842.3505859375
 20
-309.22314453125
 30
0.0
 10
841.05322265625
 20
-310.5634765625
 30
0.0
 10
839.73974609375
 20
-311.92041015625
 30
0.0
 10
837.63671875
 20
-313.203125
 30
0.0
 10
837.63671875
 20
-315.55224609375
 30
0.0
 10
837.63671875
 20
-315.58642578125
 30
0.0
 10
837.669921875
 20
-315.6005859375
 30
0.0
 10
837.68505859375
 20
-315.62255859375
 30
0.0
  0
SPLINE
  5
80
330
1F
100
AcDbEntity
  8
LAYER_1
 62
   250
100
AcDbSpline
210
0.0
220
0.0
230
1.0
 70
    11
 71
     3
 72
    38
 73
    34
 74
     0
 42
0.0000000001
 43
0.0000000001
 40
0.0
 40
0.0
 40
0.0
 40
0.0
 40
1.0
 40
1.0
 40
1.0
 40
2.0
 40
2.0
 40
2.0
 40
3.0
 40
3.0
 40
3.0
 40
4.0
 40
4.0
 40
4.0
 40
5.0
 40
5.0
 40
5.0
 40
6.0
 40
6.0
 40
6.0
 40
7.0
 40
7.0
 40
7.0
 40
8.0
 40
8.0
 40
8.0
 40
9.0
 40
9.0
 40
9.0
 40
10.0
 40
10.0
 40
10.0
 40
11.0
 40
11.0
 40
11.0
 40
11.0
 10
860.5166015625
 20
-326.91650390625
 30
0.0
 10
862.8916015625
 20
-325.2890625
 30
0.0
 10
864.64892578125
 20
-323.43115234375
 30
0.0
 10
865.78955078125
 20
-321.27490234375
 30
0.0
 10
867.2080078125
 20
-318.5927734375
 30
0.0
 10
867.66650390625
 20
-315.5244140625
 30
0.0
 10
867.484375
 20
-312.603515625
 30
0.0
 10
867.26318359375
 20
-309.0595703125
 30
0.0
 10
866.966796875
 20
-304.98388671875
 30
0.0
 10
864.1298828125
 20
-302.3095703125
 30
0.0
 10
861.8408203125
 20
-300.15185546875
 30
0.0
 10
856.89111328125
 20
-301.05126953125
 30
0.0
 10
854.490234375
 20
-298.9775390625
 30
0.0
 10
853.984375
 20
-298.54052734375
 30
0.0
 10
853.31591796875
 20
-297.7685546875
 30
0.0
 10
853.7373046875
 20
-297.2744140625
 30
0.0
 10
855.59423828125
 20
-295.09423828125
 30
0.0
 10
860.46728515625
 20
-296.255859375
 30
0.0
 10
863.4580078125
 20
-297.2744140625
 30
0.0
 10
866.947265625
 20
-298.46240234375
 30
0.0
 10
870.0322265625
 20
-300.9990234375
 30
0.0
 10
871.4775390625
 20
-303.8681640625
 30
0.0
 10
873.33544921875
 20
-307.556640625
 30
0.0
 10
871.701171875
 20
-311.869140625
 30
0.0
 10
871.4775390625
 20
-315.857421875
 30
0.0
 10
871.28271484375
 20
-319.322265625
 30
0.0
 10
872.89013671875
 20
-323.48583984375
 30
0.0
 10
870.30908203125
 20
-326.2294921875
 30
0.0
 10
868.8408203125
 20
-327.791015625
 30
0.0
 10
865.92529296875
 20
-328.3642578125
 30
0.0
 10
863.52978515625
 20
-328.24267578125
 30
0.0
 10
862.40625
 20
-328.185546875
 30
0.0
 10
861.52294921875
 20
-327.404296875
 30
0.0
 10
860.5166015625
 20
-326.91650390625
 30
0.0
  0
SPLINE
  5
81
330
1F
100
AcDbEntity
  8
LAYER_1
 62
   250
100
AcDbSpline
210
0.0
220
0.0
230
1.0
 70
    11
 71
     3
 72
    29
 73
    25
 74
     0
 42
0.0000000001
 43
0.0000000001
 40
0.0
 40
0.0
 40
0.0
 40
0.0
 40
1.0
 40
1.0
 40
1.0
 40
2.0
 40
2.0
 40
2.0
 40
3.0
 40
3.0
 40
3.0
 40
4.0
 40
4.0
 40
4.0
 40
5.0
 40
5.0
 40
5.0
 40
6.0
 40
6.0
 40
6.0
 40
7.0
 40
7.0
 40
7.0
 40
8.0
 40
8.0
 40
8.0
 40
8.0
 10
582.65234375
 20
-561.8603515625
 30
0.0
 10
582.65234375
 20
-561.8603515625
 30
0.0
 10
582.65234375
 20
-324.8642578125
 30
0.0
 10
582.65234375
 20
-324.8642578125
 30
0.0
 10
582.65234375
 20
-319.41064453125
 30
0.0
 10
591.220703125
 20
-314.9892578125
 30
0.0
 10
601.7900390625
 20
-314.9892578125
 30
0.0
 10
601.7900390625
 20
-314.9892578125
 30
0.0
 10
678.3427734375
 20
-314.9892578125
 30
0.0
 10
678.3427734375
 20
-314.9892578125
 30
0.0
 10
688.91259765625
 20
-314.9892578125
 30
0.0
 10
697.48095703125
 20
-319.41064453125
 30
0.0
 10
697.48095703125
 20
-324.8642578125
 30
0.0
 10
697.48095703125
 20
-324.8642578125
 30
0.0
 10
697.48095703125
 20
-561.8603515625
 30
0.0
 10
697.48095703125
 20
-561.8603515625
 30
0.0
 10
697.48095703125
 20
-567.31396484375
 30
0.0
 10
688.91259765625
 20
-571.73486328125
 30
0.0
 10
678.3427734375
 20
-571.73486328125
 30
0.0
 10
678.3427734375
 20
-571.73486328125
 30
0.0
 10
601.7900390625
 20
-571.73486328125
 30
0.0
 10
601.7900390625
 20
-571.73486328125
 30
0.0
 10
591.220703125
 20
-571.73486328125
 30
0.0
 10
582.65234375
 20
-567.31396484375
 30
0.0
 10
582.65234375
 20
-561.8603515625
 30
0.0
  0
SPLINE
  5
82
330
1F
100
AcDbEntity
  8
LAYER_1
 62
   250
100
AcDbSpline
210
0.0
220
0.0
230
1.0
 70
    11
 71
     3
 72
    17
 73
    13
 74
     0
 42
0.0000000001
 43
0.0000000001
 40
0.0
 40
0.0
 40
0.0
 40
0.0
 40
1.0
 40
1.0
 40
1.0
 40
2.0
 40
2.0
 40
2.0
 40
3.0
 40
3.0
 40
3.0
 40
4.0
 40
4.0
 40
4.0
 40
4.0
 10
640.06640625
 20
-425.86279296875
 30
0.0
 10
630.40185546875
 20
-425.86279296875
 30
0.0
 10
622.56689453125
 20
-433.697265625
 30
0.0
 10
622.56689453125
 20
-443.3623046875
 30
0.0
 10
622.56689453125
 20
-453.02685546875
 30
0.0
 10
630.40185546875
 20
-460.86181640625
 30
0.0
 10
640.06640625
 20
-460.86181640625
 30
0.0
 10
649.7314453125
 20
-460.86181640625
 30
0.0
 10
657.56640625
 20
-453.02685546875
 30
0.0
 10
657.56640625
 20
-443.3623046875
 30
0.0
 10
657.56640625
 20
-433.697265625
 30
0.0
 10
649.7314453125
 20
-425.86279296875
 30
0.0
 10
640.06640625
 20
-425.86279296875
 30
0.0
  0
POLYLINE
  5
83
330
1F
100
AcDbEntity
  8
LAYER_1
 62
   250
100
AcDb2dPolyline
 66
     1
 10
0.0
 20
0.0
 30
0.0
  0
VERTEX
  5
84
330
83
100
AcDbEntity
  8
LAYER_1
 62
   250
100
AcDbVertex
100
AcDb2dVertex
 10
596.669921875
 20
-517.7353515625
 30
0.0
  0
VERTEX
  5
85
330
83
100
AcDbEntity
  8
LAYER_1
 62
   250
100
AcDbVertex
100
AcDb2dVertex
 10
602.3388671875
 20
-517.7353515625
 30
0.0
  0
VERTEX
  5
86
330
83
100
AcDbEntity
  8
LAYER_1
 62
   250
100
AcDbVertex
100
AcDb2dVertex
 10
602.3388671875
 20
-368.9892578125
 30
0.0
  0
VERTEX
  5
87
330
83
100
AcDbEntity
  8
LAYER_1
 62
   250
100
AcDbVertex
100
AcDb2dVertex
 10
596.669921875
 20
-368.9892578125
 30
0.0
  0
VERTEX
  5
88
330
83
100
AcDbEntity
  8
LAYER_1
 62
   250
100
AcDbVertex
100
AcDb2dVertex
 10
596.669921875
 20
-517.7353515625
 30
0.0
  0
SEQEND
  5
89
330
83
100
AcDbEntity
  8
LAYER_1
  0
POLYLINE
  5
8A
330
1F
100
AcDbEntity
  8
LAYER_1
 62
   250
100
AcDb2dPolyline
 66
     1
 10
0.0
 20
0.0
 30
0.0
  0
VERTEX
  5
8B
330
8A
100
AcDbEntity
  8
LAYER_1
 62
   250
100
AcDbVertex
100
AcDb2dVertex
 10
677.7939453125
 20
-517.7353515625
 30
0.0
  0
VERTEX
  5
8C
330
8A
100
AcDbEntity
  8
LAYER_1
 62
   250
100
AcDbVertex
100
AcDb2dVertex
 10
683.462890625
 20
-517.7353515625
 30
0.0
  0
VERTEX
  5
8D
330
8A
100
AcDbEntity
  8
LAYER_1
 62
   250
100
AcDbVertex
100
AcDb2dVertex
 10
683.462890625
 20
-368.9892578125
 30
0.0
  0
VERTEX
  5
8E
330
8A
100
AcDbEntity
  8
LAYER_1
 62
   250
100
AcDbVertex
100
AcDb2dVertex
 10
677.7939453125
 20
-368.9892578125
 30
0.0
  0
VERTEX
  5
8F
330
8A
100
AcDbEntity
  8
LAYER_1
 62
   250
100
AcDbVertex
100
AcDb2dVertex
 10
677.7939453125
 20
-517.7353515625
 30
0.0
  0
SEQEND
  5
90
330
8A
100
AcDbEntity
  8
LAYER_1
  0
SPLINE
  5
91
330
1F
100
AcDbEntity
  8
LAYER_1
 62
   250
100
AcDbSpline
210
0.0
220
0.0
230
1.0
 70
    11
 71
     3
 72
    32
 73
    28
 74
     0
 42
0.0000000001
 43
0.0000000001
 40
0.0
 40
0.0
 40
0.0
 40
0.0
 40
1.0
 40
1.0
 40
1.0
 40
2.0
 40
2.0
 40
2.0
 40
3.0
 40
3.0
 40
3.0
 40
4.0
 40
4.0
 40
4.0
 40
5.0
 40
5.0
 40
5.0
 40
6.0
 40
6.0
 40
6.0
 40
7.0
 40
7.0
 40
7.0
 40
8.0
 40
8.0
 40
8.0
 40
9.0
 40
9.0
 40
9.0
 40
9.0
 10
972.21826171875
 20
-785.56396484375
 30
0.0
 10
971.37060546875
 20
-787.51953125
 30
0.0
 10
967.84521484375
 20
-785.54150390625
 30
0.0
 10
965.8623046875
 20
-786.32373046875
 30
0.0
 10
964.2705078125
 20
-786.9521484375
 30
0.0
 10
963.15087890625
 20
-788.42822265625
 30
0.0
 10
961.71728515625
 20
-789.36328125
 30
0.0
 10
960.908203125
 20
-789.8916015625
 30
0.0
 10
960.0966796875
 20
-791.1845703125
 30
0.0
 10
959.2041015625
 20
-790.814453125
 30
0.0
 10
958.7578125
 20
-790.6298828125
 30
0.0
 10
958.8916015625
 20
-789.89208984375
 30
0.0
 10
958.82861328125
 20
-789.4130859375
 30
0.0
 10
958.63916015625
 20
-787.9755859375
 30
0.0
 10
958.27392578125
 20
-786.39892578125
 30
0.0
 10
958.82861328125
 20
-785.0595703125
 30
0.0
 10
959.38330078125
 20
-783.720703125
 30
0.0
 10
960.59912109375
 20
-782.607421875
 30
0.0
 10
961.90673828125
 20
-781.9814453125
 30
0.0
 10
963.28955078125
 20
-781.31982421875
 30
0.0
 10
964.96826171875
 20
-781.25927734375
 30
0.0
 10
966.484375
 20
-781.48779296875
 30
0.0
 10
967.9208984375
 20
-781.70458984375
 30
0.0
 10
969.35400390625
 20
-782.310546875
 30
0.0
 10
970.4912109375
 20
-783.21484375
 30
0.0
 10
971.2509765625
 20
-783.8193359375
 30
0.0
 10
972.60400390625
 20
-784.6728515625
 30
0.0
 10
972.21826171875
 20
-785.56396484375
 30
0.0
  0
SPLINE
  5
92
330
1F
100
AcDbEntity
  8
LAYER_1
 62
   250
100
AcDbSpline
210
0.0
220
0.0
230
1.0
 70
    11
 71
     3
 72
    32
 73
    28
 74
     0
 42
0.0000000001
 43
0.0000000001
 40
0.0
 40
0.0
 40
0.0
 40
0.0
 40
1.0
 40
1.0
 40
1.0
 40
2.0
 40
2.0
 40
2.0
 40
3.0
 40
3.0
 40
3.0
 40
4.0
 40
4.0
 40
4.0
 40
5.0
 40
5.0
 40
5.0
 40
6.0
 40
6.0
 40
6.0
 40
7.0
 40
7.0
 40
7.0
 40
8.0
 40
8.0
 40
8.0
 40
9.0
 40
9.0
 40
9.0
 40
9.0
 10
935.4833984375
 20
-787.67041015625
 30
0.0
 10
934.111328125
 20
-786.935546875
 30
0.0
 10
934.0263671875
 20
-784.845703125
 30
0.0
 10
932.89111328125
 20
-783.78125
 30
0.0
 10
931.74072265625
 20
-782.70263671875
 30
0.0
 10
929.9052734375
 20
-782.52880859375
 30
0.0
 10
928.7900390625
 20
-781.41357421875
 30
0.0
 10
928.232421875
 20
-780.8564453125
 30
0.0
 10
927.50341796875
 20
-780.14501953125
 30
0.0
 10
927.6064453125
 20
-779.36328125
 30
0.0
 10
927.708984375
 20
-778.58154296875
 30
0.0
 10
928.59765625
 20
-778.08349609375
 30
0.0
 10
929.2802734375
 20
-777.68896484375
 30
0.0
 10
930.3046875
 20
-777.09765625
 30
0.0
 10
931.5380859375
 20
-776.61572265625
 30
0.0
 10
932.7109375
 20
-776.77001953125
 30
0.0
 10
933.88330078125
 20
-776.92431640625
 30
0.0
 10
935.00146484375
 20
-777.6611328125
 30
0.0
 10
935.78662109375
 20
-778.5458984375
 30
0.0
 10
936.5029296875
 20
-779.353515625
 30
0.0
 10
936.8837890625
 20
-780.4619140625
 30
0.0
 10
937.0615234375
 20
-781.52685546875
 30
0.0
 10
937.3994140625
 20
-783.55029296875
 30
0.0
 10
938.11328125
 20
-786.27392578125
 30
0.0
 10
936.61083984375
 20
-787.67041015625
 30
0.0
 10
936.3359375
 20
-787.92578125
 30
0.0
 10
935.814453125
 20
-787.84716796875
 30
0.0
 10
935.4833984375
 20
-787.67041015625
 30
0.0
  0
SPLINE
  5
93
330
1F
100
AcDbEntity
  8
LAYER_1
 62
   250
100
AcDbSpline
210
0.0
220
0.0
230
1.0
 70
    11
 71
     3
 72
    35
 73
    31
 74
     0
 42
0.0000000001
 43
0.0000000001
 40
0.0
 40
0.0
 40
0.0
 40
0.0
 40
1.0
 40
1.0
 40
1.0
 40
2.0
 40
2.0
 40
2.0
 40
3.0
 40
3.0
 40
3.0
 40
4.0
 40
4.0
 40
4.0
 40
5.0
 40
5.0
 40
5.0
 40
6.0
 40
6.0
 40
6.0
 40
7.0
 40
7.0
 40
7.0
 40
8.0
 40
8.0
 40
8.0
 40
9.0
 40
9.0
 40
9.0
 40
10.0
 40
10.0
 40
10.0
 40
10.0
 10
943.65185546875
 20
-743.154296875
 30
0.0
 10
944.6435546875
 20
-744.1455078125
 30
0.0
 10
943.2890625
 20
-746.0107421875
 30
0.0
 10
943.65185546875
 20
-747.36474609375
 30
0.0
 10
944.1357421875
 20
-749.1708984375
 30
0.0
 10
944.83984375
 20
-751.2919921875
 30
0.0
 10
946.458984375
 20
-752.22705078125
 30
0.0
 10
947.2685546875
 20
-752.6943359375
 30
0.0
 10
948.42041015625
 20
-751.828125
 30
0.0
 10
949.26611328125
 20
-752.22705078125
 30
0.0
 10
950.12109375
 20
-752.63037109375
 30
0.0
 10
951.2109375
 20
-753.482421875
 30
0.0
 10
951.07275390625
 20
-754.41796875
 30
0.0
 10
950.85302734375
 20
-755.90625
 30
0.0
 10
948.75390625
 20
-756.48779296875
 30
0.0
 10
947.31396484375
 20
-756.923828125
 30
0.0
 10
945.5244140625
 20
-757.46533203125
 30
0.0
 10
943.31884765625
 20
-757.8583984375
 30
0.0
 10
941.69970703125
 20
-756.923828125
 30
0.0
 10
940.08056640625
 20
-755.98876953125
 30
0.0
 10
939.19970703125
 20
-753.90576171875
 30
0.0
 10
938.892578125
 20
-752.0615234375
 30
0.0
 10
938.546875
 20
-749.984375
 30
0.0
 10
939.26611328125
 20
-747.78564453125
 30
0.0
 10
940.109375
 20
-745.85595703125
 30
0.0
 10
940.55615234375
 20
-744.83544921875
 30
0.0
 10
941.08984375
 20
-743.65869140625
 30
0.0
 10
942.0830078125
 20
-743.154296875
 30
0.0
 10
942.548828125
 20
-742.91748046875
 30
0.0
 10
943.2822265625
 20
-742.78466796875
 30
0.0
 10
943.65185546875
 20
-743.154296875
 30
0.0
  0
SPLINE
  5
94
330
1F
100
AcDbEntity
  8
LAYER_1
 62
   250
100
AcDbSpline
210
0.0
220
0.0
230
1.0
 70
    11
 71
     3
 72
    38
 73
    34
 74
     0
 42
0.0000000001
 43
0.0000000001
 40
0.0
 40
0.0
 40
0.0
 40
0.0
 40
1.0
 40
1.0
 40
1.0
 40
2.0
 40
2.0
 40
2.0
 40
3.0
 40
3.0
 40
3.0
 40
4.0
 40
4.0
 40
4.0
 40
5.0
 40
5.0
 40
5.0
 40
6.0
 40
6.0
 40
6.0
 40
7.0
 40
7.0
 40
7.0
 40
8.0
 40
8.0
 40
8.0
 40
9.0
 40
9.0
 40
9.0
 40
10.0
 40
10.0
 40
10.0
 40
11.0
 40
11.0
 40
11.0
 40
11.0
 10
983.46240234375
 20
-747.263671875
 30
0.0
 10
982.68115234375
 20
-748.267578125
 30
0.0
 10
982.689453125
 20
-749.79931640625
 30
0.0
 10
981.7890625
 20
-750.6982421875
 30
0.0
 10
980.98193359375
 20
-751.50439453125
 30
0.0
 10
979.796875
 20
-751.857421875
 30
0.0
 10
978.70703125
 20
-752.1953125
 30
0.0
 10
977.57421875
 20
-752.54638671875
 30
0.0
 10
976.30419921875
 20
-752.33203125
 30
0.0
 10
975.1845703125
 20
-752.7236328125
 30
0.0
 10
974.4404296875
 20
-752.98388671875
 30
0.0
 10
973.26611328125
 20
-753.13037109375
 30
0.0
 10
973.1337890625
 20
-753.9072265625
 30
0.0
 10
972.93603515625
 20
-755.07275390625
 30
0.0
 10
974.50390625
 20
-755.88818359375
 30
0.0
 10
975.44873046875
 20
-756.5986328125
 30
0.0
 10
976.3505859375
 20
-757.2763671875
 30
0.0
 10
977.40625
 20
-757.9130859375
 30
0.0
 10
978.53076171875
 20
-758.00732421875
 30
0.0
 10
980.4951171875
 20
-758.171875
 30
0.0
 10
982.8544921875
 20
-757.869140625
 30
0.0
 10
984.248046875
 20
-756.4755859375
 30
0.0
 10
985.36328125
 20
-755.3603515625
 30
0.0
 10
985.3544921875
 20
-753.47412109375
 30
0.0
 10
985.4736328125
 20
-751.9013671875
 30
0.0
 10
985.59130859375
 20
-750.35205078125
 30
0.0
 10
985.7470703125
 20
-748.60302734375
 30
0.0
 10
984.95947265625
 20
-747.263671875
 30
0.0
 10
984.791015625
 20
-746.97705078125
 30
0.0
 10
984.47802734375
 20
-746.671875
 30
0.0
 10
984.14599609375
 20
-746.685546875
 30
0.0
 10
983.84814453125
 20
-746.6982421875
 30
0.0
 10
983.6455078125
 20
-747.0283203125
 30
0.0
 10
983.46240234375
 20
-747.263671875
 30
0.0
  0
SPLINE
  5
95
330
1F
100
AcDbEntity
  8
LAYER_1
 62
   250
100
AcDbSpline
210
0.0
220
0.0
230
1.0
 70
    11
 71
     3
 72
    17
 73
    13
 74
     0
 42
0.0000000001
 43
0.0000000001
 40
0.0
 40
0.0
 40
0.0
 40
0.0
 40
1.0
 40
1.0
 40
1.0
 40
2.0
 40
2.0
 40
2.0
 40
3.0
 40
3.0
 40
3.0
 40
4.0
 40
4.0
 40
4.0
 40
4.0
 10
974.5029296875
 20
-745.46044921875
 30
0.0
 10
976.791015625
 20
-745.46044921875
 30
0.0
 10
978.64599609375
 20
-742.810546875
 30
0.0
 10
978.64599609375
 20
-739.54150390625
 30
0.0
 10
978.64599609375
 20
-736.2724609375
 30
0.0
 10
976.791015625
 20
-733.6220703125
 30
0.0
 10
974.5029296875
 20
-733.6220703125
 30
0.0
 10
972.21484375
 20
-733.6220703125
 30
0.0
 10
970.359375
 20
-736.2724609375
 30
0.0
 10
970.359375
 20
-739.54150390625
 30
0.0
 10
970.359375
 20
-742.810546875
 30
0.0
 10
972.21484375
 20
-745.46044921875
 30
0.0
 10
974.5029296875
 20
-745.46044921875
 30
0.0
  0
SPLINE
  5
96
330
1F
100
AcDbEntity
  8
LAYER_1
 62
   250
100
AcDbSpline
210
0.0
220
0.0
230
1.0
 70
    11
 71
     3
 72
    17
 73
    13
 74
     0
 42
0.0000000001
 43
0.0000000001
 40
0.0
 40
0.0
 40
0.0
 40
0.0
 40
1.0
 40
1.0
 40
1.0
 40
2.0
 40
2.0
 40
2.0
 40
3.0
 40
3.0
 40
3.0
 40
4.0
 40
4.0
 40
4.0
 40
4.0
 10
952.6630859375
 20
-744.05126953125
 30
0.0
 10
954.951171875
 20
-744.05126953125
 30
0.0
 10
956.806640625
 20
-741.4013671875
 30
0.0
 10
956.806640625
 20
-738.13232421875
 30
0.0
 10
956.806640625
 20
-734.86328125
 30
0.0
 10
954.951171875
 20
-732.21337890625
 30
0.0
 10
952.6630859375
 20
-732.21337890625
 30
0.0
 10
950.375
 20
-732.21337890625
 30
0.0
 10
948.51953125
 20
-734.86328125
 30
0.0
 10
948.51953125
 20
-738.13232421875
 30
0.0
 10
948.51953125
 20
-741.4013671875
 30
0.0
 10
950.375
 20
-744.05126953125
 30
0.0
 10
952.6630859375
 20
-744.05126953125
 30
0.0
  0
SPLINE
  5
97
330
1F
100
AcDbEntity
  8
LAYER_1
 62
   250
100
AcDbSpline
210
0.0
220
0.0
230
1.0
 70
    11
 71
     3
 72
    47
 73
    43
 74
     0
 42
0.0000000001
 43
0.0000000001
 40
0.0
 40
0.0
 40
0.0
 40
0.0
 40
1.0
 40
1.0
 40
1.0
 40
2.0
 40
2.0
 40
2.0
 40
3.0
 40
3.0
 40
3.0
 40
4.0
 40
4.0
 40
4.0
 40
5.0
 40
5.0
 40
5.0
 40
6.0
 40
6.0
 40
6.0
 40
7.0
 40
7.0
 40
7.0
 40
8.0
 40
8.0
 40
8.0
 40
9.0
 40
9.0
 40
9.0
 40
10.0
 40
10.0
 40
10.0
 40
11.0
 40
11.0
 40
11.0
 40
12.0
 40
12.0
 40
12.0
 40
13.0
 40
13.0
 40
13.0
 40
14.0
 40
14.0
 40
14.0
 40
14.0
 10
867.4833984375
 20
-582.509765625
 30
0.0
 10
866.85791015625
 20
-579.86474609375
 30
0.0
 10
867.2294921875
 20
-570.896484375
 30
0.0
 10
867.556640625
 20
-565.7900390625
 30
0.0
 10
867.859375
 20
-561.0595703125
 30
0.0
 10
868.787109375
 20
-556.28564453125
 30
0.0
 10
870.48046875
 20
-551.85791015625
 30
0.0
 10
871.88818359375
 20
-548.17626953125
 30
0.0
 10
873.8994140625
 20
-544.654296875
 30
0.0
 10
876.3994140625
 20
-541.60595703125
 30
0.0
 10
878.4580078125
 20
-539.09619140625
 30
0.0
 10
880.521484375
 20
-534.646484375
 30
0.0
 10
883.72412109375
 20
-535.17431640625
 30
0.0
 10
886.8359375
 20
-535.68701171875
 30
0.0
 10
887.5048828125
 20
-540.3701171875
 30
0.0
 10
888.45947265625
 20
-543.3759765625
 30
0.0
 10
890.25830078125
 20
-549.03955078125
 30
0.0
 10
890.38720703125
 20
-555.21142578125
 30
0.0
 10
890.08837890625
 20
-561.14599609375
 30
0.0
 10
889.771484375
 20
-567.439453125
 30
0.0
 10
888.412109375
 20
-573.72509765625
 30
0.0
 10
886.4765625
 20
-579.7216796875
 30
0.0
 10
886.01025390625
 20
-581.166015625
 30
0.0
 10
885.33447265625
 20
-582.52880859375
 30
0.0
 10
884.6435546875
 20
-583.88671875
 30
0.0
 10
884.8603515625
 20
-584.931640625
 30
0.0
 10
884.65625
 20
-585.69384765625
 30
0.0
 10
884.03076171875
 20
-586.173828125
 30
0.0
 10
883.09228515625
 20
-586.8935546875
 30
0.0
 10
881.61328125
 20
-585.83740234375
 30
0.0
 10
880.4794921875
 20
-586.173828125
 30
0.0
 10
877.2724609375
 20
-587.1259765625
 30
0.0
 10
875.00048828125
 20
-590.05810546875
 30
0.0
 10
872.0615234375
 20
-591.6552734375
 30
0.0
 10
871.04638671875
 20
-592.20654296875
 30
0.0
 10
869.880859375
 20
-593.66015625
 30
0.0
 10
868.89111328125
 20
-593.06396484375
 30
0.0
 10
866.67578125
 20
-591.7294921875
 30
0.0
 10
868.85400390625
 20
-587.85400390625
 30
0.0
 10
868.36279296875
 20
-585.314453125
 30
0.0
 10
868.17822265625
 20
-584.36083984375
 30
0.0
 10
867.7890625
 20
-583.42041015625
 30
0.0
 10
867.4833984375
 20
-582.509765625
 30
0.0
  0
SPLINE
  5
98
330
1F
100
AcDbEntity
  8
LAYER_1
 62
   250
100
AcDbSpline
210
0.0
220
0.0
230
1.0
 70
    11
 71
     3
 72
    32
 73
    28
 74
     0
 42
0.0000000001
 43
0.0000000001
 40
0.0
 40
0.0
 40
0.0
 40
0.0
 40
1.0
 40
1.0
 40
1.0
 40
2.0
 40
2.0
 40
2.0
 40
3.0
 40
3.0
 40
3.0
 40
4.0
 40
4.0
 40
4.0
 40
5.0
 40
5.0
 40
5.0
 40
6.0
 40
6.0
 40
6.0
 40
7.0
 40
7.0
 40
7.0
 40
8.0
 40
8.0
 40
8.0
 40
9.0
 40
9.0
 40
9.0
 40
9.0
 10
840.83935546875
 20
-542.3095703125
 30
0.0
 10
839.50537109375
 20
-551.33251953125
 30
0.0
 10
838.93212890625
 20
-560.3623046875
 30
0.0
 10
839.11962890625
 20
-569.3994140625
 30
0.0
 10
839.23291015625
 20
-574.869140625
 30
0.0
 10
841.4541015625
 20
-580.302734375
 30
0.0
 10
840.83935546875
 20
-585.7392578125
 30
0.0
 10
840.21923828125
 20
-591.228515625
 30
0.0
 10
840.97265625
 20
-601.8583984375
 30
0.0
 10
835.46435546875
 20
-601.43408203125
 30
0.0
 10
830.17138671875
 20
-601.0263671875
 30
0.0
 10
833.82275390625
 20
-590.9208984375
 30
0.0
 10
832.66943359375
 20
-585.7392578125
 30
0.0
 10
831.55615234375
 20
-580.73681640625
 30
0.0
 10
828.93798828125
 20
-575.99267578125
 30
0.0
 10
828.6865234375
 20
-570.8740234375
 30
0.0
 10
828.41650390625
 20
-565.3759765625
 30
0.0
 10
829.9931640625
 20
-559.8916015625
 30
0.0
 10
831.37939453125
 20
-554.564453125
 30
0.0
 10
832.81689453125
 20
-549.04150390625
 30
0.0
 10
833.982421875
 20
-543.16357421875
 30
0.0
 10
837.1845703125
 20
-538.439453125
 30
0.0
 10
838.01513671875
 20
-537.21435546875
 30
0.0
 10
839.0078125
 20
-536.24462890625
 30
0.0
 10
839.60791015625
 20
-536.9375
 30
0.0
 10
840.89892578125
 20
-538.4267578125
 30
0.0
 10
840.83935546875
 20
-539.94189453125
 30
0.0
 10
840.83935546875
 20
-542.3095703125
 30
0.0
  0
SPLINE
  5
99
330
1F
100
AcDbEntity
  8
LAYER_1
 62
   250
100
AcDbSpline
210
0.0
220
0.0
230
1.0
 70
    11
 71
     3
 72
    44
 73
    40
 74
     0
 42
0.0000000001
 43
0.0000000001
 40
0.0
 40
0.0
 40
0.0
 40
0.0
 40
1.0
 40
1.0
 40
1.0
 40
2.0
 40
2.0
 40
2.0
 40
3.0
 40
3.0
 40
3.0
 40
4.0
 40
4.0
 40
4.0
 40
5.0
 40
5.0
 40
5.0
 40
6.0
 40
6.0
 40
6.0
 40
7.0
 40
7.0
 40
7.0
 40
8.0
 40
8.0
 40
8.0
 40
9.0
 40
9.0
 40
9.0
 40
10.0
 40
10.0
 40
10.0
 40
11.0
 40
11.0
 40
11.0
 40
12.0
 40
12.0
 40
12.0
 40
13.0
 40
13.0
 40
13.0
 40
13.0
 10
985.220703125
 20
-641.82373046875
 30
0.0
 10
984.1982421875
 20
-643.8330078125
 30
0.0
 10
975.4365234375
 20
-638.50927734375
 30
0.0
 10
970.35595703125
 20
-637.84033203125
 30
0.0
 10
966.83837890625
 20
-637.37744140625
 30
0.0
 10
963.12890625
 20
-636.92236328125
 30
0.0
 10
959.70166015625
 20
-637.84033203125
 30
0.0
 10
953.990234375
 20
-639.37109375
 30
0.0
 10
948.27197265625
 20
-642.3173828125
 30
0.0
 10
944.32373046875
 20
-646.71875
 30
0.0
 10
940.94189453125
 20
-650.4892578125
 30
0.0
 10
939.2333984375
 20
-655.68017578125
 30
0.0
 10
938.18994140625
 20
-660.6357421875
 30
0.0
 10
937.78369140625
 20
-662.564453125
 30
0.0
 10
939.958984375
 20
-665.685546875
 30
0.0
 10
938.18994140625
 20
-666.55517578125
 30
0.0
 10
936.87158203125
 20
-667.203125
 30
0.0
 10
935.3447265625
 20
-665.17919921875
 30
0.0
 10
934.6962890625
 20
-663.86083984375
 30
0.0
 10
934.00048828125
 20
-662.44580078125
 30
0.0
 10
935.51171875
 20
-658.87744140625
 30
0.0
 10
935.83203125
 20
-657.33349609375
 30
0.0
 10
936.3349609375
 20
-654.90966796875
 30
0.0
 10
936.18603515625
 20
-652.6337890625
 30
0.0
 10
936.68896484375
 20
-650.20947265625
 30
0.0
 10
937.3291015625
 20
-647.12158203125
 30
0.0
 10
938.369140625
 20
-645.7490234375
 30
0.0
 10
939.94580078125
 20
-643.017578125
 30
0.0
 10
942.5078125
 20
-638.57958984375
 30
0.0
 10
946.2578125
 20
-636.46826171875
 30
0.0
 10
950.9921875
 20
-634.50732421875
 30
0.0
 10
956.09130859375
 20
-632.3955078125
 30
0.0
 10
966.66748046875
 20
-630.60400390625
 30
0.0
 10
967.05517578125
 20
-630.6748046875
 30
0.0
 10
973.82861328125
 20
-631.90869140625
 30
0.0
 10
976.97314453125
 20
-632.70751953125
 30
0.0
 10
980.9208984375
 20
-635.9111328125
 30
0.0
 10
982.8115234375
 20
-637.4453125
 30
0.0
 10
986.3251953125
 20
-639.65380859375
 30
0.0
 10
985.220703125
 20
-641.82373046875
 30
0.0
  0
SPLINE
  5
9A
330
1F
100
AcDbEntity
  8
LAYER_1
 62
   250
100
AcDbSpline
210
0.0
220
0.0
230
1.0
 70
    11
 71
     3
 72
    17
 73
    13
 74
     0
 42
0.0000000001
 43
0.0000000001
 40
0.0
 40
0.0
 40
0.0
 40
0.0
 40
1.0
 40
1.0
 40
1.0
 40
2.0
 40
2.0
 40
2.0
 40
3.0
 40
3.0
 40
3.0
 40
4.0
 40
4.0
 40
4.0
 40
4.0
 10
849.47412109375
 20
-641.6630859375
 30
0.0
 10
852.7431640625
 20
-641.6630859375
 30
0.0
 10
855.39306640625
 20
-639.01318359375
 30
0.0
 10
855.39306640625
 20
-635.744140625
 30
0.0
 10
855.39306640625
 20
-632.47509765625
 30
0.0
 10
852.7431640625
 20
-629.8251953125
 30
0.0
 10
849.47412109375
 20
-629.8251953125
 30
0.0
 10
846.205078125
 20
-629.8251953125
 30
0.0
 10
843.55517578125
 20
-632.47509765625
 30
0.0
 10
843.55517578125
 20
-635.744140625
 30
0.0
 10
843.55517578125
 20
-639.01318359375
 30
0.0
 10
846.205078125
 20
-641.6630859375
 30
0.0
 10
849.47412109375
 20
-641.6630859375
 30
0.0
  0
SPLINE
  5
9B
330
1F
100
AcDbEntity
  8
LAYER_1
 62
   250
100
AcDbSpline
210
0.0
220
0.0
230
1.0
 70
    11
 71
     3
 72
    17
 73
    13
 74
     0
 42
0.0000000001
 43
0.0000000001
 40
0.0
 40
0.0
 40
0.0
 40
0.0
 40
1.0
 40
1.0
 40
1.0
 40
2.0
 40
2.0
 40
2.0
 40
3.0
 40
3.0
 40
3.0
 40
4.0
 40
4.0
 40
4.0
 40
4.0
 10
848.0986328125
 20
-659.03515625
 30
0.0
 10
851.36767578125
 20
-659.03515625
 30
0.0
 10
854.017578125
 20
-656.38525390625
 30
0.0
 10
854.017578125
 20
-653.1162109375
 30
0.0
 10
854.017578125
 20
-649.84716796875
 30
0.0
 10
851.36767578125
 20
-647.197265625
 30
0.0
 10
848.0986328125
 20
-647.197265625
 30
0.0
 10
844.82958984375
 20
-647.197265625
 30
0.0
 10
842.1796875
 20
-649.84716796875
 30
0.0
 10
842.1796875
 20
-653.1162109375
 30
0.0
 10
842.1796875
 20
-656.38525390625
 30
0.0
 10
844.82958984375
 20
-659.03515625
 30
0.0
 10
848.0986328125
 20
-659.03515625
 30
0.0
  0
SPLINE
  5
9C
330
1F
100
AcDbEntity
  8
LAYER_1
 62
   250
100
AcDbSpline
210
0.0
220
0.0
230
1.0
 70
    11
 71
     3
 72
    17
 73
    13
 74
     0
 42
0.0000000001
 43
0.0000000001
 40
0.0
 40
0.0
 40
0.0
 40
0.0
 40
1.0
 40
1.0
 40
1.0
 40
2.0
 40
2.0
 40
2.0
 40
3.0
 40
3.0
 40
3.0
 40
4.0
 40
4.0
 40
4.0
 40
4.0
 10
848.2705078125
 20
-676.92236328125
 30
0.0
 10
851.5390625
 20
-676.92236328125
 30
0.0
 10
854.189453125
 20
-674.2724609375
 30
0.0
 10
854.189453125
 20
-671.00341796875
 30
0.0
 10
854.189453125
 20
-667.734375
 30
0.0
 10
851.5390625
 20
-665.08447265625
 30
0.0
 10
848.2705078125
 20
-665.08447265625
 30
0.0
 10
845.00146484375
 20
-665.08447265625
 30
0.0
 10
842.3515625
 20
-667.734375
 30
0.0
 10
842.3515625
 20
-671.00341796875
 30
0.0
 10
842.3515625
 20
-674.2724609375
 30
0.0
 10
845.00146484375
 20
-676.92236328125
 30
0.0
 10
848.2705078125
 20
-676.92236328125
 30
0.0
  0
SPLINE
  5
9D
330
1F
100
AcDbEntity
  8
LAYER_1
 62
   250
100
AcDbSpline
210
0.0
220
0.0
230
1.0
 70
    11
 71
     3
 72
    17
 73
    13
 74
     0
 42
0.0000000001
 43
0.0000000001
 40
0.0
 40
0.0
 40
0.0
 40
0.0
 40
1.0
 40
1.0
 40
1.0
 40
2.0
 40
2.0
 40
2.0
 40
3.0
 40
3.0
 40
3.0
 40
4.0
 40
4.0
 40
4.0
 40
4.0
 10
850.162109375
 20
-693.77880859375
 30
0.0
 10
853.43115234375
 20
-693.77880859375
 30
0.0
 10
856.0810546875
 20
-691.12841796875
 30
0.0
 10
856.0810546875
 20
-687.859375
 30
0.0
 10
856.0810546875
 20
-684.5908203125
 30
0.0
 10
853.43115234375
 20
-681.9404296875
 30
0.0
 10
850.162109375
 20
-681.9404296875
 30
0.0
 10
846.89306640625
 20
-681.9404296875
 30
0.0
 10
844.2431640625
 20
-684.5908203125
 30
0.0
 10
844.2431640625
 20
-687.859375
 30
0.0
 10
844.2431640625
 20
-691.12841796875
 30
0.0
 10
846.89306640625
 20
-693.77880859375
 30
0.0
 10
850.162109375
 20
-693.77880859375
 30
0.0
  0
SPLINE
  5
9E
330
1F
100
AcDbEntity
  8
LAYER_1
 62
   250
100
AcDbSpline
210
0.0
220
0.0
230
1.0
 70
    11
 71
     3
 72
    17
 73
    13
 74
     0
 42
0.0000000001
 43
0.0000000001
 40
0.0
 40
0.0
 40
0.0
 40
0.0
 40
1.0
 40
1.0
 40
1.0
 40
2.0
 40
2.0
 40
2.0
 40
3.0
 40
3.0
 40
3.0
 40
4.0
 40
4.0
 40
4.0
 40
4.0
 10
873.7265625
 20
-693.9501953125
 30
0.0
 10
876.99560546875
 20
-693.9501953125
 30
0.0
 10
879.6455078125
 20
-691.30029296875
 30
0.0
 10
879.6455078125
 20
-688.03125
 30
0.0
 10
879.6455078125
 20
-684.76220703125
 30
0.0
 10
876.99560546875
 20
-682.1123046875
 30
0.0
 10
873.7265625
 20
-682.1123046875
 30
0.0
 10
870.4580078125
 20
-682.1123046875
 30
0.0
 10
867.8076171875
 20
-684.76220703125
 30
0.0
 10
867.8076171875
 20
-688.03125
 30
0.0
 10
867.8076171875
 20
-691.30029296875
 30
0.0
 10
870.4580078125
 20
-693.9501953125
 30
0.0
 10
873.7265625
 20
-693.9501953125
 30
0.0
  0
SPLINE
  5
9F
330
1F
100
AcDbEntity
  8
LAYER_1
 62
   250
100
AcDbSpline
210
0.0
220
0.0
230
1.0
 70
    11
 71
     3
 72
    17
 73
    13
 74
     0
 42
0.0000000001
 43
0.0000000001
 40
0.0
 40
0.0
 40
0.0
 40
0.0
 40
1.0
 40
1.0
 40
1.0
 40
2.0
 40
2.0
 40
2.0
 40
3.0
 40
3.0
 40
3.0
 40
4.0
 40
4.0
 40
4.0
 40
4.0
 10
837.361328125
 20
-711.99853515625
 30
0.0
 10
840.63037109375
 20
-711.99853515625
 30
0.0
 10
843.28076171875
 20
-709.3486328125
 30
0.0
 10
843.28076171875
 20
-706.07958984375
 30
0.0
 10
843.28076171875
 20
-702.810546875
 30
0.0
 10
840.63037109375
 20
-700.16064453125
 30
0.0
 10
837.361328125
 20
-700.16064453125
 30
0.0
 10
834.0927734375
 20
-700.16064453125
 30
0.0
 10
831.4423828125
 20
-702.810546875
 30
0.0
 10
831.4423828125
 20
-706.07958984375
 30
0.0
 10
831.4423828125
 20
-709.3486328125
 30
0.0
 10
834.0927734375
 20
-711.99853515625
 30
0.0
 10
837.361328125
 20
-711.99853515625
 30
0.0
  0
SPLINE
  5
A0
330
1F
100
AcDbEntity
  8
LAYER_1
 62
   250
100
AcDbSpline
210
0.0
220
0.0
230
1.0
 70
    11
 71
     3
 72
    38
 73
    34
 74
     0
 42
0.0000000001
 43
0.0000000001
 40
0.0
 40
0.0
 40
0.0
 40
0.0
 40
1.0
 40
1.0
 40
1.0
 40
2.0
 40
2.0
 40
2.0
 40
3.0
 40
3.0
 40
3.0
 40
4.0
 40
4.0
 40
4.0
 40
5.0
 40
5.0
 40
5.0
 40
6.0
 40
6.0
 40
6.0
 40
7.0
 40
7.0
 40
7.0
 40
8.0
 40
8.0
 40
8.0
 40
9.0
 40
9.0
 40
9.0
 40
10.0
 40
10.0
 40
10.0
 40
11.0
 40
11.0
 40
11.0
 40
11.0
 10
942.294921875
 20
-517.80712890625
 30
0.0
 10
941.00537109375
 20
-521.10986328125
 30
0.0
 10
938.85009765625
 20
-525.03857421875
 30
0.0
 10
936.53955078125
 20
-527.7275390625
 30
0.0
 10
934.68798828125
 20
-529.8828125
 30
0.0
 10
930.33984375
 20
-530.76220703125
 30
0.0
 10
929.79345703125
 20
-533.55029296875
 30
0.0
 10
929.63720703125
 20
-534.35009765625
 30
0.0
 10
930.7275390625
 20
-535.3369140625
 30
0.0
 10
931.45947265625
 20
-535.6953125
 30
0.0
 10
932.7353515625
 20
-536.31982421875
 30
0.0
 10
934.77392578125
 20
-535.6953125
 30
0.0
 10
936.1943359375
 20
-535.6953125
 30
0.0
 10
938.64404296875
 20
-536.15966796875
 30
0.0
 10
943.52099609375
 20
-538.30712890625
 30
0.0
 10
944.359375
 20
-537.2431640625
 30
0.0
 10
944.78759765625
 20
-536.69921875
 30
0.0
 10
943.486328125
 20
-535.85302734375
 30
0.0
 10
943.3271484375
 20
-535.17919921875
 30
0.0
 10
943.08251953125
 20
-534.14208984375
 30
0.0
 10
943.18798828125
 20
-532.68408203125
 30
0.0
 10
943.3271484375
 20
-531.6279296875
 30
0.0
 10
943.55908203125
 20
-529.8671875
 30
0.0
 10
944.70654296875
 20
-527.6796875
 30
0.0
 10
944.859375
 20
-525.91064453125
 30
0.0
 10
945.041015625
 20
-523.79931640625
 30
0.0
 10
945.005859375
 20
-520.845703125
 30
0.0
 10
944.22509765625
 20
-518.8759765625
 30
0.0
 10
944.03759765625
 20
-518.40283203125
 30
0.0
 10
943.6640625
 20
-517.69482421875
 30
0.0
 10
943.1787109375
 20
-517.541015625
 30
0.0
 10
942.9150390625
 20
-517.45751953125
 30
0.0
 10
942.560546875
 20
-517.7275390625
 30
0.0
 10
942.294921875
 20
-517.80712890625
 30
0.0
  0
POLYLINE
  5
A1
330
1F
100
AcDbEntity
  8
LAYER_1
 62
   250
100
AcDb2dPolyline
 66
     1
 10
0.0
 20
0.0
 30
0.0
  0
VERTEX
  5
A2
330
A1
100
AcDbEntity
  8
LAYER_1
 62
   250
100
AcDbVertex
100
AcDb2dVertex
 10
889.70361328125
 20
-503.66357421875
 30
0.0
  0
VERTEX
  5
A3
330
A1
100
AcDbEntity
  8
LAYER_1
 62
   250
100
AcDbVertex
100
AcDb2dVertex
 10
863.64794921875
 20
-503.66357421875
 30
0.0
  0
VERTEX
  5
A4
330
A1
100
AcDbEntity
  8
LAYER_1
 62
   250
100
AcDbVertex
100
AcDb2dVertex
 10
863.64794921875
 20
-504.396484375
 30
0.0
  0
VERTEX
  5
A5
330
A1
100
AcDbEntity
  8
LAYER_1
 62
   250
100
AcDbVertex
100
AcDb2dVertex
 10
876.9755859375
 20
-512.09130859375
 30
0.0
  0
VERTEX
  5
A6
330
A1
100
AcDbEntity
  8
LAYER_1
 62
   250
100
AcDbVertex
100
AcDb2dVertex
 10
889.70361328125
 20
-503.66357421875
 30
0.0
  0
SEQEND
  5
A7
330
A1
100
AcDbEntity
  8
LAYER_1
  0
SPLINE
  5
A8
330
1F
100
AcDbEntity
  8
LAYER_1
 62
   250
100
AcDbSpline
210
0.0
220
0.0
230
1.0
 70
    11
 71
     3
 72
    38
 73
    34
 74
     0
 42
0.0000000001
 43
0.0000000001
 40
0.0
 40
0.0
 40
0.0
 40
0.0
 40
1.0
 40
1.0
 40
1.0
 40
2.0
 40
2.0
 40
2.0
 40
3.0
 40
3.0
 40
3.0
 40
4.0
 40
4.0
 40
4.0
 40
5.0
 40
5.0
 40
5.0
 40
6.0
 40
6.0
 40
6.0
 40
7.0
 40
7.0
 40
7.0
 40
8.0
 40
8.0
 40
8.0
 40
9.0
 40
9.0
 40
9.0
 40
10.0
 40
10.0
 40
10.0
 40
11.0
 40
11.0
 40
11.0
 40
11.0
 10
867.3388671875
 20
-612.26220703125
 30
0.0
 10
867.6455078125
 20
-613.0078125
 30
0.0
 10
867.90087890625
 20
-613.7685546875
 30
0.0
 10
868.0537109375
 20
-614.5595703125
 30
0.0
 10
868.9501953125
 20
-619.2041015625
 30
0.0
 10
868.22216796875
 20
-624.03759765625
 30
0.0
 10
868.0537109375
 20
-628.76513671875
 30
0.0
 10
867.81884765625
 20
-635.3623046875
 30
0.0
 10
866.01513671875
 20
-641.9677734375
 30
0.0
 10
866.64306640625
 20
-648.5390625
 30
0.0
 10
867.20556640625
 20
-654.42529296875
 30
0.0
 10
867.0576171875
 20
-661.509765625
 30
0.0
 10
871.23876953125
 20
-665.69091796875
 30
0.0
 10
874.0263671875
 20
-668.478515625
 30
0.0
 10
879.42236328125
 20
-666.525390625
 30
0.0
 10
882.673828125
 20
-668.7548828125
 30
0.0
 10
885.3779296875
 20
-670.609375
 30
0.0
 10
890.4140625
 20
-674.0625
 30
0.0
 10
888.478515625
 20
-676.7099609375
 30
0.0
 10
886.076171875
 20
-679.99658203125
 30
0.0
 10
880.900390625
 20
-673.49267578125
 30
0.0
 10
876.8818359375
 20
-672.83984375
 30
0.0
 10
872.99072265625
 20
-672.2080078125
 30
0.0
 10
868.24609375
 20
-675.138671875
 30
0.0
 10
865.0439453125
 20
-672.83984375
 30
0.0
 10
861.77001953125
 20
-670.48974609375
 30
0.0
 10
861.82666015625
 20
-665.349609375
 30
0.0
 10
861.173828125
 20
-661.373046875
 30
0.0
 10
859.44921875
 20
-650.8701171875
 30
0.0
 10
859.142578125
 20
-639.8583984375
 30
0.0
 10
861.173828125
 20
-629.41015625
 30
0.0
 10
862.3349609375
 20
-623.43505859375
 30
0.0
 10
864.38916015625
 20
-617.7197265625
 30
0.0
 10
867.3388671875
 20
-612.26220703125
 30
0.0
  0
SPLINE
  5
A9
330
1F
100
AcDbEntity
  8
LAYER_1
 62
   250
100
AcDbSpline
210
0.0
220
0.0
230
1.0
 70
    11
 71
     3
 72
    44
 73
    40
 74
     0
 42
0.0000000001
 43
0.0000000001
 40
0.0
 40
0.0
 40
0.0
 40
0.0
 40
1.0
 40
1.0
 40
1.0
 40
2.0
 40
2.0
 40
2.0
 40
3.0
 40
3.0
 40
3.0
 40
4.0
 40
4.0
 40
4.0
 40
5.0
 40
5.0
 40
5.0
 40
6.0
 40
6.0
 40
6.0
 40
7.0
 40
7.0
 40
7.0
 40
8.0
 40
8.0
 40
8.0
 40
9.0
 40
9.0
 40
9.0
 40
10.0
 40
10.0
 40
10.0
 40
11.0
 40
11.0
 40
11.0
 40
12.0
 40
12.0
 40
12.0
 40
13.0
 40
13.0
 40
13.0
 40
13.0
 10
834.28564453125
 20
-633.03173828125
 30
0.0
 10
843.67626953125
 20
-636.59423828125
 30
0.0
 10
831.56982421875
 20
-653.11767578125
 30
0.0
 10
832.3505859375
 20
-663.13134765625
 30
0.0
 10
832.88623046875
 20
-670.00634765625
 30
0.0
 10
836.109375
 20
-676.4873046875
 30
0.0
 10
836.865234375
 20
-683.34130859375
 30
0.0
 10
837.03857421875
 20
-684.90869140625
 30
0.0
 10
837.55078125
 20
-686.65625
 30
0.0
 10
836.865234375
 20
-688.07666015625
 30
0.0
 10
835.31494140625
 20
-691.28759765625
 30
0.0
 10
830.9052734375
 20
-692.1220703125
 30
0.0
 10
828.48046875
 20
-694.736328125
 30
0.0
 10
826.8330078125
 20
-696.51220703125
 30
0.0
 10
825.224609375
 20
-698.47998046875
 30
0.0
 10
824.3955078125
 20
-700.75634765625
 30
0.0
 10
822.474609375
 20
-706.03125
 30
0.0
 10
828.2421875
 20
-716.80224609375
 30
0.0
 10
822.67578125
 20
-717.52587890625
 30
0.0
 10
818.65380859375
 20
-718.048828125
 30
0.0
 10
819.103515625
 20
-710.12109375
 30
0.0
 10
818.37548828125
 20
-706.13134765625
 30
0.0
 10
817.8095703125
 20
-703.02880859375
 30
0.0
 10
817.2880859375
 20
-699.62109375
 30
0.0
 10
818.37548828125
 20
-696.66064453125
 30
0.0
 10
820.51123046875
 20
-690.84619140625
 30
0.0
 10
828.86328125
 20
-688.47802734375
 30
0.0
 10
830.41552734375
 20
-682.4814453125
 30
0.0
 10
831.330078125
 20
-678.947265625
 30
0.0
 10
828.625
 20
-675.3642578125
 30
0.0
 10
828.265625
 20
-671.7314453125
 30
0.0
 10
827.48876953125
 20
-663.8857421875
 30
0.0
 10
827.62841796875
 20
-655.91357421875
 30
0.0
 10
828.265625
 20
-648.05517578125
 30
0.0
 10
828.51708984375
 20
-644.955078125
 30
0.0
 10
828.5263671875
 20
-641.6875
 30
0.0
 10
829.7705078125
 20
-638.83642578125
 30
0.0
 10
830.75
 20
-636.591796875
 30
0.0
 10
831.99560546875
 20
-632.1630859375
 30
0.0
 10
834.28564453125
 20
-633.03173828125
 30
0.0
  0
SPLINE
  5
AA
330
1F
100
AcDbEntity
  8
LAYER_1
 62
   250
100
AcDbSpline
210
0.0
220
0.0
230
1.0
 70
    11
 71
     3
 72
    56
 73
    52
 74
     0
 42
0.0000000001
 43
0.0000000001
 40
0.0
 40
0.0
 40
0.0
 40
0.0
 40
1.0
 40
1.0
 40
1.0
 40
2.0
 40
2.0
 40
2.0
 40
3.0
 40
3.0
 40
3.0
 40
4.0
 40
4.0
 40
4.0
 40
5.0
 40
5.0
 40
5.0
 40
6.0
 40
6.0
 40
6.0
 40
7.0
 40
7.0
 40
7.0
 40
8.0
 40
8.0
 40
8.0
 40
9.0
 40
9.0
 40
9.0
 40
10.0
 40
10.0
 40
10.0
 40
11.0
 40
11.0
 40
11.0
 40
12.0
 40
12.0
 40
12.0
 40
13.0
 40
13.0
 40
13.0
 40
14.0
 40
14.0
 40
14.0
 40
15.0
 40
15.0
 40
15.0
 40
16.0
 40
16.0
 40
16.0
 40
17.0
 40
17.0
 40
17.0
 40
17.0
 10
974.97705078125
 20
-660.52392578125
 30
0.0
 10
975.453125
 20
-661.021484375
 30
0.0
 10
976.42724609375
 20
-660.859375
 30
0.0
 10
976.8486328125
 20
-661.404296875
 30
0.0
 10
978.67333984375
 20
-663.7646484375
 30
0.0
 10
978.537109375
 20
-667.2275390625
 30
0.0
 10
978.49951171875
 20
-670.2109375
 30
0.0
 10
978.4580078125
 20
-673.54638671875
 30
0.0
 10
978.3701171875
 20
-677.31005859375
 30
0.0
 10
976.408203125
 20
-680.0078125
 30
0.0
 10
974.78515625
 20
-682.23974609375
 30
0.0
 10
971.9833984375
 20
-683.947265625
 30
0.0
 10
969.23193359375
 20
-684.1513671875
 30
0.0
 10
967.2744140625
 20
-684.29638671875
 30
0.0
 10
965.1796875
 20
-683.33251953125
 30
0.0
 10
963.7490234375
 20
-681.9892578125
 30
0.0
 10
962.30224609375
 20
-680.63134765625
 30
0.0
 10
962.89208984375
 20
-677.6591796875
 30
0.0
 10
961.21728515625
 20
-676.59521484375
 30
0.0
 10
960.5517578125
 20
-676.1728515625
 30
0.0
 10
959.45361328125
 20
-676.08837890625
 30
0.0
 10
958.849609375
 20
-676.59521484375
 30
0.0
 10
957.310546875
 20
-677.8876953125
 30
0.0
 10
957.63427734375
 20
-680.537109375
 30
0.0
 10
957.8046875
 20
-682.53955078125
 30
0.0
 10
958.072265625
 20
-685.68212890625
 30
0.0
 10
958.97607421875
 20
-689.03466796875
 30
0.0
 10
960.9970703125
 20
-691.4560546875
 30
0.0
 10
962.76513671875
 20
-693.57470703125
 30
0.0
 10
965.458984375
 20
-695.1044921875
 30
0.0
 10
968.17333984375
 20
-695.599609375
 30
0.0
 10
970.98046875
 20
-696.11083984375
 30
0.0
 10
974.2177734375
 20
-695.734375
 30
0.0
 10
976.62841796875
 20
-694.2080078125
 30
0.0
 10
980.16796875
 20
-691.966796875
 30
0.0
 10
982.53564453125
 20
-687.85986328125
 30
0.0
 10
983.783203125
 20
-683.8603515625
 30
0.0
 10
985.544921875
 20
-678.2158203125
 30
0.0
 10
985.31396484375
 20
-671.8154296875
 30
0.0
 10
983.783203125
 20
-666.103515625
 30
0.0
 10
982.865234375
 20
-662.6767578125
 30
0.0
 10
981.52880859375
 20
-658.65087890625
 30
0.0
 10
978.45654296875
 20
-656.876953125
 30
0.0
 10
978.115234375
 20
-656.6796875
 30
0.0
 10
977.6533203125
 20
-656.77490234375
 30
0.0
 10
977.2724609375
 20
-656.876953125
 30
0.0
 10
976.13037109375
 20
-657.1826171875
 30
0.0
 10
974.57568359375
 20
-657.5322265625
 30
0.0
 10
974.197265625
 20
-658.65234375
 30
0.0
 10
973.98046875
 20
-659.2919921875
 30
0.0
 10
974.5107421875
 20
-660.03564453125
 30
0.0
 10
974.97705078125
 20
-660.52392578125
 30
0.0
  0
SPLINE
  5
AB
330
1F
100
AcDbEntity
  8
LAYER_1
 62
   250
100
AcDbSpline
210
0.0
220
0.0
230
1.0
 70
    11
 71
     3
 72
    50
 73
    46
 74
     0
 42
0.0000000001
 43
0.0000000001
 40
0.0
 40
0.0
 40
0.0
 40
0.0
 40
1.0
 40
1.0
 40
1.0
 40
2.0
 40
2.0
 40
2.0
 40
3.0
 40
3.0
 40
3.0
 40
4.0
 40
4.0
 40
4.0
 40
5.0
 40
5.0
 40
5.0
 40
6.0
 40
6.0
 40
6.0
 40
7.0
 40
7.0
 40
7.0
 40
8.0
 40
8.0
 40
8.0
 40
9.0
 40
9.0
 40
9.0
 40
10.0
 40
10.0
 40
10.0
 40
11.0
 40
11.0
 40
11.0
 40
12.0
 40
12.0
 40
12.0
 40
13.0
 40
13.0
 40
13.0
 40
14.0
 40
14.0
 40
14.0
 40
15.0
 40
15.0
 40
15.0
 40
15.0
 10
1026.46337890625
 20
-676.35986328125
 30
0.0
 10
1024.626953125
 20
-673.87109375
 30
0.0
 10
1020.1962890625
 20
-674.64892578125
 30
0.0
 10
1017.216796875
 20
-675.47900390625
 30
0.0
 10
1014.49072265625
 20
-676.23828125
 30
0.0
 10
1011.98291015625
 20
-678.20263671875
 30
0.0
 10
1010.3916015625
 20
-680.54296875
 30
0.0
 10
1007.51025390625
 20
-684.78076171875
 30
0.0
 10
1005.87158203125
 20
-690.3115234375
 30
0.0
 10
1006.40869140625
 20
-695.40771484375
 30
0.0
 10
1006.83447265625
 20
-699.44775390625
 30
0.0
 10
1008.88671875
 20
-703.60986328125
 30
0.0
 10
1011.953125
 20
-706.27490234375
 30
0.0
 10
1013.310546875
 20
-707.455078125
 30
0.0
 10
1015.26953125
 20
-708.2080078125
 30
0.0
 10
1017.060546875
 20
-708.0361328125
 30
0.0
 10
1019.4150390625
 20
-707.81005859375
 30
0.0
 10
1021.693359375
 20
-706.29833984375
 30
0.0
 10
1023.2119140625
 20
-704.48486328125
 30
0.0
 10
1024.826171875
 20
-702.55615234375
 30
0.0
 10
1026.6416015625
 20
-699.7431640625
 30
0.0
 10
1025.77880859375
 20
-697.38037109375
 30
0.0
 10
1025.50830078125
 20
-696.64013671875
 30
0.0
 10
1024.4970703125
 20
-696.021484375
 30
0.0
 10
1023.728515625
 20
-696.19677734375
 30
0.0
 10
1022.77880859375
 20
-696.41357421875
 30
0.0
 10
1022.94140625
 20
-698.158203125
 30
0.0
 10
1022.080078125
 20
-698.61328125
 30
0.0
 10
1021.03466796875
 20
-699.166015625
 30
0.0
 10
1019.466796875
 20
-699.33349609375
 30
0.0
 10
1018.52880859375
 20
-698.61328125
 30
0.0
 10
1017.27783203125
 20
-697.6533203125
 30
0.0
 10
1017.44775390625
 20
-695.60986328125
 30
0.0
 10
1017.30322265625
 20
-694.03955078125
 30
0.0
 10
1017.1220703125
 20
-692.0751953125
 30
0.0
 10
1017.1806640625
 20
-690.017578125
 30
0.0
 10
1017.76513671875
 20
-688.1337890625
 30
0.0
 10
1018.4658203125
 20
-685.875
 30
0.0
 10
1019.87646484375
 20
-683.85888671875
 30
0.0
 10
1021.31640625
 20
-681.982421875
 30
0.0
 10
1022.75634765625
 20
-680.10595703125
 30
0.0
 10
1025.2158203125
 20
-679.04150390625
 30
0.0
 10
1026.3388671875
 20
-676.9599609375
 30
0.0
 10
1026.435546875
 20
-676.7802734375
 30
0.0
 10
1026.58447265625
 20
-676.52392578125
 30
0.0
 10
1026.46337890625
 20
-676.35986328125
 30
0.0
  0
SPLINE
  5
AC
330
1F
100
AcDbEntity
  8
LAYER_1
 62
   250
100
AcDbSpline
210
0.0
220
0.0
230
1.0
 70
    11
 71
     3
 72
    32
 73
    28
 74
     0
 42
0.0000000001
 43
0.0000000001
 40
0.0
 40
0.0
 40
0.0
 40
0.0
 40
1.0
 40
1.0
 40
1.0
 40
2.0
 40
2.0
 40
2.0
 40
3.0
 40
3.0
 40
3.0
 40
4.0
 40
4.0
 40
4.0
 40
5.0
 40
5.0
 40
5.0
 40
6.0
 40
6.0
 40
6.0
 40
7.0
 40
7.0
 40
7.0
 40
8.0
 40
8.0
 40
8.0
 40
9.0
 40
9.0
 40
9.0
 40
9.0
 10
957.64794921875
 20
-613.32275390625
 30
0.0
 10
955.7939453125
 20
-613.06982421875
 30
0.0
 10
954.17041015625
 20
-613.4150390625
 30
0.0
 10
952.7861328125
 20
-614.3623046875
 30
0.0
 10
951.1591796875
 20
-615.47509765625
 30
0.0
 10
950.95068359375
 20
-617.869140625
 30
0.0
 10
949.82666015625
 20
-619.48828125
 30
0.0
 10
949.001953125
 20
-620.67626953125
 30
0.0
 10
946.4453125
 20
-621.52978515625
 30
0.0
 10
947.06201171875
 20
-622.83837890625
 30
0.0
 10
947.3984375
 20
-623.55126953125
 30
0.0
 10
948.6455078125
 20
-622.92041015625
 30
0.0
 10
949.4296875
 20
-622.83837890625
 30
0.0
 10
951.72119140625
 20
-622.5986328125
 30
0.0
 10
954.04736328125
 20
-622.2314453125
 30
0.0
 10
956.19873046875
 20
-621.4072265625
 30
0.0
 10
957.302734375
 20
-620.98388671875
 30
0.0
 10
958.68310546875
 20
-620.65576171875
 30
0.0
 10
959.2744140625
 20
-619.63134765625
 30
0.0
 10
960.0625
 20
-618.26611328125
 30
0.0
 10
959.88037109375
 20
-616.35205078125
 30
0.0
 10
959.2744140625
 20
-614.896484375
 30
0.0
 10
959.017578125
 20
-614.279296875
 30
0.0
 10
958.36767578125
 20
-613.904296875
 30
0.0
 10
957.849609375
 20
-613.4814453125
 30
0.0
 10
957.78125
 20
-613.42529296875
 30
0.0
 10
957.7109375
 20
-613.37158203125
 30
0.0
 10
957.64794921875
 20
-613.32275390625
 30
0.0
  0
SPLINE
  5
AD
330
1F
100
AcDbEntity
  8
LAYER_1
 62
   250
100
AcDbSpline
210
0.0
220
0.0
230
1.0
 70
    11
 71
     3
 72
    62
 73
    58
 74
     0
 42
0.0000000001
 43
0.0000000001
 40
0.0
 40
0.0
 40
0.0
 40
0.0
 40
1.0
 40
1.0
 40
1.0
 40
2.0
 40
2.0
 40
2.0
 40
3.0
 40
3.0
 40
3.0
 40
4.0
 40
4.0
 40
4.0
 40
5.0
 40
5.0
 40
5.0
 40
6.0
 40
6.0
 40
6.0
 40
7.0
 40
7.0
 40
7.0
 40
8.0
 40
8.0
 40
8.0
 40
9.0
 40
9.0
 40
9.0
 40
10.0
 40
10.0
 40
10.0
 40
11.0
 40
11.0
 40
11.0
 40
12.0
 40
12.0
 40
12.0
 40
13.0
 40
13.0
 40
13.0
 40
14.0
 40
14.0
 40
14.0
 40
15.0
 40
15.0
 40
15.0
 40
16.0
 40
16.0
 40
16.0
 40
17.0
 40
17.0
 40
17.0
 40
18.0
 40
18.0
 40
18.0
 40
19.0
 40
19.0
 40
19.0
 40
19.0
 10
937.2607421875
 20
-633.35400390625
 30
0.0
 10
935.4814453125
 20
-636.4755859375
 30
0.0
 10
930.1787109375
 20
-637.24951171875
 30
0.0
 10
927.59130859375
 20
-639.958984375
 30
0.0
 10
925.71630859375
 20
-641.92236328125
 30
0.0
 10
924.01416015625
 20
-644.2255859375
 30
0.0
 10
923.59033203125
 20
-646.701171875
 30
0.0
 10
923.0537109375
 20
-649.833984375
 30
0.0
 10
925.06640625
 20
-652.923828125
 30
0.0
 10
925.5908203125
 20
-656.0576171875
 30
0.0
 10
926.125
 20
-659.2509765625
 30
0.0
 10
927.775390625
 20
-662.57763671875
 30
0.0
 10
926.7578125
 20
-665.68994140625
 30
0.0
 10
926.240234375
 20
-667.27392578125
 30
0.0
 10
924.54638671875
 20
-668.431640625
 30
0.0
 10
923.2568359375
 20
-669.68017578125
 30
0.0
 10
921.08740234375
 20
-671.77978515625
 30
0.0
 10
917.8291015625
 20
-673.14990234375
 30
0.0
 10
916.1572265625
 20
-675.53955078125
 30
0.0
 10
914.96337890625
 20
-677.24658203125
 30
0.0
 10
914.68408203125
 20
-679.3115234375
 30
0.0
 10
914.30126953125
 20
-681.2568359375
 30
0.0
 10
913.6689453125
 20
-684.4677734375
 30
0.0
 10
917.22705078125
 20
-689.76025390625
 30
0.0
 10
913.58740234375
 20
-691.0078125
 30
0.0
 10
911.2626953125
 20
-691.80517578125
 30
0.0
 10
908.86669921875
 20
-688.8046875
 30
0.0
 10
907.9189453125
 20
-686.8798828125
 30
0.0
 10
906.2626953125
 20
-683.51708984375
 30
0.0
 10
907.62060546875
 20
-679.47802734375
 30
0.0
 10
908.9189453125
 20
-676.009765625
 30
0.0
 10
910.04736328125
 20
-672.99658203125
 30
0.0
 10
912.74609375
 20
-670.5390625
 30
0.0
 10
914.65625
 20
-667.80810546875
 30
0.0
 10
915.8505859375
 20
-666.10107421875
 30
0.0
 10
917.6240234375
 20
-664.5859375
 30
0.0
 10
918.2421875
 20
-662.68212890625
 30
0.0
 10
919.478515625
 20
-658.87451171875
 30
0.0
 10
918.2421875
 20
-654.7861328125
 30
0.0
 10
918.2421875
 20
-650.84423828125
 30
0.0
 10
918.2421875
 20
-648.08447265625
 30
0.0
 10
916.962890625
 20
-645.10693359375
 30
0.0
 10
918.2421875
 20
-642.5576171875
 30
0.0
 10
919.7041015625
 20
-639.64404296875
 30
0.0
 10
923.24755859375
 20
-637.6953125
 30
0.0
 10
926.35595703125
 20
-635.86083984375
 30
0.0
 10
928.88330078125
 20
-634.369140625
 30
0.0
 10
931.8232421875
 20
-633.369140625
 30
0.0
 10
934.732421875
 20
-632.4677734375
 30
0.0
 10
935.4033203125
 20
-632.26025390625
 30
0.0
 10
936.13232421875
 20
-632.1982421875
 30
0.0
 10
936.81103515625
 20
-632.00830078125
 30
0.0
 10
936.96435546875
 20
-631.96533203125
 30
0.0
 10
937.1259765625
 20
-631.7802734375
 30
0.0
 10
937.2607421875
 20
-631.8544921875
 30
0.0
 10
937.763671875
 20
-632.13232421875
 30
0.0
 10
937.5185546875
 20
-632.90234375
 30
0.0
 10
937.2607421875
 20
-633.35400390625
 30
0.0
  0
SPLINE
  5
AE
330
1F
100
AcDbEntity
  8
LAYER_1
 62
   250
100
AcDbSpline
210
0.0
220
0.0
230
1.0
 70
    11
 71
     3
 72
    44
 73
    40
 74
     0
 42
0.0000000001
 43
0.0000000001
 40
0.0
 40
0.0
 40
0.0
 40
0.0
 40
1.0
 40
1.0
 40
1.0
 40
2.0
 40
2.0
 40
2.0
 40
3.0
 40
3.0
 40
3.0
 40
4.0
 40
4.0
 40
4.0
 40
5.0
 40
5.0
 40
5.0
 40
6.0
 40
6.0
 40
6.0
 40
7.0
 40
7.0
 40
7.0
 40
8.0
 40
8.0
 40
8.0
 40
9.0
 40
9.0
 40
9.0
 40
10.0
 40
10.0
 40
10.0
 40
11.0
 40
11.0
 40
11.0
 40
12.0
 40
12.0
 40
12.0
 40
13.0
 40
13.0
 40
13.0
 40
13.0
 10
902.26416015625
 20
-688.68603515625
 30
0.0
 10
899.3095703125
 20
-688.88330078125
 30
0.0
 10
896.7373046875
 20
-688.68603515625
 30
0.0
 10
893.9775390625
 20
-688.68603515625
 30
0.0
 10
893.58349609375
 20
-688.68603515625
 30
0.0
 10
893.07275390625
 20
-688.96484375
 30
0.0
 10
892.7939453125
 20
-688.68603515625
 30
0.0
 10
892.51513671875
 20
-688.4072265625
 30
0.0
 10
892.77880859375
 20
-687.896484375
 30
0.0
 10
892.7939453125
 20
-687.50244140625
 30
0.0
 10
893.03369140625
 20
-681.29052734375
 30
0.0
 10
892.84765625
 20
-674.94970703125
 30
0.0
 10
894.23291015625
 20
-668.8896484375
 30
0.0
 10
895.5869140625
 20
-662.966796875
 30
0.0
 10
897.54638671875
 20
-656.98046875
 30
0.0
 10
900.8701171875
 20
-651.89501953125
 30
0.0
 10
902.81103515625
 20
-648.9248046875
 30
0.0
 10
904.9326171875
 20
-645.0947265625
 30
0.0
 10
908.40380859375
 20
-644.361328125
 30
0.0
 10
909.40234375
 20
-644.150390625
 30
0.0
 10
910.580078125
 20
-644.70703125
 30
0.0
 10
911.26171875
 20
-645.46630859375
 30
0.0
 10
912.0517578125
 20
-646.34619140625
 30
0.0
 10
912.22509765625
 20
-647.71484375
 30
0.0
 10
912.1806640625
 20
-648.896484375
 30
0.0
 10
912.10595703125
 20
-650.88525390625
 30
0.0
 10
911.26416015625
 20
-652.85205078125
 30
0.0
 10
910.205078125
 20
-654.53662109375
 30
0.0
 10
909.36572265625
 20
-655.8720703125
 30
0.0
 10
907.853515625
 20
-656.66357421875
 30
0.0
 10
906.8564453125
 20
-657.88525390625
 30
0.0
 10
905.10205078125
 20
-660.03515625
 30
0.0
 10
903.40283203125
 20
-662.30908203125
 30
0.0
 10
902.26416015625
 20
-664.84033203125
 30
0.0
 10
901.13232421875
 20
-667.35693359375
 30
0.0
 10
900.294921875
 20
-670.0908203125
 30
0.0
 10
900.11962890625
 20
-672.8447265625
 30
0.0
 10
899.78125
 20
-678.1572265625
 30
0.0
 10
901.9697265625
 20
-683.1572265625
 30
0.0
 10
902.26416015625
 20
-688.68603515625
 30
0.0
  0
SPLINE
  5
AF
330
1F
100
AcDbEntity
  8
LAYER_1
 62
   250
100
AcDbSpline
210
0.0
220
0.0
230
1.0
 70
    11
 71
     3
 72
    62
 73
    58
 74
     0
 42
0.0000000001
 43
0.0000000001
 40
0.0
 40
0.0
 40
0.0
 40
0.0
 40
1.0
 40
1.0
 40
1.0
 40
2.0
 40
2.0
 40
2.0
 40
3.0
 40
3.0
 40
3.0
 40
4.0
 40
4.0
 40
4.0
 40
5.0
 40
5.0
 40
5.0
 40
6.0
 40
6.0
 40
6.0
 40
7.0
 40
7.0
 40
7.0
 40
8.0
 40
8.0
 40
8.0
 40
9.0
 40
9.0
 40
9.0
 40
10.0
 40
10.0
 40
10.0
 40
11.0
 40
11.0
 40
11.0
 40
12.0
 40
12.0
 40
12.0
 40
13.0
 40
13.0
 40
13.0
 40
14.0
 40
14.0
 40
14.0
 40
15.0
 40
15.0
 40
15.0
 40
16.0
 40
16.0
 40
16.0
 40
17.0
 40
17.0
 40
17.0
 40
18.0
 40
18.0
 40
18.0
 40
19.0
 40
19.0
 40
19.0
 40
19.0
 10
871.9375
 20
-697.759765625
 30
0.0
 10
870.77197265625
 20
-697.826171875
 30
0.0
 10
869.6650390625
 20
-698.57470703125
 30
0.0
 10
868.5029296875
 20
-698.4638671875
 30
0.0
 10
866.6708984375
 20
-698.28955078125
 30
0.0
 10
864.8271484375
 20
-697.5078125
 30
0.0
 10
863.3955078125
 20
-696.3505859375
 30
0.0
 10
862.591796875
 20
-695.701171875
 30
0.0
 10
862.29541015625
 20
-694.59033203125
 30
0.0
 10
861.63427734375
 20
-693.796875
 30
0.0
 10
861.12939453125
 20
-693.19091796875
 30
0.0
 10
860.74169921875
 20
-692.01953125
 30
0.0
 10
859.9599609375
 20
-692.12255859375
 30
0.0
 10
859.17822265625
 20
-692.2255859375
 30
0.0
 10
859.255859375
 20
-693.54736328125
 30
0.0
 10
858.7763671875
 20
-694.1728515625
 30
0.0
 10
858.05615234375
 20
-695.111328125
 30
0.0
 10
857.31640625
 20
-696.142578125
 30
0.0
 10
856.26513671875
 20
-696.68408203125
 30
0.0
 10
854.33447265625
 20
-697.67822265625
 30
0.0
 10
852.00244140625
 20
-697.86376953125
 30
0.0
 10
849.83349609375
 20
-697.759765625
 30
0.0
 10
848.2587890625
 20
-697.68359375
 30
0.0
 10
846.28955078125
 20
-695.33984375
 30
0.0
 10
845.259765625
 20
-696.5341796875
 30
0.0
 10
844.78125
 20
-697.0888671875
 30
0.0
 10
845.763671875
 20
-697.92041015625
 30
0.0
 10
846.134765625
 20
-698.55224609375
 30
0.0
 10
846.9970703125
 20
-700.01953125
 30
0.0
 10
848.74658203125
 20
-700.982421875
 30
0.0
 10
849.240234375
 20
-702.611328125
 30
0.0
 10
849.65966796875
 20
-703.99755859375
 30
0.0
 10
849.5556640625
 20
-705.6318359375
 30
0.0
 10
848.9580078125
 20
-706.951171875
 30
0.0
 10
848.470703125
 20
-708.0283203125
 30
0.0
 10
846.4140625
 20
-708.2802734375
 30
0.0
 10
846.447265625
 20
-709.46240234375
 30
0.0
 10
846.45703125
 20
-709.81591796875
 30
0.0
 10
846.89453125
 20
-710.08837890625
 30
0.0
 10
847.23876953125
 20
-710.17041015625
 30
0.0
 10
848.7724609375
 20
-710.53564453125
 30
0.0
 10
850.29736328125
 20
-709.3818359375
 30
0.0
 10
851.8125
 20
-708.94482421875
 30
0.0
 10
854.97705078125
 20
-708.03173828125
 30
0.0
 10
858.2177734375
 20
-707.28125
 30
0.0
 10
861.26123046875
 20
-706.02197265625
 30
0.0
 10
863.64453125
 20
-705.0361328125
 30
0.0
 10
865.953125
 20
-703.822265625
 30
0.0
 10
868.11474609375
 20
-702.4150390625
 30
0.0
 10
869.6552734375
 20
-701.412109375
 30
0.0
 10
871.642578125
 20
-700.64306640625
 30
0.0
 10
872.443359375
 20
-698.98828125
 30
0.0
 10
872.61474609375
 20
-698.63330078125
 30
0.0
 10
872.708984375
 20
-698.09521484375
 30
0.0
 10
872.443359375
 20
-697.8046875
 30
0.0
 10
872.3291015625
 20
-697.6796875
 30
0.0
 10
872.1064453125
 20
-697.75
 30
0.0
 10
871.9375
 20
-697.759765625
 30
0.0
  0
SPLINE
  5
B0
330
1F
100
AcDbEntity
  8
LAYER_1
 62
   250
100
AcDbSpline
210
0.0
220
0.0
230
1.0
 70
    11
 71
     3
 72
    50
 73
    46
 74
     0
 42
0.0000000001
 43
0.0000000001
 40
0.0
 40
0.0
 40
0.0
 40
0.0
 40
1.0
 40
1.0
 40
1.0
 40
2.0
 40
2.0
 40
2.0
 40
3.0
 40
3.0
 40
3.0
 40
4.0
 40
4.0
 40
4.0
 40
5.0
 40
5.0
 40
5.0
 40
6.0
 40
6.0
 40
6.0
 40
7.0
 40
7.0
 40
7.0
 40
8.0
 40
8.0
 40
8.0
 40
9.0
 40
9.0
 40
9.0
 40
10.0
 40
10.0
 40
10.0
 40
11.0
 40
11.0
 40
11.0
 40
12.0
 40
12.0
 40
12.0
 40
13.0
 40
13.0
 40
13.0
 40
14.0
 40
14.0
 40
14.0
 40
15.0
 40
15.0
 40
15.0
 40
15.0
 10
904.26953125
 20
-512.84228515625
 30
0.0
 10
904.7001953125
 20
-515.52490234375
 30
0.0
 10
905.712890625
 20
-518.11181640625
 30
0.0
 10
906.8232421875
 20
-520.591796875
 30
0.0
 10
907.78955078125
 20
-522.75048828125
 30
0.0
 10
909.0439453125
 20
-524.78759765625
 30
0.0
 10
910.37451171875
 20
-526.7431640625
 30
0.0
 10
911.34716796875
 20
-528.171875
 30
0.0
 10
913.6162109375
 20
-529.07861328125
 30
0.0
 10
913.60400390625
 20
-530.80712890625
 30
0.0
 10
913.60107421875
 20
-531.22412109375
 30
0.0
 10
913.18798828125
 20
-531.59716796875
 30
0.0
 10
912.8115234375
 20
-531.77587890625
 30
0.0
 10
911.74267578125
 20
-532.2822265625
 30
0.0
 10
910.4384765625
 20
-531.87255859375
 30
0.0
 10
909.26025390625
 20
-531.77587890625
 30
0.0
 10
907.28515625
 20
-531.6142578125
 30
0.0
 10
905.36376953125
 20
-530.96875
 30
0.0
 10
903.388671875
 20
-530.80712890625
 30
0.0
 10
900.638671875
 20
-530.58203125
 30
0.0
 10
897.736328125
 20
-531.62939453125
 30
0.0
 10
895.10205078125
 20
-530.80712890625
 30
0.0
 10
894.560546875
 20
-530.63818359375
 30
0.0
 10
893.6787109375
 20
-530.40478515625
 30
0.0
 10
893.70166015625
 20
-529.83837890625
 30
0.0
 10
893.75
 20
-528.65673828125
 30
0.0
 10
895.8916015625
 20
-528.84619140625
 30
0.0
 10
896.77734375
 20
-528.0625
 30
0.0
 10
898.31298828125
 20
-526.7041015625
 30
0.0
 10
899.72021484375
 20
-525.048828125
 30
0.0
 10
900.482421875
 20
-523.1455078125
 30
0.0
 10
901.328125
 20
-521.03515625
 30
0.0
 10
900.56005859375
 20
-518.52294921875
 30
0.0
 10
901.275390625
 20
-516.36474609375
 30
0.0
 10
901.64697265625
 20
-515.2421875
 30
0.0
 10
902.154296875
 20
-514.06005859375
 30
0.0
 10
903.05078125
 20
-513.2890625
 30
0.0
 10
903.3603515625
 20
-513.02294921875
 30
0.0
 10
903.79931640625
 20
-512.95263671875
 30
0.0
 10
904.1923828125
 20
-512.84228515625
 30
0.0
 10
904.2177734375
 20
-512.8349609375
 30
0.0
 10
904.24951171875
 20
-512.81201171875
 30
0.0
 10
904.26953125
 20
-512.82861328125
 30
0.0
 10
904.27294921875
 20
-512.83154296875
 30
0.0
 10
904.2685546875
 20
-512.837890625
 30
0.0
 10
904.26953125
 20
-512.84228515625
 30
0.0
  0
SPLINE
  5
B1
330
1F
100
AcDbEntity
  8
LAYER_1
 62
   250
100
AcDbSpline
210
0.0
220
0.0
230
1.0
 70
    11
 71
     3
 72
    32
 73
    28
 74
     0
 42
0.0000000001
 43
0.0000000001
 40
0.0
 40
0.0
 40
0.0
 40
0.0
 40
1.0
 40
1.0
 40
1.0
 40
2.0
 40
2.0
 40
2.0
 40
3.0
 40
3.0
 40
3.0
 40
4.0
 40
4.0
 40
4.0
 40
5.0
 40
5.0
 40
5.0
 40
6.0
 40
6.0
 40
6.0
 40
7.0
 40
7.0
 40
7.0
 40
8.0
 40
8.0
 40
8.0
 40
9.0
 40
9.0
 40
9.0
 40
9.0
 10
884.740234375
 20
-514.29638671875
 30
0.0
 10
884.81103515625
 20
-516.705078125
 30
0.0
 10
883.50439453125
 20
-518.982421875
 30
0.0
 10
883.25634765625
 20
-521.37939453125
 30
0.0
 10
883.01318359375
 20
-523.72607421875
 30
0.0
 10
883.56396484375
 20
-526.125
 30
0.0
 10
883.25634765625
 20
-528.4638671875
 30
0.0
 10
883.1943359375
 20
-528.931640625
 30
0.0
 10
883.34521484375
 20
-529.7099609375
 30
0.0
 10
882.8896484375
 20
-529.83251953125
 30
0.0
 10
882.43359375
 20
-529.95458984375
 30
0.0
 10
882.18896484375
 20
-529.193359375
 30
0.0
 10
881.8876953125
 20
-528.83056640625
 30
0.0
 10
880.0166015625
 20
-526.5791015625
 30
0.0
 10
877.40966796875
 20
-524.466796875
 30
0.0
 10
876.9150390625
 20
-521.58203125
 30
0.0
 10
876.5166015625
 20
-519.2568359375
 30
0.0
 10
877.2451171875
 20
-516.556640625
 30
0.0
 10
878.7490234375
 20
-514.73876953125
 30
0.0
 10
879.55712890625
 20
-513.76220703125
 30
0.0
 10
880.9296875
 20
-513.30908203125
 30
0.0
 10
882.1767578125
 20
-513.08251953125
 30
0.0
 10
882.93017578125
 20
-512.9453125
 30
0.0
 10
883.8798828125
 20
-512.7978515625
 30
0.0
 10
884.466796875
 20
-513.2900390625
 30
0.0
 10
884.73291015625
 20
-513.51318359375
 30
0.0
 10
884.72998046875
 20
-513.94921875
 30
0.0
 10
884.740234375
 20
-514.29638671875
 30
0.0
  0
SPLINE
  5
B2
330
1F
100
AcDbEntity
  8
LAYER_1
 62
   250
100
AcDbSpline
210
0.0
220
0.0
230
1.0
 70
    11
 71
     3
 72
    47
 73
    43
 74
     0
 42
0.0000000001
 43
0.0000000001
 40
0.0
 40
0.0
 40
0.0
 40
0.0
 40
1.0
 40
1.0
 40
1.0
 40
2.0
 40
2.0
 40
2.0
 40
3.0
 40
3.0
 40
3.0
 40
4.0
 40
4.0
 40
4.0
 40
5.0
 40
5.0
 40
5.0
 40
6.0
 40
6.0
 40
6.0
 40
7.0
 40
7.0
 40
7.0
 40
8.0
 40
8.0
 40
8.0
 40
9.0
 40
9.0
 40
9.0
 40
10.0
 40
10.0
 40
10.0
 40
11.0
 40
11.0
 40
11.0
 40
12.0
 40
12.0
 40
12.0
 40
13.0
 40
13.0
 40
13.0
 40
14.0
 40
14.0
 40
14.0
 40
14.0
 10
826.2490234375
 20
-509.55810546875
 30
0.0
 10
824.51953125
 20
-511.81982421875
 30
0.0
 10
824.1962890625
 20
-514.9248046875
 30
0.0
 10
822.638671875
 20
-517.30810546875
 30
0.0
 10
821.0361328125
 20
-519.76025390625
 30
0.0
 10
818.8310546875
 20
-521.77587890625
 30
0.0
 10
816.82666015625
 20
-523.91259765625
 30
0.0
 10
815.74755859375
 20
-525.0625
 30
0.0
 10
813.76171875
 20
-525.7099609375
 30
0.0
 10
813.47802734375
 20
-527.2607421875
 30
0.0
 10
813.36279296875
 20
-527.8935546875
 30
0.0
 10
813.732421875
 20
-528.671875
 30
0.0
 10
814.2724609375
 20
-529.0205078125
 30
0.0
 10
815.26611328125
 20
-529.662109375
 30
0.0
 10
816.64501953125
 20
-528.92822265625
 30
0.0
 10
817.82421875
 20
-529.0205078125
 30
0.0
 10
820.2705078125
 20
-529.21142578125
 30
0.0
 10
822.685546875
 20
-529.751953125
 30
0.0
 10
825.1044921875
 20
-530.1650390625
 30
0.0
 10
827.01513671875
 20
-530.49169921875
 30
0.0
 10
829.09375
 20
-532.08642578125
 30
0.0
 10
830.82861328125
 20
-531.2216796875
 30
0.0
 10
831.41552734375
 20
-530.9296875
 30
0.0
 10
831.78271484375
 20
-530.1123046875
 30
0.0
 10
831.708984375
 20
-529.4609375
 30
0.0
 10
831.63671875
 20
-528.81884765625
 30
0.0
 10
830.80908203125
 20
-528.51708984375
 30
0.0
 10
830.4765625
 20
-527.96337890625
 30
0.0
 10
829.609375
 20
-526.521484375
 30
0.0
 10
828.7978515625
 20
-524.958984375
 30
0.0
 10
828.5390625
 20
-523.29638671875
 30
0.0
 10
828.27197265625
 20
-521.58056640625
 30
0.0
 10
828.970703125
 20
-519.8369140625
 30
0.0
 10
828.9794921875
 20
-518.1005859375
 30
0.0
 10
828.9892578125
 20
-516.13037109375
 30
0.0
 10
829.119140625
 20
-514.0830078125
 30
0.0
 10
828.5390625
 20
-512.2001953125
 30
0.0
 10
828.1904296875
 20
-511.0703125
 30
0.0
 10
827.92822265625
 20
-509.328125
 30
0.0
 10
826.76318359375
 20
-509.12451171875
 30
0.0
 10
826.54248046875
 20
-509.0859375
 30
0.0
 10
826.38525390625
 20
-509.38037109375
 30
0.0
 10
826.2490234375
 20
-509.55810546875
 30
0.0
  0
SPLINE
  5
B3
330
1F
100
AcDbEntity
  8
LAYER_1
 62
   250
100
AcDbSpline
210
0.0
220
0.0
230
1.0
 70
    11
 71
     3
 72
    41
 73
    37
 74
     0
 42
0.0000000001
 43
0.0000000001
 40
0.0
 40
0.0
 40
0.0
 40
0.0
 40
1.0
 40
1.0
 40
1.0
 40
2.0
 40
2.0
 40
2.0
 40
3.0
 40
3.0
 40
3.0
 40
4.0
 40
4.0
 40
4.0
 40
5.0
 40
5.0
 40
5.0
 40
6.0
 40
6.0
 40
6.0
 40
7.0
 40
7.0
 40
7.0
 40
8.0
 40
8.0
 40
8.0
 40
9.0
 40
9.0
 40
9.0
 40
10.0
 40
10.0
 40
10.0
 40
11.0
 40
11.0
 40
11.0
 40
12.0
 40
12.0
 40
12.0
 40
12.0
 10
941.83740234375
 20
-594.6376953125
 30
0.0
 10
939.51611328125
 20
-594.18408203125
 30
0.0
 10
937.87158203125
 20
-597.28369140625
 30
0.0
 10
935.68603515625
 20
-598.18896484375
 30
0.0
 10
934.2294921875
 20
-598.79248046875
 30
0.0
 10
932.67578125
 20
-599.20849609375
 30
0.0
 10
931.1123046875
 20
-599.41455078125
 30
0.0
 10
928.37646484375
 20
-599.7744140625
 30
0.0
 10
925.5126953125
 20
-598.78564453125
 30
0.0
 10
922.82568359375
 20
-599.41455078125
 30
0.0
 10
922.404296875
 20
-599.51318359375
 30
0.0
 10
921.8388671875
 20
-599.59716796875
 30
0.0
 10
921.66015625
 20
-599.99169921875
 30
0.0
 10
921.33544921875
 20
-600.7099609375
 30
0.0
 10
921.83837890625
 20
-601.62109375
 30
0.0
 10
922.27294921875
 20
-602.27880859375
 30
0.0
 10
923.10302734375
 20
-603.53369140625
 30
0.0
 10
924.44140625
 20
-604.4873046875
 30
0.0
 10
925.8310546875
 20
-605.064453125
 30
0.0
 10
927.38525390625
 20
-605.7099609375
 30
0.0
 10
929.1640625
 20
-605.7001953125
 30
0.0
 10
930.84716796875
 20
-605.68408203125
 30
0.0
 10
932.572265625
 20
-605.66796875
 30
0.0
 10
934.3837890625
 20
-605.615234375
 30
0.0
 10
935.97607421875
 20
-604.95166015625
 30
0.0
 10
937.4970703125
 20
-604.3173828125
 30
0.0
 10
938.8720703125
 20
-603.23486328125
 30
0.0
 10
939.92138671875
 20
-601.96435546875
 30
0.0
 10
940.84033203125
 20
-600.85107421875
 30
0.0
 10
941.484375
 20
-599.4755859375
 30
0.0
 10
941.83740234375
 20
-598.07568359375
 30
0.0
 10
942.10498046875
 20
-597.01416015625
 30
0.0
 10
942.29296875
 20
-595.83203125
 30
0.0
 10
941.9560546875
 20
-594.79052734375
 30
0.0
 10
941.9365234375
 20
-594.72900390625
 30
0.0
 10
941.90087890625
 20
-594.64990234375
 30
0.0
 10
941.83740234375
 20
-594.6376953125
 30
0.0
  0
SPLINE
  5
B4
330
1F
100
AcDbEntity
  8
LAYER_1
 62
   250
100
AcDbSpline
210
0.0
220
0.0
230
1.0
 70
    11
 71
     3
 72
    56
 73
    52
 74
     0
 42
0.0000000001
 43
0.0000000001
 40
0.0
 40
0.0
 40
0.0
 40
0.0
 40
1.0
 40
1.0
 40
1.0
 40
2.0
 40
2.0
 40
2.0
 40
3.0
 40
3.0
 40
3.0
 40
4.0
 40
4.0
 40
4.0
 40
5.0
 40
5.0
 40
5.0
 40
6.0
 40
6.0
 40
6.0
 40
7.0
 40
7.0
 40
7.0
 40
8.0
 40
8.0
 40
8.0
 40
9.0
 40
9.0
 40
9.0
 40
10.0
 40
10.0
 40
10.0
 40
11.0
 40
11.0
 40
11.0
 40
12.0
 40
12.0
 40
12.0
 40
13.0
 40
13.0
 40
13.0
 40
14.0
 40
14.0
 40
14.0
 40
15.0
 40
15.0
 40
15.0
 40
16.0
 40
16.0
 40
16.0
 40
17.0
 40
17.0
 40
17.0
 40
17.0
 10
917.6015625
 20
-533.7431640625
 30
0.0
 10
919.56103515625
 20
-533.5322265625
 30
0.0
 10
920.95703125
 20
-536.140625
 30
0.0
 10
921.78662109375
 20
-537.9287109375
 30
0.0
 10
923.5400390625
 20
-541.70703125
 30
0.0
 10
922.51220703125
 20
-546.240234375
 30
0.0
 10
922.830078125
 20
-550.39306640625
 30
0.0
 10
923.08251953125
 20
-553.6904296875
 30
0.0
 10
921.4150390625
 20
-557.74755859375
 30
0.0
 10
923.51806640625
 20
-560.2998046875
 30
0.0
 10
924.5205078125
 20
-561.51708984375
 30
0.0
 10
926.52880859375
 20
-561.31982421875
 30
0.0
 10
928.091796875
 20
-561.525390625
 30
0.0
 10
930.43701171875
 20
-561.83447265625
 30
0.0
 10
932.91015625
 20
-560.91357421875
 30
0.0
 10
935.19482421875
 20
-561.525390625
 30
0.0
 10
936.7177734375
 20
-561.93359375
 30
0.0
 10
938.33544921875
 20
-562.64208984375
 30
0.0
 10
939.29541015625
 20
-563.89306640625
 30
0.0
 10
939.775390625
 20
-564.5185546875
 30
0.0
 10
940.38818359375
 20
-565.5546875
 30
0.0
 10
939.908203125
 20
-566.18017578125
 30
0.0
 10
938.9482421875
 20
-567.43115234375
 30
0.0
 10
936.748046875
 20
-566.099609375
 30
0.0
 10
935.1728515625
 20
-566.18017578125
 30
0.0
 10
933.2548828125
 20
-566.27783203125
 30
0.0
 10
931.345703125
 20
-566.57373046875
 30
0.0
 10
929.43505859375
 20
-566.76708984375
 30
0.0
 10
925.76953125
 20
-567.1376953125
 30
0.0
 10
922.0107421875
 20
-567.015625
 30
0.0
 10
918.4267578125
 20
-567.8681640625
 30
0.0
 10
916.564453125
 20
-568.31103515625
 30
0.0
 10
914.9189453125
 20
-570.3916015625
 30
0.0
 10
913.060546875
 20
-569.93212890625
 30
0.0
 10
912.587890625
 20
-569.81494140625
 30
0.0
 10
912.1748046875
 20
-569.31201171875
 30
0.0
 10
912.09716796875
 20
-568.8310546875
 30
0.0
 10
911.94677734375
 20
-567.8984375
 30
0.0
 10
912.83447265625
 20
-567.0888671875
 30
0.0
 10
913.1982421875
 20
-566.216796875
 30
0.0
 10
914.39990234375
 20
-563.33447265625
 30
0.0
 10
916.16845703125
 20
-560.611328125
 30
0.0
 10
916.77587890625
 20
-557.5478515625
 30
0.0
 10
917.7724609375
 20
-552.52099609375
 30
0.0
 10
916.65380859375
 20
-547.28173828125
 30
0.0
 10
916.77587890625
 20
-542.15869140625
 30
0.0
 10
916.8369140625
 20
-539.59228515625
 30
0.0
 10
916.361328125
 20
-536.9033203125
 30
0.0
 10
917.142578125
 20
-534.4580078125
 30
0.0
 10
917.228515625
 20
-534.1884765625
 30
0.0
 10
917.3203125
 20
-533.7734375
 30
0.0
 10
917.6015625
 20
-533.7431640625
 30
0.0
  0
SPLINE
  5
B5
330
1F
100
AcDbEntity
  8
LAYER_1
 62
   250
100
AcDbSpline
210
0.0
220
0.0
230
1.0
 70
    11
 71
     3
 72
    59
 73
    55
 74
     0
 42
0.0000000001
 43
0.0000000001
 40
0.0
 40
0.0
 40
0.0
 40
0.0
 40
1.0
 40
1.0
 40
1.0
 40
2.0
 40
2.0
 40
2.0
 40
3.0
 40
3.0
 40
3.0
 40
4.0
 40
4.0
 40
4.0
 40
5.0
 40
5.0
 40
5.0
 40
6.0
 40
6.0
 40
6.0
 40
7.0
 40
7.0
 40
7.0
 40
8.0
 40
8.0
 40
8.0
 40
9.0
 40
9.0
 40
9.0
 40
10.0
 40
10.0
 40
10.0
 40
11.0
 40
11.0
 40
11.0
 40
12.0
 40
12.0
 40
12.0
 40
13.0
 40
13.0
 40
13.0
 40
14.0
 40
14.0
 40
14.0
 40
15.0
 40
15.0
 40
15.0
 40
16.0
 40
16.0
 40
16.0
 40
17.0
 40
17.0
 40
17.0
 40
18.0
 40
18.0
 40
18.0
 40
18.0
 10
1015.18017578125
 20
-754.642578125
 30
0.0
 10
1012.53466796875
 20
-758.83349609375
 30
0.0
 10
1006.72705078125
 20
-759.1337890625
 30
0.0
 10
1002.4072265625
 20
-761.13818359375
 30
0.0
 10
1000.13134765625
 20
-762.19384765625
 30
0.0
 10
997.60400390625
 20
-762.68701171875
 30
0.0
 10
995.47509765625
 20
-764.0537109375
 30
0.0
 10
993.82763671875
 20
-765.111328125
 30
0.0
 10
992.263671875
 20
-766.43798828125
 30
0.0
 10
991.0791015625
 20
-768.0634765625
 30
0.0
 10
990.92333984375
 20
-768.2763671875
 30
0.0
 10
990.955078125
 20
-768.6494140625
 30
0.0
 10
990.74072265625
 20
-768.7919921875
 30
0.0
 10
990.4052734375
 20
-769.015625
 30
0.0
 10
989.8359375
 20
-769.0927734375
 30
0.0
 10
989.55712890625
 20
-768.7919921875
 30
0.0
 10
989.2783203125
 20
-768.49169921875
 30
0.0
 10
989.505859375
 20
-767.9375
 30
0.0
 10
989.55712890625
 20
-767.51611328125
 30
0.0
 10
989.86572265625
 20
-764.98876953125
 30
0.0
 10
990.6005859375
 20
-762.5224609375
 30
0.0
 10
991.3955078125
 20
-760.12158203125
 30
0.0
 10
992.27587890625
 20
-757.46142578125
 30
0.0
 10
993.33642578125
 20
-754.8466796875
 30
0.0
 10
994.6298828125
 20
-752.390625
 30
0.0
 10
995.00244140625
 20
-751.6826171875
 30
0.0
 10
995.3212890625
 20
-750.873046875
 30
0.0
 10
995.92578125
 20
-750.3857421875
 30
0.0
 10
996.16357421875
 20
-750.1943359375
 30
0.0
 10
996.482421875
 20
-750.0087890625
 30
0.0
 10
996.771484375
 20
-750.08203125
 30
0.0
 10
997.1552734375
 20
-750.1796875
 30
0.0
 10
997.421875
 20
-750.60986328125
 30
0.0
 10
997.6083984375
 20
-750.984375
 30
0.0
 10
998.017578125
 20
-751.80517578125
 30
0.0
 10
997.7646484375
 20
-752.87939453125
 30
0.0
 10
998.1240234375
 20
-753.72705078125
 30
0.0
 10
998.3408203125
 20
-754.23828125
 30
0.0
 10
998.625
 20
-754.79296875
 30
0.0
 10
999.08203125
 20
-755.0634765625
 30
0.0
 10
1000.1728515625
 20
-755.7080078125
 30
0.0
 10
1001.55859375
 20
-755.46875
 30
0.0
 10
1002.8017578125
 20
-755.427734375
 30
0.0
 10
1005.8603515625
 20
-755.32666015625
 30
0.0
 10
1008.85546875
 20
-754.390625
 30
0.0
 10
1011.88525390625
 20
-753.92822265625
 30
0.0
 10
1012.84619140625
 20
-753.78173828125
 30
0.0
 10
1013.81884765625
 20
-753.345703125
 30
0.0
 10
1014.775390625
 20
-753.5234375
 30
0.0
 10
1014.943359375
 20
-753.5546875
 30
0.0
 10
1015.14794921875
 20
-753.6142578125
 30
0.0
 10
1015.232421875
 20
-753.7744140625
 30
0.0
 10
1015.365234375
 20
-754.0263671875
 30
0.0
 10
1015.3310546875
 20
-754.4033203125
 30
0.0
 10
1015.18017578125
 20
-754.642578125
 30
0.0
  0
SPLINE
  5
B6
330
1F
100
AcDbEntity
  8
LAYER_1
 62
   250
100
AcDbSpline
210
0.0
220
0.0
230
1.0
 70
    11
 71
     3
 72
    41
 73
    37
 74
     0
 42
0.0000000001
 43
0.0000000001
 40
0.0
 40
0.0
 40
0.0
 40
0.0
 40
1.0
 40
1.0
 40
1.0
 40
2.0
 40
2.0
 40
2.0
 40
3.0
 40
3.0
 40
3.0
 40
4.0
 40
4.0
 40
4.0
 40
5.0
 40
5.0
 40
5.0
 40
6.0
 40
6.0
 40
6.0
 40
7.0
 40
7.0
 40
7.0
 40
8.0
 40
8.0
 40
8.0
 40
9.0
 40
9.0
 40
9.0
 40
10.0
 40
10.0
 40
10.0
 40
11.0
 40
11.0
 40
11.0
 40
12.0
 40
12.0
 40
12.0
 40
12.0
 10
918.48046875
 20
-762.32080078125
 30
0.0
 10
918.70849609375
 20
-760.0478515625
 30
0.0
 10
915.8291015625
 20
-758.357421875
 30
0.0
 10
913.80224609375
 20
-757.3046875
 30
0.0
 10
912.591796875
 20
-756.67578125
 30
0.0
 10
911.10546875
 20
-756.8349609375
 30
0.0
 10
909.744140625
 20
-756.7412109375
 30
0.0
 10
907.384765625
 20
-756.578125
 30
0.0
 10
905.00244140625
 20
-756.88671875
 30
0.0
 10
902.6416015625
 20
-756.7412109375
 30
0.0
 10
899.90478515625
 20
-756.57177734375
 30
0.0
 10
897.03515625
 20
-756.6962890625
 30
0.0
 10
894.470703125
 20
-755.7265625
 30
0.0
 10
892.791015625
 20
-755.09130859375
 30
0.0
 10
891.61669921875
 20
-753.50146484375
 30
0.0
 10
890.01806640625
 20
-752.68310546875
 30
0.0
 10
889.37890625
 20
-752.35546875
 30
0.0
 10
888.607421875
 20
-751.583984375
 30
0.0
 10
887.9892578125
 20
-751.9501953125
 30
0.0
 10
887.25390625
 20
-752.38623046875
 30
0.0
 10
887.32958984375
 20
-753.673828125
 30
0.0
 10
887.5947265625
 20
-754.486328125
 30
0.0
 10
888.2060546875
 20
-756.3603515625
 30
0.0
 10
890.21630859375
 20
-757.47216796875
 30
0.0
 10
891.7802734375
 20
-758.671875
 30
0.0
 10
893.96923828125
 20
-760.3515625
 30
0.0
 10
896.345703125
 20
-761.92236328125
 30
0.0
 10
898.95654296875
 20
-762.8154296875
 30
0.0
 10
902.40478515625
 20
-763.99462890625
 30
0.0
 10
906.16015625
 20
-764.1279296875
 30
0.0
 10
909.80078125
 20
-764.29345703125
 30
0.0
 10
911.90283203125
 20
-764.388671875
 30
0.0
 10
914.1240234375
 20
-764.6982421875
 30
0.0
 10
916.11328125
 20
-764.01171875
 30
0.0
 10
917.02880859375
 20
-763.6953125
 30
0.0
 10
918.3837890625
 20
-763.28466796875
 30
0.0
 10
918.48046875
 20
-762.32080078125
 30
0.0
  0
SPLINE
  5
B7
330
1F
100
AcDbEntity
  8
LAYER_1
 62
   250
100
AcDbSpline
210
0.0
220
0.0
230
1.0
 70
    11
 71
     3
 72
    47
 73
    43
 74
     0
 42
0.0000000001
 43
0.0000000001
 40
0.0
 40
0.0
 40
0.0
 40
0.0
 40
1.0
 40
1.0
 40
1.0
 40
2.0
 40
2.0
 40
2.0
 40
3.0
 40
3.0
 40
3.0
 40
4.0
 40
4.0
 40
4.0
 40
5.0
 40
5.0
 40
5.0
 40
6.0
 40
6.0
 40
6.0
 40
7.0
 40
7.0
 40
7.0
 40
8.0
 40
8.0
 40
8.0
 40
9.0
 40
9.0
 40
9.0
 40
10.0
 40
10.0
 40
10.0
 40
11.0
 40
11.0
 40
11.0
 40
12.0
 40
12.0
 40
12.0
 40
13.0
 40
13.0
 40
13.0
 40
14.0
 40
14.0
 40
14.0
 40
14.0
 10
864.4267578125
 20
-515.63134765625
 30
0.0
 10
865.9306640625
 20
-516.935546875
 30
0.0
 10
865.24853515625
 20
-519.55859375
 30
0.0
 10
865.2724609375
 20
-521.54931640625
 30
0.0
 10
865.30029296875
 20
-523.935546875
 30
0.0
 10
864.1796875
 20
-526.29150390625
 30
0.0
 10
864.4267578125
 20
-528.6650390625
 30
0.0
 10
864.61669921875
 20
-530.4873046875
 30
0.0
 10
865.43310546875
 20
-532.20849609375
 30
0.0
 10
866.18798828125
 20
-533.87841796875
 30
0.0
 10
866.5126953125
 20
-534.5966796875
 30
0.0
 10
867.50390625
 20
-535.1513671875
 30
0.0
 10
867.3720703125
 20
-535.9287109375
 30
0.0
 10
867.30029296875
 20
-536.35009765625
 30
0.0
 10
866.8037109375
 20
-536.62744140625
 30
0.0
 10
866.3994140625
 20
-536.7666015625
 30
0.0
 10
862.7568359375
 20
-538.01953125
 30
0.0
 10
858.478515625
 20
-537.4833984375
 30
0.0
 10
854.845703125
 20
-536.203125
 30
0.0
 10
853.9423828125
 20
-535.884765625
 30
0.0
 10
852.83984375
 20
-535.41455078125
 30
0.0
 10
852.5205078125
 20
-534.51220703125
 30
0.0
 10
852.2578125
 20
-533.76904296875
 30
0.0
 10
852.689453125
 20
-532.876953125
 30
0.0
 10
853.13330078125
 20
-532.2255859375
 30
0.0
 10
853.8115234375
 20
-531.2294921875
 30
0.0
 10
855.25732421875
 20
-530.98779296875
 30
0.0
 10
856.04296875
 20
-530.07373046875
 30
0.0
 10
858.1708984375
 20
-527.59912109375
 30
0.0
 10
859.5947265625
 20
-524.505859375
 30
0.0
 10
860.62255859375
 20
-521.408203125
 30
0.0
 10
861.1982421875
 20
-519.67333984375
 30
0.0
 10
860.43408203125
 20
-517.49169921875
 30
0.0
 10
861.4677734375
 20
-515.98388671875
 30
0.0
 10
861.91357421875
 20
-515.33349609375
 30
0.0
 10
862.75048828125
 20
-514.62109375
 30
0.0
 10
863.51806640625
 20
-514.7998046875
 30
0.0
 10
863.8427734375
 20
-514.87548828125
 30
0.0
 10
863.78076171875
 20
-515.474609375
 30
0.0
 10
864.07470703125
 20
-515.63134765625
 30
0.0
 10
864.177734375
 20
-515.6865234375
 30
0.0
 10
864.33837890625
 20
-515.5546875
 30
0.0
 10
864.4267578125
 20
-515.63134765625
 30
0.0
  0
SPLINE
  5
B8
330
1F
100
AcDbEntity
  8
LAYER_1
 62
   250
100
AcDbSpline
210
0.0
220
0.0
230
1.0
 70
    11
 71
     3
 72
    41
 73
    37
 74
     0
 42
0.0000000001
 43
0.0000000001
 40
0.0
 40
0.0
 40
0.0
 40
0.0
 40
1.0
 40
1.0
 40
1.0
 40
2.0
 40
2.0
 40
2.0
 40
3.0
 40
3.0
 40
3.0
 40
4.0
 40
4.0
 40
4.0
 40
5.0
 40
5.0
 40
5.0
 40
6.0
 40
6.0
 40
6.0
 40
7.0
 40
7.0
 40
7.0
 40
8.0
 40
8.0
 40
8.0
 40
9.0
 40
9.0
 40
9.0
 40
10.0
 40
10.0
 40
10.0
 40
11.0
 40
11.0
 40
11.0
 40
12.0
 40
12.0
 40
12.0
 40
12.0
 10
939.53125
 20
-587.11279296875
 30
0.0
 10
939.84130859375
 20
-587.3564453125
 30
0.0
 10
940.1708984375
 20
-587.6220703125
 30
0.0
 10
940.556640625
 20
-587.70458984375
 30
0.0
 10
942.47265625
 20
-588.1162109375
 30
0.0
 10
944.615234375
 20
-587.89599609375
 30
0.0
 10
946.4111328125
 20
-587.11279296875
 30
0.0
 10
948.15966796875
 20
-586.3505859375
 30
0.0
 10
949.92529296875
 20
-585.06689453125
 30
0.0
 10
950.7109375
 20
-583.3291015625
 30
0.0
 10
951.1982421875
 20
-582.25146484375
 30
0.0
 10
951.1044921875
 20
-580.892578125
 30
0.0
 10
950.7109375
 20
-579.77734375
 30
0.0
 10
950.16455078125
 20
-578.2275390625
 30
0.0
 10
949.09765625
 20
-576.642578125
 30
0.0
 10
947.615234375
 20
-575.93310546875
 30
0.0
 10
944.7705078125
 20
-574.5712890625
 30
0.0
 10
941.2451171875
 20
-575.35498046875
 30
0.0
 10
938.14453125
 20
-575.93310546875
 30
0.0
 10
937.36376953125
 20
-576.07861328125
 30
0.0
 10
936.18359375
 20
-576.0439453125
 30
0.0
 10
935.91943359375
 20
-576.79296875
 30
0.0
 10
935.65673828125
 20
-577.53662109375
 30
0.0
 10
936.708984375
 20
-578.16064453125
 30
0.0
 10
937.10302734375
 20
-578.84326171875
 30
0.0
 10
937.8916015625
 20
-580.208984375
 30
0.0
 10
939.1474609375
 20
-581.40087890625
 30
0.0
 10
939.470703125
 20
-582.9443359375
 30
0.0
 10
939.650390625
 20
-583.80224609375
 30
0.0
 10
939.2275390625
 20
-584.68505859375
 30
0.0
 10
939.1787109375
 20
-585.560546875
 30
0.0
 10
939.1572265625
 20
-585.9541015625
 30
0.0
 10
939.0322265625
 20
-586.37841796875
 30
0.0
 10
939.1787109375
 20
-586.744140625
 30
0.0
 10
939.2421875
 20
-586.90185546875
 30
0.0
 10
939.3974609375
 20
-587.0078125
 30
0.0
 10
939.53125
 20
-587.11279296875
 30
0.0
  0
SPLINE
  5
B9
330
1F
100
AcDbEntity
  8
LAYER_1
 62
   250
100
AcDbSpline
210
0.0
220
0.0
230
1.0
 70
    11
 71
     3
 72
    47
 73
    43
 74
     0
 42
0.0000000001
 43
0.0000000001
 40
0.0
 40
0.0
 40
0.0
 40
0.0
 40
1.0
 40
1.0
 40
1.0
 40
2.0
 40
2.0
 40
2.0
 40
3.0
 40
3.0
 40
3.0
 40
4.0
 40
4.0
 40
4.0
 40
5.0
 40
5.0
 40
5.0
 40
6.0
 40
6.0
 40
6.0
 40
7.0
 40
7.0
 40
7.0
 40
8.0
 40
8.0
 40
8.0
 40
9.0
 40
9.0
 40
9.0
 40
10.0
 40
10.0
 40
10.0
 40
11.0
 40
11.0
 40
11.0
 40
12.0
 40
12.0
 40
12.0
 40
13.0
 40
13.0
 40
13.0
 40
14.0
 40
14.0
 40
14.0
 40
14.0
 10
931.51416015625
 20
-587.2138671875
 30
0.0
 10
932.884765625
 20
-586.4228515625
 30
0.0
 10
933.68359375
 20
-584.66748046875
 30
0.0
 10
933.890625
 20
-583.0986328125
 30
0.0
 10
934.166015625
 20
-581.00634765625
 30
0.0
 10
933.4287109375
 20
-578.728515625
 30
0.0
 10
932.25048828125
 20
-576.97802734375
 30
0.0
 10
931.44677734375
 20
-575.7841796875
 30
0.0
 10
930.18603515625
 20
-574.771484375
 30
0.0
 10
928.80419921875
 20
-574.36962890625
 30
0.0
 10
926.498046875
 20
-573.69873046875
 30
0.0
 10
923.85400390625
 20
-574.0869140625
 30
0.0
 10
921.6162109375
 20
-574.958984375
 30
0.0
 10
920.7822265625
 20
-575.28369140625
 30
0.0
 10
919.88818359375
 20
-575.8046875
 30
0.0
 10
919.4951171875
 20
-576.6083984375
 30
0.0
 10
919.26318359375
 20
-577.08251953125
 30
0.0
 10
919.3876953125
 20
-577.67578125
 30
0.0
 10
919.4951171875
 20
-578.1923828125
 30
0.0
 10
919.59521484375
 20
-578.67626953125
 30
0.0
 10
919.6708984375
 20
-579.283203125
 30
0.0
 10
920.083984375
 20
-579.5546875
 30
0.0
 10
920.9658203125
 20
-580.1337890625
 30
0.0
 10
922.21484375
 20
-579.36279296875
 30
0.0
 10
923.251953125
 20
-579.5546875
 30
0.0
 10
924.3310546875
 20
-579.75390625
 30
0.0
 10
925.4091796875
 20
-580.1357421875
 30
0.0
 10
926.32958984375
 20
-580.73291015625
 30
0.0
 10
927.21435546875
 20
-581.30712890625
 30
0.0
 10
927.8505859375
 20
-582.20068359375
 30
0.0
 10
928.56982421875
 20
-582.97314453125
 30
0.0
 10
929.10009765625
 20
-583.54248046875
 30
0.0
 10
929.828125
 20
-584.01025390625
 30
0.0
 10
930.10009765625
 20
-584.7392578125
 30
0.0
 10
930.38818359375
 20
-585.51123046875
 30
0.0
 10
929.517578125
 20
-586.63134765625
 30
0.0
 10
930.10009765625
 20
-587.2138671875
 30
0.0
 10
930.3984375
 20
-587.51220703125
 30
0.0
 10
930.9453125
 20
-587.2138671875
 30
0.0
 10
931.36767578125
 20
-587.2138671875
 30
0.0
 10
931.41650390625
 20
-587.2138671875
 30
0.0
 10
931.47216796875
 20
-587.23828125
 30
0.0
 10
931.51416015625
 20
-587.2138671875
 30
0.0
  0
SPLINE
  5
BA
330
1F
100
AcDbEntity
  8
LAYER_1
 62
   250
100
AcDbSpline
210
0.0
220
0.0
230
1.0
 70
    11
 71
     3
 72
    35
 73
    31
 74
     0
 42
0.0000000001
 43
0.0000000001
 40
0.0
 40
0.0
 40
0.0
 40
0.0
 40
1.0
 40
1.0
 40
1.0
 40
2.0
 40
2.0
 40
2.0
 40
3.0
 40
3.0
 40
3.0
 40
4.0
 40
4.0
 40
4.0
 40
5.0
 40
5.0
 40
5.0
 40
6.0
 40
6.0
 40
6.0
 40
7.0
 40
7.0
 40
7.0
 40
8.0
 40
8.0
 40
8.0
 40
9.0
 40
9.0
 40
9.0
 40
10.0
 40
10.0
 40
10.0
 40
10.0
 10
907.03759765625
 20
-574.2392578125
 30
0.0
 10
905.0205078125
 20
-575.7041015625
 30
0.0
 10
902.72998046875
 20
-576.86376953125
 30
0.0
 10
900.9833984375
 20
-578.642578125
 30
0.0
 10
899.41552734375
 20
-580.23876953125
 30
0.0
 10
898.2314453125
 20
-582.19873046875
 30
0.0
 10
897.13037109375
 20
-584.146484375
 30
0.0
 10
896.6865234375
 20
-584.93212890625
 30
0.0
 10
896.9248046875
 20
-586.5078125
 30
0.0
 10
896.02978515625
 20
-586.623046875
 30
0.0
 10
895.15673828125
 20
-586.73583984375
 30
0.0
 10
894.6318359375
 20
-585.40234375
 30
0.0
 10
894.37841796875
 20
-584.55908203125
 30
0.0
 10
893.64990234375
 20
-582.1357421875
 30
0.0
 10
893.9931640625
 20
-579.28271484375
 30
0.0
 10
895.06640625
 20
-576.9912109375
 30
0.0
 10
895.7353515625
 20
-575.5634765625
 30
0.0
 10
896.97607421875
 20
-574.28857421875
 30
0.0
 10
898.41455078125
 20
-573.64306640625
 30
0.0
 10
900.33447265625
 20
-572.78173828125
 30
0.0
 10
902.61962890625
 20
-573.22802734375
 30
0.0
 10
904.72314453125
 20
-573.2763671875
 30
0.0
 10
905.498046875
 20
-573.2939453125
 30
0.0
 10
906.337890625
 20
-573.18408203125
 30
0.0
 10
907.03759765625
 20
-573.517578125
 30
0.0
 10
907.21533203125
 20
-573.60205078125
 30
0.0
 10
907.4716796875
 20
-573.7392578125
 30
0.0
 10
907.4560546875
 20
-573.93603515625
 30
0.0
 10
907.4423828125
 20
-574.107421875
 30
0.0
 10
907.1767578125
 20
-574.13818359375
 30
0.0
 10
907.03759765625
 20
-574.2392578125
 30
0.0
  0
POLYLINE
  5
BB
330
1F
100
AcDbEntity
  8
LAYER_1
 62
   250
100
AcDb2dPolyline
 66
     1
 10
0.0
 20
0.0
 30
0.0
  0
VERTEX
  5
BC
330
BB
100
AcDbEntity
  8
LAYER_1
 62
   250
100
AcDbVertex
100
AcDb2dVertex
 10
855.68896484375
 20
-603.76513671875
 30
0.0
  0
VERTEX
  5
BD
330
BB
100
AcDbEntity
  8
LAYER_1
 62
   250
100
AcDbVertex
100
AcDb2dVertex
 10
840.9384765625
 20
-617.19482421875
 30
0.0
  0
VERTEX
  5
BE
330
BB
100
AcDbEntity
  8
LAYER_1
 62
   250
100
AcDbVertex
100
AcDb2dVertex
 10
827.3984375
 20
-632.826171875
 30
0.0
  0
VERTEX
  5
BF
330
BB
100
AcDbEntity
  8
LAYER_1
 62
   250
100
AcDbVertex
100
AcDb2dVertex
 10
825.78759765625
 20
-635.021484375
 30
0.0
  0
VERTEX
  5
C0
330
BB
100
AcDbEntity
  8
LAYER_1
 62
   250
100
AcDbVertex
100
AcDb2dVertex
 10
825.19580078125
 20
-635.021484375
 30
0.0
  0
VERTEX
  5
C1
330
BB
100
AcDbEntity
  8
LAYER_1
 62
   250
100
AcDbVertex
100
AcDb2dVertex
 10
825.462890625
 20
-629.57470703125
 30
0.0
  0
VERTEX
  5
C2
330
BB
100
AcDbEntity
  8
LAYER_1
 62
   250
100
AcDbVertex
100
AcDb2dVertex
 10
825.69921875
 20
-619.61767578125
 30
0.0
  0
VERTEX
  5
C3
330
BB
100
AcDbEntity
  8
LAYER_1
 62
   250
100
AcDbVertex
100
AcDb2dVertex
 10
826.78125
 20
-613.48583984375
 30
0.0
  0
VERTEX
  5
C4
330
BB
100
AcDbEntity
  8
LAYER_1
 62
   250
100
AcDbVertex
100
AcDb2dVertex
 10
827.5751953125
 20
-611.75439453125
 30
0.0
  0
VERTEX
  5
C5
330
BB
100
AcDbEntity
  8
LAYER_1
 62
   250
100
AcDbVertex
100
AcDb2dVertex
 10
830.43359375
 20
-610.98828125
 30
0.0
  0
VERTEX
  5
C6
330
BB
100
AcDbEntity
  8
LAYER_1
 62
   250
100
AcDbVertex
100
AcDb2dVertex
 10
835.72705078125
 20
-611.28515625
 30
0.0
  0
VERTEX
  5
C7
330
BB
100
AcDbEntity
  8
LAYER_1
 62
   250
100
AcDbVertex
100
AcDb2dVertex
 10
838.58544921875
 20
-612.05126953125
 30
0.0
  0
VERTEX
  5
C8
330
BB
100
AcDbEntity
  8
LAYER_1
 62
   250
100
AcDbVertex
100
AcDb2dVertex
 10
839.84130859375
 20
-610.7958984375
 30
0.0
  0
VERTEX
  5
C9
330
BB
100
AcDbEntity
  8
LAYER_1
 62
   250
100
AcDbVertex
100
AcDb2dVertex
 10
845.3212890625
 20
-606.16162109375
 30
0.0
  0
VERTEX
  5
CA
330
BB
100
AcDbEntity
  8
LAYER_1
 62
   250
100
AcDbVertex
100
AcDb2dVertex
 10
850.6611328125
 20
-603.4482421875
 30
0.0
  0
VERTEX
  5
CB
330
BB
100
AcDbEntity
  8
LAYER_1
 62
   250
100
AcDbVertex
100
AcDb2dVertex
 10
854.83935546875
 20
-602.388671875
 30
0.0
  0
VERTEX
  5
CC
330
BB
100
AcDbEntity
  8
LAYER_1
 62
   250
100
AcDbVertex
100
AcDb2dVertex
 10
855.8203125
 20
-602.826171875
 30
0.0
  0
VERTEX
  5
CD
330
BB
100
AcDbEntity
  8
LAYER_1
 62
   250
100
AcDbVertex
100
AcDb2dVertex
 10
855.68896484375
 20
-603.76513671875
 30
0.0
  0
SEQEND
  5
CE
330
BB
100
AcDbEntity
  8
LAYER_1
  0
SPLINE
  5
CF
330
1F
100
AcDbEntity
  8
LAYER_1
 62
   250
100
AcDbSpline
210
0.0
220
0.0
230
1.0
 70
    11
 71
     3
 72
    38
 73
    34
 74
     0
 42
0.0000000001
 43
0.0000000001
 40
0.0
 40
0.0
 40
0.0
 40
0.0
 40
1.0
 40
1.0
 40
1.0
 40
2.0
 40
2.0
 40
2.0
 40
3.0
 40
3.0
 40
3.0
 40
4.0
 40
4.0
 40
4.0
 40
5.0
 40
5.0
 40
5.0
 40
6.0
 40
6.0
 40
6.0
 40
7.0
 40
7.0
 40
7.0
 40
8.0
 40
8.0
 40
8.0
 40
9.0
 40
9.0
 40
9.0
 40
10.0
 40
10.0
 40
10.0
 40
11.0
 40
11.0
 40
11.0
 40
11.0
 10
885.2666015625
 20
-596.033203125
 30
0.0
 10
884.75634765625
 20
-597.93701171875
 30
0.0
 10
882.93701171875
 20
-599.29150390625
 30
0.0
 10
882.306640625
 20
-601.1591796875
 30
0.0
 10
881.3916015625
 20
-603.87060546875
 30
0.0
 10
881.3974609375
 20
-606.8271484375
 30
0.0
 10
881.21533203125
 20
-609.68310546875
 30
0.0
 10
881.08984375
 20
-611.64990234375
 30
0.0
 10
882.31103515625
 20
-613.96337890625
 30
0.0
 10
881.21533203125
 20
-615.60205078125
 30
0.0
 10
880.96875
 20
-615.97119140625
 30
0.0
 10
880.42333984375
 20
-616.1669921875
 30
0.0
 10
879.982421875
 20
-616.111328125
 30
0.0
 10
878.38232421875
 20
-615.9091796875
 30
0.0
 10
877.01123046875
 20
-614.54150390625
 30
0.0
 10
876.10791015625
 20
-613.20556640625
 30
0.0
 10
875.00390625
 20
-611.57275390625
 30
0.0
 10
874.57568359375
 20
-609.458984375
 30
0.0
 10
874.57568359375
 20
-607.48828125
 30
0.0
 10
874.57568359375
 20
-605.123046875
 30
0.0
 10
875.15673828125
 20
-602.63037109375
 30
0.0
 10
876.4140625
 20
-600.62744140625
 30
0.0
 10
877.66015625
 20
-598.642578125
 30
0.0
 10
879.72119140625
 20
-597.2158203125
 30
0.0
 10
881.74365234375
 20
-596.033203125
 30
0.0
 10
882.44189453125
 20
-595.625
 30
0.0
 10
883.2314453125
 20
-595.34716796875
 30
0.0
 10
884.0283203125
 20
-595.20751953125
 30
0.0
 10
884.4345703125
 20
-595.13671875
 30
0.0
 10
884.974609375
 20
-594.916015625
 30
0.0
 10
885.2666015625
 20
-595.20751953125
 30
0.0
 10
885.4609375
 20
-595.40185546875
 30
0.0
 10
885.33740234375
 20
-595.767578125
 30
0.0
 10
885.2666015625
 20
-596.033203125
 30
0.0
  0
SPLINE
  5
D0
330
1F
100
AcDbEntity
  8
LAYER_1
 62
   250
100
AcDbSpline
210
0.0
220
0.0
230
1.0
 70
    11
 71
     3
 72
    32
 73
    28
 74
     0
 42
0.0000000001
 43
0.0000000001
 40
0.0
 40
0.0
 40
0.0
 40
0.0
 40
1.0
 40
1.0
 40
1.0
 40
2.0
 40
2.0
 40
2.0
 40
3.0
 40
3.0
 40
3.0
 40
4.0
 40
4.0
 40
4.0
 40
5.0
 40
5.0
 40
5.0
 40
6.0
 40
6.0
 40
6.0
 40
7.0
 40
7.0
 40
7.0
 40
8.0
 40
8.0
 40
8.0
 40
9.0
 40
9.0
 40
9.0
 40
9.0
 10
918.35595703125
 20
-578.8662109375
 30
0.0
 10
917.95947265625
 20
-580.904296875
 30
0.0
 10
916.01708984375
 20
-582.5693359375
 30
0.0
 10
916.01708984375
 20
-584.6455078125
 30
0.0
 10
916.01708984375
 20
-586.7216796875
 30
0.0
 10
919.37841796875
 20
-588.61767578125
 30
0.0
 10
918.35595703125
 20
-590.4248046875
 30
0.0
 10
917.48828125
 20
-591.958984375
 30
0.0
 10
914.8876953125
 20
-591.3427734375
 30
0.0
 10
913.12744140625
 20
-591.25048828125
 30
0.0
 10
910.37158203125
 20
-591.10546875
 30
0.0
 10
907.07421875
 20
-591.056640625
 30
0.0
 10
905.123046875
 20
-589.10546875
 30
0.0
 10
904.00830078125
 20
-587.99072265625
 30
0.0
 10
903.4384765625
 20
-586.04052734375
 30
0.0
 10
903.8974609375
 20
-584.53173828125
 30
0.0
 10
904.58984375
 20
-582.255859375
 30
0.0
 10
907.17578125
 20
-580.94921875
 30
0.0
 10
909.2744140625
 20
-579.82958984375
 30
0.0
 10
911.361328125
 20
-578.71630859375
 30
0.0
 10
913.77197265625
 20
-578.0849609375
 30
0.0
 10
916.13525390625
 20
-577.9912109375
 30
0.0
 10
916.88671875
 20
-577.96142578125
 30
0.0
 10
917.875
 20
-577.8232421875
 30
0.0
 10
918.35595703125
 20
-578.4013671875
 30
0.0
 10
918.455078125
 20
-578.5205078125
 30
0.0
 10
918.3857421875
 20
-578.71435546875
 30
0.0
 10
918.35595703125
 20
-578.8662109375
 30
0.0
  0
SPLINE
  5
D1
330
1F
100
AcDbEntity
  8
LAYER_1
 62
   250
100
AcDbSpline
210
0.0
220
0.0
230
1.0
 70
    11
 71
     3
 72
    35
 73
    31
 74
     0
 42
0.0000000001
 43
0.0000000001
 40
0.0
 40
0.0
 40
0.0
 40
0.0
 40
1.0
 40
1.0
 40
1.0
 40
2.0
 40
2.0
 40
2.0
 40
3.0
 40
3.0
 40
3.0
 40
4.0
 40
4.0
 40
4.0
 40
5.0
 40
5.0
 40
5.0
 40
6.0
 40
6.0
 40
6.0
 40
7.0
 40
7.0
 40
7.0
 40
8.0
 40
8.0
 40
8.0
 40
9.0
 40
9.0
 40
9.0
 40
10.0
 40
10.0
 40
10.0
 40
10.0
 10
929.37451171875
 20
-611.28466796875
 30
0.0
 10
930.4560546875
 20
-612.99072265625
 30
0.0
 10
928.72265625
 20
-615.32177734375
 30
0.0
 10
928.9091796875
 20
-617.3330078125
 30
0.0
 10
929.1015625
 20
-619.40673828125
 30
0.0
 10
929.85498046875
 20
-621.4033203125
 30
0.0
 10
930.52783203125
 20
-623.37451171875
 30
0.0
 10
930.98486328125
 20
-624.7119140625
 30
0.0
 10
932.439453125
 20
-625.9033203125
 30
0.0
 10
932.166015625
 20
-627.28955078125
 30
0.0
 10
931.96484375
 20
-628.3115234375
 30
0.0
 10
930.99072265625
 20
-629.39306640625
 30
0.0
 10
929.955078125
 20
-629.5009765625
 30
0.0
 10
928.1064453125
 20
-629.693359375
 30
0.0
 10
926.55810546875
 20
-627.8017578125
 30
0.0
 10
925.2802734375
 20
-626.4521484375
 30
0.0
 10
924.2060546875
 20
-625.318359375
 30
0.0
 10
923.33935546875
 20
-623.89892578125
 30
0.0
 10
922.93505859375
 20
-622.39013671875
 30
0.0
 10
922.39599609375
 20
-620.37841796875
 30
0.0
 10
922.5703125
 20
-618.18603515625
 30
0.0
 10
922.93505859375
 20
-616.1357421875
 30
0.0
 10
923.18994140625
 20
-614.701171875
 30
0.0
 10
923.4716796875
 20
-613.115234375
 30
0.0
 10
924.44287109375
 20
-612.029296875
 30
0.0
 10
925.181640625
 20
-611.20263671875
 30
0.0
 10
926.3134765625
 20
-610.595703125
 30
0.0
 10
927.42041015625
 20
-610.54052734375
 30
0.0
 10
928.11572265625
 20
-610.505859375
 30
0.0
 10
929.001953125
 20
-610.69677734375
 30
0.0
 10
929.37451171875
 20
-611.28466796875
 30
0.0
  0
SPLINE
  5
D2
330
1F
100
AcDbEntity
  8
LAYER_1
 62
   250
100
AcDbSpline
210
0.0
220
0.0
230
1.0
 70
    11
 71
     3
 72
    35
 73
    31
 74
     0
 42
0.0000000001
 43
0.0000000001
 40
0.0
 40
0.0
 40
0.0
 40
0.0
 40
1.0
 40
1.0
 40
1.0
 40
2.0
 40
2.0
 40
2.0
 40
3.0
 40
3.0
 40
3.0
 40
4.0
 40
4.0
 40
4.0
 40
5.0
 40
5.0
 40
5.0
 40
6.0
 40
6.0
 40
6.0
 40
7.0
 40
7.0
 40
7.0
 40
8.0
 40
8.0
 40
8.0
 40
9.0
 40
9.0
 40
9.0
 40
10.0
 40
10.0
 40
10.0
 40
10.0
 10
934.443359375
 20
-610.14404296875
 30
0.0
 10
934.36328125
 20
-611.8583984375
 30
0.0
 10
936.576171875
 20
-612.9501953125
 30
0.0
 10
937.0205078125
 20
-614.6083984375
 30
0.0
 10
937.46484375
 20
-616.2666015625
 30
0.0
 10
937.39501953125
 20
-618.087890625
 30
0.0
 10
937.0205078125
 20
-619.76318359375
 30
0.0
 10
936.66796875
 20
-621.34033203125
 30
0.0
 10
934.55029296875
 20
-622.58935546875
 30
0.0
 10
934.95458984375
 20
-624.15380859375
 30
0.0
 10
935.1435546875
 20
-624.8857421875
 30
0.0
 10
936.07568359375
 20
-625.25048828125
 30
0.0
 10
936.79541015625
 20
-625.4833984375
 30
0.0
 10
937.88427734375
 20
-625.83544921875
 30
0.0
 10
939.1748046875
 20
-625.92138671875
 30
0.0
 10
940.23193359375
 20
-625.4833984375
 30
0.0
 10
941.81787109375
 20
-624.826171875
 30
0.0
 10
943.22021484375
 20
-623.423828125
 30
0.0
 10
943.876953125
 20
-621.837890625
 30
0.0
 10
944.9716796875
 20
-619.19482421875
 30
0.0
 10
945.2724609375
 20
-615.744140625
 30
0.0
 10
943.876953125
 20
-613.24658203125
 30
0.0
 10
942.91650390625
 20
-611.5263671875
 30
0.0
 10
940.6923828125
 20
-610.8154296875
 30
0.0
 10
938.84033203125
 20
-610.14404296875
 30
0.0
 10
937.5791015625
 20
-609.6865234375
 30
0.0
 10
936.08544921875
 20
-609.0380859375
 30
0.0
 10
934.8525390625
 20
-609.56689453125
 30
0.0
 10
934.6357421875
 20
-609.65966796875
 30
0.0
 10
934.4541015625
 20
-609.90869140625
 30
0.0
 10
934.443359375
 20
-610.14404296875
 30
0.0
  0
SPLINE
  5
D3
330
1F
100
AcDbEntity
  8
LAYER_1
 62
   250
100
AcDbSpline
210
0.0
220
0.0
230
1.0
 70
    11
 71
     3
 72
    29
 73
    25
 74
     0
 42
0.0000000001
 43
0.0000000001
 40
0.0
 40
0.0
 40
0.0
 40
0.0
 40
1.0
 40
1.0
 40
1.0
 40
2.0
 40
2.0
 40
2.0
 40
3.0
 40
3.0
 40
3.0
 40
4.0
 40
4.0
 40
4.0
 40
5.0
 40
5.0
 40
5.0
 40
6.0
 40
6.0
 40
6.0
 40
7.0
 40
7.0
 40
7.0
 40
8.0
 40
8.0
 40
8.0
 40
8.0
 10
921.43115234375
 20
-624.75
 30
0.0
 10
919.53759765625
 20
-623.61376953125
 30
0.0
 10
917.59326171875
 20
-622.85302734375
 30
0.0
 10
915.59912109375
 20
-622.4697265625
 30
0.0
 10
913.27294921875
 20
-622.0224609375
 30
0.0
 10
910.47998046875
 20
-620.5146484375
 30
0.0
 10
908.55322265625
 20
-622.4697265625
 30
0.0
 10
907.49658203125
 20
-623.5419921875
 30
0.0
 10
907.0986328125
 20
-625.88623046875
 30
0.0
 10
907.2060546875
 20
-627.7587890625
 30
0.0
 10
907.2900390625
 20
-629.2216796875
 30
0.0
 10
907.8896484375
 20
-630.73974609375
 30
0.0
 10
908.7158203125
 20
-631.5771484375
 30
0.0
 10
910.1142578125
 20
-632.9951171875
 30
0.0
 10
912.07177734375
 20
-633.16162109375
 30
0.0
 10
913.7578125
 20
-632.8154296875
 30
0.0
 10
915.33154296875
 20
-632.4921875
 30
0.0
 10
916.76611328125
 20
-631.14892578125
 30
0.0
 10
918.0634765625
 20
-629.80859375
 30
0.0
 10
919.37646484375
 20
-628.4521484375
 30
0.0
 10
921.4794921875
 20
-627.16943359375
 30
0.0
 10
921.4794921875
 20
-624.8203125
 30
0.0
 10
921.4794921875
 20
-624.7861328125
 30
0.0
 10
921.4462890625
 20
-624.77197265625
 30
0.0
 10
921.43115234375
 20
-624.75
 30
0.0
  0
SPLINE
  5
D4
330
1F
100
AcDbEntity
  8
LAYER_1
 62
   250
100
AcDbSpline
210
0.0
220
0.0
230
1.0
 70
    11
 71
     3
 72
    38
 73
    34
 74
     0
 42
0.0000000001
 43
0.0000000001
 40
0.0
 40
0.0
 40
0.0
 40
0.0
 40
1.0
 40
1.0
 40
1.0
 40
2.0
 40
2.0
 40
2.0
 40
3.0
 40
3.0
 40
3.0
 40
4.0
 40
4.0
 40
4.0
 40
5.0
 40
5.0
 40
5.0
 40
6.0
 40
6.0
 40
6.0
 40
7.0
 40
7.0
 40
7.0
 40
8.0
 40
8.0
 40
8.0
 40
9.0
 40
9.0
 40
9.0
 40
10.0
 40
10.0
 40
10.0
 40
11.0
 40
11.0
 40
11.0
 40
11.0
 10
898.599609375
 20
-613.4560546875
 30
0.0
 10
896.22509765625
 20
-615.0830078125
 30
0.0
 10
894.4677734375
 20
-616.94140625
 30
0.0
 10
893.3271484375
 20
-619.09765625
 30
0.0
 10
891.90869140625
 20
-621.77978515625
 30
0.0
 10
891.4501953125
 20
-624.84814453125
 30
0.0
 10
891.63232421875
 20
-627.76904296875
 30
0.0
 10
891.85302734375
 20
-631.31298828125
 30
0.0
 10
892.1494140625
 20
-635.388671875
 30
0.0
 10
894.98681640625
 20
-638.06298828125
 30
0.0
 10
897.275390625
 20
-640.220703125
 30
0.0
 10
902.22509765625
 20
-639.3212890625
 30
0.0
 10
904.6259765625
 20
-641.39501953125
 30
0.0
 10
905.1318359375
 20
-641.83203125
 30
0.0
 10
905.80029296875
 20
-642.60400390625
 30
0.0
 10
905.37939453125
 20
-643.09814453125
 30
0.0
 10
903.5224609375
 20
-645.2783203125
 30
0.0
 10
898.64892578125
 20
-644.11669921875
 30
0.0
 10
895.658203125
 20
-643.09814453125
 30
0.0
 10
892.16943359375
 20
-641.91015625
 30
0.0
 10
889.08447265625
 20
-639.37353515625
 30
0.0
 10
887.63916015625
 20
-636.50439453125
 30
0.0
 10
885.78125
 20
-632.81591796875
 30
0.0
 10
887.4150390625
 20
-628.50341796875
 30
0.0
 10
887.63916015625
 20
-624.51513671875
 30
0.0
 10
887.833984375
 20
-621.05029296875
 30
0.0
 10
886.2265625
 20
-616.88671875
 30
0.0
 10
888.8076171875
 20
-614.14306640625
 30
0.0
 10
890.27587890625
 20
-612.58154296875
 30
0.0
 10
893.19140625
 20
-612.00830078125
 30
0.0
 10
895.5869140625
 20
-612.1298828125
 30
0.0
 10
896.7099609375
 20
-612.18701171875
 30
0.0
 10
897.59375
 20
-612.96826171875
 30
0.0
 10
898.599609375
 20
-613.4560546875
 30
0.0
  0
SPLINE
  5
D5
330
1F
100
AcDbEntity
  8
LAYER_1
 62
   250
100
AcDbSpline
210
0.0
220
0.0
230
1.0
 70
    11
 71
     3
 72
   473
 73
   469
 74
     0
 42
0.0000000001
 43
0.0000000001
 40
0.0
 40
0.0
 40
0.0
 40
0.0
 40
1.0
 40
1.0
 40
1.0
 40
2.0
 40
2.0
 40
2.0
 40
3.0
 40
3.0
 40
3.0
 40
4.0
 40
4.0
 40
4.0
 40
5.0
 40
5.0
 40
5.0
 40
6.0
 40
6.0
 40
6.0
 40
7.0
 40
7.0
 40
7.0
 40
8.0
 40
8.0
 40
8.0
 40
9.0
 40
9.0
 40
9.0
 40
10.0
 40
10.0
 40
10.0
 40
11.0
 40
11.0
 40
11.0
 40
12.0
 40
12.0
 40
12.0
 40
13.0
 40
13.0
 40
13.0
 40
14.0
 40
14.0
 40
14.0
 40
15.0
 40
15.0
 40
15.0
 40
16.0
 40
16.0
 40
16.0
 40
17.0
 40
17.0
 40
17.0
 40
18.0
 40
18.0
 40
18.0
 40
19.0
 40
19.0
 40
19.0
 40
20.0
 40
20.0
 40
20.0
 40
21.0
 40
21.0
 40
21.0
 40
22.0
 40
22.0
 40
22.0
 40
23.0
 40
23.0
 40
23.0
 40
24.0
 40
24.0
 40
24.0
 40
25.0
 40
25.0
 40
25.0
 40
26.0
 40
26.0
 40
26.0
 40
27.0
 40
27.0
 40
27.0
 40
28.0
 40
28.0
 40
28.0
 40
29.0
 40
29.0
 40
29.0
 40
30.0
 40
30.0
 40
30.0
 40
31.0
 40
31.0
 40
31.0
 40
32.0
 40
32.0
 40
32.0
 40
33.0
 40
33.0
 40
33.0
 40
34.0
 40
34.0
 40
34.0
 40
35.0
 40
35.0
 40
35.0
 40
36.0
 40
36.0
 40
36.0
 40
37.0
 40
37.0
 40
37.0
 40
38.0
 40
38.0
 40
38.0
 40
39.0
 40
39.0
 40
39.0
 40
40.0
 40
40.0
 40
40.0
 40
41.0
 40
41.0
 40
41.0
 40
42.0
 40
42.0
 40
42.0
 40
43.0
 40
43.0
 40
43.0
 40
44.0
 40
44.0
 40
44.0
 40
45.0
 40
45.0
 40
45.0
 40
46.0
 40
46.0
 40
46.0
 40
47.0
 40
47.0
 40
47.0
 40
48.0
 40
48.0
 40
48.0
 40
49.0
 40
49.0
 40
49.0
 40
50.0
 40
50.0
 40
50.0
 40
51.0
 40
51.0
 40
51.0
 40
52.0
 40
52.0
 40
52.0
 40
53.0
 40
53.0
 40
53.0
 40
54.0
 40
54.0
 40
54.0
 40
55.0
 40
55.0
 40
55.0
 40
56.0
 40
56.0
 40
56.0
 40
57.0
 40
57.0
 40
57.0
 40
58.0
 40
58.0
 40
58.0
 40
59.0
 40
59.0
 40
59.0
 40
60.0
 40
60.0
 40
60.0
 40
61.0
 40
61.0
 40
61.0
 40
62.0
 40
62.0
 40
62.0
 40
63.0
 40
63.0
 40
63.0
 40
64.0
 40
64.0
 40
64.0
 40
65.0
 40
65.0
 40
65.0
 40
66.0
 40
66.0
 40
66.0
 40
67.0
 40
67.0
 40
67.0
 40
68.0
 40
68.0
 40
68.0
 40
69.0
 40
69.0
 40
69.0
 40
70.0
 40
70.0
 40
70.0
 40
71.0
 40
71.0
 40
71.0
 40
72.0
 40
72.0
 40
72.0
 40
73.0
 40
73.0
 40
73.0
 40
74.0
 40
74.0
 40
74.0
 40
75.0
 40
75.0
 40
75.0
 40
76.0
 40
76.0
 40
76.0
 40
77.0
 40
77.0
 40
77.0
 40
78.0
 40
78.0
 40
78.0
 40
79.0
 40
79.0
 40
79.0
 40
80.0
 40
80.0
 40
80.0
 40
81.0
 40
81.0
 40
81.0
 40
82.0
 40
82.0
 40
82.0
 40
83.0
 40
83.0
 40
83.0
 40
84.0
 40
84.0
 40
84.0
 40
85.0
 40
85.0
 40
85.0
 40
86.0
 40
86.0
 40
86.0
 40
87.0
 40
87.0
 40
87.0
 40
88.0
 40
88.0
 40
88.0
 40
89.0
 40
89.0
 40
89.0
 40
90.0
 40
90.0
 40
90.0
 40
91.0
 40
91.0
 40
91.0
 40
92.0
 40
92.0
 40
92.0
 40
93.0
 40
93.0
 40
93.0
 40
94.0
 40
94.0
 40
94.0
 40
95.0
 40
95.0
 40
95.0
 40
96.0
 40
96.0
 40
96.0
 40
97.0
 40
97.0
 40
97.0
 40
98.0
 40
98.0
 40
98.0
 40
99.0
 40
99.0
 40
99.0
 40
100.0
 40
100.0
 40
100.0
 40
101.0
 40
101.0
 40
101.0
 40
102.0
 40
102.0
 40
102.0
 40
103.0
 40
103.0
 40
103.0
 40
104.0
 40
104.0
 40
104.0
 40
105.0
 40
105.0
 40
105.0
 40
106.0
 40
106.0
 40
106.0
 40
107.0
 40
107.0
 40
107.0
 40
108.0
 40
108.0
 40
108.0
 40
109.0
 40
109.0
 40
109.0
 40
110.0
 40
110.0
 40
110.0
 40
111.0
 40
111.0
 40
111.0
 40
112.0
 40
112.0
 40
112.0
 40
113.0
 40
113.0
 40
113.0
 40
114.0
 40
114.0
 40
114.0
 40
115.0
 40
115.0
 40
115.0
 40
116.0
 40
116.0
 40
116.0
 40
117.0
 40
117.0
 40
117.0
 40
118.0
 40
118.0
 40
118.0
 40
119.0
 40
119.0
 40
119.0
 40
120.0
 40
120.0
 40
120.0
 40
121.0
 40
121.0
 40
121.0
 40
122.0
 40
122.0
 40
122.0
 40
123.0
 40
123.0
 40
123.0
 40
124.0
 40
124.0
 40
124.0
 40
125.0
 40
125.0
 40
125.0
 40
126.0
 40
126.0
 40
126.0
 40
127.0
 40
127.0
 40
127.0
 40
128.0
 40
128.0
 40
128.0
 40
129.0
 40
129.0
 40
129.0
 40
130.0
 40
130.0
 40
130.0
 40
131.0
 40
131.0
 40
131.0
 40
132.0
 40
132.0
 40
132.0
 40
133.0
 40
133.0
 40
133.0
 40
134.0
 40
134.0
 40
134.0
 40
135.0
 40
135.0
 40
135.0
 40
136.0
 40
136.0
 40
136.0
 40
137.0
 40
137.0
 40
137.0
 40
138.0
 40
138.0
 40
138.0
 40
139.0
 40
139.0
 40
139.0
 40
140.0
 40
140.0
 40
140.0
 40
141.0
 40
141.0
 40
141.0
 40
142.0
 40
142.0
 40
142.0
 40
143.0
 40
143.0
 40
143.0
 40
144.0
 40
144.0
 40
144.0
 40
145.0
 40
145.0
 40
145.0
 40
146.0
 40
146.0
 40
146.0
 40
147.0
 40
147.0
 40
147.0
 40
148.0
 40
148.0
 40
148.0
 40
149.0
 40
149.0
 40
149.0
 40
150.0
 40
150.0
 40
150.0
 40
151.0
 40
151.0
 40
151.0
 40
152.0
 40
152.0
 40
152.0
 40
153.0
 40
153.0
 40
153.0
 40
154.0
 40
154.0
 40
154.0
 40
155.0
 40
155.0
 40
155.0
 40
156.0
 40
156.0
 40
156.0
 40
156.0
 10
860.58984375
 20
-817.935546875
 30
0.0
 10
858.6416015625
 20
-818.4453125
 30
0.0
 10
856.14892578125
 20
-817.49169921875
 30
0.0
 10
854.6015625
 20
-818.78076171875
 30
0.0
 10
852.986328125
 20
-820.12646484375
 30
0.0
 10
852.66796875
 20
-822.6689453125
 30
0.0
 10
852.60546875
 20
-824.7705078125
 30
0.0
 10
852.56982421875
 20
-825.9521484375
 30
0.0
 10
852.93310546875
 20
-827.1767578125
 30
0.0
 10
853.5244140625
 20
-828.20068359375
 30
0.0
 10
854.70703125
 20
-830.2490234375
 30
0.0
 10
856.447265625
 20
-832.13427734375
 30
0.0
 10
858.546875
 20
-833.22314453125
 30
0.0
 10
860.7451171875
 20
-834.36328125
 30
0.0
 10
863.40087890625
 20
-834.3671875
 30
0.0
 10
865.87353515625
 20
-834.4912109375
 30
0.0
 10
868.67138671875
 20
-834.6318359375
 30
0.0
 10
872.1015625
 20
-832.11376953125
 30
0.0
 10
874.2646484375
 20
-833.89404296875
 30
0.0
 10
876.54443359375
 20
-835.7705078125
 30
0.0
 10
874.8388671875
 20
-839.7861328125
 30
0.0
 10
875.3466796875
 20
-842.6953125
 30
0.0
 10
876.1884765625
 20
-847.52001953125
 30
0.0
 10
877.01513671875
 20
-852.40478515625
 30
0.0
 10
878.6015625
 20
-857.03857421875
 30
0.0
 10
880.5673828125
 20
-862.77880859375
 30
0.0
 10
883.20556640625
 20
-868.3349609375
 30
0.0
 10
886.30712890625
 20
-873.55029296875
 30
0.0
 10
887.9521484375
 20
-876.31640625
 30
0.0
 10
889.65087890625
 20
-879.1796875
 30
0.0
 10
892.05126953125
 20
-881.32373046875
 30
0.0
 10
893.521484375
 20
-882.63671875
 30
0.0
 10
895.20751953125
 20
-884.22412109375
 30
0.0
 10
897.177734375
 20
-884.283203125
 30
0.0
 10
898.20166015625
 20
-884.3134765625
 30
0.0
 10
899.05712890625
 20
-883.4443359375
 30
0.0
 10
899.9296875
 20
-882.9072265625
 30
0.0
 10
901.0087890625
 20
-882.24267578125
 30
0.0
 10
902.2705078125
 20
-881.6826171875
 30
0.0
 10
902.982421875
 20
-880.6337890625
 30
0.0
 10
904.75341796875
 20
-878.0244140625
 30
0.0
 10
904.8818359375
 20
-874.59130859375
 30
0.0
 10
905.43359375
 20
-871.486328125
 30
0.0
 10
906.50390625
 20
-865.4619140625
 30
0.0
 10
906.16015625
 20
-859.234375
 30
0.0
 10
907.08447265625
 20
-853.185546875
 30
0.0
 10
907.83984375
 20
-848.2431640625
 30
0.0
 10
909.08740234375
 20
-843.37060546875
 30
0.0
 10
910.26416015625
 20
-838.51123046875
 30
0.0
 10
910.54248046875
 20
-837.36181640625
 30
0.0
 10
910.9931640625
 20
-836.248046875
 30
0.0
 10
911.18310546875
 20
-835.08056640625
 30
0.0
 10
911.5703125
 20
-832.703125
 30
0.0
 10
911.0322265625
 20
-830.19482421875
 30
0.0
 10
911.62353515625
 20
-827.859375
 30
0.0
 10
912.18701171875
 20
-825.6337890625
 30
0.0
 10
912.712890625
 20
-823.0107421875
 30
0.0
 10
914.52978515625
 20
-821.60693359375
 30
0.0
 10
915.8271484375
 20
-820.60498046875
 30
0.0
 10
917.77197265625
 20
-820.3740234375
 30
0.0
 10
919.373046875
 20
-820.7265625
 30
0.0
 10
921.61376953125
 20
-821.21923828125
 30
0.0
 10
923.3330078125
 20
-823.123046875
 30
0.0
 10
925.00927734375
 20
-824.689453125
 30
0.0
 10
926.93896484375
 20
-826.49267578125
 30
0.0
 10
927.6162109375
 20
-829.71630859375
 30
0.0
 10
930.0
 20
-830.853515625
 30
0.0
 10
931.0673828125
 20
-831.36279296875
 30
0.0
 10
932.4912109375
 20
-831.3779296875
 30
0.0
 10
933.55126953125
 20
-830.853515625
 30
0.0
 10
934.8828125
 20
-830.1953125
 30
0.0
 10
935.392578125
 20
-828.51513671875
 30
0.0
 10
936.2587890625
 20
-827.30859375
 30
0.0
 10
937.51220703125
 20
-825.56201171875
 30
0.0
 10
939.01416015625
 20
-823.92822265625
 30
0.0
 10
939.86572265625
 20
-821.9541015625
 30
0.0
 10
940.71142578125
 20
-819.99365234375
 30
0.0
 10
941.1123046875
 20
-817.82763671875
 30
0.0
 10
941.2744140625
 20
-815.6982421875
 30
0.0
 10
941.56982421875
 20
-811.822265625
 30
0.0
 10
940.36328125
 20
-807.93896484375
 30
0.0
 10
940.4638671875
 20
-804.052734375
 30
0.0
 10
940.48681640625
 20
-803.16259765625
 30
0.0
 10
940.1806640625
 20
-802.0498046875
 30
0.0
 10
940.787109375
 20
-801.39794921875
 30
0.0
 10
941.3310546875
 20
-800.8125
 30
0.0
 10
942.36669921875
 20
-800.7412109375
 30
0.0
 10
943.1416015625
 20
-800.93603515625
 30
0.0
 10
944.10546875
 20
-801.1787109375
 30
0.0
 10
944.7880859375
 20
-802.087890625
 30
0.0
 10
945.4501953125
 20
-802.8291015625
 30
0.0
 10
946.072265625
 20
-803.525390625
 30
0.0
 10
946.4150390625
 20
-804.435546875
 30
0.0
 10
946.9736328125
 20
-805.18359375
 30
0.0
 10
947.55322265625
 20
-805.9599609375
 30
0.0
 10
947.89794921875
 20
-807.3837890625
 30
0.0
 10
948.8662109375
 20
-807.392578125
 30
0.0
 10
952.1767578125
 20
-807.42236328125
 30
0.0
 10
952.27294921875
 20
-800.81689453125
 30
0.0
 10
955.47119140625
 20
-799.9619140625
 30
0.0
 10
956.31103515625
 20
-799.73779296875
 30
0.0
 10
957.3759765625
 20
-800.1328125
 30
0.0
 10
957.94775390625
 20
-800.78759765625
 30
0.0
 10
958.8896484375
 20
-801.8671875
 30
0.0
 10
959.166015625
 20
-803.646484375
 30
0.0
 10
958.74267578125
 20
-805.01513671875
 30
0.0
 10
958.16064453125
 20
-806.8984375
 30
0.0
 10
955.54296875
 20
-807.49365234375
 30
0.0
 10
954.5576171875
 20
-809.2001953125
 30
0.0
 10
953.375
 20
-811.2490234375
 30
0.0
 10
953.07080078125
 20
-813.72216796875
 30
0.0
 10
952.71875
 20
-816.06103515625
 30
0.0
 10
951.97607421875
 20
-821.00341796875
 30
0.0
 10
951.2529296875
 20
-826.146484375
 30
0.0
 10
952.1689453125
 20
-831.0595703125
 30
0.0
 10
952.54296875
 20
-833.0693359375
 30
0.0
 10
952.8818359375
 20
-835.576171875
 30
0.0
 10
954.5888671875
 20
-836.701171875
 30
0.0
 10
955.9052734375
 20
-837.56884765625
 30
0.0
 10
957.9091796875
 20
-837.3974609375
 30
0.0
 10
959.32373046875
 20
-836.701171875
 30
0.0
 10
962.0205078125
 20
-835.373046875
 30
0.0
 10
962.40966796875
 20
-831.33203125
 30
0.0
 10
964.82763671875
 20
-829.5458984375
 30
0.0
 10
967.4638671875
 20
-827.59912109375
 30
0.0
 10
970.78857421875
 20
-825.7578125
 30
0.0
 10
974.046875
 20
-826.10595703125
 30
0.0
 10
978.234375
 20
-826.55322265625
 30
0.0
 10
981.7861328125
 20
-829.8837890625
 30
0.0
 10
984.6943359375
 20
-832.9296875
 30
0.0
 10
987.9609375
 20
-836.3515625
 30
0.0
 10
990.10791015625
 20
-840.8134765625
 30
0.0
 10
991.79736328125
 20
-845.232421875
 30
0.0
 10
993.8701171875
 20
-850.65478515625
 30
0.0
 10
993.8759765625
 20
-856.68603515625
 30
0.0
 10
995.375
 20
-862.29443359375
 30
0.0
 10
996.470703125
 20
-866.39697265625
 30
0.0
 10
996.25
 20
-871.49560546875
 30
0.0
 10
999.33203125
 20
-874.416015625
 30
0.0
 10
1000.4765625
 20
-875.5009765625
 30
0.0
 10
1002.35888671875
 20
-875.94677734375
 30
0.0
 10
1003.90625
 20
-875.6416015625
 30
0.0
 10
1006.27978515625
 20
-875.173828125
 30
0.0
 10
1007.947265625
 20
-872.921875
 30
0.0
 10
1009.68505859375
 20
-871.23828125
 30
0.0
 10
1011.7685546875
 20
-869.22021484375
 30
0.0
 10
1014.21142578125
 20
-867.21435546875
 30
0.0
 10
1015.1826171875
 20
-864.48095703125
 30
0.0
 10
1015.7109375
 20
-862.9951171875
 30
0.0
 10
1014.841796875
 20
-861.28515625
 30
0.0
 10
1015.1826171875
 20
-859.74560546875
 30
0.0
 10
1015.3203125
 20
-859.123046875
 30
0.0
 10
1015.69677734375
 20
-858.5751953125
 30
0.0
 10
1015.9912109375
 20
-858.00927734375
 30
0.0
 10
1017.0830078125
 20
-855.9111328125
 30
0.0
 10
1018.6376953125
 20
-854.04296875
 30
0.0
 10
1019.54296875
 20
-851.85791015625
 30
0.0
 10
1020.14599609375
 20
-850.4013671875
 30
0.0
 10
1020.677734375
 20
-848.8583984375
 30
0.0
 10
1020.7685546875
 20
-847.2841796875
 30
0.0
 10
1020.8828125
 20
-845.28662109375
 30
0.0
 10
1019.16259765625
 20
-843.205078125
 30
0.0
 10
1019.8876953125
 20
-841.33984375
 30
0.0
 10
1020.1611328125
 20
-840.6357421875
 30
0.0
 10
1020.9208984375
 20
-840.1103515625
 30
0.0
 10
1021.64892578125
 20
-839.90869140625
 30
0.0
 10
1022.83203125
 20
-839.5810546875
 30
0.0
 10
1024.0732421875
 20
-840.34326171875
 30
0.0
 10
1025.2978515625
 20
-840.4306640625
 30
0.0
 10
1028.05029296875
 20
-840.6259765625
 30
0.0
 10
1031.19482421875
 20
-841.81005859375
 30
0.0
 10
1033.58447265625
 20
-840.4306640625
 30
0.0
 10
1034.9501953125
 20
-839.64208984375
 30
0.0
 10
1035.5439453125
 20
-837.8525390625
 30
0.0
 10
1035.9521484375
 20
-836.32958984375
 30
0.0
 10
1036.8701171875
 20
-832.90283203125
 30
0.0
 10
1038.11181640625
 20
-828.490234375
 30
0.0
 10
1035.9521484375
 20
-825.67529296875
 30
0.0
 10
1034.751953125
 20
-824.11181640625
 30
0.0
 10
1032.0986328125
 20
-824.7841796875
 30
0.0
 10
1030.23486328125
 20
-824.1435546875
 30
0.0
 10
1027.03515625
 20
-823.04296875
 30
0.0
 10
1023.8115234375
 20
-821.86669921875
 30
0.0
 10
1020.8779296875
 20
-820.1806640625
 30
0.0
 10
1015.93505859375
 20
-817.33935546875
 30
0.0
 10
1011.48193359375
 20
-813.65234375
 30
0.0
 10
1007.17333984375
 20
-809.9189453125
 30
0.0
 10
1003.5986328125
 20
-806.82080078125
 30
0.0
 10
1000.88134765625
 20
-802.75390625
 30
0.0
 10
997.12841796875
 20
-799.8740234375
 30
0.0
 10
993.37548828125
 20
-796.994140625
 30
0.0
 10
987.7060546875
 20
-796.52392578125
 30
0.0
 10
984.826171875
 20
-792.77099609375
 30
0.0
 10
983.146484375
 20
-790.58203125
 30
0.0
 10
982.43115234375
 20
-787.51513671875
 30
0.0
 10
982.681640625
 20
-784.76708984375
 30
0.0
 10
982.826171875
 20
-783.17822265625
 30
0.0
 10
983.5771484375
 20
-781.53515625
 30
0.0
 10
984.7373046875
 20
-780.439453125
 30
0.0
 10
992.2880859375
 20
-773.30712890625
 30
0.0
 10
1004.794921875
 20
-774.14697265625
 30
0.0
 10
1013.62744140625
 20
-768.681640625
 30
0.0
 10
1016.79541015625
 20
-766.7216796875
 30
0.0
 10
1019.443359375
 20
-763.97607421875
 30
0.0
 10
1022.02587890625
 20
-761.291015625
 30
0.0
 10
1024.7900390625
 20
-758.4169921875
 30
0.0
 10
1027.0517578125
 20
-755.0830078125
 30
0.0
 10
1029.5810546875
 20
-751.99951171875
 30
0.0
 10
1029.7099609375
 20
-751.8427734375
 30
0.0
 10
1029.98681640625
 20
-751.732421875
 30
0.0
 10
1029.96923828125
 20
-751.53076171875
 30
0.0
 10
1029.62109375
 20
-747.580078125
 30
0.0
 10
1024.525390625
 20
-745.4052734375
 30
0.0
 10
1020.8876953125
 20
-743.8251953125
 30
0.0
 10
1017.73193359375
 20
-742.4541015625
 30
0.0
 10
1014.0654296875
 20
-742.6396484375
 30
0.0
 10
1010.625
 20
-742.62744140625
 30
0.0
 10
1006.4248046875
 20
-742.6123046875
 30
0.0
 10
1002.2802734375
 20
-743.77099609375
 30
0.0
 10
998.0859375
 20
-744.0
 30
0.0
 10
997.6923828125
 20
-744.021484375
 30
0.0
 10
997.18115234375
 20
-744.27880859375
 30
0.0
 10
996.90234375
 20
-744.0
 30
0.0
 10
996.06640625
 20
-743.16357421875
 30
0.0
 10
996.748046875
 20
-741.62109375
 30
0.0
 10
996.90234375
 20
-740.44873046875
 30
0.0
 10
997.365234375
 20
-736.93115234375
 30
0.0
 10
998.0732421875
 20
-733.33056640625
 30
0.0
 10
999.66015625
 20
-730.1572265625
 30
0.0
 10
1001.0966796875
 20
-727.28369140625
 30
0.0
 10
1002.9365234375
 20
-724.3388671875
 30
0.0
 10
1005.61767578125
 20
-722.568359375
 30
0.0
 10
1009.89453125
 20
-719.7451171875
 30
0.0
 10
1015.82470703125
 20
-720.72216796875
 30
0.0
 10
1020.482421875
 20
-718.58544921875
 30
0.0
 10
1024.814453125
 20
-716.59814453125
 30
0.0
 10
1029.4638671875
 20
-714.34716796875
 30
0.0
 10
1032.3076171875
 20
-710.52294921875
 30
0.0
 10
1037.2646484375
 20
-703.85693359375
 30
0.0
 10
1038.56494140625
 20
-694.94873046875
 30
0.0
 10
1039.83251953125
 20
-686.7392578125
 30
0.0
 10
1041.095703125
 20
-678.55810546875
 30
0.0
 10
1042.27734375
 20
-669.78857421875
 30
0.0
 10
1039.83251953125
 20
-661.87939453125
 30
0.0
 10
1038.365234375
 20
-657.1328125
 30
0.0
 10
1035.05712890625
 20
-652.93994140625
 30
0.0
 10
1031.4130859375
 20
-649.56298828125
 30
0.0
 10
1026.78662109375
 20
-645.27587890625
 30
0.0
 10
1020.8369140625
 20
-642.50634765625
 30
0.0
 10
1015.009765625
 20
-640.09228515625
 30
0.0
 10
1013.552734375
 20
-639.4892578125
 30
0.0
 10
1011.6025390625
 20
-639.92822265625
 30
0.0
 10
1010.43603515625
 20
-638.8671875
 30
0.0
 10
1007.8271484375
 20
-636.49365234375
 30
0.0
 10
1009.01904296875
 20
-631.63525390625
 30
0.0
 10
1006.7421875
 20
-628.94189453125
 30
0.0
 10
1003.6884765625
 20
-625.3291015625
 30
0.0
 10
998.9462890625
 20
-623.27783203125
 30
0.0
 10
994.43994140625
 20
-621.8388671875
 30
0.0
 10
988.90380859375
 20
-620.0712890625
 30
0.0
 10
982.87109375
 20
-620.4658203125
 30
0.0
 10
977.06591796875
 20
-620.19091796875
 30
0.0
 10
976.2783203125
 20
-620.15380859375
 30
0.0
 10
975.255859375
 20
-619.6337890625
 30
0.0
 10
974.6982421875
 20
-620.19091796875
 30
0.0
 10
974.00146484375
 20
-620.8876953125
 30
0.0
 10
975.68359375
 20
-623.150390625
 30
0.0
 10
974.6982421875
 20
-623.150390625
 30
0.0
 10
973.12158203125
 20
-623.150390625
 30
0.0
 10
974.904296875
 20
-619.978515625
 30
0.0
 10
974.6982421875
 20
-618.41552734375
 30
0.0
 10
974.18359375
 20
-614.5068359375
 30
0.0
 10
973.60546875
 20
-610.39453125
 30
0.0
 10
971.63427734375
 20
-606.98046875
 30
0.0
 10
970.64892578125
 20
-605.27392578125
 30
0.0
 10
969.4033203125
 20
-603.052734375
 30
0.0
 10
967.44921875
 20
-602.79541015625
 30
0.0
 10
965.10400390625
 20
-602.486328125
 30
0.0
 10
962.97021484375
 20
-604.67431640625
 30
0.0
 10
961.2978515625
 20
-606.3466796875
 30
0.0
 10
960.4619140625
 20
-607.18310546875
 30
0.0
 10
960.66455078125
 20
-609.728515625
 30
0.0
 10
959.5224609375
 20
-609.42236328125
 30
0.0
 10
958.7607421875
 20
-609.21826171875
 30
0.0
 10
959.5224609375
 20
-607.84326171875
 30
0.0
 10
959.5224609375
 20
-607.0546875
 30
0.0
 10
959.5224609375
 20
-603.11279296875
 30
0.0
 10
958.2041015625
 20
-598.93212890625
 30
0.0
 10
959.5224609375
 20
-595.216796875
 30
0.0
 10
961.4111328125
 20
-589.89111328125
 30
0.0
 10
969.037109375
 20
-587.5673828125
 30
0.0
 10
970.21484375
 20
-582.04052734375
 30
0.0
 10
970.9541015625
 20
-578.57080078125
 30
0.0
 10
969.6171875
 20
-574.56396484375
 30
0.0
 10
967.45751953125
 20
-571.74951171875
 30
0.0
 10
964.57763671875
 20
-567.99658203125
 30
0.0
 10
957.6396484375
 20
-568.671875
 30
0.0
 10
955.1552734375
 20
-564.646484375
 30
0.0
 10
950.15234375
 20
-556.541015625
 30
0.0
 10
952.06201171875
 20
-545.51171875
 30
0.0
 10
953.4755859375
 20
-536.091796875
 30
0.0
 10
954.37890625
 20
-530.0712890625
 30
0.0
 10
957.4423828125
 20
-524.5478515625
 30
0.0
 10
959.8583984375
 20
-518.95947265625
 30
0.0
 10
962.80859375
 20
-512.13427734375
 30
0.0
 10
969.025390625
 20
-506.3447265625
 30
0.0
 10
969.7587890625
 20
-498.9453125
 30
0.0
 10
969.9482421875
 20
-497.03564453125
 30
0.0
 10
969.8466796875
 20
-494.66748046875
 30
0.0
 10
968.80615234375
 20
-493.0634765625
 30
0.0
 10
968.80615234375
 20
-493.0634765625
 30
0.0
 10
938.42041015625
 20
-493.0634765625
 30
0.0
 10
938.42041015625
 20
-493.0634765625
 30
0.0
 10
938.42041015625
 20
-493.0634765625
 30
0.0
 10
938.42041015625
 20
-486.26708984375
 30
0.0
 10
938.42041015625
 20
-486.26708984375
 30
0.0
 10
938.42041015625
 20
-486.26708984375
 30
0.0
 10
822.1025390625
 20
-486.26708984375
 30
0.0
 10
822.1025390625
 20
-486.26708984375
 30
0.0
 10
822.1025390625
 20
-486.26708984375
 30
0.0
 10
822.1025390625
 20
-493.0634765625
 30
0.0
 10
822.1025390625
 20
-493.0634765625
 30
0.0
 10
822.1025390625
 20
-493.0634765625
 30
0.0
 10
792.6748046875
 20
-493.0634765625
 30
0.0
 10
792.6748046875
 20
-493.0634765625
 30
0.0
 10
791.734375
 20
-495.53369140625
 30
0.0
 10
791.28515625
 20
-498.22998046875
 30
0.0
 10
791.0986328125
 20
-500.849609375
 30
0.0
 10
790.82470703125
 20
-504.701171875
 30
0.0
 10
790.79541015625
 20
-508.8896484375
 30
0.0
 10
792.48388671875
 20
-512.36181640625
 30
0.0
 10
793.17333984375
 20
-513.7802734375
 30
0.0
 10
795.25634765625
 20
-514.2421875
 30
0.0
 10
795.83203125
 20
-515.71044921875
 30
0.0
 10
797.6943359375
 20
-520.45556640625
 30
0.0
 10
795.62890625
 20
-525.9228515625
 30
0.0
 10
795.25732421875
 20
-531.0068359375
 30
0.0
 10
794.35205078125
 20
-543.396484375
 30
0.0
 10
791.255859375
 20
-555.6708984375
 30
0.0
 10
791.22607421875
 20
-568.09375
 30
0.0
 10
791.2099609375
 20
-574.88427734375
 30
0.0
 10
793.8701171875
 20
-581.607421875
 30
0.0
 10
793.3330078125
 20
-588.37646484375
 30
0.0
 10
793.14599609375
 20
-590.734375
 30
0.0
 10
792.36181640625
 20
-593.03662109375
 30
0.0
 10
791.49462890625
 20
-595.2373046875
 30
0.0
 10
786.81396484375
 20
-607.1201171875
 30
0.0
 10
777.97265625
 20
-617.1416015625
 30
0.0
 10
773.48876953125
 20
-629.099609375
 30
0.0
 10
768.9599609375
 20
-641.17822265625
 30
0.0
 10
766.17626953125
 20
-654.0126953125
 30
0.0
 10
764.7041015625
 20
-666.828125
 30
0.0
 10
764.119140625
 20
-671.91943359375
 30
0.0
 10
769.43896484375
 20
-680.25634765625
 30
0.0
 10
764.7041015625
 20
-682.2177734375
 30
0.0
 10
762.88330078125
 20
-682.9716796875
 30
0.0
 10
761.40869140625
 20
-679.791015625
 30
0.0
 10
760.51904296875
 20
-678.0322265625
 30
0.0
 10
759.2841796875
 20
-675.591796875
 30
0.0
 10
759.70654296875
 20
-672.615234375
 30
0.0
 10
759.2802734375
 20
-669.9140625
 30
0.0
 10
758.783203125
 20
-666.75927734375
 30
0.0
 10
759.55419921875
 20
-663.076171875
 30
0.0
 10
757.73974609375
 20
-660.44775390625
 30
0.0
 10
756.84375
 20
-659.150390625
 30
0.0
 10
755.20849609375
 20
-658.232421875
 30
0.0
 10
753.638671875
 20
-658.080078125
 30
0.0
 10
750.26416015625
 20
-657.7529296875
 30
0.0
 10
746.7841796875
 20
-659.4375
 30
0.0
 10
744.0068359375
 20
-661.3828125
 30
0.0
 10
741.39013671875
 20
-663.2158203125
 30
0.0
 10
739.232421875
 20
-665.9091796875
 30
0.0
 10
737.98095703125
 20
-668.8486328125
 30
0.0
 10
736.83740234375
 20
-671.5341796875
 30
0.0
 10
736.0361328125
 20
-674.75048828125
 30
0.0
 10
736.8798828125
 20
-677.544921875
 30
0.0
 10
737.06201171875
 20
-678.14794921875
 30
0.0
 10
737.5439453125
 20
-678.7138671875
 30
0.0
 10
738.1162109375
 20
-678.97607421875
 30
0.0
 10
739.90869140625
 20
-679.79638671875
 30
0.0
 10
742.1572265625
 20
-678.37841796875
 30
0.0
 10
744.03515625
 20
-678.97607421875
 30
0.0
 10
746.81689453125
 20
-679.86083984375
 30
0.0
 10
749.04248046875
 20
-682.06298828125
 30
0.0
 10
751.1904296875
 20
-684.03955078125
 30
0.0
 10
755.3828125
 20
-687.89794921875
 30
0.0
 10
758.83447265625
 20
-692.5400390625
 30
0.0
 10
762.1982421875
 20
-697.13916015625
 30
0.0
 10
766.7314453125
 20
-703.33642578125
 30
0.0
 10
769.60107421875
 20
-710.73388671875
 30
0.0
 10
774.52734375
 20
-716.623046875
 30
0.0
 10
778.28466796875
 20
-721.115234375
 30
0.0
 10
782.50146484375
 20
-725.4423828125
 30
0.0
 10
787.49267578125
 20
-728.50537109375
 30
0.0
 10
793.20458984375
 20
-732.01123046875
 30
0.0
 10
799.74072265625
 20
-734.38134765625
 30
0.0
 10
806.3349609375
 20
-735.578125
 30
0.0
 10
814.09228515625
 20
-736.986328125
 30
0.0
 10
822.18017578125
 20
-736.49267578125
 30
0.0
 10
830.01123046875
 20
-735.578125
 30
0.0
 10
838.8974609375
 20
-734.5400390625
 30
0.0
 10
847.775390625
 20
-732.521484375
 30
0.0
 10
856.15478515625
 20
-729.38623046875
 30
0.0
 10
864.5771484375
 20
-726.234375
 30
0.0
 10
872.59619140625
 20
-721.841796875
 30
0.0
 10
880.0625
 20
-716.830078125
 30
0.0
 10
884.720703125
 20
-713.70361328125
 30
0.0
 10
887.60986328125
 20
-707.673828125
 30
0.0
 10
892.962890625
 20
-705.994140625
 30
0.0
 10
896.58447265625
 20
-704.85791015625
 30
0.0
 10
900.72900390625
 20
-705.78076171875
 30
0.0
 10
904.314453125
 20
-707.0263671875
 30
0.0
 10
908.44189453125
 20
-708.4599609375
 30
0.0
 10
913.22314453125
 20
-710.3525390625
 30
0.0
 10
915.30419921875
 20
-714.19482421875
 30
0.0
 10
916.994140625
 20
-717.314453125
 30
0.0
 10
915.767578125
 20
-721.33154296875
 30
0.0
 10
915.30419921875
 20
-724.8486328125
 30
0.0
 10
914.73828125
 20
-729.14794921875
 30
0.0
 10
911.93408203125
 20
-733.0908203125
 30
0.0
 10
911.93408203125
 20
-737.4267578125
 30
0.0
 10
911.93408203125
 20
-740.974609375
 30
0.0
 10
916.8515625
 20
-744.9033203125
 30
0.0
 10
914.69140625
 20
-747.71826171875
 30
0.0
 10
913.9716796875
 20
-748.65625
 30
0.0
 10
912.25048828125
 20
-748.125
 30
0.0
 10
911.14013671875
 20
-747.71826171875
 30
0.0
 10
908.90869140625
 20
-746.900390625
 30
0.0
 10
907.79833984375
 20
-744.20947265625
 30
0.0
 10
905.69287109375
 20
-743.107421875
 30
0.0
 10
901.8505859375
 20
-741.09716796875
 30
0.0
 10
897.43115234375
 20
-740.15234375
 30
0.0
 10
893.11474609375
 20
-739.7373046875
 30
0.0
 10
887.3427734375
 20
-739.1826171875
 30
0.0
 10
881.2890625
 20
-739.26171875
 30
0.0
 10
875.744140625
 20
-740.9580078125
 30
0.0
 10
870.08984375
 20
-742.68798828125
 30
0.0
 10
863.32275390625
 20
-744.7158203125
 30
0.0
 10
860.3662109375
 20
-749.8369140625
 30
0.0
 10
860.1689453125
 20
-750.17822265625
 30
0.0
 10
860.2509765625
 20
-750.6435546875
 30
0.0
 10
860.3662109375
 20
-751.0205078125
 30
0.0
 10
861.474609375
 20
-754.65576171875
 30
0.0
 10
863.95751953125
 20
-757.89697265625
 30
0.0
 10
866.7353515625
 20
-760.4912109375
 30
0.0
 10
869.90478515625
 20
-763.4501953125
 30
0.0
 10
874.00634765625
 20
-765.34228515625
 30
0.0
 10
878.0126953125
 20
-767.001953125
 30
0.0
 10
882.3828125
 20
-768.81201171875
 30
0.0
 10
887.09765625
 20
-769.740234375
 30
0.0
 10
891.73388671875
 20
-770.6787109375
 30
0.0
 10
898.23388671875
 20
-771.99365234375
 30
0.0
 10
905.3427734375
 20
-770.8486328125
 30
0.0
 10
911.46044921875
 20
-773.40869140625
 30
0.0
 10
913.43896484375
 20
-774.236328125
 30
0.0
 10
915.6201171875
 20
-775.40869140625
 30
0.0
 10
916.56787109375
 20
-777.33251953125
 30
0.0
 10
916.7421875
 20
-777.68603515625
 30
0.0
 10
916.693359375
 20
-778.142578125
 30
0.0
 10
916.56787109375
 20
-778.51611328125
 30
0.0
 10
914.8154296875
 20
-783.73974609375
 30
0.0
 10
910.46240234375
 20
-787.7958984375
 30
0.0
 10
906.5888671875
 20
-791.7138671875
 30
0.0
 10
900.197265625
 20
-798.177734375
 30
0.0
 10
892.91259765625
 20
-803.94482421875
 30
0.0
 10
885.001953125
 20
-808.42333984375
 30
0.0
 10
877.40966796875
 20
-812.7216796875
 30
0.0
 10
869.0302734375
 20
-815.72705078125
 30
0.0
 10
860.58984375
 20
-817.935546875
 30
0.0
  0
ENDSEC
  0
SECTION
  2
OBJECTS
  0
DICTIONARY
  5
C
330
0
100
AcDbDictionary
  3
ACAD_GROUP
350
D
  3
ACAD_LAYOUT
350
1A
  3
ACAD_MLINESTYLE
350
17
  3
ACAD_PLOTSETTINGS
350
19
  3
ACAD_TABLESTYLE
350
D6
  3
ACAD_VISUALSTYLE
350
2A
1001
ACAD
1000
TREAT_AS_HARD
1070
     0
  0
DICTIONARY
  5
D
102
{ACAD_REACTORS
330
C
102
}
330
C
100
AcDbDictionary
1001
ACAD
1000
TREAT_AS_HARD
1070
     0
  0
DICTIONARY
  5
1A
102
{ACAD_REACTORS
330
C
102
}
330
C
100
AcDbDictionary
1001
ACAD
1000
TREAT_AS_HARD
1070
     0
  0
DICTIONARY
  5
17
102
{ACAD_REACTORS
330
C
102
}
330
C
100
AcDbDictionary
  3
STANDARD
350
18
1001
ACAD
1000
TREAT_AS_HARD
1070
     0
  0
DICTIONARY
  5
19
102
{ACAD_REACTORS
330
C
102
}
330
C
100
AcDbDictionary
1001
ACAD
1000
TREAT_AS_HARD
1070
     0
  0
DICTIONARY
  5
D6
102
{ACAD_REACTORS
330
C
102
}
330
C
100
AcDbDictionary
1001
ACAD
1000
TREAT_AS_HARD
1070
     0
  0
DICTIONARY
  5
2A
102
{ACAD_REACTORS
330
C
102
}
330
C
100
AcDbDictionary
  3
2DWIREFRAME
350
2F
  3
3D_HIDDEN
350
31
  3
3DWIREFRAME
350
30
  3
BASIC
350
32
  3
BRIGHTEN
350
36
  3
COLORCHANGE
350
3A
  3
CONCEPTUAL
350
34
  3
DIM
350
35
  3
FACEPATTERN
350
39
  3
FLAT
350
2B
  3
FLATWITHEDGES
350
2C
  3
GOURAUD
350
2D
  3
GOURAUDWITHEDGES
350
2E
  3
LINEPATTERN
350
38
  3
REALISTIC
350
33
  3
THICKEN
350
37
1001
ACAD
1000
TREAT_AS_HARD
1070
     0
  0
MLINESTYLE
  5
18
102
{ACAD_REACTORS
330
17
102
}
330
17
100
AcDbMlineStyle
  2
Standard
 70
     0
  3

 62
   256
 51
90.0
 52
90.0
 71
     2
 49
0.5
 62
   256
  6
BYLAYER
 49
-0.5
 62
   256
  6
BYLAYER
  0
VISUALSTYLE
  5
2F
102
{ACAD_REACTORS
330
2A
102
}
330
2A
100
AcDbVisualStyle
  2
2dWireframe
 70
     4
 71
     0
 72
     2
 73
     0
 90
        0
 40
-0.6
 41
-30.0
 62
     5
 63
     7
 74
     1
 91
        4
 64
     7
 65
   257
 75
     1
175
     1
 42
1.0
 92
        0
 66
   257
 43
1.0
 76
     1
 77
     6
 78
     2
 67
     7
 79
     5
170
     0
171
     0
290
     0
174
     0
 93
        1
 44
0.0
173
     0
291
     0
 45
0.0
1001
ACAD
1000
AcDbSavedByObjectVersion
1070
     0
  0
VISUALSTYLE
  5
31
102
{ACAD_REACTORS
330
2A
102
}
330
2A
100
AcDbVisualStyle
  2
3D Hidden
 70
     6
 71
     1
 72
     2
 73
     2
 90
        0
 40
-0.6
 41
-30.0
 62
     5
 63
     7
 74
     2
 91
        2
 64
     7
 65
   257
 75
     2
175
     1
 42
40.0
 92
        0
 66
   257
 43
1.0
 76
     1
 77
     6
 78
     2
 67
     7
 79
     3
170
     0
171
     0
290
     0
174
     0
 93
        1
 44
0.0
173
     0
291
     0
 45
0.0
1001
ACAD
1000
AcDbSavedByObjectVersion
1070
     0
  0
VISUALSTYLE
  5
30
102
{ACAD_REACTORS
330
2A
102
}
330
2A
100
AcDbVisualStyle
  2
3dWireframe
 70
     5
 71
     0
 72
     2
 73
     0
 90
        0
 40
-0.6
 41
-30.0
 62
     5
 63
     7
 74
     1
 91
        4
 64
     7
 65
   257
 75
     1
175
     1
 42
1.0
 92
        0
 66
   257
 43
1.0
 76
     1
 77
     6
 78
     2
 67
     7
 79
     5
170
     0
171
     0
290
     0
174
     0
 93
        1
 44
0.0
173
     0
291
     0
 45
0.0
1001
ACAD
1000
AcDbSavedByObjectVersion
1070
     0
  0
VISUALSTYLE
  5
32
102
{ACAD_REACTORS
330
2A
102
}
330
2A
100
AcDbVisualStyle
  2
Basic
 70
     7
 71
     1
 72
     0
 73
     1
 90
        0
 40
-0.6
 41
-30.0
 62
     5
 63
     7
 74
     0
 91
        4
 64
     7
 65
   257
 75
     1
175
     1
 42
1.0
 92
        8
 66
     7
 43
1.0
 76
     1
 77
     6
 78
     2
 67
     7
 79
     5
170
     0
171
     0
290
     0
174
     0
 93
        1
 44
0.0
173
     0
291
     1
 45
0.0
1001
ACAD
1000
AcDbSavedByObjectVersion
1070
     0
  0
VISUALSTYLE
  5
36
102
{ACAD_REACTORS
330
2A
102
}
330
2A
100
AcDbVisualStyle
  2
Brighten
 70
    12
 71
     2
 72
     2
 73
     0
 90
        0
 40
-0.6
 41
-30.0
 62
     5
 63
     7
 74
     1
 91
        4
 64
     7
 65
   257
 75
     1
175
     1
 42
1.0
 92
        8
 66
     7
 43
1.0
 76
     1
 77
     6
 78
     2
 67
     7
 79
     5
170
     0
171
     0
290
     0
174
     0
 93
        1
 44
50.0
173
     0
291
     1
 45
0.0
1001
ACAD
1000
AcDbSavedByObjectVersion
1070
     0
  0
VISUALSTYLE
  5
3A
102
{ACAD_REACTORS
330
2A
102
}
330
2A
100
AcDbVisualStyle
  2
ColorChange
 70
    16
 71
     2
 72
     2
 73
     3
 90
        0
 40
-0.6
 41
-30.0
 62
     5
 63
     8
 74
     1
 91
        4
 64
     7
 65
   257
 75
     1
175
     1
 42
1.0
 92
        8
 66
     8
 43
1.0
 76
     1
 77
     6
 78
     2
 67
     7
 79
     5
170
     0
171
     0
290
     0
174
     0
 93
        1
 44
0.0
173
     0
291
     1
 45
0.0
1001
ACAD
1000
AcDbSavedByObjectVersion
1070
     0
  0
VISUALSTYLE
  5
34
102
{ACAD_REACTORS
330
2A
102
}
330
2A
100
AcDbVisualStyle
  2
Conceptual
 70
     9
 71
     3
 72
     2
 73
     0
 90
        0
 40
-0.6
 41
-30.0
 62
     5
 63
     7
 74
     2
 91
        2
 64
     7
 65
   257
 75
     1
175
     1
 42
40.0
 92
        8
 66
     7
 43
1.0
 76
     1
 77
     6
 78
     2
 67
     7
 79
     3
170
     0
171
     0
290
     0
174
     0
 93
        1
 44
0.0
173
     0
291
     0
 45
0.0
1001
ACAD
1000
AcDbSavedByObjectVersion
1070
     0
  0
VISUALSTYLE
  5
35
102
{ACAD_REACTORS
330
2A
102
}
330
2A
100
AcDbVisualStyle
  2
Dim
 70
    11
 71
     2
 72
     2
 73
     0
 90
        0
 40
-0.6
 41
-30.0
 62
     5
 63
     7
 74
     1
 91
        4
 64
     7
 65
   257
 75
     1
175
     1
 42
1.0
 92
        8
 66
     7
 43
1.0
 76
     1
 77
     6
 78
     2
 67
     7
 79
     5
170
     0
171
     0
290
     0
174
     0
 93
        1
 44
-50.0
173
     0
291
     1
 45
0.0
1001
ACAD
1000
AcDbSavedByObjectVersion
1070
     0
  0
VISUALSTYLE
  5
39
102
{ACAD_REACTORS
330
2A
102
}
330
2A
100
AcDbVisualStyle
  2
Facepattern
 70
    15
 71
     2
 72
     2
 73
     0
 90
        0
 40
-0.6
 41
-30.0
 62
     5
 63
     7
 74
     1
 91
        4
 64
     7
 65
   257
 75
     1
175
     1
 42
1.0
 92
        8
 66
     7
 43
1.0
 76
     1
 77
     6
 78
     2
 67
     7
 79
     5
170
     0
171
     0
290
     0
174
     0
 93
        1
 44
0.0
173
     0
291
     1
 45
0.0
1001
ACAD
1000
AcDbSavedByObjectVersion
1070
     0
  0
VISUALSTYLE
  5
2B
102
{ACAD_REACTORS
330
2A
102
}
330
2A
100
AcDbVisualStyle
  2
Flat
 70
     0
 71
     2
 72
     1
 73
     1
 90
        2
 40
-0.6
 41
30.0
 62
     5
 63
     7
 74
     0
 91
        4
 64
     7
 65
   257
 75
     1
175
     1
 42
1.0
 92
        8
 66
     7
 43
1.0
 76
     1
 77
     6
 78
     2
 67
     7
 79
     5
170
     0
171
     0
290
     0
174
     0
 93
       13
 44
0.0
173
     0
291
     1
 45
0.0
1001
ACAD
1000
AcDbSavedByObjectVersion
1070
     0
  0
VISUALSTYLE
  5
2C
102
{ACAD_REACTORS
330
2A
102
}
330
2A
100
AcDbVisualStyle
  2
FlatWithEdges
 70
     1
 71
     2
 72
     1
 73
     1
 90
        2
 40
-0.6
 41
30.0
 62
     5
 63
     7
 74
     1
 91
        4
 64
     7
 65
   257
 75
     1
175
     1
 42
1.0
 92
        0
 66
   257
 43
1.0
 76
     1
 77
     6
 78
     2
 67
     7
 79
     5
170
     0
171
     0
290
     0
174
     0
 93
       13
 44
0.0
173
     0
291
     1
 45
0.0
1001
ACAD
1000
AcDbSavedByObjectVersion
1070
     0
  0
VISUALSTYLE
  5
2D
102
{ACAD_REACTORS
330
2A
102
}
330
2A
100
AcDbVisualStyle
  2
Gouraud
 70
     2
 71
     2
 72
     2
 73
     1
 90
        2
 40
-0.6
 41
30.0
 62
     5
 63
     7
 74
     0
 91
        4
 64
     7
 65
   257
 75
     1
175
     1
 42
1.0
 92
        0
 66
     7
 43
1.0
 76
     1
 77
     6
 78
     2
 67
     7
 79
     5
170
     0
171
     0
290
     0
174
     0
 93
       13
 44
0.0
173
     0
291
     1
 45
0.0
1001
ACAD
1000
AcDbSavedByObjectVersion
1070
     0
  0
VISUALSTYLE
  5
2E
102
{ACAD_REACTORS
330
2A
102
}
330
2A
100
AcDbVisualStyle
  2
GouraudWithEdges
 70
     3
 71
     2
 72
     2
 73
     1
 90
        2
 40
-0.6
 41
30.0
 62
     5
 63
     7
 74
     1
 91
        4
 64
     7
 65
   257
 75
     1
175
     1
 42
1.0
 92
        0
 66
   257
 43
1.0
 76
     1
 77
     6
 78
     2
 67
     7
 79
     5
170
     0
171
     0
290
     0
174
     0
 93
       13
 44
0.0
173
     0
291
     1
 45
0.0
1001
ACAD
1000
AcDbSavedByObjectVersion
1070
     0
  0
VISUALSTYLE
  5
38
102
{ACAD_REACTORS
330
2A
102
}
330
2A
100
AcDbVisualStyle
  2
Linepattern
 70
    14
 71
     2
 72
     2
 73
     0
 90
        0
 40
-0.6
 41
-30.0
 62
     5
 63
     7
 74
     1
 91
        4
 64
     7
 65
   257
 75
     7
175
     7
 42
1.0
 92
        8
 66
     7
 43
1.0
 76
     1
 77
     6
 78
     2
 67
     7
 79
     5
170
     0
171
     0
290
     0
174
     0
 93
        1
 44
0.0
173
     0
291
     1
 45
0.0
1001
ACAD
1000
AcDbSavedByObjectVersion
1070
     0
  0
VISUALSTYLE
  5
33
102
{ACAD_REACTORS
330
2A
102
}
330
2A
100
AcDbVisualStyle
  2
Realistic
 70
     8
 71
     2
 72
     2
 73
     0
 90
        0
 40
-0.6
 41
-30.0
 62
     5
 63
     7
 74
     1
 91
        0
 64
     7
 65
   257
 75
     1
175
     1
 42
1.0
 92
        8
 66
     8
 43
1.0
 76
     1
 77
     6
 78
     2
 67
     7
 79
     5
170
     0
171
     0
290
     0
174
     0
 93
       13
 44
0.0
173
     0
291
     0
 45
0.0
1001
ACAD
1000
AcDbSavedByObjectVersion
1070
     0
  0
VISUALSTYLE
  5
37
102
{ACAD_REACTORS
330
2A
102
}
330
2A
100
AcDbVisualStyle
  2
Thicken
 70
    13
 71
     2
 72
     2
 73
     0
 90
        0
 40
-0.6
 41
-30.0
 62
     5
 63
     7
 74
     1
 91
        4
 64
     7
 65
   257
 75
     1
175
     1
 42
1.0
 92
       12
 66
     7
 43
1.0
 76
     1
 77
     6
 78
     2
 67
     7
 79
     5
170
     0
171
     0
290
     0
174
     0
 93
        1
 44
0.0
173
     0
291
     1
 45
0.0
1001
ACAD
1000
AcDbSavedByObjectVersion
1070
     0
  0
ENDSEC
  0
EOF
