  0
SECTION
  2
HEADER
  9
$ACADVER
  1
AC1018
  9
$ACADMAINTVER
 70
     0
  9
$DWGCODEPAGE
  3
ANSI_1252
  9
$INSBASE
 10
0.0
 20
0.0
 30
0.0
  9
$EXTMIN
 10
-6.366098251495
 20
-0.50949865
 30
0.0
  9
$EXTMAX
 10
19.192019251495
 20
10.69947165
 30
0.0
  9
$LIMMIN
 10
0.0
 20
0.0
  9
$LIMMAX
 10
420.0
 20
297.0
  9
$ORTHOMODE
 70
     0
  9
$REGENMODE
 70
     1
  9
$FILLMODE
 70
     1
  9
$QTEXTMODE
 70
     0
  9
$MIRRTEXT
 70
     1
  9
$LTSCALE
 40
5.0
  9
$ATTMODE
 70
     1
  9
$TEXTSIZE
 40
2.5
  9
$TRACEWID
 40
1.0
  9
$TEXTSTYLE
  7
Standard
  9
$CLAYER
  8
0
  9
$CELTYPE
  6
ByLayer
  9
$CECOLOR
 62
   256
  9
$CELTSCALE
 40
1.0
  9
$DISPSILH
 70
     0
  9
$DIMSCALE
 40
1.0
  9
$DIMASZ
 40
2.5
  9
$DIMEXO
 40
0.625
  9
$DIMDLI
 40
3.75
  9
$DIMRND
 40
0.0
  9
$DIMDLE
 40
0.0
  9
$DIMEXE
 40
1.25
  9
$DIMTP
 40
0.0
  9
$DIMTM
 40
0.0
  9
$DIMTXT
 40
2.5
  9
$DIMCEN
 40
2.5
  9
$DIMTSZ
 40
0.0
  9
$DIMTOL
 70
     0
  9
$DIMLIM
 70
     0
  9
$DIMTIH
 70
     0
  9
$DIMTOH
 70
     0
  9
$DIMSE1
 70
     0
  9
$DIMSE2
 70
     0
  9
$DIMTAD
 70
     1
  9
$DIMZIN
 70
     8
  9
$DIMBLK
  1

  9
$DIMASO
 70
     1
  9
$DIMSHO
 70
     1
  9
$DIMPOST
  1

  9
$DIMAPOST
  1

  9
$DIMALT
 70
     0
  9
$DIMALTD
 70
     3
  9
$DIMALTF
 40
0.03937007874
  9
$DIMLFAC
 40
1.0
  9
$DIMTOFL
 70
     1
  9
$DIMTVP
 40
0.0
  9
$DIMTIX
 70
     0
  9
$DIMSOXD
 70
     0
  9
$DIMSAH
 70
     0
  9
$DIMBLK1
  1

  9
$DIMBLK2
  1

  9
$DIMSTYLE
  2
ISO-25
  9
$DIMCLRD
 70
     0
  9
$DIMCLRE
 70
     0
  9
$DIMCLRT
 70
     0
  9
$DIMTFAC
 40
1.0
  9
$DIMGAP
 40
0.625
  9
$DIMJUST
 70
     0
  9
$DIMSD1
 70
     0
  9
$DIMSD2
 70
     0
  9
$DIMTOLJ
 70
     0
  9
$DIMTZIN
 70
     8
  9
$DIMALTZ
 70
     0
  9
$DIMALTTZ
 70
     0
  9
$DIMUPT
 70
     0
  9
$DIMDEC
 70
     2
  9
$DIMTDEC
 70
     2
  9
$DIMALTU
 70
     2
  9
$DIMALTTD
 70
     3
  9
$DIMTXSTY
  7
Standard
  9
$DIMAUNIT
 70
     0
  9
$DIMADEC
 70
     0
  9
$DIMALTRND
 40
0.0
  9
$DIMAZIN
 70
     0
  9
$DIMDSEP
 70
    44
  9
$DIMATFIT
 70
     3
  9
$DIMFRAC
 70
     0
  9
$DIMLDRBLK
  1

  9
$DIMLUNIT
 70
     2
  9
$DIMLWD
 70
    -2
  9
$DIMLWE
 70
    -2
  9
$DIMTMOVE
 70
     0
  9
$LUNITS
 70
     2
  9
$LUPREC
 70
     4
  9
$SKETCHINC
 40
1.0
  9
$FILLETRAD
 40
10.0
  9
$AUNITS
 70
     0
  9
$AUPREC
 70
     0
  9
$MENU
  1
.
  9
$ELEVATION
 40
0.0
  9
$PELEVATION
 40
0.0
  9
$THICKNESS
 40
0.0
  9
$LIMCHECK
 70
     0
  9
$CHAMFERA
 40
10.0
  9
$CHAMFERB
 40
10.0
  9
$CHAMFERC
 40
20.0
  9
$CHAMFERD
 40
0.0
  9
$SKPOLY
 70
     0
  9
$TDCREATE
 40
2456029.665200544
  9
$TDUCREATE
 40
2456029.581867211
  9
$TDUPDATE
 40
2456029.665200556
  9
$TDUUPDATE
 40
2456029.581867222
  9
$TDINDWG
 40
0.0000000116
  9
$TDUSRTIMER
 40
0.0000000116
  9
$USRTIMER
 70
     1
  9
$ANGBASE
 50
0.0
  9
$ANGDIR
 70
     0
  9
$PDMODE
 70
     2
  9
$PDSIZE
 40
1.0
  9
$PLINEWID
 40
0.0
  9
$SPLFRAME
 70
     0
  9
$SPLINETYPE
 70
     6
  9
$SPLINESEGS
 70
     8
  9
$HANDSEED
  5
60E
  9
$SURFTAB1
 70
     6
  9
$SURFTAB2
 70
     6
  9
$SURFTYPE
 70
     6
  9
$SURFU
 70
     6
  9
$SURFV
 70
     6
  9
$UCSBASE
  2

  9
$UCSNAME
  2

  9
$UCSORG
 10
0.0
 20
0.0
 30
0.0
  9
$UCSXDIR
 10
1.0
 20
0.0
 30
0.0
  9
$UCSYDIR
 10
0.0
 20
1.0
 30
0.0
  9
$UCSORTHOREF
  2

  9
$UCSORTHOVIEW
 70
     0
  9
$UCSORGTOP
 10
0.0
 20
0.0
 30
0.0
  9
$UCSORGBOTTOM
 10
0.0
 20
0.0
 30
0.0
  9
$UCSORGLEFT
 10
0.0
 20
0.0
 30
0.0
  9
$UCSORGRIGHT
 10
0.0
 20
0.0
 30
0.0
  9
$UCSORGFRONT
 10
0.0
 20
0.0
 30
0.0
  9
$UCSORGBACK
 10
0.0
 20
0.0
 30
0.0
  9
$PUCSBASE
  2

  9
$PUCSNAME
  2

  9
$PUCSORG
 10
0.0
 20
0.0
 30
0.0
  9
$PUCSXDIR
 10
1.0
 20
0.0
 30
0.0
  9
$PUCSYDIR
 10
0.0
 20
1.0
 30
0.0
  9
$PUCSORTHOREF
  2

  9
$PUCSORTHOVIEW
 70
     0
  9
$PUCSORGTOP
 10
0.0
 20
0.0
 30
0.0
  9
$PUCSORGBOTTOM
 10
0.0
 20
0.0
 30
0.0
  9
$PUCSORGLEFT
 10
0.0
 20
0.0
 30
0.0
  9
$PUCSORGRIGHT
 10
0.0
 20
0.0
 30
0.0
  9
$PUCSORGFRONT
 10
0.0
 20
0.0
 30
0.0
  9
$PUCSORGBACK
 10
0.0
 20
0.0
 30
0.0
  9
$USERI1
 70
     0
  9
$USERI2
 70
     0
  9
$USERI3
 70
     0
  9
$USERI4
 70
     0
  9
$USERI5
 70
     0
  9
$USERR1
 40
0.0
  9
$USERR2
 40
0.0
  9
$USERR3
 40
0.0
  9
$USERR4
 40
0.0
  9
$USERR5
 40
0.0
  9
$WORLDVIEW
 70
     1
  9
$SHADEDGE
 70
     3
  9
$SHADEDIF
 70
    70
  9
$TILEMODE
 70
     1
  9
$MAXACTVP
 70
    64
  9
$PINSBASE
 10
0.0
 20
0.0
 30
0.0
  9
$PLIMCHECK
 70
     0
  9
$PEXTMIN
 10
1.000000000000E+20
 20
1.000000000000E+20
 30
1.000000000000E+20
  9
$PEXTMAX
 10
-1.000000000000E+20
 20
-1.000000000000E+20
 30
-1.000000000000E+20
  9
$PLIMMIN
 10
0.0
 20
0.0
  9
$PLIMMAX
 10
420.0
 20
297.0
  9
$UNITMODE
 70
     0
  9
$VISRETAIN
 70
     1
  9
$PLINEGEN
 70
     0
  9
$PSLTSCALE
 70
     1
  9
$TREEDEPTH
 70
  3020
  9
$CMLSTYLE
  2
Standard
  9
$CMLJUST
 70
     0
  9
$CMLSCALE
 40
20.0
  9
$PROXYGRAPHICS
 70
     1
  9
$MEASUREMENT
 70
     1
  9
$CELWEIGHT
370
    -1
  9
$ENDCAPS
280
     0
  9
$JOINSTYLE
280
     0
  9
$LWDISPLAY
290
     0
  9
$INSUNITS
 70
     4
  9
$HYPERLINKBASE
  1

  9
$STYLESHEET
  1

  9
$XEDIT
290
     1
  9
$CEPSNTYPE
380
     0
  9
$PSTYLEMODE
290
     1
  9
$FINGERPRINTGUID
  2
{C87079E6-9396-4156-A789-9BAC7BC5BE9E}
  9
$VERSIONGUID
  2
{FAEB1C32-E019-11D5-929B-00C0DF256EC4}
  9
$EXTNAMES
290
     1
  9
$PSVPSCALE
 40
0.0
  9
$OLESTARTUP
290
     0
  9
$SORTENTS
280
   127
  9
$INDEXCTL
280
     0
  9
$HIDETEXT
280
     1
  9
$XCLIPFRAME
290
     0
  9
$HALOGAP
280
     0
  9
$OBSCOLOR
 70
   257
  9
$OBSLTYPE
280
     0
  9
$INTERSECTIONDISPLAY
280
     0
  9
$INTERSECTIONCOLOR
 70
   257
  9
$DIMASSOC
280
     2
  9
$PROJECTNAME
  1

  0
ENDSEC
  0
SECTION
  2
CLASSES
  0
CLASS
  1
ACDBDICTIONARYWDFLT
  2
AcDbDictionaryWithDefault
  3
ObjectDBX Classes
 90
        0
 91
        4
280
     0
281
     0
  0
CLASS
  1
VISUALSTYLE
  2
AcDbVisualStyle
  3
ObjectDBX Classes
 90
     4095
 91
        4
280
     0
281
     0
  0
CLASS
  1
WIPEOUTVARIABLES
  2
AcDbWipeoutVariables
  3
WipeOut|AutoCAD Express Tool|expresstools@autodesk.com
 90
        0
 91
        4
280
     0
281
     0
  0
CLASS
  1
SCALE
  2
AcDbScale
  3
ObjectDBX Classes
 90
     1153
 91
        4
280
     0
281
     0
  0
CLASS
  1
DICTIONARYVAR
  2
AcDbDictionaryVar
  3
ObjectDBX Classes
 90
        0
 91
        4
280
     0
281
     0
  0
ENDSEC
  0
SECTION
  2
TABLES
  0
TABLE
  2
VPORT
  5
8
330
0
100
AcDbSymbolTable
 70
     1
  0
VPORT
  5
29
330
8
100
AcDbSymbolTableRecord
100
AcDbViewportTableRecord
  2
*Active
 70
     0
 10
0.0
 20
0.0
 11
1.0
 21
1.0
 12
6.4129605
 22
5.0949865
 13
0.0
 23
0.0
 14
10.0
 24
10.0
 15
10.0
 25
10.0
 16
0.0
 26
0.0
 36
1.0
 17
0.0
 27
0.0
 37
0.0
 40
11.2089703
 41
2.280148561281
 42
50.0
 43
0.0
 44
0.0
 50
0.0
 51
0.0
 71
     0
 72
   100
 73
     1
 74
     3
 75
     0
 76
     0
 77
     0
 78
     0
281
     0
 65
     1
110
0.0
120
0.0
130
0.0
111
1.0
121
0.0
131
0.0
112
0.0
122
1.0
132
0.0
 79
     0
146
0.0
  0
ENDTAB
  0
TABLE
  2
LTYPE
  5
5
330
0
100
AcDbSymbolTable
 70
     2
  0
LTYPE
  5
14
330
5
100
AcDbSymbolTableRecord
100
AcDbLinetypeTableRecord
  2
ByBlock
 70
     0
  3

 72
    65
 73
     0
 40
0.0
  0
LTYPE
  5
15
330
5
100
AcDbSymbolTableRecord
100
AcDbLinetypeTableRecord
  2
ByLayer
 70
     0
  3

 72
    65
 73
     0
 40
0.0
  0
LTYPE
  5
16
330
5
100
AcDbSymbolTableRecord
100
AcDbLinetypeTableRecord
  2
Continuous
 70
     0
  3
Solid line
 72
    65
 73
     0
 40
0.0
  0
LTYPE
  5
3C
330
5
100
AcDbSymbolTableRecord
100
AcDbLinetypeTableRecord
  2
AUSGEZOGEN
 70
     0
  3

 72
    65
 73
     0
 40
0.0
  0
ENDTAB
  0
TABLE
  2
LAYER
  5
2
330
0
100
AcDbSymbolTable
 70
   256
  0
LAYER
  5
10
330
2
100
AcDbSymbolTableRecord
100
AcDbLayerTableRecord
  2
0
 70
     0
 62
     7
  6
Continuous
370
    -3
390
F
  0
LAYER
  5
3E
330
2
100
AcDbSymbolTableRecord
100
AcDbLayerTableRecord
  2
BLACK
 70
     0
 62
     7
  6
Continuous
370
    -3
390
F
  0
LAYER
  5
3F
330
2
100
AcDbSymbolTableRecord
100
AcDbLayerTableRecord
  2
WHITE
 70
     0
 62
     7
  6
Continuous
370
    -3
390
F
  0
LAYER
  5
40
330
2
100
AcDbSymbolTableRecord
100
AcDbLayerTableRecord
  2
RED
 70
     0
 62
     7
  6
Continuous
370
    -3
390
F
  0
LAYER
  5
41
330
2
100
AcDbSymbolTableRecord
100
AcDbLayerTableRecord
  2
YELLOW
 70
     0
 62
     7
  6
Continuous
370
    -3
390
F
  0
LAYER
  5
42
330
2
100
AcDbSymbolTableRecord
100
AcDbLayerTableRecord
  2
GREEN
 70
     0
 62
     7
  6
Continuous
370
    -3
390
F
  0
LAYER
  5
43
330
2
100
AcDbSymbolTableRecord
100
AcDbLayerTableRecord
  2
CYAN
 70
     0
 62
     7
  6
Continuous
370
    -3
390
F
  0
LAYER
  5
44
330
2
100
AcDbSymbolTableRecord
100
AcDbLayerTableRecord
  2
BLUE
 70
     0
 62
     7
  6
Continuous
370
    -3
390
F
  0
LAYER
  5
45
330
2
100
AcDbSymbolTableRecord
100
AcDbLayerTableRecord
  2
MAGENTA
 70
     0
 62
     7
  6
Continuous
370
    -3
390
F
  0
LAYER
  5
46
330
2
100
AcDbSymbolTableRecord
100
AcDbLayerTableRecord
  2
Layer9
 70
     0
 62
     7
  6
Continuous
370
    -3
390
F
  0
LAYER
  5
47
330
2
100
AcDbSymbolTableRecord
100
AcDbLayerTableRecord
  2
Layer10
 70
     0
 62
     7
  6
Continuous
370
    -3
390
F
  0
LAYER
  5
48
330
2
100
AcDbSymbolTableRecord
100
AcDbLayerTableRecord
  2
Layer11
 70
     0
 62
     7
  6
Continuous
370
    -3
390
F
  0
LAYER
  5
49
330
2
100
AcDbSymbolTableRecord
100
AcDbLayerTableRecord
  2
Layer12
 70
     0
 62
     7
  6
Continuous
370
    -3
390
F
  0
LAYER
  5
4A
330
2
100
AcDbSymbolTableRecord
100
AcDbLayerTableRecord
  2
Layer13
 70
     0
 62
     7
  6
Continuous
370
    -3
390
F
  0
LAYER
  5
4B
330
2
100
AcDbSymbolTableRecord
100
AcDbLayerTableRecord
  2
Layer14
 70
     0
 62
     7
  6
Continuous
370
    -3
390
F
  0
LAYER
  5
4C
330
2
100
AcDbSymbolTableRecord
100
AcDbLayerTableRecord
  2
Layer15
 70
     0
 62
     7
  6
Continuous
370
    -3
390
F
  0
LAYER
  5
4D
330
2
100
AcDbSymbolTableRecord
100
AcDbLayerTableRecord
  2
Layer16
 70
     0
 62
     7
  6
Continuous
370
    -3
390
F
  0
LAYER
  5
4E
330
2
100
AcDbSymbolTableRecord
100
AcDbLayerTableRecord
  2
Layer17
 70
     0
 62
     7
  6
Continuous
370
    -3
390
F
  0
LAYER
  5
4F
330
2
100
AcDbSymbolTableRecord
100
AcDbLayerTableRecord
  2
Layer18
 70
     0
 62
     7
  6
Continuous
370
    -3
390
F
  0
LAYER
  5
50
330
2
100
AcDbSymbolTableRecord
100
AcDbLayerTableRecord
  2
Layer19
 70
     0
 62
     7
  6
Continuous
370
    -3
390
F
  0
LAYER
  5
51
330
2
100
AcDbSymbolTableRecord
100
AcDbLayerTableRecord
  2
Layer20
 70
     0
 62
     7
  6
Continuous
370
    -3
390
F
  0
LAYER
  5
52
330
2
100
AcDbSymbolTableRecord
100
AcDbLayerTableRecord
  2
Layer21
 70
     0
 62
     7
  6
Continuous
370
    -3
390
F
  0
LAYER
  5
53
330
2
100
AcDbSymbolTableRecord
100
AcDbLayerTableRecord
  2
Layer22
 70
     0
 62
     7
  6
Continuous
370
    -3
390
F
  0
LAYER
  5
54
330
2
100
AcDbSymbolTableRecord
100
AcDbLayerTableRecord
  2
Layer23
 70
     0
 62
     7
  6
Continuous
370
    -3
390
F
  0
LAYER
  5
55
330
2
100
AcDbSymbolTableRecord
100
AcDbLayerTableRecord
  2
Layer24
 70
     0
 62
     7
  6
Continuous
370
    -3
390
F
  0
LAYER
  5
56
330
2
100
AcDbSymbolTableRecord
100
AcDbLayerTableRecord
  2
Layer25
 70
     0
 62
     7
  6
Continuous
370
    -3
390
F
  0
LAYER
  5
57
330
2
100
AcDbSymbolTableRecord
100
AcDbLayerTableRecord
  2
Layer26
 70
     0
 62
     7
  6
Continuous
370
    -3
390
F
  0
LAYER
  5
58
330
2
100
AcDbSymbolTableRecord
100
AcDbLayerTableRecord
  2
Layer27
 70
     0
 62
     7
  6
Continuous
370
    -3
390
F
  0
LAYER
  5
59
330
2
100
AcDbSymbolTableRecord
100
AcDbLayerTableRecord
  2
Layer28
 70
     0
 62
     7
  6
Continuous
370
    -3
390
F
  0
LAYER
  5
5A
330
2
100
AcDbSymbolTableRecord
100
AcDbLayerTableRecord
  2
Layer29
 70
     0
 62
     7
  6
Continuous
370
    -3
390
F
  0
LAYER
  5
5B
330
2
100
AcDbSymbolTableRecord
100
AcDbLayerTableRecord
  2
Layer30
 70
     0
 62
     7
  6
Continuous
370
    -3
390
F
  0
LAYER
  5
5C
330
2
100
AcDbSymbolTableRecord
100
AcDbLayerTableRecord
  2
Layer31
 70
     0
 62
     7
  6
Continuous
370
    -3
390
F
  0
LAYER
  5
5D
330
2
100
AcDbSymbolTableRecord
100
AcDbLayerTableRecord
  2
Layer32
 70
     0
 62
     7
  6
Continuous
370
    -3
390
F
  0
LAYER
  5
5E
330
2
100
AcDbSymbolTableRecord
100
AcDbLayerTableRecord
  2
Layer33
 70
     0
 62
     7
  6
Continuous
370
    -3
390
F
  0
LAYER
  5
5F
330
2
100
AcDbSymbolTableRecord
100
AcDbLayerTableRecord
  2
Layer34
 70
     0
 62
     7
  6
Continuous
370
    -3
390
F
  0
LAYER
  5
60
330
2
100
AcDbSymbolTableRecord
100
AcDbLayerTableRecord
  2
Layer35
 70
     0
 62
     7
  6
Continuous
370
    -3
390
F
  0
LAYER
  5
61
330
2
100
AcDbSymbolTableRecord
100
AcDbLayerTableRecord
  2
Layer36
 70
     0
 62
     7
  6
Continuous
370
    -3
390
F
  0
LAYER
  5
62
330
2
100
AcDbSymbolTableRecord
100
AcDbLayerTableRecord
  2
Layer37
 70
     0
 62
     7
  6
Continuous
370
    -3
390
F
  0
LAYER
  5
63
330
2
100
AcDbSymbolTableRecord
100
AcDbLayerTableRecord
  2
Layer38
 70
     0
 62
     7
  6
Continuous
370
    -3
390
F
  0
LAYER
  5
64
330
2
100
AcDbSymbolTableRecord
100
AcDbLayerTableRecord
  2
Layer39
 70
     0
 62
     7
  6
Continuous
370
    -3
390
F
  0
LAYER
  5
65
330
2
100
AcDbSymbolTableRecord
100
AcDbLayerTableRecord
  2
Layer40
 70
     0
 62
     7
  6
Continuous
370
    -3
390
F
  0
LAYER
  5
66
330
2
100
AcDbSymbolTableRecord
100
AcDbLayerTableRecord
  2
Layer41
 70
     0
 62
     7
  6
Continuous
370
    -3
390
F
  0
LAYER
  5
67
330
2
100
AcDbSymbolTableRecord
100
AcDbLayerTableRecord
  2
Layer42
 70
     0
 62
     7
  6
Continuous
370
    -3
390
F
  0
LAYER
  5
68
330
2
100
AcDbSymbolTableRecord
100
AcDbLayerTableRecord
  2
Layer43
 70
     0
 62
     7
  6
Continuous
370
    -3
390
F
  0
LAYER
  5
69
330
2
100
AcDbSymbolTableRecord
100
AcDbLayerTableRecord
  2
Layer44
 70
     0
 62
     7
  6
Continuous
370
    -3
390
F
  0
LAYER
  5
6A
330
2
100
AcDbSymbolTableRecord
100
AcDbLayerTableRecord
  2
Layer45
 70
     0
 62
     7
  6
Continuous
370
    -3
390
F
  0
LAYER
  5
6B
330
2
100
AcDbSymbolTableRecord
100
AcDbLayerTableRecord
  2
Layer46
 70
     0
 62
     7
  6
Continuous
370
    -3
390
F
  0
LAYER
  5
6C
330
2
100
AcDbSymbolTableRecord
100
AcDbLayerTableRecord
  2
Layer47
 70
     0
 62
     7
  6
Continuous
370
    -3
390
F
  0
LAYER
  5
6D
330
2
100
AcDbSymbolTableRecord
100
AcDbLayerTableRecord
  2
Layer48
 70
     0
 62
     7
  6
Continuous
370
    -3
390
F
  0
LAYER
  5
6E
330
2
100
AcDbSymbolTableRecord
100
AcDbLayerTableRecord
  2
Layer49
 70
     0
 62
     7
  6
Continuous
370
    -3
390
F
  0
LAYER
  5
6F
330
2
100
AcDbSymbolTableRecord
100
AcDbLayerTableRecord
  2
Layer50
 70
     0
 62
     7
  6
Continuous
370
    -3
390
F
  0
LAYER
  5
70
330
2
100
AcDbSymbolTableRecord
100
AcDbLayerTableRecord
  2
Layer51
 70
     0
 62
     7
  6
Continuous
370
    -3
390
F
  0
LAYER
  5
71
330
2
100
AcDbSymbolTableRecord
100
AcDbLayerTableRecord
  2
Layer52
 70
     0
 62
     7
  6
Continuous
370
    -3
390
F
  0
LAYER
  5
72
330
2
100
AcDbSymbolTableRecord
100
AcDbLayerTableRecord
  2
Layer53
 70
     0
 62
     7
  6
Continuous
370
    -3
390
F
  0
LAYER
  5
73
330
2
100
AcDbSymbolTableRecord
100
AcDbLayerTableRecord
  2
Layer54
 70
     0
 62
     7
  6
Continuous
370
    -3
390
F
  0
LAYER
  5
74
330
2
100
AcDbSymbolTableRecord
100
AcDbLayerTableRecord
  2
Layer55
 70
     0
 62
     7
  6
Continuous
370
    -3
390
F
  0
LAYER
  5
75
330
2
100
AcDbSymbolTableRecord
100
AcDbLayerTableRecord
  2
Layer56
 70
     0
 62
     7
  6
Continuous
370
    -3
390
F
  0
LAYER
  5
76
330
2
100
AcDbSymbolTableRecord
100
AcDbLayerTableRecord
  2
Layer57
 70
     0
 62
     7
  6
Continuous
370
    -3
390
F
  0
LAYER
  5
77
330
2
100
AcDbSymbolTableRecord
100
AcDbLayerTableRecord
  2
Layer58
 70
     0
 62
     7
  6
Continuous
370
    -3
390
F
  0
LAYER
  5
78
330
2
100
AcDbSymbolTableRecord
100
AcDbLayerTableRecord
  2
Layer59
 70
     0
 62
     7
  6
Continuous
370
    -3
390
F
  0
LAYER
  5
79
330
2
100
AcDbSymbolTableRecord
100
AcDbLayerTableRecord
  2
Layer60
 70
     0
 62
     7
  6
Continuous
370
    -3
390
F
  0
LAYER
  5
7A
330
2
100
AcDbSymbolTableRecord
100
AcDbLayerTableRecord
  2
Layer61
 70
     0
 62
     7
  6
Continuous
370
    -3
390
F
  0
LAYER
  5
7B
330
2
100
AcDbSymbolTableRecord
100
AcDbLayerTableRecord
  2
Layer62
 70
     0
 62
     7
  6
Continuous
370
    -3
390
F
  0
LAYER
  5
7C
330
2
100
AcDbSymbolTableRecord
100
AcDbLayerTableRecord
  2
Layer63
 70
     0
 62
     7
  6
Continuous
370
    -3
390
F
  0
LAYER
  5
7D
330
2
100
AcDbSymbolTableRecord
100
AcDbLayerTableRecord
  2
Layer64
 70
     0
 62
     7
  6
Continuous
370
    -3
390
F
  0
LAYER
  5
7E
330
2
100
AcDbSymbolTableRecord
100
AcDbLayerTableRecord
  2
Layer65
 70
     0
 62
     7
  6
Continuous
370
    -3
390
F
  0
LAYER
  5
7F
330
2
100
AcDbSymbolTableRecord
100
AcDbLayerTableRecord
  2
Layer66
 70
     0
 62
     7
  6
Continuous
370
    -3
390
F
  0
LAYER
  5
80
330
2
100
AcDbSymbolTableRecord
100
AcDbLayerTableRecord
  2
Layer67
 70
     0
 62
     7
  6
Continuous
370
    -3
390
F
  0
LAYER
  5
81
330
2
100
AcDbSymbolTableRecord
100
AcDbLayerTableRecord
  2
Layer68
 70
     0
 62
     7
  6
Continuous
370
    -3
390
F
  0
LAYER
  5
82
330
2
100
AcDbSymbolTableRecord
100
AcDbLayerTableRecord
  2
Layer69
 70
     0
 62
     7
  6
Continuous
370
    -3
390
F
  0
LAYER
  5
83
330
2
100
AcDbSymbolTableRecord
100
AcDbLayerTableRecord
  2
Layer70
 70
     0
 62
     7
  6
Continuous
370
    -3
390
F
  0
LAYER
  5
84
330
2
100
AcDbSymbolTableRecord
100
AcDbLayerTableRecord
  2
Layer71
 70
     0
 62
     7
  6
Continuous
370
    -3
390
F
  0
LAYER
  5
85
330
2
100
AcDbSymbolTableRecord
100
AcDbLayerTableRecord
  2
Layer72
 70
     0
 62
     7
  6
Continuous
370
    -3
390
F
  0
LAYER
  5
86
330
2
100
AcDbSymbolTableRecord
100
AcDbLayerTableRecord
  2
Layer73
 70
     0
 62
     7
  6
Continuous
370
    -3
390
F
  0
LAYER
  5
87
330
2
100
AcDbSymbolTableRecord
100
AcDbLayerTableRecord
  2
Layer74
 70
     0
 62
     7
  6
Continuous
370
    -3
390
F
  0
LAYER
  5
88
330
2
100
AcDbSymbolTableRecord
100
AcDbLayerTableRecord
  2
Layer75
 70
     0
 62
     7
  6
Continuous
370
    -3
390
F
  0
LAYER
  5
89
330
2
100
AcDbSymbolTableRecord
100
AcDbLayerTableRecord
  2
Layer76
 70
     0
 62
     7
  6
Continuous
370
    -3
390
F
  0
LAYER
  5
8A
330
2
100
AcDbSymbolTableRecord
100
AcDbLayerTableRecord
  2
Layer77
 70
     0
 62
     7
  6
Continuous
370
    -3
390
F
  0
LAYER
  5
8B
330
2
100
AcDbSymbolTableRecord
100
AcDbLayerTableRecord
  2
Layer78
 70
     0
 62
     7
  6
Continuous
370
    -3
390
F
  0
LAYER
  5
8C
330
2
100
AcDbSymbolTableRecord
100
AcDbLayerTableRecord
  2
Layer79
 70
     0
 62
     7
  6
Continuous
370
    -3
390
F
  0
LAYER
  5
8D
330
2
100
AcDbSymbolTableRecord
100
AcDbLayerTableRecord
  2
Layer80
 70
     0
 62
     7
  6
Continuous
370
    -3
390
F
  0
LAYER
  5
8E
330
2
100
AcDbSymbolTableRecord
100
AcDbLayerTableRecord
  2
Layer81
 70
     0
 62
     7
  6
Continuous
370
    -3
390
F
  0
LAYER
  5
8F
330
2
100
AcDbSymbolTableRecord
100
AcDbLayerTableRecord
  2
Layer82
 70
     0
 62
     7
  6
Continuous
370
    -3
390
F
  0
LAYER
  5
90
330
2
100
AcDbSymbolTableRecord
100
AcDbLayerTableRecord
  2
Layer83
 70
     0
 62
     7
  6
Continuous
370
    -3
390
F
  0
LAYER
  5
91
330
2
100
AcDbSymbolTableRecord
100
AcDbLayerTableRecord
  2
Layer84
 70
     0
 62
     7
  6
Continuous
370
    -3
390
F
  0
LAYER
  5
92
330
2
100
AcDbSymbolTableRecord
100
AcDbLayerTableRecord
  2
Layer85
 70
     0
 62
     7
  6
Continuous
370
    -3
390
F
  0
LAYER
  5
93
330
2
100
AcDbSymbolTableRecord
100
AcDbLayerTableRecord
  2
Layer86
 70
     0
 62
     7
  6
Continuous
370
    -3
390
F
  0
LAYER
  5
94
330
2
100
AcDbSymbolTableRecord
100
AcDbLayerTableRecord
  2
Layer87
 70
     0
 62
     7
  6
Continuous
370
    -3
390
F
  0
LAYER
  5
95
330
2
100
AcDbSymbolTableRecord
100
AcDbLayerTableRecord
  2
Layer88
 70
     0
 62
     7
  6
Continuous
370
    -3
390
F
  0
LAYER
  5
96
330
2
100
AcDbSymbolTableRecord
100
AcDbLayerTableRecord
  2
Layer89
 70
     0
 62
     7
  6
Continuous
370
    -3
390
F
  0
LAYER
  5
97
330
2
100
AcDbSymbolTableRecord
100
AcDbLayerTableRecord
  2
Layer90
 70
     0
 62
     7
  6
Continuous
370
    -3
390
F
  0
LAYER
  5
98
330
2
100
AcDbSymbolTableRecord
100
AcDbLayerTableRecord
  2
Layer91
 70
     0
 62
     7
  6
Continuous
370
    -3
390
F
  0
LAYER
  5
99
330
2
100
AcDbSymbolTableRecord
100
AcDbLayerTableRecord
  2
Layer92
 70
     0
 62
     7
  6
Continuous
370
    -3
390
F
  0
LAYER
  5
9A
330
2
100
AcDbSymbolTableRecord
100
AcDbLayerTableRecord
  2
Layer93
 70
     0
 62
     7
  6
Continuous
370
    -3
390
F
  0
LAYER
  5
9B
330
2
100
AcDbSymbolTableRecord
100
AcDbLayerTableRecord
  2
Layer94
 70
     0
 62
     7
  6
Continuous
370
    -3
390
F
  0
LAYER
  5
9C
330
2
100
AcDbSymbolTableRecord
100
AcDbLayerTableRecord
  2
Layer95
 70
     0
 62
     7
  6
Continuous
370
    -3
390
F
  0
LAYER
  5
9D
330
2
100
AcDbSymbolTableRecord
100
AcDbLayerTableRecord
  2
Layer96
 70
     0
 62
     7
  6
Continuous
370
    -3
390
F
  0
LAYER
  5
9E
330
2
100
AcDbSymbolTableRecord
100
AcDbLayerTableRecord
  2
Layer97
 70
     0
 62
     7
  6
Continuous
370
    -3
390
F
  0
LAYER
  5
9F
330
2
100
AcDbSymbolTableRecord
100
AcDbLayerTableRecord
  2
Layer98
 70
     0
 62
     7
  6
Continuous
370
    -3
390
F
  0
LAYER
  5
A0
330
2
100
AcDbSymbolTableRecord
100
AcDbLayerTableRecord
  2
Layer99
 70
     0
 62
     7
  6
Continuous
370
    -3
390
F
  0
LAYER
  5
A1
330
2
100
AcDbSymbolTableRecord
100
AcDbLayerTableRecord
  2
Layer100
 70
     0
 62
     7
  6
Continuous
370
    -3
390
F
  0
LAYER
  5
A2
330
2
100
AcDbSymbolTableRecord
100
AcDbLayerTableRecord
  2
Layer101
 70
     0
 62
     7
  6
Continuous
370
    -3
390
F
  0
LAYER
  5
A3
330
2
100
AcDbSymbolTableRecord
100
AcDbLayerTableRecord
  2
Layer102
 70
     0
 62
     7
  6
Continuous
370
    -3
390
F
  0
LAYER
  5
A4
330
2
100
AcDbSymbolTableRecord
100
AcDbLayerTableRecord
  2
Layer103
 70
     0
 62
     7
  6
Continuous
370
    -3
390
F
  0
LAYER
  5
A5
330
2
100
AcDbSymbolTableRecord
100
AcDbLayerTableRecord
  2
Layer104
 70
     0
 62
     7
  6
Continuous
370
    -3
390
F
  0
LAYER
  5
A6
330
2
100
AcDbSymbolTableRecord
100
AcDbLayerTableRecord
  2
Layer105
 70
     0
 62
     7
  6
Continuous
370
    -3
390
F
  0
LAYER
  5
A7
330
2
100
AcDbSymbolTableRecord
100
AcDbLayerTableRecord
  2
Layer106
 70
     0
 62
     7
  6
Continuous
370
    -3
390
F
  0
LAYER
  5
A8
330
2
100
AcDbSymbolTableRecord
100
AcDbLayerTableRecord
  2
Layer107
 70
     0
 62
     7
  6
Continuous
370
    -3
390
F
  0
LAYER
  5
A9
330
2
100
AcDbSymbolTableRecord
100
AcDbLayerTableRecord
  2
Layer108
 70
     0
 62
     7
  6
Continuous
370
    -3
390
F
  0
LAYER
  5
AA
330
2
100
AcDbSymbolTableRecord
100
AcDbLayerTableRecord
  2
Layer109
 70
     0
 62
     7
  6
Continuous
370
    -3
390
F
  0
LAYER
  5
AB
330
2
100
AcDbSymbolTableRecord
100
AcDbLayerTableRecord
  2
Layer110
 70
     0
 62
     7
  6
Continuous
370
    -3
390
F
  0
LAYER
  5
AC
330
2
100
AcDbSymbolTableRecord
100
AcDbLayerTableRecord
  2
Layer111
 70
     0
 62
     7
  6
Continuous
370
    -3
390
F
  0
LAYER
  5
AD
330
2
100
AcDbSymbolTableRecord
100
AcDbLayerTableRecord
  2
Layer112
 70
     0
 62
     7
  6
Continuous
370
    -3
390
F
  0
LAYER
  5
AE
330
2
100
AcDbSymbolTableRecord
100
AcDbLayerTableRecord
  2
Layer113
 70
     0
 62
     7
  6
Continuous
370
    -3
390
F
  0
LAYER
  5
AF
330
2
100
AcDbSymbolTableRecord
100
AcDbLayerTableRecord
  2
Layer114
 70
     0
 62
     7
  6
Continuous
370
    -3
390
F
  0
LAYER
  5
B0
330
2
100
AcDbSymbolTableRecord
100
AcDbLayerTableRecord
  2
Layer115
 70
     0
 62
     7
  6
Continuous
370
    -3
390
F
  0
LAYER
  5
B1
330
2
100
AcDbSymbolTableRecord
100
AcDbLayerTableRecord
  2
Layer116
 70
     0
 62
     7
  6
Continuous
370
    -3
390
F
  0
LAYER
  5
B2
330
2
100
AcDbSymbolTableRecord
100
AcDbLayerTableRecord
  2
Layer117
 70
     0
 62
     7
  6
Continuous
370
    -3
390
F
  0
LAYER
  5
B3
330
2
100
AcDbSymbolTableRecord
100
AcDbLayerTableRecord
  2
Layer118
 70
     0
 62
     7
  6
Continuous
370
    -3
390
F
  0
LAYER
  5
B4
330
2
100
AcDbSymbolTableRecord
100
AcDbLayerTableRecord
  2
Layer119
 70
     0
 62
     7
  6
Continuous
370
    -3
390
F
  0
LAYER
  5
B5
330
2
100
AcDbSymbolTableRecord
100
AcDbLayerTableRecord
  2
Layer120
 70
     0
 62
     7
  6
Continuous
370
    -3
390
F
  0
LAYER
  5
B6
330
2
100
AcDbSymbolTableRecord
100
AcDbLayerTableRecord
  2
Layer121
 70
     0
 62
     7
  6
Continuous
370
    -3
390
F
  0
LAYER
  5
B7
330
2
100
AcDbSymbolTableRecord
100
AcDbLayerTableRecord
  2
Layer122
 70
     0
 62
     7
  6
Continuous
370
    -3
390
F
  0
LAYER
  5
B8
330
2
100
AcDbSymbolTableRecord
100
AcDbLayerTableRecord
  2
Layer123
 70
     0
 62
     7
  6
Continuous
370
    -3
390
F
  0
LAYER
  5
B9
330
2
100
AcDbSymbolTableRecord
100
AcDbLayerTableRecord
  2
Layer124
 70
     0
 62
     7
  6
Continuous
370
    -3
390
F
  0
LAYER
  5
BA
330
2
100
AcDbSymbolTableRecord
100
AcDbLayerTableRecord
  2
Layer125
 70
     0
 62
     7
  6
Continuous
370
    -3
390
F
  0
LAYER
  5
BB
330
2
100
AcDbSymbolTableRecord
100
AcDbLayerTableRecord
  2
Layer126
 70
     0
 62
     7
  6
Continuous
370
    -3
390
F
  0
LAYER
  5
BC
330
2
100
AcDbSymbolTableRecord
100
AcDbLayerTableRecord
  2
Layer127
 70
     0
 62
     7
  6
Continuous
370
    -3
390
F
  0
LAYER
  5
BD
330
2
100
AcDbSymbolTableRecord
100
AcDbLayerTableRecord
  2
Layer128
 70
     0
 62
     7
  6
Continuous
370
    -3
390
F
  0
LAYER
  5
BE
330
2
100
AcDbSymbolTableRecord
100
AcDbLayerTableRecord
  2
Layer129
 70
     0
 62
     7
  6
Continuous
370
    -3
390
F
  0
LAYER
  5
BF
330
2
100
AcDbSymbolTableRecord
100
AcDbLayerTableRecord
  2
Layer130
 70
     0
 62
     7
  6
Continuous
370
    -3
390
F
  0
LAYER
  5
C0
330
2
100
AcDbSymbolTableRecord
100
AcDbLayerTableRecord
  2
Layer131
 70
     0
 62
     7
  6
Continuous
370
    -3
390
F
  0
LAYER
  5
C1
330
2
100
AcDbSymbolTableRecord
100
AcDbLayerTableRecord
  2
Layer132
 70
     0
 62
     7
  6
Continuous
370
    -3
390
F
  0
LAYER
  5
C2
330
2
100
AcDbSymbolTableRecord
100
AcDbLayerTableRecord
  2
Layer133
 70
     0
 62
     7
  6
Continuous
370
    -3
390
F
  0
LAYER
  5
C3
330
2
100
AcDbSymbolTableRecord
100
AcDbLayerTableRecord
  2
Layer134
 70
     0
 62
     7
  6
Continuous
370
    -3
390
F
  0
LAYER
  5
C4
330
2
100
AcDbSymbolTableRecord
100
AcDbLayerTableRecord
  2
Layer135
 70
     0
 62
     7
  6
Continuous
370
    -3
390
F
  0
LAYER
  5
C5
330
2
100
AcDbSymbolTableRecord
100
AcDbLayerTableRecord
  2
Layer136
 70
     0
 62
     7
  6
Continuous
370
    -3
390
F
  0
LAYER
  5
C6
330
2
100
AcDbSymbolTableRecord
100
AcDbLayerTableRecord
  2
Layer137
 70
     0
 62
     7
  6
Continuous
370
    -3
390
F
  0
LAYER
  5
C7
330
2
100
AcDbSymbolTableRecord
100
AcDbLayerTableRecord
  2
Layer138
 70
     0
 62
     7
  6
Continuous
370
    -3
390
F
  0
LAYER
  5
C8
330
2
100
AcDbSymbolTableRecord
100
AcDbLayerTableRecord
  2
Layer139
 70
     0
 62
     7
  6
Continuous
370
    -3
390
F
  0
LAYER
  5
C9
330
2
100
AcDbSymbolTableRecord
100
AcDbLayerTableRecord
  2
Layer140
 70
     0
 62
     7
  6
Continuous
370
    -3
390
F
  0
LAYER
  5
CA
330
2
100
AcDbSymbolTableRecord
100
AcDbLayerTableRecord
  2
Layer141
 70
     0
 62
     7
  6
Continuous
370
    -3
390
F
  0
LAYER
  5
CB
330
2
100
AcDbSymbolTableRecord
100
AcDbLayerTableRecord
  2
Layer142
 70
     0
 62
     7
  6
Continuous
370
    -3
390
F
  0
LAYER
  5
CC
330
2
100
AcDbSymbolTableRecord
100
AcDbLayerTableRecord
  2
Layer143
 70
     0
 62
     7
  6
Continuous
370
    -3
390
F
  0
LAYER
  5
CD
330
2
100
AcDbSymbolTableRecord
100
AcDbLayerTableRecord
  2
Layer144
 70
     0
 62
     7
  6
Continuous
370
    -3
390
F
  0
LAYER
  5
CE
330
2
100
AcDbSymbolTableRecord
100
AcDbLayerTableRecord
  2
Layer145
 70
     0
 62
     7
  6
Continuous
370
    -3
390
F
  0
LAYER
  5
CF
330
2
100
AcDbSymbolTableRecord
100
AcDbLayerTableRecord
  2
Layer146
 70
     0
 62
     7
  6
Continuous
370
    -3
390
F
  0
LAYER
  5
D0
330
2
100
AcDbSymbolTableRecord
100
AcDbLayerTableRecord
  2
Layer147
 70
     0
 62
     7
  6
Continuous
370
    -3
390
F
  0
LAYER
  5
D1
330
2
100
AcDbSymbolTableRecord
100
AcDbLayerTableRecord
  2
Layer148
 70
     0
 62
     7
  6
Continuous
370
    -3
390
F
  0
LAYER
  5
D2
330
2
100
AcDbSymbolTableRecord
100
AcDbLayerTableRecord
  2
Layer149
 70
     0
 62
     7
  6
Continuous
370
    -3
390
F
  0
LAYER
  5
D3
330
2
100
AcDbSymbolTableRecord
100
AcDbLayerTableRecord
  2
Layer150
 70
     0
 62
     7
  6
Continuous
370
    -3
390
F
  0
LAYER
  5
D4
330
2
100
AcDbSymbolTableRecord
100
AcDbLayerTableRecord
  2
Layer151
 70
     0
 62
     7
  6
Continuous
370
    -3
390
F
  0
LAYER
  5
D5
330
2
100
AcDbSymbolTableRecord
100
AcDbLayerTableRecord
  2
Layer152
 70
     0
 62
     7
  6
Continuous
370
    -3
390
F
  0
LAYER
  5
D6
330
2
100
AcDbSymbolTableRecord
100
AcDbLayerTableRecord
  2
Layer153
 70
     0
 62
     7
  6
Continuous
370
    -3
390
F
  0
LAYER
  5
D7
330
2
100
AcDbSymbolTableRecord
100
AcDbLayerTableRecord
  2
Layer154
 70
     0
 62
     7
  6
Continuous
370
    -3
390
F
  0
LAYER
  5
D8
330
2
100
AcDbSymbolTableRecord
100
AcDbLayerTableRecord
  2
Layer155
 70
     0
 62
     7
  6
Continuous
370
    -3
390
F
  0
LAYER
  5
D9
330
2
100
AcDbSymbolTableRecord
100
AcDbLayerTableRecord
  2
Layer156
 70
     0
 62
     7
  6
Continuous
370
    -3
390
F
  0
LAYER
  5
DA
330
2
100
AcDbSymbolTableRecord
100
AcDbLayerTableRecord
  2
Layer157
 70
     0
 62
     7
  6
Continuous
370
    -3
390
F
  0
LAYER
  5
DB
330
2
100
AcDbSymbolTableRecord
100
AcDbLayerTableRecord
  2
Layer158
 70
     0
 62
     7
  6
Continuous
370
    -3
390
F
  0
LAYER
  5
DC
330
2
100
AcDbSymbolTableRecord
100
AcDbLayerTableRecord
  2
Layer159
 70
     0
 62
     7
  6
Continuous
370
    -3
390
F
  0
LAYER
  5
DD
330
2
100
AcDbSymbolTableRecord
100
AcDbLayerTableRecord
  2
Layer160
 70
     0
 62
     7
  6
Continuous
370
    -3
390
F
  0
LAYER
  5
DE
330
2
100
AcDbSymbolTableRecord
100
AcDbLayerTableRecord
  2
Layer161
 70
     0
 62
     7
  6
Continuous
370
    -3
390
F
  0
LAYER
  5
DF
330
2
100
AcDbSymbolTableRecord
100
AcDbLayerTableRecord
  2
Layer162
 70
     0
 62
     7
  6
Continuous
370
    -3
390
F
  0
LAYER
  5
E0
330
2
100
AcDbSymbolTableRecord
100
AcDbLayerTableRecord
  2
Layer163
 70
     0
 62
     7
  6
Continuous
370
    -3
390
F
  0
LAYER
  5
E1
330
2
100
AcDbSymbolTableRecord
100
AcDbLayerTableRecord
  2
Layer164
 70
     0
 62
     7
  6
Continuous
370
    -3
390
F
  0
LAYER
  5
E2
330
2
100
AcDbSymbolTableRecord
100
AcDbLayerTableRecord
  2
Layer165
 70
     0
 62
     7
  6
Continuous
370
    -3
390
F
  0
LAYER
  5
E3
330
2
100
AcDbSymbolTableRecord
100
AcDbLayerTableRecord
  2
Layer166
 70
     0
 62
     7
  6
Continuous
370
    -3
390
F
  0
LAYER
  5
E4
330
2
100
AcDbSymbolTableRecord
100
AcDbLayerTableRecord
  2
Layer167
 70
     0
 62
     7
  6
Continuous
370
    -3
390
F
  0
LAYER
  5
E5
330
2
100
AcDbSymbolTableRecord
100
AcDbLayerTableRecord
  2
Layer168
 70
     0
 62
     7
  6
Continuous
370
    -3
390
F
  0
LAYER
  5
E6
330
2
100
AcDbSymbolTableRecord
100
AcDbLayerTableRecord
  2
Layer169
 70
     0
 62
     7
  6
Continuous
370
    -3
390
F
  0
LAYER
  5
E7
330
2
100
AcDbSymbolTableRecord
100
AcDbLayerTableRecord
  2
Layer170
 70
     0
 62
     7
  6
Continuous
370
    -3
390
F
  0
LAYER
  5
E8
330
2
100
AcDbSymbolTableRecord
100
AcDbLayerTableRecord
  2
Layer171
 70
     0
 62
     7
  6
Continuous
370
    -3
390
F
  0
LAYER
  5
E9
330
2
100
AcDbSymbolTableRecord
100
AcDbLayerTableRecord
  2
Layer172
 70
     0
 62
     7
  6
Continuous
370
    -3
390
F
  0
LAYER
  5
EA
330
2
100
AcDbSymbolTableRecord
100
AcDbLayerTableRecord
  2
Layer173
 70
     0
 62
     7
  6
Continuous
370
    -3
390
F
  0
LAYER
  5
EB
330
2
100
AcDbSymbolTableRecord
100
AcDbLayerTableRecord
  2
Layer174
 70
     0
 62
     7
  6
Continuous
370
    -3
390
F
  0
LAYER
  5
EC
330
2
100
AcDbSymbolTableRecord
100
AcDbLayerTableRecord
  2
Layer175
 70
     0
 62
     7
  6
Continuous
370
    -3
390
F
  0
LAYER
  5
ED
330
2
100
AcDbSymbolTableRecord
100
AcDbLayerTableRecord
  2
Layer176
 70
     0
 62
     7
  6
Continuous
370
    -3
390
F
  0
LAYER
  5
EE
330
2
100
AcDbSymbolTableRecord
100
AcDbLayerTableRecord
  2
Layer177
 70
     0
 62
     7
  6
Continuous
370
    -3
390
F
  0
LAYER
  5
EF
330
2
100
AcDbSymbolTableRecord
100
AcDbLayerTableRecord
  2
Layer178
 70
     0
 62
     7
  6
Continuous
370
    -3
390
F
  0
LAYER
  5
F0
330
2
100
AcDbSymbolTableRecord
100
AcDbLayerTableRecord
  2
Layer179
 70
     0
 62
     7
  6
Continuous
370
    -3
390
F
  0
LAYER
  5
F1
330
2
100
AcDbSymbolTableRecord
100
AcDbLayerTableRecord
  2
Layer180
 70
     0
 62
     7
  6
Continuous
370
    -3
390
F
  0
LAYER
  5
F2
330
2
100
AcDbSymbolTableRecord
100
AcDbLayerTableRecord
  2
Layer181
 70
     0
 62
     7
  6
Continuous
370
    -3
390
F
  0
LAYER
  5
F3
330
2
100
AcDbSymbolTableRecord
100
AcDbLayerTableRecord
  2
Layer182
 70
     0
 62
     7
  6
Continuous
370
    -3
390
F
  0
LAYER
  5
F4
330
2
100
AcDbSymbolTableRecord
100
AcDbLayerTableRecord
  2
Layer183
 70
     0
 62
     7
  6
Continuous
370
    -3
390
F
  0
LAYER
  5
F5
330
2
100
AcDbSymbolTableRecord
100
AcDbLayerTableRecord
  2
Layer184
 70
     0
 62
     7
  6
Continuous
370
    -3
390
F
  0
LAYER
  5
F6
330
2
100
AcDbSymbolTableRecord
100
AcDbLayerTableRecord
  2
Layer185
 70
     0
 62
     7
  6
Continuous
370
    -3
390
F
  0
LAYER
  5
F7
330
2
100
AcDbSymbolTableRecord
100
AcDbLayerTableRecord
  2
Layer186
 70
     0
 62
     7
  6
Continuous
370
    -3
390
F
  0
LAYER
  5
F8
330
2
100
AcDbSymbolTableRecord
100
AcDbLayerTableRecord
  2
Layer187
 70
     0
 62
     7
  6
Continuous
370
    -3
390
F
  0
LAYER
  5
F9
330
2
100
AcDbSymbolTableRecord
100
AcDbLayerTableRecord
  2
Layer188
 70
     0
 62
     7
  6
Continuous
370
    -3
390
F
  0
LAYER
  5
FA
330
2
100
AcDbSymbolTableRecord
100
AcDbLayerTableRecord
  2
Layer189
 70
     0
 62
     7
  6
Continuous
370
    -3
390
F
  0
LAYER
  5
FB
330
2
100
AcDbSymbolTableRecord
100
AcDbLayerTableRecord
  2
Layer190
 70
     0
 62
     7
  6
Continuous
370
    -3
390
F
  0
LAYER
  5
FC
330
2
100
AcDbSymbolTableRecord
100
AcDbLayerTableRecord
  2
Layer191
 70
     0
 62
     7
  6
Continuous
370
    -3
390
F
  0
LAYER
  5
FD
330
2
100
AcDbSymbolTableRecord
100
AcDbLayerTableRecord
  2
Layer192
 70
     0
 62
     7
  6
Continuous
370
    -3
390
F
  0
LAYER
  5
FE
330
2
100
AcDbSymbolTableRecord
100
AcDbLayerTableRecord
  2
Layer193
 70
     0
 62
     7
  6
Continuous
370
    -3
390
F
  0
LAYER
  5
FF
330
2
100
AcDbSymbolTableRecord
100
AcDbLayerTableRecord
  2
Layer194
 70
     0
 62
     7
  6
Continuous
370
    -3
390
F
  0
LAYER
  5
100
330
2
100
AcDbSymbolTableRecord
100
AcDbLayerTableRecord
  2
Layer195
 70
     0
 62
     7
  6
Continuous
370
    -3
390
F
  0
LAYER
  5
101
330
2
100
AcDbSymbolTableRecord
100
AcDbLayerTableRecord
  2
Layer196
 70
     0
 62
     7
  6
Continuous
370
    -3
390
F
  0
LAYER
  5
102
330
2
100
AcDbSymbolTableRecord
100
AcDbLayerTableRecord
  2
Layer197
 70
     0
 62
     7
  6
Continuous
370
    -3
390
F
  0
LAYER
  5
103
330
2
100
AcDbSymbolTableRecord
100
AcDbLayerTableRecord
  2
Layer198
 70
     0
 62
     7
  6
Continuous
370
    -3
390
F
  0
LAYER
  5
104
330
2
100
AcDbSymbolTableRecord
100
AcDbLayerTableRecord
  2
Layer199
 70
     0
 62
     7
  6
Continuous
370
    -3
390
F
  0
LAYER
  5
105
330
2
100
AcDbSymbolTableRecord
100
AcDbLayerTableRecord
  2
Layer200
 70
     0
 62
     7
  6
Continuous
370
    -3
390
F
  0
LAYER
  5
106
330
2
100
AcDbSymbolTableRecord
100
AcDbLayerTableRecord
  2
Layer201
 70
     0
 62
     7
  6
Continuous
370
    -3
390
F
  0
LAYER
  5
107
330
2
100
AcDbSymbolTableRecord
100
AcDbLayerTableRecord
  2
Layer202
 70
     0
 62
     7
  6
Continuous
370
    -3
390
F
  0
LAYER
  5
108
330
2
100
AcDbSymbolTableRecord
100
AcDbLayerTableRecord
  2
Layer203
 70
     0
 62
     7
  6
Continuous
370
    -3
390
F
  0
LAYER
  5
109
330
2
100
AcDbSymbolTableRecord
100
AcDbLayerTableRecord
  2
Layer204
 70
     0
 62
     7
  6
Continuous
370
    -3
390
F
  0
LAYER
  5
10A
330
2
100
AcDbSymbolTableRecord
100
AcDbLayerTableRecord
  2
Layer205
 70
     0
 62
     7
  6
Continuous
370
    -3
390
F
  0
LAYER
  5
10B
330
2
100
AcDbSymbolTableRecord
100
AcDbLayerTableRecord
  2
Layer206
 70
     0
 62
     7
  6
Continuous
370
    -3
390
F
  0
LAYER
  5
10C
330
2
100
AcDbSymbolTableRecord
100
AcDbLayerTableRecord
  2
Layer207
 70
     0
 62
     7
  6
Continuous
370
    -3
390
F
  0
LAYER
  5
10D
330
2
100
AcDbSymbolTableRecord
100
AcDbLayerTableRecord
  2
Layer208
 70
     0
 62
     7
  6
Continuous
370
    -3
390
F
  0
LAYER
  5
10E
330
2
100
AcDbSymbolTableRecord
100
AcDbLayerTableRecord
  2
Layer209
 70
     0
 62
     7
  6
Continuous
370
    -3
390
F
  0
LAYER
  5
10F
330
2
100
AcDbSymbolTableRecord
100
AcDbLayerTableRecord
  2
Layer210
 70
     0
 62
     7
  6
Continuous
370
    -3
390
F
  0
LAYER
  5
110
330
2
100
AcDbSymbolTableRecord
100
AcDbLayerTableRecord
  2
Layer211
 70
     0
 62
     7
  6
Continuous
370
    -3
390
F
  0
LAYER
  5
111
330
2
100
AcDbSymbolTableRecord
100
AcDbLayerTableRecord
  2
Layer212
 70
     0
 62
     7
  6
Continuous
370
    -3
390
F
  0
LAYER
  5
112
330
2
100
AcDbSymbolTableRecord
100
AcDbLayerTableRecord
  2
Layer213
 70
     0
 62
     7
  6
Continuous
370
    -3
390
F
  0
LAYER
  5
113
330
2
100
AcDbSymbolTableRecord
100
AcDbLayerTableRecord
  2
Layer214
 70
     0
 62
     7
  6
Continuous
370
    -3
390
F
  0
LAYER
  5
114
330
2
100
AcDbSymbolTableRecord
100
AcDbLayerTableRecord
  2
Layer215
 70
     0
 62
     7
  6
Continuous
370
    -3
390
F
  0
LAYER
  5
115
330
2
100
AcDbSymbolTableRecord
100
AcDbLayerTableRecord
  2
Layer216
 70
     0
 62
     7
  6
Continuous
370
    -3
390
F
  0
LAYER
  5
116
330
2
100
AcDbSymbolTableRecord
100
AcDbLayerTableRecord
  2
Layer217
 70
     0
 62
     7
  6
Continuous
370
    -3
390
F
  0
LAYER
  5
117
330
2
100
AcDbSymbolTableRecord
100
AcDbLayerTableRecord
  2
Layer218
 70
     0
 62
     7
  6
Continuous
370
    -3
390
F
  0
LAYER
  5
118
330
2
100
AcDbSymbolTableRecord
100
AcDbLayerTableRecord
  2
Layer219
 70
     0
 62
     7
  6
Continuous
370
    -3
390
F
  0
LAYER
  5
119
330
2
100
AcDbSymbolTableRecord
100
AcDbLayerTableRecord
  2
Layer220
 70
     0
 62
     7
  6
Continuous
370
    -3
390
F
  0
LAYER
  5
11A
330
2
100
AcDbSymbolTableRecord
100
AcDbLayerTableRecord
  2
Layer221
 70
     0
 62
     7
  6
Continuous
370
    -3
390
F
  0
LAYER
  5
11B
330
2
100
AcDbSymbolTableRecord
100
AcDbLayerTableRecord
  2
Layer222
 70
     0
 62
     7
  6
Continuous
370
    -3
390
F
  0
LAYER
  5
11C
330
2
100
AcDbSymbolTableRecord
100
AcDbLayerTableRecord
  2
Layer223
 70
     0
 62
     7
  6
Continuous
370
    -3
390
F
  0
LAYER
  5
11D
330
2
100
AcDbSymbolTableRecord
100
AcDbLayerTableRecord
  2
Layer224
 70
     0
 62
     7
  6
Continuous
370
    -3
390
F
  0
LAYER
  5
11E
330
2
100
AcDbSymbolTableRecord
100
AcDbLayerTableRecord
  2
Layer225
 70
     0
 62
     7
  6
Continuous
370
    -3
390
F
  0
LAYER
  5
11F
330
2
100
AcDbSymbolTableRecord
100
AcDbLayerTableRecord
  2
Layer226
 70
     0
 62
     7
  6
Continuous
370
    -3
390
F
  0
LAYER
  5
120
330
2
100
AcDbSymbolTableRecord
100
AcDbLayerTableRecord
  2
Layer227
 70
     0
 62
     7
  6
Continuous
370
    -3
390
F
  0
LAYER
  5
121
330
2
100
AcDbSymbolTableRecord
100
AcDbLayerTableRecord
  2
Layer228
 70
     0
 62
     7
  6
Continuous
370
    -3
390
F
  0
LAYER
  5
122
330
2
100
AcDbSymbolTableRecord
100
AcDbLayerTableRecord
  2
Layer229
 70
     0
 62
     7
  6
Continuous
370
    -3
390
F
  0
LAYER
  5
123
330
2
100
AcDbSymbolTableRecord
100
AcDbLayerTableRecord
  2
Layer230
 70
     0
 62
     7
  6
Continuous
370
    -3
390
F
  0
LAYER
  5
124
330
2
100
AcDbSymbolTableRecord
100
AcDbLayerTableRecord
  2
Layer231
 70
     0
 62
     7
  6
Continuous
370
    -3
390
F
  0
LAYER
  5
125
330
2
100
AcDbSymbolTableRecord
100
AcDbLayerTableRecord
  2
Layer232
 70
     0
 62
     7
  6
Continuous
370
    -3
390
F
  0
LAYER
  5
126
330
2
100
AcDbSymbolTableRecord
100
AcDbLayerTableRecord
  2
Layer233
 70
     0
 62
     7
  6
Continuous
370
    -3
390
F
  0
LAYER
  5
127
330
2
100
AcDbSymbolTableRecord
100
AcDbLayerTableRecord
  2
Layer234
 70
     0
 62
     7
  6
Continuous
370
    -3
390
F
  0
LAYER
  5
128
330
2
100
AcDbSymbolTableRecord
100
AcDbLayerTableRecord
  2
Layer235
 70
     0
 62
     7
  6
Continuous
370
    -3
390
F
  0
LAYER
  5
129
330
2
100
AcDbSymbolTableRecord
100
AcDbLayerTableRecord
  2
Layer236
 70
     0
 62
     7
  6
Continuous
370
    -3
390
F
  0
LAYER
  5
12A
330
2
100
AcDbSymbolTableRecord
100
AcDbLayerTableRecord
  2
Layer237
 70
     0
 62
     7
  6
Continuous
370
    -3
390
F
  0
LAYER
  5
12B
330
2
100
AcDbSymbolTableRecord
100
AcDbLayerTableRecord
  2
Layer238
 70
     0
 62
     7
  6
Continuous
370
    -3
390
F
  0
LAYER
  5
12C
330
2
100
AcDbSymbolTableRecord
100
AcDbLayerTableRecord
  2
Layer239
 70
     0
 62
     7
  6
Continuous
370
    -3
390
F
  0
LAYER
  5
12D
330
2
100
AcDbSymbolTableRecord
100
AcDbLayerTableRecord
  2
Layer240
 70
     0
 62
     7
  6
Continuous
370
    -3
390
F
  0
LAYER
  5
12E
330
2
100
AcDbSymbolTableRecord
100
AcDbLayerTableRecord
  2
Layer241
 70
     0
 62
     7
  6
Continuous
370
    -3
390
F
  0
LAYER
  5
12F
330
2
100
AcDbSymbolTableRecord
100
AcDbLayerTableRecord
  2
Layer242
 70
     0
 62
     7
  6
Continuous
370
    -3
390
F
  0
LAYER
  5
130
330
2
100
AcDbSymbolTableRecord
100
AcDbLayerTableRecord
  2
Layer243
 70
     0
 62
     7
  6
Continuous
370
    -3
390
F
  0
LAYER
  5
131
330
2
100
AcDbSymbolTableRecord
100
AcDbLayerTableRecord
  2
Layer244
 70
     0
 62
     7
  6
Continuous
370
    -3
390
F
  0
LAYER
  5
132
330
2
100
AcDbSymbolTableRecord
100
AcDbLayerTableRecord
  2
Layer245
 70
     0
 62
     7
  6
Continuous
370
    -3
390
F
  0
LAYER
  5
133
330
2
100
AcDbSymbolTableRecord
100
AcDbLayerTableRecord
  2
Layer246
 70
     0
 62
     7
  6
Continuous
370
    -3
390
F
  0
LAYER
  5
134
330
2
100
AcDbSymbolTableRecord
100
AcDbLayerTableRecord
  2
Layer247
 70
     0
 62
     7
  6
Continuous
370
    -3
390
F
  0
LAYER
  5
135
330
2
100
AcDbSymbolTableRecord
100
AcDbLayerTableRecord
  2
Layer248
 70
     0
 62
     7
  6
Continuous
370
    -3
390
F
  0
LAYER
  5
136
330
2
100
AcDbSymbolTableRecord
100
AcDbLayerTableRecord
  2
Layer249
 70
     0
 62
     7
  6
Continuous
370
    -3
390
F
  0
LAYER
  5
137
330
2
100
AcDbSymbolTableRecord
100
AcDbLayerTableRecord
  2
Layer250
 70
     0
 62
     7
  6
Continuous
370
    -3
390
F
  0
LAYER
  5
138
330
2
100
AcDbSymbolTableRecord
100
AcDbLayerTableRecord
  2
Layer251
 70
     0
 62
     7
  6
Continuous
370
    -3
390
F
  0
LAYER
  5
139
330
2
100
AcDbSymbolTableRecord
100
AcDbLayerTableRecord
  2
Layer252
 70
     0
 62
     7
  6
Continuous
370
    -3
390
F
  0
LAYER
  5
13A
330
2
100
AcDbSymbolTableRecord
100
AcDbLayerTableRecord
  2
Layer253
 70
     0
 62
     7
  6
Continuous
370
    -3
390
F
  0
LAYER
  5
13B
330
2
100
AcDbSymbolTableRecord
100
AcDbLayerTableRecord
  2
Layer254
 70
     0
 62
     7
  6
Continuous
370
    -3
390
F
  0
LAYER
  5
13C
330
2
100
AcDbSymbolTableRecord
100
AcDbLayerTableRecord
  2
Layer255
 70
     0
 62
     7
  6
Continuous
370
    -3
390
F
  0
ENDTAB
  0
TABLE
  2
STYLE
  5
3
330
0
100
AcDbSymbolTable
 70
     2
  0
STYLE
  5
11
330
3
100
AcDbSymbolTableRecord
100
AcDbTextStyleTableRecord
  2
Standard
 70
     0
 40
0.0
 41
1.0
 50
0.0
 71
     0
 42
2.5
  3
txt
  4

  0
STYLE
  5
3D
330
3
100
AcDbSymbolTableRecord
100
AcDbTextStyleTableRecord
  2
Arial
 70
     0
 40
0.0
 41
1.0
 50
0.0
 71
     0
 42
0.2
  3
arial.ttf
  4

1001
ACAD
1000
Arial
1071
        0
  0
ENDTAB
  0
TABLE
  2
VIEW
  5
6
330
0
100
AcDbSymbolTable
 70
     0
  0
ENDTAB
  0
TABLE
  2
UCS
  5
7
330
0
100
AcDbSymbolTable
 70
     0
  0
ENDTAB
  0
TABLE
  2
APPID
  5
9
330
0
100
AcDbSymbolTable
 70
     1
  0
APPID
  5
12
330
9
100
AcDbSymbolTableRecord
100
AcDbRegAppTableRecord
  2
ACAD
 70
     0
  0
ENDTAB
  0
TABLE
  2
DIMSTYLE
  5
A
330
0
100
AcDbSymbolTable
 70
     1
100
AcDbDimStyleTable
  0
DIMSTYLE
105
27
330
A
100
AcDbSymbolTableRecord
100
AcDbDimStyleTableRecord
  2
ISO-25
 70
     0
 41
2.5
 42
0.625
 43
3.75
 44
1.25
 73
     0
 74
     0
 77
     1
 78
     8
140
2.5
141
2.5
143
0.03937007874
147
0.625
171
     3
172
     1
271
     2
272
     2
274
     3
278
    44
283
     0
284
     8
340
11
  0
ENDTAB
  0
TABLE
  2
BLOCK_RECORD
  5
1
330
0
100
AcDbSymbolTable
 70
     1
  0
BLOCK_RECORD
  5
1F
330
1
100
AcDbSymbolTableRecord
100
AcDbBlockTableRecord
  2
*Model_Space
340
22
  0
BLOCK_RECORD
  5
1B
330
1
100
AcDbSymbolTableRecord
100
AcDbBlockTableRecord
  2
*Paper_Space
340
1E
  0
BLOCK_RECORD
  5
23
330
1
100
AcDbSymbolTableRecord
100
AcDbBlockTableRecord
  2
*Paper_Space0
340
26
  0
ENDTAB
  0
ENDSEC
  0
SECTION
  2
BLOCKS
  0
BLOCK
  5
20
330
1F
100
AcDbEntity
  8
0
100
AcDbBlockBegin
  2
*Model_Space
 70
     0
 10
0.0
 20
0.0
 30
0.0
  3
*Model_Space
  1

  0
ENDBLK
  5
21
330
1F
100
AcDbEntity
  8
0
100
AcDbBlockEnd
  0
BLOCK
  5
1C
330
1B
100
AcDbEntity
 67
     1
  8
0
100
AcDbBlockBegin
  2
*Paper_Space
 70
     0
 10
0.0
 20
0.0
 30
0.0
  3
*Paper_Space
  1

  0
ENDBLK
  5
1D
330
1B
100
AcDbEntity
 67
     1
  8
0
100
AcDbBlockEnd
  0
BLOCK
  5
24
330
23
100
AcDbEntity
  8
0
100
AcDbBlockBegin
  2
*Paper_Space0
 70
     0
 10
0.0
 20
0.0
 30
0.0
  3
*Paper_Space0
  1

  0
ENDBLK
  5
25
330
23
100
AcDbEntity
  8
0
100
AcDbBlockEnd
  0
ENDSEC
  0
SECTION
  2
ENTITIES
  0
TEXT
  5
13D
330
1F
100
AcDbEntity
  8
YELLOW
  6
AUSGEZOGEN
 62
     7
370
    25
100
AcDbText
 10
1.691513
 20
5.788996
 30
0.0
 40
0.15
  1
1
 41
0.429553264605
  7
Arial
 72
     5
 11
1.741513
 21
5.788996
 31
0.0
100
AcDbText
  0
TEXT
  5
160
330
1F
100
AcDbEntity
  8
YELLOW
  6
AUSGEZOGEN
 62
     7
370
    25
100
AcDbText
 10
2.53466
 20
5.735579
 30
0.0
 40
0.15
  1
2
 41
0.85910652921
  7
Arial
 72
     5
 11
2.63466
 21
5.735579
 31
0.0
100
AcDbText
  0
TEXT
  5
161
330
1F
100
AcDbEntity
  8
YELLOW
  6
AUSGEZOGEN
 62
     7
370
    25
100
AcDbText
 10
1.259864
 20
4.033992
 30
0.0
 40
0.15
  1
3
 41
0.85910652921
  7
Arial
 72
     5
 11
1.359864
 21
4.033992
 31
0.0
100
AcDbText
  0
TEXT
  5
162
330
1F
100
AcDbEntity
  8
YELLOW
  6
AUSGEZOGEN
 62
     7
370
    25
100
AcDbText
 10
2.044959
 20
2.749291
 30
0.0
 40
0.15
  1
4
 41
0.85910652921
  7
Arial
 72
     5
 11
2.144959
 21
2.749291
 31
0.0
100
AcDbText
  0
TEXT
  5
163
330
1F
100
AcDbEntity
  8
YELLOW
  6
AUSGEZOGEN
 62
     7
370
    25
100
AcDbText
 10
1.570974
 20
0.49832
 30
0.0
 40
0.15
  1
5
 41
0.85910652921
  7
Arial
 72
     5
 11
1.670974
 21
0.49832
 31
0.0
100
AcDbText
  0
TEXT
  5
164
330
1F
100
AcDbEntity
  8
YELLOW
  6
AUSGEZOGEN
 62
     7
370
    25
100
AcDbText
 10
4.846778
 20
9.64129
 30
0.0
 40
0.15
  1
6
 41
0.85910652921
  7
Arial
 72
     5
 11
4.946778
 21
9.64129
 31
0.0
100
AcDbText
  0
TEXT
  5
165
330
1F
100
AcDbEntity
  8
YELLOW
  6
AUSGEZOGEN
 62
     7
370
    25
100
AcDbText
 10
5.864791
 20
7.595933
 30
0.0
 40
0.15
  1
7
 41
0.85910652921
  7
Arial
 72
     5
 11
5.964791
 21
7.595933
 31
0.0
100
AcDbText
  0
TEXT
  5
166
330
1F
100
AcDbEntity
  8
YELLOW
  6
AUSGEZOGEN
 62
     7
370
    25
100
AcDbText
 10
3.095413
 20
5.080785
 30
0.0
 40
0.15
  1
8
 41
0.85910652921
  7
Arial
 72
     5
 11
3.195413
 21
5.080785
 31
0.0
100
AcDbText
  0
TEXT
  5
167
330
1F
100
AcDbEntity
  8
YELLOW
  6
AUSGEZOGEN
 62
     7
370
    25
100
AcDbText
 10
4.866909
 20
4.870329
 30
0.0
 40
0.15
  1
9
 41
0.85910652921
  7
Arial
 72
     5
 11
4.966909
 21
4.870329
 31
0.0
100
AcDbText
  0
TEXT
  5
168
330
1F
100
AcDbEntity
  8
YELLOW
  6
AUSGEZOGEN
 62
     7
370
    25
100
AcDbText
 10
3.507175
 20
3.439223
 30
0.0
 40
0.15
  1
10
 41
0.751718213058
  7
Arial
 72
     5
 11
3.682175
 21
3.439223
 31
0.0
100
AcDbText
  0
TEXT
  5
169
330
1F
100
AcDbEntity
  8
YELLOW
  6
AUSGEZOGEN
 62
     7
370
    25
100
AcDbText
 10
3.478372
 20
1.549523
 30
0.0
 40
0.15
  1
11
 41
0.644329896907
  7
Arial
 72
     5
 11
3.628372
 21
1.549523
 31
0.0
100
AcDbText
  0
TEXT
  5
16A
330
1F
100
AcDbEntity
  8
YELLOW
  6
AUSGEZOGEN
 62
     7
370
    25
100
AcDbText
 10
4.840865
 20
1.528529
 30
0.0
 40
0.15
  1
12
 41
0.85910652921
  7
Arial
 72
     5
 11
5.040865
 21
1.528529
 31
0.0
100
AcDbText
  0
TEXT
  5
16B
330
1F
100
AcDbEntity
  8
YELLOW
  6
AUSGEZOGEN
 62
     7
370
    25
100
AcDbText
 10
4.896395
 20
3.606404
 30
0.0
 40
0.15
  1
13
 41
0.85910652921
  7
Arial
 72
     5
 11
5.096395
 21
3.606404
 31
0.0
100
AcDbText
  0
TEXT
  5
16C
330
1F
100
AcDbEntity
  8
YELLOW
  6
AUSGEZOGEN
 62
     7
370
    25
100
AcDbText
 10
6.288864
 20
6.241957
 30
0.0
 40
0.15
  1
14
 41
0.85910652921
  7
Arial
 72
     5
 11
6.488864
 21
6.241957
 31
0.0
100
AcDbText
  0
TEXT
  5
16D
330
1F
100
AcDbEntity
  8
YELLOW
  6
AUSGEZOGEN
 62
     7
370
    25
100
AcDbText
 10
6.325465
 20
4.072423
 30
0.0
 40
0.15
  1
15
 41
0.85910652921
  7
Arial
 72
     5
 11
6.525465
 21
4.072423
 31
0.0
100
AcDbText
  0
TEXT
  5
16E
330
1F
100
AcDbEntity
  8
YELLOW
  6
AUSGEZOGEN
 62
     7
370
    25
100
AcDbText
 10
6.923894
 20
3.479484
 30
0.0
 40
0.15
  1
16
 41
0.85910652921
  7
Arial
 72
     5
 11
7.123894
 21
3.479484
 31
0.0
100
AcDbText
  0
TEXT
  5
16F
330
1F
100
AcDbEntity
  8
YELLOW
  6
AUSGEZOGEN
 62
     7
370
    25
100
AcDbText
 10
6.78115
 20
1.523153
 30
0.0
 40
0.15
  1
17
 41
0.85910652921
  7
Arial
 72
     5
 11
6.98115
 21
1.523153
 31
0.0
100
AcDbText
  0
TEXT
  5
170
330
1F
100
AcDbEntity
  8
YELLOW
  6
AUSGEZOGEN
 62
     7
370
    25
100
AcDbText
 10
7.831603
 20
5.708495
 30
0.0
 40
0.15
  1
18
 41
0.85910652921
  7
Arial
 72
     5
 11
8.031603
 21
5.708495
 31
0.0
100
AcDbText
  0
TEXT
  5
171
330
1F
100
AcDbEntity
  8
YELLOW
  6
AUSGEZOGEN
 62
     7
370
    25
100
AcDbText
 10
8.67709
 20
5.719475
 30
0.0
 40
0.15
  1
19
 41
0.85910652921
  7
Arial
 72
     5
 11
8.87709
 21
5.719475
 31
0.0
100
AcDbText
  0
TEXT
  5
172
330
1F
100
AcDbEntity
  8
YELLOW
  6
AUSGEZOGEN
 62
     7
370
    25
100
AcDbText
 10
7.71814
 20
3.680791
 30
0.0
 40
0.15
  1
20
 41
0.966494845361
  7
Arial
 72
     5
 11
7.94314
 21
3.680791
 31
0.0
100
AcDbText
  0
TEXT
  5
173
330
1F
100
AcDbEntity
  8
YELLOW
  6
AUSGEZOGEN
 62
     7
370
    25
100
AcDbText
 10
8.558137
 20
3.636869
 30
0.0
 40
0.15
  1
21
 41
0.85910652921
  7
Arial
 72
     5
 11
8.758137
 21
3.636869
 31
0.0
100
AcDbText
  0
TEXT
  5
174
330
1F
100
AcDbEntity
  8
YELLOW
  6
AUSGEZOGEN
 62
     7
370
    25
100
AcDbText
 10
10.113686
 20
8.678679
 30
0.0
 40
0.15
  1
22
 41
1.073883161512
  7
Arial
 72
     5
 11
10.363686
 21
8.678679
 31
0.0
100
AcDbText
  0
TEXT
  5
175
330
1F
100
AcDbEntity
  8
YELLOW
  6
AUSGEZOGEN
 62
     7
370
    25
100
AcDbText
 10
10.587671
 20
6.085488
 30
0.0
 40
0.15
  1
23
 41
1.073883161512
  7
Arial
 72
     5
 11
10.837671
 21
6.085488
 31
0.0
100
AcDbText
  0
TEXT
  5
176
330
1F
100
AcDbEntity
  8
YELLOW
  6
AUSGEZOGEN
 62
     7
370
    25
100
AcDbText
 10
11.127538
 20
7.512932
 30
0.0
 40
0.15
  1
24
 41
1.073883161512
  7
Arial
 72
     5
 11
11.377538
 21
7.512932
 31
0.0
100
AcDbText
  0
TEXT
  5
177
330
1F
100
AcDbEntity
  8
YELLOW
  6
AUSGEZOGEN
 62
     7
370
    25
100
AcDbText
 10
9.753164
 20
3.424582
 30
0.0
 40
0.15
  1
25
 41
1.073883161512
  7
Arial
 72
     5
 11
10.003164
 21
3.424582
 31
0.0
100
AcDbText
  0
TEXT
  5
178
330
1F
100
AcDbEntity
  8
YELLOW
  6
AUSGEZOGEN
 62
     7
370
    25
100
AcDbText
 10
10.527279
 20
2.848114
 30
0.0
 40
0.15
  1
26
 41
1.073883161512
  7
Arial
 72
     5
 11
10.777279
 21
2.848114
 31
0.0
100
AcDbText
  0
TEXT
  5
179
330
1F
100
AcDbEntity
  8
YELLOW
  6
AUSGEZOGEN
 62
     7
370
    25
100
AcDbText
 10
11.081787
 20
0.395836
 30
0.0
 40
0.15
  1
27
 41
1.073883161512
  7
Arial
 72
     5
 11
11.331787
 21
0.395836
 31
0.0
100
AcDbText
  0
LINE
  5
17A
330
1F
100
AcDbEntity
  8
WHITE
  6
AUSGEZOGEN
 62
     7
370
    25
100
AcDbLine
 10
0.0
 20
10.189973
 30
0.0
 11
12.825921
 21
10.189973
 31
0.0
  0
LINE
  5
17B
330
1F
100
AcDbEntity
  8
WHITE
  6
AUSGEZOGEN
 62
     7
370
    25
100
AcDbLine
 10
12.825921
 20
10.189973
 30
0.0
 11
12.825921
 21
0.0
 31
0.0
  0
LINE
  5
17C
330
1F
100
AcDbEntity
  8
WHITE
  6
AUSGEZOGEN
 62
     7
370
    25
100
AcDbLine
 10
12.825921
 20
0.0
 30
0.0
 11
0.0
 21
0.0
 31
0.0
  0
LINE
  5
17D
330
1F
100
AcDbEntity
  8
WHITE
  6
AUSGEZOGEN
 62
     7
370
    25
100
AcDbLine
 10
0.0
 20
0.0
 30
0.0
 11
0.0
 21
10.189973
 31
0.0
  0
ARC
  5
17E
330
1F
100
AcDbEntity
  8
WHITE
  6
AUSGEZOGEN
 62
     7
370
    25
100
AcDbCircle
 10
2.36699
 20
16.938104
 30
0.0
 40
9.471357
100
AcDbArc
 50
285.2905
 51
286.5982
  0
LINE
  5
17F
330
1F
100
AcDbEntity
  8
WHITE
  6
AUSGEZOGEN
 62
     7
370
    25
100
AcDbLine
 10
5.072562
 20
7.861404
 30
0.0
 11
5.01479
 21
8.062979
 31
0.0
  0
ARC
  5
180
330
1F
100
AcDbEntity
  8
WHITE
  6
AUSGEZOGEN
 62
     7
370
    25
100
AcDbCircle
 10
5.129472
 20
8.095931
 30
0.0
 40
0.119321
100
AcDbArc
 50
118.113184
 51
196.03092
  0
ARC
  5
181
330
1F
100
AcDbEntity
  8
WHITE
  6
AUSGEZOGEN
 62
     7
370
    25
100
AcDbCircle
 10
6.174888
 20
3.526934
 30
0.0
 40
4.802305
100
AcDbArc
 50
93.516126
 51
103.261675
  0
ARC
  5
182
330
1F
100
AcDbEntity
  8
WHITE
  6
AUSGEZOGEN
 62
     7
370
    25
100
AcDbCircle
 10
6.09047
 20
5.648864
 30
0.0
 40
2.679585
100
AcDbArc
 50
84.45773
 51
94.49715
  0
ARC
  5
183
330
1F
100
AcDbEntity
  8
WHITE
  6
AUSGEZOGEN
 62
     7
370
    25
100
AcDbCircle
 10
6.305157
 20
8.102417
 30
0.0
 40
0.218015
100
AcDbArc
 50
26.93545
 51
78.327442
  0
LINE
  5
184
330
1F
100
AcDbEntity
  8
WHITE
  6
AUSGEZOGEN
 62
     7
370
    25
100
AcDbLine
 10
6.49952
 20
8.201174
 30
0.0
 11
6.516665
 21
8.167424
 31
0.0
  0
ARC
  5
185
330
1F
100
AcDbEntity
  8
WHITE
  6
AUSGEZOGEN
 62
     7
370
    25
100
AcDbCircle
 10
6.49682
 20
8.157074
 30
0.0
 40
0.022382
100
AcDbArc
 50
274.150798
 51
27.543931
  0
LINE
  5
186
330
1F
100
AcDbEntity
  8
WHITE
  6
AUSGEZOGEN
 62
     7
370
    25
100
AcDbLine
 10
6.498441
 20
8.134751
 30
0.0
 11
5.812595
 21
8.078099
 31
0.0
  0
ARC
  5
187
330
1F
100
AcDbEntity
  8
WHITE
  6
AUSGEZOGEN
 62
     7
370
    25
100
AcDbCircle
 10
5.81525
 20
8.045249
 30
0.0
 40
0.032957
100
AcDbArc
 50
94.620711
 51
274.459199
  0
LINE
  5
188
330
1F
100
AcDbEntity
  8
WHITE
  6
AUSGEZOGEN
 62
     7
370
    25
100
AcDbLine
 10
5.817813
 20
8.012392
 30
0.0
 11
6.54992
 21
8.071124
 31
0.0
  0
ARC
  5
189
330
1F
100
AcDbEntity
  8
WHITE
  6
AUSGEZOGEN
 62
     7
370
    25
100
AcDbCircle
 10
6.55154
 20
8.048624
 30
0.0
 40
0.022558
100
AcDbArc
 50
26.51362
 51
94.11819
  0
LINE
  5
18A
330
1F
100
AcDbEntity
  8
WHITE
  6
AUSGEZOGEN
 62
     7
370
    25
100
AcDbLine
 10
6.571726
 20
8.058695
 30
0.0
 11
6.789365
 21
7.630754
 31
0.0
  0
ARC
  5
18B
330
1F
100
AcDbEntity
  8
WHITE
  6
AUSGEZOGEN
 62
     7
370
    25
100
AcDbCircle
 10
6.817941
 20
7.648851
 30
0.0
 40
0.033824
100
AcDbArc
 50
212.345353
 51
21.366949
  0
LINE
  5
18C
330
1F
100
AcDbEntity
  8
WHITE
  6
AUSGEZOGEN
 62
     7
370
    25
100
AcDbLine
 10
6.84944
 20
7.661174
 30
0.0
 11
6.704045
 21
7.947374
 31
0.0
  0
ARC
  5
18D
330
1F
100
AcDbEntity
  8
WHITE
  6
AUSGEZOGEN
 62
     7
370
    25
100
AcDbCircle
 10
6.723903
 20
7.957726
 30
0.0
 40
0.022393
100
AcDbArc
 50
96.957025
 51
207.532775
  0
ARC
  5
18E
330
1F
100
AcDbEntity
  8
WHITE
  6
AUSGEZOGEN
 62
     7
370
    25
100
AcDbCircle
 10
6.59339
 20
8.939264
 30
0.0
 40
0.967785
100
AcDbArc
 50
277.5883
 51
297.6636
  0
ARC
  5
18F
330
1F
100
AcDbEntity
  8
WHITE
  6
AUSGEZOGEN
 62
     7
370
    25
100
AcDbCircle
 10
7.192338
 20
7.711983
 30
0.0
 40
0.399224
100
AcDbArc
 50
36.081417
 51
112.011242
  0
ARC
  5
190
330
1F
100
AcDbEntity
  8
WHITE
  6
AUSGEZOGEN
 62
     7
370
    25
100
AcDbCircle
 10
7.455398
 20
7.902828
 30
0.0
 40
0.074233
100
AcDbArc
 50
254.676473
 51
36.61189
  0
ARC
  5
191
330
1F
100
AcDbEntity
  8
WHITE
  6
AUSGEZOGEN
 62
     7
370
    25
100
AcDbCircle
 10
8.686109
 20
12.455974
 30
0.0
 40
4.790776
100
AcDbArc
 50
253.506677
 51
254.871381
  0
ARC
  5
192
330
1F
100
AcDbEntity
  8
WHITE
  6
AUSGEZOGEN
 62
     7
370
    25
100
AcDbCircle
 10
7.281008
 20
7.710278
 30
0.0
 40
0.158561
100
AcDbArc
 50
73.519242
 51
321.52708
  0
ARC
  5
193
330
1F
100
AcDbEntity
  8
WHITE
  6
AUSGEZOGEN
 62
     7
370
    25
100
AcDbCircle
 10
7.65872
 20
7.409534
 30
0.0
 40
0.324257
100
AcDbArc
 50
117.7493
 51
141.4457
  0
ARC
  5
194
330
1F
100
AcDbEntity
  8
WHITE
  6
AUSGEZOGEN
 62
     7
370
    25
100
AcDbCircle
 10
7.537671
 20
7.639845
 30
0.0
 40
0.064073
100
AcDbArc
 50
342.136861
 51
117.843426
  0
ARC
  5
195
330
1F
100
AcDbEntity
  8
WHITE
  6
AUSGEZOGEN
 62
     7
370
    25
100
AcDbCircle
 10
7.176787
 20
7.664462
 30
0.0
 40
0.424184
100
AcDbArc
 50
325.684634
 51
354.00927
  0
ARC
  5
196
330
1F
100
AcDbEntity
  8
WHITE
  6
AUSGEZOGEN
 62
     7
370
    25
100
AcDbCircle
 10
7.284815
 20
7.590029
 30
0.0
 40
0.292997
100
AcDbArc
 50
297.3323
 51
325.7974
  0
ARC
  5
197
330
1F
100
AcDbEntity
  8
WHITE
  6
AUSGEZOGEN
 62
     7
370
    25
100
AcDbCircle
 10
7.555111
 20
6.327345
 30
0.0
 40
1.01155
100
AcDbArc
 50
97.713239
 51
115.342365
  0
ARC
  5
198
330
1F
100
AcDbEntity
  8
WHITE
  6
AUSGEZOGEN
 62
     7
370
    25
100
AcDbCircle
 10
7.386372
 20
6.7618
 30
0.0
 40
0.547703
100
AcDbArc
 50
118.844567
 51
150.2957
  0
ARC
  5
199
330
1F
100
AcDbEntity
  8
WHITE
  6
AUSGEZOGEN
 62
     7
370
    25
100
AcDbCircle
 10
6.82541
 20
7.143269
 30
0.0
 40
0.13921
100
AcDbArc
 50
271.8152
 51
307.7515
  0
ARC
  5
19A
330
1F
100
AcDbEntity
  8
WHITE
  6
AUSGEZOGEN
 62
     7
370
    25
100
AcDbCircle
 10
6.822647
 20
7.192205
 30
0.0
 40
0.188213
100
AcDbArc
 50
222.663578
 51
272.184229
  0
ARC
  5
19B
330
1F
100
AcDbEntity
  8
WHITE
  6
AUSGEZOGEN
 62
     7
370
    25
100
AcDbCircle
 10
6.700857
 20
7.079782
 30
0.0
 40
0.022467
100
AcDbArc
 50
139.410479
 51
222.322983
  0
LINE
  5
19C
330
1F
100
AcDbEntity
  8
WHITE
  6
AUSGEZOGEN
 62
     7
370
    25
100
AcDbLine
 10
6.683795
 20
7.094399
 30
0.0
 11
6.852545
 21
7.293029
 31
0.0
  0
ARC
  5
19D
330
1F
100
AcDbEntity
  8
WHITE
  6
AUSGEZOGEN
 62
     7
370
    25
100
AcDbCircle
 10
6.83552
 20
7.307681
 30
0.0
 40
0.022462
100
AcDbArc
 50
319.286872
 51
49.473248
  0
LINE
  5
19E
330
1F
100
AcDbEntity
  8
WHITE
  6
AUSGEZOGEN
 62
     7
370
    25
100
AcDbLine
 10
6.850115
 20
7.324754
 30
0.0
 11
6.833015
 21
7.339199
 31
0.0
  0
ARC
  5
19F
330
1F
100
AcDbEntity
  8
WHITE
  6
AUSGEZOGEN
 62
     7
370
    25
100
AcDbCircle
 10
6.818379
 20
7.322199
 30
0.0
 40
0.022433
100
AcDbArc
 50
49.272717
 51
139.797706
  0
LINE
  5
1A0
330
1F
100
AcDbEntity
  8
WHITE
  6
AUSGEZOGEN
 62
     7
370
    25
100
AcDbLine
 10
6.801245
 20
7.336679
 30
0.0
 11
6.57827
 21
7.074554
 31
0.0
  0
ARC
  5
1A1
330
1F
100
AcDbEntity
  8
WHITE
  6
AUSGEZOGEN
 62
     7
370
    25
100
AcDbCircle
 10
6.34841
 20
7.274894
 30
0.0
 40
0.304913
100
AcDbArc
 50
285.6074
 51
318.92544
  0
ARC
  5
1A2
330
1F
100
AcDbEntity
  8
WHITE
  6
AUSGEZOGEN
 62
     7
370
    25
100
AcDbCircle
 10
6.818075
 20
9.380849
 30
0.0
 40
2.430732
100
AcDbArc
 50
248.5088
 51
260.823836
  0
LINE
  5
1A3
330
1F
100
AcDbEntity
  8
WHITE
  6
AUSGEZOGEN
 62
     7
370
    25
100
AcDbLine
 10
5.927557
 20
7.119117
 30
0.0
 11
5.43707
 21
7.285874
 31
0.0
  0
ARC
  5
1A4
330
1F
100
AcDbEntity
  8
WHITE
  6
AUSGEZOGEN
 62
     7
370
    25
100
AcDbCircle
 10
5.429812
 20
7.264594
 30
0.0
 40
0.022484
100
AcDbArc
 50
71.16537
 51
161.093881
  0
LINE
  5
1A5
330
1F
100
AcDbEntity
  8
WHITE
  6
AUSGEZOGEN
 62
     7
370
    25
100
AcDbLine
 10
5.40854
 20
7.271879
 30
0.0
 11
5.401295
 21
7.250549
 31
0.0
  0
ARC
  5
1A6
330
1F
100
AcDbEntity
  8
WHITE
  6
AUSGEZOGEN
 62
     7
370
    25
100
AcDbCircle
 10
5.422625
 20
7.243394
 30
0.0
 40
0.022498
100
AcDbArc
 50
161.456331
 51
250.8397
  0
LINE
  5
1A7
330
1F
100
AcDbEntity
  8
WHITE
  6
AUSGEZOGEN
 62
     7
370
    25
100
AcDbLine
 10
5.415241
 20
7.222143
 30
0.0
 11
5.815745
 21
7.085804
 31
0.0
  0
ARC
  5
1A8
330
1F
100
AcDbEntity
  8
WHITE
  6
AUSGEZOGEN
 62
     7
370
    25
100
AcDbCircle
 10
5.808435
 20
7.06455
 30
0.0
 40
0.022476
100
AcDbArc
 50
321.976711
 51
71.017916
  0
ARC
  5
1A9
330
1F
100
AcDbEntity
  8
WHITE
  6
AUSGEZOGEN
 62
     7
370
    25
100
AcDbCircle
 10
2.38319
 20
9.731084
 30
0.0
 40
4.363294
100
AcDbArc
 50
321.1187
 51
322.0988
  0
ARC
  5
1AA
330
1F
100
AcDbEntity
  8
WHITE
  6
AUSGEZOGEN
 62
     7
370
    25
100
AcDbCircle
 10
5.648389
 20
7.103535
 30
0.0
 40
0.172222
100
AcDbArc
 50
247.067433
 51
319.726676
  0
ARC
  5
1AB
330
1F
100
AcDbEntity
  8
WHITE
  6
AUSGEZOGEN
 62
     7
370
    25
100
AcDbCircle
 10
5.907275
 20
7.84882
 30
0.0
 40
0.960883
100
AcDbArc
 50
242.156754
 51
250.168032
  0
ARC
  5
1AC
330
1F
100
AcDbEntity
  8
WHITE
  6
AUSGEZOGEN
 62
     7
370
    25
100
AcDbCircle
 10
5.277635
 20
6.655829
 30
0.0
 40
0.388069
100
AcDbArc
 50
62.22259
 51
83.54907
  0
ARC
  5
1AD
330
1F
100
AcDbEntity
  8
WHITE
  6
AUSGEZOGEN
 62
     7
370
    25
100
AcDbCircle
 10
5.303779
 20
6.981463
 30
0.0
 40
0.062467
100
AcDbArc
 50
73.771865
 51
156.492255
  0
ARC
  5
1AE
330
1F
100
AcDbEntity
  8
WHITE
  6
AUSGEZOGEN
 62
     7
370
    25
100
AcDbCircle
 10
5.477928
 20
6.934865
 30
0.0
 40
0.242229
100
AcDbArc
 50
162.828362
 51
184.269995
  0
ARC
  5
1AF
330
1F
100
AcDbEntity
  8
WHITE
  6
AUSGEZOGEN
 62
     7
370
    25
100
AcDbCircle
 10
4.985318
 20
6.888167
 30
0.0
 40
0.252683
100
AcDbArc
 50
359.46872
 51
6.513111
  0
ARC
  5
1B0
330
1F
100
AcDbEntity
  8
WHITE
  6
AUSGEZOGEN
 62
     7
370
    25
100
AcDbCircle
 10
5.21549
 20
6.886004
 30
0.0
 40
0.022501
100
AcDbArc
 50
230.194598
 51
359.541699
  0
LINE
  5
1B1
330
1F
100
AcDbEntity
  8
WHITE
  6
AUSGEZOGEN
 62
     7
370
    25
100
AcDbLine
 10
5.201086
 20
6.868719
 30
0.0
 11
5.053895
 21
6.992699
 31
0.0
  0
ARC
  5
1B2
330
1F
100
AcDbEntity
  8
WHITE
  6
AUSGEZOGEN
 62
     7
370
    25
100
AcDbCircle
 10
5.039402
 20
6.975782
 30
0.0
 40
0.022277
100
AcDbArc
 50
49.413406
 51
140.490953
  0
LINE
  5
1B3
330
1F
100
AcDbEntity
  8
WHITE
  6
AUSGEZOGEN
 62
     7
370
    25
100
AcDbLine
 10
5.022215
 20
6.989954
 30
0.0
 11
5.007815
 21
6.972899
 31
0.0
  0
ARC
  5
1B4
330
1F
100
AcDbEntity
  8
WHITE
  6
AUSGEZOGEN
 62
     7
370
    25
100
AcDbCircle
 10
5.024733
 20
6.958362
 30
0.0
 40
0.022306
100
AcDbArc
 50
139.327272
 51
230.401755
  0
LINE
  5
1B5
330
1F
100
AcDbEntity
  8
WHITE
  6
AUSGEZOGEN
 62
     7
370
    25
100
AcDbLine
 10
5.010515
 20
6.941174
 30
0.0
 11
5.22647
 21
6.759149
 31
0.0
  0
ARC
  5
1B6
330
1F
100
AcDbEntity
  8
WHITE
  6
AUSGEZOGEN
 62
     7
370
    25
100
AcDbCircle
 10
5.212205
 20
6.742049
 30
0.0
 40
0.022269
100
AcDbArc
 50
353.6224
 51
50.16478
  0
LINE
  5
1B7
330
1F
100
AcDbEntity
  8
WHITE
  6
AUSGEZOGEN
 62
     7
370
    25
100
AcDbLine
 10
5.234336
 20
6.739576
 30
0.0
 11
5.208065
 21
6.470924
 31
0.0
  0
ARC
  5
1B8
330
1F
100
AcDbEntity
  8
WHITE
  6
AUSGEZOGEN
 62
     7
370
    25
100
AcDbCircle
 10
5.171465
 20
6.474816
 30
0.0
 40
0.036807
100
AcDbArc
 50
215.286236
 51
353.930313
  0
LINE
  5
1B9
330
1F
100
AcDbEntity
  8
WHITE
  6
AUSGEZOGEN
 62
     7
370
    25
100
AcDbLine
 10
5.14142
 20
6.453554
 30
0.0
 11
5.00669
 21
6.646154
 31
0.0
  0
ARC
  5
1BA
330
1F
100
AcDbEntity
  8
WHITE
  6
AUSGEZOGEN
 62
     7
370
    25
100
AcDbCircle
 10
4.98824
 20
6.633419
 30
0.0
 40
0.022418
100
AcDbArc
 50
34.615142
 51
124.934701
  0
LINE
  5
1BB
330
1F
100
AcDbEntity
  8
WHITE
  6
AUSGEZOGEN
 62
     7
370
    25
100
AcDbLine
 10
4.975403
 20
6.651798
 30
0.0
 11
4.95692
 21
6.638999
 31
0.0
  0
ARC
  5
1BC
330
1F
100
AcDbEntity
  8
WHITE
  6
AUSGEZOGEN
 62
     7
370
    25
100
AcDbCircle
 10
4.96952
 20
6.620459
 30
0.0
 40
0.022416
100
AcDbArc
 50
124.200484
 51
215.511099
  0
LINE
  5
1BD
330
1F
100
AcDbEntity
  8
WHITE
  6
AUSGEZOGEN
 62
     7
370
    25
100
AcDbLine
 10
4.951274
 20
6.607439
 30
0.0
 11
5.14304
 21
6.333674
 31
0.0
  0
ARC
  5
1BE
330
1F
100
AcDbEntity
  8
WHITE
  6
AUSGEZOGEN
 62
     7
370
    25
100
AcDbCircle
 10
3.071959
 20
7.134713
 30
0.0
 40
2.220595
100
AcDbArc
 50
332.480164
 51
338.854873
  0
ARC
  5
1BF
330
1F
100
AcDbEntity
  8
WHITE
  6
AUSGEZOGEN
 62
     7
370
    25
100
AcDbCircle
 10
4.968695
 20
6.146595
 30
0.0
 40
0.081907
100
AcDbArc
 50
206.729972
 51
332.421004
  0
LINE
  5
1C0
330
1F
100
AcDbEntity
  8
WHITE
  6
AUSGEZOGEN
 62
     7
370
    25
100
AcDbLine
 10
4.89554
 20
6.109754
 30
0.0
 11
4.80869
 21
6.282374
 31
0.0
  0
ARC
  5
1C1
330
1F
100
AcDbEntity
  8
WHITE
  6
AUSGEZOGEN
 62
     7
370
    25
100
AcDbCircle
 10
4.788692
 20
6.272331
 30
0.0
 40
0.022379
100
AcDbArc
 50
26.66699
 51
116.976971
  0
LINE
  5
1C2
330
1F
100
AcDbEntity
  8
WHITE
  6
AUSGEZOGEN
 62
     7
370
    25
100
AcDbLine
 10
4.77854
 20
6.292274
 30
0.0
 11
4.758515
 21
6.282374
 31
0.0
  0
ARC
  5
1C3
330
1F
100
AcDbEntity
  8
WHITE
  6
AUSGEZOGEN
 62
     7
370
    25
100
AcDbCircle
 10
4.768235
 20
6.262214
 30
0.0
 40
0.022381
100
AcDbArc
 50
115.740708
 51
207.285599
  0
LINE
  5
1C4
330
1F
100
AcDbEntity
  8
WHITE
  6
AUSGEZOGEN
 62
     7
370
    25
100
AcDbLine
 10
4.748345
 20
6.251954
 30
0.0
 11
4.89869
 21
5.953604
 31
0.0
  0
ARC
  5
1C5
330
1F
100
AcDbEntity
  8
WHITE
  6
AUSGEZOGEN
 62
     7
370
    25
100
AcDbCircle
 10
4.878728
 20
5.943533
 30
0.0
 40
0.022359
100
AcDbArc
 50
296.102031
 51
26.771717
  0
LINE
  5
1C6
330
1F
100
AcDbEntity
  8
WHITE
  6
AUSGEZOGEN
 62
     7
370
    25
100
AcDbLine
 10
4.888565
 20
5.923454
 30
0.0
 11
4.681295
 21
5.818829
 31
0.0
  0
ARC
  5
1C7
330
1F
100
AcDbEntity
  8
WHITE
  6
AUSGEZOGEN
 62
     7
370
    25
100
AcDbCircle
 10
4.64426
 20
5.896139
 30
0.0
 40
0.085723
100
AcDbArc
 50
198.9012
 51
295.596537
  0
LINE
  5
1C8
330
1F
100
AcDbEntity
  8
WHITE
  6
AUSGEZOGEN
 62
     7
370
    25
100
AcDbLine
 10
4.56316
 20
5.868371
 30
0.0
 11
4.504265
 21
6.040499
 31
0.0
  0
ARC
  5
1C9
330
1F
100
AcDbEntity
  8
WHITE
  6
AUSGEZOGEN
 62
     7
370
    25
100
AcDbCircle
 10
4.48298
 20
6.033164
 30
0.0
 40
0.022513
100
AcDbArc
 50
19.014406
 51
109.014902
  0
LINE
  5
1CA
330
1F
100
AcDbEntity
  8
WHITE
  6
AUSGEZOGEN
 62
     7
370
    25
100
AcDbLine
 10
4.475645
 20
6.054449
 30
0.0
 11
4.454495
 21
6.047204
 31
0.0
  0
ARC
  5
1CB
330
1F
100
AcDbEntity
  8
WHITE
  6
AUSGEZOGEN
 62
     7
370
    25
100
AcDbCircle
 10
4.46165
 20
6.025874
 30
0.0
 40
0.022498
100
AcDbArc
 50
108.543703
 51
198.689701
  0
LINE
  5
1CC
330
1F
100
AcDbEntity
  8
WHITE
  6
AUSGEZOGEN
 62
     7
370
    25
100
AcDbLine
 10
4.440338
 20
6.018665
 30
0.0
 11
4.51637
 21
5.797274
 31
0.0
  0
ARC
  5
1CD
330
1F
100
AcDbEntity
  8
WHITE
  6
AUSGEZOGEN
 62
     7
370
    25
100
AcDbCircle
 10
4.495144
 20
5.789805
 30
0.0
 40
0.022503
100
AcDbArc
 50
270.883326
 51
19.387078
  0
LINE
  5
1CE
330
1F
100
AcDbEntity
  8
WHITE
  6
AUSGEZOGEN
 62
     7
370
    25
100
AcDbLine
 10
4.49549
 20
5.767304
 30
0.0
 11
4.253345
 21
5.761679
 31
0.0
  0
ARC
  5
1CF
330
1F
100
AcDbEntity
  8
WHITE
  6
AUSGEZOGEN
 62
     7
370
    25
100
AcDbCircle
 10
4.251095
 20
5.860229
 30
0.0
 40
0.098576
100
AcDbArc
 50
195.1911
 51
271.3079
  0
LINE
  5
1D0
330
1F
100
AcDbEntity
  8
WHITE
  6
AUSGEZOGEN
 62
     7
370
    25
100
AcDbLine
 10
4.155964
 20
5.834399
 30
0.0
 11
4.14332
 21
5.994554
 31
0.0
  0
ARC
  5
1D1
330
1F
100
AcDbEntity
  8
WHITE
  6
AUSGEZOGEN
 62
     7
370
    25
100
AcDbCircle
 10
4.12082
 20
5.992799
 30
0.0
 40
0.022568
100
AcDbArc
 50
4.46004
 51
94.46004
  0
LINE
  5
1D2
330
1F
100
AcDbEntity
  8
WHITE
  6
AUSGEZOGEN
 62
     7
370
    25
100
AcDbLine
 10
4.119065
 20
6.015299
 30
0.0
 11
4.09679
 21
6.013454
 31
0.0
  0
ARC
  5
1D3
330
1F
100
AcDbEntity
  8
WHITE
  6
AUSGEZOGEN
 62
     7
370
    25
100
AcDbCircle
 10
4.098545
 20
5.990954
 30
0.0
 40
0.022568
100
AcDbArc
 50
94.46004
 51
184.469099
  0
LINE
  5
1D4
330
1F
100
AcDbEntity
  8
WHITE
  6
AUSGEZOGEN
 62
     7
370
    25
100
AcDbLine
 10
4.076046
 20
5.989196
 30
0.0
 11
4.089815
 21
5.814329
 31
0.0
  0
ARC
  5
1D5
330
1F
100
AcDbEntity
  8
WHITE
  6
AUSGEZOGEN
 62
     7
370
    25
100
AcDbCircle
 10
4.067288
 20
5.812719
 30
0.0
 40
0.022585
100
AcDbArc
 50
250.881866
 51
4.08858
  0
LINE
  5
1D6
330
1F
100
AcDbEntity
  8
WHITE
  6
AUSGEZOGEN
 62
     7
370
    25
100
AcDbLine
 10
4.05989
 20
5.791379
 30
0.0
 11
3.840695
 21
5.868374
 31
0.0
  0
ARC
  5
1D7
330
1F
100
AcDbEntity
  8
WHITE
  6
AUSGEZOGEN
 62
     7
370
    25
100
AcDbCircle
 10
3.87125
 20
5.954909
 30
0.0
 40
0.091771
100
AcDbArc
 50
184.3321
 51
250.552173
  0
LINE
  5
1D8
330
1F
100
AcDbEntity
  8
WHITE
  6
AUSGEZOGEN
 62
     7
370
    25
100
AcDbLine
 10
3.779742
 20
5.947977
 30
0.0
 11
3.79502
 21
6.119474
 31
0.0
  0
ARC
  5
1D9
330
1F
100
AcDbEntity
  8
WHITE
  6
AUSGEZOGEN
 62
     7
370
    25
100
AcDbCircle
 10
3.77252
 20
6.121274
 30
0.0
 40
0.022572
100
AcDbArc
 50
355.426079
 51
84.857442
  0
LINE
  5
1DA
330
1F
100
AcDbEntity
  8
WHITE
  6
AUSGEZOGEN
 62
     7
370
    25
100
AcDbLine
 10
3.774544
 20
6.143755
 30
0.0
 11
3.752315
 21
6.145754
 31
0.0
  0
ARC
  5
1DB
330
1F
100
AcDbEntity
  8
WHITE
  6
AUSGEZOGEN
 62
     7
370
    25
100
AcDbCircle
 10
3.75047
 20
6.123254
 30
0.0
 40
0.022576
100
AcDbArc
 50
85.312234
 51
174.165
  0
LINE
  5
1DC
330
1F
100
AcDbEntity
  8
WHITE
  6
AUSGEZOGEN
 62
     7
370
    25
100
AcDbLine
 10
3.728012
 20
6.125549
 30
0.0
 11
3.711995
 21
5.947799
 31
0.0
  0
ARC
  5
1DD
330
1F
100
AcDbEntity
  8
WHITE
  6
AUSGEZOGEN
 62
     7
370
    25
100
AcDbCircle
 10
3.689495
 20
5.949825
 30
0.0
 40
0.022591
100
AcDbArc
 50
236.782922
 51
354.8568
  0
ARC
  5
1DE
330
1F
100
AcDbEntity
  8
WHITE
  6
AUSGEZOGEN
 62
     7
370
    25
100
AcDbCircle
 10
4.840057
 20
7.684528
 30
0.0
 40
2.104174
100
AcDbArc
 50
228.256914
 51
236.448846
  0
ARC
  5
1DF
330
1F
100
AcDbEntity
  8
WHITE
  6
AUSGEZOGEN
 62
     7
370
    25
100
AcDbCircle
 10
3.454371
 20
6.13122
 30
0.0
 40
0.022616
100
AcDbArc
 50
159.259892
 51
227.581612
  0
LINE
  5
1E0
330
1F
100
AcDbEntity
  8
WHITE
  6
AUSGEZOGEN
 62
     7
370
    25
100
AcDbLine
 10
3.43322
 20
6.139229
 30
0.0
 11
3.511295
 21
6.341549
 31
0.0
  0
ARC
  5
1E1
330
1F
100
AcDbEntity
  8
WHITE
  6
AUSGEZOGEN
 62
     7
370
    25
100
AcDbCircle
 10
3.490361
 20
6.349625
 30
0.0
 40
0.022438
100
AcDbArc
 50
338.904226
 51
68.690134
  0
LINE
  5
1E2
330
1F
100
AcDbEntity
  8
WHITE
  6
AUSGEZOGEN
 62
     7
370
    25
100
AcDbLine
 10
3.498515
 20
6.370529
 30
0.0
 11
3.477545
 21
6.378674
 31
0.0
  0
ARC
  5
1E3
330
1F
100
AcDbEntity
  8
WHITE
  6
AUSGEZOGEN
 62
     7
370
    25
100
AcDbCircle
 10
3.46949
 20
6.357749
 30
0.0
 40
0.022422
100
AcDbArc
 50
68.945977
 51
158.945701
  0
LINE
  5
1E4
330
1F
100
AcDbEntity
  8
WHITE
  6
AUSGEZOGEN
 62
     7
370
    25
100
AcDbLine
 10
3.448566
 20
6.365804
 30
0.0
 11
3.37184
 21
6.167579
 31
0.0
  0
ARC
  5
1E5
330
1F
100
AcDbEntity
  8
WHITE
  6
AUSGEZOGEN
 62
     7
370
    25
100
AcDbCircle
 10
3.350856
 20
6.175514
 30
0.0
 40
0.022434
100
AcDbArc
 50
224.822094
 51
339.287583
  0
ARC
  5
1E6
330
1F
100
AcDbEntity
  8
WHITE
  6
AUSGEZOGEN
 62
     7
370
    25
100
AcDbCircle
 10
7.477865
 20
10.277204
 30
0.0
 40
5.841032
100
AcDbArc
 50
222.769
 51
224.8237
  0
ARC
  5
1E7
330
1F
100
AcDbEntity
  8
WHITE
  6
AUSGEZOGEN
 62
     7
370
    25
100
AcDbCircle
 10
3.299341
 20
6.412328
 30
0.0
 40
0.149165
100
AcDbArc
 50
145.717081
 51
222.848545
  0
LINE
  5
1E8
330
1F
100
AcDbEntity
  8
WHITE
  6
AUSGEZOGEN
 62
     7
370
    25
100
AcDbLine
 10
3.17609
 20
6.496349
 30
0.0
 11
3.25709
 21
6.634229
 31
0.0
  0
ARC
  5
1E9
330
1F
100
AcDbEntity
  8
WHITE
  6
AUSGEZOGEN
 62
     7
370
    25
100
AcDbCircle
 10
3.237734
 20
6.645648
 30
0.0
 40
0.022474
100
AcDbArc
 50
329.463304
 51
59.941584
  0
LINE
  5
1EA
330
1F
100
AcDbEntity
  8
WHITE
  6
AUSGEZOGEN
 62
     7
370
    25
100
AcDbLine
 10
3.24899
 20
6.665099
 30
0.0
 11
3.22964
 21
6.676529
 31
0.0
  0
ARC
  5
1EB
330
1F
100
AcDbEntity
  8
WHITE
  6
AUSGEZOGEN
 62
     7
370
    25
100
AcDbCircle
 10
3.21839
 20
6.657044
 30
0.0
 40
0.0225
100
AcDbArc
 50
59.999272
 51
149.430001
  0
LINE
  5
1EC
330
1F
100
AcDbEntity
  8
WHITE
  6
AUSGEZOGEN
 62
     7
370
    25
100
AcDbLine
 10
3.199018
 20
6.668487
 30
0.0
 11
3.08852
 21
6.480149
 31
0.0
  0
ARC
  5
1ED
330
1F
100
AcDbEntity
  8
WHITE
  6
AUSGEZOGEN
 62
     7
370
    25
100
AcDbCircle
 10
3.069245
 20
6.491737
 30
0.0
 40
0.022491
100
AcDbArc
 50
213.731117
 51
328.986342
  0
ARC
  5
1EE
330
1F
100
AcDbEntity
  8
WHITE
  6
AUSGEZOGEN
 62
     7
370
    25
100
AcDbCircle
 10
4.1336
 20
7.201409
 30
0.0
 40
1.301743
100
AcDbArc
 50
205.2487
 51
213.6945
  0
ARC
  5
1EF
330
1F
100
AcDbEntity
  8
WHITE
  6
AUSGEZOGEN
 62
     7
370
    25
100
AcDbCircle
 10
3.137671
 20
6.738868
 30
0.0
 40
0.203766
100
AcDbArc
 50
141.145367
 51
207.065204
  0
LINE
  5
1F0
330
1F
100
AcDbEntity
  8
WHITE
  6
AUSGEZOGEN
 62
     7
370
    25
100
AcDbLine
 10
2.97899
 20
6.866699
 30
0.0
 11
3.058415
 21
6.935954
 31
0.0
  0
ARC
  5
1F1
330
1F
100
AcDbEntity
  8
WHITE
  6
AUSGEZOGEN
 62
     7
370
    25
100
AcDbCircle
 10
3.04354
 20
6.952807
 30
0.0
 40
0.022479
100
AcDbArc
 50
311.433837
 51
41.423616
  0
LINE
  5
1F2
330
1F
100
AcDbEntity
  8
WHITE
  6
AUSGEZOGEN
 62
     7
370
    25
100
AcDbLine
 10
3.060395
 20
6.967679
 30
0.0
 11
3.045815
 21
6.984554
 31
0.0
  0
ARC
  5
1F3
330
1F
100
AcDbEntity
  8
WHITE
  6
AUSGEZOGEN
 62
     7
370
    25
100
AcDbCircle
 10
3.028789
 20
6.969903
 30
0.0
 40
0.022462
100
AcDbArc
 50
40.712048
 51
131.024443
  0
LINE
  5
1F4
330
1F
100
AcDbEntity
  8
WHITE
  6
AUSGEZOGEN
 62
     7
370
    25
100
AcDbLine
 10
3.014045
 20
6.986849
 30
0.0
 11
2.877965
 21
6.868049
 31
0.0
  0
ARC
  5
1F5
330
1F
100
AcDbEntity
  8
WHITE
  6
AUSGEZOGEN
 62
     7
370
    25
100
AcDbCircle
 10
2.862979
 20
6.884793
 30
0.0
 40
0.022471
100
AcDbArc
 50
199.058572
 51
311.829964
  0
ARC
  5
1F6
330
1F
100
AcDbEntity
  8
WHITE
  6
AUSGEZOGEN
 62
     7
370
    25
100
AcDbCircle
 10
4.757885
 20
7.541744
 30
0.0
 40
2.028027
100
AcDbArc
 50
192.1001
 51
199.1204
  0
ARC
  5
1F7
330
1F
100
AcDbEntity
  8
WHITE
  6
AUSGEZOGEN
 62
     7
370
    25
100
AcDbCircle
 10
2.877785
 20
7.138679
 30
0.0
 40
0.105207
100
AcDbArc
 50
116.6089
 51
192.098475
  0
LINE
  5
1F8
330
1F
100
AcDbEntity
  8
WHITE
  6
AUSGEZOGEN
 62
     7
370
    25
100
AcDbLine
 10
2.830664
 20
7.232743
 30
0.0
 11
2.946815
 21
7.291274
 31
0.0
  0
ARC
  5
1F9
330
1F
100
AcDbEntity
  8
WHITE
  6
AUSGEZOGEN
 62
     7
370
    25
100
AcDbCircle
 10
2.936735
 20
7.311254
 30
0.0
 40
0.022379
100
AcDbArc
 50
296.77115
 51
26.874531
  0
LINE
  5
1FA
330
1F
100
AcDbEntity
  8
WHITE
  6
AUSGEZOGEN
 62
     7
370
    25
100
AcDbLine
 10
2.956697
 20
7.32137
 30
0.0
 11
2.946545
 21
7.341449
 31
0.0
  0
ARC
  5
1FB
330
1F
100
AcDbEntity
  8
WHITE
  6
AUSGEZOGEN
 62
     7
370
    25
100
AcDbCircle
 10
2.926475
 20
7.331549
 30
0.0
 40
0.022379
100
AcDbArc
 50
26.255904
 51
116.668102
  0
LINE
  5
1FC
330
1F
100
AcDbEntity
  8
WHITE
  6
AUSGEZOGEN
 62
     7
370
    25
100
AcDbLine
 10
2.916431
 20
7.351548
 30
0.0
 11
2.78567
 21
7.285649
 31
0.0
  0
ARC
  5
1FD
330
1F
100
AcDbEntity
  8
WHITE
  6
AUSGEZOGEN
 62
     7
370
    25
100
AcDbCircle
 10
2.775365
 20
7.305539
 30
0.0
 40
0.022401
100
AcDbArc
 50
184.964701
 51
297.388653
  0
ARC
  5
1FE
330
1F
100
AcDbEntity
  8
WHITE
  6
AUSGEZOGEN
 62
     7
370
    25
100
AcDbCircle
 10
5.864791
 20
7.595933
 30
0.0
 40
3.125444
100
AcDbArc
 50
179.287442
 51
185.366903
  0
ARC
  5
1FF
330
1F
100
AcDbEntity
  8
WHITE
  6
AUSGEZOGEN
 62
     7
370
    25
100
AcDbCircle
 10
3.101839
 20
7.640021
 30
0.0
 40
0.362288
100
AcDbArc
 50
153.437492
 51
180.825402
  0
ARC
  5
200
330
1F
100
AcDbEntity
  8
WHITE
  6
AUSGEZOGEN
 62
     7
370
    25
100
AcDbCircle
 10
2.868512
 20
7.751402
 30
0.0
 40
0.103889
100
AcDbArc
 50
56.65852
 51
150.837095
  0
ARC
  5
201
330
1F
100
AcDbEntity
  8
WHITE
  6
AUSGEZOGEN
 62
     7
370
    25
100
AcDbCircle
 10
2.800126
 20
7.64693
 30
0.0
 40
0.228753
100
AcDbArc
 50
22.697565
 51
56.731199
  0
ARC
  5
202
330
1F
100
AcDbEntity
  8
WHITE
  6
AUSGEZOGEN
 62
     7
370
    25
100
AcDbCircle
 10
3.15832
 20
7.79648
 30
0.0
 40
0.159407
100
AcDbArc
 50
202.608627
 51
273.218643
  0
ARC
  5
203
330
1F
100
AcDbEntity
  8
WHITE
  6
AUSGEZOGEN
 62
     7
370
    25
100
AcDbCircle
 10
3.026555
 20
9.093794
 30
0.0
 40
1.463252
100
AcDbArc
 50
275.5184
 51
288.6957
  0
ARC
  5
204
330
1F
100
AcDbEntity
  8
WHITE
  6
AUSGEZOGEN
 62
     7
370
    25
100
AcDbCircle
 10
3.810246
 20
6.776964
 30
0.0
 40
0.982535
100
AcDbArc
 50
99.989345
 51
108.678056
  0
ARC
  5
205
330
1F
100
AcDbEntity
  8
WHITE
  6
AUSGEZOGEN
 62
     7
370
    25
100
AcDbCircle
 10
2.560412
 20
13.845261
 30
0.0
 40
6.195411
100
AcDbArc
 50
280.033589
 51
281.335525
  0
ARC
  5
206
330
1F
100
AcDbEntity
  8
WHITE
  6
AUSGEZOGEN
 62
     7
370
    25
100
AcDbCircle
 10
3.884425
 20
7.241328
 30
0.0
 40
0.53994
100
AcDbArc
 50
71.444567
 51
101.351969
  0
ARC
  5
207
330
1F
100
AcDbEntity
  8
WHITE
  6
AUSGEZOGEN
 62
     7
370
    25
100
AcDbCircle
 10
4.03226
 20
7.681109
 30
0.0
 40
0.075975
100
AcDbArc
 50
290.3773
 51
71.597241
  0
ARC
  5
208
330
1F
100
AcDbEntity
  8
WHITE
  6
AUSGEZOGEN
 62
     7
370
    25
100
AcDbCircle
 10
2.640173
 20
11.45327
 30
0.0
 40
4.096809
100
AcDbArc
 50
285.859405
 51
290.258457
  0
ARC
  5
209
330
1F
100
AcDbEntity
  8
WHITE
  6
AUSGEZOGEN
 62
     7
370
    25
100
AcDbCircle
 10
3.873548
 20
6.841005
 30
0.0
 40
0.680978
100
AcDbArc
 50
99.620702
 51
132.78555
  0
ARC
  5
20A
330
1F
100
AcDbEntity
  8
WHITE
  6
AUSGEZOGEN
 62
     7
370
    25
100
AcDbCircle
 10
3.613717
 20
7.121896
 30
0.0
 40
0.29834
100
AcDbArc
 50
132.806049
 51
209.921876
  0
ARC
  5
20B
330
1F
100
AcDbEntity
  8
WHITE
  6
AUSGEZOGEN
 62
     7
370
    25
100
AcDbCircle
 10
4.552148
 20
7.661575
 30
0.0
 40
1.380887
100
AcDbArc
 50
209.906813
 51
253.773102
  0
ARC
  5
20C
330
1F
100
AcDbEntity
  8
WHITE
  6
AUSGEZOGEN
 62
     7
370
    25
100
AcDbCircle
 10
4.280569
 20
6.728505
 30
0.0
 40
0.409097
100
AcDbArc
 50
253.77601
 51
2.679457
  0
ARC
  5
20D
330
1F
100
AcDbEntity
  8
WHITE
  6
AUSGEZOGEN
 62
     7
370
    25
100
AcDbCircle
 10
-7.920189
 20
6.150291
 30
0.0
 40
12.623548
100
AcDbArc
 50
2.712213
 51
5.856775
  0
ARC
  5
20E
330
1F
100
AcDbEntity
  8
WHITE
  6
AUSGEZOGEN
 62
     7
370
    25
100
AcDbCircle
 10
4.96754
 20
7.484864
 30
0.0
 40
0.333326
100
AcDbArc
 50
109.9395
 51
188.0087
  0
LINE
  5
20F
330
1F
100
AcDbEntity
  8
WHITE
  6
AUSGEZOGEN
 62
     7
370
    25
100
AcDbLine
 10
4.853867
 20
7.798208
 30
0.0
 11
4.864712
 21
7.802022
 31
0.0
  0
ARC
  5
210
330
1F
100
AcDbEntity
  8
WHITE
  6
AUSGEZOGEN
 62
     7
370
    25
100
AcDbCircle
 10
6.929451
 20
0.92112
 30
0.0
 40
1.340627
100
AcDbArc
 50
156.563813
 51
181.975543
  0
ARC
  5
211
330
1F
100
AcDbEntity
  8
WHITE
  6
AUSGEZOGEN
 62
     7
370
    25
100
AcDbCircle
 10
4.840865
 20
1.528529
 30
0.0
 40
0.861756
100
AcDbArc
 50
355.060157
 51
31.06123
  0
ARC
  5
212
330
1F
100
AcDbEntity
  8
WHITE
  6
AUSGEZOGEN
 62
     7
370
    25
100
AcDbCircle
 10
5.466616
 20
1.899135
 30
0.0
 40
0.134621
100
AcDbArc
 50
33.356565
 51
128.706133
  0
ARC
  5
213
330
1F
100
AcDbEntity
  8
WHITE
  6
AUSGEZOGEN
 62
     7
370
    25
100
AcDbCircle
 10
5.33672
 20
2.15845
 30
0.0
 40
0.160893
100
AcDbArc
 50
180.11592
 51
286.506373
  0
ARC
  5
214
330
1F
100
AcDbEntity
  8
WHITE
  6
AUSGEZOGEN
 62
     7
370
    25
100
AcDbCircle
 10
4.943465
 20
2.157967
 30
0.0
 40
0.232363
100
AcDbArc
 50
0.0
 51
50.133992
  0
ARC
  5
215
330
1F
100
AcDbEntity
  8
WHITE
  6
AUSGEZOGEN
 62
     7
370
    25
100
AcDbCircle
 10
3.72083
 20
0.645114
 30
0.0
 40
2.177474
100
AcDbArc
 50
50.957676
 51
67.535553
  0
ARC
  5
216
330
1F
100
AcDbEntity
  8
WHITE
  6
AUSGEZOGEN
 62
     7
370
    25
100
AcDbCircle
 10
4.48937
 20
2.5017
 30
0.0
 40
0.168107
100
AcDbArc
 50
67.808249
 51
140.322032
  0
ARC
  5
217
330
1F
100
AcDbEntity
  8
WHITE
  6
AUSGEZOGEN
 62
     7
370
    25
100
AcDbCircle
 10
4.251542
 20
2.665469
 30
0.0
 40
0.122253
100
AcDbArc
 50
194.503883
 51
332.506275
  0
ARC
  5
218
330
1F
100
AcDbEntity
  8
WHITE
  6
AUSGEZOGEN
 62
     7
370
    25
100
AcDbCircle
 10
2.445985
 20
2.374738
 30
0.0
 40
1.707133
100
AcDbArc
 50
8.764224
 51
12.313581
  0
ARC
  5
219
330
1F
100
AcDbEntity
  8
WHITE
  6
AUSGEZOGEN
 62
     7
370
    25
100
AcDbCircle
 10
4.05215
 20
2.725484
 30
0.0
 40
0.063117
100
AcDbArc
 50
12.1832
 51
152.0645
  0
ARC
  5
21A
330
1F
100
AcDbEntity
  8
WHITE
  6
AUSGEZOGEN
 62
     7
370
    25
100
AcDbCircle
 10
4.270314
 20
2.620956
 30
0.0
 40
0.304987
100
AcDbArc
 50
153.916536
 51
242.293142
  0
ARC
  5
21B
330
1F
100
AcDbEntity
  8
WHITE
  6
AUSGEZOGEN
 62
     7
370
    25
100
AcDbCircle
 10
4.084282
 20
2.267057
 30
0.0
 40
0.094829
100
AcDbArc
 50
5.398837
 51
62.198533
  0
ARC
  5
21C
330
1F
100
AcDbEntity
  8
WHITE
  6
AUSGEZOGEN
 62
     7
370
    25
100
AcDbCircle
 10
4.555295
 20
2.259174
 30
0.0
 40
0.376979
100
AcDbArc
 50
177.444914
 51
228.051138
  0
ARC
  5
21D
330
1F
100
AcDbEntity
  8
WHITE
  6
AUSGEZOGEN
 62
     7
370
    25
100
AcDbCircle
 10
5.419115
 20
3.217019
 30
0.0
 40
1.666806
100
AcDbArc
 50
227.9765
 51
229.3465
  0
ARC
  5
21E
330
1F
100
AcDbEntity
  8
WHITE
  6
AUSGEZOGEN
 62
     7
370
    25
100
AcDbCircle
 10
6.720965
 20
4.918514
 30
0.0
 40
3.807719
100
AcDbArc
 50
231.164953
 51
236.0462
  0
ARC
  5
21F
330
1F
100
AcDbEntity
  8
WHITE
  6
AUSGEZOGEN
 62
     7
370
    25
100
AcDbCircle
 10
4.513537
 20
1.643101
 30
0.0
 40
0.14211
100
AcDbArc
 50
307.511326
 51
55.38586
  0
ARC
  5
220
330
1F
100
AcDbEntity
  8
WHITE
  6
AUSGEZOGEN
 62
     7
370
    25
100
AcDbCircle
 10
4.674815
 20
1.433219
 30
0.0
 40
0.12258
100
AcDbArc
 50
127.5724
 51
261.8728
  0
ARC
  5
221
330
1F
100
AcDbEntity
  8
WHITE
  6
AUSGEZOGEN
 62
     7
370
    25
100
AcDbCircle
 10
4.637995
 20
1.174666
 30
0.0
 40
0.138582
100
AcDbArc
 50
339.364936
 51
81.914628
  0
ARC
  5
222
330
1F
100
AcDbEntity
  8
WHITE
  6
AUSGEZOGEN
 62
     7
370
    25
100
AcDbCircle
 10
4.933743
 20
1.073887
 30
0.0
 40
0.173991
100
AcDbArc
 50
162.630693
 51
235.877629
  0
ARC
  5
223
330
1F
100
AcDbEntity
  8
WHITE
  6
AUSGEZOGEN
 62
     7
370
    25
100
AcDbCircle
 10
4.803282
 20
0.783634
 30
0.0
 40
0.149862
100
AcDbArc
 50
13.797424
 51
77.334563
  0
ARC
  5
224
330
1F
100
AcDbEntity
  8
WHITE
  6
AUSGEZOGEN
 62
     7
370
    25
100
AcDbCircle
 10
3.319775
 20
0.663179
 30
0.0
 40
1.636516
100
AcDbArc
 50
0.434836
 51
5.476852
  0
ARC
  5
225
330
1F
100
AcDbEntity
  8
WHITE
  6
AUSGEZOGEN
 62
     7
370
    25
100
AcDbCircle
 10
5.19632
 20
0.675601
 30
0.0
 40
0.240077
100
AcDbArc
 50
180.000422
 51
262.632552
  0
ARC
  5
226
330
1F
100
AcDbEntity
  8
WHITE
  6
AUSGEZOGEN
 62
     7
370
    25
100
AcDbCircle
 10
5.318867
 20
1.934339
 30
0.0
 40
1.504666
100
AcDbArc
 50
264.151161
 51
269.936166
  0
ARC
  5
227
330
1F
100
AcDbEntity
  8
WHITE
  6
AUSGEZOGEN
 62
     7
370
    25
100
AcDbCircle
 10
5.31719
 20
0.452174
 30
0.0
 40
0.0225
100
AcDbArc
 50
270.0
 51
0.0
  0
LINE
  5
228
330
1F
100
AcDbEntity
  8
WHITE
  6
AUSGEZOGEN
 62
     7
370
    25
100
AcDbLine
 10
5.33969
 20
0.452174
 30
0.0
 11
5.33969
 21
0.999779
 31
0.0
  0
ARC
  5
229
330
1F
100
AcDbEntity
  8
WHITE
  6
AUSGEZOGEN
 62
     7
370
    25
100
AcDbCircle
 10
5.36219
 20
0.999779
 30
0.0
 40
0.0225
100
AcDbArc
 50
90.0
 51
180.0
  0
LINE
  5
22A
330
1F
100
AcDbEntity
  8
WHITE
  6
AUSGEZOGEN
 62
     7
370
    25
100
AcDbLine
 10
5.36219
 20
1.022279
 30
0.0
 11
5.38469
 21
1.022279
 31
0.0
  0
ARC
  5
22B
330
1F
100
AcDbEntity
  8
WHITE
  6
AUSGEZOGEN
 62
     7
370
    25
100
AcDbCircle
 10
5.38469
 20
0.999779
 30
0.0
 40
0.0225
100
AcDbArc
 50
0.0
 51
90.0
  0
LINE
  5
22C
330
1F
100
AcDbEntity
  8
WHITE
  6
AUSGEZOGEN
 62
     7
370
    25
100
AcDbLine
 10
5.40719
 20
0.999779
 30
0.0
 11
5.40719
 21
0.452399
 31
0.0
  0
ARC
  5
22D
330
1F
100
AcDbEntity
  8
WHITE
  6
AUSGEZOGEN
 62
     7
370
    25
100
AcDbCircle
 10
5.42969
 20
0.452399
 30
0.0
 40
0.0225
100
AcDbArc
 50
180.0
 51
270.0
  0
LINE
  5
22E
330
1F
100
AcDbEntity
  8
WHITE
  6
AUSGEZOGEN
 62
     7
370
    25
100
AcDbLine
 10
5.42969
 20
0.429899
 30
0.0
 11
5.446295
 21
0.429899
 31
0.0
  0
ARC
  5
22F
330
1F
100
AcDbEntity
  8
WHITE
  6
AUSGEZOGEN
 62
     7
370
    25
100
AcDbCircle
 10
5.446234
 20
0.560129
 30
0.0
 40
0.13023
100
AcDbArc
 50
270.027225
 51
337.123574
  0
ARC
  5
230
330
1F
100
AcDbEntity
  8
WHITE
  6
AUSGEZOGEN
 62
     7
370
    25
100
AcDbCircle
 10
3.72923
 20
0.811724
 30
0.0
 40
1.861685
100
AcDbArc
 50
350.6574
 51
1.419706
  0
LINE
  5
231
330
1F
100
AcDbEntity
  8
WHITE
  6
AUSGEZOGEN
 62
     7
370
    25
100
AcDbLine
 10
5.590344
 20
0.857849
 30
0.0
 11
5.58962
 21
0.874904
 31
0.0
  0
ARC
  5
232
330
1F
100
AcDbEntity
  8
WHITE
  6
AUSGEZOGEN
 62
     7
370
    25
100
AcDbCircle
 10
4.205105
 20
0.617549
 30
0.0
 40
0.132225
100
AcDbArc
 50
262.038114
 51
344.2046
  0
ARC
  5
233
330
1F
100
AcDbEntity
  8
WHITE
  6
AUSGEZOGEN
 62
     7
370
    25
100
AcDbCircle
 10
4.438597
 20
0.504313
 30
0.0
 40
0.131369
100
AcDbArc
 50
24.839489
 51
143.985179
  0
ARC
  5
234
330
1F
100
AcDbEntity
  8
WHITE
  6
AUSGEZOGEN
 62
     7
370
    25
100
AcDbCircle
 10
3.848932
 20
0.288457
 30
0.0
 40
0.75893
100
AcDbArc
 50
10.862103
 51
20.924406
  0
ARC
  5
235
330
1F
100
AcDbEntity
  8
WHITE
  6
AUSGEZOGEN
 62
     7
370
    25
100
AcDbCircle
 10
4.643845
 20
0.440354
 30
0.0
 40
0.050368
100
AcDbArc
 50
190.154512
 51
333.562171
  0
ARC
  5
236
330
1F
100
AcDbEntity
  8
WHITE
  6
AUSGEZOGEN
 62
     7
370
    25
100
AcDbCircle
 10
4.4644
 20
0.528097
 30
0.0
 40
0.250115
100
AcDbArc
 50
333.866298
 51
350.073211
  0
ARC
  5
237
330
1F
100
AcDbEntity
  8
WHITE
  6
AUSGEZOGEN
 62
     7
370
    25
100
AcDbCircle
 10
4.367015
 20
0.523049
 30
0.0
 40
0.345857
100
AcDbArc
 50
353.6804
 51
57.45332
  0
ARC
  5
238
330
1F
100
AcDbEntity
  8
WHITE
  6
AUSGEZOGEN
 62
     7
370
    25
100
AcDbCircle
 10
4.586616
 20
0.913227
 30
0.0
 40
0.104181
100
AcDbArc
 50
183.234768
 51
251.222855
  0
ARC
  5
239
330
1F
100
AcDbEntity
  8
WHITE
  6
AUSGEZOGEN
 62
     7
370
    25
100
AcDbCircle
 10
3.98672
 20
0.879954
 30
0.0
 40
0.496638
100
AcDbArc
 50
3.162038
 51
73.443028
  0
ARC
  5
23A
330
1F
100
AcDbEntity
  8
WHITE
  6
AUSGEZOGEN
 62
     7
370
    25
100
AcDbCircle
 10
4.1759
 20
1.514489
 30
0.0
 40
0.165499
100
AcDbArc
 50
127.3871
 51
253.265
  0
ARC
  5
23B
330
1F
100
AcDbEntity
  8
WHITE
  6
AUSGEZOGEN
 62
     7
370
    25
100
AcDbCircle
 10
4.004327
 20
1.739543
 30
0.0
 40
0.117497
100
AcDbArc
 50
307.22716
 51
85.084922
  0
ARC
  5
23C
330
1F
100
AcDbEntity
  8
WHITE
  6
AUSGEZOGEN
 62
     7
370
    25
100
AcDbCircle
 10
4.028346
 20
1.989807
 30
0.0
 40
0.133928
100
AcDbArc
 50
181.456162
 51
264.020395
  0
ARC
  5
23D
330
1F
100
AcDbEntity
  8
WHITE
  6
AUSGEZOGEN
 62
     7
370
    25
100
AcDbCircle
 10
3.698269
 20
2.052055
 30
0.0
 40
0.206885
100
AcDbArc
 50
341.498487
 51
52.699356
  0
ARC
  5
23E
330
1F
100
AcDbEntity
  8
WHITE
  6
AUSGEZOGEN
 62
     7
370
    25
100
AcDbCircle
 10
3.948695
 20
2.406974
 30
0.0
 40
0.227754
100
AcDbArc
 50
161.8658
 51
236.6961
  0
ARC
  5
23F
330
1F
100
AcDbEntity
  8
WHITE
  6
AUSGEZOGEN
 62
     7
370
    25
100
AcDbCircle
 10
3.515885
 20
2.473161
 30
0.0
 40
0.21642
100
AcDbArc
 50
1.244601
 51
88.582094
  0
LINE
  5
240
330
1F
100
AcDbEntity
  8
WHITE
  6
AUSGEZOGEN
 62
     7
370
    25
100
AcDbLine
 10
3.52124
 20
2.689515
 30
0.0
 11
3.35429
 21
2.677604
 31
0.0
  0
ARC
  5
241
330
1F
100
AcDbEntity
  8
WHITE
  6
AUSGEZOGEN
 62
     7
370
    25
100
AcDbCircle
 10
3.355865
 20
2.655104
 30
0.0
 40
0.022555
100
AcDbArc
 50
94.004173
 51
182.7483
  0
LINE
  5
242
330
1F
100
AcDbEntity
  8
WHITE
  6
AUSGEZOGEN
 62
     7
370
    25
100
AcDbLine
 10
3.333336
 20
2.654023
 30
0.0
 11
3.361715
 21
2.076899
 31
0.0
  0
ARC
  5
243
330
1F
100
AcDbEntity
  8
WHITE
  6
AUSGEZOGEN
 62
     7
370
    25
100
AcDbCircle
 10
3.339215
 20
2.075774
 30
0.0
 40
0.022528
100
AcDbArc
 50
272.741999
 51
2.862405
  0
LINE
  5
244
330
1F
100
AcDbEntity
  8
WHITE
  6
AUSGEZOGEN
 62
     7
370
    25
100
AcDbLine
 10
3.340293
 20
2.053272
 30
0.0
 11
3.318065
 21
2.052329
 31
0.0
  0
ARC
  5
245
330
1F
100
AcDbEntity
  8
WHITE
  6
AUSGEZOGEN
 62
     7
370
    25
100
AcDbCircle
 10
3.316938
 20
2.074872
 30
0.0
 40
0.022571
100
AcDbArc
 50
182.851121
 51
272.862282
  0
LINE
  5
246
330
1F
100
AcDbEntity
  8
WHITE
  6
AUSGEZOGEN
 62
     7
370
    25
100
AcDbLine
 10
3.294395
 20
2.073749
 30
0.0
 11
3.26627
 21
2.644349
 31
0.0
  0
ARC
  5
247
330
1F
100
AcDbEntity
  8
WHITE
  6
AUSGEZOGEN
 62
     7
370
    25
100
AcDbCircle
 10
3.24377
 20
2.643179
 30
0.0
 40
0.02253
100
AcDbArc
 50
2.976699
 51
109.738403
  0
ARC
  5
248
330
1F
100
AcDbEntity
  8
WHITE
  6
AUSGEZOGEN
 62
     7
370
    25
100
AcDbCircle
 10
3.305341
 20
2.476863
 30
0.0
 40
0.199876
100
AcDbArc
 50
110.249757
 51
151.902592
  0
ARC
  5
249
330
1F
100
AcDbEntity
  8
WHITE
  6
AUSGEZOGEN
 62
     7
370
    25
100
AcDbCircle
 10
3.343374
 20
2.435282
 30
0.0
 40
0.253706
100
AcDbArc
 50
147.660028
 51
182.531867
  0
ARC
  5
24A
330
1F
100
AcDbEntity
  8
WHITE
  6
AUSGEZOGEN
 62
     7
370
    25
100
AcDbCircle
 10
0.895987
 20
2.371348
 30
0.0
 40
2.194562
100
AcDbArc
 50
351.837259
 51
1.376714
  0
ARC
  5
24B
330
1F
100
AcDbEntity
  8
WHITE
  6
AUSGEZOGEN
 62
     7
370
    25
100
AcDbCircle
 10
0.223868
 20
2.479431
 30
0.0
 40
2.875242
100
AcDbArc
 50
344.117036
 51
351.60696
  0
ARC
  5
24C
330
1F
100
AcDbEntity
  8
WHITE
  6
AUSGEZOGEN
 62
     7
370
    25
100
AcDbCircle
 10
3.905315
 20
1.510795
 30
0.0
 40
0.933834
100
AcDbArc
 50
168.776399
 51
199.010948
  0
ARC
  5
24D
330
1F
100
AcDbEntity
  8
WHITE
  6
AUSGEZOGEN
 62
     7
370
    25
100
AcDbCircle
 10
3.18338
 20
1.294709
 30
0.0
 40
0.183502
100
AcDbArc
 50
208.6957
 51
295.4404
  0
ARC
  5
24E
330
1F
100
AcDbEntity
  8
WHITE
  6
AUSGEZOGEN
 62
     7
370
    25
100
AcDbCircle
 10
3.342889
 20
1.030871
 30
0.0
 40
0.127039
100
AcDbArc
 50
21.182047
 51
129.426715
  0
ARC
  5
24F
330
1F
100
AcDbEntity
  8
WHITE
  6
AUSGEZOGEN
 62
     7
370
    25
100
AcDbCircle
 10
2.676995
 20
0.765644
 30
0.0
 40
0.843805
100
AcDbArc
 50
11.73239
 51
21.63686
  0
ARC
  5
250
330
1F
100
AcDbEntity
  8
WHITE
  6
AUSGEZOGEN
 62
     7
370
    25
100
AcDbCircle
 10
3.757176
 20
0.977904
 30
0.0
 40
0.257242
100
AcDbArc
 50
189.098792
 51
244.021362
  0
ARC
  5
251
330
1F
100
AcDbEntity
  8
WHITE
  6
AUSGEZOGEN
 62
     7
370
    25
100
AcDbCircle
 10
4.66028
 20
2.169419
 30
0.0
 40
1.748165
100
AcDbArc
 50
234.475
 51
253.6699
  0
LINE
  5
252
330
1F
100
AcDbEntity
  8
WHITE
  6
AUSGEZOGEN
 62
     7
370
    25
100
AcDbLine
 10
4.168748
 20
0.49178
 30
0.0
 11
4.18679
 21
0.486599
 31
0.0
  0
ARC
  5
253
330
1F
100
AcDbEntity
  8
WHITE
  6
AUSGEZOGEN
 62
     7
370
    25
100
AcDbCircle
 10
5.520995
 20
3.617159
 30
0.0
 40
0.189185
100
AcDbArc
 50
3.559332
 51
77.970905
  0
ARC
  5
254
330
1F
100
AcDbEntity
  8
WHITE
  6
AUSGEZOGEN
 62
     7
370
    25
100
AcDbCircle
 10
5.592321
 20
3.952241
 30
0.0
 40
0.15344
100
AcDbArc
 50
175.445903
 51
257.998551
  0
ARC
  5
255
330
1F
100
AcDbEntity
  8
WHITE
  6
AUSGEZOGEN
 62
     7
370
    25
100
AcDbCircle
 10
6.114815
 20
4.033904
 30
0.0
 40
0.679014
100
AcDbArc
 50
177.683
 51
185.8731
  0
ARC
  5
256
330
1F
100
AcDbEntity
  8
WHITE
  6
AUSGEZOGEN
 62
     7
370
    25
100
AcDbCircle
 10
5.413898
 20
4.062435
 30
0.0
 40
0.022485
100
AcDbArc
 50
357.248514
 51
119.23828
  0
LINE
  5
257
330
1F
100
AcDbEntity
  8
WHITE
  6
AUSGEZOGEN
 62
     7
370
    25
100
AcDbLine
 10
5.402915
 20
4.082055
 30
0.0
 11
5.22674
 21
3.983279
 31
0.0
  0
ARC
  5
258
330
1F
100
AcDbEntity
  8
WHITE
  6
AUSGEZOGEN
 62
     7
370
    25
100
AcDbCircle
 10
5.215535
 20
4.002766
 30
0.0
 40
0.022479
100
AcDbArc
 50
208.981557
 51
299.90131
  0
LINE
  5
259
330
1F
100
AcDbEntity
  8
WHITE
  6
AUSGEZOGEN
 62
     7
370
    25
100
AcDbLine
 10
5.19587
 20
3.991874
 30
0.0
 11
5.18489
 21
4.011674
 31
0.0
  0
ARC
  5
25A
330
1F
100
AcDbEntity
  8
WHITE
  6
AUSGEZOGEN
 62
     7
370
    25
100
AcDbCircle
 10
5.20442
 20
4.022834
 30
0.0
 40
0.022494
100
AcDbArc
 50
120.058202
 51
209.744881
  0
LINE
  5
25B
330
1F
100
AcDbEntity
  8
WHITE
  6
AUSGEZOGEN
 62
     7
370
    25
100
AcDbLine
 10
5.193154
 20
4.042303
 30
0.0
 11
5.383115
 21
4.152029
 31
0.0
  0
ARC
  5
25C
330
1F
100
AcDbEntity
  8
WHITE
  6
AUSGEZOGEN
 62
     7
370
    25
100
AcDbCircle
 10
5.371678
 20
4.17151
 30
0.0
 40
0.02259
100
AcDbArc
 50
300.418582
 51
39.173513
  0
ARC
  5
25D
330
1F
100
AcDbEntity
  8
WHITE
  6
AUSGEZOGEN
 62
     7
370
    25
100
AcDbCircle
 10
5.241534
 20
4.063978
 30
0.0
 40
0.19141
100
AcDbArc
 50
39.519196
 51
112.747855
  0
ARC
  5
25E
330
1F
100
AcDbEntity
  8
WHITE
  6
AUSGEZOGEN
 62
     7
370
    25
100
AcDbCircle
 10
5.08094
 20
4.763849
 30
0.0
 40
0.530463
100
AcDbArc
 50
268.0067
 51
279.3936
  0
ARC
  5
25F
330
1F
100
AcDbEntity
  8
WHITE
  6
AUSGEZOGEN
 62
     7
370
    25
100
AcDbCircle
 10
5.073707
 20
4.394767
 30
0.0
 40
0.16145
100
AcDbArc
 50
236.976778
 51
266.015758
  0
ARC
  5
260
330
1F
100
AcDbEntity
  8
WHITE
  6
AUSGEZOGEN
 62
     7
370
    25
100
AcDbCircle
 10
4.973345
 20
4.240544
 30
0.0
 40
0.022553
100
AcDbArc
 50
56.722131
 51
141.894202
  0
LINE
  5
261
330
1F
100
AcDbEntity
  8
WHITE
  6
AUSGEZOGEN
 62
     7
370
    25
100
AcDbLine
 10
4.955599
 20
4.254462
 30
0.0
 11
4.85414
 21
4.123229
 31
0.0
  0
ARC
  5
262
330
1F
100
AcDbEntity
  8
WHITE
  6
AUSGEZOGEN
 62
     7
370
    25
100
AcDbCircle
 10
4.83641
 20
4.136999
 30
0.0
 40
0.022449
100
AcDbArc
 50
230.694398
 51
322.165309
  0
LINE
  5
263
330
1F
100
AcDbEntity
  8
WHITE
  6
AUSGEZOGEN
 62
     7
370
    25
100
AcDbLine
 10
4.82219
 20
4.119629
 30
0.0
 11
4.805045
 21
4.133354
 31
0.0
  0
ARC
  5
264
330
1F
100
AcDbEntity
  8
WHITE
  6
AUSGEZOGEN
 62
     7
370
    25
100
AcDbCircle
 10
4.819189
 20
4.150876
 30
0.0
 40
0.022518
100
AcDbArc
 50
140.894778
 51
231.089388
  0
LINE
  5
265
330
1F
100
AcDbEntity
  8
WHITE
  6
AUSGEZOGEN
 62
     7
370
    25
100
AcDbLine
 10
4.801715
 20
4.165079
 30
0.0
 11
4.94234
 21
4.338329
 31
0.0
  0
ARC
  5
266
330
1F
100
AcDbEntity
  8
WHITE
  6
AUSGEZOGEN
 62
     7
370
    25
100
AcDbCircle
 10
4.924925
 20
4.352549
 30
0.0
 40
0.022483
100
AcDbArc
 50
320.767074
 51
73.630091
  0
LINE
  5
267
330
1F
100
AcDbEntity
  8
WHITE
  6
AUSGEZOGEN
 62
     7
370
    25
100
AcDbLine
 10
4.931262
 20
4.374121
 30
0.0
 11
4.82327
 21
4.406774
 31
0.0
  0
ARC
  5
268
330
1F
100
AcDbEntity
  8
WHITE
  6
AUSGEZOGEN
 62
     7
370
    25
100
AcDbCircle
 10
4.831505
 20
4.283969
 30
0.0
 40
0.123081
100
AcDbArc
 50
93.83637
 51
133.1925
  0
ARC
  5
269
330
1F
100
AcDbEntity
  8
WHITE
  6
AUSGEZOGEN
 62
     7
370
    25
100
AcDbCircle
 10
4.666308
 20
4.452632
 30
0.0
 40
0.113065
100
AcDbArc
 50
226.421283
 51
315.725759
  0
ARC
  5
26A
330
1F
100
AcDbEntity
  8
WHITE
  6
AUSGEZOGEN
 62
     7
370
    25
100
AcDbCircle
 10
4.50723
 20
4.284785
 30
0.0
 40
0.11819
100
AcDbArc
 50
46.647009
 51
100.794347
  0
ARC
  5
26B
330
1F
100
AcDbEntity
  8
WHITE
  6
AUSGEZOGEN
 62
     7
370
    25
100
AcDbCircle
 10
4.489194
 20
4.378785
 30
0.0
 40
0.022475
100
AcDbArc
 50
100.509559
 51
201.010894
  0
LINE
  5
26C
330
1F
100
AcDbEntity
  8
WHITE
  6
AUSGEZOGEN
 62
     7
370
    25
100
AcDbLine
 10
4.468214
 20
4.370727
 30
0.0
 11
4.54094
 21
4.178804
 31
0.0
  0
ARC
  5
26D
330
1F
100
AcDbEntity
  8
WHITE
  6
AUSGEZOGEN
 62
     7
370
    25
100
AcDbCircle
 10
4.519905
 20
4.170849
 30
0.0
 40
0.02249
100
AcDbArc
 50
290.798179
 51
20.716743
  0
LINE
  5
26E
330
1F
100
AcDbEntity
  8
WHITE
  6
AUSGEZOGEN
 62
     7
370
    25
100
AcDbLine
 10
4.52789
 20
4.149824
 30
0.0
 11
4.50692
 21
4.141724
 31
0.0
  0
ARC
  5
26F
330
1F
100
AcDbEntity
  8
WHITE
  6
AUSGEZOGEN
 62
     7
370
    25
100
AcDbCircle
 10
4.498946
 20
4.162719
 30
0.0
 40
0.022458
100
AcDbArc
 50
200.717264
 51
290.797658
  0
LINE
  5
270
330
1F
100
AcDbEntity
  8
WHITE
  6
AUSGEZOGEN
 62
     7
370
    25
100
AcDbLine
 10
4.47794
 20
4.154774
 30
0.0
 11
4.400315
 21
4.357004
 31
0.0
  0
ARC
  5
271
330
1F
100
AcDbEntity
  8
WHITE
  6
AUSGEZOGEN
 62
     7
370
    25
100
AcDbCircle
 10
4.379337
 20
4.349108
 30
0.0
 40
0.022416
100
AcDbArc
 50
20.625815
 51
123.481343
  0
ARC
  5
272
330
1F
100
AcDbEntity
  8
WHITE
  6
AUSGEZOGEN
 62
     7
370
    25
100
AcDbCircle
 10
4.38438
 20
4.340981
 30
0.0
 40
0.031978
100
AcDbArc
 50
122.985949
 51
152.595893
  0
ARC
  5
273
330
1F
100
AcDbEntity
  8
WHITE
  6
AUSGEZOGEN
 62
     7
370
    25
100
AcDbCircle
 10
4.272696
 20
4.397279
 30
0.0
 40
0.093096
100
AcDbArc
 50
244.9712
 51
333.4721
  0
ARC
  5
274
330
1F
100
AcDbEntity
  8
WHITE
  6
AUSGEZOGEN
 62
     7
370
    25
100
AcDbCircle
 10
3.874357
 20
3.619248
 30
0.0
 40
0.781047
100
AcDbArc
 50
62.640102
 51
69.00737
  0
ARC
  5
275
330
1F
100
AcDbEntity
  8
WHITE
  6
AUSGEZOGEN
 62
     7
370
    25
100
AcDbCircle
 10
4.12496
 20
4.269704
 30
0.0
 40
0.083991
100
AcDbArc
 50
69.65234
 51
120.6742
  0
ARC
  5
276
330
1F
100
AcDbEntity
  8
WHITE
  6
AUSGEZOGEN
 62
     7
370
    25
100
AcDbCircle
 10
4.171487
 20
4.148044
 30
0.0
 40
0.213507
100
AcDbArc
 50
114.74659
 51
135.780082
  0
ARC
  5
277
330
1F
100
AcDbEntity
  8
WHITE
  6
AUSGEZOGEN
 62
     7
370
    25
100
AcDbCircle
 10
4.034706
 20
4.28124
 30
0.0
 40
0.022587
100
AcDbArc
 50
135.944343
 51
229.444808
  0
LINE
  5
278
330
1F
100
AcDbEntity
  8
WHITE
  6
AUSGEZOGEN
 62
     7
370
    25
100
AcDbLine
 10
4.02002
 20
4.264079
 30
0.0
 11
4.21424
 21
4.100954
 31
0.0
  0
ARC
  5
279
330
1F
100
AcDbEntity
  8
WHITE
  6
AUSGEZOGEN
 62
     7
370
    25
100
AcDbCircle
 10
4.19975
 20
4.083809
 30
0.0
 40
0.022448
100
AcDbArc
 50
319.709699
 51
49.797365
  0
LINE
  5
27A
330
1F
100
AcDbEntity
  8
WHITE
  6
AUSGEZOGEN
 62
     7
370
    25
100
AcDbLine
 10
4.216873
 20
4.069293
 30
0.0
 11
4.202495
 21
4.051949
 31
0.0
  0
ARC
  5
27B
330
1F
100
AcDbEntity
  8
WHITE
  6
AUSGEZOGEN
 62
     7
370
    25
100
AcDbCircle
 10
4.185287
 20
4.06641
 30
0.0
 40
0.022477
100
AcDbArc
 50
229.77007
 51
319.95896
  0
LINE
  5
27C
330
1F
100
AcDbEntity
  8
WHITE
  6
AUSGEZOGEN
 62
     7
370
    25
100
AcDbLine
 10
4.17077
 20
4.049249
 30
0.0
 11
3.99599
 21
4.196174
 31
0.0
  0
ARC
  5
27D
330
1F
100
AcDbEntity
  8
WHITE
  6
AUSGEZOGEN
 62
     7
370
    25
100
AcDbCircle
 10
3.9815
 20
4.178984
 30
0.0
 40
0.022482
100
AcDbArc
 50
49.871391
 51
165.379201
  0
ARC
  5
27E
330
1F
100
AcDbEntity
  8
WHITE
  6
AUSGEZOGEN
 62
     7
370
    25
100
AcDbCircle
 10
4.420088
 20
4.063942
 30
0.0
 40
0.475907
100
AcDbArc
 50
165.306012
 51
181.666336
  0
ARC
  5
27F
330
1F
100
AcDbEntity
  8
WHITE
  6
AUSGEZOGEN
 62
     7
370
    25
100
AcDbCircle
 10
4.065199
 20
4.053746
 30
0.0
 40
0.120872
100
AcDbArc
 50
181.726742
 51
247.703401
  0
ARC
  5
280
330
1F
100
AcDbEntity
  8
WHITE
  6
AUSGEZOGEN
 62
     7
370
    25
100
AcDbCircle
 10
3.919715
 20
3.69852
 30
0.0
 40
0.262992
100
AcDbArc
 50
15.562898
 51
67.739779
  0
ARC
  5
281
330
1F
100
AcDbEntity
  8
WHITE
  6
AUSGEZOGEN
 62
     7
370
    25
100
AcDbCircle
 10
2.318547
 20
3.25212
 30
0.0
 40
1.925223
100
AcDbArc
 50
11.813785
 51
15.576153
  0
ARC
  5
282
330
1F
100
AcDbEntity
  8
WHITE
  6
AUSGEZOGEN
 62
     7
370
    25
100
AcDbCircle
 10
4.225049
 20
3.650734
 30
0.0
 40
0.022505
100
AcDbArc
 50
191.429218
 51
269.864455
  0
LINE
  5
283
330
1F
100
AcDbEntity
  8
WHITE
  6
AUSGEZOGEN
 62
     7
370
    25
100
AcDbLine
 10
4.224995
 20
3.628229
 30
0.0
 11
4.873895
 21
3.628904
 31
0.0
  0
ARC
  5
284
330
1F
100
AcDbEntity
  8
WHITE
  6
AUSGEZOGEN
 62
     7
370
    25
100
AcDbCircle
 10
4.873895
 20
3.606404
 30
0.0
 40
0.0225
100
AcDbArc
 50
0.0
 51
90.0
  0
LINE
  5
285
330
1F
100
AcDbEntity
  8
WHITE
  6
AUSGEZOGEN
 62
     7
370
    25
100
AcDbLine
 10
4.896395
 20
3.606404
 30
0.0
 11
4.896395
 21
3.583904
 31
0.0
  0
ARC
  5
286
330
1F
100
AcDbEntity
  8
WHITE
  6
AUSGEZOGEN
 62
     7
370
    25
100
AcDbCircle
 10
4.873895
 20
3.583904
 30
0.0
 40
0.0225
100
AcDbArc
 50
270.0
 51
0.0
  0
LINE
  5
287
330
1F
100
AcDbEntity
  8
WHITE
  6
AUSGEZOGEN
 62
     7
370
    25
100
AcDbLine
 10
4.873895
 20
3.561404
 30
0.0
 11
4.230845
 21
3.561404
 31
0.0
  0
ARC
  5
288
330
1F
100
AcDbEntity
  8
WHITE
  6
AUSGEZOGEN
 62
     7
370
    25
100
AcDbCircle
 10
4.230835
 20
3.538904
 30
0.0
 40
0.0225
100
AcDbArc
 50
89.974199
 51
181.719142
  0
ARC
  5
289
330
1F
100
AcDbEntity
  8
WHITE
  6
AUSGEZOGEN
 62
     7
370
    25
100
AcDbCircle
 10
3.88034
 20
3.527429
 30
0.0
 40
0.328183
100
AcDbArc
 50
300.5771
 51
1.885858
  0
ARC
  5
28A
330
1F
100
AcDbEntity
  8
WHITE
  6
AUSGEZOGEN
 62
     7
370
    25
100
AcDbCircle
 10
4.140844
 20
3.082199
 30
0.0
 40
0.187667
100
AcDbArc
 50
119.90297
 51
208.673066
  0
ARC
  5
28B
330
1F
100
AcDbEntity
  8
WHITE
  6
AUSGEZOGEN
 62
     7
370
    25
100
AcDbCircle
 10
3.995887
 20
3.003024
 30
0.0
 40
0.022497
100
AcDbArc
 50
208.893851
 51
313.845853
  0
LINE
  5
28C
330
1F
100
AcDbEntity
  8
WHITE
  6
AUSGEZOGEN
 62
     7
370
    25
100
AcDbLine
 10
4.01147
 20
2.986799
 30
0.0
 11
4.178465
 21
3.144479
 31
0.0
  0
ARC
  5
28D
330
1F
100
AcDbEntity
  8
WHITE
  6
AUSGEZOGEN
 62
     7
370
    25
100
AcDbCircle
 10
4.194014
 20
3.128122
 30
0.0
 40
0.022568
100
AcDbArc
 50
43.386288
 51
133.547908
  0
LINE
  5
28E
330
1F
100
AcDbEntity
  8
WHITE
  6
AUSGEZOGEN
 62
     7
370
    25
100
AcDbLine
 10
4.210415
 20
3.143624
 30
0.0
 11
4.22567
 21
3.127424
 31
0.0
  0
ARC
  5
28F
330
1F
100
AcDbEntity
  8
WHITE
  6
AUSGEZOGEN
 62
     7
370
    25
100
AcDbCircle
 10
4.209313
 20
3.111876
 30
0.0
 40
0.022568
100
AcDbArc
 50
313.386288
 51
43.547908
  0
LINE
  5
290
330
1F
100
AcDbEntity
  8
WHITE
  6
AUSGEZOGEN
 62
     7
370
    25
100
AcDbLine
 10
4.224815
 20
3.095474
 30
0.0
 11
4.04729
 21
2.927804
 31
0.0
  0
ARC
  5
291
330
1F
100
AcDbEntity
  8
WHITE
  6
AUSGEZOGEN
 62
     7
370
    25
100
AcDbCircle
 10
4.06298
 20
2.911589
 30
0.0
 40
0.022563
100
AcDbArc
 50
134.05627
 51
220.957341
  0
ARC
  5
292
330
1F
100
AcDbEntity
  8
WHITE
  6
AUSGEZOGEN
 62
     7
370
    25
100
AcDbCircle
 10
4.164155
 20
2.999714
 30
0.0
 40
0.156736
100
AcDbArc
 50
221.042
 51
299.8182
  0
ARC
  5
293
330
1F
100
AcDbEntity
  8
WHITE
  6
AUSGEZOGEN
 62
     7
370
    25
100
AcDbCircle
 10
4.312335
 20
2.741372
 30
0.0
 40
0.141085
100
AcDbArc
 50
56.946138
 51
119.859427
  0
ARC
  5
294
330
1F
100
AcDbEntity
  8
WHITE
  6
AUSGEZOGEN
 62
     7
370
    25
100
AcDbCircle
 10
4.401457
 20
2.878637
 30
0.0
 40
0.022574
100
AcDbArc
 50
237.377428
 51
341.11155
  0
LINE
  5
295
330
1F
100
AcDbEntity
  8
WHITE
  6
AUSGEZOGEN
 62
     7
370
    25
100
AcDbLine
 10
4.422815
 20
2.871329
 30
0.0
 11
4.480145
 21
3.039629
 31
0.0
  0
ARC
  5
296
330
1F
100
AcDbEntity
  8
WHITE
  6
AUSGEZOGEN
 62
     7
370
    25
100
AcDbCircle
 10
4.501475
 20
3.032474
 30
0.0
 40
0.022498
100
AcDbArc
 50
71.238931
 51
161.456331
  0
LINE
  5
297
330
1F
100
AcDbEntity
  8
WHITE
  6
AUSGEZOGEN
 62
     7
370
    25
100
AcDbLine
 10
4.508711
 20
3.053777
 30
0.0
 11
4.529915
 21
3.046379
 31
0.0
  0
ARC
  5
298
330
1F
100
AcDbEntity
  8
WHITE
  6
AUSGEZOGEN
 62
     7
370
    25
100
AcDbCircle
 10
4.522724
 20
3.025076
 30
0.0
 40
0.022484
100
AcDbArc
 50
341.855885
 51
71.347065
  0
LINE
  5
299
330
1F
100
AcDbEntity
  8
WHITE
  6
AUSGEZOGEN
 62
     7
370
    25
100
AcDbLine
 10
4.54409
 20
3.018074
 30
0.0
 11
4.47812
 21
2.824349
 31
0.0
  0
ARC
  5
29A
330
1F
100
AcDbEntity
  8
WHITE
  6
AUSGEZOGEN
 62
     7
370
    25
100
AcDbCircle
 10
4.499402
 20
2.817049
 30
0.0
 40
0.022499
100
AcDbArc
 50
161.065683
 51
264.615145
  0
ARC
  5
29B
330
1F
100
AcDbEntity
  8
WHITE
  6
AUSGEZOGEN
 62
     7
370
    25
100
AcDbCircle
 10
4.51187
 20
2.945354
 30
0.0
 40
0.151409
100
AcDbArc
 50
264.4741
 51
324.69
  0
ARC
  5
29C
330
1F
100
AcDbEntity
  8
WHITE
  6
AUSGEZOGEN
 62
     7
370
    25
100
AcDbCircle
 10
4.657923
 20
2.623435
 30
0.0
 40
0.235482
100
AcDbArc
 50
59.190839
 51
95.482237
  0
ARC
  5
29D
330
1F
100
AcDbEntity
  8
WHITE
  6
AUSGEZOGEN
 62
     7
370
    25
100
AcDbCircle
 10
4.855747
 20
2.959042
 30
0.0
 40
0.154098
100
AcDbArc
 50
239.928935
 51
331.309256
  0
ARC
  5
29E
330
1F
100
AcDbEntity
  8
WHITE
  6
AUSGEZOGEN
 62
     7
370
    25
100
AcDbCircle
 10
4.971194
 20
2.895825
 30
0.0
 40
0.022475
100
AcDbArc
 50
331.388671
 51
49.774885
  0
LINE
  5
29F
330
1F
100
AcDbEntity
  8
WHITE
  6
AUSGEZOGEN
 62
     7
370
    25
100
AcDbLine
 10
4.985708
 20
2.912985
 30
0.0
 11
4.87817
 21
3.004529
 31
0.0
  0
ARC
  5
2A0
330
1F
100
AcDbEntity
  8
WHITE
  6
AUSGEZOGEN
 62
     7
370
    25
100
AcDbCircle
 10
4.892718
 20
3.021644
 30
0.0
 40
0.022462
100
AcDbArc
 50
139.27398
 51
229.63513
  0
LINE
  5
2A1
330
1F
100
AcDbEntity
  8
WHITE
  6
AUSGEZOGEN
 62
     7
370
    25
100
AcDbLine
 10
4.875695
 20
3.036299
 30
0.0
 11
4.890365
 21
3.053624
 31
0.0
  0
ARC
  5
2A2
330
1F
100
AcDbEntity
  8
WHITE
  6
AUSGEZOGEN
 62
     7
370
    25
100
AcDbCircle
 10
4.907465
 20
3.039089
 30
0.0
 40
0.022443
100
AcDbArc
 50
50.120641
 51
139.635463
  0
LINE
  5
2A3
330
1F
100
AcDbEntity
  8
WHITE
  6
AUSGEZOGEN
 62
     7
370
    25
100
AcDbLine
 10
4.921855
 20
3.056312
 30
0.0
 11
5.002415
 21
2.990129
 31
0.0
  0
ARC
  5
2A4
330
1F
100
AcDbEntity
  8
WHITE
  6
AUSGEZOGEN
 62
     7
370
    25
100
AcDbCircle
 10
5.01659
 20
3.007364
 30
0.0
 40
0.022315
100
AcDbArc
 50
230.564265
 51
289.311099
  0
ARC
  5
2A5
330
1F
100
AcDbEntity
  8
WHITE
  6
AUSGEZOGEN
 62
     7
370
    25
100
AcDbCircle
 10
5.083944
 20
2.811979
 30
0.0
 40
0.184354
100
AcDbArc
 50
68.623223
 51
108.984923
  0
ARC
  5
2A6
330
1F
100
AcDbEntity
  8
WHITE
  6
AUSGEZOGEN
 62
     7
370
    25
100
AcDbCircle
 10
5.292283
 20
3.371464
 30
0.0
 40
0.4127
100
AcDbArc
 50
250.001431
 51
268.803572
  0
ARC
  5
2A7
330
1F
100
AcDbEntity
  8
WHITE
  6
AUSGEZOGEN
 62
     7
370
    25
100
AcDbCircle
 10
5.284252
 20
3.057405
 30
0.0
 40
0.098552
100
AcDbArc
 50
269.659198
 51
333.855713
  0
LINE
  5
2A8
330
1F
100
AcDbEntity
  8
WHITE
  6
AUSGEZOGEN
 62
     7
370
    25
100
AcDbLine
 10
5.37272
 20
3.013979
 30
0.0
 11
5.386895
 21
3.039629
 31
0.0
  0
ARC
  5
2A9
330
1F
100
AcDbEntity
  8
WHITE
  6
AUSGEZOGEN
 62
     7
370
    25
100
AcDbCircle
 10
5.36723
 20
3.050564
 30
0.0
 40
0.022501
100
AcDbArc
 50
330.923099
 51
62.359851
  0
LINE
  5
2AA
330
1F
100
AcDbEntity
  8
WHITE
  6
AUSGEZOGEN
 62
     7
370
    25
100
AcDbLine
 10
5.377669
 20
3.070497
 30
0.0
 11
5.177465
 21
3.178049
 31
0.0
  0
ARC
  5
2AB
330
1F
100
AcDbEntity
  8
WHITE
  6
AUSGEZOGEN
 62
     7
370
    25
100
AcDbCircle
 10
5.187815
 20
3.197894
 30
0.0
 40
0.022382
100
AcDbArc
 50
151.270401
 51
242.456069
  0
LINE
  5
2AC
330
1F
100
AcDbEntity
  8
WHITE
  6
AUSGEZOGEN
 62
     7
370
    25
100
AcDbLine
 10
5.168189
 20
3.208653
 30
0.0
 11
5.17877
 21
3.228404
 31
0.0
  0
ARC
  5
2AD
330
1F
100
AcDbEntity
  8
WHITE
  6
AUSGEZOGEN
 62
     7
370
    25
100
AcDbCircle
 10
5.198519
 20
3.217878
 30
0.0
 40
0.022378
100
AcDbArc
 50
60.992731
 51
151.941386
  0
LINE
  5
2AE
330
1F
100
AcDbEntity
  8
WHITE
  6
AUSGEZOGEN
 62
     7
370
    25
100
AcDbLine
 10
5.20937
 20
3.237449
 30
0.0
 11
5.400845
 21
3.134399
 31
0.0
  0
ARC
  5
2AF
330
1F
100
AcDbEntity
  8
WHITE
  6
AUSGEZOGEN
 62
     7
370
    25
100
AcDbCircle
 10
5.41169
 20
3.153974
 30
0.0
 40
0.022378
100
AcDbArc
 50
241.012539
 51
353.075299
  0
LINE
  5
2B0
330
1F
100
AcDbEntity
  8
WHITE
  6
AUSGEZOGEN
 62
     7
370
    25
100
AcDbLine
 10
5.433906
 20
3.151276
 30
0.0
 11
5.452415
 21
3.292079
 31
0.0
  0
ARC
  5
2B1
330
1F
100
AcDbEntity
  8
WHITE
  6
AUSGEZOGEN
 62
     7
370
    25
100
AcDbCircle
 10
5.664059
 20
3.244834
 30
0.0
 40
0.216852
100
AcDbArc
 50
121.017201
 51
167.416176
  0
ARC
  5
2B2
330
1F
100
AcDbEntity
  8
WHITE
  6
AUSGEZOGEN
 62
     7
370
    25
100
AcDbCircle
 10
5.520995
 20
3.617159
 30
0.0
 40
0.189092
100
AcDbArc
 50
279.5341
 51
358.1045
  0
LINE
  5
2B3
330
1F
100
AcDbEntity
  8
WHITE
  6
AUSGEZOGEN
 62
     7
370
    25
100
AcDbLine
 10
5.709984
 20
3.610905
 30
0.0
 11
5.709815
 21
3.628904
 31
0.0
  0
ARC
  5
2B4
330
1F
100
AcDbEntity
  8
WHITE
  6
AUSGEZOGEN
 62
     7
370
    25
100
AcDbCircle
 10
4.119055
 20
8.419188
 30
0.0
 40
3.681341
100
AcDbArc
 50
205.617749
 51
208.623235
  0
ARC
  5
2B5
330
1F
100
AcDbEntity
  8
WHITE
  6
AUSGEZOGEN
 62
     7
370
    25
100
AcDbCircle
 10
1.957184
 20
7.352218
 30
0.0
 40
1.270959
100
AcDbArc
 50
148.779178
 51
204.383917
  0
ARC
  5
2B6
330
1F
100
AcDbEntity
  8
WHITE
  6
AUSGEZOGEN
 62
     7
370
    25
100
AcDbCircle
 10
1.177703
 20
7.811347
 30
0.0
 40
0.366559
100
AcDbArc
 50
112.386991
 51
146.997189
  0
ARC
  5
2B7
330
1F
100
AcDbEntity
  8
WHITE
  6
AUSGEZOGEN
 62
     7
370
    25
100
AcDbCircle
 10
3.906299
 20
6.299557
 30
0.0
 40
3.413469
100
AcDbArc
 50
134.759504
 51
147.167678
  0
ARC
  5
2B8
330
1F
100
AcDbEntity
  8
WHITE
  6
AUSGEZOGEN
 62
     7
370
    25
100
AcDbCircle
 10
1.81556
 20
8.442464
 30
0.0
 40
0.420404
100
AcDbArc
 50
116.414292
 51
138.0762
  0
ARC
  5
2B9
330
1F
100
AcDbEntity
  8
WHITE
  6
AUSGEZOGEN
 62
     7
370
    25
100
AcDbCircle
 10
3.62132
 20
5.194364
 30
0.0
 40
4.136303
100
AcDbArc
 50
87.60882
 51
118.8016
  0
ARC
  5
2BA
330
1F
100
AcDbEntity
  8
WHITE
  6
AUSGEZOGEN
 62
     7
370
    25
100
AcDbCircle
 10
3.791892
 20
9.265406
 30
0.0
 40
0.061692
100
AcDbArc
 50
268.13998
 51
88.139981
  0
ARC
  5
2BB
330
1F
100
AcDbEntity
  8
WHITE
  6
AUSGEZOGEN
 62
     7
370
    25
100
AcDbCircle
 10
3.705508
 20
5.673301
 30
0.0
 40
3.531454
100
AcDbArc
 50
88.630824
 51
120.68318
  0
ARC
  5
2BC
330
1F
100
AcDbEntity
  8
WHITE
  6
AUSGEZOGEN
 62
     7
370
    25
100
AcDbCircle
 10
1.122007
 20
9.112102
 30
0.0
 40
0.878656
100
AcDbArc
 50
297.319303
 51
332.791823
  0
ARC
  5
2BD
330
1F
100
AcDbEntity
  8
WHITE
  6
AUSGEZOGEN
 62
     7
370
    25
100
AcDbCircle
 10
0.73151
 20
8.853449
 30
0.0
 40
0.950016
100
AcDbArc
 50
299.4463
 51
326.6697
  0
ARC
  5
2BE
330
1F
100
AcDbEntity
  8
WHITE
  6
AUSGEZOGEN
 62
     7
370
    25
100
AcDbCircle
 10
0.570284
 20
8.139464
 30
0.0
 40
0.638397
100
AcDbArc
 50
328.466334
 51
349.776795
  0
ARC
  5
2BF
330
1F
100
AcDbEntity
  8
WHITE
  6
AUSGEZOGEN
 62
     7
370
    25
100
AcDbCircle
 10
2.211071
 20
7.231165
 30
0.0
 40
1.23799
100
AcDbArc
 50
152.354969
 51
180.310776
  0
ARC
  5
2C0
330
1F
100
AcDbEntity
  8
WHITE
  6
AUSGEZOGEN
 62
     7
370
    25
100
AcDbCircle
 10
1.020541
 20
7.235988
 30
0.0
 40
0.048825
100
AcDbArc
 50
193.669272
 51
250.34052
  0
ARC
  5
2C1
330
1F
100
AcDbEntity
  8
WHITE
  6
AUSGEZOGEN
 62
     7
370
    25
100
AcDbCircle
 10
0.915021
 20
6.973332
 30
0.0
 40
0.234279
100
AcDbArc
 50
1.435118
 51
67.648411
  0
ARC
  5
2C2
330
1F
100
AcDbEntity
  8
WHITE
  6
AUSGEZOGEN
 62
     7
370
    25
100
AcDbCircle
 10
1.7972
 20
6.988823
 30
0.0
 40
0.648044
100
AcDbArc
 50
180.850947
 51
207.160735
  0
ARC
  5
2C3
330
1F
100
AcDbEntity
  8
WHITE
  6
AUSGEZOGEN
 62
     7
370
    25
100
AcDbCircle
 10
2.410919
 20
7.263716
 30
0.0
 40
1.320053
100
AcDbArc
 50
205.616398
 51
234.301685
  0
ARC
  5
2C4
330
1F
100
AcDbEntity
  8
WHITE
  6
AUSGEZOGEN
 62
     7
370
    25
100
AcDbCircle
 10
1.09844
 20
5.524799
 30
0.0
 40
0.859501
100
AcDbArc
 50
26.62271
 51
50.8881
  0
ARC
  5
2C5
330
1F
100
AcDbEntity
  8
WHITE
  6
AUSGEZOGEN
 62
     7
370
    25
100
AcDbCircle
 10
1.691513
 20
5.788996
 30
0.0
 40
0.212982
100
AcDbArc
 50
266.906846
 51
34.605583
  0
ARC
  5
2C6
330
1F
100
AcDbEntity
  8
WHITE
  6
AUSGEZOGEN
 62
     7
370
    25
100
AcDbCircle
 10
1.723396
 20
5.428948
 30
0.0
 40
0.153627
100
AcDbArc
 50
106.400025
 51
158.159767
  0
ARC
  5
2C7
330
1F
100
AcDbEntity
  8
WHITE
  6
AUSGEZOGEN
 62
     7
370
    25
100
AcDbCircle
 10
2.57957
 20
5.100899
 30
0.0
 40
1.070482
100
AcDbArc
 50
158.9097
 51
168.2975
  0
ARC
  5
2C8
330
1F
100
AcDbEntity
  8
WHITE
  6
AUSGEZOGEN
 62
     7
370
    25
100
AcDbCircle
 10
1.168109
 20
5.393416
 30
0.0
 40
0.370972
100
AcDbArc
 50
331.880899
 51
348.274441
  0
ARC
  5
2C9
330
1F
100
AcDbEntity
  8
WHITE
  6
AUSGEZOGEN
 62
     7
370
    25
100
AcDbCircle
 10
1.37852
 20
5.300474
 30
0.0
 40
0.142632
100
AcDbArc
 50
262.2918
 51
324.9561
  0
ARC
  5
2CA
330
1F
100
AcDbEntity
  8
WHITE
  6
AUSGEZOGEN
 62
     7
370
    25
100
AcDbCircle
 10
1.362491
 20
5.181367
 30
0.0
 40
0.022451
100
AcDbArc
 50
165.390784
 51
262.060256
  0
LINE
  5
2CB
330
1F
100
AcDbEntity
  8
WHITE
  6
AUSGEZOGEN
 62
     7
370
    25
100
AcDbLine
 10
1.340765
 20
5.187029
 30
0.0
 11
1.41029
 21
5.456174
 31
0.0
  0
ARC
  5
2CC
330
1F
100
AcDbEntity
  8
WHITE
  6
AUSGEZOGEN
 62
     7
370
    25
100
AcDbCircle
 10
1.388416
 20
5.461602
 30
0.0
 40
0.022538
100
AcDbArc
 50
346.063476
 51
74.826149
  0
LINE
  5
2CD
330
1F
100
AcDbEntity
  8
WHITE
  6
AUSGEZOGEN
 62
     7
370
    25
100
AcDbLine
 10
1.394315
 20
5.483354
 30
0.0
 11
1.37249
 21
5.488979
 31
0.0
  0
ARC
  5
2CE
330
1F
100
AcDbEntity
  8
WHITE
  6
AUSGEZOGEN
 62
     7
370
    25
100
AcDbCircle
 10
1.366742
 20
5.467208
 30
0.0
 40
0.022517
100
AcDbArc
 50
75.209086
 51
164.965037
  0
LINE
  5
2CF
330
1F
100
AcDbEntity
  8
WHITE
  6
AUSGEZOGEN
 62
     7
370
    25
100
AcDbLine
 10
1.344995
 20
5.473049
 30
0.0
 11
1.278215
 21
5.214299
 31
0.0
  0
ARC
  5
2D0
330
1F
100
AcDbEntity
  8
WHITE
  6
AUSGEZOGEN
 62
     7
370
    25
100
AcDbCircle
 10
1.256368
 20
5.219933
 30
0.0
 40
0.022562
100
AcDbArc
 50
248.408157
 51
345.539957
  0
LINE
  5
2D1
330
1F
100
AcDbEntity
  8
WHITE
  6
AUSGEZOGEN
 62
     7
370
    25
100
AcDbLine
 10
1.248065
 20
5.198954
 30
0.0
 11
1.21949
 21
5.210474
 31
0.0
  0
ARC
  5
2D2
330
1F
100
AcDbEntity
  8
WHITE
  6
AUSGEZOGEN
 62
     7
370
    25
100
AcDbCircle
 10
1.266245
 20
5.328599
 30
0.0
 40
0.127042
100
AcDbArc
 50
192.1699
 51
248.405869
  0
ARC
  5
2D3
330
1F
100
AcDbEntity
  8
WHITE
  6
AUSGEZOGEN
 62
     7
370
    25
100
AcDbCircle
 10
1.416976
 20
5.361073
 30
0.0
 40
0.28123
100
AcDbArc
 50
162.181077
 51
192.163429
  0
ARC
  5
2D4
330
1F
100
AcDbEntity
  8
WHITE
  6
AUSGEZOGEN
 62
     7
370
    25
100
AcDbCircle
 10
2.376554
 20
5.122231
 30
0.0
 40
1.269594
100
AcDbArc
 50
154.353705
 51
165.172497
  0
ARC
  5
2D5
330
1F
100
AcDbEntity
  8
WHITE
  6
AUSGEZOGEN
 62
     7
370
    25
100
AcDbCircle
 10
1.355152
 20
5.61025
 30
0.0
 40
0.137612
100
AcDbArc
 50
106.230422
 51
153.464438
  0
ARC
  5
2D6
330
1F
100
AcDbEntity
  8
WHITE
  6
AUSGEZOGEN
 62
     7
370
    25
100
AcDbCircle
 10
0.85321
 20
8.007463
 30
0.0
 40
2.312017
100
AcDbArc
 50
281.564177
 51
284.857953
  0
ARC
  5
2D7
330
1F
100
AcDbEntity
  8
WHITE
  6
AUSGEZOGEN
 62
     7
370
    25
100
AcDbCircle
 10
1.43855
 20
5.833499
 30
0.0
 40
0.061213
100
AcDbArc
 50
277.0519
 51
34.91588
  0
ARC
  5
2D8
330
1F
100
AcDbEntity
  8
WHITE
  6
AUSGEZOGEN
 62
     7
370
    25
100
AcDbCircle
 10
1.347668
 20
5.769953
 30
0.0
 40
0.172108
100
AcDbArc
 50
34.945565
 51
72.727347
  0
ARC
  5
2D9
330
1F
100
AcDbEntity
  8
WHITE
  6
AUSGEZOGEN
 62
     7
370
    25
100
AcDbCircle
 10
1.457583
 20
6.123458
 30
0.0
 40
0.19809
100
AcDbArc
 50
187.236686
 51
252.728824
  0
ARC
  5
2DA
330
1F
100
AcDbEntity
  8
WHITE
  6
AUSGEZOGEN
 62
     7
370
    25
100
AcDbCircle
 10
4.119055
 20
8.419188
 30
0.0
 40
3.681528
100
AcDbArc
 50
208.750729
 51
219.076593
  0
LINE
  5
2DB
330
1F
100
AcDbEntity
  8
WHITE
  6
AUSGEZOGEN
 62
     7
370
    25
100
AcDbLine
 10
0.891436
 20
6.648402
 30
0.0
 11
0.887615
 21
6.655649
 31
0.0
  0
ARC
  5
2DC
330
1F
100
AcDbEntity
  8
WHITE
  6
AUSGEZOGEN
 62
     7
370
    25
100
AcDbCircle
 10
6.339004
 20
8.417846
 30
0.0
 40
3.68142
100
AcDbArc
 50
331.401224
 51
334.405958
  0
ARC
  5
2DD
330
1F
100
AcDbEntity
  8
WHITE
  6
AUSGEZOGEN
 62
     7
370
    25
100
AcDbCircle
 10
8.501616
 20
7.352295
 30
0.0
 40
1.270981
100
AcDbArc
 50
335.612613
 51
31.215961
  0
ARC
  5
2DE
330
1F
100
AcDbEntity
  8
WHITE
  6
AUSGEZOGEN
 62
     7
370
    25
100
AcDbCircle
 10
9.281195
 20
7.81134
 30
0.0
 40
0.366542
100
AcDbArc
 50
33.005148
 51
67.622327
  0
ARC
  5
2DF
330
1F
100
AcDbEntity
  8
WHITE
  6
AUSGEZOGEN
 62
     7
370
    25
100
AcDbCircle
 10
6.55289
 20
6.299069
 30
0.0
 40
3.413436
100
AcDbArc
 50
32.84242
 51
45.25264
  0
ARC
  5
2E0
330
1F
100
AcDbEntity
  8
WHITE
  6
AUSGEZOGEN
 62
     7
370
    25
100
AcDbCircle
 10
8.642955
 20
8.442606
 30
0.0
 40
0.420411
100
AcDbArc
 50
41.896686
 51
63.538066
  0
ARC
  5
2E1
330
1F
100
AcDbEntity
  8
WHITE
  6
AUSGEZOGEN
 62
     7
370
    25
100
AcDbCircle
 10
6.8375
 20
5.194373
 30
0.0
 40
4.136294
100
AcDbArc
 50
61.198164
 51
92.390982
  0
ARC
  5
2E2
330
1F
100
AcDbEntity
  8
WHITE
  6
AUSGEZOGEN
 62
     7
370
    25
100
AcDbCircle
 10
6.668122
 20
9.265459
 30
0.0
 40
0.061689
100
AcDbArc
 50
92.956486
 51
270.764794
  0
ARC
  5
2E3
330
1F
100
AcDbEntity
  8
WHITE
  6
AUSGEZOGEN
 62
     7
370
    25
100
AcDbCircle
 10
6.753214
 20
5.673309
 30
0.0
 40
3.531471
100
AcDbArc
 50
59.315778
 51
91.367333
  0
ARC
  5
2E4
330
1F
100
AcDbEntity
  8
WHITE
  6
AUSGEZOGEN
 62
     7
370
    25
100
AcDbCircle
 10
9.336755
 20
9.112141
 30
0.0
 40
0.878657
100
AcDbArc
 50
207.211734
 51
242.686141
  0
ARC
  5
2E5
330
1F
100
AcDbEntity
  8
WHITE
  6
AUSGEZOGEN
 62
     7
370
    25
100
AcDbCircle
 10
9.727348
 20
8.853416
 30
0.0
 40
0.950016
100
AcDbArc
 50
213.327859
 51
240.553903
  0
ARC
  5
2E6
330
1F
100
AcDbEntity
  8
WHITE
  6
AUSGEZOGEN
 62
     7
370
    25
100
AcDbCircle
 10
9.88856
 20
8.139389
 30
0.0
 40
0.638374
100
AcDbArc
 50
190.22
 51
211.5276
  0
ARC
  5
2E7
330
1F
100
AcDbEntity
  8
WHITE
  6
AUSGEZOGEN
 62
     7
370
    25
100
AcDbCircle
 10
8.247771
 20
7.231183
 30
0.0
 40
1.237968
100
AcDbArc
 50
359.688332
 51
27.644338
  0
ARC
  5
2E8
330
1F
100
AcDbEntity
  8
WHITE
  6
AUSGEZOGEN
 62
     7
370
    25
100
AcDbCircle
 10
9.438339
 20
7.23597
 30
0.0
 40
0.048762
100
AcDbArc
 50
289.56815
 51
346.333485
  0
ARC
  5
2E9
330
1F
100
AcDbEntity
  8
WHITE
  6
AUSGEZOGEN
 62
     7
370
    25
100
AcDbCircle
 10
9.54377
 20
6.973349
 30
0.0
 40
0.234279
100
AcDbArc
 50
112.3532
 51
178.569
  0
ARC
  5
2EA
330
1F
100
AcDbEntity
  8
WHITE
  6
AUSGEZOGEN
 62
     7
370
    25
100
AcDbCircle
 10
8.661609
 20
6.988732
 30
0.0
 40
0.648026
100
AcDbArc
 50
332.847617
 51
359.157205
  0
ARC
  5
2EB
330
1F
100
AcDbEntity
  8
WHITE
  6
AUSGEZOGEN
 62
     7
370
    25
100
AcDbCircle
 10
8.047923
 20
7.263733
 30
0.0
 40
1.320053
100
AcDbArc
 50
305.697637
 51
334.382842
  0
ARC
  5
2EC
330
1F
100
AcDbEntity
  8
WHITE
  6
AUSGEZOGEN
 62
     7
370
    25
100
AcDbCircle
 10
9.360411
 20
5.524812
 30
0.0
 40
0.859511
100
AcDbArc
 50
129.113266
 51
153.378501
  0
ARC
  5
2ED
330
1F
100
AcDbEntity
  8
WHITE
  6
AUSGEZOGEN
 62
     7
370
    25
100
AcDbCircle
 10
8.767295
 20
5.788994
 30
0.0
 40
0.212962
100
AcDbArc
 50
145.3898
 51
273.1006
  0
ARC
  5
2EE
330
1F
100
AcDbEntity
  8
WHITE
  6
AUSGEZOGEN
 62
     7
370
    25
100
AcDbCircle
 10
8.735156
 20
5.429062
 30
0.0
 40
0.153617
100
AcDbArc
 50
21.792462
 51
73.488976
  0
ARC
  5
2EF
330
1F
100
AcDbEntity
  8
WHITE
  6
AUSGEZOGEN
 62
     7
370
    25
100
AcDbCircle
 10
7.879518
 20
5.099509
 30
0.0
 40
1.070516
100
AcDbArc
 50
11.778043
 51
21.168857
  0
ARC
  5
2F0
330
1F
100
AcDbEntity
  8
WHITE
  6
AUSGEZOGEN
 62
     7
370
    25
100
AcDbCircle
 10
9.290735
 20
5.393403
 30
0.0
 40
0.370979
100
AcDbArc
 50
191.723601
 51
208.116812
  0
ARC
  5
2F1
330
1F
100
AcDbEntity
  8
WHITE
  6
AUSGEZOGEN
 62
     7
370
    25
100
AcDbCircle
 10
9.080267
 20
5.30057
 30
0.0
 40
0.142653
100
AcDbArc
 50
215.08606
 51
277.632998
  0
ARC
  5
2F2
330
1F
100
AcDbEntity
  8
WHITE
  6
AUSGEZOGEN
 62
     7
370
    25
100
AcDbCircle
 10
9.096342
 20
5.18145
 30
0.0
 40
0.022454
100
AcDbArc
 50
277.351697
 51
14.371369
  0
LINE
  5
2F3
330
1F
100
AcDbEntity
  8
WHITE
  6
AUSGEZOGEN
 62
     7
370
    25
100
AcDbLine
 10
9.118093
 20
5.187023
 30
0.0
 11
9.04832
 21
5.456174
 31
0.0
  0
ARC
  5
2F4
330
1F
100
AcDbEntity
  8
WHITE
  6
AUSGEZOGEN
 62
     7
370
    25
100
AcDbCircle
 10
9.070223
 20
5.461538
 30
0.0
 40
0.022549
100
AcDbArc
 50
104.648103
 51
193.759771
  0
LINE
  5
2F5
330
1F
100
AcDbEntity
  8
WHITE
  6
AUSGEZOGEN
 62
     7
370
    25
100
AcDbLine
 10
9.06452
 20
5.483354
 30
0.0
 11
9.086345
 21
5.488979
 31
0.0
  0
ARC
  5
2F6
330
1F
100
AcDbEntity
  8
WHITE
  6
AUSGEZOGEN
 62
     7
370
    25
100
AcDbCircle
 10
9.092015
 20
5.467154
 30
0.0
 40
0.022549
100
AcDbArc
 50
15.145551
 51
104.56315
  0
LINE
  5
2F7
330
1F
100
AcDbEntity
  8
WHITE
  6
AUSGEZOGEN
 62
     7
370
    25
100
AcDbLine
 10
9.113782
 20
5.473046
 30
0.0
 11
9.18062
 21
5.214299
 31
0.0
  0
ARC
  5
2F8
330
1F
100
AcDbEntity
  8
WHITE
  6
AUSGEZOGEN
 62
     7
370
    25
100
AcDbCircle
 10
9.202445
 20
5.219924
 30
0.0
 40
0.022538
100
AcDbArc
 50
194.452428
 51
291.652498
  0
LINE
  5
2F9
330
1F
100
AcDbEntity
  8
WHITE
  6
AUSGEZOGEN
 62
     7
370
    25
100
AcDbLine
 10
9.210762
 20
5.198976
 30
0.0
 11
9.23939
 21
5.210474
 31
0.0
  0
ARC
  5
2FA
330
1F
100
AcDbEntity
  8
WHITE
  6
AUSGEZOGEN
 62
     7
370
    25
100
AcDbCircle
 10
9.192545
 20
5.328554
 30
0.0
 40
0.127033
100
AcDbArc
 50
291.639344
 51
347.8542
  0
ARC
  5
2FB
330
1F
100
AcDbEntity
  8
WHITE
  6
AUSGEZOGEN
 62
     7
370
    25
100
AcDbCircle
 10
9.041841
 20
5.361138
 30
0.0
 40
0.281219
100
AcDbArc
 50
347.824481
 51
17.80516
  0
ARC
  5
2FC
330
1F
100
AcDbEntity
  8
WHITE
  6
AUSGEZOGEN
 62
     7
370
    25
100
AcDbCircle
 10
8.08235
 20
5.122004
 30
0.0
 40
1.269576
100
AcDbArc
 50
14.83814
 51
25.6577
  0
ARC
  5
2FD
330
1F
100
AcDbEntity
  8
WHITE
  6
AUSGEZOGEN
 62
     7
370
    25
100
AcDbCircle
 10
9.103624
 20
5.610303
 30
0.0
 40
0.137589
100
AcDbArc
 50
26.513067
 51
73.72157
  0
ARC
  5
2FE
330
1F
100
AcDbEntity
  8
WHITE
  6
AUSGEZOGEN
 62
     7
370
    25
100
AcDbCircle
 10
9.605707
 20
8.007457
 30
0.0
 40
2.31202
100
AcDbArc
 50
255.141127
 51
258.434903
  0
ARC
  5
2FF
330
1F
100
AcDbEntity
  8
WHITE
  6
AUSGEZOGEN
 62
     7
370
    25
100
AcDbCircle
 10
9.020286
 20
5.833544
 30
0.0
 40
0.061252
100
AcDbArc
 50
145.118422
 51
262.994353
  0
ARC
  5
300
330
1F
100
AcDbEntity
  8
WHITE
  6
AUSGEZOGEN
 62
     7
370
    25
100
AcDbCircle
 10
9.111178
 20
5.769988
 30
0.0
 40
0.172162
100
AcDbArc
 50
107.351057
 51
145.06599
  0
ARC
  5
301
330
1F
100
AcDbEntity
  8
WHITE
  6
AUSGEZOGEN
 62
     7
370
    25
100
AcDbCircle
 10
9.001295
 20
6.123524
 30
0.0
 40
0.198058
100
AcDbArc
 50
287.191974
 51
352.742757
  0
ARC
  5
302
330
1F
100
AcDbEntity
  8
WHITE
  6
AUSGEZOGEN
 62
     7
370
    25
100
AcDbCircle
 10
6.339772
 20
8.418793
 30
0.0
 40
3.681286
100
AcDbArc
 50
320.92827
 51
331.25503
  0
LINE
  5
303
330
1F
100
AcDbEntity
  8
WHITE
  6
AUSGEZOGEN
 62
     7
370
    25
100
AcDbLine
 10
9.567409
 20
6.648419
 30
0.0
 11
9.571265
 21
6.655649
 31
0.0
  0
ARC
  5
304
330
1F
100
AcDbEntity
  8
WHITE
  6
AUSGEZOGEN
 62
     7
370
    25
100
AcDbCircle
 10
8.17953
 20
5.672976
 30
0.0
 40
3.681449
100
AcDbArc
 50
10.609352
 51
13.613836
  0
ARC
  5
305
330
1F
100
AcDbEntity
  8
WHITE
  6
AUSGEZOGEN
 62
     7
370
    25
100
AcDbCircle
 10
10.54394
 20
6.143684
 30
0.0
 40
1.271088
100
AcDbArc
 50
313.7808
 51
9.37662
  0
ARC
  5
306
330
1F
100
AcDbEntity
  8
WHITE
  6
AUSGEZOGEN
 62
     7
370
    25
100
AcDbCircle
 10
11.178174
 20
5.498379
 30
0.0
 40
0.366534
100
AcDbArc
 50
277.370407
 51
311.994756
  0
ARC
  5
307
330
1F
100
AcDbEntity
  8
WHITE
  6
AUSGEZOGEN
 62
     7
370
    25
100
AcDbCircle
 10
8.933435
 20
7.664459
 30
0.0
 40
3.413351
100
AcDbArc
 50
299.7664
 51
312.176
  0
ARC
  5
308
330
1F
100
AcDbEntity
  8
WHITE
  6
AUSGEZOGEN
 62
     7
370
    25
100
AcDbCircle
 10
10.398594
 20
5.05356
 30
0.0
 40
0.42025
100
AcDbArc
 50
281.449848
 51
303.092073
  0
ARC
  5
309
330
1F
100
AcDbEntity
  8
WHITE
  6
AUSGEZOGEN
 62
     7
370
    25
100
AcDbCircle
 10
9.494932
 20
8.658393
 30
0.0
 40
4.136226
100
AcDbArc
 50
252.611082
 51
283.806522
  0
ARC
  5
30A
330
1F
100
AcDbEntity
  8
WHITE
  6
AUSGEZOGEN
 62
     7
370
    25
100
AcDbCircle
 10
8.276818
 20
4.770262
 30
0.0
 40
0.061751
100
AcDbArc
 50
73.030615
 51
253.030616
  0
ARC
  5
30B
330
1F
100
AcDbEntity
  8
WHITE
  6
AUSGEZOGEN
 62
     7
370
    25
100
AcDbCircle
 10
9.289685
 20
8.217649
 30
0.0
 40
3.531354
100
AcDbArc
 50
253.637262
 51
285.685675
  0
ARC
  5
30C
330
1F
100
AcDbEntity
  8
WHITE
  6
AUSGEZOGEN
 62
     7
370
    25
100
AcDbCircle
 10
10.895089
 20
4.227182
 30
0.0
 40
0.878752
100
AcDbArc
 50
102.294884
 51
137.769447
  0
ARC
  5
30D
330
1F
100
AcDbEntity
  8
WHITE
  6
AUSGEZOGEN
 62
     7
370
    25
100
AcDbCircle
 10
11.339753
 20
4.376138
 30
0.0
 40
0.95013
100
AcDbArc
 50
104.45292
 51
131.678397
  0
ARC
  5
30E
330
1F
100
AcDbEntity
  8
WHITE
  6
AUSGEZOGEN
 62
     7
370
    25
100
AcDbCircle
 10
11.68001
 20
5.024129
 30
0.0
 40
0.638285
100
AcDbArc
 50
133.4574
 51
154.7701
  0
ARC
  5
30F
330
1F
100
AcDbEntity
  8
WHITE
  6
AUSGEZOGEN
 62
     7
370
    25
100
AcDbCircle
 10
10.330419
 20
6.326028
 30
0.0
 40
1.237881
100
AcDbArc
 50
317.356875
 51
345.309871
  0
ARC
  5
310
330
1F
100
AcDbEntity
  8
WHITE
  6
AUSGEZOGEN
 62
     7
370
    25
100
AcDbCircle
 10
11.479266
 20
6.013414
 30
0.0
 40
0.048587
100
AcDbArc
 50
358.465211
 51
55.600446
  0
ARC
  5
311
330
1F
100
AcDbEntity
  8
WHITE
  6
AUSGEZOGEN
 62
     7
370
    25
100
AcDbCircle
 10
11.648735
 20
6.239894
 30
0.0
 40
0.234331
100
AcDbArc
 50
166.4041
 51
232.6944
  0
ARC
  5
312
330
1F
100
AcDbEntity
  8
WHITE
  6
AUSGEZOGEN
 62
     7
370
    25
100
AcDbCircle
 10
10.792619
 20
6.453858
 30
0.0
 40
0.648127
100
AcDbArc
 50
345.810183
 51
12.100625
  0
ARC
  5
313
330
1F
100
AcDbEntity
  8
WHITE
  6
AUSGEZOGEN
 62
     7
370
    25
100
AcDbCircle
 10
10.12886
 20
6.346319
 30
0.0
 40
1.320119
100
AcDbArc
 50
10.62505
 51
39.30768
  0
ARC
  5
314
330
1F
100
AcDbEntity
  8
WHITE
  6
AUSGEZOGEN
 62
     7
370
    25
100
AcDbCircle
 10
11.84683
 20
7.68658
 30
0.0
 40
0.859734
100
AcDbArc
 50
191.627356
 51
215.888601
  0
ARC
  5
315
330
1F
100
AcDbEntity
  8
WHITE
  6
AUSGEZOGEN
 62
     7
370
    25
100
AcDbCircle
 10
11.205418
 20
7.584831
 30
0.0
 40
0.213046
100
AcDbArc
 50
71.917182
 51
199.617368
  0
ARC
  5
316
330
1F
100
AcDbEntity
  8
WHITE
  6
AUSGEZOGEN
 62
     7
370
    25
100
AcDbCircle
 10
11.267845
 20
7.940984
 30
0.0
 40
0.153674
100
AcDbArc
 50
271.37971
 51
323.025128
  0
ARC
  5
317
330
1F
100
AcDbEntity
  8
WHITE
  6
AUSGEZOGEN
 62
     7
370
    25
100
AcDbCircle
 10
10.525351
 20
8.479088
 30
0.0
 40
1.070633
100
AcDbArc
 50
323.91855
 51
333.311554
  0
ARC
  5
318
330
1F
100
AcDbEntity
  8
WHITE
  6
AUSGEZOGEN
 62
     7
370
    25
100
AcDbCircle
 10
11.813449
 20
7.831559
 30
0.0
 40
0.371064
100
AcDbArc
 50
136.904894
 51
153.310496
  0
ARC
  5
319
330
1F
100
AcDbEntity
  8
WHITE
  6
AUSGEZOGEN
 62
     7
370
    25
100
AcDbCircle
 10
11.634065
 20
7.975724
 30
0.0
 40
0.14263
100
AcDbArc
 50
67.28558
 51
129.9444
  0
ARC
  5
31A
330
1F
100
AcDbEntity
  8
WHITE
  6
AUSGEZOGEN
 62
     7
370
    25
100
AcDbCircle
 10
11.680508
 20
8.086563
 30
0.0
 40
0.022455
100
AcDbArc
 50
330.186095
 51
67.39048
  0
LINE
  5
31B
330
1F
100
AcDbEntity
  8
WHITE
  6
AUSGEZOGEN
 62
     7
370
    25
100
AcDbLine
 10
11.69999
 20
8.075399
 30
0.0
 11
11.56319
 21
7.833524
 31
0.0
  0
ARC
  5
31C
330
1F
100
AcDbEntity
  8
WHITE
  6
AUSGEZOGEN
 62
     7
370
    25
100
AcDbCircle
 10
11.582712
 20
7.82244
 30
0.0
 40
0.022449
100
AcDbArc
 50
150.411059
 51
240.611125
  0
LINE
  5
31D
330
1F
100
AcDbEntity
  8
WHITE
  6
AUSGEZOGEN
 62
     7
370
    25
100
AcDbLine
 10
11.571695
 20
7.802879
 30
0.0
 11
11.59109
 21
7.791899
 31
0.0
  0
ARC
  5
31E
330
1F
100
AcDbEntity
  8
WHITE
  6
AUSGEZOGEN
 62
     7
370
    25
100
AcDbCircle
 10
11.60225
 20
7.811384
 30
0.0
 40
0.022455
100
AcDbArc
 50
240.198151
 51
330.868
  0
LINE
  5
31F
330
1F
100
AcDbEntity
  8
WHITE
  6
AUSGEZOGEN
 62
     7
370
    25
100
AcDbLine
 10
11.621865
 20
7.800453
 30
0.0
 11
11.75327
 21
8.032829
 31
0.0
  0
ARC
  5
320
330
1F
100
AcDbEntity
  8
WHITE
  6
AUSGEZOGEN
 62
     7
370
    25
100
AcDbCircle
 10
11.772845
 20
8.021804
 30
0.0
 40
0.022466
100
AcDbArc
 50
53.1308
 51
150.610989
  0
LINE
  5
321
330
1F
100
AcDbEntity
  8
WHITE
  6
AUSGEZOGEN
 62
     7
370
    25
100
AcDbLine
 10
11.786325
 20
8.039777
 30
0.0
 11
11.81114
 21
8.021399
 31
0.0
  0
ARC
  5
322
330
1F
100
AcDbEntity
  8
WHITE
  6
AUSGEZOGEN
 62
     7
370
    25
100
AcDbCircle
 10
11.73518
 20
7.919429
 30
0.0
 40
0.127153
100
AcDbArc
 50
357.0789
 51
53.316654
  0
ARC
  5
323
330
1F
100
AcDbEntity
  8
WHITE
  6
AUSGEZOGEN
 62
     7
370
    25
100
AcDbCircle
 10
11.581228
 20
7.926958
 30
0.0
 40
0.281289
100
AcDbArc
 50
327.198494
 51
357.145451
  0
ARC
  5
324
330
1F
100
AcDbEntity
  8
WHITE
  6
AUSGEZOGEN
 62
     7
370
    25
100
AcDbCircle
 10
10.716288
 20
8.406417
 30
0.0
 40
1.269747
100
AcDbArc
 50
319.337635
 51
330.157854
  0
ARC
  5
325
330
1F
100
AcDbEntity
  8
WHITE
  6
AUSGEZOGEN
 62
     7
370
    25
100
AcDbCircle
 10
11.576465
 20
7.670354
 30
0.0
 40
0.137647
100
AcDbArc
 50
271.2173
 51
318.4458
  0
ARC
  5
326
330
1F
100
AcDbEntity
  8
WHITE
  6
AUSGEZOGEN
 62
     7
370
    25
100
AcDbCircle
 10
11.442864
 20
5.224879
 30
0.0
 40
2.311894
100
AcDbArc
 50
86.6145
 51
89.90753
  0
ARC
  5
327
330
1F
100
AcDbEntity
  8
WHITE
  6
AUSGEZOGEN
 62
     7
370
    25
100
AcDbCircle
 10
11.4382
 20
7.475997
 30
0.0
 40
0.061351
100
AcDbArc
 50
82.134923
 51
199.716284
  0
ARC
  5
328
330
1F
100
AcDbEntity
  8
WHITE
  6
AUSGEZOGEN
 62
     7
370
    25
100
AcDbCircle
 10
11.542132
 20
7.514381
 30
0.0
 40
0.172143
100
AcDbArc
 50
200.072717
 51
237.825312
  0
ARC
  5
329
330
1F
100
AcDbEntity
  8
WHITE
  6
AUSGEZOGEN
 62
     7
370
    25
100
AcDbCircle
 10
11.344584
 20
7.201207
 30
0.0
 40
0.198132
100
AcDbArc
 50
352.174293
 51
57.696748
  0
ARC
  5
32A
330
1F
100
AcDbEntity
  8
WHITE
  6
AUSGEZOGEN
 62
     7
370
    25
100
AcDbCircle
 10
8.180247
 20
5.671372
 30
0.0
 40
3.681355
100
AcDbArc
 50
13.770379
 51
24.094001
  0
LINE
  5
32B
330
1F
100
AcDbEntity
  8
WHITE
  6
AUSGEZOGEN
 62
     7
370
    25
100
AcDbLine
 10
11.75579
 20
6.54765
 30
0.0
 11
11.757545
 21
6.539504
 31
0.0
  0
ARC
  5
32C
330
1F
100
AcDbEntity
  8
WHITE
  6
AUSGEZOGEN
 62
     7
370
    25
100
AcDbCircle
 10
6.240467
 20
1.103613
 30
0.0
 40
3.681517
100
AcDbArc
 50
25.638072
 51
28.639974
  0
ARC
  5
32D
330
1F
100
AcDbEntity
  8
WHITE
  6
AUSGEZOGEN
 62
     7
370
    25
100
AcDbCircle
 10
8.40185
 20
2.171984
 30
0.0
 40
1.270971
100
AcDbArc
 50
328.7722
 51
24.37629
  0
ARC
  5
32E
330
1F
100
AcDbEntity
  8
WHITE
  6
AUSGEZOGEN
 62
     7
370
    25
100
AcDbCircle
 10
9.181275
 20
1.712706
 30
0.0
 40
0.366542
100
AcDbArc
 50
292.380889
 51
326.997461
  0
ARC
  5
32F
330
1F
100
AcDbEntity
  8
WHITE
  6
AUSGEZOGEN
 62
     7
370
    25
100
AcDbCircle
 10
6.452765
 20
3.224625
 30
0.0
 40
3.41343
100
AcDbArc
 50
314.7564
 51
327.1647
  0
ARC
  5
330
330
1F
100
AcDbEntity
  8
WHITE
  6
AUSGEZOGEN
 62
     7
370
    25
100
AcDbCircle
 10
8.54328
 20
1.081542
 30
0.0
 40
0.420404
100
AcDbArc
 50
296.42877
 51
318.089652
  0
ARC
  5
331
330
1F
100
AcDbEntity
  8
WHITE
  6
AUSGEZOGEN
 62
     7
370
    25
100
AcDbCircle
 10
6.737255
 20
4.329509
 30
0.0
 40
4.136319
100
AcDbArc
 50
267.616912
 51
298.807172
  0
ARC
  5
332
330
1F
100
AcDbEntity
  8
WHITE
  6
AUSGEZOGEN
 62
     7
370
    25
100
AcDbCircle
 10
6.567289
 20
0.258424
 30
0.0
 40
0.06169
100
AcDbArc
 50
88.118254
 51
268.118254
  0
ARC
  5
333
330
1F
100
AcDbEntity
  8
WHITE
  6
AUSGEZOGEN
 62
     7
370
    25
100
AcDbCircle
 10
6.653566
 20
3.850575
 30
0.0
 40
3.531499
100
AcDbArc
 50
268.632957
 51
300.683371
  0
ARC
  5
334
330
1F
100
AcDbEntity
  8
WHITE
  6
AUSGEZOGEN
 62
     7
370
    25
100
AcDbCircle
 10
9.237101
 20
0.411655
 30
0.0
 40
0.878695
100
AcDbArc
 50
117.314075
 51
152.786871
  0
ARC
  5
335
330
1F
100
AcDbEntity
  8
WHITE
  6
AUSGEZOGEN
 62
     7
370
    25
100
AcDbCircle
 10
9.62774
 20
0.670469
 30
0.0
 40
0.950042
100
AcDbArc
 50
119.45
 51
146.6772
  0
ARC
  5
336
330
1F
100
AcDbEntity
  8
WHITE
  6
AUSGEZOGEN
 62
     7
370
    25
100
AcDbCircle
 10
9.788928
 20
1.384615
 30
0.0
 40
0.638394
100
AcDbArc
 50
148.468537
 51
169.792047
  0
ARC
  5
337
330
1F
100
AcDbEntity
  8
WHITE
  6
AUSGEZOGEN
 62
     7
370
    25
100
AcDbCircle
 10
8.148123
 20
2.292866
 30
0.0
 40
1.237985
100
AcDbArc
 50
332.356199
 51
0.303544
  0
ARC
  5
338
330
1F
100
AcDbEntity
  8
WHITE
  6
AUSGEZOGEN
 62
     7
370
    25
100
AcDbCircle
 10
9.338622
 20
2.288103
 30
0.0
 40
0.0488
100
AcDbArc
 50
13.414299
 51
70.395309
  0
ARC
  5
339
330
1F
100
AcDbEntity
  8
WHITE
  6
AUSGEZOGEN
 62
     7
370
    25
100
AcDbCircle
 10
9.443915
 20
2.550847
 30
0.0
 40
0.234302
100
AcDbArc
 50
181.465669
 51
247.696684
  0
ARC
  5
33A
330
1F
100
AcDbEntity
  8
WHITE
  6
AUSGEZOGEN
 62
     7
370
    25
100
AcDbCircle
 10
8.561735
 20
2.535809
 30
0.0
 40
0.648018
100
AcDbArc
 50
0.799757
 51
27.10422
  0
ARC
  5
33B
330
1F
100
AcDbEntity
  8
WHITE
  6
AUSGEZOGEN
 62
     7
370
    25
100
AcDbCircle
 10
7.948338
 20
2.260235
 30
0.0
 40
1.320049
100
AcDbArc
 50
25.621365
 51
54.310417
  0
ARC
  5
33C
330
1F
100
AcDbEntity
  8
WHITE
  6
AUSGEZOGEN
 62
     7
370
    25
100
AcDbCircle
 10
9.260182
 20
3.999702
 30
0.0
 40
0.859545
100
AcDbArc
 50
206.674876
 51
230.930689
  0
ARC
  5
33D
330
1F
100
AcDbEntity
  8
WHITE
  6
AUSGEZOGEN
 62
     7
370
    25
100
AcDbCircle
 10
8.667169
 20
3.735107
 30
0.0
 40
0.212957
100
AcDbArc
 50
86.78956
 51
214.715214
  0
ARC
  5
33E
330
1F
100
AcDbEntity
  8
WHITE
  6
AUSGEZOGEN
 62
     7
370
    25
100
AcDbCircle
 10
8.635625
 20
4.095059
 30
0.0
 40
0.153609
100
AcDbArc
 50
286.4388
 51
338.0864
  0
ARC
  5
33F
330
1F
100
AcDbEntity
  8
WHITE
  6
AUSGEZOGEN
 62
     7
370
    25
100
AcDbCircle
 10
7.77982
 20
4.424156
 30
0.0
 40
1.070495
100
AcDbArc
 50
338.839755
 51
348.245434
  0
ARC
  5
340
330
1F
100
AcDbEntity
  8
WHITE
  6
AUSGEZOGEN
 62
     7
370
    25
100
AcDbCircle
 10
9.191244
 20
4.131516
 30
0.0
 40
0.370949
100
AcDbArc
 50
152.02475
 51
168.404866
  0
ARC
  5
341
330
1F
100
AcDbEntity
  8
WHITE
  6
AUSGEZOGEN
 62
     7
370
    25
100
AcDbCircle
 10
8.980366
 20
4.223631
 30
0.0
 40
0.142588
100
AcDbArc
 50
82.271931
 51
144.946961
  0
ARC
  5
342
330
1F
100
AcDbEntity
  8
WHITE
  6
AUSGEZOGEN
 62
     7
370
    25
100
AcDbCircle
 10
8.996435
 20
4.342694
 30
0.0
 40
0.022446
100
AcDbArc
 50
345.268299
 51
82.048592
  0
LINE
  5
343
330
1F
100
AcDbEntity
  8
WHITE
  6
AUSGEZOGEN
 62
     7
370
    25
100
AcDbLine
 10
9.018143
 20
4.336987
 30
0.0
 11
8.94869
 21
4.067924
 31
0.0
  0
ARC
  5
344
330
1F
100
AcDbEntity
  8
WHITE
  6
AUSGEZOGEN
 62
     7
370
    25
100
AcDbCircle
 10
8.970515
 20
4.062299
 30
0.0
 40
0.022538
100
AcDbArc
 50
165.547572
 51
255.547598
  0
LINE
  5
345
330
1F
100
AcDbEntity
  8
WHITE
  6
AUSGEZOGEN
 62
     7
370
    25
100
AcDbLine
 10
8.964891
 20
4.040474
 30
0.0
 11
8.986715
 21
4.034849
 31
0.0
  0
ARC
  5
346
330
1F
100
AcDbEntity
  8
WHITE
  6
AUSGEZOGEN
 62
     7
370
    25
100
AcDbCircle
 10
8.99207
 20
4.056719
 30
0.0
 40
0.022516
100
AcDbArc
 50
256.241485
 51
345.436899
  0
LINE
  5
347
330
1F
100
AcDbEntity
  8
WHITE
  6
AUSGEZOGEN
 62
     7
370
    25
100
AcDbLine
 10
9.013863
 20
4.051058
 30
0.0
 11
9.08099
 21
4.309529
 31
0.0
  0
ARC
  5
348
330
1F
100
AcDbEntity
  8
WHITE
  6
AUSGEZOGEN
 62
     7
370
    25
100
AcDbCircle
 10
9.102803
 20
4.303819
 30
0.0
 40
0.022548
100
AcDbArc
 50
69.036048
 51
165.329862
  0
LINE
  5
349
330
1F
100
AcDbEntity
  8
WHITE
  6
AUSGEZOGEN
 62
     7
370
    25
100
AcDbLine
 10
9.11087
 20
4.324874
 30
0.0
 11
9.13967
 21
4.313624
 31
0.0
  0
ARC
  5
34A
330
1F
100
AcDbEntity
  8
WHITE
  6
AUSGEZOGEN
 62
     7
370
    25
100
AcDbCircle
 10
9.092825
 20
4.195546
 30
0.0
 40
0.127031
100
AcDbArc
 50
12.02161
 51
68.360189
  0
ARC
  5
34B
330
1F
100
AcDbEntity
  8
WHITE
  6
AUSGEZOGEN
 62
     7
370
    25
100
AcDbCircle
 10
8.942124
 20
4.162931
 30
0.0
 40
0.281221
100
AcDbArc
 50
342.191927
 51
12.125943
  0
ARC
  5
34C
330
1F
100
AcDbEntity
  8
WHITE
  6
AUSGEZOGEN
 62
     7
370
    25
100
AcDbCircle
 10
7.982408
 20
4.401334
 30
0.0
 40
1.269609
100
AcDbArc
 50
334.36746
 51
345.195676
  0
ARC
  5
34D
330
1F
100
AcDbEntity
  8
WHITE
  6
AUSGEZOGEN
 62
     7
370
    25
100
AcDbCircle
 10
9.003995
 20
3.913619
 30
0.0
 40
0.137592
100
AcDbArc
 50
286.159
 51
333.4433
  0
ARC
  5
34E
330
1F
100
AcDbEntity
  8
WHITE
  6
AUSGEZOGEN
 62
     7
370
    25
100
AcDbCircle
 10
9.506215
 20
1.516456
 30
0.0
 40
2.31203
100
AcDbArc
 50
101.575438
 51
104.863506
  0
ARC
  5
34F
330
1F
100
AcDbEntity
  8
WHITE
  6
AUSGEZOGEN
 62
     7
370
    25
100
AcDbCircle
 10
8.920521
 20
3.690329
 30
0.0
 40
0.061242
100
AcDbArc
 50
96.92298
 51
214.974502
  0
ARC
  5
350
330
1F
100
AcDbEntity
  8
WHITE
  6
AUSGEZOGEN
 62
     7
370
    25
100
AcDbCircle
 10
9.01142
 20
3.753869
 30
0.0
 40
0.172147
100
AcDbArc
 50
214.96139
 51
252.678138
  0
ARC
  5
351
330
1F
100
AcDbEntity
  8
WHITE
  6
AUSGEZOGEN
 62
     7
370
    25
100
AcDbCircle
 10
8.90153
 20
3.400349
 30
0.0
 40
0.198058
100
AcDbArc
 50
7.229982
 51
72.77955
  0
ARC
  5
352
330
1F
100
AcDbEntity
  8
WHITE
  6
AUSGEZOGEN
 62
     7
370
    25
100
AcDbCircle
 10
6.239493
 20
1.105398
 30
0.0
 40
3.681437
100
AcDbArc
 50
28.737499
 51
39.061599
  0
LINE
  5
353
330
1F
100
AcDbEntity
  8
WHITE
  6
AUSGEZOGEN
 62
     7
370
    25
100
AcDbLine
 10
9.467493
 20
2.875423
 30
0.0
 11
9.471545
 21
2.868179
 31
0.0
  0
ARC
  5
354
330
1F
100
AcDbEntity
  8
WHITE
  6
AUSGEZOGEN
 62
     7
370
    25
100
AcDbCircle
 10
3.454619
 20
1.736631
 30
0.0
 40
2.607866
100
AcDbArc
 50
162.862621
 51
177.026226
  0
ARC
  5
355
330
1F
100
AcDbEntity
  8
WHITE
  6
AUSGEZOGEN
 62
     7
370
    25
100
AcDbCircle
 10
1.68524
 20
1.780527
 30
0.0
 40
0.839962
100
AcDbArc
 50
173.753206
 51
200.966159
  0
ARC
  5
356
330
1F
100
AcDbEntity
  8
WHITE
  6
AUSGEZOGEN
 62
     7
370
    25
100
AcDbCircle
 10
0.966895
 20
1.519771
 30
0.0
 40
0.077074
100
AcDbArc
 50
211.08752
 51
340.370828
  0
ARC
  5
357
330
1F
100
AcDbEntity
  8
WHITE
  6
AUSGEZOGEN
 62
     7
370
    25
100
AcDbCircle
 10
0.390455
 20
1.724189
 30
0.0
 40
0.688686
100
AcDbArc
 50
340.4628
 51
358.36
  0
ARC
  5
358
330
1F
100
AcDbEntity
  8
WHITE
  6
AUSGEZOGEN
 62
     7
370
    25
100
AcDbCircle
 10
5.128038
 20
0.845825
 30
0.0
 40
4.139219
100
AcDbArc
 50
162.155806
 51
168.027413
  0
ARC
  5
359
330
1F
100
AcDbEntity
  8
WHITE
  6
AUSGEZOGEN
 62
     7
370
    25
100
AcDbCircle
 10
1.858083
 20
1.921017
 30
0.0
 40
0.69743
100
AcDbArc
 50
130.624713
 51
163.918861
  0
ARC
  5
35A
330
1F
100
AcDbEntity
  8
WHITE
  6
AUSGEZOGEN
 62
     7
370
    25
100
AcDbCircle
 10
1.667479
 20
2.133827
 30
0.0
 40
0.411852
100
AcDbArc
 50
99.568099
 51
129.775194
  0
ARC
  5
35B
330
1F
100
AcDbEntity
  8
WHITE
  6
AUSGEZOGEN
 62
     7
370
    25
100
AcDbCircle
 10
1.690849
 20
1.96031
 30
0.0
 40
0.586868
100
AcDbArc
 50
70.518529
 51
99.002175
  0
ARC
  5
35C
330
1F
100
AcDbEntity
  8
WHITE
  6
AUSGEZOGEN
 62
     7
370
    25
100
AcDbCircle
 10
1.894165
 20
2.534643
 30
0.0
 40
0.022391
100
AcDbArc
 50
250.174119
 51
334.00485
  0
LINE
  5
35D
330
1F
100
AcDbEntity
  8
WHITE
  6
AUSGEZOGEN
 62
     7
370
    25
100
AcDbLine
 10
1.91429
 20
2.524829
 30
0.0
 11
1.98809
 21
2.675129
 31
0.0
  0
ARC
  5
35E
330
1F
100
AcDbEntity
  8
WHITE
  6
AUSGEZOGEN
 62
     7
370
    25
100
AcDbCircle
 10
2.00825
 20
2.665229
 30
0.0
 40
0.02246
100
AcDbArc
 50
64.25593
 51
153.845664
  0
LINE
  5
35F
330
1F
100
AcDbEntity
  8
WHITE
  6
AUSGEZOGEN
 62
     7
370
    25
100
AcDbLine
 10
2.018006
 20
2.68546
 30
0.0
 11
2.03822
 21
2.675624
 31
0.0
  0
ARC
  5
360
330
1F
100
AcDbEntity
  8
WHITE
  6
AUSGEZOGEN
 62
     7
370
    25
100
AcDbCircle
 10
2.028456
 20
2.655376
 30
0.0
 40
0.02248
100
AcDbArc
 50
333.737662
 51
64.255646
  0
LINE
  5
361
330
1F
100
AcDbEntity
  8
WHITE
  6
AUSGEZOGEN
 62
     7
370
    25
100
AcDbLine
 10
2.048615
 20
2.645429
 30
0.0
 11
1.975895
 21
2.497874
 31
0.0
  0
ARC
  5
362
330
1F
100
AcDbEntity
  8
WHITE
  6
AUSGEZOGEN
 62
     7
370
    25
100
AcDbCircle
 10
1.996055
 20
2.487929
 30
0.0
 40
0.02248
100
AcDbArc
 50
153.742712
 51
240.354499
  0
ARC
  5
363
330
1F
100
AcDbEntity
  8
WHITE
  6
AUSGEZOGEN
 62
     7
370
    25
100
AcDbCircle
 10
1.697933
 20
1.966054
 30
0.0
 40
0.578546
100
AcDbArc
 50
13.848169
 51
60.259194
  0
ARC
  5
364
330
1F
100
AcDbEntity
  8
WHITE
  6
AUSGEZOGEN
 62
     7
370
    25
100
AcDbCircle
 10
1.520133
 20
2.031175
 30
0.0
 40
0.743159
100
AcDbArc
 50
327.724008
 51
5.664611
  0
ARC
  5
365
330
1F
100
AcDbEntity
  8
WHITE
  6
AUSGEZOGEN
 62
     7
370
    25
100
AcDbCircle
 10
24.160422
 20
-15.192023
 30
0.0
 40
27.706542
100
AcDbArc
 50
142.60503
 51
143.826363
  0
ARC
  5
366
330
1F
100
AcDbEntity
  8
WHITE
  6
AUSGEZOGEN
 62
     7
370
    25
100
AcDbCircle
 10
1.85399
 20
1.117364
 30
0.0
 40
0.07372
100
AcDbArc
 50
143.3889
 51
303.476799
  0
ARC
  5
367
330
1F
100
AcDbEntity
  8
WHITE
  6
AUSGEZOGEN
 62
     7
370
    25
100
AcDbCircle
 10
0.70713
 20
2.88563
 30
0.0
 40
2.181334
100
AcDbArc
 50
302.983855
 51
324.372501
  0
ARC
  5
368
330
1F
100
AcDbEntity
  8
WHITE
  6
AUSGEZOGEN
 62
     7
370
    25
100
AcDbCircle
 10
1.421223
 20
2.406386
 30
0.0
 40
1.322003
100
AcDbArc
 50
323.226996
 51
340.113912
  0
ARC
  5
369
330
1F
100
AcDbEntity
  8
WHITE
  6
AUSGEZOGEN
 62
     7
370
    25
100
AcDbCircle
 10
1.375906
 20
2.422938
 30
0.0
 40
1.370247
100
AcDbArc
 50
340.107607
 51
353.095094
  0
ARC
  5
36A
330
1F
100
AcDbEntity
  8
WHITE
  6
AUSGEZOGEN
 62
     7
370
    25
100
AcDbCircle
 10
2.029038
 20
2.329869
 30
0.0
 40
0.710799
100
AcDbArc
 50
354.213429
 51
30.103445
  0
ARC
  5
36B
330
1F
100
AcDbEntity
  8
WHITE
  6
AUSGEZOGEN
 62
     7
370
    25
100
AcDbCircle
 10
1.902776
 20
2.258104
 30
0.0
 40
0.856026
100
AcDbArc
 50
30.020263
 51
59.184666
  0
ARC
  5
36C
330
1F
100
AcDbEntity
  8
WHITE
  6
AUSGEZOGEN
 62
     7
370
    25
100
AcDbCircle
 10
1.80034
 20
2.167267
 30
0.0
 40
0.987386
100
AcDbArc
 50
56.779201
 51
95.895519
  0
ARC
  5
36D
330
1F
100
AcDbEntity
  8
WHITE
  6
AUSGEZOGEN
 62
     7
370
    25
100
AcDbCircle
 10
1.80737
 20
2.282549
 30
0.0
 40
0.873638
100
AcDbArc
 50
97.13087
 51
164.0193
  0
LINE
  5
36E
330
1F
100
AcDbEntity
  8
WHITE
  6
AUSGEZOGEN
 62
     7
370
    25
100
AcDbLine
 10
0.967495
 20
2.523074
 30
0.0
 11
0.96254
 21
2.505074
 31
0.0
  0
ARC
  5
36F
330
1F
100
AcDbEntity
  8
WHITE
  6
AUSGEZOGEN
 62
     7
370
    25
100
AcDbCircle
 10
10.928274
 20
2.25312
 30
0.0
 40
0.955325
100
AcDbArc
 50
91.799787
 51
169.09015
  0
ARC
  5
370
330
1F
100
AcDbEntity
  8
WHITE
  6
AUSGEZOGEN
 62
     7
370
    25
100
AcDbCircle
 10
10.934045
 20
2.183594
 30
0.0
 40
1.025005
100
AcDbArc
 50
70.10844
 51
92.00016
  0
ARC
  5
371
330
1F
100
AcDbEntity
  8
WHITE
  6
AUSGEZOGEN
 62
     7
370
    25
100
AcDbCircle
 10
11.049202
 20
2.500898
 30
0.0
 40
0.687451
100
AcDbArc
 50
39.066977
 51
70.135623
  0
ARC
  5
372
330
1F
100
AcDbEntity
  8
WHITE
  6
AUSGEZOGEN
 62
     7
370
    25
100
AcDbCircle
 10
10.51028
 20
2.104439
 30
0.0
 40
1.356108
100
AcDbArc
 50
8.899377
 51
37.72207
  0
ARC
  5
373
330
1F
100
AcDbEntity
  8
WHITE
  6
AUSGEZOGEN
 62
     7
370
    25
100
AcDbCircle
 10
9.732274
 20
1.878351
 30
0.0
 40
2.162179
100
AcDbArc
 50
353.266432
 51
11.630074
  0
ARC
  5
374
330
1F
100
AcDbEntity
  8
WHITE
  6
AUSGEZOGEN
 62
     7
370
    25
100
AcDbCircle
 10
11.791475
 20
1.654487
 30
0.0
 40
0.092924
100
AcDbArc
 50
201.993635
 51
341.388306
  0
LINE
  5
375
330
1F
100
AcDbEntity
  8
WHITE
  6
AUSGEZOGEN
 62
     7
370
    25
100
AcDbLine
 10
11.705313
 20
1.619686
 30
0.0
 11
11.600045
 21
2.110649
 31
0.0
  0
ARC
  5
376
330
1F
100
AcDbEntity
  8
WHITE
  6
AUSGEZOGEN
 62
     7
370
    25
100
AcDbCircle
 10
10.11266
 20
1.731976
 30
0.0
 40
1.534832
100
AcDbArc
 50
14.283508
 51
25.110427
  0
ARC
  5
377
330
1F
100
AcDbEntity
  8
WHITE
  6
AUSGEZOGEN
 62
     7
370
    25
100
AcDbCircle
 10
10.857814
 20
2.070737
 30
0.0
 40
0.716406
100
AcDbArc
 50
25.867917
 51
48.3507
  0
ARC
  5
378
330
1F
100
AcDbEntity
  8
WHITE
  6
AUSGEZOGEN
 62
     7
370
    25
100
AcDbCircle
 10
11.080211
 20
1.969713
 30
0.0
 40
0.685052
100
AcDbArc
 50
68.263207
 51
111.959912
  0
ARC
  5
379
330
1F
100
AcDbEntity
  8
WHITE
  6
AUSGEZOGEN
 62
     7
370
    25
100
AcDbCircle
 10
10.81556
 20
2.625854
 30
0.0
 40
0.022546
100
AcDbArc
 50
214.5788
 51
292.1624
  0
LINE
  5
37A
330
1F
100
AcDbEntity
  8
WHITE
  6
AUSGEZOGEN
 62
     7
370
    25
100
AcDbLine
 10
10.796998
 20
2.613059
 30
0.0
 11
10.704365
 21
2.747174
 31
0.0
  0
ARC
  5
37B
330
1F
100
AcDbEntity
  8
WHITE
  6
AUSGEZOGEN
 62
     7
370
    25
100
AcDbCircle
 10
10.685914
 20
2.734442
 30
0.0
 40
0.022418
100
AcDbArc
 50
34.606946
 51
125.029761
  0
LINE
  5
37C
330
1F
100
AcDbEntity
  8
WHITE
  6
AUSGEZOGEN
 62
     7
370
    25
100
AcDbLine
 10
10.673045
 20
2.752799
 30
0.0
 11
10.65464
 21
2.740154
 31
0.0
  0
ARC
  5
37D
330
1F
100
AcDbEntity
  8
WHITE
  6
AUSGEZOGEN
 62
     7
370
    25
100
AcDbCircle
 10
10.667173
 20
2.721599
 30
0.0
 40
0.022391
100
AcDbArc
 50
124.035397
 51
214.615807
  0
LINE
  5
37E
330
1F
100
AcDbEntity
  8
WHITE
  6
AUSGEZOGEN
 62
     7
370
    25
100
AcDbLine
 10
10.648745
 20
2.708879
 30
0.0
 11
10.73249
 21
2.587874
 31
0.0
  0
ARC
  5
37F
330
1F
100
AcDbEntity
  8
WHITE
  6
AUSGEZOGEN
 62
     7
370
    25
100
AcDbCircle
 10
10.71422
 20
2.574914
 30
0.0
 40
0.0224
100
AcDbArc
 50
300.945099
 51
35.35035
  0
ARC
  5
380
330
1F
100
AcDbEntity
  8
WHITE
  6
AUSGEZOGEN
 62
     7
370
    25
100
AcDbCircle
 10
11.080211
 20
1.969713
 30
0.0
 40
0.684861
100
AcDbArc
 50
121.170218
 51
160.177217
  0
ARC
  5
381
330
1F
100
AcDbEntity
  8
WHITE
  6
AUSGEZOGEN
 62
     7
370
    25
100
AcDbCircle
 10
10.925589
 20
2.107201
 30
0.0
 40
0.498742
100
AcDbArc
 50
169.047788
 51
206.929656
  0
ARC
  5
382
330
1F
100
AcDbEntity
  8
WHITE
  6
AUSGEZOGEN
 62
     7
370
    25
100
AcDbCircle
 10
11.677996
 20
2.489171
 30
0.0
 40
1.342553
100
AcDbArc
 50
206.920591
 51
219.439042
  0
ARC
  5
383
330
1F
100
AcDbEntity
  8
WHITE
  6
AUSGEZOGEN
 62
     7
370
    25
100
AcDbCircle
 10
11.18663
 20
2.024339
 30
0.0
 40
0.669425
100
AcDbArc
 50
215.4262
 51
234.5076
  0
ARC
  5
384
330
1F
100
AcDbEntity
  8
WHITE
  6
AUSGEZOGEN
 62
     7
370
    25
100
AcDbCircle
 10
10.452178
 20
0.995602
 30
0.0
 40
0.594585
100
AcDbArc
 50
44.968372
 51
54.439553
  0
ARC
  5
385
330
1F
100
AcDbEntity
  8
WHITE
  6
AUSGEZOGEN
 62
     7
370
    25
100
AcDbCircle
 10
12.10237
 20
2.64688
 30
0.0
 40
1.739907
100
AcDbArc
 50
225.036082
 51
228.119339
  0
ARC
  5
386
330
1F
100
AcDbEntity
  8
WHITE
  6
AUSGEZOGEN
 62
     7
370
    25
100
AcDbCircle
 10
10.731632
 20
1.118779
 30
0.0
 40
0.312899
100
AcDbArc
 50
9.691608
 51
48.039885
  0
ARC
  5
387
330
1F
100
AcDbEntity
  8
WHITE
  6
AUSGEZOGEN
 62
     7
370
    25
100
AcDbCircle
 10
10.995515
 20
1.169564
 30
0.0
 40
0.04459
100
AcDbArc
 50
295.013699
 51
2.429273
  0
ARC
  5
388
330
1F
100
AcDbEntity
  8
WHITE
  6
AUSGEZOGEN
 62
     7
370
    25
100
AcDbCircle
 10
10.961898
 20
1.242286
 30
0.0
 40
0.124706
100
AcDbArc
 50
239.317677
 51
294.882824
  0
ARC
  5
389
330
1F
100
AcDbEntity
  8
WHITE
  6
AUSGEZOGEN
 62
     7
370
    25
100
AcDbCircle
 10
12.31214
 20
3.519611
 30
0.0
 40
2.772226
100
AcDbArc
 50
232.977284
 51
239.335186
  0
ARC
  5
38A
330
1F
100
AcDbEntity
  8
WHITE
  6
AUSGEZOGEN
 62
     7
370
    25
100
AcDbCircle
 10
12.1922
 20
3.364394
 30
0.0
 40
2.576083
100
AcDbArc
 50
223.9575
 51
233.0284
  0
ARC
  5
38B
330
1F
100
AcDbEntity
  8
WHITE
  6
AUSGEZOGEN
 62
     7
370
    25
100
AcDbCircle
 10
15.909759
 20
6.927465
 30
0.0
 40
7.725417
100
AcDbArc
 50
223.163883
 51
223.842137
  0
ARC
  5
38C
330
1F
100
AcDbEntity
  8
WHITE
  6
AUSGEZOGEN
 62
     7
370
    25
100
AcDbCircle
 10
11.194675
 20
2.508338
 30
0.0
 40
1.263167
100
AcDbArc
 50
203.91352
 51
223.264523
  0
ARC
  5
38D
330
1F
100
AcDbEntity
  8
WHITE
  6
AUSGEZOGEN
 62
     7
370
    25
100
AcDbCircle
 10
10.712555
 20
2.294699
 30
0.0
 40
0.735833
100
AcDbArc
 50
170.5135
 51
203.9237
  0
LINE
  5
38E
330
1F
100
AcDbEntity
  8
WHITE
  6
AUSGEZOGEN
 62
     7
370
    25
100
AcDbLine
 10
9.986785
 20
2.415976
 30
0.0
 11
9.990215
 21
2.433929
 31
0.0
  0
ARC
  5
38F
330
1F
100
AcDbEntity
  8
WHITE
  6
AUSGEZOGEN
 62
     7
370
    25
100
AcDbCircle
 10
12.70934
 20
1.688864
 30
0.0
 40
2.84654
100
AcDbArc
 50
181.9451
 51
195.516402
  0
ARC
  5
390
330
1F
100
AcDbEntity
  8
WHITE
  6
AUSGEZOGEN
 62
     7
370
    25
100
AcDbCircle
 10
10.18979
 20
1.603274
 30
0.0
 40
0.325537
100
AcDbArc
 50
147.287537
 51
181.941101
  0
ARC
  5
391
330
1F
100
AcDbEntity
  8
WHITE
  6
AUSGEZOGEN
 62
     7
370
    25
100
AcDbCircle
 10
9.954624
 20
1.694005
 30
0.0
 40
0.09359
100
AcDbArc
 50
356.07846
 51
114.451023
  0
ARC
  5
392
330
1F
100
AcDbEntity
  8
WHITE
  6
AUSGEZOGEN
 62
     7
370
    25
100
AcDbCircle
 10
12.805865
 20
2.154974
 30
0.0
 40
2.797192
100
AcDbArc
 50
189.6184
 51
200.6242
  0
ARC
  5
393
330
1F
100
AcDbEntity
  8
WHITE
  6
AUSGEZOGEN
 62
     7
370
    25
100
AcDbCircle
 10
10.847605
 20
1.406566
 30
0.0
 40
0.700899
100
AcDbArc
 50
199.751741
 51
241.243913
  0
ARC
  5
394
330
1F
100
AcDbEntity
  8
WHITE
  6
AUSGEZOGEN
 62
     7
370
    25
100
AcDbCircle
 10
10.704275
 20
1.144814
 30
0.0
 40
0.402475
100
AcDbArc
 50
241.2055
 51
306.3561
  0
ARC
  5
395
330
1F
100
AcDbEntity
  8
WHITE
  6
AUSGEZOGEN
 62
     7
370
    25
100
AcDbCircle
 10
10.956171
 20
0.802524
 30
0.0
 40
0.022512
100
AcDbArc
 50
31.106233
 51
126.236183
  0
LINE
  5
396
330
1F
100
AcDbEntity
  8
WHITE
  6
AUSGEZOGEN
 62
     7
370
    25
100
AcDbLine
 10
10.975445
 20
0.814154
 30
0.0
 11
11.070395
 21
0.653954
 31
0.0
  0
ARC
  5
397
330
1F
100
AcDbEntity
  8
WHITE
  6
AUSGEZOGEN
 62
     7
370
    25
100
AcDbCircle
 10
11.089745
 20
0.665384
 30
0.0
 40
0.022474
100
AcDbArc
 50
210.570248
 51
300.827198
  0
LINE
  5
398
330
1F
100
AcDbEntity
  8
WHITE
  6
AUSGEZOGEN
 62
     7
370
    25
100
AcDbLine
 10
11.101262
 20
0.646086
 30
0.0
 11
11.120615
 21
0.657554
 31
0.0
  0
ARC
  5
399
330
1F
100
AcDbEntity
  8
WHITE
  6
AUSGEZOGEN
 62
     7
370
    25
100
AcDbCircle
 10
11.109172
 20
0.676896
 30
0.0
 40
0.022474
100
AcDbArc
 50
300.610463
 51
30.727389
  0
LINE
  5
39A
330
1F
100
AcDbEntity
  8
WHITE
  6
AUSGEZOGEN
 62
     7
370
    25
100
AcDbLine
 10
11.12849
 20
0.688379
 30
0.0
 11
11.030615
 21
0.853349
 31
0.0
  0
ARC
  5
39B
330
1F
100
AcDbEntity
  8
WHITE
  6
AUSGEZOGEN
 62
     7
370
    25
100
AcDbCircle
 10
11.049965
 20
0.864779
 30
0.0
 40
0.022474
100
AcDbArc
 50
124.802902
 51
210.570248
  0
ARC
  5
39C
330
1F
100
AcDbEntity
  8
WHITE
  6
AUSGEZOGEN
 62
     7
370
    25
100
AcDbCircle
 10
10.710252
 20
1.359998
 30
0.0
 40
0.578066
100
AcDbArc
 50
304.435858
 51
351.787937
  0
ARC
  5
39D
330
1F
100
AcDbEntity
  8
WHITE
  6
AUSGEZOGEN
 62
     7
370
    25
100
AcDbCircle
 10
10.640915
 20
1.333229
 30
0.0
 40
0.643897
100
AcDbArc
 50
355.0285
 51
12.88536
  0
ARC
  5
39E
330
1F
100
AcDbEntity
  8
WHITE
  6
AUSGEZOGEN
 62
     7
370
    25
100
AcDbCircle
 10
10.579525
 20
1.290563
 30
0.0
 40
0.713802
100
AcDbArc
 50
15.125529
 51
40.463919
  0
ARC
  5
39F
330
1F
100
AcDbEntity
  8
WHITE
  6
AUSGEZOGEN
 62
     7
370
    25
100
AcDbCircle
 10
3.060575
 20
-5.111176
 30
0.0
 40
10.588864
100
AcDbArc
 50
40.41507
 51
41.15278
  0
ARC
  5
3A0
330
1F
100
AcDbEntity
  8
WHITE
  6
AUSGEZOGEN
 62
     7
370
    25
100
AcDbCircle
 10
10.145303
 20
1.087195
 30
0.0
 40
1.17542
100
AcDbArc
 50
40.915425
 51
47.660729
  0
ARC
  5
3A1
330
1F
100
AcDbEntity
  8
WHITE
  6
AUSGEZOGEN
 62
     7
370
    25
100
AcDbCircle
 10
12.346098
 20
3.501332
 30
0.0
 40
2.091316
100
AcDbArc
 50
218.789679
 51
227.638996
  0
ARC
  5
3A2
330
1F
100
AcDbEntity
  8
WHITE
  6
AUSGEZOGEN
 62
     7
370
    25
100
AcDbCircle
 10
10.786184
 20
2.206154
 30
0.0
 40
0.07174
100
AcDbArc
 50
68.441205
 51
192.031721
  0
ARC
  5
3A3
330
1F
100
AcDbEntity
  8
WHITE
  6
AUSGEZOGEN
 62
     7
370
    25
100
AcDbCircle
 10
10.288475
 20
0.955049
 30
0.0
 40
1.418207
100
AcDbArc
 50
49.27448
 51
68.31338
  0
ARC
  5
3A4
330
1F
100
AcDbEntity
  8
WHITE
  6
AUSGEZOGEN
 62
     7
370
    25
100
AcDbCircle
 10
9.663293
 20
0.192971
 30
0.0
 40
2.403749
100
AcDbArc
 50
38.120325
 51
49.832636
  0
ARC
  5
3A5
330
1F
100
AcDbEntity
  8
WHITE
  6
AUSGEZOGEN
 62
     7
370
    25
100
AcDbCircle
 10
10.75384
 20
1.067054
 30
0.0
 40
1.006318
100
AcDbArc
 50
22.966594
 51
37.297953
  0
ARC
  5
3A6
330
1F
100
AcDbEntity
  8
WHITE
  6
AUSGEZOGEN
 62
     7
370
    25
100
AcDbCircle
 10
10.669318
 20
1.031233
 30
0.0
 40
1.098117
100
AcDbArc
 50
4.903727
 51
22.966646
  0
ARC
  5
3A7
330
1F
100
AcDbEntity
  8
WHITE
  6
AUSGEZOGEN
 62
     7
370
    25
100
AcDbCircle
 10
10.787815
 20
1.161054
 30
0.0
 40
0.976262
100
AcDbArc
 50
283.000621
 51
357.889578
  0
ARC
  5
3A8
330
1F
100
AcDbEntity
  8
WHITE
  6
AUSGEZOGEN
 62
     7
370
    25
100
AcDbCircle
 10
10.838013
 20
1.077865
 30
0.0
 40
0.88443
100
AcDbArc
 50
190.981925
 51
281.043978
  0
LINE
  5
3A9
330
1F
100
AcDbEntity
  8
WHITE
  6
AUSGEZOGEN
 62
     7
370
    25
100
AcDbLine
 10
9.96978
 20
0.909382
 30
0.0
 11
9.966545
 21
0.927374
 31
0.0
  0
ARC
  5
3AA
330
1F
100
AcDbEntity
  8
WHITE
  6
AUSGEZOGEN
 62
     7
370
    25
100
AcDbCircle
 10
6.39539
 20
5.050589
 30
0.0
 40
0.421324
100
AcDbArc
 50
164.564
 51
209.72211
  0
ARC
  5
3AB
330
1F
100
AcDbEntity
  8
WHITE
  6
AUSGEZOGEN
 62
     7
370
    25
100
AcDbCircle
 10
7.597154
 20
4.718653
 30
0.0
 40
1.668087
100
AcDbArc
 50
159.742903
 51
164.560595
  0
ARC
  5
3AC
330
1F
100
AcDbEntity
  8
WHITE
  6
AUSGEZOGEN
 62
     7
370
    25
100
AcDbCircle
 10
10.44404
 20
3.62517
 30
0.0
 40
4.71766
100
AcDbArc
 50
156.3154
 51
159.255119
  0
ARC
  5
3AD
330
1F
100
AcDbEntity
  8
WHITE
  6
AUSGEZOGEN
 62
     7
370
    25
100
AcDbCircle
 10
5.638869
 20
5.732922
 30
0.0
 40
0.529462
100
AcDbArc
 50
336.318363
 51
0.360575
  0
ARC
  5
3AE
330
1F
100
AcDbEntity
  8
WHITE
  6
AUSGEZOGEN
 62
     7
370
    25
100
AcDbCircle
 10
6.119
 20
5.711639
 30
0.0
 40
0.055121
100
AcDbArc
 50
26.52321
 51
58.72389
  0
ARC
  5
3AF
330
1F
100
AcDbEntity
  8
WHITE
  6
AUSGEZOGEN
 62
     7
370
    25
100
AcDbCircle
 10
6.114813
 20
5.705566
 30
0.0
 40
0.062488
100
AcDbArc
 50
58.333941
 51
84.833519
  0
ARC
  5
3B0
330
1F
100
AcDbEntity
  8
WHITE
  6
AUSGEZOGEN
 62
     7
370
    25
100
AcDbCircle
 10
6.248465
 20
5.405864
 30
0.0
 40
0.383911
100
AcDbArc
 50
109.4799
 51
142.8507
  0
ARC
  5
3B1
330
1F
100
AcDbEntity
  8
WHITE
  6
AUSGEZOGEN
 62
     7
370
    25
100
AcDbCircle
 10
6.675982
 20
5.07716
 30
0.0
 40
0.923179
100
AcDbArc
 50
142.613382
 51
146.902645
  0
ARC
  5
3B2
330
1F
100
AcDbEntity
  8
WHITE
  6
AUSGEZOGEN
 62
     7
370
    25
100
AcDbCircle
 10
6.297929
 20
5.328208
 30
0.0
 40
0.469396
100
AcDbArc
 50
147.375354
 51
151.989826
  0
ARC
  5
3B3
330
1F
100
AcDbEntity
  8
WHITE
  6
AUSGEZOGEN
 62
     7
370
    25
100
AcDbCircle
 10
3.425203
 20
6.871772
 30
0.0
 40
2.791766
100
AcDbArc
 50
327.959818
 51
331.709808
  0
ARC
  5
3B4
330
1F
100
AcDbEntity
  8
WHITE
  6
AUSGEZOGEN
 62
     7
370
    25
100
AcDbCircle
 10
7.927455
 20
4.308169
 30
0.0
 40
2.394422
100
AcDbArc
 50
153.121125
 51
165.207682
  0
ARC
  5
3B5
330
1F
100
AcDbEntity
  8
WHITE
  6
AUSGEZOGEN
 62
     7
370
    25
100
AcDbCircle
 10
6.41465
 20
4.707104
 30
0.0
 40
0.8299
100
AcDbArc
 50
165.1711
 51
188.6354
  0
ARC
  5
3B6
330
1F
100
AcDbEntity
  8
WHITE
  6
AUSGEZOGEN
 62
     7
370
    25
100
AcDbCircle
 10
6.442188
 20
4.711305
 30
0.0
 40
0.857757
100
AcDbArc
 50
188.636603
 51
207.248933
  0
ARC
  5
3B7
330
1F
100
AcDbEntity
  8
WHITE
  6
AUSGEZOGEN
 62
     7
370
    25
100
AcDbCircle
 10
6.241625
 20
4.641449
 30
0.0
 40
0.648149
100
AcDbArc
 50
209.8776
 51
243.5114
  0
ARC
  5
3B8
330
1F
100
AcDbEntity
  8
WHITE
  6
AUSGEZOGEN
 62
     7
370
    25
100
AcDbCircle
 10
6.444625
 20
5.048495
 30
0.0
 40
1.103006
100
AcDbArc
 50
243.504172
 51
263.642603
  0
ARC
  5
3B9
330
1F
100
AcDbEntity
  8
WHITE
  6
AUSGEZOGEN
 62
     7
370
    25
100
AcDbCircle
 10
6.437638
 20
5.06265
 30
0.0
 40
1.116333
100
AcDbArc
 50
264.079455
 51
288.828245
  0
ARC
  5
3BA
330
1F
100
AcDbEntity
  8
WHITE
  6
AUSGEZOGEN
 62
     7
370
    25
100
AcDbCircle
 10
6.576687
 20
4.730142
 30
0.0
 40
0.757132
100
AcDbArc
 50
286.989224
 51
323.249822
  0
ARC
  5
3BB
330
1F
100
AcDbEntity
  8
WHITE
  6
AUSGEZOGEN
 62
     7
370
    25
100
AcDbCircle
 10
6.624689
 20
4.696905
 30
0.0
 40
0.698787
100
AcDbArc
 50
323.078501
 51
352.606226
  0
ARC
  5
3BC
330
1F
100
AcDbEntity
  8
WHITE
  6
AUSGEZOGEN
 62
     7
370
    25
100
AcDbCircle
 10
5.834555
 20
4.768254
 30
0.0
 40
1.491853
100
AcDbArc
 50
353.794019
 51
8.501581
  0
ARC
  5
3BD
330
1F
100
AcDbEntity
  8
WHITE
  6
AUSGEZOGEN
 62
     7
370
    25
100
AcDbCircle
 10
5.592412
 20
4.739942
 30
0.0
 40
1.735538
100
AcDbArc
 50
8.244178
 51
16.480673
  0
ARC
  5
3BE
330
1F
100
AcDbEntity
  8
WHITE
  6
AUSGEZOGEN
 62
     7
370
    25
100
AcDbCircle
 10
2.419698
 20
3.799458
 30
0.0
 40
5.044711
100
AcDbArc
 50
16.500796
 51
19.285765
  0
ARC
  5
3BF
330
1F
100
AcDbEntity
  8
WHITE
  6
AUSGEZOGEN
 62
     7
370
    25
100
AcDbCircle
 10
6.884813
 20
5.39537
 30
0.0
 40
0.304712
100
AcDbArc
 50
13.330031
 51
50.039878
  0
ARC
  5
3C0
330
1F
100
AcDbEntity
  8
WHITE
  6
AUSGEZOGEN
 62
     7
370
    25
100
AcDbCircle
 10
7.03367
 20
5.573444
 30
0.0
 40
0.072616
100
AcDbArc
 50
49.82619
 51
153.9751
  0
ARC
  5
3C1
330
1F
100
AcDbEntity
  8
WHITE
  6
AUSGEZOGEN
 62
     7
370
    25
100
AcDbCircle
 10
9.415879
 20
5.710314
 30
0.0
 40
2.449713
100
AcDbArc
 50
182.456771
 51
189.205268
  0
ARC
  5
3C2
330
1F
100
AcDbEntity
  8
WHITE
  6
AUSGEZOGEN
 62
     7
370
    25
100
AcDbCircle
 10
6.171381
 20
5.184412
 30
0.0
 40
0.837131
100
AcDbArc
 50
0.5826
 51
9.212097
  0
ARC
  5
3C3
330
1F
100
AcDbEntity
  8
WHITE
  6
AUSGEZOGEN
 62
     7
370
    25
100
AcDbCircle
 10
-3.596905
 20
5.147814
 30
0.0
 40
10.60547
100
AcDbArc
 50
359.578799
 51
0.243711
  0
ARC
  5
3C4
330
1F
100
AcDbEntity
  8
WHITE
  6
AUSGEZOGEN
 62
     7
370
    25
100
AcDbCircle
 10
6.538522
 20
5.07343
 30
0.0
 40
0.469769
100
AcDbArc
 50
325.848466
 51
359.563336
  0
ARC
  5
3C5
330
1F
100
AcDbEntity
  8
WHITE
  6
AUSGEZOGEN
 62
     7
370
    25
100
AcDbCircle
 10
6.671718
 20
4.973224
 30
0.0
 40
0.303398
100
AcDbArc
 50
299.344047
 51
327.38812
  0
ARC
  5
3C6
330
1F
100
AcDbEntity
  8
WHITE
  6
AUSGEZOGEN
 62
     7
370
    25
100
AcDbCircle
 10
6.541284
 20
5.20542
 30
0.0
 40
0.56972
100
AcDbArc
 50
288.759926
 51
299.33501
  0
ARC
  5
3C7
330
1F
100
AcDbEntity
  8
WHITE
  6
AUSGEZOGEN
 62
     7
370
    25
100
AcDbCircle
 10
6.55025
 20
5.183161
 30
0.0
 40
0.545763
100
AcDbArc
 50
279.605294
 51
288.6202
  0
ARC
  5
3C8
330
1F
100
AcDbEntity
  8
WHITE
  6
AUSGEZOGEN
 62
     7
370
    25
100
AcDbCircle
 10
5.849654
 20
9.225866
 30
0.0
 40
4.648721
100
AcDbArc
 50
277.994515
 51
279.805064
  0
ARC
  5
3C9
330
1F
100
AcDbEntity
  8
WHITE
  6
AUSGEZOGEN
 62
     7
370
    25
100
AcDbCircle
 10
6.499242
 20
4.600048
 30
0.0
 40
0.022484
100
AcDbArc
 50
97.799311
 51
176.669548
  0
LINE
  5
3CA
330
1F
100
AcDbEntity
  8
WHITE
  6
AUSGEZOGEN
 62
     7
370
    25
100
AcDbLine
 10
6.476795
 20
4.601354
 30
0.0
 11
6.467795
 21
4.443674
 31
0.0
  0
ARC
  5
3CB
330
1F
100
AcDbEntity
  8
WHITE
  6
AUSGEZOGEN
 62
     7
370
    25
100
AcDbCircle
 10
6.445098
 20
4.444981
 30
0.0
 40
0.022735
100
AcDbArc
 50
266.070624
 51
356.706355
  0
LINE
  5
3CC
330
1F
100
AcDbEntity
  8
WHITE
  6
AUSGEZOGEN
 62
     7
370
    25
100
AcDbLine
 10
6.44354
 20
4.422299
 30
0.0
 11
6.42212
 21
4.423649
 31
0.0
  0
ARC
  5
3CD
330
1F
100
AcDbEntity
  8
WHITE
  6
AUSGEZOGEN
 62
     7
370
    25
100
AcDbCircle
 10
6.423651
 20
4.446336
 30
0.0
 40
0.022738
100
AcDbArc
 50
175.930094
 51
266.140597
  0
LINE
  5
3CE
330
1F
100
AcDbEntity
  8
WHITE
  6
AUSGEZOGEN
 62
     7
370
    25
100
AcDbLine
 10
6.40097
 20
4.447949
 30
0.0
 11
6.412715
 21
4.612829
 31
0.0
  0
ARC
  5
3CF
330
1F
100
AcDbEntity
  8
WHITE
  6
AUSGEZOGEN
 62
     7
370
    25
100
AcDbCircle
 10
6.390215
 20
4.614224
 30
0.0
 40
0.022543
100
AcDbArc
 50
356.452203
 51
77.905851
  0
ARC
  5
3D0
330
1F
100
AcDbEntity
  8
WHITE
  6
AUSGEZOGEN
 62
     7
370
    25
100
AcDbCircle
 10
6.624792
 20
5.701769
 30
0.0
 40
1.090013
100
AcDbArc
 50
247.555651
 51
257.826542
  0
ARC
  5
3D1
330
1F
100
AcDbEntity
  8
WHITE
  6
AUSGEZOGEN
 62
     7
370
    25
100
AcDbCircle
 10
6.36011
 20
5.060714
 30
0.0
 40
0.396465
100
AcDbArc
 50
216.2377
 51
247.5392
  0
LINE
  5
3D2
330
1F
100
AcDbEntity
  8
WHITE
  6
AUSGEZOGEN
 62
     7
370
    25
100
AcDbLine
 10
6.040333
 20
4.826349
 30
0.0
 11
6.029495
 21
4.841699
 31
0.0
  0
ARC
  5
3D3
330
1F
100
AcDbEntity
  8
WHITE
  6
AUSGEZOGEN
 62
     7
370
    25
100
AcDbCircle
 10
2.042545
 20
1.010132
 30
0.0
 40
0.703224
100
AcDbArc
 50
296.262914
 51
319.088935
  0
ARC
  5
3D4
330
1F
100
AcDbEntity
  8
WHITE
  6
AUSGEZOGEN
 62
     7
370
    25
100
AcDbCircle
 10
1.973105
 20
1.231124
 30
0.0
 40
0.932807
100
AcDbArc
 50
209.0962
 51
294.0809
  0
ARC
  5
3D5
330
1F
100
AcDbEntity
  8
WHITE
  6
AUSGEZOGEN
 62
     7
370
    25
100
AcDbCircle
 10
1.896021
 20
1.130598
 30
0.0
 40
0.818118
100
AcDbArc
 50
179.625238
 51
205.567394
  0
ARC
  5
3D6
330
1F
100
AcDbEntity
  8
WHITE
  6
AUSGEZOGEN
 62
     7
370
    25
100
AcDbCircle
 10
1.816327
 20
1.13159
 30
0.0
 40
0.73842
100
AcDbArc
 50
163.753404
 51
179.661727
  0
ARC
  5
3D7
330
1F
100
AcDbEntity
  8
WHITE
  6
AUSGEZOGEN
 62
     7
370
    25
100
AcDbCircle
 10
2.30336
 20
0.960764
 30
0.0
 40
1.254103
100
AcDbArc
 50
134.2338
 51
162.4857
  0
ARC
  5
3D8
330
1F
100
AcDbEntity
  8
WHITE
  6
AUSGEZOGEN
 62
     7
370
    25
100
AcDbCircle
 10
3.668733
 20
-0.276388
 30
0.0
 40
3.095136
100
AcDbArc
 50
124.835
 51
136.368042
  0
ARC
  5
3D9
330
1F
100
AcDbEntity
  8
WHITE
  6
AUSGEZOGEN
 62
     7
370
    25
100
AcDbCircle
 10
1.985207
 20
2.118794
 30
0.0
 40
0.168071
100
AcDbArc
 50
88.571891
 51
120.168079
  0
ARC
  5
3DA
330
1F
100
AcDbEntity
  8
WHITE
  6
AUSGEZOGEN
 62
     7
370
    25
100
AcDbCircle
 10
1.991504
 20
2.230563
 30
0.0
 40
0.05629
100
AcDbArc
 50
330.518201
 51
92.146964
  0
ARC
  5
3DB
330
1F
100
AcDbEntity
  8
WHITE
  6
AUSGEZOGEN
 62
     7
370
    25
100
AcDbCircle
 10
1.406512
 20
2.55011
 30
0.0
 40
0.722862
100
AcDbArc
 50
321.399735
 51
331.289678
  0
ARC
  5
3DC
330
1F
100
AcDbEntity
  8
WHITE
  6
AUSGEZOGEN
 62
     7
370
    25
100
AcDbCircle
 10
2.980829
 20
0.956079
 30
0.0
 40
1.524935
100
AcDbArc
 50
131.446623
 51
156.390188
  0
ARC
  5
3DD
330
1F
100
AcDbEntity
  8
WHITE
  6
AUSGEZOGEN
 62
     7
370
    25
100
AcDbCircle
 10
2.038625
 20
1.404779
 30
0.0
 40
0.483075
100
AcDbArc
 50
160.4004
 51
236.2818
  0
ARC
  5
3DE
330
1F
100
AcDbEntity
  8
WHITE
  6
AUSGEZOGEN
 62
     7
370
    25
100
AcDbCircle
 10
1.758362
 20
0.984158
 30
0.0
 40
0.022368
100
AcDbArc
 50
328.757204
 51
57.237967
  0
LINE
  5
3DF
330
1F
100
AcDbEntity
  8
WHITE
  6
AUSGEZOGEN
 62
     7
370
    25
100
AcDbLine
 10
1.777486
 20
0.972557
 30
0.0
 11
1.70324
 21
0.849749
 31
0.0
  0
ARC
  5
3E0
330
1F
100
AcDbEntity
  8
WHITE
  6
AUSGEZOGEN
 62
     7
370
    25
100
AcDbCircle
 10
1.72259
 20
0.838094
 30
0.0
 40
0.022589
100
AcDbArc
 50
148.938369
 51
236.056399
  0
LINE
  5
3E1
330
1F
100
AcDbEntity
  8
WHITE
  6
AUSGEZOGEN
 62
     7
370
    25
100
AcDbLine
 10
1.709977
 20
0.819355
 30
0.0
 11
1.72952
 21
0.806504
 31
0.0
  0
ARC
  5
3E2
330
1F
100
AcDbEntity
  8
WHITE
  6
AUSGEZOGEN
 62
     7
370
    25
100
AcDbCircle
 10
1.74176
 20
0.825449
 30
0.0
 40
0.022555
100
AcDbArc
 50
237.134275
 51
326.626897
  0
LINE
  5
3E3
330
1F
100
AcDbEntity
  8
WHITE
  6
AUSGEZOGEN
 62
     7
370
    25
100
AcDbLine
 10
1.760596
 20
0.813042
 30
0.0
 11
1.84229
 21
0.937049
 31
0.0
  0
ARC
  5
3E4
330
1F
100
AcDbEntity
  8
WHITE
  6
AUSGEZOGEN
 62
     7
370
    25
100
AcDbCircle
 10
1.861073
 20
0.924597
 30
0.0
 40
0.022535
100
AcDbArc
 50
65.50851
 51
146.456254
  0
ARC
  5
3E5
330
1F
100
AcDbEntity
  8
WHITE
  6
AUSGEZOGEN
 62
     7
370
    25
100
AcDbCircle
 10
2.11652
 20
1.476329
 30
0.0
 40
0.585464
100
AcDbArc
 50
245.1427
 51
290.7808
  0
ARC
  5
3E6
330
1F
100
AcDbEntity
  8
WHITE
  6
AUSGEZOGEN
 62
     7
370
    25
100
AcDbCircle
 10
2.123268
 20
1.363808
 30
0.0
 40
0.479048
100
AcDbArc
 50
294.804335
 51
328.32773
  0
ARC
  5
3E7
330
1F
100
AcDbEntity
  8
WHITE
  6
AUSGEZOGEN
 62
     7
370
    25
100
AcDbCircle
 10
0.995012
 20
2.01835
 30
0.0
 40
1.783293
100
AcDbArc
 50
329.463366
 51
338.762486
  0
ARC
  5
3E8
330
1F
100
AcDbEntity
  8
WHITE
  6
AUSGEZOGEN
 62
     7
370
    25
100
AcDbCircle
 10
1.967615
 20
1.672529
 30
0.0
 40
0.752071
100
AcDbArc
 50
336.4782
 51
355.3841
  0
ARC
  5
3E9
330
1F
100
AcDbEntity
  8
WHITE
  6
AUSGEZOGEN
 62
     7
370
    25
100
AcDbCircle
 10
3.478372
 20
1.549523
 30
0.0
 40
0.763685
100
AcDbArc
 50
156.620015
 51
175.306962
  0
ARC
  5
3EA
330
1F
100
AcDbEntity
  8
WHITE
  6
AUSGEZOGEN
 62
     7
370
    25
100
AcDbCircle
 10
2.827158
 20
1.823917
 30
0.0
 40
0.057429
100
AcDbArc
 50
17.362469
 51
150.065341
  0
ARC
  5
3EB
330
1F
100
AcDbEntity
  8
WHITE
  6
AUSGEZOGEN
 62
     7
370
    25
100
AcDbCircle
 10
3.0824
 20
1.903334
 30
0.0
 40
0.209883
100
AcDbArc
 50
197.2617
 51
204.6249
  0
ARC
  5
3EC
330
1F
100
AcDbEntity
  8
WHITE
  6
AUSGEZOGEN
 62
     7
370
    25
100
AcDbCircle
 10
0.970136
 20
1.613137
 30
0.0
 40
1.932135
100
AcDbArc
 50
346.023491
 51
6.023277
  0
ARC
  5
3ED
330
1F
100
AcDbEntity
  8
WHITE
  6
AUSGEZOGEN
 62
     7
370
    25
100
AcDbCircle
 10
1.472165
 20
1.410134
 30
0.0
 40
1.397992
100
AcDbArc
 50
322.9361
 51
349.1292
  0
LINE
  5
3EE
330
1F
100
AcDbEntity
  8
WHITE
  6
AUSGEZOGEN
 62
     7
370
    25
100
AcDbLine
 10
2.587713
 20
0.567557
 30
0.0
 11
2.57399
 21
0.549599
 31
0.0
  0
ARC
  5
3EF
330
1F
100
AcDbEntity
  8
WHITE
  6
AUSGEZOGEN
 62
     7
370
    25
100
AcDbCircle
 10
7.27757
 20
2.0504
 30
0.0
 40
1.215944
100
AcDbArc
 50
1.969975
 51
16.81981
  0
ARC
  5
3F0
330
1F
100
AcDbEntity
  8
WHITE
  6
AUSGEZOGEN
 62
     7
370
    25
100
AcDbCircle
 10
8.01827
 20
2.173064
 30
0.0
 40
0.481366
100
AcDbArc
 50
306.0215
 51
350.329
  0
ARC
  5
3F1
330
1F
100
AcDbEntity
  8
WHITE
  6
AUSGEZOGEN
 62
     7
370
    25
100
AcDbCircle
 10
8.793033
 20
0.706894
 30
0.0
 40
1.183781
100
AcDbArc
 50
114.540972
 51
134.404509
  0
ARC
  5
3F2
330
1F
100
AcDbEntity
  8
WHITE
  6
AUSGEZOGEN
 62
     7
370
    25
100
AcDbCircle
 10
7.811709
 20
1.732331
 30
0.0
 40
0.236034
100
AcDbArc
 50
288.510232
 51
310.409641
  0
ARC
  5
3F3
330
1F
100
AcDbEntity
  8
WHITE
  6
AUSGEZOGEN
 62
     7
370
    25
100
AcDbCircle
 10
9.054068
 20
-2.04719
 30
0.0
 40
3.742441
100
AcDbArc
 50
108.176287
 51
111.00215
  0
ARC
  5
3F4
330
1F
100
AcDbEntity
  8
WHITE
  6
AUSGEZOGEN
 62
     7
370
    25
100
AcDbCircle
 10
7.760195
 20
1.324409
 30
0.0
 40
0.1311
100
AcDbArc
 50
111.2098
 51
153.3646
  0
ARC
  5
3F5
330
1F
100
AcDbEntity
  8
WHITE
  6
AUSGEZOGEN
 62
     7
370
    25
100
AcDbCircle
 10
7.4293
 20
1.491267
 30
0.0
 40
0.239486
100
AcDbArc
 50
280.54766
 51
333.171716
  0
ARC
  5
3F6
330
1F
100
AcDbEntity
  8
WHITE
  6
AUSGEZOGEN
 62
     7
370
    25
100
AcDbCircle
 10
6.09686
 20
5.021204
 30
0.0
 40
4.009014
100
AcDbArc
 50
269.2076
 51
290.0778
  0
ARC
  5
3F7
330
1F
100
AcDbEntity
  8
WHITE
  6
AUSGEZOGEN
 62
     7
370
    25
100
AcDbCircle
 10
6.037637
 20
0.947393
 30
0.0
 40
0.06529
100
AcDbArc
 50
86.680282
 51
270.396035
  0
ARC
  5
3F8
330
1F
100
AcDbEntity
  8
WHITE
  6
AUSGEZOGEN
 62
     7
370
    25
100
AcDbCircle
 10
6.277374
 20
7.825199
 30
0.0
 40
6.947217
100
AcDbArc
 50
268.02615
 51
273.077246
  0
ARC
  5
3F9
330
1F
100
AcDbEntity
  8
WHITE
  6
AUSGEZOGEN
 62
     7
370
    25
100
AcDbCircle
 10
6.617015
 20
2.450399
 30
0.0
 40
1.562755
100
AcDbArc
 50
271.221
 51
287.8845
  0
ARC
  5
3FA
330
1F
100
AcDbEntity
  8
WHITE
  6
AUSGEZOGEN
 62
     7
370
    25
100
AcDbCircle
 10
9.248295
 20
-5.324497
 30
0.0
 40
6.645523
100
AcDbArc
 50
102.673155
 51
108.88868
  0
ARC
  5
3FB
330
1F
100
AcDbEntity
  8
WHITE
  6
AUSGEZOGEN
 62
     7
370
    25
100
AcDbCircle
 10
7.534187
 20
2.195065
 30
0.0
 40
1.067139
100
AcDbArc
 50
283.888697
 51
315.566379
  0
ARC
  5
3FC
330
1F
100
AcDbEntity
  8
WHITE
  6
AUSGEZOGEN
 62
     7
370
    25
100
AcDbCircle
 10
8.781431
 20
1.178387
 30
0.0
 40
0.555102
100
AcDbArc
 50
114.263607
 51
150.94413
  0
ARC
  5
3FD
330
1F
100
AcDbEntity
  8
WHITE
  6
AUSGEZOGEN
 62
     7
370
    25
100
AcDbCircle
 10
8.099122
 20
2.196632
 30
0.0
 40
0.68456
100
AcDbArc
 50
311.56652
 51
355.888362
  0
ARC
  5
3FE
330
1F
100
AcDbEntity
  8
WHITE
  6
AUSGEZOGEN
 62
     7
370
    25
100
AcDbCircle
 10
6.03476
 20
1.769414
 30
0.0
 40
2.773062
100
AcDbArc
 50
7.837274
 51
35.50785
  0
ARC
  5
3FF
330
1F
100
AcDbEntity
  8
WHITE
  6
AUSGEZOGEN
 62
     7
370
    25
100
AcDbCircle
 10
22.952171
 20
11.502613
 30
0.0
 40
16.759856
100
AcDbArc
 50
208.297606
 51
208.989152
  0
ARC
  5
400
330
1F
100
AcDbEntity
  8
WHITE
  6
AUSGEZOGEN
 62
     7
370
    25
100
AcDbCircle
 10
7.926074
 20
3.407309
 30
0.0
 40
0.308207
100
AcDbArc
 50
29.180551
 51
65.74282
  0
ARC
  5
401
330
1F
100
AcDbEntity
  8
WHITE
  6
AUSGEZOGEN
 62
     7
370
    25
100
AcDbCircle
 10
8.091305
 20
3.737489
 30
0.0
 40
0.062529
100
AcDbArc
 50
109.2045
 51
231.8683
  0
ARC
  5
402
330
1F
100
AcDbEntity
  8
WHITE
  6
AUSGEZOGEN
 62
     7
370
    25
100
AcDbCircle
 10
7.787119
 20
4.617575
 30
0.0
 40
0.868642
100
AcDbArc
 50
289.056933
 51
298.401075
  0
ARC
  5
403
330
1F
100
AcDbEntity
  8
WHITE
  6
AUSGEZOGEN
 62
     7
370
    25
100
AcDbCircle
 10
8.00267
 20
4.13323
 30
0.0
 40
0.342503
100
AcDbArc
 50
305.236974
 51
351.711337
  0
ARC
  5
404
330
1F
100
AcDbEntity
  8
WHITE
  6
AUSGEZOGEN
 62
     7
370
    25
100
AcDbCircle
 10
8.219912
 20
4.129699
 30
0.0
 40
0.130033
100
AcDbArc
 50
339.355979
 51
67.322344
  0
LINE
  5
405
330
1F
100
AcDbEntity
  8
WHITE
  6
AUSGEZOGEN
 62
     7
370
    25
100
AcDbLine
 10
8.270045
 20
4.249679
 30
0.0
 11
8.245565
 21
4.258724
 31
0.0
  0
ARC
  5
406
330
1F
100
AcDbEntity
  8
WHITE
  6
AUSGEZOGEN
 62
     7
370
    25
100
AcDbCircle
 10
8.237645
 20
4.237709
 30
0.0
 40
0.022458
100
AcDbArc
 50
69.349895
 51
160.547201
  0
LINE
  5
407
330
1F
100
AcDbEntity
  8
WHITE
  6
AUSGEZOGEN
 62
     7
370
    25
100
AcDbLine
 10
8.21647
 20
4.245189
 30
0.0
 11
8.158895
 21
4.088174
 31
0.0
  0
ARC
  5
408
330
1F
100
AcDbEntity
  8
WHITE
  6
AUSGEZOGEN
 62
     7
370
    25
100
AcDbCircle
 10
8.137745
 20
4.095734
 30
0.0
 40
0.022461
100
AcDbArc
 50
250.075999
 51
340.330732
  0
LINE
  5
409
330
1F
100
AcDbEntity
  8
WHITE
  6
AUSGEZOGEN
 62
     7
370
    25
100
AcDbLine
 10
8.130092
 20
4.074618
 30
0.0
 11
8.108945
 21
4.082549
 31
0.0
  0
ARC
  5
40A
330
1F
100
AcDbEntity
  8
WHITE
  6
AUSGEZOGEN
 62
     7
370
    25
100
AcDbCircle
 10
8.116775
 20
4.103609
 30
0.0
 40
0.022468
100
AcDbArc
 50
159.9679
 51
249.605124
  0
LINE
  5
40B
330
1F
100
AcDbEntity
  8
WHITE
  6
AUSGEZOGEN
 62
     7
370
    25
100
AcDbLine
 10
8.095666
 20
4.111306
 30
0.0
 11
8.15444
 21
4.271504
 31
0.0
  0
ARC
  5
40C
330
1F
100
AcDbEntity
  8
WHITE
  6
AUSGEZOGEN
 62
     7
370
    25
100
AcDbCircle
 10
8.133372
 20
4.279311
 30
0.0
 40
0.022468
100
AcDbArc
 50
339.667343
 51
64.724243
  0
ARC
  5
40D
330
1F
100
AcDbEntity
  8
WHITE
  6
AUSGEZOGEN
 62
     7
370
    25
100
AcDbCircle
 10
8.068047
 20
4.142417
 30
0.0
 40
0.17415
100
AcDbArc
 50
64.52025
 51
110.513434
  0
ARC
  5
40E
330
1F
100
AcDbEntity
  8
WHITE
  6
AUSGEZOGEN
 62
     7
370
    25
100
AcDbCircle
 10
8.101515
 20
4.198465
 30
0.0
 40
0.142797
100
AcDbArc
 50
131.432719
 51
157.132933
  0
ARC
  5
40F
330
1F
100
AcDbEntity
  8
WHITE
  6
AUSGEZOGEN
 62
     7
370
    25
100
AcDbCircle
 10
8.395055
 20
4.039124
 30
0.0
 40
0.476314
100
AcDbArc
 50
153.1904
 51
166.0373
  0
ARC
  5
410
330
1F
100
AcDbEntity
  8
WHITE
  6
AUSGEZOGEN
 62
     7
370
    25
100
AcDbCircle
 10
7.73981
 20
4.177949
 30
0.0
 40
0.194478
100
AcDbArc
 50
291.3584
 51
352.94235
  0
ARC
  5
411
330
1F
100
AcDbEntity
  8
WHITE
  6
AUSGEZOGEN
 62
     7
370
    25
100
AcDbCircle
 10
7.824253
 20
3.788248
 30
0.0
 40
0.209023
100
AcDbArc
 50
93.734135
 51
187.184914
  0
ARC
  5
412
330
1F
100
AcDbEntity
  8
WHITE
  6
AUSGEZOGEN
 62
     7
370
    25
100
AcDbCircle
 10
8.224551
 20
3.838782
 30
0.0
 40
0.612499
100
AcDbArc
 50
187.19161
 51
242.461518
  0
ARC
  5
413
330
1F
100
AcDbEntity
  8
WHITE
  6
AUSGEZOGEN
 62
     7
370
    25
100
AcDbCircle
 10
7.673435
 20
2.766346
 30
0.0
 40
0.59328
100
AcDbArc
 50
24.84269
 51
63.153032
  0
ARC
  5
414
330
1F
100
AcDbEntity
  8
WHITE
  6
AUSGEZOGEN
 62
     7
370
    25
100
AcDbCircle
 10
5.513525
 20
1.655879
 30
0.0
 40
3.021524
100
AcDbArc
 50
14.42885
 51
26.74441
  0
LINE
  5
415
330
1F
100
AcDbEntity
  8
WHITE
  6
AUSGEZOGEN
 62
     7
370
    25
100
AcDbLine
 10
8.439744
 20
2.408775
 30
0.0
 11
8.441495
 21
2.402249
 31
0.0
  0
ARC
  5
416
330
1F
100
AcDbEntity
  8
WHITE
  6
AUSGEZOGEN
 62
     7
370
    25
100
AcDbCircle
 10
3.08159
 20
7.473029
 30
0.0
 40
1.215966
100
AcDbArc
 50
181.9385
 51
196.7866
  0
ARC
  5
417
330
1F
100
AcDbEntity
  8
WHITE
  6
AUSGEZOGEN
 62
     7
370
    25
100
AcDbCircle
 10
2.340868
 20
7.350928
 30
0.0
 40
0.481405
100
AcDbArc
 50
126.049176
 51
170.317163
  0
ARC
  5
418
330
1F
100
AcDbEntity
  8
WHITE
  6
AUSGEZOGEN
 62
     7
370
    25
100
AcDbCircle
 10
1.565927
 20
8.816991
 30
0.0
 40
1.183766
100
AcDbArc
 50
294.539592
 51
314.41567
  0
ARC
  5
419
330
1F
100
AcDbEntity
  8
WHITE
  6
AUSGEZOGEN
 62
     7
370
    25
100
AcDbCircle
 10
2.547405
 20
7.791723
 30
0.0
 40
0.236037
100
AcDbArc
 50
108.509815
 51
130.409316
  0
ARC
  5
41A
330
1F
100
AcDbEntity
  8
WHITE
  6
AUSGEZOGEN
 62
     7
370
    25
100
AcDbCircle
 10
1.30418
 20
11.570954
 30
0.0
 40
3.742433
100
AcDbArc
 50
288.1903
 51
291.0142
  0
ARC
  5
41B
330
1F
100
AcDbEntity
  8
WHITE
  6
AUSGEZOGEN
 62
     7
370
    25
100
AcDbCircle
 10
2.59919
 20
8.199807
 30
0.0
 40
0.131106
100
AcDbArc
 50
291.018856
 51
333.178035
  0
ARC
  5
41C
330
1F
100
AcDbEntity
  8
WHITE
  6
AUSGEZOGEN
 62
     7
370
    25
100
AcDbCircle
 10
2.92994
 20
8.032649
 30
0.0
 40
0.239485
100
AcDbArc
 50
100.613
 51
153.1942
  0
ARC
  5
41D
330
1F
100
AcDbEntity
  8
WHITE
  6
AUSGEZOGEN
 62
     7
370
    25
100
AcDbCircle
 10
4.261923
 20
4.502627
 30
0.0
 40
4.008982
100
AcDbArc
 50
89.206096
 51
110.0751
  0
ARC
  5
41E
330
1F
100
AcDbEntity
  8
WHITE
  6
AUSGEZOGEN
 62
     7
370
    25
100
AcDbCircle
 10
4.319292
 20
8.576451
 30
0.0
 40
0.065252
100
AcDbArc
 50
268.39994
 51
88.399941
  0
ARC
  5
41F
330
1F
100
AcDbEntity
  8
WHITE
  6
AUSGEZOGEN
 62
     7
370
    25
100
AcDbCircle
 10
4.078715
 20
1.698677
 30
0.0
 40
6.947231
100
AcDbArc
 50
88.00046
 51
93.051864
  0
ARC
  5
420
330
1F
100
AcDbEntity
  8
WHITE
  6
AUSGEZOGEN
 62
     7
370
    25
100
AcDbCircle
 10
3.742112
 20
7.073654
 30
0.0
 40
1.562755
100
AcDbArc
 50
91.219742
 51
107.883386
  0
ARC
  5
421
330
1F
100
AcDbEntity
  8
WHITE
  6
AUSGEZOGEN
 62
     7
370
    25
100
AcDbCircle
 10
1.1093
 20
14.848038
 30
0.0
 40
6.645535
100
AcDbArc
 50
282.684929
 51
288.90287
  0
ARC
  5
422
330
1F
100
AcDbEntity
  8
WHITE
  6
AUSGEZOGEN
 62
     7
370
    25
100
AcDbCircle
 10
2.824811
 20
7.328791
 30
0.0
 40
1.06713
100
AcDbArc
 50
103.8926
 51
135.550999
  0
ARC
  5
423
330
1F
100
AcDbEntity
  8
WHITE
  6
AUSGEZOGEN
 62
     7
370
    25
100
AcDbCircle
 10
1.577608
 20
8.345358
 30
0.0
 40
0.555098
100
AcDbArc
 50
294.27251
 51
330.980348
  0
ARC
  5
424
330
1F
100
AcDbEntity
  8
WHITE
  6
AUSGEZOGEN
 62
     7
370
    25
100
AcDbCircle
 10
2.259969
 20
7.327129
 30
0.0
 40
0.68456
100
AcDbArc
 50
131.563749
 51
175.859899
  0
ARC
  5
425
330
1F
100
AcDbEntity
  8
WHITE
  6
AUSGEZOGEN
 62
     7
370
    25
100
AcDbCircle
 10
4.324446
 20
7.754096
 30
0.0
 40
2.773071
100
AcDbArc
 50
187.824921
 51
215.499761
  0
ARC
  5
426
330
1F
100
AcDbEntity
  8
WHITE
  6
AUSGEZOGEN
 62
     7
370
    25
100
AcDbCircle
 10
-12.581425
 20
-2.000011
 30
0.0
 40
16.759858
100
AcDbArc
 50
28.38075
 51
29.07212
  0
ARC
  5
427
330
1F
100
AcDbEntity
  8
WHITE
  6
AUSGEZOGEN
 62
     7
370
    25
100
AcDbCircle
 10
2.433146
 20
6.116675
 30
0.0
 40
0.308208
100
AcDbArc
 50
209.175053
 51
245.730974
  0
ARC
  5
428
330
1F
100
AcDbEntity
  8
WHITE
  6
AUSGEZOGEN
 62
     7
370
    25
100
AcDbCircle
 10
2.26781
 20
5.786564
 30
0.0
 40
0.062522
100
AcDbArc
 50
289.243199
 51
51.81034
  0
ARC
  5
429
330
1F
100
AcDbEntity
  8
WHITE
  6
AUSGEZOGEN
 62
     7
370
    25
100
AcDbCircle
 10
2.571855
 20
4.906433
 30
0.0
 40
0.868647
100
AcDbArc
 50
109.044295
 51
118.391376
  0
ARC
  5
42A
330
1F
100
AcDbEntity
  8
WHITE
  6
AUSGEZOGEN
 62
     7
370
    25
100
AcDbCircle
 10
2.356479
 20
5.39086
 30
0.0
 40
0.342524
100
AcDbArc
 50
125.244331
 51
171.72563
  0
ARC
  5
42B
330
1F
100
AcDbEntity
  8
WHITE
  6
AUSGEZOGEN
 62
     7
370
    25
100
AcDbCircle
 10
2.139199
 20
5.39434
 30
0.0
 40
0.130018
100
AcDbArc
 50
159.367595
 51
247.322096
  0
LINE
  5
42C
330
1F
100
AcDbEntity
  8
WHITE
  6
AUSGEZOGEN
 62
     7
370
    25
100
AcDbLine
 10
2.08907
 20
5.274374
 30
0.0
 11
2.11364
 21
5.265329
 31
0.0
  0
ARC
  5
42D
330
1F
100
AcDbEntity
  8
WHITE
  6
AUSGEZOGEN
 62
     7
370
    25
100
AcDbCircle
 10
2.12138
 20
5.286389
 30
0.0
 40
0.022437
100
AcDbArc
 50
249.820541
 51
339.8208
  0
LINE
  5
42E
330
1F
100
AcDbEntity
  8
WHITE
  6
AUSGEZOGEN
 62
     7
370
    25
100
AcDbLine
 10
2.142441
 20
5.278649
 30
0.0
 11
2.199995
 21
5.435699
 31
0.0
  0
ARC
  5
42F
330
1F
100
AcDbEntity
  8
WHITE
  6
AUSGEZOGEN
 62
     7
370
    25
100
AcDbCircle
 10
2.221142
 20
5.428186
 30
0.0
 40
0.022442
100
AcDbArc
 50
69.448761
 51
160.439049
  0
LINE
  5
430
330
1F
100
AcDbEntity
  8
WHITE
  6
AUSGEZOGEN
 62
     7
370
    25
100
AcDbLine
 10
2.22902
 20
5.449199
 30
0.0
 11
2.24999
 21
5.441504
 31
0.0
  0
ARC
  5
431
330
1F
100
AcDbEntity
  8
WHITE
  6
AUSGEZOGEN
 62
     7
370
    25
100
AcDbCircle
 10
2.242442
 20
5.420386
 30
0.0
 40
0.022426
100
AcDbArc
 50
339.477571
 51
70.331967
  0
LINE
  5
432
330
1F
100
AcDbEntity
  8
WHITE
  6
AUSGEZOGEN
 62
     7
370
    25
100
AcDbLine
 10
2.263445
 20
5.412524
 30
0.0
 11
2.20472
 21
5.252324
 31
0.0
  0
ARC
  5
433
330
1F
100
AcDbEntity
  8
WHITE
  6
AUSGEZOGEN
 62
     7
370
    25
100
AcDbCircle
 10
2.225825
 20
5.244674
 30
0.0
 40
0.022449
100
AcDbArc
 50
160.075769
 51
244.670299
  0
ARC
  5
434
330
1F
100
AcDbEntity
  8
WHITE
  6
AUSGEZOGEN
 62
     7
370
    25
100
AcDbCircle
 10
2.291228
 20
5.381599
 30
0.0
 40
0.174191
100
AcDbArc
 50
244.494304
 51
290.373318
  0
ARC
  5
435
330
1F
100
AcDbEntity
  8
WHITE
  6
AUSGEZOGEN
 62
     7
370
    25
100
AcDbCircle
 10
2.257865
 20
5.325809
 30
0.0
 40
0.142808
100
AcDbArc
 50
311.1672
 51
336.9413
  0
ARC
  5
436
330
1F
100
AcDbEntity
  8
WHITE
  6
AUSGEZOGEN
 62
     7
370
    25
100
AcDbCircle
 10
1.963606
 20
5.483616
 30
0.0
 40
0.476309
100
AcDbArc
 50
333.336836
 51
346.199872
  0
ARC
  5
437
330
1F
100
AcDbEntity
  8
WHITE
  6
AUSGEZOGEN
 62
     7
370
    25
100
AcDbCircle
 10
2.61913
 20
5.345881
 30
0.0
 40
0.194465
100
AcDbArc
 50
111.347234
 51
172.875606
  0
ARC
  5
438
330
1F
100
AcDbEntity
  8
WHITE
  6
AUSGEZOGEN
 62
     7
370
    25
100
AcDbCircle
 10
2.53466
 20
5.735579
 30
0.0
 40
0.209023
100
AcDbArc
 50
273.7525
 51
7.172462
  0
ARC
  5
439
330
1F
100
AcDbEntity
  8
WHITE
  6
AUSGEZOGEN
 62
     7
370
    25
100
AcDbCircle
 10
2.134294
 20
5.685413
 30
0.0
 40
0.61252
100
AcDbArc
 50
7.152436
 51
62.429231
  0
ARC
  5
43A
330
1F
100
AcDbEntity
  8
WHITE
  6
AUSGEZOGEN
 62
     7
370
    25
100
AcDbCircle
 10
2.6855
 20
6.757844
 30
0.0
 40
0.593299
100
AcDbArc
 50
204.8565
 51
243.1784
  0
ARC
  5
43B
330
1F
100
AcDbEntity
  8
WHITE
  6
AUSGEZOGEN
 62
     7
370
    25
100
AcDbCircle
 10
4.845819
 20
7.867439
 30
0.0
 40
3.021522
100
AcDbArc
 50
194.414508
 51
206.728862
  0
LINE
  5
43C
330
1F
100
AcDbEntity
  8
WHITE
  6
AUSGEZOGEN
 62
     7
370
    25
100
AcDbLine
 10
1.919415
 20
7.115276
 30
0.0
 11
1.917441
 21
7.121849
 31
0.0
  0
ARC
  5
43D
330
1F
100
AcDbEntity
  8
WHITE
  6
AUSGEZOGEN
 62
     7
370
    25
100
AcDbCircle
 10
7.377245
 20
7.473029
 30
0.0
 40
1.215966
100
AcDbArc
 50
343.2134
 51
358.0616
  0
ARC
  5
43E
330
1F
100
AcDbEntity
  8
WHITE
  6
AUSGEZOGEN
 62
     7
370
    25
100
AcDbCircle
 10
8.117991
 20
7.350941
 30
0.0
 40
0.481381
100
AcDbArc
 50
9.681967
 51
53.952067
  0
ARC
  5
43F
330
1F
100
AcDbEntity
  8
WHITE
  6
AUSGEZOGEN
 62
     7
370
    25
100
AcDbCircle
 10
8.89289
 20
8.816999
 30
0.0
 40
1.183766
100
AcDbArc
 50
225.5853
 51
245.4614
  0
ARC
  5
440
330
1F
100
AcDbEntity
  8
WHITE
  6
AUSGEZOGEN
 62
     7
370
    25
100
AcDbCircle
 10
7.911426
 20
7.791732
 30
0.0
 40
0.236027
100
AcDbArc
 50
49.588372
 51
71.488351
  0
ARC
  5
441
330
1F
100
AcDbEntity
  8
WHITE
  6
AUSGEZOGEN
 62
     7
370
    25
100
AcDbCircle
 10
9.155039
 20
11.570838
 30
0.0
 40
3.742446
100
AcDbArc
 50
248.98027
 51
251.803566
  0
ARC
  5
442
330
1F
100
AcDbEntity
  8
WHITE
  6
AUSGEZOGEN
 62
     7
370
    25
100
AcDbCircle
 10
7.859641
 20
8.199834
 30
0.0
 40
0.131113
100
AcDbArc
 50
206.833594
 51
249.004568
  0
ARC
  5
443
330
1F
100
AcDbEntity
  8
WHITE
  6
AUSGEZOGEN
 62
     7
370
    25
100
AcDbCircle
 10
7.528918
 20
8.032606
 30
0.0
 40
0.239485
100
AcDbArc
 50
26.81747
 51
79.393948
  0
ARC
  5
444
330
1F
100
AcDbEntity
  8
WHITE
  6
AUSGEZOGEN
 62
     7
370
    25
100
AcDbCircle
 10
6.196715
 20
4.502624
 30
0.0
 40
4.009014
100
AcDbArc
 50
69.92216
 51
90.79173
  0
ARC
  5
445
330
1F
100
AcDbEntity
  8
WHITE
  6
AUSGEZOGEN
 62
     7
370
    25
100
AcDbCircle
 10
6.14104
 20
8.576518
 30
0.0
 40
0.065263
100
AcDbArc
 50
92.915756
 51
270.245492
  0
ARC
  5
446
330
1F
100
AcDbEntity
  8
WHITE
  6
AUSGEZOGEN
 62
     7
370
    25
100
AcDbCircle
 10
6.379823
 20
1.698686
 30
0.0
 40
6.94723
100
AcDbArc
 50
86.945679
 51
91.997092
  0
ARC
  5
447
330
1F
100
AcDbEntity
  8
WHITE
  6
AUSGEZOGEN
 62
     7
370
    25
100
AcDbCircle
 10
6.716712
 20
7.073647
 30
0.0
 40
1.562755
100
AcDbArc
 50
72.116315
 51
88.779847
  0
ARC
  5
448
330
1F
100
AcDbEntity
  8
WHITE
  6
AUSGEZOGEN
 62
     7
370
    25
100
AcDbCircle
 10
9.349794
 20
14.847939
 30
0.0
 40
6.645536
100
AcDbArc
 50
251.094737
 51
257.311196
  0
ARC
  5
449
330
1F
100
AcDbEntity
  8
WHITE
  6
AUSGEZOGEN
 62
     7
370
    25
100
AcDbCircle
 10
7.63406
 20
7.328714
 30
0.0
 40
1.067152
100
AcDbArc
 50
44.45332
 51
76.11963
  0
ARC
  5
44A
330
1F
100
AcDbEntity
  8
WHITE
  6
AUSGEZOGEN
 62
     7
370
    25
100
AcDbCircle
 10
8.881231
 20
8.345317
 30
0.0
 40
0.555087
100
AcDbArc
 50
209.015947
 51
245.721244
  0
ARC
  5
44B
330
1F
100
AcDbEntity
  8
WHITE
  6
AUSGEZOGEN
 62
     7
370
    25
100
AcDbCircle
 10
8.198811
 20
7.327132
 30
0.0
 40
0.68456
100
AcDbArc
 50
4.139697
 51
48.435354
  0
ARC
  5
44C
330
1F
100
AcDbEntity
  8
WHITE
  6
AUSGEZOGEN
 62
     7
370
    25
100
AcDbCircle
 10
6.134333
 20
7.753902
 30
0.0
 40
2.773047
100
AcDbArc
 50
324.504745
 51
352.178995
  0
ARC
  5
44D
330
1F
100
AcDbEntity
  8
WHITE
  6
AUSGEZOGEN
 62
     7
370
    25
100
AcDbCircle
 10
23.040047
 20
-2.000521
 30
0.0
 40
16.759875
100
AcDbArc
 50
150.925923
 51
151.617299
  0
ARC
  5
44E
330
1F
100
AcDbEntity
  8
WHITE
  6
AUSGEZOGEN
 62
     7
370
    25
100
AcDbCircle
 10
8.025756
 20
6.116692
 30
0.0
 40
0.308196
100
AcDbArc
 50
294.25652
 51
330.820083
  0
ARC
  5
44F
330
1F
100
AcDbEntity
  8
WHITE
  6
AUSGEZOGEN
 62
     7
370
    25
100
AcDbCircle
 10
8.191014
 20
5.786555
 30
0.0
 40
0.062522
100
AcDbArc
 50
128.176006
 51
250.763985
  0
ARC
  5
450
330
1F
100
AcDbEntity
  8
WHITE
  6
AUSGEZOGEN
 62
     7
370
    25
100
AcDbCircle
 10
7.88705
 20
4.906409
 30
0.0
 40
0.868634
100
AcDbArc
 50
61.6134
 51
70.96056
  0
ARC
  5
451
330
1F
100
AcDbEntity
  8
WHITE
  6
AUSGEZOGEN
 62
     7
370
    25
100
AcDbCircle
 10
8.102331
 20
5.390878
 30
0.0
 40
0.342524
100
AcDbArc
 50
8.270771
 51
54.750298
  0
ARC
  5
452
330
1F
100
AcDbEntity
  8
WHITE
  6
AUSGEZOGEN
 62
     7
370
    25
100
AcDbCircle
 10
8.319604
 20
5.39435
 30
0.0
 40
0.130022
100
AcDbArc
 50
292.671569
 51
20.625352
  0
LINE
  5
453
330
1F
100
AcDbEntity
  8
WHITE
  6
AUSGEZOGEN
 62
     7
370
    25
100
AcDbLine
 10
8.36972
 20
5.274374
 30
0.0
 11
8.345195
 21
5.265329
 31
0.0
  0
ARC
  5
454
330
1F
100
AcDbEntity
  8
WHITE
  6
AUSGEZOGEN
 62
     7
370
    25
100
AcDbCircle
 10
8.337273
 20
5.28635
 30
0.0
 40
0.022464
100
AcDbArc
 50
200.047889
 51
290.649939
  0
LINE
  5
455
330
1F
100
AcDbEntity
  8
WHITE
  6
AUSGEZOGEN
 62
     7
370
    25
100
AcDbLine
 10
8.31617
 20
5.278649
 30
0.0
 11
8.25857
 21
5.435699
 31
0.0
  0
ARC
  5
456
330
1F
100
AcDbEntity
  8
WHITE
  6
AUSGEZOGEN
 62
     7
370
    25
100
AcDbCircle
 10
8.237455
 20
5.428123
 30
0.0
 40
0.022433
100
AcDbArc
 50
19.737846
 51
110.032484
  0
LINE
  5
457
330
1F
100
AcDbEntity
  8
WHITE
  6
AUSGEZOGEN
 62
     7
370
    25
100
AcDbLine
 10
8.22977
 20
5.449199
 30
0.0
 11
8.20862
 21
5.441504
 31
0.0
  0
ARC
  5
458
330
1F
100
AcDbEntity
  8
WHITE
  6
AUSGEZOGEN
 62
     7
370
    25
100
AcDbCircle
 10
8.216341
 20
5.420437
 30
0.0
 40
0.022437
100
AcDbArc
 50
110.126819
 51
200.650562
  0
LINE
  5
459
330
1F
100
AcDbEntity
  8
WHITE
  6
AUSGEZOGEN
 62
     7
370
    25
100
AcDbLine
 10
8.195345
 20
5.412524
 30
0.0
 11
8.254115
 21
5.252324
 31
0.0
  0
ARC
  5
45A
330
1F
100
AcDbEntity
  8
WHITE
  6
AUSGEZOGEN
 62
     7
370
    25
100
AcDbCircle
 10
8.233051
 20
5.244694
 30
0.0
 40
0.022404
100
AcDbArc
 50
295.214749
 51
19.913506
  0
ARC
  5
45B
330
1F
100
AcDbEntity
  8
WHITE
  6
AUSGEZOGEN
 62
     7
370
    25
100
AcDbCircle
 10
8.167433
 20
5.381524
 30
0.0
 40
0.174154
100
AcDbArc
 50
249.588682
 51
295.568246
  0
ARC
  5
45C
330
1F
100
AcDbEntity
  8
WHITE
  6
AUSGEZOGEN
 62
     7
370
    25
100
AcDbCircle
 10
8.20115
 20
5.325449
 30
0.0
 40
0.142835
100
AcDbArc
 50
202.8975
 51
228.6018
  0
ARC
  5
45D
330
1F
100
AcDbEntity
  8
WHITE
  6
AUSGEZOGEN
 62
     7
370
    25
100
AcDbCircle
 10
8.494864
 20
5.484306
 30
0.0
 40
0.476293
100
AcDbArc
 50
193.886116
 51
206.75712
  0
ARC
  5
45E
330
1F
100
AcDbEntity
  8
WHITE
  6
AUSGEZOGEN
 62
     7
370
    25
100
AcDbCircle
 10
7.839531
 20
5.345966
 30
0.0
 40
0.19445
100
AcDbArc
 50
7.099816
 51
68.595562
  0
ARC
  5
45F
330
1F
100
AcDbEntity
  8
WHITE
  6
AUSGEZOGEN
 62
     7
370
    25
100
AcDbCircle
 10
7.923955
 20
5.735612
 30
0.0
 40
0.209041
100
AcDbArc
 50
172.836339
 51
266.308461
  0
ARC
  5
460
330
1F
100
AcDbEntity
  8
WHITE
  6
AUSGEZOGEN
 62
     7
370
    25
100
AcDbCircle
 10
8.324283
 20
5.685276
 30
0.0
 40
0.612521
100
AcDbArc
 50
117.54345
 51
172.83445
  0
ARC
  5
461
330
1F
100
AcDbEntity
  8
WHITE
  6
AUSGEZOGEN
 62
     7
370
    25
100
AcDbCircle
 10
7.77342
 20
6.757842
 30
0.0
 40
0.593259
100
AcDbArc
 50
296.814412
 51
335.14192
  0
ARC
  5
462
330
1F
100
AcDbEntity
  8
WHITE
  6
AUSGEZOGEN
 62
     7
370
    25
100
AcDbCircle
 10
5.612885
 20
7.867049
 30
0.0
 40
3.0215
100
AcDbArc
 50
333.2792
 51
345.5931
  0
LINE
  5
463
330
1F
100
AcDbEntity
  8
WHITE
  6
AUSGEZOGEN
 62
     7
370
    25
100
AcDbLine
 10
8.539369
 20
7.11528
 30
0.0
 11
8.541395
 21
7.121849
 31
0.0
  0
ARC
  5
464
330
1F
100
AcDbEntity
  8
WHITE
  6
AUSGEZOGEN
 62
     7
370
    25
100
AcDbCircle
 10
11.466872
 20
2.788088
 30
0.0
 40
1.215845
100
AcDbArc
 50
86.922771
 51
101.779086
  0
ARC
  5
465
330
1F
100
AcDbEntity
  8
WHITE
  6
AUSGEZOGEN
 62
     7
370
    25
100
AcDbCircle
 10
11.41019
 20
3.536429
 30
0.0
 40
0.481451
100
AcDbArc
 50
31.06477
 51
75.32731
  0
ARC
  5
466
330
1F
100
AcDbEntity
  8
WHITE
  6
AUSGEZOGEN
 62
     7
370
    25
100
AcDbCircle
 10
12.938233
 20
4.180487
 30
0.0
 40
1.183711
100
AcDbArc
 50
199.525395
 51
219.399998
  0
ARC
  5
467
330
1F
100
AcDbEntity
  8
WHITE
  6
AUSGEZOGEN
 62
     7
370
    25
100
AcDbCircle
 10
11.831255
 20
3.292484
 30
0.0
 40
0.235904
100
AcDbArc
 50
13.47952
 51
35.403
  0
ARC
  5
468
330
1F
100
AcDbEntity
  8
WHITE
  6
AUSGEZOGEN
 62
     7
370
    25
100
AcDbCircle
 10
15.704156
 20
4.202181
 30
0.0
 40
3.742403
100
AcDbArc
 50
193.202
 51
196.025977
  0
ARC
  5
469
330
1F
100
AcDbEntity
  8
WHITE
  6
AUSGEZOGEN
 62
     7
370
    25
100
AcDbCircle
 10
12.23315
 20
3.205319
 30
0.0
 40
0.131086
100
AcDbArc
 50
196.0832
 51
238.2465
  0
ARC
  5
46A
330
1F
100
AcDbEntity
  8
WHITE
  6
AUSGEZOGEN
 62
     7
370
    25
100
AcDbCircle
 10
12.038076
 20
2.890589
 30
0.0
 40
0.239197
100
AcDbArc
 50
5.537998
 51
58.18796
  0
ARC
  5
46B
330
1F
100
AcDbEntity
  8
WHITE
  6
AUSGEZOGEN
 62
     7
370
    25
100
AcDbCircle
 10
8.405267
 20
1.870941
 30
0.0
 40
4.008875
100
AcDbArc
 50
354.206156
 51
15.076352
  0
ARC
  5
46C
330
1F
100
AcDbEntity
  8
WHITE
  6
AUSGEZOGEN
 62
     7
370
    25
100
AcDbCircle
 10
12.458465
 20
1.458803
 30
0.0
 40
0.065229
100
AcDbArc
 50
173.446878
 51
353.446879
  0
ARC
  5
46D
330
1F
100
AcDbEntity
  8
WHITE
  6
AUSGEZOGEN
 62
     7
370
    25
100
AcDbCircle
 10
5.628139
 20
2.299233
 30
0.0
 40
6.947064
100
AcDbArc
 50
352.989695
 51
358.041596
  0
ARC
  5
46E
330
1F
100
AcDbEntity
  8
WHITE
  6
AUSGEZOGEN
 62
     7
370
    25
100
AcDbCircle
 10
11.01189
 20
2.164746
 30
0.0
 40
1.562648
100
AcDbArc
 50
356.223553
 51
12.891961
  0
ARC
  5
46F
330
1F
100
AcDbEntity
  8
WHITE
  6
AUSGEZOGEN
 62
     7
370
    25
100
AcDbCircle
 10
18.986072
 20
4.110517
 30
0.0
 40
6.645692
100
AcDbArc
 50
187.68988
 51
193.905697
  0
ARC
  5
470
330
1F
100
AcDbEntity
  8
WHITE
  6
AUSGEZOGEN
 62
     7
370
    25
100
AcDbCircle
 10
11.345795
 20
3.056099
 30
0.0
 40
1.067206
100
AcDbArc
 50
8.902291
 51
40.56929
  0
ARC
  5
471
330
1F
100
AcDbEntity
  8
WHITE
  6
AUSGEZOGEN
 62
     7
370
    25
100
AcDbCircle
 10
12.467334
 20
4.210205
 30
0.0
 40
0.555217
100
AcDbArc
 50
199.250514
 51
235.950997
  0
ARC
  5
472
330
1F
100
AcDbEntity
  8
WHITE
  6
AUSGEZOGEN
 62
     7
370
    25
100
AcDbCircle
 10
11.393355
 20
3.619147
 30
0.0
 40
0.684656
100
AcDbArc
 50
36.57863
 51
80.87019
  0
ARC
  5
473
330
1F
100
AcDbEntity
  8
WHITE
  6
AUSGEZOGEN
 62
     7
370
    25
100
AcDbCircle
 10
11.639105
 20
1.525424
 30
0.0
 40
2.773097
100
AcDbArc
 50
92.83413
 51
120.5058
  0
ARC
  5
474
330
1F
100
AcDbEntity
  8
WHITE
  6
AUSGEZOGEN
 62
     7
370
    25
100
AcDbCircle
 10
3.40795
 20
19.222368
 30
0.0
 40
16.759638
100
AcDbArc
 50
293.333843
 51
294.025082
  0
ARC
  5
475
330
1F
100
AcDbEntity
  8
WHITE
  6
AUSGEZOGEN
 62
     7
370
    25
100
AcDbCircle
 10
10.172505
 20
3.552197
 30
0.0
 40
0.308302
100
AcDbArc
 50
114.176529
 51
150.721144
  0
ARC
  5
476
330
1F
100
AcDbEntity
  8
WHITE
  6
AUSGEZOGEN
 62
     7
370
    25
100
AcDbCircle
 10
9.857913
 20
3.745421
 30
0.0
 40
0.062353
100
AcDbArc
 50
193.916414
 51
317.100072
  0
ARC
  5
477
330
1F
100
AcDbEntity
  8
WHITE
  6
AUSGEZOGEN
 62
     7
370
    25
100
AcDbCircle
 10
8.95486
 20
3.519042
 30
0.0
 40
0.868643
100
AcDbArc
 50
14.084206
 51
23.419948
  0
ARC
  5
478
330
1F
100
AcDbEntity
  8
WHITE
  6
AUSGEZOGEN
 62
     7
370
    25
100
AcDbCircle
 10
9.455979
 20
3.692169
 30
0.0
 40
0.342377
100
AcDbArc
 50
30.18212
 51
76.726122
  0
ARC
  5
479
330
1F
100
AcDbEntity
  8
WHITE
  6
AUSGEZOGEN
 62
     7
370
    25
100
AcDbCircle
 10
9.47834
 20
3.908174
 30
0.0
 40
0.130022
100
AcDbArc
 50
64.36614
 51
152.3884
  0
LINE
  5
47A
330
1F
100
AcDbEntity
  8
WHITE
  6
AUSGEZOGEN
 62
     7
370
    25
100
AcDbLine
 10
9.363127
 20
3.968436
 30
0.0
 11
9.35207
 21
3.944849
 31
0.0
  0
ARC
  5
47B
330
1F
100
AcDbEntity
  8
WHITE
  6
AUSGEZOGEN
 62
     7
370
    25
100
AcDbCircle
 10
9.3725
 20
3.935309
 30
0.0
 40
0.022548
100
AcDbArc
 50
154.96929
 51
244.817601
  0
LINE
  5
47C
330
1F
100
AcDbEntity
  8
WHITE
  6
AUSGEZOGEN
 62
     7
370
    25
100
AcDbLine
 10
9.362906
 20
3.914905
 30
0.0
 11
9.51452
 21
3.843824
 31
0.0
  0
ARC
  5
47D
330
1F
100
AcDbEntity
  8
WHITE
  6
AUSGEZOGEN
 62
     7
370
    25
100
AcDbCircle
 10
9.50498
 20
3.823439
 30
0.0
 40
0.022507
100
AcDbArc
 50
334.817599
 51
64.920821
  0
LINE
  5
47E
330
1F
100
AcDbEntity
  8
WHITE
  6
AUSGEZOGEN
 62
     7
370
    25
100
AcDbLine
 10
9.525348
 20
3.813863
 30
0.0
 11
9.51569
 21
3.793379
 31
0.0
  0
ARC
  5
47F
330
1F
100
AcDbEntity
  8
WHITE
  6
AUSGEZOGEN
 62
     7
370
    25
100
AcDbCircle
 10
9.495305
 20
3.802964
 30
0.0
 40
0.022526
100
AcDbArc
 50
244.817199
 51
334.817153
  0
LINE
  5
480
330
1F
100
AcDbEntity
  8
WHITE
  6
AUSGEZOGEN
 62
     7
370
    25
100
AcDbLine
 10
9.485721
 20
3.782579
 30
0.0
 11
9.331415
 21
3.855074
 31
0.0
  0
ARC
  5
481
330
1F
100
AcDbEntity
  8
WHITE
  6
AUSGEZOGEN
 62
     7
370
    25
100
AcDbCircle
 10
9.321723
 20
3.834743
 30
0.0
 40
0.022524
100
AcDbArc
 50
64.513037
 51
149.129718
  0
ARC
  5
482
330
1F
100
AcDbEntity
  8
WHITE
  6
AUSGEZOGEN
 62
     7
370
    25
100
AcDbCircle
 10
9.452633
 20
3.757853
 30
0.0
 40
0.174343
100
AcDbArc
 50
149.515059
 51
195.425956
  0
ARC
  5
483
330
1F
100
AcDbEntity
  8
WHITE
  6
AUSGEZOGEN
 62
     7
370
    25
100
AcDbCircle
 10
9.399635
 20
3.796124
 30
0.0
 40
0.142845
100
AcDbArc
 50
216.3392
 51
242.0866
  0
ARC
  5
484
330
1F
100
AcDbEntity
  8
WHITE
  6
AUSGEZOGEN
 62
     7
370
    25
100
AcDbCircle
 10
9.583811
 20
4.07486
 30
0.0
 40
0.476465
100
AcDbArc
 50
238.204137
 51
251.047826
  0
ARC
  5
485
330
1F
100
AcDbEntity
  8
WHITE
  6
AUSGEZOGEN
 62
     7
370
    25
100
AcDbCircle
 10
9.388512
 20
3.434129
 30
0.0
 40
0.194373
100
AcDbArc
 50
16.328111
 51
77.957464
  0
ARC
  5
486
330
1F
100
AcDbEntity
  8
WHITE
  6
AUSGEZOGEN
 62
     7
370
    25
100
AcDbCircle
 10
9.784025
 20
3.484349
 30
0.0
 40
0.209026
100
AcDbArc
 50
178.786837
 51
272.18381
  0
ARC
  5
487
330
1F
100
AcDbEntity
  8
WHITE
  6
AUSGEZOGEN
 62
     7
370
    25
100
AcDbCircle
 10
9.76877
 20
3.887474
 30
0.0
 40
0.612441
100
AcDbArc
 50
272.1728
 51
327.4332
  0
ARC
  5
488
330
1F
100
AcDbEntity
  8
WHITE
  6
AUSGEZOGEN
 62
     7
370
    25
100
AcDbCircle
 10
10.78882
 20
3.244826
 30
0.0
 40
0.593195
100
AcDbArc
 50
109.834653
 51
148.155065
  0
ARC
  5
489
330
1F
100
AcDbEntity
  8
WHITE
  6
AUSGEZOGEN
 62
     7
370
    25
100
AcDbCircle
 10
11.706785
 20
0.996449
 30
0.0
 40
3.021336
100
AcDbArc
 50
99.42696
 51
111.7431
  0
LINE
  5
48A
330
1F
100
AcDbEntity
  8
WHITE
  6
AUSGEZOGEN
 62
     7
370
    25
100
AcDbLine
 10
11.21192
 20
3.976982
 30
0.0
 11
11.21867
 21
3.978329
 31
0.0
  0
ARC
  5
48B
330
1F
100
AcDbEntity
  8
WHITE
  6
AUSGEZOGEN
 62
     7
370
    25
100
AcDbCircle
 10
1.99539
 20
3.929926
 30
0.0
 40
0.280407
100
AcDbArc
 50
199.240111
 51
250.625001
  0
ARC
  5
48C
330
1F
100
AcDbEntity
  8
WHITE
  6
AUSGEZOGEN
 62
     7
370
    25
100
AcDbCircle
 10
2.086235
 20
4.278569
 30
0.0
 40
0.640145
100
AcDbArc
 50
253.3077
 51
275.4617
  0
ARC
  5
48D
330
1F
100
AcDbEntity
  8
WHITE
  6
AUSGEZOGEN
 62
     7
370
    25
100
AcDbCircle
 10
1.970001
 20
5.975478
 30
0.0
 40
2.340861
100
AcDbArc
 50
274.340465
 51
285.38056
  0
ARC
  5
48E
330
1F
100
AcDbEntity
  8
WHITE
  6
AUSGEZOGEN
 62
     7
370
    25
100
AcDbCircle
 10
2.676675
 20
3.391844
 30
0.0
 40
0.337694
100
AcDbArc
 50
87.845456
 51
104.720487
  0
ARC
  5
48F
330
1F
100
AcDbEntity
  8
WHITE
  6
AUSGEZOGEN
 62
     7
370
    25
100
AcDbCircle
 10
2.687525
 20
3.676469
 30
0.0
 40
0.052862
100
AcDbArc
 50
328.392599
 51
87.99986
  0
ARC
  5
490
330
1F
100
AcDbEntity
  8
WHITE
  6
AUSGEZOGEN
 62
     7
370
    25
100
AcDbCircle
 10
2.293012
 20
4.017821
 30
0.0
 40
0.573928
100
AcDbArc
 50
292.92503
 51
319.981384
  0
ARC
  5
491
330
1F
100
AcDbEntity
  8
WHITE
  6
AUSGEZOGEN
 62
     7
370
    25
100
AcDbCircle
 10
1.172939
 20
6.667181
 30
0.0
 40
3.450326
100
AcDbArc
 50
282.770485
 51
292.918528
  0
ARC
  5
492
330
1F
100
AcDbEntity
  8
WHITE
  6
AUSGEZOGEN
 62
     7
370
    25
100
AcDbCircle
 10
1.7801
 20
4.024859
 30
0.0
 40
0.7392
100
AcDbArc
 50
196.6919
 51
282.1452
  0
ARC
  5
493
330
1F
100
AcDbEntity
  8
WHITE
  6
AUSGEZOGEN
 62
     7
370
    25
100
AcDbCircle
 10
2.036185
 20
4.109593
 30
0.0
 40
1.00886
100
AcDbArc
 50
167.22319
 51
197.124073
  0
ARC
  5
494
330
1F
100
AcDbEntity
  8
WHITE
  6
AUSGEZOGEN
 62
     7
370
    25
100
AcDbCircle
 10
1.909774
 20
4.147954
 30
0.0
 40
0.877147
100
AcDbArc
 50
147.259393
 51
167.84078
  0
ARC
  5
495
330
1F
100
AcDbEntity
  8
WHITE
  6
AUSGEZOGEN
 62
     7
370
    25
100
AcDbCircle
 10
1.801788
 20
4.196767
 30
0.0
 40
0.760115
100
AcDbArc
 50
80.337777
 51
145.951936
  0
ARC
  5
496
330
1F
100
AcDbEntity
  8
WHITE
  6
AUSGEZOGEN
 62
     7
370
    25
100
AcDbCircle
 10
1.440656
 20
2.092834
 30
0.0
 40
2.894816
100
AcDbArc
 50
64.923826
 51
80.280657
  0
ARC
  5
497
330
1F
100
AcDbEntity
  8
WHITE
  6
AUSGEZOGEN
 62
     7
370
    25
100
AcDbCircle
 10
2.601252
 20
4.585177
 30
0.0
 40
0.145591
100
AcDbArc
 50
19.584825
 51
62.913349
  0
ARC
  5
498
330
1F
100
AcDbEntity
  8
WHITE
  6
AUSGEZOGEN
 62
     7
370
    25
100
AcDbCircle
 10
2.684211
 20
4.604059
 30
0.0
 40
0.061918
100
AcDbArc
 50
285.626932
 51
28.896369
  0
ARC
  5
499
330
1F
100
AcDbEntity
  8
WHITE
  6
AUSGEZOGEN
 62
     7
370
    25
100
AcDbCircle
 10
2.624732
 20
4.816873
 30
0.0
 40
0.282888
100
AcDbArc
 50
262.61927
 51
285.617616
  0
ARC
  5
49A
330
1F
100
AcDbEntity
  8
WHITE
  6
AUSGEZOGEN
 62
     7
370
    25
100
AcDbCircle
 10
3.158785
 20
7.874514
 30
0.0
 40
3.386566
100
AcDbArc
 50
254.749621
 51
260.303567
  0
ARC
  5
49B
330
1F
100
AcDbEntity
  8
WHITE
  6
AUSGEZOGEN
 62
     7
370
    25
100
AcDbCircle
 10
2.143385
 20
4.147754
 30
0.0
 40
0.476047
100
AcDbArc
 50
74.82611
 51
154.1641
  0
ARC
  5
49C
330
1F
100
AcDbEntity
  8
WHITE
  6
AUSGEZOGEN
 62
     7
370
    25
100
AcDbCircle
 10
2.227742
 20
4.124007
 30
0.0
 40
0.562531
100
AcDbArc
 50
155.731687
 51
175.187616
  0
ARC
  5
49D
330
1F
100
AcDbEntity
  8
WHITE
  6
AUSGEZOGEN
 62
     7
370
    25
100
AcDbCircle
 10
1.644723
 20
4.173045
 30
0.0
 40
0.022547
100
AcDbArc
 50
270.616117
 51
355.306852
  0
LINE
  5
49E
330
1F
100
AcDbEntity
  8
WHITE
  6
AUSGEZOGEN
 62
     7
370
    25
100
AcDbLine
 10
1.644965
 20
4.150499
 30
0.0
 11
1.46339
 21
4.150499
 31
0.0
  0
ARC
  5
49F
330
1F
100
AcDbEntity
  8
WHITE
  6
AUSGEZOGEN
 62
     7
370
    25
100
AcDbCircle
 10
1.46339
 20
4.127999
 30
0.0
 40
0.0225
100
AcDbArc
 50
90.0
 51
180.0
  0
LINE
  5
4A0
330
1F
100
AcDbEntity
  8
WHITE
  6
AUSGEZOGEN
 62
     7
370
    25
100
AcDbLine
 10
1.44089
 20
4.127999
 30
0.0
 11
1.44089
 21
4.105499
 31
0.0
  0
ARC
  5
4A1
330
1F
100
AcDbEntity
  8
WHITE
  6
AUSGEZOGEN
 62
     7
370
    25
100
AcDbCircle
 10
1.46339
 20
4.105499
 30
0.0
 40
0.0225
100
AcDbArc
 50
180.0
 51
270.0
  0
LINE
  5
4A2
330
1F
100
AcDbEntity
  8
WHITE
  6
AUSGEZOGEN
 62
     7
370
    25
100
AcDbLine
 10
1.46339
 20
4.082999
 30
0.0
 11
1.644515
 21
4.082999
 31
0.0
  0
ARC
  5
4A3
330
1F
100
AcDbEntity
  8
WHITE
  6
AUSGEZOGEN
 62
     7
370
    25
100
AcDbCircle
 10
1.64456
 20
4.060499
 30
0.0
 40
0.0225
100
AcDbArc
 50
9.085134
 51
90.114591
  0
ARC
  5
4A4
330
1F
100
AcDbEntity
  8
WHITE
  6
AUSGEZOGEN
 62
     7
370
    25
100
AcDbCircle
 10
2.689901
 20
4.230119
 30
0.0
 40
1.036512
100
AcDbArc
 50
189.219492
 51
201.186171
  0
LINE
  5
4A5
330
1F
100
AcDbEntity
  8
WHITE
  6
AUSGEZOGEN
 62
     7
370
    25
100
AcDbLine
 10
1.723445
 20
3.855524
 30
0.0
 11
1.730645
 21
3.837524
 31
0.0
  0
ARC
  5
4A6
330
1F
100
AcDbEntity
  8
WHITE
  6
AUSGEZOGEN
 62
     7
370
    25
100
AcDbCircle
 10
6.137495
 20
6.004274
 30
0.0
 40
0.091465
100
AcDbArc
 50
184.939216
 51
280.9452
  0
LINE
  5
4A7
330
1F
100
AcDbEntity
  8
WHITE
  6
AUSGEZOGEN
 62
     7
370
    25
100
AcDbLine
 10
6.154862
 20
5.914474
 30
0.0
 11
6.25454
 21
5.933849
 31
0.0
  0
ARC
  5
4A8
330
1F
100
AcDbEntity
  8
WHITE
  6
AUSGEZOGEN
 62
     7
370
    25
100
AcDbCircle
 10
5.742586
 20
9.645181
 30
0.0
 40
3.746475
100
AcDbArc
 50
277.85402
 51
281.094632
  0
LINE
  5
4A9
330
1F
100
AcDbEntity
  8
WHITE
  6
AUSGEZOGEN
 62
     7
370
    25
100
AcDbLine
 10
6.46352
 20
5.968724
 30
0.0
 11
6.84584
 21
6.035279
 31
0.0
  0
ARC
  5
4AA
330
1F
100
AcDbEntity
  8
WHITE
  6
AUSGEZOGEN
 62
     7
370
    25
100
AcDbCircle
 10
6.84989
 20
6.012824
 30
0.0
 40
0.022817
100
AcDbArc
 50
9.647093
 51
100.223992
  0
LINE
  5
4AB
330
1F
100
AcDbEntity
  8
WHITE
  6
AUSGEZOGEN
 62
     7
370
    25
100
AcDbLine
 10
6.872385
 20
6.016648
 30
0.0
 11
6.87617
 21
5.995229
 31
0.0
  0
ARC
  5
4AC
330
1F
100
AcDbEntity
  8
WHITE
  6
AUSGEZOGEN
 62
     7
370
    25
100
AcDbCircle
 10
6.85367
 20
5.991269
 30
0.0
 40
0.022846
100
AcDbArc
 50
279.629799
 51
9.981829
  0
LINE
  5
4AD
330
1F
100
AcDbEntity
  8
WHITE
  6
AUSGEZOGEN
 62
     7
370
    25
100
AcDbLine
 10
6.857492
 20
5.968746
 30
0.0
 11
6.52967
 21
5.910629
 31
0.0
  0
ARC
  5
4AE
330
1F
100
AcDbEntity
  8
WHITE
  6
AUSGEZOGEN
 62
     7
370
    25
100
AcDbCircle
 10
6.533644
 20
5.888124
 30
0.0
 40
0.022854
100
AcDbArc
 50
100.013756
 51
188.478272
  0
ARC
  5
4AF
330
1F
100
AcDbEntity
  8
WHITE
  6
AUSGEZOGEN
 62
     7
370
    25
100
AcDbCircle
 10
6.65932
 20
5.907136
 30
0.0
 40
0.149959
100
AcDbArc
 50
188.58357
 51
261.108096
  0
ARC
  5
4B0
330
1F
100
AcDbEntity
  8
WHITE
  6
AUSGEZOGEN
 62
     7
370
    25
100
AcDbCircle
 10
6.673175
 20
5.994014
 30
0.0
 40
0.237935
100
AcDbArc
 50
261.0454
 51
282.4619
  0
ARC
  5
4B1
330
1F
100
AcDbEntity
  8
WHITE
  6
AUSGEZOGEN
 62
     7
370
    25
100
AcDbCircle
 10
7.499182
 20
3.475048
 30
0.0
 40
2.414293
100
AcDbArc
 50
96.603447
 51
108.715248
  0
ARC
  5
4B2
330
1F
100
AcDbEntity
  8
WHITE
  6
AUSGEZOGEN
 62
     7
370
    25
100
AcDbCircle
 10
7.175944
 20
6.276748
 30
0.0
 40
0.405992
100
AcDbArc
 50
276.449078
 51
321.988504
  0
ARC
  5
4B3
330
1F
100
AcDbEntity
  8
WHITE
  6
AUSGEZOGEN
 62
     7
370
    25
100
AcDbCircle
 10
7.29161
 20
6.116594
 30
0.0
 40
0.223109
100
AcDbArc
 50
336.2476
 51
61.7862
  0
LINE
  5
4B4
330
1F
100
AcDbEntity
  8
WHITE
  6
AUSGEZOGEN
 62
     7
370
    25
100
AcDbLine
 10
7.397088
 20
6.313195
 30
0.0
 11
6.698915
 21
6.313199
 31
0.0
  0
ARC
  5
4B5
330
1F
100
AcDbEntity
  8
WHITE
  6
AUSGEZOGEN
 62
     7
370
    25
100
AcDbCircle
 10
6.698825
 20
6.336105
 30
0.0
 40
0.022906
100
AcDbArc
 50
180.451578
 51
270.225137
  0
LINE
  5
4B6
330
1F
100
AcDbEntity
  8
WHITE
  6
AUSGEZOGEN
 62
     7
370
    25
100
AcDbLine
 10
6.67592
 20
6.335924
 30
0.0
 11
6.67592
 21
6.357749
 31
0.0
  0
ARC
  5
4B7
330
1F
100
AcDbEntity
  8
WHITE
  6
AUSGEZOGEN
 62
     7
370
    25
100
AcDbCircle
 10
6.698825
 20
6.357524
 30
0.0
 40
0.022905
100
AcDbArc
 50
89.772547
 51
179.437178
  0
LINE
  5
4B8
330
1F
100
AcDbEntity
  8
WHITE
  6
AUSGEZOGEN
 62
     7
370
    25
100
AcDbLine
 10
6.698915
 20
6.380429
 30
0.0
 11
7.39709
 21
6.380429
 31
0.0
  0
ARC
  5
4B9
330
1F
100
AcDbEntity
  8
WHITE
  6
AUSGEZOGEN
 62
     7
370
    25
100
AcDbCircle
 10
7.291565
 20
6.577034
 30
0.0
 40
0.223135
100
AcDbArc
 50
298.224061
 51
23.74773
  0
ARC
  5
4BA
330
1F
100
AcDbEntity
  8
WHITE
  6
AUSGEZOGEN
 62
     7
370
    25
100
AcDbCircle
 10
7.175891
 20
6.416943
 30
0.0
 40
0.405982
100
AcDbArc
 50
38.000457
 51
83.543368
  0
ARC
  5
4BB
330
1F
100
AcDbEntity
  8
WHITE
  6
AUSGEZOGEN
 62
     7
370
    25
100
AcDbCircle
 10
7.499015
 20
9.218759
 30
0.0
 40
2.414407
100
AcDbArc
 50
251.2898
 51
263.4008
  0
ARC
  5
4BC
330
1F
100
AcDbEntity
  8
WHITE
  6
AUSGEZOGEN
 62
     7
370
    25
100
AcDbCircle
 10
6.673302
 20
6.699526
 30
0.0
 40
0.237996
100
AcDbArc
 50
77.572802
 51
98.983041
  0
ARC
  5
4BD
330
1F
100
AcDbEntity
  8
WHITE
  6
AUSGEZOGEN
 62
     7
370
    25
100
AcDbCircle
 10
6.659394
 20
6.786373
 30
0.0
 40
0.150044
100
AcDbArc
 50
98.915662
 51
171.392321
  0
ARC
  5
4BE
330
1F
100
AcDbEntity
  8
WHITE
  6
AUSGEZOGEN
 62
     7
370
    25
100
AcDbCircle
 10
6.533495
 20
6.805139
 30
0.0
 40
0.022756
100
AcDbArc
 50
170.6681
 51
260.314899
  0
LINE
  5
4BF
330
1F
100
AcDbEntity
  8
WHITE
  6
AUSGEZOGEN
 62
     7
370
    25
100
AcDbLine
 10
6.529667
 20
6.782708
 30
0.0
 11
6.857495
 21
6.724724
 31
0.0
  0
ARC
  5
4C0
330
1F
100
AcDbEntity
  8
WHITE
  6
AUSGEZOGEN
 62
     7
370
    25
100
AcDbCircle
 10
6.853627
 20
6.702187
 30
0.0
 40
0.022867
100
AcDbArc
 50
350.351885
 51
80.25969
  0
LINE
  5
4C1
330
1F
100
AcDbEntity
  8
WHITE
  6
AUSGEZOGEN
 62
     7
370
    25
100
AcDbLine
 10
6.87617
 20
6.698354
 30
0.0
 11
6.87239
 21
6.676799
 31
0.0
  0
ARC
  5
4C2
330
1F
100
AcDbEntity
  8
WHITE
  6
AUSGEZOGEN
 62
     7
370
    25
100
AcDbCircle
 10
6.849847
 20
6.680857
 30
0.0
 40
0.022906
100
AcDbArc
 50
259.926753
 51
349.796172
  0
LINE
  5
4C3
330
1F
100
AcDbEntity
  8
WHITE
  6
AUSGEZOGEN
 62
     7
370
    25
100
AcDbLine
 10
6.84584
 20
6.658304
 30
0.0
 11
6.46352
 21
6.724904
 31
0.0
  0
ARC
  5
4C4
330
1F
100
AcDbEntity
  8
WHITE
  6
AUSGEZOGEN
 62
     7
370
    25
100
AcDbCircle
 10
5.7418
 20
3.048526
 30
0.0
 40
3.74655
100
AcDbArc
 50
78.89334
 51
82.134002
  0
LINE
  5
4C5
330
1F
100
AcDbEntity
  8
WHITE
  6
AUSGEZOGEN
 62
     7
370
    25
100
AcDbLine
 10
6.25454
 20
6.759824
 30
0.0
 11
6.154865
 21
6.779129
 31
0.0
  0
ARC
  5
4C6
330
1F
100
AcDbEntity
  8
WHITE
  6
AUSGEZOGEN
 62
     7
370
    25
100
AcDbCircle
 10
6.137435
 20
6.689402
 30
0.0
 40
0.091404
100
AcDbArc
 50
79.00671
 51
175.059383
  0
LINE
  5
4C7
330
1F
100
AcDbEntity
  8
WHITE
  6
AUSGEZOGEN
 62
     7
370
    25
100
AcDbLine
 10
6.04637
 20
6.697274
 30
0.0
 11
6.037865
 21
6.599399
 31
0.0
  0
ARC
  5
4C8
330
1F
100
AcDbEntity
  8
WHITE
  6
AUSGEZOGEN
 62
     7
370
    25
100
AcDbCircle
 10
6.00371
 20
6.602549
 30
0.0
 40
0.0343
100
AcDbArc
 50
283.890199
 51
354.73071
  0
LINE
  5
4C9
330
1F
100
AcDbEntity
  8
WHITE
  6
AUSGEZOGEN
 62
     7
370
    25
100
AcDbLine
 10
6.011945
 20
6.569252
 30
0.0
 11
5.83127
 21
6.523754
 31
0.0
  0
ARC
  5
4CA
330
1F
100
AcDbEntity
  8
WHITE
  6
AUSGEZOGEN
 62
     7
370
    25
100
AcDbCircle
 10
5.87627
 20
6.346049
 30
0.0
 40
0.183314
100
AcDbArc
 50
104.210218
 51
256.223
  0
LINE
  5
4CB
330
1F
100
AcDbEntity
  8
WHITE
  6
AUSGEZOGEN
 62
     7
370
    25
100
AcDbLine
 10
5.832615
 20
6.168009
 30
0.0
 11
6.011945
 21
6.124379
 31
0.0
  0
ARC
  5
4CC
330
1F
100
AcDbEntity
  8
WHITE
  6
AUSGEZOGEN
 62
     7
370
    25
100
AcDbCircle
 10
6.003665
 20
6.091079
 30
0.0
 40
0.034314
100
AcDbArc
 50
4.963882
 51
76.036652
  0
LINE
  5
4CD
330
1F
100
AcDbEntity
  8
WHITE
  6
AUSGEZOGEN
 62
     7
370
    25
100
AcDbLine
 10
6.037851
 20
6.094048
 30
0.0
 11
6.04484
 21
6.015299
 31
0.0
  0
LINE
  5
4CE
330
1F
100
AcDbEntity
  8
WHITE
  6
AUSGEZOGEN
 62
     7
370
    25
100
AcDbLine
 10
6.04484
 20
6.015299
 30
0.0
 11
6.04637
 21
5.996399
 31
0.0
  0
ARC
  5
4CF
330
1F
100
AcDbEntity
  8
WHITE
  6
AUSGEZOGEN
 62
     7
370
    25
100
AcDbCircle
 10
11.286386
 20
9.142405
 30
0.0
 40
0.522027
100
AcDbArc
 50
222.192535
 51
244.222775
  0
ARC
  5
4D0
330
1F
100
AcDbEntity
  8
WHITE
  6
AUSGEZOGEN
 62
     7
370
    25
100
AcDbCircle
 10
10.768855
 20
8.673534
 30
0.0
 40
0.176313
100
AcDbArc
 50
42.12632
 51
94.084865
  0
ARC
  5
4D1
330
1F
100
AcDbEntity
  8
WHITE
  6
AUSGEZOGEN
 62
     7
370
    25
100
AcDbCircle
 10
10.75387
 20
8.887448
 30
0.0
 40
0.038125
100
AcDbArc
 50
168.460397
 51
273.647162
  0
LINE
  5
4D2
330
1F
100
AcDbEntity
  8
WHITE
  6
AUSGEZOGEN
 62
     7
370
    25
100
AcDbLine
 10
10.716515
 20
8.895074
 30
0.0
 11
10.798191
 21
8.975578
 31
0.0
  0
ARC
  5
4D3
330
1F
100
AcDbEntity
  8
WHITE
  6
AUSGEZOGEN
 62
     7
370
    25
100
AcDbCircle
 10
8.10809
 20
9.00058
 30
0.0
 40
2.690217
100
AcDbArc
 50
359.467515
 51
1.221513
  0
ARC
  5
4D4
330
1F
100
AcDbEntity
  8
WHITE
  6
AUSGEZOGEN
 62
     7
370
    25
100
AcDbCircle
 10
10.859985
 20
9.059426
 30
0.0
 40
0.062308
100
AcDbArc
 50
138.263363
 51
181.37592
  0
ARC
  5
4D5
330
1F
100
AcDbEntity
  8
WHITE
  6
AUSGEZOGEN
 62
     7
370
    25
100
AcDbCircle
 10
10.90241
 20
9.001769
 30
0.0
 40
0.133171
100
AcDbArc
 50
88.95448
 51
131.8908
  0
ARC
  5
4D6
330
1F
100
AcDbEntity
  8
WHITE
  6
AUSGEZOGEN
 62
     7
370
    25
100
AcDbCircle
 10
10.891405
 20
8.318666
 30
0.0
 40
0.816363
100
AcDbArc
 50
78.851854
 51
89.056974
  0
ARC
  5
4D7
330
1F
100
AcDbEntity
  8
WHITE
  6
AUSGEZOGEN
 62
     7
370
    25
100
AcDbCircle
 10
11.041505
 20
9.191849
 30
0.0
 40
0.072639
100
AcDbArc
 50
276.1168
 51
39.36935
  0
ARC
  5
4D8
330
1F
100
AcDbEntity
  8
WHITE
  6
AUSGEZOGEN
 62
     7
370
    25
100
AcDbCircle
 10
10.985478
 20
9.170569
 30
0.0
 40
0.13085
100
AcDbArc
 50
30.981144
 51
63.045131
  0
ARC
  5
4D9
330
1F
100
AcDbEntity
  8
WHITE
  6
AUSGEZOGEN
 62
     7
370
    25
100
AcDbCircle
 10
10.83734
 20
8.880899
 30
0.0
 40
0.456201
100
AcDbArc
 50
62.95219
 51
67.03888
  0
ARC
  5
4DA
330
1F
100
AcDbEntity
  8
WHITE
  6
AUSGEZOGEN
 62
     7
370
    25
100
AcDbCircle
 10
10.699013
 20
8.301805
 30
0.0
 40
1.048018
100
AcDbArc
 50
72.434135
 51
78.698796
  0
ARC
  5
4DB
330
1F
100
AcDbEntity
  8
WHITE
  6
AUSGEZOGEN
 62
     7
370
    25
100
AcDbCircle
 10
10.869153
 20
9.18645
 30
0.0
 40
0.147329
100
AcDbArc
 50
76.162466
 51
105.810101
  0
ARC
  5
4DC
330
1F
100
AcDbEntity
  8
WHITE
  6
AUSGEZOGEN
 62
     7
370
    25
100
AcDbCircle
 10
10.737696
 20
9.406056
 30
0.0
 40
0.119998
100
AcDbArc
 50
245.480168
 51
319.551716
  0
ARC
  5
4DD
330
1F
100
AcDbEntity
  8
WHITE
  6
AUSGEZOGEN
 62
     7
370
    25
100
AcDbCircle
 10
10.715323
 20
9.356762
 30
0.0
 40
0.065865
100
AcDbArc
 50
214.343554
 51
245.390937
  0
ARC
  5
4DE
330
1F
100
AcDbEntity
  8
WHITE
  6
AUSGEZOGEN
 62
     7
370
    25
100
AcDbCircle
 10
11.354389
 20
9.796697
 30
0.0
 40
0.841718
100
AcDbArc
 50
210.47382
 51
214.527999
  0
ARC
  5
4DF
330
1F
100
AcDbEntity
  8
WHITE
  6
AUSGEZOGEN
 62
     7
370
    25
100
AcDbCircle
 10
10.561805
 20
9.327029
 30
0.0
 40
0.079619
100
AcDbArc
 50
32.51342
 51
185.1562
  0
LINE
  5
4E0
330
1F
100
AcDbEntity
  8
WHITE
  6
AUSGEZOGEN
 62
     7
370
    25
100
AcDbLine
 10
10.482509
 20
9.319874
 30
0.0
 11
10.53089
 21
9.053204
 31
0.0
  0
ARC
  5
4E1
330
1F
100
AcDbEntity
  8
WHITE
  6
AUSGEZOGEN
 62
     7
370
    25
100
AcDbCircle
 10
10.508434
 20
9.049162
 30
0.0
 40
0.022817
100
AcDbArc
 50
280.112785
 51
10.204044
  0
LINE
  5
4E2
330
1F
100
AcDbEntity
  8
WHITE
  6
AUSGEZOGEN
 62
     7
370
    25
100
AcDbLine
 10
10.51244
 20
9.026699
 30
0.0
 11
10.491245
 21
9.022649
 31
0.0
  0
ARC
  5
4E3
330
1F
100
AcDbEntity
  8
WHITE
  6
AUSGEZOGEN
 62
     7
370
    25
100
AcDbCircle
 10
10.48697
 20
9.045108
 30
0.0
 40
0.022862
100
AcDbArc
 50
190.212189
 51
280.77894
  0
LINE
  5
4E4
330
1F
100
AcDbEntity
  8
WHITE
  6
AUSGEZOGEN
 62
     7
370
    25
100
AcDbLine
 10
10.46447
 20
9.041054
 30
0.0
 11
10.427615
 21
9.245129
 31
0.0
  0
ARC
  5
4E5
330
1F
100
AcDbEntity
  8
WHITE
  6
AUSGEZOGEN
 62
     7
370
    25
100
AcDbCircle
 10
10.26584
 20
9.217454
 30
0.0
 40
0.164125
100
AcDbArc
 50
9.707671
 51
33.83392
  0
ARC
  5
4E6
330
1F
100
AcDbEntity
  8
WHITE
  6
AUSGEZOGEN
 62
     7
370
    25
100
AcDbCircle
 10
10.326308
 20
9.258153
 30
0.0
 40
0.091237
100
AcDbArc
 50
33.746592
 51
115.691017
  0
ARC
  5
4E7
330
1F
100
AcDbEntity
  8
WHITE
  6
AUSGEZOGEN
 62
     7
370
    25
100
AcDbCircle
 10
10.333729
 20
9.241948
 30
0.0
 40
0.109058
100
AcDbArc
 50
115.513712
 51
164.0301
  0
ARC
  5
4E8
330
1F
100
AcDbEntity
  8
WHITE
  6
AUSGEZOGEN
 62
     7
370
    25
100
AcDbCircle
 10
10.4454
 20
9.234701
 30
0.0
 40
0.219701
100
AcDbArc
 50
170.23788
 51
185.916621
  0
ARC
  5
4E9
330
1F
100
AcDbEntity
  8
WHITE
  6
AUSGEZOGEN
 62
     7
370
    25
100
AcDbCircle
 10
9.923302
 20
9.17044
 30
0.0
 40
0.306407
100
AcDbArc
 50
354.350948
 51
7.805619
  0
ARC
  5
4EA
330
1F
100
AcDbEntity
  8
WHITE
  6
AUSGEZOGEN
 62
     7
370
    25
100
AcDbCircle
 10
9.977177
 20
9.230692
 30
0.0
 40
0.266828
100
AcDbArc
 50
301.914953
 51
340.193684
  0
ARC
  5
4EB
330
1F
100
AcDbEntity
  8
WHITE
  6
AUSGEZOGEN
 62
     7
370
    25
100
AcDbCircle
 10
13.31252
 20
3.85953
 30
0.0
 40
6.055664
100
AcDbArc
 50
121.8358
 51
122.5558
  0
ARC
  5
4EC
330
1F
100
AcDbEntity
  8
WHITE
  6
AUSGEZOGEN
 62
     7
370
    25
100
AcDbCircle
 10
11.410382
 20
6.575061
 30
0.0
 40
2.746921
100
AcDbArc
 50
119.593294
 51
122.329978
  0
ARC
  5
4ED
330
1F
100
AcDbEntity
  8
WHITE
  6
AUSGEZOGEN
 62
     7
370
    25
100
AcDbCircle
 10
10.114698
 20
8.622247
 30
0.0
 40
0.32416
100
AcDbArc
 50
122.328927
 51
144.745806
  0
ARC
  5
4EE
330
1F
100
AcDbEntity
  8
WHITE
  6
AUSGEZOGEN
 62
     7
370
    25
100
AcDbCircle
 10
9.461641
 20
8.79377
 30
0.0
 40
0.38866
100
AcDbArc
 50
335.513664
 51
2.298021
  0
LINE
  5
4EF
330
1F
100
AcDbEntity
  8
WHITE
  6
AUSGEZOGEN
 62
     7
370
    25
100
AcDbLine
 10
9.815345
 20
8.632679
 30
0.0
 11
9.763638
 21
8.484854
 31
0.0
  0
ARC
  5
4F0
330
1F
100
AcDbEntity
  8
WHITE
  6
AUSGEZOGEN
 62
     7
370
    25
100
AcDbCircle
 10
15.430175
 20
8.238389
 30
0.0
 40
5.671895
100
AcDbArc
 50
177.5095
 51
179.3127
  0
ARC
  5
4F1
330
1F
100
AcDbEntity
  8
WHITE
  6
AUSGEZOGEN
 62
     7
370
    25
100
AcDbCircle
 10
9.978693
 20
8.302743
 30
0.0
 40
0.220034
100
AcDbArc
 50
179.041007
 51
8.490342
  0
ARC
  5
4F2
330
1F
100
AcDbEntity
  8
WHITE
  6
AUSGEZOGEN
 62
     7
370
    25
100
AcDbCircle
 10
10.817721
 20
8.425744
 30
0.0
 40
0.627963
100
AcDbArc
 50
178.359195
 51
188.28743
  0
ARC
  5
4F3
330
1F
100
AcDbEntity
  8
WHITE
  6
AUSGEZOGEN
 62
     7
370
    25
100
AcDbCircle
 10
10.337257
 20
8.39994
 30
0.0
 40
0.153613
100
AcDbArc
 50
123.760378
 51
163.439403
  0
ARC
  5
4F4
330
1F
100
AcDbEntity
  8
WHITE
  6
AUSGEZOGEN
 62
     7
370
    25
100
AcDbCircle
 10
10.470867
 20
8.262463
 30
0.0
 40
0.34391
100
AcDbArc
 50
114.523599
 51
129.547996
  0
ARC
  5
4F5
330
1F
100
AcDbEntity
  8
WHITE
  6
AUSGEZOGEN
 62
     7
370
    25
100
AcDbCircle
 10
10.25909
 20
8.726954
 30
0.0
 40
0.166581
100
AcDbArc
 50
294.4811
 51
347.1387
  0
ARC
  5
4F6
330
1F
100
AcDbEntity
  8
WHITE
  6
AUSGEZOGEN
 62
     7
370
    25
100
AcDbCircle
 10
10.49347
 20
8.673406
 30
0.0
 40
0.073838
100
AcDbArc
 50
85.576262
 51
167.112603
  0
ARC
  5
4F7
330
1F
100
AcDbEntity
  8
WHITE
  6
AUSGEZOGEN
 62
     7
370
    25
100
AcDbCircle
 10
10.545031
 20
9.151503
 30
0.0
 40
0.40707
100
AcDbArc
 50
263.530626
 51
268.921694
  0
ARC
  5
4F8
330
1F
100
AcDbEntity
  8
WHITE
  6
AUSGEZOGEN
 62
     7
370
    25
100
AcDbCircle
 10
10.536875
 20
8.710979
 30
0.0
 40
0.033529
100
AcDbArc
 50
12.78664
 51
89.154082
  0
ARC
  5
4F9
330
1F
100
AcDbEntity
  8
WHITE
  6
AUSGEZOGEN
 62
     7
370
    25
100
AcDbCircle
 10
10.194455
 20
8.701249
 30
0.0
 40
0.37551
100
AcDbArc
 50
344.373663
 51
2.617821
  0
ARC
  5
4FA
330
1F
100
AcDbEntity
  8
WHITE
  6
AUSGEZOGEN
 62
     7
370
    25
100
AcDbCircle
 10
10.704532
 20
8.55865
 30
0.0
 40
0.154125
100
AcDbArc
 50
164.398616
 51
188.798765
  0
ARC
  5
4FB
330
1F
100
AcDbEntity
  8
WHITE
  6
AUSGEZOGEN
 62
     7
370
    25
100
AcDbCircle
 10
10.923715
 20
8.602871
 30
0.0
 40
0.37763
100
AcDbArc
 50
190.342558
 51
210.836904
  0
ARC
  5
4FC
330
1F
100
AcDbEntity
  8
WHITE
  6
AUSGEZOGEN
 62
     7
370
    25
100
AcDbCircle
 10
10.863004
 20
8.566431
 30
0.0
 40
0.306823
100
AcDbArc
 50
210.805403
 51
232.122001
  0
ARC
  5
4FD
330
1F
100
AcDbEntity
  8
WHITE
  6
AUSGEZOGEN
 62
     7
370
    25
100
AcDbCircle
 10
10.868309
 20
8.574398
 30
0.0
 40
0.316369
100
AcDbArc
 50
232.249576
 51
247.069174
  0
ARC
  5
4FE
330
1F
100
AcDbEntity
  8
WHITE
  6
AUSGEZOGEN
 62
     7
370
    25
100
AcDbCircle
 10
10.94291
 20
8.675699
 30
0.0
 40
0.439705
100
AcDbArc
 50
243.2566
 51
270.4632
  0
ARC
  5
4FF
330
1F
100
AcDbEntity
  8
WHITE
  6
AUSGEZOGEN
 62
     7
370
    25
100
AcDbCircle
 10
10.941877
 20
8.881754
 30
0.0
 40
0.645762
100
AcDbArc
 50
270.40711
 51
282.316068
  0
ARC
  5
500
330
1F
100
AcDbEntity
  8
WHITE
  6
AUSGEZOGEN
 62
     7
370
    25
100
AcDbCircle
 10
10.942325
 20
8.874374
 30
0.0
 40
0.638457
100
AcDbArc
 50
282.418
 51
292.8348
  0
ARC
  5
501
330
1F
100
AcDbEntity
  8
WHITE
  6
AUSGEZOGEN
 62
     7
370
    25
100
AcDbCircle
 10
10.836214
 20
8.974723
 30
0.0
 40
0.77436
100
AcDbArc
 50
297.193583
 51
321.569088
  0
ARC
  5
502
330
1F
100
AcDbEntity
  8
WHITE
  6
AUSGEZOGEN
 62
     7
370
    25
100
AcDbCircle
 10
10.904165
 20
8.927789
 30
0.0
 40
0.691978
100
AcDbArc
 50
321.1161
 51
349.7058
  0
ARC
  5
503
330
1F
100
AcDbEntity
  8
WHITE
  6
AUSGEZOGEN
 62
     7
370
    25
100
AcDbCircle
 10
10.843459
 20
8.998615
 30
0.0
 40
0.766625
100
AcDbArc
 50
345.304101
 51
42.630862
  0
ARC
  5
504
330
1F
100
AcDbEntity
  8
WHITE
  6
AUSGEZOGEN
 62
     7
370
    25
100
AcDbCircle
 10
11.19824
 20
9.412754
 30
0.0
 40
0.23415
100
AcDbArc
 50
26.66354
 51
54.85921
  0
ARC
  5
505
330
1F
100
AcDbEntity
  8
WHITE
  6
AUSGEZOGEN
 62
     7
370
    25
100
AcDbCircle
 10
11.304945
 20
9.564822
 30
0.0
 40
0.048382
100
AcDbArc
 50
54.537399
 51
210.413189
  0
LINE
  5
506
330
1F
100
AcDbEntity
  8
WHITE
  6
AUSGEZOGEN
 62
     7
370
    25
100
AcDbLine
 10
11.26322
 20
9.540329
 30
0.0
 11
11.383865
 21
9.132404
 31
0.0
  0
ARC
  5
507
330
1F
100
AcDbEntity
  8
WHITE
  6
AUSGEZOGEN
 62
     7
370
    25
100
AcDbCircle
 10
11.091455
 20
9.043304
 30
0.0
 40
0.305684
100
AcDbArc
 50
0.084298
 51
16.946458
  0
ARC
  5
508
330
1F
100
AcDbEntity
  8
WHITE
  6
AUSGEZOGEN
 62
     7
370
    25
100
AcDbCircle
 10
11.311683
 20
9.067827
 30
0.0
 40
0.088782
100
AcDbArc
 50
317.261772
 51
344.267664
  0
ARC
  5
509
330
1F
100
AcDbEntity
  8
WHITE
  6
AUSGEZOGEN
 62
     7
370
    25
100
AcDbCircle
 10
11.802052
 20
8.615806
 30
0.0
 40
0.57814
100
AcDbArc
 50
137.34075
 51
154.109306
  0
ARC
  5
50A
330
1F
100
AcDbEntity
  8
WHITE
  6
AUSGEZOGEN
 62
     7
370
    25
100
AcDbCircle
 10
10.78055
 20
9.111479
 30
0.0
 40
0.557271
100
AcDbArc
 50
309.433
 51
334.1219
  0
ARC
  5
50B
330
1F
100
AcDbEntity
  8
WHITE
  6
AUSGEZOGEN
 62
     7
370
    25
100
AcDbCircle
 10
11.089959
 20
8.735281
 30
0.0
 40
0.070179
100
AcDbArc
 50
259.671967
 51
309.412194
  0
LINE
  5
50C
330
1F
100
AcDbEntity
  8
WHITE
  6
AUSGEZOGEN
 62
     7
370
    25
100
AcDbLine
 10
11.077377
 20
8.66624
 30
0.0
 11
11.05937
 21
8.672324
 31
0.0
  0
ARC
  5
50D
330
1F
100
AcDbEntity
  8
WHITE
  6
AUSGEZOGEN
 62
     7
370
    25
100
AcDbCircle
 10
10.316465
 20
6.844424
 30
0.0
 40
0.522189
100
AcDbArc
 50
282.137955
 51
304.179006
  0
ARC
  5
50E
330
1F
100
AcDbEntity
  8
WHITE
  6
AUSGEZOGEN
 62
     7
370
    25
100
AcDbCircle
 10
10.463483
 20
6.16164
 30
0.0
 40
0.176244
100
AcDbArc
 50
102.191649
 51
154.063638
  0
ARC
  5
50F
330
1F
100
AcDbEntity
  8
WHITE
  6
AUSGEZOGEN
 62
     7
370
    25
100
AcDbCircle
 10
10.2707
 20
6.255104
 30
0.0
 40
0.038001
100
AcDbArc
 50
228.1689
 51
334.466599
  0
LINE
  5
510
330
1F
100
AcDbEntity
  8
WHITE
  6
AUSGEZOGEN
 62
     7
370
    25
100
AcDbLine
 10
10.245356
 20
6.226789
 30
0.0
 11
10.216295
 21
6.337949
 31
0.0
  0
ARC
  5
511
330
1F
100
AcDbEntity
  8
WHITE
  6
AUSGEZOGEN
 62
     7
370
    25
100
AcDbCircle
 10
8.846765
 20
4.022294
 30
0.0
 40
2.690329
100
AcDbArc
 50
59.398984
 51
61.14738
  0
ARC
  5
512
330
1F
100
AcDbEntity
  8
WHITE
  6
AUSGEZOGEN
 62
     7
370
    25
100
AcDbCircle
 10
10.174989
 20
6.433429
 30
0.0
 40
0.062442
100
AcDbArc
 50
198.346987
 51
241.303653
  0
ARC
  5
513
330
1F
100
AcDbEntity
  8
WHITE
  6
AUSGEZOGEN
 62
     7
370
    25
100
AcDbCircle
 10
10.245961
 20
6.441377
 30
0.0
 40
0.133134
100
AcDbArc
 50
148.935774
 51
191.9661
  0
ARC
  5
514
330
1F
100
AcDbEntity
  8
WHITE
  6
AUSGEZOGEN
 62
     7
370
    25
100
AcDbCircle
 10
10.83213
 20
6.09019
 30
0.0
 40
0.816453
100
AcDbArc
 50
138.842374
 51
149.050755
  0
ARC
  5
515
330
1F
100
AcDbEntity
  8
WHITE
  6
AUSGEZOGEN
 62
     7
370
    25
100
AcDbCircle
 10
10.150775
 20
6.656592
 30
0.0
 40
0.072709
100
AcDbArc
 50
336.435494
 51
99.403005
  0
ARC
  5
516
330
1F
100
AcDbEntity
  8
WHITE
  6
AUSGEZOGEN
 62
     7
370
    25
100
AcDbCircle
 10
10.14092
 20
6.597374
 30
0.0
 40
0.130966
100
AcDbArc
 50
90.88595
 51
122.8819
  0
ARC
  5
517
330
1F
100
AcDbEntity
  8
WHITE
  6
AUSGEZOGEN
 62
     7
370
    25
100
AcDbCircle
 10
10.318532
 20
6.324791
 30
0.0
 40
0.456307
100
AcDbArc
 50
123.028587
 51
127.102142
  0
ARC
  5
518
330
1F
100
AcDbEntity
  8
WHITE
  6
AUSGEZOGEN
 62
     7
370
    25
100
AcDbCircle
 10
10.751523
 20
5.916297
 30
0.0
 40
1.047982
100
AcDbArc
 50
132.51833
 51
138.786364
  0
ARC
  5
519
330
1F
100
AcDbEntity
  8
WHITE
  6
AUSGEZOGEN
 62
     7
370
    25
100
AcDbCircle
 10
10.069773
 20
6.504897
 30
0.0
 40
0.147459
100
AcDbArc
 50
136.297017
 51
165.886313
  0
ARC
  5
51A
330
1F
100
AcDbEntity
  8
WHITE
  6
AUSGEZOGEN
 62
     7
370
    25
100
AcDbCircle
 10
9.813831
 20
6.500726
 30
0.0
 40
0.119852
100
AcDbArc
 50
305.315758
 51
19.56158
  0
ARC
  5
51B
330
1F
100
AcDbEntity
  8
WHITE
  6
AUSGEZOGEN
 62
     7
370
    25
100
AcDbCircle
 10
9.88836
 20
6.036403
 30
0.0
 40
0.366564
100
AcDbArc
 50
90.819829
 51
113.679566
  0
ARC
  5
51C
330
1F
100
AcDbEntity
  8
WHITE
  6
AUSGEZOGEN
 62
     7
370
    25
100
AcDbCircle
 10
9.783755
 20
6.305144
 30
0.0
 40
0.079371
100
AcDbArc
 50
122.4737
 51
254.813
  0
LINE
  5
51D
330
1F
100
AcDbEntity
  8
WHITE
  6
AUSGEZOGEN
 62
     7
370
    25
100
AcDbLine
 10
9.762963
 20
6.228546
 30
0.0
 11
10.01609
 21
6.159029
 31
0.0
  0
ARC
  5
51E
330
1F
100
AcDbEntity
  8
WHITE
  6
AUSGEZOGEN
 62
     7
370
    25
100
AcDbCircle
 10
10.010027
 20
6.137021
 30
0.0
 40
0.022828
100
AcDbArc
 50
344.457697
 51
74.596735
  0
LINE
  5
51F
330
1F
100
AcDbEntity
  8
WHITE
  6
AUSGEZOGEN
 62
     7
370
    25
100
AcDbLine
 10
10.03202
 20
6.130904
 30
0.0
 11
10.026395
 21
6.110249
 31
0.0
  0
ARC
  5
520
330
1F
100
AcDbEntity
  8
WHITE
  6
AUSGEZOGEN
 62
     7
370
    25
100
AcDbCircle
 10
10.0043
 20
6.116234
 30
0.0
 40
0.022891
100
AcDbArc
 50
254.131099
 51
344.843667
  0
LINE
  5
521
330
1F
100
AcDbEntity
  8
WHITE
  6
AUSGEZOGEN
 62
     7
370
    25
100
AcDbLine
 10
9.998041
 20
6.094216
 30
0.0
 11
9.76472
 21
6.160199
 31
0.0
  0
ARC
  5
522
330
1F
100
AcDbEntity
  8
WHITE
  6
AUSGEZOGEN
 62
     7
370
    25
100
AcDbCircle
 10
9.73889
 20
6.069389
 30
0.0
 40
0.094412
100
AcDbArc
 50
74.122126
 51
175.1592
  0
ARC
  5
523
330
1F
100
AcDbEntity
  8
WHITE
  6
AUSGEZOGEN
 62
     7
370
    25
100
AcDbCircle
 10
9.753742
 20
6.06914
 30
0.0
 40
0.109236
100
AcDbArc
 50
175.686007
 51
224.038764
  0
ARC
  5
524
330
1F
100
AcDbEntity
  8
WHITE
  6
AUSGEZOGEN
 62
     7
370
    25
100
AcDbCircle
 10
9.816425
 20
6.161369
 30
0.0
 40
0.21959
100
AcDbArc
 50
229.9794
 51
245.6882
  0
ARC
  5
525
330
1F
100
AcDbEntity
  8
WHITE
  6
AUSGEZOGEN
 62
     7
370
    25
100
AcDbCircle
 10
9.611771
 20
5.677076
 30
0.0
 40
0.306284
100
AcDbArc
 50
54.62988
 51
68.098163
  0
ARC
  5
526
330
1F
100
AcDbEntity
  8
WHITE
  6
AUSGEZOGEN
 62
     7
370
    25
100
AcDbCircle
 10
9.585126
 20
5.754793
 30
0.0
 40
0.26681
100
AcDbArc
 50
1.875413
 51
40.149774
  0
ARC
  5
527
330
1F
100
AcDbEntity
  8
WHITE
  6
AUSGEZOGEN
 62
     7
370
    25
100
AcDbCircle
 10
15.904425
 20
5.958408
 30
0.0
 40
6.055769
100
AcDbArc
 50
181.84418
 51
182.564294
  0
ARC
  5
528
330
1F
100
AcDbEntity
  8
WHITE
  6
AUSGEZOGEN
 62
     7
370
    25
100
AcDbCircle
 10
12.601701
 20
5.66791
 30
0.0
 40
2.74705
100
AcDbArc
 50
179.592038
 51
182.333231
  0
ARC
  5
529
330
1F
100
AcDbEntity
  8
WHITE
  6
AUSGEZOGEN
 62
     7
370
    25
100
AcDbCircle
 10
10.180921
 20
5.569417
 30
0.0
 40
0.324268
100
AcDbArc
 50
182.358117
 51
204.747941
  0
ARC
  5
52A
330
1F
100
AcDbEntity
  8
WHITE
  6
AUSGEZOGEN
 62
     7
370
    25
100
AcDbCircle
 10
9.705423
 20
5.089767
 30
0.0
 40
0.388631
100
AcDbArc
 50
35.469077
 51
62.240105
  0
LINE
  5
52B
330
1F
100
AcDbEntity
  8
WHITE
  6
AUSGEZOGEN
 62
     7
370
    25
100
AcDbLine
 10
10.021935
 20
5.315275
 30
0.0
 11
10.124043
 21
5.196749
 31
0.0
  0
ARC
  5
52C
330
1F
100
AcDbEntity
  8
WHITE
  6
AUSGEZOGEN
 62
     7
370
    25
100
AcDbCircle
 10
13.171683
 20
9.98027
 30
0.0
 40
5.671876
100
AcDbArc
 50
237.498287
 51
239.302862
  0
ARC
  5
52D
330
1F
100
AcDbEntity
  8
WHITE
  6
AUSGEZOGEN
 62
     7
370
    25
100
AcDbCircle
 10
10.389505
 20
5.29185
 30
0.0
 40
0.220109
100
AcDbArc
 50
239.015202
 51
68.522389
  0
ARC
  5
52E
330
1F
100
AcDbEntity
  8
WHITE
  6
AUSGEZOGEN
 62
     7
370
    25
100
AcDbCircle
 10
10.701755
 20
6.080504
 30
0.0
 40
0.628111
100
AcDbArc
 50
238.452
 51
248.3571
  0
ARC
  5
52F
330
1F
100
AcDbEntity
  8
WHITE
  6
AUSGEZOGEN
 62
     7
370
    25
100
AcDbCircle
 10
10.484676
 20
5.650975
 30
0.0
 40
0.153713
100
AcDbArc
 50
183.842988
 51
223.469177
  0
ARC
  5
530
330
1F
100
AcDbEntity
  8
WHITE
  6
AUSGEZOGEN
 62
     7
370
    25
100
AcDbCircle
 10
10.670523
 20
5.697753
 30
0.0
 40
0.343983
100
AcDbArc
 50
174.515414
 51
189.551757
  0
ARC
  5
531
330
1F
100
AcDbEntity
  8
WHITE
  6
AUSGEZOGEN
 62
     7
370
    25
100
AcDbCircle
 10
10.16234
 20
5.746641
 30
0.0
 40
0.166546
100
AcDbArc
 50
354.483598
 51
47.191826
  0
ARC
  5
532
330
1F
100
AcDbEntity
  8
WHITE
  6
AUSGEZOGEN
 62
     7
370
    25
100
AcDbCircle
 10
10.325645
 20
5.922869
 30
0.0
 40
0.073715
100
AcDbArc
 50
145.4464
 51
227.1522
  0
ARC
  5
533
330
1F
100
AcDbEntity
  8
WHITE
  6
AUSGEZOGEN
 62
     7
370
    25
100
AcDbCircle
 10
9.937739
 20
6.207096
 30
0.0
 40
0.407214
100
AcDbArc
 50
323.465496
 51
328.870911
  0
ARC
  5
534
330
1F
100
AcDbEntity
  8
WHITE
  6
AUSGEZOGEN
 62
     7
370
    25
100
AcDbCircle
 10
10.314968
 20
5.979123
 30
0.0
 40
0.033551
100
AcDbArc
 50
72.97665
 51
148.648678
  0
ARC
  5
535
330
1F
100
AcDbEntity
  8
WHITE
  6
AUSGEZOGEN
 62
     7
370
    25
100
AcDbCircle
 10
10.15289
 20
5.677484
 30
0.0
 40
0.375391
100
AcDbArc
 50
44.4997
 51
62.74689
  0
ARC
  5
536
330
1F
100
AcDbEntity
  8
WHITE
  6
AUSGEZOGEN
 62
     7
370
    25
100
AcDbCircle
 10
10.53062
 20
6.0486
 30
0.0
 40
0.154143
100
AcDbArc
 50
224.480191
 51
248.86675
  0
ARC
  5
537
330
1F
100
AcDbEntity
  8
WHITE
  6
AUSGEZOGEN
 62
     7
370
    25
100
AcDbCircle
 10
10.60243
 20
6.260373
 30
0.0
 40
0.377679
100
AcDbArc
 50
250.288598
 51
270.786659
  0
ARC
  5
538
330
1F
100
AcDbEntity
  8
WHITE
  6
AUSGEZOGEN
 62
     7
370
    25
100
AcDbCircle
 10
10.602652
 20
6.189629
 30
0.0
 40
0.30694
100
AcDbArc
 50
270.926569
 51
292.228148
  0
ARC
  5
539
330
1F
100
AcDbEntity
  8
WHITE
  6
AUSGEZOGEN
 62
     7
370
    25
100
AcDbCircle
 10
10.599875
 20
6.198584
 30
0.0
 40
0.316281
100
AcDbArc
 50
292.08
 51
306.8682
  0
ARC
  5
53A
330
1F
100
AcDbEntity
  8
WHITE
  6
AUSGEZOGEN
 62
     7
370
    25
100
AcDbCircle
 10
10.548542
 20
6.313342
 30
0.0
 40
0.439766
100
AcDbArc
 50
303.245955
 51
330.453568
  0
ARC
  5
53B
330
1F
100
AcDbEntity
  8
WHITE
  6
AUSGEZOGEN
 62
     7
370
    25
100
AcDbCircle
 10
10.369697
 20
6.415658
 30
0.0
 40
0.645809
100
AcDbArc
 50
330.381049
 51
342.301767
  0
ARC
  5
53C
330
1F
100
AcDbEntity
  8
WHITE
  6
AUSGEZOGEN
 62
     7
370
    25
100
AcDbCircle
 10
10.376496
 20
6.41269
 30
0.0
 40
0.63843
100
AcDbArc
 50
342.370065
 51
352.78471
  0
ARC
  5
53D
330
1F
100
AcDbEntity
  8
WHITE
  6
AUSGEZOGEN
 62
     7
370
    25
100
AcDbCircle
 10
10.272543
 20
6.375839
 30
0.0
 40
0.7386
100
AcDbArc
 50
356.636407
 51
22.205191
  0
ARC
  5
53E
330
1F
100
AcDbEntity
  8
WHITE
  6
AUSGEZOGEN
 62
     7
370
    25
100
AcDbCircle
 10
10.310867
 20
6.406054
 30
0.0
 40
0.69183
100
AcDbArc
 50
21.087867
 51
49.70168
  0
ARC
  5
53F
330
1F
100
AcDbEntity
  8
WHITE
  6
AUSGEZOGEN
 62
     7
370
    25
100
AcDbCircle
 10
10.19924
 20
6.319004
 30
0.0
 40
0.830919
100
AcDbArc
 50
47.71295
 51
100.2352
  0
ARC
  5
540
330
1F
100
AcDbEntity
  8
WHITE
  6
AUSGEZOGEN
 62
     7
370
    25
100
AcDbCircle
 10
10.037738
 20
6.902924
 30
0.0
 40
0.234187
100
AcDbArc
 50
86.607902
 51
114.778043
  0
ARC
  5
541
330
1F
100
AcDbEntity
  8
WHITE
  6
AUSGEZOGEN
 62
     7
370
    25
100
AcDbCircle
 10
9.959088
 20
7.07134
 30
0.0
 40
0.04832
100
AcDbArc
 50
113.798919
 51
271.158682
  0
LINE
  5
542
330
1F
100
AcDbEntity
  8
WHITE
  6
AUSGEZOGEN
 62
     7
370
    25
100
AcDbLine
 10
9.960065
 20
7.023029
 30
0.0
 11
10.37357
 21
6.923624
 31
0.0
  0
ARC
  5
543
330
1F
100
AcDbEntity
  8
WHITE
  6
AUSGEZOGEN
 62
     7
370
    25
100
AcDbCircle
 10
10.304034
 20
6.626046
 30
0.0
 40
0.305595
100
AcDbArc
 50
59.944017
 51
76.847531
  0
ARC
  5
544
330
1F
100
AcDbEntity
  8
WHITE
  6
AUSGEZOGEN
 62
     7
370
    25
100
AcDbCircle
 10
10.393502
 20
6.828685
 30
0.0
 40
0.088717
100
AcDbArc
 50
17.223554
 51
44.212723
  0
ARC
  5
545
330
1F
100
AcDbEntity
  8
WHITE
  6
AUSGEZOGEN
 62
     7
370
    25
100
AcDbCircle
 10
11.030165
 20
7.027079
 30
0.0
 40
0.578142
100
AcDbArc
 50
197.3208
 51
214.0859
  0
ARC
  5
546
330
1F
100
AcDbEntity
  8
WHITE
  6
AUSGEZOGEN
 62
     7
370
    25
100
AcDbCircle
 10
10.089493
 20
6.390778
 30
0.0
 40
0.557527
100
AcDbArc
 50
9.411654
 51
34.065153
  0
ARC
  5
547
330
1F
100
AcDbEntity
  8
WHITE
  6
AUSGEZOGEN
 62
     7
370
    25
100
AcDbCircle
 10
10.570261
 20
6.470424
 30
0.0
 40
0.070207
100
AcDbArc
 50
319.710994
 51
9.447566
  0
LINE
  5
548
330
1F
100
AcDbEntity
  8
WHITE
  6
AUSGEZOGEN
 62
     7
370
    25
100
AcDbLine
 10
10.623814
 20
6.425026
 30
0.0
 11
10.60982
 21
6.412424
 31
0.0
  0
LINE
  5
549
330
1F
100
AcDbEntity
  8
WHITE
  6
AUSGEZOGEN
 62
     7
370
    25
100
AcDbLine
 10
7.588521
 20
2.33812
 30
0.0
 11
7.575066
 21
2.280705
 31
0.0
  0
ARC
  5
54A
330
1F
100
AcDbEntity
  8
WHITE
  6
AUSGEZOGEN
 62
     7
370
    25
100
AcDbCircle
 10
7.214581
 20
2.366662
 30
0.0
 40
0.370591
100
AcDbArc
 50
304.840119
 51
346.588321
  0
ARC
  5
54B
330
1F
100
AcDbEntity
  8
WHITE
  6
AUSGEZOGEN
 62
     7
370
    25
100
AcDbCircle
 10
7.22708
 20
2.362919
 30
0.0
 40
0.36047
100
AcDbArc
 50
274.3817
 51
303.5492
  0
LINE
  5
54C
330
1F
100
AcDbEntity
  8
WHITE
  6
AUSGEZOGEN
 62
     7
370
    25
100
AcDbLine
 10
7.254621
 20
2.003503
 30
0.0
 11
7.235315
 21
2.002424
 31
0.0
  0
ARC
  5
54D
330
1F
100
AcDbEntity
  8
WHITE
  6
AUSGEZOGEN
 62
     7
370
    25
100
AcDbCircle
 10
7.23523
 20
3.103079
 30
0.0
 40
1.100654
100
AcDbArc
 50
260.44961
 51
270.004426
  0
ARC
  5
54E
330
1F
100
AcDbEntity
  8
WHITE
  6
AUSGEZOGEN
 62
     7
370
    25
100
AcDbCircle
 10
7.049012
 20
1.99536
 30
0.0
 40
0.022608
100
AcDbArc
 50
80.828308
 51
161.311102
  0
LINE
  5
54F
330
1F
100
AcDbEntity
  8
WHITE
  6
AUSGEZOGEN
 62
     7
370
    25
100
AcDbLine
 10
7.027595
 20
2.002604
 30
0.0
 11
6.980615
 21
1.858199
 31
0.0
  0
ARC
  5
550
330
1F
100
AcDbEntity
  8
WHITE
  6
AUSGEZOGEN
 62
     7
370
    25
100
AcDbCircle
 10
6.959246
 20
1.865143
 30
0.0
 40
0.02247
100
AcDbArc
 50
251.781215
 51
342.000793
  0
LINE
  5
551
330
1F
100
AcDbEntity
  8
WHITE
  6
AUSGEZOGEN
 62
     7
370
    25
100
AcDbLine
 10
6.95222
 20
1.843799
 30
0.0
 11
6.93089
 21
1.850729
 31
0.0
  0
ARC
  5
552
330
1F
100
AcDbEntity
  8
WHITE
  6
AUSGEZOGEN
 62
     7
370
    25
100
AcDbCircle
 10
6.937775
 20
1.872104
 30
0.0
 40
0.022456
100
AcDbArc
 50
161.782702
 51
252.145977
  0
LINE
  5
553
330
1F
100
AcDbEntity
  8
WHITE
  6
AUSGEZOGEN
 62
     7
370
    25
100
AcDbLine
 10
6.916445
 20
1.879125
 30
0.0
 11
6.963065
 21
2.024204
 31
0.0
  0
ARC
  5
554
330
1F
100
AcDbEntity
  8
WHITE
  6
AUSGEZOGEN
 62
     7
370
    25
100
AcDbCircle
 10
6.941724
 20
2.031144
 30
0.0
 40
0.022441
100
AcDbArc
 50
341.986841
 51
62.114704
  0
ARC
  5
555
330
1F
100
AcDbEntity
  8
WHITE
  6
AUSGEZOGEN
 62
     7
370
    25
100
AcDbCircle
 10
7.340695
 20
2.776298
 30
0.0
 40
0.8228
100
AcDbArc
 50
230.571329
 51
241.826848
  0
ARC
  5
556
330
1F
100
AcDbEntity
  8
WHITE
  6
AUSGEZOGEN
 62
     7
370
    25
100
AcDbCircle
 10
7.11955
 20
2.505576
 30
0.0
 40
0.473238
100
AcDbArc
 50
217.192684
 51
230.435116
  0
ARC
  5
557
330
1F
100
AcDbEntity
  8
WHITE
  6
AUSGEZOGEN
 62
     7
370
    25
100
AcDbCircle
 10
7.117997
 20
2.506854
 30
0.0
 40
0.472777
100
AcDbArc
 50
205.811749
 51
217.429868
  0
ARC
  5
558
330
1F
100
AcDbEntity
  8
WHITE
  6
AUSGEZOGEN
 62
     7
370
    25
100
AcDbCircle
 10
7.017155
 20
2.425827
 30
0.0
 40
0.347929
100
AcDbArc
 50
157.969696
 51
201.024942
  0
ARC
  5
559
330
1F
100
AcDbEntity
  8
WHITE
  6
AUSGEZOGEN
 62
     7
370
    25
100
AcDbCircle
 10
8.680483
 20
1.756246
 30
0.0
 40
2.140971
100
AcDbArc
 50
154.97526
 51
158.055813
  0
ARC
  5
55A
330
1F
100
AcDbEntity
  8
WHITE
  6
AUSGEZOGEN
 62
     7
370
    25
100
AcDbCircle
 10
7.274016
 20
2.42871
 30
0.0
 40
0.582255
100
AcDbArc
 50
144.62363
 51
156.391181
  0
ARC
  5
55B
330
1F
100
AcDbEntity
  8
WHITE
  6
AUSGEZOGEN
 62
     7
370
    25
100
AcDbCircle
 10
5.868936
 20
3.425011
 30
0.0
 40
1.140204
100
AcDbArc
 50
324.679599
 51
338.396317
  0
ARC
  5
55C
330
1F
100
AcDbEntity
  8
WHITE
  6
AUSGEZOGEN
 62
     7
370
    25
100
AcDbCircle
 10
6.889491
 20
3.002945
 30
0.0
 40
0.039618
100
AcDbArc
 50
3.271663
 51
47.127872
  0
ARC
  5
55D
330
1F
100
AcDbEntity
  8
WHITE
  6
AUSGEZOGEN
 62
     7
370
    25
100
AcDbCircle
 10
6.857461
 20
2.968834
 30
0.0
 40
0.086409
100
AcDbArc
 50
46.951405
 51
69.554384
  0
ARC
  5
55E
330
1F
100
AcDbEntity
  8
WHITE
  6
AUSGEZOGEN
 62
     7
370
    25
100
AcDbCircle
 10
6.864813
 20
2.946123
 30
0.0
 40
0.106161
100
AcDbArc
 50
77.579923
 51
107.581494
  0
ARC
  5
55F
330
1F
100
AcDbEntity
  8
WHITE
  6
AUSGEZOGEN
 62
     7
370
    25
100
AcDbCircle
 10
6.91955
 20
2.807745
 30
0.0
 40
0.254821
100
AcDbArc
 50
109.9165
 51
122.4581
  0
ARC
  5
560
330
1F
100
AcDbEntity
  8
WHITE
  6
AUSGEZOGEN
 62
     7
370
    25
100
AcDbCircle
 10
7.856465
 20
1.629656
 30
0.0
 40
1.758837
100
AcDbArc
 50
127.621655
 51
143.609483
  0
ARC
  5
561
330
1F
100
AcDbEntity
  8
WHITE
  6
AUSGEZOGEN
 62
     7
370
    25
100
AcDbCircle
 10
7.157098
 20
2.09948
 30
0.0
 40
0.917847
100
AcDbArc
 50
141.316645
 51
173.787618
  0
ARC
  5
562
330
1F
100
AcDbEntity
  8
WHITE
  6
AUSGEZOGEN
 62
     7
370
    25
100
AcDbCircle
 10
6.961264
 20
2.120716
 30
0.0
 40
0.720865
100
AcDbArc
 50
173.781207
 51
222.656673
  0
ARC
  5
563
330
1F
100
AcDbEntity
  8
WHITE
  6
AUSGEZOGEN
 62
     7
370
    25
100
AcDbCircle
 10
7.036536
 20
2.235449
 30
0.0
 40
0.854618
100
AcDbArc
 50
224.894676
 51
292.074787
  0
ARC
  5
564
330
1F
100
AcDbEntity
  8
WHITE
  6
AUSGEZOGEN
 62
     7
370
    25
100
AcDbCircle
 10
6.928495
 20
2.235249
 30
0.0
 40
0.900627
100
AcDbArc
 50
298.462282
 51
359.256122
  0
ARC
  5
565
330
1F
100
AcDbEntity
  8
WHITE
  6
AUSGEZOGEN
 62
     7
370
    25
100
AcDbCircle
 10
4.94594
 20
2.260769
 30
0.0
 40
2.883345
100
AcDbArc
 50
359.2605
 51
9.262248
  0
ARC
  5
566
330
1F
100
AcDbEntity
  8
WHITE
  6
AUSGEZOGEN
 62
     7
370
    25
100
AcDbCircle
 10
7.715191
 20
2.717933
 30
0.0
 40
0.076814
100
AcDbArc
 50
5.169164
 51
124.379411
  0
ARC
  5
567
330
1F
100
AcDbEntity
  8
WHITE
  6
AUSGEZOGEN
 62
     7
370
    25
100
AcDbCircle
 10
8.30681
 20
2.534369
 30
0.0
 40
0.681328
100
AcDbArc
 50
158.7481
 51
174.5462
  0
ARC
  5
568
330
1F
100
AcDbEntity
  8
WHITE
  6
AUSGEZOGEN
 62
     7
370
    25
100
AcDbCircle
 10
5.079624
 20
2.839253
 30
0.0
 40
2.560229
100
AcDbArc
 50
351.920561
 51
354.618219
  0
ARC
  5
569
330
1F
100
AcDbEntity
  8
WHITE
  6
AUSGEZOGEN
 62
     7
370
    25
100
AcDbCircle
 10
5.842068
 20
2.731505
 30
0.0
 40
1.790209
100
AcDbArc
 50
347.306086
 51
351.905192
  0
ARC
  5
56A
330
1F
100
AcDbEntity
  8
WHITE
  6
AUSGEZOGEN
 62
     7
370
    25
100
AcDbCircle
 10
5.100531
 20
8.973007
 30
0.0
 40
0.335382
100
AcDbArc
 50
103.788724
 51
183.938154
  0
ARC
  5
56B
330
1F
100
AcDbEntity
  8
WHITE
  6
AUSGEZOGEN
 62
     7
370
    25
100
AcDbCircle
 10
7.266815
 20
8.946714
 30
0.0
 40
2.500876
100
AcDbArc
 50
179.925323
 51
183.170322
  0
ARC
  5
56C
330
1F
100
AcDbEntity
  8
WHITE
  6
AUSGEZOGEN
 62
     7
370
    25
100
AcDbCircle
 10
4.454496
 20
8.791349
 30
0.0
 40
0.315731
100
AcDbArc
 50
338.7672
 51
3.096482
  0
ARC
  5
56D
330
1F
100
AcDbEntity
  8
WHITE
  6
AUSGEZOGEN
 62
     7
370
    25
100
AcDbCircle
 10
4.718644
 20
8.708235
 30
0.0
 40
0.043409
100
AcDbArc
 50
261.350681
 51
313.992276
  0
ARC
  5
56E
330
1F
100
AcDbEntity
  8
WHITE
  6
AUSGEZOGEN
 62
     7
370
    25
100
AcDbCircle
 10
4.721278
 20
8.754915
 30
0.0
 40
0.090062
100
AcDbArc
 50
236.057454
 51
264.161129
  0
ARC
  5
56F
330
1F
100
AcDbEntity
  8
WHITE
  6
AUSGEZOGEN
 62
     7
370
    25
100
AcDbCircle
 10
6.190865
 20
9.540824
 30
0.0
 40
1.746624
100
AcDbArc
 50
203.1592
 51
209.5206
  0
ARC
  5
570
330
1F
100
AcDbEntity
  8
WHITE
  6
AUSGEZOGEN
 62
     7
370
    25
100
AcDbCircle
 10
6.051279
 20
9.481364
 30
0.0
 40
1.594901
100
AcDbArc
 50
191.836319
 51
203.167407
  0
ARC
  5
571
330
1F
100
AcDbEntity
  8
WHITE
  6
AUSGEZOGEN
 62
     7
370
    25
100
AcDbCircle
 10
5.229784
 20
9.29156
 30
0.0
 40
0.752139
100
AcDbArc
 50
342.788933
 51
190.520959
  0
ARC
  5
572
330
1F
100
AcDbEntity
  8
WHITE
  6
AUSGEZOGEN
 62
     7
370
    25
100
AcDbCircle
 10
1.69015
 20
10.980405
 30
0.0
 40
4.667418
100
AcDbArc
 50
332.313675
 51
335.825368
  0
ARC
  5
573
330
1F
100
AcDbEntity
  8
WHITE
  6
AUSGEZOGEN
 62
     7
370
    25
100
AcDbCircle
 10
5.21567
 20
9.104279
 30
0.0
 40
0.674249
100
AcDbArc
 50
311.0791
 51
334.29
  0
ARC
  5
574
330
1F
100
AcDbEntity
  8
WHITE
  6
AUSGEZOGEN
 62
     7
370
    25
100
AcDbCircle
 10
5.632528
 20
8.6434
 30
0.0
 40
0.054131
100
AcDbArc
 50
260.743234
 51
298.938027
  0
ARC
  5
575
330
1F
100
AcDbEntity
  8
WHITE
  6
AUSGEZOGEN
 62
     7
370
    25
100
AcDbCircle
 10
5.630795
 20
8.674979
 30
0.0
 40
0.085291
100
AcDbArc
 50
237.8281
 51
265.3092
  0
ARC
  5
576
330
1F
100
AcDbEntity
  8
WHITE
  6
AUSGEZOGEN
 62
     7
370
    25
100
AcDbCircle
 10
5.778709
 20
8.665742
 30
0.0
 40
0.20332
100
AcDbArc
 50
172.73645
 51
198.03788
  0
ARC
  5
577
330
1F
100
AcDbEntity
  8
WHITE
  6
AUSGEZOGEN
 62
     7
370
    25
100
AcDbCircle
 10
6.585299
 20
8.56404
 30
0.0
 40
1.016296
100
AcDbArc
 50
162.182984
 51
172.798129
  0
ARC
  5
578
330
1F
100
AcDbEntity
  8
WHITE
  6
AUSGEZOGEN
 62
     7
370
    25
100
AcDbCircle
 10
5.23439
 20
8.932872
 30
0.0
 40
0.387698
100
AcDbArc
 50
351.41595
 51
81.462657
  0
ARC
  5
579
330
1F
100
AcDbEntity
  8
WHITE
  6
AUSGEZOGEN
 62
     7
370
    25
100
AcDbCircle
 10
5.295411
 20
9.338553
 30
0.0
 40
0.022546
100
AcDbArc
 50
179.43652
 51
261.159397
  0
LINE
  5
57A
330
1F
100
AcDbEntity
  8
WHITE
  6
AUSGEZOGEN
 62
     7
370
    25
100
AcDbLine
 10
5.272865
 20
9.338774
 30
0.0
 11
5.275745
 21
9.536954
 31
0.0
  0
ARC
  5
57B
330
1F
100
AcDbEntity
  8
WHITE
  6
AUSGEZOGEN
 62
     7
370
    25
100
AcDbCircle
 10
5.25284
 20
9.537224
 30
0.0
 40
0.022907
100
AcDbArc
 50
359.324639
 51
88.986721
  0
LINE
  5
57C
330
1F
100
AcDbEntity
  8
WHITE
  6
AUSGEZOGEN
 62
     7
370
    25
100
AcDbLine
 10
5.253246
 20
9.560127
 30
0.0
 11
5.23142
 21
9.560399
 31
0.0
  0
ARC
  5
57D
330
1F
100
AcDbEntity
  8
WHITE
  6
AUSGEZOGEN
 62
     7
370
    25
100
AcDbCircle
 10
5.231149
 20
9.537494
 30
0.0
 40
0.022907
100
AcDbArc
 50
89.319664
 51
178.986987
  0
LINE
  5
57E
330
1F
100
AcDbEntity
  8
WHITE
  6
AUSGEZOGEN
 62
     7
370
    25
100
AcDbLine
 10
5.208245
 20
9.537899
 30
0.0
 11
5.20559
 21
9.347054
 31
0.0
  0
ARC
  5
57F
330
1F
100
AcDbEntity
  8
WHITE
  6
AUSGEZOGEN
 62
     7
370
    25
100
AcDbCircle
 10
5.18309
 20
9.347504
 30
0.0
 40
0.022504
100
AcDbArc
 50
270.458099
 51
358.854237
  0
ARC
  5
580
330
1F
100
AcDbEntity
  8
WHITE
  6
AUSGEZOGEN
 62
     7
370
    25
100
AcDbCircle
 10
5.187306
 20
8.784329
 30
0.0
 40
0.540686
100
AcDbArc
 50
90.427612
 51
105.717884
  0
LINE
  5
581
330
1F
100
AcDbEntity
  8
WHITE
  6
AUSGEZOGEN
 62
     7
370
    25
100
AcDbLine
 10
5.040833
 20
9.304798
 30
0.0
 11
5.020595
 21
9.298724
 31
0.0
  0
ARC
  5
582
330
1F
100
AcDbEntity
  8
WHITE
  6
AUSGEZOGEN
 62
     7
370
    25
100
AcDbCircle
 10
6.851058
 20
3.117662
 30
0.0
 40
0.720408
100
AcDbArc
 50
45.262865
 51
146.971098
  0
ARC
  5
583
330
1F
100
AcDbEntity
  8
WHITE
  6
AUSGEZOGEN
 62
     7
370
    25
100
AcDbCircle
 10
6.93719
 20
3.106769
 30
0.0
 40
0.671062
100
AcDbArc
 50
314.8859
 51
51.15178
  0
ARC
  5
584
330
1F
100
AcDbEntity
  8
WHITE
  6
AUSGEZOGEN
 62
     7
370
    25
100
AcDbCircle
 10
6.399843
 20
3.42183
 30
0.0
 40
1.283302
100
AcDbArc
 50
302.080284
 51
321.975211
  0
ARC
  5
585
330
1F
100
AcDbEntity
  8
WHITE
  6
AUSGEZOGEN
 62
     7
370
    25
100
AcDbCircle
 10
7.047535
 20
2.402049
 30
0.0
 40
0.075585
100
AcDbArc
 50
144.537816
 51
296.629524
  0
ARC
  5
586
330
1F
100
AcDbEntity
  8
WHITE
  6
AUSGEZOGEN
 62
     7
370
    25
100
AcDbCircle
 10
5.212025
 20
3.628184
 30
0.0
 40
2.131825
100
AcDbArc
 50
326.3177
 51
333.1483
  0
ARC
  5
587
330
1F
100
AcDbEntity
  8
WHITE
  6
AUSGEZOGEN
 62
     7
370
    25
100
AcDbCircle
 10
6.748101
 20
2.83551
 30
0.0
 40
0.403556
100
AcDbArc
 50
335.049453
 51
59.311278
  0
ARC
  5
588
330
1F
100
AcDbEntity
  8
WHITE
  6
AUSGEZOGEN
 62
     7
370
    25
100
AcDbCircle
 10
6.965549
 20
3.20188
 30
0.0
 40
0.022484
100
AcDbArc
 50
161.996424
 51
239.287603
  0
LINE
  5
589
330
1F
100
AcDbEntity
  8
WHITE
  6
AUSGEZOGEN
 62
     7
370
    25
100
AcDbLine
 10
6.944165
 20
3.208829
 30
0.0
 11
6.98579
 21
3.336674
 31
0.0
  0
ARC
  5
58A
330
1F
100
AcDbEntity
  8
WHITE
  6
AUSGEZOGEN
 62
     7
370
    25
100
AcDbCircle
 10
6.963965
 20
3.343693
 30
0.0
 40
0.022926
100
AcDbArc
 50
342.172289
 51
71.814022
  0
LINE
  5
58B
330
1F
100
AcDbEntity
  8
WHITE
  6
AUSGEZOGEN
 62
     7
370
    25
100
AcDbLine
 10
6.97112
 20
3.365474
 30
0.0
 11
6.950465
 21
3.372179
 31
0.0
  0
ARC
  5
58C
330
1F
100
AcDbEntity
  8
WHITE
  6
AUSGEZOGEN
 62
     7
370
    25
100
AcDbCircle
 10
6.943433
 20
3.350358
 30
0.0
 40
0.022926
100
AcDbArc
 50
72.137086
 51
161.706971
  0
LINE
  5
58D
330
1F
100
AcDbEntity
  8
WHITE
  6
AUSGEZOGEN
 62
     7
370
    25
100
AcDbLine
 10
6.921665
 20
3.357554
 30
0.0
 11
6.88319
 21
3.239249
 31
0.0
  0
ARC
  5
58E
330
1F
100
AcDbEntity
  8
WHITE
  6
AUSGEZOGEN
 62
     7
370
    25
100
AcDbCircle
 10
6.86177
 20
3.245999
 30
0.0
 40
0.022458
100
AcDbArc
 50
254.401799
 51
342.509003
  0
ARC
  5
58F
330
1F
100
AcDbEntity
  8
WHITE
  6
AUSGEZOGEN
 62
     7
370
    25
100
AcDbCircle
 10
6.748285
 20
2.835459
 30
0.0
 40
0.403478
100
AcDbArc
 50
74.555765
 51
155.015053
  0
ARC
  5
590
330
1F
100
AcDbEntity
  8
WHITE
  6
AUSGEZOGEN
 62
     7
370
    25
100
AcDbCircle
 10
-10.314393
 20
7.290198
 30
0.0
 40
17.237859
100
AcDbArc
 50
344.874856
 51
345.608798
  0
ARC
  5
591
330
1F
100
AcDbEntity
  8
WHITE
  6
AUSGEZOGEN
 62
     7
370
    25
100
AcDbCircle
 10
6.059351
 20
2.871175
 30
0.0
 40
0.278357
100
AcDbArc
 50
316.899541
 51
343.550948
  0
ARC
  5
592
330
1F
100
AcDbEntity
  8
WHITE
  6
AUSGEZOGEN
 62
     7
370
    25
100
AcDbCircle
 10
6.237841
 20
2.720768
 30
0.0
 40
0.04686
100
AcDbArc
 50
208.643968
 51
301.888038
  0
ARC
  5
593
330
1F
100
AcDbEntity
  8
WHITE
  6
AUSGEZOGEN
 62
     7
370
    25
100
AcDbCircle
 10
6.530435
 20
2.881274
 30
0.0
 40
0.380588
100
AcDbArc
 50
182.0396
 51
208.7348
  0
ARC
  5
594
330
1F
100
AcDbEntity
  8
WHITE
  6
AUSGEZOGEN
 62
     7
370
    25
100
AcDbCircle
 10
8.169468
 20
2.938097
 30
0.0
 40
2.020604
100
AcDbArc
 50
167.594567
 51
181.995724
  0
ARC
  5
595
330
1F
100
AcDbEntity
  8
WHITE
  6
AUSGEZOGEN
 62
     7
370
    25
100
AcDbCircle
 10
7.406315
 20
3.002999
 30
0.0
 40
1.26533
100
AcDbArc
 50
156.8817
 51
163.0363
  0
LINE
  5
596
330
1F
100
AcDbEntity
  8
WHITE
  6
AUSGEZOGEN
 62
     7
370
    25
100
AcDbLine
 10
6.242597
 20
3.499806
 30
0.0
 11
6.24707
 21
3.510329
 31
0.0
  0
ARC
  5
597
330
1F
100
AcDbEntity
  8
WHITE
  6
AUSGEZOGEN
 62
     7
370
    25
100
AcDbCircle
 10
2.701572
 20
3.948384
 30
0.0
 40
0.078771
100
AcDbArc
 50
131.77364
 51
319.64157
  0
ARC
  5
598
330
1F
100
AcDbEntity
  8
WHITE
  6
AUSGEZOGEN
 62
     7
370
    25
100
AcDbCircle
 10
2.830593
 20
3.831255
 30
0.0
 40
0.095564
100
AcDbArc
 50
47.205953
 51
136.220034
  0
ARC
  5
599
330
1F
100
AcDbEntity
  8
WHITE
  6
AUSGEZOGEN
 62
     7
370
    25
100
AcDbCircle
 10
2.98353
 20
3.996964
 30
0.0
 40
0.129935
100
AcDbArc
 50
227.361188
 51
307.91027
  0
ARC
  5
59A
330
1F
100
AcDbEntity
  8
WHITE
  6
AUSGEZOGEN
 62
     7
370
    25
100
AcDbCircle
 10
3.169275
 20
3.758554
 30
0.0
 40
0.172291
100
AcDbArc
 50
76.628058
 51
127.930917
  0
ARC
  5
59B
330
1F
100
AcDbEntity
  8
WHITE
  6
AUSGEZOGEN
 62
     7
370
    25
100
AcDbCircle
 10
3.186667
 20
3.815388
 30
0.0
 40
0.113039
100
AcDbArc
 50
274.543291
 51
78.54261
  0
ARC
  5
59C
330
1F
100
AcDbEntity
  8
WHITE
  6
AUSGEZOGEN
 62
     7
370
    25
100
AcDbCircle
 10
3.121865
 20
4.607384
 30
0.0
 40
0.907682
100
AcDbArc
 50
267.0729
 51
274.6608
  0
ARC
  5
59D
330
1F
100
AcDbEntity
  8
WHITE
  6
AUSGEZOGEN
 62
     7
370
    25
100
AcDbCircle
 10
3.072078
 20
3.6375
 30
0.0
 40
0.06348
100
AcDbArc
 50
86.89693
 51
182.845723
  0
ARC
  5
59E
330
1F
100
AcDbEntity
  8
WHITE
  6
AUSGEZOGEN
 62
     7
370
    25
100
AcDbCircle
 10
3.218164
 20
3.644006
 30
0.0
 40
0.20971
100
AcDbArc
 50
182.639343
 51
206.37918
  0
ARC
  5
59F
330
1F
100
AcDbEntity
  8
WHITE
  6
AUSGEZOGEN
 62
     7
370
    25
100
AcDbCircle
 10
3.050371
 20
3.560933
 30
0.0
 40
0.022479
100
AcDbArc
 50
206.709302
 51
270.431393
  0
LINE
  5
5A0
330
1F
100
AcDbEntity
  8
WHITE
  6
AUSGEZOGEN
 62
     7
370
    25
100
AcDbLine
 10
3.05054
 20
3.538454
 30
0.0
 11
3.30839
 21
3.538454
 31
0.0
  0
ARC
  5
5A1
330
1F
100
AcDbEntity
  8
WHITE
  6
AUSGEZOGEN
 62
     7
370
    25
100
AcDbCircle
 10
3.30839
 20
3.515954
 30
0.0
 40
0.0225
100
AcDbArc
 50
0.0
 51
90.0
  0
LINE
  5
5A2
330
1F
100
AcDbEntity
  8
WHITE
  6
AUSGEZOGEN
 62
     7
370
    25
100
AcDbLine
 10
3.33089
 20
3.515954
 30
0.0
 11
3.33089
 21
3.493724
 31
0.0
  0
ARC
  5
5A3
330
1F
100
AcDbEntity
  8
WHITE
  6
AUSGEZOGEN
 62
     7
370
    25
100
AcDbCircle
 10
3.30839
 20
3.493724
 30
0.0
 40
0.0225
100
AcDbArc
 50
270.0
 51
0.0
  0
LINE
  5
5A4
330
1F
100
AcDbEntity
  8
WHITE
  6
AUSGEZOGEN
 62
     7
370
    25
100
AcDbLine
 10
3.30839
 20
3.471224
 30
0.0
 11
3.05459
 21
3.470954
 31
0.0
  0
ARC
  5
5A5
330
1F
100
AcDbEntity
  8
WHITE
  6
AUSGEZOGEN
 62
     7
370
    25
100
AcDbCircle
 10
3.05459
 20
3.448454
 30
0.0
 40
0.0225
100
AcDbArc
 50
90.0
 51
166.1025
  0
LINE
  5
5A6
330
1F
100
AcDbEntity
  8
WHITE
  6
AUSGEZOGEN
 62
     7
370
    25
100
AcDbLine
 10
3.032749
 20
3.453859
 30
0.0
 11
3.023315
 21
3.415649
 31
0.0
  0
ARC
  5
5A7
330
1F
100
AcDbEntity
  8
WHITE
  6
AUSGEZOGEN
 62
     7
370
    25
100
AcDbCircle
 10
3.090815
 20
3.377174
 30
0.0
 40
0.077695
100
AcDbArc
 50
150.31686
 51
268.8383
  0
ARC
  5
5A8
330
1F
100
AcDbEntity
  8
WHITE
  6
AUSGEZOGEN
 62
     7
370
    25
100
AcDbCircle
 10
3.402825
 20
9.148357
 30
0.0
 40
5.857263
100
AcDbArc
 50
266.931049
 51
268.082772
  0
ARC
  5
5A9
330
1F
100
AcDbEntity
  8
WHITE
  6
AUSGEZOGEN
 62
     7
370
    25
100
AcDbCircle
 10
3.191575
 20
3.177057
 30
0.0
 40
0.118308
100
AcDbArc
 50
247.167916
 51
82.574261
  0
ARC
  5
5AA
330
1F
100
AcDbEntity
  8
WHITE
  6
AUSGEZOGEN
 62
     7
370
    25
100
AcDbCircle
 10
3.06516
 20
2.942973
 30
0.0
 40
0.148721
100
AcDbArc
 50
57.225464
 51
126.296805
  0
ARC
  5
5AB
330
1F
100
AcDbEntity
  8
WHITE
  6
AUSGEZOGEN
 62
     7
370
    25
100
AcDbCircle
 10
2.904339
 20
3.161804
 30
0.0
 40
0.12285
100
AcDbArc
 50
269.849149
 51
306.331594
  0
ARC
  5
5AC
330
1F
100
AcDbEntity
  8
WHITE
  6
AUSGEZOGEN
 62
     7
370
    25
100
AcDbCircle
 10
4.20243
 20
28.166196
 30
0.0
 40
25.160765
100
AcDbArc
 50
266.684309
 51
267.041953
  0
ARC
  5
5AD
330
1F
100
AcDbEntity
  8
WHITE
  6
AUSGEZOGEN
 62
     7
370
    25
100
AcDbCircle
 10
2.743019
 20
2.98397
 30
0.0
 40
0.063717
100
AcDbArc
 50
86.241497
 51
251.417748
  0
ARC
  5
5AE
330
1F
100
AcDbEntity
  8
WHITE
  6
AUSGEZOGEN
 62
     7
370
    25
100
AcDbCircle
 10
3.336877
 20
4.544249
 30
0.0
 40
1.733142
100
AcDbArc
 50
249.245555
 51
261.649976
  0
ARC
  5
5AF
330
1F
100
AcDbEntity
  8
WHITE
  6
AUSGEZOGEN
 62
     7
370
    25
100
AcDbCircle
 10
3.225545
 20
3.763724
 30
0.0
 40
0.944729
100
AcDbArc
 50
261.4561
 51
284.1183
  0
ARC
  5
5B0
330
1F
100
AcDbEntity
  8
WHITE
  6
AUSGEZOGEN
 62
     7
370
    25
100
AcDbCircle
 10
3.424191
 20
3.398505
 30
0.0
 40
0.55189
100
AcDbArc
 50
273.302945
 51
300.66827
  0
ARC
  5
5B1
330
1F
100
AcDbEntity
  8
WHITE
  6
AUSGEZOGEN
 62
     7
370
    25
100
AcDbCircle
 10
3.662324
 20
3.006829
 30
0.0
 40
0.093668
100
AcDbArc
 50
297.580707
 51
71.551684
  0
ARC
  5
5B2
330
1F
100
AcDbEntity
  8
WHITE
  6
AUSGEZOGEN
 62
     7
370
    25
100
AcDbCircle
 10
3.738793
 20
3.183847
 30
0.0
 40
0.099828
100
AcDbArc
 50
107.971934
 51
242.025267
  0
LINE
  5
5B3
330
1F
100
AcDbEntity
  8
WHITE
  6
AUSGEZOGEN
 62
     7
370
    25
100
AcDbLine
 10
3.70799
 20
3.278804
 30
0.0
 11
3.83849
 21
3.326774
 31
0.0
  0
ARC
  5
5B4
330
1F
100
AcDbEntity
  8
WHITE
  6
AUSGEZOGEN
 62
     7
370
    25
100
AcDbCircle
 10
3.780171
 20
3.510554
 30
0.0
 40
0.192811
100
AcDbArc
 50
287.605879
 51
83.905079
  0
ARC
  5
5B5
330
1F
100
AcDbEntity
  8
WHITE
  6
AUSGEZOGEN
 62
     7
370
    25
100
AcDbCircle
 10
4.171733
 20
6.621207
 30
0.0
 40
2.942425
100
AcDbArc
 50
260.416135
 51
262.754735
  0
ARC
  5
5B6
330
1F
100
AcDbEntity
  8
WHITE
  6
AUSGEZOGEN
 62
     7
370
    25
100
AcDbCircle
 10
3.69197
 20
3.820424
 30
0.0
 40
0.101083
100
AcDbArc
 50
116.5537
 51
264.2513
  0
ARC
  5
5B7
330
1F
100
AcDbEntity
  8
WHITE
  6
AUSGEZOGEN
 62
     7
370
    25
100
AcDbCircle
 10
3.590261
 20
4.023122
 30
0.0
 40
0.125702
100
AcDbArc
 50
296.721362
 51
323.146744
  0
ARC
  5
5B8
330
1F
100
AcDbEntity
  8
WHITE
  6
AUSGEZOGEN
 62
     7
370
    25
100
AcDbCircle
 10
3.630488
 20
4.005452
 30
0.0
 40
0.083514
100
AcDbArc
 50
316.277938
 51
54.894619
  0
ARC
  5
5B9
330
1F
100
AcDbEntity
  8
WHITE
  6
AUSGEZOGEN
 62
     7
370
    25
100
AcDbCircle
 10
3.389075
 20
3.572339
 30
0.0
 40
0.578975
100
AcDbArc
 50
60.00545
 51
86.20312
  0
ARC
  5
5BA
330
1F
100
AcDbEntity
  8
WHITE
  6
AUSGEZOGEN
 62
     7
370
    25
100
AcDbCircle
 10
3.134627
 20
0.879455
 30
0.0
 40
3.283668
100
AcDbArc
 50
84.884432
 51
89.994971
  0
ARC
  5
5BB
330
1F
100
AcDbEntity
  8
WHITE
  6
AUSGEZOGEN
 62
     7
370
    25
100
AcDbCircle
 10
3.21107
 20
3.010971
 30
0.0
 40
1.154666
100
AcDbArc
 50
93.781649
 51
106.778981
  0
ARC
  5
5BC
330
1F
100
AcDbEntity
  8
WHITE
  6
AUSGEZOGEN
 62
     7
370
    25
100
AcDbCircle
 10
3.039466
 20
3.484408
 30
0.0
 40
0.652432
100
AcDbArc
 50
104.352152
 51
125.134426
  0
LINE
  5
5BD
330
1F
100
AcDbEntity
  8
WHITE
  6
AUSGEZOGEN
 62
     7
370
    25
100
AcDbLine
 10
2.663994
 20
4.01797
 30
0.0
 11
2.649095
 21
4.007129
 31
0.0
  0
ARC
  5
5BE
330
1F
100
AcDbEntity
  8
WHITE
  6
AUSGEZOGEN
 62
     7
370
    25
100
AcDbCircle
 10
4.168385
 20
5.062244
 30
0.0
 40
0.743292
100
AcDbArc
 50
192.2406
 51
204.2763
  0
ARC
  5
5BF
330
1F
100
AcDbEntity
  8
WHITE
  6
AUSGEZOGEN
 62
     7
370
    25
100
AcDbCircle
 10
3.419942
 20
4.899992
 30
0.0
 40
0.022537
100
AcDbArc
 50
11.937102
 51
93.997819
  0
LINE
  5
5C0
330
1F
100
AcDbEntity
  8
WHITE
  6
AUSGEZOGEN
 62
     7
370
    25
100
AcDbLine
 10
3.41837
 20
4.922474
 30
0.0
 11
3.28787
 21
4.913204
 31
0.0
  0
ARC
  5
5C1
330
1F
100
AcDbEntity
  8
WHITE
  6
AUSGEZOGEN
 62
     7
370
    25
100
AcDbCircle
 10
3.286295
 20
4.935704
 30
0.0
 40
0.022555
100
AcDbArc
 50
183.8897
 51
274.004173
  0
LINE
  5
5C2
330
1F
100
AcDbEntity
  8
WHITE
  6
AUSGEZOGEN
 62
     7
370
    25
100
AcDbLine
 10
3.263792
 20
4.934174
 30
0.0
 11
3.26222
 21
4.956404
 31
0.0
  0
ARC
  5
5C3
330
1F
100
AcDbEntity
  8
WHITE
  6
AUSGEZOGEN
 62
     7
370
    25
100
AcDbCircle
 10
3.28472
 20
4.958024
 30
0.0
 40
0.022558
100
AcDbArc
 50
94.004592
 51
184.11819
  0
LINE
  5
5C4
330
1F
100
AcDbEntity
  8
WHITE
  6
AUSGEZOGEN
 62
     7
370
    25
100
AcDbLine
 10
3.283145
 20
4.980528
 30
0.0
 11
3.41207
 21
4.989479
 31
0.0
  0
ARC
  5
5C5
330
1F
100
AcDbEntity
  8
WHITE
  6
AUSGEZOGEN
 62
     7
370
    25
100
AcDbCircle
 10
3.4104
 20
5.011979
 30
0.0
 40
0.022562
100
AcDbArc
 50
274.246267
 51
342.112919
  0
LINE
  5
5C6
330
1F
100
AcDbEntity
  8
WHITE
  6
AUSGEZOGEN
 62
     7
370
    25
100
AcDbLine
 10
3.43187
 20
5.005049
 30
0.0
 11
3.475745
 21
5.140904
 31
0.0
  0
ARC
  5
5C7
330
1F
100
AcDbEntity
  8
WHITE
  6
AUSGEZOGEN
 62
     7
370
    25
100
AcDbCircle
 10
3.722975
 20
5.061074
 30
0.0
 40
0.259799
100
AcDbArc
 50
80.82156
 51
162.104851
  0
ARC
  5
5C8
330
1F
100
AcDbEntity
  8
WHITE
  6
AUSGEZOGEN
 62
     7
370
    25
100
AcDbCircle
 10
4.092942
 20
11.595954
 30
0.0
 40
6.286996
100
AcDbArc
 50
267.00465
 51
268.231918
  0
ARC
  5
5C9
330
1F
100
AcDbEntity
  8
WHITE
  6
AUSGEZOGEN
 62
     7
370
    25
100
AcDbCircle
 10
3.924351
 20
5.502704
 30
0.0
 40
0.192436
100
AcDbArc
 50
262.418953
 51
292.067377
  0
ARC
  5
5CA
330
1F
100
AcDbEntity
  8
WHITE
  6
AUSGEZOGEN
 62
     7
370
    25
100
AcDbCircle
 10
3.97458
 20
5.378976
 30
0.0
 40
0.058901
100
AcDbArc
 50
292.004689
 51
61.006602
  0
ARC
  5
5CB
330
1F
100
AcDbEntity
  8
WHITE
  6
AUSGEZOGEN
 62
     7
370
    25
100
AcDbCircle
 10
3.634306
 20
4.978372
 30
0.0
 40
0.583478
100
AcDbArc
 50
50.793829
 51
73.200914
  0
ARC
  5
5CC
330
1F
100
AcDbEntity
  8
WHITE
  6
AUSGEZOGEN
 62
     7
370
    25
100
AcDbCircle
 10
3.326174
 20
3.960957
 30
0.0
 40
1.646529
100
AcDbArc
 50
73.168485
 51
85.903532
  0
ARC
  5
5CD
330
1F
100
AcDbEntity
  8
WHITE
  6
AUSGEZOGEN
 62
     7
370
    25
100
AcDbCircle
 10
3.45288
 20
5.025029
 30
0.0
 40
0.578322
100
AcDbArc
 50
90.900046
 51
157.297611
  0
ARC
  5
5CE
330
1F
100
AcDbEntity
  8
WHITE
  6
AUSGEZOGEN
 62
     7
370
    25
100
AcDbCircle
 10
3.659075
 20
4.957574
 30
0.0
 40
0.794765
100
AcDbArc
 50
158.5486
 51
211.8128
  0
ARC
  5
5CF
330
1F
100
AcDbEntity
  8
WHITE
  6
AUSGEZOGEN
 62
     7
370
    25
100
AcDbCircle
 10
3.416386
 20
4.877391
 30
0.0
 40
0.549527
100
AcDbArc
 50
218.059586
 51
253.340567
  0
ARC
  5
5D0
330
1F
100
AcDbEntity
  8
WHITE
  6
AUSGEZOGEN
 62
     7
370
    25
100
AcDbCircle
 10
3.4712
 20
5.124614
 30
0.0
 40
0.802299
100
AcDbArc
 50
254.6519
 51
316.5431
  0
ARC
  5
5D1
330
1F
100
AcDbEntity
  8
WHITE
  6
AUSGEZOGEN
 62
     7
370
    25
100
AcDbCircle
 10
4.004846
 20
4.607506
 30
0.0
 40
0.059839
100
AcDbArc
 50
324.534137
 51
81.253791
  0
ARC
  5
5D2
330
1F
100
AcDbEntity
  8
WHITE
  6
AUSGEZOGEN
 62
     7
370
    25
100
AcDbCircle
 10
3.986045
 20
4.486199
 30
0.0
 40
0.182594
100
AcDbArc
 50
81.2109
 51
104.1253
  0
LINE
  5
5D3
330
1F
100
AcDbEntity
  8
WHITE
  6
AUSGEZOGEN
 62
     7
370
    25
100
AcDbLine
 10
3.941484
 20
4.663273
 30
0.0
 11
3.72122
 21
4.611749
 31
0.0
  0
ARC
  5
5D4
330
1F
100
AcDbEntity
  8
WHITE
  6
AUSGEZOGEN
 62
     7
370
    25
100
AcDbCircle
 10
3.715235
 20
4.857674
 30
0.0
 40
0.245998
100
AcDbArc
 50
208.5762
 51
271.394114
  0
LINE
  5
5D5
330
1F
100
AcDbEntity
  8
WHITE
  6
AUSGEZOGEN
 62
     7
370
    25
100
AcDbLine
 10
3.499205
 20
4.740007
 30
0.0
 11
3.49082
 21
4.756649
 31
0.0
  0
ARC
  5
5D6
330
1F
100
AcDbEntity
  8
WHITE
  6
AUSGEZOGEN
 62
     7
370
    25
100
AcDbCircle
 10
4.673357
 20
4.875897
 30
0.0
 40
0.215315
100
AcDbArc
 50
97.005712
 51
169.108823
  0
ARC
  5
5D7
330
1F
100
AcDbEntity
  8
WHITE
  6
AUSGEZOGEN
 62
     7
370
    25
100
AcDbCircle
 10
5.151455
 20
4.781669
 30
0.0
 40
0.702609
100
AcDbArc
 50
168.9297
 51
194.4118
  0
ARC
  5
5D8
330
1F
100
AcDbEntity
  8
WHITE
  6
AUSGEZOGEN
 62
     7
370
    25
100
AcDbCircle
 10
4.590436
 20
4.668144
 30
0.0
 40
0.134308
100
AcDbArc
 50
207.178023
 51
266.621056
  0
ARC
  5
5D9
330
1F
100
AcDbEntity
  8
WHITE
  6
AUSGEZOGEN
 62
     7
370
    25
100
AcDbCircle
 10
4.58386
 20
4.55658
 30
0.0
 40
0.022551
100
AcDbArc
 50
266.592362
 51
351.969127
  0
LINE
  5
5DA
330
1F
100
AcDbEntity
  8
WHITE
  6
AUSGEZOGEN
 62
     7
370
    25
100
AcDbLine
 10
4.60619
 20
4.553429
 30
0.0
 11
4.637465
 21
4.776404
 31
0.0
  0
ARC
  5
5DB
330
1F
100
AcDbEntity
  8
WHITE
  6
AUSGEZOGEN
 62
     7
370
    25
100
AcDbCircle
 10
4.65974
 20
4.773254
 30
0.0
 40
0.022497
100
AcDbArc
 50
90.0
 51
171.950938
  0
LINE
  5
5DC
330
1F
100
AcDbEntity
  8
WHITE
  6
AUSGEZOGEN
 62
     7
370
    25
100
AcDbLine
 10
4.65974
 20
4.795751
 30
0.0
 11
4.682465
 21
4.795754
 31
0.0
  0
ARC
  5
5DD
330
1F
100
AcDbEntity
  8
WHITE
  6
AUSGEZOGEN
 62
     7
370
    25
100
AcDbCircle
 10
4.682466
 20
4.773258
 30
0.0
 40
0.022497
100
AcDbArc
 50
351.942257
 51
90.001215
  0
LINE
  5
5DE
330
1F
100
AcDbEntity
  8
WHITE
  6
AUSGEZOGEN
 62
     7
370
    25
100
AcDbLine
 10
4.70474
 20
4.770104
 30
0.0
 11
4.67387
 21
4.550549
 31
0.0
  0
ARC
  5
5DF
330
1F
100
AcDbEntity
  8
WHITE
  6
AUSGEZOGEN
 62
     7
370
    25
100
AcDbCircle
 10
4.696145
 20
4.547489
 30
0.0
 40
0.022484
100
AcDbArc
 50
172.178024
 51
265.407699
  0
ARC
  5
5E0
330
1F
100
AcDbEntity
  8
WHITE
  6
AUSGEZOGEN
 62
     7
370
    25
100
AcDbCircle
 10
4.856802
 20
6.515792
 30
0.0
 40
1.997333
100
AcDbArc
 50
265.334587
 51
269.322085
  0
ARC
  5
5E1
330
1F
100
AcDbEntity
  8
WHITE
  6
AUSGEZOGEN
 62
     7
370
    25
100
AcDbCircle
 10
4.83344
 20
4.541099
 30
0.0
 40
0.022502
100
AcDbArc
 50
269.312499
 51
358.853999
  0
LINE
  5
5E2
330
1F
100
AcDbEntity
  8
WHITE
  6
AUSGEZOGEN
 62
     7
370
    25
100
AcDbLine
 10
4.855938
 20
4.540649
 30
0.0
 11
4.86179
 21
4.773749
 31
0.0
  0
ARC
  5
5E3
330
1F
100
AcDbEntity
  8
WHITE
  6
AUSGEZOGEN
 62
     7
370
    25
100
AcDbCircle
 10
4.884285
 20
4.773254
 30
0.0
 40
0.0225
100
AcDbArc
 50
89.986132
 51
178.739394
  0
LINE
  5
5E4
330
1F
100
AcDbEntity
  8
WHITE
  6
AUSGEZOGEN
 62
     7
370
    25
100
AcDbLine
 10
4.88429
 20
4.795754
 30
0.0
 11
4.90679
 21
4.795754
 31
0.0
  0
ARC
  5
5E5
330
1F
100
AcDbEntity
  8
WHITE
  6
AUSGEZOGEN
 62
     7
370
    25
100
AcDbCircle
 10
4.90679
 20
4.773254
 30
0.0
 40
0.0225
100
AcDbArc
 50
358.281699
 51
90.0
  0
LINE
  5
5E6
330
1F
100
AcDbEntity
  8
WHITE
  6
AUSGEZOGEN
 62
     7
370
    25
100
AcDbLine
 10
4.92928
 20
4.77258
 30
0.0
 11
4.92344
 21
4.543574
 31
0.0
  0
ARC
  5
5E7
330
1F
100
AcDbEntity
  8
WHITE
  6
AUSGEZOGEN
 62
     7
370
    25
100
AcDbCircle
 10
4.94594
 20
4.543124
 30
0.0
 40
0.022504
100
AcDbArc
 50
178.854237
 51
272.747398
  0
ARC
  5
5E8
330
1F
100
AcDbEntity
  8
WHITE
  6
AUSGEZOGEN
 62
     7
370
    25
100
AcDbCircle
 10
4.856116
 20
6.51517
 30
0.0
 40
1.996594
100
AcDbArc
 50
272.609529
 51
276.210621
  0
ARC
  5
5E9
330
1F
100
AcDbEntity
  8
WHITE
  6
AUSGEZOGEN
 62
     7
370
    25
100
AcDbCircle
 10
5.06982
 20
4.552533
 30
0.0
 40
0.022358
100
AcDbArc
 50
275.891791
 51
2.292941
  0
LINE
  5
5EA
330
1F
100
AcDbEntity
  8
WHITE
  6
AUSGEZOGEN
 62
     7
370
    25
100
AcDbLine
 10
5.09216
 20
4.553428
 30
0.0
 11
5.08409
 21
4.772399
 31
0.0
  0
ARC
  5
5EB
330
1F
100
AcDbEntity
  8
WHITE
  6
AUSGEZOGEN
 62
     7
370
    25
100
AcDbCircle
 10
5.106574
 20
4.773254
 30
0.0
 40
0.0225
100
AcDbArc
 50
89.958615
 51
182.177779
  0
LINE
  5
5EC
330
1F
100
AcDbEntity
  8
WHITE
  6
AUSGEZOGEN
 62
     7
370
    25
100
AcDbLine
 10
5.10659
 20
4.795754
 30
0.0
 11
5.12882
 21
4.795754
 31
0.0
  0
ARC
  5
5ED
330
1F
100
AcDbEntity
  8
WHITE
  6
AUSGEZOGEN
 62
     7
370
    25
100
AcDbCircle
 10
5.12882
 20
4.773254
 30
0.0
 40
0.0225
100
AcDbArc
 50
1.718288
 51
90.0
  0
LINE
  5
5EE
330
1F
100
AcDbEntity
  8
WHITE
  6
AUSGEZOGEN
 62
     7
370
    25
100
AcDbLine
 10
5.15131
 20
4.773929
 30
0.0
 11
5.15924
 21
4.567154
 31
0.0
  0
ARC
  5
5EF
330
1F
100
AcDbEntity
  8
WHITE
  6
AUSGEZOGEN
 62
     7
370
    25
100
AcDbCircle
 10
5.18174
 20
4.568009
 30
0.0
 40
0.022516
100
AcDbArc
 50
182.176193
 51
279.199098
  0
ARC
  5
5F0
330
1F
100
AcDbEntity
  8
WHITE
  6
AUSGEZOGEN
 62
     7
370
    25
100
AcDbCircle
 10
4.85139
 20
6.514949
 30
0.0
 40
1.997282
100
AcDbArc
 50
279.625202
 51
281.911755
  0
ARC
  5
5F1
330
1F
100
AcDbEntity
  8
WHITE
  6
AUSGEZOGEN
 62
     7
370
    25
100
AcDbCircle
 10
5.243255
 20
4.658369
 30
0.0
 40
0.099799
100
AcDbArc
 50
281.785374
 51
350.605965
  0
ARC
  5
5F2
330
1F
100
AcDbEntity
  8
WHITE
  6
AUSGEZOGEN
 62
     7
370
    25
100
AcDbCircle
 10
3.957504
 20
4.728471
 30
0.0
 40
1.386905
100
AcDbArc
 50
356.428683
 51
9.866608
  0
ARC
  5
5F3
330
1F
100
AcDbEntity
  8
WHITE
  6
AUSGEZOGEN
 62
     7
370
    25
100
AcDbCircle
 10
5.239346
 20
4.951422
 30
0.0
 40
0.085818
100
AcDbArc
 50
9.864342
 51
75.42577
  0
ARC
  5
5F4
330
1F
100
AcDbEntity
  8
WHITE
  6
AUSGEZOGEN
 62
     7
370
    25
100
AcDbCircle
 10
5.433739
 20
5.706375
 30
0.0
 40
0.693761
100
AcDbArc
 50
235.438041
 51
255.577248
  0
ARC
  5
5F5
330
1F
100
AcDbEntity
  8
WHITE
  6
AUSGEZOGEN
 62
     7
370
    25
100
AcDbCircle
 10
4.915908
 20
4.954931
 30
0.0
 40
0.218827
100
AcDbArc
 50
55.399125
 51
120.644119
  0
ARC
  5
5F6
330
1F
100
AcDbEntity
  8
WHITE
  6
AUSGEZOGEN
 62
     7
370
    25
100
AcDbCircle
 10
4.59791
 20
5.492534
 30
0.0
 40
0.405784
100
AcDbArc
 50
279.5302
 51
300.5835
  0
LINE
  5
5F7
330
1F
100
AcDbEntity
  8
WHITE
  6
AUSGEZOGEN
 62
     7
370
    25
100
AcDbLine
 10
4.665095
 20
5.092351
 30
0.0
 11
4.647095
 21
5.089604
 31
0.0
  0
CIRCLE
  5
5F8
330
1F
100
AcDbEntity
  8
WHITE
  6
AUSGEZOGEN
 62
     7
370
    25
100
AcDbCircle
 10
6.04907
 20
4.378649
 30
0.0
 40
0.171675
  0
CIRCLE
  5
5F9
330
1F
100
AcDbEntity
  8
WHITE
  6
AUSGEZOGEN
 62
     7
370
    25
100
AcDbCircle
 10
6.87707
 20
4.372349
 30
0.0
 40
0.171675
  0
CIRCLE
  5
5FA
330
1F
100
AcDbEntity
  8
WHITE
  6
AUSGEZOGEN
 62
     7
370
    25
100
AcDbCircle
 10
11.44124
 20
0.886424
 30
0.0
 40
0.151605
  0
CIRCLE
  5
5FB
330
1F
100
AcDbEntity
  8
WHITE
  6
AUSGEZOGEN
 62
     7
370
    25
100
AcDbCircle
 10
10.753145
 20
0.486374
 30
0.0
 40
0.148725
  0
CIRCLE
  5
5FC
330
1F
100
AcDbEntity
  8
WHITE
  6
AUSGEZOGEN
 62
     7
370
    25
100
AcDbCircle
 10
1.364345
 20
0.982904
 30
0.0
 40
0.14193
  0
CIRCLE
  5
5FD
330
1F
100
AcDbEntity
  8
WHITE
  6
AUSGEZOGEN
 62
     7
370
    25
100
AcDbCircle
 10
2.045915
 20
0.585824
 30
0.0
 40
0.14193
  0
CIRCLE
  5
5FE
330
1F
100
AcDbEntity
  8
WHITE
  6
AUSGEZOGEN
 62
     7
370
    25
100
AcDbCircle
 10
1.630115
 20
2.876099
 30
0.0
 40
0.13428
  0
CIRCLE
  5
5FF
330
1F
100
AcDbEntity
  8
WHITE
  6
AUSGEZOGEN
 62
     7
370
    25
100
AcDbCircle
 10
2.421215
 20
2.474924
 30
0.0
 40
0.13428
  0
CIRCLE
  5
600
330
1F
100
AcDbEntity
  8
WHITE
  6
AUSGEZOGEN
 62
     7
370
    25
100
AcDbCircle
 10
9.996695
 20
8.323079
 30
0.0
 40
0.124425
  0
CIRCLE
  5
601
330
1F
100
AcDbEntity
  8
WHITE
  6
AUSGEZOGEN
 62
     7
370
    25
100
AcDbCircle
 10
10.38104
 20
5.317574
 30
0.0
 40
0.124425
  0
CIRCLE
  5
602
330
1F
100
AcDbEntity
  8
WHITE
  6
AUSGEZOGEN
 62
     7
370
    25
100
AcDbCircle
 10
10.32686
 20
2.571899
 30
0.0
 40
0.12303
  0
CIRCLE
  5
603
330
1F
100
AcDbEntity
  8
WHITE
  6
AUSGEZOGEN
 62
     7
370
    25
100
AcDbCircle
 10
11.00204
 20
2.919974
 30
0.0
 40
0.12303
  0
CIRCLE
  5
604
330
1F
100
AcDbEntity
  8
WHITE
  6
AUSGEZOGEN
 62
     7
370
    25
100
AcDbCircle
 10
6.54992
 20
1.977629
 30
0.0
 40
0.103275
  0
CIRCLE
  5
605
330
1F
100
AcDbEntity
  8
WHITE
  6
AUSGEZOGEN
 62
     7
370
    25
100
AcDbCircle
 10
1.41776
 20
4.505279
 30
0.0
 40
0.103005
  0
CIRCLE
  5
606
330
1F
100
AcDbEntity
  8
WHITE
  6
AUSGEZOGEN
 62
     7
370
    25
100
AcDbCircle
 10
1.44539
 20
3.737129
 30
0.0
 40
0.103005
  0
CIRCLE
  5
607
330
1F
100
AcDbEntity
  8
WHITE
  6
AUSGEZOGEN
 62
     7
370
    25
100
AcDbCircle
 10
7.28324
 20
1.712354
 30
0.0
 40
0.09873
  0
CIRCLE
  5
608
330
1F
100
AcDbEntity
  8
WHITE
  6
AUSGEZOGEN
 62
     7
370
    25
100
AcDbCircle
 10
6.644015
 20
3.570179
 30
0.0
 40
0.094455
  0
CIRCLE
  5
609
330
1F
100
AcDbEntity
  8
WHITE
  6
AUSGEZOGEN
 62
     7
370
    25
100
AcDbCircle
 10
7.285445
 20
3.335729
 30
0.0
 40
0.094455
  0
ENDSEC
  0
SECTION
  2
OBJECTS
  0
DICTIONARY
  5
C
330
0
100
AcDbDictionary
281
     1
  3
ACAD_GROUP
350
D
  3
ACAD_LAYOUT
350
1A
  3
ACAD_MLEADERSTYLE
350
60D
  3
ACAD_MLINESTYLE
350
17
  3
ACAD_PLOTSETTINGS
350
19
  3
ACAD_PLOTSTYLENAME
350
E
  3
ACAD_SCALELIST
350
13E
  3
ACAD_TABLESTYLE
350
60C
  3
ACAD_VISUALSTYLE
350
2A
  3
ACAD_WIPEOUT_VARS
350
3B
  3
AcDbVariableDictionary
350
60A
  0
DICTIONARY
  5
D
102
{ACAD_REACTORS
330
C
102
}
330
C
100
AcDbDictionary
281
     1
  0
DICTIONARY
  5
1A
102
{ACAD_REACTORS
330
C
102
}
330
C
100
AcDbDictionary
281
     1
  3
Layout1
350
1E
  3
Layout2
350
26
  3
Model
350
22
  0
DICTIONARY
  5
60D
102
{ACAD_REACTORS
330
C
102
}
330
C
100
AcDbDictionary
281
     1
  0
DICTIONARY
  5
17
102
{ACAD_REACTORS
330
C
102
}
330
C
100
AcDbDictionary
281
     1
  3
Standard
350
18
  0
DICTIONARY
  5
19
102
{ACAD_REACTORS
330
C
102
}
330
C
100
AcDbDictionary
281
     1
  0
ACDBDICTIONARYWDFLT
  5
E
102
{ACAD_REACTORS
330
C
102
}
330
C
100
AcDbDictionary
281
     1
  3
Normal
350
F
100
AcDbDictionaryWithDefault
340
F
  0
DICTIONARY
  5
13E
102
{ACAD_REACTORS
330
C
102
}
330
C
100
AcDbDictionary
281
     1
  3
A0
350
13F
  3
A1
350
140
  3
A2
350
141
  3
A3
350
142
  3
A4
350
143
  3
A5
350
144
  3
A6
350
145
  3
A7
350
146
  3
A8
350
147
  3
A9
350
148
  3
B0
350
149
  3
B1
350
14A
  3
B2
350
14B
  3
B3
350
14C
  3
B4
350
14D
  3
B5
350
14E
  3
B6
350
14F
  3
B7
350
150
  3
B8
350
151
  3
B9
350
152
  3
C0
350
153
  3
C1
350
154
  3
C2
350
155
  3
C3
350
156
  3
C4
350
157
  3
C5
350
158
  3
C6
350
159
  3
C7
350
15A
  3
C8
350
15B
  3
C9
350
15C
  3
D0
350
15D
  3
D1
350
15E
  3
D2
350
15F
  0
DICTIONARY
  5
60C
102
{ACAD_REACTORS
330
C
102
}
330
C
100
AcDbDictionary
281
     1
  0
DICTIONARY
  5
2A
102
{ACAD_REACTORS
330
C
102
}
330
C
100
AcDbDictionary
281
     1
  3
2dWireframe
350
2F
  3
3D Hidden
350
31
  3
3dWireframe
350
30
  3
Basic
350
32
  3
Brighten
350
36
  3
ColorChange
350
3A
  3
Conceptual
350
34
  3
Dim
350
35
  3
Facepattern
350
39
  3
Flat
350
2B
  3
FlatWithEdges
350
2C
  3
Gouraud
350
2D
  3
GouraudWithEdges
350
2E
  3
Linepattern
350
38
  3
Realistic
350
33
  3
Thicken
350
37
  0
WIPEOUTVARIABLES
  5
3B
102
{ACAD_REACTORS
330
C
102
}
330
C
100
AcDbWipeoutVariables
 70
     0
  0
DICTIONARY
  5
60A
102
{ACAD_REACTORS
330
C
102
}
330
C
100
AcDbDictionary
281
     1
  3
CANNOSCALE
350
60B
  0
LAYOUT
  5
1E
102
{ACAD_REACTORS
330
1A
102
}
330
1A
100
AcDbPlotSettings
  1

  2
none_device
  4

  6

 40
0.0
 41
0.0
 42
0.0
 43
0.0
 44
0.0
 45
0.0
 46
0.0
 47
0.0
 48
0.0
 49
0.0
140
0.0
141
0.0
142
1.0
143
1.0
 70
   688
 72
     0
 73
     0
 74
     5
  7

 75
    16
 76
     0
 77
     2
 78
   300
147
1.0
148
0.0
149
0.0
100
AcDbLayout
  1
Layout1
 70
     1
 71
     1
 10
0.0
 20
0.0
 11
420.0
 21
297.0
 12
0.0
 22
0.0
 32
0.0
 14
1.000000000000E+20
 24
1.000000000000E+20
 34
1.000000000000E+20
 15
-1.000000000000E+20
 25
-1.000000000000E+20
 35
-1.000000000000E+20
146
0.0
 13
0.0
 23
0.0
 33
0.0
 16
1.0
 26
0.0
 36
0.0
 17
0.0
 27
1.0
 37
0.0
 76
     0
330
1B
  0
LAYOUT
  5
26
102
{ACAD_REACTORS
330
1A
102
}
330
1A
100
AcDbPlotSettings
  1

  2
none_device
  4

  6

 40
0.0
 41
0.0
 42
0.0
 43
0.0
 44
0.0
 45
0.0
 46
0.0
 47
0.0
 48
0.0
 49
0.0
140
0.0
141
0.0
142
1.0
143
1.0
 70
   688
 72
     0
 73
     0
 74
     5
  7

 75
    16
 76
     0
 77
     2
 78
   300
147
1.0
148
0.0
149
0.0
100
AcDbLayout
  1
Layout2
 70
     1
 71
     2
 10
0.0
 20
0.0
 11
0.0
 21
0.0
 12
0.0
 22
0.0
 32
0.0
 14
0.0
 24
0.0
 34
0.0
 15
0.0
 25
0.0
 35
0.0
146
0.0
 13
0.0
 23
0.0
 33
0.0
 16
1.0
 26
0.0
 36
0.0
 17
0.0
 27
1.0
 37
0.0
 76
     0
330
23
  0
LAYOUT
  5
22
102
{ACAD_REACTORS
330
1A
102
}
330
1A
100
AcDbPlotSettings
  1

  2
none_device
  4

  6

 40
0.0
 41
0.0
 42
0.0
 43
0.0
 44
0.0
 45
0.0
 46
0.0
 47
0.0
 48
0.0
 49
0.0
140
0.0
141
0.0
142
1.0
143
1.0
 70
  1712
 72
     0
 73
     0
 74
     0
  7

 75
     0
 76
     0
 77
     2
 78
   300
147
1.0
148
0.0
149
0.0
100
AcDbLayout
  1
Model
 70
     1
 71
     0
 10
0.0
 20
0.0
 11
420.0
 21
297.0
 12
0.0
 22
0.0
 32
0.0
 14
-6.366098251495
 24
-0.50949865
 34
0.0
 15
19.192019251495
 25
10.69947165
 35
0.0
146
0.0
 13
0.0
 23
0.0
 33
0.0
 16
1.0
 26
0.0
 36
0.0
 17
0.0
 27
1.0
 37
0.0
 76
     0
330
1F
331
29
  0
MLINESTYLE
  5
18
102
{ACAD_REACTORS
330
17
102
}
330
17
100
AcDbMlineStyle
  2
Standard
 70
     0
  3

 62
   256
 51
90.0
 52
90.0
 71
     2
 49
0.5
 62
   256
  6
BYLAYER
 49
-0.5
 62
   256
  6
BYLAYER
  0
ACDBPLACEHOLDER
  5
F
102
{ACAD_REACTORS
330
E
102
}
330
E
  0
SCALE
  5
13F
102
{ACAD_REACTORS
330
13E
102
}
330
13E
100
AcDbScale
 70
     0
300
1:1
140
1.0
141
1.0
290
     1
  0
SCALE
  5
140
102
{ACAD_REACTORS
330
13E
102
}
330
13E
100
AcDbScale
 70
     0
300
1:2
140
1.0
141
2.0
290
     0
  0
SCALE
  5
141
102
{ACAD_REACTORS
330
13E
102
}
330
13E
100
AcDbScale
 70
     0
300
1:4
140
1.0
141
4.0
290
     0
  0
SCALE
  5
142
102
{ACAD_REACTORS
330
13E
102
}
330
13E
100
AcDbScale
 70
     0
300
1:5
140
1.0
141
5.0
290
     0
  0
SCALE
  5
143
102
{ACAD_REACTORS
330
13E
102
}
330
13E
100
AcDbScale
 70
     0
300
1:8
140
1.0
141
8.0
290
     0
  0
SCALE
  5
144
102
{ACAD_REACTORS
330
13E
102
}
330
13E
100
AcDbScale
 70
     0
300
1:10
140
1.0
141
10.0
290
     0
  0
SCALE
  5
145
102
{ACAD_REACTORS
330
13E
102
}
330
13E
100
AcDbScale
 70
     0
300
1:16
140
1.0
141
16.0
290
     0
  0
SCALE
  5
146
102
{ACAD_REACTORS
330
13E
102
}
330
13E
100
AcDbScale
 70
     0
300
1:20
140
1.0
141
20.0
290
     0
  0
SCALE
  5
147
102
{ACAD_REACTORS
330
13E
102
}
330
13E
100
AcDbScale
 70
     0
300
1:30
140
1.0
141
30.0
290
     0
  0
SCALE
  5
148
102
{ACAD_REACTORS
330
13E
102
}
330
13E
100
AcDbScale
 70
     0
300
1:40
140
1.0
141
40.0
290
     0
  0
SCALE
  5
149
102
{ACAD_REACTORS
330
13E
102
}
330
13E
100
AcDbScale
 70
     0
300
1:50
140
1.0
141
50.0
290
     0
  0
SCALE
  5
14A
102
{ACAD_REACTORS
330
13E
102
}
330
13E
100
AcDbScale
 70
     0
300
1:100
140
1.0
141
100.0
290
     0
  0
SCALE
  5
14B
102
{ACAD_REACTORS
330
13E
102
}
330
13E
100
AcDbScale
 70
     0
300
2:1
140
2.0
141
1.0
290
     0
  0
SCALE
  5
14C
102
{ACAD_REACTORS
330
13E
102
}
330
13E
100
AcDbScale
 70
     0
300
4:1
140
4.0
141
1.0
290
     0
  0
SCALE
  5
14D
102
{ACAD_REACTORS
330
13E
102
}
330
13E
100
AcDbScale
 70
     0
300
8:1
140
8.0
141
1.0
290
     0
  0
SCALE
  5
14E
102
{ACAD_REACTORS
330
13E
102
}
330
13E
100
AcDbScale
 70
     0
300
10:1
140
10.0
141
1.0
290
     0
  0
SCALE
  5
14F
102
{ACAD_REACTORS
330
13E
102
}
330
13E
100
AcDbScale
 70
     0
300
100:1
140
100.0
141
1.0
290
     0
  0
SCALE
  5
150
102
{ACAD_REACTORS
330
13E
102
}
330
13E
100
AcDbScale
 70
     0
300
1/128\" = 1\'-0\"
140
0.0078125
141
12.0
290
     0
  0
SCALE
  5
151
102
{ACAD_REACTORS
330
13E
102
}
330
13E
100
AcDbScale
 70
     0
300
1/64\" = 1\'-0\"
140
0.015625
141
12.0
290
     0
  0
SCALE
  5
152
102
{ACAD_REACTORS
330
13E
102
}
330
13E
100
AcDbScale
 70
     0
300
1/32\" = 1\'-0\"
140
0.03125
141
12.0
290
     0
  0
SCALE
  5
153
102
{ACAD_REACTORS
330
13E
102
}
330
13E
100
AcDbScale
 70
     0
300
1/16\" = 1\'-0\"
140
0.0625
141
12.0
290
     0
  0
SCALE
  5
154
102
{ACAD_REACTORS
330
13E
102
}
330
13E
100
AcDbScale
 70
     0
300
3/32\" = 1\'-0\"
140
0.09375
141
12.0
290
     0
  0
SCALE
  5
155
102
{ACAD_REACTORS
330
13E
102
}
330
13E
100
AcDbScale
 70
     0
300
1/8\" = 1\'-0\"
140
0.125
141
12.0
290
     0
  0
SCALE
  5
156
102
{ACAD_REACTORS
330
13E
102
}
330
13E
100
AcDbScale
 70
     0
300
3/16\" = 1\'-0\"
140
0.1875
141
12.0
290
     0
  0
SCALE
  5
157
102
{ACAD_REACTORS
330
13E
102
}
330
13E
100
AcDbScale
 70
     0
300
1/4\" = 1\'-0\"
140
0.25
141
12.0
290
     0
  0
SCALE
  5
158
102
{ACAD_REACTORS
330
13E
102
}
330
13E
100
AcDbScale
 70
     0
300
3/8\" = 1\'-0\"
140
0.375
141
12.0
290
     0
  0
SCALE
  5
159
102
{ACAD_REACTORS
330
13E
102
}
330
13E
100
AcDbScale
 70
     0
300
1/2\" = 1\'-0\"
140
0.5
141
12.0
290
     0
  0
SCALE
  5
15A
102
{ACAD_REACTORS
330
13E
102
}
330
13E
100
AcDbScale
 70
     0
300
3/4\" = 1\'-0\"
140
0.75
141
12.0
290
     0
  0
SCALE
  5
15B
102
{ACAD_REACTORS
330
13E
102
}
330
13E
100
AcDbScale
 70
     0
300
1\" = 1\'-0\"
140
1.0
141
12.0
290
     0
  0
SCALE
  5
15C
102
{ACAD_REACTORS
330
13E
102
}
330
13E
100
AcDbScale
 70
     0
300
1-1/2\" = 1\'-0\"
140
1.5
141
12.0
290
     0
  0
SCALE
  5
15D
102
{ACAD_REACTORS
330
13E
102
}
330
13E
100
AcDbScale
 70
     0
300
3\" = 1\'-0\"
140
3.0
141
12.0
290
     0
  0
SCALE
  5
15E
102
{ACAD_REACTORS
330
13E
102
}
330
13E
100
AcDbScale
 70
     0
300
6\" = 1\'-0\"
140
6.0
141
12.0
290
     0
  0
SCALE
  5
15F
102
{ACAD_REACTORS
330
13E
102
}
330
13E
100
AcDbScale
 70
     0
300
1\'-0\" = 1\'-0\"
140
12.0
141
12.0
290
     0
  0
VISUALSTYLE
  5
2F
102
{ACAD_REACTORS
330
2A
102
}
330
2A
100
AcDbVisualStyle
  2
2dWireframe
 70
     4
 71
     0
 72
     2
 73
     0
 90
        0
 40
-0.6
 41
-30.0
 62
     5
 63
     7
421
 16777215
 74
     1
 91
        4
 64
     7
 65
   257
 75
     1
175
     1
 42
1.0
 92
        0
 66
   257
 43
1.0
 76
     1
 77
     6
 78
     2
 67
     7
 79
     5
170
     0
171
     0
290
     0
174
     0
 93
        1
 44
0.0
173
     0
291
     0
 45
0.0
1001
ACAD
1000
AcDbSavedByObjectVersion
1070
     0
  0
VISUALSTYLE
  5
31
102
{ACAD_REACTORS
330
2A
102
}
330
2A
100
AcDbVisualStyle
  2
3D Hidden
 70
     6
 71
     1
 72
     2
 73
     2
 90
        0
 40
-0.6
 41
-30.0
 62
     5
 63
     7
421
 16777215
 74
     2
 91
        2
 64
     7
 65
   257
 75
     2
175
     1
 42
40.0
 92
        0
 66
   257
 43
1.0
 76
     1
 77
     6
 78
     2
 67
     7
 79
     3
170
     0
171
     0
290
     0
174
     0
 93
        1
 44
0.0
173
     0
291
     0
 45
0.0
1001
ACAD
1000
AcDbSavedByObjectVersion
1070
     0
  0
VISUALSTYLE
  5
30
102
{ACAD_REACTORS
330
2A
102
}
330
2A
100
AcDbVisualStyle
  2
3dWireframe
 70
     5
 71
     0
 72
     2
 73
     0
 90
        0
 40
-0.6
 41
-30.0
 62
     5
 63
     7
421
 16777215
 74
     1
 91
        4
 64
     7
 65
   257
 75
     1
175
     1
 42
1.0
 92
        0
 66
   257
 43
1.0
 76
     1
 77
     6
 78
     2
 67
     7
 79
     5
170
     0
171
     0
290
     0
174
     0
 93
        1
 44
0.0
173
     0
291
     0
 45
0.0
1001
ACAD
1000
AcDbSavedByObjectVersion
1070
     0
  0
VISUALSTYLE
  5
32
102
{ACAD_REACTORS
330
2A
102
}
330
2A
100
AcDbVisualStyle
  2
Basic
 70
     7
 71
     1
 72
     0
 73
     1
 90
        0
 40
-0.6
 41
-30.0
 62
     5
 63
     7
421
 16777215
 74
     0
 91
        4
 64
     7
 65
   257
 75
     1
175
     1
 42
1.0
 92
        8
 66
     7
 43
1.0
 76
     1
 77
     6
 78
     2
 67
     7
 79
     5
170
     0
171
     0
290
     0
174
     0
 93
        1
 44
0.0
173
     0
291
     1
 45
0.0
1001
ACAD
1000
AcDbSavedByObjectVersion
1070
     0
  0
VISUALSTYLE
  5
36
102
{ACAD_REACTORS
330
2A
102
}
330
2A
100
AcDbVisualStyle
  2
Brighten
 70
    12
 71
     2
 72
     2
 73
     0
 90
        0
 40
-0.6
 41
-30.0
 62
     5
 63
     7
421
 16777215
 74
     1
 91
        4
 64
     7
 65
   257
 75
     1
175
     1
 42
1.0
 92
        8
 66
     7
 43
1.0
 76
     1
 77
     6
 78
     2
 67
     7
 79
     5
170
     0
171
     0
290
     0
174
     0
 93
        1
 44
50.0
173
     0
291
     1
 45
0.0
1001
ACAD
1000
AcDbSavedByObjectVersion
1070
     0
  0
VISUALSTYLE
  5
3A
102
{ACAD_REACTORS
330
2A
102
}
330
2A
100
AcDbVisualStyle
  2
ColorChange
 70
    16
 71
     2
 72
     2
 73
     3
 90
        0
 40
-0.6
 41
-30.0
 62
     5
 63
     8
421
  8421504
 74
     1
 91
        4
 64
     7
 65
   257
 75
     1
175
     1
 42
1.0
 92
        8
 66
     8
424
  8421504
 43
1.0
 76
     1
 77
     6
 78
     2
 67
     7
 79
     5
170
     0
171
     0
290
     0
174
     0
 93
        1
 44
0.0
173
     0
291
     1
 45
0.0
1001
ACAD
1000
AcDbSavedByObjectVersion
1070
     0
  0
VISUALSTYLE
  5
34
102
{ACAD_REACTORS
330
2A
102
}
330
2A
100
AcDbVisualStyle
  2
Conceptual
 70
     9
 71
     3
 72
     2
 73
     0
 90
        0
 40
-0.6
 41
-30.0
 62
     5
 63
     7
421
 16777215
 74
     2
 91
        2
 64
     7
 65
   257
 75
     1
175
     1
 42
40.0
 92
        8
 66
     7
 43
1.0
 76
     1
 77
     6
 78
     2
 67
     7
 79
     3
170
     0
171
     0
290
     0
174
     0
 93
        1
 44
0.0
173
     0
291
     0
 45
0.0
1001
ACAD
1000
AcDbSavedByObjectVersion
1070
     0
  0
VISUALSTYLE
  5
35
102
{ACAD_REACTORS
330
2A
102
}
330
2A
100
AcDbVisualStyle
  2
Dim
 70
    11
 71
     2
 72
     2
 73
     0
 90
        0
 40
-0.6
 41
-30.0
 62
     5
 63
     7
421
 16777215
 74
     1
 91
        4
 64
     7
 65
   257
 75
     1
175
     1
 42
1.0
 92
        8
 66
     7
 43
1.0
 76
     1
 77
     6
 78
     2
 67
     7
 79
     5
170
     0
171
     0
290
     0
174
     0
 93
        1
 44
-50.0
173
     0
291
     1
 45
0.0
1001
ACAD
1000
AcDbSavedByObjectVersion
1070
     0
  0
VISUALSTYLE
  5
39
102
{ACAD_REACTORS
330
2A
102
}
330
2A
100
AcDbVisualStyle
  2
Facepattern
 70
    15
 71
     2
 72
     2
 73
     0
 90
        0
 40
-0.6
 41
-30.0
 62
     5
 63
     7
421
 16777215
 74
     1
 91
        4
 64
     7
 65
   257
 75
     1
175
     1
 42
1.0
 92
        8
 66
     7
 43
1.0
 76
     1
 77
     6
 78
     2
 67
     7
 79
     5
170
     0
171
     0
290
     0
174
     0
 93
        1
 44
0.0
173
     0
291
     1
 45
0.0
1001
ACAD
1000
AcDbSavedByObjectVersion
1070
     0
  0
VISUALSTYLE
  5
2B
102
{ACAD_REACTORS
330
2A
102
}
330
2A
100
AcDbVisualStyle
  2
Flat
 70
     0
 71
     2
 72
     1
 73
     1
 90
        2
 40
-0.6
 41
30.0
 62
     5
 63
     7
421
 16777215
 74
     0
 91
        4
 64
     7
 65
   257
 75
     1
175
     1
 42
1.0
 92
        8
 66
     7
 43
1.0
 76
     1
 77
     6
 78
     2
 67
     7
 79
     5
170
     0
171
     0
290
     0
174
     0
 93
       13
 44
0.0
173
     0
291
     1
 45
0.0
1001
ACAD
1000
AcDbSavedByObjectVersion
1070
     0
  0
VISUALSTYLE
  5
2C
102
{ACAD_REACTORS
330
2A
102
}
330
2A
100
AcDbVisualStyle
  2
FlatWithEdges
 70
     1
 71
     2
 72
     1
 73
     1
 90
        2
 40
-0.6
 41
30.0
 62
     5
 63
     7
421
 16777215
 74
     1
 91
        4
 64
     7
 65
   257
 75
     1
175
     1
 42
1.0
 92
        0
 66
   257
 43
1.0
 76
     1
 77
     6
 78
     2
 67
     7
 79
     5
170
     0
171
     0
290
     0
174
     0
 93
       13
 44
0.0
173
     0
291
     1
 45
0.0
1001
ACAD
1000
AcDbSavedByObjectVersion
1070
     0
  0
VISUALSTYLE
  5
2D
102
{ACAD_REACTORS
330
2A
102
}
330
2A
100
AcDbVisualStyle
  2
Gouraud
 70
     2
 71
     2
 72
     2
 73
     1
 90
        2
 40
-0.6
 41
30.0
 62
     5
 63
     7
421
 16777215
 74
     0
 91
        4
 64
     7
 65
   257
 75
     1
175
     1
 42
1.0
 92
        0
 66
     7
 43
1.0
 76
     1
 77
     6
 78
     2
 67
     7
 79
     5
170
     0
171
     0
290
     0
174
     0
 93
       13
 44
0.0
173
     0
291
     1
 45
0.0
1001
ACAD
1000
AcDbSavedByObjectVersion
1070
     0
  0
VISUALSTYLE
  5
2E
102
{ACAD_REACTORS
330
2A
102
}
330
2A
100
AcDbVisualStyle
  2
GouraudWithEdges
 70
     3
 71
     2
 72
     2
 73
     1
 90
        2
 40
-0.6
 41
30.0
 62
     5
 63
     7
421
 16777215
 74
     1
 91
        4
 64
     7
 65
   257
 75
     1
175
     1
 42
1.0
 92
        0
 66
   257
 43
1.0
 76
     1
 77
     6
 78
     2
 67
     7
 79
     5
170
     0
171
     0
290
     0
174
     0
 93
       13
 44
0.0
173
     0
291
     1
 45
0.0
1001
ACAD
1000
AcDbSavedByObjectVersion
1070
     0
  0
VISUALSTYLE
  5
38
102
{ACAD_REACTORS
330
2A
102
}
330
2A
100
AcDbVisualStyle
  2
Linepattern
 70
    14
 71
     2
 72
     2
 73
     0
 90
        0
 40
-0.6
 41
-30.0
 62
     5
 63
     7
421
 16777215
 74
     1
 91
        4
 64
     7
 65
   257
 75
     7
175
     7
 42
1.0
 92
        8
 66
     7
 43
1.0
 76
     1
 77
     6
 78
     2
 67
     7
 79
     5
170
     0
171
     0
290
     0
174
     0
 93
        1
 44
0.0
173
     0
291
     1
 45
0.0
1001
ACAD
1000
AcDbSavedByObjectVersion
1070
     0
  0
VISUALSTYLE
  5
33
102
{ACAD_REACTORS
330
2A
102
}
330
2A
100
AcDbVisualStyle
  2
Realistic
 70
     8
 71
     2
 72
     2
 73
     0
 90
        0
 40
-0.6
 41
-30.0
 62
     5
 63
     7
421
 16777215
 74
     1
 91
        0
 64
     7
 65
   257
 75
     1
175
     1
 42
1.0
 92
        8
 66
     8
424
  7895160
 43
1.0
 76
     1
 77
     6
 78
     2
 67
     7
 79
     5
170
     0
171
     0
290
     0
174
     0
 93
       13
 44
0.0
173
     0
291
     0
 45
0.0
1001
ACAD
1000
AcDbSavedByObjectVersion
1070
     0
  0
VISUALSTYLE
  5
37
102
{ACAD_REACTORS
330
2A
102
}
330
2A
100
AcDbVisualStyle
  2
Thicken
 70
    13
 71
     2
 72
     2
 73
     0
 90
        0
 40
-0.6
 41
-30.0
 62
     5
 63
     7
421
 16777215
 74
     1
 91
        4
 64
     7
 65
   257
 75
     1
175
     1
 42
1.0
 92
       12
 66
     7
 43
1.0
 76
     1
 77
     6
 78
     2
 67
     7
 79
     5
170
     0
171
     0
290
     0
174
     0
 93
        1
 44
0.0
173
     0
291
     1
 45
0.0
1001
ACAD
1000
AcDbSavedByObjectVersion
1070
     0
  0
DICTIONARYVAR
  5
60B
102
{ACAD_REACTORS
330
60A
102
}
330
60A
100
DictionaryVariables
280
     0
  1
1:1
  0
ENDSEC
  0
EOF
