  0
SECTION
  2
HEADER
  9
$ACADVER
  1
AC1021
  9
$ACADMAINTVER
 70
    25
  9
$DWGCODEPAGE
  3
ANSI_1252
  9
$INSBASE
 10
0.0
 20
0.0
 30
0.0
  9
$EXTMIN
 10
-10.22757
 20
-5.69789
 30
0.0
  9
$EXTMAX
 10
10.22757
 20
5.69998
 30
0.0
  9
$LIMMIN
 10
0.0
 20
0.0
  9
$LIMMAX
 10
12.0
 20
9.0
  9
$ORTHOMODE
 70
     0
  9
$REGENMODE
 70
     1
  9
$FILLMODE
 70
     1
  9
$QTEXTMODE
 70
     0
  9
$MIRRTEXT
 70
     1
  9
$LTSCALE
 40
1.0
  9
$ATTMODE
 70
     1
  9
$TEXTSIZE
 40
0.2
  9
$TRACEWID
 40
0.05
  9
$TEXTSTYLE
  7
Standard
  9
$CLAYER
  8
0
  9
$CELTYPE
  6
ByLayer
  9
$CECOLOR
 62
   256
  9
$CELTSCALE
 40
1.0
  9
$DISPSILH
 70
     0
  9
$DIMSCALE
 40
1.0
  9
$DIMASZ
 40
0.18
  9
$DIMEXO
 40
0.0625
  9
$DIMDLI
 40
0.38
  9
$DIMRND
 40
0.0
  9
$DIMDLE
 40
0.0
  9
$DIMEXE
 40
0.18
  9
$DIMTP
 40
0.0
  9
$DIMTM
 40
0.0
  9
$DIMTXT
 40
0.18
  9
$DIMCEN
 40
0.09
  9
$DIMTSZ
 40
0.0
  9
$DIMTOL
 70
     0
  9
$DIMLIM
 70
     0
  9
$DIMTIH
 70
     1
  9
$DIMTOH
 70
     1
  9
$DIMSE1
 70
     0
  9
$DIMSE2
 70
     0
  9
$DIMTAD
 70
     0
  9
$DIMZIN
 70
     0
  9
$DIMBLK
  1

  9
$DIMASO
 70
     1
  9
$DIMSHO
 70
     1
  9
$DIMPOST
  1

  9
$DIMAPOST
  1

  9
$DIMALT
 70
     0
  9
$DIMALTD
 70
     2
  9
$DIMALTF
 40
25.4
  9
$DIMLFAC
 40
1.0
  9
$DIMTOFL
 70
     0
  9
$DIMTVP
 40
0.0
  9
$DIMTIX
 70
     0
  9
$DIMSOXD
 70
     0
  9
$DIMSAH
 70
     0
  9
$DIMBLK1
  1

  9
$DIMBLK2
  1

  9
$DIMSTYLE
  2
Standard
  9
$DIMCLRD
 70
     0
  9
$DIMCLRE
 70
     0
  9
$DIMCLRT
 70
     0
  9
$DIMTFAC
 40
1.0
  9
$DIMGAP
 40
0.09
  9
$DIMJUST
 70
     0
  9
$DIMSD1
 70
     0
  9
$DIMSD2
 70
     0
  9
$DIMTOLJ
 70
     1
  9
$DIMTZIN
 70
     0
  9
$DIMALTZ
 70
     0
  9
$DIMALTTZ
 70
     0
  9
$DIMUPT
 70
     0
  9
$DIMDEC
 70
     4
  9
$DIMTDEC
 70
     4
  9
$DIMALTU
 70
     2
  9
$DIMALTTD
 70
     2
  9
$DIMTXSTY
  7
Standard
  9
$DIMAUNIT
 70
     0
  9
$DIMADEC
 70
     0
  9
$DIMALTRND
 40
0.0
  9
$DIMAZIN
 70
     0
  9
$DIMDSEP
 70
    46
  9
$DIMATFIT
 70
     3
  9
$DIMFRAC
 70
     0
  9
$DIMLDRBLK
  1

  9
$DIMLUNIT
 70
     2
  9
$DIMLWD
 70
    -2
  9
$DIMLWE
 70
    -2
  9
$DIMTMOVE
 70
     0
  9
$DIMFXL
 40
1.0
  9
$DIMFXLON
 70
     0
  9
$DIMJOGANG
 40
0.7853981633974483
  9
$DIMTFILL
 70
     0
  9
$DIMTFILLCLR
 70
     0
  9
$DIMARCSYM
 70
     0
  9
$DIMLTYPE
  6

  9
$DIMLTEX1
  6

  9
$DIMLTEX2
  6

  9
$LUNITS
 70
     2
  9
$LUPREC
 70
     4
  9
$SKETCHINC
 40
0.1
  9
$FILLETRAD
 40
0.5
  9
$AUNITS
 70
     0
  9
$AUPREC
 70
     0
  9
$MENU
  1
.
  9
$ELEVATION
 40
0.0
  9
$PELEVATION
 40
0.0
  9
$THICKNESS
 40
0.0
  9
$LIMCHECK
 70
     0
  9
$CHAMFERA
 40
0.5
  9
$CHAMFERB
 40
0.5
  9
$CHAMFERC
 40
1.0
  9
$CHAMFERD
 40
0.0
  9
$SKPOLY
 70
     0
  9
$TDCREATE
 40
2455710.154792743
  9
$TDUCREATE
 40
2455710.07145941
  9
$TDUPDATE
 40
2455710.154792754
  9
$TDUUPDATE
 40
2455710.071459421
  9
$TDINDWG
 40
0.0000000116
  9
$TDUSRTIMER
 40
0.0000000116
  9
$USRTIMER
 70
     1
  9
$ANGBASE
 50
0.0
  9
$ANGDIR
 70
     0
  9
$PDMODE
 70
     0
  9
$PDSIZE
 40
0.0
  9
$PLINEWID
 40
0.0
  9
$SPLFRAME
 70
     0
  9
$SPLINETYPE
 70
     6
  9
$SPLINESEGS
 70
     8
  9
$HANDSEED
  5
BE
  9
$SURFTAB1
 70
     6
  9
$SURFTAB2
 70
     6
  9
$SURFTYPE
 70
     6
  9
$SURFU
 70
     6
  9
$SURFV
 70
     6
  9
$UCSBASE
  2

  9
$UCSNAME
  2

  9
$UCSORG
 10
0.0
 20
0.0
 30
0.0
  9
$UCSXDIR
 10
1.0
 20
0.0
 30
0.0
  9
$UCSYDIR
 10
0.0
 20
1.0
 30
0.0
  9
$UCSORTHOREF
  2

  9
$UCSORTHOVIEW
 70
     0
  9
$UCSORGTOP
 10
0.0
 20
0.0
 30
0.0
  9
$UCSORGBOTTOM
 10
0.0
 20
0.0
 30
0.0
  9
$UCSORGLEFT
 10
0.0
 20
0.0
 30
0.0
  9
$UCSORGRIGHT
 10
0.0
 20
0.0
 30
0.0
  9
$UCSORGFRONT
 10
0.0
 20
0.0
 30
0.0
  9
$UCSORGBACK
 10
0.0
 20
0.0
 30
0.0
  9
$PUCSBASE
  2

  9
$PUCSNAME
  2

  9
$PUCSORG
 10
0.0
 20
0.0
 30
0.0
  9
$PUCSXDIR
 10
1.0
 20
0.0
 30
0.0
  9
$PUCSYDIR
 10
0.0
 20
1.0
 30
0.0
  9
$PUCSORTHOREF
  2

  9
$PUCSORTHOVIEW
 70
     0
  9
$PUCSORGTOP
 10
0.0
 20
0.0
 30
0.0
  9
$PUCSORGBOTTOM
 10
0.0
 20
0.0
 30
0.0
  9
$PUCSORGLEFT
 10
0.0
 20
0.0
 30
0.0
  9
$PUCSORGRIGHT
 10
0.0
 20
0.0
 30
0.0
  9
$PUCSORGFRONT
 10
0.0
 20
0.0
 30
0.0
  9
$PUCSORGBACK
 10
0.0
 20
0.0
 30
0.0
  9
$USERI1
 70
     0
  9
$USERI2
 70
     0
  9
$USERI3
 70
     0
  9
$USERI4
 70
     0
  9
$USERI5
 70
     0
  9
$USERR1
 40
0.0
  9
$USERR2
 40
0.0
  9
$USERR3
 40
0.0
  9
$USERR4
 40
0.0
  9
$USERR5
 40
0.0
  9
$WORLDVIEW
 70
     1
  9
$SHADEDGE
 70
     3
  9
$SHADEDIF
 70
    70
  9
$TILEMODE
 70
     1
  9
$MAXACTVP
 70
    64
  9
$PINSBASE
 10
0.0
 20
0.0
 30
0.0
  9
$PLIMCHECK
 70
     0
  9
$PEXTMIN
 10
1.000000000000000E+20
 20
1.000000000000000E+20
 30
1.000000000000000E+20
  9
$PEXTMAX
 10
-1.000000000000000E+20
 20
-1.000000000000000E+20
 30
-1.000000000000000E+20
  9
$PLIMMIN
 10
0.0
 20
0.0
  9
$PLIMMAX
 10
12.0
 20
9.0
  9
$UNITMODE
 70
     0
  9
$VISRETAIN
 70
     1
  9
$PLINEGEN
 70
     0
  9
$PSLTSCALE
 70
     1
  9
$TREEDEPTH
 70
  3020
  9
$CMLSTYLE
  2
Standard
  9
$CMLJUST
 70
     0
  9
$CMLSCALE
 40
1.0
  9
$PROXYGRAPHICS
 70
     1
  9
$MEASUREMENT
 70
     0
  9
$CELWEIGHT
370
    -1
  9
$ENDCAPS
280
     0
  9
$JOINSTYLE
280
     0
  9
$LWDISPLAY
290
     0
  9
$INSUNITS
 70
     5
  9
$HYPERLINKBASE
  1

  9
$STYLESHEET
  1

  9
$XEDIT
290
     1
  9
$CEPSNTYPE
380
     0
  9
$PSTYLEMODE
290
     1
  9
$FINGERPRINTGUID
  2
{EDEAE852-9A66-49A7-8724-2E9FC3F77BBC}
  9
$VERSIONGUID
  2
{FAEB1C32-E019-11D5-929B-00C0DF256EC4}
  9
$EXTNAMES
290
     1
  9
$PSVPSCALE
 40
0.0
  9
$OLESTARTUP
290
     0
  9
$SORTENTS
280
   127
  9
$INDEXCTL
280
     0
  9
$HIDETEXT
280
     1
  9
$XCLIPFRAME
290
     0
  9
$HALOGAP
280
     0
  9
$OBSCOLOR
 70
   257
  9
$OBSLTYPE
280
     0
  9
$INTERSECTIONDISPLAY
280
     0
  9
$INTERSECTIONCOLOR
 70
   257
  9
$DIMASSOC
280
     2
  9
$PROJECTNAME
  1

  9
$CAMERADISPLAY
290
     0
  9
$LENSLENGTH
 40
50.0
  9
$CAMERAHEIGHT
 40
0.0
  9
$STEPSPERSEC
 40
2.0
  9
$STEPSIZE
 40
6.0
  9
$3DDWFPREC
 40
2.0
  9
$PSOLWIDTH
 40
0.25
  9
$PSOLHEIGHT
 40
4.0
  9
$LOFTANG1
 40
1.570796326794897
  9
$LOFTANG2
 40
1.570796326794897
  9
$LOFTMAG1
 40
0.0
  9
$LOFTMAG2
 40
0.0
  9
$LOFTPARAM
 70
     7
  9
$LOFTNORMALS
280
     1
  9
$LATITUDE
 40
37.795
  9
$LONGITUDE
 40
-122.394
  9
$NORTHDIRECTION
 40
0.0
  9
$TIMEZONE
 70
 -8000
  9
$LIGHTGLYPHDISPLAY
280
     1
  9
$TILEMODELIGHTSYNCH
280
     1
  9
$SOLIDHIST
280
     1
  9
$SHOWHIST
280
     1
  9
$DWFFRAME
280
     2
  9
$DGNFRAME
280
     2
  9
$REALWORLDSCALE
290
     1
  9
$INTERFERECOLOR
 62
   256
  9
$CSHADOW
280
     0
  9
$SHADOWPLANELOCATION
 40
0.0
  0
ENDSEC
  0
SECTION
  2
CLASSES
  0
CLASS
  1
ACDBDICTIONARYWDFLT
  2
AcDbDictionaryWithDefault
  3
ObjectDBX Classes
 90
        0
 91
        3
280
     0
281
     0
  0
CLASS
  1
VISUALSTYLE
  2
AcDbVisualStyle
  3
ObjectDBX Classes
 90
     4095
 91
        3
280
     0
281
     0
  0
CLASS
  1
SCALE
  2
AcDbScale
  3
ObjectDBX Classes
 90
     1153
 91
        3
280
     0
281
     0
  0
ENDSEC
  0
SECTION
  2
TABLES
  0
TABLE
  2
VPORT
  5
8
330
0
100
AcDbSymbolTable
 70
     1
  0
VPORT
  5
29
330
8
100
AcDbSymbolTableRecord
100
AcDbViewportTableRecord
  2
*Active
 70
     0
 10
0.0
 20
0.0
 11
1.0
 21
1.0
 12
10.42990654205607
 22
4.5
 13
0.0
 23
0.0
 14
0.5
 24
0.5
 15
0.5
 25
0.5
 16
0.0
 26
0.0
 36
1.0
 17
0.0
 27
0.0
 37
0.0
 40
9.0
 41
1.972972972850329
 42
50.0
 43
0.0
 44
0.0
 50
0.0
 51
0.0
 71
     0
 72
   100
 73
     1
 74
     3
 75
     0
 76
     0
 77
     0
 78
     0
281
     0
 65
     1
110
0.0
120
0.0
130
0.0
111
1.0
121
0.0
131
0.0
112
0.0
122
1.0
132
0.0
 79
     0
146
0.0
 60
     3
 61
     5
292
     1
282
     1
141
0.0
142
0.0
 63
   256
  0
ENDTAB
  0
TABLE
  2
LTYPE
  5
5
330
0
100
AcDbSymbolTable
 70
     1
  0
LTYPE
  5
14
330
5
100
AcDbSymbolTableRecord
100
AcDbLinetypeTableRecord
  2
ByBlock
 70
     0
  3

 72
    65
 73
     0
 40
0.0
  0
LTYPE
  5
15
330
5
100
AcDbSymbolTableRecord
100
AcDbLinetypeTableRecord
  2
ByLayer
 70
     0
  3

 72
    65
 73
     0
 40
0.0
  0
LTYPE
  5
16
330
5
100
AcDbSymbolTableRecord
100
AcDbLinetypeTableRecord
  2
Continuous
 70
     0
  3
Solid line
 72
    65
 73
     0
 40
0.0
  0
ENDTAB
  0
TABLE
  2
LAYER
  5
2
330
0
100
AcDbSymbolTable
 70
     2
  0
LAYER
  5
10
330
2
100
AcDbSymbolTableRecord
100
AcDbLayerTableRecord
  2
0
 70
     0
 62
     7
  6
Continuous
370
    -3
390
F
347
0
  0
LAYER
  5
5E
330
2
100
AcDbSymbolTableRecord
100
AcDbLayerTableRecord
  2
Layer 1
 70
     0
 62
     7
  6
Continuous
370
    -3
390
F
347
0
  0
ENDTAB
  0
TABLE
  2
STYLE
  5
3
330
0
100
AcDbSymbolTable
 70
     1
  0
STYLE
  5
11
330
3
100
AcDbSymbolTableRecord
100
AcDbTextStyleTableRecord
  2
Standard
 70
     0
 40
0.0
 41
1.0
 50
0.0
 71
     0
 42
0.2
  3
txt
  4

  0
ENDTAB
  0
TABLE
  2
VIEW
  5
6
330
0
100
AcDbSymbolTable
 70
     0
  0
ENDTAB
  0
TABLE
  2
UCS
  5
7
330
0
100
AcDbSymbolTable
 70
     0
  0
ENDTAB
  0
TABLE
  2
APPID
  5
9
330
0
100
AcDbSymbolTable
 70
     2
  0
APPID
  5
12
330
9
100
AcDbSymbolTableRecord
100
AcDbRegAppTableRecord
  2
ACAD
 70
     0
  0
APPID
  5
5D
330
9
100
AcDbSymbolTableRecord
100
AcDbRegAppTableRecord
  2
ODA
 70
     0
  0
ENDTAB
  0
TABLE
  2
DIMSTYLE
  5
A
330
0
100
AcDbSymbolTable
 70
     1
100
AcDbDimStyleTable
  0
DIMSTYLE
105
27
330
A
100
AcDbSymbolTableRecord
100
AcDbDimStyleTableRecord
  2
Standard
 70
     0
340
11
  0
ENDTAB
  0
TABLE
  2
BLOCK_RECORD
  5
1
330
0
100
AcDbSymbolTable
 70
     1
  0
BLOCK_RECORD
  5
1F
330
1
100
AcDbSymbolTableRecord
100
AcDbBlockTableRecord
  2
*Model_Space
340
22
 70
     0
280
     1
281
     0
  0
BLOCK_RECORD
  5
1B
330
1
100
AcDbSymbolTableRecord
100
AcDbBlockTableRecord
  2
*Paper_Space
340
1E
 70
     0
280
     1
281
     0
  0
BLOCK_RECORD
  5
23
330
1
100
AcDbSymbolTableRecord
100
AcDbBlockTableRecord
  2
*Paper_Space0
340
26
 70
     0
280
     1
281
     0
  0
ENDTAB
  0
ENDSEC
  0
SECTION
  2
BLOCKS
  0
BLOCK
  5
20
330
1F
100
AcDbEntity
  8
0
100
AcDbBlockBegin
  2
*Model_Space
 70
     0
 10
0.0
 20
0.0
 30
0.0
  3
*Model_Space
  1

  0
ENDBLK
  5
21
330
1F
100
AcDbEntity
  8
0
100
AcDbBlockEnd
  0
BLOCK
  5
1C
330
1B
100
AcDbEntity
 67
     1
  8
0
100
AcDbBlockBegin
  2
*Paper_Space
 70
     0
 10
0.0
 20
0.0
 30
0.0
  3
*Paper_Space
  1

  0
ENDBLK
  5
1D
330
1B
100
AcDbEntity
 67
     1
  8
0
100
AcDbBlockEnd
  0
BLOCK
  5
24
330
23
100
AcDbEntity
  8
0
100
AcDbBlockBegin
  2
*Paper_Space0
 70
     0
 10
0.0
 20
0.0
 30
0.0
  3
*Paper_Space0
  1

  0
ENDBLK
  5
25
330
23
100
AcDbEntity
  8
0
100
AcDbBlockEnd
  0
ENDSEC
  0
SECTION
  2
ENTITIES
  0
SPLINE
  5
5F
330
1F
100
AcDbEntity
  8
Layer 1
 62
    22
370
     5
100
AcDbSpline
210
0.0
220
0.0
230
1.0
 70
    11
 71
     3
 72
    20
 73
    16
 74
     0
 42
0.0000000001
 43
0.0000000001
 40
0.0
 40
0.0
 40
0.0
 40
0.0
 40
0.25
 40
0.25
 40
0.25
 40
0.25
 40
0.5
 40
0.5
 40
0.5
 40
0.5
 40
0.75
 40
0.75
 40
0.75
 40
0.75
 40
1.0
 40
1.0
 40
1.0
 40
1.0
 10
-5.94122
 20
4.70363
 30
0.0
 10
-5.94122
 20
4.70363
 30
0.0
 10
-5.81041
 20
4.70363
 30
0.0
 10
-5.81041
 20
4.70363
 30
0.0
 10
-5.81041
 20
4.70363
 30
0.0
 10
-5.81041
 20
4.70363
 30
0.0
 10
-5.81041
 20
4.17941
 30
0.0
 10
-5.81041
 20
4.17941
 30
0.0
 10
-5.81041
 20
4.17941
 30
0.0
 10
-5.81041
 20
4.17941
 30
0.0
 10
-5.9112
 20
4.17941
 30
0.0
 10
-5.9112
 20
4.17941
 30
0.0
 10
-5.9112
 20
4.17941
 30
0.0
 10
-5.9112
 20
4.17941
 30
0.0
 10
-5.94122
 20
4.70363
 30
0.0
 10
-5.94122
 20
4.70363
 30
0.0
  0
SPLINE
  5
60
330
1F
100
AcDbEntity
  8
Layer 1
 62
    22
370
     5
100
AcDbSpline
210
0.0
220
0.0
230
1.0
 70
    11
 71
     3
 72
    20
 73
    16
 74
     0
 42
0.0000000001
 43
0.0000000001
 40
0.0
 40
0.0
 40
0.0
 40
0.0
 40
0.25
 40
0.25
 40
0.25
 40
0.25
 40
0.5
 40
0.5
 40
0.5
 40
0.5
 40
0.75
 40
0.75
 40
0.75
 40
0.75
 40
1.0
 40
1.0
 40
1.0
 40
1.0
 10
-5.53592
 20
5.13976
 30
0.0
 10
-5.53592
 20
5.13976
 30
0.0
 10
-5.42655
 20
5.13976
 30
0.0
 10
-5.42655
 20
5.13976
 30
0.0
 10
-5.42655
 20
5.13976
 30
0.0
 10
-5.42655
 20
5.13976
 30
0.0
 10
-5.4094
 20
4.45871
 30
0.0
 10
-5.4094
 20
4.45871
 30
0.0
 10
-5.4094
 20
4.45871
 30
0.0
 10
-5.4094
 20
4.45871
 30
0.0
 10
-5.51876
 20
4.45871
 30
0.0
 10
-5.51876
 20
4.45871
 30
0.0
 10
-5.51876
 20
4.45871
 30
0.0
 10
-5.51876
 20
4.45871
 30
0.0
 10
-5.53592
 20
5.13976
 30
0.0
 10
-5.53592
 20
5.13976
 30
0.0
  0
SPLINE
  5
61
330
1F
100
AcDbEntity
  8
Layer 1
 62
    22
370
     5
100
AcDbSpline
210
0.0
220
0.0
230
1.0
 70
    11
 71
     3
 72
   212
 73
   208
 74
     0
 42
0.0000000001
 43
0.0000000001
 40
0.0
 40
0.0
 40
0.0
 40
0.0
 40
0.0192307692307692
 40
0.0192307692307692
 40
0.0192307692307692
 40
0.0192307692307692
 40
0.0384615384615385
 40
0.0384615384615385
 40
0.0384615384615385
 40
0.0384615384615385
 40
0.0576923076923077
 40
0.0576923076923077
 40
0.0576923076923077
 40
0.0576923076923077
 40
0.0769230769230769
 40
0.0769230769230769
 40
0.0769230769230769
 40
0.0769230769230769
 40
0.0961538461538462
 40
0.0961538461538462
 40
0.0961538461538462
 40
0.0961538461538462
 40
0.1153846153846154
 40
0.1153846153846154
 40
0.1153846153846154
 40
0.1153846153846154
 40
0.1346153846153846
 40
0.1346153846153846
 40
0.1346153846153846
 40
0.1346153846153846
 40
0.1538461538461539
 40
0.1538461538461539
 40
0.1538461538461539
 40
0.1538461538461539
 40
0.1730769230769231
 40
0.1730769230769231
 40
0.1730769230769231
 40
0.1730769230769231
 40
0.1923076923076923
 40
0.1923076923076923
 40
0.1923076923076923
 40
0.1923076923076923
 40
0.2115384615384615
 40
0.2115384615384615
 40
0.2115384615384615
 40
0.2115384615384615
 40
0.2307692307692307
 40
0.2307692307692307
 40
0.2307692307692307
 40
0.2307692307692307
 40
0.2499999999999999
 40
0.2499999999999999
 40
0.2499999999999999
 40
0.2499999999999999
 40
0.2692307692307692
 40
0.2692307692307692
 40
0.2692307692307692
 40
0.2692307692307692
 40
0.2884615384615384
 40
0.2884615384615384
 40
0.2884615384615384
 40
0.2884615384615384
 40
0.3076923076923076
 40
0.3076923076923076
 40
0.3076923076923076
 40
0.3076923076923076
 40
0.3269230769230768
 40
0.3269230769230768
 40
0.3269230769230768
 40
0.3269230769230768
 40
0.346153846153846
 40
0.346153846153846
 40
0.346153846153846
 40
0.346153846153846
 40
0.3653846153846153
 40
0.3653846153846153
 40
0.3653846153846153
 40
0.3653846153846153
 40
0.3846153846153845
 40
0.3846153846153845
 40
0.3846153846153845
 40
0.3846153846153845
 40
0.4038461538461537
 40
0.4038461538461537
 40
0.4038461538461537
 40
0.4038461538461537
 40
0.4230769230769229
 40
0.4230769230769229
 40
0.4230769230769229
 40
0.4230769230769229
 40
0.4423076923076921
 40
0.4423076923076921
 40
0.4423076923076921
 40
0.4423076923076921
 40
0.4615384615384613
 40
0.4615384615384613
 40
0.4615384615384613
 40
0.4615384615384613
 40
0.4807692307692306
 40
0.4807692307692306
 40
0.4807692307692306
 40
0.4807692307692306
 40
0.4999999999999998
 40
0.4999999999999998
 40
0.4999999999999998
 40
0.4999999999999998
 40
0.519230769230769
 40
0.519230769230769
 40
0.519230769230769
 40
0.519230769230769
 40
0.5384615384615383
 40
0.5384615384615383
 40
0.5384615384615383
 40
0.5384615384615383
 40
0.5576923076923076
 40
0.5576923076923076
 40
0.5576923076923076
 40
0.5576923076923076
 40
0.5769230769230769
 40
0.5769230769230769
 40
0.5769230769230769
 40
0.5769230769230769
 40
0.5961538461538461
 40
0.5961538461538461
 40
0.5961538461538461
 40
0.5961538461538461
 40
0.6153846153846154
 40
0.6153846153846154
 40
0.6153846153846154
 40
0.6153846153846154
 40
0.6346153846153847
 40
0.6346153846153847
 40
0.6346153846153847
 40
0.6346153846153847
 40
0.653846153846154
 40
0.653846153846154
 40
0.653846153846154
 40
0.653846153846154
 40
0.6730769230769232
 40
0.6730769230769232
 40
0.6730769230769232
 40
0.6730769230769232
 40
0.6923076923076925
 40
0.6923076923076925
 40
0.6923076923076925
 40
0.6923076923076925
 40
0.7115384615384618
 40
0.7115384615384618
 40
0.7115384615384618
 40
0.7115384615384618
 40
0.7307692307692311
 40
0.7307692307692311
 40
0.7307692307692311
 40
0.7307692307692311
 40
0.7500000000000003
 40
0.7500000000000003
 40
0.7500000000000003
 40
0.7500000000000003
 40
0.7692307692307696
 40
0.7692307692307696
 40
0.7692307692307696
 40
0.7692307692307696
 40
0.7884615384615389
 40
0.7884615384615389
 40
0.7884615384615389
 40
0.7884615384615389
 40
0.8076923076923082
 40
0.8076923076923082
 40
0.8076923076923082
 40
0.8076923076923082
 40
0.8269230769230774
 40
0.8269230769230774
 40
0.8269230769230774
 40
0.8269230769230774
 40
0.8461538461538467
 40
0.8461538461538467
 40
0.8461538461538467
 40
0.8461538461538467
 40
0.865384615384616
 40
0.865384615384616
 40
0.865384615384616
 40
0.865384615384616
 40
0.8846153846153852
 40
0.8846153846153852
 40
0.8846153846153852
 40
0.8846153846153852
 40
0.9038461538461545
 40
0.9038461538461545
 40
0.9038461538461545
 40
0.9038461538461545
 40
0.9230769230769238
 40
0.9230769230769238
 40
0.9230769230769238
 40
0.9230769230769238
 40
0.9423076923076931
 40
0.9423076923076931
 40
0.9423076923076931
 40
0.9423076923076931
 40
0.9615384615384623
 40
0.9615384615384623
 40
0.9615384615384623
 40
0.9615384615384623
 40
0.9807692307692316
 40
0.9807692307692316
 40
0.9807692307692316
 40
0.9807692307692316
 40
1.0
 40
1.0
 40
1.0
 40
1.0
 10
-5.79295
 20
5.68057
 30
0.0
 10
-5.79295
 20
5.68057
 30
0.0
 10
-5.21686
 20
5.67418
 30
0.0
 10
-5.21686
 20
5.67418
 30
0.0
 10
-5.21686
 20
5.67418
 30
0.0
 10
-5.21686
 20
5.67418
 30
0.0
 10
-5.28505
 20
5.41333
 30
0.0
 10
-5.28505
 20
5.41333
 30
0.0
 10
-5.28505
 20
5.41333
 30
0.0
 10
-5.28505
 20
5.41333
 30
0.0
 10
-5.20816
 20
5.39315
 30
0.0
 10
-5.20816
 20
5.39315
 30
0.0
 10
-5.20816
 20
5.39315
 30
0.0
 10
-5.20816
 20
5.39315
 30
0.0
 10
-5.115
 20
5.65347
 30
0.0
 10
-5.115
 20
5.65347
 30
0.0
 10
-5.115
 20
5.65347
 30
0.0
 10
-4.96097
 20
5.60582
 30
0.0
 10
-4.84133
 20
5.53939
 30
0.0
 10
-4.75018
 20
5.45736
 30
0.0
 10
-4.75018
 20
5.45736
 30
0.0
 10
-4.75018
 20
5.45736
 30
0.0
 10
-4.8812
 20
5.22761
 30
0.0
 10
-4.8812
 20
5.22761
 30
0.0
 10
-4.8812
 20
5.22761
 30
0.0
 10
-4.8812
 20
5.22761
 30
0.0
 10
-4.80723
 20
5.17834
 30
0.0
 10
-4.80723
 20
5.17834
 30
0.0
 10
-4.80723
 20
5.17834
 30
0.0
 10
-4.80723
 20
5.17834
 30
0.0
 10
-4.66461
 20
5.38269
 30
0.0
 10
-4.66461
 20
5.38269
 30
0.0
 10
-4.66461
 20
5.38269
 30
0.0
 10
-4.58818
 20
5.30096
 30
0.0
 10
-4.50164
 20
5.19634
 30
0.0
 10
-4.4366
 20
5.05158
 30
0.0
 10
-4.4366
 20
5.05158
 30
0.0
 10
-4.4366
 20
5.05158
 30
0.0
 10
-4.64877
 20
4.90779
 30
0.0
 10
-4.64877
 20
4.90779
 30
0.0
 10
-4.64877
 20
4.90779
 30
0.0
 10
-4.64877
 20
4.90779
 30
0.0
 10
-4.61195
 20
4.8325
 30
0.0
 10
-4.61195
 20
4.8325
 30
0.0
 10
-4.61195
 20
4.8325
 30
0.0
 10
-4.61195
 20
4.8325
 30
0.0
 10
-4.40401
 20
4.93808
 30
0.0
 10
-4.40401
 20
4.93808
 30
0.0
 10
-4.40401
 20
4.93808
 30
0.0
 10
-4.37145
 20
4.75397
 30
0.0
 10
-4.36175
 20
4.56984
 30
0.0
 10
-4.37488
 20
4.38569
 30
0.0
 10
-4.37488
 20
4.38569
 30
0.0
 10
-4.37488
 20
4.38569
 30
0.0
 10
-4.62263
 20
4.41789
 30
0.0
 10
-4.62263
 20
4.41789
 30
0.0
 10
-4.62263
 20
4.41789
 30
0.0
 10
-4.62263
 20
4.41789
 30
0.0
 10
-4.62141
 20
4.33614
 30
0.0
 10
-4.62141
 20
4.33614
 30
0.0
 10
-4.62141
 20
4.33614
 30
0.0
 10
-4.62141
 20
4.33614
 30
0.0
 10
-4.39537
 20
4.29966
 30
0.0
 10
-4.39537
 20
4.29966
 30
0.0
 10
-4.39537
 20
4.29966
 30
0.0
 10
-4.39889
 20
4.13497
 30
0.0
 10
-4.43672
 20
3.99893
 30
0.0
 10
-4.50886
 20
3.89152
 30
0.0
 10
-4.50886
 20
3.89152
 30
0.0
 10
-4.50886
 20
3.89152
 30
0.0
 10
-4.74505
 20
4.04614
 30
0.0
 10
-4.74505
 20
4.04614
 30
0.0
 10
-4.74505
 20
4.04614
 30
0.0
 10
-4.74505
 20
4.04614
 30
0.0
 10
-4.78392
 20
3.97805
 30
0.0
 10
-4.78392
 20
3.97805
 30
0.0
 10
-4.78392
 20
3.97805
 30
0.0
 10
-4.78392
 20
3.97805
 30
0.0
 10
-4.54956
 20
3.80563
 30
0.0
 10
-4.54956
 20
3.80563
 30
0.0
 10
-4.54956
 20
3.80563
 30
0.0
 10
-4.64467
 20
3.68491
 30
0.0
 10
-4.72427
 20
3.58864
 30
0.0
 10
-4.8079
 20
3.52514
 30
0.0
 10
-4.8079
 20
3.52514
 30
0.0
 10
-4.8079
 20
3.52514
 30
0.0
 10
-4.98418
 20
3.76863
 30
0.0
 10
-4.98418
 20
3.76863
 30
0.0
 10
-4.98418
 20
3.76863
 30
0.0
 10
-4.98418
 20
3.76863
 30
0.0
 10
-5.04185
 20
3.71988
 30
0.0
 10
-5.04185
 20
3.71988
 30
0.0
 10
-5.04185
 20
3.71988
 30
0.0
 10
-5.04185
 20
3.71988
 30
0.0
 10
-4.90272
 20
3.46474
 30
0.0
 10
-4.90272
 20
3.46474
 30
0.0
 10
-4.90272
 20
3.46474
 30
0.0
 10
-5.03321
 20
3.36076
 30
0.0
 10
-5.18942
 20
3.25964
 30
0.0
 10
-5.37133
 20
3.16136
 30
0.0
 10
-5.37133
 20
3.16136
 30
0.0
 10
-5.37133
 20
3.16136
 30
0.0
 10
-5.37307
 20
3.58274
 30
0.0
 10
-5.37307
 20
3.58274
 30
0.0
 10
-5.37307
 20
3.58274
 30
0.0
 10
-5.37307
 20
3.58274
 30
0.0
 10
-5.48279
 20
3.58175
 30
0.0
 10
-5.48279
 20
3.58175
 30
0.0
 10
-5.48279
 20
3.58175
 30
0.0
 10
-5.48279
 20
3.58175
 30
0.0
 10
-5.48098
 20
3.15666
 30
0.0
 10
-5.48098
 20
3.15666
 30
0.0
 10
-5.48098
 20
3.15666
 30
0.0
 10
-5.65654
 20
3.22795
 30
0.0
 10
-5.81209
 20
3.31929
 30
0.0
 10
-5.94761
 20
3.43067
 30
0.0
 10
-5.94761
 20
3.43067
 30
0.0
 10
-5.94761
 20
3.43067
 30
0.0
 10
-5.85137
 20
3.6982
 30
0.0
 10
-5.85137
 20
3.6982
 30
0.0
 10
-5.85137
 20
3.6982
 30
0.0
 10
-5.85137
 20
3.6982
 30
0.0
 10
-5.93101
 20
3.74808
 30
0.0
 10
-5.93101
 20
3.74808
 30
0.0
 10
-5.93101
 20
3.74808
 30
0.0
 10
-5.93101
 20
3.74808
 30
0.0
 10
-6.03551
 20
3.51508
 30
0.0
 10
-6.03551
 20
3.51508
 30
0.0
 10
-6.03551
 20
3.51508
 30
0.0
 10
-6.16492
 20
3.5983
 30
0.0
 10
-6.26411
 20
3.69084
 30
0.0
 10
-6.31914
 20
3.79695
 30
0.0
 10
-6.31914
 20
3.79695
 30
0.0
 10
-6.31914
 20
3.79695
 30
0.0
 10
-6.12216
 20
3.96472
 30
0.0
 10
-6.12216
 20
3.96472
 30
0.0
 10
-6.12216
 20
3.96472
 30
0.0
 10
-6.12216
 20
3.96472
 30
0.0
 10
-6.162
 20
4.02875
 30
0.0
 10
-6.162
 20
4.02875
 30
0.0
 10
-6.162
 20
4.02875
 30
0.0
 10
-6.162
 20
4.02875
 30
0.0
 10
-6.36181
 20
3.87216
 30
0.0
 10
-6.36181
 20
3.87216
 30
0.0
 10
-6.36181
 20
3.87216
 30
0.0
 10
-6.44559
 20
3.99719
 30
0.0
 10
-6.50344
 20
4.13259
 30
0.0
 10
-6.53002
 20
4.2805
 30
0.0
 10
-6.53002
 20
4.2805
 30
0.0
 10
-6.53002
 20
4.2805
 30
0.0
 10
-6.28148
 20
4.3243
 30
0.0
 10
-6.28148
 20
4.3243
 30
0.0
 10
-6.28148
 20
4.3243
 30
0.0
 10
-6.28148
 20
4.3243
 30
0.0
 10
-6.29306
 20
4.41732
 30
0.0
 10
-6.29306
 20
4.41732
 30
0.0
 10
-6.29306
 20
4.41732
 30
0.0
 10
-6.29306
 20
4.41732
 30
0.0
 10
-6.54282
 20
4.38357
 30
0.0
 10
-6.54282
 20
4.38357
 30
0.0
 10
-6.54282
 20
4.38357
 30
0.0
 10
-6.54282
 20
4.38357
 30
0.0
 10
-6.54326
 20
4.90821
 30
0.0
 10
-6.54326
 20
4.90821
 30
0.0
 10
-6.54326
 20
4.90821
 30
0.0
 10
-6.54326
 20
4.90821
 30
0.0
 10
-6.32089
 20
4.82483
 30
0.0
 10
-6.32089
 20
4.82483
 30
0.0
 10
-6.32089
 20
4.82483
 30
0.0
 10
-6.32089
 20
4.82483
 30
0.0
 10
-6.27652
 20
4.89464
 30
0.0
 10
-6.27652
 20
4.89464
 30
0.0
 10
-6.27652
 20
4.89464
 30
0.0
 10
-6.27652
 20
4.89464
 30
0.0
 10
-6.50151
 20
5.03006
 30
0.0
 10
-6.50151
 20
5.03006
 30
0.0
 10
-6.50151
 20
5.03006
 30
0.0
 10
-6.50151
 20
5.03006
 30
0.0
 10
-6.32595
 20
5.36514
 30
0.0
 10
-6.32595
 20
5.36514
 30
0.0
 10
-6.32595
 20
5.36514
 30
0.0
 10
-6.32595
 20
5.36514
 30
0.0
 10
-6.14265
 20
5.15507
 30
0.0
 10
-6.14265
 20
5.15507
 30
0.0
 10
-6.14265
 20
5.15507
 30
0.0
 10
-6.14265
 20
5.15507
 30
0.0
 10
-6.08729
 20
5.21578
 30
0.0
 10
-6.08729
 20
5.21578
 30
0.0
 10
-6.08729
 20
5.21578
 30
0.0
 10
-6.08729
 20
5.21578
 30
0.0
 10
-6.2323
 20
5.41362
 30
0.0
 10
-6.2323
 20
5.41362
 30
0.0
 10
-6.2323
 20
5.41362
 30
0.0
 10
-6.1437
 20
5.53832
 30
0.0
 10
-6.02936
 20
5.61432
 30
0.0
 10
-5.88924
 20
5.64158
 30
0.0
 10
-5.88924
 20
5.64158
 30
0.0
 10
-5.88924
 20
5.64158
 30
0.0
 10
-5.77688
 20
5.38847
 30
0.0
 10
-5.77688
 20
5.38847
 30
0.0
 10
-5.77688
 20
5.38847
 30
0.0
 10
-5.77688
 20
5.38847
 30
0.0
 10
-5.7065
 20
5.42522
 30
0.0
 10
-5.7065
 20
5.42522
 30
0.0
 10
-5.7065
 20
5.42522
 30
0.0
 10
-5.7065
 20
5.42522
 30
0.0
 10
-5.79295
 20
5.68057
 30
0.0
 10
-5.79295
 20
5.68057
 30
0.0
  0
SPLINE
  5
62
330
1F
100
AcDbEntity
  8
Layer 1
 62
    22
370
     5
100
AcDbSpline
210
0.0
220
0.0
230
1.0
 70
    11
 71
     3
 72
    20
 73
    16
 74
     0
 42
0.0000000001
 43
0.0000000001
 40
0.0
 40
0.0
 40
0.0
 40
0.0
 40
0.25
 40
0.25
 40
0.25
 40
0.25
 40
0.5
 40
0.5
 40
0.5
 40
0.5
 40
0.75
 40
0.75
 40
0.75
 40
0.75
 40
1.0
 40
1.0
 40
1.0
 40
1.0
 10
-5.11775
 20
4.69933
 30
0.0
 10
-5.11775
 20
4.69933
 30
0.0
 10
-4.99552
 20
4.69933
 30
0.0
 10
-4.99552
 20
4.69933
 30
0.0
 10
-4.99552
 20
4.69933
 30
0.0
 10
-4.99552
 20
4.69933
 30
0.0
 10
-4.99552
 20
4.188
 30
0.0
 10
-4.99552
 20
4.188
 30
0.0
 10
-4.99552
 20
4.188
 30
0.0
 10
-4.99552
 20
4.188
 30
0.0
 10
-5.11775
 20
4.188
 30
0.0
 10
-5.11775
 20
4.188
 30
0.0
 10
-5.11775
 20
4.188
 30
0.0
 10
-5.11775
 20
4.188
 30
0.0
 10
-5.11775
 20
4.69933
 30
0.0
 10
-5.11775
 20
4.69933
 30
0.0
  0
SPLINE
  5
63
330
1F
100
AcDbEntity
  8
Layer 1
 62
    22
370
     5
100
AcDbSpline
210
0.0
220
0.0
230
1.0
 70
    11
 71
     3
 72
    36
 73
    32
 74
     0
 42
0.0000000001
 43
0.0000000001
 40
0.0
 40
0.0
 40
0.0
 40
0.0
 40
0.125
 40
0.125
 40
0.125
 40
0.125
 40
0.25
 40
0.25
 40
0.25
 40
0.25
 40
0.375
 40
0.375
 40
0.375
 40
0.375
 40
0.5
 40
0.5
 40
0.5
 40
0.5
 40
0.625
 40
0.625
 40
0.625
 40
0.625
 40
0.75
 40
0.75
 40
0.75
 40
0.75
 40
0.875
 40
0.875
 40
0.875
 40
0.875
 40
1.0
 40
1.0
 40
1.0
 40
1.0
 10
-10.00186
 20
3.29193
 30
0.0
 10
-9.9079
 20
3.15514
 30
0.0
 10
-9.75264
 20
3.16731
 30
0.0
 10
-9.76015
 20
3.3972
 30
0.0
 10
-9.76015
 20
3.3972
 30
0.0
 10
-9.7714
 20
3.64953
 30
0.0
 10
-9.73387
 20
3.86695
 30
0.0
 10
-9.62503
 20
4.03336
 30
0.0
 10
-9.62503
 20
4.03336
 30
0.0
 10
-9.47413
 20
4.26159
 30
0.0
 10
-9.50148
 20
4.42402
 30
0.0
 10
-9.67652
 20
4.53196
 30
0.0
 10
-9.67652
 20
4.53196
 30
0.0
 10
-9.67652
 20
4.53196
 30
0.0
 10
-9.78872
 20
4.18756
 30
0.0
 10
-9.78872
 20
4.18756
 30
0.0
 10
-9.78872
 20
4.18756
 30
0.0
 10
-9.78872
 20
4.18756
 30
0.0
 10
-9.87506
 20
4.20954
 30
0.0
 10
-9.87506
 20
4.20954
 30
0.0
 10
-9.87506
 20
4.20954
 30
0.0
 10
-9.87506
 20
4.20954
 30
0.0
 10
-9.76383
 20
4.55344
 30
0.0
 10
-9.76383
 20
4.55344
 30
0.0
 10
-9.76383
 20
4.55344
 30
0.0
 10
-10.06308
 20
4.59298
 30
0.0
 10
-10.19971
 20
4.33802
 30
0.0
 10
-10.20158
 20
3.83904
 30
0.0
 10
-10.20158
 20
3.83904
 30
0.0
 10
-10.16534
 20
3.60963
 30
0.0
 10
-10.07584
 20
3.43131
 30
0.0
 10
-10.00186
 20
3.29193
 30
0.0
  0
SPLINE
  5
64
330
1F
100
AcDbEntity
  8
Layer 1
 62
    22
370
     5
100
AcDbSpline
210
0.0
220
0.0
230
1.0
 70
    11
 71
     3
 72
    20
 73
    16
 74
     0
 42
0.0000000001
 43
0.0000000001
 40
0.0
 40
0.0
 40
0.0
 40
0.0
 40
0.25
 40
0.25
 40
0.25
 40
0.25
 40
0.5
 40
0.5
 40
0.5
 40
0.5
 40
0.75
 40
0.75
 40
0.75
 40
0.75
 40
1.0
 40
1.0
 40
1.0
 40
1.0
 10
-9.3209
 20
4.40285
 30
0.0
 10
-9.3209
 20
4.40285
 30
0.0
 10
-8.7033
 20
4.40285
 30
0.0
 10
-8.7033
 20
4.40285
 30
0.0
 10
-8.7033
 20
4.40285
 30
0.0
 10
-8.7033
 20
4.40285
 30
0.0
 10
-8.7033
 20
3.70675
 30
0.0
 10
-8.7033
 20
3.70675
 30
0.0
 10
-8.7033
 20
3.70675
 30
0.0
 10
-8.7033
 20
3.70675
 30
0.0
 10
-9.3209
 20
3.70675
 30
0.0
 10
-9.3209
 20
3.70675
 30
0.0
 10
-9.3209
 20
3.70675
 30
0.0
 10
-9.3209
 20
3.70675
 30
0.0
 10
-9.3209
 20
4.40285
 30
0.0
 10
-9.3209
 20
4.40285
 30
0.0
  0
SPLINE
  5
65
330
1F
100
AcDbEntity
  8
Layer 1
 62
    22
370
     5
100
AcDbSpline
210
0.0
220
0.0
230
1.0
 70
    11
 71
     3
 72
    20
 73
    16
 74
     0
 42
0.0000000001
 43
0.0000000001
 40
0.0
 40
0.0
 40
0.0
 40
0.0
 40
0.25
 40
0.25
 40
0.25
 40
0.25
 40
0.5
 40
0.5
 40
0.5
 40
0.5
 40
0.75
 40
0.75
 40
0.75
 40
0.75
 40
1.0
 40
1.0
 40
1.0
 40
1.0
 10
-9.16221
 20
4.11281
 30
0.0
 10
-9.16221
 20
4.11281
 30
0.0
 10
-8.88129
 20
4.11281
 30
0.0
 10
-8.88129
 20
4.11281
 30
0.0
 10
-8.88129
 20
4.11281
 30
0.0
 10
-8.88129
 20
4.11281
 30
0.0
 10
-8.88129
 20
4.01183
 30
0.0
 10
-8.88129
 20
4.01183
 30
0.0
 10
-8.88129
 20
4.01183
 30
0.0
 10
-8.88129
 20
4.01183
 30
0.0
 10
-9.16221
 20
4.01183
 30
0.0
 10
-9.16221
 20
4.01183
 30
0.0
 10
-9.16221
 20
4.01183
 30
0.0
 10
-9.16221
 20
4.01183
 30
0.0
 10
-9.16221
 20
4.11281
 30
0.0
 10
-9.16221
 20
4.11281
 30
0.0
  0
SPLINE
  5
66
330
1F
100
AcDbEntity
  8
Layer 1
 62
    22
370
     5
100
AcDbSpline
210
0.0
220
0.0
230
1.0
 70
    11
 71
     3
 72
    56
 73
    52
 74
     0
 42
0.0000000001
 43
0.0000000001
 40
0.0
 40
0.0
 40
0.0
 40
0.0
 40
0.0769230769230769
 40
0.0769230769230769
 40
0.0769230769230769
 40
0.0769230769230769
 40
0.1538461538461539
 40
0.1538461538461539
 40
0.1538461538461539
 40
0.1538461538461539
 40
0.2307692307692308
 40
0.2307692307692308
 40
0.2307692307692308
 40
0.2307692307692308
 40
0.3076923076923077
 40
0.3076923076923077
 40
0.3076923076923077
 40
0.3076923076923077
 40
0.3846153846153846
 40
0.3846153846153846
 40
0.3846153846153846
 40
0.3846153846153846
 40
0.4615384615384616
 40
0.4615384615384616
 40
0.4615384615384616
 40
0.4615384615384616
 40
0.5384615384615385
 40
0.5384615384615385
 40
0.5384615384615385
 40
0.5384615384615385
 40
0.6153846153846154
 40
0.6153846153846154
 40
0.6153846153846154
 40
0.6153846153846154
 40
0.6923076923076923
 40
0.6923076923076923
 40
0.6923076923076923
 40
0.6923076923076923
 40
0.7692307692307692
 40
0.7692307692307692
 40
0.7692307692307692
 40
0.7692307692307692
 40
0.846153846153846
 40
0.846153846153846
 40
0.846153846153846
 40
0.846153846153846
 40
0.9230769230769229
 40
0.9230769230769229
 40
0.9230769230769229
 40
0.9230769230769229
 40
1.0
 40
1.0
 40
1.0
 40
1.0
 10
-8.48456
 20
4.53175
 30
0.0
 10
-8.5017
 20
4.63459
 30
0.0
 10
-8.40017
 20
4.67369
 30
0.0
 10
-8.11563
 20
4.69415
 30
0.0
 10
-8.11563
 20
4.69415
 30
0.0
 10
-7.72335
 20
4.7343
 30
0.0
 10
-7.64702
 20
4.70928
 30
0.0
 10
-7.66788
 20
4.57396
 30
0.0
 10
-7.66788
 20
4.57396
 30
0.0
 10
-7.66788
 20
4.57396
 30
0.0
 10
-8.00876
 20
4.5274
 30
0.0
 10
-8.00876
 20
4.5274
 30
0.0
 10
-8.00876
 20
4.5274
 30
0.0
 10
-8.00876
 20
4.5274
 30
0.0
 10
-8.00195
 20
4.45301
 30
0.0
 10
-8.00195
 20
4.45301
 30
0.0
 10
-8.00195
 20
4.45301
 30
0.0
 10
-8.00195
 20
4.45301
 30
0.0
 10
-7.64179
 20
4.4716
 30
0.0
 10
-7.64179
 20
4.4716
 30
0.0
 10
-7.64179
 20
4.4716
 30
0.0
 10
-7.65496
 20
4.39127
 30
0.0
 10
-7.64812
 20
4.33099
 30
0.0
 10
-7.62123
 20
4.29075
 30
0.0
 10
-7.62123
 20
4.29075
 30
0.0
 10
-7.44885
 20
4.11472
 30
0.0
 10
-7.50823
 20
3.98021
 30
0.0
 10
-7.72113
 20
3.96027
 30
0.0
 10
-7.72113
 20
3.96027
 30
0.0
 10
-7.72458
 20
3.584
 30
0.0
 10
-7.78093
 20
3.59373
 30
0.0
 10
-8.14747
 20
3.63498
 30
0.0
 10
-8.14747
 20
3.63498
 30
0.0
 10
-8.47337
 20
3.68595
 30
0.0
 10
-8.56092
 20
3.64274
 30
0.0
 10
-8.53818
 20
3.94738
 30
0.0
 10
-8.53818
 20
3.94738
 30
0.0
 10
-8.53818
 20
3.94738
 30
0.0
 10
-8.26196
 20
3.9475
 30
0.0
 10
-8.26196
 20
3.9475
 30
0.0
 10
-8.26196
 20
3.9475
 30
0.0
 10
-8.26196
 20
3.9475
 30
0.0
 10
-8.26163
 20
4.03528
 30
0.0
 10
-8.26163
 20
4.03528
 30
0.0
 10
-8.26163
 20
4.03528
 30
0.0
 10
-8.26163
 20
4.03528
 30
0.0
 10
-8.45409
 20
4.03474
 30
0.0
 10
-8.45409
 20
4.03474
 30
0.0
 10
-8.45409
 20
4.03474
 30
0.0
 10
-8.47725
 20
4.21081
 30
0.0
 10
-8.49007
 20
4.37864
 30
0.0
 10
-8.48456
 20
4.53175
 30
0.0
  0
SPLINE
  5
67
330
1F
100
AcDbEntity
  8
Layer 1
 62
    22
370
     5
100
AcDbSpline
210
0.0
220
0.0
230
1.0
 70
    11
 71
     3
 72
    52
 73
    48
 74
     0
 42
0.0000000001
 43
0.0000000001
 40
0.0
 40
0.0
 40
0.0
 40
0.0
 40
0.0833333333333333
 40
0.0833333333333333
 40
0.0833333333333333
 40
0.0833333333333333
 40
0.1666666666666667
 40
0.1666666666666667
 40
0.1666666666666667
 40
0.1666666666666667
 40
0.25
 40
0.25
 40
0.25
 40
0.25
 40
0.3333333333333333
 40
0.3333333333333333
 40
0.3333333333333333
 40
0.3333333333333333
 40
0.4166666666666666
 40
0.4166666666666666
 40
0.4166666666666666
 40
0.4166666666666666
 40
0.4999999999999999
 40
0.4999999999999999
 40
0.4999999999999999
 40
0.4999999999999999
 40
0.5833333333333333
 40
0.5833333333333333
 40
0.5833333333333333
 40
0.5833333333333333
 40
0.6666666666666666
 40
0.6666666666666666
 40
0.6666666666666666
 40
0.6666666666666666
 40
0.75
 40
0.75
 40
0.75
 40
0.75
 40
0.8333333333333334
 40
0.8333333333333334
 40
0.8333333333333334
 40
0.8333333333333334
 40
0.9166666666666667
 40
0.9166666666666667
 40
0.9166666666666667
 40
0.9166666666666667
 40
1.0
 40
1.0
 40
1.0
 40
1.0
 10
-7.35189
 20
4.65589
 30
0.0
 10
-7.35189
 20
4.65589
 30
0.0
 10
-7.16201
 20
4.35933
 30
0.0
 10
-7.16201
 20
4.35933
 30
0.0
 10
-7.16201
 20
4.35933
 30
0.0
 10
-7.16201
 20
4.35933
 30
0.0
 10
-7.08678
 20
4.40474
 30
0.0
 10
-7.08678
 20
4.40474
 30
0.0
 10
-7.08678
 20
4.40474
 30
0.0
 10
-7.08678
 20
4.40474
 30
0.0
 10
-7.28053
 20
4.69182
 30
0.0
 10
-7.28053
 20
4.69182
 30
0.0
 10
-7.28053
 20
4.69182
 30
0.0
 10
-7.07249
 20
4.71066
 30
0.0
 10
-6.98225
 20
4.67742
 30
0.0
 10
-6.87712
 20
4.46563
 30
0.0
 10
-6.87712
 20
4.46563
 30
0.0
 10
-6.78665
 20
4.28691
 30
0.0
 10
-6.68428
 20
4.11465
 30
0.0
 10
-6.63969
 20
3.93587
 30
0.0
 10
-6.63969
 20
3.93587
 30
0.0
 10
-6.63585
 20
3.85618
 30
0.0
 10
-6.5573
 20
3.73905
 30
0.0
 10
-6.42762
 20
3.59628
 30
0.0
 10
-6.42762
 20
3.59628
 30
0.0
 10
-6.21866
 20
3.37597
 30
0.0
 10
-6.08779
 20
3.10122
 30
0.0
 10
-6.01032
 20
2.78921
 30
0.0
 10
-6.01032
 20
2.78921
 30
0.0
 10
-6.00156
 20
2.5752
 30
0.0
 10
-6.06999
 20
2.52447
 30
0.0
 10
-6.21561
 20
2.637
 30
0.0
 10
-6.21561
 20
2.637
 30
0.0
 10
-6.45232
 20
2.84718
 30
0.0
 10
-6.62737
 20
3.06563
 30
0.0
 10
-6.69247
 20
3.29873
 30
0.0
 10
-6.69247
 20
3.29873
 30
0.0
 10
-6.75714
 20
3.51513
 30
0.0
 10
-6.87103
 20
3.70815
 30
0.0
 10
-7.04432
 20
3.87296
 30
0.0
 10
-7.04432
 20
3.87296
 30
0.0
 10
-7.15136
 20
3.96275
 30
0.0
 10
-7.25612
 20
4.09281
 30
0.0
 10
-7.38029
 20
4.25132
 30
0.0
 10
-7.38029
 20
4.25132
 30
0.0
 10
-7.49092
 20
4.38761
 30
0.0
 10
-7.48145
 20
4.52247
 30
0.0
 10
-7.35189
 20
4.65589
 30
0.0
  0
SPLINE
  5
68
330
1F
100
AcDbEntity
  8
Layer 1
 62
    22
370
     5
100
AcDbSpline
210
0.0
220
0.0
230
1.0
 70
    11
 71
     3
 72
    80
 73
    76
 74
     0
 42
0.0000000001
 43
0.0000000001
 40
0.0
 40
0.0
 40
0.0
 40
0.0
 40
0.0526315789473684
 40
0.0526315789473684
 40
0.0526315789473684
 40
0.0526315789473684
 40
0.1052631578947368
 40
0.1052631578947368
 40
0.1052631578947368
 40
0.1052631578947368
 40
0.1578947368421053
 40
0.1578947368421053
 40
0.1578947368421053
 40
0.1578947368421053
 40
0.2105263157894737
 40
0.2105263157894737
 40
0.2105263157894737
 40
0.2105263157894737
 40
0.2631578947368421
 40
0.2631578947368421
 40
0.2631578947368421
 40
0.2631578947368421
 40
0.3157894736842105
 40
0.3157894736842105
 40
0.3157894736842105
 40
0.3157894736842105
 40
0.3684210526315789
 40
0.3684210526315789
 40
0.3684210526315789
 40
0.3684210526315789
 40
0.4210526315789473
 40
0.4210526315789473
 40
0.4210526315789473
 40
0.4210526315789473
 40
0.4736842105263158
 40
0.4736842105263158
 40
0.4736842105263158
 40
0.4736842105263158
 40
0.5263157894736842
 40
0.5263157894736842
 40
0.5263157894736842
 40
0.5263157894736842
 40
0.5789473684210527
 40
0.5789473684210527
 40
0.5789473684210527
 40
0.5789473684210527
 40
0.631578947368421
 40
0.631578947368421
 40
0.631578947368421
 40
0.631578947368421
 40
0.6842105263157894
 40
0.6842105263157894
 40
0.6842105263157894
 40
0.6842105263157894
 40
0.7368421052631577
 40
0.7368421052631577
 40
0.7368421052631577
 40
0.7368421052631577
 40
0.7894736842105261
 40
0.7894736842105261
 40
0.7894736842105261
 40
0.7894736842105261
 40
0.8421052631578945
 40
0.8421052631578945
 40
0.8421052631578945
 40
0.8421052631578945
 40
0.8947368421052628
 40
0.8947368421052628
 40
0.8947368421052628
 40
0.8947368421052628
 40
0.9473684210526312
 40
0.9473684210526312
 40
0.9473684210526312
 40
0.9473684210526312
 40
1.0
 40
1.0
 40
1.0
 40
1.0
 10
-10.06279
 20
2.78217
 30
0.0
 10
-9.83935
 20
3.08462
 30
0.0
 10
-9.59878
 20
3.08463
 30
0.0
 10
-9.34108
 20
2.78217
 30
0.0
 10
-9.34108
 20
2.78217
 30
0.0
 10
-9.19272
 20
2.4208
 30
0.0
 10
-9.18167
 20
2.09688
 30
0.0
 10
-9.28437
 20
1.80397
 30
0.0
 10
-9.28437
 20
1.80397
 30
0.0
 10
-9.37429
 20
1.58104
 30
0.0
 10
-9.38073
 20
1.37057
 30
0.0
 10
-9.33361
 20
1.17041
 30
0.0
 10
-9.33361
 20
1.17041
 30
0.0
 10
-9.25323
 20
0.88511
 30
0.0
 10
-9.26646
 20
0.65596
 30
0.0
 10
-9.35725
 20
0.47334
 30
0.0
 10
-9.35725
 20
0.47334
 30
0.0
 10
-9.60473
 20
-0.09025
 30
0.0
 10
-9.60539
 20
-0.69809
 30
0.0
 10
-9.39773
 20
-0.721
 30
0.0
 10
-9.39773
 20
-0.721
 30
0.0
 10
-9.21817
 20
-0.72516
 30
0.0
 10
-9.20034
 20
-0.77641
 30
0.0
 10
-9.178
 20
-0.99832
 30
0.0
 10
-9.178
 20
-0.99832
 30
0.0
 10
-9.16289
 20
-1.22692
 30
0.0
 10
-9.2877
 20
-1.33753
 30
0.0
 10
-9.33689
 20
-1.24748
 30
0.0
 10
-9.33689
 20
-1.24748
 30
0.0
 10
-9.34596
 20
-1.19015
 30
0.0
 10
-9.36075
 20
-1.16432
 30
0.0
 10
-9.38122
 20
-1.17006
 30
0.0
 10
-9.38122
 20
-1.17006
 30
0.0
 10
-9.38122
 20
-1.17006
 30
0.0
 10
-9.47668
 20
-1.17104
 30
0.0
 10
-9.47668
 20
-1.17104
 30
0.0
 10
-9.47668
 20
-1.17104
 30
0.0
 10
-9.61806
 20
-1.10729
 30
0.0
 10
-9.75943
 20
-1.02064
 30
0.0
 10
-9.90078
 20
-0.91108
 30
0.0
 10
-9.90078
 20
-0.91108
 30
0.0
 10
-9.88931
 20
-0.67125
 30
0.0
 10
-9.90894
 20
-0.5145
 30
0.0
 10
-9.96607
 20
-0.45804
 30
0.0
 10
-9.96607
 20
-0.45804
 30
0.0
 10
-10.03787
 20
-0.40333
 30
0.0
 10
-10.04927
 20
-0.31835
 30
0.0
 10
-9.97238
 20
-0.18918
 30
0.0
 10
-9.97238
 20
-0.18918
 30
0.0
 10
-9.9626
 20
0.24177
 30
0.0
 10
-9.99006
 20
0.47752
 30
0.0
 10
-10.0775
 20
0.39852
 30
0.0
 10
-10.0775
 20
0.39852
 30
0.0
 10
-10.11574
 20
0.61684
 30
0.0
 10
-10.15578
 20
0.75636
 30
0.0
 10
-10.19972
 20
0.72249
 30
0.0
 10
-10.19972
 20
0.72249
 30
0.0
 10
-10.22305
 20
0.81315
 30
0.0
 10
-10.23903
 20
0.90948
 30
0.0
 10
-10.20742
 20
0.99926
 30
0.0
 10
-10.20742
 20
0.99926
 30
0.0
 10
-10.16053
 20
1.13244
 30
0.0
 10
-10.11271
 20
1.22999
 30
0.0
 10
-10.10023
 20
1.30273
 30
0.0
 10
-10.10023
 20
1.30273
 30
0.0
 10
-10.02072
 20
1.42859
 30
0.0
 10
-9.99739
 20
1.69852
 30
0.0
 10
-10.06492
 20
1.91316
 30
0.0
 10
-10.06492
 20
1.91316
 30
0.0
 10
-10.15547
 20
2.20097
 30
0.0
 10
-10.12327
 20
2.12408
 30
0.0
 10
-10.13397
 20
2.26138
 30
0.0
 10
-10.13397
 20
2.26138
 30
0.0
 10
-10.16911
 20
2.42428
 30
0.0
 10
-10.15322
 20
2.59647
 30
0.0
 10
-10.06279
 20
2.78217
 30
0.0
  0
SPLINE
  5
69
330
1F
100
AcDbEntity
  8
Layer 1
 62
    22
370
     5
100
AcDbSpline
210
0.0
220
0.0
230
1.0
 70
    11
 71
     3
 72
    20
 73
    16
 74
     0
 42
0.0000000001
 43
0.0000000001
 40
0.0
 40
0.0
 40
0.0
 40
0.0
 40
0.25
 40
0.25
 40
0.25
 40
0.25
 40
0.5
 40
0.5
 40
0.5
 40
0.5
 40
0.75
 40
0.75
 40
0.75
 40
0.75
 40
1.0
 40
1.0
 40
1.0
 40
1.0
 10
-9.75623
 20
2.8087
 30
0.0
 10
-9.75623
 20
2.8087
 30
0.0
 10
-9.64257
 20
2.8087
 30
0.0
 10
-9.64257
 20
2.8087
 30
0.0
 10
-9.64257
 20
2.8087
 30
0.0
 10
-9.64257
 20
2.8087
 30
0.0
 10
-9.64257
 20
2.00304
 30
0.0
 10
-9.64257
 20
2.00304
 30
0.0
 10
-9.64257
 20
2.00304
 30
0.0
 10
-9.64257
 20
2.00304
 30
0.0
 10
-9.75623
 20
2.00304
 30
0.0
 10
-9.75623
 20
2.00304
 30
0.0
 10
-9.75623
 20
2.00304
 30
0.0
 10
-9.75623
 20
2.00304
 30
0.0
 10
-9.75623
 20
2.8087
 30
0.0
 10
-9.75623
 20
2.8087
 30
0.0
  0
SPLINE
  5
6A
330
1F
100
AcDbEntity
  8
Layer 1
 62
    22
370
     5
100
AcDbSpline
210
0.0
220
0.0
230
1.0
 70
    11
 71
     3
 72
    84
 73
    80
 74
     0
 42
0.0000000001
 43
0.0000000001
 40
0.0
 40
0.0
 40
0.0
 40
0.0
 40
0.05
 40
0.05
 40
0.05
 40
0.05
 40
0.1
 40
0.1
 40
0.1
 40
0.1
 40
0.15
 40
0.15
 40
0.15
 40
0.15
 40
0.2
 40
0.2
 40
0.2
 40
0.2
 40
0.25
 40
0.25
 40
0.25
 40
0.25
 40
0.3
 40
0.3
 40
0.3
 40
0.3
 40
0.35
 40
0.35
 40
0.35
 40
0.35
 40
0.4
 40
0.4
 40
0.4
 40
0.4
 40
0.45
 40
0.45
 40
0.45
 40
0.45
 40
0.4999999999999999
 40
0.4999999999999999
 40
0.4999999999999999
 40
0.4999999999999999
 40
0.5499999999999999
 40
0.5499999999999999
 40
0.5499999999999999
 40
0.5499999999999999
 40
0.6
 40
0.6
 40
0.6
 40
0.6
 40
0.65
 40
0.65
 40
0.65
 40
0.65
 40
0.7000000000000001
 40
0.7000000000000001
 40
0.7000000000000001
 40
0.7000000000000001
 40
0.7500000000000001
 40
0.7500000000000001
 40
0.7500000000000001
 40
0.7500000000000001
 40
0.8000000000000002
 40
0.8000000000000002
 40
0.8000000000000002
 40
0.8000000000000002
 40
0.8500000000000002
 40
0.8500000000000002
 40
0.8500000000000002
 40
0.8500000000000002
 40
0.9000000000000002
 40
0.9000000000000002
 40
0.9000000000000002
 40
0.9000000000000002
 40
0.9500000000000003
 40
0.9500000000000003
 40
0.9500000000000003
 40
0.9500000000000003
 40
1.0
 40
1.0
 40
1.0
 40
1.0
 10
-8.61676
 20
-0.32217
 30
0.0
 10
-8.39959
 20
-0.55421
 30
0.0
 10
-8.1145
 20
-0.50193
 30
0.0
 10
-8.02526
 20
-0.10733
 30
0.0
 10
-8.02526
 20
-0.10733
 30
0.0
 10
-7.99105
 20
0.04199
 30
0.0
 10
-7.99864
 20
0.18433
 30
0.0
 10
-8.06733
 20
0.31648
 30
0.0
 10
-8.06733
 20
0.31648
 30
0.0
 10
-8.20387
 20
0.60865
 30
0.0
 10
-8.36837
 20
0.81721
 30
0.0
 10
-8.33094
 20
1.18657
 30
0.0
 10
-8.33094
 20
1.18657
 30
0.0
 10
-8.2915
 20
1.41552
 30
0.0
 10
-8.31781
 20
1.59005
 30
0.0
 10
-8.40987
 20
1.71016
 30
0.0
 10
-8.40987
 20
1.71016
 30
0.0
 10
-8.55319
 20
1.93284
 30
0.0
 10
-8.65763
 20
2.1659
 30
0.0
 10
-8.71514
 20
2.41154
 30
0.0
 10
-8.71514
 20
2.41154
 30
0.0
 10
-8.71514
 20
2.41154
 30
0.0
 10
-8.73508
 20
2.72234
 30
0.0
 10
-8.73508
 20
2.72234
 30
0.0
 10
-8.73508
 20
2.72234
 30
0.0
 10
-8.73296
 20
2.79206
 30
0.0
 10
-8.7623
 20
2.84744
 30
0.0
 10
-8.82307
 20
2.88852
 30
0.0
 10
-8.82307
 20
2.88852
 30
0.0
 10
-8.86254
 20
2.88117
 30
0.0
 10
-8.89345
 20
2.95977
 30
0.0
 10
-8.91577
 20
3.12432
 30
0.0
 10
-8.91577
 20
3.12432
 30
0.0
 10
-8.91577
 20
3.12432
 30
0.0
 10
-8.94587
 20
3.31343
 30
0.0
 10
-8.94587
 20
3.31343
 30
0.0
 10
-8.94587
 20
3.31343
 30
0.0
 10
-8.9426
 20
3.39388
 30
0.0
 10
-9.00223
 20
3.43993
 30
0.0
 10
-9.12476
 20
3.45162
 30
0.0
 10
-9.12476
 20
3.45162
 30
0.0
 10
-9.26325
 20
3.45666
 30
0.0
 10
-9.38199
 20
3.48748
 30
0.0
 10
-9.48048
 20
3.52695
 30
0.0
 10
-9.48048
 20
3.52695
 30
0.0
 10
-9.50818
 20
3.55718
 30
0.0
 10
-9.53017
 20
3.55019
 30
0.0
 10
-9.54646
 20
3.50597
 30
0.0
 10
-9.54646
 20
3.50597
 30
0.0
 10
-9.58626
 20
3.39394
 30
0.0
 10
-9.57173
 20
3.27332
 30
0.0
 10
-9.50291
 20
3.14415
 30
0.0
 10
-9.50291
 20
3.14415
 30
0.0
 10
-9.4801
 20
3.10381
 30
0.0
 10
-9.42335
 20
3.09409
 30
0.0
 10
-9.3434
 20
3.10532
 30
0.0
 10
-9.3434
 20
3.10532
 30
0.0
 10
-9.20744
 20
3.14006
 30
0.0
 10
-9.11295
 20
2.95934
 30
0.0
 10
-9.06851
 20
2.5186
 30
0.0
 10
-9.06851
 20
2.5186
 30
0.0
 10
-9.06851
 20
2.5186
 30
0.0
 10
-9.06808
 20
1.6206
 30
0.0
 10
-9.06808
 20
1.6206
 30
0.0
 10
-9.06808
 20
1.6206
 30
0.0
 10
-9.06125
 20
1.49921
 30
0.0
 10
-9.04046
 20
1.39179
 30
0.0
 10
-8.99929
 20
1.30479
 30
0.0
 10
-8.99929
 20
1.30479
 30
0.0
 10
-8.99929
 20
1.30479
 30
0.0
 10
-8.86364
 20
0.95458
 30
0.0
 10
-8.86364
 20
0.95458
 30
0.0
 10
-8.86364
 20
0.95458
 30
0.0
 10
-8.86364
 20
0.95458
 30
0.0
 10
-8.88406
 20
0.32979
 30
0.0
 10
-8.88406
 20
0.32979
 30
0.0
 10
-8.88406
 20
0.32979
 30
0.0
 10
-8.86181
 20
0.11855
 30
0.0
 10
-8.76485
 20
-0.09949
 30
0.0
 10
-8.61676
 20
-0.32217
 30
0.0
  0
SPLINE
  5
6B
330
1F
100
AcDbEntity
  8
Layer 1
 62
    22
370
     5
100
AcDbSpline
210
0.0
220
0.0
230
1.0
 70
    11
 71
     3
 72
    20
 73
    16
 74
     0
 42
0.0000000001
 43
0.0000000001
 40
0.0
 40
0.0
 40
0.0
 40
0.0
 40
0.25
 40
0.25
 40
0.25
 40
0.25
 40
0.5
 40
0.5
 40
0.5
 40
0.5
 40
0.75
 40
0.75
 40
0.75
 40
0.75
 40
1.0
 40
1.0
 40
1.0
 40
1.0
 10
-8.57677
 20
0.48193
 30
0.0
 10
-8.57677
 20
0.48193
 30
0.0
 10
-8.47169
 20
0.50987
 30
0.0
 10
-8.47169
 20
0.50987
 30
0.0
 10
-8.47169
 20
0.50987
 30
0.0
 10
-8.47169
 20
0.50987
 30
0.0
 10
-8.27869
 20
-0.28075
 30
0.0
 10
-8.27869
 20
-0.28075
 30
0.0
 10
-8.27869
 20
-0.28075
 30
0.0
 10
-8.27869
 20
-0.28075
 30
0.0
 10
-8.3709
 20
-0.31512
 30
0.0
 10
-8.3709
 20
-0.31512
 30
0.0
 10
-8.3709
 20
-0.31512
 30
0.0
 10
-8.3709
 20
-0.31512
 30
0.0
 10
-8.57677
 20
0.48193
 30
0.0
 10
-8.57677
 20
0.48193
 30
0.0
  0
SPLINE
  5
6C
330
1F
100
AcDbEntity
  8
Layer 1
 62
    22
370
     5
100
AcDbSpline
210
0.0
220
0.0
230
1.0
 70
    11
 71
     3
 72
    72
 73
    68
 74
     0
 42
0.0000000001
 43
0.0000000001
 40
0.0
 40
0.0
 40
0.0
 40
0.0
 40
0.0588235294117647
 40
0.0588235294117647
 40
0.0588235294117647
 40
0.0588235294117647
 40
0.1176470588235294
 40
0.1176470588235294
 40
0.1176470588235294
 40
0.1176470588235294
 40
0.1764705882352941
 40
0.1764705882352941
 40
0.1764705882352941
 40
0.1764705882352941
 40
0.2352941176470588
 40
0.2352941176470588
 40
0.2352941176470588
 40
0.2352941176470588
 40
0.2941176470588235
 40
0.2941176470588235
 40
0.2941176470588235
 40
0.2941176470588235
 40
0.3529411764705883
 40
0.3529411764705883
 40
0.3529411764705883
 40
0.3529411764705883
 40
0.411764705882353
 40
0.411764705882353
 40
0.411764705882353
 40
0.411764705882353
 40
0.4705882352941177
 40
0.4705882352941177
 40
0.4705882352941177
 40
0.4705882352941177
 40
0.5294117647058824
 40
0.5294117647058824
 40
0.5294117647058824
 40
0.5294117647058824
 40
0.5882352941176471
 40
0.5882352941176471
 40
0.5882352941176471
 40
0.5882352941176471
 40
0.6470588235294118
 40
0.6470588235294118
 40
0.6470588235294118
 40
0.6470588235294118
 40
0.7058823529411765
 40
0.7058823529411765
 40
0.7058823529411765
 40
0.7058823529411765
 40
0.7647058823529412
 40
0.7647058823529412
 40
0.7647058823529412
 40
0.7647058823529412
 40
0.823529411764706
 40
0.823529411764706
 40
0.823529411764706
 40
0.823529411764706
 40
0.8823529411764707
 40
0.8823529411764707
 40
0.8823529411764707
 40
0.8823529411764707
 40
0.9411764705882354
 40
0.9411764705882354
 40
0.9411764705882354
 40
0.9411764705882354
 40
1.0
 40
1.0
 40
1.0
 40
1.0
 10
-8.30704
 20
3.40248
 30
0.0
 10
-8.30704
 20
3.40248
 30
0.0
 10
-8.23377
 20
3.31457
 30
0.0
 10
-8.23377
 20
3.31457
 30
0.0
 10
-8.23377
 20
3.31457
 30
0.0
 10
-8.15751
 20
3.39578
 30
0.0
 10
-8.02182
 20
3.45194
 30
0.0
 10
-7.8369
 20
3.48732
 30
0.0
 10
-7.8369
 20
3.48732
 30
0.0
 10
-7.8369
 20
3.48732
 30
0.0
 10
-7.83337
 20
3.36078
 30
0.0
 10
-7.83337
 20
3.36078
 30
0.0
 10
-7.83337
 20
3.36078
 30
0.0
 10
-7.65695
 20
3.44323
 30
0.0
 10
-7.46354
 20
3.41
 30
0.0
 10
-7.25851
 20
3.29761
 30
0.0
 10
-7.25851
 20
3.29761
 30
0.0
 10
-7.25851
 20
3.29761
 30
0.0
 10
-7.30869
 20
3.18967
 30
0.0
 10
-7.30869
 20
3.18967
 30
0.0
 10
-7.30869
 20
3.18967
 30
0.0
 10
-7.1961
 20
3.18489
 30
0.0
 10
-7.02918
 20
3.06784
 30
0.0
 10
-6.82507
 20
2.87397
 30
0.0
 10
-6.82507
 20
2.87397
 30
0.0
 10
-6.82507
 20
2.87397
 30
0.0
 10
-6.86694
 20
2.77666
 30
0.0
 10
-6.86694
 20
2.77666
 30
0.0
 10
-6.86694
 20
2.77666
 30
0.0
 10
-6.75885
 20
2.67229
 30
0.0
 10
-6.67042
 20
2.52457
 30
0.0
 10
-6.5909
 20
2.35715
 30
0.0
 10
-6.5909
 20
2.35715
 30
0.0
 10
-6.5909
 20
2.35715
 30
0.0
 10
-6.66305
 20
2.32986
 30
0.0
 10
-6.66305
 20
2.32986
 30
0.0
 10
-6.66305
 20
2.32986
 30
0.0
 10
-6.6265
 20
2.18962
 30
0.0
 10
-6.59514
 20
2.05194
 30
0.0
 10
-6.56999
 20
1.91737
 30
0.0
 10
-6.56999
 20
1.91737
 30
0.0
 10
-6.54351
 20
1.80766
 30
0.0
 10
-6.56278
 20
1.77241
 30
0.0
 10
-6.62778
 20
1.81163
 30
0.0
 10
-6.62778
 20
1.81163
 30
0.0
 10
-6.84924
 20
1.95184
 30
0.0
 10
-7.14889
 20
2.1234
 30
0.0
 10
-7.51326
 20
2.32087
 30
0.0
 10
-7.51326
 20
2.32087
 30
0.0
 10
-7.51326
 20
2.32087
 30
0.0
 10
-7.4062
 20
2.52906
 30
0.0
 10
-7.4062
 20
2.52906
 30
0.0
 10
-7.4062
 20
2.52906
 30
0.0
 10
-7.4062
 20
2.52906
 30
0.0
 10
-7.4845
 20
2.57395
 30
0.0
 10
-7.4845
 20
2.57395
 30
0.0
 10
-7.4845
 20
2.57395
 30
0.0
 10
-7.4845
 20
2.57395
 30
0.0
 10
-7.698
 20
2.23273
 30
0.0
 10
-7.698
 20
2.23273
 30
0.0
 10
-7.698
 20
2.23273
 30
0.0
 10
-7.698
 20
2.23273
 30
0.0
 10
-8.55365
 20
2.68418
 30
0.0
 10
-8.55365
 20
2.68418
 30
0.0
 10
-8.55365
 20
2.68418
 30
0.0
 10
-8.56456
 20
3.07276
 30
0.0
 10
-8.49917
 20
3.27317
 30
0.0
 10
-8.30704
 20
3.40248
 30
0.0
  0
SPLINE
  5
6D
330
1F
100
AcDbEntity
  8
Layer 1
 62
    22
370
     5
100
AcDbSpline
210
0.0
220
0.0
230
1.0
 70
    11
 71
     3
 72
    72
 73
    68
 74
     0
 42
0.0000000001
 43
0.0000000001
 40
0.0
 40
0.0
 40
0.0
 40
0.0
 40
0.0588235294117647
 40
0.0588235294117647
 40
0.0588235294117647
 40
0.0588235294117647
 40
0.1176470588235294
 40
0.1176470588235294
 40
0.1176470588235294
 40
0.1176470588235294
 40
0.1764705882352941
 40
0.1764705882352941
 40
0.1764705882352941
 40
0.1764705882352941
 40
0.2352941176470588
 40
0.2352941176470588
 40
0.2352941176470588
 40
0.2352941176470588
 40
0.2941176470588235
 40
0.2941176470588235
 40
0.2941176470588235
 40
0.2941176470588235
 40
0.3529411764705883
 40
0.3529411764705883
 40
0.3529411764705883
 40
0.3529411764705883
 40
0.411764705882353
 40
0.411764705882353
 40
0.411764705882353
 40
0.411764705882353
 40
0.4705882352941177
 40
0.4705882352941177
 40
0.4705882352941177
 40
0.4705882352941177
 40
0.5294117647058824
 40
0.5294117647058824
 40
0.5294117647058824
 40
0.5294117647058824
 40
0.5882352941176471
 40
0.5882352941176471
 40
0.5882352941176471
 40
0.5882352941176471
 40
0.6470588235294118
 40
0.6470588235294118
 40
0.6470588235294118
 40
0.6470588235294118
 40
0.7058823529411765
 40
0.7058823529411765
 40
0.7058823529411765
 40
0.7058823529411765
 40
0.7647058823529412
 40
0.7647058823529412
 40
0.7647058823529412
 40
0.7647058823529412
 40
0.823529411764706
 40
0.823529411764706
 40
0.823529411764706
 40
0.823529411764706
 40
0.8823529411764707
 40
0.8823529411764707
 40
0.8823529411764707
 40
0.8823529411764707
 40
0.9411764705882354
 40
0.9411764705882354
 40
0.9411764705882354
 40
0.9411764705882354
 40
1.0
 40
1.0
 40
1.0
 40
1.0
 10
-5.77087
 20
1.58719
 30
0.0
 10
-5.77087
 20
1.58719
 30
0.0
 10
-5.71925
 20
1.68933
 30
0.0
 10
-5.71925
 20
1.68933
 30
0.0
 10
-5.71925
 20
1.68933
 30
0.0
 10
-5.62668
 20
1.62736
 30
0.0
 10
-5.48183
 20
1.60316
 30
0.0
 10
-5.29369
 20
1.61028
 30
0.0
 10
-5.29369
 20
1.61028
 30
0.0
 10
-5.29369
 20
1.61028
 30
0.0
 10
-5.31872
 20
1.73438
 30
0.0
 10
-5.31872
 20
1.73438
 30
0.0
 10
-5.31872
 20
1.73438
 30
0.0
 10
-5.12827
 20
1.69372
 30
0.0
 10
-4.9473
 20
1.76961
 30
0.0
 10
-4.7728
 20
1.92524
 30
0.0
 10
-4.7728
 20
1.92524
 30
0.0
 10
-4.7728
 20
1.92524
 30
0.0
 10
-4.84598
 20
2.01913
 30
0.0
 10
-4.84598
 20
2.01913
 30
0.0
 10
-4.84598
 20
2.01913
 30
0.0
 10
-4.73735
 20
2.04911
 30
0.0
 10
-4.60104
 20
2.20071
 30
0.0
 10
-4.44577
 20
2.43553
 30
0.0
 10
-4.44577
 20
2.43553
 30
0.0
 10
-4.44577
 20
2.43553
 30
0.0
 10
-4.50846
 20
2.52092
 30
0.0
 10
-4.50846
 20
2.52092
 30
0.0
 10
-4.50846
 20
2.52092
 30
0.0
 10
-4.42662
 20
2.64693
 30
0.0
 10
-4.37368
 20
2.81076
 30
0.0
 10
-4.33386
 20
2.99178
 30
0.0
 10
-4.33386
 20
2.99178
 30
0.0
 10
-4.33386
 20
2.99178
 30
0.0
 10
-4.4103
 20
3.00214
 30
0.0
 10
-4.4103
 20
3.00214
 30
0.0
 10
-4.4103
 20
3.00214
 30
0.0
 10
-4.40623
 20
3.14701
 30
0.0
 10
-4.40665
 20
3.28821
 30
0.0
 10
-4.41242
 20
3.42499
 30
0.0
 10
-4.41242
 20
3.42499
 30
0.0
 10
-4.41129
 20
3.53784
 30
0.0
 10
-4.438
 20
3.56786
 30
0.0
 10
-4.49251
 20
3.51502
 30
0.0
 10
-4.49251
 20
3.51502
 30
0.0
 10
-4.67675
 20
3.32859
 30
0.0
 10
-4.93013
 20
3.09402
 30
0.0
 10
-5.24074
 20
2.81964
 30
0.0
 10
-5.24074
 20
2.81964
 30
0.0
 10
-5.24074
 20
2.81964
 30
0.0
 10
-5.08959
 20
2.64087
 30
0.0
 10
-5.08959
 20
2.64087
 30
0.0
 10
-5.08959
 20
2.64087
 30
0.0
 10
-5.08959
 20
2.64087
 30
0.0
 10
-5.15579
 20
2.57952
 30
0.0
 10
-5.15579
 20
2.57952
 30
0.0
 10
-5.15579
 20
2.57952
 30
0.0
 10
-5.15579
 20
2.57952
 30
0.0
 10
-5.44057
 20
2.86397
 30
0.0
 10
-5.44057
 20
2.86397
 30
0.0
 10
-5.44057
 20
2.86397
 30
0.0
 10
-5.44057
 20
2.86397
 30
0.0
 10
-6.17274
 20
2.23161
 30
0.0
 10
-6.17274
 20
2.23161
 30
0.0
 10
-6.17274
 20
2.23161
 30
0.0
 10
-6.09596
 20
1.85053
 30
0.0
 10
-5.98716
 20
1.66997
 30
0.0
 10
-5.77087
 20
1.58719
 30
0.0
  0
SPLINE
  5
6E
330
1F
100
AcDbEntity
  8
Layer 1
 62
    22
370
     5
100
AcDbSpline
210
0.0
220
0.0
230
1.0
 70
    11
 71
     3
 72
    68
 73
    64
 74
     0
 42
0.0000000001
 43
0.0000000001
 40
0.0
 40
0.0
 40
0.0
 40
0.0
 40
0.0625
 40
0.0625
 40
0.0625
 40
0.0625
 40
0.125
 40
0.125
 40
0.125
 40
0.125
 40
0.1875
 40
0.1875
 40
0.1875
 40
0.1875
 40
0.25
 40
0.25
 40
0.25
 40
0.25
 40
0.3125
 40
0.3125
 40
0.3125
 40
0.3125
 40
0.375
 40
0.375
 40
0.375
 40
0.375
 40
0.4375
 40
0.4375
 40
0.4375
 40
0.4375
 40
0.5
 40
0.5
 40
0.5
 40
0.5
 40
0.5625
 40
0.5625
 40
0.5625
 40
0.5625
 40
0.625
 40
0.625
 40
0.625
 40
0.625
 40
0.6875
 40
0.6875
 40
0.6875
 40
0.6875
 40
0.75
 40
0.75
 40
0.75
 40
0.75
 40
0.8125
 40
0.8125
 40
0.8125
 40
0.8125
 40
0.875
 40
0.875
 40
0.875
 40
0.875
 40
0.9375
 40
0.9375
 40
0.9375
 40
0.9375
 40
1.0
 40
1.0
 40
1.0
 40
1.0
 10
-6.26697
 20
0.24941
 30
0.0
 10
-6.27991
 20
0.11547
 30
0.0
 10
-6.3243
 20
0.03025
 30
0.0
 10
-6.40016
 20
-0.00625
 30
0.0
 10
-6.40016
 20
-0.00625
 30
0.0
 10
-6.40016
 20
-0.00625
 30
0.0
 10
-7.07674
 20
0.52384
 30
0.0
 10
-7.07674
 20
0.52384
 30
0.0
 10
-7.07674
 20
0.52384
 30
0.0
 10
-7.07674
 20
0.52384
 30
0.0
 10
-6.8603
 20
0.83477
 30
0.0
 10
-6.8603
 20
0.83477
 30
0.0
 10
-6.8603
 20
0.83477
 30
0.0
 10
-6.8603
 20
0.83477
 30
0.0
 10
-6.93281
 20
0.88235
 30
0.0
 10
-6.93281
 20
0.88235
 30
0.0
 10
-6.93281
 20
0.88235
 30
0.0
 10
-6.93281
 20
0.88235
 30
0.0
 10
-7.16446
 20
0.57855
 30
0.0
 10
-7.16446
 20
0.57855
 30
0.0
 10
-7.16446
 20
0.57855
 30
0.0
 10
-7.16446
 20
0.57855
 30
0.0
 10
-7.75976
 20
1.06996
 30
0.0
 10
-7.75976
 20
1.06996
 30
0.0
 10
-7.75976
 20
1.06996
 30
0.0
 10
-7.67192
 20
1.23241
 30
0.0
 10
-7.55836
 20
1.33182
 30
0.0
 10
-7.41907
 20
1.36823
 30
0.0
 10
-7.41907
 20
1.36823
 30
0.0
 10
-7.41907
 20
1.36823
 30
0.0
 10
-7.36268
 20
1.29392
 30
0.0
 10
-7.36268
 20
1.29392
 30
0.0
 10
-7.36268
 20
1.29392
 30
0.0
 10
-7.18953
 20
1.43023
 30
0.0
 10
-7.02623
 20
1.50994
 30
0.0
 10
-6.876
 20
1.51451
 30
0.0
 10
-6.876
 20
1.51451
 30
0.0
 10
-6.876
 20
1.51451
 30
0.0
 10
-6.85696
 20
1.42032
 30
0.0
 10
-6.85696
 20
1.42032
 30
0.0
 10
-6.85696
 20
1.42032
 30
0.0
 10
-6.55355
 20
1.39481
 30
0.0
 10
-6.35963
 20
1.34423
 30
0.0
 10
-6.25641
 20
1.27291
 30
0.0
 10
-6.25641
 20
1.27291
 30
0.0
 10
-6.25641
 20
1.27291
 30
0.0
 10
-6.29056
 20
1.1688
 30
0.0
 10
-6.29056
 20
1.1688
 30
0.0
 10
-6.29056
 20
1.1688
 30
0.0
 10
-6.17682
 20
1.00668
 30
0.0
 10
-6.09562
 20
0.84689
 30
0.0
 10
-6.06196
 20
0.69053
 30
0.0
 10
-6.06196
 20
0.69053
 30
0.0
 10
-6.06196
 20
0.69053
 30
0.0
 10
-6.16275
 20
0.65399
 30
0.0
 10
-6.16275
 20
0.65399
 30
0.0
 10
-6.16275
 20
0.65399
 30
0.0
 10
-6.15151
 20
0.52601
 30
0.0
 10
-6.14602
 20
0.41237
 30
0.0
 10
-6.14624
 20
0.31309
 30
0.0
 10
-6.14624
 20
0.31309
 30
0.0
 10
-6.1636
 20
0.25748
 30
0.0
 10
-6.20383
 20
0.23624
 30
0.0
 10
-6.26697
 20
0.24941
 30
0.0
  0
SPLINE
  5
6F
330
1F
100
AcDbEntity
  8
Layer 1
 62
    22
370
     5
100
AcDbSpline
210
0.0
220
0.0
230
1.0
 70
    11
 71
     3
 72
   108
 73
   104
 74
     0
 42
0.0000000001
 43
0.0000000001
 40
0.0
 40
0.0
 40
0.0
 40
0.0
 40
0.0384615384615385
 40
0.0384615384615385
 40
0.0384615384615385
 40
0.0384615384615385
 40
0.0769230769230769
 40
0.0769230769230769
 40
0.0769230769230769
 40
0.0769230769230769
 40
0.1153846153846154
 40
0.1153846153846154
 40
0.1153846153846154
 40
0.1153846153846154
 40
0.1538461538461539
 40
0.1538461538461539
 40
0.1538461538461539
 40
0.1538461538461539
 40
0.1923076923076923
 40
0.1923076923076923
 40
0.1923076923076923
 40
0.1923076923076923
 40
0.2307692307692308
 40
0.2307692307692308
 40
0.2307692307692308
 40
0.2307692307692308
 40
0.2692307692307693
 40
0.2692307692307693
 40
0.2692307692307693
 40
0.2692307692307693
 40
0.3076923076923077
 40
0.3076923076923077
 40
0.3076923076923077
 40
0.3076923076923077
 40
0.3461538461538461
 40
0.3461538461538461
 40
0.3461538461538461
 40
0.3461538461538461
 40
0.3846153846153846
 40
0.3846153846153846
 40
0.3846153846153846
 40
0.3846153846153846
 40
0.423076923076923
 40
0.423076923076923
 40
0.423076923076923
 40
0.423076923076923
 40
0.4615384615384615
 40
0.4615384615384615
 40
0.4615384615384615
 40
0.4615384615384615
 40
0.4999999999999999
 40
0.4999999999999999
 40
0.4999999999999999
 40
0.4999999999999999
 40
0.5384615384615383
 40
0.5384615384615383
 40
0.5384615384615383
 40
0.5384615384615383
 40
0.5769230769230768
 40
0.5769230769230768
 40
0.5769230769230768
 40
0.5769230769230768
 40
0.6153846153846152
 40
0.6153846153846152
 40
0.6153846153846152
 40
0.6153846153846152
 40
0.6538461538461536
 40
0.6538461538461536
 40
0.6538461538461536
 40
0.6538461538461536
 40
0.6923076923076921
 40
0.6923076923076921
 40
0.6923076923076921
 40
0.6923076923076921
 40
0.7307692307692305
 40
0.7307692307692305
 40
0.7307692307692305
 40
0.7307692307692305
 40
0.7692307692307689
 40
0.7692307692307689
 40
0.7692307692307689
 40
0.7692307692307689
 40
0.8076923076923074
 40
0.8076923076923074
 40
0.8076923076923074
 40
0.8076923076923074
 40
0.8461538461538458
 40
0.8461538461538458
 40
0.8461538461538458
 40
0.8461538461538458
 40
0.8846153846153842
 40
0.8846153846153842
 40
0.8846153846153842
 40
0.8846153846153842
 40
0.9230769230769227
 40
0.9230769230769227
 40
0.9230769230769227
 40
0.9230769230769227
 40
0.9615384615384611
 40
0.9615384615384611
 40
0.9615384615384611
 40
0.9615384615384611
 40
1.0
 40
1.0
 40
1.0
 40
1.0
 10
-10.08436
 20
-3.23535
 30
0.0
 10
-9.8352
 20
-3.81735
 30
0.0
 10
-9.49576
 20
-4.00694
 30
0.0
 10
-9.00474
 20
-3.65751
 30
0.0
 10
-9.00474
 20
-3.65751
 30
0.0
 10
-8.83011
 20
-3.53821
 30
0.0
 10
-8.73392
 20
-3.41562
 30
0.0
 10
-8.71613
 20
-3.28973
 30
0.0
 10
-8.71613
 20
-3.28973
 30
0.0
 10
-8.71281
 20
-3.04688
 30
0.0
 10
-8.76176
 20
-2.84986
 30
0.0
 10
-8.86297
 20
-2.69863
 30
0.0
 10
-8.86297
 20
-2.69863
 30
0.0
 10
-8.95141
 20
-2.57922
 30
0.0
 10
-9.03985
 20
-2.42716
 30
0.0
 10
-9.12826
 20
-2.23564
 30
0.0
 10
-9.12826
 20
-2.23564
 30
0.0
 10
-9.17527
 20
-2.12666
 30
0.0
 10
-9.14385
 20
-2.06024
 30
0.0
 10
-9.03398
 20
-2.03638
 30
0.0
 10
-9.03398
 20
-2.03638
 30
0.0
 10
-9.03398
 20
-2.03638
 30
0.0
 10
-8.7882
 20
-1.96318
 30
0.0
 10
-8.7882
 20
-1.96318
 30
0.0
 10
-8.7882
 20
-1.96318
 30
0.0
 10
-8.72141
 20
-1.94848
 30
0.0
 10
-8.67095
 20
-1.95343
 30
0.0
 10
-8.6368
 20
-1.97799
 30
0.0
 10
-8.6368
 20
-1.97799
 30
0.0
 10
-8.55619
 20
-2.05524
 30
0.0
 10
-8.4284
 20
-2.04571
 30
0.0
 10
-8.39677
 20
-1.86098
 30
0.0
 10
-8.39677
 20
-1.86098
 30
0.0
 10
-8.39677
 20
-1.86098
 30
0.0
 10
-8.4095
 20
-1.21554
 30
0.0
 10
-8.4095
 20
-1.21554
 30
0.0
 10
-8.4095
 20
-1.21554
 30
0.0
 10
-8.41392
 20
-1.08017
 30
0.0
 10
-8.45549
 20
-0.96075
 30
0.0
 10
-8.55138
 20
-0.86464
 30
0.0
 10
-8.55138
 20
-0.86464
 30
0.0
 10
-8.59734
 20
-0.81751
 30
0.0
 10
-8.61713
 20
-0.77041
 30
0.0
 10
-8.61075
 20
-0.72328
 30
0.0
 10
-8.61075
 20
-0.72328
 30
0.0
 10
-8.62585
 20
-0.62122
 30
0.0
 10
-8.68343
 20
-0.54207
 30
0.0
 10
-8.78349
 20
-0.48583
 30
0.0
 10
-8.78349
 20
-0.48583
 30
0.0
 10
-8.83571
 20
-0.49106
 30
0.0
 10
-8.87362
 20
-0.47993
 30
0.0
 10
-8.88004
 20
-0.43275
 30
0.0
 10
-8.88004
 20
-0.43275
 30
0.0
 10
-8.88004
 20
-0.43275
 30
0.0
 10
-8.87956
 20
-0.36068
 30
0.0
 10
-8.87956
 20
-0.36068
 30
0.0
 10
-8.87956
 20
-0.36068
 30
0.0
 10
-8.85705
 20
-0.30474
 30
0.0
 10
-8.97629
 20
-0.28115
 30
0.0
 10
-9.01911
 20
-0.34634
 30
0.0
 10
-9.01911
 20
-0.34634
 30
0.0
 10
-9.04983
 20
-0.38605
 30
0.0
 10
-9.08055
 20
-0.43887
 30
0.0
 10
-9.11127
 20
-0.50475
 30
0.0
 10
-9.11127
 20
-0.50475
 30
0.0
 10
-9.14192
 20
-0.6409
 30
0.0
 10
-9.11436
 20
-0.71873
 30
0.0
 10
-9.04694
 20
-0.75664
 30
0.0
 10
-9.04694
 20
-0.75664
 30
0.0
 10
-9.04694
 20
-0.75664
 30
0.0
 10
-8.87712
 20
-0.92644
 30
0.0
 10
-8.87712
 20
-0.92644
 30
0.0
 10
-8.87712
 20
-0.92644
 30
0.0
 10
-8.83969
 20
-0.95549
 30
0.0
 10
-8.81859
 20
-1.00418
 30
0.0
 10
-8.8138
 20
-1.07249
 30
0.0
 10
-8.8138
 20
-1.07249
 30
0.0
 10
-8.8138
 20
-1.07249
 30
0.0
 10
-8.83034
 20
-1.32324
 30
0.0
 10
-8.83034
 20
-1.32324
 30
0.0
 10
-8.83034
 20
-1.32324
 30
0.0
 10
-8.84436
 20
-1.44429
 30
0.0
 10
-8.91393
 20
-1.49659
 30
0.0
 10
-9.03904
 20
-1.48013
 30
0.0
 10
-9.03904
 20
-1.48013
 30
0.0
 10
-9.03904
 20
-1.48013
 30
0.0
 10
-9.41959
 20
-1.4331
 30
0.0
 10
-9.41959
 20
-1.4331
 30
0.0
 10
-9.41959
 20
-1.4331
 30
0.0
 10
-9.524
 20
-1.41039
 30
0.0
 10
-9.60514
 20
-1.4149
 30
0.0
 10
-9.67032
 20
-1.43802
 30
0.0
 10
-9.67032
 20
-1.43802
 30
0.0
 10
-9.75882
 20
-1.47163
 30
0.0
 10
-9.83751
 20
-1.51179
 30
0.0
 10
-9.90639
 20
-1.55844
 30
0.0
 10
-9.90639
 20
-1.55844
 30
0.0
 10
-9.98668
 20
-1.59835
 30
0.0
 10
-10.0631
 20
-1.77042
 30
0.0
 10
-10.13685
 20
-2.03292
 30
0.0
 10
-10.13685
 20
-2.03292
 30
0.0
 10
-10.17726
 20
-2.55942
 30
0.0
 10
-10.1616
 20
-2.96422
 30
0.0
 10
-10.08436
 20
-3.23535
 30
0.0
  0
SPLINE
  5
70
330
1F
100
AcDbEntity
  8
Layer 1
 62
    22
370
     5
100
AcDbSpline
210
0.0
220
0.0
230
1.0
 70
    11
 71
     3
 72
    20
 73
    16
 74
     0
 42
0.0000000001
 43
0.0000000001
 40
0.0
 40
0.0
 40
0.0
 40
0.0
 40
0.25
 40
0.25
 40
0.25
 40
0.25
 40
0.5
 40
0.5
 40
0.5
 40
0.5
 40
0.75
 40
0.75
 40
0.75
 40
0.75
 40
1.0
 40
1.0
 40
1.0
 40
1.0
 10
-9.68545
 20
-2.64927
 30
0.0
 10
-9.68545
 20
-2.64927
 30
0.0
 10
-9.58987
 20
-2.60998
 30
0.0
 10
-9.58987
 20
-2.60998
 30
0.0
 10
-9.58987
 20
-2.60998
 30
0.0
 10
-9.58987
 20
-2.60998
 30
0.0
 10
-9.29332
 20
-3.35641
 30
0.0
 10
-9.29332
 20
-3.35641
 30
0.0
 10
-9.29332
 20
-3.35641
 30
0.0
 10
-9.29332
 20
-3.35641
 30
0.0
 10
-9.38646
 20
-3.38832
 30
0.0
 10
-9.38646
 20
-3.38832
 30
0.0
 10
-9.38646
 20
-3.38832
 30
0.0
 10
-9.38646
 20
-3.38832
 30
0.0
 10
-9.68545
 20
-2.64927
 30
0.0
 10
-9.68545
 20
-2.64927
 30
0.0
  0
SPLINE
  5
71
330
1F
100
AcDbEntity
  8
Layer 1
 62
    22
370
     5
100
AcDbSpline
210
0.0
220
0.0
230
1.0
 70
    11
 71
     3
 72
    84
 73
    80
 74
     0
 42
0.0000000001
 43
0.0000000001
 40
0.0
 40
0.0
 40
0.0
 40
0.0
 40
0.05
 40
0.05
 40
0.05
 40
0.05
 40
0.1
 40
0.1
 40
0.1
 40
0.1
 40
0.15
 40
0.15
 40
0.15
 40
0.15
 40
0.2
 40
0.2
 40
0.2
 40
0.2
 40
0.25
 40
0.25
 40
0.25
 40
0.25
 40
0.3
 40
0.3
 40
0.3
 40
0.3
 40
0.35
 40
0.35
 40
0.35
 40
0.35
 40
0.4
 40
0.4
 40
0.4
 40
0.4
 40
0.45
 40
0.45
 40
0.45
 40
0.45
 40
0.4999999999999999
 40
0.4999999999999999
 40
0.4999999999999999
 40
0.4999999999999999
 40
0.5499999999999999
 40
0.5499999999999999
 40
0.5499999999999999
 40
0.5499999999999999
 40
0.6
 40
0.6
 40
0.6
 40
0.6
 40
0.65
 40
0.65
 40
0.65
 40
0.65
 40
0.7000000000000001
 40
0.7000000000000001
 40
0.7000000000000001
 40
0.7000000000000001
 40
0.7500000000000001
 40
0.7500000000000001
 40
0.7500000000000001
 40
0.7500000000000001
 40
0.8000000000000002
 40
0.8000000000000002
 40
0.8000000000000002
 40
0.8000000000000002
 40
0.8500000000000002
 40
0.8500000000000002
 40
0.8500000000000002
 40
0.8500000000000002
 40
0.9000000000000002
 40
0.9000000000000002
 40
0.9000000000000002
 40
0.9000000000000002
 40
0.9500000000000003
 40
0.9500000000000003
 40
0.9500000000000003
 40
0.9500000000000003
 40
1.0
 40
1.0
 40
1.0
 40
1.0
 10
-8.21442
 20
-3.73747
 30
0.0
 10
-8.21442
 20
-3.73747
 30
0.0
 10
-8.12666
 20
-3.7473
 30
0.0
 10
-8.12666
 20
-3.7473
 30
0.0
 10
-8.12666
 20
-3.7473
 30
0.0
 10
-8.18557
 20
-3.85599
 30
0.0
 10
-8.1595
 20
-3.88937
 30
0.0
 10
-8.04846
 20
-3.84743
 30
0.0
 10
-8.04846
 20
-3.84743
 30
0.0
 10
-7.91382
 20
-3.74149
 30
0.0
 10
-7.85437
 20
-3.63083
 30
0.0
 10
-7.92888
 20
-3.51175
 30
0.0
 10
-7.92888
 20
-3.51175
 30
0.0
 10
-8.06028
 20
-3.40928
 30
0.0
 10
-8.14919
 20
-3.3199
 30
0.0
 10
-8.19561
 20
-3.2436
 30
0.0
 10
-8.19561
 20
-3.2436
 30
0.0
 10
-8.23915
 20
-3.1526
 30
0.0
 10
-8.25655
 20
-3.0354
 30
0.0
 10
-8.24778
 20
-2.89201
 30
0.0
 10
-8.24778
 20
-2.89201
 30
0.0
 10
-8.23336
 20
-2.71681
 30
0.0
 10
-8.14459
 20
-2.6267
 30
0.0
 10
-7.94714
 20
-2.66099
 30
0.0
 10
-7.94714
 20
-2.66099
 30
0.0
 10
-7.28928
 20
-2.75319
 30
0.0
 10
-6.93054
 20
-2.54572
 30
0.0
 10
-6.93276
 20
-1.97658
 30
0.0
 10
-6.93276
 20
-1.97658
 30
0.0
 10
-6.91533
 20
-1.81933
 30
0.0
 10
-6.91118
 20
-1.66209
 30
0.0
 10
-6.92636
 20
-1.5048
 30
0.0
 10
-6.92636
 20
-1.5048
 30
0.0
 10
-6.95238
 20
-1.31448
 30
0.0
 10
-6.99165
 20
-1.12683
 30
0.0
 10
-7.05027
 20
-0.94301
 30
0.0
 10
-7.05027
 20
-0.94301
 30
0.0
 10
-7.06892
 20
-0.84774
 30
0.0
 10
-7.09555
 20
-0.77111
 30
0.0
 10
-7.13378
 20
-0.72164
 30
0.0
 10
-7.13378
 20
-0.72164
 30
0.0
 10
-7.40651
 20
-0.40906
 30
0.0
 10
-7.72365
 20
-0.36351
 30
0.0
 10
-8.09439
 20
-0.64019
 30
0.0
 10
-8.09439
 20
-0.64019
 30
0.0
 10
-8.3277
 20
-0.8767
 30
0.0
 10
-8.36309
 20
-1.07431
 30
0.0
 10
-8.26303
 20
-1.24529
 30
0.0
 10
-8.26303
 20
-1.24529
 30
0.0
 10
-8.14029
 20
-1.44638
 30
0.0
 10
-8.01101
 20
-1.64091
 30
0.0
 10
-7.87517
 20
-1.82886
 30
0.0
 10
-7.87517
 20
-1.82886
 30
0.0
 10
-7.78798
 20
-1.94352
 30
0.0
 10
-7.81843
 20
-2.07129
 30
0.0
 10
-7.9665
 20
-2.21215
 30
0.0
 10
-7.9665
 20
-2.21215
 30
0.0
 10
-8.11213
 20
-2.32377
 30
0.0
 10
-8.24345
 20
-2.34229
 30
0.0
 10
-8.3629
 20
-2.28365
 30
0.0
 10
-8.3629
 20
-2.28365
 30
0.0
 10
-8.49138
 20
-2.2205
 30
0.0
 10
-8.55777
 20
-2.23919
 30
0.0
 10
-8.56205
 20
-2.3397
 30
0.0
 10
-8.56205
 20
-2.3397
 30
0.0
 10
-8.56205
 20
-2.3397
 30
0.0
 10
-8.5591
 20
-2.78437
 30
0.0
 10
-8.5591
 20
-2.78437
 30
0.0
 10
-8.5591
 20
-2.78437
 30
0.0
 10
-8.53308
 20
-2.98591
 30
0.0
 10
-8.47991
 20
-3.16801
 30
0.0
 10
-8.40814
 20
-3.33679
 30
0.0
 10
-8.40814
 20
-3.33679
 30
0.0
 10
-8.43204
 20
-3.40802
 30
0.0
 10
-8.4298
 20
-3.46942
 30
0.0
 10
-8.40139
 20
-3.52099
 30
0.0
 10
-8.40139
 20
-3.52099
 30
0.0
 10
-8.35213
 20
-3.59315
 30
0.0
 10
-8.28983
 20
-3.66531
 30
0.0
 10
-8.21442
 20
-3.73747
 30
0.0
  0
SPLINE
  5
72
330
1F
100
AcDbEntity
  8
Layer 1
 62
    22
370
     5
100
AcDbSpline
210
0.0
220
0.0
230
1.0
 70
    11
 71
     3
 72
    20
 73
    16
 74
     0
 42
0.0000000001
 43
0.0000000001
 40
0.0
 40
0.0
 40
0.0
 40
0.0
 40
0.25
 40
0.25
 40
0.25
 40
0.25
 40
0.5
 40
0.5
 40
0.5
 40
0.5
 40
0.75
 40
0.75
 40
0.75
 40
0.75
 40
1.0
 40
1.0
 40
1.0
 40
1.0
 10
-7.77382
 20
-0.86666
 30
0.0
 10
-7.77382
 20
-0.86666
 30
0.0
 10
-7.66599
 20
-0.8151
 30
0.0
 10
-7.66599
 20
-0.8151
 30
0.0
 10
-7.66599
 20
-0.8151
 30
0.0
 10
-7.66599
 20
-0.8151
 30
0.0
 10
-7.33022
 20
-1.5247
 30
0.0
 10
-7.33022
 20
-1.5247
 30
0.0
 10
-7.33022
 20
-1.5247
 30
0.0
 10
-7.33022
 20
-1.5247
 30
0.0
 10
-7.43561
 20
-1.58364
 30
0.0
 10
-7.43561
 20
-1.58364
 30
0.0
 10
-7.43561
 20
-1.58364
 30
0.0
 10
-7.43561
 20
-1.58364
 30
0.0
 10
-7.77382
 20
-0.86666
 30
0.0
 10
-7.77382
 20
-0.86666
 30
0.0
  0
SPLINE
  5
73
330
1F
100
AcDbEntity
  8
Layer 1
 62
    22
370
     5
100
AcDbSpline
210
0.0
220
0.0
230
1.0
 70
    11
 71
     3
 72
   108
 73
   104
 74
     0
 42
0.0000000001
 43
0.0000000001
 40
0.0
 40
0.0
 40
0.0
 40
0.0
 40
0.0384615384615385
 40
0.0384615384615385
 40
0.0384615384615385
 40
0.0384615384615385
 40
0.0769230769230769
 40
0.0769230769230769
 40
0.0769230769230769
 40
0.0769230769230769
 40
0.1153846153846154
 40
0.1153846153846154
 40
0.1153846153846154
 40
0.1153846153846154
 40
0.1538461538461539
 40
0.1538461538461539
 40
0.1538461538461539
 40
0.1538461538461539
 40
0.1923076923076923
 40
0.1923076923076923
 40
0.1923076923076923
 40
0.1923076923076923
 40
0.2307692307692308
 40
0.2307692307692308
 40
0.2307692307692308
 40
0.2307692307692308
 40
0.2692307692307693
 40
0.2692307692307693
 40
0.2692307692307693
 40
0.2692307692307693
 40
0.3076923076923077
 40
0.3076923076923077
 40
0.3076923076923077
 40
0.3076923076923077
 40
0.3461538461538461
 40
0.3461538461538461
 40
0.3461538461538461
 40
0.3461538461538461
 40
0.3846153846153846
 40
0.3846153846153846
 40
0.3846153846153846
 40
0.3846153846153846
 40
0.423076923076923
 40
0.423076923076923
 40
0.423076923076923
 40
0.423076923076923
 40
0.4615384615384615
 40
0.4615384615384615
 40
0.4615384615384615
 40
0.4615384615384615
 40
0.4999999999999999
 40
0.4999999999999999
 40
0.4999999999999999
 40
0.4999999999999999
 40
0.5384615384615383
 40
0.5384615384615383
 40
0.5384615384615383
 40
0.5384615384615383
 40
0.5769230769230768
 40
0.5769230769230768
 40
0.5769230769230768
 40
0.5769230769230768
 40
0.6153846153846152
 40
0.6153846153846152
 40
0.6153846153846152
 40
0.6153846153846152
 40
0.6538461538461536
 40
0.6538461538461536
 40
0.6538461538461536
 40
0.6538461538461536
 40
0.6923076923076921
 40
0.6923076923076921
 40
0.6923076923076921
 40
0.6923076923076921
 40
0.7307692307692305
 40
0.7307692307692305
 40
0.7307692307692305
 40
0.7307692307692305
 40
0.7692307692307689
 40
0.7692307692307689
 40
0.7692307692307689
 40
0.7692307692307689
 40
0.8076923076923074
 40
0.8076923076923074
 40
0.8076923076923074
 40
0.8076923076923074
 40
0.8461538461538458
 40
0.8461538461538458
 40
0.8461538461538458
 40
0.8461538461538458
 40
0.8846153846153842
 40
0.8846153846153842
 40
0.8846153846153842
 40
0.8846153846153842
 40
0.9230769230769227
 40
0.9230769230769227
 40
0.9230769230769227
 40
0.9230769230769227
 40
0.9615384615384611
 40
0.9615384615384611
 40
0.9615384615384611
 40
0.9615384615384611
 40
1.0
 40
1.0
 40
1.0
 40
1.0
 10
-7.9695
 20
-3.27476
 30
0.0
 10
-7.9695
 20
-3.27476
 30
0.0
 10
-7.86053
 20
-3.28146
 30
0.0
 10
-7.86053
 20
-3.28146
 30
0.0
 10
-7.86053
 20
-3.28146
 30
0.0
 10
-7.79075
 20
-3.28749
 30
0.0
 10
-7.7659
 20
-3.36553
 30
0.0
 10
-7.76148
 20
-3.47629
 30
0.0
 10
-7.76148
 20
-3.47629
 30
0.0
 10
-7.69159
 20
-3.51228
 30
0.0
 10
-7.61906
 20
-3.57223
 30
0.0
 10
-7.54258
 20
-3.66711
 30
0.0
 10
-7.54258
 20
-3.66711
 30
0.0
 10
-7.48095
 20
-3.74271
 30
0.0
 10
-7.40378
 20
-3.75609
 30
0.0
 10
-7.31597
 20
-3.7269
 30
0.0
 10
-7.31597
 20
-3.7269
 30
0.0
 10
-7.23695
 20
-3.68676
 30
0.0
 10
-7.16445
 20
-3.67936
 30
0.0
 10
-7.09848
 20
-3.70468
 30
0.0
 10
-7.09848
 20
-3.70468
 30
0.0
 10
-7.05418
 20
-3.72194
 30
0.0
 10
-7.00659
 20
-3.71955
 30
0.0
 10
-6.95571
 20
-3.69749
 30
0.0
 10
-6.95571
 20
-3.69749
 30
0.0
 10
-6.87034
 20
-3.65476
 30
0.0
 10
-6.82868
 20
-3.59054
 30
0.0
 10
-6.78899
 20
-3.54777
 30
0.0
 10
-6.78899
 20
-3.54777
 30
0.0
 10
-6.69684
 20
-3.38858
 30
0.0
 10
-6.59274
 20
-3.23182
 30
0.0
 10
-6.46135
 20
-3.11185
 30
0.0
 10
-6.46135
 20
-3.11185
 30
0.0
 10
-6.32669
 20
-2.96456
 30
0.0
 10
-6.21163
 20
-2.8009
 30
0.0
 10
-6.11617
 20
-2.62082
 30
0.0
 10
-6.11617
 20
-2.62082
 30
0.0
 10
-6.11617
 20
-2.62082
 30
0.0
 10
-6.03808
 20
-2.68697
 30
0.0
 10
-6.03808
 20
-2.68697
 30
0.0
 10
-6.03808
 20
-2.68697
 30
0.0
 10
-6.03808
 20
-2.68697
 30
0.0
 10
-5.96007
 20
-2.37492
 30
0.0
 10
-5.96007
 20
-2.37492
 30
0.0
 10
-5.96007
 20
-2.37492
 30
0.0
 10
-5.88684
 20
-2.40688
 30
0.0
 10
-5.86139
 20
-2.3484
 30
0.0
 10
-5.90577
 20
-2.15772
 30
0.0
 10
-5.90577
 20
-2.15772
 30
0.0
 10
-5.90577
 20
-2.15772
 30
0.0
 10
-5.9591
 20
-1.99397
 30
0.0
 10
-5.9591
 20
-1.99397
 30
0.0
 10
-5.9591
 20
-1.99397
 30
0.0
 10
-5.98906
 20
-1.92371
 30
0.0
 10
-5.98307
 20
-1.85016
 30
0.0
 10
-5.94109
 20
-1.7733
 30
0.0
 10
-5.94109
 20
-1.7733
 30
0.0
 10
-5.94109
 20
-1.7733
 30
0.0
 10
-5.87016
 20
-1.5998
 30
0.0
 10
-5.87016
 20
-1.5998
 30
0.0
 10
-5.87016
 20
-1.5998
 30
0.0
 10
-5.85085
 20
-1.54351
 30
0.0
 10
-5.82338
 20
-1.49542
 30
0.0
 10
-5.77787
 20
-1.4653
 30
0.0
 10
-5.77787
 20
-1.4653
 30
0.0
 10
-5.66431
 20
-1.35539
 30
0.0
 10
-5.58547
 20
-1.16157
 30
0.0
 10
-5.58302
 20
-0.78312
 30
0.0
 10
-5.58302
 20
-0.78312
 30
0.0
 10
-5.61535
 20
-0.5964
 30
0.0
 10
-5.72937
 20
-0.45223
 30
0.0
 10
-5.92507
 20
-0.35061
 30
0.0
 10
-5.92507
 20
-0.35061
 30
0.0
 10
-6.36872
 20
-0.3213
 30
0.0
 10
-6.54757
 20
-0.63554
 30
0.0
 10
-6.59246
 20
-1.12356
 30
0.0
 10
-6.59246
 20
-1.12356
 30
0.0
 10
-6.59246
 20
-1.12356
 30
0.0
 10
-6.59463
 20
-1.66913
 30
0.0
 10
-6.59463
 20
-1.66913
 30
0.0
 10
-6.59463
 20
-1.66913
 30
0.0
 10
-6.59742
 20
-1.77657
 30
0.0
 10
-6.63855
 20
-1.88933
 30
0.0
 10
-6.71796
 20
-2.00742
 30
0.0
 10
-6.71796
 20
-2.00742
 30
0.0
 10
-6.84164
 20
-2.16534
 30
0.0
 10
-6.89668
 20
-2.33308
 30
0.0
 10
-6.88309
 20
-2.51061
 30
0.0
 10
-6.88309
 20
-2.51061
 30
0.0
 10
-6.93112
 20
-3.25062
 30
0.0
 10
-7.19194
 20
-3.45874
 30
0.0
 10
-7.38861
 20
-3.19203
 30
0.0
 10
-7.38861
 20
-3.19203
 30
0.0
 10
-7.38861
 20
-3.19203
 30
0.0
 10
-7.4412
 20
-3.13363
 30
0.0
 10
-7.4412
 20
-3.13363
 30
0.0
 10
-7.4412
 20
-3.13363
 30
0.0
 10
-7.4412
 20
-3.13363
 30
0.0
 10
-7.58518
 20
-3.02739
 30
0.0
 10
-7.58518
 20
-3.02739
 30
0.0
 10
-7.58518
 20
-3.02739
 30
0.0
 10
-7.86036
 20
-3.04109
 30
0.0
 10
-7.98846
 20
-3.12356
 30
0.0
 10
-7.9695
 20
-3.27476
 30
0.0
  0
SPLINE
  5
74
330
1F
100
AcDbEntity
  8
Layer 1
 62
    22
370
     5
100
AcDbSpline
210
0.0
220
0.0
230
1.0
 70
    11
 71
     3
 72
    20
 73
    16
 74
     0
 42
0.0000000001
 43
0.0000000001
 40
0.0
 40
0.0
 40
0.0
 40
0.0
 40
0.25
 40
0.25
 40
0.25
 40
0.25
 40
0.5
 40
0.5
 40
0.5
 40
0.5
 40
0.75
 40
0.75
 40
0.75
 40
0.75
 40
1.0
 40
1.0
 40
1.0
 40
1.0
 10
-6.2249
 20
-1.32827
 30
0.0
 10
-6.2249
 20
-1.32827
 30
0.0
 10
-6.11952
 20
-1.35528
 30
0.0
 10
-6.11952
 20
-1.35528
 30
0.0
 10
-6.11952
 20
-1.35528
 30
0.0
 10
-6.11952
 20
-1.35528
 30
0.0
 10
-5.87199
 20
-0.59902
 30
0.0
 10
-5.87199
 20
-0.59902
 30
0.0
 10
-5.87199
 20
-0.59902
 30
0.0
 10
-5.87199
 20
-0.59902
 30
0.0
 10
-5.95532
 20
-0.57201
 30
0.0
 10
-5.95532
 20
-0.57201
 30
0.0
 10
-5.95532
 20
-0.57201
 30
0.0
 10
-5.95532
 20
-0.57201
 30
0.0
 10
-6.2249
 20
-1.32827
 30
0.0
 10
-6.2249
 20
-1.32827
 30
0.0
  0
SPLINE
  5
75
330
1F
100
AcDbEntity
  8
Layer 1
 62
    22
370
     5
100
AcDbSpline
210
0.0
220
0.0
230
1.0
 70
    11
 71
     3
 72
    80
 73
    76
 74
     0
 42
0.0000000001
 43
0.0000000001
 40
0.0
 40
0.0
 40
0.0
 40
0.0
 40
0.0526315789473684
 40
0.0526315789473684
 40
0.0526315789473684
 40
0.0526315789473684
 40
0.1052631578947368
 40
0.1052631578947368
 40
0.1052631578947368
 40
0.1052631578947368
 40
0.1578947368421053
 40
0.1578947368421053
 40
0.1578947368421053
 40
0.1578947368421053
 40
0.2105263157894737
 40
0.2105263157894737
 40
0.2105263157894737
 40
0.2105263157894737
 40
0.2631578947368421
 40
0.2631578947368421
 40
0.2631578947368421
 40
0.2631578947368421
 40
0.3157894736842105
 40
0.3157894736842105
 40
0.3157894736842105
 40
0.3157894736842105
 40
0.3684210526315789
 40
0.3684210526315789
 40
0.3684210526315789
 40
0.3684210526315789
 40
0.4210526315789473
 40
0.4210526315789473
 40
0.4210526315789473
 40
0.4210526315789473
 40
0.4736842105263158
 40
0.4736842105263158
 40
0.4736842105263158
 40
0.4736842105263158
 40
0.5263157894736842
 40
0.5263157894736842
 40
0.5263157894736842
 40
0.5263157894736842
 40
0.5789473684210527
 40
0.5789473684210527
 40
0.5789473684210527
 40
0.5789473684210527
 40
0.631578947368421
 40
0.631578947368421
 40
0.631578947368421
 40
0.631578947368421
 40
0.6842105263157894
 40
0.6842105263157894
 40
0.6842105263157894
 40
0.6842105263157894
 40
0.7368421052631577
 40
0.7368421052631577
 40
0.7368421052631577
 40
0.7368421052631577
 40
0.7894736842105261
 40
0.7894736842105261
 40
0.7894736842105261
 40
0.7894736842105261
 40
0.8421052631578945
 40
0.8421052631578945
 40
0.8421052631578945
 40
0.8421052631578945
 40
0.8947368421052628
 40
0.8947368421052628
 40
0.8947368421052628
 40
0.8947368421052628
 40
0.9473684210526312
 40
0.9473684210526312
 40
0.9473684210526312
 40
0.9473684210526312
 40
1.0
 40
1.0
 40
1.0
 40
1.0
 10
-6.59013
 20
-3.59731
 30
0.0
 10
-6.59013
 20
-3.59731
 30
0.0
 10
-6.07288
 20
-3.79294
 30
0.0
 10
-6.07288
 20
-3.79294
 30
0.0
 10
-6.07288
 20
-3.79294
 30
0.0
 10
-5.83764
 20
-3.779
 30
0.0
 10
-5.65957
 20
-3.74002
 30
0.0
 10
-5.52886
 20
-3.68025
 30
0.0
 10
-5.52886
 20
-3.68025
 30
0.0
 10
-5.52886
 20
-3.68025
 30
0.0
 10
-5.59564
 20
-3.39095
 30
0.0
 10
-5.59564
 20
-3.39095
 30
0.0
 10
-5.59564
 20
-3.39095
 30
0.0
 10
-5.59564
 20
-3.39095
 30
0.0
 10
-5.51217
 20
-3.36485
 30
0.0
 10
-5.51217
 20
-3.36485
 30
0.0
 10
-5.51217
 20
-3.36485
 30
0.0
 10
-5.51217
 20
-3.36485
 30
0.0
 10
-5.43961
 20
-3.64919
 30
0.0
 10
-5.43961
 20
-3.64919
 30
0.0
 10
-5.43961
 20
-3.64919
 30
0.0
 10
-5.43961
 20
-3.64919
 30
0.0
 10
-4.84842
 20
-3.63168
 30
0.0
 10
-4.84842
 20
-3.63168
 30
0.0
 10
-4.84842
 20
-3.63168
 30
0.0
 10
-4.84842
 20
-3.63168
 30
0.0
 10
-4.70612
 20
-3.53176
 30
0.0
 10
-4.70612
 20
-3.53176
 30
0.0
 10
-4.70612
 20
-3.53176
 30
0.0
 10
-4.70612
 20
-3.53176
 30
0.0
 10
-4.39138
 20
-3.55055
 30
0.0
 10
-4.39138
 20
-3.55055
 30
0.0
 10
-4.39138
 20
-3.55055
 30
0.0
 10
-4.21211
 20
-3.30266
 30
0.0
 10
-4.18154
 20
-3.06806
 30
0.0
 10
-4.36825
 20
-2.85285
 30
0.0
 10
-4.36825
 20
-2.85285
 30
0.0
 10
-4.36825
 20
-2.85285
 30
0.0
 10
-4.41463
 20
-2.9328
 30
0.0
 10
-4.41463
 20
-2.9328
 30
0.0
 10
-4.41463
 20
-2.9328
 30
0.0
 10
-4.52129
 20
-2.78494
 30
0.0
 10
-4.62794
 20
-2.67167
 30
0.0
 10
-4.73458
 20
-2.6089
 30
0.0
 10
-4.73458
 20
-2.6089
 30
0.0
 10
-4.73458
 20
-2.6089
 30
0.0
 10
-4.77171
 20
-2.71227
 30
0.0
 10
-4.77171
 20
-2.71227
 30
0.0
 10
-4.77171
 20
-2.71227
 30
0.0
 10
-4.95788
 20
-2.5836
 30
0.0
 10
-5.14405
 20
-2.50813
 30
0.0
 10
-5.33018
 20
-2.51038
 30
0.0
 10
-5.33018
 20
-2.51038
 30
0.0
 10
-5.33018
 20
-2.51038
 30
0.0
 10
-5.31568
 20
-2.64218
 30
0.0
 10
-5.31568
 20
-2.64218
 30
0.0
 10
-5.31568
 20
-2.64218
 30
0.0
 10
-5.61319
 20
-2.63198
 30
0.0
 10
-5.79631
 20
-2.66473
 30
0.0
 10
-5.88464
 20
-2.73308
 30
0.0
 10
-5.88464
 20
-2.73308
 30
0.0
 10
-5.88464
 20
-2.73308
 30
0.0
 10
-5.84753
 20
-2.84441
 30
0.0
 10
-5.84753
 20
-2.84441
 30
0.0
 10
-5.84753
 20
-2.84441
 30
0.0
 10
-6.05533
 20
-2.91903
 30
0.0
 10
-6.20104
 20
-3.01003
 30
0.0
 10
-6.28466
 20
-3.11737
 30
0.0
 10
-6.28466
 20
-3.11737
 30
0.0
 10
-6.28466
 20
-3.11737
 30
0.0
 10
-6.20714
 20
-3.18827
 30
0.0
 10
-6.20714
 20
-3.18827
 30
0.0
 10
-6.20714
 20
-3.18827
 30
0.0
 10
-6.20714
 20
-3.18827
 30
0.0
 10
-6.59013
 20
-3.59731
 30
0.0
 10
-6.59013
 20
-3.59731
 30
0.0
  0
SPLINE
  5
76
330
1F
100
AcDbEntity
  8
Layer 1
 62
    22
370
     5
100
AcDbSpline
210
0.0
220
0.0
230
1.0
 70
    11
 71
     3
 72
    72
 73
    68
 74
     0
 42
0.0000000001
 43
0.0000000001
 40
0.0
 40
0.0
 40
0.0
 40
0.0
 40
0.0588235294117647
 40
0.0588235294117647
 40
0.0588235294117647
 40
0.0588235294117647
 40
0.1176470588235294
 40
0.1176470588235294
 40
0.1176470588235294
 40
0.1176470588235294
 40
0.1764705882352941
 40
0.1764705882352941
 40
0.1764705882352941
 40
0.1764705882352941
 40
0.2352941176470588
 40
0.2352941176470588
 40
0.2352941176470588
 40
0.2352941176470588
 40
0.2941176470588235
 40
0.2941176470588235
 40
0.2941176470588235
 40
0.2941176470588235
 40
0.3529411764705883
 40
0.3529411764705883
 40
0.3529411764705883
 40
0.3529411764705883
 40
0.411764705882353
 40
0.411764705882353
 40
0.411764705882353
 40
0.411764705882353
 40
0.4705882352941177
 40
0.4705882352941177
 40
0.4705882352941177
 40
0.4705882352941177
 40
0.5294117647058824
 40
0.5294117647058824
 40
0.5294117647058824
 40
0.5294117647058824
 40
0.5882352941176471
 40
0.5882352941176471
 40
0.5882352941176471
 40
0.5882352941176471
 40
0.6470588235294118
 40
0.6470588235294118
 40
0.6470588235294118
 40
0.6470588235294118
 40
0.7058823529411765
 40
0.7058823529411765
 40
0.7058823529411765
 40
0.7058823529411765
 40
0.7647058823529412
 40
0.7647058823529412
 40
0.7647058823529412
 40
0.7647058823529412
 40
0.823529411764706
 40
0.823529411764706
 40
0.823529411764706
 40
0.823529411764706
 40
0.8823529411764707
 40
0.8823529411764707
 40
0.8823529411764707
 40
0.8823529411764707
 40
0.9411764705882354
 40
0.9411764705882354
 40
0.9411764705882354
 40
0.9411764705882354
 40
1.0
 40
1.0
 40
1.0
 40
1.0
 10
-3.40854
 20
5.46233
 30
0.0
 10
-3.37801
 20
5.70019
 30
0.0
 10
-3.02741
 20
5.71853
 30
0.0
 10
-2.93897
 20
5.46364
 30
0.0
 10
-2.93897
 20
5.46364
 30
0.0
 10
-2.93897
 20
5.46364
 30
0.0
 10
-2.78762
 20
5.46406
 30
0.0
 10
-2.78762
 20
5.46406
 30
0.0
 10
-2.78762
 20
5.46406
 30
0.0
 10
-2.78762
 20
5.46406
 30
0.0
 10
-2.77987
 20
5.07425
 30
0.0
 10
-2.77987
 20
5.07425
 30
0.0
 10
-2.77987
 20
5.07425
 30
0.0
 10
-2.77987
 20
5.07425
 30
0.0
 10
-2.69239
 20
5.07841
 30
0.0
 10
-2.69239
 20
5.07841
 30
0.0
 10
-2.69239
 20
5.07841
 30
0.0
 10
-2.69239
 20
5.07841
 30
0.0
 10
-2.69286
 20
5.44514
 30
0.0
 10
-2.69286
 20
5.44514
 30
0.0
 10
-2.69286
 20
5.44514
 30
0.0
 10
-2.60544
 20
5.41926
 30
0.0
 10
-2.52937
 20
5.38824
 30
0.0
 10
-2.54518
 20
5.29425
 30
0.0
 10
-2.54518
 20
5.29425
 30
0.0
 10
-2.54518
 20
5.29425
 30
0.0
 10
-2.55562
 20
4.81828
 30
0.0
 10
-2.55562
 20
4.81828
 30
0.0
 10
-2.55562
 20
4.81828
 30
0.0
 10
-2.56258
 20
4.67326
 30
0.0
 10
-2.60957
 20
4.60273
 30
0.0
 10
-2.69657
 20
4.60665
 30
0.0
 10
-2.69657
 20
4.60665
 30
0.0
 10
-2.79174
 20
4.60649
 30
0.0
 10
-2.8869
 20
4.61492
 30
0.0
 10
-2.98201
 20
4.63194
 30
0.0
 10
-2.98201
 20
4.63194
 30
0.0
 10
-3.12595
 20
4.49932
 30
0.0
 10
-3.24128
 20
4.49848
 30
0.0
 10
-3.328
 20
4.62939
 30
0.0
 10
-3.328
 20
4.62939
 30
0.0
 10
-3.328
 20
4.62939
 30
0.0
 10
-3.34488
 20
4.89606
 30
0.0
 10
-3.34488
 20
4.89606
 30
0.0
 10
-3.34488
 20
4.89606
 30
0.0
 10
-3.34488
 20
4.89606
 30
0.0
 10
-3.42569
 20
4.89777
 30
0.0
 10
-3.42569
 20
4.89777
 30
0.0
 10
-3.42569
 20
4.89777
 30
0.0
 10
-3.42569
 20
4.89777
 30
0.0
 10
-3.42652
 20
4.64103
 30
0.0
 10
-3.42652
 20
4.64103
 30
0.0
 10
-3.42652
 20
4.64103
 30
0.0
 10
-3.42652
 20
4.64103
 30
0.0
 10
-3.57596
 20
4.64775
 30
0.0
 10
-3.57596
 20
4.64775
 30
0.0
 10
-3.57596
 20
4.64775
 30
0.0
 10
-3.63817
 20
4.64489
 30
0.0
 10
-3.66035
 20
4.69933
 30
0.0
 10
-3.64249
 20
4.81103
 30
0.0
 10
-3.64249
 20
4.81103
 30
0.0
 10
-3.64236
 20
4.935
 30
0.0
 10
-3.65002
 20
5.05896
 30
0.0
 10
-3.667
 20
5.18287
 30
0.0
 10
-3.667
 20
5.18287
 30
0.0
 10
-3.7165
 20
5.40601
 30
0.0
 10
-3.62214
 20
5.49129
 30
0.0
 10
-3.40854
 20
5.46233
 30
0.0
  0
SPLINE
  5
77
330
1F
100
AcDbEntity
  8
Layer 1
 62
    22
370
     5
100
AcDbSpline
210
0.0
220
0.0
230
1.0
 70
    11
 71
     3
 72
    72
 73
    68
 74
     0
 42
0.0000000001
 43
0.0000000001
 40
0.0
 40
0.0
 40
0.0
 40
0.0
 40
0.0588235294117647
 40
0.0588235294117647
 40
0.0588235294117647
 40
0.0588235294117647
 40
0.1176470588235294
 40
0.1176470588235294
 40
0.1176470588235294
 40
0.1176470588235294
 40
0.1764705882352941
 40
0.1764705882352941
 40
0.1764705882352941
 40
0.1764705882352941
 40
0.2352941176470588
 40
0.2352941176470588
 40
0.2352941176470588
 40
0.2352941176470588
 40
0.2941176470588235
 40
0.2941176470588235
 40
0.2941176470588235
 40
0.2941176470588235
 40
0.3529411764705883
 40
0.3529411764705883
 40
0.3529411764705883
 40
0.3529411764705883
 40
0.411764705882353
 40
0.411764705882353
 40
0.411764705882353
 40
0.411764705882353
 40
0.4705882352941177
 40
0.4705882352941177
 40
0.4705882352941177
 40
0.4705882352941177
 40
0.5294117647058824
 40
0.5294117647058824
 40
0.5294117647058824
 40
0.5294117647058824
 40
0.5882352941176471
 40
0.5882352941176471
 40
0.5882352941176471
 40
0.5882352941176471
 40
0.6470588235294118
 40
0.6470588235294118
 40
0.6470588235294118
 40
0.6470588235294118
 40
0.7058823529411765
 40
0.7058823529411765
 40
0.7058823529411765
 40
0.7058823529411765
 40
0.7647058823529412
 40
0.7647058823529412
 40
0.7647058823529412
 40
0.7647058823529412
 40
0.823529411764706
 40
0.823529411764706
 40
0.823529411764706
 40
0.823529411764706
 40
0.8823529411764707
 40
0.8823529411764707
 40
0.8823529411764707
 40
0.8823529411764707
 40
0.9411764705882354
 40
0.9411764705882354
 40
0.9411764705882354
 40
0.9411764705882354
 40
1.0
 40
1.0
 40
1.0
 40
1.0
 10
-2.00577
 20
4.44886
 30
0.0
 10
-2.0363
 20
4.68672
 30
0.0
 10
-2.3869
 20
4.70506
 30
0.0
 10
-2.47534
 20
4.45017
 30
0.0
 10
-2.47534
 20
4.45017
 30
0.0
 10
-2.47534
 20
4.45017
 30
0.0
 10
-2.62669
 20
4.45059
 30
0.0
 10
-2.62669
 20
4.45059
 30
0.0
 10
-2.62669
 20
4.45059
 30
0.0
 10
-2.62669
 20
4.45059
 30
0.0
 10
-2.63444
 20
4.06078
 30
0.0
 10
-2.63444
 20
4.06078
 30
0.0
 10
-2.63444
 20
4.06078
 30
0.0
 10
-2.63444
 20
4.06078
 30
0.0
 10
-2.72192
 20
4.06494
 30
0.0
 10
-2.72192
 20
4.06494
 30
0.0
 10
-2.72192
 20
4.06494
 30
0.0
 10
-2.72192
 20
4.06494
 30
0.0
 10
-2.72145
 20
4.43167
 30
0.0
 10
-2.72145
 20
4.43167
 30
0.0
 10
-2.72145
 20
4.43167
 30
0.0
 10
-2.80887
 20
4.40579
 30
0.0
 10
-2.88494
 20
4.37477
 30
0.0
 10
-2.86913
 20
4.28078
 30
0.0
 10
-2.86913
 20
4.28078
 30
0.0
 10
-2.86913
 20
4.28078
 30
0.0
 10
-2.85869
 20
3.80481
 30
0.0
 10
-2.85869
 20
3.80481
 30
0.0
 10
-2.85869
 20
3.80481
 30
0.0
 10
-2.85173
 20
3.65979
 30
0.0
 10
-2.80474
 20
3.58926
 30
0.0
 10
-2.71774
 20
3.59318
 30
0.0
 10
-2.71774
 20
3.59318
 30
0.0
 10
-2.62257
 20
3.59302
 30
0.0
 10
-2.52741
 20
3.60145
 30
0.0
 10
-2.4323
 20
3.61847
 30
0.0
 10
-2.4323
 20
3.61847
 30
0.0
 10
-2.28836
 20
3.48585
 30
0.0
 10
-2.17303
 20
3.48501
 30
0.0
 10
-2.08631
 20
3.61592
 30
0.0
 10
-2.08631
 20
3.61592
 30
0.0
 10
-2.08631
 20
3.61592
 30
0.0
 10
-2.06943
 20
3.88259
 30
0.0
 10
-2.06943
 20
3.88259
 30
0.0
 10
-2.06943
 20
3.88259
 30
0.0
 10
-2.06943
 20
3.88259
 30
0.0
 10
-1.98862
 20
3.8843
 30
0.0
 10
-1.98862
 20
3.8843
 30
0.0
 10
-1.98862
 20
3.8843
 30
0.0
 10
-1.98862
 20
3.8843
 30
0.0
 10
-1.98779
 20
3.62756
 30
0.0
 10
-1.98779
 20
3.62756
 30
0.0
 10
-1.98779
 20
3.62756
 30
0.0
 10
-1.98779
 20
3.62756
 30
0.0
 10
-1.83835
 20
3.63428
 30
0.0
 10
-1.83835
 20
3.63428
 30
0.0
 10
-1.83835
 20
3.63428
 30
0.0
 10
-1.77614
 20
3.63142
 30
0.0
 10
-1.75396
 20
3.68586
 30
0.0
 10
-1.77182
 20
3.79756
 30
0.0
 10
-1.77182
 20
3.79756
 30
0.0
 10
-1.77195
 20
3.92153
 30
0.0
 10
-1.76429
 20
4.04549
 30
0.0
 10
-1.74731
 20
4.1694
 30
0.0
 10
-1.74731
 20
4.1694
 30
0.0
 10
-1.69781
 20
4.39254
 30
0.0
 10
-1.79217
 20
4.47782
 30
0.0
 10
-2.00577
 20
4.44886
 30
0.0
  0
SPLINE
  5
78
330
1F
100
AcDbEntity
  8
Layer 1
 62
    22
370
     5
100
AcDbSpline
210
0.0
220
0.0
230
1.0
 70
    11
 71
     3
 72
    76
 73
    72
 74
     0
 42
0.0000000001
 43
0.0000000001
 40
0.0
 40
0.0
 40
0.0
 40
0.0
 40
0.0555555555555556
 40
0.0555555555555556
 40
0.0555555555555556
 40
0.0555555555555556
 40
0.1111111111111111
 40
0.1111111111111111
 40
0.1111111111111111
 40
0.1111111111111111
 40
0.1666666666666667
 40
0.1666666666666667
 40
0.1666666666666667
 40
0.1666666666666667
 40
0.2222222222222222
 40
0.2222222222222222
 40
0.2222222222222222
 40
0.2222222222222222
 40
0.2777777777777778
 40
0.2777777777777778
 40
0.2777777777777778
 40
0.2777777777777778
 40
0.3333333333333334
 40
0.3333333333333334
 40
0.3333333333333334
 40
0.3333333333333334
 40
0.388888888888889
 40
0.388888888888889
 40
0.388888888888889
 40
0.388888888888889
 40
0.4444444444444445
 40
0.4444444444444445
 40
0.4444444444444445
 40
0.4444444444444445
 40
0.5000000000000001
 40
0.5000000000000001
 40
0.5000000000000001
 40
0.5000000000000001
 40
0.5555555555555557
 40
0.5555555555555557
 40
0.5555555555555557
 40
0.5555555555555557
 40
0.6111111111111113
 40
0.6111111111111113
 40
0.6111111111111113
 40
0.6111111111111113
 40
0.6666666666666669
 40
0.6666666666666669
 40
0.6666666666666669
 40
0.6666666666666669
 40
0.7222222222222224
 40
0.7222222222222224
 40
0.7222222222222224
 40
0.7222222222222224
 40
0.777777777777778
 40
0.777777777777778
 40
0.777777777777778
 40
0.777777777777778
 40
0.8333333333333336
 40
0.8333333333333336
 40
0.8333333333333336
 40
0.8333333333333336
 40
0.8888888888888892
 40
0.8888888888888892
 40
0.8888888888888892
 40
0.8888888888888892
 40
0.9444444444444448
 40
0.9444444444444448
 40
0.9444444444444448
 40
0.9444444444444448
 40
1.0
 40
1.0
 40
1.0
 40
1.0
 10
-0.23271
 20
5.23843
 30
0.0
 10
-0.23271
 20
5.23843
 30
0.0
 10
-0.51621
 20
5.25802
 30
0.0
 10
-0.51621
 20
5.25802
 30
0.0
 10
-0.51621
 20
5.25802
 30
0.0
 10
-0.51621
 20
5.25802
 30
0.0
 10
-0.47705
 20
5.16134
 30
0.0
 10
-0.47705
 20
5.16134
 30
0.0
 10
-0.47705
 20
5.16134
 30
0.0
 10
-0.71442
 20
5.1242
 30
0.0
 10
-0.86867
 20
5.07474
 30
0.0
 10
-0.93164
 20
5.01177
 30
0.0
 10
-0.93164
 20
5.01177
 30
0.0
 10
-0.93164
 20
5.01177
 30
0.0
 10
-0.85246
 20
4.89772
 30
0.0
 10
-0.85246
 20
4.89772
 30
0.0
 10
-0.85246
 20
4.89772
 30
0.0
 10
-1.05419
 20
4.79372
 30
0.0
 10
-1.19596
 20
4.67877
 30
0.0
 10
-1.27189
 20
4.5518
 30
0.0
 10
-1.27189
 20
4.5518
 30
0.0
 10
-1.27189
 20
4.5518
 30
0.0
 10
-1.17695
 20
4.48945
 30
0.0
 10
-1.17695
 20
4.48945
 30
0.0
 10
-1.17695
 20
4.48945
 30
0.0
 10
-1.29897
 20
4.33191
 30
0.0
 10
-1.36952
 20
4.20446
 30
0.0
 10
-1.38862
 20
4.10706
 30
0.0
 10
-1.38862
 20
4.10706
 30
0.0
 10
-1.38862
 20
4.10706
 30
0.0
 10
-1.27402
 20
4.09523
 30
0.0
 10
-1.27402
 20
4.09523
 30
0.0
 10
-1.27402
 20
4.09523
 30
0.0
 10
-1.30566
 20
3.95949
 30
0.0
 10
-1.31543
 20
3.82375
 30
0.0
 10
-1.30707
 20
3.68799
 30
0.0
 10
-1.30707
 20
3.68799
 30
0.0
 10
-1.30707
 20
3.68799
 30
0.0
 10
-1.19345
 20
3.68792
 30
0.0
 10
-1.19345
 20
3.68792
 30
0.0
 10
-1.19345
 20
3.68792
 30
0.0
 10
-1.1288
 20
3.44506
 30
0.0
 10
-1.04919
 20
3.28616
 30
0.0
 10
-0.95597
 20
3.2037
 30
0.0
 10
-0.95597
 20
3.2037
 30
0.0
 10
-0.62316
 20
3.94119
 30
0.0
 10
-0.43673
 20
4.14483
 30
0.0
 10
-0.16113
 20
4.37453
 30
0.0
 10
-0.16113
 20
4.37453
 30
0.0
 10
-0.16113
 20
4.37453
 30
0.0
 10
-0.4304
 20
4.50338
 30
0.0
 10
-0.4304
 20
4.50338
 30
0.0
 10
-0.4304
 20
4.50338
 30
0.0
 10
-0.4304
 20
4.50338
 30
0.0
 10
-0.40411
 20
4.58814
 30
0.0
 10
-0.40411
 20
4.58814
 30
0.0
 10
-0.40411
 20
4.58814
 30
0.0
 10
-0.40411
 20
4.58814
 30
0.0
 10
-0.08706
 20
4.4583
 30
0.0
 10
-0.08706
 20
4.4583
 30
0.0
 10
-0.08706
 20
4.4583
 30
0.0
 10
-0.08706
 20
4.4583
 30
0.0
 10
0.1958
 20
4.70107
 30
0.0
 10
0.1958
 20
4.70107
 30
0.0
 10
0.1958
 20
4.70107
 30
0.0
 10
0.17442
 20
4.88084
 30
0.0
 10
0.14303
 20
4.98326
 30
0.0
 10
0.10163
 20
5.00832
 30
0.0
 10
0.10163
 20
5.00832
 30
0.0
 10
0.10743
 20
5.15951
 30
0.0
 10
-0.00294
 20
5.2244
 30
0.0
 10
-0.23271
 20
5.23843
 30
0.0
  0
SPLINE
  5
79
330
1F
100
AcDbEntity
  8
Layer 1
 62
    22
370
     5
100
AcDbSpline
210
0.0
220
0.0
230
1.0
 70
    11
 71
     3
 72
    80
 73
    76
 74
     0
 42
0.0000000001
 43
0.0000000001
 40
0.0
 40
0.0
 40
0.0
 40
0.0
 40
0.0526315789473684
 40
0.0526315789473684
 40
0.0526315789473684
 40
0.0526315789473684
 40
0.1052631578947368
 40
0.1052631578947368
 40
0.1052631578947368
 40
0.1052631578947368
 40
0.1578947368421053
 40
0.1578947368421053
 40
0.1578947368421053
 40
0.1578947368421053
 40
0.2105263157894737
 40
0.2105263157894737
 40
0.2105263157894737
 40
0.2105263157894737
 40
0.2631578947368421
 40
0.2631578947368421
 40
0.2631578947368421
 40
0.2631578947368421
 40
0.3157894736842105
 40
0.3157894736842105
 40
0.3157894736842105
 40
0.3157894736842105
 40
0.3684210526315789
 40
0.3684210526315789
 40
0.3684210526315789
 40
0.3684210526315789
 40
0.4210526315789473
 40
0.4210526315789473
 40
0.4210526315789473
 40
0.4210526315789473
 40
0.4736842105263158
 40
0.4736842105263158
 40
0.4736842105263158
 40
0.4736842105263158
 40
0.5263157894736842
 40
0.5263157894736842
 40
0.5263157894736842
 40
0.5263157894736842
 40
0.5789473684210527
 40
0.5789473684210527
 40
0.5789473684210527
 40
0.5789473684210527
 40
0.631578947368421
 40
0.631578947368421
 40
0.631578947368421
 40
0.631578947368421
 40
0.6842105263157894
 40
0.6842105263157894
 40
0.6842105263157894
 40
0.6842105263157894
 40
0.7368421052631577
 40
0.7368421052631577
 40
0.7368421052631577
 40
0.7368421052631577
 40
0.7894736842105261
 40
0.7894736842105261
 40
0.7894736842105261
 40
0.7894736842105261
 40
0.8421052631578945
 40
0.8421052631578945
 40
0.8421052631578945
 40
0.8421052631578945
 40
0.8947368421052628
 40
0.8947368421052628
 40
0.8947368421052628
 40
0.8947368421052628
 40
0.9473684210526312
 40
0.9473684210526312
 40
0.9473684210526312
 40
0.9473684210526312
 40
1.0
 40
1.0
 40
1.0
 40
1.0
 10
0.94071
 20
4.53897
 30
0.0
 10
0.84783
 20
4.61782
 30
0.0
 10
0.61896
 20
4.60362
 30
0.0
 10
0.22595
 20
4.4771
 30
0.0
 10
0.22595
 20
4.4771
 30
0.0
 10
0.19957
 20
4.46564
 30
0.0
 10
0.19881
 20
4.44503
 30
0.0
 10
0.22365
 20
4.41523
 30
0.0
 10
0.22365
 20
4.41523
 30
0.0
 10
0.22365
 20
4.41523
 30
0.0
 10
0.27059
 20
4.38688
 30
0.0
 10
0.27059
 20
4.38688
 30
0.0
 10
0.27059
 20
4.38688
 30
0.0
 10
0.29675
 20
4.36637
 30
0.0
 10
0.29178
 20
4.34951
 30
0.0
 10
0.25566
 20
4.33629
 30
0.0
 10
0.25566
 20
4.33629
 30
0.0
 10
0.13164
 20
4.31073
 30
0.0
 10
-0.01351
 20
4.19353
 30
0.0
 10
-0.17051
 20
4.02493
 30
0.0
 10
-0.17051
 20
4.02493
 30
0.0
 10
-0.17051
 20
4.02493
 30
0.0
 10
-0.07499
 20
3.95849
 30
0.0
 10
-0.07499
 20
3.95849
 30
0.0
 10
-0.07499
 20
3.95849
 30
0.0
 10
-0.14692
 20
3.87837
 30
0.0
 10
-0.20845
 20
3.67276
 30
0.0
 10
-0.26212
 20
3.3726
 30
0.0
 10
-0.26212
 20
3.3726
 30
0.0
 10
-0.26212
 20
3.3726
 30
0.0
 10
-0.16321
 20
3.36177
 30
0.0
 10
-0.16321
 20
3.36177
 30
0.0
 10
-0.16321
 20
3.36177
 30
0.0
 10
-0.1499
 20
3.16034
 30
0.0
 10
-0.10618
 20
2.99374
 30
0.0
 10
-0.04167
 20
2.85095
 30
0.0
 10
-0.04167
 20
2.85095
 30
0.0
 10
-0.04167
 20
2.85095
 30
0.0
 10
0.06665
 20
2.91066
 30
0.0
 10
0.06665
 20
2.91066
 30
0.0
 10
0.06665
 20
2.91066
 30
0.0
 10
0.07019
 20
2.81861
 30
0.0
 10
0.17382
 20
2.66037
 30
0.0
 10
0.36036
 20
2.44728
 30
0.0
 10
0.36036
 20
2.44728
 30
0.0
 10
0.42445
 20
2.37299
 30
0.0
 10
0.47217
 20
2.3985
 30
0.0
 10
0.49597
 20
2.56984
 30
0.0
 10
0.49597
 20
2.56984
 30
0.0
 10
0.50838
 20
2.80365
 30
0.0
 10
0.56025
 20
2.95576
 30
0.0
 10
0.68245
 20
2.96221
 30
0.0
 10
0.68245
 20
2.96221
 30
0.0
 10
0.68245
 20
2.96221
 30
0.0
 10
0.93935
 20
2.97057
 30
0.0
 10
0.93935
 20
2.97057
 30
0.0
 10
0.93935
 20
2.97057
 30
0.0
 10
0.93935
 20
2.97057
 30
0.0
 10
0.93985
 20
3.54182
 30
0.0
 10
0.93985
 20
3.54182
 30
0.0
 10
0.93985
 20
3.54182
 30
0.0
 10
0.93985
 20
3.54182
 30
0.0
 10
0.54875
 20
3.54182
 30
0.0
 10
0.54875
 20
3.54182
 30
0.0
 10
0.54875
 20
3.54182
 30
0.0
 10
0.54875
 20
3.54182
 30
0.0
 10
0.54847
 20
3.63772
 30
0.0
 10
0.54847
 20
3.63772
 30
0.0
 10
0.54847
 20
3.63772
 30
0.0
 10
0.54847
 20
3.63772
 30
0.0
 10
0.93994
 20
3.6367
 30
0.0
 10
0.93994
 20
3.6367
 30
0.0
 10
0.93994
 20
3.6367
 30
0.0
 10
0.93994
 20
3.6367
 30
0.0
 10
0.94071
 20
4.53897
 30
0.0
 10
0.94071
 20
4.53897
 30
0.0
  0
SPLINE
  5
7A
330
1F
100
AcDbEntity
  8
Layer 1
 62
    22
370
     5
100
AcDbSpline
210
0.0
220
0.0
230
1.0
 70
    11
 71
     3
 72
    20
 73
    16
 74
     0
 42
0.0000000001
 43
0.0000000001
 40
0.0
 40
0.0
 40
0.0
 40
0.0
 40
0.25
 40
0.25
 40
0.25
 40
0.25
 40
0.5
 40
0.5
 40
0.5
 40
0.5
 40
0.75
 40
0.75
 40
0.75
 40
0.75
 40
1.0
 40
1.0
 40
1.0
 40
1.0
 10
4.61574
 20
-1.59714
 30
0.0
 10
4.61574
 20
-1.59714
 30
0.0
 10
4.61574
 20
-1.21229
 30
0.0
 10
4.61574
 20
-1.21229
 30
0.0
 10
4.61574
 20
-1.21229
 30
0.0
 10
4.61574
 20
-1.21229
 30
0.0
 10
5.31546
 20
-1.21229
 30
0.0
 10
5.31546
 20
-1.21229
 30
0.0
 10
5.31546
 20
-1.21229
 30
0.0
 10
5.31546
 20
-1.21229
 30
0.0
 10
5.31546
 20
-1.59714
 30
0.0
 10
5.31546
 20
-1.59714
 30
0.0
 10
5.31546
 20
-1.59714
 30
0.0
 10
5.31546
 20
-1.59714
 30
0.0
 10
4.61574
 20
-1.59714
 30
0.0
 10
4.61574
 20
-1.59714
 30
0.0
  0
SPLINE
  5
7B
330
1F
100
AcDbEntity
  8
Layer 1
 62
   142
370
     5
100
AcDbSpline
210
0.0
220
0.0
230
1.0
 70
    11
 71
     3
 72
    72
 73
    68
 74
     0
 42
0.0000000001
 43
0.0000000001
 40
0.0
 40
0.0
 40
0.0
 40
0.0
 40
0.0588235294117647
 40
0.0588235294117647
 40
0.0588235294117647
 40
0.0588235294117647
 40
0.1176470588235294
 40
0.1176470588235294
 40
0.1176470588235294
 40
0.1176470588235294
 40
0.1764705882352941
 40
0.1764705882352941
 40
0.1764705882352941
 40
0.1764705882352941
 40
0.2352941176470588
 40
0.2352941176470588
 40
0.2352941176470588
 40
0.2352941176470588
 40
0.2941176470588235
 40
0.2941176470588235
 40
0.2941176470588235
 40
0.2941176470588235
 40
0.3529411764705883
 40
0.3529411764705883
 40
0.3529411764705883
 40
0.3529411764705883
 40
0.411764705882353
 40
0.411764705882353
 40
0.411764705882353
 40
0.411764705882353
 40
0.4705882352941177
 40
0.4705882352941177
 40
0.4705882352941177
 40
0.4705882352941177
 40
0.5294117647058824
 40
0.5294117647058824
 40
0.5294117647058824
 40
0.5294117647058824
 40
0.5882352941176471
 40
0.5882352941176471
 40
0.5882352941176471
 40
0.5882352941176471
 40
0.6470588235294118
 40
0.6470588235294118
 40
0.6470588235294118
 40
0.6470588235294118
 40
0.7058823529411765
 40
0.7058823529411765
 40
0.7058823529411765
 40
0.7058823529411765
 40
0.7647058823529412
 40
0.7647058823529412
 40
0.7647058823529412
 40
0.7647058823529412
 40
0.823529411764706
 40
0.823529411764706
 40
0.823529411764706
 40
0.823529411764706
 40
0.8823529411764707
 40
0.8823529411764707
 40
0.8823529411764707
 40
0.8823529411764707
 40
0.9411764705882354
 40
0.9411764705882354
 40
0.9411764705882354
 40
0.9411764705882354
 40
1.0
 40
1.0
 40
1.0
 40
1.0
 10
9.26618
 20
3.79531
 30
0.0
 10
9.26618
 20
3.79531
 30
0.0
 10
8.5787
 20
3.47515
 30
0.0
 10
8.5787
 20
3.47515
 30
0.0
 10
8.5787
 20
3.47515
 30
0.0
 10
8.5787
 20
3.47515
 30
0.0
 10
8.52321
 20
3.84576
 30
0.0
 10
8.52321
 20
3.84576
 30
0.0
 10
8.52321
 20
3.84576
 30
0.0
 10
8.48684
 20
3.92034
 30
0.0
 10
8.43059
 20
3.96421
 30
0.0
 10
8.35029
 20
3.971
 30
0.0
 10
8.35029
 20
3.971
 30
0.0
 10
8.35029
 20
3.971
 30
0.0
 10
8.27032
 20
3.94614
 30
0.0
 10
8.27032
 20
3.94614
 30
0.0
 10
8.27032
 20
3.94614
 30
0.0
 10
8.14633
 20
3.93241
 30
0.0
 10
8.0353
 20
3.96907
 30
0.0
 10
7.93722
 20
4.05612
 30
0.0
 10
7.93722
 20
4.05612
 30
0.0
 10
7.88496
 20
4.12051
 30
0.0
 10
7.91176
 20
4.18228
 30
0.0
 10
8.01762
 20
4.24146
 30
0.0
 10
8.01762
 20
4.24146
 30
0.0
 10
8.11015
 20
4.30045
 30
0.0
 10
8.11649
 20
4.40875
 30
0.0
 10
8.03661
 20
4.56641
 30
0.0
 10
8.03661
 20
4.56641
 30
0.0
 10
8.03661
 20
4.56641
 30
0.0
 10
7.88924
 20
4.7782
 30
0.0
 10
7.88924
 20
4.7782
 30
0.0
 10
7.88924
 20
4.7782
 30
0.0
 10
7.88924
 20
4.7782
 30
0.0
 10
7.87078
 20
4.84703
 30
0.0
 10
7.87078
 20
4.84703
 30
0.0
 10
7.87078
 20
4.84703
 30
0.0
 10
7.87232
 20
4.96348
 30
0.0
 10
7.91956
 20
4.99995
 30
0.0
 10
7.99805
 20
4.98173
 30
0.0
 10
7.99805
 20
4.98173
 30
0.0
 10
8.03357
 20
4.94655
 30
0.0
 10
8.08745
 20
4.93574
 30
0.0
 10
8.15967
 20
4.94933
 30
0.0
 10
8.15967
 20
4.94933
 30
0.0
 10
8.41342
 20
4.98676
 30
0.0
 10
8.6555
 20
4.97302
 30
0.0
 10
8.78529
 20
4.80933
 30
0.0
 10
8.78529
 20
4.80933
 30
0.0
 10
8.78529
 20
4.80933
 30
0.0
 10
8.69022
 20
4.6997
 30
0.0
 10
8.69022
 20
4.6997
 30
0.0
 10
8.69022
 20
4.6997
 30
0.0
 10
8.69022
 20
4.6997
 30
0.0
 10
8.76242
 20
4.62613
 30
0.0
 10
8.76242
 20
4.62613
 30
0.0
 10
8.76242
 20
4.62613
 30
0.0
 10
8.76242
 20
4.62613
 30
0.0
 10
8.86516
 20
4.7372
 30
0.0
 10
8.86516
 20
4.7372
 30
0.0
 10
8.86516
 20
4.7372
 30
0.0
 10
8.94404
 20
4.64575
 30
0.0
 10
8.93536
 20
4.51486
 30
0.0
 10
8.91298
 20
4.46632
 30
0.0
 10
8.91298
 20
4.46632
 30
0.0
 10
8.89482
 20
4.37232
 30
0.0
 10
9.03396
 20
4.09693
 30
0.0
 10
9.26618
 20
3.79531
 30
0.0
  0
SPLINE
  5
7C
330
1F
100
AcDbEntity
  8
Layer 1
 62
   142
370
     5
100
AcDbSpline
210
0.0
220
0.0
230
1.0
 70
    11
 71
     3
 72
    20
 73
    16
 74
     0
 42
0.0000000001
 43
0.0000000001
 40
0.0
 40
0.0
 40
0.0
 40
0.0
 40
0.25
 40
0.25
 40
0.25
 40
0.25
 40
0.5
 40
0.5
 40
0.5
 40
0.5
 40
0.75
 40
0.75
 40
0.75
 40
0.75
 40
1.0
 40
1.0
 40
1.0
 40
1.0
 10
8.66676
 20
4.24322
 30
0.0
 10
8.66676
 20
4.24322
 30
0.0
 10
8.55136
 20
4.17788
 30
0.0
 10
8.55136
 20
4.17788
 30
0.0
 10
8.55136
 20
4.17788
 30
0.0
 10
8.55136
 20
4.17788
 30
0.0
 10
8.74378
 20
3.8205
 30
0.0
 10
8.74378
 20
3.8205
 30
0.0
 10
8.74378
 20
3.8205
 30
0.0
 10
8.74378
 20
3.8205
 30
0.0
 10
8.85846
 20
3.89424
 30
0.0
 10
8.85846
 20
3.89424
 30
0.0
 10
8.85846
 20
3.89424
 30
0.0
 10
8.85846
 20
3.89424
 30
0.0
 10
8.66676
 20
4.24322
 30
0.0
 10
8.66676
 20
4.24322
 30
0.0
  0
SPLINE
  5
7D
330
1F
100
AcDbEntity
  8
Layer 1
 62
    22
370
     5
100
AcDbSpline
210
0.0
220
0.0
230
1.0
 70
    11
 71
     3
 72
   124
 73
   120
 74
     0
 42
0.0000000001
 43
0.0000000001
 40
0.0
 40
0.0
 40
0.0
 40
0.0
 40
0.0333333333333333
 40
0.0333333333333333
 40
0.0333333333333333
 40
0.0333333333333333
 40
0.0666666666666667
 40
0.0666666666666667
 40
0.0666666666666667
 40
0.0666666666666667
 40
0.1
 40
0.1
 40
0.1
 40
0.1
 40
0.1333333333333333
 40
0.1333333333333333
 40
0.1333333333333333
 40
0.1333333333333333
 40
0.1666666666666667
 40
0.1666666666666667
 40
0.1666666666666667
 40
0.1666666666666667
 40
0.2
 40
0.2
 40
0.2
 40
0.2
 40
0.2333333333333333
 40
0.2333333333333333
 40
0.2333333333333333
 40
0.2333333333333333
 40
0.2666666666666667
 40
0.2666666666666667
 40
0.2666666666666667
 40
0.2666666666666667
 40
0.3
 40
0.3
 40
0.3
 40
0.3
 40
0.3333333333333333
 40
0.3333333333333333
 40
0.3333333333333333
 40
0.3333333333333333
 40
0.3666666666666666
 40
0.3666666666666666
 40
0.3666666666666666
 40
0.3666666666666666
 40
0.4
 40
0.4
 40
0.4
 40
0.4
 40
0.4333333333333333
 40
0.4333333333333333
 40
0.4333333333333333
 40
0.4333333333333333
 40
0.4666666666666666
 40
0.4666666666666666
 40
0.4666666666666666
 40
0.4666666666666666
 40
0.4999999999999999
 40
0.4999999999999999
 40
0.4999999999999999
 40
0.4999999999999999
 40
0.5333333333333333
 40
0.5333333333333333
 40
0.5333333333333333
 40
0.5333333333333333
 40
0.5666666666666667
 40
0.5666666666666667
 40
0.5666666666666667
 40
0.5666666666666667
 40
0.6
 40
0.6
 40
0.6
 40
0.6
 40
0.6333333333333333
 40
0.6333333333333333
 40
0.6333333333333333
 40
0.6333333333333333
 40
0.6666666666666666
 40
0.6666666666666666
 40
0.6666666666666666
 40
0.6666666666666666
 40
0.7
 40
0.7
 40
0.7
 40
0.7
 40
0.7333333333333333
 40
0.7333333333333333
 40
0.7333333333333333
 40
0.7333333333333333
 40
0.7666666666666666
 40
0.7666666666666666
 40
0.7666666666666666
 40
0.7666666666666666
 40
0.7999999999999999
 40
0.7999999999999999
 40
0.7999999999999999
 40
0.7999999999999999
 40
0.8333333333333333
 40
0.8333333333333333
 40
0.8333333333333333
 40
0.8333333333333333
 40
0.8666666666666666
 40
0.8666666666666666
 40
0.8666666666666666
 40
0.8666666666666666
 40
0.8999999999999999
 40
0.8999999999999999
 40
0.8999999999999999
 40
0.8999999999999999
 40
0.9333333333333332
 40
0.9333333333333332
 40
0.9333333333333332
 40
0.9333333333333332
 40
0.9666666666666666
 40
0.9666666666666666
 40
0.9666666666666666
 40
0.9666666666666666
 40
1.0
 40
1.0
 40
1.0
 40
1.0
 10
-3.63038
 20
3.14
 30
0.0
 10
-3.63038
 20
3.14
 30
0.0
 10
-3.43201
 20
3.48494
 30
0.0
 10
-3.43201
 20
3.48494
 30
0.0
 10
-3.43201
 20
3.48494
 30
0.0
 10
-3.39831
 20
3.55396
 30
0.0
 10
-3.33587
 20
3.56795
 30
0.0
 10
-3.24466
 20
3.52695
 30
0.0
 10
-3.24466
 20
3.52695
 30
0.0
 10
-3.24466
 20
3.52695
 30
0.0
 10
-2.79608
 20
3.29086
 30
0.0
 10
-2.79608
 20
3.29086
 30
0.0
 10
-2.79608
 20
3.29086
 30
0.0
 10
-2.69966
 20
3.23218
 30
0.0
 10
-2.66697
 20
3.1522
 30
0.0
 10
-2.72736
 20
3.04109
 30
0.0
 10
-2.72736
 20
3.04109
 30
0.0
 10
-2.72736
 20
3.04109
 30
0.0
 10
-3.12582
 20
3.2375
 30
0.0
 10
-3.12582
 20
3.2375
 30
0.0
 10
-3.12582
 20
3.2375
 30
0.0
 10
-3.12582
 20
3.2375
 30
0.0
 10
-3.15035
 20
3.17179
 30
0.0
 10
-3.15035
 20
3.17179
 30
0.0
 10
-3.15035
 20
3.17179
 30
0.0
 10
-3.15035
 20
3.17179
 30
0.0
 10
-2.83971
 20
2.98818
 30
0.0
 10
-2.83971
 20
2.98818
 30
0.0
 10
-2.83971
 20
2.98818
 30
0.0
 10
-2.79021
 20
2.96721
 30
0.0
 10
-2.7773
 20
2.93316
 30
0.0
 10
-2.80098
 20
2.886
 30
0.0
 10
-2.80098
 20
2.886
 30
0.0
 10
-2.80098
 20
2.886
 30
0.0
 10
-2.85372
 20
2.79373
 30
0.0
 10
-2.85372
 20
2.79373
 30
0.0
 10
-2.85372
 20
2.79373
 30
0.0
 10
-2.86914
 20
2.75254
 30
0.0
 10
-2.85582
 20
2.72183
 30
0.0
 10
-2.81373
 20
2.70158
 30
0.0
 10
-2.81373
 20
2.70158
 30
0.0
 10
-2.72399
 20
2.68242
 30
0.0
 10
-2.67055
 20
2.63703
 30
0.0
 10
-2.61739
 20
2.60737
 30
0.0
 10
-2.61739
 20
2.60737
 30
0.0
 10
-2.57228
 20
2.5726
 30
0.0
 10
-2.55593
 20
2.50901
 30
0.0
 10
-2.56832
 20
2.41661
 30
0.0
 10
-2.56832
 20
2.41661
 30
0.0
 10
-2.59877
 20
2.26634
 30
0.0
 10
-2.67208
 20
2.13038
 30
0.0
 10
-2.78091
 20
2.00627
 30
0.0
 10
-2.78091
 20
2.00627
 30
0.0
 10
-2.85773
 20
1.95145
 30
0.0
 10
-2.95024
 20
1.95162
 30
0.0
 10
-3.0584
 20
2.00678
 30
0.0
 10
-3.0584
 20
2.00678
 30
0.0
 10
-3.11142
 20
2.0615
 30
0.0
 10
-3.16444
 20
2.07168
 30
0.0
 10
-3.21746
 20
2.0373
 30
0.0
 10
-3.21746
 20
2.0373
 30
0.0
 10
-3.24143
 20
2.00982
 30
0.0
 10
-3.28
 20
1.96286
 30
0.0
 10
-3.2831
 20
1.87776
 30
0.0
 10
-3.2831
 20
1.87776
 30
0.0
 10
-3.2831
 20
1.87776
 30
0.0
 10
-3.7077
 20
2.08446
 30
0.0
 10
-3.7077
 20
2.08446
 30
0.0
 10
-3.7077
 20
2.08446
 30
0.0
 10
-3.7077
 20
2.08446
 30
0.0
 10
-3.74357
 20
1.98012
 30
0.0
 10
-3.74357
 20
1.98012
 30
0.0
 10
-3.74357
 20
1.98012
 30
0.0
 10
-3.74357
 20
1.98012
 30
0.0
 10
-3.36086
 20
1.80663
 30
0.0
 10
-3.36086
 20
1.80663
 30
0.0
 10
-3.36086
 20
1.80663
 30
0.0
 10
-3.38426
 20
1.7336
 30
0.0
 10
-3.44427
 20
1.7051
 30
0.0
 10
-3.54085
 20
1.72112
 30
0.0
 10
-3.54085
 20
1.72112
 30
0.0
 10
-3.54085
 20
1.72112
 30
0.0
 10
-4.10485
 20
1.98713
 30
0.0
 10
-4.10485
 20
1.98713
 30
0.0
 10
-4.10485
 20
1.98713
 30
0.0
 10
-4.16234
 20
2.03476
 30
0.0
 10
-4.16491
 20
2.10596
 30
0.0
 10
-4.1126
 20
2.20071
 30
0.0
 10
-4.1126
 20
2.20071
 30
0.0
 10
-4.1126
 20
2.20071
 30
0.0
 10
-3.97533
 20
2.45811
 30
0.0
 10
-3.97533
 20
2.45811
 30
0.0
 10
-3.97533
 20
2.45811
 30
0.0
 10
-3.97533
 20
2.45811
 30
0.0
 10
-4.15245
 20
2.55595
 30
0.0
 10
-4.15245
 20
2.55595
 30
0.0
 10
-4.15245
 20
2.55595
 30
0.0
 10
-4.15245
 20
2.55595
 30
0.0
 10
-4.01336
 20
2.85478
 30
0.0
 10
-4.01336
 20
2.85478
 30
0.0
 10
-4.01336
 20
2.85478
 30
0.0
 10
-4.01336
 20
2.85478
 30
0.0
 10
-3.62584
 20
2.65673
 30
0.0
 10
-3.62584
 20
2.65673
 30
0.0
 10
-3.62584
 20
2.65673
 30
0.0
 10
-3.62584
 20
2.65673
 30
0.0
 10
-3.58792
 20
2.74771
 30
0.0
 10
-3.58792
 20
2.74771
 30
0.0
 10
-3.58792
 20
2.74771
 30
0.0
 10
-3.58792
 20
2.74771
 30
0.0
 10
-3.95945
 20
2.93877
 30
0.0
 10
-3.95945
 20
2.93877
 30
0.0
 10
-3.95945
 20
2.93877
 30
0.0
 10
-3.95945
 20
2.93877
 30
0.0
 10
-3.82334
 20
3.22475
 30
0.0
 10
-3.82334
 20
3.22475
 30
0.0
 10
-3.82334
 20
3.22475
 30
0.0
 10
-3.82334
 20
3.22475
 30
0.0
 10
-3.63038
 20
3.14
 30
0.0
 10
-3.63038
 20
3.14
 30
0.0
  0
SPLINE
  5
7E
330
1F
100
AcDbEntity
  8
Layer 1
 62
    22
370
     5
100
AcDbSpline
210
0.0
220
0.0
230
1.0
 70
    11
 71
     3
 72
    68
 73
    64
 74
     0
 42
0.0000000001
 43
0.0000000001
 40
0.0
 40
0.0
 40
0.0
 40
0.0
 40
0.0625
 40
0.0625
 40
0.0625
 40
0.0625
 40
0.125
 40
0.125
 40
0.125
 40
0.125
 40
0.1875
 40
0.1875
 40
0.1875
 40
0.1875
 40
0.25
 40
0.25
 40
0.25
 40
0.25
 40
0.3125
 40
0.3125
 40
0.3125
 40
0.3125
 40
0.375
 40
0.375
 40
0.375
 40
0.375
 40
0.4375
 40
0.4375
 40
0.4375
 40
0.4375
 40
0.5
 40
0.5
 40
0.5
 40
0.5
 40
0.5625
 40
0.5625
 40
0.5625
 40
0.5625
 40
0.625
 40
0.625
 40
0.625
 40
0.625
 40
0.6875
 40
0.6875
 40
0.6875
 40
0.6875
 40
0.75
 40
0.75
 40
0.75
 40
0.75
 40
0.8125
 40
0.8125
 40
0.8125
 40
0.8125
 40
0.875
 40
0.875
 40
0.875
 40
0.875
 40
0.9375
 40
0.9375
 40
0.9375
 40
0.9375
 40
1.0
 40
1.0
 40
1.0
 40
1.0
 10
-5.68533
 20
1.04865
 30
0.0
 10
-5.62475
 20
1.22388
 30
0.0
 10
-5.49411
 20
1.29167
 30
0.0
 10
-5.30543
 20
1.27045
 30
0.0
 10
-5.30543
 20
1.27045
 30
0.0
 10
-5.2556
 20
1.2489
 30
0.0
 10
-5.23977
 20
1.19331
 30
0.0
 10
-5.25791
 20
1.10366
 30
0.0
 10
-5.25791
 20
1.10366
 30
0.0
 10
-5.25791
 20
1.10366
 30
0.0
 10
-5.33889
 20
0.93088
 30
0.0
 10
-5.33889
 20
0.93088
 30
0.0
 10
-5.33889
 20
0.93088
 30
0.0
 10
-5.35352
 20
0.90428
 30
0.0
 10
-5.35116
 20
0.88686
 30
0.0
 10
-5.33181
 20
0.87859
 30
0.0
 10
-5.33181
 20
0.87859
 30
0.0
 10
-5.26036
 20
0.67083
 30
0.0
 10
-5.24904
 20
0.48662
 30
0.0
 10
-5.29783
 20
0.32596
 30
0.0
 10
-5.29783
 20
0.32596
 30
0.0
 10
-5.31623
 20
0.21372
 30
0.0
 10
-5.3067
 20
0.15744
 30
0.0
 10
-5.27804
 20
0.13946
 30
0.0
 10
-5.27804
 20
0.13946
 30
0.0
 10
-5.23381
 20
0.10954
 30
0.0
 10
-5.20233
 20
0.05834
 30
0.0
 10
-5.18945
 20
-0.02398
 30
0.0
 10
-5.18945
 20
-0.02398
 30
0.0
 10
-5.18945
 20
-0.02398
 30
0.0
 10
-5.18897
 20
-0.09623
 30
0.0
 10
-5.18897
 20
-0.09623
 30
0.0
 10
-5.18897
 20
-0.09623
 30
0.0
 10
-5.2055
 20
-0.13375
 30
0.0
 10
-5.23769
 20
-0.15556
 30
0.0
 10
-5.28555
 20
-0.16167
 30
0.0
 10
-5.28555
 20
-0.16167
 30
0.0
 10
-5.28555
 20
-0.16167
 30
0.0
 10
-5.3579
 20
-0.16131
 30
0.0
 10
-5.3579
 20
-0.16131
 30
0.0
 10
-5.3579
 20
-0.16131
 30
0.0
 10
-5.55201
 20
-0.12594
 30
0.0
 10
-5.65463
 20
-0.02772
 30
0.0
 10
-5.66572
 20
0.13332
 30
0.0
 10
-5.66572
 20
0.13332
 30
0.0
 10
-5.66572
 20
0.13332
 30
0.0
 10
-5.67417
 20
0.50845
 30
0.0
 10
-5.67417
 20
0.50845
 30
0.0
 10
-5.67417
 20
0.50845
 30
0.0
 10
-5.67417
 20
0.50845
 30
0.0
 10
-5.46287
 20
0.50917
 30
0.0
 10
-5.46287
 20
0.50917
 30
0.0
 10
-5.46287
 20
0.50917
 30
0.0
 10
-5.46287
 20
0.50917
 30
0.0
 10
-5.46335
 20
0.591
 30
0.0
 10
-5.46335
 20
0.591
 30
0.0
 10
-5.46335
 20
0.591
 30
0.0
 10
-5.46335
 20
0.591
 30
0.0
 10
-5.67602
 20
0.59098
 30
0.0
 10
-5.67602
 20
0.59098
 30
0.0
 10
-5.67602
 20
0.59098
 30
0.0
 10
-5.67602
 20
0.59098
 30
0.0
 10
-5.68533
 20
1.04865
 30
0.0
 10
-5.68533
 20
1.04865
 30
0.0
  0
SPLINE
  5
7F
330
1F
100
AcDbEntity
  8
Layer 1
 62
    22
370
     5
100
AcDbSpline
210
0.0
220
0.0
230
1.0
 70
    11
 71
     3
 72
    92
 73
    88
 74
     0
 42
0.0000000001
 43
0.0000000001
 40
0.0
 40
0.0
 40
0.0
 40
0.0
 40
0.0454545454545455
 40
0.0454545454545455
 40
0.0454545454545455
 40
0.0454545454545455
 40
0.0909090909090909
 40
0.0909090909090909
 40
0.0909090909090909
 40
0.0909090909090909
 40
0.1363636363636364
 40
0.1363636363636364
 40
0.1363636363636364
 40
0.1363636363636364
 40
0.1818181818181818
 40
0.1818181818181818
 40
0.1818181818181818
 40
0.1818181818181818
 40
0.2272727272727273
 40
0.2272727272727273
 40
0.2272727272727273
 40
0.2272727272727273
 40
0.2727272727272728
 40
0.2727272727272728
 40
0.2727272727272728
 40
0.2727272727272728
 40
0.3181818181818182
 40
0.3181818181818182
 40
0.3181818181818182
 40
0.3181818181818182
 40
0.3636363636363637
 40
0.3636363636363637
 40
0.3636363636363637
 40
0.3636363636363637
 40
0.4090909090909092
 40
0.4090909090909092
 40
0.4090909090909092
 40
0.4090909090909092
 40
0.4545454545454546
 40
0.4545454545454546
 40
0.4545454545454546
 40
0.4545454545454546
 40
0.5000000000000001
 40
0.5000000000000001
 40
0.5000000000000001
 40
0.5000000000000001
 40
0.5454545454545455
 40
0.5454545454545455
 40
0.5454545454545455
 40
0.5454545454545455
 40
0.5909090909090909
 40
0.5909090909090909
 40
0.5909090909090909
 40
0.5909090909090909
 40
0.6363636363636364
 40
0.6363636363636364
 40
0.6363636363636364
 40
0.6363636363636364
 40
0.6818181818181818
 40
0.6818181818181818
 40
0.6818181818181818
 40
0.6818181818181818
 40
0.7272727272727272
 40
0.7272727272727272
 40
0.7272727272727272
 40
0.7272727272727272
 40
0.7727272727272726
 40
0.7727272727272726
 40
0.7727272727272726
 40
0.7727272727272726
 40
0.818181818181818
 40
0.818181818181818
 40
0.818181818181818
 40
0.818181818181818
 40
0.8636363636363634
 40
0.8636363636363634
 40
0.8636363636363634
 40
0.8636363636363634
 40
0.9090909090909088
 40
0.9090909090909088
 40
0.9090909090909088
 40
0.9090909090909088
 40
0.9545454545454543
 40
0.9545454545454543
 40
0.9545454545454543
 40
0.9545454545454543
 40
1.0
 40
1.0
 40
1.0
 40
1.0
 10
-4.43357
 20
0.00438
 30
0.0
 10
-4.26956
 20
-0.00075
 30
0.0
 10
-4.08985
 20
0.02291
 30
0.0
 10
-3.89445
 20
0.0754
 30
0.0
 10
-3.89445
 20
0.0754
 30
0.0
 10
-3.8858
 20
-0.01749
 30
0.0
 10
-3.85541
 20
-0.03886
 30
0.0
 10
-3.81014
 20
-0.01126
 30
0.0
 10
-3.81014
 20
-0.01126
 30
0.0
 10
-3.81014
 20
-0.01126
 30
0.0
 10
-3.29908
 20
0.17897
 30
0.0
 10
-3.29908
 20
0.17897
 30
0.0
 10
-3.29908
 20
0.17897
 30
0.0
 10
-3.25316
 20
0.21311
 30
0.0
 10
-3.25167
 20
0.24726
 30
0.0
 10
-3.2946
 20
0.28142
 30
0.0
 10
-3.2946
 20
0.28142
 30
0.0
 10
-3.46032
 20
0.42087
 30
0.0
 10
-3.60903
 20
0.58585
 30
0.0
 10
-3.73291
 20
0.78819
 30
0.0
 10
-3.73291
 20
0.78819
 30
0.0
 10
-3.76325
 20
0.84026
 30
0.0
 10
-3.86354
 20
1.1049
 30
0.0
 10
-3.90496
 20
1.23168
 30
0.0
 10
-3.90496
 20
1.23168
 30
0.0
 10
-3.90496
 20
1.23168
 30
0.0
 10
-4.27727
 20
0.97275
 30
0.0
 10
-4.27727
 20
0.97275
 30
0.0
 10
-4.27727
 20
0.97275
 30
0.0
 10
-4.27727
 20
0.97275
 30
0.0
 10
-4.33633
 20
1.07372
 30
0.0
 10
-4.33633
 20
1.07372
 30
0.0
 10
-4.33633
 20
1.07372
 30
0.0
 10
-4.33633
 20
1.07372
 30
0.0
 10
-3.93753
 20
1.34596
 30
0.0
 10
-3.93753
 20
1.34596
 30
0.0
 10
-3.93753
 20
1.34596
 30
0.0
 10
-3.97283
 20
1.46636
 30
0.0
 10
-4.0166
 20
1.57398
 30
0.0
 10
-4.07278
 20
1.66297
 30
0.0
 10
-4.07278
 20
1.66297
 30
0.0
 10
-4.15102
 20
1.65957
 30
0.0
 10
-4.23302
 20
1.675
 30
0.0
 10
-4.32168
 20
1.724
 30
0.0
 10
-4.32168
 20
1.724
 30
0.0
 10
-4.39101
 20
1.73875
 30
0.0
 10
-4.45773
 20
1.73517
 30
0.0
 10
-4.5218
 20
1.71328
 30
0.0
 10
-4.5218
 20
1.71328
 30
0.0
 10
-4.7148
 20
1.6394
 30
0.0
 10
-4.86074
 20
1.52624
 30
0.0
 10
-4.9596
 20
1.37379
 30
0.0
 10
-4.9596
 20
1.37379
 30
0.0
 10
-4.99026
 20
1.30948
 30
0.0
 10
-4.98171
 20
1.27397
 30
0.0
 10
-4.93393
 20
1.2673
 30
0.0
 10
-4.93393
 20
1.2673
 30
0.0
 10
-4.89632
 20
1.24508
 30
0.0
 10
-4.89465
 20
1.20844
 30
0.0
 10
-4.90933
 20
1.16528
 30
0.0
 10
-4.90933
 20
1.16528
 30
0.0
 10
-4.97042
 20
1.05993
 30
0.0
 10
-4.99466
 20
0.89083
 30
0.0
 10
-4.99823
 20
0.68597
 30
0.0
 10
-4.99823
 20
0.68597
 30
0.0
 10
-4.99823
 20
0.68597
 30
0.0
 10
-4.87459
 20
0.705
 30
0.0
 10
-4.87459
 20
0.705
 30
0.0
 10
-4.87459
 20
0.705
 30
0.0
 10
-4.87459
 20
0.705
 30
0.0
 10
-4.85991
 20
0.46984
 30
0.0
 10
-4.85991
 20
0.46984
 30
0.0
 10
-4.85991
 20
0.46984
 30
0.0
 10
-4.82923
 20
0.44434
 30
0.0
 10
-4.82649
 20
0.35352
 30
0.0
 10
-4.84285
 20
0.21803
 30
0.0
 10
-4.84285
 20
0.21803
 30
0.0
 10
-4.91816
 20
0.17567
 30
0.0
 10
-4.91243
 20
0.14379
 30
0.0
 10
-4.82564
 20
0.12239
 30
0.0
 10
-4.82564
 20
0.12239
 30
0.0
 10
-4.70096
 20
0.09932
 30
0.0
 10
-4.57366
 20
0.09458
 30
0.0
 10
-4.44372
 20
0.10821
 30
0.0
 10
-4.44372
 20
0.10821
 30
0.0
 10
-4.44372
 20
0.10821
 30
0.0
 10
-4.43357
 20
0.00438
 30
0.0
 10
-4.43357
 20
0.00438
 30
0.0
  0
SPLINE
  5
80
330
1F
100
AcDbEntity
  8
Layer 1
 62
   114
370
     5
100
AcDbSpline
210
0.0
220
0.0
230
1.0
 70
    11
 71
     3
 72
   136
 73
   132
 74
     0
 42
0.0000000001
 43
0.0000000001
 40
0.0
 40
0.0
 40
0.0
 40
0.0
 40
0.0303030303030303
 40
0.0303030303030303
 40
0.0303030303030303
 40
0.0303030303030303
 40
0.0606060606060606
 40
0.0606060606060606
 40
0.0606060606060606
 40
0.0606060606060606
 40
0.0909090909090909
 40
0.0909090909090909
 40
0.0909090909090909
 40
0.0909090909090909
 40
0.1212121212121212
 40
0.1212121212121212
 40
0.1212121212121212
 40
0.1212121212121212
 40
0.1515151515151515
 40
0.1515151515151515
 40
0.1515151515151515
 40
0.1515151515151515
 40
0.1818181818181818
 40
0.1818181818181818
 40
0.1818181818181818
 40
0.1818181818181818
 40
0.2121212121212121
 40
0.2121212121212121
 40
0.2121212121212121
 40
0.2121212121212121
 40
0.2424242424242424
 40
0.2424242424242424
 40
0.2424242424242424
 40
0.2424242424242424
 40
0.2727272727272727
 40
0.2727272727272727
 40
0.2727272727272727
 40
0.2727272727272727
 40
0.303030303030303
 40
0.303030303030303
 40
0.303030303030303
 40
0.303030303030303
 40
0.3333333333333333
 40
0.3333333333333333
 40
0.3333333333333333
 40
0.3333333333333333
 40
0.3636363636363635
 40
0.3636363636363635
 40
0.3636363636363635
 40
0.3636363636363635
 40
0.3939393939393938
 40
0.3939393939393938
 40
0.3939393939393938
 40
0.3939393939393938
 40
0.4242424242424241
 40
0.4242424242424241
 40
0.4242424242424241
 40
0.4242424242424241
 40
0.4545454545454544
 40
0.4545454545454544
 40
0.4545454545454544
 40
0.4545454545454544
 40
0.4848484848484846
 40
0.4848484848484846
 40
0.4848484848484846
 40
0.4848484848484846
 40
0.5151515151515149
 40
0.5151515151515149
 40
0.5151515151515149
 40
0.5151515151515149
 40
0.5454545454545452
 40
0.5454545454545452
 40
0.5454545454545452
 40
0.5454545454545452
 40
0.5757575757575755
 40
0.5757575757575755
 40
0.5757575757575755
 40
0.5757575757575755
 40
0.6060606060606057
 40
0.6060606060606057
 40
0.6060606060606057
 40
0.6060606060606057
 40
0.636363636363636
 40
0.636363636363636
 40
0.636363636363636
 40
0.636363636363636
 40
0.6666666666666663
 40
0.6666666666666663
 40
0.6666666666666663
 40
0.6666666666666663
 40
0.6969696969696966
 40
0.6969696969696966
 40
0.6969696969696966
 40
0.6969696969696966
 40
0.7272727272727268
 40
0.7272727272727268
 40
0.7272727272727268
 40
0.7272727272727268
 40
0.7575757575757571
 40
0.7575757575757571
 40
0.7575757575757571
 40
0.7575757575757571
 40
0.7878787878787874
 40
0.7878787878787874
 40
0.7878787878787874
 40
0.7878787878787874
 40
0.8181818181818177
 40
0.8181818181818177
 40
0.8181818181818177
 40
0.8181818181818177
 40
0.848484848484848
 40
0.848484848484848
 40
0.848484848484848
 40
0.848484848484848
 40
0.8787878787878782
 40
0.8787878787878782
 40
0.8787878787878782
 40
0.8787878787878782
 40
0.9090909090909085
 40
0.9090909090909085
 40
0.9090909090909085
 40
0.9090909090909085
 40
0.9393939393939388
 40
0.9393939393939388
 40
0.9393939393939388
 40
0.9393939393939388
 40
0.9696969696969691
 40
0.9696969696969691
 40
0.9696969696969691
 40
0.9696969696969691
 40
1.0
 40
1.0
 40
1.0
 40
1.0
 10
7.98946
 20
-2.83192
 30
0.0
 10
7.90278
 20
-2.88629
 30
0.0
 10
7.80924
 20
-2.81316
 30
0.0
 10
7.70818
 20
-2.59999
 30
0.0
 10
7.70818
 20
-2.59999
 30
0.0
 10
7.70818
 20
-2.59999
 30
0.0
 10
8.04019
 20
-2.42986
 30
0.0
 10
8.04019
 20
-2.42986
 30
0.0
 10
8.04019
 20
-2.42986
 30
0.0
 10
8.04019
 20
-2.42986
 30
0.0
 10
7.99809
 20
-2.34038
 30
0.0
 10
7.99809
 20
-2.34038
 30
0.0
 10
7.99809
 20
-2.34038
 30
0.0
 10
7.99809
 20
-2.34038
 30
0.0
 10
7.53625
 20
-2.55231
 30
0.0
 10
7.53625
 20
-2.55231
 30
0.0
 10
7.53625
 20
-2.55231
 30
0.0
 10
7.53625
 20
-2.55231
 30
0.0
 10
7.4757
 20
-2.26607
 30
0.0
 10
7.4757
 20
-2.26607
 30
0.0
 10
7.4757
 20
-2.26607
 30
0.0
 10
7.46749
 20
-2.17493
 30
0.0
 10
7.41707
 20
-2.13945
 30
0.0
 10
7.32444
 20
-2.1596
 30
0.0
 10
7.32444
 20
-2.1596
 30
0.0
 10
7.27591
 20
-2.15229
 30
0.0
 10
7.19743
 20
-2.11347
 30
0.0
 10
7.08902
 20
-2.04313
 30
0.0
 10
7.08902
 20
-2.04313
 30
0.0
 10
7.0723
 20
-2.00077
 30
0.0
 10
7.04712
 20
-1.98309
 30
0.0
 10
7.00952
 20
-2.00141
 30
0.0
 10
7.00952
 20
-2.00141
 30
0.0
 10
7.00952
 20
-2.00141
 30
0.0
 10
6.92741
 20
-2.03169
 30
0.0
 10
6.92741
 20
-2.03169
 30
0.0
 10
6.92741
 20
-2.03169
 30
0.0
 10
6.92741
 20
-2.03169
 30
0.0
 10
6.85371
 20
-1.99575
 30
0.0
 10
6.85371
 20
-1.99575
 30
0.0
 10
6.85371
 20
-1.99575
 30
0.0
 10
6.78967
 20
-1.94362
 30
0.0
 10
6.74825
 20
-1.88025
 30
0.0
 10
6.73167
 20
-1.80452
 30
0.0
 10
6.73167
 20
-1.80452
 30
0.0
 10
6.72199
 20
-1.76337
 30
0.0
 10
6.73836
 20
-1.73467
 30
0.0
 10
6.78077
 20
-1.71839
 30
0.0
 10
6.78077
 20
-1.71839
 30
0.0
 10
6.78077
 20
-1.71839
 30
0.0
 10
6.96252
 20
-1.71776
 30
0.0
 10
6.96252
 20
-1.71776
 30
0.0
 10
6.96252
 20
-1.71776
 30
0.0
 10
7.00187
 20
-1.7157
 30
0.0
 10
7.02614
 20
-1.69554
 30
0.0
 10
7.03532
 20
-1.65725
 30
0.0
 10
7.03532
 20
-1.65725
 30
0.0
 10
7.06021
 20
-1.54668
 30
0.0
 10
7.06217
 20
-1.44457
 30
0.0
 10
7.03646
 20
-1.35263
 30
0.0
 10
7.03646
 20
-1.35263
 30
0.0
 10
6.99908
 20
-1.28528
 30
0.0
 10
6.94768
 20
-1.24921
 30
0.0
 10
6.88227
 20
-1.24437
 30
0.0
 10
6.88227
 20
-1.24437
 30
0.0
 10
6.85696
 20
-1.2461
 30
0.0
 10
6.83588
 20
-1.2382
 30
0.0
 10
6.81901
 20
-1.22058
 30
0.0
 10
6.81901
 20
-1.22058
 30
0.0
 10
6.74059
 20
-1.13609
 30
0.0
 10
6.71729
 20
-1.03654
 30
0.0
 10
6.74419
 20
-0.92323
 30
0.0
 10
6.74419
 20
-0.92323
 30
0.0
 10
6.7742
 20
-0.82631
 30
0.0
 10
6.78695
 20
-0.73286
 30
0.0
 10
6.78244
 20
-0.64283
 30
0.0
 10
6.78244
 20
-0.64283
 30
0.0
 10
6.79628
 20
-0.57364
 30
0.0
 10
6.84097
 20
-0.54716
 30
0.0
 10
6.91654
 20
-0.56337
 30
0.0
 10
6.91654
 20
-0.56337
 30
0.0
 10
6.91654
 20
-0.56337
 30
0.0
 10
7.06073
 20
-0.65065
 30
0.0
 10
7.06073
 20
-0.65065
 30
0.0
 10
7.06073
 20
-0.65065
 30
0.0
 10
7.14256
 20
-0.72895
 30
0.0
 10
7.21262
 20
-0.77587
 30
0.0
 10
7.27088
 20
-0.7914
 30
0.0
 10
7.27088
 20
-0.7914
 30
0.0
 10
7.39628
 20
-0.7994
 30
0.0
 10
7.51386
 20
-0.78842
 30
0.0
 10
7.62433
 20
-0.76011
 30
0.0
 10
7.62433
 20
-0.76011
 30
0.0
 10
7.74627
 20
-0.82455
 30
0.0
 10
7.87678
 20
-0.92279
 30
0.0
 10
8.01508
 20
-1.05178
 30
0.0
 10
8.01508
 20
-1.05178
 30
0.0
 10
8.01508
 20
-1.05178
 30
0.0
 10
7.8591
 20
-1.23248
 30
0.0
 10
7.8591
 20
-1.23248
 30
0.0
 10
7.8591
 20
-1.23248
 30
0.0
 10
7.8591
 20
-1.23248
 30
0.0
 10
7.93148
 20
-1.30295
 30
0.0
 10
7.93148
 20
-1.30295
 30
0.0
 10
7.93148
 20
-1.30295
 30
0.0
 10
7.93148
 20
-1.30295
 30
0.0
 10
8.09741
 20
-1.12825
 30
0.0
 10
8.09741
 20
-1.12825
 30
0.0
 10
8.09741
 20
-1.12825
 30
0.0
 10
8.27532
 20
-1.27294
 30
0.0
 10
8.3527
 20
-1.40732
 30
0.0
 10
8.33856
 20
-1.53227
 30
0.0
 10
8.33856
 20
-1.53227
 30
0.0
 10
8.34541
 20
-1.59548
 30
0.0
 10
8.45421
 20
-1.77312
 30
0.0
 10
8.63981
 20
-2.03695
 30
0.0
 10
8.63981
 20
-2.03695
 30
0.0
 10
8.63981
 20
-2.03695
 30
0.0
 10
8.29868
 20
-2.20038
 30
0.0
 10
8.29868
 20
-2.20038
 30
0.0
 10
8.29868
 20
-2.20038
 30
0.0
 10
8.30124
 20
-2.29403
 30
0.0
 10
8.33142
 20
-2.3989
 30
0.0
 10
8.37657
 20
-2.48737
 30
0.0
 10
8.37657
 20
-2.48737
 30
0.0
 10
8.40937
 20
-2.57443
 30
0.0
 10
8.38892
 20
-2.63594
 30
0.0
 10
8.31526
 20
-2.67186
 30
0.0
 10
8.31526
 20
-2.67186
 30
0.0
 10
8.21032
 20
-2.71643
 30
0.0
 10
8.10152
 20
-2.77032
 30
0.0
 10
7.98946
 20
-2.83192
 30
0.0
  0
SPLINE
  5
81
330
1F
100
AcDbEntity
  8
Layer 1
 62
   114
370
     5
100
AcDbSpline
210
0.0
220
0.0
230
1.0
 70
    11
 71
     3
 72
    20
 73
    16
 74
     0
 42
0.0000000001
 43
0.0000000001
 40
0.0
 40
0.0
 40
0.0
 40
0.0
 40
0.25
 40
0.25
 40
0.25
 40
0.25
 40
0.5
 40
0.5
 40
0.5
 40
0.5
 40
0.75
 40
0.75
 40
0.75
 40
0.75
 40
1.0
 40
1.0
 40
1.0
 40
1.0
 10
7.83566
 20
-1.68897
 30
0.0
 10
7.83566
 20
-1.68897
 30
0.0
 10
8.02529
 20
-2.03794
 30
0.0
 10
8.02529
 20
-2.03794
 30
0.0
 10
8.02529
 20
-2.03794
 30
0.0
 10
8.02529
 20
-2.03794
 30
0.0
 10
7.91061
 20
-2.11166
 30
0.0
 10
7.91061
 20
-2.11166
 30
0.0
 10
7.91061
 20
-2.11166
 30
0.0
 10
7.91061
 20
-2.11166
 30
0.0
 10
7.72023
 20
-1.75429
 30
0.0
 10
7.72023
 20
-1.75429
 30
0.0
 10
7.72023
 20
-1.75429
 30
0.0
 10
7.72023
 20
-1.75429
 30
0.0
 10
7.83566
 20
-1.68897
 30
0.0
 10
7.83566
 20
-1.68897
 30
0.0
  0
SPLINE
  5
82
330
1F
100
AcDbEntity
  8
Layer 1
 62
    22
370
     5
100
AcDbSpline
210
0.0
220
0.0
230
1.0
 70
    11
 71
     3
 72
    72
 73
    68
 74
     0
 42
0.0000000001
 43
0.0000000001
 40
0.0
 40
0.0
 40
0.0
 40
0.0
 40
0.0588235294117647
 40
0.0588235294117647
 40
0.0588235294117647
 40
0.0588235294117647
 40
0.1176470588235294
 40
0.1176470588235294
 40
0.1176470588235294
 40
0.1176470588235294
 40
0.1764705882352941
 40
0.1764705882352941
 40
0.1764705882352941
 40
0.1764705882352941
 40
0.2352941176470588
 40
0.2352941176470588
 40
0.2352941176470588
 40
0.2352941176470588
 40
0.2941176470588235
 40
0.2941176470588235
 40
0.2941176470588235
 40
0.2941176470588235
 40
0.3529411764705883
 40
0.3529411764705883
 40
0.3529411764705883
 40
0.3529411764705883
 40
0.411764705882353
 40
0.411764705882353
 40
0.411764705882353
 40
0.411764705882353
 40
0.4705882352941177
 40
0.4705882352941177
 40
0.4705882352941177
 40
0.4705882352941177
 40
0.5294117647058824
 40
0.5294117647058824
 40
0.5294117647058824
 40
0.5294117647058824
 40
0.5882352941176471
 40
0.5882352941176471
 40
0.5882352941176471
 40
0.5882352941176471
 40
0.6470588235294118
 40
0.6470588235294118
 40
0.6470588235294118
 40
0.6470588235294118
 40
0.7058823529411765
 40
0.7058823529411765
 40
0.7058823529411765
 40
0.7058823529411765
 40
0.7647058823529412
 40
0.7647058823529412
 40
0.7647058823529412
 40
0.7647058823529412
 40
0.823529411764706
 40
0.823529411764706
 40
0.823529411764706
 40
0.823529411764706
 40
0.8823529411764707
 40
0.8823529411764707
 40
0.8823529411764707
 40
0.8823529411764707
 40
0.9411764705882354
 40
0.9411764705882354
 40
0.9411764705882354
 40
0.9411764705882354
 40
1.0
 40
1.0
 40
1.0
 40
1.0
 10
-5.31686
 20
-1.34747
 30
0.0
 10
-5.30967
 20
-1.41161
 30
0.0
 10
-5.26375
 20
-1.44339
 30
0.0
 10
-5.19379
 20
-1.45511
 30
0.0
 10
-5.19379
 20
-1.45511
 30
0.0
 10
-5.19379
 20
-1.45511
 30
0.0
 10
-4.66499
 20
-1.48027
 30
0.0
 10
-4.66499
 20
-1.48027
 30
0.0
 10
-4.66499
 20
-1.48027
 30
0.0
 10
-4.57737
 20
-1.48984
 30
0.0
 10
-4.53
 20
-1.43533
 30
0.0
 10
-4.53123
 20
-1.30346
 30
0.0
 10
-4.53123
 20
-1.30346
 30
0.0
 10
-4.53123
 20
-1.30346
 30
0.0
 10
-4.89516
 20
-1.28283
 30
0.0
 10
-4.89516
 20
-1.28283
 30
0.0
 10
-4.89516
 20
-1.28283
 30
0.0
 10
-4.89516
 20
-1.28283
 30
0.0
 10
-4.89881
 20
-1.20567
 30
0.0
 10
-4.89881
 20
-1.20567
 30
0.0
 10
-4.89881
 20
-1.20567
 30
0.0
 10
-4.89881
 20
-1.20567
 30
0.0
 10
-4.52117
 20
-1.21193
 30
0.0
 10
-4.52117
 20
-1.21193
 30
0.0
 10
-4.52117
 20
-1.21193
 30
0.0
 10
-4.52117
 20
-1.21193
 30
0.0
 10
-4.51381
 20
-0.96793
 30
0.0
 10
-4.51381
 20
-0.96793
 30
0.0
 10
-4.51381
 20
-0.96793
 30
0.0
 10
-4.41996
 20
-0.93376
 30
0.0
 10
-4.42155
 20
-0.78892
 30
0.0
 10
-4.50679
 20
-0.76913
 30
0.0
 10
-4.50679
 20
-0.76913
 30
0.0
 10
-4.5236
 20
-0.76151
 30
0.0
 10
-4.53295
 20
-0.74805
 30
0.0
 10
-4.53143
 20
-0.72602
 30
0.0
 10
-4.53143
 20
-0.72602
 30
0.0
 10
-4.53391
 20
-0.50851
 30
0.0
 10
-4.58866
 20
-0.40624
 30
0.0
 10
-4.69567
 20
-0.41918
 30
0.0
 10
-4.69567
 20
-0.41918
 30
0.0
 10
-4.88345
 20
-0.43049
 30
0.0
 10
-5.07122
 20
-0.44935
 30
0.0
 10
-5.25895
 20
-0.48158
 30
0.0
 10
-5.25895
 20
-0.48158
 30
0.0
 10
-5.32368
 20
-0.49386
 30
0.0
 10
-5.36391
 20
-0.52086
 30
0.0
 10
-5.35018
 20
-0.58026
 30
0.0
 10
-5.35018
 20
-0.58026
 30
0.0
 10
-5.35018
 20
-0.58026
 30
0.0
 10
-5.34235
 20
-0.77706
 30
0.0
 10
-5.34235
 20
-0.77706
 30
0.0
 10
-5.34235
 20
-0.77706
 30
0.0
 10
-5.34235
 20
-0.77706
 30
0.0
 10
-5.08125
 20
-0.75748
 30
0.0
 10
-5.08125
 20
-0.75748
 30
0.0
 10
-5.08125
 20
-0.75748
 30
0.0
 10
-5.08125
 20
-0.75748
 30
0.0
 10
-5.06648
 20
-0.84388
 30
0.0
 10
-5.06648
 20
-0.84388
 30
0.0
 10
-5.06648
 20
-0.84388
 30
0.0
 10
-5.06648
 20
-0.84388
 30
0.0
 10
-5.34133
 20
-0.87516
 30
0.0
 10
-5.34133
 20
-0.87516
 30
0.0
 10
-5.34133
 20
-0.87516
 30
0.0
 10
-5.32781
 20
-1.04342
 30
0.0
 10
-5.31997
 20
-1.20021
 30
0.0
 10
-5.31686
 20
-1.34747
 30
0.0
  0
SPLINE
  5
83
330
1F
100
AcDbEntity
  8
Layer 1
 62
    22
370
     5
100
AcDbSpline
210
0.0
220
0.0
230
1.0
 70
    11
 71
     3
 72
    60
 73
    56
 74
     0
 42
0.0000000001
 43
0.0000000001
 40
0.0
 40
0.0
 40
0.0
 40
0.0
 40
0.0714285714285714
 40
0.0714285714285714
 40
0.0714285714285714
 40
0.0714285714285714
 40
0.1428571428571428
 40
0.1428571428571428
 40
0.1428571428571428
 40
0.1428571428571428
 40
0.2142857142857143
 40
0.2142857142857143
 40
0.2142857142857143
 40
0.2142857142857143
 40
0.2857142857142857
 40
0.2857142857142857
 40
0.2857142857142857
 40
0.2857142857142857
 40
0.3571428571428571
 40
0.3571428571428571
 40
0.3571428571428571
 40
0.3571428571428571
 40
0.4285714285714285
 40
0.4285714285714285
 40
0.4285714285714285
 40
0.4285714285714285
 40
0.4999999999999999
 40
0.4999999999999999
 40
0.4999999999999999
 40
0.4999999999999999
 40
0.5714285714285713
 40
0.5714285714285713
 40
0.5714285714285713
 40
0.5714285714285713
 40
0.6428571428571427
 40
0.6428571428571427
 40
0.6428571428571427
 40
0.6428571428571427
 40
0.7142857142857141
 40
0.7142857142857141
 40
0.7142857142857141
 40
0.7142857142857141
 40
0.7857142857142855
 40
0.7857142857142855
 40
0.7857142857142855
 40
0.7857142857142855
 40
0.8571428571428569
 40
0.8571428571428569
 40
0.8571428571428569
 40
0.8571428571428569
 40
0.9285714285714283
 40
0.9285714285714283
 40
0.9285714285714283
 40
0.9285714285714283
 40
1.0
 40
1.0
 40
1.0
 40
1.0
 10
-3.20684
 20
1.53209
 30
0.0
 10
-3.18557
 20
1.56617
 30
0.0
 10
-3.14994
 20
1.59501
 30
0.0
 10
-3.09992
 20
1.61861
 30
0.0
 10
-3.09992
 20
1.61861
 30
0.0
 10
-3.04765
 20
1.62544
 30
0.0
 10
-3.02152
 20
1.61527
 30
0.0
 10
-3.02153
 20
1.58807
 30
0.0
 10
-3.02153
 20
1.58807
 30
0.0
 10
-3.02153
 20
1.58807
 30
0.0
 10
-2.9709
 20
1.24397
 30
0.0
 10
-2.9709
 20
1.24397
 30
0.0
 10
-2.9709
 20
1.24397
 30
0.0
 10
-2.9709
 20
1.24397
 30
0.0
 10
-2.88703
 20
1.24922
 30
0.0
 10
-2.88703
 20
1.24922
 30
0.0
 10
-2.88703
 20
1.24922
 30
0.0
 10
-2.88703
 20
1.24922
 30
0.0
 10
-2.93915
 20
1.63402
 30
0.0
 10
-2.93915
 20
1.63402
 30
0.0
 10
-2.93915
 20
1.63402
 30
0.0
 10
-2.81421
 20
1.63719
 30
0.0
 10
-2.72957
 20
1.61375
 30
0.0
 10
-2.71963
 20
1.54093
 30
0.0
 10
-2.71963
 20
1.54093
 30
0.0
 10
-2.68797
 20
1.40127
 30
0.0
 10
-2.62761
 20
1.30331
 30
0.0
 10
-2.54364
 20
1.23957
 30
0.0
 10
-2.54364
 20
1.23957
 30
0.0
 10
-2.38783
 20
1.14342
 30
0.0
 10
-2.35909
 20
1.03728
 30
0.0
 10
-2.46989
 20
0.92015
 30
0.0
 10
-2.46989
 20
0.92015
 30
0.0
 10
-2.59147
 20
0.74942
 30
0.0
 10
-2.76702
 20
0.6264
 30
0.0
 10
-2.97746
 20
0.53424
 30
0.0
 10
-2.97746
 20
0.53424
 30
0.0
 10
-3.1338
 20
0.4814
 30
0.0
 10
-3.21785
 20
0.51047
 30
0.0
 10
-3.21468
 20
0.63834
 30
0.0
 10
-3.21468
 20
0.63834
 30
0.0
 10
-3.21516
 20
0.66323
 30
0.0
 10
-3.17512
 20
0.74966
 30
0.0
 10
-3.09456
 20
0.89763
 30
0.0
 10
-3.09456
 20
0.89763
 30
0.0
 10
-3.06934
 20
0.94706
 30
0.0
 10
-3.05822
 20
1.00872
 30
0.0
 10
-3.07218
 20
1.09217
 30
0.0
 10
-3.07218
 20
1.09217
 30
0.0
 10
-3.10889
 20
1.20609
 30
0.0
 10
-3.15557
 20
1.31701
 30
0.0
 10
-3.21838
 20
1.42305
 30
0.0
 10
-3.21838
 20
1.42305
 30
0.0
 10
-3.2317
 20
1.4569
 30
0.0
 10
-3.228
 20
1.49326
 30
0.0
 10
-3.20684
 20
1.53209
 30
0.0
  0
SPLINE
  5
84
330
1F
100
AcDbEntity
  8
Layer 1
 62
    22
370
     5
100
AcDbSpline
210
0.0
220
0.0
230
1.0
 70
    11
 71
     3
 72
   204
 73
   200
 74
     0
 42
0.0000000001
 43
0.0000000001
 40
0.0
 40
0.0
 40
0.0
 40
0.0
 40
0.02
 40
0.02
 40
0.02
 40
0.02
 40
0.04
 40
0.04
 40
0.04
 40
0.04
 40
0.06
 40
0.06
 40
0.06
 40
0.06
 40
0.08
 40
0.08
 40
0.08
 40
0.08
 40
0.1
 40
0.1
 40
0.1
 40
0.1
 40
0.12
 40
0.12
 40
0.12
 40
0.12
 40
0.14
 40
0.14
 40
0.14
 40
0.14
 40
0.16
 40
0.16
 40
0.16
 40
0.16
 40
0.18
 40
0.18
 40
0.18
 40
0.18
 40
0.2
 40
0.2
 40
0.2
 40
0.2
 40
0.22
 40
0.22
 40
0.22
 40
0.22
 40
0.24
 40
0.24
 40
0.24
 40
0.24
 40
0.26
 40
0.26
 40
0.26
 40
0.26
 40
0.28
 40
0.28
 40
0.28
 40
0.28
 40
0.3
 40
0.3
 40
0.3
 40
0.3
 40
0.32
 40
0.32
 40
0.32
 40
0.32
 40
0.34
 40
0.34
 40
0.34
 40
0.34
 40
0.36
 40
0.36
 40
0.36
 40
0.36
 40
0.3800000000000001
 40
0.3800000000000001
 40
0.3800000000000001
 40
0.3800000000000001
 40
0.4000000000000001
 40
0.4000000000000001
 40
0.4000000000000001
 40
0.4000000000000001
 40
0.4200000000000001
 40
0.4200000000000001
 40
0.4200000000000001
 40
0.4200000000000001
 40
0.4400000000000001
 40
0.4400000000000001
 40
0.4400000000000001
 40
0.4400000000000001
 40
0.4600000000000001
 40
0.4600000000000001
 40
0.4600000000000001
 40
0.4600000000000001
 40
0.4800000000000001
 40
0.4800000000000001
 40
0.4800000000000001
 40
0.4800000000000001
 40
0.5000000000000001
 40
0.5000000000000001
 40
0.5000000000000001
 40
0.5000000000000001
 40
0.5200000000000001
 40
0.5200000000000001
 40
0.5200000000000001
 40
0.5200000000000001
 40
0.5400000000000001
 40
0.5400000000000001
 40
0.5400000000000001
 40
0.5400000000000001
 40
0.5600000000000002
 40
0.5600000000000002
 40
0.5600000000000002
 40
0.5600000000000002
 40
0.5800000000000002
 40
0.5800000000000002
 40
0.5800000000000002
 40
0.5800000000000002
 40
0.6000000000000002
 40
0.6000000000000002
 40
0.6000000000000002
 40
0.6000000000000002
 40
0.6200000000000002
 40
0.6200000000000002
 40
0.6200000000000002
 40
0.6200000000000002
 40
0.6400000000000002
 40
0.6400000000000002
 40
0.6400000000000002
 40
0.6400000000000002
 40
0.6600000000000003
 40
0.6600000000000003
 40
0.6600000000000003
 40
0.6600000000000003
 40
0.6800000000000003
 40
0.6800000000000003
 40
0.6800000000000003
 40
0.6800000000000003
 40
0.7000000000000003
 40
0.7000000000000003
 40
0.7000000000000003
 40
0.7000000000000003
 40
0.7200000000000003
 40
0.7200000000000003
 40
0.7200000000000003
 40
0.7200000000000003
 40
0.7400000000000003
 40
0.7400000000000003
 40
0.7400000000000003
 40
0.7400000000000003
 40
0.7600000000000003
 40
0.7600000000000003
 40
0.7600000000000003
 40
0.7600000000000003
 40
0.7800000000000004
 40
0.7800000000000004
 40
0.7800000000000004
 40
0.7800000000000004
 40
0.8000000000000004
 40
0.8000000000000004
 40
0.8000000000000004
 40
0.8000000000000004
 40
0.8200000000000004
 40
0.8200000000000004
 40
0.8200000000000004
 40
0.8200000000000004
 40
0.8400000000000004
 40
0.8400000000000004
 40
0.8400000000000004
 40
0.8400000000000004
 40
0.8600000000000004
 40
0.8600000000000004
 40
0.8600000000000004
 40
0.8600000000000004
 40
0.8800000000000004
 40
0.8800000000000004
 40
0.8800000000000004
 40
0.8800000000000004
 40
0.9000000000000005
 40
0.9000000000000005
 40
0.9000000000000005
 40
0.9000000000000005
 40
0.9200000000000005
 40
0.9200000000000005
 40
0.9200000000000005
 40
0.9200000000000005
 40
0.9400000000000005
 40
0.9400000000000005
 40
0.9400000000000005
 40
0.9400000000000005
 40
0.9600000000000005
 40
0.9600000000000005
 40
0.9600000000000005
 40
0.9600000000000005
 40
0.9800000000000005
 40
0.9800000000000005
 40
0.9800000000000005
 40
0.9800000000000005
 40
1.0
 40
1.0
 40
1.0
 40
1.0
 10
3.23604
 20
-4.71374
 30
0.0
 10
3.23604
 20
-4.71374
 30
0.0
 10
3.07611
 20
-4.97669
 30
0.0
 10
3.07611
 20
-4.97669
 30
0.0
 10
3.07611
 20
-4.97669
 30
0.0
 10
2.7701
 20
-4.7631
 30
0.0
 10
2.53404
 20
-4.61536
 30
0.0
 10
2.45182
 20
-4.61258
 30
0.0
 10
2.45182
 20
-4.61258
 30
0.0
 10
2.27639
 20
-4.6849
 30
0.0
 10
2.10963
 20
-4.74523
 30
0.0
 10
1.96191
 20
-4.77921
 30
0.0
 10
1.96191
 20
-4.77921
 30
0.0
 10
1.83021
 20
-4.82492
 30
0.0
 10
1.74638
 20
-4.89774
 30
0.0
 10
1.71039
 20
-4.99763
 30
0.0
 10
1.71039
 20
-4.99763
 30
0.0
 10
1.74861
 20
-5.1238
 30
0.0
 10
1.76177
 20
-5.23577
 30
0.0
 10
1.74982
 20
-5.33357
 30
0.0
 10
1.74982
 20
-5.33357
 30
0.0
 10
1.73194
 20
-5.45356
 30
0.0
 10
1.6513
 20
-5.49297
 30
0.0
 10
1.50789
 20
-5.45181
 30
0.0
 10
1.50789
 20
-5.45181
 30
0.0
 10
1.50789
 20
-5.45181
 30
0.0
 10
1.53203
 20
-5.07103
 30
0.0
 10
1.53203
 20
-5.07103
 30
0.0
 10
1.53203
 20
-5.07103
 30
0.0
 10
1.53203
 20
-5.07103
 30
0.0
 10
1.451
 20
-5.05857
 30
0.0
 10
1.451
 20
-5.05857
 30
0.0
 10
1.451
 20
-5.05857
 30
0.0
 10
1.451
 20
-5.05857
 30
0.0
 10
1.42828
 20
-5.44914
 30
0.0
 10
1.42828
 20
-5.44914
 30
0.0
 10
1.42828
 20
-5.44914
 30
0.0
 10
1.30674
 20
-5.45896
 30
0.0
 10
1.23139
 20
-5.41382
 30
0.0
 10
1.20218
 20
-5.31373
 30
0.0
 10
1.20218
 20
-5.31373
 30
0.0
 10
1.30635
 20
-4.99647
 30
0.0
 10
1.27106
 20
-4.84998
 30
0.0
 10
1.12019
 20
-4.845
 30
0.0
 10
1.12019
 20
-4.845
 30
0.0
 10
0.97615
 20
-4.84253
 30
0.0
 10
0.84357
 20
-4.79069
 30
0.0
 10
0.72048
 20
-4.69797
 30
0.0
 10
0.72048
 20
-4.69797
 30
0.0
 10
0.65769
 20
-4.62287
 30
0.0
 10
0.58901
 20
-4.60868
 30
0.0
 10
0.51629
 20
-4.63615
 30
0.0
 10
0.51629
 20
-4.63615
 30
0.0
 10
0.51629
 20
-4.63615
 30
0.0
 10
-0.28121
 20
-4.83478
 30
0.0
 10
-0.28121
 20
-4.83478
 30
0.0
 10
-0.28121
 20
-4.83478
 30
0.0
 10
-0.86366
 20
-4.87786
 30
0.0
 10
-0.90519
 20
-4.65933
 30
0.0
 10
-0.99706
 20
-4.31187
 30
0.0
 10
-0.99706
 20
-4.31187
 30
0.0
 10
-1.07412
 20
-4.00058
 30
0.0
 10
-1.16778
 20
-3.71191
 30
0.0
 10
-1.32972
 20
-3.51646
 30
0.0
 10
-1.32972
 20
-3.51646
 30
0.0
 10
-1.4596
 20
-3.33323
 30
0.0
 10
-1.68842
 20
-3.27239
 30
0.0
 10
-2.03668
 20
-3.35927
 30
0.0
 10
-2.03668
 20
-3.35927
 30
0.0
 10
-2.09739
 20
-3.37696
 30
0.0
 10
-2.13732
 20
-3.41258
 30
0.0
 10
-2.1099
 20
-3.50632
 30
0.0
 10
-2.1099
 20
-3.50632
 30
0.0
 10
-2.09188
 20
-3.63161
 30
0.0
 10
-2.11936
 20
-3.73299
 30
0.0
 10
-2.24702
 20
-3.78168
 30
0.0
 10
-2.24702
 20
-3.78168
 30
0.0
 10
-2.39927
 20
-3.84345
 30
0.0
 10
-2.43106
 20
-3.92207
 30
0.0
 10
-2.36304
 20
-4.01464
 30
0.0
 10
-2.36304
 20
-4.01464
 30
0.0
 10
-2.32483
 20
-4.07909
 30
0.0
 10
-2.33687
 20
-4.10328
 30
0.0
 10
-2.39918
 20
-4.0872
 30
0.0
 10
-2.39918
 20
-4.0872
 30
0.0
 10
-2.51473
 20
-4.07792
 30
0.0
 10
-2.58615
 20
-3.92892
 30
0.0
 10
-2.64547
 20
-3.74153
 30
0.0
 10
-2.64547
 20
-3.74153
 30
0.0
 10
-2.64547
 20
-3.74153
 30
0.0
 10
-2.74254
 20
-3.71373
 30
0.0
 10
-2.74254
 20
-3.71373
 30
0.0
 10
-2.74254
 20
-3.71373
 30
0.0
 10
-2.74254
 20
-3.71373
 30
0.0
 10
-2.65686
 20
-3.48223
 30
0.0
 10
-2.65686
 20
-3.48223
 30
0.0
 10
-2.65686
 20
-3.48223
 30
0.0
 10
-2.78414
 20
-3.34447
 30
0.0
 10
-2.43886
 20
-3.2126
 30
0.0
 10
-2.29619
 20
-3.2801
 30
0.0
 10
-2.29619
 20
-3.2801
 30
0.0
 10
-2.29619
 20
-3.2801
 30
0.0
 10
-1.99976
 20
-3.13452
 30
0.0
 10
-1.99976
 20
-3.13452
 30
0.0
 10
-1.99976
 20
-3.13452
 30
0.0
 10
-1.62093
 20
-3.03204
 30
0.0
 10
-1.25721
 20
-3.16523
 30
0.0
 10
-1.05972
 20
-3.45171
 30
0.0
 10
-1.05972
 20
-3.45171
 30
0.0
 10
-0.89808
 20
-3.73415
 30
0.0
 10
-0.7849
 20
-4.07973
 30
0.0
 10
-0.6679
 20
-4.42032
 30
0.0
 10
-0.6679
 20
-4.42032
 30
0.0
 10
-0.61168
 20
-4.51434
 30
0.0
 10
-0.52217
 20
-4.48326
 30
0.0
 10
-0.42739
 20
-4.48577
 30
0.0
 10
-0.42739
 20
-4.48577
 30
0.0
 10
-0.42739
 20
-4.48577
 30
0.0
 10
0.06234
 20
-4.43181
 30
0.0
 10
0.06234
 20
-4.43181
 30
0.0
 10
0.06234
 20
-4.43181
 30
0.0
 10
0.06234
 20
-4.43181
 30
0.0
 10
0.3973
 20
-4.3259
 30
0.0
 10
0.3973
 20
-4.3259
 30
0.0
 10
0.3973
 20
-4.3259
 30
0.0
 10
0.3973
 20
-4.3259
 30
0.0
 10
0.3108
 20
-4.24854
 30
0.0
 10
0.3108
 20
-4.24854
 30
0.0
 10
0.3108
 20
-4.24854
 30
0.0
 10
0.3108
 20
-4.24854
 30
0.0
 10
0.50427
 20
-4.10447
 30
0.0
 10
0.50427
 20
-4.10447
 30
0.0
 10
0.50427
 20
-4.10447
 30
0.0
 10
0.50427
 20
-4.10447
 30
0.0
 10
0.70066
 20
-4.18788
 30
0.0
 10
0.70066
 20
-4.18788
 30
0.0
 10
0.70066
 20
-4.18788
 30
0.0
 10
0.70066
 20
-4.18788
 30
0.0
 10
0.8669
 20
-4.34503
 30
0.0
 10
0.8669
 20
-4.34503
 30
0.0
 10
0.8669
 20
-4.34503
 30
0.0
 10
0.8669
 20
-4.34503
 30
0.0
 10
0.84177
 20
-4.42622
 30
0.0
 10
0.84177
 20
-4.42622
 30
0.0
 10
0.84177
 20
-4.42622
 30
0.0
 10
0.84177
 20
-4.42622
 30
0.0
 10
1.03623
 20
-4.50998
 30
0.0
 10
1.03623
 20
-4.50998
 30
0.0
 10
1.03623
 20
-4.50998
 30
0.0
 10
1.05789
 20
-4.52786
 30
0.0
 10
1.08271
 20
-4.5295
 30
0.0
 10
1.11069
 20
-4.5149
 30
0.0
 10
1.11069
 20
-4.5149
 30
0.0
 10
1.24281
 20
-4.47634
 30
0.0
 10
1.34333
 20
-4.48298
 30
0.0
 10
1.41221
 20
-4.53482
 30
0.0
 10
1.41221
 20
-4.53482
 30
0.0
 10
1.43963
 20
-4.55135
 30
0.0
 10
1.45593
 20
-4.59423
 30
0.0
 10
1.50791
 20
-4.58859
 30
0.0
 10
1.50791
 20
-4.58859
 30
0.0
 10
1.61358
 20
-4.58386
 30
0.0
 10
1.73265
 20
-4.56177
 30
0.0
 10
1.86088
 20
-4.52779
 30
0.0
 10
1.86088
 20
-4.52779
 30
0.0
 10
1.86088
 20
-4.52779
 30
0.0
 10
1.89258
 20
-4.42794
 30
0.0
 10
1.89258
 20
-4.42794
 30
0.0
 10
1.89258
 20
-4.42794
 30
0.0
 10
1.89258
 20
-4.42794
 30
0.0
 10
2.23509
 20
-4.31084
 30
0.0
 10
2.23509
 20
-4.31084
 30
0.0
 10
2.23509
 20
-4.31084
 30
0.0
 10
2.24945
 20
-4.29322
 30
0.0
 10
2.30287
 20
-4.29168
 30
0.0
 10
2.3953
 20
-4.30624
 30
0.0
 10
2.3953
 20
-4.30624
 30
0.0
 10
2.3953
 20
-4.30624
 30
0.0
 10
2.53226
 20
-4.27429
 30
0.0
 10
2.53226
 20
-4.27429
 30
0.0
 10
2.53226
 20
-4.27429
 30
0.0
 10
2.5992
 20
-4.30084
 30
0.0
 10
2.66229
 20
-4.33419
 30
0.0
 10
2.72145
 20
-4.37439
 30
0.0
 10
2.72145
 20
-4.37439
 30
0.0
 10
2.72145
 20
-4.37439
 30
0.0
 10
2.75741
 20
-4.32645
 30
0.0
 10
2.75741
 20
-4.32645
 30
0.0
 10
2.75741
 20
-4.32645
 30
0.0
 10
2.75741
 20
-4.32645
 30
0.0
 10
3.10028
 20
-4.53619
 30
0.0
 10
3.10028
 20
-4.53619
 30
0.0
 10
3.10028
 20
-4.53619
 30
0.0
 10
3.11117
 20
-4.56373
 30
0.0
 10
3.11878
 20
-4.59639
 30
0.0
 10
3.11018
 20
-4.637
 30
0.0
 10
3.11018
 20
-4.637
 30
0.0
 10
3.11018
 20
-4.637
 30
0.0
 10
3.23604
 20
-4.71374
 30
0.0
 10
3.23604
 20
-4.71374
 30
0.0
  0
SPLINE
  5
85
330
1F
100
AcDbEntity
  8
Layer 1
 62
    22
370
     5
100
AcDbSpline
210
0.0
220
0.0
230
1.0
 70
    11
 71
     3
 72
   104
 73
   100
 74
     0
 42
0.0000000001
 43
0.0000000001
 40
0.0
 40
0.0
 40
0.0
 40
0.0
 40
0.04
 40
0.04
 40
0.04
 40
0.04
 40
0.08
 40
0.08
 40
0.08
 40
0.08
 40
0.12
 40
0.12
 40
0.12
 40
0.12
 40
0.16
 40
0.16
 40
0.16
 40
0.16
 40
0.2
 40
0.2
 40
0.2
 40
0.2
 40
0.24
 40
0.24
 40
0.24
 40
0.24
 40
0.28
 40
0.28
 40
0.28
 40
0.28
 40
0.32
 40
0.32
 40
0.32
 40
0.32
 40
0.36
 40
0.36
 40
0.36
 40
0.36
 40
0.4
 40
0.4
 40
0.4
 40
0.4
 40
0.4399999999999999
 40
0.4399999999999999
 40
0.4399999999999999
 40
0.4399999999999999
 40
0.4799999999999999
 40
0.4799999999999999
 40
0.4799999999999999
 40
0.4799999999999999
 40
0.5199999999999999
 40
0.5199999999999999
 40
0.5199999999999999
 40
0.5199999999999999
 40
0.5599999999999999
 40
0.5599999999999999
 40
0.5599999999999999
 40
0.5599999999999999
 40
0.6
 40
0.6
 40
0.6
 40
0.6
 40
0.64
 40
0.64
 40
0.64
 40
0.64
 40
0.68
 40
0.68
 40
0.68
 40
0.68
 40
0.7200000000000001
 40
0.7200000000000001
 40
0.7200000000000001
 40
0.7200000000000001
 40
0.7600000000000001
 40
0.7600000000000001
 40
0.7600000000000001
 40
0.7600000000000001
 40
0.8000000000000002
 40
0.8000000000000002
 40
0.8000000000000002
 40
0.8000000000000002
 40
0.8400000000000002
 40
0.8400000000000002
 40
0.8400000000000002
 40
0.8400000000000002
 40
0.8800000000000002
 40
0.8800000000000002
 40
0.8800000000000002
 40
0.8800000000000002
 40
0.9200000000000003
 40
0.9200000000000003
 40
0.9200000000000003
 40
0.9200000000000003
 40
0.9600000000000003
 40
0.9600000000000003
 40
0.9600000000000003
 40
0.9600000000000003
 40
1.0
 40
1.0
 40
1.0
 40
1.0
 10
-2.68411
 20
-0.05519
 30
0.0
 10
-2.94747
 20
-0.05327
 30
0.0
 10
-3.15338
 20
-0.13633
 30
0.0
 10
-3.30696
 20
-0.2968
 30
0.0
 10
-3.30696
 20
-0.2968
 30
0.0
 10
-3.39587
 20
-0.3904
 30
0.0
 10
-3.47694
 20
-0.51804
 30
0.0
 10
-3.55019
 20
-0.67979
 30
0.0
 10
-3.55019
 20
-0.67979
 30
0.0
 10
-3.65045
 20
-0.86728
 30
0.0
 10
-3.65138
 20
-1.11075
 30
0.0
 10
-3.58437
 20
-1.39254
 30
0.0
 10
-3.58437
 20
-1.39254
 30
0.0
 10
-3.47192
 20
-1.7273
 30
0.0
 10
-3.29983
 20
-2.09792
 30
0.0
 10
-3.0828
 20
-2.49556
 30
0.0
 10
-3.0828
 20
-2.49556
 30
0.0
 10
-3.03123
 20
-2.57368
 30
0.0
 10
-3.0267
 20
-2.6518
 30
0.0
 10
-3.06925
 20
-2.72992
 30
0.0
 10
-3.06925
 20
-2.72992
 30
0.0
 10
-3.06925
 20
-2.72992
 30
0.0
 10
-3.23817
 20
-3.01394
 30
0.0
 10
-3.23817
 20
-3.01394
 30
0.0
 10
-3.23817
 20
-3.01394
 30
0.0
 10
-3.31349
 20
-3.12278
 30
0.0
 10
-3.38882
 20
-3.12161
 30
0.0
 10
-3.46417
 20
-3.01047
 30
0.0
 10
-3.46417
 20
-3.01047
 30
0.0
 10
-3.48176
 20
-2.874
 30
0.0
 10
-3.55884
 20
-2.80139
 30
0.0
 10
-3.72286
 20
-2.8221
 30
0.0
 10
-3.72286
 20
-2.8221
 30
0.0
 10
-3.88942
 20
-2.8457
 30
0.0
 10
-3.96711
 20
-2.90598
 30
0.0
 10
-3.95594
 20
-3.00293
 30
0.0
 10
-3.95594
 20
-3.00293
 30
0.0
 10
-3.95594
 20
-3.00293
 30
0.0
 10
-3.87379
 20
-2.99984
 30
0.0
 10
-3.87379
 20
-2.99984
 30
0.0
 10
-3.87379
 20
-2.99984
 30
0.0
 10
-3.84583
 20
-3.00453
 30
0.0
 10
-3.83958
 20
-3.0186
 30
0.0
 10
-3.84822
 20
-3.04819
 30
0.0
 10
-3.84822
 20
-3.04819
 30
0.0
 10
-3.86242
 20
-3.06952
 30
0.0
 10
-3.85865
 20
-3.11607
 30
0.0
 10
-3.84671
 20
-3.17411
 30
0.0
 10
-3.84671
 20
-3.17411
 30
0.0
 10
-3.80801
 20
-3.28689
 30
0.0
 10
-3.73271
 20
-3.4049
 30
0.0
 10
-3.62081
 20
-3.52818
 30
0.0
 10
-3.62081
 20
-3.52818
 30
0.0
 10
-3.58728
 20
-3.5156
 30
0.0
 10
-3.55375
 20
-3.51612
 30
0.0
 10
-3.52024
 20
-3.52976
 30
0.0
 10
-3.52024
 20
-3.52976
 30
0.0
 10
-3.52024
 20
-3.52976
 30
0.0
 10
-3.34103
 20
-3.60645
 30
0.0
 10
-3.34103
 20
-3.60645
 30
0.0
 10
-3.34103
 20
-3.60645
 30
0.0
 10
-3.30241
 20
-3.62451
 30
0.0
 10
-3.25986
 20
-3.6216
 30
0.0
 10
-3.21342
 20
-3.59776
 30
0.0
 10
-3.21342
 20
-3.59776
 30
0.0
 10
-3.16382
 20
-3.56681
 30
0.0
 10
-3.1791
 20
-3.58457
 30
0.0
 10
-3.13477
 20
-3.52485
 30
0.0
 10
-3.13477
 20
-3.52485
 30
0.0
 10
-3.13477
 20
-3.52485
 30
0.0
 10
-2.83164
 20
-3.15994
 30
0.0
 10
-2.83164
 20
-3.15994
 30
0.0
 10
-2.83164
 20
-3.15994
 30
0.0
 10
-2.83164
 20
-3.15994
 30
0.0
 10
-2.47972
 20
-2.71039
 30
0.0
 10
-2.47972
 20
-2.71039
 30
0.0
 10
-2.47972
 20
-2.71039
 30
0.0
 10
-2.42787
 20
-2.62364
 30
0.0
 10
-2.41524
 20
-2.5418
 30
0.0
 10
-2.4889
 20
-2.47082
 30
0.0
 10
-2.4889
 20
-2.47082
 30
0.0
 10
-2.56031
 20
-2.42431
 30
0.0
 10
-2.59773
 20
-2.34636
 30
0.0
 10
-2.6012
 20
-2.237
 30
0.0
 10
-2.6012
 20
-2.237
 30
0.0
 10
-2.62655
 20
-1.81935
 30
0.0
 10
-2.59901
 20
-1.6175
 30
0.0
 10
-2.40613
 20
-1.38911
 30
0.0
 10
-2.40613
 20
-1.38911
 30
0.0
 10
-2.32078
 20
-1.26046
 30
0.0
 10
-2.25125
 20
-1.13325
 30
0.0
 10
-2.21002
 20
-1.00866
 30
0.0
 10
-2.21002
 20
-1.00866
 30
0.0
 10
-2.16013
 20
-0.86283
 30
0.0
 10
-2.14579
 20
-0.69801
 30
0.0
 10
-2.17435
 20
-0.51031
 30
0.0
 10
-2.17435
 20
-0.51031
 30
0.0
 10
-2.23154
 20
-0.22894
 30
0.0
 10
-2.50536
 20
-0.05368
 30
0.0
 10
-2.68411
 20
-0.05519
 30
0.0
  0
SPLINE
  5
86
330
1F
100
AcDbEntity
  8
Layer 1
 62
    22
370
     5
100
AcDbSpline
210
0.0
220
0.0
230
1.0
 70
    11
 71
     3
 72
    20
 73
    16
 74
     0
 42
0.0000000001
 43
0.0000000001
 40
0.0
 40
0.0
 40
0.0
 40
0.0
 40
0.25
 40
0.25
 40
0.25
 40
0.25
 40
0.5
 40
0.5
 40
0.5
 40
0.5
 40
0.75
 40
0.75
 40
0.75
 40
0.75
 40
1.0
 40
1.0
 40
1.0
 40
1.0
 10
-3.03082
 20
-1.16446
 30
0.0
 10
-3.03082
 20
-1.16446
 30
0.0
 10
-2.94455
 20
-1.20964
 30
0.0
 10
-2.94455
 20
-1.20964
 30
0.0
 10
-2.94455
 20
-1.20964
 30
0.0
 10
-2.94455
 20
-1.20964
 30
0.0
 10
-2.67006
 20
-0.49268
 30
0.0
 10
-2.67006
 20
-0.49268
 30
0.0
 10
-2.67006
 20
-0.49268
 30
0.0
 10
-2.67006
 20
-0.49268
 30
0.0
 10
-2.76221
 20
-0.44946
 30
0.0
 10
-2.76221
 20
-0.44946
 30
0.0
 10
-2.76221
 20
-0.44946
 30
0.0
 10
-2.76221
 20
-0.44946
 30
0.0
 10
-3.03082
 20
-1.16446
 30
0.0
 10
-3.03082
 20
-1.16446
 30
0.0
  0
SPLINE
  5
87
330
1F
100
AcDbEntity
  8
Layer 1
 62
    22
370
     5
100
AcDbSpline
210
0.0
220
0.0
230
1.0
 70
    11
 71
     3
 72
    48
 73
    44
 74
     0
 42
0.0000000001
 43
0.0000000001
 40
0.0
 40
0.0
 40
0.0
 40
0.0
 40
0.0909090909090909
 40
0.0909090909090909
 40
0.0909090909090909
 40
0.0909090909090909
 40
0.1818181818181818
 40
0.1818181818181818
 40
0.1818181818181818
 40
0.1818181818181818
 40
0.2727272727272727
 40
0.2727272727272727
 40
0.2727272727272727
 40
0.2727272727272727
 40
0.3636363636363636
 40
0.3636363636363636
 40
0.3636363636363636
 40
0.3636363636363636
 40
0.4545454545454546
 40
0.4545454545454546
 40
0.4545454545454546
 40
0.4545454545454546
 40
0.5454545454545455
 40
0.5454545454545455
 40
0.5454545454545455
 40
0.5454545454545455
 40
0.6363636363636365
 40
0.6363636363636365
 40
0.6363636363636365
 40
0.6363636363636365
 40
0.7272727272727274
 40
0.7272727272727274
 40
0.7272727272727274
 40
0.7272727272727274
 40
0.8181818181818183
 40
0.8181818181818183
 40
0.8181818181818183
 40
0.8181818181818183
 40
0.9090909090909093
 40
0.9090909090909093
 40
0.9090909090909093
 40
0.9090909090909093
 40
1.0
 40
1.0
 40
1.0
 40
1.0
 10
-4.02013
 20
-2.08191
 30
0.0
 10
-4.03711
 20
-2.27407
 30
0.0
 10
-4.11946
 20
-2.351
 30
0.0
 10
-4.26719
 20
-2.31266
 30
0.0
 10
-4.26719
 20
-2.31266
 30
0.0
 10
-4.58151
 20
-2.25306
 30
0.0
 10
-4.84578
 20
-2.2476
 30
0.0
 10
-5.0294
 20
-2.32941
 30
0.0
 10
-5.0294
 20
-2.32941
 30
0.0
 10
-5.18787
 20
-2.37789
 30
0.0
 10
-5.24081
 20
-2.28951
 30
0.0
 10
-5.22154
 20
-2.10748
 30
0.0
 10
-5.22154
 20
-2.10748
 30
0.0
 10
-5.19033
 20
-1.95459
 30
0.0
 10
-5.13625
 20
-1.81478
 30
0.0
 10
-5.03185
 20
-1.70377
 30
0.0
 10
-5.03185
 20
-1.70377
 30
0.0
 10
-4.94508
 20
-1.62657
 30
0.0
 10
-4.85521
 20
-1.64578
 30
0.0
 10
-4.76324
 20
-1.73093
 30
0.0
 10
-4.76324
 20
-1.73093
 30
0.0
 10
-4.64574
 20
-1.81161
 30
0.0
 10
-4.48577
 20
-1.83696
 30
0.0
 10
-4.26373
 20
-1.78141
 30
0.0
 10
-4.26373
 20
-1.78141
 30
0.0
 10
-4.13939
 20
-1.77421
 30
0.0
 10
-4.05426
 20
-1.7932
 30
0.0
 10
-4.00836
 20
-1.83836
 30
0.0
 10
-4.00836
 20
-1.83836
 30
0.0
 10
-4.00836
 20
-1.83836
 30
0.0
 10
-4.00829
 20
-1.985
 30
0.0
 10
-4.00829
 20
-1.985
 30
0.0
 10
-4.00829
 20
-1.985
 30
0.0
 10
-4.00829
 20
-1.985
 30
0.0
 10
-4.43168
 20
-1.98518
 30
0.0
 10
-4.43168
 20
-1.98518
 30
0.0
 10
-4.43168
 20
-1.98518
 30
0.0
 10
-4.43168
 20
-1.98518
 30
0.0
 10
-4.42768
 20
-2.06525
 30
0.0
 10
-4.42768
 20
-2.06525
 30
0.0
 10
-4.42768
 20
-2.06525
 30
0.0
 10
-4.42768
 20
-2.06525
 30
0.0
 10
-4.02013
 20
-2.08191
 30
0.0
 10
-4.02013
 20
-2.08191
 30
0.0
  0
SPLINE
  5
88
330
1F
100
AcDbEntity
  8
Layer 1
 62
    22
370
     5
100
AcDbSpline
210
0.0
220
0.0
230
1.0
 70
    11
 71
     3
 72
    20
 73
    16
 74
     0
 42
0.0000000001
 43
0.0000000001
 40
0.0
 40
0.0
 40
0.0
 40
0.0
 40
0.25
 40
0.25
 40
0.25
 40
0.25
 40
0.5
 40
0.5
 40
0.5
 40
0.5
 40
0.75
 40
0.75
 40
0.75
 40
0.75
 40
1.0
 40
1.0
 40
1.0
 40
1.0
 10
-0.68192
 20
0.31075
 30
0.0
 10
-0.68192
 20
0.31075
 30
0.0
 10
0.10822
 20
0.10057
 30
0.0
 10
0.10822
 20
0.10057
 30
0.0
 10
0.10822
 20
0.10057
 30
0.0
 10
0.10822
 20
0.10057
 30
0.0
 10
0.13763
 20
0.20664
 30
0.0
 10
0.13763
 20
0.20664
 30
0.0
 10
0.13763
 20
0.20664
 30
0.0
 10
0.13763
 20
0.20664
 30
0.0
 10
-0.65839
 20
0.407
 30
0.0
 10
-0.65839
 20
0.407
 30
0.0
 10
-0.65839
 20
0.407
 30
0.0
 10
-0.65839
 20
0.407
 30
0.0
 10
-0.68192
 20
0.31075
 30
0.0
 10
-0.68192
 20
0.31075
 30
0.0
  0
SPLINE
  5
89
330
1F
100
AcDbEntity
  8
Layer 1
 62
    22
370
     5
100
AcDbSpline
210
0.0
220
0.0
230
1.0
 70
    11
 71
     3
 72
    20
 73
    16
 74
     0
 42
0.0000000001
 43
0.0000000001
 40
0.0
 40
0.0
 40
0.0
 40
0.0
 40
0.25
 40
0.25
 40
0.25
 40
0.25
 40
0.5
 40
0.5
 40
0.5
 40
0.5
 40
0.75
 40
0.75
 40
0.75
 40
0.75
 40
1.0
 40
1.0
 40
1.0
 40
1.0
 10
-1.14661
 20
-0.75193
 30
0.0
 10
-1.14661
 20
-0.75193
 30
0.0
 10
-0.31332
 20
-0.89728
 30
0.0
 10
-0.31332
 20
-0.89728
 30
0.0
 10
-0.31332
 20
-0.89728
 30
0.0
 10
-0.31332
 20
-0.89728
 30
0.0
 10
-0.29959
 20
-0.79121
 30
0.0
 10
-0.29959
 20
-0.79121
 30
0.0
 10
-0.29959
 20
-0.79121
 30
0.0
 10
-0.29959
 20
-0.79121
 30
0.0
 10
-1.13288
 20
-0.64781
 30
0.0
 10
-1.13288
 20
-0.64781
 30
0.0
 10
-1.13288
 20
-0.64781
 30
0.0
 10
-1.13288
 20
-0.64781
 30
0.0
 10
-1.14661
 20
-0.75193
 30
0.0
 10
-1.14661
 20
-0.75193
 30
0.0
  0
SPLINE
  5
8A
330
1F
100
AcDbEntity
  8
Layer 1
 62
    22
370
     5
100
AcDbSpline
210
0.0
220
0.0
230
1.0
 70
    11
 71
     3
 72
   120
 73
   116
 74
     0
 42
0.0000000001
 43
0.0000000001
 40
0.0
 40
0.0
 40
0.0
 40
0.0
 40
0.0344827586206897
 40
0.0344827586206897
 40
0.0344827586206897
 40
0.0344827586206897
 40
0.0689655172413793
 40
0.0689655172413793
 40
0.0689655172413793
 40
0.0689655172413793
 40
0.103448275862069
 40
0.103448275862069
 40
0.103448275862069
 40
0.103448275862069
 40
0.1379310344827586
 40
0.1379310344827586
 40
0.1379310344827586
 40
0.1379310344827586
 40
0.1724137931034483
 40
0.1724137931034483
 40
0.1724137931034483
 40
0.1724137931034483
 40
0.206896551724138
 40
0.206896551724138
 40
0.206896551724138
 40
0.206896551724138
 40
0.2413793103448276
 40
0.2413793103448276
 40
0.2413793103448276
 40
0.2413793103448276
 40
0.2758620689655173
 40
0.2758620689655173
 40
0.2758620689655173
 40
0.2758620689655173
 40
0.310344827586207
 40
0.310344827586207
 40
0.310344827586207
 40
0.310344827586207
 40
0.3448275862068966
 40
0.3448275862068966
 40
0.3448275862068966
 40
0.3448275862068966
 40
0.3793103448275863
 40
0.3793103448275863
 40
0.3793103448275863
 40
0.3793103448275863
 40
0.413793103448276
 40
0.413793103448276
 40
0.413793103448276
 40
0.413793103448276
 40
0.4482758620689656
 40
0.4482758620689656
 40
0.4482758620689656
 40
0.4482758620689656
 40
0.4827586206896553
 40
0.4827586206896553
 40
0.4827586206896553
 40
0.4827586206896553
 40
0.517241379310345
 40
0.517241379310345
 40
0.517241379310345
 40
0.517241379310345
 40
0.5517241379310346
 40
0.5517241379310346
 40
0.5517241379310346
 40
0.5517241379310346
 40
0.5862068965517242
 40
0.5862068965517242
 40
0.5862068965517242
 40
0.5862068965517242
 40
0.6206896551724138
 40
0.6206896551724138
 40
0.6206896551724138
 40
0.6206896551724138
 40
0.6551724137931034
 40
0.6551724137931034
 40
0.6551724137931034
 40
0.6551724137931034
 40
0.689655172413793
 40
0.689655172413793
 40
0.689655172413793
 40
0.689655172413793
 40
0.7241379310344827
 40
0.7241379310344827
 40
0.7241379310344827
 40
0.7241379310344827
 40
0.7586206896551723
 40
0.7586206896551723
 40
0.7586206896551723
 40
0.7586206896551723
 40
0.7931034482758619
 40
0.7931034482758619
 40
0.7931034482758619
 40
0.7931034482758619
 40
0.8275862068965515
 40
0.8275862068965515
 40
0.8275862068965515
 40
0.8275862068965515
 40
0.8620689655172411
 40
0.8620689655172411
 40
0.8620689655172411
 40
0.8620689655172411
 40
0.8965517241379307
 40
0.8965517241379307
 40
0.8965517241379307
 40
0.8965517241379307
 40
0.9310344827586203
 40
0.9310344827586203
 40
0.9310344827586203
 40
0.9310344827586203
 40
0.9655172413793099
 40
0.9655172413793099
 40
0.9655172413793099
 40
0.9655172413793099
 40
1.0
 40
1.0
 40
1.0
 40
1.0
 10
-1.11974
 20
1.55451
 30
0.0
 10
-1.11974
 20
1.55451
 30
0.0
 10
-0.60813
 20
1.47628
 30
0.0
 10
-0.60813
 20
1.47628
 30
0.0
 10
-0.60813
 20
1.47628
 30
0.0
 10
-0.60813
 20
1.47628
 30
0.0
 10
-0.59189
 20
1.55405
 30
0.0
 10
-0.59189
 20
1.55405
 30
0.0
 10
-0.59189
 20
1.55405
 30
0.0
 10
-0.59189
 20
1.55405
 30
0.0
 10
-0.70133
 20
1.60967
 30
0.0
 10
-0.70133
 20
1.60967
 30
0.0
 10
-0.70133
 20
1.60967
 30
0.0
 10
-0.70133
 20
1.60967
 30
0.0
 10
-0.62966
 20
1.94385
 30
0.0
 10
-0.62966
 20
1.94385
 30
0.0
 10
-0.62966
 20
1.94385
 30
0.0
 10
-0.57863
 20
2.15741
 30
0.0
 10
-0.28416
 20
2.13964
 30
0.0
 10
-0.17166
 20
1.95835
 30
0.0
 10
-0.17166
 20
1.95835
 30
0.0
 10
-0.15519
 20
1.80824
 30
0.0
 10
-0.16977
 20
1.62702
 30
0.0
 10
-0.20555
 20
1.4245
 30
0.0
 10
-0.20555
 20
1.4245
 30
0.0
 10
-0.20555
 20
1.4245
 30
0.0
 10
0.08544
 20
1.35398
 30
0.0
 10
0.08544
 20
1.35398
 30
0.0
 10
0.08544
 20
1.35398
 30
0.0
 10
0.20183
 20
0.7699
 30
0.0
 10
0.31022
 20
0.40036
 30
0.0
 10
0.40574
 20
0.37674
 30
0.0
 10
0.40574
 20
0.37674
 30
0.0
 10
0.52287
 20
0.30084
 30
0.0
 10
0.68328
 20
0.26471
 30
0.0
 10
0.63508
 20
0.10629
 30
0.0
 10
0.63508
 20
0.10629
 30
0.0
 10
0.63508
 20
0.10629
 30
0.0
 10
0.69539
 20
-0.12738
 30
0.0
 10
0.69539
 20
-0.12738
 30
0.0
 10
0.69539
 20
-0.12738
 30
0.0
 10
0.83424
 20
-0.22487
 30
0.0
 10
0.83745
 20
-0.28536
 30
0.0
 10
0.70442
 20
-0.38288
 30
0.0
 10
0.70442
 20
-0.38288
 30
0.0
 10
0.70442
 20
-0.38288
 30
0.0
 10
0.70229
 20
-0.52799
 30
0.0
 10
0.70229
 20
-0.52799
 30
0.0
 10
0.70229
 20
-0.52799
 30
0.0
 10
0.63455
 20
-0.60901
 30
0.0
 10
0.58112
 20
-0.67656
 30
0.0
 10
0.52387
 20
-0.71047
 30
0.0
 10
0.52387
 20
-0.71047
 30
0.0
 10
0.43049
 20
-0.77274
 30
0.0
 10
0.36585
 20
-0.88214
 30
0.0
 10
0.32998
 20
-1.03871
 30
0.0
 10
0.32998
 20
-1.03871
 30
0.0
 10
0.26428
 20
-1.19864
 30
0.0
 10
0.17507
 20
-1.30881
 30
0.0
 10
0.06236
 20
-1.36924
 30
0.0
 10
0.06236
 20
-1.36924
 30
0.0
 10
-0.132
 20
-1.46984
 30
0.0
 10
-0.29338
 20
-1.56912
 30
0.0
 10
-0.42175
 20
-1.66715
 30
0.0
 10
-0.42175
 20
-1.66715
 30
0.0
 10
-0.47899
 20
-1.72958
 30
0.0
 10
-0.5493
 20
-1.78416
 30
0.0
 10
-0.63266
 20
-1.83089
 30
0.0
 10
-0.63266
 20
-1.83089
 30
0.0
 10
-0.78581
 20
-1.92826
 30
0.0
 10
-0.8789
 20
-2.13165
 30
0.0
 10
-0.92222
 20
-2.42287
 30
0.0
 10
-0.92222
 20
-2.42287
 30
0.0
 10
-0.95326
 20
-2.61576
 30
0.0
 10
-1.07317
 20
-2.7327
 30
0.0
 10
-1.28194
 20
-2.77373
 30
0.0
 10
-1.28194
 20
-2.77373
 30
0.0
 10
-1.5029
 20
-2.84666
 30
0.0
 10
-1.70296
 20
-2.8253
 30
0.0
 10
-1.88208
 20
-2.70966
 30
0.0
 10
-1.88208
 20
-2.70966
 30
0.0
 10
-2.01766
 20
-2.60013
 30
0.0
 10
-2.11769
 20
-2.45503
 30
0.0
 10
-2.17481
 20
-2.26697
 30
0.0
 10
-2.17481
 20
-2.26697
 30
0.0
 10
-2.31895
 20
-1.86113
 30
0.0
 10
-2.26876
 20
-1.55266
 30
0.0
 10
-2.00506
 20
-1.35113
 30
0.0
 10
-2.00506
 20
-1.35113
 30
0.0
 10
-1.77254
 20
-1.19739
 30
0.0
 10
-1.64981
 20
-1.06461
 30
0.0
 10
-1.63687
 20
-0.95279
 30
0.0
 10
-1.63687
 20
-0.95279
 30
0.0
 10
-1.57893
 20
-0.71745
 30
0.0
 10
-1.5473
 20
-0.49152
 30
0.0
 10
-1.56254
 20
-0.2824
 30
0.0
 10
-1.56254
 20
-0.2824
 30
0.0
 10
-1.56254
 20
-0.2824
 30
0.0
 10
-1.65585
 20
0.08793
 30
0.0
 10
-1.65585
 20
0.08793
 30
0.0
 10
-1.65585
 20
0.08793
 30
0.0
 10
-1.7039
 20
0.20662
 30
0.0
 10
-1.70228
 20
0.32269
 30
0.0
 10
-1.65099
 20
0.43614
 30
0.0
 10
-1.65099
 20
0.43614
 30
0.0
 10
-1.65099
 20
0.43614
 30
0.0
 10
-1.46193
 20
0.67209
 30
0.0
 10
-1.46193
 20
0.67209
 30
0.0
 10
-1.46193
 20
0.67209
 30
0.0
 10
-1.30658
 20
0.77608
 30
0.0
 10
-1.21398
 20
0.90627
 30
0.0
 10
-1.18409
 20
1.06263
 30
0.0
 10
-1.18409
 20
1.06263
 30
0.0
 10
-1.15057
 20
1.22359
 30
0.0
 10
-1.13239
 20
1.38838
 30
0.0
 10
-1.11974
 20
1.55451
 30
0.0
  0
SPLINE
  5
8B
330
1F
100
AcDbEntity
  8
Layer 1
 62
    22
370
     5
100
AcDbSpline
210
0.0
220
0.0
230
1.0
 70
    11
 71
     3
 72
    20
 73
    16
 74
     0
 42
0.0000000001
 43
0.0000000001
 40
0.0
 40
0.0
 40
0.0
 40
0.0
 40
0.25
 40
0.25
 40
0.25
 40
0.25
 40
0.5
 40
0.5
 40
0.5
 40
0.5
 40
0.75
 40
0.75
 40
0.75
 40
0.75
 40
1.0
 40
1.0
 40
1.0
 40
1.0
 10
-1.48383
 20
-1.99729
 30
0.0
 10
-1.48383
 20
-1.99729
 30
0.0
 10
-0.79761
 20
-1.53371
 30
0.0
 10
-0.79761
 20
-1.53371
 30
0.0
 10
-0.79761
 20
-1.53371
 30
0.0
 10
-0.79761
 20
-1.53371
 30
0.0
 10
-0.7525
 20
-1.60443
 30
0.0
 10
-0.7525
 20
-1.60443
 30
0.0
 10
-0.7525
 20
-1.60443
 30
0.0
 10
-0.7525
 20
-1.60443
 30
0.0
 10
-1.43285
 20
-2.07193
 30
0.0
 10
-1.43285
 20
-2.07193
 30
0.0
 10
-1.43285
 20
-2.07193
 30
0.0
 10
-1.43285
 20
-2.07193
 30
0.0
 10
-1.48383
 20
-1.99729
 30
0.0
 10
-1.48383
 20
-1.99729
 30
0.0
  0
SPLINE
  5
8C
330
1F
100
AcDbEntity
  8
Layer 1
 62
    22
370
     5
100
AcDbSpline
210
0.0
220
0.0
230
1.0
 70
    11
 71
     3
 72
    72
 73
    68
 74
     0
 42
0.0000000001
 43
0.0000000001
 40
0.0
 40
0.0
 40
0.0
 40
0.0
 40
0.0588235294117647
 40
0.0588235294117647
 40
0.0588235294117647
 40
0.0588235294117647
 40
0.1176470588235294
 40
0.1176470588235294
 40
0.1176470588235294
 40
0.1176470588235294
 40
0.1764705882352941
 40
0.1764705882352941
 40
0.1764705882352941
 40
0.1764705882352941
 40
0.2352941176470588
 40
0.2352941176470588
 40
0.2352941176470588
 40
0.2352941176470588
 40
0.2941176470588235
 40
0.2941176470588235
 40
0.2941176470588235
 40
0.2941176470588235
 40
0.3529411764705883
 40
0.3529411764705883
 40
0.3529411764705883
 40
0.3529411764705883
 40
0.411764705882353
 40
0.411764705882353
 40
0.411764705882353
 40
0.411764705882353
 40
0.4705882352941177
 40
0.4705882352941177
 40
0.4705882352941177
 40
0.4705882352941177
 40
0.5294117647058824
 40
0.5294117647058824
 40
0.5294117647058824
 40
0.5294117647058824
 40
0.5882352941176471
 40
0.5882352941176471
 40
0.5882352941176471
 40
0.5882352941176471
 40
0.6470588235294118
 40
0.6470588235294118
 40
0.6470588235294118
 40
0.6470588235294118
 40
0.7058823529411765
 40
0.7058823529411765
 40
0.7058823529411765
 40
0.7058823529411765
 40
0.7647058823529412
 40
0.7647058823529412
 40
0.7647058823529412
 40
0.7647058823529412
 40
0.823529411764706
 40
0.823529411764706
 40
0.823529411764706
 40
0.823529411764706
 40
0.8823529411764707
 40
0.8823529411764707
 40
0.8823529411764707
 40
0.8823529411764707
 40
0.9411764705882354
 40
0.9411764705882354
 40
0.9411764705882354
 40
0.9411764705882354
 40
1.0
 40
1.0
 40
1.0
 40
1.0
 10
-0.51377
 20
-3.06282
 30
0.0
 10
-0.30132
 20
-3.06886
 30
0.0
 10
-0.07401
 20
-3.04297
 30
0.0
 10
0.17506
 20
-2.97042
 30
0.0
 10
0.17506
 20
-2.97042
 30
0.0
 10
0.17506
 20
-2.97042
 30
0.0
 10
0.21317
 20
-3.06544
 30
0.0
 10
0.21317
 20
-3.06544
 30
0.0
 10
0.21317
 20
-3.06544
 30
0.0
 10
0.35514
 20
-3.00631
 30
0.0
 10
0.49711
 20
-2.90789
 30
0.0
 10
0.6391
 20
-2.77014
 30
0.0
 10
0.6391
 20
-2.77014
 30
0.0
 10
0.6391
 20
-2.77014
 30
0.0
 10
0.72607
 20
-2.8415
 30
0.0
 10
0.72607
 20
-2.8415
 30
0.0
 10
0.72607
 20
-2.8415
 30
0.0
 10
0.85945
 20
-2.71139
 30
0.0
 10
0.96145
 20
-2.53413
 30
0.0
 10
1.03211
 20
-2.30972
 30
0.0
 10
1.03211
 20
-2.30972
 30
0.0
 10
1.03211
 20
-2.30972
 30
0.0
 10
1.13931
 20
-2.31436
 30
0.0
 10
1.13931
 20
-2.31436
 30
0.0
 10
1.13931
 20
-2.31436
 30
0.0
 10
1.15938
 20
-2.16242
 30
0.0
 10
1.13917
 20
-1.98911
 30
0.0
 10
1.07037
 20
-1.78998
 30
0.0
 10
1.07037
 20
-1.78998
 30
0.0
 10
1.07037
 20
-1.78998
 30
0.0
 10
1.17206
 20
-1.77513
 30
0.0
 10
1.17206
 20
-1.77513
 30
0.0
 10
1.17206
 20
-1.77513
 30
0.0
 10
1.15589
 20
-1.53978
 30
0.0
 10
1.00291
 20
-1.3483
 30
0.0
 10
0.72536
 20
-1.19674
 30
0.0
 10
0.72536
 20
-1.19674
 30
0.0
 10
0.72536
 20
-1.19674
 30
0.0
 10
0.07288
 20
-1.83757
 30
0.0
 10
0.07288
 20
-1.83757
 30
0.0
 10
0.07288
 20
-1.83757
 30
0.0
 10
0.07288
 20
-1.83757
 30
0.0
 10
0.31957
 20
-2.07679
 30
0.0
 10
0.31957
 20
-2.07679
 30
0.0
 10
0.31957
 20
-2.07679
 30
0.0
 10
0.31957
 20
-2.07679
 30
0.0
 10
0.25944
 20
-2.13231
 30
0.0
 10
0.25944
 20
-2.13231
 30
0.0
 10
0.25944
 20
-2.13231
 30
0.0
 10
0.25944
 20
-2.13231
 30
0.0
 10
-0.00235
 20
-1.91146
 30
0.0
 10
-0.00235
 20
-1.91146
 30
0.0
 10
-0.00235
 20
-1.91146
 30
0.0
 10
-0.00235
 20
-1.91146
 30
0.0
 10
-0.47063
 20
-2.37139
 30
0.0
 10
-0.47063
 20
-2.37139
 30
0.0
 10
-0.47063
 20
-2.37139
 30
0.0
 10
-0.47063
 20
-2.37139
 30
0.0
 10
-0.32851
 20
-2.49363
 30
0.0
 10
-0.32851
 20
-2.49363
 30
0.0
 10
-0.32851
 20
-2.49363
 30
0.0
 10
-0.26488
 20
-2.55311
 30
0.0
 10
-0.25875
 20
-2.63091
 30
0.0
 10
-0.31012
 20
-2.72704
 30
0.0
 10
-0.31012
 20
-2.72704
 30
0.0
 10
-0.31012
 20
-2.72704
 30
0.0
 10
-0.51377
 20
-3.06282
 30
0.0
 10
-0.51377
 20
-3.06282
 30
0.0
  0
SPLINE
  5
8D
330
1F
100
AcDbEntity
  8
Layer 1
 62
    22
370
     5
100
AcDbSpline
210
0.0
220
0.0
230
1.0
 70
    11
 71
     3
 72
    68
 73
    64
 74
     0
 42
0.0000000001
 43
0.0000000001
 40
0.0
 40
0.0
 40
0.0
 40
0.0
 40
0.0625
 40
0.0625
 40
0.0625
 40
0.0625
 40
0.125
 40
0.125
 40
0.125
 40
0.125
 40
0.1875
 40
0.1875
 40
0.1875
 40
0.1875
 40
0.25
 40
0.25
 40
0.25
 40
0.25
 40
0.3125
 40
0.3125
 40
0.3125
 40
0.3125
 40
0.375
 40
0.375
 40
0.375
 40
0.375
 40
0.4375
 40
0.4375
 40
0.4375
 40
0.4375
 40
0.5
 40
0.5
 40
0.5
 40
0.5
 40
0.5625
 40
0.5625
 40
0.5625
 40
0.5625
 40
0.625
 40
0.625
 40
0.625
 40
0.625
 40
0.6875
 40
0.6875
 40
0.6875
 40
0.6875
 40
0.75
 40
0.75
 40
0.75
 40
0.75
 40
0.8125
 40
0.8125
 40
0.8125
 40
0.8125
 40
0.875
 40
0.875
 40
0.875
 40
0.875
 40
0.9375
 40
0.9375
 40
0.9375
 40
0.9375
 40
1.0
 40
1.0
 40
1.0
 40
1.0
 10
1.20286
 20
5.03208
 30
0.0
 10
1.20286
 20
5.03208
 30
0.0
 10
1.9891
 20
5.0352
 30
0.0
 10
1.9891
 20
5.0352
 30
0.0
 10
1.9891
 20
5.0352
 30
0.0
 10
1.9891
 20
5.0352
 30
0.0
 10
2.00086
 20
4.68577
 30
0.0
 10
2.00086
 20
4.68577
 30
0.0
 10
2.00086
 20
4.68577
 30
0.0
 10
2.00086
 20
4.68577
 30
0.0
 10
2.0964
 20
4.68598
 30
0.0
 10
2.0964
 20
4.68598
 30
0.0
 10
2.0964
 20
4.68598
 30
0.0
 10
2.0964
 20
4.68598
 30
0.0
 10
2.09692
 20
5.03563
 30
0.0
 10
2.09692
 20
5.03563
 30
0.0
 10
2.09692
 20
5.03563
 30
0.0
 10
2.09692
 20
5.03563
 30
0.0
 10
3.68702
 20
5.04191
 30
0.0
 10
3.68702
 20
5.04191
 30
0.0
 10
3.68702
 20
5.04191
 30
0.0
 10
3.68702
 20
5.04191
 30
0.0
 10
3.23836
 20
4.52533
 30
0.0
 10
3.23836
 20
4.52533
 30
0.0
 10
3.23836
 20
4.52533
 30
0.0
 10
3.23836
 20
4.52533
 30
0.0
 10
3.31014
 20
4.45025
 30
0.0
 10
3.31014
 20
4.45025
 30
0.0
 10
3.31014
 20
4.45025
 30
0.0
 10
3.3093
 20
4.37707
 30
0.0
 10
3.16565
 20
4.30386
 30
0.0
 10
2.92432
 20
4.23065
 30
0.0
 10
2.92432
 20
4.23065
 30
0.0
 10
2.92432
 20
4.23065
 30
0.0
 10
2.95521
 20
4.10013
 30
0.0
 10
2.95521
 20
4.10013
 30
0.0
 10
2.95521
 20
4.10013
 30
0.0
 10
2.85859
 20
4.05776
 30
0.0
 10
2.68878
 20
4.06516
 30
0.0
 10
2.44578
 20
4.12232
 30
0.0
 10
2.44578
 20
4.12232
 30
0.0
 10
2.44578
 20
4.12232
 30
0.0
 10
2.44582
 20
4.02516
 30
0.0
 10
2.44582
 20
4.02516
 30
0.0
 10
2.44582
 20
4.02516
 30
0.0
 10
2.28139
 20
4.03378
 30
0.0
 10
2.10513
 20
4.09463
 30
0.0
 10
1.9146
 20
4.21849
 30
0.0
 10
1.9146
 20
4.21849
 30
0.0
 10
1.9146
 20
4.21849
 30
0.0
 10
1.90628
 20
4.15927
 30
0.0
 10
1.90628
 20
4.15927
 30
0.0
 10
1.90628
 20
4.15927
 30
0.0
 10
1.83691
 20
4.12425
 30
0.0
 10
1.72253
 20
4.22691
 30
0.0
 10
1.55385
 20
4.49569
 30
0.0
 10
1.55385
 20
4.49569
 30
0.0
 10
1.52311
 20
4.45123
 30
0.0
 10
1.48193
 20
4.45128
 30
0.0
 10
1.4303
 20
4.49584
 30
0.0
 10
1.4303
 20
4.49584
 30
0.0
 10
1.33558
 20
4.65029
 30
0.0
 10
1.26092
 20
4.83051
 30
0.0
 10
1.20286
 20
5.03208
 30
0.0
  0
SPLINE
  5
8E
330
1F
100
AcDbEntity
  8
Layer 1
 62
    22
370
     5
100
AcDbSpline
210
0.0
220
0.0
230
1.0
 70
    11
 71
     3
 72
    76
 73
    72
 74
     0
 42
0.0000000001
 43
0.0000000001
 40
0.0
 40
0.0
 40
0.0
 40
0.0
 40
0.0555555555555556
 40
0.0555555555555556
 40
0.0555555555555556
 40
0.0555555555555556
 40
0.1111111111111111
 40
0.1111111111111111
 40
0.1111111111111111
 40
0.1111111111111111
 40
0.1666666666666667
 40
0.1666666666666667
 40
0.1666666666666667
 40
0.1666666666666667
 40
0.2222222222222222
 40
0.2222222222222222
 40
0.2222222222222222
 40
0.2222222222222222
 40
0.2777777777777778
 40
0.2777777777777778
 40
0.2777777777777778
 40
0.2777777777777778
 40
0.3333333333333334
 40
0.3333333333333334
 40
0.3333333333333334
 40
0.3333333333333334
 40
0.388888888888889
 40
0.388888888888889
 40
0.388888888888889
 40
0.388888888888889
 40
0.4444444444444445
 40
0.4444444444444445
 40
0.4444444444444445
 40
0.4444444444444445
 40
0.5000000000000001
 40
0.5000000000000001
 40
0.5000000000000001
 40
0.5000000000000001
 40
0.5555555555555557
 40
0.5555555555555557
 40
0.5555555555555557
 40
0.5555555555555557
 40
0.6111111111111113
 40
0.6111111111111113
 40
0.6111111111111113
 40
0.6111111111111113
 40
0.6666666666666669
 40
0.6666666666666669
 40
0.6666666666666669
 40
0.6666666666666669
 40
0.7222222222222224
 40
0.7222222222222224
 40
0.7222222222222224
 40
0.7222222222222224
 40
0.777777777777778
 40
0.777777777777778
 40
0.777777777777778
 40
0.777777777777778
 40
0.8333333333333336
 40
0.8333333333333336
 40
0.8333333333333336
 40
0.8333333333333336
 40
0.8888888888888892
 40
0.8888888888888892
 40
0.8888888888888892
 40
0.8888888888888892
 40
0.9444444444444448
 40
0.9444444444444448
 40
0.9444444444444448
 40
0.9444444444444448
 40
1.0
 40
1.0
 40
1.0
 40
1.0
 10
6.28911
 20
5.33566
 30
0.0
 10
6.28911
 20
5.33566
 30
0.0
 10
6.30102
 20
5.23411
 30
0.0
 10
6.30102
 20
5.23411
 30
0.0
 10
6.30102
 20
5.23411
 30
0.0
 10
6.46561
 20
5.28106
 30
0.0
 10
6.62088
 20
5.29376
 30
0.0
 10
6.76981
 20
5.28305
 30
0.0
 10
6.76981
 20
5.28305
 30
0.0
 10
6.76981
 20
5.28305
 30
0.0
 10
6.78521
 20
5.14956
 30
0.0
 10
6.78521
 20
5.14956
 30
0.0
 10
6.78521
 20
5.14956
 30
0.0
 10
7.03542
 20
5.12743
 30
0.0
 10
7.18893
 20
5.08434
 30
0.0
 10
7.24573
 20
5.02027
 30
0.0
 10
7.24573
 20
5.02027
 30
0.0
 10
7.24573
 20
5.02027
 30
0.0
 10
7.18664
 20
4.9196
 30
0.0
 10
7.18664
 20
4.9196
 30
0.0
 10
7.18664
 20
4.9196
 30
0.0
 10
7.36968
 20
4.85573
 30
0.0
 10
7.48165
 20
4.78473
 30
0.0
 10
7.50785
 20
4.70512
 30
0.0
 10
7.50785
 20
4.70512
 30
0.0
 10
7.50785
 20
4.70512
 30
0.0
 10
7.4472
 20
4.62141
 30
0.0
 10
7.4472
 20
4.62141
 30
0.0
 10
7.4472
 20
4.62141
 30
0.0
 10
7.55356
 20
4.50364
 30
0.0
 10
7.6261
 20
4.38775
 30
0.0
 10
7.63837
 20
4.27521
 30
0.0
 10
7.63837
 20
4.27521
 30
0.0
 10
7.63837
 20
4.27521
 30
0.0
 10
7.53726
 20
4.27703
 30
0.0
 10
7.53726
 20
4.27703
 30
0.0
 10
7.53726
 20
4.27703
 30
0.0
 10
7.53726
 20
4.27703
 30
0.0
 10
7.54172
 20
3.78482
 30
0.0
 10
7.54172
 20
3.78482
 30
0.0
 10
7.54172
 20
3.78482
 30
0.0
 10
7.54124
 20
3.73758
 30
0.0
 10
7.51201
 20
3.73487
 30
0.0
 10
7.45404
 20
3.77665
 30
0.0
 10
7.45404
 20
3.77665
 30
0.0
 10
7.269
 20
3.96668
 30
0.0
 10
7.06058
 20
4.14393
 30
0.0
 10
6.81805
 20
4.30248
 30
0.0
 10
6.81805
 20
4.30248
 30
0.0
 10
6.73174
 20
4.35246
 30
0.0
 10
6.54835
 20
4.41323
 30
0.0
 10
6.32086
 20
4.47889
 30
0.0
 10
6.32086
 20
4.47889
 30
0.0
 10
6.32086
 20
4.47889
 30
0.0
 10
6.54988
 20
4.69542
 30
0.0
 10
6.54988
 20
4.69542
 30
0.0
 10
6.54988
 20
4.69542
 30
0.0
 10
6.54988
 20
4.69542
 30
0.0
 10
6.47525
 20
4.75014
 30
0.0
 10
6.47525
 20
4.75014
 30
0.0
 10
6.47525
 20
4.75014
 30
0.0
 10
6.47525
 20
4.75014
 30
0.0
 10
6.24315
 20
4.51947
 30
0.0
 10
6.24315
 20
4.51947
 30
0.0
 10
6.24315
 20
4.51947
 30
0.0
 10
5.86214
 20
4.5846
 30
0.0
 10
5.76992
 20
4.62737
 30
0.0
 10
5.82483
 20
5.06764
 30
0.0
 10
5.82483
 20
5.06764
 30
0.0
 10
5.92567
 20
5.20559
 30
0.0
 10
6.08369
 20
5.292
 30
0.0
 10
6.28911
 20
5.33566
 30
0.0
  0
SPLINE
  5
8F
330
1F
100
AcDbEntity
  8
Layer 1
 62
    22
370
     5
100
AcDbSpline
210
0.0
220
0.0
230
1.0
 70
    11
 71
     3
 72
    72
 73
    68
 74
     0
 42
0.0000000001
 43
0.0000000001
 40
0.0
 40
0.0
 40
0.0
 40
0.0
 40
0.0588235294117647
 40
0.0588235294117647
 40
0.0588235294117647
 40
0.0588235294117647
 40
0.1176470588235294
 40
0.1176470588235294
 40
0.1176470588235294
 40
0.1176470588235294
 40
0.1764705882352941
 40
0.1764705882352941
 40
0.1764705882352941
 40
0.1764705882352941
 40
0.2352941176470588
 40
0.2352941176470588
 40
0.2352941176470588
 40
0.2352941176470588
 40
0.2941176470588235
 40
0.2941176470588235
 40
0.2941176470588235
 40
0.2941176470588235
 40
0.3529411764705883
 40
0.3529411764705883
 40
0.3529411764705883
 40
0.3529411764705883
 40
0.411764705882353
 40
0.411764705882353
 40
0.411764705882353
 40
0.411764705882353
 40
0.4705882352941177
 40
0.4705882352941177
 40
0.4705882352941177
 40
0.4705882352941177
 40
0.5294117647058824
 40
0.5294117647058824
 40
0.5294117647058824
 40
0.5294117647058824
 40
0.5882352941176471
 40
0.5882352941176471
 40
0.5882352941176471
 40
0.5882352941176471
 40
0.6470588235294118
 40
0.6470588235294118
 40
0.6470588235294118
 40
0.6470588235294118
 40
0.7058823529411765
 40
0.7058823529411765
 40
0.7058823529411765
 40
0.7058823529411765
 40
0.7647058823529412
 40
0.7647058823529412
 40
0.7647058823529412
 40
0.7647058823529412
 40
0.823529411764706
 40
0.823529411764706
 40
0.823529411764706
 40
0.823529411764706
 40
0.8823529411764707
 40
0.8823529411764707
 40
0.8823529411764707
 40
0.8823529411764707
 40
0.9411764705882354
 40
0.9411764705882354
 40
0.9411764705882354
 40
0.9411764705882354
 40
1.0
 40
1.0
 40
1.0
 40
1.0
 10
1.46871
 20
3.53462
 30
0.0
 10
1.46871
 20
3.53462
 30
0.0
 10
1.46569
 20
3.64122
 30
0.0
 10
1.46569
 20
3.64122
 30
0.0
 10
1.46569
 20
3.64122
 30
0.0
 10
1.49244
 20
3.70443
 30
0.0
 10
1.54532
 20
3.7552
 30
0.0
 10
1.59301
 20
3.76603
 30
0.0
 10
1.59301
 20
3.76603
 30
0.0
 10
1.6597
 20
3.80103
 30
0.0
 10
1.72444
 20
3.74848
 30
0.0
 10
1.75392
 20
3.6545
 30
0.0
 10
1.75392
 20
3.6545
 30
0.0
 10
2.34985
 20
3.28622
 30
0.0
 10
2.628
 20
3.31886
 30
0.0
 10
3.14422
 20
3.61909
 30
0.0
 10
3.14422
 20
3.61909
 30
0.0
 10
3.27826
 20
3.69271
 30
0.0
 10
3.37047
 20
3.65632
 30
0.0
 10
3.42087
 20
3.50991
 30
0.0
 10
3.42087
 20
3.50991
 30
0.0
 10
3.43977
 20
3.44564
 30
0.0
 10
3.4456
 20
3.35518
 30
0.0
 10
3.43837
 20
3.23851
 30
0.0
 10
3.43837
 20
3.23851
 30
0.0
 10
3.43355
 20
3.14223
 30
0.0
 10
3.38428
 20
3.05381
 30
0.0
 10
3.2906
 20
2.97323
 30
0.0
 10
3.2906
 20
2.97323
 30
0.0
 10
3.20088
 20
2.91835
 30
0.0
 10
3.15071
 20
2.84185
 30
0.0
 10
3.11855
 20
2.75552
 30
0.0
 10
3.11855
 20
2.75552
 30
0.0
 10
3.09899
 20
2.66559
 30
0.0
 10
3.035
 20
2.56781
 30
0.0
 10
2.92658
 20
2.46214
 30
0.0
 10
2.92658
 20
2.46214
 30
0.0
 10
2.84932
 20
2.39152
 30
0.0
 10
2.75505
 20
2.31661
 30
0.0
 10
2.636
 20
2.23545
 30
0.0
 10
2.636
 20
2.23545
 30
0.0
 10
2.55889
 20
2.18903
 30
0.0
 10
2.49223
 20
2.2081
 30
0.0
 10
2.43606
 20
2.29262
 30
0.0
 10
2.43606
 20
2.29262
 30
0.0
 10
2.37461
 20
2.39946
 30
0.0
 10
2.25392
 20
2.4707
 30
0.0
 10
2.06177
 20
2.49896
 30
0.0
 10
2.06177
 20
2.49896
 30
0.0
 10
1.83172
 20
2.53163
 30
0.0
 10
1.6301
 20
2.53818
 30
0.0
 10
1.46282
 20
2.51321
 30
0.0
 10
1.46282
 20
2.51321
 30
0.0
 10
1.29889
 20
2.48612
 30
0.0
 10
1.2293
 20
2.52044
 30
0.0
 10
1.27456
 20
2.62951
 30
0.0
 10
1.27456
 20
2.62951
 30
0.0
 10
1.27456
 20
2.62951
 30
0.0
 10
1.44528
 20
2.9282
 30
0.0
 10
1.44528
 20
2.9282
 30
0.0
 10
1.44528
 20
2.9282
 30
0.0
 10
1.51717
 20
3.05022
 30
0.0
 10
1.5394
 20
3.18008
 30
0.0
 10
1.51196
 20
3.31779
 30
0.0
 10
1.51196
 20
3.31779
 30
0.0
 10
1.51196
 20
3.31779
 30
0.0
 10
1.46871
 20
3.53462
 30
0.0
 10
1.46871
 20
3.53462
 30
0.0
  0
SPLINE
  5
90
330
1F
100
AcDbEntity
  8
Layer 1
 62
    22
370
     5
100
AcDbSpline
210
0.0
220
0.0
230
1.0
 70
    11
 71
     3
 72
    20
 73
    16
 74
     0
 42
0.0000000001
 43
0.0000000001
 40
0.0
 40
0.0
 40
0.0
 40
0.0
 40
0.25
 40
0.25
 40
0.25
 40
0.25
 40
0.5
 40
0.5
 40
0.5
 40
0.5
 40
0.75
 40
0.75
 40
0.75
 40
0.75
 40
1.0
 40
1.0
 40
1.0
 40
1.0
 10
1.75772
 20
3.05404
 30
0.0
 10
1.75772
 20
3.05404
 30
0.0
 10
2.5669
 20
2.85176
 30
0.0
 10
2.5669
 20
2.85176
 30
0.0
 10
2.5669
 20
2.85176
 30
0.0
 10
2.5669
 20
2.85176
 30
0.0
 10
2.53611
 20
2.76726
 30
0.0
 10
2.53611
 20
2.76726
 30
0.0
 10
2.53611
 20
2.76726
 30
0.0
 10
2.53611
 20
2.76726
 30
0.0
 10
1.72635
 20
2.9735
 30
0.0
 10
1.72635
 20
2.9735
 30
0.0
 10
1.72635
 20
2.9735
 30
0.0
 10
1.72635
 20
2.9735
 30
0.0
 10
1.75772
 20
3.05404
 30
0.0
 10
1.75772
 20
3.05404
 30
0.0
  0
SPLINE
  5
91
330
1F
100
AcDbEntity
  8
Layer 1
 62
    22
370
     5
100
AcDbSpline
210
0.0
220
0.0
230
1.0
 70
    11
 71
     3
 72
   128
 73
   124
 74
     0
 42
0.0000000001
 43
0.0000000001
 40
0.0
 40
0.0
 40
0.0
 40
0.0
 40
0.032258064516129
 40
0.032258064516129
 40
0.032258064516129
 40
0.032258064516129
 40
0.0645161290322581
 40
0.0645161290322581
 40
0.0645161290322581
 40
0.0645161290322581
 40
0.0967741935483871
 40
0.0967741935483871
 40
0.0967741935483871
 40
0.0967741935483871
 40
0.1290322580645161
 40
0.1290322580645161
 40
0.1290322580645161
 40
0.1290322580645161
 40
0.1612903225806452
 40
0.1612903225806452
 40
0.1612903225806452
 40
0.1612903225806452
 40
0.1935483870967742
 40
0.1935483870967742
 40
0.1935483870967742
 40
0.1935483870967742
 40
0.2258064516129032
 40
0.2258064516129032
 40
0.2258064516129032
 40
0.2258064516129032
 40
0.2580645161290323
 40
0.2580645161290323
 40
0.2580645161290323
 40
0.2580645161290323
 40
0.2903225806451613
 40
0.2903225806451613
 40
0.2903225806451613
 40
0.2903225806451613
 40
0.3225806451612903
 40
0.3225806451612903
 40
0.3225806451612903
 40
0.3225806451612903
 40
0.3548387096774193
 40
0.3548387096774193
 40
0.3548387096774193
 40
0.3548387096774193
 40
0.3870967741935483
 40
0.3870967741935483
 40
0.3870967741935483
 40
0.3870967741935483
 40
0.4193548387096773
 40
0.4193548387096773
 40
0.4193548387096773
 40
0.4193548387096773
 40
0.4516129032258063
 40
0.4516129032258063
 40
0.4516129032258063
 40
0.4516129032258063
 40
0.4838709677419353
 40
0.4838709677419353
 40
0.4838709677419353
 40
0.4838709677419353
 40
0.5161290322580643
 40
0.5161290322580643
 40
0.5161290322580643
 40
0.5161290322580643
 40
0.5483870967741933
 40
0.5483870967741933
 40
0.5483870967741933
 40
0.5483870967741933
 40
0.5806451612903223
 40
0.5806451612903223
 40
0.5806451612903223
 40
0.5806451612903223
 40
0.6129032258064513
 40
0.6129032258064513
 40
0.6129032258064513
 40
0.6129032258064513
 40
0.6451612903225803
 40
0.6451612903225803
 40
0.6451612903225803
 40
0.6451612903225803
 40
0.6774193548387093
 40
0.6774193548387093
 40
0.6774193548387093
 40
0.6774193548387093
 40
0.7096774193548383
 40
0.7096774193548383
 40
0.7096774193548383
 40
0.7096774193548383
 40
0.7419354838709673
 40
0.7419354838709673
 40
0.7419354838709673
 40
0.7419354838709673
 40
0.7741935483870963
 40
0.7741935483870963
 40
0.7741935483870963
 40
0.7741935483870963
 40
0.8064516129032253
 40
0.8064516129032253
 40
0.8064516129032253
 40
0.8064516129032253
 40
0.8387096774193543
 40
0.8387096774193543
 40
0.8387096774193543
 40
0.8387096774193543
 40
0.8709677419354833
 40
0.8709677419354833
 40
0.8709677419354833
 40
0.8709677419354833
 40
0.9032258064516123
 40
0.9032258064516123
 40
0.9032258064516123
 40
0.9032258064516123
 40
0.9354838709677413
 40
0.9354838709677413
 40
0.9354838709677413
 40
0.9354838709677413
 40
0.9677419354838703
 40
0.9677419354838703
 40
0.9677419354838703
 40
0.9677419354838703
 40
1.0
 40
1.0
 40
1.0
 40
1.0
 10
5.24337
 20
4.77018
 30
0.0
 10
5.24337
 20
4.77018
 30
0.0
 10
5.40504
 20
4.4835
 30
0.0
 10
5.40504
 20
4.4835
 30
0.0
 10
5.40504
 20
4.4835
 30
0.0
 10
5.46085
 20
4.39072
 30
0.0
 10
5.54812
 20
4.32945
 30
0.0
 10
5.66685
 20
4.29967
 30
0.0
 10
5.66685
 20
4.29967
 30
0.0
 10
5.66685
 20
4.29967
 30
0.0
 10
6.13572
 20
4.15385
 30
0.0
 10
6.13572
 20
4.15385
 30
0.0
 10
6.13572
 20
4.15385
 30
0.0
 10
6.58907
 20
4.04433
 30
0.0
 10
6.76746
 20
3.92208
 30
0.0
 10
6.88344
 20
3.73017
 30
0.0
 10
6.88344
 20
3.73017
 30
0.0
 10
6.9307
 20
3.6368
 30
0.0
 10
7.00797
 20
3.57064
 30
0.0
 10
7.11527
 20
3.53169
 30
0.0
 10
7.11527
 20
3.53169
 30
0.0
 10
7.26532
 20
3.47087
 30
0.0
 10
7.34154
 20
3.41005
 30
0.0
 10
7.32865
 20
3.34919
 30
0.0
 10
7.32865
 20
3.34919
 30
0.0
 10
7.32017
 20
3.3161
 30
0.0
 10
7.33528
 20
3.30073
 30
0.0
 10
7.36113
 20
3.29338
 30
0.0
 10
7.36113
 20
3.29338
 30
0.0
 10
7.46591
 20
3.24841
 30
0.0
 10
7.51262
 20
3.19178
 30
0.0
 10
7.47446
 20
3.11813
 30
0.0
 10
7.47446
 20
3.11813
 30
0.0
 10
7.47446
 20
3.11813
 30
0.0
 10
7.41066
 20
2.99694
 30
0.0
 10
7.41066
 20
2.99694
 30
0.0
 10
7.41066
 20
2.99694
 30
0.0
 10
7.37991
 20
2.91886
 30
0.0
 10
7.37776
 20
2.86654
 30
0.0
 10
7.40423
 20
2.83999
 30
0.0
 10
7.40423
 20
2.83999
 30
0.0
 10
7.46019
 20
2.79533
 30
0.0
 10
7.42573
 20
2.73095
 30
0.0
 10
7.35017
 20
2.6576
 30
0.0
 10
7.35017
 20
2.6576
 30
0.0
 10
7.22912
 20
2.55585
 30
0.0
 10
7.17098
 20
2.4713
 30
0.0
 10
7.17576
 20
2.40392
 30
0.0
 10
7.17576
 20
2.40392
 30
0.0
 10
7.17576
 20
2.40392
 30
0.0
 10
7.17896
 20
1.61995
 30
0.0
 10
7.17896
 20
1.61995
 30
0.0
 10
7.17896
 20
1.61995
 30
0.0
 10
7.17896
 20
1.61995
 30
0.0
 10
6.95131
 20
1.49755
 30
0.0
 10
6.95131
 20
1.49755
 30
0.0
 10
6.95131
 20
1.49755
 30
0.0
 10
7.02066
 20
1.37693
 30
0.0
 10
7.07187
 20
1.24592
 30
0.0
 10
7.10123
 20
1.10235
 30
0.0
 10
7.10123
 20
1.10235
 30
0.0
 10
7.11339
 20
0.9253
 30
0.0
 10
6.95953
 20
0.816
 30
0.0
 10
6.77371
 20
0.85446
 30
0.0
 10
6.77371
 20
0.85446
 30
0.0
 10
6.64786
 20
0.92337
 30
0.0
 10
6.52954
 20
1.09345
 30
0.0
 10
6.50239
 20
1.25615
 30
0.0
 10
6.50239
 20
1.25615
 30
0.0
 10
6.50239
 20
1.25615
 30
0.0
 10
6.59466
 20
1.30095
 30
0.0
 10
6.59466
 20
1.30095
 30
0.0
 10
6.59466
 20
1.30095
 30
0.0
 10
6.59466
 20
1.30095
 30
0.0
 10
6.56288
 20
1.37523
 30
0.0
 10
6.56288
 20
1.37523
 30
0.0
 10
6.56288
 20
1.37523
 30
0.0
 10
6.56288
 20
1.37523
 30
0.0
 10
6.11446
 20
1.18006
 30
0.0
 10
6.11446
 20
1.18006
 30
0.0
 10
6.11446
 20
1.18006
 30
0.0
 10
6.11446
 20
1.18006
 30
0.0
 10
5.97456
 20
1.42085
 30
0.0
 10
5.97456
 20
1.42085
 30
0.0
 10
5.97456
 20
1.42085
 30
0.0
 10
5.95844
 20
1.45266
 30
0.0
 10
5.93769
 20
1.52703
 30
0.0
 10
5.91263
 20
1.6357
 30
0.0
 10
5.91263
 20
1.6357
 30
0.0
 10
5.90113
 20
1.6856
 30
0.0
 10
5.83952
 20
1.73371
 30
0.0
 10
5.76661
 20
1.77879
 30
0.0
 10
5.76661
 20
1.77879
 30
0.0
 10
5.76661
 20
1.77879
 30
0.0
 10
5.57223
 20
1.88945
 30
0.0
 10
5.57223
 20
1.88945
 30
0.0
 10
5.57223
 20
1.88945
 30
0.0
 10
5.33125
 20
1.9826
 30
0.0
 10
5.20751
 20
2.14451
 30
0.0
 10
5.201
 20
2.37514
 30
0.0
 10
5.201
 20
2.37514
 30
0.0
 10
5.201
 20
2.37514
 30
0.0
 10
5.19436
 20
2.81335
 30
0.0
 10
5.19436
 20
2.81335
 30
0.0
 10
5.19436
 20
2.81335
 30
0.0
 10
5.19436
 20
2.81335
 30
0.0
 10
5.17265
 20
2.9292
 30
0.0
 10
5.17265
 20
2.9292
 30
0.0
 10
5.17265
 20
2.9292
 30
0.0
 10
5.17265
 20
2.9292
 30
0.0
 10
4.97803
 20
3.25154
 30
0.0
 10
4.97803
 20
3.25154
 30
0.0
 10
4.97803
 20
3.25154
 30
0.0
 10
4.87748
 20
3.39784
 30
0.0
 10
4.71476
 20
3.5026
 30
0.0
 10
4.47699
 20
3.5572
 30
0.0
 10
4.47699
 20
3.5572
 30
0.0
 10
4.2183
 20
3.61051
 30
0.0
 10
4.09402
 20
3.90728
 30
0.0
 10
4.10412
 20
4.44752
 30
0.0
 10
4.10412
 20
4.44752
 30
0.0
 10
4.19006
 20
5.02488
 30
0.0
 10
5.03301
 20
5.19904
 30
0.0
 10
5.24337
 20
4.77018
 30
0.0
  0
SPLINE
  5
92
330
1F
100
AcDbEntity
  8
Layer 1
 62
    22
370
     5
100
AcDbSpline
210
0.0
220
0.0
230
1.0
 70
    11
 71
     3
 72
    20
 73
    16
 74
     0
 42
0.0000000001
 43
0.0000000001
 40
0.0
 40
0.0
 40
0.0
 40
0.0
 40
0.25
 40
0.25
 40
0.25
 40
0.25
 40
0.5
 40
0.5
 40
0.5
 40
0.5
 40
0.75
 40
0.75
 40
0.75
 40
0.75
 40
1.0
 40
1.0
 40
1.0
 40
1.0
 10
4.69004
 20
4.76508
 30
0.0
 10
4.69004
 20
4.76508
 30
0.0
 10
4.79941
 20
4.76938
 30
0.0
 10
4.79941
 20
4.76938
 30
0.0
 10
4.79941
 20
4.76938
 30
0.0
 10
4.79941
 20
4.76938
 30
0.0
 10
4.86374
 20
4.04106
 30
0.0
 10
4.86374
 20
4.04106
 30
0.0
 10
4.86374
 20
4.04106
 30
0.0
 10
4.86374
 20
4.04106
 30
0.0
 10
4.76509
 20
4.03246
 30
0.0
 10
4.76509
 20
4.03246
 30
0.0
 10
4.76509
 20
4.03246
 30
0.0
 10
4.76509
 20
4.03246
 30
0.0
 10
4.69004
 20
4.76508
 30
0.0
 10
4.69004
 20
4.76508
 30
0.0
  0
SPLINE
  5
93
330
1F
100
AcDbEntity
  8
Layer 1
 62
    22
370
     5
100
AcDbSpline
210
0.0
220
0.0
230
1.0
 70
    11
 71
     3
 72
    20
 73
    16
 74
     0
 42
0.0000000001
 43
0.0000000001
 40
0.0
 40
0.0
 40
0.0
 40
0.0
 40
0.25
 40
0.25
 40
0.25
 40
0.25
 40
0.5
 40
0.5
 40
0.5
 40
0.5
 40
0.75
 40
0.75
 40
0.75
 40
0.75
 40
1.0
 40
1.0
 40
1.0
 40
1.0
 10
5.48992
 20
3.18168
 30
0.0
 10
5.48992
 20
3.18168
 30
0.0
 10
6.23191
 20
3.52543
 30
0.0
 10
6.23191
 20
3.52543
 30
0.0
 10
6.23191
 20
3.52543
 30
0.0
 10
6.23191
 20
3.52543
 30
0.0
 10
6.28337
 20
3.44808
 30
0.0
 10
6.28337
 20
3.44808
 30
0.0
 10
6.28337
 20
3.44808
 30
0.0
 10
6.28337
 20
3.44808
 30
0.0
 10
5.52638
 20
3.09359
 30
0.0
 10
5.52638
 20
3.09359
 30
0.0
 10
5.52638
 20
3.09359
 30
0.0
 10
5.52638
 20
3.09359
 30
0.0
 10
5.48992
 20
3.18168
 30
0.0
 10
5.48992
 20
3.18168
 30
0.0
  0
SPLINE
  5
94
330
1F
100
AcDbEntity
  8
Layer 1
 62
    22
370
     5
100
AcDbSpline
210
0.0
220
0.0
230
1.0
 70
    11
 71
     3
 72
    20
 73
    16
 74
     0
 42
0.0000000001
 43
0.0000000001
 40
0.0
 40
0.0
 40
0.0
 40
0.0
 40
0.25
 40
0.25
 40
0.25
 40
0.25
 40
0.5
 40
0.5
 40
0.5
 40
0.5
 40
0.75
 40
0.75
 40
0.75
 40
0.75
 40
1.0
 40
1.0
 40
1.0
 40
1.0
 10
6.21046
 20
3.0764
 30
0.0
 10
6.21046
 20
3.0764
 30
0.0
 10
6.32198
 20
3.06566
 30
0.0
 10
6.32198
 20
3.06566
 30
0.0
 10
6.32198
 20
3.06566
 30
0.0
 10
6.32198
 20
3.06566
 30
0.0
 10
6.1976
 20
2.32016
 30
0.0
 10
6.1976
 20
2.32016
 30
0.0
 10
6.1976
 20
2.32016
 30
0.0
 10
6.1976
 20
2.32016
 30
0.0
 10
6.10325
 20
2.3309
 30
0.0
 10
6.10325
 20
2.3309
 30
0.0
 10
6.10325
 20
2.3309
 30
0.0
 10
6.10325
 20
2.3309
 30
0.0
 10
6.21046
 20
3.0764
 30
0.0
 10
6.21046
 20
3.0764
 30
0.0
  0
SPLINE
  5
95
330
1F
100
AcDbEntity
  8
Layer 1
 62
    22
370
     5
100
AcDbSpline
210
0.0
220
0.0
230
1.0
 70
    11
 71
     3
 72
   108
 73
   104
 74
     0
 42
0.0000000001
 43
0.0000000001
 40
0.0
 40
0.0
 40
0.0
 40
0.0
 40
0.0384615384615385
 40
0.0384615384615385
 40
0.0384615384615385
 40
0.0384615384615385
 40
0.0769230769230769
 40
0.0769230769230769
 40
0.0769230769230769
 40
0.0769230769230769
 40
0.1153846153846154
 40
0.1153846153846154
 40
0.1153846153846154
 40
0.1153846153846154
 40
0.1538461538461539
 40
0.1538461538461539
 40
0.1538461538461539
 40
0.1538461538461539
 40
0.1923076923076923
 40
0.1923076923076923
 40
0.1923076923076923
 40
0.1923076923076923
 40
0.2307692307692308
 40
0.2307692307692308
 40
0.2307692307692308
 40
0.2307692307692308
 40
0.2692307692307693
 40
0.2692307692307693
 40
0.2692307692307693
 40
0.2692307692307693
 40
0.3076923076923077
 40
0.3076923076923077
 40
0.3076923076923077
 40
0.3076923076923077
 40
0.3461538461538461
 40
0.3461538461538461
 40
0.3461538461538461
 40
0.3461538461538461
 40
0.3846153846153846
 40
0.3846153846153846
 40
0.3846153846153846
 40
0.3846153846153846
 40
0.423076923076923
 40
0.423076923076923
 40
0.423076923076923
 40
0.423076923076923
 40
0.4615384615384615
 40
0.4615384615384615
 40
0.4615384615384615
 40
0.4615384615384615
 40
0.4999999999999999
 40
0.4999999999999999
 40
0.4999999999999999
 40
0.4999999999999999
 40
0.5384615384615383
 40
0.5384615384615383
 40
0.5384615384615383
 40
0.5384615384615383
 40
0.5769230769230768
 40
0.5769230769230768
 40
0.5769230769230768
 40
0.5769230769230768
 40
0.6153846153846152
 40
0.6153846153846152
 40
0.6153846153846152
 40
0.6153846153846152
 40
0.6538461538461536
 40
0.6538461538461536
 40
0.6538461538461536
 40
0.6538461538461536
 40
0.6923076923076921
 40
0.6923076923076921
 40
0.6923076923076921
 40
0.6923076923076921
 40
0.7307692307692305
 40
0.7307692307692305
 40
0.7307692307692305
 40
0.7307692307692305
 40
0.7692307692307689
 40
0.7692307692307689
 40
0.7692307692307689
 40
0.7692307692307689
 40
0.8076923076923074
 40
0.8076923076923074
 40
0.8076923076923074
 40
0.8076923076923074
 40
0.8461538461538458
 40
0.8461538461538458
 40
0.8461538461538458
 40
0.8461538461538458
 40
0.8846153846153842
 40
0.8846153846153842
 40
0.8846153846153842
 40
0.8846153846153842
 40
0.9230769230769227
 40
0.9230769230769227
 40
0.9230769230769227
 40
0.9230769230769227
 40
0.9615384615384611
 40
0.9615384615384611
 40
0.9615384615384611
 40
0.9615384615384611
 40
1.0
 40
1.0
 40
1.0
 40
1.0
 10
3.7745
 20
2.46562
 30
0.0
 10
3.75565
 20
2.5872
 30
0.0
 10
3.76395
 20
2.73599
 30
0.0
 10
3.79086
 20
2.90339
 30
0.0
 10
3.79086
 20
2.90339
 30
0.0
 10
3.95311
 20
3.40912
 30
0.0
 10
4.70393
 20
3.45149
 30
0.0
 10
4.92124
 20
2.7555
 30
0.0
 10
4.92124
 20
2.7555
 30
0.0
 10
5.00297
 20
2.21932
 30
0.0
 10
5.14747
 20
1.89428
 30
0.0
 10
5.35478
 20
1.78036
 30
0.0
 10
5.35478
 20
1.78036
 30
0.0
 10
5.40422
 20
1.76367
 30
0.0
 10
5.4435
 20
1.72316
 30
0.0
 10
5.47582
 20
1.66634
 30
0.0
 10
5.47582
 20
1.66634
 30
0.0
 10
5.48921
 20
1.64137
 30
0.0
 10
5.50849
 20
1.64396
 30
0.0
 10
5.53046
 20
1.65907
 30
0.0
 10
5.53046
 20
1.65907
 30
0.0
 10
5.5742
 20
1.67109
 30
0.0
 10
5.61508
 20
1.6602
 30
0.0
 10
5.65313
 20
1.62636
 30
0.0
 10
5.65313
 20
1.62636
 30
0.0
 10
5.70887
 20
1.60085
 30
0.0
 10
5.74458
 20
1.55815
 30
0.0
 10
5.76028
 20
1.49825
 30
0.0
 10
5.76028
 20
1.49825
 30
0.0
 10
5.76028
 20
1.49825
 30
0.0
 10
5.8097
 20
1.28471
 30
0.0
 10
5.8097
 20
1.28471
 30
0.0
 10
5.8097
 20
1.28471
 30
0.0
 10
5.81368
 20
1.06386
 30
0.0
 10
5.8091
 20
0.84872
 30
0.0
 10
5.79596
 20
0.63925
 30
0.0
 10
5.79596
 20
0.63925
 30
0.0
 10
5.77696
 20
0.50504
 30
0.0
 10
5.73763
 20
0.44602
 30
0.0
 10
5.68147
 20
0.44929
 30
0.0
 10
5.68147
 20
0.44929
 30
0.0
 10
5.63777
 20
0.4594
 30
0.0
 10
5.5998
 20
0.45232
 30
0.0
 10
5.56756
 20
0.42804
 30
0.0
 10
5.56756
 20
0.42804
 30
0.0
 10
5.56756
 20
0.42804
 30
0.0
 10
5.47639
 20
0.3262
 30
0.0
 10
5.47639
 20
0.3262
 30
0.0
 10
5.47639
 20
0.3262
 30
0.0
 10
5.47639
 20
0.3262
 30
0.0
 10
5.30686
 20
0.32592
 30
0.0
 10
5.30686
 20
0.32592
 30
0.0
 10
5.30686
 20
0.32592
 30
0.0
 10
5.30686
 20
0.32592
 30
0.0
 10
5.11429
 20
0.42781
 30
0.0
 10
5.11429
 20
0.42781
 30
0.0
 10
5.11429
 20
0.42781
 30
0.0
 10
5.11429
 20
0.42781
 30
0.0
 10
5.07713
 20
0.43396
 30
0.0
 10
5.07713
 20
0.43396
 30
0.0
 10
5.07713
 20
0.43396
 30
0.0
 10
5.03656
 20
0.43405
 30
0.0
 10
5.01111
 20
0.45159
 30
0.0
 10
5.00774
 20
0.49462
 30
0.0
 10
5.00774
 20
0.49462
 30
0.0
 10
5.00998
 20
0.52778
 30
0.0
 10
4.98936
 20
0.53803
 30
0.0
 10
4.94592
 20
0.52533
 30
0.0
 10
4.94592
 20
0.52533
 30
0.0
 10
4.89674
 20
0.51454
 30
0.0
 10
4.88186
 20
0.5324
 30
0.0
 10
4.90131
 20
0.57891
 30
0.0
 10
4.90131
 20
0.57891
 30
0.0
 10
4.91507
 20
0.64718
 30
0.0
 10
4.95741
 20
0.69253
 30
0.0
 10
5.02836
 20
0.71494
 30
0.0
 10
5.02836
 20
0.71494
 30
0.0
 10
5.02836
 20
0.71494
 30
0.0
 10
5.13423
 20
0.75416
 30
0.0
 10
5.13423
 20
0.75416
 30
0.0
 10
5.13423
 20
0.75416
 30
0.0
 10
5.17455
 20
0.77029
 30
0.0
 10
5.21488
 20
0.76351
 30
0.0
 10
5.25522
 20
0.73382
 30
0.0
 10
5.25522
 20
0.73382
 30
0.0
 10
5.36902
 20
0.61853
 30
0.0
 10
5.44207
 20
0.62908
 30
0.0
 10
5.48728
 20
0.72575
 30
0.0
 10
5.48728
 20
0.72575
 30
0.0
 10
5.48817
 20
0.86417
 30
0.0
 10
5.47999
 20
0.9948
 30
0.0
 10
5.46095
 20
1.116
 30
0.0
 10
5.46095
 20
1.116
 30
0.0
 10
5.43401
 20
1.2548
 30
0.0
 10
5.34132
 20
1.36066
 30
0.0
 10
5.18289
 20
1.43354
 30
0.0
 10
5.18289
 20
1.43354
 30
0.0
 10
4.98205
 20
1.5005
 30
0.0
 10
4.6724
 20
1.64274
 30
0.0
 10
4.2314
 20
1.8758
 30
0.0
 10
4.2314
 20
1.8758
 30
0.0
 10
3.97108
 20
2.06409
 30
0.0
 10
3.8118
 20
2.26017
 30
0.0
 10
3.7745
 20
2.46562
 30
0.0
  0
SPLINE
  5
96
330
1F
100
AcDbEntity
  8
Layer 1
 62
    22
370
     5
100
AcDbSpline
210
0.0
220
0.0
230
1.0
 70
    11
 71
     3
 72
    20
 73
    16
 74
     0
 42
0.0000000001
 43
0.0000000001
 40
0.0
 40
0.0
 40
0.0
 40
0.0
 40
0.25
 40
0.25
 40
0.25
 40
0.25
 40
0.5
 40
0.5
 40
0.5
 40
0.5
 40
0.75
 40
0.75
 40
0.75
 40
0.75
 40
1.0
 40
1.0
 40
1.0
 40
1.0
 10
4.20753
 20
2.94965
 30
0.0
 10
4.20753
 20
2.94965
 30
0.0
 10
4.3169
 20
2.97972
 30
0.0
 10
4.3169
 20
2.97972
 30
0.0
 10
4.3169
 20
2.97972
 30
0.0
 10
4.3169
 20
2.97972
 30
0.0
 10
4.53135
 20
2.27718
 30
0.0
 10
4.53135
 20
2.27718
 30
0.0
 10
4.53135
 20
2.27718
 30
0.0
 10
4.53135
 20
2.27718
 30
0.0
 10
4.43914
 20
2.24925
 30
0.0
 10
4.43914
 20
2.24925
 30
0.0
 10
4.43914
 20
2.24925
 30
0.0
 10
4.43914
 20
2.24925
 30
0.0
 10
4.20753
 20
2.94965
 30
0.0
 10
4.20753
 20
2.94965
 30
0.0
  0
SPLINE
  5
97
330
1F
100
AcDbEntity
  8
Layer 1
 62
    22
370
     5
100
AcDbSpline
210
0.0
220
0.0
230
1.0
 70
    11
 71
     3
 72
    88
 73
    84
 74
     0
 42
0.0000000001
 43
0.0000000001
 40
0.0
 40
0.0
 40
0.0
 40
0.0
 40
0.0476190476190476
 40
0.0476190476190476
 40
0.0476190476190476
 40
0.0476190476190476
 40
0.0952380952380952
 40
0.0952380952380952
 40
0.0952380952380952
 40
0.0952380952380952
 40
0.1428571428571428
 40
0.1428571428571428
 40
0.1428571428571428
 40
0.1428571428571428
 40
0.1904761904761905
 40
0.1904761904761905
 40
0.1904761904761905
 40
0.1904761904761905
 40
0.2380952380952381
 40
0.2380952380952381
 40
0.2380952380952381
 40
0.2380952380952381
 40
0.2857142857142857
 40
0.2857142857142857
 40
0.2857142857142857
 40
0.2857142857142857
 40
0.3333333333333333
 40
0.3333333333333333
 40
0.3333333333333333
 40
0.3333333333333333
 40
0.3809523809523809
 40
0.3809523809523809
 40
0.3809523809523809
 40
0.3809523809523809
 40
0.4285714285714285
 40
0.4285714285714285
 40
0.4285714285714285
 40
0.4285714285714285
 40
0.4761904761904762
 40
0.4761904761904762
 40
0.4761904761904762
 40
0.4761904761904762
 40
0.5238095238095237
 40
0.5238095238095237
 40
0.5238095238095237
 40
0.5238095238095237
 40
0.5714285714285714
 40
0.5714285714285714
 40
0.5714285714285714
 40
0.5714285714285714
 40
0.6190476190476191
 40
0.6190476190476191
 40
0.6190476190476191
 40
0.6190476190476191
 40
0.6666666666666667
 40
0.6666666666666667
 40
0.6666666666666667
 40
0.6666666666666667
 40
0.7142857142857144
 40
0.7142857142857144
 40
0.7142857142857144
 40
0.7142857142857144
 40
0.7619047619047621
 40
0.7619047619047621
 40
0.7619047619047621
 40
0.7619047619047621
 40
0.8095238095238098
 40
0.8095238095238098
 40
0.8095238095238098
 40
0.8095238095238098
 40
0.8571428571428574
 40
0.8571428571428574
 40
0.8571428571428574
 40
0.8571428571428574
 40
0.9047619047619051
 40
0.9047619047619051
 40
0.9047619047619051
 40
0.9047619047619051
 40
0.9523809523809528
 40
0.9523809523809528
 40
0.9523809523809528
 40
0.9523809523809528
 40
1.0
 40
1.0
 40
1.0
 40
1.0
 10
1.90193
 20
2.13744
 30
0.0
 10
2.10753
 20
2.05492
 30
0.0
 10
2.31314
 20
1.91234
 30
0.0
 10
2.51876
 20
1.70375
 30
0.0
 10
2.51876
 20
1.70375
 30
0.0
 10
2.61525
 20
1.61288
 30
0.0
 10
2.7489
 20
1.55063
 30
0.0
 10
2.91974
 20
1.51701
 30
0.0
 10
2.91974
 20
1.51701
 30
0.0
 10
3.27229
 20
1.39843
 30
0.0
 10
3.5362
 20
1.24548
 30
0.0
 10
3.7115
 20
1.05814
 30
0.0
 10
3.7115
 20
1.05814
 30
0.0
 10
3.7115
 20
1.05814
 30
0.0
 10
4.01219
 20
0.7413
 30
0.0
 10
4.01219
 20
0.7413
 30
0.0
 10
4.01219
 20
0.7413
 30
0.0
 10
4.12711
 20
0.63393
 30
0.0
 10
4.22114
 20
0.52657
 30
0.0
 10
4.28462
 20
0.41917
 30
0.0
 10
4.28462
 20
0.41917
 30
0.0
 10
4.31552
 20
0.37811
 30
0.0
 10
4.30229
 20
0.34044
 30
0.0
 10
4.25885
 20
0.30508
 30
0.0
 10
4.25885
 20
0.30508
 30
0.0
 10
4.22208
 20
0.2552
 30
0.0
 10
4.21532
 20
0.20962
 30
0.0
 10
4.23861
 20
0.16831
 30
0.0
 10
4.23861
 20
0.16831
 30
0.0
 10
4.23861
 20
0.16831
 30
0.0
 10
4.27493
 20
0.04222
 30
0.0
 10
4.27493
 20
0.04222
 30
0.0
 10
4.27493
 20
0.04222
 30
0.0
 10
4.28447
 20
-0.01716
 30
0.0
 10
4.25815
 20
-0.07601
 30
0.0
 10
4.2306
 20
-0.0954
 30
0.0
 10
4.2306
 20
-0.0954
 30
0.0
 10
4.12719
 20
-0.16277
 30
0.0
 10
4.03021
 20
-0.23908
 30
0.0
 10
3.90968
 20
-0.2835
 30
0.0
 10
3.90968
 20
-0.2835
 30
0.0
 10
3.87202
 20
-0.29382
 30
0.0
 10
3.83723
 20
-0.29556
 30
0.0
 10
3.80535
 20
-0.28875
 30
0.0
 10
3.80535
 20
-0.28875
 30
0.0
 10
3.77904
 20
-0.2789
 30
0.0
 10
3.76345
 20
-0.2848
 30
0.0
 10
3.75861
 20
-0.30646
 30
0.0
 10
3.75861
 20
-0.30646
 30
0.0
 10
3.73873
 20
-0.3567
 30
0.0
 10
3.7074
 20
-0.36398
 30
0.0
 10
3.66466
 20
-0.3283
 30
0.0
 10
3.66466
 20
-0.3283
 30
0.0
 10
3.6197
 20
-0.30325
 30
0.0
 10
3.6005
 20
-0.26101
 30
0.0
 10
3.60705
 20
-0.20162
 30
0.0
 10
3.60705
 20
-0.20162
 30
0.0
 10
3.60705
 20
-0.20162
 30
0.0
 10
3.6257
 20
-0.08621
 30
0.0
 10
3.6257
 20
-0.08621
 30
0.0
 10
3.6257
 20
-0.08621
 30
0.0
 10
3.63823
 20
-0.02885
 30
0.0
 10
3.67649
 20
0.0027
 30
0.0
 10
3.74052
 20
0.00847
 30
0.0
 10
3.74052
 20
0.00847
 30
0.0
 10
4.09422
 20
0.05337
 30
0.0
 10
3.89327
 20
0.61576
 30
0.0
 10
3.40631
 20
0.70143
 30
0.0
 10
3.40631
 20
0.70143
 30
0.0
 10
3.20802
 20
0.72913
 30
0.0
 10
2.97256
 20
0.83991
 30
0.0
 10
2.69995
 20
1.03377
 30
0.0
 10
2.69995
 20
1.03377
 30
0.0
 10
2.53629
 20
1.15613
 30
0.0
 10
2.3351
 20
1.22523
 30
0.0
 10
2.10284
 20
1.25019
 30
0.0
 10
2.10284
 20
1.25019
 30
0.0
 10
1.86495
 20
1.29322
 30
0.0
 10
1.6585
 20
1.39067
 30
0.0
 10
1.48353
 20
1.54254
 30
0.0
 10
1.48353
 20
1.54254
 30
0.0
 10
1.16027
 20
1.83512
 30
0.0
 10
1.33235
 20
2.30895
 30
0.0
 10
1.90193
 20
2.13744
 30
0.0
  0
SPLINE
  5
98
330
1F
100
AcDbEntity
  8
Layer 1
 62
    22
370
     5
100
AcDbSpline
210
0.0
220
0.0
230
1.0
 70
    11
 71
     3
 72
    20
 73
    16
 74
     0
 42
0.0000000001
 43
0.0000000001
 40
0.0
 40
0.0
 40
0.0
 40
0.0
 40
0.25
 40
0.25
 40
0.25
 40
0.25
 40
0.5
 40
0.5
 40
0.5
 40
0.5
 40
0.75
 40
0.75
 40
0.75
 40
0.75
 40
1.0
 40
1.0
 40
1.0
 40
1.0
 10
1.53762
 20
1.96185
 30
0.0
 10
1.53762
 20
1.96185
 30
0.0
 10
2.19812
 20
1.60521
 30
0.0
 10
2.19812
 20
1.60521
 30
0.0
 10
2.19812
 20
1.60521
 30
0.0
 10
2.19812
 20
1.60521
 30
0.0
 10
2.14879
 20
1.51926
 30
0.0
 10
2.14879
 20
1.51926
 30
0.0
 10
2.14879
 20
1.51926
 30
0.0
 10
2.14879
 20
1.51926
 30
0.0
 10
1.4883
 20
1.87806
 30
0.0
 10
1.4883
 20
1.87806
 30
0.0
 10
1.4883
 20
1.87806
 30
0.0
 10
1.4883
 20
1.87806
 30
0.0
 10
1.53762
 20
1.96185
 30
0.0
 10
1.53762
 20
1.96185
 30
0.0
  0
SPLINE
  5
99
330
1F
100
AcDbEntity
  8
Layer 1
 62
    22
370
     5
100
AcDbSpline
210
0.0
220
0.0
230
1.0
 70
    11
 71
     3
 72
    64
 73
    60
 74
     0
 42
0.0000000001
 43
0.0000000001
 40
0.0
 40
0.0
 40
0.0
 40
0.0
 40
0.0666666666666667
 40
0.0666666666666667
 40
0.0666666666666667
 40
0.0666666666666667
 40
0.1333333333333333
 40
0.1333333333333333
 40
0.1333333333333333
 40
0.1333333333333333
 40
0.2
 40
0.2
 40
0.2
 40
0.2
 40
0.2666666666666667
 40
0.2666666666666667
 40
0.2666666666666667
 40
0.2666666666666667
 40
0.3333333333333333
 40
0.3333333333333333
 40
0.3333333333333333
 40
0.3333333333333333
 40
0.4
 40
0.4
 40
0.4
 40
0.4
 40
0.4666666666666666
 40
0.4666666666666666
 40
0.4666666666666666
 40
0.4666666666666666
 40
0.5333333333333333
 40
0.5333333333333333
 40
0.5333333333333333
 40
0.5333333333333333
 40
0.6
 40
0.6
 40
0.6
 40
0.6
 40
0.6666666666666666
 40
0.6666666666666666
 40
0.6666666666666666
 40
0.6666666666666666
 40
0.7333333333333333
 40
0.7333333333333333
 40
0.7333333333333333
 40
0.7333333333333333
 40
0.7999999999999999
 40
0.7999999999999999
 40
0.7999999999999999
 40
0.7999999999999999
 40
0.8666666666666666
 40
0.8666666666666666
 40
0.8666666666666666
 40
0.8666666666666666
 40
0.9333333333333332
 40
0.9333333333333332
 40
0.9333333333333332
 40
0.9333333333333332
 40
1.0
 40
1.0
 40
1.0
 40
1.0
 10
1.34426
 20
1.12735
 30
0.0
 10
1.39408
 20
1.21642
 30
0.0
 10
1.50527
 20
1.24101
 30
0.0
 10
1.67235
 20
1.20688
 30
0.0
 10
1.67235
 20
1.20688
 30
0.0
 10
1.77554
 20
1.1846
 30
0.0
 10
1.95022
 20
1.09068
 30
0.0
 10
2.19643
 20
0.92513
 30
0.0
 10
2.19643
 20
0.92513
 30
0.0
 10
2.3109
 20
0.82673
 30
0.0
 10
2.4487
 20
0.75946
 30
0.0
 10
2.61465
 20
0.72978
 30
0.0
 10
2.61465
 20
0.72978
 30
0.0
 10
2.711
 20
0.71326
 30
0.0
 10
2.8086
 20
0.69173
 30
0.0
 10
2.91071
 20
0.65223
 30
0.0
 10
2.91071
 20
0.65223
 30
0.0
 10
3.0247
 20
0.62696
 30
0.0
 10
3.13871
 20
0.5759
 30
0.0
 10
3.25273
 20
0.49904
 30
0.0
 10
3.25273
 20
0.49904
 30
0.0
 10
3.25273
 20
0.49904
 30
0.0
 10
3.59483
 20
0.24447
 30
0.0
 10
3.59483
 20
0.24447
 30
0.0
 10
3.59483
 20
0.24447
 30
0.0
 10
3.64239
 20
0.16561
 30
0.0
 10
3.60133
 20
0.12973
 30
0.0
 10
3.47167
 20
0.1368
 30
0.0
 10
3.47167
 20
0.1368
 30
0.0
 10
3.3054
 20
0.17831
 30
0.0
 10
3.15414
 20
0.22533
 30
0.0
 10
3.05658
 20
0.2209
 30
0.0
 10
3.05658
 20
0.2209
 30
0.0
 10
2.90402
 20
0.26179
 30
0.0
 10
2.75146
 20
0.31914
 30
0.0
 10
2.59892
 20
0.40584
 30
0.0
 10
2.59892
 20
0.40584
 30
0.0
 10
2.49161
 20
0.49782
 30
0.0
 10
2.27028
 20
0.56123
 30
0.0
 10
1.91135
 20
0.59014
 30
0.0
 10
1.91135
 20
0.59014
 30
0.0
 10
1.65748
 20
0.64438
 30
0.0
 10
1.48674
 20
0.70819
 30
0.0
 10
1.40732
 20
0.78246
 30
0.0
 10
1.40732
 20
0.78246
 30
0.0
 10
1.26982
 20
0.90093
 30
0.0
 10
1.2206
 20
0.99262
 30
0.0
 10
1.30043
 20
1.04516
 30
0.0
 10
1.30043
 20
1.04516
 30
0.0
 10
1.30043
 20
1.04516
 30
0.0
 10
1.65005
 20
0.88516
 30
0.0
 10
1.65005
 20
0.88516
 30
0.0
 10
1.65005
 20
0.88516
 30
0.0
 10
1.65005
 20
0.88516
 30
0.0
 10
1.68857
 20
0.96182
 30
0.0
 10
1.68857
 20
0.96182
 30
0.0
 10
1.68857
 20
0.96182
 30
0.0
 10
1.68857
 20
0.96182
 30
0.0
 10
1.34426
 20
1.12735
 30
0.0
 10
1.34426
 20
1.12735
 30
0.0
  0
SPLINE
  5
9A
330
1F
100
AcDbEntity
  8
Layer 1
 62
    22
370
     5
100
AcDbSpline
210
0.0
220
0.0
230
1.0
 70
    11
 71
     3
 72
    84
 73
    80
 74
     0
 42
0.0000000001
 43
0.0000000001
 40
0.0
 40
0.0
 40
0.0
 40
0.0
 40
0.05
 40
0.05
 40
0.05
 40
0.05
 40
0.1
 40
0.1
 40
0.1
 40
0.1
 40
0.15
 40
0.15
 40
0.15
 40
0.15
 40
0.2
 40
0.2
 40
0.2
 40
0.2
 40
0.25
 40
0.25
 40
0.25
 40
0.25
 40
0.3
 40
0.3
 40
0.3
 40
0.3
 40
0.35
 40
0.35
 40
0.35
 40
0.35
 40
0.4
 40
0.4
 40
0.4
 40
0.4
 40
0.45
 40
0.45
 40
0.45
 40
0.45
 40
0.4999999999999999
 40
0.4999999999999999
 40
0.4999999999999999
 40
0.4999999999999999
 40
0.5499999999999999
 40
0.5499999999999999
 40
0.5499999999999999
 40
0.5499999999999999
 40
0.6
 40
0.6
 40
0.6
 40
0.6
 40
0.65
 40
0.65
 40
0.65
 40
0.65
 40
0.7000000000000001
 40
0.7000000000000001
 40
0.7000000000000001
 40
0.7000000000000001
 40
0.7500000000000001
 40
0.7500000000000001
 40
0.7500000000000001
 40
0.7500000000000001
 40
0.8000000000000002
 40
0.8000000000000002
 40
0.8000000000000002
 40
0.8000000000000002
 40
0.8500000000000002
 40
0.8500000000000002
 40
0.8500000000000002
 40
0.8500000000000002
 40
0.9000000000000002
 40
0.9000000000000002
 40
0.9000000000000002
 40
0.9000000000000002
 40
0.9500000000000003
 40
0.9500000000000003
 40
0.9500000000000003
 40
0.9500000000000003
 40
1.0
 40
1.0
 40
1.0
 40
1.0
 10
1.66383
 20
0.27546
 30
0.0
 10
1.66383
 20
0.27546
 30
0.0
 10
2.40881
 20
0.25855
 30
0.0
 10
2.40881
 20
0.25855
 30
0.0
 10
2.40881
 20
0.25855
 30
0.0
 10
2.7138
 20
0.19012
 30
0.0
 10
2.93729
 20
0.07729
 30
0.0
 10
2.94419
 20
0.00382
 30
0.0
 10
2.94419
 20
0.00382
 30
0.0
 10
2.96638
 20
-0.03104
 30
0.0
 10
2.99716
 20
-0.05159
 30
0.0
 10
3.03655
 20
-0.05785
 30
0.0
 10
3.03655
 20
-0.05785
 30
0.0
 10
3.03655
 20
-0.05785
 30
0.0
 10
3.10919
 20
-0.05539
 30
0.0
 10
3.10919
 20
-0.05539
 30
0.0
 10
3.10919
 20
-0.05539
 30
0.0
 10
3.3435
 20
-0.11199
 30
0.0
 10
3.46057
 20
-0.21155
 30
0.0
 10
3.46043
 20
-0.35407
 30
0.0
 10
3.46043
 20
-0.35407
 30
0.0
 10
3.46043
 20
-0.35407
 30
0.0
 10
3.48507
 20
-0.53473
 30
0.0
 10
3.48507
 20
-0.53473
 30
0.0
 10
3.48507
 20
-0.53473
 30
0.0
 10
3.43969
 20
-0.65239
 30
0.0
 10
3.35944
 20
-0.70256
 30
0.0
 10
3.2283
 20
-0.65409
 30
0.0
 10
3.2283
 20
-0.65409
 30
0.0
 10
3.2283
 20
-0.65409
 30
0.0
 10
2.94747
 20
-0.55694
 30
0.0
 10
2.94747
 20
-0.55694
 30
0.0
 10
2.94747
 20
-0.55694
 30
0.0
 10
2.86954
 20
-0.52606
 30
0.0
 10
2.80589
 20
-0.52098
 30
0.0
 10
2.75655
 20
-0.54169
 30
0.0
 10
2.75655
 20
-0.54169
 30
0.0
 10
2.57172
 20
-0.56003
 30
0.0
 10
2.46122
 20
-0.6013
 30
0.0
 10
2.42509
 20
-0.66551
 30
0.0
 10
2.42509
 20
-0.66551
 30
0.0
 10
2.35564
 20
-0.77818
 30
0.0
 10
2.30907
 20
-0.88227
 30
0.0
 10
2.28542
 20
-0.97778
 30
0.0
 10
2.28542
 20
-0.97778
 30
0.0
 10
2.27298
 20
-1.15116
 30
0.0
 10
2.28464
 20
-1.26429
 30
0.0
 10
2.30654
 20
-1.32313
 30
0.0
 10
2.30654
 20
-1.32313
 30
0.0
 10
2.30654
 20
-1.32313
 30
0.0
 10
2.35005
 20
-1.38172
 30
0.0
 10
2.35005
 20
-1.38172
 30
0.0
 10
2.35005
 20
-1.38172
 30
0.0
 10
2.39211
 20
-1.48159
 30
0.0
 10
2.32963
 20
-1.53026
 30
0.0
 10
2.11437
 20
-1.50413
 30
0.0
 10
2.11437
 20
-1.50413
 30
0.0
 10
1.98169
 20
-1.46314
 30
0.0
 10
1.90012
 20
-1.4012
 30
0.0
 10
1.89329
 20
-1.30867
 30
0.0
 10
1.89329
 20
-1.30867
 30
0.0
 10
1.82174
 20
-1.05227
 30
0.0
 10
1.65298
 20
-0.85602
 30
0.0
 10
1.38702
 20
-0.71996
 30
0.0
 10
1.38702
 20
-0.71996
 30
0.0
 10
1.27883
 20
-0.68276
 30
0.0
 10
1.29072
 20
-0.60258
 30
0.0
 10
1.42273
 20
-0.47945
 30
0.0
 10
1.42273
 20
-0.47945
 30
0.0
 10
1.50405
 20
-0.40429
 30
0.0
 10
1.54821
 20
-0.33199
 30
0.0
 10
1.5552
 20
-0.26258
 30
0.0
 10
1.5552
 20
-0.26258
 30
0.0
 10
1.56037
 20
-0.10838
 30
0.0
 10
1.57488
 20
0.02677
 30
0.0
 10
1.54563
 20
0.11216
 30
0.0
 10
1.54563
 20
0.11216
 30
0.0
 10
1.50211
 20
0.24109
 30
0.0
 10
1.54151
 20
0.29552
 30
0.0
 10
1.66383
 20
0.27546
 30
0.0
  0
SPLINE
  5
9B
330
1F
100
AcDbEntity
  8
Layer 1
 62
    22
370
     5
100
AcDbSpline
210
0.0
220
0.0
230
1.0
 70
    11
 71
     3
 72
    20
 73
    16
 74
     0
 42
0.0000000001
 43
0.0000000001
 40
0.0
 40
0.0
 40
0.0
 40
0.0
 40
0.25
 40
0.25
 40
0.25
 40
0.25
 40
0.5
 40
0.5
 40
0.5
 40
0.5
 40
0.75
 40
0.75
 40
0.75
 40
0.75
 40
1.0
 40
1.0
 40
1.0
 40
1.0
 10
2.36109
 20
-0.16726
 30
0.0
 10
2.36109
 20
-0.16726
 30
0.0
 10
2.43829
 20
-0.22956
 30
0.0
 10
2.43829
 20
-0.22956
 30
0.0
 10
2.43829
 20
-0.22956
 30
0.0
 10
2.43829
 20
-0.22956
 30
0.0
 10
1.89146
 20
-0.76452
 30
0.0
 10
1.89146
 20
-0.76452
 30
0.0
 10
1.89146
 20
-0.76452
 30
0.0
 10
1.89146
 20
-0.76452
 30
0.0
 10
1.82711
 20
-0.70007
 30
0.0
 10
1.82711
 20
-0.70007
 30
0.0
 10
1.82711
 20
-0.70007
 30
0.0
 10
1.82711
 20
-0.70007
 30
0.0
 10
2.36109
 20
-0.16726
 30
0.0
 10
2.36109
 20
-0.16726
 30
0.0
  0
SPLINE
  5
9C
330
1F
100
AcDbEntity
  8
Layer 1
 62
    22
370
     5
100
AcDbSpline
210
0.0
220
0.0
230
1.0
 70
    11
 71
     3
 72
   112
 73
   108
 74
     0
 42
0.0000000001
 43
0.0000000001
 40
0.0
 40
0.0
 40
0.0
 40
0.0
 40
0.037037037037037
 40
0.037037037037037
 40
0.037037037037037
 40
0.037037037037037
 40
0.0740740740740741
 40
0.0740740740740741
 40
0.0740740740740741
 40
0.0740740740740741
 40
0.1111111111111111
 40
0.1111111111111111
 40
0.1111111111111111
 40
0.1111111111111111
 40
0.1481481481481481
 40
0.1481481481481481
 40
0.1481481481481481
 40
0.1481481481481481
 40
0.1851851851851852
 40
0.1851851851851852
 40
0.1851851851851852
 40
0.1851851851851852
 40
0.2222222222222222
 40
0.2222222222222222
 40
0.2222222222222222
 40
0.2222222222222222
 40
0.2592592592592592
 40
0.2592592592592592
 40
0.2592592592592592
 40
0.2592592592592592
 40
0.2962962962962963
 40
0.2962962962962963
 40
0.2962962962962963
 40
0.2962962962962963
 40
0.3333333333333333
 40
0.3333333333333333
 40
0.3333333333333333
 40
0.3333333333333333
 40
0.3703703703703703
 40
0.3703703703703703
 40
0.3703703703703703
 40
0.3703703703703703
 40
0.4074074074074074
 40
0.4074074074074074
 40
0.4074074074074074
 40
0.4074074074074074
 40
0.4444444444444444
 40
0.4444444444444444
 40
0.4444444444444444
 40
0.4444444444444444
 40
0.4814814814814815
 40
0.4814814814814815
 40
0.4814814814814815
 40
0.4814814814814815
 40
0.5185185185185185
 40
0.5185185185185185
 40
0.5185185185185185
 40
0.5185185185185185
 40
0.5555555555555556
 40
0.5555555555555556
 40
0.5555555555555556
 40
0.5555555555555556
 40
0.5925925925925926
 40
0.5925925925925926
 40
0.5925925925925926
 40
0.5925925925925926
 40
0.6296296296296295
 40
0.6296296296296295
 40
0.6296296296296295
 40
0.6296296296296295
 40
0.6666666666666665
 40
0.6666666666666665
 40
0.6666666666666665
 40
0.6666666666666665
 40
0.7037037037037035
 40
0.7037037037037035
 40
0.7037037037037035
 40
0.7037037037037035
 40
0.7407407407407405
 40
0.7407407407407405
 40
0.7407407407407405
 40
0.7407407407407405
 40
0.7777777777777775
 40
0.7777777777777775
 40
0.7777777777777775
 40
0.7777777777777775
 40
0.8148148148148144
 40
0.8148148148148144
 40
0.8148148148148144
 40
0.8148148148148144
 40
0.8518518518518514
 40
0.8518518518518514
 40
0.8518518518518514
 40
0.8518518518518514
 40
0.8888888888888884
 40
0.8888888888888884
 40
0.8888888888888884
 40
0.8888888888888884
 40
0.9259259259259254
 40
0.9259259259259254
 40
0.9259259259259254
 40
0.9259259259259254
 40
0.9629629629629624
 40
0.9629629629629624
 40
0.9629629629629624
 40
0.9629629629629624
 40
1.0
 40
1.0
 40
1.0
 40
1.0
 10
9.60095
 20
0.35151
 30
0.0
 10
9.58033
 20
0.41079
 30
0.0
 10
9.55037
 20
0.49993
 30
0.0
 10
9.50418
 20
0.55837
 30
0.0
 10
9.50418
 20
0.55837
 30
0.0
 10
9.41971
 20
0.63583
 30
0.0
 10
9.35698
 20
0.74076
 30
0.0
 10
9.30641
 20
0.86113
 30
0.0
 10
9.30641
 20
0.86113
 30
0.0
 10
9.30641
 20
0.86113
 30
0.0
 10
9.29835
 20
0.94913
 30
0.0
 10
9.29835
 20
0.94913
 30
0.0
 10
9.29835
 20
0.94913
 30
0.0
 10
9.28762
 20
1.0131
 30
0.0
 10
9.27232
 20
1.06236
 30
0.0
 10
9.25243
 20
1.09695
 30
0.0
 10
9.25243
 20
1.09695
 30
0.0
 10
9.25362
 20
1.15514
 30
0.0
 10
9.11758
 20
1.2864
 30
0.0
 10
9.11758
 20
1.2864
 30
0.0
 10
9.11758
 20
1.2864
 30
0.0
 10
9.11758
 20
1.2864
 30
0.0
 10
8.96163
 20
1.12221
 30
0.0
 10
8.96163
 20
1.12221
 30
0.0
 10
8.96163
 20
1.12221
 30
0.0
 10
8.96163
 20
1.12221
 30
0.0
 10
8.88925
 20
1.19269
 30
0.0
 10
8.88925
 20
1.19269
 30
0.0
 10
8.88925
 20
1.19269
 30
0.0
 10
8.88925
 20
1.19269
 30
0.0
 10
9.03102
 20
1.35695
 30
0.0
 10
9.03102
 20
1.35695
 30
0.0
 10
9.03102
 20
1.35695
 30
0.0
 10
9.03102
 20
1.35695
 30
0.0
 10
9.00902
 20
1.37608
 30
0.0
 10
8.9848
 20
1.39725
 30
0.0
 10
8.9848
 20
1.39725
 30
0.0
 10
8.83044
 20
1.53916
 30
0.0
 10
8.72797
 20
1.64304
 30
0.0
 10
8.70121
 20
1.62586
 30
0.0
 10
8.70121
 20
1.62586
 30
0.0
 10
8.70121
 20
1.62586
 30
0.0
 10
8.29407
 20
1.58463
 30
0.0
 10
8.29407
 20
1.58463
 30
0.0
 10
8.29407
 20
1.58463
 30
0.0
 10
8.15196
 20
1.69579
 30
0.0
 10
8.04914
 20
1.76191
 30
0.0
 10
8.01887
 20
1.76724
 30
0.0
 10
8.01887
 20
1.76724
 30
0.0
 10
7.9309
 20
1.79282
 30
0.0
 10
7.93085
 20
1.75589
 30
0.0
 10
7.91453
 20
1.67532
 30
0.0
 10
7.91453
 20
1.67532
 30
0.0
 10
7.92452
 20
1.58445
 30
0.0
 10
7.92442
 20
1.54765
 30
0.0
 10
7.88083
 20
1.46388
 30
0.0
 10
7.88083
 20
1.46388
 30
0.0
 10
7.88083
 20
1.46388
 30
0.0
 10
7.89275
 20
1.35528
 30
0.0
 10
7.89275
 20
1.35528
 30
0.0
 10
7.89275
 20
1.35528
 30
0.0
 10
7.90671
 20
1.25988
 30
0.0
 10
7.95959
 20
1.20835
 30
0.0
 10
8.04473
 20
1.19321
 30
0.0
 10
8.04473
 20
1.19321
 30
0.0
 10
8.11426
 20
1.17365
 30
0.0
 10
8.15531
 20
1.13318
 30
0.0
 10
8.16781
 20
1.07183
 30
0.0
 10
8.16781
 20
1.07183
 30
0.0
 10
8.16781
 20
1.07183
 30
0.0
 10
8.17874
 20
0.9173
 30
0.0
 10
8.17874
 20
0.9173
 30
0.0
 10
8.17874
 20
0.9173
 30
0.0
 10
8.18566
 20
0.79669
 30
0.0
 10
8.16051
 20
0.71799
 30
0.0
 10
8.10326
 20
0.68123
 30
0.0
 10
8.10326
 20
0.68123
 30
0.0
 10
8.04986
 20
0.67802
 30
0.0
 10
7.9938
 20
0.68764
 30
0.0
 10
7.93054
 20
0.68152
 30
0.0
 10
7.93054
 20
0.68152
 30
0.0
 10
7.88069
 20
0.67673
 30
0.0
 10
7.88735
 20
0.59514
 30
0.0
 10
7.92175
 20
0.53554
 30
0.0
 10
7.92175
 20
0.53554
 30
0.0
 10
7.9703
 20
0.45131
 30
0.0
 10
7.98897
 20
0.45125
 30
0.0
 10
8.03114
 20
0.44689
 30
0.0
 10
8.03114
 20
0.44689
 30
0.0
 10
8.12582
 20
0.4732
 30
0.0
 10
8.20483
 20
0.42672
 30
0.0
 10
8.22282
 20
0.41001
 30
0.0
 10
8.22282
 20
0.41001
 30
0.0
 10
8.32497
 20
0.32264
 30
0.0
 10
8.36095
 20
0.30852
 30
0.0
 10
8.4332
 20
0.30771
 30
0.0
 10
8.4332
 20
0.30771
 30
0.0
 10
8.48425
 20
0.31797
 30
0.0
 10
8.57939
 20
0.23578
 30
0.0
 10
8.6113
 20
0.16136
 30
0.0
 10
8.6113
 20
0.16136
 30
0.0
 10
8.6113
 20
0.16136
 30
0.0
 10
8.64139
 20
-0.09537
 30
0.0
 10
8.64139
 20
-0.09537
 30
0.0
 10
8.64139
 20
-0.09537
 30
0.0
 10
8.64139
 20
-0.09537
 30
0.0
 10
9.60095
 20
0.35151
 30
0.0
 10
9.60095
 20
0.35151
 30
0.0
  0
SPLINE
  5
9D
330
1F
100
AcDbEntity
  8
Layer 1
 62
    22
370
     5
100
AcDbSpline
210
0.0
220
0.0
230
1.0
 70
    11
 71
     3
 72
    20
 73
    16
 74
     0
 42
0.0000000001
 43
0.0000000001
 40
0.0
 40
0.0
 40
0.0
 40
0.0
 40
0.25
 40
0.25
 40
0.25
 40
0.25
 40
0.5
 40
0.5
 40
0.5
 40
0.5
 40
0.75
 40
0.75
 40
0.75
 40
0.75
 40
1.0
 40
1.0
 40
1.0
 40
1.0
 10
8.75038
 20
0.67087
 30
0.0
 10
8.75038
 20
0.67087
 30
0.0
 10
8.94075
 20
0.3135
 30
0.0
 10
8.94075
 20
0.3135
 30
0.0
 10
8.94075
 20
0.3135
 30
0.0
 10
8.94075
 20
0.3135
 30
0.0
 10
9.05544
 20
0.38722
 30
0.0
 10
9.05544
 20
0.38722
 30
0.0
 10
9.05544
 20
0.38722
 30
0.0
 10
9.05544
 20
0.38722
 30
0.0
 10
8.8658
 20
0.7362
 30
0.0
 10
8.8658
 20
0.7362
 30
0.0
 10
8.8658
 20
0.7362
 30
0.0
 10
8.8658
 20
0.7362
 30
0.0
 10
8.75038
 20
0.67087
 30
0.0
 10
8.75038
 20
0.67087
 30
0.0
  0
SPLINE
  5
9E
330
1F
100
AcDbEntity
  8
Layer 1
 62
    22
370
     5
100
AcDbSpline
210
0.0
220
0.0
230
1.0
 70
    11
 71
     3
 72
    64
 73
    60
 74
     0
 42
0.0000000001
 43
0.0000000001
 40
0.0
 40
0.0
 40
0.0
 40
0.0
 40
0.0666666666666667
 40
0.0666666666666667
 40
0.0666666666666667
 40
0.0666666666666667
 40
0.1333333333333333
 40
0.1333333333333333
 40
0.1333333333333333
 40
0.1333333333333333
 40
0.2
 40
0.2
 40
0.2
 40
0.2
 40
0.2666666666666667
 40
0.2666666666666667
 40
0.2666666666666667
 40
0.2666666666666667
 40
0.3333333333333333
 40
0.3333333333333333
 40
0.3333333333333333
 40
0.3333333333333333
 40
0.4
 40
0.4
 40
0.4
 40
0.4
 40
0.4666666666666666
 40
0.4666666666666666
 40
0.4666666666666666
 40
0.4666666666666666
 40
0.5333333333333333
 40
0.5333333333333333
 40
0.5333333333333333
 40
0.5333333333333333
 40
0.6
 40
0.6
 40
0.6
 40
0.6
 40
0.6666666666666666
 40
0.6666666666666666
 40
0.6666666666666666
 40
0.6666666666666666
 40
0.7333333333333333
 40
0.7333333333333333
 40
0.7333333333333333
 40
0.7333333333333333
 40
0.7999999999999999
 40
0.7999999999999999
 40
0.7999999999999999
 40
0.7999999999999999
 40
0.8666666666666666
 40
0.8666666666666666
 40
0.8666666666666666
 40
0.8666666666666666
 40
0.9333333333333332
 40
0.9333333333333332
 40
0.9333333333333332
 40
0.9333333333333332
 40
1.0
 40
1.0
 40
1.0
 40
1.0
 10
6.26013
 20
0.90276
 30
0.0
 10
6.27697
 20
0.8312
 30
0.0
 10
6.3108
 20
0.78346
 30
0.0
 10
6.35626
 20
0.75197
 30
0.0
 10
6.35626
 20
0.75197
 30
0.0
 10
6.38998
 20
0.72656
 30
0.0
 10
6.43577
 20
0.68251
 30
0.0
 10
6.50099
 20
0.60835
 30
0.0
 10
6.50099
 20
0.60835
 30
0.0
 10
6.81525
 20
0.50349
 30
0.0
 10
7.24197
 20
0.53707
 30
0.0
 10
7.41826
 20
0.76445
 30
0.0
 10
7.41826
 20
0.76445
 30
0.0
 10
7.5014
 20
0.83496
 30
0.0
 10
7.65207
 20
0.78309
 30
0.0
 10
7.61942
 20
0.59325
 30
0.0
 10
7.61942
 20
0.59325
 30
0.0
 10
7.61942
 20
0.59325
 30
0.0
 10
7.58236
 20
0.47227
 30
0.0
 10
7.58236
 20
0.47227
 30
0.0
 10
7.58236
 20
0.47227
 30
0.0
 10
7.56666
 20
0.35065
 30
0.0
 10
7.57302
 20
0.23752
 30
0.0
 10
7.59448
 20
0.13019
 30
0.0
 10
7.59448
 20
0.13019
 30
0.0
 10
7.614
 20
0.03593
 30
0.0
 10
7.5877
 20
-0.01241
 30
0.0
 10
7.53005
 20
-0.02938
 30
0.0
 10
7.53005
 20
-0.02938
 30
0.0
 10
7.29291
 20
-0.02029
 30
0.0
 10
7.17871
 20
-0.09082
 30
0.0
 10
7.06847
 20
-0.23212
 30
0.0
 10
7.06847
 20
-0.23212
 30
0.0
 10
6.95933
 20
-0.35407
 30
0.0
 10
6.86214
 20
-0.38758
 30
0.0
 10
6.77587
 20
-0.34056
 30
0.0
 10
6.77587
 20
-0.34056
 30
0.0
 10
6.69159
 20
-0.27371
 30
0.0
 10
6.59704
 20
-0.21098
 30
0.0
 10
6.48423
 20
-0.15566
 30
0.0
 10
6.48423
 20
-0.15566
 30
0.0
 10
6.34354
 20
-0.00682
 30
0.0
 10
6.23136
 20
0.16018
 30
0.0
 10
6.15359
 20
0.3491
 30
0.0
 10
6.15359
 20
0.3491
 30
0.0
 10
6.15359
 20
0.3491
 30
0.0
 10
6.14068
 20
0.49074
 30
0.0
 10
6.14068
 20
0.49074
 30
0.0
 10
6.14068
 20
0.49074
 30
0.0
 10
6.13347
 20
0.53795
 30
0.0
 10
6.12088
 20
0.57709
 30
0.0
 10
6.09658
 20
0.59847
 30
0.0
 10
6.09658
 20
0.59847
 30
0.0
 10
6.03549
 20
0.65912
 30
0.0
 10
5.9904
 20
0.7333
 30
0.0
 10
5.96652
 20
0.82541
 30
0.0
 10
5.96652
 20
0.82541
 30
0.0
 10
5.92179
 20
1.03024
 30
0.0
 10
6.22766
 20
1.07536
 30
0.0
 10
6.26013
 20
0.90276
 30
0.0
  0
SPLINE
  5
9F
330
1F
100
AcDbEntity
  8
Layer 1
 62
    22
370
     5
100
AcDbSpline
210
0.0
220
0.0
230
1.0
 70
    11
 71
     3
 72
    20
 73
    16
 74
     0
 42
0.0000000001
 43
0.0000000001
 40
0.0
 40
0.0
 40
0.0
 40
0.0
 40
0.25
 40
0.25
 40
0.25
 40
0.25
 40
0.5
 40
0.5
 40
0.5
 40
0.5
 40
0.75
 40
0.75
 40
0.75
 40
0.75
 40
1.0
 40
1.0
 40
1.0
 40
1.0
 10
6.6104
 20
0.34036
 30
0.0
 10
6.6104
 20
0.34036
 30
0.0
 10
7.43066
 20
0.34573
 30
0.0
 10
7.43066
 20
0.34573
 30
0.0
 10
7.43066
 20
0.34573
 30
0.0
 10
7.43066
 20
0.34573
 30
0.0
 10
7.42959
 20
0.23831
 30
0.0
 10
7.42959
 20
0.23831
 30
0.0
 10
7.42959
 20
0.23831
 30
0.0
 10
7.42959
 20
0.23831
 30
0.0
 10
6.60826
 20
0.24582
 30
0.0
 10
6.60826
 20
0.24582
 30
0.0
 10
6.60826
 20
0.24582
 30
0.0
 10
6.60826
 20
0.24582
 30
0.0
 10
6.6104
 20
0.34036
 30
0.0
 10
6.6104
 20
0.34036
 30
0.0
  0
SPLINE
  5
A0
330
1F
100
AcDbEntity
  8
Layer 1
 62
    22
370
     5
100
AcDbSpline
210
0.0
220
0.0
230
1.0
 70
    11
 71
     3
 72
    56
 73
    52
 74
     0
 42
0.0000000001
 43
0.0000000001
 40
0.0
 40
0.0
 40
0.0
 40
0.0
 40
0.0769230769230769
 40
0.0769230769230769
 40
0.0769230769230769
 40
0.0769230769230769
 40
0.1538461538461539
 40
0.1538461538461539
 40
0.1538461538461539
 40
0.1538461538461539
 40
0.2307692307692308
 40
0.2307692307692308
 40
0.2307692307692308
 40
0.2307692307692308
 40
0.3076923076923077
 40
0.3076923076923077
 40
0.3076923076923077
 40
0.3076923076923077
 40
0.3846153846153846
 40
0.3846153846153846
 40
0.3846153846153846
 40
0.3846153846153846
 40
0.4615384615384616
 40
0.4615384615384616
 40
0.4615384615384616
 40
0.4615384615384616
 40
0.5384615384615385
 40
0.5384615384615385
 40
0.5384615384615385
 40
0.5384615384615385
 40
0.6153846153846154
 40
0.6153846153846154
 40
0.6153846153846154
 40
0.6153846153846154
 40
0.6923076923076923
 40
0.6923076923076923
 40
0.6923076923076923
 40
0.6923076923076923
 40
0.7692307692307692
 40
0.7692307692307692
 40
0.7692307692307692
 40
0.7692307692307692
 40
0.846153846153846
 40
0.846153846153846
 40
0.846153846153846
 40
0.846153846153846
 40
0.9230769230769229
 40
0.9230769230769229
 40
0.9230769230769229
 40
0.9230769230769229
 40
1.0
 40
1.0
 40
1.0
 40
1.0
 10
4.64804
 20
0.04188
 30
0.0
 10
4.72211
 20
0.093
 30
0.0
 10
4.82333
 20
0.12031
 30
0.0
 10
4.94315
 20
0.1313
 30
0.0
 10
4.94315
 20
0.1313
 30
0.0
 10
5.20143
 20
0.13932
 30
0.0
 10
5.45346
 20
0.11601
 30
0.0
 10
5.70033
 20
0.06674
 30
0.0
 10
5.70033
 20
0.06674
 30
0.0
 10
5.94137
 20
-0.00014
 30
0.0
 10
6.14804
 20
-0.0921
 30
0.0
 10
6.32622
 20
-0.20483
 30
0.0
 10
6.32622
 20
-0.20483
 30
0.0
 10
6.41488
 20
-0.24174
 30
0.0
 10
6.4594
 20
-0.37876
 30
0.0
 10
6.43944
 20
-0.66205
 30
0.0
 10
6.43944
 20
-0.66205
 30
0.0
 10
6.43944
 20
-0.66205
 30
0.0
 10
6.27267
 20
-1.06322
 30
0.0
 10
6.27267
 20
-1.06322
 30
0.0
 10
6.27267
 20
-1.06322
 30
0.0
 10
6.2033
 20
-1.15977
 30
0.0
 10
6.1368
 20
-1.16465
 30
0.0
 10
6.07318
 20
-1.0779
 30
0.0
 10
6.07318
 20
-1.0779
 30
0.0
 10
6.07318
 20
-1.0779
 30
0.0
 10
6.07832
 20
-0.90188
 30
0.0
 10
6.07832
 20
-0.90188
 30
0.0
 10
6.07832
 20
-0.90188
 30
0.0
 10
6.05309
 20
-0.79596
 30
0.0
 10
5.99926
 20
-0.70725
 30
0.0
 10
5.91685
 20
-0.63576
 30
0.0
 10
5.91685
 20
-0.63576
 30
0.0
 10
5.79788
 20
-0.59082
 30
0.0
 10
5.66533
 20
-0.58331
 30
0.0
 10
5.52349
 20
-0.60142
 30
0.0
 10
5.52349
 20
-0.60142
 30
0.0
 10
5.33535
 20
-0.65191
 30
0.0
 10
5.15328
 20
-0.69326
 30
0.0
 10
4.98808
 20
-0.7094
 30
0.0
 10
4.98808
 20
-0.7094
 30
0.0
 10
4.91098
 20
-0.73103
 30
0.0
 10
4.85087
 20
-0.72545
 30
0.0
 10
4.8024
 20
-0.70126
 30
0.0
 10
4.8024
 20
-0.70126
 30
0.0
 10
4.68764
 20
-0.63222
 30
0.0
 10
4.60418
 20
-0.53814
 30
0.0
 10
4.54664
 20
-0.4233
 30
0.0
 10
4.54664
 20
-0.4233
 30
0.0
 10
4.50147
 20
-0.17387
 30
0.0
 10
4.54454
 20
-0.0299
 30
0.0
 10
4.64804
 20
0.04188
 30
0.0
  0
SPLINE
  5
A1
330
1F
100
AcDbEntity
  8
Layer 1
 62
    22
370
     5
100
AcDbSpline
210
0.0
220
0.0
230
1.0
 70
    11
 71
     3
 72
    20
 73
    16
 74
     0
 42
0.0000000001
 43
0.0000000001
 40
0.0
 40
0.0
 40
0.0
 40
0.0
 40
0.25
 40
0.25
 40
0.25
 40
0.25
 40
0.5
 40
0.5
 40
0.5
 40
0.5
 40
0.75
 40
0.75
 40
0.75
 40
0.75
 40
1.0
 40
1.0
 40
1.0
 40
1.0
 10
4.74579
 20
-0.20641
 30
0.0
 10
4.74579
 20
-0.20641
 30
0.0
 10
5.57999
 20
-0.20641
 30
0.0
 10
5.57999
 20
-0.20641
 30
0.0
 10
5.57999
 20
-0.20641
 30
0.0
 10
5.57999
 20
-0.20641
 30
0.0
 10
5.57999
 20
-0.29665
 30
0.0
 10
5.57999
 20
-0.29665
 30
0.0
 10
5.57999
 20
-0.29665
 30
0.0
 10
5.57999
 20
-0.29665
 30
0.0
 10
4.74579
 20
-0.29665
 30
0.0
 10
4.74579
 20
-0.29665
 30
0.0
 10
4.74579
 20
-0.29665
 30
0.0
 10
4.74579
 20
-0.29665
 30
0.0
 10
4.74579
 20
-0.20641
 30
0.0
 10
4.74579
 20
-0.20641
 30
0.0
  0
SPLINE
  5
A2
330
1F
100
AcDbEntity
  8
Layer 1
 62
    22
370
     5
100
AcDbSpline
210
0.0
220
0.0
230
1.0
 70
    11
 71
     3
 72
   112
 73
   108
 74
     0
 42
0.0000000001
 43
0.0000000001
 40
0.0
 40
0.0
 40
0.0
 40
0.0
 40
0.037037037037037
 40
0.037037037037037
 40
0.037037037037037
 40
0.037037037037037
 40
0.0740740740740741
 40
0.0740740740740741
 40
0.0740740740740741
 40
0.0740740740740741
 40
0.1111111111111111
 40
0.1111111111111111
 40
0.1111111111111111
 40
0.1111111111111111
 40
0.1481481481481481
 40
0.1481481481481481
 40
0.1481481481481481
 40
0.1481481481481481
 40
0.1851851851851852
 40
0.1851851851851852
 40
0.1851851851851852
 40
0.1851851851851852
 40
0.2222222222222222
 40
0.2222222222222222
 40
0.2222222222222222
 40
0.2222222222222222
 40
0.2592592592592592
 40
0.2592592592592592
 40
0.2592592592592592
 40
0.2592592592592592
 40
0.2962962962962963
 40
0.2962962962962963
 40
0.2962962962962963
 40
0.2962962962962963
 40
0.3333333333333333
 40
0.3333333333333333
 40
0.3333333333333333
 40
0.3333333333333333
 40
0.3703703703703703
 40
0.3703703703703703
 40
0.3703703703703703
 40
0.3703703703703703
 40
0.4074074074074074
 40
0.4074074074074074
 40
0.4074074074074074
 40
0.4074074074074074
 40
0.4444444444444444
 40
0.4444444444444444
 40
0.4444444444444444
 40
0.4444444444444444
 40
0.4814814814814815
 40
0.4814814814814815
 40
0.4814814814814815
 40
0.4814814814814815
 40
0.5185185185185185
 40
0.5185185185185185
 40
0.5185185185185185
 40
0.5185185185185185
 40
0.5555555555555556
 40
0.5555555555555556
 40
0.5555555555555556
 40
0.5555555555555556
 40
0.5925925925925926
 40
0.5925925925925926
 40
0.5925925925925926
 40
0.5925925925925926
 40
0.6296296296296295
 40
0.6296296296296295
 40
0.6296296296296295
 40
0.6296296296296295
 40
0.6666666666666665
 40
0.6666666666666665
 40
0.6666666666666665
 40
0.6666666666666665
 40
0.7037037037037035
 40
0.7037037037037035
 40
0.7037037037037035
 40
0.7037037037037035
 40
0.7407407407407405
 40
0.7407407407407405
 40
0.7407407407407405
 40
0.7407407407407405
 40
0.7777777777777775
 40
0.7777777777777775
 40
0.7777777777777775
 40
0.7777777777777775
 40
0.8148148148148144
 40
0.8148148148148144
 40
0.8148148148148144
 40
0.8148148148148144
 40
0.8518518518518514
 40
0.8518518518518514
 40
0.8518518518518514
 40
0.8518518518518514
 40
0.8888888888888884
 40
0.8888888888888884
 40
0.8888888888888884
 40
0.8888888888888884
 40
0.9259259259259254
 40
0.9259259259259254
 40
0.9259259259259254
 40
0.9259259259259254
 40
0.9629629629629624
 40
0.9629629629629624
 40
0.9629629629629624
 40
0.9629629629629624
 40
1.0
 40
1.0
 40
1.0
 40
1.0
 10
8.67054
 20
1.74388
 30
0.0
 10
8.8385
 20
1.822
 30
0.0
 10
9.19006
 20
1.97715
 30
0.0
 10
9.4134
 20
2.08974
 30
0.0
 10
9.4134
 20
2.08974
 30
0.0
 10
9.48403
 20
2.11093
 30
0.0
 10
9.47973
 20
2.18917
 30
0.0
 10
9.45378
 20
2.23354
 30
0.0
 10
9.45378
 20
2.23354
 30
0.0
 10
9.42123
 20
2.294
 30
0.0
 10
9.38042
 20
2.35686
 30
0.0
 10
9.33135
 20
2.42217
 30
0.0
 10
9.33135
 20
2.42217
 30
0.0
 10
9.24463
 20
2.53351
 30
0.0
 10
9.17968
 20
2.68915
 30
0.0
 10
9.13648
 20
2.88911
 30
0.0
 10
9.13648
 20
2.88911
 30
0.0
 10
9.11349
 20
2.95183
 30
0.0
 10
9.09547
 20
2.9928
 30
0.0
 10
9.05171
 20
3.066
 30
0.0
 10
9.05171
 20
3.066
 30
0.0
 10
9.05171
 20
3.066
 30
0.0
 10
8.91835
 20
2.92559
 30
0.0
 10
8.91835
 20
2.92559
 30
0.0
 10
8.91835
 20
2.92559
 30
0.0
 10
8.91835
 20
2.92559
 30
0.0
 10
8.84597
 20
2.99606
 30
0.0
 10
8.84597
 20
2.99606
 30
0.0
 10
8.84597
 20
2.99606
 30
0.0
 10
8.84597
 20
2.99606
 30
0.0
 10
8.97679
 20
3.14815
 30
0.0
 10
8.97679
 20
3.14815
 30
0.0
 10
8.97679
 20
3.14815
 30
0.0
 10
8.84282
 20
3.22864
 30
0.0
 10
8.68051
 20
3.37546
 30
0.0
 10
8.51808
 20
3.35851
 30
0.0
 10
8.51808
 20
3.35851
 30
0.0
 10
8.51808
 20
3.35851
 30
0.0
 10
8.36328
 20
3.32682
 30
0.0
 10
8.36328
 20
3.32682
 30
0.0
 10
8.36328
 20
3.32682
 30
0.0
 10
8.3228
 20
3.3122
 30
0.0
 10
8.27571
 20
3.32631
 30
0.0
 10
8.22195
 20
3.36914
 30
0.0
 10
8.22195
 20
3.36914
 30
0.0
 10
8.22195
 20
3.36914
 30
0.0
 10
8.09897
 20
3.46615
 30
0.0
 10
8.09897
 20
3.46615
 30
0.0
 10
8.09897
 20
3.46615
 30
0.0
 10
7.96364
 20
3.53292
 30
0.0
 10
7.90042
 20
3.49846
 30
0.0
 10
7.90928
 20
3.36279
 30
0.0
 10
7.90928
 20
3.36279
 30
0.0
 10
7.8631
 20
3.24159
 30
0.0
 10
7.88087
 20
3.16757
 30
0.0
 10
7.88517
 20
3.09731
 30
0.0
 10
7.88517
 20
3.09731
 30
0.0
 10
7.88517
 20
3.09731
 30
0.0
 10
7.88317
 20
2.87056
 30
0.0
 10
7.88317
 20
2.87056
 30
0.0
 10
7.88317
 20
2.87056
 30
0.0
 10
7.89039
 20
2.81049
 30
0.0
 10
7.90396
 20
2.77239
 30
0.0
 10
7.92388
 20
2.7563
 30
0.0
 10
7.92388
 20
2.7563
 30
0.0
 10
7.93928
 20
2.74685
 30
0.0
 10
7.944
 20
2.76704
 30
0.0
 10
7.95595
 20
2.79742
 30
0.0
 10
7.95595
 20
2.79742
 30
0.0
 10
8.00905
 20
2.89236
 30
0.0
 10
8.11409
 20
2.91627
 30
0.0
 10
8.13007
 20
2.83147
 30
0.0
 10
8.13007
 20
2.83147
 30
0.0
 10
8.13007
 20
2.83147
 30
0.0
 10
8.13708
 20
2.64357
 30
0.0
 10
8.13708
 20
2.64357
 30
0.0
 10
8.13708
 20
2.64357
 30
0.0
 10
8.14083
 20
2.52677
 30
0.0
 10
8.00362
 20
2.42996
 30
0.0
 10
7.95004
 20
2.5087
 30
0.0
 10
7.95004
 20
2.5087
 30
0.0
 10
7.95004
 20
2.5087
 30
0.0
 10
7.91381
 20
2.54548
 30
0.0
 10
7.91381
 20
2.54548
 30
0.0
 10
7.91381
 20
2.54548
 30
0.0
 10
7.90241
 20
2.59307
 30
0.0
 10
7.87379
 20
2.61118
 30
0.0
 10
7.86288
 20
2.57957
 30
0.0
 10
7.86288
 20
2.57957
 30
0.0
 10
7.86288
 20
2.57957
 30
0.0
 10
7.90059
 20
2.43382
 30
0.0
 10
7.90059
 20
2.43382
 30
0.0
 10
7.90059
 20
2.43382
 30
0.0
 10
7.90722
 20
2.30011
 30
0.0
 10
7.9827
 20
2.29307
 30
0.0
 10
8.0884
 20
2.28712
 30
0.0
 10
8.0884
 20
2.28712
 30
0.0
 10
8.23447
 20
2.24561
 30
0.0
 10
8.24452
 20
2.17327
 30
0.0
 10
8.39625
 20
2.16289
 30
0.0
 10
8.39625
 20
2.16289
 30
0.0
 10
8.5353
 20
2.15435
 30
0.0
 10
8.6027
 20
2.07062
 30
0.0
 10
8.64028
 20
1.84552
 30
0.0
 10
8.64028
 20
1.84552
 30
0.0
 10
8.65726
 20
1.78844
 30
0.0
 10
8.67653
 20
1.74746
 30
0.0
 10
8.67054
 20
1.74388
 30
0.0
  0
SPLINE
  5
A3
330
1F
100
AcDbEntity
  8
Layer 1
 62
    22
370
     5
100
AcDbSpline
210
0.0
220
0.0
230
1.0
 70
    11
 71
     3
 72
    20
 73
    16
 74
     0
 42
0.0000000001
 43
0.0000000001
 40
0.0
 40
0.0
 40
0.0
 40
0.0
 40
0.25
 40
0.25
 40
0.25
 40
0.25
 40
0.5
 40
0.5
 40
0.5
 40
0.5
 40
0.75
 40
0.75
 40
0.75
 40
0.75
 40
1.0
 40
1.0
 40
1.0
 40
1.0
 10
9.01439
 20
2.1937
 30
0.0
 10
9.01439
 20
2.1937
 30
0.0
 10
8.89971
 20
2.11997
 30
0.0
 10
8.89971
 20
2.11997
 30
0.0
 10
8.89971
 20
2.11997
 30
0.0
 10
8.89971
 20
2.11997
 30
0.0
 10
8.71007
 20
2.47593
 30
0.0
 10
8.71007
 20
2.47593
 30
0.0
 10
8.71007
 20
2.47593
 30
0.0
 10
8.71007
 20
2.47593
 30
0.0
 10
8.82475
 20
2.54268
 30
0.0
 10
8.82475
 20
2.54268
 30
0.0
 10
8.82475
 20
2.54268
 30
0.0
 10
8.82475
 20
2.54268
 30
0.0
 10
9.01439
 20
2.1937
 30
0.0
 10
9.01439
 20
2.1937
 30
0.0
  0
SPLINE
  5
A4
330
1F
100
AcDbEntity
  8
Layer 1
 62
    22
370
     5
100
AcDbSpline
210
0.0
220
0.0
230
1.0
 70
    11
 71
     3
 72
    88
 73
    84
 74
     0
 42
0.0000000001
 43
0.0000000001
 40
0.0
 40
0.0
 40
0.0
 40
0.0
 40
0.0476190476190476
 40
0.0476190476190476
 40
0.0476190476190476
 40
0.0476190476190476
 40
0.0952380952380952
 40
0.0952380952380952
 40
0.0952380952380952
 40
0.0952380952380952
 40
0.1428571428571428
 40
0.1428571428571428
 40
0.1428571428571428
 40
0.1428571428571428
 40
0.1904761904761905
 40
0.1904761904761905
 40
0.1904761904761905
 40
0.1904761904761905
 40
0.2380952380952381
 40
0.2380952380952381
 40
0.2380952380952381
 40
0.2380952380952381
 40
0.2857142857142857
 40
0.2857142857142857
 40
0.2857142857142857
 40
0.2857142857142857
 40
0.3333333333333333
 40
0.3333333333333333
 40
0.3333333333333333
 40
0.3333333333333333
 40
0.3809523809523809
 40
0.3809523809523809
 40
0.3809523809523809
 40
0.3809523809523809
 40
0.4285714285714285
 40
0.4285714285714285
 40
0.4285714285714285
 40
0.4285714285714285
 40
0.4761904761904762
 40
0.4761904761904762
 40
0.4761904761904762
 40
0.4761904761904762
 40
0.5238095238095237
 40
0.5238095238095237
 40
0.5238095238095237
 40
0.5238095238095237
 40
0.5714285714285714
 40
0.5714285714285714
 40
0.5714285714285714
 40
0.5714285714285714
 40
0.6190476190476191
 40
0.6190476190476191
 40
0.6190476190476191
 40
0.6190476190476191
 40
0.6666666666666667
 40
0.6666666666666667
 40
0.6666666666666667
 40
0.6666666666666667
 40
0.7142857142857144
 40
0.7142857142857144
 40
0.7142857142857144
 40
0.7142857142857144
 40
0.7619047619047621
 40
0.7619047619047621
 40
0.7619047619047621
 40
0.7619047619047621
 40
0.8095238095238098
 40
0.8095238095238098
 40
0.8095238095238098
 40
0.8095238095238098
 40
0.8571428571428574
 40
0.8571428571428574
 40
0.8571428571428574
 40
0.8571428571428574
 40
0.9047619047619051
 40
0.9047619047619051
 40
0.9047619047619051
 40
0.9047619047619051
 40
0.9523809523809528
 40
0.9523809523809528
 40
0.9523809523809528
 40
0.9523809523809528
 40
1.0
 40
1.0
 40
1.0
 40
1.0
 10
4.29301
 20
-0.79777
 30
0.0
 10
4.28241
 20
-0.7218
 30
0.0
 10
4.14315
 20
-0.69451
 30
0.0
 10
3.8752
 20
-0.71593
 30
0.0
 10
3.8752
 20
-0.71593
 30
0.0
 10
3.77311
 20
-0.74893
 30
0.0
 10
3.67102
 20
-0.80197
 30
0.0
 10
3.5689
 20
-0.87511
 30
0.0
 10
3.5689
 20
-0.87511
 30
0.0
 10
3.5097
 20
-0.9082
 30
0.0
 10
3.50483
 20
-0.94703
 30
0.0
 10
3.55425
 20
-0.9916
 30
0.0
 10
3.55425
 20
-0.9916
 30
0.0
 10
3.59853
 20
-1.03171
 30
0.0
 10
3.59991
 20
-1.05751
 30
0.0
 10
3.55835
 20
-1.06904
 30
0.0
 10
3.55835
 20
-1.06904
 30
0.0
 10
3.3953
 20
-1.11992
 30
0.0
 10
3.26657
 20
-1.22237
 30
0.0
 10
3.17214
 20
-1.3764
 30
0.0
 10
3.17214
 20
-1.3764
 30
0.0
 10
3.17214
 20
-1.3764
 30
0.0
 10
3.24291
 20
-1.37633
 30
0.0
 10
3.24291
 20
-1.37633
 30
0.0
 10
3.24291
 20
-1.37633
 30
0.0
 10
3.24291
 20
-1.37633
 30
0.0
 10
3.24702
 20
-1.43415
 30
0.0
 10
3.24702
 20
-1.43415
 30
0.0
 10
3.24702
 20
-1.43415
 30
0.0
 10
3.09443
 20
-1.56156
 30
0.0
 10
3.05195
 20
-1.72049
 30
0.0
 10
3.05948
 20
-1.89379
 30
0.0
 10
3.05948
 20
-1.89379
 30
0.0
 10
3.05948
 20
-1.89379
 30
0.0
 10
3.17978
 20
-1.90989
 30
0.0
 10
3.17978
 20
-1.90989
 30
0.0
 10
3.17978
 20
-1.90989
 30
0.0
 10
3.16325
 20
-2.01088
 30
0.0
 10
3.16387
 20
-2.10899
 30
0.0
 10
3.1816
 20
-2.20426
 30
0.0
 10
3.1816
 20
-2.20426
 30
0.0
 10
3.17667
 20
-2.24089
 30
0.0
 10
3.19746
 20
-2.2632
 30
0.0
 10
3.24394
 20
-2.27121
 30
0.0
 10
3.24394
 20
-2.27121
 30
0.0
 10
3.28291
 20
-2.26363
 30
0.0
 10
3.31332
 20
-2.28469
 30
0.0
 10
3.33514
 20
-2.33445
 30
0.0
 10
3.33514
 20
-2.33445
 30
0.0
 10
3.40922
 20
-2.45558
 30
0.0
 10
3.5192
 20
-2.57476
 30
0.0
 10
3.64472
 20
-2.70166
 30
0.0
 10
3.64472
 20
-2.70166
 30
0.0
 10
3.64472
 20
-2.70166
 30
0.0
 10
3.75467
 20
-2.3206
 30
0.0
 10
3.75467
 20
-2.3206
 30
0.0
 10
3.75467
 20
-2.3206
 30
0.0
 10
3.79918
 20
-2.18318
 30
0.0
 10
3.8923
 20
-2.10877
 30
0.0
 10
4.03402
 20
-2.09739
 30
0.0
 10
4.03402
 20
-2.09739
 30
0.0
 10
4.03402
 20
-2.09739
 30
0.0
 10
4.22011
 20
-2.09984
 30
0.0
 10
4.22011
 20
-2.09984
 30
0.0
 10
4.22011
 20
-2.09984
 30
0.0
 10
4.22011
 20
-2.09984
 30
0.0
 10
4.2366
 20
-1.62125
 30
0.0
 10
4.2366
 20
-1.62125
 30
0.0
 10
4.2366
 20
-1.62125
 30
0.0
 10
4.2366
 20
-1.62125
 30
0.0
 10
3.85892
 20
-1.60835
 30
0.0
 10
3.85892
 20
-1.60835
 30
0.0
 10
3.85892
 20
-1.60835
 30
0.0
 10
3.85892
 20
-1.60835
 30
0.0
 10
3.85898
 20
-1.51293
 30
0.0
 10
3.85898
 20
-1.51293
 30
0.0
 10
3.85898
 20
-1.51293
 30
0.0
 10
3.85898
 20
-1.51293
 30
0.0
 10
4.25338
 20
-1.5106
 30
0.0
 10
4.25338
 20
-1.5106
 30
0.0
 10
4.25338
 20
-1.5106
 30
0.0
 10
4.25338
 20
-1.5106
 30
0.0
 10
4.29301
 20
-0.79777
 30
0.0
 10
4.29301
 20
-0.79777
 30
0.0
  0
SPLINE
  5
A5
330
1F
100
AcDbEntity
  8
Layer 1
 62
    22
370
     5
100
AcDbSpline
210
0.0
220
0.0
230
1.0
 70
    11
 71
     3
 72
   104
 73
   100
 74
     0
 42
0.0000000001
 43
0.0000000001
 40
0.0
 40
0.0
 40
0.0
 40
0.0
 40
0.04
 40
0.04
 40
0.04
 40
0.04
 40
0.08
 40
0.08
 40
0.08
 40
0.08
 40
0.12
 40
0.12
 40
0.12
 40
0.12
 40
0.16
 40
0.16
 40
0.16
 40
0.16
 40
0.2
 40
0.2
 40
0.2
 40
0.2
 40
0.24
 40
0.24
 40
0.24
 40
0.24
 40
0.28
 40
0.28
 40
0.28
 40
0.28
 40
0.32
 40
0.32
 40
0.32
 40
0.32
 40
0.36
 40
0.36
 40
0.36
 40
0.36
 40
0.4
 40
0.4
 40
0.4
 40
0.4
 40
0.4399999999999999
 40
0.4399999999999999
 40
0.4399999999999999
 40
0.4399999999999999
 40
0.4799999999999999
 40
0.4799999999999999
 40
0.4799999999999999
 40
0.4799999999999999
 40
0.5199999999999999
 40
0.5199999999999999
 40
0.5199999999999999
 40
0.5199999999999999
 40
0.5599999999999999
 40
0.5599999999999999
 40
0.5599999999999999
 40
0.5599999999999999
 40
0.6
 40
0.6
 40
0.6
 40
0.6
 40
0.64
 40
0.64
 40
0.64
 40
0.64
 40
0.68
 40
0.68
 40
0.68
 40
0.68
 40
0.7200000000000001
 40
0.7200000000000001
 40
0.7200000000000001
 40
0.7200000000000001
 40
0.7600000000000001
 40
0.7600000000000001
 40
0.7600000000000001
 40
0.7600000000000001
 40
0.8000000000000002
 40
0.8000000000000002
 40
0.8000000000000002
 40
0.8000000000000002
 40
0.8400000000000002
 40
0.8400000000000002
 40
0.8400000000000002
 40
0.8400000000000002
 40
0.8800000000000002
 40
0.8800000000000002
 40
0.8800000000000002
 40
0.8800000000000002
 40
0.9200000000000003
 40
0.9200000000000003
 40
0.9200000000000003
 40
0.9200000000000003
 40
0.9600000000000003
 40
0.9600000000000003
 40
0.9600000000000003
 40
0.9600000000000003
 40
1.0
 40
1.0
 40
1.0
 40
1.0
 10
4.68149
 20
-2.73722
 30
0.0
 10
4.68149
 20
-2.73722
 30
0.0
 10
4.75058
 20
-2.7357
 30
0.0
 10
4.75058
 20
-2.7357
 30
0.0
 10
4.75058
 20
-2.7357
 30
0.0
 10
4.78731
 20
-2.73492
 30
0.0
 10
4.80403
 20
-2.75133
 30
0.0
 10
4.80076
 20
-2.78492
 30
0.0
 10
4.80076
 20
-2.78492
 30
0.0
 10
4.80076
 20
-2.78492
 30
0.0
 10
4.80015
 20
-2.81989
 30
0.0
 10
4.80015
 20
-2.81989
 30
0.0
 10
4.80015
 20
-2.81989
 30
0.0
 10
4.80971
 20
-2.85151
 30
0.0
 10
4.83714
 20
-2.86521
 30
0.0
 10
4.88248
 20
-2.861
 30
0.0
 10
4.88248
 20
-2.861
 30
0.0
 10
4.88248
 20
-2.861
 30
0.0
 10
5.0248
 20
-2.8559
 30
0.0
 10
5.0248
 20
-2.8559
 30
0.0
 10
5.0248
 20
-2.8559
 30
0.0
 10
5.0928
 20
-2.84851
 30
0.0
 10
5.15233
 20
-2.8303
 30
0.0
 10
5.20609
 20
-2.80281
 30
0.0
 10
5.20609
 20
-2.80281
 30
0.0
 10
5.27457
 20
-2.77449
 30
0.0
 10
5.30872
 20
-2.78771
 30
0.0
 10
5.30858
 20
-2.84245
 30
0.0
 10
5.30858
 20
-2.84245
 30
0.0
 10
5.31522
 20
-2.88341
 30
0.0
 10
5.34332
 20
-2.89428
 30
0.0
 10
5.3929
 20
-2.87506
 30
0.0
 10
5.3929
 20
-2.87506
 30
0.0
 10
5.53586
 20
-2.81886
 30
0.0
 10
5.64148
 20
-2.73034
 30
0.0
 10
5.72155
 20
-2.61969
 30
0.0
 10
5.72155
 20
-2.61969
 30
0.0
 10
5.74815
 20
-2.58976
 30
0.0
 10
5.77045
 20
-2.58704
 30
0.0
 10
5.78849
 20
-2.61153
 30
0.0
 10
5.78849
 20
-2.61153
 30
0.0
 10
5.81916
 20
-2.64077
 30
0.0
 10
5.85411
 20
-2.63993
 30
0.0
 10
5.89337
 20
-2.60901
 30
0.0
 10
5.89337
 20
-2.60901
 30
0.0
 10
5.95371
 20
-2.50217
 30
0.0
 10
5.9969
 20
-2.40247
 30
0.0
 10
6.02296
 20
-2.30989
 30
0.0
 10
6.02296
 20
-2.30989
 30
0.0
 10
6.02296
 20
-2.30989
 30
0.0
 10
6.02716
 20
-2.21863
 30
0.0
 10
6.02716
 20
-2.21863
 30
0.0
 10
6.02716
 20
-2.21863
 30
0.0
 10
6.03205
 20
-2.16785
 30
0.0
 10
6.05695
 20
-2.15286
 30
0.0
 10
6.1019
 20
-2.17365
 30
0.0
 10
6.1019
 20
-2.17365
 30
0.0
 10
6.14323
 20
-2.19818
 30
0.0
 10
6.17181
 20
-2.16799
 30
0.0
 10
6.18172
 20
-2.05786
 30
0.0
 10
6.18172
 20
-2.05786
 30
0.0
 10
6.19208
 20
-1.86044
 30
0.0
 10
6.16979
 20
-1.69768
 30
0.0
 10
6.08295
 20
-1.60338
 30
0.0
 10
6.08295
 20
-1.60338
 30
0.0
 10
6.06037
 20
-1.57066
 30
0.0
 10
6.0278
 20
-1.56085
 30
0.0
 10
5.98525
 20
-1.57394
 30
0.0
 10
5.98525
 20
-1.57394
 30
0.0
 10
5.98525
 20
-1.57394
 30
0.0
 10
5.40476
 20
-1.76227
 30
0.0
 10
5.40476
 20
-1.76227
 30
0.0
 10
5.40476
 20
-1.76227
 30
0.0
 10
5.40476
 20
-1.76227
 30
0.0
 10
5.50981
 20
-2.07154
 30
0.0
 10
5.50981
 20
-2.07154
 30
0.0
 10
5.50981
 20
-2.07154
 30
0.0
 10
5.50981
 20
-2.07154
 30
0.0
 10
5.41689
 20
-2.09946
 30
0.0
 10
5.41689
 20
-2.09946
 30
0.0
 10
5.41689
 20
-2.09946
 30
0.0
 10
5.41689
 20
-2.09946
 30
0.0
 10
5.3125
 20
-1.7922
 30
0.0
 10
5.3125
 20
-1.7922
 30
0.0
 10
5.3125
 20
-1.7922
 30
0.0
 10
5.3125
 20
-1.7922
 30
0.0
 10
4.74512
 20
-1.97626
 30
0.0
 10
4.74512
 20
-1.97626
 30
0.0
 10
4.74512
 20
-1.97626
 30
0.0
 10
4.82932
 20
-2.30986
 30
0.0
 10
4.82416
 20
-2.3775
 30
0.0
 10
4.59672
 20
-2.51484
 30
0.0
 10
4.59672
 20
-2.51484
 30
0.0
 10
4.45775
 20
-2.57974
 30
0.0
 10
4.44459
 20
-2.62746
 30
0.0
 10
4.55728
 20
-2.65797
 30
0.0
 10
4.55728
 20
-2.65797
 30
0.0
 10
4.60144
 20
-2.6759
 30
0.0
 10
4.63729
 20
-2.70787
 30
0.0
 10
4.68149
 20
-2.73722
 30
0.0
  0
SPLINE
  5
A6
330
1F
100
AcDbEntity
  8
Layer 1
 62
    22
370
     5
100
AcDbSpline
210
0.0
220
0.0
230
1.0
 70
    11
 71
     3
 72
    56
 73
    52
 74
     0
 42
0.0000000001
 43
0.0000000001
 40
0.0
 40
0.0
 40
0.0
 40
0.0
 40
0.0769230769230769
 40
0.0769230769230769
 40
0.0769230769230769
 40
0.0769230769230769
 40
0.1538461538461539
 40
0.1538461538461539
 40
0.1538461538461539
 40
0.1538461538461539
 40
0.2307692307692308
 40
0.2307692307692308
 40
0.2307692307692308
 40
0.2307692307692308
 40
0.3076923076923077
 40
0.3076923076923077
 40
0.3076923076923077
 40
0.3076923076923077
 40
0.3846153846153846
 40
0.3846153846153846
 40
0.3846153846153846
 40
0.3846153846153846
 40
0.4615384615384616
 40
0.4615384615384616
 40
0.4615384615384616
 40
0.4615384615384616
 40
0.5384615384615385
 40
0.5384615384615385
 40
0.5384615384615385
 40
0.5384615384615385
 40
0.6153846153846154
 40
0.6153846153846154
 40
0.6153846153846154
 40
0.6153846153846154
 40
0.6923076923076923
 40
0.6923076923076923
 40
0.6923076923076923
 40
0.6923076923076923
 40
0.7692307692307692
 40
0.7692307692307692
 40
0.7692307692307692
 40
0.7692307692307692
 40
0.846153846153846
 40
0.846153846153846
 40
0.846153846153846
 40
0.846153846153846
 40
0.9230769230769229
 40
0.9230769230769229
 40
0.9230769230769229
 40
0.9230769230769229
 40
1.0
 40
1.0
 40
1.0
 40
1.0
 10
4.46313
 20
-4.06047
 30
0.0
 10
4.46313
 20
-4.06047
 30
0.0
 10
4.63412
 20
-4.12446
 30
0.0
 10
4.63412
 20
-4.12446
 30
0.0
 10
4.63412
 20
-4.12446
 30
0.0
 10
4.76073
 20
-4.15417
 30
0.0
 10
4.88734
 20
-4.15594
 30
0.0
 10
5.01397
 20
-4.11688
 30
0.0
 10
5.01397
 20
-4.11688
 30
0.0
 10
5.42498
 20
-3.97867
 30
0.0
 10
5.69305
 20
-3.81755
 30
0.0
 10
5.81817
 20
-3.63352
 30
0.0
 10
5.81817
 20
-3.63352
 30
0.0
 10
5.8369
 20
-3.54352
 30
0.0
 10
5.82681
 20
-3.47223
 30
0.0
 10
5.79698
 20
-3.41374
 30
0.0
 10
5.79698
 20
-3.41374
 30
0.0
 10
5.79698
 20
-3.41374
 30
0.0
 10
5.47989
 20
-3.63021
 30
0.0
 10
5.47989
 20
-3.63021
 30
0.0
 10
5.47989
 20
-3.63021
 30
0.0
 10
5.47989
 20
-3.63021
 30
0.0
 10
5.4272
 20
-3.55953
 30
0.0
 10
5.4272
 20
-3.55953
 30
0.0
 10
5.4272
 20
-3.55953
 30
0.0
 10
5.4272
 20
-3.55953
 30
0.0
 10
5.73509
 20
-3.35307
 30
0.0
 10
5.73509
 20
-3.35307
 30
0.0
 10
5.73509
 20
-3.35307
 30
0.0
 10
5.6288
 20
-3.24877
 30
0.0
 10
5.51321
 20
-3.21893
 30
0.0
 10
5.38406
 20
-3.29794
 30
0.0
 10
5.38406
 20
-3.29794
 30
0.0
 10
5.23858
 20
-3.37624
 30
0.0
 10
5.12454
 20
-3.4746
 30
0.0
 10
5.042
 20
-3.59298
 30
0.0
 10
5.042
 20
-3.59298
 30
0.0
 10
4.93624
 20
-3.71726
 30
0.0
 10
4.83049
 20
-3.78998
 30
0.0
 10
4.72476
 20
-3.81114
 30
0.0
 10
4.72476
 20
-3.81114
 30
0.0
 10
4.72476
 20
-3.81114
 30
0.0
 10
4.55086
 20
-3.82886
 30
0.0
 10
4.55086
 20
-3.82886
 30
0.0
 10
4.55086
 20
-3.82886
 30
0.0
 10
4.43128
 20
-3.84488
 30
0.0
 10
4.36978
 20
-3.88419
 30
0.0
 10
4.3932
 20
-3.95746
 30
0.0
 10
4.3932
 20
-3.95746
 30
0.0
 10
4.40222
 20
-4.00612
 30
0.0
 10
4.42551
 20
-4.04047
 30
0.0
 10
4.46313
 20
-4.06047
 30
0.0
  0
SPLINE
  5
A7
330
1F
100
AcDbEntity
  8
Layer 1
 62
    22
370
     5
100
AcDbSpline
210
0.0
220
0.0
230
1.0
 70
    11
 71
     3
 72
   116
 73
   112
 74
     0
 42
0.0000000001
 43
0.0000000001
 40
0.0
 40
0.0
 40
0.0
 40
0.0
 40
0.0357142857142857
 40
0.0357142857142857
 40
0.0357142857142857
 40
0.0357142857142857
 40
0.0714285714285714
 40
0.0714285714285714
 40
0.0714285714285714
 40
0.0714285714285714
 40
0.1071428571428571
 40
0.1071428571428571
 40
0.1071428571428571
 40
0.1071428571428571
 40
0.1428571428571428
 40
0.1428571428571428
 40
0.1428571428571428
 40
0.1428571428571428
 40
0.1785714285714285
 40
0.1785714285714285
 40
0.1785714285714285
 40
0.1785714285714285
 40
0.2142857142857142
 40
0.2142857142857142
 40
0.2142857142857142
 40
0.2142857142857142
 40
0.2499999999999999
 40
0.2499999999999999
 40
0.2499999999999999
 40
0.2499999999999999
 40
0.2857142857142856
 40
0.2857142857142856
 40
0.2857142857142856
 40
0.2857142857142856
 40
0.3214285714285713
 40
0.3214285714285713
 40
0.3214285714285713
 40
0.3214285714285713
 40
0.357142857142857
 40
0.357142857142857
 40
0.357142857142857
 40
0.357142857142857
 40
0.3928571428571427
 40
0.3928571428571427
 40
0.3928571428571427
 40
0.3928571428571427
 40
0.4285714285714284
 40
0.4285714285714284
 40
0.4285714285714284
 40
0.4285714285714284
 40
0.4642857142857141
 40
0.4642857142857141
 40
0.4642857142857141
 40
0.4642857142857141
 40
0.4999999999999998
 40
0.4999999999999998
 40
0.4999999999999998
 40
0.4999999999999998
 40
0.5357142857142856
 40
0.5357142857142856
 40
0.5357142857142856
 40
0.5357142857142856
 40
0.5714285714285713
 40
0.5714285714285713
 40
0.5714285714285713
 40
0.5714285714285713
 40
0.607142857142857
 40
0.607142857142857
 40
0.607142857142857
 40
0.607142857142857
 40
0.6428571428571427
 40
0.6428571428571427
 40
0.6428571428571427
 40
0.6428571428571427
 40
0.6785714285714284
 40
0.6785714285714284
 40
0.6785714285714284
 40
0.6785714285714284
 40
0.7142857142857141
 40
0.7142857142857141
 40
0.7142857142857141
 40
0.7142857142857141
 40
0.7499999999999998
 40
0.7499999999999998
 40
0.7499999999999998
 40
0.7499999999999998
 40
0.7857142857142855
 40
0.7857142857142855
 40
0.7857142857142855
 40
0.7857142857142855
 40
0.8214285714285712
 40
0.8214285714285712
 40
0.8214285714285712
 40
0.8214285714285712
 40
0.8571428571428569
 40
0.8571428571428569
 40
0.8571428571428569
 40
0.8571428571428569
 40
0.8928571428571426
 40
0.8928571428571426
 40
0.8928571428571426
 40
0.8928571428571426
 40
0.9285714285714283
 40
0.9285714285714283
 40
0.9285714285714283
 40
0.9285714285714283
 40
0.964285714285714
 40
0.964285714285714
 40
0.964285714285714
 40
0.964285714285714
 40
1.0
 40
1.0
 40
1.0
 40
1.0
 10
1.97308
 20
-1.57359
 30
0.0
 10
1.97308
 20
-1.57359
 30
0.0
 10
2.26166
 20
-1.8977
 30
0.0
 10
2.26166
 20
-1.8977
 30
0.0
 10
2.26166
 20
-1.8977
 30
0.0
 10
2.26166
 20
-1.8977
 30
0.0
 10
2.05824
 20
-2.07793
 30
0.0
 10
2.05824
 20
-2.07793
 30
0.0
 10
2.05824
 20
-2.07793
 30
0.0
 10
2.05824
 20
-2.07793
 30
0.0
 10
2.13405
 20
-2.14479
 30
0.0
 10
2.13405
 20
-2.14479
 30
0.0
 10
2.13405
 20
-2.14479
 30
0.0
 10
2.13405
 20
-2.14479
 30
0.0
 10
2.35467
 20
-1.94607
 30
0.0
 10
2.35467
 20
-1.94607
 30
0.0
 10
2.35467
 20
-1.94607
 30
0.0
 10
2.35467
 20
-1.94607
 30
0.0
 10
2.79912
 20
-2.25411
 30
0.0
 10
2.79912
 20
-2.25411
 30
0.0
 10
2.79912
 20
-2.25411
 30
0.0
 10
2.84515
 20
-2.33449
 30
0.0
 10
2.94837
 20
-2.42632
 30
0.0
 10
3.1088
 20
-2.52962
 30
0.0
 10
3.1088
 20
-2.52962
 30
0.0
 10
3.1088
 20
-2.52962
 30
0.0
 10
3.08567
 20
-2.83066
 30
0.0
 10
3.08567
 20
-2.83066
 30
0.0
 10
3.08567
 20
-2.83066
 30
0.0
 10
3.09413
 20
-2.89494
 30
0.0
 10
3.01396
 20
-2.97642
 30
0.0
 10
2.84517
 20
-3.07509
 30
0.0
 10
2.84517
 20
-3.07509
 30
0.0
 10
2.80744
 20
-3.08992
 30
0.0
 10
2.78043
 20
-3.08861
 30
0.0
 10
2.77708
 20
-3.05191
 30
0.0
 10
2.77708
 20
-3.05191
 30
0.0
 10
2.77708
 20
-3.05191
 30
0.0
 10
2.77711
 20
-3.01818
 30
0.0
 10
2.77711
 20
-3.01818
 30
0.0
 10
2.77711
 20
-3.01818
 30
0.0
 10
2.77391
 20
-2.98301
 30
0.0
 10
2.75641
 20
-2.97935
 30
0.0
 10
2.72465
 20
-3.00721
 30
0.0
 10
2.72465
 20
-3.00721
 30
0.0
 10
2.6667
 20
-3.04993
 30
0.0
 10
2.59015
 20
-3.0855
 30
0.0
 10
2.49504
 20
-3.11393
 30
0.0
 10
2.49504
 20
-3.11393
 30
0.0
 10
2.41962
 20
-3.13083
 30
0.0
 10
2.37994
 20
-3.11908
 30
0.0
 10
2.37603
 20
-3.07872
 30
0.0
 10
2.37603
 20
-3.07872
 30
0.0
 10
2.37603
 20
-3.07872
 30
0.0
 10
2.37811
 20
-3.02489
 30
0.0
 10
2.37811
 20
-3.02489
 30
0.0
 10
2.37811
 20
-3.02489
 30
0.0
 10
2.37889
 20
-3.00671
 30
0.0
 10
2.37251
 20
-2.99426
 30
0.0
 10
2.35903
 20
-2.98756
 30
0.0
 10
2.35903
 20
-2.98756
 30
0.0
 10
2.0463
 20
-2.97238
 30
0.0
 10
1.86039
 20
-2.94257
 30
0.0
 10
1.83903
 20
-2.85852
 30
0.0
 10
1.83903
 20
-2.85852
 30
0.0
 10
1.83903
 20
-2.85852
 30
0.0
 10
1.88779
 20
-2.82529
 30
0.0
 10
1.88779
 20
-2.82529
 30
0.0
 10
1.88779
 20
-2.82529
 30
0.0
 10
1.91029
 20
-2.79738
 30
0.0
 10
1.90419
 20
-2.77806
 30
0.0
 10
1.86949
 20
-2.76734
 30
0.0
 10
1.86949
 20
-2.76734
 30
0.0
 10
1.86949
 20
-2.76734
 30
0.0
 10
1.84265
 20
-2.76701
 30
0.0
 10
1.84265
 20
-2.76701
 30
0.0
 10
1.84265
 20
-2.76701
 30
0.0
 10
1.68883
 20
-2.66224
 30
0.0
 10
1.54575
 20
-2.5576
 30
0.0
 10
1.48065
 20
-2.47867
 30
0.0
 10
1.48065
 20
-2.47867
 30
0.0
 10
1.46152
 20
-2.44367
 30
0.0
 10
1.47098
 20
-2.42156
 30
0.0
 10
1.50904
 20
-2.41236
 30
0.0
 10
1.50904
 20
-2.41236
 30
0.0
 10
1.50904
 20
-2.41236
 30
0.0
 10
1.57078
 20
-2.39633
 30
0.0
 10
1.57078
 20
-2.39633
 30
0.0
 10
1.57078
 20
-2.39633
 30
0.0
 10
1.43363
 20
-2.21127
 30
0.0
 10
1.34876
 20
-2.05878
 30
0.0
 10
1.34029
 20
-1.95395
 30
0.0
 10
1.34029
 20
-1.95395
 30
0.0
 10
1.34029
 20
-1.95395
 30
0.0
 10
1.39039
 20
-1.97535
 30
0.0
 10
1.39039
 20
-1.97535
 30
0.0
 10
1.39039
 20
-1.97535
 30
0.0
 10
1.42474
 20
-1.98354
 30
0.0
 10
1.43621
 20
-1.9674
 30
0.0
 10
1.42482
 20
-1.92693
 30
0.0
 10
1.42482
 20
-1.92693
 30
0.0
 10
1.39405
 20
-1.7969
 30
0.0
 10
1.37046
 20
-1.66258
 30
0.0
 10
1.35404
 20
-1.52399
 30
0.0
 10
1.35404
 20
-1.52399
 30
0.0
 10
1.33652
 20
-1.44091
 30
0.0
 10
1.3358
 20
-1.42161
 30
0.0
 10
1.4516
 20
-1.44349
 30
0.0
 10
1.4516
 20
-1.44349
 30
0.0
 10
1.4516
 20
-1.44349
 30
0.0
 10
1.97308
 20
-1.57359
 30
0.0
 10
1.97308
 20
-1.57359
 30
0.0
  0
SPLINE
  5
A8
330
1F
100
AcDbEntity
  8
Layer 1
 62
    22
370
     5
100
AcDbSpline
210
0.0
220
0.0
230
1.0
 70
    11
 71
     3
 72
    36
 73
    32
 74
     0
 42
0.0000000001
 43
0.0000000001
 40
0.0
 40
0.0
 40
0.0
 40
0.0
 40
0.125
 40
0.125
 40
0.125
 40
0.125
 40
0.25
 40
0.25
 40
0.25
 40
0.25
 40
0.375
 40
0.375
 40
0.375
 40
0.375
 40
0.5
 40
0.5
 40
0.5
 40
0.5
 40
0.625
 40
0.625
 40
0.625
 40
0.625
 40
0.75
 40
0.75
 40
0.75
 40
0.75
 40
0.875
 40
0.875
 40
0.875
 40
0.875
 40
1.0
 40
1.0
 40
1.0
 40
1.0
 10
-1.79698
 20
2.50153
 30
0.0
 10
-1.55452
 20
2.5023
 30
0.0
 10
-1.36207
 20
2.50932
 30
0.0
 10
-1.21106
 20
2.52147
 30
0.0
 10
-1.21106
 20
2.52147
 30
0.0
 10
-0.97845
 20
2.546
 30
0.0
 10
-0.81148
 20
2.60812
 30
0.0
 10
-0.69891
 20
2.70139
 30
0.0
 10
-0.69891
 20
2.70139
 30
0.0
 10
-0.5448
 20
2.72682
 30
0.0
 10
-0.52045
 20
2.6774
 30
0.0
 10
-0.55507
 20
2.59392
 30
0.0
 10
-0.55507
 20
2.59392
 30
0.0
 10
-0.55507
 20
2.59392
 30
0.0
 10
-0.81852
 20
2.22015
 30
0.0
 10
-0.81852
 20
2.22015
 30
0.0
 10
-0.81852
 20
2.22015
 30
0.0
 10
-1.01218
 20
2.00397
 30
0.0
 10
-1.22655
 20
1.84231
 30
0.0
 10
-1.46591
 20
1.74641
 30
0.0
 10
-1.46591
 20
1.74641
 30
0.0
 10
-1.69356
 20
1.68586
 30
0.0
 10
-1.9212
 20
1.70027
 30
0.0
 10
-2.14883
 20
1.78293
 30
0.0
 10
-2.14883
 20
1.78293
 30
0.0
 10
-2.30757
 20
1.87381
 30
0.0
 10
-2.36523
 20
2.03216
 30
0.0
 10
-2.3009
 20
2.27197
 30
0.0
 10
-2.3009
 20
2.27197
 30
0.0
 10
-2.2616
 20
2.40006
 30
0.0
 10
-2.09364
 20
2.47659
 30
0.0
 10
-1.79698
 20
2.50153
 30
0.0
  0
SPLINE
  5
A9
330
1F
100
AcDbEntity
  8
Layer 1
 62
    22
370
     5
100
AcDbSpline
210
0.0
220
0.0
230
1.0
 70
    11
 71
     3
 72
    20
 73
    16
 74
     0
 42
0.0000000001
 43
0.0000000001
 40
0.0
 40
0.0
 40
0.0
 40
0.0
 40
0.25
 40
0.25
 40
0.25
 40
0.25
 40
0.5
 40
0.5
 40
0.5
 40
0.5
 40
0.75
 40
0.75
 40
0.75
 40
0.75
 40
1.0
 40
1.0
 40
1.0
 40
1.0
 10
-2.16997
 20
2.10442
 30
0.0
 10
-2.16997
 20
2.10442
 30
0.0
 10
-1.39797
 20
2.2054
 30
0.0
 10
-1.39797
 20
2.2054
 30
0.0
 10
-1.39797
 20
2.2054
 30
0.0
 10
-1.39797
 20
2.2054
 30
0.0
 10
-1.37438
 20
2.10872
 30
0.0
 10
-1.37438
 20
2.10872
 30
0.0
 10
-1.37438
 20
2.10872
 30
0.0
 10
-1.37438
 20
2.10872
 30
0.0
 10
-2.1614
 20
2.02493
 30
0.0
 10
-2.1614
 20
2.02493
 30
0.0
 10
-2.1614
 20
2.02493
 30
0.0
 10
-2.1614
 20
2.02493
 30
0.0
 10
-2.16997
 20
2.10442
 30
0.0
 10
-2.16997
 20
2.10442
 30
0.0
  0
SPLINE
  5
AA
330
1F
100
AcDbEntity
  8
Layer 1
 62
    22
370
     5
100
AcDbSpline
210
0.0
220
0.0
230
1.0
 70
    11
 71
     3
 72
    72
 73
    68
 74
     0
 42
0.0000000001
 43
0.0000000001
 40
0.0
 40
0.0
 40
0.0
 40
0.0
 40
0.0588235294117647
 40
0.0588235294117647
 40
0.0588235294117647
 40
0.0588235294117647
 40
0.1176470588235294
 40
0.1176470588235294
 40
0.1176470588235294
 40
0.1176470588235294
 40
0.1764705882352941
 40
0.1764705882352941
 40
0.1764705882352941
 40
0.1764705882352941
 40
0.2352941176470588
 40
0.2352941176470588
 40
0.2352941176470588
 40
0.2352941176470588
 40
0.2941176470588235
 40
0.2941176470588235
 40
0.2941176470588235
 40
0.2941176470588235
 40
0.3529411764705883
 40
0.3529411764705883
 40
0.3529411764705883
 40
0.3529411764705883
 40
0.411764705882353
 40
0.411764705882353
 40
0.411764705882353
 40
0.411764705882353
 40
0.4705882352941177
 40
0.4705882352941177
 40
0.4705882352941177
 40
0.4705882352941177
 40
0.5294117647058824
 40
0.5294117647058824
 40
0.5294117647058824
 40
0.5294117647058824
 40
0.5882352941176471
 40
0.5882352941176471
 40
0.5882352941176471
 40
0.5882352941176471
 40
0.6470588235294118
 40
0.6470588235294118
 40
0.6470588235294118
 40
0.6470588235294118
 40
0.7058823529411765
 40
0.7058823529411765
 40
0.7058823529411765
 40
0.7058823529411765
 40
0.7647058823529412
 40
0.7647058823529412
 40
0.7647058823529412
 40
0.7647058823529412
 40
0.823529411764706
 40
0.823529411764706
 40
0.823529411764706
 40
0.823529411764706
 40
0.8823529411764707
 40
0.8823529411764707
 40
0.8823529411764707
 40
0.8823529411764707
 40
0.9411764705882354
 40
0.9411764705882354
 40
0.9411764705882354
 40
0.9411764705882354
 40
1.0
 40
1.0
 40
1.0
 40
1.0
 10
2.8462
 20
-3.97895
 30
0.0
 10
2.7574
 20
-4.02179
 30
0.0
 10
2.77941
 20
-4.1606
 30
0.0
 10
2.90579
 20
-4.20203
 30
0.0
 10
2.90579
 20
-4.20203
 30
0.0
 10
2.94507
 20
-4.19569
 30
0.0
 10
2.97291
 20
-4.20081
 30
0.0
 10
2.98931
 20
-4.21735
 30
0.0
 10
2.98931
 20
-4.21735
 30
0.0
 10
3.20864
 20
-4.29165
 30
0.0
 10
3.36062
 20
-4.36853
 30
0.0
 10
3.43132
 20
-4.44851
 30
0.0
 10
3.43132
 20
-4.44851
 30
0.0
 10
3.56324
 20
-4.5567
 30
0.0
 10
3.70321
 20
-4.53042
 30
0.0
 10
3.70648
 20
-4.32991
 30
0.0
 10
3.70648
 20
-4.32991
 30
0.0
 10
3.70648
 20
-4.32991
 30
0.0
 10
3.79537
 20
-4.12874
 30
0.0
 10
3.79537
 20
-4.12874
 30
0.0
 10
3.79537
 20
-4.12874
 30
0.0
 10
3.81943
 20
-4.04102
 30
0.0
 10
3.8921
 20
-3.95904
 30
0.0
 10
4.01338
 20
-3.88277
 30
0.0
 10
4.01338
 20
-3.88277
 30
0.0
 10
4.01338
 20
-3.88277
 30
0.0
 10
4.1697
 20
-3.75568
 30
0.0
 10
4.1697
 20
-3.75568
 30
0.0
 10
4.1697
 20
-3.75568
 30
0.0
 10
4.24859
 20
-3.67412
 30
0.0
 10
4.28636
 20
-3.58721
 30
0.0
 10
4.2337
 20
-3.48844
 30
0.0
 10
4.2337
 20
-3.48844
 30
0.0
 10
4.16181
 20
-3.3453
 30
0.0
 10
4.06132
 20
-3.23366
 30
0.0
 10
3.93227
 20
-3.1535
 30
0.0
 10
3.93227
 20
-3.1535
 30
0.0
 10
3.93227
 20
-3.1535
 30
0.0
 10
3.8599
 20
-3.11717
 30
0.0
 10
3.8599
 20
-3.11717
 30
0.0
 10
3.8599
 20
-3.11717
 30
0.0
 10
3.80766
 20
-3.09066
 30
0.0
 10
3.7783
 20
-3.04981
 30
0.0
 10
3.77182
 20
-2.99462
 30
0.0
 10
3.77182
 20
-2.99462
 30
0.0
 10
3.7696
 20
-2.94566
 30
0.0
 10
3.74739
 20
-2.90816
 30
0.0
 10
3.70519
 20
-2.88208
 30
0.0
 10
3.70519
 20
-2.88208
 30
0.0
 10
3.60915
 20
-2.8296
 30
0.0
 10
3.51847
 20
-2.78966
 30
0.0
 10
3.43965
 20
-2.77725
 30
0.0
 10
3.43965
 20
-2.77725
 30
0.0
 10
3.2956
 20
-2.73018
 30
0.0
 10
3.2259
 20
-2.84067
 30
0.0
 10
3.2563
 20
-2.94111
 30
0.0
 10
3.2563
 20
-2.94111
 30
0.0
 10
3.2563
 20
-2.94111
 30
0.0
 10
3.28379
 20
-3.069
 30
0.0
 10
3.28379
 20
-3.069
 30
0.0
 10
3.28379
 20
-3.069
 30
0.0
 10
3.29555
 20
-3.31717
 30
0.0
 10
3.29637
 20
-3.47995
 30
0.0
 10
3.18365
 20
-3.64778
 30
0.0
 10
3.18365
 20
-3.64778
 30
0.0
 10
3.11975
 20
-3.76426
 30
0.0
 10
3.00156
 20
-3.87395
 30
0.0
 10
2.8462
 20
-3.97895
 30
0.0
  0
SPLINE
  5
AB
330
1F
100
AcDbEntity
  8
Layer 1
 62
    22
370
     5
100
AcDbSpline
210
0.0
220
0.0
230
1.0
 70
    11
 71
     3
 72
    20
 73
    16
 74
     0
 42
0.0000000001
 43
0.0000000001
 40
0.0
 40
0.0
 40
0.0
 40
0.0
 40
0.25
 40
0.25
 40
0.25
 40
0.25
 40
0.5
 40
0.5
 40
0.5
 40
0.5
 40
0.75
 40
0.75
 40
0.75
 40
0.75
 40
1.0
 40
1.0
 40
1.0
 40
1.0
 10
3.51053
 20
-3.80672
 30
0.0
 10
3.51053
 20
-3.80672
 30
0.0
 10
3.60488
 20
-3.84539
 30
0.0
 10
3.60488
 20
-3.84539
 30
0.0
 10
3.60488
 20
-3.84539
 30
0.0
 10
3.60488
 20
-3.84539
 30
0.0
 10
3.92226
 20
-3.17937
 30
0.0
 10
3.92226
 20
-3.17937
 30
0.0
 10
3.92226
 20
-3.17937
 30
0.0
 10
3.92226
 20
-3.17937
 30
0.0
 10
3.82148
 20
-3.14714
 30
0.0
 10
3.82148
 20
-3.14714
 30
0.0
 10
3.82148
 20
-3.14714
 30
0.0
 10
3.82148
 20
-3.14714
 30
0.0
 10
3.51053
 20
-3.80672
 30
0.0
 10
3.51053
 20
-3.80672
 30
0.0
  0
SPLINE
  5
AC
330
1F
100
AcDbEntity
  8
Layer 1
 62
   142
370
     5
100
AcDbSpline
210
0.0
220
0.0
230
1.0
 70
    11
 71
     3
 72
    72
 73
    68
 74
     0
 42
0.0000000001
 43
0.0000000001
 40
0.0
 40
0.0
 40
0.0
 40
0.0
 40
0.0588235294117647
 40
0.0588235294117647
 40
0.0588235294117647
 40
0.0588235294117647
 40
0.1176470588235294
 40
0.1176470588235294
 40
0.1176470588235294
 40
0.1176470588235294
 40
0.1764705882352941
 40
0.1764705882352941
 40
0.1764705882352941
 40
0.1764705882352941
 40
0.2352941176470588
 40
0.2352941176470588
 40
0.2352941176470588
 40
0.2352941176470588
 40
0.2941176470588235
 40
0.2941176470588235
 40
0.2941176470588235
 40
0.2941176470588235
 40
0.3529411764705883
 40
0.3529411764705883
 40
0.3529411764705883
 40
0.3529411764705883
 40
0.411764705882353
 40
0.411764705882353
 40
0.411764705882353
 40
0.411764705882353
 40
0.4705882352941177
 40
0.4705882352941177
 40
0.4705882352941177
 40
0.4705882352941177
 40
0.5294117647058824
 40
0.5294117647058824
 40
0.5294117647058824
 40
0.5294117647058824
 40
0.5882352941176471
 40
0.5882352941176471
 40
0.5882352941176471
 40
0.5882352941176471
 40
0.6470588235294118
 40
0.6470588235294118
 40
0.6470588235294118
 40
0.6470588235294118
 40
0.7058823529411765
 40
0.7058823529411765
 40
0.7058823529411765
 40
0.7058823529411765
 40
0.7647058823529412
 40
0.7647058823529412
 40
0.7647058823529412
 40
0.7647058823529412
 40
0.823529411764706
 40
0.823529411764706
 40
0.823529411764706
 40
0.823529411764706
 40
0.8823529411764707
 40
0.8823529411764707
 40
0.8823529411764707
 40
0.8823529411764707
 40
0.9411764705882354
 40
0.9411764705882354
 40
0.9411764705882354
 40
0.9411764705882354
 40
1.0
 40
1.0
 40
1.0
 40
1.0
 10
7.63438
 20
-3.78843
 30
0.0
 10
7.63438
 20
-3.78843
 30
0.0
 10
6.9469
 20
-4.10859
 30
0.0
 10
6.9469
 20
-4.10859
 30
0.0
 10
6.9469
 20
-4.10859
 30
0.0
 10
6.9469
 20
-4.10859
 30
0.0
 10
6.89141
 20
-3.73798
 30
0.0
 10
6.89141
 20
-3.73798
 30
0.0
 10
6.89141
 20
-3.73798
 30
0.0
 10
6.85504
 20
-3.6634
 30
0.0
 10
6.79879
 20
-3.61953
 30
0.0
 10
6.71849
 20
-3.61274
 30
0.0
 10
6.71849
 20
-3.61274
 30
0.0
 10
6.71849
 20
-3.61274
 30
0.0
 10
6.63852
 20
-3.6376
 30
0.0
 10
6.63852
 20
-3.6376
 30
0.0
 10
6.63852
 20
-3.6376
 30
0.0
 10
6.51453
 20
-3.65133
 30
0.0
 10
6.4035
 20
-3.61467
 30
0.0
 10
6.30542
 20
-3.52762
 30
0.0
 10
6.30542
 20
-3.52762
 30
0.0
 10
6.25316
 20
-3.46323
 30
0.0
 10
6.27996
 20
-3.40146
 30
0.0
 10
6.38582
 20
-3.34228
 30
0.0
 10
6.38582
 20
-3.34228
 30
0.0
 10
6.47835
 20
-3.28329
 30
0.0
 10
6.48469
 20
-3.17499
 30
0.0
 10
6.40481
 20
-3.01733
 30
0.0
 10
6.40481
 20
-3.01733
 30
0.0
 10
6.40481
 20
-3.01733
 30
0.0
 10
6.25744
 20
-2.80554
 30
0.0
 10
6.25744
 20
-2.80554
 30
0.0
 10
6.25744
 20
-2.80554
 30
0.0
 10
6.25744
 20
-2.80554
 30
0.0
 10
6.23898
 20
-2.73671
 30
0.0
 10
6.23898
 20
-2.73671
 30
0.0
 10
6.23898
 20
-2.73671
 30
0.0
 10
6.24052
 20
-2.62026
 30
0.0
 10
6.28776
 20
-2.58379
 30
0.0
 10
6.36625
 20
-2.60201
 30
0.0
 10
6.36625
 20
-2.60201
 30
0.0
 10
6.40177
 20
-2.63719
 30
0.0
 10
6.45565
 20
-2.648
 30
0.0
 10
6.52787
 20
-2.63441
 30
0.0
 10
6.52787
 20
-2.63441
 30
0.0
 10
6.78162
 20
-2.59698
 30
0.0
 10
7.0237
 20
-2.61072
 30
0.0
 10
7.15349
 20
-2.77441
 30
0.0
 10
7.15349
 20
-2.77441
 30
0.0
 10
7.15349
 20
-2.77441
 30
0.0
 10
7.05842
 20
-2.88404
 30
0.0
 10
7.05842
 20
-2.88404
 30
0.0
 10
7.05842
 20
-2.88404
 30
0.0
 10
7.05842
 20
-2.88404
 30
0.0
 10
7.13062
 20
-2.95761
 30
0.0
 10
7.13062
 20
-2.95761
 30
0.0
 10
7.13062
 20
-2.95761
 30
0.0
 10
7.13062
 20
-2.95761
 30
0.0
 10
7.23336
 20
-2.84654
 30
0.0
 10
7.23336
 20
-2.84654
 30
0.0
 10
7.23336
 20
-2.84654
 30
0.0
 10
7.31224
 20
-2.93799
 30
0.0
 10
7.30356
 20
-3.06888
 30
0.0
 10
7.28118
 20
-3.11742
 30
0.0
 10
7.28118
 20
-3.11742
 30
0.0
 10
7.26302
 20
-3.21142
 30
0.0
 10
7.40216
 20
-3.48681
 30
0.0
 10
7.63438
 20
-3.78843
 30
0.0
  0
SPLINE
  5
AD
330
1F
100
AcDbEntity
  8
Layer 1
 62
   142
370
     5
100
AcDbSpline
210
0.0
220
0.0
230
1.0
 70
    11
 71
     3
 72
    20
 73
    16
 74
     0
 42
0.0000000001
 43
0.0000000001
 40
0.0
 40
0.0
 40
0.0
 40
0.0
 40
0.25
 40
0.25
 40
0.25
 40
0.25
 40
0.5
 40
0.5
 40
0.5
 40
0.5
 40
0.75
 40
0.75
 40
0.75
 40
0.75
 40
1.0
 40
1.0
 40
1.0
 40
1.0
 10
7.03496
 20
-3.34052
 30
0.0
 10
7.03496
 20
-3.34052
 30
0.0
 10
6.91956
 20
-3.40586
 30
0.0
 10
6.91956
 20
-3.40586
 30
0.0
 10
6.91956
 20
-3.40586
 30
0.0
 10
6.91956
 20
-3.40586
 30
0.0
 10
7.11198
 20
-3.76324
 30
0.0
 10
7.11198
 20
-3.76324
 30
0.0
 10
7.11198
 20
-3.76324
 30
0.0
 10
7.11198
 20
-3.76324
 30
0.0
 10
7.22666
 20
-3.6895
 30
0.0
 10
7.22666
 20
-3.6895
 30
0.0
 10
7.22666
 20
-3.6895
 30
0.0
 10
7.22666
 20
-3.6895
 30
0.0
 10
7.03496
 20
-3.34052
 30
0.0
 10
7.03496
 20
-3.34052
 30
0.0
  0
SPLINE
  5
AE
330
1F
100
AcDbEntity
  8
Layer 1
 62
    22
370
     5
100
AcDbSpline
210
0.0
220
0.0
230
1.0
 70
    11
 71
     3
 72
   112
 73
   108
 74
     0
 42
0.0000000001
 43
0.0000000001
 40
0.0
 40
0.0
 40
0.0
 40
0.0
 40
0.037037037037037
 40
0.037037037037037
 40
0.037037037037037
 40
0.037037037037037
 40
0.0740740740740741
 40
0.0740740740740741
 40
0.0740740740740741
 40
0.0740740740740741
 40
0.1111111111111111
 40
0.1111111111111111
 40
0.1111111111111111
 40
0.1111111111111111
 40
0.1481481481481481
 40
0.1481481481481481
 40
0.1481481481481481
 40
0.1481481481481481
 40
0.1851851851851852
 40
0.1851851851851852
 40
0.1851851851851852
 40
0.1851851851851852
 40
0.2222222222222222
 40
0.2222222222222222
 40
0.2222222222222222
 40
0.2222222222222222
 40
0.2592592592592592
 40
0.2592592592592592
 40
0.2592592592592592
 40
0.2592592592592592
 40
0.2962962962962963
 40
0.2962962962962963
 40
0.2962962962962963
 40
0.2962962962962963
 40
0.3333333333333333
 40
0.3333333333333333
 40
0.3333333333333333
 40
0.3333333333333333
 40
0.3703703703703703
 40
0.3703703703703703
 40
0.3703703703703703
 40
0.3703703703703703
 40
0.4074074074074074
 40
0.4074074074074074
 40
0.4074074074074074
 40
0.4074074074074074
 40
0.4444444444444444
 40
0.4444444444444444
 40
0.4444444444444444
 40
0.4444444444444444
 40
0.4814814814814815
 40
0.4814814814814815
 40
0.4814814814814815
 40
0.4814814814814815
 40
0.5185185185185185
 40
0.5185185185185185
 40
0.5185185185185185
 40
0.5185185185185185
 40
0.5555555555555556
 40
0.5555555555555556
 40
0.5555555555555556
 40
0.5555555555555556
 40
0.5925925925925926
 40
0.5925925925925926
 40
0.5925925925925926
 40
0.5925925925925926
 40
0.6296296296296295
 40
0.6296296296296295
 40
0.6296296296296295
 40
0.6296296296296295
 40
0.6666666666666665
 40
0.6666666666666665
 40
0.6666666666666665
 40
0.6666666666666665
 40
0.7037037037037035
 40
0.7037037037037035
 40
0.7037037037037035
 40
0.7037037037037035
 40
0.7407407407407405
 40
0.7407407407407405
 40
0.7407407407407405
 40
0.7407407407407405
 40
0.7777777777777775
 40
0.7777777777777775
 40
0.7777777777777775
 40
0.7777777777777775
 40
0.8148148148148144
 40
0.8148148148148144
 40
0.8148148148148144
 40
0.8148148148148144
 40
0.8518518518518514
 40
0.8518518518518514
 40
0.8518518518518514
 40
0.8518518518518514
 40
0.8888888888888884
 40
0.8888888888888884
 40
0.8888888888888884
 40
0.8888888888888884
 40
0.9259259259259254
 40
0.9259259259259254
 40
0.9259259259259254
 40
0.9259259259259254
 40
0.9629629629629624
 40
0.9629629629629624
 40
0.9629629629629624
 40
0.9629629629629624
 40
1.0
 40
1.0
 40
1.0
 40
1.0
 10
-2.03409
 20
-5.24873
 30
0.0
 10
-2.05471
 20
-5.18945
 30
0.0
 10
-2.08467
 20
-5.10031
 30
0.0
 10
-2.13086
 20
-5.04187
 30
0.0
 10
-2.13086
 20
-5.04187
 30
0.0
 10
-2.21533
 20
-4.96441
 30
0.0
 10
-2.27806
 20
-4.85948
 30
0.0
 10
-2.32863
 20
-4.73911
 30
0.0
 10
-2.32863
 20
-4.73911
 30
0.0
 10
-2.32863
 20
-4.73911
 30
0.0
 10
-2.33669
 20
-4.65111
 30
0.0
 10
-2.33669
 20
-4.65111
 30
0.0
 10
-2.33669
 20
-4.65111
 30
0.0
 10
-2.34742
 20
-4.58714
 30
0.0
 10
-2.36272
 20
-4.53788
 30
0.0
 10
-2.38261
 20
-4.50329
 30
0.0
 10
-2.38261
 20
-4.50329
 30
0.0
 10
-2.38142
 20
-4.4451
 30
0.0
 10
-2.51746
 20
-4.31384
 30
0.0
 10
-2.51746
 20
-4.31384
 30
0.0
 10
-2.51746
 20
-4.31384
 30
0.0
 10
-2.51746
 20
-4.31384
 30
0.0
 10
-2.67341
 20
-4.47803
 30
0.0
 10
-2.67341
 20
-4.47803
 30
0.0
 10
-2.67341
 20
-4.47803
 30
0.0
 10
-2.67341
 20
-4.47803
 30
0.0
 10
-2.74579
 20
-4.40755
 30
0.0
 10
-2.74579
 20
-4.40755
 30
0.0
 10
-2.74579
 20
-4.40755
 30
0.0
 10
-2.74579
 20
-4.40755
 30
0.0
 10
-2.60402
 20
-4.24329
 30
0.0
 10
-2.60402
 20
-4.24329
 30
0.0
 10
-2.60402
 20
-4.24329
 30
0.0
 10
-2.60402
 20
-4.24329
 30
0.0
 10
-2.62602
 20
-4.22416
 30
0.0
 10
-2.65024
 20
-4.20299
 30
0.0
 10
-2.65024
 20
-4.20299
 30
0.0
 10
-2.8046
 20
-4.06108
 30
0.0
 10
-2.90707
 20
-3.9572
 30
0.0
 10
-2.93383
 20
-3.97438
 30
0.0
 10
-2.93383
 20
-3.97438
 30
0.0
 10
-2.93383
 20
-3.97438
 30
0.0
 10
-3.34097
 20
-4.01561
 30
0.0
 10
-3.34097
 20
-4.01561
 30
0.0
 10
-3.34097
 20
-4.01561
 30
0.0
 10
-3.48308
 20
-3.90445
 30
0.0
 10
-3.5859
 20
-3.83833
 30
0.0
 10
-3.61617
 20
-3.833
 30
0.0
 10
-3.61617
 20
-3.833
 30
0.0
 10
-3.70414
 20
-3.80742
 30
0.0
 10
-3.70419
 20
-3.84435
 30
0.0
 10
-3.72051
 20
-3.92492
 30
0.0
 10
-3.72051
 20
-3.92492
 30
0.0
 10
-3.71052
 20
-4.01579
 30
0.0
 10
-3.71062
 20
-4.05259
 30
0.0
 10
-3.75421
 20
-4.13636
 30
0.0
 10
-3.75421
 20
-4.13636
 30
0.0
 10
-3.75421
 20
-4.13636
 30
0.0
 10
-3.74229
 20
-4.24496
 30
0.0
 10
-3.74229
 20
-4.24496
 30
0.0
 10
-3.74229
 20
-4.24496
 30
0.0
 10
-3.72833
 20
-4.34036
 30
0.0
 10
-3.67545
 20
-4.39189
 30
0.0
 10
-3.59031
 20
-4.40703
 30
0.0
 10
-3.59031
 20
-4.40703
 30
0.0
 10
-3.52078
 20
-4.42659
 30
0.0
 10
-3.47973
 20
-4.46706
 30
0.0
 10
-3.46723
 20
-4.52841
 30
0.0
 10
-3.46723
 20
-4.52841
 30
0.0
 10
-3.46723
 20
-4.52841
 30
0.0
 10
-3.4563
 20
-4.68294
 30
0.0
 10
-3.4563
 20
-4.68294
 30
0.0
 10
-3.4563
 20
-4.68294
 30
0.0
 10
-3.44938
 20
-4.80355
 30
0.0
 10
-3.47453
 20
-4.88225
 30
0.0
 10
-3.53178
 20
-4.91901
 30
0.0
 10
-3.53178
 20
-4.91901
 30
0.0
 10
-3.58518
 20
-4.92222
 30
0.0
 10
-3.64124
 20
-4.9126
 30
0.0
 10
-3.7045
 20
-4.91872
 30
0.0
 10
-3.7045
 20
-4.91872
 30
0.0
 10
-3.75435
 20
-4.92351
 30
0.0
 10
-3.74769
 20
-5.0051
 30
0.0
 10
-3.71329
 20
-5.0647
 30
0.0
 10
-3.71329
 20
-5.0647
 30
0.0
 10
-3.66474
 20
-5.14893
 30
0.0
 10
-3.64607
 20
-5.14899
 30
0.0
 10
-3.6039
 20
-5.15335
 30
0.0
 10
-3.6039
 20
-5.15335
 30
0.0
 10
-3.50922
 20
-5.12704
 30
0.0
 10
-3.43021
 20
-5.17352
 30
0.0
 10
-3.41222
 20
-5.19023
 30
0.0
 10
-3.41222
 20
-5.19023
 30
0.0
 10
-3.31007
 20
-5.2776
 30
0.0
 10
-3.27409
 20
-5.29172
 30
0.0
 10
-3.20184
 20
-5.29253
 30
0.0
 10
-3.20184
 20
-5.29253
 30
0.0
 10
-3.15079
 20
-5.28227
 30
0.0
 10
-3.05565
 20
-5.36446
 30
0.0
 10
-3.02374
 20
-5.43888
 30
0.0
 10
-3.02374
 20
-5.43888
 30
0.0
 10
-3.02374
 20
-5.43888
 30
0.0
 10
-2.99365
 20
-5.69562
 30
0.0
 10
-2.99365
 20
-5.69562
 30
0.0
 10
-2.99365
 20
-5.69562
 30
0.0
 10
-2.99365
 20
-5.69562
 30
0.0
 10
-2.03409
 20
-5.24873
 30
0.0
 10
-2.03409
 20
-5.24873
 30
0.0
  0
SPLINE
  5
AF
330
1F
100
AcDbEntity
  8
Layer 1
 62
    22
370
     5
100
AcDbSpline
210
0.0
220
0.0
230
1.0
 70
    11
 71
     3
 72
    20
 73
    16
 74
     0
 42
0.0000000001
 43
0.0000000001
 40
0.0
 40
0.0
 40
0.0
 40
0.0
 40
0.25
 40
0.25
 40
0.25
 40
0.25
 40
0.5
 40
0.5
 40
0.5
 40
0.5
 40
0.75
 40
0.75
 40
0.75
 40
0.75
 40
1.0
 40
1.0
 40
1.0
 40
1.0
 10
-2.88466
 20
-4.92937
 30
0.0
 10
-2.88466
 20
-4.92937
 30
0.0
 10
-2.69429
 20
-5.28674
 30
0.0
 10
-2.69429
 20
-5.28674
 30
0.0
 10
-2.69429
 20
-5.28674
 30
0.0
 10
-2.69429
 20
-5.28674
 30
0.0
 10
-2.5796
 20
-5.21302
 30
0.0
 10
-2.5796
 20
-5.21302
 30
0.0
 10
-2.5796
 20
-5.21302
 30
0.0
 10
-2.5796
 20
-5.21302
 30
0.0
 10
-2.76924
 20
-4.86404
 30
0.0
 10
-2.76924
 20
-4.86404
 30
0.0
 10
-2.76924
 20
-4.86404
 30
0.0
 10
-2.76924
 20
-4.86404
 30
0.0
 10
-2.88466
 20
-4.92937
 30
0.0
 10
-2.88466
 20
-4.92937
 30
0.0
  0
SPLINE
  5
B0
330
1F
100
AcDbEntity
  8
Layer 1
 62
    22
370
     5
100
AcDbSpline
210
0.0
220
0.0
230
1.0
 70
    11
 71
     3
 72
   112
 73
   108
 74
     0
 42
0.0000000001
 43
0.0000000001
 40
0.0
 40
0.0
 40
0.0
 40
0.0
 40
0.037037037037037
 40
0.037037037037037
 40
0.037037037037037
 40
0.037037037037037
 40
0.0740740740740741
 40
0.0740740740740741
 40
0.0740740740740741
 40
0.0740740740740741
 40
0.1111111111111111
 40
0.1111111111111111
 40
0.1111111111111111
 40
0.1111111111111111
 40
0.1481481481481481
 40
0.1481481481481481
 40
0.1481481481481481
 40
0.1481481481481481
 40
0.1851851851851852
 40
0.1851851851851852
 40
0.1851851851851852
 40
0.1851851851851852
 40
0.2222222222222222
 40
0.2222222222222222
 40
0.2222222222222222
 40
0.2222222222222222
 40
0.2592592592592592
 40
0.2592592592592592
 40
0.2592592592592592
 40
0.2592592592592592
 40
0.2962962962962963
 40
0.2962962962962963
 40
0.2962962962962963
 40
0.2962962962962963
 40
0.3333333333333333
 40
0.3333333333333333
 40
0.3333333333333333
 40
0.3333333333333333
 40
0.3703703703703703
 40
0.3703703703703703
 40
0.3703703703703703
 40
0.3703703703703703
 40
0.4074074074074074
 40
0.4074074074074074
 40
0.4074074074074074
 40
0.4074074074074074
 40
0.4444444444444444
 40
0.4444444444444444
 40
0.4444444444444444
 40
0.4444444444444444
 40
0.4814814814814815
 40
0.4814814814814815
 40
0.4814814814814815
 40
0.4814814814814815
 40
0.5185185185185185
 40
0.5185185185185185
 40
0.5185185185185185
 40
0.5185185185185185
 40
0.5555555555555556
 40
0.5555555555555556
 40
0.5555555555555556
 40
0.5555555555555556
 40
0.5925925925925926
 40
0.5925925925925926
 40
0.5925925925925926
 40
0.5925925925925926
 40
0.6296296296296295
 40
0.6296296296296295
 40
0.6296296296296295
 40
0.6296296296296295
 40
0.6666666666666665
 40
0.6666666666666665
 40
0.6666666666666665
 40
0.6666666666666665
 40
0.7037037037037035
 40
0.7037037037037035
 40
0.7037037037037035
 40
0.7037037037037035
 40
0.7407407407407405
 40
0.7407407407407405
 40
0.7407407407407405
 40
0.7407407407407405
 40
0.7777777777777775
 40
0.7777777777777775
 40
0.7777777777777775
 40
0.7777777777777775
 40
0.8148148148148144
 40
0.8148148148148144
 40
0.8148148148148144
 40
0.8148148148148144
 40
0.8518518518518514
 40
0.8518518518518514
 40
0.8518518518518514
 40
0.8518518518518514
 40
0.8888888888888884
 40
0.8888888888888884
 40
0.8888888888888884
 40
0.8888888888888884
 40
0.9259259259259254
 40
0.9259259259259254
 40
0.9259259259259254
 40
0.9259259259259254
 40
0.9629629629629624
 40
0.9629629629629624
 40
0.9629629629629624
 40
0.9629629629629624
 40
1.0
 40
1.0
 40
1.0
 40
1.0
 10
9.4245
 20
-2.18714
 30
0.0
 10
9.59246
 20
-2.10902
 30
0.0
 10
9.94402
 20
-1.95387
 30
0.0
 10
10.16736
 20
-1.84128
 30
0.0
 10
10.16736
 20
-1.84128
 30
0.0
 10
10.23799
 20
-1.82009
 30
0.0
 10
10.23369
 20
-1.74185
 30
0.0
 10
10.20774
 20
-1.69748
 30
0.0
 10
10.20774
 20
-1.69748
 30
0.0
 10
10.17519
 20
-1.63702
 30
0.0
 10
10.13438
 20
-1.57416
 30
0.0
 10
10.08531
 20
-1.50885
 30
0.0
 10
10.08531
 20
-1.50885
 30
0.0
 10
9.99859
 20
-1.39751
 30
0.0
 10
9.93364
 20
-1.24187
 30
0.0
 10
9.89044
 20
-1.04191
 30
0.0
 10
9.89044
 20
-1.04191
 30
0.0
 10
9.86745
 20
-0.97919
 30
0.0
 10
9.84943
 20
-0.93822
 30
0.0
 10
9.80567
 20
-0.86502
 30
0.0
 10
9.80567
 20
-0.86502
 30
0.0
 10
9.80567
 20
-0.86502
 30
0.0
 10
9.67231
 20
-1.00543
 30
0.0
 10
9.67231
 20
-1.00543
 30
0.0
 10
9.67231
 20
-1.00543
 30
0.0
 10
9.67231
 20
-1.00543
 30
0.0
 10
9.59993
 20
-0.93496
 30
0.0
 10
9.59993
 20
-0.93496
 30
0.0
 10
9.59993
 20
-0.93496
 30
0.0
 10
9.59993
 20
-0.93496
 30
0.0
 10
9.73075
 20
-0.78287
 30
0.0
 10
9.73075
 20
-0.78287
 30
0.0
 10
9.73075
 20
-0.78287
 30
0.0
 10
9.59678
 20
-0.70238
 30
0.0
 10
9.43447
 20
-0.55556
 30
0.0
 10
9.27204
 20
-0.57251
 30
0.0
 10
9.27204
 20
-0.57251
 30
0.0
 10
9.27204
 20
-0.57251
 30
0.0
 10
9.11724
 20
-0.6042
 30
0.0
 10
9.11724
 20
-0.6042
 30
0.0
 10
9.11724
 20
-0.6042
 30
0.0
 10
9.07676
 20
-0.61882
 30
0.0
 10
9.02967
 20
-0.60471
 30
0.0
 10
8.97591
 20
-0.56188
 30
0.0
 10
8.97591
 20
-0.56188
 30
0.0
 10
8.97591
 20
-0.56188
 30
0.0
 10
8.85293
 20
-0.46487
 30
0.0
 10
8.85293
 20
-0.46487
 30
0.0
 10
8.85293
 20
-0.46487
 30
0.0
 10
8.7176
 20
-0.3981
 30
0.0
 10
8.65438
 20
-0.43256
 30
0.0
 10
8.66324
 20
-0.56823
 30
0.0
 10
8.66324
 20
-0.56823
 30
0.0
 10
8.61706
 20
-0.68943
 30
0.0
 10
8.63483
 20
-0.76345
 30
0.0
 10
8.63913
 20
-0.83371
 30
0.0
 10
8.63913
 20
-0.83371
 30
0.0
 10
8.63913
 20
-0.83371
 30
0.0
 10
8.63713
 20
-1.06046
 30
0.0
 10
8.63713
 20
-1.06046
 30
0.0
 10
8.63713
 20
-1.06046
 30
0.0
 10
8.64435
 20
-1.12053
 30
0.0
 10
8.65792
 20
-1.15863
 30
0.0
 10
8.67784
 20
-1.17472
 30
0.0
 10
8.67784
 20
-1.17472
 30
0.0
 10
8.69324
 20
-1.18417
 30
0.0
 10
8.69796
 20
-1.16398
 30
0.0
 10
8.70991
 20
-1.1336
 30
0.0
 10
8.70991
 20
-1.1336
 30
0.0
 10
8.76301
 20
-1.03866
 30
0.0
 10
8.86805
 20
-1.01475
 30
0.0
 10
8.88403
 20
-1.09955
 30
0.0
 10
8.88403
 20
-1.09955
 30
0.0
 10
8.88403
 20
-1.09955
 30
0.0
 10
8.89104
 20
-1.28745
 30
0.0
 10
8.89104
 20
-1.28745
 30
0.0
 10
8.89104
 20
-1.28745
 30
0.0
 10
8.89479
 20
-1.40425
 30
0.0
 10
8.75758
 20
-1.50106
 30
0.0
 10
8.704
 20
-1.42232
 30
0.0
 10
8.704
 20
-1.42232
 30
0.0
 10
8.704
 20
-1.42232
 30
0.0
 10
8.66777
 20
-1.38554
 30
0.0
 10
8.66777
 20
-1.38554
 30
0.0
 10
8.66777
 20
-1.38554
 30
0.0
 10
8.65637
 20
-1.33795
 30
0.0
 10
8.62775
 20
-1.31984
 30
0.0
 10
8.61684
 20
-1.35145
 30
0.0
 10
8.61684
 20
-1.35145
 30
0.0
 10
8.61684
 20
-1.35145
 30
0.0
 10
8.65455
 20
-1.4972
 30
0.0
 10
8.65455
 20
-1.4972
 30
0.0
 10
8.65455
 20
-1.4972
 30
0.0
 10
8.66118
 20
-1.63091
 30
0.0
 10
8.73666
 20
-1.63795
 30
0.0
 10
8.84236
 20
-1.6439
 30
0.0
 10
8.84236
 20
-1.6439
 30
0.0
 10
8.98843
 20
-1.68541
 30
0.0
 10
8.99848
 20
-1.75775
 30
0.0
 10
9.15021
 20
-1.76813
 30
0.0
 10
9.15021
 20
-1.76813
 30
0.0
 10
9.28926
 20
-1.77667
 30
0.0
 10
9.35666
 20
-1.8604
 30
0.0
 10
9.39424
 20
-2.0855
 30
0.0
 10
9.39424
 20
-2.0855
 30
0.0
 10
9.41122
 20
-2.14258
 30
0.0
 10
9.43049
 20
-2.18356
 30
0.0
 10
9.4245
 20
-2.18714
 30
0.0
  0
SPLINE
  5
B1
330
1F
100
AcDbEntity
  8
Layer 1
 62
    22
370
     5
100
AcDbSpline
210
0.0
220
0.0
230
1.0
 70
    11
 71
     3
 72
    20
 73
    16
 74
     0
 42
0.0000000001
 43
0.0000000001
 40
0.0
 40
0.0
 40
0.0
 40
0.0
 40
0.25
 40
0.25
 40
0.25
 40
0.25
 40
0.5
 40
0.5
 40
0.5
 40
0.5
 40
0.75
 40
0.75
 40
0.75
 40
0.75
 40
1.0
 40
1.0
 40
1.0
 40
1.0
 10
9.76835
 20
-1.73732
 30
0.0
 10
9.76835
 20
-1.73732
 30
0.0
 10
9.65367
 20
-1.81105
 30
0.0
 10
9.65367
 20
-1.81105
 30
0.0
 10
9.65367
 20
-1.81105
 30
0.0
 10
9.65367
 20
-1.81105
 30
0.0
 10
9.46403
 20
-1.45509
 30
0.0
 10
9.46403
 20
-1.45509
 30
0.0
 10
9.46403
 20
-1.45509
 30
0.0
 10
9.46403
 20
-1.45509
 30
0.0
 10
9.57871
 20
-1.38834
 30
0.0
 10
9.57871
 20
-1.38834
 30
0.0
 10
9.57871
 20
-1.38834
 30
0.0
 10
9.57871
 20
-1.38834
 30
0.0
 10
9.76835
 20
-1.73732
 30
0.0
 10
9.76835
 20
-1.73732
 30
0.0
  0
SPLINE
  5
B2
330
1F
100
AcDbEntity
  8
Layer 1
 62
    22
370
     5
100
AcDbSpline
210
0.0
220
0.0
230
1.0
 70
    11
 71
     3
 72
    24
 73
    20
 74
     0
 42
0.0000000001
 43
0.0000000001
 40
0.0
 40
0.0
 40
0.0
 40
0.0
 40
0.2
 40
0.2
 40
0.2
 40
0.2
 40
0.4
 40
0.4
 40
0.4
 40
0.4
 40
0.6000000000000001
 40
0.6000000000000001
 40
0.6000000000000001
 40
0.6000000000000001
 40
0.8
 40
0.8
 40
0.8
 40
0.8
 40
1.0
 40
1.0
 40
1.0
 40
1.0
 10
-6.10139
 20
-4.6124
 30
0.0
 10
-6.10139
 20
-4.6124
 30
0.0
 10
-5.27799
 20
-4.6124
 30
0.0
 10
-5.27799
 20
-4.6124
 30
0.0
 10
-5.27799
 20
-4.6124
 30
0.0
 10
-5.27799
 20
-4.6124
 30
0.0
 10
-5.27799
 20
-3.90684
 30
0.0
 10
-5.27799
 20
-3.90684
 30
0.0
 10
-5.27799
 20
-3.90684
 30
0.0
 10
-5.27799
 20
-3.90684
 30
0.0
 10
-6.10139
 20
-3.90684
 30
0.0
 10
-6.10139
 20
-3.90684
 30
0.0
 10
-6.10139
 20
-3.90684
 30
0.0
 10
-6.10139
 20
-3.90684
 30
0.0
 10
-6.10139
 20
-4.6124
 30
0.0
 10
-6.10139
 20
-4.6124
 30
0.0
 10
-6.10139
 20
-4.6124
 30
0.0
 10
-6.10139
 20
-4.6124
 30
0.0
 10
-6.10139
 20
-4.6124
 30
0.0
 10
-6.10139
 20
-4.6124
 30
0.0
  0
SPLINE
  5
B3
330
1F
100
AcDbEntity
  8
Layer 1
 62
    22
370
     5
100
AcDbSpline
210
0.0
220
0.0
230
1.0
 70
    11
 71
     3
 72
    24
 73
    20
 74
     0
 42
0.0000000001
 43
0.0000000001
 40
0.0
 40
0.0
 40
0.0
 40
0.0
 40
0.2
 40
0.2
 40
0.2
 40
0.2
 40
0.4
 40
0.4
 40
0.4
 40
0.4
 40
0.6000000000000001
 40
0.6000000000000001
 40
0.6000000000000001
 40
0.6000000000000001
 40
0.8
 40
0.8
 40
0.8
 40
0.8
 40
1.0
 40
1.0
 40
1.0
 40
1.0
 10
-5.92069
 20
-4.32852
 30
0.0
 10
-5.92069
 20
-4.32852
 30
0.0
 10
-5.51823
 20
-4.32852
 30
0.0
 10
-5.51823
 20
-4.32852
 30
0.0
 10
-5.51823
 20
-4.32852
 30
0.0
 10
-5.51823
 20
-4.32852
 30
0.0
 10
-5.51823
 20
-4.201
 30
0.0
 10
-5.51823
 20
-4.201
 30
0.0
 10
-5.51823
 20
-4.201
 30
0.0
 10
-5.51823
 20
-4.201
 30
0.0
 10
-5.92069
 20
-4.201
 30
0.0
 10
-5.92069
 20
-4.201
 30
0.0
 10
-5.92069
 20
-4.201
 30
0.0
 10
-5.92069
 20
-4.201
 30
0.0
 10
-5.92069
 20
-4.32852
 30
0.0
 10
-5.92069
 20
-4.32852
 30
0.0
 10
-5.92069
 20
-4.32852
 30
0.0
 10
-5.92069
 20
-4.32852
 30
0.0
 10
-5.92069
 20
-4.32852
 30
0.0
 10
-5.92069
 20
-4.32852
 30
0.0
  0
SPLINE
  5
B4
330
1F
100
AcDbEntity
  8
Layer 1
 62
    22
370
     5
100
AcDbSpline
210
0.0
220
0.0
230
1.0
 70
    11
 71
     3
 72
    24
 73
    20
 74
     0
 42
0.0000000001
 43
0.0000000001
 40
0.0
 40
0.0
 40
0.0
 40
0.0
 40
0.2
 40
0.2
 40
0.2
 40
0.2
 40
0.4
 40
0.4
 40
0.4
 40
0.4
 40
0.6000000000000001
 40
0.6000000000000001
 40
0.6000000000000001
 40
0.6000000000000001
 40
0.8
 40
0.8
 40
0.8
 40
0.8
 40
1.0
 40
1.0
 40
1.0
 40
1.0
 10
-5.08643
 20
-4.61713
 30
0.0
 10
-5.08643
 20
-4.61713
 30
0.0
 10
-4.11881
 20
-4.61713
 30
0.0
 10
-4.11881
 20
-4.61713
 30
0.0
 10
-4.11881
 20
-4.61713
 30
0.0
 10
-4.11881
 20
-4.61713
 30
0.0
 10
-4.11881
 20
-3.91157
 30
0.0
 10
-4.11881
 20
-3.91157
 30
0.0
 10
-4.11881
 20
-3.91157
 30
0.0
 10
-4.11881
 20
-3.91157
 30
0.0
 10
-5.08643
 20
-3.91157
 30
0.0
 10
-5.08643
 20
-3.91157
 30
0.0
 10
-5.08643
 20
-3.91157
 30
0.0
 10
-5.08643
 20
-3.91157
 30
0.0
 10
-5.08643
 20
-4.61713
 30
0.0
 10
-5.08643
 20
-4.61713
 30
0.0
 10
-5.08643
 20
-4.61713
 30
0.0
 10
-5.08643
 20
-4.61713
 30
0.0
 10
-5.08643
 20
-4.61713
 30
0.0
 10
-5.08643
 20
-4.61713
 30
0.0
  0
SPLINE
  5
B5
330
1F
100
AcDbEntity
  8
Layer 1
 62
    22
370
     5
100
AcDbSpline
210
0.0
220
0.0
230
1.0
 70
    11
 71
     3
 72
    24
 73
    20
 74
     0
 42
0.0000000001
 43
0.0000000001
 40
0.0
 40
0.0
 40
0.0
 40
0.0
 40
0.2
 40
0.2
 40
0.2
 40
0.2
 40
0.4
 40
0.4
 40
0.4
 40
0.4
 40
0.6000000000000001
 40
0.6000000000000001
 40
0.6000000000000001
 40
0.6000000000000001
 40
0.8
 40
0.8
 40
0.8
 40
0.8
 40
1.0
 40
1.0
 40
1.0
 40
1.0
 10
-4.87408
 20
-4.33325
 30
0.0
 10
-4.87408
 20
-4.33325
 30
0.0
 10
-4.40112
 20
-4.33325
 30
0.0
 10
-4.40112
 20
-4.33325
 30
0.0
 10
-4.40112
 20
-4.33325
 30
0.0
 10
-4.40112
 20
-4.33325
 30
0.0
 10
-4.40112
 20
-4.20573
 30
0.0
 10
-4.40112
 20
-4.20573
 30
0.0
 10
-4.40112
 20
-4.20573
 30
0.0
 10
-4.40112
 20
-4.20573
 30
0.0
 10
-4.87408
 20
-4.20573
 30
0.0
 10
-4.87408
 20
-4.20573
 30
0.0
 10
-4.87408
 20
-4.20573
 30
0.0
 10
-4.87408
 20
-4.20573
 30
0.0
 10
-4.87408
 20
-4.33325
 30
0.0
 10
-4.87408
 20
-4.33325
 30
0.0
 10
-4.87408
 20
-4.33325
 30
0.0
 10
-4.87408
 20
-4.33325
 30
0.0
 10
-4.87408
 20
-4.33325
 30
0.0
 10
-4.87408
 20
-4.33325
 30
0.0
  0
SPLINE
  5
B6
330
1F
100
AcDbEntity
  8
Layer 1
 62
   250
370
     5
100
AcDbSpline
210
0.0
220
0.0
230
1.0
 70
    11
 71
     3
 72
    24
 73
    20
 74
     0
 42
0.0000000001
 43
0.0000000001
 40
0.0
 40
0.0
 40
0.0
 40
0.0
 40
0.2
 40
0.2
 40
0.2
 40
0.2
 40
0.4
 40
0.4
 40
0.4
 40
0.4
 40
0.6000000000000001
 40
0.6000000000000001
 40
0.6000000000000001
 40
0.6000000000000001
 40
0.8
 40
0.8
 40
0.8
 40
0.8
 40
1.0
 40
1.0
 40
1.0
 40
1.0
 10
-7.45058
 20
4.96802
 30
0.0
 10
-7.45058
 20
4.96802
 30
0.0
 10
-6.72488
 20
4.96802
 30
0.0
 10
-6.72488
 20
4.96802
 30
0.0
 10
-6.72488
 20
4.96802
 30
0.0
 10
-6.72488
 20
4.96802
 30
0.0
 10
-6.72488
 20
5.52562
 30
0.0
 10
-6.72488
 20
5.52562
 30
0.0
 10
-6.72488
 20
5.52562
 30
0.0
 10
-6.72488
 20
5.52562
 30
0.0
 10
-7.45058
 20
5.52562
 30
0.0
 10
-7.45058
 20
5.52562
 30
0.0
 10
-7.45058
 20
5.52562
 30
0.0
 10
-7.45058
 20
5.52562
 30
0.0
 10
-7.45058
 20
4.96802
 30
0.0
 10
-7.45058
 20
4.96802
 30
0.0
 10
-7.45058
 20
4.96802
 30
0.0
 10
-7.45058
 20
4.96802
 30
0.0
 10
-7.45058
 20
4.96802
 30
0.0
 10
-7.45058
 20
4.96802
 30
0.0
  0
SPLINE
  5
B7
330
1F
100
AcDbEntity
  8
Layer 1
 62
   250
370
     5
100
AcDbSpline
210
0.0
220
0.0
230
1.0
 70
    11
 71
     3
 72
    24
 73
    20
 74
     0
 42
0.0000000001
 43
0.0000000001
 40
0.0
 40
0.0
 40
0.0
 40
0.0
 40
0.2
 40
0.2
 40
0.2
 40
0.2
 40
0.4
 40
0.4
 40
0.4
 40
0.4
 40
0.6000000000000001
 40
0.6000000000000001
 40
0.6000000000000001
 40
0.6000000000000001
 40
0.8
 40
0.8
 40
0.8
 40
0.8
 40
1.0
 40
1.0
 40
1.0
 40
1.0
 10
-7.1318
 20
5.09406
 30
0.0
 10
-7.1318
 20
5.09406
 30
0.0
 10
-7.02092
 20
5.09406
 30
0.0
 10
-7.02092
 20
5.09406
 30
0.0
 10
-7.02092
 20
5.09406
 30
0.0
 10
-7.02092
 20
5.09406
 30
0.0
 10
-7.02092
 20
5.42318
 30
0.0
 10
-7.02092
 20
5.42318
 30
0.0
 10
-7.02092
 20
5.42318
 30
0.0
 10
-7.02092
 20
5.42318
 30
0.0
 10
-7.1318
 20
5.42318
 30
0.0
 10
-7.1318
 20
5.42318
 30
0.0
 10
-7.1318
 20
5.42318
 30
0.0
 10
-7.1318
 20
5.42318
 30
0.0
 10
-7.1318
 20
5.09406
 30
0.0
 10
-7.1318
 20
5.09406
 30
0.0
 10
-7.1318
 20
5.09406
 30
0.0
 10
-7.1318
 20
5.09406
 30
0.0
 10
-7.1318
 20
5.09406
 30
0.0
 10
-7.1318
 20
5.09406
 30
0.0
  0
SPLINE
  5
B8
330
1F
100
AcDbEntity
  8
Layer 1
 62
   250
370
     5
100
AcDbSpline
210
0.0
220
0.0
230
1.0
 70
    11
 71
     3
 72
    24
 73
    20
 74
     0
 42
0.0000000001
 43
0.0000000001
 40
0.0
 40
0.0
 40
0.0
 40
0.0
 40
0.2
 40
0.2
 40
0.2
 40
0.2
 40
0.4
 40
0.4
 40
0.4
 40
0.4
 40
0.6000000000000001
 40
0.6000000000000001
 40
0.6000000000000001
 40
0.6000000000000001
 40
0.8
 40
0.8
 40
0.8
 40
0.8
 40
1.0
 40
1.0
 40
1.0
 40
1.0
 10
-9.4183
 20
4.72988
 30
0.0
 10
-9.4183
 20
4.72988
 30
0.0
 10
-8.6885
 20
4.72988
 30
0.0
 10
-8.6885
 20
4.72988
 30
0.0
 10
-8.6885
 20
4.72988
 30
0.0
 10
-8.6885
 20
4.72988
 30
0.0
 10
-8.6885
 20
5.69748
 30
0.0
 10
-8.6885
 20
5.69748
 30
0.0
 10
-8.6885
 20
5.69748
 30
0.0
 10
-8.6885
 20
5.69748
 30
0.0
 10
-9.4183
 20
5.69748
 30
0.0
 10
-9.4183
 20
5.69748
 30
0.0
 10
-9.4183
 20
5.69748
 30
0.0
 10
-9.4183
 20
5.69748
 30
0.0
 10
-9.4183
 20
4.72988
 30
0.0
 10
-9.4183
 20
4.72988
 30
0.0
 10
-9.4183
 20
4.72988
 30
0.0
 10
-9.4183
 20
4.72988
 30
0.0
 10
-9.4183
 20
4.72988
 30
0.0
 10
-9.4183
 20
4.72988
 30
0.0
  0
SPLINE
  5
B9
330
1F
100
AcDbEntity
  8
Layer 1
 62
   250
370
     5
100
AcDbSpline
210
0.0
220
0.0
230
1.0
 70
    11
 71
     3
 72
    24
 73
    20
 74
     0
 42
0.0000000001
 43
0.0000000001
 40
0.0
 40
0.0
 40
0.0
 40
0.0
 40
0.2
 40
0.2
 40
0.2
 40
0.2
 40
0.4
 40
0.4
 40
0.4
 40
0.4
 40
0.6000000000000001
 40
0.6000000000000001
 40
0.6000000000000001
 40
0.6000000000000001
 40
0.8
 40
0.8
 40
0.8
 40
0.8
 40
1.0
 40
1.0
 40
1.0
 40
1.0
 10
-9.0944
 20
5.16038
 30
0.0
 10
-9.0944
 20
5.16038
 30
0.0
 10
-8.9714
 20
5.16038
 30
0.0
 10
-8.9714
 20
5.16038
 30
0.0
 10
-8.9714
 20
5.16038
 30
0.0
 10
-8.9714
 20
5.16038
 30
0.0
 10
-8.9714
 20
5.52528
 30
0.0
 10
-8.9714
 20
5.52528
 30
0.0
 10
-8.9714
 20
5.52528
 30
0.0
 10
-8.9714
 20
5.52528
 30
0.0
 10
-9.0944
 20
5.52528
 30
0.0
 10
-9.0944
 20
5.52528
 30
0.0
 10
-9.0944
 20
5.52528
 30
0.0
 10
-9.0944
 20
5.52528
 30
0.0
 10
-9.0944
 20
5.16038
 30
0.0
 10
-9.0944
 20
5.16038
 30
0.0
 10
-9.0944
 20
5.16038
 30
0.0
 10
-9.0944
 20
5.16038
 30
0.0
 10
-9.0944
 20
5.16038
 30
0.0
 10
-9.0944
 20
5.16038
 30
0.0
  0
SPLINE
  5
BA
330
1F
100
AcDbEntity
  8
Layer 1
 62
    22
370
     5
100
AcDbSpline
210
0.0
220
0.0
230
1.0
 70
    11
 71
     3
 72
    24
 73
    20
 74
     0
 42
0.0000000001
 43
0.0000000001
 40
0.0
 40
0.0
 40
0.0
 40
0.0
 40
0.2
 40
0.2
 40
0.2
 40
0.2
 40
0.4
 40
0.4
 40
0.4
 40
0.4
 40
0.6000000000000001
 40
0.6000000000000001
 40
0.6000000000000001
 40
0.6000000000000001
 40
0.8
 40
0.8
 40
0.8
 40
0.8
 40
1.0
 40
1.0
 40
1.0
 40
1.0
 10
-7.116
 20
-4.55034
 30
0.0
 10
-7.116
 20
-4.55034
 30
0.0
 10
-6.2926
 20
-4.55034
 30
0.0
 10
-6.2926
 20
-4.55034
 30
0.0
 10
-6.2926
 20
-4.55034
 30
0.0
 10
-6.2926
 20
-4.55034
 30
0.0
 10
-6.2926
 20
-3.84478
 30
0.0
 10
-6.2926
 20
-3.84478
 30
0.0
 10
-6.2926
 20
-3.84478
 30
0.0
 10
-6.2926
 20
-3.84478
 30
0.0
 10
-7.116
 20
-3.84478
 30
0.0
 10
-7.116
 20
-3.84478
 30
0.0
 10
-7.116
 20
-3.84478
 30
0.0
 10
-7.116
 20
-3.84478
 30
0.0
 10
-7.116
 20
-4.55034
 30
0.0
 10
-7.116
 20
-4.55034
 30
0.0
 10
-7.116
 20
-4.55034
 30
0.0
 10
-7.116
 20
-4.55034
 30
0.0
 10
-7.116
 20
-4.55034
 30
0.0
 10
-7.116
 20
-4.55034
 30
0.0
  0
SPLINE
  5
BB
330
1F
100
AcDbEntity
  8
Layer 1
 62
    22
370
     5
100
AcDbSpline
210
0.0
220
0.0
230
1.0
 70
    11
 71
     3
 72
    24
 73
    20
 74
     0
 42
0.0000000001
 43
0.0000000001
 40
0.0
 40
0.0
 40
0.0
 40
0.0
 40
0.2
 40
0.2
 40
0.2
 40
0.2
 40
0.4
 40
0.4
 40
0.4
 40
0.4
 40
0.6000000000000001
 40
0.6000000000000001
 40
0.6000000000000001
 40
0.6000000000000001
 40
0.8
 40
0.8
 40
0.8
 40
0.8
 40
1.0
 40
1.0
 40
1.0
 40
1.0
 10
-6.9353
 20
-4.26646
 30
0.0
 10
-6.9353
 20
-4.26646
 30
0.0
 10
-6.53284
 20
-4.26646
 30
0.0
 10
-6.53284
 20
-4.26646
 30
0.0
 10
-6.53284
 20
-4.26646
 30
0.0
 10
-6.53284
 20
-4.26646
 30
0.0
 10
-6.53284
 20
-4.13894
 30
0.0
 10
-6.53284
 20
-4.13894
 30
0.0
 10
-6.53284
 20
-4.13894
 30
0.0
 10
-6.53284
 20
-4.13894
 30
0.0
 10
-6.9353
 20
-4.13894
 30
0.0
 10
-6.9353
 20
-4.13894
 30
0.0
 10
-6.9353
 20
-4.13894
 30
0.0
 10
-6.9353
 20
-4.13894
 30
0.0
 10
-6.9353
 20
-4.26646
 30
0.0
 10
-6.9353
 20
-4.26646
 30
0.0
 10
-6.9353
 20
-4.26646
 30
0.0
 10
-6.9353
 20
-4.26646
 30
0.0
 10
-6.9353
 20
-4.26646
 30
0.0
 10
-6.9353
 20
-4.26646
 30
0.0
  0
ENDSEC
  0
SECTION
  2
OBJECTS
  0
DICTIONARY
  5
C
330
0
100
AcDbDictionary
281
     1
  3
ACAD_GROUP
350
D
  3
ACAD_LAYOUT
350
1A
  3
ACAD_MLEADERSTYLE
350
BD
  3
ACAD_MLINESTYLE
350
17
  3
ACAD_PLOTSETTINGS
350
19
  3
ACAD_PLOTSTYLENAME
350
E
  3
ACAD_SCALELIST
350
3B
  3
ACAD_TABLESTYLE
350
BC
  3
ACAD_VISUALSTYLE
350
2A
  0
DICTIONARY
  5
D
102
{ACAD_REACTORS
330
C
102
}
330
C
100
AcDbDictionary
281
     1
  0
DICTIONARY
  5
1A
102
{ACAD_REACTORS
330
C
102
}
330
C
100
AcDbDictionary
281
     1
  3
Layout1
350
1E
  3
Layout2
350
26
  3
Model
350
22
  0
DICTIONARY
  5
BD
102
{ACAD_REACTORS
330
C
102
}
330
C
100
AcDbDictionary
281
     1
  0
DICTIONARY
  5
17
102
{ACAD_REACTORS
330
C
102
}
330
C
100
AcDbDictionary
281
     1
  3
Standard
350
18
  0
DICTIONARY
  5
19
102
{ACAD_REACTORS
330
C
102
}
330
C
100
AcDbDictionary
281
     1
  0
ACDBDICTIONARYWDFLT
  5
E
102
{ACAD_REACTORS
330
C
102
}
330
C
100
AcDbDictionary
281
     1
  3
Normal
350
F
100
AcDbDictionaryWithDefault
340
F
  0
DICTIONARY
  5
3B
102
{ACAD_REACTORS
330
C
102
}
330
C
100
AcDbDictionary
281
     1
  3
A0
350
3C
  3
A1
350
3D
  3
A2
350
3E
  3
A3
350
3F
  3
A4
350
40
  3
A5
350
41
  3
A6
350
42
  3
A7
350
43
  3
A8
350
44
  3
A9
350
45
  3
B0
350
46
  3
B1
350
47
  3
B2
350
48
  3
B3
350
49
  3
B4
350
4A
  3
B5
350
4B
  3
B6
350
4C
  3
B7
350
4D
  3
B8
350
4E
  3
B9
350
4F
  3
C0
350
50
  3
C1
350
51
  3
C2
350
52
  3
C3
350
53
  3
C4
350
54
  3
C5
350
55
  3
C6
350
56
  3
C7
350
57
  3
C8
350
58
  3
C9
350
59
  3
D0
350
5A
  3
D1
350
5B
  3
D2
350
5C
  0
DICTIONARY
  5
BC
102
{ACAD_REACTORS
330
C
102
}
330
C
100
AcDbDictionary
281
     1
  0
DICTIONARY
  5
2A
102
{ACAD_REACTORS
330
C
102
}
330
C
100
AcDbDictionary
281
     1
  3
2dWireframe
350
2F
  3
3D Hidden
350
31
  3
3dWireframe
350
30
  3
Basic
350
32
  3
Brighten
350
36
  3
ColorChange
350
3A
  3
Conceptual
350
34
  3
Dim
350
35
  3
Facepattern
350
39
  3
Flat
350
2B
  3
FlatWithEdges
350
2C
  3
Gouraud
350
2D
  3
GouraudWithEdges
350
2E
  3
Linepattern
350
38
  3
Realistic
350
33
  3
Thicken
350
37
  0
LAYOUT
  5
1E
102
{ACAD_REACTORS
330
1A
102
}
330
1A
100
AcDbPlotSettings
  1

  2
none_device
  4

  6

 40
0.0
 41
0.0
 42
0.0
 43
0.0
 44
0.0
 45
0.0
 46
0.0
 47
0.0
 48
0.0
 49
0.0
140
0.0
141
0.0
142
1.0
143
1.0
 70
   688
 72
     0
 73
     0
 74
     5
  7

 75
    16
 76
     0
 77
     2
 78
   300
147
1.0
148
0.0
149
0.0
100
AcDbLayout
  1
Layout1
 70
     1
 71
     1
 10
0.0
 20
0.0
 11
12.0
 21
9.0
 12
0.0
 22
0.0
 32
0.0
 14
1.000000000000000E+20
 24
1.000000000000000E+20
 34
1.000000000000000E+20
 15
-1.000000000000000E+20
 25
-1.000000000000000E+20
 35
-1.000000000000000E+20
146
0.0
 13
0.0
 23
0.0
 33
0.0
 16
1.0
 26
0.0
 36
0.0
 17
0.0
 27
1.0
 37
0.0
 76
     0
330
1B
  0
LAYOUT
  5
26
102
{ACAD_REACTORS
330
1A
102
}
330
1A
100
AcDbPlotSettings
  1

  2
none_device
  4

  6

 40
0.0
 41
0.0
 42
0.0
 43
0.0
 44
0.0
 45
0.0
 46
0.0
 47
0.0
 48
0.0
 49
0.0
140
0.0
141
0.0
142
1.0
143
1.0
 70
   688
 72
     0
 73
     0
 74
     5
  7

 75
    16
 76
     0
 77
     2
 78
   300
147
1.0
148
0.0
149
0.0
100
AcDbLayout
  1
Layout2
 70
     1
 71
     2
 10
0.0
 20
0.0
 11
0.0
 21
0.0
 12
0.0
 22
0.0
 32
0.0
 14
0.0
 24
0.0
 34
0.0
 15
0.0
 25
0.0
 35
0.0
146
0.0
 13
0.0
 23
0.0
 33
0.0
 16
1.0
 26
0.0
 36
0.0
 17
0.0
 27
1.0
 37
0.0
 76
     0
330
23
  0
LAYOUT
  5
22
102
{ACAD_REACTORS
330
1A
102
}
330
1A
100
AcDbPlotSettings
  1

  2
none_device
  4

  6

 40
0.0
 41
0.0
 42
0.0
 43
0.0
 44
0.0
 45
0.0
 46
0.0
 47
0.0
 48
0.0
 49
0.0
140
0.0
141
0.0
142
1.0
143
1.0
 70
  1712
 72
     0
 73
     0
 74
     0
  7

 75
     0
 76
     0
 77
     2
 78
   300
147
1.0
148
0.0
149
0.0
100
AcDbLayout
  1
Model
 70
     1
 71
     0
 10
0.0
 20
0.0
 11
12.0
 21
9.0
 12
0.0
 22
0.0
 32
0.0
 14
-10.22757
 24
-5.69789
 34
0.0
 15
10.22757
 25
5.69998
 35
0.0
146
0.0
 13
0.0
 23
0.0
 33
0.0
 16
1.0
 26
0.0
 36
0.0
 17
0.0
 27
1.0
 37
0.0
 76
     0
330
1F
331
29
  0
MLINESTYLE
  5
18
102
{ACAD_REACTORS
330
17
102
}
330
17
100
AcDbMlineStyle
  2
Standard
 70
     0
  3

 62
   256
 51
90.0
 52
90.0
 71
     2
 49
0.5
 62
   256
  6
BYLAYER
 49
-0.5
 62
   256
  6
BYLAYER
  0
ACDBPLACEHOLDER
  5
F
102
{ACAD_REACTORS
330
E
102
}
330
E
  0
SCALE
  5
3C
102
{ACAD_REACTORS
330
3B
102
}
330
3B
100
AcDbScale
 70
     0
300
1:1
140
1.0
141
1.0
290
     1
  0
SCALE
  5
3D
102
{ACAD_REACTORS
330
3B
102
}
330
3B
100
AcDbScale
 70
     0
300
1:2
140
1.0
141
2.0
290
     0
  0
SCALE
  5
3E
102
{ACAD_REACTORS
330
3B
102
}
330
3B
100
AcDbScale
 70
     0
300
1:4
140
1.0
141
4.0
290
     0
  0
SCALE
  5
3F
102
{ACAD_REACTORS
330
3B
102
}
330
3B
100
AcDbScale
 70
     0
300
1:5
140
1.0
141
5.0
290
     0
  0
SCALE
  5
40
102
{ACAD_REACTORS
330
3B
102
}
330
3B
100
AcDbScale
 70
     0
300
1:8
140
1.0
141
8.0
290
     0
  0
SCALE
  5
41
102
{ACAD_REACTORS
330
3B
102
}
330
3B
100
AcDbScale
 70
     0
300
1:10
140
1.0
141
10.0
290
     0
  0
SCALE
  5
42
102
{ACAD_REACTORS
330
3B
102
}
330
3B
100
AcDbScale
 70
     0
300
1:16
140
1.0
141
16.0
290
     0
  0
SCALE
  5
43
102
{ACAD_REACTORS
330
3B
102
}
330
3B
100
AcDbScale
 70
     0
300
1:20
140
1.0
141
20.0
290
     0
  0
SCALE
  5
44
102
{ACAD_REACTORS
330
3B
102
}
330
3B
100
AcDbScale
 70
     0
300
1:30
140
1.0
141
30.0
290
     0
  0
SCALE
  5
45
102
{ACAD_REACTORS
330
3B
102
}
330
3B
100
AcDbScale
 70
     0
300
1:40
140
1.0
141
40.0
290
     0
  0
SCALE
  5
46
102
{ACAD_REACTORS
330
3B
102
}
330
3B
100
AcDbScale
 70
     0
300
1:50
140
1.0
141
50.0
290
     0
  0
SCALE
  5
47
102
{ACAD_REACTORS
330
3B
102
}
330
3B
100
AcDbScale
 70
     0
300
1:100
140
1.0
141
100.0
290
     0
  0
SCALE
  5
48
102
{ACAD_REACTORS
330
3B
102
}
330
3B
100
AcDbScale
 70
     0
300
2:1
140
2.0
141
1.0
290
     0
  0
SCALE
  5
49
102
{ACAD_REACTORS
330
3B
102
}
330
3B
100
AcDbScale
 70
     0
300
4:1
140
4.0
141
1.0
290
     0
  0
SCALE
  5
4A
102
{ACAD_REACTORS
330
3B
102
}
330
3B
100
AcDbScale
 70
     0
300
8:1
140
8.0
141
1.0
290
     0
  0
SCALE
  5
4B
102
{ACAD_REACTORS
330
3B
102
}
330
3B
100
AcDbScale
 70
     0
300
10:1
140
10.0
141
1.0
290
     0
  0
SCALE
  5
4C
102
{ACAD_REACTORS
330
3B
102
}
330
3B
100
AcDbScale
 70
     0
300
100:1
140
100.0
141
1.0
290
     0
  0
SCALE
  5
4D
102
{ACAD_REACTORS
330
3B
102
}
330
3B
100
AcDbScale
 70
     0
300
1/128\" = 1\'-0\"
140
0.0078125
141
12.0
290
     0
  0
SCALE
  5
4E
102
{ACAD_REACTORS
330
3B
102
}
330
3B
100
AcDbScale
 70
     0
300
1/64\" = 1\'-0\"
140
0.015625
141
12.0
290
     0
  0
SCALE
  5
4F
102
{ACAD_REACTORS
330
3B
102
}
330
3B
100
AcDbScale
 70
     0
300
1/32\" = 1\'-0\"
140
0.03125
141
12.0
290
     0
  0
SCALE
  5
50
102
{ACAD_REACTORS
330
3B
102
}
330
3B
100
AcDbScale
 70
     0
300
1/16\" = 1\'-0\"
140
0.0625
141
12.0
290
     0
  0
SCALE
  5
51
102
{ACAD_REACTORS
330
3B
102
}
330
3B
100
AcDbScale
 70
     0
300
3/32\" = 1\'-0\"
140
0.09375
141
12.0
290
     0
  0
SCALE
  5
52
102
{ACAD_REACTORS
330
3B
102
}
330
3B
100
AcDbScale
 70
     0
300
1/8\" = 1\'-0\"
140
0.125
141
12.0
290
     0
  0
SCALE
  5
53
102
{ACAD_REACTORS
330
3B
102
}
330
3B
100
AcDbScale
 70
     0
300
3/16\" = 1\'-0\"
140
0.1875
141
12.0
290
     0
  0
SCALE
  5
54
102
{ACAD_REACTORS
330
3B
102
}
330
3B
100
AcDbScale
 70
     0
300
1/4\" = 1\'-0\"
140
0.25
141
12.0
290
     0
  0
SCALE
  5
55
102
{ACAD_REACTORS
330
3B
102
}
330
3B
100
AcDbScale
 70
     0
300
3/8\" = 1\'-0\"
140
0.375
141
12.0
290
     0
  0
SCALE
  5
56
102
{ACAD_REACTORS
330
3B
102
}
330
3B
100
AcDbScale
 70
     0
300
1/2\" = 1\'-0\"
140
0.5
141
12.0
290
     0
  0
SCALE
  5
57
102
{ACAD_REACTORS
330
3B
102
}
330
3B
100
AcDbScale
 70
     0
300
3/4\" = 1\'-0\"
140
0.75
141
12.0
290
     0
  0
SCALE
  5
58
102
{ACAD_REACTORS
330
3B
102
}
330
3B
100
AcDbScale
 70
     0
300
1\" = 1\'-0\"
140
1.0
141
12.0
290
     0
  0
SCALE
  5
59
102
{ACAD_REACTORS
330
3B
102
}
330
3B
100
AcDbScale
 70
     0
300
1-1/2\" = 1\'-0\"
140
1.5
141
12.0
290
     0
  0
SCALE
  5
5A
102
{ACAD_REACTORS
330
3B
102
}
330
3B
100
AcDbScale
 70
     0
300
3\" = 1\'-0\"
140
3.0
141
12.0
290
     0
  0
SCALE
  5
5B
102
{ACAD_REACTORS
330
3B
102
}
330
3B
100
AcDbScale
 70
     0
300
6\" = 1\'-0\"
140
6.0
141
12.0
290
     0
  0
SCALE
  5
5C
102
{ACAD_REACTORS
330
3B
102
}
330
3B
100
AcDbScale
 70
     0
300
1\'-0\" = 1\'-0\"
140
12.0
141
12.0
290
     0
  0
VISUALSTYLE
  5
2F
102
{ACAD_REACTORS
330
2A
102
}
330
2A
100
AcDbVisualStyle
  2
2dWireframe
 70
     4
 71
     0
 72
     2
 73
     0
 90
        0
 40
-0.6
 41
-30.0
 62
     5
 63
     7
421
 16777215
 74
     1
 91
        4
 64
     7
 65
   257
 75
     1
175
     1
 42
1.0
 92
        0
 66
   257
 43
1.0
 76
     1
 77
     6
 78
     2
 67
     7
 79
     5
170
     0
171
     0
290
     0
174
     0
 93
        1
 44
0.0
173
     0
291
     0
 45
0.0
  0
VISUALSTYLE
  5
31
102
{ACAD_REACTORS
330
2A
102
}
330
2A
100
AcDbVisualStyle
  2
3D Hidden
 70
     6
 71
     1
 72
     2
 73
     2
 90
        0
 40
-0.6
 41
-30.0
 62
     5
 63
     7
421
 16777215
 74
     2
 91
        2
 64
     7
 65
   257
 75
     2
175
     1
 42
40.0
 92
        0
 66
   257
 43
1.0
 76
     1
 77
     6
 78
     2
 67
     7
 79
     3
170
     0
171
     0
290
     0
174
     0
 93
        1
 44
0.0
173
     0
291
     0
 45
0.0
  0
VISUALSTYLE
  5
30
102
{ACAD_REACTORS
330
2A
102
}
330
2A
100
AcDbVisualStyle
  2
3dWireframe
 70
     5
 71
     0
 72
     2
 73
     0
 90
        0
 40
-0.6
 41
-30.0
 62
     5
 63
     7
421
 16777215
 74
     1
 91
        4
 64
     7
 65
   257
 75
     1
175
     1
 42
1.0
 92
        0
 66
   257
 43
1.0
 76
     1
 77
     6
 78
     2
 67
     7
 79
     5
170
     0
171
     0
290
     0
174
     0
 93
        1
 44
0.0
173
     0
291
     0
 45
0.0
  0
VISUALSTYLE
  5
32
102
{ACAD_REACTORS
330
2A
102
}
330
2A
100
AcDbVisualStyle
  2
Basic
 70
     7
 71
     1
 72
     0
 73
     1
 90
        0
 40
-0.6
 41
-30.0
 62
     5
 63
     7
421
 16777215
 74
     0
 91
        4
 64
     7
 65
   257
 75
     1
175
     1
 42
1.0
 92
        8
 66
     7
 43
1.0
 76
     1
 77
     6
 78
     2
 67
     7
 79
     5
170
     0
171
     0
290
     0
174
     0
 93
        1
 44
0.0
173
     0
291
     1
 45
0.0
  0
VISUALSTYLE
  5
36
102
{ACAD_REACTORS
330
2A
102
}
330
2A
100
AcDbVisualStyle
  2
Brighten
 70
    12
 71
     2
 72
     2
 73
     0
 90
        0
 40
-0.6
 41
-30.0
 62
     5
 63
     7
421
 16777215
 74
     1
 91
        4
 64
     7
 65
   257
 75
     1
175
     1
 42
1.0
 92
        8
 66
     7
 43
1.0
 76
     1
 77
     6
 78
     2
 67
     7
 79
     5
170
     0
171
     0
290
     0
174
     0
 93
        1
 44
50.0
173
     0
291
     1
 45
0.0
  0
VISUALSTYLE
  5
3A
102
{ACAD_REACTORS
330
2A
102
}
330
2A
100
AcDbVisualStyle
  2
ColorChange
 70
    16
 71
     2
 72
     2
 73
     3
 90
        0
 40
-0.6
 41
-30.0
 62
     5
 63
     8
421
  8421504
 74
     1
 91
        4
 64
     7
 65
   257
 75
     1
175
     1
 42
1.0
 92
        8
 66
     8
424
  8421504
 43
1.0
 76
     1
 77
     6
 78
     2
 67
     7
 79
     5
170
     0
171
     0
290
     0
174
     0
 93
        1
 44
0.0
173
     0
291
     1
 45
0.0
  0
VISUALSTYLE
  5
34
102
{ACAD_REACTORS
330
2A
102
}
330
2A
100
AcDbVisualStyle
  2
Conceptual
 70
     9
 71
     3
 72
     2
 73
     0
 90
        0
 40
-0.6
 41
-30.0
 62
     5
 63
     7
421
 16777215
 74
     2
 91
        2
 64
     7
 65
   257
 75
     1
175
     1
 42
40.0
 92
        8
 66
     7
 43
1.0
 76
     1
 77
     6
 78
     2
 67
     7
 79
     3
170
     0
171
     0
290
     0
174
     0
 93
        1
 44
0.0
173
     0
291
     0
 45
0.0
  0
VISUALSTYLE
  5
35
102
{ACAD_REACTORS
330
2A
102
}
330
2A
100
AcDbVisualStyle
  2
Dim
 70
    11
 71
     2
 72
     2
 73
     0
 90
        0
 40
-0.6
 41
-30.0
 62
     5
 63
     7
421
 16777215
 74
     1
 91
        4
 64
     7
 65
   257
 75
     1
175
     1
 42
1.0
 92
        8
 66
     7
 43
1.0
 76
     1
 77
     6
 78
     2
 67
     7
 79
     5
170
     0
171
     0
290
     0
174
     0
 93
        1
 44
-50.0
173
     0
291
     1
 45
0.0
  0
VISUALSTYLE
  5
39
102
{ACAD_REACTORS
330
2A
102
}
330
2A
100
AcDbVisualStyle
  2
Facepattern
 70
    15
 71
     2
 72
     2
 73
     0
 90
        0
 40
-0.6
 41
-30.0
 62
     5
 63
     7
421
 16777215
 74
     1
 91
        4
 64
     7
 65
   257
 75
     1
175
     1
 42
1.0
 92
        8
 66
     7
 43
1.0
 76
     1
 77
     6
 78
     2
 67
     7
 79
     5
170
     0
171
     0
290
     0
174
     0
 93
        1
 44
0.0
173
     0
291
     1
 45
0.0
  0
VISUALSTYLE
  5
2B
102
{ACAD_REACTORS
330
2A
102
}
330
2A
100
AcDbVisualStyle
  2
Flat
 70
     0
 71
     2
 72
     1
 73
     1
 90
        2
 40
-0.6
 41
30.0
 62
     5
 63
     7
421
 16777215
 74
     0
 91
        4
 64
     7
 65
   257
 75
     1
175
     1
 42
1.0
 92
        8
 66
     7
 43
1.0
 76
     1
 77
     6
 78
     2
 67
     7
 79
     5
170
     0
171
     0
290
     0
174
     0
 93
       13
 44
0.0
173
     0
291
     1
 45
0.0
  0
VISUALSTYLE
  5
2C
102
{ACAD_REACTORS
330
2A
102
}
330
2A
100
AcDbVisualStyle
  2
FlatWithEdges
 70
     1
 71
     2
 72
     1
 73
     1
 90
        2
 40
-0.6
 41
30.0
 62
     5
 63
     7
421
 16777215
 74
     1
 91
        4
 64
     7
 65
   257
 75
     1
175
     1
 42
1.0
 92
        0
 66
   257
 43
1.0
 76
     1
 77
     6
 78
     2
 67
     7
 79
     5
170
     0
171
     0
290
     0
174
     0
 93
       13
 44
0.0
173
     0
291
     1
 45
0.0
  0
VISUALSTYLE
  5
2D
102
{ACAD_REACTORS
330
2A
102
}
330
2A
100
AcDbVisualStyle
  2
Gouraud
 70
     2
 71
     2
 72
     2
 73
     1
 90
        2
 40
-0.6
 41
30.0
 62
     5
 63
     7
421
 16777215
 74
     0
 91
        4
 64
     7
 65
   257
 75
     1
175
     1
 42
1.0
 92
        0
 66
     7
 43
1.0
 76
     1
 77
     6
 78
     2
 67
     7
 79
     5
170
     0
171
     0
290
     0
174
     0
 93
       13
 44
0.0
173
     0
291
     1
 45
0.0
  0
VISUALSTYLE
  5
2E
102
{ACAD_REACTORS
330
2A
102
}
330
2A
100
AcDbVisualStyle
  2
GouraudWithEdges
 70
     3
 71
     2
 72
     2
 73
     1
 90
        2
 40
-0.6
 41
30.0
 62
     5
 63
     7
421
 16777215
 74
     1
 91
        4
 64
     7
 65
   257
 75
     1
175
     1
 42
1.0
 92
        0
 66
   257
 43
1.0
 76
     1
 77
     6
 78
     2
 67
     7
 79
     5
170
     0
171
     0
290
     0
174
     0
 93
       13
 44
0.0
173
     0
291
     1
 45
0.0
  0
VISUALSTYLE
  5
38
102
{ACAD_REACTORS
330
2A
102
}
330
2A
100
AcDbVisualStyle
  2
Linepattern
 70
    14
 71
     2
 72
     2
 73
     0
 90
        0
 40
-0.6
 41
-30.0
 62
     5
 63
     7
421
 16777215
 74
     1
 91
        4
 64
     7
 65
   257
 75
     7
175
     7
 42
1.0
 92
        8
 66
     7
 43
1.0
 76
     1
 77
     6
 78
     2
 67
     7
 79
     5
170
     0
171
     0
290
     0
174
     0
 93
        1
 44
0.0
173
     0
291
     1
 45
0.0
  0
VISUALSTYLE
  5
33
102
{ACAD_REACTORS
330
2A
102
}
330
2A
100
AcDbVisualStyle
  2
Realistic
 70
     8
 71
     2
 72
     2
 73
     0
 90
        0
 40
-0.6
 41
-30.0
 62
     5
 63
     7
421
 16777215
 74
     1
 91
        0
 64
     7
 65
   257
 75
     1
175
     1
 42
1.0
 92
        8
 66
     8
424
  7895160
 43
1.0
 76
     1
 77
     6
 78
     2
 67
     7
 79
     5
170
     0
171
     0
290
     0
174
     0
 93
       13
 44
0.0
173
     0
291
     0
 45
0.0
  0
VISUALSTYLE
  5
37
102
{ACAD_REACTORS
330
2A
102
}
330
2A
100
AcDbVisualStyle
  2
Thicken
 70
    13
 71
     2
 72
     2
 73
     0
 90
        0
 40
-0.6
 41
-30.0
 62
     5
 63
     7
421
 16777215
 74
     1
 91
        4
 64
     7
 65
   257
 75
     1
175
     1
 42
1.0
 92
       12
 66
     7
 43
1.0
 76
     1
 77
     6
 78
     2
 67
     7
 79
     5
170
     0
171
     0
290
     0
174
     0
 93
        1
 44
0.0
173
     0
291
     1
 45
0.0
  0
ENDSEC
  0
EOF
