  0
SECTION
  2
HEADER
  0
ENDSEC
  0
SECTION
  2
TABLES
  0
TABLE
  2
LTYPE
 70
5
  0
LTYPE
  2
CONTINUOUS
 70
0
  3
CONTINUOUS
 72
65
 73
0
 40
0.0
  0
LTYPE
  2
DASHED
 70
0
  3
DASHED
 72
65
 73
2
 40
0.75
 49
0.5
 49
-0.25
  0
LTYPE
  2
DOT
 70
0
  3
DOT
 72
65
 73
2
 40
0.25
 49
0.0
 49
-0.25
  0
LTYPE
  2
CENTRE
 70
0
  3
CENTRE
 72
65
 73
4
 40
2.0
 49
1.25
 49
-0.25
 49
0.25
 49
-0.25
  0
LTYPE
  2
DASHDOT
 70
0
  3
DASHDOT
 72
65
 73
4
 40
1.0
 49
0.5
 49
-0.25
 49
0.0
 49
-0.25
  0
ENDTAB
  0
TABLE
  2
LAYER
 70
18
  0
LAYER
  2
0
 70
0
 62
7
  6
CONTINUOUS
  0
LAYER
  2
WHITE
 70
0
 62
7
  6
CONTINUOUS
  0
LAYER
  2
BLUE
 70
0
 62
5
  6
CONTINUOUS
  0
LAYER
  2
GREEN
 70
0
 62
3
  6
CONTINUOUS
  0
LAYER
  2
CYAN
 70
0
 62
4
  6
CONTINUOUS
  0
LAYER
  2
RED
 70
0
 62
1
  6
CONTINUOUS
  0
LAYER
  2
MAGENTA
 70
0
 62
6
  6
CONTINUOUS
  0
LAYER
  2
YELLOW
 70
0
 62
2
  6
CONTINUOUS
  0
LAYER
  2
SHEET
 70
0
 62
3
  6
CONTINUOUS
  0
ENDTAB
  0
ENDSEC
  0
SECTION
  2
BLOCKS
  0
ENDSEC
  0
SECTION
  2
ENTITIES
  0
LINE
  8
CYAN
 10
10818.17282
 20
745.88428
 11
10813.45995
 21
745.89428
  0
ARC
  8
CYAN
 10
10819.0189515866
 20
745.5273527039
 40
5.5710981216
 50
122.9680498713
 51
176.2236144007
  0
ARC
  8
CYAN
 10
10814.3902899992
 20
752.6604799974
 40
2.9321964438
 50
303.0009636353
 51
21.7801463489
  0
ARC
  8
CYAN
 10
10876.1999627821
 20
779.44469409
 40
64.4324881382
 50
176.3337284352
 51
203.5037230044
  0
ARC
  8
CYAN
 10
10809.6780191644
 20
783.5463108783
 40
2.2213979478
 50
0.4774051525
 51
86.6708513235
  0
LINE
  8
CYAN
 10
10809.80702
 20
785.76396
 11
10809.02706
 21
785.80974
  0
ARC
  8
CYAN
 10
10809.1410850885
 20
787.7169533019
 40
1.9106188264
 50
205.5967458213
 51
266.5785741145
  0
LINE
  8
CYAN
 10
10807.41798
 20
786.8915
 11
10806.33961
 21
789.13811
  0
ARC
  8
CYAN
 10
10805.2527590623
 20
788.6175797647
 40
1.2050712372
 50
25.5913607779
 51
182.5806830653
  0
LINE
  8
CYAN
 10
10804.04891
 20
788.56332
 11
10804.16082
 21
786.07255
  0
ARC
  8
CYAN
 10
10802.2527705318
 20
785.986741004
 40
1.909977999
 50
301.6045053562
 51
2.5749766409
  0
LINE
  8
CYAN
 10
10803.2537
 20
784.36004
 11
10802.58904
 21
783.94971
  0
ARC
  8
CYAN
 10
10803.754539835
 20
782.0542497573
 40
2.225120086
 50
121.5869488221
 51
169.9991582131
  0
LINE
  8
CYAN
 10
10801.56323
 20
782.44067
 11
10801.32585
 21
781.08422
  0
ARC
  8
CYAN
 10
10800.3021474224
 20
781.2641230888
 40
1.0393902485
 50
235.1554597261
 51
350.0327510963
  0
LINE
  8
CYAN
 10
10799.70829
 20
780.41109
 11
10798.57905
 21
781.19613
  0
ARC
  8
CYAN
 10
10797.3089977983
 20
779.370340412
 40
2.2240818813
 50
55.1768282284
 51
103.6231260898
  0
LINE
  8
CYAN
 10
10796.78515
 20
781.53185
 11
10796.02554
 21
781.34703
  0
ARC
  8
CYAN
 10
10795.5761092862
 20
783.2037071819
 40
1.910297915
 50
222.6290354646
 51
283.6073822163
  0
LINE
  8
CYAN
 10
10794.1706
 20
781.90996
 11
10792.48183
 21
783.74285
  0
ARC
  8
CYAN
 10
10791.5952127627
 20
782.9256916674
 40
1.2057519919
 50
42.6654791889
 51
199.5581526306
  0
LINE
  8
CYAN
 10
10790.45903
 20
782.52205
 11
10791.29663
 21
780.17371
  0
ARC
  8
CYAN
 10
10789.4976601175
 20
779.5311706137
 40
1.9102747188
 50
318.668607659
 51
19.6552403906
  0
LINE
  8
CYAN
 10
10790.93209
 20
778.2696
 11
10790.41494
 21
777.68294
  0
ARC
  8
CYAN
 10
10792.0851805236
 20
776.2132416997
 40
2.2247958335
 50
138.6544144155
 51
187.1011327978
  0
LINE
  8
CYAN
 10
10789.87745
 20
775.93821
 11
10790.04701
 21
774.57329
  0
ARC
  8
CYAN
 10
10789.0164770558
 20
774.4447275594
 40
1.0385212806
 50
252.2019714765
 51
7.1111015291
  0
LINE
  8
CYAN
 10
10788.69904
 20
773.45591
 11
10787.39007
 21
773.87472
  0
ARC
  8
CYAN
 10
10786.7108484182
 20
771.756860952
 40
2.2241108121
 50
72.2183609223
 51
120.6857518901
  0
LINE
  8
CYAN
 10
10785.57582
 20
773.66955
 11
10784.90438
 21
773.2711
  0
ARC
  8
CYAN
 10
10783.9287643541
 20
774.9157900152
 40
1.9122842714
 50
239.7244929092
 51
300.6760451126
  0
LINE
  8
CYAN
 10
10782.96467
 20
773.26432
 11
10780.81301
 21
774.52242
  0
ARC
  8
CYAN
 10
10780.205732078
 20
773.4810523218
 40
1.2055011887
 50
59.7512217815
 51
216.5924536383
  0
LINE
  8
CYAN
 10
10779.23784
 20
772.76243
 11
10780.72653
 21
770.76337
  0
ARC
  8
CYAN
 10
10779.1954107455
 20
769.6225231085
 40
1.9094129467
 50
335.6587637816
 51
36.6900341284
  0
LINE
  8
CYAN
 10
10780.93509
 20
768.83552
 11
10780.61293
 21
768.12339
  0
ARC
  8
CYAN
 10
10782.6408200069
 20
767.2084574777
 40
2.2247335572
 50
155.7163114698
 51
204.1776381392
  0
LINE
  8
CYAN
 10
10780.61124
 20
766.29728
 11
10781.77269
 21
763.67086
  0
ARC
  8
CYAN
 10
10780.7445664026
 20
763.2152530546
 40
1.1245513862
 50
281.3359612107
 51
23.900245895
  0
LINE
  8
CYAN
 10
10780.96561
 20
762.11264
 11
10778.05942
 21
761.52937
  0
ARC
  8
CYAN
 10
10778.499558242
 20
759.3483687402
 40
2.2249692508
 50
101.4093714807
 51
149.8391030684
  0
LINE
  8
CYAN
 10
10776.57581
 20
760.46626
 11
10776.18414
 21
759.78973
  0
ARC
  8
CYAN
 10
10774.5323695514
 20
760.7475497473
 40
1.9093884579
 50
268.8893701069
 51
329.8916429459
  0
LINE
  8
CYAN
 10
10774.49536
 20
758.83852
 11
10772.0029
 21
758.886
  0
ARC
  8
CYAN
 10
10771.9808308866
 20
757.6803439663
 40
1.2058580005
 50
88.9513378399
 51
245.8483369398
  0
LINE
  8
CYAN
 10
10771.48745
 20
756.58004
 11
10773.76288
 21
755.56271
  0
ARC
  8
CYAN
 10
10772.9819172557
 20
753.8193938677
 40
1.9102497075
 50
4.8454684125
 51
65.8687942188
  0
LINE
  8
CYAN
 10
10774.88534
 20
753.98075
 11
10774.95147
 21
753.20419
  0
ARC
  8
CYAN
 10
10777.1692798088
 20
753.3940503434
 40
2.2259216738
 50
184.8929978834
 51
233.3297533762
  0
LINE
  8
CYAN
 10
10775.83994
 20
751.60867
 11
10776.94375
 21
750.78802
  0
ARC
  8
CYAN
 10
10776.3231701667
 20
749.9537827982
 40
1.0397456604
 50
299.8268852555
 51
53.3548484941
  0
LINE
  8
CYAN
 10
10776.84032
 20
749.05177
 11
10775.64665
 21
748.36846
  0
ARC
  8
CYAN
 10
10776.7544086893
 20
746.4379981915
 40
2.2257160887
 50
119.8485369478
 51
168.2843613125
  0
LINE
  8
CYAN
 10
10774.57506
 20
746.88994
 11
10774.41737
 21
746.12524
  0
ARC
  8
CYAN
 10
10772.5467034345
 20
746.5130037877
 40
1.9104329757
 50
287.3113652288
 51
348.2892112583
  0
LINE
  8
CYAN
 10
10773.11518
 20
744.68911
 11
10770.73462
 21
743.94815
  0
ARC
  8
CYAN
 10
10771.0940997984
 20
742.7966719834
 40
1.2062865946
 50
107.3378361328
 51
264.2712771843
  0
LINE
  8
CYAN
 10
10770.97369
 20
741.59641
 11
10773.45429
 21
741.34886
  0
ARC
  8
CYAN
 10
10773.2631934243
 20
739.4490174893
 40
1.9094290944
 50
23.2469662286
 51
84.2561952491
  0
LINE
  8
CYAN
 10
10775.0176
 20
740.20266
 11
10775.32619
 21
739.48544
  0
ARC
  8
CYAN
 10
10777.3693653597
 20
740.3654050925
 40
2.2246132506
 50
203.3008223817
 51
251.7435723853
  0
LINE
  8
CYAN
 10
10776.67246
 20
738.25277
 11
10777.97973
 21
737.8221
  0
ARC
  8
CYAN
 10
10777.6542898317
 20
736.8348706678
 40
1.0394869203
 50
316.5322791787
 51
71.7551951087
  0
LINE
  8
CYAN
 10
10778.40871
 20
736.11976
 11
10777.46089
 21
735.12108
  0
ARC
  8
CYAN
 10
10779.0747215649
 20
733.5906944786
 40
2.2240800713
 50
136.5202461965
 51
184.95999916
  0
LINE
  8
CYAN
 10
10776.85897
 20
733.3984
 11
10776.92679
 21
732.62014
  0
ARC
  8
CYAN
 10
10775.0241277396
 20
732.4534552587
 40
1.9099496014
 50
304.0152712712
 51
5.0066750756
  0
LINE
  8
CYAN
 10
10776.09258
 20
730.87032
 11
10774.02569
 21
729.47657
  0
ARC
  8
CYAN
 10
10774.7005498931
 20
728.477830258
 40
1.2053700459
 50
124.0473451349
 51
280.9459963044
  0
LINE
  8
CYAN
 10
10774.92943
 20
727.29439
 11
10777.37611
 21
727.76745
  0
ARC
  8
CYAN
 10
10777.740298816
 20
725.8923004196
 40
1.9101883265
 50
39.9845037084
 51
100.991068561
  0
LINE
  8
CYAN
 10
10779.20392
 20
727.11975
 11
10779.70581
 21
726.52122
  0
ARC
  8
CYAN
 10
10781.4093784763
 20
727.9508007359
 40
2.2239259506
 50
220.0023101981
 51
268.4391025306
  0
LINE
  8
CYAN
 10
10781.3488
 20
725.7277
 11
10782.7239
 21
725.6904
  0
ARC
  8
CYAN
 10
10782.6963694814
 20
724.651670839
 40
1.0390939319
 50
334.959792041
 51
88.4817858331
  0
LINE
  8
CYAN
 10
10783.6378
 20
724.21187
 11
10783.05453
 21
722.96564
  0
ARC
  8
CYAN
 10
10785.0705399605
 20
722.0224273437
 40
2.225746229
 50
154.9269343826
 51
203.3707457823
  0
LINE
  8
CYAN
 10
10783.0274
 20
721.13952
 11
10783.33769
 21
720.4223
  0
ARC
  8
CYAN
 10
10781.5843992672
 20
719.6653941482
 40
1.9096949657
 50
322.3748891306
 51
23.3501396172
  0
LINE
  8
CYAN
 10
10783.09692
 20
718.49954
 11
10781.57601
 21
716.52422
  0
ARC
  8
CYAN
 10
10782.5314394173
 20
715.7893106728
 40
1.2053784014
 50
142.4327785708
 51
299.3555869828
  0
LINE
  8
CYAN
 10
10783.12235
 20
714.73871
 11
10785.29436
 21
715.96121
  0
ARC
  8
CYAN
 10
10786.230256566
 20
714.2962100691
 40
1.9100071079
 50
58.3539693625
 51
119.3403435533
  0
LINE
  8
CYAN
 10
10787.23238
 20
715.92221
 11
10787.89874
 21
715.51358
  0
ARC
  8
CYAN
 10
10789.0651751445
 20
717.4058293298
 40
2.2228761712
 50
238.3491642299
 51
286.8065417675
  0
LINE
  8
CYAN
 10
10789.7079
 20
715.2779
 11
10791.02534
 21
715.67636
  0
ARC
  8
CYAN
 10
10791.3246036838
 20
714.6826895179
 40
1.0377570908
 50
81.9694210481
 51
106.760722464
  0
ARC
  8
CYAN
 10
10791.0810896129
 20
712.9246174123
 40
2.8126117969
 50
26.9157485261
 51
82.0606706914
  0
ARC
  8
CYAN
 10
10794.9422827142
 20
714.886240209
 40
1.5182979251
 50
206.9626243536
 51
341.8455675861
  0
ARC
  8
CYAN
 10
10828.6152637868
 20
703.8676950263
 40
33.9116048895
 50
124.130214772
 51
161.8823329521
  0
ARC
  8
CYAN
 10
10810.458583557
 20
730.6547381094
 40
1.550969638
 50
359.883702748
 51
124.1338899791
  0
ARC
  8
CYAN
 10
10814.5528383295
 20
730.646520501
 40
2.543293382
 50
179.8857933223
 51
326.7233280496
  0
ARC
  8
CYAN
 10
10817.9762009412
 20
728.3981999106
 40
1.5523579619
 50
22.4751700361
 51
146.6743772271
  0
ARC
  8
CYAN
 10
10788.0715010221
 20
716.0357936824
 40
33.9115940715
 50
344.7075530918
 51
22.4605793477
  0
ARC
  8
CYAN
 10
10822.2464214369
 20
706.6922988863
 40
1.5175760552
 50
164.7389939782
 51
299.7057527829
  0
ARC
  8
CYAN
 10
10824.3907830164
 20
702.92742011
 40
2.815160265
 50
64.5363156407
 51
119.6423176945
  0
ARC
  8
CYAN
 10
10825.1565278305
 20
704.53043942
 40
1.0386402394
 50
39.8601164745
 51
64.6553826482
  0
LINE
  8
CYAN
 10
10825.9538
 20
705.19612
 11
10826.8338
 21
704.13809
  0
ARC
  8
CYAN
 10
10828.5435406654
 20
705.5611896752
 40
2.2245057493
 50
219.7722459211
 51
268.1931130953
  0
LINE
  8
CYAN
 10
10828.4734
 20
703.33779
 11
10829.25505
 21
703.31405
  0
ARC
  8
CYAN
 10
10829.1945352968
 20
701.4055966498
 40
1.9094125325
 50
27.1893676684
 51
88.1838299834
  0
LINE
  8
CYAN
 10
10830.89296
 20
702.27807
 11
10832.03407
 21
700.06198
  0
ARC
  8
CYAN
 10
10833.1058585532
 20
700.6130895933
 40
1.2051773673
 50
207.2120550552
 51
4.1931065203
  0
LINE
  8
CYAN
 10
10834.30781
 20
700.70121
 11
10834.12469
 21
703.18689
  0
ARC
  8
CYAN
 10
10836.0304369796
 20
703.3258138938
 40
1.9108038619
 50
123.1932295722
 51
184.1693352907
  0
LINE
  8
CYAN
 10
10834.98434
 20
704.92483
 11
10835.63713
 21
705.35381
  0
ARC
  8
CYAN
 10
10834.4197825766
 20
707.2156340292
 40
2.224482741
 50
303.178531984
 51
351.6261693235
  0
LINE
  8
CYAN
 10
10836.62055
 20
706.89168
 11
10836.81893
 21
708.25321
  0
ARC
  8
CYAN
 10
10837.8476815721
 20
708.1021007303
 40
1.0397902714
 50
58.1873615159
 51
171.6438029495
  0
LINE
  8
CYAN
 10
10838.3958
 20
708.98569
 11
10839.56403
 21
708.25999
  0
ARC
  8
CYAN
 10
10840.7379862421
 20
710.1487605036
 40
2.2238766318
 50
238.137180626
 51
286.5964532734
  0
LINE
  8
CYAN
 10
10841.37319
 20
708.01753
 11
10842.12263
 21
708.24134
  0
ARC
  8
CYAN
 10
10842.6677971589
 20
706.4103382264
 40
1.9104383596
 50
45.5899602337
 51
106.5805085423
  0
LINE
  8
CYAN
 10
10844.0047
 20
707.77506
 11
10845.78673
 21
706.03203
  0
ARC
  8
CYAN
 10
10846.629312876
 20
706.8933019481
 40
1.2048797747
 50
225.6284350045
 51
22.5963115369
  0
LINE
  8
CYAN
 10
10847.7417
 20
707.35626
 11
10846.78371
 21
709.65883
  0
ARC
  8
CYAN
 10
10848.5486801295
 20
710.3921809341
 40
1.9112621878
 50
141.6442518616
 51
202.5630464305
  0
LINE
  8
CYAN
 10
10847.04992
 20
711.5782
 11
10847.53484
 21
712.19029
  0
ARC
  8
CYAN
 10
10845.7915412082
 20
713.572804778
 40
2.2249579297
 50
321.5839926391
 51
10.0336114481
  0
LINE
  8
CYAN
 10
10847.98247
 20
713.96045
 11
10847.7417
 21
715.3152
  0
ARC
  8
CYAN
 10
10848.7647548103
 20
715.4972252452
 40
1.0391219056
 50
74.9023273382
 51
190.0886778338
  0
LINE
  8
CYAN
 10
10849.03541
 20
716.50048
 11
10850.36473
 21
716.14094
  0
ARC
  8
CYAN
 10
10850.9455945971
 20
718.2874491357
 40
2.2237142689
 50
254.8579099363
 51
303.319593921
  0
LINE
  8
CYAN
 10
10852.1671
 20
716.42927
 11
10852.81989
 21
716.85824
  0
ARC
  8
CYAN
 10
10853.8687053596
 20
715.2609997725
 40
1.9108087301
 50
62.324028909
 51
123.2905927028
  0
LINE
  8
CYAN
 10
10854.75622
 20
716.95319
 11
10856.96383
 21
715.79504
  0
ARC
  8
CYAN
 10
10857.5235277435
 20
716.8618072331
 40
1.2046799964
 50
242.3154786547
 51
39.2878010266
  0
LINE
  8
CYAN
 10
10858.45592
 20
717.62463
 11
10856.87736
 21
719.55418
  0
ARC
  8
CYAN
 10
10858.3559891987
 20
720.7641351745
 40
1.9105852065
 50
158.3131634232
 51
219.2932979629
  0
LINE
  8
CYAN
 10
10856.58064
 20
721.47016
 11
10856.86888
 21
722.19585
  0
ARC
  8
CYAN
 10
10854.8020099875
 20
723.019520287
 40
2.2249459298
 50
338.2721778574
 51
26.729960041
  0
LINE
  8
CYAN
 10
10856.78919
 20
724.02027
 11
10856.17031
 21
725.24786
  0
ARC
  8
CYAN
 10
10857.0979419606
 20
725.7161034004
 40
1.0391116092
 50
93.2826859587
 51
206.7834031949
  0
LINE
  8
CYAN
 10
10857.03844
 20
726.75351
 11
10858.41184
 21
726.83151
  0
ARC
  8
CYAN
 10
10858.2851325469
 20
729.0520413255
 40
2.2241434635
 50
273.2658572078
 51
321.7208792872
  0
LINE
  8
CYAN
 10
10860.03109
 20
727.6742
 11
10860.51602
 21
728.28629
  0
ARC
  8
CYAN
 10
10862.0158125788
 20
727.1024871179
 40
1.9106980513
 50
80.7333833071
 51
141.7155770525
  0
LINE
  8
CYAN
 10
10862.32349
 20
728.98825
 11
10864.78374
 21
728.58641
  0
ARC
  8
CYAN
 10
10864.9787809503
 20
729.7751125046
 40
1.204597284
 50
260.6820012165
 51
57.763021406
  0
LINE
  8
CYAN
 10
10865.62134
 20
730.79402
 11
10863.51546
 21
732.12673
  0
ARC
  8
CYAN
 10
10864.5364933125
 20
733.7420035587
 40
1.9109206406
 50
176.7268446381
 51
237.7025405339
  0
LINE
  8
CYAN
 10
10862.62869
 20
733.85111
 11
10862.67447
 21
734.63106
  0
ARC
  8
CYAN
 10
10860.4531032889
 20
734.7587114062
 40
2.2250314485
 50
356.7111004552
 51
45.1730142216
  0
LINE
  8
CYAN
 10
10862.02168
 20
736.33679
 11
10859.9158
 21
738.42402
  0
ARC
  8
CYAN
 10
10860.709349939
 20
739.2211994248
 40
1.124818448
 50
122.7646503645
 51
225.1307286215
  0
LINE
  8
CYAN
 10
10860.10061
 20
740.16706
 11
10862.51678
 21
741.72019
  0
ARC
  8
CYAN
 10
10861.3229406689
 20
743.5986010169
 40
2.2256864777
 50
302.4383295073
 51
350.8895519744
  0
LINE
  8
CYAN
 10
10863.52055
 20
743.24619
 11
10863.64263
 21
744.01766
  0
ARC
  8
CYAN
 10
10865.5290696175
 20
743.7149895378
 40
1.9105663661
 50
109.9019741179
 51
170.8848451281
  0
LINE
  8
CYAN
 10
10864.87869
 20
745.51145
 11
10867.22195
 21
746.36092
  0
ARC
  8
CYAN
 10
10866.8118008075
 20
747.4940445451
 40
1.2050699543
 50
289.8983831159
 51
86.9433080841
  0
LINE
  8
CYAN
 10
10866.87606
 20
748.6974
 11
10864.38698
 21
748.83304
  0
ARC
  8
CYAN
 10
10864.4910978826
 20
750.7400847587
 40
1.9098848775
 50
205.8837809834
 51
266.8749561254
  0
LINE
  8
CYAN
 10
10862.77281
 20
749.90633
 11
10862.432
 21
750.60829
  0
ARC
  8
CYAN
 10
10860.4309812789
 20
749.6352672765
 40
2.2250503686
 50
25.9319717159
 51
74.3882742771
  0
LINE
  8
CYAN
 10
10861.02978
 20
751.77823
 11
10859.70555
 21
752.14955
  0
ARC
  8
CYAN
 10
10859.9852623526
 20
753.1501122777
 40
1.0389243821
 50
139.5057793377
 51
254.3813905136
  0
LINE
  8
CYAN
 10
10859.19519
 20
753.82476
 11
10860.08874
 21
754.87092
  0
ARC
  8
CYAN
 10
10858.3983309316
 20
756.3157231866
 40
2.2237218951
 50
319.479281999
 51
7.9277919249
  0
LINE
  8
CYAN
 10
10860.6008
 20
756.62243
 11
10860.49229
 21
757.3973
  0
ARC
  8
CYAN
 10
10862.384502614
 20
757.6617363022
 40
1.9106007261
 50
126.9900272754
 51
187.9555491262
  0
LINE
  8
CYAN
 10
10861.23494
 20
759.18781
 11
10863.22722
 21
760.68668
  0
ARC
  8
CYAN
 10
10862.5030219704
 20
761.6501558618
 40
1.2053001794
 50
306.9304072097
 51
103.9928211609
  0
LINE
  8
CYAN
 10
10862.21158
 20
762.81969
 11
10859.79202
 21
762.21946
  0
ARC
  8
CYAN
 10
10859.3315638412
 20
764.0712988599
 40
1.9082261494
 50
222.9742128715
 51
283.9633168995
  0
LINE
  8
CYAN
 10
10857.93539
 20
762.77052
 11
10857.40298
 21
763.34362
  0
ARC
  8
CYAN
 10
10855.7753909823
 20
761.8260295875
 40
2.2253374285
 50
42.9969702165
 51
91.4443279073
  0
LINE
  8
CYAN
 10
10855.7193
 20
764.05066
 11
10854.3442
 21
764.01675
  0
ARC
  8
CYAN
 10
10854.319049294
 20
765.0557110486
 40
1.0392654226
 50
156.5166615104
 51
271.3867198613
  0
LINE
  8
CYAN
 10
10853.36586
 20
765.46984
 11
10853.91353
 21
766.73134
  0
ARC
  8
CYAN
 10
10851.872080108
 20
767.6161322511
 40
2.2249438171
 50
336.5674329573
 51
25.0288677526
  0
LINE
  8
CYAN
 10
10853.88809
 20
768.55745
 11
10853.55916
 21
769.2645
  0
ARC
  8
CYAN
 10
10855.2919402825
 20
770.0707929223
 40
1.9111870092
 50
144.0044636985
 51
204.9533812988
  0
LINE
  8
CYAN
 10
10853.74567
 20
771.19404
 11
10855.21063
 21
773.21175
  0
ARC
  8
CYAN
 10
10854.2347492292
 20
773.9198208404
 40
1.2056979696
 50
324.0364476307
 51
121.0198975011
  0
LINE
  8
CYAN
 10
10853.61341
 20
774.95309
 11
10851.47701
 21
773.66955
  0
ARC
  8
CYAN
 10
10850.4950429926
 20
775.3074599448
 40
1.9097141648
 50
239.9585606516
 51
300.9437164419
  0
LINE
  8
CYAN
 10
10849.53899
 20
773.65429
 11
10848.86247
 21
774.04427
  0
ARC
  8
CYAN
 10
10847.7489755799
 20
772.1229312894
 40
2.2206783343
 50
59.9059526513
 51
146.1169014453
  0
ARC
  8
CYAN
 10
10789.9604144675
 20
805.3251247362
 40
64.4325342612
 50
303.086946899
 51
330.2585234354
  0
ARC
  8
CYAN
 10
10826.8117792787
 20
748.9331774483
 40
2.9340405077
 50
124.8578694372
 51
203.5739437306
  0
ARC
  8
CYAN
 10
10819.01922198
 20
745.5270427508
 40
5.5704123304
 50
264.880749942
 51
23.629277517
  0
ARC
  8
CYAN
 10
10818.4919247477
 20
739.6399164485
 40
0.3402812552
 50
84.8989536995
 51
163.2331603334
  0
LINE
  8
CYAN
 10
10818.16611
 20
739.73808
 11
10816.84867
 21
735.34489
  0
ARC
  8
CYAN
 10
10816.5238066377
 20
735.442693572
 40
0.3392664776
 50
253.3273544245
 51
343.2450195455
  0
LINE
  8
CYAN
 10
10816.42647
 20
735.11769
 11
10815.45153
 21
735.41102
  0
ARC
  8
CYAN
 10
10815.5493271487
 20
735.7358852982
 40
0.3392664797
 50
163.3294587363
 51
253.2461525208
  0
LINE
  8
CYAN
 10
10815.22432
 20
735.83321
 11
10816.54347
 21
740.2264
  0
ARC
  8
CYAN
 10
10816.2195087798
 20
740.3233029311
 40
0.338143535
 50
343.34708077
 51
61.8574262486
  0
ARC
  8
CYAN
 10
10819.0189474842
 20
745.5273540216
 40
5.5710879326
 50
182.3412363161
 51
241.7144784521
  0
LINE
  8
CYAN
 10
10813.45251
 20
745.29977
 11
10818.22084
 21
744.94724
  0
ARC
  8
CYAN
 10
10815.93646
 20
733.89689
 40
0.22721
 50
179.9999999991
 51
270.0
  0
LINE
  8
CYAN
 10
10815.93646
 20
733.66968
 11
10816.16366
 21
733.66968
  0
ARC
  8
CYAN
 10
10816.16366
 20
733.89689
 40
0.22721
 50
270.0
 51
0.0
  0
LINE
  8
CYAN
 10
10816.39087
 20
733.89689
 11
10816.39087
 21
733.97319
  0
ARC
  8
CYAN
 10
10816.1636650001
 20
733.9731850001
 40
0.2272049999
 50
0.0012608561
 51
90.0012609104
  0
ARC
  8
CYAN
 10
10816.16366
 20
734.4276
 40
0.22721
 50
270.0
 51
-0.0000000002
  0
LINE
  8
CYAN
 10
10816.39087
 20
734.4276
 11
10816.39087
 21
734.5022
  0
ARC
  8
CYAN
 10
10816.16366
 20
734.5022
 40
0.22721
 50
-0.0000000002
 51
90.0
  0
LINE
  8
CYAN
 10
10816.16366
 20
734.72941
 11
10815.93646
 21
734.72941
  0
ARC
  8
CYAN
 10
10815.93646
 20
734.5022
 40
0.22721
 50
90.0000000005
 51
179.9999999997
  0
LINE
  8
CYAN
 10
10973.95786
 20
788.38193
 11
10975.08028
 21
783.26848
  0
ARC
  8
CYAN
 10
10977.1901837684
 20
734.0364576147
 40
49.2772130103
 50
92.4539851524
 51
95.0793623317
  0
ARC
  8
CYAN
 10
10972.8613159901
 20
782.781045099
 40
0.3408067054
 50
95.7113459099
 51
185.7095057924
  0
LINE
  8
CYAN
 10
10972.5222
 20
782.74714
 11
10972.77654
 21
780.15972
  0
ARC
  8
CYAN
 10
10972.43997
 20
780.12835
 40
0.3380287588
 50
275.3248681807
 51
5.3248681795
  0
LINE
  8
CYAN
 10
10972.47134
 20
779.79178
 11
10971.47096
 21
779.68496
  0
ARC
  8
CYAN
 10
10971.43705
 20
780.02407
 40
0.3408012327
 50
185.710425851
 51
275.7104258511
  0
LINE
  8
CYAN
 10
10971.09794
 20
779.99016
 11
10970.8436
 21
782.54367
  0
ARC
  8
CYAN
 10
10970.502021018
 20
782.5089592033
 40
0.3433380846
 50
5.8024022054
 51
98.1024034926
  0
ARC
  8
CYAN
 10
10977.2294043819
 20
734.1375899738
 40
49.1802797905
 50
97.9190699917
 51
102.5187756209
  0
ARC
  8
CYAN
 10
10966.6408519464
 20
781.8187929641
 40
0.3375295306
 50
102.2718385104
 51
191.146903035
  0
LINE
  8
CYAN
 10
10966.30969
 20
781.75354
 11
10966.78953
 21
779.26107
  0
ARC
  8
CYAN
 10
10966.4548886714
 20
779.1956879275
 40
0.3409686704
 50
283.6216523279
 51
11.0551575526
  0
LINE
  8
CYAN
 10
10966.53519
 20
778.86431
 11
10965.5399
 21
778.63881
  0
ARC
  8
CYAN
 10
10965.4673401899
 20
778.9720198758
 40
0.3410186906
 50
191.3323118716
 51
282.2849481295
  0
LINE
  8
CYAN
 10
10965.13297
 20
778.90501
 11
10964.67008
 21
781.3127
  0
ARC
  8
CYAN
 10
10964.3393543482
 20
781.2483234589
 40
0.3369329248
 50
11.0150211754
 51
106.0518480342
  0
ARC
  8
CYAN
 10
10977.1868347874
 20
734.0668332942
 40
49.2362930419
 50
105.2378938979
 51
110.0154566252
  0
ARC
  8
CYAN
 10
10960.4519100588
 20
780.0146601195
 40
0.335786778
 50
110.4572057718
 51
197.1652199831
  0
LINE
  8
CYAN
 10
10960.13108
 20
779.91556
 11
10960.82626
 21
777.59265
  0
ARC
  8
CYAN
 10
10960.4988510699
 20
777.4956621398
 40
0.3414721841
 50
290.3680077249
 51
16.500791016
  0
LINE
  8
CYAN
 10
10960.6177
 20
777.17554
 11
10959.66311
 21
776.82456
  0
ARC
  8
CYAN
 10
10959.5438101718
 20
777.1470199154
 40
0.3438209506
 50
197.2644327377
 51
290.3028576007
  0
LINE
  8
CYAN
 10
10959.21548
 20
777.04498
 11
10958.56099
 21
779.23734
  0
ARC
  8
CYAN
 10
10958.236849601
 20
779.1425201877
 40
0.3377244366
 50
16.3056220572
 51
113.3137102114
  0
ARC
  8
CYAN
 10
10977.1698168988
 20
734.0683102089
 40
49.2267851372
 50
112.7879813734
 51
116.5389752856
  0
ARC
  8
CYAN
 10
10946.8001551359
 20
794.7510463828
 40
18.6312959374
 50
293.3334858142
 51
296.7117719704
  0
ARC
  8
CYAN
 10
10954.3150808266
 20
777.3360519494
 40
0.3359521345
 50
113.7681153271
 51
200.2778490172
  0
LINE
  8
CYAN
 10
10953.99995
 20
777.21962
 11
10954.7799
 21
775.02727
  0
ARC
  8
CYAN
 10
10954.4559499739
 20
774.9168299407
 40
0.3422581279
 50
293.6762592607
 51
18.8251141306
  0
LINE
  8
CYAN
 10
10954.59339
 20
774.60338
 11
10953.66084
 21
774.19645
  0
ARC
  8
CYAN
 10
10953.5240442095
 20
774.5081881759
 40
0.3404317532
 50
199.4499656067
 51
293.6926487761
  0
LINE
  8
CYAN
 10
10953.20304
 20
774.39483
 11
10952.39934
 21
776.64992
  0
ARC
  8
CYAN
 10
10952.0832352828
 20
776.5366873261
 40
0.3357734813
 50
19.7081609214
 51
106.5979888446
  0
ARC
  8
CYAN
 10
10946.8322507298
 20
794.79226646
 40
18.6600052157
 50
274.7814515648
 51
286.0372956556
  0
ARC
  8
CYAN
 10
10948.416223335
 20
775.8578126471
 40
0.3405871979
 50
94.8107593652
 51
180.8079591134
  0
LINE
  8
CYAN
 10
10948.07567
 20
775.85301
 11
10948.13332
 21
773.21811
  0
ARC
  8
CYAN
 10
10947.7941473676
 20
773.2129672455
 40
0.339211619
 50
271.7286424491
 51
0.8686890467
  0
LINE
  8
CYAN
 10
10947.80438
 20
772.87391
 11
10946.78705
 21
772.84
  0
ARC
  8
CYAN
 10
10946.7769369472
 20
773.1790533562
 40
0.3392041453
 50
180.848538062
 51
271.7084729919
  0
LINE
  8
CYAN
 10
10946.43777
 20
773.17403
 11
10946.38012
 21
775.8191
  0
ARC
  8
CYAN
 10
10946.0444001295
 20
775.8106198705
 40
0.3358269555
 50
1.4469573435
 51
88.5547935087
  0
ARC
  8
CYAN
 10
10946.8218903537
 20
794.7856899525
 40
18.6552072879
 50
257.0612318779
 51
267.6374366343
  0
ARC
  8
CYAN
 10
10942.5661374988
 20
776.2765043347
 40
0.3369487967
 50
76.4976624826
 51
163.5625865767
  0
LINE
  8
CYAN
 10
10942.24296
 20
776.37185
 11
10941.51387
 21
773.92516
  0
ARC
  8
CYAN
 10
10941.1881090629
 20
774.0216895131
 40
0.3397618799
 50
251.4126594423
 51
343.4943848969
  0
LINE
  8
CYAN
 10
10941.07981
 20
773.69965
 11
10940.11843
 21
774.03198
  0
ARC
  8
CYAN
 10
10940.2268977243
 20
774.3525144259
 40
0.338389665
 50
163.1185877616
 51
251.3043612499
  0
LINE
  8
CYAN
 10
10939.90309
 20
774.45078
 11
10940.61523
 21
776.85847
  0
ARC
  8
CYAN
 10
10940.2934404729
 20
776.9543790657
 40
0.335778273
 50
343.4033618493
 51
70.2927023481
  0
ARC
  8
CYAN
 10
10946.8253615781
 20
794.7876388864
 40
18.6561010579
 50
235.6233712734
 51
249.8759886934
  0
ARC
  8
CYAN
 10
10936.1457326438
 20
779.085890844
 40
0.3372113686
 50
64.3767994253
 51
151.0318860157
  0
LINE
  8
CYAN
 10
10935.85071
 20
779.24921
 11
10934.86729
 21
777.45192
  0
ARC
  8
CYAN
 10
10934.569014049
 20
777.614738143
 40
0.3398209685
 50
243.2894246678
 51
331.3714569886
  0
LINE
  8
CYAN
 10
10934.41627
 20
777.31118
 11
10933.51084
 21
777.77407
  0
ARC
  8
CYAN
 10
10933.6701792115
 20
778.0777326315
 40
0.3429285321
 50
151.047303846
 51
242.312904534
  0
LINE
  8
CYAN
 10
10933.37011
 20
778.24374
 11
10934.46036
 21
780.23771
  0
ARC
  8
CYAN
 10
10934.3603815385
 20
780.2882523077
 40
0.1120277539
 50
333.181943915
 51
49.4379210334
  0
ARC
  8
CYAN
 10
10914.4803694035
 20
758.3498379067
 40
29.7178762932
 50
47.8240659488
 51
58.7184872583
  0
ARC
  8
CYAN
 10
10929.7856961648
 20
783.4321428129
 40
0.3394244585
 50
68.3031353012
 51
160.7496212373
  0
LINE
  8
CYAN
 10
10929.46525
 20
783.54405
 11
10928.67851
 21
781.31778
  0
ARC
  8
CYAN
 10
10928.3586442056
 20
781.4257321711
 40
0.3375911694
 50
253.2585621727
 51
341.3508688144
  0
LINE
  8
CYAN
 10
10928.2614
 20
781.10245
 11
10927.28815
 21
781.40256
  0
ARC
  8
CYAN
 10
10927.3831796979
 20
781.7279705838
 40
0.3390024949
 50
161.0033963257
 51
253.7206044789
  0
LINE
  8
CYAN
 10
10927.06264
 20
781.83832
 11
10927.93246
 21
784.30196
  0
ARC
  8
CYAN
 10
10927.8257499727
 20
784.3373100662
 40
0.1124128867
 50
341.671401318
 51
63.1568327823
  0
ARC
  8
CYAN
 10
10914.4971129054
 20
757.9125488076
 40
29.7083681456
 50
63.2333538229
 51
72.1392864144
  0
ARC
  8
CYAN
 10
10923.5230169767
 20
785.8606042543
 40
0.3395285065
 50
75.3671630687
 51
167.3809964503
  0
LINE
  8
CYAN
 10
10923.19169
 20
785.93478
 11
10922.64233
 21
783.43214
  0
ARC
  8
CYAN
 10
10922.309955034
 20
783.5056033271
 40
0.3403967956
 50
259.3865428183
 51
347.536551898
  0
LINE
  8
CYAN
 10
10922.24726
 20
783.17103
 11
10921.24688
 21
783.36941
  0
ARC
  8
CYAN
 10
10921.3143006966
 20
783.7040489352
 40
0.3413631018
 50
167.7737978586
 51
258.6089421412
  0
LINE
  8
CYAN
 10
10920.98068
 20
783.77634
 11
10921.53513
 21
786.30272
  0
ARC
  8
CYAN
 10
10921.2026494575
 20
786.3707608036
 40
0.3393712747
 50
348.4343414045
 51
79.6124391531
  0
ARC
  8
CYAN
 10
10916.0949109099
 20
757.4491889225
 40
29.7085029903
 50
79.980216759
 51
88.739252208
  0
ARC
  8
CYAN
 10
10916.7309593327
 20
786.8175393553
 40
0.3334260436
 50
86.9723821592
 51
181.056762322
  0
LINE
  8
CYAN
 10
10916.39759
 20
786.81139
 11
10916.44846
 21
784.19514
  0
ARC
  8
CYAN
 10
10916.10339991
 20
784.1942599082
 40
0.3450612124
 50
270.988033229
 51
0.1461352389
  0
LINE
  8
CYAN
 10
10916.10935
 20
783.84925
 11
10915.09202
 21
783.83908
  0
ARC
  8
CYAN
 10
10915.091975727
 20
784.1782241874
 40
0.3391441903
 50
181.1512815623
 51
270.0074795737
  0
LINE
  8
CYAN
 10
10914.7529
 20
784.17141
 11
10914.70204
 21
786.77748
  0
ARC
  8
CYAN
 10
10914.3627307034
 20
786.7725693402
 40
0.3393448296
 50
0.8291563004
 51
92.8310684638
  0
ARC
  8
CYAN
 10
10916.0922382465
 20
757.4443553475
 40
29.718494656
 50
93.3686587575
 51
103.3025682158
  0
ARC
  8
CYAN
 10
10909.3324927341
 20
786.0353045942
 40
0.3393092666
 50
103.3389963043
 51
195.1460034618
  0
LINE
  8
CYAN
 10
10909.00497
 20
785.94665
 11
10909.67132
 21
783.55083
  0
ARC
  8
CYAN
 10
10909.349240028
 20
783.4577100483
 40
0.3352712839
 50
283.737811096
 51
16.1256704102
  0
LINE
  8
CYAN
 10
10909.42886
 20
783.13203
 11
10908.44035
 21
782.88957
  0
ARC
  8
CYAN
 10
10908.3617126242
 20
783.2222643023
 40
0.3418615739
 50
196.1909183572
 51
283.2986585211
  0
LINE
  8
CYAN
 10
10908.03341
 20
783.12694
 11
10907.37215
 21
785.48885
  0
ARC
  8
CYAN
 10
10907.0448118228
 20
785.3973390168
 40
0.3398890147
 50
15.6189187601
 51
107.6989958708
  0
ARC
  8
CYAN
 10
10916.082169242
 20
757.4566768018
 40
29.7057583593
 50
107.9211373076
 51
118.5270128555
  0
ARC
  8
CYAN
 10
10902.0583192805
 20
783.2576774116
 40
0.3397922301
 50
118.6314067564
 51
210.2986026719
  0
LINE
  8
CYAN
 10
10901.76494
 20
783.08625
 11
10902.87214
 21
781.23301
  0
ARC
  8
CYAN
 10
10902.5788096604
 20
781.0600588113
 40
0.3405213676
 50
297.5863571774
 51
30.524126173
  0
LINE
  8
CYAN
 10
10902.7365
 20
780.75825
 11
10901.83276
 21
780.28858
  0
ARC
  8
CYAN
 10
10901.6805077512
 20
780.5953806584
 40
0.342501666
 50
210.9686348169
 51
296.3932690781
  0
LINE
  8
CYAN
 10
10901.38683
 20
780.41914
 11
10900.31185
 21
782.21643
  0
ARC
  8
CYAN
 10
10900.0208375525
 20
782.0403305448
 40
0.3401459432
 50
31.1792597935
 51
123.7201422097
  0
LINE
  8
CYAN
 10
10899.83201
 20
782.32325
 11
10896.67319
 21
783.41519
  0
ARC
  8
CYAN
 10
10896.2475502774
 20
782.1875303889
 40
1.2993526443
 50
70.878146459
 51
218.1097054477
  0
ARC
  8
CYAN
 10
10892.9531401351
 20
779.6137503292
 40
2.8812587251
 50
277.4386317734
 51
37.9490341814
  0
LINE
  8
CYAN
 10
10893.32616
 20
776.75674
 11
10886.73723
 21
775.892
  0
ARC
  8
CYAN
 10
10888.1483489889
 20
765.0443187743
 40
10.93907879
 50
97.4116928487
 51
183.5482467389
  0
ARC
  8
CYAN
 10
10860.3084304983
 20
763.3203616634
 40
16.9541657899
 50
323.1086305709
 51
3.5403635308
  0
ARC
  8
CYAN
 10
10877.1235300862
 20
750.7012587505
 40
4.0693768208
 50
143.1319475349
 51
224.7634342807
  0
ARC
  8
CYAN
 10
10875.0772306937
 20
748.666409324
 40
1.1835661455
 50
224.5785700571
 51
323.7310742499
  0
ARC
  8
CYAN
 10
10903.3166474502
 20
727.8317866656
 40
33.9098300476
 50
129.8962767523
 51
143.5753937582
  0
LINE
  8
CYAN
 10
10881.56689
 20
753.84764
 11
10883.28947
 21
751.02971
  0
LINE
  8
CYAN
 10
10975.74531
 20
788.32907
 11
10975.68299
 21
783.29062
  0
ARC
  8
CYAN
 10
10977.1900504589
 20
734.0364576613
 40
49.2772131812
 50
89.8284636622
 51
91.7525680668
  0
ARC
  8
CYAN
 10
10977.3375850001
 20
782.9743350001
 40
0.339115
 50
0.0008447715
 51
90.0008447965
  0
LINE
  8
CYAN
 10
10977.6767
 20
782.97434
 11
10977.65974
 21
780.33436
  0
ARC
  8
CYAN
 10
10978.00401
 20
780.33952
 40
0.3443086675
 50
180.8586983659
 51
269.1413016345
  0
LINE
  8
CYAN
 10
10977.99885
 20
779.99525
 11
10979.01619
 21
779.96643
  0
ARC
  8
CYAN
 10
10979.0212161415
 20
780.3004760493
 40
0.3340838595
 50
269.1379782273
 51
359.9955325077
  0
LINE
  8
CYAN
 10
10979.3553
 20
780.30045
 11
10979.37225
 21
782.91161
  0
ARC
  8
CYAN
 10
10979.7115718027
 20
782.9118117169
 40
0.3393218627
 50
87.1708540436
 51
180.0340606565
  0
ARC
  8
CYAN
 10
10977.1854746054
 20
734.0157049183
 40
49.3006366368
 50
82.8089879049
 51
87.0434664636
  0
ARC
  8
CYAN
 10
10983.3104777732
 20
782.5953928424
 40
0.3363733493
 50
354.0681187171
 51
82.082881387
  0
LINE
  8
CYAN
 10
10983.64505
 20
782.56063
 11
10983.42463
 21
779.92234
  0
ARC
  8
CYAN
 10
10983.7584566363
 20
779.8869942935
 40
0.3356926303
 50
173.9560170153
 51
262.1969130584
  0
LINE
  8
CYAN
 10
10983.71288
 20
779.55441
 11
10984.71325
 21
779.40181
  0
ARC
  8
CYAN
 10
10984.7629100763
 20
779.7396100607
 40
0.3414308191
 50
261.6368372206
 51
355.3768213918
  0
LINE
  8
CYAN
 10
10985.10323
 20
779.71209
 11
10985.32365
 21
782.2673
  0
ARC
  8
CYAN
 10
10985.6586968087
 20
782.2409375025
 40
0.336082349
 50
80.5927045313
 51
175.5010636114
  0
LINE
  8
CYAN
 10
10985.71363
 20
782.5725
 11
10990.93595
 21
782.17065
  0
ARC
  8
CYAN
 10
10991.0240286334
 20
783.4217989365
 40
1.2542453934
 50
265.9731237453
 51
349.8073698474
  0
LINE
  8
CYAN
 10
10992.25848
 20
783.19985
 11
10992.91975
 21
786.79952
  0
ARC
  8
CYAN
 10
10994.1456523704
 20
786.5839915892
 40
1.2447044298
 50
77.651574389
 51
170.0286161511
  0
LINE
  8
CYAN
 10
10994.41184
 20
787.7999
 11
10995.97175
 21
787.46078
  0
ARC
  8
CYAN
 10
10995.7020028948
 20
786.2433751946
 40
1.2469314179
 50
344.623594099
 51
77.5065066392
  0
LINE
  8
CYAN
 10
10996.9043
 20
785.91274
 11
10995.93784
 21
782.26221
  0
ARC
  8
CYAN
 10
10997.1515933967
 20
781.9454490974
 40
1.2544061453
 50
165.3733989494
 51
344.8635385573
  0
LINE
  8
CYAN
 10
10998.36248
 20
781.6179
 11
10999.34591
 21
785.26843
  0
ARC
  8
CYAN
 10
11000.5493806281
 20
784.9509303465
 40
1.2446475737
 50
72.542633343
 51
165.2209626524
  0
LINE
  8
CYAN
 10
11000.92277
 20
786.13825
 11
11002.44877
 21
785.6635
  0
ARC
  8
CYAN
 10
11002.0685006282
 20
784.4715087263
 40
1.251178641
 50
340.1972220604
 51
72.3062632839
  0
LINE
  8
CYAN
 10
11003.24569
 20
784.04763
 11
11002.02488
 21
780.60056
  0
ARC
  8
CYAN
 10
11003.2075915973
 20
780.1814428809
 40
1.254777224
 50
160.4872172376
 51
341.6638148161
  0
LINE
  8
CYAN
 10
11004.39866
 20
779.7867
 11
11005.53469
 21
783.25581
  0
ARC
  8
CYAN
 10
11006.721807697
 20
782.8668188965
 40
1.2492247616
 50
69.3469257121
 51
161.8572227601
  0
LINE
  8
CYAN
 10
11007.16242
 20
784.03576
 11
11008.65451
 21
783.48301
  0
ARC
  8
CYAN
 10
11008.2153595271
 20
782.3113811034
 40
1.2512263621
 50
336.9438737651
 51
69.4529743393
  0
LINE
  8
CYAN
 10
11009.36664
 20
781.82136
 11
11007.89151
 21
778.33869
  0
ARC
  8
CYAN
 10
11009.0469283933
 20
777.8524506521
 40
1.2535630687
 50
157.1769867917
 51
338.6444405849
  0
LINE
  8
CYAN
 10
11010.21442
 20
777.39596
 11
11011.58782
 21
780.91594
  0
ARC
  8
CYAN
 10
11012.7547714582
 20
780.4555265143
 40
1.2544944335
 50
65.9300040437
 51
158.4685931535
  0
LINE
  8
CYAN
 10
11013.26642
 20
781.60094
 11
11014.7246
 21
780.96172
  0
ARC
  8
CYAN
 10
11014.2152788627
 20
779.8207131592
 40
1.2495217612
 50
333.6526232657
 51
65.9450337162
  0
LINE
  8
CYAN
 10
11015.335
 20
779.26616
 11
11013.74118
 21
775.98187
  0
ARC
  8
CYAN
 10
11014.8534022927
 20
775.4276028038
 40
1.2426787812
 50
153.5109916147
 51
241.8327720607
  0
ARC
  8
CYAN
 10
11014.1048804948
 20
774.0292085707
 40
0.3434459002
 50
336.3161676683
 51
61.8711734482
  0
LINE
  8
CYAN
 10
11014.4194
 20
773.89125
 11
11011.57087
 21
767.78724
  0
ARC
  8
CYAN
 10
11011.2672980385
 20
767.9278929988
 40
0.3345731637
 50
245.7758169978
 51
335.1404505566
  0
LINE
  8
CYAN
 10
11011.13002
 20
767.62278
 11
11002.07575
 21
771.82776
  0
ARC
  8
CYAN
 10
11001.9275289877
 20
771.5194696401
 40
0.3420707741
 50
64.3225060595
 51
154.8252270389
  0
LINE
  8
CYAN
 10
11001.61795
 20
771.66498
 11
11001.19406
 21
770.7426
  0
ARC
  8
CYAN
 10
11001.503327848
 20
770.6014857242
 40
0.339940937
 50
155.4734979445
 51
245.7337876055
  0
LINE
  8
CYAN
 10
11001.36362
 20
770.29158
 11
11010.41789
 21
766.0866
  0
ARC
  8
CYAN
 10
11010.2668101538
 20
765.7835995437
 40
0.338577017
 50
333.7574040335
 51
63.4985777096
  0
LINE
  8
CYAN
 10
11010.57049
 20
765.63389
 11
11008.12889
 21
760.35562
  0
ARC
  8
CYAN
 10
11006.5880034194
 20
761.0749009466
 40
1.7004989076
 50
235.9725015118
 51
334.9769834644
  0
ARC
  8
CYAN
 10
10986.6581906191
 20
731.5748297162
 40
33.90078822
 50
55.9568736618
 51
74.7978115419
  0
ARC
  8
CYAN
 10
10996.5645836608
 20
768.0567371919
 40
3.9022089448
 50
187.8905108597
 51
254.8972528541
  0
ARC
  8
CYAN
 10
10991.6895367805
 20
767.3807816354
 40
1.0194775913
 50
7.9077580733
 51
118.2345605643
  0
LINE
  8
CYAN
 10
10991.20724
 20
768.27896
 11
10988.9691
 21
767.07002
  0
ARC
  8
CYAN
 10
10988.5688729998
 20
767.8160891359
 40
0.8466408962
 50
209.6488707725
 51
298.211226891
  0
LINE
  8
CYAN
 10
10987.83308
 20
767.39727
 11
10986.74792
 21
769.29629
  0
ARC
  8
CYAN
 10
10985.862492273
 20
768.7910998477
 40
1.0194112761
 50
29.7073765639
 51
142.6265709092
  0
LINE
  8
CYAN
 10
10985.05237
 20
769.40989
 11
10983.39072
 21
767.24975
  0
ARC
  8
CYAN
 10
10982.7205785541
 20
767.7637102085
 40
0.8445381303
 50
201.0766721667
 51
322.5138545783
  0
LINE
  8
CYAN
 10
10981.93254
 20
767.46
 11
10981.01694
 21
769.85074
  0
ARC
  8
CYAN
 10
10980.0643442716
 20
769.4867497139
 40
1.0197683806
 50
20.9120381926
 51
151.4252445753
  0
LINE
  8
CYAN
 10
10979.16879
 20
769.97451
 11
10977.74452
 21
767.34131
  0
ARC
  8
CYAN
 10
10976.9970912641
 20
767.7495899773
 40
0.8516702737
 50
206.5854703379
 51
331.3546018158
  0
LINE
  8
CYAN
 10
10976.23547
 20
767.36844
 11
10974.94685
 21
769.96264
  0
ARC
  8
CYAN
 10
10974.0391506539
 20
769.5127100416
 40
1.0130918371
 50
26.3667733603
 51
160.9156694731
  0
LINE
  8
CYAN
 10
10973.08174
 20
769.84395
 11
10971.89485
 21
766.3918
  0
ARC
  8
CYAN
 10
10971.0873664018
 20
766.6699699735
 40
0.8540540354
 50
199.8527356765
 51
340.9916857747
  0
LINE
  8
CYAN
 10
10970.28407
 20
766.37993
 11
10969.27691
 21
769.15556
  0
ARC
  8
CYAN
 10
10968.3219988975
 20
768.8096499327
 40
1.0156323096
 50
19.9125756578
 51
167.0722165521
  0
LINE
  8
CYAN
 10
10967.33211
 20
769.03687
 11
10966.33681
 21
764.74711
  0
ARC
  8
CYAN
 10
10965.5104198709
 20
764.9385899756
 40
0.8482836946
 50
214.438292592
 51
346.9544066311
  0
LINE
  8
CYAN
 10
10964.81081
 20
764.45887
 11
10962.57268
 21
767.75333
  0
ARC
  8
CYAN
 10
10961.7296750033
 20
767.1818486779
 40
1.01845389
 50
34.133728747
 51
175.5076548524
  0
LINE
  8
CYAN
 10
10960.71435
 20
767.26162
 11
10960.29555
 21
762.12409
  0
ARC
  8
CYAN
 10
10959.4526565001
 20
762.1969320461
 40
0.846035115
 50
219.8843885889
 51
355.0608250812
  0
LINE
  8
CYAN
 10
10958.80346
 20
761.65442
 11
10955.98883
 21
765.05231
  0
ARC
  8
CYAN
 10
10955.2046705538
 20
764.4025760433
 40
1.0183615524
 50
39.6442548509
 51
185.8098512368
  0
LINE
  8
CYAN
 10
10954.19154
 20
764.29949
 11
10954.63748
 21
759.96569
  0
ARC
  8
CYAN
 10
10953.7928351915
 20
759.8808120511
 40
0.8488987682
 50
217.3780364651
 51
5.7383613563
  0
LINE
  8
CYAN
 10
10953.11826
 20
759.36547
 11
10950.15612
 21
763.26011
  0
ARC
  8
CYAN
 10
10949.3462106321
 20
762.6447301158
 40
1.0171752976
 50
37.2280516023
 51
163.5442617365
  0
LINE
  8
CYAN
 10
10948.3707
 20
762.93287
 11
10947.05834
 21
758.55838
  0
ARC
  8
CYAN
 10
10946.2445321398
 20
758.8008501463
 40
0.849161354
 50
204.4139172107
 51
343.4088271445
  0
LINE
  8
CYAN
 10
10945.4713
 20
758.44987
 11
10943.30099
 21
763.28215
  0
ARC
  8
CYAN
 10
10942.3735801149
 20
762.8701300041
 40
1.0148150433
 50
23.9541218328
 51
160.1733751933
  0
LINE
  8
CYAN
 10
10941.41892
 20
763.21433
 11
10939.93192
 21
759.15183
  0
ARC
  8
CYAN
 10
10939.1374416196
 20
759.445359655
 40
0.84696845
 50
176.2258681265
 51
339.7226390477
  0
LINE
  8
CYAN
 10
10938.29231
 20
759.50111
 11
10938.66025
 21
764.68438
  0
ARC
  8
CYAN
 10
10937.4587810415
 20
764.7678595892
 40
1.2043656007
 50
356.0254042375
 51
140.9216876699
  0
LINE
  8
CYAN
 10
10936.52385
 20
765.52707
 11
10933.09882
 21
761.29835
  0
ARC
  8
CYAN
 10
10932.4409615966
 20
761.8307492463
 40
0.8463017408
 50
168.4422829534
 51
321.0170460884
  0
LINE
  8
CYAN
 10
10931.61182
 20
762.00031
 11
10932.90723
 21
768.44342
  0
ARC
  8
CYAN
 10
10931.72857882
 20
768.6791870974
 40
1.202000303
 50
348.6883445754
 51
154.8792027767
  0
LINE
  8
CYAN
 10
10930.64027
 20
769.18947
 11
10928.51573
 21
764.65555
  0
ARC
  8
CYAN
 10
10927.7473118133
 20
765.0184820081
 40
0.8498153636
 50
177.7186651645
 51
334.7181403642
  0
LINE
  8
CYAN
 10
10926.89817
 20
765.05231
 11
10927.16438
 21
771.59038
  0
ARC
  8
CYAN
 10
10925.9644001711
 20
771.6359999413
 40
1.2008466883
 50
357.8228201335
 51
144.3190029026
  0
LINE
  8
CYAN
 10
10924.98898
 20
772.33642
 11
10923.06113
 21
769.64727
  0
ARC
  8
CYAN
 10
10922.3725152412
 20
770.1390288314
 40
0.8461778975
 50
190.3929451675
 51
324.4683199166
  0
LINE
  8
CYAN
 10
10921.54022
 20
769.98638
 11
10920.90777
 21
773.38258
  0
ARC
  8
CYAN
 10
10919.7278114259
 20
773.1622205904
 40
1.2003584906
 50
10.5782379164
 51
214.4068062973
  0
ARC
  8
CYAN
 10
10917.6213949587
 20
771.7090896834
 40
1.3586736877
 50
137.9227692307
 51
34.7710822194
  0
ARC
  8
CYAN
 10
10915.7170443761
 20
773.421609751
 40
1.2024403406
 50
318.1639258147
 51
215.3216303039
  0
ARC
  8
CYAN
 10
10913.6282856819
 20
771.9413204396
 40
1.3576708576
 50
153.5207565375
 51
35.3278812384
  0
ARC
  8
CYAN
 10
10911.3380796157
 20
773.0773799725
 40
1.1988298056
 50
333.7243596002
 51
214.4533461618
  0
ARC
  8
CYAN
 10
10909.2332078588
 20
771.6309194935
 40
1.355135021
 50
172.0827295247
 51
34.53507731
  0
ARC
  8
CYAN
 10
10906.7021704081
 20
771.9855797685
 40
1.2006314773
 50
351.956425744
 51
128.9207408996
  0
LINE
  8
CYAN
 10
10905.94788
 20
772.91969
 11
10901.84463
 21
769.61336
  0
ARC
  8
CYAN
 10
10903.087499922
 20
768.0638888537
 40
1.9863500387
 50
128.7339798184
 51
223.483130548
  0
ARC
  8
CYAN
 10
10894.8811388376
 20
760.2765847709
 40
9.3267604641
 50
291.4316265657
 51
43.5025152229
  0
ARC
  8
CYAN
 10
10904.6726265239
 20
735.3273672918
 40
17.4750433108
 50
111.4258463301
 51
144.4168188773
  0
ARC
  8
CYAN
 10
10886.3237069663
 20
748.4579993397
 40
5.0881204372
 50
240.1611455457
 51
324.3962944779
  0
ARC
  8
CYAN
 10
10884.3905699755
 20
745.0857009886
 40
1.201037992
 50
122.7306646652
 51
240.1100555692
  0
ARC
  8
CYAN
 10
10865.4199927506
 20
774.634744198
 40
33.9134713577
 50
302.6995234116
 51
322.2852237174
  0
ARC
  8
CYAN
 10
10890.0379998329
 20
755.600769204
 40
2.7953351255
 50
322.2345292672
 51
14.0534092258
  0
ARC
  8
CYAN
 10
10893.0833402185
 20
756.3615706654
 40
0.3436032658
 50
129.8274472511
 51
193.8102666103
  0
LINE
  8
CYAN
 10
10892.86327
 20
756.62545
 11
10898.31109
 21
761.20849
  0
ARC
  8
CYAN
 10
10898.0974199464
 20
761.4709794383
 40
0.3384606284
 50
309.1460686266
 51
39.9541089894
  0
LINE
  8
CYAN
 10
10898.35687
 20
761.68833
 11
10897.70069
 21
762.46828
  0
ARC
  8
CYAN
 10
10897.4403547266
 20
762.2479404473
 40
0.3410630045
 50
40.2435219188
 51
130.0600379059
  0
LINE
  8
CYAN
 10
10897.22085
 20
762.50898
 11
10891.76625
 21
757.91916
  0
ARC
  8
CYAN
 10
10891.5486518107
 20
758.1785700215
 40
0.33858903
 50
231.3690251263
 51
309.9905806021
  0
ARC
  8
CYAN
 10
10889.5723117648
 20
755.7437398006
 40
2.797393563
 50
50.8812643115
 51
116.2252526207
  0
ARC
  8
CYAN
 10
10903.3166318294
 20
727.8317820186
 40
33.9098302944
 50
116.2171439039
 51
128.8837860808
  0
LINE
  8
CYAN
 10
10882.02998
 20
754.2279
 11
10884.45848
 21
752.12123
  0
ARC
  8
CYAN
 10
10909.3762949999
 20
782.1723450001
 40
0.2272049999
 50
90.0012608549
 51
180.0012609106
  0
LINE
  8
CYAN
 10
10909.37629
 20
782.39955
 11
10909.6018
 21
782.39955
  0
ARC
  8
CYAN
 10
10909.6018
 20
782.17234
 40
0.22721
 50
0.0000000002
 51
90.0
  0
LINE
  8
CYAN
 10
10909.82901
 20
782.17234
 11
10909.82901
 21
782.09604
  0
ARC
  8
CYAN
 10
10909.6018050001
 20
782.0960449999
 40
0.2272049999
 50
269.9987390896
 51
359.998739145
  0
ARC
  8
CYAN
 10
10909.6018050001
 20
781.6416350001
 40
0.2272049999
 50
0.0012608549
 51
90.0012609104
  0
LINE
  8
CYAN
 10
10909.82901
 20
781.64164
 11
10909.82901
 21
781.56703
  0
ARC
  8
CYAN
 10
10909.6018050001
 20
781.5670349999
 40
0.2272049999
 50
269.9987390896
 51
359.9987391451
  0
LINE
  8
CYAN
 10
10909.6018
 20
781.33983
 11
10909.37629
 21
781.33983
  0
ARC
  8
CYAN
 10
10909.37629
 20
781.56703
 40
0.2272
 50
179.9999999987
 51
270.0000000014
  0
ARC
  8
CYAN
 10
10921.5490532783
 20
782.0416688991
 40
0.3126220148
 50
228.8967641342
 51
273.9778272704
  0
LINE
  8
CYAN
 10
10921.57074
 20
781.7298
 11
10921.72334
 21
781.7298
  0
ARC
  8
CYAN
 10
10921.72249
 20
782.03246
 40
0.3026611936
 50
270.1609108718
 51
0.1609108724
  0
LINE
  8
CYAN
 10
10922.02515
 20
782.03331
 11
10922.02515
 21
782.10791
  0
ARC
  8
CYAN
 10
10921.72249
 20
782.10876
 40
0.3026611936
 50
359.8390891281
 51
89.8390891282
  0
LINE
  8
CYAN
 10
10921.72334
 20
782.41142
 11
10921.34353
 21
782.41142
  0
LINE
  8
CYAN
 10
10921.34353
 20
782.41142
 11
10921.34353
 21
782.78953
  0
LINE
  8
CYAN
 10
10921.34353
 20
782.78953
 11
10922.02515
 21
782.78953
  0
ARC
  8
CYAN
 10
10927.6543286375
 20
780.4920704905
 40
0.295318174
 50
47.781647688
 51
92.6198337707
  0
LINE
  8
CYAN
 10
10927.64083
 20
780.78708
 11
10927.51875
 21
780.78708
  0
ARC
  8
CYAN
 10
10927.5195949719
 20
780.4844249999
 40
0.3026561796
 50
90.1599616691
 51
180.1618600745
  0
LINE
  8
CYAN
 10
10927.21694
 20
780.48357
 11
10927.21694
 21
780.02916
  0
ARC
  8
CYAN
 10
10927.51875
 20
780.02916
 40
0.30181
 50
179.9999999997
 51
270.0000000007
  0
LINE
  8
CYAN
 10
10927.51875
 20
779.72735
 11
10927.59505
 21
779.72735
  0
ARC
  8
CYAN
 10
10927.5958949861
 20
780.030005014
 40
0.3026561936
 50
269.8400356582
 51
359.8400303723
  0
LINE
  8
CYAN
 10
10927.89855
 20
780.02916
 11
10927.89855
 21
780.10546
  0
ARC
  8
CYAN
 10
10927.595899986
 20
780.1046200139
 40
0.3026511797
 50
0.1590204239
 51
90.1609135464
  0
LINE
  8
CYAN
 10
10927.59505
 20
780.40727
 11
10927.51875
 21
780.40727
  0
ARC
  8
CYAN
 10
10927.51875
 20
780.10546
 40
0.30181
 50
90.0000000007
 51
179.9999999998
  0
ARC
  8
CYAN
 10
10902.75684
 20
779.70192
 40
0.2272
 50
90.0
 51
180.0000000003
  0
LINE
  8
CYAN
 10
10902.75684
 20
779.92912
 11
10902.98405
 21
779.92912
  0
ARC
  8
CYAN
 10
10902.98405
 20
779.70192
 40
0.2272
 50
0.0000000006
 51
89.9999999991
  0
LINE
  8
CYAN
 10
10903.21125
 20
779.70192
 11
10903.21125
 21
779.62562
  0
ARC
  8
CYAN
 10
10902.9840773283
 20
779.6256941335
 40
0.2271726838
 50
311.0481339573
 51
359.9813026032
  0
LINE
  8
CYAN
 10
10903.13326
 20
779.45437
 11
10902.52964
 21
778.8694
  0
LINE
  8
CYAN
 10
10902.52964
 20
778.8694
 11
10903.21125
 21
778.8694
  0
ARC
  8
CYAN
 10
10947.7094350001
 20
771.7870649999
 40
0.303505
 50
269.9990560828
 51
359.999056114
  0
LINE
  8
CYAN
 10
10947.70943
 20
771.48356
 11
10947.63313
 21
771.48356
  0
ARC
  8
CYAN
 10
10947.633975014
 20
771.7862150139
 40
0.3026561936
 50
179.8400356579
 51
269.8400303716
  0
LINE
  8
CYAN
 10
10947.33132
 20
771.78706
 11
10947.33132
 21
771.86167
  0
ARC
  8
CYAN
 10
10947.633975014
 20
771.8625149861
 40
0.3026561936
 50
90.1599696277
 51
180.1599643425
  0
LINE
  8
CYAN
 10
10947.63313
 20
772.16517
 11
10947.70943
 21
772.16517
  0
ARC
  8
CYAN
 10
10947.7094350001
 20
771.8616650001
 40
0.303505
 50
0.0009438866
 51
90.0009439179
  0
LINE
  8
CYAN
 10
10948.01294
 20
771.86167
 11
10948.01294
 21
771.40726
  0
ARC
  8
CYAN
 10
10947.7102849999
 20
771.4081049719
 40
0.3026561796
 50
269.8381399249
 51
359.8400383319
  0
LINE
  8
CYAN
 10
10947.70943
 20
771.10545
 11
10947.60261
 21
771.10545
  0
ARC
  8
CYAN
 10
10947.5807047518
 20
771.4173817362
 40
0.3126999327
 50
229.3740050404
 51
274.0169725645
  0
ARC
  8
CYAN
 10
10953.9592549999
 20
773.5233150001
 40
0.2272049999
 50
90.0012608544
 51
180.001260911
  0
LINE
  8
CYAN
 10
10953.95925
 20
773.75052
 11
10954.18646
 21
773.75052
  0
ARC
  8
CYAN
 10
10954.1864550001
 20
773.5233150001
 40
0.2272049999
 50
359.998739089
 51
89.9987391451
  0
LINE
  8
CYAN
 10
10954.41366
 20
773.52331
 11
10954.41366
 21
773.44701
  0
ARC
  8
CYAN
 10
10954.18705623
 20
773.4482918986
 40
0.2266073958
 50
310.4149446343
 51
359.6758809729
  0
LINE
  8
CYAN
 10
10954.33397
 20
773.27576
 11
10953.73205
 21
772.69079
  0
LINE
  8
CYAN
 10
10953.73205
 20
772.69079
 11
10954.41366
 21
772.69079
  0
ARC
  8
CYAN
 10
10960.13108
 20
776.28198
 40
0.22721
 50
89.9999999995
 51
179.9999999995
  0
LINE
  8
CYAN
 10
10960.13108
 20
776.50919
 11
10960.35828
 21
776.50919
  0
ARC
  8
CYAN
 10
10960.35828
 20
776.28198
 40
0.22721
 50
0.000000001
 51
89.9999999995
  0
LINE
  8
CYAN
 10
10960.58549
 20
776.28198
 11
10960.58549
 21
776.20568
  0
ARC
  8
CYAN
 10
10960.35887801
 20
776.2069657237
 40
0.2266156373
 50
310.4158999763
 51
359.6749256298
  0
LINE
  8
CYAN
 10
10960.5058
 20
776.03443
 11
10959.90387
 21
775.44946
  0
LINE
  8
CYAN
 10
10959.90387
 20
775.44946
 11
10960.58549
 21
775.44946
  0
ARC
  8
CYAN
 10
10966.5546900187
 20
777.9631300186
 40
0.2263515773
 50
89.7848459725
 51
179.7873772285
  0
LINE
  8
CYAN
 10
10966.55554
 20
778.18948
 11
10966.78275
 21
778.18948
  0
ARC
  8
CYAN
 10
10966.7835999813
 20
777.9631300186
 40
0.2263515773
 50
0.2126227729
 51
90.2151540279
  0
LINE
  8
CYAN
 10
10967.00995
 20
777.96397
 11
10967.00995
 21
777.88767
  0
ARC
  8
CYAN
 10
10966.7821479651
 20
777.8863454877
 40
0.2278058854
 50
311.1193894607
 51
0.3331318236
  0
LINE
  8
CYAN
 10
10966.93196
 20
777.71473
 11
10966.32834
 21
777.12976
  0
LINE
  8
CYAN
 10
10966.32834
 20
777.12976
 11
10967.00995
 21
777.12976
  0
ARC
  8
CYAN
 10
10965.7221700187
 20
777.9631300186
 40
0.2263515773
 50
89.7848459725
 51
179.7873772285
  0
LINE
  8
CYAN
 10
10965.72302
 20
778.18948
 11
10965.95023
 21
778.18948
  0
ARC
  8
CYAN
 10
10965.9510799813
 20
777.9631300186
 40
0.2263515773
 50
0.212622772
 51
90.2151540284
  0
LINE
  8
CYAN
 10
10966.17743
 20
777.96397
 11
10966.17743
 21
777.88767
  0
ARC
  8
CYAN
 10
10965.9501700065
 20
777.8875600141
 40
0.2272600201
 50
310.4921814141
 51
0.0277291617
  0
LINE
  8
CYAN
 10
10966.09774
 20
777.71473
 11
10965.49582
 21
777.12976
  0
LINE
  8
CYAN
 10
10965.49582
 20
777.12976
 11
10966.17743
 21
777.12976
  0
ARC
  8
CYAN
 10
10972.45777
 20
778.2963
 40
0.2238356723
 50
179.1322200055
 51
269.1322200047
  0
LINE
  8
CYAN
 10
10972.45438
 20
778.07249
 11
10972.69176
 21
778.07249
  0
ARC
  8
CYAN
 10
10972.68837
 20
778.2963
 40
0.2238356723
 50
270.8677799939
 51
0.8677799959
  0
LINE
  8
CYAN
 10
10972.91218
 20
778.29969
 11
10972.91218
 21
778.3743
  0
ARC
  8
CYAN
 10
10972.68837
 20
778.37769
 40
0.2238356723
 50
359.1322200043
 51
89.1322200051
  0
ARC
  8
CYAN
 10
10972.688365077
 20
778.8253149253
 40
0.2238406717
 50
270.8690208869
 51
0.8690597109
  0
LINE
  8
CYAN
 10
10972.91218
 20
778.82871
 11
10972.91218
 21
778.90501
  0
ARC
  8
CYAN
 10
10972.68837
 20
778.9084
 40
0.2238356723
 50
359.1322200046
 51
89.1322200051
  0
LINE
  8
CYAN
 10
10972.69176
 20
779.13221
 11
10972.45438
 21
779.13221
  0
ARC
  8
CYAN
 10
10972.45777
 20
778.9084
 40
0.2238356723
 50
90.8677799953
 51
180.8677799945
  0
ARC
  8
CYAN
 10
10971.62695
 20
778.9084
 40
0.2238356723
 50
90.8677799953
 51
180.8677799954
  0
LINE
  8
CYAN
 10
10971.62356
 20
779.13221
 11
10971.86094
 21
779.13221
  0
ARC
  8
CYAN
 10
10971.85755
 20
778.9084
 40
0.2238356723
 50
359.1322200041
 51
89.1322200065
  0
LINE
  8
CYAN
 10
10972.08136
 20
778.90501
 11
10972.08136
 21
778.82871
  0
ARC
  8
CYAN
 10
10971.8522033477
 20
778.8355467622
 40
0.2292586151
 50
309.0320148047
 51
358.291118951
  0
LINE
  8
CYAN
 10
10971.99658
 20
778.65746
 11
10971.40314
 21
778.07249
  0
LINE
  8
CYAN
 10
10971.40314
 20
778.07249
 11
10972.08136
 21
778.07249
  0
ARC
  8
CYAN
 10
10977.93442
 20
779.04235
 40
0.2238356723
 50
90.8677799953
 51
180.8677799943
  0
LINE
  8
CYAN
 10
10977.93103
 20
779.26616
 11
10978.16841
 21
779.26616
  0
ARC
  8
CYAN
 10
10978.16502
 20
779.04235
 40
0.2238356723
 50
359.1322200052
 51
89.1322200051
  0
LINE
  8
CYAN
 10
10978.38883
 20
779.03896
 11
10978.38883
 21
778.96435
  0
ARC
  8
CYAN
 10
10978.1576419815
 20
778.9704340419
 40
0.2312680598
 50
309.2767138074
 51
358.4925279078
  0
LINE
  8
CYAN
 10
10978.30405
 20
778.79141
 11
10977.71061
 21
778.20644
  0
LINE
  8
CYAN
 10
10977.71061
 20
778.20644
 11
10978.38883
 21
778.20644
  0
ARC
  8
CYAN
 10
10983.4365001118
 20
778.630330107
 40
0.2323456506
 50
88.7447475692
 51
178.7472129495
  0
LINE
  8
CYAN
 10
10983.44159
 20
778.86262
 11
10983.66201
 21
778.86262
  0
ARC
  8
CYAN
 10
10983.6586200747
 20
778.638809923
 40
0.2238357482
 50
359.1296799868
 51
89.132239417
  0
LINE
  8
CYAN
 10
10983.88243
 20
778.63541
 11
10983.88243
 21
778.56081
  0
ARC
  8
CYAN
 10
10983.6611084003
 20
778.5478259205
 40
0.2217021354
 50
313.8186150665
 51
3.3574727877
  0
LINE
  8
CYAN
 10
10983.81461
 20
778.38786
 11
10983.20421
 21
777.8029
  0
LINE
  8
CYAN
 10
10983.20421
 20
777.8029
 11
10983.88243
 21
777.8029
  0
LINE
  8
CYAN
 10
10984.71325
 20
778.86262
 11
10984.03503
 21
778.86262
  0
LINE
  8
CYAN
 10
10984.03503
 20
778.86262
 11
10984.03503
 21
778.48451
  0
LINE
  8
CYAN
 10
10984.03503
 20
778.48451
 11
10984.42501
 21
778.48451
  0
ARC
  8
CYAN
 10
10984.41738
 20
778.18864
 40
0.2959683662
 50
358.5227636281
 51
88.5227636282
  0
LINE
  8
CYAN
 10
10984.71325
 20
778.18101
 11
10984.71325
 21
778.1064
  0
ARC
  8
CYAN
 10
10984.41738
 20
778.09877
 40
0.2959683662
 50
271.4772363722
 51
1.4772363717
  0
LINE
  8
CYAN
 10
10984.42501
 20
777.8029
 11
10984.27241
 21
777.8029
  0
ARC
  8
CYAN
 10
10984.2456353357
 20
778.1270114992
 40
0.3252155386
 50
229.6400863599
 51
274.7224483334
  0
ARC
  8
CYAN
 10
10784.61907
 20
671.41707
 40
0.23234576
 50
88.744720586
 51
178.744720586
  0
LINE
  8
CYAN
 10
10784.62416
 20
671.64936
 11
10784.84458
 21
671.64936
  0
ARC
  8
CYAN
 10
10784.84967
 20
671.41707
 40
0.23234576
 50
1.2552794149
 51
91.2552794136
  0
LINE
  8
CYAN
 10
10785.08196
 20
671.42216
 11
10785.08196
 21
671.34756
  0
ARC
  8
CYAN
 10
10784.8521612981
 20
671.3529526481
 40
0.2298619674
 50
309.1161643554
 51
358.6556961456
  0
LINE
  8
CYAN
 10
10784.99718
 20
671.17461
 11
10784.38678
 21
670.58964
  0
LINE
  8
CYAN
 10
10784.38678
 20
670.58964
 11
10785.08196
 21
670.58964
  0
ARC
  8
CYAN
 10
10810.635164087
 20
673.2167640228
 40
0.3432403324
 50
349.9235519262
 51
78.8022377283
  0
LINE
  8
CYAN
 10
10810.97311
 20
673.15671
 11
10810.39662
 21
670.28614
  0
ARC
  8
CYAN
 10
10810.7295428165
 20
670.2212258632
 40
0.339192345
 50
168.9667546682
 51
259.5309350716
  0
LINE
  8
CYAN
 10
10810.66791
 20
669.88768
 11
10811.66828
 21
669.69608
  0
ARC
  8
CYAN
 10
10811.7378
 20
670.0335
 40
0.3445073102
 50
258.3580295751
 51
348.3580295749
  0
LINE
  8
CYAN
 10
10812.07522
 20
669.96398
 11
10812.63475
 21
672.82947
  0
ARC
  8
CYAN
 10
10812.966474688
 20
672.7643763508
 40
0.3380509603
 50
80.0768558758
 51
168.8980286584
  0
ARC
  8
CYAN
 10
10824.294702901
 20
736.6228327439
 40
64.517413975
 50
259.9398993086
 51
264.4398618978
  0
ARC
  8
CYAN
 10
10818.0111611585
 20
672.0717986163
 40
0.3387263251
 50
355.3655286676
 51
84.5079252852
  0
LINE
  8
CYAN
 10
10818.34878
 20
672.04443
 11
10818.1114
 21
669.13316
  0
ARC
  8
CYAN
 10
10818.4462745214
 20
669.1034845993
 40
0.3361868149
 50
174.935878149
 51
264.9360285849
  0
LINE
  8
CYAN
 10
10818.4166
 20
668.76861
 11
10819.43393
 21
668.68553
  0
ARC
  8
CYAN
 10
10819.4660667166
 20
669.0262572688
 40
0.3422394487
 50
264.611915856
 51
354.897624422
  0
LINE
  8
CYAN
 10
10819.80695
 20
668.99582
 11
10820.02738
 21
671.91218
  0
ARC
  8
CYAN
 10
10820.3636883711
 20
671.8856885806
 40
0.3373501383
 50
86.6434501786
 51
175.4960419394
  0
ARC
  8
CYAN
 10
10824.2778315053
 20
736.6929599683
 40
64.5880147656
 50
266.5432035261
 51
271.0426869394
  0
ARC
  8
CYAN
 10
10825.4566248848
 20
671.7799052862
 40
0.3357525927
 50
1.4497674835
 51
90.5912889582
  0
LINE
  8
CYAN
 10
10825.79227
 20
671.7884
 11
10825.894
 21
668.86357
  0
ARC
  8
CYAN
 10
10826.2347764206
 20
668.8787932726
 40
0.3411162806
 50
182.5578346943
 51
272.5696556448
  0
LINE
  8
CYAN
 10
10826.25007
 20
668.53802
 11
10827.2674
 21
668.57532
  0
ARC
  8
CYAN
 10
10827.25299
 20
668.91189
 40
0.3368783356
 50
272.4515799348
 51
2.4515799344
  0
LINE
  8
CYAN
 10
10827.58956
 20
668.9263
 11
10827.48783
 21
671.84944
  0
ARC
  8
CYAN
 10
10827.8270906831
 20
671.8613807442
 40
0.3394707535
 50
92.8891605691
 51
182.0157713053
  0
ARC
  8
CYAN
 10
10824.286775847
 20
736.5160548946
 40
64.412062996
 50
273.1355232729
 51
277.6359848524
  0
ARC
  8
CYAN
 10
10832.8870202825
 20
672.3425097843
 40
0.3352166961
 50
8.1997609707
 51
97.0667590845
  0
LINE
  8
CYAN
 10
10833.21881
 20
672.39032
 11
10833.65965
 21
669.5011
  0
ARC
  8
CYAN
 10
10833.9969180651
 20
669.5554714049
 40
0.341622595
 50
189.1579311004
 51
278.8761275723
  0
LINE
  8
CYAN
 10
10834.04963
 20
669.21794
 11
10835.05001
 21
669.36884
  0
ARC
  8
CYAN
 10
10835.0008358175
 20
669.7062543904
 40
0.3409788426
 50
278.2918104187
 51
8.2920527506
  0
LINE
  8
CYAN
 10
10835.33825
 20
669.75543
 11
10834.89741
 21
672.64635
  0
ARC
  8
CYAN
 10
10835.2379667313
 20
672.6916856352
 40
0.3435610674
 50
98.7589528554
 51
187.5827529815
  0
ARC
  8
CYAN
 10
10824.2765637366
 20
736.3380480126
 40
64.2398638218
 50
279.7772383318
 51
284.2778863938
  0
ARC
  8
CYAN
 10
10840.2096361135
 20
673.7465921921
 40
0.3477243806
 50
16.1666804177
 51
104.9860842611
  0
LINE
  8
CYAN
 10
10840.54361
 20
673.84341
 11
10841.30661
 21
671.0254
  0
ARC
  8
CYAN
 10
10841.6372459379
 20
671.1186566748
 40
0.3435359236
 50
195.7512353983
 51
285.7507826551
  0
LINE
  8
CYAN
 10
10841.7305
 20
670.78802
 11
10842.71392
 21
671.05592
  0
ARC
  8
CYAN
 10
10842.6238996953
 20
671.3828894668
 40
0.3391352053
 50
285.3931441316
 51
15.1164991338
  0
LINE
  8
CYAN
 10
10842.9513
 20
671.47133
 11
10842.17134
 21
674.28935
  0
ARC
  8
CYAN
 10
10842.5010427595
 20
674.376474829
 40
0.3410200074
 50
105.7074337082
 51
194.8022095572
  0
ARC
  8
CYAN
 10
10824.2837408077
 20
736.5874237943
 40
64.4823925502
 50
286.32492146
 51
290.8240139865
  0
ARC
  8
CYAN
 10
10847.3217672685
 20
676.0061212347
 40
0.3315505724
 50
21.128086865
 51
110.2245756059
  0
LINE
  8
CYAN
 10
10847.63103
 20
676.12563
 11
10848.73315
 21
673.41613
  0
ARC
  8
CYAN
 10
10849.047495742
 20
673.5420418178
 40
0.3386252078
 50
201.8286695189
 51
291.9348703444
  0
LINE
  8
CYAN
 10
10849.17399
 20
673.22793
 11
10850.10655
 21
673.60604
  0
ARC
  8
CYAN
 10
10849.9789702073
 20
673.91989049
 40
0.3387901025
 50
292.1216744961
 51
22.013955032
  0
LINE
  8
CYAN
 10
10850.29306
 20
674.04688
 11
10849.2079
 21
676.75808
  0
ARC
  8
CYAN
 10
10849.5246433809
 20
676.8827379605
 40
0.3403909171
 50
112.4947923889
 51
201.4826826725
  0
ARC
  8
CYAN
 10
10824.2883808974
 20
736.5604939217
 40
64.4539354946
 50
292.9245702116
 51
297.4223824781
  0
ARC
  8
CYAN
 10
10854.1302298184
 20
679.0453000552
 40
0.3421560951
 50
28.7455509137
 51
117.4659701908
  0
LINE
  8
CYAN
 10
10854.43022
 20
679.20985
 11
10855.82057
 21
676.63939
  0
ARC
  8
CYAN
 10
10856.1168366221
 20
676.7989180378
 40
0.3364864131
 50
208.3007342841
 51
298.6892645798
  0
LINE
  8
CYAN
 10
10856.27837
 20
676.50374
 11
10857.17702
 21
676.99037
  0
ARC
  8
CYAN
 10
10857.0145396835
 20
677.2880989277
 40
0.3391789611
 50
298.6227268564
 51
28.4844044889
  0
LINE
  8
CYAN
 10
10857.31266
 20
677.44986
 11
10855.9223
 21
680.01863
  0
ARC
  8
CYAN
 10
10856.2148499647
 20
680.1859998643
 40
0.3370432514
 50
121.053533743
 51
209.7741728462
  0
ARC
  8
CYAN
 10
10824.2974604577
 20
736.6115145032
 40
64.4902249913
 50
299.4867545775
 51
303.9868983102
  0
ARC
  8
CYAN
 10
10860.5420500504
 20
682.855049991
 40
0.3436329732
 50
35.3120698999
 51
124.4401740632
  0
LINE
  8
CYAN
 10
10860.82246
 20
683.05368
 11
10862.50106
 21
680.65955
  0
ARC
  8
CYAN
 10
10862.7790176372
 20
680.8555504051
 40
0.3401126385
 50
215.1893812996
 51
305.354858658
  0
LINE
  8
CYAN
 10
10862.97582
 20
680.57816
 11
10863.80664
 21
681.16483
  0
ARC
  8
CYAN
 10
10863.6032196341
 20
681.4346574572
 40
0.3379152289
 50
307.0122945989
 51
36.6124783488
  0
LINE
  8
CYAN
 10
10863.87446
 20
681.63619
 11
10862.19586
 21
684.02693
  0
ARC
  8
CYAN
 10
10862.4773508961
 20
684.2186049643
 40
0.3405531038
 50
125.2834458285
 51
214.2520352759
  0
ARC
  8
CYAN
 10
10824.2974431073
 20
736.5649245448
 40
64.4502417923
 50
306.1102871472
 51
310.609649946
  0
ARC
  8
CYAN
 10
10866.4700842407
 20
687.3798403702
 40
0.3394520611
 50
41.8348345529
 51
130.8087566813
  0
LINE
  8
CYAN
 10
10866.723
 20
687.60625
 11
10868.65593
 21
685.42406
  0
ARC
  8
CYAN
 10
10868.9153452901
 20
685.6563602598
 40
0.34822364
 50
221.8436935847
 51
311.8424678236
  0
LINE
  8
CYAN
 10
10869.14764
 20
685.39694
 11
10869.89369
 21
686.07346
  0
ARC
  8
CYAN
 10
10869.6707797196
 20
686.329546046
 40
0.3395129689
 50
311.0379642147
 51
40.8488813874
  0
LINE
  8
CYAN
 10
10869.9276
 20
686.55161
 11
10867.97771
 21
688.73379
  0
ARC
  8
CYAN
 10
10868.2371201787
 20
688.9538525025
 40
0.340178109
 50
131.5205450821
 51
220.3085644182
  0
ARC
  8
CYAN
 10
10824.2973075396
 20
736.5420774849
 40
64.4313893848
 50
312.7236513371
 51
317.2218717476
  0
ARC
  8
CYAN
 10
10871.8386642572
 20
692.5538902129
 40
0.338523273
 50
48.2683047403
 51
137.4571076379
  0
LINE
  8
CYAN
 10
10872.064
 20
692.80652
 11
10874.25127
 21
690.85832
  0
ARC
  8
CYAN
 10
10874.4741820552
 20
691.1108995175
 40
0.3368771245
 50
228.5702415402
 51
318.3799903429
  0
LINE
  8
CYAN
 10
10874.72602
 20
690.88715
 11
10875.40425
 21
691.64676
  0
ARC
  8
CYAN
 10
10875.1482196722
 20
691.8688746221
 40
0.3389490141
 50
319.0573001829
 51
49.0560233301
  0
LINE
  8
CYAN
 10
10875.37034
 20
692.1249
 11
10873.18307
 21
694.0714
  0
ARC
  8
CYAN
 10
10873.4162399094
 20
694.3174125353
 40
0.3389548262
 50
137.556626581
 51
226.5352235103
  0
ARC
  8
CYAN
 10
10824.3006382945
 20
736.5577849342
 40
64.4423071794
 50
319.313017092
 51
320.5306120599
  0
ARC
  8
CYAN
 10
10871.6906193568
 20
698.0313878407
 40
3.3907390526
 50
314.0417193781
 51
12.7836948369
  0
ARC
  8
CYAN
 10
10877.1211668596
 20
699.2696131251
 40
2.1791893475
 50
117.9603858498
 51
192.9390829142
  0
ARC
  8
CYAN
 10
10875.0779797688
 20
703.1491593644
 40
2.2055220387
 50
297.5894654405
 51
22.4222423443
  0
ARC
  8
CYAN
 10
10879.1323598592
 20
704.8283396303
 40
2.1828350505
 50
115.7231200503
 51
202.5737411064
  0
ARC
  8
CYAN
 10
10877.2291604845
 20
708.7799012952
 40
2.20316628
 50
295.7108650776
 51
23.2664842946
  0
ARC
  8
CYAN
 10
10881.2611196426
 20
710.5091889264
 40
2.1839907147
 50
120.011035878
 51
203.1615716891
  0
ARC
  8
CYAN
 10
10879.064751048
 20
714.304391178
 40
2.2009389843
 50
300.1064520993
 51
336.579493019
  0
ARC
  8
CYAN
 10
10925.4181107421
 20
694.1399210589
 40
48.3484437302
 50
133.4688011637
 51
156.486105104
  0
ARC
  8
CYAN
 10
10893.0388872729
 20
728.3165328241
 40
1.2692706998
 50
313.9450043728
 51
134.0525950542
  0
ARC
  8
CYAN
 10
10929.9695373956
 20
695.2261556534
 40
48.3209698029
 50
138.2492904044
 51
159.8911428424
  0
ARC
  8
CYAN
 10
10885.8632298625
 20
711.3691905894
 40
1.3532888695
 50
159.6798990031
 51
226.5923088162
  0
ARC
  8
CYAN
 10
10884.1431894948
 20
709.5683567786
 40
1.1370353596
 50
296.1906069186
 51
45.9839298581
  0
LINE
  8
CYAN
 10
10884.64503
 20
708.54806
 11
10883.55987
 21
708.02074
  0
ARC
  8
CYAN
 10
10883.9879371113
 20
707.149992008
 40
0.9702801232
 50
116.1791234071
 51
204.0765249545
  0
LINE
  8
CYAN
 10
10883.10207
 20
706.75416
 11
10884.0855
 21
704.52451
  0
ARC
  8
CYAN
 10
10883.023982312
 20
704.056168691
 40
1.1602428124
 50
306.3986312332
 51
23.8070586749
  0
LINE
  8
CYAN
 10
10883.71247
 20
703.12228
 11
10882.66123
 21
702.3525
  0
ARC
  8
CYAN
 10
10883.4097502833
 20
701.3532434591
 40
1.2485176206
 50
126.8360439149
 51
223.8006682863
  0
LINE
  8
CYAN
 10
10882.50863
 20
700.48908
 11
10882.81383
 21
700.16354
  0
ARC
  8
CYAN
 10
10881.712539853
 20
699.1276168638
 40
1.5119446855
 50
311.3845017211
 51
43.2481455236
  0
LINE
  8
CYAN
 10
10882.7121
 20
697.99322
 11
10881.35565
 21
696.78599
  0
ARC
  8
CYAN
 10
10882.2492100014
 20
695.7905801683
 40
1.3376435285
 50
131.9137038801
 51
227.1024478075
  0
LINE
  8
CYAN
 10
10881.33869
 20
694.81066
 11
10882.44081
 21
693.7662
  0
ARC
  8
CYAN
 10
10881.5649594433
 20
692.8364969864
 40
1.2772869259
 50
292.3580063298
 51
46.7083979576
  0
LINE
  8
CYAN
 10
10882.05083
 20
691.65523
 11
10879.59227
 21
690.63112
  0
ARC
  8
CYAN
 10
10879.8814804585
 20
689.9327328658
 40
0.7559016328
 50
112.4950305063
 51
229.324169639
  0
LINE
  8
CYAN
 10
10879.3888
 20
689.35945
 11
10880.94872
 21
688.02335
  0
ARC
  8
CYAN
 10
10880.2341210293
 20
687.1929121016
 40
1.0955723582
 50
258.524600357
 51
49.2877211417
  0
LINE
  8
CYAN
 10
10880.01616
 20
686.11924
 11
10877.65934
 21
686.594
  0
ARC
  8
CYAN
 10
10877.3779405428
 20
685.1736921924
 40
1.4479157167
 50
78.7933645925
 51
253.3947200813
  0
LINE
  8
CYAN
 10
10876.96416
 20
683.78616
 11
10877.93063
 21
683.48943
  0
ARC
  8
CYAN
 10
10877.6110207967
 20
682.4416534504
 40
1.0954386066
 50
260.9604691799
 51
73.0364252557
  0
LINE
  8
CYAN
 10
10877.43891
 20
681.35982
 11
10873.57305
 21
681.97191
  0
ARC
  8
CYAN
 10
10873.3440101978
 20
680.5401906117
 40
1.449924011
 50
80.9111004866
 51
243.2481563954
  0
LINE
  8
CYAN
 10
10872.69136
 20
679.24546
 11
10874.30214
 21
678.43159
  0
ARC
  8
CYAN
 10
10873.8119894665
 20
677.4527986729
 40
1.0946597679
 50
252.7989172581
 51
63.3996093033
  0
LINE
  8
CYAN
 10
10873.48827
 20
676.4071
 11
10869.48676
 21
677.64824
  0
ARC
  8
CYAN
 10
10869.0625889068
 20
676.2653678817
 40
1.4464634154
 50
72.9475489586
 51
232.4571604856
  0
LINE
  8
CYAN
 10
10868.18118
 20
675.11847
 11
10870.33453
 21
673.44835
  0
ARC
  8
CYAN
 10
10869.6597194005
 20
672.5841889199
 40
1.0964231471
 50
249.9204232248
 51
52.0142492508
  0
LINE
  8
CYAN
 10
10869.28329
 20
671.55441
 11
10864.33226
 21
673.35001
  0
ARC
  8
CYAN
 10
10863.8383083861
 20
671.9879774377
 40
1.4488343238
 50
70.0664329746
 51
225.5228950333
  0
LINE
  8
CYAN
 10
10862.82322
 20
670.95419
 11
10865.197
 21
668.61262
  0
ARC
  8
CYAN
 10
10864.4270071178
 20
667.8326261671
 40
1.0960289312
 50
240.7473576577
 51
45.3696833728
  0
LINE
  8
CYAN
 10
10863.89142
 20
666.87637
 11
10859.07604
 21
669.57231
  0
ARC
  8
CYAN
 10
10858.3674120776
 20
668.3076031452
 40
1.4497023698
 50
60.7376532186
 51
232.3669103012
  0
LINE
  8
CYAN
 10
10857.48222
 20
667.15953
 11
10860.11033
 21
665.13505
  0
ARC
  8
CYAN
 10
10859.4379085692
 20
664.2687375655
 40
1.0966530056
 50
246.9323216116
 51
52.1818099039
  0
LINE
  8
CYAN
 10
10859.00822
 20
663.25977
 11
10852.64988
 21
665.95909
  0
ARC
  8
CYAN
 10
10852.078998612
 20
664.6233979386
 40
1.4525766217
 50
66.8578971719
 51
225.2331530383
  0
LINE
  8
CYAN
 10
10851.05606
 20
663.5921
 11
10854.04024
 21
660.652
  0
ARC
  8
CYAN
 10
10853.2675004236
 20
659.8735505741
 40
1.0968636932
 50
241.9441309934
 51
45.2109019597
  0
LINE
  8
CYAN
 10
10852.75161
 20
658.90558
 11
10845.3929
 21
662.81723
  0
ARC
  8
CYAN
 10
10844.7168894433
 20
661.5377393719
 40
1.4470958987
 50
62.1505577598
 51
214.7432247612
  0
LINE
  8
CYAN
 10
10843.52779
 20
660.71304
 11
10846.20677
 21
656.81496
  0
ARC
  8
CYAN
 10
10845.3107323209
 20
656.1917622597
 40
1.0914480958
 50
233.6497856042
 51
34.8187655082
  0
LINE
  8
CYAN
 10
10844.66381
 20
655.3127
 11
10837.74594
 21
660.44345
  0
ARC
  8
CYAN
 10
10836.8765204258
 20
659.2790404336
 40
1.4531827257
 50
53.2527260377
 51
217.796731242
  0
LINE
  8
CYAN
 10
10835.72823
 20
658.38844
 11
10839.05152
 21
654.13428
  0
ARC
  8
CYAN
 10
10838.1817450175
 20
653.4619448272
 40
1.0993375755
 50
234.4432314904
 51
37.7039865461
  0
LINE
  8
CYAN
 10
10837.54247
 20
652.56759
 11
10828.45429
 21
659.03783
  0
ARC
  8
CYAN
 10
10827.6163758528
 20
657.8571565614
 40
1.4477879287
 50
54.6369937184
 51
204.689705266
  0
LINE
  8
CYAN
 10
10826.30094
 20
657.25241
 11
10828.96296
 21
651.42309
  0
ARC
  8
CYAN
 10
10827.9630062745
 20
650.9674474276
 40
1.0988710602
 50
224.7511762462
 51
24.497030139
  0
LINE
  8
CYAN
 10
10827.18262
 20
650.19381
 11
10818.77267
 21
658.64107
  0
ARC
  8
CYAN
 10
10817.7466441879
 20
657.618683322
 40
1.4484486482
 50
44.8982105386
 51
211.9469564563
  0
LINE
  8
CYAN
 10
10816.51758
 20
656.85226
 11
10820.34953
 21
650.71265
  0
ARC
  8
CYAN
 10
10819.4174451081
 20
650.1345158868
 40
1.0968232759
 50
228.3059486854
 51
31.8096338601
  0
LINE
  8
CYAN
 10
10818.68789
 20
649.31551
 11
10807.3107
 21
659.41425
  0
ARC
  8
CYAN
 10
10806.3467569886
 20
658.3305579382
 40
1.4503705092
 50
48.346938811
 51
200.4497136144
  0
LINE
  8
CYAN
 10
10804.98779
 20
657.82382
 11
10807.49722
 21
651.11111
  0
ARC
  8
CYAN
 10
10806.4720526823
 20
650.7292817677
 40
1.0939656431
 50
226.3455453427
 51
20.4280755209
  0
LINE
  8
CYAN
 10
10805.71688
 20
649.93778
 11
10796.30654
 21
658.92932
  0
ARC
  8
CYAN
 10
10795.0149460451
 20
657.5791891162
 40
1.8684400841
 50
46.2693866341
 51
158.9237156403
  0
LINE
  8
CYAN
 10
10793.2715
 20
658.2511
 11
10792.3559
 21
655.87562
  0
ARC
  8
CYAN
 10
10790.5798934811
 20
656.559390417
 40
1.9030872651
 50
214.7194769135
 51
338.9430722447
  0
LINE
  8
CYAN
 10
10789.01565
 20
655.47547
 11
10785.52281
 21
660.52823
  0
ARC
  8
CYAN
 10
10782.9737730123
 20
658.7625282573
 40
3.1008534646
 50
34.7100998407
 51
85.1897226326
  0
LINE
  8
CYAN
 10
10783.2338
 20
661.85246
 11
10775.73945
 21
662.4849
  0
ARC
  8
CYAN
 10
10775.73944
 20
664.18045
 40
1.69555
 50
179.9999999995
 51
270.000337918
  0
LINE
  8
CYAN
 10
10774.04389
 20
664.18045
 11
10774.04389
 21
669.86055
  0
ARC
  8
CYAN
 10
10774.383
 20
669.86055
 40
0.33911
 50
90.0000000003
 51
179.9999999996
  0
LINE
  8
CYAN
 10
10774.383
 20
670.19966
 11
10782.30125
 21
670.19966
  0
ARC
  8
CYAN
 10
10782.3012450001
 20
670.5387749999
 40
0.339115
 50
270.0008447719
 51
0.0008447958
  0
LINE
  8
CYAN
 10
10782.64036
 20
670.53878
 11
10782.64036
 21
671.55611
  0
ARC
  8
CYAN
 10
10782.30125
 20
671.55611
 40
0.33911
 50
-0.0000000002
 51
89.9999999997
  0
LINE
  8
CYAN
 10
10782.30125
 20
671.89522
 11
10774.383
 21
671.89522
  0
ARC
  8
CYAN
 10
10774.383
 20
672.23433
 40
0.33911
 50
180.0000000002
 51
270.0000000003
  0
LINE
  8
CYAN
 10
10774.04389
 20
672.23433
 11
10774.04389
 21
678.95213
  0
ARC
  8
CYAN
 10
10774.383
 20
678.95213
 40
0.33911
 50
90.0000000003
 51
179.9999999993
  0
LINE
  8
CYAN
 10
10774.383
 20
679.29124
 11
10776.33289
 21
679.29124
  0
ARC
  8
CYAN
 10
10776.1657136923
 20
680.5330143616
 40
1.252977048
 50
277.6674556932
 51
1.832422527
  0
LINE
  8
CYAN
 10
10777.41805
 20
680.57308
 11
10777.31631
 21
684.2287
  0
ARC
  8
CYAN
 10
10778.5639995494
 20
684.2689995373
 40
1.2483402038
 50
89.677776693
 51
181.8499721779
  0
LINE
  8
CYAN
 10
10778.57102
 20
685.51732
 11
10780.16485
 21
685.50376
  0
ARC
  8
CYAN
 10
10780.1528970365
 20
684.2524531503
 40
1.2513639381
 50
357.047598912
 51
89.4527053606
  0
LINE
  8
CYAN
 10
10781.4026
 20
684.188
 11
10781.21609
 21
680.41539
  0
ARC
  8
CYAN
 10
10782.4708492257
 20
680.3509600403
 40
1.2564123265
 50
177.060531343
 51
356.9828982338
  0
LINE
  8
CYAN
 10
10783.72552
 20
680.28483
 11
10783.91203
 21
684.05575
  0
ARC
  8
CYAN
 10
10785.164494584
 20
683.9873739388
 40
1.2543296296
 50
84.4672683438
 51
176.8751415151
  0
LINE
  8
CYAN
 10
10785.28543
 20
685.23586
 11
10786.87925
 21
685.08326
  0
ARC
  8
CYAN
 10
10786.7582901403
 20
683.8376898227
 40
1.251429724
 50
352.2604720547
 51
84.4532829498
  0
LINE
  8
CYAN
 10
10787.99832
 20
683.66916
 11
10787.50661
 21
680.04576
  0
ARC
  8
CYAN
 10
10788.7510521007
 20
679.8777897413
 40
1.2557269408
 50
172.3128827489
 51
353.6479683998
  0
LINE
  8
CYAN
 10
10789.99907
 20
679.73886
 11
10790.40601
 21
683.37244
  0
ARC
  8
CYAN
 10
10791.6477739179
 20
683.2371530271
 40
1.2491117616
 50
81.5985138116
 51
173.7822957904
  0
LINE
  8
CYAN
 10
10791.83028
 20
684.47286
 11
10793.40714
 21
684.23548
  0
ARC
  8
CYAN
 10
10793.2149694339
 20
683.0000208092
 40
1.2503155356
 50
348.7898822359
 51
81.1587276595
  0
LINE
  8
CYAN
 10
10794.44143
 20
682.75695
 11
10793.7293
 21
679.05047
  0
ARC
  8
CYAN
 10
10794.9555087013
 20
678.8113802347
 40
1.2493004823
 50
168.9667332128
 51
350.548534156
  0
LINE
  8
CYAN
 10
10796.18785
 20
678.60623
 11
10796.81521
 21
682.33137
  0
ARC
  8
CYAN
 10
10798.0510485774
 20
682.1257490268
 40
1.2528275915
 50
78.1975178933
 51
170.5535623887
  0
LINE
  8
CYAN
 10
10798.3073
 20
683.35209
 11
10799.85026
 21
683.02655
  0
ARC
  8
CYAN
 10
10799.5962868267
 20
681.7956650272
 40
1.256813506
 50
346.1806137203
 51
78.3415540379
  0
LINE
  8
CYAN
 10
10800.81672
 20
681.49546
 11
10799.93503
 21
677.94836
  0
ARC
  8
CYAN
 10
10801.1463923645
 20
677.6389258006
 40
1.2502592939
 50
165.6706111169
 51
253.0938096271
  0
ARC
  8
CYAN
 10
10823.3199499434
 20
740.5702325853
 40
67.972517331
 50
250.6363577201
 51
253.1029423776
  0
ARC
  8
CYAN
 10
10803.4495992732
 20
675.2167315142
 40
0.3354016499
 50
341.1380802793
 51
70.1423494345
  0
LINE
  8
CYAN
 10
10803.76699
 20
675.1083
 11
10802.8853
 21
672.32081
  0
ARC
  8
CYAN
 10
10803.2089979778
 20
672.2185839045
 40
0.3394562644
 50
162.4735171823
 51
252.2872340319
  0
LINE
  8
CYAN
 10
10803.10572
 20
671.89522
 11
10804.07219
 21
671.58493
  0
ARC
  8
CYAN
 10
10804.1749361478
 20
671.9059180122
 40
0.3370312669
 50
252.2504735841
 51
342.3375837343
  0
LINE
  8
CYAN
 10
10804.49608
 20
671.80366
 11
10805.39473
 21
674.59116
  0
ARC
  8
CYAN
 10
10805.7115590855
 20
674.4945195009
 40
0.331240178
 50
74.2160421684
 51
163.0370320562
  0
ARC
  8
CYAN
 10
10824.2887234068
 20
736.5620407714
 40
64.4568243492
 50
253.3327415168
 51
255.5820180836
  0
LINE
  8
CYAN
 10
10808.23937
 20
674.13528
 11
10808.9135
 21
681.70842
  0
ARC
  8
CYAN
 10
10824.2888836965
 20
736.5619968319
 40
64.4568206912
 50
256.116063102
 51
257.8362940351
  0
LINE
  8
CYAN
 10
10808.82209
 20
673.98836
 11
10810.90876
 21
681.08666
  0
ARC
  8
CYAN
 10
10802.63436
 20
670.40483
 40
0.2238356723
 50
90.8677799953
 51
180.8677799943
  0
LINE
  8
CYAN
 10
10802.63097
 20
670.62864
 11
10802.85139
 21
670.62864
  0
ARC
  8
CYAN
 10
10802.85648
 20
670.39635
 40
0.23234576
 50
1.2552794137
 51
91.2552794136
  0
LINE
  8
CYAN
 10
10803.08877
 20
670.40144
 11
10803.08877
 21
670.32514
  0
ARC
  8
CYAN
 10
10802.8582104262
 20
670.332660861
 40
0.2306822065
 50
309.1941220257
 51
358.1316722333
  0
LINE
  8
CYAN
 10
10803.00399
 20
670.15388
 11
10802.41055
 21
669.56892
  0
LINE
  8
CYAN
 10
10802.41055
 20
669.56892
 11
10803.08877
 21
669.56892
  0
ARC
  8
CYAN
 10
10810.42544
 20
668.3532
 40
0.23234576
 50
88.7447205855
 51
178.7447205855
  0
LINE
  8
CYAN
 10
10810.43053
 20
668.58549
 11
10810.65095
 21
668.58549
  0
ARC
  8
CYAN
 10
10810.65604
 20
668.3532
 40
0.23234576
 50
1.2552794158
 51
91.2552794144
  0
LINE
  8
CYAN
 10
10810.88833
 20
668.35829
 11
10810.88833
 21
668.28199
  0
ARC
  8
CYAN
 10
10810.6591813793
 20
668.2888227861
 40
0.2292504686
 50
309.0310813635
 51
358.2920523919
  0
LINE
  8
CYAN
 10
10810.80355
 20
668.11074
 11
10810.19315
 21
667.52577
  0
LINE
  8
CYAN
 10
10810.19315
 20
667.52577
 11
10810.88833
 21
667.52577
  0
ARC
  8
CYAN
 10
10818.30893
 20
667.33163
 40
0.2315162137
 50
88.5298037004
 51
178.5298037003
  0
LINE
  8
CYAN
 10
10818.31487
 20
667.56307
 11
10818.53529
 21
667.56307
  0
ARC
  8
CYAN
 10
10818.54123
 20
667.33163
 40
0.2315162137
 50
1.4701963002
 51
91.4701963001
  0
LINE
  8
CYAN
 10
10818.77267
 20
667.33757
 11
10818.77267
 21
667.26127
  0
ARC
  8
CYAN
 10
10818.5414737799
 20
667.2673477109
 40
0.2312760921
 50
309.2777112406
 51
358.4941492616
  0
LINE
  8
CYAN
 10
10818.68789
 20
667.08832
 11
10818.07749
 21
666.50335
  0
LINE
  8
CYAN
 10
10818.07749
 20
666.50335
 11
10818.77267
 21
666.50335
  0
ARC
  8
CYAN
 10
10819.1697862905
 20
666.827467978
 40
0.3252210937
 50
229.6406973413
 51
274.7204309596
  0
LINE
  8
CYAN
 10
10819.19655
 20
666.50335
 11
10819.29829
 21
666.50335
  0
ARC
  8
CYAN
 10
10819.2991399861
 20
666.8076999862
 40
0.3043511731
 50
269.8399852449
 51
359.8418677929
  0
LINE
  8
CYAN
 10
10819.60349
 20
666.80686
 11
10819.60349
 21
667.26127
  0
ARC
  8
CYAN
 10
10819.299985056
 20
667.2595650003
 40
0.303509733
 50
0.3218671074
 51
90.319989937
  0
LINE
  8
CYAN
 10
10819.29829
 20
667.56307
 11
10819.21351
 21
667.56307
  0
ARC
  8
CYAN
 10
10819.22029
 20
667.26805
 40
0.295097897
 50
91.3165108041
 51
181.3165108047
  0
LINE
  8
CYAN
 10
10818.92527
 20
667.26127
 11
10818.92527
 21
667.18497
  0
ARC
  8
CYAN
 10
10819.2202898877
 20
667.1781801176
 40
0.2950980119
 50
178.6815704445
 51
268.6835115156
  0
LINE
  8
CYAN
 10
10819.21351
 20
666.88316
 11
10819.29829
 21
666.88316
  0
ARC
  8
CYAN
 10
10819.2999850278
 20
667.1866649719
 40
0.3035097051
 50
269.6800153657
 51
359.6800259084
  0
ARC
  8
CYAN
 10
10826.3890999253
 20
667.154449923
 40
0.2238357482
 50
90.8677605839
 51
180.8703200131
  0
LINE
  8
CYAN
 10
10826.38571
 20
667.37826
 11
10826.60614
 21
667.37826
  0
ARC
  8
CYAN
 10
10826.61122
 20
667.14597
 40
0.2323455412
 50
1.2528140338
 51
91.2528140321
  0
LINE
  8
CYAN
 10
10826.84351
 20
667.15105
 11
10826.84351
 21
667.07475
  0
ARC
  8
CYAN
 10
10826.6112201118
 20
667.079840107
 40
0.2323456506
 50
268.7471589812
 51
358.7446936002
  0
ARC
  8
CYAN
 10
10826.61207
 20
666.61611
 40
0.2315159573
 50
1.4677223057
 51
91.4677223057
  0
LINE
  8
CYAN
 10
10826.84351
 20
666.62204
 11
10826.84351
 21
666.54574
  0
ARC
  8
CYAN
 10
10826.6112201118
 20
666.550830107
 40
0.2323456506
 50
268.7471589812
 51
358.7446935998
  0
LINE
  8
CYAN
 10
10826.60614
 20
666.31854
 11
10826.38571
 21
666.31854
  0
ARC
  8
CYAN
 10
10826.3891
 20
666.54235
 40
0.2238356723
 50
179.132220005
 51
269.1322200056
  0
ARC
  8
CYAN
 10
10834.45995
 20
667.285
 40
0.2238356723
 50
179.132220006
 51
269.1322200047
  0
LINE
  8
CYAN
 10
10834.45656
 20
667.06119
 11
10834.67698
 21
667.06119
  0
ARC
  8
CYAN
 10
10834.68207
 20
667.29348
 40
0.23234576
 50
268.744720586
 51
358.7447205861
  0
LINE
  8
CYAN
 10
10834.91436
 20
667.28839
 11
10834.91436
 21
667.36469
  0
ARC
  8
CYAN
 10
10834.6820698882
 20
667.359610107
 40
0.2323456506
 50
1.2527870502
 51
91.2552524312
  0
ARC
  8
CYAN
 10
10834.6829198686
 20
667.8233398752
 40
0.2315160855
 50
268.52983542
 51
358.5323094135
  0
LINE
  8
CYAN
 10
10834.91436
 20
667.81741
 11
10834.91436
 21
667.89371
  0
ARC
  8
CYAN
 10
10834.68207
 20
667.88862
 40
0.23234576
 50
1.2552794149
 51
91.2552794136
  0
LINE
  8
CYAN
 10
10834.67698
 20
668.12091
 11
10834.45656
 21
668.12091
  0
ARC
  8
CYAN
 10
10834.45995
 20
667.8971
 40
0.2238356723
 50
90.8677799949
 51
180.8677799949
  0
ARC
  8
CYAN
 10
10842.1493001118
 20
669.653700107
 40
0.2323456506
 50
88.7447475687
 51
178.7472129502
  0
LINE
  8
CYAN
 10
10842.15439
 20
669.88599
 11
10842.37481
 21
669.88599
  0
ARC
  8
CYAN
 10
10842.3798998882
 20
669.653700107
 40
0.2323456506
 50
1.2527870503
 51
91.2552524317
  0
LINE
  8
CYAN
 10
10842.61219
 20
669.65878
 11
10842.61219
 21
669.58248
  0
ARC
  8
CYAN
 10
10842.3799
 20
669.58757
 40
0.23234576
 50
268.7447205851
 51
358.7447205853
  0
ARC
  8
CYAN
 10
10842.3798998882
 20
669.122990107
 40
0.2323456506
 50
1.2527870505
 51
91.2552524317
  0
LINE
  8
CYAN
 10
10842.61219
 20
669.12807
 11
10842.61219
 21
669.05177
  0
ARC
  8
CYAN
 10
10842.3807498686
 20
669.0576998752
 40
0.2315160855
 50
268.5298354196
 51
358.5323094142
  0
LINE
  8
CYAN
 10
10842.37481
 20
668.82626
 11
10842.15439
 21
668.82626
  0
ARC
  8
CYAN
 10
10842.1484501314
 20
669.0576998752
 40
0.2315160855
 50
181.4676905858
 51
271.4701645809
  0
ARC
  8
CYAN
 10
10842.988604923
 20
669.6621750747
 40
0.2238406717
 50
90.8690208873
 51
180.8690597093
  0
LINE
  8
CYAN
 10
10842.98521
 20
669.88599
 11
10843.20563
 21
669.88599
  0
ARC
  8
CYAN
 10
10843.2107198882
 20
669.653700107
 40
0.2323456506
 50
1.2527870503
 51
91.2552524317
  0
LINE
  8
CYAN
 10
10843.44301
 20
669.65878
 11
10843.44301
 21
669.58248
  0
ARC
  8
CYAN
 10
10843.2138493716
 20
669.5893187307
 40
0.2292626482
 50
309.0324768962
 51
358.2906568594
  0
LINE
  8
CYAN
 10
10843.35823
 20
669.41123
 11
10842.76479
 21
668.82626
  0
LINE
  8
CYAN
 10
10842.76479
 20
668.82626
 11
10843.44301
 21
668.82626
  0
ARC
  8
CYAN
 10
10849.6690899253
 20
672.198729923
 40
0.2238357481
 50
90.8677605839
 51
180.8703200136
  0
LINE
  8
CYAN
 10
10849.6657
 20
672.42254
 11
10849.88612
 21
672.42254
  0
ARC
  8
CYAN
 10
10849.8912098882
 20
672.190250107
 40
0.2323456506
 50
1.2527870506
 51
91.2552524317
  0
LINE
  8
CYAN
 10
10850.1235
 20
672.19533
 11
10850.1235
 21
672.12073
  0
ARC
  8
CYAN
 10
10849.89121
 20
672.12582
 40
0.23234576
 50
268.7447205855
 51
358.7447205859
  0
ARC
  8
CYAN
 10
10849.891204893
 20
671.6612348882
 40
0.2323507588
 50
1.2540467243
 51
91.2539927578
  0
LINE
  8
CYAN
 10
10850.1235
 20
671.66632
 11
10850.1235
 21
671.59002
  0
ARC
  8
CYAN
 10
10849.89121
 20
671.59511
 40
0.23234576
 50
268.7447205855
 51
358.7447205856
  0
LINE
  8
CYAN
 10
10849.88612
 20
671.36282
 11
10849.6657
 21
671.36282
  0
ARC
  8
CYAN
 10
10849.66909
 20
671.58663
 40
0.2238356723
 50
179.1322200064
 51
269.1322200038
  0
ARC
  8
CYAN
 10
10850.499915077
 20
672.1987249253
 40
0.2238408234
 50
90.86905971
 51
180.8690208876
  0
LINE
  8
CYAN
 10
10850.49652
 20
672.42254
 11
10850.71695
 21
672.42254
  0
ARC
  8
CYAN
 10
10850.7220347814
 20
672.1902549952
 40
0.2323406517
 50
1.2516082743
 51
91.2540197924
  0
LINE
  8
CYAN
 10
10850.95432
 20
672.19533
 11
10850.95432
 21
672.12073
  0
ARC
  8
CYAN
 10
10850.7220398882
 20
672.125809893
 40
0.232335653
 50
268.7446935464
 51
358.7471590339
  0
ARC
  8
CYAN
 10
10850.7220347814
 20
671.6612449952
 40
0.2323406517
 50
1.2516082739
 51
91.254019792
  0
LINE
  8
CYAN
 10
10850.95432
 20
671.66632
 11
10850.95432
 21
671.59002
  0
ARC
  8
CYAN
 10
10850.7220398882
 20
671.595099893
 40
0.232335653
 50
268.7446935464
 51
358.7471590337
  0
LINE
  8
CYAN
 10
10850.71695
 20
671.36282
 11
10850.49652
 21
671.36282
  0
ARC
  8
CYAN
 10
10850.4999151514
 20
671.5866349977
 40
0.2238407475
 50
179.1335190772
 51
269.1309209326
  0
ARC
  8
CYAN
 10
10856.75652
 20
675.09982
 40
0.2238356723
 50
179.1322200054
 51
269.1322200047
  0
LINE
  8
CYAN
 10
10856.75313
 20
674.87601
 11
10856.99051
 21
674.87601
  0
ARC
  8
CYAN
 10
10856.9871148486
 20
675.0998249977
 40
0.2238407475
 50
270.8690790646
 51
0.8664809248
  0
LINE
  8
CYAN
 10
10857.21093
 20
675.10321
 11
10857.21093
 21
675.17782
  0
ARC
  8
CYAN
 10
10856.9871148486
 20
675.1812050023
 40
0.2238407475
 50
359.1335190748
 51
89.1309209354
  0
ARC
  8
CYAN
 10
10856.9871099253
 20
675.628839923
 40
0.223845747
 50
270.8703199563
 51
0.8677606403
  0
LINE
  8
CYAN
 10
10857.21093
 20
675.63223
 11
10857.21093
 21
675.70853
  0
ARC
  8
CYAN
 10
10856.9871148486
 20
675.7119150023
 40
0.2238407475
 50
359.1335190746
 51
89.1309209354
  0
LINE
  8
CYAN
 10
10856.99051
 20
675.93573
 11
10856.75313
 21
675.93573
  0
ARC
  8
CYAN
 10
10856.75652
 20
675.71192
 40
0.2238356723
 50
90.8677799953
 51
180.8677799948
  0
ARC
  8
CYAN
 10
10863.85242
 20
679.36415
 40
0.23234576
 50
181.2552794137
 51
271.2552794145
  0
LINE
  8
CYAN
 10
10863.85751
 20
679.13186
 11
10864.07793
 21
679.13186
  0
ARC
  8
CYAN
 10
10864.07454
 20
679.35567
 40
0.2238356723
 50
270.8677799949
 51
0.8677799947
  0
LINE
  8
CYAN
 10
10864.29835
 20
679.35906
 11
10864.29835
 21
679.43536
  0
ARC
  8
CYAN
 10
10864.07454
 20
679.43875
 40
0.2238356723
 50
359.1322200039
 51
89.1322200065
  0
ARC
  8
CYAN
 10
10864.074535077
 20
679.8863749253
 40
0.2238406717
 50
270.8690208873
 51
0.8690597095
  0
LINE
  8
CYAN
 10
10864.29835
 20
679.88977
 11
10864.29835
 21
679.96437
  0
ARC
  8
CYAN
 10
10864.074535077
 20
679.9677650747
 40
0.2238406717
 50
359.1309402897
 51
89.1309791136
  0
LINE
  8
CYAN
 10
10864.07793
 20
680.19158
 11
10863.85751
 21
680.19158
  0
ARC
  8
CYAN
 10
10863.8524201118
 20
679.959290107
 40
0.2323456506
 50
88.7447475687
 51
178.7472129502
  0
ARC
  8
CYAN
 10
10864.6615553357
 20
679.4559714992
 40
0.3252155386
 50
229.6400863598
 51
274.7224483334
  0
LINE
  8
CYAN
 10
10864.68833
 20
679.13186
 11
10864.84093
 21
679.13186
  0
ARC
  8
CYAN
 10
10864.8333048679
 20
679.4277351254
 40
0.2959733645
 50
271.4762687537
 51
1.4762188841
  0
LINE
  8
CYAN
 10
10865.12918
 20
679.43536
 11
10865.12918
 21
679.51166
  0
ARC
  8
CYAN
 10
10864.83415
 20
679.51844
 40
0.2951078943
 50
358.6835338027
 51
88.6835338027
  0
LINE
  8
CYAN
 10
10864.84093
 20
679.81347
 11
10864.45095
 21
679.81347
  0
LINE
  8
CYAN
 10
10864.45095
 20
679.81347
 11
10864.45095
 21
680.19158
  0
LINE
  8
CYAN
 10
10864.45095
 20
680.19158
 11
10865.12918
 21
680.19158
  0
ARC
  8
CYAN
 10
10870.0920701118
 20
685.388460107
 40
0.2323456506
 50
88.7447475688
 51
178.74721295
  0
LINE
  8
CYAN
 10
10870.09716
 20
685.62075
 11
10870.31758
 21
685.62075
  0
ARC
  8
CYAN
 10
10870.3141900747
 20
685.396939923
 40
0.2238357482
 50
359.1296799867
 51
89.1322394166
  0
LINE
  8
CYAN
 10
10870.538
 20
685.39354
 11
10870.538
 21
685.31724
  0
ARC
  8
CYAN
 10
10870.31419
 20
685.31385
 40
0.2238356723
 50
270.8677799949
 51
0.8677799948
  0
ARC
  8
CYAN
 10
10870.31419
 20
684.86623
 40
0.2238356723
 50
359.1322200052
 51
89.1322200051
  0
LINE
  8
CYAN
 10
10870.538
 20
684.86284
 11
10870.538
 21
684.78654
  0
ARC
  8
CYAN
 10
10870.3150400564
 20
684.7839900577
 40
0.2229745247
 50
270.6526808177
 51
0.6552502616
  0
LINE
  8
CYAN
 10
10870.31758
 20
684.56103
 11
10870.09716
 21
684.56103
  0
ARC
  8
CYAN
 10
10870.0912201314
 20
684.7924698752
 40
0.2315160855
 50
181.4676905855
 51
271.4701645804
  0
ARC
  8
CYAN
 10
10871.1324253912
 20
685.3160315954
 40
0.305245777
 50
48.4441784238
 51
93.3684804605
  0
LINE
  8
CYAN
 10
10871.11449
 20
685.62075
 11
10870.9958
 21
685.62075
  0
ARC
  8
CYAN
 10
10870.9949500139
 20
685.3164000138
 40
0.3043511731
 50
89.8399852453
 51
179.841867793
  0
LINE
  8
CYAN
 10
10870.6906
 20
685.31724
 11
10870.6906
 21
684.86284
  0
ARC
  8
CYAN
 10
10870.9941000281
 20
684.8645299722
 40
0.3035047332
 50
180.3190354755
 51
270.3209232507
  0
LINE
  8
CYAN
 10
10870.9958
 20
684.56103
 11
10871.08058
 21
684.56103
  0
ARC
  8
CYAN
 10
10871.0822750278
 20
684.8645349719
 40
0.3035097051
 50
269.6800153661
 51
359.6800259085
  0
LINE
  8
CYAN
 10
10871.38578
 20
684.86284
 11
10871.38578
 21
684.93914
  0
ARC
  8
CYAN
 10
10871.082275056
 20
684.9374350003
 40
0.303509733
 50
0.3218671075
 51
90.3199899367
  0
LINE
  8
CYAN
 10
10871.08058
 20
685.24094
 11
10870.9958
 21
685.24094
  0
ARC
  8
CYAN
 10
10870.9941
 20
684.93744
 40
0.3035047611
 50
89.6790714779
 51
179.6790714786
  0
ARC
  8
CYAN
 10
10875.7382701118
 20
690.022409893
 40
0.2323456506
 50
181.2527870495
 51
271.2552524308
  0
LINE
  8
CYAN
 10
10875.74336
 20
689.79012
 11
10875.96378
 21
689.79012
  0
ARC
  8
CYAN
 10
10875.9688698882
 20
690.022409893
 40
0.2323456506
 50
268.7447475683
 51
358.747212951
  0
LINE
  8
CYAN
 10
10876.20116
 20
690.01733
 11
10876.20116
 21
690.09363
  0
ARC
  8
CYAN
 10
10875.9697198686
 20
690.0877001248
 40
0.2315160855
 50
1.4676905859
 51
91.4701645809
  0
ARC
  8
CYAN
 10
10875.96887
 20
690.55143
 40
0.23234576
 50
268.7447205855
 51
358.7447205858
  0
LINE
  8
CYAN
 10
10876.20116
 20
690.54634
 11
10876.20116
 21
690.62264
  0
ARC
  8
CYAN
 10
10875.968864893
 20
690.6175548882
 40
0.2323507588
 50
1.254046724
 51
91.2539927578
  0
LINE
  8
CYAN
 10
10875.96378
 20
690.84985
 11
10875.74336
 21
690.84985
  0
ARC
  8
CYAN
 10
10875.738275107
 20
690.6175548882
 40
0.2323507588
 50
88.7460072435
 51
178.7459532756
  0
LINE
  8
CYAN
 10
10956.77462
 20
725.23974
 11
10961.60201
 21
725.60237
  0
ARC
  8
CYAN
 10
10939.5773084572
 20
724.7446515537
 40
22.0413964844
 50
337.0666801384
 51
2.2301698758
  0
ARC
  8
CYAN
 10
10968.719699637
 20
712.4129433756
 40
9.602718208
 50
157.0584171497
 51
196.6679917408
  0
ARC
  8
CYAN
 10
10961.7747586147
 20
710.398391003
 40
2.372571135
 50
198.1673165156
 51
270.0191113504
  0
ARC
  8
CYAN
 10
10961.8205002243
 20
707.220056448
 40
0.8070163719
 50
274.0345297193
 51
93.1929856472
  0
LINE
  8
CYAN
 10
10961.87728
 20
706.41504
 11
10958.09619
 21
706.17936
  0
ARC
  8
CYAN
 10
10958.1665900848
 20
705.0289380809
 40
1.1525739733
 50
93.5018490773
 51
271.5576380258
  0
ARC
  8
CYAN
 10
10958.4795190959
 20
693.7084967215
 40
10.1721918114
 50
48.7716565123
 51
91.5863347369
  0
ARC
  8
CYAN
 10
10967.8291407276
 20
704.3781299278
 40
4.014298153
 50
228.7744840155
 51
299.8871727517
  0
ARC
  8
CYAN
 10
10970.6729335135
 20
699.4296305805
 40
1.6931358858
 50
78.8837695839
 51
119.8799388773
  0
LINE
  8
CYAN
 10
10970.99937
 20
701.091
 11
10978.29027
 21
699.66164
  0
ARC
  8
CYAN
 10
10976.9901513183
 20
693.8841888985
 40
5.9219295687
 50
22.9240169201
 51
77.3178024447
  0
ARC
  8
CYAN
 10
10983.0802200296
 20
696.83430003
 40
0.9046177942
 50
225.3412715366
 51
45.3421672411
  0
ARC
  8
CYAN
 10
10984.3992504636
 20
698.4481650914
 40
1.1867727276
 50
114.7413085929
 51
234.8527838587
  0
ARC
  8
CYAN
 10
10985.8540244129
 20
695.753839116
 40
4.2470473378
 50
39.9901646244
 51
117.3540303552
  0
ARC
  8
CYAN
 10
10990.9432701217
 20
700.0210499922
 40
2.3944520036
 50
219.9592769891
 51
312.6921568149
  0
ARC
  8
CYAN
 10
10994.8615118959
 20
695.7705691409
 40
3.386482982
 50
358.5903535393
 51
132.6559455788
  0
ARC
  8
CYAN
 10
11000.8873725595
 20
695.6244098675
 40
2.6411504719
 50
178.6364323722
 51
355.4365087908
  0
LINE
  8
CYAN
 10
11003.52015
 20
695.41427
 11
11003.65579
 21
696.94536
  0
ARC
  8
CYAN
 10
11007.496007078
 20
696.6410384439
 40
3.8522563278
 50
60.6055340441
 51
175.4690118417
  0
LINE
  8
CYAN
 10
11009.38677
 20
699.99736
 11
11011.40448
 21
698.85456
  0
ARC
  8
CYAN
 10
11012.0032354327
 20
699.9163884897
 40
1.2190109965
 50
240.5817439515
 51
336.0153286449
  0
LINE
  8
CYAN
 10
11013.11699
 20
699.42087
 11
11013.71044
 21
700.74002
  0
ARC
  8
CYAN
 10
11014.7881404942
 20
700.2632901896
 40
1.1784352622
 50
65.8457406024
 51
156.1373973897
  0
LINE
  8
CYAN
 10
11015.27035
 20
701.33855
 11
11016.37246
 21
700.84514
  0
ARC
  8
CYAN
 10
11016.822617766
 20
701.8460490176
 40
1.0974793282
 50
245.7842182906
 51
341.6929181053
  0
LINE
  8
CYAN
 10
11017.86455
 20
701.50132
 11
11018.37322
 21
703.0358
  0
ARC
  8
CYAN
 10
11019.9950776911
 20
702.499079015
 40
1.7083593843
 50
64.5187769481
 51
161.6890832951
  0
LINE
  8
CYAN
 10
11020.73004
 20
704.04126
 11
11022.78167
 21
703.06462
  0
ARC
  8
CYAN
 10
11023.1287576186
 20
703.79555834
 40
0.8091604735
 50
244.5991955247
 51
5.1591434236
  0
ARC
  8
CYAN
 10
11018.0245338989
 20
703.3828567295
 40
5.9300108528
 50
4.6958024934
 51
95.3213995973
  0
ARC
  8
CYAN
 10
11017.6016722591
 20
707.9172228193
 40
1.3759701549
 50
95.3001291207
 51
187.2884853059
  0
LINE
  8
CYAN
 10
11016.23682
 20
707.74266
 11
11016.28768
 21
707.32895
  0
ARC
  8
CYAN
 10
11015.1313255932
 20
707.1797474601
 40
1.1659403553
 50
232.563396163
 51
7.352161003
  0
LINE
  8
CYAN
 10
11014.42257
 20
706.25396
 11
11013.89695
 21
706.65412
  0
ARC
  8
CYAN
 10
11013.1920708562
 20
705.7293302973
 40
1.1627943076
 50
52.6851766595
 51
165.6114705529
  0
LINE
  8
CYAN
 10
11012.06575
 20
706.01828
 11
11011.9301
 21
705.51301
  0
ARC
  8
CYAN
 10
11010.9299016078
 20
705.7691065219
 40
1.0324641651
 50
239.3848743738
 51
345.6382048008
  0
LINE
  8
CYAN
 10
11010.4041
 20
704.88056
 11
11008.35248
 21
706.10306
  0
ARC
  8
CYAN
 10
11007.4951844907
 20
704.6562394117
 40
1.681738804
 50
59.3516666735
 51
132.838165142
  0
ARC
  8
CYAN
 10
11003.8102238639
 20
708.6273204568
 40
3.735679526
 50
240.614527014
 51
312.8694626665
  0
ARC
  8
CYAN
 10
11000.5837853581
 20
702.8954310389
 40
2.8418932548
 50
60.6391344431
 51
141.3075927053
  0
ARC
  8
CYAN
 10
10995.7207194678
 20
706.7922799536
 40
3.389867578
 50
228.6785959535
 51
321.2831021254
  0
ARC
  8
CYAN
 10
10991.4860992319
 20
701.977730203
 40
3.0219886099
 50
48.6537180289
 51
101.7383070084
  0
ARC
  8
CYAN
 10
10986.7252837515
 20
724.8593691575
 40
20.3496773754
 50
232.9286386004
 51
281.7556720816
  0
ARC
  8
CYAN
 10
10972.739758605
 20
706.3495003162
 40
2.849679604
 50
52.9100350301
 51
101.5474798401
  0
LINE
  8
CYAN
 10
10972.16931
 20
709.1415
 11
10969.3886
 21
708.57179
  0
ARC
  8
CYAN
 10
10969.1736811731
 20
709.6063486949
 40
1.0566464855
 50
162.1675674624
 51
281.735682657
  0
ARC
  8
CYAN
 10
10963.3321699701
 20
711.5033203096
 40
5.0851622247
 50
341.9764373818
 51
29.0448938089
  0
ARC
  8
CYAN
 10
10975.2281199167
 20
718.1345029874
 40
8.5341803641
 50
154.0038200736
 51
209.1913914977
  0
ARC
  8
CYAN
 10
10946.2354876921
 20
732.3159759731
 40
23.7410026978
 50
333.9100801618
 51
7.4034738392
  0
ARC
  8
CYAN
 10
10972.4644684868
 20
735.735625053
 40
2.7099815783
 50
138.3398312639
 51
187.6442120977
  0
ARC
  8
CYAN
 10
10969.1793801886
 20
738.6688393709
 40
1.6940674637
 50
318.0770047566
 51
75.3085058668
  0
LINE
  8
CYAN
 10
10969.60902
 20
740.30752
 11
10968.25257
 21
740.66019
  0
ARC
  8
CYAN
 10
10968.6800227275
 20
742.3012052326
 40
1.6957732242
 50
164.1491057359
 51
255.399990952
  0
LINE
  8
CYAN
 10
10967.04873
 20
742.76438
 11
10968.11693
 21
746.53869
  0
ARC
  8
CYAN
 10
10966.4820422974
 20
746.9963341365
 40
1.6977325926
 50
344.3617970146
 51
58.4297227184
  0
ARC
  8
CYAN
 10
10968.0450577212
 20
751.6602718804
 40
3.2873455707
 50
202.7768270365
 51
258.1656594504
  0
ARC
  8
CYAN
 10
10962.2050431511
 20
749.2057191878
 40
3.0475265236
 50
22.81869845
 51
128.2731760216
  0
ARC
  8
CYAN
 10
10956.1491341257
 20
756.8804809593
 40
6.7287714704
 50
257.9028849428
 51
308.277048856
  0
LINE
  8
CYAN
 10
10954.73899
 20
750.30113
 11
10946.15947
 21
752.13741
  0
ARC
  8
CYAN
 10
10942.1405688741
 20
733.372730051
 40
19.1902261542
 50
77.9113786858
 51
96.9001977926
  0
LINE
  8
CYAN
 10
10939.83505
 20
752.42396
 11
10921.76042
 21
750.23331
  0
ARC
  8
CYAN
 10
10920.8910283282
 20
757.4027157577
 40
7.221926391
 50
210.5715796179
 51
276.9141632071
  0
ARC
  8
CYAN
 10
10912.7745172147
 20
752.6084692392
 40
2.2047672366
 50
30.562356065
 51
179.9919241898
  0
LINE
  8
CYAN
 10
10910.56975
 20
752.60878
 11
10910.56975
 21
745.23141
  0
ARC
  8
CYAN
 10
10910.90886
 20
745.23141
 40
0.33911
 50
180.0
 51
270.0
  0
LINE
  8
CYAN
 10
10910.90886
 20
744.8923
 11
10919.28491
 21
744.8923
  0
ARC
  8
CYAN
 10
10919.28491
 20
744.55319
 40
0.33911
 50
-0.0000000001
 51
90.0
  0
LINE
  8
CYAN
 10
10919.62402
 20
744.55319
 11
10919.62402
 21
743.53586
  0
ARC
  8
CYAN
 10
10919.28491
 20
743.53586
 40
0.33911
 50
269.9999999994
 51
0.0000000003
  0
LINE
  8
CYAN
 10
10919.28491
 20
743.19675
 11
10910.90886
 21
743.19675
  0
ARC
  8
CYAN
 10
10910.90886
 20
742.85764
 40
0.33911
 50
90.0
 51
180.0
  0
LINE
  8
CYAN
 10
10910.56975
 20
742.85764
 11
10910.56975
 21
737.31486
  0
ARC
  8
CYAN
 10
10911.417525
 20
737.314855
 40
0.847775
 50
179.99966208
 51
269.9996620829
  0
LINE
  8
CYAN
 10
10911.41752
 20
736.46708
 11
10923.20164
 21
736.46708
  0
ARC
  8
CYAN
 10
10922.8139638057
 20
762.7434557768
 40
26.2792354682
 50
270.8452687112
 51
298.3873739635
  0
LINE
  8
CYAN
 10
10935.30791
 20
739.62421
 11
10944.78607
 21
743.57146
  0
ARC
  8
CYAN
 10
10947.705269055
 20
736.555450121
 40
7.5990866389
 50
52.8215800777
 51
112.5910623909
  0
LINE
  8
CYAN
 10
10952.29739
 20
742.61008
 11
10954.90855
 21
740.63815
  0
ARC
  8
CYAN
 10
10957.0625092312
 20
743.4766901359
 40
3.5632640195
 50
232.8078128056
 51
287.1487511386
  0
LINE
  8
CYAN
 10
10958.11315
 20
740.07184
 11
10960.19868
 21
740.71784
  0
ARC
  8
CYAN
 10
10960.4526811217
 20
739.9078373625
 40
0.8488938936
 50
298.6700010245
 51
107.410413301
  0
LINE
  8
CYAN
 10
10960.85995
 20
739.16302
 11
10959.21979
 21
738.27118
  0
ARC
  8
CYAN
 10
10960.0367708416
 20
736.7834930393
 40
1.6972537195
 50
118.7739088193
 51
210.2719173521
  0
ARC
  8
CYAN
 10
10939.5773098888
 20
724.744660361
 40
22.0413965822
 50
3.7778830472
 51
30.4735612346
  0
LINE
  8
CYAN
 10
10961.57081
 20
726.19694
 11
10956.69845
 21
726.33452
  0
LINE
  8
CYAN
 10
10829.82895
 20
571.26803
 11
10828.61374
 21
576.33581
  0
ARC
  8
CYAN
 10
10811.2538394321
 20
605.4540251047
 40
33.9003923076
 50
288.9069369048
 51
300.802846368
  0
ARC
  8
CYAN
 10
10823.468701291
 20
569.8024211284
 40
3.7856771352
 50
108.960873534
 51
153.3470496573
  0
LINE
  8
CYAN
 10
10820.08529
 20
571.50062
 11
10819.42402
 21
570.19674
  0
ARC
  8
CYAN
 10
10817.3757142365
 20
571.2289887634
 40
2.2937074814
 50
230.966005858
 51
333.2540671915
  0
LINE
  8
CYAN
 10
10815.93118
 20
569.4473
 11
10814.94775
 21
570.23913
  0
ARC
  8
CYAN
 10
10814.7084422554
 20
569.0866412997
 40
1.1770719608
 50
78.2695510849
 51
161.6365688495
  0
LINE
  8
CYAN
 10
10813.59131
 20
569.45747
 11
10812.98091
 21
567.6534
  0
ARC
  8
CYAN
 10
10811.2903985178
 20
568.2193292883
 40
1.7827240479
 50
249.8042082495
 51
341.4910984552
  0
LINE
  8
CYAN
 10
10810.67495
 20
566.54621
 11
10804.7405
 21
568.73008
  0
ARC
  8
CYAN
 10
10806.6741498638
 20
573.9838901082
 40
5.5983499756
 50
213.2756143005
 51
249.7940053269
  0
ARC
  8
CYAN
 10
10783.206275872
 20
558.6193042542
 40
22.4518165486
 50
33.1974586678
 51
55.0773761026
  0
ARC
  8
CYAN
 10
10824.169382857
 20
617.3884562667
 40
49.184702331
 50
199.7086570018
 51
235.1435957712
  0
ARC
  8
CYAN
 10
10775.3130392936
 20
599.888965888
 40
2.7111022252
 50
19.6700219381
 51
112.5957740287
  0
ARC
  8
CYAN
 10
10773.4456809219
 20
604.3868794967
 40
2.1590390775
 50
190.2487170908
 51
292.4842196747
  0
ARC
  8
CYAN
 10
10774.52273781
 20
605.1083853231
 40
3.3871817607
 50
110.7651893506
 51
199.0516534702
  0
LINE
  8
CYAN
 10
10773.32185
 20
608.27554
 11
10780.56187
 21
610.41872
  0
ARC
  8
CYAN
 10
10780.6595297674
 20
610.0926301256
 40
0.3403998184
 50
16.5897439976
 51
106.6722889962
  0
LINE
  8
CYAN
 10
10780.98576
 20
610.18982
 11
10783.35954
 21
602.16984
  0
ARC
  8
CYAN
 10
10783.6859359616
 20
602.2673367807
 40
0.340646365
 50
196.6312571933
 51
286.6307758008
  0
LINE
  8
CYAN
 10
10783.78343
 20
601.94094
 11
10784.7499
 21
602.23088
  0
ARC
  8
CYAN
 10
10784.6573267111
 20
602.5603841737
 40
0.3422613246
 50
285.6925613915
 51
15.4184477347
  0
LINE
  8
CYAN
 10
10784.98727
 20
602.65138
 11
10782.61349
 21
610.67306
  0
ARC
  8
CYAN
 10
10782.9342501473
 20
610.772940281
 40
0.3359511016
 50
107.3762423201
 51
197.2958673767
  0
LINE
  8
CYAN
 10
10782.83392
 20
611.09356
 11
10784.98727
 21
611.73278
  0
LINE
  8
CYAN
 10
10784.98727
 20
611.73278
 11
10787.15759
 21
612.37201
  0
ARC
  8
CYAN
 10
10787.6355354727
 20
610.7520921467
 40
1.6889540332
 50
22.823621267
 51
106.4383272878
  0
ARC
  8
CYAN
 10
10746.0627954321
 20
593.1529379522
 40
46.8334178712
 50
4.7410393076
 51
22.940229758
  0
ARC
  8
CYAN
 10
10811.3447529581
 20
598.3109345951
 40
18.6532421155
 50
183.9566476628
 51
233.4271372413
  0
ARC
  8
CYAN
 10
10802.1960428297
 20
586.0130114165
 40
3.3256317359
 50
233.7661342985
 51
283.8845092648
  0
ARC
  8
CYAN
 10
10803.9253871961
 20
579.0029816326
 40
3.8945593346
 50
15.7449165106
 51
103.8352164792
  0
ARC
  8
CYAN
 10
10808.6583279134
 20
580.3443320968
 40
1.0248024377
 50
196.1203310319
 51
253.6009499589
  0
ARC
  8
CYAN
 10
10810.0236253121
 20
584.8755121518
 40
5.7571870613
 50
253.2975370172
 51
330.8058959514
  0
ARC
  8
CYAN
 10
10817.5029516582
 20
580.6924707032
 40
2.8124210557
 50
75.2251302195
 51
150.7348069669
  0
ARC
  8
CYAN
 10
10821.8925191079
 20
597.3526795758
 40
14.4163591002
 50
255.2421666144
 51
335.6180760144
  0
ARC
  8
CYAN
 10
10838.0707896363
 20
590.0228798779
 40
3.3449029512
 50
61.4584633193
 51
155.6623204672
  0
LINE
  8
CYAN
 10
10839.66897
 20
592.96128
 11
10841.41539
 21
592.01177
  0
ARC
  8
CYAN
 10
10841.82907295
 20
592.7650239579
 40
0.8593748356
 50
241.2246503925
 51
45.3780488652
  0
LINE
  8
CYAN
 10
10842.43272
 20
593.37669
 11
10839.63505
 21
596.11332
  0
ARC
  8
CYAN
 10
10840.4779010439
 20
596.9685313969
 40
1.2007432763
 50
61.0388885655
 51
225.4170538914
  0
LINE
  8
CYAN
 10
10841.05932
 20
598.01912
 11
10843.31441
 21
596.95601
  0
ARC
  8
CYAN
 10
10842.6645088859
 20
599.6311486119
 40
2.7529507898
 50
283.6549614644
 51
358.8446488971
  0
ARC
  8
CYAN
 10
10848.4716927866
 20
599.5050206996
 40
3.0556089499
 50
29.5087357077
 51
178.6756982904
  0
ARC
  8
CYAN
 10
10850.6358101383
 20
600.7302505221
 40
0.5687250778
 50
300.8514137287
 51
29.4740578531
  0
LINE
  8
CYAN
 10
10850.92746
 20
600.242
 11
10850.13055
 21
599.76724
  0
ARC
  8
CYAN
 10
10850.699419404
 20
598.8179324889
 40
1.1067055387
 50
120.9320104952
 51
266.0021004027
  0
ARC
  8
CYAN
 10
10851.1671979704
 20
605.3276192591
 40
7.6331758659
 50
265.9061301478
 51
314.2010280921
  0
ARC
  8
CYAN
 10
10858.4527283693
 20
597.8348506956
 40
2.8176870515
 50
359.6095636891
 51
134.1845518574
  0
LINE
  8
CYAN
 10
10861.27035
 20
597.81565
 11
10861.2534
 21
594.7823
  0
ARC
  8
CYAN
 10
10862.8879607743
 20
594.7705292793
 40
1.6346031551
 50
179.5874115119
 51
274.5200324507
  0
LINE
  8
CYAN
 10
10863.01678
 20
593.14101
 11
10863.89847
 21
593.21052
  0
ARC
  8
CYAN
 10
10864.1385112201
 20
590.2576437957
 40
2.9626166923
 50
287.6035038833
 51
94.647392103
  0
LINE
  8
CYAN
 10
10865.03449
 20
587.43376
 11
10863.33893
 21
586.89966
  0
ARC
  8
CYAN
 10
10864.0665101921
 20
584.5994506749
 40
2.4125372277
 50
107.5527060407
 51
220.6758521551
  0
LINE
  8
CYAN
 10
10862.23682
 20
583.02701
 11
10865.13622
 21
579.65794
  0
ARC
  8
CYAN
 10
10864.1341795334
 20
578.7987836188
 40
1.3199374167
 50
311.025519467
 51
40.6100137116
  0
LINE
  8
CYAN
 10
10865.00058
 20
577.803
 11
10863.79673
 21
576.75515
  0
ARC
  8
CYAN
 10
10864.7249799414
 20
575.6985790148
 40
1.4064103955
 50
131.300907476
 51
221.8919199563
  0
LINE
  8
CYAN
 10
10863.67804
 20
574.75948
 11
10864.23758
 21
574.13212
  0
ARC
  8
CYAN
 10
10863.3610201933
 20
573.3415012854
 40
1.1804384976
 50
300.8471782324
 51
42.0490819064
  0
LINE
  8
CYAN
 10
10863.96629
 20
572.32805
 11
10862.66071
 21
571.55657
  0
ARC
  8
CYAN
 10
10863.5451201755
 20
570.0530109191
 40
1.7443827757
 50
120.4645160228
 51
217.9184172094
  0
LINE
  8
CYAN
 10
10862.169
 20
568.98102
 11
10863.42371
 21
567.37533
  0
ARC
  8
CYAN
 10
10862.5553901322
 20
566.6916702736
 40
1.105156104
 50
270.1861136476
 51
38.2146414121
  0
ARC
  8
CYAN
 10
10862.5488370699
 20
572.3732221972
 40
6.7867097766
 50
196.1841807304
 51
270.0856301978
  0
ARC
  8
CYAN
 10
10857.7090796738
 20
570.9718692428
 40
1.748158071
 50
117.0979812515
 51
196.2873477497
  0
ARC
  8
CYAN
 10
10856.1473327868
 20
574.0431198931
 40
1.6973769479
 50
296.8048433807
 51
31.730817889
  0
ARC
  8
CYAN
 10
10858.9050009398
 20
575.7547368023
 40
1.5482968704
 50
132.3349210165
 51
211.9321472512
  0
ARC
  8
CYAN
 10
10856.7186596542
 20
578.1520423629
 40
1.6962623879
 50
312.3920675388
 51
64.2591051975
  0
ARC
  8
CYAN
 10
10858.4123399848
 20
581.6476600933
 40
2.1880573074
 50
134.4945060281
 51
244.063821817
  0
ARC
  8
CYAN
 10
10855.4520103835
 20
584.6592460438
 40
2.0348803417
 50
314.5230247707
 51
56.549827537
  0
ARC
  8
CYAN
 10
10857.9289406452
 20
588.4247474206
 40
2.4722528571
 50
151.3296231621
 51
236.7566190895
  0
LINE
  8
CYAN
 10
10855.7598
 20
589.61086
 11
10856.76017
 21
591.41493
  0
ARC
  8
CYAN
 10
10855.7210067215
 20
591.9877345456
 40
1.1865771643
 50
331.1356956437
 51
100.4661269242
  0
ARC
  8
CYAN
 10
10856.6074894903
 20
587.1501694506
 40
6.1046945014
 50
100.4001455856
 51
173.8894201541
  0
ARC
  8
CYAN
 10
10848.9484076291
 20
587.9693384656
 40
1.5980696218
 50
251.9009405497
 51
353.9172682248
  0
LINE
  8
CYAN
 10
10848.45195
 20
586.45034
 11
10845.99339
 21
587.25064
  0
ARC
  8
CYAN
 10
10845.5124003192
 20
585.7721901414
 40
1.5547234666
 50
71.9785429288
 51
155.7942262928
  0
LINE
  8
CYAN
 10
10844.09437
 20
586.40965
 11
10843.61961
 21
585.37027
  0
ARC
  8
CYAN
 10
10840.5566126384
 20
586.7456021126
 40
3.3576020099
 50
281.5499686635
 51
335.8191990025
  0
LINE
  8
CYAN
 10
10841.22888
 20
583.45599
 11
10839.12639
 21
583.0304
  0
ARC
  8
CYAN
 10
10841.1386058237
 20
573.0532278698
 40
10.1780634817
 50
101.4025661984
 51
132.6468912868
  0
ARC
  8
CYAN
 10
10811.2538585967
 20
605.4540365436
 40
33.9003984017
 50
301.8565142277
 51
312.698731504
  0
LINE
  8
CYAN
 10
10829.14628
 20
576.65997
 11
10831.8358
 21
572.44226
  0
LINE
  8
CYAN
 10
11020.48879
 20
732.45628
 11
11018.27708
 21
729.60649
  0
LINE
  8
CYAN
 10
11018.27708
 20
729.60649
 11
11014.02971
 21
733.86485
  0
ARC
  8
CYAN
 10
11018.0509364759
 20
737.873707438
 40
5.6781335251
 50
189.6320564604
 51
224.9117452421
  0
LINE
  8
CYAN
 10
11012.45285
 20
736.92364
 11
11011.06249
 21
743.7669
  0
ARC
  8
CYAN
 10
11012.8069166955
 20
744.5482748043
 40
1.9114316835
 50
90.9567576754
 51
204.1288683629
  0
ARC
  8
CYAN
 10
11013.1759295233
 20
741.3762266689
 40
5.0990001227
 50
46.9325024403
 51
94.5097676998
  0
ARC
  8
CYAN
 10
11016.8728210344
 20
745.3529299876
 40
0.3309664568
 50
229.4896371058
 51
309.1371357513
  0
LINE
  8
CYAN
 10
11017.08172
 20
745.09622
 11
11021.72754
 21
748.88239
  0
ARC
  8
CYAN
 10
11021.9410934768
 20
748.6203596524
 40
0.3380310497
 50
39.4003785989
 51
129.1798689933
  0
LINE
  8
CYAN
 10
11022.2023
 20
748.83492
 11
11022.84661
 21
748.04649
  0
ARC
  8
CYAN
 10
11022.5830301113
 20
747.8327510462
 40
0.3393504061
 50
308.81552015
 51
39.0388611558
  0
LINE
  8
CYAN
 10
11022.79574
 20
747.56834
 11
11018.89596
 21
744.38578
  0
ARC
  8
CYAN
 10
11019.1087198288
 20
744.1217454613
 40
0.339088458
 50
128.8619720707
 51
234.7300192471
  0
ARC
  8
CYAN
 10
11021.5185061582
 20
747.6056400651
 40
4.5751770529
 50
235.2842856427
 51
305.9276238355
  0
LINE
  8
CYAN
 10
11024.20305
 20
743.90085
 11
11026.30554
 21
745.42516
  0
ARC
  8
CYAN
 10
11027.6043279475
 20
743.630556869
 40
2.2152766261
 50
83.2306172365
 51
125.8939647097
  0
ARC
  8
CYAN
 10
11024.8962448775
 20
720.5656674517
 40
25.4386002859
 50
41.5316021543
 51
83.2971314996
  0
ARC
  8
CYAN
 10
11045.3286973038
 20
738.6618088509
 40
1.8552718182
 50
221.5069503904
 51
4.6585700026
  0
LINE
  8
CYAN
 10
11047.17784
 20
738.81249
 11
11047.07611
 21
740.01294
  0
ARC
  8
CYAN
 10
11048.1659612082
 20
740.0942921926
 40
1.092883267
 50
118.0168400458
 51
184.2689395915
  0
LINE
  8
CYAN
 10
11047.6526
 20
741.0591
 11
11049.85682
 21
742.25955
  0
ARC
  8
CYAN
 10
11049.3079463031
 20
743.2706528492
 40
1.1504743833
 50
298.4951699899
 51
6.8284093794
  0
ARC
  8
CYAN
 10
11047.0974186399
 20
742.8984726068
 40
3.3912524225
 50
8.6317033365
 51
46.4737390587
  0
ARC
  8
CYAN
 10
11035.4265557869
 20
731.4179718259
 40
19.7606736956
 50
44.8626005295
 51
88.2759257187
  0
LINE
  8
CYAN
 10
11036.02108
 20
751.1697
 11
11030.4427
 21
751.33926
  0
ARC
  8
CYAN
 10
11030.6037314594
 20
756.5954194938
 40
5.2586256527
 50
233.4959188234
 51
268.2451944315
  0
LINE
  8
CYAN
 10
11027.47548
 20
752.36846
 11
11023.13485
 21
755.57645
  0
ARC
  8
CYAN
 10
11021.3509053095
 20
753.1629101202
 40
3.0012719654
 50
53.5303985444
 51
123.5348578762
  0
LINE
  8
CYAN
 10
11019.69287
 20
755.66462
 11
11018.09905
 21
754.6032
  0
ARC
  8
CYAN
 10
11016.7953365491
 20
756.5697398299
 40
2.3594379976
 50
242.1020562534
 51
303.5423044996
  0
LINE
  8
CYAN
 10
11015.69136
 20
754.48451
 11
11013.9958
 21
755.38146
  0
ARC
  8
CYAN
 10
11012.596417424
 20
752.7348596368
 40
2.9937877474
 50
62.1324774203
 51
133.916191552
  0
LINE
  8
CYAN
 10
11010.51991
 20
754.89145
 11
11009.73996
 21
754.1454
  0
ARC
  8
CYAN
 10
11008.1056984352
 20
755.840243418
 40
2.3544224501
 50
270.1587050003
 51
313.9574671139
  0
LINE
  8
CYAN
 10
11008.11222
 20
753.48583
 11
11007.07793
 21
753.48413
  0
ARC
  8
CYAN
 10
11007.086745773
 20
751.5754235651
 40
1.9087267935
 50
90.2646310537
 51
203.1345707343
  0
LINE
  8
CYAN
 10
11005.33151
 20
750.8255
 11
11005.65367
 21
750.07098
  0
ARC
  8
CYAN
 10
11004.4138945098
 20
749.5448471126
 40
1.3467958573
 50
272.2504484418
 51
22.9952778078
  0
LINE
  8
CYAN
 10
11004.46678
 20
748.19909
 11
11002.90686
 21
748.13805
  0
ARC
  8
CYAN
 10
11002.9560641593
 20
746.7904475121
 40
1.348500469
 50
92.0910757335
 51
209.9635676028
  0
ARC
  8
CYAN
 10
10992.988651042
 20
741.0062259312
 40
10.1756778978
 50
358.5790929046
 51
30.14883954
  0
ARC
  8
CYAN
 10
11011.9209143765
 20
740.538449878
 40
8.7623635347
 50
178.5910620084
 51
228.1739914125
  0
LINE
  8
CYAN
 10
11006.07755
 20
734.00897
 11
11013.67365
 21
727.19119
  0
ARC
  8
CYAN
 10
11012.2774793291
 20
725.6452271863
 40
2.0830971085
 50
285.2634312501
 51
47.9145698477
  0
LINE
  8
CYAN
 10
11012.82587
 20
723.63561
 11
11008.6548
 21
722.48094
  0
ARC
  8
CYAN
 10
11005.3181680902
 20
734.5560901226
 40
12.5276639077
 50
247.2087162185
 51
285.4466570035
  0
ARC
  8
CYAN
 10
10987.6502405038
 20
692.5228499884
 40
33.0678287881
 50
67.1986459184
 51
110.16171163
  0
ARC
  8
CYAN
 10
10978.594552938
 20
717.0908589204
 40
6.8841060145
 50
109.8878211399
 51
112.613552252
  0
ARC
  8
CYAN
 10
10977.750031224
 20
718.6915110246
 40
5.084432575
 50
110.7637662881
 51
149.1006158674
  0
ARC
  8
CYAN
 10
10977.1233197326
 20
719.9130269022
 40
3.9861115575
 50
159.5991407197
 51
204.837755999
  0
ARC
  8
CYAN
 10
10975.8488361852
 20
719.2382042317
 40
2.5472229824
 50
203.10425781
 51
250.8909725527
  0
ARC
  8
CYAN
 10
10975.3153809558
 20
717.3490205302
 40
0.5985364501
 50
239.8725004298
 51
358.1636012151
  0
LINE
  8
CYAN
 10
10975.91361
 20
717.32984
 11
10975.93056
 21
718.67441
  0
ARC
  8
CYAN
 10
10978.1825396366
 20
718.6519094667
 40
2.2520920402
 50
112.0280211412
 51
179.427551353
  0
LINE
  8
CYAN
 10
10977.33787
 20
720.7396
 11
10978.96561
 21
721.389
  0
ARC
  8
CYAN
 10
10979.2504917897
 20
720.6768725153
 40
0.7669962116
 50
92.2828689612
 51
111.8035454402
  0
ARC
  8
CYAN
 10
10979.3825870945
 20
717.5332380834
 40
3.9134033098
 50
57.3830447047
 51
92.3819873126
  0
ARC
  8
CYAN
 10
10981.2563098392
 20
720.4759665496
 40
0.4248644815
 50
298.3531485657
 51
56.3086764304
  0
ARC
  8
CYAN
 10
10984.7916770635
 20
714.2111698143
 40
6.7687202912
 50
119.5050547521
 51
136.9261815405
  0
ARC
  8
CYAN
 10
10984.5438539551
 20
713.9117246092
 40
6.8032672449
 50
133.6568710566
 51
145.0783909069
  0
ARC
  8
CYAN
 10
10983.430137248
 20
715.3862708792
 40
5.0782374987
 50
151.5398735461
 51
174.8802585563
  0
ARC
  8
CYAN
 10
10982.3464584298
 20
716.0701632278
 40
3.9809899795
 50
183.3225099785
 51
228.5590705386
  0
ARC
  8
CYAN
 10
10981.4532498133
 20
714.9445300651
 40
2.5471207903
 50
226.8624350212
 51
274.6905861995
  0
ARC
  8
CYAN
 10
10981.7233660412
 20
712.9954047215
 40
0.5926981671
 50
264.0124210373
 51
22.2480089488
  0
LINE
  8
CYAN
 10
10982.27194
 20
713.21981
 11
10981.74632
 21
714.45926
  0
ARC
  8
CYAN
 10
10983.828478816
 20
715.3333938647
 40
2.2582062237
 50
135.3818331048
 51
202.7736840177
  0
LINE
  8
CYAN
 10
10982.22108
 20
716.91951
 11
10983.44188
 21
718.16914
  0
ARC
  8
CYAN
 10
10983.8531751373
 20
717.4311930491
 40
0.8448250661
 50
356.6890277663
 51
119.1331336741
  0
ARC
  8
CYAN
 10
10991.3050200156
 20
715.8602502088
 40
6.7814664533
 50
167.0290312644
 51
184.4492575378
  0
ARC
  8
CYAN
 10
10991.3194094092
 20
715.4276151857
 40
6.7760637669
 50
180.7901614651
 51
192.2085204041
  0
ARC
  8
CYAN
 10
10989.5156990579
 20
715.6102216185
 40
5.0826948397
 50
198.5330357021
 51
221.8711176708
  0
ARC
  8
CYAN
 10
10988.2537407258
 20
715.3209868254
 40
3.9993708381
 50
230.8897667316
 51
276.1348657369
  0
ARC
  8
CYAN
 10
10988.4922775162
 20
713.8768986699
 40
2.5394122436
 50
274.2653958158
 51
322.0743955194
  0
ARC
  8
CYAN
 10
10990.1019802277
 20
712.7612487765
 40
0.5940929965
 50
311.4680528036
 51
69.6189769262
  0
LINE
  8
CYAN
 10
10990.30888
 20
713.31815
 11
10989.68152
 21
713.54366
  0
LINE
  8
CYAN
 10
10989.68152
 20
713.54366
 11
10989.03721
 21
713.76917
  0
ARC
  8
CYAN
 10
10989.8024638874
 20
715.8806060591
 40
2.2458351996
 50
199.1393839685
 51
250.077817599
  0
LINE
  8
CYAN
 10
10987.68077
 20
715.14427
 11
10986.95168
 21
717.20437
  0
ARC
  8
CYAN
 10
10988.2776807712
 20
717.6733315281
 40
1.4064860326
 50
106.9652453394
 51
199.4769609329
  0
ARC
  8
CYAN
 10
10987.4174103978
 20
720.4721706443
 40
1.5215850964
 50
287.1970294835
 51
9.4101148429
  0
ARC
  8
CYAN
 10
10989.9250678648
 20
720.8820878334
 40
1.0193645106
 50
81.7408644715
 51
189.095281765
  0
ARC
  8
CYAN
 10
10987.1601917673
 20
695.6408432904
 40
26.410985269
 50
62.0655529089
 51
83.6713704934
  0
LINE
  8
CYAN
 10
10999.53271
 20
718.97453
 11
11003.34771
 21
716.95342
  0
ARC
  8
CYAN
 10
11009.1985035697
 20
728.0563204897
 40
12.5501467991
 50
242.2125262892
 51
289.0781820661
  0
ARC
  8
CYAN
 10
11020.0243039213
 20
696.570540925
 40
20.7448146935
 50
97.6346632604
 51
108.9119028257
  0
LINE
  8
CYAN
 10
11017.26823
 20
717.13146
 11
11021.06627
 21
717.64012
  0
ARC
  8
CYAN
 10
11020.9111801962
 20
718.7624328454
 40
1.1329779213
 50
277.8677427426
 51
74.2419203461
  0
LINE
  8
CYAN
 10
11021.21887
 20
719.85283
 11
11019.13334
 21
720.45475
  0
ARC
  8
CYAN
 10
11019.4164307295
 20
721.4376143116
 40
1.022820911
 50
86.8603745093
 51
253.9322102446
  0
LINE
  8
CYAN
 10
11019.47245
 20
722.4589
 11
11021.18496
 21
722.36734
  0
ARC
  8
CYAN
 10
11021.2816813054
 20
724.1152329049
 40
1.7505669418
 50
266.8327140835
 51
44.7713046617
  0
LINE
  8
CYAN
 10
11022.52445
 20
725.34812
 11
11018.69955
 21
729.18292
  0
LINE
  8
CYAN
 10
11018.69955
 20
729.18292
 11
11021.24798
 21
731.6605
  0
ARC
  8
CYAN
 10
11023.584076621
 20
748.8848503557
 40
0.2283964077
 50
218.824563195
 51
309.1579803635
  0
LINE
  8
CYAN
 10
11023.7283
 20
748.70775
 11
11023.91481
 21
748.85018
  0
ARC
  8
CYAN
 10
11023.7715305786
 20
749.0273654679
 40
0.2278676867
 50
308.9604217783
 51
38.9588407724
  0
LINE
  8
CYAN
 10
11023.94872
 20
749.17064
 11
11023.89785
 21
749.22829
  0
ARC
  8
CYAN
 10
11023.71982
 20
749.08417
 40
0.229052953
 50
38.9910866245
 51
128.9910866243
  0
ARC
  8
CYAN
 10
11023.43326953
 20
749.4385355819
 40
0.2266730602
 50
308.9286402336
 51
38.9266738469
  0
LINE
  8
CYAN
 10
11023.60961
 20
749.58096
 11
11023.55874
 21
749.64031
  0
ARC
  8
CYAN
 10
11023.3808034886
 20
749.4971206854
 40
0.2283956696
 50
38.824376968
 51
129.1581665908
  0
LINE
  8
CYAN
 10
11023.23658
 20
749.67422
 11
11023.06703
 21
749.53179
  0
ARC
  8
CYAN
 10
11023.2112296986
 20
749.3545071515
 40
0.2285229998
 50
129.1244841139
 51
218.7947784367
  0
ARC
  8
CYAN
 10
11024.0667404811
 20
749.8598640246
 40
0.3029477342
 50
308.1600839754
 51
38.2073534483
  0
LINE
  8
CYAN
 10
11024.25392
 20
749.62166
 11
11024.20305
 21
749.57249
  0
ARC
  8
CYAN
 10
11024.0139945239
 20
749.8073205914
 40
0.3014753385
 50
218.835367691
 51
308.8365594891
  0
LINE
  8
CYAN
 10
11023.77916
 20
749.61827
 11
11023.7283
 21
749.67761
  0
ARC
  8
CYAN
 10
11023.9665206595
 20
749.8649755187
 40
0.3030757665
 50
128.1846203219
 51
218.1857890245
  0
LINE
  8
CYAN
 10
11023.77916
 20
750.1032
 11
11023.83003
 21
750.15067
  0
ARC
  8
CYAN
 10
11024.0191049225
 20
749.9160194684
 40
0.3013473052
 50
38.8110187698
 51
128.8609084099
  0
LINE
  8
CYAN
 10
11024.25392
 20
750.10489
 11
11024.54216
 21
749.75222
  0
ARC
  8
CYAN
 10
11024.3030094747
 20
749.5649656046
 40
0.3037386744
 50
308.309534516
 51
38.0608748304
  0
LINE
  8
CYAN
 10
11024.4913
 20
749.32663
 11
11024.40652
 21
749.2605
  0
ARC
  8
CYAN
 10
11024.1936849559
 20
749.484961906
 40
0.3093249153
 50
268.5949094207
 51
313.4769772492
  0
LINE
  8
CYAN
 10
10922.44788
 20
706.37194
 11
10920.64466
 21
710.63886
  0
LINE
  8
CYAN
 10
10920.64466
 20
710.63886
 11
10919.19496
 21
709.59694
  0
ARC
  8
CYAN
 10
10917.5402925526
 20
711.8989899541
 40
2.8350235189
 50
232.2297495327
 51
305.7078244519
  0
LINE
  8
CYAN
 10
10915.80385
 20
709.65798
 11
10914.21003
 21
710.90082
  0
ARC
  8
CYAN
 10
10912.8315778764
 20
709.1285088206
 40
2.2452655018
 50
52.1252606255
 51
185.9700995069
  0
ARC
  8
CYAN
 10
10876.8741802118
 20
705.3398511034
 40
33.9111782774
 50
332.2502403705
 51
6.0177461246
  0
ARC
  8
CYAN
 10
10910.030521937
 20
687.9154594156
 40
3.5448675273
 50
152.5338343382
 51
184.2166882033
  0
LINE
  8
CYAN
 10
10906.49525
 20
687.65481
 11
10906.64785
 21
685.22338
  0
ARC
  8
CYAN
 10
10904.9105063347
 20
685.103778235
 40
1.7414555962
 50
280.9242036633
 51
3.9381279619
  0
ARC
  8
CYAN
 10
10904.1797843512
 20
688.8849994033
 40
5.5926356606
 50
243.4485595098
 51
280.9334266887
  0
ARC
  8
CYAN
 10
10899.789806274
 20
680.1051692724
 40
4.2235414057
 50
63.4161615635
 51
103.353000104
  0
ARC
  8
CYAN
 10
10897.3290245227
 20
690.4776218597
 40
6.4368160248
 50
219.1506894807
 51
283.3417819248
  0
ARC
  8
CYAN
 10
10893.3358395576
 20
687.2254181482
 40
1.2868304814
 50
114.0160089911
 51
219.1106318985
  0
ARC
  8
CYAN
 10
10883.810348322
 20
708.5189670003
 40
22.0401983871
 50
294.1059160173
 51
7.451442156
  0
ARC
  8
CYAN
 10
10899.9000099452
 20
710.6212400645
 40
5.8137771322
 50
7.4719669572
 51
73.2231242348
  0
LINE
  8
CYAN
 10
10901.57813
 20
716.18756
 11
10896.30495
 21
717.78308
  0
ARC
  8
CYAN
 10
10896.9171903493
 20
719.8233675342
 40
2.1301670046
 50
122.8285283122
 51
253.2967859765
  0
LINE
  8
CYAN
 10
10895.76237
 20
721.61334
 11
10899.69606
 21
724.14142
  0
ARC
  8
CYAN
 10
10899.0203904775
 20
725.1781079872
 40
1.2374373869
 50
303.0946133445
 51
50.0634294253
  0
LINE
  8
CYAN
 10
10899.81475
 20
726.12692
 11
10898.10224
 21
727.5834
  0
ARC
  8
CYAN
 10
10899.156891097
 20
728.8362337233
 40
1.6376450393
 50
97.2571236656
 51
229.9089079858
  0
LINE
  8
CYAN
 10
10898.95002
 20
730.46076
 11
10905.83398
 21
731.3238
  0
ARC
  8
CYAN
 10
10905.8834859678
 20
730.9807328752
 40
0.3466206759
 50
10.8062073501
 51
98.2113282244
  0
LINE
  8
CYAN
 10
10906.22396
 20
731.04572
 11
10908.05516
 21
720.42306
  0
ARC
  8
CYAN
 10
10908.3883309696
 20
720.4798593128
 40
0.3379778942
 50
189.6748271545
 51
279.6764982918
  0
LINE
  8
CYAN
 10
10908.44514
 20
720.14669
 11
10909.44551
 21
720.32133
  0
ARC
  8
CYAN
 10
10909.3938
 20
720.66129
 40
0.3438702164
 50
278.6487459763
 51
8.6487459771
  0
LINE
  8
CYAN
 10
10909.73376
 20
720.713
 11
10907.90256
 21
731.22545
  0
ARC
  8
CYAN
 10
10908.2346504171
 20
731.2844005692
 40
0.3372820997
 50
97.4702337981
 51
190.0659254047
  0
LINE
  8
CYAN
 10
10908.1908
 20
731.61882
 11
10915.87167
 21
732.5819
  0
ARC
  8
CYAN
 10
10916.075238207
 20
730.9576414194
 40
1.6369654705
 50
6.1214011146
 51
97.1436281158
  0
LINE
  8
CYAN
 10
10917.70287
 20
731.1322
 11
10917.80461
 21
730.30307
  0
LINE
  8
CYAN
 10
10917.80461
 20
730.30307
 11
10917.88938
 21
729.47225
  0
ARC
  8
CYAN
 10
10922.3564679128
 20
729.9492917413
 40
4.4924874228
 50
186.095533093
 51
274.2296740084
  0
ARC
  8
CYAN
 10
10924.5917605601
 20
700.0972098398
 40
25.4431679123
 50
53.7782852861
 51
94.2915410767
  0
ARC
  8
CYAN
 10
10944.1307002608
 20
726.7735999231
 40
7.6234308506
 50
233.782872242
 51
273.3595076379
  0
LINE
  8
CYAN
 10
10944.57744
 20
719.16327
 11
10949.10458
 21
719.42777
  0
ARC
  8
CYAN
 10
10949.1794617008
 20
718.1599050642
 40
1.2700743146
 50
304.6452015943
 51
93.3800344708
  0
LINE
  8
CYAN
 10
10949.90149
 20
717.11503
 11
10947.01904
 21
715.12954
  0
ARC
  8
CYAN
 10
10948.8146799211
 20
712.5218898039
 40
3.1660957458
 50
124.5514768718
 51
191.6188044468
  0
LINE
  8
CYAN
 10
10945.71346
 20
711.88424
 11
10946.05257
 21
710.23277
  0
ARC
  8
CYAN
 10
10944.5195119611
 20
709.9222618493
 40
1.5641874128
 50
255.1883714334
 51
11.4498902636
  0
ARC
  8
CYAN
 10
10948.431342097
 20
724.8007186965
 40
16.9482977107
 50
221.008040764
 51
255.261771932
  0
ARC
  8
CYAN
 10
10920.9310417413
 20
700.8782193236
 40
19.5010170449
 50
41.0303817059
 51
96.5096223199
  0
ARC
  8
CYAN
 10
10918.889790436
 20
718.7424151333
 40
1.5205805538
 50
96.4031450059
 51
273.8353002696
  0
ARC
  8
CYAN
 10
10920.1386147845
 20
700.3083482578
 40
16.9557393983
 50
46.1050434334
 51
93.8792219433
  0
ARC
  8
CYAN
 10
10931.0228500574
 20
711.6164900798
 40
1.2605002342
 50
242.2786128479
 51
46.2388251136
  0
ARC
  8
CYAN
 10
10922.4913954356
 20
695.4938050924
 40
16.9803027327
 50
62.1018530276
 51
82.6230473676
  0
ARC
  8
CYAN
 10
10924.2099560155
 20
708.7422389908
 40
3.6208715792
 50
82.6749632881
 51
125.7520083963
  0
LINE
  8
CYAN
 10
10922.09436
 20
711.68077
 11
10921.13883
 21
710.99402
  0
LINE
  8
CYAN
 10
10921.13883
 20
710.99402
 11
10923.71376
 21
707.50255
  0
LINE
  8
CYAN
 10
10950.8546
 20
689.23874
 11
10953.32637
 21
692.45857
  0
ARC
  8
CYAN
 10
10950.3159902939
 20
690.894864674
 40
3.392279517
 50
325.3548462476
 51
27.4490749556
  0
ARC
  8
CYAN
 10
10954.6531602308
 20
687.6450457611
 40
2.0340147465
 50
139.4871320659
 51
226.7458260189
  0
ARC
  8
CYAN
 10
10949.3758016415
 20
682.0199624795
 40
5.6790986421
 50
337.7700595716
 51
46.8557796811
  0
LINE
  8
CYAN
 10
10954.63279
 20
679.87142
 11
10950.07174
 21
668.74859
  0
ARC
  8
CYAN
 10
10951.6895619042
 20
668.0853782032
 40
1.7484843726
 50
157.7092567624
 51
295.6168216292
  0
LINE
  8
CYAN
 10
10952.44552
 20
666.50876
 11
10954.00543
 21
667.2548
  0
ARC
  8
CYAN
 10
10954.4411537677
 20
666.3332439297
 40
1.0193727446
 50
308.3494629214
 51
115.3053970825
  0
LINE
  8
CYAN
 10
10955.07363
 20
665.53381
 11
10953.37807
 21
664.17228
  0
ARC
  8
CYAN
 10
10954.0849972151
 20
663.2874455084
 40
1.1325538243
 50
128.6226594852
 51
285.0170897317
  0
LINE
  8
CYAN
 10
10954.37845
 20
662.19357
 11
10964.1279
 21
664.92002
  0
ARC
  8
CYAN
 10
10959.5633945695
 20
676.6096245324
 40
12.5491658666
 50
291.3294325291
 51
338.2026161792
  0
LINE
  8
CYAN
 10
10971.21533
 20
671.9498
 11
10972.80915
 21
675.95979
  0
ARC
  8
CYAN
 10
10997.3719200008
 20
666.1866600012
 40
26.4356528212
 50
136.6986475709
 51
158.3031885224
  0
ARC
  8
CYAN
 10
10978.8940080167
 20
683.6458701756
 40
1.0146291403
 50
31.3040046696
 51
138.5763922486
  0
ARC
  8
CYAN
 10
10981.0665465043
 20
684.9668011075
 40
1.5279644227
 50
211.2975594697
 51
293.5445404607
  0
ARC
  8
CYAN
 10
10982.2329872552
 20
682.2801611578
 40
1.4009662061
 50
20.8720269313
 51
113.3860296123
  0
LINE
  8
CYAN
 10
10983.54202
 20
682.7793
 11
10984.32198
 21
680.73785
  0
ARC
  8
CYAN
 10
10982.2161004808
 20
679.9306360957
 40
2.2552877503
 50
330.0072684103
 51
20.9725466478
  0
LINE
  8
CYAN
 10
10984.16938
 20
678.80324
 11
10983.84722
 21
678.21996
  0
LINE
  8
CYAN
 10
10983.84722
 20
678.21996
 11
10983.50811
 21
677.63839
  0
ARC
  8
CYAN
 10
10984.0260905672
 20
677.3496490169
 40
0.5930221103
 50
150.8631335673
 51
269.1004077028
  0
ARC
  8
CYAN
 10
10984.5300479525
 20
679.2532895544
 40
2.5488043067
 50
258.3825661526
 51
306.1750379515
  0
ARC
  8
CYAN
 10
10983.7811757673
 20
680.4747834523
 40
3.9785461686
 50
304.4972193111
 51
349.7421433676
  0
ARC
  8
CYAN
 10
10982.6134171287
 20
679.9159263259
 40
5.0849150595
 50
358.3136851386
 51
21.6361378987
  0
ARC
  8
CYAN
 10
10981.3364320413
 20
678.6225618287
 40
6.7883236874
 50
27.8214201394
 51
39.2398600426
  0
ARC
  8
CYAN
 10
10981.1194665143
 20
678.8875134776
 40
6.7973962957
 50
36.3520850094
 51
53.7812720831
  0
ARC
  8
CYAN
 10
10985.7540004864
 20
684.9544515061
 40
0.8497272878
 50
100.8780910361
 51
223.3243661176
  0
LINE
  8
CYAN
 10
10985.59364
 20
685.78891
 11
10987.34007
 21
685.62953
  0
ARC
  8
CYAN
 10
10987.1371696795
 20
683.3824502584
 40
2.2562215993
 50
17.4159001574
 51
84.8404629811
  0
LINE
  8
CYAN
 10
10989.28996
 20
684.05775
 11
10989.67994
 21
682.77252
  0
ARC
  8
CYAN
 10
10990.2466276701
 20
682.9609705173
 40
0.5972005634
 50
198.3944122224
 51
316.5681068474
  0
ARC
  8
CYAN
 10
10989.189439797
 20
684.6071296506
 40
2.5402422754
 50
305.9373860512
 51
353.7533714513
  0
ARC
  8
CYAN
 10
10987.7764370355
 20
684.9206918043
 40
3.9821077918
 50
351.4800860902
 51
36.7152631537
  0
ARC
  8
CYAN
 10
10987.4181895192
 20
683.6248239743
 40
5.11096607
 50
46.0000760639
 51
69.3318435684
  0
ARC
  8
CYAN
 10
10987.4925778257
 20
681.9004803512
 40
6.7323247641
 50
75.1136437033
 51
86.5339041471
  0
ARC
  8
CYAN
 10
10987.1337590013
 20
681.8877399612
 40
6.7761667276
 50
83.5105767952
 51
100.9382066019
  0
ARC
  8
CYAN
 10
10985.7638873634
 20
688.9579128911
 40
0.4255052708
 50
163.3275954199
 51
281.398406095
  0
ARC
  8
CYAN
 10
10989.0875344489
 20
687.9486265079
 40
3.8990149703
 50
128.1542172555
 51
163.1320761464
  0
ARC
  8
CYAN
 10
10987.157439056
 20
690.3861542938
 40
0.7899775249
 50
107.7822243742
 51
127.2928739432
  0
LINE
  8
CYAN
 10
10986.91618
 20
691.13839
 11
10988.56087
 21
691.69623
  0
ARC
  8
CYAN
 10
10989.2841103603
 20
689.553259903
 40
2.2617244429
 50
41.2136724036
 51
108.6492495842
  0
LINE
  8
CYAN
 10
10990.98551
 20
691.04344
 11
10991.8672
 21
690.03119
  0
ARC
  8
CYAN
 10
10992.30804362
 20
690.4296487348
 40
0.5942326654
 50
222.1090111229
 51
340.3239916641
  0
ARC
  8
CYAN
 10
10990.6751704643
 20
691.5215340065
 40
2.5447653263
 50
329.4895999014
 51
17.2888395774
  0
ARC
  8
CYAN
 10
10989.2616787036
 20
691.204151646
 40
3.9904327315
 50
15.6082275755
 51
60.8412751392
  0
ARC
  8
CYAN
 10
10989.5773030542
 20
689.8676601127
 40
5.0888815989
 50
71.3347597109
 51
109.6542658452
  0
ARC
  8
CYAN
 10
10989.9098729306
 20
688.229473455
 40
6.7476756862
 50
107.6346469479
 51
110.375829693
  0
ARC
  8
CYAN
 10
10999.0128575252
 20
663.5514877908
 40
33.0510328253
 50
110.2737295069
 51
153.2352569573
  0
ARC
  8
CYAN
 10
10958.3119471754
 20
684.0878672647
 40
12.5374210841
 50
294.9586073144
 51
333.2014044934
  0
LINE
  8
CYAN
 10
10963.60228
 20
672.72128
 11
10959.66859
 21
670.89007
  0
ARC
  8
CYAN
 10
10959.4098834247
 20
672.9549752517
 40
2.0810484835
 50
154.4597197522
 51
277.1412282936
  0
LINE
  8
CYAN
 10
10957.53219
 20
673.85221
 11
10961.92368
 21
683.06585
  0
ARC
  8
CYAN
 10
10954.024089916
 20
686.8477139396
 40
8.758197209
 50
334.4176134798
 51
23.9950326659
  0
ARC
  8
CYAN
 10
10971.3154804309
 20
694.5574070385
 40
10.1740945845
 50
172.4968353829
 51
204.0612276577
  0
ARC
  8
CYAN
 10
10959.959367082
 20
696.3439235898
 40
1.3492361441
 50
340.1577428068
 51
98.0544519462
  0
LINE
  8
CYAN
 10
10959.77032
 20
697.67985
 11
10958.22736
 21
697.46451
  0
ARC
  8
CYAN
 10
10958.044880673
 20
698.7962192628
 40
1.3441533638
 50
166.9806620882
 51
277.8024430728
  0
LINE
  8
CYAN
 10
10956.73528
 20
699.09903
 11
10956.90483
 21
699.89764
  0
ARC
  8
CYAN
 10
10955.0464688237
 20
700.3266312411
 40
1.9072335323
 50
347.0013242985
 51
99.9304931096
  0
LINE
  8
CYAN
 10
10954.71756
 20
702.20529
 11
10953.70023
 21
702.02725
  0
ARC
  8
CYAN
 10
10953.2932422193
 20
704.338117423
 40
2.3464328885
 50
236.1937734058
 51
279.9884454071
  0
LINE
  8
CYAN
 10
10951.98772
 20
702.38841
 11
10951.08907
 21
702.98524
  0
ARC
  8
CYAN
 10
10949.4255070209
 20
700.4951098877
 40
2.9946936006
 50
56.2545937257
 51
128.0611985028
  0
LINE
  8
CYAN
 10
10947.57927
 20
702.85299
 11
10946.07023
 21
701.67119
  0
ARC
  8
CYAN
 10
10944.6164223158
 20
703.5309602973
 40
2.3605724605
 50
246.6149168711
 51
308.0152225124
  0
LINE
  8
CYAN
 10
10943.67949
 20
701.36429
 11
10941.91611
 21
702.12729
  0
ARC
  8
CYAN
 10
10940.7241400314
 20
699.3716000064
 40
3.0024356357
 50
66.6091697307
 51
136.6190658936
  0
LINE
  8
CYAN
 10
10938.54196
 20
701.43381
 11
10934.84564
 21
697.51029
  0
ARC
  8
CYAN
 10
10931.0144349658
 20
701.1312571815
 40
5.2715780695
 50
281.8709395273
 51
316.6159781486
  0
LINE
  8
CYAN
 10
10932.09884
 20
695.97242
 11
10926.63915
 21
694.82453
  0
ARC
  8
CYAN
 10
10930.7090456973
 20
675.4896337842
 40
19.7585997141
 50
101.8869306033
 51
145.2978132114
  0
ARC
  8
CYAN
 10
10917.1955191565
 20
684.7245473223
 40
3.3927997829
 50
143.5890637731
 51
181.4394246297
  0
ARC
  8
CYAN
 10
10914.9581297925
 20
684.7118202676
 40
1.1566143027
 50
183.5938380106
 51
251.9991500986
  0
LINE
  8
CYAN
 10
10914.6007
 20
683.61182
 11
10916.99143
 21
682.81999
  0
ARC
  8
CYAN
 10
10916.6431485495
 20
681.7960718485
 40
1.0815305588
 50
5.026406654
 51
71.2144794239
  0
LINE
  8
CYAN
 10
10917.72052
 20
681.89083
 11
10917.83921
 21
680.69376
  0
ARC
  8
CYAN
 10
10919.6833573397
 20
680.8692906137
 40
1.8524822284
 50
185.4371771086
 51
328.5818973323
  0
ARC
  8
CYAN
 10
10942.9850974744
 20
666.6580757852
 40
25.4409189276
 50
106.8546403052
 51
148.6248241122
  0
ARC
  8
CYAN
 10
10936.2448453128
 20
688.9019295818
 40
2.1982853965
 50
64.1750278542
 51
106.8226242574
  0
LINE
  8
CYAN
 10
10937.20247
 20
690.88067
 11
10939.54233
 21
689.75143
  0
ARC
  8
CYAN
 10
10941.5338044396
 20
693.8752307467
 40
4.5794872029
 50
244.2230774189
 51
314.8702585524
  0
ARC
  8
CYAN
 10
10944.5289698363
 20
690.8730112977
 40
0.3387267263
 50
314.0896135015
 51
60.2931703237
  0
LINE
  8
CYAN
 10
10944.69683
 20
691.16722
 11
10940.28838
 21
693.61051
  0
ARC
  8
CYAN
 10
10940.45115
 20
693.90893
 40
0.3399243582
 50
151.3902129396
 51
241.3902129398
  0
LINE
  8
CYAN
 10
10940.15273
 20
694.0717
 11
10940.64445
 21
694.96018
  0
ARC
  8
CYAN
 10
10940.939475948
 20
694.7974017183
 40
0.3369526362
 50
61.1134439052
 51
151.1126224654
  0
LINE
  8
CYAN
 10
10941.10225
 20
695.09243
 11
10946.35847
 21
692.18455
  0
ARC
  8
CYAN
 10
10946.5216325558
 20
692.4793104907
 40
0.3369061687
 50
241.0335936656
 51
320.7042704659
  0
ARC
  8
CYAN
 10
10950.854595571
 20
689.238737486
 40
5.0741558516
 50
95.7862688426
 51
143.3737701437
  0
ARC
  8
CYAN
 10
10950.3159907323
 20
690.8948596401
 40
3.392288124
 50
38.1115241645
 51
89.5433016684
  0
LINE
  8
CYAN
 10
10952.98508
 20
692.98856
 11
10949.90381
 21
690.71345
  0
ARC
  8
CYAN
 10
10938.6118222392
 20
695.8340573269
 40
0.229017345
 50
64.1965848064
 51
153.8138918335
  0
LINE
  8
CYAN
 10
10938.71151
 20
696.04024
 11
10938.91498
 21
695.94021
  0
ARC
  8
CYAN
 10
10938.8135982636
 20
695.7374251806
 40
0.2267155475
 50
333.6227182357
 51
63.4373614212
  0
LINE
  8
CYAN
 10
10939.01671
 20
695.6367
 11
10938.9828
 21
695.56888
  0
ARC
  8
CYAN
 10
10938.77746802
 20
695.669419318
 40
0.2286249691
 50
244.0988230543
 51
333.9116535867
  0
ARC
  8
CYAN
 10
10938.5777294329
 20
695.2614816919
 40
0.2255895478
 50
333.3369462629
 51
63.7231333938
  0
LINE
  8
CYAN
 10
10938.77933
 20
695.16025
 11
10938.74542
 21
695.09243
  0
ARC
  8
CYAN
 10
10938.5404259854
 20
695.1919686171
 40
0.2278826065
 50
243.9135778965
 51
334.1002551658
  0
LINE
  8
CYAN
 10
10938.44022
 20
694.9873
 11
10938.23676
 21
695.08565
  0
ARC
  8
CYAN
 10
10938.3386594193
 20
695.2886117322
 40
0.2271056063
 50
153.7241103585
 51
243.3405012799
  0
LINE
  8
CYAN
 10
10936.28554
 20
648.6844
 11
10934.54587
 21
653.41415
  0
LINE
  8
CYAN
 10
10934.54587
 20
653.41415
 11
10935.68727
 21
653.7577
  0
ARC
  8
CYAN
 10
10934.8656165227
 20
656.4579152761
 40
2.822459384
 50
286.9245772401
 51
0.3606253569
  0
LINE
  8
CYAN
 10
10937.68802
 20
656.47568
 11
10937.68802
 21
658.50526
  0
ARC
  8
CYAN
 10
10939.9269892951
 20
658.5165196953
 40
2.2389976072
 50
46.4683662959
 51
180.2881359658
  0
ARC
  8
CYAN
 10
10964.8371176623
 20
684.7086861997
 40
33.9071516639
 50
226.4350533594
 51
260.2054730028
  0
ARC
  8
CYAN
 10
10958.4663703495
 20
647.7998446285
 40
3.5474744154
 50
48.5342363758
 51
80.2195726238
  0
LINE
  8
CYAN
 10
10960.81541
 20
650.45815
 11
10962.64661
 21
648.84563
  0
ARC
  8
CYAN
 10
10963.79959
 20
650.14759
 40
1.7390982497
 50
228.4727812977
 51
311.5272187023
  0
ARC
  8
CYAN
 10
10961.2404998924
 20
653.0306398112
 40
5.594083625
 50
311.5727682609
 51
349.0589630826
  0
ARC
  8
CYAN
 10
10970.8859244044
 20
651.1531207163
 40
4.232385997
 50
128.9548560703
 51
168.8870041926
  0
ARC
  8
CYAN
 10
10964.1608599184
 20
659.4422297599
 40
6.4416966422
 50
309.1172840785
 51
13.3217498811
  0
ARC
  8
CYAN
 10
10969.1765797102
 20
660.6302901299
 40
1.2871906741
 50
13.3051225454
 51
118.4126849398
  0
ARC
  8
CYAN
 10
10958.0885958322
 20
681.1639506085
 40
22.0489319243
 50
225.021139673
 51
298.3660579284
  0
ARC
  8
CYAN
 10
10946.6119705586
 20
669.6735673954
 40
5.8088031975
 50
159.2245176541
 51
224.9842850278
  0
LINE
  8
CYAN
 10
10941.18087
 20
671.73399
 11
10943.13076
 21
676.89527
  0
ARC
  8
CYAN
 10
10941.1374715778
 20
677.6495583946
 40
2.1312319715
 50
339.2726520348
 51
109.7335097669
  0
LINE
  8
CYAN
 10
10940.41787
 20
679.65563
 11
10936.02638
 21
678.08046
  0
ARC
  8
CYAN
 10
10935.6049246754
 20
679.2485235424
 40
1.2417717302
 50
182.8879262705
 51
289.8402249175
  0
LINE
  8
CYAN
 10
10934.36473
 20
679.18596
 11
10934.263
 21
681.43936
  0
ARC
  8
CYAN
 10
10932.6285905052
 20
681.3637598059
 40
1.6361570175
 50
2.6483490277
 51
135.3139892193
  0
LINE
  8
CYAN
 10
10931.46533
 20
682.51434
 11
10926.58213
 21
677.58197
  0
ARC
  8
CYAN
 10
10926.82715
 20
677.34798
 40
0.3388010043
 50
136.3190972783
 51
223.6809027217
  0
LINE
  8
CYAN
 10
10926.58213
 20
677.11399
 11
10933.87302
 21
669.18218
  0
ARC
  8
CYAN
 10
10933.6255097791
 20
668.9507037458
 40
0.3388842955
 50
312.8710663526
 51
43.0827523196
  0
LINE
  8
CYAN
 10
10933.85607
 20
668.70234
 11
10933.11002
 21
668.01394
  0
ARC
  8
CYAN
 10
10932.88197
 20
668.26064
 40
0.3359578731
 50
222.7503588861
 51
312.750358886
  0
LINE
  8
CYAN
 10
10932.63527
 20
668.03259
 11
10925.4122
 21
675.88302
  0
ARC
  8
CYAN
 10
10925.1622951349
 20
675.6524299114
 40
0.3400356313
 50
42.6980826103
 51
135.3258743994
  0
LINE
  8
CYAN
 10
10924.92049
 20
675.8915
 11
10919.47775
 21
670.38942
  0
ARC
  8
CYAN
 10
10920.643459968
 20
669.2378522082
 40
1.6385933323
 50
135.3496675969
 51
226.3133155966
  0
LINE
  8
CYAN
 10
10919.51166
 20
668.05294
 11
10920.71551
 21
666.89827
  0
ARC
  8
CYAN
 10
10917.6058098108
 20
663.6507449819
 40
4.4962933634
 50
318.1081505776
 51
46.2419796174
  0
ARC
  8
CYAN
 10
10939.9044543666
 20
643.6839610423
 40
25.435330872
 50
138.1667071857
 51
178.6813004658
  0
ARC
  8
CYAN
 10
10906.8641436994
 20
644.4336296286
 40
7.6134895216
 50
319.2021005074
 51
358.7633818674
  0
LINE
  8
CYAN
 10
10912.6277
 20
639.45903
 11
10909.66048
 21
636.02213
  0
ARC
  8
CYAN
 10
10910.6148818285
 20
635.1901872179
 40
1.2661009608
 50
138.9216544266
 51
287.7072025039
  0
LINE
  8
CYAN
 10
10910.99997
 20
633.98407
 11
10914.34021
 21
635.06245
  0
ARC
  8
CYAN
 10
10915.307171281
 20
632.0568096403
 40
3.1573546033
 50
40.7959202601
 51
107.8337912955
  0
LINE
  8
CYAN
 10
10917.69742
 20
634.11972
 11
10918.81648
 21
632.84466
  0
ARC
  8
CYAN
 10
10919.9930546766
 20
633.8632591531
 40
1.5562365516
 50
220.8838094949
 51
337.19507829
  0
ARC
  8
CYAN
 10
10905.7945997728
 20
639.824587704
 40
16.9553778911
 50
337.2218289269
 51
11.4751158875
  0
ARC
  8
CYAN
 10
10941.5262476843
 20
647.0565420952
 40
19.5007905223
 50
135.9317886758
 51
191.413001521
  0
ARC
  8
CYAN
 10
10928.6101105755
 20
659.5622294694
 40
1.5225048346
 50
318.6376684011
 51
136.0120416262
  0
ARC
  8
CYAN
 10
10942.4686203532
 20
647.337761118
 40
16.9571040863
 50
138.5800206616
 51
186.3533221986
  0
ARC
  8
CYAN
 10
10926.866916038
 20
645.6014101132
 40
1.2590760566
 50
186.3891131485
 51
350.3374308926
  0
ARC
  8
CYAN
 10
10944.8244238956
 20
642.5629207855
 40
16.9536813356
 50
149.8809510436
 51
170.4006340067
  0
ARC
  8
CYAN
 10
10933.3088735252
 20
649.2359227775
 40
3.6444115212
 50
106.6897175957
 51
149.7797058537
  0
LINE
  8
CYAN
 10
10932.26224
 20
652.72681
 11
10933.97476
 21
653.24226
  0
LINE
  8
CYAN
 10
10933.97476
 20
653.24226
 11
10934.96337
 21
648.16729
  0
LINE
  8
CYAN
 10
11007.33995
 20
673.03921
 11
11010.40417
 21
674.79848
  0
LINE
  8
CYAN
 10
11010.40417
 20
674.79848
 11
11006.92828
 21
677.41218
  0
ARC
  8
CYAN
 10
11009.7623124248
 20
681.1744237149
 40
4.7102247882
 50
60.7222285488
 51
233.0099241928
  0
LINE
  8
CYAN
 10
11012.06582
 20
685.28296
 11
11013.16793
 21
684.66747
  0
ARC
  8
CYAN
 10
11014.273457601
 20
686.638979952
 40
2.2603191738
 50
240.7183960238
 51
301.5731296524
  0
ARC
  8
CYAN
 10
11015.6363421978
 20
684.4239300104
 40
0.3404332432
 50
58.7401287748
 51
121.8037482184
  0
LINE
  8
CYAN
 10
11015.813
 20
684.71494
 11
11023.37518
 21
680.1149
  0
ARC
  8
CYAN
 10
11023.54728
 20
680.4006
 40
0.3335309581
 50
238.9360761233
 51
328.9360761233
  0
LINE
  8
CYAN
 10
11023.83298
 20
680.2285
 11
11024.37555
 21
681.09832
  0
ARC
  8
CYAN
 10
11024.0829198019
 20
681.2710207756
 40
0.3397910987
 50
329.4522849882
 51
59.2073434999
  0
LINE
  8
CYAN
 10
11024.25687
 20
681.56291
 11
11016.69468
 21
686.16295
  0
ARC
  8
CYAN
 10
11016.8756895473
 20
686.4451409356
 40
0.3352553957
 50
174.3203379956
 51
237.3221208266
  0
ARC
  8
CYAN
 10
11014.2785069718
 20
686.6433161372
 40
2.2695785026
 50
355.8309750391
 51
56.6941811243
  0
LINE
  8
CYAN
 10
11015.52475
 20
688.54012
 11
11014.47351
 21
689.2336
  0
ARC
  8
CYAN
 10
11017.0647879427
 20
693.1648463662
 40
4.7084412886
 50
64.3577357279
 51
236.6091576497
  0
LINE
  8
CYAN
 10
11019.10237
 20
697.40957
 11
11026.93584
 21
693.64544
  0
ARC
  8
CYAN
 10
11028.3396701304
 20
696.5655793333
 40
3.2400544379
 50
244.3245072897
 51
303.4049207736
  0
LINE
  8
CYAN
 10
11030.12349
 20
693.86078
 11
11031.70036
 21
694.90015
  0
ARC
  8
CYAN
 10
11034.8212964931
 20
690.1689605185
 40
5.6678389624
 50
39.7690964383
 51
123.4109022303
  0
ARC
  8
CYAN
 10
11043.0941914358
 20
697.054799632
 40
5.095783631
 50
219.7749657321
 51
291.4735081934
  0
ARC
  8
CYAN
 10
11045.9915686858
 20
689.6910411256
 40
2.8174795977
 50
347.3540072736
 51
111.4857710653
  0
LINE
  8
CYAN
 10
11048.7407
 20
689.07422
 11
11047.50294
 21
683.59079
  0
ARC
  8
CYAN
 10
11049.070199794
 20
683.2435906783
 40
1.6052571853
 50
167.5088443837
 51
226.2794666646
  0
LINE
  8
CYAN
 10
11047.96074
 20
682.08344
 11
11049.69021
 21
680.41501
  0
ARC
  8
CYAN
 10
11047.338490427
 20
677.9719864204
 40
3.3910100502
 50
327.5138613815
 51
46.0909243468
  0
LINE
  8
CYAN
 10
11050.19888
 20
676.15069
 11
11049.30023
 21
674.74507
  0
ARC
  8
CYAN
 10
11049.0160879088
 20
674.9238795043
 40
0.3357224551
 50
238.8509423788
 51
327.8179536701
  0
LINE
  8
CYAN
 10
11048.84243
 20
674.63656
 11
11035.3458
 21
682.85492
  0
ARC
  8
CYAN
 10
11035.1652264024
 20
682.5607391392
 40
0.3451799575
 50
58.4576357772
 51
148.4562211477
  0
LINE
  8
CYAN
 10
11034.87105
 20
682.74132
 11
11034.34543
 21
681.8715
  0
ARC
  8
CYAN
 10
11034.637909109
 20
681.6977035005
 40
0.3402194181
 50
149.280434792
 51
239.2818825719
  0
LINE
  8
CYAN
 10
11034.46412
 20
681.40522
 11
11052.77612
 21
670.257
  0
ARC
  8
CYAN
 10
11051.0154414233
 20
667.3595341622
 40
3.39047155
 50
328.6899249278
 51
58.7145589097
  0
LINE
  8
CYAN
 10
11053.91215
 20
665.59761
 11
11053.1661
 21
664.36664
  0
ARC
  8
CYAN
 10
11052.8719235976
 20
664.5472208608
 40
0.3451799575
 50
238.4576357771
 51
328.4562211479
  0
LINE
  8
CYAN
 10
11052.69135
 20
664.25304
 11
11042.04325
 21
670.74024
  0
ARC
  8
CYAN
 10
11041.86268
 20
670.44606
 40
0.3451773418
 50
58.4580699603
 51
148.4580699603
  0
LINE
  8
CYAN
 10
11041.5685
 20
670.62663
 11
11041.04287
 21
669.75681
  0
ARC
  8
CYAN
 10
11041.3355001917
 20
669.5841192497
 40
0.3397859979
 50
149.4537402975
 51
239.2087951261
  0
LINE
  8
CYAN
 10
11041.16156
 20
669.29223
 11
11051.80966
 21
662.80503
  0
ARC
  8
CYAN
 10
11051.6358606085
 20
662.5125476094
 40
0.3402237165
 50
329.2826064479
 51
59.2802984275
  0
LINE
  8
CYAN
 10
11051.92835
 20
662.33876
 11
11051.1823
 21
661.10609
  0
ARC
  8
CYAN
 10
11048.2847382773
 20
662.8705495815
 40
3.3925184674
 50
238.6458248682
 51
328.6608283557
  0
LINE
  8
CYAN
 10
11046.51952
 20
659.97345
 11
11028.20751
 21
671.12174
  0
ARC
  8
CYAN
 10
11028.02694
 20
670.82756
 40
0.3451773418
 50
58.4580699604
 51
148.4580699603
  0
LINE
  8
CYAN
 10
11027.73276
 20
671.00813
 11
11027.20713
 21
670.13831
  0
ARC
  8
CYAN
 10
11027.4996193915
 20
669.9645223906
 40
0.3402237165
 50
149.2826064481
 51
239.2802984273
  0
LINE
  8
CYAN
 10
11027.32582
 20
669.67204
 11
11040.82245
 21
661.45537
  0
ARC
  8
CYAN
 10
11040.6468704154
 20
661.1649383918
 40
0.3393798897
 50
330.1210931315
 51
58.8450620599
  0
LINE
  8
CYAN
 10
11040.94114
 20
660.99587
 11
11040.09336
 21
659.55465
  0
ARC
  8
CYAN
 10
11037.1650801104
 20
661.2582900413
 40
3.3878034922
 50
251.2282740289
 51
329.8096406324
  0
LINE
  8
CYAN
 10
11036.07489
 20
658.05069
 11
11033.80285
 21
658.82556
  0
ARC
  8
CYAN
 10
11033.2800179181
 20
657.297239613
 40
1.6152760108
 50
71.1143947854
 51
129.9443885067
  0
LINE
  8
CYAN
 10
11032.24294
 20
658.53562
 11
11027.95318
 21
654.9207
  0
ARC
  8
CYAN
 10
11026.133969946
 20
657.0817800218
 40
2.8248525769
 50
185.9449891439
 51
310.0908726656
  0
ARC
  8
CYAN
 10
11018.2721072553
 20
656.2778530887
 40
5.0780142022
 50
5.7793775886
 51
77.4714604555
  0
ARC
  8
CYAN
 10
11020.59079946
 20
666.7768007489
 40
5.6739349828
 50
173.9698269983
 51
257.6129736361
  0
LINE
  8
CYAN
 10
11014.94826
 20
667.37286
 11
11015.15173
 21
669.25154
  0
ARC
  8
CYAN
 10
11011.9274819623
 20
669.5959854737
 40
3.242594346
 50
353.9022355628
 51
52.974860929
  0
LINE
  8
CYAN
 10
11013.88006
 20
672.18478
 11
11010.9202
 21
674.41045
  0
LINE
  8
CYAN
 10
11010.9202
 20
674.41045
 11
11008.73249
 21
671.8114
  0
ARC
  8
CYAN
 10
11024.8791301118
 20
680.455710107
 40
0.2323456506
 50
88.7447475683
 51
178.7472129491
  0
LINE
  8
CYAN
 10
11024.88422
 20
680.688
 11
11025.10464
 21
680.688
  0
ARC
  8
CYAN
 10
11025.1097298882
 20
680.455710107
 40
0.2323456506
 50
1.2527870504
 51
91.2552524299
  0
LINE
  8
CYAN
 10
11025.34202
 20
680.46079
 11
11025.34202
 21
680.38619
  0
ARC
  8
CYAN
 10
11025.1122212981
 20
680.3915826481
 40
0.2298619674
 50
309.1161643557
 51
358.655696146
  0
LINE
  8
CYAN
 10
11025.25724
 20
680.21324
 11
11024.64684
 21
679.62828
  0
LINE
  8
CYAN
 10
11024.64684
 20
679.62828
 11
11025.34202
 21
679.62828
  0
ARC
  8
CYAN
 10
11033.2467051514
 20
682.4869849977
 40
0.2238407475
 50
179.1335190748
 51
269.1309209358
  0
LINE
  8
CYAN
 10
11033.24331
 20
682.26317
 11
11033.48069
 21
682.26317
  0
ARC
  8
CYAN
 10
11033.4773
 20
682.48698
 40
0.2238356723
 50
270.8677799949
 51
0.8677799945
  0
LINE
  8
CYAN
 10
11033.70111
 20
682.49037
 11
11033.70111
 21
682.56498
  0
ARC
  8
CYAN
 10
11033.4773
 20
682.56837
 40
0.2238356723
 50
359.1322200054
 51
89.1322200056
  0
ARC
  8
CYAN
 10
11033.477295077
 20
683.0159949253
 40
0.2238406717
 50
270.8690208869
 51
0.8690597096
  0
LINE
  8
CYAN
 10
11033.70111
 20
683.01939
 11
11033.70111
 21
683.09569
  0
ARC
  8
CYAN
 10
11033.4773
 20
683.09908
 40
0.2238356723
 50
359.1322200051
 51
89.1322200056
  0
LINE
  8
CYAN
 10
11033.48069
 20
683.32289
 11
11033.24331
 21
683.32289
  0
ARC
  8
CYAN
 10
11033.2467051514
 20
683.0990750023
 40
0.2238407475
 50
90.8690790651
 51
180.8664809245
  0
LINE
  8
CYAN
 10
11012.91923
 20
664.17201
 11
11009.89975
 21
662.10091
  0
LINE
  8
CYAN
 10
11009.89975
 20
662.10091
 11
11009.19609
 21
663.48194
  0
ARC
  8
CYAN
 10
11008.8918404555
 20
663.3270397216
 40
0.3414116014
 50
26.9816666272
 51
90.159505889
  0
LINE
  8
CYAN
 10
11008.89089
 20
663.66845
 11
11003.93987
 21
663.66845
  0
ARC
  8
CYAN
 10
11003.93987
 20
664.00756
 40
0.33911
 50
179.9999999997
 51
270.0
  0
LINE
  8
CYAN
 10
11003.60076
 20
664.00756
 11
11003.60076
 21
665.02489
  0
ARC
  8
CYAN
 10
11003.9398749999
 20
665.0248950001
 40
0.339115
 50
90.0008447719
 51
180.000844796
  0
LINE
  8
CYAN
 10
11003.93987
 20
665.36401
 11
11008.24658
 21
665.36401
  0
ARC
  8
CYAN
 10
11008.245801584
 20
665.7009824816
 40
0.3369733807
 50
270.1323546378
 51
24.7669137701
  0
ARC
  8
CYAN
 10
11000.2338872544
 20
662.0639313229
 40
9.135769048
 50
24.4288723615
 51
104.1184737891
  0
LINE
  8
CYAN
 10
10998.00542
 20
670.92374
 11
10991.81664
 21
669.36721
  0
ARC
  8
CYAN
 10
10988.9347333854
 20
680.8192102644
 40
11.8090514349
 50
264.8075095845
 51
284.1252364123
  0
LINE
  8
CYAN
 10
10987.86599
 20
669.05862
 11
10985.23788
 21
669.2977
  0
ARC
  8
CYAN
 10
10984.5021545402
 20
661.1827424995
 40
8.1482407419
 50
84.8195623262
 51
152.8487409654
  0
ARC
  8
CYAN
 10
10978.0957777896
 20
664.6088009786
 40
0.8931584631
 50
160.895819087
 51
331.345677314
  0
ARC
  8
CYAN
 10
10979.998300914
 20
663.7765505044
 40
1.1894481417
 50
77.6378483356
 51
160.1463210708
  0
ARC
  8
CYAN
 10
10980.1594837984
 20
664.5312071512
 40
0.4178016695
 50
29.1865324736
 51
77.0729964062
  0
ARC
  8
CYAN
 10
10978.9113743838
 20
663.8084445088
 40
1.8600397633
 50
12.4463430006
 51
29.8750757169
  0
ARC
  8
CYAN
 10
10981.291317127
 20
664.3350500827
 40
0.5774684451
 50
192.574507591
 51
344.1281335726
  0
ARC
  8
CYAN
 10
10983.6420187866
 20
663.6681088219
 40
1.8660146262
 50
104.1370313926
 51
164.1702490645
  0
ARC
  8
CYAN
 10
10983.3035355188
 20
664.9925525351
 40
0.4990333572
 50
17.4127704645
 51
103.5919393247
  0
ARC
  8
CYAN
 10
10982.0103300471
 20
664.5502495562
 40
1.8656656841
 50
353.6307232362
 51
18.4888613541
  0
ARC
  8
CYAN
 10
10984.3734797831
 20
664.3146300357
 40
0.5098054527
 50
176.7784037951
 51
344.5489255248
  0
ARC
  8
CYAN
 10
10986.6845537716
 20
663.8043153173
 40
1.8578298334
 50
120.9320477022
 51
168.3708411908
  0
ARC
  8
CYAN
 10
10985.9852472347
 20
664.9599208427
 40
0.507152722
 50
25.8301852669
 51
120.2718290085
  0
ARC
  8
CYAN
 10
10984.7622398359
 20
664.3654107714
 40
1.8670012276
 50
358.1236427239
 51
25.8989681383
  0
ARC
  8
CYAN
 10
10987.136806154
 20
664.2843590717
 40
0.5089561635
 50
177.7568269508
 51
345.0872144139
  0
ARC
  8
CYAN
 10
10989.4286418121
 20
663.6859918052
 40
1.8597124102
 50
104.3376690391
 51
165.4441954613
  0
ARC
  8
CYAN
 10
10989.0941150587
 20
664.9900185871
 40
0.5134624612
 50
44.5831048772
 51
104.205631486
  0
ARC
  8
CYAN
 10
10988.125291175
 20
664.0455159605
 40
1.8664924146
 50
348.0790616371
 51
44.3573826755
  0
ARC
  8
CYAN
 10
10990.4462533538
 20
663.5548896135
 40
0.5057599078
 50
168.0084558177
 51
358.8421767645
  0
ARC
  8
CYAN
 10
10992.815120234
 20
663.5128603099
 40
1.86348175
 50
106.8666474934
 51
179.021911799
  0
ARC
  8
CYAN
 10
10992.4171889557
 20
664.8136303099
 40
0.5032210923
 50
40.4616393911
 51
106.4793916094
  0
ARC
  8
CYAN
 10
10997.4458059607
 20
669.11187195
 40
6.1120547317
 50
220.5273727491
 51
267.9340733809
  0
LINE
  8
CYAN
 10
10997.22547
 20
663.00379
 11
10998.92102
 21
662.94106
  0
ARC
  8
CYAN
 10
10999.0139387657
 20
662.1265617406
 40
0.8197812584
 50
334.1738015388
 51
96.5082227352
  0
ARC
  8
CYAN
 10
10997.0774010336
 20
663.078863445
 40
2.9777910827
 50
278.425367626
 51
333.9131438686
  0
ARC
  8
CYAN
 10
10996.0496302561
 20
670.0583399887
 40
10.032533817
 50
256.5474410969
 51
278.3913223455
  0
ARC
  8
CYAN
 10
10995.1424836621
 20
666.2368836561
 40
6.1048922613
 50
233.7010831367
 51
256.4839303197
  0
ARC
  8
CYAN
 10
10991.2263186215
 20
660.898100071
 40
0.516224207
 50
54.1846627569
 51
119.916284816
  0
ARC
  8
CYAN
 10
10991.764581581
 20
659.6613128968
 40
1.8627382451
 50
115.2886284184
 51
187.4623618854
  0
ARC
  8
CYAN
 10
10989.4190290606
 20
659.3552699681
 40
0.5026970293
 50
176.5558242997
 51
7.328156899
  0
ARC
  8
CYAN
 10
10987.056309895
 20
659.5041602305
 40
1.8647112984
 50
356.3506149278
 51
52.6286350237
  0
ARC
  8
CYAN
 10
10987.876532662
 20
660.578530954
 40
0.5130317634
 50
52.597998094
 51
112.5875352042
  0
ARC
  8
CYAN
 10
10988.3962224192
 20
659.331453228
 40
1.8640610408
 50
112.6130677288
 51
173.6883936073
  0
ARC
  8
CYAN
 10
10986.04327
 20
659.59196
 40
0.5032684895
 50
186.340568916
 51
353.659431084
  0
ARC
  8
CYAN
 10
10983.6799465468
 20
659.3070490329
 40
1.8771944377
 50
7.0171753005
 51
34.8253029133
  0
ARC
  8
CYAN
 10
10984.8059840392
 20
660.1007493894
 40
0.4996423848
 50
33.8513148467
 51
128.9570588206
  0
ARC
  8
CYAN
 10
10985.6631294207
 20
659.0309488866
 40
1.8704674665
 50
128.7704243721
 51
176.2531714167
  0
ARC
  8
CYAN
 10
10983.2969133584
 20
659.1851499317
 40
0.5007681922
 50
181.3296227964
 51
356.3396462335
  0
ARC
  8
CYAN
 10
10980.9279321554
 20
659.0989317736
 40
1.8698365072
 50
2.2864556136
 51
27.0781009439
  0
ARC
  8
CYAN
 10
10982.1404565361
 20
659.7285913127
 40
0.5036718424
 50
26.0890705149
 51
112.4027213664
  0
ARC
  8
CYAN
 10
10982.6631269777
 20
658.4700360575
 40
1.8664419189
 50
112.5123137871
 51
172.5407331365
  0
ARC
  8
CYAN
 10
10980.2446721083
 20
658.785810253
 40
0.572541422
 50
201.0589414792
 51
352.6273023367
  0
ARC
  8
CYAN
 10
10977.9719956458
 20
657.9416878921
 40
1.8518881928
 50
20.1650080262
 51
37.6074778346
  0
ARC
  8
CYAN
 10
10979.1067390881
 20
658.8073004762
 40
0.4247475483
 50
38.5151624353
 51
86.336365225
  0
ARC
  8
CYAN
 10
10979.0557477756
 20
658.0515182936
 40
1.1822463305
 50
86.2106781651
 51
168.7743650335
  0
ARC
  8
CYAN
 10
10977.0501288478
 20
658.5909699494
 40
0.9007593954
 50
205.1076097474
 51
339.9172541538
  0
ARC
  8
CYAN
 10
10974.7013983892
 20
657.4899605906
 40
1.6932252704
 50
25.1199640117
 51
114.6074893075
  0
ARC
  8
CYAN
 10
10974.3769426608
 20
658.196963562
 40
0.91532806
 50
114.5703432931
 51
171.9116596698
  0
ARC
  8
CYAN
 10
10980.2560722578
 20
657.3741255322
 40
6.8517584889
 50
172.0165169435
 51
241.6025662341
  0
ARC
  8
CYAN
 10
10976.3158116463
 20
650.1007864877
 40
1.4203242939
 50
348.9093372781
 51
61.3186126139
  0
ARC
  8
CYAN
 10
10986.0998717939
 20
647.1175025947
 40
8.8170833222
 50
162.0994639605
 51
225.1346364278
  0
ARC
  8
CYAN
 10
11003.0929030723
 20
664.4342844134
 40
33.0787025303
 50
225.4324154037
 51
249.5681333294
  0
ARC
  8
CYAN
 10
10994.4442634722
 20
641.7669557953
 40
8.8203189951
 50
250.8123482105
 51
354.7606176085
  0
ARC
  8
CYAN
 10
11005.8281088262
 20
640.5958592653
 40
2.6259608716
 50
72.0865924862
 51
171.9958661341
  0
LINE
  8
CYAN
 10
11006.6358
 20
643.09452
 11
11007.56836
 21
642.78084
  0
ARC
  8
CYAN
 10
11007.9882774448
 20
643.7231874096
 40
1.0316730591
 50
245.9818698982
 51
24.8009285343
  0
ARC
  8
CYAN
 10
11005.0798367578
 20
642.3505432752
 40
4.2477287658
 50
25.1523323615
 51
64.2678552822
  0
ARC
  8
CYAN
 10
11007.5335306457
 20
647.4246452231
 40
1.3885191573
 50
101.9426873808
 51
243.9635456422
  0
ARC
  8
CYAN
 10
11006.4224989994
 20
652.5892589494
 40
3.8942590005
 50
282.2112523852
 51
350.5841119133
  0
ARC
  8
CYAN
 10
11014.7163692378
 20
651.1992791536
 40
4.5152894822
 50
105.5908886515
 51
170.4016514316
  0
ARC
  8
CYAN
 10
11013.0458797464
 20
657.1817979819
 40
1.6960767143
 50
285.6288185848
 51
60.044384488
  0
LINE
  8
CYAN
 10
11013.89278
 20
658.6513
 11
11011.02729
 21
660.27564
  0
ARC
  8
CYAN
 10
11011.5528495259
 20
661.2014804968
 40
1.0646095251
 50
206.8960288897
 51
240.4183004826
  0
LINE
  8
CYAN
 10
11010.6034
 20
660.71988
 11
11010.17145
 21
661.56764
  0
LINE
  8
CYAN
 10
11010.17145
 20
661.56764
 11
11013.51698
 21
663.06751
  0
LINE
  8
CYAN
 10
11051.5188
 20
646.46082
 11
11047.22868
 21
643.94398
  0
LINE
  8
CYAN
 10
11047.22868
 20
643.94398
 11
11046.52502
 21
645.32502
  0
ARC
  8
CYAN
 10
11046.2207704555
 20
645.1701197216
 40
0.3414116014
 50
26.9816666277
 51
90.1595058896
  0
LINE
  8
CYAN
 10
11046.21982
 20
645.51153
 11
11041.2688
 21
645.51153
  0
ARC
  8
CYAN
 10
11041.2688
 20
645.85064
 40
0.33911
 50
180.0000000001
 51
270.0
  0
LINE
  8
CYAN
 10
11040.92969
 20
645.85064
 11
11040.92969
 21
646.86797
  0
ARC
  8
CYAN
 10
11041.2688
 20
646.86797
 40
0.33911
 50
90.0
 51
179.9999999999
  0
LINE
  8
CYAN
 10
11041.2688
 20
647.20708
 11
11045.55856
 21
647.20708
  0
ARC
  8
CYAN
 10
11045.5662486103
 20
647.5494979373
 40
0.3425042459
 50
268.7137037566
 51
23.346644616
  0
ARC
  8
CYAN
 10
11037.5543426063
 20
643.8968387462
 40
9.1476938223
 50
24.4649313132
 51
104.1544283241
  0
LINE
  8
CYAN
 10
11035.3174
 20
652.76681
 11
11029.14557
 21
651.21029
  0
ARC
  8
CYAN
 10
11026.2636660742
 20
662.6622904745
 40
11.8090509824
 50
264.807545004
 51
284.1252235123
  0
LINE
  8
CYAN
 10
11025.19493
 20
650.9017
 11
11022.56681
 21
651.14077
  0
ARC
  8
CYAN
 10
11021.8226038265
 20
643.0132566085
 40
8.1615143667
 50
84.7682277434
 51
152.7973787323
  0
ARC
  8
CYAN
 10
11015.4159793899
 20
646.4510002679
 40
0.9012174206
 50
161.013982513
 51
331.5660657517
  0
ARC
  8
CYAN
 10
11017.3276130747
 20
645.6198417006
 40
1.1891600708
 50
77.6536560276
 51
160.2391860563
  0
ARC
  8
CYAN
 10
11017.4878173937
 20
646.3734919548
 40
0.4187103281
 50
29.2417327103
 51
77.0177961686
  0
ARC
  8
CYAN
 10
11016.2403043838
 20
645.6515245088
 40
1.8600397633
 50
12.4463430006
 51
29.875075717
  0
ARC
  8
CYAN
 10
11018.6117682304
 20
646.1759700517
 40
0.5687227279
 50
192.5480835065
 51
344.1028055059
  0
ARC
  8
CYAN
 10
11020.9539837888
 20
645.5111839696
 40
1.8660084137
 50
104.1369211871
 51
164.17035927
  0
ARC
  8
CYAN
 10
11020.6239919194
 20
646.8265689443
 40
0.5098644876
 50
18.0986022414
 51
104.2798102723
  0
ARC
  8
CYAN
 10
11019.3392608248
 20
646.3933222303
 40
1.8656640985
 50
353.6309441795
 51
18.4887910422
  0
ARC
  8
CYAN
 10
11021.693934309
 20
646.1567992794
 40
0.50139647
 50
176.6200654309
 51
344.3912403357
  0
ARC
  8
CYAN
 10
11024.0050111181
 20
645.628091546
 40
1.8701034355
 50
120.4055286254
 51
167.8439045686
  0
ARC
  8
CYAN
 10
11023.3141800233
 20
646.8029999929
 40
0.5071462253
 50
25.829392061
 51
120.2726222148
  0
ARC
  8
CYAN
 10
11022.0911696939
 20
646.2084814385
 40
1.8670010639
 50
358.1239291271
 51
25.8989478194
  0
ARC
  8
CYAN
 10
11024.4657363765
 20
646.1274405466
 40
0.5089563281
 50
177.7569938374
 51
345.0870475274
  0
ARC
  8
CYAN
 10
11026.7575718121
 20
645.5290718052
 40
1.8597124102
 50
104.3376690391
 51
165.4441954613
  0
ARC
  8
CYAN
 10
11026.4230450587
 20
646.8330985871
 40
0.5134624612
 50
44.5831048774
 51
104.2056314863
  0
ARC
  8
CYAN
 10
11025.4542184932
 20
645.8885951804
 40
1.8664948774
 50
348.0791020713
 51
44.3573422412
  0
ARC
  8
CYAN
 10
11027.7751833538
 20
645.3979696135
 40
0.5057599078
 50
168.0084558176
 51
358.8421767646
  0
ARC
  8
CYAN
 10
11030.1429728724
 20
645.356753804
 40
1.8623908286
 50
106.8421900669
 51
179.0463692255
  0
ARC
  8
CYAN
 10
11029.7459829674
 20
646.6562520871
 40
0.5036219836
 50
40.4912628891
 51
106.4497681113
  0
ARC
  8
CYAN
 10
11034.7747359607
 20
650.95495195
 40
6.1120547317
 50
220.5273727491
 51
267.9340733809
  0
LINE
  8
CYAN
 10
11034.5544
 20
644.84687
 11
11036.24995
 21
644.78413
  0
ARC
  8
CYAN
 10
11036.34288311
 20
643.9696356143
 40
0.8197790356
 50
334.1734255655
 51
96.5092495072
  0
ARC
  8
CYAN
 10
11034.3978623639
 20
644.9380717151
 40
2.9925219154
 50
278.2194882208
 51
333.7070162993
  0
ARC
  8
CYAN
 10
11033.3700847994
 20
651.8574902309
 40
9.9878378292
 50
256.5361004374
 51
278.3800040739
  0
ARC
  8
CYAN
 10
11032.4709274424
 20
648.0789165442
 40
6.1037605157
 50
233.6989426788
 51
256.4860707776
  0
ARC
  8
CYAN
 10
11028.5553271594
 20
642.7425496312
 40
0.5150681907
 50
54.1025965388
 51
120.0003935738
  0
ARC
  8
CYAN
 10
11029.0935073758
 20
641.5043851918
 40
1.8627343736
 50
115.288541624
 51
187.4624486799
  0
ARC
  8
CYAN
 10
11026.7479584205
 20
641.1983499465
 40
0.5026963916
 50
176.5558174485
 51
7.3270195848
  0
ARC
  8
CYAN
 10
11024.3767675794
 20
641.3313951934
 40
1.8722292979
 50
356.8510464695
 51
53.1291520547
  0
ARC
  8
CYAN
 10
11025.1969977729
 20
642.4362989548
 40
0.4962146188
 50
52.3461632581
 51
112.3369554483
  0
ARC
  8
CYAN
 10
11025.7251581738
 20
641.1745175633
 40
1.8640684827
 50
112.6131640618
 51
173.6879344854
  0
ARC
  8
CYAN
 10
11023.363725
 20
641.43597
 40
0.5117943555
 50
186.3392645287
 51
353.6607354713
  0
ARC
  8
CYAN
 10
11020.9996404182
 20
641.1840888453
 40
1.8656772799
 50
6.0109554424
 51
33.8071353033
  0
ARC
  8
CYAN
 10
11022.1347614262
 20
641.9428197844
 40
0.500332085
 50
33.9375967319
 51
128.870776936
  0
ARC
  8
CYAN
 10
11022.9920594207
 20
640.8740288866
 40
1.8704674665
 50
128.7704243722
 51
176.2531714167
  0
ARC
  8
CYAN
 10
11020.6173681748
 20
641.0285900365
 40
0.5092491089
 50
181.3480020802
 51
356.3600894222
  0
ARC
  8
CYAN
 10
11018.2483796552
 20
640.9805914357
 40
1.8602290811
 50
1.1094551247
 51
25.9009304573
  0
ARC
  8
CYAN
 10
11019.4693926752
 20
641.5716689863
 40
0.503676333
 50
26.0891150479
 51
112.4032661604
  0
ARC
  8
CYAN
 10
11019.9920569777
 20
640.3131160575
 40
1.8664419189
 50
112.5123137871
 51
172.5407331365
  0
ARC
  8
CYAN
 10
11017.5736021083
 20
640.628890253
 40
0.572541422
 50
201.0589414792
 51
352.6273023367
  0
ARC
  8
CYAN
 10
11015.3009311373
 20
639.7847479387
 40
1.8518899165
 50
20.1656460947
 51
37.607825477
  0
ARC
  8
CYAN
 10
11016.4356581757
 20
640.6503761752
 40
0.4247525379
 50
38.5136442808
 51
86.3349333027
  0
ARC
  8
CYAN
 10
11016.3846789462
 20
639.8945991916
 40
1.1822453571
 50
86.210731894
 51
168.7748941253
  0
ARC
  8
CYAN
 10
11014.3790584099
 20
640.4340499302
 40
0.9007632339
 50
205.1081964394
 51
339.9166674619
  0
ARC
  8
CYAN
 10
11012.0303316213
 20
639.3330394055
 40
1.6932186019
 50
25.1197403703
 51
114.6077129489
  0
ARC
  8
CYAN
 10
11011.7058669887
 20
640.0400359687
 40
0.9153235128
 50
114.5700830317
 51
171.9111391291
  0
ARC
  8
CYAN
 10
11017.5858604072
 20
639.2176391941
 40
6.852548113
 50
172.0211042964
 51
241.5979788812
  0
ARC
  8
CYAN
 10
11013.6442597215
 20
631.9436405943
 40
1.4207537998
 50
348.9220154595
 51
61.3059344322
  0
ARC
  8
CYAN
 10
11023.4271879192
 20
628.9601985896
 40
8.8156656448
 50
162.093865026
 51
225.1403561749
  0
ARC
  8
CYAN
 10
11040.4218472267
 20
646.2773553961
 40
33.0786990216
 50
225.4323993167
 51
249.5681049025
  0
ARC
  8
CYAN
 10
11031.7731992733
 20
623.6100395319
 40
8.8203244308
 50
250.8123205979
 51
354.7605312403
  0
ARC
  8
CYAN
 10
11043.1570398115
 20
622.438939882
 40
2.6259504665
 50
72.0865416939
 51
171.996068136
  0
LINE
  8
CYAN
 10
11043.96473
 20
624.93759
 11
11044.43949
 21
624.77991
  0
LINE
  8
CYAN
 10
11044.43949
 20
624.77991
 11
11044.89729
 21
624.62392
  0
ARC
  8
CYAN
 10
11045.3087313428
 20
625.5630813785
 40
1.0253331523
 50
246.3420431779
 51
25.1606665064
  0
ARC
  8
CYAN
 10
11042.4002918103
 20
624.2174883437
 40
4.2299481133
 50
24.9083930437
 51
64.0240954798
  0
ARC
  8
CYAN
 10
11044.8539901345
 20
629.2706411485
 40
1.3874495755
 50
102.3101953989
 51
244.3307007009
  0
ARC
  8
CYAN
 10
11043.7437988562
 20
634.4440088057
 40
3.903710681
 50
282.0413282155
 51
350.4333145705
  0
ARC
  8
CYAN
 10
11052.0368200474
 20
633.0557200529
 40
4.5047149014
 50
105.7404615757
 51
170.5513537081
  0
ARC
  8
CYAN
 10
11050.3578500841
 20
639.0248806689
 40
1.696079211
 50
285.6287831448
 51
60.0440563626
  0
LINE
  8
CYAN
 10
11051.20476
 20
640.49438
 11
11048.35623
 21
642.11872
  0
ARC
  8
CYAN
 10
11048.8808885022
 20
643.0437115697
 40
1.0634265127
 50
206.8776789253
 51
240.437938794
  0
LINE
  8
CYAN
 10
11047.93234
 20
642.56295
 11
11047.49857
 21
643.41429
  0
LINE
  8
CYAN
 10
11047.49857
 20
643.41429
 11
11051.94269
 21
645.38887
  0
LINE
  8
CYAN
 10
10983.98714
 20
577.31316
 11
10984.79578
 21
580.97222
  0
LINE
  8
CYAN
 10
10984.79578
 20
580.97222
 11
10986.35016
 21
580.53378
  0
ARC
  8
CYAN
 10
10985.4664497339
 20
577.3935003718
 40
3.2622538187
 50
356.9033145056
 51
74.2827965937
  0
LINE
  8
CYAN
 10
10988.72394
 20
577.21727
 11
10987.41836
 21
570.64868
  0
ARC
  8
CYAN
 10
10989.0175303764
 20
570.3376796483
 40
1.629130784
 50
168.9947137947
 51
284.8867778271
  0
ARC
  8
CYAN
 10
10990.2962102417
 20
565.4837898881
 40
3.3903640929
 50
25.636773862
 51
104.696652807
  0
ARC
  8
CYAN
 10
10994.8140782277
 20
567.6524502992
 40
1.621044844
 50
205.6525263611
 51
315.1817338112
  0
ARC
  8
CYAN
 10
10970.8485602916
 20
585.303632725
 40
31.3686140514
 50
323.1925800741
 51
24.5912532391
  0
ARC
  8
CYAN
 10
11027.5996057879
 20
612.810749754
 40
31.7126865272
 50
184.7943804727
 51
207.1137345021
  0
ARC
  8
CYAN
 10
10992.7594209371
 20
610.1162681207
 40
3.2387570319
 50
0.7772081827
 51
52.2295018889
  0
ARC
  8
CYAN
 10
10991.6241925595
 20
609.1109592333
 40
4.7371296229
 50
48.8213748177
 51
97.827594648
  0
LINE
  8
CYAN
 10
10990.97903
 20
613.80395
 11
10990.47036
 21
613.72426
  0
ARC
  8
CYAN
 10
10990.5160437356
 20
613.3901049443
 40
0.3372634059
 50
97.7848833056
 51
188.0698199038
  0
LINE
  8
CYAN
 10
10990.18212
 20
613.34276
 11
10993.08152
 21
592.63323
  0
ARC
  8
CYAN
 10
10992.7458
 20
592.58576
 40
0.3390594628
 50
278.0481321473
 51
8.0481321477
  0
LINE
  8
CYAN
 10
10992.79327
 20
592.25004
 11
10991.7929
 21
592.10931
  0
ARC
  8
CYAN
 10
10991.74203
 20
592.44842
 40
0.3429042855
 50
188.5313439535
 51
278.5313439534
  0
LINE
  8
CYAN
 10
10991.40292
 20
592.39755
 11
10988.50352
 21
613.10877
  0
ARC
  8
CYAN
 10
10988.172269716
 20
613.0655902195
 40
0.3340527565
 50
7.4268536225
 51
97.1847528727
  0
LINE
  8
CYAN
 10
10988.13049
 20
613.39702
 11
10987.50314
 21
613.30885
  0
ARC
  8
CYAN
 10
10988.3116083951
 20
608.6267155219
 40
4.7514213049
 50
99.7967125394
 51
146.8735964628
  0
ARC
  8
CYAN
 10
10986.9368895961
 20
609.292986714
 40
3.2417978959
 50
143.455397731
 51
202.5282079543
  0
LINE
  8
CYAN
 10
10983.94247
 20
608.05093
 11
10986.36712
 21
601.61121
  0
ARC
  8
CYAN
 10
10981.4251697382
 20
599.992489201
 40
5.2003008966
 50
305.583140536
 51
18.1360515256
  0
LINE
  8
CYAN
 10
10984.45114
 20
595.76323
 11
10982.53516
 21
594.25927
  0
LINE
  8
CYAN
 10
10982.53516
 20
594.25927
 11
10980.60222
 21
592.75362
  0
ARC
  8
CYAN
 10
10984.2488407267
 20
588.0697616432
 40
5.9360232337
 50
127.9025627687
 51
184.383307768
  0
ARC
  8
CYAN
 10
10978.6704999237
 20
587.6436000607
 40
0.3414308191
 50
184.6231786071
 51
278.3631627796
  0
LINE
  8
CYAN
 10
10978.72016
 20
587.3058
 11
10985.65498
 21
588.27735
  0
ARC
  8
CYAN
 10
10985.705237759
 20
587.9374116564
 40
0.343633409
 50
8.6527858901
 51
98.4099020181
  0
LINE
  8
CYAN
 10
10986.04496
 20
587.98911
 11
10986.1806
 21
586.98025
  0
ARC
  8
CYAN
 10
10985.8447789258
 20
586.9343385783
 40
0.3389449107
 50
278.0698336813
 51
7.7848695282
  0
LINE
  8
CYAN
 10
10985.89236
 20
586.59875
 11
10979.0084
 21
585.63398
  0
ARC
  8
CYAN
 10
10979.0544692388
 20
585.2987287298
 40
0.3384018158
 50
97.82441167
 51
200.3117482002
  0
ARC
  8
CYAN
 10
10984.3068290187
 20
587.2474610076
 40
5.940619206
 50
200.3533640634
 51
248.1338767031
  0
LINE
  8
CYAN
 10
10982.09431
 20
581.73423
 11
10984.22224
 21
581.13401
  0
LINE
  8
CYAN
 10
10984.22224
 20
581.13401
 11
10982.82476
 21
577.48979
  0
LINE
  8
CYAN
 10
11030.89312
 20
597.01641
 11
11029.08213
 21
593.28757
  0
LINE
  8
CYAN
 10
11029.08213
 20
593.28757
 11
11031.29936
 21
592.31362
  0
ARC
  8
CYAN
 10
11030.4035122155
 20
590.2841465831
 40
2.2184015874
 50
359.7345805435
 51
66.1824336823
  0
ARC
  8
CYAN
 10
11030.4035086455
 20
590.2652779127
 40
2.2183979936
 50
293.817708077
 51
0.2219130981
  0
LINE
  8
CYAN
 10
11031.29936
 20
588.23581
 11
11025.77185
 21
585.80777
  0
ARC
  8
CYAN
 10
11026.5836207463
 20
583.9806511162
 40
1.999333679
 50
113.9551017193
 51
178.5134039278
  0
LINE
  8
CYAN
 10
11024.58496
 20
584.03252
 11
11024.53409
 21
582.39964
  0
ARC
  8
CYAN
 10
11024.1991884841
 20
582.4042780899
 40
0.3349336311
 50
283.9195734993
 51
359.2065548322
  0
LINE
  8
CYAN
 10
11024.27976
 20
582.07918
 11
11017.44666
 21
580.49383
  0
ARC
  8
CYAN
 10
11017.52296
 20
580.1632
 40
0.3393197414
 50
102.9947433543
 51
192.9947433536
  0
LINE
  8
CYAN
 10
11017.19233
 20
580.0869
 11
11017.41275
 21
579.09669
  0
ARC
  8
CYAN
 10
11017.7433841573
 20
579.1729936516
 40
0.3393246133
 50
192.9951862998
 51
282.9955660024
  0
LINE
  8
CYAN
 10
11017.81969
 20
578.84236
 11
11024.14411
 21
580.30902
  0
ARC
  8
CYAN
 10
11024.2160639893
 20
579.9818448839
 40
0.3349939301
 50
359.4073720629
 51
102.4033199697
  0
LINE
  8
CYAN
 10
11024.55104
 20
579.97838
 11
11024.55104
 21
572.94182
  0
ARC
  8
CYAN
 10
11024.2174876888
 20
572.9365880204
 40
0.3335933422
 50
260.2632753532
 51
0.8986469591
  0
LINE
  8
CYAN
 10
11024.16107
 20
572.6078
 11
11016.14109
 21
574.13549
  0
ARC
  8
CYAN
 10
11016.0722870923
 20
573.7974180737
 40
0.3450021267
 50
78.4965178749
 51
168.5509119373
  0
LINE
  8
CYAN
 10
11015.73415
 20
573.8659
 11
11015.54764
 21
572.86722
  0
ARC
  8
CYAN
 10
11015.8818493029
 20
572.8046110196
 40
0.34002315
 50
169.3894974899
 51
259.3362921646
  0
LINE
  8
CYAN
 10
11015.81893
 20
572.47046
 11
11024.29671
 21
570.85459
  0
ARC
  8
CYAN
 10
11024.2311411361
 20
570.5238985587
 40
0.3371292116
 50
357.7052797096
 51
78.7849630655
  0
ARC
  8
CYAN
 10
11019.9317819742
 20
570.6694011563
 40
4.6389437322
 50
242.6805047311
 51
358.0357856413
  0
ARC
  8
CYAN
 10
11010.1839688734
 20
551.4951080357
 40
16.871024418
 50
63.1543518133
 51
91.8811653015
  0
ARC
  8
CYAN
 10
11009.5457280345
 20
572.1547619003
 40
3.7986601191
 50
180.6600821284
 51
271.2734544386
  0
LINE
  8
CYAN
 10
11005.74732
 20
572.111
 11
11005.61168
 21
582.21482
  0
ARC
  8
CYAN
 10
11005.9499096757
 20
582.2207396709
 40
0.3382814746
 50
89.8508965884
 51
181.0026841405
  0
LINE
  8
CYAN
 10
11005.95079
 20
582.55902
 11
11012.46173
 21
582.55902
  0
ARC
  8
CYAN
 10
11012.46173
 20
582.89813
 40
0.33911
 50
270.0
 51
0.0000000001
  0
LINE
  8
CYAN
 10
11012.80084
 20
582.89813
 11
11012.80084
 21
583.91553
  0
ARC
  8
CYAN
 10
11012.46173
 20
583.91553
 40
0.33911
 50
-0.0
 51
90.0
  0
LINE
  8
CYAN
 10
11012.46173
 20
584.25464
 11
11005.95079
 21
584.25464
  0
ARC
  8
CYAN
 10
11005.95079
 20
584.59375
 40
0.33911
 50
179.9999999997
 51
269.9999999997
  0
LINE
  8
CYAN
 10
11005.61168
 20
584.59375
 11
11005.61168
 21
589.08698
  0
ARC
  8
CYAN
 10
11005.95079
 20
589.08698
 40
0.33911
 50
90.0
 51
180.0000000003
  0
LINE
  8
CYAN
 10
11005.95079
 20
589.42609
 11
11015.37808
 21
589.42609
  0
ARC
  8
CYAN
 10
11015.3780899999
 20
589.7651999999
 40
0.3391100001
 50
269.9983104193
 51
0.000000012
  0
LINE
  8
CYAN
 10
11015.7172
 20
589.7652
 11
11015.7172
 21
590.78253
  0
ARC
  8
CYAN
 10
11015.37809
 20
590.78254
 40
0.3391100001
 50
359.9983104072
 51
90.0016895927
  0
LINE
  8
CYAN
 10
11015.37808
 20
591.12165
 11
11005.95079
 21
591.12165
  0
ARC
  8
CYAN
 10
11005.95079
 20
591.46076
 40
0.33911
 50
179.9999999997
 51
269.9999999997
  0
LINE
  8
CYAN
 10
11005.61168
 20
591.46076
 11
11005.61168
 21
595.95568
  0
ARC
  8
CYAN
 10
11005.95079
 20
595.95568
 40
0.33911
 50
90.0
 51
180.0000000002
  0
LINE
  8
CYAN
 10
11005.95079
 20
596.29479
 11
11012.46173
 21
596.29479
  0
ARC
  8
CYAN
 10
11012.46173
 20
596.6339
 40
0.33911
 50
270.0
 51
-0.0000000001
  0
LINE
  8
CYAN
 10
11012.80084
 20
596.6339
 11
11012.80084
 21
597.65123
  0
ARC
  8
CYAN
 10
11012.46173
 20
597.65123
 40
0.33911
 50
0.0000000001
 51
90.0
  0
LINE
  8
CYAN
 10
11012.46173
 20
597.99034
 11
11005.95079
 21
597.99034
  0
ARC
  8
CYAN
 10
11005.9499322937
 20
598.3286176833
 40
0.3382787707
 50
179.2831350009
 51
270.1452736875
  0
LINE
  8
CYAN
 10
11005.61168
 20
598.33285
 11
11005.74732
 21
608.43667
  0
ARC
  8
CYAN
 10
11009.5482691211
 20
608.3954291492
 40
3.8011728492
 50
88.7656989416
 51
179.3783568518
  0
ARC
  8
CYAN
 10
11010.187288236
 20
629.0568018215
 40
16.8702840286
 50
268.1074725933
 51
296.8342863279
  0
ARC
  8
CYAN
 10
11019.9310287095
 20
609.8804407562
 40
4.639680406
 50
1.9580712654
 51
117.3043270196
  0
ARC
  8
CYAN
 10
11024.2319692919
 20
610.0248091016
 40
0.3363289578
 50
281.0982632311
 51
2.4131125594
  0
LINE
  8
CYAN
 10
11024.29671
 20
609.69477
 11
11015.81893
 21
608.07891
  0
ARC
  8
CYAN
 10
11015.8826431525
 20
607.7442146106
 40
0.3407056933
 50
100.7779624905
 51
190.4975935153
  0
LINE
  8
CYAN
 10
11015.54764
 20
607.68214
 11
11015.73415
 21
606.68346
  0
ARC
  8
CYAN
 10
11016.0722870923
 20
606.7519419263
 40
0.3450021267
 50
191.449088062
 51
281.5034821249
  0
LINE
  8
CYAN
 10
11016.14109
 20
606.41387
 11
11024.16107
 21
607.93987
  0
ARC
  8
CYAN
 10
11024.2183195272
 20
607.6120804029
 40
0.3327514512
 50
359.2181732089
 51
99.906968898
  0
LINE
  8
CYAN
 10
11024.55104
 20
607.60754
 11
11024.55104
 21
600.55742
  0
ARC
  8
CYAN
 10
11024.2167188945
 20
600.5531491018
 40
0.3343483844
 50
257.4574034322
 51
0.7319045354
  0
LINE
  8
CYAN
 10
11024.14411
 20
600.22678
 11
11017.83664
 21
601.70531
  0
ARC
  8
CYAN
 10
11017.7510141116
 20
601.3670464905
 40
0.3489326505
 50
75.7948962352
 51
165.7952991734
  0
LINE
  8
CYAN
 10
11017.41275
 20
601.45267
 11
11017.19233
 21
600.46247
  0
ARC
  8
CYAN
 10
11017.5228182831
 20
600.3847027586
 40
0.3395147259
 50
166.7586106814
 51
257.0373925543
  0
LINE
  8
CYAN
 10
11017.44666
 20
600.05384
 11
11024.27976
 21
598.45493
  0
ARC
  8
CYAN
 10
11024.1981401019
 20
598.1289998716
 40
0.335994429
 50
0.9328402161
 51
75.9410314522
  0
LINE
  8
CYAN
 10
11024.53409
 20
598.13447
 11
11024.58496
 21
596.51691
  0
ARC
  8
CYAN
 10
11026.5836207463
 20
596.5687788837
 40
1.999333679
 50
181.4865960721
 51
246.0448982807
  0
LINE
  8
CYAN
 10
11025.77185
 20
594.74166
 11
11028.5356
 21
593.52764
  0
LINE
  8
CYAN
 10
11028.5356
 20
593.52764
 11
11029.78952
 21
597.50059
  0
ARC
  8
CYAN
 10
10988.4302834726
 20
588.0941223935
 40
0.2835027137
 50
47.3916658184
 51
92.3335760893
  0
LINE
  8
CYAN
 10
10988.41874
 20
588.37739
 11
10988.30005
 21
588.37739
  0
ARC
  8
CYAN
 10
10988.2983500281
 20
588.0738900278
 40
0.3035047332
 50
89.679076749
 51
179.6809645246
  0
LINE
  8
CYAN
 10
10987.99485
 20
588.07558
 11
10987.99485
 21
587.62117
  0
ARC
  8
CYAN
 10
10988.2992
 20
587.62202
 40
0.304351187
 50
180.1600173685
 51
270.1600173685
  0
LINE
  8
CYAN
 10
10988.30005
 20
587.31767
 11
10988.36787
 21
587.31767
  0
ARC
  8
CYAN
 10
10988.36872
 20
587.62202
 40
0.304351187
 50
269.8399826322
 51
359.8399826322
  0
LINE
  8
CYAN
 10
10988.67307
 20
587.62117
 11
10988.67307
 21
587.69747
  0
ARC
  8
CYAN
 10
10988.3695649722
 20
587.6957749719
 40
0.303509761
 50
0.319984634
 51
90.3199740924
  0
LINE
  8
CYAN
 10
10988.36787
 20
587.99928
 11
10988.30005
 21
587.99928
  0
ARC
  8
CYAN
 10
10988.2983500281
 20
587.6957800278
 40
0.3035047332
 50
89.6790767487
 51
179.6809645246
  0
ARC
  8
CYAN
 10
11014.2598019548
 20
583.6000827849
 40
0.3057923397
 50
48.4865117181
 51
93.3261471648
  0
LINE
  8
CYAN
 10
11014.24206
 20
583.90536
 11
11014.12337
 21
583.90536
  0
ARC
  8
CYAN
 10
11014.1225200139
 20
583.6010100138
 40
0.3043511731
 50
89.8399852446
 51
179.8418677925
  0
LINE
  8
CYAN
 10
11013.81817
 20
583.60185
 11
11013.81817
 21
583.14744
  0
ARC
  8
CYAN
 10
11014.1217099724
 20
583.1491100273
 40
0.3035445665
 50
180.3152288263
 51
270.3133412971
  0
LINE
  8
CYAN
 10
11014.12337
 20
582.84557
 11
11014.1912
 21
582.84557
  0
ARC
  8
CYAN
 10
11014.1928600276
 20
583.1491100273
 40
0.3035445665
 50
269.6866587033
 51
359.6847711744
  0
LINE
  8
CYAN
 10
11014.4964
 20
583.14744
 11
11014.4964
 21
583.22374
  0
ARC
  8
CYAN
 10
11014.1928950278
 20
583.2220450281
 40
0.3035097051
 50
0.3199740916
 51
90.3199846343
  0
LINE
  8
CYAN
 10
11014.1912
 20
583.52555
 11
11014.12337
 21
583.52555
  0
ARC
  8
CYAN
 10
11014.1216749722
 20
583.2220450281
 40
0.3035097051
 50
89.680015365
 51
179.6800259077
  0
LINE
  8
CYAN
 10
11014.53031
 20
597.57324
 11
11013.85208
 21
597.57324
  0
LINE
  8
CYAN
 10
11013.85208
 20
597.57324
 11
11013.85208
 21
597.19513
  0
LINE
  8
CYAN
 10
11013.85208
 20
597.19513
 11
11014.22511
 21
597.19513
  0
ARC
  8
CYAN
 10
11014.2259599861
 20
596.8907800138
 40
0.3043511731
 50
0.1581322066
 51
90.1600147544
  0
LINE
  8
CYAN
 10
11014.53031
 20
596.89162
 11
11014.53031
 21
596.81532
  0
ARC
  8
CYAN
 10
11014.226805056
 20
596.8170249997
 40
0.303509733
 50
269.680010063
 51
359.6781328922
  0
LINE
  8
CYAN
 10
11014.22511
 20
596.51352
 11
11014.07251
 21
596.51352
  0
ARC
  8
CYAN
 10
11014.0526125196
 20
596.8176925316
 40
0.3048226348
 50
228.8626578024
 51
273.7426774614
  0
LINE
  8
CYAN
 10
10961.52599
 20
626.93916
 11
10965.01321
 21
625.44152
  0
ARC
  8
CYAN
 10
10965.3022301524
 20
625.261379304
 40
0.3405632377
 50
148.0655073359
 51
236.6369409321
  0
LINE
  8
CYAN
 10
10965.11494
 20
624.97694
 11
10967.35307
 21
623.43907
  0
ARC
  8
CYAN
 10
10967.1607499369
 20
623.1611703509
 40
0.3379574258
 50
325.0773816635
 51
55.3148828348
  0
LINE
  8
CYAN
 10
10967.43785
 20
622.9677
 11
10966.86136
 21
622.1301
  0
ARC
  8
CYAN
 10
10966.5799
 20
622.32339
 40
0.3414392416
 50
235.5210343049
 51
325.5210343049
  0
LINE
  8
CYAN
 10
10966.38661
 20
622.04193
 11
10964.14847
 21
623.5798
  0
ARC
  8
CYAN
 10
10963.9612954095
 20
623.3044091839
 40
0.3329781208
 50
55.7972696446
 51
144.3647351315
  0
ARC
  8
CYAN
 10
10955.5017209317
 20
629.4353601486
 40
10.1146558968
 50
234.0714891442
 51
324.0580620621
  0
ARC
  8
CYAN
 10
10980.4094136791
 20
663.8076569992
 40
52.5628354664
 50
210.0987786634
 51
234.0712918286
  0
ARC
  8
CYAN
 10
10933.7335080757
 20
636.7509689954
 40
1.3881103524
 50
30.1323886625
 51
205.002651147
  0
ARC
  8
CYAN
 10
10978.5886438053
 20
657.6127748216
 40
50.8572731791
 50
204.9444381414
 51
227.6745689154
  0
ARC
  8
CYAN
 10
10957.021489447
 20
633.9417222721
 40
18.8344569704
 50
227.6946766982
 51
288.0039448091
  0
LINE
  8
CYAN
 10
10962.84289
 20
616.02949
 11
10967.08179
 21
617.40458
  0
ARC
  8
CYAN
 10
10967.8725438632
 20
614.9764292408
 40
2.5536655579
 50
49.7246673517
 51
108.0384063262
  0
LINE
  8
CYAN
 10
10969.52339
 20
616.92474
 11
10973.2197
 21
613.77949
  0
ARC
  8
CYAN
 10
10974.3830342987
 20
615.1498505732
 40
1.7975635708
 50
229.6712172257
 51
325.5178141156
  0
LINE
  8
CYAN
 10
10975.86477
 20
614.13216
 11
10978.13681
 21
617.44867
  0
ARC
  8
CYAN
 10
10976.6558589552
 20
618.4583243062
 40
1.7923776987
 50
325.7153691219
 51
61.5599160513
  0
LINE
  8
CYAN
 10
10977.50946
 20
620.03439
 11
10973.25361
 21
622.36239
  0
ARC
  8
CYAN
 10
10974.4764323598
 20
624.5986762455
 40
2.5487782751
 50
182.9710404938
 51
241.3297465013
  0
LINE
  8
CYAN
 10
10971.93108
 20
624.46657
 11
10971.6937
 21
628.91402
  0
ARC
  8
CYAN
 10
10952.8877202021
 20
627.8932196919
 40
18.8336642592
 50
3.1070015518
 51
63.4128414496
  0
ARC
  8
CYAN
 10
10938.5279116962
 20
599.296109537
 40
50.8336352315
 50
63.3650067025
 51
86.0975441369
  0
ARC
  8
CYAN
 10
10941.8891704795
 20
648.626064104
 40
1.3893035045
 50
85.939366223
 51
260.731185425
  0
ARC
  8
CYAN
 10
10933.4078573558
 20
595.3418710163
 40
52.5656692983
 50
56.9885528553
 51
80.9619686036
  0
ARC
  8
CYAN
 10
10956.5370217631
 20
630.9473027617
 40
10.1073959706
 50
330.3920671822
 51
56.9724464308
  0
LINE
  8
CYAN
 10
10965.32466
 20
625.95362
 11
10962.27938
 21
628.02124
  0
ARC
  8
CYAN
 10
10967.6997303806
 20
621.6113364219
 40
0.227214082
 50
141.2095871319
 51
230.9350987876
  0
LINE
  8
CYAN
 10
10967.52263
 20
621.75368
 11
10967.67523
 21
621.92833
  0
ARC
  8
CYAN
 10
10967.8423089432
 20
621.7894099002
 40
0.2172882127
 50
50.5311732495
 51
140.2577019096
  0
LINE
  8
CYAN
 10
10967.98043
 20
621.95715
 11
10968.04825
 21
621.90798
  0
ARC
  8
CYAN
 10
10967.9039815755
 20
621.7299468176
 40
0.2291488432
 50
1.6962970338
 51
50.9805692108
  0
LINE
  8
CYAN
 10
10968.13303
 20
621.73673
 11
10968.1839
 21
620.89912
  0
LINE
  8
CYAN
 10
10968.1839
 20
620.89912
 11
10968.62474
 21
621.42135
  0
ARC
  8
CYAN
 10
10968.69511
 20
621.84948
 40
0.2167690388
 50
230.3944375796
 51
320.3944375797
  0
LINE
  8
CYAN
 10
10968.86212
 20
621.71129
 11
10969.01472
 21
621.88594
  0
ARC
  8
CYAN
 10
10968.8366993954
 20
622.0281856837
 40
0.2278709508
 50
321.3737268442
 51
50.7709590753
  0
LINE
  8
CYAN
 10
10968.98081
 20
622.2047
 11
10968.92994
 21
622.25387
  0
ARC
  8
CYAN
 10
10968.7833443776
 20
622.077609497
 40
0.2292554065
 50
50.2497483851
 51
139.9745582109
  0
ARC
  8
CYAN
 10
10968.4306
 20
622.36832
 40
0.227865287
 50
321.0421368446
 51
51.0421368431
  0
LINE
  8
CYAN
 10
10968.57387
 20
622.54551
 11
10968.52301
 21
622.59468
  0
ARC
  8
CYAN
 10
10968.3763445164
 20
622.4191904042
 40
0.2287080286
 50
50.1127986773
 51
140.1147209599
  0
LINE
  8
CYAN
 10
10968.20085
 20
622.56585
 11
10968.06521
 21
622.39291
  0
ARC
  8
CYAN
 10
10968.2339202498
 20
622.2411552777
 40
0.2269199069
 50
138.0286466644
 51
228.0267694556
  0
LINE
  8
CYAN
 10
10918.56831
 20
616.39791
 11
10913.61377
 21
618.64431
  0
ARC
  8
CYAN
 10
10913.3323397418
 20
618.8339914203
 40
0.3393847838
 50
326.0203902038
 51
54.5873563328
  0
LINE
  8
CYAN
 10
10913.529
 20
619.11059
 11
10911.32477
 21
620.70442
  0
ARC
  8
CYAN
 10
10911.5283489282
 20
620.9749974762
 40
0.3386097321
 50
143.2744948713
 51
233.0426793933
  0
LINE
  8
CYAN
 10
10911.25695
 20
621.17748
 11
10911.85039
 21
622.00152
  0
ARC
  8
CYAN
 10
10912.12592
 20
621.80229
 40
0.3400137847
 50
54.1300924504
 51
144.1300924502
  0
LINE
  8
CYAN
 10
10912.32515
 20
622.07782
 11
10914.52937
 21
620.48399
  0
ARC
  8
CYAN
 10
10914.7312535852
 20
620.7611590607
 40
0.3428989212
 50
233.9312640391
 51
322.7301803848
  0
ARC
  8
CYAN
 10
10923.0321905798
 20
614.4199000777
 40
10.1030157553
 50
52.6463039861
 51
142.6193989673
  0
ARC
  8
CYAN
 10
10897.2630709488
 20
580.66652054
 40
52.5687449088
 50
28.6677637419
 51
52.6411844881
  0
ARC
  8
CYAN
 10
10944.6064448449
 20
606.5519274751
 40
1.3891029569
 50
208.6777881452
 51
23.5129996312
  0
ARC
  8
CYAN
 10
10899.2401095706
 20
586.8195606161
 40
50.8610210249
 50
23.5070937159
 51
46.2389572585
  0
ARC
  8
CYAN
 10
10921.3932635433
 20
609.9411515603
 40
18.8396212531
 50
46.2620296523
 51
106.5668172531
  0
LINE
  8
CYAN
 10
10916.02146
 20
627.9987
 11
10913.88506
 21
627.36456
  0
LINE
  8
CYAN
 10
10913.88506
 20
627.36456
 11
10911.76562
 21
626.73042
  0
ARC
  8
CYAN
 10
10911.0296279394
 20
629.1893082412
 40
2.5666740533
 50
228.3544376584
 51
286.663442757
  0
LINE
  8
CYAN
 10
10909.32402
 20
627.27131
 11
10905.71248
 21
630.50982
  0
ARC
  8
CYAN
 10
10904.5193457634
 20
629.172079541
 40
1.7925174594
 50
48.2701451871
 51
144.0957472599
  0
LINE
  8
CYAN
 10
10903.06741
 20
630.22327
 11
10900.71059
 21
626.96441
  0
ARC
  8
CYAN
 10
10902.1567989313
 20
625.9090151233
 40
1.7903571204
 50
143.8792832374
 51
239.6872371426
  0
LINE
  8
CYAN
 10
10901.25317
 20
624.36343
 11
10905.45815
 21
621.92861
  0
ARC
  8
CYAN
 10
10904.1810335078
 20
619.7217008984
 40
2.5497988779
 50
1.6225816189
 51
59.9424575687
  0
LINE
  8
CYAN
 10
10906.72981
 20
619.7939
 11
10906.86546
 21
615.33968
  0
ARC
  8
CYAN
 10
10925.67951564
 20
615.8675270428
 40
18.8214588203
 50
181.6070685053
 51
241.9137859459
  0
ARC
  8
CYAN
 10
10940.7504636381
 20
644.1665029127
 40
50.8833558348
 50
241.9441337278
 51
264.6759030425
  0
ARC
  8
CYAN
 10
10936.1537802563
 20
594.8853018882
 40
1.38824838
 50
264.8443534302
 51
79.697992436
  0
ARC
  8
CYAN
 10
10945.95942428
 20
647.9398282304
 40
52.5648246719
 50
235.5509716021
 51
259.5241703987
  0
ARC
  8
CYAN
 10
10921.9458293354
 20
612.9245730591
 40
10.1063659822
 50
148.9326217826
 51
235.5234503569
  0
LINE
  8
CYAN
 10
10913.28911
 20
618.13992
 11
10918.00367
 21
615.2336
  0
ARC
  8
CYAN
 10
10909.90729
 20
622.49323
 40
0.2266026275
 50
134.6960559463
 51
225.3039440537
  0
LINE
  8
CYAN
 10
10909.74791
 20
622.65431
 11
10909.90051
 21
622.81369
  0
ARC
  8
CYAN
 10
10910.061585
 20
622.65431
 40
0.2265990733
 50
44.6969451542
 51
135.3030548458
  0
LINE
  8
CYAN
 10
10910.22266
 20
622.81369
 11
10910.29048
 21
622.76113
  0
ARC
  8
CYAN
 10
10910.1232800309
 20
622.6170698917
 40
0.2207014827
 50
351.1433336717
 51
40.7483082027
  0
LINE
  8
CYAN
 10
10910.34135
 20
622.58309
 11
10910.34135
 21
621.74379
  0
LINE
  8
CYAN
 10
10910.34135
 20
621.74379
 11
10910.81611
 21
622.22533
  0
ARC
  8
CYAN
 10
10795.22466
 20
697.63195
 40
0.2249563658
 50
76.4882180647
 51
166.488218065
  0
LINE
  8
CYAN
 10
10795.27722
 20
697.85068
 11
10795.49764
 21
697.79642
  0
ARC
  8
CYAN
 10
10795.44508
 20
697.5743
 40
0.2282539112
 50
346.6870389679
 51
76.6870389685
  0
LINE
  8
CYAN
 10
10795.6672
 20
697.52174
 11
10795.65024
 21
697.44713
  0
ARC
  8
CYAN
 10
10795.431514137
 20
697.499696409
 40
0.2249538408
 50
256.4869798372
 51
346.4863846756
  0
ARC
  8
CYAN
 10
10795.32639
 20
697.05885
 40
0.2282539112
 50
346.6870389679
 51
76.6870389685
  0
LINE
  8
CYAN
 10
10795.54851
 20
697.00629
 11
10795.53155
 21
696.93338
  0
ARC
  8
CYAN
 10
10795.30435
 20
696.99442
 40
0.2352567143
 50
254.9619032543
 51
344.9619032541
  0
LINE
  8
CYAN
 10
10795.24331
 20
696.76722
 11
10795.02289
 21
696.82147
  0
ARC
  8
CYAN
 10
10795.08393
 20
697.03511
 40
0.2221889538
 50
164.0546040992
 51
254.054604099
  0
LINE
  8
CYAN
 10
10810.36316
 20
705.55714
 11
10805.65403
 21
704.34127
  0
LINE
  8
CYAN
 10
10805.65403
 20
704.34127
 11
10805.31491
 21
706.52853
  0
ARC
  8
CYAN
 10
10799.5774743616
 20
704.9940669973
 40
5.9390861596
 50
14.9731790411
 51
62.7500758928
  0
ARC
  8
CYAN
 10
10802.1455583432
 20
709.9758392544
 40
0.3343528762
 50
63.1021501083
 51
165.35384234
  0
LINE
  8
CYAN
 10
10801.82207
 20
710.06038
 11
10800.02478
 21
703.35276
  0
ARC
  8
CYAN
 10
10799.7011957205
 20
703.4376674858
 40
0.3345385883
 50
255.5718202373
 51
345.2972269494
  0
LINE
  8
CYAN
 10
10799.61784
 20
703.11368
 11
10798.63442
 21
703.37649
  0
ARC
  8
CYAN
 10
10798.7139601269
 20
703.7107497928
 40
0.3435931327
 50
166.3370285518
 51
256.6148894354
  0
LINE
  8
CYAN
 10
10798.38009
 20
703.79191
 11
10800.19433
 21
710.55209
  0
ARC
  8
CYAN
 10
10799.8695351517
 20
710.6428080159
 40
0.3372261139
 50
344.3944909351
 51
77.9389211061
  0
ARC
  8
CYAN
 10
10798.7628399279
 20
705.1585229972
 40
5.9320385155
 50
78.5541881439
 51
135.0432521861
  0
LINE
  8
CYAN
 10
10794.56509
 20
709.34994
 11
10791.10615
 21
705.891
  0
ARC
  8
CYAN
 10
10787.2842061092
 20
709.4126411944
 40
5.1970387536
 50
244.7823968952
 51
317.3417030669
  0
LINE
  8
CYAN
 10
10785.06997
 20
704.7109
 11
10778.96597
 21
707.89515
  0
ARC
  8
CYAN
 10
10777.3706448733
 20
705.0831300027
 40
3.233035528
 50
60.4327377683
 51
119.5061496152
  0
ARC
  8
CYAN
 10
10777.8654366167
 20
703.6301977758
 40
4.7497765183
 50
116.0664754208
 51
163.1422074088
  0
LINE
  8
CYAN
 10
10773.31977
 20
705.00762
 11
10773.15021
 21
704.39552
  0
ARC
  8
CYAN
 10
10773.4763384623
 20
704.3063526909
 40
0.3380984811
 50
164.7083923302
 51
254.7819644039
  0
LINE
  8
CYAN
 10
10773.38759
 20
703.98011
 11
10793.59862
 21
698.58146
  0
ARC
  8
CYAN
 10
10793.5085996953
 20
698.2544905333
 40
0.3391352053
 50
344.8835008652
 51
74.6068558691
  0
LINE
  8
CYAN
 10
10793.836
 20
698.16605
 11
10793.58166
 21
697.18263
  0
ARC
  8
CYAN
 10
10793.2501783462
 20
697.2750290672
 40
0.3441186924
 50
254.4228157358
 51
344.4244195862
  0
LINE
  8
CYAN
 10
10793.15777
 20
696.94355
 11
10772.9637
 21
702.3422
  0
ARC
  8
CYAN
 10
10772.8715545736
 20
702.0108969179
 40
0.3438786295
 50
74.4571393931
 51
164.7340648549
  0
LINE
  8
CYAN
 10
10772.53981
 20
702.10144
 11
10772.40417
 21
701.6199
  0
ARC
  8
CYAN
 10
10776.9935718301
 20
700.4037692541
 40
4.7477977157
 50
165.1584814766
 51
214.171422354
  0
ARC
  8
CYAN
 10
10775.8506900926
 20
699.3870799384
 40
3.2373147175
 50
210.6428332964
 51
262.0921586597
  0
ARC
  8
CYAN
 10
10768.9506515289
 20
665.1295751292
 40
31.7147525186
 50
55.9360310857
 51
78.2570105635
  0
ARC
  8
CYAN
 10
10803.1432518838
 20
718.1272799711
 40
31.370584387
 50
238.419623626
 51
299.821269639
  0
ARC
  8
CYAN
 10
10817.7484398553
 20
692.1939232318
 40
1.6239120808
 50
307.7987933119
 51
57.3298742403
  0
ARC
  8
CYAN
 10
10820.452658721
 20
696.4168139748
 40
3.3906278382
 50
158.2915904329
 51
237.3827982579
  0
ARC
  8
CYAN
 10
10815.7936031771
 20
698.2709656679
 40
1.6238190859
 50
338.3146645151
 51
94.1970845432
  0
LINE
  8
CYAN
 10
10815.67476
 20
699.89043
 11
10808.99427
 21
699.39702
  0
ARC
  8
CYAN
 10
10809.2154943889
 20
702.6497759681
 40
3.2602701757
 50
188.7466683958
 51
266.1092271548
  0
LINE
  8
CYAN
 10
10805.99314
 20
702.154
 11
10805.74539
 21
703.75195
  0
LINE
  8
CYAN
 10
10805.74539
 20
703.75195
 11
10810.53951
 21
704.08871
  0
LINE
  8
CYAN
 10
10799.43133
 20
702.15569
 11
10798.77007
 21
702.31847
  0
LINE
  8
CYAN
 10
10798.77007
 20
702.31847
 11
10798.68529
 21
701.95053
  0
LINE
  8
CYAN
 10
10798.68529
 20
701.95053
 11
10799.04136
 21
701.86067
  0
ARC
  8
CYAN
 10
10798.9676961935
 20
701.5668863247
 40
0.3028782003
 50
346.1591402739
 51
75.9237691587
  0
LINE
  8
CYAN
 10
10799.26178
 20
701.49443
 11
10799.24482
 21
701.41982
  0
ARC
  8
CYAN
 10
10798.95658
 20
701.48764
 40
0.2961112122
 50
256.759701674
 51
346.7597016737
  0
LINE
  8
CYAN
 10
10798.88876
 20
701.1994
 11
10798.73616
 21
701.23501
  0
ARC
  8
CYAN
 10
10798.7889551015
 20
701.5434431023
 40
0.3129190012
 50
215.0201502871
 51
260.2867045447
  0
LINE
  8
CYAN
 10
10893.22686
 20
582.2604
 11
10898.35327
 21
580.79157
  0
LINE
  8
CYAN
 10
10898.35327
 20
580.79157
 11
10898.455
 21
581.22756
  0
ARC
  8
CYAN
 10
10890.1495979704
 20
583.2118131219
 40
8.5391430088
 50
346.5632702185
 51
79.4934705695
  0
ARC
  8
CYAN
 10
10881.3535123483
 20
535.800189953
 40
56.7598142218
 50
79.4902231297
 51
98.2161556427
  0
ARC
  8
CYAN
 10
10873.0573699404
 20
593.2906903048
 40
1.3261963277
 50
104.1391410096
 51
278.0060732021
  0
ARC
  8
CYAN
 10
10886.8020401361
 20
539.6101209005
 40
56.7384549591
 50
85.7967824239
 51
104.3565810624
  0
ARC
  8
CYAN
 10
10889.9442404668
 20
582.3984494956
 40
13.8349065801
 50
359.7853946233
 51
85.7868948011
  0
ARC
  8
CYAN
 10
10906.83155751
 20
583.3714119661
 40
3.2199348093
 50
198.5578331424
 51
264.855092213
  0
LINE
  8
CYAN
 10
10906.54281
 20
580.16445
 11
10910.40868
 21
580.04915
  0
ARC
  8
CYAN
 10
10910.3460060232
 20
578.1711352349
 40
1.8790602666
 50
346.3573614656
 51
88.0886081382
  0
LINE
  8
CYAN
 10
10912.17205
 20
577.72793
 11
10911.2395
 21
573.79763
  0
ARC
  8
CYAN
 10
10909.4015828749
 20
574.2406413766
 40
1.890555061
 50
244.7265025466
 51
346.4479426628
  0
LINE
  8
CYAN
 10
10908.59443
 20
572.53105
 11
10905.11854
 21
574.17066
  0
ARC
  8
CYAN
 10
10903.926924909
 20
571.1643510129
 40
3.2338584154
 50
68.3780384778
 51
134.9396885404
  0
ARC
  8
CYAN
 10
10889.2936680497
 20
579.6893292801
 40
13.8341487025
 50
247.3135281761
 51
333.2075057532
  0
ARC
  8
CYAN
 10
10905.8557786727
 20
619.3001808284
 40
56.7680870974
 50
228.7509692119
 51
247.3102498611
  0
ARC
  8
CYAN
 10
10869.3050286593
 20
577.6158883028
 40
1.3285961661
 50
54.7727858035
 51
228.6165410624
  0
ARC
  8
CYAN
 10
10902.7196647723
 20
625.1317625217
 40
56.7600990037
 50
234.8865260528
 51
253.6114315879
  0
ARC
  8
CYAN
 10
10889.1143086159
 20
578.8714391982
 40
8.5405673821
 50
253.6129203305
 51
346.5521299142
  0
LINE
  8
CYAN
 10
10897.42071
 20
576.88524
 11
10897.65809
 21
577.90088
  0
ARC
  8
CYAN
 10
10897.9864196489
 20
577.8238697835
 40
0.3372401693
 50
76.5204073704
 51
166.7998027375
  0
LINE
  8
CYAN
 10
10898.06503
 20
578.15182
 11
10900.67618
 21
577.52786
  0
ARC
  8
CYAN
 10
10900.7543257933
 20
577.8565635725
 40
0.3378650671
 50
256.6267975046
 51
346.6934126028
  0
LINE
  8
CYAN
 10
10901.08312
 20
577.7788
 11
10901.32049
 21
578.76731
  0
ARC
  8
CYAN
 10
10900.9984777921
 20
578.8535138008
 40
0.3333511021
 50
345.0131340075
 51
75.2908099153
  0
LINE
  8
CYAN
 10
10901.08312
 20
579.17594
 11
10898.455
 21
579.8016
  0
ARC
  8
CYAN
 10
10898.5396422079
 20
580.1240261992
 40
0.3333511021
 50
165.0131340075
 51
255.2908099159
  0
LINE
  8
CYAN
 10
10898.21763
 20
580.21023
 11
10892.54466
 21
580.89778
  0
ARC
  8
CYAN
 10
10902.4521167712
 20
578.473388083
 40
0.2228818043
 50
75.6438466418
 51
165.7529634095
  0
LINE
  8
CYAN
 10
10902.50738
 20
578.68931
 11
10902.72781
 21
578.62997
  0
ARC
  8
CYAN
 10
10902.67355
 20
578.40616
 40
0.2302934296
 50
346.3722724399
 51
76.3722724395
  0
LINE
  8
CYAN
 10
10902.89736
 20
578.3519
 11
10902.88041
 21
578.27899
  0
ARC
  8
CYAN
 10
10902.6618513918
 20
578.33567171
 40
0.2257890198
 50
296.2513236796
 51
345.4610332701
  0
LINE
  8
CYAN
 10
10902.76172
 20
578.13317
 11
10902.01567
 21
577.72454
  0
LINE
  8
CYAN
 10
10902.01567
 20
577.72454
 11
10902.67694
 21
577.5482
  0
LINE
  8
CYAN
 10
10807.06147
 20
614.74304
 11
10800.50265
 21
617.03802
  0
ARC
  8
CYAN
 10
10809.6855192641
 20
612.8160297027
 40
10.1069426629
 50
68.6822235619
 51
155.3085374314
  0
ARC
  8
CYAN
 10
10794.2550154963
 20
573.2730463891
 40
52.5539446273
 50
44.7098284585
 51
68.6830323396
  0
ARC
  8
CYAN
 10
10832.5874688871
 20
611.2231289901
 40
1.3866342514
 50
224.8255731977
 51
39.6180784559
  0
ARC
  8
CYAN
 10
10794.4435250162
 20
579.7072659281
 40
50.8660241089
 50
39.5661655672
 51
62.2971905713
  0
ARC
  8
CYAN
 10
10809.3436744711
 20
608.0810897628
 40
18.8178053434
 50
62.3020000458
 51
122.611893982
  0
LINE
  8
CYAN
 10
10799.2019
 20
623.93209
 11
10795.45472
 21
621.53118
  0
ARC
  8
CYAN
 10
10794.0747708476
 20
623.6902700507
 40
2.5624069759
 50
244.2677416095
 51
302.5840534102
  0
LINE
  8
CYAN
 10
10792.96226
 20
621.38197
 11
10787.94341
 21
623.72184
  0
ARC
  8
CYAN
 10
10787.1678723934
 20
622.1096209788
 40
1.7890524731
 50
64.3107064837
 51
160.175180659
  0
LINE
  8
CYAN
 10
10785.48485
 20
622.71637
 11
10784.11145
 21
618.93189
  0
ARC
  8
CYAN
 10
10785.7983405785
 20
618.325078918
 40
1.792712892
 50
160.215242825
 51
256.0499272533
  0
LINE
  8
CYAN
 10
10785.36616
 20
616.58524
 11
10790.72412
 21
615.17623
  0
ARC
  8
CYAN
 10
10790.1062555711
 20
612.6990447778
 40
2.5530771782
 50
17.7076645046
 51
75.9949310562
  0
LINE
  8
CYAN
 10
10792.53837
 20
613.47559
 11
10793.89481
 21
609.23168
  0
ARC
  8
CYAN
 10
10811.8315099727
 20
614.9525500247
 40
18.8269370783
 50
197.689965418
 51
257.9996588427
  0
ARC
  8
CYAN
 10
10818.4987523384
 20
646.2771399737
 40
50.8532079945
 50
257.9899603343
 51
280.720691177
  0
ARC
  8
CYAN
 10
10827.7024297107
 20
597.6754120363
 40
1.3877101325
 50
280.6352497781
 51
95.5358218482
  0
ARC
  8
CYAN
 10
10822.4594886978
 20
651.3910901463
 40
52.5832315001
 50
251.6043609319
 51
275.5757464818
  0
ARC
  8
CYAN
 10
10809.0599989178
 20
611.0811621636
 40
10.1045730167
 50
161.5788498192
 51
251.5697588019
  0
ARC
  8
CYAN
 10
10799.1528672163
 20
614.3824858227
 40
0.3381308994
 50
341.3220624402
 51
69.780716902
  0
LINE
  8
CYAN
 10
10799.26973
 20
614.69978
 11
10796.70944
 21
615.62386
  0
ARC
  8
CYAN
 10
10796.8247289792
 20
615.9426221777
 40
0.3389703153
 50
160.1145135944
 51
250.1161031057
  0
LINE
  8
CYAN
 10
10796.50597
 20
616.05792
 11
10796.84508
 21
617.01422
  0
ARC
  8
CYAN
 10
10797.167231756
 20
616.8955261952
 40
0.3433219673
 50
69.7751405553
 51
159.7741515415
  0
LINE
  8
CYAN
 10
10797.28592
 20
617.21768
 11
10799.84621
 21
616.2953
  0
ARC
  8
CYAN
 10
10799.957997187
 20
616.610528706
 40
0.3344630208
 50
250.4743491454
 51
338.9306451821
  0
LINE
  8
CYAN
 10
10800.2701
 20
616.49029
 11
10806.62681
 21
613.22167
  0
ARC
  8
CYAN
 10
10794.46875401
 20
617.6627669345
 40
0.2289542426
 50
72.1012127563
 51
162.1019818493
  0
LINE
  8
CYAN
 10
10794.53912
 20
617.88064
 11
10794.74259
 21
617.81282
  0
ARC
  8
CYAN
 10
10794.6769987741
 20
617.5947722748
 40
0.2276994058
 50
343.3839290386
 51
73.2581178611
  0
LINE
  8
CYAN
 10
10794.89519
 20
617.52966
 11
10794.87823
 21
617.45676
  0
ARC
  8
CYAN
 10
10794.6571890695
 20
617.5340586586
 40
0.2341669822
 50
291.3891823384
 51
340.7251191013
  0
LINE
  8
CYAN
 10
10794.74259
 20
617.31602
 11
10793.99655
 21
616.93792
  0
LINE
  8
CYAN
 10
10793.99655
 20
616.93792
 11
10794.64086
 21
616.73445
  0
ARC
  8
CYAN
 10
10795.25804
 20
617.42284
 40
0.2189313685
 50
73.8108748167
 51
163.8108748169
  0
LINE
  8
CYAN
 10
10795.31908
 20
617.63309
 11
10795.5395
 21
617.56527
  0
ARC
  8
CYAN
 10
10795.4733768037
 20
617.3465459663
 40
0.2285005033
 50
343.178506387
 51
73.1792320098
  0
LINE
  8
CYAN
 10
10795.6921
 20
617.28042
 11
10795.67515
 21
617.20751
  0
ARC
  8
CYAN
 10
10795.4536665351
 20
617.2852567798
 40
0.2347327992
 50
291.448486373
 51
340.6575255583
  0
LINE
  8
CYAN
 10
10795.5395
 20
617.06678
 11
10794.79346
 21
616.68867
  0
LINE
  8
CYAN
 10
10794.79346
 20
616.68867
 11
10795.43777
 21
616.4852
  0
LINE
  8
CYAN
 10
10898.10158
 20
669.5235
 11
10895.12708
 21
672.98516
  0
ARC
  8
CYAN
 10
10894.8862966748
 20
673.2352198618
 40
0.3471405252
 50
223.7106347101
 51
313.9172853159
  0
LINE
  8
CYAN
 10
10894.63537
 20
672.99534
 11
10892.77025
 21
674.9554
  0
ARC
  8
CYAN
 10
10892.5192924185
 20
674.71377995
 40
0.3483675592
 50
43.9140045312
 51
133.7162449678
  0
LINE
  8
CYAN
 10
10892.27854
 20
674.96557
 11
10891.54945
 21
674.26192
  0
ARC
  8
CYAN
 10
10891.78854
 20
674.022
 40
0.3387117277
 50
134.900721385
 51
225.099278615
  0
LINE
  8
CYAN
 10
10891.54945
 20
673.78208
 11
10893.41456
 21
671.82201
  0
ARC
  8
CYAN
 10
10893.1738
 20
671.58294
 40
0.3392931513
 50
315.201799527
 51
44.7982004731
  0
LINE
  8
CYAN
 10
10893.41456
 20
671.34387
 11
10892.92285
 21
670.8725
  0
ARC
  8
CYAN
 10
10897.859479989
 20
665.7103633706
 40
7.1426864854
 50
133.7207911289
 51
226.6544118482
  0
ARC
  8
CYAN
 10
10925.5118847679
 20
695.0769002454
 40
47.4793774518
 50
226.7117777625
 51
245.4372070211
  0
ARC
  8
CYAN
 10
10905.3130218569
 20
650.885004704
 40
1.1098983758
 50
251.5247155564
 51
65.3932566816
  0
ARC
  8
CYAN
 10
10919.9692753842
 20
694.8481676792
 40
47.4517309245
 50
233.0025689112
 51
251.5619703882
  0
ARC
  8
CYAN
 10
10898.3757902843
 20
666.1989192633
 40
11.5761415257
 50
169.1824238237
 51
233.0292188657
  0
LINE
  8
CYAN
 10
10887.00536
 20
668.37156
 11
10887.80227
 21
672.52567
  0
ARC
  8
CYAN
 10
10884.5163480577
 20
673.1562647327
 40
3.3458829519
 50
349.1365581351
 51
55.4907951481
  0
LINE
  8
CYAN
 10
10886.41192
 20
675.91339
 11
10883.22427
 21
678.09727
  0
ARC
  8
CYAN
 10
10884.2916098487
 20
679.6496118549
 40
1.8838735592
 50
133.8341260113
 51
235.4888498989
  0
LINE
  8
CYAN
 10
10882.98689
 20
681.00854
 11
10885.92021
 21
683.80451
  0
ARC
  8
CYAN
 10
10887.2229393431
 20
682.4440188362
 40
1.8836241526
 50
32.0420627565
 51
133.7575231764
  0
LINE
  8
CYAN
 10
10888.81961
 20
683.44336
 11
10890.85427
 21
680.17602
  0
ARC
  8
CYAN
 10
10893.6900612042
 20
681.951679444
 40
3.3458449179
 50
212.0531581339
 51
278.3779758258
  0
LINE
  8
CYAN
 10
10894.17756
 20
678.64154
 11
10898.36559
 21
679.25703
  0
ARC
  8
CYAN
 10
10900.0509242258
 20
667.8025725173
 40
11.5777781839
 50
34.5201290149
 51
98.3700732019
  0
ARC
  8
CYAN
 10
10870.4738302561
 20
647.4614194566
 40
47.4743935524
 50
15.9609249838
 51
34.5182165213
  0
ARC
  8
CYAN
 10
10915.047297352
 20
660.2106890881
 40
1.1134421887
 50
202.0875110613
 51
15.9151511155
  0
ARC
  8
CYAN
 10
10870.0323737639
 20
641.9570402023
 40
47.4616445019
 50
22.0723122886
 51
40.7980120104
  0
ARC
  8
CYAN
 10
10900.5582817096
 20
668.2994699193
 40
7.1409976212
 50
40.8282538082
 51
133.7655369155
  0
LINE
  8
CYAN
 10
10895.61879
 20
673.45653
 11
10895.55497
 21
673.39739
  0
LINE
  8
CYAN
 10
10895.55497
 20
673.39739
 11
10898.94191
 21
670.33848
  0
ARC
  8
CYAN
 10
10890.25235
 20
675.41405
 40
0.2272012749
 50
135.1515710652
 51
224.8484289348
  0
LINE
  8
CYAN
 10
10890.09127
 20
675.57428
 11
10890.26083
 21
675.73536
  0
ARC
  8
CYAN
 10
10890.42191
 20
675.57343
 40
0.2284033522
 50
45.1507733512
 51
134.8492266488
  0
LINE
  8
CYAN
 10
10890.58299
 20
675.73536
 11
10890.63385
 21
675.6828
  0
ARC
  8
CYAN
 10
10890.4737981159
 20
675.5198949462
 40
0.2283739525
 50
356.2000720115
 51
45.5061675708
  0
LINE
  8
CYAN
 10
10890.70167
 20
675.50476
 11
10890.68472
 21
674.66546
  0
LINE
  8
CYAN
 10
10890.68472
 20
674.66546
 11
10891.15947
 21
675.147
  0
ARC
  8
CYAN
 10
10891.1998247215
 20
675.6075872287
 40
0.30076481
 50
275.2413553853
 51
320.1591355402
  0
LINE
  8
CYAN
 10
10891.43076
 20
675.4149
 11
10891.54945
 21
675.52172
  0
ARC
  8
CYAN
 10
10891.33581
 20
675.73536
 40
0.3021325855
 50
315.0
 51
45.0
  0
LINE
  8
CYAN
 10
10891.54945
 20
675.949
 11
10891.48163
 21
676.00326
  0
ARC
  8
CYAN
 10
10891.269685
 20
675.79215
 40
0.299145642
 50
44.8869132528
 51
135.1130867469
  0
LINE
  8
CYAN
 10
10891.05774
 20
676.00326
 11
10890.78645
 21
675.73536
  0
LINE
  8
CYAN
 10
10890.78645
 20
675.73536
 11
10890.53212
 21
676.00326
  0
LINE
  8
CYAN
 10
10890.53212
 20
676.00326
 11
10891.00687
 21
676.48479
  0
LINE
  8
CYAN
 10
11032.30305
 20
770.29662
 11
11035.65681
 21
765.82188
  0
LINE
  8
CYAN
 10
11035.65681
 20
765.82188
 11
11036.16547
 21
766.31275
  0
ARC
  8
CYAN
 10
11036.4070849153
 20
766.0626500877
 40
0.3477466512
 50
44.0125508987
 51
134.0114061108
  0
LINE
  8
CYAN
 10
11036.65718
 20
766.30427
 11
11038.53925
 21
764.35099
  0
ARC
  8
CYAN
 10
11038.78087
 20
764.58413
 40
0.3357595628
 50
223.9767112861
 51
313.976711286
  0
LINE
  8
CYAN
 10
11039.01401
 20
764.34251
 11
11039.7431
 21
765.04956
  0
ARC
  8
CYAN
 10
11039.5116498298
 20
765.2979551826
 40
0.3395133989
 50
312.9775266789
 51
42.9762919932
  0
LINE
  8
CYAN
 10
11039.76005
 20
765.5294
 11
11037.87799
 21
767.48099
  0
ARC
  8
CYAN
 10
11038.11791
 20
767.72091
 40
0.3392981179
 50
135.0
 51
225.0
  0
LINE
  8
CYAN
 10
11037.87799
 20
767.96083
 11
11038.89532
 21
768.94256
  0
ARC
  8
CYAN
 10
11034.3392604701
 20
773.6722782337
 40
6.5671845573
 50
313.9286033648
 51
39.5366287985
  0
ARC
  8
CYAN
 10
11018.4939552529
 20
760.5323657111
 40
27.1518988553
 50
39.635947995
 51
61.9013209734
  0
ARC
  8
CYAN
 10
11031.9994722965
 20
785.8304050771
 40
1.5254410337
 50
69.3681361511
 51
241.9552770119
  0
ARC
  8
CYAN
 10
11023.8449182219
 20
764.2302112039
 40
24.6136436829
 50
42.47866708
 51
69.3205086111
  0
ARC
  8
CYAN
 10
11033.8178911447
 20
773.393945286
 40
11.0699007935
 50
344.9404377231
 51
42.3564485581
  0
LINE
  8
CYAN
 10
11044.50761
 20
770.51773
 11
11043.54114
 21
766.85872
  0
ARC
  8
CYAN
 10
11046.8190098269
 20
765.9762604788
 40
3.3945788264
 50
164.9322272312
 51
234.8292246471
  0
LINE
  8
CYAN
 10
11044.86368
 20
763.2014
 11
11047.69526
 21
761.2193
  0
ARC
  8
CYAN
 10
11046.4744493111
 20
759.4814988456
 40
2.1237541266
 50
313.9946411397
 51
54.9118400873
  0
LINE
  8
CYAN
 10
11047.94959
 20
757.95366
 11
11045.81319
 21
755.89864
  0
ARC
  8
CYAN
 10
11044.3379970843
 20
757.4269503311
 40
2.1241296115
 50
213.0577966501
 51
313.9868209758
  0
LINE
  8
CYAN
 10
11042.55772
 20
756.26827
 11
11041.62516
 21
757.71458
  0
LINE
  8
CYAN
 10
11041.62516
 20
757.71458
 11
11040.67565
 21
759.16089
  0
ARC
  8
CYAN
 10
11037.827279845
 20
757.3077200626
 40
3.3981541102
 50
33.0483149728
 51
102.9782233278
  0
LINE
  8
CYAN
 10
11037.06412
 20
760.61907
 11
11033.38476
 21
759.77129
  0
ARC
  8
CYAN
 10
11030.9035480337
 20
770.566780555
 40
11.0769593818
 50
225.5289677192
 51
282.9439385876
  0
ARC
  8
CYAN
 10
11040.3657569315
 20
780.2160589617
 40
24.5914680885
 50
198.7075881071
 51
225.5464680798
  0
ARC
  8
CYAN
 10
11018.5183386037
 20
772.8184394238
 40
1.5255959379
 50
26.1201245178
 51
198.7271044343
  0
ARC
  8
CYAN
 10
11044.2516446246
 20
785.4288839162
 40
27.1314512151
 50
206.1061278906
 51
228.374994319
  0
ARC
  8
CYAN
 10
11030.5899919447
 20
770.0530000399
 40
6.5630640094
 50
228.3638962415
 51
313.9886016483
  0
LINE
  8
CYAN
 10
11035.14814
 20
765.33102
 11
11035.22655
 21
765.40669
  0
LINE
  8
CYAN
 10
11035.22655
 20
765.40669
 11
11031.28637
 21
769.18192
  0
LINE
  8
CYAN
 10
10960.42073
 20
598.79256
 11
10957.34347
 21
601.28858
  0
LINE
  8
CYAN
 10
10957.34347
 20
601.28858
 11
10957.91224
 21
601.87989
  0
ARC
  8
CYAN
 10
10957.6629701967
 20
602.1113044341
 40
0.3401294976
 50
317.1273157645
 51
46.9211664047
  0
LINE
  8
CYAN
 10
10957.89528
 20
602.35974
 11
10955.92844
 21
604.23333
  0
ARC
  8
CYAN
 10
10956.16753
 20
604.47325
 40
0.3387117277
 50
134.9007213848
 51
225.0992786152
  0
LINE
  8
CYAN
 10
10955.92844
 20
604.71317
 11
10956.62361
 21
605.44904
  0
ARC
  8
CYAN
 10
10956.8745324228
 20
605.2091198433
 40
0.3471652976
 50
46.0856771719
 51
136.2840733298
  0
LINE
  8
CYAN
 10
10957.11532
 20
605.45921
 11
10959.06521
 21
603.58562
  0
ARC
  8
CYAN
 10
10959.3051351235
 20
603.8374098823
 40
0.3477962187
 50
226.3822411493
 51
316.3834338061
  0
LINE
  8
CYAN
 10
10959.55693
 20
603.59749
 11
10960.52339
 21
604.61991
  0
ARC
  8
CYAN
 10
10965.2707077319
 20
600.09046986
 40
6.5614673381
 50
50.717551939
 51
136.3454239145
  0
ARC
  8
CYAN
 10
10952.2544761437
 20
584.1417518813
 40
27.1474762768
 50
23.4657989988
 51
50.7657212439
  0
ARC
  8
CYAN
 10
10978.3951266583
 20
595.4896088393
 40
1.3500230371
 50
203.4707739188
 51
14.8365913144
  0
ARC
  8
CYAN
 10
10955.9265450478
 20
589.5223317298
 40
24.5975077057
 50
14.8714206061
 51
47.9255146804
  0
ARC
  8
CYAN
 10
10964.9852017709
 20
599.5700695776
 40
11.0691626555
 50
47.879228941
 51
105.2892571478
  0
LINE
  8
CYAN
 10
10962.06635
 20
610.24746
 11
10960.23515
 21
609.74897
  0
LINE
  8
CYAN
 10
10960.23515
 20
609.74897
 11
10958.4209
 21
609.24878
  0
ARC
  8
CYAN
 10
10957.5264389398
 20
612.5241903789
 40
3.3953458938
 50
215.391314498
 51
285.2741229089
  0
LINE
  8
CYAN
 10
10954.7585
 20
610.55775
 11
10952.75774
 21
613.37068
  0
ARC
  8
CYAN
 10
10951.0243029082
 20
612.1385205107
 40
2.1267395605
 50
35.4059263473
 51
136.3554033812
  0
LINE
  8
CYAN
 10
10949.48532
 20
613.60636
 11
10947.45065
 21
611.46657
  0
ARC
  8
CYAN
 10
10948.9791003712
 20
609.9944567643
 40
2.1220928151
 50
136.0756315461
 51
237.0114025481
  0
LINE
  8
CYAN
 10
10947.82368
 20
608.21449
 11
10950.74003
 21
606.34938
  0
ARC
  8
CYAN
 10
10948.9017018981
 20
603.4939453683
 40
3.3960207812
 50
347.3409313926
 51
57.2265754823
  0
LINE
  8
CYAN
 10
10952.21517
 20
602.74971
 11
10951.38434
 21
599.0534
  0
ARC
  8
CYAN
 10
10962.1916703025
 20
596.6355189519
 40
11.0744994031
 50
167.3891116013
 51
224.8079320859
  0
ARC
  8
CYAN
 10
10971.7764305053
 20
606.1335197233
 40
24.5681842129
 50
224.7703509954
 51
257.821272764
  0
ARC
  8
CYAN
 10
10966.8785010211
 20
583.4379334558
 40
1.3501018526
 50
257.8125467531
 51
69.2654293817
  0
ARC
  8
CYAN
 10
10976.9700237094
 20
610.0657011576
 40
27.1257975812
 50
221.9417024938
 51
249.2429825553
  0
ARC
  8
CYAN
 10
10961.6771999146
 20
596.3232743798
 40
6.5655263843
 50
136.3218571014
 51
221.9361468402
  0
LINE
  8
CYAN
 10
10956.92881
 20
600.85747
 11
10959.46946
 21
597.71089
  0
ARC
  8
CYAN
 10
10955.5194662665
 20
605.9742181907
 40
0.3205813536
 50
273.3966369122
 51
318.3149008528
  0
LINE
  8
CYAN
 10
10955.75888
 20
605.76102
 11
10955.8267
 21
605.83563
  0
ARC
  8
CYAN
 10
10955.61306
 20
606.050115
 40
0.3027306803
 50
314.8869141703
 51
45.1130858297
  0
LINE
  8
CYAN
 10
10955.8267
 20
606.2646
 11
10955.50455
 21
606.58506
  0
ARC
  8
CYAN
 10
10955.292605
 20
606.37396
 40
0.299138585
 50
44.8855562192
 51
135.1144437811
  0
LINE
  8
CYAN
 10
10955.08066
 20
606.58506
 11
10955.02979
 21
606.5325
  0
ARC
  8
CYAN
 10
10955.24343
 20
606.318015
 40
0.3027306803
 50
134.8869141703
 51
225.1130858297
  0
LINE
  8
CYAN
 10
10955.02979
 20
606.10353
 11
10955.08066
 21
606.05096
  0
ARC
  8
CYAN
 10
10955.292605
 20
606.26207
 40
0.299145642
 50
224.8869132528
 51
315.1130867469
  0
LINE
  8
CYAN
 10
10955.50455
 20
606.05096
 11
10955.55541
 21
606.10353
  0
ARC
  8
CYAN
 10
10955.34008
 20
606.318015
 40
0.3039256885
 50
315.1126411858
 51
44.8873588142
  0
LINE
  8
CYAN
 10
10877.89068
 20
618.99436
 11
10873.19297
 21
621.2651
  0
LINE
  8
CYAN
 10
10873.19297
 20
621.2651
 11
10872.62496
 21
619.88916
  0
ARC
  8
CYAN
 10
10881.4219784859
 20
616.229935046
 40
9.5277206878
 50
157.4145480299
 51
168.5953927253
  0
ARC
  8
CYAN
 10
10879.238350473
 20
616.5799870742
 40
7.3185266927
 50
167.9014101625
 51
210.4639712662
  0
ARC
  8
CYAN
 10
10879.3747007526
 20
616.4419989126
 40
7.368494493
 50
209.0014393383
 51
220.3720388236
  0
ARC
  8
CYAN
 10
10894.0913377078
 20
632.1194093947
 40
28.836432267
 50
225.1685705476
 51
240.0511690677
  0
ARC
  8
CYAN
 10
10892.5613267649
 20
629.8582283142
 40
26.1141033639
 50
240.4831162704
 51
249.7607334317
  0
ARC
  8
CYAN
 10
10893.587577067
 20
631.8549708774
 40
28.3438881224
 50
249.2106276225
 51
257.4819508336
  0
ARC
  8
CYAN
 10
10896.9061579674
 20
636.839531204
 40
33.9978882837
 50
253.8404835752
 51
261.8559540282
  0
ARC
  8
CYAN
 10
10892.02212
 20
601.92979
 40
1.2565515631
 50
266.9060649983
 51
86.9060649983
  0
ARC
  8
CYAN
 10
10893.6898936729
 20
642.9961290309
 40
42.3566325727
 50
242.7874448111
 51
267.6516064942
  0
ARC
  8
CYAN
 10
10873.9664323681
 20
604.6396212092
 40
0.7738279074
 50
62.7698186029
 51
171.3285412717
  0
ARC
  8
CYAN
 10
10869.7491646132
 20
605.3935412571
 40
3.5106072917
 50
220.9443525156
 51
349.5415953495
  0
ARC
  8
CYAN
 10
10899.1036086185
 20
630.9088918939
 40
42.4042622042
 50
211.223680021
 51
220.9932737256
  0
ARC
  8
CYAN
 10
10865.6124192582
 20
610.6037465983
 40
3.2384787966
 50
124.2216967595
 51
211.1747094073
  0
LINE
  8
CYAN
 10
10863.79111
 20
613.28154
 11
10863.89284
 21
613.34258
  0
ARC
  8
CYAN
 10
10864.0769966031
 20
613.0697006668
 40
0.3292062955
 50
33.7755647587
 51
124.0140202426
  0
LINE
  8
CYAN
 10
10864.35064
 20
613.25272
 11
10866.53791
 21
610.03794
  0
ARC
  8
CYAN
 10
10866.8203469242
 20
610.2310605822
 40
0.3421493466
 50
214.362967654
 51
304.201339418
  0
LINE
  8
CYAN
 10
10867.01267
 20
609.94808
 11
10867.86044
 21
610.52118
  0
ARC
  8
CYAN
 10
10867.6681209641
 20
610.79907536
 40
0.3379533143
 50
304.6853877776
 51
34.9219241739
  0
LINE
  8
CYAN
 10
10867.94522
 20
610.99254
 11
10865.80882
 21
614.12423
  0
ARC
  8
CYAN
 10
10866.0904500223
 20
614.3134801486
 40
0.3393097231
 50
129.0598853756
 51
213.9003682598
  0
ARC
  8
CYAN
 10
10862.8475923762
 20
618.2703251678
 40
4.7766253398
 50
309.3562046771
 51
1.2560385392
  0
ARC
  8
CYAN
 10
10910.0003119791
 20
619.410571655
 40
42.3898924777
 50
174.2119924793
 51
181.3998164605
  0
ARC
  8
CYAN
 10
10865.7251064581
 20
623.9004170603
 40
2.1123839488
 50
354.1608114216
 51
59.1222118023
  0
LINE
  8
CYAN
 10
10866.8092
 20
625.7134
 11
10862.5364
 21
628.26182
  0
ARC
  8
CYAN
 10
10863.6174605849
 20
630.0775870465
 40
2.113220754
 50
143.1700666147
 51
239.231528961
  0
ARC
  8
CYAN
 10
10895.790148071
 20
605.8701768102
 40
42.3758600478
 50
140.4553880002
 51
143.0478391423
  0
ARC
  8
CYAN
 10
10895.8038735942
 20
605.8572419957
 40
42.3946795386
 50
137.8605960719
 51
140.4537180219
  0
ARC
  8
CYAN
 10
10865.9391257339
 20
632.8768700161
 40
2.1210729164
 50
41.7596469221
 51
137.8090557307
  0
LINE
  8
CYAN
 10
10867.52133
 20
634.28952
 11
10870.82767
 21
630.58134
  0
ARC
  8
CYAN
 10
10872.4061985959
 20
631.9912003962
 40
2.1164732138
 50
221.7695859872
 51
286.7155613784
  0
ARC
  8
CYAN
 10
10885.1708311518
 20
589.3960249169
 40
42.3501980375
 50
99.4926646276
 51
106.680390463
  0
ARC
  8
CYAN
 10
10877.4026511344
 20
635.8770208065
 40
4.775460945
 50
279.4458766652
 51
331.3755835203
  0
ARC
  8
CYAN
 10
10881.8870755627
 20
633.4311684559
 40
0.3325998441
 50
66.7551199057
 51
151.6197762925
  0
LINE
  8
CYAN
 10
10882.01834
 20
633.73677
 11
10885.49423
 21
632.2362
  0
ARC
  8
CYAN
 10
10885.6266531069
 20
632.5443572427
 40
0.3354053748
 50
246.7455571284
 51
336.858158183
  0
LINE
  8
CYAN
 10
10885.93507
 20
632.41254
 11
10886.34201
 21
633.34679
  0
ARC
  8
CYAN
 10
10886.0357293189
 20
633.4855317912
 40
0.3362397065
 50
335.6299947334
 51
66.0075221477
  0
LINE
  8
CYAN
 10
10886.17245
 20
633.79272
 11
10882.59483
 21
635.33398
  0
ARC
  8
CYAN
 10
10882.7334619247
 20
635.6418949382
 40
0.337683905
 50
155.8761245096
 51
245.7613923714
  0
LINE
  8
CYAN
 10
10882.42527
 20
635.77991
 11
10882.45918
 21
635.87995
  0
ARC
  8
CYAN
 10
10885.4352391509
 20
634.5929896372
 40
3.2424057496
 50
69.6569480326
 51
156.6145216229
  0
ARC
  8
CYAN
 10
10871.8404416051
 20
597.9021580806
 40
42.3708562083
 50
59.8993137341
 51
69.6682371522
  0
ARC
  8
CYAN
 10
10891.3345295913
 20
631.5214245734
 40
3.5086083723
 50
291.4145700585
 51
59.9719713425
  0
ARC
  8
CYAN
 10
10892.8715617044
 20
627.5234057786
 40
0.7751260456
 50
109.2844457135
 51
217.8491816541
  0
ARC
  8
CYAN
 10
10858.8929369977
 20
600.900726252
 40
42.3910013112
 50
13.2185227683
 51
38.0833504903
  0
ARC
  8
CYAN
 10
10898.9400370265
 20
610.3005592855
 40
1.2555469337
 50
193.501768113
 51
13.52013904
  0
ARC
  8
CYAN
 10
10865.6570660576
 20
598.8743726001
 40
33.9400137907
 50
19.1487202997
 51
27.1622684987
  0
ARC
  8
CYAN
 10
10869.8209587162
 20
603.1607439332
 40
28.3431642251
 50
23.2926156863
 51
31.5597970263
  0
ARC
  8
CYAN
 10
10871.604829354
 20
604.4611708952
 40
26.1430919217
 50
31.1775100141
 51
40.4584492633
  0
ARC
  8
CYAN
 10
10869.6960209441
 20
602.6175502237
 40
28.7922466504
 50
40.7851032775
 51
55.6665868431
  0
ARC
  8
CYAN
 10
10882.2516190596
 20
619.9679938646
 40
7.4062472461
 50
60.1755795943
 51
71.5494758261
  0
ARC
  8
CYAN
 10
10882.1422926122
 20
620.1025400768
 40
7.3146803085
 50
70.4035221272
 51
112.9636637807
  0
ARC
  8
CYAN
 10
10882.9163834964
 20
618.0035171518
 40
9.5499606065
 50
112.3266030056
 51
123.5115629143
  0
LINE
  8
CYAN
 10
10877.6438
 20
625.96603
 11
10876.40605
 21
625.14199
  0
LINE
  8
CYAN
 10
10876.40605
 20
625.14199
 11
10875.15134
 21
624.31965
  0
ARC
  8
CYAN
 10
10874.9616397805
 20
624.605180011
 40
0.3428025094
 50
230.6751078497
 51
303.5992390258
  0
LINE
  8
CYAN
 10
10874.7444
 20
624.34
 11
10872.65887
 21
626.06777
  0
ARC
  8
CYAN
 10
10872.4435344969
 20
625.8083504176
 40
0.3371467019
 50
50.305071133
 51
140.3063787836
  0
LINE
  8
CYAN
 10
10872.18411
 20
626.02368
 11
10871.5398
 21
625.23864
  0
ARC
  8
CYAN
 10
10871.7959003202
 20
625.0174355012
 40
0.338406271
 50
139.1814628623
 51
228.9605425616
  0
LINE
  8
CYAN
 10
10871.57371
 20
624.76219
 11
10873.6762
 21
623.03272
  0
ARC
  8
CYAN
 10
10873.4548793939
 20
622.7798028002
 40
0.3360802295
 50
335.615617609
 51
48.8117581881
  0
LINE
  8
CYAN
 10
10873.76098
 20
622.64105
 11
10873.41981
 21
621.81459
  0
LINE
  8
CYAN
 10
10873.41981
 20
621.81459
 11
10878.35431
 21
620.27661
  0
ARC
  8
CYAN
 10
10870.48008
 20
626.19663
 40
0.2278015206
 50
135.0
 51
225.0
  0
LINE
  8
CYAN
 10
10870.319
 20
626.35771
 11
10870.4716
 21
626.51879
  0
ARC
  8
CYAN
 10
10870.63268
 20
626.35686
 40
0.2284033522
 50
45.1507733512
 51
134.8492266488
  0
LINE
  8
CYAN
 10
10870.79376
 20
626.51879
 11
10870.84462
 21
626.46453
  0
ARC
  8
CYAN
 10
10870.6844126922
 20
626.3015529334
 40
0.228534255
 50
356.2208351755
 51
45.4910249959
  0
LINE
  8
CYAN
 10
10870.91245
 20
626.28649
 11
10870.89549
 21
625.44719
  0
LINE
  8
CYAN
 10
10870.89549
 20
625.44719
 11
10871.3872
 21
625.92873
  0
LINE
  8
CYAN
 10
10882.72732
 20
660.37966
 11
10880.26675
 21
659.86761
  0
LINE
  8
CYAN
 10
10880.26675
 20
659.86761
 11
10881.40956
 21
657.66856
  0
ARC
  8
CYAN
 10
10881.1091199179
 20
657.5115597392
 40
0.3389886795
 50
297.4585688224
 51
27.5901113752
  0
LINE
  8
CYAN
 10
10881.26543
 20
657.21076
 11
10876.06008
 21
654.50296
  0
ARC
  8
CYAN
 10
10876.2174399179
 20
654.2018297392
 40
0.3397669462
 50
117.5899607198
 51
207.4587194774
  0
LINE
  8
CYAN
 10
10875.91595
 20
654.04516
 11
10876.38562
 21
653.14312
  0
ARC
  8
CYAN
 10
10876.6862627595
 20
653.2989522794
 40
0.3386292488
 50
207.3990798798
 51
297.651877694
  0
LINE
  8
CYAN
 10
10876.84342
 20
652.999
 11
10882.04878
 21
655.7068
  0
ARC
  8
CYAN
 10
10882.2047759826
 20
655.4066881096
 40
0.3382334893
 50
27.4643021414
 51
117.465083404
  0
LINE
  8
CYAN
 10
10882.50489
 20
655.56268
 11
10883.64939
 21
653.36524
  0
ARC
  8
CYAN
 10
10886.5073880414
 20
654.8667538177
 40
3.2284201321
 50
207.7162051946
 51
257.1769507858
  0
ARC
  8
CYAN
 10
10884.5257068549
 20
645.5038361135
 40
6.3424786474
 50
42.4030019882
 51
78.4937655084
  0
ARC
  8
CYAN
 10
10885.1280713028
 20
646.4721039898
 40
5.2538201606
 50
345.4280939104
 51
39.0335443114
  0
ARC
  8
CYAN
 10
10887.2271110794
 20
645.7116314535
 40
3.0380919084
 50
297.4488609795
 51
349.3520232797
  0
ARC
  8
CYAN
 10
10887.1291883407
 20
645.4725825124
 40
2.8778494264
 50
272.1505361935
 51
301.3758472859
  0
ARC
  8
CYAN
 10
10887.6198177017
 20
623.6813112461
 40
18.9193185177
 50
91.1588694508
 51
107.2220751765
  0
ARC
  8
CYAN
 10
10880.8888481747
 20
645.2232608576
 40
3.6500211528
 50
201.6453961865
 51
288.0246482733
  0
LINE
  8
CYAN
 10
10877.49621
 20
643.87691
 11
10883.59004
 21
645.50295
  0
ARC
  8
CYAN
 10
10883.5037245138
 20
645.8304577878
 40
0.3386911782
 50
284.7647040347
 51
15.0424720097
  0
LINE
  8
CYAN
 10
10883.83081
 20
645.91836
 11
10883.568
 21
646.90008
  0
ARC
  8
CYAN
 10
10883.2404896976
 20
646.8137601752
 40
0.3386947155
 50
14.765305323
 51
105.0418707213
  0
LINE
  8
CYAN
 10
10883.15259
 20
647.14085
 11
10877.0418
 21
645.50973
  0
ARC
  8
CYAN
 10
10874.8484717312
 20
644.3683092498
 40
2.4725554035
 50
27.4927303567
 51
105.6517952932
  0
LINE
  8
CYAN
 10
10874.1814
 20
646.74918
 11
10857.46661
 21
642.06605
  0
ARC
  8
CYAN
 10
10857.0261056856
 20
643.6376818767
 40
1.6321981518
 50
207.3270600611
 51
285.6573697048
  0
ARC
  8
CYAN
 10
10857.0207000046
 20
643.6464400228
 40
1.631448614
 50
129.267860335
 51
207.6874708488
  0
LINE
  8
CYAN
 10
10855.98808
 20
644.9095
 11
10869.41519
 21
655.91027
  0
ARC
  8
CYAN
 10
10867.8468003477
 20
657.8225216968
 40
2.4731665236
 50
309.3579018977
 51
27.4837320403
  0
LINE
  8
CYAN
 10
10870.04085
 20
658.96388
 11
10874.88506
 21
663.03152
  0
ARC
  8
CYAN
 10
10874.6661901617
 20
663.2909519001
 40
0.3394243905
 50
310.1526675174
 51
40.1191642154
  0
LINE
  8
CYAN
 10
10874.92575
 20
663.50967
 11
10874.27126
 21
664.28962
  0
ARC
  8
CYAN
 10
10874.01184
 20
664.0709
 40
0.3393186921
 50
40.1346249376
 51
130.1346249377
  0
LINE
  8
CYAN
 10
10873.79312
 20
664.33032
 11
10868.96417
 21
660.27285
  0
ARC
  8
CYAN
 10
10872.0126786226
 20
662.2781120821
 40
3.6489013196
 50
126.9269931696
 51
213.3363037256
  0
ARC
  8
CYAN
 10
10858.2290726662
 20
680.1525824571
 40
18.9231958729
 50
307.7739364855
 51
323.8370781437
  0
ARC
  8
CYAN
 10
10875.8002613206
 20
667.2497510416
 40
2.8769239861
 50
113.6545096015
 51
142.8703940768
  0
ARC
  8
CYAN
 10
10876.0466992834
 20
667.1890299813
 40
3.0381002579
 50
65.540799766
 51
117.4549500092
  0
ARC
  8
CYAN
 10
10875.4675968626
 20
665.0347533974
 40
5.2515071276
 50
15.9198288159
 51
69.5244986773
  0
ARC
  8
CYAN
 10
10874.3322393435
 20
665.0874930559
 40
6.3392058167
 50
336.5541892344
 51
12.6449404519
  0
ARC
  8
CYAN
 10
10883.137280203
 20
661.3453440952
 40
3.228557486
 50
157.7997085785
 51
196.5252518062
  0
LINE
  8
CYAN
 10
10880.04208
 20
660.42702
 11
10882.35559
 21
661.44363
  0
ARC
  8
CYAN
 10
10874.8644413634
 20
653.3133751178
 40
0.3023228615
 50
300.0015769151
 51
30.1628285926
  0
LINE
  8
CYAN
 10
10875.01561
 20
653.05156
 11
10874.94949
 21
653.01426
  0
ARC
  8
CYAN
 10
10874.7975792185
 20
653.2756402082
 40
0.3023185385
 50
210.0023939003
 51
300.1645978498
  0
LINE
  8
CYAN
 10
10874.53577
 20
653.12447
 11
10874.49847
 21
653.1906
  0
ARC
  8
CYAN
 10
10874.7611702579
 20
653.3410809641
 40
0.3027473304
 50
120.2443108132
 51
209.8051087488
  0
LINE
  8
CYAN
 10
10874.60868
 20
653.60262
 11
10874.67481
 21
653.64162
  0
ARC
  8
CYAN
 10
10874.8257074794
 20
653.3788006818
 40
0.3030578217
 50
29.8648308699
 51
119.8622499328
  0
LINE
  8
CYAN
 10
10875.08852
 20
653.52971
 11
10875.31573
 21
653.13634
  0
ARC
  8
CYAN
 10
10875.0530297421
 20
652.9858590359
 40
0.3027473304
 50
300.2443108125
 51
29.8051087498
  0
LINE
  8
CYAN
 10
10875.20552
 20
652.72432
 11
10875.11226
 21
652.67006
  0
ARC
  8
CYAN
 10
10874.9378125811
 20
652.9295205236
 40
0.3126526272
 50
259.0213473724
 51
303.9147820212
  0
LINE
  8
CYAN
 10
10824.15446
 20
772.01055
 11
10823.8692
 21
768.45277
  0
ARC
  8
CYAN
 10
10824.9394305249
 20
776.8566958409
 40
8.4717980922
 50
262.7425118736
 51
270.5074399103
  0
ARC
  8
CYAN
 10
10825.0303936811
 20
768.0454764942
 40
0.3401269277
 50
0.1084012696
 51
92.6850768058
  0
LINE
  8
CYAN
 10
10825.37052
 20
768.04612
 11
10825.35357
 21
765.0399
  0
ARC
  8
CYAN
 10
10825.69353
 20
765.03905
 40
0.3399610626
 50
179.8567439969
 51
269.8567439954
  0
LINE
  8
CYAN
 10
10825.69268
 20
764.69909
 11
10826.71001
 21
764.69909
  0
ARC
  8
CYAN
 10
10826.71001
 20
765.03821
 40
0.33912
 50
269.9999999997
 51
0.0000000005
  0
LINE
  8
CYAN
 10
10827.04913
 20
765.03821
 11
10827.06608
 21
768.04612
  0
ARC
  8
CYAN
 10
10827.3977315659
 20
768.0519215581
 40
0.3317023052
 50
88.711577199
 51
181.0021689284
  0
ARC
  8
CYAN
 10
10827.4263446071
 20
776.9102184457
 40
8.5267046879
 50
269.8578500147
 51
281.6736369694
  0
ARC
  8
CYAN
 10
10828.5639787737
 20
772.4581596446
 40
3.9423209719
 50
278.572292423
 51
293.7540411403
  0
ARC
  8
CYAN
 10
10829.3165813607
 20
771.1617613869
 40
2.4582474593
 50
289.8670723514
 51
341.2289873954
  0
ARC
  8
CYAN
 10
10823.6863826912
 20
773.0133702435
 40
8.3850160354
 50
341.629393038
 51
348.9295896215
  0
LINE
  8
CYAN
 10
10831.91537
 20
771.40332
 11
10832.05102
 21
772.08494
  0
LINE
  8
CYAN
 10
10832.05102
 20
772.08494
 11
10832.20362
 21
772.76486
  0
ARC
  8
CYAN
 10
10833.3630782856
 20
772.5097398156
 40
1.1871940973
 50
24.6888906707
 51
167.5907261909
  0
ARC
  8
CYAN
 10
10829.9773200233
 20
770.9548708522
 40
4.9129122814
 50
332.1967804417
 51
24.6718248567
  0
ARC
  8
CYAN
 10
10826.6503756708
 20
773.6545753216
 40
9.1532952715
 50
307.4843890004
 51
326.9550315954
  0
LINE
  8
CYAN
 10
10832.22057
 20
766.39126
 11
10830.30459
 21
765.09416
  0
ARC
  8
CYAN
 10
10831.5346482776
 20
763.8000944584
 40
1.7853988328
 50
133.5473928507
 51
166.8692713198
  0
LINE
  8
CYAN
 10
10829.79593
 20
764.20569
 11
10829.08379
 21
760.86883
  0
ARC
  8
CYAN
 10
10826.2173392199
 20
761.5763993889
 40
2.9524895452
 50
270.0186448224
 51
346.1340106662
  0
ARC
  8
CYAN
 10
10826.2054512473
 20
761.5830890322
 40
2.9592069267
 50
194.1365717903
 51
270.2487766598
  0
LINE
  8
CYAN
 10
10823.33586
 20
760.86035
 11
10822.62372
 21
764.19551
  0
ARC
  8
CYAN
 10
10820.8872624002
 20
763.7912232747
 40
1.782900096
 50
13.1062720079
 51
46.4765077023
  0
LINE
  8
CYAN
 10
10822.11506
 20
765.08399
 11
10820.19908
 21
766.376
  0
ARC
  8
CYAN
 10
10825.7533037219
 20
773.635715987
 40
9.140726304
 50
213.1073886839
 51
232.5813180662
  0
ARC
  8
CYAN
 10
10822.432169934
 20
770.9508821106
 40
4.9115942252
 50
155.5526400152
 51
208.0273295554
  0
ARC
  8
CYAN
 10
10819.0409363604
 20
772.4928303805
 40
1.1862661284
 50
12.500724104
 51
155.5629844391
  0
LINE
  8
CYAN
 10
10820.19908
 20
772.7496
 11
10820.48732
 21
771.38976
  0
ARC
  8
CYAN
 10
10828.7104565609
 20
772.9982730899
 40
8.3789790106
 50
191.0677769281
 51
198.3732404124
  0
ARC
  8
CYAN
 10
10823.0817341081
 20
771.1490458219
 40
2.4543783202
 50
198.8225378873
 51
250.2088548358
  0
ARC
  8
CYAN
 10
10823.8397084737
 20
772.5085432657
 40
3.9982244938
 50
246.5824785631
 51
261.7794984838
  0
LINE
  8
CYAN
 10
10823.26803
 20
768.5514
 11
10823.03927
 21
772.04985
  0
ARC
  8
CYAN
 10
10826.4333257445
 20
763.6494378938
 40
0.2834977178
 50
47.3941068698
 51
92.3360994727
  0
LINE
  8
CYAN
 10
10826.42177
 20
763.9327
 11
10826.30308
 21
763.9327
  0
ARC
  8
CYAN
 10
10826.3013800281
 20
763.6292000278
 40
0.3035047332
 50
89.6790767493
 51
179.6809645242
  0
LINE
  8
CYAN
 10
10825.99788
 20
763.63089
 11
10825.99788
 21
763.17648
  0
ARC
  8
CYAN
 10
10826.30223
 20
763.17733
 40
0.304351187
 50
180.1600173691
 51
270.1600173681
  0
LINE
  8
CYAN
 10
10826.30308
 20
762.87298
 11
10826.3709
 21
762.87298
  0
ARC
  8
CYAN
 10
10826.37175
 20
763.17733
 40
0.304351187
 50
269.8399826322
 51
359.8399826319
  0
LINE
  8
CYAN
 10
10826.6761
 20
763.17648
 11
10826.6761
 21
763.25278
  0
ARC
  8
CYAN
 10
10826.3725999719
 20
763.2510900278
 40
0.3035047332
 50
0.3190354754
 51
90.320923251
  0
LINE
  8
CYAN
 10
10826.3709
 20
763.55459
 11
10826.30308
 21
763.55459
  0
ARC
  8
CYAN
 10
10826.3013800281
 20
763.2510900278
 40
0.3035047332
 50
89.679076749
 51
179.6809645239
  0
LINE
  8
CYAN
 10
10980.04712
 20
752.28722
 11
10978.04573
 21
751.99657
  0
LINE
  8
CYAN
 10
10978.04573
 20
751.99657
 11
10977.73034
 21
753.73439
  0
ARC
  8
CYAN
 10
10977.4008119587
 20
753.6782683093
 40
0.3342729037
 50
9.665268358
 51
88.7369844977
  0
LINE
  8
CYAN
 10
10977.40818
 20
754.01246
 11
10975.00049
 21
754.0379
  0
ARC
  8
CYAN
 10
10975.002185025
 20
754.3787050247
 40
0.3408092399
 50
179.7150449042
 51
269.7150365465
  0
LINE
  8
CYAN
 10
10974.66138
 20
754.3804
 11
10974.67833
 21
755.39773
  0
ARC
  8
CYAN
 10
10975.0157450003
 20
755.3960350504
 40
0.3374192574
 50
89.7104797571
 51
179.7121863498
  0
LINE
  8
CYAN
 10
10975.01745
 20
755.73345
 11
10977.42514
 21
755.70802
  0
ARC
  8
CYAN
 10
10977.4300490806
 20
756.0490392599
 40
0.341054592
 50
269.1752660064
 51
348.4941864264
  0
LINE
  8
CYAN
 10
10977.76425
 20
755.98101
 11
10978.6968
 21
760.63361
  0
ARC
  8
CYAN
 10
10977.4711001157
 20
760.8760498394
 40
1.2494467904
 50
348.8114830981
 51
82.7582750542
  0
ARC
  8
CYAN
 10
10975.2173183359
 20
753.4844900606
 40
8.9615361238
 50
74.3910585016
 51
101.4353847347
  0
ARC
  8
CYAN
 10
10973.6770700665
 20
761.0394800942
 40
1.2512026784
 50
100.8950261507
 51
188.6806433869
  0
LINE
  8
CYAN
 10
10972.4402
 20
760.85064
 11
10972.77931
 21
758.68711
  0
ARC
  8
CYAN
 10
10971.9171120709
 20
758.5502741189
 40
0.8729887326
 50
297.5959794262
 51
9.0179655488
  0
LINE
  8
CYAN
 10
10972.32151
 20
757.7766
 11
10970.40553
 21
756.77622
  0
ARC
  8
CYAN
 10
10971.374243216
 20
754.9267152674
 40
2.0878393259
 50
117.6441527007
 51
179.5440434083
  0
ARC
  8
CYAN
 10
10971.3757458772
 20
754.9190099444
 40
2.0894174202
 50
179.3330829957
 51
241.2769088773
  0
LINE
  8
CYAN
 10
10970.37162
 20
753.08669
 11
10972.27064
 21
752.04901
  0
ARC
  8
CYAN
 10
10971.8511913911
 20
751.2822770948
 40
0.873965951
 50
349.8538797593
 51
61.3187116167
  0
LINE
  8
CYAN
 10
10972.71149
 20
751.12832
 11
10972.32151
 21
748.97327
  0
ARC
  8
CYAN
 10
10973.5512222787
 20
748.7561166099
 40
1.2487385168
 50
169.9854530054
 51
257.8303767413
  0
ARC
  8
CYAN
 10
10975.2529657334
 20
756.3119299329
 40
8.9937725385
 50
257.3800564857
 51
284.4219295289
  0
ARC
  8
CYAN
 10
10977.354191447
 20
748.8382219489
 40
1.2444134177
 50
276.4025536915
 51
10.4129953412
  0
LINE
  8
CYAN
 10
10978.57811
 20
749.06314
 11
10978.15423
 21
751.39876
  0
LINE
  8
CYAN
 10
10978.15423
 20
751.39876
 11
10980.37829
 21
751.31743
  0
ARC
  8
CYAN
 10
10973.00312
 20
755.16036
 40
0.2238356723
 50
90.8677799949
 51
180.8677799948
  0
LINE
  8
CYAN
 10
10972.99973
 20
755.38417
 11
10973.22016
 21
755.38417
  0
ARC
  8
CYAN
 10
10973.2252401118
 20
755.151879893
 40
0.2323456506
 50
1.2553064003
 51
91.2528410183
  0
LINE
  8
CYAN
 10
10973.45753
 20
755.15697
 11
10973.45753
 21
755.08067
  0
ARC
  8
CYAN
 10
10973.22524
 20
755.08575
 40
0.2323455412
 50
268.747185966
 51
358.7471859671
  0
ARC
  8
CYAN
 10
10973.2252401118
 20
754.621169893
 40
0.2323456506
 50
1.2553064005
 51
91.2528410187
  0
LINE
  8
CYAN
 10
10973.45753
 20
754.62626
 11
10973.45753
 21
754.55165
  0
ARC
  8
CYAN
 10
10973.2252401118
 20
754.556740107
 40
0.2323456506
 50
268.7471589803
 51
358.7446935999
  0
LINE
  8
CYAN
 10
10973.22016
 20
754.32445
 11
10972.99973
 21
754.32445
  0
ARC
  8
CYAN
 10
10973.00312
 20
754.54826
 40
0.2238356723
 50
179.1322200059
 51
269.1322200047
  0
ARC
  8
CYAN
 10
10974.0440235093
 20
755.101398684
 40
0.2829482061
 50
46.8624374477
 51
92.0260893059
  0
LINE
  8
CYAN
 10
10974.03402
 20
755.38417
 11
10973.91533
 21
755.38417
  0
ARC
  8
CYAN
 10
10973.9144849721
 20
755.0798150001
 40
0.304356173
 50
89.8409212609
 51
179.839044003
  0
LINE
  8
CYAN
 10
10973.61013
 20
755.08067
 11
10973.61013
 21
754.62626
  0
ARC
  8
CYAN
 10
10973.9136349722
 20
754.6279549719
 40
0.3035097051
 50
180.3199740924
 51
270.3199846353
  0
LINE
  8
CYAN
 10
10973.91533
 20
754.32445
 11
10973.98316
 21
754.32445
  0
ARC
  8
CYAN
 10
10973.9848550278
 20
754.6279549719
 40
0.3035097051
 50
269.6800153657
 51
359.6800259083
  0
LINE
  8
CYAN
 10
10974.28836
 20
754.62626
 11
10974.28836
 21
754.70256
  0
ARC
  8
CYAN
 10
10973.9840050279
 20
754.7017050001
 40
0.304356173
 50
0.1609559973
 51
90.159078738
  0
LINE
  8
CYAN
 10
10973.98316
 20
755.00606
 11
10973.91533
 21
755.00606
  0
ARC
  8
CYAN
 10
10973.9144849721
 20
754.7017050001
 40
0.304356173
 50
89.8409212613
 51
179.839044003
  0
LINE
  8
CYAN
 10
10993.09579
 20
761.08032
 11
10990.22291
 21
758.27688
  0
LINE
  8
CYAN
 10
10990.22291
 20
758.27688
 11
10989.00211
 21
760.31324
  0
ARC
  8
CYAN
 10
10987.9334835006
 20
759.6756892466
 40
1.2443607027
 50
30.8206258078
 51
124.8858345073
  0
ARC
  8
CYAN
 10
10991.2576384763
 20
752.6765602506
 40
8.9781102932
 50
116.7130228252
 51
143.7512937598
  0
ARC
  8
CYAN
 10
10985.0191291894
 20
757.2418463096
 40
1.2476202933
 50
143.4267988377
 51
231.2138135944
  0
LINE
  8
CYAN
 10
10984.2376
 20
756.26934
 11
10985.93315
 21
754.89763
  0
ARC
  8
CYAN
 10
10985.3846409263
 20
754.2171866423
 40
0.873993917
 50
339.7169846835
 51
51.1275246492
  0
LINE
  8
CYAN
 10
10986.20444
 20
753.91421
 11
10985.4584
 21
751.88632
  0
ARC
  8
CYAN
 10
10987.4217614541
 20
751.1689724506
 40
2.0903051706
 50
159.9293628792
 51
221.8756479731
  0
ARC
  8
CYAN
 10
10987.4267647824
 20
751.162378502
 40
2.0896453425
 50
221.6494517143
 51
283.5667597024
  0
LINE
  8
CYAN
 10
10987.91695
 20
749.13104
 11
10990.01944
 21
749.63632
  0
ARC
  8
CYAN
 10
10990.226539894
 20
748.783560043
 40
0.8775476685
 50
32.2189538473
 51
103.6504855838
  0
LINE
  8
CYAN
 10
10990.96896
 20
749.25143
 11
10992.12193
 21
747.39818
  0
ARC
  8
CYAN
 10
10993.1782091418
 20
748.0628526981
 40
1.2480045757
 50
212.1805066173
 51
299.9109036782
  0
ARC
  8
CYAN
 10
10989.3571975755
 20
754.7985470984
 40
8.9919961559
 50
299.6132580827
 51
326.6619039282
  0
ARC
  8
CYAN
 10
10995.937869806
 20
750.6856420778
 40
1.2469943225
 50
318.3391511363
 51
52.3290619061
  0
LINE
  8
CYAN
 10
10996.69994
 20
751.67268
 11
10992.9358
 21
754.56361
  0
ARC
  8
CYAN
 10
10992.7246262012
 20
754.2888702147
 40
0.3465203067
 50
52.4529665783
 51
131.5121210867
  0
LINE
  8
CYAN
 10
10992.49496
 20
754.54835
 11
10990.69767
 21
752.94435
  0
ARC
  8
CYAN
 10
10990.4738546989
 20
753.1952897315
 40
0.3362499633
 50
221.7287731392
 51
311.7300448018
  0
LINE
  8
CYAN
 10
10990.22291
 20
752.97148
 11
10989.54469
 21
753.73109
  0
ARC
  8
CYAN
 10
10989.8007700831
 20
753.9541111763
 40
0.3395812923
 50
130.86258738
 51
221.0527379173
  0
LINE
  8
CYAN
 10
10989.5786
 20
754.21093
 11
10991.37589
 21
755.81323
  0
ARC
  8
CYAN
 10
10991.1511295951
 20
756.0679274491
 40
0.3396881367
 50
311.4271262168
 51
30.5348102485
  0
LINE
  8
CYAN
 10
10991.44371
 20
756.24051
 11
10990.53653
 21
757.75374
  0
LINE
  8
CYAN
 10
10990.53653
 20
757.75374
 11
10993.83925
 21
759.90213
  0
ARC
  8
CYAN
 10
10988.242504923
 20
752.8900950747
 40
0.2238406717
 50
90.8690208873
 51
180.8690597097
  0
LINE
  8
CYAN
 10
10988.23911
 20
753.11391
 11
10988.47649
 21
753.11391
  0
ARC
  8
CYAN
 10
10988.4731000747
 20
752.890099923
 40
0.2238357481
 50
359.1296799862
 51
89.132239417
  0
LINE
  8
CYAN
 10
10988.69691
 20
752.8867
 11
10988.69691
 21
752.8104
  0
ARC
  8
CYAN
 10
10988.4731
 20
752.80701
 40
0.2238356723
 50
270.8677799949
 51
0.8677799953
  0
ARC
  8
CYAN
 10
10988.4731000747
 20
752.359389923
 40
0.2238357481
 50
359.129679986
 51
89.132239417
  0
LINE
  8
CYAN
 10
10988.69691
 20
752.35599
 11
10988.69691
 21
752.27969
  0
ARC
  8
CYAN
 10
10988.4739399436
 20
752.2771499423
 40
0.222984524
 50
270.6552502043
 51
0.6526808765
  0
LINE
  8
CYAN
 10
10988.47649
 20
752.05418
 11
10988.23911
 21
752.05418
  0
ARC
  8
CYAN
 10
10988.2416549423
 20
752.2771449436
 40
0.2229794672
 50
179.3460197962
 51
269.3460491239
  0
LINE
  8
CYAN
 10
10989.52773
 20
753.11391
 11
10988.84951
 21
753.11391
  0
LINE
  8
CYAN
 10
10988.84951
 20
753.11391
 11
10988.84951
 21
752.7341
  0
LINE
  8
CYAN
 10
10988.84951
 20
752.7341
 11
10989.22253
 21
752.7341
  0
ARC
  8
CYAN
 10
10989.2242299719
 20
752.4306000278
 40
0.3035047332
 50
0.3190354754
 51
90.3209232513
  0
LINE
  8
CYAN
 10
10989.52773
 20
752.43229
 11
10989.52773
 21
752.35599
  0
ARC
  8
CYAN
 10
10989.2242249722
 20
752.3576850281
 40
0.303509761
 50
269.6800259086
 51
359.6800153655
  0
LINE
  8
CYAN
 10
10989.22253
 20
752.05418
 11
10989.06993
 21
752.05418
  0
ARC
  8
CYAN
 10
10989.0500540914
 20
752.3583586151
 40
0.304827298
 50
228.8605354183
 51
273.7385568123
  0
LINE
  8
CYAN
 10
10986.4096
 20
745.38898
 11
10983.35996
 21
743.08192
  0
LINE
  8
CYAN
 10
10983.35996
 20
743.08192
 11
10986.65188
 21
741.33719
  0
ARC
  8
CYAN
 10
10986.4928414275
 20
741.037946527
 40
0.3388803973
 50
342.6766212642
 51
62.0107490564
  0
LINE
  8
CYAN
 10
10986.81635
 20
740.93704
 11
10986.09404
 21
738.63617
  0
ARC
  8
CYAN
 10
10986.417727332
 20
738.5347550733
 40
0.3392027067
 50
162.6036321831
 51
252.8756000593
  0
LINE
  8
CYAN
 10
10986.31785
 20
738.21059
 11
10987.28771
 21
737.90708
  0
ARC
  8
CYAN
 10
10987.390141376
 20
738.2296007182
 40
0.3383959226
 50
252.3803462579
 51
342.7407348734
  0
LINE
  8
CYAN
 10
10987.7133
 20
738.1292
 11
10988.43391
 21
740.43007
  0
ARC
  8
CYAN
 10
10988.7578994049
 20
740.3284196134
 40
0.339561387
 50
83.4284717058
 51
162.5809583005
  0
LINE
  8
CYAN
 10
10988.79676
 20
740.66575
 11
10996.19616
 21
739.77558
  0
ARC
  8
CYAN
 10
10995.9852583126
 20
737.9656222903
 40
1.8222037297
 50
349.4091022362
 51
83.3536965088
  0
ARC
  8
CYAN
 10
10984.6609686249
 20
738.1756551731
 40
13.1267676911
 50
330.5754697473
 51
357.6207369119
  0
ARC
  8
CYAN
 10
10994.5031458181
 20
732.6132987234
 40
1.8215654791
 50
243.0736720854
 51
330.877427319
  0
LINE
  8
CYAN
 10
10993.67826
 20
730.98921
 11
10990.82803
 21
732.43722
  0
ARC
  8
CYAN
 10
10990.2492077723
 20
731.2996596565
 40
1.2763536761
 50
63.0317466966
 51
134.5006077404
  0
LINE
  8
CYAN
 10
10989.35459
 20
732.21001
 11
10987.1029
 21
729.999
  0
ARC
  8
CYAN
 10
10984.9638198666
 20
732.176259968
 40
3.0522327541
 50
252.5296048336
 51
314.4932080689
  0
ARC
  8
CYAN
 10
10984.958560019
 20
732.1788899786
 40
3.0531678956
 50
190.7102869544
 51
252.6385750983
  0
LINE
  8
CYAN
 10
10981.95858
 20
731.61148
 11
10981.37022
 21
734.71096
  0
ARC
  8
CYAN
 10
10980.1155636809
 20
734.4735264982
 40
1.276924879
 50
10.7160368049
 51
82.1416758131
  0
LINE
  8
CYAN
 10
10980.29015
 20
735.73846
 11
10977.12285
 21
736.17592
  0
ARC
  8
CYAN
 10
10977.3701959271
 20
737.9802551628
 40
1.8212098691
 50
174.3448075674
 51
262.1943036856
  0
ARC
  8
CYAN
 10
10988.6275630836
 20
736.9330990141
 40
13.1271474103
 50
147.5910892429
 51
174.63837188
  0
ARC
  8
CYAN
 10
10979.206684369
 20
743.2209480852
 40
1.8221402074
 50
61.7895853598
 51
155.7719120553
  0
LINE
  8
CYAN
 10
10980.06803
 20
744.82665
 11
10982.78155
 21
743.38848
  0
LINE
  8
CYAN
 10
10982.78155
 20
743.38848
 11
10984.48554
 21
746.26124
  0
ARC
  8
CYAN
 10
10986.23308
 20
737.48489
 40
0.2274301864
 50
69.9452199819
 51
159.9452199818
  0
LINE
  8
CYAN
 10
10986.31107
 20
737.69853
 11
10986.52471
 21
737.62223
  0
ARC
  8
CYAN
 10
10986.4467210227
 20
737.4085878013
 40
0.2274319011
 50
339.9432854562
 51
69.9456519405
  0
LINE
  8
CYAN
 10
10986.66036
 20
737.33059
 11
10986.63323
 21
737.25938
  0
ARC
  8
CYAN
 10
10986.4207844657
 20
737.3368745227
 40
0.2261382456
 50
290.7680946563
 51
339.9593653687
  0
LINE
  8
CYAN
 10
10986.50097
 20
737.12543
 11
10985.73458
 21
736.78123
  0
LINE
  8
CYAN
 10
10985.73458
 20
736.78123
 11
10986.3755
 21
736.54725
  0
LINE
  8
CYAN
 10
10871.53235
 20
734.01094
 11
10873.48588
 21
732.15212
  0
LINE
  8
CYAN
 10
10873.48588
 20
732.15212
 11
10871.0553
 21
730.92963
  0
ARC
  8
CYAN
 10
10871.6825221208
 20
729.6863472776
 40
1.3925370791
 50
116.7704297356
 51
210.7357673884
  0
ARC
  8
CYAN
 10
10879.753323285
 20
732.8271354944
 40
10.0365594068
 50
202.5720696729
 51
229.619566991
  0
ARC
  8
CYAN
 10
10874.1594841114
 20
726.2363996737
 40
1.3920068963
 50
229.2609724371
 51
317.0819310508
  0
LINE
  8
CYAN
 10
10875.17889
 20
725.28851
 11
10876.84393
 21
727.08071
  0
ARC
  8
CYAN
 10
10877.5594437647
 20
726.4164007598
 40
0.9763537853
 50
65.6953231844
 51
137.1252418023
  0
LINE
  8
CYAN
 10
10877.9613
 20
727.30622
 11
10880.16044
 21
726.31263
  0
ARC
  8
CYAN
 10
10881.121614012
 20
728.4390204676
 40
2.3335363511
 50
245.6760131335
 51
307.6207684446
  0
ARC
  8
CYAN
 10
10881.1232615897
 20
728.4416140369
 40
2.3345866874
 50
307.5498859626
 51
9.4628764477
  0
LINE
  8
CYAN
 10
10883.42608
 20
728.82544
 11
10883.03101
 21
731.206
  0
ARC
  8
CYAN
 10
10883.9926389351
 20
731.3675878379
 40
0.97511068
 50
118.017450269
 51
189.5386161758
  0
LINE
  8
CYAN
 10
10883.53459
 20
732.22842
 11
10885.69304
 21
733.37801
  0
ARC
  8
CYAN
 10
10885.0369404956
 20
734.6075515206
 40
1.393642318
 50
298.084966684
 51
25.8087678891
  0
ARC
  8
CYAN
 10
10877.2363903122
 20
730.8845696155
 40
10.0370734968
 50
25.5547756233
 51
52.5988952337
  0
ARC
  8
CYAN
 10
10882.3367784171
 20
737.8848199631
 40
1.3925787373
 50
44.3363298164
 51
138.3350159157
  0
LINE
  8
CYAN
 10
10881.29646
 20
738.81057
 11
10877.69679
 21
734.74463
  0
ARC
  8
CYAN
 10
10877.9494001371
 20
734.520073869
 40
0.3379901438
 50
138.3647138574
 51
217.5766428215
  0
LINE
  8
CYAN
 10
10877.68153
 20
734.31396
 11
10879.15158
 21
732.40137
  0
ARC
  8
CYAN
 10
10878.8818905484
 20
732.1954841495
 40
0.3392954226
 50
307.5850798029
 51
37.3587749623
  0
LINE
  8
CYAN
 10
10879.08884
 20
731.92661
 11
10878.28345
 21
731.30604
  0
ARC
  8
CYAN
 10
10878.0765611873
 20
731.5754111603
 40
0.3396524736
 50
217.4731785798
 51
307.525836162
  0
LINE
  8
CYAN
 10
10877.807
 20
731.36877
 11
10876.33696
 21
733.27967
  0
ARC
  8
CYAN
 10
10876.0691875287
 20
733.0723983
 40
0.3386202209
 50
37.7419861943
 51
116.809720648
  0
LINE
  8
CYAN
 10
10875.91646
 20
733.37462
 11
10874.04908
 21
732.43539
  0
LINE
  8
CYAN
 10
10874.04908
 20
732.43539
 11
10872.83299
 21
734.58876
  0
ARC
  8
CYAN
 10
10878.9752449999
 20
730.2378349999
 40
0.2272049999
 50
179.99873909
 51
269.9987391447
  0
LINE
  8
CYAN
 10
10878.97524
 20
730.01063
 11
10879.20245
 21
730.01063
  0
ARC
  8
CYAN
 10
10879.2024450001
 20
730.2378349999
 40
0.2272049999
 50
270.0012608558
 51
0.00126091
  0
LINE
  8
CYAN
 10
10879.42965
 20
730.23784
 11
10879.42965
 21
730.31244
  0
ARC
  8
CYAN
 10
10879.2024450001
 20
730.3124450001
 40
0.2272049999
 50
359.9987390897
 51
89.9987391447
  0
ARC
  8
CYAN
 10
10879.20245
 20
730.76685
 40
0.2272
 50
270.0
 51
0.0
  0
LINE
  8
CYAN
 10
10879.42965
 20
730.76685
 11
10879.42965
 21
730.84315
  0
ARC
  8
CYAN
 10
10879.2024450001
 20
730.8431550001
 40
0.2272049999
 50
359.9987390895
 51
89.9987391451
  0
LINE
  8
CYAN
 10
10879.20245
 20
731.07036
 11
10878.97524
 21
731.07036
  0
ARC
  8
CYAN
 10
10878.9752449999
 20
730.8431550001
 40
0.2272049999
 50
90.0012608549
 51
180.0012609105
  0
LINE
  8
CYAN
 10
10824.70191
 20
775.98898
 11
10824.70949
 21
777.75052
  0
LINE
  8
CYAN
 10
10824.70949
 20
777.75052
 11
10822.3781
 21
777.30628
  0
ARC
  8
CYAN
 10
10822.1431421677
 20
778.5332284178
 40
1.2492428118
 50
186.908700992
 51
280.8407677576
  0
ARC
  8
CYAN
 10
10829.5782700424
 20
780.7304984995
 40
8.9873114908
 50
168.0945906613
 51
195.1416261177
  0
ARC
  8
CYAN
 10
10822.0123400041
 20
782.3240300028
 40
1.2553891996
 50
80.2240448969
 51
168.0228665551
  0
LINE
  8
CYAN
 10
10822.2255
 20
783.56119
 11
10823.12415
 21
783.40859
  0
LINE
  8
CYAN
 10
10823.12415
 20
783.40859
 11
10824.37886
 21
783.19834
  0
ARC
  8
CYAN
 10
10824.522685864
 20
784.0612379626
 40
0.8748021337
 50
260.5370616641
 51
331.9121934205
  0
LINE
  8
CYAN
 10
10825.29446
 20
783.64936
 11
10826.31179
 21
785.55347
  0
ARC
  8
CYAN
 10
10828.1572224096
 20
784.5659154597
 40
2.0930563175
 50
89.9253343248
 51
151.8472279548
  0
ARC
  8
CYAN
 10
10828.1630807918
 20
784.5665895264
 40
2.0923828159
 50
28.141707125
 51
90.0857305953
  0
LINE
  8
CYAN
 10
10830.00811
 20
785.55347
 11
10831.02544
 21
783.64936
  0
ARC
  8
CYAN
 10
10831.797214136
 20
784.0612379626
 40
0.8748021337
 50
208.0878065796
 51
279.4629383359
  0
LINE
  8
CYAN
 10
10831.94104
 20
783.19834
 11
10834.0944
 21
783.56119
  0
ARC
  8
CYAN
 10
10834.2990847917
 20
782.3328367143
 40
1.2452901905
 50
11.6616739247
 51
99.4604725426
  0
ARC
  8
CYAN
 10
10826.7331602707
 20
780.6952611789
 40
8.9863559608
 50
345.0893485981
 51
12.1363999023
  0
ARC
  8
CYAN
 10
10834.1767578323
 20
778.5332284178
 40
1.2492428118
 50
259.1592322423
 51
353.091299008
  0
LINE
  8
CYAN
 10
10833.9418
 20
777.30628
 11
10829.27902
 21
778.19475
  0
ARC
  8
CYAN
 10
10829.3446742696
 20
778.525254743
 40
0.3369627105
 50
179.4005685885
 51
258.7645441145
  0
LINE
  8
CYAN
 10
10829.00773
 20
778.52878
 11
10829.00773
 21
780.93986
  0
ARC
  8
CYAN
 10
10828.66862
 20
780.93986
 40
0.33911
 50
-0.0000000004
 51
89.9999999997
  0
LINE
  8
CYAN
 10
10828.66862
 20
781.27897
 11
10827.65128
 21
781.27897
  0
ARC
  8
CYAN
 10
10827.65128
 20
780.93986
 40
0.33911
 50
90.0
 51
180.0000000004
  0
LINE
  8
CYAN
 10
10827.31217
 20
780.93986
 11
10827.31217
 21
778.52878
  0
ARC
  8
CYAN
 10
10826.9742207681
 20
778.5260709458
 40
0.3379600898
 50
281.375605149
 51
0.4592821487
  0
LINE
  8
CYAN
 10
10827.04088
 20
778.19475
 11
10825.30343
 21
777.86369
  0
LINE
  8
CYAN
 10
10825.30343
 20
777.86369
 11
10825.56541
 21
776.1193
  0
ARC
  8
CYAN
 10
10827.52751
 20
782.1844
 40
0.23234576
 50
181.2552794143
 51
271.2552794145
  0
LINE
  8
CYAN
 10
10827.5326
 20
781.95211
 11
10827.75302
 21
781.95211
  0
ARC
  8
CYAN
 10
10827.74963
 20
782.17592
 40
0.2238356723
 50
270.8677799949
 51
0.8677799945
  0
LINE
  8
CYAN
 10
10827.97344
 20
782.17931
 11
10827.97344
 21
782.25561
  0
ARC
  8
CYAN
 10
10827.7504800564
 20
782.2581599423
 40
0.2229745247
 50
359.3447497372
 51
89.3473191832
  0
ARC
  8
CYAN
 10
10827.749625077
 20
782.7049349253
 40
0.2238406717
 50
270.8690208864
 51
0.86905971
  0
LINE
  8
CYAN
 10
10827.97344
 20
782.70833
 11
10827.97344
 21
782.78463
  0
ARC
  8
CYAN
 10
10827.74963
 20
782.78802
 40
0.2238356723
 50
359.1322200051
 51
89.1322200051
  0
LINE
  8
CYAN
 10
10827.75302
 20
783.01183
 11
10827.5326
 21
783.01183
  0
ARC
  8
CYAN
 10
10827.52751
 20
782.77954
 40
0.23234576
 50
88.744720586
 51
178.7447205855
  0
LINE
  8
CYAN
 10
11040.02577
 20
725.38804
 11
11037.57707
 21
724.44661
  0
LINE
  8
CYAN
 10
11037.57707
 20
724.44661
 11
11037.13406
 21
726.84292
  0
ARC
  8
CYAN
 10
11036.7971182333
 20
726.7757314399
 40
0.3435754018
 50
11.2772613071
 51
90.3615842171
  0
LINE
  8
CYAN
 10
11036.79495
 20
727.1193
 11
11034.38726
 21
727.1193
  0
ARC
  8
CYAN
 10
11034.38726
 20
727.45841
 40
0.33911
 50
180.0000000002
 51
270.0000000003
  0
LINE
  8
CYAN
 10
11034.04815
 20
727.45841
 11
11034.04815
 21
728.47574
  0
ARC
  8
CYAN
 10
11034.3872599999
 20
728.4757499999
 40
0.3391100001
 50
89.9999999871
 51
180.0016895807
  0
LINE
  8
CYAN
 10
11034.38726
 20
728.81486
 11
11036.79495
 21
728.81486
  0
ARC
  8
CYAN
 10
11036.7981440184
 20
729.1575832549
 40
0.342738138
 50
269.4660459295
 51
348.5490828162
  0
LINE
  8
CYAN
 10
11037.13406
 20
729.08954
 11
11038.23617
 21
735.05111
  0
ARC
  8
CYAN
 10
11036.7336182746
 20
735.3364723537
 40
1.529409481
 50
349.2465404796
 51
83.2402325347
  0
ARC
  8
CYAN
 10
11034.0578770823
 20
726.2046600758
 40
11.0268058646
 50
74.9902332955
 51
102.0325399736
  0
ARC
  8
CYAN
 10
11032.0748108952
 20
735.4976413199
 40
1.5245947321
 50
101.9492829504
 51
189.7550318453
  0
LINE
  8
CYAN
 10
11030.57226
 20
735.23932
 11
11031.0131
 21
732.59595
  0
ARC
  8
CYAN
 10
11029.9525820054
 20
732.423914023
 40
1.0743811215
 50
297.794634124
 51
9.2141895538
  0
LINE
  8
CYAN
 10
11030.45357
 20
731.47349
 11
11028.13066
 21
730.22725
  0
ARC
  8
CYAN
 10
11029.3364864308
 20
727.9664440528
 40
2.5622765097
 50
118.0737350684
 51
179.985779407
  0
ARC
  8
CYAN
 10
11029.3357482463
 20
727.9672629221
 40
2.5615382529
 50
180.00409155
 51
241.93617027
  0
LINE
  8
CYAN
 10
11028.13066
 20
725.7069
 11
11030.45357
 21
724.45897
  0
ARC
  8
CYAN
 10
11029.9525820054
 20
723.508545977
 40
1.0743811215
 50
350.7858104462
 51
62.2053658761
  0
LINE
  8
CYAN
 10
11031.0131
 20
723.33651
 11
11030.57226
 21
720.69314
  0
ARC
  8
CYAN
 10
11032.0741014753
 20
720.435837827
 40
1.5237231459
 50
170.2782166493
 51
258.0710471035
  0
ARC
  8
CYAN
 10
11034.0579204784
 20
729.7278900124
 40
11.0251816954
 50
257.9654303371
 51
285.0117963938
  0
ARC
  8
CYAN
 10
11036.7343288606
 20
720.5969484473
 40
1.5285323193
 50
276.7368430673
 51
10.723046919
  0
LINE
  8
CYAN
 10
11038.23617
 20
720.88135
 11
11037.68512
 21
723.86214
  0
LINE
  8
CYAN
 10
11037.68512
 20
723.86214
 11
11040.49272
 21
724.22009
  0
ARC
  8
CYAN
 10
11032.101654923
 20
728.2010650747
 40
0.2238406717
 50
90.8690208873
 51
180.8690597093
  0
LINE
  8
CYAN
 10
11032.09826
 20
728.42488
 11
11032.33564
 21
728.42488
  0
ARC
  8
CYAN
 10
11032.332245077
 20
728.2010650747
 40
0.2238406717
 50
359.1309402898
 51
89.1309791131
  0
LINE
  8
CYAN
 10
11032.55606
 20
728.19767
 11
11032.55606
 21
728.12307
  0
ARC
  8
CYAN
 10
11032.332245077
 20
728.1196749253
 40
0.2238406717
 50
270.869020886
 51
0.8690597114
  0
ARC
  8
CYAN
 10
11032.33225
 20
727.67205
 40
0.2238356723
 50
359.1322200044
 51
89.1322200056
  0
LINE
  8
CYAN
 10
11032.55606
 20
727.66866
 11
11032.55606
 21
727.59236
  0
ARC
  8
CYAN
 10
11032.33225
 20
727.58897
 40
0.2238356723
 50
270.8677799944
 51
0.8677799957
  0
LINE
  8
CYAN
 10
11032.33564
 20
727.36516
 11
11032.09826
 21
727.36516
  0
ARC
  8
CYAN
 10
11032.10165
 20
727.58897
 40
0.2238356723
 50
179.1322200057
 51
269.1322200042
  0
LINE
  8
CYAN
 10
10832.49729
 20
680.59465
 11
10829.45427
 21
681.4972
  0
LINE
  8
CYAN
 10
10829.45427
 20
681.4972
 11
10829.98082
 21
683.53757
  0
ARC
  8
CYAN
 10
10829.6606780087
 20
683.6315246002
 40
0.3336440641
 50
343.6442017861
 51
63.1693329805
  0
LINE
  8
CYAN
 10
10829.81127
 20
683.92925
 11
10827.624
 21
684.96354
  0
ARC
  8
CYAN
 10
10827.7742284483
 20
685.2656945861
 40
0.3374403363
 50
153.8220383658
 51
243.5638625739
  0
LINE
  8
CYAN
 10
10827.4714
 20
685.41456
 11
10827.89529
 21
686.33355
  0
ARC
  8
CYAN
 10
10828.2041946074
 20
686.1867116211
 40
0.342028604
 50
64.1936908902
 51
154.5758354338
  0
LINE
  8
CYAN
 10
10828.35309
 20
686.49463
 11
10830.54036
 21
685.46203
  0
ARC
  8
CYAN
 10
10830.6792359368
 20
685.7614915584
 40
0.330096578
 50
245.1203867457
 51
324.2964515696
  0
LINE
  8
CYAN
 10
10830.94729
 20
685.56885
 11
10834.16885
 21
689.95695
  0
ARC
  8
CYAN
 10
10833.0410999596
 20
690.7755202074
 40
1.3935125899
 50
324.0262169776
 51
58.0329202875
  0
ARC
  8
CYAN
 10
10827.2748238373
 20
684.3110080565
 40
10.0386586305
 50
49.6165483661
 51
76.66114024
  0
ARC
  8
CYAN
 10
10829.2661404277
 20
692.7281202505
 40
1.3892086483
 50
76.4832345538
 51
164.2331870832
  0
LINE
  8
CYAN
 10
10827.9292
 20
693.1056
 11
10827.26793
 21
690.75217
  0
ARC
  8
CYAN
 10
10826.3253540305
 20
691.0232052919
 40
0.9807698954
 50
272.5675628552
 51
343.9575469779
  0
LINE
  8
CYAN
 10
10826.36929
 20
690.04342
 11
10823.9616
 21
689.92813
  0
ARC
  8
CYAN
 10
10824.0716812307
 20
687.5946708198
 40
2.3360542851
 50
92.7009331673
 51
154.6343843014
  0
ARC
  8
CYAN
 10
10824.070870164
 20
687.5967883475
 40
2.3344148025
 50
154.6728183509
 51
216.660011472
  0
LINE
  8
CYAN
 10
10822.19822
 20
686.20299
 11
10823.62249
 21
684.26327
  0
ARC
  8
CYAN
 10
10822.837469987
 20
683.6817608729
 40
0.9769387318
 50
325.1750924685
 51
36.5294595945
  0
LINE
  8
CYAN
 10
10823.63944
 20
683.12386
 11
10822.24909
 21
681.11971
  0
ARC
  8
CYAN
 10
10823.3937201094
 20
680.3236993155
 40
1.3942062606
 50
145.1840709002
 51
232.9806580133
  0
ARC
  8
CYAN
 10
10828.6478286932
 20
687.1807061516
 40
10.0327005884
 50
232.6005840992
 51
259.6424169702
  0
ARC
  8
CYAN
 10
10827.2826752622
 20
678.625287419
 40
1.385086478
 50
251.5374713142
 51
345.6221891369
  0
LINE
  8
CYAN
 10
10828.62438
 20
678.28135
 11
10829.3026
 21
680.90946
  0
LINE
  8
CYAN
 10
10829.3026
 20
680.90946
 11
10832.26382
 21
679.42668
  0
ARC
  8
CYAN
 10
10825.87079
 20
686.13517
 40
0.2274301864
 50
159.9452199819
 51
249.9452199826
  0
LINE
  8
CYAN
 10
10825.7928
 20
685.92153
 11
10826.01322
 21
685.84353
  0
ARC
  8
CYAN
 10
10826.08952
 20
686.05548
 40
0.2252653824
 50
250.2016022712
 51
340.2016022713
  0
LINE
  8
CYAN
 10
10826.30147
 20
685.97918
 11
10826.33538
 21
686.05039
  0
ARC
  8
CYAN
 10
10826.1217410227
 20
686.1283878013
 40
0.2274319011
 50
339.9432854561
 51
69.9456519409
  0
ARC
  8
CYAN
 10
10826.2760360198
 20
686.5539728327
 40
0.2252606779
 50
250.1995441328
 51
340.2004057249
  0
LINE
  8
CYAN
 10
10826.48798
 20
686.47767
 11
10826.50493
 21
686.54888
  0
ARC
  8
CYAN
 10
10826.2917711874
 20
686.6258574618
 40
0.2266323212
 50
340.1439661953
 51
69.9983874813
  0
LINE
  8
CYAN
 10
10826.36929
 20
686.83882
 11
10826.16582
 21
686.91682
  0
ARC
  8
CYAN
 10
10826.0895260198
 20
686.704872833
 40
0.2252606779
 50
70.202798853
 51
160.2019373613
  0
ARC
  8
CYAN
 10
10826.6663142565
 20
685.8496608481
 40
0.2263477711
 50
159.6673283396
 51
250.2183786687
  0
LINE
  8
CYAN
 10
10826.58971
 20
685.63667
 11
10826.79318
 21
685.55868
  0
ARC
  8
CYAN
 10
10826.8690000068
 20
685.7716400032
 40
0.2260544987
 50
250.4027791581
 51
339.9987022999
  0
LINE
  8
CYAN
 10
10827.08142
 20
685.69432
 11
10827.11533
 21
685.76554
  0
ARC
  8
CYAN
 10
10826.9030885361
 20
685.8441831474
 40
0.2263430662
 50
339.6685079496
 51
70.2187015553
  0
ARC
  8
CYAN
 10
10827.0559839802
 20
686.269117167
 40
0.2252606779
 50
250.2027988527
 51
340.2019373608
  0
LINE
  8
CYAN
 10
10827.26793
 20
686.19282
 11
10827.30184
 21
686.26403
  0
ARC
  8
CYAN
 10
10827.0886773492
 20
686.3410056662
 40
0.2266353213
 50
340.1447227338
 51
69.9976309422
  0
LINE
  8
CYAN
 10
10827.1662
 20
686.55397
 11
10826.94578
 21
686.63197
  0
ARC
  8
CYAN
 10
10826.8699543427
 20
686.4190120437
 40
0.2260544657
 50
70.4012559336
 51
160.0019486078
  0
LINE
  8
CYAN
 10
10917.48126
 20
570.77618
 11
10920.68209
 21
572.59898
  0
LINE
  8
CYAN
 10
10920.68209
 20
572.59898
 11
10921.50444
 21
568.96455
  0
ARC
  8
CYAN
 10
10923.2801115649
 20
569.355799075
 40
1.8182643771
 50
192.4259246511
 51
286.3985882741
  0
ARC
  8
CYAN
 10
10921.9081142452
 20
580.5935416968
 40
13.1182262452
 50
278.2630507299
 51
305.3103223046
  0
ARC
  8
CYAN
 10
10928.4486189897
 20
571.3835149069
 40
1.8221464711
 50
304.8753678057
 51
32.6857309499
  0
LINE
  8
CYAN
 10
10929.98222
 20
572.36753
 11
10928.25275
 21
575.05499
  0
ARC
  8
CYAN
 10
10929.322599826
 20
575.7521461806
 40
1.2769516006
 50
141.6933678698
 51
213.0898457842
  0
LINE
  8
CYAN
 10
10928.32057
 20
576.54369
 11
10930.30437
 21
579.01072
  0
ARC
  8
CYAN
 10
10927.9136400742
 20
580.9063605676
 40
3.0510723918
 50
321.5886477118
 51
23.5163246196
  0
ARC
  8
CYAN
 10
10927.9073935524
 20
580.9252774304
 40
3.0493166258
 50
23.1435683779
 51
85.0978651291
  0
LINE
  8
CYAN
 10
10928.16797
 20
583.96344
 11
10925.03119
 21
584.22965
  0
ARC
  8
CYAN
 10
10925.1381932006
 20
585.5052358049
 40
1.2800659478
 50
193.8173882023
 51
265.204938991
  0
LINE
  8
CYAN
 10
10923.89517
 20
585.19952
 11
10923.13217
 21
588.30578
  0
ARC
  8
CYAN
 10
10921.3611263389
 20
587.8725623187
 40
1.8232589528
 50
13.7453009134
 51
101.5595568731
  0
ARC
  8
CYAN
 10
10923.5509953486
 20
576.7752670725
 40
13.1345204694
 50
101.2180118592
 51
128.2616836549
  0
ARC
  8
CYAN
 10
10916.3314296263
 20
585.5136283654
 40
1.8207909419
 50
120.1325010169
 51
214.1137562266
  0
LINE
  8
CYAN
 10
10914.82395
 20
584.49246
 11
10918.97806
 21
578.29859
  0
ARC
  8
CYAN
 10
10919.2552742239
 20
578.4833787328
 40
0.3331585234
 50
213.6870983516
 51
292.914154832
  0
LINE
  8
CYAN
 10
10919.38499
 20
578.17651
 11
10921.60617
 21
579.12941
  0
ARC
  8
CYAN
 10
10921.73758
 20
578.81997
 40
0.3361870041
 50
23.0094932644
 51
113.0094932643
  0
LINE
  8
CYAN
 10
10922.04702
 20
578.95138
 11
10922.45395
 21
578.01713
  0
ARC
  8
CYAN
 10
10922.13773
 20
577.88742
 40
0.341789076
 50
292.30290441
 51
22.3029044097
  0
LINE
  8
CYAN
 10
10922.26744
 20
577.5712
 11
10920.06321
 21
576.61829
  0
ARC
  8
CYAN
 10
10920.1934188472
 20
576.3032378191
 40
0.3408991354
 50
112.4549630945
 51
191.8215135851
  0
LINE
  8
CYAN
 10
10919.85975
 20
576.2334
 11
10920.54521
 21
573.20395
  0
LINE
  8
CYAN
 10
10920.54521
 20
573.20395
 11
10917.54004
 21
572.41132
  0
ARC
  8
CYAN
 10
10922.85919
 20
579.18028
 40
0.2252090906
 50
116.3727689102
 51
206.3727689104
  0
LINE
  8
CYAN
 10
10922.75915
 20
579.38205
 11
10922.96262
 21
579.4787
  0
ARC
  8
CYAN
 10
10923.06096
 20
579.27184
 40
0.2290454435
 50
25.4261334512
 51
115.4261334513
  0
LINE
  8
CYAN
 10
10923.26782
 20
579.37018
 11
10923.30173
 21
579.30236
  0
ARC
  8
CYAN
 10
10923.09572
 20
579.20741
 40
0.2268383182
 50
335.2550259651
 51
24.7449740349
  0
LINE
  8
CYAN
 10
10923.30173
 20
579.11246
 11
10923.01348
 21
578.32742
  0
LINE
  8
CYAN
 10
10923.01348
 20
578.32742
 11
10923.62388
 21
578.61736
  0
ARC
  8
CYAN
 10
10923.8302720151
 20
579.569770217
 40
0.2870873371
 50
73.4332197014
 51
118.8607431637
  0
LINE
  8
CYAN
 10
10923.6917
 20
579.8212
 11
10923.58997
 21
579.77033
  0
ARC
  8
CYAN
 10
10923.7149571923
 20
579.4924425753
 40
0.3047018527
 50
114.217088256
 51
204.3543532829
  0
LINE
  8
CYAN
 10
10923.43737
 20
579.36679
 11
10923.64084
 21
578.95647
  0
ARC
  8
CYAN
 10
10923.9077227661
 20
579.0789289777
 40
0.2936368711
 50
204.6479919017
 51
294.7850914625
  0
LINE
  8
CYAN
 10
10924.03082
 20
578.81234
 11
10924.09864
 21
578.84456
  0
ARC
  8
CYAN
 10
10923.9741881088
 20
579.1222449988
 40
0.3042979326
 50
294.140801419
 51
24.4306401196
  0
LINE
  8
CYAN
 10
10924.25124
 20
579.2481
 11
10924.21733
 21
579.31592
  0
ARC
  8
CYAN
 10
10923.9417971308
 20
579.1845210162
 40
0.3052606344
 50
25.4960267742
 51
115.4977209224
  0
LINE
  8
CYAN
 10
10923.81039
 20
579.46005
 11
10923.74257
 21
579.42783
  0
ARC
  8
CYAN
 10
10923.8769995953
 20
579.1580787959
 40
0.3013918184
 50
116.4892147696
 51
206.3531878422
  0
LINE
  8
CYAN
 10
10846.26429
 20
686.98705
 11
10845.6825
 21
689.41243
  0
LINE
  8
CYAN
 10
10845.6825
 20
689.41243
 11
10848.03508
 21
689.84802
  0
ARC
  8
CYAN
 10
10847.9728081344
 20
690.1808977567
 40
0.3386523086
 50
280.5959234358
 51
359.907326309
  0
LINE
  8
CYAN
 10
10848.31146
 20
690.18035
 11
10848.31146
 21
692.59143
  0
ARC
  8
CYAN
 10
10848.65057
 20
692.59143
 40
0.33911
 50
90.0
 51
180.0000000001
  0
LINE
  8
CYAN
 10
10848.65057
 20
692.93054
 11
10849.6679
 21
692.93054
  0
ARC
  8
CYAN
 10
10849.6679050001
 20
692.5914250001
 40
0.339115
 50
0.0008447712
 51
90.0008447962
  0
LINE
  8
CYAN
 10
10850.00702
 20
692.59143
 11
10850.00702
 21
690.18035
  0
ARC
  8
CYAN
 10
10850.3448245312
 20
690.1798745178
 40
0.3378048659
 50
179.9193524504
 51
259.2300066746
  0
LINE
  8
CYAN
 10
10850.2817
 20
689.84802
 11
10856.24327
 21
688.74421
  0
ARC
  8
CYAN
 10
10856.5292491649
 20
690.2443593888
 40
1.527164782
 50
259.2069886892
 51
353.1933115751
  0
ARC
  8
CYAN
 10
10847.4162201725
 20
692.9147866278
 40
11.005244762
 50
344.983508014
 51
12.0343555673
  0
ARC
  8
CYAN
 10
10856.6844919519
 20
694.8988186653
 40
1.5270180077
 50
11.7337782719
 51
99.5373331765
  0
LINE
  8
CYAN
 10
10856.43148
 20
696.40473
 11
10853.78811
 21
695.9605
  0
ARC
  8
CYAN
 10
10853.610177218
 20
697.0167813658
 40
1.0711631055
 50
208.1425036534
 51
279.5618245851
  0
LINE
  8
CYAN
 10
10852.66565
 20
696.51155
 11
10851.41941
 21
698.84633
  0
ARC
  8
CYAN
 10
10849.1614261626
 20
697.6388022973
 40
2.560588636
 50
28.1370415559
 51
90.048917622
  0
ARC
  8
CYAN
 10
10849.1553555187
 20
697.6388033013
 40
2.5605896451
 50
89.9130807742
 51
151.8629959971
  0
LINE
  8
CYAN
 10
10846.89737
 20
698.84633
 11
10845.65113
 21
696.51155
  0
ARC
  8
CYAN
 10
10844.706602782
 20
697.0167813658
 40
1.0711631055
 50
260.4381754148
 51
331.8574963464
  0
LINE
  8
CYAN
 10
10844.52867
 20
695.9605
 11
10841.8853
 21
696.40473
  0
ARC
  8
CYAN
 10
10841.6317479087
 20
694.89960857
 40
1.5263286612
 50
80.4377581747
 51
168.2911303768
  0
ARC
  8
CYAN
 10
10850.9005598275
 20
692.9147866278
 40
11.005244762
 50
167.9656444327
 51
195.016491986
  0
ARC
  8
CYAN
 10
10841.7875308351
 20
690.2443593888
 40
1.527164782
 50
186.8066884251
 51
280.7930113108
  0
LINE
  8
CYAN
 10
10842.07351
 20
688.74421
 11
10845.0543
 21
689.29612
  0
LINE
  8
CYAN
 10
10845.0543
 20
689.29612
 11
10844.53893
 21
686.70519
  0
ARC
  8
CYAN
 10
10848.5674849999
 20
694.1411649999
 40
0.2272049999
 50
180.0012608556
 51
270.0012609108
  0
LINE
  8
CYAN
 10
10848.56749
 20
693.91396
 11
10848.79469
 21
693.91396
  0
ARC
  8
CYAN
 10
10848.7938500186
 20
694.1403100187
 40
0.2263515773
 50
270.2126227735
 51
0.2151540268
  0
LINE
  8
CYAN
 10
10849.0202
 20
694.14116
 11
10849.0202
 21
694.21746
  0
ARC
  8
CYAN
 10
10848.7938450376
 20
694.2183149999
 40
0.2263565772
 50
359.7835804002
 51
89.7861211045
  0
ARC
  8
CYAN
 10
10848.79469
 20
694.67018
 40
0.22551
 50
270.0
 51
0.0000000002
  0
LINE
  8
CYAN
 10
10849.0202
 20
694.67018
 11
10849.0202
 21
694.74648
  0
ARC
  8
CYAN
 10
10848.7938500186
 20
694.7473299813
 40
0.2263515773
 50
359.7848459726
 51
89.7873772274
  0
LINE
  8
CYAN
 10
10848.79469
 20
694.97368
 11
10848.56749
 21
694.97368
  0
ARC
  8
CYAN
 10
10848.5674849999
 20
694.7464750001
 40
0.2272049999
 50
89.9987390896
 51
179.9987391451
  0
LINE
  8
CYAN
 10
10872.46887
 20
716.68678
 11
10870.49705
 21
716.58822
  0
LINE
  8
CYAN
 10
10870.49705
 20
716.58822
 11
10870.62072
 21
718.70645
  0
ARC
  8
CYAN
 10
10869.2305808528
 20
718.7859191092
 40
1.3924087718
 50
356.7281733681
 51
90.776534409
  0
ARC
  8
CYAN
 10
10867.9047973203
 20
710.2270007741
 40
10.0366521702
 50
82.518040961
 51
109.5542345812
  0
ARC
  8
CYAN
 10
10865.004952553
 20
718.3688650416
 40
1.3938143312
 50
109.2449930842
 51
197.0405469496
  0
LINE
  8
CYAN
 10
10863.67233
 20
717.96041
 11
10864.38955
 21
715.62393
  0
ARC
  8
CYAN
 10
10863.4566390105
 20
715.3363570546
 40
0.9762280027
 50
305.7283153289
 51
17.1320899826
  0
LINE
  8
CYAN
 10
10864.0267
 20
714.54386
 11
10862.06494
 21
713.13655
  0
ARC
  8
CYAN
 10
10863.4260908874
 20
711.2400320527
 40
2.334418999
 50
125.66740158
 51
187.5742543944
  0
ARC
  8
CYAN
 10
10863.4266617002
 20
711.2355878579
 40
2.3344033377
 50
187.4642807037
 51
249.4130735278
  0
LINE
  8
CYAN
 10
10862.60582
 20
709.05026
 11
10864.8643
 21
708.20248
  0
ARC
  8
CYAN
 10
10864.5216192783
 20
707.2888510835
 40
0.9757806485
 50
357.8926634414
 51
69.4401129375
  0
LINE
  8
CYAN
 10
10865.49674
 20
707.25297
 11
10865.41197
 21
704.80967
  0
ARC
  8
CYAN
 10
10866.8038250709
 20
704.7607143419
 40
1.3927157624
 50
177.9855684638
 51
265.7490508282
  0
ARC
  8
CYAN
 10
10867.4882711481
 20
713.3788570074
 40
10.037979434
 50
265.499368135
 51
292.5407846889
  0
ARC
  8
CYAN
 10
10870.9922624123
 20
705.4577844106
 40
1.3932054748
 50
284.2939400968
 51
18.3558682664
  0
LINE
  8
CYAN
 10
10872.31458
 20
705.89653
 11
10870.59867
 21
711.04763
  0
ARC
  8
CYAN
 10
10870.2770455056
 20
710.940472809
 40
0.3390058686
 50
18.4267757851
 51
97.5624577998
  0
LINE
  8
CYAN
 10
10870.23243
 20
711.27653
 11
10867.8417
 21
710.96115
  0
ARC
  8
CYAN
 10
10867.7966703918
 20
711.2975897005
 40
0.3394397409
 50
187.584099481
 51
277.6232510459
  0
LINE
  8
CYAN
 10
10867.4602
 20
711.25279
 11
10867.32795
 21
712.26164
  0
ARC
  8
CYAN
 10
10867.663663709
 20
712.3057348305
 40
0.3385971773
 50
97.4808692052
 51
187.4827672882
  0
LINE
  8
CYAN
 10
10867.61958
 20
712.64145
 11
10870.01032
 21
712.95852
  0
ARC
  8
CYAN
 10
10869.9658753019
 20
713.2938557309
 40
0.3382682126
 50
277.5498605761
 51
356.9046499106
  0
LINE
  8
CYAN
 10
10870.30365
 20
713.27559
 11
10870.46218
 21
715.99102
  0
LINE
  8
CYAN
 10
10870.46218
 20
715.99102
 11
10872.48625
 21
715.61281
  0
ARC
  8
CYAN
 10
10865.6571465274
 20
711.0522316247
 40
0.2266336112
 50
199.9995599916
 51
289.8548437855
  0
LINE
  8
CYAN
 10
10865.73412
 20
710.83907
 11
10865.94776
 21
710.91707
  0
ARC
  8
CYAN
 10
10865.86977
 20
711.13071
 40
0.2274301864
 50
290.0547800178
 51
20.0547800178
  0
LINE
  8
CYAN
 10
10866.08341
 20
711.2087
 11
10866.05797
 21
711.27822
  0
ARC
  8
CYAN
 10
10865.8439642734
 20
711.2020926969
 40
0.2271427245
 50
19.5817717946
 51
109.9830589945
  0
ARC
  8
CYAN
 10
10865.6888173492
 20
711.6285243338
 40
0.2266353213
 50
290.0023690573
 51
19.855277266
  0
LINE
  8
CYAN
 10
10865.90198
 20
711.7055
 11
10865.87655
 21
711.77671
  0
ARC
  8
CYAN
 10
10865.6629078013
 20
711.6987210227
 40
0.2274319011
 50
20.0543480592
 51
110.0567145443
  0
LINE
  8
CYAN
 10
10865.58491
 20
711.91236
 11
10865.37127
 21
711.83436
  0
ARC
  8
CYAN
 10
10865.4487888126
 20
711.6213974618
 40
0.2266323212
 50
110.0016125183
 51
199.8560338051
  0
ARC
  8
CYAN
 10
10866.2327910834
 20
711.9059523158
 40
0.2271427379
 50
110.1298931046
 51
199.7277532187
  0
LINE
  8
CYAN
 10
10866.15462
 20
712.11922
 11
10866.36826
 21
712.19721
  0
ARC
  8
CYAN
 10
10866.4452356662
 20
711.9840473492
 40
0.2266353213
 50
20.0023690565
 51
109.855277266
  0
LINE
  8
CYAN
 10
10866.6582
 20
712.06157
 11
10866.68533
 21
711.99035
  0
ARC
  8
CYAN
 10
10866.4717400041
 20
711.9129500507
 40
0.22718151
 50
330.8094308141
 51
19.9193153565
  0
LINE
  8
CYAN
 10
10866.67007
 20
711.80215
 11
10866.30383
 21
711.04593
  0
LINE
  8
CYAN
 10
10866.30383
 20
711.04593
 11
10866.94305
 21
711.27992
  0
LINE
  8
CYAN
 10
10777.69473
 20
645.02499
 11
10776.24112
 21
646.51511
  0
ARC
  8
CYAN
 10
10778.2676760348
 20
644.9759889272
 40
2.5447638474
 50
142.7841944197
 51
177.8105186055
  0
LINE
  8
CYAN
 10
10775.72477
 20
645.07321
 11
10775.77055
 21
644.25256
  0
LINE
  8
CYAN
 10
10775.77055
 20
644.25256
 11
10775.81464
 21
643.4319
  0
ARC
  8
CYAN
 10
10774.4147599326
 20
643.355229976
 40
1.4019780653
 50
216.0655935087
 51
3.1349002211
  0
ARC
  8
CYAN
 10
10778.0359564797
 20
645.7426880515
 40
5.7382267669
 50
193.1833755101
 51
214.0487002063
  0
ARC
  8
CYAN
 10
10779.9535400373
 20
645.9321406895
 40
7.6526601249
 50
162.5236278798
 51
191.2897039001
  0
LINE
  8
CYAN
 10
10772.65412
 20
648.23033
 11
10773.01358
 21
649.65969
  0
ARC
  8
CYAN
 10
10766.9536697519
 20
652.3609273875
 40
6.6346963487
 50
335.9748215725
 51
13.1750223291
  0
ARC
  8
CYAN
 10
10775.8996789674
 20
654.4552379981
 40
2.5531879496
 50
112.2492212228
 51
193.1784564157
  0
ARC
  8
CYAN
 10
10775.898253761
 20
654.4551020572
 40
2.5527745025
 50
31.2824759517
 51
112.2184595443
  0
ARC
  8
CYAN
 10
10783.7517640007
 20
659.2258050565
 40
6.636198807
 50
211.2749740875
 51
248.4733746559
  0
LINE
  8
CYAN
 10
10781.31672
 20
653.0525
 11
10782.57482
 21
652.28271
  0
ARC
  8
CYAN
 10
10778.9738948302
 20
645.5306055815
 40
7.6522922158
 50
33.1697664404
 51
61.9288157844
  0
ARC
  8
CYAN
 10
10780.4741510552
 20
646.7430072226
 40
5.7364490178
 50
10.3733335232
 51
31.2315008054
  0
ARC
  8
CYAN
 10
10784.7307795787
 20
647.5703998046
 40
1.4012144883
 50
221.3329867735
 51
8.4341652661
  0
LINE
  8
CYAN
 10
10783.67863
 20
646.64499
 11
10782.59178
 21
647.87935
  0
ARC
  8
CYAN
 10
10780.8456233839
 20
646.0314095032
 40
2.5424293515
 50
46.6221677672
 51
116.6750690677
  0
ARC
  8
CYAN
 10
10779.5682957219
 20
648.6136481675
 40
0.3388757829
 50
210.8313497827
 51
293.6527219493
  0
LINE
  8
CYAN
 10
10778.03596
 20
645.74268
 11
10776.65293
 21
646.94282
  0
ARC
  8
CYAN
 10
10778.2676779513
 20
644.9759988843
 40
2.5447585833
 50
107.7578467152
 51
129.3857834119
  0
ARC
  8
CYAN
 10
10777.3715893082
 20
647.7158784101
 40
0.338344705
 50
290.7641608214
 51
22.2056993259
  0
LINE
  8
CYAN
 10
10777.68484
 20
647.84375
 11
10776.7455
 21
650.13953
  0
ARC
  8
CYAN
 10
10777.0604400347
 20
650.2673700822
 40
0.3398975023
 50
112.2005270691
 51
202.0931584868
  0
LINE
  8
CYAN
 10
10776.93201
 20
650.58207
 11
10777.87304
 21
650.96696
  0
ARC
  8
CYAN
 10
10778.0019039645
 20
650.6532825205
 40
0.3391157362
 50
22.3343219221
 51
112.3336798788
  0
LINE
  8
CYAN
 10
10778.31558
 20
650.78215
 11
10779.25492
 21
648.48467
  0
LINE
  8
CYAN
 10
10845.75128
 20
608.03849
 11
10843.67001
 21
609.643
  0
LINE
  8
CYAN
 10
10843.67001
 20
609.643
 11
10843.41568
 21
608.90883
  0
ARC
  8
CYAN
 10
10842.1697878891
 20
609.3408700978
 40
1.3186757745
 50
193.8224523575
 51
340.8749026448
  0
ARC
  8
CYAN
 10
10846.1981105085
 20
610.1464503506
 40
5.4257977661
 50
171.0455656564
 51
191.9195138235
  0
ARC
  8
CYAN
 10
10847.9455072749
 20
609.6062553173
 40
7.2407071479
 50
140.2148524082
 51
168.9748270798
  0
LINE
  8
CYAN
 10
10842.38139
 20
614.23966
 11
10843.19526
 21
615.36381
  0
ARC
  8
CYAN
 10
10838.8607596741
 20
619.9073193805
 40
6.2794403068
 50
313.6513728375
 51
350.8542074444
  0
ARC
  8
CYAN
 10
10847.4393457148
 20
618.5337763301
 40
2.4084192743
 50
90.1236050404
 51
171.0316988911
  0
ARC
  8
CYAN
 10
10847.4374260076
 20
618.523833395
 40
2.4183588239
 50
9.1696769282
 51
90.0776152253
  0
ARC
  8
CYAN
 10
10856.0160076587
 20
619.8821344914
 40
6.2671065329
 50
188.9307978437
 51
226.1336828802
  0
LINE
  8
CYAN
 10
10851.67304
 20
615.36381
 11
10852.50386
 21
614.23966
  0
ARC
  8
CYAN
 10
10846.938361272
 20
609.6055773217
 40
7.2422025904
 50
11.0283325665
 51
39.7822757547
  0
ARC
  8
CYAN
 10
10848.6880600982
 20
610.1464537934
 40
5.4248977233
 50
348.0784424132
 51
8.9558953786
  0
ARC
  8
CYAN
 10
10852.7069869467
 20
609.3433798595
 40
1.3275051854
 50
199.1076005728
 51
346.1597549196
  0
LINE
  8
CYAN
 10
10851.45262
 20
608.90883
 11
10850.94395
 21
610.37887
  0
ARC
  8
CYAN
 10
10848.6947073613
 20
609.2892516123
 40
2.4992720297
 50
25.8473066716
 51
91.3003564156
  0
ARC
  8
CYAN
 10
10848.6253322521
 20
612.1310978658
 40
0.343451193
 50
180.9672670458
 51
272.1120899414
  0
LINE
  8
CYAN
 10
10848.28193
 20
612.1253
 11
10848.28193
 21
614.60759
  0
ARC
  8
CYAN
 10
10847.94282
 20
614.60759
 40
0.33911
 50
-0.0000000002
 51
89.9999999997
  0
LINE
  8
CYAN
 10
10847.94282
 20
614.9467
 11
10846.92548
 21
614.9467
  0
ARC
  8
CYAN
 10
10846.92548
 20
614.60759
 40
0.33911
 50
90.0
 51
179.9999999999
  0
LINE
  8
CYAN
 10
10846.58637
 20
614.60759
 11
10846.58637
 21
612.1253
  0
ARC
  8
CYAN
 10
10846.2514466232
 20
612.12278664
 40
0.3349328072
 50
269.2837904201
 51
0.429955708
  0
ARC
  8
CYAN
 10
10846.1824702391
 20
609.275400145
 40
2.5133150887
 50
88.5228310035
 51
153.9567456885
  0
LINE
  8
CYAN
 10
10843.92435
 20
610.37887
 11
10843.87451
 21
610.23468
  0
LINE
  8
CYAN
 10
10843.87451
 20
610.23468
 11
10846.4608
 21
609.27816
  0
ARC
  8
CYAN
 10
10847.6410050767
 20
616.3709649255
 40
0.2238406717
 50
90.8665002774
 51
180.8664615708
  0
LINE
  8
CYAN
 10
10847.63762
 20
616.59478
 11
10847.85804
 21
616.59478
  0
ARC
  8
CYAN
 10
10847.86313
 20
616.36249
 40
0.23234576
 50
1.2552794154
 51
91.255279414
  0
LINE
  8
CYAN
 10
10848.09542
 20
616.36758
 11
10848.09542
 21
616.29128
  0
ARC
  8
CYAN
 10
10847.864860601
 20
616.298811214
 40
0.2306823696
 50
309.1940329856
 51
358.1291007694
  0
LINE
  8
CYAN
 10
10848.01064
 20
616.12003
 11
10847.41719
 21
615.53506
  0
LINE
  8
CYAN
 10
10847.41719
 20
615.53506
 11
10848.09542
 21
615.53506
  0
LINE
  8
CYAN
 10
10782.80623
 20
621.76493
 11
10780.30187
 21
620.81991
  0
LINE
  8
CYAN
 10
10780.30187
 20
620.81991
 11
10780.89532
 21
619.69237
  0
ARC
  8
CYAN
 10
10779.9262881205
 20
619.1952580718
 40
1.0891019478
 50
244.3064706885
 51
27.1577568583
  0
ARC
  8
CYAN
 10
10781.4046829357
 20
622.2750562564
 40
4.5053580624
 50
191.8623459385
 51
244.345246243
  0
ARC
  8
CYAN
 10
10785.3282993862
 20
622.2696697566
 40
8.3834742612
 50
166.8367348815
 51
186.3053974962
  0
LINE
  8
CYAN
 10
10777.1651
 20
624.17881
 11
10777.75854
 21
626.21348
  0
ARC
  8
CYAN
 10
10776.1417817407
 20
626.3889405832
 40
1.6262514213
 50
353.8061494436
 51
27.1395388602
  0
LINE
  8
CYAN
 10
10777.58898
 20
627.13077
 11
10776.14776
 21
629.90301
  0
ARC
  8
CYAN
 10
10778.5843592509
 20
631.0767065737
 40
2.7045479394
 50
129.6141752853
 51
205.7198632857
  0
ARC
  8
CYAN
 10
10778.5854632629
 20
631.0868500982
 40
2.6974476805
 50
53.6788556808
 51
129.7696181923
  0
LINE
  8
CYAN
 10
10780.18319
 20
633.26021
 11
10782.64174
 21
631.32897
  0
ARC
  8
CYAN
 10
10783.6290314084
 20
632.6067394587
 40
1.6147566735
 50
232.3078905852
 51
265.6473709437
  0
LINE
  8
CYAN
 10
10783.50648
 20
630.99664
 11
10785.62592
 21
631.20519
  0
ARC
  8
CYAN
 10
10785.9608901393
 20
622.8178873674
 40
8.3939889472
 50
72.8179357288
 51
92.2870500486
  0
ARC
  8
CYAN
 10
10786.7293569154
 20
626.6802235005
 40
4.4954570658
 50
15.1458082075
 51
67.6260855281
  0
ARC
  8
CYAN
 10
10790.0116145532
 20
627.5731330131
 40
1.0939241756
 50
232.0705813778
 51
14.9196863252
  0
LINE
  8
CYAN
 10
10789.33919
 20
626.71028
 11
10788.84748
 21
627.10534
  0
LINE
  8
CYAN
 10
10788.84748
 20
627.10534
 11
10788.33881
 21
627.5004
  0
ARC
  8
CYAN
 10
10783.5065340021
 20
621.5444084753
 40
7.6697279197
 50
50.9465355231
 51
58.2548459133
  0
ARC
  8
CYAN
 10
10786.3656068809
 20
626.1574792817
 40
2.2425132379
 50
58.3625617515
 51
109.7188974783
  0
ARC
  8
CYAN
 10
10786.61104196
 20
624.7706708556
 40
3.6385281337
 50
105.986202061
 51
121.1798640412
  0
ARC
  8
CYAN
 10
10788.2840445462
 20
621.1372696124
 40
7.6265029821
 50
117.7988572162
 51
129.1157196307
  0
ARC
  8
CYAN
 10
10783.2521913
 20
627.2989399025
 40
0.3291387316
 50
219.3877250234
 51
312.033248267
  0
LINE
  8
CYAN
 10
10782.99781
 20
627.09008
 11
10781.06488
 21
629.40621
  0
ARC
  8
CYAN
 10
10780.80461
 20
629.19172
 40
0.337263151
 50
39.4921306954
 51
129.4921306955
  0
LINE
  8
CYAN
 10
10780.59012
 20
629.45199
 11
10779.81016
 21
628.80429
  0
ARC
  8
CYAN
 10
10780.0238005818
 20
628.53978547
 40
0.3400072714
 50
128.9278460991
 51
218.9289049505
  0
LINE
  8
CYAN
 10
10779.7593
 20
628.32614
 11
10781.67528
 21
626.00831
  0
ARC
  8
CYAN
 10
10781.4174998705
 20
625.7892887607
 40
0.3382615829
 50
307.7115664251
 51
40.3526797591
  0
ARC
  8
CYAN
 10
10786.5787839908
 20
619.749393256
 40
7.6069199642
 50
130.6395592996
 51
141.9306772606
  0
ARC
  8
CYAN
 10
10783.293747365
 20
622.0090507713
 40
3.6357632971
 50
138.0407289541
 51
153.2341542276
  0
ARC
  8
CYAN
 10
10781.9855999783
 20
622.5194897249
 40
2.2418749402
 50
149.8235808043
 51
201.1641673244
  0
ARC
  8
CYAN
 10
10787.0662193349
 20
624.4502472869
 40
7.6769632055
 50
200.9120062537
 51
203.7724721362
  0
LINE
  8
CYAN
 10
10780.04062
 20
621.35562
 11
10782.34343
 21
622.59677
  0
ARC
  8
CYAN
 10
10779.4857338442
 20
629.7874977574
 40
0.3290555481
 50
267.4423717212
 51
312.5920436555
  0
LINE
  8
CYAN
 10
10779.70843
 20
629.54525
 11
10779.82712
 21
629.6402
  0
ARC
  8
CYAN
 10
10779.6312003382
 20
629.8707342609
 40
0.302540178
 50
310.3595640835
 51
40.5651870232
  0
LINE
  8
CYAN
 10
10779.86103
 20
630.06748
 11
10779.81016
 21
630.12513
  0
ARC
  8
CYAN
 10
10779.57787
 20
629.93353
 40
0.3011132745
 50
39.5168702833
 51
129.5168702833
  0
LINE
  8
CYAN
 10
10779.38627
 20
630.16582
 11
10779.09803
 21
629.92505
  0
LINE
  8
CYAN
 10
10779.09803
 20
629.92505
 11
10778.8437
 21
630.21669
  0
LINE
  8
CYAN
 10
10778.8437
 20
630.21669
 11
10779.36932
 21
630.65075
  0
LINE
  8
CYAN
 10
10945.80815
 20
568.49521
 11
10945.91166
 21
570.08544
  0
LINE
  8
CYAN
 10
10945.91166
 20
570.08544
 11
10942.24756
 21
569.40468
  0
ARC
  8
CYAN
 10
10941.906237945
 20
571.193871504
 40
1.8214573789
 50
186.8017018618
 51
280.8004796096
  0
ARC
  8
CYAN
 10
10952.7769697348
 20
574.3776802112
 40
13.1271940081
 50
167.9670105368
 51
195.0088675156
  0
ARC
  8
CYAN
 10
10941.7214349138
 20
576.7443965224
 40
1.8212005566
 50
80.444802771
 51
168.2788865388
  0
LINE
  8
CYAN
 10
10942.02375
 20
578.54033
 11
10945.17748
 21
578.01132
  0
ARC
  8
CYAN
 10
10945.3887761626
 20
579.2707981129
 40
1.2770791617
 50
260.47646776
 51
331.8959995818
  0
LINE
  8
CYAN
 10
10946.51528
 20
578.6692
 11
10948.00228
 21
581.4516
  0
ARC
  8
CYAN
 10
10950.6944918824
 20
580.013571127
 40
3.0522011498
 50
89.9300159297
 51
151.8913626561
  0
ARC
  8
CYAN
 10
10950.7019381278
 20
580.013571121
 40
3.0522011437
 50
28.1086375346
 51
90.0697965416
  0
LINE
  8
CYAN
 10
10953.39415
 20
581.4516
 11
10954.88115
 21
578.6692
  0
ARC
  8
CYAN
 10
10956.0076538374
 20
579.2707981129
 40
1.2770791617
 50
208.1040004181
 51
279.5235322398
  0
LINE
  8
CYAN
 10
10956.21895
 20
578.01132
 11
10959.37268
 21
578.54033
  0
ARC
  8
CYAN
 10
10959.6749950862
 20
576.7443965224
 40
1.8212005566
 50
11.7211134612
 51
99.5551972291
  0
ARC
  8
CYAN
 10
10948.6194602652
 20
574.3776802111
 40
13.1271940081
 50
344.9911324844
 51
12.0329894633
  0
ARC
  8
CYAN
 10
10959.490192055
 20
571.193871504
 40
1.8214573789
 50
259.1995203905
 51
353.1982981382
  0
LINE
  8
CYAN
 10
10959.14887
 20
569.40468
 11
10951.82237
 21
570.76621
  0
ARC
  8
CYAN
 10
10951.8854786431
 20
571.0997816399
 40
0.3394889391
 50
179.9243299439
 51
259.2867948973
  0
LINE
  8
CYAN
 10
10951.54599
 20
571.10023
 11
10951.54599
 21
573.51131
  0
ARC
  8
CYAN
 10
10951.2068750001
 20
573.5113150001
 40
0.339115
 50
359.9991552042
 51
89.9991552281
  0
LINE
  8
CYAN
 10
10951.20688
 20
573.85043
 11
10950.18955
 21
573.85043
  0
ARC
  8
CYAN
 10
10950.1895549999
 20
573.5113150001
 40
0.339115
 50
90.0008447719
 51
180.0008447958
  0
LINE
  8
CYAN
 10
10949.85044
 20
573.51131
 11
10949.85044
 21
571.10023
  0
ARC
  8
CYAN
 10
10949.5116230738
 20
571.0989037378
 40
0.338819522
 50
280.9116586812
 51
0.224276984
  0
LINE
  8
CYAN
 10
10949.57576
 20
570.76621
 11
10946.51364
 21
570.19729
  0
LINE
  8
CYAN
 10
10946.51364
 20
570.19729
 11
10946.86207
 21
568.70457
  0
ARC
  8
CYAN
 10
10950.1047749999
 20
575.6595850001
 40
0.2272049999
 50
90.0012608549
 51
180.0012609107
  0
LINE
  8
CYAN
 10
10950.10477
 20
575.88679
 11
10950.33197
 21
575.88679
  0
ARC
  8
CYAN
 10
10950.331975
 20
575.659585
 40
0.2272050001
 50
359.9987391191
 51
90.0012608815
  0
LINE
  8
CYAN
 10
10950.55918
 20
575.65958
 11
10950.55918
 21
575.58328
  0
ARC
  8
CYAN
 10
10950.33256801
 20
575.5845657237
 40
0.2266156373
 50
310.4158999768
 51
359.6749256305
  0
LINE
  8
CYAN
 10
10950.47949
 20
575.41203
 11
10949.87757
 21
574.82707
  0
LINE
  8
CYAN
 10
10949.87757
 20
574.82707
 11
10950.55918
 21
574.82707
  0
LINE
  8
CYAN
 10
10798.05618
 20
630.99275
 11
10797.88173
 21
631.57692
  0
LINE
  8
CYAN
 10
10797.88173
 20
631.57692
 11
10800.2756
 21
632.01948
  0
ARC
  8
CYAN
 10
10800.212486365
 20
632.3530456067
 40
0.3394839391
 50
280.7142222101
 51
0.0766894145
  0
LINE
  8
CYAN
 10
10800.55197
 20
632.3535
 11
10800.55197
 21
634.76458
  0
ARC
  8
CYAN
 10
10800.89108
 20
634.76458
 40
0.33911
 50
89.9999999997
 51
179.9999999998
  0
LINE
  8
CYAN
 10
10800.89108
 20
635.10369
 11
10801.90842
 21
635.10369
  0
ARC
  8
CYAN
 10
10801.90842
 20
634.76458
 40
0.33911
 50
-0.0000000002
 51
90.0
  0
LINE
  8
CYAN
 10
10802.24753
 20
634.76458
 11
10802.24753
 21
632.3535
  0
ARC
  8
CYAN
 10
10802.5861599903
 20
632.3520200118
 40
0.3386332244
 50
179.7495894016
 51
259.1144749328
  0
LINE
  8
CYAN
 10
10802.52221
 20
632.01948
 11
10808.48379
 21
630.91737
  0
ARC
  8
CYAN
 10
10808.769765618
 20
632.4175141118
 40
1.5271589342
 50
259.2070823322
 51
353.1931069328
  0
ARC
  8
CYAN
 10
10799.6567300807
 20
635.0871830984
 40
11.0050496375
 50
344.9872972815
 51
12.0295870559
  0
ARC
  8
CYAN
 10
10808.9240112584
 20
637.0709591383
 40
1.5278498611
 50
11.7012377753
 51
99.4944220381
  0
LINE
  8
CYAN
 10
10808.67199
 20
638.57788
 11
10806.02862
 21
638.13365
  0
ARC
  8
CYAN
 10
10805.850687218
 20
639.1899313658
 40
1.0711631055
 50
208.1425036536
 51
279.5618245853
  0
LINE
  8
CYAN
 10
10804.90616
 20
638.6847
 11
10803.65993
 21
641.01779
  0
ARC
  8
CYAN
 10
10801.4026962053
 20
639.8114962852
 40
2.5593454105
 50
28.1205994765
 51
90.0659563822
  0
ARC
  8
CYAN
 10
10801.3951158797
 20
639.8114975352
 40
2.5593466602
 50
89.8962564604
 51
151.8794472028
  0
LINE
  8
CYAN
 10
10799.13788
 20
641.01779
 11
10797.89165
 21
638.6847
  0
ARC
  8
CYAN
 10
10796.947122782
 20
639.1899313658
 40
1.0711631055
 50
260.4381754146
 51
331.8574963462
  0
LINE
  8
CYAN
 10
10796.76919
 20
638.13365
 11
10794.12581
 21
638.57788
  0
ARC
  8
CYAN
 10
10793.8737977602
 20
637.0709584662
 40
1.5278490364
 50
80.5059156911
 51
168.2987300811
  0
ARC
  8
CYAN
 10
10803.1410699261
 20
635.0871828382
 40
11.005039918
 50
167.9704007757
 51
195.0127148869
  0
ARC
  8
CYAN
 10
10794.0280408938
 20
632.4175093458
 40
1.5271549057
 50
186.8067310293
 51
280.7930797055
  0
LINE
  8
CYAN
 10
10794.31402
 20
630.91737
 11
10797.29481
 21
631.46842
  0
LINE
  8
CYAN
 10
10797.29481
 20
631.46842
 11
10797.34584
 21
630.79583
  0
ARC
  8
CYAN
 10
10800.7545900187
 20
636.5559400186
 40
0.2263515773
 50
89.7848459716
 51
179.7873772281
  0
LINE
  8
CYAN
 10
10800.75544
 20
636.78229
 11
10800.98264
 21
636.78229
  0
ARC
  8
CYAN
 10
10800.9834999623
 20
636.5559400374
 40
0.2263515962
 50
0.2126179919
 51
90.2176805032
  0
LINE
  8
CYAN
 10
10801.20985
 20
636.55678
 11
10801.20985
 21
636.48048
  0
ARC
  8
CYAN
 10
10800.9832418352
 20
636.4817639437
 40
0.2266118022
 50
310.4154554231
 51
359.6753701836
  0
LINE
  8
CYAN
 10
10801.13016
 20
636.30923
 11
10800.52824
 21
635.72257
  0
LINE
  8
CYAN
 10
10800.52824
 20
635.72257
 11
10801.20985
 21
635.72257
  0
ARC
  8
CYAN
 10
10801.6120502605
 20
636.0344299125
 40
0.3126132592
 50
228.896098105
 51
273.9784932992
  0
LINE
  8
CYAN
 10
10801.63374
 20
635.72257
 11
10801.73886
 21
635.72257
  0
ARC
  8
CYAN
 10
10801.7388650001
 20
636.0260749999
 40
0.303505
 50
269.9990560828
 51
359.9990561141
  0
LINE
  8
CYAN
 10
10802.04237
 20
636.02607
 11
10802.04237
 21
636.48048
  0
ARC
  8
CYAN
 10
10801.7397149999
 20
636.4796350281
 40
0.3026561796
 50
0.1599616684
 51
90.1618600755
  0
LINE
  8
CYAN
 10
10801.73886
 20
636.78229
 11
10801.66426
 21
636.78229
  0
ARC
  8
CYAN
 10
10801.6634050001
 20
636.4796350281
 40
0.3026561796
 50
89.8381399242
 51
179.8400383313
  0
LINE
  8
CYAN
 10
10801.36075
 20
636.48048
 11
10801.36075
 21
636.40418
  0
ARC
  8
CYAN
 10
10801.66341
 20
636.40503
 40
0.3026611936
 50
180.1609108724
 51
270.1609108715
  0
LINE
  8
CYAN
 10
10801.66426
 20
636.10237
 11
10801.73886
 21
636.10237
  0
ARC
  8
CYAN
 10
10801.73971
 20
636.40503
 40
0.3026611936
 50
269.8390891282
 51
359.8390891283
  0
LINE
  8
CYAN
 10
10835.30225
 20
634.8619
 11
10834.32463
 21
634.79823
  0
ARC
  8
CYAN
 10
10842.8026996908
 20
634.8239066421
 40
8.4781085728
 50
177.1742226253
 51
180.1735251988
  0
ARC
  8
CYAN
 10
10833.9951379309
 20
635.2578121835
 40
0.34013588
 50
357.3135601102
 51
89.6054760899
  0
LINE
  8
CYAN
 10
10833.99748
 20
635.59794
 11
10830.99126
 21
635.6098
  0
ARC
  8
CYAN
 10
10830.9921149873
 20
635.9480649874
 40
0.3382660679
 50
179.8551771209
 51
269.8551814018
  0
LINE
  8
CYAN
 10
10830.65385
 20
635.94892
 11
10830.65724
 21
636.96625
  0
ARC
  8
CYAN
 10
10830.9963521056
 20
636.9662520951
 40
0.3391121056
 50
89.7148151734
 51
180.0003539872
  0
LINE
  8
CYAN
 10
10830.99804
 20
637.30536
 11
10834.00427
 21
637.29349
  0
ARC
  8
CYAN
 10
10834.0069350165
 20
637.6319148428
 40
0.3384353358
 50
269.5488184543
 51
2.4140565714
  0
ARC
  8
CYAN
 10
10842.816330384
 20
638.0028335158
 40
8.4787653203
 50
174.3346498349
 51
182.4108870725
  0
ARC
  8
CYAN
 10
10842.8139431912
 20
637.9800160849
 40
8.4786733161
 50
168.1939338258
 51
174.1796184374
  0
ARC
  8
CYAN
 10
10838.8727955336
 20
639.053819022
 40
4.4079968893
 50
156.1834548186
 51
171.3766040929
  0
ARC
  8
CYAN
 10
10837.3939034574
 20
639.8929936605
 40
2.7215234624
 50
108.4181322198
 51
159.7757890985
  0
ARC
  8
CYAN
 10
10839.4844364177
 20
633.6289748953
 40
9.3251780311
 50
101.1345320856
 51
108.4447688683
  0
LINE
  8
CYAN
 10
10837.68362
 20
642.77862
 11
10839.19775
 21
643.09229
  0
ARC
  8
CYAN
 10
10838.9163695696
 20
644.3851360673
 40
1.3231122025
 50
282.2786082356
 51
65.2291783738
  0
ARC
  8
CYAN
 10
10837.1869893556
 20
640.6270102466
 40
5.4600508066
 50
65.2748731335
 51
117.7443135666
  0
ARC
  8
CYAN
 10
10840.1699508044
 20
636.9159915372
 40
10.1740741546
 50
122.8896960488
 51
142.3577218963
  0
LINE
  8
CYAN
 10
10832.11372
 20
643.1296
 11
10830.66571
 21
641.00337
  0
ARC
  8
CYAN
 10
10829.2509611881
 20
642.3790450876
 40
1.9733210959
 50
282.4745423564
 51
315.8022484276
  0
LINE
  8
CYAN
 10
10829.67721
 20
640.45231
 11
10825.96563
 21
639.66727
  0
ARC
  8
CYAN
 10
10826.745947271
 20
636.4783865315
 40
3.2829670756
 50
103.7500415437
 51
179.8599707729
  0
ARC
  8
CYAN
 10
10826.7457079142
 20
636.469292694
 40
3.2827625419
 50
179.70124131
 51
255.7960028624
  0
LINE
  8
CYAN
 10
10825.9402
 20
633.28689
 11
10829.64499
 21
632.47303
  0
ARC
  8
CYAN
 10
10829.2031543345
 20
630.548173218
 40
1.9749157923
 50
43.7354119421
 51
77.0721556428
  0
LINE
  8
CYAN
 10
10830.63011
 20
631.91349
 11
10832.06116
 21
629.77709
  0
ARC
  8
CYAN
 10
10840.1711535543
 20
635.9201860366
 40
10.1739679755
 50
217.1429228634
 51
236.6114659772
  0
ARC
  8
CYAN
 10
10837.1518663354
 20
632.2373597841
 40
5.4598263547
 50
241.8054628091
 51
294.2904058697
  0
ARC
  8
CYAN
 10
10838.8535497422
 20
628.466502547
 40
1.3227874829
 50
294.2968736174
 51
77.2631247311
  0
LINE
  8
CYAN
 10
10839.14519
 20
629.75674
 11
10837.63276
 21
630.08229
  0
ARC
  8
CYAN
 10
10839.5040940832
 20
639.2190170542
 40
9.326396545
 50
251.122389412
 51
258.425074473
  0
ARC
  8
CYAN
 10
10837.3660176776
 20
632.9703524462
 40
2.7220666002
 50
199.7808797499
 51
251.1504313201
  0
ARC
  8
CYAN
 10
10838.8501776783
 20
633.7988982067
 40
4.4077880244
 50
188.2042039156
 51
203.3888747811
  0
ARC
  8
CYAN
 10
10842.8026976994
 20
634.823936946
 40
8.4781101077
 50
184.2123698388
 51
191.2502736554
  0
LINE
  8
CYAN
 10
10834.34749
 20
634.20119
 11
10835.38173
 21
634.1204
  0
ARC
  8
CYAN
 10
10887.6885943947
 20
632.3496623072
 40
0.2994752843
 50
275.1372571986
 51
320.260915792
  0
LINE
  8
CYAN
 10
10887.91888
 20
632.15821
 11
10888.00365
 21
632.23451
  0
ARC
  8
CYAN
 10
10887.78832
 20
632.44815
 40
0.3033299499
 50
315.2257252637
 51
44.7742747363
  0
LINE
  8
CYAN
 10
10888.00365
 20
632.66179
 11
10887.6815
 21
632.98394
  0
ARC
  8
CYAN
 10
10887.461075
 20
632.76177
 40
0.3129643582
 50
45.2258964002
 51
134.7741035998
  0
LINE
  8
CYAN
 10
10887.24065
 20
632.98394
 11
10887.18979
 21
632.92968
  0
ARC
  8
CYAN
 10
10887.40343
 20
632.715195
 40
0.3027306803
 50
134.8869141703
 51
225.1130858297
  0
LINE
  8
CYAN
 10
10887.18979
 20
632.50071
 11
10887.24065
 21
632.44815
  0
ARC
  8
CYAN
 10
10887.461075
 20
632.66857
 40
0.311724489
 50
224.9993501596
 51
315.0006498404
  0
LINE
  8
CYAN
 10
10887.6815
 20
632.44815
 11
10887.73236
 21
632.50071
  0
ARC
  8
CYAN
 10
10887.51872
 20
632.715195
 40
0.3027306804
 50
314.8869141706
 51
45.1130858294
  0
ARC
  8
CYAN
 10
10886.70655
 20
632.12684
 40
0.2272012749
 50
135.1515710652
 51
224.8484289348
  0
LINE
  8
CYAN
 10
10886.54547
 20
632.28707
 11
10886.71503
 21
632.44815
  0
ARC
  8
CYAN
 10
10886.87611
 20
632.28622
 40
0.2284033522
 50
45.1507733512
 51
134.8492266488
  0
LINE
  8
CYAN
 10
10887.03719
 20
632.44815
 11
10887.08805
 21
632.39389
  0
ARC
  8
CYAN
 10
10886.92698
 20
632.23366
 40
0.2271941852
 50
315.1497925463
 51
44.8502074536
  0
ARC
  8
CYAN
 10
10887.24913
 20
631.9115
 40
0.2284033522
 50
45.1507733512
 51
134.8492266488
  0
LINE
  8
CYAN
 10
10887.41021
 20
632.07343
 11
10887.46108
 21
632.01917
  0
ARC
  8
CYAN
 10
10887.3
 20
631.85894
 40
0.2272012749
 50
315.1515710652
 51
44.8484289348
  0
LINE
  8
CYAN
 10
10887.46108
 20
631.69871
 11
10887.30848
 21
631.53763
  0
ARC
  8
CYAN
 10
10887.1474
 20
631.69956
 40
0.2284033522
 50
225.1507733512
 51
314.8492266488
  0
ARC
  8
CYAN
 10
10867.4959
 20
609.08504
 40
0.2278015206
 50
135.0000000003
 51
224.9999999997
  0
LINE
  8
CYAN
 10
10867.33482
 20
609.24612
 11
10867.48742
 21
609.4055
  0
ARC
  8
CYAN
 10
10867.6485
 20
609.24528
 40
0.2271942226
 50
44.8466409813
 51
135.1533590187
  0
LINE
  8
CYAN
 10
10867.80958
 20
609.4055
 11
10867.8774
 21
609.35294
  0
ARC
  8
CYAN
 10
10867.71632
 20
609.19186
 40
0.2278015206
 50
315.0
 51
45.0
  0
ARC
  8
CYAN
 10
10868.03
 20
608.87899
 40
0.2152369952
 50
44.847532863
 51
135.152467137
  0
LINE
  8
CYAN
 10
10868.1826
 20
609.03078
 11
10868.25042
 21
608.97822
  0
ARC
  8
CYAN
 10
10868.08934
 20
608.817145
 40
0.2277979851
 50
315.0008892579
 51
44.9991107421
  0
LINE
  8
CYAN
 10
10868.25042
 20
608.65607
 11
10868.08087
 21
608.49668
  0
ARC
  8
CYAN
 10
10867.91979
 20
608.65691
 40
0.2272012749
 50
224.8484289348
 51
315.1515710656
  0
LINE
  8
CYAN
 10
10815.55835
 20
733.66968
 11
10815.55835
 21
734.72941
  0
LINE
  8
CYAN
 10
10815.55835
 20
734.72941
 11
10815.25484
 21
734.275
  0
LINE
  8
CYAN
 10
10816.01106
 20
734.20039
 11
10816.16366
 21
734.20039
  0
LINE
  8
CYAN
 10
10902.37873
 20
778.8694
 11
10902.37873
 21
779.92912
  0
LINE
  8
CYAN
 10
10902.37873
 20
779.92912
 11
10902.07692
 21
779.47471
  0
LINE
  8
CYAN
 10
10908.69468
 20
781.94514
 11
10908.99649
 21
782.39955
  0
LINE
  8
CYAN
 10
10908.99649
 20
782.39955
 11
10908.99649
 21
781.33983
  0
LINE
  8
CYAN
 10
10909.4509
 20
781.86884
 11
10909.6018
 21
781.86884
  0
LINE
  8
CYAN
 10
10915.22427
 20
782.11978
 11
10915.22427
 21
783.17951
  0
LINE
  8
CYAN
 10
10915.22427
 20
783.17951
 11
10914.92246
 21
782.7251
  0
LINE
  8
CYAN
 10
10916.05679
 20
782.42329
 11
10915.37687
 21
782.42329
  0
LINE
  8
CYAN
 10
10915.37687
 20
782.42329
 11
10915.90588
 21
783.17951
  0
LINE
  8
CYAN
 10
10915.90588
 20
783.17951
 11
10915.90588
 21
782.11978
  0
LINE
  8
CYAN
 10
10920.89082
 20
782.33512
 11
10921.19263
 21
782.78953
  0
LINE
  8
CYAN
 10
10921.19263
 20
782.78953
 11
10921.19263
 21
781.7298
  0
LINE
  8
CYAN
 10
10927.06603
 20
779.72735
 11
10927.06603
 21
780.78708
  0
LINE
  8
CYAN
 10
10927.06603
 20
780.78708
 11
10926.76253
 21
780.33267
  0
LINE
  8
CYAN
 10
10933.19377
 20
775.90387
 11
10933.19377
 21
776.9636
  0
LINE
  8
CYAN
 10
10933.19377
 20
776.9636
 11
10932.89027
 21
776.50919
  0
LINE
  8
CYAN
 10
10933.34468
 20
776.9636
 11
10934.02629
 21
776.9636
  0
LINE
  8
CYAN
 10
10934.02629
 20
776.9636
 11
10933.57188
 21
775.90387
  0
LINE
  8
CYAN
 10
10940.52197
 20
772.95191
 11
10940.29476
 21
772.95191
  0
LINE
  8
CYAN
 10
10940.29476
 20
772.95191
 11
10940.06756
 21
773.17911
  0
LINE
  8
CYAN
 10
10940.06756
 20
773.17911
 11
10940.06756
 21
773.25372
  0
LINE
  8
CYAN
 10
10940.06756
 20
773.25372
 11
10940.29476
 21
773.48092
  0
LINE
  8
CYAN
 10
10940.29476
 20
773.48092
 11
10940.52197
 21
773.48092
  0
LINE
  8
CYAN
 10
10940.52197
 20
773.48092
 11
10940.74917
 21
773.25372
  0
LINE
  8
CYAN
 10
10940.74917
 20
773.25372
 11
10940.74917
 21
773.17911
  0
LINE
  8
CYAN
 10
10940.74917
 20
773.17911
 11
10940.52197
 21
772.95191
  0
LINE
  8
CYAN
 10
10939.91666
 20
772.4212
 11
10939.91666
 21
773.48092
  0
LINE
  8
CYAN
 10
10939.91666
 20
773.48092
 11
10939.61485
 21
773.02651
  0
LINE
  8
CYAN
 10
10947.17872
 20
771.10545
 11
10947.17872
 21
772.16517
  0
LINE
  8
CYAN
 10
10947.17872
 20
772.16517
 11
10946.87691
 21
771.71076
  0
LINE
  8
CYAN
 10
10961.0399
 20
775.44946
 11
10961.0399
 21
776.50919
  0
LINE
  8
CYAN
 10
10961.0399
 20
776.50919
 11
10960.73639
 21
776.05478
  0
LINE
  8
CYAN
 10
10972.53916
 20
778.6015
 11
10972.69176
 21
778.6015
  0
LINE
  8
CYAN
 10
10979.06705
 20
778.20644
 11
10979.06705
 21
779.26616
  0
LINE
  8
CYAN
 10
10979.06705
 20
779.26616
 11
10978.54143
 21
778.50994
  0
LINE
  8
CYAN
 10
10978.54143
 20
778.50994
 11
10979.21965
 21
778.50994
  0
LINE
  8
CYAN
 10
10803.24137
 20
670.62864
 11
10803.91959
 21
670.62864
  0
LINE
  8
CYAN
 10
10803.91959
 20
670.62864
 11
10803.46179
 21
669.56892
  0
LINE
  8
CYAN
 10
10811.26135
 20
668.05479
 11
10811.48177
 21
668.05479
  0
LINE
  8
CYAN
 10
10811.48177
 20
668.05479
 11
10811.71915
 21
667.82758
  0
LINE
  8
CYAN
 10
10811.71915
 20
667.82758
 11
10811.71915
 21
667.75298
  0
LINE
  8
CYAN
 10
10811.71915
 20
667.75298
 11
10811.48177
 21
667.52577
  0
LINE
  8
CYAN
 10
10811.48177
 20
667.52577
 11
10811.26135
 21
667.52577
  0
LINE
  8
CYAN
 10
10811.26135
 20
667.52577
 11
10811.02397
 21
667.75298
  0
LINE
  8
CYAN
 10
10811.02397
 20
667.75298
 11
10811.02397
 21
667.82758
  0
LINE
  8
CYAN
 10
10811.02397
 20
667.82758
 11
10811.26135
 21
668.05479
  0
LINE
  8
CYAN
 10
10826.45354
 20
666.84755
 11
10826.60614
 21
666.84755
  0
LINE
  8
CYAN
 10
10834.54134
 20
667.5919
 11
10834.67698
 21
667.5919
  0
LINE
  8
CYAN
 10
10835.06696
 20
667.6665
 11
10835.37216
 21
668.12091
  0
LINE
  8
CYAN
 10
10835.37216
 20
668.12091
 11
10835.37216
 21
667.06119
  0
LINE
  8
CYAN
 10
10842.22221
 20
669.35528
 11
10842.37481
 21
669.35528
  0
LINE
  8
CYAN
 10
10849.73352
 20
671.89353
 11
10849.88612
 21
671.89353
  0
LINE
  8
CYAN
 10
10850.56435
 20
671.89353
 11
10850.71695
 21
671.89353
  0
LINE
  8
CYAN
 10
10856.83791
 20
675.40502
 11
10856.99051
 21
675.40502
  0
LINE
  8
CYAN
 10
10857.88915
 20
674.87601
 11
10857.88915
 21
675.93573
  0
LINE
  8
CYAN
 10
10857.88915
 20
675.93573
 11
10857.36353
 21
675.17782
  0
LINE
  8
CYAN
 10
10857.36353
 20
675.17782
 11
10858.04175
 21
675.17782
  0
LINE
  8
CYAN
 10
10863.92533
 20
679.66256
 11
10864.07793
 21
679.66256
  0
LINE
  8
CYAN
 10
10870.16498
 20
685.09004
 11
10870.31758
 21
685.09004
  0
LINE
  8
CYAN
 10
10875.81118
 20
690.31914
 11
10875.96378
 21
690.31914
  0
LINE
  8
CYAN
 10
10876.3368
 20
690.84985
 11
10877.03198
 21
690.84985
  0
LINE
  8
CYAN
 10
10877.03198
 20
690.84985
 11
10876.57418
 21
689.79012
  0
LINE
  8
CYAN
 10
10921.11611
 20
743.38665
 11
10921.11611
 21
744.44637
  0
LINE
  8
CYAN
 10
10921.11611
 20
744.44637
 11
10920.59048
 21
743.69015
  0
LINE
  8
CYAN
 10
10920.59048
 20
743.69015
 11
10921.26871
 21
743.69015
  0
LINE
  8
CYAN
 10
10784.54643
 20
600.32847
 11
10784.32601
 21
601.36615
  0
LINE
  8
CYAN
 10
10784.32601
 20
601.36615
 11
10783.96994
 21
600.51837
  0
LINE
  8
CYAN
 10
10783.96994
 20
600.51837
 11
10784.63121
 21
600.65402
  0
LINE
  8
CYAN
 10
10784.71598
 20
600.98126
 11
10784.91945
 21
601.48653
  0
LINE
  8
CYAN
 10
10784.91945
 20
601.48653
 11
10785.13987
 21
600.44885
  0
LINE
  8
CYAN
 10
11023.45701
 20
749.16725
 11
11023.5757
 21
749.2622
  0
LINE
  8
CYAN
 10
10908.90294
 20
718.64612
 11
10909.58116
 21
718.7292
  0
LINE
  8
CYAN
 10
10909.58116
 20
718.7292
 11
10909.259
 21
717.622
  0
LINE
  8
CYAN
 10
10938.54196
 20
695.52988
 11
10938.6776
 21
695.46376
  0
LINE
  8
CYAN
 10
10939.22018
 20
695.19925
 11
10939.42365
 21
695.10091
  0
LINE
  8
CYAN
 10
10939.42365
 20
695.10091
 11
10939.52538
 21
694.7974
  0
LINE
  8
CYAN
 10
10939.52538
 20
694.7974
 11
10939.49147
 21
694.72958
  0
LINE
  8
CYAN
 10
10939.49147
 20
694.72958
 11
10939.20322
 21
694.62446
  0
LINE
  8
CYAN
 10
10939.20322
 20
694.62446
 11
10938.9828
 21
694.7228
  0
LINE
  8
CYAN
 10
10938.9828
 20
694.7228
 11
10938.88107
 21
695.0263
  0
LINE
  8
CYAN
 10
10938.88107
 20
695.0263
 11
10938.91498
 21
695.09412
  0
LINE
  8
CYAN
 10
10938.91498
 20
695.09412
 11
10939.22018
 21
695.19925
  0
LINE
  8
CYAN
 10
10934.44951
 20
666.99661
 11
10934.68689
 21
667.02374
  0
LINE
  8
CYAN
 10
10934.68689
 20
667.02374
 11
10934.94122
 21
666.82705
  0
LINE
  8
CYAN
 10
10934.94122
 20
666.82705
 11
10934.94122
 21
666.75075
  0
LINE
  8
CYAN
 10
10934.94122
 20
666.75075
 11
10934.73776
 21
666.49811
  0
LINE
  8
CYAN
 10
10934.73776
 20
666.49811
 11
10934.51733
 21
666.47099
  0
LINE
  8
CYAN
 10
10934.51733
 20
666.47099
 11
10934.263
 21
666.66767
  0
LINE
  8
CYAN
 10
10934.263
 20
666.66767
 11
10934.263
 21
666.74397
  0
LINE
  8
CYAN
 10
10934.263
 20
666.74397
 11
10934.44951
 21
666.99661
  0
LINE
  8
CYAN
 10
11040.27987
 20
670.0671
 11
11040.27987
 21
671.12682
  0
LINE
  8
CYAN
 10
11040.27987
 20
671.12682
 11
11039.99163
 21
670.67241
  0
LINE
  8
CYAN
 10
11026.39327
 20
670.26209
 11
11026.39327
 21
671.32174
  0
LINE
  8
CYAN
 10
11026.39327
 20
671.32174
 11
11025.86764
 21
670.56559
  0
LINE
  8
CYAN
 10
11025.86764
 20
670.56559
 11
11026.54587
 21
670.56559
  0
LINE
  8
CYAN
 10
11033.32809
 20
682.79218
 11
11033.48069
 21
682.79218
  0
LINE
  8
CYAN
 10
11002.00693
 20
664.08386
 11
11002.00693
 21
665.14358
  0
LINE
  8
CYAN
 10
11002.00693
 20
665.14358
 11
11001.70173
 21
664.68917
  0
LINE
  8
CYAN
 10
11039.18327
 20
645.76925
 11
11039.18327
 21
646.82897
  0
LINE
  8
CYAN
 10
11039.18327
 20
646.82897
 11
11038.87807
 21
646.37456
  0
LINE
  8
CYAN
 10
11039.64107
 20
645.76925
 11
11039.64107
 21
646.82897
  0
LINE
  8
CYAN
 10
11039.64107
 20
646.82897
 11
11039.33587
 21
646.37456
  0
LINE
  8
CYAN
 10
10993.0137
 20
590.18824
 11
10992.33547
 21
590.18824
  0
LINE
  8
CYAN
 10
10992.33547
 20
590.18824
 11
10992.8611
 21
590.94616
  0
LINE
  8
CYAN
 10
10992.8611
 20
590.94616
 11
10992.8611
 21
589.88643
  0
LINE
  8
CYAN
 10
11013.69948
 20
573.19107
 11
11013.69948
 21
574.25079
  0
LINE
  8
CYAN
 10
11013.69948
 20
574.25079
 11
11013.17386
 21
573.49288
  0
LINE
  8
CYAN
 10
11013.17386
 20
573.49288
 11
11013.85208
 21
573.49288
  0
LINE
  8
CYAN
 10
11016.03935
 20
579.46972
 11
11015.81893
 21
579.46972
  0
LINE
  8
CYAN
 10
11015.81893
 20
579.46972
 11
11015.59851
 21
579.69692
  0
LINE
  8
CYAN
 10
11015.59851
 20
579.69692
 11
11015.59851
 21
579.77152
  0
LINE
  8
CYAN
 10
11015.59851
 20
579.77152
 11
11015.81893
 21
579.99873
  0
LINE
  8
CYAN
 10
11015.81893
 20
579.99873
 11
11016.03935
 21
579.99873
  0
LINE
  8
CYAN
 10
11016.03935
 20
579.99873
 11
11016.27673
 21
579.77152
  0
LINE
  8
CYAN
 10
11016.27673
 20
579.77152
 11
11016.27673
 21
579.69692
  0
LINE
  8
CYAN
 10
11016.27673
 20
579.69692
 11
11016.03935
 21
579.46972
  0
LINE
  8
CYAN
 10
11014.05555
 20
606.38504
 11
11014.05555
 21
607.44477
  0
LINE
  8
CYAN
 10
11014.05555
 20
607.44477
 11
11013.52993
 21
606.68685
  0
LINE
  8
CYAN
 10
11013.52993
 20
606.68685
 11
11014.20815
 21
606.68685
  0
LINE
  8
CYAN
 10
11014.66595
 20
606.38504
 11
11014.66595
 21
607.44477
  0
LINE
  8
CYAN
 10
11014.66595
 20
607.44477
 11
11014.36075
 21
606.99036
  0
LINE
  8
CYAN
 10
11015.31026
 20
601.80365
 11
11015.98849
 21
601.80365
  0
LINE
  8
CYAN
 10
11015.98849
 20
601.80365
 11
11015.53068
 21
600.74393
  0
LINE
  8
CYAN
 10
10968.50605
 20
622.10975
 11
10968.60779
 21
622.22505
  0
LINE
  8
CYAN
 10
10910.49395
 20
622.76113
 11
10910.39222
 21
623.29523
  0
LINE
  8
CYAN
 10
10910.39222
 20
623.29523
 11
10911.13826
 21
622.54579
  0
LINE
  8
CYAN
 10
10795.22635
 20
697.31827
 11
10795.37895
 21
697.28097
  0
LINE
  8
CYAN
 10
10903.55863
 20
577.6245
 11
10902.89736
 21
577.80084
  0
LINE
  8
CYAN
 10
10902.89736
 20
577.80084
 11
10903.60949
 21
578.39598
  0
LINE
  8
CYAN
 10
10903.60949
 20
578.39598
 11
10903.33821
 21
577.37187
  0
LINE
  8
CYAN
 10
11039.79396
 20
763.43539
 11
11039.67527
 21
763.96949
  0
LINE
  8
CYAN
 10
11039.67527
 20
763.96949
 11
11040.43828
 21
763.22005
  0
LINE
  8
CYAN
 10
11040.48914
 20
764.02375
 11
11040.31959
 21
763.86267
  0
LINE
  8
CYAN
 10
11040.31959
 20
763.86267
 11
11039.99743
 21
763.86267
  0
LINE
  8
CYAN
 10
11039.99743
 20
763.86267
 11
11039.94656
 21
763.91693
  0
LINE
  8
CYAN
 10
11039.94656
 20
763.91693
 11
11039.94656
 21
764.23739
  0
LINE
  8
CYAN
 10
11039.94656
 20
764.23739
 11
11040.11612
 21
764.39846
  0
LINE
  8
CYAN
 10
11040.11612
 20
764.39846
 11
11040.43828
 21
764.39846
  0
LINE
  8
CYAN
 10
11040.43828
 20
764.39846
 11
11040.48914
 21
764.34421
  0
LINE
  8
CYAN
 10
11040.48914
 20
764.34421
 11
11040.48914
 21
764.02375
  0
LINE
  8
CYAN
 10
10955.45368
 20
605.46091
 11
10954.70763
 21
606.21035
  0
LINE
  8
CYAN
 10
10954.70763
 20
606.21035
 11
10954.80937
 21
605.67625
  0
LINE
  8
CYAN
 10
10875.34794
 20
663.80639
 11
10874.81723
 21
664.72538
  0
LINE
  8
CYAN
 10
10874.81723
 20
664.72538
 11
10874.78163
 21
664.17941
  0
LINE
  8
CYAN
 10
10885.25338
 20
646.53723
 11
10884.72267
 21
647.45453
  0
LINE
  8
CYAN
 10
10884.72267
 20
647.45453
 11
10884.68707
 21
646.91026
  0
LINE
  8
CYAN
 10
10884.2937
 20
646.68305
 11
10884.3293
 21
647.22733
  0
LINE
  8
CYAN
 10
10884.3293
 20
647.22733
 11
10884.86001
 21
646.31003
  0
LINE
  8
CYAN
 10
10825.54008
 20
763.47829
 11
10825.84528
 21
763.9327
  0
LINE
  8
CYAN
 10
10825.84528
 20
763.9327
 11
10825.84528
 21
762.87298
  0
LINE
  8
CYAN
 10
10973.06756
 20
754.85346
 11
10973.22016
 21
754.85346
  0
LINE
  8
CYAN
 10
10988.32389
 20
752.5832
 11
10988.47649
 21
752.5832
  0
LINE
  8
CYAN
 10
10986.9113
 20
736.91688
 11
10987.12494
 21
736.83888
  0
LINE
  8
CYAN
 10
10987.12494
 20
736.83888
 11
10987.26058
 21
736.54725
  0
LINE
  8
CYAN
 10
10987.26058
 20
736.54725
 11
10987.23515
 21
736.47603
  0
LINE
  8
CYAN
 10
10987.23515
 20
736.47603
 11
10986.94351
 21
736.34039
  0
LINE
  8
CYAN
 10
10986.94351
 20
736.34039
 11
10986.72987
 21
736.41838
  0
LINE
  8
CYAN
 10
10986.72987
 20
736.41838
 11
10986.59423
 21
736.71002
  0
LINE
  8
CYAN
 10
10986.59423
 20
736.71002
 11
10986.62136
 21
736.78123
  0
LINE
  8
CYAN
 10
10986.62136
 20
736.78123
 11
10986.9113
 21
736.91688
  0
LINE
  8
CYAN
 10
10879.05154
 20
730.53965
 11
10879.20245
 21
730.53965
  0
LINE
  8
CYAN
 10
10880.11126
 20
730.01063
 11
10880.11126
 21
731.07036
  0
LINE
  8
CYAN
 10
10880.11126
 20
731.07036
 11
10879.58055
 21
730.31244
  0
LINE
  8
CYAN
 10
10879.58055
 20
730.31244
 11
10880.26217
 21
730.31244
  0
LINE
  8
CYAN
 10
10827.60042
 20
782.48112
 11
10827.75302
 21
782.48112
  0
LINE
  8
CYAN
 10
10828.36342
 20
781.95211
 11
10828.82122
 21
783.01183
  0
LINE
  8
CYAN
 10
10828.82122
 20
783.01183
 11
10828.12604
 21
783.01183
  0
LINE
  8
CYAN
 10
11032.18304
 20
727.89586
 11
11032.33564
 21
727.89586
  0
LINE
  8
CYAN
 10
10826.04713
 20
686.39289
 11
10826.19973
 21
686.34203
  0
LINE
  8
CYAN
 10
10826.84404
 20
686.10804
 11
10826.97969
 21
686.05717
  0
LINE
  8
CYAN
 10
10848.64209
 20
694.44467
 11
10848.79469
 21
694.44467
  0
LINE
  8
CYAN
 10
10849.1728
 20
694.51927
 11
10849.47461
 21
694.97368
  0
LINE
  8
CYAN
 10
10849.47461
 20
694.97368
 11
10849.47461
 21
693.91396
  0
LINE
  8
CYAN
 10
10865.62391
 20
711.363
 11
10865.76634
 21
711.41556
  0
LINE
  8
CYAN
 10
10776.44369
 20
651.85374
 11
10776.7472
 21
652.30815
  0
LINE
  8
CYAN
 10
10776.7472
 20
652.30815
 11
10776.7472
 21
651.24842
  0
LINE
  8
CYAN
 10
10777.57971
 20
651.55193
 11
10776.8981
 21
651.55193
  0
LINE
  8
CYAN
 10
10776.8981
 20
651.55193
 11
10777.42711
 21
652.30815
  0
LINE
  8
CYAN
 10
10777.42711
 20
652.30815
 11
10777.42711
 21
651.24842
  0
LINE
  8
CYAN
 10
10846.95939
 20
616.14037
 11
10847.26459
 21
616.59478
  0
LINE
  8
CYAN
 10
10847.26459
 20
616.59478
 11
10847.26459
 21
615.53506
  0
LINE
  8
CYAN
 10
10779.40323
 20
629.30278
 11
10778.74196
 21
630.12004
  0
LINE
  8
CYAN
 10
10778.74196
 20
630.12004
 11
10778.79283
 21
629.57577
  0
LINE
  8
CYAN
 10
10950.71008
 20
575.88679
 11
10951.3917
 21
575.88679
  0
LINE
  8
CYAN
 10
10951.3917
 20
575.88679
 11
10950.93729
 21
574.82707
  0
LINE
  8
CYAN
 10
10828.64631
 20
635.97774
 11
10828.64631
 21
637.03746
  0
LINE
  8
CYAN
 10
10828.64631
 20
637.03746
 11
10828.3445
 21
636.58475
  0
LINE
  8
CYAN
 10
10828.79891
 20
637.03746
 11
10829.47883
 21
637.03746
  0
LINE
  8
CYAN
 10
10829.47883
 20
637.03746
 11
10829.02611
 21
635.97774
  0
LINE
  8
CYAN
 10
10911.92191
 20
743.19675
 11
10919.98471
 21
743.19675
  0
LINE
  8
CYAN
 10
10911.92191
 20
744.8923
 11
10919.98471
 21
744.8923
  0
LINE
  8
CYAN
 10
10886.98632
 20
631.96661
 11
10887.08805
 21
632.07343
  0
LINE
  8
CYAN
 10
10867.75871
 20
608.92396
 11
10867.8774
 21
609.03078
  0
LINE
  8
CYAN
 10
10868.30129
 20
609.45976
 11
10868.45389
 21
609.62084
  0
LINE
  8
CYAN
 10
10868.45389
 20
609.62084
 11
10868.77604
 21
609.62084
  0
LINE
  8
CYAN
 10
10868.77604
 20
609.62084
 11
10868.82691
 21
609.56658
  0
LINE
  8
CYAN
 10
10868.82691
 20
609.56658
 11
10868.82691
 21
609.24612
  0
LINE
  8
CYAN
 10
10868.82691
 20
609.24612
 11
10868.67431
 21
609.08504
  0
LINE
  8
CYAN
 10
10868.67431
 20
609.08504
 11
10868.35216
 21
609.08504
  0
LINE
  8
CYAN
 10
10868.35216
 20
609.08504
 11
10868.30129
 21
609.1376
  0
LINE
  8
CYAN
 10
10868.30129
 20
609.1376
 11
10868.30129
 21
609.45976
  0
ARC
  8
CYAN
 10
10837.6955206278
 20
747.0646376033
 40
1.6949663633
 50
109.2147739001
 51
280.1408162799
  0
LINE
  8
CYAN
 10
10837.99395
 20
745.39615
 11
10854.9546
 21
748.4312
  0
LINE
  8
CYAN
 10
10854.9546
 20
748.4312
 11
10855.06481
 21
750.0725
  0
LINE
  8
CYAN
 10
10855.06481
 20
750.0725
 11
10853.96779
 21
750.42687
  0
LINE
  8
CYAN
 10
10853.96779
 20
750.42687
 11
10853.52355
 21
752.12073
  0
LINE
  8
CYAN
 10
10853.52355
 20
752.12073
 11
10854.3069
 21
752.96681
  0
LINE
  8
CYAN
 10
10854.3069
 20
752.96681
 11
10853.40486
 21
754.3436
  0
LINE
  8
CYAN
 10
10853.40486
 20
754.3436
 11
10837.13769
 21
748.66518
  0
ARC
  8
CYAN
 10
10835.1552333997
 20
752.1432949523
 40
1.6959543291
 50
128.5093684042
 51
299.4126522225
  0
LINE
  8
CYAN
 10
10835.98811
 20
750.66594
 11
10850.99378
 21
759.13016
  0
LINE
  8
CYAN
 10
10850.99378
 20
759.13016
 11
10850.55633
 21
760.7172
  0
LINE
  8
CYAN
 10
10850.55633
 20
760.7172
 11
10849.40504
 21
760.68837
  0
LINE
  8
CYAN
 10
10849.40504
 20
760.68837
 11
10848.42501
 21
762.14147
  0
LINE
  8
CYAN
 10
10848.42501
 20
762.14147
 11
10848.88451
 21
763.19949
  0
LINE
  8
CYAN
 10
10848.88451
 20
763.19949
 11
10847.57893
 21
764.19987
  0
LINE
  8
CYAN
 10
10847.57893
 20
764.19987
 11
10834.09926
 21
753.47039
  0
ARC
  8
CYAN
 10
10809.1909681784
 20
759.9336192417
 40
1.6949753644
 50
207.1304519938
 51
18.0737515333
  0
LINE
  8
CYAN
 10
10810.80231
 20
760.45947
 11
10805.45792
 21
776.83855
  0
LINE
  8
CYAN
 10
10805.45792
 20
776.83855
 11
10803.81662
 21
776.72325
  0
LINE
  8
CYAN
 10
10803.81662
 20
776.72325
 11
10803.61824
 21
775.58723
  0
LINE
  8
CYAN
 10
10803.61824
 20
775.58723
 11
10802.00068
 21
774.91409
  0
LINE
  8
CYAN
 10
10802.00068
 20
774.91409
 11
10801.05456
 21
775.57027
  0
LINE
  8
CYAN
 10
10801.05456
 20
775.57027
 11
10799.8168
 21
774.48851
  0
LINE
  8
CYAN
 10
10799.8168
 20
774.48851
 11
10807.68249
 21
759.16068
  0
ARC
  8
CYAN
 10
10804.2744627446
 20
757.0938324635
 40
1.6959049809
 50
226.4581236973
 51
37.3624073113
  0
LINE
  8
CYAN
 10
10805.62239
 20
758.123
 11
10795.16759
 21
771.81801
  0
LINE
  8
CYAN
 10
10795.16759
 20
771.81801
 11
10793.65685
 21
771.16691
  0
LINE
  8
CYAN
 10
10793.65685
 20
771.16691
 11
10793.84505
 21
770.02919
  0
LINE
  8
CYAN
 10
10793.84505
 20
770.02919
 11
10792.54117
 21
768.85926
  0
LINE
  8
CYAN
 10
10792.54117
 20
768.85926
 11
10791.43058
 21
769.16785
  0
LINE
  8
CYAN
 10
10791.43058
 20
769.16785
 11
10790.61841
 21
767.7368
  0
LINE
  8
CYAN
 10
10790.61841
 20
767.7368
 11
10803.10618
 21
755.86452
  0
ARC
  8
CYAN
 10
10800.2021108841
 20
753.0863618127
 40
1.6955433793
 50
248.5155381193
 51
59.4852603004
  0
LINE
  8
CYAN
 10
10801.06304
 20
754.54707
 11
10786.22692
 21
763.30631
  0
LINE
  8
CYAN
 10
10786.22692
 20
763.30631
 11
10785.07224
 21
762.13468
  0
LINE
  8
CYAN
 10
10785.07224
 20
762.13468
 11
10785.67417
 21
761.14957
  0
LINE
  8
CYAN
 10
10785.67417
 20
761.14957
 11
10784.90608
 21
759.57609
  0
LINE
  8
CYAN
 10
10784.90608
 20
759.57609
 11
10783.75988
 21
759.44553
  0
LINE
  8
CYAN
 10
10783.75988
 20
759.44553
 11
10783.54624
 21
757.81271
  0
LINE
  8
CYAN
 10
10783.54624
 20
757.81271
 11
10799.58112
 21
751.50863
  0
ARC
  8
CYAN
 10
10798.892640283
 20
747.7521626085
 40
1.6954534393
 50
268.3408219263
 51
79.2769354805
  0
LINE
  8
CYAN
 10
10799.2081
 20
749.41801
 11
10782.27966
 21
752.6294
  0
LINE
  8
CYAN
 10
10782.27966
 20
752.6294
 11
10781.59127
 21
751.13561
  0
LINE
  8
CYAN
 10
10781.59127
 20
751.13561
 11
10782.48991
 21
750.4133
  0
LINE
  8
CYAN
 10
10782.48991
 20
750.4133
 11
10782.30171
 21
748.67197
  0
LINE
  8
CYAN
 10
10782.30171
 20
748.67197
 11
10781.26742
 21
748.15991
  0
LINE
  8
CYAN
 10
10781.26742
 20
748.15991
 11
10781.62179
 21
746.55252
  0
LINE
  8
CYAN
 10
10781.62179
 20
746.55252
 11
10798.84355
 21
746.05742
  0
ARC
  8
CYAN
 10
10799.6065294843
 20
742.122152155
 40
1.6955758908
 50
287.9996002914
 51
98.9159487031
  0
LINE
  8
CYAN
 10
10799.34374
 20
743.79724
 11
10782.32205
 21
741.12674
  0
LINE
  8
CYAN
 10
10782.32205
 20
741.12674
 11
10782.17623
 21
739.48883
  0
LINE
  8
CYAN
 10
10782.17623
 20
739.48883
 11
10783.26648
 21
739.11072
  0
LINE
  8
CYAN
 10
10783.26648
 20
739.11072
 11
10783.67341
 21
737.40669
  0
LINE
  8
CYAN
 10
10783.67341
 20
737.40669
 11
10782.87311
 21
736.57756
  0
LINE
  8
CYAN
 10
10782.87311
 20
736.57756
 11
10783.74632
 21
735.18212
  0
LINE
  8
CYAN
 10
10783.74632
 20
735.18212
 11
10800.13048
 21
740.50956
  0
ARC
  8
CYAN
 10
10802.1449377203
 20
736.3128238861
 40
1.695908507
 50
304.9459526163
 51
115.8482521875
  0
LINE
  8
CYAN
 10
10801.40554
 20
737.83906
 11
10785.90137
 21
730.32435
  0
LINE
  8
CYAN
 10
10785.90137
 20
730.32435
 11
10786.23879
 21
728.71357
  0
LINE
  8
CYAN
 10
10786.23879
 20
728.71357
 11
10787.39177
 21
728.67118
  0
LINE
  8
CYAN
 10
10787.39177
 20
728.67118
 11
10788.27854
 21
727.16044
  0
LINE
  8
CYAN
 10
10788.27854
 20
727.16044
 11
10787.75461
 21
726.13294
  0
LINE
  8
CYAN
 10
10787.75461
 20
726.13294
 11
10788.99576
 21
725.05287
  0
LINE
  8
CYAN
 10
10788.99576
 20
725.05287
 11
10803.11636
 21
734.9227
  0
ARC
  8
CYAN
 10
10828.0324420999
 20
728.5439610329
 40
1.6957040312
 50
30.7962952063
 51
201.5883984932
  0
LINE
  8
CYAN
 10
10826.45569
 20
727.92005
 11
10832.80894
 21
711.90544
  0
LINE
  8
CYAN
 10
10832.80894
 20
711.90544
 11
10834.44006
 21
712.12247
  0
LINE
  8
CYAN
 10
10834.44006
 20
712.12247
 11
10834.56893
 21
713.26867
  0
LINE
  8
CYAN
 10
10834.56893
 20
713.26867
 11
10836.14071
 21
714.04184
  0
LINE
  8
CYAN
 10
10836.14071
 20
714.04184
 11
10837.12582
 21
713.445
  0
LINE
  8
CYAN
 10
10837.12582
 20
713.445
 11
10838.29406
 21
714.60307
  0
LINE
  8
CYAN
 10
10838.29406
 20
714.60307
 11
10829.48904
 21
729.41214
  0
ARC
  8
CYAN
 10
10833.3500948127
 20
731.9964245084
 40
1.69563071
 50
47.7157822323
 51
218.5444670476
  0
LINE
  8
CYAN
 10
10832.0239
 20
730.93984
 11
10842.76864
 21
717.47034
  0
LINE
  8
CYAN
 10
10842.76864
 20
717.47034
 11
10844.26581
 21
718.15534
  0
LINE
  8
CYAN
 10
10844.26581
 20
718.15534
 11
10844.05387
 21
719.28798
  0
LINE
  8
CYAN
 10
10844.05387
 20
719.28798
 11
10845.33232
 21
720.48673
  0
LINE
  8
CYAN
 10
10845.33232
 20
720.48673
 11
10846.44969
 21
720.20188
  0
LINE
  8
CYAN
 10
10846.44969
 20
720.20188
 11
10847.22964
 21
721.64989
  0
LINE
  8
CYAN
 10
10847.22964
 20
721.64989
 11
10834.49093
 21
733.25088
  0
ARC
  8
CYAN
 10
10837.0461163737
 20
736.3028529501
 40
1.6957187979
 50
67.3580210905
 51
238.2008934919
  0
LINE
  8
CYAN
 10
10836.15257
 20
734.86166
 11
10850.80218
 21
725.79213
  0
LINE
  8
CYAN
 10
10850.80218
 20
725.79213
 11
10851.98229
 21
726.94002
  0
LINE
  8
CYAN
 10
10851.98229
 20
726.94002
 11
10851.40071
 21
727.93701
  0
LINE
  8
CYAN
 10
10851.40071
 20
727.93701
 11
10852.20271
 21
729.49522
  0
LINE
  8
CYAN
 10
10852.20271
 20
729.49522
 11
10853.3506
 21
729.60204
  0
LINE
  8
CYAN
 10
10853.3506
 20
729.60204
 11
10853.59815
 21
731.22808
  0
LINE
  8
CYAN
 10
10853.59815
 20
731.22808
 11
10837.69892
 21
737.86788
  0
LINE
  8
CYAN
 10
10856.50095
 20
740.70116
 11
10856.18218
 21
742.31533
  0
LINE
  8
CYAN
 10
10856.18218
 20
742.31533
 11
10838.97398
 21
743.16989
  0
ARC
  8
CYAN
 10
10838.8892698108
 20
741.4765185443
 40
1.6954889274
 50
87.1361901811
 51
258.0505099824
  0
LINE
  8
CYAN
 10
10838.53822
 20
739.81777
 11
10855.39544
 21
736.25371
  0
LINE
  8
CYAN
 10
10855.39544
 20
736.25371
 11
10856.11606
 21
737.73224
  0
LINE
  8
CYAN
 10
10856.11606
 20
737.73224
 11
10855.23097
 21
738.4732
  0
LINE
  8
CYAN
 10
10855.23097
 20
738.4732
 11
10855.45648
 21
740.20945
  0
LINE
  8
CYAN
 10
10855.45648
 20
740.20945
 11
10856.50095
 21
740.70116
  0
LINE
  8
CYAN
 10
10940.29476
 20
772.95191
 11
10940.06756
 21
772.7247
  0
LINE
  8
CYAN
 10
10940.06756
 20
772.7247
 11
10940.06756
 21
772.6484
  0
LINE
  8
CYAN
 10
10940.06756
 20
772.6484
 11
10940.29476
 21
772.4212
  0
LINE
  8
CYAN
 10
10940.29476
 20
772.4212
 11
10940.52197
 21
772.4212
  0
LINE
  8
CYAN
 10
10940.52197
 20
772.4212
 11
10940.74917
 21
772.6484
  0
LINE
  8
CYAN
 10
10940.74917
 20
772.6484
 11
10940.74917
 21
772.7247
  0
LINE
  8
CYAN
 10
10940.74917
 20
772.7247
 11
10940.52197
 21
772.95191
  0
LINE
  8
CYAN
 10
10954.56457
 20
772.9943
 11
10954.94268
 21
772.69079
  0
LINE
  8
CYAN
 10
10954.94268
 20
772.69079
 11
10955.24618
 21
772.9943
  0
LINE
  8
CYAN
 10
10955.24618
 20
772.9943
 11
10955.24618
 21
773.44701
  0
LINE
  8
CYAN
 10
10955.24618
 20
773.44701
 11
10954.94268
 21
773.75052
  0
LINE
  8
CYAN
 10
10954.94268
 20
773.75052
 11
10954.86638
 21
773.75052
  0
LINE
  8
CYAN
 10
10954.86638
 20
773.75052
 11
10954.56457
 21
773.44701
  0
LINE
  8
CYAN
 10
10954.56457
 20
773.44701
 11
10954.56457
 21
772.9943
  0
LINE
  8
CYAN
 10
10811.48177
 20
668.05479
 11
10811.71915
 21
668.28199
  0
LINE
  8
CYAN
 10
10811.71915
 20
668.28199
 11
10811.71915
 21
668.35829
  0
LINE
  8
CYAN
 10
10811.71915
 20
668.35829
 11
10811.48177
 21
668.58549
  0
LINE
  8
CYAN
 10
10811.48177
 20
668.58549
 11
10811.26135
 21
668.58549
  0
LINE
  8
CYAN
 10
10811.26135
 20
668.58549
 11
10811.02397
 21
668.35829
  0
LINE
  8
CYAN
 10
10811.02397
 20
668.35829
 11
10811.02397
 21
668.28199
  0
LINE
  8
CYAN
 10
10811.02397
 20
668.28199
 11
10811.26135
 21
668.05479
  0
LINE
  8
CYAN
 10
10827.30131
 20
667.37826
 11
10826.99611
 21
667.07475
  0
LINE
  8
CYAN
 10
10826.99611
 20
667.07475
 11
10826.99611
 21
666.62204
  0
LINE
  8
CYAN
 10
10826.99611
 20
666.62204
 11
10827.36914
 21
666.31854
  0
LINE
  8
CYAN
 10
10827.36914
 20
666.31854
 11
10827.67434
 21
666.62204
  0
LINE
  8
CYAN
 10
10827.67434
 20
666.62204
 11
10827.67434
 21
667.07475
  0
LINE
  8
CYAN
 10
10827.67434
 20
667.07475
 11
10827.36914
 21
667.37826
  0
LINE
  8
CYAN
 10
10827.36914
 20
667.37826
 11
10827.30131
 21
667.37826
  0
LINE
  8
CYAN
 10
10921.72651
 20
744.44637
 11
10921.42131
 21
744.14456
  0
LINE
  8
CYAN
 10
10921.42131
 20
744.14456
 11
10921.42131
 21
743.69015
  0
LINE
  8
CYAN
 10
10921.42131
 20
743.69015
 11
10921.79433
 21
743.38665
  0
LINE
  8
CYAN
 10
10921.79433
 20
743.38665
 11
10922.09953
 21
743.69015
  0
LINE
  8
CYAN
 10
10922.09953
 20
743.69015
 11
10922.09953
 21
744.14456
  0
LINE
  8
CYAN
 10
10922.09953
 20
744.14456
 11
10921.79433
 21
744.44637
  0
LINE
  8
CYAN
 10
10921.79433
 20
744.44637
 11
10921.72651
 21
744.44637
  0
LINE
  8
CYAN
 10
10939.42365
 20
695.10091
 11
10939.72885
 21
695.20603
  0
LINE
  8
CYAN
 10
10939.72885
 20
695.20603
 11
10939.76276
 21
695.27385
  0
LINE
  8
CYAN
 10
10939.76276
 20
695.27385
 11
10939.66102
 21
695.57736
  0
LINE
  8
CYAN
 10
10939.66102
 20
695.57736
 11
10939.45756
 21
695.6757
  0
LINE
  8
CYAN
 10
10939.45756
 20
695.6757
 11
10939.15236
 21
695.57058
  0
LINE
  8
CYAN
 10
10939.15236
 20
695.57058
 11
10939.11844
 21
695.50275
  0
LINE
  8
CYAN
 10
10939.11844
 20
695.50275
 11
10939.22018
 21
695.19925
  0
LINE
  8
CYAN
 10
10934.68689
 20
667.02374
 11
10934.8734
 21
667.27637
  0
LINE
  8
CYAN
 10
10934.8734
 20
667.27637
 11
10934.8734
 21
667.35267
  0
LINE
  8
CYAN
 10
10934.8734
 20
667.35267
 11
10934.61907
 21
667.54936
  0
LINE
  8
CYAN
 10
10934.61907
 20
667.54936
 11
10934.39865
 21
667.52223
  0
LINE
  8
CYAN
 10
10934.39865
 20
667.52223
 11
10934.19518
 21
667.26959
  0
LINE
  8
CYAN
 10
10934.19518
 20
667.26959
 11
10934.19518
 21
667.19499
  0
LINE
  8
CYAN
 10
10934.19518
 20
667.19499
 11
10934.44951
 21
666.99661
  0
LINE
  8
CYAN
 10
10997.4798
 20
652.12002
 11
10997.66631
 21
652.61681
  0
LINE
  8
CYAN
 10
10997.66631
 20
652.61681
 11
10997.41198
 21
654.24963
  0
LINE
  8
CYAN
 10
10997.41198
 20
654.24963
 11
10997.86978
 21
654.9126
  0
LINE
  8
CYAN
 10
10997.86978
 20
654.9126
 11
10999.80271
 21
654.81765
  0
ARC
  8
CYAN
 10
11000.2208251589
 20
652.9066938072
 40
1.9561630446
 50
1.2931464435
 51
102.3417623836
  0
LINE
  8
CYAN
 10
11002.17649
 20
652.95084
 11
11001.34567
 21
649.47151
  0
LINE
  8
CYAN
 10
11001.34567
 20
649.47151
 11
11000.56571
 21
648.70342
  0
LINE
  8
CYAN
 10
11000.56571
 20
648.70342
 11
10997.39502
 21
650.32103
  0
LINE
  8
CYAN
 10
10997.39502
 20
650.32103
 11
10997.4798
 21
652.12002
  0
LINE
  8
CYAN
 10
10994.20737
 20
652.02167
 11
10993.71566
 21
650.3329
  0
LINE
  8
CYAN
 10
10993.71566
 20
650.3329
 11
10991.96924
 21
649.96157
  0
LINE
  8
CYAN
 10
10991.96924
 20
649.96157
 11
10986.9843
 21
653.86644
  0
ARC
  8
CYAN
 10
10987.3745805119
 20
654.8132812429
 40
1.0241226573
 50
67.6352933297
 51
247.5989286046
  0
LINE
  8
CYAN
 10
10987.76426
 20
655.76037
 11
10994.05477
 21
655.0635
  0
LINE
  8
CYAN
 10
10994.05477
 20
655.0635
 11
10995.0382
 21
653.57141
  0
LINE
  8
CYAN
 10
10995.0382
 20
653.57141
 11
10994.20737
 21
652.02167
  0
LINE
  8
CYAN
 10
10996.30986
 20
636.93117
 11
10994.64822
 21
636.38859
  0
LINE
  8
CYAN
 10
10994.64822
 20
636.38859
 11
10993.3596
 21
637.62974
  0
LINE
  8
CYAN
 10
10993.3596
 20
637.62974
 11
10993.78349
 21
643.9423
  0
ARC
  8
CYAN
 10
10994.7836925876
 20
644.1559005504
 40
1.0227562815
 50
11.9620001888
 51
192.0548475865
  0
LINE
  8
CYAN
 10
10995.78424
 20
644.36788
 11
10998.73451
 21
638.77594
  0
LINE
  8
CYAN
 10
10998.73451
 20
638.77594
 11
10998.07324
 21
637.11599
  0
LINE
  8
CYAN
 10
10998.07324
 20
637.11599
 11
10996.30986
 21
636.93117
  0
LINE
  8
CYAN
 10
10987.30646
 20
639.21509
 11
10985.86524
 21
639.52537
  0
LINE
  8
CYAN
 10
10985.86524
 20
639.52537
 11
10985.4583
 21
640.9649
  0
LINE
  8
CYAN
 10
10985.4583
 20
640.9649
 11
10988.40857
 21
645.34452
  0
ARC
  8
CYAN
 10
10989.22244
 20
645.07832
 40
0.8562983224
 50
341.8881526056
 51
161.8881526055
  0
LINE
  8
CYAN
 10
10990.03631
 20
644.81212
 11
10989.83284
 21
639.53046
  0
LINE
  8
CYAN
 10
10989.83284
 20
639.53046
 11
10988.64595
 21
638.61486
  0
LINE
  8
CYAN
 10
10988.64595
 20
638.61486
 11
10987.30646
 21
639.21509
  0
LINE
  8
CYAN
 10
10979.77819
 20
644.84942
 11
10978.93041
 21
646.04309
  0
LINE
  8
CYAN
 10
10978.93041
 20
646.04309
 11
10979.59168
 21
647.38767
  0
LINE
  8
CYAN
 10
10979.59168
 20
647.38767
 11
10984.72921
 21
648.64407
  0
ARC
  8
CYAN
 10
10985.1446288084
 20
647.9014221303
 40
0.8509398597
 50
299.2209797613
 51
119.2215673986
  0
LINE
  8
CYAN
 10
10985.56004
 20
647.15877
 11
10981.86372
 21
643.38615
  0
LINE
  8
CYAN
 10
10981.86372
 20
643.38615
 11
10980.37164
 21
643.50484
  0
LINE
  8
CYAN
 10
10980.37164
 20
643.50484
 11
10979.77819
 21
644.84942
  0
LINE
  8
CYAN
 10
10978.01481
 20
656.53524
 11
10977.26877
 21
655.85533
  0
LINE
  8
CYAN
 10
10977.26877
 20
655.85533
 11
10980.50728
 21
653.99021
  0
LINE
  8
CYAN
 10
10980.50728
 20
653.99021
 11
10980.71075
 21
654.97703
  0
LINE
  8
CYAN
 10
10980.71075
 20
654.97703
 11
10978.01481
 21
656.53524
  0
LINE
  8
CYAN
 10
11002.15953
 20
664.38567
 11
11002.53256
 21
664.08386
  0
LINE
  8
CYAN
 10
11002.53256
 20
664.08386
 11
11002.83776
 21
664.38567
  0
LINE
  8
CYAN
 10
11002.83776
 20
664.38567
 11
11002.83776
 21
664.84008
  0
LINE
  8
CYAN
 10
11002.83776
 20
664.84008
 11
11002.53256
 21
665.14358
  0
LINE
  8
CYAN
 10
11002.53256
 20
665.14358
 11
11002.46473
 21
665.14358
  0
LINE
  8
CYAN
 10
11002.46473
 20
665.14358
 11
11002.15953
 21
664.84008
  0
LINE
  8
CYAN
 10
11002.15953
 20
664.84008
 11
11002.15953
 21
664.38567
  0
LINE
  8
CYAN
 10
11033.6388
 20
618.77425
 11
11031.97715
 21
618.23167
  0
LINE
  8
CYAN
 10
11031.97715
 20
618.23167
 11
11030.67157
 21
619.47282
  0
LINE
  8
CYAN
 10
11030.67157
 20
619.47282
 11
11031.11242
 21
625.78537
  0
ARC
  8
CYAN
 10
11032.1126215662
 20
625.9989803332
 40
1.0227573258
 50
11.9620002358
 51
192.0553954896
  0
LINE
  8
CYAN
 10
11033.11317
 20
626.21096
 11
11036.06344
 21
620.61901
  0
LINE
  8
CYAN
 10
11036.06344
 20
620.61901
 11
11035.38522
 21
618.95906
  0
LINE
  8
CYAN
 10
11035.38522
 20
618.95906
 11
11033.6388
 21
618.77425
  0
LINE
  8
CYAN
 10
11024.61844
 20
621.05816
 11
11023.19417
 21
621.36845
  0
LINE
  8
CYAN
 10
11023.19417
 20
621.36845
 11
11022.77028
 21
622.80798
  0
LINE
  8
CYAN
 10
11022.77028
 20
622.80798
 11
11025.7375
 21
627.1876
  0
ARC
  8
CYAN
 10
11026.5513714774
 20
626.9213995168
 40
0.8562998768
 50
341.8875166506
 51
161.888152605
  0
LINE
  8
CYAN
 10
11027.36524
 20
626.65519
 11
11027.14482
 21
621.37354
  0
LINE
  8
CYAN
 10
11027.14482
 20
621.37354
 11
11025.95793
 21
620.45793
  0
LINE
  8
CYAN
 10
11025.95793
 20
620.45793
 11
11024.61844
 21
621.05816
  0
LINE
  8
CYAN
 10
11017.10712
 20
626.6925
 11
11016.25934
 21
627.88617
  0
LINE
  8
CYAN
 10
11016.25934
 20
627.88617
 11
11016.92061
 21
629.23074
  0
LINE
  8
CYAN
 10
11016.92061
 20
629.23074
 11
11022.04119
 21
630.48715
  0
ARC
  8
CYAN
 10
11022.4650821526
 20
629.7444962287
 40
0.8551135487
 50
299.7165416542
 51
119.7168737997
  0
LINE
  8
CYAN
 10
11022.88897
 20
629.00184
 11
11019.19266
 21
625.22923
  0
LINE
  8
CYAN
 10
11019.19266
 20
625.22923
 11
11017.70057
 21
625.34792
  0
LINE
  8
CYAN
 10
11017.70057
 20
625.34792
 11
11017.10712
 21
626.6925
  0
LINE
  8
CYAN
 10
11017.83621
 20
635.83329
 11
11018.03968
 21
636.8201
  0
LINE
  8
CYAN
 10
11018.03968
 20
636.8201
 11
11015.34374
 21
638.37832
  0
LINE
  8
CYAN
 10
11015.34374
 20
638.37832
 11
11014.5977
 21
637.6984
  0
LINE
  8
CYAN
 10
11014.5977
 20
637.6984
 11
11017.83621
 21
635.83329
  0
LINE
  8
CYAN
 10
11032.36713
 20
635.41449
 11
11031.04459
 21
632.17598
  0
LINE
  8
CYAN
 10
11031.04459
 20
632.17598
 11
11029.29817
 21
631.80465
  0
LINE
  8
CYAN
 10
11029.29817
 20
631.80465
 11
11024.31324
 21
635.70952
  0
ARC
  8
CYAN
 10
11024.7035112374
 20
636.6563630048
 40
1.0241207519
 50
67.6352933627
 51
247.5994458848
  0
LINE
  8
CYAN
 10
11025.09319
 20
637.60345
 11
11031.38371
 21
636.90658
  0
LINE
  8
CYAN
 10
11031.38371
 20
636.90658
 11
11032.36713
 21
635.41449
  0
LINE
  8
CYAN
 10
11034.79177
 20
633.96309
 11
11034.99524
 21
634.45989
  0
LINE
  8
CYAN
 10
11034.99524
 20
634.45989
 11
11034.74091
 21
636.09271
  0
LINE
  8
CYAN
 10
11034.74091
 20
636.09271
 11
11035.19871
 21
636.75567
  0
LINE
  8
CYAN
 10
11035.19871
 20
636.75567
 11
11037.13164
 21
636.66072
  0
ARC
  8
CYAN
 10
11037.549760018
 20
634.7497699858
 40
1.9561580473
 50
1.2929687285
 51
102.3419400988
  0
LINE
  8
CYAN
 10
11039.50542
 20
634.79391
 11
11038.6746
 21
631.31458
  0
LINE
  8
CYAN
 10
11038.6746
 20
631.31458
 11
11037.89464
 21
630.5465
  0
LINE
  8
CYAN
 10
11037.89464
 20
630.5465
 11
11034.72395
 21
632.16411
  0
LINE
  8
CYAN
 10
11034.72395
 20
632.16411
 11
11034.79177
 21
633.96309
  0
LINE
  8
CYAN
 10
11014.00468
 20
573.49288
 11
11014.37771
 21
573.19107
  0
LINE
  8
CYAN
 10
11014.37771
 20
573.19107
 11
11014.68291
 21
573.49288
  0
LINE
  8
CYAN
 10
11014.68291
 20
573.49288
 11
11014.68291
 21
573.94729
  0
LINE
  8
CYAN
 10
11014.68291
 20
573.94729
 11
11014.37771
 21
574.25079
  0
LINE
  8
CYAN
 10
11014.37771
 20
574.25079
 11
11014.30988
 21
574.25079
  0
LINE
  8
CYAN
 10
11014.30988
 20
574.25079
 11
11014.00468
 21
573.94729
  0
LINE
  8
CYAN
 10
11014.00468
 20
573.94729
 11
11014.00468
 21
573.49288
  0
LINE
  8
CYAN
 10
11015.81893
 20
579.46972
 11
11015.59851
 21
579.24251
  0
LINE
  8
CYAN
 10
11015.59851
 20
579.24251
 11
11015.59851
 21
579.16621
  0
LINE
  8
CYAN
 10
11015.59851
 20
579.16621
 11
11015.81893
 21
578.93901
  0
LINE
  8
CYAN
 10
11015.81893
 20
578.93901
 11
11016.03935
 21
578.93901
  0
LINE
  8
CYAN
 10
11016.03935
 20
578.93901
 11
11016.27673
 21
579.16621
  0
LINE
  8
CYAN
 10
11016.27673
 20
579.16621
 11
11016.27673
 21
579.24251
  0
LINE
  8
CYAN
 10
11016.27673
 20
579.24251
 11
11016.03935
 21
579.46972
  0
LINE
  8
CYAN
 10
11040.31959
 20
763.86267
 11
11040.31959
 21
763.54221
  0
LINE
  8
CYAN
 10
11040.31959
 20
763.54221
 11
11040.37045
 21
763.48795
  0
LINE
  8
CYAN
 10
11040.37045
 20
763.48795
 11
11040.69261
 21
763.48795
  0
LINE
  8
CYAN
 10
11040.69261
 20
763.48795
 11
11040.86216
 21
763.64903
  0
LINE
  8
CYAN
 10
11040.86216
 20
763.64903
 11
11040.86216
 21
763.96949
  0
LINE
  8
CYAN
 10
11040.86216
 20
763.96949
 11
11040.8113
 21
764.02375
  0
LINE
  8
CYAN
 10
11040.8113
 20
764.02375
 11
11040.48914
 21
764.02375
  0
LINE
  8
CYAN
 10
10871.26851
 20
626.25089
 11
10871.76022
 21
626.30345
  0
LINE
  8
CYAN
 10
10871.76022
 20
626.30345
 11
10871.76022
 21
626.73243
  0
LINE
  8
CYAN
 10
10871.76022
 20
626.73243
 11
10871.43807
 21
627.05289
  0
LINE
  8
CYAN
 10
10871.43807
 20
627.05289
 11
10871.01418
 21
627.05289
  0
LINE
  8
CYAN
 10
10871.01418
 20
627.05289
 11
10870.96331
 21
627.00032
  0
LINE
  8
CYAN
 10
10870.96331
 20
627.00032
 11
10870.96331
 21
626.57135
  0
LINE
  8
CYAN
 10
10870.96331
 20
626.57135
 11
10871.26851
 21
626.25089
  0
LINE
  8
CYAN
 10
10875.3276
 20
664.1455
 11
10875.80574
 21
664.07259
  0
LINE
  8
CYAN
 10
10875.80574
 20
664.07259
 11
10875.91765
 21
664.48631
  0
LINE
  8
CYAN
 10
10875.91765
 20
664.48631
 11
10875.69045
 21
664.87968
  0
LINE
  8
CYAN
 10
10875.69045
 20
664.87968
 11
10875.27673
 21
664.98989
  0
LINE
  8
CYAN
 10
10875.27673
 20
664.98989
 11
10875.2106
 21
664.95259
  0
LINE
  8
CYAN
 10
10875.2106
 20
664.95259
 11
10875.10039
 21
664.53887
  0
LINE
  8
CYAN
 10
10875.10039
 20
664.53887
 11
10875.3276
 21
664.1455
  0
LINE
  8
CYAN
 10
10987.12494
 20
736.83888
 11
10987.41657
 21
736.97453
  0
LINE
  8
CYAN
 10
10987.41657
 20
736.97453
 11
10987.44201
 21
737.04574
  0
LINE
  8
CYAN
 10
10987.44201
 20
737.04574
 11
10987.30636
 21
737.33737
  0
LINE
  8
CYAN
 10
10987.30636
 20
737.33737
 11
10987.09272
 21
737.41367
  0
LINE
  8
CYAN
 10
10987.09272
 20
737.41367
 11
10986.80278
 21
737.27803
  0
LINE
  8
CYAN
 10
10986.80278
 20
737.27803
 11
10986.77565
 21
737.20682
  0
LINE
  8
CYAN
 10
10986.77565
 20
737.20682
 11
10986.9113
 21
736.91688
  0
LINE
  8
CYAN
 10
11032.70866
 20
727.66866
 11
11033.08168
 21
727.36516
  0
LINE
  8
CYAN
 10
11033.08168
 20
727.36516
 11
11033.38688
 21
727.66866
  0
LINE
  8
CYAN
 10
11033.38688
 20
727.66866
 11
11033.38688
 21
728.12307
  0
LINE
  8
CYAN
 10
11033.38688
 20
728.12307
 11
11033.08168
 21
728.42488
  0
LINE
  8
CYAN
 10
11033.08168
 20
728.42488
 11
11033.01386
 21
728.42488
  0
LINE
  8
CYAN
 10
11033.01386
 20
728.42488
 11
11032.70866
 21
728.12307
  0
LINE
  8
CYAN
 10
11032.70866
 20
728.12307
 11
11032.70866
 21
727.66866
  0
LINE
  8
CYAN
 10
10868.45389
 20
609.62084
 11
10868.45389
 21
609.9413
  0
LINE
  8
CYAN
 10
10868.45389
 20
609.9413
 11
10868.40302
 21
609.99386
  0
LINE
  8
CYAN
 10
10868.40302
 20
609.99386
 11
10868.08087
 21
609.99386
  0
LINE
  8
CYAN
 10
10868.08087
 20
609.99386
 11
10867.92827
 21
609.83448
  0
LINE
  8
CYAN
 10
10867.92827
 20
609.83448
 11
10867.92827
 21
609.51232
  0
LINE
  8
CYAN
 10
10867.92827
 20
609.51232
 11
10867.97913
 21
609.45976
  0
LINE
  8
CYAN
 10
10867.97913
 20
609.45976
 11
10868.30129
 21
609.45976
  0
LINE
  8
CYAN
 10
10767.85835
 20
562.40923
 11
11056.10293
 21
562.40923
  0
LINE
  8
CYAN
 10
11056.10293
 20
562.40923
 11
11056.10293
 21
791.30934
  0
LINE
  8
CYAN
 10
11056.10293
 20
791.30934
 11
10767.85835
 21
791.30934
  0
LINE
  8
CYAN
 10
10767.85835
 20
791.30934
 11
10767.85835
 21
562.40923
  0
ENDSEC
  0
EOF
