  0
SECTION
  2
ENTITIES
  0
POLYLINE
  8
0
  66
1
  70
1
  0
VERTEX
  8
0
  10
422.867947
  20
171.650247
  42
0.414214
  0
VERTEX
  8
0
  10
503.313750
  20
209.162740
  42
0.414214
  0
VERTEX
  8
0
  10
465.801256
  20
289.608543
  42
0.414214
  0
VERTEX
  8
0
  10
385.355453
  20
252.096049
  42
0.414214
  0
VERTEX
  8
0
  10
422.867947
  20
171.650247
  0
SEQEND
  0
POLYLINE
  8
0
  66
1
  70
1
  0
VERTEX
  8
0
  10
433.741574
  20
236.081208
  0
VERTEX
  8
0
  10
432.715513
  20
233.262130
  0
VERTEX
  8
0
  10
428.956743
  20
234.630211
  0
VERTEX
  8
0
  10
429.982803
  20
237.449289
  0
VERTEX
  8
0
  10
433.741574
  20
236.081208
  0
SEQEND
  0
POLYLINE
  8
0
  66
1
  70
1
  0
VERTEX
  8
0
  10
407.093832
  20
245.780193
  0
VERTEX
  8
0
  10
406.067771
  20
242.961115
  0
VERTEX
  8
0
  10
402.309001
  20
244.329196
  0
VERTEX
  8
0
  10
403.335061
  20
247.148274
  0
VERTEX
  8
0
  10
407.093832
  20
245.780193
  0
SEQEND
  0
POLYLINE
  8
0
  66
1
  70
1
  0
VERTEX
  8
0
  10
434.205951
  20
224.241954
  0
VERTEX
  8
0
  10
436.134314
  20
221.943821
  0
VERTEX
  8
0
  10
433.070136
  20
219.372670
  0
VERTEX
  8
0
  10
431.141773
  20
221.670804
  0
VERTEX
  8
0
  10
434.205951
  20
224.241954
  0
SEQEND
  0
POLYLINE
  8
0
  66
1
  70
1
  0
VERTEX
  8
0
  10
412.482513
  20
206.013825
  0
VERTEX
  8
0
  10
414.410876
  20
203.715692
  0
VERTEX
  8
0
  10
411.346698
  20
201.144541
  0
VERTEX
  8
0
  10
409.418335
  20
203.442675
  0
VERTEX
  8
0
  10
412.482513
  20
206.013825
  0
SEQEND
  0
POLYLINE
  8
0
  66
1
  70
1
  0
VERTEX
  8
0
  10
444.691234
  20
218.724490
  0
VERTEX
  8
0
  10
447.645658
  20
219.245434
  0
VERTEX
  8
0
  10
448.340250
  20
215.306203
  0
VERTEX
  8
0
  10
445.385827
  20
214.785259
  0
VERTEX
  8
0
  10
444.691234
  20
218.724490
  0
SEQEND
  0
POLYLINE
  8
0
  66
1
  70
1
  0
VERTEX
  8
0
  10
449.615538
  20
190.797376
  0
VERTEX
  8
0
  10
452.569961
  20
191.318321
  0
VERTEX
  8
0
  10
453.264554
  20
187.379090
  0
VERTEX
  8
0
  10
450.310131
  20
186.858145
  0
VERTEX
  8
0
  10
449.615538
  20
190.797376
  0
SEQEND
  0
POLYLINE
  8
0
  66
1
  70
1
  0
VERTEX
  8
0
  10
454.712141
  20
225.046279
  0
VERTEX
  8
0
  10
455.738201
  20
227.865357
  0
VERTEX
  8
0
  10
459.496971
  20
226.497277
  0
VERTEX
  8
0
  10
458.470911
  20
223.678199
  0
VERTEX
  8
0
  10
454.712141
  20
225.046279
  0
SEQEND
  0
POLYLINE
  8
0
  66
1
  70
1
  0
VERTEX
  8
0
  10
481.359882
  20
215.347295
  0
VERTEX
  8
0
  10
482.385943
  20
218.166373
  0
VERTEX
  8
0
  10
486.144713
  20
216.798292
  0
VERTEX
  8
0
  10
485.118653
  20
213.979214
  0
VERTEX
  8
0
  10
481.359882
  20
215.347295
  0
SEQEND
  0
POLYLINE
  8
0
  66
1
  70
1
  0
VERTEX
  8
0
  10
454.247763
  20
236.885534
  0
VERTEX
  8
0
  10
452.319400
  20
239.183667
  0
VERTEX
  8
0
  10
455.383578
  20
241.754817
  0
VERTEX
  8
0
  10
457.311941
  20
239.456684
  0
VERTEX
  8
0
  10
454.247763
  20
236.885534
  0
SEQEND
  0
POLYLINE
  8
0
  66
1
  70
1
  0
VERTEX
  8
0
  10
475.971201
  20
255.113662
  0
VERTEX
  8
0
  10
474.042838
  20
257.411796
  0
VERTEX
  8
0
  10
477.107016
  20
259.982946
  0
VERTEX
  8
0
  10
479.035379
  20
257.684813
  0
VERTEX
  8
0
  10
475.971201
  20
255.113662
  0
SEQEND
  0
POLYLINE
  8
0
  66
1
  70
1
  0
VERTEX
  8
0
  10
443.762480
  20
242.402998
  0
VERTEX
  8
0
  10
440.808056
  20
241.882053
  0
VERTEX
  8
0
  10
440.113464
  20
245.821284
  0
VERTEX
  8
0
  10
443.067887
  20
246.342229
  0
VERTEX
  8
0
  10
443.762480
  20
242.402998
  0
SEQEND
  0
POLYLINE
  8
0
  66
1
  70
1
  0
VERTEX
  8
0
  10
438.838176
  20
270.330112
  0
VERTEX
  8
0
  10
435.883753
  20
269.809167
  0
VERTEX
  8
0
  10
435.189160
  20
273.748398
  0
VERTEX
  8
0
  10
438.143583
  20
274.269343
  0
VERTEX
  8
0
  10
438.838176
  20
270.330112
  0
SEQEND
  0
POLYLINE
  8
0
  66
1
  70
1
  0
VERTEX
  8
0
  10
408.139152
  20
130.844573
  0
VERTEX
  8
0
  10
410.519634
  20
134.949256
  42
-0.125195
  0
VERTEX
  8
0
  10
413.679124
  20
134.638693
  42
-0.064658
  0
VERTEX
  8
0
  10
419.080450
  20
131.852674
  42
0.058178
  0
VERTEX
  8
0
  10
412.656736
  20
132.009108
  42
0.080376
  0
VERTEX
  8
0
  10
408.139152
  20
130.844573
  0
SEQEND
  0
POLYLINE
  8
0
  66
1
  70
1
  0
VERTEX
  8
0
  10
416.266167
  20
125.022540
  42
0.190947
  0
VERTEX
  8
0
  10
415.359731
  20
126.537546
  42
0.139861
  0
VERTEX
  8
0
  10
413.154649
  20
127.408971
  42
-0.099432
  0
VERTEX
  8
0
  10
417.691954
  20
129.149205
  42
-0.123331
  0
VERTEX
  8
0
  10
421.618692
  20
128.844667
  42
0.117590
  0
VERTEX
  8
0
  10
418.307083
  20
127.498842
  42
0.131435
  0
VERTEX
  8
0
  10
416.266167
  20
125.022540
  0
SEQEND
  0
POLYLINE
  8
0
  66
1
  70
1
  0
VERTEX
  8
0
  10
424.409191
  20
125.425189
  42
-0.507014
  0
VERTEX
  8
0
  10
422.523708
  20
122.081305
  42
0.415564
  0
VERTEX
  8
0
  10
422.730017
  20
119.814271
  42
0.411769
  0
VERTEX
  8
0
  10
425.012045
  20
120.017730
  42
-0.537015
  0
VERTEX
  8
0
  10
420.282875
  20
118.052612
  42
-0.450813
  0
VERTEX
  8
0
  10
419.676909
  20
122.562203
  42
0.316217
  0
VERTEX
  8
0
  10
420.204939
  20
123.001895
  42
0.309573
  0
VERTEX
  8
0
  10
419.976089
  20
123.655828
  42
0.159701
  0
VERTEX
  8
0
  10
419.166049
  20
124.013493
  42
0.275266
  0
VERTEX
  8
0
  10
417.833584
  20
123.389168
  0
VERTEX
  8
0
  10
417.833584
  20
123.389168
  0
VERTEX
  8
0
  10
417.833584
  20
123.389168
  42
-0.024431
  0
VERTEX
  8
0
  10
419.214072
  20
125.015978
  42
-0.027224
  0
VERTEX
  8
0
  10
420.597048
  20
126.340564
  42
-0.240044
  0
VERTEX
  8
0
  10
422.693102
  20
126.843548
  42
-0.231527
  0
VERTEX
  8
0
  10
424.409191
  20
125.425189
  0
SEQEND
  0
POLYLINE
  8
0
  66
1
  70
1
  0
VERTEX
  8
0
  10
427.415397
  20
118.210734
  42
0.113716
  0
VERTEX
  8
0
  10
428.097359
  20
119.167286
  42
0.093807
  0
VERTEX
  8
0
  10
428.387227
  20
120.555620
  42
0.061903
  0
VERTEX
  8
0
  10
428.231962
  20
122.030536
  42
0.039394
  0
VERTEX
  8
0
  10
427.528675
  20
124.246782
  42
-0.148185
  0
VERTEX
  8
0
  10
430.059723
  20
121.639322
  42
-0.104067
  0
VERTEX
  8
0
  10
431.419508
  20
116.705194
  42
0.093049
  0
VERTEX
  8
0
  10
429.105344
  20
118.108815
  42
0.150833
  0
VERTEX
  8
0
  10
427.415397
  20
118.210734
  0
SEQEND
  0
POLYLINE
  8
0
  66
1
  70
1
  0
VERTEX
  8
0
  10
419.011067
  20
143.939634
  42
0.046984
  0
VERTEX
  8
0
  10
421.014470
  20
143.205222
  42
0.072332
  0
VERTEX
  8
0
  10
422.395800
  20
143.048381
  42
0.100942
  0
VERTEX
  8
0
  10
423.694179
  20
143.355890
  42
0.106462
  0
VERTEX
  8
0
  10
424.705608
  20
144.118233
  42
-0.078750
  0
VERTEX
  8
0
  10
423.645468
  20
144.545710
  42
-0.124653
  0
VERTEX
  8
0
  10
423.131692
  20
145.062670
  42
-0.131240
  0
VERTEX
  8
0
  10
422.937056
  20
145.757036
  42
-0.087474
  0
VERTEX
  8
0
  10
423.110131
  20
146.814728
  0
VERTEX
  8
0
  10
426.816275
  20
147.109953
  42
-0.098364
  0
VERTEX
  8
0
  10
427.697401
  20
143.835919
  42
-0.066926
  0
VERTEX
  8
0
  10
427.366215
  20
138.889418
  42
0.309647
  0
VERTEX
  8
0
  10
421.633183
  20
139.492739
  42
0.149880
  0
VERTEX
  8
0
  10
419.616556
  20
137.191639
  42
0.152375
  0
VERTEX
  8
0
  10
419.257082
  20
134.201350
  42
-0.066926
  0
VERTEX
  8
0
  10
414.807693
  20
136.387785
  42
-0.098364
  0
VERTEX
  8
0
  10
412.412860
  20
138.787880
  0
VERTEX
  8
0
  10
414.521604
  20
141.849882
  42
-0.087474
  0
VERTEX
  8
0
  10
415.524130
  20
141.470924
  42
-0.131240
  0
VERTEX
  8
0
  10
416.028150
  20
140.955180
  42
-0.124653
  0
VERTEX
  8
0
  10
416.218962
  20
140.251758
  42
-0.078750
  0
VERTEX
  8
0
  10
416.059098
  20
139.119912
  42
0.106719
  0
VERTEX
  8
0
  10
417.223907
  20
139.614889
  42
0.102052
  0
VERTEX
  8
0
  10
418.128029
  20
140.579689
  42
0.073266
  0
VERTEX
  8
0
  10
418.668908
  20
141.847407
  42
0.047485
  0
VERTEX
  8
0
  10
419.011067
  20
143.939634
  0
SEQEND
  0
POLYLINE
  8
0
  66
1
  70
1
  0
VERTEX
  8
0
  10
421.859220
  20
136.533231
  42
0.124027
  0
VERTEX
  8
0
  10
421.994206
  20
133.967398
  42
0.058537
  0
VERTEX
  8
0
  10
424.169676
  20
129.047036
  0
VERTEX
  8
0
  10
429.072054
  20
126.203136
  0
VERTEX
  8
0
  10
429.080844
  20
131.882500
  42
0.058537
  0
VERTEX
  8
0
  10
425.907421
  20
136.226693
  42
0.124027
  0
VERTEX
  8
0
  10
423.752837
  20
137.626511
  0
VERTEX
  8
0
  10
421.859220
  20
136.533231
  0
SEQEND
  0
POLYLINE
  8
0
  66
1
  70
1
  0
VERTEX
  8
0
  10
421.141193
  20
116.110725
  42
-0.336714
  0
VERTEX
  8
0
  10
422.891496
  20
112.406256
  42
-0.239872
  0
VERTEX
  8
0
  10
425.358260
  20
113.182289
  42
-0.226021
  0
VERTEX
  8
0
  10
427.593017
  20
111.618287
  42
0.074719
  0
VERTEX
  8
0
  10
426.868297
  20
111.548883
  42
0.134304
  0
VERTEX
  8
0
  10
426.510753
  20
111.348113
  42
0.153567
  0
VERTEX
  8
0
  10
426.324800
  20
110.997284
  42
0.096272
  0
VERTEX
  8
0
  10
426.330619
  20
110.372799
  42
0.096951
  0
VERTEX
  8
0
  10
426.893350
  20
109.425321
  42
0.111457
  0
VERTEX
  8
0
  10
427.676086
  20
108.867037
  42
0.090360
  0
VERTEX
  8
0
  10
428.645052
  20
108.653069
  42
0.059757
  0
VERTEX
  8
0
  10
430.133649
  20
108.775813
  42
-0.084189
  0
VERTEX
  8
0
  10
430.226061
  20
109.846908
  42
-0.167785
  0
VERTEX
  8
0
  10
430.530865
  20
110.305586
  42
-0.169007
  0
VERTEX
  8
0
  10
431.053064
  20
110.476872
  42
-0.085220
  0
VERTEX
  8
0
  10
432.101610
  20
110.277469
  42
-0.085357
  0
VERTEX
  8
0
  10
431.356240
  20
111.039442
  42
-0.168820
  0
VERTEX
  8
0
  10
431.209675
  20
111.569852
  42
-0.167331
  0
VERTEX
  8
0
  10
431.422721
  20
112.078742
  42
-0.084096
  0
VERTEX
  8
0
  10
432.262321
  20
112.750679
  42
0.059757
  0
VERTEX
  8
0
  10
431.537361
  20
114.056596
  42
0.090360
  0
VERTEX
  8
0
  10
430.821125
  20
114.743388
  42
0.111457
  0
VERTEX
  8
0
  10
429.922064
  20
115.084045
  42
0.096951
  0
VERTEX
  8
0
  10
428.821629
  20
115.025549
  42
0.096272
  0
VERTEX
  8
0
  10
428.299154
  20
114.683442
  42
0.153567
  0
VERTEX
  8
0
  10
428.110760
  20
114.333919
  42
0.134304
  0
VERTEX
  8
0
  10
428.142467
  20
113.925090
  42
0.074719
  0
VERTEX
  8
0
  10
428.487392
  20
113.283948
  42
-0.226021
  0
VERTEX
  8
0
  10
425.945408
  20
114.273170
  42
-0.239872
  0
VERTEX
  8
0
  10
425.220198
  20
116.755351
  42
-0.331406
  0
VERTEX
  8
0
  10
421.141193
  20
116.110725
  0
SEQEND
  0
POLYLINE
  8
0
  66
1
  70
1
  0
VERTEX
  8
0
  10
435.872508
  20
146.847355
  0
VERTEX
  8
0
  10
431.127507
  20
146.838138
  42
0.125195
  0
VERTEX
  8
0
  10
429.816717
  20
143.946658
  42
0.064658
  0
VERTEX
  8
0
  10
429.528818
  20
137.875963
  42
-0.058178
  0
VERTEX
  8
0
  10
432.605199
  20
143.517280
  42
-0.080376
  0
VERTEX
  8
0
  10
435.872508
  20
146.847355
  0
SEQEND
  0
POLYLINE
  8
0
  66
1
  70
1
  0
VERTEX
  8
0
  10
436.851029
  20
136.898136
  42
-0.190947
  0
VERTEX
  8
0
  10
435.992213
  20
138.440636
  42
-0.139861
  0
VERTEX
  8
0
  10
436.340077
  20
140.786005
  42
0.099432
  0
VERTEX
  8
0
  10
432.564338
  20
137.726701
  42
0.123331
  0
VERTEX
  8
0
  10
430.864707
  20
134.173777
  42
-0.117590
  0
VERTEX
  8
0
  10
433.686030
  20
136.368802
  42
-0.131435
  0
VERTEX
  8
0
  10
436.851029
  20
136.898136
  0
SEQEND
  0
POLYLINE
  8
0
  66
1
  70
1
  0
VERTEX
  8
0
  10
432.430812
  20
130.047395
  42
0.507014
  0
VERTEX
  8
0
  10
436.269442
  20
130.008329
  42
-0.415564
  0
VERTEX
  8
0
  10
438.129597
  20
128.696144
  42
-0.411769
  0
VERTEX
  8
0
  10
436.812383
  20
126.821579
  42
0.537015
  0
VERTEX
  8
0
  10
440.878809
  20
129.934601
  42
0.450813
  0
VERTEX
  8
0
  10
437.276372
  20
132.714179
  42
-0.316217
  0
VERTEX
  8
0
  10
436.631572
  20
132.476737
  42
-0.309573
  0
VERTEX
  8
0
  10
436.179675
  20
133.001893
  42
-0.159701
  0
VERTEX
  8
0
  10
436.274948
  20
133.882241
  42
-0.275266
  0
VERTEX
  8
0
  10
437.481862
  20
134.724027
  0
VERTEX
  8
0
  10
437.481862
  20
134.724027
  0
VERTEX
  8
0
  10
437.481862
  20
134.724027
  42
0.024431
  0
VERTEX
  8
0
  10
435.382759
  20
134.341895
  42
0.027224
  0
VERTEX
  8
0
  10
433.544146
  20
133.806495
  42
0.240044
  0
VERTEX
  8
0
  10
432.060522
  20
132.242752
  42
0.231527
  0
VERTEX
  8
0
  10
432.430812
  20
130.047395
  0
SEQEND
  0
POLYLINE
  8
0
  66
1
  70
1
  0
VERTEX
  8
0
  10
437.175610
  20
123.836717
  42
-0.113716
  0
VERTEX
  8
0
  10
436.006232
  20
123.724396
  42
-0.093807
  0
VERTEX
  8
0
  10
434.658965
  20
124.167531
  42
-0.061903
  0
VERTEX
  8
0
  10
433.459283
  20
125.039452
  42
-0.039394
  0
VERTEX
  8
0
  10
431.891601
  20
126.756640
  42
0.148185
  0
VERTEX
  8
0
  10
432.884203
  20
123.260957
  42
0.104067
  0
VERTEX
  8
0
  10
436.477391
  20
119.616285
  42
-0.093049
  0
VERTEX
  8
0
  10
436.418902
  20
122.322221
  42
-0.150833
  0
VERTEX
  8
0
  10
437.175610
  20
123.836717
  0
SEQEND
  0
POLYLINE
  8
0
  66
1
  70
1
  0
VERTEX
  8
0
  10
432.501656
  20
120.706821
  42
0.044139
  0
VERTEX
  8
0
  10
435.634959
  20
117.618668
  42
0.081050
  0
VERTEX
  8
0
  10
437.713835
  20
116.405712
  42
0.100111
  0
VERTEX
  8
0
  10
436.587934
  20
115.089382
  42
0.154606
  0
VERTEX
  8
0
  10
436.360658
  20
113.975305
  42
0.151683
  0
VERTEX
  8
0
  10
435.267012
  20
114.328868
  42
0.099111
  0
VERTEX
  8
0
  10
433.560565
  20
114.007821
  42
0.078648
  0
VERTEX
  8
0
  10
433.561046
  20
116.418678
  42
0.042740
  0
VERTEX
  8
0
  10
432.501656
  20
120.706821
  0
SEQEND
  0
POLYLINE
  8
0
  66
1
  70
1
  0
VERTEX
  8
0
  10
442.131374
  20
128.220332
  42
0.336714
  0
VERTEX
  8
0
  10
444.464387
  20
124.852291
  42
0.239872
  0
VERTEX
  8
0
  10
442.558940
  20
123.104028
  42
0.226021
  0
VERTEX
  8
0
  10
442.796028
  20
120.386670
  42
-0.074719
  0
VERTEX
  8
0
  10
443.218493
  20
120.979594
  42
-0.134304
  0
VERTEX
  8
0
  10
443.571137
  20
121.188852
  42
-0.153567
  0
VERTEX
  8
0
  10
443.967940
  20
121.174477
  42
-0.096272
  0
VERTEX
  8
0
  10
444.505851
  20
120.857194
  42
-0.096951
  0
VERTEX
  8
0
  10
445.045025
  20
119.896117
  42
-0.111457
  0
VERTEX
  8
0
  10
445.137145
  20
118.939105
  42
-0.090360
  0
VERTEX
  8
0
  10
444.837964
  20
117.992972
  42
-0.059757
  0
VERTEX
  8
0
  10
443.987366
  20
116.765181
  42
0.084189
  0
VERTEX
  8
0
  10
443.013565
  20
117.220698
  42
0.167785
  0
VERTEX
  8
0
  10
442.463936
  20
117.186069
  42
0.169007
  0
VERTEX
  8
0
  10
442.054498
  20
116.819474
  42
0.085220
  0
VERTEX
  8
0
  10
441.702913
  20
115.811705
  42
0.085357
  0
VERTEX
  8
0
  10
441.415711
  20
116.838201
  42
0.168820
  0
VERTEX
  8
0
  10
441.029644
  20
117.230335
  42
0.167331
  0
VERTEX
  8
0
  10
440.482410
  20
117.300276
  42
0.084096
  0
VERTEX
  8
0
  10
439.480695
  20
116.909130
  42
-0.059757
  0
VERTEX
  8
0
  10
438.712218
  20
118.189923
  42
-0.090360
  0
VERTEX
  8
0
  10
438.475556
  20
119.153597
  42
-0.111457
  0
VERTEX
  8
0
  10
438.630070
  20
120.102535
  42
-0.096951
  0
VERTEX
  8
0
  10
439.230946
  20
121.026292
  42
-0.096272
  0
VERTEX
  8
0
  10
439.788456
  20
121.307715
  42
-0.153567
  0
VERTEX
  8
0
  10
440.185350
  20
121.296107
  42
-0.134304
  0
VERTEX
  8
0
  10
440.523552
  20
121.064233
  42
-0.074719
  0
VERTEX
  8
0
  10
440.906335
  20
120.444949
  42
0.226021
  0
VERTEX
  8
0
  10
441.320636
  20
123.140983
  42
0.239872
  0
VERTEX
  8
0
  10
439.533609
  20
125.010123
  42
0.331406
  0
VERTEX
  8
0
  10
442.131374
  20
128.220332
  0
SEQEND
  0
POLYLINE
  8
0
  66
1
  70
1
  0
VERTEX
  8
0
  10
388.078442
  20
104.232529
  0
VERTEX
  8
0
  10
415.116483
  20
57.827457
  0
VERTEX
  8
0
  10
468.823475
  20
58.040551
  0
VERTEX
  8
0
  10
495.492427
  20
104.658718
  0
VERTEX
  8
0
  10
468.454386
  20
151.063790
  0
VERTEX
  8
0
  10
414.747393
  20
150.850696
  0
VERTEX
  8
0
  10
388.078442
  20
104.232529
  0
SEQEND
  0
POLYLINE
  8
0
  66
1
  70
1
  0
VERTEX
  8
0
  10
402.100132
  20
88.506563
  0
VERTEX
  8
0
  10
399.735613
  20
92.620462
  42
-0.125195
  0
VERTEX
  8
0
  10
401.584314
  20
95.201379
  42
-0.064658
  0
VERTEX
  8
0
  10
406.697740
  20
98.486055
  42
0.058178
  0
VERTEX
  8
0
  10
403.350407
  20
93.001173
  42
0.080376
  0
VERTEX
  8
0
  10
402.100132
  20
88.506563
  0
SEQEND
  0
POLYLINE
  8
0
  66
1
  70
1
  0
VERTEX
  8
0
  10
411.205669
  20
92.633748
  42
0.190947
  0
VERTEX
  8
0
  10
409.440417
  20
92.606255
  42
0.139861
  0
VERTEX
  8
0
  10
407.583199
  20
91.132310
  42
-0.099432
  0
VERTEX
  8
0
  10
408.344765
  20
95.931848
  42
-0.123331
  0
VERTEX
  8
0
  10
410.571872
  20
99.180234
  42
0.117590
  0
VERTEX
  8
0
  10
410.081586
  20
95.639384
  42
0.131435
  0
VERTEX
  8
0
  10
411.205669
  20
92.633748
  0
SEQEND
  0
POLYLINE
  8
0
  66
1
  70
1
  0
VERTEX
  8
0
  10
414.928476
  20
99.887138
  42
-0.507014
  0
VERTEX
  8
0
  10
416.881623
  20
96.582320
  42
0.415564
  0
VERTEX
  8
0
  10
418.948086
  20
95.627472
  42
0.411769
  0
VERTEX
  8
0
  10
419.912900
  20
97.705495
  42
-0.537015
  0
VERTEX
  8
0
  10
419.250157
  20
92.627355
  42
-0.450813
  0
VERTEX
  8
0
  10
415.041753
  20
94.357369
  42
0.316217
  0
VERTEX
  8
0
  10
414.924984
  20
95.034503
  42
0.309573
  0
VERTEX
  8
0
  10
414.244237
  20
95.163279
  42
0.159701
  0
VERTEX
  8
0
  10
413.529470
  20
94.640596
  42
0.275266
  0
VERTEX
  8
0
  10
413.403919
  20
93.174485
  0
VERTEX
  8
0
  10
413.403919
  20
93.174485
  0
VERTEX
  8
0
  10
413.403919
  20
93.174485
  42
-0.024431
  0
VERTEX
  8
0
  10
412.685304
  20
95.183427
  42
-0.027224
  0
VERTEX
  8
0
  10
412.229667
  20
97.043413
  42
-0.240044
  0
VERTEX
  8
0
  10
412.842096
  20
99.110141
  42
-0.231527
  0
VERTEX
  8
0
  10
414.928476
  20
99.887138
  0
SEQEND
  0
POLYLINE
  8
0
  66
1
  70
1
  0
VERTEX
  8
0
  10
422.679480
  20
98.883361
  42
0.113716
  0
VERTEX
  8
0
  10
422.192063
  20
99.952233
  42
0.093807
  0
VERTEX
  8
0
  10
421.134664
  20
100.897434
  42
0.061903
  0
VERTEX
  8
0
  10
419.779717
  20
101.500428
  42
0.039394
  0
VERTEX
  8
0
  10
417.508748
  20
101.999487
  42
-0.148185
  0
VERTEX
  8
0
  10
421.032399
  20
102.887709
  42
-0.104067
  0
VERTEX
  8
0
  10
425.985372
  20
101.598253
  42
0.093049
  0
VERTEX
  8
0
  10
423.612718
  20
100.295939
  42
0.150833
  0
VERTEX
  8
0
  10
422.679480
  20
98.883361
  0
SEQEND
  0
POLYLINE
  8
0
  66
1
  70
1
  0
VERTEX
  8
0
  10
396.195435
  20
104.469448
  42
0.046984
  0
VERTEX
  8
0
  10
397.833156
  20
105.837240
  42
0.072332
  0
VERTEX
  8
0
  10
398.659648
  20
106.955086
  42
0.100942
  0
VERTEX
  8
0
  10
399.042527
  20
108.233270
  42
0.106462
  0
VERTEX
  8
0
  10
398.888033
  20
109.490365
  42
-0.078750
  0
VERTEX
  8
0
  10
397.987757
  20
108.785996
  42
-0.124653
  0
VERTEX
  8
0
  10
397.283169
  20
108.599532
  42
-0.131240
  0
VERTEX
  8
0
  10
396.584512
  20
108.778155
  42
-0.087474
  0
VERTEX
  8
0
  10
395.755062
  20
109.456889
  0
VERTEX
  8
0
  10
397.352461
  20
112.814116
  42
-0.098364
  0
VERTEX
  8
0
  10
400.628421
  20
111.940177
  42
-0.066926
  0
VERTEX
  8
0
  10
404.746624
  20
109.180111
  42
0.309647
  0
VERTEX
  8
0
  10
401.357617
  20
104.516819
  42
0.149880
  0
VERTEX
  8
0
  10
402.342114
  20
101.619820
  42
0.152375
  0
VERTEX
  8
0
  10
404.752043
  20
99.813361
  42
-0.066926
  0
VERTEX
  8
0
  10
400.633840
  20
97.053295
  42
-0.098364
  0
VERTEX
  8
0
  10
397.357880
  20
96.179356
  0
VERTEX
  8
0
  10
395.760481
  20
99.536583
  42
-0.087474
  0
VERTEX
  8
0
  10
396.589932
  20
100.215317
  42
-0.131240
  0
VERTEX
  8
0
  10
397.288589
  20
100.393939
  42
-0.124653
  0
VERTEX
  8
0
  10
397.993177
  20
100.207476
  42
-0.078750
  0
VERTEX
  8
0
  10
398.893452
  20
99.503107
  42
0.106719
  0
VERTEX
  8
0
  10
399.047194
  20
100.759350
  42
0.102052
  0
VERTEX
  8
0
  10
398.663713
  20
102.024742
  42
0.073266
  0
VERTEX
  8
0
  10
397.836276
  20
103.127016
  42
0.047485
  0
VERTEX
  8
0
  10
396.195435
  20
104.469448
  0
SEQEND
  0
POLYLINE
  8
0
  66
1
  70
1
  0
VERTEX
  8
0
  10
404.033644
  20
103.232820
  42
0.124027
  0
VERTEX
  8
0
  10
406.323214
  20
102.066804
  42
0.058537
  0
VERTEX
  8
0
  10
411.672107
  20
101.490636
  0
VERTEX
  8
0
  10
416.586186
  20
104.314270
  0
VERTEX
  8
0
  10
411.672107
  20
107.161564
  42
0.058537
  0
VERTEX
  8
0
  10
406.323214
  20
106.585395
  42
0.124027
  0
VERTEX
  8
0
  10
404.033644
  20
105.419380
  0
VERTEX
  8
0
  10
404.033644
  20
103.232820
  0
SEQEND
  0
POLYLINE
  8
0
  66
1
  70
1
  0
VERTEX
  8
0
  10
421.361040
  20
92.399737
  42
-0.336714
  0
VERTEX
  8
0
  10
425.444355
  20
92.063309
  42
-0.239872
  0
VERTEX
  8
0
  10
426.005673
  20
94.587606
  42
-0.226021
  0
VERTEX
  8
0
  10
428.477517
  20
95.740961
  42
0.074719
  0
VERTEX
  8
0
  10
428.175263
  20
95.078633
  42
0.134304
  0
VERTEX
  8
0
  10
428.170362
  20
94.668606
  42
0.153567
  0
VERTEX
  8
0
  10
428.381212
  20
94.332152
  42
0.096272
  0
VERTEX
  8
0
  10
428.924943
  20
94.024948
  42
0.096951
  0
VERTEX
  8
0
  10
430.026847
  20
94.038549
  42
0.111457
  0
VERTEX
  8
0
  10
430.901704
  20
94.437277
  42
0.090360
  0
VERTEX
  8
0
  10
431.571488
  20
95.169442
  42
0.059757
  0
VERTEX
  8
0
  10
432.209488
  20
96.519976
  42
-0.084189
  0
VERTEX
  8
0
  10
431.328098
  20
97.135554
  42
-0.167785
  0
VERTEX
  8
0
  10
431.083273
  20
97.628862
  42
-0.169007
  0
VERTEX
  8
0
  10
431.196034
  20
98.166742
  42
-0.085220
  0
VERTEX
  8
0
  10
431.892996
  20
98.975108
  42
-0.085357
  0
VERTEX
  8
0
  10
430.860423
  20
98.710585
  42
-0.168820
  0
VERTEX
  8
0
  10
430.327791
  20
98.848861
  42
-0.167331
  0
VERTEX
  8
0
  10
429.993604
  20
99.287810
  42
-0.084096
  0
VERTEX
  8
0
  10
429.831489
  20
100.350893
  42
0.059757
  0
VERTEX
  8
0
  10
428.338051
  20
100.376017
  42
0.090360
  0
VERTEX
  8
0
  10
427.385154
  20
100.099135
  42
0.111457
  0
VERTEX
  8
0
  10
426.640606
  20
99.490854
  42
0.096951
  0
VERTEX
  8
0
  10
426.141047
  20
98.508601
  42
0.096272
  0
VERTEX
  8
0
  10
426.176083
  20
97.885072
  42
0.153567
  0
VERTEX
  8
0
  10
426.384582
  20
97.547156
  42
0.134304
  0
VERTEX
  8
0
  10
426.754492
  20
97.370200
  42
0.074719
  0
VERTEX
  8
0
  10
427.482199
  20
97.348343
  42
-0.226021
  0
VERTEX
  8
0
  10
425.354516
  20
95.641531
  42
-0.239872
  0
VERTEX
  8
0
  10
422.842280
  20
96.254572
  42
-0.331406
  0
VERTEX
  8
0
  10
421.361040
  20
92.399737
  0
SEQEND
  0
POLYLINE
  8
0
  66
1
  70
1
  0
VERTEX
  8
0
  10
402.107995
  20
120.525744
  0
VERTEX
  8
0
  10
399.743476
  20
116.411845
  42
0.125195
  0
VERTEX
  8
0
  10
401.592176
  20
113.830928
  42
0.064658
  0
VERTEX
  8
0
  10
406.705603
  20
110.546252
  42
-0.058178
  0
VERTEX
  8
0
  10
403.358270
  20
116.031134
  42
-0.080376
  0
VERTEX
  8
0
  10
402.107995
  20
120.525744
  0
SEQEND
  0
POLYLINE
  8
0
  66
1
  70
1
  0
VERTEX
  8
0
  10
411.213531
  20
116.398559
  42
-0.190947
  0
VERTEX
  8
0
  10
409.448279
  20
116.426052
  42
-0.139861
  0
VERTEX
  8
0
  10
407.591062
  20
117.899997
  42
0.099432
  0
VERTEX
  8
0
  10
408.352628
  20
113.100459
  42
0.123331
  0
VERTEX
  8
0
  10
410.579735
  20
109.852073
  42
-0.117590
  0
VERTEX
  8
0
  10
410.089449
  20
113.392923
  42
-0.131435
  0
VERTEX
  8
0
  10
411.213531
  20
116.398559
  0
SEQEND
  0
POLYLINE
  8
0
  66
1
  70
1
  0
VERTEX
  8
0
  10
414.936339
  20
109.145169
  42
0.507014
  0
VERTEX
  8
0
  10
416.889486
  20
112.449987
  42
-0.415564
  0
VERTEX
  8
0
  10
418.955949
  20
113.404835
  42
-0.411769
  0
VERTEX
  8
0
  10
419.920763
  20
111.326812
  42
0.537015
  0
VERTEX
  8
0
  10
419.258020
  20
116.404952
  42
0.450813
  0
VERTEX
  8
0
  10
415.049616
  20
114.674939
  42
-0.316217
  0
VERTEX
  8
0
  10
414.932847
  20
113.997805
  42
-0.309573
  0
VERTEX
  8
0
  10
414.252099
  20
113.869028
  42
-0.159701
  0
VERTEX
  8
0
  10
413.537332
  20
114.391711
  42
-0.275266
  0
VERTEX
  8
0
  10
413.411781
  20
115.857822
  0
VERTEX
  8
0
  10
413.411781
  20
115.857822
  0
VERTEX
  8
0
  10
413.411781
  20
115.857822
  42
0.024431
  0
VERTEX
  8
0
  10
412.693167
  20
113.848880
  42
0.027224
  0
VERTEX
  8
0
  10
412.237530
  20
111.988894
  42
0.240044
  0
VERTEX
  8
0
  10
412.849959
  20
109.922166
  42
0.231527
  0
VERTEX
  8
0
  10
414.936339
  20
109.145169
  0
SEQEND
  0
POLYLINE
  8
0
  66
1
  70
1
  0
VERTEX
  8
0
  10
422.687343
  20
110.148946
  42
-0.113716
  0
VERTEX
  8
0
  10
422.199926
  20
109.080074
  42
-0.093807
  0
VERTEX
  8
0
  10
421.142527
  20
108.134873
  42
-0.061903
  0
VERTEX
  8
0
  10
419.787579
  20
107.531879
  42
-0.039394
  0
VERTEX
  8
0
  10
417.516611
  20
107.032820
  42
0.148185
  0
VERTEX
  8
0
  10
421.040262
  20
106.144598
  42
0.104067
  0
VERTEX
  8
0
  10
425.993234
  20
107.434054
  42
-0.093049
  0
VERTEX
  8
0
  10
423.620581
  20
108.736368
  42
-0.150833
  0
VERTEX
  8
0
  10
422.687343
  20
110.148946
  0
SEQEND
  0
POLYLINE
  8
0
  66
1
  70
1
  0
VERTEX
  8
0
  10
423.060935
  20
104.536234
  42
0.044139
  0
VERTEX
  8
0
  10
427.302005
  20
105.705678
  42
0.081050
  0
VERTEX
  8
0
  10
429.391894
  20
106.899560
  42
0.100111
  0
VERTEX
  8
0
  10
429.968919
  20
105.266336
  42
0.154606
  0
VERTEX
  8
0
  10
430.820100
  20
104.512470
  42
0.151683
  0
VERTEX
  8
0
  10
429.967082
  20
103.742126
  42
0.099111
  0
VERTEX
  8
0
  10
429.391894
  20
102.103777
  42
0.078648
  0
VERTEX
  8
0
  10
427.304271
  20
103.309621
  42
0.042740
  0
VERTEX
  8
0
  10
423.060935
  20
104.536234
  0
SEQEND
  0
POLYLINE
  8
0
  66
1
  70
1
  0
VERTEX
  8
0
  10
435.746415
  20
62.107613
  0
VERTEX
  8
0
  10
431.001414
  20
62.116830
  42
-0.125195
  0
VERTEX
  8
0
  10
429.690624
  20
65.008310
  42
-0.064658
  0
VERTEX
  8
0
  10
429.402725
  20
71.079005
  42
0.058178
  0
VERTEX
  8
0
  10
432.479106
  20
65.437688
  42
0.080376
  0
VERTEX
  8
0
  10
435.746415
  20
62.107613
  0
SEQEND
  0
POLYLINE
  8
0
  66
1
  70
1
  0
VERTEX
  8
0
  10
436.724936
  20
72.056832
  42
0.190947
  0
VERTEX
  8
0
  10
435.866120
  20
70.514332
  42
0.139861
  0
VERTEX
  8
0
  10
436.213984
  20
68.168962
  42
-0.099432
  0
VERTEX
  8
0
  10
432.438245
  20
71.228267
  42
-0.123331
  0
VERTEX
  8
0
  10
430.738614
  20
74.781191
  42
0.117590
  0
VERTEX
  8
0
  10
433.559937
  20
72.586166
  42
0.131435
  0
VERTEX
  8
0
  10
436.724936
  20
72.056832
  0
SEQEND
  0
POLYLINE
  8
0
  66
1
  70
1
  0
VERTEX
  8
0
  10
432.304720
  20
78.907573
  42
-0.507014
  0
VERTEX
  8
0
  10
436.143349
  20
78.946639
  42
0.415564
  0
VERTEX
  8
0
  10
438.003504
  20
80.258824
  42
0.411769
  0
VERTEX
  8
0
  10
436.686290
  20
82.133389
  42
-0.537015
  0
VERTEX
  8
0
  10
440.752716
  20
79.020367
  42
-0.450813
  0
VERTEX
  8
0
  10
437.150279
  20
76.240789
  42
0.316217
  0
VERTEX
  8
0
  10
436.505479
  20
76.478231
  42
0.309573
  0
VERTEX
  8
0
  10
436.053582
  20
75.953074
  42
0.159701
  0
VERTEX
  8
0
  10
436.148855
  20
75.072726
  42
0.275266
  0
VERTEX
  8
0
  10
437.355769
  20
74.230941
  0
VERTEX
  8
0
  10
437.355769
  20
74.230941
  0
VERTEX
  8
0
  10
437.355769
  20
74.230941
  42
-0.024431
  0
VERTEX
  8
0
  10
435.256666
  20
74.613073
  42
-0.027224
  0
VERTEX
  8
0
  10
433.418053
  20
75.148473
  42
-0.240044
  0
VERTEX
  8
0
  10
431.934429
  20
76.712216
  42
-0.231527
  0
VERTEX
  8
0
  10
432.304720
  20
78.907573
  0
SEQEND
  0
POLYLINE
  8
0
  66
1
  70
1
  0
VERTEX
  8
0
  10
437.049517
  20
85.118251
  42
0.113716
  0
VERTEX
  8
0
  10
435.880139
  20
85.230571
  42
0.093807
  0
VERTEX
  8
0
  10
434.532872
  20
84.787437
  42
0.061903
  0
VERTEX
  8
0
  10
433.333190
  20
83.915515
  42
0.039394
  0
VERTEX
  8
0
  10
431.765508
  20
82.198328
  42
-0.148185
  0
VERTEX
  8
0
  10
432.758110
  20
85.694010
  42
-0.104067
  0
VERTEX
  8
0
  10
436.351298
  20
89.338683
  42
0.093049
  0
VERTEX
  8
0
  10
436.292809
  20
86.632747
  42
0.150833
  0
VERTEX
  8
0
  10
437.049517
  20
85.118251
  0
SEQEND
  0
POLYLINE
  8
0
  66
1
  70
1
  0
VERTEX
  8
0
  10
418.969802
  20
64.975438
  42
0.046984
  0
VERTEX
  8
0
  10
418.604120
  20
67.077642
  42
0.072332
  0
VERTEX
  8
0
  10
418.049283
  20
68.352328
  42
0.100942
  0
VERTEX
  8
0
  10
417.133782
  20
69.323003
  42
0.106462
  0
VERTEX
  8
0
  10
415.967860
  20
69.817755
  42
-0.078750
  0
VERTEX
  8
0
  10
416.127723
  20
68.685909
  42
-0.124653
  0
VERTEX
  8
0
  10
415.936911
  20
67.982486
  42
-0.131240
  0
VERTEX
  8
0
  10
415.432891
  20
67.466743
  42
-0.087474
  0
VERTEX
  8
0
  10
414.430365
  20
67.087784
  0
VERTEX
  8
0
  10
412.321621
  20
70.149786
  42
-0.098364
  0
VERTEX
  8
0
  10
414.716454
  20
72.549881
  42
-0.066926
  0
VERTEX
  8
0
  10
419.165843
  20
74.736316
  42
0.309647
  0
VERTEX
  8
0
  10
421.509868
  20
69.469704
  42
0.149880
  0
VERTEX
  8
0
  10
424.510992
  20
68.873804
  42
0.152375
  0
VERTEX
  8
0
  10
427.280396
  20
70.057635
  42
-0.066926
  0
VERTEX
  8
0
  10
427.611582
  20
65.111133
  42
-0.098364
  0
VERTEX
  8
0
  10
426.730455
  20
61.837099
  0
VERTEX
  8
0
  10
423.024312
  20
62.132324
  42
-0.087474
  0
VERTEX
  8
0
  10
422.851236
  20
63.190017
  42
-0.131240
  0
VERTEX
  8
0
  10
423.045873
  20
63.884383
  42
-0.124653
  0
VERTEX
  8
0
  10
423.559649
  20
64.401342
  42
-0.078750
  0
VERTEX
  8
0
  10
424.619788
  20
64.828819
  42
0.106719
  0
VERTEX
  8
0
  10
423.608721
  20
65.590084
  42
0.102052
  0
VERTEX
  8
0
  10
422.321118
  20
65.890676
  42
0.073266
  0
VERTEX
  8
0
  10
420.952803
  20
65.725233
  42
0.047485
  0
VERTEX
  8
0
  10
418.969802
  20
64.975438
  0
SEQEND
  0
POLYLINE
  8
0
  66
1
  70
1
  0
VERTEX
  8
0
  10
423.959858
  20
71.145212
  42
0.124027
  0
VERTEX
  8
0
  10
426.114442
  20
72.545030
  42
0.058537
  0
VERTEX
  8
0
  10
429.287865
  20
76.889223
  0
VERTEX
  8
0
  10
429.299566
  20
82.556757
  0
VERTEX
  8
0
  10
424.376698
  20
79.724687
  42
0.058537
  0
VERTEX
  8
0
  10
422.201227
  20
74.804325
  42
0.124027
  0
VERTEX
  8
0
  10
422.066242
  20
72.238492
  0
VERTEX
  8
0
  10
423.959858
  20
71.145212
  0
SEQEND
  0
POLYLINE
  8
0
  66
1
  70
1
  0
VERTEX
  8
0
  10
442.005281
  20
80.734636
  42
-0.336714
  0
VERTEX
  8
0
  10
444.338294
  20
84.102677
  42
-0.239872
  0
VERTEX
  8
0
  10
442.432847
  20
85.850940
  42
-0.226021
  0
VERTEX
  8
0
  10
442.669935
  20
88.568298
  42
0.074719
  0
VERTEX
  8
0
  10
443.092400
  20
87.975374
  42
0.134304
  0
VERTEX
  8
0
  10
443.445044
  20
87.766116
  42
0.153567
  0
VERTEX
  8
0
  10
443.841847
  20
87.780491
  42
0.096272
  0
VERTEX
  8
0
  10
444.379758
  20
88.097773
  42
0.096951
  0
VERTEX
  8
0
  10
444.918932
  20
89.058851
  42
0.111457
  0
VERTEX
  8
0
  10
445.011052
  20
90.015863
  42
0.090360
  0
VERTEX
  8
0
  10
444.711871
  20
90.961996
  42
0.059757
  0
VERTEX
  8
0
  10
443.861273
  20
92.189787
  42
-0.084189
  0
VERTEX
  8
0
  10
442.887472
  20
91.734270
  42
-0.167785
  0
VERTEX
  8
0
  10
442.337843
  20
91.768899
  42
-0.169007
  0
VERTEX
  8
0
  10
441.928405
  20
92.135493
  42
-0.085220
  0
VERTEX
  8
0
  10
441.576820
  20
93.143263
  42
-0.085357
  0
VERTEX
  8
0
  10
441.289618
  20
92.116767
  42
-0.168820
  0
VERTEX
  8
0
  10
440.903551
  20
91.724632
  42
-0.167331
  0
VERTEX
  8
0
  10
440.356317
  20
91.654692
  42
-0.084096
  0
VERTEX
  8
0
  10
439.354602
  20
92.045838
  42
0.059757
  0
VERTEX
  8
0
  10
438.586125
  20
90.765045
  42
0.090360
  0
VERTEX
  8
0
  10
438.349463
  20
89.801371
  42
0.111457
  0
VERTEX
  8
0
  10
438.503977
  20
88.852433
  42
0.096951
  0
VERTEX
  8
0
  10
439.104853
  20
87.928676
  42
0.096272
  0
VERTEX
  8
0
  10
439.662363
  20
87.647253
  42
0.153567
  0
VERTEX
  8
0
  10
440.059257
  20
87.658861
  42
0.134304
  0
VERTEX
  8
0
  10
440.397459
  20
87.890734
  42
0.074719
  0
VERTEX
  8
0
  10
440.780242
  20
88.510019
  42
-0.226021
  0
VERTEX
  8
0
  10
441.194543
  20
85.813985
  42
-0.239872
  0
VERTEX
  8
0
  10
439.407516
  20
83.944844
  42
-0.331406
  0
VERTEX
  8
0
  10
442.005281
  20
80.734636
  0
SEQEND
  0
POLYLINE
  8
0
  66
1
  70
1
  0
VERTEX
  8
0
  10
408.020922
  20
78.124013
  0
VERTEX
  8
0
  10
410.401404
  20
74.019330
  42
0.125195
  0
VERTEX
  8
0
  10
413.560894
  20
74.329893
  42
0.064658
  0
VERTEX
  8
0
  10
418.962220
  20
77.115912
  42
-0.058178
  0
VERTEX
  8
0
  10
412.538505
  20
76.959478
  42
-0.080376
  0
VERTEX
  8
0
  10
408.020922
  20
78.124013
  0
SEQEND
  0
POLYLINE
  8
0
  66
1
  70
1
  0
VERTEX
  8
0
  10
416.147937
  20
83.946046
  42
-0.190947
  0
VERTEX
  8
0
  10
415.241501
  20
82.431040
  42
-0.139861
  0
VERTEX
  8
0
  10
413.036419
  20
81.559615
  42
0.099432
  0
VERTEX
  8
0
  10
417.573724
  20
79.819381
  42
0.123331
  0
VERTEX
  8
0
  10
421.500462
  20
80.123919
  42
-0.117590
  0
VERTEX
  8
0
  10
418.188853
  20
81.469745
  42
-0.131435
  0
VERTEX
  8
0
  10
416.147937
  20
83.946046
  0
SEQEND
  0
POLYLINE
  8
0
  66
1
  70
1
  0
VERTEX
  8
0
  10
424.290961
  20
83.543397
  42
0.507014
  0
VERTEX
  8
0
  10
422.405478
  20
86.887281
  42
-0.415564
  0
VERTEX
  8
0
  10
422.611787
  20
89.154315
  42
-0.411769
  0
VERTEX
  8
0
  10
424.893815
  20
88.950857
  42
0.537015
  0
VERTEX
  8
0
  10
420.164645
  20
90.915974
  42
0.450813
  0
VERTEX
  8
0
  10
419.558678
  20
86.406383
  42
-0.316217
  0
VERTEX
  8
0
  10
420.086709
  20
85.966691
  42
-0.309573
  0
VERTEX
  8
0
  10
419.857859
  20
85.312758
  42
-0.159701
  0
VERTEX
  8
0
  10
419.047819
  20
84.955093
  42
-0.275266
  0
VERTEX
  8
0
  10
417.715354
  20
85.579418
  0
VERTEX
  8
0
  10
417.715354
  20
85.579418
  0
VERTEX
  8
0
  10
417.715354
  20
85.579418
  42
0.024431
  0
VERTEX
  8
0
  10
419.095842
  20
83.952609
  42
0.027224
  0
VERTEX
  8
0
  10
420.478818
  20
82.628023
  42
0.240044
  0
VERTEX
  8
0
  10
422.574871
  20
82.125038
  42
0.231527
  0
VERTEX
  8
0
  10
424.290961
  20
83.543397
  0
SEQEND
  0
POLYLINE
  8
0
  66
1
  70
1
  0
VERTEX
  8
0
  10
427.297167
  20
90.757852
  42
-0.113716
  0
VERTEX
  8
0
  10
427.979129
  20
89.801301
  42
-0.093807
  0
VERTEX
  8
0
  10
428.268996
  20
88.412966
  42
-0.061903
  0
VERTEX
  8
0
  10
428.113731
  20
86.938050
  42
-0.039394
  0
VERTEX
  8
0
  10
427.410444
  20
84.721804
  42
0.148185
  0
VERTEX
  8
0
  10
429.941493
  20
87.329264
  42
0.104067
  0
VERTEX
  8
0
  10
431.301278
  20
92.263392
  42
-0.093049
  0
VERTEX
  8
0
  10
428.987114
  20
90.859771
  42
-0.150833
  0
VERTEX
  8
0
  10
427.297167
  20
90.757852
  0
SEQEND
  0
POLYLINE
  8
0
  66
1
  70
1
  0
VERTEX
  8
0
  10
432.344713
  20
88.275036
  42
0.044139
  0
VERTEX
  8
0
  10
433.452481
  20
92.532633
  42
0.081050
  0
VERTEX
  8
0
  10
433.463493
  20
94.939471
  42
0.100111
  0
VERTEX
  8
0
  10
435.166419
  20
94.622577
  42
0.154606
  0
VERTEX
  8
0
  10
436.244876
  20
94.982789
  42
0.151683
  0
VERTEX
  8
0
  10
436.485505
  20
93.858882
  42
0.099111
  0
VERTEX
  8
0
  10
437.616763
  20
92.541579
  42
0.078648
  0
VERTEX
  8
0
  10
435.528659
  20
91.336567
  42
0.042740
  0
VERTEX
  8
0
  10
432.344713
  20
88.275036
  0
SEQEND
  0
POLYLINE
  8
0
  66
1
  70
1
  0
VERTEX
  8
0
  10
475.431717
  20
78.046674
  0
VERTEX
  8
0
  10
473.051235
  20
73.941991
  42
-0.125195
  0
VERTEX
  8
0
  10
469.891745
  20
74.252554
  42
-0.064658
  0
VERTEX
  8
0
  10
464.490419
  20
77.038573
  42
0.058178
  0
VERTEX
  8
0
  10
470.914133
  20
76.882139
  42
0.080376
  0
VERTEX
  8
0
  10
475.431717
  20
78.046674
  0
SEQEND
  0
POLYLINE
  8
0
  66
1
  70
1
  0
VERTEX
  8
0
  10
467.304701
  20
83.868707
  42
0.190947
  0
VERTEX
  8
0
  10
468.211137
  20
82.353701
  42
0.139861
  0
VERTEX
  8
0
  10
470.416219
  20
81.482275
  42
-0.099432
  0
VERTEX
  8
0
  10
465.878914
  20
79.742042
  42
-0.123331
  0
VERTEX
  8
0
  10
461.952176
  20
80.046580
  42
0.117590
  0
VERTEX
  8
0
  10
465.263786
  20
81.392405
  42
0.131435
  0
VERTEX
  8
0
  10
467.304701
  20
83.868707
  0
SEQEND
  0
POLYLINE
  8
0
  66
1
  70
1
  0
VERTEX
  8
0
  10
459.161678
  20
83.466058
  42
-0.507014
  0
VERTEX
  8
0
  10
461.047160
  20
86.809942
  42
0.415564
  0
VERTEX
  8
0
  10
460.840852
  20
89.076976
  42
0.411769
  0
VERTEX
  8
0
  10
458.558824
  20
88.873517
  42
-0.537015
  0
VERTEX
  8
0
  10
463.287994
  20
90.838635
  42
-0.450813
  0
VERTEX
  8
0
  10
463.893960
  20
86.329044
  42
0.316217
  0
VERTEX
  8
0
  10
463.365929
  20
85.889351
  42
0.309573
  0
VERTEX
  8
0
  10
463.594779
  20
85.235419
  42
0.159701
  0
VERTEX
  8
0
  10
464.404820
  20
84.877754
  42
0.275266
  0
VERTEX
  8
0
  10
465.737285
  20
85.502079
  0
VERTEX
  8
0
  10
465.737285
  20
85.502079
  0
VERTEX
  8
0
  10
465.737285
  20
85.502079
  42
-0.024431
  0
VERTEX
  8
0
  10
464.356797
  20
83.875269
  42
-0.027224
  0
VERTEX
  8
0
  10
462.973820
  20
82.550683
  42
-0.240044
  0
VERTEX
  8
0
  10
460.877767
  20
82.047699
  42
-0.231527
  0
VERTEX
  8
0
  10
459.161678
  20
83.466058
  0
SEQEND
  0
POLYLINE
  8
0
  66
1
  70
1
  0
VERTEX
  8
0
  10
456.155472
  20
90.680513
  42
0.113716
  0
VERTEX
  8
0
  10
455.473510
  20
89.723961
  42
0.093807
  0
VERTEX
  8
0
  10
455.183642
  20
88.335627
  42
0.061903
  0
VERTEX
  8
0
  10
455.338907
  20
86.860711
  42
0.039394
  0
VERTEX
  8
0
  10
456.042194
  20
84.644465
  42
-0.148185
  0
VERTEX
  8
0
  10
453.511145
  20
87.251925
  42
-0.104067
  0
VERTEX
  8
0
  10
452.151360
  20
92.186053
  42
0.093049
  0
VERTEX
  8
0
  10
454.465525
  20
90.782432
  42
0.150833
  0
VERTEX
  8
0
  10
456.155472
  20
90.680513
  0
SEQEND
  0
POLYLINE
  8
0
  66
1
  70
1
  0
VERTEX
  8
0
  10
464.559801
  20
64.951613
  42
0.046984
  0
VERTEX
  8
0
  10
462.556398
  20
65.686025
  42
0.072332
  0
VERTEX
  8
0
  10
461.175069
  20
65.842866
  42
0.100942
  0
VERTEX
  8
0
  10
459.876690
  20
65.535357
  42
0.106462
  0
VERTEX
  8
0
  10
458.865261
  20
64.773014
  42
-0.078750
  0
VERTEX
  8
0
  10
459.925400
  20
64.345537
  42
-0.124653
  0
VERTEX
  8
0
  10
460.439176
  20
63.828577
  42
-0.131240
  0
VERTEX
  8
0
  10
460.633813
  20
63.134211
  42
-0.087474
  0
VERTEX
  8
0
  10
460.460738
  20
62.076519
  0
VERTEX
  8
0
  10
456.754594
  20
61.781294
  42
-0.098364
  0
VERTEX
  8
0
  10
455.873467
  20
65.055328
  42
-0.066926
  0
VERTEX
  8
0
  10
456.204654
  20
70.001829
  42
0.309647
  0
VERTEX
  8
0
  10
461.937686
  20
69.398508
  42
0.149880
  0
VERTEX
  8
0
  10
463.954312
  20
71.699608
  42
0.152375
  0
VERTEX
  8
0
  10
464.313787
  20
74.689897
  42
-0.066926
  0
VERTEX
  8
0
  10
468.763176
  20
72.503462
  42
-0.098364
  0
VERTEX
  8
0
  10
471.158009
  20
70.103367
  0
VERTEX
  8
0
  10
469.049265
  20
67.041365
  42
-0.087474
  0
VERTEX
  8
0
  10
468.046739
  20
67.420323
  42
-0.131240
  0
VERTEX
  8
0
  10
467.542719
  20
67.936067
  42
-0.124653
  0
VERTEX
  8
0
  10
467.351907
  20
68.639489
  42
-0.078750
  0
VERTEX
  8
0
  10
467.511770
  20
69.771335
  42
0.106719
  0
VERTEX
  8
0
  10
466.346961
  20
69.276358
  42
0.102052
  0
VERTEX
  8
0
  10
465.442840
  20
68.311558
  42
0.073266
  0
VERTEX
  8
0
  10
464.901961
  20
67.043840
  42
0.047485
  0
VERTEX
  8
0
  10
464.559801
  20
64.951613
  0
SEQEND
  0
POLYLINE
  8
0
  66
1
  70
1
  0
VERTEX
  8
0
  10
461.711648
  20
72.358016
  42
0.124027
  0
VERTEX
  8
0
  10
461.576662
  20
74.923849
  42
0.058537
  0
VERTEX
  8
0
  10
459.401192
  20
79.844211
  0
VERTEX
  8
0
  10
454.498815
  20
82.688111
  0
VERTEX
  8
0
  10
454.490025
  20
77.008747
  42
0.058537
  0
VERTEX
  8
0
  10
457.663448
  20
72.664554
  42
0.124027
  0
VERTEX
  8
0
  10
459.818032
  20
71.264736
  0
VERTEX
  8
0
  10
461.711648
  20
72.358016
  0
SEQEND
  0
POLYLINE
  8
0
  66
1
  70
1
  0
VERTEX
  8
0
  10
462.429676
  20
92.780522
  42
-0.336714
  0
VERTEX
  8
0
  10
460.679373
  20
96.484991
  42
-0.239872
  0
VERTEX
  8
0
  10
458.212609
  20
95.708958
  42
-0.226021
  0
VERTEX
  8
0
  10
455.977852
  20
97.272960
  42
0.074719
  0
VERTEX
  8
0
  10
456.702572
  20
97.342364
  42
0.134304
  0
VERTEX
  8
0
  10
457.060116
  20
97.543134
  42
0.153567
  0
VERTEX
  8
0
  10
457.246069
  20
97.893963
  42
0.096272
  0
VERTEX
  8
0
  10
457.240250
  20
98.518448
  42
0.096951
  0
VERTEX
  8
0
  10
456.677519
  20
99.465926
  42
0.111457
  0
VERTEX
  8
0
  10
455.894782
  20
100.024210
  42
0.090360
  0
VERTEX
  8
0
  10
454.925817
  20
100.238178
  42
0.059757
  0
VERTEX
  8
0
  10
453.437219
  20
100.115434
  42
-0.084189
  0
VERTEX
  8
0
  10
453.344808
  20
99.044339
  42
-0.167785
  0
VERTEX
  8
0
  10
453.040004
  20
98.585661
  42
-0.169007
  0
VERTEX
  8
0
  10
452.517805
  20
98.414375
  42
-0.085220
  0
VERTEX
  8
0
  10
451.469259
  20
98.613778
  42
-0.085357
  0
VERTEX
  8
0
  10
452.214629
  20
97.851805
  42
-0.168820
  0
VERTEX
  8
0
  10
452.361194
  20
97.321395
  42
-0.167331
  0
VERTEX
  8
0
  10
452.148147
  20
96.812505
  42
-0.084096
  0
VERTEX
  8
0
  10
451.308547
  20
96.140568
  42
0.059757
  0
VERTEX
  8
0
  10
452.033508
  20
94.834651
  42
0.090360
  0
VERTEX
  8
0
  10
452.749744
  20
94.147859
  42
0.111457
  0
VERTEX
  8
0
  10
453.648805
  20
93.807202
  42
0.096951
  0
VERTEX
  8
0
  10
454.749240
  20
93.865698
  42
0.096272
  0
VERTEX
  8
0
  10
455.271714
  20
94.207805
  42
0.153567
  0
VERTEX
  8
0
  10
455.460109
  20
94.557328
  42
0.134304
  0
VERTEX
  8
0
  10
455.428402
  20
94.966157
  42
0.074719
  0
VERTEX
  8
0
  10
455.083477
  20
95.607299
  42
-0.226021
  0
VERTEX
  8
0
  10
457.625461
  20
94.618077
  42
-0.239872
  0
VERTEX
  8
0
  10
458.350670
  20
92.135896
  42
-0.331406
  0
VERTEX
  8
0
  10
462.429676
  20
92.780522
  0
SEQEND
  0
POLYLINE
  8
0
  66
1
  70
1
  0
VERTEX
  8
0
  10
447.698361
  20
62.043892
  0
VERTEX
  8
0
  10
452.443362
  20
62.053109
  42
0.125195
  0
VERTEX
  8
0
  10
453.754152
  20
64.944589
  42
0.064658
  0
VERTEX
  8
0
  10
454.042051
  20
71.015284
  42
-0.058178
  0
VERTEX
  8
0
  10
450.965670
  20
65.373967
  42
-0.080376
  0
VERTEX
  8
0
  10
447.698361
  20
62.043892
  0
SEQEND
  0
POLYLINE
  8
0
  66
1
  70
1
  0
VERTEX
  8
0
  10
446.719840
  20
71.993111
  42
-0.190947
  0
VERTEX
  8
0
  10
447.578656
  20
70.450611
  42
-0.139861
  0
VERTEX
  8
0
  10
447.230792
  20
68.105241
  42
0.099432
  0
VERTEX
  8
0
  10
451.006530
  20
71.164546
  42
0.123331
  0
VERTEX
  8
0
  10
452.706162
  20
74.717470
  42
-0.117590
  0
VERTEX
  8
0
  10
449.884838
  20
72.522445
  42
-0.131435
  0
VERTEX
  8
0
  10
446.719840
  20
71.993111
  0
SEQEND
  0
POLYLINE
  8
0
  66
1
  70
1
  0
VERTEX
  8
0
  10
451.140056
  20
78.843852
  42
0.507014
  0
VERTEX
  8
0
  10
447.301427
  20
78.882918
  42
-0.415564
  0
VERTEX
  8
0
  10
445.441272
  20
80.195103
  42
-0.411769
  0
VERTEX
  8
0
  10
446.758486
  20
82.069668
  42
0.537015
  0
VERTEX
  8
0
  10
442.692059
  20
78.956646
  42
0.450813
  0
VERTEX
  8
0
  10
446.294497
  20
76.177068
  42
-0.316217
  0
VERTEX
  8
0
  10
446.939297
  20
76.414510
  42
-0.309573
  0
VERTEX
  8
0
  10
447.391194
  20
75.889354
  42
-0.159701
  0
VERTEX
  8
0
  10
447.295921
  20
75.009006
  42
-0.275266
  0
VERTEX
  8
0
  10
446.089007
  20
74.167220
  0
VERTEX
  8
0
  10
446.089007
  20
74.167220
  0
VERTEX
  8
0
  10
446.089007
  20
74.167220
  42
0.024431
  0
VERTEX
  8
0
  10
448.188109
  20
74.549352
  42
0.027224
  0
VERTEX
  8
0
  10
450.026723
  20
75.084752
  42
0.240044
  0
VERTEX
  8
0
  10
451.510347
  20
76.648495
  42
0.231527
  0
VERTEX
  8
0
  10
451.140056
  20
78.843852
  0
SEQEND
  0
POLYLINE
  8
0
  66
1
  70
1
  0
VERTEX
  8
0
  10
446.395258
  20
85.054530
  42
-0.113716
  0
VERTEX
  8
0
  10
447.564637
  20
85.166850
  42
-0.093807
  0
VERTEX
  8
0
  10
448.911904
  20
84.723716
  42
-0.061903
  0
VERTEX
  8
0
  10
450.111586
  20
83.851795
  42
-0.039394
  0
VERTEX
  8
0
  10
451.679268
  20
82.134607
  42
0.148185
  0
VERTEX
  8
0
  10
450.686666
  20
85.630290
  42
0.104067
  0
VERTEX
  8
0
  10
447.093478
  20
89.274962
  42
-0.093049
  0
VERTEX
  8
0
  10
447.151967
  20
86.569026
  42
-0.150833
  0
VERTEX
  8
0
  10
446.395258
  20
85.054530
  0
SEQEND
  0
POLYLINE
  8
0
  66
1
  70
1
  0
VERTEX
  8
0
  10
451.069213
  20
88.184426
  42
0.044139
  0
VERTEX
  8
0
  10
447.935909
  20
91.272579
  42
0.081050
  0
VERTEX
  8
0
  10
445.857033
  20
92.485534
  42
0.100111
  0
VERTEX
  8
0
  10
446.982935
  20
93.801865
  42
0.154606
  0
VERTEX
  8
0
  10
447.210211
  20
94.915942
  42
0.151683
  0
VERTEX
  8
0
  10
448.303857
  20
94.562379
  42
0.099111
  0
VERTEX
  8
0
  10
450.010304
  20
94.883426
  42
0.078648
  0
VERTEX
  8
0
  10
450.009823
  20
92.472569
  42
0.042740
  0
VERTEX
  8
0
  10
451.069213
  20
88.184426
  0
SEQEND
  0
POLYLINE
  8
0
  66
1
  70
1
  0
VERTEX
  8
0
  10
481.470737
  20
120.384684
  0
VERTEX
  8
0
  10
483.835255
  20
116.270785
  42
-0.125195
  0
VERTEX
  8
0
  10
481.986555
  20
113.689867
  42
-0.064658
  0
VERTEX
  8
0
  10
476.873129
  20
110.405192
  42
0.058178
  0
VERTEX
  8
0
  10
480.220462
  20
115.890074
  42
0.080376
  0
VERTEX
  8
0
  10
481.470737
  20
120.384684
  0
SEQEND
  0
POLYLINE
  8
0
  66
1
  70
1
  0
VERTEX
  8
0
  10
472.365200
  20
116.257499
  42
0.190947
  0
VERTEX
  8
0
  10
474.130452
  20
116.284992
  42
0.139861
  0
VERTEX
  8
0
  10
475.987670
  20
117.758937
  42
-0.099432
  0
VERTEX
  8
0
  10
475.226103
  20
112.959399
  42
-0.123331
  0
VERTEX
  8
0
  10
472.998997
  20
109.711013
  42
0.117590
  0
VERTEX
  8
0
  10
473.489283
  20
113.251863
  42
0.131435
  0
VERTEX
  8
0
  10
472.365200
  20
116.257499
  0
SEQEND
  0
POLYLINE
  8
0
  66
1
  70
1
  0
VERTEX
  8
0
  10
468.642393
  20
109.004109
  42
-0.507014
  0
VERTEX
  8
0
  10
466.689246
  20
112.308927
  42
0.415564
  0
VERTEX
  8
0
  10
464.622782
  20
113.263775
  42
0.411769
  0
VERTEX
  8
0
  10
463.657969
  20
111.185752
  42
-0.537015
  0
VERTEX
  8
0
  10
464.320712
  20
116.263892
  42
-0.450813
  0
VERTEX
  8
0
  10
468.529116
  20
114.533878
  42
0.316217
  0
VERTEX
  8
0
  10
468.645885
  20
113.856744
  42
0.309573
  0
VERTEX
  8
0
  10
469.326632
  20
113.727968
  42
0.159701
  0
VERTEX
  8
0
  10
470.041399
  20
114.250651
  42
0.275266
  0
VERTEX
  8
0
  10
470.166950
  20
115.716762
  0
VERTEX
  8
0
  10
470.166950
  20
115.716762
  0
VERTEX
  8
0
  10
470.166950
  20
115.716762
  42
-0.024431
  0
VERTEX
  8
0
  10
470.885565
  20
113.707820
  42
-0.027224
  0
VERTEX
  8
0
  10
471.341202
  20
111.847834
  42
-0.240044
  0
VERTEX
  8
0
  10
470.728772
  20
109.781106
  42
-0.231527
  0
VERTEX
  8
0
  10
468.642393
  20
109.004109
  0
SEQEND
  0
POLYLINE
  8
0
  66
1
  70
1
  0
VERTEX
  8
0
  10
460.891389
  20
110.007886
  42
0.113716
  0
VERTEX
  8
0
  10
461.378806
  20
108.939013
  42
0.093807
  0
VERTEX
  8
0
  10
462.436205
  20
107.993813
  42
0.061903
  0
VERTEX
  8
0
  10
463.791152
  20
107.390819
  42
0.039394
  0
VERTEX
  8
0
  10
466.062121
  20
106.891760
  42
-0.148185
  0
VERTEX
  8
0
  10
462.538470
  20
106.003538
  42
-0.104067
  0
VERTEX
  8
0
  10
457.585497
  20
107.292993
  42
0.093049
  0
VERTEX
  8
0
  10
459.958150
  20
108.595308
  42
0.150833
  0
VERTEX
  8
0
  10
460.891389
  20
110.007886
  0
SEQEND
  0
POLYLINE
  8
0
  66
1
  70
1
  0
VERTEX
  8
0
  10
487.375434
  20
104.421799
  42
0.046984
  0
VERTEX
  8
0
  10
485.737713
  20
103.054007
  42
0.072332
  0
VERTEX
  8
0
  10
484.911220
  20
101.936161
  42
0.100942
  0
VERTEX
  8
0
  10
484.528342
  20
100.657977
  42
0.106462
  0
VERTEX
  8
0
  10
484.682836
  20
99.400882
  42
-0.078750
  0
VERTEX
  8
0
  10
485.583111
  20
100.105251
  42
-0.124653
  0
VERTEX
  8
0
  10
486.287699
  20
100.291715
  42
-0.131240
  0
VERTEX
  8
0
  10
486.986356
  20
100.113092
  42
-0.087474
  0
VERTEX
  8
0
  10
487.815807
  20
99.434358
  0
VERTEX
  8
0
  10
486.218408
  20
96.077131
  42
-0.098364
  0
VERTEX
  8
0
  10
482.942447
  20
96.951070
  42
-0.066926
  0
VERTEX
  8
0
  10
478.824245
  20
99.711136
  42
0.309647
  0
VERTEX
  8
0
  10
482.213252
  20
104.374428
  42
0.149880
  0
VERTEX
  8
0
  10
481.228755
  20
107.271427
  42
0.152375
  0
VERTEX
  8
0
  10
478.818826
  20
109.077886
  42
-0.066926
  0
VERTEX
  8
0
  10
482.937028
  20
111.837952
  42
-0.098364
  0
VERTEX
  8
0
  10
486.212989
  20
112.711891
  0
VERTEX
  8
0
  10
487.810388
  20
109.354664
  42
-0.087474
  0
VERTEX
  8
0
  10
486.980937
  20
108.675930
  42
-0.131240
  0
VERTEX
  8
0
  10
486.282280
  20
108.497307
  42
-0.124653
  0
VERTEX
  8
0
  10
485.577692
  20
108.683771
  42
-0.078750
  0
VERTEX
  8
0
  10
484.677417
  20
109.388140
  42
0.106719
  0
VERTEX
  8
0
  10
484.523675
  20
108.131897
  42
0.102052
  0
VERTEX
  8
0
  10
484.907156
  20
106.866505
  42
0.073266
  0
VERTEX
  8
0
  10
485.734592
  20
105.764231
  42
0.047485
  0
VERTEX
  8
0
  10
487.375434
  20
104.421799
  0
SEQEND
  0
POLYLINE
  8
0
  66
1
  70
1
  0
VERTEX
  8
0
  10
479.537225
  20
105.658427
  42
0.124027
  0
VERTEX
  8
0
  10
477.247655
  20
106.824443
  42
0.058537
  0
VERTEX
  8
0
  10
471.898762
  20
107.400611
  0
VERTEX
  8
0
  10
466.984683
  20
104.576977
  0
VERTEX
  8
0
  10
471.898762
  20
101.729683
  42
0.058537
  0
VERTEX
  8
0
  10
477.247655
  20
102.305852
  42
0.124027
  0
VERTEX
  8
0
  10
479.537225
  20
103.471867
  0
VERTEX
  8
0
  10
479.537225
  20
105.658427
  0
SEQEND
  0
POLYLINE
  8
0
  66
1
  70
1
  0
VERTEX
  8
0
  10
481.462874
  20
88.365503
  0
VERTEX
  8
0
  10
483.827393
  20
92.479402
  42
0.125195
  0
VERTEX
  8
0
  10
481.978692
  20
95.060319
  42
0.064658
  0
VERTEX
  8
0
  10
476.865266
  20
98.344995
  42
-0.058178
  0
VERTEX
  8
0
  10
480.212599
  20
92.860113
  42
-0.080376
  0
VERTEX
  8
0
  10
481.462874
  20
88.365503
  0
SEQEND
  0
POLYLINE
  8
0
  66
1
  70
1
  0
VERTEX
  8
0
  10
472.357338
  20
92.492688
  42
-0.190947
  0
VERTEX
  8
0
  10
474.122589
  20
92.465195
  42
-0.139861
  0
VERTEX
  8
0
  10
475.979807
  20
90.991250
  42
0.099432
  0
VERTEX
  8
0
  10
475.218241
  20
95.790788
  42
0.123331
  0
VERTEX
  8
0
  10
472.991134
  20
99.039174
  42
-0.117590
  0
VERTEX
  8
0
  10
473.481420
  20
95.498324
  42
-0.131435
  0
VERTEX
  8
0
  10
472.357338
  20
92.492688
  0
SEQEND
  0
POLYLINE
  8
0
  66
1
  70
1
  0
VERTEX
  8
0
  10
468.634530
  20
99.746078
  42
0.507014
  0
VERTEX
  8
0
  10
466.681383
  20
96.441260
  42
-0.415564
  0
VERTEX
  8
0
  10
464.614920
  20
95.486412
  42
-0.411769
  0
VERTEX
  8
0
  10
463.650106
  20
97.564435
  42
0.537015
  0
VERTEX
  8
0
  10
464.312849
  20
92.486295
  42
0.450813
  0
VERTEX
  8
0
  10
468.521253
  20
94.216308
  42
-0.316217
  0
VERTEX
  8
0
  10
468.638022
  20
94.893442
  42
-0.309573
  0
VERTEX
  8
0
  10
469.318769
  20
95.022219
  42
-0.159701
  0
VERTEX
  8
0
  10
470.033536
  20
94.499536
  42
-0.275266
  0
VERTEX
  8
0
  10
470.159088
  20
93.033425
  0
VERTEX
  8
0
  10
470.159088
  20
93.033425
  0
VERTEX
  8
0
  10
470.159088
  20
93.033425
  42
0.024431
  0
VERTEX
  8
0
  10
470.877702
  20
95.042367
  42
0.027224
  0
VERTEX
  8
0
  10
471.333339
  20
96.902353
  42
0.240044
  0
VERTEX
  8
0
  10
470.720910
  20
98.969081
  42
0.231527
  0
VERTEX
  8
0
  10
468.634530
  20
99.746078
  0
SEQEND
  0
POLYLINE
  8
0
  66
1
  70
1
  0
VERTEX
  8
0
  10
460.883526
  20
98.742301
  42
-0.113716
  0
VERTEX
  8
0
  10
461.370943
  20
99.811173
  42
-0.093807
  0
VERTEX
  8
0
  10
462.428342
  20
100.756374
  42
-0.061903
  0
VERTEX
  8
0
  10
463.783289
  20
101.359368
  42
-0.039394
  0
VERTEX
  8
0
  10
466.054258
  20
101.858427
  42
0.148185
  0
VERTEX
  8
0
  10
462.530607
  20
102.746649
  42
0.104067
  0
VERTEX
  8
0
  10
457.577634
  20
101.457193
  42
-0.093049
  0
VERTEX
  8
0
  10
459.950288
  20
100.154879
  42
-0.150833
  0
VERTEX
  8
0
  10
460.883526
  20
98.742301
  0
SEQEND
  0
POLYLINE
  8
0
  66
1
  70
1
  0
VERTEX
  8
0
  10
460.509934
  20
104.355013
  42
0.044139
  0
VERTEX
  8
0
  10
456.268863
  20
103.185569
  42
0.081050
  0
VERTEX
  8
0
  10
454.178975
  20
101.991687
  42
0.100111
  0
VERTEX
  8
0
  10
453.601950
  20
103.624911
  42
0.154606
  0
VERTEX
  8
0
  10
452.750769
  20
104.378777
  42
0.151683
  0
VERTEX
  8
0
  10
453.603786
  20
105.149121
  42
0.099111
  0
VERTEX
  8
0
  10
454.178975
  20
106.787470
  42
0.078648
  0
VERTEX
  8
0
  10
456.266598
  20
105.581625
  42
0.042740
  0
VERTEX
  8
0
  10
460.509934
  20
104.355013
  0
SEQEND
  0
POLYLINE
  8
0
  66
1
  70
1
  0
VERTEX
  8
0
  10
447.824454
  20
146.783634
  0
VERTEX
  8
0
  10
452.569455
  20
146.774417
  42
-0.125195
  0
VERTEX
  8
0
  10
453.880245
  20
143.882937
  42
-0.064658
  0
VERTEX
  8
0
  10
454.168144
  20
137.812242
  42
0.058178
  0
VERTEX
  8
0
  10
451.091763
  20
143.453559
  42
0.080376
  0
VERTEX
  8
0
  10
447.824454
  20
146.783634
  0
SEQEND
  0
POLYLINE
  8
0
  66
1
  70
1
  0
VERTEX
  8
0
  10
446.845933
  20
136.834415
  42
0.190947
  0
VERTEX
  8
0
  10
447.704749
  20
138.376915
  42
0.139861
  0
VERTEX
  8
0
  10
447.356885
  20
140.722285
  42
-0.099432
  0
VERTEX
  8
0
  10
451.132623
  20
137.662980
  42
-0.123331
  0
VERTEX
  8
0
  10
452.832255
  20
134.110056
  42
0.117590
  0
VERTEX
  8
0
  10
450.010931
  20
136.305081
  42
0.131435
  0
VERTEX
  8
0
  10
446.845933
  20
136.834415
  0
SEQEND
  0
POLYLINE
  8
0
  66
1
  70
1
  0
VERTEX
  8
0
  10
451.266149
  20
129.983674
  42
-0.507014
  0
VERTEX
  8
0
  10
447.427520
  20
129.944608
  42
0.415564
  0
VERTEX
  8
0
  10
445.567365
  20
128.632423
  42
0.411769
  0
VERTEX
  8
0
  10
446.884579
  20
126.757858
  42
-0.537015
  0
VERTEX
  8
0
  10
442.818152
  20
129.870880
  42
-0.450813
  0
VERTEX
  8
0
  10
446.420590
  20
132.650458
  42
0.316217
  0
VERTEX
  8
0
  10
447.065390
  20
132.413016
  42
0.309573
  0
VERTEX
  8
0
  10
447.517287
  20
132.938173
  42
0.159701
  0
VERTEX
  8
0
  10
447.422014
  20
133.818521
  42
0.275266
  0
VERTEX
  8
0
  10
446.215100
  20
134.660306
  0
VERTEX
  8
0
  10
446.215100
  20
134.660306
  0
VERTEX
  8
0
  10
446.215100
  20
134.660306
  42
-0.024431
  0
VERTEX
  8
0
  10
448.314202
  20
134.278174
  42
-0.027224
  0
VERTEX
  8
0
  10
450.152816
  20
133.742774
  42
-0.240044
  0
VERTEX
  8
0
  10
451.636440
  20
132.179031
  42
-0.231527
  0
VERTEX
  8
0
  10
451.266149
  20
129.983674
  0
SEQEND
  0
POLYLINE
  8
0
  66
1
  70
1
  0
VERTEX
  8
0
  10
446.521351
  20
123.772996
  42
0.113716
  0
VERTEX
  8
0
  10
447.690730
  20
123.660676
  42
0.093807
  0
VERTEX
  8
0
  10
449.037997
  20
124.103810
  42
0.061903
  0
VERTEX
  8
0
  10
450.237679
  20
124.975732
  42
0.039394
  0
VERTEX
  8
0
  10
451.805361
  20
126.692919
  42
-0.148185
  0
VERTEX
  8
0
  10
450.812759
  20
123.197236
  42
-0.104067
  0
VERTEX
  8
0
  10
447.219571
  20
119.552564
  42
0.093049
  0
VERTEX
  8
0
  10
447.278060
  20
122.258500
  42
0.150833
  0
VERTEX
  8
0
  10
446.521351
  20
123.772996
  0
SEQEND
  0
POLYLINE
  8
0
  66
1
  70
1
  0
VERTEX
  8
0
  10
464.601067
  20
143.915809
  42
0.046984
  0
VERTEX
  8
0
  10
464.966749
  20
141.813605
  42
0.072332
  0
VERTEX
  8
0
  10
465.521586
  20
140.538919
  42
0.100942
  0
VERTEX
  8
0
  10
466.437086
  20
139.568244
  42
0.106462
  0
VERTEX
  8
0
  10
467.603009
  20
139.073492
  42
-0.078750
  0
VERTEX
  8
0
  10
467.443145
  20
140.205338
  42
-0.124653
  0
VERTEX
  8
0
  10
467.633957
  20
140.908761
  42
-0.131240
  0
VERTEX
  8
0
  10
468.137978
  20
141.424504
  42
-0.087474
  0
VERTEX
  8
0
  10
469.140504
  20
141.803463
  0
VERTEX
  8
0
  10
471.249248
  20
138.741461
  42
-0.098364
  0
VERTEX
  8
0
  10
468.854414
  20
136.341366
  42
-0.066926
  0
VERTEX
  8
0
  10
464.405026
  20
134.154931
  42
0.309647
  0
VERTEX
  8
0
  10
462.061001
  20
139.421543
  42
0.149880
  0
VERTEX
  8
0
  10
459.059877
  20
140.017443
  42
0.152375
  0
VERTEX
  8
0
  10
456.290473
  20
138.833612
  42
-0.066926
  0
VERTEX
  8
0
  10
455.959287
  20
143.780114
  42
-0.098364
  0
VERTEX
  8
0
  10
456.840414
  20
147.054148
  0
VERTEX
  8
0
  10
460.546557
  20
146.758923
  42
-0.087474
  0
VERTEX
  8
0
  10
460.719632
  20
145.701230
  42
-0.131240
  0
VERTEX
  8
0
  10
460.524996
  20
145.006864
  42
-0.124653
  0
VERTEX
  8
0
  10
460.011220
  20
144.489905
  42
-0.078750
  0
VERTEX
  8
0
  10
458.951081
  20
144.062428
  42
0.106719
  0
VERTEX
  8
0
  10
459.962148
  20
143.301162
  42
0.102052
  0
VERTEX
  8
0
  10
461.249750
  20
143.000571
  42
0.073266
  0
VERTEX
  8
0
  10
462.618066
  20
143.166014
  42
0.047485
  0
VERTEX
  8
0
  10
464.601067
  20
143.915809
  0
SEQEND
  0
POLYLINE
  8
0
  66
1
  70
1
  0
VERTEX
  8
0
  10
459.611011
  20
137.746035
  42
0.124027
  0
VERTEX
  8
0
  10
457.456427
  20
136.346217
  42
0.058537
  0
VERTEX
  8
0
  10
454.283004
  20
132.002024
  0
VERTEX
  8
0
  10
454.271303
  20
126.334490
  0
VERTEX
  8
0
  10
459.194171
  20
129.166560
  42
0.058537
  0
VERTEX
  8
0
  10
461.369641
  20
134.086921
  42
0.124027
  0
VERTEX
  8
0
  10
461.504627
  20
136.652755
  0
VERTEX
  8
0
  10
459.611011
  20
137.746035
  0
SEQEND
  0
POLYLINE
  8
0
  66
1
  70
1
  0
VERTEX
  8
0
  10
475.549947
  20
130.767234
  0
VERTEX
  8
0
  10
473.169465
  20
134.871917
  42
0.125195
  0
VERTEX
  8
0
  10
470.009975
  20
134.561354
  42
0.064658
  0
VERTEX
  8
0
  10
464.608649
  20
131.775335
  42
-0.058178
  0
VERTEX
  8
0
  10
471.032364
  20
131.931769
  42
-0.080376
  0
VERTEX
  8
0
  10
475.549947
  20
130.767234
  0
SEQEND
  0
POLYLINE
  8
0
  66
1
  70
1
  0
VERTEX
  8
0
  10
467.422932
  20
124.945201
  42
-0.190947
  0
VERTEX
  8
0
  10
468.329368
  20
126.460207
  42
-0.139861
  0
VERTEX
  8
0
  10
470.534450
  20
127.331632
  42
0.099432
  0
VERTEX
  8
0
  10
465.997145
  20
129.071865
  42
0.123331
  0
VERTEX
  8
0
  10
462.070407
  20
128.767328
  42
-0.117590
  0
VERTEX
  8
0
  10
465.382016
  20
127.421502
  42
-0.131435
  0
VERTEX
  8
0
  10
467.422932
  20
124.945201
  0
SEQEND
  0
POLYLINE
  8
0
  66
1
  70
1
  0
VERTEX
  8
0
  10
459.279908
  20
125.347850
  42
0.507014
  0
VERTEX
  8
0
  10
461.165391
  20
122.003966
  42
-0.415564
  0
VERTEX
  8
0
  10
460.959082
  20
119.736932
  42
-0.411769
  0
VERTEX
  8
0
  10
458.677054
  20
119.940390
  42
0.537015
  0
VERTEX
  8
0
  10
463.406224
  20
117.975273
  42
0.450813
  0
VERTEX
  8
0
  10
464.012190
  20
122.484864
  42
-0.316217
  0
VERTEX
  8
0
  10
463.484160
  20
122.924556
  42
-0.309573
  0
VERTEX
  8
0
  10
463.713010
  20
123.578489
  42
-0.159701
  0
VERTEX
  8
0
  10
464.523050
  20
123.936154
  42
-0.275266
  0
VERTEX
  8
0
  10
465.855515
  20
123.311829
  0
VERTEX
  8
0
  10
465.855515
  20
123.311829
  0
VERTEX
  8
0
  10
465.855515
  20
123.311829
  42
0.024431
  0
VERTEX
  8
0
  10
464.475027
  20
124.938638
  42
0.027224
  0
VERTEX
  8
0
  10
463.092051
  20
126.263224
  42
0.240044
  0
VERTEX
  8
0
  10
460.995997
  20
126.766209
  42
0.231527
  0
VERTEX
  8
0
  10
459.279908
  20
125.347850
  0
SEQEND
  0
POLYLINE
  8
0
  66
1
  70
1
  0
VERTEX
  8
0
  10
456.273702
  20
118.133395
  42
-0.113716
  0
VERTEX
  8
0
  10
455.591740
  20
119.089946
  42
-0.093807
  0
VERTEX
  8
0
  10
455.301872
  20
120.478281
  42
-0.061903
  0
VERTEX
  8
0
  10
455.457138
  20
121.953197
  42
-0.039394
  0
VERTEX
  8
0
  10
456.160424
  20
124.169443
  42
0.148185
  0
VERTEX
  8
0
  10
453.629376
  20
121.561983
  42
0.104067
  0
VERTEX
  8
0
  10
452.269591
  20
116.627855
  42
-0.093049
  0
VERTEX
  8
0
  10
454.583755
  20
118.031476
  42
-0.150833
  0
VERTEX
  8
0
  10
456.273702
  20
118.133395
  0
SEQEND
  0
POLYLINE
  8
0
  66
1
  70
1
  0
VERTEX
  8
0
  10
451.226156
  20
120.616210
  42
0.044139
  0
VERTEX
  8
0
  10
450.118388
  20
116.358614
  42
0.081050
  0
VERTEX
  8
0
  10
450.107376
  20
113.951776
  42
0.100111
  0
VERTEX
  8
0
  10
448.404450
  20
114.268670
  42
0.154606
  0
VERTEX
  8
0
  10
447.325992
  20
113.908458
  42
0.151683
  0
VERTEX
  8
0
  10
447.085364
  20
115.032365
  42
0.099111
  0
VERTEX
  8
0
  10
445.954106
  20
116.349668
  42
0.078648
  0
VERTEX
  8
0
  10
448.042210
  20
117.554680
  42
0.042740
  0
VERTEX
  8
0
  10
451.226156
  20
120.616210
  0
SEQEND
  0
POLYLINE
  8
0
  66
1
  70
1
  0
VERTEX
  8
0
  10
462.547906
  20
116.033385
  42
0.336714
  0
VERTEX
  8
0
  10
460.797603
  20
112.328916
  42
0.239872
  0
VERTEX
  8
0
  10
458.330839
  20
113.104950
  42
0.226021
  0
VERTEX
  8
0
  10
456.096082
  20
111.540947
  42
-0.074719
  0
VERTEX
  8
0
  10
456.820802
  20
111.471543
  42
-0.134304
  0
VERTEX
  8
0
  10
457.178346
  20
111.270774
  42
-0.153567
  0
VERTEX
  8
0
  10
457.364299
  20
110.919945
  42
-0.096272
  0
VERTEX
  8
0
  10
457.358480
  20
110.295459
  42
-0.096951
  0
VERTEX
  8
0
  10
456.795749
  20
109.347982
  42
-0.111457
  0
VERTEX
  8
0
  10
456.013013
  20
108.789698
  42
-0.090360
  0
VERTEX
  8
0
  10
455.044047
  20
108.575730
  42
-0.059757
  0
VERTEX
  8
0
  10
453.555450
  20
108.698474
  42
0.084189
  0
VERTEX
  8
0
  10
453.463038
  20
109.769569
  42
0.167785
  0
VERTEX
  8
0
  10
453.158234
  20
110.228247
  42
0.169007
  0
VERTEX
  8
0
  10
452.636035
  20
110.399533
  42
0.085220
  0
VERTEX
  8
0
  10
451.587489
  20
110.200130
  42
0.085357
  0
VERTEX
  8
0
  10
452.332859
  20
110.962102
  42
0.168820
  0
VERTEX
  8
0
  10
452.479424
  20
111.492513
  42
0.167331
  0
VERTEX
  8
0
  10
452.266378
  20
112.001402
  42
0.084096
  0
VERTEX
  8
0
  10
451.426778
  20
112.673340
  42
-0.059757
  0
VERTEX
  8
0
  10
452.151739
  20
113.979257
  42
-0.090360
  0
VERTEX
  8
0
  10
452.867974
  20
114.666049
  42
-0.111457
  0
VERTEX
  8
0
  10
453.767035
  20
115.006705
  42
-0.096951
  0
VERTEX
  8
0
  10
454.867470
  20
114.948210
  42
-0.096272
  0
VERTEX
  8
0
  10
455.389945
  20
114.606103
  42
-0.153567
  0
VERTEX
  8
0
  10
455.578339
  20
114.256579
  42
-0.134304
  0
VERTEX
  8
0
  10
455.546632
  20
113.847750
  42
-0.074719
  0
VERTEX
  8
0
  10
455.201707
  20
113.206609
  42
0.226021
  0
VERTEX
  8
0
  10
457.743691
  20
114.195831
  42
0.239872
  0
VERTEX
  8
0
  10
458.468901
  20
116.678012
  42
0.331406
  0
VERTEX
  8
0
  10
462.547906
  20
116.033385
  0
SEQEND
  0
POLYLINE
  8
0
  66
1
  70
1
  0
VERTEX
  8
0
  10
408.305910
  20
123.823729
  0
VERTEX
  8
0
  10
408.783624
  20
122.316357
  42
0.177463
  0
VERTEX
  8
0
  10
407.537229
  20
121.624145
  42
0.123966
  0
VERTEX
  8
0
  10
406.634708
  20
119.829204
  42
0.079317
  0
VERTEX
  8
0
  10
405.040487
  20
121.968692
  42
0.116563
  0
VERTEX
  8
0
  10
403.471993
  20
122.908961
  0
VERTEX
  8
0
  10
406.730836
  20
128.426002
  42
0.116563
  0
VERTEX
  8
0
  10
408.329380
  20
127.537780
  42
0.079317
  0
VERTEX
  8
0
  10
410.979341
  20
127.226889
  42
0.123966
  0
VERTEX
  8
0
  10
409.876138
  20
125.547813
  42
0.177463
  0
VERTEX
  8
0
  10
409.899862
  20
124.122296
  0
VERTEX
  8
0
  10
408.305910
  20
123.823729
  0
SEQEND
  0
POLYLINE
  8
0
  66
1
  70
1
  0
VERTEX
  8
0
  10
408.356822
  20
85.051341
  0
VERTEX
  8
0
  10
409.901101
  20
84.711367
  42
0.177463
  0
VERTEX
  8
0
  10
409.877377
  20
83.285851
  42
0.123966
  0
VERTEX
  8
0
  10
410.980580
  20
81.606775
  42
0.079317
  0
VERTEX
  8
0
  10
408.330619
  20
81.295883
  42
0.116563
  0
VERTEX
  8
0
  10
406.732075
  20
80.407662
  0
VERTEX
  8
0
  10
403.583600
  20
85.988423
  42
0.116563
  0
VERTEX
  8
0
  10
405.152094
  20
86.928692
  42
0.079317
  0
VERTEX
  8
0
  10
406.746314
  20
89.068180
  42
0.123966
  0
VERTEX
  8
0
  10
407.648835
  20
87.273240
  42
0.177463
  0
VERTEX
  8
0
  10
408.895231
  20
86.581028
  0
VERTEX
  8
0
  10
408.356822
  20
85.051341
  0
SEQEND
  0
POLYLINE
  8
0
  66
1
  70
1
  0
VERTEX
  8
0
  10
441.960151
  20
65.709238
  0
VERTEX
  8
0
  10
443.026716
  20
66.876636
  42
0.177463
  0
VERTEX
  8
0
  10
444.249387
  20
66.143333
  42
0.123966
  0
VERTEX
  8
0
  10
446.255112
  20
66.259197
  42
0.079317
  0
VERTEX
  8
0
  10
445.199371
  20
63.808817
  42
0.116563
  0
VERTEX
  8
0
  10
445.169321
  20
61.980327
  0
VERTEX
  8
0
  10
438.762003
  20
62.044047
  42
0.116563
  0
VERTEX
  8
0
  10
438.731953
  20
63.872538
  42
0.079317
  0
VERTEX
  8
0
  10
437.676212
  20
66.322917
  42
0.123966
  0
VERTEX
  8
0
  10
439.681936
  20
66.207053
  42
0.177463
  0
VERTEX
  8
0
  10
440.904608
  20
66.940357
  0
VERTEX
  8
0
  10
441.960151
  20
65.709238
  0
SEQEND
  0
POLYLINE
  8
0
  66
1
  70
1
  0
VERTEX
  8
0
  10
475.512567
  20
85.139523
  0
VERTEX
  8
0
  10
475.034854
  20
86.646895
  42
0.177463
  0
VERTEX
  8
0
  10
476.281249
  20
87.339107
  42
0.123966
  0
VERTEX
  8
0
  10
477.183770
  20
89.134048
  42
0.079317
  0
VERTEX
  8
0
  10
478.777991
  20
86.994559
  42
0.116563
  0
VERTEX
  8
0
  10
480.346485
  20
86.054290
  0
VERTEX
  8
0
  10
477.087642
  20
80.537250
  42
0.116563
  0
VERTEX
  8
0
  10
475.489098
  20
81.425471
  42
0.079317
  0
VERTEX
  8
0
  10
472.839136
  20
81.736363
  42
0.123966
  0
VERTEX
  8
0
  10
473.942340
  20
83.415439
  42
0.177463
  0
VERTEX
  8
0
  10
473.918616
  20
84.840955
  0
VERTEX
  8
0
  10
475.512567
  20
85.139523
  0
SEQEND
  0
POLYLINE
  8
0
  66
1
  70
1
  0
VERTEX
  8
0
  10
475.461655
  20
123.911911
  0
VERTEX
  8
0
  10
473.917376
  20
124.251884
  42
0.177463
  0
VERTEX
  8
0
  10
473.941101
  20
125.677401
  42
0.123966
  0
VERTEX
  8
0
  10
472.837897
  20
127.356477
  42
0.079317
  0
VERTEX
  8
0
  10
475.487858
  20
127.667368
  42
0.116563
  0
VERTEX
  8
0
  10
477.086402
  20
128.555590
  0
VERTEX
  8
0
  10
480.234878
  20
122.974829
  42
0.116563
  0
VERTEX
  8
0
  10
478.666384
  20
122.034559
  42
0.079317
  0
VERTEX
  8
0
  10
477.072163
  20
119.895071
  42
0.123966
  0
VERTEX
  8
0
  10
476.169642
  20
121.690012
  42
0.177463
  0
VERTEX
  8
0
  10
474.923247
  20
122.382224
  0
VERTEX
  8
0
  10
475.461655
  20
123.911911
  0
SEQEND
  0
POLYLINE
  8
0
  66
1
  70
1
  0
VERTEX
  8
0
  10
441.858327
  20
143.254013
  0
VERTEX
  8
0
  10
440.791761
  20
142.086615
  42
0.177463
  0
VERTEX
  8
0
  10
439.569090
  20
142.819919
  42
0.123966
  0
VERTEX
  8
0
  10
437.563366
  20
142.704055
  42
0.079317
  0
VERTEX
  8
0
  10
438.619107
  20
145.154435
  42
0.116563
  0
VERTEX
  8
0
  10
438.649156
  20
146.982925
  0
VERTEX
  8
0
  10
445.056475
  20
146.919204
  42
0.116563
  0
VERTEX
  8
0
  10
445.086525
  20
145.090714
  42
0.079317
  0
VERTEX
  8
0
  10
446.142266
  20
142.640334
  42
0.123966
  0
VERTEX
  8
0
  10
444.136541
  20
142.756198
  42
0.177463
  0
VERTEX
  8
0
  10
442.913870
  20
142.022895
  0
VERTEX
  8
0
  10
441.858327
  20
143.254013
  0
SEQEND
  0
POLYLINE
  8
0
  66
1
  70
1
  0
VERTEX
  8
0
  10
437.083442
  20
103.406872
  0
VERTEX
  8
0
  10
438.583442
  20
100.808796
  0
VERTEX
  8
0
  10
435.119340
  20
98.808796
  0
VERTEX
  8
0
  10
433.619340
  20
101.406872
  0
VERTEX
  8
0
  10
437.083442
  20
103.406872
  0
SEQEND
  0
POLYLINE
  8
0
  66
1
  70
1
  0
VERTEX
  8
0
  10
414.474003
  20
90.353307
  0
VERTEX
  8
0
  10
415.974003
  20
87.755231
  0
VERTEX
  8
0
  10
412.509902
  20
85.755231
  0
VERTEX
  8
0
  10
411.009902
  20
88.353307
  0
VERTEX
  8
0
  10
414.474003
  20
90.353307
  0
SEQEND
  0
POLYLINE
  8
0
  66
1
  70
1
  0
VERTEX
  8
0
  10
440.334023
  20
99.854203
  0
VERTEX
  8
0
  10
443.334023
  20
99.854203
  0
VERTEX
  8
0
  10
443.334023
  20
95.854203
  0
VERTEX
  8
0
  10
440.334023
  20
95.854203
  0
VERTEX
  8
0
  10
440.334023
  20
99.854203
  0
SEQEND
  0
POLYLINE
  8
0
  66
1
  70
1
  0
VERTEX
  8
0
  10
440.334023
  20
73.747072
  0
VERTEX
  8
0
  10
443.334023
  20
73.747072
  0
VERTEX
  8
0
  10
443.334023
  20
69.747072
  0
VERTEX
  8
0
  10
440.334023
  20
69.747072
  0
VERTEX
  8
0
  10
440.334023
  20
73.747072
  0
SEQEND
  0
POLYLINE
  8
0
  66
1
  70
1
  0
VERTEX
  8
0
  10
445.036016
  20
100.892954
  0
VERTEX
  8
0
  10
446.536016
  20
103.491030
  0
VERTEX
  8
0
  10
450.000118
  20
101.491030
  0
VERTEX
  8
0
  10
448.500118
  20
98.892954
  0
VERTEX
  8
0
  10
445.036016
  20
100.892954
  0
SEQEND
  0
POLYLINE
  8
0
  66
1
  70
1
  0
VERTEX
  8
0
  10
467.645454
  20
87.839389
  0
VERTEX
  8
0
  10
469.145454
  20
90.437465
  0
VERTEX
  8
0
  10
472.609556
  20
88.437465
  0
VERTEX
  8
0
  10
471.109556
  20
85.839389
  0
VERTEX
  8
0
  10
467.645454
  20
87.839389
  0
SEQEND
  0
POLYLINE
  8
0
  66
1
  70
1
  0
VERTEX
  8
0
  10
446.487427
  20
105.484375
  0
VERTEX
  8
0
  10
444.987427
  20
108.082451
  0
VERTEX
  8
0
  10
448.451529
  20
110.082451
  0
VERTEX
  8
0
  10
449.951529
  20
107.484375
  0
VERTEX
  8
0
  10
446.487427
  20
105.484375
  0
SEQEND
  0
POLYLINE
  8
0
  66
1
  70
1
  0
VERTEX
  8
0
  10
469.096865
  20
118.537940
  0
VERTEX
  8
0
  10
467.596865
  20
121.136016
  0
VERTEX
  8
0
  10
471.060967
  20
123.136016
  0
VERTEX
  8
0
  10
472.560967
  20
120.537940
  0
VERTEX
  8
0
  10
469.096865
  20
118.537940
  0
SEQEND
  0
POLYLINE
  8
0
  66
1
  70
1
  0
VERTEX
  8
0
  10
443.236846
  20
109.037044
  0
VERTEX
  8
0
  10
440.236846
  20
109.037044
  0
VERTEX
  8
0
  10
440.236846
  20
113.037044
  0
VERTEX
  8
0
  10
443.236846
  20
113.037044
  0
VERTEX
  8
0
  10
443.236846
  20
109.037044
  0
SEQEND
  0
POLYLINE
  8
0
  66
1
  70
1
  0
VERTEX
  8
0
  10
443.236846
  20
135.144175
  0
VERTEX
  8
0
  10
440.236846
  20
135.144175
  0
VERTEX
  8
0
  10
440.236846
  20
139.144175
  0
VERTEX
  8
0
  10
443.236846
  20
139.144175
  0
VERTEX
  8
0
  10
443.236846
  20
135.144175
  0
SEQEND
  0
POLYLINE
  8
0
  66
1
  70
1
  0
VERTEX
  8
0
  10
438.534853
  20
107.998293
  0
VERTEX
  8
0
  10
437.034853
  20
105.400217
  0
VERTEX
  8
0
  10
433.570751
  20
107.400217
  0
VERTEX
  8
0
  10
435.070751
  20
109.998293
  0
VERTEX
  8
0
  10
438.534853
  20
107.998293
  0
SEQEND
  0
POLYLINE
  8
0
  66
1
  70
1
  0
VERTEX
  8
0
  10
415.925415
  20
121.051858
  0
VERTEX
  8
0
  10
414.425415
  20
118.453782
  0
VERTEX
  8
0
  10
410.961313
  20
120.453782
  0
VERTEX
  8
0
  10
412.461313
  20
123.051858
  0
VERTEX
  8
0
  10
415.925415
  20
121.051858
  0
SEQEND
  0
POLYLINE
  8
0
  66
1
  70
1
  0
VERTEX
  8
0
  10
339.792465
  20
43.315861
  42
0.026765
  0
VERTEX
  8
0
  10
339.790074
  20
43.362612
  42
0.007794
  0
VERTEX
  8
0
  10
339.770811
  20
43.522107
  0
VERTEX
  8
0
  10
339.761839
  20
43.607976
  42
0.106648
  0
VERTEX
  8
0
  10
339.382186
  20
44.496642
  42
0.055244
  0
VERTEX
  8
0
  10
338.153022
  20
45.879527
  0
VERTEX
  8
0
  10
336.775237
  20
46.957857
  0
VERTEX
  8
0
  10
335.392180
  20
45.886198
  42
0.055249
  0
VERTEX
  8
0
  10
334.156308
  20
44.509270
  42
0.106667
  0
VERTEX
  8
0
  10
333.772423
  20
43.622508
  0
VERTEX
  8
0
  10
333.763034
  20
43.536684
  42
0.008349
  0
VERTEX
  8
0
  10
333.742910
  20
43.379438
  42
0.027047
  0
VERTEX
  8
0
  10
333.740144
  20
43.330546
  0
VERTEX
  8
0
  10
333.740995
  20
43.324452
  0
VERTEX
  8
0
  10
333.740112
  20
43.317094
  42
0.414191
  0
VERTEX
  8
0
  10
335.249604
  20
41.811204
  42
0.305182
  0
VERTEX
  8
0
  10
336.762881
  20
42.809698
  42
0.305087
  0
VERTEX
  8
0
  10
338.275886
  20
41.803861
  42
0.414191
  0
VERTEX
  8
0
  10
339.792667
  20
43.302409
  0
VERTEX
  8
0
  10
339.792054
  20
43.309292
  0
VERTEX
  8
0
  10
339.792465
  20
43.315861
  0
SEQEND
  0
POLYLINE
  8
0
  66
1
  70
1
  0
VERTEX
  8
0
  10
344.016141
  20
30.640317
  42
0.414209
  0
VERTEX
  8
0
  10
340.483078
  20
34.144215
  42
0.147534
  0
VERTEX
  8
0
  10
338.339590
  20
33.491989
  42
0.151132
  0
VERTEX
  8
0
  10
336.958666
  20
31.792910
  42
0.150974
  0
VERTEX
  8
0
  10
335.572145
  20
33.486201
  42
0.147920
  0
VERTEX
  8
0
  10
333.434424
  20
34.127113
  42
0.414209
  0
VERTEX
  8
0
  10
329.918406
  20
30.606112
  0
VERTEX
  8
0
  10
329.920225
  20
30.588799
  0
VERTEX
  8
0
  10
329.918482
  20
30.574703
  42
0.026838
  0
VERTEX
  8
0
  10
329.924976
  20
30.459047
  42
0.008412
  0
VERTEX
  8
0
  10
329.971603
  20
30.092642
  0
VERTEX
  8
0
  10
329.993845
  20
29.892127
  42
0.106385
  0
VERTEX
  8
0
  10
330.888961
  20
27.817280
  42
0.055229
  0
VERTEX
  8
0
  10
333.766693
  20
24.599101
  42
0.012385
  0
VERTEX
  8
0
  10
334.823836
  20
23.697650
  42
0.011588
  0
VERTEX
  8
0
  10
335.998626
  20
22.789403
  0
VERTEX
  8
0
  10
336.988075
  20
22.093515
  0
VERTEX
  8
0
  10
337.974139
  20
22.794231
  42
0.011587
  0
VERTEX
  8
0
  10
339.144515
  20
23.708208
  42
0.012384
  0
VERTEX
  8
0
  10
340.197280
  20
24.614815
  42
0.055224
  0
VERTEX
  8
0
  10
343.059424
  20
27.847022
  42
0.106378
  0
VERTEX
  8
0
  10
343.944507
  20
29.926199
  0
VERTEX
  8
0
  10
343.965435
  20
30.126819
  42
0.008049
  0
VERTEX
  8
0
  10
344.010480
  20
30.497284
  42
0.026838
  0
VERTEX
  8
0
  10
344.016216
  20
30.609131
  0
VERTEX
  8
0
  10
344.014402
  20
30.624103
  0
VERTEX
  8
0
  10
344.016141
  20
30.640317
  0
SEQEND
  0
POLYLINE
  8
0
  66
1
  70
1
  0
VERTEX
  8
0
  10
342.864432
  20
89.568577
  42
-0.201276
  0
VERTEX
  8
0
  10
343.110314
  20
90.162860
  42
-0.132915
  0
VERTEX
  8
0
  10
343.938376
  20
90.633652
  0
VERTEX
  8
0
  10
344.207157
  20
91.185813
  0
VERTEX
  8
0
  10
338.513504
  20
91.201160
  42
0.059285
  0
VERTEX
  8
0
  10
339.594477
  20
88.211537
  42
0.100549
  0
VERTEX
  8
0
  10
340.759906
  20
86.727762
  42
0.134988
  0
VERTEX
  8
0
  10
342.377276
  20
85.973802
  42
0.111286
  0
VERTEX
  8
0
  10
344.526290
  20
86.089528
  42
0.222893
  0
VERTEX
  8
0
  10
345.722872
  20
87.110103
  42
0.282743
  0
VERTEX
  8
0
  10
345.563716
  20
88.375671
  42
0.516630
  0
VERTEX
  8
0
  10
343.125154
  20
88.218100
  0
VERTEX
  8
0
  10
342.856755
  20
88.218868
  0
VERTEX
  8
0
  10
342.864432
  20
89.568577
  0
SEQEND
  0
POLYLINE
  8
0
  66
1
  70
1
  0
VERTEX
  8
0
  10
346.891494
  20
91.159926
  0
VERTEX
  8
0
  10
346.890146
  20
90.689307
  42
-0.327147
  0
VERTEX
  8
0
  10
349.172020
  20
88.645340
  42
-0.315889
  0
VERTEX
  8
0
  10
347.949817
  20
85.788473
  0
VERTEX
  8
0
  10
353.854939
  20
85.753063
  42
0.179173
  0
VERTEX
  8
0
  10
356.064138
  20
86.604529
  42
0.213197
  0
VERTEX
  8
0
  10
356.901108
  20
88.438027
  42
0.213469
  0
VERTEX
  8
0
  10
356.060174
  20
90.358262
  42
0.191974
  0
VERTEX
  8
0
  10
353.895192
  20
91.168391
  0
VERTEX
  8
0
  10
346.891494
  20
91.159926
  0
SEQEND
  0
POLYLINE
  8
0
  66
1
  70
1
  0
VERTEX
  8
0
  10
355.747935
  20
77.151087
  42
-0.054073
  0
VERTEX
  8
0
  10
356.959330
  20
77.824396
  42
-0.098845
  0
VERTEX
  8
0
  10
357.707131
  20
77.977700
  42
-0.148610
  0
VERTEX
  8
0
  10
358.379752
  20
77.777050
  42
-0.126212
  0
VERTEX
  8
0
  10
358.930474
  20
77.167493
  42
0.482794
  0
VERTEX
  8
0
  10
358.613922
  20
74.405482
  42
0.282753
  0
VERTEX
  8
0
  10
359.887520
  20
74.101767
  42
0.239483
  0
VERTEX
  8
0
  10
360.955889
  20
75.173853
  42
0.106877
  0
VERTEX
  8
0
  10
360.945396
  20
78.359413
  42
0.151037
  0
VERTEX
  8
0
  10
359.820554
  20
80.342122
  42
0.118383
  0
VERTEX
  8
0
  10
357.730838
  20
81.536594
  42
0.066053
  0
VERTEX
  8
0
  10
353.507012
  20
82.182264
  42
-0.066372
  0
VERTEX
  8
0
  10
343.189710
  20
83.500975
  42
-0.138099
  0
VERTEX
  8
0
  10
338.824223
  20
86.083107
  42
0.345818
  0
VERTEX
  8
0
  10
346.571595
  20
73.176569
  0
VERTEX
  8
0
  10
346.583125
  20
77.202852
  42
-0.212665
  0
VERTEX
  8
0
  10
347.877617
  20
80.156891
  42
-0.188307
  0
VERTEX
  8
0
  10
351.246409
  20
81.449774
  42
-0.397983
  0
VERTEX
  8
0
  10
355.747935
  20
77.151087
  0
SEQEND
  0
POLYLINE
  8
0
  66
1
  70
1
  0
VERTEX
  8
0
  10
350.800843
  20
70.685322
  42
0.446561
  0
VERTEX
  8
0
  10
359.182731
  20
71.529948
  42
-0.277461
  0
VERTEX
  8
0
  10
355.626969
  20
72.319946
  42
-0.274166
  0
VERTEX
  8
0
  10
354.631948
  20
75.837597
  42
-0.361419
  0
VERTEX
  8
0
  10
351.357603
  20
75.905673
  42
-0.368969
  0
VERTEX
  8
0
  10
350.875997
  20
79.107567
  42
0.446673
  0
VERTEX
  8
0
  10
350.800843
  20
70.685322
  0
SEQEND
  0
POLYLINE
  8
0
  66
1
  70
1
  0
VERTEX
  8
0
  10
343.031377
  20
55.470734
  42
-0.047518
  0
VERTEX
  8
0
  10
341.653787
  20
58.165241
  42
-0.051671
  0
VERTEX
  8
0
  10
340.899359
  20
60.845261
  0
VERTEX
  8
0
  10
340.362561
  20
60.846798
  42
-0.265765
  0
VERTEX
  8
0
  10
339.012998
  20
57.898051
  42
-0.106393
  0
VERTEX
  8
0
  10
340.426304
  20
57.411738
  42
-0.048515
  0
VERTEX
  8
0
  10
343.031377
  20
55.470734
  0
SEQEND
  0
POLYLINE
  8
0
  66
1
  70
1
  0
VERTEX
  8
0
  10
351.352443
  20
55.446905
  42
-0.560551
  0
VERTEX
  8
0
  10
355.430495
  20
59.475044
  42
-0.370872
  0
VERTEX
  8
0
  10
356.487012
  20
67.511251
  42
-0.323636
  0
VERTEX
  8
0
  10
348.977392
  20
69.680165
  42
-0.433809
  0
VERTEX
  8
0
  10
346.816260
  20
61.370618
  42
0.082102
  0
VERTEX
  8
0
  10
346.402712
  20
65.360365
  42
0.144231
  0
VERTEX
  8
0
  10
345.185487
  20
67.329731
  42
-0.086221
  0
VERTEX
  8
0
  10
342.622326
  20
69.698253
  42
-0.060960
  0
VERTEX
  8
0
  10
340.131651
  20
73.938845
  42
0.050595
  0
VERTEX
  8
0
  10
342.964777
  20
61.000986
  42
0.089983
  0
VERTEX
  8
0
  10
346.529513
  20
54.415851
  42
0.111453
  0
VERTEX
  8
0
  10
350.631262
  20
51.145067
  42
0.183677
  0
VERTEX
  8
0
  10
353.869066
  20
50.859835
  42
0.232489
  0
VERTEX
  8
0
  10
355.549349
  20
52.346796
  42
0.221996
  0
VERTEX
  8
0
  10
355.438493
  20
54.683335
  42
0.484127
  0
VERTEX
  8
0
  10
351.352443
  20
55.446905
  0
SEQEND
  0
POLYLINE
  8
0
  66
1
  70
1
  0
VERTEX
  8
0
  10
358.341923
  20
57.835161
  42
-0.526620
  0
VERTEX
  8
0
  10
357.006470
  20
49.809365
  42
0.244718
  0
VERTEX
  8
0
  10
365.233752
  20
51.837101
  42
0.246763
  0
VERTEX
  8
0
  10
368.238372
  20
59.693367
  42
0.123098
  0
VERTEX
  8
0
  10
366.837959
  20
63.058548
  42
0.124633
  0
VERTEX
  8
0
  10
364.045557
  20
65.332848
  42
0.280237
  0
VERTEX
  8
0
  10
357.309740
  20
64.582096
  0
VERTEX
  8
0
  10
357.295995
  20
64.568430
  42
-0.416845
  0
VERTEX
  8
0
  10
361.227338
  20
61.681193
  42
-0.417527
  0
VERTEX
  8
0
  10
358.341923
  20
57.835161
  0
SEQEND
  0
POLYLINE
  8
0
  66
1
  70
1
  0
VERTEX
  8
0
  10
372.539208
  20
48.944107
  0
VERTEX
  8
0
  10
372.539752
  20
50.321411
  42
-0.158305
  0
VERTEX
  8
0
  10
366.100209
  20
50.036250
  42
-0.127948
  0
VERTEX
  8
0
  10
364.218242
  20
48.967935
  42
0.257678
  0
VERTEX
  8
0
  10
372.539208
  20
48.944107
  0
SEQEND
  0
POLYLINE
  8
0
  66
1
  70
1
  0
VERTEX
  8
0
  10
344.365784
  20
52.782602
  42
-0.058107
  0
VERTEX
  8
0
  10
344.150457
  20
51.176126
  42
-0.172591
  0
VERTEX
  8
0
  10
343.838328
  20
50.711104
  42
-0.261504
  0
VERTEX
  8
0
  10
343.362620
  20
50.650707
  42
-0.099888
  0
VERTEX
  8
0
  10
342.372802
  20
51.305425
  0
VERTEX
  8
0
  10
339.238845
  20
54.137989
  42
0.058005
  0
VERTEX
  8
0
  10
339.485754
  20
50.704871
  42
0.058933
  0
VERTEX
  8
0
  10
340.504502
  20
47.473524
  42
0.120696
  0
VERTEX
  8
0
  10
340.719786
  20
47.231622
  42
0.143474
  0
VERTEX
  8
0
  10
340.980051
  20
47.145858
  42
0.319596
  0
VERTEX
  8
0
  10
341.397824
  20
47.422779
  42
-0.328158
  0
VERTEX
  8
0
  10
347.076476
  20
47.956719
  42
-0.030236
  0
VERTEX
  8
0
  10
344.995694
  20
51.187114
  42
-0.067984
  0
VERTEX
  8
0
  10
344.365784
  20
52.782602
  0
SEQEND
  0
POLYLINE
  8
0
  66
1
  70
1
  0
VERTEX
  8
0
  10
370.905872
  20
36.292532
  42
0.400555
  0
VERTEX
  8
0
  10
378.980513
  20
48.657160
  42
-0.419822
  0
VERTEX
  8
0
  10
373.897825
  20
47.866412
  42
-0.229949
  0
VERTEX
  8
0
  10
366.357077
  20
46.008998
  0
VERTEX
  8
0
  10
366.355540
  20
45.472201
  42
-0.303470
  0
VERTEX
  8
0
  10
370.905872
  20
36.292532
  0
SEQEND
  0
POLYLINE
  8
0
  66
1
  70
1
  0
VERTEX
  8
0
  10
341.927703
  20
45.005451
  0
VERTEX
  8
0
  10
341.919248
  20
42.052664
  42
0.430156
  0
VERTEX
  8
0
  10
345.404810
  20
41.867305
  42
0.436987
  0
VERTEX
  8
0
  10
345.361257
  20
45.314461
  42
0.436987
  0
VERTEX
  8
0
  10
341.927703
  20
45.005451
  0
SEQEND
  0
POLYLINE
  8
0
  66
1
  70
1
  0
VERTEX
  8
0
  10
347.581490
  20
50.894385
  42
0.070467
  0
VERTEX
  8
0
  10
352.971259
  20
43.179555
  42
0.078646
  0
VERTEX
  8
0
  10
359.623561
  20
37.981136
  42
-0.082386
  0
VERTEX
  8
0
  10
358.749343
  20
40.131284
  42
-0.151999
  0
VERTEX
  8
0
  10
358.851407
  20
41.405648
  42
-0.138702
  0
VERTEX
  8
0
  10
359.076629
  20
41.619177
  42
-0.233966
  0
VERTEX
  8
0
  10
359.266973
  20
41.623641
  42
-0.122517
  0
VERTEX
  8
0
  10
359.448779
  20
41.476610
  42
-0.049434
  0
VERTEX
  8
0
  10
359.747020
  20
40.988141
  42
0.235585
  0
VERTEX
  8
0
  10
360.754093
  20
40.205130
  42
0.203416
  0
VERTEX
  8
0
  10
362.181729
  20
40.499302
  42
0.237424
  0
VERTEX
  8
0
  10
362.641972
  20
41.664505
  42
0.252246
  0
VERTEX
  8
0
  10
361.987124
  20
42.654878
  42
-0.059203
  0
VERTEX
  8
0
  10
360.402431
  20
43.782111
  42
-0.107177
  0
VERTEX
  8
0
  10
359.772682
  20
44.662919
  42
-0.149940
  0
VERTEX
  8
0
  10
359.662529
  20
45.664876
  42
-0.117158
  0
VERTEX
  8
0
  10
360.185709
  20
46.831974
  42
-0.086577
  0
VERTEX
  8
0
  10
354.026523
  20
47.694098
  42
-0.074684
  0
VERTEX
  8
0
  10
347.581490
  20
50.894385
  0
SEQEND
  0
POLYLINE
  8
0
  66
1
  70
1
  0
VERTEX
  8
0
  10
366.884652
  20
42.786574
  42
-0.356733
  0
VERTEX
  8
0
  10
362.570752
  20
36.088300
  42
0.163605
  0
VERTEX
  8
0
  10
369.034890
  20
35.533487
  0
VERTEX
  8
0
  10
369.034890
  20
35.533487
  42
0.258985
  0
VERTEX
  8
0
  10
366.884652
  20
42.786574
  0
SEQEND
  0
POLYLINE
  8
0
  66
1
  70
1
  0
VERTEX
  8
0
  10
355.592753
  20
37.453268
  42
-0.036975
  0
VERTEX
  8
0
  10
352.256695
  20
40.599599
  42
-0.044963
  0
VERTEX
  8
0
  10
349.970403
  20
43.601600
  42
-0.368789
  0
VERTEX
  8
0
  10
346.135323
  20
38.289982
  42
-0.370118
  0
VERTEX
  8
0
  10
340.306448
  20
41.251979
  42
0.182343
  0
VERTEX
  8
0
  10
338.945137
  20
34.545450
  42
-0.333657
  0
VERTEX
  8
0
  10
343.028239
  20
35.284394
  42
-0.337430
  0
VERTEX
  8
0
  10
344.841957
  20
31.575751
  0
VERTEX
  8
0
  10
345.378755
  20
31.574214
  42
0.141390
  0
VERTEX
  8
0
  10
347.003854
  20
36.669681
  42
0.230444
  0
VERTEX
  8
0
  10
353.477810
  20
33.711930
  42
-0.484112
  0
VERTEX
  8
0
  10
355.592753
  20
37.453268
  0
SEQEND
  0
POLYLINE
  8
0
  66
1
  70
1
  0
VERTEX
  8
0
  10
368.200611
  20
33.656368
  42
-0.152630
  0
VERTEX
  8
0
  10
358.827782
  20
35.792347
  42
-0.493094
  0
VERTEX
  8
0
  10
357.189307
  20
31.540392
  42
0.533936
  0
VERTEX
  8
0
  10
368.200611
  20
33.656368
  0
SEQEND
  0
POLYLINE
  8
0
  66
1
  70
1
  0
VERTEX
  8
0
  10
336.834173
  20
18.951726
  42
-0.175715
  0
VERTEX
  8
0
  10
336.222718
  20
19.211872
  42
-0.190301
  0
VERTEX
  8
0
  10
335.957484
  20
19.768667
  42
0.073573
  0
VERTEX
  8
0
  10
334.964799
  20
21.727548
  42
0.086119
  0
VERTEX
  8
0
  10
333.632423
  20
23.053705
  42
-0.261819
  0
VERTEX
  8
0
  10
325.323730
  20
33.243953
  42
-0.261934
  0
VERTEX
  8
0
  10
319.095615
  20
30.876700
  42
-0.286287
  0
VERTEX
  8
0
  10
310.102309
  20
27.682306
  42
-0.281757
  0
VERTEX
  8
0
  10
303.186842
  20
34.330281
  42
-0.252412
  0
VERTEX
  8
0
  10
292.417804
  20
42.153935
  42
-0.221322
  0
VERTEX
  8
0
  10
291.902702
  20
49.428449
  42
-0.217626
  0
VERTEX
  8
0
  10
297.181169
  20
54.622067
  42
-0.246618
  0
VERTEX
  8
0
  10
297.525812
  20
56.632535
  42
-0.237689
  0
VERTEX
  8
0
  10
299.423106
  20
57.550714
  42
0.260721
  0
VERTEX
  8
0
  10
301.121545
  20
52.992500
  42
0.264357
  0
VERTEX
  8
0
  10
305.843664
  20
52.098310
  42
-0.294693
  0
VERTEX
  8
0
  10
304.019687
  20
63.149810
  42
-0.307947
  0
VERTEX
  8
0
  10
313.344070
  20
69.039165
  42
-0.308338
  0
VERTEX
  8
0
  10
310.245045
  20
78.104123
  42
-0.319939
  0
VERTEX
  8
0
  10
317.574268
  20
84.060359
  42
-0.308978
  0
VERTEX
  8
0
  10
314.924700
  20
89.343442
  42
-0.326778
  0
VERTEX
  8
0
  10
318.937470
  20
93.507228
  42
0.003766
  0
VERTEX
  8
0
  10
319.742463
  20
93.488502
  42
0.003782
  0
VERTEX
  8
0
  10
320.544076
  20
93.481958
  0
VERTEX
  8
0
  10
355.184208
  20
93.503880
  42
-0.319226
  0
VERTEX
  8
0
  10
359.172778
  20
89.217180
  42
-0.308978
  0
VERTEX
  8
0
  10
356.492996
  20
83.949359
  42
-0.319939
  0
VERTEX
  8
0
  10
363.787985
  20
77.951244
  42
-0.308338
  0
VERTEX
  8
0
  10
360.637093
  20
68.904184
  42
-0.307947
  0
VERTEX
  8
0
  10
369.927594
  20
62.961522
  42
-0.294693
  0
VERTEX
  8
0
  10
368.040352
  20
51.920650
  42
0.264357
  0
VERTEX
  8
0
  10
372.767515
  20
52.787780
  42
0.260721
  0
VERTEX
  8
0
  10
374.492032
  20
57.336192
  42
-0.237689
  0
VERTEX
  8
0
  10
376.384036
  20
56.407162
  42
-0.246618
  0
VERTEX
  8
0
  10
376.717159
  20
54.394752
  42
-0.217626
  0
VERTEX
  8
0
  10
381.965794
  20
49.170988
  42
-0.221322
  0
VERTEX
  8
0
  10
381.409037
  20
41.899544
  42
-0.252412
  0
VERTEX
  8
0
  10
370.595367
  20
34.137696
  42
-0.281757
  0
VERTEX
  8
0
  10
363.641939
  20
27.529437
  42
-0.286287
  0
VERTEX
  8
0
  10
354.667076
  20
30.775285
  42
-0.261934
  0
VERTEX
  8
0
  10
348.452621
  20
33.178169
  42
-0.261819
  0
VERTEX
  8
0
  10
340.085702
  20
23.035675
  42
0.086119
  0
VERTEX
  8
0
  10
338.745753
  20
21.717171
  42
0.073573
  0
VERTEX
  8
0
  10
337.741865
  20
19.764007
  42
-0.194040
  0
VERTEX
  8
0
  10
337.470229
  20
19.212276
  42
-0.172274
  0
VERTEX
  8
0
  10
336.834173
  20
18.951726
  0
SEQEND
  0
POLYLINE
  8
0
  66
1
  70
1
  0
VERTEX
  8
0
  10
331.066068
  20
89.701914
  42
0.201276
  0
VERTEX
  8
0
  10
330.823594
  20
90.297595
  42
0.132915
  0
VERTEX
  8
0
  10
329.998242
  20
90.773123
  0
VERTEX
  8
0
  10
329.732628
  20
91.326814
  0
VERTEX
  8
0
  10
335.426275
  20
91.309552
  42
-0.059285
  0
VERTEX
  8
0
  10
334.328198
  20
88.326169
  42
-0.100549
  0
VERTEX
  8
0
  10
333.154289
  20
86.849092
  42
-0.134988
  0
VERTEX
  8
0
  10
331.532628
  20
86.104408
  42
-0.111286
  0
VERTEX
  8
0
  10
329.384312
  20
86.232440
  42
-0.222893
  0
VERTEX
  8
0
  10
328.193595
  20
87.259852
  42
-0.282743
  0
VERTEX
  8
0
  10
328.359996
  20
88.524487
  42
-0.516630
  0
VERTEX
  8
0
  10
330.797616
  20
88.352952
  0
VERTEX
  8
0
  10
331.066015
  20
88.352183
  0
VERTEX
  8
0
  10
331.066068
  20
89.701914
  0
SEQEND
  0
POLYLINE
  8
0
  66
1
  70
1
  0
VERTEX
  8
0
  10
327.048187
  20
91.316301
  0
VERTEX
  8
0
  10
327.046839
  20
90.845682
  42
0.327147
  0
VERTEX
  8
0
  10
324.753296
  20
88.814817
  42
0.315889
  0
VERTEX
  8
0
  10
325.959118
  20
85.950998
  0
VERTEX
  8
0
  10
320.053889
  20
85.949408
  42
-0.179173
  0
VERTEX
  8
0
  10
317.849603
  20
86.813513
  42
-0.213197
  0
VERTEX
  8
0
  10
317.023148
  20
88.651775
  42
-0.213469
  0
VERTEX
  8
0
  10
317.875066
  20
90.567162
  42
-0.191974
  0
VERTEX
  8
0
  10
320.044652
  20
91.364878
  0
VERTEX
  8
0
  10
327.048187
  20
91.316301
  0
SEQEND
  0
POLYLINE
  8
0
  66
1
  70
1
  0
VERTEX
  8
0
  10
318.111659
  20
77.358415
  42
0.054073
  0
VERTEX
  8
0
  10
316.904140
  20
78.038651
  42
0.098845
  0
VERTEX
  8
0
  10
316.157229
  20
78.196235
  42
0.148610
  0
VERTEX
  8
0
  10
315.483469
  20
77.999441
  42
0.126212
  0
VERTEX
  8
0
  10
314.929265
  20
77.393048
  42
-0.482794
  0
VERTEX
  8
0
  10
315.229994
  20
74.629269
  42
-0.282753
  0
VERTEX
  8
0
  10
313.954677
  20
74.332853
  42
-0.239483
  0
VERTEX
  8
0
  10
312.892465
  20
75.411041
  42
-0.106877
  0
VERTEX
  8
0
  10
312.921203
  20
78.596488
  42
-0.151037
  0
VERTEX
  8
0
  10
314.057382
  20
80.572723
  42
-0.118383
  0
VERTEX
  8
0
  10
316.153904
  20
81.755207
  42
-0.066053
  0
VERTEX
  8
0
  10
320.381360
  20
82.376675
  42
0.066372
  0
VERTEX
  8
0
  10
330.706045
  20
83.636275
  42
0.138099
  0
VERTEX
  8
0
  10
335.086249
  20
86.193362
  42
-0.345818
  0
VERTEX
  8
0
  10
327.265085
  20
73.331406
  0
VERTEX
  8
0
  10
327.276615
  20
77.357690
  42
0.212665
  0
VERTEX
  8
0
  10
325.999062
  20
80.319094
  42
0.188307
  0
VERTEX
  8
0
  10
322.637730
  20
81.631250
  42
0.397983
  0
VERTEX
  8
0
  10
318.111659
  20
77.358415
  0
SEQEND
  0
POLYLINE
  8
0
  66
1
  70
1
  0
VERTEX
  8
0
  10
323.021638
  20
70.864423
  42
-0.446561
  0
VERTEX
  8
0
  10
314.644725
  20
71.757040
  42
0.277461
  0
VERTEX
  8
0
  10
318.204953
  20
72.526660
  42
0.274166
  0
VERTEX
  8
0
  10
319.220104
  20
76.038555
  42
0.361419
  0
VERTEX
  8
0
  10
322.494785
  20
76.087877
  42
0.368969
  0
VERTEX
  8
0
  10
322.994722
  20
79.286960
  42
-0.446673
  0
VERTEX
  8
0
  10
323.021638
  20
70.864423
  0
SEQEND
  0
POLYLINE
  8
0
  66
1
  70
1
  0
VERTEX
  8
0
  10
337.218935
  20
81.087134
  42
0.040939
  0
VERTEX
  8
0
  10
338.090090
  20
70.785876
  42
0.058767
  0
VERTEX
  8
0
  10
340.108813
  20
63.859488
  42
0.550060
  0
VERTEX
  8
0
  10
333.467100
  20
63.689535
  42
0.038270
  0
VERTEX
  8
0
  10
335.333023
  20
70.645228
  42
0.026136
  0
VERTEX
  8
0
  10
336.733681
  20
81.088523
  0
VERTEX
  8
0
  10
337.218935
  20
81.087134
  0
SEQEND
  0
POLYLINE
  8
0
  66
1
  70
1
  0
VERTEX
  8
0
  10
330.703838
  20
55.605586
  42
0.047518
  0
VERTEX
  8
0
  10
332.096838
  20
58.292159
  42
0.051671
  0
VERTEX
  8
0
  10
332.866603
  20
60.967815
  0
VERTEX
  8
0
  10
333.403401
  20
60.966278
  42
0.265765
  0
VERTEX
  8
0
  10
334.736053
  20
58.009849
  42
0.106393
  0
VERTEX
  8
0
  10
333.319986
  20
57.531639
  42
0.048515
  0
VERTEX
  8
0
  10
330.703838
  20
55.605586
  0
SEQEND
  0
POLYLINE
  8
0
  66
1
  70
1
  0
VERTEX
  8
0
  10
322.382773
  20
55.629415
  42
0.560551
  0
VERTEX
  8
0
  10
318.327858
  20
59.680843
  42
0.370872
  0
VERTEX
  8
0
  10
317.317384
  20
67.722970
  42
0.323636
  0
VERTEX
  8
0
  10
324.839302
  20
69.848839
  42
0.433809
  0
VERTEX
  8
0
  10
326.952807
  20
61.527050
  42
-0.082102
  0
VERTEX
  8
0
  10
327.389200
  20
65.514364
  42
-0.144231
  0
VERTEX
  8
0
  10
328.617683
  20
67.476726
  42
0.086221
  0
VERTEX
  8
0
  10
331.194368
  20
69.830529
  42
0.060960
  0
VERTEX
  8
0
  10
333.709289
  20
74.056787
  42
-0.050595
  0
VERTEX
  8
0
  10
330.802111
  20
61.135366
  42
-0.089983
  0
VERTEX
  8
0
  10
327.199718
  20
54.570755
  42
-0.111453
  0
VERTEX
  8
0
  10
323.079304
  20
51.323517
  42
-0.183677
  0
VERTEX
  8
0
  10
319.839920
  20
51.056833
  42
-0.232489
  0
VERTEX
  8
0
  10
318.168180
  20
52.553394
  42
-0.221996
  0
VERTEX
  8
0
  10
318.292416
  20
54.889259
  42
-0.484127
  0
VERTEX
  8
0
  10
322.382773
  20
55.629415
  0
SEQEND
  0
POLYLINE
  8
0
  66
1
  70
1
  0
VERTEX
  8
0
  10
315.407086
  20
58.057662
  42
0.526620
  0
VERTEX
  8
0
  10
316.696551
  20
50.024349
  42
-0.244718
  0
VERTEX
  8
0
  10
308.481016
  20
52.099172
  42
-0.246763
  0
VERTEX
  8
0
  10
305.521441
  20
59.972518
  42
-0.123098
  0
VERTEX
  8
0
  10
306.941104
  20
63.329623
  42
-0.124633
  0
VERTEX
  8
0
  10
309.746486
  20
65.587893
  42
-0.280237
  0
VERTEX
  8
0
  10
316.477893
  20
64.798575
  0
VERTEX
  8
0
  10
316.491559
  20
64.784830
  42
0.416845
  0
VERTEX
  8
0
  10
312.543745
  20
61.920157
  42
0.417527
  0
VERTEX
  8
0
  10
315.407086
  20
58.057662
  0
SEQEND
  0
POLYLINE
  8
0
  66
1
  70
1
  0
VERTEX
  8
0
  10
301.159112
  20
49.248066
  0
VERTEX
  8
0
  10
301.166456
  20
50.625351
  42
0.158305
  0
VERTEX
  8
0
  10
307.604260
  20
50.303314
  42
0.127948
  0
VERTEX
  8
0
  10
309.480077
  20
49.224238
  42
-0.257678
  0
VERTEX
  8
0
  10
301.159112
  20
49.248066
  0
SEQEND
  0
POLYLINE
  8
0
  66
1
  70
1
  0
VERTEX
  8
0
  10
329.354057
  20
52.925141
  42
0.058107
  0
VERTEX
  8
0
  10
329.560180
  20
51.317458
  42
0.172591
  0
VERTEX
  8
0
  10
329.869641
  20
50.850656
  42
0.261504
  0
VERTEX
  8
0
  10
330.344995
  20
50.787536
  42
0.099888
  0
VERTEX
  8
0
  10
331.338546
  20
51.436573
  0
VERTEX
  8
0
  10
334.488675
  20
54.251142
  42
-0.058005
  0
VERTEX
  8
0
  10
334.222108
  20
50.819495
  42
-0.058933
  0
VERTEX
  8
0
  10
333.184870
  20
47.594035
  42
-0.120696
  0
VERTEX
  8
0
  10
332.968203
  20
47.353370
  42
-0.143474
  0
VERTEX
  8
0
  10
332.707452
  20
47.269098
  42
-0.319596
  0
VERTEX
  8
0
  10
332.291272
  20
47.548407
  42
0.328158
  0
VERTEX
  8
0
  10
326.615771
  20
48.114862
  42
0.030236
  0
VERTEX
  8
0
  10
328.715020
  20
51.333287
  42
0.067984
  0
VERTEX
  8
0
  10
329.354057
  20
52.925141
  0
SEQEND
  0
POLYLINE
  8
0
  66
1
  70
1
  0
VERTEX
  8
0
  10
302.719962
  20
36.587344
  42
-0.400555
  0
VERTEX
  8
0
  10
294.716269
  20
48.998015
  42
0.419822
  0
VERTEX
  8
0
  10
299.794344
  20
48.178170
  42
0.229949
  0
VERTEX
  8
0
  10
307.324330
  20
46.277599
  0
VERTEX
  8
0
  10
307.322793
  20
45.740801
  42
0.303470
  0
VERTEX
  8
0
  10
302.719962
  20
36.587344
  0
SEQEND
  0
POLYLINE
  8
0
  66
1
  70
1
  0
VERTEX
  8
0
  10
331.747556
  20
45.134154
  0
VERTEX
  8
0
  10
331.739100
  20
42.181367
  42
-0.430156
  0
VERTEX
  8
0
  10
328.252534
  20
42.015974
  42
-0.436987
  0
VERTEX
  8
0
  10
328.315828
  20
45.462824
  42
-0.436987
  0
VERTEX
  8
0
  10
331.747556
  20
45.134154
  0
SEQEND
  0
POLYLINE
  8
0
  66
1
  70
1
  0
VERTEX
  8
0
  10
326.127589
  20
51.055372
  42
-0.070467
  0
VERTEX
  8
0
  10
320.693725
  20
43.371538
  42
-0.078646
  0
VERTEX
  8
0
  10
314.011759
  20
38.211304
  42
0.082386
  0
VERTEX
  8
0
  10
314.898277
  20
40.356409
  42
0.151999
  0
VERTEX
  8
0
  10
314.803513
  20
41.631337
  42
0.138702
  0
VERTEX
  8
0
  10
314.579518
  20
41.846152
  42
0.233966
  0
VERTEX
  8
0
  10
314.389203
  20
41.851706
  42
0.122517
  0
VERTEX
  8
0
  10
314.206557
  20
41.705719
  42
0.049434
  0
VERTEX
  8
0
  10
313.905523
  20
41.218967
  42
-0.235585
  0
VERTEX
  8
0
  10
312.893983
  20
40.441736
  42
-0.203416
  0
VERTEX
  8
0
  10
311.468055
  20
40.744079
  42
-0.237424
  0
VERTEX
  8
0
  10
311.014492
  20
41.911899
  42
-0.252246
  0
VERTEX
  8
0
  10
311.675003
  20
42.898505
  42
0.059203
  0
VERTEX
  8
0
  10
313.266125
  20
44.016644
  42
0.107177
  0
VERTEX
  8
0
  10
313.900909
  20
44.893831
  42
0.149940
  0
VERTEX
  8
0
  10
314.016798
  20
45.895140
  42
0.117158
  0
VERTEX
  8
0
  10
313.500311
  20
47.065216
  42
0.086577
  0
VERTEX
  8
0
  10
319.664333
  20
47.892051
  42
0.074684
  0
VERTEX
  8
0
  10
326.127589
  20
51.055372
  0
SEQEND
  0
POLYLINE
  8
0
  66
1
  70
1
  0
VERTEX
  8
0
  10
306.778309
  20
43.058249
  42
0.356733
  0
VERTEX
  8
0
  10
311.053775
  20
36.335378
  42
-0.163605
  0
VERTEX
  8
0
  10
304.586565
  20
35.817596
  0
VERTEX
  8
0
  10
304.586565
  20
35.817596
  42
-0.258985
  0
VERTEX
  8
0
  10
306.778309
  20
43.058249
  0
SEQEND
  0
POLYLINE
  8
0
  66
1
  70
1
  0
VERTEX
  8
0
  10
318.039477
  20
37.660358
  42
0.036975
  0
VERTEX
  8
0
  10
321.393500
  20
40.787531
  42
0.044963
  0
VERTEX
  8
0
  10
323.696949
  20
43.776388
  42
0.368789
  0
VERTEX
  8
0
  10
327.501544
  20
38.442894
  42
0.370118
  0
VERTEX
  8
0
  10
333.347288
  20
41.371458
  42
-0.182343
  0
VERTEX
  8
0
  10
334.670166
  20
34.657242
  42
0.333657
  0
VERTEX
  8
0
  10
330.591363
  20
35.419560
  42
0.337430
  0
VERTEX
  8
0
  10
328.756434
  20
31.721365
  0
VERTEX
  8
0
  10
328.219637
  20
31.722902
  42
-0.141390
  0
VERTEX
  8
0
  10
326.623748
  20
36.827593
  42
-0.230444
  0
VERTEX
  8
0
  10
320.132958
  20
33.906969
  42
0.484112
  0
VERTEX
  8
0
  10
318.039477
  20
37.660358
  0
SEQEND
  0
POLYLINE
  8
0
  66
1
  70
1
  0
VERTEX
  8
0
  10
305.410080
  20
33.935730
  42
0.152630
  0
VERTEX
  8
0
  10
314.794989
  20
36.017992
  42
0.493094
  0
VERTEX
  8
0
  10
316.409085
  20
31.756724
  42
-0.533936
  0
VERTEX
  8
0
  10
305.410080
  20
33.935730
  0
SEQEND
  0
POLYLINE
  8
0
  66
1
  70
1
  0
VERTEX
  8
0
  10
338.424945
  20
54.319805
  0
VERTEX
  8
0
  10
335.424947
  20
54.315832
  0
VERTEX
  8
0
  10
335.430246
  20
50.315835
  0
VERTEX
  8
0
  10
338.430243
  20
50.319809
  0
VERTEX
  8
0
  10
338.424945
  20
54.319805
  0
SEQEND
  0
POLYLINE
  8
0
  66
1
  70
1
  0
VERTEX
  8
0
  10
251.255593
  20
243.324982
  42
-0.026765
  0
VERTEX
  8
0
  10
251.253202
  20
243.278231
  42
-0.007794
  0
VERTEX
  8
0
  10
251.233939
  20
243.118736
  0
VERTEX
  8
0
  10
251.224967
  20
243.032867
  42
-0.106648
  0
VERTEX
  8
0
  10
250.845314
  20
242.144201
  42
-0.055244
  0
VERTEX
  8
0
  10
249.616150
  20
240.761316
  0
VERTEX
  8
0
  10
248.238365
  20
239.682987
  0
VERTEX
  8
0
  10
246.855308
  20
240.754646
  42
-0.055249
  0
VERTEX
  8
0
  10
245.619436
  20
242.131573
  42
-0.106667
  0
VERTEX
  8
0
  10
245.235551
  20
243.018335
  0
VERTEX
  8
0
  10
245.226162
  20
243.104160
  42
-0.008349
  0
VERTEX
  8
0
  10
245.206038
  20
243.261405
  42
-0.027047
  0
VERTEX
  8
0
  10
245.203272
  20
243.310297
  0
VERTEX
  8
0
  10
245.204123
  20
243.316392
  0
VERTEX
  8
0
  10
245.203240
  20
243.323749
  42
-0.414191
  0
VERTEX
  8
0
  10
246.712732
  20
244.829640
  42
-0.305182
  0
VERTEX
  8
0
  10
248.226009
  20
243.831146
  42
-0.305087
  0
VERTEX
  8
0
  10
249.739014
  20
244.836982
  42
-0.414191
  0
VERTEX
  8
0
  10
251.255795
  20
243.338434
  0
VERTEX
  8
0
  10
251.255182
  20
243.331551
  0
VERTEX
  8
0
  10
251.255593
  20
243.324982
  0
SEQEND
  0
POLYLINE
  8
0
  66
1
  70
1
  0
VERTEX
  8
0
  10
255.479269
  20
256.000526
  42
-0.414209
  0
VERTEX
  8
0
  10
251.946206
  20
252.496629
  42
-0.147534
  0
VERTEX
  8
0
  10
249.802717
  20
253.148855
  42
-0.151132
  0
VERTEX
  8
0
  10
248.421794
  20
254.847933
  42
-0.150974
  0
VERTEX
  8
0
  10
247.035273
  20
253.154642
  42
-0.147920
  0
VERTEX
  8
0
  10
244.897552
  20
252.513731
  42
-0.414209
  0
VERTEX
  8
0
  10
241.381534
  20
256.034731
  0
VERTEX
  8
0
  10
241.383353
  20
256.052044
  0
VERTEX
  8
0
  10
241.381610
  20
256.066141
  42
-0.026838
  0
VERTEX
  8
0
  10
241.388104
  20
256.181796
  42
-0.008412
  0
VERTEX
  8
0
  10
241.434731
  20
256.548201
  0
VERTEX
  8
0
  10
241.456973
  20
256.748716
  42
-0.106385
  0
VERTEX
  8
0
  10
242.352089
  20
258.823563
  42
-0.055229
  0
VERTEX
  8
0
  10
245.229821
  20
262.041742
  42
-0.012385
  0
VERTEX
  8
0
  10
246.286963
  20
262.943194
  42
-0.011588
  0
VERTEX
  8
0
  10
247.461754
  20
263.851440
  0
VERTEX
  8
0
  10
248.451203
  20
264.547328
  0
VERTEX
  8
0
  10
249.437267
  20
263.846612
  42
-0.011587
  0
VERTEX
  8
0
  10
250.607643
  20
262.932636
  42
-0.012384
  0
VERTEX
  8
0
  10
251.660408
  20
262.026028
  42
-0.055224
  0
VERTEX
  8
0
  10
254.522552
  20
258.793821
  42
-0.106378
  0
VERTEX
  8
0
  10
255.407634
  20
256.714644
  0
VERTEX
  8
0
  10
255.428563
  20
256.514025
  42
-0.008049
  0
VERTEX
  8
0
  10
255.473608
  20
256.143560
  42
-0.026838
  0
VERTEX
  8
0
  10
255.479344
  20
256.031712
  0
VERTEX
  8
0
  10
255.477530
  20
256.016741
  0
VERTEX
  8
0
  10
255.479269
  20
256.000526
  0
SEQEND
  0
POLYLINE
  8
0
  66
1
  70
1
  0
VERTEX
  8
0
  10
254.327560
  20
197.072267
  42
0.201276
  0
VERTEX
  8
0
  10
254.573442
  20
196.477984
  42
0.132915
  0
VERTEX
  8
0
  10
255.401504
  20
196.007191
  0
VERTEX
  8
0
  10
255.670285
  20
195.455030
  0
VERTEX
  8
0
  10
249.976632
  20
195.439683
  42
-0.059285
  0
VERTEX
  8
0
  10
251.057605
  20
198.429306
  42
-0.100549
  0
VERTEX
  8
0
  10
252.223034
  20
199.913082
  42
-0.134988
  0
VERTEX
  8
0
  10
253.840404
  20
200.667041
  42
-0.111286
  0
VERTEX
  8
0
  10
255.989418
  20
200.551316
  42
-0.222893
  0
VERTEX
  8
0
  10
257.186000
  20
199.530740
  42
-0.282743
  0
VERTEX
  8
0
  10
257.026844
  20
198.265172
  42
-0.516630
  0
VERTEX
  8
0
  10
254.588282
  20
198.422744
  0
VERTEX
  8
0
  10
254.319883
  20
198.421975
  0
VERTEX
  8
0
  10
254.327560
  20
197.072267
  0
SEQEND
  0
POLYLINE
  8
0
  66
1
  70
1
  0
VERTEX
  8
0
  10
258.354622
  20
195.480917
  0
VERTEX
  8
0
  10
258.353274
  20
195.951537
  42
0.327147
  0
VERTEX
  8
0
  10
260.635148
  20
197.995504
  42
0.315889
  0
VERTEX
  8
0
  10
259.412944
  20
200.852370
  0
VERTEX
  8
0
  10
265.318067
  20
200.887780
  42
-0.179173
  0
VERTEX
  8
0
  10
267.527266
  20
200.036314
  42
-0.213197
  0
VERTEX
  8
0
  10
268.364236
  20
198.202816
  42
-0.213469
  0
VERTEX
  8
0
  10
267.523302
  20
196.282581
  42
-0.191974
  0
VERTEX
  8
0
  10
265.358320
  20
195.472452
  0
VERTEX
  8
0
  10
258.354622
  20
195.480917
  0
SEQEND
  0
POLYLINE
  8
0
  66
1
  70
1
  0
VERTEX
  8
0
  10
267.211062
  20
209.489757
  42
0.054073
  0
VERTEX
  8
0
  10
268.422458
  20
208.816448
  42
0.098845
  0
VERTEX
  8
0
  10
269.170258
  20
208.663144
  42
0.148610
  0
VERTEX
  8
0
  10
269.842880
  20
208.863793
  42
0.126212
  0
VERTEX
  8
0
  10
270.393602
  20
209.473350
  42
-0.482794
  0
VERTEX
  8
0
  10
270.077050
  20
212.235362
  42
-0.282753
  0
VERTEX
  8
0
  10
271.350648
  20
212.539077
  42
-0.239483
  0
VERTEX
  8
0
  10
272.419017
  20
211.466991
  42
-0.106877
  0
VERTEX
  8
0
  10
272.408524
  20
208.281431
  42
-0.151037
  0
VERTEX
  8
0
  10
271.283682
  20
206.298721
  42
-0.118383
  0
VERTEX
  8
0
  10
269.193966
  20
205.104249
  42
-0.066053
  0
VERTEX
  8
0
  10
264.970140
  20
204.458580
  42
0.066372
  0
VERTEX
  8
0
  10
254.652838
  20
203.139868
  42
0.138099
  0
VERTEX
  8
0
  10
250.287351
  20
200.557736
  42
-0.345818
  0
VERTEX
  8
0
  10
258.034723
  20
213.464275
  0
VERTEX
  8
0
  10
258.046253
  20
209.437991
  42
0.212665
  0
VERTEX
  8
0
  10
259.340745
  20
206.483952
  42
0.188307
  0
VERTEX
  8
0
  10
262.709537
  20
205.191069
  42
0.397983
  0
VERTEX
  8
0
  10
267.211062
  20
209.489757
  0
SEQEND
  0
POLYLINE
  8
0
  66
1
  70
1
  0
VERTEX
  8
0
  10
262.263971
  20
215.955522
  42
-0.446561
  0
VERTEX
  8
0
  10
270.645859
  20
215.110896
  42
0.277461
  0
VERTEX
  8
0
  10
267.090097
  20
214.320897
  42
0.274166
  0
VERTEX
  8
0
  10
266.095076
  20
210.803246
  42
0.361419
  0
VERTEX
  8
0
  10
262.820731
  20
210.735170
  42
0.368969
  0
VERTEX
  8
0
  10
262.339125
  20
207.533277
  42
-0.446673
  0
VERTEX
  8
0
  10
262.263971
  20
215.955522
  0
SEQEND
  0
POLYLINE
  8
0
  66
1
  70
1
  0
VERTEX
  8
0
  10
254.494505
  20
231.170110
  42
0.047518
  0
VERTEX
  8
0
  10
253.116915
  20
228.475602
  42
0.051671
  0
VERTEX
  8
0
  10
252.362487
  20
225.795582
  0
VERTEX
  8
0
  10
251.825689
  20
225.794045
  42
0.265765
  0
VERTEX
  8
0
  10
250.476126
  20
228.742792
  42
0.106393
  0
VERTEX
  8
0
  10
251.889432
  20
229.229105
  42
0.048515
  0
VERTEX
  8
0
  10
254.494505
  20
231.170110
  0
SEQEND
  0
POLYLINE
  8
0
  66
1
  70
1
  0
VERTEX
  8
0
  10
262.815571
  20
231.193938
  42
0.560551
  0
VERTEX
  8
0
  10
266.893623
  20
227.165800
  42
0.370872
  0
VERTEX
  8
0
  10
267.950140
  20
219.129592
  42
0.323636
  0
VERTEX
  8
0
  10
260.440520
  20
216.960679
  42
0.433809
  0
VERTEX
  8
0
  10
258.279388
  20
225.270226
  42
-0.082102
  0
VERTEX
  8
0
  10
257.865840
  20
221.280478
  42
-0.144231
  0
VERTEX
  8
0
  10
256.648615
  20
219.311112
  42
0.086221
  0
VERTEX
  8
0
  10
254.085454
  20
216.942590
  42
0.060960
  0
VERTEX
  8
0
  10
251.594779
  20
212.701998
  42
-0.050595
  0
VERTEX
  8
0
  10
254.427904
  20
225.639857
  42
-0.089983
  0
VERTEX
  8
0
  10
257.992641
  20
232.224993
  42
-0.111453
  0
VERTEX
  8
0
  10
262.094390
  20
235.495776
  42
-0.183677
  0
VERTEX
  8
0
  10
265.332194
  20
235.781008
  42
-0.232489
  0
VERTEX
  8
0
  10
267.012477
  20
234.294047
  42
-0.221996
  0
VERTEX
  8
0
  10
266.901621
  20
231.957508
  42
-0.484127
  0
VERTEX
  8
0
  10
262.815571
  20
231.193938
  0
SEQEND
  0
POLYLINE
  8
0
  66
1
  70
1
  0
VERTEX
  8
0
  10
269.805051
  20
228.805683
  42
0.526620
  0
VERTEX
  8
0
  10
268.469598
  20
236.831479
  42
-0.244718
  0
VERTEX
  8
0
  10
276.696880
  20
234.803742
  42
-0.246763
  0
VERTEX
  8
0
  10
279.701500
  20
226.947476
  42
-0.123098
  0
VERTEX
  8
0
  10
278.301087
  20
223.582295
  42
-0.124633
  0
VERTEX
  8
0
  10
275.508685
  20
221.307995
  42
-0.280237
  0
VERTEX
  8
0
  10
268.772868
  20
222.058747
  0
VERTEX
  8
0
  10
268.759123
  20
222.072414
  42
0.416845
  0
VERTEX
  8
0
  10
272.690466
  20
224.959650
  42
0.417527
  0
VERTEX
  8
0
  10
269.805051
  20
228.805683
  0
SEQEND
  0
POLYLINE
  8
0
  66
1
  70
1
  0
VERTEX
  8
0
  10
284.002336
  20
237.696736
  0
VERTEX
  8
0
  10
284.002880
  20
236.319432
  42
0.158305
  0
VERTEX
  8
0
  10
277.563337
  20
236.604593
  42
0.127948
  0
VERTEX
  8
0
  10
275.681370
  20
237.672908
  42
-0.257678
  0
VERTEX
  8
0
  10
284.002336
  20
237.696736
  0
SEQEND
  0
POLYLINE
  8
0
  66
1
  70
1
  0
VERTEX
  8
0
  10
255.828912
  20
233.858242
  42
0.058107
  0
VERTEX
  8
0
  10
255.613585
  20
235.464717
  42
0.172591
  0
VERTEX
  8
0
  10
255.301456
  20
235.929740
  42
0.261504
  0
VERTEX
  8
0
  10
254.825748
  20
235.990136
  42
0.099888
  0
VERTEX
  8
0
  10
253.835930
  20
235.335419
  0
VERTEX
  8
0
  10
250.701973
  20
232.502854
  42
-0.058005
  0
VERTEX
  8
0
  10
250.948881
  20
235.935972
  42
-0.058933
  0
VERTEX
  8
0
  10
251.967630
  20
239.167319
  42
-0.120696
  0
VERTEX
  8
0
  10
252.182914
  20
239.409222
  42
-0.143474
  0
VERTEX
  8
0
  10
252.443179
  20
239.494986
  42
-0.319596
  0
VERTEX
  8
0
  10
252.860952
  20
239.218065
  42
0.328158
  0
VERTEX
  8
0
  10
258.539604
  20
238.684124
  42
0.030236
  0
VERTEX
  8
0
  10
256.458822
  20
235.453729
  42
0.067984
  0
VERTEX
  8
0
  10
255.828912
  20
233.858242
  0
SEQEND
  0
POLYLINE
  8
0
  66
1
  70
1
  0
VERTEX
  8
0
  10
282.368999
  20
250.348311
  42
-0.400555
  0
VERTEX
  8
0
  10
290.443641
  20
237.983683
  42
0.419822
  0
VERTEX
  8
0
  10
285.360953
  20
238.774431
  42
0.229949
  0
VERTEX
  8
0
  10
277.820205
  20
240.631845
  0
VERTEX
  8
0
  10
277.818668
  20
241.168643
  42
0.303470
  0
VERTEX
  8
0
  10
282.368999
  20
250.348311
  0
SEQEND
  0
POLYLINE
  8
0
  66
1
  70
1
  0
VERTEX
  8
0
  10
253.390831
  20
241.635392
  0
VERTEX
  8
0
  10
253.382376
  20
244.588180
  42
-0.430156
  0
VERTEX
  8
0
  10
256.867937
  20
244.773538
  42
-0.436987
  0
VERTEX
  8
0
  10
256.824385
  20
241.326382
  42
-0.436987
  0
VERTEX
  8
0
  10
253.390831
  20
241.635392
  0
SEQEND
  0
POLYLINE
  8
0
  66
1
  70
1
  0
VERTEX
  8
0
  10
259.044618
  20
235.746458
  42
-0.070467
  0
VERTEX
  8
0
  10
264.434387
  20
243.461288
  42
-0.078646
  0
VERTEX
  8
0
  10
271.086689
  20
248.659707
  42
0.082386
  0
VERTEX
  8
0
  10
270.212471
  20
246.509560
  42
0.151999
  0
VERTEX
  8
0
  10
270.314535
  20
245.235196
  42
0.138702
  0
VERTEX
  8
0
  10
270.539757
  20
245.021666
  42
0.233966
  0
VERTEX
  8
0
  10
270.730101
  20
245.017203
  42
0.122517
  0
VERTEX
  8
0
  10
270.911907
  20
245.164234
  42
0.049434
  0
VERTEX
  8
0
  10
271.210148
  20
245.652702
  42
-0.235585
  0
VERTEX
  8
0
  10
272.217220
  20
246.435713
  42
-0.203416
  0
VERTEX
  8
0
  10
273.644857
  20
246.141542
  42
-0.237424
  0
VERTEX
  8
0
  10
274.105100
  20
244.976339
  42
-0.252246
  0
VERTEX
  8
0
  10
273.450251
  20
243.985966
  42
0.059203
  0
VERTEX
  8
0
  10
271.865559
  20
242.858732
  42
0.107177
  0
VERTEX
  8
0
  10
271.235810
  20
241.977924
  42
0.149940
  0
VERTEX
  8
0
  10
271.125657
  20
240.975967
  42
0.117158
  0
VERTEX
  8
0
  10
271.648837
  20
239.808869
  42
0.086577
  0
VERTEX
  8
0
  10
265.489651
  20
238.946745
  42
0.074684
  0
VERTEX
  8
0
  10
259.044618
  20
235.746458
  0
SEQEND
  0
POLYLINE
  8
0
  66
1
  70
1
  0
VERTEX
  8
0
  10
278.347780
  20
243.854269
  42
0.356733
  0
VERTEX
  8
0
  10
274.033880
  20
250.552543
  42
-0.163605
  0
VERTEX
  8
0
  10
280.498018
  20
251.107356
  0
VERTEX
  8
0
  10
280.498018
  20
251.107356
  42
-0.258985
  0
VERTEX
  8
0
  10
278.347780
  20
243.854269
  0
SEQEND
  0
POLYLINE
  8
0
  66
1
  70
1
  0
VERTEX
  8
0
  10
267.055881
  20
249.187575
  42
0.036975
  0
VERTEX
  8
0
  10
263.719823
  20
246.041244
  42
0.044963
  0
VERTEX
  8
0
  10
261.433530
  20
243.039244
  42
0.368789
  0
VERTEX
  8
0
  10
257.598451
  20
248.350861
  42
0.370118
  0
VERTEX
  8
0
  10
251.769576
  20
245.388865
  42
-0.182343
  0
VERTEX
  8
0
  10
250.408265
  20
252.095394
  42
0.333657
  0
VERTEX
  8
0
  10
254.491367
  20
251.356449
  42
0.337430
  0
VERTEX
  8
0
  10
256.305085
  20
255.065092
  0
VERTEX
  8
0
  10
256.841883
  20
255.066630
  42
-0.141390
  0
VERTEX
  8
0
  10
258.466981
  20
249.971162
  42
-0.230444
  0
VERTEX
  8
0
  10
264.940938
  20
252.928914
  42
0.484112
  0
VERTEX
  8
0
  10
267.055881
  20
249.187575
  0
SEQEND
  0
POLYLINE
  8
0
  66
1
  70
1
  0
VERTEX
  8
0
  10
279.663739
  20
252.984475
  42
0.152630
  0
VERTEX
  8
0
  10
270.290910
  20
250.848497
  42
0.493094
  0
VERTEX
  8
0
  10
268.652435
  20
255.100451
  42
-0.533936
  0
VERTEX
  8
0
  10
279.663739
  20
252.984475
  0
SEQEND
  0
POLYLINE
  8
0
  66
1
  70
1
  0
VERTEX
  8
0
  10
248.297301
  20
267.689118
  42
0.175715
  0
VERTEX
  8
0
  10
247.685846
  20
267.428971
  42
0.190301
  0
VERTEX
  8
0
  10
247.420612
  20
266.872176
  42
-0.073573
  0
VERTEX
  8
0
  10
246.427927
  20
264.913295
  42
-0.086119
  0
VERTEX
  8
0
  10
245.095551
  20
263.587138
  42
0.261819
  0
VERTEX
  8
0
  10
236.786858
  20
253.396891
  42
0.261934
  0
VERTEX
  8
0
  10
230.558742
  20
255.764143
  42
0.286287
  0
VERTEX
  8
0
  10
221.565437
  20
258.958537
  42
0.281757
  0
VERTEX
  8
0
  10
214.649970
  20
252.310562
  42
0.252412
  0
VERTEX
  8
0
  10
203.880932
  20
244.486909
  42
0.221322
  0
VERTEX
  8
0
  10
203.365829
  20
237.212395
  42
0.217626
  0
VERTEX
  8
0
  10
208.644297
  20
232.018777
  42
0.246618
  0
VERTEX
  8
0
  10
208.988940
  20
230.008308
  42
0.237689
  0
VERTEX
  8
0
  10
210.886234
  20
229.090129
  42
-0.260721
  0
VERTEX
  8
0
  10
212.584673
  20
233.648344
  42
-0.264357
  0
VERTEX
  8
0
  10
217.306792
  20
234.542533
  42
0.294693
  0
VERTEX
  8
0
  10
215.482815
  20
223.491034
  42
0.307947
  0
VERTEX
  8
0
  10
224.807198
  20
217.601678
  42
0.308338
  0
VERTEX
  8
0
  10
221.708173
  20
208.536720
  42
0.319939
  0
VERTEX
  8
0
  10
229.037396
  20
202.580484
  42
0.308978
  0
VERTEX
  8
0
  10
226.387828
  20
197.297402
  42
0.326778
  0
VERTEX
  8
0
  10
230.400597
  20
193.133615
  42
-0.003766
  0
VERTEX
  8
0
  10
231.205590
  20
193.152341
  42
-0.003782
  0
VERTEX
  8
0
  10
232.007204
  20
193.158885
  0
VERTEX
  8
0
  10
266.647336
  20
193.136963
  42
0.319226
  0
VERTEX
  8
0
  10
270.635906
  20
197.423664
  42
0.308978
  0
VERTEX
  8
0
  10
267.956124
  20
202.691484
  42
0.319939
  0
VERTEX
  8
0
  10
275.251113
  20
208.689599
  42
0.308338
  0
VERTEX
  8
0
  10
272.100221
  20
217.736659
  42
0.307947
  0
VERTEX
  8
0
  10
281.390722
  20
223.679322
  42
0.294693
  0
VERTEX
  8
0
  10
279.503480
  20
234.720194
  42
-0.264357
  0
VERTEX
  8
0
  10
284.230642
  20
233.853064
  42
-0.260721
  0
VERTEX
  8
0
  10
285.955160
  20
229.304651
  42
0.237689
  0
VERTEX
  8
0
  10
287.847164
  20
230.233682
  42
0.246618
  0
VERTEX
  8
0
  10
288.180287
  20
232.246091
  42
0.217626
  0
VERTEX
  8
0
  10
293.428922
  20
237.469855
  42
0.221322
  0
VERTEX
  8
0
  10
292.872165
  20
244.741300
  42
0.252412
  0
VERTEX
  8
0
  10
282.058495
  20
252.503148
  42
0.281757
  0
VERTEX
  8
0
  10
275.105067
  20
259.111407
  42
0.286287
  0
VERTEX
  8
0
  10
266.130204
  20
255.865558
  42
0.261934
  0
VERTEX
  8
0
  10
259.915749
  20
253.462674
  42
0.261819
  0
VERTEX
  8
0
  10
251.548830
  20
263.605168
  42
-0.086119
  0
VERTEX
  8
0
  10
250.208881
  20
264.923672
  42
-0.073573
  0
VERTEX
  8
0
  10
249.204993
  20
266.876836
  42
0.194040
  0
VERTEX
  8
0
  10
248.933357
  20
267.428567
  42
0.172274
  0
VERTEX
  8
0
  10
248.297301
  20
267.689118
  0
SEQEND
  0
POLYLINE
  8
0
  66
1
  70
1
  0
VERTEX
  8
0
  10
242.529196
  20
196.938930
  42
-0.201276
  0
VERTEX
  8
0
  10
242.286722
  20
196.343248
  42
-0.132915
  0
VERTEX
  8
0
  10
241.461370
  20
195.867721
  0
VERTEX
  8
0
  10
241.195756
  20
195.314029
  0
VERTEX
  8
0
  10
246.889403
  20
195.331292
  42
0.059285
  0
VERTEX
  8
0
  10
245.791326
  20
198.314675
  42
0.100549
  0
VERTEX
  8
0
  10
244.617417
  20
199.791751
  42
0.134988
  0
VERTEX
  8
0
  10
242.995756
  20
200.536435
  42
0.111286
  0
VERTEX
  8
0
  10
240.847440
  20
200.408404
  42
0.222893
  0
VERTEX
  8
0
  10
239.656723
  20
199.380992
  42
0.282743
  0
VERTEX
  8
0
  10
239.823124
  20
198.116356
  42
0.516630
  0
VERTEX
  8
0
  10
242.260744
  20
198.287891
  0
VERTEX
  8
0
  10
242.529143
  20
198.288660
  0
VERTEX
  8
0
  10
242.529196
  20
196.938930
  0
SEQEND
  0
POLYLINE
  8
0
  66
1
  70
1
  0
VERTEX
  8
0
  10
238.511314
  20
195.324542
  0
VERTEX
  8
0
  10
238.509967
  20
195.795162
  42
-0.327147
  0
VERTEX
  8
0
  10
236.216424
  20
197.826026
  42
-0.315889
  0
VERTEX
  8
0
  10
237.422246
  20
200.689845
  0
VERTEX
  8
0
  10
231.517017
  20
200.691435
  42
0.179173
  0
VERTEX
  8
0
  10
229.312731
  20
199.827330
  42
0.213197
  0
VERTEX
  8
0
  10
228.486275
  20
197.989069
  42
0.213469
  0
VERTEX
  8
0
  10
229.338194
  20
196.073682
  42
0.191974
  0
VERTEX
  8
0
  10
231.507780
  20
195.275965
  0
VERTEX
  8
0
  10
238.511314
  20
195.324542
  0
SEQEND
  0
POLYLINE
  8
0
  66
1
  70
1
  0
VERTEX
  8
0
  10
229.574787
  20
209.282428
  42
-0.054073
  0
VERTEX
  8
0
  10
228.367268
  20
208.602193
  42
-0.098845
  0
VERTEX
  8
0
  10
227.620357
  20
208.444608
  42
-0.148610
  0
VERTEX
  8
0
  10
226.946597
  20
208.641402
  42
-0.126212
  0
VERTEX
  8
0
  10
226.392393
  20
209.247795
  42
0.482794
  0
VERTEX
  8
0
  10
226.693122
  20
212.011574
  42
0.282753
  0
VERTEX
  8
0
  10
225.417805
  20
212.307990
  42
0.239483
  0
VERTEX
  8
0
  10
224.355593
  20
211.229803
  42
0.106877
  0
VERTEX
  8
0
  10
224.384331
  20
208.044355
  42
0.151037
  0
VERTEX
  8
0
  10
225.520510
  20
206.068121
  42
0.118383
  0
VERTEX
  8
0
  10
227.617032
  20
204.885636
  42
0.066053
  0
VERTEX
  8
0
  10
231.844488
  20
204.264169
  42
-0.066372
  0
VERTEX
  8
0
  10
242.169173
  20
203.004569
  42
-0.138099
  0
VERTEX
  8
0
  10
246.549377
  20
200.447481
  42
0.345818
  0
VERTEX
  8
0
  10
238.728213
  20
213.309437
  0
VERTEX
  8
0
  10
238.739743
  20
209.283154
  42
-0.212665
  0
VERTEX
  8
0
  10
237.462190
  20
206.321749
  42
-0.188307
  0
VERTEX
  8
0
  10
234.100858
  20
205.009593
  42
-0.397983
  0
VERTEX
  8
0
  10
229.574787
  20
209.282428
  0
SEQEND
  0
POLYLINE
  8
0
  66
1
  70
1
  0
VERTEX
  8
0
  10
234.484766
  20
215.776421
  42
0.446561
  0
VERTEX
  8
0
  10
226.107853
  20
214.883803
  42
-0.277461
  0
VERTEX
  8
0
  10
229.668081
  20
214.114183
  42
-0.274166
  0
VERTEX
  8
0
  10
230.683232
  20
210.602288
  42
-0.361419
  0
VERTEX
  8
0
  10
233.957913
  20
210.552966
  42
-0.368969
  0
VERTEX
  8
0
  10
234.457850
  20
207.353884
  42
0.446673
  0
VERTEX
  8
0
  10
234.484766
  20
215.776421
  0
SEQEND
  0
POLYLINE
  8
0
  66
1
  70
1
  0
VERTEX
  8
0
  10
248.682063
  20
205.553710
  42
-0.040939
  0
VERTEX
  8
0
  10
249.553218
  20
215.854968
  42
-0.058767
  0
VERTEX
  8
0
  10
251.571941
  20
222.781356
  42
-0.550060
  0
VERTEX
  8
0
  10
244.930228
  20
222.951308
  42
-0.038270
  0
VERTEX
  8
0
  10
246.796150
  20
215.995615
  42
-0.026136
  0
VERTEX
  8
0
  10
248.196809
  20
205.552320
  0
VERTEX
  8
0
  10
248.682063
  20
205.553710
  0
SEQEND
  0
POLYLINE
  8
0
  66
1
  70
1
  0
VERTEX
  8
0
  10
242.166966
  20
231.035257
  42
-0.047518
  0
VERTEX
  8
0
  10
243.559966
  20
228.348684
  42
-0.051671
  0
VERTEX
  8
0
  10
244.329731
  20
225.673029
  0
VERTEX
  8
0
  10
244.866529
  20
225.674566
  42
-0.265765
  0
VERTEX
  8
0
  10
246.199181
  20
228.630994
  42
-0.106393
  0
VERTEX
  8
0
  10
244.783114
  20
229.109205
  42
-0.048515
  0
VERTEX
  8
0
  10
242.166966
  20
231.035257
  0
SEQEND
  0
POLYLINE
  8
0
  66
1
  70
1
  0
VERTEX
  8
0
  10
233.845901
  20
231.011428
  42
-0.560551
  0
VERTEX
  8
0
  10
229.790986
  20
226.960000
  42
-0.370872
  0
VERTEX
  8
0
  10
228.780511
  20
218.917873
  42
-0.323636
  0
VERTEX
  8
0
  10
236.302430
  20
216.792005
  42
-0.433809
  0
VERTEX
  8
0
  10
238.415935
  20
225.113793
  42
0.082102
  0
VERTEX
  8
0
  10
238.852328
  20
221.126479
  42
0.144231
  0
VERTEX
  8
0
  10
240.080811
  20
219.164117
  42
-0.086221
  0
VERTEX
  8
0
  10
242.657495
  20
216.810314
  42
-0.060960
  0
VERTEX
  8
0
  10
245.172417
  20
212.584056
  42
0.050595
  0
VERTEX
  8
0
  10
242.265239
  20
225.505477
  42
0.089983
  0
VERTEX
  8
0
  10
238.662846
  20
232.070088
  42
0.111453
  0
VERTEX
  8
0
  10
234.542432
  20
235.317326
  42
0.183677
  0
VERTEX
  8
0
  10
231.303047
  20
235.584010
  42
0.232489
  0
VERTEX
  8
0
  10
229.631308
  20
234.087450
  42
0.221996
  0
VERTEX
  8
0
  10
229.755544
  20
231.751584
  42
0.484127
  0
VERTEX
  8
0
  10
233.845901
  20
231.011428
  0
SEQEND
  0
POLYLINE
  8
0
  66
1
  70
1
  0
VERTEX
  8
0
  10
226.870214
  20
228.583181
  42
-0.526620
  0
VERTEX
  8
0
  10
228.159678
  20
236.616494
  42
0.244718
  0
VERTEX
  8
0
  10
219.944144
  20
234.541671
  42
0.246763
  0
VERTEX
  8
0
  10
216.984569
  20
226.668326
  42
0.123098
  0
VERTEX
  8
0
  10
218.404232
  20
223.311220
  42
0.124633
  0
VERTEX
  8
0
  10
221.209614
  20
221.052951
  42
0.280237
  0
VERTEX
  8
0
  10
227.941021
  20
221.842268
  0
VERTEX
  8
0
  10
227.954687
  20
221.856013
  42
-0.416845
  0
VERTEX
  8
0
  10
224.006873
  20
224.720686
  42
-0.417527
  0
VERTEX
  8
0
  10
226.870214
  20
228.583181
  0
SEQEND
  0
POLYLINE
  8
0
  66
1
  70
1
  0
VERTEX
  8
0
  10
212.622240
  20
237.392777
  0
VERTEX
  8
0
  10
212.629584
  20
236.015493
  42
-0.158305
  0
VERTEX
  8
0
  10
219.067388
  20
236.337530
  42
-0.127948
  0
VERTEX
  8
0
  10
220.943205
  20
237.416606
  42
0.257678
  0
VERTEX
  8
0
  10
212.622240
  20
237.392777
  0
SEQEND
  0
POLYLINE
  8
0
  66
1
  70
1
  0
VERTEX
  8
0
  10
240.817185
  20
233.715703
  42
-0.058107
  0
VERTEX
  8
0
  10
241.023308
  20
235.323385
  42
-0.172591
  0
VERTEX
  8
0
  10
241.332768
  20
235.790188
  42
-0.261504
  0
VERTEX
  8
0
  10
241.808123
  20
235.853307
  42
-0.099888
  0
VERTEX
  8
0
  10
242.801674
  20
235.204270
  0
VERTEX
  8
0
  10
245.951803
  20
232.389701
  42
0.058005
  0
VERTEX
  8
0
  10
245.685236
  20
235.821349
  42
0.058933
  0
VERTEX
  8
0
  10
244.647998
  20
239.046808
  42
0.120696
  0
VERTEX
  8
0
  10
244.431331
  20
239.287473
  42
0.143474
  0
VERTEX
  8
0
  10
244.170580
  20
239.371745
  42
0.319596
  0
VERTEX
  8
0
  10
243.754400
  20
239.092436
  42
-0.328158
  0
VERTEX
  8
0
  10
238.078899
  20
238.525981
  42
-0.030236
  0
VERTEX
  8
0
  10
240.178148
  20
235.307556
  42
-0.067984
  0
VERTEX
  8
0
  10
240.817185
  20
233.715703
  0
SEQEND
  0
POLYLINE
  8
0
  66
1
  70
1
  0
VERTEX
  8
0
  10
214.183090
  20
250.053499
  42
0.400555
  0
VERTEX
  8
0
  10
206.179397
  20
237.642828
  42
-0.419822
  0
VERTEX
  8
0
  10
211.257472
  20
238.462674
  42
-0.229949
  0
VERTEX
  8
0
  10
218.787458
  20
240.363245
  0
VERTEX
  8
0
  10
218.785921
  20
240.900042
  42
-0.303470
  0
VERTEX
  8
0
  10
214.183090
  20
250.053499
  0
SEQEND
  0
POLYLINE
  8
0
  66
1
  70
1
  0
VERTEX
  8
0
  10
243.210684
  20
241.506689
  0
VERTEX
  8
0
  10
243.202228
  20
244.459477
  42
0.430156
  0
VERTEX
  8
0
  10
239.715662
  20
244.624869
  42
0.436987
  0
VERTEX
  8
0
  10
239.778956
  20
241.178019
  42
0.436987
  0
VERTEX
  8
0
  10
243.210684
  20
241.506689
  0
SEQEND
  0
POLYLINE
  8
0
  66
1
  70
1
  0
VERTEX
  8
0
  10
237.590717
  20
235.585471
  42
0.070467
  0
VERTEX
  8
0
  10
232.156853
  20
243.269306
  42
0.078646
  0
VERTEX
  8
0
  10
225.474887
  20
248.429540
  42
-0.082386
  0
VERTEX
  8
0
  10
226.361405
  20
246.284435
  42
-0.151999
  0
VERTEX
  8
0
  10
226.266641
  20
245.009507
  42
-0.138702
  0
VERTEX
  8
0
  10
226.042646
  20
244.794691
  42
-0.233966
  0
VERTEX
  8
0
  10
225.852331
  20
244.789138
  42
-0.122517
  0
VERTEX
  8
0
  10
225.669685
  20
244.935125
  42
-0.049434
  0
VERTEX
  8
0
  10
225.368651
  20
245.421877
  42
0.235585
  0
VERTEX
  8
0
  10
224.357111
  20
246.199108
  42
0.203416
  0
VERTEX
  8
0
  10
222.931183
  20
245.896764
  42
0.237424
  0
VERTEX
  8
0
  10
222.477620
  20
244.728945
  42
0.252246
  0
VERTEX
  8
0
  10
223.138131
  20
243.742338
  42
-0.059203
  0
VERTEX
  8
0
  10
224.729253
  20
242.624199
  42
-0.107177
  0
VERTEX
  8
0
  10
225.364036
  20
241.747012
  42
-0.149940
  0
VERTEX
  8
0
  10
225.479926
  20
240.745703
  42
-0.117158
  0
VERTEX
  8
0
  10
224.963439
  20
239.575627
  42
-0.086577
  0
VERTEX
  8
0
  10
231.127461
  20
238.748793
  42
-0.074684
  0
VERTEX
  8
0
  10
237.590717
  20
235.585471
  0
SEQEND
  0
POLYLINE
  8
0
  66
1
  70
1
  0
VERTEX
  8
0
  10
218.241437
  20
243.582594
  42
-0.356733
  0
VERTEX
  8
0
  10
222.516903
  20
250.305465
  42
0.163605
  0
VERTEX
  8
0
  10
216.049693
  20
250.823247
  0
VERTEX
  8
0
  10
216.049693
  20
250.823247
  42
0.258985
  0
VERTEX
  8
0
  10
218.241437
  20
243.582594
  0
SEQEND
  0
POLYLINE
  8
0
  66
1
  70
1
  0
VERTEX
  8
0
  10
229.502605
  20
248.980485
  42
-0.036975
  0
VERTEX
  8
0
  10
232.856628
  20
245.853312
  42
-0.044963
  0
VERTEX
  8
0
  10
235.160077
  20
242.864455
  42
-0.368789
  0
VERTEX
  8
0
  10
238.964672
  20
248.197950
  42
-0.370118
  0
VERTEX
  8
0
  10
244.810416
  20
245.269385
  42
0.182343
  0
VERTEX
  8
0
  10
246.133294
  20
251.983601
  42
-0.333657
  0
VERTEX
  8
0
  10
242.054491
  20
251.221284
  42
-0.337430
  0
VERTEX
  8
0
  10
240.219562
  20
254.919478
  0
VERTEX
  8
0
  10
239.682765
  20
254.917941
  42
0.141390
  0
VERTEX
  8
0
  10
238.086876
  20
249.813250
  42
0.230444
  0
VERTEX
  8
0
  10
231.596086
  20
252.733875
  42
-0.484112
  0
VERTEX
  8
0
  10
229.502605
  20
248.980485
  0
SEQEND
  0
POLYLINE
  8
0
  66
1
  70
1
  0
VERTEX
  8
0
  10
216.873208
  20
252.705113
  42
-0.152630
  0
VERTEX
  8
0
  10
226.258117
  20
250.622851
  42
-0.493094
  0
VERTEX
  8
0
  10
227.872213
  20
254.884120
  42
0.533936
  0
VERTEX
  8
0
  10
216.873208
  20
252.705113
  0
SEQEND
  0
POLYLINE
  8
0
  66
1
  70
1
  0
VERTEX
  8
0
  10
249.888073
  20
232.321038
  0
VERTEX
  8
0
  10
246.888075
  20
232.325012
  0
VERTEX
  8
0
  10
246.893374
  20
236.325008
  0
VERTEX
  8
0
  10
249.893371
  20
236.321035
  0
VERTEX
  8
0
  10
249.888073
  20
232.321038
  0
SEQEND
  0
POLYLINE
  8
0
  66
1
  70
1
  0
VERTEX
  8
0
  10
329.256025
  20
209.880519
  42
0.026765
  0
VERTEX
  8
0
  10
329.253634
  20
209.927270
  42
0.007794
  0
VERTEX
  8
0
  10
329.234371
  20
210.086765
  0
VERTEX
  8
0
  10
329.225399
  20
210.172634
  42
0.106648
  0
VERTEX
  8
0
  10
328.845746
  20
211.061300
  42
0.055244
  0
VERTEX
  8
0
  10
327.616582
  20
212.444185
  0
VERTEX
  8
0
  10
326.238797
  20
213.522514
  0
VERTEX
  8
0
  10
324.855740
  20
212.450855
  42
0.055249
  0
VERTEX
  8
0
  10
323.619868
  20
211.073928
  42
0.106667
  0
VERTEX
  8
0
  10
323.235983
  20
210.187166
  0
VERTEX
  8
0
  10
323.226594
  20
210.101341
  42
0.008349
  0
VERTEX
  8
0
  10
323.206470
  20
209.944096
  42
0.027047
  0
VERTEX
  8
0
  10
323.203704
  20
209.895204
  0
VERTEX
  8
0
  10
323.204555
  20
209.889109
  0
VERTEX
  8
0
  10
323.203672
  20
209.881752
  42
0.414191
  0
VERTEX
  8
0
  10
324.713164
  20
208.375861
  42
0.305182
  0
VERTEX
  8
0
  10
326.226441
  20
209.374355
  42
0.305087
  0
VERTEX
  8
0
  10
327.739446
  20
208.368519
  42
0.414191
  0
VERTEX
  8
0
  10
329.256227
  20
209.867067
  0
VERTEX
  8
0
  10
329.255614
  20
209.873950
  0
VERTEX
  8
0
  10
329.256025
  20
209.880519
  0
SEQEND
  0
POLYLINE
  8
0
  66
1
  70
1
  0
VERTEX
  8
0
  10
333.479700
  20
197.204975
  42
0.414209
  0
VERTEX
  8
0
  10
329.946638
  20
200.708872
  42
0.147534
  0
VERTEX
  8
0
  10
327.803149
  20
200.056646
  42
0.151132
  0
VERTEX
  8
0
  10
326.422226
  20
198.357568
  42
0.150974
  0
VERTEX
  8
0
  10
325.035705
  20
200.050859
  42
0.147920
  0
VERTEX
  8
0
  10
322.897984
  20
200.691770
  42
0.414209
  0
VERTEX
  8
0
  10
319.381966
  20
197.170770
  0
VERTEX
  8
0
  10
319.383785
  20
197.153457
  0
VERTEX
  8
0
  10
319.382042
  20
197.139360
  42
0.026838
  0
VERTEX
  8
0
  10
319.388536
  20
197.023705
  42
0.008412
  0
VERTEX
  8
0
  10
319.435163
  20
196.657300
  0
VERTEX
  8
0
  10
319.457405
  20
196.456785
  42
0.106385
  0
VERTEX
  8
0
  10
320.352521
  20
194.381938
  42
0.055229
  0
VERTEX
  8
0
  10
323.230253
  20
191.163759
  42
0.012385
  0
VERTEX
  8
0
  10
324.287395
  20
190.262307
  42
0.011588
  0
VERTEX
  8
0
  10
325.462186
  20
189.354061
  0
VERTEX
  8
0
  10
326.451635
  20
188.658173
  0
VERTEX
  8
0
  10
327.437699
  20
189.358889
  42
0.011587
  0
VERTEX
  8
0
  10
328.608074
  20
190.272865
  42
0.012384
  0
VERTEX
  8
0
  10
329.660840
  20
191.179473
  42
0.055224
  0
VERTEX
  8
0
  10
332.522984
  20
194.411680
  42
0.106378
  0
VERTEX
  8
0
  10
333.408066
  20
196.490857
  0
VERTEX
  8
0
  10
333.428995
  20
196.691476
  42
0.008049
  0
VERTEX
  8
0
  10
333.474040
  20
197.061941
  42
0.026838
  0
VERTEX
  8
0
  10
333.479776
  20
197.173789
  0
VERTEX
  8
0
  10
333.477962
  20
197.188760
  0
VERTEX
  8
0
  10
333.479700
  20
197.204975
  0
SEQEND
  0
POLYLINE
  8
0
  66
1
  70
1
  0
VERTEX
  8
0
  10
332.327992
  20
256.133234
  42
-0.201276
  0
VERTEX
  8
0
  10
332.573874
  20
256.727517
  42
-0.132915
  0
VERTEX
  8
0
  10
333.401936
  20
257.198310
  0
VERTEX
  8
0
  10
333.670717
  20
257.750471
  0
VERTEX
  8
0
  10
327.977064
  20
257.765818
  42
0.059285
  0
VERTEX
  8
0
  10
329.058037
  20
254.776195
  42
0.100549
  0
VERTEX
  8
0
  10
330.223466
  20
253.292419
  42
0.134988
  0
VERTEX
  8
0
  10
331.840836
  20
252.538460
  42
0.111286
  0
VERTEX
  8
0
  10
333.989850
  20
252.654185
  42
0.222893
  0
VERTEX
  8
0
  10
335.186432
  20
253.674761
  42
0.282743
  0
VERTEX
  8
0
  10
335.027276
  20
254.940329
  42
0.516630
  0
VERTEX
  8
0
  10
332.588714
  20
254.782757
  0
VERTEX
  8
0
  10
332.320315
  20
254.783526
  0
VERTEX
  8
0
  10
332.327992
  20
256.133234
  0
SEQEND
  0
POLYLINE
  8
0
  66
1
  70
1
  0
VERTEX
  8
0
  10
336.355054
  20
257.724584
  0
VERTEX
  8
0
  10
336.353706
  20
257.253964
  42
-0.327147
  0
VERTEX
  8
0
  10
338.635580
  20
255.209997
  42
-0.315889
  0
VERTEX
  8
0
  10
337.413376
  20
252.353131
  0
VERTEX
  8
0
  10
343.318499
  20
252.317721
  42
0.179173
  0
VERTEX
  8
0
  10
345.527698
  20
253.169187
  42
0.213197
  0
VERTEX
  8
0
  10
346.364668
  20
255.002685
  42
0.213469
  0
VERTEX
  8
0
  10
345.523733
  20
256.922919
  42
0.191974
  0
VERTEX
  8
0
  10
343.358752
  20
257.733049
  0
VERTEX
  8
0
  10
336.355054
  20
257.724584
  0
SEQEND
  0
POLYLINE
  8
0
  66
1
  70
1
  0
VERTEX
  8
0
  10
345.211494
  20
243.715744
  42
-0.054073
  0
VERTEX
  8
0
  10
346.422890
  20
244.389053
  42
-0.098845
  0
VERTEX
  8
0
  10
347.170690
  20
244.542357
  42
-0.148610
  0
VERTEX
  8
0
  10
347.843312
  20
244.341708
  42
-0.126212
  0
VERTEX
  8
0
  10
348.394034
  20
243.732151
  42
0.482794
  0
VERTEX
  8
0
  10
348.077482
  20
240.970139
  42
0.282753
  0
VERTEX
  8
0
  10
349.351080
  20
240.666424
  42
0.239483
  0
VERTEX
  8
0
  10
350.419449
  20
241.738510
  42
0.106877
  0
VERTEX
  8
0
  10
350.408956
  20
244.924070
  42
0.151037
  0
VERTEX
  8
0
  10
349.284114
  20
246.906780
  42
0.118383
  0
VERTEX
  8
0
  10
347.194398
  20
248.101252
  42
0.066053
  0
VERTEX
  8
0
  10
342.970572
  20
248.746921
  42
-0.066372
  0
VERTEX
  8
0
  10
332.653270
  20
250.065633
  42
-0.138099
  0
VERTEX
  8
0
  10
328.287783
  20
252.647765
  42
0.345818
  0
VERTEX
  8
0
  10
336.035155
  20
239.741226
  0
VERTEX
  8
0
  10
336.046685
  20
243.767510
  42
-0.212665
  0
VERTEX
  8
0
  10
337.341177
  20
246.721548
  42
-0.188307
  0
VERTEX
  8
0
  10
340.709969
  20
248.014432
  42
-0.397983
  0
VERTEX
  8
0
  10
345.211494
  20
243.715744
  0
SEQEND
  0
POLYLINE
  8
0
  66
1
  70
1
  0
VERTEX
  8
0
  10
340.264403
  20
237.249979
  42
0.446561
  0
VERTEX
  8
0
  10
348.646291
  20
238.094605
  42
-0.277461
  0
VERTEX
  8
0
  10
345.090529
  20
238.884604
  42
-0.274166
  0
VERTEX
  8
0
  10
344.095508
  20
242.402255
  42
-0.361419
  0
VERTEX
  8
0
  10
340.821163
  20
242.470331
  42
-0.368969
  0
VERTEX
  8
0
  10
340.339557
  20
245.672224
  42
0.446673
  0
VERTEX
  8
0
  10
340.264403
  20
237.249979
  0
SEQEND
  0
POLYLINE
  8
0
  66
1
  70
1
  0
VERTEX
  8
0
  10
332.494937
  20
222.035391
  42
-0.047518
  0
VERTEX
  8
0
  10
331.117347
  20
224.729898
  42
-0.051671
  0
VERTEX
  8
0
  10
330.362919
  20
227.409919
  0
VERTEX
  8
0
  10
329.826121
  20
227.411456
  42
-0.265765
  0
VERTEX
  8
0
  10
328.476558
  20
224.462709
  42
-0.106393
  0
VERTEX
  8
0
  10
329.889864
  20
223.976396
  42
-0.048515
  0
VERTEX
  8
0
  10
332.494937
  20
222.035391
  0
SEQEND
  0
POLYLINE
  8
0
  66
1
  70
1
  0
VERTEX
  8
0
  10
340.816003
  20
222.011563
  42
-0.560551
  0
VERTEX
  8
0
  10
344.894055
  20
226.039701
  42
-0.370872
  0
VERTEX
  8
0
  10
345.950572
  20
234.075909
  42
-0.323636
  0
VERTEX
  8
0
  10
338.440952
  20
236.244822
  42
-0.433809
  0
VERTEX
  8
0
  10
336.279820
  20
227.935275
  42
0.082102
  0
VERTEX
  8
0
  10
335.866272
  20
231.925023
  42
0.144231
  0
VERTEX
  8
0
  10
334.649047
  20
233.894389
  42
-0.086221
  0
VERTEX
  8
0
  10
332.085886
  20
236.262911
  42
-0.060960
  0
VERTEX
  8
0
  10
329.595211
  20
240.503503
  42
0.050595
  0
VERTEX
  8
0
  10
332.428336
  20
227.565643
  42
0.089983
  0
VERTEX
  8
0
  10
335.993073
  20
220.980508
  42
0.111453
  0
VERTEX
  8
0
  10
340.094822
  20
217.709725
  42
0.183677
  0
VERTEX
  8
0
  10
343.332626
  20
217.424493
  42
0.232489
  0
VERTEX
  8
0
  10
345.012909
  20
218.911454
  42
0.221996
  0
VERTEX
  8
0
  10
344.902053
  20
221.247993
  42
0.484127
  0
VERTEX
  8
0
  10
340.816003
  20
222.011563
  0
SEQEND
  0
POLYLINE
  8
0
  66
1
  70
1
  0
VERTEX
  8
0
  10
347.805483
  20
224.399818
  42
-0.526620
  0
VERTEX
  8
0
  10
346.470030
  20
216.374022
  42
0.244718
  0
VERTEX
  8
0
  10
354.697312
  20
218.401758
  42
0.246763
  0
VERTEX
  8
0
  10
357.701932
  20
226.258025
  42
0.123098
  0
VERTEX
  8
0
  10
356.301519
  20
229.623206
  42
0.124633
  0
VERTEX
  8
0
  10
353.509117
  20
231.897506
  42
0.280237
  0
VERTEX
  8
0
  10
346.773300
  20
231.146753
  0
VERTEX
  8
0
  10
346.759555
  20
231.133087
  42
-0.416845
  0
VERTEX
  8
0
  10
350.690898
  20
228.245851
  42
-0.417527
  0
VERTEX
  8
0
  10
347.805483
  20
224.399818
  0
SEQEND
  0
POLYLINE
  8
0
  66
1
  70
1
  0
VERTEX
  8
0
  10
362.002768
  20
215.508765
  0
VERTEX
  8
0
  10
362.003312
  20
216.886069
  42
-0.158305
  0
VERTEX
  8
0
  10
355.563769
  20
216.600908
  42
-0.127948
  0
VERTEX
  8
0
  10
353.681802
  20
215.532593
  42
0.257678
  0
VERTEX
  8
0
  10
362.002768
  20
215.508765
  0
SEQEND
  0
POLYLINE
  8
0
  66
1
  70
1
  0
VERTEX
  8
0
  10
333.829344
  20
219.347259
  42
-0.058107
  0
VERTEX
  8
0
  10
333.614017
  20
217.740784
  42
-0.172591
  0
VERTEX
  8
0
  10
333.301888
  20
217.275761
  42
-0.261504
  0
VERTEX
  8
0
  10
332.826180
  20
217.215365
  42
-0.099888
  0
VERTEX
  8
0
  10
331.836362
  20
217.870082
  0
VERTEX
  8
0
  10
328.702405
  20
220.702646
  42
0.058005
  0
VERTEX
  8
0
  10
328.949313
  20
217.269529
  42
0.058933
  0
VERTEX
  8
0
  10
329.968062
  20
214.038182
  42
0.120696
  0
VERTEX
  8
0
  10
330.183346
  20
213.796279
  42
0.143474
  0
VERTEX
  8
0
  10
330.443611
  20
213.710515
  42
0.319596
  0
VERTEX
  8
0
  10
330.861384
  20
213.987436
  42
-0.328158
  0
VERTEX
  8
0
  10
336.540036
  20
214.521377
  42
-0.030236
  0
VERTEX
  8
0
  10
334.459254
  20
217.751772
  42
-0.067984
  0
VERTEX
  8
0
  10
333.829344
  20
219.347259
  0
SEQEND
  0
POLYLINE
  8
0
  66
1
  70
1
  0
VERTEX
  8
0
  10
360.369431
  20
202.857190
  42
0.400555
  0
VERTEX
  8
0
  10
368.444073
  20
215.221818
  42
-0.419822
  0
VERTEX
  8
0
  10
363.361385
  20
214.431070
  42
-0.229949
  0
VERTEX
  8
0
  10
355.820637
  20
212.573656
  0
VERTEX
  8
0
  10
355.819100
  20
212.036858
  42
-0.303470
  0
VERTEX
  8
0
  10
360.369431
  20
202.857190
  0
SEQEND
  0
POLYLINE
  8
0
  66
1
  70
1
  0
VERTEX
  8
0
  10
331.391263
  20
211.570109
  0
VERTEX
  8
0
  10
331.382808
  20
208.617321
  42
0.430156
  0
VERTEX
  8
0
  10
334.868369
  20
208.431963
  42
0.436987
  0
VERTEX
  8
0
  10
334.824817
  20
211.879119
  42
0.436987
  0
VERTEX
  8
0
  10
331.391263
  20
211.570109
  0
SEQEND
  0
POLYLINE
  8
0
  66
1
  70
1
  0
VERTEX
  8
0
  10
337.045050
  20
217.459043
  42
0.070467
  0
VERTEX
  8
0
  10
342.434819
  20
209.744213
  42
0.078646
  0
VERTEX
  8
0
  10
349.087121
  20
204.545794
  42
-0.082386
  0
VERTEX
  8
0
  10
348.212903
  20
206.695941
  42
-0.151999
  0
VERTEX
  8
0
  10
348.314967
  20
207.970305
  42
-0.138702
  0
VERTEX
  8
0
  10
348.540189
  20
208.183835
  42
-0.233966
  0
VERTEX
  8
0
  10
348.730533
  20
208.188298
  42
-0.122517
  0
VERTEX
  8
0
  10
348.912339
  20
208.041267
  42
-0.049434
  0
VERTEX
  8
0
  10
349.210580
  20
207.552799
  42
0.235585
  0
VERTEX
  8
0
  10
350.217652
  20
206.769788
  42
0.203416
  0
VERTEX
  8
0
  10
351.645289
  20
207.063959
  42
0.237424
  0
VERTEX
  8
0
  10
352.105532
  20
208.229162
  42
0.252246
  0
VERTEX
  8
0
  10
351.450683
  20
209.219535
  42
-0.059203
  0
VERTEX
  8
0
  10
349.865991
  20
210.346769
  42
-0.107177
  0
VERTEX
  8
0
  10
349.236242
  20
211.227577
  42
-0.149940
  0
VERTEX
  8
0
  10
349.126089
  20
212.229534
  42
-0.117158
  0
VERTEX
  8
0
  10
349.649269
  20
213.396632
  42
-0.086577
  0
VERTEX
  8
0
  10
343.490083
  20
214.258756
  42
-0.074684
  0
VERTEX
  8
0
  10
337.045050
  20
217.459043
  0
SEQEND
  0
POLYLINE
  8
0
  66
1
  70
1
  0
VERTEX
  8
0
  10
356.348212
  20
209.351232
  42
-0.356733
  0
VERTEX
  8
0
  10
352.034312
  20
202.652958
  42
0.163605
  0
VERTEX
  8
0
  10
358.498450
  20
202.098145
  0
VERTEX
  8
0
  10
358.498450
  20
202.098145
  42
0.258985
  0
VERTEX
  8
0
  10
356.348212
  20
209.351232
  0
SEQEND
  0
POLYLINE
  8
0
  66
1
  70
1
  0
VERTEX
  8
0
  10
345.056313
  20
204.017926
  42
-0.036975
  0
VERTEX
  8
0
  10
341.720255
  20
207.164257
  42
-0.044963
  0
VERTEX
  8
0
  10
339.433962
  20
210.166257
  42
-0.368789
  0
VERTEX
  8
0
  10
335.598883
  20
204.854640
  42
-0.370118
  0
VERTEX
  8
0
  10
329.770008
  20
207.816636
  42
0.182343
  0
VERTEX
  8
0
  10
328.408697
  20
201.110107
  42
-0.333657
  0
VERTEX
  8
0
  10
332.491799
  20
201.849052
  42
-0.337430
  0
VERTEX
  8
0
  10
334.305517
  20
198.140409
  0
VERTEX
  8
0
  10
334.842315
  20
198.138871
  42
0.141390
  0
VERTEX
  8
0
  10
336.467413
  20
203.234339
  42
0.230444
  0
VERTEX
  8
0
  10
342.941370
  20
200.276587
  42
-0.484112
  0
VERTEX
  8
0
  10
345.056313
  20
204.017926
  0
SEQEND
  0
POLYLINE
  8
0
  66
1
  70
1
  0
VERTEX
  8
0
  10
357.664171
  20
200.221026
  42
-0.152630
  0
VERTEX
  8
0
  10
348.291342
  20
202.357004
  42
-0.493094
  0
VERTEX
  8
0
  10
346.652867
  20
198.105050
  42
0.533936
  0
VERTEX
  8
0
  10
357.664171
  20
200.221026
  0
SEQEND
  0
POLYLINE
  8
0
  66
1
  70
1
  0
VERTEX
  8
0
  10
326.297733
  20
185.516383
  42
-0.175715
  0
VERTEX
  8
0
  10
325.686278
  20
185.776530
  42
-0.190301
  0
VERTEX
  8
0
  10
325.421044
  20
186.333325
  42
0.073573
  0
VERTEX
  8
0
  10
324.428359
  20
188.292206
  42
0.086119
  0
VERTEX
  8
0
  10
323.095983
  20
189.618363
  42
-0.261819
  0
VERTEX
  8
0
  10
314.787290
  20
199.808610
  42
-0.261934
  0
VERTEX
  8
0
  10
308.559174
  20
197.441357
  42
-0.286287
  0
VERTEX
  8
0
  10
299.565869
  20
194.246964
  42
-0.281757
  0
VERTEX
  8
0
  10
292.650402
  20
200.894939
  42
-0.252412
  0
VERTEX
  8
0
  10
281.881364
  20
208.718592
  42
-0.221322
  0
VERTEX
  8
0
  10
281.366261
  20
215.993106
  42
-0.217626
  0
VERTEX
  8
0
  10
286.644729
  20
221.186724
  42
-0.246618
  0
VERTEX
  8
0
  10
286.989372
  20
223.197193
  42
-0.237689
  0
VERTEX
  8
0
  10
288.886666
  20
224.115372
  42
0.260721
  0
VERTEX
  8
0
  10
290.585105
  20
219.557157
  42
0.264357
  0
VERTEX
  8
0
  10
295.307224
  20
218.662968
  42
-0.294693
  0
VERTEX
  8
0
  10
293.483247
  20
229.714467
  42
-0.307947
  0
VERTEX
  8
0
  10
302.807630
  20
235.603823
  42
-0.308338
  0
VERTEX
  8
0
  10
299.708605
  20
244.668781
  42
-0.319939
  0
VERTEX
  8
0
  10
307.037828
  20
250.625017
  42
-0.308978
  0
VERTEX
  8
0
  10
304.388260
  20
255.908099
  42
-0.326778
  0
VERTEX
  8
0
  10
308.401029
  20
260.071886
  42
0.003766
  0
VERTEX
  8
0
  10
309.206022
  20
260.053160
  42
0.003782
  0
VERTEX
  8
0
  10
310.007636
  20
260.046616
  0
VERTEX
  8
0
  10
344.647768
  20
260.068538
  42
-0.319226
  0
VERTEX
  8
0
  10
348.636338
  20
255.781837
  42
-0.308978
  0
VERTEX
  8
0
  10
345.956556
  20
250.514017
  42
-0.319939
  0
VERTEX
  8
0
  10
353.251545
  20
244.515902
  42
-0.308338
  0
VERTEX
  8
0
  10
350.100653
  20
235.468842
  42
-0.307947
  0
VERTEX
  8
0
  10
359.391154
  20
229.526179
  42
-0.294693
  0
VERTEX
  8
0
  10
357.503912
  20
218.485307
  42
0.264357
  0
VERTEX
  8
0
  10
362.231074
  20
219.352437
  42
0.260721
  0
VERTEX
  8
0
  10
363.955592
  20
223.900850
  42
-0.237689
  0
VERTEX
  8
0
  10
365.847596
  20
222.971819
  42
-0.246618
  0
VERTEX
  8
0
  10
366.180719
  20
220.959410
  42
-0.217626
  0
VERTEX
  8
0
  10
371.429354
  20
215.735646
  42
-0.221322
  0
VERTEX
  8
0
  10
370.872597
  20
208.464201
  42
-0.252412
  0
VERTEX
  8
0
  10
360.058927
  20
200.702353
  42
-0.281757
  0
VERTEX
  8
0
  10
353.105499
  20
194.094094
  42
-0.286287
  0
VERTEX
  8
0
  10
344.130636
  20
197.339943
  42
-0.261934
  0
VERTEX
  8
0
  10
337.916181
  20
199.742827
  42
-0.261819
  0
VERTEX
  8
0
  10
329.549262
  20
189.600332
  42
0.086119
  0
VERTEX
  8
0
  10
328.209313
  20
188.281829
  42
0.073573
  0
VERTEX
  8
0
  10
327.205425
  20
186.328665
  42
-0.194040
  0
VERTEX
  8
0
  10
326.933789
  20
185.776933
  42
-0.172274
  0
VERTEX
  8
0
  10
326.297733
  20
185.516383
  0
SEQEND
  0
POLYLINE
  8
0
  66
1
  70
1
  0
VERTEX
  8
0
  10
320.529628
  20
256.266571
  42
0.201276
  0
VERTEX
  8
0
  10
320.287154
  20
256.862253
  42
0.132915
  0
VERTEX
  8
0
  10
319.461802
  20
257.337780
  0
VERTEX
  8
0
  10
319.196188
  20
257.891471
  0
VERTEX
  8
0
  10
324.889835
  20
257.874209
  42
-0.059285
  0
VERTEX
  8
0
  10
323.791758
  20
254.890826
  42
-0.100549
  0
VERTEX
  8
0
  10
322.617849
  20
253.413750
  42
-0.134988
  0
VERTEX
  8
0
  10
320.996188
  20
252.669066
  42
-0.111286
  0
VERTEX
  8
0
  10
318.847872
  20
252.797097
  42
-0.222893
  0
VERTEX
  8
0
  10
317.657155
  20
253.824509
  42
-0.282743
  0
VERTEX
  8
0
  10
317.823556
  20
255.089145
  42
-0.516630
  0
VERTEX
  8
0
  10
320.261176
  20
254.917610
  0
VERTEX
  8
0
  10
320.529575
  20
254.916841
  0
VERTEX
  8
0
  10
320.529628
  20
256.266571
  0
SEQEND
  0
POLYLINE
  8
0
  66
1
  70
1
  0
VERTEX
  8
0
  10
316.511746
  20
257.880959
  0
VERTEX
  8
0
  10
316.510399
  20
257.410339
  42
0.327147
  0
VERTEX
  8
0
  10
314.216856
  20
255.379475
  42
0.315889
  0
VERTEX
  8
0
  10
315.422678
  20
252.515655
  0
VERTEX
  8
0
  10
309.517449
  20
252.514066
  42
-0.179173
  0
VERTEX
  8
0
  10
307.313163
  20
253.378171
  42
-0.213197
  0
VERTEX
  8
0
  10
306.486707
  20
255.216432
  42
-0.213469
  0
VERTEX
  8
0
  10
307.338626
  20
257.131819
  42
-0.191974
  0
VERTEX
  8
0
  10
309.508212
  20
257.929536
  0
VERTEX
  8
0
  10
316.511746
  20
257.880959
  0
SEQEND
  0
POLYLINE
  8
0
  66
1
  70
1
  0
VERTEX
  8
0
  10
307.575219
  20
243.923072
  42
0.054073
  0
VERTEX
  8
0
  10
306.367700
  20
244.603308
  42
0.098845
  0
VERTEX
  8
0
  10
305.620789
  20
244.760893
  42
0.148610
  0
VERTEX
  8
0
  10
304.947029
  20
244.564099
  42
0.126212
  0
VERTEX
  8
0
  10
304.392825
  20
243.957706
  42
-0.482794
  0
VERTEX
  8
0
  10
304.693554
  20
241.193927
  42
-0.282753
  0
VERTEX
  8
0
  10
303.418237
  20
240.897511
  42
-0.239483
  0
VERTEX
  8
0
  10
302.356025
  20
241.975698
  42
-0.106877
  0
VERTEX
  8
0
  10
302.384763
  20
245.161146
  42
-0.151037
  0
VERTEX
  8
0
  10
303.520942
  20
247.137380
  42
-0.118383
  0
VERTEX
  8
0
  10
305.617464
  20
248.319865
  42
-0.066053
  0
VERTEX
  8
0
  10
309.844920
  20
248.941332
  42
0.066372
  0
VERTEX
  8
0
  10
320.169605
  20
250.200932
  42
0.138099
  0
VERTEX
  8
0
  10
324.549809
  20
252.758020
  42
-0.345818
  0
VERTEX
  8
0
  10
316.728645
  20
239.896064
  0
VERTEX
  8
0
  10
316.740175
  20
243.922347
  42
0.212665
  0
VERTEX
  8
0
  10
315.462622
  20
246.883752
  42
0.188307
  0
VERTEX
  8
0
  10
312.101290
  20
248.195908
  42
0.397983
  0
VERTEX
  8
0
  10
307.575219
  20
243.923072
  0
SEQEND
  0
POLYLINE
  8
0
  66
1
  70
1
  0
VERTEX
  8
0
  10
312.485198
  20
237.429080
  42
-0.446561
  0
VERTEX
  8
0
  10
304.108285
  20
238.321698
  42
0.277461
  0
VERTEX
  8
0
  10
307.668513
  20
239.091318
  42
0.274166
  0
VERTEX
  8
0
  10
308.683664
  20
242.603213
  42
0.361419
  0
VERTEX
  8
0
  10
311.958345
  20
242.652535
  42
0.368969
  0
VERTEX
  8
0
  10
312.458282
  20
245.851617
  42
-0.446673
  0
VERTEX
  8
0
  10
312.485198
  20
237.429080
  0
SEQEND
  0
POLYLINE
  8
0
  66
1
  70
1
  0
VERTEX
  8
0
  10
326.682495
  20
247.651791
  42
0.040939
  0
VERTEX
  8
0
  10
327.553650
  20
237.350533
  42
0.058767
  0
VERTEX
  8
0
  10
329.572373
  20
230.424145
  42
0.550060
  0
VERTEX
  8
0
  10
322.930660
  20
230.254193
  42
0.038270
  0
VERTEX
  8
0
  10
324.796582
  20
237.209886
  42
0.026136
  0
VERTEX
  8
0
  10
326.197241
  20
247.653181
  0
VERTEX
  8
0
  10
326.682495
  20
247.651791
  0
SEQEND
  0
POLYLINE
  8
0
  66
1
  70
1
  0
VERTEX
  8
0
  10
320.167398
  20
222.170244
  42
0.047518
  0
VERTEX
  8
0
  10
321.560398
  20
224.856817
  42
0.051671
  0
VERTEX
  8
0
  10
322.330163
  20
227.532472
  0
VERTEX
  8
0
  10
322.866961
  20
227.530935
  42
0.265765
  0
VERTEX
  8
0
  10
324.199613
  20
224.574507
  42
0.106393
  0
VERTEX
  8
0
  10
322.783545
  20
224.096296
  42
0.048515
  0
VERTEX
  8
0
  10
320.167398
  20
222.170244
  0
SEQEND
  0
POLYLINE
  8
0
  66
1
  70
1
  0
VERTEX
  8
0
  10
311.846333
  20
222.194073
  42
0.560551
  0
VERTEX
  8
0
  10
307.791418
  20
226.245501
  42
0.370872
  0
VERTEX
  8
0
  10
306.780943
  20
234.287628
  42
0.323636
  0
VERTEX
  8
0
  10
314.302862
  20
236.413496
  42
0.433809
  0
VERTEX
  8
0
  10
316.416367
  20
228.091708
  42
-0.082102
  0
VERTEX
  8
0
  10
316.852760
  20
232.079022
  42
-0.144231
  0
VERTEX
  8
0
  10
318.081243
  20
234.041384
  42
0.086221
  0
VERTEX
  8
0
  10
320.657927
  20
236.395187
  42
0.060960
  0
VERTEX
  8
0
  10
323.172849
  20
240.621445
  42
-0.050595
  0
VERTEX
  8
0
  10
320.265671
  20
227.700024
  42
-0.089983
  0
VERTEX
  8
0
  10
316.663278
  20
221.135413
  42
-0.111453
  0
VERTEX
  8
0
  10
312.542864
  20
217.888175
  42
-0.183677
  0
VERTEX
  8
0
  10
309.303479
  20
217.621491
  42
-0.232489
  0
VERTEX
  8
0
  10
307.631740
  20
219.118051
  42
-0.221996
  0
VERTEX
  8
0
  10
307.755976
  20
221.453917
  42
-0.484127
  0
VERTEX
  8
0
  10
311.846333
  20
222.194073
  0
SEQEND
  0
POLYLINE
  8
0
  66
1
  70
1
  0
VERTEX
  8
0
  10
304.870646
  20
224.622320
  42
0.526620
  0
VERTEX
  8
0
  10
306.160110
  20
216.589007
  42
-0.244718
  0
VERTEX
  8
0
  10
297.944576
  20
218.663830
  42
-0.246763
  0
VERTEX
  8
0
  10
294.985000
  20
226.537175
  42
-0.123098
  0
VERTEX
  8
0
  10
296.404664
  20
229.894281
  42
-0.124633
  0
VERTEX
  8
0
  10
299.210046
  20
232.152550
  42
-0.280237
  0
VERTEX
  8
0
  10
305.941453
  20
231.363233
  0
VERTEX
  8
0
  10
305.955119
  20
231.349488
  42
0.416845
  0
VERTEX
  8
0
  10
302.007305
  20
228.484815
  42
0.417527
  0
VERTEX
  8
0
  10
304.870646
  20
224.622320
  0
SEQEND
  0
POLYLINE
  8
0
  66
1
  70
1
  0
VERTEX
  8
0
  10
290.622672
  20
215.812724
  0
VERTEX
  8
0
  10
290.630016
  20
217.190008
  42
0.158305
  0
VERTEX
  8
0
  10
297.067820
  20
216.867971
  42
0.127948
  0
VERTEX
  8
0
  10
298.943637
  20
215.788895
  42
-0.257678
  0
VERTEX
  8
0
  10
290.622672
  20
215.812724
  0
SEQEND
  0
POLYLINE
  8
0
  66
1
  70
1
  0
VERTEX
  8
0
  10
318.817617
  20
219.489798
  42
0.058107
  0
VERTEX
  8
0
  10
319.023740
  20
217.882116
  42
0.172591
  0
VERTEX
  8
0
  10
319.333200
  20
217.415313
  42
0.261504
  0
VERTEX
  8
0
  10
319.808555
  20
217.352194
  42
0.099888
  0
VERTEX
  8
0
  10
320.802106
  20
218.001231
  0
VERTEX
  8
0
  10
323.952235
  20
220.815800
  42
-0.058005
  0
VERTEX
  8
0
  10
323.685668
  20
217.384152
  42
-0.058933
  0
VERTEX
  8
0
  10
322.648430
  20
214.158693
  42
-0.120696
  0
VERTEX
  8
0
  10
322.431763
  20
213.918028
  42
-0.143474
  0
VERTEX
  8
0
  10
322.171012
  20
213.833756
  42
-0.319596
  0
VERTEX
  8
0
  10
321.754832
  20
214.113065
  42
0.328158
  0
VERTEX
  8
0
  10
316.079331
  20
214.679520
  42
0.030236
  0
VERTEX
  8
0
  10
318.178580
  20
217.897944
  42
0.067984
  0
VERTEX
  8
0
  10
318.817617
  20
219.489798
  0
SEQEND
  0
POLYLINE
  8
0
  66
1
  70
1
  0
VERTEX
  8
0
  10
292.183522
  20
203.152002
  42
-0.400555
  0
VERTEX
  8
0
  10
284.179829
  20
215.562673
  42
0.419822
  0
VERTEX
  8
0
  10
289.257904
  20
214.742827
  42
0.229949
  0
VERTEX
  8
0
  10
296.787890
  20
212.842256
  0
VERTEX
  8
0
  10
296.786353
  20
212.305459
  42
0.303470
  0
VERTEX
  8
0
  10
292.183522
  20
203.152002
  0
SEQEND
  0
POLYLINE
  8
0
  66
1
  70
1
  0
VERTEX
  8
0
  10
321.211116
  20
211.698812
  0
VERTEX
  8
0
  10
321.202660
  20
208.746024
  42
-0.430156
  0
VERTEX
  8
0
  10
317.716094
  20
208.580632
  42
-0.436987
  0
VERTEX
  8
0
  10
317.779388
  20
212.027482
  42
-0.436987
  0
VERTEX
  8
0
  10
321.211116
  20
211.698812
  0
SEQEND
  0
POLYLINE
  8
0
  66
1
  70
1
  0
VERTEX
  8
0
  10
315.591149
  20
217.620030
  42
-0.070467
  0
VERTEX
  8
0
  10
310.157285
  20
209.936195
  42
-0.078646
  0
VERTEX
  8
0
  10
303.475319
  20
204.775961
  42
0.082386
  0
VERTEX
  8
0
  10
304.361837
  20
206.921066
  42
0.151999
  0
VERTEX
  8
0
  10
304.267073
  20
208.195994
  42
0.138702
  0
VERTEX
  8
0
  10
304.043078
  20
208.410810
  42
0.233966
  0
VERTEX
  8
0
  10
303.852763
  20
208.416363
  42
0.122517
  0
VERTEX
  8
0
  10
303.670117
  20
208.270376
  42
0.049434
  0
VERTEX
  8
0
  10
303.369083
  20
207.783624
  42
-0.235585
  0
VERTEX
  8
0
  10
302.357543
  20
207.006393
  42
-0.203416
  0
VERTEX
  8
0
  10
300.931615
  20
207.308737
  42
-0.237424
  0
VERTEX
  8
0
  10
300.478052
  20
208.476556
  42
-0.252246
  0
VERTEX
  8
0
  10
301.138563
  20
209.463163
  42
0.059203
  0
VERTEX
  8
0
  10
302.729685
  20
210.581301
  42
0.107177
  0
VERTEX
  8
0
  10
303.364468
  20
211.458489
  42
0.149940
  0
VERTEX
  8
0
  10
303.480358
  20
212.459798
  42
0.117158
  0
VERTEX
  8
0
  10
302.963871
  20
213.629874
  42
0.086577
  0
VERTEX
  8
0
  10
309.127893
  20
214.456708
  42
0.074684
  0
VERTEX
  8
0
  10
315.591149
  20
217.620030
  0
SEQEND
  0
POLYLINE
  8
0
  66
1
  70
1
  0
VERTEX
  8
0
  10
296.241869
  20
209.622907
  42
0.356733
  0
VERTEX
  8
0
  10
300.517335
  20
202.900036
  42
-0.163605
  0
VERTEX
  8
0
  10
294.050125
  20
202.382253
  0
VERTEX
  8
0
  10
294.050125
  20
202.382253
  42
-0.258985
  0
VERTEX
  8
0
  10
296.241869
  20
209.622907
  0
SEQEND
  0
POLYLINE
  8
0
  66
1
  70
1
  0
VERTEX
  8
0
  10
307.503037
  20
204.225016
  42
0.036975
  0
VERTEX
  8
0
  10
310.857060
  20
207.352189
  42
0.044963
  0
VERTEX
  8
0
  10
313.160509
  20
210.341046
  42
0.368789
  0
VERTEX
  8
0
  10
316.965104
  20
205.007551
  42
0.370118
  0
VERTEX
  8
0
  10
322.810848
  20
207.936116
  42
-0.182343
  0
VERTEX
  8
0
  10
324.133726
  20
201.221900
  42
0.333657
  0
VERTEX
  8
0
  10
320.054923
  20
201.984217
  42
0.337430
  0
VERTEX
  8
0
  10
318.219994
  20
198.286023
  0
VERTEX
  8
0
  10
317.683197
  20
198.287560
  42
-0.141390
  0
VERTEX
  8
0
  10
316.087308
  20
203.392251
  42
-0.230444
  0
VERTEX
  8
0
  10
309.596518
  20
200.471626
  42
0.484112
  0
VERTEX
  8
0
  10
307.503037
  20
204.225016
  0
SEQEND
  0
POLYLINE
  8
0
  66
1
  70
1
  0
VERTEX
  8
0
  10
294.873640
  20
200.500387
  42
0.152630
  0
VERTEX
  8
0
  10
304.258549
  20
202.582650
  42
0.493094
  0
VERTEX
  8
0
  10
305.872645
  20
198.321381
  42
-0.533936
  0
VERTEX
  8
0
  10
294.873640
  20
200.500387
  0
SEQEND
  0
POLYLINE
  8
0
  66
1
  70
1
  0
VERTEX
  8
0
  10
327.888505
  20
220.884463
  0
VERTEX
  8
0
  10
324.888507
  20
220.880489
  0
VERTEX
  8
0
  10
324.893806
  20
216.880493
  0
VERTEX
  8
0
  10
327.893803
  20
216.884466
  0
VERTEX
  8
0
  10
327.888505
  20
220.884463
  0
SEQEND
  0
POLYLINE
  8
0
  66
1
  70
1
  0
VERTEX
  8
0
  10
255.758887
  20
160.014042
  42
-0.026765
  0
VERTEX
  8
0
  10
255.756496
  20
159.967291
  42
-0.007794
  0
VERTEX
  8
0
  10
255.737233
  20
159.807796
  0
VERTEX
  8
0
  10
255.728261
  20
159.721927
  42
-0.106648
  0
VERTEX
  8
0
  10
255.348608
  20
158.833261
  42
-0.055244
  0
VERTEX
  8
0
  10
254.119444
  20
157.450376
  0
VERTEX
  8
0
  10
252.741659
  20
156.372047
  0
VERTEX
  8
0
  10
251.358602
  20
157.443706
  42
-0.055249
  0
VERTEX
  8
0
  10
250.122730
  20
158.820633
  42
-0.106667
  0
VERTEX
  8
0
  10
249.738845
  20
159.707395
  0
VERTEX
  8
0
  10
249.729456
  20
159.793220
  42
-0.008349
  0
VERTEX
  8
0
  10
249.709332
  20
159.950465
  42
-0.027047
  0
VERTEX
  8
0
  10
249.706566
  20
159.999358
  0
VERTEX
  8
0
  10
249.707417
  20
160.005452
  0
VERTEX
  8
0
  10
249.706534
  20
160.012809
  42
-0.414191
  0
VERTEX
  8
0
  10
251.216026
  20
161.518700
  42
-0.305182
  0
VERTEX
  8
0
  10
252.729303
  20
160.520206
  42
-0.305087
  0
VERTEX
  8
0
  10
254.242308
  20
161.526043
  42
-0.414191
  0
VERTEX
  8
0
  10
255.759089
  20
160.027495
  0
VERTEX
  8
0
  10
255.758476
  20
160.020612
  0
VERTEX
  8
0
  10
255.758887
  20
160.014042
  0
SEQEND
  0
POLYLINE
  8
0
  66
1
  70
1
  0
VERTEX
  8
0
  10
259.982563
  20
172.689586
  42
-0.414209
  0
VERTEX
  8
0
  10
256.449500
  20
169.185689
  42
-0.147534
  0
VERTEX
  8
0
  10
254.306011
  20
169.837915
  42
-0.151132
  0
VERTEX
  8
0
  10
252.925088
  20
171.536994
  42
-0.150974
  0
VERTEX
  8
0
  10
251.538567
  20
169.843703
  42
-0.147920
  0
VERTEX
  8
0
  10
249.400846
  20
169.202791
  42
-0.414209
  0
VERTEX
  8
0
  10
245.884828
  20
172.723791
  0
VERTEX
  8
0
  10
245.886647
  20
172.741104
  0
VERTEX
  8
0
  10
245.884904
  20
172.755201
  42
-0.026838
  0
VERTEX
  8
0
  10
245.891398
  20
172.870857
  42
-0.008412
  0
VERTEX
  8
0
  10
245.938025
  20
173.237261
  0
VERTEX
  8
0
  10
245.960267
  20
173.437776
  42
-0.106385
  0
VERTEX
  8
0
  10
246.855383
  20
175.512624
  42
-0.055229
  0
VERTEX
  8
0
  10
249.733115
  20
178.730803
  42
-0.012385
  0
VERTEX
  8
0
  10
250.790257
  20
179.632254
  42
-0.011588
  0
VERTEX
  8
0
  10
251.965048
  20
180.540500
  0
VERTEX
  8
0
  10
252.954497
  20
181.236388
  0
VERTEX
  8
0
  10
253.940561
  20
180.535672
  42
-0.011587
  0
VERTEX
  8
0
  10
255.110937
  20
179.621696
  42
-0.012384
  0
VERTEX
  8
0
  10
256.163702
  20
178.715088
  42
-0.055224
  0
VERTEX
  8
0
  10
259.025846
  20
175.482882
  42
-0.106378
  0
VERTEX
  8
0
  10
259.910928
  20
173.403705
  0
VERTEX
  8
0
  10
259.931857
  20
173.203085
  42
-0.008049
  0
VERTEX
  8
0
  10
259.976902
  20
172.832620
  42
-0.026838
  0
VERTEX
  8
0
  10
259.982638
  20
172.720772
  0
VERTEX
  8
0
  10
259.980824
  20
172.705801
  0
VERTEX
  8
0
  10
259.982563
  20
172.689586
  0
SEQEND
  0
POLYLINE
  8
0
  66
1
  70
1
  0
VERTEX
  8
0
  10
258.830854
  20
113.761327
  42
0.201276
  0
VERTEX
  8
0
  10
259.076736
  20
113.167044
  42
0.132915
  0
VERTEX
  8
0
  10
259.904798
  20
112.696251
  0
VERTEX
  8
0
  10
260.173579
  20
112.144090
  0
VERTEX
  8
0
  10
254.479926
  20
112.128743
  42
-0.059285
  0
VERTEX
  8
0
  10
255.560899
  20
115.118366
  42
-0.100549
  0
VERTEX
  8
0
  10
256.726328
  20
116.602142
  42
-0.134988
  0
VERTEX
  8
0
  10
258.343698
  20
117.356102
  42
-0.111286
  0
VERTEX
  8
0
  10
260.492712
  20
117.240376
  42
-0.222893
  0
VERTEX
  8
0
  10
261.689294
  20
116.219800
  42
-0.282743
  0
VERTEX
  8
0
  10
261.530138
  20
114.954232
  42
-0.516630
  0
VERTEX
  8
0
  10
259.091576
  20
115.111804
  0
VERTEX
  8
0
  10
258.823177
  20
115.111035
  0
VERTEX
  8
0
  10
258.830854
  20
113.761327
  0
SEQEND
  0
POLYLINE
  8
0
  66
1
  70
1
  0
VERTEX
  8
0
  10
262.857916
  20
112.169977
  0
VERTEX
  8
0
  10
262.856568
  20
112.640597
  42
0.327147
  0
VERTEX
  8
0
  10
265.138442
  20
114.684564
  42
0.315889
  0
VERTEX
  8
0
  10
263.916238
  20
117.541430
  0
VERTEX
  8
0
  10
269.821361
  20
117.576840
  42
-0.179173
  0
VERTEX
  8
0
  10
272.030560
  20
116.725375
  42
-0.213197
  0
VERTEX
  8
0
  10
272.867530
  20
114.891876
  42
-0.213469
  0
VERTEX
  8
0
  10
272.026596
  20
112.971642
  42
-0.191974
  0
VERTEX
  8
0
  10
269.861614
  20
112.161513
  0
VERTEX
  8
0
  10
262.857916
  20
112.169977
  0
SEQEND
  0
POLYLINE
  8
0
  66
1
  70
1
  0
VERTEX
  8
0
  10
271.714357
  20
126.178817
  42
0.054073
  0
VERTEX
  8
0
  10
272.925752
  20
125.505508
  42
0.098845
  0
VERTEX
  8
0
  10
273.673553
  20
125.352204
  42
0.148610
  0
VERTEX
  8
0
  10
274.346174
  20
125.552853
  42
0.126212
  0
VERTEX
  8
0
  10
274.896896
  20
126.162410
  42
-0.482794
  0
VERTEX
  8
0
  10
274.580344
  20
128.924422
  42
-0.282753
  0
VERTEX
  8
0
  10
275.853942
  20
129.228137
  42
-0.239483
  0
VERTEX
  8
0
  10
276.922311
  20
128.156051
  42
-0.106877
  0
VERTEX
  8
0
  10
276.911818
  20
124.970491
  42
-0.151037
  0
VERTEX
  8
0
  10
275.786976
  20
122.987782
  42
-0.118383
  0
VERTEX
  8
0
  10
273.697260
  20
121.793309
  42
-0.066053
  0
VERTEX
  8
0
  10
269.473434
  20
121.147640
  42
0.066372
  0
VERTEX
  8
0
  10
259.156132
  20
119.828929
  42
0.138099
  0
VERTEX
  8
0
  10
254.790645
  20
117.246796
  42
-0.345818
  0
VERTEX
  8
0
  10
262.538017
  20
130.153335
  0
VERTEX
  8
0
  10
262.549547
  20
126.127052
  42
0.212665
  0
VERTEX
  8
0
  10
263.844039
  20
123.173013
  42
0.188307
  0
VERTEX
  8
0
  10
267.212831
  20
121.880130
  42
0.397983
  0
VERTEX
  8
0
  10
271.714357
  20
126.178817
  0
SEQEND
  0
POLYLINE
  8
0
  66
1
  70
1
  0
VERTEX
  8
0
  10
266.767265
  20
132.644582
  42
-0.446561
  0
VERTEX
  8
0
  10
275.149153
  20
131.799956
  42
0.277461
  0
VERTEX
  8
0
  10
271.593391
  20
131.009958
  42
0.274166
  0
VERTEX
  8
0
  10
270.598370
  20
127.492306
  42
0.361419
  0
VERTEX
  8
0
  10
267.324025
  20
127.424230
  42
0.368969
  0
VERTEX
  8
0
  10
266.842419
  20
124.222337
  42
-0.446673
  0
VERTEX
  8
0
  10
266.767265
  20
132.644582
  0
SEQEND
  0
POLYLINE
  8
0
  66
1
  70
1
  0
VERTEX
  8
0
  10
258.997799
  20
147.859170
  42
0.047518
  0
VERTEX
  8
0
  10
257.620209
  20
145.164663
  42
0.051671
  0
VERTEX
  8
0
  10
256.865781
  20
142.484642
  0
VERTEX
  8
0
  10
256.328983
  20
142.483105
  42
0.265765
  0
VERTEX
  8
0
  10
254.979420
  20
145.431853
  42
0.106393
  0
VERTEX
  8
0
  10
256.392726
  20
145.918165
  42
0.048515
  0
VERTEX
  8
0
  10
258.997799
  20
147.859170
  0
SEQEND
  0
POLYLINE
  8
0
  66
1
  70
1
  0
VERTEX
  8
0
  10
267.318865
  20
147.882998
  42
0.560551
  0
VERTEX
  8
0
  10
271.396917
  20
143.854860
  42
0.370872
  0
VERTEX
  8
0
  10
272.453434
  20
135.818653
  42
0.323636
  0
VERTEX
  8
0
  10
264.943814
  20
133.649739
  42
0.433809
  0
VERTEX
  8
0
  10
262.782682
  20
141.959286
  42
-0.082102
  0
VERTEX
  8
0
  10
262.369134
  20
137.969538
  42
-0.144231
  0
VERTEX
  8
0
  10
261.151909
  20
136.000172
  42
0.086221
  0
VERTEX
  8
0
  10
258.588748
  20
133.631650
  42
0.060960
  0
VERTEX
  8
0
  10
256.098073
  20
129.391058
  42
-0.050595
  0
VERTEX
  8
0
  10
258.931198
  20
142.328918
  42
-0.089983
  0
VERTEX
  8
0
  10
262.495935
  20
148.914053
  42
-0.111453
  0
VERTEX
  8
0
  10
266.597684
  20
152.184836
  42
-0.183677
  0
VERTEX
  8
0
  10
269.835488
  20
152.470069
  42
-0.232489
  0
VERTEX
  8
0
  10
271.515771
  20
150.983108
  42
-0.221996
  0
VERTEX
  8
0
  10
271.404915
  20
148.646568
  42
-0.484127
  0
VERTEX
  8
0
  10
267.318865
  20
147.882998
  0
SEQEND
  0
POLYLINE
  8
0
  66
1
  70
1
  0
VERTEX
  8
0
  10
274.308345
  20
145.494743
  42
0.526620
  0
VERTEX
  8
0
  10
272.972892
  20
153.520539
  42
-0.244718
  0
VERTEX
  8
0
  10
281.200174
  20
151.492803
  42
-0.246763
  0
VERTEX
  8
0
  10
284.204794
  20
143.636536
  42
-0.123098
  0
VERTEX
  8
0
  10
282.804381
  20
140.271355
  42
-0.124633
  0
VERTEX
  8
0
  10
280.011979
  20
137.997056
  42
-0.280237
  0
VERTEX
  8
0
  10
273.276162
  20
138.747808
  0
VERTEX
  8
0
  10
273.262417
  20
138.761474
  42
0.416845
  0
VERTEX
  8
0
  10
277.193760
  20
141.648710
  42
0.417527
  0
VERTEX
  8
0
  10
274.308345
  20
145.494743
  0
SEQEND
  0
POLYLINE
  8
0
  66
1
  70
1
  0
VERTEX
  8
0
  10
288.505630
  20
154.385797
  0
VERTEX
  8
0
  10
288.506174
  20
153.008493
  42
0.158305
  0
VERTEX
  8
0
  10
282.066631
  20
153.293653
  42
0.127948
  0
VERTEX
  8
0
  10
280.184664
  20
154.361968
  42
-0.257678
  0
VERTEX
  8
0
  10
288.505630
  20
154.385797
  0
SEQEND
  0
POLYLINE
  8
0
  66
1
  70
1
  0
VERTEX
  8
0
  10
260.332206
  20
150.547302
  42
0.058107
  0
VERTEX
  8
0
  10
260.116879
  20
152.153777
  42
0.172591
  0
VERTEX
  8
0
  10
259.804750
  20
152.618800
  42
0.261504
  0
VERTEX
  8
0
  10
259.329042
  20
152.679196
  42
0.099888
  0
VERTEX
  8
0
  10
258.339224
  20
152.024479
  0
VERTEX
  8
0
  10
255.205267
  20
149.191915
  42
-0.058005
  0
VERTEX
  8
0
  10
255.452176
  20
152.625033
  42
-0.058933
  0
VERTEX
  8
0
  10
256.470924
  20
155.856380
  42
-0.120696
  0
VERTEX
  8
0
  10
256.686208
  20
156.098282
  42
-0.143474
  0
VERTEX
  8
0
  10
256.946473
  20
156.184046
  42
-0.319596
  0
VERTEX
  8
0
  10
257.364246
  20
155.907125
  42
0.328158
  0
VERTEX
  8
0
  10
263.042898
  20
155.373184
  42
0.030236
  0
VERTEX
  8
0
  10
260.962116
  20
152.142790
  42
0.067984
  0
VERTEX
  8
0
  10
260.332206
  20
150.547302
  0
SEQEND
  0
POLYLINE
  8
0
  66
1
  70
1
  0
VERTEX
  8
0
  10
286.872293
  20
167.037371
  42
-0.400555
  0
VERTEX
  8
0
  10
294.946935
  20
154.672743
  42
0.419822
  0
VERTEX
  8
0
  10
289.864247
  20
155.463492
  42
0.229949
  0
VERTEX
  8
0
  10
282.323499
  20
157.320905
  0
VERTEX
  8
0
  10
282.321962
  20
157.857703
  42
0.303470
  0
VERTEX
  8
0
  10
286.872293
  20
167.037371
  0
SEQEND
  0
POLYLINE
  8
0
  66
1
  70
1
  0
VERTEX
  8
0
  10
257.894125
  20
158.324452
  0
VERTEX
  8
0
  10
257.885670
  20
161.277240
  42
-0.430156
  0
VERTEX
  8
0
  10
261.371232
  20
161.462598
  42
-0.436987
  0
VERTEX
  8
0
  10
261.327679
  20
158.015442
  42
-0.436987
  0
VERTEX
  8
0
  10
257.894125
  20
158.324452
  0
SEQEND
  0
POLYLINE
  8
0
  66
1
  70
1
  0
VERTEX
  8
0
  10
263.547912
  20
152.435518
  42
-0.070467
  0
VERTEX
  8
0
  10
268.937681
  20
160.150348
  42
-0.078646
  0
VERTEX
  8
0
  10
275.589983
  20
165.348767
  42
0.082386
  0
VERTEX
  8
0
  10
274.715765
  20
163.198620
  42
0.151999
  0
VERTEX
  8
0
  10
274.817829
  20
161.924256
  42
0.138702
  0
VERTEX
  8
0
  10
275.043051
  20
161.710727
  42
0.233966
  0
VERTEX
  8
0
  10
275.233395
  20
161.706263
  42
0.122517
  0
VERTEX
  8
0
  10
275.415201
  20
161.853294
  42
0.049434
  0
VERTEX
  8
0
  10
275.713442
  20
162.341762
  42
-0.235585
  0
VERTEX
  8
0
  10
276.720515
  20
163.124773
  42
-0.203416
  0
VERTEX
  8
0
  10
278.148151
  20
162.830602
  42
-0.237424
  0
VERTEX
  8
0
  10
278.608394
  20
161.665399
  42
-0.252246
  0
VERTEX
  8
0
  10
277.953546
  20
160.675026
  42
0.059203
  0
VERTEX
  8
0
  10
276.368853
  20
159.547793
  42
0.107177
  0
VERTEX
  8
0
  10
275.739104
  20
158.666984
  42
0.149940
  0
VERTEX
  8
0
  10
275.628951
  20
157.665028
  42
0.117158
  0
VERTEX
  8
0
  10
276.152131
  20
156.497929
  42
0.086577
  0
VERTEX
  8
0
  10
269.992945
  20
155.635805
  42
0.074684
  0
VERTEX
  8
0
  10
263.547912
  20
152.435518
  0
SEQEND
  0
POLYLINE
  8
0
  66
1
  70
1
  0
VERTEX
  8
0
  10
282.851074
  20
160.543329
  42
0.356733
  0
VERTEX
  8
0
  10
278.537174
  20
167.241603
  42
-0.163605
  0
VERTEX
  8
0
  10
285.001312
  20
167.796416
  0
VERTEX
  8
0
  10
285.001312
  20
167.796416
  42
-0.258985
  0
VERTEX
  8
0
  10
282.851074
  20
160.543329
  0
SEQEND
  0
POLYLINE
  8
0
  66
1
  70
1
  0
VERTEX
  8
0
  10
271.559175
  20
165.876635
  42
0.036975
  0
VERTEX
  8
0
  10
268.223117
  20
162.730304
  42
0.044963
  0
VERTEX
  8
0
  10
265.936825
  20
159.728304
  42
0.368789
  0
VERTEX
  8
0
  10
262.101745
  20
165.039921
  42
0.370118
  0
VERTEX
  8
0
  10
256.272870
  20
162.077925
  42
-0.182343
  0
VERTEX
  8
0
  10
254.911559
  20
168.784454
  42
0.333657
  0
VERTEX
  8
0
  10
258.994661
  20
168.045509
  42
0.337430
  0
VERTEX
  8
0
  10
260.808379
  20
171.754153
  0
VERTEX
  8
0
  10
261.345177
  20
171.755690
  42
-0.141390
  0
VERTEX
  8
0
  10
262.970275
  20
166.660223
  42
-0.230444
  0
VERTEX
  8
0
  10
269.444232
  20
169.617974
  42
0.484112
  0
VERTEX
  8
0
  10
271.559175
  20
165.876635
  0
SEQEND
  0
POLYLINE
  8
0
  66
1
  70
1
  0
VERTEX
  8
0
  10
284.167033
  20
169.673535
  42
0.152630
  0
VERTEX
  8
0
  10
274.794204
  20
167.537557
  42
0.493094
  0
VERTEX
  8
0
  10
273.155729
  20
171.789511
  42
-0.533936
  0
VERTEX
  8
0
  10
284.167033
  20
169.673535
  0
SEQEND
  0
POLYLINE
  8
0
  66
1
  70
1
  0
VERTEX
  8
0
  10
252.800595
  20
184.378178
  42
0.175715
  0
VERTEX
  8
0
  10
252.189140
  20
184.118031
  42
0.190301
  0
VERTEX
  8
0
  10
251.923906
  20
183.561236
  42
-0.073573
  0
VERTEX
  8
0
  10
250.931221
  20
181.602355
  42
-0.086119
  0
VERTEX
  8
0
  10
249.598845
  20
180.276199
  42
0.261819
  0
VERTEX
  8
0
  10
241.290152
  20
170.085951
  42
0.261934
  0
VERTEX
  8
0
  10
235.062037
  20
172.453204
  42
0.286287
  0
VERTEX
  8
0
  10
226.068731
  20
175.647597
  42
0.281757
  0
VERTEX
  8
0
  10
219.153264
  20
168.999622
  42
0.252412
  0
VERTEX
  8
0
  10
208.384226
  20
161.175969
  42
0.221322
  0
VERTEX
  8
0
  10
207.869124
  20
153.901455
  42
0.217626
  0
VERTEX
  8
0
  10
213.147591
  20
148.707837
  42
0.246618
  0
VERTEX
  8
0
  10
213.492234
  20
146.697368
  42
0.237689
  0
VERTEX
  8
0
  10
215.389528
  20
145.779189
  42
-0.260721
  0
VERTEX
  8
0
  10
217.087967
  20
150.337404
  42
-0.264357
  0
VERTEX
  8
0
  10
221.810086
  20
151.231593
  42
0.294693
  0
VERTEX
  8
0
  10
219.986109
  20
140.180094
  42
0.307947
  0
VERTEX
  8
0
  10
229.310492
  20
134.290738
  42
0.308338
  0
VERTEX
  8
0
  10
226.211467
  20
125.225780
  42
0.319939
  0
VERTEX
  8
0
  10
233.540690
  20
119.269544
  42
0.308978
  0
VERTEX
  8
0
  10
230.891122
  20
113.986462
  42
0.326778
  0
VERTEX
  8
0
  10
234.903892
  20
109.822675
  42
-0.003766
  0
VERTEX
  8
0
  10
235.708884
  20
109.841402
  42
-0.003782
  0
VERTEX
  8
0
  10
236.510498
  20
109.847945
  0
VERTEX
  8
0
  10
271.150630
  20
109.826023
  42
0.319226
  0
VERTEX
  8
0
  10
275.139200
  20
114.112724
  42
0.308978
  0
VERTEX
  8
0
  10
272.459418
  20
119.380544
  42
0.319939
  0
VERTEX
  8
0
  10
279.754407
  20
125.378659
  42
0.308338
  0
VERTEX
  8
0
  10
276.603515
  20
134.425720
  42
0.307947
  0
VERTEX
  8
0
  10
285.894016
  20
140.368382
  42
0.294693
  0
VERTEX
  8
0
  10
284.006774
  20
151.409254
  42
-0.264357
  0
VERTEX
  8
0
  10
288.733936
  20
150.542124
  42
-0.260721
  0
VERTEX
  8
0
  10
290.458454
  20
145.993711
  42
0.237689
  0
VERTEX
  8
0
  10
292.350458
  20
146.922742
  42
0.246618
  0
VERTEX
  8
0
  10
292.683581
  20
148.935151
  42
0.217626
  0
VERTEX
  8
0
  10
297.932216
  20
154.158915
  42
0.221322
  0
VERTEX
  8
0
  10
297.375459
  20
161.430360
  42
0.252412
  0
VERTEX
  8
0
  10
286.561789
  20
169.192208
  42
0.281757
  0
VERTEX
  8
0
  10
279.608361
  20
175.800467
  42
0.286287
  0
VERTEX
  8
0
  10
270.633498
  20
172.554618
  42
0.261934
  0
VERTEX
  8
0
  10
264.419043
  20
170.151734
  42
0.261819
  0
VERTEX
  8
0
  10
256.052124
  20
180.294229
  42
-0.086119
  0
VERTEX
  8
0
  10
254.712175
  20
181.612733
  42
-0.073573
  0
VERTEX
  8
0
  10
253.708287
  20
183.565896
  42
0.194040
  0
VERTEX
  8
0
  10
253.436651
  20
184.117628
  42
0.172274
  0
VERTEX
  8
0
  10
252.800595
  20
184.378178
  0
SEQEND
  0
POLYLINE
  8
0
  66
1
  70
1
  0
VERTEX
  8
0
  10
247.032490
  20
113.627990
  42
-0.201276
  0
VERTEX
  8
0
  10
246.790016
  20
113.032309
  42
-0.132915
  0
VERTEX
  8
0
  10
245.964664
  20
112.556781
  0
VERTEX
  8
0
  10
245.699050
  20
112.003090
  0
VERTEX
  8
0
  10
251.392697
  20
112.020352
  42
0.059285
  0
VERTEX
  8
0
  10
250.294620
  20
115.003735
  42
0.100549
  0
VERTEX
  8
0
  10
249.120711
  20
116.480812
  42
0.134988
  0
VERTEX
  8
0
  10
247.499050
  20
117.225496
  42
0.111286
  0
VERTEX
  8
0
  10
245.350734
  20
117.097464
  42
0.222893
  0
VERTEX
  8
0
  10
244.160017
  20
116.070052
  42
0.282743
  0
VERTEX
  8
0
  10
244.326418
  20
114.805416
  42
0.516630
  0
VERTEX
  8
0
  10
246.764038
  20
114.976952
  0
VERTEX
  8
0
  10
247.032437
  20
114.977720
  0
VERTEX
  8
0
  10
247.032490
  20
113.627990
  0
SEQEND
  0
POLYLINE
  8
0
  66
1
  70
1
  0
VERTEX
  8
0
  10
243.014608
  20
112.013602
  0
VERTEX
  8
0
  10
243.013261
  20
112.484222
  42
-0.327147
  0
VERTEX
  8
0
  10
240.719718
  20
114.515086
  42
-0.315889
  0
VERTEX
  8
0
  10
241.925540
  20
117.378906
  0
VERTEX
  8
0
  10
236.020311
  20
117.380495
  42
0.179173
  0
VERTEX
  8
0
  10
233.816025
  20
116.516391
  42
0.213197
  0
VERTEX
  8
0
  10
232.989570
  20
114.678129
  42
0.213469
  0
VERTEX
  8
0
  10
233.841488
  20
112.762742
  42
0.191974
  0
VERTEX
  8
0
  10
236.011074
  20
111.965026
  0
VERTEX
  8
0
  10
243.014608
  20
112.013602
  0
SEQEND
  0
POLYLINE
  8
0
  66
1
  70
1
  0
VERTEX
  8
0
  10
234.078081
  20
125.971489
  42
-0.054073
  0
VERTEX
  8
0
  10
232.870562
  20
125.291253
  42
-0.098845
  0
VERTEX
  8
0
  10
232.123651
  20
125.133668
  42
-0.148610
  0
VERTEX
  8
0
  10
231.449891
  20
125.330462
  42
-0.126212
  0
VERTEX
  8
0
  10
230.895687
  20
125.936855
  42
0.482794
  0
VERTEX
  8
0
  10
231.196416
  20
128.700634
  42
0.282753
  0
VERTEX
  8
0
  10
229.921099
  20
128.997050
  42
0.239483
  0
VERTEX
  8
0
  10
228.858887
  20
127.918863
  42
0.106877
  0
VERTEX
  8
0
  10
228.887625
  20
124.733415
  42
0.151037
  0
VERTEX
  8
0
  10
230.023804
  20
122.757181
  42
0.118383
  0
VERTEX
  8
0
  10
232.120326
  20
121.574696
  42
0.066053
  0
VERTEX
  8
0
  10
236.347782
  20
120.953229
  42
-0.066372
  0
VERTEX
  8
0
  10
246.672467
  20
119.693629
  42
-0.138099
  0
VERTEX
  8
0
  10
251.052671
  20
117.136542
  42
0.345818
  0
VERTEX
  8
0
  10
243.231507
  20
129.998497
  0
VERTEX
  8
0
  10
243.243037
  20
125.972214
  42
-0.212665
  0
VERTEX
  8
0
  10
241.965484
  20
123.010809
  42
-0.188307
  0
VERTEX
  8
0
  10
238.604152
  20
121.698653
  42
-0.397983
  0
VERTEX
  8
0
  10
234.078081
  20
125.971489
  0
SEQEND
  0
POLYLINE
  8
0
  66
1
  70
1
  0
VERTEX
  8
0
  10
238.988060
  20
132.465481
  42
0.446561
  0
VERTEX
  8
0
  10
230.611147
  20
131.572863
  42
-0.277461
  0
VERTEX
  8
0
  10
234.171375
  20
130.803243
  42
-0.274166
  0
VERTEX
  8
0
  10
235.186526
  20
127.291348
  42
-0.361419
  0
VERTEX
  8
0
  10
238.461207
  20
127.242026
  42
-0.368969
  0
VERTEX
  8
0
  10
238.961144
  20
124.042944
  42
0.446673
  0
VERTEX
  8
0
  10
238.988060
  20
132.465481
  0
SEQEND
  0
POLYLINE
  8
0
  66
1
  70
1
  0
VERTEX
  8
0
  10
253.185357
  20
122.242770
  42
-0.040939
  0
VERTEX
  8
0
  10
254.056512
  20
132.544028
  42
-0.058767
  0
VERTEX
  8
0
  10
256.075235
  20
139.470416
  42
-0.550060
  0
VERTEX
  8
0
  10
249.433522
  20
139.640369
  42
-0.038270
  0
VERTEX
  8
0
  10
251.299444
  20
132.684675
  42
-0.026136
  0
VERTEX
  8
0
  10
252.700103
  20
122.241380
  0
VERTEX
  8
0
  10
253.185357
  20
122.242770
  0
SEQEND
  0
POLYLINE
  8
0
  66
1
  70
1
  0
VERTEX
  8
0
  10
246.670260
  20
147.724317
  42
-0.047518
  0
VERTEX
  8
0
  10
248.063260
  20
145.037744
  42
-0.051671
  0
VERTEX
  8
0
  10
248.833025
  20
142.362089
  0
VERTEX
  8
0
  10
249.369823
  20
142.363626
  42
-0.265765
  0
VERTEX
  8
0
  10
250.702475
  20
145.320054
  42
-0.106393
  0
VERTEX
  8
0
  10
249.286408
  20
145.798265
  42
-0.048515
  0
VERTEX
  8
0
  10
246.670260
  20
147.724317
  0
SEQEND
  0
POLYLINE
  8
0
  66
1
  70
1
  0
VERTEX
  8
0
  10
238.349195
  20
147.700489
  42
-0.560551
  0
VERTEX
  8
0
  10
234.294280
  20
143.649060
  42
-0.370872
  0
VERTEX
  8
0
  10
233.283806
  20
135.606934
  42
-0.323636
  0
VERTEX
  8
0
  10
240.805724
  20
133.481065
  42
-0.433809
  0
VERTEX
  8
0
  10
242.919229
  20
141.802853
  42
0.082102
  0
VERTEX
  8
0
  10
243.355622
  20
137.815539
  42
0.144231
  0
VERTEX
  8
0
  10
244.584105
  20
135.853177
  42
-0.086221
  0
VERTEX
  8
0
  10
247.160789
  20
133.499374
  42
-0.060960
  0
VERTEX
  8
0
  10
249.675711
  20
129.273116
  42
0.050595
  0
VERTEX
  8
0
  10
246.768533
  20
142.194537
  42
0.089983
  0
VERTEX
  8
0
  10
243.166140
  20
148.759148
  42
0.111453
  0
VERTEX
  8
0
  10
239.045726
  20
152.006386
  42
0.183677
  0
VERTEX
  8
0
  10
235.806342
  20
152.273070
  42
0.232489
  0
VERTEX
  8
0
  10
234.134602
  20
150.776510
  42
0.221996
  0
VERTEX
  8
0
  10
234.258838
  20
148.440644
  42
0.484127
  0
VERTEX
  8
0
  10
238.349195
  20
147.700489
  0
SEQEND
  0
POLYLINE
  8
0
  66
1
  70
1
  0
VERTEX
  8
0
  10
231.373508
  20
145.272241
  42
-0.526620
  0
VERTEX
  8
0
  10
232.662973
  20
153.305554
  42
0.244718
  0
VERTEX
  8
0
  10
224.447438
  20
151.230731
  42
0.246763
  0
VERTEX
  8
0
  10
221.487863
  20
143.357386
  42
0.123098
  0
VERTEX
  8
0
  10
222.907526
  20
140.000280
  42
0.124633
  0
VERTEX
  8
0
  10
225.712908
  20
137.742011
  42
0.280237
  0
VERTEX
  8
0
  10
232.444315
  20
138.531329
  0
VERTEX
  8
0
  10
232.457981
  20
138.545073
  42
-0.416845
  0
VERTEX
  8
0
  10
228.510167
  20
141.409746
  42
-0.417527
  0
VERTEX
  8
0
  10
231.373508
  20
145.272241
  0
SEQEND
  0
POLYLINE
  8
0
  66
1
  70
1
  0
VERTEX
  8
0
  10
217.125534
  20
154.081838
  0
VERTEX
  8
0
  10
217.132878
  20
152.704553
  42
-0.158305
  0
VERTEX
  8
0
  10
223.570682
  20
153.026590
  42
-0.127948
  0
VERTEX
  8
0
  10
225.446499
  20
154.105666
  42
0.257678
  0
VERTEX
  8
0
  10
217.125534
  20
154.081838
  0
SEQEND
  0
POLYLINE
  8
0
  66
1
  70
1
  0
VERTEX
  8
0
  10
245.320479
  20
150.404763
  42
-0.058107
  0
VERTEX
  8
0
  10
245.526602
  20
152.012445
  42
-0.172591
  0
VERTEX
  8
0
  10
245.836063
  20
152.479248
  42
-0.261504
  0
VERTEX
  8
0
  10
246.311417
  20
152.542368
  42
-0.099888
  0
VERTEX
  8
0
  10
247.304968
  20
151.893330
  0
VERTEX
  8
0
  10
250.455097
  20
149.078761
  42
0.058005
  0
VERTEX
  8
0
  10
250.188530
  20
152.510409
  42
0.058933
  0
VERTEX
  8
0
  10
249.151292
  20
155.735868
  42
0.120696
  0
VERTEX
  8
0
  10
248.934625
  20
155.976533
  42
0.143474
  0
VERTEX
  8
0
  10
248.673874
  20
156.060805
  42
0.319596
  0
VERTEX
  8
0
  10
248.257694
  20
155.781496
  42
-0.328158
  0
VERTEX
  8
0
  10
242.582193
  20
155.215041
  42
-0.030236
  0
VERTEX
  8
0
  10
244.681442
  20
151.996617
  42
-0.067984
  0
VERTEX
  8
0
  10
245.320479
  20
150.404763
  0
SEQEND
  0
POLYLINE
  8
0
  66
1
  70
1
  0
VERTEX
  8
0
  10
218.686384
  20
166.742559
  42
0.400555
  0
VERTEX
  8
0
  10
210.682691
  20
154.331889
  42
-0.419822
  0
VERTEX
  8
0
  10
215.760766
  20
155.151734
  42
-0.229949
  0
VERTEX
  8
0
  10
223.290752
  20
157.052305
  0
VERTEX
  8
0
  10
223.289215
  20
157.589103
  42
-0.303470
  0
VERTEX
  8
0
  10
218.686384
  20
166.742559
  0
SEQEND
  0
POLYLINE
  8
0
  66
1
  70
1
  0
VERTEX
  8
0
  10
247.713978
  20
158.195749
  0
VERTEX
  8
0
  10
247.705522
  20
161.148537
  42
0.430156
  0
VERTEX
  8
0
  10
244.218956
  20
161.313929
  42
0.436987
  0
VERTEX
  8
0
  10
244.282250
  20
157.867080
  42
0.436987
  0
VERTEX
  8
0
  10
247.713978
  20
158.195749
  0
SEQEND
  0
POLYLINE
  8
0
  66
1
  70
1
  0
VERTEX
  8
0
  10
242.094011
  20
152.274531
  42
0.070467
  0
VERTEX
  8
0
  10
236.660147
  20
159.958366
  42
0.078646
  0
VERTEX
  8
0
  10
229.978181
  20
165.118600
  42
-0.082386
  0
VERTEX
  8
0
  10
230.864699
  20
162.973495
  42
-0.151999
  0
VERTEX
  8
0
  10
230.769935
  20
161.698567
  42
-0.138702
  0
VERTEX
  8
0
  10
230.545940
  20
161.483751
  42
-0.233966
  0
VERTEX
  8
0
  10
230.355625
  20
161.478198
  42
-0.122517
  0
VERTEX
  8
0
  10
230.172979
  20
161.624185
  42
-0.049434
  0
VERTEX
  8
0
  10
229.871945
  20
162.110937
  42
0.235585
  0
VERTEX
  8
0
  10
228.860405
  20
162.888168
  42
0.203416
  0
VERTEX
  8
0
  10
227.434477
  20
162.585824
  42
0.237424
  0
VERTEX
  8
0
  10
226.980914
  20
161.418005
  42
0.252246
  0
VERTEX
  8
0
  10
227.641425
  20
160.431398
  42
-0.059203
  0
VERTEX
  8
0
  10
229.232547
  20
159.313260
  42
-0.107177
  0
VERTEX
  8
0
  10
229.867331
  20
158.436072
  42
-0.149940
  0
VERTEX
  8
0
  10
229.983220
  20
157.434763
  42
-0.117158
  0
VERTEX
  8
0
  10
229.466733
  20
156.264687
  42
-0.086577
  0
VERTEX
  8
0
  10
235.630755
  20
155.437853
  42
-0.074684
  0
VERTEX
  8
0
  10
242.094011
  20
152.274531
  0
SEQEND
  0
POLYLINE
  8
0
  66
1
  70
1
  0
VERTEX
  8
0
  10
222.744731
  20
160.271654
  42
-0.356733
  0
VERTEX
  8
0
  10
227.020197
  20
166.994525
  42
0.163605
  0
VERTEX
  8
0
  10
220.552987
  20
167.512308
  0
VERTEX
  8
0
  10
220.552987
  20
167.512308
  42
0.258985
  0
VERTEX
  8
0
  10
222.744731
  20
160.271654
  0
SEQEND
  0
POLYLINE
  8
0
  66
1
  70
1
  0
VERTEX
  8
0
  10
234.005899
  20
165.669545
  42
-0.036975
  0
VERTEX
  8
0
  10
237.359922
  20
162.542372
  42
-0.044963
  0
VERTEX
  8
0
  10
239.663371
  20
159.553515
  42
-0.368789
  0
VERTEX
  8
0
  10
243.467966
  20
164.887010
  42
-0.370118
  0
VERTEX
  8
0
  10
249.313710
  20
161.958446
  42
0.182343
  0
VERTEX
  8
0
  10
250.636588
  20
168.672661
  42
-0.333657
  0
VERTEX
  8
0
  10
246.557785
  20
167.910344
  42
-0.337430
  0
VERTEX
  8
0
  10
244.722856
  20
171.608539
  0
VERTEX
  8
0
  10
244.186059
  20
171.607001
  42
0.141390
  0
VERTEX
  8
0
  10
242.590170
  20
166.502310
  42
0.230444
  0
VERTEX
  8
0
  10
236.099380
  20
169.422935
  42
-0.484112
  0
VERTEX
  8
0
  10
234.005899
  20
165.669545
  0
SEQEND
  0
POLYLINE
  8
0
  66
1
  70
1
  0
VERTEX
  8
0
  10
221.376502
  20
169.394174
  42
-0.152630
  0
VERTEX
  8
0
  10
230.761411
  20
167.311911
  42
-0.493094
  0
VERTEX
  8
0
  10
232.375507
  20
171.573180
  42
0.533936
  0
VERTEX
  8
0
  10
221.376502
  20
169.394174
  0
SEQEND
  0
POLYLINE
  8
0
  66
1
  70
1
  0
VERTEX
  8
0
  10
254.391367
  20
149.010098
  0
VERTEX
  8
0
  10
251.391369
  20
149.014072
  0
VERTEX
  8
0
  10
251.396668
  20
153.014069
  0
VERTEX
  8
0
  10
254.396665
  20
153.010095
  0
VERTEX
  8
0
  10
254.391367
  20
149.010098
  0
SEQEND
  0
POLYLINE
  8
0
  66
1
  70
1
  0
VERTEX
  8
0
  10
333.759319
  20
126.569579
  42
0.026765
  0
VERTEX
  8
0
  10
333.756928
  20
126.616330
  42
0.007794
  0
VERTEX
  8
0
  10
333.737665
  20
126.775825
  0
VERTEX
  8
0
  10
333.728693
  20
126.861694
  42
0.106648
  0
VERTEX
  8
0
  10
333.349040
  20
127.750360
  42
0.055244
  0
VERTEX
  8
0
  10
332.119876
  20
129.133245
  0
VERTEX
  8
0
  10
330.742091
  20
130.211574
  0
VERTEX
  8
0
  10
329.359034
  20
129.139915
  42
0.055249
  0
VERTEX
  8
0
  10
328.123162
  20
127.762988
  42
0.106667
  0
VERTEX
  8
0
  10
327.739277
  20
126.876226
  0
VERTEX
  8
0
  10
327.729888
  20
126.790401
  42
0.008349
  0
VERTEX
  8
0
  10
327.709764
  20
126.633156
  42
0.027047
  0
VERTEX
  8
0
  10
327.706998
  20
126.584264
  0
VERTEX
  8
0
  10
327.707849
  20
126.578169
  0
VERTEX
  8
0
  10
327.706966
  20
126.570812
  42
0.414191
  0
VERTEX
  8
0
  10
329.216458
  20
125.064921
  42
0.305182
  0
VERTEX
  8
0
  10
330.729735
  20
126.063416
  42
0.305087
  0
VERTEX
  8
0
  10
332.242740
  20
125.057579
  42
0.414191
  0
VERTEX
  8
0
  10
333.759521
  20
126.556127
  0
VERTEX
  8
0
  10
333.758908
  20
126.563010
  0
VERTEX
  8
0
  10
333.759319
  20
126.569579
  0
SEQEND
  0
POLYLINE
  8
0
  66
1
  70
1
  0
VERTEX
  8
0
  10
337.982995
  20
113.894035
  42
0.414209
  0
VERTEX
  8
0
  10
334.449932
  20
117.397932
  42
0.147534
  0
VERTEX
  8
0
  10
332.306443
  20
116.745706
  42
0.151132
  0
VERTEX
  8
0
  10
330.925520
  20
115.046628
  42
0.150974
  0
VERTEX
  8
0
  10
329.538999
  20
116.739919
  42
0.147920
  0
VERTEX
  8
0
  10
327.401278
  20
117.380830
  42
0.414209
  0
VERTEX
  8
0
  10
323.885260
  20
113.859830
  0
VERTEX
  8
0
  10
323.887079
  20
113.842517
  0
VERTEX
  8
0
  10
323.885336
  20
113.828421
  42
0.026838
  0
VERTEX
  8
0
  10
323.891830
  20
113.712765
  42
0.008412
  0
VERTEX
  8
0
  10
323.938457
  20
113.346360
  0
VERTEX
  8
0
  10
323.960699
  20
113.145845
  42
0.106385
  0
VERTEX
  8
0
  10
324.855815
  20
111.070998
  42
0.055229
  0
VERTEX
  8
0
  10
327.733547
  20
107.852819
  42
0.012385
  0
VERTEX
  8
0
  10
328.790689
  20
106.951367
  42
0.011588
  0
VERTEX
  8
0
  10
329.965480
  20
106.043121
  0
VERTEX
  8
0
  10
330.954929
  20
105.347233
  0
VERTEX
  8
0
  10
331.940993
  20
106.047949
  42
0.011587
  0
VERTEX
  8
0
  10
333.111369
  20
106.961926
  42
0.012384
  0
VERTEX
  8
0
  10
334.164134
  20
107.868533
  42
0.055224
  0
VERTEX
  8
0
  10
337.026278
  20
111.100740
  42
0.106378
  0
VERTEX
  8
0
  10
337.911360
  20
113.179917
  0
VERTEX
  8
0
  10
337.932289
  20
113.380537
  42
0.008049
  0
VERTEX
  8
0
  10
337.977334
  20
113.751002
  42
0.026838
  0
VERTEX
  8
0
  10
337.983070
  20
113.862849
  0
VERTEX
  8
0
  10
337.981256
  20
113.877820
  0
VERTEX
  8
0
  10
337.982995
  20
113.894035
  0
SEQEND
  0
POLYLINE
  8
0
  66
1
  70
1
  0
VERTEX
  8
0
  10
336.831286
  20
172.822294
  42
-0.201276
  0
VERTEX
  8
0
  10
337.077168
  20
173.416577
  42
-0.132915
  0
VERTEX
  8
0
  10
337.905230
  20
173.887370
  0
VERTEX
  8
0
  10
338.174011
  20
174.439531
  0
VERTEX
  8
0
  10
332.480358
  20
174.454878
  42
0.059285
  0
VERTEX
  8
0
  10
333.561331
  20
171.465255
  42
0.100549
  0
VERTEX
  8
0
  10
334.726760
  20
169.981479
  42
0.134988
  0
VERTEX
  8
0
  10
336.344130
  20
169.227520
  42
0.111286
  0
VERTEX
  8
0
  10
338.493144
  20
169.343245
  42
0.222893
  0
VERTEX
  8
0
  10
339.689726
  20
170.363821
  42
0.282743
  0
VERTEX
  8
0
  10
339.530570
  20
171.629389
  42
0.516630
  0
VERTEX
  8
0
  10
337.092008
  20
171.471817
  0
VERTEX
  8
0
  10
336.823609
  20
171.472586
  0
VERTEX
  8
0
  10
336.831286
  20
172.822294
  0
SEQEND
  0
POLYLINE
  8
0
  66
1
  70
1
  0
VERTEX
  8
0
  10
340.858348
  20
174.413644
  0
VERTEX
  8
0
  10
340.857000
  20
173.943024
  42
-0.327147
  0
VERTEX
  8
0
  10
343.138874
  20
171.899058
  42
-0.315889
  0
VERTEX
  8
0
  10
341.916670
  20
169.042191
  0
VERTEX
  8
0
  10
347.821793
  20
169.006781
  42
0.179173
  0
VERTEX
  8
0
  10
350.030992
  20
169.858247
  42
0.213197
  0
VERTEX
  8
0
  10
350.867962
  20
171.691745
  42
0.213469
  0
VERTEX
  8
0
  10
350.027028
  20
173.611980
  42
0.191974
  0
VERTEX
  8
0
  10
347.862046
  20
174.422109
  0
VERTEX
  8
0
  10
340.858348
  20
174.413644
  0
SEQEND
  0
POLYLINE
  8
0
  66
1
  70
1
  0
VERTEX
  8
0
  10
349.714789
  20
160.404805
  42
-0.054073
  0
VERTEX
  8
0
  10
350.926184
  20
161.078114
  42
-0.098845
  0
VERTEX
  8
0
  10
351.673985
  20
161.231417
  42
-0.148610
  0
VERTEX
  8
0
  10
352.346606
  20
161.030768
  42
-0.126212
  0
VERTEX
  8
0
  10
352.897328
  20
160.421211
  42
0.482794
  0
VERTEX
  8
0
  10
352.580776
  20
157.659200
  42
0.282753
  0
VERTEX
  8
0
  10
353.854374
  20
157.355484
  42
0.239483
  0
VERTEX
  8
0
  10
354.922743
  20
158.427571
  42
0.106877
  0
VERTEX
  8
0
  10
354.912250
  20
161.613131
  42
0.151037
  0
VERTEX
  8
0
  10
353.787408
  20
163.595840
  42
0.118383
  0
VERTEX
  8
0
  10
351.697692
  20
164.790312
  42
0.066053
  0
VERTEX
  8
0
  10
347.473866
  20
165.435981
  42
-0.066372
  0
VERTEX
  8
0
  10
337.156564
  20
166.754693
  42
-0.138099
  0
VERTEX
  8
0
  10
332.791077
  20
169.336825
  42
0.345818
  0
VERTEX
  8
0
  10
340.538449
  20
156.430286
  0
VERTEX
  8
0
  10
340.549979
  20
160.456570
  42
-0.212665
  0
VERTEX
  8
0
  10
341.844471
  20
163.410609
  42
-0.188307
  0
VERTEX
  8
0
  10
345.213263
  20
164.703492
  42
-0.397983
  0
VERTEX
  8
0
  10
349.714789
  20
160.404805
  0
SEQEND
  0
POLYLINE
  8
0
  66
1
  70
1
  0
VERTEX
  8
0
  10
344.767697
  20
153.939040
  42
0.446561
  0
VERTEX
  8
0
  10
353.149585
  20
154.783666
  42
-0.277461
  0
VERTEX
  8
0
  10
349.593823
  20
155.573664
  42
-0.274166
  0
VERTEX
  8
0
  10
348.598802
  20
159.091315
  42
-0.361419
  0
VERTEX
  8
0
  10
345.324457
  20
159.159391
  42
-0.368969
  0
VERTEX
  8
0
  10
344.842851
  20
162.361284
  42
0.446673
  0
VERTEX
  8
0
  10
344.767697
  20
153.939040
  0
SEQEND
  0
POLYLINE
  8
0
  66
1
  70
1
  0
VERTEX
  8
0
  10
336.998231
  20
138.724452
  42
-0.047518
  0
VERTEX
  8
0
  10
335.620641
  20
141.418959
  42
-0.051671
  0
VERTEX
  8
0
  10
334.866213
  20
144.098979
  0
VERTEX
  8
0
  10
334.329415
  20
144.100516
  42
-0.265765
  0
VERTEX
  8
0
  10
332.979852
  20
141.151769
  42
-0.106393
  0
VERTEX
  8
0
  10
334.393158
  20
140.665456
  42
-0.048515
  0
VERTEX
  8
0
  10
336.998231
  20
138.724452
  0
SEQEND
  0
POLYLINE
  8
0
  66
1
  70
1
  0
VERTEX
  8
0
  10
345.319297
  20
138.700623
  42
-0.560551
  0
VERTEX
  8
0
  10
349.397349
  20
142.728761
  42
-0.370872
  0
VERTEX
  8
0
  10
350.453866
  20
150.764969
  42
-0.323636
  0
VERTEX
  8
0
  10
342.944246
  20
152.933883
  42
-0.433809
  0
VERTEX
  8
0
  10
340.783114
  20
144.624335
  42
0.082102
  0
VERTEX
  8
0
  10
340.369566
  20
148.614083
  42
0.144231
  0
VERTEX
  8
0
  10
339.152341
  20
150.583449
  42
-0.086221
  0
VERTEX
  8
0
  10
336.589180
  20
152.951971
  42
-0.060960
  0
VERTEX
  8
0
  10
334.098505
  20
157.192563
  42
0.050595
  0
VERTEX
  8
0
  10
336.931630
  20
144.254704
  42
0.089983
  0
VERTEX
  8
0
  10
340.496367
  20
137.669568
  42
0.111453
  0
VERTEX
  8
0
  10
344.598116
  20
134.398785
  42
0.183677
  0
VERTEX
  8
0
  10
347.835920
  20
134.113553
  42
0.232489
  0
VERTEX
  8
0
  10
349.516203
  20
135.600514
  42
0.221996
  0
VERTEX
  8
0
  10
349.405347
  20
137.937053
  42
0.484127
  0
VERTEX
  8
0
  10
345.319297
  20
138.700623
  0
SEQEND
  0
POLYLINE
  8
0
  66
1
  70
1
  0
VERTEX
  8
0
  10
352.308777
  20
141.088879
  42
-0.526620
  0
VERTEX
  8
0
  10
350.973324
  20
133.063082
  42
0.244718
  0
VERTEX
  8
0
  10
359.200606
  20
135.090819
  42
0.246763
  0
VERTEX
  8
0
  10
362.205226
  20
142.947085
  42
0.123098
  0
VERTEX
  8
0
  10
360.804813
  20
146.312266
  42
0.124633
  0
VERTEX
  8
0
  10
358.012411
  20
148.586566
  42
0.280237
  0
VERTEX
  8
0
  10
351.276594
  20
147.835814
  0
VERTEX
  8
0
  10
351.262849
  20
147.822147
  42
-0.416845
  0
VERTEX
  8
0
  10
355.194192
  20
144.934911
  42
-0.417527
  0
VERTEX
  8
0
  10
352.308777
  20
141.088879
  0
SEQEND
  0
POLYLINE
  8
0
  66
1
  70
1
  0
VERTEX
  8
0
  10
366.506062
  20
132.197825
  0
VERTEX
  8
0
  10
366.506606
  20
133.575129
  42
-0.158305
  0
VERTEX
  8
0
  10
360.067063
  20
133.289968
  42
-0.127948
  0
VERTEX
  8
0
  10
358.185096
  20
132.221653
  42
0.257678
  0
VERTEX
  8
0
  10
366.506062
  20
132.197825
  0
SEQEND
  0
POLYLINE
  8
0
  66
1
  70
1
  0
VERTEX
  8
0
  10
338.332638
  20
136.036319
  42
-0.058107
  0
VERTEX
  8
0
  10
338.117311
  20
134.429844
  42
-0.172591
  0
VERTEX
  8
0
  10
337.805182
  20
133.964822
  42
-0.261504
  0
VERTEX
  8
0
  10
337.329474
  20
133.904425
  42
-0.099888
  0
VERTEX
  8
0
  10
336.339656
  20
134.559142
  0
VERTEX
  8
0
  10
333.205699
  20
137.391707
  42
0.058005
  0
VERTEX
  8
0
  10
333.452608
  20
133.958589
  42
0.058933
  0
VERTEX
  8
0
  10
334.471356
  20
130.727242
  42
0.120696
  0
VERTEX
  8
0
  10
334.686640
  20
130.485339
  42
0.143474
  0
VERTEX
  8
0
  10
334.946905
  20
130.399576
  42
0.319596
  0
VERTEX
  8
0
  10
335.364678
  20
130.676497
  42
-0.328158
  0
VERTEX
  8
0
  10
341.043330
  20
131.210437
  42
-0.030236
  0
VERTEX
  8
0
  10
338.962548
  20
134.440832
  42
-0.067984
  0
VERTEX
  8
0
  10
338.332638
  20
136.036319
  0
SEQEND
  0
POLYLINE
  8
0
  66
1
  70
1
  0
VERTEX
  8
0
  10
364.872725
  20
119.546250
  42
0.400555
  0
VERTEX
  8
0
  10
372.947367
  20
131.910878
  42
-0.419822
  0
VERTEX
  8
0
  10
367.864679
  20
131.120130
  42
-0.229949
  0
VERTEX
  8
0
  10
360.323931
  20
129.262716
  0
VERTEX
  8
0
  10
360.322394
  20
128.725918
  42
-0.303470
  0
VERTEX
  8
0
  10
364.872725
  20
119.546250
  0
SEQEND
  0
POLYLINE
  8
0
  66
1
  70
1
  0
VERTEX
  8
0
  10
335.894557
  20
128.259169
  0
VERTEX
  8
0
  10
335.886102
  20
125.306381
  42
0.430156
  0
VERTEX
  8
0
  10
339.371664
  20
125.121023
  42
0.436987
  0
VERTEX
  8
0
  10
339.328111
  20
128.568179
  42
0.436987
  0
VERTEX
  8
0
  10
335.894557
  20
128.259169
  0
SEQEND
  0
POLYLINE
  8
0
  66
1
  70
1
  0
VERTEX
  8
0
  10
341.548344
  20
134.148103
  42
0.070467
  0
VERTEX
  8
0
  10
346.938113
  20
126.433273
  42
0.078646
  0
VERTEX
  8
0
  10
353.590415
  20
121.234854
  42
-0.082386
  0
VERTEX
  8
0
  10
352.716197
  20
123.385001
  42
-0.151999
  0
VERTEX
  8
0
  10
352.818261
  20
124.659366
  42
-0.138702
  0
VERTEX
  8
0
  10
353.043483
  20
124.872895
  42
-0.233966
  0
VERTEX
  8
0
  10
353.233827
  20
124.877358
  42
-0.122517
  0
VERTEX
  8
0
  10
353.415633
  20
124.730328
  42
-0.049434
  0
VERTEX
  8
0
  10
353.713874
  20
124.241859
  42
0.235585
  0
VERTEX
  8
0
  10
354.720947
  20
123.458848
  42
0.203416
  0
VERTEX
  8
0
  10
356.148583
  20
123.753020
  42
0.237424
  0
VERTEX
  8
0
  10
356.608826
  20
124.918222
  42
0.252246
  0
VERTEX
  8
0
  10
355.953977
  20
125.908596
  42
-0.059203
  0
VERTEX
  8
0
  10
354.369285
  20
127.035829
  42
-0.107177
  0
VERTEX
  8
0
  10
353.739536
  20
127.916637
  42
-0.149940
  0
VERTEX
  8
0
  10
353.629383
  20
128.918594
  42
-0.117158
  0
VERTEX
  8
0
  10
354.152563
  20
130.085692
  42
-0.086577
  0
VERTEX
  8
0
  10
347.993377
  20
130.947816
  42
-0.074684
  0
VERTEX
  8
0
  10
341.548344
  20
134.148103
  0
SEQEND
  0
POLYLINE
  8
0
  66
1
  70
1
  0
VERTEX
  8
0
  10
360.851506
  20
126.040292
  42
-0.356733
  0
VERTEX
  8
0
  10
356.537606
  20
119.342018
  42
0.163605
  0
VERTEX
  8
0
  10
363.001744
  20
118.787205
  0
VERTEX
  8
0
  10
363.001744
  20
118.787205
  42
0.258985
  0
VERTEX
  8
0
  10
360.851506
  20
126.040292
  0
SEQEND
  0
POLYLINE
  8
0
  66
1
  70
1
  0
VERTEX
  8
0
  10
349.559607
  20
120.706986
  42
-0.036975
  0
VERTEX
  8
0
  10
346.223549
  20
123.853317
  42
-0.044963
  0
VERTEX
  8
0
  10
343.937256
  20
126.855317
  42
-0.368789
  0
VERTEX
  8
0
  10
340.102177
  20
121.543700
  42
-0.370118
  0
VERTEX
  8
0
  10
334.273302
  20
124.505697
  42
0.182343
  0
VERTEX
  8
0
  10
332.911991
  20
117.799167
  42
-0.333657
  0
VERTEX
  8
0
  10
336.995093
  20
118.538112
  42
-0.337430
  0
VERTEX
  8
0
  10
338.808811
  20
114.829469
  0
VERTEX
  8
0
  10
339.345609
  20
114.827932
  42
0.141390
  0
VERTEX
  8
0
  10
340.970707
  20
119.923399
  42
0.230444
  0
VERTEX
  8
0
  10
347.444664
  20
116.965647
  42
-0.484112
  0
VERTEX
  8
0
  10
349.559607
  20
120.706986
  0
SEQEND
  0
POLYLINE
  8
0
  66
1
  70
1
  0
VERTEX
  8
0
  10
362.167465
  20
116.910086
  42
-0.152630
  0
VERTEX
  8
0
  10
352.794636
  20
119.046064
  42
-0.493094
  0
VERTEX
  8
0
  10
351.156161
  20
114.794110
  42
0.533936
  0
VERTEX
  8
0
  10
362.167465
  20
116.910086
  0
SEQEND
  0
POLYLINE
  8
0
  66
1
  70
1
  0
VERTEX
  8
0
  10
330.801027
  20
102.205444
  42
-0.175715
  0
VERTEX
  8
0
  10
330.189572
  20
102.465590
  42
-0.190301
  0
VERTEX
  8
0
  10
329.924338
  20
103.022385
  42
0.073573
  0
VERTEX
  8
0
  10
328.931653
  20
104.981266
  42
0.086119
  0
VERTEX
  8
0
  10
327.599277
  20
106.307423
  42
-0.261819
  0
VERTEX
  8
0
  10
319.290584
  20
116.497671
  42
-0.261934
  0
VERTEX
  8
0
  10
313.062469
  20
114.130418
  42
-0.286287
  0
VERTEX
  8
0
  10
304.069163
  20
110.936024
  42
-0.281757
  0
VERTEX
  8
0
  10
297.153696
  20
117.583999
  42
-0.252412
  0
VERTEX
  8
0
  10
286.384658
  20
125.407652
  42
-0.221322
  0
VERTEX
  8
0
  10
285.869556
  20
132.682167
  42
-0.217626
  0
VERTEX
  8
0
  10
291.148023
  20
137.875784
  42
-0.246618
  0
VERTEX
  8
0
  10
291.492666
  20
139.886253
  42
-0.237689
  0
VERTEX
  8
0
  10
293.389960
  20
140.804432
  42
0.260721
  0
VERTEX
  8
0
  10
295.088399
  20
136.246217
  42
0.264357
  0
VERTEX
  8
0
  10
299.810518
  20
135.352028
  42
-0.294693
  0
VERTEX
  8
0
  10
297.986541
  20
146.403527
  42
-0.307947
  0
VERTEX
  8
0
  10
307.310924
  20
152.292883
  42
-0.308338
  0
VERTEX
  8
0
  10
304.211899
  20
161.357841
  42
-0.319939
  0
VERTEX
  8
0
  10
311.541122
  20
167.314077
  42
-0.308978
  0
VERTEX
  8
0
  10
308.891554
  20
172.597159
  42
-0.326778
  0
VERTEX
  8
0
  10
312.904323
  20
176.760946
  42
0.003766
  0
VERTEX
  8
0
  10
313.709316
  20
176.742220
  42
0.003782
  0
VERTEX
  8
0
  10
314.510930
  20
176.735676
  0
VERTEX
  8
0
  10
349.151062
  20
176.757598
  42
-0.319226
  0
VERTEX
  8
0
  10
353.139632
  20
172.470898
  42
-0.308978
  0
VERTEX
  8
0
  10
350.459850
  20
167.203077
  42
-0.319939
  0
VERTEX
  8
0
  10
357.754839
  20
161.204962
  42
-0.308338
  0
VERTEX
  8
0
  10
354.603947
  20
152.157902
  42
-0.307947
  0
VERTEX
  8
0
  10
363.894448
  20
146.215239
  42
-0.294693
  0
VERTEX
  8
0
  10
362.007206
  20
135.174368
  42
0.264357
  0
VERTEX
  8
0
  10
366.734368
  20
136.041497
  42
0.260721
  0
VERTEX
  8
0
  10
368.458886
  20
140.589910
  42
-0.237689
  0
VERTEX
  8
0
  10
370.350890
  20
139.660880
  42
-0.246618
  0
VERTEX
  8
0
  10
370.684013
  20
137.648470
  42
-0.217626
  0
VERTEX
  8
0
  10
375.932648
  20
132.424706
  42
-0.221322
  0
VERTEX
  8
0
  10
375.375891
  20
125.153261
  42
-0.252412
  0
VERTEX
  8
0
  10
364.562221
  20
117.391414
  42
-0.281757
  0
VERTEX
  8
0
  10
357.608793
  20
110.783154
  42
-0.286287
  0
VERTEX
  8
0
  10
348.633930
  20
114.029003
  42
-0.261934
  0
VERTEX
  8
0
  10
342.419475
  20
116.431887
  42
-0.261819
  0
VERTEX
  8
0
  10
334.052556
  20
106.289393
  42
0.086119
  0
VERTEX
  8
0
  10
332.712607
  20
104.970889
  42
0.073573
  0
VERTEX
  8
0
  10
331.708719
  20
103.017725
  42
-0.194040
  0
VERTEX
  8
0
  10
331.437083
  20
102.465994
  42
-0.172274
  0
VERTEX
  8
0
  10
330.801027
  20
102.205444
  0
SEQEND
  0
POLYLINE
  8
0
  66
1
  70
1
  0
VERTEX
  8
0
  10
325.032922
  20
172.955631
  42
0.201276
  0
VERTEX
  8
0
  10
324.790448
  20
173.551313
  42
0.132915
  0
VERTEX
  8
0
  10
323.965096
  20
174.026841
  0
VERTEX
  8
0
  10
323.699482
  20
174.580532
  0
VERTEX
  8
0
  10
329.393129
  20
174.563269
  42
-0.059285
  0
VERTEX
  8
0
  10
328.295052
  20
171.579887
  42
-0.100549
  0
VERTEX
  8
0
  10
327.121143
  20
170.102810
  42
-0.134988
  0
VERTEX
  8
0
  10
325.499482
  20
169.358126
  42
-0.111286
  0
VERTEX
  8
0
  10
323.351166
  20
169.486157
  42
-0.222893
  0
VERTEX
  8
0
  10
322.160449
  20
170.513569
  42
-0.282743
  0
VERTEX
  8
0
  10
322.326850
  20
171.778205
  42
-0.516630
  0
VERTEX
  8
0
  10
324.764470
  20
171.606670
  0
VERTEX
  8
0
  10
325.032869
  20
171.605901
  0
VERTEX
  8
0
  10
325.032922
  20
172.955631
  0
SEQEND
  0
POLYLINE
  8
0
  66
1
  70
1
  0
VERTEX
  8
0
  10
321.015040
  20
174.570019
  0
VERTEX
  8
0
  10
321.013693
  20
174.099399
  42
0.327147
  0
VERTEX
  8
0
  10
318.720150
  20
172.068535
  42
0.315889
  0
VERTEX
  8
0
  10
319.925972
  20
169.204716
  0
VERTEX
  8
0
  10
314.020743
  20
169.203126
  42
-0.179173
  0
VERTEX
  8
0
  10
311.816457
  20
170.067231
  42
-0.213197
  0
VERTEX
  8
0
  10
310.990001
  20
171.905492
  42
-0.213469
  0
VERTEX
  8
0
  10
311.841920
  20
173.820879
  42
-0.191974
  0
VERTEX
  8
0
  10
314.011506
  20
174.618596
  0
VERTEX
  8
0
  10
321.015040
  20
174.570019
  0
SEQEND
  0
POLYLINE
  8
0
  66
1
  70
1
  0
VERTEX
  8
0
  10
312.078513
  20
160.612133
  42
0.054073
  0
VERTEX
  8
0
  10
310.870994
  20
161.292369
  42
0.098845
  0
VERTEX
  8
0
  10
310.124083
  20
161.449953
  42
0.148610
  0
VERTEX
  8
0
  10
309.450323
  20
161.253159
  42
0.126212
  0
VERTEX
  8
0
  10
308.896119
  20
160.646766
  42
-0.482794
  0
VERTEX
  8
0
  10
309.196848
  20
157.882987
  42
-0.282753
  0
VERTEX
  8
0
  10
307.921531
  20
157.586571
  42
-0.239483
  0
VERTEX
  8
0
  10
306.859319
  20
158.664759
  42
-0.106877
  0
VERTEX
  8
0
  10
306.888057
  20
161.850206
  42
-0.151037
  0
VERTEX
  8
0
  10
308.024236
  20
163.826441
  42
-0.118383
  0
VERTEX
  8
0
  10
310.120758
  20
165.008925
  42
-0.066053
  0
VERTEX
  8
0
  10
314.348214
  20
165.630393
  42
0.066372
  0
VERTEX
  8
0
  10
324.672899
  20
166.889992
  42
0.138099
  0
VERTEX
  8
0
  10
329.053103
  20
169.447080
  42
-0.345818
  0
VERTEX
  8
0
  10
321.231939
  20
156.585124
  0
VERTEX
  8
0
  10
321.243469
  20
160.611408
  42
0.212665
  0
VERTEX
  8
0
  10
319.965916
  20
163.572812
  42
0.188307
  0
VERTEX
  8
0
  10
316.604584
  20
164.884968
  42
0.397983
  0
VERTEX
  8
0
  10
312.078513
  20
160.612133
  0
SEQEND
  0
POLYLINE
  8
0
  66
1
  70
1
  0
VERTEX
  8
0
  10
316.988492
  20
154.118140
  42
-0.446561
  0
VERTEX
  8
0
  10
308.611579
  20
155.010758
  42
0.277461
  0
VERTEX
  8
0
  10
312.171807
  20
155.780378
  42
0.274166
  0
VERTEX
  8
0
  10
313.186958
  20
159.292273
  42
0.361419
  0
VERTEX
  8
0
  10
316.461639
  20
159.341595
  42
0.368969
  0
VERTEX
  8
0
  10
316.961576
  20
162.540677
  42
-0.446673
  0
VERTEX
  8
0
  10
316.988492
  20
154.118140
  0
SEQEND
  0
POLYLINE
  8
0
  66
1
  70
1
  0
VERTEX
  8
0
  10
331.185789
  20
164.340852
  42
0.040939
  0
VERTEX
  8
0
  10
332.056944
  20
154.039594
  42
0.058767
  0
VERTEX
  8
0
  10
334.075667
  20
147.113205
  42
0.550060
  0
VERTEX
  8
0
  10
327.433954
  20
146.943253
  42
0.038270
  0
VERTEX
  8
0
  10
329.299876
  20
153.898946
  42
0.026136
  0
VERTEX
  8
0
  10
330.700535
  20
164.342241
  0
VERTEX
  8
0
  10
331.185789
  20
164.340852
  0
SEQEND
  0
POLYLINE
  8
0
  66
1
  70
1
  0
VERTEX
  8
0
  10
324.670692
  20
138.859304
  42
0.047518
  0
VERTEX
  8
0
  10
326.063692
  20
141.545877
  42
0.051671
  0
VERTEX
  8
0
  10
326.833457
  20
144.221533
  0
VERTEX
  8
0
  10
327.370255
  20
144.219995
  42
0.265765
  0
VERTEX
  8
0
  10
328.702907
  20
141.263567
  42
0.106393
  0
VERTEX
  8
0
  10
327.286840
  20
140.785357
  42
0.048515
  0
VERTEX
  8
0
  10
324.670692
  20
138.859304
  0
SEQEND
  0
POLYLINE
  8
0
  66
1
  70
1
  0
VERTEX
  8
0
  10
316.349627
  20
138.883133
  42
0.560551
  0
VERTEX
  8
0
  10
312.294712
  20
142.934561
  42
0.370872
  0
VERTEX
  8
0
  10
311.284238
  20
150.976688
  42
0.323636
  0
VERTEX
  8
0
  10
318.806156
  20
153.102556
  42
0.433809
  0
VERTEX
  8
0
  10
320.919661
  20
144.780768
  42
-0.082102
  0
VERTEX
  8
0
  10
321.356054
  20
148.768082
  42
-0.144231
  0
VERTEX
  8
0
  10
322.584537
  20
150.730444
  42
0.086221
  0
VERTEX
  8
0
  10
325.161221
  20
153.084247
  42
0.060960
  0
VERTEX
  8
0
  10
327.676143
  20
157.310505
  42
-0.050595
  0
VERTEX
  8
0
  10
324.768965
  20
144.389084
  42
-0.089983
  0
VERTEX
  8
0
  10
321.166572
  20
137.824473
  42
-0.111453
  0
VERTEX
  8
0
  10
317.046158
  20
134.577235
  42
-0.183677
  0
VERTEX
  8
0
  10
313.806774
  20
134.310551
  42
-0.232489
  0
VERTEX
  8
0
  10
312.135034
  20
135.807111
  42
-0.221996
  0
VERTEX
  8
0
  10
312.259270
  20
138.142977
  42
-0.484127
  0
VERTEX
  8
0
  10
316.349627
  20
138.883133
  0
SEQEND
  0
POLYLINE
  8
0
  66
1
  70
1
  0
VERTEX
  8
0
  10
309.373940
  20
141.311380
  42
0.526620
  0
VERTEX
  8
0
  10
310.663405
  20
133.278067
  42
-0.244718
  0
VERTEX
  8
0
  10
302.447870
  20
135.352890
  42
-0.246763
  0
VERTEX
  8
0
  10
299.488295
  20
143.226236
  42
-0.123098
  0
VERTEX
  8
0
  10
300.907958
  20
146.583341
  42
-0.124633
  0
VERTEX
  8
0
  10
303.713340
  20
148.841610
  42
-0.280237
  0
VERTEX
  8
0
  10
310.444747
  20
148.052293
  0
VERTEX
  8
0
  10
310.458413
  20
148.038548
  42
0.416845
  0
VERTEX
  8
0
  10
306.510599
  20
145.173875
  42
0.417527
  0
VERTEX
  8
0
  10
309.373940
  20
141.311380
  0
SEQEND
  0
POLYLINE
  8
0
  66
1
  70
1
  0
VERTEX
  8
0
  10
295.125966
  20
132.501784
  0
VERTEX
  8
0
  10
295.133310
  20
133.879068
  42
0.158305
  0
VERTEX
  8
0
  10
301.571114
  20
133.557031
  42
0.127948
  0
VERTEX
  8
0
  10
303.446931
  20
132.477955
  42
-0.257678
  0
VERTEX
  8
0
  10
295.125966
  20
132.501784
  0
SEQEND
  0
POLYLINE
  8
0
  66
1
  70
1
  0
VERTEX
  8
0
  10
323.320911
  20
136.178858
  42
0.058107
  0
VERTEX
  8
0
  10
323.527034
  20
134.571176
  42
0.172591
  0
VERTEX
  8
0
  10
323.836495
  20
134.104374
  42
0.261504
  0
VERTEX
  8
0
  10
324.311849
  20
134.041254
  42
0.099888
  0
VERTEX
  8
0
  10
325.305400
  20
134.690291
  0
VERTEX
  8
0
  10
328.455529
  20
137.504860
  42
-0.058005
  0
VERTEX
  8
0
  10
328.188962
  20
134.073213
  42
-0.058933
  0
VERTEX
  8
0
  10
327.151724
  20
130.847753
  42
-0.120696
  0
VERTEX
  8
0
  10
326.935057
  20
130.607088
  42
-0.143474
  0
VERTEX
  8
0
  10
326.674306
  20
130.522816
  42
-0.319596
  0
VERTEX
  8
0
  10
326.258126
  20
130.802125
  42
0.328158
  0
VERTEX
  8
0
  10
320.582625
  20
131.368580
  42
0.030236
  0
VERTEX
  8
0
  10
322.681874
  20
134.587005
  42
0.067984
  0
VERTEX
  8
0
  10
323.320911
  20
136.178858
  0
SEQEND
  0
POLYLINE
  8
0
  66
1
  70
1
  0
VERTEX
  8
0
  10
296.686816
  20
119.841062
  42
-0.400555
  0
VERTEX
  8
0
  10
288.683123
  20
132.251733
  42
0.419822
  0
VERTEX
  8
0
  10
293.761198
  20
131.431888
  42
0.229949
  0
VERTEX
  8
0
  10
301.291184
  20
129.531317
  0
VERTEX
  8
0
  10
301.289647
  20
128.994519
  42
0.303470
  0
VERTEX
  8
0
  10
296.686816
  20
119.841062
  0
SEQEND
  0
POLYLINE
  8
0
  66
1
  70
1
  0
VERTEX
  8
0
  10
325.714410
  20
128.387872
  0
VERTEX
  8
0
  10
325.705954
  20
125.435084
  42
-0.430156
  0
VERTEX
  8
0
  10
322.219388
  20
125.269692
  42
-0.436987
  0
VERTEX
  8
0
  10
322.282682
  20
128.716542
  42
-0.436987
  0
VERTEX
  8
0
  10
325.714410
  20
128.387872
  0
SEQEND
  0
POLYLINE
  8
0
  66
1
  70
1
  0
VERTEX
  8
0
  10
320.094443
  20
134.309090
  42
-0.070467
  0
VERTEX
  8
0
  10
314.660579
  20
126.625255
  42
-0.078646
  0
VERTEX
  8
0
  10
307.978613
  20
121.465022
  42
0.082386
  0
VERTEX
  8
0
  10
308.865131
  20
123.610127
  42
0.151999
  0
VERTEX
  8
0
  10
308.770367
  20
124.885054
  42
0.138702
  0
VERTEX
  8
0
  10
308.546372
  20
125.099870
  42
0.233966
  0
VERTEX
  8
0
  10
308.356057
  20
125.105424
  42
0.122517
  0
VERTEX
  8
0
  10
308.173411
  20
124.959436
  42
0.049434
  0
VERTEX
  8
0
  10
307.872377
  20
124.472684
  42
-0.235585
  0
VERTEX
  8
0
  10
306.860837
  20
123.695454
  42
-0.203416
  0
VERTEX
  8
0
  10
305.434909
  20
123.997797
  42
-0.237424
  0
VERTEX
  8
0
  10
304.981346
  20
125.165617
  42
-0.252246
  0
VERTEX
  8
0
  10
305.641857
  20
126.152223
  42
0.059203
  0
VERTEX
  8
0
  10
307.232979
  20
127.270362
  42
0.107177
  0
VERTEX
  8
0
  10
307.867763
  20
128.147549
  42
0.149940
  0
VERTEX
  8
0
  10
307.983652
  20
129.148858
  42
0.117158
  0
VERTEX
  8
0
  10
307.467165
  20
130.318934
  42
0.086577
  0
VERTEX
  8
0
  10
313.631187
  20
131.145768
  42
0.074684
  0
VERTEX
  8
0
  10
320.094443
  20
134.309090
  0
SEQEND
  0
POLYLINE
  8
0
  66
1
  70
1
  0
VERTEX
  8
0
  10
300.745163
  20
126.311967
  42
0.356733
  0
VERTEX
  8
0
  10
305.020629
  20
119.589096
  42
-0.163605
  0
VERTEX
  8
0
  10
298.553419
  20
119.071314
  0
VERTEX
  8
0
  10
298.553419
  20
119.071314
  42
-0.258985
  0
VERTEX
  8
0
  10
300.745163
  20
126.311967
  0
SEQEND
  0
POLYLINE
  8
0
  66
1
  70
1
  0
VERTEX
  8
0
  10
312.006331
  20
120.914076
  42
0.036975
  0
VERTEX
  8
0
  10
315.360354
  20
124.041249
  42
0.044963
  0
VERTEX
  8
0
  10
317.663803
  20
127.030106
  42
0.368789
  0
VERTEX
  8
0
  10
321.468398
  20
121.696611
  42
0.370118
  0
VERTEX
  8
0
  10
327.314142
  20
124.625176
  42
-0.182343
  0
VERTEX
  8
0
  10
328.637020
  20
117.910960
  42
0.333657
  0
VERTEX
  8
0
  10
324.558217
  20
118.673278
  42
0.337430
  0
VERTEX
  8
0
  10
322.723288
  20
114.975083
  0
VERTEX
  8
0
  10
322.186491
  20
114.976620
  42
-0.141390
  0
VERTEX
  8
0
  10
320.590602
  20
120.081311
  42
-0.230444
  0
VERTEX
  8
0
  10
314.099812
  20
117.160686
  42
0.484112
  0
VERTEX
  8
0
  10
312.006331
  20
120.914076
  0
SEQEND
  0
POLYLINE
  8
0
  66
1
  70
1
  0
VERTEX
  8
0
  10
299.376934
  20
117.189448
  42
0.152630
  0
VERTEX
  8
0
  10
308.761843
  20
119.271710
  42
0.493094
  0
VERTEX
  8
0
  10
310.375939
  20
115.010441
  42
-0.533936
  0
VERTEX
  8
0
  10
299.376934
  20
117.189448
  0
SEQEND
  0
POLYLINE
  8
0
  66
1
  70
1
  0
VERTEX
  8
0
  10
332.391799
  20
137.573523
  0
VERTEX
  8
0
  10
329.391801
  20
137.569549
  0
VERTEX
  8
0
  10
329.397100
  20
133.569553
  0
VERTEX
  8
0
  10
332.397097
  20
133.573527
  0
VERTEX
  8
0
  10
332.391799
  20
137.573523
  0
SEQEND
  0
POLYLINE
  8
0
  66
1
  70
1
  0
VERTEX
  8
0
  10
261.792033
  20
76.760324
  42
-0.026765
  0
VERTEX
  8
0
  10
261.789642
  20
76.713574
  42
-0.007794
  0
VERTEX
  8
0
  10
261.770379
  20
76.554079
  0
VERTEX
  8
0
  10
261.761407
  20
76.468209
  42
-0.106648
  0
VERTEX
  8
0
  10
261.381754
  20
75.579543
  42
-0.055244
  0
VERTEX
  8
0
  10
260.152590
  20
74.196658
  0
VERTEX
  8
0
  10
258.774805
  20
73.118329
  0
VERTEX
  8
0
  10
257.391748
  20
74.189988
  42
-0.055249
  0
VERTEX
  8
0
  10
256.155876
  20
75.566915
  42
-0.106667
  0
VERTEX
  8
0
  10
255.771991
  20
76.453677
  0
VERTEX
  8
0
  10
255.762602
  20
76.539502
  42
-0.008349
  0
VERTEX
  8
0
  10
255.742478
  20
76.696748
  42
-0.027047
  0
VERTEX
  8
0
  10
255.739713
  20
76.745640
  0
VERTEX
  8
0
  10
255.740563
  20
76.751734
  0
VERTEX
  8
0
  10
255.739680
  20
76.759092
  42
-0.414191
  0
VERTEX
  8
0
  10
257.249172
  20
78.264982
  42
-0.305182
  0
VERTEX
  8
0
  10
258.762449
  20
77.266488
  42
-0.305087
  0
VERTEX
  8
0
  10
260.275454
  20
78.272325
  42
-0.414191
  0
VERTEX
  8
0
  10
261.792235
  20
76.773777
  0
VERTEX
  8
0
  10
261.791622
  20
76.766894
  0
VERTEX
  8
0
  10
261.792033
  20
76.760324
  0
SEQEND
  0
POLYLINE
  8
0
  66
1
  70
1
  0
VERTEX
  8
0
  10
266.015709
  20
89.435869
  42
-0.414209
  0
VERTEX
  8
0
  10
262.482646
  20
85.931971
  42
-0.147534
  0
VERTEX
  8
0
  10
260.339158
  20
86.584197
  42
-0.151132
  0
VERTEX
  8
0
  10
258.958234
  20
88.283276
  42
-0.150974
  0
VERTEX
  8
0
  10
257.571713
  20
86.589985
  42
-0.147920
  0
VERTEX
  8
0
  10
255.433992
  20
85.949073
  42
-0.414209
  0
VERTEX
  8
0
  10
251.917974
  20
89.470074
  0
VERTEX
  8
0
  10
251.919793
  20
89.487387
  0
VERTEX
  8
0
  10
251.918050
  20
89.501483
  42
-0.026838
  0
VERTEX
  8
0
  10
251.924544
  20
89.617139
  42
-0.008412
  0
VERTEX
  8
0
  10
251.971171
  20
89.983544
  0
VERTEX
  8
0
  10
251.993413
  20
90.184059
  42
-0.106385
  0
VERTEX
  8
0
  10
252.888529
  20
92.258906
  42
-0.055229
  0
VERTEX
  8
0
  10
255.766261
  20
95.477085
  42
-0.012385
  0
VERTEX
  8
0
  10
256.823404
  20
96.378536
  42
-0.011588
  0
VERTEX
  8
0
  10
257.998194
  20
97.286783
  0
VERTEX
  8
0
  10
258.987643
  20
97.982671
  0
VERTEX
  8
0
  10
259.973707
  20
97.281954
  42
-0.011587
  0
VERTEX
  8
0
  10
261.144083
  20
96.367978
  42
-0.012384
  0
VERTEX
  8
0
  10
262.196848
  20
95.461371
  42
-0.055224
  0
VERTEX
  8
0
  10
265.058992
  20
92.229164
  42
-0.106378
  0
VERTEX
  8
0
  10
265.944075
  20
90.149987
  0
VERTEX
  8
0
  10
265.965003
  20
89.949367
  42
-0.008049
  0
VERTEX
  8
0
  10
266.010048
  20
89.578902
  42
-0.026838
  0
VERTEX
  8
0
  10
266.015784
  20
89.467054
  0
VERTEX
  8
0
  10
266.013970
  20
89.452083
  0
VERTEX
  8
0
  10
266.015709
  20
89.435869
  0
SEQEND
  0
POLYLINE
  8
0
  66
1
  70
1
  0
VERTEX
  8
0
  10
264.864000
  20
30.507609
  42
0.201276
  0
VERTEX
  8
0
  10
265.109882
  20
29.913326
  42
0.132915
  0
VERTEX
  8
0
  10
265.937944
  20
29.442533
  0
VERTEX
  8
0
  10
266.206725
  20
28.890373
  0
VERTEX
  8
0
  10
260.513072
  20
28.875025
  42
-0.059285
  0
VERTEX
  8
0
  10
261.594045
  20
31.864648
  42
-0.100549
  0
VERTEX
  8
0
  10
262.759474
  20
33.348424
  42
-0.134988
  0
VERTEX
  8
0
  10
264.376844
  20
34.102384
  42
-0.111286
  0
VERTEX
  8
0
  10
266.525858
  20
33.986658
  42
-0.222893
  0
VERTEX
  8
0
  10
267.722440
  20
32.966083
  42
-0.282743
  0
VERTEX
  8
0
  10
267.563284
  20
31.700515
  42
-0.516630
  0
VERTEX
  8
0
  10
265.124722
  20
31.858086
  0
VERTEX
  8
0
  10
264.856323
  20
31.857318
  0
VERTEX
  8
0
  10
264.864000
  20
30.507609
  0
SEQEND
  0
POLYLINE
  8
0
  66
1
  70
1
  0
VERTEX
  8
0
  10
268.891062
  20
28.916260
  0
VERTEX
  8
0
  10
268.889714
  20
29.386879
  42
0.327147
  0
VERTEX
  8
0
  10
271.171588
  20
31.430846
  42
0.315889
  0
VERTEX
  8
0
  10
269.949385
  20
34.287712
  0
VERTEX
  8
0
  10
275.854507
  20
34.323123
  42
-0.179173
  0
VERTEX
  8
0
  10
278.063706
  20
33.471657
  42
-0.213197
  0
VERTEX
  8
0
  10
278.900676
  20
31.638159
  42
-0.213469
  0
VERTEX
  8
0
  10
278.059742
  20
29.717924
  42
-0.191974
  0
VERTEX
  8
0
  10
275.894760
  20
28.907795
  0
VERTEX
  8
0
  10
268.891062
  20
28.916260
  0
SEQEND
  0
POLYLINE
  8
0
  66
1
  70
1
  0
VERTEX
  8
0
  10
277.747503
  20
42.925099
  42
0.054073
  0
VERTEX
  8
0
  10
278.958898
  20
42.251790
  42
0.098845
  0
VERTEX
  8
0
  10
279.706699
  20
42.098486
  42
0.148610
  0
VERTEX
  8
0
  10
280.379320
  20
42.299136
  42
0.126212
  0
VERTEX
  8
0
  10
280.930042
  20
42.908692
  42
-0.482794
  0
VERTEX
  8
0
  10
280.613490
  20
45.670704
  42
-0.282753
  0
VERTEX
  8
0
  10
281.887088
  20
45.974419
  42
-0.239483
  0
VERTEX
  8
0
  10
282.955457
  20
44.902333
  42
-0.106877
  0
VERTEX
  8
0
  10
282.944964
  20
41.716773
  42
-0.151037
  0
VERTEX
  8
0
  10
281.820122
  20
39.734064
  42
-0.118383
  0
VERTEX
  8
0
  10
279.730406
  20
38.539591
  42
-0.066053
  0
VERTEX
  8
0
  10
275.506580
  20
37.893922
  42
0.066372
  0
VERTEX
  8
0
  10
265.189278
  20
36.575211
  42
0.138099
  0
VERTEX
  8
0
  10
260.823791
  20
33.993079
  42
-0.345818
  0
VERTEX
  8
0
  10
268.571163
  20
46.899617
  0
VERTEX
  8
0
  10
268.582693
  20
42.873334
  42
0.212665
  0
VERTEX
  8
0
  10
269.877185
  20
39.919295
  42
0.188307
  0
VERTEX
  8
0
  10
273.245977
  20
38.626412
  42
0.397983
  0
VERTEX
  8
0
  10
277.747503
  20
42.925099
  0
SEQEND
  0
POLYLINE
  8
0
  66
1
  70
1
  0
VERTEX
  8
0
  10
272.800411
  20
49.390864
  42
-0.446561
  0
VERTEX
  8
0
  10
281.182299
  20
48.546238
  42
0.277461
  0
VERTEX
  8
0
  10
277.626537
  20
47.756240
  42
0.274166
  0
VERTEX
  8
0
  10
276.631516
  20
44.238588
  42
0.361419
  0
VERTEX
  8
0
  10
273.357171
  20
44.170512
  42
0.368969
  0
VERTEX
  8
0
  10
272.875565
  20
40.968619
  42
-0.446673
  0
VERTEX
  8
0
  10
272.800411
  20
49.390864
  0
SEQEND
  0
POLYLINE
  8
0
  66
1
  70
1
  0
VERTEX
  8
0
  10
265.030945
  20
64.605452
  42
0.047518
  0
VERTEX
  8
0
  10
263.653355
  20
61.910945
  42
0.051671
  0
VERTEX
  8
0
  10
262.898927
  20
59.230925
  0
VERTEX
  8
0
  10
262.362129
  20
59.229387
  42
0.265765
  0
VERTEX
  8
0
  10
261.012566
  20
62.178135
  42
0.106393
  0
VERTEX
  8
0
  10
262.425872
  20
62.664448
  42
0.048515
  0
VERTEX
  8
0
  10
265.030945
  20
64.605452
  0
SEQEND
  0
POLYLINE
  8
0
  66
1
  70
1
  0
VERTEX
  8
0
  10
273.352011
  20
64.629281
  42
0.560551
  0
VERTEX
  8
0
  10
277.430063
  20
60.601142
  42
0.370872
  0
VERTEX
  8
0
  10
278.486580
  20
52.564935
  42
0.323636
  0
VERTEX
  8
0
  10
270.976960
  20
50.396021
  42
0.433809
  0
VERTEX
  8
0
  10
268.815829
  20
58.705568
  42
-0.082102
  0
VERTEX
  8
0
  10
268.402280
  20
54.715820
  42
-0.144231
  0
VERTEX
  8
0
  10
267.185055
  20
52.746455
  42
0.086221
  0
VERTEX
  8
0
  10
264.621894
  20
50.377933
  42
0.060960
  0
VERTEX
  8
0
  10
262.131219
  20
46.137340
  42
-0.050595
  0
VERTEX
  8
0
  10
264.964345
  20
59.075200
  42
-0.089983
  0
VERTEX
  8
0
  10
268.529081
  20
65.660335
  42
-0.111453
  0
VERTEX
  8
0
  10
272.630830
  20
68.931118
  42
-0.183677
  0
VERTEX
  8
0
  10
275.868634
  20
69.216351
  42
-0.232489
  0
VERTEX
  8
0
  10
277.548917
  20
67.729390
  42
-0.221996
  0
VERTEX
  8
0
  10
277.438061
  20
65.392851
  42
-0.484127
  0
VERTEX
  8
0
  10
273.352011
  20
64.629281
  0
SEQEND
  0
POLYLINE
  8
0
  66
1
  70
1
  0
VERTEX
  8
0
  10
280.341491
  20
62.241025
  42
0.526620
  0
VERTEX
  8
0
  10
279.006038
  20
70.266821
  42
-0.244718
  0
VERTEX
  8
0
  10
287.233320
  20
68.239085
  42
-0.246763
  0
VERTEX
  8
0
  10
290.237940
  20
60.382819
  42
-0.123098
  0
VERTEX
  8
0
  10
288.837527
  20
57.017637
  42
-0.124633
  0
VERTEX
  8
0
  10
286.045125
  20
54.743338
  42
-0.280237
  0
VERTEX
  8
0
  10
279.309308
  20
55.494090
  0
VERTEX
  8
0
  10
279.295563
  20
55.507756
  42
0.416845
  0
VERTEX
  8
0
  10
283.226906
  20
58.394992
  42
0.417527
  0
VERTEX
  8
0
  10
280.341491
  20
62.241025
  0
SEQEND
  0
POLYLINE
  8
0
  66
1
  70
1
  0
VERTEX
  8
0
  10
294.538776
  20
71.132079
  0
VERTEX
  8
0
  10
294.539320
  20
69.754775
  42
0.158305
  0
VERTEX
  8
0
  10
288.099777
  20
70.039935
  42
0.127948
  0
VERTEX
  8
0
  10
286.217810
  20
71.108250
  42
-0.257678
  0
VERTEX
  8
0
  10
294.538776
  20
71.132079
  0
SEQEND
  0
POLYLINE
  8
0
  66
1
  70
1
  0
VERTEX
  8
0
  10
266.365353
  20
67.293584
  42
0.058107
  0
VERTEX
  8
0
  10
266.150025
  20
68.900059
  42
0.172591
  0
VERTEX
  8
0
  10
265.837896
  20
69.365082
  42
0.261504
  0
VERTEX
  8
0
  10
265.362188
  20
69.425478
  42
0.099888
  0
VERTEX
  8
0
  10
264.372370
  20
68.770761
  0
VERTEX
  8
0
  10
261.238413
  20
65.938197
  42
-0.058005
  0
VERTEX
  8
0
  10
261.485322
  20
69.371315
  42
-0.058933
  0
VERTEX
  8
0
  10
262.504070
  20
72.602662
  42
-0.120696
  0
VERTEX
  8
0
  10
262.719354
  20
72.844564
  42
-0.143474
  0
VERTEX
  8
0
  10
262.979619
  20
72.930328
  42
-0.319596
  0
VERTEX
  8
0
  10
263.397392
  20
72.653407
  42
0.328158
  0
VERTEX
  8
0
  10
269.076044
  20
72.119467
  42
0.030236
  0
VERTEX
  8
0
  10
266.995262
  20
68.889072
  42
0.067984
  0
VERTEX
  8
0
  10
266.365353
  20
67.293584
  0
SEQEND
  0
POLYLINE
  8
0
  66
1
  70
1
  0
VERTEX
  8
0
  10
292.905440
  20
83.783653
  42
-0.400555
  0
VERTEX
  8
0
  10
300.980081
  20
71.419026
  42
0.419822
  0
VERTEX
  8
0
  10
295.897393
  20
72.209774
  42
0.229949
  0
VERTEX
  8
0
  10
288.356645
  20
74.067187
  0
VERTEX
  8
0
  10
288.355108
  20
74.603985
  42
0.303470
  0
VERTEX
  8
0
  10
292.905440
  20
83.783653
  0
SEQEND
  0
POLYLINE
  8
0
  66
1
  70
1
  0
VERTEX
  8
0
  10
263.927271
  20
75.070734
  0
VERTEX
  8
0
  10
263.918816
  20
78.023522
  42
-0.430156
  0
VERTEX
  8
0
  10
267.404378
  20
78.208880
  42
-0.436987
  0
VERTEX
  8
0
  10
267.360825
  20
74.761725
  42
-0.436987
  0
VERTEX
  8
0
  10
263.927271
  20
75.070734
  0
SEQEND
  0
POLYLINE
  8
0
  66
1
  70
1
  0
VERTEX
  8
0
  10
269.581058
  20
69.181801
  42
-0.070467
  0
VERTEX
  8
0
  10
274.970827
  20
76.896631
  42
-0.078646
  0
VERTEX
  8
0
  10
281.623129
  20
82.095049
  42
0.082386
  0
VERTEX
  8
0
  10
280.748911
  20
79.944902
  42
0.151999
  0
VERTEX
  8
0
  10
280.850975
  20
78.670538
  42
0.138702
  0
VERTEX
  8
0
  10
281.076197
  20
78.457009
  42
0.233966
  0
VERTEX
  8
0
  10
281.266541
  20
78.452545
  42
0.122517
  0
VERTEX
  8
0
  10
281.448347
  20
78.599576
  42
0.049434
  0
VERTEX
  8
0
  10
281.746588
  20
79.088044
  42
-0.235585
  0
VERTEX
  8
0
  10
282.753661
  20
79.871056
  42
-0.203416
  0
VERTEX
  8
0
  10
284.181297
  20
79.576884
  42
-0.237424
  0
VERTEX
  8
0
  10
284.641541
  20
78.411681
  42
-0.252246
  0
VERTEX
  8
0
  10
283.986692
  20
77.421308
  42
0.059203
  0
VERTEX
  8
0
  10
282.401999
  20
76.294075
  42
0.107177
  0
VERTEX
  8
0
  10
281.772250
  20
75.413266
  42
0.149940
  0
VERTEX
  8
0
  10
281.662097
  20
74.411310
  42
0.117158
  0
VERTEX
  8
0
  10
282.185277
  20
73.244211
  42
0.086577
  0
VERTEX
  8
0
  10
276.026091
  20
72.382087
  42
0.074684
  0
VERTEX
  8
0
  10
269.581058
  20
69.181801
  0
SEQEND
  0
POLYLINE
  8
0
  66
1
  70
1
  0
VERTEX
  8
0
  10
288.884220
  20
77.289611
  42
0.356733
  0
VERTEX
  8
0
  10
284.570320
  20
83.987885
  42
-0.163605
  0
VERTEX
  8
0
  10
291.034458
  20
84.542699
  0
VERTEX
  8
0
  10
291.034458
  20
84.542699
  42
-0.258985
  0
VERTEX
  8
0
  10
288.884220
  20
77.289611
  0
SEQEND
  0
POLYLINE
  8
0
  66
1
  70
1
  0
VERTEX
  8
0
  10
277.592321
  20
82.622918
  42
0.036975
  0
VERTEX
  8
0
  10
274.256263
  20
79.476587
  42
0.044963
  0
VERTEX
  8
0
  10
271.969971
  20
76.474586
  42
0.368789
  0
VERTEX
  8
0
  10
268.134891
  20
81.786203
  42
0.370118
  0
VERTEX
  8
0
  10
262.306016
  20
78.824207
  42
-0.182343
  0
VERTEX
  8
0
  10
260.944705
  20
85.530736
  42
0.333657
  0
VERTEX
  8
0
  10
265.027807
  20
84.791791
  42
0.337430
  0
VERTEX
  8
0
  10
266.841525
  20
88.500435
  0
VERTEX
  8
0
  10
267.378323
  20
88.501972
  42
-0.141390
  0
VERTEX
  8
0
  10
269.003422
  20
83.406505
  42
-0.230444
  0
VERTEX
  8
0
  10
275.477378
  20
86.364256
  42
0.484112
  0
VERTEX
  8
0
  10
277.592321
  20
82.622918
  0
SEQEND
  0
POLYLINE
  8
0
  66
1
  70
1
  0
VERTEX
  8
0
  10
290.200179
  20
86.419817
  42
0.152630
  0
VERTEX
  8
0
  10
280.827350
  20
84.283839
  42
0.493094
  0
VERTEX
  8
0
  10
279.188875
  20
88.535793
  42
-0.533936
  0
VERTEX
  8
0
  10
290.200179
  20
86.419817
  0
SEQEND
  0
POLYLINE
  8
0
  66
1
  70
1
  0
VERTEX
  8
0
  10
258.833741
  20
101.124460
  42
0.175715
  0
VERTEX
  8
0
  10
258.222286
  20
100.864313
  42
0.190301
  0
VERTEX
  8
0
  10
257.957052
  20
100.307519
  42
-0.073573
  0
VERTEX
  8
0
  10
256.964367
  20
98.348637
  42
-0.086119
  0
VERTEX
  8
0
  10
255.631991
  20
97.022481
  42
0.261819
  0
VERTEX
  8
0
  10
247.323298
  20
86.832233
  42
0.261934
  0
VERTEX
  8
0
  10
241.095183
  20
89.199486
  42
0.286287
  0
VERTEX
  8
0
  10
232.101877
  20
92.393880
  42
0.281757
  0
VERTEX
  8
0
  10
225.186410
  20
85.745905
  42
0.252412
  0
VERTEX
  8
0
  10
214.417372
  20
77.922251
  42
0.221322
  0
VERTEX
  8
0
  10
213.902270
  20
70.647737
  42
0.217626
  0
VERTEX
  8
0
  10
219.180737
  20
65.454119
  42
0.246618
  0
VERTEX
  8
0
  10
219.525380
  20
63.443651
  42
0.237689
  0
VERTEX
  8
0
  10
221.422674
  20
62.525472
  42
-0.260721
  0
VERTEX
  8
0
  10
223.121113
  20
67.083686
  42
-0.264357
  0
VERTEX
  8
0
  10
227.843232
  20
67.977876
  42
0.294693
  0
VERTEX
  8
0
  10
226.019255
  20
56.926376
  42
0.307947
  0
VERTEX
  8
0
  10
235.343638
  20
51.037020
  42
0.308338
  0
VERTEX
  8
0
  10
232.244614
  20
41.972062
  42
0.319939
  0
VERTEX
  8
0
  10
239.573836
  20
36.015826
  42
0.308978
  0
VERTEX
  8
0
  10
236.924268
  20
30.732744
  42
0.326778
  0
VERTEX
  8
0
  10
240.937038
  20
26.568957
  42
-0.003766
  0
VERTEX
  8
0
  10
241.742031
  20
26.587684
  42
-0.003782
  0
VERTEX
  8
0
  10
242.543644
  20
26.594227
  0
VERTEX
  8
0
  10
277.183776
  20
26.572306
  42
0.319226
  0
VERTEX
  8
0
  10
281.172346
  20
30.859006
  42
0.308978
  0
VERTEX
  8
0
  10
278.492564
  20
36.126827
  42
0.319939
  0
VERTEX
  8
0
  10
285.787553
  20
42.124941
  42
0.308338
  0
VERTEX
  8
0
  10
282.636661
  20
51.172002
  42
0.307947
  0
VERTEX
  8
0
  10
291.927162
  20
57.114664
  42
0.294693
  0
VERTEX
  8
0
  10
290.039920
  20
68.155536
  42
-0.264357
  0
VERTEX
  8
0
  10
294.767083
  20
67.288406
  42
-0.260721
  0
VERTEX
  8
0
  10
296.491600
  20
62.739994
  42
0.237689
  0
VERTEX
  8
0
  10
298.383604
  20
63.669024
  42
0.246618
  0
VERTEX
  8
0
  10
298.716727
  20
65.681434
  42
0.217626
  0
VERTEX
  8
0
  10
303.965363
  20
70.905197
  42
0.221322
  0
VERTEX
  8
0
  10
303.408605
  20
78.176642
  42
0.252412
  0
VERTEX
  8
0
  10
292.594935
  20
85.938490
  42
0.281757
  0
VERTEX
  8
0
  10
285.641507
  20
92.546749
  42
0.286287
  0
VERTEX
  8
0
  10
276.666644
  20
89.300901
  42
0.261934
  0
VERTEX
  8
0
  10
270.452189
  20
86.898016
  42
0.261819
  0
VERTEX
  8
0
  10
262.085270
  20
97.040511
  42
-0.086119
  0
VERTEX
  8
0
  10
260.745321
  20
98.359015
  42
-0.073573
  0
VERTEX
  8
0
  10
259.741433
  20
100.312179
  42
0.194040
  0
VERTEX
  8
0
  10
259.469797
  20
100.863910
  42
0.172274
  0
VERTEX
  8
0
  10
258.833741
  20
101.124460
  0
SEQEND
  0
POLYLINE
  8
0
  66
1
  70
1
  0
VERTEX
  8
0
  10
253.065636
  20
30.374272
  42
-0.201276
  0
VERTEX
  8
0
  10
252.823162
  20
29.778591
  42
-0.132915
  0
VERTEX
  8
0
  10
251.997810
  20
29.303063
  0
VERTEX
  8
0
  10
251.732196
  20
28.749372
  0
VERTEX
  8
0
  10
257.425843
  20
28.766634
  42
0.059285
  0
VERTEX
  8
0
  10
256.327766
  20
31.750017
  42
0.100549
  0
VERTEX
  8
0
  10
255.153857
  20
33.227094
  42
0.134988
  0
VERTEX
  8
0
  10
253.532196
  20
33.971778
  42
0.111286
  0
VERTEX
  8
0
  10
251.383880
  20
33.843746
  42
0.222893
  0
VERTEX
  8
0
  10
250.193163
  20
32.816334
  42
0.282743
  0
VERTEX
  8
0
  10
250.359564
  20
31.551699
  42
0.516630
  0
VERTEX
  8
0
  10
252.797184
  20
31.723234
  0
VERTEX
  8
0
  10
253.065583
  20
31.724002
  0
VERTEX
  8
0
  10
253.065636
  20
30.374272
  0
SEQEND
  0
POLYLINE
  8
0
  66
1
  70
1
  0
VERTEX
  8
0
  10
249.047755
  20
28.759885
  0
VERTEX
  8
0
  10
249.046407
  20
29.230504
  42
-0.327147
  0
VERTEX
  8
0
  10
246.752864
  20
31.261369
  42
-0.315889
  0
VERTEX
  8
0
  10
247.958686
  20
34.125188
  0
VERTEX
  8
0
  10
242.053457
  20
34.126777
  42
0.179173
  0
VERTEX
  8
0
  10
239.849171
  20
33.262673
  42
0.213197
  0
VERTEX
  8
0
  10
239.022716
  20
31.424411
  42
0.213469
  0
VERTEX
  8
0
  10
239.874634
  20
29.509024
  42
0.191974
  0
VERTEX
  8
0
  10
242.044220
  20
28.711308
  0
VERTEX
  8
0
  10
249.047755
  20
28.759885
  0
SEQEND
  0
POLYLINE
  8
0
  66
1
  70
1
  0
VERTEX
  8
0
  10
240.111227
  20
42.717771
  42
-0.054073
  0
VERTEX
  8
0
  10
238.903708
  20
42.037535
  42
-0.098845
  0
VERTEX
  8
0
  10
238.156797
  20
41.879951
  42
-0.148610
  0
VERTEX
  8
0
  10
237.483037
  20
42.076745
  42
-0.126212
  0
VERTEX
  8
0
  10
236.928833
  20
42.683137
  42
0.482794
  0
VERTEX
  8
0
  10
237.229562
  20
45.446916
  42
0.282753
  0
VERTEX
  8
0
  10
235.954245
  20
45.743332
  42
0.239483
  0
VERTEX
  8
0
  10
234.892033
  20
44.665145
  42
0.106877
  0
VERTEX
  8
0
  10
234.920771
  20
41.479697
  42
0.151037
  0
VERTEX
  8
0
  10
236.056950
  20
39.503463
  42
0.118383
  0
VERTEX
  8
0
  10
238.153472
  20
38.320979
  42
0.066053
  0
VERTEX
  8
0
  10
242.380928
  20
37.699511
  42
-0.066372
  0
VERTEX
  8
0
  10
252.705613
  20
36.439911
  42
-0.138099
  0
VERTEX
  8
0
  10
257.085817
  20
33.882824
  42
0.345818
  0
VERTEX
  8
0
  10
249.264653
  20
46.744779
  0
VERTEX
  8
0
  10
249.276183
  20
42.718496
  42
-0.212665
  0
VERTEX
  8
0
  10
247.998630
  20
39.757092
  42
-0.188307
  0
VERTEX
  8
0
  10
244.637298
  20
38.444936
  42
-0.397983
  0
VERTEX
  8
0
  10
240.111227
  20
42.717771
  0
SEQEND
  0
POLYLINE
  8
0
  66
1
  70
1
  0
VERTEX
  8
0
  10
245.021206
  20
49.211763
  42
0.446561
  0
VERTEX
  8
0
  10
236.644293
  20
48.319146
  42
-0.277461
  0
VERTEX
  8
0
  10
240.204521
  20
47.549525
  42
-0.274166
  0
VERTEX
  8
0
  10
241.219672
  20
44.037630
  42
-0.361419
  0
VERTEX
  8
0
  10
244.494353
  20
43.988308
  42
-0.368969
  0
VERTEX
  8
0
  10
244.994290
  20
40.789226
  42
0.446673
  0
VERTEX
  8
0
  10
245.021206
  20
49.211763
  0
SEQEND
  0
POLYLINE
  8
0
  66
1
  70
1
  0
VERTEX
  8
0
  10
259.218503
  20
38.989052
  42
-0.040939
  0
VERTEX
  8
0
  10
260.089658
  20
49.290310
  42
-0.058767
  0
VERTEX
  8
0
  10
262.108381
  20
56.216698
  42
-0.550060
  0
VERTEX
  8
0
  10
255.466668
  20
56.386651
  42
-0.038270
  0
VERTEX
  8
0
  10
257.332591
  20
49.430957
  42
-0.026136
  0
VERTEX
  8
0
  10
258.733249
  20
38.987662
  0
VERTEX
  8
0
  10
259.218503
  20
38.989052
  0
SEQEND
  0
POLYLINE
  8
0
  66
1
  70
1
  0
VERTEX
  8
0
  10
252.703406
  20
64.470600
  42
-0.047518
  0
VERTEX
  8
0
  10
254.096406
  20
61.784027
  42
-0.051671
  0
VERTEX
  8
0
  10
254.866171
  20
59.108371
  0
VERTEX
  8
0
  10
255.402969
  20
59.109908
  42
-0.265765
  0
VERTEX
  8
0
  10
256.735621
  20
62.066337
  42
-0.106393
  0
VERTEX
  8
0
  10
255.319554
  20
62.544547
  42
-0.048515
  0
VERTEX
  8
0
  10
252.703406
  20
64.470600
  0
SEQEND
  0
POLYLINE
  8
0
  66
1
  70
1
  0
VERTEX
  8
0
  10
244.382341
  20
64.446771
  42
-0.560551
  0
VERTEX
  8
0
  10
240.327426
  20
60.395342
  42
-0.370872
  0
VERTEX
  8
0
  10
239.316952
  20
52.353216
  42
-0.323636
  0
VERTEX
  8
0
  10
246.838870
  20
50.227347
  42
-0.433809
  0
VERTEX
  8
0
  10
248.952375
  20
58.549136
  42
0.082102
  0
VERTEX
  8
0
  10
249.388768
  20
54.561822
  42
0.144231
  0
VERTEX
  8
0
  10
250.617251
  20
52.599460
  42
-0.086221
  0
VERTEX
  8
0
  10
253.193936
  20
50.245656
  42
-0.060960
  0
VERTEX
  8
0
  10
255.708857
  20
46.019398
  42
0.050595
  0
VERTEX
  8
0
  10
252.801679
  20
58.940820
  42
0.089983
  0
VERTEX
  8
0
  10
249.199286
  20
65.505431
  42
0.111453
  0
VERTEX
  8
0
  10
245.078872
  20
68.752668
  42
0.183677
  0
VERTEX
  8
0
  10
241.839488
  20
69.019352
  42
0.232489
  0
VERTEX
  8
0
  10
240.167748
  20
67.522792
  42
0.221996
  0
VERTEX
  8
0
  10
240.291984
  20
65.186926
  42
0.484127
  0
VERTEX
  8
0
  10
244.382341
  20
64.446771
  0
SEQEND
  0
POLYLINE
  8
0
  66
1
  70
1
  0
VERTEX
  8
0
  10
237.406654
  20
62.018524
  42
-0.526620
  0
VERTEX
  8
0
  10
238.696119
  20
70.051837
  42
0.244718
  0
VERTEX
  8
0
  10
230.480584
  20
67.977014
  42
0.246763
  0
VERTEX
  8
0
  10
227.521009
  20
60.103668
  42
0.123098
  0
VERTEX
  8
0
  10
228.940672
  20
56.746563
  42
0.124633
  0
VERTEX
  8
0
  10
231.746054
  20
54.488293
  42
0.280237
  0
VERTEX
  8
0
  10
238.477461
  20
55.277611
  0
VERTEX
  8
0
  10
238.491127
  20
55.291356
  42
-0.416845
  0
VERTEX
  8
0
  10
234.543313
  20
58.156029
  42
-0.417527
  0
VERTEX
  8
0
  10
237.406654
  20
62.018524
  0
SEQEND
  0
POLYLINE
  8
0
  66
1
  70
1
  0
VERTEX
  8
0
  10
223.158680
  20
70.828120
  0
VERTEX
  8
0
  10
223.166024
  20
69.450835
  42
-0.158305
  0
VERTEX
  8
0
  10
229.603828
  20
69.772872
  42
-0.127948
  0
VERTEX
  8
0
  10
231.479645
  20
70.851948
  42
0.257678
  0
VERTEX
  8
0
  10
223.158680
  20
70.828120
  0
SEQEND
  0
POLYLINE
  8
0
  66
1
  70
1
  0
VERTEX
  8
0
  10
251.353625
  20
67.151045
  42
-0.058107
  0
VERTEX
  8
0
  10
251.559748
  20
68.758727
  42
-0.172591
  0
VERTEX
  8
0
  10
251.869209
  20
69.225530
  42
-0.261504
  0
VERTEX
  8
0
  10
252.344563
  20
69.288650
  42
-0.099888
  0
VERTEX
  8
0
  10
253.338114
  20
68.639612
  0
VERTEX
  8
0
  10
256.488243
  20
65.825044
  42
0.058005
  0
VERTEX
  8
0
  10
256.221676
  20
69.256691
  42
0.058933
  0
VERTEX
  8
0
  10
255.184438
  20
72.482150
  42
0.120696
  0
VERTEX
  8
0
  10
254.967771
  20
72.722816
  42
0.143474
  0
VERTEX
  8
0
  10
254.707020
  20
72.807088
  42
0.319596
  0
VERTEX
  8
0
  10
254.290840
  20
72.527778
  42
-0.328158
  0
VERTEX
  8
0
  10
248.615339
  20
71.961323
  42
-0.030236
  0
VERTEX
  8
0
  10
250.714588
  20
68.742899
  42
-0.067984
  0
VERTEX
  8
0
  10
251.353625
  20
67.151045
  0
SEQEND
  0
POLYLINE
  8
0
  66
1
  70
1
  0
VERTEX
  8
0
  10
224.719530
  20
83.488841
  42
0.400555
  0
VERTEX
  8
0
  10
216.715837
  20
71.078171
  42
-0.419822
  0
VERTEX
  8
0
  10
221.793912
  20
71.898016
  42
-0.229949
  0
VERTEX
  8
0
  10
229.323899
  20
73.798587
  0
VERTEX
  8
0
  10
229.322361
  20
74.335385
  42
-0.303470
  0
VERTEX
  8
0
  10
224.719530
  20
83.488841
  0
SEQEND
  0
POLYLINE
  8
0
  66
1
  70
1
  0
VERTEX
  8
0
  10
253.747124
  20
74.942031
  0
VERTEX
  8
0
  10
253.738668
  20
77.894819
  42
0.430156
  0
VERTEX
  8
0
  10
250.252102
  20
78.060212
  42
0.436987
  0
VERTEX
  8
0
  10
250.315396
  20
74.613362
  42
0.436987
  0
VERTEX
  8
0
  10
253.747124
  20
74.942031
  0
SEQEND
  0
POLYLINE
  8
0
  66
1
  70
1
  0
VERTEX
  8
0
  10
248.127157
  20
69.020813
  42
0.070467
  0
VERTEX
  8
0
  10
242.693293
  20
76.704648
  42
0.078646
  0
VERTEX
  8
0
  10
236.011327
  20
81.864882
  42
-0.082386
  0
VERTEX
  8
0
  10
236.897845
  20
79.719777
  42
-0.151999
  0
VERTEX
  8
0
  10
236.803081
  20
78.444849
  42
-0.138702
  0
VERTEX
  8
0
  10
236.579086
  20
78.230034
  42
-0.233966
  0
VERTEX
  8
0
  10
236.388771
  20
78.224480
  42
-0.122517
  0
VERTEX
  8
0
  10
236.206125
  20
78.370467
  42
-0.049434
  0
VERTEX
  8
0
  10
235.905091
  20
78.857219
  42
0.235585
  0
VERTEX
  8
0
  10
234.893551
  20
79.634450
  42
0.203416
  0
VERTEX
  8
0
  10
233.467623
  20
79.332107
  42
0.237424
  0
VERTEX
  8
0
  10
233.014060
  20
78.164287
  42
0.252246
  0
VERTEX
  8
0
  10
233.674571
  20
77.177680
  42
-0.059203
  0
VERTEX
  8
0
  10
235.265693
  20
76.059542
  42
-0.107177
  0
VERTEX
  8
0
  10
235.900477
  20
75.182355
  42
-0.149940
  0
VERTEX
  8
0
  10
236.016366
  20
74.181045
  42
-0.117158
  0
VERTEX
  8
0
  10
235.499879
  20
73.010970
  42
-0.086577
  0
VERTEX
  8
0
  10
241.663901
  20
72.184135
  42
-0.074684
  0
VERTEX
  8
0
  10
248.127157
  20
69.020813
  0
SEQEND
  0
POLYLINE
  8
0
  66
1
  70
1
  0
VERTEX
  8
0
  10
228.777877
  20
77.017937
  42
-0.356733
  0
VERTEX
  8
0
  10
233.053343
  20
83.740808
  42
0.163605
  0
VERTEX
  8
0
  10
226.586133
  20
84.258590
  0
VERTEX
  8
0
  10
226.586133
  20
84.258590
  42
0.258985
  0
VERTEX
  8
0
  10
228.777877
  20
77.017937
  0
SEQEND
  0
POLYLINE
  8
0
  66
1
  70
1
  0
VERTEX
  8
0
  10
240.039045
  20
82.415827
  42
-0.036975
  0
VERTEX
  8
0
  10
243.393068
  20
79.288654
  42
-0.044963
  0
VERTEX
  8
0
  10
245.696517
  20
76.299797
  42
-0.368789
  0
VERTEX
  8
0
  10
249.501112
  20
81.633292
  42
-0.370118
  0
VERTEX
  8
0
  10
255.346856
  20
78.704728
  42
0.182343
  0
VERTEX
  8
0
  10
256.669734
  20
85.418944
  42
-0.333657
  0
VERTEX
  8
0
  10
252.590931
  20
84.656626
  42
-0.337430
  0
VERTEX
  8
0
  10
250.756002
  20
88.354821
  0
VERTEX
  8
0
  10
250.219205
  20
88.353284
  42
0.141390
  0
VERTEX
  8
0
  10
248.623316
  20
83.248593
  42
0.230444
  0
VERTEX
  8
0
  10
242.132526
  20
86.169217
  42
-0.484112
  0
VERTEX
  8
0
  10
240.039045
  20
82.415827
  0
SEQEND
  0
POLYLINE
  8
0
  66
1
  70
1
  0
VERTEX
  8
0
  10
227.409648
  20
86.140456
  42
-0.152630
  0
VERTEX
  8
0
  10
236.794557
  20
84.058194
  42
-0.493094
  0
VERTEX
  8
0
  10
238.408653
  20
88.319462
  42
0.533936
  0
VERTEX
  8
0
  10
227.409648
  20
86.140456
  0
SEQEND
  0
POLYLINE
  8
0
  66
1
  70
1
  0
VERTEX
  8
0
  10
260.424513
  20
65.756381
  0
VERTEX
  8
0
  10
257.424515
  20
65.760354
  0
VERTEX
  8
0
  10
257.429814
  20
69.760351
  0
VERTEX
  8
0
  10
260.429811
  20
69.756377
  0
VERTEX
  8
0
  10
260.424513
  20
65.756381
  0
SEQEND
  0
POLYLINE
  8
0
  66
1
  70
1
  0
VERTEX
  8
0
  10
27.634611
  20
209.566216
  0
VERTEX
  8
0
  10
25.303902
  20
211.472717
  0
VERTEX
  8
0
  10
27.836501
  20
214.568835
  0
VERTEX
  8
0
  10
30.167325
  20
212.662239
  0
VERTEX
  8
0
  10
56.384111
  20
244.709970
  0
VERTEX
  8
0
  10
55.671650
  20
256.471021
  0
VERTEX
  8
0
  10
52.676694
  20
256.287517
  0
VERTEX
  8
0
  10
52.432070
  20
260.280030
  0
VERTEX
  8
0
  10
55.429781
  20
260.463702
  0
VERTEX
  8
0
  10
54.095856
  20
282.483653
  0
VERTEX
  8
0
  10
51.082948
  20
282.299050
  0
VERTEX
  8
0
  10
50.838323
  20
286.291563
  0
VERTEX
  8
0
  10
53.853987
  20
286.476335
  0
VERTEX
  8
0
  10
53.852114
  20
286.507259
  0
VERTEX
  8
0
  10
164.439762
  20
285.713013
  0
VERTEX
  8
0
  10
167.418923
  20
285.895548
  0
VERTEX
  8
0
  10
167.663547
  20
281.903035
  0
VERTEX
  8
0
  10
164.682335
  20
281.720374
  0
VERTEX
  8
0
  10
166.159609
  20
257.405138
  0
VERTEX
  8
0
  10
169.153314
  20
257.588565
  0
VERTEX
  8
0
  10
169.397938
  20
253.596052
  0
VERTEX
  8
0
  10
166.402182
  20
253.412500
  0
VERTEX
  8
0
  10
166.927867
  20
244.759987
  42
-0.159011
  0
VERTEX
  8
0
  10
163.283171
  20
245.225662
  42
-0.129312
  0
VERTEX
  8
0
  10
159.855319
  20
248.110898
  0
VERTEX
  8
0
  10
159.715797
  20
248.351948
  0
VERTEX
  8
0
  10
159.431385
  20
248.603425
  0
VERTEX
  8
0
  10
159.130753
  20
249.122912
  0
VERTEX
  8
0
  10
158.846341
  20
249.374389
  0
VERTEX
  8
0
  10
158.566521
  20
249.857497
  42
0.052678
  0
VERTEX
  8
0
  10
143.008673
  20
265.100768
  42
0.084160
  0
VERTEX
  8
0
  10
131.006096
  20
271.689043
  42
0.115602
  0
VERTEX
  8
0
  10
118.027025
  20
273.042401
  42
0.109941
  0
VERTEX
  8
0
  10
105.131827
  20
268.404040
  42
0.382184
  0
VERTEX
  8
0
  10
81.036393
  20
269.381109
  42
0.384107
  0
VERTEX
  8
0
  10
77.497064
  20
245.600070
  0
VERTEX
  8
0
  10
77.530255
  20
245.533533
  42
-0.180795
  0
VERTEX
  8
0
  10
77.703290
  20
241.835476
  42
-0.151079
  0
VERTEX
  8
0
  10
75.186479
  20
238.241059
  42
-0.331199
  0
VERTEX
  8
0
  10
67.940866
  20
238.384459
  42
0.261047
  0
VERTEX
  8
0
  10
66.011054
  20
238.716338
  42
0.127159
  0
VERTEX
  8
0
  10
62.840429
  20
236.578011
  0
VERTEX
  8
0
  10
31.609316
  20
203.807966
  42
-0.302741
  0
VERTEX
  8
0
  10
22.204843
  20
202.928799
  0
VERTEX
  8
0
  10
27.634611
  20
209.566216
  0
SEQEND
  0
POLYLINE
  8
0
  66
1
  70
1
  0
VERTEX
  8
0
  10
218.644484
  20
282.159552
  0
VERTEX
  8
0
  10
220.975193
  20
280.253050
  0
VERTEX
  8
0
  10
218.442594
  20
277.156933
  0
VERTEX
  8
0
  10
216.111770
  20
279.063529
  0
VERTEX
  8
0
  10
189.894984
  20
247.015798
  0
VERTEX
  8
0
  10
190.607445
  20
235.254747
  0
VERTEX
  8
0
  10
193.602401
  20
235.438250
  0
VERTEX
  8
0
  10
193.847025
  20
231.445738
  0
VERTEX
  8
0
  10
190.849314
  20
231.262066
  0
VERTEX
  8
0
  10
192.183239
  20
209.242114
  0
VERTEX
  8
0
  10
195.196147
  20
209.426718
  0
VERTEX
  8
0
  10
195.440771
  20
205.434205
  0
VERTEX
  8
0
  10
192.425108
  20
205.249433
  0
VERTEX
  8
0
  10
192.426981
  20
205.218509
  0
VERTEX
  8
0
  10
81.839333
  20
206.012755
  0
VERTEX
  8
0
  10
78.860172
  20
205.830220
  0
VERTEX
  8
0
  10
78.615547
  20
209.822733
  0
VERTEX
  8
0
  10
81.596760
  20
210.005394
  0
VERTEX
  8
0
  10
80.119485
  20
234.320629
  0
VERTEX
  8
0
  10
77.125781
  20
234.137203
  0
VERTEX
  8
0
  10
76.881157
  20
238.129716
  0
VERTEX
  8
0
  10
79.876912
  20
238.313268
  0
VERTEX
  8
0
  10
79.351228
  20
246.965781
  42
-0.159011
  0
VERTEX
  8
0
  10
82.995924
  20
246.500106
  42
-0.129312
  0
VERTEX
  8
0
  10
86.423776
  20
243.614869
  0
VERTEX
  8
0
  10
86.563298
  20
243.373820
  0
VERTEX
  8
0
  10
86.847710
  20
243.122342
  0
VERTEX
  8
0
  10
87.148342
  20
242.602855
  0
VERTEX
  8
0
  10
87.432754
  20
242.351378
  0
VERTEX
  8
0
  10
87.712573
  20
241.868271
  42
0.052678
  0
VERTEX
  8
0
  10
103.270422
  20
226.625000
  42
0.084160
  0
VERTEX
  8
0
  10
115.272998
  20
220.036725
  42
0.115602
  0
VERTEX
  8
0
  10
128.252070
  20
218.683367
  42
0.109941
  0
VERTEX
  8
0
  10
141.147268
  20
223.321728
  42
0.382184
  0
VERTEX
  8
0
  10
165.242702
  20
222.344659
  42
0.384107
  0
VERTEX
  8
0
  10
168.782031
  20
246.125698
  0
VERTEX
  8
0
  10
168.748840
  20
246.192234
  42
-0.180795
  0
VERTEX
  8
0
  10
168.575805
  20
249.890292
  42
-0.151079
  0
VERTEX
  8
0
  10
171.092616
  20
253.484709
  42
-0.331199
  0
VERTEX
  8
0
  10
178.338229
  20
253.341309
  42
0.261047
  0
VERTEX
  8
0
  10
180.268041
  20
253.009430
  42
0.127159
  0
VERTEX
  8
0
  10
183.438666
  20
255.147756
  0
VERTEX
  8
0
  10
214.669779
  20
287.917802
  42
-0.302741
  0
VERTEX
  8
0
  10
224.074252
  20
288.796969
  0
VERTEX
  8
0
  10
218.644484
  20
282.159552
  0
SEQEND
  0
POLYLINE
  8
0
  66
1
  70
1
  0
VERTEX
  8
0
  10
27.634611
  20
116.754799
  0
VERTEX
  8
0
  10
25.303902
  20
118.661300
  0
VERTEX
  8
0
  10
27.836501
  20
121.757417
  0
VERTEX
  8
0
  10
30.167325
  20
119.850821
  0
VERTEX
  8
0
  10
56.384111
  20
151.898553
  0
VERTEX
  8
0
  10
55.671650
  20
163.659603
  0
VERTEX
  8
0
  10
52.676694
  20
163.476100
  0
VERTEX
  8
0
  10
52.432070
  20
167.468613
  0
VERTEX
  8
0
  10
55.429781
  20
167.652285
  0
VERTEX
  8
0
  10
54.095856
  20
189.672236
  0
VERTEX
  8
0
  10
51.082948
  20
189.487633
  0
VERTEX
  8
0
  10
50.838323
  20
193.480146
  0
VERTEX
  8
0
  10
53.853987
  20
193.664918
  0
VERTEX
  8
0
  10
53.852114
  20
193.695841
  0
VERTEX
  8
0
  10
164.439762
  20
192.901595
  0
VERTEX
  8
0
  10
167.418923
  20
193.084131
  0
VERTEX
  8
0
  10
167.663547
  20
189.091618
  0
VERTEX
  8
0
  10
164.682335
  20
188.908957
  0
VERTEX
  8
0
  10
166.159609
  20
164.593721
  0
VERTEX
  8
0
  10
169.153314
  20
164.777148
  0
VERTEX
  8
0
  10
169.397938
  20
160.784635
  0
VERTEX
  8
0
  10
166.402182
  20
160.601083
  0
VERTEX
  8
0
  10
166.927867
  20
151.948570
  42
-0.159011
  0
VERTEX
  8
0
  10
163.283171
  20
152.414244
  42
-0.129312
  0
VERTEX
  8
0
  10
159.855319
  20
155.299481
  0
VERTEX
  8
0
  10
159.715797
  20
155.540531
  0
VERTEX
  8
0
  10
159.431385
  20
155.792008
  0
VERTEX
  8
0
  10
159.130753
  20
156.311495
  0
VERTEX
  8
0
  10
158.846341
  20
156.562972
  0
VERTEX
  8
0
  10
158.566521
  20
157.046079
  42
0.052678
  0
VERTEX
  8
0
  10
143.008673
  20
172.289351
  42
0.084160
  0
VERTEX
  8
0
  10
131.006096
  20
178.877626
  42
0.115602
  0
VERTEX
  8
0
  10
118.027025
  20
180.230983
  42
0.109941
  0
VERTEX
  8
0
  10
105.131827
  20
175.592622
  42
0.382184
  0
VERTEX
  8
0
  10
81.036393
  20
176.569692
  42
0.384107
  0
VERTEX
  8
0
  10
77.497064
  20
152.788652
  0
VERTEX
  8
0
  10
77.530255
  20
152.722116
  42
-0.180795
  0
VERTEX
  8
0
  10
77.703290
  20
149.024059
  42
-0.151079
  0
VERTEX
  8
0
  10
75.186479
  20
145.429642
  42
-0.331199
  0
VERTEX
  8
0
  10
67.940866
  20
145.573042
  42
0.261047
  0
VERTEX
  8
0
  10
66.011054
  20
145.904920
  42
0.127159
  0
VERTEX
  8
0
  10
62.840429
  20
143.766594
  0
VERTEX
  8
0
  10
31.609316
  20
110.996549
  42
-0.302741
  0
VERTEX
  8
0
  10
22.204843
  20
110.117382
  0
VERTEX
  8
0
  10
27.634611
  20
116.754799
  0
SEQEND
  0
POLYLINE
  8
0
  66
1
  70
1
  0
VERTEX
  8
0
  10
218.644484
  20
189.348135
  0
VERTEX
  8
0
  10
220.975193
  20
187.441633
  0
VERTEX
  8
0
  10
218.442594
  20
184.345516
  0
VERTEX
  8
0
  10
216.111770
  20
186.252112
  0
VERTEX
  8
0
  10
189.894984
  20
154.204380
  0
VERTEX
  8
0
  10
190.607445
  20
142.443330
  0
VERTEX
  8
0
  10
193.602401
  20
142.626833
  0
VERTEX
  8
0
  10
193.847025
  20
138.634320
  0
VERTEX
  8
0
  10
190.849314
  20
138.450648
  0
VERTEX
  8
0
  10
192.183239
  20
116.430697
  0
VERTEX
  8
0
  10
195.196147
  20
116.615300
  0
VERTEX
  8
0
  10
195.440771
  20
112.622788
  0
VERTEX
  8
0
  10
192.425108
  20
112.438016
  0
VERTEX
  8
0
  10
192.426981
  20
112.407092
  0
VERTEX
  8
0
  10
81.839333
  20
113.201338
  0
VERTEX
  8
0
  10
78.860172
  20
113.018803
  0
VERTEX
  8
0
  10
78.615547
  20
117.011315
  0
VERTEX
  8
0
  10
81.596760
  20
117.193977
  0
VERTEX
  8
0
  10
80.119485
  20
141.509212
  0
VERTEX
  8
0
  10
77.125781
  20
141.325786
  0
VERTEX
  8
0
  10
76.881157
  20
145.318298
  0
VERTEX
  8
0
  10
79.876912
  20
145.501851
  0
VERTEX
  8
0
  10
79.351228
  20
154.154364
  42
-0.159011
  0
VERTEX
  8
0
  10
82.995924
  20
153.688689
  42
-0.129312
  0
VERTEX
  8
0
  10
86.423776
  20
150.803452
  0
VERTEX
  8
0
  10
86.563298
  20
150.562402
  0
VERTEX
  8
0
  10
86.847710
  20
150.310925
  0
VERTEX
  8
0
  10
87.148342
  20
149.791438
  0
VERTEX
  8
0
  10
87.432754
  20
149.539961
  0
VERTEX
  8
0
  10
87.712573
  20
149.056854
  42
0.052678
  0
VERTEX
  8
0
  10
103.270422
  20
133.813583
  42
0.084160
  0
VERTEX
  8
0
  10
115.272998
  20
127.225308
  42
0.115602
  0
VERTEX
  8
0
  10
128.252070
  20
125.871950
  42
0.109941
  0
VERTEX
  8
0
  10
141.147268
  20
130.510311
  42
0.382184
  0
VERTEX
  8
0
  10
165.242702
  20
129.533242
  42
0.384107
  0
VERTEX
  8
0
  10
168.782031
  20
153.314281
  0
VERTEX
  8
0
  10
168.748840
  20
153.380817
  42
-0.180795
  0
VERTEX
  8
0
  10
168.575805
  20
157.078875
  42
-0.151079
  0
VERTEX
  8
0
  10
171.092616
  20
160.673291
  42
-0.331199
  0
VERTEX
  8
0
  10
178.338229
  20
160.529891
  42
0.261047
  0
VERTEX
  8
0
  10
180.268041
  20
160.198013
  42
0.127159
  0
VERTEX
  8
0
  10
183.438666
  20
162.336339
  0
VERTEX
  8
0
  10
214.669779
  20
195.106384
  42
-0.302741
  0
VERTEX
  8
0
  10
224.074252
  20
195.985552
  0
VERTEX
  8
0
  10
218.644484
  20
189.348135
  0
SEQEND
  0
POLYLINE
  8
0
  66
1
  70
1
  0
VERTEX
  8
0
  10
27.634611
  20
23.943382
  0
VERTEX
  8
0
  10
25.303902
  20
25.849883
  0
VERTEX
  8
0
  10
27.836501
  20
28.946000
  0
VERTEX
  8
0
  10
30.167325
  20
27.039404
  0
VERTEX
  8
0
  10
56.384111
  20
59.087136
  0
VERTEX
  8
0
  10
55.671650
  20
70.848186
  0
VERTEX
  8
0
  10
52.676694
  20
70.664683
  0
VERTEX
  8
0
  10
52.432070
  20
74.657196
  0
VERTEX
  8
0
  10
55.429781
  20
74.840868
  0
VERTEX
  8
0
  10
54.095856
  20
96.860819
  0
VERTEX
  8
0
  10
51.082948
  20
96.676216
  0
VERTEX
  8
0
  10
50.838323
  20
100.668729
  0
VERTEX
  8
0
  10
53.853987
  20
100.853501
  0
VERTEX
  8
0
  10
53.852114
  20
100.884424
  0
VERTEX
  8
0
  10
164.439762
  20
100.090178
  0
VERTEX
  8
0
  10
167.418923
  20
100.272714
  0
VERTEX
  8
0
  10
167.663547
  20
96.280201
  0
VERTEX
  8
0
  10
164.682335
  20
96.097540
  0
VERTEX
  8
0
  10
166.159609
  20
71.782304
  0
VERTEX
  8
0
  10
169.153314
  20
71.965731
  0
VERTEX
  8
0
  10
169.397938
  20
67.973218
  0
VERTEX
  8
0
  10
166.402182
  20
67.789665
  0
VERTEX
  8
0
  10
166.927867
  20
59.137152
  42
-0.159011
  0
VERTEX
  8
0
  10
163.283171
  20
59.602827
  42
-0.129312
  0
VERTEX
  8
0
  10
159.855319
  20
62.488064
  0
VERTEX
  8
0
  10
159.715797
  20
62.729114
  0
VERTEX
  8
0
  10
159.431385
  20
62.980591
  0
VERTEX
  8
0
  10
159.130753
  20
63.500078
  0
VERTEX
  8
0
  10
158.846341
  20
63.751555
  0
VERTEX
  8
0
  10
158.566521
  20
64.234662
  42
0.052678
  0
VERTEX
  8
0
  10
143.008673
  20
79.477933
  42
0.084160
  0
VERTEX
  8
0
  10
131.006096
  20
86.066209
  42
0.115602
  0
VERTEX
  8
0
  10
118.027025
  20
87.419566
  42
0.109941
  0
VERTEX
  8
0
  10
105.131827
  20
82.781205
  42
0.382184
  0
VERTEX
  8
0
  10
81.036393
  20
83.758274
  42
0.384107
  0
VERTEX
  8
0
  10
77.497064
  20
59.977235
  0
VERTEX
  8
0
  10
77.530255
  20
59.910699
  42
-0.180795
  0
VERTEX
  8
0
  10
77.703290
  20
56.212642
  42
-0.151079
  0
VERTEX
  8
0
  10
75.186479
  20
52.618225
  42
-0.331199
  0
VERTEX
  8
0
  10
67.940866
  20
52.761625
  42
0.261047
  0
VERTEX
  8
0
  10
66.011054
  20
53.093503
  42
0.127159
  0
VERTEX
  8
0
  10
62.840429
  20
50.955177
  0
VERTEX
  8
0
  10
31.609316
  20
18.185132
  42
-0.302741
  0
VERTEX
  8
0
  10
22.204843
  20
17.305965
  0
VERTEX
  8
0
  10
27.634611
  20
23.943382
  0
SEQEND
  0
POLYLINE
  8
0
  66
1
  70
1
  0
VERTEX
  8
0
  10
218.644484
  20
96.536717
  0
VERTEX
  8
0
  10
220.975193
  20
94.630216
  0
VERTEX
  8
0
  10
218.442594
  20
91.534099
  0
VERTEX
  8
0
  10
216.111770
  20
93.440695
  0
VERTEX
  8
0
  10
189.894984
  20
61.392963
  0
VERTEX
  8
0
  10
190.607445
  20
49.631913
  0
VERTEX
  8
0
  10
193.602401
  20
49.815416
  0
VERTEX
  8
0
  10
193.847025
  20
45.822903
  0
VERTEX
  8
0
  10
190.849314
  20
45.639231
  0
VERTEX
  8
0
  10
192.183239
  20
23.619280
  0
VERTEX
  8
0
  10
195.196147
  20
23.803883
  0
VERTEX
  8
0
  10
195.440771
  20
19.811370
  0
VERTEX
  8
0
  10
192.425108
  20
19.626598
  0
VERTEX
  8
0
  10
192.426981
  20
19.595675
  0
VERTEX
  8
0
  10
81.839333
  20
20.389921
  0
VERTEX
  8
0
  10
78.860172
  20
20.207385
  0
VERTEX
  8
0
  10
78.615547
  20
24.199898
  0
VERTEX
  8
0
  10
81.596760
  20
24.382559
  0
VERTEX
  8
0
  10
80.119485
  20
48.697795
  0
VERTEX
  8
0
  10
77.125781
  20
48.514368
  0
VERTEX
  8
0
  10
76.881157
  20
52.506881
  0
VERTEX
  8
0
  10
79.876912
  20
52.690434
  0
VERTEX
  8
0
  10
79.351228
  20
61.342947
  42
-0.159011
  0
VERTEX
  8
0
  10
82.995924
  20
60.877272
  42
-0.129312
  0
VERTEX
  8
0
  10
86.423776
  20
57.992035
  0
VERTEX
  8
0
  10
86.563298
  20
57.750985
  0
VERTEX
  8
0
  10
86.847710
  20
57.499508
  0
VERTEX
  8
0
  10
87.148342
  20
56.980021
  0
VERTEX
  8
0
  10
87.432754
  20
56.728544
  0
VERTEX
  8
0
  10
87.712573
  20
56.245437
  42
0.052678
  0
VERTEX
  8
0
  10
103.270422
  20
41.002166
  42
0.084160
  0
VERTEX
  8
0
  10
115.272998
  20
34.413890
  42
0.115602
  0
VERTEX
  8
0
  10
128.252070
  20
33.060533
  42
0.109941
  0
VERTEX
  8
0
  10
141.147268
  20
37.698894
  42
0.382184
  0
VERTEX
  8
0
  10
165.242702
  20
36.721825
  42
0.384107
  0
VERTEX
  8
0
  10
168.782031
  20
60.502864
  0
VERTEX
  8
0
  10
168.748840
  20
60.569400
  42
-0.180795
  0
VERTEX
  8
0
  10
168.575805
  20
64.267457
  42
-0.151079
  0
VERTEX
  8
0
  10
171.092616
  20
67.861874
  42
-0.331199
  0
VERTEX
  8
0
  10
178.338229
  20
67.718474
  42
0.261047
  0
VERTEX
  8
0
  10
180.268041
  20
67.386596
  42
0.127159
  0
VERTEX
  8
0
  10
183.438666
  20
69.524922
  0
VERTEX
  8
0
  10
214.669779
  20
102.294967
  42
-0.302741
  0
VERTEX
  8
0
  10
224.074252
  20
103.174134
  0
VERTEX
  8
0
  10
218.644484
  20
96.536717
  0
SEQEND
  0
ENDSEC
  0
EOF
