  0
SECTION
  2
HEADER
  9
$ACADVER
  1
AC1009
  9
$LIMMIN
 10
0.000000
 20
0.000000
  9
$LIMMAX
 10
270.380979
 20
171.131552
  0
ENDSEC
  0
SECTION
  2
TABLES
  0
TABLE
  2
LTYPE
 70
     4
  0
LTYPE
  2
CONTINUOUS
 70
     0
  3
Solid line
 72
     65
 73
     0
 40
0.000000
  0
LTYPE
  2
HIDDEN
 70
     0
  3
 _ _ _ _ _ _ _ _ _ _ _
 72
     65
 73
     2
 40
0.375000
 49
0.250000
 49
-0.125000
  0
LTYPE
  2
DASHED
 70
     0
  3
 ___ ___ ___ ___ ___ ___ ___ 
 72
     65
 73
     2
 40
0.750000
 49
0.500000
 49
-0.250000
  0
LTYPE
  2
CENTER
 70
     0
  3
___ _ ___ _ ___ _ ___
 72
     65
 73
     4
 40
2.000000
 49
1.250000
 49
-0.250000
 49
0.250000
 49
-0.250000
  0
LTYPE
  2
BORDER
 70
     0
  3
___ ___ . ___ ___ . ___ ___
 72
     65
 73
     6
 40
1.750000
 49
0.500000
 49
-0.250000
 49
0.500000
 49
-0.250000
 49
0.000000
 49
-0.250000
  0
LTYPE
  2
DOT
 70
     0
  3
.................
 72
     65
 73
     2
 40
0.250000
 49
0.000000
 49
-0.250000
  0
LTYPE
  2
DASHDOT
 70
     0
  3
__ . __ . __ . __
 72
     65
 73
     4
 40
1.000000
 49
0.500000
 49
-0.250000
 49
0.000000
 49
-0.250000
  0
LTYPE
  2
DIVIDE
 70
     0
  3
___ .. ___ .. ___ .. ___
 72
     65
 73
     6
 40
1.250000
 49
0.500000
 49
-0.250000
 49
0.000000
 49
-0.250000
 49
0.000000
 49
-0.250000
  0
ENDTAB
  0
TABLE
  2
LAYER
 70
     8
  0
LAYER
  2
BLACK
 70
     0
 62
     1
  6
CONTINUOUS
  0
LAYER
  2
WHITE
 70
     0
 62
     7
  6
CONTINUOUS
  0
LAYER
  2
RED
 70
     0
 62
     1
  6
CONTINUOUS
  0
LAYER
  2
YELLOW
 70
     0
 62
     2
  6
CONTINUOUS
  0
LAYER
  2
GREEN
 70
     0
 62
     3
  6
CONTINUOUS
  0
LAYER
  2
CYAN
 70
     0
 62
     4
  6
CONTINUOUS
  0
LAYER
  2
BLUE
 70
     0
 62
     5
  6
CONTINUOUS
  0
LAYER
  2
MAGENTA
 70
     0
 62
     6
  6
CONTINUOUS
  0
ENDTAB
  0
TABLE
  2
APPID
 70
     1
  0
APPID
  2
TC_BEND_DATA
 70
     0
  0
ENDTAB
  0
ENDSEC
  0
SECTION
  2
BLOCKS
  0
ENDSEC
  0
SECTION
  2
ENTITIES
  0
LINE
  8
WHITE
 10
0.000000
 20
0.000000
 30
0.000000
 11
270.380979
 21
0.000000
 31
0.000000
  6
CONTINUOUS
  0
LINE
  8
WHITE
 10
270.380979
 20
0.000000
 30
0.000000
 11
270.380979
 21
171.131552
 31
0.000000
  6
CONTINUOUS
  0
LINE
  8
WHITE
 10
270.380979
 20
171.131552
 30
0.000000
 11
0.000000
 21
171.131552
 31
0.000000
  6
CONTINUOUS
  0
LINE
  8
WHITE
 10
0.000000
 20
171.131552
 30
0.000000
 11
0.000000
 21
0.000000
 31
0.000000
  6
CONTINUOUS
  0
LINE
  8
RED
 10
5.290245
 20
4.052078
 30
0.000000
 11
265.716463
 21
4.052078
 31
0.000000
  6
CONTINUOUS
  0
LINE
  8
RED
 10
265.716463
 20
4.052078
 30
0.000000
 11
265.716463
 21
167.246797
 31
0.000000
  6
CONTINUOUS
  0
LINE
  8
RED
 10
265.716463
 20
167.246797
 30
0.000000
 11
5.290245
 21
167.246797
 31
0.000000
  6
CONTINUOUS
  0
LINE
  8
RED
 10
5.290245
 20
167.246797
 30
0.000000
 11
5.290245
 21
4.052078
 31
0.000000
  6
CONTINUOUS
  0
ARC
  8
WHITE
 10
156.702854
 20
86.209750
 30
0.000000
 40
11.503549
 50
-144.168198
 51
-104.630920
  6
CONTINUOUS
  0
ARC
  8
WHITE
 10
100.594558
 20
-192.878062
 30
0.000000
 40
273.187893
 50
62.294118
 51
78.770040
  6
CONTINUOUS
  0
ARC
  8
WHITE
 10
198.165167
 20
-7.740151
 30
0.000000
 40
63.913749
 50
32.203782
 51
62.569354
  6
CONTINUOUS
  0
ARC
  8
WHITE
 10
246.157293
 20
22.812241
 30
0.000000
 40
7.027882
 50
-49.155082
 51
29.956301
  6
CONTINUOUS
  0
ARC
  8
WHITE
 10
247.276157
 20
22.535419
 30
0.000000
 40
6.122978
 50
-109.764915
 51
-55.393464
  6
CONTINUOUS
  0
LINE
  8
WHITE
 10
245.205600
 20
16.773158
 30
0.000000
 11
242.333957
 21
17.806605
 31
0.000000
  6
CONTINUOUS
  0
ARC
  8
WHITE
 10
240.678456
 20
13.211818
 30
0.000000
 40
4.883928
 50
70.185915
 51
126.106027
  6
CONTINUOUS
  0
LINE
  8
WHITE
 10
237.800448
 20
17.157680
 30
0.000000
 11
235.693734
 21
15.619139
 31
0.000000
  6
CONTINUOUS
  0
ARC
  8
WHITE
 10
232.404147
 20
20.116321
 30
0.000000
 40
5.571896
 50
-114.266169
 51
-53.815370
  6
CONTINUOUS
  0
LINE
  8
WHITE
 10
230.114231
 20
15.036723
 30
0.000000
 11
228.264865
 21
15.870356
 31
0.000000
  6
CONTINUOUS
  0
ARC
  8
WHITE
 10
226.431436
 20
11.889131
 30
0.000000
 40
4.383106
 50
65.273045
 51
121.006301
  6
CONTINUOUS
  0
LINE
  8
WHITE
 10
224.173556
 20
15.645938
 30
0.000000
 11
221.884166
 21
14.270651
 31
0.000000
  6
CONTINUOUS
  0
ARC
  8
WHITE
 10
219.206638
 20
21.923572
 30
0.000000
 40
8.107796
 50
-113.660440
 51
-70.716583
  6
CONTINUOUS
  0
LINE
  8
WHITE
 10
215.952854
 20
14.497318
 30
0.000000
 11
214.561917
 21
15.106652
 31
0.000000
  6
CONTINUOUS
  0
ARC
  8
WHITE
 10
212.520908
 20
10.455447
 30
0.000000
 40
5.079314
 50
66.307508
 51
117.777852
  6
CONTINUOUS
  0
LINE
  8
WHITE
 10
210.153720
 20
14.949427
 30
0.000000
 11
208.037387
 21
13.834682
 31
0.000000
  6
CONTINUOUS
  0
ARC
  8
WHITE
 10
204.970234
 20
19.646215
 30
0.000000
 40
6.571252
 50
-114.736781
 51
-62.176248
  6
CONTINUOUS
  0
LINE
  8
WHITE
 10
202.220492
 20
13.677943
 30
0.000000
 11
200.907740
 21
14.282635
 31
0.000000
  6
CONTINUOUS
  0
ARC
  8
WHITE
 10
198.494663
 20
9.034091
 30
0.000000
 40
5.776691
 50
65.308864
 51
121.602267
  6
CONTINUOUS
  0
LINE
  8
WHITE
 10
195.467563
 20
13.954134
 30
0.000000
 11
195.303134
 21
13.852923
 31
0.000000
  6
CONTINUOUS
  0
ARC
  8
WHITE
 10
191.397292
 20
20.182338
 30
0.000000
 40
7.437547
 50
-113.638713
 51
-58.321524
  6
CONTINUOUS
  0
LINE
  8
WHITE
 10
188.415073
 20
13.368861
 30
0.000000
 11
186.375417
 21
14.262499
 31
0.000000
  6
CONTINUOUS
  0
ARC
  8
WHITE
 10
184.231296
 20
9.374415
 30
0.000000
 40
5.337660
 50
66.315704
 51
120.071803
  6
CONTINUOUS
  0
LINE
  8
WHITE
 10
181.556675
 20
13.993617
 30
0.000000
 11
180.175327
 21
13.192508
 31
0.000000
  6
CONTINUOUS
  0
ARC
  8
WHITE
 10
177.737979
 20
17.389900
 30
0.000000
 40
4.853737
 50
-122.561935
 51
-59.857060
  6
CONTINUOUS
  0
LINE
  8
WHITE
 10
175.125644
 20
13.299121
 30
0.000000
 11
172.686094
 21
14.856972
 31
0.000000
  6
CONTINUOUS
  0
ARC
  8
WHITE
 10
170.487033
 20
11.410617
 30
0.000000
 40
4.088182
 50
57.458742
 51
115.713466
  6
CONTINUOUS
  0
LINE
  8
WHITE
 10
168.713290
 20
15.093967
 30
0.000000
 11
166.301773
 21
13.931558
 31
0.000000
  6
CONTINUOUS
  0
ARC
  8
WHITE
 10
164.029270
 20
18.639575
 30
0.000000
 40
5.227780
 50
-132.834228
 51
-64.233953
  6
CONTINUOUS
  0
LINE
  8
WHITE
 10
160.475009
 20
14.805919
 30
0.000000
 11
159.020237
 21
16.156047
 31
0.000000
  6
CONTINUOUS
  0
ARC
  8
WHITE
 10
156.074174
 20
12.981689
 30
0.000000
 40
4.330801
 50
47.136185
 51
122.297804
  6
CONTINUOUS
  0
ARC
  8
WHITE
 10
146.869058
 20
28.278365
 30
0.000000
 40
13.523380
 50
-87.398992
 51
-59.364937
  6
CONTINUOUS
  0
ARC
  8
WHITE
 10
146.866611
 20
23.788409
 30
0.000000
 40
9.040514
 50
-179.247421
 51
-86.092042
  6
CONTINUOUS
  0
ARC
  8
WHITE
 10
160.507244
 20
22.192481
 30
0.000000
 40
22.728420
 50
159.045965
 51
176.273558
  6
CONTINUOUS
  0
ARC
  8
WHITE
 10
66.411716
 20
52.169940
 30
0.000000
 40
76.075350
 50
-16.690796
 51
-1.470520
  6
CONTINUOUS
  0
ARC
  8
WHITE
 10
87.084507
 20
51.702163
 30
0.000000
 40
55.397398
 50
-1.535570
 51
21.535078
  6
CONTINUOUS
  0
LINE
  8
WHITE
 10
138.614779
 20
72.036929
 30
0.000000
 11
136.620522
 21
77.090597
 31
0.000000
  6
CONTINUOUS
  0
ARC
  8
WHITE
 10
139.646762
 20
78.154712
 30
0.000000
 40
3.207876
 50
122.588837
 51
199.373173
  6
CONTINUOUS
  0
LINE
  8
WHITE
 10
137.918979
 20
80.857531
 30
0.000000
 11
138.536916
 21
81.173428
 31
0.000000
  6
CONTINUOUS
  0
ARC
  8
WHITE
 10
138.878269
 20
80.505534
 30
0.000000
 40
0.750069
 50
25.607982
 51
117.071049
  6
CONTINUOUS
  0
LINE
  8
WHITE
 10
139.554660
 20
80.829722
 30
0.000000
 11
142.743991
 21
74.175716
 31
0.000000
  6
CONTINUOUS
  0
LINE
  8
WHITE
 10
142.743991
 20
74.175716
 30
0.000000
 11
144.164340
 21
74.856502
 31
0.000000
  6
CONTINUOUS
  0
LINE
  8
WHITE
 10
144.164340
 20
74.856502
 30
0.000000
 11
141.007355
 21
81.442820
 31
0.000000
  6
CONTINUOUS
  0
ARC
  8
WHITE
 10
141.683627
 20
81.767039
 30
0.000000
 40
0.749975
 50
114.077534
 51
205.614013
  6
CONTINUOUS
  0
LINE
  8
WHITE
 10
141.377658
 20
82.451762
 30
0.000000
 11
141.955905
 21
82.710193
 31
0.000000
  6
CONTINUOUS
  0
ARC
  8
WHITE
 10
143.236550
 20
79.835384
 30
0.000000
 40
3.147153
 50
35.830254
 51
114.011597
  6
CONTINUOUS
  0
LINE
  8
WHITE
 10
145.788119
 20
81.677683
 30
0.000000
 11
147.376477
 21
79.475483
 31
0.000000
  6
CONTINUOUS
  0
ARC
  8
WHITE
 10
150.894199
 20
70.652927
 30
0.000000
 40
1.614688
 50
102.077057
 51
246.182983
  6
CONTINUOUS
  0
ARC
  8
WHITE
 10
118.868708
 20
-18.132301
 30
0.000000
 40
92.773858
 50
52.548588
 51
70.234504
  6
CONTINUOUS
  0
ARC
  8
WHITE
 10
196.626956
 20
83.801112
 30
0.000000
 40
35.432756
 50
-127.039642
 51
-93.805689
  6
CONTINUOUS
  0
ARC
  8
WHITE
 10
194.285801
 20
58.886546
 30
0.000000
 40
10.440063
 50
-90.058292
 51
-79.381897
  6
CONTINUOUS
  0
ARC
  8
WHITE
 10
195.726903
 20
51.142512
 30
0.000000
 40
2.563109
 50
-79.147095
 51
41.466968
  6
CONTINUOUS
  0
ARC
  8
WHITE
 10
171.620090
 20
33.585513
 30
0.000000
 40
32.375215
 50
36.492832
 51
76.765762
  6
CONTINUOUS
  0
ARC
  8
WHITE
 10
59.828664
 20
-318.430960
 30
0.000000
 40
401.629301
 50
72.734556
 51
74.774548
  6
CONTINUOUS
  0
ARC
  8
WHITE
 10
123.651767
 20
-73.862744
 30
0.000000
 40
148.907856
 50
73.756743
 51
78.890862
  6
CONTINUOUS
  0
ARC
  8
WHITE
 10
151.518667
 20
66.886417
 30
0.000000
 40
5.431388
 50
81.269242
 51
100.205236
  6
CONTINUOUS
  0
ARC
  8
WHITE
 10
152.900993
 20
64.139330
 30
0.000000
 40
1.546511
 50
71.205729
 51
230.881176
  6
CONTINUOUS
  0
ARC
  8
WHITE
 10
175.727091
 20
93.768698
 30
0.000000
 40
38.948273
 50
-127.670106
 51
-116.613656
  6
CONTINUOUS
  0
ARC
  8
WHITE
 10
105.441745
 20
-22.307637
 30
0.000000
 40
96.923390
 50
26.785183
 51
56.965214
  6
CONTINUOUS
  0
ARC
  8
WHITE
 10
195.316604
 20
22.862623
 30
0.000000
 40
3.668272
 50
-155.999424
 51
-10.417488
  6
CONTINUOUS
  0
ARC
  8
WHITE
 10
192.430219
 20
23.033546
 30
0.000000
 40
6.547552
 50
-7.319903
 51
24.901779
  6
CONTINUOUS
  0
ARC
  8
WHITE
 10
110.276988
 20
-28.408240
 30
0.000000
 40
103.429750
 50
31.601947
 51
65.359522
  6
CONTINUOUS
  0
ARC
  8
WHITE
 10
130.290767
 20
42.753384
 30
0.000000
 40
19.002797
 50
9.813297
 51
27.971339
  6
CONTINUOUS
  0
ARC
  8
WHITE
 10
145.946575
 20
51.237957
 30
0.000000
 40
1.205762
 50
20.806676
 51
175.242869
  6
CONTINUOUS
  0
ARC
  8
WHITE
 10
183.392828
 20
48.903555
 30
0.000000
 40
38.724455
 50
176.395745
 51
184.717021
  6
CONTINUOUS
  0
ARC
  8
WHITE
 10
107.642673
 20
42.999995
 30
0.000000
 40
37.256214
 50
-9.772917
 51
4.185339
  6
CONTINUOUS
  0
ARC
  8
WHITE
 10
-157.879870
 20
92.949124
 30
0.000000
 40
307.432167
 50
-12.678903
 51
-10.547024
  6
CONTINUOUS
  0
ARC
  8
WHITE
 10
146.919711
 20
24.496958
 30
0.000000
 40
4.960734
 50
168.667386
 51
348.979065
  6
CONTINUOUS
  0
ARC
  8
WHITE
 10
134.831847
 20
26.671651
 30
0.000000
 40
17.242298
 50
-10.435339
 51
9.612325
  6
CONTINUOUS
  0
ARC
  8
WHITE
 10
-240.907150
 20
-29.266601
 30
0.000000
 40
397.119095
 50
8.517425
 51
10.924300
  6
CONTINUOUS
  0
ARC
  8
WHITE
 10
202.904492
 20
48.473010
 30
0.000000
 40
1.528429
 50
79.798077
 51
124.696822
  6
CONTINUOUS
  0
ARC
  8
WHITE
 10
202.382541
 20
49.227389
 30
0.000000
 40
0.611085
 50
124.723383
 51
162.721786
  6
CONTINUOUS
  0
ARC
  8
WHITE
 10
202.987732
 20
49.038099
 30
0.000000
 40
1.245188
 50
162.675795
 51
231.286459
  6
CONTINUOUS
  0
ARC
  8
WHITE
 10
-416.053108
 20
-773.592448
 30
0.000000
 40
1028.285666
 50
52.556496
 51
53.040155
  6
CONTINUOUS
  0
ARC
  8
WHITE
 10
159.228577
 20
-25.725496
 30
0.000000
 40
84.780209
 50
33.150148
 51
53.948443
  6
CONTINUOUS
  0
ARC
  8
WHITE
 10
232.530124
 20
22.495067
 30
0.000000
 40
2.973514
 50
-141.284875
 51
-5.183929
  6
CONTINUOUS
  0
ARC
  8
WHITE
 10
230.596539
 20
22.658570
 30
0.000000
 40
4.913976
 50
-5.045520
 51
40.713091
  6
CONTINUOUS
  0
ARC
  8
WHITE
 10
208.912814
 20
6.570521
 30
0.000000
 40
31.903298
 50
37.210350
 51
46.863564
  6
CONTINUOUS
  0
ARC
  8
WHITE
 10
128.066469
 20
-77.972584
 30
0.000000
 40
148.879212
 50
46.405406
 51
58.652176
  6
CONTINUOUS
  0
ARC
  8
WHITE
 10
201.733337
 20
41.953139
 30
0.000000
 40
8.152652
 50
62.338198
 51
79.813166
  6
CONTINUOUS
  0
ARC
  8
WHITE
 10
148.053627
 20
60.619672
 30
0.000000
 40
1.375332
 50
103.423744
 51
207.591163
  6
CONTINUOUS
  0
ARC
  8
WHITE
 10
176.049437
 20
79.256876
 30
0.000000
 40
34.999935
 50
-146.585464
 51
-137.259769
  6
CONTINUOUS
  0
ARC
  8
WHITE
 10
233.280674
 20
118.559325
 30
0.000000
 40
104.185089
 50
-142.754532
 51
-136.813461
  6
CONTINUOUS
  0
ARC
  8
WHITE
 10
172.025187
 20
60.125957
 30
0.000000
 40
19.543490
 50
-138.818320
 51
-108.239447
  6
CONTINUOUS
  0
ARC
  8
WHITE
 10
171.709994
 20
61.032702
 30
0.000000
 40
20.314397
 50
-106.594453
 51
-92.764038
  6
CONTINUOUS
  0
ARC
  8
WHITE
 10
170.701142
 20
42.236741
 30
0.000000
 40
1.495088
 50
-88.879583
 51
15.566211
  6
CONTINUOUS
  0
ARC
  8
WHITE
 10
167.395676
 20
41.224286
 30
0.000000
 40
4.951793
 50
16.587855
 51
40.893855
  6
CONTINUOUS
  0
ARC
  8
WHITE
 10
141.245090
 20
22.442470
 30
0.000000
 40
37.130502
 50
36.380093
 51
58.310368
  6
CONTINUOUS
  0
LINE
  8
WHITE
 10
160.750399
 20
54.037044
 30
0.000000
 11
148.651340
 21
61.801745
 31
0.000000
  6
CONTINUOUS
  0
ARC
  8
WHITE
 10
148.009961
 20
60.802402
 30
0.000000
 40
1.187457
 50
57.307639
 51
103.421208
  6
CONTINUOUS
  0
LINE
  8
WHITE
 10
209.572163
 20
26.626786
 30
0.000000
 11
209.549151
 21
26.661064
 31
0.000000
  6
CONTINUOUS
  0
ARC
  8
WHITE
 10
164.695224
 20
-2.432545
 30
0.000000
 40
53.463192
 50
32.968658
 51
45.316124
  6
CONTINUOUS
  0
ARC
  8
WHITE
 10
146.126699
 20
-16.903322
 30
0.000000
 40
76.868762
 50
43.059749
 51
54.294648
  6
CONTINUOUS
  0
ARC
  8
WHITE
 10
190.197200
 20
44.303301
 30
0.000000
 40
1.448384
 50
56.878516
 51
219.816009
  6
CONTINUOUS
  0
LINE
  8
WHITE
 10
189.084689
 20
43.375865
 30
0.000000
 11
192.380886
 21
39.427553
 31
0.000000
  6
CONTINUOUS
  0
ARC
  8
WHITE
 10
123.922397
 20
-17.723729
 30
0.000000
 40
89.178663
 50
29.626175
 51
39.856182
  6
CONTINUOUS
  0
ARC
  8
WHITE
 10
275.456618
 20
69.829469
 30
0.000000
 40
85.834690
 50
-149.574107
 51
-144.365444
  6
CONTINUOUS
  0
ARC
  8
WHITE
 10
208.124081
 20
22.079681
 30
0.000000
 40
3.317267
 50
-137.088008
 51
3.932423
  6
CONTINUOUS
  0
ARC
  8
WHITE
 10
206.853977
 20
22.398799
 30
0.000000
 40
4.580478
 50
-1.146120
 51
18.706831
  6
CONTINUOUS
  0
ARC
  8
WHITE
 10
199.942287
 20
19.115872
 30
0.000000
 40
12.212631
 50
22.898870
 51
37.952791
  6
CONTINUOUS
  0
LINE
  8
WHITE
 10
220.312960
 20
27.916660
 30
0.000000
 11
220.287692
 21
27.949181
 31
0.000000
  6
CONTINUOUS
  0
ARC
  8
WHITE
 10
177.572643
 20
-4.202588
 30
0.000000
 40
53.463181
 50
36.968907
 51
49.316496
  6
CONTINUOUS
  0
ARC
  8
WHITE
 10
160.058444
 20
-19.933126
 30
0.000000
 40
76.868774
 50
47.059689
 51
58.294575
  6
CONTINUOUS
  0
ARC
  8
WHITE
 10
199.752119
 20
44.198608
 30
0.000000
 40
1.448347
 50
60.877488
 51
223.817440
  6
CONTINUOUS
  0
LINE
  8
WHITE
 10
198.707065
 20
43.195826
 30
0.000000
 11
202.270666
 21
39.487071
 31
0.000000
  6
CONTINUOUS
  0
ARC
  8
WHITE
 10
137.964923
 20
-22.299923
 30
0.000000
 40
89.178816
 50
33.625706
 51
43.855648
  6
CONTINUOUS
  0
ARC
  8
WHITE
 10
283.022555
 20
75.610805
 30
0.000000
 40
85.834677
 50
-145.573425
 51
-140.364746
  6
CONTINUOUS
  0
ARC
  8
WHITE
 10
219.185438
 20
23.279840
 30
0.000000
 40
3.317310
 50
-133.084143
 51
7.927974
  6
CONTINUOUS
  0
ARC
  8
WHITE
 10
217.896335
 20
23.509310
 30
0.000000
 40
4.580389
 50
2.854223
 51
22.706990
  6
CONTINUOUS
  0
ARC
  8
WHITE
 10
211.230207
 20
19.752581
 30
0.000000
 40
12.212641
 50
26.896963
 51
41.950950
  6
CONTINUOUS
  0
ARC
  8
WHITE
 10
179.973362
 20
30.377276
 30
0.000000
 40
24.878651
 50
-174.694031
 51
-163.839813
  6
CONTINUOUS
  0
ARC
  8
WHITE
 10
160.177887
 20
25.036472
 30
0.000000
 40
4.395314
 50
-158.883009
 51
12.876015
  6
CONTINUOUS
  0
ARC
  8
WHITE
 10
139.362437
 20
20.231667
 30
0.000000
 40
25.758104
 50
12.977065
 51
31.406683
  6
CONTINUOUS
  0
ARC
  8
WHITE
 10
22.531141
 20
-30.334744
 30
0.000000
 40
152.854123
 50
24.748072
 51
29.441904
  6
CONTINUOUS
  0
ARC
  8
WHITE
 10
146.970229
 20
40.218012
 30
0.000000
 40
9.810054
 50
27.839642
 51
48.161426
  6
CONTINUOUS
  0
ARC
  8
WHITE
 10
152.548556
 20
46.722621
 30
0.000000
 40
1.256377
 50
39.795713
 51
191.982193
  6
CONTINUOUS
  0
ARC
  8
WHITE
 10
168.454752
 20
48.208521
 30
0.000000
 40
17.223999
 50
-174.179470
 51
-159.800299
  6
CONTINUOUS
  0
ARC
  8
WHITE
 10
76.676012
 20
19.351355
 30
0.000000
 40
79.008566
 50
6.340373
 51
16.855949
  6
CONTINUOUS
  0
ARC
  8
WHITE
 10
226.421141
 20
42.783144
 30
0.000000
 40
1.471961
 50
68.124621
 51
206.089028
  6
CONTINUOUS
  0
ARC
  8
WHITE
 10
267.356491
 20
66.847985
 30
0.000000
 40
48.952766
 50
-149.680833
 51
-136.907668
  6
CONTINUOUS
  0
ARC
  8
WHITE
 10
145.883518
 20
-45.081769
 30
0.000000
 40
116.227775
 50
36.997540
 51
42.475967
  6
CONTINUOUS
  0
ARC
  8
WHITE
 10
259.205955
 20
42.269166
 30
0.000000
 40
26.890372
 50
-139.658413
 51
-132.157642
  6
CONTINUOUS
  0
ARC
  8
WHITE
 10
243.111809
 20
24.805048
 30
0.000000
 40
3.149205
 50
-128.349318
 51
18.940724
  6
CONTINUOUS
  0
ARC
  8
WHITE
 10
232.399387
 20
20.835559
 30
0.000000
 40
14.572699
 50
20.031520
 51
33.067009
  6
CONTINUOUS
  0
ARC
  8
WHITE
 10
205.022797
 20
1.534694
 30
0.000000
 40
48.062050
 50
34.542494
 51
59.487749
  6
CONTINUOUS
  0
ARC
  8
WHITE
 10
223.288608
 20
33.567477
 30
0.000000
 40
11.203601
 50
56.789629
 51
70.819069
  6
CONTINUOUS
  0
ARC
  8
WHITE
 10
172.147067
 20
29.671039
 30
0.000000
 40
8.405234
 50
46.481583
 51
76.266296
  6
CONTINUOUS
  0
ARC
  8
WHITE
 10
173.418112
 20
32.383344
 30
0.000000
 40
5.500534
 50
82.431966
 51
95.358930
  6
CONTINUOUS
  0
ARC
  8
WHITE
 10
173.180332
 20
36.477550
 30
0.000000
 40
1.409559
 50
101.289337
 51
210.113129
  6
CONTINUOUS
  0
LINE
  8
WHITE
 10
171.961011
 20
35.770361
 30
0.000000
 11
173.867692
 21
32.489250
 31
0.000000
  6
CONTINUOUS
  0
ARC
  8
WHITE
 10
132.506015
 20
8.454265
 30
0.000000
 40
47.837943
 50
24.028519
 51
30.160576
  6
CONTINUOUS
  0
LINE
  8
WHITE
 10
176.198461
 20
27.933460
 30
0.000000
 11
179.348789
 21
20.867168
 31
0.000000
  6
CONTINUOUS
  0
ARC
  8
WHITE
 10
182.602237
 20
22.318003
 30
0.000000
 40
3.562281
 50
-155.966106
 51
-4.066117
  6
CONTINUOUS
  0
ARC
  8
WHITE
 10
180.280072
 20
22.375559
 30
0.000000
 40
5.883660
 50
-3.021671
 51
22.763439
  6
CONTINUOUS
  0
ARC
  8
WHITE
 10
154.931549
 20
11.409269
 30
0.000000
 40
33.502330
 50
23.283508
 51
46.637115
  6
CONTINUOUS
  0
ARC
  8
WHITE
 10
162.502979
 20
33.483650
 30
0.000000
 40
6.680451
 50
31.573329
 51
66.612286
  6
CONTINUOUS
  0
ARC
  8
WHITE
 10
164.538149
 20
37.845149
 30
0.000000
 40
1.874420
 50
70.793264
 51
199.547443
  6
CONTINUOUS
  0
ARC
  8
WHITE
 10
219.896945
 20
54.447543
 30
0.000000
 40
59.666943
 50
-163.216141
 51
-155.447917
  6
CONTINUOUS
  0
LINE
  8
WHITE
 10
165.624854
 20
29.654721
 30
0.000000
 11
169.251987
 21
21.714626
 31
0.000000
  6
CONTINUOUS
  0
ARC
  8
WHITE
 10
171.812312
 20
22.886801
 30
0.000000
 40
2.815894
 50
-155.400598
 51
-24.951276
  6
CONTINUOUS
  0
ARC
  8
WHITE
 10
170.611760
 20
23.432318
 30
0.000000
 40
4.134535
 50
-24.787089
 51
21.432909
  6
CONTINUOUS
  0
ARC
  8
WHITE
 10
121.208819
 20
4.875987
 30
0.000000
 40
56.907103
 50
20.648247
 51
34.344914
  6
CONTINUOUS
  0
ARC
  8
WHITE
 10
201.388278
 20
55.543430
 30
0.000000
 40
1.296280
 50
90.380371
 51
219.825256
  6
CONTINUOUS
  0
ARC
  8
WHITE
 10
205.472812
 20
59.440989
 30
0.000000
 40
6.939662
 50
-137.057303
 51
-117.939087
  6
CONTINUOUS
  0
LINE
  8
WHITE
 10
202.221354
 20
53.310172
 30
0.000000
 11
218.616488
 21
43.442423
 31
0.000000
  6
CONTINUOUS
  0
ARC
  8
WHITE
 10
219.410434
 20
44.887973
 30
0.000000
 40
1.649231
 50
-118.777109
 51
-30.201508
  6
CONTINUOUS
  0
ARC
  8
WHITE
 10
217.796958
 20
45.083837
 30
0.000000
 40
3.207212
 50
-18.647657
 51
25.459268
  6
CONTINUOUS
  0
ARC
  8
WHITE
 10
211.020038
 20
41.345366
 30
0.000000
 40
10.942854
 50
27.880245
 51
49.936005
  6
CONTINUOUS
  0
ARC
  8
WHITE
 10
204.706149
 20
34.860888
 30
0.000000
 40
19.980337
 50
48.047356
 51
67.947273
  6
CONTINUOUS
  0
ARC
  8
WHITE
 10
186.535097
 20
1.816019
 30
0.000000
 40
57.601060
 50
63.531788
 51
70.289714
  6
CONTINUOUS
  0
ARC
  8
WHITE
 10
202.046147
 20
47.105701
 30
0.000000
 40
9.756770
 50
66.338362
 51
93.916866
  6
CONTINUOUS
  0
ARC
  8
WHITE
 10
180.840549
 20
53.100253
 30
0.000000
 40
55.397530
 50
160.078934
 51
183.149536
  6
CONTINUOUS
  0
ARC
  8
WHITE
 10
201.491913
 20
54.150183
 30
0.000000
 40
76.075435
 50
-176.915449
 51
-161.695184
  6
CONTINUOUS
  0
ARC
  8
WHITE
 10
108.278049
 20
21.534290
 30
0.000000
 40
22.728358
 50
5.340445
 51
22.568078
  6
CONTINUOUS
  0
ARC
  8
WHITE
 10
121.868198
 20
23.513801
 30
0.000000
 40
9.040572
 50
-92.292904
 51
0.861283
  6
CONTINUOUS
  0
ARC
  8
WHITE
 10
121.739414
 20
28.001895
 30
0.000000
 40
13.523433
 50
-119.021214
 51
-90.986840
  6
CONTINUOUS
  0
ARC
  8
WHITE
 10
112.968662
 20
12.451961
 30
0.000000
 40
4.330864
 50
59.315523
 51
134.476688
  6
CONTINUOUS
  0
LINE
  8
WHITE
 10
109.934376
 20
15.542186
 30
0.000000
 11
108.518283
 21
14.151591
 31
0.000000
  6
CONTINUOUS
  0
ARC
  8
WHITE
 10
104.857391
 20
17.883630
 30
0.000000
 40
5.227834
 50
-114.151513
 51
-45.551374
  6
CONTINUOUS
  0
LINE
  8
WHITE
 10
102.718417
 20
13.113406
 30
0.000000
 11
100.275241
 21
14.207484
 31
0.000000
  6
CONTINUOUS
  0
ARC
  8
WHITE
 10
98.605868
 20
10.475635
 30
0.000000
 40
4.088215
 50
65.899544
 51
124.154480
  6
CONTINUOUS
  0
LINE
  8
WHITE
 10
96.310637
 20
13.858743
 30
0.000000
 11
93.915989
 21
12.232738
 31
0.000000
  6
CONTINUOUS
  0
ARC
  8
WHITE
 10
91.189364
 20
16.248286
 30
0.000000
 40
4.853772
 50
-118.528687
 51
-55.822840
  6
CONTINUOUS
  0
LINE
  8
WHITE
 10
88.871209
 20
11.983868
 30
0.000000
 11
87.467929
 21
12.745822
 31
0.000000
  6
CONTINUOUS
  0
ARC
  8
WHITE
 10
84.924335
 20
8.053168
 30
0.000000
 40
5.337684
 50
61.540648
 51
115.297237
  6
CONTINUOUS
  0
LINE
  8
WHITE
 10
82.643466
 20
12.878985
 30
0.000000
 11
80.629856
 21
11.928142
 31
0.000000
  6
CONTINUOUS
  0
ARC
  8
WHITE
 10
77.456821
 20
18.654910
 30
0.000000
 40
7.437577
 50
-120.064529
 51
-64.746621
  6
CONTINUOUS
  0
LINE
  8
WHITE
 10
73.730780
 20
12.217971
 30
0.000000
 11
73.563632
 21
12.314563
 31
0.000000
  6
CONTINUOUS
  0
ARC
  8
WHITE
 10
70.676130
 20
7.311270
 30
0.000000
 40
5.776730
 50
60.009879
 51
116.304245
  6
CONTINUOUS
  0
LINE
  8
WHITE
 10
68.116244
 20
12.489840
 30
0.000000
 11
66.821140
 21
11.848262
 31
0.000000
  6
CONTINUOUS
  0
ARC
  8
WHITE
 10
63.904270
 20
17.736659
 30
0.000000
 40
6.571252
 50
-116.209747
 51
-63.648078
  6
CONTINUOUS
  0
LINE
  8
WHITE
 10
61.002020
 20
11.841042
 30
0.000000
 11
58.855319
 21
12.895808
 31
0.000000
  6
CONTINUOUS
  0
ARC
  8
WHITE
 10
56.615437
 20
8.337007
 30
0.000000
 40
5.079345
 50
63.833662
 51
115.305377
  6
CONTINUOUS
  0
LINE
  8
WHITE
 10
54.444308
 20
12.928950
 30
0.000000
 11
53.071201
 21
12.280528
 31
0.000000
  6
CONTINUOUS
  0
ARC
  8
WHITE
 10
49.609394
 20
19.612213
 30
0.000000
 40
8.107880
 50
-107.669289
 51
-64.724689
  6
CONTINUOUS
  0
LINE
  8
WHITE
 10
47.148471
 20
11.886828
 30
0.000000
 11
44.821384
 21
13.197154
 31
0.000000
  6
CONTINUOUS
  0
ARC
  8
WHITE
 10
42.670078
 20
9.378169
 30
0.000000
 40
4.383237
 50
60.606622
 51
116.339600
  6
CONTINUOUS
  0
LINE
  8
WHITE
 10
40.725276
 20
13.306338
 30
0.000000
 11
38.900119
 21
12.420856
 31
0.000000
  6
CONTINUOUS
  0
ARC
  8
WHITE
 10
36.467957
 20
17.434047
 30
0.000000
 40
5.572028
 50
-124.568593
 51
-64.119542
  6
CONTINUOUS
  0
LINE
  8
WHITE
 10
33.306430
 20
12.845774
 30
0.000000
 11
31.157321
 21
14.324489
 31
0.000000
  6
CONTINUOUS
  0
ARC
  8
WHITE
 10
28.391513
 20
10.299121
 30
0.000000
 40
4.883982
 50
55.507257
 51
111.427147
  6
CONTINUOUS
  0
LINE
  8
WHITE
 10
26.607307
 20
14.845536
 30
0.000000
 11
23.765903
 21
13.731548
 31
0.000000
  6
CONTINUOUS
  0
ARC
  8
WHITE
 10
21.533751
 20
19.433262
 30
0.000000
 40
6.123075
 50
-122.991146
 51
-68.620264
  6
CONTINUOUS
  0
ARC
  8
WHITE
 10
22.644565
 20
19.741367
 30
0.000000
 40
7.027990
 50
151.657100
 51
230.768539
  6
CONTINUOUS
  0
ARC
  8
WHITE
 10
71.478061
 20
-9.447247
 30
0.000000
 40
63.913795
 50
119.044479
 51
149.410034
  6
CONTINUOUS
  0
ARC
  8
WHITE
 10
174.224662
 20
-191.763445
 30
0.000000
 40
273.187912
 50
102.843981
 51
119.319876
  6
CONTINUOUS
  0
ARC
  8
WHITE
 10
110.277614
 20
85.633297
 30
0.000000
 40
11.503591
 50
-73.754333
 51
-34.217165
  6
CONTINUOUS
  0
LINE
  8
WHITE
 10
119.790073
 20
79.164470
 30
0.000000
 11
121.315891
 21
81.410487
 31
0.000000
  6
CONTINUOUS
  0
ARC
  8
WHITE
 10
123.918339
 20
79.640807
 30
0.000000
 40
3.147142
 50
67.601885
 51
145.784073
  6
CONTINUOUS
  0
LINE
  8
WHITE
 10
125.117526
 20
82.550525
 30
0.000000
 11
125.702732
 21
82.308482
 31
0.000000
  6
CONTINUOUS
  0
ARC
  8
WHITE
 10
125.416163
 20
81.615387
 30
0.000000
 40
0.750002
 50
-23.994718
 51
67.536786
  6
CONTINUOUS
  0
LINE
  8
WHITE
 10
126.101352
 20
81.310397
 30
0.000000
 11
123.131198
 21
74.637737
 31
0.000000
  6
CONTINUOUS
  0
LINE
  8
WHITE
 10
123.131198
 20
74.637737
 30
0.000000
 11
124.570041
 21
73.997234
 31
0.000000
  6
CONTINUOUS
  0
LINE
  8
WHITE
 10
124.570041
 20
73.997234
 30
0.000000
 11
127.570773
 21
80.738421
 31
0.000000
  6
CONTINUOUS
  0
ARC
  8
WHITE
 10
128.255954
 20
80.433413
 30
0.000000
 40
0.750002
 50
64.537560
 51
156.003810
  6
CONTINUOUS
  0
LINE
  8
WHITE
 10
128.578395
 20
81.110566
 30
0.000000
 11
129.204989
 21
80.812304
 31
0.000000
  6
CONTINUOUS
  0
ARC
  8
WHITE
 10
127.553927
 20
78.061877
 30
0.000000
 40
3.207936
 50
-17.758057
 51
59.023914
  6
CONTINUOUS
  0
LINE
  8
WHITE
 10
130.609015
 20
77.083463
 30
0.000000
 11
128.757846
 21
71.975590
 31
0.000000
  6
CONTINUOUS
  0
ARC
  8
WHITE
 10
116.522361
 20
70.246289
 30
0.000000
 40
1.614641
 50
-64.567108
 51
79.539059
  6
CONTINUOUS
  0
ARC
  8
WHITE
 10
116.004184
 20
66.463656
 30
0.000000
 40
5.431378
 50
81.408995
 51
100.343674
  6
CONTINUOUS
  0
ARC
  8
WHITE
 10
147.823514
 20
-73.444927
 30
0.000000
 40
148.907812
 50
102.722771
 51
107.856901
  6
CONTINUOUS
  0
ARC
  8
WHITE
 10
218.512214
 20
-316.117771
 30
0.000000
 40
401.629303
 50
106.839682
 51
108.879676
  6
CONTINUOUS
  0
ARC
  8
WHITE
 10
96.848472
 20
32.609777
 30
0.000000
 40
32.375181
 50
104.847761
 51
145.120884
  6
CONTINUOUS
  0
ARC
  8
WHITE
 10
72.256789
 20
49.480876
 30
0.000000
 40
2.563112
 50
140.145403
 51
260.763121
  6
CONTINUOUS
  0
ARC
  8
WHITE
 10
73.479404
 20
57.262424
 30
0.000000
 40
10.440093
 50
-99.004702
 51
-88.327637
  6
CONTINUOUS
  0
ARC
  8
WHITE
 10
70.437226
 20
82.101132
 30
0.000000
 40
35.432775
 50
-84.579951
 51
-51.346055
  6
CONTINUOUS
  0
ARC
  8
WHITE
 10
151.035739
 20
-17.601689
 30
0.000000
 40
92.773864
 50
111.379395
 51
129.065338
  6
CONTINUOUS
  0
ARC
  8
WHITE
 10
114.699848
 20
63.678830
 30
0.000000
 40
1.546520
 50
-49.268094
 51
110.410855
  6
CONTINUOUS
  0
ARC
  8
WHITE
 10
159.913571
 20
-27.631630
 30
0.000000
 40
103.429877
 50
116.254451
 51
150.012038
  6
CONTINUOUS
  0
ARC
  8
WHITE
 10
76.344089
 20
21.475833
 30
0.000000
 40
6.547726
 50
156.712095
 51
188.933044
  6
CONTINUOUS
  0
ARC
  8
WHITE
 10
73.463434
 20
21.223766
 30
0.000000
 40
3.668236
 50
-167.968124
 51
-22.386453
  6
CONTINUOUS
  0
ARC
  8
WHITE
 10
164.574941
 20
-21.397305
 30
0.000000
 40
96.923524
 50
124.648730
 51
154.828751
  6
CONTINUOUS
  0
ARC
  8
WHITE
 10
91.048556
 20
92.653712
 30
0.000000
 40
38.948243
 50
-61.773103
 51
-50.716432
  6
CONTINUOUS
  0
ARC
  8
WHITE
 10
137.903492
 20
42.938055
 30
0.000000
 40
19.002976
 50
153.642642
 51
171.800531
  6
CONTINUOUS
  0
ARC
  8
WHITE
 10
510.982376
 20
-18.599801
 30
0.000000
 40
397.119260
 50
170.689464
 51
173.096346
  6
CONTINUOUS
  0
ARC
  8
WHITE
 10
133.817273
 20
26.734016
 30
0.000000
 40
17.242755
 50
171.999159
 51
192.046419
  6
CONTINUOUS
  0
ARC
  8
WHITE
 10
121.791983
 20
24.233658
 30
0.000000
 40
4.960859
 50
-167.209417
 51
12.790584
  6
CONTINUOUS
  0
ARC
  8
WHITE
 10
424.546970
 20
101.226504
 30
0.000000
 40
307.432366
 50
-167.839767
 51
-165.707870
  6
CONTINUOUS
  0
ARC
  8
WHITE
 10
160.535615
 20
43.822507
 30
0.000000
 40
37.256263
 50
177.428603
 51
191.386722
  6
CONTINUOUS
  0
ARC
  8
WHITE
 10
84.649208
 20
47.590748
 30
0.000000
 40
38.724464
 50
-3.103841
 51
5.217441
  6
CONTINUOUS
  0
ARC
  8
WHITE
 10
122.014804
 20
50.978060
 30
0.000000
 40
1.205906
 50
6.385822
 51
160.793305
  6
CONTINUOUS
  0
ARC
  8
WHITE
 10
65.157260
 20
46.610240
 30
0.000000
 40
1.528509
 50
56.913872
 51
101.814064
  6
CONTINUOUS
  0
ARC
  8
WHITE
 10
66.511913
 20
40.125973
 30
0.000000
 40
8.152767
 50
101.802763
 51
119.277139
  6
CONTINUOUS
  0
ARC
  8
WHITE
 10
143.526986
 20
-77.677426
 30
0.000000
 40
148.879255
 50
122.961740
 51
135.208512
  6
CONTINUOUS
  0
ARC
  8
WHITE
 10
60.331313
 20
4.554788
 30
0.000000
 40
31.903394
 50
134.749531
 51
144.402704
  6
CONTINUOUS
  0
ARC
  8
WHITE
 10
38.203403
 20
20.026004
 30
0.000000
 40
4.914188
 50
140.900029
 51
186.658432
  6
CONTINUOUS
  0
ARC
  8
WHITE
 10
36.275090
 20
19.808445
 30
0.000000
 40
2.973665
 50
-173.197115
 51
-37.104833
  6
CONTINUOUS
  0
ARC
  8
WHITE
 10
110.905732
 20
-26.328884
 30
0.000000
 40
84.780340
 50
127.665418
 51
148.463703
  6
CONTINUOUS
  0
ARC
  8
WHITE
 10
707.022861
 20
-757.696233
 30
0.000000
 40
1028.285706
 50
128.573792
 51
129.057449
  6
CONTINUOUS
  0
ARC
  8
WHITE
 10
65.058357
 20
47.172672
 30
0.000000
 40
1.245049
 50
-49.675467
 51
18.943832
  6
CONTINUOUS
  0
ARC
  8
WHITE
 10
65.657835
 20
47.379158
 30
0.000000
 40
0.611007
 50
18.879458
 51
56.881553
  6
CONTINUOUS
  0
ARC
  8
WHITE
 10
119.644321
 20
60.297030
 30
0.000000
 40
1.375277
 50
-25.977417
 51
78.184418
  6
CONTINUOUS
  0
ARC
  8
WHITE
 10
119.682697
 20
60.480815
 30
0.000000
 40
1.187527
 50
78.181069
 51
124.300050
  6
CONTINUOUS
  0
LINE
  8
WHITE
 10
119.013493
 20
61.461829
 30
0.000000
 11
107.138034
 21
53.359391
 31
0.000000
  6
CONTINUOUS
  0
ARC
  8
WHITE
 10
127.525508
 20
22.326699
 30
0.000000
 40
37.130541
 50
123.303618
 51
145.233827
  6
CONTINUOUS
  0
ARC
  8
WHITE
 10
100.856207
 20
40.364547
 30
0.000000
 40
4.951749
 50
140.719314
 51
165.025984
  6
CONTINUOUS
  0
ARC
  8
WHITE
 10
97.523519
 20
41.283445
 30
0.000000
 40
1.495040
 50
166.045136
 51
270.498739
  6
CONTINUOUS
  0
ARC
  8
WHITE
 10
95.985812
 20
60.043589
 30
0.000000
 40
20.314402
 50
-85.622009
 51
-71.791626
  6
CONTINUOUS
  0
ARC
  8
WHITE
 10
95.696103
 20
59.128186
 30
0.000000
 40
19.543423
 50
-70.145997
 51
-39.567315
  6
CONTINUOUS
  0
ARC
  8
WHITE
 10
32.819362
 20
115.813410
 30
0.000000
 40
104.185050
 50
-41.572716
 51
-35.631615
  6
CONTINUOUS
  0
ARC
  8
WHITE
 10
91.134524
 20
78.138032
 30
0.000000
 40
34.999869
 50
-41.125683
 51
-31.800025
  6
CONTINUOUS
  0
LINE
  8
WHITE
 10
48.359115
 20
25.604827
 30
0.000000
 11
48.334772
 21
25.571775
 31
0.000000
  6
CONTINUOUS
  0
ARC
  8
WHITE
 10
57.643710
 20
17.666393
 30
0.000000
 40
12.212755
 50
139.661255
 51
154.715210
  6
CONTINUOUS
  0
ARC
  8
WHITE
 10
50.874713
 20
21.234344
 30
0.000000
 40
4.580584
 50
158.908870
 51
178.761455
  6
CONTINUOUS
  0
ARC
  8
WHITE
 10
49.592204
 20
20.968282
 30
0.000000
 40
3.317155
 50
173.681473
 51
314.705327
  6
CONTINUOUS
  0
ARC
  8
WHITE
 10
-15.693061
 20
71.481062
 30
0.000000
 40
85.834576
 50
-38.021480
 51
-32.812884
  6
CONTINUOUS
  0
ARC
  8
WHITE
 10
132.064181
 20
-22.306104
 30
0.000000
 40
89.178939
 50
137.757909
 51
147.987869
  6
CONTINUOUS
  0
LINE
  8
WHITE
 10
66.044038
 20
37.645741
 30
0.000000
 11
69.501726
 21
41.453465
 31
0.000000
  6
CONTINUOUS
  0
ARC
  8
WHITE
 10
68.428739
 20
42.426294
 30
0.000000
 40
1.448343
 50
-42.197160
 51
120.728869
  6
CONTINUOUS
  0
ARC
  8
WHITE
 10
109.913083
 20
-20.562019
 30
0.000000
 40
76.868837
 50
123.319325
 51
134.554255
  6
CONTINUOUS
  0
ARC
  8
WHITE
 10
91.963146
 20
-5.330593
 30
0.000000
 40
53.463181
 50
132.298039
 51
144.645733
  6
CONTINUOUS
  0
LINE
  8
WHITE
 10
59.129612
 20
24.619573
 30
0.000000
 11
59.107639
 21
24.584917
 31
0.000000
  6
CONTINUOUS
  0
ARC
  8
WHITE
 10
68.945346
 20
17.348201
 30
0.000000
 40
12.212721
 50
143.661425
 51
158.715195
  6
CONTINUOUS
  0
ARC
  8
WHITE
 10
61.943951
 20
20.435183
 30
0.000000
 40
4.580579
 50
162.907705
 51
182.760168
  6
CONTINUOUS
  0
ARC
  8
WHITE
 10
60.683080
 20
20.080340
 30
0.000000
 40
3.317112
 50
177.680275
 51
318.706000
  6
CONTINUOUS
  0
ARC
  8
WHITE
 10
-7.967008
 20
65.915690
 30
0.000000
 40
85.834579
 50
-34.021179
 51
-28.812622
  6
CONTINUOUS
  0
ARC
  8
WHITE
 10
145.972441
 20
-17.335953
 30
0.000000
 40
89.178800
 50
141.757554
 51
151.987600
  6
CONTINUOUS
  0
LINE
  8
WHITE
 10
75.931541
 20
37.864869
 30
0.000000
 11
79.115207
 21
41.904384
 31
0.000000
  6
CONTINUOUS
  0
ARC
  8
WHITE
 10
77.976840
 20
42.799976
 30
0.000000
 40
1.448434
 50
-38.193329
 51
124.725755
  6
CONTINUOUS
  0
ARC
  8
WHITE
 10
123.754194
 20
-17.140873
 30
0.000000
 40
76.868878
 50
127.319497
 51
138.554376
  6
CONTINUOUS
  0
ARC
  8
WHITE
 10
104.785558
 20
-3.198652
 30
0.000000
 40
53.463249
 50
136.298279
 51
148.645996
  6
CONTINUOUS
  0
ARC
  8
WHITE
 10
88.590280
 20
29.172200
 30
0.000000
 40
24.877639
 50
-14.557034
 51
-3.702791
  6
CONTINUOUS
  0
ARC
  8
WHITE
 10
192.155978
 20
21.055278
 30
0.000000
 40
79.008672
 50
164.757897
 51
175.273478
  6
CONTINUOUS
  0
ARC
  8
WHITE
 10
99.600864
 20
47.316249
 30
0.000000
 40
17.223969
 50
-18.585909
 51
-4.206787
  6
CONTINUOUS
  0
ARC
  8
WHITE
 10
115.542646
 20
46.279253
 30
0.000000
 40
1.256366
 50
-10.385746
 51
141.830884
  6
CONTINUOUS
  0
ARC
  8
WHITE
 10
121.302204
 20
39.934498
 30
0.000000
 40
9.810052
 50
133.455783
 51
153.777574
  6
CONTINUOUS
  0
ARC
  8
WHITE
 10
247.678989
 20
-27.085683
 30
0.000000
 40
152.854168
 50
152.172165
 51
156.865997
  6
CONTINUOUS
  0
ARC
  8
WHITE
 10
129.469589
 20
20.169214
 30
0.000000
 40
25.758344
 50
150.205971
 51
168.635643
  6
CONTINUOUS
  0
ARC
  8
WHITE
 10
108.524699
 20
24.379874
 30
0.000000
 40
4.394401
 50
168.648256
 51
340.588118
  6
CONTINUOUS
  0
ARC
  8
WHITE
 10
41.810214
 20
40.260280
 30
0.000000
 40
1.472035
 50
-24.472931
 51
113.488480
  6
CONTINUOUS
  0
ARC
  8
WHITE
 10
45.201447
 20
31.136638
 30
0.000000
 40
11.203680
 50
110.796878
 51
124.825528
  6
CONTINUOUS
  0
ARC
  8
WHITE
 10
64.362033
 20
-0.369016
 30
0.000000
 40
48.062049
 50
122.126280
 51
147.071579
  6
CONTINUOUS
  0
ARC
  8
WHITE
 10
36.452195
 20
18.152462
 30
0.000000
 40
14.572623
 50
148.544081
 51
161.579876
  6
CONTINUOUS
  0
ARC
  8
WHITE
 10
25.632536
 20
21.819269
 30
0.000000
 40
3.149238
 50
162.673703
 51
309.964999
  6
CONTINUOUS
  0
ARC
  8
WHITE
 10
9.052646
 20
38.822582
 30
0.000000
 40
26.890162
 50
-46.226959
 51
-38.726196
  6
CONTINUOUS
  0
ARC
  8
WHITE
 10
124.790027
 20
-45.302116
 30
0.000000
 40
116.227751
 50
139.137525
 51
144.615916
  6
CONTINUOUS
  0
ARC
  8
WHITE
 10
0.213413
 20
63.162746
 30
0.000000
 40
48.952807
 50
-41.478517
 51
-28.705320
  6
CONTINUOUS
  0
ARC
  8
WHITE
 10
96.432155
 20
28.682045
 30
0.000000
 40
8.405255
 50
105.347663
 51
135.131958
  6
CONTINUOUS
  0
ARC
  8
WHITE
 10
114.155083
 20
10.912446
 30
0.000000
 40
33.502241
 50
134.976667
 51
158.330455
  6
CONTINUOUS
  0
ARC
  8
WHITE
 10
88.507968
 20
21.160228
 30
0.000000
 40
5.883853
 50
158.849396
 51
184.633926
  6
CONTINUOUS
  0
ARC
  8
WHITE
 10
86.188180
 20
21.037363
 30
0.000000
 40
3.562313
 50
-174.321364
 51
-22.417510
  6
CONTINUOUS
  0
LINE
  8
WHITE
 10
89.481288
 20
19.678864
 30
0.000000
 11
92.431369
 21
26.831050
 31
0.000000
  6
CONTINUOUS
  0
ARC
  8
WHITE
 10
136.655231
 20
8.590641
 30
0.000000
 40
47.837877
 50
151.453948
 51
157.585994
  6
CONTINUOUS
  0
LINE
  8
WHITE
 10
94.632846
 20
31.450686
 30
0.000000
 11
96.446323
 21
34.784213
 31
0.000000
  6
CONTINUOUS
  0
ARC
  8
WHITE
 10
95.207646
 20
35.456819
 30
0.000000
 40
1.409510
 50
-28.502122
 51
80.323986
  6
CONTINUOUS
  0
ARC
  8
WHITE
 10
95.085213
 20
31.357456
 30
0.000000
 40
5.500572
 50
86.254340
 51
99.181888
  6
CONTINUOUS
  0
ARC
  8
WHITE
 10
105.965060
 20
32.764903
 30
0.000000
 40
6.680432
 50
115.002022
 51
150.041260
  6
CONTINUOUS
  0
ARC
  8
WHITE
 10
148.048469
 20
5.331539
 30
0.000000
 40
56.907047
 50
147.268969
 51
160.965690
  6
CONTINUOUS
  0
ARC
  8
WHITE
 10
98.142612
 20
22.488978
 30
0.000000
 40
4.134630
 50
160.180191
 51
206.400223
  6
CONTINUOUS
  0
ARC
  8
WHITE
 10
96.957657
 20
21.909608
 30
0.000000
 40
2.815655
 50
-153.438419
 51
-22.978027
  6
CONTINUOUS
  0
LINE
  8
WHITE
 10
99.549903
 20
20.810438
 30
0.000000
 11
102.952236
 21
28.849433
 31
0.000000
  6
CONTINUOUS
  0
ARC
  8
WHITE
 10
48.003310
 20
52.103626
 30
0.000000
 40
59.666926
 50
-22.937911
 51
-15.169641
  6
CONTINUOUS
  0
ARC
  8
WHITE
 10
103.807724
 20
37.067211
 30
0.000000
 40
1.874480
 50
-17.930902
 51
110.816642
  6
CONTINUOUS
  0
ARC
  8
WHITE
 10
66.473789
 20
53.720591
 30
0.000000
 40
1.296352
 50
-38.209381
 51
91.230225
  6
CONTINUOUS
  0
ARC
  8
WHITE
 10
66.054079
 20
45.267758
 30
0.000000
 40
9.756760
 50
87.698113
 51
115.276330
  6
CONTINUOUS
  0
ARC
  8
WHITE
 10
82.834158
 20
0.432674
 30
0.000000
 40
57.601117
 50
111.323902
 51
118.081840
  6
CONTINUOUS
  0
ARC
  8
WHITE
 10
63.739841
 20
32.952792
 30
0.000000
 40
19.980379
 50
113.666551
 51
133.566692
  6
CONTINUOUS
  0
ARC
  8
WHITE
 10
57.245748
 20
39.256887
 30
0.000000
 40
10.942831
 50
131.677915
 51
153.733645
  6
CONTINUOUS
  0
ARC
  8
WHITE
 10
50.366366
 20
42.802836
 30
0.000000
 40
3.207391
 50
156.152808
 51
200.258972
  6
CONTINUOUS
  0
ARC
  8
WHITE
 10
48.758857
 20
42.561798
 30
0.000000
 40
1.649316
 50
-148.181634
 51
-59.606890
  6
CONTINUOUS
  0
LINE
  8
WHITE
 10
49.593295
 20
41.139140
 30
0.000000
 11
65.704013
 21
51.464846
 31
0.000000
  6
CONTINUOUS
  0
ARC
  8
WHITE
 10
62.281444
 20
57.501685
 30
0.000000
 40
6.939553
 50
-60.449047
 51
-41.330980
  6
CONTINUOUS
  0
ARC
  8
WHITE
 10
199.007165
 20
136.835542
 30
0.000000
 40
75.373367
 50
-80.399223
 51
-43.369503
  6
CONTINUOUS
  0
ARC
  8
WHITE
 10
216.384983
 20
117.250865
 30
0.000000
 40
49.345716
 50
-40.693878
 51
-29.073254
  6
CONTINUOUS
  0
ARC
  8
WHITE
 10
247.902674
 20
98.985108
 30
0.000000
 40
12.939731
 50
-26.198591
 51
-5.840157
  6
CONTINUOUS
  0
ARC
  8
WHITE
 10
256.375583
 20
98.346622
 30
0.000000
 40
4.451619
 50
-8.762785
 51
74.270439
  6
CONTINUOUS
  0
ARC
  8
WHITE
 10
257.378906
 20
101.909817
 30
0.000000
 40
0.749861
 50
74.253473
 51
165.594504
  6
CONTINUOUS
  0
LINE
  8
WHITE
 10
256.652621
 20
102.096370
 30
0.000000
 11
254.879428
 21
95.194438
 31
0.000000
  6
CONTINUOUS
  0
LINE
  8
WHITE
 10
254.879428
 20
95.194438
 30
0.000000
 11
253.354160
 21
95.586353
 31
0.000000
  6
CONTINUOUS
  0
LINE
  8
WHITE
 10
253.354160
 20
95.586353
 30
0.000000
 11
255.284274
 21
103.099880
 31
0.000000
  6
CONTINUOUS
  0
ARC
  8
WHITE
 10
254.557895
 20
103.286510
 30
0.000000
 40
0.749971
 50
-14.409445
 51
75.955276
  6
CONTINUOUS
  0
LINE
  8
WHITE
 10
254.739898
 20
104.014062
 30
0.000000
 11
254.259983
 21
104.134196
 31
0.000000
  6
CONTINUOUS
  0
ARC
  8
WHITE
 10
253.733840
 20
101.277629
 30
0.000000
 40
2.904618
 50
79.563836
 51
154.255908
  6
CONTINUOUS
  0
LINE
  8
WHITE
 10
251.117526
 20
102.539256
 30
0.000000
 11
249.928943
 21
100.062869
 31
0.000000
  6
CONTINUOUS
  0
ARC
  8
WHITE
 10
244.729043
 20
102.565220
 30
0.000000
 40
5.770679
 50
-63.538295
 51
-25.698287
  6
CONTINUOUS
  0
ARC
  8
WHITE
 10
234.578228
 20
129.720337
 30
0.000000
 40
34.734940
 50
-121.553921
 51
-68.514485
  6
CONTINUOUS
  0
ARC
  8
WHITE
 10
235.303622
 20
131.967521
 30
0.000000
 40
37.033674
 50
-128.123230
 51
-120.690887
  6
CONTINUOUS
  0
ARC
  8
WHITE
 10
209.837131
 20
98.701961
 30
0.000000
 40
4.883626
 50
57.783305
 51
147.688797
  6
CONTINUOUS
  0
LINE
  8
WHITE
 10
205.709698
 20
101.312345
 30
0.000000
 11
204.098239
 21
98.759616
 31
0.000000
  6
CONTINUOUS
  0
ARC
  8
WHITE
 10
201.055913
 20
100.684731
 30
0.000000
 40
3.600252
 50
-114.279466
 51
-32.324700
  6
CONTINUOUS
  0
ARC
  8
WHITE
 10
203.568117
 20
109.475472
 30
0.000000
 40
12.715631
 50
-124.185381
 51
-108.299866
  6
CONTINUOUS
  0
LINE
  8
WHITE
 10
196.423556
 20
98.956798
 30
0.000000
 11
193.105685
 21
101.210345
 31
0.000000
  6
CONTINUOUS
  0
ARC
  8
WHITE
 10
191.603480
 20
99.002900
 30
0.000000
 40
2.670100
 50
55.764036
 51
119.332431
  6
CONTINUOUS
  0
ARC
  8
WHITE
 10
156.301487
 20
105.005343
 30
0.000000
 40
34.192011
 50
-14.242950
 51
-6.169586
  6
CONTINUOUS
  0
ARC
  8
WHITE
 10
186.614522
 20
97.263049
 30
0.000000
 40
2.906263
 50
-72.546978
 51
-13.330774
  6
CONTINUOUS
  0
ARC
  8
WHITE
 10
183.805808
 20
110.107670
 30
0.000000
 40
16.044893
 50
-90.688693
 51
-76.739451
  6
CONTINUOUS
  0
ARC
  8
WHITE
 10
161.857089
 20
-510.887822
 30
0.000000
 40
605.342834
 50
87.940361
 51
90.277107
  6
CONTINUOUS
  0
ARC
  8
WHITE
 10
159.712109
 20
88.409042
 30
0.000000
 40
6.089402
 50
97.384989
 51
143.169011
  6
CONTINUOUS
  0
ARC
  8
WHITE
 10
151.085609
 20
94.058103
 30
0.000000
 40
4.251606
 50
-74.262958
 51
-28.041529
  6
CONTINUOUS
  0
LINE
  8
WHITE
 10
152.238742
 20
89.965861
 30
0.000000
 11
149.101046
 21
89.084300
 31
0.000000
  6
CONTINUOUS
  0
ARC
  8
WHITE
 10
149.566684
 20
87.422229
 30
0.000000
 40
1.726065
 50
105.650479
 51
260.893158
  6
CONTINUOUS
  0
LINE
  8
WHITE
 10
149.293489
 20
85.717922
 30
0.000000
 11
151.432712
 21
85.368132
 31
0.000000
  6
CONTINUOUS
  0
ARC
  8
WHITE
 10
150.486606
 20
79.583232
 30
0.000000
 40
5.861756
 50
50.915745
 51
80.711647
  6
CONTINUOUS
  0
ARC
  8
WHITE
 10
159.528720
 20
88.794101
 30
0.000000
 40
7.092857
 50
-138.919407
 51
-75.070007
  6
CONTINUOUS
  0
LINE
  8
WHITE
 10
161.356114
 20
81.940689
 30
0.000000
 11
166.601718
 21
83.341815
 31
0.000000
  6
CONTINUOUS
  0
ARC
  8
WHITE
 10
201.129367
 20
-57.174604
 30
0.000000
 40
144.696311
 50
96.558374
 51
103.805194
  6
CONTINUOUS
  0
ARC
  8
WHITE
 10
184.770487
 20
84.553160
 30
0.000000
 40
2.028597
 50
-45.601145
 51
94.741104
  6
CONTINUOUS
  0
ARC
  8
WHITE
 10
180.526157
 20
88.618892
 30
0.000000
 40
7.905284
 50
-64.442444
 51
-44.238924
  6
CONTINUOUS
  0
ARC
  8
WHITE
 10
187.160153
 20
74.008208
 30
0.000000
 40
8.144030
 50
113.316727
 51
131.177342
  6
CONTINUOUS
  0
ARC
  8
WHITE
 10
182.398959
 20
79.286441
 30
0.000000
 40
1.042165
 50
125.202141
 51
279.484428
  6
CONTINUOUS
  0
LINE
  8
WHITE
 10
182.570687
 20
78.258522
 30
0.000000
 11
186.568446
 21
78.934925
 31
0.000000
  6
CONTINUOUS
  0
ARC
  8
WHITE
 10
187.509983
 20
73.337207
 30
0.000000
 40
5.676350
 50
59.985527
 51
99.547782
  6
CONTINUOUS
  0
ARC
  8
WHITE
 10
189.330865
 20
77.054650
 30
0.000000
 40
1.572229
 50
-54.622042
 51
49.621941
  6
CONTINUOUS
  0
ARC
  8
WHITE
 10
184.645615
 20
82.634801
 30
0.000000
 40
8.854254
 50
-70.650032
 51
-50.805250
  6
CONTINUOUS
  0
ARC
  8
WHITE
 10
191.951938
 20
64.310313
 30
0.000000
 40
10.887061
 50
113.680160
 51
132.151792
  6
CONTINUOUS
  0
ARC
  8
WHITE
 10
185.376048
 20
71.416367
 30
0.000000
 40
1.210467
 50
127.113137
 51
280.441916
  6
CONTINUOUS
  0
LINE
  8
WHITE
 10
185.595431
 20
70.225947
 30
0.000000
 11
187.672931
 21
70.605032
 31
0.000000
  6
CONTINUOUS
  0
ARC
  8
WHITE
 10
188.452243
 20
66.297168
 30
0.000000
 40
4.377786
 50
67.539963
 51
100.254158
  6
CONTINUOUS
  0
ARC
  8
WHITE
 10
193.967746
 20
78.786906
 30
0.000000
 40
9.277409
 50
-114.471086
 51
-81.764099
  6
CONTINUOUS
  0
LINE
  8
WHITE
 10
195.296726
 20
69.605179
 30
0.000000
 11
199.283639
 21
70.182475
 31
0.000000
  6
CONTINUOUS
  0
ARC
  8
WHITE
 10
199.478122
 20
68.832767
 30
0.000000
 40
1.363648
 50
-32.270416
 51
98.199473
  6
CONTINUOUS
  0
LINE
  8
WHITE
 10
200.631137
 20
68.104693
 30
0.000000
 11
199.424105
 21
66.195384
 31
0.000000
  6
CONTINUOUS
  0
ARC
  8
WHITE
 10
200.353000
 20
65.607318
 30
0.000000
 40
1.099394
 50
147.662853
 51
281.392273
  6
CONTINUOUS
  0
LINE
  8
WHITE
 10
200.570158
 20
64.529585
 30
0.000000
 11
202.089206
 21
64.839213
 31
0.000000
  6
CONTINUOUS
  0
ARC
  8
WHITE
 10
202.829064
 20
61.235462
 30
0.000000
 40
3.678915
 50
61.796756
 51
101.601736
  6
CONTINUOUS
  0
LINE
  8
WHITE
 10
204.567722
 20
64.477604
 30
0.000000
 11
206.668673
 21
63.347681
 31
0.000000
  6
CONTINUOUS
  0
ARC
  8
WHITE
 10
210.353122
 20
70.208300
 30
0.000000
 40
7.787379
 50
-118.237720
 51
-80.949648
  6
CONTINUOUS
  0
ARC
  8
WHITE
 10
246.477830
 20
84.027735
 30
0.000000
 40
1.124008
 50
-23.558934
 51
102.944371
  6
CONTINUOUS
  0
ARC
  8
WHITE
 10
256.985989
 20
62.751623
 30
0.000000
 40
24.824643
 50
115.685940
 51
127.057831
  6
CONTINUOUS
  0
ARC
  8
WHITE
 10
207.060153
 20
136.924049
 30
0.000000
 40
64.635995
 50
-76.057251
 51
-57.250458
  6
CONTINUOUS
  0
ARC
  8
WHITE
 10
277.030079
 20
-122.797094
 30
0.000000
 40
204.361853
 50
105.436702
 51
107.362678
  6
CONTINUOUS
  0
ARC
  8
WHITE
 10
216.786518
 20
70.821445
 30
0.000000
 40
1.612387
 50
117.396329
 51
188.328228
  6
CONTINUOUS
  0
LINE
  8
WHITE
 10
215.191135
 20
70.587901
 30
0.000000
 11
215.559542
 21
68.110370
 31
0.000000
  6
CONTINUOUS
  0
ARC
  8
WHITE
 10
217.114475
 20
68.343554
 30
0.000000
 40
1.572320
 50
-171.471220
 51
-63.257019
  6
CONTINUOUS
  0
ARC
  8
WHITE
 10
197.243227
 20
141.691613
 30
0.000000
 40
77.533067
 50
-74.608129
 51
-50.885725
  6
CONTINUOUS
  0
ARC
  8
WHITE
 10
242.257785
 20
85.581744
 30
0.000000
 40
5.619556
 50
-46.070987
 51
-20.884250
  6
CONTINUOUS
  0
ARC
  8
WHITE
 10
238.411655
 20
84.835910
 30
0.000000
 40
0.957489
 50
-51.564339
 51
109.470573
  6
CONTINUOUS
  0
ARC
  8
WHITE
 10
240.376193
 20
72.708263
 30
0.000000
 40
13.228985
 50
99.940644
 51
113.510559
  6
CONTINUOUS
  0
ARC
  8
WHITE
 10
207.035085
 20
150.254721
 30
0.000000
 40
71.181364
 50
-91.878920
 51
-66.780290
  6
CONTINUOUS
  0
ARC
  8
WHITE
 10
204.835000
 20
78.131221
 30
0.000000
 40
0.989491
 50
97.769708
 51
185.316418
  6
CONTINUOUS
  0
LINE
  8
WHITE
 10
203.849765
 20
78.039539
 30
0.000000
 11
204.120761
 21
75.049884
 31
0.000000
  6
CONTINUOUS
  0
ARC
  8
WHITE
 10
205.190091
 20
75.145256
 30
0.000000
 40
1.073574
 50
-174.903383
 51
-102.770899
  6
CONTINUOUS
  0
ARC
  8
WHITE
 10
205.778718
 20
131.834979
 30
0.000000
 40
57.742647
 50
-90.819580
 51
-74.811772
  6
CONTINUOUS
  0
ARC
  8
WHITE
 10
210.206271
 20
126.084536
 30
0.000000
 40
51.108009
 50
-77.914552
 51
-57.218414
  6
CONTINUOUS
  0
ARC
  8
WHITE
 10
233.057630
 20
89.867528
 30
0.000000
 40
8.295818
 50
-54.474072
 51
-44.181427
  6
CONTINUOUS
  0
ARC
  8
WHITE
 10
231.812927
 20
124.741334
 30
0.000000
 40
36.799676
 50
-114.349725
 51
-71.221867
  6
CONTINUOUS
  0
ARC
  8
WHITE
 10
239.688449
 20
103.075916
 30
0.000000
 40
13.760745
 50
-73.229737
 51
-51.768585
  6
CONTINUOUS
  0
ARC
  8
WHITE
 10
247.567346
 20
93.074964
 30
0.000000
 40
1.029051
 50
-51.770357
 51
-14.346985
  6
CONTINUOUS
  0
ARC
  8
WHITE
 10
246.983188
 20
93.224338
 30
0.000000
 40
1.632004
 50
-14.345745
 51
-9.793122
  6
CONTINUOUS
  0
ARC
  8
WHITE
 10
247.596440
 20
93.118708
 30
0.000000
 40
1.009722
 50
-9.805489
 51
98.165259
  6
CONTINUOUS
  0
ARC
  8
WHITE
 10
252.057973
 20
61.986334
 30
0.000000
 40
32.460159
 50
98.155749
 51
107.269815
  6
CONTINUOUS
  0
ARC
  8
WHITE
 10
234.290317
 20
127.226062
 30
0.000000
 40
35.195111
 50
-113.494324
 51
-76.642243
  6
CONTINUOUS
  0
ARC
  8
WHITE
 10
215.329669
 20
82.145177
 30
0.000000
 40
13.719762
 50
68.941368
 51
80.295491
  6
CONTINUOUS
  0
ARC
  8
WHITE
 10
217.565144
 20
93.346502
 30
0.000000
 40
2.323394
 50
88.095302
 51
246.541322
  6
CONTINUOUS
  0
ARC
  8
WHITE
 10
223.210841
 20
84.654471
 30
0.000000
 40
1.615076
 50
-70.180220
 51
-10.800626
  6
CONTINUOUS
  0
ARC
  8
WHITE
 10
223.284022
 20
84.640403
 30
0.000000
 40
1.540555
 50
-10.796722
 51
68.064570
  6
CONTINUOUS
  0
ARC
  8
WHITE
 10
214.584872
 20
63.032099
 30
0.000000
 40
24.834202
 50
68.070687
 51
78.518898
  6
CONTINUOUS
  0
ARC
  8
WHITE
 10
224.170435
 20
114.466781
 30
0.000000
 40
27.492207
 50
-117.706318
 51
-99.721780
  6
CONTINUOUS
  0
ARC
  8
WHITE
 10
210.598117
 20
88.544162
 30
0.000000
 40
1.768867
 50
63.469760
 51
153.401798
  6
CONTINUOUS
  0
LINE
  8
WHITE
 10
209.016452
 20
89.336138
 30
0.000000
 11
208.386805
 21
88.074516
 31
0.000000
  6
CONTINUOUS
  0
ARC
  8
WHITE
 10
204.576491
 20
89.976644
 30
0.000000
 40
4.258707
 50
-95.972131
 51
-26.528594
  6
CONTINUOUS
  0
ARC
  8
WHITE
 10
203.812853
 20
74.882735
 30
0.000000
 40
10.863046
 50
88.309095
 51
105.168641
  6
CONTINUOUS
  0
ARC
  8
WHITE
 10
201.474087
 20
84.317369
 30
0.000000
 40
1.164500
 50
115.627592
 51
247.558514
  6
CONTINUOUS
  0
ARC
  8
WHITE
 10
206.718845
 20
95.502833
 30
0.000000
 40
13.517368
 50
-114.890642
 51
-95.980042
  6
CONTINUOUS
  0
ARC
  8
WHITE
 10
211.715699
 20
130.923361
 30
0.000000
 40
49.282340
 50
-97.467737
 51
-75.855840
  6
CONTINUOUS
  0
ARC
  8
WHITE
 10
168.858860
 20
89.268275
 30
0.000000
 40
1.994014
 50
134.974884
 51
274.835297
  6
CONTINUOUS
  0
ARC
  8
WHITE
 10
215.587560
 20
-252.610339
 30
0.000000
 40
343.065966
 50
96.022962
 51
97.800207
  6
CONTINUOUS
  0
LINE
  8
WHITE
 10
179.590670
 20
88.561877
 30
0.000000
 11
180.350366
 21
88.747416
 31
0.000000
  6
CONTINUOUS
  0
ARC
  8
WHITE
 10
179.878146
 20
90.328364
 30
0.000000
 40
1.649966
 50
-73.369439
 51
10.813781
  6
CONTINUOUS
  0
ARC
  8
WHITE
 10
179.719707
 20
89.841950
 30
0.000000
 40
1.949050
 50
24.103894
 51
87.570184
  6
CONTINUOUS
  0
ARC
  8
WHITE
 10
176.219516
 20
35.855540
 30
0.000000
 40
56.048338
 50
86.334938
 51
96.291428
  6
CONTINUOUS
  0
ARC
  8
WHITE
 10
170.605997
 20
85.666426
 30
0.000000
 40
5.923523
 50
95.119466
 51
122.199944
  6
CONTINUOUS
  0
CIRCLE
  8
WHITE
 10
203.104160
 20
91.000178
 30
0.000000
 40
2.908447
  6
CONTINUOUS
  0
CIRCLE
  8
WHITE
 10
160.600070
 20
88.323932
 30
0.000000
 40
2.889221
  6
CONTINUOUS
  0
CIRCLE
  8
WHITE
 10
209.221713
 20
68.427577
 30
0.000000
 40
2.869263
  6
CONTINUOUS
  0
CIRCLE
  8
WHITE
 10
195.112155
 20
92.723338
 30
0.000000
 40
2.855530
  6
CONTINUOUS
  0
CIRCLE
  8
WHITE
 10
209.516147
 20
96.828151
 30
0.000000
 40
2.854248
  6
CONTINUOUS
  0
CIRCLE
  8
WHITE
 10
198.133029
 20
75.551708
 30
0.000000
 40
2.806274
  6
CONTINUOUS
  0
CIRCLE
  8
WHITE
 10
193.492771
 20
83.473353
 30
0.000000
 40
2.784851
  6
CONTINUOUS
  0
ARC
  8
WHITE
 10
71.378269
 20
137.271331
 30
0.000000
 40
75.373352
 50
-135.016434
 51
-97.986633
  6
CONTINUOUS
  0
ARC
  8
WHITE
 10
61.913512
 20
70.350944
 30
0.000000
 40
7.787367
 50
-97.435570
 51
-60.148469
  6
CONTINUOUS
  0
LINE
  8
WHITE
 10
65.789707
 20
63.596820
 30
0.000000
 11
67.858066
 21
64.785449
 31
0.000000
  6
CONTINUOUS
  0
ARC
  8
WHITE
 10
69.687290
 20
61.593532
 30
0.000000
 40
3.678912
 50
80.011429
 51
119.816161
  6
CONTINUOUS
  0
LINE
  8
WHITE
 10
70.325403
 20
65.216680
 30
0.000000
 11
71.852502
 21
64.949942
 31
0.000000
  6
CONTINUOUS
  0
ARC
  8
WHITE
 10
72.039279
 20
66.033427
 30
0.000000
 40
1.099466
 50
-99.780825
 51
33.948761
  6
CONTINUOUS
  0
LINE
  8
WHITE
 10
72.951327
 20
66.647425
 30
0.000000
 11
71.691012
 21
68.521991
 31
0.000000
  6
CONTINUOUS
  0
ARC
  8
WHITE
 10
72.822848
 20
69.282259
 30
0.000000
 40
1.363474
 50
83.409294
 51
213.889741
  6
CONTINUOUS
  0
LINE
  8
WHITE
 10
72.979342
 20
70.636721
 30
0.000000
 11
76.980923
 21
70.172093
 31
0.000000
  6
CONTINUOUS
  0
ARC
  8
WHITE
 10
78.050815
 20
79.387629
 30
0.000000
 40
9.277434
 50
-96.622193
 51
-63.914442
  6
CONTINUOUS
  0
ARC
  8
WHITE
 10
83.915807
 20
67.058209
 30
0.000000
 40
4.377708
 50
81.358282
 51
114.071822
  6
CONTINUOUS
  0
LINE
  8
WHITE
 10
84.573581
 20
71.386219
 30
0.000000
 11
86.660982
 21
71.065887
 31
0.000000
  6
CONTINUOUS
  0
ARC
  8
WHITE
 10
86.846652
 20
72.262034
 30
0.000000
 40
1.210472
 50
-98.823230
 51
54.498970
  6
CONTINUOUS
  0
ARC
  8
WHITE
 10
80.473745
 20
64.973500
 30
0.000000
 40
10.886987
 50
49.463189
 51
67.935121
  6
CONTINUOUS
  0
ARC
  8
WHITE
 10
87.260787
 20
83.496719
 30
0.000000
 40
8.854434
 50
-127.579369
 51
-107.735577
  6
CONTINUOUS
  0
ARC
  8
WHITE
 10
82.734653
 20
77.786624
 30
0.000000
 40
1.572309
 50
131.993148
 51
236.236809
  6
CONTINUOUS
  0
ARC
  8
WHITE
 10
84.659372
 20
74.122009
 30
0.000000
 40
5.676290
 50
82.065169
 51
121.628022
  6
CONTINUOUS
  0
LINE
  8
WHITE
 10
85.442965
 20
79.743953
 30
0.000000
 11
89.458286
 21
79.180331
 31
0.000000
  6
CONTINUOUS
  0
ARC
  8
WHITE
 10
89.600723
 20
80.212845
 30
0.000000
 40
1.042292
 50
-97.854474
 51
56.399638
  6
CONTINUOUS
  0
ARC
  8
WHITE
 10
84.990695
 20
74.802394
 30
0.000000
 40
8.143951
 50
50.439448
 51
68.300255
  6
CONTINUOUS
  0
ARC
  8
WHITE
 10
91.210143
 20
89.594411
 30
0.000000
 40
7.905472
 50
-134.146683
 51
-113.943183
  6
CONTINUOUS
  0
ARC
  8
WHITE
 10
87.082126
 20
85.410541
 30
0.000000
 40
2.028713
 50
86.874962
 51
227.210227
  6
CONTINUOUS
  0
ARC
  8
WHITE
 10
74.721285
 20
-56.721620
 30
0.000000
 40
144.696318
 50
77.808719
 51
85.055518
  6
CONTINUOUS
  0
LINE
  8
WHITE
 10
105.277683
 20
84.711512
 30
0.000000
 11
110.560642
 21
83.458705
 31
0.000000
  6
CONTINUOUS
  0
ARC
  8
WHITE
 10
112.194249
 20
90.360880
 30
0.000000
 40
7.092862
 50
-103.315740
 51
-39.466729
  6
CONTINUOUS
  0
ARC
  8
WHITE
 10
121.492221
 20
81.408313
 30
0.000000
 40
5.861781
 50
100.900925
 51
130.698302
  6
CONTINUOUS
  0
LINE
  8
WHITE
 10
120.383692
 20
87.164322
 30
0.000000
 11
122.512118
 21
87.574184
 31
0.000000
  6
CONTINUOUS
  0
ARC
  8
WHITE
 10
122.191115
 20
89.270126
 30
0.000000
 40
1.726054
 50
-79.281989
 51
75.964804
  6
CONTINUOUS
  0
LINE
  8
WHITE
 10
122.609714
 20
90.944651
 30
0.000000
 11
119.448398
 21
91.737476
 31
0.000000
  6
CONTINUOUS
  0
ARC
  8
WHITE
 10
120.485884
 20
95.860534
 30
0.000000
 40
4.251586
 50
-150.344925
 51
-104.124123
  6
CONTINUOUS
  0
ARC
  8
WHITE
 10
112.022006
 20
89.970782
 30
0.000000
 40
6.089332
 50
38.445489
 51
84.230736
  6
CONTINUOUS
  0
ARC
  8
WHITE
 10
126.755830
 20
-509.148811
 30
0.000000
 40
605.342822
 50
91.336743
 51
93.673482
  6
CONTINUOUS
  0
ARC
  8
WHITE
 10
87.326450
 20
110.982179
 30
0.000000
 40
16.044879
 50
-101.646458
 51
-87.696820
  6
CONTINUOUS
  0
ARC
  8
WHITE
 10
84.880649
 20
98.063586
 30
0.000000
 40
2.906292
 50
-165.054489
 51
-105.838667
  6
CONTINUOUS
  0
ARC
  8
WHITE
 10
114.963552
 20
106.656882
 30
0.000000
 40
34.192082
 50
-172.215951
 51
-164.142520
  6
CONTINUOUS
  0
ARC
  8
WHITE
 10
79.844699
 20
99.662189
 30
0.000000
 40
2.670084
 50
62.283920
 51
125.848557
  6
CONTINUOUS
  0
LINE
  8
WHITE
 10
78.280979
 20
101.826473
 30
0.000000
 11
75.027914
 21
99.480380
 31
0.000000
  6
CONTINUOUS
  0
ARC
  8
WHITE
 10
67.589816
 20
109.793609
 30
0.000000
 40
12.715659
 50
-70.085494
 51
-54.200134
  6
CONTINUOUS
  0
ARC
  8
WHITE
 10
70.348667
 20
101.077113
 30
0.000000
 40
3.600275
 50
-146.060898
 51
-64.104949
  6
CONTINUOUS
  0
LINE
  8
WHITE
 10
67.361764
 20
99.067038
 30
0.000000
 11
65.679099
 21
101.573390
 31
0.000000
  6
CONTINUOUS
  0
ARC
  8
WHITE
 10
61.626803
 20
98.847827
 30
0.000000
 40
4.883625
 50
33.924669
 51
123.830978
  6
CONTINUOUS
  0
ARC
  8
WHITE
 10
35.234033
 20
131.383291
 30
0.000000
 40
37.033605
 50
-57.696183
 51
-50.263872
  6
CONTINUOUS
  0
ARC
  8
WHITE
 10
36.021608
 20
129.157000
 30
0.000000
 40
34.734953
 50
-109.871020
 51
-56.831688
  6
CONTINUOUS
  0
ARC
  8
WHITE
 10
26.640110
 20
101.726680
 30
0.000000
 40
5.770788
 50
-152.689178
 51
-114.849000
  6
CONTINUOUS
  0
LINE
  8
WHITE
 10
21.512588
 20
99.078942
 30
0.000000
 11
20.254627
 21
101.520893
 31
0.000000
  6
CONTINUOUS
  0
ARC
  8
WHITE
 10
17.674899
 20
100.186076
 30
0.000000
 40
2.904605
 50
27.358186
 51
102.047615
  6
CONTINUOUS
  0
LINE
  8
WHITE
 10
17.068637
 20
103.026706
 30
0.000000
 11
16.592198
 21
102.893123
 31
0.000000
  6
CONTINUOUS
  0
ARC
  8
WHITE
 10
16.794711
 20
102.170963
 30
0.000000
 40
0.750018
 50
105.664900
 51
196.021302
  6
CONTINUOUS
  0
LINE
  8
WHITE
 10
16.073825
 20
101.963962
 30
0.000000
 11
18.214877
 21
94.507769
 31
0.000000
  6
CONTINUOUS
  0
LINE
  8
WHITE
 10
18.214877
 20
94.507769
 30
0.000000
 11
16.701145
 21
94.073054
 31
0.000000
  6
CONTINUOUS
  0
LINE
  8
WHITE
 10
16.701145
 20
94.073054
 30
0.000000
 11
14.734226
 21
100.922297
 31
0.000000
  6
CONTINUOUS
  0
ARC
  8
WHITE
 10
14.013339
 20
100.715274
 30
0.000000
 40
0.750024
 50
16.022938
 51
107.343384
  6
CONTINUOUS
  0
ARC
  8
WHITE
 10
15.116928
 20
97.181846
 30
0.000000
 40
4.451784
 50
107.344770
 51
190.376317
  6
CONTINUOUS
  0
ARC
  8
WHITE
 10
23.568338
 20
98.058807
 30
0.000000
 40
12.939753
 50
-172.545520
 51
-152.186875
  6
CONTINUOUS
  0
ARC
  8
WHITE
 10
54.559236
 20
117.204736
 30
0.000000
 40
49.345745
 50
-149.313020
 51
-137.692432
  6
CONTINUOUS
  0
ARC
  8
WHITE
 10
25.414007
 20
83.147385
 30
0.000000
 40
1.124039
 50
78.668728
 51
205.170623
  6
CONTINUOUS
  0
ARC
  8
WHITE
 10
29.588657
 20
84.819659
 30
0.000000
 40
5.619643
 50
-157.502196
 51
-132.315094
  6
CONTINUOUS
  0
ARC
  8
WHITE
 10
73.004854
 20
142.175207
 30
0.000000
 40
77.533132
 50
-127.500188
 51
-103.777849
  6
CONTINUOUS
  0
ARC
  8
WHITE
 10
55.207367
 20
68.296555
 30
0.000000
 40
1.572360
 50
-115.126297
 51
-6.917187
  6
CONTINUOUS
  0
LINE
  8
WHITE
 10
56.768282
 20
68.107188
 30
0.000000
 11
57.066745
 21
70.594127
 31
0.000000
  6
CONTINUOUS
  0
ARC
  8
WHITE
 10
55.465493
 20
70.782680
 30
0.000000
 40
1.612315
 50
-6.715880
 51
64.217363
  6
CONTINUOUS
  0
ARC
  8
WHITE
 10
0.700135
 20
-124.456161
 30
0.000000
 40
204.361839
 50
74.251579
 51
76.177562
  6
CONTINUOUS
  0
ARC
  8
WHITE
 10
63.326206
 20
137.132960
 30
0.000000
 40
64.636059
 50
-121.135681
 51
-102.328828
  6
CONTINUOUS
  0
ARC
  8
WHITE
 10
15.508904
 20
61.583902
 30
0.000000
 40
24.824685
 50
54.555560
 51
65.927098
  6
CONTINUOUS
  0
ARC
  8
WHITE
 10
33.453938
 20
84.182535
 30
0.000000
 40
0.957462
 50
72.131847
 51
233.196017
  6
CONTINUOUS
  0
ARC
  8
WHITE
 10
38.664646
 20
89.362643
 30
0.000000
 40
8.295894
 50
-134.206699
 51
-123.914719
  6
CONTINUOUS
  0
ARC
  8
WHITE
 10
60.486431
 20
126.209246
 30
0.000000
 40
51.108133
 50
-121.167442
 51
-100.471344
  6
CONTINUOUS
  0
ARC
  8
WHITE
 10
64.750355
 20
132.081962
 30
0.000000
 40
57.742642
 50
-103.574256
 51
-87.566420
  6
CONTINUOUS
  0
ARC
  8
WHITE
 10
66.935568
 20
75.431290
 30
0.000000
 40
1.073525
 50
-75.620109
 51
-3.479823
  6
CONTINUOUS
  0
LINE
  8
WHITE
 10
68.007114
 20
75.366130
 30
0.000000
 11
68.193598
 21
78.362246
 31
0.000000
  6
CONTINUOUS
  0
ARC
  8
WHITE
 10
67.206210
 20
78.426143
 30
0.000000
 40
0.989453
 50
-3.702629
 51
83.849052
  6
CONTINUOUS
  0
ARC
  8
WHITE
 10
62.975741
 20
150.459056
 30
0.000000
 40
71.181372
 50
-111.605759
 51
-86.507284
  6
CONTINUOUS
  0
ARC
  8
WHITE
 10
31.832043
 20
72.004300
 30
0.000000
 40
13.228953
 50
68.103746
 51
81.673784
  6
CONTINUOUS
  0
ARC
  8
WHITE
 10
38.926092
 20
124.257839
 30
0.000000
 40
36.799659
 50
-107.163896
 51
-64.036037
  6
CONTINUOUS
  0
ARC
  8
WHITE
 10
54.052621
 20
93.276872
 30
0.000000
 40
2.323414
 50
-64.927697
 51
93.514916
  6
CONTINUOUS
  0
ARC
  8
WHITE
 10
56.603122
 20
82.143023
 30
0.000000
 40
13.719776
 50
101.319627
 51
112.674080
  6
CONTINUOUS
  0
ARC
  8
WHITE
 10
36.379856
 20
126.671870
 30
0.000000
 40
35.195153
 50
-101.743774
 51
-64.891578
  6
CONTINUOUS
  0
ARC
  8
WHITE
 10
20.456728
 20
60.957553
 30
0.000000
 40
32.460161
 50
74.344118
 51
83.457930
  6
CONTINUOUS
  0
ARC
  8
WHITE
 10
24.039829
 20
92.203090
 30
0.000000
 40
1.009847
 50
83.451144
 51
191.407227
  6
CONTINUOUS
  0
ARC
  8
WHITE
 10
24.649457
 20
92.327599
 30
0.000000
 40
1.632059
 50
-168.540931
 51
-163.987151
  6
CONTINUOUS
  0
ARC
  8
WHITE
 10
24.070061
 20
92.160265
 30
0.000000
 40
1.028985
 50
-164.043576
 51
-126.619793
  6
CONTINUOUS
  0
ARC
  8
WHITE
 10
31.664369
 20
102.379110
 30
0.000000
 40
13.760769
 50
-126.618607
 51
-105.157520
  6
CONTINUOUS
  0
ARC
  8
WHITE
 10
48.654147
 20
84.429209
 30
0.000000
 40
1.615214
 50
-167.586548
 51
-108.207199
  6
CONTINUOUS
  0
ARC
  8
WHITE
 10
58.841233
 20
131.003630
 30
0.000000
 40
49.282524
 50
-102.529863
 51
-80.918127
  6
CONTINUOUS
  0
ARC
  8
WHITE
 10
64.833603
 20
95.737742
 30
0.000000
 40
13.517416
 50
-82.404713
 51
-63.494030
  6
CONTINUOUS
  0
ARC
  8
WHITE
 10
70.391689
 20
84.704506
 30
0.000000
 40
1.164450
 50
-65.946573
 51
65.986064
  6
CONTINUOUS
  0
ARC
  8
WHITE
 10
68.319491
 20
75.207721
 30
0.000000
 40
10.863038
 50
76.444911
 51
93.304749
  6
CONTINUOUS
  0
ARC
  8
WHITE
 10
67.131087
 20
90.274235
 30
0.000000
 40
4.258811
 50
-151.855742
 51
-82.414519
  6
CONTINUOUS
  0
LINE
  8
WHITE
 10
63.375827
 20
88.265384
 30
0.000000
 11
62.710788
 21
89.508739
 31
0.000000
  6
CONTINUOUS
  0
ARC
  8
WHITE
 10
61.152141
 20
88.672709
 30
0.000000
 40
1.768708
 50
28.208310
 51
118.140163
  6
CONTINUOUS
  0
ARC
  8
WHITE
 10
46.855319
 20
114.202777
 30
0.000000
 40
27.492259
 50
-78.664673
 51
-60.679882
  6
CONTINUOUS
  0
ARC
  8
WHITE
 10
57.885644
 20
63.058410
 30
0.000000
 40
24.834201
 50
103.095254
 51
113.543217
  6
CONTINUOUS
  0
ARC
  8
WHITE
 10
48.581201
 20
84.413111
 30
0.000000
 40
1.540513
 50
113.543365
 51
192.411937
  6
CONTINUOUS
  0
ARC
  8
WHITE
 10
102.854465
 20
90.572055
 30
0.000000
 40
1.994020
 50
-93.221409
 51
46.639019
  6
CONTINUOUS
  0
ARC
  8
WHITE
 10
101.209445
 20
86.922419
 30
0.000000
 40
5.923546
 50
59.413838
 51
86.492813
  6
CONTINUOUS
  0
ARC
  8
WHITE
 10
97.001132
 20
36.973193
 30
0.000000
 40
56.048356
 50
85.322401
 51
95.279038
  6
CONTINUOUS
  0
ARC
  8
WHITE
 10
91.981826
 20
90.839479
 30
0.000000
 40
1.949192
 50
94.044980
 51
157.506792
  6
CONTINUOUS
  0
ARC
  8
WHITE
 10
91.809729
 20
91.321387
 30
0.000000
 40
1.650034
 50
170.800265
 51
254.982241
  6
CONTINUOUS
  0
LINE
  8
WHITE
 10
91.382175
 20
89.727709
 30
0.000000
 11
92.146823
 21
89.563670
 31
0.000000
  6
CONTINUOUS
  0
ARC
  8
WHITE
 10
65.773219
 20
-252.487126
 30
0.000000
 40
343.066049
 50
83.813728
 51
85.590970
  6
CONTINUOUS
  0
CIRCLE
  8
WHITE
 10
68.574008
 20
91.338740
 30
0.000000
 40
2.908631
  6
CONTINUOUS
  0
CIRCLE
  8
WHITE
 10
111.136691
 20
89.860713
 30
0.000000
 40
2.889221
  6
CONTINUOUS
  0
CIRCLE
  8
WHITE
 10
63.094760
 20
68.602786
 30
0.000000
 40
2.869263
  6
CONTINUOUS
  0
CIRCLE
  8
WHITE
 10
76.514377
 20
93.286319
 30
0.000000
 40
2.855530
  6
CONTINUOUS
  0
CIRCLE
  8
WHITE
 10
62.000522
 20
96.983790
 30
0.000000
 40
2.854248
  6
CONTINUOUS
  0
CIRCLE
  8
WHITE
 10
73.978366
 20
76.036410
 30
0.000000
 40
2.806274
  6
CONTINUOUS
  0
CIRCLE
  8
WHITE
 10
78.393588
 20
84.085613
 30
0.000000
 40
2.784851
  6
CONTINUOUS
  0
ARC
  8
WHITE
 10
106.161716
 20
139.601600
 30
0.000000
 40
17.030582
 50
163.189423
 51
204.836838
  6
CONTINUOUS
  0
ARC
  8
WHITE
 10
111.089272
 20
142.442803
 30
0.000000
 40
22.701483
 50
-153.879248
 51
-104.236583
  6
CONTINUOUS
  0
ARC
  8
WHITE
 10
116.636630
 20
151.893092
 30
0.000000
 40
33.365744
 50
-109.486404
 51
-66.587616
  6
CONTINUOUS
  0
ARC
  8
WHITE
 10
117.276584
 20
153.852435
 30
0.000000
 40
34.936197
 50
-68.828120
 51
-57.894653
  6
CONTINUOUS
  0
LINE
  8
WHITE
 10
135.844391
 20
124.258950
 30
0.000000
 11
137.722507
 21
125.437361
 31
0.000000
  6
CONTINUOUS
  0
ARC
  8
WHITE
 10
139.014483
 20
123.372479
 30
0.000000
 40
2.435763
 50
19.310965
 51
122.033808
  6
CONTINUOUS
  0
LINE
  8
WHITE
 10
141.313204
 20
124.177974
 30
0.000000
 11
141.977878
 21
122.283920
 31
0.000000
  6
CONTINUOUS
  0
ARC
  8
WHITE
 10
145.004222
 20
123.346121
 30
0.000000
 40
3.207340
 50
-160.659701
 51
-98.783852
  6
CONTINUOUS
  0
LINE
  8
WHITE
 10
144.514438
 20
120.176398
 30
0.000000
 11
146.443086
 21
119.874782
 31
0.000000
  6
CONTINUOUS
  0
ARC
  8
WHITE
 10
146.558993
 20
120.615782
 30
0.000000
 40
0.750010
 50
-98.890169
 51
-16.469439
  6
CONTINUOUS
  0
LINE
  8
WHITE
 10
147.278232
 20
120.403151
 30
0.000000
 11
150.369968
 21
130.861255
 31
0.000000
  6
CONTINUOUS
  0
LINE
  8
WHITE
 10
150.369968
 20
130.861255
 30
0.000000
 11
151.880405
 21
130.414729
 31
0.000000
  6
CONTINUOUS
  0
LINE
  8
WHITE
 10
151.880405
 20
130.414729
 30
0.000000
 11
148.887363
 21
120.290553
 31
0.000000
  6
CONTINUOUS
  0
ARC
  8
WHITE
 10
149.606601
 20
120.077922
 30
0.000000
 40
0.750010
 50
163.530544
 51
255.102814
  6
CONTINUOUS
  0
LINE
  8
WHITE
 10
149.413784
 20
119.353120
 30
0.000000
 11
150.950412
 21
118.944247
 31
0.000000
  6
CONTINUOUS
  0
ARC
  8
WHITE
 10
151.612800
 20
121.444358
 30
0.000000
 40
2.586371
 50
-104.839196
 51
-22.054344
  6
CONTINUOUS
  0
LINE
  8
WHITE
 10
154.009922
 20
120.473213
 30
0.000000
 11
155.152307
 21
123.304553
 31
0.000000
  6
CONTINUOUS
  0
ARC
  8
WHITE
 10
158.827427
 20
121.821681
 30
0.000000
 40
3.963005
 50
74.689247
 51
158.026449
  6
CONTINUOUS
  0
ARC
  8
WHITE
 10
154.664506
 20
101.818012
 30
0.000000
 40
24.388864
 50
63.531499
 51
77.666818
  6
CONTINUOUS
  0
ARC
  8
WHITE
 10
165.869114
 20
124.321803
 30
0.000000
 40
0.750028
 50
-116.473576
 51
-20.004321
  6
CONTINUOUS
  0
LINE
  8
WHITE
 10
166.573889
 20
124.065226
 30
0.000000
 11
168.616977
 21
129.676734
 31
0.000000
  6
CONTINUOUS
  0
LINE
  8
WHITE
 10
168.616977
 20
129.676734
 30
0.000000
 11
170.096835
 21
129.137900
 31
0.000000
  6
CONTINUOUS
  0
LINE
  8
WHITE
 10
170.096835
 20
129.137900
 30
0.000000
 11
167.897189
 21
123.096587
 31
0.000000
  6
CONTINUOUS
  0
ARC
  8
WHITE
 10
168.601977
 20
122.840041
 30
0.000000
 40
0.750028
 50
159.998224
 51
245.462554
  6
CONTINUOUS
  0
LINE
  8
WHITE
 10
168.290499
 20
122.157747
 30
0.000000
 11
173.214206
 21
119.909648
 31
0.000000
  6
CONTINUOUS
  0
ARC
  8
WHITE
 10
174.967955
 20
123.740860
 30
0.000000
 40
4.213529
 50
-114.596082
 51
-55.226608
  6
CONTINUOUS
  0
ARC
  8
WHITE
 10
175.720442
 20
122.657069
 30
0.000000
 40
2.894121
 50
-55.226257
 51
-32.741526
  6
CONTINUOUS
  0
ARC
  8
WHITE
 10
198.986301
 20
107.696788
 30
0.000000
 40
24.766505
 50
139.176178
 51
147.258392
  6
CONTINUOUS
  0
ARC
  8
WHITE
 10
183.365327
 20
120.961747
 30
0.000000
 40
4.277522
 50
81.499158
 51
136.843826
  6
CONTINUOUS
  0
ARC
  8
WHITE
 10
182.740061
 20
118.966506
 30
0.000000
 40
6.351513
 50
44.532958
 51
78.580095
  6
CONTINUOUS
  0
ARC
  8
WHITE
 10
193.548510
 20
129.154388
 30
0.000000
 40
8.504157
 50
-137.608498
 51
-124.520430
  6
CONTINUOUS
  0
ARC
  8
WHITE
 10
189.311843
 20
123.102484
 30
0.000000
 40
1.118597
 50
-121.390393
 51
4.973779
  6
CONTINUOUS
  0
ARC
  8
WHITE
 10
185.134555
 20
122.948054
 30
0.000000
 40
5.297642
 50
2.720123
 51
20.146366
  6
CONTINUOUS
  0
ARC
  8
WHITE
 10
178.944247
 20
120.142979
 30
0.000000
 40
12.085729
 50
22.524008
 51
57.465709
  6
CONTINUOUS
  0
LINE
  8
WHITE
 10
185.444003
 20
130.332091
 30
0.000000
 11
182.956882
 21
131.921882
 31
0.000000
  6
CONTINUOUS
  0
ARC
  8
WHITE
 10
188.771393
 20
141.036962
 30
0.000000
 40
10.811718
 50
177.987865
 51
237.466190
  6
CONTINUOUS
  0
LINE
  8
WHITE
 10
177.966342
 20
141.416574
 30
0.000000
 11
178.046726
 21
143.667857
 31
0.000000
  6
CONTINUOUS
  0
ARC
  8
WHITE
 10
166.143047
 20
144.083761
 30
0.000000
 40
11.910942
 50
-2.001048
 51
121.811249
  6
CONTINUOUS
  0
ARC
  8
WHITE
 10
164.339084
 20
144.587276
 30
0.000000
 40
10.608154
 50
114.948543
 51
143.945984
  6
CONTINUOUS
  0
ARC
  8
WHITE
 10
157.003826
 20
150.171551
 30
0.000000
 40
1.405212
 50
152.026734
 51
302.180730
  6
CONTINUOUS
  0
ARC
  8
WHITE
 10
173.499216
 20
133.478378
 30
0.000000
 40
22.098339
 50
122.534880
 51
135.445778
  6
CONTINUOUS
  0
ARC
  8
WHITE
 10
164.888382
 20
144.825780
 30
0.000000
 40
7.984958
 50
17.523539
 51
114.205670
  6
CONTINUOUS
  0
ARC
  8
WHITE
 10
165.581455
 20
145.164493
 30
0.000000
 40
7.222968
 50
-46.697021
 51
16.616730
  6
CONTINUOUS
  0
LINE
  8
WHITE
 10
170.535372
 20
139.908071
 30
0.000000
 11
164.163209
 21
133.914294
 31
0.000000
  6
CONTINUOUS
  0
ARC
  8
WHITE
 10
161.066257
 20
137.215724
 30
0.000000
 40
4.526649
 50
160.510071
 51
313.169587
  6
CONTINUOUS
  0
LINE
  8
WHITE
 10
156.798984
 20
138.726000
 30
0.000000
 11
157.336582
 21
140.248969
 31
0.000000
  6
CONTINUOUS
  0
ARC
  8
WHITE
 10
154.208638
 20
141.350918
 30
0.000000
 40
3.316372
 50
-19.406951
 51
95.621799
  6
CONTINUOUS
  0
LINE
  8
WHITE
 10
153.883761
 20
144.651340
 30
0.000000
 11
138.994907
 21
143.175761
 31
0.000000
  6
CONTINUOUS
  0
ARC
  8
WHITE
 10
139.190573
 20
141.229029
 30
0.000000
 40
1.956541
 50
95.739522
 51
180.667247
  6
CONTINUOUS
  0
LINE
  8
WHITE
 10
137.234165
 20
141.206244
 30
0.000000
 11
137.249546
 21
139.870319
 31
0.000000
  6
CONTINUOUS
  0
ARC
  8
WHITE
 10
137.999545
 20
139.879056
 30
0.000000
 40
0.750050
 50
-179.332534
 51
-83.495906
  6
CONTINUOUS
  0
LINE
  8
WHITE
 10
138.084506
 20
139.133833
 30
0.000000
 11
146.402438
 21
140.081840
 31
0.000000
  6
CONTINUOUS
  0
LINE
  8
WHITE
 10
146.402438
 20
140.081840
 30
0.000000
 11
146.580783
 21
138.516974
 31
0.000000
  6
CONTINUOUS
  0
LINE
  8
WHITE
 10
146.580783
 20
138.516974
 30
0.000000
 11
138.027926
 21
137.542166
 31
0.000000
  6
CONTINUOUS
  0
ARC
  8
WHITE
 10
138.112841
 20
136.796991
 30
0.000000
 40
0.749998
 50
96.500930
 51
175.568774
  6
CONTINUOUS
  0
LINE
  8
WHITE
 10
137.365085
 20
136.854938
 30
0.000000
 11
137.243024
 21
135.281738
 31
0.000000
  6
CONTINUOUS
  0
ARC
  8
WHITE
 10
134.845553
 20
135.466563
 30
0.000000
 40
2.404584
 50
-110.183563
 51
-4.408302
  6
CONTINUOUS
  0
LINE
  8
WHITE
 10
134.015902
 20
133.209640
 30
0.000000
 11
131.303175
 21
134.213120
 31
0.000000
  6
CONTINUOUS
  0
ARC
  8
WHITE
 10
123.679965
 20
113.549125
 30
0.000000
 40
22.025305
 50
69.750343
 51
90.461563
  6
CONTINUOUS
  0
LINE
  8
WHITE
 10
123.502536
 20
135.573715
 30
0.000000
 11
114.644992
 21
135.491660
 31
0.000000
  6
CONTINUOUS
  0
ARC
  8
WHITE
 10
114.375197
 20
162.906892
 30
0.000000
 40
27.416559
 50
-129.626055
 51
-89.436168
  6
CONTINUOUS
  0
LINE
  8
WHITE
 10
96.889620
 20
141.790019
 30
0.000000
 11
92.754716
 21
145.213762
 31
0.000000
  6
CONTINUOUS
  0
ARC
  8
WHITE
 10
91.565101
 20
143.781311
 30
0.000000
 40
1.862015
 50
50.291203
 51
156.392538
  6
CONTINUOUS
  0
ARC
  8
WHITE
 10
202.181316
 20
19.422921
 30
0.000000
 40
94.709273
 50
62.971111
 51
102.030609
  6
CONTINUOUS
  0
ARC
  8
WHITE
 10
180.911045
 20
116.172030
 30
0.000000
 40
4.394779
 50
-121.444931
 51
-69.631691
  6
CONTINUOUS
  0
LINE
  8
WHITE
 10
178.618381
 20
112.422659
 30
0.000000
 11
177.246635
 21
113.662882
 31
0.000000
  6
CONTINUOUS
  0
ARC
  8
WHITE
 10
172.451022
 20
109.492503
 30
0.000000
 40
6.355309
 50
41.010998
 51
84.101280
  6
CONTINUOUS
  0
LINE
  8
WHITE
 10
173.104159
 20
115.814162
 30
0.000000
 11
168.872226
 21
116.628902
 31
0.000000
  6
CONTINUOUS
  0
ARC
  8
WHITE
 10
167.464860
 20
111.837334
 30
0.000000
 40
4.993976
 50
73.631578
 51
111.423331
  6
CONTINUOUS
  0
LINE
  8
WHITE
 10
165.640781
 20
116.486262
 30
0.000000
 11
163.418063
 21
115.344657
 31
0.000000
  6
CONTINUOUS
  0
ARC
  8
WHITE
 10
163.760654
 20
114.677501
 30
0.000000
 40
0.749977
 50
117.180865
 51
207.643585
  6
CONTINUOUS
  0
LINE
  8
WHITE
 10
163.096285
 20
114.329534
 30
0.000000
 11
166.620578
 21
107.599604
 31
0.000000
  6
CONTINUOUS
  0
LINE
  8
WHITE
 10
166.620578
 20
107.599604
 30
0.000000
 11
165.225314
 21
106.868968
 31
0.000000
  6
CONTINUOUS
  0
LINE
  8
WHITE
 10
165.225314
 20
106.868968
 30
0.000000
 11
161.802707
 21
113.404735
 31
0.000000
  6
CONTINUOUS
  0
ARC
  8
WHITE
 10
161.138217
 20
113.056811
 30
0.000000
 40
0.750065
 50
27.636311
 51
122.688049
  6
CONTINUOUS
  0
LINE
  8
WHITE
 10
160.733133
 20
113.688084
 30
0.000000
 11
159.381686
 21
112.820674
 31
0.000000
  6
CONTINUOUS
  0
ARC
  8
WHITE
 10
162.547641
 20
109.534104
 30
0.000000
 40
4.563421
 50
133.929113
 51
193.563101
  6
CONTINUOUS
  0
LINE
  8
WHITE
 10
158.111483
 20
108.463908
 30
0.000000
 11
159.796685
 21
101.748620
 31
0.000000
  6
CONTINUOUS
  0
ARC
  8
WHITE
 10
162.769504
 20
102.703708
 30
0.000000
 40
3.122475
 50
-162.189161
 51
-116.895050
  6
CONTINUOUS
  0
ARC
  8
WHITE
 10
163.741087
 20
107.289095
 30
0.000000
 40
7.746126
 50
-107.925148
 51
-81.631543
  6
CONTINUOUS
  0
ARC
  8
WHITE
 10
165.729587
 20
92.577609
 30
0.000000
 40
7.100251
 50
63.941868
 51
96.966165
  6
CONTINUOUS
  0
ARC
  8
WHITE
 10
173.110921
 20
108.040929
 30
0.000000
 40
10.035002
 50
-115.134519
 51
-95.113786
  6
CONTINUOUS
  0
ARC
  8
WHITE
 10
172.649143
 20
103.636103
 30
0.000000
 40
5.606953
 50
-94.425842
 51
-51.483948
  6
CONTINUOUS
  0
ARC
  8
WHITE
 10
169.646971
 20
106.848070
 30
0.000000
 40
9.995745
 50
-49.484213
 51
-13.323124
  6
CONTINUOUS
  0
ARC
  8
WHITE
 10
183.028073
 20
103.167410
 30
0.000000
 40
3.905282
 50
108.515144
 51
159.350232
  6
CONTINUOUS
  0
ARC
  8
WHITE
 10
206.331862
 20
9.067283
 30
0.000000
 40
100.835928
 50
86.958730
 51
104.087572
  6
CONTINUOUS
  0
ARC
  8
WHITE
 10
205.344484
 20
20.206912
 30
0.000000
 40
89.778227
 50
64.617854
 51
85.952247
  6
CONTINUOUS
  0
ARC
  8
WHITE
 10
244.261295
 20
102.701806
 30
0.000000
 40
1.449269
 50
-107.385870
 51
48.533819
  6
CONTINUOUS
  0
CIRCLE
  8
WHITE
 10
173.179965
 20
107.503199
 30
0.000000
 40
3.185523
  6
CONTINUOUS
  0
ARC
  8
WHITE
 10
69.585442
 20
20.028290
 30
0.000000
 40
94.709276
 50
78.969148
 51
118.028709
  6
CONTINUOUS
  0
ARC
  8
WHITE
 10
26.058621
 20
102.560111
 30
0.000000
 40
1.449298
 50
132.460059
 51
288.364293
  6
CONTINUOUS
  0
ARC
  8
WHITE
 10
66.409152
 20
20.756824
 30
0.000000
 40
89.778368
 50
95.047707
 51
116.382401
  6
CONTINUOUS
  0
ARC
  8
WHITE
 10
65.616354
 20
9.601864
 30
0.000000
 40
100.835869
 50
76.912365
 51
94.041248
  6
CONTINUOUS
  0
ARC
  8
WHITE
 10
87.274387
 20
104.094371
 30
0.000000
 40
3.905208
 50
21.648701
 51
72.484083
  6
CONTINUOUS
  0
ARC
  8
WHITE
 10
100.589390
 20
108.008179
 30
0.000000
 40
9.996024
 50
-165.675679
 51
-129.514627
  6
CONTINUOUS
  0
ARC
  8
WHITE
 10
97.643440
 20
104.744258
 30
0.000000
 40
5.607023
 50
-127.512021
 51
-84.571210
  6
CONTINUOUS
  0
ARC
  8
WHITE
 10
97.105353
 20
109.140209
 30
0.000000
 40
10.034877
 50
-83.887298
 51
-63.866852
  6
CONTINUOUS
  0
ARC
  8
WHITE
 10
104.755208
 20
93.808062
 30
0.000000
 40
7.100278
 50
84.034007
 51
117.058403
  6
CONTINUOUS
  0
ARC
  8
WHITE
 10
106.486664
 20
108.552013
 30
0.000000
 40
7.746102
 50
-97.368697
 51
-71.075197
  6
CONTINUOUS
  0
ARC
  8
WHITE
 10
107.537928
 20
103.984154
 30
0.000000
 40
3.122424
 50
-62.101445
 51
-16.808611
  6
CONTINUOUS
  0
LINE
  8
WHITE
 10
110.526950
 20
103.081225
 30
0.000000
 11
112.094699
 21
109.824885
 31
0.000000
  6
CONTINUOUS
  0
ARC
  8
WHITE
 10
107.640842
 20
110.817443
 30
0.000000
 40
4.563114
 50
-12.563269
 51
47.072105
  6
CONTINUOUS
  0
LINE
  8
WHITE
 10
110.748676
 20
114.158607
 30
0.000000
 11
109.382358
 21
115.002422
 31
0.000000
  6
CONTINUOUS
  0
ARC
  8
WHITE
 10
108.988315
 20
114.364253
 30
0.000000
 40
0.750019
 50
58.306337
 51
153.352814
  6
CONTINUOUS
  0
LINE
  8
WHITE
 10
108.317959
 20
114.700634
 30
0.000000
 11
105.009983
 21
108.106017
 31
0.000000
  6
CONTINUOUS
  0
LINE
  8
WHITE
 10
105.009983
 20
108.106017
 30
0.000000
 11
103.602268
 21
108.812198
 31
0.000000
  6
CONTINUOUS
  0
LINE
  8
WHITE
 10
103.602268
 20
108.812198
 30
0.000000
 11
107.008396
 21
115.602653
 31
0.000000
  6
CONTINUOUS
  0
ARC
  8
WHITE
 10
106.338047
 20
115.938937
 30
0.000000
 40
0.749970
 50
-26.640874
 51
63.808319
  6
CONTINUOUS
  0
LINE
  8
WHITE
 10
106.669065
 20
116.611902
 30
0.000000
 11
104.426609
 21
117.714614
 31
0.000000
  6
CONTINUOUS
  0
ARC
  8
WHITE
 10
102.683936
 20
113.034562
 30
0.000000
 40
4.993976
 50
69.576586
 51
107.368564
  6
CONTINUOUS
  0
LINE
  8
WHITE
 10
101.193148
 20
117.800833
 30
0.000000
 11
96.976046
 21
116.912360
 31
0.000000
  6
CONTINUOUS
  0
ARC
  8
WHITE
 10
97.739533
 20
110.603065
 30
0.000000
 40
6.355322
 50
96.899802
 51
139.988115
  6
CONTINUOUS
  0
LINE
  8
WHITE
 10
92.871921
 20
114.689197
 30
0.000000
 11
91.522067
 21
113.425127
 31
0.000000
  6
CONTINUOUS
  0
ARC
  8
WHITE
 10
89.164218
 20
117.133929
 30
0.000000
 40
4.394845
 50
-109.365993
 51
-57.554084
  6
CONTINUOUS
  0
CIRCLE
  8
WHITE
 10
97.045444
 20
108.601329
 30
0.000000
 40
3.185554
  6
CONTINUOUS
  0
ARC
  8
WHITE
 10
134.783572
 20
89.468911
 30
0.000000
 40
5.861356
 50
33.124767
 51
67.099365
  6
CONTINUOUS
  0
ARC
  8
WHITE
 10
137.356296
 20
95.559138
 30
0.000000
 40
0.749981
 50
170.116821
 51
247.097113
  6
CONTINUOUS
  0
LINE
  8
WHITE
 10
136.617445
 20
95.687865
 30
0.000000
 11
137.792453
 21
102.435481
 31
0.000000
  6
CONTINUOUS
  0
LINE
  8
WHITE
 10
137.792453
 20
102.435481
 30
0.000000
 11
136.240817
 21
102.705745
 31
0.000000
  6
CONTINUOUS
  0
LINE
  8
WHITE
 10
136.240817
 20
102.705745
 30
0.000000
 11
134.995721
 21
95.556053
 31
0.000000
  6
CONTINUOUS
  0
ARC
  8
WHITE
 10
134.256869
 20
95.684749
 30
0.000000
 40
0.749977
 50
-74.348602
 51
-9.880823
  6
CONTINUOUS
  0
ARC
  8
WHITE
 10
136.040522
 20
89.318779
 30
0.000000
 40
5.861149
 50
105.652189
 51
133.224512
  6
CONTINUOUS
  0
LINE
  8
WHITE
 10
132.026461
 20
93.589656
 30
0.000000
 11
130.747103
 21
92.384273
 31
0.000000
  6
CONTINUOUS
  0
ARC
  8
WHITE
 10
128.674350
 20
94.577693
 30
0.000000
 40
3.017846
 50
-116.446899
 51
-46.620153
  6
CONTINUOUS
  0
LINE
  8
WHITE
 10
127.330297
 20
91.875671
 30
0.000000
 11
126.763793
 21
92.494837
 31
0.000000
  6
CONTINUOUS
  0
ARC
  8
WHITE
 10
127.317173
 20
93.001155
 30
0.000000
 40
0.750058
 50
132.378178
 51
222.457174
  6
CONTINUOUS
  0
LINE
  8
WHITE
 10
126.811618
 20
93.555232
 30
0.000000
 11
130.747470
 21
97.146846
 31
0.000000
  6
CONTINUOUS
  0
LINE
  8
WHITE
 10
130.747470
 20
97.146846
 30
0.000000
 11
129.685825
 21
98.310298
 31
0.000000
  6
CONTINUOUS
  0
LINE
  8
WHITE
 10
129.685825
 20
98.310298
 30
0.000000
 11
125.753034
 21
94.721486
 31
0.000000
  6
CONTINUOUS
  0
ARC
  8
WHITE
 10
125.247509
 20
95.275544
 30
0.000000
 40
0.750023
 50
-149.054613
 51
-47.622511
  6
CONTINUOUS
  0
ARC
  8
WHITE
 10
126.774265
 20
96.190852
 30
0.000000
 40
2.530128
 50
147.339262
 51
210.943844
  6
CONTINUOUS
  0
LINE
  8
WHITE
 10
124.644199
 20
97.556269
 30
0.000000
 11
126.395053
 21
100.275569
 31
0.000000
  6
CONTINUOUS
  0
ARC
  8
WHITE
 10
124.119602
 20
101.740596
 30
0.000000
 40
2.706286
 50
-32.775059
 51
58.112137
  6
CONTINUOUS
  0
LINE
  8
WHITE
 10
125.549220
 20
104.038459
 30
0.000000
 11
124.018161
 21
104.991267
 31
0.000000
  6
CONTINUOUS
  0
ARC
  8
WHITE
 10
125.879665
 20
107.989849
 30
0.000000
 40
3.529403
 50
166.875309
 51
238.168208
  6
CONTINUOUS
  0
ARC
  8
WHITE
 10
123.172946
 20
108.620967
 30
0.000000
 40
0.750081
 50
65.111551
 51
166.876455
  6
CONTINUOUS
  0
LINE
  8
WHITE
 10
123.488620
 20
109.301387
 30
0.000000
 11
127.746738
 21
107.326045
 31
0.000000
  6
CONTINUOUS
  0
LINE
  8
WHITE
 10
127.746738
 20
107.326045
 30
0.000000
 11
128.409580
 21
108.754817
 31
0.000000
  6
CONTINUOUS
  0
LINE
  8
WHITE
 10
128.409580
 20
108.754817
 30
0.000000
 11
124.325229
 21
110.649410
 31
0.000000
  6
CONTINUOUS
  0
ARC
  8
WHITE
 10
124.640842
 20
111.329734
 30
0.000000
 40
0.749968
 50
147.585581
 51
245.112699
  6
CONTINUOUS
  0
ARC
  8
WHITE
 10
134.109364
 20
105.320093
 30
0.000000
 40
11.964632
 50
120.243365
 51
147.596130
  6
CONTINUOUS
  0
ARC
  8
WHITE
 10
128.460849
 20
115.008235
 30
0.000000
 40
0.750097
 50
29.512437
 51
120.239340
  6
CONTINUOUS
  0
LINE
  8
WHITE
 10
129.113620
 20
115.377742
 30
0.000000
 11
131.346591
 21
111.433284
 31
0.000000
  6
CONTINUOUS
  0
LINE
  8
WHITE
 10
131.346591
 20
111.433284
 30
0.000000
 11
132.717136
 21
112.209101
 31
0.000000
  6
CONTINUOUS
  0
LINE
  8
WHITE
 10
132.717136
 20
112.209101
 30
0.000000
 11
130.650901
 21
115.859085
 31
0.000000
  6
CONTINUOUS
  0
ARC
  8
WHITE
 10
131.303561
 20
116.228633
 30
0.000000
 40
0.750021
 50
95.238754
 51
209.519279
  6
CONTINUOUS
  0
ARC
  8
WHITE
 10
131.590208
 20
113.102185
 30
0.000000
 40
3.889581
 50
50.953765
 51
95.238532
  6
CONTINUOUS
  0
LINE
  8
WHITE
 10
134.040439
 20
116.122981
 30
0.000000
 11
135.527987
 21
114.919429
 31
0.000000
  6
CONTINUOUS
  0
ARC
  8
WHITE
 10
138.734996
 20
118.882850
 30
0.000000
 40
5.098393
 50
-128.978115
 51
-94.516353
  6
CONTINUOUS
  0
ARC
  8
WHITE
 10
139.143143
 20
118.834236
 30
0.000000
 40
5.098638
 50
-99.136673
 51
-64.673831
  6
CONTINUOUS
  0
LINE
  8
WHITE
 10
141.324191
 20
114.225642
 30
0.000000
 11
143.053622
 21
115.044123
 31
0.000000
  6
CONTINUOUS
  0
ARC
  8
WHITE
 10
144.721343
 20
111.530210
 30
0.000000
 40
3.889586
 50
71.104964
 51
115.389256
  6
CONTINUOUS
  0
ARC
  8
WHITE
 10
145.738132
 20
114.500666
 30
0.000000
 40
0.749926
 50
-43.160034
 51
71.109417
  6
CONTINUOUS
  0
LINE
  8
WHITE
 10
146.285162
 20
113.987688
 30
0.000000
 11
143.528964
 21
111.049129
 31
0.000000
  6
CONTINUOUS
  0
LINE
  8
WHITE
 10
143.528964
 20
111.049129
 30
0.000000
 11
144.677768
 21
109.971736
 31
0.000000
  6
CONTINUOUS
  0
LINE
  8
WHITE
 10
144.677768
 20
109.971736
 30
0.000000
 11
147.665500
 21
113.157038
 31
0.000000
  6
CONTINUOUS
  0
ARC
  8
WHITE
 10
148.212436
 20
112.643977
 30
0.000000
 40
0.749914
 50
46.107788
 51
136.830387
  6
CONTINUOUS
  0
ARC
  8
WHITE
 10
140.438008
 20
104.562843
 30
0.000000
 40
11.963586
 50
18.752621
 51
46.108152
  6
CONTINUOUS
  0
ARC
  8
WHITE
 10
151.056247
 20
108.167781
 30
0.000000
 40
0.750086
 50
-78.766883
 51
18.753356
  6
CONTINUOUS
  0
LINE
  8
WHITE
 10
151.202365
 20
107.432064
 30
0.000000
 11
147.146396
 21
106.626399
 31
0.000000
  6
CONTINUOUS
  0
LINE
  8
WHITE
 10
147.146396
 20
106.626399
 30
0.000000
 11
147.453281
 21
105.081722
 31
0.000000
  6
CONTINUOUS
  0
LINE
  8
WHITE
 10
147.453281
 20
105.081722
 30
0.000000
 11
151.697300
 21
105.924556
 31
0.000000
  6
CONTINUOUS
  0
ARC
  8
WHITE
 10
151.843419
 20
105.188996
 30
0.000000
 40
0.749933
 50
-0.543768
 51
101.235573
  6
CONTINUOUS
  0
ARC
  8
WHITE
 10
149.064242
 20
105.214289
 30
0.000000
 40
3.529225
 50
-71.818858
 51
-0.526188
  6
CONTINUOUS
  0
LINE
  8
WHITE
 10
150.165439
 20
101.861262
 30
0.000000
 11
148.452670
 21
101.296931
 31
0.000000
  6
CONTINUOUS
  0
ARC
  8
WHITE
 10
149.299473
 20
98.726477
 30
0.000000
 40
2.706346
 50
108.233807
 51
199.122677
  6
CONTINUOUS
  0
LINE
  8
WHITE
 10
146.742465
 20
97.839900
 30
0.000000
 11
147.802280
 21
94.784053
 31
0.000000
  6
CONTINUOUS
  0
ARC
  8
WHITE
 10
145.410056
 20
93.960128
 30
0.000000
 40
2.530135
 50
-44.599909
 51
19.004624
  6
CONTINUOUS
  0
ARC
  8
WHITE
 10
146.677463
 20
92.710200
 30
0.000000
 40
0.750068
 50
-146.038330
 51
-44.594476
  6
CONTINUOUS
  0
LINE
  8
WHITE
 10
146.055347
 20
92.291183
 30
0.000000
 11
143.210544
 21
96.514583
 31
0.000000
  6
CONTINUOUS
  0
LINE
  8
WHITE
 10
143.210544
 20
96.514583
 30
0.000000
 11
141.904270
 21
95.634578
 31
0.000000
  6
CONTINUOUS
  0
LINE
  8
WHITE
 10
141.904270
 20
95.634578
 30
0.000000
 11
144.751742
 21
91.407588
 31
0.000000
  6
CONTINUOUS
  0
ARC
  8
WHITE
 10
144.129511
 20
90.988616
 30
0.000000
 40
0.750140
 50
-56.112373
 51
33.953857
  6
CONTINUOUS
  0
LINE
  8
WHITE
 10
144.547763
 20
90.365901
 30
0.000000
 11
143.851046
 21
89.898250
 31
0.000000
  6
CONTINUOUS
  0
ARC
  8
WHITE
 10
143.182777
 20
92.841120
 30
0.000000
 40
3.017792
 50
-147.026064
 51
-77.206188
  6
CONTINUOUS
  0
LINE
  8
WHITE
 10
140.651096
 20
91.198664
 30
0.000000
 11
139.692355
 21
92.671931
 31
0.000000
  6
CONTINUOUS
  0
LINE
  8
WHITE
 10
44.931980
 20
61.600283
 30
0.000000
 11
44.926303
 21
58.933055
 31
0.000000
  6
CONTINUOUS
  0
ARC
  8
WHITE
 10
44.176303
 20
58.934657
 30
0.000000
 40
0.750002
 50
-89.944022
 51
-0.122441
  6
CONTINUOUS
  0
LINE
  8
WHITE
 10
44.177036
 20
58.184656
 30
0.000000
 11
35.787692
 21
58.175822
 31
0.000000
  6
CONTINUOUS
  0
LINE
  8
WHITE
 10
35.787692
 20
58.175822
 30
0.000000
 11
35.789340
 21
56.600818
 31
0.000000
  6
CONTINUOUS
  0
LINE
  8
WHITE
 10
35.789340
 20
56.600818
 30
0.000000
 11
44.145908
 21
56.609630
 31
0.000000
  6
CONTINUOUS
  0
ARC
  8
WHITE
 10
44.146640
 20
55.859630
 30
0.000000
 40
0.750000
 50
0.795532
 51
90.055978
  6
CONTINUOUS
  0
LINE
  8
WHITE
 10
44.896568
 20
55.870043
 30
0.000000
 11
44.932895
 21
53.257678
 31
0.000000
  6
CONTINUOUS
  0
ARC
  8
WHITE
 10
43.808002
 20
53.242067
 30
0.000000
 40
1.125002
 50
-89.613787
 51
0.795060
  6
CONTINUOUS
  0
LINE
  8
WHITE
 10
43.815585
 20
52.117091
 30
0.000000
 11
39.681064
 21
52.088870
 31
0.000000
  6
CONTINUOUS
  0
ARC
  8
WHITE
 10
40.386866
 20
46.779077
 30
0.000000
 40
5.356497
 50
97.571637
 51
156.179358
  6
CONTINUOUS
  0
ARC
  8
WHITE
 10
28.692356
 20
53.260859
 30
0.000000
 40
8.050558
 50
-76.869537
 51
-32.439818
  6
CONTINUOUS
  0
ARC
  8
WHITE
 10
28.040343
 20
55.895107
 30
0.000000
 40
10.764113
 50
-97.769421
 51
-76.675007
  6
CONTINUOUS
  0
ARC
  8
WHITE
 10
26.705112
 20
47.033213
 30
0.000000
 40
1.807390
 50
-160.966629
 51
-93.804830
  6
CONTINUOUS
  0
LINE
  8
WHITE
 10
24.996535
 20
46.443790
 30
0.000000
 11
24.675896
 21
47.163224
 31
0.000000
  6
CONTINUOUS
  0
ARC
  8
WHITE
 10
25.360929
 20
47.468545
 30
0.000000
 40
0.749995
 50
111.421733
 51
204.022660
  6
CONTINUOUS
  0
LINE
  8
WHITE
 10
25.087009
 20
48.166728
 30
0.000000
 11
31.504856
 21
50.684817
 31
0.000000
  6
CONTINUOUS
  0
LINE
  8
WHITE
 10
31.504856
 20
50.684817
 30
0.000000
 11
30.381686
 21
53.547374
 31
0.000000
  6
CONTINUOUS
  0
LINE
  8
WHITE
 10
30.381686
 20
53.547374
 30
0.000000
 11
23.964025
 21
51.029279
 31
0.000000
  6
CONTINUOUS
  0
ARC
  8
WHITE
 10
23.690097
 20
51.727466
 30
0.000000
 40
0.750000
 50
-156.274506
 51
-68.577840
  6
CONTINUOUS
  0
ARC
  8
WHITE
 10
16.901257
 20
48.743581
 30
0.000000
 40
6.665654
 50
23.726979
 51
67.206404
  6
CONTINUOUS
  0
ARC
  8
WHITE
 10
20.785676
 20
57.919160
 30
0.000000
 40
3.298351
 50
175.153663
 51
246.748901
  6
CONTINUOUS
  0
ARC
  8
WHITE
 10
20.797442
 20
58.197833
 30
0.000000
 40
3.298324
 50
108.397938
 51
180.000266
  6
CONTINUOUS
  0
ARC
  8
WHITE
 10
17.745761
 20
67.623126
 30
0.000000
 40
6.608846
 50
-72.287512
 51
-28.421997
  6
CONTINUOUS
  0
ARC
  8
WHITE
 10
24.217583
 20
64.120589
 30
0.000000
 40
0.749975
 50
63.723994
 51
151.576396
  6
CONTINUOUS
  0
LINE
  8
WHITE
 10
24.549594
 20
64.793070
 30
0.000000
 11
30.718418
 21
61.747546
 31
0.000000
  6
CONTINUOUS
  0
LINE
  8
WHITE
 10
30.718418
 20
61.747546
 30
0.000000
 11
32.079623
 21
64.504771
 31
0.000000
  6
CONTINUOUS
  0
LINE
  8
WHITE
 10
32.079623
 20
64.504771
 30
0.000000
 11
25.908408
 21
67.551440
 31
0.000000
  6
CONTINUOUS
  0
ARC
  8
WHITE
 10
26.240410
 20
68.224000
 30
0.000000
 40
0.750041
 50
151.129276
 51
243.727246
  6
CONTINUOUS
  0
LINE
  8
WHITE
 10
25.583590
 20
68.586146
 30
0.000000
 11
25.963901
 21
69.275882
 31
0.000000
  6
CONTINUOUS
  0
ARC
  8
WHITE
 10
27.616488
 20
68.544080
 30
0.000000
 40
1.807368
 50
88.951203
 51
156.115186
  6
CONTINUOUS
  0
ARC
  8
WHITE
 10
28.197686
 20
59.601056
 30
0.000000
 40
10.764054
 50
71.823994
 51
92.918816
  6
CONTINUOUS
  0
ARC
  8
WHITE
 10
29.069873
 20
62.170745
 30
0.000000
 40
8.050563
 50
27.586761
 51
72.016767
  6
CONTINUOUS
  0
ARC
  8
WHITE
 10
40.924899
 20
67.968097
 30
0.000000
 40
5.153391
 50
-156.326555
 51
-94.399658
  6
CONTINUOUS
  0
LINE
  8
WHITE
 10
40.529567
 20
62.829893
 30
0.000000
 11
43.841952
 21
62.727183
 31
0.000000
  6
CONTINUOUS
  0
ARC
  8
WHITE
 10
43.806980
 20
61.602724
 30
0.000000
 40
1.125003
 50
-0.124293
 51
88.218583
  6
CONTINUOUS
  0
ARC
  8
WHITE
 10
254.654208
 20
58.034831
 30
0.000000
 40
3.620545
 50
-32.423401
 51
0.000000
  6
CONTINUOUS
  0
ARC
  8
WHITE
 10
254.656758
 20
57.907152
 30
0.000000
 40
3.620247
 50
2.021133
 51
34.440753
  6
CONTINUOUS
  0
ARC
  8
WHITE
 10
254.940769
 20
58.101665
 30
0.000000
 40
3.276013
 50
34.444367
 51
75.859093
  6
CONTINUOUS
  0
LINE
  8
WHITE
 10
255.741123
 20
61.278407
 30
0.000000
 11
253.785007
 21
61.771144
 31
0.000000
  6
CONTINUOUS
  0
ARC
  8
WHITE
 10
255.128804
 20
66.046006
 30
0.000000
 40
4.481098
 50
-158.874584
 51
-107.450466
  6
CONTINUOUS
  0
ARC
  8
WHITE
 10
250.249240
 20
64.160670
 30
0.000000
 40
0.750024
 50
21.124101
 51
108.209362
  6
CONTINUOUS
  0
LINE
  8
WHITE
 10
250.014865
 20
64.873134
 30
0.000000
 11
244.340426
 21
63.007060
 31
0.000000
  6
CONTINUOUS
  0
LINE
  8
WHITE
 10
244.340426
 20
63.007060
 30
0.000000
 11
243.848239
 21
64.503238
 31
0.000000
  6
CONTINUOUS
  0
LINE
  8
WHITE
 10
243.848239
 20
64.503238
 30
0.000000
 11
249.677390
 21
66.420134
 31
0.000000
  6
CONTINUOUS
  0
ARC
  8
WHITE
 10
249.443027
 20
67.132564
 30
0.000000
 40
0.749988
 50
-71.790649
 51
13.841137
  6
CONTINUOUS
  0
LINE
  8
WHITE
 10
250.171237
 20
67.311984
 30
0.000000
 11
250.009716
 21
67.967472
 31
0.000000
  6
CONTINUOUS
  0
ARC
  8
WHITE
 10
247.719089
 20
67.266643
 30
0.000000
 40
2.395441
 50
17.011760
 51
88.085739
  6
CONTINUOUS
  0
ARC
  8
WHITE
 10
247.994876
 20
53.970368
 30
0.000000
 40
15.691600
 50
90.714849
 51
102.522550
  6
CONTINUOUS
  0
LINE
  8
WHITE
 10
244.592564
 20
69.288676
 30
0.000000
 11
242.233066
 21
68.764583
 31
0.000000
  6
CONTINUOUS
  0
ARC
  8
WHITE
 10
243.417084
 20
63.434029
 30
0.000000
 40
5.460467
 50
102.523182
 51
138.911642
  6
CONTINUOUS
  0
LINE
  8
WHITE
 10
239.301547
 20
67.022769
 30
0.000000
 11
238.484657
 21
65.745881
 31
0.000000
  6
CONTINUOUS
  0
ARC
  8
WHITE
 10
236.357211
 20
66.571116
 30
0.000000
 40
2.281893
 50
-87.148315
 51
-21.201241
  6
CONTINUOUS
  0
LINE
  8
WHITE
 10
236.470737
 20
64.292048
 30
0.000000
 11
235.271946
 21
64.168898
 31
0.000000
  6
CONTINUOUS
  0
ARC
  8
WHITE
 10
235.538180
 20
61.717883
 30
0.000000
 40
2.465431
 50
96.199281
 51
177.842575
  6
CONTINUOUS
  0
LINE
  8
WHITE
 10
233.074496
 20
61.810695
 30
0.000000
 11
233.118991
 21
59.346187
 31
0.000000
  6
CONTINUOUS
  0
ARC
  8
WHITE
 10
233.868809
 20
59.359645
 30
0.000000
 40
0.749939
 50
-178.971745
 51
-90.251841
  6
CONTINUOUS
  0
LINE
  8
WHITE
 10
233.865512
 20
58.609714
 30
0.000000
 11
244.672214
 21
58.561854
 31
0.000000
  6
CONTINUOUS
  0
LINE
  8
WHITE
 10
244.672214
 20
58.561854
 30
0.000000
 11
244.665256
 21
56.986873
 31
0.000000
  6
CONTINUOUS
  0
LINE
  8
WHITE
 10
244.665256
 20
56.986873
 30
0.000000
 11
233.926120
 21
57.034355
 31
0.000000
  6
CONTINUOUS
  0
ARC
  8
WHITE
 10
233.922824
 20
56.284434
 30
0.000000
 40
0.749928
 50
89.748218
 51
180.989813
  6
CONTINUOUS
  0
LINE
  8
WHITE
 10
233.173008
 20
56.271479
 30
0.000000
 11
233.223178
 21
53.372096
 31
0.000000
  6
CONTINUOUS
  0
ARC
  8
WHITE
 10
235.682098
 20
53.551818
 30
0.000000
 40
2.465479
 50
-175.819701
 51
-94.177995
  6
CONTINUOUS
  0
LINE
  8
WHITE
 10
235.502475
 20
51.092891
 30
0.000000
 11
236.704927
 21
51.012018
 31
0.000000
  6
CONTINUOUS
  0
ARC
  8
WHITE
 10
236.671787
 20
48.730441
 30
0.000000
 40
2.281818
 50
23.223949
 51
89.167829
  6
CONTINUOUS
  0
LINE
  8
WHITE
 10
238.768710
 20
49.630221
 30
0.000000
 11
239.630201
 21
48.382912
 31
0.000000
  6
CONTINUOUS
  0
ARC
  8
WHITE
 10
243.616611
 20
52.114619
 30
0.000000
 40
5.460504
 50
-136.890107
 51
-100.502815
  6
CONTINUOUS
  0
LINE
  8
WHITE
 10
242.621250
 20
46.745601
 30
0.000000
 11
244.997960
 21
46.305045
 31
0.000000
  6
CONTINUOUS
  0
ARC
  8
WHITE
 10
247.857883
 20
61.733836
 30
0.000000
 40
15.691614
 50
-100.501314
 51
-88.694153
  6
CONTINUOUS
  0
ARC
  8
WHITE
 10
248.051019
 20
48.436119
 30
0.000000
 40
2.395474
 50
-86.063160
 51
-14.991451
  6
CONTINUOUS
  0
LINE
  8
WHITE
 10
250.364962
 20
47.816470
 30
0.000000
 11
250.503208
 21
48.476932
 31
0.000000
  6
CONTINUOUS
  0
ARC
  8
WHITE
 10
249.769142
 20
48.630646
 30
0.000000
 40
0.749988
 50
-11.826889
 51
73.810980
  6
CONTINUOUS
  0
LINE
  8
WHITE
 10
249.978243
 20
49.350894
 30
0.000000
 11
244.017612
 21
51.080623
 31
0.000000
  6
CONTINUOUS
  0
LINE
  8
WHITE
 10
244.017612
 20
51.080623
 30
0.000000
 11
244.456516
 21
52.593211
 31
0.000000
  6
CONTINUOUS
  0
LINE
  8
WHITE
 10
244.456516
 20
52.593211
 30
0.000000
 11
250.260959
 21
50.908824
 31
0.000000
  6
CONTINUOUS
  0
ARC
  8
WHITE
 10
250.470065
 20
51.629092
 30
0.000000
 40
0.750008
 50
-106.188968
 51
-19.098969
  6
CONTINUOUS
  0
ARC
  8
WHITE
 10
255.413131
 20
49.917336
 30
0.000000
 40
4.481054
 50
109.471768
 51
160.899032
  6
CONTINUOUS
  0
LINE
  8
WHITE
 10
253.919406
 20
54.142100
 30
0.000000
 11
255.856845
 21
54.703502
 31
0.000000
  6
CONTINUOUS
  0
ARC
  8
WHITE
 10
254.945015
 20
57.850035
 30
0.000000
 40
3.275990
 50
-73.838998
 51
-32.422247
  6
CONTINUOUS
  0
ARC
  8
WHITE
 10
39.552888
 20
127.870938
 30
0.000000
 40
6.326580
 50
-1.719286
 51
73.405145
  6
CONTINUOUS
  0
LINE
  8
WHITE
 10
41.359774
 20
133.934005
 30
0.000000
 11
34.583225
 21
135.953681
 31
0.000000
  6
CONTINUOUS
  0
ARC
  8
WHITE
 10
34.958999
 20
137.214809
 30
0.000000
 40
1.315921
 50
118.963444
 51
253.407661
  6
CONTINUOUS
  0
ARC
  8
WHITE
 10
-61.785339
 20
348.786587
 30
0.000000
 40
231.329498
 50
-65.451998
 51
-59.964693
  6
CONTINUOUS
  0
ARC
  8
WHITE
 10
50.964539
 20
152.302088
 30
0.000000
 40
4.850809
 50
-51.218686
 51
1.188711
  6
CONTINUOUS
  0
LINE
  8
WHITE
 10
55.814303
 20
152.402720
 30
0.000000
 11
55.725863
 21
156.364745
 31
0.000000
  6
CONTINUOUS
  0
ARC
  8
WHITE
 10
54.457286
 20
156.343560
 30
0.000000
 40
1.268754
 50
0.956717
 51
174.827956
  6
CONTINUOUS
  0
LINE
  8
WHITE
 10
53.193698
 20
156.457934
 30
0.000000
 11
52.814853
 21
152.499332
 31
0.000000
  6
CONTINUOUS
  0
ARC
  8
WHITE
 10
49.861911
 20
152.782001
 30
0.000000
 40
2.966440
 50
-62.055145
 51
-5.467951
  6
CONTINUOUS
  0
ARC
  8
WHITE
 10
-25.860623
 20
290.994945
 30
0.000000
 40
160.562877
 50
-66.881775
 51
-61.297313
  6
CONTINUOUS
  0
ARC
  8
WHITE
 10
84.092974
 20
36.453948
 30
0.000000
 40
116.714673
 50
113.699272
 51
118.861571
  6
CONTINUOUS
  0
ARC
  8
WHITE
 10
28.912241
 20
137.358833
 30
0.000000
 40
1.749559
 50
131.394064
 51
236.771712
  6
CONTINUOUS
  0
LINE
  8
WHITE
 10
27.953524
 20
135.895338
 30
0.000000
 11
34.728427
 21
131.461874
 31
0.000000
  6
CONTINUOUS
  0
ARC
  8
WHITE
 10
31.240817
 20
126.142421
 30
0.000000
 40
6.360818
 50
1.551033
 51
56.749828
  6
CONTINUOUS
  0
LINE
  8
WHITE
 10
37.599305
 20
126.314591
 30
0.000000
 11
37.752230
 21
120.908729
 31
0.000000
  6
CONTINUOUS
  0
ARC
  8
WHITE
 10
40.123631
 20
120.970682
 30
0.000000
 40
2.372210
 50
-178.503485
 51
-107.320333
  6
CONTINUOUS
  0
LINE
  8
WHITE
 10
39.417392
 20
118.706039
 30
0.000000
 11
39.874240
 21
118.620391
 31
0.000000
  6
CONTINUOUS
  0
ARC
  8
WHITE
 10
40.012485
 20
119.357528
 30
0.000000
 40
0.749988
 50
-100.622066
 51
3.804947
  6
CONTINUOUS
  0
LINE
  8
WHITE
 10
40.760820
 20
119.407297
 30
0.000000
 11
40.297214
 21
126.378020
 31
0.000000
  6
CONTINUOUS
  0
LINE
  8
WHITE
 10
40.297214
 20
126.378020
 30
0.000000
 11
41.868625
 21
126.482539
 31
0.000000
  6
CONTINUOUS
  0
LINE
  8
WHITE
 10
41.868625
 20
126.482539
 30
0.000000
 11
42.333713
 21
119.490794
 31
0.000000
  6
CONTINUOUS
  0
ARC
  8
WHITE
 10
43.082236
 20
119.540738
 30
0.000000
 40
0.750188
 50
-176.182690
 51
-93.105230
  6
CONTINUOUS
  0
LINE
  8
WHITE
 10
43.041598
 20
118.791652
 30
0.000000
 11
44.978854
 21
118.686572
 31
0.000000
  6
CONTINUOUS
  0
ARC
  8
WHITE
 10
45.241726
 20
123.535403
 30
0.000000
 40
4.855951
 50
-93.103166
 51
-53.042592
  6
CONTINUOUS
  0
ARC
  8
WHITE
 10
46.550998
 20
121.738700
 30
0.000000
 40
2.633294
 50
-52.302797
 51
52.544235
  6
CONTINUOUS
  0
LINE
  8
WHITE
 10
48.152432
 20
123.829069
 30
0.000000
 11
47.188388
 21
124.567771
 31
0.000000
  6
CONTINUOUS
  0
ARC
  8
WHITE
 10
49.250522
 20
127.252926
 30
0.000000
 40
3.385625
 50
178.112801
 51
232.476613
  6
CONTINUOUS
  0
LINE
  8
WHITE
 10
45.866733
 20
127.364421
 30
0.000000
 11
45.876620
 21
127.681124
 31
0.000000
  6
CONTINUOUS
  0
ARC
  8
WHITE
 10
55.697483
 20
127.883994
 30
0.000000
 40
6.326580
 50
-1.719788
 51
73.403450
  6
CONTINUOUS
  0
LINE
  8
WHITE
 10
57.504548
 20
133.947007
 30
0.000000
 11
50.727817
 21
135.966681
 31
0.000000
  6
CONTINUOUS
  0
ARC
  8
WHITE
 10
51.103799
 20
137.227834
 30
0.000000
 40
1.316005
 50
118.971737
 51
253.399341
  6
CONTINUOUS
  0
ARC
  8
WHITE
 10
-45.639859
 20
348.799998
 30
0.000000
 40
231.329498
 50
-65.452240
 51
-59.964905
  6
CONTINUOUS
  0
ARC
  8
WHITE
 10
67.109315
 20
152.315101
 30
0.000000
 40
4.850809
 50
-51.219243
 51
1.188571
  6
CONTINUOUS
  0
LINE
  8
WHITE
 10
71.959080
 20
152.415721
 30
0.000000
 11
71.870639
 21
156.377746
 31
0.000000
  6
CONTINUOUS
  0
ARC
  8
WHITE
 10
70.601901
 20
156.355281
 30
0.000000
 40
1.268936
 50
1.014395
 51
174.771002
  6
CONTINUOUS
  0
LINE
  8
WHITE
 10
69.338245
 20
156.470928
 30
0.000000
 11
68.959445
 21
152.512343
 31
0.000000
  6
CONTINUOUS
  0
ARC
  8
WHITE
 10
66.006686
 20
152.795001
 30
0.000000
 40
2.966256
 50
-62.058258
 51
-5.468087
  6
CONTINUOUS
  0
ARC
  8
WHITE
 10
-9.716784
 20
291.007550
 30
0.000000
 40
160.562794
 50
-66.881412
 51
-61.297008
  6
CONTINUOUS
  0
ARC
  8
WHITE
 10
100.238231
 20
36.467160
 30
0.000000
 40
116.714760
 50
113.699530
 51
118.861903
  6
CONTINUOUS
  0
ARC
  8
WHITE
 10
45.056991
 20
137.371812
 30
0.000000
 40
1.749627
 50
131.397581
 51
236.766984
  6
CONTINUOUS
  0
LINE
  8
WHITE
 10
44.098116
 20
135.908339
 30
0.000000
 11
50.873202
 21
131.474875
 31
0.000000
  6
CONTINUOUS
  0
ARC
  8
WHITE
 10
47.385593
 20
126.155421
 30
0.000000
 40
6.360818
 50
1.551182
 51
56.749828
  6
CONTINUOUS
  0
LINE
  8
WHITE
 10
53.744080
 20
126.327608
 30
0.000000
 11
53.897006
 21
120.921740
 31
0.000000
  6
CONTINUOUS
  0
ARC
  8
WHITE
 10
56.268407
 20
120.983682
 30
0.000000
 40
2.372211
 50
-178.503757
 51
-107.320341
  6
CONTINUOUS
  0
LINE
  8
WHITE
 10
55.562168
 20
118.719039
 30
0.000000
 11
56.018833
 21
118.633391
 31
0.000000
  6
CONTINUOUS
  0
ARC
  8
WHITE
 10
56.157077
 20
119.370539
 30
0.000000
 40
0.749999
 50
-100.621852
 51
3.804947
  6
CONTINUOUS
  0
LINE
  8
WHITE
 10
56.905423
 20
119.420309
 30
0.000000
 11
56.441806
 21
126.391032
 31
0.000000
  6
CONTINUOUS
  0
LINE
  8
WHITE
 10
56.441806
 20
126.391032
 30
0.000000
 11
58.013400
 21
126.495539
 31
0.000000
  6
CONTINUOUS
  0
LINE
  8
WHITE
 10
58.013400
 20
126.495539
 30
0.000000
 11
58.478489
 21
119.503806
 31
0.000000
  6
CONTINUOUS
  0
ARC
  8
WHITE
 10
59.226842
 20
119.553554
 30
0.000000
 40
0.750005
 50
-176.196745
 51
-93.106986
  6
CONTINUOUS
  0
LINE
  8
WHITE
 10
59.186191
 20
118.804652
 30
0.000000
 11
61.123448
 21
118.699573
 31
0.000000
  6
CONTINUOUS
  0
ARC
  8
WHITE
 10
61.386386
 20
123.548411
 30
0.000000
 40
4.855962
 50
-93.103947
 51
-53.041473
  6
CONTINUOUS
  0
ARC
  8
WHITE
 10
62.695817
 20
121.751735
 30
0.000000
 40
2.633231
 50
-52.303833
 51
52.544704
  6
CONTINUOUS
  0
LINE
  8
WHITE
 10
64.297196
 20
123.842067
 30
0.000000
 11
63.332981
 21
124.580771
 31
0.000000
  6
CONTINUOUS
  0
ARC
  8
WHITE
 10
65.395300
 20
127.266015
 30
0.000000
 40
3.385808
 50
178.114408
 51
232.475039
  6
CONTINUOUS
  0
LINE
  8
WHITE
 10
62.011325
 20
127.377421
 30
0.000000
 11
62.021213
 21
127.694124
 31
0.000000
  6
CONTINUOUS
  0
ARC
  8
WHITE
 10
72.889253
 20
127.725038
 30
0.000000
 40
6.326580
 50
-1.719288
 51
73.405138
  6
CONTINUOUS
  0
LINE
  8
WHITE
 10
74.696139
 20
133.788104
 30
0.000000
 11
67.919589
 21
135.807780
 31
0.000000
  6
CONTINUOUS
  0
ARC
  8
WHITE
 10
68.295322
 20
137.068896
 30
0.000000
 40
1.315898
 50
118.962173
 51
253.409274
  6
CONTINUOUS
  0
ARC
  8
WHITE
 10
-28.448216
 20
348.641032
 30
0.000000
 40
231.329512
 50
-65.452208
 51
-59.964870
  6
CONTINUOUS
  0
ARC
  8
WHITE
 10
84.300795
 20
152.156101
 30
0.000000
 40
4.850919
 50
-51.215876
 51
1.189707
  6
CONTINUOUS
  0
LINE
  8
WHITE
 10
89.150668
 20
152.256820
 30
0.000000
 11
89.062412
 21
156.218844
 31
0.000000
  6
CONTINUOUS
  0
ARC
  8
WHITE
 10
87.793674
 20
156.196379
 30
0.000000
 40
1.268936
 50
1.014395
 51
174.771002
  6
CONTINUOUS
  0
LINE
  8
WHITE
 10
86.530018
 20
156.312026
 30
0.000000
 11
86.151218
 21
152.353431
 31
0.000000
  6
CONTINUOUS
  0
ARC
  8
WHITE
 10
83.198459
 20
152.636100
 30
0.000000
 40
2.966258
 50
-62.058258
 51
-5.468288
  6
CONTINUOUS
  0
ARC
  8
WHITE
 10
7.475081
 20
290.848685
 30
0.000000
 40
160.562783
 50
-66.881448
 51
-61.297044
  6
CONTINUOUS
  0
ARC
  8
WHITE
 10
117.430026
 20
36.308360
 30
0.000000
 40
116.714685
 50
113.699560
 51
118.861937
  6
CONTINUOUS
  0
ARC
  8
WHITE
 10
62.248764
 20
137.212912
 30
0.000000
 40
1.749629
 50
131.397623
 51
236.767001
  6
CONTINUOUS
  0
LINE
  8
WHITE
 10
61.289890
 20
135.749438
 30
0.000000
 11
68.064975
 21
131.315975
 31
0.000000
  6
CONTINUOUS
  0
ARC
  8
WHITE
 10
64.577182
 20
125.996520
 30
0.000000
 40
6.360920
 50
1.551033
 51
56.748448
  6
CONTINUOUS
  0
LINE
  8
WHITE
 10
70.935771
 20
126.168693
 30
0.000000
 11
71.088595
 21
120.762827
 31
0.000000
  6
CONTINUOUS
  0
ARC
  8
WHITE
 10
73.459994
 20
120.824837
 30
0.000000
 40
2.372210
 50
-178.502107
 51
-107.315665
  6
CONTINUOUS
  0
LINE
  8
WHITE
 10
72.753939
 20
118.560137
 30
0.000000
 11
73.210605
 21
118.474490
 31
0.000000
  6
CONTINUOUS
  0
ARC
  8
WHITE
 10
73.348850
 20
119.211627
 30
0.000000
 40
0.749988
 50
-100.622010
 51
3.804947
  6
CONTINUOUS
  0
LINE
  8
WHITE
 10
74.097184
 20
119.261396
 30
0.000000
 11
73.633579
 21
126.232120
 31
0.000000
  6
CONTINUOUS
  0
LINE
  8
WHITE
 10
73.633579
 20
126.232120
 30
0.000000
 11
75.205173
 21
126.336638
 31
0.000000
  6
CONTINUOUS
  0
LINE
  8
WHITE
 10
75.205173
 20
126.336638
 30
0.000000
 11
75.670261
 21
119.344893
 31
0.000000
  6
CONTINUOUS
  0
ARC
  8
WHITE
 10
76.418614
 20
119.394653
 30
0.000000
 40
0.750006
 50
-176.195831
 51
-93.106983
  6
CONTINUOUS
  0
LINE
  8
WHITE
 10
76.377963
 20
118.645751
 30
0.000000
 11
78.315218
 21
118.540671
 31
0.000000
  6
CONTINUOUS
  0
ARC
  8
WHITE
 10
78.578159
 20
123.389498
 30
0.000000
 40
4.855951
 50
-93.103972
 51
-53.041473
  6
CONTINUOUS
  0
ARC
  8
WHITE
 10
79.887333
 20
121.592776
 30
0.000000
 40
2.633340
 50
-52.298805
 51
52.544036
  6
CONTINUOUS
  0
LINE
  8
WHITE
 10
81.488803
 20
123.683176
 30
0.000000
 11
80.524753
 21
124.421870
 31
0.000000
  6
CONTINUOUS
  0
ARC
  8
WHITE
 10
82.586887
 20
127.107026
 30
0.000000
 40
3.385625
 50
178.112830
 51
232.476621
  6
CONTINUOUS
  0
LINE
  8
WHITE
 10
79.203097
 20
127.218520
 30
0.000000
 11
79.212985
 21
127.535223
 31
0.000000
  6
CONTINUOUS
  0
ARC
  8
WHITE
 10
235.709018
 20
143.722537
 30
0.000000
 40
6.326567
 50
-81.587219
 51
-6.461670
  6
CONTINUOUS
  0
LINE
  8
WHITE
 10
241.995395
 20
143.010554
 30
0.000000
 11
242.030552
 21
143.325450
 31
0.000000
  6
CONTINUOUS
  0
ARC
  8
WHITE
 10
245.395807
 20
142.954238
 30
0.000000
 40
3.385667
 50
119.342564
 51
173.705314
  6
CONTINUOUS
  0
LINE
  8
WHITE
 10
243.736728
 20
145.905543
 30
0.000000
 11
244.796177
 21
146.499537
 31
0.000000
  6
CONTINUOUS
  0
ARC
  8
WHITE
 10
243.508605
 20
148.796542
 30
0.000000
 40
2.633262
 50
-60.727465
 51
44.120659
  6
CONTINUOUS
  0
ARC
  8
WHITE
 10
241.956917
 20
147.204451
 30
0.000000
 40
4.855954
 50
44.860260
 51
84.922412
  6
CONTINUOUS
  0
LINE
  8
WHITE
 10
242.386691
 20
152.041349
 30
0.000000
 11
240.454379
 21
152.213000
 31
0.000000
  6
CONTINUOUS
  0
ARC
  8
WHITE
 10
240.387710
 20
151.465931
 30
0.000000
 40
0.750038
 50
84.900390
 51
168.013845
  6
CONTINUOUS
  0
LINE
  8
WHITE
 10
239.654025
 20
151.621696
 30
0.000000
 11
238.198886
 21
144.767291
 31
0.000000
  6
CONTINUOUS
  0
LINE
  8
WHITE
 10
238.198886
 20
144.767291
 30
0.000000
 11
236.658053
 21
145.094363
 31
0.000000
  6
CONTINUOUS
  0
LINE
  8
WHITE
 10
236.658053
 20
145.094363
 30
0.000000
 11
238.109111
 21
151.928179
 31
0.000000
  6
CONTINUOUS
  0
ARC
  8
WHITE
 10
237.375461
 20
152.083934
 30
0.000000
 40
0.750001
 50
-11.985999
 51
92.434651
  6
CONTINUOUS
  0
LINE
  8
WHITE
 10
237.343601
 20
152.833258
 30
0.000000
 11
236.879062
 21
152.813472
 31
0.000000
  6
CONTINUOUS
  0
ARC
  8
WHITE
 10
237.256162
 20
150.471344
 30
0.000000
 40
2.372291
 50
99.146549
 51
170.321488
  6
CONTINUOUS
  0
LINE
  8
WHITE
 10
234.917636
 20
150.870173
 30
0.000000
 11
233.996753
 21
145.541099
 31
0.000000
  6
CONTINUOUS
  0
ARC
  8
WHITE
 10
227.727451
 20
146.616382
 30
0.000000
 40
6.360847
 50
-64.931213
 51
-9.732424
  6
CONTINUOUS
  0
LINE
  8
WHITE
 10
230.422580
 20
140.854728
 30
0.000000
 11
223.085727
 21
137.430541
 31
0.000000
  6
CONTINUOUS
  0
ARC
  8
WHITE
 10
223.826438
 20
135.845489
 30
0.000000
 40
1.749584
 50
115.047147
 51
220.421068
  6
CONTINUOUS
  0
ARC
  8
WHITE
 10
292.804786
 20
227.871088
 30
0.000000
 40
116.714739
 50
-127.042808
 51
-121.880385
  6
CONTINUOUS
  0
ARC
  8
WHITE
 10
147.746990
 20
-8.432002
 30
0.000000
 40
160.562808
 50
53.115683
 51
58.700112
  6
CONTINUOUS
  0
ARC
  8
WHITE
 10
242.368198
 20
117.597987
 30
0.000000
 40
2.966338
 50
-2.713257
 51
53.875004
  6
CONTINUOUS
  0
LINE
  8
WHITE
 10
245.331210
 20
117.457568
 30
0.000000
 11
245.142638
 21
113.485343
 31
0.000000
  6
CONTINUOUS
  0
ARC
  8
WHITE
 10
246.409885
 20
113.420012
 30
0.000000
 40
1.268929
 50
177.048814
 51
350.805115
  6
CONTINUOUS
  0
LINE
  8
WHITE
 10
247.662509
 20
113.217246
 30
0.000000
 11
248.313815
 21
117.126365
 31
0.000000
  6
CONTINUOUS
  0
ARC
  8
WHITE
 10
243.527822
 20
117.916184
 30
0.000000
 40
4.850727
 50
-9.370901
 51
43.037107
  6
CONTINUOUS
  0
ARC
  8
WHITE
 10
103.964657
 20
-60.523768
 30
0.000000
 40
231.329413
 50
51.783431
 51
57.270742
  6
CONTINUOUS
  0
ARC
  8
WHITE
 10
229.832065
 20
135.127566
 30
0.000000
 40
1.315924
 50
98.409225
 51
232.858233
  6
CONTINUOUS
  0
LINE
  8
WHITE
 10
229.639621
 20
136.429343
 30
0.000000
 11
236.634619
 21
137.464045
 31
0.000000
  6
CONTINUOUS
  0
ARC
  8
WHITE
 10
215.401200
 20
146.544222
 30
0.000000
 40
6.326522
 50
-81.585903
 51
-6.461559
  6
CONTINUOUS
  0
LINE
  8
WHITE
 10
221.687534
 20
145.832257
 30
0.000000
 11
221.722805
 21
146.147167
 31
0.000000
  6
CONTINUOUS
  0
ARC
  8
WHITE
 10
225.088169
 20
145.775939
 30
0.000000
 40
3.385777
 50
119.345840
 51
173.705238
  6
CONTINUOUS
  0
LINE
  8
WHITE
 10
223.428867
 20
148.727244
 30
0.000000
 11
224.488442
 21
149.321315
 31
0.000000
  6
CONTINUOUS
  0
ARC
  8
WHITE
 10
223.200882
 20
151.618217
 30
0.000000
 40
2.633168
 50
-60.726608
 51
44.123316
  6
CONTINUOUS
  0
ARC
  8
WHITE
 10
221.649082
 20
150.026138
 30
0.000000
 40
4.855933
 50
44.860691
 51
84.922699
  6
CONTINUOUS
  0
LINE
  8
WHITE
 10
222.078830
 20
154.863017
 30
0.000000
 11
220.146518
 21
155.034701
 31
0.000000
  6
CONTINUOUS
  0
ARC
  8
WHITE
 10
220.080008
 20
154.287651
 30
0.000000
 40
0.750005
 50
84.912305
 51
168.016573
  6
CONTINUOUS
  0
LINE
  8
WHITE
 10
219.346347
 20
154.443374
 30
0.000000
 11
217.891208
 21
147.588980
 31
0.000000
  6
CONTINUOUS
  0
LINE
  8
WHITE
 10
217.891208
 20
147.588980
 30
0.000000
 11
216.350375
 21
147.916087
 31
0.000000
  6
CONTINUOUS
  0
LINE
  8
WHITE
 10
216.350375
 20
147.916087
 30
0.000000
 11
217.801238
 21
154.749906
 31
0.000000
  6
CONTINUOUS
  0
ARC
  8
WHITE
 10
217.067600
 20
154.905658
 30
0.000000
 40
0.749990
 50
-11.985953
 51
92.434747
  6
CONTINUOUS
  0
LINE
  8
WHITE
 10
217.035739
 20
155.654971
 30
0.000000
 11
216.571384
 21
155.635161
 31
0.000000
  6
CONTINUOUS
  0
ARC
  8
WHITE
 10
216.948290
 20
153.293003
 30
0.000000
 40
2.372291
 50
99.141817
 51
170.320167
  6
CONTINUOUS
  0
LINE
  8
WHITE
 10
214.609774
 20
153.691885
 30
0.000000
 11
213.689168
 21
148.362798
 31
0.000000
  6
CONTINUOUS
  0
ARC
  8
WHITE
 10
207.419956
 20
149.438083
 30
0.000000
 40
6.360759
 50
-64.932678
 51
-9.732575
  6
CONTINUOUS
  0
LINE
  8
WHITE
 10
210.114901
 20
143.676440
 30
0.000000
 11
202.777865
 21
140.252242
 31
0.000000
  6
CONTINUOUS
  0
ARC
  8
WHITE
 10
203.519001
 20
138.667194
 30
0.000000
 40
1.749760
 50
115.059824
 51
220.421639
  6
CONTINUOUS
  0
ARC
  8
WHITE
 10
272.497776
 20
230.692274
 30
0.000000
 40
116.714756
 50
-127.043139
 51
-121.880880
  6
CONTINUOUS
  0
ARC
  8
WHITE
 10
127.439853
 20
-5.610730
 30
0.000000
 40
160.562794
 50
53.115986
 51
58.700417
  6
CONTINUOUS
  0
ARC
  8
WHITE
 10
222.060329
 20
120.419562
 30
0.000000
 40
2.966521
 50
-2.710420
 51
53.876548
  6
CONTINUOUS
  0
LINE
  8
WHITE
 10
225.023531
 20
120.279281
 30
0.000000
 11
224.834933
 21
116.307036
 31
0.000000
  6
CONTINUOUS
  0
ARC
  8
WHITE
 10
226.102219
 20
116.241923
 30
0.000000
 40
1.268957
 50
177.058746
 51
350.794151
  6
CONTINUOUS
  0
LINE
  8
WHITE
 10
227.354832
 20
116.038913
 30
0.000000
 11
228.006137
 21
119.948054
 31
0.000000
  6
CONTINUOUS
  0
ARC
  8
WHITE
 10
223.220142
 20
120.737864
 30
0.000000
 40
4.850727
 50
-9.370793
 51
43.037077
  6
CONTINUOUS
  0
ARC
  8
WHITE
 10
83.657237
 20
-57.702271
 30
0.000000
 40
231.329397
 50
51.783508
 51
57.270856
  6
CONTINUOUS
  0
ARC
  8
WHITE
 10
209.524265
 20
137.949238
 30
0.000000
 40
1.315887
 50
98.396036
 51
232.856058
  6
CONTINUOUS
  0
LINE
  8
WHITE
 10
209.332126
 20
139.251021
 30
0.000000
 11
216.326938
 21
140.285796
 31
0.000000
  6
CONTINUOUS
  0
ARC
  8
WHITE
 10
196.159519
 20
150.286388
 30
0.000000
 40
6.326544
 50
-81.585541
 51
-6.461365
  6
CONTINUOUS
  0
LINE
  8
WHITE
 10
202.445876
 20
149.574441
 30
0.000000
 11
202.481051
 21
149.889312
 31
0.000000
  6
CONTINUOUS
  0
ARC
  8
WHITE
 10
205.846530
 20
149.518123
 30
0.000000
 40
3.385887
 50
119.343239
 51
173.706107
  6
CONTINUOUS
  0
LINE
  8
WHITE
 10
204.187309
 20
152.469600
 30
0.000000
 11
205.246860
 21
153.063399
 31
0.000000
  6
CONTINUOUS
  0
ARC
  8
WHITE
 10
203.959191
 20
155.360349
 30
0.000000
 40
2.633262
 50
-60.725032
 51
44.123339
  6
CONTINUOUS
  0
ARC
  8
WHITE
 10
202.407626
 20
153.768298
 30
0.000000
 40
4.855840
 50
44.862411
 51
84.924873
  6
CONTINUOUS
  0
LINE
  8
WHITE
 10
202.837183
 20
158.605101
 30
0.000000
 11
200.904880
 21
158.776885
 31
0.000000
  6
CONTINUOUS
  0
ARC
  8
WHITE
 10
200.838389
 20
158.029805
 30
0.000000
 40
0.750033
 50
84.913987
 51
168.013798
  6
CONTINUOUS
  0
LINE
  8
WHITE
 10
200.104708
 20
158.185569
 30
0.000000
 11
198.649570
 21
151.331165
 31
0.000000
  6
CONTINUOUS
  0
LINE
  8
WHITE
 10
198.649570
 20
151.331165
 30
0.000000
 11
197.108554
 21
151.658271
 31
0.000000
  6
CONTINUOUS
  0
LINE
  8
WHITE
 10
197.108554
 20
151.658271
 30
0.000000
 11
198.559665
 21
158.492076
 31
0.000000
  6
CONTINUOUS
  0
ARC
  8
WHITE
 10
197.825955
 20
158.647769
 30
0.000000
 40
0.750047
 50
-11.980451
 51
92.448076
  6
CONTINUOUS
  0
LINE
  8
WHITE
 10
197.793918
 20
159.397131
 30
0.000000
 11
197.329745
 21
159.377345
 31
0.000000
  6
CONTINUOUS
  0
ARC
  8
WHITE
 10
197.706577
 20
157.035186
 30
0.000000
 40
2.372280
 50
99.140026
 51
170.321198
  6
CONTINUOUS
  0
LINE
  8
WHITE
 10
195.368065
 20
157.434025
 30
0.000000
 11
194.447300
 21
152.104934
 31
0.000000
  6
CONTINUOUS
  0
ARC
  8
WHITE
 10
188.177951
 20
153.180232
 30
0.000000
 40
6.360896
 50
-64.929688
 51
-9.732487
  6
CONTINUOUS
  0
LINE
  8
WHITE
 10
190.873255
 20
147.418606
 30
0.000000
 11
183.536411
 21
143.994392
 31
0.000000
  6
CONTINUOUS
  0
ARC
  8
WHITE
 10
184.276961
 20
142.409287
 30
0.000000
 40
1.749563
 50
115.041657
 51
220.418919
  6
CONTINUOUS
  0
ARC
  8
WHITE
 10
253.255457
 20
234.434839
 30
0.000000
 40
116.714756
 50
-127.042909
 51
-121.880495
  6
CONTINUOUS
  0
ARC
  8
WHITE
 10
108.198215
 20
-1.868535
 30
0.000000
 40
160.562748
 50
53.115982
 51
58.700413
  6
CONTINUOUS
  0
ARC
  8
WHITE
 10
202.818899
 20
124.162229
 30
0.000000
 40
2.965971
 50
-2.720497
 51
53.874212
  6
CONTINUOUS
  0
LINE
  8
WHITE
 10
205.781528
 20
124.021453
 30
0.000000
 11
205.593296
 21
120.049208
 31
0.000000
  6
CONTINUOUS
  0
ARC
  8
WHITE
 10
206.860661
 20
119.985715
 30
0.000000
 40
1.268955
 50
177.131948
 51
350.720057
  6
CONTINUOUS
  0
LINE
  8
WHITE
 10
208.113009
 20
119.781085
 30
0.000000
 11
208.764316
 21
123.690203
 31
0.000000
  6
CONTINUOUS
  0
ARC
  8
WHITE
 10
203.978489
 20
124.479938
 30
0.000000
 40
4.850549
 50
-9.370233
 51
43.037899
  6
CONTINUOUS
  0
ARC
  8
WHITE
 10
64.414069
 20
-53.959182
 30
0.000000
 40
231.329371
 50
51.783082
 51
57.270455
  6
CONTINUOUS
  0
ARC
  8
WHITE
 10
190.282748
 20
141.691428
 30
0.000000
 40
1.316069
 50
98.417175
 51
232.845488
  6
CONTINUOUS
  0
LINE
  8
WHITE
 10
190.090103
 20
142.993321
 30
0.000000
 11
197.085299
 21
144.027946
 31
0.000000
  6
CONTINUOUS
  0
ENDSEC
  0
EOF
