  0
SECTION
  2
HEADER
  9
$ACADVER
  1
AC1015
  9
$ACADMAINTVER
 70
    20
  9
$DWGCODEPAGE
  3
ANSI_1252
  9
$INSBASE
 10
0.0
 20
0.0
 30
0.0
  9
$EXTMIN
 10
53.43106904564087
 20
123.0744541422106
 30
0.0
  9
$EXTMAX
 10
593.6730253526733
 20
335.5816976494716
 30
0.0
  9
$LIMMIN
 10
0.0
 20
0.0
  9
$LIMMAX
 10
420.0
 20
297.0
  9
$ORTHOMODE
 70
     0
  9
$REGENMODE
 70
     1
  9
$FILLMODE
 70
     1
  9
$QTEXTMODE
 70
     0
  9
$MIRRTEXT
 70
     1
  9
$LTSCALE
 40
1.0
  9
$ATTMODE
 70
     1
  9
$TEXTSIZE
 40
2.5
  9
$TRACEWID
 40
1.0
  9
$TEXTSTYLE
  7
STANDARD
  9
$CLAYER
  8
0
  9
$CELTYPE
  6
ByLayer
  9
$CECOLOR
 62
   256
  9
$CELTSCALE
 40
1.0
  9
$DISPSILH
 70
     0
  9
$DIMSCALE
 40
1.0
  9
$DIMASZ
 40
2.5
  9
$DIMEXO
 40
1.0
  9
$DIMDLI
 40
10.0
  9
$DIMRND
 40
0.0
  9
$DIMDLE
 40
0.0
  9
$DIMEXE
 40
1.0
  9
$DIMTP
 40
0.1
  9
$DIMTM
 40
0.1
  9
$DIMTXT
 40
3.5
  9
$DIMCEN
 40
0.0
  9
$DIMTSZ
 40
0.0
  9
$DIMTOL
 70
     0
  9
$DIMLIM
 70
     0
  9
$DIMTIH
 70
     0
  9
$DIMTOH
 70
     0
  9
$DIMSE1
 70
     0
  9
$DIMSE2
 70
     0
  9
$DIMTAD
 70
     1
  9
$DIMZIN
 70
     8
  9
$DIMBLK
  1

  9
$DIMASO
 70
     1
  9
$DIMSHO
 70
     1
  9
$DIMPOST
  1

  9
$DIMAPOST
  1
\"
  9
$DIMALT
 70
     0
  9
$DIMALTD
 70
     2
  9
$DIMALTF
 40
0.0393701
  9
$DIMLFAC
 40
1.0
  9
$DIMTOFL
 70
     1
  9
$DIMTVP
 40
0.0
  9
$DIMTIX
 70
     0
  9
$DIMSOXD
 70
     0
  9
$DIMSAH
 70
     0
  9
$DIMBLK1
  1

  9
$DIMBLK2
  1

  9
$DIMSTYLE
  2
AM_ISO
  9
$DIMCLRD
 70
   256
  9
$DIMCLRE
 70
   256
  9
$DIMCLRT
 70
     2
  9
$DIMTFAC
 40
0.71
  9
$DIMGAP
 40
1.5
  9
$DIMJUST
 70
     0
  9
$DIMSD1
 70
     0
  9
$DIMSD2
 70
     0
  9
$DIMTOLJ
 70
     0
  9
$DIMTZIN
 70
     8
  9
$DIMALTZ
 70
     0
  9
$DIMALTTZ
 70
     0
  9
$DIMUPT
 70
     0
  9
$DIMDEC
 70
     2
  9
$DIMTDEC
 70
     3
  9
$DIMALTU
 70
     2
  9
$DIMALTTD
 70
     4
  9
$DIMTXSTY
  7
STANDARD
  9
$DIMAUNIT
 70
     0
  9
$DIMADEC
 70
     0
  9
$DIMALTRND
 40
0.0
  9
$DIMAZIN
 70
     2
  9
$DIMDSEP
 70
    46
  9
$DIMATFIT
 70
     3
  9
$DIMFRAC
 70
     0
  9
$DIMLDRBLK
  1

  9
$DIMLUNIT
 70
     2
  9
$DIMLWD
 70
    -1
  9
$DIMLWE
 70
    -1
  9
$DIMTMOVE
 70
     0
  9
$LUNITS
 70
     2
  9
$LUPREC
 70
     2
  9
$SKETCHINC
 40
1.0
  9
$FILLETRAD
 40
2.5
  9
$AUNITS
 70
     0
  9
$AUPREC
 70
     0
  9
$MENU
  1
.
  9
$ELEVATION
 40
0.0
  9
$PELEVATION
 40
0.0
  9
$THICKNESS
 40
0.0
  9
$LIMCHECK
 70
     0
  9
$CHAMFERA
 40
2.5
  9
$CHAMFERB
 40
2.5
  9
$CHAMFERC
 40
20.0
  9
$CHAMFERD
 40
0.0
  9
$SKPOLY
 70
     0
  9
$TDCREATE
 40
2454225.009879375
  9
$TDUCREATE
 40
2454224.926546042
  9
$TDUPDATE
 40
2454225.012638345
  9
$TDUUPDATE
 40
2454224.929305012
  9
$TDINDWG
 40
0.0031233796
  9
$TDUSRTIMER
 40
0.0027604167
  9
$USRTIMER
 70
     1
  9
$ANGBASE
 50
0.0
  9
$ANGDIR
 70
     0
  9
$PDMODE
 70
     0
  9
$PDSIZE
 40
0.0
  9
$PLINEWID
 40
0.0
  9
$SPLFRAME
 70
     0
  9
$SPLINETYPE
 70
     6
  9
$SPLINESEGS
 70
     8
  9
$HANDSEED
  5
814
  9
$SURFTAB1
 70
     6
  9
$SURFTAB2
 70
     6
  9
$SURFTYPE
 70
     6
  9
$SURFU
 70
     6
  9
$SURFV
 70
     6
  9
$UCSBASE
  2

  9
$UCSNAME
  2

  9
$UCSORG
 10
0.0
 20
0.0
 30
0.0
  9
$UCSXDIR
 10
1.0
 20
0.0
 30
0.0
  9
$UCSYDIR
 10
0.0
 20
1.0
 30
0.0
  9
$UCSORTHOREF
  2

  9
$UCSORTHOVIEW
 70
     0
  9
$UCSORGTOP
 10
0.0
 20
0.0
 30
0.0
  9
$UCSORGBOTTOM
 10
0.0
 20
0.0
 30
0.0
  9
$UCSORGLEFT
 10
0.0
 20
0.0
 30
0.0
  9
$UCSORGRIGHT
 10
0.0
 20
0.0
 30
0.0
  9
$UCSORGFRONT
 10
0.0
 20
0.0
 30
0.0
  9
$UCSORGBACK
 10
0.0
 20
0.0
 30
0.0
  9
$PUCSBASE
  2

  9
$PUCSNAME
  2

  9
$PUCSORG
 10
0.0
 20
0.0
 30
0.0
  9
$PUCSXDIR
 10
1.0
 20
0.0
 30
0.0
  9
$PUCSYDIR
 10
0.0
 20
1.0
 30
0.0
  9
$PUCSORTHOREF
  2

  9
$PUCSORTHOVIEW
 70
     0
  9
$PUCSORGTOP
 10
0.0
 20
0.0
 30
0.0
  9
$PUCSORGBOTTOM
 10
0.0
 20
0.0
 30
0.0
  9
$PUCSORGLEFT
 10
0.0
 20
0.0
 30
0.0
  9
$PUCSORGRIGHT
 10
0.0
 20
0.0
 30
0.0
  9
$PUCSORGFRONT
 10
0.0
 20
0.0
 30
0.0
  9
$PUCSORGBACK
 10
0.0
 20
0.0
 30
0.0
  9
$USERI1
 70
     0
  9
$USERI2
 70
     0
  9
$USERI3
 70
     0
  9
$USERI4
 70
     0
  9
$USERI5
 70
     0
  9
$USERR1
 40
0.0
  9
$USERR2
 40
0.0
  9
$USERR3
 40
0.0
  9
$USERR4
 40
0.0
  9
$USERR5
 40
0.0
  9
$WORLDVIEW
 70
     1
  9
$SHADEDGE
 70
     3
  9
$SHADEDIF
 70
    70
  9
$TILEMODE
 70
     1
  9
$MAXACTVP
 70
    64
  9
$PINSBASE
 10
0.0
 20
0.0
 30
0.0
  9
$PLIMCHECK
 70
     0
  9
$PEXTMIN
 10
1.000000000000000E+20
 20
1.000000000000000E+20
 30
1.000000000000000E+20
  9
$PEXTMAX
 10
-1.000000000000000E+20
 20
-1.000000000000000E+20
 30
-1.000000000000000E+20
  9
$PLIMMIN
 10
0.0
 20
0.0
  9
$PLIMMAX
 10
420.0
 20
297.0
  9
$UNITMODE
 70
     0
  9
$VISRETAIN
 70
     1
  9
$PLINEGEN
 70
     0
  9
$PSLTSCALE
 70
     1
  9
$TREEDEPTH
 70
  3020
  9
$CMLSTYLE
  2
Standard
  9
$CMLJUST
 70
     0
  9
$CMLSCALE
 40
20.0
  9
$PROXYGRAPHICS
 70
     1
  9
$MEASUREMENT
 70
     1
  9
$CELWEIGHT
370
    -1
  9
$ENDCAPS
280
     0
  9
$JOINSTYLE
280
     0
  9
$LWDISPLAY
290
     0
  9
$INSUNITS
 70
     4
  9
$HYPERLINKBASE
  1

  9
$STYLESHEET
  1

  9
$XEDIT
290
     1
  9
$CEPSNTYPE
380
     0
  9
$PSTYLEMODE
290
     1
  9
$FINGERPRINTGUID
  2
{0F3700A0-C480-4E6E-9A4A-552496CBA233}
  9
$VERSIONGUID
  2
{EB2A9E24-0CE7-4939-BF01-6EC4A2C8CB45}
  9
$EXTNAMES
290
     1
  9
$PSVPSCALE
 40
0.0
  9
$OLESTARTUP
290
     0
  0
ENDSEC
  0
SECTION
  2
CLASSES
  0
CLASS
  1
ACDBDICTIONARYWDFLT
  2
AcDbDictionaryWithDefault
  3
ObjectDBX Classes
 90
        0
280
     0
281
     0
  0
CLASS
  1
ACDBPLACEHOLDER
  2
AcDbPlaceHolder
  3
ObjectDBX Classes
 90
        0
280
     0
281
     0
  0
CLASS
  1
LAYOUT
  2
AcDbLayout
  3
ObjectDBX Classes
 90
        0
280
     0
281
     0
  0
CLASS
  1
ACME_DOCUMENT
  2
AcMeDbDoc
  3
AcMeServices
 90
        0
280
     0
281
     0
  0
CLASS
  1
AMGSETTINGSOBJ
  2
AmgSettingsObj
  3
\"AcadM|Product Description: AutoCAD Mechanical|Company: Autodesk\"
 90
        0
280
     0
281
     0
  0
CLASS
  1
ACMESCOPE
  2
AcMeScope
  3
AcMeServices
 90
        0
280
     0
281
     0
  0
CLASS
  1
ACMECOMMANDHISTORY
  2
AcMeCommandHistory
  3
AcMeServices
 90
        0
280
     0
281
     0
  0
CLASS
  1
ACIMSYSVARMAN
  2
AcImSysVarManager
  3
AcMeServices
 90
        0
280
     0
281
     0
  0
CLASS
  1
ACIMREALSYSVAR
  2
AcImRealSysVar
  3
AcMeServices
 90
        0
280
     0
281
     0
  0
CLASS
  1
ACIMINTSYSVAR
  2
AcImIntSysVar
  3
AcMeServices
 90
        0
280
     0
281
     0
  0
CLASS
  1
ACMEDRAWINGMAN
  2
AcMeDrawingMan
  3
AcMeServices
 90
        0
280
     0
281
     0
  0
CLASS
  1
ACMEVIEW
  2
AcMeView
  3
AcMeServices
 90
        0
280
     0
281
     0
  0
CLASS
  1
ACDBENTITYCACHE
  2
AcMeEntityCache
  3
AcMeServices
 90
        0
280
     0
281
     0
  0
CLASS
  1
GSMANAGER
  2
AcMeGSManager
  3
AcMeServices
 90
        0
280
     0
281
     0
  0
CLASS
  1
AMDTINTERNALREACTOR
  2
AmdtInternalReactor
  3
AcMeServices
 90
        0
280
     0
281
     0
  0
CLASS
  1
ACMESTATEMGR
  2
AcMeStateMgr
  3
AcMeServices
 90
        0
280
     0
281
     0
  0
CLASS
  1
ACGREFMASTER
  2
AcGrefMaster
  3
AcAttribServices
 90
        0
280
     0
281
     0
  0
CLASS
  1
ACME_DATABASE
  2
AcMeDbDatabase
  3
AcMeServices
 90
        0
280
     0
281
     0
  0
CLASS
  1
ACRFINSADJUSTERMGR
  2
AcRfInsAdjusterMgr
  3
AcMeServices
 90
        0
280
     0
281
     0
  0
CLASS
  1
ACGREFACADMASTER
  2
AcGrefacadMaster
  3
AcGrefServices
 90
        0
280
     0
281
     0
  0
CLASS
  1
AMIMASTER
  2
AmiMaster
  3
AmiServices
 90
        0
280
     0
281
     0
  0
CLASS
  1
ACMDATADICTIONARY
  2
AcmDataDictionary
  3
\"AcmSymBB|Product Description: AutoCAD Mechanical|Company: Autodesk\"
 90
        0
280
     0
281
     0
  0
CLASS
  1
ACMDATAENTRYBLOCK
  2
AcmDataEntryBlock
  3
\"AcmSymBB|Product Description: AutoCAD Mechanical|Company: Autodesk\"
 90
        0
280
     0
281
     0
  0
CLASS
  1
ACIMSTRSYSVAR
  2
AcImStrSysVar
  3
AcMeServices
 90
        0
280
     0
281
     0
  0
CLASS
  1
ACMSTANDARDISO
  2
AcmStandardISO
  3
\"Amdt_StdImp|Product Description: AutoCAD Mechanical|Company: Autodesk\"
 90
        0
280
     0
281
     0
  0
CLASS
  1
AMGOBJPROPCFG
  2
AmgObjPropCfg
  3
\"AmgLay|Product Description: AutoCAD Mechanical|Company: Autodesk\"
 90
        1
280
     0
281
     0
  0
CLASS
  1
AMDTEDGESTANDARDISO
  2
AmdtEdgeStdISO
  3
\"Amdt_StdImp|Product Description: AutoCAD Mechanical|Company: Autodesk\"
 90
        0
280
     0
281
     0
  0
CLASS
  1
ACMSURFSTANDARDISO
  2
AcmSurfTextStdISO
  3
\"Amdt_StdImp|Product Description: AutoCAD Mechanical|Company: Autodesk\"
 90
        0
280
     0
281
     0
  0
CLASS
  1
ACMFCFSTANDARDISO
  2
AcmFCFStdISO
  3
\"Amdt_StdImp|Product Description: AutoCAD Mechanical|Company: Autodesk\"
 90
        0
280
     0
281
     0
  0
CLASS
  1
ACMWELDSTANDARDISO
  2
AcmWeldingStdISO
  3
\"Amdt_StdImp|Product Description: AutoCAD Mechanical|Company: Autodesk\"
 90
        0
280
     0
281
     0
  0
CLASS
  1
ACMIDSTANDARDISO
  2
AcmIdStdISO
  3
\"Amdt_StdImp|Product Description: AutoCAD Mechanical|Company: Autodesk\"
 90
        0
280
     0
281
     0
  0
CLASS
  1
ACMDATUMSTANDARDISO
  2
AcmDatumStdISO
  3
\"Amdt_StdImp|Product Description: AutoCAD Mechanical|Company: Autodesk\"
 90
        0
280
     0
281
     0
  0
CLASS
  1
ACMBOMSTANDARDISO
  2
AcmBOMStdISO
  3
\"Amdt_StdImp|Product Description: AutoCAD Mechanical|Company: Autodesk\"
 90
        0
280
     0
281
     0
  0
CLASS
  1
ACMDETAILSTANDARDISO
  2
AmdtDetailSymStdISO
  3
\"Amdt_StdImp|Product Description: AutoCAD Mechanical|Company: Autodesk\"
 90
        0
280
     0
281
     0
  0
CLASS
  1
ACMSECTIONSTANDARDISO
  2
AmdtSectionSymStdISO
  3
\"Amdt_StdImp|Product Description: AutoCAD Mechanical|Company: Autodesk\"
 90
        0
280
     0
281
     0
  0
CLASS
  1
ACMCENTERLINESTANDARDISO
  2
AmdtCenterLineStdISO
  3
\"Amdt_StdImp|Product Description: AutoCAD Mechanical|Company: Autodesk\"
 90
        0
280
     0
281
     0
  0
CLASS
  1
ACMNOTESTANDARDISO
  2
AmdtNoteStdISO
  3
\"Amdt_StdImp|Product Description: AutoCAD Mechanical|Company: Autodesk\"
 90
        0
280
     0
281
     0
  0
CLASS
  1
ACAMGLAYSTD
  2
AcAmgLayStd
  3
\"AmgLay|Product Description: AutoCAD Mechanical|Company: Autodesk\"
 90
        0
280
     0
281
     0
  0
CLASS
  1
ACAMGDIMSTD
  2
AcAmgDimStd
  3
\"AmgDim|Product Description: AutoCAD Mechanical|Company: Autodesk\"
 90
        0
280
     0
281
     0
  0
CLASS
  1
ACAMGHOLECHARTSTDISO
  2
AcAmgHoleChartStdISO
  3
ACMSYMBB_MODULE_NAME
 90
        0
280
     0
281
     0
  0
CLASS
  1
ACAMGTITLESTD
  2
AcAmgTitleStd
  3
\"AmgTitle|Product Description: AutoCAD Mechanical|Company: Autodesk\"
 90
        0
280
     0
281
     0
  0
CLASS
  1
LAYER_INDEX
  2
AcDbLayerIndex
  3
ObjectDBX Classes
 90
    32768
280
     0
281
     0
  0
CLASS
  1
IDBUFFER
  2
AcDbIdBuffer
  3
ObjectDBX Classes
 90
    32768
280
     0
281
     0
  0
CLASS
  1
DICTIONARYVAR
  2
AcDbDictionaryVar
  3
ObjectDBX Classes
 90
        0
280
     0
281
     0
  0
CLASS
  1
AM_DRAWING_MGR
  2
AcDmDwgMgr
  3
AcMechDwgViewMgmt
 90
        0
280
     0
281
     0
  0
CLASS
  1
AM_DWG_DOCUMENT
  2
AcDmDwgDocument
  3
AcMechDwgViewMgmt
 90
        0
280
     0
281
     0
  0
CLASS
  1
AM_DWG_SHEET
  2
AcDmSheet
  3
AcMechDwgViewMgmt
 90
        0
280
     0
281
     0
  0
CLASS
  1
AM_VIEWDIMPARMAP
  2
AcDmViewDimParMap
  3
AcMechDwgViewMgmt
 90
        0
280
     0
281
     0
  0
CLASS
  1
AM_DWGMGR_NAME
  2
AcDmDwgMgrName
  3
AcMechDwgViewMgmt
 90
        0
280
     0
281
     0
  0
CLASS
  1
AMDTMENUSTATEMGR
  2
AmdtMenuStateMgr
  3
McadcomServices
 90
        0
280
     0
281
     0
  0
CLASS
  1
AMDTMCOMMENUSTATE
  2
AmdtMcomMenuState
  3
McadcomServices
 90
        0
280
     0
281
     0
  0
CLASS
  1
MAPIAMMOUDLE
  2
MApiAmModule
  3
MApiAmServices
 90
        0
280
     0
281
     0
  0
CLASS
  1
AMDTADMENUSTATE
  2
AmdtAdMenuState
  3
DesignerServices
 90
        0
280
     0
281
     0
  0
CLASS
  1
ADAPPL
  2
AcAdAppl
  3
DesignerServices
 90
        0
280
     0
281
     0
  0
CLASS
  1
DEPMGR
  2
AcAdDepMgr
  3
DesignerServices
 90
        0
280
     0
281
     0
  0
CLASS
  1
PARAMMGR
  2
AcAdParamMgr
  3
DesignerServices
 90
        0
280
     0
281
     0
  0
CLASS
  1
PARAMSCOPE
  2
AcAdParamScope
  3
DesignerServices
 90
        0
280
     0
281
     0
  0
CLASS
  1
NAMEDAPPL
  2
AcAdNamedAppl
  3
DesignerServices
 90
        0
280
     0
281
     0
  0
CLASS
  1
AMDTDMMENUSTATE
  2
AmdtDmMenuState
  3
AcMechDwgViewMgmt
 90
        0
280
     0
281
     0
  0
CLASS
  1
AMDTAMMENUSTATE
  2
AmdtAmMenuState
  3
DesignerAssemblies
 90
        0
280
     0
281
     0
  0
CLASS
  1
ACAMPROJECT
  2
AcAmProject
  3
DesignerAssemblies
 90
        0
280
     0
281
     0
  0
CLASS
  1
ACAMGRCOMPDEF
  2
AcAmGrCompDef
  3
DesignerAssemblies
 90
        0
280
     0
281
     0
  0
CLASS
  1
ACCMCONTEXT
  2
AcCmContext
  3
DesignerAssemblies
 90
        0
280
     0
281
     0
  0
CLASS
  1
ACAMCOMPDEF
  2
AcAmCompDef
  3
DesignerAssemblies
 90
        0
280
     0
281
     0
  0
CLASS
  1
ACAMCOMPDEFMGR
  2
AcAmCompDefMgr
  3
DesignerAssemblies
 90
        0
280
     0
281
     0
  0
CLASS
  1
AMCONTEXTMGR
  2
AcAmContextMgr
  3
DesignerAssemblies
 90
        0
280
     0
281
     0
  0
CLASS
  1
ACAMCONTEXTMODELER
  2
AcAmContextModeler
  3
DesignerAssemblies
 90
        0
280
     0
281
     0
  0
CLASS
  1
ACMTHREADLINESTANDARDISO
  2
AmdtThreadLineStdISO
  3
\"Amdt_StdImp|Product Description: AutoCAD Mechanical|Company: Autodesk\"
 90
        0
280
     0
281
     0
  0
CLASS
  1
CATALOGSTATE
  2
AcAmCatalogState
  3
DesignerAssemblies
 90
        0
280
     0
281
     0
  0
CLASS
  1
ACAMGRCOMPDEFSET
  2
AcAmGrCompDefSet
  3
DesignerAssemblies
 90
        0
280
     0
281
     0
  0
CLASS
  1
AMDTBROWSERDBTAB
  2
AmdtBrowserDbTab
  3
McadcomServices
 90
        0
280
     0
281
     0
  0
CLASS
  1
CBROWSERAPPOBJECT
  2
CBrowserAppObject
  3
McadcomServices
 90
        0
280
     0
281
     0
  0
CLASS
  1
DM_PLACEHOLDER
  2
AcDmSelsetPlaceholder
  3
AcMechDwgViewMgmt
 90
        0
280
     0
281
     0
  0
CLASS
  1
TABLESTYLE
  2
AcDbTableStyle
  3
ObjectDBX Classes
 90
     4095
280
     0
281
     0
  0
CLASS
  1
VAACXREFPANELOBJECT
  2
VaAcXREFPanelObject
  3
VAAC_ADDIN
 90
    32768
280
     0
281
     0
  0
CLASS
  1
VAACIMAGEINVENTORY
  2
VaAcImageInventory
  3
VAAC_ADDIN
 90
    32768
280
     0
281
     0
  0
CLASS
  1
AMDTNOTETEMPLATEDB
  2
AmdtNoteTemplateDB
  3
AMDT_STDIMP_MODULE_NAME
 90
        0
280
     0
281
     0
  0
CLASS
  1
MATERIAL
  2
AcDbMaterial
  3
ObjectDBX Classes
 90
     1024
280
     0
281
     0
  0
CLASS
  1
VISUALSTYLE
  2
AcDbVisualStyle
  3
ObjectDBX Classes
 90
     4095
280
     0
281
     0
  0
CLASS
  1
ACRFATTGENMGR
  2
AcRfAttGeneralMgr
  3
AcAttribServices
 90
        0
280
     0
281
     0
  0
CLASS
  1
ACRFOBJATTMGR
  2
AcRfObjAttGroupMgr
  3
AcAttribServices
 90
        0
280
     0
281
     0
  0
CLASS
  1
ACRFMCADAPIATTHOLDER
  2
AcRfMCADAPIAttHolder
  3
AcAttribServices
 90
        0
280
     0
281
     0
  0
CLASS
  1
AMDTSYSATTR
  2
AmdtSystemAttribute
  3
AcAttribServices
 90
        0
280
     0
281
     0
  0
CLASS
  1
ACMTAPERSTANDARDISO
  2
AcmTaperStdISO
  3
\"Amdt_StdImp|Product Description: AutoCAD Mechanical|Company: Autodesk\"
 90
        0
280
     0
281
     0
  0
CLASS
  1
CAMSSTRUCTBTNSTATE
  2
StructBtnState
  3
L\"DesignerAssemblies\"
 90
        0
280
     0
281
     0
  0
CLASS
  1
ACAMGFILTERDAT
  2
AcAmgFilterDat
  3
\"AcadM|Product Description: AutoCAD Mechanical|Company: Autodesk\"
 90
        0
280
     0
281
     0
  0
CLASS
  1
ACMBOM
  2
AcmBom
  3
\"AcmSymBB|Product Description: AutoCAD Mechanical|Company: Autodesk\"
 90
    32768
280
     0
281
     0
  0
CLASS
  1
AMDTFORMULAUPDATEDISPATCHER
  2
AmdtFormulaUpdateDispatcher
  3
AcMeServices
 90
    32768
280
     0
281
     0
  0
CLASS
  1
ACMSTANDARDANSI
  2
AcmStandardANSI
  3
\"Amdt_StdImp|Product Description: AutoCAD Mechanical|Company: Autodesk\"
 90
        0
280
     0
281
     0
  0
CLASS
  1
ACMSURFSTANDARDANSI
  2
AcmSurfTextStdANSI
  3
\"Amdt_StdImp|Product Description: AutoCAD Mechanical|Company: Autodesk\"
 90
        0
280
     0
281
     0
  0
CLASS
  1
ACMFCFSTANDARDANSI
  2
AcmFCFStdANSI
  3
\"Amdt_StdImp|Product Description: AutoCAD Mechanical|Company: Autodesk\"
 90
        0
280
     0
281
     0
  0
CLASS
  1
ACMWELDSTANDARDANSI
  2
AcmWeldingStdANSI
  3
\"Amdt_StdImp|Product Description: AutoCAD Mechanical|Company: Autodesk\"
 90
        0
280
     0
281
     0
  0
CLASS
  1
ACMIDSTANDARDANSI
  2
AcmIdStdANSI
  3
\"Amdt_StdImp|Product Description: AutoCAD Mechanical|Company: Autodesk\"
 90
        0
280
     0
281
     0
  0
CLASS
  1
ACMDATUMSTANDARDANSI
  2
AcmDatumStdANSI
  3
\"Amdt_StdImp|Product Description: AutoCAD Mechanical|Company: Autodesk\"
 90
        0
280
     0
281
     0
  0
CLASS
  1
ACMBOMSTANDARDANSI
  2
AcmBOMStdANSI
  3
\"Amdt_StdImp|Product Description: AutoCAD Mechanical|Company: Autodesk\"
 90
        0
280
     0
281
     0
  0
CLASS
  1
ACMDETAILSTANDARDANSI
  2
AmdtDetailSymStdANSI
  3
\"Amdt_StdImp|Product Description: AutoCAD Mechanical|Company: Autodesk\"
 90
        0
280
     0
281
     0
  0
CLASS
  1
ACMSECTIONSTANDARDANSI
  2
AmdtSectionSymStdANSI
  3
\"Amdt_StdImp|Product Description: AutoCAD Mechanical|Company: Autodesk\"
 90
        0
280
     0
281
     0
  0
CLASS
  1
ACMCENTERLINESTANDARDANSI
  2
AmdtCenterLineStdANSI
  3
\"Amdt_StdImp|Product Description: AutoCAD Mechanical|Company: Autodesk\"
 90
        0
280
     0
281
     0
  0
CLASS
  1
ACMTHREADLINESTANDARDANSI
  2
AmdtThreadLineStdANSI
  3
\"Amdt_StdImp|Product Description: AutoCAD Mechanical|Company: Autodesk\"
 90
        0
280
     0
281
     0
  0
CLASS
  1
ACMNOTESTANDARDANSI
  2
AmdtNoteStdANSI
  3
\"Amdt_StdImp|Product Description: AutoCAD Mechanical|Company: Autodesk\"
 90
        0
280
     0
281
     0
  0
CLASS
  1
ACMTAPERSTANDARDANSI
  2
AcmTaperStdANSI
  3
\"Amdt_StdImp|Product Description: AutoCAD Mechanical|Company: Autodesk\"
 90
        0
280
     0
281
     0
  0
CLASS
  1
ACAMGHOLECHARTSTDANSI
  2
AcAmgHoleChartStdANSI
  3
ACMSYMBB_MODULE_NAME
 90
        0
280
     0
281
     0
  0
ENDSEC
  0
SECTION
  2
TABLES
  0
TABLE
  2
VPORT
  5
8
330
0
100
AcDbSymbolTable
 70
     1
  0
VPORT
  5
269
330
8
100
AcDbSymbolTableRecord
100
AcDbViewportTableRecord
  2
*Active
 70
     0
 10
0.0
 20
0.0
 11
1.0
 21
1.0
 12
183.0435499787071
 22
73.88379268399944
 13
0.0
 23
0.0
 14
2.5
 24
2.5
 15
10.0
 25
10.0
 16
0.0
 26
0.0
 36
1.0
 17
0.0
 27
0.0
 37
0.0
 40
702.7237328065329
 41
1.75591985428051
 42
50.0
 43
0.0
 44
0.0
 50
0.0
 51
0.0
 71
     0
 72
   100
 73
     1
 74
     3
 75
     0
 76
     0
 77
     0
 78
     0
281
     0
 65
     1
110
0.0
120
0.0
130
0.0
111
1.0
121
0.0
131
0.0
112
0.0
122
1.0
132
0.0
 79
     0
146
0.0
  0
ENDTAB
  0
TABLE
  2
LTYPE
  5
5
330
0
100
AcDbSymbolTable
 70
    19
  0
LTYPE
  5
14
330
5
100
AcDbSymbolTableRecord
100
AcDbLinetypeTableRecord
  2
ByBlock
 70
     0
  3

 72
    65
 73
     0
 40
0.0
  0
LTYPE
  5
15
330
5
100
AcDbSymbolTableRecord
100
AcDbLinetypeTableRecord
  2
ByLayer
 70
     0
  3

 72
    65
 73
     0
 40
0.0
  0
LTYPE
  5
16
330
5
100
AcDbSymbolTableRecord
100
AcDbLinetypeTableRecord
  2
Continuous
 70
     0
  3
Solid line
 72
    65
 73
     0
 40
0.0
  0
LTYPE
  5
64
330
5
100
AcDbSymbolTableRecord
100
AcDbLinetypeTableRecord
  2
AM_ISO02W050
 70
     0
  3
__ __ __ __ __ __ __ __ __ __ __ __ __ __ __
 72
    65
 73
     2
 40
7.5
 49
6.0
 74
     0
 49
-1.5
 74
     0
  0
LTYPE
  5
65
330
5
100
AcDbSymbolTableRecord
100
AcDbLinetypeTableRecord
  2
AM_ISO08W050
 70
     0
  3
____ . ____ . ____ . ____ . ____ . ____ . ____
 72
    65
 73
     4
 40
18.0
 49
12.0
 74
     0
 49
-1.5
 74
     0
 49
3.0
 74
     0
 49
-1.5
 74
     0
  0
LTYPE
  5
66
330
5
100
AcDbSymbolTableRecord
100
AcDbLinetypeTableRecord
  2
AM_ISO09W050
 70
     0
  3
_____ . . _____ . . _____ . . ____ .. ____
 72
    65
 73
     6
 40
22.5
 49
12.0
 74
     0
 49
-1.5
 74
     0
 49
3.0
 74
     0
 49
-1.5
 74
     0
 49
3.0
 74
     0
 49
-1.5
 74
     0
  0
LTYPE
  5
67
330
5
100
AcDbSymbolTableRecord
100
AcDbLinetypeTableRecord
  2
Amconstr
 70
     0
  3
_______________________
 72
    65
 73
     2
 40
9999.0
 49
9999.0
 74
     0
 49
0.0
 74
     0
  0
LTYPE
  5
68
330
5
100
AcDbSymbolTableRecord
100
AcDbLinetypeTableRecord
  2
AM_ISO08W050x2
 70
     0
  3
__ . __ . __ . __ . __ . __
 72
    65
 73
     4
 40
9.0
 49
6.0
 74
     0
 49
-0.75
 74
     0
 49
1.5
 74
     0
 49
-0.75
 74
     0
  0
LTYPE
  5
69
330
5
100
AcDbSymbolTableRecord
100
AcDbLinetypeTableRecord
  2
AM_ISO02W050x2
 70
     0
  3
 _ _ _ _ _ _ _ _ _ _ _ _
 72
    65
 73
     2
 40
3.75
 49
3.0
 74
     0
 49
-0.75
 74
     0
  0
LTYPE
  5
6C
330
5
100
AcDbSymbolTableRecord
100
AcDbLinetypeTableRecord
  2
Amzigzag
 70
     0
  3
/\\/-/\\/-/\\/-/\\/-/\\/-/\\/
 72
    65
 73
     2
 40
11.0001
 49
0.0001
 74
     4
 75
   136
340
22C
 46
0.04
 50
0.0
 44
0.0
 45
0.0
 49
-11.0
 74
     0
  0
LTYPE
  5
7A
330
5
100
AcDbSymbolTableRecord
100
AcDbLinetypeTableRecord
  2
ACISOWELD
 70
     0
  3
_ _ _ _ _
 72
    65
 73
     2
 40
2.0
 49
2.0
 74
     0
 49
-1.0
 74
     0
  0
LTYPE
  5
7B
330
5
100
AcDbSymbolTableRecord
100
AcDbLinetypeTableRecord
  2
ACISOTGB
 70
     0
  3
__ . . __ . .
 72
    65
 73
     6
 40
9.0
 49
4.0
 74
     0
 49
-1.0
 74
     0
 49
1.0
 74
     0
 49
-1.0
 74
     0
 49
1.0
 74
     0
 49
-1.0
 74
     0
  0
LTYPE
  5
7C
330
5
100
AcDbSymbolTableRecord
100
AcDbLinetypeTableRecord
  2
ACISOTGL
 70
     0
  3
_ _ _ _ _
 72
    65
 73
     2
 40
3.0
 49
2.0
 74
     0
 49
-1.0
 74
     0
  0
LTYPE
  5
7E
330
5
100
AcDbSymbolTableRecord
100
AcDbLinetypeTableRecord
  2
CENTER
 70
     0
  3
__ . __
 72
    65
 73
     4
 40
7.0
 49
4.0
 74
     0
 49
-1.0
 74
     0
 49
1.0
 74
     0
 49
-1.0
 74
     0
  0
LTYPE
  5
D8
330
5
100
AcDbSymbolTableRecord
100
AcDbLinetypeTableRecord
  2
HIDDEN
 70
     0
  3
Hidden __ __ __ __ __ __ __ __ __ __ __ __ __ _
 72
    65
 73
     2
 40
9.524999999999998
 49
6.349999999999999
 74
     0
 49
-3.174999999999999
 74
     0
  0
LTYPE
  5
D9
330
5
100
AcDbSymbolTableRecord
100
AcDbLinetypeTableRecord
  2
PHANTOM2
 70
     0
  3
Phantom (.5x) ___ _ _ ___ _ _ ___ _ _ ___ _ _
 72
    65
 73
     6
 40
31.75
 49
15.875
 74
     0
 49
-3.174999999999999
 74
     0
 49
3.174999999999999
 74
     0
 49
-3.174999999999999
 74
     0
 49
3.174999999999999
 74
     0
 49
-3.174999999999999
 74
     0
  0
LTYPE
  5
38E
330
5
100
AcDbSymbolTableRecord
100
AcDbLinetypeTableRecord
  2
CENTER2
 70
     0
  3
Center (.5x) ___ _ ___ _ ___ _ ___ _ ___ _ ___
 72
    65
 73
     4
 40
1.125
 49
0.75
 74
     0
 49
-0.125
 74
     0
 49
0.125
 74
     0
 49
-0.125
 74
     0
  0
LTYPE
  5
38F
330
5
100
AcDbSymbolTableRecord
100
AcDbLinetypeTableRecord
  2
HIDDEN2
 70
     0
  3
Hidden (.5x) _ _ _ _ _ _ _ _ _ _ _ _ _ _ _ _ _
 72
    65
 73
     2
 40
0.1875
 49
0.125
 74
     0
 49
-0.0625
 74
     0
  0
LTYPE
  5
390
330
5
100
AcDbSymbolTableRecord
100
AcDbLinetypeTableRecord
  2
Amzigzag2
 70
     0
  3
/\\/-/\\/-/\\/-/\\/-/\\/-/\\/
 72
    65
 73
     2
 40
0.4401
 49
0.0001
 74
     4
 75
   136
340
22C
 46
0.0016
 50
0.0
 44
0.0
 45
0.0
 49
-0.4400000000000001
 74
     0
  0
LTYPE
  5
391
330
5
100
AcDbSymbolTableRecord
100
AcDbLinetypeTableRecord
  2
ACANSTGB
 70
     0
  3
__ . . __ . .
 72
    65
 73
     6
 40
0.35433070866
 49
0.15748031496
 74
     0
 49
-0.03937007874
 74
     0
 49
0.03937007874
 74
     0
 49
-0.03937007874
 74
     0
 49
0.03937007874
 74
     0
 49
-0.03937007874
 74
     0
  0
LTYPE
  5
392
330
5
100
AcDbSymbolTableRecord
100
AcDbLinetypeTableRecord
  2
ACANSTGL
 70
     0
  3
_ _ _ _ _
 72
    65
 73
     2
 40
0.11811023622
 49
0.07874015748
 74
     0
 49
-0.03937007874
 74
     0
  0
ENDTAB
  0
TABLE
  2
LAYER
  5
2
330
0
100
AcDbSymbolTable
 70
     2
  0
LAYER
  5
10
330
2
100
AcDbSymbolTableRecord
100
AcDbLayerTableRecord
  2
0
 70
     0
 62
     7
  6
Continuous
370
    -3
390
F
  0
LAYER
  5
393
330
2
100
AcDbSymbolTableRecord
100
AcDbLayerTableRecord
  2
VOLL50
 70
     0
 62
     4
  6
Continuous
370
    -3
390
F
  0
ENDTAB
  0
TABLE
  2
STYLE
  5
3
330
0
100
AcDbSymbolTable
 70
    11
  0
STYLE
  5
11
330
3
100
AcDbSymbolTableRecord
100
AcDbTextStyleTableRecord
  2
STANDARD
 70
     0
 40
0.0
 41
1.0
 50
0.0
 71
     0
 42
2.5
  3
ISOCP.SHX
  4

  0
STYLE
  5
6B
330
3
100
AcDbSymbolTableRecord
100
AcDbTextStyleTableRecord
  2

 70
     1
 40
0.0
 41
1.0
 50
0.0
 71
     0
 42
2.5
  3
ltypeshp.shx
  4

  0
STYLE
  5
6D
330
3
100
AcDbSymbolTableRecord
100
AcDbTextStyleTableRecord
  2
ACISOTS
 70
     0
 40
1.0
 41
1.0
 50
0.0
 71
     0
 42
2.5
  3
isocp.shx
  4

  0
STYLE
  5
79
330
3
100
AcDbSymbolTableRecord
100
AcDbTextStyleTableRecord
  2
ACISOGDT
 70
     0
 40
0.0
 41
1.0
 50
0.0
 71
     0
 42
2.5
  3
amgdt.shx
  4

  0
STYLE
  5
1ED
330
3
100
AcDbSymbolTableRecord
100
AcDbTextStyleTableRecord
  2
USER1
 70
     0
 40
0.0
 41
1.0
 50
0.0
 71
     0
 42
2.5
  3
TXT.SHX
  4

  0
STYLE
  5
1EE
330
3
100
AcDbSymbolTableRecord
100
AcDbTextStyleTableRecord
  2
USER2
 70
     0
 40
0.0
 41
1.0
 50
0.0
 71
     0
 42
2.5
  3
SIMPLEX.SHX
  4

  0
STYLE
  5
1EF
330
3
100
AcDbSymbolTableRecord
100
AcDbTextStyleTableRecord
  2
USER3
 70
     0
 40
0.0
 41
1.0
 50
0.0
 71
     0
 42
2.5
  3
ITALIC.SHX
  4

  0
STYLE
  5
22C
330
3
100
AcDbSymbolTableRecord
100
AcDbTextStyleTableRecord
  2

 70
     1
 40
0.0
 41
1.0
 50
0.0
 71
     0
 42
2.5
  3
genltshp.shx
  4

  0
STYLE
  5
394
330
3
100
AcDbSymbolTableRecord
100
AcDbTextStyleTableRecord
  2
ARIAL
 70
     0
 40
0.0
 41
1.0
 50
0.0
 71
     0
 42
7.0
  3
txt
  4

  0
STYLE
  5
395
330
3
100
AcDbSymbolTableRecord
100
AcDbTextStyleTableRecord
  2
ACANSTS
 70
     0
 40
1.0
 41
1.0
 50
0.0
 71
     0
 42
3.5
  3
romans.shx
  4

  0
STYLE
  5
396
330
3
100
AcDbSymbolTableRecord
100
AcDbTextStyleTableRecord
  2
ACANSGDT
 70
     0
 40
0.0
 41
1.0
 50
0.0
 71
     0
 42
3.5
  3
amgdt.shx
  4

  0
ENDTAB
  0
TABLE
  2
VIEW
  5
6
330
0
100
AcDbSymbolTable
 70
     0
  0
ENDTAB
  0
TABLE
  2
UCS
  5
7
330
0
100
AcDbSymbolTable
 70
     0
  0
ENDTAB
  0
TABLE
  2
APPID
  5
9
330
0
100
AcDbSymbolTable
 70
    10
  0
APPID
  5
12
330
9
100
AcDbSymbolTableRecord
100
AcDbRegAppTableRecord
  2
ACAD
 70
     0
  0
APPID
  5
46
330
9
100
AcDbSymbolTableRecord
100
AcDbRegAppTableRecord
  2
MCAD_NO_VIS
 70
     0
  0
APPID
  5
47
330
9
100
AcDbSymbolTableRecord
100
AcDbRegAppTableRecord
  2
ACAD_TEMP_GRAPHIC
 70
     0
  0
APPID
  5
58
330
9
100
AcDbSymbolTableRecord
100
AcDbRegAppTableRecord
  2
ACATTRIBSERVICES
 70
     0
  0
APPID
  5
EE
330
9
100
AcDbSymbolTableRecord
100
AcDbRegAppTableRecord
  2
AD_DRAW
 70
     0
  0
APPID
  5
10C
330
9
100
AcDbSymbolTableRecord
100
AcDbRegAppTableRecord
  2
DESIGNERASSEMBLIES
 70
     0
  0
APPID
  5
111
330
9
100
AcDbSymbolTableRecord
100
AcDbRegAppTableRecord
  2
ACADM_DIM_EDIT
 70
     0
  0
APPID
  5
112
330
9
100
AcDbSymbolTableRecord
100
AcDbRegAppTableRecord
  2
AMDT_DM_ADJ
 70
     0
  0
APPID
  5
1A3
330
9
100
AcDbSymbolTableRecord
100
AcDbRegAppTableRecord
  2
ACAD_DSTYLE_DIMARC_LENGTH_SYMBOL
 70
     0
  0
APPID
  5
1A4
330
9
100
AcDbSymbolTableRecord
100
AcDbRegAppTableRecord
  2
ACAD_DSTYLE_DIMJOGGED_JOGANGLE_SYMBOL
 70
     0
  0
ENDTAB
  0
TABLE
  2
DIMSTYLE
  5
A
330
0
100
AcDbSymbolTable
 70
    15
100
AcDbDimStyleTable
 71
     1
340
81
  0
DIMSTYLE
105
27
330
A
100
AcDbSymbolTableRecord
100
AcDbDimStyleTableRecord
  2
ISO-25
 70
     0
 41
2.5
 42
0.625
 43
3.75
 44
1.25
 73
     0
 74
     0
 77
     1
 78
     8
140
2.5
141
2.5
143
0.03937007874016
147
0.625
171
     3
172
     1
271
     2
272
     2
274
     3
278
    44
283
     0
284
     8
340
11
  0
DIMSTYLE
105
81
330
A
100
AcDbSymbolTableRecord
100
AcDbDimStyleTableRecord
  2
AM_ISO
 70
     0
  4
\"
 41
2.5
 42
1.0
 43
10.0
 44
1.0
 47
0.1
 48
0.1
 73
     0
 74
     0
 77
     1
 78
     8
 79
     2
140
3.5
141
0.0
143
0.0393701
146
0.71
147
1.5
172
     1
176
   256
177
   256
178
     2
271
     2
272
     3
274
     4
283
     0
284
     8
340
11
371
    -1
372
    -1
1001
ACAD_DSTYLE_DIMJOGGED_JOGANGLE_SYMBOL
1070
   384
1040
0.7853981633974483
1001
ACAD_DSTYLE_DIMARC_LENGTH_SYMBOL
1070
   379
1070
     1
  0
DIMSTYLE
105
82
330
A
100
AcDbSymbolTableRecord
100
AcDbDimStyleTableRecord
  2
AM_ISO$3
 70
     0
  4
\"
 41
2.5
 42
1.0
 43
10.0
 44
1.0
 47
0.1
 48
0.1
 73
     0
 77
     1
 78
     8
 79
     2
140
3.5
141
0.0
143
0.0393701
146
0.71
147
1.5
176
   256
177
   256
178
     2
271
     2
272
     3
274
     4
283
     0
284
     8
288
     1
289
     0
340
11
371
    -1
372
    -1
1001
ACAD_DSTYLE_DIMJOGGED_JOGANGLE_SYMBOL
1070
   384
1040
0.7853981633974483
1001
ACAD_DSTYLE_DIMARC_LENGTH_SYMBOL
1070
   379
1070
     1
  0
DIMSTYLE
105
83
330
A
100
AcDbSymbolTableRecord
100
AcDbDimStyleTableRecord
  2
AM_ISO$4
 70
     0
  4
\"
 41
2.5
 42
1.0
 43
10.0
 44
1.0
 47
0.1
 48
0.1
 73
     0
 77
     1
 78
     8
 79
     2
140
3.5
141
0.0
143
0.0393701
146
0.71
147
1.5
176
   256
177
   256
178
     2
271
     2
272
     3
274
     4
283
     0
284
     8
288
     1
289
     0
340
11
371
    -1
372
    -1
1001
ACAD_DSTYLE_DIMJOGGED_JOGANGLE_SYMBOL
1070
   384
1040
0.7853981633974483
1001
ACAD_DSTYLE_DIMARC_LENGTH_SYMBOL
1070
   379
1070
     1
  0
DIMSTYLE
105
84
330
A
100
AcDbSymbolTableRecord
100
AcDbDimStyleTableRecord
  2
AM_ISO$6
 70
     0
  4
\"
 41
2.5
 42
1.0
 43
10.0
 44
1.0
 47
0.1
 48
0.1
 73
     0
 74
     0
 78
     8
 79
     2
140
3.5
141
0.0
143
0.0393701
146
0.71
147
1.5
172
     1
176
   256
177
   256
178
     2
271
     2
272
     3
274
     4
283
     0
284
     8
340
11
371
    -1
372
    -1
1001
ACAD_DSTYLE_DIMJOGGED_JOGANGLE_SYMBOL
1070
   384
1040
0.7853981633974483
1001
ACAD_DSTYLE_DIMARC_LENGTH_SYMBOL
1070
   379
1070
     1
  0
DIMSTYLE
105
85
330
A
100
AcDbSymbolTableRecord
100
AcDbDimStyleTableRecord
  2
AM_ISO$7
 70
     0
  4
\"
 41
2.5
 42
1.0
 43
10.0
 44
1.0
 47
0.1
 48
0.1
 73
     0
 74
     0
 77
     1
 78
     8
 79
     2
140
5.0
141
0.0
143
0.0393701
146
0.71
147
1.5
172
     1
176
   256
177
   256
178
     2
271
     2
272
     3
274
     4
283
     0
284
     8
340
11
371
    -1
372
    -1
1001
ACAD_DSTYLE_DIMJOGGED_JOGANGLE_SYMBOL
1070
   384
1040
0.7853981633974483
1001
ACAD_DSTYLE_DIMARC_LENGTH_SYMBOL
1070
   379
1070
     1
  0
DIMSTYLE
105
86
330
A
100
AcDbSymbolTableRecord
100
AcDbDimStyleTableRecord
  2
AM_ISO$SF
 70
     0
  4
\"
 41
2.5
 42
1.0
 43
10.0
 44
1.0
 47
0.1
 48
0.1
 73
     0
 74
     0
 75
     1
 76
     1
 77
     1
 78
     8
 79
     2
140
3.5
141
0.0
143
0.0393701
146
0.71
147
1.5
172
     1
176
   256
177
   256
178
     2
271
     2
272
     3
274
     4
283
     0
284
     8
340
11
371
    -1
372
    -1
1001
ACAD_DSTYLE_DIMJOGGED_JOGANGLE_SYMBOL
1070
   384
1040
0.7853981633974483
1001
ACAD_DSTYLE_DIMARC_LENGTH_SYMBOL
1070
   379
1070
     1
  0
DIMSTYLE
105
8B
330
A
100
AcDbSymbolTableRecord
100
AcDbDimStyleTableRecord
  2
AM_ISO$SH
 70
     0
  4
\"
 41
2.5
 42
1.0
 43
10.0
 44
1.0
 47
0.1
 48
0.1
 73
     0
 74
     0
 75
     1
 76
     1
 77
     1
 78
     8
 79
     2
140
3.5
141
0.0
143
0.0393701
144
2.0
146
0.71
147
1.5
172
     1
173
     1
176
   256
177
   256
178
     2
271
     2
272
     3
274
     4
283
     0
284
     8
340
11
343
87
371
    -1
372
    -1
1001
ACAD_DSTYLE_DIMJOGGED_JOGANGLE_SYMBOL
1070
   384
1040
0.7853981633974483
1001
ACAD_DSTYLE_DIMARC_LENGTH_SYMBOL
1070
   379
1070
     1
  0
DIMSTYLE
105
397
330
A
100
AcDbSymbolTableRecord
100
AcDbDimStyleTableRecord
  2
STANDARD
 70
     0
271
     2
272
     2
279
     2
284
     8
285
     8
286
     8
340
394
  0
DIMSTYLE
105
398
330
A
100
AcDbSymbolTableRecord
100
AcDbDimStyleTableRecord
  2
AM_ANSI
 70
     0
  4
mm
 41
0.1
 42
0.05
 43
0.5
 44
0.1
 47
0.1
 48
0.1
 78
     7
 79
     2
140
0.12
141
0.0
146
0.71
147
0.06
176
   256
177
   256
178
     2
274
     4
284
     7
340
11
371
    -1
372
    -1
1001
ACAD_DSTYLE_DIMARC_LENGTH_SYMBOL
1070
   379
1070
     1
  0
DIMSTYLE
105
399
330
A
100
AcDbSymbolTableRecord
100
AcDbDimStyleTableRecord
  2
AM_ANSI$3
 70
     0
  4
mm
 41
0.1
 42
0.05
 43
0.5
 44
0.1
 47
0.1
 48
0.1
 78
     7
 79
     2
140
0.12
141
0.0
146
0.71
147
0.06
176
   256
177
   256
178
     2
274
     4
284
     7
288
     1
289
     0
340
11
371
    -1
372
    -1
1001
ACAD_DSTYLE_DIMARC_LENGTH_SYMBOL
1070
   379
1070
     1
  0
DIMSTYLE
105
39A
330
A
100
AcDbSymbolTableRecord
100
AcDbDimStyleTableRecord
  2
AM_ANSI$4
 70
     0
  4
mm
 41
0.1
 42
0.05
 43
0.5
 44
0.1
 47
0.1
 48
0.1
 78
     7
 79
     2
140
0.12
141
0.0
146
0.71
147
0.06
176
   256
177
   256
178
     2
274
     4
284
     7
288
     1
289
     0
340
11
371
    -1
372
    -1
1001
ACAD_DSTYLE_DIMARC_LENGTH_SYMBOL
1070
   379
1070
     1
  0
DIMSTYLE
105
39B
330
A
100
AcDbSymbolTableRecord
100
AcDbDimStyleTableRecord
  2
AM_ANSI$7
 70
     0
  4
mm
 41
0.1
 42
0.05
 43
0.5
 44
0.1
 47
0.1
 48
0.1
 78
     7
 79
     2
140
0.24
141
0.0
146
0.71
147
0.06
176
   256
177
   256
178
     2
274
     4
284
     7
340
11
371
    -1
372
    -1
1001
ACAD_DSTYLE_DIMARC_LENGTH_SYMBOL
1070
   379
1070
     1
  0
DIMSTYLE
105
39C
330
A
100
AcDbSymbolTableRecord
100
AcDbDimStyleTableRecord
  2
AM_ANSI$SF
 70
     0
  4
mm
 41
0.1
 42
0.05
 43
0.5
 44
0.1
 47
0.1
 48
0.1
 75
     1
 76
     1
 78
     7
 79
     2
140
0.12
141
0.0
146
0.71
147
0.06
176
   256
177
   256
178
     2
274
     4
284
     7
340
11
371
    -1
372
    -1
1001
ACAD_DSTYLE_DIMARC_LENGTH_SYMBOL
1070
   379
1070
     1
  0
DIMSTYLE
105
39D
330
A
100
AcDbSymbolTableRecord
100
AcDbDimStyleTableRecord
  2
AM_ANSI$SH
 70
     0
  4
mm
 41
0.1
 42
0.05
 43
0.5
 44
0.1
 47
0.1
 48
0.1
 75
     1
 76
     1
 78
     7
 79
     2
140
0.12
141
0.0
146
0.71
147
0.06
173
     1
176
   256
177
   256
178
     2
274
     4
284
     7
340
11
343
87
371
    -1
372
    -1
1001
ACAD_DSTYLE_DIMARC_LENGTH_SYMBOL
1070
   379
1070
     1
  0
ENDTAB
  0
TABLE
  2
BLOCK_RECORD
  5
1
330
0
100
AcDbSymbolTable
 70
     6
  0
BLOCK_RECORD
  5
1F
102
{ACAD_XDICTIONARY
360
8F
102
}
330
1
100
AcDbSymbolTableRecord
100
AcDbBlockTableRecord
  2
*Model_Space
340
22
  0
BLOCK_RECORD
  5
1B
330
1
100
AcDbSymbolTableRecord
100
AcDbBlockTableRecord
  2
*Paper_Space
340
1E
  0
BLOCK_RECORD
  5
23
330
1
100
AcDbSymbolTableRecord
100
AcDbBlockTableRecord
  2
*Paper_Space0
340
26
  0
BLOCK_RECORD
  5
87
330
1
100
AcDbSymbolTableRecord
100
AcDbBlockTableRecord
  2
GENAXEH
340
0
  0
ENDTAB
  0
ENDSEC
  0
SECTION
  2
BLOCKS
  0
BLOCK
  5
20
330
1F
100
AcDbEntity
  8
0
100
AcDbBlockBegin
  2
*Model_Space
 70
     0
 10
0.0
 20
0.0
 30
0.0
  3
*Model_Space
  1

  0
ENDBLK
  5
21
330
1F
100
AcDbEntity
  8
0
100
AcDbBlockEnd
  0
BLOCK
  5
1C
330
1B
100
AcDbEntity
 67
     1
  8
0
100
AcDbBlockBegin
  2
*Paper_Space
 70
     0
 10
0.0
 20
0.0
 30
0.0
  3
*Paper_Space
  1

  0
ENDBLK
  5
1D
330
1B
100
AcDbEntity
 67
     1
  8
0
100
AcDbBlockEnd
  0
BLOCK
  5
24
330
23
100
AcDbEntity
 67
     1
  8
0
100
AcDbBlockBegin
  2
*Paper_Space0
 70
     0
 10
0.0
 20
0.0
 30
0.0
  3
*Paper_Space0
  1

  0
ENDBLK
  5
25
330
23
100
AcDbEntity
 67
     1
  8
0
100
AcDbBlockEnd
  0
BLOCK
  5
89
330
87
100
AcDbEntity
  8
0
100
AcDbBlockBegin
  2
GENAXEH
 70
     0
 10
0.0
 20
0.0
 30
0.0
  3
GENAXEH
  1

  0
LINE
  5
88
330
87
100
AcDbEntity
  8
0
100
AcDbLine
 10
-1.0
 20
0.0
 30
0.0
 11
1.0
 21
0.0
 31
0.0
  0
ENDBLK
  5
8A
330
87
100
AcDbEntity
  8
0
100
AcDbBlockEnd
  0
ENDSEC
  0
SECTION
  2
ENTITIES
  0
LINE
  5
452
330
1F
100
AcDbEntity
  8
0
100
AcDbLine
 10
179.4980118792683
 20
203.9549761390633
 30
0.0
 11
179.4980118792683
 21
212.4241871390633
 31
0.0
  0
LINE
  5
453
330
1F
100
AcDbEntity
  8
0
100
AcDbLine
 10
165.8980118792682
 20
208.7506001390633
 30
0.0
 11
165.8980118792682
 21
225.0899751390633
 31
0.0
  0
LINE
  5
454
330
1F
100
AcDbEntity
  8
0
100
AcDbLine
 10
180.0339108792682
 20
214.4241871390633
 30
0.0
 11
182.9621138792682
 21
219.4959841390633
 31
0.0
  0
ARC
  5
455
330
1F
100
AcDbEntity
  8
0
100
AcDbCircle
 10
179.4980118792683
 20
221.4959841390633
 30
0.0
 40
4.0
100
AcDbArc
 50
329.9999999999991
 51
63.14527499999901
  0
ARC
  5
456
330
1F
100
AcDbEntity
  8
0
100
AcDbCircle
 10
172.1875786254664
 20
207.104160552415
 30
0.0
 40
20.14208597329889
100
AcDbArc
 50
63.08604524599978
 51
83.59938046351162
  0
ARC
  5
457
330
1F
100
AcDbEntity
  8
0
100
AcDbCircle
 10
167.4980118792683
 20
225.0899751390633
 30
0.0
 40
1.6
100
AcDbArc
 50
104.1827770000004
 51
180.0
  0
ARC
  5
458
330
1F
100
AcDbEntity
  8
0
100
AcDbCircle
 10
172.1126336381366
 20
206.809670918879
 30
0.0
 40
20.45375933673546
100
AcDbArc
 50
88.73828289080607
 51
104.1687615732542
  0
ARC
  5
459
330
1F
100
AcDbEntity
  8
0
100
AcDbCircle
 10
183.4980118792683
 20
212.4241871390633
 30
0.0
 40
4.0
100
AcDbArc
 50
149.9999999999992
 51
180.0
  0
LINE
  5
45A
330
1F
100
AcDbEntity
  8
0
100
AcDbLine
 10
123.2306990456408
 20
208.2628226494716
 30
0.0
 11
126.1589030456408
 21
213.3346196494716
 31
0.0
  0
LINE
  5
45B
330
1F
100
AcDbEntity
  8
0
100
AcDbLine
 10
109.0948010456408
 20
202.9021346494716
 30
0.0
 11
109.0948010456408
 21
218.9286106494716
 31
0.0
  0
LINE
  5
45C
330
1F
100
AcDbEntity
  8
0
100
AcDbLine
 10
122.6948010456408
 20
200.2480726494716
 30
0.0
 11
122.6948010456408
 21
206.2628226494716
 31
0.0
  0
ARC
  5
45D
330
1F
100
AcDbEntity
  8
0
100
AcDbCircle
 10
126.6948010456409
 20
206.2628226494716
 30
0.0
 40
4.0
100
AcDbArc
 50
149.9999999999992
 51
180.0
  0
ARC
  5
45E
330
1F
100
AcDbEntity
  8
0
100
AcDbCircle
 10
115.3094220210953
 20
200.648305244161
 30
0.0
 40
20.45376053882475
100
AcDbArc
 50
88.73828076991122
 51
104.1687613488848
  0
ARC
  5
45F
330
1F
100
AcDbEntity
  8
0
100
AcDbCircle
 10
115.3843708282929
 20
200.9428061388276
 30
0.0
 40
20.14207516154536
100
AcDbArc
 50
63.08604251045678
 51
83.59938570507774
  0
ARC
  5
460
330
1F
100
AcDbEntity
  8
0
100
AcDbCircle
 10
122.6948010456408
 20
215.3346196494716
 30
0.0
 40
4.0
100
AcDbArc
 50
329.9999999999991
 51
63.14527499999901
  0
ARC
  5
461
330
1F
100
AcDbEntity
  8
0
100
AcDbCircle
 10
110.6948010456408
 20
218.9286106494716
 30
0.0
 40
1.6
100
AcDbArc
 50
104.1827770000004
 51
180.0
  0
LINE
  5
462
330
1F
100
AcDbEntity
  8
0
100
AcDbLine
 10
191.2859928792682
 20
131.9219561390632
 30
0.0
 11
192.3951468792682
 21
144.5996431390632
 31
0.0
  0
ARC
  5
463
330
1F
100
AcDbEntity
  8
0
100
AcDbCircle
 10
175.8480118792682
 20
107.8614051390632
 30
0.0
 40
95.805441
100
AcDbArc
 50
99.20526600000133
 51
120.6178939999989
  0
ARC
  5
464
330
1F
100
AcDbEntity
  8
0
100
AcDbCircle
 10
129.4980117408481
 20
186.1791411812455
 30
0.0
 40
4.799999999999999
100
AcDbArc
 50
120.6178939999989
 51
238.9081040000006
  0
LINE
  5
465
330
1F
100
AcDbEntity
  8
0
100
AcDbLine
 10
187.4721198792683
 20
145.6128571390632
 30
0.0
 11
127.0192338792682
 21
182.0687081390632
 31
0.0
  0
LINE
  5
466
330
1F
100
AcDbEntity
  8
0
100
AcDbLine
 10
189.7306118792682
 20
149.8697341390633
 30
0.0
 11
135.8653968792682
 21
182.6951141390632
 31
0.0
  0
ARC
  5
467
330
1F
100
AcDbEntity
  8
0
100
AcDbCircle
 10
136.698011740848
 20
184.0614051812455
 30
0.0
 40
1.6
100
AcDbArc
 50
111.5597820000014
 51
238.6419339999997
  0
ARC
  5
468
330
1F
100
AcDbEntity
  8
0
100
AcDbCircle
 10
208.3065138792683
 20
2.827398139063262
 30
0.0
 40
196.468014
100
AcDbArc
 50
100.3709729999989
 51
111.5597820000014
  0
ARC
  5
469
330
1F
100
AcDbEntity
  8
0
100
AcDbCircle
 10
171.4980118792683
 20
203.9549761390633
 30
0.0
 40
8.0
100
AcDbArc
 50
280.3709729999989
 51
0.0
  0
ARC
  5
46A
330
1F
100
AcDbEntity
  8
0
100
AcDbCircle
 10
159.4980118792683
 20
208.7506001390633
 30
0.0
 40
6.4
100
AcDbArc
 50
279.2052660000014
 51
0.0
  0
LINE
  5
46B
330
1F
100
AcDbEntity
  8
0
100
AcDbLine
 10
188.0981698792682
 20
132.2008541390632
 30
0.0
 11
189.0074238792683
 21
142.5936701390632
 31
0.0
  0
ARC
  5
46C
330
1F
100
AcDbEntity
  8
0
100
AcDbCircle
 10
189.6920818792683
 20
132.0614051390632
 30
0.0
 40
1.6
100
AcDbArc
 50
175.0000000000001
 51
355.0000000000002
  0
ARC
  5
46D
330
1F
100
AcDbEntity
  8
0
100
AcDbCircle
 10
185.8196008792682
 20
142.8725681390632
 30
0.0
 40
3.2
100
AcDbArc
 50
355.0000000000002
 51
58.90810400000059
  0
ARC
  5
46E
330
1F
100
AcDbEntity
  8
0
100
AcDbCircle
 10
186.8164568792683
 20
145.0877151390632
 30
0.0
 40
5.599999999999999
100
AcDbArc
 50
355.0000000000002
 51
58.6419339999997
  0
ARC
  5
46F
330
1F
100
AcDbEntity
  8
0
100
AcDbCircle
 10
-162.9051989543591
 20
502.3000406494716
 30
0.0
 40
409.364385
100
AcDbArc
 50
308.1618029999996
 51
310.7084880000003
  0
ARC
  5
470
330
1F
100
AcDbEntity
  8
0
100
AcDbCircle
 10
93.49480104564088
 20
176.0264106494716
 30
0.0
 40
5.599999999999999
100
AcDbArc
 50
128.1618029999996
 51
243.5612769999995
  0
LINE
  5
471
330
1F
100
AcDbEntity
  8
0
100
AcDbLine
 10
132.9267610456408
 20
150.1648776494716
 30
0.0
 11
91.00145504564091
 21
171.0121096494716
 31
0.0
  0
ARC
  5
472
330
1F
100
AcDbEntity
  8
0
100
AcDbCircle
 10
94.69480104564087
 20
202.9021346494716
 30
0.0
 40
14.4
100
AcDbArc
 50
310.7084880000003
 51
0.0
  0
ARC
  5
473
330
1F
100
AcDbEntity
  8
0
100
AcDbCircle
 10
-86.50519895435918
 20
453.5000406494716
 30
0.0
 40
332.054212
100
AcDbArc
 50
303.8710679999989
 51
308.2433370000008
  0
ARC
  5
474
330
1F
100
AcDbEntity
  8
0
100
AcDbCircle
 10
99.89480104564092
 20
175.8047756494716
 30
0.0
 40
2.399999999999999
100
AcDbArc
 50
123.8710679999989
 51
241.6555780000008
  0
LINE
  5
475
330
1F
100
AcDbEntity
  8
0
100
AcDbLine
 10
134.8200730456408
 20
154.2375766494716
 30
0.0
 11
98.75535104564091
 21
173.6925126494716
 31
0.0
  0
ARC
  5
476
330
1F
100
AcDbEntity
  8
0
100
AcDbCircle
 10
113.0948010456408
 20
200.2480726494716
 30
0.0
 40
9.599999999999999
100
AcDbArc
 50
308.2433370000008
 51
0.0
  0
ARC
  5
477
330
1F
100
AcDbEntity
  8
0
100
AcDbCircle
 10
135.8948010456409
 20
137.9000406494716
 30
0.0
 40
1.6
100
AcDbArc
 50
170.0910450000001
 51
350.0910450000001
  0
LINE
  5
478
330
1F
100
AcDbEntity
  8
0
100
AcDbLine
 10
138.9025670456408
 20
145.8200366494716
 30
0.0
 11
137.4709330456408
 21
137.6247076494716
 31
0.0
  0
LINE
  5
479
330
1F
100
AcDbEntity
  8
0
100
AcDbLine
 10
135.5180020456409
 20
145.0409056494716
 30
0.0
 11
134.3186690456409
 21
138.1753736494716
 31
0.0
  0
ARC
  5
47A
330
1F
100
AcDbEntity
  8
0
100
AcDbCircle
 10
130.7896060456408
 20
145.8669046494716
 30
0.0
 40
4.799999999999999
100
AcDbArc
 50
350.0910450000001
 51
63.56127699999945
  0
ARC
  5
47B
330
1F
100
AcDbEntity
  8
0
100
AcDbCircle
 10
131.0219070456408
 20
147.1967006494716
 30
0.0
 40
8.0
100
AcDbArc
 50
350.0910450000001
 51
61.65557800000084
  0
ARC
  5
47C
330
1F
100
AcDbEntity
  8
0
100
AcDbCircle
 10
-190.1477199543592
 20
502.3000406494716
 30
0.0
 40
409.364385
100
AcDbArc
 50
308.1618029999996
 51
310.7084880000003
  0
ARC
  5
47D
330
1F
100
AcDbEntity
  8
0
100
AcDbCircle
 10
-113.7477199543592
 20
453.5000406494716
 30
0.0
 40
332.054212
100
AcDbArc
 50
303.8710679999989
 51
308.2433370000008
  0
LINE
  5
47E
330
1F
100
AcDbEntity
  8
0
100
AcDbLine
 10
107.5775520456408
 20
154.2375766494716
 30
0.0
 11
71.51283004564089
 21
173.6925126494716
 31
0.0
  0
LINE
  5
47F
330
1F
100
AcDbEntity
  8
0
100
AcDbLine
 10
105.6842390456408
 20
150.1648776494716
 30
0.0
 11
63.75893304564084
 21
171.0121096494716
 31
0.0
  0
ARC
  5
480
330
1F
100
AcDbEntity
  8
0
100
AcDbCircle
 10
103.7793860456408
 20
147.1967006494716
 30
0.0
 40
8.0
100
AcDbArc
 50
350.0910450000001
 51
61.65557800000084
  0
LINE
  5
481
330
1F
100
AcDbEntity
  8
0
100
AcDbLine
 10
108.2754810456409
 20
145.0409056494716
 30
0.0
 11
107.0761480456408
 21
138.1753736494716
 31
0.0
  0
LINE
  5
482
330
1F
100
AcDbEntity
  8
0
100
AcDbLine
 10
111.6600450456408
 20
145.8200366494716
 30
0.0
 11
110.2284120456408
 21
137.6247076494716
 31
0.0
  0
ARC
  5
483
330
1F
100
AcDbEntity
  8
0
100
AcDbCircle
 10
108.6522800456409
 20
137.9000406494716
 30
0.0
 40
1.6
100
AcDbArc
 50
170.0910450000001
 51
350.0910450000001
  0
ARC
  5
484
330
1F
100
AcDbEntity
  8
0
100
AcDbCircle
 10
103.5470850456409
 20
145.8669046494716
 30
0.0
 40
4.799999999999999
100
AcDbArc
 50
350.0910450000001
 51
63.56127699999945
  0
ARC
  5
485
330
1F
100
AcDbEntity
  8
0
100
AcDbCircle
 10
72.6522800456409
 20
175.8047756494716
 30
0.0
 40
2.399999999999999
100
AcDbArc
 50
123.8710679999989
 51
241.6555780000008
  0
ARC
  5
486
330
1F
100
AcDbEntity
  8
0
100
AcDbCircle
 10
66.25228004564087
 20
176.0264106494716
 30
0.0
 40
5.599999999999999
100
AcDbArc
 50
128.1618029999996
 51
243.5612769999995
  0
ARC
  5
487
330
1F
100
AcDbEntity
  8
0
100
AcDbCircle
 10
88.06690102109541
 20
200.6483052441608
 30
0.0
 40
20.45376053882498
100
AcDbArc
 50
88.73828076991447
 51
104.1687613488848
  0
ARC
  5
488
330
1F
100
AcDbEntity
  8
0
100
AcDbCircle
 10
99.45228004564086
 20
206.2628226494716
 30
0.0
 40
4.0
100
AcDbArc
 50
149.9999999999992
 51
180.0
  0
ARC
  5
489
330
1F
100
AcDbEntity
  8
0
100
AcDbCircle
 10
85.8522800456409
 20
200.2480726494716
 30
0.0
 40
9.599999999999999
100
AcDbArc
 50
308.2433370000008
 51
0.0
  0
LINE
  5
48A
330
1F
100
AcDbEntity
  8
0
100
AcDbLine
 10
95.45228004564085
 20
200.2480726494716
 30
0.0
 11
95.45228004564085
 21
206.2628226494716
 31
0.0
  0
ARC
  5
48B
330
1F
100
AcDbEntity
  8
0
100
AcDbCircle
 10
88.14185600864721
 20
200.9428215665466
 30
0.0
 40
20.14205860729509
100
AcDbArc
 50
63.08603832196679
 51
83.59939811339087
  0
ARC
  5
48C
330
1F
100
AcDbEntity
  8
0
100
AcDbCircle
 10
95.45228004564085
 20
215.3346196494716
 30
0.0
 40
4.0
100
AcDbArc
 50
329.9999999999991
 51
63.14527499999901
  0
LINE
  5
48D
330
1F
100
AcDbEntity
  8
0
100
AcDbLine
 10
95.98817804564083
 20
208.2628226494716
 30
0.0
 11
98.91638104564089
 21
213.3346196494716
 31
0.0
  0
LINE
  5
48E
330
1F
100
AcDbEntity
  8
0
100
AcDbLine
 10
81.85228004564089
 20
202.9021346494716
 30
0.0
 11
81.85228004564089
 21
218.9286106494716
 31
0.0
  0
ARC
  5
48F
330
1F
100
AcDbEntity
  8
0
100
AcDbCircle
 10
67.45228004564086
 20
202.9021346494716
 30
0.0
 40
14.4
100
AcDbArc
 50
310.7084880000003
 51
0.0
  0
ARC
  5
490
330
1F
100
AcDbEntity
  8
0
100
AcDbCircle
 10
83.45228004564086
 20
218.9286106494716
 30
0.0
 40
1.6
100
AcDbArc
 50
104.1827770000004
 51
180.0
  0
LINE
  5
491
330
1F
100
AcDbEntity
  8
0
100
AcDbLine
 10
105.6842390456408
 20
307.3260546494716
 30
0.0
 11
63.75893304564084
 21
286.4788226494716
 31
0.0
  0
LINE
  5
492
330
1F
100
AcDbEntity
  8
0
100
AcDbLine
 10
107.5775520456408
 20
303.2533546494716
 30
0.0
 11
71.51283004564089
 21
283.7984196494716
 31
0.0
  0
ARC
  5
493
330
1F
100
AcDbEntity
  8
0
100
AcDbCircle
 10
-113.7477199543592
 20
3.99089164947162
 30
0.0
 40
332.054212
100
AcDbArc
 50
51.75666299999917
 51
56.12893200000109
  0
ARC
  5
494
330
1F
100
AcDbEntity
  8
0
100
AcDbCircle
 10
-190.1477199543592
 20
-44.80910835052839
 30
0.0
 40
409.364385
100
AcDbArc
 50
49.29151199999972
 51
51.83819700000039
  0
ARC
  5
495
330
1F
100
AcDbEntity
  8
0
100
AcDbCircle
 10
-162.9051989543591
 20
-44.80910835052839
 30
0.0
 40
409.364385
100
AcDbArc
 50
49.29151199999972
 51
51.83819700000039
  0
ARC
  5
496
330
1F
100
AcDbEntity
  8
0
100
AcDbCircle
 10
-86.50519895435918
 20
3.99089164947162
 30
0.0
 40
332.054212
100
AcDbArc
 50
51.75666299999917
 51
56.12893200000109
  0
LINE
  5
497
330
1F
100
AcDbEntity
  8
0
100
AcDbLine
 10
111.6600450456408
 20
311.6708956494716
 30
0.0
 11
110.2284120456408
 21
319.8662246494716
 31
0.0
  0
ARC
  5
498
330
1F
100
AcDbEntity
  8
0
100
AcDbCircle
 10
103.7793860456408
 20
310.2942306494716
 30
0.0
 40
8.0
100
AcDbArc
 50
298.3444219999991
 51
9.908954999999879
  0
LINE
  5
499
330
1F
100
AcDbEntity
  8
0
100
AcDbLine
 10
134.8200730456408
 20
303.2533546494716
 30
0.0
 11
98.75535104564091
 21
283.7984196494716
 31
0.0
  0
LINE
  5
49A
330
1F
100
AcDbEntity
  8
0
100
AcDbLine
 10
132.9267610456408
 20
307.3260546494716
 30
0.0
 11
91.00145504564091
 21
286.4788226494716
 31
0.0
  0
ARC
  5
49B
330
1F
100
AcDbEntity
  8
0
100
AcDbCircle
 10
131.0219070456408
 20
310.2942306494716
 30
0.0
 40
8.0
100
AcDbArc
 50
298.3444219999991
 51
9.908954999999879
  0
LINE
  5
49C
330
1F
100
AcDbEntity
  8
0
100
AcDbLine
 10
135.5180020456409
 20
312.4500266494716
 30
0.0
 11
134.3186690456409
 21
319.3155586494716
 31
0.0
  0
LINE
  5
49D
330
1F
100
AcDbEntity
  8
0
100
AcDbLine
 10
138.9025670456408
 20
311.6708956494716
 30
0.0
 11
137.4709330456408
 21
319.8662246494716
 31
0.0
  0
ARC
  5
49E
330
1F
100
AcDbEntity
  8
0
100
AcDbCircle
 10
135.8948010456409
 20
319.5908916494716
 30
0.0
 40
1.6
100
AcDbArc
 50
9.908954999999879
 51
189.9089549999999
  0
ARC
  5
49F
330
1F
100
AcDbEntity
  8
0
100
AcDbCircle
 10
130.7896060456408
 20
311.6240276494716
 30
0.0
 40
4.799999999999999
100
AcDbArc
 50
296.4387230000006
 51
9.908954999999879
  0
LINE
  5
4A0
330
1F
100
AcDbEntity
  8
0
100
AcDbLine
 10
108.2754810456409
 20
312.4500266494716
 30
0.0
 11
107.0761480456408
 21
319.3155586494716
 31
0.0
  0
ARC
  5
4A1
330
1F
100
AcDbEntity
  8
0
100
AcDbCircle
 10
108.6522800456409
 20
319.5908916494716
 30
0.0
 40
1.6
100
AcDbArc
 50
9.908954999999879
 51
189.9089549999999
  0
ARC
  5
4A2
330
1F
100
AcDbEntity
  8
0
100
AcDbCircle
 10
103.5470850456409
 20
311.6240276494716
 30
0.0
 40
4.799999999999999
100
AcDbArc
 50
296.4387230000006
 51
9.908954999999879
  0
ARC
  5
4A3
330
1F
100
AcDbEntity
  8
0
100
AcDbCircle
 10
99.89480104564092
 20
281.6861566494716
 30
0.0
 40
2.399999999999999
100
AcDbArc
 50
118.3444219999991
 51
236.1289320000011
  0
ARC
  5
4A4
330
1F
100
AcDbEntity
  8
0
100
AcDbCircle
 10
93.49480104564088
 20
281.4645206494716
 30
0.0
 40
5.599999999999999
100
AcDbArc
 50
116.4387230000005
 51
231.8381970000004
  0
ARC
  5
4A5
330
1F
100
AcDbEntity
  8
0
100
AcDbCircle
 10
115.2959420456408
 20
256.7688666494717
 30
0.0
 40
20.378945
100
AcDbArc
 50
255.8172229999996
 51
271.1214699999995
  0
ARC
  5
4A6
330
1F
100
AcDbEntity
  8
0
100
AcDbCircle
 10
126.6948010456409
 20
251.2281096494716
 30
0.0
 40
4.0
100
AcDbArc
 50
180.0
 51
210.0000000000008
  0
ARC
  5
4A7
330
1F
100
AcDbEntity
  8
0
100
AcDbCircle
 10
113.0948010456408
 20
257.2428596494716
 30
0.0
 40
9.599999999999999
100
AcDbArc
 50
0.0
 51
51.75666299999917
  0
LINE
  5
4A8
330
1F
100
AcDbEntity
  8
0
100
AcDbLine
 10
122.6948010456408
 20
257.2428596494716
 30
0.0
 11
122.6948010456408
 21
251.2281096494716
 31
0.0
  0
ARC
  5
4A9
330
1F
100
AcDbEntity
  8
0
100
AcDbCircle
 10
115.2959420456408
 20
256.7688666494717
 30
0.0
 40
20.378945
100
AcDbArc
 50
276.7601090000006
 51
296.854725000001
  0
ARC
  5
4AA
330
1F
100
AcDbEntity
  8
0
100
AcDbCircle
 10
122.6948010456408
 20
242.1563126494716
 30
0.0
 40
4.0
100
AcDbArc
 50
296.854725000001
 51
30.00000000000084
  0
LINE
  5
4AB
330
1F
100
AcDbEntity
  8
0
100
AcDbLine
 10
123.2306990456408
 20
249.2281096494716
 30
0.0
 11
126.1589030456408
 21
244.1563126494716
 31
0.0
  0
LINE
  5
4AC
330
1F
100
AcDbEntity
  8
0
100
AcDbLine
 10
81.85228004564089
 20
254.5887966494716
 30
0.0
 11
81.85228004564089
 21
238.5623216494716
 31
0.0
  0
ARC
  5
4AD
330
1F
100
AcDbEntity
  8
0
100
AcDbCircle
 10
99.45228004564086
 20
251.2281096494716
 30
0.0
 40
4.0
100
AcDbArc
 50
180.0
 51
210.0000000000008
  0
LINE
  5
4AE
330
1F
100
AcDbEntity
  8
0
100
AcDbLine
 10
109.0948010456408
 20
254.5887966494716
 30
0.0
 11
109.0948010456408
 21
238.5623216494716
 31
0.0
  0
ARC
  5
4AF
330
1F
100
AcDbEntity
  8
0
100
AcDbCircle
 10
85.8522800456409
 20
257.2428596494716
 30
0.0
 40
9.599999999999999
100
AcDbArc
 50
0.0
 51
51.75666299999917
  0
ARC
  5
4B0
330
1F
100
AcDbEntity
  8
0
100
AcDbCircle
 10
94.69480104564087
 20
254.5887966494716
 30
0.0
 40
14.4
100
AcDbArc
 50
0.0
 51
49.29151199999972
  0
LINE
  5
4B1
330
1F
100
AcDbEntity
  8
0
100
AcDbLine
 10
95.45228004564085
 20
257.2428596494716
 30
0.0
 11
95.45228004564085
 21
251.2281096494716
 31
0.0
  0
ARC
  5
4B2
330
1F
100
AcDbEntity
  8
0
100
AcDbCircle
 10
67.45228004564086
 20
254.5887966494716
 30
0.0
 40
14.4
100
AcDbArc
 50
0.0
 51
49.29151199999972
  0
ARC
  5
4B3
330
1F
100
AcDbEntity
  8
0
100
AcDbCircle
 10
88.0534210456409
 20
256.7688666494717
 30
0.0
 40
20.378945
100
AcDbArc
 50
276.7601090000006
 51
296.854725000001
  0
ARC
  5
4B4
330
1F
100
AcDbEntity
  8
0
100
AcDbCircle
 10
110.6948010456408
 20
238.5623216494716
 30
0.0
 40
1.6
100
AcDbArc
 50
180.0
 51
255.8172229999996
  0
ARC
  5
4B5
330
1F
100
AcDbEntity
  8
0
100
AcDbCircle
 10
95.45228004564085
 20
242.1563126494716
 30
0.0
 40
4.0
100
AcDbArc
 50
296.854725000001
 51
30.00000000000084
  0
LINE
  5
4B6
330
1F
100
AcDbEntity
  8
0
100
AcDbLine
 10
95.98817804564083
 20
249.2281096494716
 30
0.0
 11
98.91638104564089
 21
244.1563126494716
 31
0.0
  0
ARC
  5
4B7
330
1F
100
AcDbEntity
  8
0
100
AcDbCircle
 10
83.45228004564086
 20
238.5623216494716
 30
0.0
 40
1.6
100
AcDbArc
 50
180.0
 51
255.8172229999996
  0
ARC
  5
4B8
330
1F
100
AcDbEntity
  8
0
100
AcDbCircle
 10
88.0534210456409
 20
256.7688666494717
 30
0.0
 40
20.378945
100
AcDbArc
 50
255.8172229999996
 51
271.1214699999995
  0
ARC
  5
4B9
330
1F
100
AcDbEntity
  8
0
100
AcDbCircle
 10
72.6522800456409
 20
281.6861566494716
 30
0.0
 40
2.399999999999999
100
AcDbArc
 50
118.3444219999991
 51
236.1289320000011
  0
ARC
  5
4BA
330
1F
100
AcDbEntity
  8
0
100
AcDbCircle
 10
66.25228004564087
 20
281.4645206494716
 30
0.0
 40
5.599999999999999
100
AcDbArc
 50
116.4387230000005
 51
231.8381970000004
  0
LINE
  5
4BB
330
1F
100
AcDbEntity
  8
0
100
AcDbLine
 10
201.9310690456409
 20
335.5816976494716
 30
0.0
 11
53.43106904564087
 21
335.5816976494716
 31
0.0
  0
LINE
  5
4BC
330
1F
100
AcDbEntity
  8
0
100
AcDbLine
 10
201.9310690456409
 20
125.5816976494716
 30
0.0
 11
53.43106904564087
 21
125.5816976494716
 31
0.0
  0
LINE
  5
4BD
330
1F
100
AcDbEntity
  8
0
100
AcDbLine
 10
201.9310690456409
 20
125.5816976494716
 30
0.0
 11
201.9310690456409
 21
335.5816976494716
 31
0.0
  0
LINE
  5
4BE
330
1F
100
AcDbEntity
  8
0
100
AcDbLine
 10
53.43106904564087
 20
125.5816976494716
 30
0.0
 11
53.43106904564087
 21
335.5816976494716
 31
0.0
  0
LINE
  5
4BF
330
1F
100
AcDbEntity
  8
0
100
AcDbLine
 10
170.6016650137266
 20
258.201793799507
 30
0.0
 11
170.6016650137266
 21
249.732583799507
 31
0.0
  0
LINE
  5
4C0
330
1F
100
AcDbEntity
  8
0
100
AcDbLine
 10
157.0016650137266
 20
253.406170799507
 30
0.0
 11
157.0016650137266
 21
237.066795799507
 31
0.0
  0
ARC
  5
4C1
330
1F
100
AcDbEntity
  8
0
100
AcDbCircle
 10
120.6016650137266
 20
275.977629799507
 30
0.0
 40
4.799999999999999
100
AcDbArc
 50
121.0918959999994
 51
239.3821060000011
  0
LINE
  5
4C2
330
1F
100
AcDbEntity
  8
0
100
AcDbLine
 10
180.8342650137266
 20
312.287036799507
 30
0.0
 11
126.9690500137265
 21
279.461656799507
 31
0.0
  0
LINE
  5
4C3
330
1F
100
AcDbEntity
  8
0
100
AcDbLine
 10
178.5757730137266
 20
316.543913799507
 30
0.0
 11
118.1228870137266
 21
280.088062799507
 31
0.0
  0
ARC
  5
4C4
330
1F
100
AcDbEntity
  8
0
100
AcDbCircle
 10
180.7957350137266
 20
330.095365799507
 30
0.0
 40
1.6
100
AcDbArc
 50
4.999999999999813
 51
184.9999999999998
  0
LINE
  5
4C5
330
1F
100
AcDbEntity
  8
0
100
AcDbLine
 10
179.2018230137266
 20
329.955916799507
 30
0.0
 11
180.1110770137266
 21
319.563100799507
 31
0.0
  0
LINE
  5
4C6
330
1F
100
AcDbEntity
  8
0
100
AcDbLine
 10
182.3896460137266
 20
330.2348147995069
 30
0.0
 11
183.4988000137265
 21
317.5571267995069
 31
0.0
  0
ARC
  5
4C7
330
1F
100
AcDbEntity
  8
0
100
AcDbCircle
 10
177.9201100137266
 20
317.0690547995069
 30
0.0
 40
5.599999999999999
100
AcDbArc
 50
301.3580660000004
 51
4.999999999999813
  0
ARC
  5
4C8
330
1F
100
AcDbEntity
  8
0
100
AcDbCircle
 10
176.9232540137265
 20
319.2842027995069
 30
0.0
 40
3.2
100
AcDbArc
 50
301.0918959999994
 51
4.999999999999813
  0
ARC
  5
4C9
330
1F
100
AcDbEntity
  8
0
100
AcDbCircle
 10
150.6016650137266
 20
253.406170799507
 30
0.0
 40
6.4
100
AcDbArc
 50
0.0
 51
80.79473399999866
  0
ARC
  5
4CA
330
1F
100
AcDbEntity
  8
0
100
AcDbCircle
 10
199.4101670137266
 20
459.3293727995069
 30
0.0
 40
196.468014
100
AcDbArc
 50
248.4402179999986
 51
259.6290270000011
  0
ARC
  5
4CB
330
1F
100
AcDbEntity
  8
0
100
AcDbCircle
 10
162.6016650137266
 20
258.201793799507
 30
0.0
 40
8.0
100
AcDbArc
 50
0.0
 51
79.62902700000109
  0
ARC
  5
4CC
330
1F
100
AcDbEntity
  8
0
100
AcDbCircle
 10
127.8016656779851
 20
278.0953657779339
 30
0.0
 40
1.6
100
AcDbArc
 50
121.3580660000003
 51
248.4402179999986
  0
ARC
  5
4CD
330
1F
100
AcDbEntity
  8
0
100
AcDbCircle
 10
166.9516650137265
 20
354.295365799507
 30
0.0
 40
95.805441
100
AcDbArc
 50
239.3821060000011
 51
260.7947339999987
  0
ARC
  5
4CE
330
1F
100
AcDbEntity
  8
0
100
AcDbCircle
 10
170.6016650137266
 20
240.660786799507
 30
0.0
 40
4.0
100
AcDbArc
 50
296.854725000001
 51
30.00000000000084
  0
LINE
  5
4CF
330
1F
100
AcDbEntity
  8
0
100
AcDbLine
 10
171.1375640137266
 20
247.732583799507
 30
0.0
 11
174.0657670137265
 21
242.660786799507
 31
0.0
  0
ARC
  5
4D0
330
1F
100
AcDbEntity
  8
0
100
AcDbCircle
 10
174.6016650137266
 20
249.732583799507
 30
0.0
 40
4.0
100
AcDbArc
 50
180.0
 51
210.0000000000008
  0
ARC
  5
4D1
330
1F
100
AcDbEntity
  8
0
100
AcDbCircle
 10
163.2028070137266
 20
255.273340799507
 30
0.0
 40
20.378945
100
AcDbArc
 50
276.7601090000006
 51
296.854725000001
  0
ARC
  5
4D2
330
1F
100
AcDbEntity
  8
0
100
AcDbCircle
 10
158.6016650137266
 20
237.066795799507
 30
0.0
 40
1.6
100
AcDbArc
 50
180.0
 51
255.8172229999996
  0
ARC
  5
4D3
330
1F
100
AcDbEntity
  8
0
100
AcDbCircle
 10
163.2028070137266
 20
255.273340799507
 30
0.0
 40
20.378945
100
AcDbArc
 50
255.8172229999996
 51
271.1214699999995
  0
CIRCLE
  5
4D4
330
1F
100
AcDbEntity
  8
0
100
AcDbCircle
 10
58.43106904564087
 20
130.5816976494716
 30
0.0
 40
2.0
  0
CIRCLE
  5
4D5
330
1F
100
AcDbEntity
  8
0
100
AcDbCircle
 10
196.9310690456408
 20
130.5816976494716
 30
0.0
 40
2.0
  0
CIRCLE
  5
4D6
330
1F
100
AcDbEntity
  8
0
100
AcDbCircle
 10
196.9310690456408
 20
330.5816976494716
 30
0.0
 40
2.0
  0
CIRCLE
  5
4D7
330
1F
100
AcDbEntity
  8
0
100
AcDbCircle
 10
58.43106904564087
 20
330.5816976494716
 30
0.0
 40
2.0
  0
LINE
  5
4D8
330
1F
100
AcDbEntity
  8
0
100
AcDbLine
 10
88.51728004564085
 20
244.3908916494716
 30
0.0
 11
90.38728004564086
 21
244.3908916494716
 31
0.0
  0
LINE
  5
4D9
330
1F
100
AcDbEntity
  8
0
100
AcDbLine
 10
163.6666650137267
 20
246.8953657995069
 30
0.0
 11
165.5366650137265
 21
246.8953657995069
 31
0.0
  0
LINE
  5
4DA
330
1F
100
AcDbEntity
  8
0
100
AcDbLine
 10
172.5630118792683
 20
215.2614051390633
 30
0.0
 11
174.4330118792682
 21
215.2614051390633
 31
0.0
  0
LINE
  5
4DB
330
1F
100
AcDbEntity
  8
0
100
AcDbLine
 10
115.7598010456409
 20
213.1000406494716
 30
0.0
 11
117.6298010456408
 21
213.1000406494716
 31
0.0
  0
LINE
  5
4DC
330
1F
100
AcDbEntity
  8
0
100
AcDbLine
 10
88.51728004564085
 20
213.1000406494716
 30
0.0
 11
90.38728004564086
 21
213.1000406494716
 31
0.0
  0
LINE
  5
4DD
330
1F
100
AcDbEntity
  8
0
100
AcDbLine
 10
88.51728004564085
 20
244.3908916494716
 30
0.0
 11
88.51728004564085
 21
229.3938246494716
 31
0.0
  0
LINE
  5
4DE
330
1F
100
AcDbEntity
  8
0
100
AcDbLine
 10
90.38728004564086
 20
244.3908916494716
 30
0.0
 11
90.38728004564086
 21
236.5316016494716
 31
0.0
  0
LINE
  5
4DF
330
1F
100
AcDbEntity
  8
0
100
AcDbLine
 10
115.7598010456409
 20
244.3908916494716
 30
0.0
 11
115.7598010456409
 21
229.3938246494716
 31
0.0
  0
LINE
  5
4E0
330
1F
100
AcDbEntity
  8
0
100
AcDbLine
 10
117.6298010456408
 20
244.3908916494716
 30
0.0
 11
117.6298010456408
 21
236.5316016494716
 31
0.0
  0
LINE
  5
4E1
330
1F
100
AcDbEntity
  8
0
100
AcDbLine
 10
163.6666650137267
 20
246.8953657995069
 30
0.0
 11
163.6666650137267
 21
227.898298799507
 31
0.0
  0
LINE
  5
4E2
330
1F
100
AcDbEntity
  8
0
100
AcDbLine
 10
165.5366650137265
 20
246.8953657995069
 30
0.0
 11
165.5366650137265
 21
235.0360757995069
 31
0.0
  0
LINE
  5
4E3
330
1F
100
AcDbEntity
  8
0
100
AcDbLine
 10
174.4330118792682
 20
215.2614051390633
 30
0.0
 11
174.4330118792682
 21
234.1206951390633
 31
0.0
  0
LINE
  5
4E4
330
1F
100
AcDbEntity
  8
0
100
AcDbLine
 10
172.5630118792683
 20
215.2614051390633
 30
0.0
 11
172.5630118792683
 21
227.2584711390633
 31
0.0
  0
LINE
  5
4E5
330
1F
100
AcDbEntity
  8
0
100
AcDbLine
 10
117.6298010456408
 20
213.1000406494716
 30
0.0
 11
117.6298010456408
 21
227.9593296494716
 31
0.0
  0
LINE
  5
4E6
330
1F
100
AcDbEntity
  8
0
100
AcDbLine
 10
115.7598010456409
 20
213.1000406494716
 30
0.0
 11
115.7598010456409
 21
221.0971066494716
 31
0.0
  0
LINE
  5
4E7
330
1F
100
AcDbEntity
  8
0
100
AcDbLine
 10
90.38728004564086
 20
213.1000406494716
 30
0.0
 11
90.38728004564086
 21
227.9593296494716
 31
0.0
  0
LINE
  5
4E8
330
1F
100
AcDbEntity
  8
0
100
AcDbLine
 10
88.51728004564085
 20
213.1000406494716
 30
0.0
 11
88.51728004564085
 21
221.0971066494716
 31
0.0
  0
LINE
  5
4E9
330
1F
100
AcDbEntity
  8
0
100
AcDbLine
 10
115.7598010456409
 20
244.3908916494716
 30
0.0
 11
117.6298010456408
 21
244.3908916494716
 31
0.0
  0
LINE
  5
582
330
1F
100
AcDbEntity
  8
0
100
AcDbLine
 10
387.8054863382057
 20
123.0744542721122
 30
0.0
 11
239.3054863382057
 21
123.0744542721122
 31
0.0
  0
LINE
  5
583
330
1F
100
AcDbEntity
  8
0
100
AcDbLine
 10
387.8054863382057
 20
123.0744542721122
 30
0.0
 11
387.8054863382057
 21
333.0744542721122
 31
0.0
  0
LINE
  5
584
330
1F
100
AcDbEntity
  8
0
100
AcDbLine
 10
387.8054863382057
 20
333.0744542721122
 30
0.0
 11
239.3054863382057
 21
333.0744542721122
 31
0.0
  0
LINE
  5
585
330
1F
100
AcDbEntity
  8
0
100
AcDbLine
 10
261.9503393382057
 20
298.3432712721122
 30
0.0
 11
261.9503393382057
 21
306.8548682721122
 31
0.0
  0
LINE
  5
586
330
1F
100
AcDbEntity
  8
0
100
AcDbLine
 10
272.3784923382057
 20
292.4645402721122
 30
0.0
 11
288.3819863382057
 21
295.8661882721121
 31
0.0
  0
LINE
  5
587
330
1F
100
AcDbEntity
  8
0
100
AcDbLine
 10
276.1428584694311
 20
299.8263897681095
 30
0.0
 11
276.4675802120974
 21
297.9847987770172
 31
0.0
  0
ARC
  5
588
330
1F
100
AcDbEntity
  8
0
100
AcDbCircle
 10
289.1503393382057
 20
307.7898682721122
 30
0.0
 40
6.4
100
AcDbArc
 50
312.877319
 51
47.12268099999947
  0
ARC
  5
589
330
1F
100
AcDbEntity
  8
0
100
AcDbCircle
 10
262.8481956681279
 20
298.3889024281539
 30
0.0
 40
0.8990151231114689
100
AcDbArc
 50
182.9094021705815
 51
273.3382311792322
  0
LINE
  5
58A
330
1F
100
AcDbEntity
  8
0
100
AcDbLine
 10
273.9503393382057
 20
306.8548682721122
 30
0.0
 11
273.9503393382057
 21
308.7248682721122
 31
0.0
  0
LINE
  5
58B
330
1F
100
AcDbEntity
  8
0
100
AcDbLine
 10
261.9503393382057
 20
308.9898682721122
 30
0.0
 11
261.9503393382057
 21
317.2364652721122
 31
0.0
  0
ARC
  5
58C
330
1F
100
AcDbEntity
  8
0
100
AcDbCircle
 10
271.5507022612161
 20
296.393335007449
 30
0.0
 40
4.015055075356805
100
AcDbArc
 50
179.7641156372134
 51
281.898084868724
  0
ARC
  5
58D
330
1F
100
AcDbEntity
  8
0
100
AcDbCircle
 10
287.5503393382057
 20
299.7787782721122
 30
0.0
 40
4.0
100
AcDbArc
 50
281.9999999999996
 51
352.4364539999997
  0
ARC
  5
58E
330
1F
100
AcDbEntity
  8
0
100
AcDbCircle
 10
297.8598543382057
 20
298.4098712721122
 30
0.0
 40
6.4
100
AcDbArc
 50
132.8773190000005
 51
172.4364539999997
  0
ARC
  5
58F
330
1F
100
AcDbEntity
  8
0
100
AcDbCircle
 10
297.8598543382057
 20
317.1698662721122
 30
0.0
 40
6.4
100
AcDbArc
 50
187.5635460000003
 51
227.1226809999995
  0
ARC
  5
590
330
1F
100
AcDbEntity
  8
0
100
AcDbCircle
 10
287.5503393382057
 20
315.8009582721122
 30
0.0
 40
4.0
100
AcDbArc
 50
7.563546000000295
 51
78.00000000000038
  0
ARC
  5
591
330
1F
100
AcDbEntity
  8
0
100
AcDbCircle
 10
271.550702262184
 20
319.1864015327086
 30
0.0
 40
4.015055079136727
100
AcDbArc
 50
78.10191515675832
 51
180.2358700166824
  0
LINE
  5
592
330
1F
100
AcDbEntity
  8
0
100
AcDbLine
 10
272.3784923382057
 20
323.1151962721122
 30
0.0
 11
288.3819863382057
 21
319.7135492721122
 31
0.0
  0
LINE
  5
593
330
1F
100
AcDbEntity
  8
0
100
AcDbLine
 10
276.1428584741193
 20
315.7533467752883
 30
0.0
 11
276.4675802051467
 21
317.5949377684328
 31
0.0
  0
ARC
  5
594
330
1F
100
AcDbEntity
  8
0
100
AcDbCircle
 10
262.8481972902438
 20
317.1908333596654
 30
0.0
 40
0.899016781529588
100
AcDbArc
 50
86.66187824224788
 51
177.0905549318913
  0
LINE
  5
595
330
1F
100
AcDbEntity
  8
0
100
AcDbLine
 10
261.9503393382057
 20
317.2364652721122
 30
0.0
 11
261.9503393382057
 21
309.2248682721122
 31
0.0
  0
LINE
  5
596
330
1F
100
AcDbEntity
  8
0
100
AcDbLine
 10
378.4083173382057
 20
291.2148932721123
 30
0.0
 11
378.4083173382057
 21
264.8148932721122
 31
0.0
  0
LINE
  5
597
330
1F
100
AcDbEntity
  8
0
100
AcDbLine
 10
355.2083173382057
 20
296.4148932721122
 30
0.0
 11
355.2083173382057
 21
289.5703102721122
 31
0.0
  0
ARC
  5
598
330
1F
100
AcDbEntity
  8
0
100
AcDbCircle
 10
362.8083173382057
 20
296.4148932721122
 30
0.0
 40
7.599999999999999
100
AcDbArc
 50
7.76643400000024
 51
180.0
  0
LINE
  5
599
330
1F
100
AcDbEntity
  8
0
100
AcDbLine
 10
377.4725593382056
 20
291.2148932721123
 30
0.0
 11
378.4083173382057
 21
291.2148932721123
 31
0.0
  0
ARC
  5
59A
330
1F
100
AcDbEntity
  8
0
100
AcDbCircle
 10
377.4725593382056
 20
298.4148932721122
 30
0.0
 40
7.2
100
AcDbArc
 50
187.7664340000002
 51
270.0
  0
LINE
  5
59B
330
1F
100
AcDbEntity
  8
0
100
AcDbLine
 10
348.8083173382057
 20
282.4148932721122
 30
0.0
 11
348.8083173382057
 21
279.8498932721122
 31
0.0
  0
ARC
  5
59C
330
1F
100
AcDbEntity
  8
0
100
AcDbCircle
 10
356.0083173382057
 20
282.4148932721122
 30
0.0
 40
7.2
100
AcDbArc
 50
96.37936999999951
 51
180.0
  0
LINE
  5
59D
330
1F
100
AcDbEntity
  8
0
100
AcDbLine
 10
360.0083173382057
 20
279.3498932721123
 30
0.0
 11
360.0083173382057
 21
277.4798932721122
 31
0.0
  0
LINE
  5
59E
330
1F
100
AcDbEntity
  8
0
100
AcDbLine
 10
377.5595883382057
 20
264.8148932721122
 30
0.0
 11
378.4083173382057
 21
264.8148932721122
 31
0.0
  0
ARC
  5
59F
330
1F
100
AcDbEntity
  8
0
100
AcDbCircle
 10
362.8083173382057
 20
268.0148932721122
 30
0.0
 40
11.2
100
AcDbArc
 50
227.6891029999997
 51
326.9442690000007
  0
ARC
  5
5A0
330
1F
100
AcDbEntity
  8
0
100
AcDbCircle
 10
368.9296478249466
 20
274.7256108140018
 30
0.0
 40
20.28319148339264
100
AcDbArc
 50
172.1956162590051
 51
227.6625441361609
  0
ARC
  5
5A1
330
1F
100
AcDbEntity
  8
0
100
AcDbCircle
 10
377.5595883382057
 20
258.4148932721122
 30
0.0
 40
6.4
100
AcDbArc
 50
90.0
 51
146.9442690000007
  0
ARC
  5
5A2
330
1F
100
AcDbEntity
  8
0
100
AcDbCircle
 10
258.3737133382057
 20
228.4693512721122
 30
0.0
 40
11.2
100
AcDbArc
 50
118.0165489999996
 51
241.9834510000003
  0
ARC
  5
5A3
330
1F
100
AcDbEntity
  8
0
100
AcDbCircle
 10
262.3737133382057
 20
268.1413942721122
 30
0.0
 40
11.2
100
AcDbArc
 50
116.528289
 51
243.4717109999999
  0
ARC
  5
5A4
330
1F
100
AcDbEntity
  8
0
100
AcDbCircle
 10
342.8041223382057
 20
154.1247752721121
 30
0.0
 40
11.2
100
AcDbArc
 50
115.3808590000004
 51
244.6191409999996
  0
ARC
  5
5A5
330
1F
100
AcDbEntity
  8
0
100
AcDbCircle
 10
299.1737133382057
 20
238.0693512721122
 30
0.0
 40
1.6
100
AcDbArc
 50
255.8306040000001
 51
64.82810799999957
  0
ARC
  5
5A6
330
1F
100
AcDbEntity
  8
0
100
AcDbCircle
 10
299.1737133382057
 20
277.7413942721122
 30
0.0
 40
1.6
100
AcDbArc
 50
253.4080080000004
 51
66.29006099999944
  0
ARC
  5
5A7
330
1F
100
AcDbEntity
  8
0
100
AcDbCircle
 10
375.6041223382057
 20
163.7247752721122
 30
0.0
 40
1.6
100
AcDbArc
 50
258.3298579999997
 51
67.49491699999973
  0
ARC
  5
5A8
330
1F
100
AcDbEntity
  8
0
100
AcDbCircle
 10
277.6426013382057
 20
192.2550822721121
 30
0.0
 40
52.221498
100
AcDbArc
 50
64.82810799999957
 51
118.0165489999996
  0
ARC
  5
5A9
330
1F
100
AcDbEntity
  8
0
100
AcDbCircle
 10
279.7077633382057
 20
233.4176142721122
 30
0.0
 40
50.009924
100
AcDbArc
 50
66.29006099999944
 51
116.528289
  0
ARC
  5
5AA
330
1F
100
AcDbEntity
  8
0
100
AcDbCircle
 10
358.1900723382057
 20
121.6940842721122
 30
0.0
 40
47.095364
100
AcDbArc
 50
67.49491699999973
 51
115.3808590000004
  0
ARC
  5
5AB
330
1F
100
AcDbEntity
  8
0
100
AcDbCircle
 10
279.9662291462772
 20
268.1558508861703
 30
0.0
 40
9.584598569966013
100
AcDbArc
 50
98.45570581929322
 51
174.488587404881
  0
ARC
  5
5AC
330
1F
100
AcDbEntity
  8
0
100
AcDbCircle
 10
275.9667158259989
 20
228.483479284572
 30
0.0
 40
9.585114564128184
100
AcDbArc
 50
97.09390659150718
 51
174.4869116514339
  0
ARC
  5
5AD
330
1F
100
AcDbEntity
  8
0
100
AcDbCircle
 10
282.8537613382057
 20
173.4283572721122
 30
0.0
 40
65.069326
100
AcDbArc
 50
75.83060400000005
 51
97.12493700000006
  0
ARC
  5
5AE
330
1F
100
AcDbEntity
  8
0
100
AcDbCircle
 10
285.4261403382057
 20
231.6025242721122
 30
0.0
 40
46.54344299999999
100
AcDbArc
 50
73.40800800000042
 51
98.48720099999949
  0
ARC
  5
5AF
330
1F
100
AcDbEntity
  8
0
100
AcDbCircle
 10
282.8537613382057
 20
283.5103462721122
 30
0.0
 40
65.069326
100
AcDbArc
 50
262.8750629999999
 51
284.169396
  0
ARC
  5
5B0
330
1F
100
AcDbEntity
  8
0
100
AcDbCircle
 10
277.6426013382057
 20
264.6836202721122
 30
0.0
 40
52.221498
100
AcDbArc
 50
241.9834510000003
 51
295.1718920000004
  0
ARC
  5
5B1
330
1F
100
AcDbEntity
  8
0
100
AcDbCircle
 10
299.1737133382057
 20
218.8693512721122
 30
0.0
 40
1.6
100
AcDbArc
 50
295.1718920000004
 51
104.1693959999999
  0
ARC
  5
5B2
330
1F
100
AcDbEntity
  8
0
100
AcDbCircle
 10
285.4261403382057
 20
304.6802642721122
 30
0.0
 40
46.54344299999999
100
AcDbArc
 50
261.5127990000005
 51
286.5919919999996
  0
ARC
  5
5B3
330
1F
100
AcDbEntity
  8
0
100
AcDbCircle
 10
279.7077633382057
 20
302.8651742721122
 30
0.0
 40
50.009924
100
AcDbArc
 50
243.4717109999999
 51
293.7099390000005
  0
ARC
  5
5B4
330
1F
100
AcDbEntity
  8
0
100
AcDbCircle
 10
299.1737133382057
 20
258.5413942721122
 30
0.0
 40
1.6
100
AcDbArc
 50
293.7099390000005
 51
106.5919919999996
  0
LINE
  5
5B5
330
1F
100
AcDbEntity
  8
0
100
AcDbLine
 10
260.0872203382057
 20
227.5343512721122
 30
0.0
 11
260.0872203382057
 21
229.4043512721122
 31
0.0
  0
LINE
  5
5B6
330
1F
100
AcDbEntity
  8
0
100
AcDbLine
 10
264.0872203382057
 20
267.2063942721122
 30
0.0
 11
264.0872203382057
 21
269.0763942721122
 31
0.0
  0
ARC
  5
5B7
330
1F
100
AcDbEntity
  8
0
100
AcDbCircle
 10
275.9667158259989
 20
228.4552232596524
 30
0.0
 40
9.58511456412825
100
AcDbArc
 50
188.5018778476244
 51
262.9060934084928
  0
ARC
  5
5B8
330
1F
100
AcDbEntity
  8
0
100
AcDbCircle
 10
279.9662298345605
 20
268.1269389875558
 30
0.0
 40
9.584599986224354
100
AcDbArc
 50
188.5003697239079
 51
261.5442912796005
  0
ARC
  5
5B9
330
1F
100
AcDbEntity
  8
0
100
AcDbCircle
 10
356.4041223382057
 20
151.7247752721122
 30
0.0
 40
5.599999999999999
100
AcDbArc
 50
180.0
 51
259.6883030000005
  0
ARC
  5
5BA
330
1F
100
AcDbEntity
  8
0
100
AcDbCircle
 10
358.792638322097
 20
154.1441896401724
 30
0.0
 40
7.97847898330049
100
AcDbArc
 50
103.1521021093433
 51
173.4103955368828
  0
ARC
  5
5BB
330
1F
100
AcDbEntity
  8
0
100
AcDbCircle
 10
366.6831653382057
 20
120.5337682721122
 30
0.0
 40
42.50268199999999
100
AcDbArc
 50
78.32985799999967
 51
103.2005549999996
  0
ARC
  5
5BC
330
1F
100
AcDbEntity
  8
0
100
AcDbCircle
 10
375.6041223382057
 20
144.5247752721122
 30
0.0
 40
1.6
100
AcDbArc
 50
292.5050830000003
 51
99.66130399999975
  0
ARC
  5
5BD
330
1F
100
AcDbEntity
  8
0
100
AcDbCircle
 10
358.1900723382057
 20
186.5554662721122
 30
0.0
 40
47.095364
100
AcDbArc
 50
244.6191409999996
 51
292.5050830000003
  0
ARC
  5
5BE
330
1F
100
AcDbEntity
  8
0
100
AcDbCircle
 10
365.6899253382057
 20
202.7620172721122
 30
0.0
 40
57.475102
100
AcDbArc
 50
259.6883030000005
 51
279.6613039999997
  0
LINE
  5
5BF
330
1F
100
AcDbEntity
  8
0
100
AcDbLine
 10
350.8041223382057
 20
151.7247752721122
 30
0.0
 11
350.8041223382057
 21
152.6897752721122
 31
0.0
  0
LINE
  5
5C0
330
1F
100
AcDbEntity
  8
0
100
AcDbLine
 10
345.2041223382057
 20
153.1897752721121
 30
0.0
 11
345.2041223382057
 21
155.0597752721122
 31
0.0
  0
ARC
  5
5C1
330
1F
100
AcDbEntity
  8
0
100
AcDbCircle
 10
346.8041223382057
 20
190.0113832721121
 30
0.0
 40
12.0
100
AcDbArc
 50
109.3822350000003
 51
250.6177649999997
  0
ARC
  5
5C2
330
1F
100
AcDbEntity
  8
0
100
AcDbCircle
 10
354.8041223382057
 20
225.1409042721122
 30
0.0
 40
12.0
100
AcDbArc
 50
101.2285719999997
 51
258.7714280000003
  0
ARC
  5
5C3
330
1F
100
AcDbEntity
  8
0
100
AcDbCircle
 10
375.6041223382057
 20
198.0113832721121
 30
0.0
 40
1.6
100
AcDbArc
 50
247.1829569999995
 51
64.19137399999987
  0
ARC
  5
5C4
330
1F
100
AcDbEntity
  8
0
100
AcDbCircle
 10
375.6041223382057
 20
232.3409042721122
 30
0.0
 40
1.6
100
AcDbArc
 50
237.0084080000001
 51
63.79146199999934
  0
LINE
  5
5C5
330
1F
100
AcDbEntity
  8
0
100
AcDbLine
 10
354.8041223382057
 20
187.9758812721122
 30
0.0
 11
354.8041223382057
 21
188.5763832721121
 31
0.0
  0
ARC
  5
5C6
330
1F
100
AcDbEntity
  8
0
100
AcDbCircle
 10
357.3030893382057
 20
160.1684192721122
 30
0.0
 40
43.63590999999999
100
AcDbArc
 50
64.19137399999987
 51
109.3822350000003
  0
ARC
  5
5C7
330
1F
100
AcDbEntity
  8
0
100
AcDbCircle
 10
362.00217758531
 20
190.8145510297139
 30
0.0
 40
7.196484551198756
100
AcDbArc
 50
102.5831556337236
 51
178.9503411599265
  0
ARC
  5
5C8
330
1F
100
AcDbEntity
  8
0
100
AcDbCircle
 10
365.6704023382057
 20
174.3996602721121
 30
0.0
 40
24.01625
100
AcDbArc
 50
67.18295699999948
 51
102.5927679999994
  0
ARC
  5
5C9
330
1F
100
AcDbEntity
  8
0
100
AcDbCircle
 10
365.6704023382057
 20
205.6231062721122
 30
0.0
 40
24.01625
100
AcDbArc
 50
253.3838590000007
 51
292.8170430000005
  0
ARC
  5
5CA
330
1F
100
AcDbEntity
  8
0
100
AcDbCircle
 10
375.6041223382057
 20
182.0113832721121
 30
0.0
 40
1.6
100
AcDbArc
 50
295.8086260000001
 51
112.8170430000005
  0
ARC
  5
5CB
330
1F
100
AcDbEntity
  8
0
100
AcDbCircle
 10
357.3030893382057
 20
219.8543472721122
 30
0.0
 40
43.63590999999999
100
AcDbArc
 50
250.6177649999997
 51
295.8086260000001
  0
ARC
  5
5CC
330
1F
100
AcDbEntity
  8
0
100
AcDbCircle
 10
360.4041223382057
 20
187.9758812721122
 30
0.0
 40
5.599999999999999
100
AcDbArc
 50
180.0
 51
253.3838590000007
  0
LINE
  5
5CD
330
1F
100
AcDbEntity
  8
0
100
AcDbLine
 10
349.2041223382056
 20
189.0763832721122
 30
0.0
 11
349.2041223382056
 21
190.9463832721121
 31
0.0
  0
ARC
  5
5CE
330
1F
100
AcDbEntity
  8
0
100
AcDbCircle
 10
359.7633573382057
 20
200.1603242721122
 30
0.0
 40
37.468085
100
AcDbArc
 50
63.79146199999934
 51
101.2285719999997
  0
ARC
  5
5CF
330
1F
100
AcDbEntity
  8
0
100
AcDbCircle
 10
359.7633573382057
 20
250.1214842721122
 30
0.0
 40
37.468085
100
AcDbArc
 50
258.7714280000003
 51
296.2085380000006
  0
LINE
  5
5D0
330
1F
100
AcDbEntity
  8
0
100
AcDbLine
 10
361.2041223382056
 20
223.0349372721122
 30
0.0
 11
361.2041223382056
 21
223.7059042721122
 31
0.0
  0
ARC
  5
5D1
330
1F
100
AcDbEntity
  8
0
100
AcDbCircle
 10
366.8041223382057
 20
226.7409042721122
 30
0.0
 40
5.599999999999999
100
AcDbArc
 50
112.7095619999994
 51
180.0
  0
ARC
  5
5D2
330
1F
100
AcDbEntity
  8
0
100
AcDbCircle
 10
368.8284323382057
 20
221.9039032721122
 30
0.0
 40
10.843511
100
AcDbArc
 50
57.00840800000007
 51
112.7095619999994
  0
ARC
  5
5D3
330
1F
100
AcDbEntity
  8
0
100
AcDbCircle
 10
368.8284323382057
 20
228.3779042721122
 30
0.0
 40
10.843511
100
AcDbArc
 50
242.1389240000001
 51
302.9915919999999
  0
ARC
  5
5D4
330
1F
100
AcDbEntity
  8
0
100
AcDbCircle
 10
375.6041223382057
 20
217.9409042721122
 30
0.0
 40
1.6
100
AcDbArc
 50
296.2085380000006
 51
122.9915919999999
  0
ARC
  5
5D5
330
1F
100
AcDbEntity
  8
0
100
AcDbCircle
 10
366.0041223382056
 20
223.0349372721122
 30
0.0
 40
4.799999999999999
100
AcDbArc
 50
180.0
 51
242.1389240000001
  0
LINE
  5
5D6
330
1F
100
AcDbEntity
  8
0
100
AcDbLine
 10
355.6041223382057
 20
224.2059042721122
 30
0.0
 11
355.6041223382057
 21
226.0759042721122
 31
0.0
  0
LINE
  5
5D7
330
1F
100
AcDbEntity
  8
0
100
AcDbLine
 10
361.2041223382056
 20
226.0759042721122
 30
0.0
 11
361.2041223382056
 21
226.7409042721122
 31
0.0
  0
LINE
  5
5D8
330
1F
100
AcDbEntity
  8
0
100
AcDbLine
 10
239.3054863382057
 20
123.0744542721122
 30
0.0
 11
239.3054863382057
 21
333.0744542721122
 31
0.0
  0
ARC
  5
5D9
330
1F
100
AcDbEntity
  8
0
100
AcDbCircle
 10
277.6426013382057
 20
154.0978972721122
 30
0.0
 40
52.221498
100
AcDbArc
 50
64.82810799999957
 51
118.0165489999996
  0
ARC
  5
5DA
330
1F
100
AcDbEntity
  8
0
100
AcDbCircle
 10
282.8537613382057
 20
135.2711712721122
 30
0.0
 40
65.069326
100
AcDbArc
 50
75.83060400000005
 51
97.12493700000006
  0
ARC
  5
5DB
330
1F
100
AcDbEntity
  8
0
100
AcDbCircle
 10
282.8537613382057
 20
245.3531602721122
 30
0.0
 40
65.069326
100
AcDbArc
 50
262.8750629999999
 51
284.169396
  0
ARC
  5
5DC
330
1F
100
AcDbEntity
  8
0
100
AcDbCircle
 10
277.6426013382057
 20
226.5264352721122
 30
0.0
 40
52.221498
100
AcDbArc
 50
241.9834510000003
 51
295.1718920000004
  0
ARC
  5
5DD
330
1F
100
AcDbEntity
  8
0
100
AcDbCircle
 10
299.1737133382057
 20
180.7121662721122
 30
0.0
 40
1.6
100
AcDbArc
 50
295.1718920000004
 51
104.1693959999999
  0
ARC
  5
5DE
330
1F
100
AcDbEntity
  8
0
100
AcDbCircle
 10
299.1737133382057
 20
199.9121662721122
 30
0.0
 40
1.6
100
AcDbArc
 50
255.8306040000001
 51
64.82810799999957
  0
ARC
  5
5DF
330
1F
100
AcDbEntity
  8
0
100
AcDbCircle
 10
275.9667158259989
 20
190.2980382596524
 30
0.0
 40
9.585114564128279
100
AcDbArc
 50
188.5018778476244
 51
262.9060934084912
  0
ARC
  5
5E0
330
1F
100
AcDbEntity
  8
0
100
AcDbCircle
 10
275.9431040938773
 20
190.3747898884311
 30
0.0
 40
9.534090191752724
100
AcDbArc
 50
96.98908776331977
 51
174.7500500976858
  0
LINE
  5
5E1
330
1F
100
AcDbEntity
  8
0
100
AcDbLine
 10
260.0872203382057
 20
189.3771662721121
 30
0.0
 11
260.0872203382057
 21
191.2471662721122
 31
0.0
  0
ARC
  5
5E2
330
1F
100
AcDbEntity
  8
0
100
AcDbCircle
 10
258.3737133382057
 20
190.3121662721122
 30
0.0
 40
11.2
100
AcDbArc
 50
118.0165489999996
 51
241.9834510000003
  0
ARC
  5
5E3
330
1F
100
AcDbEntity
  8
0
100
AcDbCircle
 10
277.6426013382057
 20
188.0664152721122
 30
0.0
 40
52.221498
100
AcDbArc
 50
241.9834510000003
 51
295.1718920000004
  0
ARC
  5
5E4
330
1F
100
AcDbEntity
  8
0
100
AcDbCircle
 10
282.8537613382057
 20
206.8931412721122
 30
0.0
 40
65.069326
100
AcDbArc
 50
262.8750629999999
 51
284.169396
  0
ARC
  5
5E5
330
1F
100
AcDbEntity
  8
0
100
AcDbCircle
 10
282.8537613382057
 20
96.81115127211219
 30
0.0
 40
65.069326
100
AcDbArc
 50
75.83060400000005
 51
97.12493700000006
  0
ARC
  5
5E6
330
1F
100
AcDbEntity
  8
0
100
AcDbCircle
 10
277.6426013382057
 20
115.6378772721122
 30
0.0
 40
52.221498
100
AcDbArc
 50
64.82810799999957
 51
118.0165489999996
  0
ARC
  5
5E7
330
1F
100
AcDbEntity
  8
0
100
AcDbCircle
 10
299.1737133382057
 20
142.2521462721122
 30
0.0
 40
1.6
100
AcDbArc
 50
295.1718920000004
 51
104.1693959999999
  0
ARC
  5
5E8
330
1F
100
AcDbEntity
  8
0
100
AcDbCircle
 10
299.1737133382057
 20
161.4521462721122
 30
0.0
 40
1.6
100
AcDbArc
 50
255.8306040000001
 51
64.82810799999957
  0
ARC
  5
5E9
330
1F
100
AcDbEntity
  8
0
100
AcDbCircle
 10
275.9667158259988
 20
151.8380182596524
 30
0.0
 40
9.585114564128222
100
AcDbArc
 50
188.5018778476244
 51
262.9060934084928
  0
ARC
  5
5EA
330
1F
100
AcDbEntity
  8
0
100
AcDbCircle
 10
275.9667158259988
 20
151.8662742845719
 30
0.0
 40
9.58511456412825
100
AcDbArc
 50
97.09390659150718
 51
174.486911651433
  0
LINE
  5
5EB
330
1F
100
AcDbEntity
  8
0
100
AcDbLine
 10
260.0872203382057
 20
150.9171462721122
 30
0.0
 11
260.0872203382057
 21
152.7871462721122
 31
0.0
  0
ARC
  5
5EC
330
1F
100
AcDbEntity
  8
0
100
AcDbCircle
 10
258.3737133382057
 20
151.8521462721122
 30
0.0
 40
11.2
100
AcDbArc
 50
118.0165489999996
 51
241.9834510000003
  0
ARC
  5
5ED
330
1F
100
AcDbEntity
  8
0
100
AcDbCircle
 10
339.7227513382057
 20
276.3079532721122
 30
0.0
 40
6.4
100
AcDbArc
 50
213.0557309999993
 51
270.0
  0
ARC
  5
5EE
330
1F
100
AcDbEntity
  8
0
100
AcDbCircle
 10
331.0928108249466
 20
259.9972357302225
 30
0.0
 40
20.28319148339265
100
AcDbArc
 50
132.3374558638386
 51
187.8043837409941
  0
LINE
  5
5EF
330
1F
100
AcDbEntity
  8
0
100
AcDbLine
 10
340.5714803382057
 20
243.5079532721122
 30
0.0
 11
340.5714803382057
 21
269.9079532721122
 31
0.0
  0
ARC
  5
5F0
330
1F
100
AcDbEntity
  8
0
100
AcDbCircle
 10
324.9714803382056
 20
266.7079532721122
 30
0.0
 40
11.2
100
AcDbArc
 50
33.0557309999993
 51
132.3108970000003
  0
LINE
  5
5F1
330
1F
100
AcDbEntity
  8
0
100
AcDbLine
 10
339.7227513382057
 20
269.9079532721122
 30
0.0
 11
340.5714803382057
 21
269.9079532721122
 31
0.0
  0
ARC
  5
5F2
330
1F
100
AcDbEntity
  8
0
100
AcDbCircle
 10
324.9714803382056
 20
238.3079532721122
 30
0.0
 40
7.599999999999999
100
AcDbArc
 50
180.0
 51
352.2335659999998
  0
ARC
  5
5F3
330
1F
100
AcDbEntity
  8
0
100
AcDbCircle
 10
339.6357223382057
 20
236.3079532721122
 30
0.0
 40
7.2
100
AcDbArc
 50
90.0
 51
172.2335659999997
  0
LINE
  5
5F4
330
1F
100
AcDbEntity
  8
0
100
AcDbLine
 10
322.1714803382057
 20
255.3729532721122
 30
0.0
 11
322.1714803382057
 21
257.2429532721122
 31
0.0
  0
LINE
  5
5F5
330
1F
100
AcDbEntity
  8
0
100
AcDbLine
 10
339.6357223382057
 20
243.5079532721122
 30
0.0
 11
340.5714803382057
 21
243.5079532721122
 31
0.0
  0
LINE
  5
5F6
330
1F
100
AcDbEntity
  8
0
100
AcDbLine
 10
317.3714803382057
 20
238.3079532721122
 30
0.0
 11
317.3714803382057
 21
245.1525362721122
 31
0.0
  0
ARC
  5
5F7
330
1F
100
AcDbEntity
  8
0
100
AcDbCircle
 10
318.1714803382057
 20
252.3079532721122
 30
0.0
 40
7.2
100
AcDbArc
 50
180.0
 51
263.6206300000005
  0
LINE
  5
5F8
330
1F
100
AcDbEntity
  8
0
100
AcDbLine
 10
310.9714803382057
 20
252.3079532721122
 30
0.0
 11
310.9714803382057
 21
254.8729532721122
 31
0.0
  0
CIRCLE
  5
5F9
330
1F
100
AcDbEntity
  8
0
100
AcDbCircle
 10
244.3054863382057
 20
128.0744542721121
 30
0.0
 40
2.0
  0
CIRCLE
  5
5FA
330
1F
100
AcDbEntity
  8
0
100
AcDbCircle
 10
244.3054863382057
 20
328.0744542721122
 30
0.0
 40
2.0
  0
CIRCLE
  5
5FB
330
1F
100
AcDbEntity
  8
0
100
AcDbCircle
 10
382.8054863382057
 20
328.0744542721122
 30
0.0
 40
2.0
  0
CIRCLE
  5
5FC
330
1F
100
AcDbEntity
  8
0
100
AcDbCircle
 10
382.8054863382057
 20
128.0744542721121
 30
0.0
 40
2.0
  0
LINE
  5
5FD
330
1F
100
AcDbEntity
  8
0
100
AcDbLine
 10
262.9005454741192
 20
318.0883247752882
 30
0.0
 11
276.1428584741193
 21
315.7533467752883
 31
0.0
  0
LINE
  5
5FE
330
1F
100
AcDbEntity
  8
0
100
AcDbLine
 10
267.5356812051467
 20
319.1698727684328
 30
0.0
 11
276.4675802051467
 21
317.5949377684328
 31
0.0
  0
LINE
  5
5FF
330
1F
100
AcDbEntity
  8
0
100
AcDbLine
 10
254.9503393382057
 20
308.7248682721122
 30
0.0
 11
273.9503393382057
 21
308.7248682721122
 31
0.0
  0
LINE
  5
600
330
1F
100
AcDbEntity
  8
0
100
AcDbLine
 10
261.9503393382057
 20
306.8548682721122
 30
0.0
 11
273.9503393382057
 21
306.8548682721122
 31
0.0
  0
LINE
  5
601
330
1F
100
AcDbEntity
  8
0
100
AcDbLine
 10
262.9005454694311
 20
297.4914127681095
 30
0.0
 11
276.1428584694311
 21
299.8263897681095
 31
0.0
  0
LINE
  5
602
330
1F
100
AcDbEntity
  8
0
100
AcDbLine
 10
267.5356812120973
 20
296.4098647770172
 30
0.0
 11
276.4675802120974
 21
297.9847987770172
 31
0.0
  0
LINE
  5
603
330
1F
100
AcDbEntity
  8
0
100
AcDbLine
 10
270.4259393382057
 20
269.0763942721122
 30
0.0
 11
264.0872203382057
 21
269.0763942721122
 31
0.0
  0
LINE
  5
604
330
1F
100
AcDbEntity
  8
0
100
AcDbLine
 10
277.4259393382057
 20
267.2063942721122
 30
0.0
 11
264.0872203382057
 21
267.2063942721122
 31
0.0
  0
LINE
  5
605
330
1F
100
AcDbEntity
  8
0
100
AcDbLine
 10
310.9974933382057
 20
257.2429532721122
 30
0.0
 11
322.1714803382057
 21
257.2429532721122
 31
0.0
  0
LINE
  5
606
330
1F
100
AcDbEntity
  8
0
100
AcDbLine
 10
303.9714803382056
 20
255.3729532721122
 30
0.0
 11
322.1714803382057
 21
255.3729532721122
 31
0.0
  0
LINE
  5
607
330
1F
100
AcDbEntity
  8
0
100
AcDbLine
 10
341.8083173382057
 20
279.3498932721123
 30
0.0
 11
360.0083173382057
 21
279.3498932721123
 31
0.0
  0
LINE
  5
608
330
1F
100
AcDbEntity
  8
0
100
AcDbLine
 10
348.8343303382057
 20
277.4798932721122
 30
0.0
 11
360.0083173382057
 21
277.4798932721122
 31
0.0
  0
LINE
  5
609
330
1F
100
AcDbEntity
  8
0
100
AcDbLine
 10
266.4259393382057
 20
229.4043512721122
 30
0.0
 11
260.0872203382057
 21
229.4043512721122
 31
0.0
  0
LINE
  5
60A
330
1F
100
AcDbEntity
  8
0
100
AcDbLine
 10
273.4259393382057
 20
227.5343512721122
 30
0.0
 11
260.0872203382057
 21
227.5343512721122
 31
0.0
  0
LINE
  5
60B
330
1F
100
AcDbEntity
  8
0
100
AcDbLine
 10
266.4490093382057
 20
191.2471662721122
 30
0.0
 11
260.0872203382057
 21
191.2471662721122
 31
0.0
  0
LINE
  5
60C
330
1F
100
AcDbEntity
  8
0
100
AcDbLine
 10
273.4259393382057
 20
189.3771662721121
 30
0.0
 11
260.0872203382057
 21
189.3771662721121
 31
0.0
  0
LINE
  5
60D
330
1F
100
AcDbEntity
  8
0
100
AcDbLine
 10
266.4259393382057
 20
152.7871462721122
 30
0.0
 11
260.0872203382057
 21
152.7871462721122
 31
0.0
  0
LINE
  5
60E
330
1F
100
AcDbEntity
  8
0
100
AcDbLine
 10
273.4259393382057
 20
150.9171462721122
 30
0.0
 11
260.0872203382057
 21
150.9171462721122
 31
0.0
  0
LINE
  5
60F
330
1F
100
AcDbEntity
  8
0
100
AcDbLine
 10
357.8041223382057
 20
153.1897752721121
 30
0.0
 11
345.2041223382057
 21
153.1897752721121
 31
0.0
  0
LINE
  5
610
330
1F
100
AcDbEntity
  8
0
100
AcDbLine
 10
350.8668683382057
 20
155.0597752721122
 30
0.0
 11
345.2041223382057
 21
155.0597752721122
 31
0.0
  0
LINE
  5
611
330
1F
100
AcDbEntity
  8
0
100
AcDbLine
 10
354.8069013382057
 20
190.9463832721121
 30
0.0
 11
349.2041223382056
 21
190.9463832721121
 31
0.0
  0
LINE
  5
612
330
1F
100
AcDbEntity
  8
0
100
AcDbLine
 10
361.8041223382057
 20
189.0763832721122
 30
0.0
 11
349.2041223382056
 21
189.0763832721122
 31
0.0
  0
LINE
  5
613
330
1F
100
AcDbEntity
  8
0
100
AcDbLine
 10
361.2041223382056
 20
226.0759042721122
 30
0.0
 11
355.6041223382057
 21
226.0759042721122
 31
0.0
  0
LINE
  5
614
330
1F
100
AcDbEntity
  8
0
100
AcDbLine
 10
368.2041223382057
 20
224.2059042721122
 30
0.0
 11
355.6041223382057
 21
224.2059042721122
 31
0.0
  0
ARC
  5
702
330
1F
100
AcDbEntity
  8
0
100
AcDbCircle
 10
466.4431373526733
 20
165.2601621422107
 30
0.0
 40
9.599999999999999
100
AcDbArc
 50
45.0213300000004
 51
129.5260479999985
  0
ARC
  5
703
330
1F
100
AcDbEntity
  8
0
100
AcDbCircle
 10
465.7009282546147
 20
150.7618595631067
 30
0.0
 40
9.506646327174307
100
AcDbArc
 50
224.9315734370767
 51
258.906826142085
  0
ARC
  5
704
330
1F
100
AcDbEntity
  8
0
100
AcDbCircle
 10
472.6501933526733
 20
157.7373701422106
 30
0.0
 40
19.352945
100
AcDbArc
 50
129.5260479999985
 51
225.0213300000004
  0
ARC
  5
705
330
1F
100
AcDbEntity
  8
0
100
AcDbCircle
 10
459.5493313526733
 20
158.3612211422106
 30
0.0
 40
19.352945
100
AcDbArc
 50
309.5260479999985
 51
327.7127940000002
  0
ARC
  5
706
330
1F
100
AcDbEntity
  8
0
100
AcDbCircle
 10
462.8997623526733
 20
197.2492961422106
 30
0.0
 40
43.362657
100
AcDbArc
 50
298.1276419999991
 51
326.1237390000002
  0
ARC
  5
707
330
1F
100
AcDbEntity
  8
0
100
AcDbCircle
 10
481.8339413526733
 20
161.8298681422106
 30
0.0
 40
3.2
100
AcDbArc
 50
188.8472159999994
 51
298.1276419999991
  0
ARC
  5
708
330
1F
100
AcDbEntity
  8
0
100
AcDbCircle
 10
459.5493313526733
 20
158.3612211422106
 30
0.0
 40
19.352945
100
AcDbArc
 50
8.847215999999443
 51
45.0213300000004
  0
ARC
  5
709
330
1F
100
AcDbEntity
  8
0
100
AcDbCircle
 10
502.2222913526733
 20
170.8492961422106
 30
0.0
 40
4.0
100
AcDbArc
 50
20.70348299999919
 51
146.1237390000001
  0
ARC
  5
70A
330
1F
100
AcDbEntity
  8
0
100
AcDbCircle
 10
526.0997623526733
 20
142.0492961422106
 30
0.0
 40
1.6
100
AcDbArc
 50
229.1208950000005
 51
51.52784200000061
  0
ARC
  5
70B
330
1F
100
AcDbEntity
  8
0
100
AcDbCircle
 10
569.0579393526733
 20
196.1090251422106
 30
0.0
 40
67.449687
100
AcDbArc
 50
200.7034829999992
 51
231.5278420000006
  0
ARC
  5
70C
330
1F
100
AcDbEntity
  8
0
100
AcDbCircle
 10
502.2222913526733
 20
164.4492961422106
 30
0.0
 40
2.399999999999999
100
AcDbArc
 50
30.68318699999926
 51
145.6745559999987
  0
ARC
  5
70D
330
1F
100
AcDbEntity
  8
0
100
AcDbCircle
 10
591.1761763526733
 20
217.2309481422106
 30
0.0
 40
101.034503
100
AcDbArc
 50
210.6831869999993
 51
229.1208950000005
  0
ARC
  5
70E
330
1F
100
AcDbEntity
  8
0
100
AcDbCircle
 10
473.1870703526733
 20
184.2746801422106
 30
0.0
 40
32.75807
100
AcDbArc
 50
286.1012579999995
 51
325.6745559999988
  0
ARC
  5
70F
330
1F
100
AcDbEntity
  8
0
100
AcDbCircle
 10
485.3782143526733
 20
142.0409501422106
 30
0.0
 40
11.2
100
AcDbArc
 50
106.1012579999994
 51
147.7127940000001
  0
CIRCLE
  5
710
330
1F
100
AcDbEntity
  8
0
100
AcDbCircle
 10
470.0997623526733
 20
162.8492961422106
 30
0.0
 40
1.6
  0
ARC
  5
711
330
1F
100
AcDbEntity
  8
0
100
AcDbCircle
 10
513.3228588909141
 20
241.6933286129053
 30
0.0
 40
9.506635488051696
100
AcDbArc
 50
44.93156291193498
 51
78.90685872349883
  0
ARC
  5
712
330
1F
100
AcDbEntity
  8
0
100
AcDbCircle
 10
512.5806433526734
 20
227.1950171422107
 30
0.0
 40
9.599999999999999
100
AcDbArc
 50
225.0213300000004
 51
309.5260479999985
  0
ARC
  5
713
330
1F
100
AcDbEntity
  8
0
100
AcDbCircle
 10
506.3735863526733
 20
234.7178091422106
 30
0.0
 40
19.352945
100
AcDbArc
 50
309.5260479999985
 51
45.0213300000004
  0
CIRCLE
  5
714
330
1F
100
AcDbEntity
  8
0
100
AcDbCircle
 10
508.9240173526733
 20
229.6058831422107
 30
0.0
 40
1.6
  0
ARC
  5
715
330
1F
100
AcDbEntity
  8
0
100
AcDbCircle
 10
505.8367103526733
 20
208.1804991422107
 30
0.0
 40
32.75807
100
AcDbArc
 50
106.1012579999994
 51
146.5240790000007
  0
ARC
  5
716
330
1F
100
AcDbEntity
  8
0
100
AcDbCircle
 10
376.7204193526733
 20
214.6898971422106
 30
0.0
 40
101.034503
100
AcDbArc
 50
6.767799999999957
 51
25.5358779999996
  0
ARC
  5
717
330
1F
100
AcDbEntity
  8
0
100
AcDbCircle
 10
516.1240173526732
 20
195.2058831422106
 30
0.0
 40
43.362657
100
AcDbArc
 50
118.1276419999991
 51
146.1237390000001
  0
ARC
  5
718
330
1F
100
AcDbEntity
  8
0
100
AcDbCircle
 10
405.4421423526733
 20
225.1977361422106
 30
0.0
 40
67.449687
100
AcDbArc
 50
357.1184650000005
 51
27.94282400000016
  0
ARC
  5
719
330
1F
100
AcDbEntity
  8
0
100
AcDbCircle
 10
519.4744493526733
 20
234.0939581422107
 30
0.0
 40
19.352945
100
AcDbArc
 50
188.8472159999994
 51
225.0213300000004
  0
ARC
  5
71A
330
1F
100
AcDbEntity
  8
0
100
AcDbCircle
 10
476.8014893526733
 20
221.6058831422107
 30
0.0
 40
4.0
100
AcDbArc
 50
177.1184650000006
 51
326.1237390000002
  0
ARC
  5
71B
330
1F
100
AcDbEntity
  8
0
100
AcDbCircle
 10
519.4744493526733
 20
234.0939581422107
 30
0.0
 40
19.352945
100
AcDbArc
 50
129.5260479999985
 51
147.7127940000001
  0
ARC
  5
71C
330
1F
100
AcDbEntity
  8
0
100
AcDbCircle
 10
497.1898393526733
 20
230.6253111422106
 30
0.0
 40
3.2
100
AcDbArc
 50
8.847215999999443
 51
118.1276419999991
  0
ARC
  5
71D
330
1F
100
AcDbEntity
  8
0
100
AcDbCircle
 10
493.6455653526733
 20
250.4142291422107
 30
0.0
 40
11.2
100
AcDbArc
 50
286.1012579999995
 51
327.7127940000002
  0
ARC
  5
71E
330
1F
100
AcDbEntity
  8
0
100
AcDbCircle
 10
466.4417163526733
 20
257.5537451422107
 30
0.0
 40
1.6
100
AcDbArc
 50
25.5358779999996
 51
207.9428240000002
  0
ARC
  5
71F
330
1F
100
AcDbEntity
  8
0
100
AcDbCircle
 10
477.8453293526733
 20
226.6906771422107
 30
0.0
 40
0.8
100
AcDbArc
 50
186.7677999999999
 51
326.5240790000007
  0
ARC
  5
720
330
1F
100
AcDbEntity
  8
0
100
AcDbCircle
 10
547.0558303526733
 20
272.2773441422106
 30
0.0
 40
16.0
100
AcDbArc
 50
171.231973
 51
171.5667579999994
  0
ARC
  5
721
330
1F
100
AcDbEntity
  8
0
100
AcDbCircle
 10
563.8558303526734
 20
309.8773441422106
 30
0.0
 40
4.799999999999999
100
AcDbArc
 50
39.1410990000016
 51
113.1125290000007
  0
ARC
  5
722
330
1F
100
AcDbEntity
  8
0
100
AcDbCircle
 10
581.8416158492811
 20
267.5378307172326
 30
0.0
 40
50.80132951195693
100
AcDbArc
 50
113.0248857352361
 51
136.2922521070031
  0
ARC
  5
723
330
1F
100
AcDbEntity
  8
0
100
AcDbCircle
 10
555.3775505511951
 20
270.9252460874739
 30
0.0
 40
24.43031528535611
100
AcDbArc
 50
171.2922674302002
 51
180.1675934055264
  0
ARC
  5
724
330
1F
100
AcDbEntity
  8
0
100
AcDbCircle
 10
565.4558303526733
 20
271.4773441422106
 30
0.0
 40
14.4
100
AcDbArc
 50
157.793349
 51
270.0
  0
ARC
  5
725
330
1F
100
AcDbEntity
  8
0
100
AcDbCircle
 10
567.8558303526734
 20
295.4773441422107
 30
0.0
 40
1.6
100
AcDbArc
 50
31.76696300000019
 51
128.9317989999994
  0
ARC
  5
726
330
1F
100
AcDbEntity
  8
0
100
AcDbCircle
 10
597.9635453526733
 20
258.2067881422107
 30
0.0
 40
49.51209399999999
100
AcDbArc
 50
128.9317989999994
 51
157.793349
  0
ARC
  5
727
330
1F
100
AcDbEntity
  8
0
100
AcDbCircle
 10
581.0558303526732
 20
271.8773441422106
 30
0.0
 40
2.799999999999999
100
AcDbArc
 50
188.335765
 51
4.32031599999982
  0
ARC
  5
728
330
1F
100
AcDbEntity
  8
0
100
AcDbCircle
 10
569.4558303526732
 20
249.8773441422107
 30
0.0
 40
7.2
100
AcDbArc
 50
337.3801349999997
 51
90.0
  0
LINE
  5
729
330
1F
100
AcDbEntity
  8
0
100
AcDbLine
 10
569.4558303526732
 20
257.0773441422107
 30
0.0
 11
565.4558303526733
 21
257.0773441422107
 31
0.0
  0
ARC
  5
72A
330
1F
100
AcDbEntity
  8
0
100
AcDbCircle
 10
513.8390403526732
 20
262.0286191422107
 30
0.0
 40
65.13448499999999
100
AcDbArc
 50
8.335765000000064
 51
31.76696300000019
  0
ARC
  5
72B
330
1F
100
AcDbEntity
  8
0
100
AcDbCircle
 10
510.6278783526733
 20
266.5567251422107
 30
0.0
 40
73.42864499999999
100
AcDbArc
 50
4.32031599999982
 51
39.1410990000016
  0
ARC
  5
72C
330
1F
100
AcDbEntity
  8
0
100
AcDbCircle
 10
590.2558303526732
 20
239.4773441422107
 30
0.0
 40
16.0
100
AcDbArc
 50
157.3801349999996
 51
175.3741359999999
  0
LINE
  5
72D
330
1F
100
AcDbEntity
  8
0
100
AcDbLine
 10
575.4865993526733
 20
245.6311901422107
 30
0.0
 11
576.1019843526733
 21
247.1081131422106
 31
0.0
  0
ARC
  5
72E
330
1F
100
AcDbEntity
  8
0
100
AcDbCircle
 10
835.2769583526733
 20
219.6520861422107
 30
0.0
 40
261.821874
100
AcDbArc
 50
175.3741359999999
 51
186.584854
  0
LINE
  5
72F
330
1F
100
AcDbEntity
  8
0
100
AcDbLine
 10
570.4139573526734
 20
184.2773441422106
 30
0.0
 11
568.7908303526732
 21
184.2773441422106
 31
0.0
  0
ARC
  5
730
330
1F
100
AcDbEntity
  8
0
100
AcDbCircle
 10
555.0558303526733
 20
234.6773441422107
 30
0.0
 40
3.2
100
AcDbArc
 50
90.0
 51
270.0
  0
ARC
  5
731
330
1F
100
AcDbEntity
  8
0
100
AcDbCircle
 10
557.0558303526732
 20
239.8773441422107
 30
0.0
 40
2.0
100
AcDbArc
 50
270.0
 51
73.84605799999886
  0
LINE
  5
732
330
1F
100
AcDbEntity
  8
0
100
AcDbLine
 10
555.0558303526733
 20
237.8773441422107
 30
0.0
 11
557.0558303526732
 21
237.8773441422107
 31
0.0
  0
LINE
  5
733
330
1F
100
AcDbEntity
  8
0
100
AcDbLine
 10
557.6122683526732
 20
241.7983791422106
 30
0.0
 11
552.8780895589871
 21
243.2033372296129
 31
0.0
  0
ARC
  5
734
330
1F
100
AcDbEntity
  8
0
100
AcDbCircle
 10
551.0558303526733
 20
213.0773441422106
 30
0.0
 40
14.4
100
AcDbArc
 50
90.0
 51
168.2585099999996
  0
ARC
  5
735
330
1F
100
AcDbEntity
  8
0
100
AcDbCircle
 10
557.0558303526732
 20
229.4773441422107
 30
0.0
 40
2.0
100
AcDbArc
 50
270.0
 51
90.0
  0
LINE
  5
736
330
1F
100
AcDbEntity
  8
0
100
AcDbLine
 10
555.0558303526733
 20
231.4773441422107
 30
0.0
 11
557.0558303526732
 21
231.4773441422107
 31
0.0
  0
LINE
  5
737
330
1F
100
AcDbEntity
  8
0
100
AcDbLine
 10
557.0558303526732
 20
227.4773441422107
 30
0.0
 11
551.0558303526733
 21
227.4773441422107
 31
0.0
  0
ARC
  5
738
330
1F
100
AcDbEntity
  8
0
100
AcDbCircle
 10
539.8558303526733
 20
196.2773441422106
 30
0.0
 40
3.2
100
AcDbArc
 50
190.3340160000002
 51
241.9275130000006
  0
ARC
  5
739
330
1F
100
AcDbEntity
  8
0
100
AcDbCircle
 10
588.8745572789307
 20
205.2167250780141
 30
0.0
 40
53.0270031072274
100
AcDbArc
 50
168.25832814558
 51
179.4644826416647
  0
ARC
  5
73A
330
1F
100
AcDbEntity
  8
0
100
AcDbCircle
 10
538.2558303526732
 20
189.8773441422106
 30
0.0
 40
3.2
100
AcDbArc
 50
0.0
 51
61.92751300000052
  0
ARC
  5
73B
330
1F
100
AcDbEntity
  8
0
100
AcDbCircle
 10
541.4558303526733
 20
179.4773441422106
 30
0.0
 40
3.2
100
AcDbArc
 50
258.7434049999995
 51
27.00000000000032
  0
LINE
  5
73C
330
1F
100
AcDbEntity
  8
0
100
AcDbLine
 10
544.3070513526733
 20
180.9301131422106
 30
0.0
 11
541.8046093526733
 21
185.8414321422106
 31
0.0
  0
LINE
  5
73D
330
1F
100
AcDbEntity
  8
0
100
AcDbLine
 10
539.7617133526733
 20
192.7008731422106
 30
0.0
 11
538.3499483526732
 21
193.4538141422106
 31
0.0
  0
LINE
  5
73E
330
1F
100
AcDbEntity
  8
0
100
AcDbLine
 10
541.4558303526733
 20
189.8773441422106
 30
0.0
 11
541.4558303526733
 21
187.2942011422106
 31
0.0
  0
ARC
  5
73F
330
1F
100
AcDbEntity
  8
0
100
AcDbCircle
 10
544.6558303526733
 20
187.2942011422106
 30
0.0
 40
3.2
100
AcDbArc
 50
180.0
 51
207.0000000000003
  0
ARC
  5
740
330
1F
100
AcDbEntity
  8
0
100
AcDbCircle
 10
540.6558303526733
 20
155.4773441422106
 30
0.0
 40
12.8
100
AcDbArc
 50
214.6951539999994
 51
271.331862000001
  0
ARC
  5
741
330
1F
100
AcDbEntity
  8
0
100
AcDbCircle
 10
533.3841023185128
 20
165.6888879785259
 30
0.0
 40
12.9954526607197
100
AcDbArc
 50
55.0366326426692
 51
111.9949817541588
  0
LINE
  5
742
330
1F
100
AcDbEntity
  8
0
100
AcDbLine
 10
530.1317703526733
 20
148.1914561422106
 30
0.0
 11
522.9317703526732
 21
158.5914561422106
 31
0.0
  0
ARC
  5
743
330
1F
100
AcDbEntity
  8
0
100
AcDbCircle
 10
540.6558303526733
 20
155.4773441422106
 30
0.0
 40
12.8
100
AcDbArc
 50
352.0223140000006
 51
14.79622100000063
  0
ARC
  5
744
330
1F
100
AcDbEntity
  8
0
100
AcDbCircle
 10
551.0558303526733
 20
143.4773441422106
 30
0.0
 40
5.599999999999999
100
AcDbArc
 50
228.157227000001
 51
28.15722700000008
  0
LINE
  5
745
330
1F
100
AcDbEntity
  8
0
100
AcDbLine
 10
547.3201333526733
 20
139.3054661422106
 30
0.0
 11
545.3714703526733
 21
141.0503911422106
 31
0.0
  0
LINE
  5
746
330
1F
100
AcDbEntity
  8
0
100
AcDbLine
 10
555.9931043526733
 20
146.1199431422106
 30
0.0
 11
554.0274183526732
 21
149.7925121422106
 31
0.0
  0
ARC
  5
747
330
1F
100
AcDbEntity
  8
0
100
AcDbCircle
 10
559.6700163526732
 20
152.8126251422106
 30
0.0
 40
6.4
100
AcDbArc
 50
172.0223140000005
 51
208.1572270000001
  0
ARC
  5
748
330
1F
100
AcDbEntity
  8
0
100
AcDbCircle
 10
541.1021013526733
 20
136.2825311422106
 30
0.0
 40
6.4
100
AcDbArc
 50
48.15722700000105
 51
91.33186200000102
  0
ARC
  5
749
330
1F
100
AcDbEntity
  8
0
100
AcDbCircle
 10
555.0558303526733
 20
169.8773441422106
 30
0.0
 40
4.799999999999999
100
AcDbArc
 50
90.0
 51
194.7962210000006
  0
ARC
  5
74A
330
1F
100
AcDbEntity
  8
0
100
AcDbCircle
 10
555.8558303526734
 20
179.4773441422106
 30
0.0
 40
4.799999999999999
100
AcDbArc
 50
270.0
 51
0.0
  0
LINE
  5
74B
330
1F
100
AcDbEntity
  8
0
100
AcDbLine
 10
555.0558303526733
 20
174.6773441422106
 30
0.0
 11
555.8558303526734
 21
174.6773441422106
 31
0.0
  0
LINE
  5
74C
330
1F
100
AcDbEntity
  8
0
100
AcDbLine
 10
553.0313853526734
 20
158.7462331422106
 30
0.0
 11
550.4149973526733
 21
168.6515101422106
 31
0.0
  0
ARC
  5
74D
330
1F
100
AcDbEntity
  8
0
100
AcDbCircle
 10
565.4558303526733
 20
181.0773441422106
 30
0.0
 40
4.799999999999999
100
AcDbArc
 50
90.0
 51
180.0
  0
LINE
  5
74E
330
1F
100
AcDbEntity
  8
0
100
AcDbLine
 10
565.4558303526733
 20
185.8773441422106
 30
0.0
 11
566.9208303526732
 21
185.8773441422106
 31
0.0
  0
LINE
  5
74F
330
1F
100
AcDbEntity
  8
0
100
AcDbLine
 10
560.6558303526733
 20
179.4773441422106
 30
0.0
 11
560.6558303526733
 21
181.0773441422106
 31
0.0
  0
ARC
  5
750
330
1F
100
AcDbEntity
  8
0
100
AcDbCircle
 10
570.4139573526734
 20
189.0773441422106
 30
0.0
 40
4.799999999999999
100
AcDbArc
 50
270.0
 51
6.584853999999999
  0
LINE
  5
751
330
1F
100
AcDbEntity
  8
0
100
AcDbLine
 10
568.7908303526732
 20
198.6773441422106
 30
0.0
 11
566.9208303526732
 21
198.6773441422106
 31
0.0
  0
LINE
  5
752
330
1F
100
AcDbEntity
  8
0
100
AcDbLine
 10
508.4288383526732
 20
266.9987681422107
 30
0.0
 11
508.451069663249
 21
267.9144911621033
 31
0.0
  0
ARC
  5
753
330
1F
100
AcDbEntity
  8
0
100
AcDbCircle
 10
468.4288383526733
 20
289.7175891422106
 30
0.0
 40
6.4
100
AcDbArc
 50
124.7473179999987
 51
235.2526820000013
  0
LINE
  5
754
330
1F
100
AcDbEntity
  8
0
100
AcDbLine
 10
491.8850143526733
 20
256.1773521422107
 30
0.0
 11
494.0410614576473
 21
257.5299471831422
 31
0.0
  0
LINE
  5
755
330
1F
100
AcDbEntity
  8
0
100
AcDbLine
 10
498.0288383526732
 20
261.7902281422106
 30
0.0
 11
498.0288383526732
 21
262.9386241422106
 31
0.0
  0
ARC
  5
756
330
1F
100
AcDbEntity
  8
0
100
AcDbCircle
 10
466.8288383526733
 20
280.1175891422107
 30
0.0
 40
2.399999999999999
100
AcDbArc
 50
334.6200279999995
 51
55.25268200000132
  0
ARC
  5
757
330
1F
100
AcDbEntity
  8
0
100
AcDbCircle
 10
470.8288383526734
 20
272.9175891422106
 30
0.0
 40
6.000000000000048
100
AcDbArc
 50
115.5445070000015
 51
190.1325479999994
  0
ARC
  5
758
330
1F
100
AcDbEntity
  8
0
100
AcDbCircle
 10
476.4288383526733
 20
260.9175891422107
 30
0.0
 40
7.2
100
AcDbArc
 50
33.22862799999916
 51
110.4330499999985
  0
LINE
  5
759
330
1F
100
AcDbEntity
  8
0
100
AcDbLine
 10
468.1967383526733
 20
282.0896061422106
 30
0.0
 11
464.7811043526733
 21
284.4588781422107
 31
0.0
  0
LINE
  5
75A
330
1F
100
AcDbEntity
  8
0
100
AcDbLine
 10
472.9235133526732
 20
267.2951041422107
 30
0.0
 11
473.9152273526733
 21
267.6645711422107
 31
0.0
  0
LINE
  5
75B
330
1F
100
AcDbEntity
  8
0
100
AcDbLine
 10
487.5125023526733
 20
257.1375661422106
 30
0.0
 11
482.4515703526733
 21
264.8630541422107
 31
0.0
  0
ARC
  5
75C
330
1F
100
AcDbEntity
  8
0
100
AcDbCircle
 10
467.5516263526733
 20
279.7746941422107
 30
0.0
 40
1.6
100
AcDbArc
 50
295.5445070000015
 51
334.6200279999995
  0
LINE
  5
75D
330
1F
100
AcDbEntity
  8
0
100
AcDbLine
 10
468.1967383526733
 20
297.3455721422106
 30
0.0
 11
464.7811043526733
 21
294.9763001422107
 31
0.0
  0
ARC
  5
75E
330
1F
100
AcDbEntity
  8
0
100
AcDbCircle
 10
490.1892723526733
 20
258.8911061422107
 30
0.0
 40
3.2
100
AcDbArc
 50
213.2286279999992
 51
302.0000000000014
  0
LINE
  5
75F
330
1F
100
AcDbEntity
  8
0
100
AcDbLine
 10
499.8515153526732
 20
264.5230531422106
 30
0.0
 11
504.7834843526733
 21
263.8299101422107
 31
0.0
  0
ARC
  5
760
330
1F
100
AcDbEntity
  8
0
100
AcDbCircle
 10
494.8288383526732
 20
261.7902281422106
 30
0.0
 40
3.2
100
AcDbArc
 50
302.0000000000014
 51
0.0
  0
ARC
  5
761
330
1F
100
AcDbEntity
  8
0
100
AcDbCircle
 10
499.6288383526732
 20
262.9386241422106
 30
0.0
 40
1.6
100
AcDbArc
 50
81.99999999999922
 51
180.0
  0
LINE
  5
762
330
1F
100
AcDbEntity
  8
0
100
AcDbLine
 10
501.2288383526733
 20
283.5623471422106
 30
0.0
 11
501.2288383526733
 21
288.2825891422107
 31
0.0
  0
ARC
  5
763
330
1F
100
AcDbEntity
  8
0
100
AcDbCircle
 10
505.2288383526733
 20
266.9987681422107
 30
0.0
 40
3.2
100
AcDbArc
 50
261.9999999999992
 51
0.0
  0
LINE
  5
764
330
1F
100
AcDbEntity
  8
0
100
AcDbLine
 10
503.5184493526734
 20
278.2966001422106
 30
0.0
 11
507.4112323526732
 21
274.6665211422106
 31
0.0
  0
ARC
  5
765
330
1F
100
AcDbEntity
  8
0
100
AcDbCircle
 10
505.2288383526733
 20
272.3261891422106
 30
0.0
 40
3.2
100
AcDbArc
 50
0.0
 51
47.00000000000019
  0
ARC
  5
766
330
1F
100
AcDbEntity
  8
0
100
AcDbCircle
 10
508.4288383526732
 20
283.5623471422106
 30
0.0
 40
7.2
100
AcDbArc
 50
180.0
 51
227.0000000000002
  0
ARC
  5
767
330
1F
100
AcDbEntity
  8
0
100
AcDbCircle
 10
508.4288383526732
 20
295.8728311422106
 30
0.0
 40
7.2
100
AcDbArc
 50
132.9999999999998
 51
180.0
  0
LINE
  5
768
330
1F
100
AcDbEntity
  8
0
100
AcDbLine
 10
468.1967383526733
 20
297.3455721422106
 30
0.0
 11
464.7811043526733
 21
294.9763001422107
 31
0.0
  0
ARC
  5
769
330
1F
100
AcDbEntity
  8
0
100
AcDbCircle
 10
475.9712473526733
 20
196.4519561422106
 30
0.0
 40
6.4
100
AcDbArc
 50
97.15266900000109
 51
262.8473309999989
  0
ARC
  5
76A
330
1F
100
AcDbEntity
  8
0
100
AcDbCircle
 10
475.1849623849195
 20
183.6842727131049
 30
0.0
 40
6.366234426350528
100
AcDbArc
 50
18.66315200645122
 51
82.93359055958545
  0
ARC
  5
76B
330
1F
100
AcDbEntity
  8
0
100
AcDbCircle
 10
487.1210503526732
 20
182.8519561422107
 30
0.0
 40
6.4
100
AcDbArc
 50
187.1807560000005
 51
301.5769049999982
  0
LINE
  5
76C
330
1F
100
AcDbEntity
  8
0
100
AcDbLine
 10
475.9681343526732
 20
190.0021511422106
 30
0.0
 11
475.1743603526732
 21
190.1017621422106
 31
0.0
  0
LINE
  5
76D
330
1F
100
AcDbEntity
  8
0
100
AcDbLine
 10
480.7712473526733
 20
182.0519561422106
 30
0.0
 11
481.1867482214394
 21
183.8174096462119
 31
0.0
  0
ARC
  5
76E
330
1F
100
AcDbEntity
  8
0
100
AcDbCircle
 10
497.5712473526733
 20
184.4519561422106
 30
0.0
 40
6.4
100
AcDbArc
 50
255.8326870000003
 51
311.3290349999996
  0
ARC
  5
76F
330
1F
100
AcDbEntity
  8
0
100
AcDbCircle
 10
508.7712473526734
 20
180.4519561422106
 30
0.0
 40
4.0
100
AcDbArc
 50
61.72860999999931
 51
131.3290350000001
  0
LINE
  5
770
330
1F
100
AcDbEntity
  8
0
100
AcDbLine
 10
506.1297183526733
 20
183.4556751422106
 30
0.0
 11
501.7976933526733
 21
179.6460071422106
 31
0.0
  0
ARC
  5
771
330
1F
100
AcDbEntity
  8
0
100
AcDbCircle
 10
494.2425883526732
 20
171.2655981422106
 30
0.0
 40
7.2
100
AcDbArc
 50
75.83268700000025
 51
121.5769049999982
  0
ARC
  5
772
330
1F
100
AcDbEntity
  8
0
100
AcDbCircle
 10
523.1712473526734
 20
189.2519561422107
 30
0.0
 40
1.6
100
AcDbArc
 50
334.7206600000006
 51
126.8698979999996
  0
ARC
  5
773
330
1F
100
AcDbEntity
  8
0
100
AcDbCircle
 10
518.3714256368057
 20
195.6501378991013
 30
0.0
 40
6.398438505314532
100
AcDbArc
 50
185.6700073649914
 51
306.8783898612279
  0
ARC
  5
774
330
1F
100
AcDbEntity
  8
0
100
AcDbCircle
 10
515.4619093526732
 20
192.8927431422106
 30
0.0
 40
10.125797
100
AcDbArc
 50
241.7286099999993
 51
334.7206600000006
  0
ARC
  5
775
330
1F
100
AcDbEntity
  8
0
100
AcDbCircle
 10
487.1210503526732
 20
210.0519561422106
 30
0.0
 40
6.4
100
AcDbArc
 50
58.42309500000181
 51
172.8192439999995
  0
ARC
  5
776
330
1F
100
AcDbEntity
  8
0
100
AcDbCircle
 10
515.4619093526732
 20
200.0111701422107
 30
0.0
 40
10.125797
100
AcDbArc
 50
25.27933999999939
 51
118.2713900000007
  0
ARC
  5
777
330
1F
100
AcDbEntity
  8
0
100
AcDbCircle
 10
518.3714256368055
 20
197.25377438532
 30
0.0
 40
6.398438505314573
100
AcDbArc
 50
53.12161013877207
 51
178.8073178031324
  0
ARC
  5
778
330
1F
100
AcDbEntity
  8
0
100
AcDbCircle
 10
523.1712473526734
 20
203.6519561422106
 30
0.0
 40
1.6
100
AcDbArc
 50
233.1301020000004
 51
25.27933999999939
  0
LINE
  5
779
330
1F
100
AcDbEntity
  8
0
100
AcDbLine
 10
506.1297183526733
 20
209.4482381422106
 30
0.0
 11
501.7976933526733
 21
213.2579061422107
 31
0.0
  0
ARC
  5
77A
330
1F
100
AcDbEntity
  8
0
100
AcDbCircle
 10
508.7712473526734
 20
212.4519561422107
 30
0.0
 40
4.0
100
AcDbArc
 50
228.6709649999998
 51
298.2713900000007
  0
ARC
  5
77B
330
1F
100
AcDbEntity
  8
0
100
AcDbCircle
 10
494.2425883526732
 20
221.6383141422106
 30
0.0
 40
7.2
100
AcDbArc
 50
238.4230950000018
 51
284.1673129999998
  0
ARC
  5
77C
330
1F
100
AcDbEntity
  8
0
100
AcDbCircle
 10
497.5712473526733
 20
208.4519561422107
 30
0.0
 40
6.4
100
AcDbArc
 50
48.67096499999981
 51
104.1673129999997
  0
LINE
  5
77D
330
1F
100
AcDbEntity
  8
0
100
AcDbLine
 10
593.6730253526733
 20
333.0744541422106
 30
0.0
 11
445.1730253526733
 21
333.0744541422106
 31
0.0
  0
LINE
  5
77E
330
1F
100
AcDbEntity
  8
0
100
AcDbLine
 10
593.6730253526733
 20
123.0744541422106
 30
0.0
 11
445.1730253526733
 21
123.0744541422106
 31
0.0
  0
LINE
  5
77F
330
1F
100
AcDbEntity
  8
0
100
AcDbLine
 10
593.6730253526733
 20
123.0744541422106
 30
0.0
 11
593.6730253526733
 21
333.0744541422106
 31
0.0
  0
LINE
  5
780
330
1F
100
AcDbEntity
  8
0
100
AcDbLine
 10
445.1730253526733
 20
123.0744541422106
 30
0.0
 11
445.1730253526733
 21
333.0744541422106
 31
0.0
  0
CIRCLE
  5
781
330
1F
100
AcDbEntity
  8
0
100
AcDbCircle
 10
450.1730253526733
 20
328.0744541422107
 30
0.0
 40
2.0
  0
CIRCLE
  5
782
330
1F
100
AcDbEntity
  8
0
100
AcDbCircle
 10
588.6730253526733
 20
328.0744541422107
 30
0.0
 40
2.0
  0
CIRCLE
  5
783
330
1F
100
AcDbEntity
  8
0
100
AcDbCircle
 10
588.6730253526733
 20
128.0744541422106
 30
0.0
 40
2.0
  0
CIRCLE
  5
784
330
1F
100
AcDbEntity
  8
0
100
AcDbCircle
 10
450.1730253526733
 20
128.0744541422106
 30
0.0
 40
2.0
  0
LINE
  5
785
330
1F
100
AcDbEntity
  8
0
100
AcDbLine
 10
464.3647623526732
 20
153.2492961422106
 30
0.0
 11
466.2347623526733
 21
153.2492961422106
 31
0.0
  0
ARC
  5
786
330
1F
100
AcDbEntity
  8
0
100
AcDbCircle
 10
465.7736443229456
 20
150.8090834864798
 30
0.0
 40
9.566383194064238
100
AcDbArc
 50
272.7628371137049
 51
309.5581920176235
  0
LINE
  5
787
330
1F
100
AcDbEntity
  8
0
100
AcDbLine
 10
492.6567402214395
 20
185.8398786462119
 30
0.0
 11
492.3320174851345
 21
187.6814686384258
 31
0.0
  0
LINE
  5
788
330
1F
100
AcDbEntity
  8
0
100
AcDbLine
 10
498.3712473526733
 20
195.5169561422106
 30
0.0
 11
498.3712473526733
 21
197.3869561422106
 31
0.0
  0
ARC
  5
789
330
1F
100
AcDbEntity
  8
0
100
AcDbCircle
 10
475.1849623849196
 20
209.2196395713164
 30
0.0
 40
6.366234426350506
100
AcDbArc
 50
277.0664094404145
 51
341.336847993548
  0
LINE
  5
78A
330
1F
100
AcDbEntity
  8
0
100
AcDbLine
 10
475.9681343526732
 20
202.9017621422106
 30
0.0
 11
475.1743603526732
 21
202.8021511422106
 31
0.0
  0
LINE
  5
78B
330
1F
100
AcDbEntity
  8
0
100
AcDbLine
 10
480.7712473526733
 20
210.8519561422107
 30
0.0
 11
481.1867482214394
 21
209.0865036382094
 31
0.0
  0
LINE
  5
78C
330
1F
100
AcDbEntity
  8
0
100
AcDbLine
 10
492.6567402214395
 20
207.0640346382094
 30
0.0
 11
492.3320175017961
 21
205.2224436430576
 31
0.0
  0
LINE
  5
78D
330
1F
100
AcDbEntity
  8
0
100
AcDbLine
 10
501.2288383526733
 20
290.6525891422107
 30
0.0
 11
501.2288383526733
 21
295.8728311422106
 31
0.0
  0
LINE
  5
78E
330
1F
100
AcDbEntity
  8
0
100
AcDbLine
 10
489.2288383526733
 20
290.6525891422107
 30
0.0
 11
489.2288383526733
 21
288.7825891422107
 31
0.0
  0
LINE
  5
78F
330
1F
100
AcDbEntity
  8
0
100
AcDbLine
 10
499.0879996849846
 20
271.3223701541922
 30
0.0
 11
499.727578020362
 21
273.0795951302291
 31
0.0
  0
LINE
  5
790
330
1F
100
AcDbEntity
  8
0
100
AcDbLine
 10
490.8927432401143
 20
265.0446691117188
 30
0.0
 11
489.3798814652322
 21
263.9455111727025
 31
0.0
  0
LINE
  5
791
330
1F
100
AcDbEntity
  8
0
100
AcDbLine
 10
473.8688382084709
 20
272.5738149564247
 30
0.0
 11
473.3221034968758
 21
274.3621053279966
 31
0.0
  0
LINE
  5
792
330
1F
100
AcDbEntity
  8
0
100
AcDbLine
 10
508.4066070447139
 20
269.9206871213657
 30
0.0
 11
508.4288383526732
 21
272.3261891422106
 31
0.0
  0
LINE
  5
793
330
1F
100
AcDbEntity
  8
0
100
AcDbLine
 10
495.6361272479817
 20
258.5159611008903
 30
0.0
 11
496.5245793526732
 21
259.0764741422106
 31
0.0
  0
ARC
  5
794
330
1F
100
AcDbEntity
  8
0
100
AcDbCircle
 10
470.8289206673529
 20
272.8882027631753
 30
0.0
 40
5.972442531651763
100
AcDbArc
 50
208.4874966236547
 51
290.5307298197215
  0
LINE
  5
795
330
1F
100
AcDbEntity
  8
0
100
AcDbLine
 10
491.8850143526733
 20
323.2578261422107
 30
0.0
 11
494.0410614576473
 21
321.9052311012791
 31
0.0
  0
ARC
  5
796
330
1F
100
AcDbEntity
  8
0
100
AcDbCircle
 10
490.1892723526733
 20
320.5440721422106
 30
0.0
 40
3.2
100
AcDbArc
 50
57.99999999999862
 51
146.7713720000008
  0
LINE
  5
797
330
1F
100
AcDbEntity
  8
0
100
AcDbLine
 10
487.5125023526733
 20
322.2976121422107
 30
0.0
 11
482.4515703526733
 21
314.5721241422107
 31
0.0
  0
LINE
  5
798
330
1F
100
AcDbEntity
  8
0
100
AcDbLine
 10
490.8927432401143
 20
314.3905091727025
 30
0.0
 11
489.3798814652322
 21
315.4896671117188
 31
0.0
  0
LINE
  5
799
330
1F
100
AcDbEntity
  8
0
100
AcDbLine
 10
499.8515153526732
 20
314.9121251422106
 30
0.0
 11
504.7834843526733
 21
315.6052681422107
 31
0.0
  0
LINE
  5
79A
330
1F
100
AcDbEntity
  8
0
100
AcDbLine
 10
495.6361272479817
 20
320.919217183531
 30
0.0
 11
496.5245793526732
 21
320.3587041422107
 31
0.0
  0
ARC
  5
79B
330
1F
100
AcDbEntity
  8
0
100
AcDbCircle
 10
499.6288383526732
 20
316.4965541422107
 30
0.0
 40
1.6
100
AcDbArc
 50
180.0
 51
278.0000000000008
  0
ARC
  5
79C
330
1F
100
AcDbEntity
  8
0
100
AcDbCircle
 10
494.8288383526732
 20
317.6449501422106
 30
0.0
 40
3.2
100
AcDbArc
 50
0.0
 51
57.99999999999862
  0
LINE
  5
79D
330
1F
100
AcDbEntity
  8
0
100
AcDbLine
 10
498.0288383526732
 20
317.6449501422106
 30
0.0
 11
498.0288383526732
 21
316.4965541422107
 31
0.0
  0
LINE
  5
79E
330
1F
100
AcDbEntity
  8
0
100
AcDbLine
 10
508.4288383526732
 20
312.4364101422107
 30
0.0
 11
508.451069663249
 21
311.520687122318
 31
0.0
  0
ARC
  5
79F
330
1F
100
AcDbEntity
  8
0
100
AcDbCircle
 10
505.2288383526733
 20
312.4364101422107
 30
0.0
 40
3.2
100
AcDbArc
 50
0.0
 51
98.00000000000077
  0
LINE
  5
7A0
330
1F
100
AcDbEntity
  8
0
100
AcDbLine
 10
499.0879996849846
 20
308.1128081302291
 30
0.0
 11
499.727578020362
 21
306.3555831541922
 31
0.0
  0
LINE
  5
7A1
330
1F
100
AcDbEntity
  8
0
100
AcDbLine
 10
508.4066070447139
 20
309.5144911630556
 30
0.0
 11
508.4288383526732
 21
307.1089891422107
 31
0.0
  0
ARC
  5
7A2
330
1F
100
AcDbEntity
  8
0
100
AcDbCircle
 10
505.2288383526733
 20
307.1089891422107
 30
0.0
 40
3.2
100
AcDbArc
 50
312.9999999999999
 51
0.0
  0
LINE
  5
7A3
330
1F
100
AcDbEntity
  8
0
100
AcDbLine
 10
503.5184493526734
 20
301.1385781422106
 30
0.0
 11
507.4112323526732
 21
304.7686571422106
 31
0.0
  0
ARC
  5
7A4
330
1F
100
AcDbEntity
  8
0
100
AcDbCircle
 10
470.8289206673529
 20
306.5469755212461
 30
0.0
 40
5.9724425316517
100
AcDbArc
 50
69.46927018027857
 51
151.5125033763453
  0
ARC
  5
7A5
330
1F
100
AcDbEntity
  8
0
100
AcDbCircle
 10
476.4288383526733
 20
318.5175891422107
 30
0.0
 40
7.2
100
AcDbArc
 50
249.5669500000015
 51
326.7713720000009
  0
LINE
  5
7A6
330
1F
100
AcDbEntity
  8
0
100
AcDbLine
 10
472.9235133526732
 20
312.1400741422107
 30
0.0
 11
473.9152273526733
 21
311.7706081422107
 31
0.0
  0
ARC
  5
7A7
330
1F
100
AcDbEntity
  8
0
100
AcDbCircle
 10
466.8288383526733
 20
299.3175891422106
 30
0.0
 40
2.399999999999999
100
AcDbArc
 50
304.7473179999987
 51
25.37997200000049
  0
ARC
  5
7A8
330
1F
100
AcDbEntity
  8
0
100
AcDbCircle
 10
470.815814190522
 20
306.5041921344829
 30
0.0
 40
5.982299348611931
100
AcDbArc
 50
169.1010995056348
 51
244.5127103200646
  0
ARC
  5
7A9
330
1F
100
AcDbEntity
  8
0
100
AcDbCircle
 10
467.5516263526733
 20
299.6604851422106
 30
0.0
 40
1.6
100
AcDbArc
 50
25.37997200000049
 51
64.4554929999985
  0
LINE
  5
7AA
330
1F
100
AcDbEntity
  8
0
100
AcDbLine
 10
473.8688382084709
 20
306.8613633279965
 30
0.0
 11
473.3221034968758
 21
305.0730729564248
 31
0.0
  0
LINE
  5
7AB
330
1F
100
AcDbEntity
  8
0
100
AcDbLine
 10
512.7890173526733
 20
239.2058831422106
 30
0.0
 11
514.6590173526733
 21
239.2058831422106
 31
0.0
  0
ARC
  5
7AC
330
1F
100
AcDbEntity
  8
0
100
AcDbCircle
 10
513.2501366220371
 20
241.6460953904001
 30
0.0
 40
9.566383660884744
100
AcDbArc
 50
92.7628444119537
 51
129.5581915696642
  0
ARC
  5
7AD
330
1F
100
AcDbEntity
  8
0
100
AcDbCircle
 10
593.9548206870361
 20
205.9545495674924
 30
0.0
 40
58.15768474635355
100
AcDbArc
 50
182.5743582631807
 51
190.1523593013374
  0
ARC
  5
7AE
330
1F
100
AcDbEntity
  8
0
100
AcDbCircle
 10
533.4816153948878
 20
165.8825568684451
 30
0.0
 40
12.8241716060112
100
AcDbArc
 50
121.4580208539078
 51
214.6487280536846
  0
LINE
  5
7AF
330
1F
100
AcDbEntity
  8
0
100
AcDbLine
 10
539.6397652916622
 20
163.9711200847761
 30
0.0
 11
540.9620544118961
 21
165.2934092014335
 31
0.0
  0
LINE
  5
7B0
330
1F
100
AcDbEntity
  8
0
100
AcDbLine
 10
549.4558303526733
 20
205.2123441422106
 30
0.0
 11
549.4558303526733
 21
203.3423441422106
 31
0.0
  0
LINE
  5
7B1
330
1F
100
AcDbEntity
  8
0
100
AcDbLine
 10
558.2200705444813
 20
248.3620282156048
 30
0.0
 11
556.9210591608652
 21
249.7071930688165
 31
0.0
  0
LINE
  5
7B2
330
1F
100
AcDbEntity
  8
0
100
AcDbLine
 10
547.4384703553814
 20
253.0676097950201
 30
0.0
 11
546.5034703499652
 21
254.6870774894012
 31
0.0
  0
LINE
  5
7B3
330
1F
100
AcDbEntity
  8
0
100
AcDbLine
 10
540.9330798398243
 20
261.7425209621432
 30
0.0
 11
540.2024128655223
 21
263.4638653222781
 31
0.0
  0
LINE
  5
7B4
330
1F
100
AcDbEntity
  8
0
100
AcDbLine
 10
540.4200539125108
 20
271.6246831489958
 30
0.0
 11
539.9046117928357
 21
273.4222421354254
 31
0.0
  0
LINE
  5
7B5
330
1F
100
AcDbEntity
  8
0
100
AcDbLine
 10
542.7271883526732
 20
281.7423441422107
 30
0.0
 11
542.7271883526732
 21
283.6123441422106
 31
0.0
  0
LINE
  5
7B6
330
1F
100
AcDbEntity
  8
0
100
AcDbLine
 10
546.1030648197809
 20
291.0357975459731
 30
0.0
 11
546.1683268855657
 21
292.9046587384482
 31
0.0
  0
LINE
  5
7B7
330
1F
100
AcDbEntity
  8
0
100
AcDbLine
 10
551.8398135931717
 20
298.9036513202317
 30
0.0
 11
552.3238051121747
 21
300.7099319641897
 31
0.0
  0
ARC
  5
7B8
330
1F
100
AcDbEntity
  8
0
100
AcDbCircle
 10
559.0956761492837
 20
270.662899895252
 30
0.0
 40
28.17192975175678
100
AcDbArc
 50
229.5116121488972
 51
252.7808005279847
  0
ARC
  5
7B9
330
1F
100
AcDbEntity
  8
0
100
AcDbCircle
 10
559.288894981101
 20
270.7534364347882
 30
0.0
 40
28.41666507437111
100
AcDbArc
 50
205.2636605333894
 51
225.3476047522129
  0
ARC
  5
7BA
330
1F
100
AcDbEntity
  8
0
100
AcDbCircle
 10
559.3519323642241
 20
270.6848307364118
 30
0.0
 40
28.44812218720199
100
AcDbArc
 50
183.5732740794482
 51
201.3172666198556
  0
ARC
  5
7BB
330
1F
100
AcDbEntity
  8
0
100
AcDbCircle
 10
586.2567218300896
 20
266.0871517850302
 30
0.0
 40
55.68655438758946
100
AcDbArc
 50
163.672308206342
 51
171.08557210817
  0
ARC
  5
7BC
330
1F
100
AcDbEntity
  8
0
100
AcDbCircle
 10
583.4356233408991
 20
266.6618388344388
 30
0.0
 40
52.77119620751363
100
AcDbArc
 50
152.0931560016053
 51
161.264033418711
  0
ARC
  5
7BD
330
1F
100
AcDbEntity
  8
0
100
AcDbCircle
 10
582.2211404263437
 20
267.2449399434135
 30
0.0
 40
51.35073888855573
100
AcDbArc
 50
138.7439661551315
 51
149.647926142679
  0
LINE
  5
7BE
330
1F
100
AcDbEntity
  8
0
100
AcDbLine
 10
466.2347623526733
 20
141.2538201422106
 30
0.0
 11
466.2347623526733
 21
153.2492961422106
 31
0.0
  0
LINE
  5
7BF
330
1F
100
AcDbEntity
  8
0
100
AcDbLine
 10
464.3647623526732
 20
134.3495811422106
 30
0.0
 11
464.3647623526732
 21
153.2492961422106
 31
0.0
  0
LINE
  5
7C0
330
1F
100
AcDbEntity
  8
0
100
AcDbLine
 10
539.6397652916622
 20
163.9711200847761
 30
0.0
 11
526.7890172916621
 21
176.8218670847761
 31
0.0
  0
LINE
  5
7C1
330
1F
100
AcDbEntity
  8
0
100
AcDbLine
 10
540.9620544118961
 20
165.2934092014335
 30
0.0
 11
528.5169754118961
 21
177.7384882014335
 31
0.0
  0
LINE
  5
7C2
330
1F
100
AcDbEntity
  8
0
100
AcDbLine
 10
566.9208303526732
 20
185.8773441422106
 30
0.0
 11
566.9208303526732
 21
198.6773441422106
 31
0.0
  0
LINE
  5
7C3
330
1F
100
AcDbEntity
  8
0
100
AcDbLine
 10
568.7908303526732
 20
184.2773441422106
 30
0.0
 11
568.7908303526732
 21
198.6773441422106
 31
0.0
  0
LINE
  5
7C4
330
1F
100
AcDbEntity
  8
0
100
AcDbLine
 10
535.8558303526733
 20
203.3423441422106
 30
0.0
 11
549.4558303526733
 21
203.3423441422106
 31
0.0
  0
LINE
  5
7C5
330
1F
100
AcDbEntity
  8
0
100
AcDbLine
 10
528.8475543526733
 20
205.2123441422106
 30
0.0
 11
549.4558303526733
 21
205.2123441422106
 31
0.0
  0
LINE
  5
7C6
330
1F
100
AcDbEntity
  8
0
100
AcDbLine
 10
552.8780895589871
 20
243.2033372296129
 30
0.0
 11
558.2200705589872
 21
248.3620282296129
 31
0.0
  0
LINE
  5
7C7
330
1F
100
AcDbEntity
  8
0
100
AcDbLine
 10
550.7559921428373
 20
243.7536580514071
 30
0.0
 11
556.9210591428372
 21
249.7071930514071
 31
0.0
  0
LINE
  5
7C8
330
1F
100
AcDbEntity
  8
0
100
AcDbLine
 10
540.8038133527046
 20
249.2370887934748
 30
0.0
 11
547.4384703527046
 21
253.0676097934748
 31
0.0
  0
LINE
  5
7C9
330
1F
100
AcDbEntity
  8
0
100
AcDbLine
 10
539.3175523544848
 20
250.5382854920105
 30
0.0
 11
546.5034703544847
 21
254.6870774920105
 31
0.0
  0
LINE
  5
7CA
330
1F
100
AcDbEntity
  8
0
100
AcDbLine
 10
533.5901868304029
 20
258.6256479581441
 30
0.0
 11
540.9330798304028
 21
261.742520958144
 31
0.0
  0
LINE
  5
7CB
330
1F
100
AcDbEntity
  8
0
100
AcDbLine
 10
532.8501818766977
 20
260.3430283270218
 30
0.0
 11
540.2024128655223
 21
263.4638653222781
 31
0.0
  0
LINE
  5
7CC
330
1F
100
AcDbEntity
  8
0
100
AcDbLine
 10
530.9591159203738
 20
268.9118021512505
 30
0.0
 11
540.4200539203738
 21
271.6246831512505
 31
0.0
  0
LINE
  5
7CD
330
1F
100
AcDbEntity
  8
0
100
AcDbLine
 10
530.9473397781267
 20
270.8537861312077
 30
0.0
 11
539.9046117781265
 21
273.4222421312077
 31
0.0
  0
LINE
  5
7CE
330
1F
100
AcDbEntity
  8
0
100
AcDbLine
 10
532.8160323526733
 20
281.7423441422107
 30
0.0
 11
542.7271883526732
 21
281.7423441422107
 31
0.0
  0
LINE
  5
7CF
330
1F
100
AcDbEntity
  8
0
100
AcDbLine
 10
533.4608353526732
 20
283.6123441422106
 30
0.0
 11
542.7271883526732
 21
283.6123441422106
 31
0.0
  0
LINE
  5
7D0
330
1F
100
AcDbEntity
  8
0
100
AcDbLine
 10
536.8012038189558
 20
291.3606255460019
 30
0.0
 11
546.1030648189558
 21
291.035797546002
 31
0.0
  0
LINE
  5
7D1
330
1F
100
AcDbEntity
  8
0
100
AcDbLine
 10
537.9087058879094
 20
293.1930907383663
 30
0.0
 11
546.1683268879093
 21
292.9046587383664
 31
0.0
  0
LINE
  5
7D2
330
1F
100
AcDbEntity
  8
0
100
AcDbLine
 10
543.6171765910053
 20
301.1069003208122
 30
0.0
 11
551.8398135910053
 21
298.9036513208122
 31
0.0
  0
LINE
  5
7D3
330
1F
100
AcDbEntity
  8
0
100
AcDbLine
 10
545.118670115592
 20
302.640541963274
 30
0.0
 11
552.3238051155921
 21
300.709931963274
 31
0.0
  0
LINE
  5
7D4
330
1F
100
AcDbEntity
  8
0
100
AcDbLine
 10
518.9743733526732
 20
195.5169561422106
 30
0.0
 11
498.3712473526733
 21
195.5169561422106
 31
0.0
  0
LINE
  5
7D5
330
1F
100
AcDbEntity
  8
0
100
AcDbLine
 10
511.9743733526733
 20
197.3869561422106
 30
0.0
 11
498.3712473526733
 21
197.3869561422106
 31
0.0
  0
LINE
  5
7D6
330
1F
100
AcDbEntity
  8
0
100
AcDbLine
 10
492.3320174851345
 20
187.6814686384258
 30
0.0
 11
481.2164364851345
 21
185.7214916384258
 31
0.0
  0
LINE
  5
7D7
330
1F
100
AcDbEntity
  8
0
100
AcDbLine
 10
492.6567402214395
 20
185.8398786462119
 30
0.0
 11
481.1867482214394
 21
183.8174096462119
 31
0.0
  0
LINE
  5
7D8
330
1F
100
AcDbEntity
  8
0
100
AcDbLine
 10
492.3320174851345
 20
205.2224436459955
 30
0.0
 11
481.2164364851345
 21
207.1824206459954
 31
0.0
  0
LINE
  5
7D9
330
1F
100
AcDbEntity
  8
0
100
AcDbLine
 10
492.6567402214395
 20
207.0640346382094
 30
0.0
 11
481.1867482214394
 21
209.0865036382094
 31
0.0
  0
LINE
  5
7DA
330
1F
100
AcDbEntity
  8
0
100
AcDbLine
 10
512.7890173526733
 20
251.2013591422106
 30
0.0
 11
512.7890173526733
 21
239.2058831422106
 31
0.0
  0
LINE
  5
7DB
330
1F
100
AcDbEntity
  8
0
100
AcDbLine
 10
514.6590173526733
 20
258.1055971422106
 30
0.0
 11
514.6590173526733
 21
239.2058831422106
 31
0.0
  0
LINE
  5
7DC
330
1F
100
AcDbEntity
  8
0
100
AcDbLine
 10
489.3798814576473
 20
263.9455111831422
 30
0.0
 11
494.0410614576473
 21
257.5299471831422
 31
0.0
  0
LINE
  5
7DD
330
1F
100
AcDbEntity
  8
0
100
AcDbLine
 10
490.8927432479817
 20
265.0446691008903
 30
0.0
 11
495.6361272479817
 21
258.5159611008903
 31
0.0
  0
LINE
  5
7DE
330
1F
100
AcDbEntity
  8
0
100
AcDbLine
 10
499.0879996632489
 20
271.3223701621033
 30
0.0
 11
508.451069663249
 21
267.9144911621033
 31
0.0
  0
LINE
  5
7DF
330
1F
100
AcDbEntity
  8
0
100
AcDbLine
 10
499.7275780447139
 20
273.0795951213657
 30
0.0
 11
508.4066070447139
 21
269.9206871213657
 31
0.0
  0
LINE
  5
7E0
330
1F
100
AcDbEntity
  8
0
100
AcDbLine
 10
465.5796141925677
 20
270.0395449515627
 30
0.0
 11
473.8688381925678
 21
272.5738149515627
 31
0.0
  0
LINE
  5
7E1
330
1F
100
AcDbEntity
  8
0
100
AcDbLine
 10
464.941421516065
 20
271.7998733338633
 30
0.0
 11
473.322103516065
 21
274.3621053338633
 31
0.0
  0
LINE
  5
7E2
330
1F
100
AcDbEntity
  8
0
100
AcDbLine
 10
489.2288383526733
 20
288.7825891422107
 30
0.0
 11
508.2288383526733
 21
288.7825891422107
 31
0.0
  0
LINE
  5
7E3
330
1F
100
AcDbEntity
  8
0
100
AcDbLine
 10
489.2288383526733
 20
290.6525891422107
 30
0.0
 11
501.2288383526733
 21
290.6525891422107
 31
0.0
  0
LINE
  5
7E4
330
1F
100
AcDbEntity
  8
0
100
AcDbLine
 10
499.7275780447139
 20
306.3555831630556
 30
0.0
 11
508.4066070447139
 21
309.5144911630556
 31
0.0
  0
LINE
  5
7E5
330
1F
100
AcDbEntity
  8
0
100
AcDbLine
 10
499.0879996632489
 20
308.112808122318
 30
0.0
 11
508.451069663249
 21
311.520687122318
 31
0.0
  0
LINE
  5
7E6
330
1F
100
AcDbEntity
  8
0
100
AcDbLine
 10
490.8927432479817
 20
314.390509183531
 30
0.0
 11
495.6361272479817
 21
320.919217183531
 31
0.0
  0
LINE
  5
7E7
330
1F
100
AcDbEntity
  8
0
100
AcDbLine
 10
489.3798814576473
 20
315.4896671012791
 30
0.0
 11
494.0410614576473
 21
321.9052311012791
 31
0.0
  0
LINE
  5
7E8
330
1F
100
AcDbEntity
  8
0
100
AcDbLine
 10
465.5796141925677
 20
309.3956333328587
 30
0.0
 11
473.8688381925678
 21
306.8613633328586
 31
0.0
  0
LINE
  5
7E9
330
1F
100
AcDbEntity
  8
0
100
AcDbLine
 10
464.941421516065
 20
307.635304950558
 30
0.0
 11
473.322103516065
 21
305.0730729505581
 31
0.0
  0
ENDSEC
  0
SECTION
  2
OBJECTS
  0
DICTIONARY
  5
C
330
0
100
AcDbDictionary
281
     1
  3
ACAD_2007HEADERVARS_RT
350
804
  3
ACAD_COLOR
350
BE
  3
ACAD_GROUP
350
D
  3
ACAD_LAYOUT
350
1A
  3
ACAD_MATERIAL
350
BD
  3
ACAD_MLINESTYLE
350
17
  3
ACAD_PLOTSETTINGS
350
19
  3
ACAD_PLOTSTYLENAME
350
E
  3
ACAD_TABLESTYLE
350
11A
  3
ACAD_VISUALSTYLE
350
26E
  3
AcDbVariableDictionary
350
94
  3
AcmDictionary
350
5B
  3
AMG
350
41
  3
AMGSNAPSETTINGS
350
2BD
  3
DWGPROPS
350
803
  0
DICTIONARY
  5
8F
330
1F
100
AcDbDictionary
280
     1
281
     1
  0
DICTIONARY
  5
804
102
{ACAD_REACTORS
330
C
102
}
330
C
100
AcDbDictionary
281
     1
  3
DIMARCSYM
350
805
  0
DICTIONARY
  5
BE
102
{ACAD_REACTORS
330
C
102
}
330
C
100
AcDbDictionary
281
     1
  0
DICTIONARY
  5
D
102
{ACAD_REACTORS
330
C
102
}
330
C
100
AcDbDictionary
281
     1
  0
DICTIONARY
  5
1A
102
{ACAD_REACTORS
330
C
102
}
330
C
100
AcDbDictionary
281
     1
  3
Layout1
350
1E
  3
Layout2
350
26
  3
Model
350
22
  0
DICTIONARY
  5
BD
102
{ACAD_REACTORS
330
C
102
}
330
C
100
AcDbDictionary
281
     1
  3
ByBlock
350
26C
  3
ByLayer
350
26B
  3
Global
350
26D
  0
DICTIONARY
  5
17
102
{ACAD_REACTORS
330
C
102
}
330
C
100
AcDbDictionary
281
     1
  3
Standard
350
18
  0
DICTIONARY
  5
19
102
{ACAD_REACTORS
330
C
102
}
330
C
100
AcDbDictionary
281
     1
  0
ACDBDICTIONARYWDFLT
  5
E
102
{ACAD_REACTORS
330
C
102
}
330
C
100
AcDbDictionary
281
     1
  3
Normal
350
F
100
AcDbDictionaryWithDefault
340
F
  0
DICTIONARY
  5
11A
102
{ACAD_REACTORS
330
C
102
}
330
C
100
AcDbDictionary
281
     1
  3
Standard
350
11B
  0
DICTIONARY
  5
26E
102
{ACAD_REACTORS
330
C
102
}
330
C
100
AcDbDictionary
281
     1
  3
2dWireframe
350
274
  3
3D Hidden
350
276
  3
3dWireframe
350
275
  3
Basic
350
273
  3
Brighten
350
27A
  3
ColorChange
350
27E
  3
Conceptual
350
277
  3
Dim
350
279
  3
Facepattern
350
27D
  3
Flat
350
26F
  3
FlatWithEdges
350
270
  3
Gouraud
350
271
  3
GouraudWithEdges
350
272
  3
Linepattern
350
27C
  3
Realistic
350
278
  3
Thicken
350
27B
  0
DICTIONARY
  5
94
102
{ACAD_REACTORS
330
C
102
}
330
C
100
AcDbDictionary
281
     1
  3
CTABLESTYLE
350
138
  3
DIMASSOC
350
96
  3
INDEXCTL
350
95
  3
SORTENTS
350
802
  0
DICTIONARY
  5
5B
102
{ACAD_REACTORS
330
C
102
}
330
C
100
AcDbDictionary
281
     1
  3
AcmBOM
350
2C4
  3
AcmStdDictionary
350
61
  3
AMDTSECTSYM_ARROWCOLOR
350
123
  0
DICTIONARY
  5
41
102
{ACAD_REACTORS
330
C
102
}
330
C
100
AcDbDictionary
281
     1
  0
DICTIONARY
  5
2BD
102
{ACAD_REACTORS
330
C
102
}
330
C
100
AcDbDictionary
281
     1
  0
XRECORD
  5
803
102
{ACAD_REACTORS
330
C
102
}
330
C
100
AcDbXrecord
280
     1
  1
DWGPROPS COOKIE
  2

  3

  4

  6

  7

  8
Arni&N�na
  9

300
AmdtFileType=84
301
=
302
=
303
=
304
=
305
=
306
=
307
=
308
=
309
=
 40
0.003122650462963
 41
2454225.009879375
 42
2454225.012638345
  1

 90
        1
  0
XRECORD
  5
805
102
{ACAD_REACTORS
330
804
102
}
330
804
100
AcDbXrecord
280
     1
 70
     1
  0
LAYOUT
  5
1E
102
{ACAD_XDICTIONARY
360
806
102
}
102
{ACAD_REACTORS
330
1A
102
}
330
1A
100
AcDbPlotSettings
  1

  2

  4

  6

 40
0.0
 41
0.0
 42
0.0
 43
0.0
 44
0.0
 45
0.0
 46
0.0
 47
0.0
 48
0.0
 49
0.0
140
0.0
141
0.0
142
1.0
143
1.0
 70
   688
 72
     0
 73
     0
 74
     5
  7

 75
    16
147
1.0
148
0.0
149
0.0
100
AcDbLayout
  1
Layout1
 70
     1
 71
     1
 10
0.0
 20
0.0
 11
420.0
 21
297.0
 12
0.0
 22
0.0
 32
0.0
 14
1.000000000000000E+20
 24
1.000000000000000E+20
 34
1.000000000000000E+20
 15
-1.000000000000000E+20
 25
-1.000000000000000E+20
 35
-1.000000000000000E+20
146
0.0
 13
0.0
 23
0.0
 33
0.0
 16
1.0
 26
0.0
 36
0.0
 17
0.0
 27
1.0
 37
0.0
 76
     0
330
1B
  0
LAYOUT
  5
26
102
{ACAD_XDICTIONARY
360
80A
102
}
102
{ACAD_REACTORS
330
1A
102
}
330
1A
100
AcDbPlotSettings
  1

  2

  4

  6

 40
0.0
 41
0.0
 42
0.0
 43
0.0
 44
0.0
 45
0.0
 46
0.0
 47
0.0
 48
0.0
 49
0.0
140
0.0
141
0.0
142
1.0
143
1.0
 70
   688
 72
     0
 73
     0
 74
     5
  7

 75
    16
147
1.0
148
0.0
149
0.0
100
AcDbLayout
  1
Layout2
 70
     1
 71
     2
 10
0.0
 20
0.0
 11
12.0
 21
9.0
 12
0.0
 22
0.0
 32
0.0
 14
0.0
 24
0.0
 34
0.0
 15
0.0
 25
0.0
 35
0.0
146
0.0
 13
0.0
 23
0.0
 33
0.0
 16
1.0
 26
0.0
 36
0.0
 17
0.0
 27
1.0
 37
0.0
 76
     0
330
23
  0
LAYOUT
  5
22
102
{ACAD_XDICTIONARY
360
808
102
}
102
{ACAD_REACTORS
330
1A
102
}
330
1A
100
AcDbPlotSettings
  1

  2

  4

  6

 40
0.0
 41
0.0
 42
0.0
 43
0.0
 44
0.0
 45
0.0
 46
0.0
 47
0.0
 48
0.0
 49
0.0
140
0.0
141
0.0
142
1.0
143
1.0
 70
  1712
 72
     0
 73
     0
 74
     0
  7

 75
     0
147
1.0
148
0.0
149
0.0
100
AcDbLayout
  1
Model
 70
     1
 71
     0
 10
0.0
 20
0.0
 11
12.0
 21
9.0
 12
0.0
 22
0.0
 32
0.0
 14
0.0
 24
0.0
 34
0.0
 15
0.0
 25
0.0
 35
0.0
146
0.0
 13
0.0
 23
0.0
 33
0.0
 16
1.0
 26
0.0
 36
0.0
 17
0.0
 27
1.0
 37
0.0
 76
     0
330
1F
331
269
  0
MATERIAL
  5
26C
102
{ACAD_XDICTIONARY
360
810
102
}
102
{ACAD_REACTORS
330
BD
102
}
330
BD
100
AcDbMaterial
  1
ByBlock
  0
MATERIAL
  5
26B
102
{ACAD_XDICTIONARY
360
80E
102
}
102
{ACAD_REACTORS
330
BD
102
}
330
BD
100
AcDbMaterial
  1
ByLayer
  0
MATERIAL
  5
26D
102
{ACAD_XDICTIONARY
360
812
102
}
102
{ACAD_REACTORS
330
BD
102
}
330
BD
100
AcDbMaterial
  1
Global
  0
MLINESTYLE
  5
18
102
{ACAD_REACTORS
330
17
102
}
330
17
100
AcDbMlineStyle
  2
STANDARD
 70
     0
  3

 62
   256
 51
90.0
 52
90.0
 71
     2
 49
0.5
 62
   256
  6
BYLAYER
 49
-0.5
 62
   256
  6
BYLAYER
  0
ACDBPLACEHOLDER
  5
F
102
{ACAD_REACTORS
330
E
102
}
330
E
  0
TABLESTYLE
  5
11B
102
{ACAD_XDICTIONARY
360
80C
102
}
102
{ACAD_REACTORS
330
11A
102
}
330
11A
100
AcDbTableStyle
  3
Standard
 70
     0
 71
     0
 40
1.5
 41
1.5
280
     0
281
     0
  7
STANDARD
140
4.5
170
     2
 62
     0
 63
     7
283
     0
274
    -2
284
     1
 64
     0
275
    -2
285
     1
 65
     0
276
    -2
286
     1
 66
     0
277
    -2
287
     1
 67
     0
278
    -2
288
     1
 68
     0
279
    -2
289
     1
 69
     0
  7
STANDARD
140
6.0
170
     5
 62
     0
 63
     7
283
     0
274
    -2
284
     1
 64
     0
275
    -2
285
     1
 65
     0
276
    -2
286
     1
 66
     0
277
    -2
287
     1
 67
     0
278
    -2
288
     1
 68
     0
279
    -2
289
     1
 69
     0
  7
STANDARD
140
4.5
170
     5
 62
     0
 63
     7
283
     0
274
    -2
284
     1
 64
     0
275
    -2
285
     1
 65
     0
276
    -2
286
     1
 66
     0
277
    -2
287
     1
 67
     0
278
    -2
288
     1
 68
     0
279
    -2
289
     1
 69
     0
  0
VISUALSTYLE
  5
274
102
{ACAD_REACTORS
330
26E
102
}
330
26E
100
AcDbVisualStyle
  2
2dWireframe
 70
     4
 71
     0
 72
     2
 73
     0
 90
        0
 40
-0.6
 41
-30.0
 62
     5
 63
     7
 74
     1
 91
        4
 64
     7
 65
   257
 75
     1
175
     1
 42
1.0
 92
        0
 66
   257
 43
1.0
 76
     1
 77
     6
 78
     2
 67
     7
 79
     5
170
     0
171
     0
290
     0
174
     0
 93
        1
 44
0.0
173
     0
291
     0
 45
0.0
1001
ACAD
1000
AcDbSavedByObjectVersion
1070
     0
  0
VISUALSTYLE
  5
276
102
{ACAD_REACTORS
330
26E
102
}
330
26E
100
AcDbVisualStyle
  2
3D Hidden
 70
     6
 71
     1
 72
     2
 73
     2
 90
        0
 40
-0.6
 41
-30.0
 62
     5
 63
     7
 74
     2
 91
        2
 64
     7
 65
   257
 75
     2
175
     1
 42
40.0
 92
        0
 66
   257
 43
1.0
 76
     1
 77
     6
 78
     2
 67
     7
 79
     3
170
     0
171
     0
290
     0
174
     0
 93
        1
 44
0.0
173
     0
291
     0
 45
0.0
1001
ACAD
1000
AcDbSavedByObjectVersion
1070
     0
  0
VISUALSTYLE
  5
275
102
{ACAD_REACTORS
330
26E
102
}
330
26E
100
AcDbVisualStyle
  2
3dWireframe
 70
     5
 71
     0
 72
     2
 73
     0
 90
        0
 40
-0.6
 41
-30.0
 62
     5
 63
     7
 74
     1
 91
        4
 64
     7
 65
   257
 75
     1
175
     1
 42
1.0
 92
        0
 66
   257
 43
1.0
 76
     1
 77
     6
 78
     2
 67
     7
 79
     5
170
     0
171
     0
290
     0
174
     0
 93
        1
 44
0.0
173
     0
291
     0
 45
0.0
1001
ACAD
1000
AcDbSavedByObjectVersion
1070
     0
  0
VISUALSTYLE
  5
273
102
{ACAD_REACTORS
330
26E
102
}
330
26E
100
AcDbVisualStyle
  2
Basic
 70
     7
 71
     1
 72
     0
 73
     1
 90
        0
 40
-0.6
 41
-30.0
 62
     5
 63
     7
 74
     0
 91
        4
 64
     7
 65
   257
 75
     1
175
     1
 42
1.0
 92
        8
 66
     7
 43
1.0
 76
     1
 77
     6
 78
     2
 67
     7
 79
     5
170
     0
171
     0
290
     0
174
     0
 93
        1
 44
0.0
173
     0
291
     1
 45
0.0
1001
ACAD
1000
AcDbSavedByObjectVersion
1070
     0
  0
VISUALSTYLE
  5
27A
102
{ACAD_REACTORS
330
26E
102
}
330
26E
100
AcDbVisualStyle
  2
Brighten
 70
    12
 71
     2
 72
     2
 73
     0
 90
        0
 40
-0.6
 41
-30.0
 62
     5
 63
     7
 74
     1
 91
        4
 64
     7
 65
   257
 75
     1
175
     1
 42
1.0
 92
        8
 66
     7
 43
1.0
 76
     1
 77
     6
 78
     2
 67
     7
 79
     5
170
     0
171
     0
290
     0
174
     0
 93
        1
 44
50.0
173
     0
291
     1
 45
0.0
1001
ACAD
1000
AcDbSavedByObjectVersion
1070
     0
  0
VISUALSTYLE
  5
27E
102
{ACAD_REACTORS
330
26E
102
}
330
26E
100
AcDbVisualStyle
  2
ColorChange
 70
    16
 71
     2
 72
     2
 73
     3
 90
        0
 40
-0.6
 41
-30.0
 62
     5
 63
     8
 74
     1
 91
        4
 64
     7
 65
   257
 75
     1
175
     1
 42
1.0
 92
        8
 66
     8
 43
1.0
 76
     1
 77
     6
 78
     2
 67
     7
 79
     5
170
     0
171
     0
290
     0
174
     0
 93
        1
 44
0.0
173
     0
291
     1
 45
0.0
1001
ACAD
1000
AcDbSavedByObjectVersion
1070
     0
  0
VISUALSTYLE
  5
277
102
{ACAD_REACTORS
330
26E
102
}
330
26E
100
AcDbVisualStyle
  2
Conceptual
 70
     9
 71
     3
 72
     2
 73
     0
 90
        0
 40
-0.6
 41
-30.0
 62
     5
 63
     7
 74
     2
 91
        2
 64
     7
 65
   257
 75
     1
175
     1
 42
40.0
 92
        8
 66
     7
 43
1.0
 76
     1
 77
     6
 78
     2
 67
     7
 79
     3
170
     0
171
     0
290
     0
174
     0
 93
        1
 44
0.0
173
     0
291
     0
 45
0.0
1001
ACAD
1000
AcDbSavedByObjectVersion
1070
     0
  0
VISUALSTYLE
  5
279
102
{ACAD_REACTORS
330
26E
102
}
330
26E
100
AcDbVisualStyle
  2
Dim
 70
    11
 71
     2
 72
     2
 73
     0
 90
        0
 40
-0.6
 41
-30.0
 62
     5
 63
     7
 74
     1
 91
        4
 64
     7
 65
   257
 75
     1
175
     1
 42
1.0
 92
        8
 66
     7
 43
1.0
 76
     1
 77
     6
 78
     2
 67
     7
 79
     5
170
     0
171
     0
290
     0
174
     0
 93
        1
 44
-50.0
173
     0
291
     1
 45
0.0
1001
ACAD
1000
AcDbSavedByObjectVersion
1070
     0
  0
VISUALSTYLE
  5
27D
102
{ACAD_REACTORS
330
26E
102
}
330
26E
100
AcDbVisualStyle
  2
Facepattern
 70
    15
 71
     2
 72
     2
 73
     0
 90
        0
 40
-0.6
 41
-30.0
 62
     5
 63
     7
 74
     1
 91
        4
 64
     7
 65
   257
 75
     1
175
     1
 42
1.0
 92
        8
 66
     7
 43
1.0
 76
     1
 77
     6
 78
     2
 67
     7
 79
     5
170
     0
171
     0
290
     0
174
     0
 93
        1
 44
0.0
173
     0
291
     1
 45
0.0
1001
ACAD
1000
AcDbSavedByObjectVersion
1070
     0
  0
VISUALSTYLE
  5
26F
102
{ACAD_REACTORS
330
26E
102
}
330
26E
100
AcDbVisualStyle
  2
Flat
 70
     0
 71
     2
 72
     1
 73
     1
 90
        2
 40
-0.6
 41
30.0
 62
     5
 63
     7
 74
     0
 91
        4
 64
     7
 65
   257
 75
     1
175
     1
 42
1.0
 92
        8
 66
     7
 43
1.0
 76
     1
 77
     6
 78
     2
 67
     7
 79
     5
170
     0
171
     0
290
     0
174
     0
 93
       13
 44
0.0
173
     0
291
     1
 45
0.0
1001
ACAD
1000
AcDbSavedByObjectVersion
1070
     0
  0
VISUALSTYLE
  5
270
102
{ACAD_REACTORS
330
26E
102
}
330
26E
100
AcDbVisualStyle
  2
FlatWithEdges
 70
     1
 71
     2
 72
     1
 73
     1
 90
        2
 40
-0.6
 41
30.0
 62
     5
 63
     7
 74
     1
 91
        4
 64
     7
 65
   257
 75
     1
175
     1
 42
1.0
 92
        0
 66
   257
 43
1.0
 76
     1
 77
     6
 78
     2
 67
     7
 79
     5
170
     0
171
     0
290
     0
174
     0
 93
       13
 44
0.0
173
     0
291
     1
 45
0.0
1001
ACAD
1000
AcDbSavedByObjectVersion
1070
     0
  0
VISUALSTYLE
  5
271
102
{ACAD_REACTORS
330
26E
102
}
330
26E
100
AcDbVisualStyle
  2
Gouraud
 70
     2
 71
     2
 72
     2
 73
     1
 90
        2
 40
-0.6
 41
30.0
 62
     5
 63
     7
 74
     0
 91
        4
 64
     7
 65
   257
 75
     1
175
     1
 42
1.0
 92
        0
 66
     7
 43
1.0
 76
     1
 77
     6
 78
     2
 67
     7
 79
     5
170
     0
171
     0
290
     0
174
     0
 93
       13
 44
0.0
173
     0
291
     1
 45
0.0
1001
ACAD
1000
AcDbSavedByObjectVersion
1070
     0
  0
VISUALSTYLE
  5
272
102
{ACAD_REACTORS
330
26E
102
}
330
26E
100
AcDbVisualStyle
  2
GouraudWithEdges
 70
     3
 71
     2
 72
     2
 73
     1
 90
        2
 40
-0.6
 41
30.0
 62
     5
 63
     7
 74
     1
 91
        4
 64
     7
 65
   257
 75
     1
175
     1
 42
1.0
 92
        0
 66
   257
 43
1.0
 76
     1
 77
     6
 78
     2
 67
     7
 79
     5
170
     0
171
     0
290
     0
174
     0
 93
       13
 44
0.0
173
     0
291
     1
 45
0.0
1001
ACAD
1000
AcDbSavedByObjectVersion
1070
     0
  0
VISUALSTYLE
  5
27C
102
{ACAD_REACTORS
330
26E
102
}
330
26E
100
AcDbVisualStyle
  2
Linepattern
 70
    14
 71
     2
 72
     2
 73
     0
 90
        0
 40
-0.6
 41
-30.0
 62
     5
 63
     7
 74
     1
 91
        4
 64
     7
 65
   257
 75
     7
175
     7
 42
1.0
 92
        8
 66
     7
 43
1.0
 76
     1
 77
     6
 78
     2
 67
     7
 79
     5
170
     0
171
     0
290
     0
174
     0
 93
        1
 44
0.0
173
     0
291
     1
 45
0.0
1001
ACAD
1000
AcDbSavedByObjectVersion
1070
     0
  0
VISUALSTYLE
  5
278
102
{ACAD_REACTORS
330
26E
102
}
330
26E
100
AcDbVisualStyle
  2
Realistic
 70
     8
 71
     2
 72
     2
 73
     0
 90
        0
 40
-0.6
 41
-30.0
 62
     5
 63
     7
 74
     1
 91
        0
 64
     7
 65
   257
 75
     1
175
     1
 42
1.0
 92
        8
 66
     8
 43
1.0
 76
     1
 77
     6
 78
     2
 67
     7
 79
     5
170
     0
171
     0
290
     0
174
     0
 93
       13
 44
0.0
173
     0
291
     0
 45
0.0
1001
ACAD
1000
AcDbSavedByObjectVersion
1070
     0
  0
VISUALSTYLE
  5
27B
102
{ACAD_REACTORS
330
26E
102
}
330
26E
100
AcDbVisualStyle
  2
Thicken
 70
    13
 71
     2
 72
     2
 73
     0
 90
        0
 40
-0.6
 41
-30.0
 62
     5
 63
     7
 74
     1
 91
        4
 64
     7
 65
   257
 75
     1
175
     1
 42
1.0
 92
       12
 66
     7
 43
1.0
 76
     1
 77
     6
 78
     2
 67
     7
 79
     5
170
     0
171
     0
290
     0
174
     0
 93
        1
 44
0.0
173
     0
291
     1
 45
0.0
1001
ACAD
1000
AcDbSavedByObjectVersion
1070
     0
  0
DICTIONARYVAR
  5
138
102
{ACAD_REACTORS
330
94
102
}
330
94
100
DictionaryVariables
280
     0
  1
STANDARD
  0
DICTIONARYVAR
  5
96
102
{ACAD_REACTORS
330
94
102
}
330
94
100
DictionaryVariables
280
     0
  1
2
  0
DICTIONARYVAR
  5
95
102
{ACAD_REACTORS
330
94
102
}
330
94
100
DictionaryVariables
280
     0
  1
0
  0
DICTIONARYVAR
  5
802
102
{ACAD_REACTORS
330
94
102
}
330
94
100
DictionaryVariables
280
     0
  1
127
  0
DICTIONARY
  5
2C4
102
{ACAD_REACTORS
330
5B
102
}
330
5B
100
AcDbDictionary
281
     1
  0
DICTIONARY
  5
61
102
{ACAD_REACTORS
330
5B
102
}
330
5B
100
AcDbDictionary
281
     1
  0
XRECORD
  5
123
102
{ACAD_REACTORS
330
5B
102
}
330
5B
100
AcDbXrecord
280
     1
 90
-1023410169
  0
DICTIONARY
  5
806
330
1E
100
AcDbDictionary
280
     1
281
     1
  3
ACAD_XREC_ROUNDTRIP
360
807
  0
DICTIONARY
  5
80A
330
26
100
AcDbDictionary
280
     1
281
     1
  3
ACAD_XREC_ROUNDTRIP
360
80B
  0
DICTIONARY
  5
808
330
22
100
AcDbDictionary
280
     1
281
     1
  3
ACAD_XREC_ROUNDTRIP
360
809
  0
DICTIONARY
  5
810
330
26C
100
AcDbDictionary
280
     1
281
     1
  3
ACAD_XREC_ROUNDTRIP
360
811
  0
DICTIONARY
  5
80E
330
26B
100
AcDbDictionary
280
     1
281
     1
  3
ACAD_XREC_ROUNDTRIP
360
80F
  0
DICTIONARY
  5
812
330
26D
100
AcDbDictionary
280
     1
281
     1
  3
ACAD_XREC_ROUNDTRIP
360
813
  0
DICTIONARY
  5
80C
330
11B
100
AcDbDictionary
280
     1
281
     1
  3
ACAD_XREC_ROUNDTRIP
360
80D
  0
XRECORD
  5
807
102
{ACAD_REACTORS
330
806
102
}
330
806
100
AcDbXrecord
280
     1
102
SHADEPLOT
 70
     0
102
SHADEPLOTRESLEVEL
 70
     2
102
SHADEPLOTCUSTOMDPI
 70
   300
  0
XRECORD
  5
80B
102
{ACAD_REACTORS
330
80A
102
}
330
80A
100
AcDbXrecord
280
     1
102
SHADEPLOT
 70
     0
102
SHADEPLOTRESLEVEL
 70
     2
102
SHADEPLOTCUSTOMDPI
 70
   300
  0
XRECORD
  5
809
102
{ACAD_REACTORS
330
808
102
}
330
808
100
AcDbXrecord
280
     1
102
SHADEPLOT
 70
     0
102
SHADEPLOTRESLEVEL
 70
     2
102
SHADEPLOTCUSTOMDPI
 70
   300
  0
XRECORD
  5
811
102
{ACAD_REACTORS
330
810
102
}
330
810
100
AcDbXrecord
280
     1
102
MATERIAL
148
0.0
149
0.0
149
0.0
 93
        0
 94
       63
282
     0
 72
     1
 77
     1
171
     1
175
     1
179
     1
273
     0
  0
XRECORD
  5
80F
102
{ACAD_REACTORS
330
80E
102
}
330
80E
100
AcDbXrecord
280
     1
102
MATERIAL
148
0.0
149
0.0
149
0.0
 93
        0
 94
       63
282
     0
 72
     1
 77
     1
171
     1
175
     1
179
     1
273
     0
  0
XRECORD
  5
813
102
{ACAD_REACTORS
330
812
102
}
330
812
100
AcDbXrecord
280
     1
102
MATERIAL
148
0.0
149
0.0
149
0.0
 93
        0
 94
       63
282
     0
 72
     1
 77
     1
171
     1
175
     1
179
     1
273
     0
  0
XRECORD
  5
80D
102
{ACAD_REACTORS
330
80C
102
}
330
80C
100
AcDbXrecord
280
     1
102
ACAD_ROUNDTRIP_PRE2007_TABLESTYLE
 90
      512
 91
        0
  1

 92
      512
 93
        0
  2

 94
      512
 95
        0
  3

  0
ENDSEC
  0
EOF
