  0
SECTION
  2
HEADER
  9
$ACADVER
  1
AC1009
  9
$DWGCODEPAGE
  3
ansi_1252
  9
$INSBASE
 10
0.0
 20
0.0
 30
0.0
  9
$EXTMIN
 10
4.836666666666666
 20
4.860286509145623
 30
0.0
  9
$EXTMAX
 10
5.166666666666666
 20
5.156666666666666
 30
0.0
  9
$LIMMIN
 10
0.0
 20
0.0
  9
$LIMMAX
 10
12.0
 20
9.0
  9
$ORTHOMODE
 70
     0
  9
$REGENMODE
 70
     1
  9
$FILLMODE
 70
     1
  9
$QTEXTMODE
 70
     0
  9
$MIRRTEXT
 70
     1
  9
$DRAGMODE
 70
     2
  9
$LTSCALE
 40
1.0
  9
$OSMODE
 70
    37
  9
$ATTMODE
 70
     1
  9
$TEXTSIZE
 40
0.2
  9
$TRACEWID
 40
0.05
  9
$TEXTSTYLE
  7
STANDARD
  9
$CLAYER
  8
0
  9
$CELTYPE
  6
BYLAYER
  9
$CECOLOR
 62
   256
  9
$DIMSCALE
 40
1.0
  9
$DIMASZ
 40
0.18
  9
$DIMEXO
 40
0.0625
  9
$DIMDLI
 40
0.38
  9
$DIMRND
 40
0.0
  9
$DIMDLE
 40
0.0
  9
$DIMEXE
 40
0.18
  9
$DIMTP
 40
0.0
  9
$DIMTM
 40
0.0
  9
$DIMTXT
 40
0.18
  9
$DIMCEN
 40
0.09
  9
$DIMTSZ
 40
0.0
  9
$DIMTOL
 70
     0
  9
$DIMLIM
 70
     0
  9
$DIMTIH
 70
     1
  9
$DIMTOH
 70
     1
  9
$DIMSE1
 70
     0
  9
$DIMSE2
 70
     0
  9
$DIMTAD
 70
     0
  9
$DIMZIN
 70
     0
  9
$DIMBLK
  1

  9
$DIMASO
 70
     1
  9
$DIMSHO
 70
     1
  9
$DIMPOST
  1

  9
$DIMAPOST
  1

  9
$DIMALT
 70
     0
  9
$DIMALTD
 70
     2
  9
$DIMALTF
 40
25.4
  9
$DIMLFAC
 40
1.0
  9
$DIMTOFL
 70
     0
  9
$DIMTVP
 40
0.0
  9
$DIMTIX
 70
     0
  9
$DIMSOXD
 70
     0
  9
$DIMSAH
 70
     0
  9
$DIMBLK1
  1

  9
$DIMBLK2
  1

  9
$DIMSTYLE
  2
STANDARD
  9
$DIMCLRD
 70
     0
  9
$DIMCLRE
 70
     0
  9
$DIMCLRT
 70
     0
  9
$DIMTFAC
 40
1.0
  9
$DIMGAP
 40
0.09
  9
$LUNITS
 70
     2
  9
$LUPREC
 70
     4
  9
$SKETCHINC
 40
0.1
  9
$FILLETRAD
 40
0.5
  9
$AUNITS
 70
     0
  9
$AUPREC
 70
     0
  9
$MENU
  1
.
  9
$ELEVATION
 40
0.0
  9
$PELEVATION
 40
0.0
  9
$THICKNESS
 40
0.0
  9
$LIMCHECK
 70
     0
  9
$CHAMFERA
 40
0.5
  9
$CHAMFERB
 40
0.5
  9
$SKPOLY
 70
     0
  9
$TDCREATE
 40
2454910.5
  9
$TDUPDATE
 40
2455906.657090776
  9
$TDINDWG
 40
0.0000000116
  9
$TDUSRTIMER
 40
0.0000000116
  9
$USRTIMER
 70
     1
  9
$ANGBASE
 50
0.0
  9
$ANGDIR
 70
     0
  9
$PDMODE
 70
     0
  9
$PDSIZE
 40
0.0
  9
$PLINEWID
 40
0.0
  9
$COORDS
 70
     1
  9
$SPLFRAME
 70
     0
  9
$SPLINETYPE
 70
     6
  9
$SPLINESEGS
 70
     8
  9
$ATTDIA
 70
     0
  9
$ATTREQ
 70
     1
  9
$HANDLING
 70
     1
  9
$HANDSEED
  5
1FA
  9
$SURFTAB1
 70
     6
  9
$SURFTAB2
 70
     6
  9
$SURFTYPE
 70
     6
  9
$SURFU
 70
     6
  9
$SURFV
 70
     6
  9
$UCSNAME
  2

  9
$UCSORG
 10
0.0
 20
0.0
 30
0.0
  9
$UCSXDIR
 10
1.0
 20
0.0
 30
0.0
  9
$UCSYDIR
 10
0.0
 20
1.0
 30
0.0
  9
$PUCSNAME
  2

  9
$PUCSORG
 10
0.0
 20
0.0
 30
0.0
  9
$PUCSXDIR
 10
1.0
 20
0.0
 30
0.0
  9
$PUCSYDIR
 10
0.0
 20
1.0
 30
0.0
  9
$USERI1
 70
     0
  9
$USERI2
 70
     0
  9
$USERI3
 70
     0
  9
$USERI4
 70
     0
  9
$USERI5
 70
     0
  9
$USERR1
 40
0.0
  9
$USERR2
 40
0.0
  9
$USERR3
 40
0.0
  9
$USERR4
 40
0.0
  9
$USERR5
 40
0.0
  9
$WORLDVIEW
 70
     1
  9
$SHADEDGE
 70
     3
  9
$SHADEDIF
 70
    70
  9
$TILEMODE
 70
     1
  9
$MAXACTVP
 70
    64
  9
$PLIMCHECK
 70
     0
  9
$PEXTMIN
 10
1.000000000000000E+20
 20
1.000000000000000E+20
 30
1.000000000000000E+20
  9
$PEXTMAX
 10
-1.000000000000000E+20
 20
-1.000000000000000E+20
 30
-1.000000000000000E+20
  9
$PLIMMIN
 10
0.0
 20
0.0
  9
$PLIMMAX
 10
12.0
 20
9.0
  9
$UNITMODE
 70
     0
  9
$VISRETAIN
 70
     1
  9
$PLINEGEN
 70
     0
  9
$PSLTSCALE
 70
     1
  0
ENDSEC
  0
SECTION
  2
TABLES
  0
TABLE
  2
VPORT
 70
     1
  0
VPORT
  2
*ACTIVE
 70
     0
 10
0.0
 20
0.0
 11
1.0
 21
1.0
 12
10.42990654205607
 22
4.5
 13
0.0
 23
0.0
 14
0.5
 24
0.5
 15
0.5
 25
0.5
 16
0.0
 26
0.0
 36
1.0
 17
0.0
 27
0.0
 37
0.0
 40
9.0
 41
1.972972972850329
 42
50.0
 43
0.0
 44
0.0
 50
0.0
 51
0.0
 71
     0
 72
   100
 73
     1
 74
     3
 75
     0
 76
     0
 77
     0
 78
     0
  0
ENDTAB
  0
TABLE
  2
LTYPE
 70
     2
  0
LTYPE
  2
CONTINUOUS
 70
     0
  3
Solid line
 72
    65
 73
     0
 40
0.0
  0
LTYPE
  2
CONTINUOUS2
 70
     0
  3
Solid Line
 72
    65
 73
     0
 40
0.0
  0
ENDTAB
  0
TABLE
  2
LAYER
 70
     2
  0
LAYER
  2
0
 70
     0
 62
     7
  6
CONTINUOUS
  0
LAYER
  2
LAYER_1
 70
     0
 62
    18
  6
CONTINUOUS
  0
ENDTAB
  0
TABLE
  2
STYLE
 70
     1
  0
STYLE
  2
STANDARD
 70
     0
 40
0.0
 41
1.0
 50
0.0
 71
     0
 42
0.2
  3
txt
  4

  0
ENDTAB
  0
TABLE
  2
VIEW
 70
     0
  0
ENDTAB
  0
TABLE
  2
UCS
 70
     0
  0
ENDTAB
  0
TABLE
  2
APPID
 70
     1
  0
APPID
  2
ACAD
 70
     0
  0
ENDTAB
  0
TABLE
  2
DIMSTYLE
 70
     1
  0
DIMSTYLE
  2
STANDARD
 70
     0
  3

  4

  5

  6

  7

 40
1.0
 41
0.18
 42
0.0625
 43
0.38
 44
0.18
 45
0.0
 46
0.0
 47
0.0
 48
0.0
140
0.18
141
0.09
142
0.0
143
25.4
144
1.0
145
0.0
146
1.0
147
0.09
 71
     0
 72
     0
 73
     1
 74
     1
 75
     0
 76
     0
 77
     0
 78
     0
170
     0
171
     2
172
     0
173
     0
174
     0
175
     0
176
     0
177
     0
178
     0
  0
ENDTAB
  0
ENDSEC
  0
SECTION
  2
BLOCKS
  0
BLOCK
  8
0
  2
$MODEL_SPACE
 70
     0
 10
0.0
 20
0.0
 30
0.0
  3
$MODEL_SPACE
  1

  0
ENDBLK
  5
21
  8
0
  0
BLOCK
 67
     1
  8
0
  2
$PAPER_SPACE
 70
     0
 10
0.0
 20
0.0
 30
0.0
  3
$PAPER_SPACE
  1

  0
ENDBLK
  5
1D
 67
     1
  8
0
  0
ENDSEC
  0
SECTION
  2
ENTITIES
  0
POLYLINE
  5
41
  8
LAYER_1
 66
     1
 10
0.0
 20
0.0
 30
0.0
 70
     1
  0
VERTEX
  5
50
  8
LAYER_1
 10
5.004273728769654
 20
4.860286509145623
 30
0.0
  0
VERTEX
  5
51
  8
LAYER_1
 10
5.014511475767684
 20
4.860430584584101
 30
0.0
  0
VERTEX
  5
52
  8
LAYER_1
 10
5.023717364447011
 20
4.861126378038682
 30
0.0
  0
VERTEX
  5
53
  8
LAYER_1
 10
5.032011783259663
 20
4.862411590616333
 30
0.0
  0
VERTEX
  5
54
  8
LAYER_1
 10
5.039515120657671
 20
4.864323923424021
 30
0.0
  0
VERTEX
  5
55
  8
LAYER_1
 10
5.046347765093063
 20
4.866901077568719
 30
0.0
  0
VERTEX
  5
56
  8
LAYER_1
 10
5.052630105017867
 20
4.870180754157393
 30
0.0
  0
VERTEX
  5
57
  8
LAYER_1
 10
5.058482528884113
 20
4.874200654297013
 30
0.0
  0
VERTEX
  5
58
  8
LAYER_1
 10
5.064025425143832
 20
4.878998479094547
 30
0.0
  0
VERTEX
  5
59
  8
LAYER_1
 10
5.067056652492859
 20
4.881834717372335
 30
0.0
  0
VERTEX
  5
5A
  8
LAYER_1
 10
5.069660304576894
 20
4.883858430996908
 30
0.0
  0
VERTEX
  5
5B
  8
LAYER_1
 10
5.072254939738178
 20
4.885067547784139
 30
0.0
  0
VERTEX
  5
5C
  8
LAYER_1
 10
5.075259116318954
 20
4.885459995549903
 30
0.0
  0
VERTEX
  5
5D
  8
LAYER_1
 10
5.079091392661462
 20
4.885033702110071
 30
0.0
  0
VERTEX
  5
5E
  8
LAYER_1
 10
5.084170327107945
 20
4.883786595280519
 30
0.0
  0
VERTEX
  5
5F
  8
LAYER_1
 10
5.099742403681804
 20
4.878821652715744
 30
0.0
  0
VERTEX
  5
60
  8
LAYER_1
 10
5.111817621551426
 20
4.875269902977333
 30
0.0
  0
VERTEX
  5
61
  8
LAYER_1
 10
5.123717049324277
 20
4.872571670979081
 30
0.0
  0
VERTEX
  5
62
  8
LAYER_1
 10
5.134998627049242
 20
4.870748729523131
 30
0.0
  0
VERTEX
  5
63
  8
LAYER_1
 10
5.145220294775203
 20
4.869822851411625
 30
0.0
  0
VERTEX
  5
64
  8
LAYER_1
 10
5.153939992551043
 20
4.869815809446706
 30
0.0
  0
VERTEX
  5
65
  8
LAYER_1
 10
5.157598458972943
 20
4.870163656019887
 30
0.0
  0
VERTEX
  5
66
  8
LAYER_1
 10
5.160715660425645
 20
4.870749376430518
 30
0.0
  0
VERTEX
  5
67
  8
LAYER_1
 10
5.163236339415256
 20
4.871575692278867
 30
0.0
  0
VERTEX
  5
68
  8
LAYER_1
 10
5.165105238447891
 20
4.872645325165201
 30
0.0
  0
VERTEX
  5
69
  8
LAYER_1
 10
5.166267100029658
 20
4.873960996689789
 30
0.0
  0
VERTEX
  5
6A
  8
LAYER_1
 10
5.166666666666666
 20
4.875525428452898
 30
0.0
  0
VERTEX
  5
6B
  8
LAYER_1
 10
5.166391643536103
 20
4.877152769772541
 30
0.0
  0
VERTEX
  5
6C
  8
LAYER_1
 10
5.165596369333585
 20
4.87928119389907
 30
0.0
  0
VERTEX
  5
6D
  8
LAYER_1
 10
5.162623838847699
 20
4.884810793362295
 30
0.0
  0
VERTEX
  5
6E
  8
LAYER_1
 10
5.15810661747904
 20
4.8916532324216
 30
0.0
  0
VERTEX
  5
6F
  8
LAYER_1
 10
5.152402247497642
 20
4.899347516656011
 30
0.0
  0
VERTEX
  5
70
  8
LAYER_1
 10
5.145868271173539
 20
4.907432651644553
 30
0.0
  0
VERTEX
  5
71
  8
LAYER_1
 10
5.138862230776765
 20
4.915447642966251
 30
0.0
  0
VERTEX
  5
72
  8
LAYER_1
 10
5.131741668577354
 20
4.922931496200132
 30
0.0
  0
VERTEX
  5
73
  8
LAYER_1
 10
5.124864126845338
 20
4.92942321692522
 30
0.0
  0
VERTEX
  5
74
  8
LAYER_1
 10
5.120249591868544
 20
4.933541155872291
 30
0.0
  0
VERTEX
  5
75
  8
LAYER_1
 10
5.116764278265306
 20
4.937001491287775
 30
0.0
  0
VERTEX
  5
76
  8
LAYER_1
 10
5.114227569625803
 20
4.940299584967997
 30
0.0
  0
VERTEX
  5
77
  8
LAYER_1
 10
5.112458849540213
 20
4.943930798709277
 30
0.0
  0
VERTEX
  5
78
  8
LAYER_1
 10
5.111277501598712
 20
4.948390494307942
 30
0.0
  0
VERTEX
  5
79
  8
LAYER_1
 10
5.110502909391482
 20
4.954174033560311
 30
0.0
  0
VERTEX
  5
7A
  8
LAYER_1
 10
5.109451526540537
 20
4.971694090211461
 30
0.0
  0
VERTEX
  5
7B
  8
LAYER_1
 10
5.108351874626313
 20
4.987546405193772
 30
0.0
  0
VERTEX
  5
7C
  8
LAYER_1
 10
5.107557025863873
 20
4.993780432445077
 30
0.0
  0
VERTEX
  5
7D
  8
LAYER_1
 10
5.106516424283338
 20
4.999246294008306
 30
0.0
  0
VERTEX
  5
7E
  8
LAYER_1
 10
5.105168266673802
 20
5.004213930737327
 30
0.0
  0
VERTEX
  5
7F
  8
LAYER_1
 10
5.103450749824358
 20
5.008953283486008
 30
0.0
  0
VERTEX
  5
80
  8
LAYER_1
 10
5.098660425562116
 20
5.018826900457822
 30
0.0
  0
VERTEX
  5
81
  8
LAYER_1
 10
5.093914237846613
 20
5.026831954729079
 30
0.0
  0
VERTEX
  5
82
  8
LAYER_1
 10
5.088658355564244
 20
5.034361965115764
 30
0.0
  0
VERTEX
  5
83
  8
LAYER_1
 10
5.082894081933144
 20
5.041415665862697
 30
0.0
  0
VERTEX
  5
84
  8
LAYER_1
 10
5.076622720171442
 20
5.047991791214701
 30
0.0
  0
VERTEX
  5
85
  8
LAYER_1
 10
5.06984557349727
 20
5.054089075416597
 30
0.0
  0
VERTEX
  5
86
  8
LAYER_1
 10
5.062563945128758
 20
5.059706252713207
 30
0.0
  0
VERTEX
  5
87
  8
LAYER_1
 10
5.05477913828404
 20
5.064842057349355
 30
0.0
  0
VERTEX
  5
88
  8
LAYER_1
 10
5.046492456181246
 20
5.069495223569862
 30
0.0
  0
VERTEX
  5
89
  8
LAYER_1
 10
5.036557309477731
 20
5.074981074545102
 30
0.0
  0
VERTEX
  5
8A
  8
LAYER_1
 10
5.033255330914037
 20
5.077310791729225
 30
0.0
  0
VERTEX
  5
8B
  8
LAYER_1
 10
5.030814634719508
 20
5.079656795587987
 30
0.0
  0
VERTEX
  5
8C
  8
LAYER_1
 10
5.029048385276988
 20
5.082237905279108
 30
0.0
  0
VERTEX
  5
8D
  8
LAYER_1
 10
5.02776974696932
 20
5.085272939960317
 30
0.0
  0
VERTEX
  5
8E
  8
LAYER_1
 10
5.02592796128991
 20
5.0935800609239
 30
0.0
  0
VERTEX
  5
8F
  8
LAYER_1
 10
5.023945045203309
 20
5.102597379880034
 30
0.0
  0
VERTEX
  5
90
  8
LAYER_1
 10
5.02099166810464
 20
5.112704134465595
 30
0.0
  0
VERTEX
  5
91
  8
LAYER_1
 10
5.017363993765306
 20
5.123193964974685
 30
0.0
  0
VERTEX
  5
92
  8
LAYER_1
 10
5.013358185956713
 20
5.133360511701406
 30
0.0
  0
VERTEX
  5
93
  8
LAYER_1
 10
5.009270408450264
 20
5.142497414939862
 30
0.0
  0
VERTEX
  5
94
  8
LAYER_1
 10
5.00539682501736
 20
5.149898314984155
 30
0.0
  0
VERTEX
  5
95
  8
LAYER_1
 10
5.002033599429407
 20
5.154856852128389
 30
0.0
  0
VERTEX
  5
96
  8
LAYER_1
 10
5.000635922005851
 20
5.156199497204891
 30
0.0
  0
VERTEX
  5
97
  8
LAYER_1
 10
4.999476895457809
 20
5.156666666666666
 30
0.0
  0
VERTEX
  5
98
  8
LAYER_1
 10
4.99810125632084
 20
5.156024994961863
 30
0.0
  0
VERTEX
  5
99
  8
LAYER_1
 10
4.996390385149645
 20
5.154195718770471
 30
0.0
  0
VERTEX
  5
9A
  8
LAYER_1
 10
4.992196955096299
 20
5.147548786466041
 30
0.0
  0
VERTEX
  5
9B
  8
LAYER_1
 10
4.987364622081208
 20
5.13787473682961
 30
0.0
  0
VERTEX
  5
9C
  8
LAYER_1
 10
4.982361402887814
 20
5.126322436937409
 30
0.0
  0
VERTEX
  5
9D
  8
LAYER_1
 10
4.977655314299555
 20
5.11404075386567
 30
0.0
  0
VERTEX
  5
9E
  8
LAYER_1
 10
4.973714373099874
 20
5.102178554690628
 30
0.0
  0
VERTEX
  5
9F
  8
LAYER_1
 10
4.971006596072209
 20
5.091884706488514
 30
0.0
  0
VERTEX
  5
A0
  8
LAYER_1
 10
4.970261399367708
 20
5.087684934963628
 30
0.0
  0
VERTEX
  5
A1
  8
LAYER_1
 10
4.97
 20
5.084308076335561
 30
0.0
  0
VERTEX
  5
A2
  8
LAYER_1
 10
4.969857474797466
 20
5.082236527875813
 30
0.0
  0
VERTEX
  5
A3
  8
LAYER_1
 10
4.969414615972264
 20
5.08035499116631
 30
0.0
  0
VERTEX
  5
A4
  8
LAYER_1
 10
4.968648498697995
 20
5.078636454287194
 30
0.0
  0
VERTEX
  5
A5
  8
LAYER_1
 10
4.967536198148258
 20
5.077053905318608
 30
0.0
  0
VERTEX
  5
A6
  8
LAYER_1
 10
4.966054789496656
 20
5.075580332340696
 30
0.0
  0
VERTEX
  5
A7
  8
LAYER_1
 10
4.96418134791679
 20
5.074188723433601
 30
0.0
  0
VERTEX
  5
A8
  8
LAYER_1
 10
4.959166666666667
 20
5.071543350152434
 30
0.0
  0
VERTEX
  5
A9
  8
LAYER_1
 10
4.951106877695884
 20
5.067665188542228
 30
0.0
  0
VERTEX
  5
AA
  8
LAYER_1
 10
4.943506031085718
 20
5.063356622593798
 30
0.0
  0
VERTEX
  5
AB
  8
LAYER_1
 10
4.936372549824725
 20
5.058630614413024
 30
0.0
  0
VERTEX
  5
AC
  8
LAYER_1
 10
4.929714856901462
 20
5.05350012610579
 30
0.0
  0
VERTEX
  5
AD
  8
LAYER_1
 10
4.923541375304488
 20
5.047978119777977
 30
0.0
  0
VERTEX
  5
AE
  8
LAYER_1
 10
4.917860528022357
 20
5.042077557535464
 30
0.0
  0
VERTEX
  5
AF
  8
LAYER_1
 10
4.912680738043627
 20
5.035811401484134
 30
0.0
  0
VERTEX
  5
B0
  8
LAYER_1
 10
4.908010428356856
 20
5.029192613729867
 30
0.0
  0
VERTEX
  5
B1
  8
LAYER_1
 10
4.9038580219506
 20
5.022234156378547
 30
0.0
  0
VERTEX
  5
B2
  8
LAYER_1
 10
4.900231941813415
 20
5.014948991536052
 30
0.0
  0
VERTEX
  5
B3
  8
LAYER_1
 10
4.897140610933858
 20
5.007350081308266
 30
0.0
  0
VERTEX
  5
B4
  8
LAYER_1
 10
4.894592452300488
 20
4.999450387801069
 30
0.0
  0
VERTEX
  5
B5
  8
LAYER_1
 10
4.89259588890186
 20
4.991262873120343
 30
0.0
  0
VERTEX
  5
B6
  8
LAYER_1
 10
4.89115934372653
 20
4.982800499371968
 30
0.0
  0
VERTEX
  5
B7
  8
LAYER_1
 10
4.890291239763059
 20
4.974076228661827
 30
0.0
  0
VERTEX
  5
B8
  8
LAYER_1
 10
4.89
 20
4.965103023095801
 30
0.0
  0
VERTEX
  5
B9
  8
LAYER_1
 10
4.889958411738959
 20
4.958413194581047
 30
0.0
  0
VERTEX
  5
BA
  8
LAYER_1
 10
4.889704959153857
 20
4.953151273519374
 30
0.0
  0
VERTEX
  5
BB
  8
LAYER_1
 10
4.889046610541728
 20
4.948900156759411
 30
0.0
  0
VERTEX
  5
BC
  8
LAYER_1
 10
4.887790334199606
 20
4.945242741149787
 30
0.0
  0
VERTEX
  5
BD
  8
LAYER_1
 10
4.885743098424523
 20
4.941761923539127
 30
0.0
  0
VERTEX
  5
BE
  8
LAYER_1
 10
4.882711871513517
 20
4.938040600776063
 30
0.0
  0
VERTEX
  5
BF
  8
LAYER_1
 10
4.872925317471863
 20
4.928208027187226
 30
0.0
  0
VERTEX
  5
C0
  8
LAYER_1
 10
4.866621276935777
 20
4.921755586161644
 30
0.0
  0
VERTEX
  5
C1
  8
LAYER_1
 10
4.860286113127028
 20
4.914652666103521
 30
0.0
  0
VERTEX
  5
C2
  8
LAYER_1
 10
4.854188488994152
 20
4.907264961808758
 30
0.0
  0
VERTEX
  5
C3
  8
LAYER_1
 10
4.848597067485688
 20
4.899958168073254
 30
0.0
  0
VERTEX
  5
C4
  8
LAYER_1
 10
4.84378051155017
 20
4.893097979692909
 30
0.0
  0
VERTEX
  5
C5
  8
LAYER_1
 10
4.840007484136137
 20
4.887050091463625
 30
0.0
  0
VERTEX
  5
C6
  8
LAYER_1
 10
4.837546648192124
 20
4.882180198181299
 30
0.0
  0
VERTEX
  5
C7
  8
LAYER_1
 10
4.836892259192792
 20
4.880301279268965
 30
0.0
  0
VERTEX
  5
C8
  8
LAYER_1
 10
4.836666666666666
 20
4.878853994641833
 30
0.0
  0
VERTEX
  5
C9
  8
LAYER_1
 10
4.837307952258919
 20
4.878027203192302
 30
0.0
  0
VERTEX
  5
CA
  8
LAYER_1
 10
4.839136602591136
 20
4.877421019884681
 30
0.0
  0
VERTEX
  5
CB
  8
LAYER_1
 10
4.845784758808219
 20
4.87682094614283
 30
0.0
  0
VERTEX
  5
CC
  8
LAYER_1
 10
4.855468657983419
 20
4.876954710311615
 30
0.0
  0
VERTEX
  5
CD
  8
LAYER_1
 10
4.86704582278224
 20
4.877723249286373
 30
0.0
  0
VERTEX
  5
CE
  8
LAYER_1
 10
4.879373775870189
 20
4.879027499962438
 30
0.0
  0
VERTEX
  5
CF
  8
LAYER_1
 10
4.891310039912772
 20
4.880768399235146
 30
0.0
  0
VERTEX
  5
D0
  8
LAYER_1
 10
4.901712137575494
 20
4.88284688399983
 30
0.0
  0
VERTEX
  5
D1
  8
LAYER_1
 10
4.909437591523859
 20
4.885163891151829
 30
0.0
  0
VERTEX
  5
D2
  8
LAYER_1
 10
4.917613184594236
 20
4.888240395739363
 30
0.0
  0
VERTEX
  5
D3
  8
LAYER_1
 10
4.920434564736404
 20
4.888972980988971
 30
0.0
  0
VERTEX
  5
D4
  8
LAYER_1
 10
4.922715654026327
 20
4.889154167792444
 30
0.0
  0
VERTEX
  5
D5
  8
LAYER_1
 10
4.924684442521329
 20
4.888773240837265
 30
0.0
  0
VERTEX
  5
D6
  8
LAYER_1
 10
4.926568920278735
 20
4.887819484810914
 30
0.0
  0
VERTEX
  5
D7
  8
LAYER_1
 10
4.930996903810066
 20
4.884150624294611
 30
0.0
  0
VERTEX
  5
D8
  8
LAYER_1
 10
4.937954524301352
 20
4.878391619740709
 30
0.0
  0
VERTEX
  5
D9
  8
LAYER_1
 10
4.945324353027294
 20
4.87349640286738
 30
0.0
  0
VERTEX
  5
DA
  8
LAYER_1
 10
4.953214854817514
 20
4.869429649857233
 30
0.0
  0
VERTEX
  5
DB
  8
LAYER_1
 10
4.961734494501639
 20
4.866156036892882
 30
0.0
  0
VERTEX
  5
DC
  8
LAYER_1
 10
4.970991736909292
 20
4.863640240156935
 30
0.0
  0
VERTEX
  5
DD
  8
LAYER_1
 10
4.981095046870095
 20
4.861846935832002
 30
0.0
  0
VERTEX
  5
DE
  8
LAYER_1
 10
4.992152889213675
 20
4.860740800100695
 30
0.0
  0
SEQEND
  5
DF
  8
LAYER_1
  0
POLYLINE
  5
42
  8
LAYER_1
 66
     1
 10
0.0
 20
0.0
 30
0.0
 70
     1
  0
VERTEX
  5
E0
  8
LAYER_1
 10
5.042538784529827
 20
4.891255789511939
 30
0.0
  0
VERTEX
  5
E1
  8
LAYER_1
 10
5.046058712122848
 20
4.893157710824251
 30
0.0
  0
VERTEX
  5
E2
  8
LAYER_1
 10
5.048363482423557
 20
4.894921425952656
 30
0.0
  0
VERTEX
  5
E3
  8
LAYER_1
 10
5.048997701521391
 20
4.895872325487835
 30
0.0
  0
VERTEX
  5
E4
  8
LAYER_1
 10
5.049253152814662
 20
4.896933716624966
 30
0.0
  0
VERTEX
  5
E5
  8
LAYER_1
 10
5.04910484347621
 20
4.898153947080026
 30
0.0
  0
VERTEX
  5
E6
  8
LAYER_1
 10
5.048527780678871
 20
4.899581364568991
 30
0.0
  0
VERTEX
  5
E7
  8
LAYER_1
 10
5.045987423398893
 20
4.903251151512542
 30
0.0
  0
VERTEX
  5
E8
  8
LAYER_1
 10
5.041432138357435
 20
4.90832985918343
 30
0.0
  0
VERTEX
  5
E9
  8
LAYER_1
 10
5.025477014520913
 20
4.924261163618461
 30
0.0
  0
VERTEX
  5
EA
  8
LAYER_1
 10
4.997586287978455
 20
4.951666666666666
 30
0.0
  0
VERTEX
  5
EB
  8
LAYER_1
 10
4.971750199568761
 20
4.926328247429077
 30
0.0
  0
VERTEX
  5
EC
  8
LAYER_1
 10
4.956962819463476
 20
4.91157348485876
 30
0.0
  0
VERTEX
  5
ED
  8
LAYER_1
 10
4.952724991140638
 20
4.906818252999187
 30
0.0
  0
VERTEX
  5
EE
  8
LAYER_1
 10
4.950336490262837
 20
4.9033092190075
 30
0.0
  0
VERTEX
  5
EF
  8
LAYER_1
 10
4.949776070340474
 20
4.901904392989651
 30
0.0
  0
VERTEX
  5
F0
  8
LAYER_1
 10
4.94960638154895
 20
4.900669956571816
 30
0.0
  0
VERTEX
  5
F1
  8
LAYER_1
 10
4.949803556978122
 20
4.899558856465014
 30
0.0
  0
VERTEX
  5
F2
  8
LAYER_1
 10
4.950343729717853
 20
4.898524039380259
 30
0.0
  0
VERTEX
  5
F3
  8
LAYER_1
 10
4.952357599488421
 20
4.896495041120945
 30
0.0
  0
VERTEX
  5
F4
  8
LAYER_1
 10
4.955457055579533
 20
4.894206535481997
 30
0.0
  0
VERTEX
  5
F5
  8
LAYER_1
 10
4.960095459772598
 20
4.891170518421111
 30
0.0
  0
VERTEX
  5
F6
  8
LAYER_1
 10
4.964925953533923
 20
4.888511838541253
 30
0.0
  0
VERTEX
  5
F7
  8
LAYER_1
 10
4.969930352066492
 20
4.886231112030424
 30
0.0
  0
VERTEX
  5
F8
  8
LAYER_1
 10
4.975090470573284
 20
4.884328955076625
 30
0.0
  0
VERTEX
  5
F9
  8
LAYER_1
 10
4.980388124257283
 20
4.882805983867859
 30
0.0
  0
VERTEX
  5
FA
  8
LAYER_1
 10
4.985805128321472
 20
4.881662814592126
 30
0.0
  0
VERTEX
  5
FB
  8
LAYER_1
 10
4.991323297968831
 20
4.880900063437428
 30
0.0
  0
VERTEX
  5
FC
  8
LAYER_1
 10
4.996924448402345
 20
4.880518346591766
 30
0.0
  0
VERTEX
  5
FD
  8
LAYER_1
 10
5.002590394824993
 20
4.880518280243143
 30
0.0
  0
VERTEX
  5
FE
  8
LAYER_1
 10
5.00830295243976
 20
4.880900480579557
 30
0.0
  0
VERTEX
  5
FF
  8
LAYER_1
 10
5.014043936449625
 20
4.881665563789012
 30
0.0
  0
VERTEX
  5
100
  8
LAYER_1
 10
5.019795162057573
 20
4.882814146059508
 30
0.0
  0
VERTEX
  5
101
  8
LAYER_1
 10
5.025538444466585
 20
4.884346843579047
 30
0.0
  0
VERTEX
  5
102
  8
LAYER_1
 10
5.031255598879643
 20
4.886264272535632
 30
0.0
  0
VERTEX
  5
103
  8
LAYER_1
 10
5.03692844049973
 20
4.888567049117261
 30
0.0
  0
SEQEND
  5
104
  8
LAYER_1
  0
POLYLINE
  5
43
  8
LAYER_1
 66
     1
 10
0.0
 20
0.0
 30
0.0
 70
     1
  0
VERTEX
  5
105
  8
LAYER_1
 10
5.12130245750336
 20
4.907431349535894
 30
0.0
  0
VERTEX
  5
106
  8
LAYER_1
 10
5.109636744199061
 20
4.91779228460098
 30
0.0
  0
VERTEX
  5
107
  8
LAYER_1
 10
5.105453926543109
 20
4.921183227007767
 30
0.0
  0
VERTEX
  5
108
  8
LAYER_1
 10
5.103164663377624
 20
4.922712598041912
 30
0.0
  0
VERTEX
  5
109
  8
LAYER_1
 10
5.102416114359247
 20
4.922727669984406
 30
0.0
  0
VERTEX
  5
10A
  8
LAYER_1
 10
5.101539607376392
 20
4.922302288020251
 30
0.0
  0
VERTEX
  5
10B
  8
LAYER_1
 10
5.099521857370011
 20
4.920359501510029
 30
0.0
  0
VERTEX
  5
10C
  8
LAYER_1
 10
5.097349689064011
 20
4.917342916787324
 30
0.0
  0
VERTEX
  5
10D
  8
LAYER_1
 10
5.095261378163931
 20
4.913711212128206
 30
0.0
  0
VERTEX
  5
10E
  8
LAYER_1
 10
5.093495200375303
 20
4.90992306580875
 30
0.0
  0
VERTEX
  5
10F
  8
LAYER_1
 10
5.092289431403663
 20
4.90643715610503
 30
0.0
  0
VERTEX
  5
110
  8
LAYER_1
 10
5.091882346954546
 20
4.903712161293118
 30
0.0
  0
VERTEX
  5
111
  8
LAYER_1
 10
5.092052772583913
 20
4.902778343932863
 30
0.0
  0
VERTEX
  5
112
  8
LAYER_1
 10
5.092512222733486
 20
4.90220675964909
 30
0.0
  0
VERTEX
  5
113
  8
LAYER_1
 10
5.099889892247893
 20
4.899456099268327
 30
0.0
  0
VERTEX
  5
114
  8
LAYER_1
 10
5.113159690657135
 20
4.895353731659573
 30
0.0
  0
VERTEX
  5
115
  8
LAYER_1
 10
5.126462283777371
 20
4.891626188133305
 30
0.0
  0
VERTEX
  5
116
  8
LAYER_1
 10
5.133938337424759
 20
4.89
 30
0.0
  0
VERTEX
  5
117
  8
LAYER_1
 10
5.135481491904013
 20
4.890163045793913
 30
0.0
  0
VERTEX
  5
118
  8
LAYER_1
 10
5.136268311757544
 20
4.890714651199986
 30
0.0
  0
VERTEX
  5
119
  8
LAYER_1
 10
5.136230872945437
 20
4.891748518254723
 30
0.0
  0
VERTEX
  5
11A
  8
LAYER_1
 10
5.135301251427778
 20
4.893358348994624
 30
0.0
  0
VERTEX
  5
11B
  8
LAYER_1
 10
5.130493764116153
 20
4.898680709675923
 30
0.0
  0
SEQEND
  5
11C
  8
LAYER_1
  0
POLYLINE
  5
44
  8
LAYER_1
 66
     1
 10
0.0
 20
0.0
 30
0.0
 70
     1
  0
VERTEX
  5
11D
  8
LAYER_1
 10
4.907262449001966
 20
4.905942421529645
 30
0.0
  0
VERTEX
  5
11E
  8
LAYER_1
 10
4.90761028311005
 20
4.906592789913127
 30
0.0
  0
VERTEX
  5
11F
  8
LAYER_1
 10
4.907683908078656
 20
4.907528319836755
 30
0.0
  0
VERTEX
  5
120
  8
LAYER_1
 10
4.907073841171677
 20
4.910078919657667
 30
0.0
  0
VERTEX
  5
121
  8
LAYER_1
 10
4.905562869429506
 20
4.913242331698823
 30
0.0
  0
VERTEX
  5
122
  8
LAYER_1
 10
4.903281614000629
 20
4.916666666666666
 30
0.0
  0
VERTEX
  5
123
  8
LAYER_1
 10
4.901155007711974
 20
4.9193896484375
 30
0.0
  0
VERTEX
  5
124
  8
LAYER_1
 10
4.899383048138407
 20
4.921263020833333
 30
0.0
  0
VERTEX
  5
125
  8
LAYER_1
 10
4.897724278156518
 20
4.922218424479166
 30
0.0
  0
VERTEX
  5
126
  8
LAYER_1
 10
4.895937240642894
 20
4.9221875
 30
0.0
  0
VERTEX
  5
127
  8
LAYER_1
 10
4.893780478474124
 20
4.921101888020833
 30
0.0
  0
VERTEX
  5
128
  8
LAYER_1
 10
4.891012534526796
 20
4.918893229166667
 30
0.0
  0
VERTEX
  5
129
  8
LAYER_1
 10
4.882677272802818
 20
4.910833333333333
 30
0.0
  0
VERTEX
  5
12A
  8
LAYER_1
 10
4.877536520141467
 20
4.905359103023367
 30
0.0
  0
VERTEX
  5
12B
  8
LAYER_1
 10
4.874070456238769
 20
4.900926483367521
 30
0.0
  0
VERTEX
  5
12C
  8
LAYER_1
 10
4.872584070652685
 20
4.897989331276868
 30
0.0
  0
VERTEX
  5
12D
  8
LAYER_1
 10
4.872678566465236
 20
4.8972233858532
 30
0.0
  0
VERTEX
  5
12E
  8
LAYER_1
 10
4.873382352941176
 20
4.897001503662485
 30
0.0
  0
VERTEX
  5
12F
  8
LAYER_1
 10
4.882175229655926
 20
4.89831766336814
 30
0.0
  0
VERTEX
  5
130
  8
LAYER_1
 10
4.892830937634375
 20
4.900794935548241
 30
0.0
  0
VERTEX
  5
131
  8
LAYER_1
 10
4.902232377281421
 20
4.903610721252253
 30
0.0
  0
VERTEX
  5
132
  8
LAYER_1
 10
4.9054886528572
 20
4.904888494503686
 30
0.0
  0
SEQEND
  5
133
  8
LAYER_1
  0
POLYLINE
  5
45
  8
LAYER_1
 66
     1
 10
0.0
 20
0.0
 30
0.0
 70
     1
  0
VERTEX
  5
134
  8
LAYER_1
 10
5.083333333333333
 20
4.93501382020945
 30
0.0
  0
VERTEX
  5
135
  8
LAYER_1
 10
5.082920911656081
 20
4.936128959261626
 30
0.0
  0
VERTEX
  5
136
  8
LAYER_1
 10
5.081736989462041
 20
4.937453684137754
 30
0.0
  0
VERTEX
  5
137
  8
LAYER_1
 10
5.077374700549887
 20
4.940593151449078
 30
0.0
  0
VERTEX
  5
138
  8
LAYER_1
 10
5.070886580649455
 20
4.944154742317829
 30
0.0
  0
VERTEX
  5
139
  8
LAYER_1
 10
5.062912743813332
 20
4.947860976918415
 30
0.0
  0
VERTEX
  5
13A
  8
LAYER_1
 10
5.054093304094101
 20
4.951434375425243
 30
0.0
  0
VERTEX
  5
13B
  8
LAYER_1
 10
5.045068375544346
 20
4.954597458012719
 30
0.0
  0
VERTEX
  5
13C
  8
LAYER_1
 10
5.036478072216652
 20
4.957072744855251
 30
0.0
  0
VERTEX
  5
13D
  8
LAYER_1
 10
5.028962508163604
 20
4.958582756127243
 30
0.0
  0
VERTEX
  5
13E
  8
LAYER_1
 10
5.024400949318808
 20
4.959173595288407
 30
0.0
  0
VERTEX
  5
13F
  8
LAYER_1
 10
5.02126771049267
 20
4.959329709051893
 30
0.0
  0
VERTEX
  5
140
  8
LAYER_1
 10
5.020274003236073
 20
4.959165422909731
 30
0.0
  0
VERTEX
  5
141
  8
LAYER_1
 10
5.019682126563509
 20
4.958797270218419
 30
0.0
  0
VERTEX
  5
142
  8
LAYER_1
 10
5.019506997334771
 20
4.958193522578044
 30
0.0
  0
VERTEX
  5
143
  8
LAYER_1
 10
5.019763532409647
 20
4.9573224515887
 30
0.0
  0
VERTEX
  5
144
  8
LAYER_1
 10
5.021631262909402
 20
4.954651425963455
 30
0.0
  0
VERTEX
  5
145
  8
LAYER_1
 10
5.025404652941096
 20
4.950530366143399
 30
0.0
  0
VERTEX
  5
146
  8
LAYER_1
 10
5.039145751113575
 20
4.93692283512172
 30
0.0
  0
VERTEX
  5
147
  8
LAYER_1
 10
5.06329150222715
 20
4.913333333333333
 30
0.0
  0
VERTEX
  5
148
  8
LAYER_1
 10
5.066403817283465
 20
4.913333333333333
 30
0.0
  0
VERTEX
  5
149
  8
LAYER_1
 10
5.06830968207095
 20
4.914049326926879
 30
0.0
  0
VERTEX
  5
14A
  8
LAYER_1
 10
5.070780616909515
 20
4.915981744286885
 30
0.0
  0
VERTEX
  5
14B
  8
LAYER_1
 10
5.073564133162012
 20
4.918807240282401
 30
0.0
  0
VERTEX
  5
14C
  8
LAYER_1
 10
5.076407742191295
 20
4.92220246978248
 30
0.0
  0
VERTEX
  5
14D
  8
LAYER_1
 10
5.079058955360216
 20
4.925844087656173
 30
0.0
  0
VERTEX
  5
14E
  8
LAYER_1
 10
5.081265284031627
 20
4.929408748772531
 30
0.0
  0
VERTEX
  5
14F
  8
LAYER_1
 10
5.082774239568383
 20
4.932573108000605
 30
0.0
  0
SEQEND
  5
150
  8
LAYER_1
  0
POLYLINE
  5
46
  8
LAYER_1
 66
     1
 10
0.0
 20
0.0
 30
0.0
 70
     1
  0
VERTEX
  5
151
  8
LAYER_1
 10
4.977300986988611
 20
4.954999999999999
 30
0.0
  0
VERTEX
  5
152
  8
LAYER_1
 10
4.977744055588118
 20
4.955968850321864
 30
0.0
  0
VERTEX
  5
153
  8
LAYER_1
 10
4.977626553198437
 20
4.95674493114869
 30
0.0
  0
VERTEX
  5
154
  8
LAYER_1
 10
4.976987846070974
 20
4.957333234110465
 30
0.0
  0
VERTEX
  5
155
  8
LAYER_1
 10
4.975867300457137
 20
4.957738750837181
 30
0.0
  0
VERTEX
  5
156
  8
LAYER_1
 10
4.972338158775981
 20
4.958021392105379
 30
0.0
  0
VERTEX
  5
157
  8
LAYER_1
 10
4.967354058166232
 20
4.957632787993191
 30
0.0
  0
VERTEX
  5
158
  8
LAYER_1
 10
4.96122992863916
 20
4.956612871540527
 30
0.0
  0
VERTEX
  5
159
  8
LAYER_1
 10
4.95428070020603
 20
4.955001575787293
 30
0.0
  0
VERTEX
  5
15A
  8
LAYER_1
 10
4.946821302878109
 20
4.952838833773397
 30
0.0
  0
VERTEX
  5
15B
  8
LAYER_1
 10
4.939166666666666
 20
4.950164578538748
 30
0.0
  0
VERTEX
  5
15C
  8
LAYER_1
 10
4.931416934502365
 20
4.946850014629044
 30
0.0
  0
VERTEX
  5
15D
  8
LAYER_1
 10
4.925356719557658
 20
4.94353416579079
 30
0.0
  0
VERTEX
  5
15E
  8
LAYER_1
 10
4.921409811500788
 20
4.940486518461718
 30
0.0
  0
VERTEX
  5
15F
  8
LAYER_1
 10
4.920361281826619
 20
4.939147484874915
 30
0.0
  0
VERTEX
  5
160
  8
LAYER_1
 10
4.92
 20
4.937976559079556
 30
0.0
  0
VERTEX
  5
161
  8
LAYER_1
 10
4.920424696154647
 20
4.93536211431824
 30
0.0
  0
VERTEX
  5
162
  8
LAYER_1
 10
4.921576173200304
 20
4.932150714039789
 30
0.0
  0
VERTEX
  5
163
  8
LAYER_1
 10
4.923270514009538
 20
4.928633794318443
 30
0.0
  0
VERTEX
  5
164
  8
LAYER_1
 10
4.925323801454919
 20
4.925102791228441
 30
0.0
  0
VERTEX
  5
165
  8
LAYER_1
 10
4.927552118409015
 20
4.921849140844023
 30
0.0
  0
VERTEX
  5
166
  8
LAYER_1
 10
4.929771547744396
 20
4.919164279239429
 30
0.0
  0
VERTEX
  5
167
  8
LAYER_1
 10
4.931798172333631
 20
4.917339642488897
 30
0.0
  0
VERTEX
  5
168
  8
LAYER_1
 10
4.933448075049289
 20
4.916666666666666
 30
0.0
  0
VERTEX
  5
169
  8
LAYER_1
 10
4.935947910348232
 20
4.918066158933989
 30
0.0
  0
VERTEX
  5
16A
  8
LAYER_1
 10
4.940869628737262
 20
4.921807187773679
 30
0.0
  0
VERTEX
  5
16B
  8
LAYER_1
 10
4.954838822144534
 20
4.933569167396477
 30
0.0
  0
VERTEX
  5
16C
  8
LAYER_1
 10
4.969075869989014
 20
4.946463229987704
 30
0.0
  0
VERTEX
  5
16D
  8
LAYER_1
 10
4.974332406424554
 20
4.951619362537929
 30
0.0
  0
SEQEND
  5
16E
  8
LAYER_1
  0
POLYLINE
  5
47
  8
LAYER_1
 66
     1
 10
0.0
 20
0.0
 30
0.0
 70
     1
  0
VERTEX
  5
16F
  8
LAYER_1
 10
5.083077746986974
 20
5.003333333333333
 30
0.0
  0
VERTEX
  5
170
  8
LAYER_1
 10
5.079748241607871
 20
5.009762242604769
 30
0.0
  0
VERTEX
  5
171
  8
LAYER_1
 10
5.075532671452141
 20
5.016412748594608
 30
0.0
  0
VERTEX
  5
172
  8
LAYER_1
 10
5.070628065856946
 20
5.023064114782985
 30
0.0
  0
VERTEX
  5
173
  8
LAYER_1
 10
5.065231454159446
 20
5.029495604650038
 30
0.0
  0
VERTEX
  5
174
  8
LAYER_1
 10
5.059539865696802
 20
5.035486481675909
 30
0.0
  0
VERTEX
  5
175
  8
LAYER_1
 10
5.053750329806174
 20
5.040816009340732
 30
0.0
  0
VERTEX
  5
176
  8
LAYER_1
 10
5.048059875824725
 20
5.045263451124649
 30
0.0
  0
VERTEX
  5
177
  8
LAYER_1
 10
5.042665533089614
 20
5.048608070507795
 30
0.0
  0
VERTEX
  5
178
  8
LAYER_1
 10
5.035883096649082
 20
5.051945287378331
 30
0.0
  0
VERTEX
  5
179
  8
LAYER_1
 10
5.032216277464092
 20
5.053333333333333
 30
0.0
  0
VERTEX
  5
17A
  8
LAYER_1
 10
5.031465550645838
 20
5.051820963541666
 30
0.0
  0
VERTEX
  5
17B
  8
LAYER_1
 10
5.030491991610434
 20
5.047703124999999
 30
0.0
  0
VERTEX
  5
17C
  8
LAYER_1
 10
5.028379901264385
 20
5.034166666666666
 30
0.0
  0
VERTEX
  5
17D
  8
LAYER_1
 10
5.02695330954281
 20
5.025409505208332
 30
0.0
  0
VERTEX
  5
17E
  8
LAYER_1
 10
5.024834500653043
 20
5.015734374999999
 30
0.0
  0
VERTEX
  5
17F
  8
LAYER_1
 10
5.022309459495368
 20
5.006317057291666
 30
0.0
  0
VERTEX
  5
180
  8
LAYER_1
 10
5.019664170970064
 20
4.998333333333333
 30
0.0
  0
VERTEX
  5
181
  8
LAYER_1
 10
5.015120190295344
 20
4.985831716368308
 30
0.0
  0
VERTEX
  5
182
  8
LAYER_1
 10
5.014134247377925
 20
4.981979521966926
 30
0.0
  0
VERTEX
  5
183
  8
LAYER_1
 10
5.01407572472968
 20
4.979387085024515
 30
0.0
  0
VERTEX
  5
184
  8
LAYER_1
 10
5.01441066522272
 20
4.978483747804691
 30
0.0
  0
VERTEX
  5
185
  8
LAYER_1
 10
5.014997163842521
 20
4.977799916594734
 30
0.0
  0
VERTEX
  5
186
  8
LAYER_1
 10
5.016951106208358
 20
4.976963527731245
 30
0.0
  0
VERTEX
  5
187
  8
LAYER_1
 10
5.024166666666666
 20
4.976525132917791
 30
0.0
  0
VERTEX
  5
188
  8
LAYER_1
 10
5.028542234007464
 20
4.976077911899138
 30
0.0
  0
VERTEX
  5
189
  8
LAYER_1
 10
5.034524895029934
 20
4.974898172000971
 30
0.0
  0
VERTEX
  5
18A
  8
LAYER_1
 10
5.049882700847521
 20
4.970771334722599
 30
0.0
  0
VERTEX
  5
18B
  8
LAYER_1
 10
5.06738248957468
 20
4.965005019395665
 30
0.0
  0
VERTEX
  5
18C
  8
LAYER_1
 10
5.084166666666667
 20
4.958459624333163
 30
0.0
  0
VERTEX
  5
18D
  8
LAYER_1
 10
5.085882128299255
 20
4.957837051360391
 30
0.0
  0
VERTEX
  5
18E
  8
LAYER_1
 10
5.087228830213503
 20
4.957680687899716
 30
0.0
  0
VERTEX
  5
18F
  8
LAYER_1
 10
5.088248945725802
 20
4.95809072080405
 30
0.0
  0
VERTEX
  5
190
  8
LAYER_1
 10
5.08898464815254
 20
4.959167336926302
 30
0.0
  0
VERTEX
  5
191
  8
LAYER_1
 10
5.089478110810109
 20
4.961010723119385
 30
0.0
  0
VERTEX
  5
192
  8
LAYER_1
 10
5.089771507014898
 20
4.963721066236207
 30
0.0
  0
VERTEX
  5
193
  8
LAYER_1
 10
5.089926793331697
 20
4.972143370652718
 30
0.0
  0
VERTEX
  5
194
  8
LAYER_1
 10
5.08936830368898
 20
4.979636731895864
 30
0.0
  0
VERTEX
  5
195
  8
LAYER_1
 10
5.087897204923233
 20
4.987986003969334
 30
0.0
  0
VERTEX
  5
196
  8
LAYER_1
 10
5.085728638775537
 20
4.99621145005465
 30
0.0
  0
SEQEND
  5
197
  8
LAYER_1
  0
POLYLINE
  5
48
  8
LAYER_1
 66
     1
 10
0.0
 20
0.0
 30
0.0
 70
     1
  0
VERTEX
  5
198
  8
LAYER_1
 10
4.970833333333333
 20
4.978831040732061
 30
0.0
  0
VERTEX
  5
199
  8
LAYER_1
 10
4.979660964613954
 20
4.980378028041875
 30
0.0
  0
VERTEX
  5
19A
  8
LAYER_1
 10
4.98333165258651
 20
4.981259360739068
 30
0.0
  0
VERTEX
  5
19B
  8
LAYER_1
 10
4.977002495696602
 20
4.998333333333333
 30
0.0
  0
VERTEX
  5
19C
  8
LAYER_1
 10
4.974356006949254
 20
5.006326663544415
 30
0.0
  0
VERTEX
  5
19D
  8
LAYER_1
 10
4.971827697860265
 20
5.015770136891422
 30
0.0
  0
VERTEX
  5
19E
  8
LAYER_1
 10
4.969704052432157
 20
5.025483977444991
 30
0.0
  0
VERTEX
  5
19F
  8
LAYER_1
 10
4.968271554667446
 20
5.034288409275764
 30
0.0
  0
VERTEX
  5
1A0
  8
LAYER_1
 10
4.966745061245435
 20
5.045352751327641
 30
0.0
  0
VERTEX
  5
1A1
  8
LAYER_1
 10
4.965992530989793
 20
5.048574886988415
 30
0.0
  0
VERTEX
  5
1A2
  8
LAYER_1
 10
4.965072600614131
 20
5.050471610906674
 30
0.0
  0
VERTEX
  5
1A3
  8
LAYER_1
 10
4.963854361800752
 20
5.051203881958111
 30
0.0
  0
VERTEX
  5
1A4
  8
LAYER_1
 10
4.962206906231961
 20
5.050932659018425
 30
0.0
  0
VERTEX
  5
1A5
  8
LAYER_1
 10
4.957100711557354
 20
5.048023566668461
 30
0.0
  0
VERTEX
  5
1A6
  8
LAYER_1
 10
4.952202681360153
 20
5.04472105348853
 30
0.0
  0
VERTEX
  5
1A7
  8
LAYER_1
 10
4.947544966477678
 20
5.041177566767949
 30
0.0
  0
VERTEX
  5
1A8
  8
LAYER_1
 10
4.943137916606743
 20
5.037410190082472
 30
0.0
  0
VERTEX
  5
1A9
  8
LAYER_1
 10
4.938991881444164
 20
5.03343600700785
 30
0.0
  0
VERTEX
  5
1AA
  8
LAYER_1
 10
4.935117210686757
 20
5.029272101119838
 30
0.0
  0
VERTEX
  5
1AB
  8
LAYER_1
 10
4.931524254031335
 20
5.02493555599419
 30
0.0
  0
VERTEX
  5
1AC
  8
LAYER_1
 10
4.928223361174714
 20
5.020443455206658
 30
0.0
  0
VERTEX
  5
1AD
  8
LAYER_1
 10
4.92522488181371
 20
5.015812882332995
 30
0.0
  0
VERTEX
  5
1AE
  8
LAYER_1
 10
4.922539165645138
 20
5.011060920948955
 30
0.0
  0
VERTEX
  5
1AF
  8
LAYER_1
 10
4.920176562365812
 20
5.006204654630288
 30
0.0
  0
VERTEX
  5
1B0
  8
LAYER_1
 10
4.918147421672548
 20
5.001261166952749
 30
0.0
  0
VERTEX
  5
1B1
  8
LAYER_1
 10
4.91646209326216
 20
4.996247541492091
 30
0.0
  0
VERTEX
  5
1B2
  8
LAYER_1
 10
4.915130926831464
 20
4.991180861824068
 30
0.0
  0
VERTEX
  5
1B3
  8
LAYER_1
 10
4.914164272077275
 20
4.986078211524432
 30
0.0
  0
VERTEX
  5
1B4
  8
LAYER_1
 10
4.913572478696409
 20
4.980956674168936
 30
0.0
  0
VERTEX
  5
1B5
  8
LAYER_1
 10
4.913365896385679
 20
4.975833333333333
 30
0.0
  0
VERTEX
  5
1B6
  8
LAYER_1
 10
4.913550518388011
 20
4.969708787729133
 30
0.0
  0
VERTEX
  5
1B7
  8
LAYER_1
 10
4.914077273729959
 20
4.964737562074134
 30
0.0
  0
VERTEX
  5
1B8
  8
LAYER_1
 10
4.914865199636681
 20
4.961429523104735
 30
0.0
  0
VERTEX
  5
1B9
  8
LAYER_1
 10
4.915331800684694
 20
4.960558531982261
 30
0.0
  0
VERTEX
  5
1BA
  8
LAYER_1
 10
4.915833333333333
 20
4.960294537557337
 30
0.0
  0
VERTEX
  5
1BB
  8
LAYER_1
 10
4.923473958333333
 20
4.962885006964346
 30
0.0
  0
VERTEX
  5
1BC
  8
LAYER_1
 10
4.938333333333333
 20
4.968699550883663
 30
0.0
  0
VERTEX
  5
1BD
  8
LAYER_1
 10
4.947085286458332
 20
4.972008167195545
 30
0.0
  0
VERTEX
  5
1BE
  8
LAYER_1
 10
4.956130208333333
 20
4.975021247281338
 30
0.0
  0
VERTEX
  5
1BF
  8
LAYER_1
 10
4.964401692708332
 20
4.977406351630394
 30
0.0
  0
SEQEND
  5
1C0
  8
LAYER_1
  0
POLYLINE
  5
49
  8
LAYER_1
 66
     1
 10
0.0
 20
0.0
 30
0.0
 70
     1
  0
VERTEX
  5
1C1
  8
LAYER_1
 10
5.008226935142247
 20
5.020422593436655
 30
0.0
  0
VERTEX
  5
1C2
  8
LAYER_1
 10
5.011778207728898
 20
5.038118928488684
 30
0.0
  0
VERTEX
  5
1C3
  8
LAYER_1
 10
5.012869781050167
 20
5.045597798388361
 30
0.0
  0
VERTEX
  5
1C4
  8
LAYER_1
 10
5.013284063044346
 20
5.050833333333333
 30
0.0
  0
VERTEX
  5
1C5
  8
LAYER_1
 10
5.013233225873158
 20
5.053677291359805
 30
0.0
  0
VERTEX
  5
1C6
  8
LAYER_1
 10
5.01296103935165
 20
5.05586573934502
 30
0.0
  0
VERTEX
  5
1C7
  8
LAYER_1
 10
5.012339592036756
 20
5.057483843067728
 30
0.0
  0
VERTEX
  5
1C8
  8
LAYER_1
 10
5.011240972485409
 20
5.058616768306684
 30
0.0
  0
VERTEX
  5
1C9
  8
LAYER_1
 10
5.009537269254544
 20
5.059349680840637
 30
0.0
  0
VERTEX
  5
1CA
  8
LAYER_1
 10
5.007100570901093
 20
5.059767746448339
 30
0.0
  0
VERTEX
  5
1CB
  8
LAYER_1
 10
4.99951654305417
 20
5.06
 30
0.0
  0
VERTEX
  5
1CC
  8
LAYER_1
 10
4.994959650371652
 20
5.059955537856068
 30
0.0
  0
VERTEX
  5
1CD
  8
LAYER_1
 10
4.991558531544801
 20
5.059644302848538
 30
0.0
  0
VERTEX
  5
1CE
  8
LAYER_1
 10
4.989173636340611
 20
5.058799522113814
 30
0.0
  0
VERTEX
  5
1CF
  8
LAYER_1
 10
4.988318663149201
 20
5.05809368557888
 30
0.0
  0
VERTEX
  5
1D0
  8
LAYER_1
 10
4.987665414526079
 20
5.057154422788301
 30
0.0
  0
VERTEX
  5
1D1
  8
LAYER_1
 10
4.986894315868199
 20
5.054442232008402
 30
0.0
  0
VERTEX
  5
1D2
  8
LAYER_1
 10
4.986720790133964
 20
5.050396176910519
 30
0.0
  0
VERTEX
  5
1D3
  8
LAYER_1
 10
4.987608256504415
 20
5.037235382306416
 30
0.0
  0
VERTEX
  5
1D4
  8
LAYER_1
 10
4.988610308652827
 20
5.028244832154015
 30
0.0
  0
VERTEX
  5
1D5
  8
LAYER_1
 10
4.99002184736473
 20
5.0196521846272
 30
0.0
  0
VERTEX
  5
1D6
  8
LAYER_1
 10
4.991733611322327
 20
5.011798330325913
 30
0.0
  0
VERTEX
  5
1D7
  8
LAYER_1
 10
4.99363633920782
 20
5.005024159850094
 30
0.0
  0
VERTEX
  5
1D8
  8
LAYER_1
 10
4.99562076970341
 20
4.999670563799683
 30
0.0
  0
VERTEX
  5
1D9
  8
LAYER_1
 10
4.997577641491302
 20
4.996078432774623
 30
0.0
  0
VERTEX
  5
1DA
  8
LAYER_1
 10
4.998511598708051
 20
4.995049444959081
 30
0.0
  0
VERTEX
  5
1DB
  8
LAYER_1
 10
4.9993976932537
 20
4.994588657374853
 30
0.0
  0
VERTEX
  5
1DC
  8
LAYER_1
 10
5.000222267463526
 20
4.994738681346934
 30
0.0
  0
VERTEX
  5
1DD
  8
LAYER_1
 10
5.000971663672805
 20
4.995542128200316
 30
0.0
  0
VERTEX
  5
1DE
  8
LAYER_1
 10
5.002239443598993
 20
4.998630361187328
 30
0.0
  0
VERTEX
  5
1DF
  8
LAYER_1
 10
5.00402995788269
 20
5.004350776566101
 30
0.0
  0
SEQEND
  5
1E0
  8
LAYER_1
  0
POLYLINE
  5
4A
  8
LAYER_1
 66
     1
 10
0.0
 20
0.0
 30
0.0
 70
     1
  0
VERTEX
  5
1E1
  8
LAYER_1
 10
5.006491397027638
 20
5.104166666666666
 30
0.0
  0
VERTEX
  5
1E2
  8
LAYER_1
 10
5.004924075107855
 20
5.109020182291667
 30
0.0
  0
VERTEX
  5
1E3
  8
LAYER_1
 10
5.003222804042355
 20
5.112994791666667
 30
0.0
  0
VERTEX
  5
1E4
  8
LAYER_1
 10
5.001592739402442
 20
5.115680338541667
 30
0.0
  0
VERTEX
  5
1E5
  8
LAYER_1
 10
5.000868520608112
 20
5.116411539713542
 30
0.0
  0
VERTEX
  5
1E6
  8
LAYER_1
 10
5.000239036759416
 20
5.116666666666666
 30
0.0
  0
VERTEX
  5
1E7
  8
LAYER_1
 10
4.999704072077293
 20
5.116385086134185
 30
0.0
  0
VERTEX
  5
1E8
  8
LAYER_1
 10
4.999067387500179
 20
5.115580908998
 30
0.0
  0
VERTEX
  5
1E9
  8
LAYER_1
 10
4.997564049986357
 20
5.112648151682035
 30
0.0
  0
VERTEX
  5
1EA
  8
LAYER_1
 10
4.994163840798019
 20
5.103188732248434
 30
0.0
  0
VERTEX
  5
1EB
  8
LAYER_1
 10
4.991241470400524
 20
5.092182596646301
 30
0.0
  0
VERTEX
  5
1EC
  8
LAYER_1
 10
4.990335431375257
 20
5.087316444119671
 30
0.0
  0
VERTEX
  5
1ED
  8
LAYER_1
 10
4.989999999999999
 20
5.083523933156074
 30
0.0
  0
VERTEX
  5
1EE
  8
LAYER_1
 10
4.990204101562499
 20
5.082816049317984
 30
0.0
  0
VERTEX
  5
1EF
  8
LAYER_1
 10
4.990789062499999
 20
5.082155655985318
 30
0.0
  0
VERTEX
  5
1F0
  8
LAYER_1
 10
4.9929375
 20
5.081035155364597
 30
0.0
  0
VERTEX
  5
1F1
  8
LAYER_1
 10
4.996117187499999
 20
5.080278060350595
 30
0.0
  0
VERTEX
  5
1F2
  8
LAYER_1
 10
5.0
 20
5.079999999999999
 30
0.0
  0
VERTEX
  5
1F3
  8
LAYER_1
 10
5.003739903036837
 20
5.080194678003974
 30
0.0
  0
VERTEX
  5
1F4
  8
LAYER_1
 10
5.006558865309592
 20
5.080883241251717
 30
0.0
  0
VERTEX
  5
1F5
  8
LAYER_1
 10
5.008499003141965
 20
5.08222248359697
 30
0.0
  0
VERTEX
  5
1F6
  8
LAYER_1
 10
5.009602432857659
 20
5.084369198893469
 30
0.0
  0
VERTEX
  5
1F7
  8
LAYER_1
 10
5.009911270780373
 20
5.087480180994952
 30
0.0
  0
VERTEX
  5
1F8
  8
LAYER_1
 10
5.009467633233807
 20
5.091712223755153
 30
0.0
  0
SEQEND
  5
1F9
  8
LAYER_1
  0
ENDSEC
  0
EOF
