  0
SECTION
  2
ENTITIES
  0
LINE
  8
CUT
 10
2.774
 20
-0.172
 11
2.761
 21
0
  0
ARC
  8
CUT
 10
2.12884
 20
-0.0458986
 40
0.633821
 50
4.15275
 51
11.9187
  0
ARC
  8
CUT
 10
2.96897
 20
0.13358
 40
0.22527
 50
170.18
 51
192.454
  0
ARC
  8
CUT
 10
2.96828
 20
0.134618
 40
0.224416
 50
140.95
 51
170.411
  0
ARC
  8
CUT
 10
2.92435
 20
0.16857
 40
0.168913
 50
105.925
 51
140.505
  0
ARC
  8
CUT
 10
2.90207
 20
0.243906
 40
0.0903602
 50
85.6038
 51
105.451
  0
ARC
  8
CUT
 10
2.69966
 20
-3.24185
 40
3.58197
 50
83.4863
 51
86.6495
  0
ARC
  8
CUT
 10
3.13991
 20
0.587054
 40
0.272174
 50
262.844
 51
278.684
  0
ARC
  8
CUT
 10
3.10177
 20
0.790385
 40
0.478983
 50
279.521
 51
291.588
  0
ARC
  8
CUT
 10
3.14739
 20
0.67968
 40
0.359262
 50
291.318
 51
304.33
  0
ARC
  8
CUT
 10
2.85408
 20
1.11286
 40
0.882399
 50
304.195
 51
312.569
  0
ARC
  8
CUT
 10
1.9685
 20
2.0805
 40
2.19411
 50
312.506
 51
317.494
  0
ARC
  8
CUT
 10
2.98884
 20
1.13952
 40
0.80613
 50
317.798
 51
326.108
  0
ARC
  8
CUT
 10
2.7525
 20
1.30187
 40
1.09285
 50
325.952
 51
346.244
  0
ARC
  8
CUT
 10
4.51927
 20
0.869477
 40
0.726062
 50
135.32
 51
166.254
  0
ARC
  8
CUT
 10
2.39875
 20
2.96166
 40
2.25283
 50
315.406
 51
332.774
  0
ARC
  8
CUT
 10
4.24983
 20
2.01058
 40
0.17172
 50
332.391
 51
39.1511
  0
ARC
  8
CUT
 10
4.35574
 20
2.09551
 40
0.0359852
 50
40.7543
 51
73.4352
  0
ARC
  8
CUT
 10
3.00297
 20
-2.16626
 40
4.50729
 50
72.3979
 51
75.3753
  0
ARC
  8
CUT
 10
4.62521
 20
4.08831
 40
1.95424
 50
246.437
 51
255.654
  0
ARC
  8
CUT
 10
5.38551
 20
5.7957
 40
3.82324
 50
239.603
 51
246.222
  0
ARC
  8
CUT
 10
9.12252
 20
12.2039
 40
11.2415
 50
237.642
 51
239.701
  0
ARC
  8
CUT
 10
-3.53465
 20
-7.76238
 40
12.3987
 50
57.6158
 51
59.4847
  0
ARC
  8
CUT
 10
1.56213
 20
0.880482
 40
2.36492
 50
59.5399
 51
71.2579
  0
ARC
  8
CUT
 10
2.11022
 20
2.50124
 40
0.654001
 50
71.106
 51
93.526
  0
ARC
  8
CUT
 10
2.07419
 20
3.04769
 40
0.106388
 50
92.2565
 51
105.924
  0
ARC
  8
CUT
 10
25.0081
 20
-68.3484
 40
75.0954
 50
107.805
 51
108.339
  0
ARC
  8
CUT
 10
1.09895
 20
3.78815
 40
0.900152
 50
269.94
 51
288.193
  0
ARC
  8
CUT
 10
1.09576
 20
3.51243
 40
0.624436
 50
248.114
 51
270.205
  0
ARC
  8
CUT
 10
0.98017
 20
3.2239
 40
0.313608
 50
229.62
 51
248.061
  0
ARC
  8
CUT
 10
0.58247
 20
2.75832
 40
0.29871
 50
49.3654
 51
68.901
  0
ARC
  8
CUT
 10
6.14501
 20
17.1693
 40
15.1486
 50
248.211
 51
248.894
  0
ARC
  8
CUT
 10
0.524709
 20
3.11318
 40
0.0105352
 50
222.971
 51
255.102
  0
ARC
  8
CUT
 10
0.603149
 20
3.18571
 40
0.117367
 50
191.156
 51
222.776
  0
ARC
  8
CUT
 10
0.844877
 20
3.23613
 40
0.364292
 50
173.399
 51
191.58
  0
ARC
  8
CUT
 10
2.10983
 20
3.08192
 40
1.6386
 50
168.878
 51
173.127
  0
ARC
  8
CUT
 10
0.828094
 20
3.33433
 40
0.332251
 50
159.443
 51
168.952
  0
ARC
  8
CUT
 10
-1.40532
 20
4.17085
 40
2.05268
 50
339.471
 51
349.052
  0
ARC
  8
CUT
 10
0.447789
 20
3.81396
 40
0.165525
 50
348.515
 51
23.1377
  0
ARC
  8
CUT
 10
0.335016
 20
3.76498
 40
0.288474
 50
23.2816
 51
55.5985
  0
ARC
  8
CUT
 10
0.607769
 20
4.16438
 40
0.195174
 50
186.88
 51
235.777
  0
ARC
  8
CUT
 10
0.503268
 20
4.15314
 40
0.0900901
 50
159.289
 51
187.744
  0
ARC
  8
CUT
 10
1.28612
 20
3.83518
 40
0.935021
 50
149.196
 51
158.029
  0
ARC
  8
CUT
 10
-0.58191
 20
4.94224
 40
1.23641
 50
329.462
 51
349.551
  0
ARC
  8
CUT
 10
0.27987
 20
4.78388
 40
0.360206
 50
349.462
 51
27.2844
  0
ARC
  8
CUT
 10
0.154889
 20
4.7201
 40
0.500517
 50
27.2142
 51
66.1837
  0
ARC
  8
CUT
 10
0.910787
 20
6.43872
 40
1.37699
 50
232.315
 51
246.286
  0
ARC
  8
CUT
 10
0.222618
 20
5.54734
 40
0.250872
 50
213.74
 51
232.241
  0
ARC
  8
CUT
 10
0.0817543
 20
5.45379
 40
0.0817737
 50
181.251
 51
214.049
  0
ARC
  8
CUT
 10
0.145684
 20
5.45497
 40
0.145714
 50
108.686
 51
181.167
  0
ARC
  8
CUT
 10
0.252162
 20
5.13599
 40
0.481995
 50
70.3808
 51
108.528
  0
ARC
  8
CUT
 10
0.564882
 20
6.02043
 40
0.456105
 50
250.682
 51
266.873
  0
ARC
  8
CUT
 10
0.719295
 20
8.43796
 40
2.87855
 50
266.429
 51
272.862
  0
ARC
  8
CUT
 10
0.844127
 20
5.94104
 40
0.378506
 50
272.858
 51
298.374
  0
ARC
  8
CUT
 10
0.936035
 20
5.77004
 40
0.184375
 50
298.496
 51
335.644
  0
ARC
  8
CUT
 10
0.921974
 20
5.77748
 40
0.200257
 50
335.362
 51
30.7924
  0
ARC
  8
CUT
 10
0.78064
 20
5.69329
 40
0.364767
 50
30.7879
 51
71.3977
  0
ARC
  8
CUT
 10
1.04194
 20
6.46318
 40
0.448262
 50
242.938
 51
251.135
  0
ARC
  8
CUT
 10
0.845509
 20
6.08151
 40
0.0190508
 50
203.212
 51
246.788
  0
ARC
  8
CUT
 10
0.873236
 20
6.09245
 40
0.0488554
 50
103.296
 51
202.193
  0
ARC
  8
CUT
 10
0.922678
 20
5.88282
 40
0.264241
 50
64.8446
 51
103.275
  0
ARC
  8
CUT
 10
1.17506
 20
6.41799
 40
0.327455
 50
244.677
 51
275.422
  0
ARC
  8
CUT
 10
1.24872
 20
5.65493
 40
0.439157
 50
72.6058
 51
95.5819
  0
ARC
  8
CUT
 10
0.633807
 20
3.676
 40
2.51141
 50
68.2114
 51
72.7153
  0
ARC
  8
CUT
 10
-1.53023
 20
-1.69019
 40
8.29752
 50
65.5963
 51
68.0899
  0
ARC
  8
CUT
 10
3.0843
 20
8.49072
 40
2.88036
 50
245.678
 51
248.165
  0
ARC
  8
CUT
 10
2.25285
 20
6.40935
 40
0.639071
 50
247.956
 51
253.374
  0
ARC
  8
CUT
 10
2.51664
 20
7.30406
 40
1.57185
 50
253.492
 51
266.585
  0
ARC
  8
CUT
 10
2.38617
 20
5.11194
 40
0.624149
 50
53.0907
 51
86.6168
  0
ARC
  8
CUT
 10
2.20262
 20
4.86531
 40
0.931577
 50
31.1356
 51
53.1737
  0
ARC
  8
CUT
 10
3.30249
 20
5.52873
 40
0.352887
 50
210.996
 51
271.706
  0
ARC
  8
CUT
 10
3.30566
 20
5.42286
 40
0.246965
 50
271.704
 51
313.932
  0
ARC
  8
CUT
 10
3.89741
 20
4.80929
 40
0.605463
 50
116.951
 51
133.976
  0
ARC
  8
CUT
 10
3.75631
 20
5.08341
 40
0.297163
 50
101.119
 51
116.653
  0
ARC
  8
CUT
 10
3.78714
 20
4.95228
 40
0.431811
 50
88.8242
 51
101.778
  0
ARC
  8
CUT
 10
3.78847
 20
5.00884
 40
0.375237
 50
78.8559
 51
88.8509
  0
ARC
  8
CUT
 10
3.64627
 20
4.33797
 40
1.06099
 50
72.3478
 51
78.3233
  0
ARC
  8
CUT
 10
4.64446
 20
7.5054
 40
2.26001
 50
252.583
 51
258.218
  0
ARC
  8
CUT
 10
4.20491
 20
5.39402
 40
0.10337
 50
257.765
 51
284.622
  0
ARC
  8
CUT
 10
4.2117
 20
5.36879
 40
0.0772365
 50
284.473
 51
326.361
  0
ARC
  8
CUT
 10
-18.6024
 20
20.2741
 40
27.3289
 50
326.841
 51
329.033
  0
ARC
  8
CUT
 10
5.16458
 20
6.01157
 40
0.389161
 50
121.888
 51
149
  0
ARC
  8
CUT
 10
7.42405
 20
2.37209
 40
4.67297
 50
114.032
 51
121.838
  0
ARC
  8
CUT
 10
7.37204
 20
2.48261
 40
4.55086
 50
110.76
 51
114.001
  0
ARC
  8
CUT
 10
11.3438
 20
-7.98063
 40
15.7426
 50
109.025
 51
110.779
  0
ARC
  8
CUT
 10
10.3729
 20
-5.18633
 40
12.7844
 50
106.682
 51
108.994
  0
ARC
  8
CUT
 10
7.27815
 20
5.15277
 40
1.99206
 50
100.884
 51
106.781
  0
ARC
  8
CUT
 10
7.38125
 20
4.60503
 40
2.54942
 50
94.0769
 51
100.835
  0
ARC
  8
CUT
 10
7.50597
 20
2.84202
 40
4.31683
 50
88.8581
 51
94.0645
  0
ARC
  8
CUT
 10
7.50233
 20
2.18063
 40
4.97818
 50
86.053
 51
88.9679
  0
ARC
  8
CUT
 10
6.78292
 20
-7.5987
 40
14.7839
 50
84.1802
 51
85.8803
  0
ARC
  8
CUT
 10
6.4477
 20
-11.3723
 40
18.5721
 50
82.7422
 51
84.3319
  0
ARC
  8
CUT
 10
8.49431
 20
4.80367
 40
2.26723
 50
77.837
 51
82.4042
  0
ARC
  8
CUT
 10
7.93945
 20
2.13161
 40
4.99625
 50
74.8406
 51
78.0731
  0
ARC
  8
CUT
 10
6.17687
 20
-4.40212
 40
11.7635
 50
72.7615
 51
74.8764
  0
ARC
  8
CUT
 10
11.2181
 20
11.8563
 40
5.25853
 50
252.798
 51
257.076
  0
ARC
  8
CUT
 10
10.8113
 20
10.0512
 40
3.40817
 50
256.955
 51
262.273
  0
ARC
  8
CUT
 10
10.5175
 20
7.94753
 40
1.28411
 50
262.641
 51
268.283
  0
ARC
  8
CUT
 10
10.4877
 20
6.83036
 40
0.166592
 50
267.004
 51
282.936
  0
ARC
  8
CUT
 10
10.4252
 20
7.07254
 40
0.416659
 50
283.854
 51
318.233
  0
ARC
  8
CUT
 10
9.21378
 20
8.15915
 40
2.04403
 50
318.135
 51
333.497
  0
ARC
  8
CUT
 10
20.4784
 20
2.55255
 40
10.5387
 50
150.4
 51
153.548
  0
ARC
  8
CUT
 10
8.12654
 20
9.57216
 40
3.66844
 50
330.361
 51
339.426
  0
ARC
  8
CUT
 10
8.10171
 20
9.57908
 40
3.69411
 50
339.461
 51
345.994
  0
ARC
  8
CUT
 10
9.99033
 20
9.11004
 40
1.74813
 50
345.928
 51
355.471
  0
ARC
  8
CUT
 10
10.4729
 20
9.0727
 40
1.26413
 50
355.431
 51
12.3
  0
ARC
  8
CUT
 10
10.6495
 20
9.10883
 40
1.08391
 50
12.4227
 51
30.7486
  0
ARC
  8
CUT
 10
10.7407
 20
9.16425
 40
0.977211
 50
30.6893
 51
51.1228
  0
ARC
  8
CUT
 10
10.711
 20
9.12955
 40
1.02283
 50
51.0502
 51
71.0598
  0
ARC
  8
CUT
 10
10.6603
 20
8.97475
 40
1.18571
 50
71.1708
 51
87.1631
  0
ARC
  8
CUT
 10
10.6423
 20
8.70472
 40
1.4563
 50
86.9805
 51
101.458
  0
ARC
  8
CUT
 10
10.9088
 20
7.40994
 40
2.77822
 50
101.54
 51
110.276
  0
ARC
  8
CUT
 10
10.4805
 20
8.57023
 40
1.5414
 50
110.289
 51
122.029
  0
ARC
  8
CUT
 10
13.6153
 20
3.54325
 40
7.46575
 50
121.965
 51
125.105
  0
ARC
  8
CUT
 10
7.41191
 20
12.3545
 40
3.31017
 50
298.119
 51
305.242
  0
ARC
  8
CUT
 10
8.51226
 20
10.3063
 40
0.985184
 50
286.556
 51
297.817
  0
ARC
  8
CUT
 10
8.57448
 20
10.0722
 40
0.743029
 50
274.053
 51
287.103
  0
ARC
  8
CUT
 10
8.612
 20
9.50715
 40
0.176785
 50
262.196
 51
274.866
  0
ARC
  8
CUT
 10
10.3194
 20
19.8435
 40
10.6531
 50
258.974
 51
260.647
  0
ARC
  8
CUT
 10
8.58113
 20
10.9671
 40
1.60812
 50
250.412
 51
259.28
  0
ARC
  8
CUT
 10
8.16854
 20
9.80014
 40
0.370423
 50
231.312
 51
250.024
  0
ARC
  8
CUT
 10
8.08834
 20
9.70375
 40
0.245065
 50
210.872
 51
231.862
  0
ARC
  8
CUT
 10
8.08897
 20
9.70309
 40
0.245265
 50
189.408
 51
210.666
  0
ARC
  8
CUT
 10
8.04118
 20
9.69713
 40
0.19716
 50
160.791
 51
189.969
  0
ARC
  8
CUT
 10
8.00364
 20
9.70852
 40
0.157973
 50
126.807
 51
160.211
  0
ARC
  8
CUT
 10
8.01834
 20
9.68972
 40
0.181834
 50
99.6062
 51
126.966
  0
ARC
  8
CUT
 10
8.05188
 20
9.51801
 40
0.356754
 50
80.6241
 51
100.315
  0
ARC
  8
CUT
 10
7.52165
 20
6.28666
 40
3.63132
 50
78.8962
 51
80.6759
  0
ARC
  8
CUT
 10
7.99778
 20
8.8107
 40
1.06301
 50
74.4918
 51
77.8781
  0
ARC
  8
CUT
 10
8.60783
 20
11.0786
 40
1.28555
 50
255.318
 51
264.472
  0
ARC
  8
CUT
 10
8.54702
 20
10.4061
 40
0.610332
 50
264.073
 51
277.53
  0
ARC
  8
CUT
 10
8.53066
 20
10.5264
 40
0.731803
 50
277.565
 51
291.596
  0
ARC
  8
CUT
 10
8.47742
 20
10.6481
 40
0.864581
 50
291.907
 51
304.893
  0
ARC
  8
CUT
 10
6.97196
 20
12.8303
 40
3.51567
 50
304.673
 51
311.641
  0
ARC
  8
CUT
 10
10.3689
 20
9.01629
 40
1.5918
 50
116.325
 51
131.796
  0
ARC
  8
CUT
 10
9.96205
 20
9.83237
 40
0.679925
 50
99.4854
 51
116.093
  0
ARC
  8
CUT
 10
10.6055
 20
6.08373
 40
4.48338
 50
93.2288
 51
99.7015
  0
ARC
  8
CUT
 10
10.559
 20
6.66799
 40
3.89746
 50
86.9702
 51
93.0298
  0
ARC
  8
CUT
 10
10.6801
 20
8.76422
 40
1.79779
 50
78.3548
 51
87.2937
  0
ARC
  8
CUT
 10
10.7196
 20
8.97579
 40
1.58261
 50
63.4907
 51
78.2093
  0
ARC
  8
CUT
 10
10.8292
 20
9.19953
 40
1.33346
 50
47.3311
 51
63.4145
  0
ARC
  8
CUT
 10
10.8982
 20
9.27173
 40
1.23361
 50
33.7454
 51
47.4149
  0
ARC
  8
CUT
 10
10.617
 20
9.08504
 40
1.57118
 50
21.5832
 51
33.7088
  0
ARC
  8
CUT
 10
10.3426
 20
8.9774
 40
1.86592
 50
10.2055
 51
21.5574
  0
ARC
  8
CUT
 10
10.6531
 20
9.03015
 40
1.55096
 50
357.851
 51
10.32
  0
ARC
  8
CUT
 10
10.0938
 20
9.05155
 40
2.11066
 50
349.778
 51
357.84
  0
ARC
  8
CUT
 10
8.29664
 20
9.38074
 40
3.93775
 50
343.798
 51
349.705
  0
ARC
  8
CUT
 10
-2.36691
 20
12.4562
 40
15.0359
 50
342.297
 51
343.882
  0
ARC
  8
CUT
 10
4.15621
 20
10.3924
 40
8.19417
 50
340.016
 51
342.175
  0
ARC
  8
CUT
 10
-19.5297
 20
18.9336
 40
33.373
 50
339.252
 51
340.133
  0
ARC
  8
CUT
 10
5.68025
 20
9.4006
 40
6.42085
 50
337.099
 51
339.109
  0
ARC
  8
CUT
 10
-1.65477
 20
12.4748
 40
14.374
 50
335.693
 51
337.189
  0
ARC
  8
CUT
 10
19.1723
 20
3.07077
 40
8.47776
 50
155.711
 51
158.252
  0
ARC
  8
CUT
 10
16.3667
 20
4.20026
 40
5.45332
 50
158.352
 51
162.214
  0
ARC
  8
CUT
 10
7.58537
 20
7.03127
 40
3.77307
 50
336.405
 51
342.011
  0
ARC
  8
CUT
 10
16.448
 20
3.18449
 40
5.88836
 50
156.622
 51
158.244
  0
ARC
  8
CUT
 10
11.0457
 20
5.33879
 40
0.072398
 50
157.063
 51
171.889
  0
ARC
  8
CUT
 10
11.3241
 20
5.30425
 40
0.352935
 50
172.716
 51
200.266
  0
ARC
  8
CUT
 10
12.7687
 20
5.84363
 40
1.89495
 50
200.436
 51
212.302
  0
ARC
  8
CUT
 10
7.56598
 20
2.55703
 40
4.2589
 50
26.9316
 51
32.2716
  0
ARC
  8
CUT
 10
14.8322
 20
6.24769
 40
3.89085
 50
206.922
 51
212.782
  0
ARC
  8
CUT
 10
179.514
 20
112.291
 40
199.761
 50
212.779
 51
212.994
  0
ARC
  8
CUT
 10
13.4493
 20
4.47054
 40
1.76464
 50
212.979
 51
215.293
  0
ARC
  8
CUT
 10
9.02578
 20
1.34828
 40
3.6498
 50
32.5872
 51
35.1781
  0
ARC
  8
CUT
 10
11.9254
 20
3.19831
 40
0.210289
 50
22.2699
 51
33.3783
  0
ARC
  8
CUT
 10
11.6465
 20
3.09108
 40
0.509014
 50
2.69337
 51
21.5441
  0
ARC
  8
CUT
 10
9.86485
 20
2.98966
 40
2.29358
 50
354.278
 51
3.13256
  0
ARC
  8
CUT
 10
18.994
 20
2.07151
 40
6.88166
 50
174.25
 51
177.131
  0
ARC
  8
CUT
 10
-6.02375
 20
3.39601
 40
18.1712
 50
355.815
 51
356.908
  0
ARC
  8
CUT
 10
23.9707
 20
1.23801
 40
11.9008
 50
175.991
 51
178.32
  0
ARC
  8
CUT
 10
14.2531
 20
1.51504
 40
2.17928
 50
178.108
 51
183.553
  0
ARC
  8
CUT
 10
3.7358
 20
0.84712
 40
8.3592
 50
359.958
 51
3.65496
  0
ARC
  8
CUT
 10
11.4367
 20
0.838653
 40
0.658273
 50
346.949
 51
0.204305
  0
ARC
  8
CUT
 10
12.0184
 20
0.700659
 40
0.0605803
 50
342.061
 51
349.866
  0
ARC
  8
CUT
 10
-9.48205
 20
9.33977
 40
23.2316
 50
337.68
 51
338.119
  0
ARC
  8
CUT
 10
9.6365
 20
1.48296
 40
2.56161
 50
330.819
 51
337.846
  0
ARC
  8
CUT
 10
11.7156
 20
0.321533
 40
0.180129
 50
303.886
 51
330.925
  0
LINE
  8
CUT
 10
11.816
 20
0.172
 11
11.561
 21
0
  0
LINE
  8
CUT
 10
11.561
 20
0
 11
10.767
 21
0
  0
LINE
  8
CUT
 10
10.767
 20
0
 11
10.698
 21
0.172
  0
ARC
  8
CUT
 10
10.7972
 20
0.211961
 40
0.106943
 50
135.438
 51
201.942
  0
ARC
  8
CUT
 10
10.86
 20
0.150375
 40
0.194883
 50
87.0503
 51
135.488
  0
ARC
  8
CUT
 10
10.8669
 20
0.283026
 40
0.0620524
 50
69.1103
 51
87.1124
  0
ARC
  8
CUT
 10
9.34572
 20
-3.53031
 40
4.16758
 50
65.9674
 51
68.2656
  0
ARC
  8
CUT
 10
11.144
 20
0.506242
 40
0.251401
 50
246.324
 51
267.959
  0
ARC
  8
CUT
 10
11.1443
 20
0.442415
 40
0.187647
 50
267.154
 51
292.458
  0
ARC
  8
CUT
 10
11.1557
 20
0.409982
 40
0.153319
 50
293.143
 51
325.436
  0
ARC
  8
CUT
 10
10.4495
 20
0.903813
 40
1.01506
 50
325.097
 51
337.6
  0
ARC
  8
CUT
 10
4.43946
 20
3.34916
 40
7.50355
 50
337.825
 51
340.326
  0
ARC
  8
CUT
 10
11.4044
 20
0.86119
 40
0.107633
 50
339.218
 51
0.431206
  0
ARC
  8
CUT
 10
11.0501
 20
0.852643
 40
0.461975
 50
1.16054
 51
35.9716
  0
ARC
  8
CUT
 10
11.8918
 20
1.46542
 40
0.579163
 50
188.481
 51
216.122
  0
ARC
  8
CUT
 10
-4.44035
 20
-0.943304
 40
15.9297
 50
8.38635
 51
11.0688
  0
ARC
  8
CUT
 10
11.1367
 20
2.10439
 40
0.0572622
 50
10.6746
 51
58.0861
  0
ARC
  8
CUT
 10
11.072
 20
2.00486
 40
0.17599
 50
57.3238
 51
107.181
  0
ARC
  8
CUT
 10
10.956
 20
2.383
 40
0.21954
 50
246.942
 51
286.952
  0
ARC
  8
CUT
 10
8.52849
 20
-3.45469
 40
6.10276
 50
67.4382
 51
71.4498
  0
ARC
  8
CUT
 10
10.459
 20
2.30082
 40
0.0321362
 50
69.9167
 51
128.408
  0
ARC
  8
CUT
 10
10.5331
 20
2.2122
 40
0.147641
 50
129.576
 51
195.801
  0
ARC
  8
CUT
 10
10.9518
 20
2.32876
 40
0.582267
 50
195.618
 51
227.714
  0
ARC
  8
CUT
 10
10.4272
 20
1.75076
 40
0.198288
 50
29.3681
 51
47.9515
  0
ARC
  8
CUT
 10
10.5452
 20
1.81694
 40
0.0629674
 50
355.501
 51
29.5566
  0
ARC
  8
CUT
 10
10.579
 20
1.814
 40
0.0290689
 50
319.185
 51
356.055
  0
ARC
  8
CUT
 10
10.0037
 20
2.31472
 40
0.791728
 50
311.853
 51
318.971
  0
ARC
  8
CUT
 10
10.6953
 20
1.54553
 40
0.242666
 50
132.305
 51
146.065
  0
ARC
  8
CUT
 10
14.3971
 20
-0.9981
 40
4.73413
 50
145.534
 51
148.677
  0
ARC
  8
CUT
 10
-19.0606
 20
19.2671
 40
34.3823
 50
327.373
 51
328.813
  0
ARC
  8
CUT
 10
3.25508
 20
4.98954
 40
7.89012
 50
324.306
 51
327.317
  0
ARC
  8
CUT
 10
7.1235
 20
2.20866
 40
3.12588
 50
321.036
 51
324.332
  0
ARC
  8
CUT
 10
8.86906
 20
0.796066
 40
0.880355
 50
314.856
 51
321.08
  0
LINE
  8
CUT
 10
9.49
 20
0.172
 11
9.317
 21
0
  0
LINE
  8
CUT
 10
9.317
 20
0
 11
8.455
 21
0
  0
LINE
  8
CUT
 10
8.455
 20
0
 11
8.365
 21
0.172
  0
ARC
  8
CUT
 10
8.43501
 20
0.208573
 40
0.0789869
 50
150.889
 51
207.583
  0
ARC
  8
CUT
 10
8.54381
 20
0.147758
 40
0.203628
 50
115.857
 51
150.832
  0
ARC
  8
CUT
 10
8.58136
 20
0.0690189
 40
0.290861
 50
70.3845
 51
115.748
  0
ARC
  8
CUT
 10
8.84788
 20
0.820014
 40
0.506026
 50
250.505
 51
276.254
  0
ARC
  8
CUT
 10
8.84252
 20
0.879576
 40
0.565817
 50
276.136
 51
347.073
  0
ARC
  8
CUT
 10
7.92485
 20
1.09206
 40
1.50776
 50
347.004
 51
28.6512
  0
ARC
  8
CUT
 10
6.83478
 20
0.49531
 40
2.7505
 50
28.6724
 51
42.7969
  0
ARC
  8
CUT
 10
7.74106
 20
1.33395
 40
1.51572
 50
42.8106
 51
61.8993
  0
ARC
  8
CUT
 10
6.84178
 20
-0.376058
 40
3.44776
 50
62.1017
 51
63.7072
  0
ARC
  8
CUT
 10
9.45168
 20
4.86796
 40
2.40986
 50
240.963
 51
243.303
  0
ARC
  8
CUT
 10
6.91725
 20
0.283897
 40
2.82818
 50
61.1476
 51
64.4734
  0
ARC
  8
CUT
 10
8.10402
 20
2.769
 40
0.0742462
 50
64.4844
 51
85.3786
  0
ARC
  8
CUT
 10
8.09816
 20
2.70303
 40
0.140471
 50
85.1635
 51
116.263
  0
ARC
  8
CUT
 10
10.7989
 20
-2.79068
 40
6.26214
 50
116.181
 51
120.805
  0
ARC
  8
CUT
 10
7.0065
 20
3.56879
 40
1.14226
 50
284.112
 51
300.836
  0
ARC
  8
CUT
 10
6.91276
 20
3.94285
 40
1.52789
 50
269.596
 51
284.101
  0
ARC
  8
CUT
 10
6.87357
 20
-1.17029
 40
3.5854
 50
89.5456
 51
99.967
  0
ARC
  8
CUT
 10
6.28767
 20
2.16279
 40
0.201222
 50
99.9207
 51
145.417
  0
ARC
  8
CUT
 10
6.34601
 20
2.12107
 40
0.272937
 50
145.159
 51
198.382
  0
ARC
  8
CUT
 10
8.41686
 20
2.8043
 40
2.45359
 50
198.273
 51
215.485
  0
ARC
  8
CUT
 10
6.32799
 20
1.31789
 40
0.110184
 50
20.7921
 51
34.3135
  0
ARC
  8
CUT
 10
-11.0656
 20
-5.67516
 40
18.8569
 50
20.8453
 51
21.8959
  0
ARC
  8
CUT
 10
5.2483
 20
0.542452
 40
1.39832
 50
11.1978
 51
20.6245
  0
ARC
  8
CUT
 10
6.2241
 20
0.732699
 40
0.404157
 50
353.935
 51
11.605
  0
ARC
  8
CUT
 10
6.5192
 20
0.701824
 40
0.10745
 50
338.245
 51
353.682
  0
ARC
  8
CUT
 10
-7.21474
 20
6.19321
 40
14.8985
 50
336.888
 51
338.207
  0
ARC
  8
CUT
 10
6.791
 20
0.216
 40
0.329317
 50
156.938
 51
173.199
  0
ARC
  8
CUT
 10
6.33903
 20
0.269056
 40
0.125758
 50
309.487
 51
353.583
  0
LINE
  8
CUT
 10
6.419
 20
0.172
 11
6.212
 21
0
  0
LINE
  8
CUT
 10
6.212
 20
0
 11
5.349
 21
0
  0
LINE
  8
CUT
 10
5.349
 20
0
 11
5.383
 21
0.262
  0
ARC
  8
CUT
 10
5.387
 20
0.262
 40
0.004
 50
90
 51
180
  0
ARC
  8
CUT
 10
5.15851
 20
-10.4004
 40
10.6689
 50
87.123
 51
88.7728
  0
ARC
  8
CUT
 10
5.70421
 20
0.432216
 40
0.17751
 50
266.702
 51
293.151
  0
ARC
  8
CUT
 10
5.64563
 20
0.558748
 40
0.316913
 50
293.896
 51
314.057
  0
ARC
  8
CUT
 10
5.65031
 20
0.554811
 40
0.310827
 50
313.941
 51
346.073
  0
ARC
  8
CUT
 10
5.50804
 20
0.593494
 40
0.458236
 50
345.66
 51
12.1576
  0
ARC
  8
CUT
 10
5.21518
 20
0.52758
 40
0.758414
 50
12.3661
 51
34.3946
  0
ARC
  8
CUT
 10
7.50327
 20
2.09453
 40
2.0148
 50
206.105
 51
214.408
  0
ARC
  8
CUT
 10
-0.197321
 20
-1.6834
 40
6.56261
 50
26.1413
 51
30.314
  0
ARC
  8
CUT
 10
5.41844
 20
1.60042
 40
0.0572138
 50
29.9725
 51
76.2877
  0
ARC
  8
CUT
 10
5.39816
 20
1.52277
 40
0.13746
 50
75.7475
 51
134.389
  0
ARC
  8
CUT
 10
8.13164
 20
-1.24524
 40
4.02768
 50
134.632
 51
145.034
  0
ARC
  8
CUT
 10
4.52506
 20
1.27785
 40
0.373844
 50
292.313
 51
324.921
  0
ARC
  8
CUT
 10
4.91829
 20
0.319175
 40
0.662344
 50
112.296
 51
130.742
  0
ARC
  8
CUT
 10
5.42445
 20
-0.271521
 40
1.44024
 50
130.662
 51
140.633
  0
ARC
  8
CUT
 10
2.34833
 20
2.25547
 40
2.54074
 50
314.876
 51
320.577
  0
ARC
  8
CUT
 10
2.85358
 20
1.74275
 40
1.82092
 50
307.855
 51
314.993
  0
ARC
  8
CUT
 10
5.69433
 20
-1.92425
 40
2.81769
 50
127.706
 51
132.355
  0
LINE
  8
CUT
 10
3.796
 20
0.158
 11
3.623
 21
0
  0
LINE
  8
CUT
 10
3.623
 20
0
 11
2.761
 21
0
  0
LINE
  8
CUT
 10
2.761
 20
0
 11
2.588
 21
0
  0
ENDSEC
  0
EOF
