  0
SECTION
  2
HEADER
  9
$ACADVER
  1
AC1009
  9
$LIMMIN
 10
-14.67381
 20
-2.871216
  9
$LIMMAX
 10
5.447806
 20
12.21999
  0
ENDSEC
  0
SECTION
  2
TABLES
  0
TABLE
  2
LTYPE
 70
     4
  0
LTYPE
  2
CONTINUOUS
 70
     0
  3
Solid line
 72
    65
 73
     0
 40
0.000000
  0
LTYPE
  2
HIDDEN
 70
     0
  3
 _ _ _ _ _ _ _ _ _ _ _
 72
    65
 73
     2
 40
0.375000
 49
0.250000
 49
-0.125000
  0
LTYPE
  2
DASHED
 70
     0
  3
 ___ ___ ___ ___ ___ ___ ___ 
 72
    65
 73
     2
 40
0.750000
 49
0.500000
 49
-0.250000
  0
LTYPE
  2
CENTER
 70
     0
  3
___ _ ___ _ ___ _ ___
 72
    65
 73
     4
 40
2.000000
 49
1.250000
 49
-0.250000
 49
0.250000
 49
-0.250000
  0
LTYPE
  2
BORDER
 70
     0
  3
___ ___ . ___ ___ . ___ ___
 72
    65
 73
     6
 40
1.750000
 49
0.500000
 49
-0.250000
 49
0.500000
 49
-0.250000
 49
0.000000
 49
-0.250000
  0
LTYPE
  2
DOT
 70
     0
  3
.................
 72
    65
 73
     2
 40
0.250000
 49
0.000000
 49
-0.250000
  0
LTYPE
  2
DASHDOT
 70
     0
  3
__ . __ . __ . __
 72
    65
 73
     4
 40
1.000000
 49
0.500000
 49
-0.250000
 49
0.000000
 49
-0.250000
  0
LTYPE
  2
DIVIDE
 70
     0
  3
___ .. ___ .. ___ .. ___
 72
    65
 73
     6
 40
1.250000
 49
0.500000
 49
-0.250000
 49
0.000000
 49
-0.250000
 49
0.000000
 49
-0.250000
  0
ENDTAB
  0
TABLE
  2
LAYER
 70
     8
  0
LAYER
  2
BLACK
 70
     0
 62
     0
  6
CONTINUOUS
  0
LAYER
  2
WHITE
 70
     0
 62
     7
  6
CONTINUOUS
  0
LAYER
  2
RED
 70
     0
 62
     1
  6
CONTINUOUS
  0
LAYER
  2
YELLOW
 70
     0
 62
     2
  6
CONTINUOUS
  0
LAYER
  2
GREEN
 70
     0
 62
     3
  6
CONTINUOUS
  0
LAYER
  2
CYAN
 70
     0
 62
     4
  6
CONTINUOUS
  0
LAYER
  2
BLUE
 70
     0
 62
     5
  6
CONTINUOUS
  0
LAYER
  2
MAGENTA
 70
     0
 62
     6
  6
CONTINUOUS
  0
ENDTAB
  0
ENDSEC
  0
SECTION
  2
BLOCKS
  0
ENDSEC
  0
SECTION
  2
ENTITIES
 0
LINE
 8
WHITE
 10
0
 20
0
 30
0.0000
 11
-3.757999
 21
.499
 31
0.0000
 6
CONTINUOUS
 0
LINE
 8
WHITE
 10
-.008
 20
.158
 30
0.0000
 11
-3.720999
 21
.651
 31
0.0000
 6
CONTINUOUS
 0
LINE
 8
WHITE
 10
-.875
 20
2.404
 30
0.0000
 11
-.855
 21
2.463
 31
0.0000
 6
CONTINUOUS
 0
LINE
 8
WHITE
 10
-.855
 20
2.463
 30
0.0000
 11
-.779999
 21
2.565
 31
0.0000
 6
CONTINUOUS
 0
LINE
 8
WHITE
 10
-.779999
 20
2.565
 30
0.0000
 11
-.735
 21
2.568
 31
0.0000
 6
CONTINUOUS
 0
LINE
 8
WHITE
 10
-.735
 20
2.568
 30
0.0000
 11
-.694
 21
2.585
 31
0.0000
 6
CONTINUOUS
 0
LINE
 8
WHITE
 10
-.694
 20
2.585
 30
0.0000
 11
-.451
 21
2.842999
 31
0.0000
 6
CONTINUOUS
 0
LINE
 8
WHITE
 10
-.451
 20
2.842999
 30
0.0000
 11
-.546999
 21
2.868
 31
0.0000
 6
CONTINUOUS
 0
LINE
 8
WHITE
 10
-.546999
 20
2.868
 30
0.0000
 11
-.662
 21
2.868
 31
0.0000
 6
CONTINUOUS
 0
LINE
 8
WHITE
 10
-.662
 20
2.868
 30
0.0000
 11
-.91
 21
2.806999
 31
0.0000
 6
CONTINUOUS
 0
LINE
 8
WHITE
 10
-.91
 20
2.806999
 30
0.0000
 11
-.885999
 21
2.665999
 31
0.0000
 6
CONTINUOUS
 0
LINE
 8
WHITE
 10
-.885999
 20
2.665999
 30
0.0000
 11
-.971
 21
2.614
 31
0.0000
 6
CONTINUOUS
 0
LINE
 8
WHITE
 10
-.971
 20
2.614
 30
0.0000
 11
-1.044
 21
2.594
 31
0.0000
 6
CONTINUOUS
 0
LINE
 8
WHITE
 10
-1.044
 20
2.594
 30
0.0000
 11
-1.075999
 21
2.565
 31
0.0000
 6
CONTINUOUS
 0
LINE
 8
WHITE
 10
-1.075999
 20
2.565
 30
0.0000
 11
-1.098999
 21
2.503999
 31
0.0000
 6
CONTINUOUS
 0
LINE
 8
WHITE
 10
-1.098999
 20
2.503999
 30
0.0000
 11
-1.098
 21
2.404
 31
0.0000
 6
CONTINUOUS
 0
LINE
 8
WHITE
 10
-.875
 20
5.604
 30
0.0000
 11
-.855
 21
5.545
 31
0.0000
 6
CONTINUOUS
 0
LINE
 8
WHITE
 10
-.855
 20
5.545
 30
0.0000
 11
-.779999
 21
5.442999
 31
0.0000
 6
CONTINUOUS
 0
LINE
 8
WHITE
 10
-.779999
 20
5.442999
 30
0.0000
 11
-.735
 21
5.44
 31
0.0000
 6
CONTINUOUS
 0
LINE
 8
WHITE
 10
-.735
 20
5.44
 30
0.0000
 11
-.694
 21
5.422999
 31
0.0000
 6
CONTINUOUS
 0
LINE
 8
WHITE
 10
-.694
 20
5.422999
 30
0.0000
 11
-.451
 21
5.164999
 31
0.0000
 6
CONTINUOUS
 0
LINE
 8
WHITE
 10
-.451
 20
5.164999
 30
0.0000
 11
-.546999
 21
5.139999
 31
0.0000
 6
CONTINUOUS
 0
LINE
 8
WHITE
 10
-.546999
 20
5.139999
 30
0.0000
 11
-.662
 21
5.139999
 31
0.0000
 6
CONTINUOUS
 0
LINE
 8
WHITE
 10
-.662
 20
5.139999
 30
0.0000
 11
-.91
 21
5.201
 31
0.0000
 6
CONTINUOUS
 0
LINE
 8
WHITE
 10
-.91
 20
5.201
 30
0.0000
 11
-.885999
 21
5.342
 31
0.0000
 6
CONTINUOUS
 0
LINE
 8
WHITE
 10
-.885999
 20
5.342
 30
0.0000
 11
-.971
 21
5.394
 31
0.0000
 6
CONTINUOUS
 0
LINE
 8
WHITE
 10
-.971
 20
5.394
 30
0.0000
 11
-1.044
 21
5.414
 31
0.0000
 6
CONTINUOUS
 0
LINE
 8
WHITE
 10
-1.044
 20
5.414
 30
0.0000
 11
-1.075999
 21
5.442999
 31
0.0000
 6
CONTINUOUS
 0
LINE
 8
WHITE
 10
-1.075999
 20
5.442999
 30
0.0000
 11
-1.098999
 21
5.504
 31
0.0000
 6
CONTINUOUS
 0
LINE
 8
WHITE
 10
-1.098999
 20
5.504
 30
0.0000
 11
-1.098
 21
5.604
 31
0.0000
 6
CONTINUOUS
 0
LINE
 8
WHITE
 10
-.008
 20
7.849999
 30
0.0000
 11
-3.720999
 21
7.356999
 31
0.0000
 6
CONTINUOUS
 0
LINE
 8
WHITE
 10
0
 20
8.008
 30
0.0000
 11
-3.757999
 21
7.508999
 31
0.0000
 6
CONTINUOUS
 0
LINE
 8
WHITE
 10
-4.423999
 20
7.42
 30
0.0000
 11
-3.904
 21
7.488999
 31
0.0000
 6
CONTINUOUS
 0
LINE
 8
WHITE
 10
-3.858
 20
7.339
 30
0.0000
 11
-3.956
 21
7.326
 31
0.0000
 6
CONTINUOUS
 0
LINE
 8
WHITE
 10
-4.466
 20
7.257999
 30
0.0000
 11
-3.973999
 21
7.322999
 31
0.0000
 6
CONTINUOUS
 0
LINE
 8
WHITE
 10
-3.499
 20
6.466
 30
0.0000
 11
-3.453999
 21
6.607999
 31
0.0000
 6
CONTINUOUS
 0
LINE
 8
WHITE
 10
-3.453999
 20
6.607999
 30
0.0000
 11
-3.443
 21
6.758999
 31
0.0000
 6
CONTINUOUS
 0
LINE
 8
WHITE
 10
-3.443
 20
6.758999
 30
0.0000
 11
-3.443
 21
6.864999
 31
0.0000
 6
CONTINUOUS
 0
LINE
 8
WHITE
 10
-3.443
 20
6.864999
 30
0.0000
 11
-3.466
 21
6.948999
 31
0.0000
 6
CONTINUOUS
 0
LINE
 8
WHITE
 10
-3.466
 20
6.948999
 30
0.0000
 11
-3.545
 21
7.059
 31
0.0000
 6
CONTINUOUS
 0
LINE
 8
WHITE
 10
-3.153
 20
6.394
 30
0.0000
 11
-3.2
 21
6.269
 31
0.0000
 6
CONTINUOUS
 0
LINE
 8
WHITE
 10
-3.2
 20
6.269
 30
0.0000
 11
-3.213999
 21
6.179999
 31
0.0000
 6
CONTINUOUS
 0
LINE
 8
WHITE
 10
-3.213999
 20
6.179999
 30
0.0000
 11
-3.213999
 21
6.018
 31
0.0000
 6
CONTINUOUS
 0
LINE
 8
WHITE
 10
-3.213999
 20
6.018
 30
0.0000
 11
-3.242
 21
5.770999
 31
0.0000
 6
CONTINUOUS
 0
LINE
 8
WHITE
 10
-4.264999
 20
6.026999
 30
0.0000
 11
-4.256999
 21
6.052
 31
0.0000
 6
CONTINUOUS
 0
LINE
 8
WHITE
 10
-4.256999
 20
6.052
 30
0.0000
 11
-4.231999
 21
6.284999
 31
0.0000
 6
CONTINUOUS
 0
LINE
 8
WHITE
 10
-4.231999
 20
6.284999
 30
0.0000
 11
-4.256999
 21
6.521999
 31
0.0000
 6
CONTINUOUS
 0
LINE
 8
WHITE
 10
-4.256999
 20
6.521999
 30
0.0000
 11
-4.324999
 21
6.739999
 31
0.0000
 6
CONTINUOUS
 0
LINE
 8
WHITE
 10
-4.324999
 20
6.739999
 30
0.0000
 11
-4.434
 21
6.94
 31
0.0000
 6
CONTINUOUS
 0
LINE
 8
WHITE
 10
-4.434
 20
6.94
 30
0.0000
 11
-4.525
 21
7.051
 31
0.0000
 6
CONTINUOUS
 0
LINE
 8
WHITE
 10
-4.458
 20
5.604
 30
0.0000
 11
-4.576
 21
5.459
 31
0.0000
 6
CONTINUOUS
 0
LINE
 8
WHITE
 10
-4.576
 20
5.459
 30
0.0000
 11
-4.75
 21
5.315999
 31
0.0000
 6
CONTINUOUS
 0
LINE
 8
WHITE
 10
-4.75
 20
5.315999
 30
0.0000
 11
-4.947999
 21
5.206999
 31
0.0000
 6
CONTINUOUS
 0
LINE
 8
WHITE
 10
-4.947999
 20
5.206999
 30
0.0000
 11
-5.169
 21
5.138999
 31
0.0000
 6
CONTINUOUS
 0
LINE
 8
WHITE
 10
-5.169
 20
5.138999
 30
0.0000
 11
-5.403999
 21
5.113999
 31
0.0000
 6
CONTINUOUS
 0
LINE
 8
WHITE
 10
-5.403999
 20
5.113999
 30
0.0000
 11
-5.637
 21
5.138999
 31
0.0000
 6
CONTINUOUS
 0
LINE
 8
WHITE
 10
-5.637
 20
5.138999
 30
0.0000
 11
-5.856999
 21
5.206999
 31
0.0000
 6
CONTINUOUS
 0
LINE
 8
WHITE
 10
-5.856999
 20
5.206999
 30
0.0000
 11
-6.056
 21
5.315999
 31
0.0000
 6
CONTINUOUS
 0
LINE
 8
WHITE
 10
-6.056
 20
5.315999
 30
0.0000
 11
-6.23
 21
5.459
 31
0.0000
 6
CONTINUOUS
 0
LINE
 8
WHITE
 10
-6.23
 20
5.459
 30
0.0000
 11
-6.348999
 21
5.604
 31
0.0000
 6
CONTINUOUS
 0
LINE
 8
WHITE
 10
-3.194
 20
5.604
 30
0.0000
 11
-3.032
 21
5.519
 31
0.0000
 6
CONTINUOUS
 0
LINE
 8
WHITE
 10
-3.032
 20
5.519
 30
0.0000
 11
-2.950999
 21
5.434
 31
0.0000
 6
CONTINUOUS
 0
LINE
 8
WHITE
 10
-2.950999
 20
5.434
 30
0.0000
 11
-2.898999
 21
5.347
 31
0.0000
 6
CONTINUOUS
 0
LINE
 8
WHITE
 10
-2.898999
 20
5.347
 30
0.0000
 11
-2.821
 21
5.251999
 31
0.0000
 6
CONTINUOUS
 0
LINE
 8
WHITE
 10
-2.821
 20
5.251999
 30
0.0000
 11
-3.005
 21
5.229
 31
0.0000
 6
CONTINUOUS
 0
LINE
 8
WHITE
 10
-3.005
 20
5.229
 30
0.0000
 11
-3.102999
 21
5.244999
 31
0.0000
 6
CONTINUOUS
 0
LINE
 8
WHITE
 10
-3.102999
 20
5.244999
 30
0.0000
 11
-3.203
 21
5.287
 31
0.0000
 6
CONTINUOUS
 0
LINE
 8
WHITE
 10
-3.203
 20
5.287
 30
0.0000
 11
-3.221999
 21
5.387
 31
0.0000
 6
CONTINUOUS
 0
LINE
 8
WHITE
 10
-3.221999
 20
5.387
 30
0.0000
 11
-3.270999
 21
5.467999
 31
0.0000
 6
CONTINUOUS
 0
LINE
 8
WHITE
 10
-3.270999
 20
5.467999
 30
0.0000
 11
-3.311
 21
5.442999
 31
0.0000
 6
CONTINUOUS
 0
LINE
 8
WHITE
 10
-3.311
 20
5.442999
 30
0.0000
 11
-3.4
 21
5.5
 31
0.0000
 6
CONTINUOUS
 0
LINE
 8
WHITE
 10
-3.4
 20
5.5
 30
0.0000
 11
-3.427999
 21
5.560999
 31
0.0000
 6
CONTINUOUS
 0
LINE
 8
WHITE
 10
-3.427999
 20
5.560999
 30
0.0000
 11
-3.431999
 21
5.604
 31
0.0000
 6
CONTINUOUS
 0
LINE
 8
WHITE
 10
-3.194
 20
2.404
 30
0.0000
 11
-3.032
 21
2.489
 31
0.0000
 6
CONTINUOUS
 0
LINE
 8
WHITE
 10
-3.032
 20
2.489
 30
0.0000
 11
-2.950999
 21
2.572999
 31
0.0000
 6
CONTINUOUS
 0
LINE
 8
WHITE
 10
-2.950999
 20
2.572999
 30
0.0000
 11
-2.898999
 21
2.66
 31
0.0000
 6
CONTINUOUS
 0
LINE
 8
WHITE
 10
-2.898999
 20
2.66
 30
0.0000
 11
-2.821
 21
2.756
 31
0.0000
 6
CONTINUOUS
 0
LINE
 8
WHITE
 10
-2.821
 20
2.756
 30
0.0000
 11
-3.005
 21
2.779
 31
0.0000
 6
CONTINUOUS
 0
LINE
 8
WHITE
 10
-3.005
 20
2.779
 30
0.0000
 11
-3.102999
 21
2.763
 31
0.0000
 6
CONTINUOUS
 0
LINE
 8
WHITE
 10
-3.102999
 20
2.763
 30
0.0000
 11
-3.203
 21
2.720999
 31
0.0000
 6
CONTINUOUS
 0
LINE
 8
WHITE
 10
-3.203
 20
2.720999
 30
0.0000
 11
-3.221999
 21
2.621
 31
0.0000
 6
CONTINUOUS
 0
LINE
 8
WHITE
 10
-3.221999
 20
2.621
 30
0.0000
 11
-3.270999
 21
2.539999
 31
0.0000
 6
CONTINUOUS
 0
LINE
 8
WHITE
 10
-3.270999
 20
2.539999
 30
0.0000
 11
-3.311
 21
2.565
 31
0.0000
 6
CONTINUOUS
 0
LINE
 8
WHITE
 10
-3.311
 20
2.565
 30
0.0000
 11
-3.4
 21
2.507999
 31
0.0000
 6
CONTINUOUS
 0
LINE
 8
WHITE
 10
-3.4
 20
2.507999
 30
0.0000
 11
-3.427999
 21
2.447
 31
0.0000
 6
CONTINUOUS
 0
LINE
 8
WHITE
 10
-3.427999
 20
2.447
 30
0.0000
 11
-3.431999
 21
2.404
 31
0.0000
 6
CONTINUOUS
 0
LINE
 8
WHITE
 10
-4.458
 20
2.404
 30
0.0000
 11
-4.576
 21
2.549
 31
0.0000
 6
CONTINUOUS
 0
LINE
 8
WHITE
 10
-4.576
 20
2.549
 30
0.0000
 11
-4.75
 21
2.691999
 31
0.0000
 6
CONTINUOUS
 0
LINE
 8
WHITE
 10
-4.75
 20
2.691999
 30
0.0000
 11
-4.947999
 21
2.801
 31
0.0000
 6
CONTINUOUS
 0
LINE
 8
WHITE
 10
-4.947999
 20
2.801
 30
0.0000
 11
-5.169
 21
2.868999
 31
0.0000
 6
CONTINUOUS
 0
LINE
 8
WHITE
 10
-5.169
 20
2.868999
 30
0.0000
 11
-5.403999
 21
2.894
 31
0.0000
 6
CONTINUOUS
 0
LINE
 8
WHITE
 10
-5.403999
 20
2.894
 30
0.0000
 11
-5.637
 21
2.868999
 31
0.0000
 6
CONTINUOUS
 0
LINE
 8
WHITE
 10
-5.637
 20
2.868999
 30
0.0000
 11
-5.856999
 21
2.801
 31
0.0000
 6
CONTINUOUS
 0
LINE
 8
WHITE
 10
-5.856999
 20
2.801
 30
0.0000
 11
-6.056
 21
2.691999
 31
0.0000
 6
CONTINUOUS
 0
LINE
 8
WHITE
 10
-6.056
 20
2.691999
 30
0.0000
 11
-6.23
 21
2.549
 31
0.0000
 6
CONTINUOUS
 0
LINE
 8
WHITE
 10
-6.23
 20
2.549
 30
0.0000
 11
-6.348999
 21
2.404
 31
0.0000
 6
CONTINUOUS
 0
LINE
 8
WHITE
 10
-4.264999
 20
1.98
 30
0.0000
 11
-4.256999
 21
1.955999
 31
0.0000
 6
CONTINUOUS
 0
LINE
 8
WHITE
 10
-4.256999
 20
1.955999
 30
0.0000
 11
-4.231999
 21
1.722
 31
0.0000
 6
CONTINUOUS
 0
LINE
 8
WHITE
 10
-4.231999
 20
1.722
 30
0.0000
 11
-4.256999
 21
1.485999
 31
0.0000
 6
CONTINUOUS
 0
LINE
 8
WHITE
 10
-4.256999
 20
1.485999
 30
0.0000
 11
-4.324999
 21
1.266999
 31
0.0000
 6
CONTINUOUS
 0
LINE
 8
WHITE
 10
-4.324999
 20
1.266999
 30
0.0000
 11
-4.434
 21
1.067
 31
0.0000
 6
CONTINUOUS
 0
LINE
 8
WHITE
 10
-4.434
 20
1.067
 30
0.0000
 11
-4.525
 21
.957
 31
0.0000
 6
CONTINUOUS
 0
LINE
 8
WHITE
 10
-3.153
 20
1.613999
 30
0.0000
 11
-3.2
 21
1.738
 31
0.0000
 6
CONTINUOUS
 0
LINE
 8
WHITE
 10
-3.2
 20
1.738
 30
0.0000
 11
-3.213999
 21
1.827999
 31
0.0000
 6
CONTINUOUS
 0
LINE
 8
WHITE
 10
-3.213999
 20
1.827999
 30
0.0000
 11
-3.213999
 21
1.99
 31
0.0000
 6
CONTINUOUS
 0
LINE
 8
WHITE
 10
-3.213999
 20
1.99
 30
0.0000
 11
-3.242
 21
2.236999
 31
0.0000
 6
CONTINUOUS
 0
LINE
 8
WHITE
 10
-3.499
 20
1.541
 30
0.0000
 11
-3.453999
 21
1.399999
 31
0.0000
 6
CONTINUOUS
 0
LINE
 8
WHITE
 10
-3.453999
 20
1.399999
 30
0.0000
 11
-3.443
 21
1.248999
 31
0.0000
 6
CONTINUOUS
 0
LINE
 8
WHITE
 10
-3.443
 20
1.248999
 30
0.0000
 11
-3.443
 21
1.143
 31
0.0000
 6
CONTINUOUS
 0
LINE
 8
WHITE
 10
-3.443
 20
1.143
 30
0.0000
 11
-3.466
 21
1.059
 31
0.0000
 6
CONTINUOUS
 0
LINE
 8
WHITE
 10
-3.466
 20
1.059
 30
0.0000
 11
-3.545
 21
.948
 31
0.0000
 6
CONTINUOUS
 0
LINE
 8
WHITE
 10
-4.466
 20
.75
 30
0.0000
 11
-3.973999
 21
.684
 31
0.0000
 6
CONTINUOUS
 0
LINE
 8
WHITE
 10
-3.858
 20
.669
 30
0.0000
 11
-3.956
 21
.681999
 31
0.0000
 6
CONTINUOUS
 0
LINE
 8
WHITE
 10
-4.423999
 20
.587999
 30
0.0000
 11
-3.904
 21
.518999
 31
0.0000
 6
CONTINUOUS
 0
LINE
 8
WHITE
 10
-5.394999
 20
.550999
 30
0.0000
 11
-5.637
 21
.573
 31
0.0000
 6
CONTINUOUS
 0
LINE
 8
WHITE
 10
-5.637
 20
.573
 30
0.0000
 11
-5.856999
 21
.640999
 31
0.0000
 6
CONTINUOUS
 0
LINE
 8
WHITE
 10
-5.856999
 20
.640999
 30
0.0000
 11
-6.056
 21
.75
 31
0.0000
 6
CONTINUOUS
 0
LINE
 8
WHITE
 10
-6.056
 20
.75
 30
0.0000
 11
-6.23
 21
.894999
 31
0.0000
 6
CONTINUOUS
 0
LINE
 8
WHITE
 10
-6.23
 20
.894999
 30
0.0000
 11
-6.324999
 21
1.008999
 31
0.0000
 6
CONTINUOUS
 0
LINE
 8
WHITE
 10
-4.925
 20
.653999
 30
0.0000
 11
-4.75
 21
.75
 31
0.0000
 6
CONTINUOUS
 0
LINE
 8
WHITE
 10
-4.75
 20
.75
 30
0.0000
 11
-4.710999
 21
.782
 31
0.0000
 6
CONTINUOUS
 0
LINE
 8
WHITE
 10
-5.361999
 20
.869
 30
0.0000
 11
-5.361999
 21
.708999
 31
0.0000
 6
CONTINUOUS
 0
LINE
 8
WHITE
 10
-5.361999
 20
.708999
 30
0.0000
 11
-5.192999
 21
.727999
 31
0.0000
 6
CONTINUOUS
 0
LINE
 8
WHITE
 10
-5.192999
 20
.727999
 30
0.0000
 11
-5.025
 21
.776
 31
0.0000
 6
CONTINUOUS
 0
LINE
 8
WHITE
 10
-5.025
 20
.776
 30
0.0000
 11
-4.948999
 21
.814
 31
0.0000
 6
CONTINUOUS
 0
LINE
 8
WHITE
 10
-6.053999
 20
1.008999
 30
0.0000
 11
-6.087999
 21
.976
 31
0.0000
 6
CONTINUOUS
 0
LINE
 8
WHITE
 10
-6.087999
 20
.976
 30
0.0000
 11
-5.955999
 21
.87
 31
0.0000
 6
CONTINUOUS
 0
LINE
 8
WHITE
 10
-5.955999
 20
.87
 30
0.0000
 11
-5.803999
 21
.785
 31
0.0000
 6
CONTINUOUS
 0
LINE
 8
WHITE
 10
-5.803999
 20
.785
 30
0.0000
 11
-5.632999
 21
.726999
 31
0.0000
 6
CONTINUOUS
 0
LINE
 8
WHITE
 10
-5.632999
 20
.726999
 30
0.0000
 11
-5.447999
 21
.705999
 31
0.0000
 6
CONTINUOUS
 0
LINE
 8
WHITE
 10
-5.447999
 20
.705999
 30
0.0000
 11
-5.447999
 21
1.008999
 31
0.0000
 6
CONTINUOUS
 0
CIRCLE
 8
WHITE
 10
-5.403999
 20
1.722
 30
 0
 40
.130999
 6
CONTINUOUS
 0
LINE
 8
WHITE
 10
-4.778999
 20
2.404
 30
0.0000
 11
-4.718999
 21
2.463
 31
0.0000
 6
CONTINUOUS
 0
LINE
 8
WHITE
 10
-4.718999
 20
2.463
 30
0.0000
 11
-4.849999
 21
2.569
 31
0.0000
 6
CONTINUOUS
 0
LINE
 8
WHITE
 10
-4.849999
 20
2.569
 30
0.0000
 11
-5.004
 21
2.654
 31
0.0000
 6
CONTINUOUS
 0
LINE
 8
WHITE
 10
-5.004
 20
2.654
 30
0.0000
 11
-5.172999
 21
2.711999
 31
0.0000
 6
CONTINUOUS
 0
LINE
 8
WHITE
 10
-5.172999
 20
2.711999
 30
0.0000
 11
-5.356999
 21
2.733999
 31
0.0000
 6
CONTINUOUS
 0
LINE
 8
WHITE
 10
-5.356999
 20
2.733999
 30
0.0000
 11
-5.356999
 21
2.404
 31
0.0000
 6
CONTINUOUS
 0
LINE
 8
WHITE
 10
-5.446
 20
2.404
 30
0.0000
 11
-5.446
 21
2.73
 31
0.0000
 6
CONTINUOUS
 0
LINE
 8
WHITE
 10
-5.446
 20
2.73
 30
0.0000
 11
-5.611999
 21
2.710999
 31
0.0000
 6
CONTINUOUS
 0
LINE
 8
WHITE
 10
-5.611999
 20
2.710999
 30
0.0000
 11
-5.782
 21
2.664999
 31
0.0000
 6
CONTINUOUS
 0
LINE
 8
WHITE
 10
-5.782
 20
2.664999
 30
0.0000
 11
-5.940999
 21
2.585
 31
0.0000
 6
CONTINUOUS
 0
LINE
 8
WHITE
 10
-5.940999
 20
2.585
 30
0.0000
 11
-6.087999
 21
2.47
 31
0.0000
 6
CONTINUOUS
 0
LINE
 8
WHITE
 10
-6.087999
 20
2.47
 30
0.0000
 11
-6.020999
 21
2.404
 31
0.0000
 6
CONTINUOUS
 0
LINE
 8
WHITE
 10
-5.446
 20
5.604
 30
0.0000
 11
-5.446
 21
5.277999
 31
0.0000
 6
CONTINUOUS
 0
LINE
 8
WHITE
 10
-5.446
 20
5.277999
 30
0.0000
 11
-5.611999
 21
5.296999
 31
0.0000
 6
CONTINUOUS
 0
LINE
 8
WHITE
 10
-5.611999
 20
5.296999
 30
0.0000
 11
-5.782
 21
5.342999
 31
0.0000
 6
CONTINUOUS
 0
LINE
 8
WHITE
 10
-5.782
 20
5.342999
 30
0.0000
 11
-5.940999
 21
5.422999
 31
0.0000
 6
CONTINUOUS
 0
LINE
 8
WHITE
 10
-5.940999
 20
5.422999
 30
0.0000
 11
-6.087999
 21
5.537
 31
0.0000
 6
CONTINUOUS
 0
LINE
 8
WHITE
 10
-6.087999
 20
5.537
 30
0.0000
 11
-6.020999
 21
5.604
 31
0.0000
 6
CONTINUOUS
 0
LINE
 8
WHITE
 10
-4.778999
 20
5.604
 30
0.0000
 11
-4.718999
 21
5.545
 31
0.0000
 6
CONTINUOUS
 0
LINE
 8
WHITE
 10
-4.718999
 20
5.545
 30
0.0000
 11
-4.849999
 21
5.439
 31
0.0000
 6
CONTINUOUS
 0
LINE
 8
WHITE
 10
-4.849999
 20
5.439
 30
0.0000
 11
-5.004
 21
5.353
 31
0.0000
 6
CONTINUOUS
 0
LINE
 8
WHITE
 10
-5.004
 20
5.353
 30
0.0000
 11
-5.172999
 21
5.295
 31
0.0000
 6
CONTINUOUS
 0
LINE
 8
WHITE
 10
-5.172999
 20
5.295
 30
0.0000
 11
-5.356999
 21
5.274
 31
0.0000
 6
CONTINUOUS
 0
LINE
 8
WHITE
 10
-5.356999
 20
5.274
 30
0.0000
 11
-5.356999
 21
5.604
 31
0.0000
 6
CONTINUOUS
 0
CIRCLE
 8
WHITE
 10
-5.403999
 20
6.285999
 30
 0
 40
.130999
 6
CONTINUOUS
 0
LINE
 8
WHITE
 10
-6.053999
 20
6.998
 30
0.0000
 11
-6.087999
 21
7.032
 31
0.0000
 6
CONTINUOUS
 0
LINE
 8
WHITE
 10
-6.087999
 20
7.032
 30
0.0000
 11
-5.955999
 21
7.138
 31
0.0000
 6
CONTINUOUS
 0
LINE
 8
WHITE
 10
-5.955999
 20
7.138
 30
0.0000
 11
-5.803999
 21
7.223
 31
0.0000
 6
CONTINUOUS
 0
LINE
 8
WHITE
 10
-5.803999
 20
7.223
 30
0.0000
 11
-5.632999
 21
7.281
 31
0.0000
 6
CONTINUOUS
 0
LINE
 8
WHITE
 10
-5.632999
 20
7.281
 30
0.0000
 11
-5.447999
 21
7.301
 31
0.0000
 6
CONTINUOUS
 0
LINE
 8
WHITE
 10
-5.447999
 20
7.301
 30
0.0000
 11
-5.447999
 21
6.998
 31
0.0000
 6
CONTINUOUS
 0
LINE
 8
WHITE
 10
-5.361999
 20
7.138999
 30
0.0000
 11
-5.361999
 21
7.297999
 31
0.0000
 6
CONTINUOUS
 0
LINE
 8
WHITE
 10
-5.361999
 20
7.297999
 30
0.0000
 11
-5.192999
 21
7.28
 31
0.0000
 6
CONTINUOUS
 0
LINE
 8
WHITE
 10
-5.192999
 20
7.28
 30
0.0000
 11
-5.025
 21
7.231999
 31
0.0000
 6
CONTINUOUS
 0
LINE
 8
WHITE
 10
-5.025
 20
7.231999
 30
0.0000
 11
-4.948999
 21
7.193999
 31
0.0000
 6
CONTINUOUS
 0
LINE
 8
WHITE
 10
-4.925
 20
7.354
 30
0.0000
 11
-4.75
 21
7.257999
 31
0.0000
 6
CONTINUOUS
 0
LINE
 8
WHITE
 10
-4.75
 20
7.257999
 30
0.0000
 11
-4.710999
 21
7.224999
 31
0.0000
 6
CONTINUOUS
 0
LINE
 8
WHITE
 10
-5.394999
 20
7.456999
 30
0.0000
 11
-5.637
 21
7.434999
 31
0.0000
 6
CONTINUOUS
 0
LINE
 8
WHITE
 10
-5.637
 20
7.434999
 30
0.0000
 11
-5.856999
 21
7.367
 31
0.0000
 6
CONTINUOUS
 0
LINE
 8
WHITE
 10
-5.856999
 20
7.367
 30
0.0000
 11
-6.056
 21
7.257999
 31
0.0000
 6
CONTINUOUS
 0
LINE
 8
WHITE
 10
-6.056
 20
7.257999
 30
0.0000
 11
-6.23
 21
7.112999
 31
0.0000
 6
CONTINUOUS
 0
LINE
 8
WHITE
 10
-6.23
 20
7.112999
 30
0.0000
 11
-6.324999
 21
6.998
 31
0.0000
 6
CONTINUOUS
 0
LINE
 8
WHITE
 10
-9.364999
 20
7.372
 30
0.0000
 11
-9.163
 21
7.434999
 31
0.0000
 6
CONTINUOUS
 0
LINE
 8
WHITE
 10
-9.163
 20
7.434999
 30
0.0000
 11
-8.93
 21
7.458
 31
0.0000
 6
CONTINUOUS
 0
LINE
 8
WHITE
 10
-8.93
 20
7.458
 30
0.0000
 11
-8.694999
 21
7.434999
 31
0.0000
 6
CONTINUOUS
 0
LINE
 8
WHITE
 10
-8.694999
 20
7.434999
 30
0.0000
 11
-8.475
 21
7.367
 31
0.0000
 6
CONTINUOUS
 0
LINE
 8
WHITE
 10
-8.475
 20
7.367
 30
0.0000
 11
-8.276
 21
7.257999
 31
0.0000
 6
CONTINUOUS
 0
LINE
 8
WHITE
 10
-8.276
 20
7.257999
 30
0.0000
 11
-8.102
 21
7.112999
 31
0.0000
 6
CONTINUOUS
 0
LINE
 8
WHITE
 10
-8.102
 20
7.112999
 30
0.0000
 11
-8.006999
 21
6.998
 31
0.0000
 6
CONTINUOUS
 0
LINE
 8
WHITE
 10
-9.234999
 20
7.255
 30
0.0000
 11
-9.159
 21
7.281
 31
0.0000
 6
CONTINUOUS
 0
LINE
 8
WHITE
 10
-9.159
 20
7.281
 30
0.0000
 11
-8.975
 21
7.301
 31
0.0000
 6
CONTINUOUS
 0
LINE
 8
WHITE
 10
-8.975
 20
7.301
 30
0.0000
 11
-8.975
 21
7.021999
 31
0.0000
 6
CONTINUOUS
 0
LINE
 8
WHITE
 10
-8.887999
 20
6.998
 30
0.0000
 11
-8.887999
 21
7.297999
 31
0.0000
 6
CONTINUOUS
 0
LINE
 8
WHITE
 10
-8.887999
 20
7.297999
 30
0.0000
 11
-8.72
 21
7.28
 31
0.0000
 6
CONTINUOUS
 0
LINE
 8
WHITE
 10
-8.72
 20
7.28
 30
0.0000
 11
-8.552
 21
7.231999
 31
0.0000
 6
CONTINUOUS
 0
LINE
 8
WHITE
 10
-8.552
 20
7.231999
 30
0.0000
 11
-8.390999
 21
7.151999
 31
0.0000
 6
CONTINUOUS
 0
LINE
 8
WHITE
 10
-8.390999
 20
7.151999
 30
0.0000
 11
-8.246
 21
7.035999
 31
0.0000
 6
CONTINUOUS
 0
LINE
 8
WHITE
 10
-8.246
 20
7.035999
 30
0.0000
 11
-8.284
 21
6.998
 31
0.0000
 6
CONTINUOUS
 0
CIRCLE
 8
WHITE
 10
-8.927999
 20
6.288
 30
 0
 40
.130999
 6
CONTINUOUS
 0
LINE
 8
WHITE
 10
-9.875
 20
5.604
 30
0.0000
 11
-9.755999
 21
5.459
 31
0.0000
 6
CONTINUOUS
 0
LINE
 8
WHITE
 10
-9.755999
 20
5.459
 30
0.0000
 11
-9.581999
 21
5.315999
 31
0.0000
 6
CONTINUOUS
 0
LINE
 8
WHITE
 10
-9.581999
 20
5.315999
 30
0.0000
 11
-9.383999
 21
5.206999
 31
0.0000
 6
CONTINUOUS
 0
LINE
 8
WHITE
 10
-9.383999
 20
5.206999
 30
0.0000
 11
-9.163
 21
5.138999
 31
0.0000
 6
CONTINUOUS
 0
LINE
 8
WHITE
 10
-9.163
 20
5.138999
 30
0.0000
 11
-8.93
 21
5.113999
 31
0.0000
 6
CONTINUOUS
 0
LINE
 8
WHITE
 10
-8.93
 20
5.113999
 30
0.0000
 11
-8.694999
 21
5.138999
 31
0.0000
 6
CONTINUOUS
 0
LINE
 8
WHITE
 10
-8.694999
 20
5.138999
 30
0.0000
 11
-8.475
 21
5.206999
 31
0.0000
 6
CONTINUOUS
 0
LINE
 8
WHITE
 10
-8.475
 20
5.206999
 30
0.0000
 11
-8.276
 21
5.315999
 31
0.0000
 6
CONTINUOUS
 0
LINE
 8
WHITE
 10
-8.276
 20
5.315999
 30
0.0000
 11
-8.102
 21
5.459
 31
0.0000
 6
CONTINUOUS
 0
LINE
 8
WHITE
 10
-8.102
 20
5.459
 30
0.0000
 11
-7.982999
 21
5.604
 31
0.0000
 6
CONTINUOUS
 0
LINE
 8
WHITE
 10
-8.972999
 20
5.604
 30
0.0000
 11
-8.972
 21
5.277999
 31
0.0000
 6
CONTINUOUS
 0
LINE
 8
WHITE
 10
-8.972
 20
5.277999
 30
0.0000
 11
-9.138999
 21
5.296999
 31
0.0000
 6
CONTINUOUS
 0
LINE
 8
WHITE
 10
-9.138999
 20
5.296999
 30
0.0000
 11
-9.307999
 21
5.342999
 31
0.0000
 6
CONTINUOUS
 0
LINE
 8
WHITE
 10
-9.307999
 20
5.342999
 30
0.0000
 11
-9.468
 21
5.422999
 31
0.0000
 6
CONTINUOUS
 0
LINE
 8
WHITE
 10
-9.468
 20
5.422999
 30
0.0000
 11
-9.614
 21
5.537
 31
0.0000
 6
CONTINUOUS
 0
LINE
 8
WHITE
 10
-9.614
 20
5.537
 30
0.0000
 11
-9.548
 21
5.604
 31
0.0000
 6
CONTINUOUS
 0
LINE
 8
WHITE
 10
-8.305
 20
5.604
 30
0.0000
 11
-8.246
 21
5.545
 31
0.0000
 6
CONTINUOUS
 0
LINE
 8
WHITE
 10
-8.246
 20
5.545
 30
0.0000
 11
-8.376
 21
5.439
 31
0.0000
 6
CONTINUOUS
 0
LINE
 8
WHITE
 10
-8.376
 20
5.439
 30
0.0000
 11
-8.529999
 21
5.353
 31
0.0000
 6
CONTINUOUS
 0
LINE
 8
WHITE
 10
-8.529999
 20
5.353
 30
0.0000
 11
-8.699999
 21
5.295
 31
0.0000
 6
CONTINUOUS
 0
LINE
 8
WHITE
 10
-8.699999
 20
5.295
 30
0.0000
 11
-8.883999
 21
5.274
 31
0.0000
 6
CONTINUOUS
 0
LINE
 8
WHITE
 10
-8.883999
 20
5.274
 30
0.0000
 11
-8.883999
 21
5.604
 31
0.0000
 6
CONTINUOUS
 0
LINE
 8
WHITE
 10
-8.305
 20
2.404
 30
0.0000
 11
-8.246
 21
2.463
 31
0.0000
 6
CONTINUOUS
 0
LINE
 8
WHITE
 10
-8.246
 20
2.463
 30
0.0000
 11
-8.376
 21
2.569
 31
0.0000
 6
CONTINUOUS
 0
LINE
 8
WHITE
 10
-8.376
 20
2.569
 30
0.0000
 11
-8.529999
 21
2.654
 31
0.0000
 6
CONTINUOUS
 0
LINE
 8
WHITE
 10
-8.529999
 20
2.654
 30
0.0000
 11
-8.699999
 21
2.711999
 31
0.0000
 6
CONTINUOUS
 0
LINE
 8
WHITE
 10
-8.699999
 20
2.711999
 30
0.0000
 11
-8.883999
 21
2.733999
 31
0.0000
 6
CONTINUOUS
 0
LINE
 8
WHITE
 10
-8.883999
 20
2.733999
 30
0.0000
 11
-8.883999
 21
2.404
 31
0.0000
 6
CONTINUOUS
 0
LINE
 8
WHITE
 10
-8.972999
 20
2.404
 30
0.0000
 11
-8.972
 21
2.73
 31
0.0000
 6
CONTINUOUS
 0
LINE
 8
WHITE
 10
-8.972
 20
2.73
 30
0.0000
 11
-9.138999
 21
2.710999
 31
0.0000
 6
CONTINUOUS
 0
LINE
 8
WHITE
 10
-9.138999
 20
2.710999
 30
0.0000
 11
-9.307999
 21
2.664999
 31
0.0000
 6
CONTINUOUS
 0
LINE
 8
WHITE
 10
-9.307999
 20
2.664999
 30
0.0000
 11
-9.468
 21
2.585
 31
0.0000
 6
CONTINUOUS
 0
LINE
 8
WHITE
 10
-9.468
 20
2.585
 30
0.0000
 11
-9.614
 21
2.47
 31
0.0000
 6
CONTINUOUS
 0
LINE
 8
WHITE
 10
-9.614
 20
2.47
 30
0.0000
 11
-9.548
 21
2.404
 31
0.0000
 6
CONTINUOUS
 0
LINE
 8
WHITE
 10
-9.875
 20
2.404
 30
0.0000
 11
-9.755999
 21
2.549
 31
0.0000
 6
CONTINUOUS
 0
LINE
 8
WHITE
 10
-9.755999
 20
2.549
 30
0.0000
 11
-9.581999
 21
2.691999
 31
0.0000
 6
CONTINUOUS
 0
LINE
 8
WHITE
 10
-9.581999
 20
2.691999
 30
0.0000
 11
-9.383999
 21
2.801
 31
0.0000
 6
CONTINUOUS
 0
LINE
 8
WHITE
 10
-9.383999
 20
2.801
 30
0.0000
 11
-9.163
 21
2.868999
 31
0.0000
 6
CONTINUOUS
 0
LINE
 8
WHITE
 10
-9.163
 20
2.868999
 30
0.0000
 11
-8.93
 21
2.894
 31
0.0000
 6
CONTINUOUS
 0
LINE
 8
WHITE
 10
-8.93
 20
2.894
 30
0.0000
 11
-8.694999
 21
2.868999
 31
0.0000
 6
CONTINUOUS
 0
LINE
 8
WHITE
 10
-8.694999
 20
2.868999
 30
0.0000
 11
-8.475
 21
2.801
 31
0.0000
 6
CONTINUOUS
 0
LINE
 8
WHITE
 10
-8.475
 20
2.801
 30
0.0000
 11
-8.276
 21
2.691999
 31
0.0000
 6
CONTINUOUS
 0
LINE
 8
WHITE
 10
-8.276
 20
2.691999
 30
0.0000
 11
-8.102
 21
2.549
 31
0.0000
 6
CONTINUOUS
 0
LINE
 8
WHITE
 10
-8.102
 20
2.549
 30
0.0000
 11
-7.982999
 21
2.404
 31
0.0000
 6
CONTINUOUS
 0
CIRCLE
 8
WHITE
 10
-8.927999
 20
1.718999
 30
 0
 40
.130999
 6
CONTINUOUS
 0
LINE
 8
WHITE
 10
-8.887999
 20
1.008999
 30
0.0000
 11
-8.887999
 21
.708999
 31
0.0000
 6
CONTINUOUS
 0
LINE
 8
WHITE
 10
-8.887999
 20
.708999
 30
0.0000
 11
-8.72
 21
.727999
 31
0.0000
 6
CONTINUOUS
 0
LINE
 8
WHITE
 10
-8.72
 20
.727999
 30
0.0000
 11
-8.552
 21
.776
 31
0.0000
 6
CONTINUOUS
 0
LINE
 8
WHITE
 10
-8.552
 20
.776
 30
0.0000
 11
-8.390999
 21
.856
 31
0.0000
 6
CONTINUOUS
 0
LINE
 8
WHITE
 10
-8.390999
 20
.856
 30
0.0000
 11
-8.246
 21
.972
 31
0.0000
 6
CONTINUOUS
 0
LINE
 8
WHITE
 10
-8.246
 20
.972
 30
0.0000
 11
-8.284
 21
1.008999
 31
0.0000
 6
CONTINUOUS
 0
LINE
 8
WHITE
 10
-9.234999
 20
.751999
 30
0.0000
 11
-9.159
 21
.726999
 31
0.0000
 6
CONTINUOUS
 0
LINE
 8
WHITE
 10
-9.159
 20
.726999
 30
0.0000
 11
-8.975
 21
.705999
 31
0.0000
 6
CONTINUOUS
 0
LINE
 8
WHITE
 10
-8.975
 20
.705999
 30
0.0000
 11
-8.975
 21
.986
 31
0.0000
 6
CONTINUOUS
 0
LINE
 8
WHITE
 10
-9.364999
 20
.634999
 30
0.0000
 11
-9.163
 21
.573
 31
0.0000
 6
CONTINUOUS
 0
LINE
 8
WHITE
 10
-9.163
 20
.573
 30
0.0000
 11
-8.93
 21
.55
 31
0.0000
 6
CONTINUOUS
 0
LINE
 8
WHITE
 10
-8.93
 20
.55
 30
0.0000
 11
-8.694999
 21
.573
 31
0.0000
 6
CONTINUOUS
 0
LINE
 8
WHITE
 10
-8.694999
 20
.573
 30
0.0000
 11
-8.475
 21
.640999
 31
0.0000
 6
CONTINUOUS
 0
LINE
 8
WHITE
 10
-8.475
 20
.640999
 30
0.0000
 11
-8.276
 21
.75
 31
0.0000
 6
CONTINUOUS
 0
LINE
 8
WHITE
 10
-8.276
 20
.75
 30
0.0000
 11
-8.102
 21
.894999
 31
0.0000
 6
CONTINUOUS
 0
LINE
 8
WHITE
 10
-8.102
 20
.894999
 30
0.0000
 11
-8.006999
 21
1.008999
 31
0.0000
 6
CONTINUOUS
 0
LINE
 8
WHITE
 10
-2.145999
 20
5.857999
 30
0.0000
 11
-2.145999
 21
5.607999
 31
0.0000
 6
CONTINUOUS
 0
LINE
 8
WHITE
 10
-2.145999
 20
5.607999
 30
0.0000
 11
-1.141
 21
5.607999
 31
0.0000
 6
CONTINUOUS
 0
ARC
 8
WHITE
 10
-1.141
 20
5.647999
 30
 0
 40
.039999
 50
270
 51
358.568
 6
CONTINUOUS
 0
LINE
 8
WHITE
 10
-1.100999
 20
5.646999
 30
0.0000
 11
-1.098
 21
5.954999
 31
0.0000
 6
CONTINUOUS
 0
LINE
 8
WHITE
 10
-1.098
 20
5.954999
 30
0.0000
 11
-1.110999
 21
6.409999
 31
0.0000
 6
CONTINUOUS
 0
LINE
 8
WHITE
 10
-1.110999
 20
6.409999
 30
0.0000
 11
-1.11
 21
6.552999
 31
0.0000
 6
CONTINUOUS
 0
LINE
 8
WHITE
 10
-1.11
 20
6.552999
 30
0.0000
 11
-1.126
 21
6.671999
 31
0.0000
 6
CONTINUOUS
 0
LINE
 8
WHITE
 10
-1.126
 20
6.671999
 30
0.0000
 11
-1.136
 21
6.78
 31
0.0000
 6
CONTINUOUS
 0
LINE
 8
WHITE
 10
-1.136
 20
6.78
 30
0.0000
 11
-1.116999
 21
6.885
 31
0.0000
 6
CONTINUOUS
 0
LINE
 8
WHITE
 10
-1.116999
 20
6.885
 30
0.0000
 11
-1.125
 21
6.921999
 31
0.0000
 6
CONTINUOUS
 0
ARC
 8
WHITE
 10
-1.164
 20
6.914199
 30
 0
 40
.039772
 50
11.30993
 51
87.12312
 6
CONTINUOUS
 0
LINE
 8
WHITE
 10
-1.161999
 20
6.953999
 30
0.0000
 11
-1.233999
 21
6.958
 31
0.0000
 6
CONTINUOUS
 0
LINE
 8
WHITE
 10
-1.233999
 20
6.958
 30
0.0000
 11
-1.340999
 21
6.977
 31
0.0000
 6
CONTINUOUS
 0
LINE
 8
WHITE
 10
-1.340999
 20
6.977
 30
0.0000
 11
-1.636
 21
6.941999
 31
0.0000
 6
CONTINUOUS
 0
LINE
 8
WHITE
 10
-1.636
 20
6.941999
 30
0.0000
 11
-1.937999
 21
6.941999
 31
0.0000
 6
CONTINUOUS
 0
LINE
 8
WHITE
 10
-1.937999
 20
6.941999
 30
0.0000
 11
-2.24
 21
6.98
 31
0.0000
 6
CONTINUOUS
 0
LINE
 8
WHITE
 10
-2.24
 20
6.98
 30
0.0000
 11
-2.532999
 21
7.059
 31
0.0000
 6
CONTINUOUS
 0
LINE
 8
WHITE
 10
-2.532999
 20
7.059
 30
0.0000
 11
-2.64
 21
6.985
 31
0.0000
 6
CONTINUOUS
 0
LINE
 8
WHITE
 10
-2.64
 20
6.985
 30
0.0000
 11
-2.723
 21
6.88
 31
0.0000
 6
CONTINUOUS
 0
LINE
 8
WHITE
 10
-2.723
 20
6.88
 30
0.0000
 11
-2.88
 21
6.651
 31
0.0000
 6
CONTINUOUS
 0
LINE
 8
WHITE
 10
-2.88
 20
6.651
 30
0.0000
 11
-3.000999
 21
6.513999
 31
0.0000
 6
CONTINUOUS
 0
LINE
 8
WHITE
 10
-3.000999
 20
6.513999
 30
0.0000
 11
-3.109999
 21
6.423999
 31
0.0000
 6
CONTINUOUS
 0
ARC
 8
WHITE
 10
-3.084899
 20
6.393099
 30
 0
 40
.039809
 50
129.0869
 51
229.0708
 6
CONTINUOUS
 0
LINE
 8
WHITE
 10
-3.111
 20
6.362999
 30
0.0000
 11
-3.052999
 21
6.310999
 31
0.0000
 6
CONTINUOUS
 0
LINE
 8
WHITE
 10
-3.052999
 20
6.310999
 30
0.0000
 11
-3.010999
 21
6.263999
 31
0.0000
 6
CONTINUOUS
 0
LINE
 8
WHITE
 10
-3.010999
 20
6.263999
 30
0.0000
 11
-3.000999
 21
6.206999
 31
0.0000
 6
CONTINUOUS
 0
LINE
 8
WHITE
 10
-3.000999
 20
6.206999
 30
0.0000
 11
-3.078999
 21
5.979
 31
0.0000
 6
CONTINUOUS
 0
LINE
 8
WHITE
 10
-3.078999
 20
5.979
 30
0.0000
 11
-3.237999
 21
5.769
 31
0.0000
 6
CONTINUOUS
 0
LINE
 8
WHITE
 10
-3.237999
 20
5.769
 30
0.0000
 11
-3.236
 21
5.698999
 31
0.0000
 6
CONTINUOUS
 0
LINE
 8
WHITE
 10
-3.236
 20
5.698999
 30
0.0000
 11
-3.201999
 21
5.63
 31
0.0000
 6
CONTINUOUS
 0
ARC
 8
WHITE
 10
-3.166399
 20
5.647799
 30
 0
 40
.039802
 50
206.565
 51
270.5759
 6
CONTINUOUS
 0
LINE
 8
WHITE
 10
-3.165999
 20
5.607999
 30
0.0000
 11
-2.145999
 21
5.607999
 31
0.0000
 6
CONTINUOUS
 0
LINE
 8
WHITE
 10
-2.145999
 20
5.607999
 30
0.0000
 11
-2.14
 21
5.614999
 31
0.0000
 6
CONTINUOUS
 0
LINE
 8
WHITE
 10
-1.832
 20
4.879
 30
0.0000
 11
.762
 21
4.879
 31
0.0000
 6
CONTINUOUS
 0
LINE
 8
WHITE
 10
-1.832
 20
3.128999
 30
0.0000
 11
.762
 21
3.128999
 31
0.0000
 6
CONTINUOUS
 0
LINE
 8
WHITE
 10
-2.062999
 20
2.15
 30
0.0000
 11
-2.062999
 21
2.4
 31
0.0000
 6
CONTINUOUS
 0
LINE
 8
WHITE
 10
-2.062999
 20
2.4
 30
0.0000
 11
-3.165999
 21
2.4
 31
0.0000
 6
CONTINUOUS
 0
ARC
 8
WHITE
 10
-3.166299
 20
2.36
 30
 0
 40
.040001
 50
89.57029
 51
153.2429
 6
CONTINUOUS
 0
LINE
 8
WHITE
 10
-3.201999
 20
2.378
 30
0.0000
 11
-3.236
 21
2.309
 31
0.0000
 6
CONTINUOUS
 0
LINE
 8
WHITE
 10
-3.236
 20
2.309
 30
0.0000
 11
-3.237999
 21
2.237999
 31
0.0000
 6
CONTINUOUS
 0
LINE
 8
WHITE
 10
-3.237999
 20
2.237999
 30
0.0000
 11
-3.078999
 21
2.029
 31
0.0000
 6
CONTINUOUS
 0
LINE
 8
WHITE
 10
-3.078999
 20
2.029
 30
0.0000
 11
-3.000999
 21
1.800999
 31
0.0000
 6
CONTINUOUS
 0
LINE
 8
WHITE
 10
-3.000999
 20
1.800999
 30
0.0000
 11
-3.010999
 21
1.743999
 31
0.0000
 6
CONTINUOUS
 0
LINE
 8
WHITE
 10
-3.010999
 20
1.743999
 30
0.0000
 11
-3.052999
 21
1.695999
 31
0.0000
 6
CONTINUOUS
 0
LINE
 8
WHITE
 10
-3.052999
 20
1.695999
 30
0.0000
 11
-3.111
 21
1.644999
 31
0.0000
 6
CONTINUOUS
 0
ARC
 8
WHITE
 10
-3.0851
 20
1.614899
 30
 0
 40
.039709
 50
130.7108
 51
231.1376
 6
CONTINUOUS
 0
LINE
 8
WHITE
 10
-3.109999
 20
1.583999
 30
0.0000
 11
-3.000999
 21
1.493
 31
0.0000
 6
CONTINUOUS
 0
LINE
 8
WHITE
 10
-3.000999
 20
1.493
 30
0.0000
 11
-2.88
 21
1.356999
 31
0.0000
 6
CONTINUOUS
 0
LINE
 8
WHITE
 10
-2.88
 20
1.356999
 30
0.0000
 11
-2.723
 21
1.128
 31
0.0000
 6
CONTINUOUS
 0
LINE
 8
WHITE
 10
-2.723
 20
1.128
 30
0.0000
 11
-2.64
 21
1.021999
 31
0.0000
 6
CONTINUOUS
 0
LINE
 8
WHITE
 10
-2.64
 20
1.021999
 30
0.0000
 11
-2.532999
 21
.948
 31
0.0000
 6
CONTINUOUS
 0
LINE
 8
WHITE
 10
-2.532999
 20
.948
 30
0.0000
 11
-2.24
 21
1.027999
 31
0.0000
 6
CONTINUOUS
 0
LINE
 8
WHITE
 10
-2.24
 20
1.027999
 30
0.0000
 11
-1.937999
 21
1.065999
 31
0.0000
 6
CONTINUOUS
 0
LINE
 8
WHITE
 10
-1.937999
 20
1.065999
 30
0.0000
 11
-1.636
 21
1.065999
 31
0.0000
 6
CONTINUOUS
 0
LINE
 8
WHITE
 10
-1.636
 20
1.065999
 30
0.0000
 11
-1.340999
 21
1.031
 31
0.0000
 6
CONTINUOUS
 0
LINE
 8
WHITE
 10
-1.340999
 20
1.031
 30
0.0000
 11
-1.233999
 21
1.049999
 31
0.0000
 6
CONTINUOUS
 0
LINE
 8
WHITE
 10
-1.233999
 20
1.049999
 30
0.0000
 11
-1.161999
 21
1.054
 31
0.0000
 6
CONTINUOUS
 0
ARC
 8
WHITE
 10
-1.163999
 20
1.093999
 30
 0
 40
.040049
 50
272.8624
 51
347.0054
 6
CONTINUOUS
 0
LINE
 8
WHITE
 10
-1.125
 20
1.085
 30
0.0000
 11
-1.116999
 21
1.121999
 31
0.0000
 6
CONTINUOUS
 0
LINE
 8
WHITE
 10
-1.116999
 20
1.121999
 30
0.0000
 11
-1.136
 21
1.228
 31
0.0000
 6
CONTINUOUS
 0
LINE
 8
WHITE
 10
-1.136
 20
1.228
 30
0.0000
 11
-1.126
 21
1.335999
 31
0.0000
 6
CONTINUOUS
 0
LINE
 8
WHITE
 10
-1.126
 20
1.335999
 30
0.0000
 11
-1.11
 21
1.455
 31
0.0000
 6
CONTINUOUS
 0
LINE
 8
WHITE
 10
-1.11
 20
1.455
 30
0.0000
 11
-1.110999
 21
1.598
 31
0.0000
 6
CONTINUOUS
 0
LINE
 8
WHITE
 10
-1.110999
 20
1.598
 30
0.0000
 11
-1.098
 21
2.052999
 31
0.0000
 6
CONTINUOUS
 0
LINE
 8
WHITE
 10
-1.098
 20
2.052999
 30
0.0000
 11
-1.100999
 21
2.361
 31
0.0000
 6
CONTINUOUS
 0
ARC
 8
WHITE
 10
-1.140999
 20
2.36
 30
 0
 40
.040012
 50
1.432096
 51
90.00017
 6
CONTINUOUS
 0
LINE
 8
WHITE
 10
-1.141
 20
2.4
 30
0.0000
 11
-2.062999
 21
2.4
 31
0.0000
 6
CONTINUOUS
 0
LINE
 8
WHITE
 10
-2.062999
 20
2.4
 30
0.0000
 11
-2.069999
 21
2.392999
 31
0.0000
 6
CONTINUOUS
 0
LINE
 8
WHITE
 10
-3.653
 20
-.221
 30
0.0000
 11
-3.661
 21
-.310999
 31
0.0000
 6
CONTINUOUS
 0
LINE
 8
WHITE
 10
-3.661
 20
-.310999
 30
0.0000
 11
-3.697
 21
-.372999
 31
0.0000
 6
CONTINUOUS
 0
LINE
 8
WHITE
 10
-3.697
 20
-.372999
 30
0.0000
 11
-3.703999
 21
-.412
 31
0.0000
 6
CONTINUOUS
 0
ARC
 8
WHITE
 10
-3.683899
 20
-.415399
 30
 0
 40
.020385
 50
170.3991
 51
229.978
 6
CONTINUOUS
 0
LINE
 8
WHITE
 10
-3.697
 20
-.430999
 30
0.0000
 11
-3.615
 21
-.495
 31
0.0000
 6
CONTINUOUS
 0
ARC
 8
WHITE
 10
-3.6029
 20
-.479099
 30
 0
 40
.01998
 50
232.7286
 51
333.5631
 6
CONTINUOUS
 0
LINE
 8
WHITE
 10
-3.585
 20
-.488
 30
0.0000
 11
-3.569
 21
-.456999
 31
0.0000
 6
CONTINUOUS
 0
LINE
 8
WHITE
 10
-3.569
 20
-.456999
 30
0.0000
 11
-3.562999
 21
-.5
 31
0.0000
 6
CONTINUOUS
 0
LINE
 8
WHITE
 10
-3.562999
 20
-.5
 30
0.0000
 11
-3.539
 21
-.518
 31
0.0000
 6
CONTINUOUS
 0
LINE
 8
WHITE
 10
-3.539
 20
-.518
 30
0.0000
 11
-3.463
 21
-.488999
 31
0.0000
 6
CONTINUOUS
 0
LINE
 8
WHITE
 10
-3.463
 20
-.488999
 30
0.0000
 11
-3.444
 21
-.435
 31
0.0000
 6
CONTINUOUS
 0
LINE
 8
WHITE
 10
-3.444
 20
-.435
 30
0.0000
 11
-3.463999
 21
-.275
 31
0.0000
 6
CONTINUOUS
 0
LINE
 8
WHITE
 10
-3.463999
 20
-.275
 30
0.0000
 11
-3.572999
 21
-.178
 31
0.0000
 6
CONTINUOUS
 0
LINE
 8
WHITE
 10
-3.572999
 20
-.178
 30
0.0000
 11
-3.671999
 21
-.054
 31
0.0000
 6
CONTINUOUS
 0
LINE
 8
WHITE
 10
-3.671999
 20
-.054
 30
0.0000
 11
-3.746
 21
.096
 31
0.0000
 6
CONTINUOUS
 0
LINE
 8
WHITE
 10
-3.746
 20
.096
 30
0.0000
 11
-3.780999
 21
.270999
 31
0.0000
 6
CONTINUOUS
 0
LINE
 8
WHITE
 10
-3.780999
 20
.270999
 30
0.0000
 11
-3.773
 21
.453
 31
0.0000
 6
CONTINUOUS
 0
LINE
 8
WHITE
 10
-3.773
 20
.453
 30
0.0000
 11
-3.767999
 21
.474
 31
0.0000
 6
CONTINUOUS
 0
ARC
 8
WHITE
 10
-3.787799
 20
.478799
 30
 0
 40
.020373
 50
346.373
 51
82.109
 6
CONTINUOUS
 0
LINE
 8
WHITE
 10
-3.785
 20
.499
 30
0.0000
 11
-3.885999
 21
.512
 31
0.0000
 6
CONTINUOUS
 0
ARC
 8
WHITE
 10
-3.8894
 20
.4921
 30
 0
 40
.020188
 50
80.30439
 51
156.9876
 6
CONTINUOUS
 0
LINE
 8
WHITE
 10
-3.907999
 20
.5
 30
0.0000
 11
-3.953
 21
.386
 31
0.0000
 6
CONTINUOUS
 0
LINE
 8
WHITE
 10
-3.953
 20
.386
 30
0.0000
 11
-3.971999
 21
.305999
 31
0.0000
 6
CONTINUOUS
 0
LINE
 8
WHITE
 10
-3.971999
 20
.305999
 30
0.0000
 11
-3.967999
 21
.231999
 31
0.0000
 6
CONTINUOUS
 0
LINE
 8
WHITE
 10
-3.967999
 20
.231999
 30
0.0000
 11
-3.917
 21
.128999
 31
0.0000
 6
CONTINUOUS
 0
LINE
 8
WHITE
 10
-3.917
 20
.128999
 30
0.0000
 11
-3.858999
 21
.039
 31
0.0000
 6
CONTINUOUS
 0
LINE
 8
WHITE
 10
-3.858999
 20
.039
 30
0.0000
 11
-3.848999
 21
.092
 31
0.0000
 6
CONTINUOUS
 0
LINE
 8
WHITE
 10
-3.848999
 20
.092
 30
0.0000
 11
-3.865999
 21
.209
 31
0.0000
 6
CONTINUOUS
 0
LINE
 8
WHITE
 10
-3.865999
 20
.209
 30
0.0000
 11
-3.823999
 21
.280999
 31
0.0000
 6
CONTINUOUS
 0
LINE
 8
WHITE
 10
-3.823999
 20
.280999
 30
0.0000
 11
-3.811
 21
.160999
 31
0.0000
 6
CONTINUOUS
 0
LINE
 8
WHITE
 10
-3.811
 20
.160999
 30
0.0000
 11
-3.767999
 21
.045
 31
0.0000
 6
CONTINUOUS
 0
LINE
 8
WHITE
 10
-3.767999
 20
.045
 30
0.0000
 11
-3.765
 21
-.037
 31
0.0000
 6
CONTINUOUS
 0
LINE
 8
WHITE
 10
-3.765
 20
-.037
 30
0.0000
 11
-3.796
 21
-.203999
 31
0.0000
 6
CONTINUOUS
 0
LINE
 8
WHITE
 10
-3.796
 20
-.203999
 30
0.0000
 11
-3.783999
 21
-.282
 31
0.0000
 6
CONTINUOUS
 0
LINE
 8
WHITE
 10
-3.783999
 20
-.282
 30
0.0000
 11
-3.746
 21
-.335999
 31
0.0000
 6
CONTINUOUS
 0
ARC
 8
WHITE
 10
-3.729799
 20
-.3253
 30
 0
 40
.019414
 50
213.4445
 51
300.4054
 6
CONTINUOUS
 0
LINE
 8
WHITE
 10
-3.72
 20
-.342
 30
0.0000
 11
-3.661
 21
-.310999
 31
0.0000
 6
CONTINUOUS
 0
LINE
 8
WHITE
 10
-3.661
 20
-.310999
 30
0.0000
 11
-3.651999
 21
-.314
 31
0.0000
 6
CONTINUOUS
 0
LINE
 8
WHITE
 10
-5.65
 20
1.125
 30
0.0000
 11
-5.791999
 21
1.266
 31
0.0000
 6
CONTINUOUS
 0
LINE
 8
WHITE
 10
-5.791999
 20
1.266
 30
0.0000
 11
-6.045
 21
1.013
 31
0.0000
 6
CONTINUOUS
 0
LINE
 8
WHITE
 10
-6.045
 20
1.013
 30
0.0000
 11
-5.472
 21
1.013
 31
0.0000
 6
CONTINUOUS
 0
ARC
 8
WHITE
 10
-5.472
 20
1.032999
 30
 0
 40
.019999
 50
270
 51
0
 6
CONTINUOUS
 0
LINE
 8
WHITE
 10
-5.452
 20
1.032999
 30
0.0000
 11
-5.452
 21
1.468999
 31
0.0000
 6
CONTINUOUS
 0
ARC
 8
WHITE
 10
-5.472
 20
1.468299
 30
 0
 40
.020012
 50
2.004533
 51
69.47762
 6
CONTINUOUS
 0
LINE
 8
WHITE
 10
-5.465
 20
1.486999
 30
0.0000
 11
-5.526
 21
1.514
 31
0.0000
 6
CONTINUOUS
 0
ARC
 8
WHITE
 10
-5.5341
 20
1.496
 30
 0
 40
.019738
 50
65.77225
 51
134.7944
 6
CONTINUOUS
 0
LINE
 8
WHITE
 10
-5.547999
 20
1.509999
 30
0.0000
 11
-5.791999
 21
1.266
 31
0.0000
 6
CONTINUOUS
 0
LINE
 8
WHITE
 10
-5.791999
 20
1.266
 30
0.0000
 11
-5.791999
 21
1.256
 31
0.0000
 6
CONTINUOUS
 0
LINE
 8
WHITE
 10
-6.056
 20
1.491999
 30
0.0000
 11
-5.88
 21
1.315
 31
0.0000
 6
CONTINUOUS
 0
LINE
 8
WHITE
 10
-5.88
 20
1.315
 30
0.0000
 11
-5.625999
 21
1.567999
 31
0.0000
 6
CONTINUOUS
 0
ARC
 8
WHITE
 10
-5.6535
 20
1.596499
 30
 0
 40
.039604
 50
313.977
 51
23.00897
 6
CONTINUOUS
 0
LINE
 8
WHITE
 10
-5.617
 20
1.611999
 30
0.0000
 11
-5.631999
 21
1.649
 31
0.0000
 6
CONTINUOUS
 0
ARC
 8
WHITE
 10
-5.669
 20
1.634
 30
 0
 40
.039924
 50
22.0679
 51
90
 6
CONTINUOUS
 0
LINE
 8
WHITE
 10
-5.669
 20
1.674
 30
0.0000
 11
-6.364999
 21
1.674
 31
0.0000
 6
CONTINUOUS
 0
ARC
 8
WHITE
 10
-6.364299
 20
1.634
 30
 0
 40
.040006
 50
91.00257
 51
187.1785
 6
CONTINUOUS
 0
LINE
 8
WHITE
 10
-6.403999
 20
1.628999
 30
0.0000
 11
-6.390999
 21
1.509999
 31
0.0000
 6
CONTINUOUS
 0
LINE
 8
WHITE
 10
-6.390999
 20
1.509999
 30
0.0000
 11
-6.342999
 21
1.343
 31
0.0000
 6
CONTINUOUS
 0
LINE
 8
WHITE
 10
-6.342999
 20
1.343
 30
0.0000
 11
-6.263999
 21
1.184
 31
0.0000
 6
CONTINUOUS
 0
LINE
 8
WHITE
 10
-6.263999
 20
1.184
 30
0.0000
 11
-6.179999
 21
1.077999
 31
0.0000
 6
CONTINUOUS
 0
ARC
 8
WHITE
 10
-6.149099
 20
1.103199
 30
 0
 40
.039872
 50
219.1984
 51
314.8983
 6
CONTINUOUS
 0
LINE
 8
WHITE
 10
-6.120999
 20
1.075
 30
0.0000
 11
-5.88
 21
1.315
 31
0.0000
 6
CONTINUOUS
 0
LINE
 8
WHITE
 10
-5.88
 20
1.315
 30
0.0000
 11
-5.88
 21
1.325
 31
0.0000
 6
CONTINUOUS
 0
LINE
 8
WHITE
 10
-6.027999
 20
2.019999
 30
0.0000
 11
-6.027999
 21
1.769999
 31
0.0000
 6
CONTINUOUS
 0
LINE
 8
WHITE
 10
-6.027999
 20
1.769999
 30
0.0000
 11
-5.669
 21
1.769999
 31
0.0000
 6
CONTINUOUS
 0
ARC
 8
WHITE
 10
-5.669
 20
1.809999
 30
 0
 40
.039999
 50
270
 51
337.9322
 6
CONTINUOUS
 0
LINE
 8
WHITE
 10
-5.631999
 20
1.794999
 30
0.0000
 11
-5.617
 21
1.832
 31
0.0000
 6
CONTINUOUS
 0
ARC
 8
WHITE
 10
-5.654099
 20
1.8467
 30
 0
 40
.039906
 50
338.3852
 51
45.20309
 6
CONTINUOUS
 0
LINE
 8
WHITE
 10
-5.625999
 20
1.875
 30
0.0000
 11
-6.114999
 21
2.365999
 31
0.0000
 6
CONTINUOUS
 0
ARC
 8
WHITE
 10
-6.143299
 20
2.338299
 30
 0
 40
.0396
 50
44.38614
 51
143.2175
 6
CONTINUOUS
 0
LINE
 8
WHITE
 10
-6.175
 20
2.361999
 30
0.0000
 11
-6.248
 21
2.269999
 31
0.0000
 6
CONTINUOUS
 0
LINE
 8
WHITE
 10
-6.248
 20
2.269999
 30
0.0000
 11
-6.335
 21
2.118
 31
0.0000
 6
CONTINUOUS
 0
LINE
 8
WHITE
 10
-6.335
 20
2.118
 30
0.0000
 11
-6.390999
 21
1.949
 31
0.0000
 6
CONTINUOUS
 0
LINE
 8
WHITE
 10
-6.390999
 20
1.949
 30
0.0000
 11
-6.407999
 21
1.815
 31
0.0000
 6
CONTINUOUS
 0
ARC
 8
WHITE
 10
-6.368
 20
1.8103
 30
 0
 40
.040275
 50
173.2985
 51
270
 6
CONTINUOUS
 0
LINE
 8
WHITE
 10
-6.368
 20
1.769999
 30
0.0000
 11
-6.027999
 21
1.769999
 31
0.0000
 6
CONTINUOUS
 0
LINE
 8
WHITE
 10
-6.027999
 20
1.769999
 30
0.0000
 11
-6.020999
 21
1.776999
 31
0.0000
 6
CONTINUOUS
 0
LINE
 8
WHITE
 10
-5.651
 20
2.18
 30
0.0000
 11
-5.451
 21
2.18
 31
0.0000
 6
CONTINUOUS
 0
LINE
 8
WHITE
 10
-5.451
 20
2.18
 30
0.0000
 11
-5.449999
 21
2.4
 31
0.0000
 6
CONTINUOUS
 0
LINE
 8
WHITE
 10
-5.449999
 20
2.4
 30
0.0000
 11
-6.012
 21
2.4
 31
0.0000
 6
CONTINUOUS
 0
LINE
 8
WHITE
 10
-6.012
 20
2.4
 30
0.0000
 11
-5.545
 21
1.934
 31
0.0000
 6
CONTINUOUS
 0
ARC
 8
WHITE
 10
-5.5314
 20
1.9484
 30
 0
 40
.019807
 50
226.6366
 51
291.9087
 6
CONTINUOUS
 0
LINE
 8
WHITE
 10
-5.524
 20
1.929999
 30
0.0000
 11
-5.451
 21
1.96
 31
0.0000
 6
CONTINUOUS
 0
LINE
 8
WHITE
 10
-5.451
 20
1.96
 30
0.0000
 11
-5.451
 21
2.18
 31
0.0000
 6
CONTINUOUS
 0
LINE
 8
WHITE
 10
-5.451
 20
2.18
 30
0.0000
 11
-5.458
 21
2.187
 31
0.0000
 6
CONTINUOUS
 0
LINE
 8
WHITE
 10
-4.55
 20
3.128999
 30
0.0000
 11
-1.957
 21
3.128999
 31
0.0000
 6
CONTINUOUS
 0
LINE
 8
WHITE
 10
-5.169
 20
2.303999
 30
0.0000
 11
-5.027999
 21
2.161999
 31
0.0000
 6
CONTINUOUS
 0
LINE
 8
WHITE
 10
-5.027999
 20
2.161999
 30
0.0000
 11
-4.788
 21
2.4
 31
0.0000
 6
CONTINUOUS
 0
LINE
 8
WHITE
 10
-4.788
 20
2.4
 30
0.0000
 11
-5.333
 21
2.4
 31
0.0000
 6
CONTINUOUS
 0
ARC
 8
WHITE
 10
-5.333
 20
2.38
 30
 0
 40
.019999
 50
90
 51
180
 6
CONTINUOUS
 0
LINE
 8
WHITE
 10
-5.353
 20
2.38
 30
0.0000
 11
-5.353
 21
1.972
 31
0.0000
 6
CONTINUOUS
 0
ARC
 8
WHITE
 10
-5.333
 20
1.9723
 30
 0
 40
.020002
 50
180.8594
 51
246.3874
 6
CONTINUOUS
 0
LINE
 8
WHITE
 10
-5.341
 20
1.953999
 30
0.0000
 11
-5.278999
 21
1.929
 31
0.0000
 6
CONTINUOUS
 0
ARC
 8
WHITE
 10
-5.2725
 20
1.948199
 30
 0
 40
.02027
 50
251.2969
 51
315.5992
 6
CONTINUOUS
 0
LINE
 8
WHITE
 10
-5.257999
 20
1.934
 30
0.0000
 11
-5.027999
 21
2.161999
 31
0.0000
 6
CONTINUOUS
 0
LINE
 8
WHITE
 10
-5.027999
 20
2.161999
 30
0.0000
 11
-5.027999
 21
2.171999
 31
0.0000
 6
CONTINUOUS
 0
LINE
 8
WHITE
 10
-4.750999
 20
1.95
 30
0.0000
 11
-4.927
 21
2.125999
 31
0.0000
 6
CONTINUOUS
 0
LINE
 8
WHITE
 10
-4.927
 20
2.125999
 30
0.0000
 11
-5.181
 21
1.871999
 31
0.0000
 6
CONTINUOUS
 0
ARC
 8
WHITE
 10
-5.1533
 20
1.843799
 30
 0
 40
.039528
 50
134.4875
 51
201.9628
 6
CONTINUOUS
 0
LINE
 8
WHITE
 10
-5.19
 20
1.828999
 30
0.0000
 11
-5.164999
 21
1.766999
 31
0.0000
 6
CONTINUOUS
 0
LINE
 8
WHITE
 10
-5.164999
 20
1.766999
 30
0.0000
 11
-4.397999
 21
1.766
 31
0.0000
 6
CONTINUOUS
 0
LINE
 8
WHITE
 10
-4.397999
 20
1.766
 30
0.0000
 11
-4.418
 21
1.929
 31
0.0000
 6
CONTINUOUS
 0
LINE
 8
WHITE
 10
-4.418
 20
1.929
 30
0.0000
 11
-4.464
 21
2.095999
 31
0.0000
 6
CONTINUOUS
 0
LINE
 8
WHITE
 10
-4.464
 20
2.095999
 30
0.0000
 11
-4.541999
 21
2.256999
 31
0.0000
 6
CONTINUOUS
 0
LINE
 8
WHITE
 10
-4.541999
 20
2.256999
 30
0.0000
 11
-4.626999
 21
2.364
 31
0.0000
 6
CONTINUOUS
 0
ARC
 8
WHITE
 10
-4.657899
 20
2.3388
 30
 0
 40
.039872
 50
39.19841
 51
134.8983
 6
CONTINUOUS
 0
LINE
 8
WHITE
 10
-4.685999
 20
2.367
 30
0.0000
 11
-4.927
 21
2.125999
 31
0.0000
 6
CONTINUOUS
 0
LINE
 8
WHITE
 10
-4.927
 20
2.125999
 30
0.0000
 11
-4.927
 21
2.115999
 31
0.0000
 6
CONTINUOUS
 0
LINE
 8
WHITE
 10
-4.78
 20
1.421
 30
0.0000
 11
-4.78
 21
1.671
 31
0.0000
 6
CONTINUOUS
 0
LINE
 8
WHITE
 10
-4.78
 20
1.671
 30
0.0000
 11
-5.138
 21
1.671
 31
0.0000
 6
CONTINUOUS
 0
ARC
 8
WHITE
 10
-5.138
 20
1.631
 30
 0
 40
.039999
 50
90
 51
157.9322
 6
CONTINUOUS
 0
LINE
 8
WHITE
 10
-5.175
 20
1.646
 30
0.0000
 11
-5.190999
 21
1.608999
 31
0.0000
 6
CONTINUOUS
 0
ARC
 8
WHITE
 10
-5.153999
 20
1.592999
 30
 0
 40
.040311
 50
156.6148
 51
223.9945
 6
CONTINUOUS
 0
LINE
 8
WHITE
 10
-5.183
 20
1.565
 30
0.0000
 11
-4.691999
 21
1.072999
 31
0.0000
 6
CONTINUOUS
 0
ARC
 8
WHITE
 10
-4.6633
 20
1.100299
 30
 0
 40
.03961
 50
223.5679
 51
322.1758
 6
CONTINUOUS
 0
LINE
 8
WHITE
 10
-4.631999
 20
1.075999
 30
0.0000
 11
-4.558
 21
1.169999
 31
0.0000
 6
CONTINUOUS
 0
LINE
 8
WHITE
 10
-4.558
 20
1.169999
 30
0.0000
 11
-4.473999
 21
1.320999
 31
0.0000
 6
CONTINUOUS
 0
LINE
 8
WHITE
 10
-4.473999
 20
1.320999
 30
0.0000
 11
-4.415999
 21
1.491
 31
0.0000
 6
CONTINUOUS
 0
LINE
 8
WHITE
 10
-4.415999
 20
1.491
 30
0.0000
 11
-4.4
 21
1.626
 31
0.0000
 6
CONTINUOUS
 0
ARC
 8
WHITE
 10
-4.44
 20
1.630699
 30
 0
 40
.040275
 50
353.2985
 51
90
 6
CONTINUOUS
 0
LINE
 8
WHITE
 10
-4.44
 20
1.671
 30
0.0000
 11
-4.78
 21
1.671
 31
0.0000
 6
CONTINUOUS
 0
LINE
 8
WHITE
 10
-4.78
 20
1.671
 30
0.0000
 11
-4.787
 21
1.662999
 31
0.0000
 6
CONTINUOUS
 0
LINE
 8
WHITE
 10
-5.107999
 20
1.175999
 30
0.0000
 11
-5.357999
 21
1.175999
 31
0.0000
 6
CONTINUOUS
 0
LINE
 8
WHITE
 10
-5.357999
 20
1.175999
 30
0.0000
 11
-5.357999
 21
.907
 31
0.0000
 6
CONTINUOUS
 0
ARC
 8
WHITE
 10
-5.317999
 20
.9077
 30
 0
 40
.040006
 50
181.0026
 51
262.8215
 6
CONTINUOUS
 0
LINE
 8
WHITE
 10
-5.322999
 20
.867999
 30
0.0000
 11
-4.949999
 21
.818
 31
0.0000
 6
CONTINUOUS
 0
LINE
 8
WHITE
 10
-4.949999
 20
.818
 30
0.0000
 11
-4.867
 21
.859
 31
0.0000
 6
CONTINUOUS
 0
LINE
 8
WHITE
 10
-4.867
 20
.859
 30
0.0000
 11
-4.76
 21
.944
 31
0.0000
 6
CONTINUOUS
 0
ARC
 8
WHITE
 10
-4.7846
 20
.9753
 30
 0
 40
.03981
 50
308.1653
 51
46.11895
 6
CONTINUOUS
 0
LINE
 8
WHITE
 10
-4.756999
 20
1.003999
 30
0.0000
 11
-5.251999
 21
1.496999
 31
0.0000
 6
CONTINUOUS
 0
ARC
 8
WHITE
 10
-5.280499
 20
1.469499
 30
 0
 40
.039604
 50
43.97697
 51
113.0089
 6
CONTINUOUS
 0
LINE
 8
WHITE
 10
-5.296
 20
1.506
 30
0.0000
 11
-5.333
 21
1.491
 31
0.0000
 6
CONTINUOUS
 0
ARC
 8
WHITE
 10
-5.318
 20
1.453999
 30
 0
 40
.039924
 50
112.0679
 51
180
 6
CONTINUOUS
 0
LINE
 8
WHITE
 10
-5.357999
 20
1.453999
 30
0.0000
 11
-5.357999
 21
1.175999
 31
0.0000
 6
CONTINUOUS
 0
LINE
 8
WHITE
 10
-5.357999
 20
1.175999
 30
0.0000
 11
-5.349999
 21
1.169
 31
0.0000
 6
CONTINUOUS
 0
LINE
 8
WHITE
 10
-4.559
 20
.845
 30
0.0000
 11
-4.568999
 21
.767
 31
0.0000
 6
CONTINUOUS
 0
LINE
 8
WHITE
 10
-4.568999
 20
.767
 30
0.0000
 11
-4.473
 21
.754999
 31
0.0000
 6
CONTINUOUS
 0
LINE
 8
WHITE
 10
-4.473
 20
.754999
 30
0.0000
 11
-4.497
 21
.805
 31
0.0000
 6
CONTINUOUS
 0
LINE
 8
WHITE
 10
-4.497
 20
.805
 30
0.0000
 11
-4.526999
 21
.948
 31
0.0000
 6
CONTINUOUS
 0
LINE
 8
WHITE
 10
-4.526999
 20
.948
 30
0.0000
 11
-4.572999
 21
.892
 31
0.0000
 6
CONTINUOUS
 0
LINE
 8
WHITE
 10
-4.572999
 20
.892
 30
0.0000
 11
-4.701
 21
.785
 31
0.0000
 6
CONTINUOUS
 0
LINE
 8
WHITE
 10
-4.701
 20
.785
 30
0.0000
 11
-4.568999
 21
.767
 31
0.0000
 6
CONTINUOUS
 0
LINE
 8
WHITE
 10
-4.568999
 20
.767
 30
0.0000
 11
-4.560999
 21
.773999
 31
0.0000
 6
CONTINUOUS
 0
LINE
 8
WHITE
 10
-3.94
 20
2.15
 30
0.0000
 11
-3.94
 21
2.4
 31
0.0000
 6
CONTINUOUS
 0
LINE
 8
WHITE
 10
-3.94
 20
2.4
 30
0.0000
 11
-4.448999
 21
2.4
 31
0.0000
 6
CONTINUOUS
 0
LINE
 8
WHITE
 10
-4.448999
 20
2.4
 30
0.0000
 11
-4.431
 21
2.377
 31
0.0000
 6
CONTINUOUS
 0
LINE
 8
WHITE
 10
-4.431
 20
2.377
 30
0.0000
 11
-4.321
 21
2.177999
 31
0.0000
 6
CONTINUOUS
 0
LINE
 8
WHITE
 10
-4.321
 20
2.177999
 30
0.0000
 11
-4.263999
 21
1.991999
 31
0.0000
 6
CONTINUOUS
 0
LINE
 8
WHITE
 10
-4.263999
 20
1.991999
 30
0.0000
 11
-4.243
 21
2.038
 31
0.0000
 6
CONTINUOUS
 0
LINE
 8
WHITE
 10
-4.243
 20
2.038
 30
0.0000
 11
-4.218999
 21
1.939
 31
0.0000
 6
CONTINUOUS
 0
LINE
 8
WHITE
 10
-4.218999
 20
1.939
 30
0.0000
 11
-4.129
 21
1.809999
 31
0.0000
 6
CONTINUOUS
 0
LINE
 8
WHITE
 10
-4.129
 20
1.809999
 30
0.0000
 11
-4.105
 21
1.702
 31
0.0000
 6
CONTINUOUS
 0
LINE
 8
WHITE
 10
-4.105
 20
1.702
 30
0.0000
 11
-4.158999
 21
1.462
 31
0.0000
 6
CONTINUOUS
 0
LINE
 8
WHITE
 10
-4.158999
 20
1.462
 30
0.0000
 11
-4.178999
 21
1.34
 31
0.0000
 6
CONTINUOUS
 0
LINE
 8
WHITE
 10
-4.178999
 20
1.34
 30
0.0000
 11
-4.159999
 21
1.266
 31
0.0000
 6
CONTINUOUS
 0
LINE
 8
WHITE
 10
-4.159999
 20
1.266
 30
0.0000
 11
-4.157999
 21
1.294
 31
0.0000
 6
CONTINUOUS
 0
LINE
 8
WHITE
 10
-4.157999
 20
1.294
 30
0.0000
 11
-4.111999
 21
1.388
 31
0.0000
 6
CONTINUOUS
 0
LINE
 8
WHITE
 10
-4.111999
 20
1.388
 30
0.0000
 11
-4.113999
 21
1.299999
 31
0.0000
 6
CONTINUOUS
 0
LINE
 8
WHITE
 10
-4.113999
 20
1.299999
 30
0.0000
 11
-4.079999
 21
1.194
 31
0.0000
 6
CONTINUOUS
 0
LINE
 8
WHITE
 10
-4.079999
 20
1.194
 30
0.0000
 11
-4.067999
 21
1.231999
 31
0.0000
 6
CONTINUOUS
 0
LINE
 8
WHITE
 10
-4.067999
 20
1.231999
 30
0.0000
 11
-4.072999
 21
1.376999
 31
0.0000
 6
CONTINUOUS
 0
LINE
 8
WHITE
 10
-4.072999
 20
1.376999
 30
0.0000
 11
-4.041999
 21
1.47
 31
0.0000
 6
CONTINUOUS
 0
LINE
 8
WHITE
 10
-4.041999
 20
1.47
 30
0.0000
 11
-3.986
 21
1.256999
 31
0.0000
 6
CONTINUOUS
 0
LINE
 8
WHITE
 10
-3.986
 20
1.256999
 30
0.0000
 11
-3.969
 21
1.164999
 31
0.0000
 6
CONTINUOUS
 0
LINE
 8
WHITE
 10
-3.969
 20
1.164999
 30
0.0000
 11
-3.986999
 21
1.059999
 31
0.0000
 6
CONTINUOUS
 0
LINE
 8
WHITE
 10
-3.986999
 20
1.059999
 30
0.0000
 11
-4.054999
 21
.981
 31
0.0000
 6
CONTINUOUS
 0
LINE
 8
WHITE
 10
-4.054999
 20
.981
 30
0.0000
 11
-4.084
 21
.939999
 31
0.0000
 6
CONTINUOUS
 0
LINE
 8
WHITE
 10
-4.084
 20
.939999
 30
0.0000
 11
-4.085999
 21
.883
 31
0.0000
 6
CONTINUOUS
 0
LINE
 8
WHITE
 10
-4.085999
 20
.883
 30
0.0000
 11
-4.060999
 21
.878
 31
0.0000
 6
CONTINUOUS
 0
LINE
 8
WHITE
 10
-4.060999
 20
.878
 30
0.0000
 11
-4.037
 21
.898999
 31
0.0000
 6
CONTINUOUS
 0
LINE
 8
WHITE
 10
-4.037
 20
.898999
 30
0.0000
 11
-3.99
 21
.971
 31
0.0000
 6
CONTINUOUS
 0
LINE
 8
WHITE
 10
-3.99
 20
.971
 30
0.0000
 11
-3.997999
 21
.861999
 31
0.0000
 6
CONTINUOUS
 0
LINE
 8
WHITE
 10
-3.997999
 20
.861999
 30
0.0000
 11
-4.041999
 21
.788999
 31
0.0000
 6
CONTINUOUS
 0
LINE
 8
WHITE
 10
-4.041999
 20
.788999
 30
0.0000
 11
-4.066999
 21
.732999
 31
0.0000
 6
CONTINUOUS
 0
LINE
 8
WHITE
 10
-4.066999
 20
.732999
 30
0.0000
 11
-4.040999
 21
.722999
 31
0.0000
 6
CONTINUOUS
 0
LINE
 8
WHITE
 10
-4.040999
 20
.722999
 30
0.0000
 11
-4.026
 21
.759
 31
0.0000
 6
CONTINUOUS
 0
LINE
 8
WHITE
 10
-4.026
 20
.759
 30
0.0000
 11
-3.983999
 21
.808
 31
0.0000
 6
CONTINUOUS
 0
LINE
 8
WHITE
 10
-3.983999
 20
.808
 30
0.0000
 11
-3.982
 21
.745
 31
0.0000
 6
CONTINUOUS
 0
LINE
 8
WHITE
 10
-3.982
 20
.745
 30
0.0000
 11
-3.970999
 21
.688
 31
0.0000
 6
CONTINUOUS
 0
LINE
 8
WHITE
 10
-3.970999
 20
.688
 30
0.0000
 11
-3.957999
 21
.685999
 31
0.0000
 6
CONTINUOUS
 0
LINE
 8
WHITE
 10
-3.957999
 20
.685999
 30
0.0000
 11
-3.911999
 21
.750999
 31
0.0000
 6
CONTINUOUS
 0
LINE
 8
WHITE
 10
-3.911999
 20
.750999
 30
0.0000
 11
-3.898999
 21
.875
 31
0.0000
 6
CONTINUOUS
 0
LINE
 8
WHITE
 10
-3.898999
 20
.875
 30
0.0000
 11
-3.848999
 21
.797999
 31
0.0000
 6
CONTINUOUS
 0
LINE
 8
WHITE
 10
-3.848999
 20
.797999
 30
0.0000
 11
-3.839999
 21
.721
 31
0.0000
 6
CONTINUOUS
 0
LINE
 8
WHITE
 10
-3.839999
 20
.721
 30
0.0000
 11
-3.852999
 21
.671999
 31
0.0000
 6
CONTINUOUS
 0
LINE
 8
WHITE
 10
-3.852999
 20
.671999
 30
0.0000
 11
-3.753
 21
.658999
 31
0.0000
 6
CONTINUOUS
 0
ARC
 8
WHITE
 10
-3.7476
 20
.698899
 30
 0
 40
.040263
 50
262.2925
 51
335.215
 6
CONTINUOUS
 0
LINE
 8
WHITE
 10
-3.710999
 20
.681999
 30
0.0000
 11
-3.657999
 21
.802999
 31
0.0000
 6
CONTINUOUS
 0
LINE
 8
WHITE
 10
-3.657999
 20
.802999
 30
0.0000
 11
-3.549
 21
.949999
 31
0.0000
 6
CONTINUOUS
 0
LINE
 8
WHITE
 10
-3.549
 20
.949999
 30
0.0000
 11
-3.549
 21
.995999
 31
0.0000
 6
CONTINUOUS
 0
LINE
 8
WHITE
 10
-3.549
 20
.995999
 30
0.0000
 11
-3.602999
 21
1.031999
 31
0.0000
 6
CONTINUOUS
 0
LINE
 8
WHITE
 10
-3.602999
 20
1.031999
 30
0.0000
 11
-3.779999
 21
1.067999
 31
0.0000
 6
CONTINUOUS
 0
LINE
 8
WHITE
 10
-3.779999
 20
1.067999
 30
0.0000
 11
-3.832999
 21
1.088999
 31
0.0000
 6
CONTINUOUS
 0
LINE
 8
WHITE
 10
-3.832999
 20
1.088999
 30
0.0000
 11
-3.849999
 21
1.149999
 31
0.0000
 6
CONTINUOUS
 0
LINE
 8
WHITE
 10
-3.849999
 20
1.149999
 30
0.0000
 11
-3.838
 21
1.22
 31
0.0000
 6
CONTINUOUS
 0
LINE
 8
WHITE
 10
-3.838
 20
1.22
 30
0.0000
 11
-3.802
 21
1.273
 31
0.0000
 6
CONTINUOUS
 0
LINE
 8
WHITE
 10
-3.802
 20
1.273
 30
0.0000
 11
-3.505
 21
1.542
 31
0.0000
 6
CONTINUOUS
 0
LINE
 8
WHITE
 10
-3.505
 20
1.542
 30
0.0000
 11
-3.542
 21
1.582999
 31
0.0000
 6
CONTINUOUS
 0
LINE
 8
WHITE
 10
-3.542
 20
1.582999
 30
0.0000
 11
-3.529999
 21
1.735
 31
0.0000
 6
CONTINUOUS
 0
LINE
 8
WHITE
 10
-3.529999
 20
1.735
 30
0.0000
 11
-3.496
 21
1.876999
 31
0.0000
 6
CONTINUOUS
 0
LINE
 8
WHITE
 10
-3.496
 20
1.876999
 30
0.0000
 11
-3.461999
 21
2.052999
 31
0.0000
 6
CONTINUOUS
 0
LINE
 8
WHITE
 10
-3.461999
 20
2.052999
 30
0.0000
 11
-3.440999
 21
2.355999
 31
0.0000
 6
CONTINUOUS
 0
ARC
 8
WHITE
 10
-3.480999
 20
2.359799
 30
 0
 40
.04018
 50
354.5732
 51
90
 6
CONTINUOUS
 0
LINE
 8
WHITE
 10
-3.480999
 20
2.4
 30
0.0000
 11
-3.94
 21
2.4
 31
0.0000
 6
CONTINUOUS
 0
LINE
 8
WHITE
 10
-3.94
 20
2.4
 30
0.0000
 11
-3.947
 21
2.392999
 31
0.0000
 6
CONTINUOUS
 0
LINE
 8
WHITE
 10
-3.943
 20
5.857999
 30
0.0000
 11
-3.943
 21
5.607999
 31
0.0000
 6
CONTINUOUS
 0
LINE
 8
WHITE
 10
-3.943
 20
5.607999
 30
0.0000
 11
-3.480999
 21
5.607999
 31
0.0000
 6
CONTINUOUS
 0
ARC
 8
WHITE
 10
-3.4809
 20
5.647999
 30
 0
 40
.04
 50
269.8568
 51
4.300226
 6
CONTINUOUS
 0
LINE
 8
WHITE
 10
-3.440999
 20
5.651
 30
0.0000
 11
-3.444999
 21
5.695
 31
0.0000
 6
CONTINUOUS
 0
LINE
 8
WHITE
 10
-3.444999
 20
5.695
 30
0.0000
 11
-3.461999
 21
5.953999
 31
0.0000
 6
CONTINUOUS
 0
LINE
 8
WHITE
 10
-3.461999
 20
5.953999
 30
0.0000
 11
-3.496
 21
6.131
 31
0.0000
 6
CONTINUOUS
 0
LINE
 8
WHITE
 10
-3.496
 20
6.131
 30
0.0000
 11
-3.529999
 21
6.272999
 31
0.0000
 6
CONTINUOUS
 0
LINE
 8
WHITE
 10
-3.529999
 20
6.272999
 30
0.0000
 11
-3.542
 21
6.423999
 31
0.0000
 6
CONTINUOUS
 0
LINE
 8
WHITE
 10
-3.542
 20
6.423999
 30
0.0000
 11
-3.505
 21
6.466
 31
0.0000
 6
CONTINUOUS
 0
LINE
 8
WHITE
 10
-3.505
 20
6.466
 30
0.0000
 11
-3.802
 21
6.735
 31
0.0000
 6
CONTINUOUS
 0
LINE
 8
WHITE
 10
-3.802
 20
6.735
 30
0.0000
 11
-3.838
 21
6.788
 31
0.0000
 6
CONTINUOUS
 0
LINE
 8
WHITE
 10
-3.838
 20
6.788
 30
0.0000
 11
-3.849999
 21
6.857999
 31
0.0000
 6
CONTINUOUS
 0
LINE
 8
WHITE
 10
-3.849999
 20
6.857999
 30
0.0000
 11
-3.832999
 21
6.919
 31
0.0000
 6
CONTINUOUS
 0
LINE
 8
WHITE
 10
-3.832999
 20
6.919
 30
0.0000
 11
-3.779999
 21
6.94
 31
0.0000
 6
CONTINUOUS
 0
LINE
 8
WHITE
 10
-3.779999
 20
6.94
 30
0.0000
 11
-3.602999
 21
6.975999
 31
0.0000
 6
CONTINUOUS
 0
LINE
 8
WHITE
 10
-3.602999
 20
6.975999
 30
0.0000
 11
-3.549
 21
7.012
 31
0.0000
 6
CONTINUOUS
 0
LINE
 8
WHITE
 10
-3.549
 20
7.012
 30
0.0000
 11
-3.549
 21
7.058
 31
0.0000
 6
CONTINUOUS
 0
LINE
 8
WHITE
 10
-3.549
 20
7.058
 30
0.0000
 11
-3.657999
 21
7.204999
 31
0.0000
 6
CONTINUOUS
 0
LINE
 8
WHITE
 10
-3.657999
 20
7.204999
 30
0.0000
 11
-3.710999
 21
7.324999
 31
0.0000
 6
CONTINUOUS
 0
ARC
 8
WHITE
 10
-3.747999
 20
7.309
 30
 0
 40
.040311
 50
23.38522
 51
97.12518
 6
CONTINUOUS
 0
LINE
 8
WHITE
 10
-3.753
 20
7.348999
 30
0.0000
 11
-3.852999
 21
7.335
 31
0.0000
 6
CONTINUOUS
 0
LINE
 8
WHITE
 10
-3.852999
 20
7.335
 30
0.0000
 11
-3.839999
 21
7.287
 31
0.0000
 6
CONTINUOUS
 0
LINE
 8
WHITE
 10
-3.839999
 20
7.287
 30
0.0000
 11
-3.848999
 21
7.21
 31
0.0000
 6
CONTINUOUS
 0
LINE
 8
WHITE
 10
-3.848999
 20
7.21
 30
0.0000
 11
-3.898999
 21
7.132999
 31
0.0000
 6
CONTINUOUS
 0
LINE
 8
WHITE
 10
-3.898999
 20
7.132999
 30
0.0000
 11
-3.911999
 21
7.256
 31
0.0000
 6
CONTINUOUS
 0
LINE
 8
WHITE
 10
-3.911999
 20
7.256
 30
0.0000
 11
-3.957999
 21
7.321
 31
0.0000
 6
CONTINUOUS
 0
LINE
 8
WHITE
 10
-3.957999
 20
7.321
 30
0.0000
 11
-3.970999
 21
7.32
 31
0.0000
 6
CONTINUOUS
 0
LINE
 8
WHITE
 10
-3.970999
 20
7.32
 30
0.0000
 11
-3.982
 21
7.263
 31
0.0000
 6
CONTINUOUS
 0
LINE
 8
WHITE
 10
-3.982
 20
7.263
 30
0.0000
 11
-3.983999
 21
7.199999
 31
0.0000
 6
CONTINUOUS
 0
LINE
 8
WHITE
 10
-3.983999
 20
7.199999
 30
0.0000
 11
-4.026
 21
7.248
 31
0.0000
 6
CONTINUOUS
 0
LINE
 8
WHITE
 10
-4.026
 20
7.248
 30
0.0000
 11
-4.040999
 21
7.284999
 31
0.0000
 6
CONTINUOUS
 0
LINE
 8
WHITE
 10
-4.040999
 20
7.284999
 30
0.0000
 11
-4.038
 21
7.303999
 31
0.0000
 6
CONTINUOUS
 0
LINE
 8
WHITE
 10
-4.038
 20
7.303999
 30
0.0000
 11
-4.066999
 21
7.274
 31
0.0000
 6
CONTINUOUS
 0
LINE
 8
WHITE
 10
-4.066999
 20
7.274
 30
0.0000
 11
-4.041999
 21
7.218999
 31
0.0000
 6
CONTINUOUS
 0
LINE
 8
WHITE
 10
-4.041999
 20
7.218999
 30
0.0000
 11
-3.997999
 21
7.145999
 31
0.0000
 6
CONTINUOUS
 0
LINE
 8
WHITE
 10
-3.997999
 20
7.145999
 30
0.0000
 11
-3.99
 21
7.037
 31
0.0000
 6
CONTINUOUS
 0
LINE
 8
WHITE
 10
-3.99
 20
7.037
 30
0.0000
 11
-4.037
 21
7.109
 31
0.0000
 6
CONTINUOUS
 0
LINE
 8
WHITE
 10
-4.037
 20
7.109
 30
0.0000
 11
-4.060999
 21
7.13
 31
0.0000
 6
CONTINUOUS
 0
LINE
 8
WHITE
 10
-4.060999
 20
7.13
 30
0.0000
 11
-4.085999
 21
7.124
 31
0.0000
 6
CONTINUOUS
 0
LINE
 8
WHITE
 10
-4.085999
 20
7.124
 30
0.0000
 11
-4.084
 21
7.067999
 31
0.0000
 6
CONTINUOUS
 0
LINE
 8
WHITE
 10
-4.084
 20
7.067999
 30
0.0000
 11
-4.054999
 21
7.026999
 31
0.0000
 6
CONTINUOUS
 0
LINE
 8
WHITE
 10
-4.054999
 20
7.026999
 30
0.0000
 11
-3.986999
 21
6.947999
 31
0.0000
 6
CONTINUOUS
 0
LINE
 8
WHITE
 10
-3.986999
 20
6.947999
 30
0.0000
 11
-3.969
 21
6.842999
 31
0.0000
 6
CONTINUOUS
 0
LINE
 8
WHITE
 10
-3.969
 20
6.842999
 30
0.0000
 11
-3.986
 21
6.750999
 31
0.0000
 6
CONTINUOUS
 0
LINE
 8
WHITE
 10
-3.986
 20
6.750999
 30
0.0000
 11
-4.041999
 21
6.538
 31
0.0000
 6
CONTINUOUS
 0
LINE
 8
WHITE
 10
-4.041999
 20
6.538
 30
0.0000
 11
-4.072999
 21
6.631
 31
0.0000
 6
CONTINUOUS
 0
LINE
 8
WHITE
 10
-4.072999
 20
6.631
 30
0.0000
 11
-4.067999
 21
6.776
 31
0.0000
 6
CONTINUOUS
 0
LINE
 8
WHITE
 10
-4.067999
 20
6.776
 30
0.0000
 11
-4.079999
 21
6.814
 31
0.0000
 6
CONTINUOUS
 0
LINE
 8
WHITE
 10
-4.079999
 20
6.814
 30
0.0000
 11
-4.113999
 21
6.708
 31
0.0000
 6
CONTINUOUS
 0
LINE
 8
WHITE
 10
-4.113999
 20
6.708
 30
0.0000
 11
-4.111999
 21
6.618999
 31
0.0000
 6
CONTINUOUS
 0
LINE
 8
WHITE
 10
-4.111999
 20
6.618999
 30
0.0000
 11
-4.157999
 21
6.712999
 31
0.0000
 6
CONTINUOUS
 0
LINE
 8
WHITE
 10
-4.157999
 20
6.712999
 30
0.0000
 11
-4.159999
 21
6.742
 31
0.0000
 6
CONTINUOUS
 0
LINE
 8
WHITE
 10
-4.159999
 20
6.742
 30
0.0000
 11
-4.178999
 21
6.668
 31
0.0000
 6
CONTINUOUS
 0
LINE
 8
WHITE
 10
-4.178999
 20
6.668
 30
0.0000
 11
-4.158999
 21
6.545
 31
0.0000
 6
CONTINUOUS
 0
LINE
 8
WHITE
 10
-4.158999
 20
6.545
 30
0.0000
 11
-4.105
 21
6.306
 31
0.0000
 6
CONTINUOUS
 0
LINE
 8
WHITE
 10
-4.105
 20
6.306
 30
0.0000
 11
-4.129
 21
6.197999
 31
0.0000
 6
CONTINUOUS
 0
LINE
 8
WHITE
 10
-4.129
 20
6.197999
 30
0.0000
 11
-4.218999
 21
6.068999
 31
0.0000
 6
CONTINUOUS
 0
LINE
 8
WHITE
 10
-4.218999
 20
6.068999
 30
0.0000
 11
-4.243
 21
5.969999
 31
0.0000
 6
CONTINUOUS
 0
LINE
 8
WHITE
 10
-4.243
 20
5.969999
 30
0.0000
 11
-4.263999
 21
6.015999
 31
0.0000
 6
CONTINUOUS
 0
LINE
 8
WHITE
 10
-4.263999
 20
6.015999
 30
0.0000
 11
-4.321
 21
5.829999
 31
0.0000
 6
CONTINUOUS
 0
LINE
 8
WHITE
 10
-4.321
 20
5.829999
 30
0.0000
 11
-4.431
 21
5.631
 31
0.0000
 6
CONTINUOUS
 0
LINE
 8
WHITE
 10
-4.431
 20
5.631
 30
0.0000
 11
-4.448999
 21
5.607999
 31
0.0000
 6
CONTINUOUS
 0
LINE
 8
WHITE
 10
-4.448999
 20
5.607999
 30
0.0000
 11
-3.943
 21
5.607999
 31
0.0000
 6
CONTINUOUS
 0
LINE
 8
WHITE
 10
-3.943
 20
5.607999
 30
0.0000
 11
-3.936
 21
5.614999
 31
0.0000
 6
CONTINUOUS
 0
LINE
 8
WHITE
 10
-4.576
 20
7.173999
 30
0.0000
 11
-4.584
 21
7.237999
 31
0.0000
 6
CONTINUOUS
 0
LINE
 8
WHITE
 10
-4.584
 20
7.237999
 30
0.0000
 11
-4.701
 21
7.223
 31
0.0000
 6
CONTINUOUS
 0
LINE
 8
WHITE
 10
-4.701
 20
7.223
 30
0.0000
 11
-4.572999
 21
7.116
 31
0.0000
 6
CONTINUOUS
 0
LINE
 8
WHITE
 10
-4.572999
 20
7.116
 30
0.0000
 11
-4.526999
 21
7.059999
 31
0.0000
 6
CONTINUOUS
 0
LINE
 8
WHITE
 10
-4.526999
 20
7.059999
 30
0.0000
 11
-4.497
 21
7.203
 31
0.0000
 6
CONTINUOUS
 0
LINE
 8
WHITE
 10
-4.497
 20
7.203
 30
0.0000
 11
-4.473
 21
7.252999
 31
0.0000
 6
CONTINUOUS
 0
LINE
 8
WHITE
 10
-4.473
 20
7.252999
 30
0.0000
 11
-4.584
 21
7.237999
 31
0.0000
 6
CONTINUOUS
 0
LINE
 8
WHITE
 10
-4.584
 20
7.237999
 30
0.0000
 11
-4.59
 21
7.23
 31
0.0000
 6
CONTINUOUS
 0
LINE
 8
WHITE
 10
-5.175
 20
6.940999
 30
0.0000
 11
-4.998
 21
6.763999
 31
0.0000
 6
CONTINUOUS
 0
LINE
 8
WHITE
 10
-4.998
 20
6.763999
 30
0.0000
 11
-4.756999
 21
7.004
 31
0.0000
 6
CONTINUOUS
 0
ARC
 8
WHITE
 10
-4.784299
 20
7.0327
 30
 0
 40
.03961
 50
313.5679
 51
52.17624
 6
CONTINUOUS
 0
LINE
 8
WHITE
 10
-4.76
 20
7.064
 30
0.0000
 11
-4.867
 21
7.149
 31
0.0000
 6
CONTINUOUS
 0
LINE
 8
WHITE
 10
-4.867
 20
7.149
 30
0.0000
 11
-4.949999
 21
7.19
 31
0.0000
 6
CONTINUOUS
 0
LINE
 8
WHITE
 10
-4.949999
 20
7.19
 30
0.0000
 11
-5.322999
 21
7.139999
 31
0.0000
 6
CONTINUOUS
 0
ARC
 8
WHITE
 10
-5.317699
 20
7.099999
 30
 0
 40
.040349
 50
97.54772
 51
178.5787
 6
CONTINUOUS
 0
LINE
 8
WHITE
 10
-5.357999
 20
7.100999
 30
0.0000
 11
-5.357999
 21
6.553999
 31
0.0000
 6
CONTINUOUS
 0
ARC
 8
WHITE
 10
-5.317999
 20
6.553999
 30
 0
 40
.039999
 50
180
 51
247.9315
 6
CONTINUOUS
 0
LINE
 8
WHITE
 10
-5.333
 20
6.517
 30
0.0000
 11
-5.296
 21
6.501999
 31
0.0000
 6
CONTINUOUS
 0
ARC
 8
WHITE
 10
-5.2799
 20
6.538499
 30
 0
 40
.039893
 50
246.1979
 51
314.3911
 6
CONTINUOUS
 0
LINE
 8
WHITE
 10
-5.251999
 20
6.51
 30
0.0000
 11
-4.998
 21
6.763999
 31
0.0000
 6
CONTINUOUS
 0
LINE
 8
WHITE
 10
-4.998
 20
6.763999
 30
0.0000
 11
-4.998
 21
6.774
 31
0.0000
 6
CONTINUOUS
 0
LINE
 8
WHITE
 10
-4.754
 20
6.518
 30
0.0000
 11
-4.931
 21
6.695
 31
0.0000
 6
CONTINUOUS
 0
LINE
 8
WHITE
 10
-4.931
 20
6.695
 30
0.0000
 11
-5.183
 21
6.442999
 31
0.0000
 6
CONTINUOUS
 0
ARC
 8
WHITE
 10
-5.154799
 20
6.415199
 30
 0
 40
.039598
 50
135.4093
 51
204.1086
 6
CONTINUOUS
 0
LINE
 8
WHITE
 10
-5.190999
 20
6.399
 30
0.0000
 11
-5.175
 21
6.361
 31
0.0000
 6
CONTINUOUS
 0
ARC
 8
WHITE
 10
-5.1381
 20
6.3773
 30
 0
 40
.040339
 50
203.8327
 51
270.1424
 6
CONTINUOUS
 0
LINE
 8
WHITE
 10
-5.138
 20
6.336999
 30
0.0000
 11
-4.44
 21
6.336999
 31
0.0000
 6
CONTINUOUS
 0
ARC
 8
WHITE
 10
-4.4397
 20
6.376999
 30
 0
 40
.040001
 50
269.5703
 51
7.178455
 6
CONTINUOUS
 0
LINE
 8
WHITE
 10
-4.4
 20
6.381999
 30
0.0000
 11
-4.415999
 21
6.515999
 31
0.0000
 6
CONTINUOUS
 0
LINE
 8
WHITE
 10
-4.415999
 20
6.515999
 30
0.0000
 11
-4.473999
 21
6.686999
 31
0.0000
 6
CONTINUOUS
 0
LINE
 8
WHITE
 10
-4.473999
 20
6.686999
 30
0.0000
 11
-4.558
 21
6.837999
 31
0.0000
 6
CONTINUOUS
 0
LINE
 8
WHITE
 10
-4.558
 20
6.837999
 30
0.0000
 11
-4.631999
 21
6.931
 31
0.0000
 6
CONTINUOUS
 0
ARC
 8
WHITE
 10
-4.6637
 20
6.9069
 30
 0
 40
.03982
 50
37.244
 51
135.2035
 6
CONTINUOUS
 0
LINE
 8
WHITE
 10
-4.691999
 20
6.934999
 30
0.0000
 11
-4.931
 21
6.695
 31
0.0000
 6
CONTINUOUS
 0
LINE
 8
WHITE
 10
-4.931
 20
6.695
 30
0.0000
 11
-4.931
 21
6.684999
 31
0.0000
 6
CONTINUOUS
 0
LINE
 8
WHITE
 10
-4.781
 20
5.991
 30
0.0000
 11
-4.781
 21
6.241
 31
0.0000
 6
CONTINUOUS
 0
LINE
 8
WHITE
 10
-4.781
 20
6.241
 30
0.0000
 11
-5.164999
 21
6.241
 31
0.0000
 6
CONTINUOUS
 0
LINE
 8
WHITE
 10
-5.164999
 20
6.241
 30
0.0000
 11
-5.19
 21
6.178999
 31
0.0000
 6
CONTINUOUS
 0
ARC
 8
WHITE
 10
-5.1532
 20
6.163599
 30
 0
 40
.039892
 50
157.2917
 51
225.8123
 6
CONTINUOUS
 0
LINE
 8
WHITE
 10
-5.181
 20
6.135
 30
0.0000
 11
-4.685999
 21
5.639999
 31
0.0000
 6
CONTINUOUS
 0
ARC
 8
WHITE
 10
-4.658299
 20
5.668299
 30
 0
 40
.0396
 50
225.6139
 51
322.1762
 6
CONTINUOUS
 0
LINE
 8
WHITE
 10
-4.626999
 20
5.644
 30
0.0000
 11
-4.541999
 21
5.750999
 31
0.0000
 6
CONTINUOUS
 0
LINE
 8
WHITE
 10
-4.541999
 20
5.750999
 30
0.0000
 11
-4.464
 21
5.910999
 31
0.0000
 6
CONTINUOUS
 0
LINE
 8
WHITE
 10
-4.464
 20
5.910999
 30
0.0000
 11
-4.418
 21
6.078999
 31
0.0000
 6
CONTINUOUS
 0
LINE
 8
WHITE
 10
-4.418
 20
6.078999
 30
0.0000
 11
-4.397999
 21
6.242
 31
0.0000
 6
CONTINUOUS
 0
LINE
 8
WHITE
 10
-4.397999
 20
6.242
 30
0.0000
 11
-4.781
 21
6.241
 31
0.0000
 6
CONTINUOUS
 0
LINE
 8
WHITE
 10
-4.781
 20
6.241
 30
0.0000
 11
-4.788
 21
6.234
 31
0.0000
 6
CONTINUOUS
 0
LINE
 8
WHITE
 10
-5.152999
 20
5.828
 30
0.0000
 11
-5.353
 21
5.828
 31
0.0000
 6
CONTINUOUS
 0
LINE
 8
WHITE
 10
-5.353
 20
5.828
 30
0.0000
 11
-5.353
 21
5.627999
 31
0.0000
 6
CONTINUOUS
 0
ARC
 8
WHITE
 10
-5.333
 20
5.627999
 30
 0
 40
.019999
 50
180
 51
270
 6
CONTINUOUS
 0
LINE
 8
WHITE
 10
-5.333
 20
5.607999
 30
0.0000
 11
-4.788
 21
5.607999
 31
0.0000
 6
CONTINUOUS
 0
LINE
 8
WHITE
 10
-4.788
 20
5.607999
 30
0.0000
 11
-5.257999
 21
6.073999
 31
0.0000
 6
CONTINUOUS
 0
ARC
 8
WHITE
 10
-5.272299
 20
6.0604
 30
 0
 40
.019734
 50
43.56277
 51
109.8099
 6
CONTINUOUS
 0
LINE
 8
WHITE
 10
-5.278999
 20
6.078999
 30
0.0000
 11
-5.341
 21
6.053999
 31
0.0000
 6
CONTINUOUS
 0
ARC
 8
WHITE
 10
-5.332799
 20
6.0355
 30
 0
 40
.020235
 50
113.905
 51
178.5829
 6
CONTINUOUS
 0
LINE
 8
WHITE
 10
-5.353
 20
6.035999
 30
0.0000
 11
-5.353
 21
5.828
 31
0.0000
 6
CONTINUOUS
 0
LINE
 8
WHITE
 10
-5.353
 20
5.828
 30
0.0000
 11
-5.346
 21
5.821
 31
0.0000
 6
CONTINUOUS
 0
LINE
 8
WHITE
 10
-4.55
 20
4.879
 30
0.0000
 11
-1.957
 21
4.879
 31
0.0000
 6
CONTINUOUS
 0
LINE
 8
WHITE
 10
-5.631999
 20
5.703999
 30
0.0000
 11
-5.774
 21
5.846
 31
0.0000
 6
CONTINUOUS
 0
LINE
 8
WHITE
 10
-5.774
 20
5.846
 30
0.0000
 11
-6.012
 21
5.607999
 31
0.0000
 6
CONTINUOUS
 0
LINE
 8
WHITE
 10
-6.012
 20
5.607999
 30
0.0000
 11
-5.449999
 21
5.607999
 31
0.0000
 6
CONTINUOUS
 0
LINE
 8
WHITE
 10
-5.449999
 20
5.607999
 30
0.0000
 11
-5.451
 21
6.047999
 31
0.0000
 6
CONTINUOUS
 0
LINE
 8
WHITE
 10
-5.451
 20
6.047999
 30
0.0000
 11
-5.524
 21
6.078
 31
0.0000
 6
CONTINUOUS
 0
ARC
 8
WHITE
 10
-5.5314
 20
6.0597
 30
 0
 40
.019739
 50
67.98299
 51
133.5628
 6
CONTINUOUS
 0
LINE
 8
WHITE
 10
-5.545
 20
6.073999
 30
0.0000
 11
-5.774
 21
5.846
 31
0.0000
 6
CONTINUOUS
 0
LINE
 8
WHITE
 10
-5.774
 20
5.846
 30
0.0000
 11
-5.774
 21
5.835999
 31
0.0000
 6
CONTINUOUS
 0
LINE
 8
WHITE
 10
-6.053999
 20
6.057
 30
0.0000
 11
-5.876999
 21
5.881
 31
0.0000
 6
CONTINUOUS
 0
LINE
 8
WHITE
 10
-5.876999
 20
5.881
 30
0.0000
 11
-5.625999
 21
6.132999
 31
0.0000
 6
CONTINUOUS
 0
ARC
 8
WHITE
 10
-5.653699
 20
6.1612
 30
 0
 40
.039528
 50
314.4875
 51
21.96295
 6
CONTINUOUS
 0
LINE
 8
WHITE
 10
-5.617
 20
6.176
 30
0.0000
 11
-5.631999
 21
6.212999
 31
0.0000
 6
CONTINUOUS
 0
ARC
 8
WHITE
 10
-5.669
 20
6.197999
 30
 0
 40
.039924
 50
22.0679
 51
90
 6
CONTINUOUS
 0
LINE
 8
WHITE
 10
-5.669
 20
6.237999
 30
0.0000
 11
-6.368
 21
6.237999
 31
0.0000
 6
CONTINUOUS
 0
ARC
 8
WHITE
 10
-6.368299
 20
6.197999
 30
 0
 40
.040001
 50
89.57029
 51
187.1785
 6
CONTINUOUS
 0
LINE
 8
WHITE
 10
-6.407999
 20
6.192999
 30
0.0000
 11
-6.390999
 21
6.059
 31
0.0000
 6
CONTINUOUS
 0
LINE
 8
WHITE
 10
-6.390999
 20
6.059
 30
0.0000
 11
-6.335
 21
5.889999
 31
0.0000
 6
CONTINUOUS
 0
LINE
 8
WHITE
 10
-6.335
 20
5.889999
 30
0.0000
 11
-6.248
 21
5.737999
 31
0.0000
 6
CONTINUOUS
 0
LINE
 8
WHITE
 10
-6.248
 20
5.737999
 30
0.0000
 11
-6.175
 21
5.644999
 31
0.0000
 6
CONTINUOUS
 0
ARC
 8
WHITE
 10
-6.1437
 20
5.6696
 30
 0
 40
.03981
 50
218.1653
 51
316.1199
 6
CONTINUOUS
 0
LINE
 8
WHITE
 10
-6.114999
 20
5.642
 30
0.0000
 11
-5.876999
 21
5.881
 31
0.0000
 6
CONTINUOUS
 0
LINE
 8
WHITE
 10
-5.876999
 20
5.881
 30
0.0000
 11
-5.876999
 21
5.890999
 31
0.0000
 6
CONTINUOUS
 0
LINE
 8
WHITE
 10
-6.026
 20
6.584
 30
0.0000
 11
-6.026
 21
6.334
 31
0.0000
 6
CONTINUOUS
 0
LINE
 8
WHITE
 10
-6.026
 20
6.334
 30
0.0000
 11
-5.669
 21
6.334
 31
0.0000
 6
CONTINUOUS
 0
ARC
 8
WHITE
 10
-5.669
 20
6.374
 30
 0
 40
.039999
 50
270
 51
337.9324
 6
CONTINUOUS
 0
LINE
 8
WHITE
 10
-5.631999
 20
6.359
 30
0.0000
 11
-5.617
 21
6.395999
 31
0.0000
 6
CONTINUOUS
 0
ARC
 8
WHITE
 10
-5.654099
 20
6.410699
 30
 0
 40
.039906
 50
338.3852
 51
45.20345
 6
CONTINUOUS
 0
LINE
 8
WHITE
 10
-5.625999
 20
6.439
 30
0.0000
 11
-6.120999
 21
6.933
 31
0.0000
 6
CONTINUOUS
 0
ARC
 8
WHITE
 10
-6.149199
 20
6.9052
 30
 0
 40
.039598
 50
44.59075
 51
141.1592
 6
CONTINUOUS
 0
LINE
 8
WHITE
 10
-6.179999
 20
6.929999
 30
0.0000
 11
-6.263999
 21
6.823999
 31
0.0000
 6
CONTINUOUS
 0
LINE
 8
WHITE
 10
-6.263999
 20
6.823999
 30
0.0000
 11
-6.342999
 21
6.664999
 31
0.0000
 6
CONTINUOUS
 0
LINE
 8
WHITE
 10
-6.342999
 20
6.664999
 30
0.0000
 11
-6.390999
 21
6.498
 31
0.0000
 6
CONTINUOUS
 0
LINE
 8
WHITE
 10
-6.390999
 20
6.498
 30
0.0000
 11
-6.403999
 21
6.379
 31
0.0000
 6
CONTINUOUS
 0
ARC
 8
WHITE
 10
-6.364099
 20
6.3742
 30
 0
 40
.040187
 50
173.1402
 51
268.7178
 6
CONTINUOUS
 0
LINE
 8
WHITE
 10
-6.364999
 20
6.334
 30
0.0000
 11
-6.026
 21
6.334
 31
0.0000
 6
CONTINUOUS
 0
LINE
 8
WHITE
 10
-6.026
 20
6.334
 30
0.0000
 11
-6.019
 21
6.341
 31
0.0000
 6
CONTINUOUS
 0
LINE
 8
WHITE
 10
-5.651999
 20
6.76
 30
0.0000
 11
-5.452
 21
6.76
 31
0.0000
 6
CONTINUOUS
 0
LINE
 8
WHITE
 10
-5.452
 20
6.76
 30
0.0000
 11
-5.452
 21
6.973999
 31
0.0000
 6
CONTINUOUS
 0
ARC
 8
WHITE
 10
-5.472
 20
6.973999
 30
 0
 40
.019999
 50
0
 51
90
 6
CONTINUOUS
 0
LINE
 8
WHITE
 10
-5.472
 20
6.993999
 30
0.0000
 11
-6.045
 21
6.993999
 31
0.0000
 6
CONTINUOUS
 0
LINE
 8
WHITE
 10
-6.045
 20
6.993999
 30
0.0000
 11
-5.547999
 21
6.498
 31
0.0000
 6
CONTINUOUS
 0
ARC
 8
WHITE
 10
-5.5341
 20
6.5121
 30
 0
 40
.019799
 50
225.4093
 51
294.1089
 6
CONTINUOUS
 0
LINE
 8
WHITE
 10
-5.526
 20
6.493999
 30
0.0000
 11
-5.465
 21
6.519999
 31
0.0000
 6
CONTINUOUS
 0
ARC
 8
WHITE
 10
-5.4717
 20
6.538499
 30
 0
 40
.019675
 50
289.9085
 51
1.454479
 6
CONTINUOUS
 0
LINE
 8
WHITE
 10
-5.452
 20
6.539
 30
0.0000
 11
-5.452
 21
6.76
 31
0.0000
 6
CONTINUOUS
 0
LINE
 8
WHITE
 10
-5.452
 20
6.76
 30
0.0000
 11
-5.46
 21
6.767
 31
0.0000
 6
CONTINUOUS
 0
LINE
 8
WHITE
 10
-3.559
 20
8.312999
 30
0.0000
 11
-3.661
 21
8.319
 31
0.0000
 6
CONTINUOUS
 0
LINE
 8
WHITE
 10
-3.661
 20
8.319
 30
0.0000
 11
-3.72
 21
8.35
 31
0.0000
 6
CONTINUOUS
 0
ARC
 8
WHITE
 10
-3.729599
 20
8.3323
 30
 0
 40
.020135
 50
61.5258
 51
144.4963
 6
CONTINUOUS
 0
LINE
 8
WHITE
 10
-3.746
 20
8.343999
 30
0.0000
 11
-3.783999
 21
8.289999
 31
0.0000
 6
CONTINUOUS
 0
LINE
 8
WHITE
 10
-3.783999
 20
8.289999
 30
0.0000
 11
-3.796
 21
8.211999
 31
0.0000
 6
CONTINUOUS
 0
LINE
 8
WHITE
 10
-3.796
 20
8.211999
 30
0.0000
 11
-3.765
 21
8.045
 31
0.0000
 6
CONTINUOUS
 0
LINE
 8
WHITE
 10
-3.765
 20
8.045
 30
0.0000
 11
-3.767999
 21
7.962999
 31
0.0000
 6
CONTINUOUS
 0
LINE
 8
WHITE
 10
-3.767999
 20
7.962999
 30
0.0000
 11
-3.811
 21
7.847
 31
0.0000
 6
CONTINUOUS
 0
LINE
 8
WHITE
 10
-3.811
 20
7.847
 30
0.0000
 11
-3.823999
 21
7.725999
 31
0.0000
 6
CONTINUOUS
 0
LINE
 8
WHITE
 10
-3.823999
 20
7.725999
 30
0.0000
 11
-3.865999
 21
7.798999
 31
0.0000
 6
CONTINUOUS
 0
LINE
 8
WHITE
 10
-3.865999
 20
7.798999
 30
0.0000
 11
-3.848999
 21
7.915999
 31
0.0000
 6
CONTINUOUS
 0
LINE
 8
WHITE
 10
-3.848999
 20
7.915999
 30
0.0000
 11
-3.858999
 21
7.968999
 31
0.0000
 6
CONTINUOUS
 0
LINE
 8
WHITE
 10
-3.858999
 20
7.968999
 30
0.0000
 11
-3.917
 21
7.879
 31
0.0000
 6
CONTINUOUS
 0
LINE
 8
WHITE
 10
-3.917
 20
7.879
 30
0.0000
 11
-3.967999
 21
7.776
 31
0.0000
 6
CONTINUOUS
 0
LINE
 8
WHITE
 10
-3.967999
 20
7.776
 30
0.0000
 11
-3.971999
 21
7.702
 31
0.0000
 6
CONTINUOUS
 0
LINE
 8
WHITE
 10
-3.971999
 20
7.702
 30
0.0000
 11
-3.953
 21
7.620999
 31
0.0000
 6
CONTINUOUS
 0
LINE
 8
WHITE
 10
-3.953
 20
7.620999
 30
0.0000
 11
-3.907999
 21
7.507999
 31
0.0000
 6
CONTINUOUS
 0
ARC
 8
WHITE
 10
-3.8894
 20
7.515999
 30
 0
 40
.020247
 50
203.2729
 51
279.6483
 6
CONTINUOUS
 0
LINE
 8
WHITE
 10
-3.885999
 20
7.495999
 30
0.0000
 11
-3.785
 21
7.508999
 31
0.0000
 6
CONTINUOUS
 0
ARC
 8
WHITE
 10
-3.7878
 20
7.528999
 30
 0
 40
.020195
 50
277.9696
 51
11.4216
 6
CONTINUOUS
 0
LINE
 8
WHITE
 10
-3.767999
 20
7.532999
 30
0.0000
 11
-3.773
 21
7.553999
 31
0.0000
 6
CONTINUOUS
 0
LINE
 8
WHITE
 10
-3.773
 20
7.553999
 30
0.0000
 11
-3.780999
 21
7.736
 31
0.0000
 6
CONTINUOUS
 0
LINE
 8
WHITE
 10
-3.780999
 20
7.736
 30
0.0000
 11
-3.746
 21
7.910999
 31
0.0000
 6
CONTINUOUS
 0
LINE
 8
WHITE
 10
-3.746
 20
7.910999
 30
0.0000
 11
-3.671999
 21
8.062
 31
0.0000
 6
CONTINUOUS
 0
LINE
 8
WHITE
 10
-3.671999
 20
8.062
 30
0.0000
 11
-3.572999
 21
8.185
 31
0.0000
 6
CONTINUOUS
 0
LINE
 8
WHITE
 10
-3.572999
 20
8.185
 30
0.0000
 11
-3.463999
 21
8.282999
 31
0.0000
 6
CONTINUOUS
 0
LINE
 8
WHITE
 10
-3.463999
 20
8.282999
 30
0.0000
 11
-3.444
 21
8.442999
 31
0.0000
 6
CONTINUOUS
 0
LINE
 8
WHITE
 10
-3.444
 20
8.442999
 30
0.0000
 11
-3.463
 21
8.496999
 31
0.0000
 6
CONTINUOUS
 0
LINE
 8
WHITE
 10
-3.463
 20
8.496999
 30
0.0000
 11
-3.539
 21
8.526
 31
0.0000
 6
CONTINUOUS
 0
LINE
 8
WHITE
 10
-3.539
 20
8.526
 30
0.0000
 11
-3.562999
 21
8.508
 31
0.0000
 6
CONTINUOUS
 0
LINE
 8
WHITE
 10
-3.562999
 20
8.508
 30
0.0000
 11
-3.569
 21
8.465
 31
0.0000
 6
CONTINUOUS
 0
LINE
 8
WHITE
 10
-3.569
 20
8.465
 30
0.0000
 11
-3.585
 21
8.496
 31
0.0000
 6
CONTINUOUS
 0
ARC
 8
WHITE
 10
-3.6026
 20
8.4862
 30
 0
 40
.020144
 50
29.10986
 51
128.1258
 6
CONTINUOUS
 0
LINE
 8
WHITE
 10
-3.615
 20
8.501999
 30
0.0000
 11
-3.697
 21
8.439
 31
0.0000
 6
CONTINUOUS
 0
ARC
 8
WHITE
 10
-3.684299
 20
8.4235
 30
 0
 40
.020038
 50
129.3296
 51
190.0743
 6
CONTINUOUS
 0
LINE
 8
WHITE
 10
-3.703999
 20
8.42
 30
0.0000
 11
-3.697
 21
8.380999
 31
0.0000
 6
CONTINUOUS
 0
LINE
 8
WHITE
 10
-3.697
 20
8.380999
 30
0.0000
 11
-3.661
 21
8.319
 31
0.0000
 6
CONTINUOUS
 0
LINE
 8
WHITE
 10
-3.661
 20
8.319
 30
0.0000
 11
-3.664
 21
8.309
 31
0.0000
 6
CONTINUOUS
 0
LINE
 8
WHITE
 10
-8.399
 20
9.128999
 30
0.0000
 11
-8.635999
 21
9.05
 31
0.0000
 6
CONTINUOUS
 0
LINE
 8
WHITE
 10
-8.635999
 20
9.05
 30
0.0000
 11
-8.545999
 21
8.777999
 31
0.0000
 6
CONTINUOUS
 0
ARC
 8
WHITE
 10
-8.507699
 20
8.7902
 30
 0
 40
.040196
 50
197.6686
 51
269.5718
 6
CONTINUOUS
 0
LINE
 8
WHITE
 10
-8.508
 20
8.75
 30
0.0000
 11
-7.533999
 21
8.75
 31
0.0000
 6
CONTINUOUS
 0
LINE
 8
WHITE
 10
-7.533999
 20
8.75
 30
0.0000
 11
-7.493999
 21
8.772
 31
0.0000
 6
CONTINUOUS
 0
ARC
 8
WHITE
 10
-7.511899
 20
8.8076
 30
 0
 40
.039846
 50
296.6937
 51
43.4737
 6
CONTINUOUS
 0
LINE
 8
WHITE
 10
-7.482999
 20
8.835
 30
0.0000
 11
-8.199999
 21
9.600999
 31
0.0000
 6
CONTINUOUS
 0
ARC
 8
WHITE
 10
-8.228799
 20
9.5738
 30
 0
 40
.039614
 50
43.36342
 51
117.3408
 6
CONTINUOUS
 0
LINE
 8
WHITE
 10
-8.246999
 20
9.609
 30
0.0000
 11
-8.708
 21
9.375
 31
0.0000
 6
CONTINUOUS
 0
ARC
 8
WHITE
 10
-8.6891
 20
9.3395
 30
 0
 40
.040217
 50
118.0306
 51
199.6062
 6
CONTINUOUS
 0
LINE
 8
WHITE
 10
-8.727
 20
9.326
 30
0.0000
 11
-8.635999
 21
9.05
 31
0.0000
 6
CONTINUOUS
 0
LINE
 8
WHITE
 10
-8.635999
 20
9.05
 30
0.0000
 11
-8.626999
 21
9.045999
 31
0.0000
 6
CONTINUOUS
 0
LINE
 8
WHITE
 10
-8.565999
 20
9.815999
 30
0.0000
 11
-8.765999
 21
9.822999
 31
0.0000
 6
CONTINUOUS
 0
LINE
 8
WHITE
 10
-8.765999
 20
9.822999
 30
0.0000
 11
-8.779
 21
9.449
 31
0.0000
 6
CONTINUOUS
 0
LINE
 8
WHITE
 10
-8.779
 20
9.449
 30
0.0000
 11
-8.310999
 21
9.687999
 31
0.0000
 6
CONTINUOUS
 0
ARC
 8
WHITE
 10
-8.3203
 20
9.7059
 30
 0
 40
.020171
 50
297.4543
 51
40.5701
 6
CONTINUOUS
 0
LINE
 8
WHITE
 10
-8.305
 20
9.718999
 30
0.0000
 11
-8.751999
 21
10.198
 31
0.0000
 6
CONTINUOUS
 0
LINE
 8
WHITE
 10
-8.751999
 20
10.198
 30
0.0000
 11
-8.765999
 21
9.822999
 31
0.0000
 6
CONTINUOUS
 0
LINE
 8
WHITE
 10
-8.765999
 20
9.822999
 30
0.0000
 11
-8.758999
 21
9.815999
 31
0.0000
 6
CONTINUOUS
 0
LINE
 8
WHITE
 10
-8.144
 20
10.054
 30
0.0000
 11
-8.326999
 21
9.883999
 31
0.0000
 6
CONTINUOUS
 0
LINE
 8
WHITE
 10
-8.326999
 20
9.883999
 30
0.0000
 11
-8.218
 21
9.765999
 31
0.0000
 6
CONTINUOUS
 0
ARC
 8
WHITE
 10
-8.188899
 20
9.792799
 30
 0
 40
.03956
 50
222.6439
 51
298.5067
 6
CONTINUOUS
 0
LINE
 8
WHITE
 10
-8.17
 20
9.758
 30
0.0000
 11
-7.067999
 21
10.322
 31
0.0000
 6
CONTINUOUS
 0
LINE
 8
WHITE
 10
-7.067999
 20
10.322
 30
0.0000
 11
-8.678999
 21
10.263
 31
0.0000
 6
CONTINUOUS
 0
LINE
 8
WHITE
 10
-8.678999
 20
10.263
 30
0.0000
 11
-8.326999
 21
9.883999
 31
0.0000
 6
CONTINUOUS
 0
LINE
 8
WHITE
 10
-8.326999
 20
9.883999
 30
0.0000
 11
-8.317
 21
9.883999
 31
0.0000
 6
CONTINUOUS
 0
LINE
 8
WHITE
 10
-7.165999
 20
5.857999
 30
0.0000
 11
-7.165999
 21
5.607999
 31
0.0000
 6
CONTINUOUS
 0
LINE
 8
WHITE
 10
-7.165999
 20
5.607999
 30
0.0000
 11
-6.356999
 21
5.607999
 31
0.0000
 6
CONTINUOUS
 0
LINE
 8
WHITE
 10
-6.356999
 20
5.607999
 30
0.0000
 11
-6.376999
 21
5.631
 31
0.0000
 6
CONTINUOUS
 0
LINE
 8
WHITE
 10
-6.376999
 20
5.631
 30
0.0000
 11
-6.486
 21
5.829999
 31
0.0000
 6
CONTINUOUS
 0
LINE
 8
WHITE
 10
-6.486
 20
5.829999
 30
0.0000
 11
-6.553999
 21
6.051
 31
0.0000
 6
CONTINUOUS
 0
LINE
 8
WHITE
 10
-6.553999
 20
6.051
 30
0.0000
 11
-6.578999
 21
6.284999
 31
0.0000
 6
CONTINUOUS
 0
LINE
 8
WHITE
 10
-6.578999
 20
6.284999
 30
0.0000
 11
-6.553999
 21
6.521999
 31
0.0000
 6
CONTINUOUS
 0
LINE
 8
WHITE
 10
-6.553999
 20
6.521999
 30
0.0000
 11
-6.486
 21
6.742
 31
0.0000
 6
CONTINUOUS
 0
LINE
 8
WHITE
 10
-6.486
 20
6.742
 30
0.0000
 11
-6.376999
 21
6.942999
 31
0.0000
 6
CONTINUOUS
 0
LINE
 8
WHITE
 10
-6.376999
 20
6.942999
 30
0.0000
 11
-6.334
 21
6.993999
 31
0.0000
 6
CONTINUOUS
 0
LINE
 8
WHITE
 10
-6.334
 20
6.993999
 30
0.0000
 11
-7.999
 21
6.993999
 31
0.0000
 6
CONTINUOUS
 0
LINE
 8
WHITE
 10
-7.999
 20
6.993999
 30
0.0000
 11
-7.955999
 21
6.942999
 31
0.0000
 6
CONTINUOUS
 0
LINE
 8
WHITE
 10
-7.955999
 20
6.942999
 30
0.0000
 11
-7.846
 21
6.742
 31
0.0000
 6
CONTINUOUS
 0
LINE
 8
WHITE
 10
-7.846
 20
6.742
 30
0.0000
 11
-7.777999
 21
6.521999
 31
0.0000
 6
CONTINUOUS
 0
LINE
 8
WHITE
 10
-7.777999
 20
6.521999
 30
0.0000
 11
-7.755
 21
6.284999
 31
0.0000
 6
CONTINUOUS
 0
LINE
 8
WHITE
 10
-7.755
 20
6.284999
 30
0.0000
 11
-7.777999
 21
6.051
 31
0.0000
 6
CONTINUOUS
 0
LINE
 8
WHITE
 10
-7.777999
 20
6.051
 30
0.0000
 11
-7.846
 21
5.829999
 31
0.0000
 6
CONTINUOUS
 0
LINE
 8
WHITE
 10
-7.846
 20
5.829999
 30
0.0000
 11
-7.955999
 21
5.631
 31
0.0000
 6
CONTINUOUS
 0
LINE
 8
WHITE
 10
-7.955999
 20
5.631
 30
0.0000
 11
-7.974999
 21
5.607999
 31
0.0000
 6
CONTINUOUS
 0
LINE
 8
WHITE
 10
-7.974999
 20
5.607999
 30
0.0000
 11
-7.165999
 21
5.607999
 31
0.0000
 6
CONTINUOUS
 0
LINE
 8
WHITE
 10
-7.165999
 20
5.607999
 30
0.0000
 11
-7.158999
 21
5.614999
 31
0.0000
 6
CONTINUOUS
 0
LINE
 8
WHITE
 10
-7.269
 20
4.879
 30
0.0000
 11
-4.675
 21
4.879
 31
0.0000
 6
CONTINUOUS
 0
LINE
 8
WHITE
 10
-8.68
 20
5.828
 30
0.0000
 11
-8.88
 21
5.828
 31
0.0000
 6
CONTINUOUS
 0
LINE
 8
WHITE
 10
-8.88
 20
5.828
 30
0.0000
 11
-8.88
 21
5.627999
 31
0.0000
 6
CONTINUOUS
 0
ARC
 8
WHITE
 10
-8.859999
 20
5.627999
 30
 0
 40
.019999
 50
180
 51
270
 6
CONTINUOUS
 0
LINE
 8
WHITE
 10
-8.859999
 20
5.607999
 30
0.0000
 11
-8.314999
 21
5.607999
 31
0.0000
 6
CONTINUOUS
 0
LINE
 8
WHITE
 10
-8.314999
 20
5.607999
 30
0.0000
 11
-8.784
 21
6.073999
 31
0.0000
 6
CONTINUOUS
 0
ARC
 8
WHITE
 10
-8.7983
 20
6.0604
 30
 0
 40
.019734
 50
43.56277
 51
109.8086
 6
CONTINUOUS
 0
LINE
 8
WHITE
 10
-8.805
 20
6.078999
 30
0.0000
 11
-8.866999
 21
6.053999
 31
0.0000
 6
CONTINUOUS
 0
ARC
 8
WHITE
 10
-8.859799
 20
6.035099
 30
 0
 40
.020224
 50
110.8545
 51
177.4496
 6
CONTINUOUS
 0
LINE
 8
WHITE
 10
-8.88
 20
6.035999
 30
0.0000
 11
-8.88
 21
5.828
 31
0.0000
 6
CONTINUOUS
 0
LINE
 8
WHITE
 10
-8.88
 20
5.828
 30
0.0000
 11
-8.871999
 21
5.821
 31
0.0000
 6
CONTINUOUS
 0
LINE
 8
WHITE
 10
-8.307
 20
5.991
 30
0.0000
 11
-8.307999
 21
6.241
 31
0.0000
 6
CONTINUOUS
 0
LINE
 8
WHITE
 10
-8.307999
 20
6.241
 30
0.0000
 11
-8.690999
 21
6.241
 31
0.0000
 6
CONTINUOUS
 0
LINE
 8
WHITE
 10
-8.690999
 20
6.241
 30
0.0000
 11
-8.717
 21
6.178999
 31
0.0000
 6
CONTINUOUS
 0
ARC
 8
WHITE
 10
-8.680199
 20
6.163599
 30
 0
 40
.039892
 50
157.2917
 51
225.8118
 6
CONTINUOUS
 0
LINE
 8
WHITE
 10
-8.708
 20
6.135
 30
0.0000
 11
-8.213
 21
5.639999
 31
0.0000
 6
CONTINUOUS
 0
ARC
 8
WHITE
 10
-8.1847
 20
5.667699
 30
 0
 40
.0396
 50
224.3861
 51
323.2173
 6
CONTINUOUS
 0
LINE
 8
WHITE
 10
-8.152999
 20
5.644
 30
0.0000
 11
-8.067999
 21
5.750999
 31
0.0000
 6
CONTINUOUS
 0
LINE
 8
WHITE
 10
-8.067999
 20
5.750999
 30
0.0000
 11
-7.988999
 21
5.910999
 31
0.0000
 6
CONTINUOUS
 0
LINE
 8
WHITE
 10
-7.988999
 20
5.910999
 30
0.0000
 11
-7.942999
 21
6.078999
 31
0.0000
 6
CONTINUOUS
 0
LINE
 8
WHITE
 10
-7.942999
 20
6.078999
 30
0.0000
 11
-7.923999
 21
6.242
 31
0.0000
 6
CONTINUOUS
 0
LINE
 8
WHITE
 10
-7.923999
 20
6.242
 30
0.0000
 11
-8.307999
 21
6.241
 31
0.0000
 6
CONTINUOUS
 0
LINE
 8
WHITE
 10
-8.307999
 20
6.241
 30
0.0000
 11
-8.314999
 21
6.234
 31
0.0000
 6
CONTINUOUS
 0
LINE
 8
WHITE
 10
-8.279999
 20
6.518
 30
0.0000
 11
-8.456999
 21
6.695
 31
0.0000
 6
CONTINUOUS
 0
LINE
 8
WHITE
 10
-8.456999
 20
6.695
 30
0.0000
 11
-8.708999
 21
6.442999
 31
0.0000
 6
CONTINUOUS
 0
ARC
 8
WHITE
 10
-8.680799
 20
6.415199
 30
 0
 40
.039598
 50
135.4093
 51
204.1083
 6
CONTINUOUS
 0
LINE
 8
WHITE
 10
-8.717
 20
6.399
 30
0.0000
 11
-8.701999
 21
6.361
 31
0.0000
 6
CONTINUOUS
 0
ARC
 8
WHITE
 10
-8.6651
 20
6.3773
 30
 0
 40
.040339
 50
203.8327
 51
270.1424
 6
CONTINUOUS
 0
LINE
 8
WHITE
 10
-8.664999
 20
6.336999
 30
0.0000
 11
-7.966
 21
6.336999
 31
0.0000
 6
CONTINUOUS
 0
ARC
 8
WHITE
 10
-7.9658
 20
6.376999
 30
 0
 40
.04
 50
269.7135
 51
5.73934
 6
CONTINUOUS
 0
LINE
 8
WHITE
 10
-7.926
 20
6.381
 30
0.0000
 11
-7.940999
 21
6.515999
 31
0.0000
 6
CONTINUOUS
 0
LINE
 8
WHITE
 10
-7.940999
 20
6.515999
 30
0.0000
 11
-7.999
 21
6.686999
 31
0.0000
 6
CONTINUOUS
 0
LINE
 8
WHITE
 10
-7.999
 20
6.686999
 30
0.0000
 11
-8.083999
 21
6.837999
 31
0.0000
 6
CONTINUOUS
 0
LINE
 8
WHITE
 10
-8.083999
 20
6.837999
 30
0.0000
 11
-8.159
 21
6.931
 31
0.0000
 6
CONTINUOUS
 0
ARC
 8
WHITE
 10
-8.190299
 20
6.9064
 30
 0
 40
.03981
 50
38.16531
 51
134.0849
 6
CONTINUOUS
 0
LINE
 8
WHITE
 10
-8.218
 20
6.934999
 30
0.0000
 11
-8.456999
 21
6.695
 31
0.0000
 6
CONTINUOUS
 0
LINE
 8
WHITE
 10
-8.456999
 20
6.695
 30
0.0000
 11
-8.456999
 21
6.684999
 31
0.0000
 6
CONTINUOUS
 0
LINE
 8
WHITE
 10
-8.687
 20
6.885
 30
0.0000
 11
-8.545
 21
6.743
 31
0.0000
 6
CONTINUOUS
 0
LINE
 8
WHITE
 10
-8.545
 20
6.743
 30
0.0000
 11
-8.293
 21
6.993999
 31
0.0000
 6
CONTINUOUS
 0
LINE
 8
WHITE
 10
-8.293
 20
6.993999
 30
0.0000
 11
-8.864
 21
6.993999
 31
0.0000
 6
CONTINUOUS
 0
ARC
 8
WHITE
 10
-8.864
 20
6.973999
 30
 0
 40
.019999
 50
90
 51
180
 6
CONTINUOUS
 0
LINE
 8
WHITE
 10
-8.883999
 20
6.973999
 30
0.0000
 11
-8.883999
 21
6.539999
 31
0.0000
 6
CONTINUOUS
 0
ARC
 8
WHITE
 10
-8.863999
 20
6.540299
 30
 0
 40
.020002
 50
180.8594
 51
246.3861
 6
CONTINUOUS
 0
LINE
 8
WHITE
 10
-8.871999
 20
6.521999
 30
0.0000
 11
-8.81
 21
6.497
 31
0.0000
 6
CONTINUOUS
 0
ARC
 8
WHITE
 10
-8.8019
 20
6.515
 30
 0
 40
.019738
 50
245.7723
 51
314.7953
 6
CONTINUOUS
 0
LINE
 8
WHITE
 10
-8.788
 20
6.500999
 30
0.0000
 11
-8.545
 21
6.743
 31
0.0000
 6
CONTINUOUS
 0
LINE
 8
WHITE
 10
-8.545
 20
6.743
 30
0.0000
 11
-8.545999
 21
6.752999
 31
0.0000
 6
CONTINUOUS
 0
LINE
 8
WHITE
 10
-9.159999
 20
6.936999
 30
0.0000
 11
-9.336999
 21
6.76
 31
0.0000
 6
CONTINUOUS
 0
LINE
 8
WHITE
 10
-9.336999
 20
6.76
 30
0.0000
 11
-9.083999
 21
6.507999
 31
0.0000
 6
CONTINUOUS
 0
ARC
 8
WHITE
 10
-9.0555
 20
6.5355
 30
 0
 40
.039604
 50
223.977
 51
293.009
 6
CONTINUOUS
 0
LINE
 8
WHITE
 10
-9.039999
 20
6.499
 30
0.0000
 11
-9.003
 21
6.514999
 31
0.0000
 6
CONTINUOUS
 0
ARC
 8
WHITE
 10
-9.0193
 20
6.551899
 30
 0
 40
.040339
 50
293.8327
 51
.142364
 6
CONTINUOUS
 0
LINE
 8
WHITE
 10
-8.979
 20
6.552
 30
0.0000
 11
-8.979
 21
7.019999
 31
0.0000
 6
CONTINUOUS
 0
LINE
 8
WHITE
 10
-8.979
 20
7.019999
 30
0.0000
 11
-9.218
 21
7.235
 31
0.0000
 6
CONTINUOUS
 0
ARC
 8
WHITE
 10
-9.2448
 20
7.2048
 30
 0
 40
.040376
 50
48.4136
 51
109.0624
 6
CONTINUOUS
 0
LINE
 8
WHITE
 10
-9.258
 20
7.243
 30
0.0000
 11
-9.328
 21
7.218999
 31
0.0000
 6
CONTINUOUS
 0
LINE
 8
WHITE
 10
-9.328
 20
7.218999
 30
0.0000
 11
-9.479999
 21
7.133999
 31
0.0000
 6
CONTINUOUS
 0
LINE
 8
WHITE
 10
-9.479999
 20
7.133999
 30
0.0000
 11
-9.572999
 21
7.059
 31
0.0000
 6
CONTINUOUS
 0
ARC
 8
WHITE
 10
-9.548399
 20
7.027699
 30
 0
 40
.03981
 50
128.1653
 51
224.0844
 6
CONTINUOUS
 0
LINE
 8
WHITE
 10
-9.576999
 20
7
 30
0.0000
 11
-9.336999
 21
6.76
 31
0.0000
 6
CONTINUOUS
 0
LINE
 8
WHITE
 10
-9.336999
 20
6.76
 30
0.0000
 11
-9.326999
 21
6.76
 31
0.0000
 6
CONTINUOUS
 0
LINE
 8
WHITE
 10
-9.552
 20
6.584
 30
0.0000
 11
-9.552
 21
6.334
 31
0.0000
 6
CONTINUOUS
 0
LINE
 8
WHITE
 10
-9.552
 20
6.334
 30
0.0000
 11
-9.196
 21
6.334
 31
0.0000
 6
CONTINUOUS
 0
ARC
 8
WHITE
 10
-9.196
 20
6.374
 30
 0
 40
.039999
 50
270
 51
337.9321
 6
CONTINUOUS
 0
LINE
 8
WHITE
 10
-9.159
 20
6.359
 30
0.0000
 11
-9.142999
 21
6.395999
 31
0.0000
 6
CONTINUOUS
 0
ARC
 8
WHITE
 10
-9.180099
 20
6.410699
 30
 0
 40
.039906
 50
338.3852
 51
45.20442
 6
CONTINUOUS
 0
LINE
 8
WHITE
 10
-9.152
 20
6.439
 30
0.0000
 11
-9.647
 21
6.933
 31
0.0000
 6
CONTINUOUS
 0
ARC
 8
WHITE
 10
-9.6757
 20
6.9057
 30
 0
 40
.03961
 50
43.56791
 51
142.1758
 6
CONTINUOUS
 0
LINE
 8
WHITE
 10
-9.706999
 20
6.929999
 30
0.0000
 11
-9.789999
 21
6.823999
 31
0.0000
 6
CONTINUOUS
 0
LINE
 8
WHITE
 10
-9.789999
 20
6.823999
 30
0.0000
 11
-9.869999
 21
6.664999
 31
0.0000
 6
CONTINUOUS
 0
LINE
 8
WHITE
 10
-9.869999
 20
6.664999
 30
0.0000
 11
-9.916999
 21
6.498
 31
0.0000
 6
CONTINUOUS
 0
LINE
 8
WHITE
 10
-9.916999
 20
6.498
 30
0.0000
 11
-9.930999
 21
6.379
 31
0.0000
 6
CONTINUOUS
 0
ARC
 8
WHITE
 10
-9.891099
 20
6.3742
 30
 0
 40
.040187
 50
173.1402
 51
270.1427
 6
CONTINUOUS
 0
LINE
 8
WHITE
 10
-9.890999
 20
6.334
 30
0.0000
 11
-9.552
 21
6.334
 31
0.0000
 6
CONTINUOUS
 0
LINE
 8
WHITE
 10
-9.552
 20
6.334
 30
0.0000
 11
-9.545
 21
6.341
 31
0.0000
 6
CONTINUOUS
 0
LINE
 8
WHITE
 10
-9.579999
 20
6.057
 30
0.0000
 11
-9.402999
 21
5.881
 31
0.0000
 6
CONTINUOUS
 0
LINE
 8
WHITE
 10
-9.402999
 20
5.881
 30
0.0000
 11
-9.152
 21
6.132999
 31
0.0000
 6
CONTINUOUS
 0
ARC
 8
WHITE
 10
-9.1797
 20
6.1612
 30
 0
 40
.039528
 50
314.4875
 51
21.96217
 6
CONTINUOUS
 0
LINE
 8
WHITE
 10
-9.142999
 20
6.176
 30
0.0000
 11
-9.159
 21
6.212999
 31
0.0000
 6
CONTINUOUS
 0
ARC
 8
WHITE
 10
-9.196
 20
6.197999
 30
 0
 40
.039924
 50
22.0679
 51
90
 6
CONTINUOUS
 0
LINE
 8
WHITE
 10
-9.196
 20
6.237999
 30
0.0000
 11
-9.895
 21
6.237999
 31
0.0000
 6
CONTINUOUS
 0
ARC
 8
WHITE
 10
-9.8943
 20
6.197999
 30
 0
 40
.040006
 50
91.00257
 51
187.1785
 6
CONTINUOUS
 0
LINE
 8
WHITE
 10
-9.934
 20
6.192999
 30
0.0000
 11
-9.916999
 21
6.059
 31
0.0000
 6
CONTINUOUS
 0
LINE
 8
WHITE
 10
-9.916999
 20
6.059
 30
0.0000
 11
-9.861
 21
5.889999
 31
0.0000
 6
CONTINUOUS
 0
LINE
 8
WHITE
 10
-9.861
 20
5.889999
 30
0.0000
 11
-9.774999
 21
5.737999
 31
0.0000
 6
CONTINUOUS
 0
LINE
 8
WHITE
 10
-9.774999
 20
5.737999
 30
0.0000
 11
-9.701
 21
5.644999
 31
0.0000
 6
CONTINUOUS
 0
ARC
 8
WHITE
 10
-9.6697
 20
5.6696
 30
 0
 40
.03981
 50
218.1653
 51
316.1203
 6
CONTINUOUS
 0
LINE
 8
WHITE
 10
-9.640999
 20
5.642
 30
0.0000
 11
-9.402999
 21
5.881
 31
0.0000
 6
CONTINUOUS
 0
LINE
 8
WHITE
 10
-9.402999
 20
5.881
 30
0.0000
 11
-9.402999
 21
5.890999
 31
0.0000
 6
CONTINUOUS
 0
LINE
 8
WHITE
 10
-9.159
 20
5.703999
 30
0.0000
 11
-9.3
 21
5.846
 31
0.0000
 6
CONTINUOUS
 0
LINE
 8
WHITE
 10
-9.3
 20
5.846
 30
0.0000
 11
-9.538
 21
5.607999
 31
0.0000
 6
CONTINUOUS
 0
LINE
 8
WHITE
 10
-9.538
 20
5.607999
 30
0.0000
 11
-8.977
 21
5.607999
 31
0.0000
 6
CONTINUOUS
 0
LINE
 8
WHITE
 10
-8.977
 20
5.607999
 30
0.0000
 11
-8.977
 21
6.047999
 31
0.0000
 6
CONTINUOUS
 0
LINE
 8
WHITE
 10
-8.977
 20
6.047999
 30
0.0000
 11
-9.05
 21
6.078
 31
0.0000
 6
CONTINUOUS
 0
ARC
 8
WHITE
 10
-9.058099
 20
6.059999
 30
 0
 40
.019738
 50
65.77225
 51
134.7944
 6
CONTINUOUS
 0
LINE
 8
WHITE
 10
-9.071999
 20
6.073999
 30
0.0000
 11
-9.3
 21
5.846
 31
0.0000
 6
CONTINUOUS
 0
LINE
 8
WHITE
 10
-9.3
 20
5.846
 30
0.0000
 11
-9.3
 21
5.835999
 31
0.0000
 6
CONTINUOUS
 0
LINE
 8
WHITE
 10
-9.987999
 20
4.879
 30
0.0000
 11
-7.394
 21
4.879
 31
0.0000
 6
CONTINUOUS
 0
LINE
 8
WHITE
 10
-9.987999
 20
3.128999
 30
0.0000
 11
-7.394
 21
3.128999
 31
0.0000
 6
CONTINUOUS
 0
LINE
 8
WHITE
 10
-9.256999
 20
2.2
 30
0.0000
 11
-9.256999
 21
2.4
 31
0.0000
 6
CONTINUOUS
 0
LINE
 8
WHITE
 10
-9.256999
 20
2.4
 30
0.0000
 11
-9.538
 21
2.4
 31
0.0000
 6
CONTINUOUS
 0
LINE
 8
WHITE
 10
-9.538
 20
2.4
 30
0.0000
 11
-9.071999
 21
1.934
 31
0.0000
 6
CONTINUOUS
 0
ARC
 8
WHITE
 10
-9.058099
 20
1.948099
 30
 0
 40
.019799
 50
225.4093
 51
294.108
 6
CONTINUOUS
 0
LINE
 8
WHITE
 10
-9.05
 20
1.929999
 30
0.0000
 11
-8.977
 21
1.96
 31
0.0000
 6
CONTINUOUS
 0
LINE
 8
WHITE
 10
-8.977
 20
1.96
 30
0.0000
 11
-8.977
 21
2.4
 31
0.0000
 6
CONTINUOUS
 0
LINE
 8
WHITE
 10
-8.977
 20
2.4
 30
0.0000
 11
-9.256999
 21
2.4
 31
0.0000
 6
CONTINUOUS
 0
LINE
 8
WHITE
 10
-9.256999
 20
2.4
 30
0.0000
 11
-9.263999
 21
2.392999
 31
0.0000
 6
CONTINUOUS
 0
LINE
 8
WHITE
 10
-9.555
 20
2.019999
 30
0.0000
 11
-9.555
 21
1.769999
 31
0.0000
 6
CONTINUOUS
 0
LINE
 8
WHITE
 10
-9.555
 20
1.769999
 30
0.0000
 11
-9.196
 21
1.769999
 31
0.0000
 6
CONTINUOUS
 0
ARC
 8
WHITE
 10
-9.196
 20
1.809999
 30
 0
 40
.039999
 50
270
 51
337.9319
 6
CONTINUOUS
 0
LINE
 8
WHITE
 10
-9.159
 20
1.794999
 30
0.0000
 11
-9.142999
 21
1.832
 31
0.0000
 6
CONTINUOUS
 0
ARC
 8
WHITE
 10
-9.180099
 20
1.8467
 30
 0
 40
.039906
 50
338.3852
 51
45.20406
 6
CONTINUOUS
 0
LINE
 8
WHITE
 10
-9.152
 20
1.875
 30
0.0000
 11
-9.640999
 21
2.365999
 31
0.0000
 6
CONTINUOUS
 0
ARC
 8
WHITE
 10
-9.6693
 20
2.338299
 30
 0
 40
.0396
 50
44.38614
 51
143.2171
 6
CONTINUOUS
 0
LINE
 8
WHITE
 10
-9.701
 20
2.361999
 30
0.0000
 11
-9.774999
 21
2.269999
 31
0.0000
 6
CONTINUOUS
 0
LINE
 8
WHITE
 10
-9.774999
 20
2.269999
 30
0.0000
 11
-9.861
 21
2.118
 31
0.0000
 6
CONTINUOUS
 0
LINE
 8
WHITE
 10
-9.861
 20
2.118
 30
0.0000
 11
-9.916999
 21
1.949
 31
0.0000
 6
CONTINUOUS
 0
LINE
 8
WHITE
 10
-9.916999
 20
1.949
 30
0.0000
 11
-9.934
 21
1.815
 31
0.0000
 6
CONTINUOUS
 0
ARC
 8
WHITE
 10
-9.894
 20
1.8103
 30
 0
 40
.040275
 50
173.2985
 51
268.578
 6
CONTINUOUS
 0
LINE
 8
WHITE
 10
-9.895
 20
1.769999
 30
0.0000
 11
-9.555
 21
1.769999
 31
0.0000
 6
CONTINUOUS
 0
LINE
 8
WHITE
 10
-9.555
 20
1.769999
 30
0.0000
 11
-9.548
 21
1.776999
 31
0.0000
 6
CONTINUOUS
 0
LINE
 8
WHITE
 10
-9.583
 20
1.491999
 30
0.0000
 11
-9.406
 21
1.315
 31
0.0000
 6
CONTINUOUS
 0
LINE
 8
WHITE
 10
-9.406
 20
1.315
 30
0.0000
 11
-9.152
 21
1.567999
 31
0.0000
 6
CONTINUOUS
 0
ARC
 8
WHITE
 10
-9.1795
 20
1.596499
 30
 0
 40
.039604
 50
313.977
 51
23.00844
 6
CONTINUOUS
 0
LINE
 8
WHITE
 10
-9.142999
 20
1.611999
 30
0.0000
 11
-9.159
 21
1.649
 31
0.0000
 6
CONTINUOUS
 0
ARC
 8
WHITE
 10
-9.196
 20
1.634
 30
 0
 40
.039924
 50
22.0679
 51
90
 6
CONTINUOUS
 0
LINE
 8
WHITE
 10
-9.196
 20
1.674
 30
0.0000
 11
-9.890999
 21
1.674
 31
0.0000
 6
CONTINUOUS
 0
ARC
 8
WHITE
 10
-9.8913
 20
1.634
 30
 0
 40
.040001
 50
89.57029
 51
187.1785
 6
CONTINUOUS
 0
LINE
 8
WHITE
 10
-9.930999
 20
1.628999
 30
0.0000
 11
-9.916999
 21
1.509999
 31
0.0000
 6
CONTINUOUS
 0
LINE
 8
WHITE
 10
-9.916999
 20
1.509999
 30
0.0000
 11
-9.869999
 21
1.343
 31
0.0000
 6
CONTINUOUS
 0
LINE
 8
WHITE
 10
-9.869999
 20
1.343
 30
0.0000
 11
-9.789999
 21
1.184
 31
0.0000
 6
CONTINUOUS
 0
LINE
 8
WHITE
 10
-9.789999
 20
1.184
 30
0.0000
 11
-9.706999
 21
1.077999
 31
0.0000
 6
CONTINUOUS
 0
ARC
 8
WHITE
 10
-9.6757
 20
1.102599
 30
 0
 40
.03981
 50
218.1653
 51
316.1193
 6
CONTINUOUS
 0
LINE
 8
WHITE
 10
-9.647
 20
1.075
 30
0.0000
 11
-9.406
 21
1.315
 31
0.0000
 6
CONTINUOUS
 0
LINE
 8
WHITE
 10
-9.406
 20
1.315
 30
0.0000
 11
-9.406
 21
1.325
 31
0.0000
 6
CONTINUOUS
 0
LINE
 8
WHITE
 10
-9.229
 20
1.235
 30
0.0000
 11
-8.979
 21
1.235
 31
0.0000
 6
CONTINUOUS
 0
LINE
 8
WHITE
 10
-8.979
 20
1.235
 30
0.0000
 11
-8.979
 21
1.455999
 31
0.0000
 6
CONTINUOUS
 0
ARC
 8
WHITE
 10
-9.019
 20
1.4563
 30
 0
 40
.040001
 50
359.5703
 51
66.44465
 6
CONTINUOUS
 0
LINE
 8
WHITE
 10
-9.003
 20
1.493
 30
0.0000
 11
-9.039999
 21
1.508999
 31
0.0000
 6
CONTINUOUS
 0
ARC
 8
WHITE
 10
-9.055299
 20
1.471699
 30
 0
 40
.040316
 50
67.69717
 51
135.4019
 6
CONTINUOUS
 0
LINE
 8
WHITE
 10
-9.083999
 20
1.5
 30
0.0000
 11
-9.576999
 21
1.008
 31
0.0000
 6
CONTINUOUS
 0
ARC
 8
WHITE
 10
-9.549299
 20
.9797
 30
 0
 40
.0396
 50
134.3861
 51
233.2161
 6
CONTINUOUS
 0
LINE
 8
WHITE
 10
-9.572999
 20
.948
 30
0.0000
 11
-9.479999
 21
.874
 31
0.0000
 6
CONTINUOUS
 0
LINE
 8
WHITE
 10
-9.479999
 20
.874
 30
0.0000
 11
-9.328
 21
.787999
 31
0.0000
 6
CONTINUOUS
 0
LINE
 8
WHITE
 10
-9.328
 20
.787999
 30
0.0000
 11
-9.258
 21
.763999
 31
0.0000
 6
CONTINUOUS
 0
ARC
 8
WHITE
 10
-9.2456
 20
.8022
 30
 0
 40
.040162
 50
252.0162
 51
313.3867
 6
CONTINUOUS
 0
LINE
 8
WHITE
 10
-9.218
 20
.773
 30
0.0000
 11
-8.979
 21
.987999
 31
0.0000
 6
CONTINUOUS
 0
LINE
 8
WHITE
 10
-8.979
 20
.987999
 30
0.0000
 11
-8.979
 21
1.235
 31
0.0000
 6
CONTINUOUS
 0
LINE
 8
WHITE
 10
-8.979
 20
1.235
 30
0.0000
 11
-8.986
 21
1.241999
 31
0.0000
 6
CONTINUOUS
 0
LINE
 8
WHITE
 10
-8.684
 20
1.246999
 30
0.0000
 11
-8.883999
 21
1.246999
 31
0.0000
 6
CONTINUOUS
 0
LINE
 8
WHITE
 10
-8.883999
 20
1.246999
 30
0.0000
 11
-8.883999
 21
1.032999
 31
0.0000
 6
CONTINUOUS
 0
ARC
 8
WHITE
 10
-8.863999
 20
1.032999
 30
 0
 40
.019999
 50
180
 51
269.9973
 6
CONTINUOUS
 0
LINE
 8
WHITE
 10
-8.864
 20
1.013
 30
0.0000
 11
-8.293
 21
1.013
 31
0.0000
 6
CONTINUOUS
 0
LINE
 8
WHITE
 10
-8.293
 20
1.013
 30
0.0000
 11
-8.788
 21
1.506999
 31
0.0000
 6
CONTINUOUS
 0
ARC
 8
WHITE
 10
-8.801899
 20
1.4929
 30
 0
 40
.019799
 50
45.40925
 51
114.1105
 6
CONTINUOUS
 0
LINE
 8
WHITE
 10
-8.81
 20
1.511
 30
0.0000
 11
-8.871999
 21
1.485999
 31
0.0000
 6
CONTINUOUS
 0
ARC
 8
WHITE
 10
-8.864299
 20
1.467899
 30
 0
 40
.019669
 50
113.0456
 51
182.6155
 6
CONTINUOUS
 0
LINE
 8
WHITE
 10
-8.883999
 20
1.467
 30
0.0000
 11
-8.883999
 21
1.246999
 31
0.0000
 6
CONTINUOUS
 0
LINE
 8
WHITE
 10
-8.883999
 20
1.246999
 30
0.0000
 11
-8.876999
 21
1.24
 31
0.0000
 6
CONTINUOUS
 0
LINE
 8
WHITE
 10
-8.305999
 20
1.421
 30
0.0000
 11
-8.305999
 21
1.671
 31
0.0000
 6
CONTINUOUS
 0
LINE
 8
WHITE
 10
-8.305999
 20
1.671
 30
0.0000
 11
-8.664999
 21
1.671
 31
0.0000
 6
CONTINUOUS
 0
ARC
 8
WHITE
 10
-8.664999
 20
1.631
 30
 0
 40
.039999
 50
90
 51
157.932
 6
CONTINUOUS
 0
LINE
 8
WHITE
 10
-8.701999
 20
1.646
 30
0.0000
 11
-8.717
 21
1.608999
 31
0.0000
 6
CONTINUOUS
 0
ARC
 8
WHITE
 10
-8.68
 20
1.592999
 30
 0
 40
.040311
 50
156.6148
 51
223.9955
 6
CONTINUOUS
 0
LINE
 8
WHITE
 10
-8.708999
 20
1.565
 30
0.0000
 11
-8.218
 21
1.072999
 31
0.0000
 6
CONTINUOUS
 0
ARC
 8
WHITE
 10
-8.1898
 20
1.100799
 30
 0
 40
.039598
 50
224.5907
 51
321.1591
 6
CONTINUOUS
 0
LINE
 8
WHITE
 10
-8.159
 20
1.075999
 30
0.0000
 11
-8.083999
 21
1.169999
 31
0.0000
 6
CONTINUOUS
 0
LINE
 8
WHITE
 10
-8.083999
 20
1.169999
 30
0.0000
 11
-7.999
 21
1.320999
 31
0.0000
 6
CONTINUOUS
 0
LINE
 8
WHITE
 10
-7.999
 20
1.320999
 30
0.0000
 11
-7.940999
 21
1.491
 31
0.0000
 6
CONTINUOUS
 0
LINE
 8
WHITE
 10
-7.940999
 20
1.491
 30
0.0000
 11
-7.926
 21
1.626
 31
0.0000
 6
CONTINUOUS
 0
ARC
 8
WHITE
 10
-7.965899
 20
1.6308
 30
 0
 40
.040187
 50
353.1402
 51
90.14272
 6
CONTINUOUS
 0
LINE
 8
WHITE
 10
-7.966
 20
1.671
 30
0.0000
 11
-8.305999
 21
1.671
 31
0.0000
 6
CONTINUOUS
 0
LINE
 8
WHITE
 10
-8.305999
 20
1.671
 30
0.0000
 11
-8.312999
 21
1.662999
 31
0.0000
 6
CONTINUOUS
 0
LINE
 8
WHITE
 10
-8.277
 20
1.95
 30
0.0000
 11
-8.454
 21
2.125999
 31
0.0000
 6
CONTINUOUS
 0
LINE
 8
WHITE
 10
-8.454
 20
2.125999
 30
0.0000
 11
-8.708
 21
1.871999
 31
0.0000
 6
CONTINUOUS
 0
ARC
 8
WHITE
 10
-8.680299
 20
1.843799
 30
 0
 40
.039528
 50
134.4875
 51
201.9625
 6
CONTINUOUS
 0
LINE
 8
WHITE
 10
-8.717
 20
1.828999
 30
0.0000
 11
-8.690999
 21
1.766999
 31
0.0000
 6
CONTINUOUS
 0
LINE
 8
WHITE
 10
-8.690999
 20
1.766999
 30
0.0000
 11
-7.923999
 21
1.766
 31
0.0000
 6
CONTINUOUS
 0
LINE
 8
WHITE
 10
-7.923999
 20
1.766
 30
0.0000
 11
-7.942999
 21
1.929
 31
0.0000
 6
CONTINUOUS
 0
LINE
 8
WHITE
 10
-7.942999
 20
1.929
 30
0.0000
 11
-7.988999
 21
2.095999
 31
0.0000
 6
CONTINUOUS
 0
LINE
 8
WHITE
 10
-7.988999
 20
2.095999
 30
0.0000
 11
-8.067999
 21
2.256999
 31
0.0000
 6
CONTINUOUS
 0
LINE
 8
WHITE
 10
-8.067999
 20
2.256999
 30
0.0000
 11
-8.152999
 21
2.364
 31
0.0000
 6
CONTINUOUS
 0
ARC
 8
WHITE
 10
-8.184299
 20
2.3394
 30
 0
 40
.03981
 50
38.16531
 51
136.1201
 6
CONTINUOUS
 0
LINE
 8
WHITE
 10
-8.213
 20
2.367
 30
0.0000
 11
-8.454
 21
2.125999
 31
0.0000
 6
CONTINUOUS
 0
LINE
 8
WHITE
 10
-8.454
 20
2.125999
 30
0.0000
 11
-8.454
 21
2.115999
 31
0.0000
 6
CONTINUOUS
 0
LINE
 8
WHITE
 10
-8.694999
 20
2.303999
 30
0.0000
 11
-8.553999
 21
2.161999
 31
0.0000
 6
CONTINUOUS
 0
LINE
 8
WHITE
 10
-8.553999
 20
2.161999
 30
0.0000
 11
-8.314999
 21
2.4
 31
0.0000
 6
CONTINUOUS
 0
LINE
 8
WHITE
 10
-8.314999
 20
2.4
 30
0.0000
 11
-8.859999
 21
2.4
 31
0.0000
 6
CONTINUOUS
 0
ARC
 8
WHITE
 10
-8.859999
 20
2.38
 30
 0
 40
.019999
 50
90
 51
180
 6
CONTINUOUS
 0
LINE
 8
WHITE
 10
-8.88
 20
2.38
 30
0.0000
 11
-8.88
 21
1.972
 31
0.0000
 6
CONTINUOUS
 0
ARC
 8
WHITE
 10
-8.859999
 20
1.972699
 30
 0
 40
.020012
 50
182.0045
 51
249.4776
 6
CONTINUOUS
 0
LINE
 8
WHITE
 10
-8.866999
 20
1.953999
 30
0.0000
 11
-8.805
 21
1.929
 31
0.0000
 6
CONTINUOUS
 0
ARC
 8
WHITE
 10
-8.7985
 20
1.948199
 30
 0
 40
.02027
 50
251.2969
 51
315.5983
 6
CONTINUOUS
 0
LINE
 8
WHITE
 10
-8.784
 20
1.934
 30
0.0000
 11
-8.553999
 21
2.161999
 31
0.0000
 6
CONTINUOUS
 0
LINE
 8
WHITE
 10
-8.553999
 20
2.161999
 30
0.0000
 11
-8.553999
 21
2.171999
 31
0.0000
 6
CONTINUOUS
 0
LINE
 8
WHITE
 10
-7.269
 20
3.128999
 30
0.0000
 11
-4.675
 21
3.128999
 31
0.0000
 6
CONTINUOUS
 0
LINE
 8
WHITE
 10
-7.222
 20
2.15
 30
0.0000
 11
-7.222
 21
2.4
 31
0.0000
 6
CONTINUOUS
 0
LINE
 8
WHITE
 10
-7.222
 20
2.4
 30
0.0000
 11
-7.974999
 21
2.4
 31
0.0000
 6
CONTINUOUS
 0
LINE
 8
WHITE
 10
-7.974999
 20
2.4
 30
0.0000
 11
-7.955999
 21
2.377
 31
0.0000
 6
CONTINUOUS
 0
LINE
 8
WHITE
 10
-7.955999
 20
2.377
 30
0.0000
 11
-7.846
 21
2.177999
 31
0.0000
 6
CONTINUOUS
 0
LINE
 8
WHITE
 10
-7.846
 20
2.177999
 30
0.0000
 11
-7.777999
 21
1.957
 31
0.0000
 6
CONTINUOUS
 0
LINE
 8
WHITE
 10
-7.777999
 20
1.957
 30
0.0000
 11
-7.755
 21
1.722
 31
0.0000
 6
CONTINUOUS
 0
LINE
 8
WHITE
 10
-7.755
 20
1.722
 30
0.0000
 11
-7.777999
 21
1.485
 31
0.0000
 6
CONTINUOUS
 0
LINE
 8
WHITE
 10
-7.777999
 20
1.485
 30
0.0000
 11
-7.846
 21
1.266
 31
0.0000
 6
CONTINUOUS
 0
LINE
 8
WHITE
 10
-7.846
 20
1.266
 30
0.0000
 11
-7.955999
 21
1.065
 31
0.0000
 6
CONTINUOUS
 0
LINE
 8
WHITE
 10
-7.955999
 20
1.065
 30
0.0000
 11
-7.999
 21
1.013
 31
0.0000
 6
CONTINUOUS
 0
LINE
 8
WHITE
 10
-7.999
 20
1.013
 30
0.0000
 11
-6.334
 21
1.013
 31
0.0000
 6
CONTINUOUS
 0
LINE
 8
WHITE
 10
-6.334
 20
1.013
 30
0.0000
 11
-6.376999
 21
1.065
 31
0.0000
 6
CONTINUOUS
 0
LINE
 8
WHITE
 10
-6.376999
 20
1.065
 30
0.0000
 11
-6.486
 21
1.266
 31
0.0000
 6
CONTINUOUS
 0
LINE
 8
WHITE
 10
-6.486
 20
1.266
 30
0.0000
 11
-6.553999
 21
1.485
 31
0.0000
 6
CONTINUOUS
 0
LINE
 8
WHITE
 10
-6.553999
 20
1.485
 30
0.0000
 11
-6.578999
 21
1.722
 31
0.0000
 6
CONTINUOUS
 0
LINE
 8
WHITE
 10
-6.578999
 20
1.722
 30
0.0000
 11
-6.553999
 21
1.957
 31
0.0000
 6
CONTINUOUS
 0
LINE
 8
WHITE
 10
-6.553999
 20
1.957
 30
0.0000
 11
-6.486
 21
2.177999
 31
0.0000
 6
CONTINUOUS
 0
LINE
 8
WHITE
 10
-6.486
 20
2.177999
 30
0.0000
 11
-6.376999
 21
2.377
 31
0.0000
 6
CONTINUOUS
 0
LINE
 8
WHITE
 10
-6.376999
 20
2.377
 30
0.0000
 11
-6.356999
 21
2.4
 31
0.0000
 6
CONTINUOUS
 0
LINE
 8
WHITE
 10
-6.356999
 20
2.4
 30
0.0000
 11
-7.222
 21
2.4
 31
0.0000
 6
CONTINUOUS
 0
LINE
 8
WHITE
 10
-7.222
 20
2.4
 30
0.0000
 11
-7.229
 21
2.392999
 31
0.0000
 6
CONTINUOUS
 0
LINE
 8
WHITE
 10
-8.211999
 20
-2.119999
 30
0.0000
 11
-8.395
 21
-1.949
 31
0.0000
 6
CONTINUOUS
 0
LINE
 8
WHITE
 10
-8.395
 20
-1.949
 30
0.0000
 11
-8.678999
 21
-2.255
 31
0.0000
 6
CONTINUOUS
 0
LINE
 8
WHITE
 10
-8.678999
 20
-2.255
 30
0.0000
 11
-7.067999
 21
-2.313999
 31
0.0000
 6
CONTINUOUS
 0
LINE
 8
WHITE
 10
-7.067999
 20
-2.313999
 30
0.0000
 11
-8.17
 21
-1.75
 31
0.0000
 6
CONTINUOUS
 0
ARC
 8
WHITE
 10
-8.188099
 20
-1.785899
 30
 0
 40
.040204
 50
63.24376
 51
138.0238
 6
CONTINUOUS
 0
LINE
 8
WHITE
 10
-8.218
 20
-1.758999
 30
0.0000
 11
-8.395
 21
-1.949
 31
0.0000
 6
CONTINUOUS
 0
LINE
 8
WHITE
 10
-8.395
 20
-1.949
 30
0.0000
 11
-8.394
 21
-1.958999
 31
0.0000
 6
CONTINUOUS
 0
LINE
 8
WHITE
 10
-8.623999
 20
-1.745
 30
0.0000
 11
-8.532999
 21
-1.567
 31
0.0000
 6
CONTINUOUS
 0
LINE
 8
WHITE
 10
-8.532999
 20
-1.567
 30
0.0000
 11
-8.779
 21
-1.440999
 31
0.0000
 6
CONTINUOUS
 0
LINE
 8
WHITE
 10
-8.779
 20
-1.440999
 30
0.0000
 11
-8.751999
 21
-2.19
 31
0.0000
 6
CONTINUOUS
 0
LINE
 8
WHITE
 10
-8.751999
 20
-2.19
 30
0.0000
 11
-8.305
 21
-1.710999
 31
0.0000
 6
CONTINUOUS
 0
ARC
 8
WHITE
 10
-8.320899
 20
-1.697999
 30
 0
 40
.020538
 50
320.7302
 51
61.18899
 6
CONTINUOUS
 0
LINE
 8
WHITE
 10
-8.310999
 20
-1.679999
 30
0.0000
 11
-8.532999
 21
-1.567
 31
0.0000
 6
CONTINUOUS
 0
LINE
 8
WHITE
 10
-8.532999
 20
-1.567
 30
0.0000
 11
-8.543
 21
-1.57
 31
0.0000
 6
CONTINUOUS
 0
LINE
 8
WHITE
 10
-8.399999
 20
-1.125
 30
0.0000
 11
-8.637999
 21
-1.047
 31
0.0000
 6
CONTINUOUS
 0
LINE
 8
WHITE
 10
-8.637999
 20
-1.047
 30
0.0000
 11
-8.727
 21
-1.319
 31
0.0000
 6
CONTINUOUS
 0
ARC
 8
WHITE
 10
-8.688899
 20
-1.331699
 30
 0
 40
.04016
 50
161.565
 51
241.583
 6
CONTINUOUS
 0
LINE
 8
WHITE
 10
-8.708
 20
-1.366999
 30
0.0000
 11
-8.246999
 21
-1.600999
 31
0.0000
 6
CONTINUOUS
 0
ARC
 8
WHITE
 10
-8.229
 20
-1.564999
 30
 0
 40
.040249
 50
243.435
 51
316.0052
 6
CONTINUOUS
 0
LINE
 8
WHITE
 10
-8.199999
 20
-1.593
 30
0.0000
 11
-7.482999
 21
-.827
 31
0.0000
 6
CONTINUOUS
 0
ARC
 8
WHITE
 10
-7.5116
 20
-.7995
 30
 0
 40
.039676
 50
316.1233
 51
63.62891
 6
CONTINUOUS
 0
LINE
 8
WHITE
 10
-7.493999
 20
-.763999
 30
0.0000
 11
-7.533999
 21
-.742999
 31
0.0000
 6
CONTINUOUS
 0
LINE
 8
WHITE
 10
-7.533999
 20
-.742999
 30
0.0000
 11
-8.508
 21
-.742999
 31
0.0000
 6
CONTINUOUS
 0
ARC
 8
WHITE
 10
-8.5082
 20
-.782999
 30
 0
 40
.04
 50
89.71352
 51
161.0206
 6
CONTINUOUS
 0
LINE
 8
WHITE
 10
-8.545999
 20
-.769999
 30
0.0000
 11
-8.637999
 21
-1.047
 31
0.0000
 6
CONTINUOUS
 0
LINE
 8
WHITE
 10
-8.637999
 20
-1.047
 30
0.0000
 11
-8.633
 21
-1.055999
 31
0.0000
 6
CONTINUOUS
 0
LINE
 8
WHITE
 10
-9.635
 20
-2.632999
 30
0.0000
 11
-9.602999
 21
-2.384999
 31
0.0000
 6
CONTINUOUS
 0
LINE
 8
WHITE
 10
-9.602999
 20
-2.384999
 30
0.0000
 11
-9.529999
 21
-1.822
 31
0.0000
 6
CONTINUOUS
 0
LINE
 8
WHITE
 10
-9.529999
 20
-1.822
 30
0.0000
 11
-9.468999
 21
-1.562
 31
0.0000
 6
CONTINUOUS
 0
LINE
 8
WHITE
 10
-9.468999
 20
-1.562
 30
0.0000
 11
-9.388999
 21
-1.315999
 31
0.0000
 6
CONTINUOUS
 0
LINE
 8
WHITE
 10
-9.388999
 20
-1.315999
 30
0.0000
 11
-9.286
 21
-1.085
 31
0.0000
 6
CONTINUOUS
 0
LINE
 8
WHITE
 10
-9.286
 20
-1.085
 30
0.0000
 11
-9.157999
 21
-.866999
 31
0.0000
 6
CONTINUOUS
 0
LINE
 8
WHITE
 10
-9.157999
 20
-.866999
 30
0.0000
 11
-9.003
 21
-.666
 31
0.0000
 6
CONTINUOUS
 0
LINE
 8
WHITE
 10
-9.003
 20
-.666
 30
0.0000
 11
-8.819
 21
-.485
 31
0.0000
 6
CONTINUOUS
 0
LINE
 8
WHITE
 10
-8.819
 20
-.485
 30
0.0000
 11
-8.819
 21
.270999
 31
0.0000
 6
CONTINUOUS
 0
ARC
 8
WHITE
 10
-8.859
 20
.270999
 30
 0
 40
.039999
 50
0
 51
90
 6
CONTINUOUS
 0
LINE
 8
WHITE
 10
-8.859
 20
.310999
 30
0.0000
 11
-9.270999
 21
.310999
 31
0.0000
 6
CONTINUOUS
 0
LINE
 8
WHITE
 10
-9.270999
 20
.310999
 30
0.0000
 11
-9.458999
 21
.497999
 31
0.0000
 6
CONTINUOUS
 0
ARC
 8
WHITE
 10
-9.432099
 20
.527099
 30
 0
 40
.039628
 50
130.9007
 51
227.2498
 6
CONTINUOUS
 0
LINE
 8
WHITE
 10
-9.458
 20
.556999
 30
0.0000
 11
-9.373
 21
.634
 31
0.0000
 6
CONTINUOUS
 0
LINE
 8
WHITE
 10
-9.373
 20
.634
 30
0.0000
 11
-9.385
 21
.638
 31
0.0000
 6
CONTINUOUS
 0
LINE
 8
WHITE
 10
-9.385
 20
.638
 30
0.0000
 11
-9.585
 21
.746999
 31
0.0000
 6
CONTINUOUS
 0
LINE
 8
WHITE
 10
-9.585
 20
.746999
 30
0.0000
 11
-9.758999
 21
.892
 31
0.0000
 6
CONTINUOUS
 0
LINE
 8
WHITE
 10
-9.758999
 20
.892
 30
0.0000
 11
-9.902999
 21
1.065
 31
0.0000
 6
CONTINUOUS
 0
LINE
 8
WHITE
 10
-9.902999
 20
1.065
 30
0.0000
 11
-10.012
 21
1.266
 31
0.0000
 6
CONTINUOUS
 0
LINE
 8
WHITE
 10
-10.012
 20
1.266
 30
0.0000
 11
-10.08
 21
1.485
 31
0.0000
 6
CONTINUOUS
 0
LINE
 8
WHITE
 10
-10.08
 20
1.485
 30
0.0000
 11
-10.105
 21
1.722
 31
0.0000
 6
CONTINUOUS
 0
LINE
 8
WHITE
 10
-10.105
 20
1.722
 30
0.0000
 11
-10.08
 21
1.957
 31
0.0000
 6
CONTINUOUS
 0
LINE
 8
WHITE
 10
-10.08
 20
1.957
 30
0.0000
 11
-10.012
 21
2.177999
 31
0.0000
 6
CONTINUOUS
 0
LINE
 8
WHITE
 10
-10.012
 20
2.177999
 30
0.0000
 11
-9.888999
 21
2.4
 31
0.0000
 6
CONTINUOUS
 0
ARC
 8
WHITE
 10
-9.8829
 20
2.634
 30
 0
 40
.234079
 50
180
 51
268.5067
 6
CONTINUOUS
 0
LINE
 8
WHITE
 10
-10.117
 20
2.634
 30
0.0000
 11
-10.117
 21
5.374
 31
0.0000
 6
CONTINUOUS
 0
ARC
 8
WHITE
 10
-9.882999
 20
5.3731
 30
 0
 40
.234001
 50
91.46956
 51
179.7796
 6
CONTINUOUS
 0
LINE
 8
WHITE
 10
-9.888999
 20
5.606999
 30
0.0000
 11
-10.012
 21
5.829999
 31
0.0000
 6
CONTINUOUS
 0
LINE
 8
WHITE
 10
-10.012
 20
5.829999
 30
0.0000
 11
-10.08
 21
6.051
 31
0.0000
 6
CONTINUOUS
 0
LINE
 8
WHITE
 10
-10.08
 20
6.051
 30
0.0000
 11
-10.105
 21
6.284999
 31
0.0000
 6
CONTINUOUS
 0
LINE
 8
WHITE
 10
-10.105
 20
6.284999
 30
0.0000
 11
-10.08
 21
6.521999
 31
0.0000
 6
CONTINUOUS
 0
LINE
 8
WHITE
 10
-10.08
 20
6.521999
 30
0.0000
 11
-10.012
 21
6.742
 31
0.0000
 6
CONTINUOUS
 0
LINE
 8
WHITE
 10
-10.012
 20
6.742
 30
0.0000
 11
-9.902999
 21
6.942999
 31
0.0000
 6
CONTINUOUS
 0
LINE
 8
WHITE
 10
-9.902999
 20
6.942999
 30
0.0000
 11
-9.758999
 21
7.116
 31
0.0000
 6
CONTINUOUS
 0
LINE
 8
WHITE
 10
-9.758999
 20
7.116
 30
0.0000
 11
-9.585
 21
7.261
 31
0.0000
 6
CONTINUOUS
 0
LINE
 8
WHITE
 10
-9.585
 20
7.261
 30
0.0000
 11
-9.385
 21
7.369999
 31
0.0000
 6
CONTINUOUS
 0
LINE
 8
WHITE
 10
-9.385
 20
7.369999
 30
0.0000
 11
-9.373
 21
7.374
 31
0.0000
 6
CONTINUOUS
 0
LINE
 8
WHITE
 10
-9.373
 20
7.374
 30
0.0000
 11
-9.458
 21
7.451
 31
0.0000
 6
CONTINUOUS
 0
ARC
 8
WHITE
 10
-9.430399
 20
7.4805
 30
 0
 40
.040398
 50
135.1005
 51
226.9058
 6
CONTINUOUS
 0
LINE
 8
WHITE
 10
-9.458999
 20
7.508999
 30
0.0000
 11
-9.270999
 21
7.697
 31
0.0000
 6
CONTINUOUS
 0
LINE
 8
WHITE
 10
-9.270999
 20
7.697
 30
0.0000
 11
-8.859
 21
7.697
 31
0.0000
 6
CONTINUOUS
 0
ARC
 8
WHITE
 10
-8.859
 20
7.736999
 30
 0
 40
.039999
 50
270
 51
0
 6
CONTINUOUS
 0
LINE
 8
WHITE
 10
-8.819
 20
7.736999
 30
0.0000
 11
-8.819
 21
8.493
 31
0.0000
 6
CONTINUOUS
 0
LINE
 8
WHITE
 10
-8.819
 20
8.493
 30
0.0000
 11
-9.003
 21
8.673999
 31
0.0000
 6
CONTINUOUS
 0
LINE
 8
WHITE
 10
-9.003
 20
8.673999
 30
0.0000
 11
-9.157999
 21
8.875
 31
0.0000
 6
CONTINUOUS
 0
LINE
 8
WHITE
 10
-9.157999
 20
8.875
 30
0.0000
 11
-9.286
 21
9.092
 31
0.0000
 6
CONTINUOUS
 0
LINE
 8
WHITE
 10
-9.286
 20
9.092
 30
0.0000
 11
-9.388999
 21
9.322999
 31
0.0000
 6
CONTINUOUS
 0
LINE
 8
WHITE
 10
-9.388999
 20
9.322999
 30
0.0000
 11
-9.468999
 21
9.569999
 31
0.0000
 6
CONTINUOUS
 0
LINE
 8
WHITE
 10
-9.468999
 20
9.569999
 30
0.0000
 11
-9.529999
 21
9.829999
 31
0.0000
 6
CONTINUOUS
 0
LINE
 8
WHITE
 10
-9.529999
 20
9.829999
 30
0.0000
 11
-9.597999
 21
10.36
 31
0.0000
 6
CONTINUOUS
 0
ARC
 8
WHITE
 10
-9.557999
 20
10.3652
 30
 0
 40
.040336
 50
110.3231
 51
187.4069
 6
CONTINUOUS
 0
LINE
 8
WHITE
 10
-9.571999
 20
10.403
 30
0.0000
 11
-9.256999
 21
10.511
 31
0.0000
 6
CONTINUOUS
 0
LINE
 8
WHITE
 10
-9.256999
 20
10.511
 30
0.0000
 11
-8.895
 21
10.6
 31
0.0000
 6
CONTINUOUS
 0
LINE
 8
WHITE
 10
-8.895
 20
10.6
 30
0.0000
 11
-8.52
 21
10.656
 31
0.0000
 6
CONTINUOUS
 0
LINE
 8
WHITE
 10
-8.52
 20
10.656
 30
0.0000
 11
-8.145999
 21
10.678
 31
0.0000
 6
CONTINUOUS
 0
LINE
 8
WHITE
 10
-8.145999
 20
10.678
 30
0.0000
 11
-7.782
 21
10.665
 31
0.0000
 6
CONTINUOUS
 0
LINE
 8
WHITE
 10
-7.782
 20
10.665
 30
0.0000
 11
-7.434999
 21
10.616
 31
0.0000
 6
CONTINUOUS
 0
LINE
 8
WHITE
 10
-7.434999
 20
10.616
 30
0.0000
 11
-7.114999
 21
10.526
 31
0.0000
 6
CONTINUOUS
 0
LINE
 8
WHITE
 10
-7.114999
 20
10.526
 30
0.0000
 11
-6.857999
 21
10.406
 31
0.0000
 6
CONTINUOUS
 0
ARC
 8
WHITE
 10
-6.873799
 20
10.3695
 30
 0
 40
.039772
 50
.719368
 51
66.59334
 6
CONTINUOUS
 0
LINE
 8
WHITE
 10
-6.834
 20
10.37
 30
0.0000
 11
-6.834
 21
10.325
 31
0.0000
 6
CONTINUOUS
 0
ARC
 8
WHITE
 10
-6.874
 20
10.3255
 30
 0
 40
.040003
 50
285.9457
 51
359.2838
 6
CONTINUOUS
 0
LINE
 8
WHITE
 10
-6.862999
 20
10.287
 30
0.0000
 11
-7.007999
 21
10.241
 31
0.0000
 6
CONTINUOUS
 0
LINE
 8
WHITE
 10
-7.007999
 20
10.241
 30
0.0000
 11
-8.083
 21
9.694999
 31
0.0000
 6
CONTINUOUS
 0
ARC
 8
WHITE
 10
-8.063799
 20
9.659599
 30
 0
 40
.040271
 50
118.4742
 51
221.3723
 6
CONTINUOUS
 0
LINE
 8
WHITE
 10
-8.093999
 20
9.633
 30
0.0000
 11
-7.256999
 21
8.734
 31
0.0000
 6
CONTINUOUS
 0
LINE
 8
WHITE
 10
-7.256999
 20
8.734
 30
0.0000
 11
-7.138999
 21
8.734
 31
0.0000
 6
CONTINUOUS
 0
ARC
 8
WHITE
 10
-7.138999
 20
8.694
 30
 0
 40
.039999
 50
0
 51
90
 6
CONTINUOUS
 0
LINE
 8
WHITE
 10
-7.098999
 20
8.694
 30
0.0000
 11
-7.100999
 21
8.494
 31
0.0000
 6
CONTINUOUS
 0
LINE
 8
WHITE
 10
-7.100999
 20
8.494
 30
0.0000
 11
-7.100999
 21
7.721
 31
0.0000
 6
CONTINUOUS
 0
LINE
 8
WHITE
 10
-7.100999
 20
7.721
 30
0.0000
 11
-7.084
 21
7.640999
 31
0.0000
 6
CONTINUOUS
 0
LINE
 8
WHITE
 10
-7.084
 20
7.640999
 30
0.0000
 11
-7.035999
 21
7.571
 31
0.0000
 6
CONTINUOUS
 0
LINE
 8
WHITE
 10
-7.035999
 20
7.571
 30
0.0000
 11
-6.859
 21
7.464
 31
0.0000
 6
CONTINUOUS
 0
LINE
 8
WHITE
 10
-6.859
 20
7.464
 30
0.0000
 11
-6.609
 21
7.401
 31
0.0000
 6
CONTINUOUS
 0
LINE
 8
WHITE
 10
-6.609
 20
7.401
 30
0.0000
 11
-6.321
 21
7.381
 31
0.0000
 6
CONTINUOUS
 0
LINE
 8
WHITE
 10
-6.321
 20
7.381
 30
0.0000
 11
-6.032999
 21
7.401999
 31
0.0000
 6
CONTINUOUS
 0
LINE
 8
WHITE
 10
-6.032999
 20
7.401999
 30
0.0000
 11
-5.782999
 21
7.467
 31
0.0000
 6
CONTINUOUS
 0
LINE
 8
WHITE
 10
-5.782999
 20
7.467
 30
0.0000
 11
-5.605999
 21
7.573999
 31
0.0000
 6
CONTINUOUS
 0
LINE
 8
WHITE
 10
-5.605999
 20
7.573999
 30
0.0000
 11
-5.558
 21
7.642
 31
0.0000
 6
CONTINUOUS
 0
LINE
 8
WHITE
 10
-5.558
 20
7.642
 30
0.0000
 11
-5.540999
 21
7.718999
 31
0.0000
 6
CONTINUOUS
 0
LINE
 8
WHITE
 10
-5.540999
 20
7.718999
 30
0.0000
 11
-5.540999
 21
8.406
 31
0.0000
 6
CONTINUOUS
 0
ARC
 8
WHITE
 10
-5.500999
 20
8.406
 30
 0
 40
.039999
 50
90
 51
180
 6
CONTINUOUS
 0
LINE
 8
WHITE
 10
-5.500999
 20
8.446
 30
0.0000
 11
-5.431
 21
8.446
 31
0.0000
 6
CONTINUOUS
 0
ARC
 8
WHITE
 10
-5.431
 20
8.406
 30
 0
 40
.039999
 50
0
 51
90
 6
CONTINUOUS
 0
LINE
 8
WHITE
 10
-5.390999
 20
8.406
 30
0.0000
 11
-5.390999
 21
7.497
 31
0.0000
 6
CONTINUOUS
 0
ARC
 8
WHITE
 10
-5.350999
 20
7.4968
 30
 0
 40
.04
 50
179.7135
 51
264.2607
 6
CONTINUOUS
 0
LINE
 8
WHITE
 10
-5.355
 20
7.456999
 30
0.0000
 11
-5.168
 21
7.439
 31
0.0000
 6
CONTINUOUS
 0
LINE
 8
WHITE
 10
-5.168
 20
7.439
 30
0.0000
 11
-4.947
 21
7.369999
 31
0.0000
 6
CONTINUOUS
 0
LINE
 8
WHITE
 10
-4.947
 20
7.369999
 30
0.0000
 11
-4.923999
 21
7.357999
 31
0.0000
 6
CONTINUOUS
 0
LINE
 8
WHITE
 10
-4.923999
 20
7.357999
 30
0.0000
 11
-4.479
 21
7.416999
 31
0.0000
 6
CONTINUOUS
 0
ARC
 8
WHITE
 10
-4.4851
 20
7.456799
 30
 0
 40
.040264
 50
278.7137
 51
19.10861
 6
CONTINUOUS
 0
LINE
 8
WHITE
 10
-4.447
 20
7.469999
 30
0.0000
 11
-4.466
 21
7.519999
 31
0.0000
 6
CONTINUOUS
 0
LINE
 8
WHITE
 10
-4.466
 20
7.519999
 30
0.0000
 11
-4.449999
 21
7.587999
 31
0.0000
 6
CONTINUOUS
 0
LINE
 8
WHITE
 10
-4.449999
 20
7.587999
 30
0.0000
 11
-4.485
 21
7.565
 31
0.0000
 6
CONTINUOUS
 0
LINE
 8
WHITE
 10
-4.485
 20
7.565
 30
0.0000
 11
-4.515999
 21
7.519
 31
0.0000
 6
CONTINUOUS
 0
LINE
 8
WHITE
 10
-4.515999
 20
7.519
 30
0.0000
 11
-4.518
 21
7.598999
 31
0.0000
 6
CONTINUOUS
 0
LINE
 8
WHITE
 10
-4.518
 20
7.598999
 30
0.0000
 11
-4.488999
 21
7.657999
 31
0.0000
 6
CONTINUOUS
 0
LINE
 8
WHITE
 10
-4.488999
 20
7.657999
 30
0.0000
 11
-4.579999
 21
7.627999
 31
0.0000
 6
CONTINUOUS
 0
LINE
 8
WHITE
 10
-4.579999
 20
7.627999
 30
0.0000
 11
-4.441999
 21
7.936999
 31
0.0000
 6
CONTINUOUS
 0
LINE
 8
WHITE
 10
-4.441999
 20
7.936999
 30
0.0000
 11
-4.412
 21
8.098999
 31
0.0000
 6
CONTINUOUS
 0
LINE
 8
WHITE
 10
-4.412
 20
8.098999
 30
0.0000
 11
-4.419
 21
8.289999
 31
0.0000
 6
CONTINUOUS
 0
LINE
 8
WHITE
 10
-4.419
 20
8.289999
 30
0.0000
 11
-4.376999
 21
8.343999
 31
0.0000
 6
CONTINUOUS
 0
LINE
 8
WHITE
 10
-4.376999
 20
8.343999
 30
0.0000
 11
-4.348999
 21
8.427
 31
0.0000
 6
CONTINUOUS
 0
LINE
 8
WHITE
 10
-4.348999
 20
8.427
 30
0.0000
 11
-4.427999
 21
8.371999
 31
0.0000
 6
CONTINUOUS
 0
LINE
 8
WHITE
 10
-4.427999
 20
8.371999
 30
0.0000
 11
-4.538
 21
8.342
 31
0.0000
 6
CONTINUOUS
 0
LINE
 8
WHITE
 10
-4.538
 20
8.342
 30
0.0000
 11
-4.410999
 21
8.489
 31
0.0000
 6
CONTINUOUS
 0
LINE
 8
WHITE
 10
-4.410999
 20
8.489
 30
0.0000
 11
-4.331999
 21
8.637
 31
0.0000
 6
CONTINUOUS
 0
LINE
 8
WHITE
 10
-4.331999
 20
8.637
 30
0.0000
 11
-4.278999
 21
8.72
 31
0.0000
 6
CONTINUOUS
 0
LINE
 8
WHITE
 10
-4.278999
 20
8.72
 30
0.0000
 11
-4.199999
 21
8.798999
 31
0.0000
 6
CONTINUOUS
 0
LINE
 8
WHITE
 10
-4.199999
 20
8.798999
 30
0.0000
 11
-4.027999
 21
8.911
 31
0.0000
 6
CONTINUOUS
 0
LINE
 8
WHITE
 10
-4.027999
 20
8.911
 30
0.0000
 11
-4.063
 21
8.928
 31
0.0000
 6
CONTINUOUS
 0
LINE
 8
WHITE
 10
-4.063
 20
8.928
 30
0.0000
 11
-4.17
 21
8.899
 31
0.0000
 6
CONTINUOUS
 0
LINE
 8
WHITE
 10
-4.17
 20
8.899
 30
0.0000
 11
-4.053999
 21
8.961999
 31
0.0000
 6
CONTINUOUS
 0
LINE
 8
WHITE
 10
-4.053999
 20
8.961999
 30
0.0000
 11
-3.944
 21
8.979
 31
0.0000
 6
CONTINUOUS
 0
LINE
 8
WHITE
 10
-3.944
 20
8.979
 30
0.0000
 11
-3.732
 21
8.977
 31
0.0000
 6
CONTINUOUS
 0
LINE
 8
WHITE
 10
-3.732
 20
8.977
 30
0.0000
 11
-3.740999
 21
8.996
 31
0.0000
 6
CONTINUOUS
 0
LINE
 8
WHITE
 10
-3.740999
 20
8.996
 30
0.0000
 11
-3.825999
 21
9.031999
 31
0.0000
 6
CONTINUOUS
 0
LINE
 8
WHITE
 10
-3.825999
 20
9.031999
 30
0.0000
 11
-3.750999
 21
9.045
 31
0.0000
 6
CONTINUOUS
 0
LINE
 8
WHITE
 10
-3.750999
 20
9.045
 30
0.0000
 11
-3.678999
 21
9.027999
 31
0.0000
 6
CONTINUOUS
 0
LINE
 8
WHITE
 10
-3.678999
 20
9.027999
 30
0.0000
 11
-3.529999
 21
8.937999
 31
0.0000
 6
CONTINUOUS
 0
LINE
 8
WHITE
 10
-3.529999
 20
8.937999
 30
0.0000
 11
-3.408999
 21
8.805
 31
0.0000
 6
CONTINUOUS
 0
LINE
 8
WHITE
 10
-3.408999
 20
8.805
 30
0.0000
 11
-3.377
 21
8.725
 31
0.0000
 6
CONTINUOUS
 0
ARC
 8
WHITE
 10
-3.3489
 20
8.7357
 30
 0
 40
.030068
 50
200.846
 51
316.6131
 6
CONTINUOUS
 0
LINE
 8
WHITE
 10
-3.326999
 20
8.715
 30
0.0000
 11
-3.286
 21
8.76
 31
0.0000
 6
CONTINUOUS
 0
LINE
 8
WHITE
 10
-3.286
 20
8.76
 30
0.0000
 11
-3.311
 21
8.593999
 31
0.0000
 6
CONTINUOUS
 0
LINE
 8
WHITE
 10
-3.311
 20
8.593999
 30
0.0000
 11
-3.311
 21
8.465999
 31
0.0000
 6
CONTINUOUS
 0
LINE
 8
WHITE
 10
-3.311
 20
8.465999
 30
0.0000
 11
-3.289999
 21
8.395
 31
0.0000
 6
CONTINUOUS
 0
ARC
 8
WHITE
 10
-3.251999
 20
8.4061
 30
 0
 40
.039588
 50
196.2834
 51
278.7237
 6
CONTINUOUS
 0
LINE
 8
WHITE
 10
-3.246
 20
8.366999
 30
0.0000
 11
-2.986
 21
8.399999
 31
0.0000
 6
CONTINUOUS
 0
LINE
 8
WHITE
 10
-2.986
 20
8.399999
 30
0.0000
 11
-2.724999
 21
8.394
 31
0.0000
 6
CONTINUOUS
 0
LINE
 8
WHITE
 10
-2.724999
 20
8.394
 30
0.0000
 11
-2.280999
 21
8.329999
 31
0.0000
 6
CONTINUOUS
 0
LINE
 8
WHITE
 10
-2.280999
 20
8.329999
 30
0.0000
 11
-2.081
 21
8.310999
 31
0.0000
 6
CONTINUOUS
 0
LINE
 8
WHITE
 10
-2.081
 20
8.310999
 30
0.0000
 11
-1.884999
 21
8.322999
 31
0.0000
 6
CONTINUOUS
 0
LINE
 8
WHITE
 10
-1.884999
 20
8.322999
 30
0.0000
 11
-1.682999
 21
8.387999
 31
0.0000
 6
CONTINUOUS
 0
LINE
 8
WHITE
 10
-1.682999
 20
8.387999
 30
0.0000
 11
-1.498999
 21
8.503
 31
0.0000
 6
CONTINUOUS
 0
ARC
 8
WHITE
 10
-1.5209
 20
8.536399
 30
 0
 40
.039939
 50
303.2524
 51
26.11651
 6
CONTINUOUS
 0
LINE
 8
WHITE
 10
-1.485
 20
8.553999
 30
0.0000
 11
-1.496
 21
8.579
 31
0.0000
 6
CONTINUOUS
 0
LINE
 8
WHITE
 10
-1.496
 20
8.579
 30
0.0000
 11
-1.534
 21
8.564999
 31
0.0000
 6
CONTINUOUS
 0
ARC
 8
WHITE
 10
-1.5415
 20
8.581999
 30
 0
 40
.01858
 50
113.8055
 51
293.8059
 6
CONTINUOUS
 0
LINE
 8
WHITE
 10
-1.549
 20
8.598999
 30
0.0000
 11
-1.458999
 21
8.647999
 31
0.0000
 6
CONTINUOUS
 0
LINE
 8
WHITE
 10
-1.458999
 20
8.647999
 30
0.0000
 11
-1.514
 21
8.668
 31
0.0000
 6
CONTINUOUS
 0
LINE
 8
WHITE
 10
-1.514
 20
8.668
 30
0.0000
 11
-1.531
 21
8.682999
 31
0.0000
 6
CONTINUOUS
 0
ARC
 8
WHITE
 10
-1.516299
 20
8.695199
 30
 0
 40
.019103
 50
80.04421
 51
219.6904
 6
CONTINUOUS
 0
LINE
 8
WHITE
 10
-1.513
 20
8.713999
 30
0.0000
 11
-1.488
 21
8.706999
 31
0.0000
 6
CONTINUOUS
 0
LINE
 8
WHITE
 10
-1.488
 20
8.706999
 30
0.0000
 11
-1.432999
 21
8.717
 31
0.0000
 6
CONTINUOUS
 0
LINE
 8
WHITE
 10
-1.432999
 20
8.717
 30
0.0000
 11
-1.48
 21
8.737
 31
0.0000
 6
CONTINUOUS
 0
ARC
 8
WHITE
 10
-1.465999
 20
8.749
 30
 0
 40
.018439
 50
60.64209
 51
220.6013
 6
CONTINUOUS
 0
LINE
 8
WHITE
 10
-1.457
 20
8.765
 30
0.0000
 11
-1.411
 21
8.762
 31
0.0000
 6
CONTINUOUS
 0
LINE
 8
WHITE
 10
-1.411
 20
8.762
 30
0.0000
 11
-1.371999
 21
8.802
 31
0.0000
 6
CONTINUOUS
 0
LINE
 8
WHITE
 10
-1.371999
 20
8.802
 30
0.0000
 11
-1.324
 21
8.93
 31
0.0000
 6
CONTINUOUS
 0
LINE
 8
WHITE
 10
-1.324
 20
8.93
 30
0.0000
 11
-1.281
 21
8.96
 31
0.0000
 6
CONTINUOUS
 0
LINE
 8
WHITE
 10
-1.281
 20
8.96
 30
0.0000
 11
-1.261
 21
9.090999
 31
0.0000
 6
CONTINUOUS
 0
LINE
 8
WHITE
 10
-1.261
 20
9.090999
 30
0.0000
 11
-1.184999
 21
9.289999
 31
0.0000
 6
CONTINUOUS
 0
LINE
 8
WHITE
 10
-1.184999
 20
9.289999
 30
0.0000
 11
-1.133
 21
9.461
 31
0.0000
 6
CONTINUOUS
 0
LINE
 8
WHITE
 10
-1.133
 20
9.461
 30
0.0000
 11
-1.101999
 21
9.513999
 31
0.0000
 6
CONTINUOUS
 0
LINE
 8
WHITE
 10
-1.101999
 20
9.513999
 30
0.0000
 11
-1.044
 21
9.555
 31
0.0000
 6
CONTINUOUS
 0
LINE
 8
WHITE
 10
-1.044
 20
9.555
 30
0.0000
 11
-.916999
 21
9.734
 31
0.0000
 6
CONTINUOUS
 0
LINE
 8
WHITE
 10
-.916999
 20
9.734
 30
0.0000
 11
-.842
 21
9.850999
 31
0.0000
 6
CONTINUOUS
 0
LINE
 8
WHITE
 10
-.842
 20
9.850999
 30
0.0000
 11
-.760999
 21
9.894
 31
0.0000
 6
CONTINUOUS
 0
LINE
 8
WHITE
 10
-.760999
 20
9.894
 30
0.0000
 11
-.75
 21
9.932999
 31
0.0000
 6
CONTINUOUS
 0
LINE
 8
WHITE
 10
-.75
 20
9.932999
 30
0.0000
 11
-.676999
 21
9.996999
 31
0.0000
 6
CONTINUOUS
 0
LINE
 8
WHITE
 10
-.676999
 20
9.996999
 30
0.0000
 11
-.625999
 21
10.053
 31
0.0000
 6
CONTINUOUS
 0
LINE
 8
WHITE
 10
-.625999
 20
10.053
 30
0.0000
 11
-.564999
 21
10.088
 31
0.0000
 6
CONTINUOUS
 0
LINE
 8
WHITE
 10
-.564999
 20
10.088
 30
0.0000
 11
-.508
 21
10.088
 31
0.0000
 6
CONTINUOUS
 0
LINE
 8
WHITE
 10
-.508
 20
10.088
 30
0.0000
 11
-.402999
 21
10.246
 31
0.0000
 6
CONTINUOUS
 0
LINE
 8
WHITE
 10
-.402999
 20
10.246
 30
0.0000
 11
-.34
 21
10.317
 31
0.0000
 6
CONTINUOUS
 0
LINE
 8
WHITE
 10
-.34
 20
10.317
 30
0.0000
 11
-.237
 21
10.359
 31
0.0000
 6
CONTINUOUS
 0
LINE
 8
WHITE
 10
-.237
 20
10.359
 30
0.0000
 11
-.282999
 21
10.279
 31
0.0000
 6
CONTINUOUS
 0
LINE
 8
WHITE
 10
-.282999
 20
10.279
 30
0.0000
 11
-.275999
 21
10.155
 31
0.0000
 6
CONTINUOUS
 0
LINE
 8
WHITE
 10
-.275999
 20
10.155
 30
0.0000
 11
-.226999
 21
10.226
 31
0.0000
 6
CONTINUOUS
 0
LINE
 8
WHITE
 10
-.226999
 20
10.226
 30
0.0000
 11
-.214
 21
10.298
 31
0.0000
 6
CONTINUOUS
 0
LINE
 8
WHITE
 10
-.214
 20
10.298
 30
0.0000
 11
-.181999
 21
10.298
 31
0.0000
 6
CONTINUOUS
 0
LINE
 8
WHITE
 10
-.181999
 20
10.298
 30
0.0000
 11
-.165999
 21
10.169
 31
0.0000
 6
CONTINUOUS
 0
ARC
 8
WHITE
 10
-.1259
 20
10.1735
 30
 0
 40
.040351
 50
186.4029
 51
252.5527
 6
CONTINUOUS
 0
LINE
 8
WHITE
 10
-.137999
 20
10.135
 30
0.0000
 11
-.093999
 21
10.123
 31
0.0000
 6
CONTINUOUS
 0
LINE
 8
WHITE
 10
-.093999
 20
10.123
 30
0.0000
 11
-.067
 21
10.102
 31
0.0000
 6
CONTINUOUS
 0
ARC
 8
WHITE
 10
-.0788
 20
10.0876
 30
 0
 40
.018617
 50
272.4628
 51
50.66729
 6
CONTINUOUS
 0
LINE
 8
WHITE
 10
-.078
 20
10.069
 30
0.0000
 11
-.092
 21
10.069
 31
0.0000
 6
CONTINUOUS
 0
LINE
 8
WHITE
 10
-.092
 20
10.069
 30
0.0000
 11
-.046
 21
10.004
 31
0.0000
 6
CONTINUOUS
 0
ARC
 8
WHITE
 10
-.0613
 20
9.993499
 30
 0
 40
.018556
 50
277.0871
 51
34.46082
 6
CONTINUOUS
 0
LINE
 8
WHITE
 10
-.059
 20
9.975
 30
0.0000
 11
-.096
 21
9.968999
 31
0.0000
 6
CONTINUOUS
 0
LINE
 8
WHITE
 10
-.096
 20
9.968999
 30
0.0000
 11
.003
 21
9.928
 31
0.0000
 6
CONTINUOUS
 0
ARC
 8
WHITE
 10
-.0035
 20
9.910799
 30
 0
 40
.018387
 50
284.1874
 51
69.29807
 6
CONTINUOUS
 0
LINE
 8
WHITE
 10
.001
 20
9.892999
 30
0.0000
 11
-.041
 21
9.881999
 31
0.0000
 6
CONTINUOUS
 0
LINE
 8
WHITE
 10
-.041
 20
9.881999
 30
0.0000
 11
.013
 21
9.803999
 31
0.0000
 6
CONTINUOUS
 0
LINE
 8
WHITE
 10
.013
 20
9.803999
 30
0.0000
 11
.111
 21
9.739999
 31
0.0000
 6
CONTINUOUS
 0
LINE
 8
WHITE
 10
.111
 20
9.739999
 30
0.0000
 11
.119999
 21
9.657999
 31
0.0000
 6
CONTINUOUS
 0
LINE
 8
WHITE
 10
.119999
 20
9.657999
 30
0.0000
 11
.261
 21
9.434
 31
0.0000
 6
CONTINUOUS
 0
LINE
 8
WHITE
 10
.261
 20
9.434
 30
0.0000
 11
.456
 21
9.184
 31
0.0000
 6
CONTINUOUS
 0
LINE
 8
WHITE
 10
.456
 20
9.184
 30
0.0000
 11
.508
 21
9.147
 31
0.0000
 6
CONTINUOUS
 0
LINE
 8
WHITE
 10
.508
 20
9.147
 30
0.0000
 11
.513
 21
9.088999
 31
0.0000
 6
CONTINUOUS
 0
LINE
 8
WHITE
 10
.513
 20
9.088999
 30
0.0000
 11
.479
 21
9.027999
 31
0.0000
 6
CONTINUOUS
 0
LINE
 8
WHITE
 10
.479
 20
9.027999
 30
0.0000
 11
.472999
 21
8.963999
 31
0.0000
 6
CONTINUOUS
 0
LINE
 8
WHITE
 10
.472999
 20
8.963999
 30
0.0000
 11
.419999
 21
8.885
 31
0.0000
 6
CONTINUOUS
 0
LINE
 8
WHITE
 10
.419999
 20
8.885
 30
0.0000
 11
.333999
 21
8.845
 31
0.0000
 6
CONTINUOUS
 0
LINE
 8
WHITE
 10
.333999
 20
8.845
 30
0.0000
 11
.210999
 21
8.871999
 31
0.0000
 6
CONTINUOUS
 0
LINE
 8
WHITE
 10
.210999
 20
8.871999
 30
0.0000
 11
.155
 21
8.918999
 31
0.0000
 6
CONTINUOUS
 0
LINE
 8
WHITE
 10
.155
 20
8.918999
 30
0.0000
 11
.097
 21
9.027
 31
0.0000
 6
CONTINUOUS
 0
LINE
 8
WHITE
 10
.097
 20
9.027
 30
0.0000
 11
.014999
 21
9.116999
 31
0.0000
 6
CONTINUOUS
 0
LINE
 8
WHITE
 10
.014999
 20
9.116999
 30
0.0000
 11
-.103
 21
9.168
 31
0.0000
 6
CONTINUOUS
 0
LINE
 8
WHITE
 10
-.103
 20
9.168
 30
0.0000
 11
-.319
 21
9.130999
 31
0.0000
 6
CONTINUOUS
 0
LINE
 8
WHITE
 10
-.319
 20
9.130999
 30
0.0000
 11
-.386
 21
9.154999
 31
0.0000
 6
CONTINUOUS
 0
LINE
 8
WHITE
 10
-.386
 20
9.154999
 30
0.0000
 11
-.344999
 21
9.001
 31
0.0000
 6
CONTINUOUS
 0
LINE
 8
WHITE
 10
-.344999
 20
9.001
 30
0.0000
 11
-.328999
 21
8.809
 31
0.0000
 6
CONTINUOUS
 0
LINE
 8
WHITE
 10
-.328999
 20
8.809
 30
0.0000
 11
-.308999
 21
8.618
 31
0.0000
 6
CONTINUOUS
 0
LINE
 8
WHITE
 10
-.308999
 20
8.618
 30
0.0000
 11
-.246999
 21
8.463999
 31
0.0000
 6
CONTINUOUS
 0
LINE
 8
WHITE
 10
-.246999
 20
8.463999
 30
0.0000
 11
-.123
 21
8.322999
 31
0.0000
 6
CONTINUOUS
 0
LINE
 8
WHITE
 10
-.123
 20
8.322999
 30
0.0000
 11
-.028
 21
8.156
 31
0.0000
 6
CONTINUOUS
 0
LINE
 8
WHITE
 10
-.028
 20
8.156
 30
0.0000
 11
-.004999
 21
8.048
 31
0.0000
 6
CONTINUOUS
 0
ARC
 8
WHITE
 10
.0339
 20
8.0563
 30
 0
 40
.039775
 50
192.0444
 51
278.8228
 6
CONTINUOUS
 0
LINE
 8
WHITE
 10
.039999
 20
8.017
 30
0.0000
 11
.118
 21
8.027
 31
0.0000
 6
CONTINUOUS
 0
ARC
 8
WHITE
 10
.122699
 20
7.987
 30
 0
 40
.040275
 50
1.420659
 51
96.70152
 6
CONTINUOUS
 0
LINE
 8
WHITE
 10
.163
 20
7.987999
 30
0.0000
 11
.163
 21
7.903999
 31
0.0000
 6
CONTINUOUS
 0
ARC
 8
WHITE
 10
.123
 20
7.903499
 30
 0
 40
.040003
 50
278.6372
 51
.71616
 6
CONTINUOUS
 0
LINE
 8
WHITE
 10
.128999
 20
7.863999
 30
0.0000
 11
.025
 21
7.850999
 31
0.0000
 6
CONTINUOUS
 0
ARC
 8
WHITE
 10
.0309
 20
7.8111
 30
 0
 40
.040333
 50
98.41135
 51
171.5888
 6
CONTINUOUS
 0
LINE
 8
WHITE
 10
-.008999
 20
7.816999
 30
0.0000
 11
-.009999
 21
7.809
 31
0.0000
 6
CONTINUOUS
 0
ARC
 8
WHITE
 10
.029999
 20
7.803299
 30
 0
 40
.040404
 50
171.89
 51
274.2574
 6
CONTINUOUS
 0
LINE
 8
WHITE
 10
.032999
 20
7.763
 30
0.0000
 11
.547999
 21
7.804999
 31
0.0000
 6
CONTINUOUS
 0
LINE
 8
WHITE
 10
.547999
 20
7.804999
 30
0.0000
 11
.611999
 21
7.797999
 31
0.0000
 6
CONTINUOUS
 0
LINE
 8
WHITE
 10
.611999
 20
7.797999
 30
0.0000
 11
.690999
 21
7.730999
 31
0.0000
 6
CONTINUOUS
 0
LINE
 8
WHITE
 10
.690999
 20
7.730999
 30
0.0000
 11
.754
 21
7.703
 31
0.0000
 6
CONTINUOUS
 0
LINE
 8
WHITE
 10
.754
 20
7.703
 30
0.0000
 11
.781
 21
7.656
 31
0.0000
 6
CONTINUOUS
 0
LINE
 8
WHITE
 10
.781
 20
7.656
 30
0.0000
 11
.8
 21
7.445
 31
0.0000
 6
CONTINUOUS
 0
LINE
 8
WHITE
 10
.8
 20
7.445
 30
0.0000
 11
.825999
 21
7.336999
 31
0.0000
 6
CONTINUOUS
 0
LINE
 8
WHITE
 10
.825999
 20
7.336999
 30
0.0000
 11
.873
 21
7.185999
 31
0.0000
 6
CONTINUOUS
 0
LINE
 8
WHITE
 10
.873
 20
7.185999
 30
0.0000
 11
.887
 21
7.103
 31
0.0000
 6
CONTINUOUS
 0
LINE
 8
WHITE
 10
.887
 20
7.103
 30
0.0000
 11
.856999
 21
6.992
 31
0.0000
 6
CONTINUOUS
 0
LINE
 8
WHITE
 10
.856999
 20
6.992
 30
0.0000
 11
.782999
 21
6.895999
 31
0.0000
 6
CONTINUOUS
 0
LINE
 8
WHITE
 10
.782999
 20
6.895999
 30
0.0000
 11
.74
 21
6.808
 31
0.0000
 6
CONTINUOUS
 0
LINE
 8
WHITE
 10
.74
 20
6.808
 30
0.0000
 11
.700999
 21
6.743
 31
0.0000
 6
CONTINUOUS
 0
LINE
 8
WHITE
 10
.700999
 20
6.743
 30
0.0000
 11
.651
 21
6.717
 31
0.0000
 6
CONTINUOUS
 0
LINE
 8
WHITE
 10
.651
 20
6.717
 30
0.0000
 11
.492
 21
6.600999
 31
0.0000
 6
CONTINUOUS
 0
ARC
 8
WHITE
 10
.4686
 20
6.633399
 30
 0
 40
.039966
 50
195.0789
 51
305.8376
 6
CONTINUOUS
 0
LINE
 8
WHITE
 10
.43
 20
6.623
 30
0.0000
 11
.414999
 21
6.678999
 31
0.0000
 6
CONTINUOUS
 0
LINE
 8
WHITE
 10
.414999
 20
6.678999
 30
0.0000
 11
.425
 21
6.791999
 31
0.0000
 6
CONTINUOUS
 0
LINE
 8
WHITE
 10
.425
 20
6.791999
 30
0.0000
 11
.469999
 21
6.895999
 31
0.0000
 6
CONTINUOUS
 0
LINE
 8
WHITE
 10
.469999
 20
6.895999
 30
0.0000
 11
.546
 21
6.98
 31
0.0000
 6
CONTINUOUS
 0
LINE
 8
WHITE
 10
.546
 20
6.98
 30
0.0000
 11
.652
 21
7.008999
 31
0.0000
 6
CONTINUOUS
 0
LINE
 8
WHITE
 10
.652
 20
7.008999
 30
0.0000
 11
.700999
 21
7.039
 31
0.0000
 6
CONTINUOUS
 0
LINE
 8
WHITE
 10
.700999
 20
7.039
 30
0.0000
 11
.712
 21
7.071
 31
0.0000
 6
CONTINUOUS
 0
LINE
 8
WHITE
 10
.712
 20
7.071
 30
0.0000
 11
.697
 21
7.098
 31
0.0000
 6
CONTINUOUS
 0
LINE
 8
WHITE
 10
.697
 20
7.098
 30
0.0000
 11
.663999
 21
7.109
 31
0.0000
 6
CONTINUOUS
 0
LINE
 8
WHITE
 10
.663999
 20
7.109
 30
0.0000
 11
.633
 21
7.142
 31
0.0000
 6
CONTINUOUS
 0
LINE
 8
WHITE
 10
.633
 20
7.142
 30
0.0000
 11
.652
 21
7.192999
 31
0.0000
 6
CONTINUOUS
 0
LINE
 8
WHITE
 10
.652
 20
7.192999
 30
0.0000
 11
.628
 21
7.405
 31
0.0000
 6
CONTINUOUS
 0
LINE
 8
WHITE
 10
.628
 20
7.405
 30
0.0000
 11
.609
 21
7.498
 31
0.0000
 6
CONTINUOUS
 0
LINE
 8
WHITE
 10
.609
 20
7.498
 30
0.0000
 11
.586
 21
7.531
 31
0.0000
 6
CONTINUOUS
 0
ARC
 8
WHITE
 10
.5542
 20
7.507699
 30
 0
 40
.039422
 50
36.2304
 51
103.5071
 6
CONTINUOUS
 0
LINE
 8
WHITE
 10
.545
 20
7.546
 30
0.0000
 11
.455
 21
7.526999
 31
0.0000
 6
CONTINUOUS
 0
LINE
 8
WHITE
 10
.455
 20
7.526999
 30
0.0000
 11
.352999
 21
7.481999
 31
0.0000
 6
CONTINUOUS
 0
LINE
 8
WHITE
 10
.352999
 20
7.481999
 30
0.0000
 11
.175999
 21
7.36
 31
0.0000
 6
CONTINUOUS
 0
LINE
 8
WHITE
 10
.175999
 20
7.36
 30
0.0000
 11
.002
 21
7.224999
 31
0.0000
 6
CONTINUOUS
 0
LINE
 8
WHITE
 10
.002
 20
7.224999
 30
0.0000
 11
-.204999
 21
7.118999
 31
0.0000
 6
CONTINUOUS
 0
LINE
 8
WHITE
 10
-.204999
 20
7.118999
 30
0.0000
 11
-.358999
 21
7.106999
 31
0.0000
 6
CONTINUOUS
 0
LINE
 8
WHITE
 10
-.358999
 20
7.106999
 30
0.0000
 11
-.433999
 21
7.135
 31
0.0000
 6
CONTINUOUS
 0
LINE
 8
WHITE
 10
-.433999
 20
7.135
 30
0.0000
 11
-.467
 21
7.162
 31
0.0000
 6
CONTINUOUS
 0
ARC
 8
WHITE
 10
-.4924
 20
7.131299
 30
 0
 40
.039845
 50
50.39695
 51
156.7827
 6
CONTINUOUS
 0
LINE
 8
WHITE
 10
-.528999
 20
7.146999
 30
0.0000
 11
-.547999
 21
7.105
 31
0.0000
 6
CONTINUOUS
 0
LINE
 8
WHITE
 10
-.547999
 20
7.105
 30
0.0000
 11
-.691999
 21
7.048999
 31
0.0000
 6
CONTINUOUS
 0
LINE
 8
WHITE
 10
-.691999
 20
7.048999
 30
0.0000
 11
-.763
 21
6.928999
 31
0.0000
 6
CONTINUOUS
 0
LINE
 8
WHITE
 10
-.763
 20
6.928999
 30
0.0000
 11
-.787
 21
6.78
 31
0.0000
 6
CONTINUOUS
 0
LINE
 8
WHITE
 10
-.787
 20
6.78
 30
0.0000
 11
-.800999
 21
6.622
 31
0.0000
 6
CONTINUOUS
 0
LINE
 8
WHITE
 10
-.800999
 20
6.622
 30
0.0000
 11
-.841
 21
6.475999
 31
0.0000
 6
CONTINUOUS
 0
LINE
 8
WHITE
 10
-.841
 20
6.475999
 30
0.0000
 11
-.861
 21
6.227
 31
0.0000
 6
CONTINUOUS
 0
LINE
 8
WHITE
 10
-.861
 20
6.227
 30
0.0000
 11
-.879
 21
6.103
 31
0.0000
 6
CONTINUOUS
 0
LINE
 8
WHITE
 10
-.879
 20
6.103
 30
0.0000
 11
-.912
 21
5.985
 31
0.0000
 6
CONTINUOUS
 0
LINE
 8
WHITE
 10
-.912
 20
5.985
 30
0.0000
 11
-.894999
 21
5.673999
 31
0.0000
 6
CONTINUOUS
 0
LINE
 8
WHITE
 10
-.894999
 20
5.673999
 30
0.0000
 11
-.880999
 21
5.635
 31
0.0000
 6
CONTINUOUS
 0
ARC
 8
WHITE
 10
-.843099
 20
5.6482
 30
 0
 40
.040132
 50
199.2025
 51
268.7174
 6
CONTINUOUS
 0
LINE
 8
WHITE
 10
-.843999
 20
5.607999
 30
0.0000
 11
.386999
 21
5.607999
 31
0.0000
 6
CONTINUOUS
 0
ARC
 8
WHITE
 10
.386999
 20
5.103999
 30
 0
 40
.504
 50
.000054
 51
90
 6
CONTINUOUS
 0
LINE
 8
WHITE
 10
.890999
 20
5.104
 30
0.0000
 11
.890999
 21
2.904
 31
0.0000
 6
CONTINUOUS
 0
ARC
 8
WHITE
 10
.386999
 20
2.904
 30
 0
 40
.504
 50
270
 51
0
 6
CONTINUOUS
 0
LINE
 8
WHITE
 10
.386999
 20
2.4
 30
0.0000
 11
-.843999
 21
2.4
 31
0.0000
 6
CONTINUOUS
 0
ARC
 8
WHITE
 10
-.843199
 20
2.36
 30
 0
 40
.040007
 50
91.14576
 51
161.0214
 6
CONTINUOUS
 0
LINE
 8
WHITE
 10
-.880999
 20
2.372999
 30
0.0000
 11
-.894999
 21
2.332999
 31
0.0000
 6
CONTINUOUS
 0
LINE
 8
WHITE
 10
-.894999
 20
2.332999
 30
0.0000
 11
-.912
 21
2.023
 31
0.0000
 6
CONTINUOUS
 0
LINE
 8
WHITE
 10
-.912
 20
2.023
 30
0.0000
 11
-.879
 21
1.904
 31
0.0000
 6
CONTINUOUS
 0
LINE
 8
WHITE
 10
-.879
 20
1.904
 30
0.0000
 11
-.861
 21
1.781
 31
0.0000
 6
CONTINUOUS
 0
LINE
 8
WHITE
 10
-.861
 20
1.781
 30
0.0000
 11
-.841
 21
1.531999
 31
0.0000
 6
CONTINUOUS
 0
LINE
 8
WHITE
 10
-.841
 20
1.531999
 30
0.0000
 11
-.800999
 21
1.384999
 31
0.0000
 6
CONTINUOUS
 0
LINE
 8
WHITE
 10
-.800999
 20
1.384999
 30
0.0000
 11
-.787
 21
1.226999
 31
0.0000
 6
CONTINUOUS
 0
LINE
 8
WHITE
 10
-.787
 20
1.226999
 30
0.0000
 11
-.763
 21
1.078999
 31
0.0000
 6
CONTINUOUS
 0
LINE
 8
WHITE
 10
-.763
 20
1.078999
 30
0.0000
 11
-.691999
 21
.958999
 31
0.0000
 6
CONTINUOUS
 0
LINE
 8
WHITE
 10
-.691999
 20
.958999
 30
0.0000
 11
-.547999
 21
.902
 31
0.0000
 6
CONTINUOUS
 0
LINE
 8
WHITE
 10
-.547999
 20
.902
 30
0.0000
 11
-.528999
 21
.86
 31
0.0000
 6
CONTINUOUS
 0
ARC
 8
WHITE
 10
-.492699
 20
.876399
 30
 0
 40
.039832
 50
204.313
 51
310.211
 6
CONTINUOUS
 0
LINE
 8
WHITE
 10
-.467
 20
.846
 30
0.0000
 11
-.433999
 21
.871999
 31
0.0000
 6
CONTINUOUS
 0
LINE
 8
WHITE
 10
-.433999
 20
.871999
 30
0.0000
 11
-.358999
 21
.899999
 31
0.0000
 6
CONTINUOUS
 0
LINE
 8
WHITE
 10
-.358999
 20
.899999
 30
0.0000
 11
-.204999
 21
.888999
 31
0.0000
 6
CONTINUOUS
 0
LINE
 8
WHITE
 10
-.204999
 20
.888999
 30
0.0000
 11
.002
 21
.782
 31
0.0000
 6
CONTINUOUS
 0
LINE
 8
WHITE
 10
.002
 20
.782
 30
0.0000
 11
.175999
 21
.647
 31
0.0000
 6
CONTINUOUS
 0
LINE
 8
WHITE
 10
.175999
 20
.647
 30
0.0000
 11
.352999
 21
.526
 31
0.0000
 6
CONTINUOUS
 0
LINE
 8
WHITE
 10
.352999
 20
.526
 30
0.0000
 11
.455
 21
.481
 31
0.0000
 6
CONTINUOUS
 0
LINE
 8
WHITE
 10
.455
 20
.481
 30
0.0000
 11
.545
 21
.460999
 31
0.0000
 6
CONTINUOUS
 0
ARC
 8
WHITE
 10
.5533
 20
.5001
 30
 0
 40
.039971
 50
258.0154
 51
324.7617
 6
CONTINUOUS
 0
LINE
 8
WHITE
 10
.586
 20
.476999
 30
0.0000
 11
.609
 21
.509999
 31
0.0000
 6
CONTINUOUS
 0
LINE
 8
WHITE
 10
.609
 20
.509999
 30
0.0000
 11
.628
 21
.602999
 31
0.0000
 6
CONTINUOUS
 0
LINE
 8
WHITE
 10
.628
 20
.602999
 30
0.0000
 11
.652
 21
.814999
 31
0.0000
 6
CONTINUOUS
 0
LINE
 8
WHITE
 10
.652
 20
.814999
 30
0.0000
 11
.633
 21
.865
 31
0.0000
 6
CONTINUOUS
 0
LINE
 8
WHITE
 10
.633
 20
.865
 30
0.0000
 11
.663999
 21
.898
 31
0.0000
 6
CONTINUOUS
 0
LINE
 8
WHITE
 10
.663999
 20
.898
 30
0.0000
 11
.697
 21
.91
 31
0.0000
 6
CONTINUOUS
 0
LINE
 8
WHITE
 10
.697
 20
.91
 30
0.0000
 11
.712
 21
.936999
 31
0.0000
 6
CONTINUOUS
 0
LINE
 8
WHITE
 10
.712
 20
.936999
 30
0.0000
 11
.700999
 21
.968999
 31
0.0000
 6
CONTINUOUS
 0
LINE
 8
WHITE
 10
.700999
 20
.968999
 30
0.0000
 11
.652
 21
.998
 31
0.0000
 6
CONTINUOUS
 0
LINE
 8
WHITE
 10
.652
 20
.998
 30
0.0000
 11
.546
 21
1.027999
 31
0.0000
 6
CONTINUOUS
 0
LINE
 8
WHITE
 10
.546
 20
1.027999
 30
0.0000
 11
.469999
 21
1.111999
 31
0.0000
 6
CONTINUOUS
 0
LINE
 8
WHITE
 10
.469999
 20
1.111999
 30
0.0000
 11
.425
 21
1.215999
 31
0.0000
 6
CONTINUOUS
 0
LINE
 8
WHITE
 10
.425
 20
1.215999
 30
0.0000
 11
.414999
 21
1.328999
 31
0.0000
 6
CONTINUOUS
 0
LINE
 8
WHITE
 10
.414999
 20
1.328999
 30
0.0000
 11
.43
 21
1.384999
 31
0.0000
 6
CONTINUOUS
 0
ARC
 8
WHITE
 10
.468899
 20
1.3737
 30
 0
 40
.040508
 50
55.25111
 51
163.802
 6
CONTINUOUS
 0
LINE
 8
WHITE
 10
.492
 20
1.406999
 30
0.0000
 11
.651
 21
1.291
 31
0.0000
 6
CONTINUOUS
 0
LINE
 8
WHITE
 10
.651
 20
1.291
 30
0.0000
 11
.700999
 21
1.264999
 31
0.0000
 6
CONTINUOUS
 0
LINE
 8
WHITE
 10
.700999
 20
1.264999
 30
0.0000
 11
.74
 21
1.2
 31
0.0000
 6
CONTINUOUS
 0
LINE
 8
WHITE
 10
.74
 20
1.2
 30
0.0000
 11
.782999
 21
1.111999
 31
0.0000
 6
CONTINUOUS
 0
LINE
 8
WHITE
 10
.782999
 20
1.111999
 30
0.0000
 11
.856999
 21
1.016
 31
0.0000
 6
CONTINUOUS
 0
LINE
 8
WHITE
 10
.856999
 20
1.016
 30
0.0000
 11
.887
 21
.904999
 31
0.0000
 6
CONTINUOUS
 0
LINE
 8
WHITE
 10
.887
 20
.904999
 30
0.0000
 11
.873
 21
.820999
 31
0.0000
 6
CONTINUOUS
 0
LINE
 8
WHITE
 10
.873
 20
.820999
 30
0.0000
 11
.825999
 21
.671
 31
0.0000
 6
CONTINUOUS
 0
LINE
 8
WHITE
 10
.825999
 20
.671
 30
0.0000
 11
.8
 21
.561999
 31
0.0000
 6
CONTINUOUS
 0
LINE
 8
WHITE
 10
.8
 20
.561999
 30
0.0000
 11
.781
 21
.351999
 31
0.0000
 6
CONTINUOUS
 0
LINE
 8
WHITE
 10
.781
 20
.351999
 30
0.0000
 11
.754
 21
.305
 31
0.0000
 6
CONTINUOUS
 0
LINE
 8
WHITE
 10
.754
 20
.305
 30
0.0000
 11
.690999
 21
.277
 31
0.0000
 6
CONTINUOUS
 0
LINE
 8
WHITE
 10
.690999
 20
.277
 30
0.0000
 11
.611999
 21
.209999
 31
0.0000
 6
CONTINUOUS
 0
LINE
 8
WHITE
 10
.611999
 20
.209999
 30
0.0000
 11
.547999
 21
.202
 31
0.0000
 6
CONTINUOUS
 0
LINE
 8
WHITE
 10
.547999
 20
.202
 30
0.0000
 11
.032999
 21
.244
 31
0.0000
 6
CONTINUOUS
 0
ARC
 8
WHITE
 10
.029799
 20
.203999
 30
 0
 40
.040127
 50
85.42608
 51
187.1604
 6
CONTINUOUS
 0
LINE
 8
WHITE
 10
-.009999
 20
.199
 30
0.0000
 11
-.008999
 21
.190999
 31
0.0000
 6
CONTINUOUS
 0
ARC
 8
WHITE
 10
.030999
 20
.196999
 30
 0
 40
.040447
 50
188.5308
 51
261.4692
 6
CONTINUOUS
 0
LINE
 8
WHITE
 10
.025
 20
.157
 30
0.0000
 11
.128999
 21
.143
 31
0.0000
 6
CONTINUOUS
 0
ARC
 8
WHITE
 10
.122699
 20
.1032
 30
 0
 40
.040295
 50
1.137233
 51
81.0052
 6
CONTINUOUS
 0
LINE
 8
WHITE
 10
.163
 20
.104
 30
0.0000
 11
.163
 21
.019999
 31
0.0000
 6
CONTINUOUS
 0
ARC
 8
WHITE
 10
.123
 20
.0197
 30
 0
 40
.040001
 50
262.8217
 51
.42971
 6
CONTINUOUS
 0
LINE
 8
WHITE
 10
.118
 20
-.019999
 30
0.0000
 11
.039999
 21
-.008999
 31
0.0000
 6
CONTINUOUS
 0
ARC
 8
WHITE
 10
.034299
 20
-.0489
 30
 0
 40
.040305
 50
81.8699
 51
167.2399
 6
CONTINUOUS
 0
LINE
 8
WHITE
 10
-.004999
 20
-.039999
 30
0.0000
 11
-.028
 21
-.149
 31
0.0000
 6
CONTINUOUS
 0
LINE
 8
WHITE
 10
-.028
 20
-.149
 30
0.0000
 11
-.123
 21
-.314999
 31
0.0000
 6
CONTINUOUS
 0
LINE
 8
WHITE
 10
-.123
 20
-.314999
 30
0.0000
 11
-.246999
 21
-.456999
 31
0.0000
 6
CONTINUOUS
 0
LINE
 8
WHITE
 10
-.246999
 20
-.456999
 30
0.0000
 11
-.308999
 21
-.611
 31
0.0000
 6
CONTINUOUS
 0
LINE
 8
WHITE
 10
-.308999
 20
-.611
 30
0.0000
 11
-.328999
 21
-.800999
 31
0.0000
 6
CONTINUOUS
 0
LINE
 8
WHITE
 10
-.328999
 20
-.800999
 30
0.0000
 11
-.344999
 21
-.992999
 31
0.0000
 6
CONTINUOUS
 0
LINE
 8
WHITE
 10
-.344999
 20
-.992999
 30
0.0000
 11
-.386
 21
-1.146999
 31
0.0000
 6
CONTINUOUS
 0
LINE
 8
WHITE
 10
-.386
 20
-1.146999
 30
0.0000
 11
-.319
 21
-1.123
 31
0.0000
 6
CONTINUOUS
 0
LINE
 8
WHITE
 10
-.319
 20
-1.123
 30
0.0000
 11
-.103
 21
-1.161
 31
0.0000
 6
CONTINUOUS
 0
LINE
 8
WHITE
 10
-.103
 20
-1.161
 30
0.0000
 11
.014999
 21
-1.108999
 31
0.0000
 6
CONTINUOUS
 0
LINE
 8
WHITE
 10
.014999
 20
-1.108999
 30
0.0000
 11
.097
 21
-1.019
 31
0.0000
 6
CONTINUOUS
 0
LINE
 8
WHITE
 10
.097
 20
-1.019
 30
0.0000
 11
.155
 21
-.911
 31
0.0000
 6
CONTINUOUS
 0
LINE
 8
WHITE
 10
.155
 20
-.911
 30
0.0000
 11
.210999
 21
-.864
 31
0.0000
 6
CONTINUOUS
 0
LINE
 8
WHITE
 10
.210999
 20
-.864
 30
0.0000
 11
.333999
 21
-.837
 31
0.0000
 6
CONTINUOUS
 0
LINE
 8
WHITE
 10
.333999
 20
-.837
 30
0.0000
 11
.419999
 21
-.878
 31
0.0000
 6
CONTINUOUS
 0
LINE
 8
WHITE
 10
.419999
 20
-.878
 30
0.0000
 11
.472999
 21
-.955999
 31
0.0000
 6
CONTINUOUS
 0
LINE
 8
WHITE
 10
.472999
 20
-.955999
 30
0.0000
 11
.479
 21
-1.019999
 31
0.0000
 6
CONTINUOUS
 0
LINE
 8
WHITE
 10
.479
 20
-1.019999
 30
0.0000
 11
.513
 21
-1.080999
 31
0.0000
 6
CONTINUOUS
 0
LINE
 8
WHITE
 10
.513
 20
-1.080999
 30
0.0000
 11
.508
 21
-1.139
 31
0.0000
 6
CONTINUOUS
 0
LINE
 8
WHITE
 10
.508
 20
-1.139
 30
0.0000
 11
.456
 21
-1.175999
 31
0.0000
 6
CONTINUOUS
 0
LINE
 8
WHITE
 10
.456
 20
-1.175999
 30
0.0000
 11
.261
 21
-1.427
 31
0.0000
 6
CONTINUOUS
 0
LINE
 8
WHITE
 10
.261
 20
-1.427
 30
0.0000
 11
.119999
 21
-1.649999
 31
0.0000
 6
CONTINUOUS
 0
LINE
 8
WHITE
 10
.119999
 20
-1.649999
 30
0.0000
 11
.111
 21
-1.731999
 31
0.0000
 6
CONTINUOUS
 0
LINE
 8
WHITE
 10
.111
 20
-1.731999
 30
0.0000
 11
.013
 21
-1.797
 31
0.0000
 6
CONTINUOUS
 0
LINE
 8
WHITE
 10
.013
 20
-1.797
 30
0.0000
 11
-.041
 21
-1.873999
 31
0.0000
 6
CONTINUOUS
 0
LINE
 8
WHITE
 10
-.041
 20
-1.873999
 30
0.0000
 11
.001
 21
-1.884999
 31
0.0000
 6
CONTINUOUS
 0
ARC
 8
WHITE
 10
-.004499
 20
-1.902899
 30
 0
 40
.018725
 50
293.6821
 51
72.91977
 6
CONTINUOUS
 0
LINE
 8
WHITE
 10
.003
 20
-1.919999
 30
0.0000
 11
-.096
 21
-1.962
 31
0.0000
 6
CONTINUOUS
 0
LINE
 8
WHITE
 10
-.096
 20
-1.962
 30
0.0000
 11
-.059
 21
-1.967
 31
0.0000
 6
CONTINUOUS
 0
ARC
 8
WHITE
 10
-.060699
 20
-1.9852
 30
 0
 40
.018279
 50
323.6955
 51
84.66368
 6
CONTINUOUS
 0
LINE
 8
WHITE
 10
-.046
 20
-1.996
 30
0.0000
 11
-.092
 21
-2.061
 31
0.0000
 6
CONTINUOUS
 0
LINE
 8
WHITE
 10
-.092
 20
-2.061
 30
0.0000
 11
-.078
 21
-2.061
 31
0.0000
 6
CONTINUOUS
 0
ARC
 8
WHITE
 10
-.0769
 20
-2.078999
 30
 0
 40
.018033
 50
303.4246
 51
93.49706
 6
CONTINUOUS
 0
LINE
 8
WHITE
 10
-.067
 20
-2.094
 30
0.0000
 11
-.093999
 21
-2.115
 31
0.0000
 6
CONTINUOUS
 0
LINE
 8
WHITE
 10
-.093999
 20
-2.115
 30
0.0000
 11
-.137999
 21
-2.127
 31
0.0000
 6
CONTINUOUS
 0
ARC
 8
WHITE
 10
-.126599
 20
-2.1649
 30
 0
 40
.039577
 50
106.7408
 51
174.3469
 6
CONTINUOUS
 0
LINE
 8
WHITE
 10
-.165999
 20
-2.161
 30
0.0000
 11
-.181999
 21
-2.290999
 31
0.0000
 6
CONTINUOUS
 0
LINE
 8
WHITE
 10
-.181999
 20
-2.290999
 30
0.0000
 11
-.214
 21
-2.290999
 31
0.0000
 6
CONTINUOUS
 0
LINE
 8
WHITE
 10
-.214
 20
-2.290999
 30
0.0000
 11
-.226999
 21
-2.219
 31
0.0000
 6
CONTINUOUS
 0
LINE
 8
WHITE
 10
-.226999
 20
-2.219
 30
0.0000
 11
-.275999
 21
-2.148
 31
0.0000
 6
CONTINUOUS
 0
LINE
 8
WHITE
 10
-.275999
 20
-2.148
 30
0.0000
 11
-.282999
 21
-2.270999
 31
0.0000
 6
CONTINUOUS
 0
LINE
 8
WHITE
 10
-.282999
 20
-2.270999
 30
0.0000
 11
-.237
 21
-2.351
 31
0.0000
 6
CONTINUOUS
 0
LINE
 8
WHITE
 10
-.237
 20
-2.351
 30
0.0000
 11
-.34
 21
-2.309
 31
0.0000
 6
CONTINUOUS
 0
LINE
 8
WHITE
 10
-.34
 20
-2.309
 30
0.0000
 11
-.402999
 21
-2.237999
 31
0.0000
 6
CONTINUOUS
 0
LINE
 8
WHITE
 10
-.402999
 20
-2.237999
 30
0.0000
 11
-.508
 21
-2.079999
 31
0.0000
 6
CONTINUOUS
 0
LINE
 8
WHITE
 10
-.508
 20
-2.079999
 30
0.0000
 11
-.564999
 21
-2.079999
 31
0.0000
 6
CONTINUOUS
 0
LINE
 8
WHITE
 10
-.564999
 20
-2.079999
 30
0.0000
 11
-.625999
 21
-2.045
 31
0.0000
 6
CONTINUOUS
 0
LINE
 8
WHITE
 10
-.625999
 20
-2.045
 30
0.0000
 11
-.676999
 21
-1.988999
 31
0.0000
 6
CONTINUOUS
 0
LINE
 8
WHITE
 10
-.676999
 20
-1.988999
 30
0.0000
 11
-.75
 21
-1.924999
 31
0.0000
 6
CONTINUOUS
 0
LINE
 8
WHITE
 10
-.75
 20
-1.924999
 30
0.0000
 11
-.760999
 21
-1.886
 31
0.0000
 6
CONTINUOUS
 0
LINE
 8
WHITE
 10
-.760999
 20
-1.886
 30
0.0000
 11
-.842
 21
-1.843
 31
0.0000
 6
CONTINUOUS
 0
LINE
 8
WHITE
 10
-.842
 20
-1.843
 30
0.0000
 11
-.916999
 21
-1.725999
 31
0.0000
 6
CONTINUOUS
 0
LINE
 8
WHITE
 10
-.916999
 20
-1.725999
 30
0.0000
 11
-1.044
 21
-1.547
 31
0.0000
 6
CONTINUOUS
 0
LINE
 8
WHITE
 10
-1.044
 20
-1.547
 30
0.0000
 11
-1.101999
 21
-1.506999
 31
0.0000
 6
CONTINUOUS
 0
LINE
 8
WHITE
 10
-1.101999
 20
-1.506999
 30
0.0000
 11
-1.133
 21
-1.452999
 31
0.0000
 6
CONTINUOUS
 0
LINE
 8
WHITE
 10
-1.133
 20
-1.452999
 30
0.0000
 11
-1.207999
 21
-1.215
 31
0.0000
 6
CONTINUOUS
 0
LINE
 8
WHITE
 10
-1.207999
 20
-1.215
 30
0.0000
 11
-1.261
 21
-1.082999
 31
0.0000
 6
CONTINUOUS
 0
LINE
 8
WHITE
 10
-1.261
 20
-1.082999
 30
0.0000
 11
-1.281
 21
-.953
 31
0.0000
 6
CONTINUOUS
 0
LINE
 8
WHITE
 10
-1.281
 20
-.953
 30
0.0000
 11
-1.324
 21
-.921999
 31
0.0000
 6
CONTINUOUS
 0
LINE
 8
WHITE
 10
-1.324
 20
-.921999
 30
0.0000
 11
-1.371999
 21
-.794
 31
0.0000
 6
CONTINUOUS
 0
LINE
 8
WHITE
 10
-1.371999
 20
-.794
 30
0.0000
 11
-1.411
 21
-.754
 31
0.0000
 6
CONTINUOUS
 0
LINE
 8
WHITE
 10
-1.411
 20
-.754
 30
0.0000
 11
-1.457
 21
-.758
 31
0.0000
 6
CONTINUOUS
 0
ARC
 8
WHITE
 10
-1.4685
 20
-.743499
 30
 0
 40
.018506
 50
128.418
 51
308.4181
 6
CONTINUOUS
 0
LINE
 8
WHITE
 10
-1.48
 20
-.728999
 30
0.0000
 11
-1.432999
 21
-.709999
 31
0.0000
 6
CONTINUOUS
 0
LINE
 8
WHITE
 10
-1.432999
 20
-.709999
 30
0.0000
 11
-1.488
 21
-.699
 31
0.0000
 6
CONTINUOUS
 0
LINE
 8
WHITE
 10
-1.488
 20
-.699
 30
0.0000
 11
-1.513
 21
-.707
 31
0.0000
 6
CONTINUOUS
 0
ARC
 8
WHITE
 10
-1.519
 20
-.6893
 30
 0
 40
.018689
 50
130.002
 51
288.7258
 6
CONTINUOUS
 0
LINE
 8
WHITE
 10
-1.531
 20
-.675
 30
0.0000
 11
-1.514
 21
-.66
 31
0.0000
 6
CONTINUOUS
 0
LINE
 8
WHITE
 10
-1.514
 20
-.66
 30
0.0000
 11
-1.458999
 21
-.640999
 31
0.0000
 6
CONTINUOUS
 0
LINE
 8
WHITE
 10
-1.458999
 20
-.640999
 30
0.0000
 11
-1.549
 21
-.591
 31
0.0000
 6
CONTINUOUS
 0
ARC
 8
WHITE
 10
-1.5388
 20
-.5757
 30
 0
 40
.018388
 50
74.82721
 51
236.3099
 6
CONTINUOUS
 0
LINE
 8
WHITE
 10
-1.534
 20
-.558
 30
0.0000
 11
-1.496
 21
-.570999
 31
0.0000
 6
CONTINUOUS
 0
LINE
 8
WHITE
 10
-1.496
 20
-.570999
 30
0.0000
 11
-1.485
 21
-.546
 31
0.0000
 6
CONTINUOUS
 0
ARC
 8
WHITE
 10
-1.520699
 20
-.5284
 30
 0
 40
.039802
 50
333.7568
 51
56.98816
 6
CONTINUOUS
 0
LINE
 8
WHITE
 10
-1.498999
 20
-.495
 30
0.0000
 11
-1.682999
 21
-.379999
 31
0.0000
 6
CONTINUOUS
 0
LINE
 8
WHITE
 10
-1.682999
 20
-.379999
 30
0.0000
 11
-1.884999
 21
-.314999
 31
0.0000
 6
CONTINUOUS
 0
LINE
 8
WHITE
 10
-1.884999
 20
-.314999
 30
0.0000
 11
-2.081
 21
-.303
 31
0.0000
 6
CONTINUOUS
 0
LINE
 8
WHITE
 10
-2.081
 20
-.303
 30
0.0000
 11
-2.280999
 21
-.321999
 31
0.0000
 6
CONTINUOUS
 0
LINE
 8
WHITE
 10
-2.280999
 20
-.321999
 30
0.0000
 11
-2.724999
 21
-.386
 31
0.0000
 6
CONTINUOUS
 0
LINE
 8
WHITE
 10
-2.724999
 20
-.386
 30
0.0000
 11
-2.986
 21
-.391999
 31
0.0000
 6
CONTINUOUS
 0
LINE
 8
WHITE
 10
-2.986
 20
-.391999
 30
0.0000
 11
-3.246
 21
-.358999
 31
0.0000
 6
CONTINUOUS
 0
ARC
 8
WHITE
 10
-3.2515
 20
-.3989
 30
 0
 40
.040277
 50
82.15155
 51
162.824
 6
CONTINUOUS
 0
LINE
 8
WHITE
 10
-3.289999
 20
-.386999
 30
0.0000
 11
-3.311
 21
-.458
 31
0.0000
 6
CONTINUOUS
 0
LINE
 8
WHITE
 10
-3.311
 20
-.458
 30
0.0000
 11
-3.311
 21
-.586
 31
0.0000
 6
CONTINUOUS
 0
LINE
 8
WHITE
 10
-3.311
 20
-.586
 30
0.0000
 11
-3.286
 21
-.751999
 31
0.0000
 6
CONTINUOUS
 0
LINE
 8
WHITE
 10
-3.286
 20
-.751999
 30
0.0000
 11
-3.326999
 21
-.707
 31
0.0000
 6
CONTINUOUS
 0
ARC
 8
WHITE
 10
-3.348999
 20
-.726999
 30
 0
 40
.029732
 50
42.27369
 51
160.3463
 6
CONTINUOUS
 0
LINE
 8
WHITE
 10
-3.377
 20
-.717
 30
0.0000
 11
-3.408999
 21
-.796999
 31
0.0000
 6
CONTINUOUS
 0
LINE
 8
WHITE
 10
-3.408999
 20
-.796999
 30
0.0000
 11
-3.529999
 21
-.93
 31
0.0000
 6
CONTINUOUS
 0
LINE
 8
WHITE
 10
-3.529999
 20
-.93
 30
0.0000
 11
-3.678999
 21
-1.021
 31
0.0000
 6
CONTINUOUS
 0
LINE
 8
WHITE
 10
-3.678999
 20
-1.021
 30
0.0000
 11
-3.750999
 21
-1.036999
 31
0.0000
 6
CONTINUOUS
 0
LINE
 8
WHITE
 10
-3.750999
 20
-1.036999
 30
0.0000
 11
-3.825999
 21
-1.024
 31
0.0000
 6
CONTINUOUS
 0
LINE
 8
WHITE
 10
-3.825999
 20
-1.024
 30
0.0000
 11
-3.740999
 21
-.987999
 31
0.0000
 6
CONTINUOUS
 0
LINE
 8
WHITE
 10
-3.740999
 20
-.987999
 30
0.0000
 11
-3.732
 21
-.968999
 31
0.0000
 6
CONTINUOUS
 0
LINE
 8
WHITE
 10
-3.732
 20
-.968999
 30
0.0000
 11
-3.944
 21
-.972
 31
0.0000
 6
CONTINUOUS
 0
LINE
 8
WHITE
 10
-3.944
 20
-.972
 30
0.0000
 11
-4.053999
 21
-.953999
 31
0.0000
 6
CONTINUOUS
 0
LINE
 8
WHITE
 10
-4.053999
 20
-.953999
 30
0.0000
 11
-4.17
 21
-.890999
 31
0.0000
 6
CONTINUOUS
 0
LINE
 8
WHITE
 10
-4.17
 20
-.890999
 30
0.0000
 11
-4.063
 21
-.92
 31
0.0000
 6
CONTINUOUS
 0
LINE
 8
WHITE
 10
-4.063
 20
-.92
 30
0.0000
 11
-4.027999
 21
-.902999
 31
0.0000
 6
CONTINUOUS
 0
LINE
 8
WHITE
 10
-4.027999
 20
-.902999
 30
0.0000
 11
-4.199999
 21
-.791
 31
0.0000
 6
CONTINUOUS
 0
LINE
 8
WHITE
 10
-4.199999
 20
-.791
 30
0.0000
 11
-4.278999
 21
-.712
 31
0.0000
 6
CONTINUOUS
 0
LINE
 8
WHITE
 10
-4.278999
 20
-.712
 30
0.0000
 11
-4.331999
 21
-.629
 31
0.0000
 6
CONTINUOUS
 0
LINE
 8
WHITE
 10
-4.331999
 20
-.629
 30
0.0000
 11
-4.410999
 21
-.481
 31
0.0000
 6
CONTINUOUS
 0
LINE
 8
WHITE
 10
-4.410999
 20
-.481
 30
0.0000
 11
-4.538
 21
-.333999
 31
0.0000
 6
CONTINUOUS
 0
LINE
 8
WHITE
 10
-4.538
 20
-.333999
 30
0.0000
 11
-4.427999
 21
-.363999
 31
0.0000
 6
CONTINUOUS
 0
LINE
 8
WHITE
 10
-4.427999
 20
-.363999
 30
0.0000
 11
-4.348999
 21
-.419999
 31
0.0000
 6
CONTINUOUS
 0
LINE
 8
WHITE
 10
-4.348999
 20
-.419999
 30
0.0000
 11
-4.376999
 21
-.335999
 31
0.0000
 6
CONTINUOUS
 0
LINE
 8
WHITE
 10
-4.376999
 20
-.335999
 30
0.0000
 11
-4.419
 21
-.282
 31
0.0000
 6
CONTINUOUS
 0
LINE
 8
WHITE
 10
-4.419
 20
-.282
 30
0.0000
 11
-4.412
 21
-.090999
 31
0.0000
 6
CONTINUOUS
 0
LINE
 8
WHITE
 10
-4.412
 20
-.090999
 30
0.0000
 11
-4.441999
 21
.07
 31
0.0000
 6
CONTINUOUS
 0
LINE
 8
WHITE
 10
-4.441999
 20
.07
 30
0.0000
 11
-4.579999
 21
.379999
 31
0.0000
 6
CONTINUOUS
 0
LINE
 8
WHITE
 10
-4.579999
 20
.379999
 30
0.0000
 11
-4.488999
 21
.349
 31
0.0000
 6
CONTINUOUS
 0
LINE
 8
WHITE
 10
-4.488999
 20
.349
 30
0.0000
 11
-4.518
 21
.407999
 31
0.0000
 6
CONTINUOUS
 0
LINE
 8
WHITE
 10
-4.518
 20
.407999
 30
0.0000
 11
-4.515999
 21
.488999
 31
0.0000
 6
CONTINUOUS
 0
LINE
 8
WHITE
 10
-4.515999
 20
.488999
 30
0.0000
 11
-4.485
 21
.442999
 31
0.0000
 6
CONTINUOUS
 0
LINE
 8
WHITE
 10
-4.485
 20
.442999
 30
0.0000
 11
-4.449999
 21
.419999
 31
0.0000
 6
CONTINUOUS
 0
LINE
 8
WHITE
 10
-4.449999
 20
.419999
 30
0.0000
 11
-4.466
 21
.488
 31
0.0000
 6
CONTINUOUS
 0
LINE
 8
WHITE
 10
-4.466
 20
.488
 30
0.0000
 11
-4.447
 21
.537
 31
0.0000
 6
CONTINUOUS
 0
ARC
 8
WHITE
 10
-4.485
 20
.550999
 30
 0
 40
.040496
 50
339.7751
 51
81.46918
 6
CONTINUOUS
 0
LINE
 8
WHITE
 10
-4.479
 20
.591
 30
0.0000
 11
-4.923999
 21
.649999
 31
0.0000
 6
CONTINUOUS
 0
LINE
 8
WHITE
 10
-4.923999
 20
.649999
 30
0.0000
 11
-4.947
 21
.638
 31
0.0000
 6
CONTINUOUS
 0
LINE
 8
WHITE
 10
-4.947
 20
.638
 30
0.0000
 11
-5.168
 21
.569
 31
0.0000
 6
CONTINUOUS
 0
LINE
 8
WHITE
 10
-5.168
 20
.569
 30
0.0000
 11
-5.355
 21
.550999
 31
0.0000
 6
CONTINUOUS
 0
ARC
 8
WHITE
 10
-5.3508
 20
.510999
 30
 0
 40
.040219
 50
95.99409
 51
180
 6
CONTINUOUS
 0
LINE
 8
WHITE
 10
-5.390999
 20
.510999
 30
0.0000
 11
-5.390999
 21
-.398
 31
0.0000
 6
CONTINUOUS
 0
ARC
 8
WHITE
 10
-5.430999
 20
-.398
 30
 0
 40
.039999
 50
269.9993
 51
0
 6
CONTINUOUS
 0
LINE
 8
WHITE
 10
-5.431
 20
-.437999
 30
0.0000
 11
-5.500999
 21
-.437999
 31
0.0000
 6
CONTINUOUS
 0
ARC
 8
WHITE
 10
-5.500999
 20
-.398
 30
 0
 40
.039999
 50
180
 51
270
 6
CONTINUOUS
 0
LINE
 8
WHITE
 10
-5.540999
 20
-.398
 30
0.0000
 11
-5.540999
 21
.289
 31
0.0000
 6
CONTINUOUS
 0
LINE
 8
WHITE
 10
-5.540999
 20
.289
 30
0.0000
 11
-5.558
 21
.365999
 31
0.0000
 6
CONTINUOUS
 0
LINE
 8
WHITE
 10
-5.558
 20
.365999
 30
0.0000
 11
-5.605999
 21
.433999
 31
0.0000
 6
CONTINUOUS
 0
LINE
 8
WHITE
 10
-5.605999
 20
.433999
 30
0.0000
 11
-5.782999
 21
.54
 31
0.0000
 6
CONTINUOUS
 0
LINE
 8
WHITE
 10
-5.782999
 20
.54
 30
0.0000
 11
-6.032999
 21
.605
 31
0.0000
 6
CONTINUOUS
 0
LINE
 8
WHITE
 10
-6.032999
 20
.605
 30
0.0000
 11
-6.321
 21
.626999
 31
0.0000
 6
CONTINUOUS
 0
LINE
 8
WHITE
 10
-6.321
 20
.626999
 30
0.0000
 11
-6.609
 21
.606999
 31
0.0000
 6
CONTINUOUS
 0
LINE
 8
WHITE
 10
-6.609
 20
.606999
 30
0.0000
 11
-6.859
 21
.542999
 31
0.0000
 6
CONTINUOUS
 0
LINE
 8
WHITE
 10
-6.859
 20
.542999
 30
0.0000
 11
-7.035999
 21
.437
 31
0.0000
 6
CONTINUOUS
 0
LINE
 8
WHITE
 10
-7.035999
 20
.437
 30
0.0000
 11
-7.084
 21
.367
 31
0.0000
 6
CONTINUOUS
 0
LINE
 8
WHITE
 10
-7.084
 20
.367
 30
0.0000
 11
-7.100999
 21
.287
 31
0.0000
 6
CONTINUOUS
 0
LINE
 8
WHITE
 10
-7.100999
 20
.287
 30
0.0000
 11
-7.100999
 21
-.326999
 31
0.0000
 6
CONTINUOUS
 0
LINE
 8
WHITE
 10
-7.100999
 20
-.326999
 30
0.0000
 11
-7.098999
 21
-.685999
 31
0.0000
 6
CONTINUOUS
 0
ARC
 8
WHITE
 10
-7.138999
 20
-.686999
 30
 0
 40
.040012
 50
270
 51
1.432096
 6
CONTINUOUS
 0
LINE
 8
WHITE
 10
-7.138999
 20
-.726999
 30
0.0000
 11
-7.256999
 21
-.726999
 31
0.0000
 6
CONTINUOUS
 0
LINE
 8
WHITE
 10
-7.256999
 20
-.726999
 30
0.0000
 11
-8.093999
 21
-1.625
 31
0.0000
 6
CONTINUOUS
 0
ARC
 8
WHITE
 10
-8.0655
 20
-1.6525
 30
 0
 40
.039604
 50
136.023
 51
243.7587
 6
CONTINUOUS
 0
LINE
 8
WHITE
 10
-8.083
 20
-1.687999
 30
0.0000
 11
-7.007999
 21
-2.233999
 31
0.0000
 6
CONTINUOUS
 0
LINE
 8
WHITE
 10
-7.007999
 20
-2.233999
 30
0.0000
 11
-6.862999
 21
-2.279
 31
0.0000
 6
CONTINUOUS
 0
ARC
 8
WHITE
 10
-6.873799
 20
-2.3173
 30
 0
 40
.039793
 50
.432116
 51
74.25238
 6
CONTINUOUS
 0
LINE
 8
WHITE
 10
-6.834
 20
-2.316999
 30
0.0000
 11
-6.834
 21
-2.361999
 31
0.0000
 6
CONTINUOUS
 0
ARC
 8
WHITE
 10
-6.874
 20
-2.361299
 30
 0
 40
.040006
 50
293.556
 51
358.9974
 6
CONTINUOUS
 0
LINE
 8
WHITE
 10
-6.857999
 20
-2.398
 30
0.0000
 11
-7.114999
 21
-2.517999
 31
0.0000
 6
CONTINUOUS
 0
LINE
 8
WHITE
 10
-7.114999
 20
-2.517999
 30
0.0000
 11
-7.434999
 21
-2.608
 31
0.0000
 6
CONTINUOUS
 0
LINE
 8
WHITE
 10
-7.434999
 20
-2.608
 30
0.0000
 11
-7.782
 21
-2.657
 31
0.0000
 6
CONTINUOUS
 0
LINE
 8
WHITE
 10
-7.782
 20
-2.657
 30
0.0000
 11
-8.145999
 21
-2.67
 31
0.0000
 6
CONTINUOUS
 0
LINE
 8
WHITE
 10
-8.145999
 20
-2.67
 30
0.0000
 11
-8.52
 21
-2.648999
 31
0.0000
 6
CONTINUOUS
 0
LINE
 8
WHITE
 10
-8.52
 20
-2.648999
 30
0.0000
 11
-8.895
 21
-2.592
 31
0.0000
 6
CONTINUOUS
 0
LINE
 8
WHITE
 10
-8.895
 20
-2.592
 30
0.0000
 11
-9.256999
 21
-2.503999
 31
0.0000
 6
CONTINUOUS
 0
LINE
 8
WHITE
 10
-9.256999
 20
-2.503999
 30
0.0000
 11
-9.602999
 21
-2.384999
 31
0.0000
 6
CONTINUOUS
 0
LINE
 8
WHITE
 10
-9.602999
 20
-2.384999
 30
0.0000
 11
-9.607
 21
-2.375999
 31
0.0000
 6
CONTINUOUS
 0
ENDSEC
 0
EOF
