  0
SECTION
  2
HEADER
  9
$ACADVER
  1
AC1009
  9
$LIMMIN
 10
0.000000
 20
-0.000000
  9
$LIMMAX
 10
6.667393
 20
7.516124
  0
ENDSEC
  0
SECTION
  2
TABLES
  0
TABLE
  2
LTYPE
 70
     4
  0
LTYPE
  2
CONTINUOUS
 70
     0
  3
Solid line
 72
    65
 73
     0
 40
0.000000
  0
LTYPE
  2
HIDDEN
 70
     0
  3
 _ _ _ _ _ _ _ _ _ _ _
 72
    65
 73
     2
 40
0.375000
 49
0.250000
 49
-0.125000
  0
LTYPE
  2
DASHED
 70
     0
  3
 ___ ___ ___ ___ ___ ___ ___ 
 72
    65
 73
     2
 40
0.750000
 49
0.500000
 49
-0.250000
  0
LTYPE
  2
CENTER
 70
     0
  3
___ _ ___ _ ___ _ ___
 72
    65
 73
     4
 40
2.000000
 49
1.250000
 49
-0.250000
 49
0.250000
 49
-0.250000
  0
LTYPE
  2
BORDER
 70
     0
  3
___ ___ . ___ ___ . ___ ___
 72
    65
 73
     6
 40
1.750000
 49
0.500000
 49
-0.250000
 49
0.500000
 49
-0.250000
 49
0.000000
 49
-0.250000
  0
LTYPE
  2
DOT
 70
     0
  3
.................
 72
    65
 73
     2
 40
0.250000
 49
0.000000
 49
-0.250000
  0
LTYPE
  2
DASHDOT
 70
     0
  3
__ . __ . __ . __
 72
    65
 73
     4
 40
1.000000
 49
0.500000
 49
-0.250000
 49
0.000000
 49
-0.250000
  0
LTYPE
  2
DIVIDE
 70
     0
  3
___ .. ___ .. ___ .. ___
 72
    65
 73
     6
 40
1.250000
 49
0.500000
 49
-0.250000
 49
0.000000
 49
-0.250000
 49
0.000000
 49
-0.250000
  0
ENDTAB
  0
TABLE
  2
LAYER
 70
     8
  0
LAYER
  2
BLACK
 70
     0
 62
     1
  6
CONTINUOUS
  0
LAYER
  2
WHITE
 70
     0
 62
     7
  6
CONTINUOUS
  0
LAYER
  2
RED
 70
     0
 62
     1
  6
CONTINUOUS
  0
LAYER
  2
YELLOW
 70
     0
 62
     2
  6
CONTINUOUS
  0
LAYER
  2
GREEN
 70
     0
 62
     3
  6
CONTINUOUS
  0
LAYER
  2
CYAN
 70
     0
 62
     4
  6
CONTINUOUS
  0
LAYER
  2
BLUE
 70
     0
 62
     5
  6
CONTINUOUS
  0
LAYER
  2
MAGENTA
 70
     0
 62
     6
  6
CONTINUOUS
  0
ENDTAB
  0
ENDSEC
  0
SECTION
  2
BLOCKS
  0
ENDSEC
  0
SECTION
  2
ENTITIES
  0
ARC
  8
WHITE
 10
6.016623
 20
4.456006
 30
0.000000
 40
0.544552
 50
-31.682920
 51
50.633034
  6
CONTINUOUS
  0
ARC
  8
WHITE
 10
6.020719
 20
4.969998
 30
0.000000
 40
0.353748
 50
-15.242100
 51
24.731914
  6
CONTINUOUS
  0
ARC
  8
WHITE
 10
3.775120
 20
1.631098
 30
0.000000
 40
4.329830
 50
53.641160
 51
66.840389
  6
CONTINUOUS
  0
ARC
  8
WHITE
 10
4.762020
 20
5.306999
 30
0.000000
 40
0.778250
 50
23.072970
 51
79.411965
  6
CONTINUOUS
  0
ARC
  8
WHITE
 10
4.610777
 20
5.251114
 30
0.000000
 40
0.872025
 50
70.279963
 51
90.975888
  6
CONTINUOUS
  0
ARC
  8
WHITE
 10
4.417819
 20
6.146800
 30
0.000000
 40
0.179688
 50
-7.607400
 51
99.546200
  6
CONTINUOUS
  0
ARC
  8
WHITE
 10
4.154021
 20
6.261198
 30
0.000000
 40
0.242279
 50
15.023330
 51
40.949437
  6
CONTINUOUS
  0
ARC
  8
WHITE
 10
4.224041
 20
6.245087
 30
0.000000
 40
0.208213
 50
57.140775
 51
100.254408
  6
CONTINUOUS
  0
ARC
  8
WHITE
 10
3.921027
 20
6.303789
 30
0.000000
 40
0.303478
 50
28.796462
 51
87.549495
  6
CONTINUOUS
  0
ARC
  8
WHITE
 10
2.440861
 20
5.835408
 30
0.000000
 40
1.680716
 50
27.327690
 51
106.126595
  6
CONTINUOUS
  0
ARC
  8
WHITE
 10
2.491422
 20
5.902900
 30
0.000000
 40
1.631313
 50
108.491617
 51
201.538583
  6
CONTINUOUS
  0
ARC
  8
WHITE
 10
2.242230
 20
4.351913
 30
0.000000
 40
1.585819
 50
143.103222
 51
181.586833
  6
CONTINUOUS
  0
ARC
  8
WHITE
 10
1.861340
 20
3.366122
 30
0.000000
 40
1.528895
 50
141.971682
 51
158.276892
  6
CONTINUOUS
  0
ARC
  8
WHITE
 10
1.042252
 20
3.242128
 30
0.000000
 40
0.915095
 50
131.072526
 51
165.322112
  6
CONTINUOUS
  0
ARC
  8
WHITE
 10
-0.734369
 20
3.706913
 30
0.000000
 40
0.921317
 50
-35.034832
 51
-14.643603
  6
CONTINUOUS
  0
ARC
  8
WHITE
 10
0.109220
 20
3.114999
 30
0.000000
 40
0.109220
 50
144.766600
 51
242.636417
  6
CONTINUOUS
  0
ARC
  8
WHITE
 10
0.517619
 20
2.785000
 30
0.000000
 40
0.514396
 50
153.066300
 51
211.922700
  6
CONTINUOUS
  0
ARC
  8
WHITE
 10
0.365469
 20
2.318072
 30
0.000000
 40
0.344831
 50
145.577886
 51
290.462710
  6
CONTINUOUS
  0
ARC
  8
WHITE
 10
0.271220
 20
-5.267699
 30
0.000000
 40
7.265875
 50
80.239377
 51
88.305920
  6
CONTINUOUS
  0
LINE
  8
WHITE
 10
1.503020
 20
1.893000
 30
0.000000
 11
1.820021
 21
1.578000
 31
0.000000
  6
CONTINUOUS
  0
ARC
  8
WHITE
 10
1.890021
 20
1.707700
 30
0.000000
 40
0.147384
 50
-118.356000
 51
-79.048400
  6
CONTINUOUS
  0
LINE
  8
WHITE
 10
1.918021
 20
1.563000
 30
0.000000
 11
1.944021
 21
1.568000
 31
0.000000
  6
CONTINUOUS
  0
ARC
  8
WHITE
 10
1.951131
 20
1.528382
 30
0.000000
 40
0.040250
 50
-7.684891
 51
100.174402
  6
CONTINUOUS
  0
LINE
  8
WHITE
 10
1.991020
 20
1.523000
 30
0.000000
 11
1.988020
 21
1.504000
 31
0.000000
  6
CONTINUOUS
  0
LINE
  8
WHITE
 10
1.988020
 20
1.504000
 30
0.000000
 11
1.988020
 21
0.039999
 31
0.000000
  6
CONTINUOUS
  0
ARC
  8
WHITE
 10
2.028019
 20
0.039999
 30
0.000000
 40
0.039999
 50
180.000000
 51
270.001432
  6
CONTINUOUS
  0
LINE
  8
WHITE
 10
2.028020
 20
0.000000
 30
0.000000
 11
4.744019
 21
0.000000
 31
0.000000
  6
CONTINUOUS
  0
ARC
  8
WHITE
 10
4.744022
 20
0.039999
 30
0.000000
 40
0.039999
 50
-90.004111
 51
-0.000186
  6
CONTINUOUS
  0
LINE
  8
WHITE
 10
4.784021
 20
0.039999
 30
0.000000
 11
4.784021
 21
1.504000
 31
0.000000
  6
CONTINUOUS
  0
ARC
  8
WHITE
 10
-9.112279
 20
-0.972001
 30
0.000000
 40
14.115160
 50
10.102770
 51
11.831131
  6
CONTINUOUS
  0
ARC
  8
WHITE
 10
4.985615
 20
1.976184
 30
0.000000
 40
0.287746
 50
158.427131
 51
190.854047
  6
CONTINUOUS
  0
ARC
  8
WHITE
 10
4.611020
 20
2.412998
 30
0.000000
 40
0.347880
 50
-72.085800
 51
-41.387300
  6
CONTINUOUS
  0
ARC
  8
WHITE
 10
4.682258
 20
2.475961
 30
0.000000
 40
0.349050
 50
-57.067519
 51
-15.276366
  6
CONTINUOUS
  0
ARC
  8
WHITE
 10
4.921020
 20
2.374211
 30
0.000000
 40
0.098443
 50
5.703450
 51
130.556474
  6
CONTINUOUS
  0
ARC
  8
WHITE
 10
3.843621
 20
3.054998
 30
0.000000
 40
1.180758
 50
-30.878800
 51
-4.323013
  6
CONTINUOUS
  0
ARC
  8
WHITE
 10
4.983221
 20
3.246198
 30
0.000000
 40
0.282743
 50
-82.317000
 51
-64.032991
  6
CONTINUOUS
  0
LINE
  8
WHITE
 10
5.107021
 20
2.991999
 30
0.000000
 11
5.203020
 21
3.037999
 31
0.000000
  6
CONTINUOUS
  0
LINE
  8
WHITE
 10
5.203020
 20
3.037999
 30
0.000000
 11
6.649019
 21
3.781003
 31
0.000000
  6
CONTINUOUS
  0
ARC
  8
WHITE
 10
6.631721
 20
3.812200
 30
0.000000
 40
0.035672
 50
-60.992801
 51
15.944382
  6
CONTINUOUS
  0
ARC
  8
WHITE
 10
5.626319
 20
3.489998
 30
0.000000
 40
1.091422
 50
17.709510
 51
38.538470
  6
CONTINUOUS
  0
ARC
  8
WHITE
 10
2.483964
 20
6.191713
 30
0.000000
 40
1.183029
 50
75.106946
 51
115.213415
  6
CONTINUOUS
  0
ARC
  8
WHITE
 10
2.130019
 20
6.951999
 30
0.000000
 40
0.344419
 50
115.820800
 51
152.318715
  6
CONTINUOUS
  0
ARC
  8
WHITE
 10
2.976419
 20
6.505999
 30
0.000000
 40
1.301133
 50
152.241400
 51
170.801134
  6
CONTINUOUS
  0
ARC
  8
WHITE
 10
2.079320
 20
6.652899
 30
0.000000
 40
0.392093
 50
171.034800
 51
199.192858
  6
CONTINUOUS
  0
LINE
  8
WHITE
 10
1.709021
 20
6.523999
 30
0.000000
 11
1.772020
 21
6.479997
 31
0.000000
  6
CONTINUOUS
  0
ARC
  8
WHITE
 10
7.058321
 20
6.565800
 30
0.000000
 40
5.286997
 50
-179.070100
 51
-168.911856
  6
CONTINUOUS
  0
ARC
  8
WHITE
 10
2.630807
 20
4.077494
 30
0.000000
 40
1.656552
 50
117.339512
 51
139.242808
  6
CONTINUOUS
  0
ARC
  8
WHITE
 10
1.230025
 20
5.043396
 30
0.000000
 40
0.186194
 50
38.373298
 51
108.486899
  6
CONTINUOUS
  0
ARC
  8
WHITE
 10
1.037020
 20
5.153398
 30
0.000000
 40
0.149599
 50
26.428330
 51
90.002700
  6
CONTINUOUS
  0
ARC
  8
WHITE
 10
2.490995
 20
5.902757
 30
0.000000
 40
1.572824
 50
108.535024
 51
202.415876
  6
CONTINUOUS
  0
ARC
  8
WHITE
 10
2.441205
 20
5.835507
 30
0.000000
 40
1.622209
 50
25.036565
 51
106.111901
  6
CONTINUOUS
  0
ARC
  8
WHITE
 10
3.582020
 20
6.738899
 30
0.000000
 40
0.394026
 50
-75.748603
 51
-33.395600
  6
CONTINUOUS
  0
ARC
  8
WHITE
 10
4.105820
 20
4.699600
 30
0.000000
 40
1.711475
 50
104.440600
 51
113.257464
  6
CONTINUOUS
  0
ARC
  8
WHITE
 10
4.106021
 20
4.736798
 30
0.000000
 40
1.677445
 50
113.765474
 51
121.241400
  6
CONTINUOUS
  0
ARC
  8
WHITE
 10
3.220817
 20
6.196920
 30
0.000000
 40
0.030052
 50
-172.504803
 51
-59.606490
  6
CONTINUOUS
  0
ARC
  8
WHITE
 10
2.380821
 20
6.079998
 30
0.000000
 40
0.818044
 50
7.940016
 51
24.020800
  6
CONTINUOUS
  0
ARC
  8
WHITE
 10
5.179622
 20
7.320977
 30
0.000000
 40
2.243545
 50
-176.602044
 51
-156.127223
  6
CONTINUOUS
  0
ARC
  8
WHITE
 10
2.895725
 20
7.184145
 30
0.000000
 40
0.044464
 50
4.974239
 51
27.958872
  6
CONTINUOUS
  0
ARC
  8
WHITE
 10
2.732019
 20
7.123598
 30
0.000000
 40
0.218691
 50
21.850280
 51
75.162656
  6
CONTINUOUS
  0
ARC
  8
YELLOW
 10
2.283029
 20
5.215010
 30
0.000000
 40
0.041102
 50
-4.199868
 51
108.455113
  6
CONTINUOUS
  0
ARC
  8
YELLOW
 10
3.645983
 20
1.191187
 30
0.000000
 40
4.289489
 50
108.709869
 51
120.265910
  6
CONTINUOUS
  0
ARC
  8
YELLOW
 10
1.895021
 20
4.967000
 30
0.000000
 40
0.417087
 50
-170.198900
 51
-1.236500
  6
CONTINUOUS
  0
ARC
  8
YELLOW
 10
8.181206
 20
4.807776
 30
0.000000
 40
5.871117
 50
176.052081
 51
178.533815
  6
CONTINUOUS
  0
ARC
  8
YELLOW
 10
1.731821
 20
5.820198
 30
0.000000
 40
0.947600
 50
-99.647390
 51
-85.145000
  6
CONTINUOUS
  0
ARC
  8
YELLOW
 10
2.672820
 20
5.242799
 30
0.000000
 40
1.156231
 50
-162.025800
 51
-153.616854
  6
CONTINUOUS
  0
ARC
  8
YELLOW
 10
1.814020
 20
5.036700
 30
0.000000
 40
0.354971
 50
-119.909000
 51
-73.132286
  6
CONTINUOUS
  0
ARC
  8
YELLOW
 10
1.942444
 20
4.833433
 30
0.000000
 40
0.138783
 50
120.497587
 51
259.444375
  6
CONTINUOUS
  0
LINE
  8
YELLOW
 10
1.951021
 20
4.694000
 30
0.000000
 11
1.979021
 21
4.654000
 31
0.000000
  6
CONTINUOUS
  0
LINE
  8
YELLOW
 10
1.979021
 20
4.654000
 30
0.000000
 11
1.987521
 21
4.701000
 31
0.000000
  6
CONTINUOUS
  0
ARC
  8
YELLOW
 10
1.647490
 20
4.769035
 30
0.000000
 40
0.346771
 50
-11.314585
 51
48.557667
  6
CONTINUOUS
  0
ARC
  8
YELLOW
 10
2.225092
 20
4.963662
 30
0.000000
 40
0.354163
 50
169.371719
 51
227.871363
  6
CONTINUOUS
  0
LINE
  8
YELLOW
 10
1.987521
 20
4.701000
 30
0.000000
 11
2.031020
 21
4.670999
 31
0.000000
  6
CONTINUOUS
  0
LINE
  8
YELLOW
 10
2.031020
 20
4.670999
 30
0.000000
 11
2.028020
 21
4.721000
 31
0.000000
  6
CONTINUOUS
  0
LINE
  8
YELLOW
 10
2.028020
 20
4.721000
 30
0.000000
 11
2.052964
 21
4.744047
 31
0.000000
  6
CONTINUOUS
  0
ARC
  8
YELLOW
 10
1.943977
 20
4.833138
 30
0.000000
 40
0.140767
 50
-39.264368
 51
96.508618
  6
CONTINUOUS
  0
LINE
  8
YELLOW
 10
1.917020
 20
4.696999
 30
0.000000
 11
1.951021
 21
4.694000
 31
0.000000
  6
CONTINUOUS
  0
LINE
  8
YELLOW
 10
1.951021
 20
4.694000
 30
0.000000
 11
1.957020
 21
4.735999
 31
0.000000
  6
CONTINUOUS
  0
LINE
  8
YELLOW
 10
1.997021
 20
4.749999
 30
0.000000
 11
2.028020
 21
4.721000
 31
0.000000
  6
CONTINUOUS
  0
ARC
  8
YELLOW
 10
1.484019
 20
5.763099
 30
0.000000
 40
0.976093
 50
-56.410800
 51
-39.975703
  6
CONTINUOUS
  0
ARC
  8
YELLOW
 10
1.883220
 20
4.964100
 30
0.000000
 40
0.388852
 50
5.889463
 51
26.235560
  6
CONTINUOUS
  0
ARC
  8
YELLOW
 10
1.923283
 20
5.072922
 30
0.000000
 40
0.353520
 50
-68.479829
 51
-11.242422
  6
CONTINUOUS
  0
ARC
  8
WHITE
 10
6.291491
 20
7.230351
 30
0.000000
 40
2.924582
 50
-120.366709
 51
-112.633245
  6
CONTINUOUS
  0
ARC
  8
WHITE
 10
6.292214
 20
7.230049
 30
0.000000
 40
2.924582
 50
-112.648591
 51
-105.655508
  6
CONTINUOUS
  0
ARC
  8
WHITE
 10
5.491621
 20
4.384800
 30
0.000000
 40
0.031308
 50
-41.633539
 51
68.673951
  6
CONTINUOUS
  0
LINE
  8
WHITE
 10
5.515021
 20
4.364000
 30
0.000000
 11
5.108021
 21
3.965999
 31
0.000000
  6
CONTINUOUS
  0
LINE
  8
WHITE
 10
5.108021
 20
3.965999
 30
0.000000
 11
4.863021
 21
3.655000
 31
0.000000
  6
CONTINUOUS
  0
LINE
  8
WHITE
 10
4.863021
 20
3.655000
 30
0.000000
 11
4.878021
 21
3.875999
 31
0.000000
  6
CONTINUOUS
  0
ARC
  8
WHITE
 10
4.759920
 20
3.881022
 30
0.000000
 40
0.118208
 50
-2.435365
 51
65.988742
  6
CONTINUOUS
  0
ARC
  8
WHITE
 10
-2.225679
 20
4.397000
 30
0.000000
 40
7.045523
 50
-3.319800
 51
2.521796
  6
CONTINUOUS
  0
ARC
  8
WHITE
 10
3.791821
 20
1.264998
 30
0.000000
 40
3.259573
 50
146.015456
 51
151.105900
  6
CONTINUOUS
  0
ARC
  8
WHITE
 10
0.746020
 20
1.462899
 30
0.000000
 40
1.390419
 50
42.933720
 51
82.062821
  6
CONTINUOUS
  0
ARC
  8
WHITE
 10
1.780045
 20
1.928889
 30
0.000000
 40
0.481365
 50
69.576686
 51
91.909604
  6
CONTINUOUS
  0
ARC
  8
WHITE
 10
1.957820
 20
2.408499
 30
0.000000
 40
0.030142
 50
-108.974539
 51
0.950258
  6
CONTINUOUS
  0
LINE
  8
WHITE
 10
1.987953
 20
2.408999
 30
0.000000
 11
1.985020
 21
2.517999
 31
0.000000
  6
CONTINUOUS
  0
ARC
  8
WHITE
 10
1.945720
 20
2.516999
 30
0.000000
 40
0.039313
 50
1.457593
 51
74.833241
  6
CONTINUOUS
  0
ARC
  8
WHITE
 10
2.203322
 20
3.400937
 30
0.000000
 40
0.881404
 50
-179.354015
 51
-106.295651
  6
CONTINUOUS
  0
ARC
  8
WHITE
 10
3.781056
 20
1.265373
 30
0.000000
 40
3.250442
 50
139.159915
 51
145.914863
  6
CONTINUOUS
  0
LINE
  8
YELLOW
 10
5.261020
 20
5.343000
 30
0.000000
 11
5.328020
 21
5.003000
 31
0.000000
  6
CONTINUOUS
  0
LINE
  8
YELLOW
 10
5.328020
 20
5.003000
 30
0.000000
 11
5.665020
 21
4.812000
 31
0.000000
  6
CONTINUOUS
  0
LINE
  8
YELLOW
 10
5.665020
 20
4.812000
 30
0.000000
 11
5.765021
 21
4.996000
 31
0.000000
  6
CONTINUOUS
  0
LINE
  8
YELLOW
 10
5.765021
 20
4.996000
 30
0.000000
 11
5.918021
 21
5.076000
 31
0.000000
  6
CONTINUOUS
  0
LINE
  8
YELLOW
 10
5.918021
 20
5.076000
 30
0.000000
 11
5.561021
 21
5.422000
 31
0.000000
  6
CONTINUOUS
  0
LINE
  8
YELLOW
 10
5.561021
 20
5.422000
 30
0.000000
 11
5.261020
 21
5.343000
 31
0.000000
  6
CONTINUOUS
  0
LINE
  8
YELLOW
 10
5.505020
 20
5.352999
 30
0.000000
 11
5.358021
 21
5.321999
 31
0.000000
  6
CONTINUOUS
  0
LINE
  8
YELLOW
 10
5.358021
 20
5.321999
 30
0.000000
 11
5.715020
 21
5.043000
 31
0.000000
  6
CONTINUOUS
  0
LINE
  8
YELLOW
 10
5.715020
 20
5.043000
 30
0.000000
 11
5.724020
 21
5.070999
 31
0.000000
  6
CONTINUOUS
  0
LINE
  8
YELLOW
 10
5.724020
 20
5.070999
 30
0.000000
 11
5.668021
 21
5.135999
 31
0.000000
  6
CONTINUOUS
  0
LINE
  8
YELLOW
 10
5.668021
 20
5.135999
 30
0.000000
 11
5.780021
 21
5.096000
 31
0.000000
  6
CONTINUOUS
  0
LINE
  8
YELLOW
 10
5.780021
 20
5.096000
 30
0.000000
 11
5.798021
 21
5.129000
 31
0.000000
  6
CONTINUOUS
  0
LINE
  8
YELLOW
 10
5.798021
 20
5.129000
 30
0.000000
 11
5.651020
 21
5.188999
 31
0.000000
  6
CONTINUOUS
  0
LINE
  8
YELLOW
 10
5.651020
 20
5.188999
 30
0.000000
 11
5.632020
 21
5.206000
 31
0.000000
  6
CONTINUOUS
  0
LINE
  8
YELLOW
 10
5.632020
 20
5.206000
 30
0.000000
 11
5.557020
 21
5.332999
 31
0.000000
  6
CONTINUOUS
  0
LINE
  8
YELLOW
 10
5.557020
 20
5.332999
 30
0.000000
 11
5.505020
 21
5.352999
 31
0.000000
  6
CONTINUOUS
  0
LINE
  8
YELLOW
 10
5.542021
 20
5.232000
 30
0.000000
 11
5.529021
 21
5.291000
 31
0.000000
  6
CONTINUOUS
  0
LINE
  8
YELLOW
 10
5.529021
 20
5.291000
 30
0.000000
 11
5.510021
 21
5.301999
 31
0.000000
  6
CONTINUOUS
  0
LINE
  8
YELLOW
 10
5.510021
 20
5.301999
 30
0.000000
 11
5.472020
 21
5.275999
 31
0.000000
  6
CONTINUOUS
  0
LINE
  8
YELLOW
 10
5.472020
 20
5.275999
 30
0.000000
 11
5.542021
 21
5.232000
 31
0.000000
  6
CONTINUOUS
  0
LINE
  8
YELLOW
 10
5.421020
 20
5.162999
 30
0.000000
 11
5.392021
 21
5.179000
 31
0.000000
  6
CONTINUOUS
  0
LINE
  8
YELLOW
 10
5.392021
 20
5.179000
 30
0.000000
 11
5.402020
 21
5.005999
 31
0.000000
  6
CONTINUOUS
  0
LINE
  8
YELLOW
 10
5.402020
 20
5.005999
 30
0.000000
 11
5.611020
 21
4.976000
 31
0.000000
  6
CONTINUOUS
  0
LINE
  8
YELLOW
 10
5.611020
 20
4.976000
 30
0.000000
 11
5.642021
 21
4.896000
 31
0.000000
  6
CONTINUOUS
  0
LINE
  8
YELLOW
 10
5.642021
 20
4.896000
 30
0.000000
 11
5.688021
 21
4.922000
 31
0.000000
  6
CONTINUOUS
  0
LINE
  8
YELLOW
 10
5.688021
 20
4.922000
 30
0.000000
 11
5.661021
 21
5.029000
 31
0.000000
  6
CONTINUOUS
  0
LINE
  8
YELLOW
 10
5.661021
 20
5.029000
 30
0.000000
 11
5.461020
 21
5.052999
 31
0.000000
  6
CONTINUOUS
  0
LINE
  8
YELLOW
 10
5.461020
 20
5.052999
 30
0.000000
 11
5.442021
 21
5.071999
 31
0.000000
  6
CONTINUOUS
  0
LINE
  8
YELLOW
 10
5.442021
 20
5.071999
 30
0.000000
 11
5.421020
 21
5.162999
 31
0.000000
  6
CONTINUOUS
  0
ARC
  8
YELLOW
 10
2.781020
 20
4.967399
 30
0.000000
 40
0.240079
 50
-164.192300
 51
-104.476300
  6
CONTINUOUS
  0
ARC
  8
YELLOW
 10
2.796863
 20
5.146610
 30
0.000000
 40
0.418598
 50
-100.440713
 51
-9.293663
  6
CONTINUOUS
  0
LINE
  8
YELLOW
 10
3.209966
 20
5.079008
 30
0.000000
 11
3.261020
 21
5.338000
 31
0.000000
  6
CONTINUOUS
  0
ARC
  8
YELLOW
 10
2.166019
 20
7.106300
 30
0.000000
 40
2.079883
 50
-68.211900
 51
-58.232577
  6
CONTINUOUS
  0
ARC
  8
YELLOW
 10
3.310921
 20
4.232799
 30
0.000000
 40
1.013309
 50
111.592566
 51
138.668875
  6
CONTINUOUS
  0
CIRCLE
  8
YELLOW
 10
2.903021
 20
4.945999
 30
0.000000
 40
0.192000
  6
CONTINUOUS
  0
ARC
  8
YELLOW
 10
3.668001
 20
0.258101
 30
0.000000
 40
2.978920
 50
85.069687
 51
124.469675
  6
CONTINUOUS
  0
ARC
  8
YELLOW
 10
2.012121
 20
2.675000
 30
0.000000
 40
0.049264
 50
127.660800
 51
301.660599
  6
CONTINUOUS
  0
ARC
  8
YELLOW
 10
3.668089
 20
0.258162
 30
0.000000
 40
2.880528
 50
85.062348
 51
124.465289
  6
CONTINUOUS
  0
ARC
  8
YELLOW
 10
3.888019
 20
2.340199
 30
0.000000
 40
0.788298
 50
75.678100
 51
87.964298
  6
CONTINUOUS
  0
ARC
  8
YELLOW
 10
4.087019
 20
3.148497
 30
0.000000
 40
0.044680
 50
-95.135905
 51
84.864095
  6
CONTINUOUS
  0
ARC
  8
YELLOW
 10
3.915233
 20
2.742493
 30
0.000000
 40
0.483586
 50
68.684410
 51
88.958733
  6
CONTINUOUS
  0
ARC
  8
YELLOW
 10
3.705677
 20
0.063543
 30
0.000000
 40
2.981410
 50
85.086874
 51
124.452593
  6
CONTINUOUS
  0
ARC
  8
YELLOW
 10
2.048721
 20
2.482998
 30
0.000000
 40
0.049021
 50
127.290699
 51
301.064400
  6
CONTINUOUS
  0
ARC
  8
YELLOW
 10
3.705007
 20
0.063601
 30
0.000000
 40
2.883087
 50
85.065095
 51
124.451602
  6
CONTINUOUS
  0
ARC
  8
YELLOW
 10
3.925019
 20
2.156298
 30
0.000000
 40
0.780205
 50
75.602140
 51
87.943176
  6
CONTINUOUS
  0
ARC
  8
YELLOW
 10
4.123519
 20
2.956497
 30
0.000000
 40
0.044728
 50
-95.774625
 51
84.225374
  6
CONTINUOUS
  0
ARC
  8
YELLOW
 10
3.952237
 20
2.550492
 30
0.000000
 40
0.483586
 50
68.684764
 51
88.959300
  6
CONTINUOUS
  0
ARC
  8
YELLOW
 10
3.632543
 20
0.447055
 30
0.000000
 40
2.980913
 50
85.083454
 51
124.456024
  6
CONTINUOUS
  0
ARC
  8
YELLOW
 10
1.974921
 20
2.865999
 30
0.000000
 40
0.048540
 50
126.539400
 51
302.480200
  6
CONTINUOUS
  0
ARC
  8
YELLOW
 10
3.631923
 20
0.447108
 30
0.000000
 40
2.883499
 50
85.084078
 51
124.444659
  6
CONTINUOUS
  0
ARC
  8
YELLOW
 10
3.851020
 20
2.562699
 30
0.000000
 40
0.757819
 50
75.089060
 51
87.882462
  6
CONTINUOUS
  0
ARC
  8
YELLOW
 10
4.050520
 20
3.339499
 30
0.000000
 40
0.044728
 50
-95.775145
 51
84.224854
  6
CONTINUOUS
  0
ARC
  8
YELLOW
 10
3.879238
 20
2.933493
 30
0.000000
 40
0.483586
 50
68.684764
 51
88.959300
  6
CONTINUOUS
  0
ARC
  8
YELLOW
 10
4.250825
 20
2.843005
 30
0.000000
 40
0.036733
 50
139.206722
 51
213.001120
  6
CONTINUOUS
  0
ARC
  8
YELLOW
 10
5.399742
 20
3.507961
 30
0.000000
 40
1.364157
 50
-149.860004
 51
-129.937460
  6
CONTINUOUS
  0
ARC
  8
YELLOW
 10
4.550020
 20
2.488699
 30
0.000000
 40
0.037267
 50
-134.239000
 51
-33.730500
  6
CONTINUOUS
  0
ARC
  8
YELLOW
 10
3.702443
 20
3.185824
 30
0.000000
 40
1.134527
 50
-39.249878
 51
-22.044948
  6
CONTINUOUS
  0
ARC
  8
YELLOW
 10
4.714920
 20
2.774800
 30
0.000000
 40
0.041812
 50
-20.733014
 51
35.362370
  6
CONTINUOUS
  0
ARC
  8
YELLOW
 10
3.655233
 20
1.966781
 30
0.000000
 40
1.374386
 50
37.266066
 51
53.951418
  6
CONTINUOUS
  0
ARC
  8
YELLOW
 10
4.440020
 20
3.051998
 30
0.000000
 40
0.035383
 50
47.290610
 51
137.289301
  6
CONTINUOUS
  0
ARC
  8
YELLOW
 10
5.324620
 20
2.051999
 30
0.000000
 40
1.370316
 50
131.645337
 51
143.504700
  6
CONTINUOUS
  0
LINE
  8
YELLOW
 10
2.476020
 20
5.339000
 30
0.000000
 11
2.538020
 21
5.194000
 31
0.000000
  6
CONTINUOUS
  0
ARC
  8
YELLOW
 10
5.014020
 20
-0.018799
 30
0.000000
 40
5.770949
 50
107.101100
 51
115.407005
  6
CONTINUOUS
  0
LINE
  8
YELLOW
 10
3.317022
 20
5.497001
 30
0.000000
 11
3.254021
 21
5.642999
 31
0.000000
  6
CONTINUOUS
  0
ARC
  8
YELLOW
 10
5.013820
 20
-0.008200
 30
0.000000
 40
5.918863
 50
107.296733
 51
115.389181
  6
CONTINUOUS
  0
LINE
  8
YELLOW
 10
2.606020
 20
5.373999
 30
0.000000
 11
2.640020
 21
5.280000
 31
0.000000
  6
CONTINUOUS
  0
LINE
  8
YELLOW
 10
2.640020
 20
5.280000
 30
0.000000
 11
2.677021
 21
5.293999
 31
0.000000
  6
CONTINUOUS
  0
LINE
  8
YELLOW
 10
2.669020
 20
5.397000
 30
0.000000
 11
2.694021
 21
5.405999
 31
0.000000
  6
CONTINUOUS
  0
LINE
  8
YELLOW
 10
2.681021
 20
5.401999
 30
0.000000
 11
2.716020
 21
5.307999
 31
0.000000
  6
CONTINUOUS
  0
LINE
  8
YELLOW
 10
2.703020
 20
5.302999
 30
0.000000
 11
2.728020
 21
5.312000
 31
0.000000
  6
CONTINUOUS
  0
LINE
  8
YELLOW
 10
2.762020
 20
5.418000
 30
0.000000
 11
2.751020
 21
5.426999
 31
0.000000
  6
CONTINUOUS
  0
LINE
  8
YELLOW
 10
2.751020
 20
5.426999
 30
0.000000
 11
2.732020
 21
5.419999
 31
0.000000
  6
CONTINUOUS
  0
LINE
  8
YELLOW
 10
2.732020
 20
5.419999
 30
0.000000
 11
2.728020
 21
5.392000
 31
0.000000
  6
CONTINUOUS
  0
LINE
  8
YELLOW
 10
2.728020
 20
5.392000
 30
0.000000
 11
2.746021
 21
5.345000
 31
0.000000
  6
CONTINUOUS
  0
LINE
  8
YELLOW
 10
2.746021
 20
5.345000
 30
0.000000
 11
2.767021
 21
5.326000
 31
0.000000
  6
CONTINUOUS
  0
LINE
  8
YELLOW
 10
2.767021
 20
5.326000
 30
0.000000
 11
2.792021
 21
5.335999
 31
0.000000
  6
CONTINUOUS
  0
LINE
  8
YELLOW
 10
2.792021
 20
5.335999
 30
0.000000
 11
2.779021
 21
5.371000
 31
0.000000
  6
CONTINUOUS
  0
LINE
  8
YELLOW
 10
2.779021
 20
5.371000
 30
0.000000
 11
2.766021
 21
5.365999
 31
0.000000
  6
CONTINUOUS
  0
LINE
  8
YELLOW
 10
2.811020
 20
5.343000
 30
0.000000
 11
2.777021
 21
5.437000
 31
0.000000
  6
CONTINUOUS
  0
LINE
  8
YELLOW
 10
2.794020
 20
5.390000
 30
0.000000
 11
2.832021
 21
5.403000
 31
0.000000
  6
CONTINUOUS
  0
LINE
  8
YELLOW
 10
2.814020
 20
5.450000
 30
0.000000
 11
2.849021
 21
5.356000
 31
0.000000
  6
CONTINUOUS
  0
LINE
  8
YELLOW
 10
2.834020
 20
5.457000
 30
0.000000
 11
2.872021
 21
5.471000
 31
0.000000
  6
CONTINUOUS
  0
LINE
  8
YELLOW
 10
2.853020
 20
5.464000
 30
0.000000
 11
2.887020
 21
5.370000
 31
0.000000
  6
CONTINUOUS
  0
LINE
  8
YELLOW
 10
2.891021
 20
5.477999
 30
0.000000
 11
2.927021
 21
5.438000
 31
0.000000
  6
CONTINUOUS
  0
LINE
  8
YELLOW
 10
2.929020
 20
5.491999
 30
0.000000
 11
2.927021
 21
5.438000
 31
0.000000
  6
CONTINUOUS
  0
LINE
  8
YELLOW
 10
2.927021
 20
5.438000
 30
0.000000
 11
2.944021
 21
5.391000
 31
0.000000
  6
CONTINUOUS
  0
LINE
  8
YELLOW
 10
2.986021
 20
5.512999
 30
0.000000
 11
2.948021
 21
5.498999
 31
0.000000
  6
CONTINUOUS
  0
LINE
  8
YELLOW
 10
2.948021
 20
5.498999
 30
0.000000
 11
2.983021
 21
5.405000
 31
0.000000
  6
CONTINUOUS
  0
LINE
  8
YELLOW
 10
2.983021
 20
5.405000
 30
0.000000
 11
3.020021
 21
5.418999
 31
0.000000
  6
CONTINUOUS
  0
LINE
  8
YELLOW
 10
2.965020
 20
5.451999
 30
0.000000
 11
2.984021
 21
5.458999
 31
0.000000
  6
CONTINUOUS
  0
LINE
  8
YELLOW
 10
3.040021
 20
5.425999
 30
0.000000
 11
3.010021
 21
5.508000
 31
0.000000
  6
CONTINUOUS
  0
LINE
  8
YELLOW
 10
3.010021
 20
5.508000
 30
0.000000
 11
3.012020
 21
5.522000
 31
0.000000
  6
CONTINUOUS
  0
LINE
  8
YELLOW
 10
3.012020
 20
5.522000
 30
0.000000
 11
3.037020
 21
5.530999
 31
0.000000
  6
CONTINUOUS
  0
LINE
  8
YELLOW
 10
3.037020
 20
5.530999
 30
0.000000
 11
3.047020
 21
5.522000
 31
0.000000
  6
CONTINUOUS
  0
LINE
  8
YELLOW
 10
3.047020
 20
5.522000
 30
0.000000
 11
3.077020
 21
5.439999
 31
0.000000
  6
CONTINUOUS
  0
LINE
  8
YELLOW
 10
3.060020
 20
5.486999
 30
0.000000
 11
3.022020
 21
5.472999
 31
0.000000
  6
CONTINUOUS
  0
LINE
  8
YELLOW
 10
3.097020
 20
5.446999
 30
0.000000
 11
3.062021
 21
5.541000
 31
0.000000
  6
CONTINUOUS
  0
LINE
  8
YELLOW
 10
3.062021
 20
5.541000
 30
0.000000
 11
3.094020
 21
5.551999
 31
0.000000
  6
CONTINUOUS
  0
LINE
  8
YELLOW
 10
3.094020
 20
5.551999
 30
0.000000
 11
3.104020
 21
5.543000
 31
0.000000
  6
CONTINUOUS
  0
LINE
  8
YELLOW
 10
3.104020
 20
5.543000
 30
0.000000
 11
3.113020
 21
5.518999
 31
0.000000
  6
CONTINUOUS
  0
LINE
  8
YELLOW
 10
3.113020
 20
5.518999
 30
0.000000
 11
3.111021
 21
5.504999
 31
0.000000
  6
CONTINUOUS
  0
LINE
  8
YELLOW
 10
3.111021
 20
5.504999
 30
0.000000
 11
3.080020
 21
5.493999
 31
0.000000
  6
CONTINUOUS
  0
LINE
  8
YELLOW
 10
3.092021
 20
5.498999
 30
0.000000
 11
3.134021
 21
5.460999
 31
0.000000
  6
CONTINUOUS
  0
CIRCLE
  8
YELLOW
 10
2.278220
 20
6.932999
 30
0.000000
 40
0.188800
  6
CONTINUOUS
  0
CIRCLE
  8
YELLOW
 10
2.293820
 20
6.933199
 30
0.000000
 40
0.034000
  6
CONTINUOUS
  0
ARC
  8
YELLOW
 10
2.222220
 20
6.224600
 30
0.000000
 40
0.766857
 50
71.777690
 51
99.472150
  6
CONTINUOUS
  0
ARC
  8
YELLOW
 10
2.293820
 20
6.933199
 30
0.000000
 40
0.090503
 50
139.481100
 51
388.944110
  6
CONTINUOUS
  0
ARC
  8
YELLOW
 10
2.763020
 20
6.969907
 30
0.000000
 40
0.143858
 50
9.236729
 51
95.587530
  6
CONTINUOUS
  0
ARC
  8
YELLOW
 10
2.759981
 20
6.993105
 30
0.000000
 40
0.120477
 50
95.223253
 51
166.122808
  6
CONTINUOUS
  0
ARC
  8
YELLOW
 10
2.770020
 20
6.971400
 30
0.000000
 40
0.136709
 50
158.276400
 51
369.090119
  6
CONTINUOUS
  0
CIRCLE
  8
YELLOW
 10
2.793021
 20
6.986999
 30
0.000000
 40
0.027000
  6
CONTINUOUS
  0
ARC
  8
YELLOW
 10
2.734021
 20
6.646199
 30
0.000000
 40
0.386662
 50
63.754177
 51
103.612259
  6
CONTINUOUS
  0
ARC
  8
YELLOW
 10
2.793460
 20
6.987558
 30
0.000000
 40
0.074027
 50
142.132263
 51
377.643798
  6
CONTINUOUS
  0
ARC
  8
YELLOW
 10
1.128921
 20
4.200100
 30
0.000000
 40
0.066163
 50
-154.868000
 51
10.359020
  6
CONTINUOUS
  0
ARC
  8
YELLOW
 10
0.288815
 20
4.090046
 30
0.000000
 40
0.913369
 50
7.672941
 51
26.388323
  6
CONTINUOUS
  0
ARC
  8
YELLOW
 10
1.054969
 20
4.470504
 30
0.000000
 40
0.057951
 50
26.095202
 51
180.498268
  6
CONTINUOUS
  0
ARC
  8
YELLOW
 10
1.653819
 20
4.471000
 30
0.000000
 40
0.656800
 50
-179.912800
 51
-152.919897
  6
CONTINUOUS
  0
ARC
  8
YELLOW
 10
2.073520
 20
4.475000
 30
0.000000
 40
0.656033
 50
174.050400
 51
200.990500
  6
CONTINUOUS
  0
ARC
  8
YELLOW
 10
1.524020
 20
4.260400
 30
0.000000
 40
0.066219
 50
-162.057454
 51
4.849824
  6
CONTINUOUS
  0
ARC
  8
YELLOW
 10
0.690118
 20
4.239046
 30
0.000000
 40
0.900289
 50
1.715526
 51
20.749112
  6
CONTINUOUS
  0
ARC
  8
YELLOW
 10
1.477993
 20
4.539577
 30
0.000000
 40
0.057075
 50
18.828853
 51
176.561620
  6
CONTINUOUS
  0
ARC
  8
YELLOW
 10
5.108029
 20
3.489716
 30
0.000000
 40
0.029681
 50
155.547590
 51
295.934114
  6
CONTINUOUS
  0
ARC
  8
YELLOW
 10
4.634176
 20
4.565924
 30
0.000000
 40
1.205569
 50
-66.182782
 51
-40.123966
  6
CONTINUOUS
  0
LINE
  8
YELLOW
 10
5.556016
 20
3.789003
 30
0.000000
 11
5.575021
 21
3.820999
 31
0.000000
  6
CONTINUOUS
  0
ARC
  8
YELLOW
 10
5.559042
 20
3.825474
 30
0.000000
 40
0.016594
 50
-15.644438
 51
118.914112
  6
CONTINUOUS
  0
LINE
  8
YELLOW
 10
5.551019
 20
3.839999
 30
0.000000
 11
5.141021
 21
3.593999
 31
0.000000
  6
CONTINUOUS
  0
ARC
  8
YELLOW
 10
5.213421
 20
3.481199
 30
0.000000
 40
0.134036
 50
122.694132
 51
171.071500
  6
CONTINUOUS
  0
ARC
  8
YELLOW
 10
1.849520
 20
4.453000
 30
0.000000
 40
0.641116
 50
173.911500
 51
201.502700
  6
CONTINUOUS
  0
ARC
  8
YELLOW
 10
1.314925
 20
4.241186
 30
0.000000
 40
0.066099
 50
-159.467532
 51
1.572154
  6
CONTINUOUS
  0
ARC
  8
YELLOW
 10
0.466318
 20
4.216060
 30
0.000000
 40
0.915078
 50
1.686947
 51
20.397765
  6
CONTINUOUS
  0
ARC
  8
YELLOW
 10
1.270017
 20
4.512010
 30
0.000000
 40
0.058689
 50
23.059775
 51
171.188652
  6
CONTINUOUS
  0
ARC
  8
YELLOW
 10
0.939121
 20
1.841199
 30
0.000000
 40
0.570096
 50
57.310660
 51
95.142560
  6
CONTINUOUS
  0
LINE
  8
YELLOW
 10
0.888021
 20
2.409000
 30
0.000000
 11
0.862020
 21
2.402999
 31
0.000000
  6
CONTINUOUS
  0
ARC
  8
YELLOW
 10
0.886619
 20
2.370998
 30
0.000000
 40
0.040363
 50
127.549292
 51
208.088400
  6
CONTINUOUS
  0
ARC
  8
YELLOW
 10
1.131908
 20
2.675011
 30
0.000000
 40
0.428069
 50
-131.010354
 51
-90.788016
  6
CONTINUOUS
  0
ARC
  8
YELLOW
 10
1.149980
 20
2.489903
 30
0.000000
 40
0.244099
 50
-95.633004
 51
-70.361152
  6
CONTINUOUS
  0
ARC
  8
YELLOW
 10
1.229777
 20
2.292897
 30
0.000000
 40
0.032970
 50
-86.098972
 51
58.465150
  6
CONTINUOUS
  0
LINE
  8
YELLOW
 10
0.351021
 20
3.490000
 30
0.000000
 11
0.322020
 21
3.434999
 31
0.000000
  6
CONTINUOUS
  0
ARC
  8
YELLOW
 10
0.393020
 20
3.398499
 30
0.000000
 40
0.079833
 50
152.793006
 51
331.190100
  6
CONTINUOUS
  0
LINE
  8
YELLOW
 10
0.462971
 20
3.360028
 30
0.000000
 11
0.492021
 21
3.415000
 31
0.000000
  6
CONTINUOUS
  0
ARC
  8
YELLOW
 10
0.421521
 20
3.452500
 30
0.000000
 40
0.079853
 50
-28.009177
 51
151.990823
  6
CONTINUOUS
  0
ARC
  8
YELLOW
 10
2.071399
 20
7.103811
 30
0.000000
 40
0.059778
 50
98.056256
 51
208.813521
  6
CONTINUOUS
  0
ARC
  8
YELLOW
 10
2.033213
 20
7.125160
 30
0.000000
 40
0.052129
 50
169.119672
 51
254.201883
  6
CONTINUOUS
  0
ARC
  8
YELLOW
 10
2.090092
 20
7.124013
 30
0.000000
 40
0.108628
 50
63.229938
 51
174.194998
  6
CONTINUOUS
  0
ARC
  8
YELLOW
 10
2.428101
 20
7.754609
 30
0.000000
 40
0.606884
 50
-118.446401
 51
-83.194103
  6
CONTINUOUS
  0
ARC
  8
YELLOW
 10
2.334021
 20
7.794099
 30
0.000000
 40
0.663208
 50
-91.036696
 51
-75.504900
  6
CONTINUOUS
  0
ARC
  8
YELLOW
 10
2.257021
 20
7.668999
 30
0.000000
 40
0.541915
 50
-110.976800
 51
-83.111000
  6
CONTINUOUS
  0
ARC
  8
YELLOW
 10
2.551920
 20
6.288800
 30
0.000000
 40
0.988638
 50
118.576700
 51
123.100200
  6
CONTINUOUS
  0
CIRCLE
  8
YELLOW
 10
6.075120
 20
4.537999
 30
0.000000
 40
0.041900
  6
CONTINUOUS
  0
ARC
  8
YELLOW
 10
0.201020
 20
-0.676999
 30
0.000000
 40
3.692016
 50
85.572730
 51
91.893640
  6
CONTINUOUS
  0
ARC
  8
YELLOW
 10
0.747021
 20
2.871900
 30
0.000000
 40
0.188021
 50
-8.530800
 51
106.690509
  6
CONTINUOUS
  0
ARC
  8
YELLOW
 10
0.204020
 20
4.690399
 30
0.000000
 40
1.709815
 50
-80.506823
 51
-73.381600
  6
CONTINUOUS
  0
ARC
  8
YELLOW
 10
0.351021
 20
1.969298
 30
0.000000
 40
1.043472
 50
56.955690
 51
82.566540
  6
CONTINUOUS
  0
ARC
  8
YELLOW
 10
0.676020
 20
2.432699
 30
0.000000
 40
0.478217
 50
59.321840
 51
99.022942
  6
CONTINUOUS
  0
ARC
  8
YELLOW
 10
0.720021
 20
2.211200
 30
0.000000
 40
0.703933
 50
99.732620
 51
152.430300
  6
CONTINUOUS
  0
ARC
  8
YELLOW
 10
0.696621
 20
3.435798
 30
0.000000
 40
0.530382
 50
174.134500
 51
204.245500
  6
CONTINUOUS
  0
ARC
  8
YELLOW
 10
0.314016
 20
3.258808
 30
0.000000
 40
0.108928
 50
-157.997135
 51
-92.103373
  6
CONTINUOUS
  0
ARC
  8
YELLOW
 10
0.334111
 20
3.701099
 30
0.000000
 40
0.551672
 50
-92.503102
 51
-29.552392
  6
CONTINUOUS
  0
ARC
  8
YELLOW
 10
0.381020
 20
3.742498
 30
0.000000
 40
0.534567
 50
-75.482993
 51
-35.905100
  6
CONTINUOUS
  0
ARC
  8
YELLOW
 10
0.074091
 20
3.436038
 30
0.000000
 40
0.488828
 50
-25.576755
 51
8.939061
  6
CONTINUOUS
  0
ARC
  8
YELLOW
 10
0.446017
 20
3.494417
 30
0.000000
 40
0.112348
 50
9.000778
 51
111.405015
  6
CONTINUOUS
  0
ARC
  8
YELLOW
 10
0.528020
 20
3.199799
 30
0.000000
 40
0.417737
 50
107.124900
 51
149.789000
  6
CONTINUOUS
  0
LINE
  8
YELLOW
 10
0.312020
 20
3.767999
 30
0.000000
 11
0.845021
 21
3.484000
 31
0.000000
  6
CONTINUOUS
  0
ARC
  8
YELLOW
 10
1.250977
 20
1.674903
 30
0.000000
 40
1.025143
 50
82.824752
 51
150.929898
  6
CONTINUOUS
  0
ARC
  8
YELLOW
 10
0.540021
 20
2.175900
 30
0.000000
 40
0.185068
 50
-179.101900
 51
-110.893000
  6
CONTINUOUS
  0
LINE
  8
YELLOW
 10
0.500020
 20
3.852000
 30
0.000000
 11
0.444020
 21
3.746000
 31
0.000000
  6
CONTINUOUS
  0
LINE
  8
YELLOW
 10
0.444020
 20
3.746000
 30
0.000000
 11
0.486020
 21
3.723000
 31
0.000000
  6
CONTINUOUS
  0
LINE
  8
YELLOW
 10
0.814014
 20
3.429004
 30
0.000000
 11
0.946020
 21
3.662999
 31
0.000000
  6
CONTINUOUS
  0
LINE
  8
YELLOW
 10
0.946020
 20
3.662999
 30
0.000000
 11
0.462021
 21
3.921000
 31
0.000000
  6
CONTINUOUS
  0
LINE
  8
YELLOW
 10
0.508021
 20
3.711999
 30
0.000000
 11
0.558021
 21
3.803999
 31
0.000000
  6
CONTINUOUS
  0
LINE
  8
YELLOW
 10
0.558021
 20
3.803999
 30
0.000000
 11
0.572021
 21
3.813999
 31
0.000000
  6
CONTINUOUS
  0
LINE
  8
YELLOW
 10
0.572021
 20
3.813999
 30
0.000000
 11
0.600021
 21
3.799000
 31
0.000000
  6
CONTINUOUS
  0
LINE
  8
YELLOW
 10
0.600021
 20
3.799000
 30
0.000000
 11
0.600021
 21
3.782000
 31
0.000000
  6
CONTINUOUS
  0
LINE
  8
YELLOW
 10
0.600021
 20
3.782000
 30
0.000000
 11
0.551020
 21
3.688999
 31
0.000000
  6
CONTINUOUS
  0
LINE
  8
YELLOW
 10
0.579020
 20
3.741999
 30
0.000000
 11
0.536021
 21
3.764999
 31
0.000000
  6
CONTINUOUS
  0
LINE
  8
YELLOW
 10
0.580020
 20
3.691000
 30
0.000000
 11
0.580020
 21
3.674000
 31
0.000000
  6
CONTINUOUS
  0
LINE
  8
YELLOW
 10
0.580020
 20
3.674000
 30
0.000000
 11
0.608020
 21
3.658999
 31
0.000000
  6
CONTINUOUS
  0
LINE
  8
YELLOW
 10
0.608020
 20
3.658999
 30
0.000000
 11
0.622020
 21
3.668000
 31
0.000000
  6
CONTINUOUS
  0
LINE
  8
YELLOW
 10
0.622020
 20
3.668000
 30
0.000000
 11
0.636021
 21
3.694999
 31
0.000000
  6
CONTINUOUS
  0
LINE
  8
YELLOW
 10
0.636021
 20
3.694999
 30
0.000000
 11
0.636021
 21
3.711999
 31
0.000000
  6
CONTINUOUS
  0
LINE
  8
YELLOW
 10
0.636021
 20
3.711999
 30
0.000000
 11
0.608020
 21
3.727000
 31
0.000000
  6
CONTINUOUS
  0
LINE
  8
YELLOW
 10
0.608020
 20
3.727000
 30
0.000000
 11
0.608020
 21
3.744000
 31
0.000000
  6
CONTINUOUS
  0
LINE
  8
YELLOW
 10
0.608020
 20
3.744000
 30
0.000000
 11
0.622020
 21
3.770000
 31
0.000000
  6
CONTINUOUS
  0
LINE
  8
YELLOW
 10
0.622020
 20
3.770000
 30
0.000000
 11
0.636021
 21
3.780000
 31
0.000000
  6
CONTINUOUS
  0
LINE
  8
YELLOW
 10
0.636021
 20
3.780000
 30
0.000000
 11
0.664021
 21
3.764999
 31
0.000000
  6
CONTINUOUS
  0
LINE
  8
YELLOW
 10
0.664021
 20
3.764999
 30
0.000000
 11
0.664021
 21
3.747999
 31
0.000000
  6
CONTINUOUS
  0
LINE
  8
YELLOW
 10
0.736020
 20
3.727000
 30
0.000000
 11
0.693021
 21
3.748999
 31
0.000000
  6
CONTINUOUS
  0
LINE
  8
YELLOW
 10
0.693021
 20
3.748999
 30
0.000000
 11
0.637021
 21
3.642999
 31
0.000000
  6
CONTINUOUS
  0
LINE
  8
YELLOW
 10
0.637021
 20
3.642999
 30
0.000000
 11
0.679021
 21
3.621000
 31
0.000000
  6
CONTINUOUS
  0
LINE
  8
YELLOW
 10
0.665021
 20
3.695999
 30
0.000000
 11
0.686020
 21
3.684999
 31
0.000000
  6
CONTINUOUS
  0
LINE
  8
YELLOW
 10
0.702021
 20
3.609000
 30
0.000000
 11
0.758021
 21
3.714999
 31
0.000000
  6
CONTINUOUS
  0
LINE
  8
YELLOW
 10
0.758021
 20
3.714999
 30
0.000000
 11
0.793020
 21
3.695999
 31
0.000000
  6
CONTINUOUS
  0
LINE
  8
YELLOW
 10
0.793020
 20
3.695999
 30
0.000000
 11
0.793020
 21
3.678999
 31
0.000000
  6
CONTINUOUS
  0
LINE
  8
YELLOW
 10
0.793020
 20
3.678999
 30
0.000000
 11
0.779020
 21
3.652999
 31
0.000000
  6
CONTINUOUS
  0
LINE
  8
YELLOW
 10
0.779020
 20
3.652999
 30
0.000000
 11
0.765020
 21
3.642999
 31
0.000000
  6
CONTINUOUS
  0
LINE
  8
YELLOW
 10
0.765020
 20
3.642999
 30
0.000000
 11
0.730021
 21
3.661999
 31
0.000000
  6
CONTINUOUS
  0
ARC
  8
YELLOW
 10
1.987521
 20
4.701000
 30
0.000000
 40
1.417681
 50
-151.383100
 51
-121.868300
  6
CONTINUOUS
  0
LINE
  8
YELLOW
 10
0.744021
 20
3.654000
 30
0.000000
 11
0.744021
 21
3.586000
 31
0.000000
  6
CONTINUOUS
  0
ARC
  8
YELLOW
 10
1.942225
 20
4.648967
 30
0.000000
 40
1.178032
 50
-171.212473
 51
-132.324642
  6
CONTINUOUS
  0
ARC
  8
YELLOW
 10
4.954820
 20
1.460500
 30
0.000000
 40
4.655035
 50
105.829800
 51
121.724700
  6
CONTINUOUS
  0
ARC
  8
YELLOW
 10
2.652021
 20
5.191998
 30
0.000000
 40
0.270202
 50
122.454108
 51
177.878600
  6
CONTINUOUS
  0
ARC
  8
YELLOW
 10
8.312440
 20
4.805282
 30
0.000000
 40
5.943689
 50
176.172884
 51
179.453228
  6
CONTINUOUS
  0
ARC
  8
YELLOW
 10
1.895021
 20
4.973298
 30
0.000000
 40
0.486891
 50
-149.611500
 51
-13.213840
  6
CONTINUOUS
  0
LINE
  8
YELLOW
 10
1.475021
 20
4.726999
 30
0.000000
 11
1.412020
 21
4.926999
 31
0.000000
  6
CONTINUOUS
  0
ARC
  8
YELLOW
 10
1.331012
 20
4.377299
 30
0.000000
 40
0.555637
 50
81.616752
 51
135.896250
  6
CONTINUOUS
  0
ARC
  8
YELLOW
 10
1.813819
 20
4.500100
 30
0.000000
 40
0.920442
 50
163.338900
 51
176.580600
  6
CONTINUOUS
  0
ARC
  8
YELLOW
 10
1.620019
 20
4.783000
 30
0.000000
 40
0.760009
 50
179.773800
 51
197.457446
  6
CONTINUOUS
  0
ARC
  8
YELLOW
 10
1.121020
 20
4.664099
 30
0.000000
 40
0.288064
 50
109.259100
 51
154.964829
  6
CONTINUOUS
  0
ARC
  8
YELLOW
 10
1.256425
 20
5.147820
 30
0.000000
 40
0.312959
 50
164.395360
 51
222.586154
  6
CONTINUOUS
  0
ARC
  8
YELLOW
 10
1.291920
 20
5.026999
 30
0.000000
 40
0.224377
 50
127.922000
 51
164.222900
  6
CONTINUOUS
  0
LINE
  8
YELLOW
 10
1.075996
 20
5.088006
 30
0.000000
 11
1.026005
 21
4.936041
 31
0.000000
  6
CONTINUOUS
  0
ARC
  8
YELLOW
 10
-1.566377
 20
14.680434
 30
0.000000
 40
10.083335
 50
-75.102200
 51
-69.608304
  6
CONTINUOUS
  0
ARC
  8
YELLOW
 10
-1.086880
 20
12.636700
 30
0.000000
 40
8.004913
 50
-67.727935
 51
-57.907600
  6
CONTINUOUS
  0
ARC
  8
YELLOW
 10
2.360821
 20
6.079900
 30
0.000000
 40
0.836015
 50
-15.605486
 51
3.778969
  6
CONTINUOUS
  0
LINE
  8
YELLOW
 10
1.326021
 20
3.797999
 30
0.000000
 11
1.321021
 21
3.411000
 31
0.000000
  6
CONTINUOUS
  0
LINE
  8
YELLOW
 10
1.321021
 20
3.411000
 30
0.000000
 11
1.149020
 21
3.777999
 31
0.000000
  6
CONTINUOUS
  0
LINE
  8
YELLOW
 10
1.149020
 20
3.777999
 30
0.000000
 11
1.726021
 21
3.843999
 31
0.000000
  6
CONTINUOUS
  0
ARC
  8
YELLOW
 10
1.335020
 20
4.786498
 30
0.000000
 40
1.020385
 50
-67.468608
 51
-39.532300
  6
CONTINUOUS
  0
LINE
  8
YELLOW
 10
2.122008
 20
4.137010
 30
0.000000
 11
2.029021
 21
4.502000
 31
0.000000
  6
CONTINUOUS
  0
LINE
  8
YELLOW
 10
1.662020
 20
2.494000
 30
0.000000
 11
1.459021
 21
2.135000
 31
0.000000
  6
CONTINUOUS
  0
ARC
  8
YELLOW
 10
1.722421
 20
2.062200
 30
0.000000
 40
0.273275
 50
164.549961
 51
215.888700
  6
CONTINUOUS
  0
ARC
  8
YELLOW
 10
2.215020
 20
3.127100
 30
0.000000
 40
0.562812
 50
-144.465800
 51
-114.010000
  6
CONTINUOUS
  0
ARC
  8
YELLOW
 10
2.635021
 20
3.328000
 30
0.000000
 40
1.024531
 50
176.866701
 51
211.021300
  6
CONTINUOUS
  0
LINE
  8
YELLOW
 10
1.612021
 20
3.384000
 30
0.000000
 11
1.653021
 21
3.835000
 31
0.000000
  6
CONTINUOUS
  0
LINE
  8
YELLOW
 10
2.005020
 20
2.340999
 30
0.000000
 11
2.036010
 21
2.301995
 31
0.000000
  6
CONTINUOUS
  0
ARC
  8
YELLOW
 10
1.992109
 20
1.974002
 30
0.000000
 40
0.330918
 50
82.376340
 51
109.982721
  6
CONTINUOUS
  0
LINE
  8
YELLOW
 10
1.879022
 20
2.284997
 30
0.000000
 11
1.720020
 21
2.029000
 31
0.000000
  6
CONTINUOUS
  0
ARC
  8
YELLOW
 10
1.808219
 20
1.979000
 30
0.000000
 40
0.101386
 50
150.451106
 51
198.399500
  6
CONTINUOUS
  0
LINE
  8
YELLOW
 10
1.712016
 20
1.946998
 30
0.000000
 11
1.902021
 21
1.712999
 31
0.000000
  6
CONTINUOUS
  0
ARC
  8
YELLOW
 10
1.833221
 20
2.236398
 30
0.000000
 40
0.527901
 50
-82.511491
 51
-67.408500
  6
CONTINUOUS
  0
LINE
  8
YELLOW
 10
1.987021
 20
2.563999
 30
0.000000
 11
1.986014
 21
2.612986
 31
0.000000
  6
CONTINUOUS
  0
ARC
  8
YELLOW
 10
2.472323
 20
3.060975
 30
0.000000
 40
0.661204
 50
-170.601022
 51
-137.348621
  6
CONTINUOUS
  0
ARC
  8
YELLOW
 10
1.955096
 20
2.968989
 30
0.000000
 40
0.136044
 50
109.795525
 51
186.751798
  6
CONTINUOUS
  0
ARC
  8
YELLOW
 10
3.594828
 20
0.641798
 30
0.000000
 40
2.978242
 50
85.065238
 51
124.474564
  6
CONTINUOUS
  0
ARC
  8
YELLOW
 10
3.842219
 20
3.125500
 30
0.000000
 40
0.483581
 50
68.682510
 51
88.957150
  6
CONTINUOUS
  0
ARC
  8
YELLOW
 10
3.801130
 20
2.605592
 30
0.000000
 40
0.994344
 50
53.898409
 51
77.401319
  6
CONTINUOUS
  0
ARC
  8
YELLOW
 10
4.312330
 20
3.306018
 30
0.000000
 40
0.127210
 50
-27.641765
 51
54.047599
  6
CONTINUOUS
  0
LINE
  8
YELLOW
 10
4.425021
 20
3.247000
 30
0.000000
 11
4.357021
 21
3.119999
 31
0.000000
  6
CONTINUOUS
  0
ARC
  8
YELLOW
 10
7.046820
 20
6.566799
 30
0.000000
 40
5.272348
 50
-168.736500
 51
-165.301100
  6
CONTINUOUS
  0
ARC
  8
YELLOW
 10
4.013519
 20
3.531496
 30
0.000000
 40
0.044725
 50
-95.772579
 51
84.227421
  6
CONTINUOUS
  0
ARC
  8
YELLOW
 10
3.814121
 20
2.755399
 30
0.000000
 40
0.757115
 50
75.082720
 51
87.888150
  6
CONTINUOUS
  0
ARC
  8
YELLOW
 10
3.595456
 20
0.642230
 30
0.000000
 40
2.880342
 50
85.089326
 51
124.499828
  6
CONTINUOUS
  0
ARC
  8
YELLOW
 10
1.936521
 20
3.056497
 30
0.000000
 40
0.048951
 50
124.177672
 51
304.177672
  6
CONTINUOUS
  0
ARC
  8
YELLOW
 10
2.385320
 20
6.908000
 30
0.000000
 40
0.441261
 50
154.207300
 51
183.768300
  6
CONTINUOUS
  0
ARC
  8
YELLOW
 10
2.881223
 20
6.667214
 30
0.000000
 40
0.959866
 50
167.253310
 51
195.667386
  6
CONTINUOUS
  0
ARC
  8
YELLOW
 10
4.035320
 20
6.366998
 30
0.000000
 40
2.078704
 50
178.869795
 51
187.630000
  6
CONTINUOUS
  0
ARC
  8
YELLOW
 10
2.859321
 20
6.181781
 30
0.000000
 40
0.888948
 50
-174.138447
 51
-144.454988
  6
CONTINUOUS
  0
ARC
  8
YELLOW
 10
2.265820
 20
5.712698
 30
0.000000
 40
0.138287
 50
-159.822200
 51
-98.651400
  6
CONTINUOUS
  0
ARC
  8
YELLOW
 10
2.305985
 20
6.740301
 30
0.000000
 40
1.165911
 50
-92.997390
 51
-67.134732
  6
CONTINUOUS
  0
ARC
  8
YELLOW
 10
2.467136
 20
6.394306
 30
0.000000
 40
0.784612
 50
-68.160539
 51
-47.914611
  6
CONTINUOUS
  0
ARC
  8
YELLOW
 10
2.748220
 20
5.987799
 30
0.000000
 40
0.301373
 50
-35.682893
 51
-5.865526
  6
CONTINUOUS
  0
ARC
  8
YELLOW
 10
2.744619
 20
5.996000
 30
0.000000
 40
0.305896
 50
-7.324800
 51
57.494160
  6
CONTINUOUS
  0
ARC
  8
YELLOW
 10
2.626141
 20
6.694298
 30
0.000000
 40
0.523351
 50
-93.628544
 51
-57.283541
  6
CONTINUOUS
  0
ARC
  8
YELLOW
 10
3.727920
 20
1.322000
 30
0.000000
 40
1.744709
 50
152.522900
 51
170.931300
  6
CONTINUOUS
  0
ARC
  8
YELLOW
 10
6.149421
 20
5.542000
 30
0.000000
 40
5.236199
 50
-141.773600
 51
-129.866400
  6
CONTINUOUS
  0
ARC
  8
YELLOW
 10
-0.645578
 20
-26.399436
 30
0.000000
 40
28.826430
 50
83.113051
 51
84.662324
  6
CONTINUOUS
  0
ARC
  8
YELLOW
 10
2.831820
 20
2.387898
 30
0.000000
 40
0.170172
 50
-97.020886
 51
1.380291
  6
CONTINUOUS
  0
LINE
  8
YELLOW
 10
3.001946
 20
2.391997
 30
0.000000
 11
3.461021
 21
2.815000
 31
0.000000
  6
CONTINUOUS
  0
LINE
  8
YELLOW
 10
3.461021
 20
2.815000
 30
0.000000
 11
3.446020
 21
2.934999
 31
0.000000
  6
CONTINUOUS
  0
ARC
  8
YELLOW
 10
4.852621
 20
1.007999
 30
0.000000
 40
2.802329
 50
158.237300
 51
169.410200
  6
CONTINUOUS
  0
LINE
  8
YELLOW
 10
2.823005
 20
4.303985
 30
0.000000
 11
2.563021
 21
4.157999
 31
0.000000
  6
CONTINUOUS
  0
ARC
  8
YELLOW
 10
2.310132
 20
4.827895
 30
0.000000
 40
0.716040
 50
-105.232031
 51
-69.318245
  6
CONTINUOUS
  0
LINE
  8
WHITE
 10
4.640021
 20
1.504000
 30
0.000000
 11
2.132021
 21
1.504000
 31
0.000000
  6
CONTINUOUS
  0
LINE
  8
YELLOW
 10
2.817020
 20
7.239000
 30
0.000000
 11
2.776021
 21
7.253001
 31
0.000000
  6
CONTINUOUS
  0
ARC
  8
YELLOW
 10
2.552921
 20
6.297699
 30
0.000000
 40
0.981007
 50
76.854800
 51
112.657200
  6
CONTINUOUS
  0
ARC
  8
YELLOW
 10
2.447921
 20
6.368200
 30
0.000000
 40
0.122831
 50
134.373300
 51
210.427700
  6
CONTINUOUS
  0
LINE
  8
YELLOW
 10
2.827020
 20
6.506999
 30
0.000000
 11
2.381007
 21
6.386014
 31
0.000000
  6
CONTINUOUS
  0
ARC
  8
YELLOW
 10
2.408861
 20
6.352934
 30
0.000000
 40
0.043246
 50
130.097130
 51
194.645883
  6
CONTINUOUS
  0
ARC
  8
YELLOW
 10
2.641019
 20
6.680700
 30
0.000000
 40
0.427027
 50
-114.782600
 51
-57.887800
  6
CONTINUOUS
  0
ARC
  8
YELLOW
 10
2.684739
 20
6.568768
 30
0.000000
 40
0.354474
 50
-148.965010
 51
-128.925624
  6
CONTINUOUS
  0
ARC
  8
YELLOW
 10
2.350021
 20
6.419100
 30
0.000000
 40
0.045330
 50
-46.876600
 51
13.913620
  6
CONTINUOUS
  0
ARC
  8
YELLOW
 10
2.909921
 20
5.555199
 30
0.000000
 40
0.857006
 50
96.896130
 51
120.185200
  6
CONTINUOUS
  0
LINE
  8
YELLOW
 10
2.562021
 20
6.635999
 30
0.000000
 11
2.505020
 21
6.876000
 31
0.000000
  6
CONTINUOUS
  0
LINE
  8
YELLOW
 10
2.533021
 20
2.698000
 30
0.000000
 11
2.586021
 21
2.529000
 31
0.000000
  6
CONTINUOUS
  0
LINE
  8
YELLOW
 10
2.586021
 20
2.529000
 30
0.000000
 11
3.001946
 21
2.391997
 31
0.000000
  6
CONTINUOUS
  0
ARC
  8
YELLOW
 10
3.167895
 20
2.441081
 30
0.000000
 40
0.173056
 50
-163.523166
 51
-41.241199
  6
CONTINUOUS
  0
ARC
  8
YELLOW
 10
4.325804
 20
1.453895
 30
0.000000
 40
1.348570
 50
101.367646
 51
139.652043
  6
CONTINUOUS
  0
ARC
  8
YELLOW
 10
5.019081
 20
2.420161
 30
0.000000
 40
1.022972
 50
159.643654
 51
168.677587
  6
CONTINUOUS
  0
ARC
  8
YELLOW
 10
5.501520
 20
2.068100
 30
0.000000
 40
1.585060
 50
159.584845
 51
167.172800
  6
CONTINUOUS
  0
ARC
  8
YELLOW
 10
4.054920
 20
2.382998
 30
0.000000
 40
0.105596
 50
159.487103
 51
214.621831
  6
CONTINUOUS
  0
ARC
  8
YELLOW
 10
4.053019
 20
2.432400
 30
0.000000
 40
0.138540
 50
-127.846000
 51
-92.481800
  6
CONTINUOUS
  0
ARC
  8
YELLOW
 10
4.033004
 20
2.480498
 30
0.000000
 40
0.187034
 50
-85.702209
 51
-52.053245
  6
CONTINUOUS
  0
ARC
  8
YELLOW
 10
2.891729
 20
6.970959
 30
0.000000
 40
0.307435
 50
-167.992455
 51
-119.354665
  6
CONTINUOUS
  0
ARC
  8
YELLOW
 10
2.772005
 20
6.562095
 30
0.000000
 40
0.144269
 50
102.402148
 51
165.999351
  6
CONTINUOUS
  0
ARC
  8
YELLOW
 10
2.639020
 20
6.634198
 30
0.000000
 40
0.123034
 50
-14.690900
 51
34.000050
  6
CONTINUOUS
  0
ARC
  8
YELLOW
 10
2.691021
 20
6.694599
 30
0.000000
 40
0.119497
 50
-109.557100
 51
-63.134800
  6
CONTINUOUS
  0
ARC
  8
YELLOW
 10
2.879035
 20
7.186590
 30
0.000000
 40
0.066619
 50
60.531014
 51
104.797227
  6
CONTINUOUS
  0
LINE
  8
YELLOW
 10
2.862021
 20
7.251000
 30
0.000000
 11
2.809021
 21
7.236999
 31
0.000000
  6
CONTINUOUS
  0
ARC
  8
YELLOW
 10
2.828808
 20
7.142995
 30
0.000000
 40
0.096064
 50
101.886975
 51
156.044796
  6
CONTINUOUS
  0
ARC
  8
YELLOW
 10
2.712220
 20
7.195399
 30
0.000000
 40
0.031764
 50
-106.836401
 51
-24.951500
  6
CONTINUOUS
  0
ARC
  8
YELLOW
 10
2.721819
 20
7.213398
 30
0.000000
 40
0.051924
 50
-111.226167
 51
-65.901300
  6
CONTINUOUS
  0
ARC
  8
YELLOW
 10
2.971021
 20
6.872700
 30
0.000000
 40
0.371497
 50
113.646100
 51
127.860226
  6
CONTINUOUS
  0
ARC
  8
YELLOW
 10
2.840821
 20
7.104600
 30
0.000000
 40
0.110023
 50
29.034170
 51
99.839426
  6
CONTINUOUS
  0
LINE
  8
YELLOW
 10
2.788020
 20
6.496000
 30
0.000000
 11
2.831020
 21
6.298000
 31
0.000000
  6
CONTINUOUS
  0
ARC
  8
YELLOW
 10
5.809320
 20
3.978900
 30
0.000000
 40
1.168505
 50
-155.267157
 51
-126.698300
  6
CONTINUOUS
  0
ARC
  8
YELLOW
 10
20.670597
 20
43.829092
 30
0.000000
 40
43.367852
 50
-114.301592
 51
-111.540085
  6
CONTINUOUS
  0
ARC
  8
YELLOW
 10
-12.989794
 20
32.067536
 30
0.000000
 40
31.950890
 50
-60.336218
 51
-58.983513
  6
CONTINUOUS
  0
ARC
  8
YELLOW
 10
3.215220
 20
5.119799
 30
0.000000
 40
0.505975
 50
-59.238200
 51
-21.179086
  6
CONTINUOUS
  0
ARC
  8
YELLOW
 10
-3.005678
 20
7.650558
 30
0.000000
 40
7.221881
 50
-22.070137
 51
-15.751993
  6
CONTINUOUS
  0
ARC
  8
YELLOW
 10
4.915321
 20
5.469000
 30
0.000000
 40
0.995180
 50
126.883700
 51
167.169000
  6
CONTINUOUS
  0
ARC
  8
YELLOW
 10
4.136221
 20
5.780100
 30
0.000000
 40
0.517860
 50
69.447821
 51
106.744845
  6
CONTINUOUS
  0
LINE
  8
YELLOW
 10
3.987021
 20
6.275999
 30
0.000000
 11
3.919020
 21
6.510999
 31
0.000000
  6
CONTINUOUS
  0
ARC
  8
YELLOW
 10
2.870080
 20
5.918977
 30
0.000000
 40
0.102426
 50
-61.457181
 51
-5.589678
  6
CONTINUOUS
  0
ARC
  8
YELLOW
 10
2.924019
 20
5.917700
 30
0.000000
 40
0.048782
 50
-10.273300
 51
104.234400
  6
CONTINUOUS
  0
ARC
  8
YELLOW
 10
2.931397
 20
5.937982
 30
0.000000
 40
0.033233
 50
125.657674
 51
277.980852
  6
CONTINUOUS
  0
ARC
  8
YELLOW
 10
3.729620
 20
6.282800
 30
0.000000
 40
0.086683
 50
-20.107300
 51
69.474300
  6
CONTINUOUS
  0
ARC
  8
YELLOW
 10
2.176048
 20
8.181011
 30
0.000000
 40
2.527916
 50
-66.944971
 51
-49.701735
  6
CONTINUOUS
  0
ARC
  8
YELLOW
 10
5.850020
 20
8.910299
 30
0.000000
 40
5.032835
 50
-120.548100
 51
-102.030400
  6
CONTINUOUS
  0
LINE
  8
YELLOW
 10
3.413020
 20
1.523000
 30
0.000000
 11
3.391951
 21
1.855998
 31
0.000000
  6
CONTINUOUS
  0
ARC
  8
YELLOW
 10
4.308515
 20
1.875997
 30
0.000000
 40
0.916782
 50
106.508410
 51
181.249996
  6
CONTINUOUS
  0
ARC
  8
YELLOW
 10
5.756542
 20
3.928967
 30
0.000000
 40
2.072999
 50
-145.506037
 51
-129.569494
  6
CONTINUOUS
  0
ARC
  8
YELLOW
 10
4.599020
 20
2.529399
 30
0.000000
 40
0.256782
 50
-129.405500
 51
-33.145500
  6
CONTINUOUS
  0
ARC
  8
YELLOW
 10
4.749240
 20
2.172556
 30
0.000000
 40
0.225929
 50
24.989025
 51
73.337949
  6
CONTINUOUS
  0
LINE
  8
YELLOW
 10
4.318021
 20
6.265000
 30
0.000000
 11
4.354019
 21
6.045998
 31
0.000000
  6
CONTINUOUS
  0
ARC
  8
YELLOW
 10
5.007950
 20
5.264025
 30
0.000000
 40
1.019366
 50
129.904332
 51
170.686323
  6
CONTINUOUS
  0
ARC
  8
YELLOW
 10
0.198720
 20
6.780998
 30
0.000000
 40
4.036460
 50
-26.182300
 51
-19.569300
  6
CONTINUOUS
  0
ARC
  8
YELLOW
 10
3.313821
 20
5.245999
 30
0.000000
 40
0.563707
 50
-56.856825
 51
-25.874510
  6
CONTINUOUS
  0
LINE
  8
YELLOW
 10
3.622021
 20
4.773999
 30
0.000000
 11
3.474011
 21
4.685014
 31
0.000000
  6
CONTINUOUS
  0
ARC
  8
YELLOW
 10
4.381221
 20
1.850199
 30
0.000000
 40
0.894239
 50
113.543500
 51
201.463500
  6
CONTINUOUS
  0
ARC
  8
YELLOW
 10
4.731520
 20
5.304998
 30
0.000000
 40
1.223569
 50
127.478591
 51
169.879400
  6
CONTINUOUS
  0
ARC
  8
YELLOW
 10
6.408120
 20
2.399200
 30
0.000000
 40
2.529688
 50
175.560800
 51
200.265200
  6
CONTINUOUS
  0
ARC
  8
YELLOW
 10
4.348921
 20
6.179099
 30
0.000000
 40
0.320709
 50
125.865800
 51
159.768100
  6
CONTINUOUS
  0
LINE
  8
YELLOW
 10
4.852021
 20
3.635999
 30
0.000000
 11
4.694021
 21
3.455999
 31
0.000000
  6
CONTINUOUS
  0
ARC
  8
YELLOW
 10
5.012020
 20
3.189098
 30
0.000000
 40
0.415162
 50
139.992794
 51
175.731300
  6
CONTINUOUS
  0
ARC
  8
YELLOW
 10
4.734020
 20
2.638099
 30
0.000000
 40
0.597585
 50
103.155813
 51
133.718500
  6
CONTINUOUS
  0
ARC
  8
YELLOW
 10
4.653419
 20
2.511998
 30
0.000000
 40
0.649500
 50
120.782000
 51
156.015900
  6
CONTINUOUS
  0
ARC
  8
YELLOW
 10
5.400432
 20
3.507395
 30
0.000000
 40
1.428097
 50
-153.894599
 51
-129.345736
  6
CONTINUOUS
  0
ARC
  8
YELLOW
 10
4.599021
 20
2.613399
 30
0.000000
 40
0.234700
 50
-116.303000
 51
-63.151000
  6
CONTINUOUS
  0
LINE
  8
YELLOW
 10
4.705021
 20
2.404000
 30
0.000000
 11
4.740021
 21
2.313999
 31
0.000000
  6
CONTINUOUS
  0
LINE
  8
YELLOW
 10
4.144020
 20
2.497000
 30
0.000000
 11
4.161021
 21
2.283000
 31
0.000000
  6
CONTINUOUS
  0
ARC
  8
YELLOW
 10
4.234125
 20
2.278659
 30
0.000000
 40
0.073232
 50
176.601886
 51
314.019900
  6
CONTINUOUS
  0
ARC
  8
YELLOW
 10
4.548621
 20
2.271998
 30
0.000000
 40
0.267590
 50
-170.101400
 51
-152.152124
  6
CONTINUOUS
  0
ARC
  8
YELLOW
 10
4.381020
 20
2.174000
 30
0.000000
 40
0.074094
 50
-158.629200
 51
-31.759500
  6
CONTINUOUS
  0
ARC
  8
YELLOW
 10
4.097163
 20
1.594963
 30
0.000000
 40
0.641833
 50
49.497580
 51
57.288086
  6
CONTINUOUS
  0
ARC
  8
YELLOW
 10
4.611520
 20
2.413146
 30
0.000000
 40
0.344243
 50
-106.452961
 51
-73.547008
  6
CONTINUOUS
  0
ARC
  8
YELLOW
 10
4.810921
 20
5.601099
 30
0.000000
 40
0.561896
 50
114.599200
 51
166.317400
  6
CONTINUOUS
  0
ARC
  8
YELLOW
 10
5.247245
 20
5.537320
 30
0.000000
 40
1.001773
 50
168.676786
 51
193.468255
  6
CONTINUOUS
  0
ARC
  8
YELLOW
 10
5.348022
 20
5.528891
 30
0.000000
 40
1.098272
 50
-168.184094
 51
-123.114423
  6
CONTINUOUS
  0
LINE
  8
YELLOW
 10
4.748022
 20
4.608999
 30
0.000000
 11
4.798021
 21
4.611999
 31
0.000000
  6
CONTINUOUS
  0
ARC
  8
YELLOW
 10
4.638921
 20
2.300999
 30
0.000000
 40
0.362245
 50
170.145000
 51
189.855000
  6
CONTINUOUS
  0
LINE
  8
YELLOW
 10
4.443021
 20
2.145000
 30
0.000000
 11
4.432020
 21
2.256000
 31
0.000000
  6
CONTINUOUS
  0
ARC
  8
YELLOW
 10
4.886008
 20
5.814899
 30
0.000000
 40
0.238133
 50
90.959660
 51
155.672414
  6
CONTINUOUS
  0
ARC
  8
YELLOW
 10
5.014520
 20
5.703099
 30
0.000000
 40
0.404262
 50
148.720300
 51
186.690700
  6
CONTINUOUS
  0
ARC
  8
YELLOW
 10
6.536320
 20
5.662998
 30
0.000000
 40
1.923322
 50
-179.791488
 51
-153.105947
  6
CONTINUOUS
  0
LINE
  8
YELLOW
 10
4.821019
 20
4.793000
 30
0.000000
 11
4.944021
 21
4.964999
 31
0.000000
  6
CONTINUOUS
  0
ARC
  8
YELLOW
 10
4.942998
 20
5.016959
 30
0.000000
 40
0.051970
 50
149.930756
 51
271.128437
  6
CONTINUOUS
  0
ARC
  8
YELLOW
 10
6.789120
 20
3.966198
 30
0.000000
 40
2.176179
 50
131.223600
 51
150.342600
  6
CONTINUOUS
  0
ARC
  8
YELLOW
 10
4.582258
 20
4.028752
 30
0.000000
 40
1.753684
 50
38.272994
 51
63.854608
  6
CONTINUOUS
  0
ARC
  8
YELLOW
 10
5.862039
 20
5.012019
 30
0.000000
 40
0.141458
 50
-43.293215
 51
46.718662
  6
CONTINUOUS
  0
ARC
  8
YELLOW
 10
5.673919
 20
5.169599
 30
0.000000
 40
0.386704
 50
-97.264412
 51
-41.173300
  6
CONTINUOUS
  0
ARC
  8
YELLOW
 10
5.777820
 20
6.752198
 30
0.000000
 40
1.972132
 50
-115.010912
 51
-94.443700
  6
CONTINUOUS
  0
ARC
  8
YELLOW
 10
-1.464878
 20
4.396899
 30
0.000000
 40
6.216519
 50
-3.651400
 51
1.955241
  6
CONTINUOUS
  0
ARC
  8
YELLOW
 10
1.809019
 20
4.368998
 30
0.000000
 40
3.598670
 50
-33.380940
 51
-31.419700
  6
CONTINUOUS
  0
ARC
  8
YELLOW
 10
4.976920
 20
3.150499
 30
0.000000
 40
0.183819
 50
-103.817000
 51
-80.891300
  6
CONTINUOUS
  0
ARC
  8
YELLOW
 10
5.415020
 20
2.466699
 30
0.000000
 40
1.526726
 50
54.848410
 51
98.664540
  6
CONTINUOUS
  0
ARC
  8
YELLOW
 10
4.945020
 20
9.868700
 30
0.000000
 40
5.355130
 50
-86.981400
 51
-77.927765
  6
CONTINUOUS
  0
LINE
  8
YELLOW
 10
5.558020
 20
4.427999
 30
0.000000
 11
5.546020
 21
4.547000
 31
0.000000
  6
CONTINUOUS
  0
ARC
  8
YELLOW
 10
5.532019
 20
3.183000
 30
0.000000
 40
1.357400
 50
48.015900
 51
74.182160
  6
CONTINUOUS
  0
ARC
  8
YELLOW
 10
5.853907
 20
3.960800
 30
0.000000
 40
0.530386
 50
84.795531
 51
121.090413
  6
CONTINUOUS
  0
ARC
  8
YELLOW
 10
6.934221
 20
4.457999
 30
0.000000
 40
0.886449
 50
133.500700
 51
168.679900
  6
CONTINUOUS
  0
ARC
  8
YELLOW
 10
6.690820
 20
4.178098
 30
0.000000
 40
0.773082
 50
116.820200
 51
144.046181
  6
CONTINUOUS
  0
ENDSEC
  0
EOF
