  0
SECTION
  2
HEADER
  9
$ACADVER
  1
AC1006
  0
ENDSEC
  0
SECTION
  2
TABLES
  0
TABLE
  2
LTYPE
 70
    25
  0
LTYPE
  2
CONTINUOUS
 70
    64
  3
Solid line
 72
    64
 73
     0
 40
0.000000
  0
LTYPE
  2
DASHDOT
 70
    64
  3
__ . __ . __ . __ . __ . __ . __ . __ . __ . __
 72
    65
 73
     4
 40
1.000000
 49
0.500000
 49
-0.250000
 49
0.000000
 49
-0.250000
  0
LTYPE
  2
DASHED
 70
    64
  3
__ __ __ __ __ __ __ __ __ __ __ __ __ __ __ __
 72
    65
 73
     2
 40
0.750000
 49
0.500000
 49
-0.250000
  0
LTYPE
  2
DIVIDE
 70
    64
  3
____ . . ____ . . ____ . . ____ . . ____ . . __
 72
    65
 73
     6
 40
1.250000
 49
0.500000
 49
-0.250000
 49
0.000000
 49
-0.250000
 49
0.000000
 49
-0.250000
  0
LTYPE
  2
DOT
 70
    64
  3
. . . . . . . . . . . . . . . . . . . . . . . . 
 72
    65
 73
     2
 40
0.250000
 49
0.000000
 49
-0.250000
  0
ENDTAB
  0
ENDSEC
  0
SECTION
  2
BLOCKS
  0
BLOCK
  8
0
  2
Object_0
 70
    64
 10
0.000000
 20
0.000000
 30
0.000000
  0
ENDBLK
  0
ENDSEC
  0
SECTION
  2
ENTITIES
  0
INSERT
  8
0
 62
     7
  2
Object_0
 10
-10.160000
 20
-10.160000
 30
0.000000
  0
LINE
  8
Layer 1
 62
     7
  6
CONTINUOUS
 10
1.468967
 20
0.991959
 30
0.000000
 11
1.351397
 21
0.933289
 31
0.000000
  0
LINE
  8
Layer 1
 62
     7
  6
CONTINUOUS
 10
1.351397
 20
0.933289
 30
0.000000
 11
1.303459
 21
0.913305
 31
0.000000
  0
LINE
  8
Layer 1
 62
     7
  6
CONTINUOUS
 10
1.303459
 20
0.913305
 30
0.000000
 11
1.281584
 21
0.907994
 31
0.000000
  0
LINE
  8
Layer 1
 62
     7
  6
CONTINUOUS
 10
1.281584
 20
0.907994
 30
0.000000
 11
1.299230
 21
0.937310
 31
0.000000
  0
LINE
  8
Layer 1
 62
     7
  6
CONTINUOUS
 10
1.299230
 20
0.937310
 30
0.000000
 11
1.320581
 21
0.966549
 31
0.000000
  0
LINE
  8
Layer 1
 62
     7
  6
CONTINUOUS
 10
1.320581
 20
0.966549
 30
0.000000
 11
1.337807
 21
0.998074
 31
0.000000
  0
LINE
  8
Layer 1
 62
     7
  6
CONTINUOUS
 10
1.337807
 20
0.998074
 30
0.000000
 11
1.359115
 21
1.063845
 31
0.000000
  0
LINE
  8
Layer 1
 62
     7
  6
CONTINUOUS
 10
1.359115
 20
1.063845
 30
0.000000
 11
1.362811
 21
1.096018
 31
0.000000
  0
LINE
  8
Layer 1
 62
     7
  6
CONTINUOUS
 10
1.362811
 20
1.096018
 30
0.000000
 11
1.361614
 21
1.126336
 31
0.000000
  0
LINE
  8
Layer 1
 62
     7
  6
CONTINUOUS
 10
1.361614
 20
1.126336
 30
0.000000
 11
1.355330
 21
1.153764
 31
0.000000
  0
LINE
  8
Layer 1
 62
     7
  6
CONTINUOUS
 10
1.355330
 20
1.153764
 30
0.000000
 11
1.343767
 21
1.177265
 31
0.000000
  0
LINE
  8
Layer 1
 62
     7
  6
CONTINUOUS
 10
1.343767
 20
1.177265
 30
0.000000
 11
1.325163
 21
1.199806
 31
0.000000
  0
LINE
  8
Layer 1
 62
     7
  6
CONTINUOUS
 10
1.325163
 20
1.199806
 30
0.000000
 11
1.304829
 21
1.215109
 31
0.000000
  0
LINE
  8
Layer 1
 62
     7
  6
CONTINUOUS
 10
1.304829
 20
1.215109
 30
0.000000
 11
1.282998
 21
1.223410
 31
0.000000
  0
LINE
  8
Layer 1
 62
     7
  6
CONTINUOUS
 10
1.282998
 20
1.223410
 30
0.000000
 11
1.259903
 21
1.224940
 31
0.000000
  0
LINE
  8
Layer 1
 62
     7
  6
CONTINUOUS
 10
1.259903
 20
1.224940
 30
0.000000
 11
1.235775
 21
1.219933
 31
0.000000
  0
LINE
  8
Layer 1
 62
     7
  6
CONTINUOUS
 10
1.235775
 20
1.219933
 30
0.000000
 11
1.210847
 21
1.208624
 31
0.000000
  0
LINE
  8
Layer 1
 62
     7
  6
CONTINUOUS
 10
1.210847
 20
1.208624
 30
0.000000
 11
1.159521
 21
1.168032
 31
0.000000
  0
LINE
  8
Layer 1
 62
     7
  6
CONTINUOUS
 10
1.159521
 20
1.168032
 30
0.000000
 11
1.107785
 21
1.105031
 31
0.000000
  0
LINE
  8
Layer 1
 62
     7
  6
CONTINUOUS
 10
1.107785
 20
1.105031
 30
0.000000
 11
1.057498
 21
1.021492
 31
0.000000
  0
LINE
  8
Layer 1
 62
     7
  6
CONTINUOUS
 10
1.057498
 20
1.021492
 30
0.000000
 11
1.010518
 21
0.919282
 31
0.000000
  0
LINE
  8
Layer 1
 62
     7
  6
CONTINUOUS
 10
1.010518
 20
0.919282
 30
0.000000
 11
0.968706
 21
0.800271
 31
0.000000
  0
LINE
  8
Layer 1
 62
     7
  6
CONTINUOUS
 10
0.968706
 20
0.800271
 30
0.000000
 11
0.950072
 21
0.730068
 31
0.000000
  0
LINE
  8
Layer 1
 62
     7
  6
CONTINUOUS
 10
0.950072
 20
0.730068
 30
0.000000
 11
0.934763
 21
0.653461
 31
0.000000
  0
LINE
  8
Layer 1
 62
     7
  6
CONTINUOUS
 10
0.934763
 20
0.653461
 30
0.000000
 11
0.915753
 21
0.490600
 31
0.000000
  0
LINE
  8
Layer 1
 62
     7
  6
CONTINUOUS
 10
0.915753
 20
0.490600
 30
0.000000
 11
0.910105
 21
0.401700
 31
0.000000
  0
LINE
  8
Layer 1
 62
     7
  6
CONTINUOUS
 10
0.910105
 20
0.401700
 30
0.000000
 11
0.866434
 21
0.491514
 31
0.000000
  0
LINE
  8
Layer 1
 62
     7
  6
CONTINUOUS
 10
0.866434
 20
0.491514
 30
0.000000
 11
0.817316
 21
0.603636
 31
0.000000
  0
LINE
  8
Layer 1
 62
     7
  6
CONTINUOUS
 10
0.817316
 20
0.603636
 30
0.000000
 11
0.783958
 21
0.707206
 31
0.000000
  0
LINE
  8
Layer 1
 62
     7
  6
CONTINUOUS
 10
0.783958
 20
0.707206
 30
0.000000
 11
0.765013
 21
0.807477
 31
0.000000
  0
LINE
  8
Layer 1
 62
     7
  6
CONTINUOUS
 10
0.765013
 20
0.807477
 30
0.000000
 11
0.759133
 21
0.909700
 31
0.000000
  0
LINE
  8
Layer 1
 62
     7
  6
CONTINUOUS
 10
0.759133
 20
0.909700
 30
0.000000
 11
0.762784
 21
0.986785
 31
0.000000
  0
LINE
  8
Layer 1
 62
     7
  6
CONTINUOUS
 10
0.762784
 20
0.986785
 30
0.000000
 11
0.775410
 21
1.064070
 31
0.000000
  0
LINE
  8
Layer 1
 62
     7
  6
CONTINUOUS
 10
0.775410
 20
1.064070
 30
0.000000
 11
0.799993
 21
1.155039
 31
0.000000
  0
LINE
  8
Layer 1
 62
     7
  6
CONTINUOUS
 10
0.799993
 20
1.155039
 30
0.000000
 11
0.839514
 21
1.273177
 31
0.000000
  0
LINE
  8
Layer 1
 62
     7
  6
CONTINUOUS
 10
0.839514
 20
1.273177
 30
0.000000
 11
0.869381
 21
1.366973
 31
0.000000
  0
LINE
  8
Layer 1
 62
     7
  6
CONTINUOUS
 10
0.869381
 20
1.366973
 30
0.000000
 11
0.890802
 21
1.453273
 31
0.000000
  0
LINE
  8
Layer 1
 62
     7
  6
CONTINUOUS
 10
0.890802
 20
1.453273
 30
0.000000
 11
0.902596
 21
1.526401
 31
0.000000
  0
LINE
  8
Layer 1
 62
     7
  6
CONTINUOUS
 10
0.902596
 20
1.526401
 30
0.000000
 11
0.903579
 21
1.580683
 31
0.000000
  0
LINE
  8
Layer 1
 62
     7
  6
CONTINUOUS
 10
0.903579
 20
1.580683
 30
0.000000
 11
0.902692
 21
1.606097
 31
0.000000
  0
LINE
  8
Layer 1
 62
     7
  6
CONTINUOUS
 10
0.902692
 20
1.606097
 30
0.000000
 11
0.906221
 21
1.616667
 31
0.000000
  0
LINE
  8
Layer 1
 62
     7
  6
CONTINUOUS
 10
0.906221
 20
1.616667
 30
0.000000
 11
0.917989
 21
1.608796
 31
0.000000
  0
LINE
  8
Layer 1
 62
     7
  6
CONTINUOUS
 10
0.917989
 20
1.608796
 30
0.000000
 11
0.936422
 21
1.588328
 31
0.000000
  0
LINE
  8
Layer 1
 62
     7
  6
CONTINUOUS
 10
0.936422
 20
1.588328
 30
0.000000
 11
0.977939
 21
1.528464
 31
0.000000
  0
LINE
  8
Layer 1
 62
     7
  6
CONTINUOUS
 10
0.977939
 20
1.528464
 30
0.000000
 11
1.014794
 21
1.445758
 31
0.000000
  0
LINE
  8
Layer 1
 62
     7
  6
CONTINUOUS
 10
1.014794
 20
1.445758
 30
0.000000
 11
1.027850
 21
1.404105
 31
0.000000
  0
LINE
  8
Layer 1
 62
     7
  6
CONTINUOUS
 10
1.027850
 20
1.404105
 30
0.000000
 11
1.032933
 21
1.374541
 31
0.000000
  0
LINE
  8
Layer 1
 62
     7
  6
CONTINUOUS
 10
1.032933
 20
1.374541
 30
0.000000
 11
1.035080
 21
1.359554
 31
0.000000
  0
LINE
  8
Layer 1
 62
     7
  6
CONTINUOUS
 10
1.035080
 20
1.359554
 30
0.000000
 11
1.040240
 21
1.350683
 31
0.000000
  0
LINE
  8
Layer 1
 62
     7
  6
CONTINUOUS
 10
1.040240
 20
1.350683
 30
0.000000
 11
1.078312
 21
1.387223
 31
0.000000
  0
LINE
  8
Layer 1
 62
     7
  6
CONTINUOUS
 10
1.078312
 20
1.387223
 30
0.000000
 11
1.159587
 21
1.481415
 31
0.000000
  0
LINE
  8
Layer 1
 62
     7
  6
CONTINUOUS
 10
1.159587
 20
1.481415
 30
0.000000
 11
1.271626
 21
1.616662
 31
0.000000
  0
LINE
  8
Layer 1
 62
     7
  6
CONTINUOUS
 10
1.271626
 20
1.616662
 30
0.000000
 11
1.298329
 21
1.597824
 31
0.000000
  0
LINE
  8
Layer 1
 62
     7
  6
CONTINUOUS
 10
1.298329
 20
1.597824
 30
0.000000
 11
1.404592
 21
1.501907
 31
0.000000
  0
LINE
  8
Layer 1
 62
     7
  6
CONTINUOUS
 10
1.404592
 20
1.501907
 30
0.000000
 11
1.502833
 21
1.397476
 31
0.000000
  0
LINE
  8
Layer 1
 62
     7
  6
CONTINUOUS
 10
1.502833
 20
1.397476
 30
0.000000
 11
1.535799
 21
1.362867
 31
0.000000
  0
LINE
  8
Layer 1
 62
     7
  6
CONTINUOUS
 10
1.535799
 20
1.362867
 30
0.000000
 11
1.540207
 21
1.380851
 31
0.000000
  0
LINE
  8
Layer 1
 62
     7
  6
CONTINUOUS
 10
1.540207
 20
1.380851
 30
0.000000
 11
1.537235
 21
1.425147
 31
0.000000
  0
LINE
  8
Layer 1
 62
     7
  6
CONTINUOUS
 10
1.537235
 20
1.425147
 30
0.000000
 11
1.528643
 21
1.480584
 31
0.000000
  0
LINE
  8
Layer 1
 62
     7
  6
CONTINUOUS
 10
1.528643
 20
1.480584
 30
0.000000
 11
1.516190
 21
1.531989
 31
0.000000
  0
LINE
  8
Layer 1
 62
     7
  6
CONTINUOUS
 10
1.516190
 20
1.531989
 30
0.000000
 11
1.504153
 21
1.582307
 31
0.000000
  0
LINE
  8
Layer 1
 62
     7
  6
CONTINUOUS
 10
1.504153
 20
1.582307
 30
0.000000
 11
1.506984
 21
1.599264
 31
0.000000
  0
LINE
  8
Layer 1
 62
     7
  6
CONTINUOUS
 10
1.506984
 20
1.599264
 30
0.000000
 11
1.515650
 21
1.621171
 31
0.000000
  0
LINE
  8
Layer 1
 62
     7
  6
CONTINUOUS
 10
1.515650
 20
1.621171
 30
0.000000
 11
1.550152
 21
1.723454
 31
0.000000
  0
LINE
  8
Layer 1
 62
     7
  6
CONTINUOUS
 10
1.550152
 20
1.723454
 30
0.000000
 11
1.592137
 21
1.873153
 31
0.000000
  0
LINE
  8
Layer 1
 62
     7
  6
CONTINUOUS
 10
1.592137
 20
1.873153
 30
0.000000
 11
1.627600
 21
2.017154
 31
0.000000
  0
LINE
  8
Layer 1
 62
     7
  6
CONTINUOUS
 10
1.627600
 20
2.017154
 30
0.000000
 11
1.642533
 21
2.102342
 31
0.000000
  0
LINE
  8
Layer 1
 62
     7
  6
CONTINUOUS
 10
1.642533
 20
2.102342
 30
0.000000
 11
1.630573
 21
2.125072
 31
0.000000
  0
LINE
  8
Layer 1
 62
     7
  6
CONTINUOUS
 10
1.630573
 20
2.125072
 30
0.000000
 11
1.601816
 21
2.164159
 31
0.000000
  0
LINE
  8
Layer 1
 62
     7
  6
CONTINUOUS
 10
1.601816
 20
2.164159
 30
0.000000
 11
1.521442
 21
2.274546
 31
0.000000
  0
LINE
  8
Layer 1
 62
     7
  6
CONTINUOUS
 10
1.521442
 20
2.274546
 30
0.000000
 11
1.445988
 21
2.401930
 31
0.000000
  0
LINE
  8
Layer 1
 62
     7
  6
CONTINUOUS
 10
1.445988
 20
2.401930
 30
0.000000
 11
1.417136
 21
2.457319
 31
0.000000
  0
LINE
  8
Layer 1
 62
     7
  6
CONTINUOUS
 10
1.417136
 20
2.457319
 30
0.000000
 11
1.408918
 21
2.480267
 31
0.000000
  0
LINE
  8
Layer 1
 62
     7
  6
CONTINUOUS
 10
1.408918
 20
2.480267
 30
0.000000
 11
1.466761
 21
2.459831
 31
0.000000
  0
LINE
  8
Layer 1
 62
     7
  6
CONTINUOUS
 10
1.466761
 20
2.459831
 30
0.000000
 11
1.543050
 21
2.434270
 31
0.000000
  0
LINE
  8
Layer 1
 62
     7
  6
CONTINUOUS
 10
1.543050
 20
2.434270
 30
0.000000
 11
1.562202
 21
2.433439
 31
0.000000
  0
LINE
  8
Layer 1
 62
     7
  6
CONTINUOUS
 10
1.562202
 20
2.433439
 30
0.000000
 11
1.566209
 21
2.448355
 31
0.000000
  0
LINE
  8
Layer 1
 62
     7
  6
CONTINUOUS
 10
1.566209
 20
2.448355
 30
0.000000
 11
1.555711
 21
2.494962
 31
0.000000
  0
LINE
  8
Layer 1
 62
     7
  6
CONTINUOUS
 10
1.555711
 20
2.494962
 30
0.000000
 11
1.530218
 21
2.573198
 31
0.000000
  0
LINE
  8
Layer 1
 62
     7
  6
CONTINUOUS
 10
1.530218
 20
2.573198
 30
0.000000
 11
1.498287
 21
2.658666
 31
0.000000
  0
LINE
  8
Layer 1
 62
     7
  6
CONTINUOUS
 10
1.498287
 20
2.658666
 30
0.000000
 11
1.468477
 21
2.726969
 31
0.000000
  0
LINE
  8
Layer 1
 62
     7
  6
CONTINUOUS
 10
1.468477
 20
2.726969
 30
0.000000
 11
1.393810
 21
2.852228
 31
0.000000
  0
LINE
  8
Layer 1
 62
     7
  6
CONTINUOUS
 10
1.393810
 20
2.852228
 30
0.000000
 11
1.350433
 21
2.915156
 31
0.000000
  0
LINE
  8
Layer 1
 62
     7
  6
CONTINUOUS
 10
1.350433
 20
2.915156
 30
0.000000
 11
1.344797
 21
2.877628
 31
0.000000
  0
LINE
  8
Layer 1
 62
     7
  6
CONTINUOUS
 10
1.344797
 20
2.877628
 30
0.000000
 11
1.329472
 21
2.752680
 31
0.000000
  0
LINE
  8
Layer 1
 62
     7
  6
CONTINUOUS
 10
1.329472
 20
2.752680
 30
0.000000
 11
1.320072
 21
2.678052
 31
0.000000
  0
LINE
  8
Layer 1
 62
     7
  6
CONTINUOUS
 10
1.320072
 20
2.678052
 30
0.000000
 11
1.311662
 21
2.646801
 31
0.000000
  0
LINE
  8
Layer 1
 62
     7
  6
CONTINUOUS
 10
1.311662
 20
2.646801
 30
0.000000
 11
1.306982
 21
2.646421
 31
0.000000
  0
LINE
  8
Layer 1
 62
     7
  6
CONTINUOUS
 10
1.306982
 20
2.646421
 30
0.000000
 11
1.301537
 21
2.655660
 31
0.000000
  0
LINE
  8
Layer 1
 62
     7
  6
CONTINUOUS
 10
1.301537
 20
2.655660
 30
0.000000
 11
1.286995
 21
2.701366
 31
0.000000
  0
LINE
  8
Layer 1
 62
     7
  6
CONTINUOUS
 10
1.286995
 20
2.701366
 30
0.000000
 11
1.237593
 21
2.849720
 31
0.000000
  0
LINE
  8
Layer 1
 62
     7
  6
CONTINUOUS
 10
1.237593
 20
2.849720
 30
0.000000
 11
1.178000
 21
2.984643
 31
0.000000
  0
LINE
  8
Layer 1
 62
     7
  6
CONTINUOUS
 10
1.178000
 20
2.984643
 30
0.000000
 11
1.115166
 21
3.091275
 31
0.000000
  0
LINE
  8
Layer 1
 62
     7
  6
CONTINUOUS
 10
1.115166
 20
3.091275
 30
0.000000
 11
1.087292
 21
3.129708
 31
0.000000
  0
LINE
  8
Layer 1
 62
     7
  6
CONTINUOUS
 10
1.087292
 20
3.129708
 30
0.000000
 11
1.069383
 21
3.146861
 31
0.000000
  0
LINE
  8
Layer 1
 62
     7
  6
CONTINUOUS
 10
1.069383
 20
3.146861
 30
0.000000
 11
1.064069
 21
3.137104
 31
0.000000
  0
LINE
  8
Layer 1
 62
     7
  6
CONTINUOUS
 10
1.064069
 20
3.137104
 30
0.000000
 11
1.059613
 21
3.106948
 31
0.000000
  0
LINE
  8
Layer 1
 62
     7
  6
CONTINUOUS
 10
1.059613
 20
3.106948
 30
0.000000
 11
1.053776
 21
3.002947
 31
0.000000
  0
LINE
  8
Layer 1
 62
     7
  6
CONTINUOUS
 10
1.053776
 20
3.002947
 30
0.000000
 11
1.052867
 21
2.869871
 31
0.000000
  0
LINE
  8
Layer 1
 62
     7
  6
CONTINUOUS
 10
1.052867
 20
2.869871
 30
0.000000
 11
1.057884
 21
2.742733
 31
0.000000
  0
LINE
  8
Layer 1
 62
     7
  6
CONTINUOUS
 10
1.057884
 20
2.742733
 30
0.000000
 11
1.075939
 21
2.556858
 31
0.000000
  0
LINE
  8
Layer 1
 62
     7
  6
CONTINUOUS
 10
1.075939
 20
2.556858
 30
0.000000
 11
1.097417
 21
2.413229
 31
0.000000
  0
LINE
  8
Layer 1
 62
     7
  6
CONTINUOUS
 10
1.097417
 20
2.413229
 30
0.000000
 11
1.099637
 21
2.393487
 31
0.000000
  0
LINE
  8
Layer 1
 62
     7
  6
CONTINUOUS
 10
1.099637
 20
2.393487
 30
0.000000
 11
1.096258
 21
2.389831
 31
0.000000
  0
LINE
  8
Layer 1
 62
     7
  6
CONTINUOUS
 10
1.096258
 20
2.389831
 30
0.000000
 11
1.088131
 21
2.390889
 31
0.000000
  0
LINE
  8
Layer 1
 62
     7
  6
CONTINUOUS
 10
1.088131
 20
2.390889
 30
0.000000
 11
1.052371
 21
2.408858
 31
0.000000
  0
LINE
  8
Layer 1
 62
     7
  6
CONTINUOUS
 10
1.052371
 20
2.408858
 30
0.000000
 11
0.981826
 21
2.450818
 31
0.000000
  0
LINE
  8
Layer 1
 62
     7
  6
CONTINUOUS
 10
0.981826
 20
2.450818
 30
0.000000
 11
0.923849
 21
2.486377
 31
0.000000
  0
LINE
  8
Layer 1
 62
     7
  6
CONTINUOUS
 10
0.923849
 20
2.486377
 30
0.000000
 11
0.906431
 21
2.500236
 31
0.000000
  0
LINE
  8
Layer 1
 62
     7
  6
CONTINUOUS
 10
0.906431
 20
2.500236
 30
0.000000
 11
0.894635
 21
2.515033
 31
0.000000
  0
LINE
  8
Layer 1
 62
     7
  6
CONTINUOUS
 10
0.894635
 20
2.515033
 30
0.000000
 11
0.881637
 21
2.558102
 31
0.000000
  0
LINE
  8
Layer 1
 62
     7
  6
CONTINUOUS
 10
0.881637
 20
2.558102
 30
0.000000
 11
0.872310
 21
2.636900
 31
0.000000
  0
LINE
  8
Layer 1
 62
     7
  6
CONTINUOUS
 10
0.872310
 20
2.636900
 30
0.000000
 11
0.863758
 21
2.782571
 31
0.000000
  0
LINE
  8
Layer 1
 62
     7
  6
CONTINUOUS
 10
0.863758
 20
2.782571
 30
0.000000
 11
0.867069
 21
2.948816
 31
0.000000
  0
LINE
  8
Layer 1
 62
     7
  6
CONTINUOUS
 10
0.867069
 20
2.948816
 30
0.000000
 11
0.881534
 21
3.122086
 31
0.000000
  0
LINE
  8
Layer 1
 62
     7
  6
CONTINUOUS
 10
0.881534
 20
3.122086
 30
0.000000
 11
0.906445
 21
3.288833
 31
0.000000
  0
LINE
  8
Layer 1
 62
     7
  6
CONTINUOUS
 10
0.906445
 20
3.288833
 30
0.000000
 11
0.943136
 21
3.459183
 31
0.000000
  0
LINE
  8
Layer 1
 62
     7
  6
CONTINUOUS
 10
0.943136
 20
3.459183
 30
0.000000
 11
0.970196
 21
3.554877
 31
0.000000
  0
LINE
  8
Layer 1
 62
     7
  6
CONTINUOUS
 10
0.970196
 20
3.554877
 30
0.000000
 11
0.993204
 21
3.538035
 31
0.000000
  0
LINE
  8
Layer 1
 62
     7
  6
CONTINUOUS
 10
0.993204
 20
3.538035
 30
0.000000
 11
1.041643
 21
3.490677
 31
0.000000
  0
LINE
  8
Layer 1
 62
     7
  6
CONTINUOUS
 10
1.041643
 20
3.490677
 30
0.000000
 11
1.118592
 21
3.403130
 31
0.000000
  0
LINE
  8
Layer 1
 62
     7
  6
CONTINUOUS
 10
1.118592
 20
3.403130
 30
0.000000
 11
1.221374
 21
3.264254
 31
0.000000
  0
LINE
  8
Layer 1
 62
     7
  6
CONTINUOUS
 10
1.221374
 20
3.264254
 30
0.000000
 11
1.228238
 21
3.258262
 31
0.000000
  0
LINE
  8
Layer 1
 62
     7
  6
CONTINUOUS
 10
1.228238
 20
3.258262
 30
0.000000
 11
1.234782
 21
3.265192
 31
0.000000
  0
LINE
  8
Layer 1
 62
     7
  6
CONTINUOUS
 10
1.234782
 20
3.265192
 30
0.000000
 11
1.255977
 21
3.336826
 31
0.000000
  0
LINE
  8
Layer 1
 62
     7
  6
CONTINUOUS
 10
1.255977
 20
3.336826
 30
0.000000
 11
1.315263
 21
3.521309
 31
0.000000
  0
LINE
  8
Layer 1
 62
     7
  6
CONTINUOUS
 10
1.315263
 20
3.521309
 30
0.000000
 11
1.345506
 21
3.599540
 31
0.000000
  0
LINE
  8
Layer 1
 62
     7
  6
CONTINUOUS
 10
1.345506
 20
3.599540
 30
0.000000
 11
1.362843
 21
3.631715
 31
0.000000
  0
LINE
  8
Layer 1
 62
     7
  6
CONTINUOUS
 10
1.362843
 20
3.631715
 30
0.000000
 11
1.368089
 21
3.456031
 31
0.000000
  0
LINE
  8
Layer 1
 62
     7
  6
CONTINUOUS
 10
1.368089
 20
3.456031
 30
0.000000
 11
1.372028
 21
3.305091
 31
0.000000
  0
LINE
  8
Layer 1
 62
     7
  6
CONTINUOUS
 10
1.372028
 20
3.305091
 30
0.000000
 11
1.385058
 21
3.197880
 31
0.000000
  0
LINE
  8
Layer 1
 62
     7
  6
CONTINUOUS
 10
1.385058
 20
3.197880
 30
0.000000
 11
1.396243
 21
3.154554
 31
0.000000
  0
LINE
  8
Layer 1
 62
     7
  6
CONTINUOUS
 10
1.396243
 20
3.154554
 30
0.000000
 11
1.411212
 21
3.114816
 31
0.000000
  0
LINE
  8
Layer 1
 62
     7
  6
CONTINUOUS
 10
1.411212
 20
3.114816
 30
0.000000
 11
1.454523
 21
3.036318
 31
0.000000
  0
LINE
  8
Layer 1
 62
     7
  6
CONTINUOUS
 10
1.454523
 20
3.036318
 30
0.000000
 11
1.537453
 21
2.900980
 31
0.000000
  0
LINE
  8
Layer 1
 62
     7
  6
CONTINUOUS
 10
1.537453
 20
2.900980
 30
0.000000
 11
1.604489
 21
2.776600
 31
0.000000
  0
LINE
  8
Layer 1
 62
     7
  6
CONTINUOUS
 10
1.604489
 20
2.776600
 30
0.000000
 11
1.645729
 21
2.706458
 31
0.000000
  0
LINE
  8
Layer 1
 62
     7
  6
CONTINUOUS
 10
1.645729
 20
2.706458
 30
0.000000
 11
1.676136
 21
2.702475
 31
0.000000
  0
LINE
  8
Layer 1
 62
     7
  6
CONTINUOUS
 10
1.676136
 20
2.702475
 30
0.000000
 11
1.735897
 21
2.702225
 31
0.000000
  0
LINE
  8
Layer 1
 62
     7
  6
CONTINUOUS
 10
1.735897
 20
2.702225
 30
0.000000
 11
1.812625
 21
2.708933
 31
0.000000
  0
LINE
  8
Layer 1
 62
     7
  6
CONTINUOUS
 10
1.812625
 20
2.708933
 30
0.000000
 11
1.840825
 21
2.717762
 31
0.000000
  0
LINE
  8
Layer 1
 62
     7
  6
CONTINUOUS
 10
1.840825
 20
2.717762
 30
0.000000
 11
1.873673
 21
2.732776
 31
0.000000
  0
LINE
  8
Layer 1
 62
     7
  6
CONTINUOUS
 10
1.873673
 20
2.732776
 30
0.000000
 11
1.928800
 21
2.766345
 31
0.000000
  0
LINE
  8
Layer 1
 62
     7
  6
CONTINUOUS
 10
1.928800
 20
2.766345
 30
0.000000
 11
1.981137
 21
2.807534
 31
0.000000
  0
LINE
  8
Layer 1
 62
     7
  6
CONTINUOUS
 10
1.981137
 20
2.807534
 30
0.000000
 11
2.031488
 21
2.854150
 31
0.000000
  0
LINE
  8
Layer 1
 62
     7
  6
CONTINUOUS
 10
2.031488
 20
2.854150
 30
0.000000
 11
2.018172
 21
2.809025
 31
0.000000
  0
LINE
  8
Layer 1
 62
     7
  6
CONTINUOUS
 10
2.018172
 20
2.809025
 30
0.000000
 11
1.985581
 21
2.723685
 31
0.000000
  0
LINE
  8
Layer 1
 62
     7
  6
CONTINUOUS
 10
1.985581
 20
2.723685
 30
0.000000
 11
1.941186
 21
2.650328
 31
0.000000
  0
LINE
  8
Layer 1
 62
     7
  6
CONTINUOUS
 10
1.941186
 20
2.650328
 30
0.000000
 11
1.883690
 21
2.587216
 31
0.000000
  0
LINE
  8
Layer 1
 62
     7
  6
CONTINUOUS
 10
1.883690
 20
2.587216
 30
0.000000
 11
1.811796
 21
2.532612
 31
0.000000
  0
LINE
  8
Layer 1
 62
     7
  6
CONTINUOUS
 10
1.811796
 20
2.532612
 30
0.000000
 11
1.758591
 21
2.496447
 31
0.000000
  0
LINE
  8
Layer 1
 62
     7
  6
CONTINUOUS
 10
1.758591
 20
2.496447
 30
0.000000
 11
1.736168
 21
2.477060
 31
0.000000
  0
LINE
  8
Layer 1
 62
     7
  6
CONTINUOUS
 10
1.736168
 20
2.477060
 30
0.000000
 11
1.759544
 21
2.446101
 31
0.000000
  0
LINE
  8
Layer 1
 62
     7
  6
CONTINUOUS
 10
1.759544
 20
2.446101
 30
0.000000
 11
1.816433
 21
2.387427
 31
0.000000
  0
LINE
  8
Layer 1
 62
     7
  6
CONTINUOUS
 10
1.816433
 20
2.387427
 30
0.000000
 11
1.884968
 21
2.322574
 31
0.000000
  0
LINE
  8
Layer 1
 62
     7
  6
CONTINUOUS
 10
1.884968
 20
2.322574
 30
0.000000
 11
1.943283
 21
2.273077
 31
0.000000
  0
LINE
  8
Layer 1
 62
     7
  6
CONTINUOUS
 10
1.943283
 20
2.273077
 30
0.000000
 11
1.996944
 21
2.236178
 31
0.000000
  0
LINE
  8
Layer 1
 62
     7
  6
CONTINUOUS
 10
1.996944
 20
2.236178
 30
0.000000
 11
2.054498
 21
2.202693
 31
0.000000
  0
LINE
  8
Layer 1
 62
     7
  6
CONTINUOUS
 10
2.054498
 20
2.202693
 30
0.000000
 11
2.110374
 21
2.175595
 31
0.000000
  0
LINE
  8
Layer 1
 62
     7
  6
CONTINUOUS
 10
2.110374
 20
2.175595
 30
0.000000
 11
2.159000
 21
2.157862
 31
0.000000
  0
LINE
  8
Layer 1
 62
     7
  6
CONTINUOUS
 10
2.159000
 20
2.157862
 30
0.000000
 11
2.204675
 21
2.140641
 31
0.000000
  0
LINE
  8
Layer 1
 62
     7
  6
CONTINUOUS
 10
2.204675
 20
2.140641
 30
0.000000
 11
2.206746
 21
2.136317
 31
0.000000
  0
LINE
  8
Layer 1
 62
     7
  6
CONTINUOUS
 10
2.206746
 20
2.136317
 30
0.000000
 11
2.202804
 21
2.132413
 31
0.000000
  0
LINE
  8
Layer 1
 62
     7
  6
CONTINUOUS
 10
2.202804
 20
2.132413
 30
0.000000
 11
2.178415
 21
2.126095
 31
0.000000
  0
LINE
  8
Layer 1
 62
     7
  6
CONTINUOUS
 10
2.178415
 20
2.126095
 30
0.000000
 11
2.074333
 21
2.121033
 31
0.000000
  0
LINE
  8
Layer 1
 62
     7
  6
CONTINUOUS
 10
2.074333
 20
2.121033
 30
0.000000
 11
1.987213
 21
2.126270
 31
0.000000
  0
LINE
  8
Layer 1
 62
     7
  6
CONTINUOUS
 10
1.987213
 20
2.126270
 30
0.000000
 11
1.906635
 21
2.148550
 31
0.000000
  0
LINE
  8
Layer 1
 62
     7
  6
CONTINUOUS
 10
1.906635
 20
2.148550
 30
0.000000
 11
1.820769
 21
2.175467
 31
0.000000
  0
LINE
  8
Layer 1
 62
     7
  6
CONTINUOUS
 10
1.820769
 20
2.175467
 30
0.000000
 11
1.814147
 21
2.168627
 31
0.000000
  0
LINE
  8
Layer 1
 62
     7
  6
CONTINUOUS
 10
1.814147
 20
2.168627
 30
0.000000
 11
1.808149
 21
2.152183
 31
0.000000
  0
LINE
  8
Layer 1
 62
     7
  6
CONTINUOUS
 10
1.808149
 20
2.152183
 30
0.000000
 11
1.798459
 21
2.114917
 31
0.000000
  0
LINE
  8
Layer 1
 62
     7
  6
CONTINUOUS
 10
1.798459
 20
2.114917
 30
0.000000
 11
1.803016
 21
2.105159
 31
0.000000
  0
LINE
  8
Layer 1
 62
     7
  6
CONTINUOUS
 10
1.803016
 20
2.105159
 30
0.000000
 11
1.819850
 21
2.089025
 31
0.000000
  0
LINE
  8
Layer 1
 62
     7
  6
CONTINUOUS
 10
1.819850
 20
2.089025
 30
0.000000
 11
1.886718
 21
2.040078
 31
0.000000
  0
LINE
  8
Layer 1
 62
     7
  6
CONTINUOUS
 10
1.886718
 20
2.040078
 30
0.000000
 11
1.991806
 21
1.972974
 31
0.000000
  0
LINE
  8
Layer 1
 62
     7
  6
CONTINUOUS
 10
1.991806
 20
1.972974
 30
0.000000
 11
2.127855
 21
1.892612
 31
0.000000
  0
LINE
  8
Layer 1
 62
     7
  6
CONTINUOUS
 10
2.127855
 20
1.892612
 30
0.000000
 11
2.168676
 21
1.869244
 31
0.000000
  0
LINE
  8
Layer 1
 62
     7
  6
CONTINUOUS
 10
2.168676
 20
1.869244
 30
0.000000
 11
2.197744
 21
1.901705
 31
0.000000
  0
LINE
  8
Layer 1
 62
     7
  6
CONTINUOUS
 10
2.197744
 20
1.901705
 30
0.000000
 11
2.257333
 21
1.977879
 31
0.000000
  0
LINE
  8
Layer 1
 62
     7
  6
CONTINUOUS
 10
2.257333
 20
1.977879
 30
0.000000
 11
2.312632
 21
2.067229
 31
0.000000
  0
LINE
  8
Layer 1
 62
     7
  6
CONTINUOUS
 10
2.312632
 20
2.067229
 30
0.000000
 11
2.360830
 21
2.164679
 31
0.000000
  0
LINE
  8
Layer 1
 62
     7
  6
CONTINUOUS
 10
2.360830
 20
2.164679
 30
0.000000
 11
2.399115
 21
2.265156
 31
0.000000
  0
LINE
  8
Layer 1
 62
     7
  6
CONTINUOUS
 10
2.399115
 20
2.265156
 30
0.000000
 11
2.428899
 21
2.357500
 31
0.000000
  0
LINE
  8
Layer 1
 62
     7
  6
CONTINUOUS
 10
2.428899
 20
2.357500
 30
0.000000
 11
2.432786
 21
2.361668
 31
0.000000
  0
LINE
  8
Layer 1
 62
     7
  6
CONTINUOUS
 10
2.432786
 20
2.361668
 30
0.000000
 11
2.435594
 21
2.349096
 31
0.000000
  0
LINE
  8
Layer 1
 62
     7
  6
CONTINUOUS
 10
2.435594
 20
2.349096
 30
0.000000
 11
2.437946
 21
2.288391
 31
0.000000
  0
LINE
  8
Layer 1
 62
     7
  6
CONTINUOUS
 10
2.437946
 20
2.288391
 30
0.000000
 11
2.435893
 21
2.204715
 31
0.000000
  0
LINE
  8
Layer 1
 62
     7
  6
CONTINUOUS
 10
2.435893
 20
2.204715
 30
0.000000
 11
2.429377
 21
2.127396
 31
0.000000
  0
LINE
  8
Layer 1
 62
     7
  6
CONTINUOUS
 10
2.429377
 20
2.127396
 30
0.000000
 11
2.410766
 21
2.026069
 31
0.000000
  0
LINE
  8
Layer 1
 62
     7
  6
CONTINUOUS
 10
2.410766
 20
2.026069
 30
0.000000
 11
2.382832
 21
1.921029
 31
0.000000
  0
LINE
  8
Layer 1
 62
     7
  6
CONTINUOUS
 10
2.382832
 20
1.921029
 30
0.000000
 11
2.347720
 21
1.819316
 31
0.000000
  0
LINE
  8
Layer 1
 62
     7
  6
CONTINUOUS
 10
2.347720
 20
1.819316
 30
0.000000
 11
2.307576
 21
1.727966
 31
0.000000
  0
LINE
  8
Layer 1
 62
     7
  6
CONTINUOUS
 10
2.307576
 20
1.727966
 30
0.000000
 11
2.280654
 21
1.674166
 31
0.000000
  0
LINE
  8
Layer 1
 62
     7
  6
CONTINUOUS
 10
2.280654
 20
1.674166
 30
0.000000
 11
2.299659
 21
1.602994
 31
0.000000
  0
LINE
  8
Layer 1
 62
     7
  6
CONTINUOUS
 10
2.299659
 20
1.602994
 30
0.000000
 11
2.317588
 21
1.523142
 31
0.000000
  0
LINE
  8
Layer 1
 62
     7
  6
CONTINUOUS
 10
2.317588
 20
1.523142
 30
0.000000
 11
2.329462
 21
1.441915
 31
0.000000
  0
LINE
  8
Layer 1
 62
     7
  6
CONTINUOUS
 10
2.329462
 20
1.441915
 30
0.000000
 11
2.334907
 21
1.362796
 31
0.000000
  0
LINE
  8
Layer 1
 62
     7
  6
CONTINUOUS
 10
2.334907
 20
1.362796
 30
0.000000
 11
2.333545
 21
1.289270
 31
0.000000
  0
LINE
  8
Layer 1
 62
     7
  6
CONTINUOUS
 10
2.333545
 20
1.289270
 30
0.000000
 11
2.317401
 21
1.161903
 31
0.000000
  0
LINE
  8
Layer 1
 62
     7
  6
CONTINUOUS
 10
2.317401
 20
1.161903
 30
0.000000
 11
2.305539
 21
1.107229
 31
0.000000
  0
LINE
  8
Layer 1
 62
     7
  6
CONTINUOUS
 10
2.305539
 20
1.107229
 30
0.000000
 11
2.292544
 21
1.066154
 31
0.000000
  0
LINE
  8
Layer 1
 62
     7
  6
CONTINUOUS
 10
2.292544
 20
1.066154
 30
0.000000
 11
2.281727
 21
1.039643
 31
0.000000
  0
LINE
  8
Layer 1
 62
     7
  6
CONTINUOUS
 10
2.281727
 20
1.039643
 30
0.000000
 11
2.207746
 21
1.096466
 31
0.000000
  0
LINE
  8
Layer 1
 62
     7
  6
CONTINUOUS
 10
2.207746
 20
1.096466
 30
0.000000
 11
2.133766
 21
1.153289
 31
0.000000
  0
LINE
  8
Layer 1
 62
     7
  6
CONTINUOUS
 10
2.133766
 20
1.153289
 30
0.000000
 11
2.140033
 21
1.188128
 31
0.000000
  0
LINE
  8
Layer 1
 62
     7
  6
CONTINUOUS
 10
2.140033
 20
1.188128
 30
0.000000
 11
2.145930
 21
1.250050
 31
0.000000
  0
LINE
  8
Layer 1
 62
     7
  6
CONTINUOUS
 10
2.145930
 20
1.250050
 30
0.000000
 11
2.145184
 21
1.323585
 31
0.000000
  0
LINE
  8
Layer 1
 62
     7
  6
CONTINUOUS
 10
2.145184
 20
1.323585
 30
0.000000
 11
2.138377
 21
1.397367
 31
0.000000
  0
LINE
  8
Layer 1
 62
     7
  6
CONTINUOUS
 10
2.138377
 20
1.397367
 30
0.000000
 11
2.126092
 21
1.460033
 31
0.000000
  0
LINE
  8
Layer 1
 62
     7
  6
CONTINUOUS
 10
2.126092
 20
1.460033
 30
0.000000
 11
2.108130
 21
1.513453
 31
0.000000
  0
LINE
  8
Layer 1
 62
     7
  6
CONTINUOUS
 10
2.108130
 20
1.513453
 30
0.000000
 11
2.083733
 21
1.568847
 31
0.000000
  0
LINE
  8
Layer 1
 62
     7
  6
CONTINUOUS
 10
2.083733
 20
1.568847
 30
0.000000
 11
2.018930
 21
1.680647
 31
0.000000
  0
LINE
  8
Layer 1
 62
     7
  6
CONTINUOUS
 10
2.018930
 20
1.680647
 30
0.000000
 11
1.938277
 21
1.785605
 31
0.000000
  0
LINE
  8
Layer 1
 62
     7
  6
CONTINUOUS
 10
1.938277
 20
1.785605
 30
0.000000
 11
1.894068
 21
1.832449
 31
0.000000
  0
LINE
  8
Layer 1
 62
     7
  6
CONTINUOUS
 10
1.894068
 20
1.832449
 30
0.000000
 11
1.848368
 21
1.873897
 31
0.000000
  0
LINE
  8
Layer 1
 62
     7
  6
CONTINUOUS
 10
1.848368
 20
1.873897
 30
0.000000
 11
1.829837
 21
1.889286
 31
0.000000
  0
LINE
  8
Layer 1
 62
     7
  6
CONTINUOUS
 10
1.829837
 20
1.889286
 30
0.000000
 11
1.796644
 21
1.822826
 31
0.000000
  0
LINE
  8
Layer 1
 62
     7
  6
CONTINUOUS
 10
1.796644
 20
1.822826
 30
0.000000
 11
1.766470
 21
1.756652
 31
0.000000
  0
LINE
  8
Layer 1
 62
     7
  6
CONTINUOUS
 10
1.766470
 20
1.756652
 30
0.000000
 11
1.742132
 21
1.690483
 31
0.000000
  0
LINE
  8
Layer 1
 62
     7
  6
CONTINUOUS
 10
1.742132
 20
1.690483
 30
0.000000
 11
1.723581
 21
1.623984
 31
0.000000
  0
LINE
  8
Layer 1
 62
     7
  6
CONTINUOUS
 10
1.723581
 20
1.623984
 30
0.000000
 11
1.710765
 21
1.556816
 31
0.000000
  0
LINE
  8
Layer 1
 62
     7
  6
CONTINUOUS
 10
1.710765
 20
1.556816
 30
0.000000
 11
1.703636
 21
1.488642
 31
0.000000
  0
LINE
  8
Layer 1
 62
     7
  6
CONTINUOUS
 10
1.703636
 20
1.488642
 30
0.000000
 11
1.702144
 21
1.419125
 31
0.000000
  0
LINE
  8
Layer 1
 62
     7
  6
CONTINUOUS
 10
1.702144
 20
1.419125
 30
0.000000
 11
1.706239
 21
1.347927
 31
0.000000
  0
LINE
  8
Layer 1
 62
     7
  6
CONTINUOUS
 10
1.706239
 20
1.347927
 30
0.000000
 11
1.715871
 21
1.274711
 31
0.000000
  0
LINE
  8
Layer 1
 62
     7
  6
CONTINUOUS
 10
1.715871
 20
1.274711
 30
0.000000
 11
1.729942
 21
1.190249
 31
0.000000
  0
LINE
  8
Layer 1
 62
     7
  6
CONTINUOUS
 10
1.729942
 20
1.190249
 30
0.000000
 11
1.688354
 21
1.153182
 31
0.000000
  0
LINE
  8
Layer 1
 62
     7
  6
CONTINUOUS
 10
1.688354
 20
1.153182
 30
0.000000
 11
1.576403
 21
1.062840
 31
0.000000
  0
LINE
  8
Layer 1
 62
     7
  6
CONTINUOUS
 10
1.576403
 20
1.062840
 30
0.000000
 11
1.468967
 21
0.991959
 31
0.000000
  0
LINE
  8
Layer 1
 62
     7
  6
CONTINUOUS
 10
3.388391
 20
1.121217
 30
0.000000
 11
3.332861
 21
1.171590
 31
0.000000
  0
LINE
  8
Layer 1
 62
     7
  6
CONTINUOUS
 10
3.332861
 20
1.171590
 30
0.000000
 11
3.310633
 21
1.200358
 31
0.000000
  0
LINE
  8
Layer 1
 62
     7
  6
CONTINUOUS
 10
3.310633
 20
1.200358
 30
0.000000
 11
3.323038
 21
1.282233
 31
0.000000
  0
LINE
  8
Layer 1
 62
     7
  6
CONTINUOUS
 10
3.323038
 20
1.282233
 30
0.000000
 11
3.334197
 21
1.382201
 31
0.000000
  0
LINE
  8
Layer 1
 62
     7
  6
CONTINUOUS
 10
3.334197
 20
1.382201
 30
0.000000
 11
3.333343
 21
1.486996
 31
0.000000
  0
LINE
  8
Layer 1
 62
     7
  6
CONTINUOUS
 10
3.333343
 20
1.486996
 30
0.000000
 11
3.320840
 21
1.590965
 31
0.000000
  0
LINE
  8
Layer 1
 62
     7
  6
CONTINUOUS
 10
3.320840
 20
1.590965
 30
0.000000
 11
3.297048
 21
1.688452
 31
0.000000
  0
LINE
  8
Layer 1
 62
     7
  6
CONTINUOUS
 10
3.297048
 20
1.688452
 30
0.000000
 11
3.274322
 21
1.748976
 31
0.000000
  0
LINE
  8
Layer 1
 62
     7
  6
CONTINUOUS
 10
3.274322
 20
1.748976
 30
0.000000
 11
3.245886
 21
1.811108
 31
0.000000
  0
LINE
  8
Layer 1
 62
     7
  6
CONTINUOUS
 10
3.245886
 20
1.811108
 30
0.000000
 11
3.219328
 21
1.859583
 31
0.000000
  0
LINE
  8
Layer 1
 62
     7
  6
CONTINUOUS
 10
3.219328
 20
1.859583
 30
0.000000
 11
3.202241
 21
1.879133
 31
0.000000
  0
LINE
  8
Layer 1
 62
     7
  6
CONTINUOUS
 10
3.202241
 20
1.879133
 30
0.000000
 11
3.176798
 21
1.862394
 31
0.000000
  0
LINE
  8
Layer 1
 62
     7
  6
CONTINUOUS
 10
3.176798
 20
1.862394
 30
0.000000
 11
3.132761
 21
1.820732
 31
0.000000
  0
LINE
  8
Layer 1
 62
     7
  6
CONTINUOUS
 10
3.132761
 20
1.820732
 30
0.000000
 11
3.082773
 21
1.766976
 31
0.000000
  0
LINE
  8
Layer 1
 62
     7
  6
CONTINUOUS
 10
3.082773
 20
1.766976
 30
0.000000
 11
3.039478
 21
1.713958
 31
0.000000
  0
LINE
  8
Layer 1
 62
     7
  6
CONTINUOUS
 10
3.039478
 20
1.713958
 30
0.000000
 11
2.999138
 21
1.652126
 31
0.000000
  0
LINE
  8
Layer 1
 62
     7
  6
CONTINUOUS
 10
2.999138
 20
1.652126
 30
0.000000
 11
2.960574
 21
1.580406
 31
0.000000
  0
LINE
  8
Layer 1
 62
     7
  6
CONTINUOUS
 10
2.960574
 20
1.580406
 30
0.000000
 11
2.928547
 21
1.508486
 31
0.000000
  0
LINE
  8
Layer 1
 62
     7
  6
CONTINUOUS
 10
2.928547
 20
1.508486
 30
0.000000
 11
2.907817
 21
1.446053
 31
0.000000
  0
LINE
  8
Layer 1
 62
     7
  6
CONTINUOUS
 10
2.907817
 20
1.446053
 30
0.000000
 11
2.897846
 21
1.389375
 31
0.000000
  0
LINE
  8
Layer 1
 62
     7
  6
CONTINUOUS
 10
2.897846
 20
1.389375
 30
0.000000
 11
2.892664
 21
1.323567
 31
0.000000
  0
LINE
  8
Layer 1
 62
     7
  6
CONTINUOUS
 10
2.892664
 20
1.323567
 30
0.000000
 11
2.892582
 21
1.256526
 31
0.000000
  0
LINE
  8
Layer 1
 62
     7
  6
CONTINUOUS
 10
2.892582
 20
1.256526
 30
0.000000
 11
2.897915
 21
1.196154
 31
0.000000
  0
LINE
  8
Layer 1
 62
     7
  6
CONTINUOUS
 10
2.897915
 20
1.196154
 30
0.000000
 11
2.904463
 21
1.152407
 31
0.000000
  0
LINE
  8
Layer 1
 62
     7
  6
CONTINUOUS
 10
2.904463
 20
1.152407
 30
0.000000
 11
2.830182
 21
1.096172
 31
0.000000
  0
LINE
  8
Layer 1
 62
     7
  6
CONTINUOUS
 10
2.830182
 20
1.096172
 30
0.000000
 11
2.755900
 21
1.039937
 31
0.000000
  0
LINE
  8
Layer 1
 62
     7
  6
CONTINUOUS
 10
2.755900
 20
1.039937
 30
0.000000
 11
2.744424
 21
1.067952
 31
0.000000
  0
LINE
  8
Layer 1
 62
     7
  6
CONTINUOUS
 10
2.744424
 20
1.067952
 30
0.000000
 11
2.726694
 21
1.121643
 31
0.000000
  0
LINE
  8
Layer 1
 62
     7
  6
CONTINUOUS
 10
2.726694
 20
1.121643
 30
0.000000
 11
2.714850
 21
1.183695
 31
0.000000
  0
LINE
  8
Layer 1
 62
     7
  6
CONTINUOUS
 10
2.714850
 20
1.183695
 30
0.000000
 11
2.708318
 21
1.258379
 31
0.000000
  0
LINE
  8
Layer 1
 62
     7
  6
CONTINUOUS
 10
2.708318
 20
1.258379
 30
0.000000
 11
2.706524
 21
1.349967
 31
0.000000
  0
LINE
  8
Layer 1
 62
     7
  6
CONTINUOUS
 10
2.706524
 20
1.349967
 30
0.000000
 11
2.711007
 21
1.478793
 31
0.000000
  0
LINE
  8
Layer 1
 62
     7
  6
CONTINUOUS
 10
2.711007
 20
1.478793
 30
0.000000
 11
2.731778
 21
1.580371
 31
0.000000
  0
LINE
  8
Layer 1
 62
     7
  6
CONTINUOUS
 10
2.731778
 20
1.580371
 30
0.000000
 11
2.756519
 21
1.675309
 31
0.000000
  0
LINE
  8
Layer 1
 62
     7
  6
CONTINUOUS
 10
2.756519
 20
1.675309
 30
0.000000
 11
2.735862
 21
1.715838
 31
0.000000
  0
LINE
  8
Layer 1
 62
     7
  6
CONTINUOUS
 10
2.735862
 20
1.715838
 30
0.000000
 11
2.677358
 21
1.850447
 31
0.000000
  0
LINE
  8
Layer 1
 62
     7
  6
CONTINUOUS
 10
2.677358
 20
1.850447
 30
0.000000
 11
2.634492
 21
1.992482
 31
0.000000
  0
LINE
  8
Layer 1
 62
     7
  6
CONTINUOUS
 10
2.634492
 20
1.992482
 30
0.000000
 11
2.608318
 21
2.137560
 31
0.000000
  0
LINE
  8
Layer 1
 62
     7
  6
CONTINUOUS
 10
2.608318
 20
2.137560
 30
0.000000
 11
2.601820
 21
2.209871
 31
0.000000
  0
LINE
  8
Layer 1
 62
     7
  6
CONTINUOUS
 10
2.601820
 20
2.209871
 30
0.000000
 11
2.599890
 21
2.281300
 31
0.000000
  0
LINE
  8
Layer 1
 62
     7
  6
CONTINUOUS
 10
2.599890
 20
2.281300
 30
0.000000
 11
2.600885
 21
2.337712
 31
0.000000
  0
LINE
  8
Layer 1
 62
     7
  6
CONTINUOUS
 10
2.600885
 20
2.337712
 30
0.000000
 11
2.605252
 21
2.355153
 31
0.000000
  0
LINE
  8
Layer 1
 62
     7
  6
CONTINUOUS
 10
2.605252
 20
2.355153
 30
0.000000
 11
2.616335
 21
2.332492
 31
0.000000
  0
LINE
  8
Layer 1
 62
     7
  6
CONTINUOUS
 10
2.616335
 20
2.332492
 30
0.000000
 11
2.637480
 21
2.268600
 31
0.000000
  0
LINE
  8
Layer 1
 62
     7
  6
CONTINUOUS
 10
2.637480
 20
2.268600
 30
0.000000
 11
2.689888
 21
2.134186
 31
0.000000
  0
LINE
  8
Layer 1
 62
     7
  6
CONTINUOUS
 10
2.689888
 20
2.134186
 30
0.000000
 11
2.720958
 21
2.072420
 31
0.000000
  0
LINE
  8
Layer 1
 62
     7
  6
CONTINUOUS
 10
2.720958
 20
2.072420
 30
0.000000
 11
2.754454
 21
2.016043
 31
0.000000
  0
LINE
  8
Layer 1
 62
     7
  6
CONTINUOUS
 10
2.754454
 20
2.016043
 30
0.000000
 11
2.820405
 21
1.926243
 31
0.000000
  0
LINE
  8
Layer 1
 62
     7
  6
CONTINUOUS
 10
2.820405
 20
1.926243
 30
0.000000
 11
2.869665
 21
1.872649
 31
0.000000
  0
LINE
  8
Layer 1
 62
     7
  6
CONTINUOUS
 10
2.869665
 20
1.872649
 30
0.000000
 11
2.970165
 21
1.927476
 31
0.000000
  0
LINE
  8
Layer 1
 62
     7
  6
CONTINUOUS
 10
2.970165
 20
1.927476
 30
0.000000
 11
3.156381
 21
2.043386
 31
0.000000
  0
LINE
  8
Layer 1
 62
     7
  6
CONTINUOUS
 10
3.156381
 20
2.043386
 30
0.000000
 11
3.223649
 21
2.090905
 31
0.000000
  0
LINE
  8
Layer 1
 62
     7
  6
CONTINUOUS
 10
3.223649
 20
2.090905
 30
0.000000
 11
3.236945
 21
2.104849
 31
0.000000
  0
LINE
  8
Layer 1
 62
     7
  6
CONTINUOUS
 10
3.236945
 20
2.104849
 30
0.000000
 11
3.239333
 21
2.114523
 31
0.000000
  0
LINE
  8
Layer 1
 62
     7
  6
CONTINUOUS
 10
3.239333
 20
2.114523
 30
0.000000
 11
3.229518
 21
2.152183
 31
0.000000
  0
LINE
  8
Layer 1
 62
     7
  6
CONTINUOUS
 10
3.229518
 20
2.152183
 30
0.000000
 11
3.219408
 21
2.175467
 31
0.000000
  0
LINE
  8
Layer 1
 62
     7
  6
CONTINUOUS
 10
3.219408
 20
2.175467
 30
0.000000
 11
3.133542
 21
2.148802
 31
0.000000
  0
LINE
  8
Layer 1
 62
     7
  6
CONTINUOUS
 10
3.133542
 20
2.148802
 30
0.000000
 11
3.050853
 21
2.126833
 31
0.000000
  0
LINE
  8
Layer 1
 62
     7
  6
CONTINUOUS
 10
3.050853
 20
2.126833
 30
0.000000
 11
2.963333
 21
2.121286
 31
0.000000
  0
LINE
  8
Layer 1
 62
     7
  6
CONTINUOUS
 10
2.963333
 20
2.121286
 30
0.000000
 11
2.859298
 21
2.126101
 31
0.000000
  0
LINE
  8
Layer 1
 62
     7
  6
CONTINUOUS
 10
2.859298
 20
2.126101
 30
0.000000
 11
2.834859
 21
2.132389
 31
0.000000
  0
LINE
  8
Layer 1
 62
     7
  6
CONTINUOUS
 10
2.834859
 20
2.132389
 30
0.000000
 11
2.830908
 21
2.136299
 31
0.000000
  0
LINE
  8
Layer 1
 62
     7
  6
CONTINUOUS
 10
2.830908
 20
2.136299
 30
0.000000
 11
2.832992
 21
2.140641
 31
0.000000
  0
LINE
  8
Layer 1
 62
     7
  6
CONTINUOUS
 10
2.832992
 20
2.140641
 30
0.000000
 11
2.878667
 21
2.158010
 31
0.000000
  0
LINE
  8
Layer 1
 62
     7
  6
CONTINUOUS
 10
2.878667
 20
2.158010
 30
0.000000
 11
2.929370
 21
2.175685
 31
0.000000
  0
LINE
  8
Layer 1
 62
     7
  6
CONTINUOUS
 10
2.929370
 20
2.175685
 30
0.000000
 11
2.981920
 21
2.200290
 31
0.000000
  0
LINE
  8
Layer 1
 62
     7
  6
CONTINUOUS
 10
2.981920
 20
2.200290
 30
0.000000
 11
3.035032
 21
2.231149
 31
0.000000
  0
LINE
  8
Layer 1
 62
     7
  6
CONTINUOUS
 10
3.035032
 20
2.231149
 30
0.000000
 11
3.087421
 21
2.267588
 31
0.000000
  0
LINE
  8
Layer 1
 62
     7
  6
CONTINUOUS
 10
3.087421
 20
2.267588
 30
0.000000
 11
3.149328
 21
2.319771
 31
0.000000
  0
LINE
  8
Layer 1
 62
     7
  6
CONTINUOUS
 10
3.149328
 20
2.319771
 30
0.000000
 11
3.219936
 21
2.386126
 31
0.000000
  0
LINE
  8
Layer 1
 62
     7
  6
CONTINUOUS
 10
3.219936
 20
2.386126
 30
0.000000
 11
3.277932
 21
2.445768
 31
0.000000
  0
LINE
  8
Layer 1
 62
     7
  6
CONTINUOUS
 10
3.277932
 20
2.445768
 30
0.000000
 11
3.302000
 21
2.477817
 31
0.000000
  0
LINE
  8
Layer 1
 62
     7
  6
CONTINUOUS
 10
3.302000
 20
2.477817
 30
0.000000
 11
3.295625
 21
2.486512
 31
0.000000
  0
LINE
  8
Layer 1
 62
     7
  6
CONTINUOUS
 10
3.295625
 20
2.486512
 30
0.000000
 11
3.280299
 21
2.495903
 31
0.000000
  0
LINE
  8
Layer 1
 62
     7
  6
CONTINUOUS
 10
3.280299
 20
2.495903
 30
0.000000
 11
3.196446
 21
2.551754
 31
0.000000
  0
LINE
  8
Layer 1
 62
     7
  6
CONTINUOUS
 10
3.196446
 20
2.551754
 30
0.000000
 11
3.133594
 21
2.608008
 31
0.000000
  0
LINE
  8
Layer 1
 62
     7
  6
CONTINUOUS
 10
3.133594
 20
2.608008
 30
0.000000
 11
3.080163
 21
2.674886
 31
0.000000
  0
LINE
  8
Layer 1
 62
     7
  6
CONTINUOUS
 10
3.080163
 20
2.674886
 30
0.000000
 11
3.040101
 21
2.746542
 31
0.000000
  0
LINE
  8
Layer 1
 62
     7
  6
CONTINUOUS
 10
3.040101
 20
2.746542
 30
0.000000
 11
3.017353
 21
2.817128
 31
0.000000
  0
LINE
  8
Layer 1
 62
     7
  6
CONTINUOUS
 10
3.017353
 20
2.817128
 30
0.000000
 11
3.011474
 21
2.848463
 31
0.000000
  0
LINE
  8
Layer 1
 62
     7
  6
CONTINUOUS
 10
3.011474
 20
2.848463
 30
0.000000
 11
3.060597
 21
2.803568
 31
0.000000
  0
LINE
  8
Layer 1
 62
     7
  6
CONTINUOUS
 10
3.060597
 20
2.803568
 30
0.000000
 11
3.110473
 21
2.764066
 31
0.000000
  0
LINE
  8
Layer 1
 62
     7
  6
CONTINUOUS
 10
3.110473
 20
2.764066
 30
0.000000
 11
3.161410
 21
2.732139
 31
0.000000
  0
LINE
  8
Layer 1
 62
     7
  6
CONTINUOUS
 10
3.161410
 20
2.732139
 30
0.000000
 11
3.191486
 21
2.717983
 31
0.000000
  0
LINE
  8
Layer 1
 62
     7
  6
CONTINUOUS
 10
3.191486
 20
2.717983
 30
0.000000
 11
3.218634
 21
2.709558
 31
0.000000
  0
LINE
  8
Layer 1
 62
     7
  6
CONTINUOUS
 10
3.218634
 20
2.709558
 30
0.000000
 11
3.297767
 21
2.702622
 31
0.000000
  0
LINE
  8
Layer 1
 62
     7
  6
CONTINUOUS
 10
3.297767
 20
2.702622
 30
0.000000
 11
3.360360
 21
2.702491
 31
0.000000
  0
LINE
  8
Layer 1
 62
     7
  6
CONTINUOUS
 10
3.360360
 20
2.702491
 30
0.000000
 11
3.391956
 21
2.706368
 31
0.000000
  0
LINE
  8
Layer 1
 62
     7
  6
CONTINUOUS
 10
3.391956
 20
2.706368
 30
0.000000
 11
3.440263
 21
2.790499
 31
0.000000
  0
LINE
  8
Layer 1
 62
     7
  6
CONTINUOUS
 10
3.440263
 20
2.790499
 30
0.000000
 11
3.514079
 21
2.924876
 31
0.000000
  0
LINE
  8
Layer 1
 62
     7
  6
CONTINUOUS
 10
3.514079
 20
2.924876
 30
0.000000
 11
3.601257
 21
3.065052
 31
0.000000
  0
LINE
  8
Layer 1
 62
     7
  6
CONTINUOUS
 10
3.601257
 20
3.065052
 30
0.000000
 11
3.633117
 21
3.127822
 31
0.000000
  0
LINE
  8
Layer 1
 62
     7
  6
CONTINUOUS
 10
3.633117
 20
3.127822
 30
0.000000
 11
3.654134
 21
3.208104
 31
0.000000
  0
LINE
  8
Layer 1
 62
     7
  6
CONTINUOUS
 10
3.654134
 20
3.208104
 30
0.000000
 11
3.665833
 21
3.314605
 31
0.000000
  0
LINE
  8
Layer 1
 62
     7
  6
CONTINUOUS
 10
3.665833
 20
3.314605
 30
0.000000
 11
3.669738
 21
3.456031
 31
0.000000
  0
LINE
  8
Layer 1
 62
     7
  6
CONTINUOUS
 10
3.669738
 20
3.456031
 30
0.000000
 11
3.672883
 21
3.631715
 31
0.000000
  0
LINE
  8
Layer 1
 62
     7
  6
CONTINUOUS
 10
3.672883
 20
3.631715
 30
0.000000
 11
3.692709
 21
3.595858
 31
0.000000
  0
LINE
  8
Layer 1
 62
     7
  6
CONTINUOUS
 10
3.692709
 20
3.595858
 30
0.000000
 11
3.726289
 21
3.509259
 31
0.000000
  0
LINE
  8
Layer 1
 62
     7
  6
CONTINUOUS
 10
3.726289
 20
3.509259
 30
0.000000
 11
3.762186
 21
3.403570
 31
0.000000
  0
LINE
  8
Layer 1
 62
     7
  6
CONTINUOUS
 10
3.762186
 20
3.403570
 30
0.000000
 11
3.788965
 21
3.310443
 31
0.000000
  0
LINE
  8
Layer 1
 62
     7
  6
CONTINUOUS
 10
3.788965
 20
3.310443
 30
0.000000
 11
3.803648
 21
3.259824
 31
0.000000
  0
LINE
  8
Layer 1
 62
     7
  6
CONTINUOUS
 10
3.803648
 20
3.259824
 30
0.000000
 11
3.809166
 21
3.256651
 31
0.000000
  0
LINE
  8
Layer 1
 62
     7
  6
CONTINUOUS
 10
3.809166
 20
3.256651
 30
0.000000
 11
3.816000
 21
3.263876
 31
0.000000
  0
LINE
  8
Layer 1
 62
     7
  6
CONTINUOUS
 10
3.816000
 20
3.263876
 30
0.000000
 11
3.918443
 21
3.402435
 31
0.000000
  0
LINE
  8
Layer 1
 62
     7
  6
CONTINUOUS
 10
3.918443
 20
3.402435
 30
0.000000
 11
3.993076
 21
3.487808
 31
0.000000
  0
LINE
  8
Layer 1
 62
     7
  6
CONTINUOUS
 10
3.993076
 20
3.487808
 30
0.000000
 11
4.064008
 21
3.555533
 31
0.000000
  0
LINE
  8
Layer 1
 62
     7
  6
CONTINUOUS
 10
4.064008
 20
3.555533
 30
0.000000
 11
4.072438
 21
3.542249
 31
0.000000
  0
LINE
  8
Layer 1
 62
     7
  6
CONTINUOUS
 10
4.072438
 20
3.542249
 30
0.000000
 11
4.083971
 21
3.505738
 31
0.000000
  0
LINE
  8
Layer 1
 62
     7
  6
CONTINUOUS
 10
4.083971
 20
3.505738
 30
0.000000
 11
4.112254
 21
3.383079
 31
0.000000
  0
LINE
  8
Layer 1
 62
     7
  6
CONTINUOUS
 10
4.112254
 20
3.383079
 30
0.000000
 11
4.140683
 21
3.227644
 31
0.000000
  0
LINE
  8
Layer 1
 62
     7
  6
CONTINUOUS
 10
4.140683
 20
3.227644
 30
0.000000
 11
4.161081
 21
3.079524
 31
0.000000
  0
LINE
  8
Layer 1
 62
     7
  6
CONTINUOUS
 10
4.161081
 20
3.079524
 30
0.000000
 11
4.169924
 21
2.964831
 31
0.000000
  0
LINE
  8
Layer 1
 62
     7
  6
CONTINUOUS
 10
4.169924
 20
2.964831
 30
0.000000
 11
4.173539
 21
2.846178
 31
0.000000
  0
LINE
  8
Layer 1
 62
     7
  6
CONTINUOUS
 10
4.173539
 20
2.846178
 30
0.000000
 11
4.171851
 21
2.732491
 31
0.000000
  0
LINE
  8
Layer 1
 62
     7
  6
CONTINUOUS
 10
4.171851
 20
2.732491
 30
0.000000
 11
4.164787
 21
2.632696
 31
0.000000
  0
LINE
  8
Layer 1
 62
     7
  6
CONTINUOUS
 10
4.164787
 20
2.632696
 30
0.000000
 11
4.155641
 21
2.556619
 31
0.000000
  0
LINE
  8
Layer 1
 62
     7
  6
CONTINUOUS
 10
4.155641
 20
2.556619
 30
0.000000
 11
4.149925
 21
2.532155
 31
0.000000
  0
LINE
  8
Layer 1
 62
     7
  6
CONTINUOUS
 10
4.149925
 20
2.532155
 30
0.000000
 11
4.141335
 21
2.513383
 31
0.000000
  0
LINE
  8
Layer 1
 62
     7
  6
CONTINUOUS
 10
4.141335
 20
2.513383
 30
0.000000
 11
4.128284
 21
2.497787
 31
0.000000
  0
LINE
  8
Layer 1
 62
     7
  6
CONTINUOUS
 10
4.128284
 20
2.497787
 30
0.000000
 11
4.109189
 21
2.482849
 31
0.000000
  0
LINE
  8
Layer 1
 62
     7
  6
CONTINUOUS
 10
4.109189
 20
2.482849
 30
0.000000
 11
4.046523
 21
2.444882
 31
0.000000
  0
LINE
  8
Layer 1
 62
     7
  6
CONTINUOUS
 10
4.046523
 20
2.444882
 30
0.000000
 11
3.942292
 21
2.387488
 31
0.000000
  0
LINE
  8
Layer 1
 62
     7
  6
CONTINUOUS
 10
3.942292
 20
2.387488
 30
0.000000
 11
3.938720
 21
2.395321
 31
0.000000
  0
LINE
  8
Layer 1
 62
     7
  6
CONTINUOUS
 10
3.938720
 20
2.395321
 30
0.000000
 11
3.940534
 21
2.414650
 31
0.000000
  0
LINE
  8
Layer 1
 62
     7
  6
CONTINUOUS
 10
3.940534
 20
2.414650
 30
0.000000
 11
3.961894
 21
2.558056
 31
0.000000
  0
LINE
  8
Layer 1
 62
     7
  6
CONTINUOUS
 10
3.961894
 20
2.558056
 30
0.000000
 11
3.979582
 21
2.742733
 31
0.000000
  0
LINE
  8
Layer 1
 62
     7
  6
CONTINUOUS
 10
3.979582
 20
2.742733
 30
0.000000
 11
3.984021
 21
2.862985
 31
0.000000
  0
LINE
  8
Layer 1
 62
     7
  6
CONTINUOUS
 10
3.984021
 20
2.862985
 30
0.000000
 11
3.983414
 21
2.996379
 31
0.000000
  0
LINE
  8
Layer 1
 62
     7
  6
CONTINUOUS
 10
3.983414
 20
2.996379
 30
0.000000
 11
3.978619
 21
3.104551
 31
0.000000
  0
LINE
  8
Layer 1
 62
     7
  6
CONTINUOUS
 10
3.978619
 20
3.104551
 30
0.000000
 11
3.974919
 21
3.137188
 31
0.000000
  0
LINE
  8
Layer 1
 62
     7
  6
CONTINUOUS
 10
3.974919
 20
3.137188
 30
0.000000
 11
3.970494
 21
3.149133
 31
0.000000
  0
LINE
  8
Layer 1
 62
     7
  6
CONTINUOUS
 10
3.970494
 20
3.149133
 30
0.000000
 11
3.952073
 21
3.131081
 31
0.000000
  0
LINE
  8
Layer 1
 62
     7
  6
CONTINUOUS
 10
3.952073
 20
3.131081
 30
0.000000
 11
3.920010
 21
3.085921
 31
0.000000
  0
LINE
  8
Layer 1
 62
     7
  6
CONTINUOUS
 10
3.920010
 20
3.085921
 30
0.000000
 11
3.850705
 21
2.968253
 31
0.000000
  0
LINE
  8
Layer 1
 62
     7
  6
CONTINUOUS
 10
3.850705
 20
2.968253
 30
0.000000
 11
3.813247
 21
2.880106
 31
0.000000
  0
LINE
  8
Layer 1
 62
     7
  6
CONTINUOUS
 10
3.813247
 20
2.880106
 30
0.000000
 11
3.771938
 21
2.764911
 31
0.000000
  0
LINE
  8
Layer 1
 62
     7
  6
CONTINUOUS
 10
3.771938
 20
2.764911
 30
0.000000
 11
3.742959
 21
2.678990
 31
0.000000
  0
LINE
  8
Layer 1
 62
     7
  6
CONTINUOUS
 10
3.742959
 20
2.678990
 30
0.000000
 11
3.733648
 21
2.658246
 31
0.000000
  0
LINE
  8
Layer 1
 62
     7
  6
CONTINUOUS
 10
3.733648
 20
2.658246
 30
0.000000
 11
3.726609
 21
2.652734
 31
0.000000
  0
LINE
  8
Layer 1
 62
     7
  6
CONTINUOUS
 10
3.726609
 20
2.652734
 30
0.000000
 11
3.720961
 21
2.662769
 31
0.000000
  0
LINE
  8
Layer 1
 62
     7
  6
CONTINUOUS
 10
3.720961
 20
2.662769
 30
0.000000
 11
3.715818
 21
2.688665
 31
0.000000
  0
LINE
  8
Layer 1
 62
     7
  6
CONTINUOUS
 10
3.715818
 20
2.688665
 30
0.000000
 11
3.703517
 21
2.789300
 31
0.000000
  0
LINE
  8
Layer 1
 62
     7
  6
CONTINUOUS
 10
3.703517
 20
2.789300
 30
0.000000
 11
3.687156
 21
2.910639
 31
0.000000
  0
LINE
  8
Layer 1
 62
     7
  6
CONTINUOUS
 10
3.687156
 20
2.910639
 30
0.000000
 11
3.670961
 21
2.892923
 31
0.000000
  0
LINE
  8
Layer 1
 62
     7
  6
CONTINUOUS
 10
3.670961
 20
2.892923
 30
0.000000
 11
3.638015
 21
2.844090
 31
0.000000
  0
LINE
  8
Layer 1
 62
     7
  6
CONTINUOUS
 10
3.638015
 20
2.844090
 30
0.000000
 11
3.569288
 21
2.726969
 31
0.000000
  0
LINE
  8
Layer 1
 62
     7
  6
CONTINUOUS
 10
3.569288
 20
2.726969
 30
0.000000
 11
3.539457
 21
2.658764
 31
0.000000
  0
LINE
  8
Layer 1
 62
     7
  6
CONTINUOUS
 10
3.539457
 20
2.658764
 30
0.000000
 11
3.507493
 21
2.573317
 31
0.000000
  0
LINE
  8
Layer 1
 62
     7
  6
CONTINUOUS
 10
3.507493
 20
2.573317
 30
0.000000
 11
3.481969
 21
2.495043
 31
0.000000
  0
LINE
  8
Layer 1
 62
     7
  6
CONTINUOUS
 10
3.481969
 20
2.495043
 30
0.000000
 11
3.471458
 21
2.448355
 31
0.000000
  0
LINE
  8
Layer 1
 62
     7
  6
CONTINUOUS
 10
3.471458
 20
2.448355
 30
0.000000
 11
3.475432
 21
2.433458
 31
0.000000
  0
LINE
  8
Layer 1
 62
     7
  6
CONTINUOUS
 10
3.475432
 20
2.433458
 30
0.000000
 11
3.494617
 21
2.434571
 31
0.000000
  0
LINE
  8
Layer 1
 62
     7
  6
CONTINUOUS
 10
3.494617
 20
2.434571
 30
0.000000
 11
3.569364
 21
2.460132
 31
0.000000
  0
LINE
  8
Layer 1
 62
     7
  6
CONTINUOUS
 10
3.569364
 20
2.460132
 30
0.000000
 11
3.626636
 21
2.480267
 31
0.000000
  0
LINE
  8
Layer 1
 62
     7
  6
CONTINUOUS
 10
3.626636
 20
2.480267
 30
0.000000
 11
3.626917
 21
2.470685
 31
0.000000
  0
LINE
  8
Layer 1
 62
     7
  6
CONTINUOUS
 10
3.626917
 20
2.470685
 30
0.000000
 11
3.615648
 21
2.444661
 31
0.000000
  0
LINE
  8
Layer 1
 62
     7
  6
CONTINUOUS
 10
3.615648
 20
2.444661
 30
0.000000
 11
3.568230
 21
2.359616
 31
0.000000
  0
LINE
  8
Layer 1
 62
     7
  6
CONTINUOUS
 10
3.568230
 20
2.359616
 30
0.000000
 11
3.503909
 21
2.257789
 31
0.000000
  0
LINE
  8
Layer 1
 62
     7
  6
CONTINUOUS
 10
3.503909
 20
2.257789
 30
0.000000
 11
3.442213
 21
2.171839
 31
0.000000
  0
LINE
  8
Layer 1
 62
     7
  6
CONTINUOUS
 10
3.442213
 20
2.171839
 30
0.000000
 11
3.408963
 21
2.127105
 31
0.000000
  0
LINE
  8
Layer 1
 62
     7
  6
CONTINUOUS
 10
3.408963
 20
2.127105
 30
0.000000
 11
3.395133
 21
2.101927
 31
0.000000
  0
LINE
  8
Layer 1
 62
     7
  6
CONTINUOUS
 10
3.395133
 20
2.101927
 30
0.000000
 11
3.422296
 21
1.968543
 31
0.000000
  0
LINE
  8
Layer 1
 62
     7
  6
CONTINUOUS
 10
3.422296
 20
1.968543
 30
0.000000
 11
3.463625
 21
1.798700
 31
0.000000
  0
LINE
  8
Layer 1
 62
     7
  6
CONTINUOUS
 10
3.463625
 20
1.798700
 30
0.000000
 11
3.507394
 21
1.661289
 31
0.000000
  0
LINE
  8
Layer 1
 62
     7
  6
CONTINUOUS
 10
3.507394
 20
1.661289
 30
0.000000
 11
3.534233
 21
1.583145
 31
0.000000
  0
LINE
  8
Layer 1
 62
     7
  6
CONTINUOUS
 10
3.534233
 20
1.583145
 30
0.000000
 11
3.519331
 21
1.527218
 31
0.000000
  0
LINE
  8
Layer 1
 62
     7
  6
CONTINUOUS
 10
3.519331
 20
1.527218
 30
0.000000
 11
3.499930
 21
1.419964
 31
0.000000
  0
LINE
  8
Layer 1
 62
     7
  6
CONTINUOUS
 10
3.499930
 20
1.419964
 30
0.000000
 11
3.497582
 21
1.379063
 31
0.000000
  0
LINE
  8
Layer 1
 62
     7
  6
CONTINUOUS
 10
3.497582
 20
1.379063
 30
0.000000
 11
3.501859
 21
1.362867
 31
0.000000
  0
LINE
  8
Layer 1
 62
     7
  6
CONTINUOUS
 10
3.501859
 20
1.362867
 30
0.000000
 11
3.534833
 21
1.397476
 31
0.000000
  0
LINE
  8
Layer 1
 62
     7
  6
CONTINUOUS
 10
3.534833
 20
1.397476
 30
0.000000
 11
3.633075
 21
1.501907
 31
0.000000
  0
LINE
  8
Layer 1
 62
     7
  6
CONTINUOUS
 10
3.633075
 20
1.501907
 30
0.000000
 11
3.739337
 21
1.597824
 31
0.000000
  0
LINE
  8
Layer 1
 62
     7
  6
CONTINUOUS
 10
3.739337
 20
1.597824
 30
0.000000
 11
3.766041
 21
1.616662
 31
0.000000
  0
LINE
  8
Layer 1
 62
     7
  6
CONTINUOUS
 10
3.766041
 20
1.616662
 30
0.000000
 11
3.878080
 21
1.481415
 31
0.000000
  0
LINE
  8
Layer 1
 62
     7
  6
CONTINUOUS
 10
3.878080
 20
1.481415
 30
0.000000
 11
3.959354
 21
1.387223
 31
0.000000
  0
LINE
  8
Layer 1
 62
     7
  6
CONTINUOUS
 10
3.959354
 20
1.387223
 30
0.000000
 11
3.997426
 21
1.350683
 31
0.000000
  0
LINE
  8
Layer 1
 62
     7
  6
CONTINUOUS
 10
3.997426
 20
1.350683
 30
0.000000
 11
4.002587
 21
1.359554
 31
0.000000
  0
LINE
  8
Layer 1
 62
     7
  6
CONTINUOUS
 10
4.002587
 20
1.359554
 30
0.000000
 11
4.004733
 21
1.374541
 31
0.000000
  0
LINE
  8
Layer 1
 62
     7
  6
CONTINUOUS
 10
4.004733
 20
1.374541
 30
0.000000
 11
4.020111
 21
1.437923
 31
0.000000
  0
LINE
  8
Layer 1
 62
     7
  6
CONTINUOUS
 10
4.020111
 20
1.437923
 30
0.000000
 11
4.051424
 21
1.515805
 31
0.000000
  0
LINE
  8
Layer 1
 62
     7
  6
CONTINUOUS
 10
4.051424
 20
1.515805
 30
0.000000
 11
4.094359
 21
1.579267
 31
0.000000
  0
LINE
  8
Layer 1
 62
     7
  6
CONTINUOUS
 10
4.094359
 20
1.579267
 30
0.000000
 11
4.117279
 21
1.605794
 31
0.000000
  0
LINE
  8
Layer 1
 62
     7
  6
CONTINUOUS
 10
4.117279
 20
1.605794
 30
0.000000
 11
4.131494
 21
1.616667
 31
0.000000
  0
LINE
  8
Layer 1
 62
     7
  6
CONTINUOUS
 10
4.131494
 20
1.616667
 30
0.000000
 11
4.135266
 21
1.607340
 31
0.000000
  0
LINE
  8
Layer 1
 62
     7
  6
CONTINUOUS
 10
4.135266
 20
1.607340
 30
0.000000
 11
4.134373
 21
1.584917
 31
0.000000
  0
LINE
  8
Layer 1
 62
     7
  6
CONTINUOUS
 10
4.134373
 20
1.584917
 30
0.000000
 11
4.134142
 21
1.531519
 31
0.000000
  0
LINE
  8
Layer 1
 62
     7
  6
CONTINUOUS
 10
4.134142
 20
1.531519
 30
0.000000
 11
4.145368
 21
1.459682
 31
0.000000
  0
LINE
  8
Layer 1
 62
     7
  6
CONTINUOUS
 10
4.145368
 20
1.459682
 30
0.000000
 11
4.168226
 21
1.368576
 31
0.000000
  0
LINE
  8
Layer 1
 62
     7
  6
CONTINUOUS
 10
4.168226
 20
1.368576
 30
0.000000
 11
4.202887
 21
1.257375
 31
0.000000
  0
LINE
  8
Layer 1
 62
     7
  6
CONTINUOUS
 10
4.202887
 20
1.257375
 30
0.000000
 11
4.243655
 21
1.131365
 31
0.000000
  0
LINE
  8
Layer 1
 62
     7
  6
CONTINUOUS
 10
4.243655
 20
1.131365
 30
0.000000
 11
4.266503
 21
1.044977
 31
0.000000
  0
LINE
  8
Layer 1
 62
     7
  6
CONTINUOUS
 10
4.266503
 20
1.044977
 30
0.000000
 11
4.276339
 21
0.974695
 31
0.000000
  0
LINE
  8
Layer 1
 62
     7
  6
CONTINUOUS
 10
4.276339
 20
0.974695
 30
0.000000
 11
4.278068
 21
0.897000
 31
0.000000
  0
LINE
  8
Layer 1
 62
     7
  6
CONTINUOUS
 10
4.278068
 20
0.897000
 30
0.000000
 11
4.272957
 21
0.802849
 31
0.000000
  0
LINE
  8
Layer 1
 62
     7
  6
CONTINUOUS
 10
4.272957
 20
0.802849
 30
0.000000
 11
4.255918
 21
0.717500
 31
0.000000
  0
LINE
  8
Layer 1
 62
     7
  6
CONTINUOUS
 10
4.255918
 20
0.717500
 30
0.000000
 11
4.232830
 21
0.643137
 31
0.000000
  0
LINE
  8
Layer 1
 62
     7
  6
CONTINUOUS
 10
4.232830
 20
0.643137
 30
0.000000
 11
4.201153
 21
0.557875
 31
0.000000
  0
LINE
  8
Layer 1
 62
     7
  6
CONTINUOUS
 10
4.201153
 20
0.557875
 30
0.000000
 11
4.168236
 21
0.480244
 31
0.000000
  0
LINE
  8
Layer 1
 62
     7
  6
CONTINUOUS
 10
4.168236
 20
0.480244
 30
0.000000
 11
4.141426
 21
0.428773
 31
0.000000
  0
LINE
  8
Layer 1
 62
     7
  6
CONTINUOUS
 10
4.141426
 20
0.428773
 30
0.000000
 11
4.125733
 21
0.405046
 31
0.000000
  0
LINE
  8
Layer 1
 62
     7
  6
CONTINUOUS
 10
4.125733
 20
0.405046
 30
0.000000
 11
4.119778
 21
0.499149
 31
0.000000
  0
LINE
  8
Layer 1
 62
     7
  6
CONTINUOUS
 10
4.119778
 20
0.499149
 30
0.000000
 11
4.106260
 21
0.630692
 31
0.000000
  0
LINE
  8
Layer 1
 62
     7
  6
CONTINUOUS
 10
4.106260
 20
0.630692
 30
0.000000
 11
4.082564
 21
0.751838
 31
0.000000
  0
LINE
  8
Layer 1
 62
     7
  6
CONTINUOUS
 10
4.082564
 20
0.751838
 30
0.000000
 11
4.047792
 21
0.866211
 31
0.000000
  0
LINE
  8
Layer 1
 62
     7
  6
CONTINUOUS
 10
4.047792
 20
0.866211
 30
0.000000
 11
4.001042
 21
0.977433
 31
0.000000
  0
LINE
  8
Layer 1
 62
     7
  6
CONTINUOUS
 10
4.001042
 20
0.977433
 30
0.000000
 11
3.942539
 21
1.085013
 31
0.000000
  0
LINE
  8
Layer 1
 62
     7
  6
CONTINUOUS
 10
3.942539
 20
1.085013
 30
0.000000
 11
3.913546
 21
1.127221
 31
0.000000
  0
LINE
  8
Layer 1
 62
     7
  6
CONTINUOUS
 10
3.913546
 20
1.127221
 30
0.000000
 11
3.884709
 21
1.161725
 31
0.000000
  0
LINE
  8
Layer 1
 62
     7
  6
CONTINUOUS
 10
3.884709
 20
1.161725
 30
0.000000
 11
3.856016
 21
1.188538
 31
0.000000
  0
LINE
  8
Layer 1
 62
     7
  6
CONTINUOUS
 10
3.856016
 20
1.188538
 30
0.000000
 11
3.827453
 21
1.207674
 31
0.000000
  0
LINE
  8
Layer 1
 62
     7
  6
CONTINUOUS
 10
3.827453
 20
1.207674
 30
0.000000
 11
3.799009
 21
1.219146
 31
0.000000
  0
LINE
  8
Layer 1
 62
     7
  6
CONTINUOUS
 10
3.799009
 20
1.219146
 30
0.000000
 11
3.770670
 21
1.222967
 31
0.000000
  0
LINE
  8
Layer 1
 62
     7
  6
CONTINUOUS
 10
3.770670
 20
1.222967
 30
0.000000
 11
3.735955
 21
1.217710
 31
0.000000
  0
LINE
  8
Layer 1
 62
     7
  6
CONTINUOUS
 10
3.735955
 20
1.217710
 30
0.000000
 11
3.707016
 21
1.195857
 31
0.000000
  0
LINE
  8
Layer 1
 62
     7
  6
CONTINUOUS
 10
3.707016
 20
1.195857
 30
0.000000
 11
3.692852
 21
1.179982
 31
0.000000
  0
LINE
  8
Layer 1
 62
     7
  6
CONTINUOUS
 10
3.692852
 20
1.179982
 30
0.000000
 11
3.684089
 21
1.164385
 31
0.000000
  0
LINE
  8
Layer 1
 62
     7
  6
CONTINUOUS
 10
3.684089
 20
1.164385
 30
0.000000
 11
3.676181
 21
1.117248
 31
0.000000
  0
LINE
  8
Layer 1
 62
     7
  6
CONTINUOUS
 10
3.676181
 20
1.117248
 30
0.000000
 11
3.676561
 21
1.074472
 31
0.000000
  0
LINE
  8
Layer 1
 62
     7
  6
CONTINUOUS
 10
3.676561
 20
1.074472
 30
0.000000
 11
3.684918
 21
1.034648
 31
0.000000
  0
LINE
  8
Layer 1
 62
     7
  6
CONTINUOUS
 10
3.684918
 20
1.034648
 30
0.000000
 11
3.702254
 21
0.994670
 31
0.000000
  0
LINE
  8
Layer 1
 62
     7
  6
CONTINUOUS
 10
3.702254
 20
0.994670
 30
0.000000
 11
3.729568
 21
0.951432
 31
0.000000
  0
LINE
  8
Layer 1
 62
     7
  6
CONTINUOUS
 10
3.729568
 20
0.951432
 30
0.000000
 11
3.755327
 21
0.907238
 31
0.000000
  0
LINE
  8
Layer 1
 62
     7
  6
CONTINUOUS
 10
3.755327
 20
0.907238
 30
0.000000
 11
3.725870
 21
0.915513
 31
0.000000
  0
LINE
  8
Layer 1
 62
     7
  6
CONTINUOUS
 10
3.725870
 20
0.915513
 30
0.000000
 11
3.663210
 21
0.943360
 31
0.000000
  0
LINE
  8
Layer 1
 62
     7
  6
CONTINUOUS
 10
3.663210
 20
0.943360
 30
0.000000
 11
3.530600
 21
1.013935
 31
0.000000
  0
LINE
  8
Layer 1
 62
     7
  6
CONTINUOUS
 10
3.530600
 20
1.013935
 30
0.000000
 11
3.460035
 21
1.063809
 31
0.000000
  0
LINE
  8
Layer 1
 62
     7
  6
CONTINUOUS
 10
3.460035
 20
1.063809
 30
0.000000
 11
3.388391
 21
1.121217
 31
0.000000
  0
LINE
  8
Layer 1
 62
     7
  6
CONTINUOUS
 10
2.199463
 20
0.639125
 30
0.000000
 11
2.103748
 21
0.532933
 31
0.000000
  0
LINE
  8
Layer 1
 62
     7
  6
CONTINUOUS
 10
2.103748
 20
0.532933
 30
0.000000
 11
2.072508
 21
0.503300
 31
0.000000
  0
LINE
  8
Layer 1
 62
     7
  6
CONTINUOUS
 10
2.072508
 20
0.503300
 30
0.000000
 11
2.078809
 21
0.532933
 31
0.000000
  0
LINE
  8
Layer 1
 62
     7
  6
CONTINUOUS
 10
2.078809
 20
0.532933
 30
0.000000
 11
2.091516
 21
0.616003
 31
0.000000
  0
LINE
  8
Layer 1
 62
     7
  6
CONTINUOUS
 10
2.091516
 20
0.616003
 30
0.000000
 11
2.092866
 21
0.697666
 31
0.000000
  0
LINE
  8
Layer 1
 62
     7
  6
CONTINUOUS
 10
2.092866
 20
0.697666
 30
0.000000
 11
2.081797
 21
0.780990
 31
0.000000
  0
LINE
  8
Layer 1
 62
     7
  6
CONTINUOUS
 10
2.081797
 20
0.780990
 30
0.000000
 11
2.057247
 21
0.869044
 31
0.000000
  0
LINE
  8
Layer 1
 62
     7
  6
CONTINUOUS
 10
2.057247
 20
0.869044
 30
0.000000
 11
2.018155
 21
0.964894
 31
0.000000
  0
LINE
  8
Layer 1
 62
     7
  6
CONTINUOUS
 10
2.018155
 20
0.964894
 30
0.000000
 11
1.963458
 21
1.071609
 31
0.000000
  0
LINE
  8
Layer 1
 62
     7
  6
CONTINUOUS
 10
1.963458
 20
1.071609
 30
0.000000
 11
1.892096
 21
1.192257
 31
0.000000
  0
LINE
  8
Layer 1
 62
     7
  6
CONTINUOUS
 10
1.892096
 20
1.192257
 30
0.000000
 11
1.803006
 21
1.329905
 31
0.000000
  0
LINE
  8
Layer 1
 62
     7
  6
CONTINUOUS
 10
1.803006
 20
1.329905
 30
0.000000
 11
1.749659
 21
1.415996
 31
0.000000
  0
LINE
  8
Layer 1
 62
     7
  6
CONTINUOUS
 10
1.749659
 20
1.415996
 30
0.000000
 11
1.738809
 21
1.441446
 31
0.000000
  0
LINE
  8
Layer 1
 62
     7
  6
CONTINUOUS
 10
1.738809
 20
1.441446
 30
0.000000
 11
1.735667
 21
1.460686
 31
0.000000
  0
LINE
  8
Layer 1
 62
     7
  6
CONTINUOUS
 10
1.735667
 20
1.460686
 30
0.000000
 11
1.745014
 21
1.550657
 31
0.000000
  0
LINE
  8
Layer 1
 62
     7
  6
CONTINUOUS
 10
1.745014
 20
1.550657
 30
0.000000
 11
1.760260
 21
1.623174
 31
0.000000
  0
LINE
  8
Layer 1
 62
     7
  6
CONTINUOUS
 10
1.760260
 20
1.623174
 30
0.000000
 11
1.766558
 21
1.621945
 31
0.000000
  0
LINE
  8
Layer 1
 62
     7
  6
CONTINUOUS
 10
1.766558
 20
1.621945
 30
0.000000
 11
1.779630
 21
1.610796
 31
0.000000
  0
LINE
  8
Layer 1
 62
     7
  6
CONTINUOUS
 10
1.779630
 20
1.610796
 30
0.000000
 11
1.819845
 21
1.566231
 31
0.000000
  0
LINE
  8
Layer 1
 62
     7
  6
CONTINUOUS
 10
1.819845
 20
1.566231
 30
0.000000
 11
1.868393
 21
1.504466
 31
0.000000
  0
LINE
  8
Layer 1
 62
     7
  6
CONTINUOUS
 10
1.868393
 20
1.504466
 30
0.000000
 11
1.912761
 21
1.440489
 31
0.000000
  0
LINE
  8
Layer 1
 62
     7
  6
CONTINUOUS
 10
1.912761
 20
1.440489
 30
0.000000
 11
1.934990
 21
1.410846
 31
0.000000
  0
LINE
  8
Layer 1
 62
     7
  6
CONTINUOUS
 10
1.934990
 20
1.410846
 30
0.000000
 11
1.948407
 21
1.402687
 31
0.000000
  0
LINE
  8
Layer 1
 62
     7
  6
CONTINUOUS
 10
1.948407
 20
1.402687
 30
0.000000
 11
1.964485
 21
1.456098
 31
0.000000
  0
LINE
  8
Layer 1
 62
     7
  6
CONTINUOUS
 10
1.964485
 20
1.456098
 30
0.000000
 11
1.968903
 21
1.492782
 31
0.000000
  0
LINE
  8
Layer 1
 62
     7
  6
CONTINUOUS
 10
1.968903
 20
1.492782
 30
0.000000
 11
1.968699
 21
1.532653
 31
0.000000
  0
LINE
  8
Layer 1
 62
     7
  6
CONTINUOUS
 10
1.968699
 20
1.532653
 30
0.000000
 11
1.954568
 21
1.619638
 31
0.000000
  0
LINE
  8
Layer 1
 62
     7
  6
CONTINUOUS
 10
1.954568
 20
1.619638
 30
0.000000
 11
1.948991
 21
1.648303
 31
0.000000
  0
LINE
  8
Layer 1
 62
     7
  6
CONTINUOUS
 10
1.948991
 20
1.648303
 30
0.000000
 11
1.949635
 21
1.654000
 31
0.000000
  0
LINE
  8
Layer 1
 62
     7
  6
CONTINUOUS
 10
1.949635
 20
1.654000
 30
0.000000
 11
1.952456
 21
1.654018
 31
0.000000
  0
LINE
  8
Layer 1
 62
     7
  6
CONTINUOUS
 10
1.952456
 20
1.654018
 30
0.000000
 11
1.983876
 21
1.598496
 31
0.000000
  0
LINE
  8
Layer 1
 62
     7
  6
CONTINUOUS
 10
1.983876
 20
1.598496
 30
0.000000
 11
2.019816
 21
1.511193
 31
0.000000
  0
LINE
  8
Layer 1
 62
     7
  6
CONTINUOUS
 10
2.019816
 20
1.511193
 30
0.000000
 11
2.047207
 21
1.420248
 31
0.000000
  0
LINE
  8
Layer 1
 62
     7
  6
CONTINUOUS
 10
2.047207
 20
1.420248
 30
0.000000
 11
2.066759
 21
1.322817
 31
0.000000
  0
LINE
  8
Layer 1
 62
     7
  6
CONTINUOUS
 10
2.066759
 20
1.322817
 30
0.000000
 11
2.079180
 21
1.216055
 31
0.000000
  0
LINE
  8
Layer 1
 62
     7
  6
CONTINUOUS
 10
2.079180
 20
1.216055
 30
0.000000
 11
2.085220
 21
1.141410
 31
0.000000
  0
LINE
  8
Layer 1
 62
     7
  6
CONTINUOUS
 10
2.085220
 20
1.141410
 30
0.000000
 11
2.145436
 21
1.096878
 31
0.000000
  0
LINE
  8
Layer 1
 62
     7
  6
CONTINUOUS
 10
2.145436
 20
1.096878
 30
0.000000
 11
2.258425
 21
1.003488
 31
0.000000
  0
LINE
  8
Layer 1
 62
     7
  6
CONTINUOUS
 10
2.258425
 20
1.003488
 30
0.000000
 11
2.292031
 21
0.972055
 31
0.000000
  0
LINE
  8
Layer 1
 62
     7
  6
CONTINUOUS
 10
2.292031
 20
0.972055
 30
0.000000
 11
2.302385
 21
0.965297
 31
0.000000
  0
LINE
  8
Layer 1
 62
     7
  6
CONTINUOUS
 10
2.302385
 20
0.965297
 30
0.000000
 11
2.310366
 21
0.965596
 31
0.000000
  0
LINE
  8
Layer 1
 62
     7
  6
CONTINUOUS
 10
2.310366
 20
0.965596
 30
0.000000
 11
2.324985
 21
0.990618
 31
0.000000
  0
LINE
  8
Layer 1
 62
     7
  6
CONTINUOUS
 10
2.324985
 20
0.990618
 30
0.000000
 11
2.347445
 21
1.053633
 31
0.000000
  0
LINE
  8
Layer 1
 62
     7
  6
CONTINUOUS
 10
2.347445
 20
1.053633
 30
0.000000
 11
2.366342
 21
1.113156
 31
0.000000
  0
LINE
  8
Layer 1
 62
     7
  6
CONTINUOUS
 10
2.366342
 20
1.113156
 30
0.000000
 11
2.381084
 21
1.174566
 31
0.000000
  0
LINE
  8
Layer 1
 62
     7
  6
CONTINUOUS
 10
2.381084
 20
1.174566
 30
0.000000
 11
2.397930
 21
1.300401
 31
0.000000
  0
LINE
  8
Layer 1
 62
     7
  6
CONTINUOUS
 10
2.397930
 20
1.300401
 30
0.000000
 11
2.397637
 21
1.425853
 31
0.000000
  0
LINE
  8
Layer 1
 62
     7
  6
CONTINUOUS
 10
2.397637
 20
1.425853
 30
0.000000
 11
2.390954
 21
1.486783
 31
0.000000
  0
LINE
  8
Layer 1
 62
     7
  6
CONTINUOUS
 10
2.390954
 20
1.486783
 30
0.000000
 11
2.379856
 21
1.545634
 31
0.000000
  0
LINE
  8
Layer 1
 62
     7
  6
CONTINUOUS
 10
2.379856
 20
1.545634
 30
0.000000
 11
2.360057
 21
1.631236
 31
0.000000
  0
LINE
  8
Layer 1
 62
     7
  6
CONTINUOUS
 10
2.360057
 20
1.631236
 30
0.000000
 11
2.385632
 21
1.698034
 31
0.000000
  0
LINE
  8
Layer 1
 62
     7
  6
CONTINUOUS
 10
2.385632
 20
1.698034
 30
0.000000
 11
2.440834
 21
1.860311
 31
0.000000
  0
LINE
  8
Layer 1
 62
     7
  6
CONTINUOUS
 10
2.440834
 20
1.860311
 30
0.000000
 11
2.489568
 21
2.042203
 31
0.000000
  0
LINE
  8
Layer 1
 62
     7
  6
CONTINUOUS
 10
2.489568
 20
2.042203
 30
0.000000
 11
2.519553
 21
2.156403
 31
0.000000
  0
LINE
  8
Layer 1
 62
     7
  6
CONTINUOUS
 10
2.519553
 20
2.156403
 30
0.000000
 11
2.544090
 21
2.056833
 31
0.000000
  0
LINE
  8
Layer 1
 62
     7
  6
CONTINUOUS
 10
2.544090
 20
2.056833
 30
0.000000
 11
2.590365
 21
1.881657
 31
0.000000
  0
LINE
  8
Layer 1
 62
     7
  6
CONTINUOUS
 10
2.590365
 20
1.881657
 30
0.000000
 11
2.647640
 21
1.710278
 31
0.000000
  0
LINE
  8
Layer 1
 62
     7
  6
CONTINUOUS
 10
2.647640
 20
1.710278
 30
0.000000
 11
2.677402
 21
1.630322
 31
0.000000
  0
LINE
  8
Layer 1
 62
     7
  6
CONTINUOUS
 10
2.677402
 20
1.630322
 30
0.000000
 11
2.657707
 21
1.545178
 31
0.000000
  0
LINE
  8
Layer 1
 62
     7
  6
CONTINUOUS
 10
2.657707
 20
1.545178
 30
0.000000
 11
2.645262
 21
1.478709
 31
0.000000
  0
LINE
  8
Layer 1
 62
     7
  6
CONTINUOUS
 10
2.645262
 20
1.478709
 30
0.000000
 11
2.638467
 21
1.411220
 31
0.000000
  0
LINE
  8
Layer 1
 62
     7
  6
CONTINUOUS
 10
2.638467
 20
1.411220
 30
0.000000
 11
2.637334
 21
1.342601
 31
0.000000
  0
LINE
  8
Layer 1
 62
     7
  6
CONTINUOUS
 10
2.637334
 20
1.342601
 30
0.000000
 11
2.641873
 21
1.272744
 31
0.000000
  0
LINE
  8
Layer 1
 62
     7
  6
CONTINUOUS
 10
2.641873
 20
1.272744
 30
0.000000
 11
2.652096
 21
1.201538
 31
0.000000
  0
LINE
  8
Layer 1
 62
     7
  6
CONTINUOUS
 10
2.652096
 20
1.201538
 30
0.000000
 11
2.668016
 21
1.128874
 31
0.000000
  0
LINE
  8
Layer 1
 62
     7
  6
CONTINUOUS
 10
2.668016
 20
1.128874
 30
0.000000
 11
2.689642
 21
1.054642
 31
0.000000
  0
LINE
  8
Layer 1
 62
     7
  6
CONTINUOUS
 10
2.689642
 20
1.054642
 30
0.000000
 11
2.716988
 21
0.978732
 31
0.000000
  0
LINE
  8
Layer 1
 62
     7
  6
CONTINUOUS
 10
2.716988
 20
0.978732
 30
0.000000
 11
2.726470
 21
0.954631
 31
0.000000
  0
LINE
  8
Layer 1
 62
     7
  6
CONTINUOUS
 10
2.726470
 20
0.954631
 30
0.000000
 11
2.779242
 21
1.003488
 31
0.000000
  0
LINE
  8
Layer 1
 62
     7
  6
CONTINUOUS
 10
2.779242
 20
1.003488
 30
0.000000
 11
2.892230
 21
1.096878
 31
0.000000
  0
LINE
  8
Layer 1
 62
     7
  6
CONTINUOUS
 10
2.892230
 20
1.096878
 30
0.000000
 11
2.952447
 21
1.141410
 31
0.000000
  0
LINE
  8
Layer 1
 62
     7
  6
CONTINUOUS
 10
2.952447
 20
1.141410
 30
0.000000
 11
2.958487
 21
1.216055
 31
0.000000
  0
LINE
  8
Layer 1
 62
     7
  6
CONTINUOUS
 10
2.958487
 20
1.216055
 30
0.000000
 11
2.977052
 21
1.357017
 31
0.000000
  0
LINE
  8
Layer 1
 62
     7
  6
CONTINUOUS
 10
2.977052
 20
1.357017
 30
0.000000
 11
3.006778
 21
1.481200
 31
0.000000
  0
LINE
  8
Layer 1
 62
     7
  6
CONTINUOUS
 10
3.006778
 20
1.481200
 30
0.000000
 11
3.051674
 21
1.595451
 31
0.000000
  0
LINE
  8
Layer 1
 62
     7
  6
CONTINUOUS
 10
3.051674
 20
1.595451
 30
0.000000
 11
3.073930
 21
1.641538
 31
0.000000
  0
LINE
  8
Layer 1
 62
     7
  6
CONTINUOUS
 10
3.073930
 20
1.641538
 30
0.000000
 11
3.085955
 21
1.657734
 31
0.000000
  0
LINE
  8
Layer 1
 62
     7
  6
CONTINUOUS
 10
3.085955
 20
1.657734
 30
0.000000
 11
3.076127
 21
1.586542
 31
0.000000
  0
LINE
  8
Layer 1
 62
     7
  6
CONTINUOUS
 10
3.076127
 20
1.586542
 30
0.000000
 11
3.066839
 21
1.521880
 31
0.000000
  0
LINE
  8
Layer 1
 62
     7
  6
CONTINUOUS
 10
3.066839
 20
1.521880
 30
0.000000
 11
3.071541
 21
1.465257
 31
0.000000
  0
LINE
  8
Layer 1
 62
     7
  6
CONTINUOUS
 10
3.071541
 20
1.465257
 30
0.000000
 11
3.088049
 21
1.403897
 31
0.000000
  0
LINE
  8
Layer 1
 62
     7
  6
CONTINUOUS
 10
3.088049
 20
1.403897
 30
0.000000
 11
3.106428
 21
1.417676
 31
0.000000
  0
LINE
  8
Layer 1
 62
     7
  6
CONTINUOUS
 10
3.106428
 20
1.417676
 30
0.000000
 11
3.140917
 21
1.462174
 31
0.000000
  0
LINE
  8
Layer 1
 62
     7
  6
CONTINUOUS
 10
3.140917
 20
1.462174
 30
0.000000
 11
3.231848
 21
1.583925
 31
0.000000
  0
LINE
  8
Layer 1
 62
     7
  6
CONTINUOUS
 10
3.231848
 20
1.583925
 30
0.000000
 11
3.262564
 21
1.618284
 31
0.000000
  0
LINE
  8
Layer 1
 62
     7
  6
CONTINUOUS
 10
3.262564
 20
1.618284
 30
0.000000
 11
3.277164
 21
1.627347
 31
0.000000
  0
LINE
  8
Layer 1
 62
     7
  6
CONTINUOUS
 10
3.277164
 20
1.627347
 30
0.000000
 11
3.292221
 21
1.555969
 31
0.000000
  0
LINE
  8
Layer 1
 62
     7
  6
CONTINUOUS
 10
3.292221
 20
1.555969
 30
0.000000
 11
3.302000
 21
1.460867
 31
0.000000
  0
LINE
  8
Layer 1
 62
     7
  6
CONTINUOUS
 10
3.302000
 20
1.460867
 30
0.000000
 11
3.298896
 21
1.443104
 31
0.000000
  0
LINE
  8
Layer 1
 62
     7
  6
CONTINUOUS
 10
3.298896
 20
1.443104
 30
0.000000
 11
3.288905
 21
1.419205
 31
0.000000
  0
LINE
  8
Layer 1
 62
     7
  6
CONTINUOUS
 10
3.288905
 20
1.419205
 30
0.000000
 11
3.244171
 21
1.344796
 31
0.000000
  0
LINE
  8
Layer 1
 62
     7
  6
CONTINUOUS
 10
3.244171
 20
1.344796
 30
0.000000
 11
3.150036
 21
1.197831
 31
0.000000
  0
LINE
  8
Layer 1
 62
     7
  6
CONTINUOUS
 10
3.150036
 20
1.197831
 30
0.000000
 11
3.075361
 21
1.071700
 31
0.000000
  0
LINE
  8
Layer 1
 62
     7
  6
CONTINUOUS
 10
3.075361
 20
1.071700
 30
0.000000
 11
3.018770
 21
0.962482
 31
0.000000
  0
LINE
  8
Layer 1
 62
     7
  6
CONTINUOUS
 10
3.018770
 20
0.962482
 30
0.000000
 11
2.978884
 21
0.866259
 31
0.000000
  0
LINE
  8
Layer 1
 62
     7
  6
CONTINUOUS
 10
2.978884
 20
0.866259
 30
0.000000
 11
2.954328
 21
0.779112
 31
0.000000
  0
LINE
  8
Layer 1
 62
     7
  6
CONTINUOUS
 10
2.954328
 20
0.779112
 30
0.000000
 11
2.943722
 21
0.697121
 31
0.000000
  0
LINE
  8
Layer 1
 62
     7
  6
CONTINUOUS
 10
2.943722
 20
0.697121
 30
0.000000
 11
2.945692
 21
0.616368
 31
0.000000
  0
LINE
  8
Layer 1
 62
     7
  6
CONTINUOUS
 10
2.945692
 20
0.616368
 30
0.000000
 11
2.958858
 21
0.532933
 31
0.000000
  0
LINE
  8
Layer 1
 62
     7
  6
CONTINUOUS
 10
2.958858
 20
0.532933
 30
0.000000
 11
2.965159
 21
0.503300
 31
0.000000
  0
LINE
  8
Layer 1
 62
     7
  6
CONTINUOUS
 10
2.965159
 20
0.503300
 30
0.000000
 11
2.933919
 21
0.532933
 31
0.000000
  0
LINE
  8
Layer 1
 62
     7
  6
CONTINUOUS
 10
2.933919
 20
0.532933
 30
0.000000
 11
2.838204
 21
0.639125
 31
0.000000
  0
LINE
  8
Layer 1
 62
     7
  6
CONTINUOUS
 10
2.838204
 20
0.639125
 30
0.000000
 11
2.745401
 21
0.761533
 31
0.000000
  0
LINE
  8
Layer 1
 62
     7
  6
CONTINUOUS
 10
2.745401
 20
0.761533
 30
0.000000
 11
2.687803
 21
0.857400
 31
0.000000
  0
LINE
  8
Layer 1
 62
     7
  6
CONTINUOUS
 10
2.687803
 20
0.857400
 30
0.000000
 11
2.637424
 21
0.961089
 31
0.000000
  0
LINE
  8
Layer 1
 62
     7
  6
CONTINUOUS
 10
2.637424
 20
0.961089
 30
0.000000
 11
2.595025
 21
1.070853
 31
0.000000
  0
LINE
  8
Layer 1
 62
     7
  6
CONTINUOUS
 10
2.595025
 20
1.070853
 30
0.000000
 11
2.561367
 21
1.184942
 31
0.000000
  0
LINE
  8
Layer 1
 62
     7
  6
CONTINUOUS
 10
2.561367
 20
1.184942
 30
0.000000
 11
2.527852
 21
1.314848
 31
0.000000
  0
LINE
  8
Layer 1
 62
     7
  6
CONTINUOUS
 10
2.527852
 20
1.314848
 30
0.000000
 11
2.521471
 21
1.333278
 31
0.000000
  0
LINE
  8
Layer 1
 62
     7
  6
CONTINUOUS
 10
2.521471
 20
1.333278
 30
0.000000
 11
2.517885
 21
1.334907
 31
0.000000
  0
LINE
  8
Layer 1
 62
     7
  6
CONTINUOUS
 10
2.517885
 20
1.334907
 30
0.000000
 11
2.485207
 21
1.217636
 31
0.000000
  0
LINE
  8
Layer 1
 62
     7
  6
CONTINUOUS
 10
2.485207
 20
1.217636
 30
0.000000
 11
2.447517
 21
1.087042
 31
0.000000
  0
LINE
  8
Layer 1
 62
     7
  6
CONTINUOUS
 10
2.447517
 20
1.087042
 30
0.000000
 11
2.403355
 21
0.968812
 31
0.000000
  0
LINE
  8
Layer 1
 62
     7
  6
CONTINUOUS
 10
2.403355
 20
0.968812
 30
0.000000
 11
2.351883
 21
0.860969
 31
0.000000
  0
LINE
  8
Layer 1
 62
     7
  6
CONTINUOUS
 10
2.351883
 20
0.860969
 30
0.000000
 11
2.292265
 21
0.761533
 31
0.000000
  0
LINE
  8
Layer 1
 62
     7
  6
CONTINUOUS
 10
2.292265
 20
0.761533
 30
0.000000
 11
2.199463
 21
0.639125
 31
0.000000
  0
LINE
  8
Layer 1
 62
     7
  6
CONTINUOUS
 10
1.617133
 20
0.568383
 30
0.000000
 11
1.732103
 21
0.638859
 31
0.000000
  0
LINE
  8
Layer 1
 62
     7
  6
CONTINUOUS
 10
1.732103
 20
0.638859
 30
0.000000
 11
1.833191
 21
0.712087
 31
0.000000
  0
LINE
  8
Layer 1
 62
     7
  6
CONTINUOUS
 10
1.833191
 20
0.712087
 30
0.000000
 11
1.916208
 21
0.784748
 31
0.000000
  0
LINE
  8
Layer 1
 62
     7
  6
CONTINUOUS
 10
1.916208
 20
0.784748
 30
0.000000
 11
1.976967
 21
0.853522
 31
0.000000
  0
LINE
  8
Layer 1
 62
     7
  6
CONTINUOUS
 10
1.976967
 20
0.853522
 30
0.000000
 11
2.007540
 21
0.888333
 31
0.000000
  0
LINE
  8
Layer 1
 62
     7
  6
CONTINUOUS
 10
2.007540
 20
0.888333
 30
0.000000
 11
2.028800
 21
0.828600
 31
0.000000
  0
LINE
  8
Layer 1
 62
     7
  6
CONTINUOUS
 10
2.028800
 20
0.828600
 30
0.000000
 11
2.053397
 21
0.730454
 31
0.000000
  0
LINE
  8
Layer 1
 62
     7
  6
CONTINUOUS
 10
2.053397
 20
0.730454
 30
0.000000
 11
2.054949
 21
0.714921
 31
0.000000
  0
LINE
  8
Layer 1
 62
     7
  6
CONTINUOUS
 10
2.054949
 20
0.714921
 30
0.000000
 11
2.050717
 21
0.702513
 31
0.000000
  0
LINE
  8
Layer 1
 62
     7
  6
CONTINUOUS
 10
2.050717
 20
0.702513
 30
0.000000
 11
2.013475
 21
0.669677
 31
0.000000
  0
LINE
  8
Layer 1
 62
     7
  6
CONTINUOUS
 10
2.013475
 20
0.669677
 30
0.000000
 11
1.926607
 21
0.615572
 31
0.000000
  0
LINE
  8
Layer 1
 62
     7
  6
CONTINUOUS
 10
1.926607
 20
0.615572
 30
0.000000
 11
1.826054
 21
0.572083
 31
0.000000
  0
LINE
  8
Layer 1
 62
     7
  6
CONTINUOUS
 10
1.826054
 20
0.572083
 30
0.000000
 11
1.719068
 21
0.541788
 31
0.000000
  0
LINE
  8
Layer 1
 62
     7
  6
CONTINUOUS
 10
1.719068
 20
0.541788
 30
0.000000
 11
1.612900
 21
0.527263
 31
0.000000
  0
LINE
  8
Layer 1
 62
     7
  6
CONTINUOUS
 10
1.612900
 20
0.527263
 30
0.000000
 11
1.536700
 21
0.523002
 31
0.000000
  0
LINE
  8
Layer 1
 62
     7
  6
CONTINUOUS
 10
1.536700
 20
0.523002
 30
0.000000
 11
1.617133
 21
0.568383
 31
0.000000
  0
LINE
  8
Layer 1
 62
     7
  6
CONTINUOUS
 10
3.166584
 20
0.589038
 30
0.000000
 11
3.091402
 21
0.626225
 31
0.000000
  0
LINE
  8
Layer 1
 62
     7
  6
CONTINUOUS
 10
3.247769
 20
0.559185
 30
0.000000
 11
3.166584
 21
0.589038
 31
0.000000
  0
LINE
  8
Layer 1
 62
     7
  6
CONTINUOUS
 10
3.332758
 20
0.537611
 30
0.000000
 11
3.247769
 21
0.559185
 31
0.000000
  0
LINE
  8
Layer 1
 62
     7
  6
CONTINUOUS
 10
3.445932
 20
0.525262
 30
0.000000
 11
3.332758
 21
0.537611
 31
0.000000
  0
LINE
  8
Layer 1
 62
     7
  6
CONTINUOUS
 10
3.500965
 20
0.524467
 30
0.000000
 11
3.445932
 21
0.525262
 31
0.000000
  0
LINE
  8
Layer 1
 62
     7
  6
CONTINUOUS
 10
3.420532
 20
0.568980
 30
0.000000
 11
3.500965
 21
0.524467
 31
0.000000
  0
LINE
  8
Layer 1
 62
     7
  6
CONTINUOUS
 10
3.307780
 20
0.637765
 30
0.000000
 11
3.420532
 21
0.568980
 31
0.000000
  0
LINE
  8
Layer 1
 62
     7
  6
CONTINUOUS
 10
3.204690
 20
0.712622
 30
0.000000
 11
3.307780
 21
0.637765
 31
0.000000
  0
LINE
  8
Layer 1
 62
     7
  6
CONTINUOUS
 10
3.119733
 20
0.786834
 30
0.000000
 11
3.204690
 21
0.712622
 31
0.000000
  0
LINE
  8
Layer 1
 62
     7
  6
CONTINUOUS
 10
3.061379
 20
0.853687
 30
0.000000
 11
3.119733
 21
0.786834
 31
0.000000
  0
LINE
  8
Layer 1
 62
     7
  6
CONTINUOUS
 10
3.031149
 20
0.888533
 30
0.000000
 11
3.061379
 21
0.853687
 31
0.000000
  0
LINE
  8
Layer 1
 62
     7
  6
CONTINUOUS
 10
3.022256
 20
0.871445
 30
0.000000
 11
3.031149
 21
0.888533
 31
0.000000
  0
LINE
  8
Layer 1
 62
     7
  6
CONTINUOUS
 10
3.008589
 20
0.830129
 30
0.000000
 11
3.022256
 21
0.871445
 31
0.000000
  0
LINE
  8
Layer 1
 62
     7
  6
CONTINUOUS
 10
2.984868
 20
0.734511
 30
0.000000
 11
3.008589
 21
0.830129
 31
0.000000
  0
LINE
  8
Layer 1
 62
     7
  6
CONTINUOUS
 10
2.982919
 20
0.716267
 30
0.000000
 11
2.984868
 21
0.734511
 31
0.000000
  0
LINE
  8
Layer 1
 62
     7
  6
CONTINUOUS
 10
2.986694
 20
0.702946
 30
0.000000
 11
2.982919
 21
0.716267
 31
0.000000
  0
LINE
  8
Layer 1
 62
     7
  6
CONTINUOUS
 10
3.024426
 20
0.669804
 30
0.000000
 11
2.986694
 21
0.702946
 31
0.000000
  0
LINE
  8
Layer 1
 62
     7
  6
CONTINUOUS
 10
3.091402
 20
0.626225
 30
0.000000
 11
3.024426
 21
0.669804
 31
0.000000
  0
LINE
  8
Layer 1
 62
     7
  6
CONTINUOUS
 10
0.879064
 20
1.752279
 30
0.000000
 11
0.768188
 21
1.817554
 31
0.000000
  0
LINE
  8
Layer 1
 62
     7
  6
CONTINUOUS
 10
0.768188
 20
1.817554
 30
0.000000
 11
0.668867
 21
1.895101
 31
0.000000
  0
LINE
  8
Layer 1
 62
     7
  6
CONTINUOUS
 10
0.668867
 20
1.895101
 30
0.000000
 11
0.624524
 21
1.927560
 31
0.000000
  0
LINE
  8
Layer 1
 62
     7
  6
CONTINUOUS
 10
0.624524
 20
1.927560
 30
0.000000
 11
0.605957
 21
1.908863
 31
0.000000
  0
LINE
  8
Layer 1
 62
     7
  6
CONTINUOUS
 10
0.605957
 20
1.908863
 30
0.000000
 11
0.574823
 21
1.867144
 31
0.000000
  0
LINE
  8
Layer 1
 62
     7
  6
CONTINUOUS
 10
0.574823
 20
1.867144
 30
0.000000
 11
0.512463
 21
1.768138
 31
0.000000
  0
LINE
  8
Layer 1
 62
     7
  6
CONTINUOUS
 10
0.512463
 20
1.768138
 30
0.000000
 11
0.482575
 21
1.701529
 31
0.000000
  0
LINE
  8
Layer 1
 62
     7
  6
CONTINUOUS
 10
0.482575
 20
1.701529
 30
0.000000
 11
0.452197
 21
1.619971
 31
0.000000
  0
LINE
  8
Layer 1
 62
     7
  6
CONTINUOUS
 10
0.452197
 20
1.619971
 30
0.000000
 11
0.422916
 21
1.535980
 31
0.000000
  0
LINE
  8
Layer 1
 62
     7
  6
CONTINUOUS
 10
0.422916
 20
1.535980
 30
0.000000
 11
0.416718
 21
1.522922
 31
0.000000
  0
LINE
  8
Layer 1
 62
     7
  6
CONTINUOUS
 10
0.416718
 20
1.522922
 30
0.000000
 11
0.414867
 21
1.525922
 31
0.000000
  0
LINE
  8
Layer 1
 62
     7
  6
CONTINUOUS
 10
0.414867
 20
1.525922
 30
0.000000
 11
0.427830
 21
1.631050
 31
0.000000
  0
LINE
  8
Layer 1
 62
     7
  6
CONTINUOUS
 10
0.427830
 20
1.631050
 30
0.000000
 11
0.442313
 21
1.721640
 31
0.000000
  0
LINE
  8
Layer 1
 62
     7
  6
CONTINUOUS
 10
0.442313
 20
1.721640
 30
0.000000
 11
0.461295
 21
1.806308
 31
0.000000
  0
LINE
  8
Layer 1
 62
     7
  6
CONTINUOUS
 10
0.461295
 20
1.806308
 30
0.000000
 11
0.484201
 21
1.882837
 31
0.000000
  0
LINE
  8
Layer 1
 62
     7
  6
CONTINUOUS
 10
0.484201
 20
1.882837
 30
0.000000
 11
0.510454
 21
1.949009
 31
0.000000
  0
LINE
  8
Layer 1
 62
     7
  6
CONTINUOUS
 10
0.510454
 20
1.949009
 30
0.000000
 11
0.538695
 21
2.010367
 31
0.000000
  0
LINE
  8
Layer 1
 62
     7
  6
CONTINUOUS
 10
0.538695
 20
2.010367
 30
0.000000
 11
0.507034
 21
2.078100
 31
0.000000
  0
LINE
  8
Layer 1
 62
     7
  6
CONTINUOUS
 10
0.507034
 20
2.078100
 30
0.000000
 11
0.460588
 21
2.190729
 31
0.000000
  0
LINE
  8
Layer 1
 62
     7
  6
CONTINUOUS
 10
0.460588
 20
2.190729
 30
0.000000
 11
0.429409
 21
2.299839
 31
0.000000
  0
LINE
  8
Layer 1
 62
     7
  6
CONTINUOUS
 10
0.429409
 20
2.299839
 30
0.000000
 11
0.411883
 21
2.412780
 31
0.000000
  0
LINE
  8
Layer 1
 62
     7
  6
CONTINUOUS
 10
0.411883
 20
2.412780
 30
0.000000
 11
0.406400
 21
2.536904
 31
0.000000
  0
LINE
  8
Layer 1
 62
     7
  6
CONTINUOUS
 10
0.406400
 20
2.536904
 30
0.000000
 11
0.409036
 21
2.623183
 31
0.000000
  0
LINE
  8
Layer 1
 62
     7
  6
CONTINUOUS
 10
0.409036
 20
2.623183
 30
0.000000
 11
0.417136
 21
2.708821
 31
0.000000
  0
LINE
  8
Layer 1
 62
     7
  6
CONTINUOUS
 10
0.417136
 20
2.708821
 30
0.000000
 11
0.430984
 21
2.794922
 31
0.000000
  0
LINE
  8
Layer 1
 62
     7
  6
CONTINUOUS
 10
0.430984
 20
2.794922
 30
0.000000
 11
0.450867
 21
2.882587
 31
0.000000
  0
LINE
  8
Layer 1
 62
     7
  6
CONTINUOUS
 10
0.450867
 20
2.882587
 30
0.000000
 11
0.477068
 21
2.972919
 31
0.000000
  0
LINE
  8
Layer 1
 62
     7
  6
CONTINUOUS
 10
0.477068
 20
2.972919
 30
0.000000
 11
0.509874
 21
3.067020
 31
0.000000
  0
LINE
  8
Layer 1
 62
     7
  6
CONTINUOUS
 10
0.509874
 20
3.067020
 30
0.000000
 11
0.596443
 21
3.270936
 31
0.000000
  0
LINE
  8
Layer 1
 62
     7
  6
CONTINUOUS
 10
0.596443
 20
3.270936
 30
0.000000
 11
0.625197
 21
3.328893
 31
0.000000
  0
LINE
  8
Layer 1
 62
     7
  6
CONTINUOUS
 10
0.625197
 20
3.328893
 30
0.000000
 11
0.639463
 21
3.350693
 31
0.000000
  0
LINE
  8
Layer 1
 62
     7
  6
CONTINUOUS
 10
0.639463
 20
3.350693
 30
0.000000
 11
0.631158
 21
3.305090
 31
0.000000
  0
LINE
  8
Layer 1
 62
     7
  6
CONTINUOUS
 10
0.631158
 20
3.305090
 30
0.000000
 11
0.605290
 21
3.206370
 31
0.000000
  0
LINE
  8
Layer 1
 62
     7
  6
CONTINUOUS
 10
0.605290
 20
3.206370
 30
0.000000
 11
0.585190
 21
3.106426
 31
0.000000
  0
LINE
  8
Layer 1
 62
     7
  6
CONTINUOUS
 10
0.585190
 20
3.106426
 30
0.000000
 11
0.570928
 21
3.006529
 31
0.000000
  0
LINE
  8
Layer 1
 62
     7
  6
CONTINUOUS
 10
0.570928
 20
3.006529
 30
0.000000
 11
0.562575
 21
2.907949
 31
0.000000
  0
LINE
  8
Layer 1
 62
     7
  6
CONTINUOUS
 10
0.562575
 20
2.907949
 30
0.000000
 11
0.560201
 21
2.811959
 31
0.000000
  0
LINE
  8
Layer 1
 62
     7
  6
CONTINUOUS
 10
0.560201
 20
2.811959
 30
0.000000
 11
0.563875
 21
2.719829
 31
0.000000
  0
LINE
  8
Layer 1
 62
     7
  6
CONTINUOUS
 10
0.563875
 20
2.719829
 30
0.000000
 11
0.573668
 21
2.632830
 31
0.000000
  0
LINE
  8
Layer 1
 62
     7
  6
CONTINUOUS
 10
0.573668
 20
2.632830
 30
0.000000
 11
0.589649
 21
2.552233
 31
0.000000
  0
LINE
  8
Layer 1
 62
     7
  6
CONTINUOUS
 10
0.589649
 20
2.552233
 30
0.000000
 11
0.626784
 21
2.448404
 31
0.000000
  0
LINE
  8
Layer 1
 62
     7
  6
CONTINUOUS
 10
0.626784
 20
2.448404
 30
0.000000
 11
0.647605
 21
2.404951
 31
0.000000
  0
LINE
  8
Layer 1
 62
     7
  6
CONTINUOUS
 10
0.647605
 20
2.404951
 30
0.000000
 11
0.661255
 21
2.387133
 31
0.000000
  0
LINE
  8
Layer 1
 62
     7
  6
CONTINUOUS
 10
0.661255
 20
2.387133
 30
0.000000
 11
0.670872
 21
2.398470
 31
0.000000
  0
LINE
  8
Layer 1
 62
     7
  6
CONTINUOUS
 10
0.670872
 20
2.398470
 30
0.000000
 11
0.679706
 21
2.429887
 31
0.000000
  0
LINE
  8
Layer 1
 62
     7
  6
CONTINUOUS
 10
0.679706
 20
2.429887
 30
0.000000
 11
0.691864
 21
2.537417
 31
0.000000
  0
LINE
  8
Layer 1
 62
     7
  6
CONTINUOUS
 10
0.691864
 20
2.537417
 30
0.000000
 11
0.699271
 21
2.624200
 31
0.000000
  0
LINE
  8
Layer 1
 62
     7
  6
CONTINUOUS
 10
0.699271
 20
2.624200
 30
0.000000
 11
0.742611
 21
2.580780
 31
0.000000
  0
LINE
  8
Layer 1
 62
     7
  6
CONTINUOUS
 10
0.742611
 20
2.580780
 30
0.000000
 11
0.788408
 21
2.536067
 31
0.000000
  0
LINE
  8
Layer 1
 62
     7
  6
CONTINUOUS
 10
0.788408
 20
2.536067
 30
0.000000
 11
0.842203
 21
2.493162
 31
0.000000
  0
LINE
  8
Layer 1
 62
     7
  6
CONTINUOUS
 10
0.842203
 20
2.493162
 30
0.000000
 11
0.911543
 21
2.446579
 31
0.000000
  0
LINE
  8
Layer 1
 62
     7
  6
CONTINUOUS
 10
0.911543
 20
2.446579
 30
0.000000
 11
1.003973
 21
2.390835
 31
0.000000
  0
LINE
  8
Layer 1
 62
     7
  6
CONTINUOUS
 10
1.003973
 20
2.390835
 30
0.000000
 11
1.183622
 21
2.280152
 31
0.000000
  0
LINE
  8
Layer 1
 62
     7
  6
CONTINUOUS
 10
1.183622
 20
2.280152
 30
0.000000
 11
1.238958
 21
2.243200
 31
0.000000
  0
LINE
  8
Layer 1
 62
     7
  6
CONTINUOUS
 10
1.238958
 20
2.243200
 30
0.000000
 11
1.240669
 21
2.359617
 31
0.000000
  0
LINE
  8
Layer 1
 62
     7
  6
CONTINUOUS
 10
1.240669
 20
2.359617
 30
0.000000
 11
1.246334
 21
2.504958
 31
0.000000
  0
LINE
  8
Layer 1
 62
     7
  6
CONTINUOUS
 10
1.246334
 20
2.504958
 30
0.000000
 11
1.252795
 21
2.543511
 31
0.000000
  0
LINE
  8
Layer 1
 62
     7
  6
CONTINUOUS
 10
1.252795
 20
2.543511
 30
0.000000
 11
1.256650
 21
2.551574
 31
0.000000
  0
LINE
  8
Layer 1
 62
     7
  6
CONTINUOUS
 10
1.256650
 20
2.551574
 30
0.000000
 11
1.260815
 21
2.551138
 31
0.000000
  0
LINE
  8
Layer 1
 62
     7
  6
CONTINUOUS
 10
1.260815
 20
2.551138
 30
0.000000
 11
1.281869
 21
2.473233
 31
0.000000
  0
LINE
  8
Layer 1
 62
     7
  6
CONTINUOUS
 10
1.281869
 20
2.473233
 30
0.000000
 11
1.318302
 21
2.339693
 31
0.000000
  0
LINE
  8
Layer 1
 62
     7
  6
CONTINUOUS
 10
1.318302
 20
2.339693
 30
0.000000
 11
1.371493
 21
2.200677
 31
0.000000
  0
LINE
  8
Layer 1
 62
     7
  6
CONTINUOUS
 10
1.371493
 20
2.200677
 30
0.000000
 11
1.436355
 21
2.067894
 31
0.000000
  0
LINE
  8
Layer 1
 62
     7
  6
CONTINUOUS
 10
1.436355
 20
2.067894
 30
0.000000
 11
1.507804
 21
1.953051
 31
0.000000
  0
LINE
  8
Layer 1
 62
     7
  6
CONTINUOUS
 10
1.507804
 20
1.953051
 30
0.000000
 11
1.557795
 21
1.873675
 31
0.000000
  0
LINE
  8
Layer 1
 62
     7
  6
CONTINUOUS
 10
1.557795
 20
1.873675
 30
0.000000
 11
1.539231
 21
1.803424
 31
0.000000
  0
LINE
  8
Layer 1
 62
     7
  6
CONTINUOUS
 10
1.539231
 20
1.803424
 30
0.000000
 11
1.514171
 21
1.739433
 31
0.000000
  0
LINE
  8
Layer 1
 62
     7
  6
CONTINUOUS
 10
1.514171
 20
1.739433
 30
0.000000
 11
1.505307
 21
1.736742
 31
0.000000
  0
LINE
  8
Layer 1
 62
     7
  6
CONTINUOUS
 10
1.505307
 20
1.736742
 30
0.000000
 11
1.495221
 21
1.745454
 31
0.000000
  0
LINE
  8
Layer 1
 62
     7
  6
CONTINUOUS
 10
1.495221
 20
1.745454
 30
0.000000
 11
1.417367
 21
1.830968
 31
0.000000
  0
LINE
  8
Layer 1
 62
     7
  6
CONTINUOUS
 10
1.417367
 20
1.830968
 30
0.000000
 11
1.304306
 21
1.941696
 31
0.000000
  0
LINE
  8
Layer 1
 62
     7
  6
CONTINUOUS
 10
1.304306
 20
1.941696
 30
0.000000
 11
1.196789
 21
2.033496
 31
0.000000
  0
LINE
  8
Layer 1
 62
     7
  6
CONTINUOUS
 10
1.196789
 20
2.033496
 30
0.000000
 11
1.088348
 21
2.111797
 31
0.000000
  0
LINE
  8
Layer 1
 62
     7
  6
CONTINUOUS
 10
1.088348
 20
2.111797
 30
0.000000
 11
0.981365
 21
2.175031
 31
0.000000
  0
LINE
  8
Layer 1
 62
     7
  6
CONTINUOUS
 10
0.981365
 20
2.175031
 30
0.000000
 11
0.878223
 21
2.221635
 31
0.000000
  0
LINE
  8
Layer 1
 62
     7
  6
CONTINUOUS
 10
0.878223
 20
2.221635
 30
0.000000
 11
0.812607
 21
2.243200
 31
0.000000
  0
LINE
  8
Layer 1
 62
     7
  6
CONTINUOUS
 10
0.812607
 20
2.243200
 30
0.000000
 11
0.808476
 21
2.238152
 31
0.000000
  0
LINE
  8
Layer 1
 62
     7
  6
CONTINUOUS
 10
0.808476
 20
2.238152
 30
0.000000
 11
0.805823
 21
2.224362
 31
0.000000
  0
LINE
  8
Layer 1
 62
     7
  6
CONTINUOUS
 10
0.805823
 20
2.224362
 30
0.000000
 11
0.804714
 21
2.178663
 31
0.000000
  0
LINE
  8
Layer 1
 62
     7
  6
CONTINUOUS
 10
0.804714
 20
2.178663
 30
0.000000
 11
0.808806
 21
2.122330
 31
0.000000
  0
LINE
  8
Layer 1
 62
     7
  6
CONTINUOUS
 10
0.808806
 20
2.122330
 30
0.000000
 11
0.817624
 21
2.071589
 31
0.000000
  0
LINE
  8
Layer 1
 62
     7
  6
CONTINUOUS
 10
0.817624
 20
2.071589
 30
0.000000
 11
0.846521
 21
1.990034
 31
0.000000
  0
LINE
  8
Layer 1
 62
     7
  6
CONTINUOUS
 10
0.846521
 20
1.990034
 30
0.000000
 11
0.891273
 21
1.906950
 31
0.000000
  0
LINE
  8
Layer 1
 62
     7
  6
CONTINUOUS
 10
0.891273
 20
1.906950
 30
0.000000
 11
0.951705
 21
1.822617
 31
0.000000
  0
LINE
  8
Layer 1
 62
     7
  6
CONTINUOUS
 10
0.951705
 20
1.822617
 30
0.000000
 11
1.027638
 21
1.737317
 31
0.000000
  0
LINE
  8
Layer 1
 62
     7
  6
CONTINUOUS
 10
1.027638
 20
1.737317
 30
0.000000
 11
1.067335
 21
1.693965
 31
0.000000
  0
LINE
  8
Layer 1
 62
     7
  6
CONTINUOUS
 10
1.067335
 20
1.693965
 30
0.000000
 11
1.078654
 21
1.675933
 31
0.000000
  0
LINE
  8
Layer 1
 62
     7
  6
CONTINUOUS
 10
1.078654
 20
1.675933
 30
0.000000
 11
1.047973
 21
1.683239
 31
0.000000
  0
LINE
  8
Layer 1
 62
     7
  6
CONTINUOUS
 10
1.047973
 20
1.683239
 30
0.000000
 11
0.995648
 21
1.701777
 31
0.000000
  0
LINE
  8
Layer 1
 62
     7
  6
CONTINUOUS
 10
0.995648
 20
1.701777
 30
0.000000
 11
0.879064
 21
1.752279
 31
0.000000
  0
LINE
  8
Layer 1
 62
     7
  6
CONTINUOUS
 10
3.578701
 20
1.786601
 30
0.000000
 11
3.541672
 21
1.750701
 31
0.000000
  0
LINE
  8
Layer 1
 62
     7
  6
CONTINUOUS
 10
3.541672
 20
1.750701
 30
0.000000
 11
3.522343
 21
1.740439
 31
0.000000
  0
LINE
  8
Layer 1
 62
     7
  6
CONTINUOUS
 10
3.522343
 20
1.740439
 30
0.000000
 11
3.498196
 21
1.804114
 31
0.000000
  0
LINE
  8
Layer 1
 62
     7
  6
CONTINUOUS
 10
3.498196
 20
1.804114
 30
0.000000
 11
3.479800
 21
1.873704
 31
0.000000
  0
LINE
  8
Layer 1
 62
     7
  6
CONTINUOUS
 10
3.479800
 20
1.873704
 30
0.000000
 11
3.530548
 21
1.954559
 31
0.000000
  0
LINE
  8
Layer 1
 62
     7
  6
CONTINUOUS
 10
3.530548
 20
1.954559
 30
0.000000
 11
3.599739
 21
2.064306
 31
0.000000
  0
LINE
  8
Layer 1
 62
     7
  6
CONTINUOUS
 10
3.599739
 20
2.064306
 30
0.000000
 11
3.660602
 21
2.186893
 31
0.000000
  0
LINE
  8
Layer 1
 62
     7
  6
CONTINUOUS
 10
3.660602
 20
2.186893
 30
0.000000
 11
3.711411
 21
2.318390
 31
0.000000
  0
LINE
  8
Layer 1
 62
     7
  6
CONTINUOUS
 10
3.711411
 20
2.318390
 30
0.000000
 11
3.750438
 21
2.454867
 31
0.000000
  0
LINE
  8
Layer 1
 62
     7
  6
CONTINUOUS
 10
3.750438
 20
2.454867
 30
0.000000
 11
3.774463
 21
2.548086
 31
0.000000
  0
LINE
  8
Layer 1
 62
     7
  6
CONTINUOUS
 10
3.774463
 20
2.548086
 30
0.000000
 11
3.780343
 21
2.552423
 31
0.000000
  0
LINE
  8
Layer 1
 62
     7
  6
CONTINUOUS
 10
3.780343
 20
2.552423
 30
0.000000
 11
3.786848
 21
2.539533
 31
0.000000
  0
LINE
  8
Layer 1
 62
     7
  6
CONTINUOUS
 10
3.786848
 20
2.539533
 30
0.000000
 11
3.793450
 21
2.484492
 31
0.000000
  0
LINE
  8
Layer 1
 62
     7
  6
CONTINUOUS
 10
3.793450
 20
2.484492
 30
0.000000
 11
3.796583
 21
2.380789
 31
0.000000
  0
LINE
  8
Layer 1
 62
     7
  6
CONTINUOUS
 10
3.796583
 20
2.380789
 30
0.000000
 11
3.799011
 21
2.243205
 31
0.000000
  0
LINE
  8
Layer 1
 62
     7
  6
CONTINUOUS
 10
3.799011
 20
2.243205
 30
0.000000
 11
3.854469
 21
2.280772
 31
0.000000
  0
LINE
  8
Layer 1
 62
     7
  6
CONTINUOUS
 10
3.854469
 20
2.280772
 30
0.000000
 11
4.022091
 21
2.383513
 31
0.000000
  0
LINE
  8
Layer 1
 62
     7
  6
CONTINUOUS
 10
4.022091
 20
2.383513
 30
0.000000
 11
4.110912
 21
2.435699
 31
0.000000
  0
LINE
  8
Layer 1
 62
     7
  6
CONTINUOUS
 10
4.110912
 20
2.435699
 30
0.000000
 11
4.175289
 21
2.477752
 31
0.000000
  0
LINE
  8
Layer 1
 62
     7
  6
CONTINUOUS
 10
4.175289
 20
2.477752
 30
0.000000
 11
4.227743
 21
2.518548
 31
0.000000
  0
LINE
  8
Layer 1
 62
     7
  6
CONTINUOUS
 10
4.227743
 20
2.518548
 30
0.000000
 11
4.280789
 21
2.566963
 31
0.000000
  0
LINE
  8
Layer 1
 62
     7
  6
CONTINUOUS
 10
4.280789
 20
2.566963
 30
0.000000
 11
4.340944
 21
2.624680
 31
0.000000
  0
LINE
  8
Layer 1
 62
     7
  6
CONTINUOUS
 10
4.340944
 20
2.624680
 30
0.000000
 11
4.345924
 21
2.537657
 31
0.000000
  0
LINE
  8
Layer 1
 62
     7
  6
CONTINUOUS
 10
4.345924
 20
2.537657
 30
0.000000
 11
4.358282
 21
2.429624
 31
0.000000
  0
LINE
  8
Layer 1
 62
     7
  6
CONTINUOUS
 10
4.358282
 20
2.429624
 30
0.000000
 11
4.366994
 21
2.398364
 31
0.000000
  0
LINE
  8
Layer 1
 62
     7
  6
CONTINUOUS
 10
4.366994
 20
2.398364
 30
0.000000
 11
4.376411
 21
2.387133
 31
0.000000
  0
LINE
  8
Layer 1
 62
     7
  6
CONTINUOUS
 10
4.376411
 20
2.387133
 30
0.000000
 11
4.390012
 21
2.404905
 31
0.000000
  0
LINE
  8
Layer 1
 62
     7
  6
CONTINUOUS
 10
4.390012
 20
2.404905
 30
0.000000
 11
4.410834
 21
2.448281
 31
0.000000
  0
LINE
  8
Layer 1
 62
     7
  6
CONTINUOUS
 10
4.410834
 20
2.448281
 30
0.000000
 11
4.448212
 21
2.552233
 31
0.000000
  0
LINE
  8
Layer 1
 62
     7
  6
CONTINUOUS
 10
4.448212
 20
2.552233
 30
0.000000
 11
4.463554
 21
2.627080
 31
0.000000
  0
LINE
  8
Layer 1
 62
     7
  6
CONTINUOUS
 10
4.463554
 20
2.627080
 30
0.000000
 11
4.473302
 21
2.707203
 31
0.000000
  0
LINE
  8
Layer 1
 62
     7
  6
CONTINUOUS
 10
4.473302
 20
2.707203
 30
0.000000
 11
4.477480
 21
2.792043
 31
0.000000
  0
LINE
  8
Layer 1
 62
     7
  6
CONTINUOUS
 10
4.477480
 20
2.792043
 30
0.000000
 11
4.476114
 21
2.881039
 31
0.000000
  0
LINE
  8
Layer 1
 62
     7
  6
CONTINUOUS
 10
4.476114
 20
2.881039
 30
0.000000
 11
4.469229
 21
2.973631
 31
0.000000
  0
LINE
  8
Layer 1
 62
     7
  6
CONTINUOUS
 10
4.469229
 20
2.973631
 30
0.000000
 11
4.456852
 21
3.069260
 31
0.000000
  0
LINE
  8
Layer 1
 62
     7
  6
CONTINUOUS
 10
4.456852
 20
3.069260
 30
0.000000
 11
4.439007
 21
3.167364
 31
0.000000
  0
LINE
  8
Layer 1
 62
     7
  6
CONTINUOUS
 10
4.439007
 20
3.167364
 30
0.000000
 11
4.415720
 21
3.267384
 31
0.000000
  0
LINE
  8
Layer 1
 62
     7
  6
CONTINUOUS
 10
4.415720
 20
3.267384
 30
0.000000
 11
4.398598
 21
3.351087
 31
0.000000
  0
LINE
  8
Layer 1
 62
     7
  6
CONTINUOUS
 10
4.398598
 20
3.351087
 30
0.000000
 11
4.412526
 21
3.329366
 31
0.000000
  0
LINE
  8
Layer 1
 62
     7
  6
CONTINUOUS
 10
4.412526
 20
3.329366
 30
0.000000
 11
4.441780
 21
3.269354
 31
0.000000
  0
LINE
  8
Layer 1
 62
     7
  6
CONTINUOUS
 10
4.441780
 20
3.269354
 30
0.000000
 11
4.512525
 21
3.106800
 31
0.000000
  0
LINE
  8
Layer 1
 62
     7
  6
CONTINUOUS
 10
4.512525
 20
3.106800
 30
0.000000
 11
4.563329
 21
2.967363
 31
0.000000
  0
LINE
  8
Layer 1
 62
     7
  6
CONTINUOUS
 10
4.563329
 20
2.967363
 30
0.000000
 11
4.598166
 21
2.839322
 31
0.000000
  0
LINE
  8
Layer 1
 62
     7
  6
CONTINUOUS
 10
4.598166
 20
2.839322
 30
0.000000
 11
4.619220
 21
2.712728
 31
0.000000
  0
LINE
  8
Layer 1
 62
     7
  6
CONTINUOUS
 10
4.619220
 20
2.712728
 30
0.000000
 11
4.628676
 21
2.577633
 31
0.000000
  0
LINE
  8
Layer 1
 62
     7
  6
CONTINUOUS
 10
4.628676
 20
2.577633
 30
0.000000
 11
4.627385
 21
2.436824
 31
0.000000
  0
LINE
  8
Layer 1
 62
     7
  6
CONTINUOUS
 10
4.627385
 20
2.436824
 30
0.000000
 11
4.612308
 21
2.315262
 31
0.000000
  0
LINE
  8
Layer 1
 62
     7
  6
CONTINUOUS
 10
4.612308
 20
2.315262
 30
0.000000
 11
4.580905
 21
2.200002
 31
0.000000
  0
LINE
  8
Layer 1
 62
     7
  6
CONTINUOUS
 10
4.580905
 20
2.200002
 30
0.000000
 11
4.530633
 21
2.078100
 31
0.000000
  0
LINE
  8
Layer 1
 62
     7
  6
CONTINUOUS
 10
4.530633
 20
2.078100
 30
0.000000
 11
4.498971
 21
2.010367
 31
0.000000
  0
LINE
  8
Layer 1
 62
     7
  6
CONTINUOUS
 10
4.498971
 20
2.010367
 30
0.000000
 11
4.527213
 21
1.949009
 31
0.000000
  0
LINE
  8
Layer 1
 62
     7
  6
CONTINUOUS
 10
4.527213
 20
1.949009
 30
0.000000
 11
4.553242
 21
1.882662
 31
0.000000
  0
LINE
  8
Layer 1
 62
     7
  6
CONTINUOUS
 10
4.553242
 20
1.882662
 30
0.000000
 11
4.576164
 21
1.809309
 31
0.000000
  0
LINE
  8
Layer 1
 62
     7
  6
CONTINUOUS
 10
4.576164
 20
1.809309
 30
0.000000
 11
4.607937
 21
1.642688
 31
0.000000
  0
LINE
  8
Layer 1
 62
     7
  6
CONTINUOUS
 10
4.607937
 20
1.642688
 30
0.000000
 11
4.618685
 21
1.562991
 31
0.000000
  0
LINE
  8
Layer 1
 62
     7
  6
CONTINUOUS
 10
4.618685
 20
1.562991
 30
0.000000
 11
4.619776
 21
1.526154
 31
0.000000
  0
LINE
  8
Layer 1
 62
     7
  6
CONTINUOUS
 10
4.619776
 20
1.526154
 30
0.000000
 11
4.593430
 21
1.597302
 31
0.000000
  0
LINE
  8
Layer 1
 62
     7
  6
CONTINUOUS
 10
4.593430
 20
1.597302
 30
0.000000
 11
4.562188
 21
1.685466
 31
0.000000
  0
LINE
  8
Layer 1
 62
     7
  6
CONTINUOUS
 10
4.562188
 20
1.685466
 30
0.000000
 11
4.525308
 21
1.765668
 31
0.000000
  0
LINE
  8
Layer 1
 62
     7
  6
CONTINUOUS
 10
4.525308
 20
1.765668
 30
0.000000
 11
4.481438
 21
1.840502
 31
0.000000
  0
LINE
  8
Layer 1
 62
     7
  6
CONTINUOUS
 10
4.481438
 20
1.840502
 30
0.000000
 11
4.429225
 21
1.912567
 31
0.000000
  0
LINE
  8
Layer 1
 62
     7
  6
CONTINUOUS
 10
4.429225
 20
1.912567
 30
0.000000
 11
4.412754
 21
1.933300
 31
0.000000
  0
LINE
  8
Layer 1
 62
     7
  6
CONTINUOUS
 10
4.412754
 20
1.933300
 30
0.000000
 11
4.354794
 21
1.883694
 31
0.000000
  0
LINE
  8
Layer 1
 62
     7
  6
CONTINUOUS
 10
4.354794
 20
1.883694
 30
0.000000
 11
4.259173
 21
1.810556
 31
0.000000
  0
LINE
  8
Layer 1
 62
     7
  6
CONTINUOUS
 10
4.259173
 20
1.810556
 30
0.000000
 11
4.152900
 21
1.750099
 31
0.000000
  0
LINE
  8
Layer 1
 62
     7
  6
CONTINUOUS
 10
4.152900
 20
1.750099
 30
0.000000
 11
4.041393
 21
1.701984
 31
0.000000
  0
LINE
  8
Layer 1
 62
     7
  6
CONTINUOUS
 10
4.041393
 20
1.701984
 30
0.000000
 11
3.960772
 21
1.675933
 31
0.000000
  0
LINE
  8
Layer 1
 62
     7
  6
CONTINUOUS
 10
3.960772
 20
1.675933
 30
0.000000
 11
3.972904
 21
1.695348
 31
0.000000
  0
LINE
  8
Layer 1
 62
     7
  6
CONTINUOUS
 10
3.972904
 20
1.695348
 30
0.000000
 11
4.014830
 21
1.742025
 31
0.000000
  0
LINE
  8
Layer 1
 62
     7
  6
CONTINUOUS
 10
4.014830
 20
1.742025
 30
0.000000
 11
4.090032
 21
1.827727
 31
0.000000
  0
LINE
  8
Layer 1
 62
     7
  6
CONTINUOUS
 10
4.090032
 20
1.827727
 30
0.000000
 11
4.148863
 21
1.910518
 31
0.000000
  0
LINE
  8
Layer 1
 62
     7
  6
CONTINUOUS
 10
4.148863
 20
1.910518
 30
0.000000
 11
4.191981
 21
1.991454
 31
0.000000
  0
LINE
  8
Layer 1
 62
     7
  6
CONTINUOUS
 10
4.191981
 20
1.991454
 30
0.000000
 11
4.220043
 21
2.071589
 31
0.000000
  0
LINE
  8
Layer 1
 62
     7
  6
CONTINUOUS
 10
4.220043
 20
2.071589
 30
0.000000
 11
4.228629
 21
2.121264
 31
0.000000
  0
LINE
  8
Layer 1
 62
     7
  6
CONTINUOUS
 10
4.228629
 20
2.121264
 30
0.000000
 11
4.232921
 21
2.177716
 31
0.000000
  0
LINE
  8
Layer 1
 62
     7
  6
CONTINUOUS
 10
4.232921
 20
2.177716
 30
0.000000
 11
4.232311
 21
2.224006
 31
0.000000
  0
LINE
  8
Layer 1
 62
     7
  6
CONTINUOUS
 10
4.232311
 20
2.224006
 30
0.000000
 11
4.226192
 21
2.243200
 31
0.000000
  0
LINE
  8
Layer 1
 62
     7
  6
CONTINUOUS
 10
4.226192
 20
2.243200
 30
0.000000
 11
4.160857
 21
2.222564
 31
0.000000
  0
LINE
  8
Layer 1
 62
     7
  6
CONTINUOUS
 10
4.160857
 20
2.222564
 30
0.000000
 11
4.064272
 21
2.179843
 31
0.000000
  0
LINE
  8
Layer 1
 62
     7
  6
CONTINUOUS
 10
4.064272
 20
2.179843
 30
0.000000
 11
3.947389
 21
2.111605
 31
0.000000
  0
LINE
  8
Layer 1
 62
     7
  6
CONTINUOUS
 10
3.947389
 20
2.111605
 30
0.000000
 11
3.827177
 21
2.023057
 31
0.000000
  0
LINE
  8
Layer 1
 62
     7
  6
CONTINUOUS
 10
3.827177
 20
2.023057
 30
0.000000
 11
3.704120
 21
1.914592
 31
0.000000
  0
LINE
  8
Layer 1
 62
     7
  6
CONTINUOUS
 10
3.704120
 20
1.914592
 30
0.000000
 11
3.578701
 21
1.786601
 31
0.000000
  0
LINE
  8
Layer 1
 62
     7
  6
CONTINUOUS
 10
1.132048
 20
1.915196
 30
0.000000
 11
1.051004
 21
2.043717
 31
0.000000
  0
LINE
  8
Layer 1
 62
     7
  6
CONTINUOUS
 10
1.051004
 20
2.043717
 30
0.000000
 11
1.031155
 21
2.081697
 31
0.000000
  0
LINE
  8
Layer 1
 62
     7
  6
CONTINUOUS
 10
1.031155
 20
2.081697
 30
0.000000
 11
1.026204
 21
2.100208
 31
0.000000
  0
LINE
  8
Layer 1
 62
     7
  6
CONTINUOUS
 10
1.026204
 20
2.100208
 30
0.000000
 11
1.046711
 21
2.091972
 31
0.000000
  0
LINE
  8
Layer 1
 62
     7
  6
CONTINUOUS
 10
1.046711
 20
2.091972
 30
0.000000
 11
1.093391
 21
2.063934
 31
0.000000
  0
LINE
  8
Layer 1
 62
     7
  6
CONTINUOUS
 10
1.093391
 20
2.063934
 30
0.000000
 11
1.197351
 21
1.991568
 31
0.000000
  0
LINE
  8
Layer 1
 62
     7
  6
CONTINUOUS
 10
1.197351
 20
1.991568
 30
0.000000
 11
1.221283
 21
1.960796
 31
0.000000
  0
LINE
  8
Layer 1
 62
     7
  6
CONTINUOUS
 10
1.221283
 20
1.960796
 30
0.000000
 11
1.245909
 21
1.911135
 31
0.000000
  0
LINE
  8
Layer 1
 62
     7
  6
CONTINUOUS
 10
1.245909
 20
1.911135
 30
0.000000
 11
1.304568
 21
1.788144
 31
0.000000
  0
LINE
  8
Layer 1
 62
     7
  6
CONTINUOUS
 10
1.304568
 20
1.788144
 30
0.000000
 11
1.377084
 21
1.661117
 31
0.000000
  0
LINE
  8
Layer 1
 62
     7
  6
CONTINUOUS
 10
1.377084
 20
1.661117
 30
0.000000
 11
1.394774
 21
1.629724
 31
0.000000
  0
LINE
  8
Layer 1
 62
     7
  6
CONTINUOUS
 10
1.394774
 20
1.629724
 30
0.000000
 11
1.397744
 21
1.616667
 31
0.000000
  0
LINE
  8
Layer 1
 62
     7
  6
CONTINUOUS
 10
1.397744
 20
1.616667
 30
0.000000
 11
1.292818
 21
1.718346
 31
0.000000
  0
LINE
  8
Layer 1
 62
     7
  6
CONTINUOUS
 10
1.292818
 20
1.718346
 30
0.000000
 11
1.204516
 21
1.818284
 31
0.000000
  0
LINE
  8
Layer 1
 62
     7
  6
CONTINUOUS
 10
1.204516
 20
1.818284
 30
0.000000
 11
1.132048
 21
1.915196
 31
0.000000
  0
LINE
  8
Layer 1
 62
     7
  6
CONTINUOUS
 10
3.843070
 20
1.832530
 30
0.000000
 11
3.758955
 21
1.733913
 31
0.000000
  0
LINE
  8
Layer 1
 62
     7
  6
CONTINUOUS
 10
3.758955
 20
1.733913
 30
0.000000
 11
3.682066
 21
1.651305
 31
0.000000
  0
LINE
  8
Layer 1
 62
     7
  6
CONTINUOUS
 10
3.682066
 20
1.651305
 30
0.000000
 11
3.640796
 21
1.616667
 31
0.000000
  0
LINE
  8
Layer 1
 62
     7
  6
CONTINUOUS
 10
3.640796
 20
1.616667
 30
0.000000
 11
3.651936
 21
1.643275
 31
0.000000
  0
LINE
  8
Layer 1
 62
     7
  6
CONTINUOUS
 10
3.651936
 20
1.643275
 30
0.000000
 11
3.688041
 21
1.707249
 31
0.000000
  0
LINE
  8
Layer 1
 62
     7
  6
CONTINUOUS
 10
3.688041
 20
1.707249
 30
0.000000
 11
3.737482
 21
1.797219
 31
0.000000
  0
LINE
  8
Layer 1
 62
     7
  6
CONTINUOUS
 10
3.737482
 20
1.797219
 30
0.000000
 11
3.780683
 21
1.886330
 31
0.000000
  0
LINE
  8
Layer 1
 62
     7
  6
CONTINUOUS
 10
3.780683
 20
1.886330
 30
0.000000
 11
3.814838
 21
1.955188
 31
0.000000
  0
LINE
  8
Layer 1
 62
     7
  6
CONTINUOUS
 10
3.814838
 20
1.955188
 30
0.000000
 11
3.841624
 21
1.992598
 31
0.000000
  0
LINE
  8
Layer 1
 62
     7
  6
CONTINUOUS
 10
3.841624
 20
1.992598
 30
0.000000
 11
3.940950
 21
2.061872
 31
0.000000
  0
LINE
  8
Layer 1
 62
     7
  6
CONTINUOUS
 10
3.940950
 20
2.061872
 30
0.000000
 11
4.011959
 21
2.103330
 31
0.000000
  0
LINE
  8
Layer 1
 62
     7
  6
CONTINUOUS
 10
4.011959
 20
2.103330
 30
0.000000
 11
4.007445
 21
2.084877
 31
0.000000
  0
LINE
  8
Layer 1
 62
     7
  6
CONTINUOUS
 10
4.007445
 20
2.084877
 30
0.000000
 11
3.986080
 21
2.043459
 31
0.000000
  0
LINE
  8
Layer 1
 62
     7
  6
CONTINUOUS
 10
3.986080
 20
2.043459
 30
0.000000
 11
3.906016
 21
1.915196
 31
0.000000
  0
LINE
  8
Layer 1
 62
     7
  6
CONTINUOUS
 10
3.906016
 20
1.915196
 30
0.000000
 11
3.843070
 21
1.832530
 31
0.000000
  0
ENDSEC
  0
EOF
