  0
SECTION
  2
HEADER
  9
$ACADVER
  1
AC1006
  0
ENDSEC
  0
SECTION
  2
TABLES
  0
TABLE
  2
LTYPE
 70
    25
  0
LTYPE
  2
CONTINUOUS
 70
    64
  3
Solid line
 72
    64
 73
     0
 40
0.000000
  0
LTYPE
  2
DASHDOT
 70
    64
  3
__ . __ . __ . __ . __ . __ . __ . __ . __ . __
 72
    65
 73
     4
 40
1.000000
 49
0.500000
 49
-0.250000
 49
0.000000
 49
-0.250000
  0
LTYPE
  2
DASHED
 70
    64
  3
__ __ __ __ __ __ __ __ __ __ __ __ __ __ __ __
 72
    65
 73
     2
 40
0.750000
 49
0.500000
 49
-0.250000
  0
LTYPE
  2
DIVIDE
 70
    64
  3
____ . . ____ . . ____ . . ____ . . ____ . . __
 72
    65
 73
     6
 40
1.250000
 49
0.500000
 49
-0.250000
 49
0.000000
 49
-0.250000
 49
0.000000
 49
-0.250000
  0
LTYPE
  2
DOT
 70
    64
  3
. . . . . . . . . . . . . . . . . . . . . . . . 
 72
    65
 73
     2
 40
0.250000
 49
0.000000
 49
-0.250000
  0
ENDTAB
  0
ENDSEC
  0
SECTION
  2
ENTITIES
  0
ARC
  8
Default
 62
     5
  6
CONTINUOUS
 10
4.184529
 20
0.949363
 30
0.000000
 40
0.552323
 50
217.831078
 51
251.315790
  0
LINE
  8
Default
 62
     5
  6
CONTINUOUS
 10
3.748291
 20
0.610603
 30
0.000000
 11
3.717142
 21
0.676998
 31
0.000000
  0
ARC
  8
Default
 62
     5
  6
CONTINUOUS
 10
3.642578
 20
0.684139
 30
0.000000
 40
0.074906
 50
354.529442
 51
416.626331
  0
LINE
  8
Default
 62
     5
  6
CONTINUOUS
 10
3.683783
 20
0.746693
 30
0.000000
 11
3.578762
 21
0.794589
 31
0.000000
  0
ARC
  8
Default
 62
     5
  6
CONTINUOUS
 10
3.910395
 20
2.062291
 30
0.000000
 40
1.310362
 50
244.287146
 51
255.339892
  0
ARC
  8
Default
 62
     5
  6
CONTINUOUS
 10
3.424443
 20
1.064236
 30
0.000000
 40
0.200357
 50
214.496885
 51
245.664158
  0
ARC
  8
Default
 62
     5
  6
CONTINUOUS
 10
3.387255
 20
1.028706
 30
0.000000
 40
0.149811
 50
156.969166
 51
211.351514
  0
ARC
  8
Default
 62
     5
  6
CONTINUOUS
 10
3.210603
 20
1.098809
 30
0.000000
 40
0.040448
 50
343.492855
 51
407.943043
  0
LINE
  8
Default
 62
     5
  6
CONTINUOUS
 10
3.237698
 20
1.128841
 30
0.000000
 11
3.175183
 21
1.140094
 31
0.000000
  0
ARC
  8
Default
 62
     5
  6
CONTINUOUS
 10
3.175827
 20
1.304040
 30
0.000000
 40
0.163947
 50
228.492808
 51
269.774755
  0
ARC
  8
Default
 62
     5
  6
CONTINUOUS
 10
3.162766
 20
1.274301
 30
0.000000
 40
0.133391
 50
177.040070
 51
224.224776
  0
ARC
  8
Default
 62
     5
  6
CONTINUOUS
 10
3.442892
 20
1.244642
 30
0.000000
 40
0.414952
 50
132.793599
 51
174.947038
  0
ARC
  8
Default
 62
     5
  6
CONTINUOUS
 10
3.741689
 20
1.093613
 30
0.000000
 40
0.738045
 50
102.689500
 51
141.887925
  0
LINE
  8
Default
 62
     5
  6
CONTINUOUS
 10
3.579564
 20
1.813631
 30
0.000000
 11
4.049396
 21
1.862553
 31
0.000000
  0
LINE
  8
Default
 62
     5
  6
CONTINUOUS
 10
4.049396
 20
1.862553
 30
0.000000
 11
4.049449
 21
1.862557
 31
0.000000
  0
LINE
  8
Default
 62
     5
  6
CONTINUOUS
 10
4.049449
 20
1.862557
 30
0.000000
 11
4.049449
 21
1.862557
 31
0.000000
  0
LINE
  8
Default
 62
     5
  6
CONTINUOUS
 10
4.049449
 20
1.862557
 30
0.000000
 11
4.049295
 21
1.862690
 31
0.000000
  0
LINE
  8
Default
 62
     5
  6
CONTINUOUS
 10
4.049295
 20
1.862690
 30
0.000000
 11
4.041913
 21
1.869056
 31
0.000000
  0
ARC
  8
Default
 62
     5
  6
CONTINUOUS
 10
12.221343
 20
11.571775
 30
0.000000
 40
12.690383
 50
225.484293
 51
229.868981
  0
LINE
  8
Default
 62
     5
  6
CONTINUOUS
 10
3.324055
 20
2.522792
 30
0.000000
 11
3.241027
 21
2.591227
 31
0.000000
  0
LINE
  8
Default
 62
     5
  6
CONTINUOUS
 10
3.241027
 20
2.591227
 30
0.000000
 11
3.160773
 21
2.633860
 31
0.000000
  0
LINE
  8
Default
 62
     5
  6
CONTINUOUS
 10
3.160773
 20
2.633860
 30
0.000000
 11
2.805706
 21
2.744684
 31
0.000000
  0
ARC
  8
Default
 62
     5
  6
CONTINUOUS
 10
4.811996
 20
9.739321
 30
0.000000
 40
7.276685
 50
246.341321
 51
253.995379
  0
ARC
  8
Default
 62
     5
  6
CONTINUOUS
 10
5.370713
 20
10.640627
 30
0.000000
 40
8.327797
 50
241.444026
 51
245.308740
  0
LINE
  8
Default
 62
     5
  6
CONTINUOUS
 10
1.389884
 20
3.325902
 30
0.000000
 11
1.329691
 21
3.370594
 31
0.000000
  0
ARC
  8
Default
 62
     5
  6
CONTINUOUS
 10
2.098812
 20
4.304204
 30
0.000000
 40
1.209618
 50
220.793194
 51
230.517801
  0
ARC
  8
Default
 62
     5
  6
CONTINUOUS
 10
7.065143
 20
8.589996
 30
0.000000
 40
7.769531
 50
215.099968
 51
220.793194
  0
ARC
  8
Default
 62
     5
  6
CONTINUOUS
 10
2.161759
 20
5.143844
 30
0.000000
 40
1.776273
 50
205.106704
 51
215.099968
  0
ARC
  8
Default
 62
     5
  6
CONTINUOUS
 10
4.810002
 20
6.384750
 30
0.000000
 40
4.700830
 50
197.290741
 51
205.106704
  0
ARC
  8
Default
 62
     5
  6
CONTINUOUS
 10
1.310078
 20
5.350684
 30
0.000000
 40
1.053057
 50
187.971728
 51
200.170968
  0
LINE
  8
Default
 62
     5
  6
CONTINUOUS
 10
0.267197
 20
5.204642
 30
0.000000
 11
0.266915
 21
5.259013
 31
0.000000
  0
LINE
  8
Default
 62
     5
  6
CONTINUOUS
 10
0.266915
 20
5.259013
 30
0.000000
 11
0.273359
 21
5.276242
 31
0.000000
  0
LINE
  8
Default
 62
     5
  6
CONTINUOUS
 10
0.273359
 20
5.276242
 30
0.000000
 11
0.289733
 21
5.277445
 31
0.000000
  0
LINE
  8
Default
 62
     5
  6
CONTINUOUS
 10
0.289733
 20
5.277445
 30
0.000000
 11
0.305995
 21
5.267449
 31
0.000000
  0
LINE
  8
Default
 62
     5
  6
CONTINUOUS
 10
0.305995
 20
5.267449
 30
0.000000
 11
0.520664
 21
5.044933
 31
0.000000
  0
ARC
  8
Default
 62
     5
  6
CONTINUOUS
 10
2.373739
 20
6.832659
 30
0.000000
 40
2.574850
 50
223.971689
 51
234.322125
  0
LINE
  8
Default
 62
     5
  6
CONTINUOUS
 10
0.949919
 20
4.685152
 30
0.000000
 11
0.872016
 21
4.741085
 31
0.000000
  0
LINE
  8
Default
 62
     5
  6
CONTINUOUS
 10
0.949919
 20
4.685152
 30
0.000000
 11
0.988872
 21
4.668903
 31
0.000000
  0
LINE
  8
Default
 62
     5
  6
CONTINUOUS
 10
0.988872
 20
4.668903
 30
0.000000
 11
1.003526
 21
4.667781
 31
0.000000
  0
LINE
  8
Default
 62
     5
  6
CONTINUOUS
 10
1.003526
 20
4.667781
 30
0.000000
 11
0.896334
 21
4.857797
 31
0.000000
  0
LINE
  8
Default
 62
     5
  6
CONTINUOUS
 10
0.896334
 20
4.857797
 30
0.000000
 11
0.636497
 21
5.238386
 31
0.000000
  0
ARC
  8
Default
 62
     5
  6
CONTINUOUS
 10
2.356290
 20
6.352061
 30
0.000000
 40
2.048892
 50
203.653648
 51
212.925610
  0
ARC
  8
Default
 62
     5
  6
CONTINUOUS
 10
2.113914
 20
6.182541
 30
0.000000
 40
1.759823
 50
183.792787
 51
201.763802
  0
ARC
  8
Default
 62
     5
  6
CONTINUOUS
 10
4.464063
 20
6.338340
 30
0.000000
 40
4.115131
 50
169.554346
 51
183.792787
  0
LINE
  8
Default
 62
     5
  6
CONTINUOUS
 10
0.458300
 20
7.213762
 30
0.000000
 11
0.417131
 21
7.084425
 31
0.000000
  0
LINE
  8
Default
 62
     5
  6
CONTINUOUS
 10
0.458300
 20
7.213762
 30
0.000000
 11
0.464407
 21
7.212057
 31
0.000000
  0
LINE
  8
Default
 62
     5
  6
CONTINUOUS
 10
0.464407
 20
7.212057
 30
0.000000
 11
0.472293
 21
7.204248
 31
0.000000
  0
LINE
  8
Default
 62
     5
  6
CONTINUOUS
 10
0.472293
 20
7.204248
 30
0.000000
 11
0.487201
 21
7.179985
 31
0.000000
  0
LINE
  8
Default
 62
     5
  6
CONTINUOUS
 10
0.487201
 20
7.179985
 30
0.000000
 11
0.548588
 21
7.015086
 31
0.000000
  0
LINE
  8
Default
 62
     5
  6
CONTINUOUS
 10
0.548588
 20
7.015086
 30
0.000000
 11
0.707115
 21
6.575742
 31
0.000000
  0
LINE
  8
Default
 62
     5
  6
CONTINUOUS
 10
0.707115
 20
6.575742
 30
0.000000
 11
0.735020
 21
6.534890
 31
0.000000
  0
LINE
  8
Default
 62
     5
  6
CONTINUOUS
 10
0.735020
 20
6.534890
 30
0.000000
 11
0.742815
 21
6.526500
 31
0.000000
  0
LINE
  8
Default
 62
     5
  6
CONTINUOUS
 10
0.742815
 20
6.526500
 30
0.000000
 11
0.705910
 21
7.005393
 31
0.000000
  0
ARC
  8
Default
 62
     5
  6
CONTINUOUS
 10
2.820564
 20
7.097648
 30
0.000000
 40
2.116665
 50
163.592951
 51
182.498028
  0
ARC
  8
Default
 62
     5
  6
CONTINUOUS
 10
2.378427
 20
7.184568
 30
0.000000
 40
1.668497
 50
146.334853
 51
162.167505
  0
ARC
  8
Default
 62
     5
  6
CONTINUOUS
 10
1.237608
 20
7.964082
 30
0.000000
 40
0.287357
 50
117.626901
 51
149.603344
  0
ARC
  8
Default
 62
     5
  6
CONTINUOUS
 10
1.131619
 20
8.145201
 30
0.000000
 40
0.078369
 50
37.868585
 51
110.356131
  0
ARC
  8
Default
 62
     5
  6
CONTINUOUS
 10
1.082810
 20
8.119959
 30
0.000000
 40
0.132774
 50
347.510203
 51
393.534336
  0
ARC
  8
Default
 62
     5
  6
CONTINUOUS
 10
0.645506
 20
8.167538
 30
0.000000
 40
0.572046
 50
334.990660
 51
352.335684
  0
ARC
  8
Default
 62
     5
  6
CONTINUOUS
 10
2.722824
 20
7.266789
 30
0.000000
 40
1.692439
 50
157.087578
 51
175.265886
  0
ARC
  8
Default
 62
     5
  6
CONTINUOUS
 10
3.445142
 20
7.129323
 30
0.000000
 40
2.424873
 50
173.437141
 51
189.619658
  0
ARC
  8
Default
 62
     5
  6
CONTINUOUS
 10
5.374388
 20
7.610848
 30
0.000000
 40
4.410091
 50
191.599554
 51
200.979799
  0
LINE
  8
Default
 62
     5
  6
CONTINUOUS
 10
1.256657
 20
6.031865
 30
0.000000
 11
1.398164
 21
5.711724
 31
0.000000
  0
LINE
  8
Default
 62
     5
  6
CONTINUOUS
 10
1.398164
 20
5.711724
 30
0.000000
 11
1.442712
 21
5.628003
 31
0.000000
  0
LINE
  8
Default
 62
     5
  6
CONTINUOUS
 10
1.442712
 20
5.628003
 30
0.000000
 11
1.460994
 21
5.592847
 31
0.000000
  0
LINE
  8
Default
 62
     5
  6
CONTINUOUS
 10
1.460994
 20
5.592847
 30
0.000000
 11
1.461075
 21
5.592691
 31
0.000000
  0
LINE
  8
Default
 62
     5
  6
CONTINUOUS
 10
1.461075
 20
5.592691
 30
0.000000
 11
1.461083
 21
5.592675
 31
0.000000
  0
LINE
  8
Default
 62
     5
  6
CONTINUOUS
 10
1.461083
 20
5.592675
 30
0.000000
 11
1.461097
 21
5.592700
 31
0.000000
  0
LINE
  8
Default
 62
     5
  6
CONTINUOUS
 10
1.461097
 20
5.592700
 30
0.000000
 11
1.461764
 21
5.593908
 31
0.000000
  0
LINE
  8
Default
 62
     5
  6
CONTINUOUS
 10
1.461764
 20
5.593908
 30
0.000000
 11
1.467898
 21
5.605010
 31
0.000000
  0
LINE
  8
Default
 62
     5
  6
CONTINUOUS
 10
1.467898
 20
5.605010
 30
0.000000
 11
1.589636
 21
5.823533
 31
0.000000
  0
LINE
  8
Default
 62
     5
  6
CONTINUOUS
 10
1.589636
 20
5.823533
 30
0.000000
 11
1.623988
 21
5.874122
 31
0.000000
  0
LINE
  8
Default
 62
     5
  6
CONTINUOUS
 10
1.623988
 20
5.874122
 30
0.000000
 11
1.695685
 21
5.949528
 31
0.000000
  0
LINE
  8
Default
 62
     5
  6
CONTINUOUS
 10
1.695685
 20
5.949528
 30
0.000000
 11
1.747499
 21
5.970963
 31
0.000000
  0
LINE
  8
Default
 62
     5
  6
CONTINUOUS
 10
1.747499
 20
5.970963
 30
0.000000
 11
1.790865
 21
5.959796
 31
0.000000
  0
LINE
  8
Default
 62
     5
  6
CONTINUOUS
 10
1.790865
 20
5.959796
 30
0.000000
 11
1.819217
 21
5.932427
 31
0.000000
  0
ARC
  8
Default
 62
     5
  6
CONTINUOUS
 10
1.644491
 20
5.796619
 30
0.000000
 40
0.221299
 50
11.987495
 51
37.856513
  0
LINE
  8
Default
 62
     5
  6
CONTINUOUS
 10
1.860964
 20
5.842582
 30
0.000000
 11
2.058161
 21
5.164933
 31
0.000000
  0
LINE
  8
Default
 62
     5
  6
CONTINUOUS
 10
2.058161
 20
5.164933
 30
0.000000
 11
2.169263
 21
4.870081
 31
0.000000
  0
ARC
  8
Default
 62
     5
  6
CONTINUOUS
 10
5.147319
 20
6.127913
 30
0.000000
 40
3.232794
 50
202.897578
 51
216.626796
  0
LINE
  8
Default
 62
     5
  6
CONTINUOUS
 10
2.552877
 20
4.199227
 30
0.000000
 11
2.553930
 21
4.197824
 31
0.000000
  0
LINE
  8
Default
 62
     5
  6
CONTINUOUS
 10
2.553930
 20
4.197824
 30
0.000000
 11
2.692373
 21
4.013413
 31
0.000000
  0
LINE
  8
Default
 62
     5
  6
CONTINUOUS
 10
2.692373
 20
4.013413
 30
0.000000
 11
2.692433
 21
4.013333
 31
0.000000
  0
LINE
  8
Default
 62
     5
  6
CONTINUOUS
 10
2.692433
 20
4.013333
 30
0.000000
 11
2.692443
 21
4.013367
 31
0.000000
  0
LINE
  8
Default
 62
     5
  6
CONTINUOUS
 10
2.692443
 20
4.013367
 30
0.000000
 11
2.692900
 21
4.015000
 31
0.000000
  0
LINE
  8
Default
 62
     5
  6
CONTINUOUS
 10
2.692900
 20
4.015000
 30
0.000000
 11
2.697096
 21
4.029989
 31
0.000000
  0
ARC
  8
Default
 62
     5
  6
CONTINUOUS
 10
7.505688
 20
2.813123
 30
0.000000
 40
4.960174
 50
158.009290
 51
165.798826
  0
ARC
  8
Default
 62
     5
  6
CONTINUOUS
 10
1.438172
 20
5.365703
 30
0.000000
 40
1.624499
 50
334.662201
 51
347.188840
  0
LINE
  8
Default
 62
     5
  6
CONTINUOUS
 10
3.022230
 20
5.005489
 30
0.000000
 11
3.020393
 21
5.097466
 31
0.000000
  0
ARC
  8
Default
 62
     5
  6
CONTINUOUS
 10
2.963278
 20
5.083493
 30
0.000000
 40
0.058799
 50
13.747653
 51
57.173621
  0
LINE
  8
Default
 62
     5
  6
CONTINUOUS
 10
2.995153
 20
5.132903
 30
0.000000
 11
2.961434
 21
5.147947
 31
0.000000
  0
LINE
  8
Default
 62
     5
  6
CONTINUOUS
 10
2.961434
 20
5.147947
 30
0.000000
 11
2.825457
 21
5.171756
 31
0.000000
  0
LINE
  8
Default
 62
     5
  6
CONTINUOUS
 10
2.825457
 20
5.171756
 30
0.000000
 11
2.308696
 21
5.256071
 31
0.000000
  0
LINE
  8
Default
 62
     5
  6
CONTINUOUS
 10
2.308696
 20
5.256071
 30
0.000000
 11
2.252170
 21
5.276879
 31
0.000000
  0
LINE
  8
Default
 62
     5
  6
CONTINUOUS
 10
2.252170
 20
5.276879
 30
0.000000
 11
2.210865
 21
5.306124
 31
0.000000
  0
ARC
  8
Default
 62
     5
  6
CONTINUOUS
 10
2.406863
 20
5.477660
 30
0.000000
 40
0.260461
 50
176.689894
 51
221.192175
  0
ARC
  8
Default
 62
     5
  6
CONTINUOUS
 10
2.873970
 20
5.509294
 30
0.000000
 40
0.727323
 50
168.273110
 51
181.307403
  0
LINE
  8
Default
 62
     5
  6
CONTINUOUS
 10
2.161828
 20
5.657120
 30
0.000000
 11
2.217428
 21
5.880024
 31
0.000000
  0
LINE
  8
Default
 62
     5
  6
CONTINUOUS
 10
2.217428
 20
5.880024
 30
0.000000
 11
2.339818
 21
6.280429
 31
0.000000
  0
ARC
  8
Default
 62
     5
  6
CONTINUOUS
 10
0.811800
 20
6.655962
 30
0.000000
 40
1.573488
 50
346.192350
 51
355.802807
  0
ARC
  8
Default
 62
     5
  6
CONTINUOUS
 10
-27.815927
 20
7.518666
 30
0.000000
 40
30.212824
 50
358.145245
 51
360.487415
  0
ARC
  8
Default
 62
     5
  6
CONTINUOUS
 10
-5.210962
 20
7.710971
 30
0.000000
 40
7.607041
 50
0.487415
 51
6.492843
  0
LINE
  8
Default
 62
     5
  6
CONTINUOUS
 10
2.325353
 20
8.816818
 30
0.000000
 11
2.347287
 21
8.571168
 31
0.000000
  0
LINE
  8
Default
 62
     5
  6
CONTINUOUS
 10
2.325353
 20
8.816818
 30
0.000000
 11
2.287637
 21
9.037855
 31
0.000000
  0
LINE
  8
Default
 62
     5
  6
CONTINUOUS
 10
2.287637
 20
9.037855
 30
0.000000
 11
2.172020
 21
9.416582
 31
0.000000
  0
ARC
  8
Default
 62
     5
  6
CONTINUOUS
 10
10.204575
 20
11.064550
 30
0.000000
 40
8.199862
 50
185.931717
 51
191.593987
  0
ARC
  8
Default
 62
     5
  6
CONTINUOUS
 10
5.259752
 20
10.550785
 30
0.000000
 40
3.228421
 50
166.714860
 51
185.931717
  0
ARC
  8
Default
 62
     5
  6
CONTINUOUS
 10
3.096701
 20
11.040309
 30
0.000000
 40
1.010976
 50
148.565242
 51
165.545009
  0
ARC
  8
Default
 62
     5
  6
CONTINUOUS
 10
6.131054
 20
9.485134
 30
0.000000
 40
4.418455
 50
145.271410
 51
151.881163
  0
LINE
  8
Default
 62
     5
  6
CONTINUOUS
 10
2.499704
 20
12.002282
 30
0.000000
 11
2.928338
 21
12.657708
 31
0.000000
  0
ARC
  8
Default
 62
     5
  6
CONTINUOUS
 10
1.040877
 20
13.892065
 30
0.000000
 40
2.255248
 50
326.816216
 51
336.653727
  0
ARC
  8
Default
 62
     5
  6
CONTINUOUS
 10
2.304913
 20
13.366990
 30
0.000000
 40
0.886822
 50
335.436727
 51
350.730810
  0
LINE
  8
Default
 62
     5
  6
CONTINUOUS
 10
3.180156
 20
13.224146
 30
0.000000
 11
3.219496
 21
13.944546
 31
0.000000
  0
ARC
  8
Default
 62
     5
  6
CONTINUOUS
 10
4.175601
 20
13.892334
 30
0.000000
 40
0.957530
 50
165.529952
 51
176.874227
  0
LINE
  8
Default
 62
     5
  6
CONTINUOUS
 10
3.265498
 20
14.178006
 30
0.000000
 11
3.248446
 21
14.131595
 31
0.000000
  0
LINE
  8
Default
 62
     5
  6
CONTINUOUS
 10
3.265498
 20
14.178006
 30
0.000000
 11
3.490047
 21
14.437542
 31
0.000000
  0
ARC
  8
Default
 62
     5
  6
CONTINUOUS
 10
30.326655
 20
-10.122886
 30
0.000000
 40
36.378815
 50
135.791134
 51
137.535757
  0
ARC
  8
Default
 62
     5
  6
CONTINUOUS
 10
6.180344
 20
13.545478
 30
0.000000
 40
2.570524
 50
122.755488
 51
138.665538
  0
ARC
  8
Default
 62
     5
  6
CONTINUOUS
 10
6.415837
 20
12.714223
 30
0.000000
 40
3.406326
 50
109.557341
 51
118.517789
  0
ARC
  8
Default
 62
     5
  6
CONTINUOUS
 10
6.074429
 20
14.088660
 30
0.000000
 40
2.001688
 50
91.236536
 51
113.521511
  0
ARC
  8
Default
 62
     5
  6
CONTINUOUS
 10
5.896548
 20
13.111515
 30
0.000000
 40
2.981410
 50
63.258619
 51
87.410788
  0
ARC
  8
Default
 62
     5
  6
CONTINUOUS
 10
6.304094
 20
14.042572
 30
0.000000
 40
1.967320
 50
41.294845
 51
61.657068
  0
ARC
  8
Default
 62
     5
  6
CONTINUOUS
 10
-4.799367
 20
2.558885
 30
0.000000
 40
17.935294
 50
41.891029
 51
45.452767
  0
ARC
  8
Default
 62
     5
  6
CONTINUOUS
 10
5.452657
 20
12.006044
 30
0.000000
 40
3.999884
 50
33.889974
 51
39.208863
  0
LINE
  8
Default
 62
     5
  6
CONTINUOUS
 10
8.773001
 20
14.236379
 30
0.000000
 11
9.021119
 21
13.898125
 31
0.000000
  0
ARC
  8
Default
 62
     5
  6
CONTINUOUS
 10
6.064393
 20
11.487426
 30
0.000000
 40
3.814931
 50
32.569901
 51
39.191304
  0
ARC
  8
Default
 62
     5
  6
CONTINUOUS
 10
8.258628
 20
12.919379
 30
0.000000
 40
1.195184
 50
4.371821
 51
31.345488
  0
LINE
  8
Default
 62
     5
  6
CONTINUOUS
 10
9.450334
 20
13.010486
 30
0.000000
 11
9.501467
 21
12.555550
 31
0.000000
  0
LINE
  8
Default
 62
     5
  6
CONTINUOUS
 10
9.501467
 20
12.555550
 30
0.000000
 11
9.581800
 21
12.250752
 31
0.000000
  0
ARC
  8
Default
 62
     5
  6
CONTINUOUS
 10
-10.148990
 20
4.487661
 30
0.000000
 40
21.203058
 50
16.272765
 51
21.477186
  0
LINE
  8
Default
 62
     5
  6
CONTINUOUS
 10
10.330319
 20
9.998442
 30
0.000000
 11
10.204643
 21
10.428980
 31
0.000000
  0
LINE
  8
Default
 62
     5
  6
CONTINUOUS
 10
10.330319
 20
9.998442
 30
0.000000
 11
10.367339
 21
9.802146
 31
0.000000
  0
ARC
  8
Default
 62
     5
  6
CONTINUOUS
 10
9.583357
 20
9.712509
 30
0.000000
 40
0.789090
 50
350.655842
 51
366.522636
  0
LINE
  8
Default
 62
     5
  6
CONTINUOUS
 10
10.361976
 20
9.584389
 30
0.000000
 11
10.338844
 21
9.481131
 31
0.000000
  0
LINE
  8
Default
 62
     5
  6
CONTINUOUS
 10
10.338844
 20
9.481131
 30
0.000000
 11
10.239220
 21
9.208290
 31
0.000000
  0
ARC
  8
Default
 62
     5
  6
CONTINUOUS
 10
23.414150
 20
3.758813
 30
0.000000
 40
14.257474
 50
157.528802
 51
163.780405
  0
ARC
  8
Default
 62
     5
  6
CONTINUOUS
 10
21.822353
 20
4.221864
 30
0.000000
 40
12.599694
 50
163.780405
 51
168.904153
  0
ARC
  8
Default
 62
     5
  6
CONTINUOUS
 10
15.618875
 20
5.438471
 30
0.000000
 40
6.278044
 50
168.904153
 51
176.736065
  0
ARC
  8
Default
 62
     5
  6
CONTINUOUS
 10
8.436151
 20
5.805589
 30
0.000000
 40
0.914915
 50
333.468354
 51
359.394166
  0
ARC
  8
Default
 62
     5
  6
CONTINUOUS
 10
9.047668
 20
5.523460
 30
0.000000
 40
0.242662
 50
302.325290
 51
328.564663
  0
ARC
  8
Default
 62
     5
  6
CONTINUOUS
 10
9.316428
 20
5.118486
 30
0.000000
 40
0.243493
 50
124.810669
 51
155.814979
  0
ARC
  8
Default
 62
     5
  6
CONTINUOUS
 10
9.567692
 20
5.019745
 30
0.000000
 40
0.513317
 50
157.251080
 51
194.680797
  0
ARC
  8
Default
 62
     5
  6
CONTINUOUS
 10
9.739505
 20
5.035294
 30
0.000000
 40
0.684055
 50
192.292794
 51
205.995129
  0
ARC
  8
Default
 62
     5
  6
CONTINUOUS
 10
6.120234
 20
3.203717
 30
0.000000
 40
3.372362
 50
16.492932
 51
27.014081
  0
ARC
  8
Default
 62
     5
  6
CONTINUOUS
 10
7.273420
 20
3.545152
 30
0.000000
 40
2.169692
 50
8.060109
 51
16.492932
  0
LINE
  8
Default
 62
     5
  6
CONTINUOUS
 10
9.427616
 20
3.701213
 30
0.000000
 11
9.421679
 21
3.849368
 31
0.000000
  0
ARC
  8
Default
 62
     5
  6
CONTINUOUS
 10
7.821287
 20
3.859469
 30
0.000000
 40
1.614106
 50
335.792008
 51
354.373354
  0
ARC
  8
Default
 62
     5
  6
CONTINUOUS
 10
5.212808
 20
4.877801
 30
0.000000
 40
4.413017
 50
328.860978
 51
337.620701
  0
ARC
  8
Default
 62
     5
  6
CONTINUOUS
 10
6.024595
 20
4.642325
 30
0.000000
 40
3.603045
 50
307.942214
 51
325.388377
  0
LINE
  8
Default
 62
     5
  6
CONTINUOUS
 10
8.239986
 20
1.800851
 30
0.000000
 11
8.073756
 21
1.665869
 31
0.000000
  0
LINE
  8
Default
 62
     5
  6
CONTINUOUS
 10
8.073756
 20
1.665869
 30
0.000000
 11
8.072672
 21
1.664989
 31
0.000000
  0
LINE
  8
Default
 62
     5
  6
CONTINUOUS
 10
8.072672
 20
1.664989
 30
0.000000
 11
8.072654
 21
1.664974
 31
0.000000
  0
LINE
  8
Default
 62
     5
  6
CONTINUOUS
 10
8.072654
 20
1.664974
 30
0.000000
 11
8.073051
 21
1.664974
 31
0.000000
  0
LINE
  8
Default
 62
     5
  6
CONTINUOUS
 10
8.073051
 20
1.664974
 30
0.000000
 11
8.090854
 21
1.664954
 31
0.000000
  0
ARC
  8
Default
 62
     5
  6
CONTINUOUS
 10
8.272065
 20
0.727300
 30
0.000000
 40
0.955004
 50
28.862922
 51
100.938170
  0
ARC
  8
Default
 62
     5
  6
CONTINUOUS
 10
8.943983
 20
1.121088
 30
0.000000
 40
0.177656
 50
305.211988
 51
382.228585
  0
ARC
  8
Default
 62
     5
  6
CONTINUOUS
 10
8.961031
 20
1.113769
 30
0.000000
 40
0.162137
 50
270.154182
 51
301.779129
  0
ARC
  8
Default
 62
     5
  6
CONTINUOUS
 10
8.953123
 20
0.896885
 30
0.000000
 40
0.055379
 50
81.333791
 51
139.216526
  0
LINE
  8
Default
 62
     5
  6
CONTINUOUS
 10
8.911191
 20
0.933059
 30
0.000000
 11
8.901673
 21
0.916554
 31
0.000000
  0
ARC
  8
Default
 62
     5
  6
CONTINUOUS
 10
9.108380
 20
0.845725
 30
0.000000
 40
0.218504
 50
161.085789
 51
186.006656
  0
ARC
  8
Default
 62
     5
  6
CONTINUOUS
 10
8.747223
 20
0.819123
 30
0.000000
 40
0.143900
 50
319.202523
 51
361.488146
  0
LINE
  8
Default
 62
     5
  6
CONTINUOUS
 10
8.856159
 20
0.725100
 30
0.000000
 11
8.815744
 21
0.693333
 31
0.000000
  0
LINE
  8
Default
 62
     5
  6
CONTINUOUS
 10
8.815744
 20
0.693333
 30
0.000000
 11
8.762773
 21
0.667571
 31
0.000000
  0
LINE
  8
Default
 62
     5
  6
CONTINUOUS
 10
8.762773
 20
0.667571
 30
0.000000
 11
8.591248
 21
0.620077
 31
0.000000
  0
ARC
  8
Default
 62
     5
  6
CONTINUOUS
 10
8.892246
 20
-0.663230
 30
0.000000
 40
1.318134
 50
103.200070
 51
114.703331
  0
ARC
  8
Default
 62
     5
  6
CONTINUOUS
 10
7.762816
 20
1.414273
 30
0.000000
 40
1.053151
 50
292.399168
 51
303.322947
  0
ARC
  8
Default
 62
     5
  6
CONTINUOUS
 10
7.925757
 20
1.110487
 30
0.000000
 40
0.711051
 50
249.413583
 51
289.586797
  0
ARC
  8
Default
 62
     5
  6
CONTINUOUS
 10
7.458460
 20
-0.262288
 30
0.000000
 40
0.739758
 50
72.919527
 51
85.914289
  0
LINE
  8
Default
 62
     5
  6
CONTINUOUS
 10
7.511167
 20
0.475590
 30
0.000000
 11
7.008048
 21
0.467097
 31
0.000000
  0
ARC
  8
Default
 62
     5
  6
CONTINUOUS
 10
6.927766
 20
1.723985
 30
0.000000
 40
1.259450
 50
263.483661
 51
273.654756
  0
LINE
  8
Default
 62
     5
  6
CONTINUOUS
 10
6.784835
 20
0.472672
 30
0.000000
 11
6.727094
 21
0.492429
 31
0.000000
  0
ARC
  8
Default
 62
     5
  6
CONTINUOUS
 10
6.916116
 20
0.844262
 30
0.000000
 40
0.399394
 50
193.063810
 51
241.753216
  0
LINE
  8
Default
 62
     5
  6
CONTINUOUS
 10
6.527058
 20
0.753984
 30
0.000000
 11
6.500934
 21
0.881724
 31
0.000000
  0
ARC
  8
Default
 62
     5
  6
CONTINUOUS
 10
8.109028
 20
1.006550
 30
0.000000
 40
1.612932
 50
173.243691
 51
184.438590
  0
LINE
  8
Default
 62
     5
  6
CONTINUOUS
 10
6.542311
 20
1.491857
 30
0.000000
 11
6.507297
 21
1.196306
 31
0.000000
  0
LINE
  8
Default
 62
     5
  6
CONTINUOUS
 10
6.542311
 20
1.491857
 30
0.000000
 11
6.541521
 21
1.496902
 31
0.000000
  0
LINE
  8
Default
 62
     5
  6
CONTINUOUS
 10
6.541521
 20
1.496902
 30
0.000000
 11
6.517297
 21
1.497333
 31
0.000000
  0
LINE
  8
Default
 62
     5
  6
CONTINUOUS
 10
6.517297
 20
1.497333
 30
0.000000
 11
5.601658
 21
1.469697
 31
0.000000
  0
LINE
  8
Default
 62
     5
  6
CONTINUOUS
 10
5.601658
 20
1.469697
 30
0.000000
 11
5.598508
 21
1.469592
 31
0.000000
  0
LINE
  8
Default
 62
     5
  6
CONTINUOUS
 10
5.598508
 20
1.469592
 30
0.000000
 11
5.598509
 21
1.469582
 31
0.000000
  0
LINE
  8
Default
 62
     5
  6
CONTINUOUS
 10
5.598509
 20
1.469582
 30
0.000000
 11
5.598680
 21
1.467215
 31
0.000000
  0
LINE
  8
Default
 62
     5
  6
CONTINUOUS
 10
5.598680
 20
1.467215
 30
0.000000
 11
5.600064
 21
1.448017
 31
0.000000
  0
ARC
  8
Default
 62
     5
  6
CONTINUOUS
 10
0.741575
 20
0.940668
 30
0.000000
 40
4.884908
 50
0.099198
 51
5.961511
  0
ARC
  8
Default
 62
     5
  6
CONTINUOUS
 10
4.347433
 20
0.996554
 30
0.000000
 40
1.279921
 50
347.501446
 51
357.876370
  0
ARC
  8
Default
 62
     5
  6
CONTINUOUS
 10
5.214023
 20
0.819620
 30
0.000000
 40
0.395854
 50
317.542357
 51
345.358628
  0
ARC
  8
Default
 62
     5
  6
CONTINUOUS
 10
5.376748
 20
0.670730
 30
0.000000
 40
0.175292
 50
286.976928
 51
317.542357
  0
ARC
  8
Default
 62
     5
  6
CONTINUOUS
 10
5.046322
 20
2.252462
 30
0.000000
 40
1.790524
 50
264.994252
 51
282.305683
  0
ARC
  8
Default
 62
     5
  6
CONTINUOUS
 10
4.882468
 20
1.031970
 30
0.000000
 40
0.563254
 50
250.246341
 51
270.775228
  0
LINE
  8
Default
 62
     5
  6
CONTINUOUS
 10
4.692101
 20
0.501861
 30
0.000000
 11
4.647933
 21
0.512925
 31
0.000000
  0
ARC
  8
Default
 62
     5
  6
CONTINUOUS
 10
4.626738
 20
0.365870
 30
0.000000
 40
0.148574
 50
81.798501
 51
109.315617
  0
LINE
  8
Default
 62
     5
  6
CONTINUOUS
 10
4.577594
 20
0.506081
 30
0.000000
 11
4.461605
 21
0.448030
 31
0.000000
  0
ARC
  8
Default
 62
     5
  6
CONTINUOUS
 10
4.193918
 20
1.281127
 30
0.000000
 40
0.875047
 50
257.705676
 51
287.813029
  0
LINE
  8
Default
 62
     5
  6
CONTINUOUS
 10
4.354642
 20
0.530911
 30
0.000000
 11
4.383261
 21
0.561675
 31
0.000000
  0
ARC
  8
Default
 62
     5
  6
CONTINUOUS
 10
3.788192
 20
0.899250
 30
0.000000
 40
0.684152
 50
330.434313
 51
343.769181
  0
ARC
  8
Default
 62
     5
  6
CONTINUOUS
 10
5.523596
 20
0.113440
 30
0.000000
 40
1.231558
 50
133.845996
 51
151.132201
  0
LINE
  8
Default
 62
     5
  6
CONTINUOUS
 10
4.670468
 20
1.001645
 30
0.000000
 11
4.708707
 21
1.025270
 31
0.000000
  0
ARC
  8
Default
 62
     5
  6
CONTINUOUS
 10
4.717181
 20
1.008322
 30
0.000000
 40
0.018948
 50
2.955499
 51
116.564376
  0
LINE
  8
Default
 62
     5
  6
CONTINUOUS
 10
4.736104
 20
1.009299
 30
0.000000
 11
4.740911
 21
0.974324
 31
0.000000
  0
LINE
  8
Default
 62
     5
  6
CONTINUOUS
 10
4.740911
 20
0.974324
 30
0.000000
 11
4.725584
 21
0.835799
 31
0.000000
  0
ARC
  8
Default
 62
     5
  6
CONTINUOUS
 10
5.071782
 20
0.743659
 30
0.000000
 40
0.358249
 50
165.096371
 51
191.940019
  0
ARC
  8
Default
 62
     5
  6
CONTINUOUS
 10
4.819767
 20
0.698333
 30
0.000000
 40
0.102605
 50
196.295841
 51
254.609712
  0
ARC
  8
Default
 62
     5
  6
CONTINUOUS
 10
5.057334
 20
1.921789
 30
0.000000
 40
1.348634
 50
258.676701
 51
277.051027
  0
ARC
  8
Default
 62
     5
  6
CONTINUOUS
 10
5.231983
 20
0.902124
 30
0.000000
 40
0.318899
 50
268.364760
 51
306.469305
  0
ARC
  8
Default
 62
     5
  6
CONTINUOUS
 10
5.269067
 20
0.819512
 30
0.000000
 40
0.231228
 50
311.252762
 51
346.894828
  0
ARC
  8
Default
 62
     5
  6
CONTINUOUS
 10
4.710011
 20
0.949662
 30
0.000000
 40
0.805233
 50
346.894828
 51
361.912580
  0
ARC
  8
Default
 62
     5
  6
CONTINUOUS
 10
-0.732419
 20
0.767921
 30
0.000000
 40
6.250696
 50
1.912580
 51
7.908360
  0
ARC
  8
Default
 62
     5
  6
CONTINUOUS
 10
11.153672
 20
2.419020
 30
0.000000
 40
5.749523
 50
179.785909
 51
187.908360
  0
LINE
  8
Default
 62
     5
  6
CONTINUOUS
 10
5.404189
 20
2.440504
 30
0.000000
 11
5.404167
 21
2.445782
 31
0.000000
  0
LINE
  8
Default
 62
     5
  6
CONTINUOUS
 10
5.404167
 20
2.445782
 30
0.000000
 11
5.402513
 21
2.857080
 31
0.000000
  0
LINE
  8
Default
 62
     5
  6
CONTINUOUS
 10
5.402513
 20
2.857080
 30
0.000000
 11
5.402504
 21
2.859204
 31
0.000000
  0
LINE
  8
Default
 62
     5
  6
CONTINUOUS
 10
5.402504
 20
2.859204
 30
0.000000
 11
5.402504
 21
2.859234
 31
0.000000
  0
LINE
  8
Default
 62
     5
  6
CONTINUOUS
 10
5.402504
 20
2.859234
 30
0.000000
 11
5.402428
 21
2.859276
 31
0.000000
  0
LINE
  8
Default
 62
     5
  6
CONTINUOUS
 10
5.402428
 20
2.859276
 30
0.000000
 11
5.398813
 21
2.861253
 31
0.000000
  0
ARC
  8
Default
 62
     5
  6
CONTINUOUS
 10
7.064618
 20
6.147894
 30
0.000000
 40
3.684686
 50
230.810778
 51
243.122227
  0
LINE
  8
Default
 62
     5
  6
CONTINUOUS
 10
4.736325
 20
3.292029
 30
0.000000
 11
4.713968
 21
3.324791
 31
0.000000
  0
LINE
  8
Default
 62
     5
  6
CONTINUOUS
 10
4.713968
 20
3.324791
 30
0.000000
 11
4.719118
 21
3.326096
 31
0.000000
  0
LINE
  8
Default
 62
     5
  6
CONTINUOUS
 10
4.719118
 20
3.326096
 30
0.000000
 11
4.922817
 21
3.251117
 31
0.000000
  0
LINE
  8
Default
 62
     5
  6
CONTINUOUS
 10
4.922817
 20
3.251117
 30
0.000000
 11
4.991985
 21
3.219775
 31
0.000000
  0
ARC
  8
Default
 62
     5
  6
CONTINUOUS
 10
6.035674
 20
5.415230
 30
0.000000
 40
2.430906
 50
244.574220
 51
285.786215
  0
ARC
  8
Default
 62
     5
  6
CONTINUOUS
 10
6.084871
 20
5.097574
 30
0.000000
 40
2.112210
 50
286.846253
 51
306.658314
  0
LINE
  8
Default
 62
     5
  6
CONTINUOUS
 10
7.345948
 20
3.403138
 30
0.000000
 11
7.458019
 21
3.465869
 31
0.000000
  0
LINE
  8
Default
 62
     5
  6
CONTINUOUS
 10
7.458019
 20
3.465869
 30
0.000000
 11
7.464170
 21
3.462224
 31
0.000000
  0
LINE
  8
Default
 62
     5
  6
CONTINUOUS
 10
7.464170
 20
3.462224
 30
0.000000
 11
7.457374
 21
3.446209
 31
0.000000
  0
LINE
  8
Default
 62
     5
  6
CONTINUOUS
 10
7.457374
 20
3.446209
 30
0.000000
 11
7.423655
 21
3.403078
 31
0.000000
  0
ARC
  8
Default
 62
     5
  6
CONTINUOUS
 10
4.293616
 20
6.416708
 30
0.000000
 40
4.345009
 50
309.272143
 51
316.085502
  0
LINE
  8
Default
 62
     5
  6
CONTINUOUS
 10
7.044027
 20
3.053027
 30
0.000000
 11
6.801017
 21
2.871549
 31
0.000000
  0
ARC
  8
Default
 62
     5
  6
CONTINUOUS
 10
6.916839
 20
2.758927
 30
0.000000
 40
0.161550
 50
135.802323
 51
164.217713
  0
LINE
  8
Default
 62
     5
  6
CONTINUOUS
 10
6.761379
 20
2.802865
 30
0.000000
 11
6.750740
 21
2.762433
 31
0.000000
  0
LINE
  8
Default
 62
     5
  6
CONTINUOUS
 10
6.750740
 20
2.762433
 30
0.000000
 11
6.727966
 21
2.545733
 31
0.000000
  0
LINE
  8
Default
 62
     5
  6
CONTINUOUS
 10
6.727966
 20
2.545733
 30
0.000000
 11
6.704685
 21
2.042397
 31
0.000000
  0
ARC
  8
Default
 62
     5
  6
CONTINUOUS
 10
2.439395
 20
2.096043
 30
0.000000
 40
4.265628
 50
352.868166
 51
359.279418
  0
ARC
  8
Default
 62
     5
  6
CONTINUOUS
 10
9.983404
 20
0.989293
 30
0.000000
 40
3.361306
 50
170.112916
 51
178.681230
  0
ARC
  8
Default
 62
     5
  6
CONTINUOUS
 10
8.021001
 20
1.034469
 30
0.000000
 40
1.398383
 50
178.681230
 51
191.578745
  0
ARC
  8
Default
 62
     5
  6
CONTINUOUS
 10
6.910639
 20
0.806974
 30
0.000000
 40
0.264956
 50
191.578745
 51
223.610289
  0
LINE
  8
Default
 62
     5
  6
CONTINUOUS
 10
6.767126
 20
0.593371
 30
0.000000
 11
6.718798
 21
0.624221
 31
0.000000
  0
LINE
  8
Default
 62
     5
  6
CONTINUOUS
 10
6.767126
 20
0.593371
 30
0.000000
 11
6.833553
 21
0.581461
 31
0.000000
  0
LINE
  8
Default
 62
     5
  6
CONTINUOUS
 10
6.833553
 20
0.581461
 30
0.000000
 11
7.371772
 21
0.595439
 31
0.000000
  0
LINE
  8
Default
 62
     5
  6
CONTINUOUS
 10
7.371772
 20
0.595439
 30
0.000000
 11
7.377108
 21
0.595623
 31
0.000000
  0
LINE
  8
Default
 62
     5
  6
CONTINUOUS
 10
7.377108
 20
0.595623
 30
0.000000
 11
7.377125
 21
0.595624
 31
0.000000
  0
LINE
  8
Default
 62
     5
  6
CONTINUOUS
 10
7.377125
 20
0.595624
 30
0.000000
 11
7.377126
 21
0.595624
 31
0.000000
  0
LINE
  8
Default
 62
     5
  6
CONTINUOUS
 10
7.377126
 20
0.595624
 30
0.000000
 11
7.377119
 21
0.595982
 31
0.000000
  0
LINE
  8
Default
 62
     5
  6
CONTINUOUS
 10
7.377119
 20
0.595982
 30
0.000000
 11
7.376786
 21
0.612143
 31
0.000000
  0
LINE
  8
Default
 62
     5
  6
CONTINUOUS
 10
7.376786
 20
0.612143
 30
0.000000
 11
7.372713
 21
0.809675
 31
0.000000
  0
LINE
  8
Default
 62
     5
  6
CONTINUOUS
 10
7.372713
 20
0.809675
 30
0.000000
 11
7.372678
 21
0.811364
 31
0.000000
  0
LINE
  8
Default
 62
     5
  6
CONTINUOUS
 10
7.372678
 20
0.811364
 30
0.000000
 11
7.372678
 21
0.811372
 31
0.000000
  0
LINE
  8
Default
 62
     5
  6
CONTINUOUS
 10
7.372678
 20
0.811372
 30
0.000000
 11
7.372675
 21
0.811484
 31
0.000000
  0
LINE
  8
Default
 62
     5
  6
CONTINUOUS
 10
7.372675
 20
0.811484
 30
0.000000
 11
7.379352
 21
0.969540
 31
0.000000
  0
LINE
  8
Default
 62
     5
  6
CONTINUOUS
 10
7.379352
 20
0.969540
 30
0.000000
 11
7.386886
 21
1.006435
 31
0.000000
  0
LINE
  8
Default
 62
     5
  6
CONTINUOUS
 10
7.386886
 20
1.006435
 30
0.000000
 11
7.394568
 21
1.023994
 31
0.000000
  0
LINE
  8
Default
 62
     5
  6
CONTINUOUS
 10
7.394568
 20
1.023994
 30
0.000000
 11
7.399978
 21
1.027120
 31
0.000000
  0
LINE
  8
Default
 62
     5
  6
CONTINUOUS
 10
7.399978
 20
1.027120
 30
0.000000
 11
7.424241
 21
1.019909
 31
0.000000
  0
LINE
  8
Default
 62
     5
  6
CONTINUOUS
 10
7.424241
 20
1.019909
 30
0.000000
 11
7.449012
 21
1.004230
 31
0.000000
  0
LINE
  8
Default
 62
     5
  6
CONTINUOUS
 10
7.449012
 20
1.004230
 30
0.000000
 11
7.535370
 21
0.915858
 31
0.000000
  0
ARC
  8
Default
 62
     5
  6
CONTINUOUS
 10
6.700068
 20
0.263738
 30
0.000000
 40
1.059712
 50
19.161324
 51
37.979133
  0
ARC
  8
Default
 62
     5
  6
CONTINUOUS
 10
7.871545
 20
0.704721
 30
0.000000
 40
0.194267
 50
208.653912
 51
232.418069
  0
LINE
  8
Default
 62
     5
  6
CONTINUOUS
 10
7.753063
 20
0.550768
 30
0.000000
 11
7.821725
 21
0.518628
 31
0.000000
  0
ARC
  8
Default
 62
     5
  6
CONTINUOUS
 10
7.916349
 20
0.990710
 30
0.000000
 40
0.481472
 50
258.665911
 51
285.865039
  0
ARC
  8
Default
 62
     5
  6
CONTINUOUS
 10
7.964004
 20
0.932978
 30
0.000000
 40
0.414004
 50
281.701517
 51
325.232062
  0
LINE
  8
Default
 62
     5
  6
CONTINUOUS
 10
8.304095
 20
0.696890
 30
0.000000
 11
8.315594
 21
0.732585
 31
0.000000
  0
ARC
  8
Default
 62
     5
  6
CONTINUOUS
 10
8.019599
 20
0.717960
 30
0.000000
 40
0.296357
 50
2.828771
 51
29.342086
  0
LINE
  8
Default
 62
     5
  6
CONTINUOUS
 10
8.145354
 20
1.099033
 30
0.000000
 11
8.277936
 21
0.863181
 31
0.000000
  0
LINE
  8
Default
 62
     5
  6
CONTINUOUS
 10
8.145354
 20
1.099033
 30
0.000000
 11
8.076733
 21
1.171984
 31
0.000000
  0
ARC
  8
Default
 62
     5
  6
CONTINUOUS
 10
8.174956
 20
1.253870
 30
0.000000
 40
0.127879
 50
187.622535
 51
219.817173
  0
ARC
  8
Default
 62
     5
  6
CONTINUOUS
 10
8.083900
 20
1.243255
 30
0.000000
 40
0.036254
 50
117.564762
 51
190.084043
  0
LINE
  8
Default
 62
     5
  6
CONTINUOUS
 10
8.067124
 20
1.275393
 30
0.000000
 11
8.106704
 21
1.277840
 31
0.000000
  0
LINE
  8
Default
 62
     5
  6
CONTINUOUS
 10
8.106704
 20
1.277840
 30
0.000000
 11
8.161782
 21
1.259312
 31
0.000000
  0
ARC
  8
Default
 62
     5
  6
CONTINUOUS
 10
7.860072
 20
0.686505
 30
0.000000
 40
0.647408
 50
43.239820
 51
62.223236
  0
LINE
  8
Default
 62
     5
  6
CONTINUOUS
 10
8.331704
 20
1.130014
 30
0.000000
 11
8.332311
 21
1.129378
 31
0.000000
  0
LINE
  8
Default
 62
     5
  6
CONTINUOUS
 10
8.332311
 20
1.129378
 30
0.000000
 11
8.337708
 21
1.123723
 31
0.000000
  0
LINE
  8
Default
 62
     5
  6
CONTINUOUS
 10
8.337708
 20
1.123723
 30
0.000000
 11
8.440679
 21
1.015827
 31
0.000000
  0
LINE
  8
Default
 62
     5
  6
CONTINUOUS
 10
8.440679
 20
1.015827
 30
0.000000
 11
8.442702
 21
1.013707
 31
0.000000
  0
LINE
  8
Default
 62
     5
  6
CONTINUOUS
 10
8.442702
 20
1.013707
 30
0.000000
 11
8.442720
 21
1.013688
 31
0.000000
  0
LINE
  8
Default
 62
     5
  6
CONTINUOUS
 10
8.442720
 20
1.013688
 30
0.000000
 11
8.442721
 21
1.013687
 31
0.000000
  0
LINE
  8
Default
 62
     5
  6
CONTINUOUS
 10
8.442721
 20
1.013687
 30
0.000000
 11
8.442837
 21
1.013827
 31
0.000000
  0
LINE
  8
Default
 62
     5
  6
CONTINUOUS
 10
8.442837
 20
1.013827
 30
0.000000
 11
8.448103
 21
1.020191
 31
0.000000
  0
LINE
  8
Default
 62
     5
  6
CONTINUOUS
 10
8.448103
 20
1.020191
 30
0.000000
 11
8.512516
 21
1.098036
 31
0.000000
  0
LINE
  8
Default
 62
     5
  6
CONTINUOUS
 10
8.512516
 20
1.098036
 30
0.000000
 11
8.513069
 21
1.098703
 31
0.000000
  0
LINE
  8
Default
 62
     5
  6
CONTINUOUS
 10
8.513069
 20
1.098703
 30
0.000000
 11
8.513071
 21
1.098707
 31
0.000000
  0
LINE
  8
Default
 62
     5
  6
CONTINUOUS
 10
8.513071
 20
1.098707
 30
0.000000
 11
8.513117
 21
1.098762
 31
0.000000
  0
LINE
  8
Default
 62
     5
  6
CONTINUOUS
 10
8.513117
 20
1.098762
 30
0.000000
 11
8.560048
 21
1.169916
 31
0.000000
  0
LINE
  8
Default
 62
     5
  6
CONTINUOUS
 10
8.560048
 20
1.169916
 30
0.000000
 11
8.563402
 21
1.196638
 31
0.000000
  0
ARC
  8
Default
 62
     5
  6
CONTINUOUS
 10
8.198206
 20
1.110275
 30
0.000000
 40
0.375269
 50
13.305057
 51
66.574009
  0
ARC
  8
Default
 62
     5
  6
CONTINUOUS
 10
8.006446
 20
0.911753
 30
0.000000
 40
0.641050
 50
57.868288
 51
87.058961
  0
ARC
  8
Default
 62
     5
  6
CONTINUOUS
 10
8.025552
 20
1.767240
 30
0.000000
 40
0.215722
 50
246.612106
 51
273.663725
  0
ARC
  8
Default
 62
     5
  6
CONTINUOUS
 10
8.006478
 20
1.684871
 30
0.000000
 40
0.133416
 50
185.328453
 51
240.074577
  0
ARC
  8
Default
 62
     5
  6
CONTINUOUS
 10
9.017844
 20
1.872866
 30
0.000000
 40
1.161619
 50
175.431765
 51
189.933474
  0
ARC
  8
Default
 62
     5
  6
CONTINUOUS
 10
21.373594
 20
1.543637
 30
0.000000
 40
13.520258
 50
173.353052
 51
178.212438
  0
ARC
  8
Default
 62
     5
  6
CONTINUOUS
 10
13.402401
 20
2.472555
 30
0.000000
 40
5.495122
 50
163.175761
 51
173.353052
  0
LINE
  8
Default
 62
     5
  6
CONTINUOUS
 10
8.282151
 20
4.463688
 30
0.000000
 11
8.142485
 21
4.063045
 31
0.000000
  0
LINE
  8
Default
 62
     5
  6
CONTINUOUS
 10
8.282151
 20
4.463688
 30
0.000000
 11
8.336525
 21
4.677899
 31
0.000000
  0
ARC
  8
Default
 62
     5
  6
CONTINUOUS
 10
7.786868
 20
4.836387
 30
0.000000
 40
0.572050
 50
343.915572
 51
374.107396
  0
ARC
  8
Default
 62
     5
  6
CONTINUOUS
 10
8.284005
 20
4.958979
 30
0.000000
 40
0.060070
 50
16.280624
 51
60.145304
  0
LINE
  8
Default
 62
     5
  6
CONTINUOUS
 10
8.313907
 20
5.011077
 30
0.000000
 11
8.300222
 21
5.021040
 31
0.000000
  0
LINE
  8
Default
 62
     5
  6
CONTINUOUS
 10
8.300222
 20
5.021040
 30
0.000000
 11
8.296047
 21
5.061879
 31
0.000000
  0
LINE
  8
Default
 62
     5
  6
CONTINUOUS
 10
8.296047
 20
5.061879
 30
0.000000
 11
8.309046
 21
5.133946
 31
0.000000
  0
LINE
  8
Default
 62
     5
  6
CONTINUOUS
 10
8.309046
 20
5.133946
 30
0.000000
 11
8.381483
 21
5.377837
 31
0.000000
  0
ARC
  8
Default
 62
     5
  6
CONTINUOUS
 10
6.387862
 20
6.127275
 30
0.000000
 40
2.129831
 50
339.397864
 51
353.135180
  0
LINE
  8
Default
 62
     5
  6
CONTINUOUS
 10
8.502424
 20
5.872702
 30
0.000000
 11
8.506148
 21
6.223429
 31
0.000000
  0
LINE
  8
Default
 62
     5
  6
CONTINUOUS
 10
8.506148
 20
6.223429
 30
0.000000
 11
8.506146
 21
6.223793
 31
0.000000
  0
LINE
  8
Default
 62
     5
  6
CONTINUOUS
 10
8.506146
 20
6.223793
 30
0.000000
 11
8.506145
 21
6.223792
 31
0.000000
  0
LINE
  8
Default
 62
     5
  6
CONTINUOUS
 10
8.506145
 20
6.223792
 30
0.000000
 11
8.505305
 21
6.222908
 31
0.000000
  0
LINE
  8
Default
 62
     5
  6
CONTINUOUS
 10
8.505305
 20
6.222908
 30
0.000000
 11
8.498776
 21
6.216039
 31
0.000000
  0
LINE
  8
Default
 62
     5
  6
CONTINUOUS
 10
8.498776
 20
6.216039
 30
0.000000
 11
8.377992
 21
6.088952
 31
0.000000
  0
LINE
  8
Default
 62
     5
  6
CONTINUOUS
 10
8.377992
 20
6.088952
 30
0.000000
 11
8.371492
 21
6.082136
 31
0.000000
  0
LINE
  8
Default
 62
     5
  6
CONTINUOUS
 10
8.371492
 20
6.082136
 30
0.000000
 11
8.257331
 21
5.981834
 31
0.000000
  0
LINE
  8
Default
 62
     5
  6
CONTINUOUS
 10
8.257331
 20
5.981834
 30
0.000000
 11
8.235260
 21
5.970490
 31
0.000000
  0
LINE
  8
Default
 62
     5
  6
CONTINUOUS
 10
8.235260
 20
5.970490
 30
0.000000
 11
8.227212
 21
5.969313
 31
0.000000
  0
LINE
  8
Default
 62
     5
  6
CONTINUOUS
 10
8.227212
 20
5.969313
 30
0.000000
 11
8.221069
 21
5.975825
 31
0.000000
  0
LINE
  8
Default
 62
     5
  6
CONTINUOUS
 10
8.221069
 20
5.975825
 30
0.000000
 11
8.210482
 21
6.060728
 31
0.000000
  0
LINE
  8
Default
 62
     5
  6
CONTINUOUS
 10
8.210482
 20
6.060728
 30
0.000000
 11
8.184438
 21
6.872857
 31
0.000000
  0
ARC
  8
Default
 62
     5
  6
CONTINUOUS
 10
7.580838
 20
6.884028
 30
0.000000
 40
0.603704
 50
358.939770
 51
376.459001
  0
LINE
  8
Default
 62
     5
  6
CONTINUOUS
 10
8.159804
 20
7.055075
 30
0.000000
 11
8.144269
 21
7.098140
 31
0.000000
  0
LINE
  8
Default
 62
     5
  6
CONTINUOUS
 10
8.144269
 20
7.098140
 30
0.000000
 11
8.139691
 21
7.101898
 31
0.000000
  0
LINE
  8
Default
 62
     5
  6
CONTINUOUS
 10
8.139691
 20
7.101898
 30
0.000000
 11
8.132739
 21
7.093538
 31
0.000000
  0
LINE
  8
Default
 62
     5
  6
CONTINUOUS
 10
8.132739
 20
7.093538
 30
0.000000
 11
8.101623
 21
7.000590
 31
0.000000
  0
LINE
  8
Default
 62
     5
  6
CONTINUOUS
 10
8.101623
 20
7.000590
 30
0.000000
 11
8.074707
 21
6.965363
 31
0.000000
  0
LINE
  8
Default
 62
     5
  6
CONTINUOUS
 10
8.074707
 20
6.965363
 30
0.000000
 11
8.054577
 21
6.955537
 31
0.000000
  0
LINE
  8
Default
 62
     5
  6
CONTINUOUS
 10
8.054577
 20
6.955537
 30
0.000000
 11
8.016660
 21
6.970053
 31
0.000000
  0
LINE
  8
Default
 62
     5
  6
CONTINUOUS
 10
8.016660
 20
6.970053
 30
0.000000
 11
7.984696
 21
7.012553
 31
0.000000
  0
LINE
  8
Default
 62
     5
  6
CONTINUOUS
 10
7.984696
 20
7.012553
 30
0.000000
 11
7.954802
 21
7.075998
 31
0.000000
  0
LINE
  8
Default
 62
     5
  6
CONTINUOUS
 10
7.954802
 20
7.075998
 30
0.000000
 11
7.850120
 21
7.420357
 31
0.000000
  0
ARC
  8
Default
 62
     5
  6
CONTINUOUS
 10
0.208144
 20
4.748040
 30
0.000000
 40
8.095745
 50
19.274182
 51
23.371081
  0
LINE
  8
Default
 62
     5
  6
CONTINUOUS
 10
7.639673
 20
7.959498
 30
0.000000
 11
7.538664
 21
8.146256
 31
0.000000
  0
LINE
  8
Default
 62
     5
  6
CONTINUOUS
 10
7.538664
 20
8.146256
 30
0.000000
 11
7.483372
 21
8.222843
 31
0.000000
  0
LINE
  8
Default
 62
     5
  6
CONTINUOUS
 10
7.483372
 20
8.222843
 30
0.000000
 11
7.467147
 21
8.231171
 31
0.000000
  0
LINE
  8
Default
 62
     5
  6
CONTINUOUS
 10
7.467147
 20
8.231171
 30
0.000000
 11
7.467071
 21
8.231171
 31
0.000000
  0
ARC
  8
Default
 62
     5
  6
CONTINUOUS
 10
7.464554
 20
8.213376
 30
0.000000
 40
0.017972
 50
81.949785
 51
163.717729
  0
LINE
  8
Default
 62
     5
  6
CONTINUOUS
 10
7.447303
 20
8.218415
 30
0.000000
 11
7.458451
 21
8.180536
 31
0.000000
  0
LINE
  8
Default
 62
     5
  6
CONTINUOUS
 10
7.458451
 20
8.180536
 30
0.000000
 11
7.452234
 21
8.172766
 31
0.000000
  0
LINE
  8
Default
 62
     5
  6
CONTINUOUS
 10
7.452234
 20
8.172766
 30
0.000000
 11
7.421605
 21
8.177592
 31
0.000000
  0
LINE
  8
Default
 62
     5
  6
CONTINUOUS
 10
7.421605
 20
8.177592
 30
0.000000
 11
7.339353
 21
8.152655
 31
0.000000
  0
ARC
  8
Default
 62
     5
  6
CONTINUOUS
 10
8.283855
 20
6.387817
 30
0.000000
 40
2.001684
 50
118.154694
 51
131.463852
  0
LINE
  8
Default
 62
     5
  6
CONTINUOUS
 10
6.958446
 20
7.887826
 30
0.000000
 11
6.923309
 21
7.836174
 31
0.000000
  0
LINE
  8
Default
 62
     5
  6
CONTINUOUS
 10
6.923309
 20
7.836174
 30
0.000000
 11
6.916595
 21
7.801387
 31
0.000000
  0
ARC
  8
Default
 62
     5
  6
CONTINUOUS
 10
5.347212
 20
7.634316
 30
0.000000
 40
1.578252
 50
359.886770
 51
366.076618
  0
ARC
  8
Default
 62
     5
  6
CONTINUOUS
 10
6.274023
 20
7.711410
 30
0.000000
 40
0.656357
 50
319.025117
 51
352.980296
  0
ARC
  8
Default
 62
     5
  6
CONTINUOUS
 10
6.494922
 20
7.519556
 30
0.000000
 40
0.363774
 50
279.646999
 51
319.025117
  0
ARC
  8
Default
 62
     5
  6
CONTINUOUS
 10
6.506483
 20
7.503412
 30
0.000000
 40
0.346030
 50
249.049597
 51
278.207675
  0
ARC
  8
Default
 62
     5
  6
CONTINUOUS
 10
7.332498
 20
9.305620
 30
0.000000
 40
2.327912
 50
238.566395
 51
245.921999
  0
ARC
  8
Default
 62
     5
  6
CONTINUOUS
 10
5.918055
 20
6.936195
 30
0.000000
 40
0.432395
 50
62.387133
 51
88.611451
  0
ARC
  8
Default
 62
     5
  6
CONTINUOUS
 10
5.949379
 20
7.779419
 30
0.000000
 40
0.411484
 50
220.909329
 51
267.096076
  0
ARC
  8
Default
 62
     5
  6
CONTINUOUS
 10
6.892752
 20
8.787010
 30
0.000000
 40
1.790047
 50
212.954075
 51
225.513911
  0
ARC
  8
Default
 62
     5
  6
CONTINUOUS
 10
3.979940
 20
6.847598
 30
0.000000
 40
1.709627
 50
34.391981
 51
45.148605
  0
ARC
  8
Default
 62
     5
  6
CONTINUOUS
 10
4.824022
 20
7.696070
 30
0.000000
 40
0.512806
 50
45.148605
 51
63.356662
  0
ARC
  8
Default
 62
     5
  6
CONTINUOUS
 10
4.911205
 20
7.849990
 30
0.000000
 40
0.336252
 50
64.873738
 51
100.290266
  0
LINE
  8
Default
 62
     5
  6
CONTINUOUS
 10
4.851138
 20
8.180834
 30
0.000000
 11
4.667392
 21
8.156509
 31
0.000000
  0
LINE
  8
Default
 62
     5
  6
CONTINUOUS
 10
4.667392
 20
8.156509
 30
0.000000
 11
4.651242
 21
8.142186
 31
0.000000
  0
LINE
  8
Default
 62
     5
  6
CONTINUOUS
 10
4.651242
 20
8.142186
 30
0.000000
 11
4.655057
 21
8.118607
 31
0.000000
  0
LINE
  8
Default
 62
     5
  6
CONTINUOUS
 10
4.655057
 20
8.118607
 30
0.000000
 11
4.668656
 21
8.070567
 31
0.000000
  0
ARC
  8
Default
 62
     5
  6
CONTINUOUS
 10
4.327522
 20
8.067771
 30
0.000000
 40
0.341146
 50
336.861273
 51
360.469634
  0
ARC
  8
Default
 62
     5
  6
CONTINUOUS
 10
3.743490
 20
8.317348
 30
0.000000
 40
0.976269
 50
315.538908
 51
336.861273
  0
LINE
  8
Default
 62
     5
  6
CONTINUOUS
 10
4.428886
 20
7.605761
 30
0.000000
 11
4.440279
 21
7.633545
 31
0.000000
  0
LINE
  8
Default
 62
     5
  6
CONTINUOUS
 10
4.428886
 20
7.605761
 30
0.000000
 11
4.430651
 21
7.590587
 31
0.000000
  0
LINE
  8
Default
 62
     5
  6
CONTINUOUS
 10
4.430651
 20
7.590587
 30
0.000000
 11
4.461152
 21
7.570145
 31
0.000000
  0
ARC
  8
Default
 62
     5
  6
CONTINUOUS
 10
4.434966
 20
7.477953
 30
0.000000
 40
0.095839
 50
26.654002
 51
74.143262
  0
LINE
  8
Default
 62
     5
  6
CONTINUOUS
 10
4.520620
 20
7.520946
 30
0.000000
 11
4.526019
 21
7.500609
 31
0.000000
  0
LINE
  8
Default
 62
     5
  6
CONTINUOUS
 10
4.526019
 20
7.500609
 30
0.000000
 11
4.520516
 21
7.455281
 31
0.000000
  0
ARC
  8
Default
 62
     5
  6
CONTINUOUS
 10
4.159096
 20
7.591919
 30
0.000000
 40
0.386387
 50
322.028047
 51
339.290480
  0
ARC
  8
Default
 62
     5
  6
CONTINUOUS
 10
3.084796
 20
8.484427
 30
0.000000
 40
1.782917
 50
310.331196
 51
320.659435
  0
ARC
  8
Default
 62
     5
  6
CONTINUOUS
 10
5.941544
 20
5.119581
 30
0.000000
 40
2.631061
 50
130.331196
 51
141.930449
  0
LINE
  8
Default
 62
     5
  6
CONTINUOUS
 10
3.830514
 20
6.642845
 30
0.000000
 11
3.870208
 21
6.741939
 31
0.000000
  0
LINE
  8
Default
 62
     5
  6
CONTINUOUS
 10
3.830514
 20
6.642845
 30
0.000000
 11
3.833886
 21
6.639871
 31
0.000000
  0
LINE
  8
Default
 62
     5
  6
CONTINUOUS
 10
3.833886
 20
6.639871
 30
0.000000
 11
3.894935
 21
6.626110
 31
0.000000
  0
LINE
  8
Default
 62
     5
  6
CONTINUOUS
 10
3.894935
 20
6.626110
 30
0.000000
 11
4.148214
 21
6.592340
 31
0.000000
  0
LINE
  8
Default
 62
     5
  6
CONTINUOUS
 10
4.148214
 20
6.592340
 30
0.000000
 11
4.220128
 21
6.576064
 31
0.000000
  0
LINE
  8
Default
 62
     5
  6
CONTINUOUS
 10
4.220128
 20
6.576064
 30
0.000000
 11
4.242911
 21
6.563582
 31
0.000000
  0
LINE
  8
Default
 62
     5
  6
CONTINUOUS
 10
4.242911
 20
6.563582
 30
0.000000
 11
4.243565
 21
6.544920
 31
0.000000
  0
ARC
  8
Default
 62
     5
  6
CONTINUOUS
 10
3.940262
 20
6.646375
 30
0.000000
 40
0.319821
 50
318.924686
 51
341.504842
  0
ARC
  8
Default
 62
     5
  6
CONTINUOUS
 10
6.538478
 20
4.461523
 30
0.000000
 40
3.074981
 50
140.044893
 51
154.579533
  0
ARC
  8
Default
 62
     5
  6
CONTINUOUS
 10
4.609778
 20
5.503897
 30
0.000000
 40
0.892815
 50
161.885913
 51
177.288137
  0
ARC
  8
Default
 62
     5
  6
CONTINUOUS
 10
6.709909
 20
5.404422
 30
0.000000
 40
2.995302
 50
177.288137
 51
191.984353
  0
ARC
  8
Default
 62
     5
  6
CONTINUOUS
 10
8.835423
 20
5.855607
 30
0.000000
 40
5.168174
 50
191.984353
 51
200.777761
  0
ARC
  8
Default
 62
     5
  6
CONTINUOUS
 10
-0.613381
 20
2.644723
 30
0.000000
 40
4.817873
 50
8.044892
 51
16.613584
  0
ARC
  8
Default
 62
     5
  6
CONTINUOUS
 10
-5.261059
 20
1.987820
 30
0.000000
 40
9.511745
 50
2.854150
 51
8.044892
  0
ARC
  8
Default
 62
     5
  6
CONTINUOUS
 10
-0.611546
 20
1.992669
 30
0.000000
 40
4.873033
 50
356.042525
 51
365.520288
  0
LINE
  8
Default
 62
     5
  6
CONTINUOUS
 10
4.249867
 20
1.656351
 30
0.000000
 11
4.239092
 21
1.600376
 31
0.000000
  0
LINE
  8
Default
 62
     5
  6
CONTINUOUS
 10
4.239092
 20
1.600376
 30
0.000000
 11
4.231085
 21
1.588916
 31
0.000000
  0
ARC
  8
Default
 62
     5
  6
CONTINUOUS
 10
4.130543
 20
1.720982
 30
0.000000
 40
0.165983
 50
272.081689
 51
307.282208
  0
LINE
  8
Default
 62
     5
  6
CONTINUOUS
 10
4.136572
 20
1.555109
 30
0.000000
 11
4.091440
 21
1.552498
 31
0.000000
  0
ARC
  8
Default
 62
     5
  6
CONTINUOUS
 10
4.097325
 20
1.005216
 30
0.000000
 40
0.547314
 50
90.616069
 51
108.441170
  0
ARC
  8
Default
 62
     5
  6
CONTINUOUS
 10
4.074746
 20
0.984616
 30
0.000000
 40
0.560410
 50
105.583826
 51
142.906691
  0
ARC
  8
Default
 62
     5
  6
CONTINUOUS
 10
3.766420
 20
1.176408
 30
0.000000
 40
0.201516
 50
133.489530
 51
173.254100
  0
ARC
  8
Default
 62
     5
  6
CONTINUOUS
 10
3.824020
 20
1.239032
 30
0.000000
 40
0.260648
 50
188.594745
 51
233.566822
  0
LINE
  8
Default
 62
     5
  6
CONTINUOUS
 10
3.669225
 20
1.029327
 30
0.000000
 11
3.684376
 21
1.033069
 31
0.000000
  0
LINE
  8
Default
 62
     5
  6
CONTINUOUS
 10
3.684376
 20
1.033069
 30
0.000000
 11
3.728723
 21
1.082092
 31
0.000000
  0
ARC
  8
Default
 62
     5
  6
CONTINUOUS
 10
4.207562
 20
0.695318
 30
0.000000
 40
0.615533
 50
114.497955
 51
141.071030
  0
LINE
  8
Default
 62
     5
  6
CONTINUOUS
 10
3.952325
 20
1.255438
 30
0.000000
 11
4.026796
 21
1.278208
 31
0.000000
  0
LINE
  8
Default
 62
     5
  6
CONTINUOUS
 10
4.026796
 20
1.278208
 30
0.000000
 11
4.044405
 21
1.276847
 31
0.000000
  0
LINE
  8
Default
 62
     5
  6
CONTINUOUS
 10
4.044405
 20
1.276847
 30
0.000000
 11
4.055682
 21
1.268913
 31
0.000000
  0
ARC
  8
Default
 62
     5
  6
CONTINUOUS
 10
3.991019
 20
1.247004
 30
0.000000
 40
0.068273
 50
315.927034
 51
378.717494
  0
LINE
  8
Default
 62
     5
  6
CONTINUOUS
 10
4.040070
 20
1.199515
 30
0.000000
 11
4.039801
 21
1.199157
 31
0.000000
  0
ARC
  8
Default
 62
     5
  6
CONTINUOUS
 10
4.414186
 20
0.780017
 30
0.000000
 40
0.561998
 50
131.771886
 51
181.681317
  0
ARC
  8
Default
 62
     5
  6
CONTINUOUS
 10
4.036204
 20
0.734019
 30
0.000000
 40
0.186129
 50
170.878094
 51
207.607008
  0
LINE
  8
Default
 62
     5
  6
CONTINUOUS
 10
3.871267
 20
0.647766
 30
0.000000
 11
3.904169
 21
0.612502
 31
0.000000
  0
ARC
  8
Default
 62
     5
  6
CONTINUOUS
 10
4.292554
 20
1.207094
 30
0.000000
 40
0.710199
 50
236.847569
 51
254.853640
  0
ARC
  8
Default
 62
     5
  6
CONTINUOUS
 10
4.220271
 20
0.805667
 30
0.000000
 40
0.305853
 50
248.260951
 51
296.061177
  0
ARC
  8
Default
 62
     5
  6
CONTINUOUS
 10
1.698582
 20
8.786526
 30
0.000000
 40
2.837787
 50
306.736027
 51
323.585162
  0
ARC
  8
Default
 62
     5
  6
CONTINUOUS
 10
2.837676
 20
7.871985
 30
0.000000
 40
1.379511
 50
326.068428
 51
348.679957
  0
ARC
  8
Default
 62
     5
  6
CONTINUOUS
 10
-0.051289
 20
8.450308
 30
0.000000
 40
4.325793
 50
348.679957
 51
364.540902
  0
LINE
  8
Default
 62
     5
  6
CONTINUOUS
 10
4.168768
 20
9.953165
 30
0.000000
 11
4.260925
 21
8.792784
 31
0.000000
  0
LINE
  8
Default
 62
     5
  6
CONTINUOUS
 10
4.168768
 20
9.953165
 30
0.000000
 11
4.165910
 21
10.123462
 31
0.000000
  0
LINE
  8
Default
 62
     5
  6
CONTINUOUS
 10
4.165910
 20
10.123462
 30
0.000000
 11
4.165855
 21
10.125989
 31
0.000000
  0
LINE
  8
Default
 62
     5
  6
CONTINUOUS
 10
4.165855
 20
10.125989
 30
0.000000
 11
4.165855
 21
10.125990
 31
0.000000
  0
LINE
  8
Default
 62
     5
  6
CONTINUOUS
 10
4.165855
 20
10.125990
 30
0.000000
 11
4.165854
 21
10.125984
 31
0.000000
  0
LINE
  8
Default
 62
     5
  6
CONTINUOUS
 10
4.165854
 20
10.125984
 30
0.000000
 11
4.165657
 21
10.124563
 31
0.000000
  0
LINE
  8
Default
 62
     5
  6
CONTINUOUS
 10
4.165657
 20
10.124563
 30
0.000000
 11
4.164035
 21
10.112859
 31
0.000000
  0
LINE
  8
Default
 62
     5
  6
CONTINUOUS
 10
4.164035
 20
10.112859
 30
0.000000
 11
4.126900
 21
9.851788
 31
0.000000
  0
ARC
  8
Default
 62
     5
  6
CONTINUOUS
 10
6.753522
 20
9.578700
 30
0.000000
 40
2.640780
 50
174.064336
 51
182.009220
  0
ARC
  8
Default
 62
     5
  6
CONTINUOUS
 10
-20.370448
 20
7.079161
 30
0.000000
 40
24.602836
 50
3.795195
 51
5.614361
  0
ARC
  8
Default
 62
     5
  6
CONTINUOUS
 10
1.510500
 20
8.435601
 30
0.000000
 40
2.681766
 50
358.172357
 51
365.821863
  0
ARC
  8
Default
 62
     5
  6
CONTINUOUS
 10
0.959836
 20
8.453172
 30
0.000000
 40
3.232710
 50
342.867236
 51
358.172357
  0
ARC
  8
Default
 62
     5
  6
CONTINUOUS
 10
2.870220
 20
7.825474
 30
0.000000
 40
1.222751
 50
329.043370
 51
344.604544
  0
ARC
  8
Default
 62
     5
  6
CONTINUOUS
 10
2.550427
 20
8.017295
 30
0.000000
 40
1.595662
 50
313.525351
 51
329.043370
  0
LINE
  8
Default
 62
     5
  6
CONTINUOUS
 10
3.093279
 20
6.332197
 30
0.000000
 11
3.649321
 21
6.860329
 31
0.000000
  0
LINE
  8
Default
 62
     5
  6
CONTINUOUS
 10
3.093279
 20
6.332197
 30
0.000000
 11
3.073949
 21
6.301038
 31
0.000000
  0
LINE
  8
Default
 62
     5
  6
CONTINUOUS
 10
3.073949
 20
6.301038
 30
0.000000
 11
3.395945
 21
6.512325
 31
0.000000
  0
ARC
  8
Default
 62
     5
  6
CONTINUOUS
 10
14.231177
 20
9.048056
 30
0.000000
 40
6.020619
 50
193.691593
 51
202.284499
  0
ARC
  8
Default
 62
     5
  6
CONTINUOUS
 10
12.218910
 20
8.669899
 30
0.000000
 40
3.977514
 50
183.369087
 51
195.260252
  0
LINE
  8
Default
 62
     5
  6
CONTINUOUS
 10
8.248270
 20
8.436149
 30
0.000000
 11
8.194151
 21
9.355447
 31
0.000000
  0
ARC
  8
Default
 62
     5
  6
CONTINUOUS
 10
1.246309
 20
8.946431
 30
0.000000
 40
6.959871
 50
3.369087
 51
9.569934
  0
ARC
  8
Default
 62
     5
  6
CONTINUOUS
 10
4.647631
 20
9.519886
 30
0.000000
 40
3.510546
 50
9.569934
 51
21.662424
  0
LINE
  8
Default
 62
     5
  6
CONTINUOUS
 10
7.847249
 20
10.945081
 30
0.000000
 11
7.910244
 21
10.815760
 31
0.000000
  0
LINE
  8
Default
 62
     5
  6
CONTINUOUS
 10
7.847249
 20
10.945081
 30
0.000000
 11
7.838232
 21
10.953602
 31
0.000000
  0
LINE
  8
Default
 62
     5
  6
CONTINUOUS
 10
7.838232
 20
10.953602
 30
0.000000
 11
7.832207
 21
10.948393
 31
0.000000
  0
LINE
  8
Default
 62
     5
  6
CONTINUOUS
 10
7.832207
 20
10.948393
 30
0.000000
 11
7.925338
 21
10.568351
 31
0.000000
  0
ARC
  8
Default
 62
     5
  6
CONTINUOUS
 10
-0.114783
 20
8.598074
 30
0.000000
 40
8.278015
 50
4.176768
 51
13.769306
  0
ARC
  8
Default
 62
     5
  6
CONTINUOUS
 10
-17.779927
 20
7.308028
 30
0.000000
 40
25.990201
 50
2.033695
 51
4.176768
  0
ARC
  8
Default
 62
     5
  6
CONTINUOUS
 10
10.858679
 20
8.273127
 30
0.000000
 40
2.665118
 50
180.919718
 51
191.752332
  0
ARC
  8
Default
 62
     5
  6
CONTINUOUS
 10
11.169291
 20
8.337748
 30
0.000000
 40
2.982381
 50
191.752332
 51
204.435596
  0
ARC
  8
Default
 62
     5
  6
CONTINUOUS
 10
13.883111
 20
9.344066
 30
0.000000
 40
5.873029
 50
202.421135
 51
207.614238
  0
LINE
  8
Default
 62
     5
  6
CONTINUOUS
 10
8.679088
 20
6.621822
 30
0.000000
 11
8.729986
 21
6.533743
 31
0.000000
  0
LINE
  8
Default
 62
     5
  6
CONTINUOUS
 10
8.729986
 20
6.533743
 30
0.000000
 11
8.754059
 21
6.505767
 31
0.000000
  0
LINE
  8
Default
 62
     5
  6
CONTINUOUS
 10
8.754059
 20
6.505767
 30
0.000000
 11
8.660225
 21
6.765002
 31
0.000000
  0
LINE
  8
Default
 62
     5
  6
CONTINUOUS
 10
6.678926
 20
7.379970
 30
0.000000
 11
6.680435
 21
7.482796
 31
0.000000
  0
LINE
  8
Default
 62
     5
  6
CONTINUOUS
 10
6.680435
 20
7.482796
 30
0.000000
 11
6.637850
 21
7.798736
 31
0.000000
  0
LINE
  8
Default
 62
     5
  6
CONTINUOUS
 10
6.637850
 20
7.798736
 30
0.000000
 11
6.642638
 21
7.872123
 31
0.000000
  0
ARC
  8
Default
 62
     5
  6
CONTINUOUS
 10
6.969637
 20
7.821788
 30
0.000000
 40
0.330851
 50
144.346492
 51
171.249258
  0
LINE
  8
Default
 62
     5
  6
CONTINUOUS
 10
6.700802
 20
8.014635
 30
0.000000
 11
6.943662
 21
8.312493
 31
0.000000
  0
ARC
  8
Default
 62
     5
  6
CONTINUOUS
 10
6.496224
 20
8.657776
 30
0.000000
 40
0.565173
 50
322.343008
 51
342.391057
  0
ARC
  8
Default
 62
     5
  6
CONTINUOUS
 10
6.468058
 20
8.666716
 30
0.000000
 40
0.594724
 50
342.391057
 51
358.094804
  0
LINE
  8
Default
 62
     5
  6
CONTINUOUS
 10
7.082753
 20
8.766385
 30
0.000000
 11
7.062454
 21
8.646944
 31
0.000000
  0
LINE
  8
Default
 62
     5
  6
CONTINUOUS
 10
7.082753
 20
8.766385
 30
0.000000
 11
7.088863
 21
8.773746
 31
0.000000
  0
LINE
  8
Default
 62
     5
  6
CONTINUOUS
 10
7.088863
 20
8.773746
 30
0.000000
 11
7.102721
 21
8.773748
 31
0.000000
  0
LINE
  8
Default
 62
     5
  6
CONTINUOUS
 10
7.102721
 20
8.773748
 30
0.000000
 11
7.112931
 21
8.781048
 31
0.000000
  0
LINE
  8
Default
 62
     5
  6
CONTINUOUS
 10
7.112931
 20
8.781048
 30
0.000000
 11
7.189798
 21
8.905441
 31
0.000000
  0
ARC
  8
Default
 62
     5
  6
CONTINUOUS
 10
5.574763
 20
9.737853
 30
0.000000
 40
1.816933
 50
332.732762
 51
351.912534
  0
LINE
  8
Default
 62
     5
  6
CONTINUOUS
 10
7.373626
 20
9.482238
 30
0.000000
 11
7.394178
 21
9.830522
 31
0.000000
  0
LINE
  8
Default
 62
     5
  6
CONTINUOUS
 10
7.394178
 20
9.830522
 30
0.000000
 11
7.386042
 21
9.889321
 31
0.000000
  0
LINE
  8
Default
 62
     5
  6
CONTINUOUS
 10
7.386042
 20
9.889321
 30
0.000000
 11
7.371343
 21
9.918263
 31
0.000000
  0
LINE
  8
Default
 62
     5
  6
CONTINUOUS
 10
7.371343
 20
9.918263
 30
0.000000
 11
7.349615
 21
9.917307
 31
0.000000
  0
ARC
  8
Default
 62
     5
  6
CONTINUOUS
 10
7.524955
 20
9.505233
 30
0.000000
 40
0.447827
 50
113.050073
 51
153.367153
  0
ARC
  8
Default
 62
     5
  6
CONTINUOUS
 10
6.993974
 20
9.752193
 30
0.000000
 40
0.138601
 50
296.015243
 51
340.523776
  0
ARC
  8
Default
 62
     5
  6
CONTINUOUS
 10
7.020323
 20
9.705653
 30
0.000000
 40
0.085283
 50
201.920432
 51
293.820200
  0
ARC
  8
Default
 62
     5
  6
CONTINUOUS
 10
6.881566
 20
9.599777
 30
0.000000
 40
0.095071
 50
51.148254
 51
103.420547
  0
ARC
  8
Default
 62
     5
  6
CONTINUOUS
 10
6.910253
 20
9.479555
 30
0.000000
 40
0.218668
 50
103.420547
 51
148.524972
  0
ARC
  8
Default
 62
     5
  6
CONTINUOUS
 10
7.135432
 20
9.368416
 30
0.000000
 40
0.469298
 50
151.307872
 51
168.347706
  0
ARC
  8
Default
 62
     5
  6
CONTINUOUS
 10
9.279878
 20
8.757896
 30
0.000000
 40
2.697898
 50
164.845204
 51
172.088911
  0
LINE
  8
Default
 62
     5
  6
CONTINUOUS
 10
6.607657
 20
9.129224
 30
0.000000
 11
6.565311
 21
8.893546
 31
0.000000
  0
LINE
  8
Default
 62
     5
  6
CONTINUOUS
 10
6.565311
 20
8.893546
 30
0.000000
 11
6.553657
 21
8.871408
 31
0.000000
  0
LINE
  8
Default
 62
     5
  6
CONTINUOUS
 10
6.553657
 20
8.871408
 30
0.000000
 11
6.550426
 21
8.869028
 31
0.000000
  0
LINE
  8
Default
 62
     5
  6
CONTINUOUS
 10
6.550426
 20
8.869028
 30
0.000000
 11
6.302042
 21
9.097561
 31
0.000000
  0
LINE
  8
Default
 62
     5
  6
CONTINUOUS
 10
6.302042
 20
9.097561
 30
0.000000
 11
6.232130
 21
9.141548
 31
0.000000
  0
LINE
  8
Default
 62
     5
  6
CONTINUOUS
 10
6.232130
 20
9.141548
 30
0.000000
 11
6.210489
 21
9.147453
 31
0.000000
  0
LINE
  8
Default
 62
     5
  6
CONTINUOUS
 10
6.210489
 20
9.147453
 30
0.000000
 11
6.200506
 21
9.146022
 31
0.000000
  0
LINE
  8
Default
 62
     5
  6
CONTINUOUS
 10
6.200506
 20
9.146022
 30
0.000000
 11
6.178675
 21
9.137890
 31
0.000000
  0
LINE
  8
Default
 62
     5
  6
CONTINUOUS
 10
6.178675
 20
9.137890
 30
0.000000
 11
6.175371
 21
9.141500
 31
0.000000
  0
LINE
  8
Default
 62
     5
  6
CONTINUOUS
 10
6.175371
 20
9.141500
 30
0.000000
 11
6.186471
 21
9.174056
 31
0.000000
  0
ARC
  8
Default
 62
     5
  6
CONTINUOUS
 10
5.927675
 20
9.125510
 30
0.000000
 40
0.263310
 50
10.624297
 51
56.336300
  0
LINE
  8
Default
 62
     5
  6
CONTINUOUS
 10
6.073632
 20
9.344664
 30
0.000000
 11
6.040898
 21
9.352347
 31
0.000000
  0
ARC
  8
Default
 62
     5
  6
CONTINUOUS
 10
6.090609
 20
9.002284
 30
0.000000
 40
0.353575
 50
98.082348
 51
118.514249
  0
ARC
  8
Default
 62
     5
  6
CONTINUOUS
 10
5.878714
 20
9.489242
 30
0.000000
 40
0.181466
 50
244.796420
 51
283.741490
  0
ARC
  8
Default
 62
     5
  6
CONTINUOUS
 10
6.914546
 20
11.690139
 30
0.000000
 40
2.613933
 50
236.067228
 51
244.796420
  0
LINE
  8
Default
 62
     5
  6
CONTINUOUS
 10
5.380910
 20
9.588960
 30
0.000000
 11
5.455397
 21
9.521377
 31
0.000000
  0
ARC
  8
Default
 62
     5
  6
CONTINUOUS
 10
5.742280
 20
9.884020
 30
0.000000
 40
0.466528
 50
198.885099
 51
219.231800
  0
LINE
  8
Default
 62
     5
  6
CONTINUOUS
 10
5.300865
 20
9.733018
 30
0.000000
 11
5.273447
 21
9.768486
 31
0.000000
  0
LINE
  8
Default
 62
     5
  6
CONTINUOUS
 10
5.273447
 20
9.768486
 30
0.000000
 11
5.261023
 21
9.767982
 31
0.000000
  0
LINE
  8
Default
 62
     5
  6
CONTINUOUS
 10
5.261023
 20
9.767982
 30
0.000000
 11
5.247670
 21
9.733774
 31
0.000000
  0
LINE
  8
Default
 62
     5
  6
CONTINUOUS
 10
5.247670
 20
9.733774
 30
0.000000
 11
5.243069
 21
9.695456
 31
0.000000
  0
LINE
  8
Default
 62
     5
  6
CONTINUOUS
 10
5.243069
 20
9.695456
 30
0.000000
 11
5.265591
 21
9.458109
 31
0.000000
  0
ARC
  8
Default
 62
     5
  6
CONTINUOUS
 10
-12.794630
 20
7.095846
 30
0.000000
 40
18.214057
 50
4.471997
 51
7.451941
  0
ARC
  8
Default
 62
     5
  6
CONTINUOUS
 10
6.307160
 20
8.644209
 30
0.000000
 40
0.951854
 50
187.739129
 51
201.908020
  0
ARC
  8
Default
 62
     5
  6
CONTINUOUS
 10
11.445632
 20
10.940246
 30
0.000000
 40
6.579387
 50
203.762987
 51
208.896322
  0
LINE
  8
Default
 62
     5
  6
CONTINUOUS
 10
5.685408
 20
7.760915
 30
0.000000
 11
5.830026
 21
7.533560
 31
0.000000
  0
LINE
  8
Default
 62
     5
  6
CONTINUOUS
 10
5.830026
 20
7.533560
 30
0.000000
 11
5.851075
 21
7.529119
 31
0.000000
  0
ARC
  8
Default
 62
     5
  6
CONTINUOUS
 10
5.824339
 20
7.672935
 30
0.000000
 40
0.146280
 50
280.530973
 51
327.144309
  0
LINE
  8
Default
 62
     5
  6
CONTINUOUS
 10
5.947220
 20
7.593574
 30
0.000000
 11
5.947324
 21
7.593700
 31
0.000000
  0
LINE
  8
Default
 62
     5
  6
CONTINUOUS
 10
5.947324
 20
7.593700
 30
0.000000
 11
6.019211
 21
7.680573
 31
0.000000
  0
LINE
  8
Default
 62
     5
  6
CONTINUOUS
 10
6.019211
 20
7.680573
 30
0.000000
 11
6.019351
 21
7.680742
 31
0.000000
  0
LINE
  8
Default
 62
     5
  6
CONTINUOUS
 10
6.019351
 20
7.680742
 30
0.000000
 11
6.019386
 21
7.680709
 31
0.000000
  0
LINE
  8
Default
 62
     5
  6
CONTINUOUS
 10
6.019386
 20
7.680709
 30
0.000000
 11
6.021044
 21
7.679148
 31
0.000000
  0
LINE
  8
Default
 62
     5
  6
CONTINUOUS
 10
6.021044
 20
7.679148
 30
0.000000
 11
6.035911
 21
7.665156
 31
0.000000
  0
ARC
  8
Default
 62
     5
  6
CONTINUOUS
 10
8.052342
 20
9.623976
 30
0.000000
 40
2.811222
 50
224.169698
 51
232.687079
  0
LINE
  8
Default
 62
     5
  6
CONTINUOUS
 10
6.348270
 20
7.388108
 30
0.000000
 11
6.411454
 21
7.352806
 31
0.000000
  0
ARC
  8
Default
 62
     5
  6
CONTINUOUS
 10
6.541561
 20
7.813532
 30
0.000000
 40
0.478745
 50
254.230519
 51
275.250190
  0
ARC
  8
Default
 62
     5
  6
CONTINUOUS
 10
6.597597
 20
7.433251
 30
0.000000
 40
0.097227
 50
262.774594
 51
326.770039
  0
ARC
  8
Default
 62
     5
  6
CONTINUOUS
 10
6.265031
 20
10.159300
 30
0.000000
 40
0.240803
 50
293.853084
 51
376.685029
  0
ARC
  8
Default
 62
     5
  6
CONTINUOUS
 10
5.994752
 20
10.078289
 30
0.000000
 40
0.522961
 50
16.685029
 51
61.933089
  0
ARC
  8
Default
 62
     5
  6
CONTINUOUS
 10
5.969732
 20
10.122355
 30
0.000000
 40
0.497694
 50
56.998552
 51
97.807672
  0
ARC
  8
Default
 62
     5
  6
CONTINUOUS
 10
6.065579
 20
10.014206
 30
0.000000
 40
0.623053
 50
105.209503
 51
155.806990
  0
ARC
  8
Default
 62
     5
  6
CONTINUOUS
 10
5.711648
 20
10.187521
 30
0.000000
 40
0.229553
 50
159.065410
 51
199.333689
  0
ARC
  8
Default
 62
     5
  6
CONTINUOUS
 10
5.786268
 20
10.236281
 30
0.000000
 40
0.316824
 50
203.189773
 51
253.749180
  0
LINE
  8
Default
 62
     5
  6
CONTINUOUS
 10
5.697607
 20
9.932115
 30
0.000000
 11
5.833804
 21
9.895082
 31
0.000000
  0
ARC
  8
Default
 62
     5
  6
CONTINUOUS
 10
6.014476
 20
11.111429
 30
0.000000
 40
1.229692
 50
261.551278
 51
279.464095
  0
LINE
  8
Default
 62
     5
  6
CONTINUOUS
 10
6.216673
 20
9.898474
 30
0.000000
 11
6.329544
 21
9.925364
 31
0.000000
  0
LINE
  8
Default
 62
     5
  6
CONTINUOUS
 10
6.329544
 20
9.925364
 30
0.000000
 11
6.362410
 21
9.939065
 31
0.000000
  0
LINE
  8
Default
 62
     5
  6
CONTINUOUS
 10
5.367559
 20
10.398018
 30
0.000000
 11
5.629832
 21
10.652476
 31
0.000000
  0
LINE
  8
Default
 62
     5
  6
CONTINUOUS
 10
5.629832
 20
10.652476
 30
0.000000
 11
5.738892
 21
10.727756
 31
0.000000
  0
ARC
  8
Default
 62
     5
  6
CONTINUOUS
 10
5.929997
 20
10.406892
 30
0.000000
 40
0.373464
 50
95.817740
 51
120.777867
  0
ARC
  8
Default
 62
     5
  6
CONTINUOUS
 10
5.973375
 20
10.106647
 30
0.000000
 40
0.676679
 50
73.985392
 51
96.894853
  0
LINE
  8
Default
 62
     5
  6
CONTINUOUS
 10
6.160059
 20
10.757065
 30
0.000000
 11
6.269942
 21
10.708142
 31
0.000000
  0
LINE
  8
Default
 62
     5
  6
CONTINUOUS
 10
6.269942
 20
10.708142
 30
0.000000
 11
6.338598
 21
10.666751
 31
0.000000
  0
LINE
  8
Default
 62
     5
  6
CONTINUOUS
 10
6.338598
 20
10.666751
 30
0.000000
 11
6.723330
 21
10.370189
 31
0.000000
  0
LINE
  8
Default
 62
     5
  6
CONTINUOUS
 10
6.723330
 20
10.370189
 30
0.000000
 11
6.875523
 21
10.256007
 31
0.000000
  0
LINE
  8
Default
 62
     5
  6
CONTINUOUS
 10
6.875523
 20
10.256007
 30
0.000000
 11
6.903801
 21
10.241487
 31
0.000000
  0
LINE
  8
Default
 62
     5
  6
CONTINUOUS
 10
6.903801
 20
10.241487
 30
0.000000
 11
6.951678
 21
10.217301
 31
0.000000
  0
LINE
  8
Default
 62
     5
  6
CONTINUOUS
 10
6.951678
 20
10.217301
 30
0.000000
 11
7.023183
 21
10.199301
 31
0.000000
  0
ARC
  8
Default
 62
     5
  6
CONTINUOUS
 10
7.026328
 20
10.332937
 30
0.000000
 40
0.133673
 50
268.651703
 51
315.402568
  0
ARC
  8
Default
 62
     5
  6
CONTINUOUS
 10
6.818724
 20
10.567778
 30
0.000000
 40
0.446901
 50
312.650498
 51
333.361139
  0
LINE
  8
Default
 62
     5
  6
CONTINUOUS
 10
7.218187
 20
10.367403
 30
0.000000
 11
7.234136
 21
10.418570
 31
0.000000
  0
LINE
  8
Default
 62
     5
  6
CONTINUOUS
 10
7.234136
 20
10.418570
 30
0.000000
 11
7.244909
 21
10.498513
 31
0.000000
  0
LINE
  8
Default
 62
     5
  6
CONTINUOUS
 10
7.244909
 20
10.498513
 30
0.000000
 11
7.257338
 21
10.758718
 31
0.000000
  0
LINE
  8
Default
 62
     5
  6
CONTINUOUS
 10
7.257338
 20
10.758718
 30
0.000000
 11
7.256420
 21
12.277850
 31
0.000000
  0
ARC
  8
Default
 62
     5
  6
CONTINUOUS
 10
5.009959
 20
12.276492
 30
0.000000
 40
2.246461
 50
0.034623
 51
11.065270
  0
ARC
  8
Default
 62
     5
  6
CONTINUOUS
 10
5.043360
 20
12.130936
 30
0.000000
 40
2.246581
 50
14.874768
 51
26.120394
  0
ARC
  8
Default
 62
     5
  6
CONTINUOUS
 10
5.853148
 20
12.490497
 30
0.000000
 40
1.361613
 50
27.537608
 51
44.507261
  0
ARC
  8
Default
 62
     5
  6
CONTINUOUS
 10
9.315691
 20
16.091752
 30
0.000000
 40
3.634956
 50
218.210001
 51
226.730882
  0
LINE
  8
Default
 62
     5
  6
CONTINUOUS
 10
6.459528
 20
13.843367
 30
0.000000
 11
6.369367
 21
13.969553
 31
0.000000
  0
ARC
  8
Default
 62
     5
  6
CONTINUOUS
 10
7.828543
 20
14.652310
 30
0.000000
 40
1.611009
 50
194.454032
 51
205.075153
  0
LINE
  8
Default
 62
     5
  6
CONTINUOUS
 10
6.268525
 20
14.250197
 30
0.000000
 11
6.233282
 21
14.429440
 31
0.000000
  0
LINE
  8
Default
 62
     5
  6
CONTINUOUS
 10
6.233282
 20
14.429440
 30
0.000000
 11
6.209913
 21
14.797720
 31
0.000000
  0
ARC
  8
Default
 62
     5
  6
CONTINUOUS
 10
13.863689
 20
14.667790
 30
0.000000
 40
7.654878
 50
173.205203
 51
179.027438
  0
LINE
  8
Default
 62
     5
  6
CONTINUOUS
 10
6.262577
 20
15.573467
 30
0.000000
 11
6.272696
 21
15.909412
 31
0.000000
  0
LINE
  8
Default
 62
     5
  6
CONTINUOUS
 10
6.272696
 20
15.909412
 30
0.000000
 11
6.248645
 21
15.923718
 31
0.000000
  0
LINE
  8
Default
 62
     5
  6
CONTINUOUS
 10
6.248645
 20
15.923718
 30
0.000000
 11
6.194421
 21
15.939238
 31
0.000000
  0
LINE
  8
Default
 62
     5
  6
CONTINUOUS
 10
6.194421
 20
15.939238
 30
0.000000
 11
5.985302
 21
15.952173
 31
0.000000
  0
ARC
  8
Default
 62
     5
  6
CONTINUOUS
 10
5.965673
 20
15.410374
 30
0.000000
 40
0.542155
 50
87.925182
 51
108.959602
  0
LINE
  8
Default
 62
     5
  6
CONTINUOUS
 10
5.789526
 20
15.923116
 30
0.000000
 11
5.745172
 21
15.892161
 31
0.000000
  0
LINE
  8
Default
 62
     5
  6
CONTINUOUS
 10
5.745172
 20
15.892161
 30
0.000000
 11
5.720707
 21
15.851921
 31
0.000000
  0
LINE
  8
Default
 62
     5
  6
CONTINUOUS
 10
5.720707
 20
15.851921
 30
0.000000
 11
5.716269
 21
15.825746
 31
0.000000
  0
LINE
  8
Default
 62
     5
  6
CONTINUOUS
 10
5.716269
 20
15.825746
 30
0.000000
 11
5.728205
 21
15.677484
 31
0.000000
  0
ARC
  8
Default
 62
     5
  6
CONTINUOUS
 10
1.470651
 20
14.973999
 30
0.000000
 40
4.315282
 50
3.703329
 51
9.382340
  0
ARC
  8
Default
 62
     5
  6
CONTINUOUS
 10
3.399446
 20
15.098841
 30
0.000000
 40
2.382452
 50
344.520649
 51
363.703329
  0
ARC
  8
Default
 62
     5
  6
CONTINUOUS
 10
4.114914
 20
14.900702
 30
0.000000
 40
1.640054
 50
330.880591
 51
344.520649
  0
ARC
  8
Default
 62
     5
  6
CONTINUOUS
 10
4.369672
 20
14.788695
 30
0.000000
 40
1.363240
 50
317.148748
 51
329.782600
  0
LINE
  8
Default
 62
     5
  6
CONTINUOUS
 10
5.369093
 20
13.861559
 30
0.000000
 11
5.116999
 21
13.555244
 31
0.000000
  0
ARC
  8
Default
 62
     5
  6
CONTINUOUS
 10
6.586646
 20
12.345740
 30
0.000000
 40
1.903356
 50
140.545983
 51
171.827120
  0
ARC
  8
Default
 62
     5
  6
CONTINUOUS
 10
7.581202
 20
12.202903
 30
0.000000
 40
2.908116
 50
171.827120
 51
182.467055
  0
ARC
  8
Default
 62
     5
  6
CONTINUOUS
 10
21.240320
 20
12.791404
 30
0.000000
 40
16.579906
 50
182.467055
 51
186.902990
  0
LINE
  8
Default
 62
     5
  6
CONTINUOUS
 10
4.810169
 20
10.590116
 30
0.000000
 11
4.780600
 21
10.798688
 31
0.000000
  0
ARC
  8
Default
 62
     5
  6
CONTINUOUS
 10
6.300009
 20
11.182840
 30
0.000000
 40
1.603417
 50
201.694846
 51
213.670840
  0
ARC
  8
Default
 62
     5
  6
CONTINUOUS
 10
5.295377
 20
10.501617
 30
0.000000
 40
0.389767
 50
212.208024
 51
229.299919
  0
LINE
  8
Default
 62
     5
  6
CONTINUOUS
 10
5.041210
 20
10.206121
 30
0.000000
 11
5.067213
 21
10.188524
 31
0.000000
  0
LINE
  8
Default
 62
     5
  6
CONTINUOUS
 10
5.067213
 20
10.188524
 30
0.000000
 11
5.090683
 21
10.182260
 31
0.000000
  0
LINE
  8
Default
 62
     5
  6
CONTINUOUS
 10
5.090683
 20
10.182260
 30
0.000000
 11
5.120738
 21
10.191775
 31
0.000000
  0
LINE
  8
Default
 62
     5
  6
CONTINUOUS
 10
5.120738
 20
10.191775
 30
0.000000
 11
5.182863
 21
10.231368
 31
0.000000
  0
LINE
  8
Default
 62
     5
  6
CONTINUOUS
 10
5.182863
 20
10.231368
 30
0.000000
 11
5.367559
 21
10.398018
 31
0.000000
  0
ARC
  8
Default
 62
     5
  6
CONTINUOUS
 10
7.096497
 20
14.038970
 30
0.000000
 40
2.604261
 50
225.542501
 51
236.810482
  0
ARC
  8
Default
 62
     5
  6
CONTINUOUS
 10
6.960678
 20
14.194564
 30
0.000000
 40
2.628273
 50
217.527245
 51
230.036069
  0
ARC
  8
Default
 62
     5
  6
CONTINUOUS
 10
5.049045
 20
12.737673
 30
0.000000
 40
0.224959
 50
171.167395
 51
219.830954
  0
ARC
  8
Default
 62
     5
  6
CONTINUOUS
 10
5.181469
 20
12.682795
 30
0.000000
 40
0.365813
 50
124.383560
 51
165.851092
  0
ARC
  8
Default
 62
     5
  6
CONTINUOUS
 10
5.487392
 20
12.201544
 30
0.000000
 40
0.935941
 50
103.894090
 51
123.201643
  0
ARC
  8
Default
 62
     5
  6
CONTINUOUS
 10
6.020412
 20
10.046759
 30
0.000000
 40
3.155672
 50
86.059261
 51
103.894090
  0
ARC
  8
Default
 62
     5
  6
CONTINUOUS
 10
6.161632
 20
11.355526
 30
0.000000
 40
1.840999
 50
73.250194
 51
87.644868
  0
ARC
  8
Default
 62
     5
  6
CONTINUOUS
 10
6.495308
 20
12.464225
 30
0.000000
 40
0.683177
 50
56.270778
 51
73.250194
  0
ARC
  8
Default
 62
     5
  6
CONTINUOUS
 10
6.762095
 20
12.850758
 30
0.000000
 40
0.213692
 50
29.530066
 51
58.214932
  0
LINE
  8
Default
 62
     5
  6
CONTINUOUS
 10
6.948029
 20
12.956083
 30
0.000000
 11
6.966843
 21
12.889321
 31
0.000000
  0
ARC
  8
Default
 62
     5
  6
CONTINUOUS
 10
6.645252
 20
12.877013
 30
0.000000
 40
0.321827
 50
334.696422
 51
362.191622
  0
ARC
  8
Default
 62
     5
  6
CONTINUOUS
 10
5.419925
 20
13.456316
 30
0.000000
 40
1.677193
 50
319.279838
 51
334.696422
  0
ARC
  8
Default
 62
     5
  6
CONTINUOUS
 10
4.567965
 20
14.011560
 30
0.000000
 40
2.688510
 50
312.274346
 51
322.157393
  0
ARC
  8
Default
 62
     5
  6
CONTINUOUS
 10
5.700671
 20
12.765611
 30
0.000000
 40
1.004641
 50
298.176644
 51
312.274346
  0
ARC
  8
Default
 62
     5
  6
CONTINUOUS
 10
5.904783
 20
12.317938
 30
0.000000
 40
0.514602
 50
242.967408
 51
301.682006
  0
ARC
  8
Default
 62
     5
  6
CONTINUOUS
 10
6.234841
 20
12.840483
 30
0.000000
 40
0.088303
 50
287.958633
 51
390.744273
  0
ARC
  8
Default
 62
     5
  6
CONTINUOUS
 10
6.178053
 20
12.817215
 30
0.000000
 40
0.149278
 50
27.275302
 51
64.141864
  0
ARC
  8
Default
 62
     5
  6
CONTINUOUS
 10
6.008241
 20
12.373788
 30
0.000000
 40
0.623692
 50
67.873152
 51
101.622620
  0
ARC
  8
Default
 62
     5
  6
CONTINUOUS
 10
5.912618
 20
12.558185
 30
0.000000
 40
0.427562
 50
94.027367
 51
125.833727
  0
LINE
  8
Default
 62
     5
  6
CONTINUOUS
 10
5.662308
 20
12.904818
 30
0.000000
 11
5.633462
 21
12.869526
 31
0.000000
  0
LINE
  8
Default
 62
     5
  6
CONTINUOUS
 10
5.633462
 20
12.869526
 30
0.000000
 11
5.632360
 21
12.837875
 31
0.000000
  0
ARC
  8
Default
 62
     5
  6
CONTINUOUS
 10
5.749229
 20
12.899998
 30
0.000000
 40
0.132354
 50
207.993287
 51
260.236663
  0
ARC
  8
Default
 62
     5
  6
CONTINUOUS
 10
6.024722
 20
14.029164
 30
0.000000
 40
1.294361
 50
256.692237
 51
273.209669
  0
LINE
  8
Default
 62
     5
  6
CONTINUOUS
 10
6.097194
 20
12.736834
 30
0.000000
 11
6.228964
 21
12.747797
 31
0.000000
  0
LINE
  8
Default
 62
     5
  6
CONTINUOUS
 10
6.228964
 20
12.747797
 30
0.000000
 11
6.262067
 21
12.756482
 31
0.000000
  0
ARC
  8
Default
 62
     5
  6
CONTINUOUS
 10
5.081132
 20
14.543481
 30
0.000000
 40
0.213078
 50
292.556253
 51
334.417996
  0
ARC
  8
Default
 62
     5
  6
CONTINUOUS
 10
4.971935
 20
14.545450
 30
0.000000
 40
0.315699
 50
342.681914
 51
376.476936
  0
ARC
  8
Default
 62
     5
  6
CONTINUOUS
 10
4.921172
 20
14.548397
 30
0.000000
 40
0.363949
 50
13.764415
 51
57.321847
  0
ARC
  8
Default
 62
     5
  6
CONTINUOUS
 10
5.057382
 20
14.760744
 30
0.000000
 40
0.111669
 50
57.321847
 51
105.686468
  0
ARC
  8
Default
 62
     5
  6
CONTINUOUS
 10
5.091939
 20
14.657638
 30
0.000000
 40
0.220344
 50
107.088833
 51
134.865502
  0
ARC
  8
Default
 62
     5
  6
CONTINUOUS
 10
5.300280
 20
14.448317
 30
0.000000
 40
0.515678
 50
134.865502
 51
165.402026
  0
ARC
  8
Default
 62
     5
  6
CONTINUOUS
 10
5.303323
 20
14.461167
 30
0.000000
 40
0.515553
 50
166.869402
 51
189.647165
  0
LINE
  8
Default
 62
     5
  6
CONTINUOUS
 10
4.795061
 20
14.374770
 30
0.000000
 11
4.812565
 21
14.299530
 31
0.000000
  0
LINE
  8
Default
 62
     5
  6
CONTINUOUS
 10
4.812565
 20
14.299530
 30
0.000000
 11
4.857120
 21
14.276846
 31
0.000000
  0
ARC
  8
Default
 62
     5
  6
CONTINUOUS
 10
4.905926
 20
14.767254
 30
0.000000
 40
0.492831
 50
264.316576
 51
301.423321
  0
ARC
  8
Default
 62
     5
  6
CONTINUOUS
 10
5.229954
 20
14.483906
 30
0.000000
 40
0.404350
 50
140.273600
 51
201.972095
  0
ARC
  8
Default
 62
     5
  6
CONTINUOUS
 10
5.103398
 20
14.613747
 30
0.000000
 40
0.224834
 50
101.433500
 51
145.115401
  0
ARC
  8
Default
 62
     5
  6
CONTINUOUS
 10
5.072504
 20
14.715448
 30
0.000000
 40
0.119457
 50
59.179480
 51
96.573121
  0
ARC
  8
Default
 62
     5
  6
CONTINUOUS
 10
4.945975
 20
14.590555
 30
0.000000
 40
0.294941
 50
329.816494
 51
410.468140
  0
ARC
  8
Default
 62
     5
  6
CONTINUOUS
 10
4.887524
 20
14.780686
 30
0.000000
 40
0.461248
 50
272.401088
 51
312.802274
  0
ARC
  8
Default
 62
     5
  6
CONTINUOUS
 10
4.895229
 20
14.384384
 30
0.000000
 40
0.065579
 50
232.130138
 51
280.204367
  0
LINE
  8
Default
 62
     5
  6
CONTINUOUS
 10
5.035087
 20
14.529711
 30
0.000000
 11
5.037613
 21
14.548112
 31
0.000000
  0
ARC
  8
Default
 62
     5
  6
CONTINUOUS
 10
4.883781
 20
14.502928
 30
0.000000
 40
0.160331
 50
16.368788
 51
60.236449
  0
LINE
  8
Default
 62
     5
  6
CONTINUOUS
 10
4.937262
 20
14.657040
 30
0.000000
 11
4.963373
 21
14.642108
 31
0.000000
  0
LINE
  8
Default
 62
     5
  6
CONTINUOUS
 10
4.937262
 20
14.657040
 30
0.000000
 11
4.929493
 21
14.653942
 31
0.000000
  0
ARC
  8
Default
 62
     5
  6
CONTINUOUS
 10
5.047838
 20
14.593522
 30
0.000000
 40
0.132876
 50
152.953928
 51
220.514894
  0
ARC
  8
Default
 62
     5
  6
CONTINUOUS
 10
4.982443
 20
14.551826
 30
0.000000
 40
0.057101
 50
231.401451
 51
337.212830
  0
ARC
  8
Default
 62
     5
  6
CONTINUOUS
 10
6.708327
 20
14.462292
 30
0.000000
 40
0.452702
 50
348.143321
 51
401.444170
  0
ARC
  8
Default
 62
     5
  6
CONTINUOUS
 10
6.841476
 20
14.616776
 30
0.000000
 40
0.252165
 50
35.144000
 51
86.520235
  0
ARC
  8
Default
 62
     5
  6
CONTINUOUS
 10
6.866905
 20
14.693108
 30
0.000000
 40
0.175660
 50
93.304154
 51
152.722501
  0
LINE
  8
Default
 62
     5
  6
CONTINUOUS
 10
6.710780
 20
14.773613
 30
0.000000
 11
6.708542
 21
14.766114
 31
0.000000
  0
LINE
  8
Default
 62
     5
  6
CONTINUOUS
 10
6.708542
 20
14.766114
 30
0.000000
 11
6.802643
 21
14.806582
 31
0.000000
  0
ARC
  8
Default
 62
     5
  6
CONTINUOUS
 10
6.877807
 20
14.645669
 30
0.000000
 40
0.177603
 50
56.003980
 51
115.037512
  0
ARC
  8
Default
 62
     5
  6
CONTINUOUS
 10
6.775090
 20
14.536279
 30
0.000000
 40
0.326611
 50
3.462171
 51
51.790628
  0
ARC
  8
Default
 62
     5
  6
CONTINUOUS
 10
6.740082
 20
14.489922
 30
0.000000
 40
0.367021
 50
343.399776
 51
370.372441
  0
LINE
  8
Default
 62
     5
  6
CONTINUOUS
 10
7.091805
 20
14.385067
 30
0.000000
 11
7.057034
 21
14.329131
 31
0.000000
  0
ARC
  8
Default
 62
     5
  6
CONTINUOUS
 10
7.001313
 20
14.393183
 30
0.000000
 40
0.084897
 50
249.759981
 51
311.020961
  0
ARC
  8
Default
 62
     5
  6
CONTINUOUS
 10
7.117779
 20
14.849700
 30
0.000000
 40
0.555651
 50
229.124609
 51
254.783930
  0
ARC
  8
Default
 62
     5
  6
CONTINUOUS
 10
6.927419
 20
14.659040
 30
0.000000
 40
0.287552
 50
194.251648
 51
232.946467
  0
LINE
  8
Default
 62
     5
  6
CONTINUOUS
 10
6.648717
 20
14.588250
 30
0.000000
 11
6.639919
 21
14.598407
 31
0.000000
  0
LINE
  8
Default
 62
     5
  6
CONTINUOUS
 10
6.639919
 20
14.598407
 30
0.000000
 11
6.636574
 21
14.593524
 31
0.000000
  0
ARC
  8
Default
 62
     5
  6
CONTINUOUS
 10
6.808138
 20
14.553051
 30
0.000000
 40
0.176273
 50
166.726395
 51
228.077115
  0
ARC
  8
Default
 62
     5
  6
CONTINUOUS
 10
7.051108
 20
14.757329
 30
0.000000
 40
0.492596
 50
222.917820
 51
256.814329
  0
ARC
  8
Default
 62
     5
  6
CONTINUOUS
 10
7.004711
 20
14.664903
 30
0.000000
 40
0.392763
 50
260.330908
 51
280.853234
  0
ARC
  8
Default
 62
     5
  6
CONTINUOUS
 10
7.054717
 20
14.372874
 30
0.000000
 40
0.096720
 50
284.335801
 51
357.869022
  0
LINE
  8
Default
 62
     5
  6
CONTINUOUS
 10
6.880953
 20
14.575840
 30
0.000000
 11
6.885476
 21
14.605275
 31
0.000000
  0
ARC
  8
Default
 62
     5
  6
CONTINUOUS
 10
6.722323
 20
14.565652
 30
0.000000
 40
0.167895
 50
13.650578
 51
58.696895
  0
LINE
  8
Default
 62
     5
  6
CONTINUOUS
 10
6.809556
 20
14.709107
 30
0.000000
 11
6.791133
 21
14.712237
 31
0.000000
  0
ARC
  8
Default
 62
     5
  6
CONTINUOUS
 10
6.988096
 20
14.648688
 30
0.000000
 40
0.206961
 50
162.118136
 51
211.110307
  0
LINE
  8
Default
 62
     5
  6
CONTINUOUS
 10
6.810901
 20
14.541754
 30
0.000000
 11
6.835130
 21
14.535540
 31
0.000000
  0
ARC
  8
Default
 62
     5
  6
CONTINUOUS
 10
6.812986
 20
14.606921
 30
0.000000
 40
0.074737
 50
287.235256
 51
335.426007
  0
ENDSEC
  0
EOF
