  0
SECTION
  2
HEADER
  9
$ACADVER
  1
AC1009
  9
$DWGCODEPAGE
  3
ansi_1252
  9
$INSBASE
 10
0.0
 20
0.0
 30
0.0
  9
$EXTMIN
 10
0.987778
 20
124.601111
 30
0.0
  9
$EXTMAX
 10
228.3684933498375
 20
248.2382910614134
 30
0.0
  9
$LIMMIN
 10
0.0
 20
0.0
  9
$LIMMAX
 10
12.0
 20
9.0
  9
$ORTHOMODE
 70
     0
  9
$REGENMODE
 70
     1
  9
$FILLMODE
 70
     1
  9
$QTEXTMODE
 70
     0
  9
$MIRRTEXT
 70
     1
  9
$DRAGMODE
 70
     2
  9
$LTSCALE
 40
1.0
  9
$OSMODE
 70
    37
  9
$ATTMODE
 70
     1
  9
$TEXTSIZE
 40
5.776834848052484
  9
$TRACEWID
 40
0.05
  9
$TEXTSTYLE
  7
STANDARD
  9
$CLAYER
  8
0
  9
$CELTYPE
  6
BYBLOCK
  9
$CECOLOR
 62
   256
  9
$DIMSCALE
 40
1.0
  9
$DIMASZ
 40
0.18
  9
$DIMEXO
 40
0.0625
  9
$DIMDLI
 40
0.38
  9
$DIMRND
 40
0.0
  9
$DIMDLE
 40
0.0
  9
$DIMEXE
 40
0.18
  9
$DIMTP
 40
0.0
  9
$DIMTM
 40
0.0
  9
$DIMTXT
 40
0.18
  9
$DIMCEN
 40
0.09
  9
$DIMTSZ
 40
0.0
  9
$DIMTOL
 70
     0
  9
$DIMLIM
 70
     0
  9
$DIMTIH
 70
     1
  9
$DIMTOH
 70
     1
  9
$DIMSE1
 70
     0
  9
$DIMSE2
 70
     0
  9
$DIMTAD
 70
     0
  9
$DIMZIN
 70
     0
  9
$DIMBLK
  1

  9
$DIMASO
 70
     1
  9
$DIMSHO
 70
     1
  9
$DIMPOST
  1

  9
$DIMAPOST
  1

  9
$DIMALT
 70
     0
  9
$DIMALTD
 70
     2
  9
$DIMALTF
 40
25.4
  9
$DIMLFAC
 40
1.0
  9
$DIMTOFL
 70
     0
  9
$DIMTVP
 40
0.0
  9
$DIMTIX
 70
     0
  9
$DIMSOXD
 70
     0
  9
$DIMSAH
 70
     0
  9
$DIMBLK1
  1

  9
$DIMBLK2
  1

  9
$DIMSTYLE
  2
STANDARD
  9
$DIMCLRD
 70
     0
  9
$DIMCLRE
 70
     0
  9
$DIMCLRT
 70
     0
  9
$DIMTFAC
 40
1.0
  9
$DIMGAP
 40
0.09
  9
$LUNITS
 70
     2
  9
$LUPREC
 70
     4
  9
$SKETCHINC
 40
0.1
  9
$FILLETRAD
 40
0.5
  9
$AUNITS
 70
     0
  9
$AUPREC
 70
     0
  9
$MENU
  1
.
  9
$ELEVATION
 40
0.0
  9
$PELEVATION
 40
0.0
  9
$THICKNESS
 40
0.0
  9
$LIMCHECK
 70
     0
  9
$CHAMFERA
 40
0.5
  9
$CHAMFERB
 40
0.5
  9
$SKPOLY
 70
     0
  9
$TDCREATE
 40
2453353.508792488
  9
$TDUPDATE
 40
4909735.841157037
  9
$TDINDWG
 40
4895786.051922963
  9
$TDUSRTIMER
 40
4895786.051922963
  9
$USRTIMER
 70
     1
  9
$ANGBASE
 50
0.0
  9
$ANGDIR
 70
     0
  9
$PDMODE
 70
     0
  9
$PDSIZE
 40
0.0
  9
$PLINEWID
 40
0.0
  9
$COORDS
 70
     1
  9
$SPLFRAME
 70
     0
  9
$SPLINETYPE
 70
     6
  9
$SPLINESEGS
 70
     8
  9
$ATTDIA
 70
     0
  9
$ATTREQ
 70
     1
  9
$HANDLING
 70
     1
  9
$HANDSEED
  5
75C
  9
$SURFTAB1
 70
     6
  9
$SURFTAB2
 70
     6
  9
$SURFTYPE
 70
     6
  9
$SURFU
 70
     6
  9
$SURFV
 70
     6
  9
$UCSNAME
  2

  9
$UCSORG
 10
0.0
 20
0.0
 30
0.0
  9
$UCSXDIR
 10
1.0
 20
0.0
 30
0.0
  9
$UCSYDIR
 10
0.0
 20
1.0
 30
0.0
  9
$PUCSNAME
  2

  9
$PUCSORG
 10
0.0
 20
0.0
 30
0.0
  9
$PUCSXDIR
 10
1.0
 20
0.0
 30
0.0
  9
$PUCSYDIR
 10
0.0
 20
1.0
 30
0.0
  9
$USERI1
 70
     0
  9
$USERI2
 70
     0
  9
$USERI3
 70
     0
  9
$USERI4
 70
     0
  9
$USERI5
 70
     0
  9
$USERR1
 40
0.0
  9
$USERR2
 40
0.0
  9
$USERR3
 40
0.0
  9
$USERR4
 40
0.0
  9
$USERR5
 40
0.0
  9
$WORLDVIEW
 70
     1
  9
$SHADEDGE
 70
     3
  9
$SHADEDIF
 70
    70
  9
$TILEMODE
 70
     1
  9
$MAXACTVP
 70
    64
  9
$PLIMCHECK
 70
     0
  9
$PEXTMIN
 10
0.0
 20
0.0
 30
0.0
  9
$PEXTMAX
 10
0.0
 20
0.0
 30
0.0
  9
$PLIMMIN
 10
0.0
 20
0.0
  9
$PLIMMAX
 10
0.0
 20
0.0
  9
$UNITMODE
 70
     0
  9
$VISRETAIN
 70
     1
  9
$PLINEGEN
 70
     0
  9
$PSLTSCALE
 70
     1
  0
ENDSEC
  0
SECTION
  2
TABLES
  0
TABLE
  2
VPORT
 70
     1
  0
VPORT
  2
*ACTIVE
 70
     0
 10
0.0
 20
0.0
 11
1.0
 21
1.0
 12
63.28929371632864
 22
168.4788625332156
 13
0.0
 23
0.0
 14
0.5
 24
0.5
 15
0.5
 25
0.5
 16
0.0
 26
0.0
 36
1.0
 17
0.0
 27
0.0
 37
0.0
 40
65.72484422835197
 41
1.972972972850329
 42
50.0
 43
0.0
 44
0.0
 50
0.0
 51
0.0
 71
    16
 72
   100
 73
     1
 74
     3
 75
     0
 76
     0
 77
     0
 78
     0
  0
ENDTAB
  0
TABLE
  2
LTYPE
 70
     1
  0
LTYPE
  2
CONTINUOUS
 70
     0
  3
Solid line
 72
    65
 73
     0
 40
0.0
  0
ENDTAB
  0
TABLE
  2
LAYER
 70
     2
  0
LAYER
  2
0
 70
     0
 62
     7
  6
CONTINUOUS
  0
LAYER
  2
LAYER_1
 70
     0
 62
     7
  6
CONTINUOUS
  0
ENDTAB
  0
TABLE
  2
STYLE
 70
     1
  0
STYLE
  2
STANDARD
 70
     0
 40
0.0
 41
1.0
 50
0.0
 71
     0
 42
0.2
  3
txt
  4

  0
ENDTAB
  0
TABLE
  2
VIEW
 70
     0
  0
ENDTAB
  0
TABLE
  2
UCS
 70
     0
  0
ENDTAB
  0
TABLE
  2
APPID
 70
     1
  0
APPID
  2
ACAD
 70
     0
  0
ENDTAB
  0
TABLE
  2
DIMSTYLE
 70
     1
  0
DIMSTYLE
  2
STANDARD
 70
     0
  3

  4

  5

  6

  7

 40
1.0
 41
0.18
 42
0.0625
 43
0.38
 44
0.18
 45
0.0
 46
0.0
 47
0.0
 48
0.0
140
0.18
141
0.09
142
0.0
143
25.4
144
1.0
145
0.0
146
1.0
147
0.09
 71
     0
 72
     0
 73
     1
 74
     1
 75
     0
 76
     0
 77
     0
 78
     0
170
     0
171
     2
172
     0
173
     0
174
     0
175
     0
176
     0
177
     0
178
     0
  0
ENDTAB
  0
ENDSEC
  0
SECTION
  2
BLOCKS
  0
BLOCK
  8
0
  2
$MODEL_SPACE
 70
     0
 10
0.0
 20
0.0
 30
0.0
  3
$MODEL_SPACE
  1

  0
ENDBLK
  5
21
  8
0
  0
BLOCK
 67
     1
  8
0
  2
$PAPER_SPACE
 70
     0
 10
0.0
 20
0.0
 30
0.0
  3
$PAPER_SPACE
  1

  0
ENDBLK
  5
76
 67
     1
  8
0
  0
ENDSEC
  0
SECTION
  2
ENTITIES
  0
LINE
  5
745
  8
LAYER_1
 10
2.202066
 20
137.8372392303038
 30
0.0
 11
4.248177
 21
138.5341502303038
 31
0.0
  0
LINE
  5
746
  8
LAYER_1
 10
4.248177
 20
138.5341502303038
 30
0.0
 11
4.651977
 21
138.8949502303038
 31
0.0
  0
LINE
  5
23
  8
LAYER_1
 10
4.651977
 20
138.8949502303038
 30
0.0
 11
4.314966
 21
139.5944672303038
 31
0.0
  0
LINE
  5
24
  8
LAYER_1
 10
4.314966
 20
139.5944672303038
 30
0.0
 11
3.832153
 21
140.3606502303038
 31
0.0
  0
LINE
  5
25
  8
LAYER_1
 10
3.832153
 20
140.3606502303038
 30
0.0
 11
4.472597
 21
139.8080702303038
 31
0.0
  0
LINE
  5
26
  8
LAYER_1
 10
4.472597
 20
139.8080702303038
 30
0.0
 11
4.974998
 21
139.5183752303038
 31
0.0
  0
LINE
  5
747
  8
LAYER_1
 10
4.974998
 20
139.5183752303038
 30
0.0
 11
5.459558
 21
139.4902692303038
 31
0.0
  0
LINE
  5
28
  8
LAYER_1
 10
5.459558
 20
139.4902692303038
 30
0.0
 11
5.868751
 21
139.7113322303038
 31
0.0
  0
LINE
  5
29
  8
LAYER_1
 10
5.868751
 20
139.7113322303038
 30
0.0
 11
6.145054
 21
140.1691452303038
 31
0.0
  0
LINE
  5
2A
  8
LAYER_1
 10
6.145054
 20
140.1691452303038
 30
0.0
 11
6.09481
 21
140.3071122303038
 31
0.0
  0
LINE
  5
2B
  8
LAYER_1
 10
6.09481
 20
140.3071122303038
 30
0.0
 11
5.874323
 21
140.4097662303038
 31
0.0
  0
LINE
  5
2C
  8
LAYER_1
 10
5.874323
 20
140.4097662303038
 30
0.0
 11
5.125095
 21
140.5046282303038
 31
0.0
  0
LINE
  5
2D
  8
LAYER_1
 10
5.125095
 20
140.5046282303038
 30
0.0
 11
4.302318
 21
140.4447272303038
 31
0.0
  0
LINE
  5
2E
  8
LAYER_1
 10
4.302318
 20
140.4447272303038
 30
0.0
 11
3.810938
 21
140.2210572303038
 31
0.0
  0
LINE
  5
2F
  8
LAYER_1
 10
3.810938
 20
140.2210572303038
 30
0.0
 11
3.081638
 21
139.6428882303038
 31
0.0
  0
LINE
  5
30
  8
LAYER_1
 10
3.081638
 20
139.6428882303038
 30
0.0
 11
2.831464
 21
139.5372712303038
 31
0.0
  0
LINE
  5
31
  8
LAYER_1
 10
2.831464
 20
139.5372712303038
 30
0.0
 11
2.779047
 21
139.6157352303038
 31
0.0
  0
LINE
  5
32
  8
LAYER_1
 10
2.779047
 20
139.6157352303038
 30
0.0
 11
3.309023
 21
140.4773262303038
 31
0.0
  0
LINE
  5
33
  8
LAYER_1
 10
3.309023
 20
140.4773262303038
 30
0.0
 11
4.269588
 21
141.5686452303038
 31
0.0
  0
LINE
  5
34
  8
LAYER_1
 10
4.269588
 20
141.5686452303038
 30
0.0
 11
4.482048
 21
141.5949572303038
 31
0.0
  0
LINE
  5
35
  8
LAYER_1
 10
4.482048
 20
141.5949572303038
 30
0.0
 11
4.413497
 21
141.2073162303038
 31
0.0
  0
LINE
  5
36
  8
LAYER_1
 10
4.413497
 20
141.2073162303038
 30
0.0
 11
4.395572
 21
140.9962592303038
 31
0.0
  0
LINE
  5
37
  8
LAYER_1
 10
4.395572
 20
140.9962592303038
 30
0.0
 11
4.575712
 21
140.8668402303038
 31
0.0
  0
LINE
  5
38
  8
LAYER_1
 10
4.575712
 20
140.8668402303038
 30
0.0
 11
5.747376
 21
140.7839832303038
 31
0.0
  0
LINE
  5
39
  8
LAYER_1
 10
5.747376
 20
140.7839832303038
 30
0.0
 11
7.416203
 21
140.6114832303038
 31
0.0
  0
LINE
  5
3A
  8
LAYER_1
 10
7.416203
 20
140.6114832303038
 30
0.0
 11
7.290418
 21
140.2813032303038
 31
0.0
  0
LINE
  5
3B
  8
LAYER_1
 10
7.290418
 20
140.2813032303038
 30
0.0
 11
6.745765
 21
139.7296992303038
 31
0.0
  0
LINE
  5
3C
  8
LAYER_1
 10
6.745765
 20
139.7296992303038
 30
0.0
 11
6.192535
 21
139.1866712303038
 31
0.0
  0
LINE
  5
3D
  8
LAYER_1
 10
6.192535
 20
139.1866712303038
 30
0.0
 11
6.04613
 21
138.8771122303038
 31
0.0
  0
LINE
  5
3E
  8
LAYER_1
 10
6.04613
 20
138.8771122303038
 30
0.0
 11
7.821938
 21
138.3890232303038
 31
0.0
  0
LINE
  5
3F
  8
LAYER_1
 10
7.821938
 20
138.3890232303038
 30
0.0
 11
9.070155
 21
138.0646782303038
 31
0.0
  0
LINE
  5
40
  8
LAYER_1
 10
9.070155
 20
138.0646782303038
 30
0.0
 11
9.045769999999999
 21
137.9546542303038
 31
0.0
  0
LINE
  5
41
  8
LAYER_1
 10
9.045769999999999
 20
137.9546542303038
 30
0.0
 11
8.666093
 21
137.8282192303038
 31
0.0
  0
LINE
  5
42
  8
LAYER_1
 10
8.666093
 20
137.8282192303038
 30
0.0
 11
7.766549
 21
137.7850152303038
 31
0.0
  0
LINE
  5
43
  8
LAYER_1
 10
7.766549
 20
137.7850152303038
 30
0.0
 11
6.648283
 21
138.0817392303038
 31
0.0
  0
LINE
  5
44
  8
LAYER_1
 10
6.648283
 20
138.0817392303038
 30
0.0
 11
5.923456
 21
138.3313942303038
 31
0.0
  0
LINE
  5
45
  8
LAYER_1
 10
5.923456
 20
138.3313942303038
 30
0.0
 11
5.350123
 21
138.4024982303038
 31
0.0
  0
LINE
  5
46
  8
LAYER_1
 10
5.350123
 20
138.4024982303038
 30
0.0
 11
3.706094
 21
137.9742942303038
 31
0.0
  0
LINE
  5
47
  8
LAYER_1
 10
3.706094
 20
137.9742942303038
 30
0.0
 11
1.349458
 21
137.4158892303038
 31
0.0
  0
LINE
  5
48
  8
LAYER_1
 10
1.349458
 20
137.4158892303038
 30
0.0
 11
1.217527
 21
137.4548832303038
 31
0.0
  0
LINE
  5
49
  8
LAYER_1
 10
1.217527
 20
137.4548832303038
 30
0.0
 11
1.334302
 21
137.5473222303038
 31
0.0
  0
LINE
  5
4A
  8
LAYER_1
 10
1.334302
 20
137.5473222303038
 30
0.0
 11
2.202066
 21
137.8372392303038
 31
0.0
  0
LINE
  5
4B
  8
LAYER_1
 10
2.202066
 20
137.8372392303038
 30
0.0
 11
2.202066
 21
137.8372392303038
 31
0.0
  0
LINE
  5
4C
  8
LAYER_1
 10
19.464751
 20
140.0078722303038
 30
0.0
 11
19.394421
 21
141.9664482303038
 31
0.0
  0
LINE
  5
4D
  8
LAYER_1
 10
19.394421
 20
141.9664482303038
 30
0.0
 11
19.298128
 21
142.2098352303038
 31
0.0
  0
LINE
  5
4E
  8
LAYER_1
 10
19.298128
 20
142.2098352303038
 30
0.0
 11
19.146888
 21
142.0539832303038
 31
0.0
  0
LINE
  5
4F
  8
LAYER_1
 10
19.146888
 20
142.0539832303038
 30
0.0
 11
17.391847
 21
140.0048512303038
 31
0.0
  0
LINE
  5
50
  8
LAYER_1
 10
17.391847
 20
140.0048512303038
 30
0.0
 11
16.32179
 21
138.9704542303038
 31
0.0
  0
LINE
  5
51
  8
LAYER_1
 10
16.32179
 20
138.9704542303038
 30
0.0
 11
15.705469
 21
138.5262052303038
 31
0.0
  0
LINE
  5
52
  8
LAYER_1
 10
15.705469
 20
138.5262052303038
 30
0.0
 11
15.734743
 21
138.6933202303038
 31
0.0
  0
LINE
  5
53
  8
LAYER_1
 10
15.734743
 20
138.6933202303038
 30
0.0
 11
16.169342
 21
139.0951062303038
 31
0.0
  0
LINE
  5
54
  8
LAYER_1
 10
16.169342
 20
139.0951062303038
 30
0.0
 11
17.025876
 21
140.0137262303038
 31
0.0
  0
LINE
  5
55
  8
LAYER_1
 10
17.025876
 20
140.0137262303038
 30
0.0
 11
18.069589
 21
141.4234392303038
 31
0.0
  0
LINE
  5
56
  8
LAYER_1
 10
18.069589
 20
141.4234392303038
 30
0.0
 11
19.246597
 21
143.1828722303038
 31
0.0
  0
LINE
  5
57
  8
LAYER_1
 10
19.246597
 20
143.1828722303038
 30
0.0
 11
17.596076
 21
143.3470942303038
 31
0.0
  0
LINE
  5
58
  8
LAYER_1
 10
17.596076
 20
143.3470942303038
 30
0.0
 11
15.945556
 21
143.5113162303038
 31
0.0
  0
LINE
  5
748
  8
LAYER_1
 10
15.945556
 20
143.5113162303038
 30
0.0
 11
17.709444
 21
143.5587612303038
 31
0.0
  0
LINE
  5
749
  8
LAYER_1
 10
17.709444
 20
143.5587612303038
 30
0.0
 11
19.473333
 21
143.6062052303038
 31
0.0
  0
LINE
  5
5B
  8
LAYER_1
 10
19.473333
 20
143.6062052303038
 30
0.0
 11
19.473333
 21
144.7350942303038
 31
0.0
  0
LINE
  5
5C
  8
LAYER_1
 10
19.473333
 20
144.7350942303038
 30
0.0
 11
19.568669
 21
145.5925352303038
 31
0.0
  0
LINE
  5
5D
  8
LAYER_1
 10
19.568669
 20
145.5925352303038
 30
0.0
 11
19.869811
 21
145.8639832303038
 31
0.0
  0
LINE
  5
74A
  8
LAYER_1
 10
19.869811
 20
145.8639832303038
 30
0.0
 11
20.051189
 21
145.8068212303038
 31
0.0
  0
LINE
  5
5F
  8
LAYER_1
 10
20.051189
 20
145.8068212303038
 30
0.0
 11
20.147644
 21
145.6151162303038
 31
0.0
  0
LINE
  5
60
  8
LAYER_1
 10
20.147644
 20
145.6151162303038
 30
0.0
 11
20.111074
 21
144.7067672303038
 31
0.0
  0
LINE
  5
61
  8
LAYER_1
 10
20.111074
 20
144.7067672303038
 30
0.0
 11
19.955859
 21
143.5495522303038
 31
0.0
  0
LINE
  5
62
  8
LAYER_1
 10
19.955859
 20
143.5495522303038
 30
0.0
 11
21.666951
 21
143.6481152303038
 31
0.0
  0
LINE
  5
63
  8
LAYER_1
 10
21.666951
 20
143.6481152303038
 30
0.0
 11
22.937494
 21
143.6556432303038
 31
0.0
  0
LINE
  5
64
  8
LAYER_1
 10
22.937494
 20
143.6556432303038
 30
0.0
 11
23.589392
 21
143.5353312303038
 31
0.0
  0
LINE
  5
65
  8
LAYER_1
 10
23.589392
 20
143.5353312303038
 30
0.0
 11
23.268875
 21
143.3860662303038
 31
0.0
  0
LINE
  5
66
  8
LAYER_1
 10
23.268875
 20
143.3860662303038
 30
0.0
 11
22.201482
 21
143.3239832303038
 31
0.0
  0
LINE
  5
67
  8
LAYER_1
 10
22.201482
 20
143.3239832303038
 30
0.0
 11
20.988123
 21
143.2376412303038
 31
0.0
  0
LINE
  5
68
  8
LAYER_1
 10
20.988123
 20
143.2376412303038
 30
0.0
 11
20.696958
 21
143.1262112303038
 31
0.0
  0
LINE
  5
69
  8
LAYER_1
 10
20.696958
 20
143.1262112303038
 30
0.0
 11
20.602222
 21
142.9661622303038
 31
0.0
  0
LINE
  5
6A
  8
LAYER_1
 10
20.602222
 20
142.9661622303038
 30
0.0
 11
20.834633
 21
142.3015572303038
 31
0.0
  0
LINE
  5
74B
  8
LAYER_1
 10
20.834633
 20
142.3015572303038
 30
0.0
 11
21.423677
 21
141.4370252303038
 31
0.0
  0
LINE
  5
74C
  8
LAYER_1
 10
21.423677
 20
141.4370252303038
 30
0.0
 11
22.207069
 21
140.5765412303038
 31
0.0
  0
LINE
  5
6D
  8
LAYER_1
 10
22.207069
 20
140.5765412303038
 30
0.0
 11
23.022526
 21
139.9240802303038
 31
0.0
  0
LINE
  5
6E
  8
LAYER_1
 10
23.022526
 20
139.9240802303038
 30
0.0
 11
23.797389
 21
139.3464202303038
 31
0.0
  0
LINE
  5
6F
  8
LAYER_1
 10
23.797389
 20
139.3464202303038
 30
0.0
 11
23.781623
 21
139.1751452303038
 31
0.0
  0
LINE
  5
70
  8
LAYER_1
 10
23.781623
 20
139.1751452303038
 30
0.0
 11
23.541316
 21
139.0037252303038
 31
0.0
  0
LINE
  5
71
  8
LAYER_1
 10
23.541316
 20
139.0037252303038
 30
0.0
 11
23.242309
 21
138.9090522303038
 31
0.0
  0
LINE
  5
72
  8
LAYER_1
 10
23.242309
 20
138.9090522303038
 30
0.0
 11
22.927083
 21
139.0020842303038
 31
0.0
  0
LINE
  5
74D
  8
LAYER_1
 10
22.927083
 20
139.0020842303038
 30
0.0
 11
21.976544
 21
139.9081542303038
 31
0.0
  0
LINE
  5
74E
  8
LAYER_1
 10
21.976544
 20
139.9081542303038
 30
0.0
 11
21.107901
 21
141.0959132303038
 31
0.0
  0
LINE
  5
74F
  8
LAYER_1
 10
21.107901
 20
141.0959132303038
 30
0.0
 11
20.501682
 21
142.2813352303038
 31
0.0
  0
LINE
  5
750
  8
LAYER_1
 10
20.501682
 20
142.2813352303038
 30
0.0
 11
20.082339
 21
143.4650942303038
 31
0.0
  0
LINE
  5
77
  8
LAYER_1
 10
20.082339
 20
143.4650942303038
 30
0.0
 11
20.060058
 21
140.4312052303038
 31
0.0
  0
LINE
  5
78
  8
LAYER_1
 10
20.060058
 20
140.4312052303038
 30
0.0
 11
19.96627
 21
138.2319142303038
 31
0.0
  0
LINE
  5
79
  8
LAYER_1
 10
19.96627
 20
138.2319142303038
 30
0.0
 11
19.755556
 21
137.3973162303038
 31
0.0
  0
LINE
  5
7A
  8
LAYER_1
 10
19.755556
 20
137.3973162303038
 30
0.0
 11
19.549364
 21
138.1226562303038
 31
0.0
  0
LINE
  5
7B
  8
LAYER_1
 10
19.549364
 20
138.1226562303038
 30
0.0
 11
19.464751
 21
140.0078722303038
 31
0.0
  0
LINE
  5
7C
  8
LAYER_1
 10
19.464751
 20
140.0078722303038
 30
0.0
 11
19.464751
 21
140.0078722303038
 31
0.0
  0
LINE
  5
7D
  8
LAYER_1
 10
61.717278
 20
138.4971422303038
 30
0.0
 11
62.138323
 21
139.2485442303038
 31
0.0
  0
LINE
  5
7E
  8
LAYER_1
 10
62.138323
 20
139.2485442303038
 30
0.0
 11
62.389541
 21
140.0177692303038
 31
0.0
  0
LINE
  5
7F
  8
LAYER_1
 10
62.389541
 20
140.0177692303038
 30
0.0
 11
62.609662
 21
142.6726112303038
 31
0.0
  0
LINE
  5
80
  8
LAYER_1
 10
62.609662
 20
142.6726112303038
 30
0.0
 11
62.767079
 21
144.8200872303038
 31
0.0
  0
LINE
  5
81
  8
LAYER_1
 10
62.767079
 20
144.8200872303038
 30
0.0
 11
62.881147
 21
145.3566482303038
 31
0.0
  0
LINE
  5
82
  8
LAYER_1
 10
62.881147
 20
145.3566482303038
 30
0.0
 11
63.014953
 21
145.5082592303038
 31
0.0
  0
LINE
  5
83
  8
LAYER_1
 10
63.014953
 20
145.5082592303038
 30
0.0
 11
63.212471
 21
144.8810972303038
 31
0.0
  0
LINE
  5
84
  8
LAYER_1
 10
63.212471
 20
144.8810972303038
 30
0.0
 11
63.245763
 21
143.3788982303038
 31
0.0
  0
LINE
  5
85
  8
LAYER_1
 10
63.245763
 20
143.3788982303038
 30
0.0
 11
63.179906
 21
141.3484272303038
 31
0.0
  0
LINE
  5
86
  8
LAYER_1
 10
63.179906
 20
141.3484272303038
 30
0.0
 11
64.739193
 21
141.3484272303038
 31
0.0
  0
LINE
  5
87
  8
LAYER_1
 10
64.739193
 20
141.3484272303038
 30
0.0
 11
66.298479
 21
141.3484272303038
 31
0.0
  0
LINE
  5
88
  8
LAYER_1
 10
66.298479
 20
141.3484272303038
 30
0.0
 11
66.38090800000001
 21
143.5356502303038
 31
0.0
  0
LINE
  5
89
  8
LAYER_1
 10
66.38090800000001
 20
143.5356502303038
 30
0.0
 11
66.50932
 21
145.0596502303038
 31
0.0
  0
LINE
  5
8A
  8
LAYER_1
 10
66.50932
 20
145.0596502303038
 30
0.0
 11
66.702311
 21
145.6523162303038
 31
0.0
  0
LINE
  5
8B
  8
LAYER_1
 10
66.702311
 20
145.6523162303038
 30
0.0
 11
66.888578
 21
144.4469112303038
 31
0.0
  0
LINE
  5
8C
  8
LAYER_1
 10
66.888578
 20
144.4469112303038
 30
0.0
 11
66.93753100000001
 21
141.8679252303038
 31
0.0
  0
LINE
  5
8D
  8
LAYER_1
 10
66.93753100000001
 20
141.8679252303038
 30
0.0
 11
66.857181
 21
139.2430472303038
 31
0.0
  0
LINE
  5
8E
  8
LAYER_1
 10
66.857181
 20
139.2430472303038
 30
0.0
 11
66.65553800000001
 21
137.8999652303038
 31
0.0
  0
LINE
  5
8F
  8
LAYER_1
 10
66.65553800000001
 20
137.8999652303038
 30
0.0
 11
66.27959799999999
 21
137.7973632303038
 31
0.0
  0
LINE
  5
90
  8
LAYER_1
 10
66.27959799999999
 20
137.7973632303038
 30
0.0
 11
65.718763
 21
138.0702102303038
 31
0.0
  0
LINE
  5
91
  8
LAYER_1
 10
65.718763
 20
138.0702102303038
 30
0.0
 11
65.067742
 21
138.5262052303038
 31
0.0
  0
LINE
  5
751
  8
LAYER_1
 10
65.067742
 20
138.5262052303038
 30
0.0
 11
65.694981
 21
138.5262052303038
 31
0.0
  0
LINE
  5
752
  8
LAYER_1
 10
65.694981
 20
138.5262052303038
 30
0.0
 11
66.027233
 21
138.5665472303038
 31
0.0
  0
LINE
  5
94
  8
LAYER_1
 10
66.027233
 20
138.5665472303038
 30
0.0
 11
66.21682
 21
138.7396172303038
 31
0.0
  0
LINE
  5
95
  8
LAYER_1
 10
66.21682
 20
138.7396172303038
 30
0.0
 11
66.322222
 21
139.7962052303038
 31
0.0
  0
LINE
  5
96
  8
LAYER_1
 10
66.322222
 20
139.7962052303038
 30
0.0
 11
66.322222
 21
141.0662052303038
 31
0.0
  0
LINE
  5
753
  8
LAYER_1
 10
66.322222
 20
141.0662052303038
 30
0.0
 11
64.79242499999999
 21
141.0662052303038
 31
0.0
  0
LINE
  5
754
  8
LAYER_1
 10
64.79242499999999
 20
141.0662052303038
 30
0.0
 11
63.454955
 21
140.9496142303038
 31
0.0
  0
LINE
  5
99
  8
LAYER_1
 10
63.454955
 20
140.9496142303038
 30
0.0
 11
63.217181
 21
140.7048642303038
 31
0.0
  0
LINE
  5
9A
  8
LAYER_1
 10
63.217181
 20
140.7048642303038
 30
0.0
 11
63.082873
 21
140.2478002303038
 31
0.0
  0
LINE
  5
9B
  8
LAYER_1
 10
63.082873
 20
140.2478002303038
 30
0.0
 11
62.666638
 21
139.3506132303038
 31
0.0
  0
LINE
  5
9C
  8
LAYER_1
 10
62.666638
 20
139.3506132303038
 30
0.0
 11
61.918322
 21
138.3428002303038
 31
0.0
  0
LINE
  5
9D
  8
LAYER_1
 10
61.918322
 20
138.3428002303038
 30
0.0
 11
60.933522
 21
137.2562052303038
 31
0.0
  0
LINE
  5
9E
  8
LAYER_1
 10
60.933522
 20
137.2562052303038
 30
0.0
 11
61.717278
 21
138.4971422303038
 31
0.0
  0
LINE
  5
9F
  8
LAYER_1
 10
61.717278
 20
138.4971422303038
 30
0.0
 11
61.717278
 21
138.4971422303038
 31
0.0
  0
LINE
  5
A0
  8
LAYER_1
 10
78.951667
 20
137.6836482303038
 30
0.0
 11
78.710582
 21
137.9170142303038
 31
0.0
  0
LINE
  5
A1
  8
LAYER_1
 10
78.710582
 20
137.9170142303038
 30
0.0
 11
78.55902
 21
138.3041182303038
 31
0.0
  0
LINE
  5
A2
  8
LAYER_1
 10
78.55902
 20
138.3041182303038
 30
0.0
 11
78.45777800000001
 21
139.8292482303038
 31
0.0
  0
LINE
  5
A3
  8
LAYER_1
 10
78.45777800000001
 20
139.8292482303038
 30
0.0
 11
78.36906500000001
 21
141.3891272303038
 31
0.0
  0
LINE
  5
A4
  8
LAYER_1
 10
78.36906500000001
 20
141.3891272303038
 30
0.0
 11
78.179382
 21
141.5589462303038
 31
0.0
  0
LINE
  5
A5
  8
LAYER_1
 10
78.179382
 20
141.5589462303038
 30
0.0
 11
77.822778
 21
141.5070702303038
 31
0.0
  0
LINE
  5
A6
  8
LAYER_1
 10
77.822778
 20
141.5070702303038
 30
0.0
 11
77.18777799999999
 21
141.3454532303038
 31
0.0
  0
LINE
  5
A7
  8
LAYER_1
 10
77.18777799999999
 20
141.3454532303038
 30
0.0
 11
77.822778
 21
141.6722892303038
 31
0.0
  0
LINE
  5
A8
  8
LAYER_1
 10
77.822778
 20
141.6722892303038
 30
0.0
 11
78.332948
 21
142.1806802303038
 31
0.0
  0
LINE
  5
A9
  8
LAYER_1
 10
78.332948
 20
142.1806802303038
 30
0.0
 11
78.45777800000001
 21
143.2495192303038
 31
0.0
  0
LINE
  5
AA
  8
LAYER_1
 10
78.45777800000001
 20
143.2495192303038
 30
0.0
 11
78.54159199999999
 21
144.1748472303038
 31
0.0
  0
LINE
  5
AB
  8
LAYER_1
 10
78.54159199999999
 20
144.1748472303038
 30
0.0
 11
78.65128799999999
 21
144.3629592303038
 31
0.0
  0
LINE
  5
AC
  8
LAYER_1
 10
78.65128799999999
 20
144.3629592303038
 30
0.0
 11
78.81055600000001
 21
144.3820992303038
 31
0.0
  0
LINE
  5
AD
  8
LAYER_1
 10
78.81055600000001
 20
144.3820992303038
 30
0.0
 11
79.04157600000001
 21
144.0448202303038
 31
0.0
  0
LINE
  5
AE
  8
LAYER_1
 10
79.04157600000001
 20
144.0448202303038
 30
0.0
 11
79.06818199999999
 21
143.3390852303038
 31
0.0
  0
LINE
  5
AF
  8
LAYER_1
 10
79.06818199999999
 20
143.3390852303038
 30
0.0
 11
79.08007000000001
 21
142.6516592303038
 31
0.0
  0
LINE
  5
B0
  8
LAYER_1
 10
79.08007000000001
 20
142.6516592303038
 30
0.0
 11
79.350404
 21
142.5383382303038
 31
0.0
  0
LINE
  5
B1
  8
LAYER_1
 10
79.350404
 20
142.5383382303038
 30
0.0
 11
79.649698
 21
143.0196892303038
 31
0.0
  0
LINE
  5
B2
  8
LAYER_1
 10
79.649698
 20
143.0196892303038
 30
0.0
 11
79.81308199999999
 21
144.1222772303038
 31
0.0
  0
LINE
  5
B3
  8
LAYER_1
 10
79.81308199999999
 20
144.1222772303038
 30
0.0
 11
79.969982
 21
145.2197142303038
 31
0.0
  0
LINE
  5
B4
  8
LAYER_1
 10
79.969982
 20
145.2197142303038
 30
0.0
 11
80.27230299999999
 21
145.5817612303038
 31
0.0
  0
LINE
  5
B5
  8
LAYER_1
 10
80.27230299999999
 20
145.5817612303038
 30
0.0
 11
80.439761
 21
145.5152542303038
 31
0.0
  0
LINE
  5
B6
  8
LAYER_1
 10
80.439761
 20
145.5152542303038
 30
0.0
 11
80.530925
 21
145.2985762303038
 31
0.0
  0
LINE
  5
B7
  8
LAYER_1
 10
80.530925
 20
145.2985762303038
 30
0.0
 11
80.503073
 21
144.3117612303038
 31
0.0
  0
LINE
  5
B8
  8
LAYER_1
 10
80.503073
 20
144.3117612303038
 30
0.0
 11
80.456486
 21
143.5085852303038
 31
0.0
  0
LINE
  5
B9
  8
LAYER_1
 10
80.456486
 20
143.5085852303038
 30
0.0
 11
80.57758800000001
 21
143.1270542303038
 31
0.0
  0
LINE
  5
BA
  8
LAYER_1
 10
80.57758800000001
 20
143.1270542303038
 30
0.0
 11
80.910646
 21
143.1302962303038
 31
0.0
  0
LINE
  5
BB
  8
LAYER_1
 10
80.910646
 20
143.1302962303038
 30
0.0
 11
81.499922
 21
143.4814432303038
 31
0.0
  0
LINE
  5
BC
  8
LAYER_1
 10
81.499922
 20
143.4814432303038
 30
0.0
 11
82.06371
 21
143.7800772303038
 31
0.0
  0
LINE
  5
BD
  8
LAYER_1
 10
82.06371
 20
143.7800772303038
 30
0.0
 11
82.378007
 21
143.6579312303038
 31
0.0
  0
LINE
  5
BE
  8
LAYER_1
 10
82.378007
 20
143.6579312303038
 30
0.0
 11
82.47551
 21
143.0576462303038
 31
0.0
  0
LINE
  5
BF
  8
LAYER_1
 10
82.47551
 20
143.0576462303038
 30
0.0
 11
82.388916
 21
141.9218612303038
 31
0.0
  0
LINE
  5
C0
  8
LAYER_1
 10
82.388916
 20
141.9218612303038
 30
0.0
 11
82.178533
 21
140.6788682303038
 31
0.0
  0
LINE
  5
C1
  8
LAYER_1
 10
82.178533
 20
140.6788682303038
 30
0.0
 11
81.897402
 21
139.8941632303038
 31
0.0
  0
LINE
  5
C2
  8
LAYER_1
 10
81.897402
 20
139.8941632303038
 30
0.0
 11
81.550928
 21
139.5772332303038
 31
0.0
  0
LINE
  5
C3
  8
LAYER_1
 10
81.550928
 20
139.5772332303038
 30
0.0
 11
81.144516
 21
139.7375652303038
 31
0.0
  0
LINE
  5
C4
  8
LAYER_1
 10
81.144516
 20
139.7375652303038
 30
0.0
 11
80.95208100000001
 21
140.0514692303038
 31
0.0
  0
LINE
  5
C5
  8
LAYER_1
 10
80.95208100000001
 20
140.0514692303038
 30
0.0
 11
81.31029700000001
 21
140.2810012303038
 31
0.0
  0
LINE
  5
C6
  8
LAYER_1
 10
81.31029700000001
 20
140.2810012303038
 30
0.0
 11
81.573489
 21
140.4431632303038
 31
0.0
  0
LINE
  5
C7
  8
LAYER_1
 10
81.573489
 20
140.4431632303038
 30
0.0
 11
81.737132
 21
140.7269842303038
 31
0.0
  0
LINE
  5
C8
  8
LAYER_1
 10
81.737132
 20
140.7269842303038
 30
0.0
 11
81.844444
 21
141.8977282303038
 31
0.0
  0
LINE
  5
C9
  8
LAYER_1
 10
81.844444
 20
141.8977282303038
 30
0.0
 11
81.75472600000001
 21
143.0911802303038
 31
0.0
  0
LINE
  5
CA
  8
LAYER_1
 10
81.75472600000001
 20
143.0911802303038
 30
0.0
 11
81.545074
 21
143.1522382303038
 31
0.0
  0
LINE
  5
CB
  8
LAYER_1
 10
81.545074
 20
143.1522382303038
 30
0.0
 11
81.13888900000001
 21
142.9904102303038
 31
0.0
  0
LINE
  5
CC
  8
LAYER_1
 10
81.13888900000001
 20
142.9904102303038
 30
0.0
 11
80.757138
 21
142.7668802303038
 31
0.0
  0
LINE
  5
CD
  8
LAYER_1
 10
80.757138
 20
142.7668802303038
 30
0.0
 11
80.544771
 21
142.4397592303038
 31
0.0
  0
LINE
  5
CE
  8
LAYER_1
 10
80.544771
 20
142.4397592303038
 30
0.0
 11
80.43333300000001
 21
140.8964482303038
 31
0.0
  0
LINE
  5
CF
  8
LAYER_1
 10
80.43333300000001
 20
140.8964482303038
 30
0.0
 11
80.350431
 21
139.5933922303038
 31
0.0
  0
LINE
  5
D0
  8
LAYER_1
 10
80.350431
 20
139.5933922303038
 30
0.0
 11
80.151111
 21
138.9495382303038
 31
0.0
  0
LINE
  5
D1
  8
LAYER_1
 10
80.151111
 20
138.9495382303038
 30
0.0
 11
80.03264299999999
 21
138.9933012303038
 31
0.0
  0
LINE
  5
D2
  8
LAYER_1
 10
80.03264299999999
 20
138.9933012303038
 30
0.0
 11
79.94389200000001
 21
139.2759172303038
 31
0.0
  0
LINE
  5
D3
  8
LAYER_1
 10
79.94389200000001
 20
139.2759172303038
 30
0.0
 11
79.868889
 21
140.4851042303038
 31
0.0
  0
LINE
  5
D4
  8
LAYER_1
 10
79.868889
 20
140.4851042303038
 30
0.0
 11
79.780866
 21
141.8395402303038
 31
0.0
  0
LINE
  5
D5
  8
LAYER_1
 10
79.780866
 20
141.8395402303038
 30
0.0
 11
79.650801
 21
142.1151992303038
 31
0.0
  0
LINE
  5
D6
  8
LAYER_1
 10
79.650801
 20
142.1151992303038
 30
0.0
 11
79.445556
 21
142.1950942303038
 31
0.0
  0
LINE
  5
D7
  8
LAYER_1
 10
79.445556
 20
142.1950942303038
 30
0.0
 11
79.237933
 21
142.1078432303038
 31
0.0
  0
LINE
  5
D8
  8
LAYER_1
 10
79.237933
 20
142.1078432303038
 30
0.0
 11
79.108131
 21
141.8003112303038
 31
0.0
  0
LINE
  5
D9
  8
LAYER_1
 10
79.108131
 20
141.8003112303038
 30
0.0
 11
79.022222
 21
140.2497332303038
 31
0.0
  0
LINE
  5
DA
  8
LAYER_1
 10
79.022222
 20
140.2497332303038
 30
0.0
 11
79.067733
 21
138.9998012303038
 31
0.0
  0
LINE
  5
DB
  8
LAYER_1
 10
79.067733
 20
138.9998012303038
 30
0.0
 11
79.28816500000001
 21
138.3124702303038
 31
0.0
  0
LINE
  5
DC
  8
LAYER_1
 10
79.28816500000001
 20
138.3124702303038
 30
0.0
 11
79.80936800000001
 21
138.0217782303038
 31
0.0
  0
LINE
  5
DD
  8
LAYER_1
 10
79.80936800000001
 20
138.0217782303038
 30
0.0
 11
80.757192
 21
137.9617612303038
 31
0.0
  0
LINE
  5
DE
  8
LAYER_1
 10
80.757192
 20
137.9617612303038
 30
0.0
 11
81.58112300000001
 21
138.0494772303038
 31
0.0
  0
LINE
  5
DF
  8
LAYER_1
 10
81.58112300000001
 20
138.0494772303038
 30
0.0
 11
82.19072199999999
 21
138.3082122303038
 31
0.0
  0
LINE
  5
E0
  8
LAYER_1
 10
82.19072199999999
 20
138.3082122303038
 30
0.0
 11
82.576324
 21
138.7313432303038
 31
0.0
  0
LINE
  5
E1
  8
LAYER_1
 10
82.576324
 20
138.7313432303038
 30
0.0
 11
82.728263
 21
139.3122452303038
 31
0.0
  0
LINE
  5
E2
  8
LAYER_1
 10
82.728263
 20
139.3122452303038
 30
0.0
 11
82.792041
 21
139.7741312303038
 31
0.0
  0
LINE
  5
E3
  8
LAYER_1
 10
82.792041
 20
139.7741312303038
 30
0.0
 11
82.956042
 21
139.0906502303038
 31
0.0
  0
LINE
  5
E4
  8
LAYER_1
 10
82.956042
 20
139.0906502303038
 30
0.0
 11
82.97709
 21
137.8929612303038
 31
0.0
  0
LINE
  5
E5
  8
LAYER_1
 10
82.97709
 20
137.8929612303038
 30
0.0
 11
82.296503
 21
137.6593442303038
 31
0.0
  0
LINE
  5
E6
  8
LAYER_1
 10
82.296503
 20
137.6593442303038
 30
0.0
 11
81.049622
 21
137.5284322303038
 31
0.0
  0
LINE
  5
E7
  8
LAYER_1
 10
81.049622
 20
137.5284322303038
 30
0.0
 11
79.760119
 21
137.5274572303038
 31
0.0
  0
LINE
  5
E8
  8
LAYER_1
 10
79.760119
 20
137.5274572303038
 30
0.0
 11
78.951667
 21
137.6836482303038
 31
0.0
  0
LINE
  5
E9
  8
LAYER_1
 10
78.951667
 20
137.6836482303038
 30
0.0
 11
78.951667
 21
137.6836482303038
 31
0.0
  0
LINE
  5
EA
  8
LAYER_1
 10
32.385
 20
137.8890912303038
 30
0.0
 11
34.431111
 21
137.9864892303038
 31
0.0
  0
LINE
  5
EB
  8
LAYER_1
 10
34.431111
 20
137.9864892303038
 30
0.0
 11
34.431111
 21
141.8076422303038
 31
0.0
  0
LINE
  5
EC
  8
LAYER_1
 10
34.431111
 20
141.8076422303038
 30
0.0
 11
34.505983
 21
144.7925542303038
 31
0.0
  0
LINE
  5
ED
  8
LAYER_1
 10
34.505983
 20
144.7925542303038
 30
0.0
 11
34.61456
 21
145.3821962303038
 31
0.0
  0
LINE
  5
EE
  8
LAYER_1
 10
34.61456
 20
145.3821962303038
 30
0.0
 11
34.783889
 21
145.5097712303038
 31
0.0
  0
LINE
  5
EF
  8
LAYER_1
 10
34.783889
 20
145.5097712303038
 30
0.0
 11
35.024103
 21
145.0875852303038
 31
0.0
  0
LINE
  5
F0
  8
LAYER_1
 10
35.024103
 20
145.0875852303038
 30
0.0
 11
35.039373
 21
144.0595582303038
 31
0.0
  0
LINE
  5
F1
  8
LAYER_1
 10
35.039373
 20
144.0595582303038
 30
0.0
 11
34.94208
 21
142.7283702303038
 31
0.0
  0
LINE
  5
F2
  8
LAYER_1
 10
34.94208
 20
142.7283702303038
 30
0.0
 11
36.519829
 21
142.7922002303038
 31
0.0
  0
LINE
  5
F3
  8
LAYER_1
 10
36.519829
 20
142.7922002303038
 30
0.0
 11
38.286938
 21
142.6666732303038
 31
0.0
  0
LINE
  5
F4
  8
LAYER_1
 10
38.286938
 20
142.6666732303038
 30
0.0
 11
37.909438
 21
142.5329402303038
 31
0.0
  0
LINE
  5
F5
  8
LAYER_1
 10
37.909438
 20
142.5329402303038
 30
0.0
 11
36.735927
 21
142.4773162303038
 31
0.0
  0
LINE
  5
F6
  8
LAYER_1
 10
36.735927
 20
142.4773162303038
 30
0.0
 11
34.995556
 21
142.4773162303038
 31
0.0
  0
LINE
  5
F7
  8
LAYER_1
 10
34.995556
 20
142.4773162303038
 30
0.0
 11
34.995556
 21
140.1938392303038
 31
0.0
  0
LINE
  5
F8
  8
LAYER_1
 10
34.995556
 20
140.1938392303038
 30
0.0
 11
34.995556
 21
137.9103602303038
 31
0.0
  0
LINE
  5
F9
  8
LAYER_1
 10
34.995556
 20
137.9103602303038
 30
0.0
 11
36.809454
 21
138.0036422303038
 31
0.0
  0
LINE
  5
FA
  8
LAYER_1
 10
36.809454
 20
138.0036422303038
 30
0.0
 11
38.151824
 21
138.0082192303038
 31
0.0
  0
LINE
  5
FB
  8
LAYER_1
 10
38.151824
 20
138.0082192303038
 30
0.0
 11
38.832048
 21
137.8882302303038
 31
0.0
  0
LINE
  5
FC
  8
LAYER_1
 10
38.832048
 20
137.8882302303038
 30
0.0
 11
37.701352
 21
137.7573142303038
 31
0.0
  0
LINE
  5
FD
  8
LAYER_1
 10
37.701352
 20
137.7573142303038
 30
0.0
 11
34.689816
 21
137.7356162303038
 31
0.0
  0
LINE
  5
FE
  8
LAYER_1
 10
34.689816
 20
137.7356162303038
 30
0.0
 11
32.218019
 21
137.8038302303038
 31
0.0
  0
LINE
  5
FF
  8
LAYER_1
 10
32.218019
 20
137.8038302303038
 30
0.0
 11
31.933849
 21
137.8468472303038
 31
0.0
  0
LINE
  5
100
  8
LAYER_1
 10
31.933849
 20
137.8468472303038
 30
0.0
 11
32.385
 21
137.8890912303038
 31
0.0
  0
LINE
  5
101
  8
LAYER_1
 10
32.385
 20
137.8890912303038
 30
0.0
 11
32.385
 21
137.8890912303038
 31
0.0
  0
LINE
  5
102
  8
LAYER_1
 10
92.851111
 20
138.9340752303038
 30
0.0
 11
92.851111
 21
140.1886132303038
 31
0.0
  0
LINE
  5
103
  8
LAYER_1
 10
92.851111
 20
140.1886132303038
 30
0.0
 11
91.51055599999999
 21
140.2943162303038
 31
0.0
  0
LINE
  5
104
  8
LAYER_1
 10
91.51055599999999
 20
140.2943162303038
 30
0.0
 11
90.17
 21
140.4000202303038
 31
0.0
  0
LINE
  5
105
  8
LAYER_1
 10
90.17
 20
140.4000202303038
 30
0.0
 11
91.51055599999999
 21
140.4508902303038
 31
0.0
  0
LINE
  5
106
  8
LAYER_1
 10
91.51055599999999
 20
140.4508902303038
 30
0.0
 11
92.641413
 21
140.6041702303038
 31
0.0
  0
LINE
  5
107
  8
LAYER_1
 10
92.641413
 20
140.6041702303038
 30
0.0
 11
92.814367
 21
140.8229672303038
 31
0.0
  0
LINE
  5
108
  8
LAYER_1
 10
92.814367
 20
140.8229672303038
 30
0.0
 11
92.851111
 21
141.2073162303038
 31
0.0
  0
LINE
  5
109
  8
LAYER_1
 10
92.851111
 20
141.2073162303038
 30
0.0
 11
92.684393
 21
141.7926982303038
 31
0.0
  0
LINE
  5
10A
  8
LAYER_1
 10
92.684393
 20
141.7926982303038
 30
0.0
 11
91.93388899999999
 21
141.9572772303038
 31
0.0
  0
LINE
  5
10B
  8
LAYER_1
 10
91.93388899999999
 20
141.9572772303038
 30
0.0
 11
91.733632
 21
141.9892222303038
 31
0.0
  0
LINE
  5
10C
  8
LAYER_1
 10
91.733632
 20
141.9892222303038
 30
0.0
 11
91.86642000000001
 21
142.0433732303038
 31
0.0
  0
LINE
  5
10D
  8
LAYER_1
 10
91.86642000000001
 20
142.0433732303038
 30
0.0
 11
92.992222
 21
142.1880132303038
 31
0.0
  0
LINE
  5
10E
  8
LAYER_1
 10
92.992222
 20
142.1880132303038
 30
0.0
 11
94.466216
 21
142.2518312303038
 31
0.0
  0
LINE
  5
10F
  8
LAYER_1
 10
94.466216
 20
142.2518312303038
 30
0.0
 11
95.235889
 21
142.1436082303038
 31
0.0
  0
LINE
  5
110
  8
LAYER_1
 10
95.235889
 20
142.1436082303038
 30
0.0
 11
95.160679
 21
141.9805072303038
 31
0.0
  0
LINE
  5
111
  8
LAYER_1
 10
95.160679
 20
141.9805072303038
 30
0.0
 11
94.600889
 21
141.9128722303038
 31
0.0
  0
LINE
  5
112
  8
LAYER_1
 10
94.600889
 20
141.9128722303038
 30
0.0
 11
93.854179
 21
141.7843272303038
 31
0.0
  0
LINE
  5
113
  8
LAYER_1
 10
93.854179
 20
141.7843272303038
 30
0.0
 11
93.697778
 21
141.1706132303038
 31
0.0
  0
LINE
  5
114
  8
LAYER_1
 10
93.697778
 20
141.1706132303038
 30
0.0
 11
93.724718
 21
140.7568082303038
 31
0.0
  0
LINE
  5
115
  8
LAYER_1
 10
93.724718
 20
140.7568082303038
 30
0.0
 11
93.875823
 21
140.5521172303038
 31
0.0
  0
LINE
  5
116
  8
LAYER_1
 10
93.875823
 20
140.5521172303038
 30
0.0
 11
94.97223700000001
 21
140.5720032303038
 31
0.0
  0
LINE
  5
117
  8
LAYER_1
 10
94.97223700000001
 20
140.5720032303038
 30
0.0
 11
95.91735799999999
 21
140.6005892303038
 31
0.0
  0
LINE
  5
118
  8
LAYER_1
 10
95.91735799999999
 20
140.6005892303038
 30
0.0
 11
96.40000499999999
 21
140.4675952303038
 31
0.0
  0
LINE
  5
119
  8
LAYER_1
 10
96.40000499999999
 20
140.4675952303038
 30
0.0
 11
96.088872
 21
140.2924052303038
 31
0.0
  0
LINE
  5
11A
  8
LAYER_1
 10
96.088872
 20
140.2924052303038
 30
0.0
 11
95.125546
 21
140.2195382303038
 31
0.0
  0
LINE
  5
11B
  8
LAYER_1
 10
95.125546
 20
140.2195382303038
 30
0.0
 11
93.697778
 21
140.2195382303038
 31
0.0
  0
LINE
  5
11C
  8
LAYER_1
 10
93.697778
 20
140.2195382303038
 30
0.0
 11
93.697778
 21
138.9495382303038
 31
0.0
  0
LINE
  5
11D
  8
LAYER_1
 10
93.697778
 20
138.9495382303038
 30
0.0
 11
93.60370399999999
 21
137.9617612303038
 31
0.0
  0
LINE
  5
11E
  8
LAYER_1
 10
93.60370399999999
 20
137.9617612303038
 30
0.0
 11
93.472882
 21
137.7456842303038
 31
0.0
  0
LINE
  5
11F
  8
LAYER_1
 10
93.472882
 20
137.7456842303038
 30
0.0
 11
93.274444
 21
137.6795382303038
 31
0.0
  0
LINE
  5
120
  8
LAYER_1
 10
93.274444
 20
137.6795382303038
 30
0.0
 11
93.07633300000001
 21
137.7452012303038
 31
0.0
  0
LINE
  5
121
  8
LAYER_1
 10
93.07633300000001
 20
137.7452012303038
 30
0.0
 11
92.945475
 21
137.9591842303038
 31
0.0
  0
LINE
  5
122
  8
LAYER_1
 10
92.945475
 20
137.9591842303038
 30
0.0
 11
92.851111
 21
138.9340752303038
 31
0.0
  0
LINE
  5
123
  8
LAYER_1
 10
92.851111
 20
138.9340752303038
 30
0.0
 11
92.851111
 21
138.9340752303038
 31
0.0
  0
LINE
  5
124
  8
LAYER_1
 10
94.274053
 20
137.8313092303038
 30
0.0
 11
94.44736399999999
 21
138.4305642303038
 31
0.0
  0
LINE
  5
125
  8
LAYER_1
 10
94.44736399999999
 20
138.4305642303038
 30
0.0
 11
94.823002
 21
139.0905852303038
 31
0.0
  0
LINE
  5
126
  8
LAYER_1
 10
94.823002
 20
139.0905852303038
 30
0.0
 11
95.249296
 21
139.5917542303038
 31
0.0
  0
LINE
  5
127
  8
LAYER_1
 10
95.249296
 20
139.5917542303038
 30
0.0
 11
95.574575
 21
139.7144542303038
 31
0.0
  0
LINE
  5
128
  8
LAYER_1
 10
95.574575
 20
139.7144542303038
 30
0.0
 11
95.666315
 21
139.5661162303038
 31
0.0
  0
LINE
  5
129
  8
LAYER_1
 10
95.666315
 20
139.5661162303038
 30
0.0
 11
95.615107
 21
139.3222352303038
 31
0.0
  0
LINE
  5
12A
  8
LAYER_1
 10
95.615107
 20
139.3222352303038
 30
0.0
 11
95.079227
 21
138.5368652303038
 31
0.0
  0
LINE
  5
12B
  8
LAYER_1
 10
95.079227
 20
138.5368652303038
 30
0.0
 11
94.50569299999999
 21
137.9265482303038
 31
0.0
  0
LINE
  5
12C
  8
LAYER_1
 10
94.50569299999999
 20
137.9265482303038
 30
0.0
 11
94.274053
 21
137.8313092303038
 31
0.0
  0
LINE
  5
12D
  8
LAYER_1
 10
94.274053
 20
137.8313092303038
 30
0.0
 11
94.274053
 21
137.8313092303038
 31
0.0
  0
LINE
  5
12E
  8
LAYER_1
 10
96.596434
 20
137.8500492303038
 30
0.0
 11
97.137361
 21
137.8723272303038
 31
0.0
  0
LINE
  5
12F
  8
LAYER_1
 10
97.137361
 20
137.8723272303038
 30
0.0
 11
97.259823
 21
137.7583672303038
 31
0.0
  0
LINE
  5
130
  8
LAYER_1
 10
97.259823
 20
137.7583672303038
 30
0.0
 11
96.96685100000001
 21
137.7018202303038
 31
0.0
  0
LINE
  5
131
  8
LAYER_1
 10
96.96685100000001
 20
137.7018202303038
 30
0.0
 11
96.63491000000001
 21
137.7361722303038
 31
0.0
  0
LINE
  5
132
  8
LAYER_1
 10
96.63491000000001
 20
137.7361722303038
 30
0.0
 11
96.596434
 21
137.8500492303038
 31
0.0
  0
LINE
  5
133
  8
LAYER_1
 10
96.596434
 20
137.8500492303038
 30
0.0
 11
96.596434
 21
137.8500492303038
 31
0.0
  0
LINE
  5
134
  8
LAYER_1
 10
46.011143
 20
141.4895382303038
 30
0.0
 11
46.002112
 21
145.1584272303038
 31
0.0
  0
LINE
  5
135
  8
LAYER_1
 10
46.002112
 20
145.1584272303038
 30
0.0
 11
49.31828
 21
145.1069162303038
 31
0.0
  0
LINE
  5
136
  8
LAYER_1
 10
49.31828
 20
145.1069162303038
 30
0.0
 11
52.634444
 21
145.0554022303038
 31
0.0
  0
LINE
  5
137
  8
LAYER_1
 10
52.634444
 20
145.0554022303038
 30
0.0
 11
52.634444
 21
141.6026562303038
 31
0.0
  0
LINE
  5
138
  8
LAYER_1
 10
52.634444
 20
141.6026562303038
 30
0.0
 11
52.554277
 21
138.9078092303038
 31
0.0
  0
LINE
  5
139
  8
LAYER_1
 10
52.554277
 20
138.9078092303038
 30
0.0
 11
52.445037
 21
138.2731082303038
 31
0.0
  0
LINE
  5
13A
  8
LAYER_1
 10
52.445037
 20
138.2731082303038
 30
0.0
 11
52.281667
 21
138.0323162303038
 31
0.0
  0
LINE
  5
13B
  8
LAYER_1
 10
52.281667
 20
138.0323162303038
 30
0.0
 11
52.032517
 21
138.0805292303038
 31
0.0
  0
LINE
  5
13C
  8
LAYER_1
 10
52.032517
 20
138.0805292303038
 30
0.0
 11
51.928889
 21
138.3615762303038
 31
0.0
  0
LINE
  5
13D
  8
LAYER_1
 10
51.928889
 20
138.3615762303038
 30
0.0
 11
51.712924
 21
138.5881632303038
 31
0.0
  0
LINE
  5
13E
  8
LAYER_1
 10
51.712924
 20
138.5881632303038
 30
0.0
 11
51.139028
 21
138.7464432303038
 31
0.0
  0
LINE
  5
13F
  8
LAYER_1
 10
51.139028
 20
138.7464432303038
 30
0.0
 11
49.361444
 21
138.8618602303038
 31
0.0
  0
LINE
  5
140
  8
LAYER_1
 10
49.361444
 20
138.8618602303038
 30
0.0
 11
47.484132
 21
138.7153762303038
 31
0.0
  0
LINE
  5
141
  8
LAYER_1
 10
47.484132
 20
138.7153762303038
 30
0.0
 11
46.785577
 21
138.5462802303038
 31
0.0
  0
LINE
  5
142
  8
LAYER_1
 10
46.785577
 20
138.5462802303038
 30
0.0
 11
46.39509
 21
138.3145382303038
 31
0.0
  0
LINE
  5
143
  8
LAYER_1
 10
46.39509
 20
138.3145382303038
 30
0.0
 11
46.202032
 21
138.1963542303038
 31
0.0
  0
LINE
  5
144
  8
LAYER_1
 10
46.202032
 20
138.1963542303038
 30
0.0
 11
46.086751
 21
138.5781142303038
 31
0.0
  0
LINE
  5
145
  8
LAYER_1
 10
46.086751
 20
138.5781142303038
 30
0.0
 11
46.011143
 21
141.4895382303038
 31
0.0
  0
LINE
  5
146
  8
LAYER_1
 10
46.011143
 20
141.4895382303038
 30
0.0
 11
46.011143
 21
141.4895382303038
 31
0.0
  0
LINE
  5
147
  8
LAYER_1
 10
48.824444
 20
141.9128722303038
 30
0.0
 11
48.824444
 21
144.7350942303038
 31
0.0
  0
LINE
  5
148
  8
LAYER_1
 10
48.824444
 20
144.7350942303038
 30
0.0
 11
47.695556
 21
144.7350942303038
 31
0.0
  0
LINE
  5
149
  8
LAYER_1
 10
47.695556
 20
144.7350942303038
 30
0.0
 11
46.566667
 21
144.7350942303038
 31
0.0
  0
LINE
  5
14A
  8
LAYER_1
 10
46.566667
 20
144.7350942303038
 30
0.0
 11
46.566667
 21
141.9128722303038
 31
0.0
  0
LINE
  5
14B
  8
LAYER_1
 10
46.566667
 20
141.9128722303038
 30
0.0
 11
46.566667
 21
139.0906502303038
 31
0.0
  0
LINE
  5
14C
  8
LAYER_1
 10
46.566667
 20
139.0906502303038
 30
0.0
 11
47.695556
 21
139.0906502303038
 31
0.0
  0
LINE
  5
14D
  8
LAYER_1
 10
47.695556
 20
139.0906502303038
 30
0.0
 11
48.824444
 21
139.0906502303038
 31
0.0
  0
LINE
  5
14E
  8
LAYER_1
 10
48.824444
 20
139.0906502303038
 30
0.0
 11
48.824444
 21
141.9128722303038
 31
0.0
  0
LINE
  5
14F
  8
LAYER_1
 10
48.824444
 20
141.9128722303038
 30
0.0
 11
48.824444
 21
141.9128722303038
 31
0.0
  0
LINE
  5
150
  8
LAYER_1
 10
51.928889
 20
141.9128722303038
 30
0.0
 11
51.928889
 21
144.7350942303038
 31
0.0
  0
LINE
  5
151
  8
LAYER_1
 10
51.928889
 20
144.7350942303038
 30
0.0
 11
50.8
 21
144.7350942303038
 31
0.0
  0
LINE
  5
152
  8
LAYER_1
 10
50.8
 20
144.7350942303038
 30
0.0
 11
49.671111
 21
144.7350942303038
 31
0.0
  0
LINE
  5
153
  8
LAYER_1
 10
49.671111
 20
144.7350942303038
 30
0.0
 11
49.671111
 21
141.9128722303038
 31
0.0
  0
LINE
  5
154
  8
LAYER_1
 10
49.671111
 20
141.9128722303038
 30
0.0
 11
49.671111
 21
139.0906502303038
 31
0.0
  0
LINE
  5
155
  8
LAYER_1
 10
49.671111
 20
139.0906502303038
 30
0.0
 11
50.8
 21
139.0906502303038
 31
0.0
  0
LINE
  5
156
  8
LAYER_1
 10
50.8
 20
139.0906502303038
 30
0.0
 11
51.928889
 21
139.0906502303038
 31
0.0
  0
LINE
  5
157
  8
LAYER_1
 10
51.928889
 20
139.0906502303038
 30
0.0
 11
51.928889
 21
141.9128722303038
 31
0.0
  0
LINE
  5
158
  8
LAYER_1
 10
51.928889
 20
141.9128722303038
 30
0.0
 11
51.928889
 21
141.9128722303038
 31
0.0
  0
LINE
  5
159
  8
LAYER_1
 10
74.407073
 20
138.3786712303038
 30
0.0
 11
74.52018800000001
 21
138.6930052303038
 31
0.0
  0
LINE
  5
15A
  8
LAYER_1
 10
74.52018800000001
 20
138.6930052303038
 30
0.0
 11
75.091911
 21
138.9113652303038
 31
0.0
  0
LINE
  5
15B
  8
LAYER_1
 10
75.091911
 20
138.9113652303038
 30
0.0
 11
75.555679
 21
139.0370962303038
 31
0.0
  0
LINE
  5
15C
  8
LAYER_1
 10
75.555679
 20
139.0370962303038
 30
0.0
 11
75.802379
 21
139.2713372303038
 31
0.0
  0
LINE
  5
15D
  8
LAYER_1
 10
75.802379
 20
139.2713372303038
 30
0.0
 11
75.917778
 21
140.6358162303038
 31
0.0
  0
LINE
  5
15E
  8
LAYER_1
 10
75.917778
 20
140.6358162303038
 30
0.0
 11
75.810191
 21
141.9848032303038
 31
0.0
  0
LINE
  5
15F
  8
LAYER_1
 10
75.810191
 20
141.9848032303038
 30
0.0
 11
75.578462
 21
142.1812512303038
 31
0.0
  0
LINE
  5
160
  8
LAYER_1
 10
75.578462
 20
142.1812512303038
 30
0.0
 11
75.141667
 21
142.2373792303038
 31
0.0
  0
LINE
  5
161
  8
LAYER_1
 10
75.141667
 20
142.2373792303038
 30
0.0
 11
74.365556
 21
142.2796652303038
 31
0.0
  0
LINE
  5
162
  8
LAYER_1
 10
74.365556
 20
142.2796652303038
 30
0.0
 11
75.141667
 21
142.3972362303038
 31
0.0
  0
LINE
  5
163
  8
LAYER_1
 10
75.141667
 20
142.3972362303038
 30
0.0
 11
75.569175
 21
142.4964212303038
 31
0.0
  0
LINE
  5
164
  8
LAYER_1
 10
75.569175
 20
142.4964212303038
 30
0.0
 11
75.801936
 21
142.7050832303038
 31
0.0
  0
LINE
  5
165
  8
LAYER_1
 10
75.801936
 20
142.7050832303038
 30
0.0
 11
75.917778
 21
143.9071732303038
 31
0.0
  0
LINE
  5
166
  8
LAYER_1
 10
75.917778
 20
143.9071732303038
 30
0.0
 11
76.000681
 21
144.8905312303038
 31
0.0
  0
LINE
  5
167
  8
LAYER_1
 10
76.000681
 20
144.8905312303038
 30
0.0
 11
76.2
 21
145.2995382303038
 31
0.0
  0
LINE
  5
168
  8
LAYER_1
 10
76.2
 20
145.2995382303038
 30
0.0
 11
76.39931900000001
 21
144.8876262303038
 31
0.0
  0
LINE
  5
169
  8
LAYER_1
 10
76.39931900000001
 20
144.8876262303038
 30
0.0
 11
76.48222199999999
 21
143.8972832303038
 31
0.0
  0
LINE
  5
16A
  8
LAYER_1
 10
76.48222199999999
 20
143.8972832303038
 30
0.0
 11
76.56501900000001
 21
142.8208922303038
 31
0.0
  0
LINE
  5
16B
  8
LAYER_1
 10
76.56501900000001
 20
142.8208922303038
 30
0.0
 11
76.686403
 21
142.6398462303038
 31
0.0
  0
LINE
  5
16C
  8
LAYER_1
 10
76.686403
 20
142.6398462303038
 30
0.0
 11
76.877009
 21
142.6465252303038
 31
0.0
  0
LINE
  5
16D
  8
LAYER_1
 10
76.877009
 20
142.6465252303038
 30
0.0
 11
77.210556
 21
142.6649632303038
 31
0.0
  0
LINE
  5
16E
  8
LAYER_1
 10
77.210556
 20
142.6649632303038
 30
0.0
 11
77.45811000000001
 21
142.4965552303038
 31
0.0
  0
LINE
  5
16F
  8
LAYER_1
 10
77.45811000000001
 20
142.4965552303038
 30
0.0
 11
77.42922299999999
 21
142.2796302303038
 31
0.0
  0
LINE
  5
170
  8
LAYER_1
 10
77.42922299999999
 20
142.2796302303038
 30
0.0
 11
77.063323
 21
142.1950942303038
 31
0.0
  0
LINE
  5
171
  8
LAYER_1
 10
77.063323
 20
142.1950942303038
 30
0.0
 11
76.75771899999999
 21
142.1484832303038
 31
0.0
  0
LINE
  5
172
  8
LAYER_1
 10
76.75771899999999
 20
142.1484832303038
 30
0.0
 11
76.581833
 21
141.9532052303038
 31
0.0
  0
LINE
  5
173
  8
LAYER_1
 10
76.581833
 20
141.9532052303038
 30
0.0
 11
76.48222199999999
 21
140.7839832303038
 31
0.0
  0
LINE
  5
174
  8
LAYER_1
 10
76.48222199999999
 20
140.7839832303038
 30
0.0
 11
76.525593
 21
139.9148902303038
 31
0.0
  0
LINE
  5
175
  8
LAYER_1
 10
76.525593
 20
139.9148902303038
 30
0.0
 11
76.699376
 21
139.4820402303038
 31
0.0
  0
LINE
  5
176
  8
LAYER_1
 10
76.699376
 20
139.4820402303038
 30
0.0
 11
77.069082
 21
139.4265772303038
 31
0.0
  0
LINE
  5
177
  8
LAYER_1
 10
77.069082
 20
139.4265772303038
 30
0.0
 11
77.70022
 21
139.6896412303038
 31
0.0
  0
LINE
  5
178
  8
LAYER_1
 10
77.70022
 20
139.6896412303038
 30
0.0
 11
78.070629
 21
139.8391402303038
 31
0.0
  0
LINE
  5
179
  8
LAYER_1
 10
78.070629
 20
139.8391402303038
 30
0.0
 11
78.03444399999999
 21
139.7122212303038
 31
0.0
  0
LINE
  5
17A
  8
LAYER_1
 10
78.03444399999999
 20
139.7122212303038
 30
0.0
 11
76.150162
 21
138.7145912303038
 31
0.0
  0
LINE
  5
17B
  8
LAYER_1
 10
76.150162
 20
138.7145912303038
 30
0.0
 11
74.859605
 21
138.2394842303038
 31
0.0
  0
LINE
  5
17C
  8
LAYER_1
 10
74.859605
 20
138.2394842303038
 30
0.0
 11
74.55263600000001
 21
138.2369252303038
 31
0.0
  0
LINE
  5
17D
  8
LAYER_1
 10
74.55263600000001
 20
138.2369252303038
 30
0.0
 11
74.407073
 21
138.3786712303038
 31
0.0
  0
LINE
  5
17E
  8
LAYER_1
 10
74.407073
 20
138.3786712303038
 30
0.0
 11
74.407073
 21
138.3786712303038
 31
0.0
  0
LINE
  5
17F
  8
LAYER_1
 10
91.40344399999999
 20
138.9245172303038
 30
0.0
 11
91.104489
 21
139.7004132303038
 31
0.0
  0
LINE
  5
180
  8
LAYER_1
 10
91.104489
 20
139.7004132303038
 30
0.0
 11
91.48104100000001
 21
139.5639672303038
 31
0.0
  0
LINE
  5
181
  8
LAYER_1
 10
91.48104100000001
 20
139.5639672303038
 30
0.0
 11
92.128855
 21
138.8543252303038
 31
0.0
  0
LINE
  5
182
  8
LAYER_1
 10
92.128855
 20
138.8543252303038
 30
0.0
 11
92.20085
 21
138.4909242303038
 31
0.0
  0
LINE
  5
183
  8
LAYER_1
 10
92.20085
 20
138.4909242303038
 30
0.0
 11
92.071763
 21
138.1984122303038
 31
0.0
  0
LINE
  5
184
  8
LAYER_1
 10
92.071763
 20
138.1984122303038
 30
0.0
 11
91.779162
 21
138.3154232303038
 31
0.0
  0
LINE
  5
185
  8
LAYER_1
 10
91.779162
 20
138.3154232303038
 30
0.0
 11
91.40344399999999
 21
138.9245172303038
 31
0.0
  0
LINE
  5
186
  8
LAYER_1
 10
91.40344399999999
 20
138.9245172303038
 30
0.0
 11
91.40344399999999
 21
138.9245172303038
 31
0.0
  0
LINE
  5
187
  8
LAYER_1
 10
108.091111
 20
141.5156582303038
 30
0.0
 11
108.091111
 21
144.7873332303038
 31
0.0
  0
LINE
  5
188
  8
LAYER_1
 10
108.091111
 20
144.7873332303038
 30
0.0
 11
106.538505
 21
144.6906582303038
 31
0.0
  0
LINE
  5
189
  8
LAYER_1
 10
106.538505
 20
144.6906582303038
 30
0.0
 11
105.442089
 21
144.6795402303038
 31
0.0
  0
LINE
  5
18A
  8
LAYER_1
 10
105.442089
 20
144.6795402303038
 30
0.0
 11
104.986283
 21
144.7885642303038
 31
0.0
  0
LINE
  5
18B
  8
LAYER_1
 10
104.986283
 20
144.7885642303038
 30
0.0
 11
106.007002
 21
144.9631932303038
 31
0.0
  0
LINE
  5
18C
  8
LAYER_1
 10
106.007002
 20
144.9631932303038
 30
0.0
 11
108.26422
 21
145.0668222303038
 31
0.0
  0
LINE
  5
18D
  8
LAYER_1
 10
108.26422
 20
145.0668222303038
 30
0.0
 11
110.551711
 21
145.0708712303038
 31
0.0
  0
LINE
  5
18E
  8
LAYER_1
 10
110.551711
 20
145.0708712303038
 30
0.0
 11
111.663251
 21
144.9467612303038
 31
0.0
  0
LINE
  5
18F
  8
LAYER_1
 10
111.663251
 20
144.9467612303038
 30
0.0
 11
111.294249
 21
144.7972712303038
 31
0.0
  0
LINE
  5
190
  8
LAYER_1
 10
111.294249
 20
144.7972712303038
 30
0.0
 11
110.224435
 21
144.7350942303038
 31
0.0
  0
LINE
  5
191
  8
LAYER_1
 10
110.224435
 20
144.7350942303038
 30
0.0
 11
108.655556
 21
144.7350942303038
 31
0.0
  0
LINE
  5
192
  8
LAYER_1
 10
108.655556
 20
144.7350942303038
 30
0.0
 11
108.655556
 21
141.4895382303038
 31
0.0
  0
LINE
  5
193
  8
LAYER_1
 10
108.655556
 20
141.4895382303038
 30
0.0
 11
108.578865
 21
139.1259272303038
 31
0.0
  0
LINE
  5
194
  8
LAYER_1
 10
108.578865
 20
139.1259272303038
 30
0.0
 11
108.373333
 21
138.2439832303038
 31
0.0
  0
LINE
  5
195
  8
LAYER_1
 10
108.373333
 20
138.2439832303038
 30
0.0
 11
108.167753
 21
139.1324572303038
 31
0.0
  0
LINE
  5
196
  8
LAYER_1
 10
108.167753
 20
139.1324572303038
 30
0.0
 11
108.091111
 21
141.5156582303038
 31
0.0
  0
LINE
  5
197
  8
LAYER_1
 10
108.091111
 20
141.5156582303038
 30
0.0
 11
108.091111
 21
141.5156582303038
 31
0.0
  0
LINE
  5
198
  8
LAYER_1
 10
111.477778
 20
138.3684372303038
 30
0.0
 11
111.564922
 21
138.5561302303038
 31
0.0
  0
LINE
  5
199
  8
LAYER_1
 10
111.564922
 20
138.5561302303038
 30
0.0
 11
111.768722
 21
138.6590732303038
 31
0.0
  0
LINE
  5
19A
  8
LAYER_1
 10
111.768722
 20
138.6590732303038
 30
0.0
 11
112.002728
 21
138.6572912303038
 31
0.0
  0
LINE
  5
19B
  8
LAYER_1
 10
112.002728
 20
138.6572912303038
 30
0.0
 11
112.180489
 21
138.5308082303038
 31
0.0
  0
LINE
  5
19C
  8
LAYER_1
 10
112.180489
 20
138.5308082303038
 30
0.0
 11
112.176437
 21
138.3282382303038
 31
0.0
  0
LINE
  5
19D
  8
LAYER_1
 10
112.176437
 20
138.3282382303038
 30
0.0
 11
111.917768
 21
138.2439832303038
 31
0.0
  0
LINE
  5
19E
  8
LAYER_1
 10
111.917768
 20
138.2439832303038
 30
0.0
 11
111.477778
 21
138.3684372303038
 31
0.0
  0
LINE
  5
19F
  8
LAYER_1
 10
111.477778
 20
138.3684372303038
 30
0.0
 11
111.477778
 21
138.3684372303038
 31
0.0
  0
LINE
  5
1A0
  8
LAYER_1
 10
110.004962
 20
139.6715282303038
 30
0.0
 11
109.663401
 21
140.3557052303038
 31
0.0
  0
LINE
  5
1A1
  8
LAYER_1
 10
109.663401
 20
140.3557052303038
 30
0.0
 11
110.061669
 21
140.2222142303038
 31
0.0
  0
LINE
  5
1A2
  8
LAYER_1
 10
110.061669
 20
140.2222142303038
 30
0.0
 11
110.775578
 21
139.6232272303038
 31
0.0
  0
LINE
  5
1A3
  8
LAYER_1
 10
110.775578
 20
139.6232272303038
 30
0.0
 11
110.854927
 21
139.3327672303038
 31
0.0
  0
LINE
  5
1A4
  8
LAYER_1
 10
110.854927
 20
139.3327672303038
 30
0.0
 11
110.731653
 21
139.0783022303038
 31
0.0
  0
LINE
  5
1A5
  8
LAYER_1
 10
110.731653
 20
139.0783022303038
 30
0.0
 11
110.418432
 21
139.1445902303038
 31
0.0
  0
LINE
  5
1A6
  8
LAYER_1
 10
110.418432
 20
139.1445902303038
 30
0.0
 11
110.004962
 21
139.6715282303038
 31
0.0
  0
LINE
  5
1A7
  8
LAYER_1
 10
110.004962
 20
139.6715282303038
 30
0.0
 11
110.004962
 21
139.6715282303038
 31
0.0
  0
LINE
  5
1A8
  8
LAYER_1
 10
2.864508
 20
142.7812162303038
 30
0.0
 11
2.822222
 21
144.6373352303038
 31
0.0
  0
LINE
  5
1A9
  8
LAYER_1
 10
2.822222
 20
144.6373352303038
 30
0.0
 11
3.668889
 21
144.5130732303038
 31
0.0
  0
LINE
  5
1AA
  8
LAYER_1
 10
3.668889
 20
144.5130732303038
 30
0.0
 11
4.329497
 21
144.5130902303038
 31
0.0
  0
LINE
  5
1AB
  8
LAYER_1
 10
4.329497
 20
144.5130902303038
 30
0.0
 11
4.515556
 21
144.8300902303038
 31
0.0
  0
LINE
  5
1AC
  8
LAYER_1
 10
4.515556
 20
144.8300902303038
 30
0.0
 11
4.436905
 21
145.0462602303038
 31
0.0
  0
LINE
  5
1AD
  8
LAYER_1
 10
4.436905
 20
145.0462602303038
 30
0.0
 11
4.170588
 21
145.1974402303038
 31
0.0
  0
LINE
  5
1AE
  8
LAYER_1
 10
4.170588
 20
145.1974402303038
 30
0.0
 11
2.892778
 21
145.3648702303038
 31
0.0
  0
LINE
  5
1AF
  8
LAYER_1
 10
2.892778
 20
145.3648702303038
 30
0.0
 11
2.559929
 21
145.4116092303038
 31
0.0
  0
LINE
  5
1B0
  8
LAYER_1
 10
2.559929
 20
145.4116092303038
 30
0.0
 11
2.853268
 21
145.4697522303038
 31
0.0
  0
LINE
  5
1B1
  8
LAYER_1
 10
2.853268
 20
145.4697522303038
 30
0.0
 11
5.03707
 21
145.5906202303038
 31
0.0
  0
LINE
  5
1B2
  8
LAYER_1
 10
5.03707
 20
145.5906202303038
 30
0.0
 11
7.735793
 21
145.6218462303038
 31
0.0
  0
LINE
  5
1B3
  8
LAYER_1
 10
7.735793
 20
145.6218462303038
 30
0.0
 11
8.934282
 21
145.5112052303038
 31
0.0
  0
LINE
  5
1B4
  8
LAYER_1
 10
8.934282
 20
145.5112052303038
 30
0.0
 11
8.449851000000001
 21
145.3617162303038
 31
0.0
  0
LINE
  5
1B5
  8
LAYER_1
 10
8.449851000000001
 20
145.3617162303038
 30
0.0
 11
7.102406
 21
145.2995382303038
 31
0.0
  0
LINE
  5
1B6
  8
LAYER_1
 10
7.102406
 20
145.2995382303038
 30
0.0
 11
5.529864
 21
145.2079172303038
 31
0.0
  0
LINE
  5
1B7
  8
LAYER_1
 10
5.529864
 20
145.2079172303038
 30
0.0
 11
5.153072
 21
145.0774022303038
 31
0.0
  0
LINE
  5
1B8
  8
LAYER_1
 10
5.153072
 20
145.0774022303038
 30
0.0
 11
4.977941
 21
144.8762052303038
 31
0.0
  0
LINE
  5
1B9
  8
LAYER_1
 10
4.977941
 20
144.8762052303038
 30
0.0
 11
4.949628
 21
144.6700772303038
 31
0.0
  0
LINE
  5
1BA
  8
LAYER_1
 10
4.949628
 20
144.6700772303038
 30
0.0
 11
5.076346
 21
144.5401102303038
 31
0.0
  0
LINE
  5
1BB
  8
LAYER_1
 10
5.076346
 20
144.5401102303038
 30
0.0
 11
5.918868
 21
144.4528722303038
 31
0.0
  0
LINE
  5
1BC
  8
LAYER_1
 10
5.918868
 20
144.4528722303038
 30
0.0
 11
6.7502
 21
144.5371272303038
 31
0.0
  0
LINE
  5
1BD
  8
LAYER_1
 10
6.7502
 20
144.5371272303038
 30
0.0
 11
7.199512
 21
144.7396972303038
 31
0.0
  0
LINE
  5
1BE
  8
LAYER_1
 10
7.199512
 20
144.7396972303038
 30
0.0
 11
7.401882
 21
144.8945722303038
 31
0.0
  0
LINE
  5
1BF
  8
LAYER_1
 10
7.401882
 20
144.8945722303038
 30
0.0
 11
7.639501
 21
144.8641512303038
 31
0.0
  0
LINE
  5
1C0
  8
LAYER_1
 10
7.639501
 20
144.8641512303038
 30
0.0
 11
7.837129
 21
144.1777792303038
 31
0.0
  0
LINE
  5
1C1
  8
LAYER_1
 10
7.837129
 20
144.1777792303038
 30
0.0
 11
7.897529
 21
142.8825622303038
 31
0.0
  0
LINE
  5
1C2
  8
LAYER_1
 10
7.897529
 20
142.8825622303038
 30
0.0
 11
7.82404
 21
141.6286532303038
 31
0.0
  0
LINE
  5
1C3
  8
LAYER_1
 10
7.82404
 20
141.6286532303038
 30
0.0
 11
7.62
 21
141.0662052303038
 31
0.0
  0
LINE
  5
1C4
  8
LAYER_1
 10
7.62
 20
141.0662052303038
 30
0.0
 11
7.420681
 21
141.2734622303038
 31
0.0
  0
LINE
  5
1C5
  8
LAYER_1
 10
7.420681
 20
141.2734622303038
 30
0.0
 11
7.337778
 21
141.7717612303038
 31
0.0
  0
LINE
  5
1C6
  8
LAYER_1
 10
7.337778
 20
141.7717612303038
 30
0.0
 11
7.298207
 21
142.1728092303038
 31
0.0
  0
LINE
  5
1C7
  8
LAYER_1
 10
7.298207
 20
142.1728092303038
 30
0.0
 11
7.05743
 21
142.3830322303038
 31
0.0
  0
LINE
  5
1C8
  8
LAYER_1
 10
7.05743
 20
142.3830322303038
 30
0.0
 11
5.239857
 21
142.4773162303038
 31
0.0
  0
LINE
  5
1C9
  8
LAYER_1
 10
5.239857
 20
142.4773162303038
 30
0.0
 11
3.398659
 21
142.3767052303038
 31
0.0
  0
LINE
  5
1CA
  8
LAYER_1
 10
3.398659
 20
142.3767052303038
 30
0.0
 11
3.128149
 21
142.1458472303038
 31
0.0
  0
LINE
  5
1CB
  8
LAYER_1
 10
3.128149
 20
142.1458472303038
 30
0.0
 11
3.024365
 21
141.7012052303038
 31
0.0
  0
LINE
  5
1CC
  8
LAYER_1
 10
3.024365
 20
141.7012052303038
 30
0.0
 11
2.975378
 21
141.5463152303038
 31
0.0
  0
LINE
  5
1CD
  8
LAYER_1
 10
2.975378
 20
141.5463152303038
 30
0.0
 11
2.928909
 21
141.6983122303038
 31
0.0
  0
LINE
  5
1CE
  8
LAYER_1
 10
2.928909
 20
141.6983122303038
 30
0.0
 11
2.864508
 21
142.7812162303038
 31
0.0
  0
LINE
  5
1CF
  8
LAYER_1
 10
2.864508
 20
142.7812162303038
 30
0.0
 11
2.864508
 21
142.7812162303038
 31
0.0
  0
LINE
  5
1D0
  8
LAYER_1
 10
7.337778
 20
143.0417612303038
 30
0.0
 11
6.738056
 21
143.2440202303038
 31
0.0
  0
LINE
  5
1D1
  8
LAYER_1
 10
6.738056
 20
143.2440202303038
 30
0.0
 11
5.221111
 21
143.3239832303038
 31
0.0
  0
LINE
  5
1D2
  8
LAYER_1
 10
5.221111
 20
143.3239832303038
 30
0.0
 11
3.704167
 21
143.2440202303038
 31
0.0
  0
LINE
  5
1D3
  8
LAYER_1
 10
3.704167
 20
143.2440202303038
 30
0.0
 11
3.104444
 21
143.0417612303038
 31
0.0
  0
LINE
  5
1D4
  8
LAYER_1
 10
3.104444
 20
143.0417612303038
 30
0.0
 11
3.704167
 21
142.8395012303038
 31
0.0
  0
LINE
  5
1D5
  8
LAYER_1
 10
3.704167
 20
142.8395012303038
 30
0.0
 11
5.221111
 21
142.7595382303038
 31
0.0
  0
LINE
  5
1D6
  8
LAYER_1
 10
5.221111
 20
142.7595382303038
 30
0.0
 11
6.738056
 21
142.8395012303038
 31
0.0
  0
LINE
  5
1D7
  8
LAYER_1
 10
6.738056
 20
142.8395012303038
 30
0.0
 11
7.337778
 21
143.0417612303038
 31
0.0
  0
LINE
  5
1D8
  8
LAYER_1
 10
7.337778
 20
143.0417612303038
 30
0.0
 11
7.337778
 21
143.0417612303038
 31
0.0
  0
LINE
  5
1D9
  8
LAYER_1
 10
7.337778
 20
143.8884272303038
 30
0.0
 11
6.738056
 21
144.0906872303038
 31
0.0
  0
LINE
  5
1DA
  8
LAYER_1
 10
6.738056
 20
144.0906872303038
 30
0.0
 11
5.221111
 21
144.1706502303038
 31
0.0
  0
LINE
  5
1DB
  8
LAYER_1
 10
5.221111
 20
144.1706502303038
 30
0.0
 11
3.704167
 21
144.0906872303038
 31
0.0
  0
LINE
  5
1DC
  8
LAYER_1
 10
3.704167
 20
144.0906872303038
 30
0.0
 11
3.104444
 21
143.8884272303038
 31
0.0
  0
LINE
  5
1DD
  8
LAYER_1
 10
3.104444
 20
143.8884272303038
 30
0.0
 11
3.704167
 21
143.6861682303038
 31
0.0
  0
LINE
  5
1DE
  8
LAYER_1
 10
3.704167
 20
143.6861682303038
 30
0.0
 11
5.221111
 21
143.6062052303038
 31
0.0
  0
LINE
  5
1DF
  8
LAYER_1
 10
5.221111
 20
143.6062052303038
 30
0.0
 11
6.738056
 21
143.6861682303038
 31
0.0
  0
LINE
  5
1E0
  8
LAYER_1
 10
6.738056
 20
143.6861682303038
 30
0.0
 11
7.337778
 21
143.8884272303038
 31
0.0
  0
LINE
  5
1E1
  8
LAYER_1
 10
7.337778
 20
143.8884272303038
 30
0.0
 11
7.337778
 21
143.8884272303038
 31
0.0
  0
LINE
  5
1E2
  8
LAYER_1
 10
90.18832999999999
 20
142.3049602303038
 30
0.0
 11
91.232426
 21
143.3339092303038
 31
0.0
  0
LINE
  5
1E3
  8
LAYER_1
 10
91.232426
 20
143.3339092303038
 30
0.0
 11
92.13171300000001
 21
144.4328962303038
 31
0.0
  0
LINE
  5
1E4
  8
LAYER_1
 10
92.13171300000001
 20
144.4328962303038
 30
0.0
 11
92.786357
 21
145.2410892303038
 31
0.0
  0
LINE
  5
1E5
  8
LAYER_1
 10
92.786357
 20
145.2410892303038
 30
0.0
 11
93.242271
 21
145.5708892303038
 31
0.0
  0
LINE
  5
1E6
  8
LAYER_1
 10
93.242271
 20
145.5708892303038
 30
0.0
 11
93.63011899999999
 21
145.3008302303038
 31
0.0
  0
LINE
  5
1E7
  8
LAYER_1
 10
93.63011899999999
 20
145.3008302303038
 30
0.0
 11
94.121111
 21
144.6668052303038
 31
0.0
  0
LINE
  5
1E8
  8
LAYER_1
 10
94.121111
 20
144.6668052303038
 30
0.0
 11
94.954227
 21
143.8094742303038
 31
0.0
  0
LINE
  5
1E9
  8
LAYER_1
 10
94.954227
 20
143.8094742303038
 30
0.0
 11
96.16462300000001
 21
143.0025352303038
 31
0.0
  0
LINE
  5
1EA
  8
LAYER_1
 10
96.16462300000001
 20
143.0025352303038
 30
0.0
 11
97.26640999999999
 21
142.3395572303038
 31
0.0
  0
LINE
  5
1EB
  8
LAYER_1
 10
97.26640999999999
 20
142.3395572303038
 30
0.0
 11
97.307408
 21
142.1714162303038
 31
0.0
  0
LINE
  5
1EC
  8
LAYER_1
 10
97.307408
 20
142.1714162303038
 30
0.0
 11
97.06844200000001
 21
142.0489032303038
 31
0.0
  0
LINE
  5
1ED
  8
LAYER_1
 10
97.06844200000001
 20
142.0489032303038
 30
0.0
 11
96.404477
 21
142.1208272303038
 31
0.0
  0
LINE
  5
1EE
  8
LAYER_1
 10
96.404477
 20
142.1208272303038
 30
0.0
 11
95.557875
 21
142.5830422303038
 31
0.0
  0
LINE
  5
1EF
  8
LAYER_1
 10
95.557875
 20
142.5830422303038
 30
0.0
 11
94.70106800000001
 21
143.3146972303038
 31
0.0
  0
LINE
  5
1F0
  8
LAYER_1
 10
94.70106800000001
 20
143.3146972303038
 30
0.0
 11
94.006489
 21
144.1949382303038
 31
0.0
  0
LINE
  5
1F1
  8
LAYER_1
 10
94.006489
 20
144.1949382303038
 30
0.0
 11
93.516588
 21
145.0005162303038
 31
0.0
  0
LINE
  5
1F2
  8
LAYER_1
 10
93.516588
 20
145.0005162303038
 30
0.0
 11
92.266626
 21
143.7258532303038
 31
0.0
  0
LINE
  5
1F3
  8
LAYER_1
 10
92.266626
 20
143.7258532303038
 30
0.0
 11
91.093683
 21
142.6603462303038
 31
0.0
  0
LINE
  5
1F4
  8
LAYER_1
 10
91.093683
 20
142.6603462303038
 30
0.0
 11
90.02888900000001
 21
141.8885412303038
 31
0.0
  0
LINE
  5
1F5
  8
LAYER_1
 10
90.02888900000001
 20
141.8885412303038
 30
0.0
 11
89.310824
 21
141.5206552303038
 31
0.0
  0
LINE
  5
1F6
  8
LAYER_1
 10
89.310824
 20
141.5206552303038
 30
0.0
 11
90.18832999999999
 21
142.3049602303038
 31
0.0
  0
LINE
  5
1F7
  8
LAYER_1
 10
90.18832999999999
 20
142.3049602303038
 30
0.0
 11
90.18832999999999
 21
142.3049602303038
 31
0.0
  0
LINE
  5
1F8
  8
LAYER_1
 10
110.631111
 20
141.7551042303038
 30
0.0
 11
110.718256
 21
141.9427972303038
 31
0.0
  0
LINE
  5
1F9
  8
LAYER_1
 10
110.718256
 20
141.9427972303038
 30
0.0
 11
110.922056
 21
142.0457402303038
 31
0.0
  0
LINE
  5
1FA
  8
LAYER_1
 10
110.922056
 20
142.0457402303038
 30
0.0
 11
111.156061
 21
142.0439572303038
 31
0.0
  0
LINE
  5
1FB
  8
LAYER_1
 10
111.156061
 20
142.0439572303038
 30
0.0
 11
111.333822
 21
141.9174752303038
 31
0.0
  0
LINE
  5
1FC
  8
LAYER_1
 10
111.333822
 20
141.9174752303038
 30
0.0
 11
111.329771
 21
141.7149052303038
 31
0.0
  0
LINE
  5
1FD
  8
LAYER_1
 10
111.329771
 20
141.7149052303038
 30
0.0
 11
111.071101
 21
141.6306502303038
 31
0.0
  0
LINE
  5
1FE
  8
LAYER_1
 10
111.071101
 20
141.6306502303038
 30
0.0
 11
110.631111
 21
141.7551042303038
 31
0.0
  0
LINE
  5
1FF
  8
LAYER_1
 10
110.631111
 20
141.7551042303038
 30
0.0
 11
110.631111
 21
141.7551042303038
 31
0.0
  0
LINE
  5
200
  8
LAYER_1
 10
6.78802
 20
163.812305
 30
0.0
 11
6.66722
 21
164.136721
 31
0.0
  0
LINE
  5
201
  8
LAYER_1
 10
6.66722
 20
164.136721
 30
0.0
 11
7.049608
 21
164.333552
 31
0.0
  0
LINE
  5
202
  8
LAYER_1
 10
7.049608
 20
164.333552
 30
0.0
 11
7.452447
 21
164.535425
 31
0.0
  0
LINE
  5
203
  8
LAYER_1
 10
7.452447
 20
164.535425
 30
0.0
 11
7.62
 21
164.811321
 31
0.0
  0
LINE
  5
204
  8
LAYER_1
 10
7.62
 20
164.811321
 30
0.0
 11
7.183778
 21
165.043616
 31
0.0
  0
LINE
  5
205
  8
LAYER_1
 10
7.183778
 20
165.043616
 30
0.0
 11
5.856111
 21
165.079099
 31
0.0
  0
LINE
  5
206
  8
LAYER_1
 10
5.856111
 20
165.079099
 30
0.0
 11
4.622005
 21
165.110319
 31
0.0
  0
LINE
  5
207
  8
LAYER_1
 10
4.622005
 20
165.110319
 30
0.0
 11
4.131848
 21
165.270801
 31
0.0
  0
LINE
  5
208
  8
LAYER_1
 10
4.131848
 20
165.270801
 30
0.0
 11
4.365939
 21
166.440556
 31
0.0
  0
LINE
  5
209
  8
LAYER_1
 10
4.365939
 20
166.440556
 30
0.0
 11
4.427511
 21
167.192408
 31
0.0
  0
LINE
  5
20A
  8
LAYER_1
 10
4.427511
 20
167.192408
 30
0.0
 11
4.299033
 21
167.338226
 31
0.0
  0
LINE
  5
20B
  8
LAYER_1
 10
4.299033
 20
167.338226
 30
0.0
 11
4.044091
 21
167.390516
 31
0.0
  0
LINE
  5
20C
  8
LAYER_1
 10
4.044091
 20
167.390516
 30
0.0
 11
3.709433
 21
167.440063
 31
0.0
  0
LINE
  5
20D
  8
LAYER_1
 10
3.709433
 20
167.440063
 30
0.0
 11
3.993108
 21
167.546822
 31
0.0
  0
LINE
  5
20E
  8
LAYER_1
 10
3.993108
 20
167.546822
 30
0.0
 11
4.37982
 21
167.919128
 31
0.0
  0
LINE
  5
20F
  8
LAYER_1
 10
4.37982
 20
167.919128
 30
0.0
 11
4.646307
 21
168.67181
 31
0.0
  0
LINE
  5
210
  8
LAYER_1
 10
4.646307
 20
168.67181
 30
0.0
 11
4.723361
 21
169.709123
 31
0.0
  0
LINE
  5
211
  8
LAYER_1
 10
4.723361
 20
169.709123
 30
0.0
 11
4.506194
 21
169.690906
 31
0.0
  0
LINE
  5
212
  8
LAYER_1
 10
4.506194
 20
169.690906
 30
0.0
 11
4.070219
 21
169.373671
 31
0.0
  0
LINE
  5
213
  8
LAYER_1
 10
4.070219
 20
169.373671
 30
0.0
 11
3.513676
 21
168.63952
 31
0.0
  0
LINE
  5
214
  8
LAYER_1
 10
3.513676
 20
168.63952
 30
0.0
 11
3.022935
 21
167.499484
 31
0.0
  0
LINE
  5
215
  8
LAYER_1
 10
3.022935
 20
167.499484
 30
0.0
 11
2.673281
 21
166.174398
 31
0.0
  0
LINE
  5
216
  8
LAYER_1
 10
2.673281
 20
166.174398
 30
0.0
 11
2.54
 21
164.885096
 31
0.0
  0
LINE
  5
217
  8
LAYER_1
 10
2.54
 20
164.885096
 30
0.0
 11
2.456236
 21
163.965551
 31
0.0
  0
LINE
  5
218
  8
LAYER_1
 10
2.456236
 20
163.965551
 30
0.0
 11
2.346546
 21
163.779522
 31
0.0
  0
LINE
  5
219
  8
LAYER_1
 10
2.346546
 20
163.779522
 30
0.0
 11
2.187222
 21
163.761883
 31
0.0
  0
LINE
  5
21A
  8
LAYER_1
 10
2.187222
 20
163.761883
 30
0.0
 11
1.938073
 21
164.110668
 31
0.0
  0
LINE
  5
21B
  8
LAYER_1
 10
1.938073
 20
164.110668
 30
0.0
 11
1.834444
 21
164.78068
 31
0.0
  0
LINE
  5
21C
  8
LAYER_1
 10
1.834444
 20
164.78068
 30
0.0
 11
1.71009
 21
165.494865
 31
0.0
  0
LINE
  5
21D
  8
LAYER_1
 10
1.71009
 20
165.494865
 30
0.0
 11
1.411111
 21
165.949847
 31
0.0
  0
LINE
  5
21E
  8
LAYER_1
 10
1.411111
 20
165.949847
 30
0.0
 11
1.157927
 21
166.171713
 31
0.0
  0
LINE
  5
21F
  8
LAYER_1
 10
1.157927
 20
166.171713
 30
0.0
 11
1.49728
 21
166.224568
 31
0.0
  0
LINE
  5
220
  8
LAYER_1
 10
1.49728
 20
166.224568
 30
0.0
 11
2.040787
 21
166.595064
 31
0.0
  0
LINE
  5
221
  8
LAYER_1
 10
2.040787
 20
166.595064
 30
0.0
 11
2.653476
 21
167.710556
 31
0.0
  0
LINE
  5
222
  8
LAYER_1
 10
2.653476
 20
167.710556
 30
0.0
 11
3.627128
 21
169.897778
 31
0.0
  0
LINE
  5
223
  8
LAYER_1
 10
3.627128
 20
169.897778
 30
0.0
 11
3.954086
 21
170.603333
 31
0.0
  0
LINE
  5
224
  8
LAYER_1
 10
3.954086
 20
170.603333
 30
0.0
 11
3.796874
 21
169.897778
 31
0.0
  0
LINE
  5
225
  8
LAYER_1
 10
3.796874
 20
169.897778
 30
0.0
 11
3.722
 21
169.365373
 31
0.0
  0
LINE
  5
226
  8
LAYER_1
 10
3.722
 20
169.365373
 30
0.0
 11
4.080058
 21
169.743399
 31
0.0
  0
LINE
  5
227
  8
LAYER_1
 10
4.080058
 20
169.743399
 30
0.0
 11
4.856921
 21
171.225066
 31
0.0
  0
LINE
  5
228
  8
LAYER_1
 10
4.856921
 20
171.225066
 30
0.0
 11
5.202253
 21
171.882225
 31
0.0
  0
LINE
  5
229
  8
LAYER_1
 10
5.202253
 20
171.882225
 30
0.0
 11
5.560028
 21
172.155556
 31
0.0
  0
LINE
  5
22A
  8
LAYER_1
 10
5.560028
 20
172.155556
 30
0.0
 11
5.821921
 21
172.094122
 31
0.0
  0
LINE
  5
22B
  8
LAYER_1
 10
5.821921
 20
172.094122
 30
0.0
 11
5.911775
 21
171.924221
 31
0.0
  0
LINE
  5
22C
  8
LAYER_1
 10
5.911775
 20
171.924221
 30
0.0
 11
5.573889
 21
171.345406
 31
0.0
  0
LINE
  5
22D
  8
LAYER_1
 10
5.573889
 20
171.345406
 30
0.0
 11
5.473932
 21
171.170208
 31
0.0
  0
LINE
  5
22E
  8
LAYER_1
 10
5.473932
 20
171.170208
 30
0.0
 11
5.638332
 21
171.071172
 31
0.0
  0
LINE
  5
22F
  8
LAYER_1
 10
5.638332
 20
171.071172
 30
0.0
 11
6.982974
 21
171.0558
 31
0.0
  0
LINE
  5
230
  8
LAYER_1
 10
6.982974
 20
171.0558
 30
0.0
 11
8.935010999999999
 21
170.93462
 31
0.0
  0
LINE
  5
231
  8
LAYER_1
 10
8.935010999999999
 20
170.93462
 30
0.0
 11
8.480078000000001
 21
170.800308
 31
0.0
  0
LINE
  5
232
  8
LAYER_1
 10
8.480078000000001
 20
170.800308
 30
0.0
 11
7.119249
 21
170.744444
 31
0.0
  0
LINE
  5
233
  8
LAYER_1
 10
7.119249
 20
170.744444
 30
0.0
 11
5.593112
 21
170.65476
 31
0.0
  0
LINE
  5
234
  8
LAYER_1
 10
5.593112
 20
170.65476
 30
0.0
 11
4.905577
 21
170.408323
 31
0.0
  0
LINE
  5
235
  8
LAYER_1
 10
4.905577
 20
170.408323
 30
0.0
 11
4.856327
 21
170.138449
 31
0.0
  0
LINE
  5
236
  8
LAYER_1
 10
4.856327
 20
170.138449
 30
0.0
 11
5.029628
 21
169.961605
 31
0.0
  0
LINE
  5
237
  8
LAYER_1
 10
5.029628
 20
169.961605
 30
0.0
 11
5.234071
 21
169.601886
 31
0.0
  0
LINE
  5
238
  8
LAYER_1
 10
5.234071
 20
169.601886
 30
0.0
 11
5.184637
 21
168.745504
 31
0.0
  0
LINE
  5
239
  8
LAYER_1
 10
5.184637
 20
168.745504
 30
0.0
 11
5.007859
 21
167.64
 31
0.0
  0
LINE
  5
23A
  8
LAYER_1
 10
5.007859
 20
167.64
 30
0.0
 11
6.476622
 21
167.64
 31
0.0
  0
LINE
  5
23B
  8
LAYER_1
 10
6.476622
 20
167.64
 30
0.0
 11
7.945385
 21
167.64
 31
0.0
  0
LINE
  5
23C
  8
LAYER_1
 10
7.945385
 20
167.64
 30
0.0
 11
7.896458
 21
168.698333
 31
0.0
  0
LINE
  5
23D
  8
LAYER_1
 10
7.896458
 20
168.698333
 30
0.0
 11
7.900919
 21
170.034783
 31
0.0
  0
LINE
  5
23E
  8
LAYER_1
 10
7.900919
 20
170.034783
 30
0.0
 11
8.019826999999999
 21
170.128016
 31
0.0
  0
LINE
  5
23F
  8
LAYER_1
 10
8.019826999999999
 20
170.128016
 30
0.0
 11
8.247365
 21
169.947745
 31
0.0
  0
LINE
  5
240
  8
LAYER_1
 10
8.247365
 20
169.947745
 30
0.0
 11
8.465484999999999
 21
169.406417
 31
0.0
  0
LINE
  5
241
  8
LAYER_1
 10
8.465484999999999
 20
169.406417
 30
0.0
 11
8.505232
 21
168.589593
 31
0.0
  0
LINE
  5
242
  8
LAYER_1
 10
8.505232
 20
168.589593
 30
0.0
 11
8.516514000000001
 21
167.877494
 31
0.0
  0
LINE
  5
243
  8
LAYER_1
 10
8.516514000000001
 20
167.877494
 30
0.0
 11
8.595952000000001
 21
167.74662
 31
0.0
  0
LINE
  5
244
  8
LAYER_1
 10
8.595952000000001
 20
167.74662
 30
0.0
 11
8.724534
 21
167.76606
 31
0.0
  0
LINE
  5
245
  8
LAYER_1
 10
8.724534
 20
167.76606
 30
0.0
 11
9.043847
 21
167.836346
 31
0.0
  0
LINE
  5
246
  8
LAYER_1
 10
9.043847
 20
167.836346
 30
0.0
 11
9.381043999999999
 21
167.739263
 31
0.0
  0
LINE
  5
247
  8
LAYER_1
 10
9.381043999999999
 20
167.739263
 30
0.0
 11
9.470955999999999
 21
167.535842
 31
0.0
  0
LINE
  5
248
  8
LAYER_1
 10
9.470955999999999
 20
167.535842
 30
0.0
 11
9.028266
 21
167.35874
 31
0.0
  0
LINE
  5
249
  8
LAYER_1
 10
9.028266
 20
167.35874
 30
0.0
 11
8.455394
 21
167.038149
 31
0.0
  0
LINE
  5
24A
  8
LAYER_1
 10
8.455394
 20
167.038149
 30
0.0
 11
8.237272000000001
 21
166.290408
 31
0.0
  0
LINE
  5
24B
  8
LAYER_1
 10
8.237272000000001
 20
166.290408
 30
0.0
 11
8.254312000000001
 21
165.60976
 31
0.0
  0
LINE
  5
24C
  8
LAYER_1
 10
8.254312000000001
 20
165.60976
 30
0.0
 11
8.366813000000001
 21
165.511354
 31
0.0
  0
LINE
  5
24D
  8
LAYER_1
 10
8.366813000000001
 20
165.511354
 30
0.0
 11
8.561503
 21
165.544627
 31
0.0
  0
LINE
  5
24E
  8
LAYER_1
 10
8.561503
 20
165.544627
 30
0.0
 11
8.907571000000001
 21
165.567871
 31
0.0
  0
LINE
  5
24F
  8
LAYER_1
 10
8.907571000000001
 20
165.567871
 30
0.0
 11
9.160330999999999
 21
165.401461
 31
0.0
  0
LINE
  5
250
  8
LAYER_1
 10
9.160330999999999
 20
165.401461
 30
0.0
 11
9.138126
 21
165.185313
 31
0.0
  0
LINE
  5
251
  8
LAYER_1
 10
9.138126
 20
165.185313
 30
0.0
 11
8.796139999999999
 21
165.1
 31
0.0
  0
LINE
  5
252
  8
LAYER_1
 10
8.796139999999999
 20
165.1
 30
0.0
 11
8.346641999999999
 21
164.921312
 31
0.0
  0
LINE
  5
253
  8
LAYER_1
 10
8.346641999999999
 20
164.921312
 30
0.0
 11
8.076364999999999
 21
164.425574
 31
0.0
  0
LINE
  5
254
  8
LAYER_1
 10
8.076364999999999
 20
164.425574
 30
0.0
 11
7.848892
 21
163.915022
 31
0.0
  0
LINE
  5
255
  8
LAYER_1
 10
7.848892
 20
163.915022
 30
0.0
 11
7.515293
 21
163.622134
 31
0.0
  0
LINE
  5
256
  8
LAYER_1
 10
7.515293
 20
163.622134
 30
0.0
 11
7.140143
 21
163.577649
 31
0.0
  0
LINE
  5
257
  8
LAYER_1
 10
7.140143
 20
163.577649
 30
0.0
 11
6.78802
 21
163.812305
 31
0.0
  0
LINE
  5
258
  8
LAYER_1
 10
6.78802
 20
163.812305
 30
0.0
 11
6.78802
 21
163.812305
 31
0.0
  0
LINE
  5
259
  8
LAYER_1
 10
7.62
 20
166.37
 30
0.0
 11
7.599076
 21
166.93735
 31
0.0
  0
LINE
  5
25A
  8
LAYER_1
 10
7.599076
 20
166.93735
 30
0.0
 11
7.460887
 21
167.231009
 31
0.0
  0
LINE
  5
25B
  8
LAYER_1
 10
7.460887
 20
167.231009
 30
0.0
 11
7.092302
 21
167.341107
 31
0.0
  0
LINE
  5
25C
  8
LAYER_1
 10
7.092302
 20
167.341107
 30
0.0
 11
6.380195
 21
167.357778
 31
0.0
  0
LINE
  5
25D
  8
LAYER_1
 10
6.380195
 20
167.357778
 30
0.0
 11
5.594133
 21
167.296465
 31
0.0
  0
LINE
  5
25E
  8
LAYER_1
 10
5.594133
 20
167.296465
 30
0.0
 11
5.110045
 21
167.07476
 31
0.0
  0
LINE
  5
25F
  8
LAYER_1
 10
5.110045
 20
167.07476
 30
0.0
 11
4.865427
 21
166.636016
 31
0.0
  0
LINE
  5
260
  8
LAYER_1
 10
4.865427
 20
166.636016
 30
0.0
 11
4.797778
 21
165.923584
 31
0.0
  0
LINE
  5
261
  8
LAYER_1
 10
4.797778
 20
165.923584
 30
0.0
 11
4.849105
 21
165.644306
 31
0.0
  0
LINE
  5
262
  8
LAYER_1
 10
4.849105
 20
165.644306
 30
0.0
 11
5.052243
 21
165.479845
 31
0.0
  0
LINE
  5
263
  8
LAYER_1
 10
5.052243
 20
165.479845
 30
0.0
 11
6.208889
 21
165.382222
 31
0.0
  0
LINE
  5
264
  8
LAYER_1
 10
6.208889
 20
165.382222
 30
0.0
 11
7.62
 21
165.382222
 31
0.0
  0
LINE
  5
265
  8
LAYER_1
 10
7.62
 20
165.382222
 30
0.0
 11
7.62
 21
166.37
 31
0.0
  0
LINE
  5
266
  8
LAYER_1
 10
7.62
 20
166.37
 30
0.0
 11
7.62
 21
166.37
 31
0.0
  0
LINE
  5
267
  8
LAYER_1
 10
6.13855
 20
166.376618
 30
0.0
 11
6.088054
 21
166.939301
 31
0.0
  0
LINE
  5
268
  8
LAYER_1
 10
6.088054
 20
166.939301
 30
0.0
 11
6.442553
 21
166.680622
 31
0.0
  0
LINE
  5
269
  8
LAYER_1
 10
6.442553
 20
166.680622
 30
0.0
 11
6.715792
 21
166.266271
 31
0.0
  0
LINE
  5
26A
  8
LAYER_1
 10
6.715792
 20
166.266271
 30
0.0
 11
6.58625
 21
165.928918
 31
0.0
  0
LINE
  5
26B
  8
LAYER_1
 10
6.58625
 20
165.928918
 30
0.0
 11
6.319452
 21
165.869932
 31
0.0
  0
LINE
  5
26C
  8
LAYER_1
 10
6.319452
 20
165.869932
 30
0.0
 11
6.13855
 21
166.376618
 31
0.0
  0
LINE
  5
26D
  8
LAYER_1
 10
6.13855
 20
166.376618
 30
0.0
 11
6.13855
 21
166.376618
 31
0.0
  0
LINE
  5
26E
  8
LAYER_1
 10
61.524444
 20
165.860809
 30
0.0
 11
61.524444
 21
168.314951
 31
0.0
  0
LINE
  5
26F
  8
LAYER_1
 10
61.524444
 20
168.314951
 30
0.0
 11
60.683992
 21
166.989698
 31
0.0
  0
LINE
  5
270
  8
LAYER_1
 10
60.683992
 20
166.989698
 30
0.0
 11
59.728005
 21
165.723948
 31
0.0
  0
LINE
  5
271
  8
LAYER_1
 10
59.728005
 20
165.723948
 30
0.0
 11
60.399845
 21
167.322133
 31
0.0
  0
LINE
  5
272
  8
LAYER_1
 10
60.399845
 20
167.322133
 30
0.0
 11
60.983939
 21
168.531683
 31
0.0
  0
LINE
  5
273
  8
LAYER_1
 10
60.983939
 20
168.531683
 30
0.0
 11
61.186527
 21
169.217491
 31
0.0
  0
LINE
  5
274
  8
LAYER_1
 10
61.186527
 20
169.217491
 30
0.0
 11
61.012341
 21
169.548995
 31
0.0
  0
LINE
  5
275
  8
LAYER_1
 10
61.012341
 20
169.548995
 30
0.0
 11
60.466111
 21
169.695636
 31
0.0
  0
LINE
  5
276
  8
LAYER_1
 10
60.466111
 20
169.695636
 30
0.0
 11
59.945641
 21
169.801841
 31
0.0
  0
LINE
  5
277
  8
LAYER_1
 10
59.945641
 20
169.801841
 30
0.0
 11
60.607222
 21
169.855492
 31
0.0
  0
LINE
  5
278
  8
LAYER_1
 10
60.607222
 20
169.855492
 30
0.0
 11
61.12671
 21
169.904089
 31
0.0
  0
LINE
  5
279
  8
LAYER_1
 10
61.12671
 20
169.904089
 30
0.0
 11
61.400208
 21
170.06287
 31
0.0
  0
LINE
  5
27A
  8
LAYER_1
 10
61.400208
 20
170.06287
 30
0.0
 11
61.524444
 21
171.158922
 31
0.0
  0
LINE
  5
27B
  8
LAYER_1
 10
61.524444
 20
171.158922
 30
0.0
 11
61.607402
 21
172.097363
 31
0.0
  0
LINE
  5
27C
  8
LAYER_1
 10
61.607402
 20
172.097363
 30
0.0
 11
61.718933
 21
172.275767
 31
0.0
  0
LINE
  5
27D
  8
LAYER_1
 10
61.718933
 20
172.275767
 30
0.0
 11
61.884131
 21
172.282039
 31
0.0
  0
LINE
  5
27E
  8
LAYER_1
 10
61.884131
 20
172.282039
 30
0.0
 11
62.124263
 21
171.900592
 31
0.0
  0
LINE
  5
27F
  8
LAYER_1
 10
62.124263
 20
171.900592
 30
0.0
 11
62.140809
 21
171.063906
 31
0.0
  0
LINE
  5
280
  8
LAYER_1
 10
62.140809
 20
171.063906
 30
0.0
 11
62.037807
 21
169.983799
 31
0.0
  0
LINE
  5
281
  8
LAYER_1
 10
62.037807
 20
169.983799
 30
0.0
 11
63.756681
 21
169.932223
 31
0.0
  0
LINE
  5
282
  8
LAYER_1
 10
63.756681
 20
169.932223
 30
0.0
 11
65.475556
 21
169.880644
 31
0.0
  0
LINE
  5
283
  8
LAYER_1
 10
65.475556
 20
169.880644
 30
0.0
 11
65.475556
 21
171.18273
 31
0.0
  0
LINE
  5
284
  8
LAYER_1
 10
65.475556
 20
171.18273
 30
0.0
 11
65.558601
 21
172.14436
 31
0.0
  0
LINE
  5
285
  8
LAYER_1
 10
65.558601
 20
172.14436
 30
0.0
 11
65.666214
 21
172.344662
 31
0.0
  0
LINE
  5
286
  8
LAYER_1
 10
65.666214
 20
172.344662
 30
0.0
 11
65.82127199999999
 21
172.369576
 31
0.0
  0
LINE
  5
287
  8
LAYER_1
 10
65.82127199999999
 20
172.369576
 30
0.0
 11
66.054106
 21
171.967037
 31
0.0
  0
LINE
  5
288
  8
LAYER_1
 10
66.054106
 20
171.967037
 30
0.0
 11
66.078958
 21
171.03515
 31
0.0
  0
LINE
  5
289
  8
LAYER_1
 10
66.078958
 20
171.03515
 30
0.0
 11
65.99093000000001
 21
169.815962
 31
0.0
  0
LINE
  5
28A
  8
LAYER_1
 10
65.99093000000001
 20
169.815962
 30
0.0
 11
66.998071
 21
169.979399
 31
0.0
  0
LINE
  5
28B
  8
LAYER_1
 10
66.998071
 20
169.979399
 30
0.0
 11
67.757229
 21
170.017381
 31
0.0
  0
LINE
  5
28C
  8
LAYER_1
 10
67.757229
 20
170.017381
 30
0.0
 11
68.16815
 21
169.879196
 31
0.0
  0
LINE
  5
28D
  8
LAYER_1
 10
68.16815
 20
169.879196
 30
0.0
 11
67.950129
 21
169.692314
 31
0.0
  0
LINE
  5
28E
  8
LAYER_1
 10
67.950129
 20
169.692314
 30
0.0
 11
67.185546
 21
169.615556
 31
0.0
  0
LINE
  5
28F
  8
LAYER_1
 10
67.185546
 20
169.615556
 30
0.0
 11
66.04000000000001
 21
169.615556
 31
0.0
  0
LINE
  5
290
  8
LAYER_1
 10
66.04000000000001
 20
169.615556
 30
0.0
 11
66.04000000000001
 21
166.511111
 31
0.0
  0
LINE
  5
291
  8
LAYER_1
 10
66.04000000000001
 20
166.511111
 30
0.0
 11
65.959169
 21
164.341588
 31
0.0
  0
LINE
  5
292
  8
LAYER_1
 10
65.959169
 20
164.341588
 30
0.0
 11
65.772449
 21
163.455824
 31
0.0
  0
LINE
  5
293
  8
LAYER_1
 10
65.772449
 20
163.455824
 30
0.0
 11
65.665525
 21
163.520957
 31
0.0
  0
LINE
  5
294
  8
LAYER_1
 10
65.665525
 20
163.520957
 30
0.0
 11
65.563501
 21
163.938954
 31
0.0
  0
LINE
  5
295
  8
LAYER_1
 10
65.563501
 20
163.938954
 30
0.0
 11
65.415987
 21
165.876111
 31
0.0
  0
LINE
  5
296
  8
LAYER_1
 10
65.415987
 20
165.876111
 30
0.0
 11
65.33444400000001
 21
168.345556
 31
0.0
  0
LINE
  5
297
  8
LAYER_1
 10
65.33444400000001
 20
168.345556
 30
0.0
 11
64.720072
 21
167.197786
 31
0.0
  0
LINE
  5
298
  8
LAYER_1
 10
64.720072
 20
167.197786
 30
0.0
 11
63.640437
 21
165.663886
 31
0.0
  0
LINE
  5
299
  8
LAYER_1
 10
63.640437
 20
165.663886
 30
0.0
 11
63.39691
 21
165.567821
 31
0.0
  0
LINE
  5
29A
  8
LAYER_1
 10
63.39691
 20
165.567821
 30
0.0
 11
63.750596
 21
166.253016
 31
0.0
  0
LINE
  5
29B
  8
LAYER_1
 10
63.750596
 20
166.253016
 30
0.0
 11
64.747157
 21
168.421919
 31
0.0
  0
LINE
  5
29C
  8
LAYER_1
 10
64.747157
 20
168.421919
 30
0.0
 11
65.168295
 21
169.615556
 31
0.0
  0
LINE
  5
29D
  8
LAYER_1
 10
65.168295
 20
169.615556
 30
0.0
 11
63.608396
 21
169.615556
 31
0.0
  0
LINE
  5
29E
  8
LAYER_1
 10
63.608396
 20
169.615556
 30
0.0
 11
62.29451
 21
169.518605
 31
0.0
  0
LINE
  5
29F
  8
LAYER_1
 10
62.29451
 20
169.518605
 30
0.0
 11
62.11236
 21
169.327892
 31
0.0
  0
LINE
  5
2A0
  8
LAYER_1
 10
62.11236
 20
169.327892
 30
0.0
 11
62.099932
 21
168.980556
 31
0.0
  0
LINE
  5
2A1
  8
LAYER_1
 10
62.099932
 20
168.980556
 30
0.0
 11
62.102878
 21
165.496664
 31
0.0
  0
LINE
  5
2A2
  8
LAYER_1
 10
62.102878
 20
165.496664
 30
0.0
 11
61.978424
 21
164.016232
 31
0.0
  0
LINE
  5
2A3
  8
LAYER_1
 10
61.978424
 20
164.016232
 30
0.0
 11
61.806667
 21
163.406667
 31
0.0
  0
LINE
  5
2A4
  8
LAYER_1
 10
61.806667
 20
163.406667
 30
0.0
 11
61.603114
 21
164.090758
 31
0.0
  0
LINE
  5
2A5
  8
LAYER_1
 10
61.603114
 20
164.090758
 30
0.0
 11
61.524444
 21
165.860809
 31
0.0
  0
LINE
  5
2A6
  8
LAYER_1
 10
61.524444
 20
165.860809
 30
0.0
 11
61.524444
 21
165.860809
 31
0.0
  0
LINE
  5
2A7
  8
LAYER_1
 10
37.535556
 20
164.104007
 30
0.0
 11
37.429441
 21
164.344827
 31
0.0
  0
LINE
  5
2A8
  8
LAYER_1
 10
37.429441
 20
164.344827
 30
0.0
 11
36.988
 21
164.477745
 31
0.0
  0
LINE
  5
2A9
  8
LAYER_1
 10
36.988
 20
164.477745
 30
0.0
 11
34.360556
 21
164.515628
 31
0.0
  0
LINE
  5
2AA
  8
LAYER_1
 10
34.360556
 20
164.515628
 30
0.0
 11
32.138937
 21
164.531739
 31
0.0
  0
LINE
  5
2AB
  8
LAYER_1
 10
32.138937
 20
164.531739
 30
0.0
 11
31.256111
 21
164.641434
 31
0.0
  0
LINE
  5
2AC
  8
LAYER_1
 10
31.256111
 20
164.641434
 30
0.0
 11
31.326667
 21
167.631144
 31
0.0
  0
LINE
  5
2AD
  8
LAYER_1
 10
31.326667
 20
167.631144
 30
0.0
 11
31.402693
 21
169.809191
 31
0.0
  0
LINE
  5
2AE
  8
LAYER_1
 10
31.402693
 20
169.809191
 30
0.0
 11
31.511415
 21
170.234549
 31
0.0
  0
LINE
  5
2AF
  8
LAYER_1
 10
31.511415
 20
170.234549
 30
0.0
 11
31.679444
 21
170.309862
 31
0.0
  0
LINE
  5
2B0
  8
LAYER_1
 10
31.679444
 20
170.309862
 30
0.0
 11
31.838167
 21
170.103348
 31
0.0
  0
LINE
  5
2B1
  8
LAYER_1
 10
31.838167
 20
170.103348
 30
0.0
 11
31.93183
 21
169.598289
 31
0.0
  0
LINE
  5
2B2
  8
LAYER_1
 10
31.93183
 20
169.598289
 30
0.0
 11
31.942301
 21
167.496496
 31
0.0
  0
LINE
  5
2B3
  8
LAYER_1
 10
31.942301
 20
167.496496
 30
0.0
 11
31.852379
 21
164.817778
 31
0.0
  0
LINE
  5
2B4
  8
LAYER_1
 10
31.852379
 20
164.817778
 30
0.0
 11
33.141745
 21
164.817778
 31
0.0
  0
LINE
  5
2B5
  8
LAYER_1
 10
33.141745
 20
164.817778
 30
0.0
 11
34.431111
 21
164.817778
 31
0.0
  0
LINE
  5
2B6
  8
LAYER_1
 10
34.431111
 20
164.817778
 30
0.0
 11
34.431111
 21
168.477811
 31
0.0
  0
LINE
  5
2B7
  8
LAYER_1
 10
34.431111
 20
168.477811
 30
0.0
 11
34.505869
 21
171.333673
 31
0.0
  0
LINE
  5
2B8
  8
LAYER_1
 10
34.505869
 20
171.333673
 30
0.0
 11
34.614433
 21
171.891324
 31
0.0
  0
LINE
  5
2B9
  8
LAYER_1
 10
34.614433
 20
171.891324
 30
0.0
 11
34.783889
 21
172.003057
 31
0.0
  0
LINE
  5
2BA
  8
LAYER_1
 10
34.783889
 20
172.003057
 30
0.0
 11
34.945405
 21
171.758087
 31
0.0
  0
LINE
  5
2BB
  8
LAYER_1
 10
34.945405
 20
171.758087
 30
0.0
 11
35.039691
 21
171.1201
 31
0.0
  0
LINE
  5
2BC
  8
LAYER_1
 10
35.039691
 20
171.1201
 30
0.0
 11
35.049982
 21
168.343027
 31
0.0
  0
LINE
  5
2BD
  8
LAYER_1
 10
35.049982
 20
168.343027
 30
0.0
 11
34.963295
 21
164.817778
 31
0.0
  0
LINE
  5
2BE
  8
LAYER_1
 10
34.963295
 20
164.817778
 30
0.0
 11
36.249427
 21
164.817778
 31
0.0
  0
LINE
  5
2BF
  8
LAYER_1
 10
36.249427
 20
164.817778
 30
0.0
 11
37.535556
 21
164.817778
 31
0.0
  0
LINE
  5
2C0
  8
LAYER_1
 10
37.535556
 20
164.817778
 30
0.0
 11
37.535556
 21
167.498889
 31
0.0
  0
LINE
  5
2C1
  8
LAYER_1
 10
37.535556
 20
167.498889
 30
0.0
 11
37.617495
 21
169.672141
 31
0.0
  0
LINE
  5
2C2
  8
LAYER_1
 10
37.617495
 20
169.672141
 30
0.0
 11
37.749399
 21
170.073338
 31
0.0
  0
LINE
  5
2C3
  8
LAYER_1
 10
37.749399
 20
170.073338
 30
0.0
 11
37.968132
 21
170.18
 31
0.0
  0
LINE
  5
2C4
  8
LAYER_1
 10
37.968132
 20
170.18
 30
0.0
 11
38.187854
 21
170.064132
 31
0.0
  0
LINE
  5
2C5
  8
LAYER_1
 10
38.187854
 20
170.064132
 30
0.0
 11
38.307784
 21
169.608351
 31
0.0
  0
LINE
  5
2C6
  8
LAYER_1
 10
38.307784
 20
169.608351
 30
0.0
 11
38.320909
 21
167.027995
 31
0.0
  0
LINE
  5
2C7
  8
LAYER_1
 10
38.320909
 20
167.027995
 30
0.0
 11
38.176452
 21
164.594864
 31
0.0
  0
LINE
  5
2C8
  8
LAYER_1
 10
38.176452
 20
164.594864
 30
0.0
 11
38.05248
 21
163.993346
 31
0.0
  0
LINE
  5
2C9
  8
LAYER_1
 10
38.05248
 20
163.993346
 30
0.0
 11
37.888333
 21
163.758922
 31
0.0
  0
LINE
  5
2CA
  8
LAYER_1
 10
37.888333
 20
163.758922
 30
0.0
 11
37.639184
 21
163.812
 31
0.0
  0
LINE
  5
2CB
  8
LAYER_1
 10
37.639184
 20
163.812
 30
0.0
 11
37.535556
 21
164.104007
 31
0.0
  0
LINE
  5
2CC
  8
LAYER_1
 10
37.535556
 20
164.104007
 30
0.0
 11
37.535556
 21
164.104007
 31
0.0
  0
LINE
  5
2CD
  8
LAYER_1
 10
45.649444
 20
163.888062
 30
0.0
 11
46.919444
 21
163.888062
 31
0.0
  0
LINE
  5
2CE
  8
LAYER_1
 10
46.919444
 20
163.888062
 30
0.0
 11
47.065792
 21
163.840573
 31
0.0
  0
LINE
  5
2CF
  8
LAYER_1
 10
47.065792
 20
163.840573
 30
0.0
 11
46.994851
 21
163.801683
 31
0.0
  0
LINE
  5
2D0
  8
LAYER_1
 10
46.994851
 20
163.801683
 30
0.0
 11
46.284444
 21
163.765755
 31
0.0
  0
LINE
  5
2D1
  8
LAYER_1
 10
46.284444
 20
163.765755
 30
0.0
 11
45.574038
 21
163.801683
 31
0.0
  0
LINE
  5
2D2
  8
LAYER_1
 10
45.574038
 20
163.801683
 30
0.0
 11
45.503097
 21
163.840573
 31
0.0
  0
LINE
  5
2D3
  8
LAYER_1
 10
45.503097
 20
163.840573
 30
0.0
 11
45.649444
 21
163.888062
 31
0.0
  0
LINE
  5
2D4
  8
LAYER_1
 10
45.649444
 20
163.888062
 30
0.0
 11
45.649444
 21
163.888062
 31
0.0
  0
LINE
  5
2D5
  8
LAYER_1
 10
80.927222
 20
164.276851
 30
0.0
 11
80.582881
 21
164.741343
 31
0.0
  0
LINE
  5
2D6
  8
LAYER_1
 10
80.582881
 20
164.741343
 30
0.0
 11
80.997778
 21
164.817778
 31
0.0
  0
LINE
  5
2D7
  8
LAYER_1
 10
80.997778
 20
164.817778
 30
0.0
 11
81.304253
 21
164.879514
 31
0.0
  0
LINE
  5
2D8
  8
LAYER_1
 10
81.304253
 20
164.879514
 30
0.0
 11
81.47402700000001
 21
165.170556
 31
0.0
  0
LINE
  5
2D9
  8
LAYER_1
 10
81.47402700000001
 20
165.170556
 30
0.0
 11
81.56222200000001
 21
167.075556
 31
0.0
  0
LINE
  5
2DA
  8
LAYER_1
 10
81.56222200000001
 20
167.075556
 30
0.0
 11
81.56222200000001
 21
169.333333
 31
0.0
  0
LINE
  5
2DB
  8
LAYER_1
 10
81.56222200000001
 20
169.333333
 30
0.0
 11
78.881111
 21
169.333333
 31
0.0
  0
LINE
  5
2DC
  8
LAYER_1
 10
78.881111
 20
169.333333
 30
0.0
 11
76.2
 21
169.333333
 31
0.0
  0
LINE
  5
2DD
  8
LAYER_1
 10
76.2
 20
169.333333
 30
0.0
 11
76.2
 21
166.80999
 31
0.0
  0
LINE
  5
2DE
  8
LAYER_1
 10
76.2
 20
166.80999
 30
0.0
 11
76.117097
 21
164.976641
 31
0.0
  0
LINE
  5
2DF
  8
LAYER_1
 10
76.117097
 20
164.976641
 30
0.0
 11
75.917778
 21
164.112222
 31
0.0
  0
LINE
  5
2E0
  8
LAYER_1
 10
75.917778
 20
164.112222
 30
0.0
 11
75.797237
 21
164.229682
 31
0.0
  0
LINE
  5
2E1
  8
LAYER_1
 10
75.797237
 20
164.229682
 30
0.0
 11
75.708682
 21
164.737346
 31
0.0
  0
LINE
  5
2E2
  8
LAYER_1
 10
75.708682
 20
164.737346
 30
0.0
 11
75.635381
 21
166.847232
 31
0.0
  0
LINE
  5
2E3
  8
LAYER_1
 10
75.635381
 20
166.847232
 30
0.0
 11
75.635206
 21
169.756667
 31
0.0
  0
LINE
  5
2E4
  8
LAYER_1
 10
75.635206
 20
169.756667
 30
0.0
 11
77.046492
 21
169.658874
 31
0.0
  0
LINE
  5
2E5
  8
LAYER_1
 10
77.046492
 20
169.658874
 30
0.0
 11
78.23649399999999
 21
169.672817
 31
0.0
  0
LINE
  5
2E6
  8
LAYER_1
 10
78.23649399999999
 20
169.672817
 30
0.0
 11
78.418899
 21
169.845153
 31
0.0
  0
LINE
  5
2E7
  8
LAYER_1
 10
78.418899
 20
169.845153
 30
0.0
 11
78.45777800000001
 21
170.175922
 31
0.0
  0
LINE
  5
2E8
  8
LAYER_1
 10
78.45777800000001
 20
170.175922
 30
0.0
 11
78.41206699999999
 21
170.515365
 31
0.0
  0
LINE
  5
2E9
  8
LAYER_1
 10
78.41206699999999
 20
170.515365
 30
0.0
 11
78.171201
 21
170.688012
 31
0.0
  0
LINE
  5
2EA
  8
LAYER_1
 10
78.171201
 20
170.688012
 30
0.0
 11
76.48158700000001
 21
170.697048
 31
0.0
  0
LINE
  5
2EB
  8
LAYER_1
 10
76.48158700000001
 20
170.697048
 30
0.0
 11
75.086089
 21
170.693039
 31
0.0
  0
LINE
  5
2EC
  8
LAYER_1
 10
75.086089
 20
170.693039
 30
0.0
 11
74.50603200000001
 21
170.815
 31
0.0
  0
LINE
  5
2ED
  8
LAYER_1
 10
74.50603200000001
 20
170.815
 30
0.0
 11
75.0868
 21
170.96449
 31
0.0
  0
LINE
  5
2EE
  8
LAYER_1
 10
75.0868
 20
170.96449
 30
0.0
 11
76.48222199999999
 21
171.026667
 31
0.0
  0
LINE
  5
2EF
  8
LAYER_1
 10
76.48222199999999
 20
171.026667
 30
0.0
 11
78.150156
 21
171.11822
 31
0.0
  0
LINE
  5
2F0
  8
LAYER_1
 10
78.150156
 20
171.11822
 30
0.0
 11
78.404156
 21
171.295029
 31
0.0
  0
LINE
  5
2F1
  8
LAYER_1
 10
78.404156
 20
171.295029
 30
0.0
 11
78.45777800000001
 21
171.614629
 31
0.0
  0
LINE
  5
2F2
  8
LAYER_1
 10
78.45777800000001
 20
171.614629
 30
0.0
 11
78.555865
 21
172.004817
 31
0.0
  0
LINE
  5
2F3
  8
LAYER_1
 10
78.555865
 20
172.004817
 30
0.0
 11
78.81055600000001
 21
172.07924
 31
0.0
  0
LINE
  5
2F4
  8
LAYER_1
 10
78.81055600000001
 20
172.07924
 30
0.0
 11
79.033992
 21
171.849748
 31
0.0
  0
LINE
  5
2F5
  8
LAYER_1
 10
79.033992
 20
171.849748
 30
0.0
 11
79.075799
 21
171.471212
 31
0.0
  0
LINE
  5
2F6
  8
LAYER_1
 10
79.075799
 20
171.471212
 30
0.0
 11
79.091898
 21
171.219239
 31
0.0
  0
LINE
  5
2F7
  8
LAYER_1
 10
79.091898
 20
171.219239
 30
0.0
 11
79.323026
 21
171.081804
 31
0.0
  0
LINE
  5
2F8
  8
LAYER_1
 10
79.323026
 20
171.081804
 30
0.0
 11
80.839671
 21
171.053656
 31
0.0
  0
LINE
  5
2F9
  8
LAYER_1
 10
80.839671
 20
171.053656
 30
0.0
 11
82.879243
 21
170.93261
 31
0.0
  0
LINE
  5
2FA
  8
LAYER_1
 10
82.879243
 20
170.93261
 30
0.0
 11
82.417998
 21
170.799718
 31
0.0
  0
LINE
  5
2FB
  8
LAYER_1
 10
82.417998
 20
170.799718
 30
0.0
 11
81.044816
 21
170.744444
 31
0.0
  0
LINE
  5
2FC
  8
LAYER_1
 10
81.044816
 20
170.744444
 30
0.0
 11
79.33443699999999
 21
170.653289
 31
0.0
  0
LINE
  5
2FD
  8
LAYER_1
 10
79.33443699999999
 20
170.653289
 30
0.0
 11
79.076097
 21
170.475811
 31
0.0
  0
LINE
  5
2FE
  8
LAYER_1
 10
79.076097
 20
170.475811
 30
0.0
 11
79.022222
 21
170.153923
 31
0.0
  0
LINE
  5
2FF
  8
LAYER_1
 10
79.022222
 20
170.153923
 30
0.0
 11
79.065913
 21
169.836158
 31
0.0
  0
LINE
  5
300
  8
LAYER_1
 10
79.065913
 20
169.836158
 30
0.0
 11
79.271294
 21
169.670992
 31
0.0
  0
LINE
  5
301
  8
LAYER_1
 10
79.271294
 20
169.670992
 30
0.0
 11
80.612971
 21
169.660034
 31
0.0
  0
LINE
  5
302
  8
LAYER_1
 10
80.612971
 20
169.660034
 30
0.0
 11
82.203722
 21
169.756667
 31
0.0
  0
LINE
  5
303
  8
LAYER_1
 10
82.203722
 20
169.756667
 30
0.0
 11
82.14753399999999
 21
166.949476
 31
0.0
  0
LINE
  5
304
  8
LAYER_1
 10
82.14753399999999
 20
166.949476
 30
0.0
 11
82.070397
 21
164.900661
 31
0.0
  0
LINE
  5
305
  8
LAYER_1
 10
82.070397
 20
164.900661
 30
0.0
 11
81.89261000000001
 21
163.884662
 31
0.0
  0
LINE
  5
306
  8
LAYER_1
 10
81.89261000000001
 20
163.884662
 30
0.0
 11
81.74192100000001
 21
163.711291
 31
0.0
  0
LINE
  5
307
  8
LAYER_1
 10
81.74192100000001
 20
163.711291
 30
0.0
 11
81.537207
 21
163.732913
 31
0.0
  0
LINE
  5
308
  8
LAYER_1
 10
81.537207
 20
163.732913
 30
0.0
 11
80.927222
 21
164.276851
 31
0.0
  0
LINE
  5
309
  8
LAYER_1
 10
80.927222
 20
164.276851
 30
0.0
 11
80.927222
 21
164.276851
 31
0.0
  0
LINE
  5
30A
  8
LAYER_1
 10
90.36363299999999
 20
164.65294
 30
0.0
 11
91.395697
 21
165.548028
 31
0.0
  0
LINE
  5
30B
  8
LAYER_1
 10
91.395697
 20
165.548028
 30
0.0
 11
92.104058
 21
166.346274
 31
0.0
  0
LINE
  5
30C
  8
LAYER_1
 10
92.104058
 20
166.346274
 30
0.0
 11
92.426132
 21
166.980086
 31
0.0
  0
LINE
  5
30D
  8
LAYER_1
 10
92.426132
 20
166.980086
 30
0.0
 11
91.869839
 21
167.075556
 31
0.0
  0
LINE
  5
30E
  8
LAYER_1
 10
91.869839
 20
167.075556
 30
0.0
 11
91.347011
 21
166.963054
 31
0.0
  0
LINE
  5
30F
  8
LAYER_1
 10
91.347011
 20
166.963054
 30
0.0
 11
91.15777799999999
 21
166.652222
 31
0.0
  0
LINE
  5
310
  8
LAYER_1
 10
91.15777799999999
 20
166.652222
 30
0.0
 11
91.07487500000001
 21
166.353243
 31
0.0
  0
LINE
  5
311
  8
LAYER_1
 10
91.07487500000001
 20
166.353243
 30
0.0
 11
90.875556
 21
166.228889
 31
0.0
  0
LINE
  5
312
  8
LAYER_1
 10
90.875556
 20
166.228889
 30
0.0
 11
90.67495200000001
 21
166.749389
 31
0.0
  0
LINE
  5
313
  8
LAYER_1
 10
90.67495200000001
 20
166.749389
 30
0.0
 11
90.593333
 21
168.028665
 31
0.0
  0
LINE
  5
314
  8
LAYER_1
 10
90.593333
 20
168.028665
 30
0.0
 11
90.593333
 21
169.828444
 31
0.0
  0
LINE
  5
315
  8
LAYER_1
 10
90.593333
 20
169.828444
 30
0.0
 11
91.863333
 21
169.685295
 31
0.0
  0
LINE
  5
316
  8
LAYER_1
 10
91.863333
 20
169.685295
 30
0.0
 11
92.889954
 21
169.657742
 31
0.0
  0
LINE
  5
317
  8
LAYER_1
 10
92.889954
 20
169.657742
 30
0.0
 11
93.08175300000001
 21
169.776529
 31
0.0
  0
LINE
  5
318
  8
LAYER_1
 10
93.08175300000001
 20
169.776529
 30
0.0
 11
93.13333299999999
 21
170.002186
 31
0.0
  0
LINE
  5
319
  8
LAYER_1
 10
93.13333299999999
 20
170.002186
 30
0.0
 11
93.053664
 21
170.234303
 31
0.0
  0
LINE
  5
31A
  8
LAYER_1
 10
93.053664
 20
170.234303
 30
0.0
 11
92.762131
 21
170.383353
 31
0.0
  0
LINE
  5
31B
  8
LAYER_1
 10
92.762131
 20
170.383353
 30
0.0
 11
91.22833300000001
 21
170.517498
 31
0.0
  0
LINE
  5
31C
  8
LAYER_1
 10
91.22833300000001
 20
170.517498
 30
0.0
 11
89.32333300000001
 21
170.572774
 31
0.0
  0
LINE
  5
31D
  8
LAYER_1
 10
89.32333300000001
 20
170.572774
 30
0.0
 11
91.22833300000001
 21
170.671504
 31
0.0
  0
LINE
  5
31E
  8
LAYER_1
 10
91.22833300000001
 20
170.671504
 30
0.0
 11
92.85867500000001
 21
170.855866
 31
0.0
  0
LINE
  5
31F
  8
LAYER_1
 10
92.85867500000001
 20
170.855866
 30
0.0
 11
93.089868
 21
171.075142
 31
0.0
  0
LINE
  5
320
  8
LAYER_1
 10
93.089868
 20
171.075142
 30
0.0
 11
93.13333299999999
 21
171.462895
 31
0.0
  0
LINE
  5
321
  8
LAYER_1
 10
93.13333299999999
 20
171.462895
 30
0.0
 11
93.216236
 21
171.952086
 31
0.0
  0
LINE
  5
322
  8
LAYER_1
 10
93.216236
 20
171.952086
 30
0.0
 11
93.415556
 21
172.155556
 31
0.0
  0
LINE
  5
323
  8
LAYER_1
 10
93.415556
 20
172.155556
 30
0.0
 11
93.614875
 21
171.936948
 31
0.0
  0
LINE
  5
324
  8
LAYER_1
 10
93.614875
 20
171.936948
 30
0.0
 11
93.697778
 21
171.411361
 31
0.0
  0
LINE
  5
325
  8
LAYER_1
 10
93.697778
 20
171.411361
 30
0.0
 11
93.726895
 21
170.984012
 31
0.0
  0
LINE
  5
326
  8
LAYER_1
 10
93.726895
 20
170.984012
 30
0.0
 11
93.928293
 21
170.779185
 31
0.0
  0
LINE
  5
327
  8
LAYER_1
 10
93.928293
 20
170.779185
 30
0.0
 11
95.532222
 21
170.814419
 31
0.0
  0
LINE
  5
328
  8
LAYER_1
 10
95.532222
 20
170.814419
 30
0.0
 11
96.827799
 21
170.845057
 31
0.0
  0
LINE
  5
329
  8
LAYER_1
 10
96.827799
 20
170.845057
 30
0.0
 11
97.36666700000001
 21
170.711947
 31
0.0
  0
LINE
  5
32A
  8
LAYER_1
 10
97.36666700000001
 20
170.711947
 30
0.0
 11
96.827799
 21
170.535578
 31
0.0
  0
LINE
  5
32B
  8
LAYER_1
 10
96.827799
 20
170.535578
 30
0.0
 11
95.532222
 21
170.462222
 31
0.0
  0
LINE
  5
32C
  8
LAYER_1
 10
95.532222
 20
170.462222
 30
0.0
 11
94.05675599999999
 21
170.374407
 31
0.0
  0
LINE
  5
32D
  8
LAYER_1
 10
94.05675599999999
 20
170.374407
 30
0.0
 11
93.77506800000001
 21
170.237218
 31
0.0
  0
LINE
  5
32E
  8
LAYER_1
 10
93.77506800000001
 20
170.237218
 30
0.0
 11
93.697778
 21
170.013469
 31
0.0
  0
LINE
  5
32F
  8
LAYER_1
 10
93.697778
 20
170.013469
 30
0.0
 11
93.755724
 21
169.795341
 31
0.0
  0
LINE
  5
330
  8
LAYER_1
 10
93.755724
 20
169.795341
 30
0.0
 11
93.96401400000001
 21
169.672901
 31
0.0
  0
LINE
  5
331
  8
LAYER_1
 10
93.96401400000001
 20
169.672901
 30
0.0
 11
95.03833299999999
 21
169.660691
 31
0.0
  0
LINE
  5
332
  8
LAYER_1
 10
95.03833299999999
 20
169.660691
 30
0.0
 11
96.378889
 21
169.756667
 31
0.0
  0
LINE
  5
333
  8
LAYER_1
 10
96.378889
 20
169.756667
 30
0.0
 11
96.282883
 21
168.204444
 31
0.0
  0
LINE
  5
334
  8
LAYER_1
 10
96.282883
 20
168.204444
 30
0.0
 11
95.94513000000001
 21
166.428757
 31
0.0
  0
LINE
  5
335
  8
LAYER_1
 10
95.94513000000001
 20
166.428757
 30
0.0
 11
95.756209
 21
166.159273
 31
0.0
  0
LINE
  5
336
  8
LAYER_1
 10
95.756209
 20
166.159273
 30
0.0
 11
95.673333
 21
166.613659
 31
0.0
  0
LINE
  5
337
  8
LAYER_1
 10
95.673333
 20
166.613659
 30
0.0
 11
95.485277
 21
166.991151
 31
0.0
  0
LINE
  5
338
  8
LAYER_1
 10
95.485277
 20
166.991151
 30
0.0
 11
94.756111
 21
167.022882
 31
0.0
  0
LINE
  5
339
  8
LAYER_1
 10
94.756111
 20
167.022882
 30
0.0
 11
94.228776
 21
166.944232
 31
0.0
  0
LINE
  5
33A
  8
LAYER_1
 10
94.228776
 20
166.944232
 30
0.0
 11
93.946505
 21
166.736123
 31
0.0
  0
LINE
  5
33B
  8
LAYER_1
 10
93.946505
 20
166.736123
 30
0.0
 11
93.75425
 21
165.311667
 31
0.0
  0
LINE
  5
33C
  8
LAYER_1
 10
93.75425
 20
165.311667
 30
0.0
 11
93.612729
 21
164.15333
 31
0.0
  0
LINE
  5
33D
  8
LAYER_1
 10
93.612729
 20
164.15333
 30
0.0
 11
93.404234
 21
163.726607
 31
0.0
  0
LINE
  5
33E
  8
LAYER_1
 10
93.404234
 20
163.726607
 30
0.0
 11
93.21551700000001
 21
164.053339
 31
0.0
  0
LINE
  5
33F
  8
LAYER_1
 10
93.21551700000001
 20
164.053339
 30
0.0
 11
93.13333299999999
 21
165.155364
 31
0.0
  0
LINE
  5
340
  8
LAYER_1
 10
93.13333299999999
 20
165.155364
 30
0.0
 11
93.13333299999999
 21
166.621835
 31
0.0
  0
LINE
  5
341
  8
LAYER_1
 10
93.13333299999999
 20
166.621835
 30
0.0
 11
92.216111
 21
165.764588
 31
0.0
  0
LINE
  5
342
  8
LAYER_1
 10
92.216111
 20
165.764588
 30
0.0
 11
90.496297
 21
164.366298
 31
0.0
  0
LINE
  5
343
  8
LAYER_1
 10
90.496297
 20
164.366298
 30
0.0
 11
89.30973899999999
 21
163.688889
 31
0.0
  0
LINE
  5
344
  8
LAYER_1
 10
89.30973899999999
 20
163.688889
 30
0.0
 11
89.533237
 21
163.972079
 31
0.0
  0
LINE
  5
345
  8
LAYER_1
 10
89.533237
 20
163.972079
 30
0.0
 11
90.36363299999999
 21
164.65294
 31
0.0
  0
LINE
  5
346
  8
LAYER_1
 10
90.36363299999999
 20
164.65294
 30
0.0
 11
90.36363299999999
 21
164.65294
 31
0.0
  0
LINE
  5
347
  8
LAYER_1
 10
93.13333299999999
 20
167.781111
 30
0.0
 11
92.89814800000001
 21
168.103651
 31
0.0
  0
LINE
  5
348
  8
LAYER_1
 10
92.89814800000001
 20
168.103651
 30
0.0
 11
92.145556
 21
168.204444
 31
0.0
  0
LINE
  5
349
  8
LAYER_1
 10
92.145556
 20
168.204444
 30
0.0
 11
91.392963
 21
168.103651
 31
0.0
  0
LINE
  5
34A
  8
LAYER_1
 10
91.392963
 20
168.103651
 30
0.0
 11
91.15777799999999
 21
167.781111
 31
0.0
  0
LINE
  5
34B
  8
LAYER_1
 10
91.15777799999999
 20
167.781111
 30
0.0
 11
91.392963
 21
167.458571
 31
0.0
  0
LINE
  5
34C
  8
LAYER_1
 10
91.392963
 20
167.458571
 30
0.0
 11
92.145556
 21
167.357778
 31
0.0
  0
LINE
  5
34D
  8
LAYER_1
 10
92.145556
 20
167.357778
 30
0.0
 11
92.89814800000001
 21
167.458571
 31
0.0
  0
LINE
  5
34E
  8
LAYER_1
 10
92.89814800000001
 20
167.458571
 30
0.0
 11
93.13333299999999
 21
167.781111
 31
0.0
  0
LINE
  5
34F
  8
LAYER_1
 10
93.13333299999999
 20
167.781111
 30
0.0
 11
93.13333299999999
 21
167.781111
 31
0.0
  0
LINE
  5
350
  8
LAYER_1
 10
95.673333
 20
167.781111
 30
0.0
 11
95.438148
 21
168.103651
 31
0.0
  0
LINE
  5
351
  8
LAYER_1
 10
95.438148
 20
168.103651
 30
0.0
 11
94.68555600000001
 21
168.204444
 31
0.0
  0
LINE
  5
352
  8
LAYER_1
 10
94.68555600000001
 20
168.204444
 30
0.0
 11
93.932963
 21
168.103651
 31
0.0
  0
LINE
  5
353
  8
LAYER_1
 10
93.932963
 20
168.103651
 30
0.0
 11
93.697778
 21
167.781111
 31
0.0
  0
LINE
  5
354
  8
LAYER_1
 10
93.697778
 20
167.781111
 30
0.0
 11
93.932963
 21
167.458571
 31
0.0
  0
LINE
  5
355
  8
LAYER_1
 10
93.932963
 20
167.458571
 30
0.0
 11
94.68555600000001
 21
167.357778
 31
0.0
  0
LINE
  5
356
  8
LAYER_1
 10
94.68555600000001
 20
167.357778
 30
0.0
 11
95.438148
 21
167.458571
 31
0.0
  0
LINE
  5
357
  8
LAYER_1
 10
95.438148
 20
167.458571
 30
0.0
 11
95.673333
 21
167.781111
 31
0.0
  0
LINE
  5
358
  8
LAYER_1
 10
95.673333
 20
167.781111
 30
0.0
 11
95.673333
 21
167.781111
 31
0.0
  0
LINE
  5
359
  8
LAYER_1
 10
93.13333299999999
 20
168.91
 30
0.0
 11
92.89814800000001
 21
169.23254
 31
0.0
  0
LINE
  5
35A
  8
LAYER_1
 10
92.89814800000001
 20
169.23254
 30
0.0
 11
92.145556
 21
169.333333
 31
0.0
  0
LINE
  5
35B
  8
LAYER_1
 10
92.145556
 20
169.333333
 30
0.0
 11
91.392963
 21
169.23254
 31
0.0
  0
LINE
  5
35C
  8
LAYER_1
 10
91.392963
 20
169.23254
 30
0.0
 11
91.15777799999999
 21
168.91
 31
0.0
  0
LINE
  5
35D
  8
LAYER_1
 10
91.15777799999999
 20
168.91
 30
0.0
 11
91.392963
 21
168.58746
 31
0.0
  0
LINE
  5
35E
  8
LAYER_1
 10
91.392963
 20
168.58746
 30
0.0
 11
92.145556
 21
168.486667
 31
0.0
  0
LINE
  5
35F
  8
LAYER_1
 10
92.145556
 20
168.486667
 30
0.0
 11
92.89814800000001
 21
168.58746
 31
0.0
  0
LINE
  5
360
  8
LAYER_1
 10
92.89814800000001
 20
168.58746
 30
0.0
 11
93.13333299999999
 21
168.91
 31
0.0
  0
LINE
  5
361
  8
LAYER_1
 10
93.13333299999999
 20
168.91
 30
0.0
 11
93.13333299999999
 21
168.91
 31
0.0
  0
LINE
  5
362
  8
LAYER_1
 10
95.673333
 20
168.91
 30
0.0
 11
95.438148
 21
169.23254
 31
0.0
  0
LINE
  5
363
  8
LAYER_1
 10
95.438148
 20
169.23254
 30
0.0
 11
94.68555600000001
 21
169.333333
 31
0.0
  0
LINE
  5
364
  8
LAYER_1
 10
94.68555600000001
 20
169.333333
 30
0.0
 11
93.932963
 21
169.23254
 31
0.0
  0
LINE
  5
365
  8
LAYER_1
 10
93.932963
 20
169.23254
 30
0.0
 11
93.697778
 21
168.91
 31
0.0
  0
LINE
  5
366
  8
LAYER_1
 10
93.697778
 20
168.91
 30
0.0
 11
93.932963
 21
168.58746
 31
0.0
  0
LINE
  5
367
  8
LAYER_1
 10
93.932963
 20
168.58746
 30
0.0
 11
94.68555600000001
 21
168.486667
 31
0.0
  0
LINE
  5
368
  8
LAYER_1
 10
94.68555600000001
 20
168.486667
 30
0.0
 11
95.438148
 21
168.58746
 31
0.0
  0
LINE
  5
369
  8
LAYER_1
 10
95.438148
 20
168.58746
 30
0.0
 11
95.673333
 21
168.91
 31
0.0
  0
LINE
  5
36A
  8
LAYER_1
 10
95.673333
 20
168.91
 30
0.0
 11
95.673333
 21
168.91
 31
0.0
  0
LINE
  5
36B
  8
LAYER_1
 10
122.077726
 20
164.121197
 30
0.0
 11
121.685614
 21
164.480229
 31
0.0
  0
LINE
  5
36C
  8
LAYER_1
 10
121.685614
 20
164.480229
 30
0.0
 11
122.148281
 21
164.535556
 31
0.0
  0
LINE
  5
36D
  8
LAYER_1
 10
122.148281
 20
164.535556
 30
0.0
 11
122.500488
 21
164.605967
 31
0.0
  0
LINE
  5
36E
  8
LAYER_1
 10
122.500488
 20
164.605967
 30
0.0
 11
122.68466
 21
165.040819
 31
0.0
  0
LINE
  5
36F
  8
LAYER_1
 10
122.68466
 20
165.040819
 30
0.0
 11
122.766667
 21
168.345556
 31
0.0
  0
LINE
  5
370
  8
LAYER_1
 10
122.766667
 20
168.345556
 30
0.0
 11
122.845062
 21
171.45
 31
0.0
  0
LINE
  5
371
  8
LAYER_1
 10
122.845062
 20
171.45
 30
0.0
 11
122.973924
 21
172.010035
 31
0.0
  0
LINE
  5
372
  8
LAYER_1
 10
122.973924
 20
172.010035
 30
0.0
 11
123.19
 21
172.155556
 31
0.0
  0
LINE
  5
373
  8
LAYER_1
 10
123.19
 20
172.155556
 30
0.0
 11
123.470925
 21
171.953596
 31
0.0
  0
LINE
  5
374
  8
LAYER_1
 10
123.470925
 20
171.953596
 30
0.0
 11
123.622627
 21
171.181905
 31
0.0
  0
LINE
  5
375
  8
LAYER_1
 10
123.622627
 20
171.181905
 30
0.0
 11
123.620369
 21
166.934444
 31
0.0
  0
LINE
  5
376
  8
LAYER_1
 10
123.620369
 20
166.934444
 30
0.0
 11
123.382335
 21
164.44958
 31
0.0
  0
LINE
  5
377
  8
LAYER_1
 10
123.382335
 20
164.44958
 30
0.0
 11
123.138799
 21
163.871301
 31
0.0
  0
LINE
  5
378
  8
LAYER_1
 10
123.138799
 20
163.871301
 30
0.0
 11
122.802667
 21
163.697864
 31
0.0
  0
LINE
  5
379
  8
LAYER_1
 10
122.802667
 20
163.697864
 30
0.0
 11
122.077726
 21
164.121197
 31
0.0
  0
LINE
  5
37A
  8
LAYER_1
 10
122.077726
 20
164.121197
 30
0.0
 11
122.077726
 21
164.121197
 31
0.0
  0
LINE
  5
37B
  8
LAYER_1
 10
17.78
 20
165.85475
 30
0.0
 11
17.78
 21
167.738391
 31
0.0
  0
LINE
  5
37C
  8
LAYER_1
 10
17.78
 20
167.738391
 30
0.0
 11
17.145
 21
167.166736
 31
0.0
  0
LINE
  5
37D
  8
LAYER_1
 10
17.145
 20
167.166736
 30
0.0
 11
16.394583
 21
166.539706
 31
0.0
  0
LINE
  5
37E
  8
LAYER_1
 10
16.394583
 20
166.539706
 30
0.0
 11
16.125047
 21
166.434635
 31
0.0
  0
LINE
  5
37F
  8
LAYER_1
 10
16.125047
 20
166.434635
 30
0.0
 11
17.036291
 21
167.74924
 31
0.0
  0
LINE
  5
380
  8
LAYER_1
 10
17.036291
 20
167.74924
 30
0.0
 11
18.552714
 21
169.835857
 31
0.0
  0
LINE
  5
381
  8
LAYER_1
 10
18.552714
 20
169.835857
 30
0.0
 11
19.191111
 21
171.153763
 31
0.0
  0
LINE
  5
382
  8
LAYER_1
 10
19.191111
 20
171.153763
 30
0.0
 11
17.427222
 21
171.363778
 31
0.0
  0
LINE
  5
383
  8
LAYER_1
 10
17.427222
 20
171.363778
 30
0.0
 11
17.054105
 21
171.397462
 31
0.0
  0
LINE
  5
384
  8
LAYER_1
 10
17.054105
 20
171.397462
 30
0.0
 11
17.342115
 21
171.448597
 31
0.0
  0
LINE
  5
385
  8
LAYER_1
 10
17.342115
 20
171.448597
 30
0.0
 11
19.614444
 21
171.575445
 31
0.0
  0
LINE
  5
386
  8
LAYER_1
 10
19.614444
 20
171.575445
 30
0.0
 11
22.483674
 21
171.623992
 31
0.0
  0
LINE
  5
387
  8
LAYER_1
 10
22.483674
 20
171.623992
 30
0.0
 11
23.833667
 21
171.520556
 31
0.0
  0
LINE
  5
388
  8
LAYER_1
 10
23.833667
 20
171.520556
 30
0.0
 11
23.438512
 21
171.371066
 31
0.0
  0
LINE
  5
389
  8
LAYER_1
 10
23.438512
 20
171.371066
 30
0.0
 11
22.111963
 21
171.308889
 31
0.0
  0
LINE
  5
38A
  8
LAYER_1
 10
22.111963
 20
171.308889
 30
0.0
 11
20.122148
 21
171.308889
 31
0.0
  0
LINE
  5
38B
  8
LAYER_1
 10
20.122148
 20
171.308889
 30
0.0
 11
19.229371
 21
169.872711
 31
0.0
  0
LINE
  5
38C
  8
LAYER_1
 10
19.229371
 20
169.872711
 30
0.0
 11
18.336594
 21
168.436533
 31
0.0
  0
LINE
  5
38D
  8
LAYER_1
 10
18.336594
 20
168.436533
 30
0.0
 11
20.527742
 21
168.527978
 31
0.0
  0
LINE
  5
38E
  8
LAYER_1
 10
20.527742
 20
168.527978
 30
0.0
 11
22.054514
 21
168.531611
 31
0.0
  0
LINE
  5
38F
  8
LAYER_1
 10
22.054514
 20
168.531611
 30
0.0
 11
22.648333
 21
168.411934
 31
0.0
  0
LINE
  5
390
  8
LAYER_1
 10
22.648333
 20
168.411934
 30
0.0
 11
22.577778
 21
166.087778
 31
0.0
  0
LINE
  5
391
  8
LAYER_1
 10
22.577778
 20
166.087778
 30
0.0
 11
22.497815
 21
164.570834
 31
0.0
  0
LINE
  5
392
  8
LAYER_1
 10
22.497815
 20
164.570834
 30
0.0
 11
22.295556
 21
163.971111
 31
0.0
  0
LINE
  5
393
  8
LAYER_1
 10
22.295556
 20
163.971111
 30
0.0
 11
22.096236
 21
164.095465
 31
0.0
  0
LINE
  5
394
  8
LAYER_1
 10
22.096236
 20
164.095465
 30
0.0
 11
22.013333
 21
164.394444
 31
0.0
  0
LINE
  5
395
  8
LAYER_1
 10
22.013333
 20
164.394444
 30
0.0
 11
21.929549
 21
164.601023
 31
0.0
  0
LINE
  5
396
  8
LAYER_1
 10
21.929549
 20
164.601023
 30
0.0
 11
21.637037
 21
164.73094
 31
0.0
  0
LINE
  5
397
  8
LAYER_1
 10
21.637037
 20
164.73094
 30
0.0
 11
20.178889
 21
164.817778
 31
0.0
  0
LINE
  5
398
  8
LAYER_1
 10
20.178889
 20
164.817778
 30
0.0
 11
18.720741
 21
164.73094
 31
0.0
  0
LINE
  5
399
  8
LAYER_1
 10
18.720741
 20
164.73094
 30
0.0
 11
18.428229
 21
164.601023
 31
0.0
  0
LINE
  5
39A
  8
LAYER_1
 10
18.428229
 20
164.601023
 30
0.0
 11
18.344444
 21
164.394444
 31
0.0
  0
LINE
  5
39B
  8
LAYER_1
 10
18.344444
 20
164.394444
 30
0.0
 11
18.261542
 21
164.095465
 31
0.0
  0
LINE
  5
39C
  8
LAYER_1
 10
18.261542
 20
164.095465
 30
0.0
 11
18.062222
 21
163.971111
 31
0.0
  0
LINE
  5
39D
  8
LAYER_1
 10
18.062222
 20
163.971111
 30
0.0
 11
17.861127
 21
164.512577
 31
0.0
  0
LINE
  5
39E
  8
LAYER_1
 10
17.861127
 20
164.512577
 30
0.0
 11
17.78
 21
165.85475
 31
0.0
  0
LINE
  5
39F
  8
LAYER_1
 10
17.78
 20
165.85475
 30
0.0
 11
17.78
 21
165.85475
 31
0.0
  0
LINE
  5
3A0
  8
LAYER_1
 10
22.013333
 20
166.652222
 30
0.0
 11
22.013333
 21
168.204444
 31
0.0
  0
LINE
  5
3A1
  8
LAYER_1
 10
22.013333
 20
168.204444
 30
0.0
 11
20.178889
 21
168.204444
 31
0.0
  0
LINE
  5
3A2
  8
LAYER_1
 10
20.178889
 20
168.204444
 30
0.0
 11
18.344444
 21
168.204444
 31
0.0
  0
LINE
  5
3A3
  8
LAYER_1
 10
18.344444
 20
168.204444
 30
0.0
 11
18.344444
 21
166.652222
 31
0.0
  0
LINE
  5
3A4
  8
LAYER_1
 10
18.344444
 20
166.652222
 30
0.0
 11
18.344444
 21
165.1
 31
0.0
  0
LINE
  5
3A5
  8
LAYER_1
 10
18.344444
 20
165.1
 30
0.0
 11
20.178889
 21
165.1
 31
0.0
  0
LINE
  5
3A6
  8
LAYER_1
 10
20.178889
 20
165.1
 30
0.0
 11
22.013333
 21
165.1
 31
0.0
  0
LINE
  5
3A7
  8
LAYER_1
 10
22.013333
 20
165.1
 30
0.0
 11
22.013333
 21
166.652222
 31
0.0
  0
LINE
  5
3A8
  8
LAYER_1
 10
22.013333
 20
166.652222
 30
0.0
 11
22.013333
 21
166.652222
 31
0.0
  0
LINE
  5
3A9
  8
LAYER_1
 10
49.106667
 20
164.660439
 30
0.0
 11
49.067507
 21
165.027279
 31
0.0
  0
LINE
  5
3AA
  8
LAYER_1
 10
49.067507
 20
165.027279
 30
0.0
 11
48.902286
 21
165.250716
 31
0.0
  0
LINE
  5
3AB
  8
LAYER_1
 10
48.902286
 20
165.250716
 30
0.0
 11
47.907222
 21
165.457799
 31
0.0
  0
LINE
  5
3AC
  8
LAYER_1
 10
47.907222
 20
165.457799
 30
0.0
 11
46.707778
 21
165.565833
 31
0.0
  0
LINE
  5
3AD
  8
LAYER_1
 10
46.707778
 20
165.565833
 30
0.0
 11
47.907222
 21
165.615137
 31
0.0
  0
LINE
  5
3AE
  8
LAYER_1
 10
47.907222
 20
165.615137
 30
0.0
 11
48.911236
 21
165.771371
 31
0.0
  0
LINE
  5
3AF
  8
LAYER_1
 10
48.911236
 20
165.771371
 30
0.0
 11
49.070863
 21
165.99074
 31
0.0
  0
LINE
  5
3B0
  8
LAYER_1
 10
49.070863
 20
165.99074
 30
0.0
 11
49.106667
 21
166.37
 31
0.0
  0
LINE
  5
3B1
  8
LAYER_1
 10
49.106667
 20
166.37
 30
0.0
 11
49.073708
 21
166.743901
 31
0.0
  0
LINE
  5
3B2
  8
LAYER_1
 10
49.073708
 20
166.743901
 30
0.0
 11
48.932097
 21
166.95714
 31
0.0
  0
LINE
  5
3B3
  8
LAYER_1
 10
48.932097
 20
166.95714
 30
0.0
 11
48.066523
 21
167.075556
 31
0.0
  0
LINE
  5
3B4
  8
LAYER_1
 10
48.066523
 20
167.075556
 30
0.0
 11
47.115302
 21
166.915267
 31
0.0
  0
LINE
  5
3B5
  8
LAYER_1
 10
47.115302
 20
166.915267
 30
0.0
 11
46.338513
 21
166.440556
 31
0.0
  0
LINE
  5
3B6
  8
LAYER_1
 10
46.338513
 20
166.440556
 30
0.0
 11
45.650647
 21
165.805556
 31
0.0
  0
LINE
  5
3B7
  8
LAYER_1
 10
45.650647
 20
165.805556
 30
0.0
 11
46.249768
 21
166.993756
 31
0.0
  0
LINE
  5
3B8
  8
LAYER_1
 10
46.249768
 20
166.993756
 30
0.0
 11
46.707512
 21
168.321753
 31
0.0
  0
LINE
  5
3B9
  8
LAYER_1
 10
46.707512
 20
168.321753
 30
0.0
 11
46.848889
 21
169.962573
 31
0.0
  0
LINE
  5
3BA
  8
LAYER_1
 10
46.848889
 20
169.962573
 30
0.0
 11
46.848889
 21
171.743192
 31
0.0
  0
LINE
  5
3BB
  8
LAYER_1
 10
46.848889
 20
171.743192
 30
0.0
 11
48.969769
 21
171.636092
 31
0.0
  0
LINE
  5
3BC
  8
LAYER_1
 10
48.969769
 20
171.636092
 30
0.0
 11
50.660704
 21
171.643007
 31
0.0
  0
LINE
  5
3BD
  8
LAYER_1
 10
50.660704
 20
171.643007
 30
0.0
 11
51.50643
 21
171.874059
 31
0.0
  0
LINE
  5
3BE
  8
LAYER_1
 10
51.50643
 20
171.874059
 30
0.0
 11
51.862404
 21
172.029851
 31
0.0
  0
LINE
  5
3BF
  8
LAYER_1
 10
51.862404
 20
172.029851
 30
0.0
 11
52.086347
 21
171.785051
 31
0.0
  0
LINE
  5
3C0
  8
LAYER_1
 10
52.086347
 20
171.785051
 30
0.0
 11
52.157435
 21
170.039287
 31
0.0
  0
LINE
  5
3C1
  8
LAYER_1
 10
52.157435
 20
170.039287
 30
0.0
 11
52.07
 21
168.700292
 31
0.0
  0
LINE
  5
3C2
  8
LAYER_1
 10
52.07
 20
168.700292
 30
0.0
 11
49.671111
 21
168.664035
 31
0.0
  0
LINE
  5
3C3
  8
LAYER_1
 10
49.671111
 20
168.664035
 30
0.0
 11
47.612566
 21
168.541682
 31
0.0
  0
LINE
  5
3C4
  8
LAYER_1
 10
47.612566
 20
168.541682
 30
0.0
 11
47.312426
 21
168.347283
 31
0.0
  0
LINE
  5
3C5
  8
LAYER_1
 10
47.312426
 20
168.347283
 30
0.0
 11
47.240201
 21
167.992778
 31
0.0
  0
LINE
  5
3C6
  8
LAYER_1
 10
47.240201
 20
167.992778
 30
0.0
 11
47.258742
 21
167.666168
 31
0.0
  0
LINE
  5
3C7
  8
LAYER_1
 10
47.258742
 20
167.666168
 30
0.0
 11
47.386465
 21
167.473152
 31
0.0
  0
LINE
  5
3C8
  8
LAYER_1
 10
47.386465
 20
167.473152
 30
0.0
 11
48.157424
 21
167.357778
 31
0.0
  0
LINE
  5
3C9
  8
LAYER_1
 10
48.157424
 20
167.357778
 30
0.0
 11
48.917455
 21
167.470288
 31
0.0
  0
LINE
  5
3CA
  8
LAYER_1
 10
48.917455
 20
167.470288
 30
0.0
 11
49.106667
 21
167.922222
 31
0.0
  0
LINE
  5
3CB
  8
LAYER_1
 10
49.106667
 20
167.922222
 30
0.0
 11
49.232517
 21
168.326082
 31
0.0
  0
LINE
  5
3CC
  8
LAYER_1
 10
49.232517
 20
168.326082
 30
0.0
 11
49.549019
 21
168.486667
 31
0.0
  0
LINE
  5
3CD
  8
LAYER_1
 10
49.549019
 20
168.486667
 30
0.0
 11
49.848165
 21
168.350572
 31
0.0
  0
LINE
  5
3CE
  8
LAYER_1
 10
49.848165
 20
168.350572
 30
0.0
 11
49.800315
 21
167.884709
 31
0.0
  0
LINE
  5
3CF
  8
LAYER_1
 10
49.800315
 20
167.884709
 30
0.0
 11
49.728127
 21
167.550694
 31
0.0
  0
LINE
  5
3D0
  8
LAYER_1
 10
49.728127
 20
167.550694
 30
0.0
 11
49.861839
 21
167.386579
 31
0.0
  0
LINE
  5
3D1
  8
LAYER_1
 10
49.861839
 20
167.386579
 30
0.0
 11
51.204393
 21
167.415035
 31
0.0
  0
LINE
  5
3D2
  8
LAYER_1
 10
51.204393
 20
167.415035
 30
0.0
 11
52.373779
 21
167.439168
 31
0.0
  0
LINE
  5
3D3
  8
LAYER_1
 10
52.373779
 20
167.439168
 30
0.0
 11
52.945307
 21
167.311434
 31
0.0
  0
LINE
  5
3D4
  8
LAYER_1
 10
52.945307
 20
167.311434
 30
0.0
 11
52.545958
 21
167.144845
 31
0.0
  0
LINE
  5
3D5
  8
LAYER_1
 10
52.545958
 20
167.144845
 30
0.0
 11
51.381101
 21
167.075556
 31
0.0
  0
LINE
  5
3D6
  8
LAYER_1
 10
51.381101
 20
167.075556
 30
0.0
 11
49.903641
 21
166.974266
 31
0.0
  0
LINE
  5
3D7
  8
LAYER_1
 10
49.903641
 20
166.974266
 30
0.0
 11
49.704873
 21
166.752112
 31
0.0
  0
LINE
  5
3D8
  8
LAYER_1
 10
49.704873
 20
166.752112
 30
0.0
 11
49.671111
 21
166.330689
 31
0.0
  0
LINE
  5
3D9
  8
LAYER_1
 10
49.671111
 20
166.330689
 30
0.0
 11
49.69766
 21
165.910334
 31
0.0
  0
LINE
  5
3DA
  8
LAYER_1
 10
49.69766
 20
165.910334
 30
0.0
 11
49.8595
 21
165.707577
 31
0.0
  0
LINE
  5
3DB
  8
LAYER_1
 10
49.8595
 20
165.707577
 30
0.0
 11
51.082222
 21
165.752947
 31
0.0
  0
LINE
  5
3DC
  8
LAYER_1
 10
51.082222
 20
165.752947
 30
0.0
 11
52.096405
 21
165.797417
 31
0.0
  0
LINE
  5
3DD
  8
LAYER_1
 10
52.096405
 20
165.797417
 30
0.0
 11
52.493333
 21
165.651149
 31
0.0
  0
LINE
  5
3DE
  8
LAYER_1
 10
52.493333
 20
165.651149
 30
0.0
 11
52.078819
 21
165.461219
 31
0.0
  0
LINE
  5
3DF
  8
LAYER_1
 10
52.078819
 20
165.461219
 30
0.0
 11
51.082222
 21
165.382222
 31
0.0
  0
LINE
  5
3E0
  8
LAYER_1
 10
51.082222
 20
165.382222
 30
0.0
 11
49.882777
 21
165.276389
 31
0.0
  0
LINE
  5
3E1
  8
LAYER_1
 10
49.882777
 20
165.276389
 30
0.0
 11
49.706389
 21
165.064722
 31
0.0
  0
LINE
  5
3E2
  8
LAYER_1
 10
49.706389
 20
165.064722
 30
0.0
 11
49.671111
 21
164.676667
 31
0.0
  0
LINE
  5
3E3
  8
LAYER_1
 10
49.671111
 20
164.676667
 30
0.0
 11
49.588208
 21
164.178368
 31
0.0
  0
LINE
  5
3E4
  8
LAYER_1
 10
49.588208
 20
164.178368
 30
0.0
 11
49.388889
 21
163.971111
 31
0.0
  0
LINE
  5
3E5
  8
LAYER_1
 10
49.388889
 20
163.971111
 30
0.0
 11
49.189569
 21
164.173602
 31
0.0
  0
LINE
  5
3E6
  8
LAYER_1
 10
49.189569
 20
164.173602
 30
0.0
 11
49.106667
 21
164.660439
 31
0.0
  0
LINE
  5
3E7
  8
LAYER_1
 10
49.106667
 20
164.660439
 30
0.0
 11
49.106667
 21
164.660439
 31
0.0
  0
LINE
  5
3E8
  8
LAYER_1
 10
51.646667
 20
169.615556
 30
0.0
 11
51.587135
 21
169.920708
 31
0.0
  0
LINE
  5
3E9
  8
LAYER_1
 10
51.587135
 20
169.920708
 30
0.0
 11
51.311527
 21
170.090629
 31
0.0
  0
LINE
  5
3EA
  8
LAYER_1
 10
51.311527
 20
170.090629
 30
0.0
 11
49.53
 21
170.18
 31
0.0
  0
LINE
  5
3EB
  8
LAYER_1
 10
49.53
 20
170.18
 30
0.0
 11
47.748473
 21
170.090629
 31
0.0
  0
LINE
  5
3EC
  8
LAYER_1
 10
47.748473
 20
170.090629
 30
0.0
 11
47.472865
 21
169.920708
 31
0.0
  0
LINE
  5
3ED
  8
LAYER_1
 10
47.472865
 20
169.920708
 30
0.0
 11
47.413333
 21
169.615556
 31
0.0
  0
LINE
  5
3EE
  8
LAYER_1
 10
47.413333
 20
169.615556
 30
0.0
 11
47.472865
 21
169.310403
 31
0.0
  0
LINE
  5
3EF
  8
LAYER_1
 10
47.472865
 20
169.310403
 30
0.0
 11
47.748473
 21
169.140482
 31
0.0
  0
LINE
  5
3F0
  8
LAYER_1
 10
47.748473
 20
169.140482
 30
0.0
 11
49.53
 21
169.051111
 31
0.0
  0
LINE
  5
3F1
  8
LAYER_1
 10
49.53
 20
169.051111
 30
0.0
 11
51.311527
 21
169.140482
 31
0.0
  0
LINE
  5
3F2
  8
LAYER_1
 10
51.311527
 20
169.140482
 30
0.0
 11
51.587135
 21
169.310403
 31
0.0
  0
LINE
  5
3F3
  8
LAYER_1
 10
51.587135
 20
169.310403
 30
0.0
 11
51.646667
 21
169.615556
 31
0.0
  0
LINE
  5
3F4
  8
LAYER_1
 10
51.646667
 20
169.615556
 30
0.0
 11
51.646667
 21
169.615556
 31
0.0
  0
LINE
  5
3F5
  8
LAYER_1
 10
51.646667
 20
170.885556
 30
0.0
 11
51.549653
 21
171.095568
 31
0.0
  0
LINE
  5
3F6
  8
LAYER_1
 10
51.549653
 20
171.095568
 30
0.0
 11
51.199814
 21
171.225104
 31
0.0
  0
LINE
  5
3F7
  8
LAYER_1
 10
51.199814
 20
171.225104
 30
0.0
 11
49.388889
 21
171.308889
 31
0.0
  0
LINE
  5
3F8
  8
LAYER_1
 10
49.388889
 20
171.308889
 30
0.0
 11
47.577963
 21
171.225104
 31
0.0
  0
LINE
  5
3F9
  8
LAYER_1
 10
47.577963
 20
171.225104
 30
0.0
 11
47.228125
 21
171.095568
 31
0.0
  0
LINE
  5
3FA
  8
LAYER_1
 10
47.228125
 20
171.095568
 30
0.0
 11
47.131111
 21
170.885556
 31
0.0
  0
LINE
  5
3FB
  8
LAYER_1
 10
47.131111
 20
170.885556
 30
0.0
 11
47.228125
 21
170.675543
 31
0.0
  0
LINE
  5
3FC
  8
LAYER_1
 10
47.228125
 20
170.675543
 30
0.0
 11
47.577963
 21
170.546007
 31
0.0
  0
LINE
  5
3FD
  8
LAYER_1
 10
47.577963
 20
170.546007
 30
0.0
 11
49.388889
 21
170.462222
 31
0.0
  0
LINE
  5
3FE
  8
LAYER_1
 10
49.388889
 20
170.462222
 30
0.0
 11
51.199814
 21
170.546007
 31
0.0
  0
LINE
  5
3FF
  8
LAYER_1
 10
51.199814
 20
170.546007
 30
0.0
 11
51.549653
 21
170.675543
 31
0.0
  0
LINE
  5
400
  8
LAYER_1
 10
51.549653
 20
170.675543
 30
0.0
 11
51.646667
 21
170.885556
 31
0.0
  0
LINE
  5
401
  8
LAYER_1
 10
51.646667
 20
170.885556
 30
0.0
 11
51.646667
 21
170.885556
 31
0.0
  0
LINE
  5
402
  8
LAYER_1
 10
52.775556
 20
164.095565
 30
0.0
 11
52.8627
 21
164.283259
 31
0.0
  0
LINE
  5
403
  8
LAYER_1
 10
52.8627
 20
164.283259
 30
0.0
 11
53.0665
 21
164.386201
 31
0.0
  0
LINE
  5
404
  8
LAYER_1
 10
53.0665
 20
164.386201
 30
0.0
 11
53.300506
 21
164.384419
 31
0.0
  0
LINE
  5
405
  8
LAYER_1
 10
53.300506
 20
164.384419
 30
0.0
 11
53.478266
 21
164.257936
 31
0.0
  0
LINE
  5
406
  8
LAYER_1
 10
53.478266
 20
164.257936
 30
0.0
 11
53.474215
 21
164.055366
 31
0.0
  0
LINE
  5
407
  8
LAYER_1
 10
53.474215
 20
164.055366
 30
0.0
 11
53.215546
 21
163.971111
 31
0.0
  0
LINE
  5
408
  8
LAYER_1
 10
53.215546
 20
163.971111
 30
0.0
 11
52.775556
 21
164.095565
 31
0.0
  0
LINE
  5
409
  8
LAYER_1
 10
52.775556
 20
164.095565
 30
0.0
 11
52.775556
 21
164.095565
 31
0.0
  0
LINE
  5
40A
  8
LAYER_1
 10
95.289734
 20
165.123986
 30
0.0
 11
94.33104299999999
 21
166.036562
 31
0.0
  0
LINE
  5
40B
  8
LAYER_1
 10
94.33104299999999
 20
166.036562
 30
0.0
 11
94.02937300000001
 21
166.480615
 31
0.0
  0
LINE
  5
40C
  8
LAYER_1
 10
94.02937300000001
 20
166.480615
 30
0.0
 11
94.379964
 21
166.418942
 31
0.0
  0
LINE
  5
40D
  8
LAYER_1
 10
94.379964
 20
166.418942
 30
0.0
 11
95.378056
 21
165.814341
 31
0.0
  0
LINE
  5
40E
  8
LAYER_1
 10
95.378056
 20
165.814341
 30
0.0
 11
97.121359
 21
164.758435
 31
0.0
  0
LINE
  5
40F
  8
LAYER_1
 10
97.121359
 20
164.758435
 30
0.0
 11
97.281909
 21
164.585284
 31
0.0
  0
LINE
  5
410
  8
LAYER_1
 10
97.281909
 20
164.585284
 30
0.0
 11
97.257454
 21
164.320212
 31
0.0
  0
LINE
  5
411
  8
LAYER_1
 10
97.257454
 20
164.320212
 30
0.0
 11
97.090936
 21
164.07742
 31
0.0
  0
LINE
  5
412
  8
LAYER_1
 10
97.090936
 20
164.07742
 30
0.0
 11
96.8253
 21
163.971111
 31
0.0
  0
LINE
  5
413
  8
LAYER_1
 10
96.8253
 20
163.971111
 30
0.0
 11
95.289734
 21
165.123986
 31
0.0
  0
LINE
  5
414
  8
LAYER_1
 10
95.289734
 20
165.123986
 30
0.0
 11
95.289734
 21
165.123986
 31
0.0
  0
LINE
  5
415
  8
LAYER_1
 10
78.45777800000001
 20
165.788899
 30
0.0
 11
78.45777800000001
 21
167.357778
 31
0.0
  0
LINE
  5
416
  8
LAYER_1
 10
78.45777800000001
 20
167.357778
 30
0.0
 11
77.540556
 21
167.396211
 31
0.0
  0
LINE
  5
417
  8
LAYER_1
 10
77.540556
 20
167.396211
 30
0.0
 11
76.97850699999999
 21
167.453836
 31
0.0
  0
LINE
  5
418
  8
LAYER_1
 10
76.97850699999999
 20
167.453836
 30
0.0
 11
77.25833299999999
 21
167.55695
 31
0.0
  0
LINE
  5
419
  8
LAYER_1
 10
77.25833299999999
 20
167.55695
 30
0.0
 11
77.674679
 21
167.657712
 31
0.0
  0
LINE
  5
41A
  8
LAYER_1
 10
77.674679
 20
167.657712
 30
0.0
 11
77.85109
 21
167.805485
 31
0.0
  0
LINE
  5
41B
  8
LAYER_1
 10
77.85109
 20
167.805485
 30
0.0
 11
77.594082
 21
168.575776
 31
0.0
  0
LINE
  5
41C
  8
LAYER_1
 10
77.594082
 20
168.575776
 30
0.0
 11
77.533765
 21
168.865188
 31
0.0
  0
LINE
  5
41D
  8
LAYER_1
 10
77.533765
 20
168.865188
 30
0.0
 11
78.06448399999999
 21
168.345652
 31
0.0
  0
LINE
  5
41E
  8
LAYER_1
 10
78.06448399999999
 20
168.345652
 30
0.0
 11
78.638666
 21
167.839606
 31
0.0
  0
LINE
  5
41F
  8
LAYER_1
 10
78.638666
 20
167.839606
 30
0.0
 11
78.938357
 21
167.811741
 31
0.0
  0
LINE
  5
420
  8
LAYER_1
 10
78.938357
 20
167.811741
 30
0.0
 11
79.49075000000001
 21
168.715336
 31
0.0
  0
LINE
  5
421
  8
LAYER_1
 10
79.49075000000001
 20
168.715336
 30
0.0
 11
79.80670000000001
 21
168.975127
 31
0.0
  0
LINE
  5
422
  8
LAYER_1
 10
79.80670000000001
 20
168.975127
 30
0.0
 11
80.032231
 21
168.981842
 31
0.0
  0
LINE
  5
423
  8
LAYER_1
 10
80.032231
 20
168.981842
 30
0.0
 11
80.021798
 21
168.656557
 31
0.0
  0
LINE
  5
424
  8
LAYER_1
 10
80.021798
 20
168.656557
 30
0.0
 11
79.70253
 21
168.168667
 31
0.0
  0
LINE
  5
425
  8
LAYER_1
 10
79.70253
 20
168.168667
 30
0.0
 11
79.31124800000001
 21
167.667042
 31
0.0
  0
LINE
  5
426
  8
LAYER_1
 10
79.31124800000001
 20
167.667042
 30
0.0
 11
79.774582
 21
167.755085
 31
0.0
  0
LINE
  5
427
  8
LAYER_1
 10
79.774582
 20
167.755085
 30
0.0
 11
80.259598
 21
167.803066
 31
0.0
  0
LINE
  5
428
  8
LAYER_1
 10
80.259598
 20
167.803066
 30
0.0
 11
80.56734899999999
 21
167.651481
 31
0.0
  0
LINE
  5
429
  8
LAYER_1
 10
80.56734899999999
 20
167.651481
 30
0.0
 11
80.465251
 21
167.437501
 31
0.0
  0
LINE
  5
42A
  8
LAYER_1
 10
80.465251
 20
167.437501
 30
0.0
 11
79.88554600000001
 21
167.357778
 31
0.0
  0
LINE
  5
42B
  8
LAYER_1
 10
79.88554600000001
 20
167.357778
 30
0.0
 11
79.39355000000001
 21
167.33216
 31
0.0
  0
LINE
  5
42C
  8
LAYER_1
 10
79.39355000000001
 20
167.33216
 30
0.0
 11
79.13646
 21
167.173259
 31
0.0
  0
LINE
  5
42D
  8
LAYER_1
 10
79.13646
 20
167.173259
 30
0.0
 11
79.022222
 21
165.963323
 31
0.0
  0
LINE
  5
42E
  8
LAYER_1
 10
79.022222
 20
165.963323
 30
0.0
 11
78.939319
 21
164.927252
 31
0.0
  0
LINE
  5
42F
  8
LAYER_1
 10
78.939319
 20
164.927252
 30
0.0
 11
78.74
 21
164.394444
 31
0.0
  0
LINE
  5
430
  8
LAYER_1
 10
78.74
 20
164.394444
 30
0.0
 11
78.621982
 21
164.429667
 31
0.0
  0
LINE
  5
431
  8
LAYER_1
 10
78.621982
 20
164.429667
 30
0.0
 11
78.533181
 21
164.685793
 31
0.0
  0
LINE
  5
432
  8
LAYER_1
 10
78.533181
 20
164.685793
 30
0.0
 11
78.45777800000001
 21
165.788899
 31
0.0
  0
LINE
  5
433
  8
LAYER_1
 10
78.45777800000001
 20
165.788899
 30
0.0
 11
78.45777800000001
 21
165.788899
 31
0.0
  0
LINE
  5
434
  8
LAYER_1
 10
105.833333
 20
167.922222
 30
0.0
 11
105.909317
 21
170.603333
 31
0.0
  0
LINE
  5
435
  8
LAYER_1
 10
105.909317
 20
170.603333
 30
0.0
 11
106.115556
 21
171.591111
 31
0.0
  0
LINE
  5
436
  8
LAYER_1
 10
106.115556
 20
171.591111
 30
0.0
 11
106.314875
 21
171.135146
 31
0.0
  0
LINE
  5
437
  8
LAYER_1
 10
106.314875
 20
171.135146
 30
0.0
 11
106.397778
 21
170.038889
 31
0.0
  0
LINE
  5
438
  8
LAYER_1
 10
106.397778
 20
170.038889
 30
0.0
 11
106.397778
 21
168.486667
 31
0.0
  0
LINE
  5
439
  8
LAYER_1
 10
106.397778
 20
168.486667
 30
0.0
 11
108.232222
 21
168.486667
 31
0.0
  0
LINE
  5
43A
  8
LAYER_1
 10
108.232222
 20
168.486667
 30
0.0
 11
110.066667
 21
168.486667
 31
0.0
  0
LINE
  5
43B
  8
LAYER_1
 10
110.066667
 20
168.486667
 30
0.0
 11
110.066667
 21
170.069084
 31
0.0
  0
LINE
  5
43C
  8
LAYER_1
 10
110.066667
 20
170.069084
 30
0.0
 11
110.149489
 21
171.326139
 31
0.0
  0
LINE
  5
43D
  8
LAYER_1
 10
110.149489
 20
171.326139
 30
0.0
 11
110.285396
 21
171.506925
 31
0.0
  0
LINE
  5
43E
  8
LAYER_1
 10
110.285396
 20
171.506925
 30
0.0
 11
110.513083
 21
171.480195
 31
0.0
  0
LINE
  5
43F
  8
LAYER_1
 10
110.513083
 20
171.480195
 30
0.0
 11
111.006972
 21
171.309498
 31
0.0
  0
LINE
  5
440
  8
LAYER_1
 10
111.006972
 20
171.309498
 30
0.0
 11
110.913333
 21
167.874877
 31
0.0
  0
LINE
  5
441
  8
LAYER_1
 10
110.913333
 20
167.874877
 30
0.0
 11
110.721678
 21
165.232088
 31
0.0
  0
LINE
  5
442
  8
LAYER_1
 10
110.721678
 20
165.232088
 30
0.0
 11
110.58646
 21
164.57575
 31
0.0
  0
LINE
  5
443
  8
LAYER_1
 10
110.58646
 20
164.57575
 30
0.0
 11
110.419444
 21
164.322972
 31
0.0
  0
LINE
  5
444
  8
LAYER_1
 10
110.419444
 20
164.322972
 30
0.0
 11
110.165555
 21
164.403816
 31
0.0
  0
LINE
  5
445
  8
LAYER_1
 10
110.165555
 20
164.403816
 30
0.0
 11
110.066667
 21
164.79426
 31
0.0
  0
LINE
  5
446
  8
LAYER_1
 10
110.066667
 20
164.79426
 30
0.0
 11
110.014985
 21
165.112042
 31
0.0
  0
LINE
  5
447
  8
LAYER_1
 10
110.014985
 20
165.112042
 30
0.0
 11
109.775978
 21
165.289053
 31
0.0
  0
LINE
  5
448
  8
LAYER_1
 10
109.775978
 20
165.289053
 30
0.0
 11
108.232222
 21
165.382222
 31
0.0
  0
LINE
  5
449
  8
LAYER_1
 10
108.232222
 20
165.382222
 30
0.0
 11
106.697639
 21
165.289957
 31
0.0
  0
LINE
  5
44A
  8
LAYER_1
 10
106.697639
 20
165.289957
 30
0.0
 11
106.452899
 21
165.119674
 31
0.0
  0
LINE
  5
44B
  8
LAYER_1
 10
106.452899
 20
165.119674
 30
0.0
 11
106.397778
 21
164.817778
 31
0.0
  0
LINE
  5
44C
  8
LAYER_1
 10
106.397778
 20
164.817778
 30
0.0
 11
106.314875
 21
164.419139
 31
0.0
  0
LINE
  5
44D
  8
LAYER_1
 10
106.314875
 20
164.419139
 30
0.0
 11
106.115556
 21
164.253333
 31
0.0
  0
LINE
  5
44E
  8
LAYER_1
 10
106.115556
 20
164.253333
 30
0.0
 11
105.909317
 21
165.241111
 31
0.0
  0
LINE
  5
44F
  8
LAYER_1
 10
105.909317
 20
165.241111
 30
0.0
 11
105.833333
 21
167.922222
 31
0.0
  0
LINE
  5
450
  8
LAYER_1
 10
105.833333
 20
167.922222
 30
0.0
 11
105.833333
 21
167.922222
 31
0.0
  0
LINE
  5
451
  8
LAYER_1
 10
110.066667
 20
166.934444
 30
0.0
 11
110.066667
 21
168.204444
 31
0.0
  0
LINE
  5
452
  8
LAYER_1
 10
110.066667
 20
168.204444
 30
0.0
 11
108.232222
 21
168.204444
 31
0.0
  0
LINE
  5
453
  8
LAYER_1
 10
108.232222
 20
168.204444
 30
0.0
 11
106.397778
 21
168.204444
 31
0.0
  0
LINE
  5
454
  8
LAYER_1
 10
106.397778
 20
168.204444
 30
0.0
 11
106.397778
 21
166.934444
 31
0.0
  0
LINE
  5
455
  8
LAYER_1
 10
106.397778
 20
166.934444
 30
0.0
 11
106.397778
 21
165.664444
 31
0.0
  0
LINE
  5
456
  8
LAYER_1
 10
106.397778
 20
165.664444
 30
0.0
 11
108.232222
 21
165.664444
 31
0.0
  0
LINE
  5
457
  8
LAYER_1
 10
108.232222
 20
165.664444
 30
0.0
 11
110.066667
 21
165.664444
 31
0.0
  0
LINE
  5
458
  8
LAYER_1
 10
110.066667
 20
165.664444
 30
0.0
 11
110.066667
 21
166.934444
 31
0.0
  0
LINE
  5
459
  8
LAYER_1
 10
110.066667
 20
166.934444
 30
0.0
 11
110.066667
 21
166.934444
 31
0.0
  0
LINE
  5
45A
  8
LAYER_1
 10
119.783027
 20
165.446258
 30
0.0
 11
120.472659
 21
166.63092
 31
0.0
  0
LINE
  5
45B
  8
LAYER_1
 10
120.472659
 20
166.63092
 30
0.0
 11
121.031302
 21
168.002133
 31
0.0
  0
LINE
  5
45C
  8
LAYER_1
 10
121.031302
 20
168.002133
 30
0.0
 11
121.40114
 21
168.948568
 31
0.0
  0
LINE
  5
45D
  8
LAYER_1
 10
121.40114
 20
168.948568
 30
0.0
 11
121.740112
 21
169.439867
 31
0.0
  0
LINE
  5
45E
  8
LAYER_1
 10
121.740112
 20
169.439867
 30
0.0
 11
121.959836
 21
169.403989
 31
0.0
  0
LINE
  5
45F
  8
LAYER_1
 10
121.959836
 20
169.403989
 30
0.0
 11
121.971935
 21
168.768889
 31
0.0
  0
LINE
  5
460
  8
LAYER_1
 10
121.971935
 20
168.768889
 30
0.0
 11
121.714924
 21
167.919835
 31
0.0
  0
LINE
  5
461
  8
LAYER_1
 10
121.714924
 20
167.919835
 30
0.0
 11
121.193513
 21
166.907016
 31
0.0
  0
LINE
  5
462
  8
LAYER_1
 10
121.193513
 20
166.907016
 30
0.0
 11
120.513669
 21
165.907911
 31
0.0
  0
LINE
  5
463
  8
LAYER_1
 10
120.513669
 20
165.907911
 30
0.0
 11
119.78136
 21
165.1
 31
0.0
  0
LINE
  5
464
  8
LAYER_1
 10
119.78136
 20
165.1
 30
0.0
 11
119.00012
 21
164.394444
 31
0.0
  0
LINE
  5
465
  8
LAYER_1
 10
119.00012
 20
164.394444
 30
0.0
 11
119.783027
 21
165.446258
 31
0.0
  0
LINE
  5
466
  8
LAYER_1
 10
119.783027
 20
165.446258
 30
0.0
 11
119.783027
 21
165.446258
 31
0.0
  0
LINE
  5
467
  8
LAYER_1
 10
125.393021
 20
165.750322
 30
0.0
 11
124.22041
 21
167.537079
 31
0.0
  0
LINE
  5
468
  8
LAYER_1
 10
124.22041
 20
167.537079
 30
0.0
 11
124.04804
 21
168.039142
 31
0.0
  0
LINE
  5
469
  8
LAYER_1
 10
124.04804
 20
168.039142
 30
0.0
 11
124.078476
 21
168.430876
 31
0.0
  0
LINE
  5
46A
  8
LAYER_1
 10
124.078476
 20
168.430876
 30
0.0
 11
124.998339
 21
169.523043
 31
0.0
  0
LINE
  5
46B
  8
LAYER_1
 10
124.998339
 20
169.523043
 30
0.0
 11
125.91622
 21
170.299816
 31
0.0
  0
LINE
  5
46C
  8
LAYER_1
 10
125.91622
 20
170.299816
 30
0.0
 11
126.217134
 21
170.42517
 31
0.0
  0
LINE
  5
46D
  8
LAYER_1
 10
126.217134
 20
170.42517
 30
0.0
 11
126.410839
 21
170.37405
 31
0.0
  0
LINE
  5
46E
  8
LAYER_1
 10
126.410839
 20
170.37405
 30
0.0
 11
126.453174
 21
170.200857
 31
0.0
  0
LINE
  5
46F
  8
LAYER_1
 10
126.453174
 20
170.200857
 30
0.0
 11
126.301562
 21
169.961261
 31
0.0
  0
LINE
  5
470
  8
LAYER_1
 10
126.301562
 20
169.961261
 30
0.0
 11
125.420402
 21
169.287148
 31
0.0
  0
LINE
  5
471
  8
LAYER_1
 10
125.420402
 20
169.287148
 30
0.0
 11
124.14922
 21
168.480988
 31
0.0
  0
LINE
  5
472
  8
LAYER_1
 10
124.14922
 20
168.480988
 30
0.0
 11
124.657389
 21
167.597128
 31
0.0
  0
LINE
  5
473
  8
LAYER_1
 10
124.657389
 20
167.597128
 30
0.0
 11
125.327294
 21
166.744872
 31
0.0
  0
LINE
  5
474
  8
LAYER_1
 10
125.327294
 20
166.744872
 30
0.0
 11
126.224321
 21
165.936995
 31
0.0
  0
LINE
  5
475
  8
LAYER_1
 10
126.224321
 20
165.936995
 30
0.0
 11
126.969548
 21
165.28667
 31
0.0
  0
LINE
  5
476
  8
LAYER_1
 10
126.969548
 20
165.28667
 30
0.0
 11
127.00313
 21
165.108686
 31
0.0
  0
LINE
  5
477
  8
LAYER_1
 10
127.00313
 20
165.108686
 30
0.0
 11
126.836241
 21
164.98925
 31
0.0
  0
LINE
  5
478
  8
LAYER_1
 10
126.836241
 20
164.98925
 30
0.0
 11
126.480711
 21
164.86299
 31
0.0
  0
LINE
  5
479
  8
LAYER_1
 10
126.480711
 20
164.86299
 30
0.0
 11
126.227051
 21
164.892173
 31
0.0
  0
LINE
  5
47A
  8
LAYER_1
 10
126.227051
 20
164.892173
 30
0.0
 11
125.393021
 21
165.750322
 31
0.0
  0
LINE
  5
47B
  8
LAYER_1
 10
125.393021
 20
165.750322
 30
0.0
 11
125.393021
 21
165.750322
 31
0.0
  0
LINE
  5
47C
  8
LAYER_1
 10
67.028142
 20
166.409051
 30
0.0
 11
66.652087
 21
167.275794
 31
0.0
  0
LINE
  5
47D
  8
LAYER_1
 10
66.652087
 20
167.275794
 30
0.0
 11
66.43306800000001
 21
168.314051
 31
0.0
  0
LINE
  5
47E
  8
LAYER_1
 10
66.43306800000001
 20
168.314051
 30
0.0
 11
66.325874
 21
169.474444
 31
0.0
  0
LINE
  5
47F
  8
LAYER_1
 10
66.325874
 20
169.474444
 30
0.0
 11
66.62849
 21
168.486667
 31
0.0
  0
LINE
  5
480
  8
LAYER_1
 10
66.62849
 20
168.486667
 30
0.0
 11
67.044104
 21
167.576044
 31
0.0
  0
LINE
  5
481
  8
LAYER_1
 10
67.044104
 20
167.576044
 30
0.0
 11
67.618393
 21
166.773767
 31
0.0
  0
LINE
  5
482
  8
LAYER_1
 10
67.618393
 20
166.773767
 30
0.0
 11
68.04736
 21
166.205218
 31
0.0
  0
LINE
  5
483
  8
LAYER_1
 10
68.04736
 20
166.205218
 30
0.0
 11
68.11358
 21
165.856545
 31
0.0
  0
LINE
  5
484
  8
LAYER_1
 10
68.11358
 20
165.856545
 30
0.0
 11
67.87210399999999
 21
165.693367
 31
0.0
  0
LINE
  5
485
  8
LAYER_1
 10
67.87210399999999
 20
165.693367
 30
0.0
 11
67.631976
 21
165.720232
 31
0.0
  0
LINE
  5
486
  8
LAYER_1
 10
67.631976
 20
165.720232
 30
0.0
 11
67.028142
 21
166.409051
 31
0.0
  0
LINE
  5
487
  8
LAYER_1
 10
67.028142
 20
166.409051
 30
0.0
 11
67.028142
 21
166.409051
 31
0.0
  0
LINE
  5
488
  8
LAYER_1
 10
80.151111
 20
166.353343
 30
0.0
 11
80.23825600000001
 21
166.541036
 31
0.0
  0
LINE
  5
489
  8
LAYER_1
 10
80.23825600000001
 20
166.541036
 30
0.0
 11
80.44205599999999
 21
166.643979
 31
0.0
  0
LINE
  5
48A
  8
LAYER_1
 10
80.44205599999999
 20
166.643979
 30
0.0
 11
80.676061
 21
166.642197
 31
0.0
  0
LINE
  5
48B
  8
LAYER_1
 10
80.676061
 20
166.642197
 30
0.0
 11
80.85382199999999
 21
166.515714
 31
0.0
  0
LINE
  5
48C
  8
LAYER_1
 10
80.85382199999999
 20
166.515714
 30
0.0
 11
80.849771
 21
166.313144
 31
0.0
  0
LINE
  5
48D
  8
LAYER_1
 10
80.849771
 20
166.313144
 30
0.0
 11
80.591101
 21
166.228889
 31
0.0
  0
LINE
  5
48E
  8
LAYER_1
 10
80.591101
 20
166.228889
 30
0.0
 11
80.151111
 21
166.353343
 31
0.0
  0
LINE
  5
48F
  8
LAYER_1
 10
80.151111
 20
166.353343
 30
0.0
 11
80.151111
 21
166.353343
 31
0.0
  0
LINE
  5
490
  8
LAYER_1
 10
62.711798
 20
167.651258
 30
0.0
 11
62.511431
 21
168.098063
 31
0.0
  0
LINE
  5
491
  8
LAYER_1
 10
62.511431
 20
168.098063
 30
0.0
 11
62.775397
 21
168.204444
 31
0.0
  0
LINE
  5
492
  8
LAYER_1
 10
62.775397
 20
168.204444
 30
0.0
 11
63.108137
 21
168.142051
 31
0.0
  0
LINE
  5
493
  8
LAYER_1
 10
63.108137
 20
168.142051
 30
0.0
 11
63.311232
 21
167.9732
 31
0.0
  0
LINE
  5
494
  8
LAYER_1
 10
63.311232
 20
167.9732
 30
0.0
 11
63.367565
 21
167.725389
 31
0.0
  0
LINE
  5
495
  8
LAYER_1
 10
63.367565
 20
167.725389
 30
0.0
 11
63.260012
 21
167.426115
 31
0.0
  0
LINE
  5
496
  8
LAYER_1
 10
63.260012
 20
167.426115
 30
0.0
 11
63.022731
 21
167.311318
 31
0.0
  0
LINE
  5
497
  8
LAYER_1
 10
63.022731
 20
167.311318
 30
0.0
 11
62.711798
 21
167.651258
 31
0.0
  0
LINE
  5
498
  8
LAYER_1
 10
62.711798
 20
167.651258
 30
0.0
 11
62.711798
 21
167.651258
 31
0.0
  0
LINE
  5
499
  8
LAYER_1
 10
6.297626
 20
168.416111
 30
0.0
 11
5.975749
 21
169.192222
 31
0.0
  0
LINE
  5
49A
  8
LAYER_1
 10
5.975749
 20
169.192222
 30
0.0
 11
6.050662
 21
169.235382
 31
0.0
  0
LINE
  5
49B
  8
LAYER_1
 10
6.050662
 20
169.235382
 30
0.0
 11
6.435943
 21
168.942837
 31
0.0
  0
LINE
  5
49C
  8
LAYER_1
 10
6.435943
 20
168.942837
 30
0.0
 11
6.819755
 21
168.495567
 31
0.0
  0
LINE
  5
49D
  8
LAYER_1
 10
6.819755
 20
168.495567
 30
0.0
 11
6.891133
 21
168.166725
 31
0.0
  0
LINE
  5
49E
  8
LAYER_1
 10
6.891133
 20
168.166725
 30
0.0
 11
6.581805
 21
167.948157
 31
0.0
  0
LINE
  5
49F
  8
LAYER_1
 10
6.581805
 20
167.948157
 30
0.0
 11
6.297626
 21
168.416111
 31
0.0
  0
LINE
  5
4A0
  8
LAYER_1
 10
6.297626
 20
168.416111
 30
0.0
 11
6.297626
 21
168.416111
 31
0.0
  0
LINE
  5
4A1
  8
LAYER_1
 10
1.499255
 20
168.930856
 30
0.0
 11
1.157832
 21
169.423669
 31
0.0
  0
LINE
  5
4A2
  8
LAYER_1
 10
1.157832
 20
169.423669
 30
0.0
 11
1.237414
 21
169.615556
 31
0.0
  0
LINE
  5
4A3
  8
LAYER_1
 10
1.237414
 20
169.615556
 30
0.0
 11
1.686951
 21
169.502996
 31
0.0
  0
LINE
  5
4A4
  8
LAYER_1
 10
1.686951
 20
169.502996
 30
0.0
 11
2.083456
 21
169.228941
 31
0.0
  0
LINE
  5
4A5
  8
LAYER_1
 10
2.083456
 20
169.228941
 30
0.0
 11
2.327413
 21
168.888824
 31
0.0
  0
LINE
  5
4A6
  8
LAYER_1
 10
2.327413
 20
168.888824
 30
0.0
 11
2.319301
 21
168.578078
 31
0.0
  0
LINE
  5
4A7
  8
LAYER_1
 10
2.319301
 20
168.578078
 30
0.0
 11
2.013631
 21
168.489056
 31
0.0
  0
LINE
  5
4A8
  8
LAYER_1
 10
2.013631
 20
168.489056
 30
0.0
 11
1.499255
 21
168.930856
 31
0.0
  0
LINE
  5
4A9
  8
LAYER_1
 10
1.499255
 20
168.930856
 30
0.0
 11
1.499255
 21
168.930856
 31
0.0
  0
LINE
  5
4AA
  8
LAYER_1
 10
2.257778
 20
171.167778
 30
0.0
 11
1.788265
 21
171.832308
 31
0.0
  0
LINE
  5
4AB
  8
LAYER_1
 10
1.788265
 20
171.832308
 30
0.0
 11
2.667832
 21
171.545809
 31
0.0
  0
LINE
  5
4AC
  8
LAYER_1
 10
2.667832
 20
171.545809
 30
0.0
 11
3.175509
 21
171.203449
 31
0.0
  0
LINE
  5
4AD
  8
LAYER_1
 10
3.175509
 20
171.203449
 30
0.0
 11
3.386667
 21
170.840253
 31
0.0
  0
LINE
  5
4AE
  8
LAYER_1
 10
3.386667
 20
170.840253
 30
0.0
 11
3.313902
 21
170.54041
 31
0.0
  0
LINE
  5
4AF
  8
LAYER_1
 10
3.313902
 20
170.54041
 30
0.0
 11
3.098554
 21
170.495904
 31
0.0
  0
LINE
  5
4B0
  8
LAYER_1
 10
3.098554
 20
170.495904
 30
0.0
 11
2.257778
 21
171.167778
 31
0.0
  0
LINE
  5
4B1
  8
LAYER_1
 10
2.257778
 20
171.167778
 30
0.0
 11
2.257778
 21
171.167778
 31
0.0
  0
LINE
  5
4B2
  8
LAYER_1
 10
2.831198
 20
192.2220880389045
 30
0.0
 11
2.822222
 21
194.2747060389044
 31
0.0
  0
LINE
  5
4B3
  8
LAYER_1
 10
2.822222
 20
194.2747060389044
 30
0.0
 11
2.046111
 21
193.7929260389045
 31
0.0
  0
LINE
  5
4B4
  8
LAYER_1
 10
2.046111
 20
193.7929260389045
 30
0.0
 11
1.703126
 21
193.6001610389045
 31
0.0
  0
LINE
  5
4B5
  8
LAYER_1
 10
1.703126
 20
193.6001610389045
 30
0.0
 11
1.635765
 21
193.6326130389045
 31
0.0
  0
LINE
  5
4B6
  8
LAYER_1
 10
1.635765
 20
193.6326130389045
 30
0.0
 11
2.38561
 21
194.4919760389045
 31
0.0
  0
LINE
  5
4B7
  8
LAYER_1
 10
2.38561
 20
194.4919760389045
 30
0.0
 11
3.50122
 21
195.6728050389044
 31
0.0
  0
LINE
  5
4B8
  8
LAYER_1
 10
3.50122
 20
195.6728050389044
 30
0.0
 11
2.244499
 21
195.7171430389045
 31
0.0
  0
LINE
  5
4B9
  8
LAYER_1
 10
2.244499
 20
195.7171430389045
 30
0.0
 11
0.987778
 21
195.7614810389045
 31
0.0
  0
LINE
  5
4BA
  8
LAYER_1
 10
0.987778
 20
195.7614810389045
 30
0.0
 11
2.377004
 21
195.9288090389045
 31
0.0
  0
LINE
  5
4BB
  8
LAYER_1
 10
2.377004
 20
195.9288090389045
 30
0.0
 11
3.394362
 21
196.1419550389045
 31
0.0
  0
LINE
  5
4BC
  8
LAYER_1
 10
3.394362
 20
196.1419550389045
 30
0.0
 11
3.850778
 21
196.4216290389045
 31
0.0
  0
LINE
  5
4BD
  8
LAYER_1
 10
3.850778
 20
196.4216290389045
 30
0.0
 11
3.703623
 21
196.6920110389044
 31
0.0
  0
LINE
  5
4BE
  8
LAYER_1
 10
3.703623
 20
196.6920110389044
 30
0.0
 11
2.91027
 21
196.8772830389044
 31
0.0
  0
LINE
  5
4BF
  8
LAYER_1
 10
2.91027
 20
196.8772830389044
 30
0.0
 11
1.834444
 21
196.9890310389044
 31
0.0
  0
LINE
  5
4C0
  8
LAYER_1
 10
1.834444
 20
196.9890310389044
 30
0.0
 11
3.033889
 21
197.0364730389045
 31
0.0
  0
LINE
  5
4C1
  8
LAYER_1
 10
3.033889
 20
197.0364730389045
 30
0.0
 11
3.947462
 21
197.1699890389045
 31
0.0
  0
LINE
  5
4C2
  8
LAYER_1
 10
3.947462
 20
197.1699890389045
 30
0.0
 11
4.233333
 21
197.4925000389044
 31
0.0
  0
LINE
  5
4C3
  8
LAYER_1
 10
4.233333
 20
197.4925000389044
 30
0.0
 11
4.150518
 21
197.6851480389045
 31
0.0
  0
LINE
  5
4C4
  8
LAYER_1
 10
4.150518
 20
197.6851480389045
 30
0.0
 11
3.88902
 21
197.8302240389045
 31
0.0
  0
LINE
  5
4C5
  8
LAYER_1
 10
3.88902
 20
197.8302240389045
 30
0.0
 11
2.751667
 21
198.0047390389045
 31
0.0
  0
LINE
  5
4C6
  8
LAYER_1
 10
2.751667
 20
198.0047390389045
 30
0.0
 11
1.27
 21
198.1083920389044
 31
0.0
  0
LINE
  5
4C7
  8
LAYER_1
 10
1.27
 20
198.1083920389044
 30
0.0
 11
2.859862
 21
198.1605980389045
 31
0.0
  0
LINE
  5
4C8
  8
LAYER_1
 10
2.859862
 20
198.1605980389045
 30
0.0
 11
4.18091
 21
198.3085150389045
 31
0.0
  0
LINE
  5
4C9
  8
LAYER_1
 10
4.18091
 20
198.3085150389045
 30
0.0
 11
4.460882
 21
198.4884870389045
 31
0.0
  0
LINE
  5
4CA
  8
LAYER_1
 10
4.460882
 20
198.4884870389045
 30
0.0
 11
4.597634
 21
198.7784140389045
 31
0.0
  0
LINE
  5
4CB
  8
LAYER_1
 10
4.597634
 20
198.7784140389045
 30
0.0
 11
4.821803
 21
199.1610360389045
 31
0.0
  0
LINE
  5
4CC
  8
LAYER_1
 10
4.821803
 20
199.1610360389045
 30
0.0
 11
5.202197
 21
199.1687880389044
 31
0.0
  0
LINE
  5
4CD
  8
LAYER_1
 10
5.202197
 20
199.1687880389044
 30
0.0
 11
5.500893
 21
198.9454930389045
 31
0.0
  0
LINE
  5
4CE
  8
LAYER_1
 10
5.500893
 20
198.9454930389045
 30
0.0
 11
5.310023
 21
198.5732420389045
 31
0.0
  0
LINE
  5
4CF
  8
LAYER_1
 10
5.310023
 20
198.5732420389045
 30
0.0
 11
5.180649
 21
198.3559690389045
 31
0.0
  0
LINE
  5
4D0
  8
LAYER_1
 10
5.180649
 20
198.3559690389045
 30
0.0
 11
5.291335
 21
198.2377000389045
 31
0.0
  0
LINE
  5
4D1
  8
LAYER_1
 10
5.291335
 20
198.2377000389045
 30
0.0
 11
6.502264
 21
198.2178850389045
 31
0.0
  0
LINE
  5
4D2
  8
LAYER_1
 10
6.502264
 20
198.2178850389045
 30
0.0
 11
8.279495000000001
 21
198.1918730389045
 31
0.0
  0
LINE
  5
4D3
  8
LAYER_1
 10
8.279495000000001
 20
198.1918730389045
 30
0.0
 11
6.795376
 21
197.9524270389045
 31
0.0
  0
LINE
  5
4D4
  8
LAYER_1
 10
6.795376
 20
197.9524270389045
 30
0.0
 11
5.41284
 21
197.7309210389045
 31
0.0
  0
LINE
  5
4D5
  8
LAYER_1
 10
5.41284
 20
197.7309210389045
 30
0.0
 11
4.853714
 21
197.3972640389044
 31
0.0
  0
LINE
  5
4D6
  8
LAYER_1
 10
4.853714
 20
197.3972640389044
 30
0.0
 11
4.854619
 21
197.2104590389045
 31
0.0
  0
LINE
  5
4D7
  8
LAYER_1
 10
4.854619
 20
197.2104590389045
 30
0.0
 11
5.043883
 21
197.1122660389044
 31
0.0
  0
LINE
  5
4D8
  8
LAYER_1
 10
5.043883
 20
197.1122660389044
 30
0.0
 11
6.180674
 21
197.1449810389045
 31
0.0
  0
LINE
  5
4D9
  8
LAYER_1
 10
6.180674
 20
197.1449810389045
 30
0.0
 11
7.252991
 21
197.1728300389044
 31
0.0
  0
LINE
  5
4DA
  8
LAYER_1
 10
7.252991
 20
197.1728300389044
 30
0.0
 11
7.786213
 21
197.0432990389045
 31
0.0
  0
LINE
  5
4DB
  8
LAYER_1
 10
7.786213
 20
197.0432990389045
 30
0.0
 11
7.398231
 21
196.8726650389044
 31
0.0
  0
LINE
  5
4DC
  8
LAYER_1
 10
7.398231
 20
196.8726650389044
 30
0.0
 11
6.255739
 21
196.8016930389045
 31
0.0
  0
LINE
  5
4DD
  8
LAYER_1
 10
6.255739
 20
196.8016930389045
 30
0.0
 11
4.894488
 21
196.7044620389044
 31
0.0
  0
LINE
  5
4DE
  8
LAYER_1
 10
4.894488
 20
196.7044620389044
 30
0.0
 11
4.565386
 21
196.5632210389045
 31
0.0
  0
LINE
  5
4DF
  8
LAYER_1
 10
4.565386
 20
196.5632210389045
 30
0.0
 11
4.399818
 21
196.3427160389045
 31
0.0
  0
LINE
  5
4E0
  8
LAYER_1
 10
4.399818
 20
196.3427160389045
 30
0.0
 11
4.381855
 21
196.1030770389044
 31
0.0
  0
LINE
  5
4E1
  8
LAYER_1
 10
4.381855
 20
196.1030770389044
 30
0.0
 11
4.654808
 21
195.9815210389045
 31
0.0
  0
LINE
  5
4E2
  8
LAYER_1
 10
4.654808
 20
195.9815210389045
 30
0.0
 11
6.627402
 21
196.0099010389045
 31
0.0
  0
LINE
  5
4E3
  8
LAYER_1
 10
6.627402
 20
196.0099010389045
 30
0.0
 11
8.325022000000001
 21
196.0309620389045
 31
0.0
  0
LINE
  5
4E4
  8
LAYER_1
 10
8.325022000000001
 20
196.0309620389045
 30
0.0
 11
9.031110999999999
 21
195.9044340389044
 31
0.0
  0
LINE
  5
4E5
  8
LAYER_1
 10
9.031110999999999
 20
195.9044340389044
 30
0.0
 11
8.647898
 21
195.7408460389044
 31
0.0
  0
LINE
  5
4E6
  8
LAYER_1
 10
8.647898
 20
195.7408460389044
 30
0.0
 11
7.726554
 21
195.6728050389044
 31
0.0
  0
LINE
  5
4E7
  8
LAYER_1
 10
7.726554
 20
195.6728050389044
 30
0.0
 11
6.71387
 21
195.5983670389045
 31
0.0
  0
LINE
  5
4E8
  8
LAYER_1
 10
6.71387
 20
195.5983670389045
 30
0.0
 11
6.635526
 21
195.4703650389045
 31
0.0
  0
LINE
  5
4E9
  8
LAYER_1
 10
6.635526
 20
195.4703650389045
 30
0.0
 11
6.772256
 21
195.2507690389045
 31
0.0
  0
LINE
  5
4EA
  8
LAYER_1
 10
6.772256
 20
195.2507690389045
 30
0.0
 11
7.346416
 21
194.8547980389045
 31
0.0
  0
LINE
  5
4EB
  8
LAYER_1
 10
7.346416
 20
194.8547980389045
 30
0.0
 11
8.23499
 21
194.4954280389045
 31
0.0
  0
LINE
  5
4EC
  8
LAYER_1
 10
8.23499
 20
194.4954280389045
 30
0.0
 11
9.04837
 21
194.1736100389045
 31
0.0
  0
LINE
  5
4ED
  8
LAYER_1
 10
9.04837
 20
194.1736100389045
 30
0.0
 11
9.065222
 21
194.0413760389045
 31
0.0
  0
LINE
  5
4EE
  8
LAYER_1
 10
9.065222
 20
194.0413760389045
 30
0.0
 11
8.861579000000001
 21
193.8902060389044
 31
0.0
  0
LINE
  5
4EF
  8
LAYER_1
 10
8.861579000000001
 20
193.8902060389044
 30
0.0
 11
8.375023000000001
 21
193.7642270389044
 31
0.0
  0
LINE
  5
4F0
  8
LAYER_1
 10
8.375023000000001
 20
193.7642270389044
 30
0.0
 11
7.887161
 21
193.9233810389044
 31
0.0
  0
LINE
  5
4F1
  8
LAYER_1
 10
7.887161
 20
193.9233810389044
 30
0.0
 11
7.462475
 21
194.1052650389045
 31
0.0
  0
LINE
  5
4F2
  8
LAYER_1
 10
7.462475
 20
194.1052650389045
 30
0.0
 11
7.20936
 21
193.9421960389045
 31
0.0
  0
LINE
  5
4F3
  8
LAYER_1
 10
7.20936
 20
193.9421960389045
 30
0.0
 11
7.055556
 21
192.2557570389045
 31
0.0
  0
LINE
  5
4F4
  8
LAYER_1
 10
7.055556
 20
192.2557570389045
 30
0.0
 11
6.972653
 21
191.0535860389045
 31
0.0
  0
LINE
  5
4F5
  8
LAYER_1
 10
6.972653
 20
191.0535860389045
 30
0.0
 11
6.773333
 21
190.4516930389044
 31
0.0
  0
LINE
  5
4F6
  8
LAYER_1
 10
6.773333
 20
190.4516930389044
 30
0.0
 11
6.574014
 21
190.4577540389045
 31
0.0
  0
LINE
  5
4F7
  8
LAYER_1
 10
6.574014
 20
190.4577540389045
 30
0.0
 11
6.491111
 21
190.7172600389044
 31
0.0
  0
LINE
  5
4F8
  8
LAYER_1
 10
6.491111
 20
190.7172600389044
 30
0.0
 11
6.371278
 21
190.9331490389045
 31
0.0
  0
LINE
  5
4F9
  8
LAYER_1
 10
6.371278
 20
190.9331490389045
 30
0.0
 11
6.051006
 21
191.0834940389045
 31
0.0
  0
LINE
  5
4FA
  8
LAYER_1
 10
6.051006
 20
191.0834940389045
 30
0.0
 11
5.044496
 21
191.1914260389044
 31
0.0
  0
LINE
  5
4FB
  8
LAYER_1
 10
5.044496
 20
191.1914260389044
 30
0.0
 11
3.942287
 21
191.0488000389045
 31
0.0
  0
LINE
  5
4FC
  8
LAYER_1
 10
3.942287
 20
191.0488000389045
 30
0.0
 11
3.215089
 21
190.6633600389044
 31
0.0
  0
LINE
  5
4FD
  8
LAYER_1
 10
3.215089
 20
190.6633600389044
 30
0.0
 11
3.019994
 21
190.4789350389044
 31
0.0
  0
LINE
  5
4FE
  8
LAYER_1
 10
3.019994
 20
190.4789350389044
 30
0.0
 11
2.904976
 21
190.6204210389045
 31
0.0
  0
LINE
  5
4FF
  8
LAYER_1
 10
2.904976
 20
190.6204210389045
 30
0.0
 11
2.831198
 21
192.2220880389045
 31
0.0
  0
LINE
  5
500
  8
LAYER_1
 10
2.831198
 20
192.2220880389045
 30
0.0
 11
2.831198
 21
192.2220880389045
 31
0.0
  0
LINE
  5
501
  8
LAYER_1
 10
6.491111
 20
192.0039160389045
 30
0.0
 11
6.440399
 21
192.3013720389045
 31
0.0
  0
LINE
  5
502
  8
LAYER_1
 10
6.440399
 20
192.3013720389045
 30
0.0
 11
6.226528
 21
192.4721480389045
 31
0.0
  0
LINE
  5
503
  8
LAYER_1
 10
6.226528
 20
192.4721480389045
 30
0.0
 11
4.938889
 21
192.5683600389044
 31
0.0
  0
LINE
  5
504
  8
LAYER_1
 10
4.938889
 20
192.5683600389044
 30
0.0
 11
3.65125
 21
192.4721480389045
 31
0.0
  0
LINE
  5
505
  8
LAYER_1
 10
3.65125
 20
192.4721480389045
 30
0.0
 11
3.437378
 21
192.3013720389045
 31
0.0
  0
LINE
  5
506
  8
LAYER_1
 10
3.437378
 20
192.3013720389045
 30
0.0
 11
3.386667
 21
192.0039160389045
 31
0.0
  0
LINE
  5
507
  8
LAYER_1
 10
3.386667
 20
192.0039160389045
 30
0.0
 11
3.437378
 21
191.7064600389045
 31
0.0
  0
LINE
  5
508
  8
LAYER_1
 10
3.437378
 20
191.7064600389045
 30
0.0
 11
3.65125
 21
191.5356830389044
 31
0.0
  0
LINE
  5
509
  8
LAYER_1
 10
3.65125
 20
191.5356830389044
 30
0.0
 11
4.938889
 21
191.4394710389045
 31
0.0
  0
LINE
  5
50A
  8
LAYER_1
 10
4.938889
 20
191.4394710389045
 30
0.0
 11
6.226528
 21
191.5356830389044
 31
0.0
  0
LINE
  5
50B
  8
LAYER_1
 10
6.226528
 20
191.5356830389044
 30
0.0
 11
6.440399
 21
191.7064600389045
 31
0.0
  0
LINE
  5
50C
  8
LAYER_1
 10
6.440399
 20
191.7064600389045
 30
0.0
 11
6.491111
 21
192.0039160389045
 31
0.0
  0
LINE
  5
50D
  8
LAYER_1
 10
6.491111
 20
192.0039160389045
 30
0.0
 11
6.491111
 21
192.0039160389045
 31
0.0
  0
LINE
  5
50E
  8
LAYER_1
 10
6.491111
 20
193.4150270389044
 30
0.0
 11
6.440399
 21
193.7124830389045
 31
0.0
  0
LINE
  5
50F
  8
LAYER_1
 10
6.440399
 20
193.7124830389045
 30
0.0
 11
6.226528
 21
193.8832590389044
 31
0.0
  0
LINE
  5
510
  8
LAYER_1
 10
6.226528
 20
193.8832590389044
 30
0.0
 11
4.938889
 21
193.9794710389045
 31
0.0
  0
LINE
  5
511
  8
LAYER_1
 10
4.938889
 20
193.9794710389045
 30
0.0
 11
3.65125
 21
193.8832590389044
 31
0.0
  0
LINE
  5
512
  8
LAYER_1
 10
3.65125
 20
193.8832590389044
 30
0.0
 11
3.437378
 21
193.7124830389045
 31
0.0
  0
LINE
  5
513
  8
LAYER_1
 10
3.437378
 20
193.7124830389045
 30
0.0
 11
3.386667
 21
193.4150270389044
 31
0.0
  0
LINE
  5
514
  8
LAYER_1
 10
3.386667
 20
193.4150270389044
 30
0.0
 11
3.437378
 21
193.1175710389045
 31
0.0
  0
LINE
  5
515
  8
LAYER_1
 10
3.437378
 20
193.1175710389045
 30
0.0
 11
3.65125
 21
192.9467940389044
 31
0.0
  0
LINE
  5
516
  8
LAYER_1
 10
3.65125
 20
192.9467940389044
 30
0.0
 11
4.938889
 21
192.8505820389045
 31
0.0
  0
LINE
  5
517
  8
LAYER_1
 10
4.938889
 20
192.8505820389045
 30
0.0
 11
6.226528
 21
192.9467940389044
 31
0.0
  0
LINE
  5
518
  8
LAYER_1
 10
6.226528
 20
192.9467940389044
 30
0.0
 11
6.440399
 21
193.1175710389045
 31
0.0
  0
LINE
  5
519
  8
LAYER_1
 10
6.440399
 20
193.1175710389045
 30
0.0
 11
6.491111
 21
193.4150270389044
 31
0.0
  0
LINE
  5
51A
  8
LAYER_1
 10
6.491111
 20
193.4150270389044
 30
0.0
 11
6.491111
 21
193.4150270389044
 31
0.0
  0
LINE
  5
51B
  8
LAYER_1
 10
6.568575
 20
194.4332310389044
 30
0.0
 11
6.591758
 21
194.7112470389045
 31
0.0
  0
LINE
  5
51C
  8
LAYER_1
 10
6.591758
 20
194.7112470389045
 30
0.0
 11
6.406613
 21
195.1387870389044
 31
0.0
  0
LINE
  5
51D
  8
LAYER_1
 10
6.406613
 20
195.1387870389044
 30
0.0
 11
6.092479
 21
195.4313130389045
 31
0.0
  0
LINE
  5
51E
  8
LAYER_1
 10
6.092479
 20
195.4313130389045
 30
0.0
 11
5.637556
 21
195.5956750389045
 31
0.0
  0
LINE
  5
51F
  8
LAYER_1
 10
5.637556
 20
195.5956750389045
 30
0.0
 11
4.530557
 21
195.5834630389045
 31
0.0
  0
LINE
  5
520
  8
LAYER_1
 10
4.530557
 20
195.5834630389045
 30
0.0
 11
3.536044
 21
195.1892600389045
 31
0.0
  0
LINE
  5
521
  8
LAYER_1
 10
3.536044
 20
195.1892600389045
 30
0.0
 11
3.221728
 21
194.8761330389044
 31
0.0
  0
LINE
  5
522
  8
LAYER_1
 10
3.221728
 20
194.8761330389044
 30
0.0
 11
3.104444
 21
194.5001750389044
 31
0.0
  0
LINE
  5
523
  8
LAYER_1
 10
3.104444
 20
194.5001750389044
 30
0.0
 11
3.608492
 21
194.3386650389045
 31
0.0
  0
LINE
  5
524
  8
LAYER_1
 10
3.608492
 20
194.3386650389045
 30
0.0
 11
4.737248
 21
194.2662620389044
 31
0.0
  0
LINE
  5
525
  8
LAYER_1
 10
4.737248
 20
194.2662620389044
 30
0.0
 11
5.915635
 21
194.2940800389044
 31
0.0
  0
LINE
  5
526
  8
LAYER_1
 10
5.915635
 20
194.2940800389044
 30
0.0
 11
6.568575
 21
194.4332310389044
 31
0.0
  0
LINE
  5
527
  8
LAYER_1
 10
6.568575
 20
194.4332310389044
 30
0.0
 11
6.568575
 21
194.4332310389044
 31
0.0
  0
LINE
  5
528
  8
LAYER_1
 10
46.847833
 20
192.6222600389044
 30
0.0
 11
46.846778
 21
194.9672490389044
 31
0.0
  0
LINE
  5
529
  8
LAYER_1
 10
46.846778
 20
194.9672490389044
 30
0.0
 11
46.329126
 21
194.1205820389044
 31
0.0
  0
LINE
  5
52A
  8
LAYER_1
 10
46.329126
 20
194.1205820389044
 30
0.0
 11
45.294415
 21
192.8505820389045
 31
0.0
  0
LINE
  5
52B
  8
LAYER_1
 10
45.294415
 20
192.8505820389045
 30
0.0
 11
45.105583
 21
192.7268690389045
 31
0.0
  0
LINE
  5
52C
  8
LAYER_1
 10
45.105583
 20
192.7268690389045
 30
0.0
 11
45.078086
 21
192.7996700389045
 31
0.0
  0
LINE
  5
52D
  8
LAYER_1
 10
45.078086
 20
192.7996700389045
 30
0.0
 11
45.513721
 21
193.5561380389045
 31
0.0
  0
LINE
  5
52E
  8
LAYER_1
 10
45.513721
 20
193.5561380389045
 30
0.0
 11
46.433655
 21
195.4399530389045
 31
0.0
  0
LINE
  5
52F
  8
LAYER_1
 10
46.433655
 20
195.4399530389045
 30
0.0
 11
46.451777
 21
196.0882300389044
 31
0.0
  0
LINE
  5
530
  8
LAYER_1
 10
46.451777
 20
196.0882300389044
 30
0.0
 11
45.815834
 21
196.3148890389045
 31
0.0
  0
LINE
  5
531
  8
LAYER_1
 10
45.815834
 20
196.3148890389045
 30
0.0
 11
45.248707
 21
196.4243050389045
 31
0.0
  0
LINE
  5
532
  8
LAYER_1
 10
45.248707
 20
196.4243050389045
 30
0.0
 11
45.931667
 21
196.4771850389045
 31
0.0
  0
LINE
  5
533
  8
LAYER_1
 10
45.931667
 20
196.4771850389045
 30
0.0
 11
46.698374
 21
196.6514690389045
 31
0.0
  0
LINE
  5
534
  8
LAYER_1
 10
46.698374
 20
196.6514690389045
 30
0.0
 11
46.848889
 21
197.3661380389044
 31
0.0
  0
LINE
  5
535
  8
LAYER_1
 10
46.848889
 20
197.3661380389044
 30
0.0
 11
46.735602
 21
198.0229300389045
 31
0.0
  0
LINE
  5
536
  8
LAYER_1
 10
46.735602
 20
198.0229300389045
 30
0.0
 11
46.355
 21
198.2316840389045
 31
0.0
  0
LINE
  5
537
  8
LAYER_1
 10
46.355
 20
198.2316840389045
 30
0.0
 11
46.263128
 21
198.2701300389045
 31
0.0
  0
LINE
  5
538
  8
LAYER_1
 10
46.263128
 20
198.2701300389045
 30
0.0
 11
46.378082
 21
198.3608530389045
 31
0.0
  0
LINE
  5
539
  8
LAYER_1
 10
46.378082
 20
198.3608530389045
 30
0.0
 11
47.12712
 21
198.6448970389045
 31
0.0
  0
LINE
  5
53A
  8
LAYER_1
 10
47.12712
 20
198.6448970389045
 30
0.0
 11
48.090659
 21
198.8539760389045
 31
0.0
  0
LINE
  5
53B
  8
LAYER_1
 10
48.090659
 20
198.8539760389045
 30
0.0
 11
48.629451
 21
198.8029100389045
 31
0.0
  0
LINE
  5
53C
  8
LAYER_1
 10
48.629451
 20
198.8029100389045
 30
0.0
 11
48.583025
 21
198.5824670389044
 31
0.0
  0
LINE
  5
53D
  8
LAYER_1
 10
48.583025
 20
198.5824670389044
 30
0.0
 11
48.139553
 21
198.3843200389045
 31
0.0
  0
LINE
  5
53E
  8
LAYER_1
 10
48.139553
 20
198.3843200389045
 30
0.0
 11
47.557212
 21
198.0649650389045
 31
0.0
  0
LINE
  5
53F
  8
LAYER_1
 10
47.557212
 20
198.0649650389045
 30
0.0
 11
47.413333
 21
197.3278450389045
 31
0.0
  0
LINE
  5
540
  8
LAYER_1
 10
47.413333
 20
197.3278450389045
 30
0.0
 11
47.517514
 21
196.6423180389045
 31
0.0
  0
LINE
  5
541
  8
LAYER_1
 10
47.517514
 20
196.6423180389045
 30
0.0
 11
47.977496
 21
196.6011710389045
 31
0.0
  0
LINE
  5
542
  8
LAYER_1
 10
47.977496
 20
196.6011710389045
 30
0.0
 11
48.422364
 21
196.6302460389045
 31
0.0
  0
LINE
  5
543
  8
LAYER_1
 10
48.422364
 20
196.6302460389045
 30
0.0
 11
48.699708
 21
196.4929760389045
 31
0.0
  0
LINE
  5
544
  8
LAYER_1
 10
48.699708
 20
196.4929760389045
 30
0.0
 11
48.599181
 21
196.3123690389045
 31
0.0
  0
LINE
  5
545
  8
LAYER_1
 10
48.599181
 20
196.3123690389045
 30
0.0
 11
48.135546
 21
196.2372490389045
 31
0.0
  0
LINE
  5
546
  8
LAYER_1
 10
48.135546
 20
196.2372490389045
 30
0.0
 11
47.592224
 21
196.0861220389045
 31
0.0
  0
LINE
  5
547
  8
LAYER_1
 10
47.592224
 20
196.0861220389045
 30
0.0
 11
47.407261
 21
195.7209300389044
 31
0.0
  0
LINE
  5
548
  8
LAYER_1
 10
47.407261
 20
195.7209300389044
 30
0.0
 11
47.582276
 21
195.2739570389045
 31
0.0
  0
LINE
  5
549
  8
LAYER_1
 10
47.582276
 20
195.2739570389045
 30
0.0
 11
48.118889
 21
194.8774890389045
 31
0.0
  0
LINE
  5
54A
  8
LAYER_1
 10
48.118889
 20
194.8774890389045
 30
0.0
 11
48.617188
 21
194.5243180389045
 31
0.0
  0
LINE
  5
54B
  8
LAYER_1
 10
48.617188
 20
194.5243180389045
 30
0.0
 11
48.824444
 21
194.1266330389045
 31
0.0
  0
LINE
  5
54C
  8
LAYER_1
 10
48.824444
 20
194.1266330389045
 30
0.0
 11
48.776824
 21
193.8031740389044
 31
0.0
  0
LINE
  5
54D
  8
LAYER_1
 10
48.776824
 20
193.8031740389044
 30
0.0
 11
48.625573
 21
193.7276240389045
 31
0.0
  0
LINE
  5
54E
  8
LAYER_1
 10
48.625573
 20
193.7276240389045
 30
0.0
 11
47.961849
 21
194.3322490389045
 31
0.0
  0
LINE
  5
54F
  8
LAYER_1
 10
47.961849
 20
194.3322490389045
 30
0.0
 11
47.656426
 21
194.6629220389044
 31
0.0
  0
LINE
  5
550
  8
LAYER_1
 10
47.656426
 20
194.6629220389044
 30
0.0
 11
47.498014
 21
194.6119240389045
 31
0.0
  0
LINE
  5
551
  8
LAYER_1
 10
47.498014
 20
194.6119240389045
 30
0.0
 11
47.422723
 21
192.7966830389045
 31
0.0
  0
LINE
  5
552
  8
LAYER_1
 10
47.422723
 20
192.7966830389045
 30
0.0
 11
47.333189
 21
191.2124830389045
 31
0.0
  0
LINE
  5
553
  8
LAYER_1
 10
47.333189
 20
191.2124830389045
 30
0.0
 11
47.131111
 21
190.4516930389044
 31
0.0
  0
LINE
  5
554
  8
LAYER_1
 10
47.131111
 20
190.4516930389044
 30
0.0
 11
47.01123
 21
190.5343490389045
 31
0.0
  0
LINE
  5
555
  8
LAYER_1
 10
47.01123
 20
190.5343490389045
 30
0.0
 11
46.922424
 21
190.9361780389044
 31
0.0
  0
LINE
  5
556
  8
LAYER_1
 10
46.922424
 20
190.9361780389044
 30
0.0
 11
46.847833
 21
192.6222600389044
 31
0.0
  0
LINE
  5
557
  8
LAYER_1
 10
46.847833
 20
192.6222600389044
 30
0.0
 11
46.847833
 21
192.6222600389044
 31
0.0
  0
LINE
  5
558
  8
LAYER_1
 10
16.700048
 20
191.5989030389044
 30
0.0
 11
17.042158
 21
192.2877890389045
 31
0.0
  0
LINE
  5
559
  8
LAYER_1
 10
17.042158
 20
192.2877890389045
 30
0.0
 11
17.256088
 21
193.0841320389044
 31
0.0
  0
LINE
  5
55A
  8
LAYER_1
 10
17.256088
 20
193.0841320389044
 30
0.0
 11
17.457784
 21
195.8976970389045
 31
0.0
  0
LINE
  5
55B
  8
LAYER_1
 10
17.457784
 20
195.8976970389045
 30
0.0
 11
17.609052
 21
198.2220680389044
 31
0.0
  0
LINE
  5
55C
  8
LAYER_1
 10
17.609052
 20
198.2220680389044
 30
0.0
 11
17.84958
 21
198.9892410389045
 31
0.0
  0
LINE
  5
55D
  8
LAYER_1
 10
17.84958
 20
198.9892410389045
 30
0.0
 11
18.046039
 21
198.1660570389045
 31
0.0
  0
LINE
  5
55E
  8
LAYER_1
 10
18.046039
 20
198.1660570389045
 30
0.0
 11
18.083467
 21
196.1083320389045
 31
0.0
  0
LINE
  5
55F
  8
LAYER_1
 10
18.083467
 20
196.1083320389045
 30
0.0
 11
17.963642
 21
194.2080870389044
 31
0.0
  0
LINE
  5
560
  8
LAYER_1
 10
17.963642
 20
194.2080870389044
 30
0.0
 11
17.676046
 21
192.7512500389045
 31
0.0
  0
LINE
  5
561
  8
LAYER_1
 10
17.676046
 20
192.7512500389045
 30
0.0
 11
17.198626
 21
191.6644870389044
 31
0.0
  0
LINE
  5
562
  8
LAYER_1
 10
17.198626
 20
191.6644870389044
 30
0.0
 11
16.509325
 21
190.8744670389044
 31
0.0
  0
LINE
  5
563
  8
LAYER_1
 10
16.509325
 20
190.8744670389044
 30
0.0
 11
16.343026
 21
190.7708010389044
 31
0.0
  0
LINE
  5
564
  8
LAYER_1
 10
16.343026
 20
190.7708010389044
 30
0.0
 11
16.318915
 21
190.8552220389045
 31
0.0
  0
LINE
  5
565
  8
LAYER_1
 10
16.318915
 20
190.8552220389045
 30
0.0
 11
16.700048
 21
191.5989030389044
 31
0.0
  0
LINE
  5
566
  8
LAYER_1
 10
16.700048
 20
191.5989030389044
 30
0.0
 11
16.700048
 21
191.5989030389044
 31
0.0
  0
LINE
  5
567
  8
LAYER_1
 10
22.86
 20
194.7608360389044
 30
0.0
 11
22.934148
 21
198.1136440389045
 31
0.0
  0
LINE
  5
568
  8
LAYER_1
 10
22.934148
 20
198.1136440389045
 30
0.0
 11
23.042635
 21
198.7683190389045
 31
0.0
  0
LINE
  5
569
  8
LAYER_1
 10
23.042635
 20
198.7683190389045
 30
0.0
 11
23.212778
 21
198.9069280389045
 31
0.0
  0
LINE
  5
56A
  8
LAYER_1
 10
23.212778
 20
198.9069280389045
 30
0.0
 11
23.375106
 21
198.6461370389044
 31
0.0
  0
LINE
  5
56B
  8
LAYER_1
 10
23.375106
 20
198.6461370389044
 30
0.0
 11
23.469519
 21
197.9528950389044
 31
0.0
  0
LINE
  5
56C
  8
LAYER_1
 10
23.469519
 20
197.9528950389044
 30
0.0
 11
23.479516
 21
194.8941190389045
 31
0.0
  0
LINE
  5
56D
  8
LAYER_1
 10
23.479516
 20
194.8941190389045
 30
0.0
 11
23.331883
 21
191.8219940389045
 31
0.0
  0
LINE
  5
56E
  8
LAYER_1
 10
23.331883
 20
191.8219940389045
 30
0.0
 11
23.124572
 21
190.7639390389045
 31
0.0
  0
LINE
  5
56F
  8
LAYER_1
 10
23.124572
 20
190.7639390389045
 30
0.0
 11
22.939855
 21
191.7376530389045
 31
0.0
  0
LINE
  5
570
  8
LAYER_1
 10
22.939855
 20
191.7376530389045
 30
0.0
 11
22.86
 21
194.7608360389044
 31
0.0
  0
LINE
  5
571
  8
LAYER_1
 10
22.86
 20
194.7608360389044
 30
0.0
 11
22.86
 21
194.7608360389044
 31
0.0
  0
LINE
  5
572
  8
LAYER_1
 10
48.590838
 20
190.8853550389045
 30
0.0
 11
49.700516
 21
192.1926040389045
 31
0.0
  0
LINE
  5
573
  8
LAYER_1
 10
49.700516
 20
192.1926040389045
 30
0.0
 11
50.028505
 21
192.8351730389045
 31
0.0
  0
LINE
  5
574
  8
LAYER_1
 10
50.028505
 20
192.8351730389045
 30
0.0
 11
50.241556
 21
193.6024970389045
 31
0.0
  0
LINE
  5
575
  8
LAYER_1
 10
50.241556
 20
193.6024970389045
 30
0.0
 11
50.463337
 21
196.2606660389045
 31
0.0
  0
LINE
  5
576
  8
LAYER_1
 10
50.463337
 20
196.2606660389045
 30
0.0
 11
50.641757
 21
198.6702630389044
 31
0.0
  0
LINE
  5
577
  8
LAYER_1
 10
50.641757
 20
198.6702630389044
 30
0.0
 11
50.782263
 21
199.0915650389045
 31
0.0
  0
LINE
  5
578
  8
LAYER_1
 10
50.782263
 20
199.0915650389045
 30
0.0
 11
50.98485
 21
199.1447460389045
 31
0.0
  0
LINE
  5
579
  8
LAYER_1
 10
50.98485
 20
199.1447460389045
 30
0.0
 11
51.229769
 21
198.8852290389044
 31
0.0
  0
LINE
  5
57A
  8
LAYER_1
 10
51.229769
 20
198.8852290389044
 30
0.0
 11
51.20388
 21
198.4337320389045
 31
0.0
  0
LINE
  5
57B
  8
LAYER_1
 10
51.20388
 20
198.4337320389045
 30
0.0
 11
51.136076
 21
197.6557320389045
 31
0.0
  0
LINE
  5
57C
  8
LAYER_1
 10
51.136076
 20
197.6557320389045
 30
0.0
 11
51.222156
 21
196.5700530389045
 31
0.0
  0
LINE
  5
57D
  8
LAYER_1
 10
51.222156
 20
196.5700530389045
 30
0.0
 11
51.417821
 21
195.2652700389045
 31
0.0
  0
LINE
  5
57E
  8
LAYER_1
 10
51.417821
 20
195.2652700389045
 30
0.0
 11
52.216087
 21
196.2433440389044
 31
0.0
  0
LINE
  5
57F
  8
LAYER_1
 10
52.216087
 20
196.2433440389044
 30
0.0
 11
52.848135
 21
196.8658340389044
 31
0.0
  0
LINE
  5
580
  8
LAYER_1
 10
52.848135
 20
196.8658340389044
 30
0.0
 11
53.246774
 21
196.9889930389045
 31
0.0
  0
LINE
  5
581
  8
LAYER_1
 10
53.246774
 20
196.9889930389045
 30
0.0
 11
53.101138
 21
196.5409450389045
 31
0.0
  0
LINE
  5
582
  8
LAYER_1
 10
53.101138
 20
196.5409450389045
 30
0.0
 11
52.424607
 21
195.7901070389044
 31
0.0
  0
LINE
  5
583
  8
LAYER_1
 10
52.424607
 20
195.7901070389044
 30
0.0
 11
51.370013
 21
194.8236440389045
 31
0.0
  0
LINE
  5
584
  8
LAYER_1
 10
51.370013
 20
194.8236440389045
 30
0.0
 11
51.823262
 21
193.6908670389045
 31
0.0
  0
LINE
  5
585
  8
LAYER_1
 10
51.823262
 20
193.6908670389045
 30
0.0
 11
52.391044
 21
192.6970060389045
 31
0.0
  0
LINE
  5
586
  8
LAYER_1
 10
52.391044
 20
192.6970060389045
 30
0.0
 11
53.119666
 21
191.8982180389045
 31
0.0
  0
LINE
  5
587
  8
LAYER_1
 10
53.119666
 20
191.8982180389045
 30
0.0
 11
53.756194
 21
191.3109510389045
 31
0.0
  0
LINE
  5
588
  8
LAYER_1
 10
53.756194
 20
191.3109510389045
 30
0.0
 11
53.680815
 21
191.1845790389045
 31
0.0
  0
LINE
  5
589
  8
LAYER_1
 10
53.680815
 20
191.1845790389045
 30
0.0
 11
53.369532
 21
191.0831980389044
 31
0.0
  0
LINE
  5
58A
  8
LAYER_1
 10
53.369532
 20
191.0831980389044
 30
0.0
 11
52.813971
 21
191.1738710389045
 31
0.0
  0
LINE
  5
58B
  8
LAYER_1
 10
52.813971
 20
191.1738710389045
 30
0.0
 11
52.257309
 21
191.6558540389044
 31
0.0
  0
LINE
  5
58C
  8
LAYER_1
 10
52.257309
 20
191.6558540389044
 30
0.0
 11
51.781074
 21
192.4299970389045
 31
0.0
  0
LINE
  5
58D
  8
LAYER_1
 10
51.781074
 20
192.4299970389045
 30
0.0
 11
51.466798
 21
193.3971480389045
 31
0.0
  0
LINE
  5
58E
  8
LAYER_1
 10
51.466798
 20
193.3971480389045
 30
0.0
 11
51.26914
 21
194.1107190389045
 31
0.0
  0
LINE
  5
58F
  8
LAYER_1
 10
51.26914
 20
194.1107190389045
 30
0.0
 11
51.064406
 21
194.3680370389045
 31
0.0
  0
LINE
  5
590
  8
LAYER_1
 10
51.064406
 20
194.3680370389045
 30
0.0
 11
50.87044
 21
194.1666030389044
 31
0.0
  0
LINE
  5
591
  8
LAYER_1
 10
50.87044
 20
194.1666030389044
 30
0.0
 11
50.705086
 21
193.5039150389044
 31
0.0
  0
LINE
  5
592
  8
LAYER_1
 10
50.705086
 20
193.5039150389044
 30
0.0
 11
50.365318
 21
192.6210800389044
 31
0.0
  0
LINE
  5
593
  8
LAYER_1
 10
50.365318
 20
192.6210800389044
 30
0.0
 11
49.731438
 21
191.6665680389044
 31
0.0
  0
LINE
  5
594
  8
LAYER_1
 10
49.731438
 20
191.6665680389044
 30
0.0
 11
49.012185
 21
190.9050980389044
 31
0.0
  0
LINE
  5
595
  8
LAYER_1
 10
49.012185
 20
190.9050980389044
 30
0.0
 11
48.416303
 21
190.6013870389045
 31
0.0
  0
LINE
  5
596
  8
LAYER_1
 10
48.416303
 20
190.6013870389045
 30
0.0
 11
48.344889
 21
190.6883420389044
 31
0.0
  0
LINE
  5
597
  8
LAYER_1
 10
48.344889
 20
190.6883420389044
 30
0.0
 11
48.590838
 21
190.8853550389045
 31
0.0
  0
LINE
  5
598
  8
LAYER_1
 10
48.590838
 20
190.8853550389045
 30
0.0
 11
48.590838
 21
190.8853550389045
 31
0.0
  0
LINE
  5
599
  8
LAYER_1
 10
75.549667
 20
191.1448300389044
 30
0.0
 11
76.299419
 21
191.7038880389044
 31
0.0
  0
LINE
  5
59A
  8
LAYER_1
 10
76.299419
 20
191.7038880389044
 30
0.0
 11
76.848027
 21
192.3646360389045
 31
0.0
  0
LINE
  5
59B
  8
LAYER_1
 10
76.848027
 20
192.3646360389045
 30
0.0
 11
77.22695899999999
 21
193.1770590389045
 31
0.0
  0
LINE
  5
59C
  8
LAYER_1
 10
77.22695899999999
 20
193.1770590389045
 30
0.0
 11
77.467686
 21
194.1911380389045
 31
0.0
  0
LINE
  5
59D
  8
LAYER_1
 10
77.467686
 20
194.1911380389045
 30
0.0
 11
77.706524
 21
195.1059130389045
 31
0.0
  0
LINE
  5
59E
  8
LAYER_1
 10
77.706524
 20
195.1059130389045
 30
0.0
 11
77.9572
 21
195.3928230389045
 31
0.0
  0
LINE
  5
59F
  8
LAYER_1
 10
77.9572
 20
195.3928230389045
 30
0.0
 11
78.11596
 21
195.0627940389045
 31
0.0
  0
LINE
  5
5A0
  8
LAYER_1
 10
78.11596
 20
195.0627940389045
 30
0.0
 11
78.07905
 21
194.1267520389044
 31
0.0
  0
LINE
  5
5A1
  8
LAYER_1
 10
78.07905
 20
194.1267520389044
 30
0.0
 11
77.85917499999999
 21
193.0523290389045
 31
0.0
  0
LINE
  5
5A2
  8
LAYER_1
 10
77.85917499999999
 20
193.0523290389045
 30
0.0
 11
77.501554
 21
192.2551610389045
 31
0.0
  0
LINE
  5
5A3
  8
LAYER_1
 10
77.501554
 20
192.2551610389045
 30
0.0
 11
76.94808999999999
 21
191.6455450389045
 31
0.0
  0
LINE
  5
5A4
  8
LAYER_1
 10
76.94808999999999
 20
191.6455450389045
 30
0.0
 11
76.140688
 21
191.1337790389045
 31
0.0
  0
LINE
  5
5A5
  8
LAYER_1
 10
76.140688
 20
191.1337790389045
 30
0.0
 11
74.899903
 21
190.6104540389045
 31
0.0
  0
LINE
  5
5A6
  8
LAYER_1
 10
74.899903
 20
190.6104540389045
 30
0.0
 11
74.96141299999999
 21
190.7459350389045
 31
0.0
  0
LINE
  5
5A7
  8
LAYER_1
 10
74.96141299999999
 20
190.7459350389045
 30
0.0
 11
75.549667
 21
191.1448300389044
 31
0.0
  0
LINE
  5
5A8
  8
LAYER_1
 10
75.549667
 20
191.1448300389044
 30
0.0
 11
75.549667
 21
191.1448300389044
 31
0.0
  0
LINE
  5
5A9
  8
LAYER_1
 10
104.986667
 20
191.7307880389045
 30
0.0
 11
104.860915
 21
192.6939590389044
 31
0.0
  0
LINE
  5
5AA
  8
LAYER_1
 10
104.860915
 20
192.6939590389044
 30
0.0
 11
104.351667
 21
193.1240100389045
 31
0.0
  0
LINE
  5
5AB
  8
LAYER_1
 10
104.351667
 20
193.1240100389045
 30
0.0
 11
103.905917
 21
193.3469520389045
 31
0.0
  0
LINE
  5
5AC
  8
LAYER_1
 10
103.905917
 20
193.3469520389045
 30
0.0
 11
104.4725
 21
193.3971380389044
 31
0.0
  0
LINE
  5
5AD
  8
LAYER_1
 10
104.4725
 20
193.3971380389044
 30
0.0
 11
104.886389
 21
193.4607880389044
 31
0.0
  0
LINE
  5
5AE
  8
LAYER_1
 10
104.886389
 20
193.4607880389044
 30
0.0
 11
105.19821
 21
193.6870070389045
 31
0.0
  0
LINE
  5
5AF
  8
LAYER_1
 10
105.19821
 20
193.6870070389045
 30
0.0
 11
105.813056
 21
194.9778360389045
 31
0.0
  0
LINE
  5
5B0
  8
LAYER_1
 10
105.813056
 20
194.9778360389045
 30
0.0
 11
106.397778
 21
196.8593170389045
 31
0.0
  0
LINE
  5
5B1
  8
LAYER_1
 10
106.397778
 20
196.8593170389045
 30
0.0
 11
106.448642
 21
197.0335160389045
 31
0.0
  0
LINE
  5
5B2
  8
LAYER_1
 10
106.448642
 20
197.0335160389045
 30
0.0
 11
106.570932
 21
197.0048360389044
 31
0.0
  0
LINE
  5
5B3
  8
LAYER_1
 10
106.570932
 20
197.0048360389044
 30
0.0
 11
106.510239
 21
196.2801150389045
 31
0.0
  0
LINE
  5
5B4
  8
LAYER_1
 10
106.510239
 20
196.2801150389045
 30
0.0
 11
106.121166
 21
194.7808550389045
 31
0.0
  0
LINE
  5
5B5
  8
LAYER_1
 10
106.121166
 20
194.7808550389045
 30
0.0
 11
105.695106
 21
192.9736130389045
 31
0.0
  0
LINE
  5
5B6
  8
LAYER_1
 10
105.695106
 20
192.9736130389045
 30
0.0
 11
105.669125
 21
191.6614170389045
 31
0.0
  0
LINE
  5
5B7
  8
LAYER_1
 10
105.669125
 20
191.6614170389045
 30
0.0
 11
105.717538
 21
190.8118130389045
 31
0.0
  0
LINE
  5
5B8
  8
LAYER_1
 10
105.717538
 20
190.8118130389045
 30
0.0
 11
105.613836
 21
190.6415390389045
 31
0.0
  0
LINE
  5
5B9
  8
LAYER_1
 10
105.613836
 20
190.6415390389045
 30
0.0
 11
105.413336
 21
190.5928050389045
 31
0.0
  0
LINE
  5
5BA
  8
LAYER_1
 10
105.413336
 20
190.5928050389045
 30
0.0
 11
105.215802
 21
190.6542690389045
 31
0.0
  0
LINE
  5
5BB
  8
LAYER_1
 10
105.215802
 20
190.6542690389045
 30
0.0
 11
105.083676
 21
190.8515410389045
 31
0.0
  0
LINE
  5
5BC
  8
LAYER_1
 10
105.083676
 20
190.8515410389045
 30
0.0
 11
104.986667
 21
191.7307880389045
 31
0.0
  0
LINE
  5
5BD
  8
LAYER_1
 10
104.986667
 20
191.7307880389045
 30
0.0
 11
104.986667
 21
191.7307880389045
 31
0.0
  0
LINE
  5
5BE
  8
LAYER_1
 10
109.94217
 20
191.0251130389044
 30
0.0
 11
109.577827
 21
191.3813150389045
 31
0.0
  0
LINE
  5
5BF
  8
LAYER_1
 10
109.577827
 20
191.3813150389045
 30
0.0
 11
110.153837
 21
191.4394710389045
 31
0.0
  0
LINE
  5
5C0
  8
LAYER_1
 10
110.153837
 20
191.4394710389045
 30
0.0
 11
110.913333
 21
191.4394710389045
 31
0.0
  0
LINE
  5
5C1
  8
LAYER_1
 10
110.913333
 20
191.4394710389045
 30
0.0
 11
110.913333
 21
194.8261380389045
 31
0.0
  0
LINE
  5
5C2
  8
LAYER_1
 10
110.913333
 20
194.8261380389045
 30
0.0
 11
110.913333
 21
198.2128050389045
 31
0.0
  0
LINE
  5
5C3
  8
LAYER_1
 10
110.913333
 20
198.2128050389045
 30
0.0
 11
108.867222
 21
198.2631010389044
 31
0.0
  0
LINE
  5
5C4
  8
LAYER_1
 10
108.867222
 20
198.2631010389044
 30
0.0
 11
107.792267
 21
198.2949470389044
 31
0.0
  0
LINE
  5
5C5
  8
LAYER_1
 10
107.792267
 20
198.2949470389044
 30
0.0
 11
107.522168
 21
198.3304880389045
 31
0.0
  0
LINE
  5
5C6
  8
LAYER_1
 10
107.522168
 20
198.3304880389045
 30
0.0
 11
109.643333
 21
198.4823760389045
 31
0.0
  0
LINE
  5
5C7
  8
LAYER_1
 10
109.643333
 20
198.4823760389045
 30
0.0
 11
111.715285
 21
198.5373050389045
 31
0.0
  0
LINE
  5
5C8
  8
LAYER_1
 10
111.715285
 20
198.5373050389045
 30
0.0
 11
112.733667
 21
198.4320800389045
 31
0.0
  0
LINE
  5
5C9
  8
LAYER_1
 10
112.733667
 20
198.4320800389045
 30
0.0
 11
112.699183
 21
198.2772170389044
 31
0.0
  0
LINE
  5
5CA
  8
LAYER_1
 10
112.699183
 20
198.2772170389044
 30
0.0
 11
112.239778
 21
198.2128050389045
 31
0.0
  0
LINE
  5
5CB
  8
LAYER_1
 10
112.239778
 20
198.2128050389045
 30
0.0
 11
111.477778
 21
198.2128050389045
 31
0.0
  0
LINE
  5
5CC
  8
LAYER_1
 10
111.477778
 20
198.2128050389045
 30
0.0
 11
111.477778
 21
194.5741100389045
 31
0.0
  0
LINE
  5
5CD
  8
LAYER_1
 10
111.477778
 20
194.5741100389045
 30
0.0
 11
111.395244
 21
191.5764670389044
 31
0.0
  0
LINE
  5
5CE
  8
LAYER_1
 10
111.395244
 20
191.5764670389044
 30
0.0
 11
111.259373
 21
190.9901680389044
 31
0.0
  0
LINE
  5
5CF
  8
LAYER_1
 10
111.259373
 20
190.9901680389044
 30
0.0
 11
111.031361
 21
190.7641100389045
 31
0.0
  0
LINE
  5
5D0
  8
LAYER_1
 10
111.031361
 20
190.7641100389045
 30
0.0
 11
110.528843
 21
190.6303210389044
 31
0.0
  0
LINE
  5
5D1
  8
LAYER_1
 10
110.528843
 20
190.6303210389044
 30
0.0
 11
109.94217
 21
191.0251130389044
 31
0.0
  0
LINE
  5
5D2
  8
LAYER_1
 10
109.94217
 20
191.0251130389044
 30
0.0
 11
109.94217
 21
191.0251130389044
 31
0.0
  0
LINE
  5
5D3
  8
LAYER_1
 10
121.355556
 20
191.4159530389045
 30
0.0
 11
121.320942
 21
191.9748860389045
 31
0.0
  0
LINE
  5
5D4
  8
LAYER_1
 10
121.320942
 20
191.9748860389045
 30
0.0
 11
121.147387
 21
192.2256260389044
 31
0.0
  0
LINE
  5
5D5
  8
LAYER_1
 10
121.147387
 20
192.2256260389044
 30
0.0
 11
120.730321
 21
192.2097530389044
 31
0.0
  0
LINE
  5
5D6
  8
LAYER_1
 10
120.730321
 20
192.2097530389044
 30
0.0
 11
119.965176
 21
191.9688540389045
 31
0.0
  0
LINE
  5
5D7
  8
LAYER_1
 10
119.965176
 20
191.9688540389045
 30
0.0
 11
119.197033
 21
191.7962280389045
 31
0.0
  0
LINE
  5
5D8
  8
LAYER_1
 10
119.197033
 20
191.7962280389045
 30
0.0
 11
118.752922
 21
191.9536610389044
 31
0.0
  0
LINE
  5
5D9
  8
LAYER_1
 10
118.752922
 20
191.9536610389044
 30
0.0
 11
118.696985
 21
192.1022670389044
 31
0.0
  0
LINE
  5
5DA
  8
LAYER_1
 10
118.696985
 20
192.1022670389044
 30
0.0
 11
118.860594
 21
192.2301940389044
 31
0.0
  0
LINE
  5
5DB
  8
LAYER_1
 10
118.860594
 20
192.2301940389044
 30
0.0
 11
119.903192
 21
192.4484150389044
 31
0.0
  0
LINE
  5
5DC
  8
LAYER_1
 10
119.903192
 20
192.4484150389044
 30
0.0
 11
121.355556
 21
192.6410780389045
 31
0.0
  0
LINE
  5
5DD
  8
LAYER_1
 10
121.355556
 20
192.6410780389045
 30
0.0
 11
121.355556
 21
194.4391640389044
 31
0.0
  0
LINE
  5
5DE
  8
LAYER_1
 10
121.355556
 20
194.4391640389044
 30
0.0
 11
121.355556
 21
196.2372490389045
 31
0.0
  0
LINE
  5
5DF
  8
LAYER_1
 10
121.355556
 20
196.2372490389045
 30
0.0
 11
120.015
 21
196.2881190389045
 31
0.0
  0
LINE
  5
5E0
  8
LAYER_1
 10
120.015
 20
196.2881190389045
 30
0.0
 11
118.674444
 21
196.3389890389045
 31
0.0
  0
LINE
  5
5E1
  8
LAYER_1
 10
118.674444
 20
196.3389890389045
 30
0.0
 11
120.015
 21
196.4446930389045
 31
0.0
  0
LINE
  5
5E2
  8
LAYER_1
 10
120.015
 20
196.4446930389045
 30
0.0
 11
121.355556
 21
196.5503980389045
 31
0.0
  0
LINE
  5
5E3
  8
LAYER_1
 10
121.355556
 20
196.5503980389045
 30
0.0
 11
121.355556
 21
197.8284530389045
 31
0.0
  0
LINE
  5
5E4
  8
LAYER_1
 10
121.355556
 20
197.8284530389045
 30
0.0
 11
121.439095
 21
198.7760140389045
 31
0.0
  0
LINE
  5
5E5
  8
LAYER_1
 10
121.439095
 20
198.7760140389045
 30
0.0
 11
121.548756
 21
198.9685540389044
 31
0.0
  0
LINE
  5
5E6
  8
LAYER_1
 10
121.548756
 20
198.9685540389044
 30
0.0
 11
121.708333
 21
198.9889160389045
 31
0.0
  0
LINE
  5
5E7
  8
LAYER_1
 10
121.708333
 20
198.9889160389045
 30
0.0
 11
121.873288
 21
198.7216760389045
 31
0.0
  0
LINE
  5
5E8
  8
LAYER_1
 10
121.873288
 20
198.7216760389045
 30
0.0
 11
121.982351
 21
197.9944650389045
 31
0.0
  0
LINE
  5
5E9
  8
LAYER_1
 10
121.982351
 20
197.9944650389045
 30
0.0
 11
122.061111
 21
194.8261380389045
 31
0.0
  0
LINE
  5
5EA
  8
LAYER_1
 10
122.061111
 20
194.8261380389045
 30
0.0
 11
121.982351
 21
191.6578110389044
 31
0.0
  0
LINE
  5
5EB
  8
LAYER_1
 10
121.982351
 20
191.6578110389044
 30
0.0
 11
121.873288
 21
190.9306000389045
 31
0.0
  0
LINE
  5
5EC
  8
LAYER_1
 10
121.873288
 20
190.9306000389045
 30
0.0
 11
121.708333
 21
190.6633600389044
 31
0.0
  0
LINE
  5
5ED
  8
LAYER_1
 10
121.708333
 20
190.6633600389044
 30
0.0
 11
121.44518
 21
190.7967160389045
 31
0.0
  0
LINE
  5
5EE
  8
LAYER_1
 10
121.44518
 20
190.7967160389045
 30
0.0
 11
121.355556
 21
191.4159530389045
 31
0.0
  0
LINE
  5
5EF
  8
LAYER_1
 10
121.355556
 20
191.4159530389045
 30
0.0
 11
121.355556
 21
191.4159530389045
 31
0.0
  0
LINE
  5
5F0
  8
LAYER_1
 10
31.71013
 20
191.7252340389045
 30
0.0
 11
32.857036
 21
192.6593890389045
 31
0.0
  0
LINE
  5
5F1
  8
LAYER_1
 10
32.857036
 20
192.6593890389045
 30
0.0
 11
33.593631
 21
193.7713450389045
 31
0.0
  0
LINE
  5
5F2
  8
LAYER_1
 10
33.593631
 20
193.7713450389045
 30
0.0
 11
34.03415
 21
194.8411310389045
 31
0.0
  0
LINE
  5
5F3
  8
LAYER_1
 10
34.03415
 20
194.8411310389045
 30
0.0
 11
34.032249
 21
195.4133570389045
 31
0.0
  0
LINE
  5
5F4
  8
LAYER_1
 10
34.032249
 20
195.4133570389045
 30
0.0
 11
33.473604
 21
195.6537610389045
 31
0.0
  0
LINE
  5
5F5
  8
LAYER_1
 10
33.473604
 20
195.6537610389045
 30
0.0
 11
32.243889
 21
195.7280810389045
 31
0.0
  0
LINE
  5
5F6
  8
LAYER_1
 10
32.243889
 20
195.7280810389045
 30
0.0
 11
30.338889
 21
195.7833570389045
 31
0.0
  0
LINE
  5
5F7
  8
LAYER_1
 10
30.338889
 20
195.7833570389045
 30
0.0
 11
32.243889
 21
195.8820860389045
 31
0.0
  0
LINE
  5
5F8
  8
LAYER_1
 10
32.243889
 20
195.8820860389045
 30
0.0
 11
34.148889
 21
195.9808160389045
 31
0.0
  0
LINE
  5
5F9
  8
LAYER_1
 10
34.148889
 20
195.9808160389045
 30
0.0
 11
34.148889
 21
197.0968100389044
 31
0.0
  0
LINE
  5
5FA
  8
LAYER_1
 10
34.148889
 20
197.0968100389044
 30
0.0
 11
34.148889
 21
198.2128050389045
 31
0.0
  0
LINE
  5
5FB
  8
LAYER_1
 10
34.148889
 20
198.2128050389045
 30
0.0
 11
32.667222
 21
198.2651170389045
 31
0.0
  0
LINE
  5
5FC
  8
LAYER_1
 10
32.667222
 20
198.2651170389045
 30
0.0
 11
32.348013
 21
198.2983030389045
 31
0.0
  0
LINE
  5
5FD
  8
LAYER_1
 10
32.348013
 20
198.2983030389045
 30
0.0
 11
32.574177
 21
198.3499920389045
 31
0.0
  0
LINE
  5
5FE
  8
LAYER_1
 10
32.574177
 20
198.3499920389045
 30
0.0
 11
34.431111
 21
198.4805960389045
 31
0.0
  0
LINE
  5
5FF
  8
LAYER_1
 10
34.431111
 20
198.4805960389045
 30
0.0
 11
36.802042
 21
198.5325350389045
 31
0.0
  0
LINE
  5
600
  8
LAYER_1
 10
36.802042
 20
198.5325350389045
 30
0.0
 11
37.944778
 21
198.4282840389045
 31
0.0
  0
LINE
  5
601
  8
LAYER_1
 10
37.944778
 20
198.4282840389045
 30
0.0
 11
37.671254
 21
198.2761020389044
 31
0.0
  0
LINE
  5
602
  8
LAYER_1
 10
37.671254
 20
198.2761020389044
 30
0.0
 11
36.637138
 21
198.2128050389045
 31
0.0
  0
LINE
  5
603
  8
LAYER_1
 10
36.637138
 20
198.2128050389045
 30
0.0
 11
35.297365
 21
198.1061970389044
 31
0.0
  0
LINE
  5
604
  8
LAYER_1
 10
35.297365
 20
198.1061970389044
 30
0.0
 11
35.031348
 21
197.9142770389045
 31
0.0
  0
LINE
  5
605
  8
LAYER_1
 10
35.031348
 20
197.9142770389045
 30
0.0
 11
34.891215
 21
197.5778050389044
 31
0.0
  0
LINE
  5
606
  8
LAYER_1
 10
34.891215
 20
197.5778050389044
 30
0.0
 11
34.691462
 21
196.6429290389044
 31
0.0
  0
LINE
  5
607
  8
LAYER_1
 10
34.691462
 20
196.6429290389044
 30
0.0
 11
34.827856
 21
196.1507480389045
 31
0.0
  0
LINE
  5
608
  8
LAYER_1
 10
34.827856
 20
196.1507480389045
 30
0.0
 11
35.440833
 21
195.9763430389045
 31
0.0
  0
LINE
  5
609
  8
LAYER_1
 10
35.440833
 20
195.9763430389045
 30
0.0
 11
36.670827
 21
195.9947930389045
 31
0.0
  0
LINE
  5
60A
  8
LAYER_1
 10
36.670827
 20
195.9947930389045
 30
0.0
 11
38.113881
 21
195.9980860389045
 31
0.0
  0
LINE
  5
60B
  8
LAYER_1
 10
38.113881
 20
195.9980860389045
 30
0.0
 11
38.834531
 21
195.8790140389044
 31
0.0
  0
LINE
  5
60C
  8
LAYER_1
 10
38.834531
 20
195.8790140389044
 30
0.0
 11
38.418494
 21
195.7333790389045
 31
0.0
  0
LINE
  5
60D
  8
LAYER_1
 10
38.418494
 20
195.7333790389045
 30
0.0
 11
37.128664
 21
195.6728050389044
 31
0.0
  0
LINE
  5
60E
  8
LAYER_1
 10
37.128664
 20
195.6728050389044
 30
0.0
 11
35.216586
 21
195.6728050389044
 31
0.0
  0
LINE
  5
60F
  8
LAYER_1
 10
35.216586
 20
195.6728050389044
 30
0.0
 11
35.407058
 21
194.9139080389045
 31
0.0
  0
LINE
  5
610
  8
LAYER_1
 10
35.407058
 20
194.9139080389045
 30
0.0
 11
35.745615
 21
194.0329230389044
 31
0.0
  0
LINE
  5
611
  8
LAYER_1
 10
35.745615
 20
194.0329230389044
 30
0.0
 11
36.281626
 21
193.2496930389044
 31
0.0
  0
LINE
  5
612
  8
LAYER_1
 10
36.281626
 20
193.2496930389044
 30
0.0
 11
36.987824
 21
192.5957620389044
 31
0.0
  0
LINE
  5
613
  8
LAYER_1
 10
36.987824
 20
192.5957620389044
 30
0.0
 11
37.836943
 21
192.1026760389045
 31
0.0
  0
LINE
  5
614
  8
LAYER_1
 10
37.836943
 20
192.1026760389045
 30
0.0
 11
38.691793
 21
191.6472600389045
 31
0.0
  0
LINE
  5
615
  8
LAYER_1
 10
38.691793
 20
191.6472600389045
 30
0.0
 11
38.661477
 21
191.5144760389045
 31
0.0
  0
LINE
  5
616
  8
LAYER_1
 10
38.661477
 20
191.5144760389045
 30
0.0
 11
38.37355
 21
191.3810310389044
 31
0.0
  0
LINE
  5
617
  8
LAYER_1
 10
38.37355
 20
191.3810310389044
 30
0.0
 11
37.934324
 21
191.3080470389045
 31
0.0
  0
LINE
  5
618
  8
LAYER_1
 10
37.934324
 20
191.3080470389045
 30
0.0
 11
37.480158
 21
191.3970600389044
 31
0.0
  0
LINE
  5
619
  8
LAYER_1
 10
37.480158
 20
191.3970600389044
 30
0.0
 11
36.577051
 21
192.0107840389045
 31
0.0
  0
LINE
  5
61A
  8
LAYER_1
 10
36.577051
 20
192.0107840389045
 30
0.0
 11
35.764311
 21
193.1216110389045
 31
0.0
  0
LINE
  5
61B
  8
LAYER_1
 10
35.764311
 20
193.1216110389045
 30
0.0
 11
35.142023
 21
194.6289480389044
 31
0.0
  0
LINE
  5
61C
  8
LAYER_1
 10
35.142023
 20
194.6289480389044
 30
0.0
 11
34.79855
 21
195.7922110389044
 31
0.0
  0
LINE
  5
61D
  8
LAYER_1
 10
34.79855
 20
195.7922110389044
 30
0.0
 11
34.603603
 21
194.7530380389045
 31
0.0
  0
LINE
  5
61E
  8
LAYER_1
 10
34.603603
 20
194.7530380389045
 30
0.0
 11
34.272755
 21
193.7893020389045
 31
0.0
  0
LINE
  5
61F
  8
LAYER_1
 10
34.272755
 20
193.7893020389045
 30
0.0
 11
33.675262
 21
192.8759550389044
 31
0.0
  0
LINE
  5
620
  8
LAYER_1
 10
33.675262
 20
192.8759550389044
 30
0.0
 11
32.857753
 21
192.0696640389045
 31
0.0
  0
LINE
  5
621
  8
LAYER_1
 10
32.857753
 20
192.0696640389045
 30
0.0
 11
31.866854
 21
191.4270960389044
 31
0.0
  0
LINE
  5
622
  8
LAYER_1
 10
31.866854
 20
191.4270960389044
 30
0.0
 11
30.614773
 21
190.9064200389045
 31
0.0
  0
LINE
  5
623
  8
LAYER_1
 10
30.614773
 20
190.9064200389045
 30
0.0
 11
31.71013
 21
191.7252340389045
 31
0.0
  0
LINE
  5
624
  8
LAYER_1
 10
31.71013
 20
191.7252340389045
 30
0.0
 11
31.71013
 21
191.7252340389045
 31
0.0
  0
LINE
  5
625
  8
LAYER_1
 10
60.395556
 20
190.9931200389044
 30
0.0
 11
61.416658
 21
191.7422890389045
 31
0.0
  0
LINE
  5
626
  8
LAYER_1
 10
61.416658
 20
191.7422890389045
 30
0.0
 11
62.352218
 21
192.5416760389045
 31
0.0
  0
LINE
  5
627
  8
LAYER_1
 10
62.352218
 20
192.5416760389045
 30
0.0
 11
62.99643
 21
193.6289700389044
 31
0.0
  0
LINE
  5
628
  8
LAYER_1
 10
62.99643
 20
193.6289700389044
 30
0.0
 11
63.370042
 21
195.0554140389044
 31
0.0
  0
LINE
  5
629
  8
LAYER_1
 10
63.370042
 20
195.0554140389044
 30
0.0
 11
63.493802
 21
196.8722490389044
 31
0.0
  0
LINE
  5
62A
  8
LAYER_1
 10
63.493802
 20
196.8722490389044
 30
0.0
 11
63.618028
 21
199.0594710389045
 31
0.0
  0
LINE
  5
62B
  8
LAYER_1
 10
63.618028
 20
199.0594710389045
 30
0.0
 11
64.136405
 21
198.9058430389045
 31
0.0
  0
LINE
  5
62C
  8
LAYER_1
 10
64.136405
 20
198.9058430389045
 30
0.0
 11
64.297826
 21
198.6247830389044
 31
0.0
  0
LINE
  5
62D
  8
LAYER_1
 10
64.297826
 20
198.6247830389044
 30
0.0
 11
64.355277
 21
198.0138780389044
 31
0.0
  0
LINE
  5
62E
  8
LAYER_1
 10
64.355277
 20
198.0138780389044
 30
0.0
 11
64.21325400000001
 21
196.1923770389045
 31
0.0
  0
LINE
  5
62F
  8
LAYER_1
 10
64.21325400000001
 20
196.1923770389045
 30
0.0
 11
63.820308
 21
194.2210270389045
 31
0.0
  0
LINE
  5
630
  8
LAYER_1
 10
63.820308
 20
194.2210270389045
 30
0.0
 11
63.286414
 21
192.8795190389045
 31
0.0
  0
LINE
  5
631
  8
LAYER_1
 10
63.286414
 20
192.8795190389045
 30
0.0
 11
62.505705
 21
192.0638940389044
 31
0.0
  0
LINE
  5
632
  8
LAYER_1
 10
62.505705
 20
192.0638940389044
 30
0.0
 11
61.548529
 21
191.3372380389045
 31
0.0
  0
LINE
  5
633
  8
LAYER_1
 10
61.548529
 20
191.3372380389045
 30
0.0
 11
60.737581
 21
190.9101240389045
 31
0.0
  0
LINE
  5
634
  8
LAYER_1
 10
60.737581
 20
190.9101240389045
 30
0.0
 11
60.487785
 21
190.8746970389045
 31
0.0
  0
LINE
  5
635
  8
LAYER_1
 10
60.487785
 20
190.8746970389045
 30
0.0
 11
60.395556
 21
190.9931200389044
 31
0.0
  0
LINE
  5
636
  8
LAYER_1
 10
60.395556
 20
190.9931200389044
 30
0.0
 11
60.395556
 21
190.9931200389044
 31
0.0
  0
LINE
  5
637
  8
LAYER_1
 10
66.357438
 20
191.6318230389045
 30
0.0
 11
65.627583
 21
192.3870740389044
 31
0.0
  0
LINE
  5
638
  8
LAYER_1
 10
65.627583
 20
192.3870740389044
 30
0.0
 11
64.986175
 21
193.3637870389045
 31
0.0
  0
LINE
  5
639
  8
LAYER_1
 10
64.986175
 20
193.3637870389045
 30
0.0
 11
64.533727
 21
194.3789290389045
 31
0.0
  0
LINE
  5
63A
  8
LAYER_1
 10
64.533727
 20
194.3789290389045
 30
0.0
 11
64.37075400000001
 21
195.2494710389045
 31
0.0
  0
LINE
  5
63B
  8
LAYER_1
 10
64.37075400000001
 20
195.2494710389045
 30
0.0
 11
64.427797
 21
195.5969730389045
 31
0.0
  0
LINE
  5
63C
  8
LAYER_1
 10
64.427797
 20
195.5969730389045
 30
0.0
 11
64.65423
 21
195.1341860389045
 31
0.0
  0
LINE
  5
63D
  8
LAYER_1
 10
64.65423
 20
195.1341860389045
 30
0.0
 11
64.92601500000001
 21
194.4544570389045
 31
0.0
  0
LINE
  5
63E
  8
LAYER_1
 10
64.92601500000001
 20
194.4544570389045
 30
0.0
 11
65.624117
 21
195.4006830389045
 31
0.0
  0
LINE
  5
63F
  8
LAYER_1
 10
65.624117
 20
195.4006830389045
 30
0.0
 11
66.322222
 21
196.5743010389045
 31
0.0
  0
LINE
  5
640
  8
LAYER_1
 10
66.322222
 20
196.5743010389045
 30
0.0
 11
66.44657599999999
 21
196.7348970389045
 31
0.0
  0
LINE
  5
641
  8
LAYER_1
 10
66.44657599999999
 20
196.7348970389045
 30
0.0
 11
66.74555599999999
 21
196.8016930389045
 31
0.0
  0
LINE
  5
642
  8
LAYER_1
 10
66.74555599999999
 20
196.8016930389045
 30
0.0
 11
67.088831
 21
196.7255000389044
 31
0.0
  0
LINE
  5
643
  8
LAYER_1
 10
67.088831
 20
196.7255000389044
 30
0.0
 11
67.09980899999999
 21
196.4701950389045
 31
0.0
  0
LINE
  5
644
  8
LAYER_1
 10
67.09980899999999
 20
196.4701950389045
 30
0.0
 11
66.052723
 21
195.2618930389045
 31
0.0
  0
LINE
  5
645
  8
LAYER_1
 10
66.052723
 20
195.2618930389045
 30
0.0
 11
64.936553
 21
194.1719850389044
 31
0.0
  0
LINE
  5
646
  8
LAYER_1
 10
64.936553
 20
194.1719850389044
 30
0.0
 11
65.512044
 21
193.3637830389044
 31
0.0
  0
LINE
  5
647
  8
LAYER_1
 10
65.512044
 20
193.3637830389044
 30
0.0
 11
66.25565400000001
 21
192.6209790389044
 31
0.0
  0
LINE
  5
648
  8
LAYER_1
 10
66.25565400000001
 20
192.6209790389044
 30
0.0
 11
67.235347
 21
191.9700110389045
 31
0.0
  0
LINE
  5
649
  8
LAYER_1
 10
67.235347
 20
191.9700110389045
 30
0.0
 11
68.049913
 21
191.4568190389045
 31
0.0
  0
LINE
  5
64A
  8
LAYER_1
 10
68.049913
 20
191.4568190389045
 30
0.0
 11
68.11879
 21
191.2823130389045
 31
0.0
  0
LINE
  5
64B
  8
LAYER_1
 10
68.11879
 20
191.2823130389045
 30
0.0
 11
67.987692
 21
191.1340550389045
 31
0.0
  0
LINE
  5
64C
  8
LAYER_1
 10
67.987692
 20
191.1340550389045
 30
0.0
 11
67.651496
 21
190.9469200389044
 31
0.0
  0
LINE
  5
64D
  8
LAYER_1
 10
67.651496
 20
190.9469200389044
 30
0.0
 11
67.367034
 21
190.9371800389044
 31
0.0
  0
LINE
  5
64E
  8
LAYER_1
 10
67.367034
 20
190.9371800389044
 30
0.0
 11
66.357438
 21
191.6318230389045
 31
0.0
  0
LINE
  5
64F
  8
LAYER_1
 10
66.357438
 20
191.6318230389045
 30
0.0
 11
66.357438
 21
191.6318230389045
 31
0.0
  0
LINE
  5
650
  8
LAYER_1
 10
79.64311100000001
 20
191.2136930389044
 30
0.0
 11
79.402733
 21
192.0405900389044
 31
0.0
  0
LINE
  5
651
  8
LAYER_1
 10
79.402733
 20
192.0405900389044
 30
0.0
 11
79.30719000000001
 21
193.4570340389045
 31
0.0
  0
LINE
  5
652
  8
LAYER_1
 10
79.30719000000001
 20
193.4570340389045
 30
0.0
 11
79.36549700000001
 21
194.7960290389045
 31
0.0
  0
LINE
  5
653
  8
LAYER_1
 10
79.36549700000001
 20
194.7960290389045
 30
0.0
 11
79.58666700000001
 21
195.3905820389045
 31
0.0
  0
LINE
  5
654
  8
LAYER_1
 10
79.58666700000001
 20
195.3905820389045
 30
0.0
 11
79.78598599999999
 21
194.9413970389045
 31
0.0
  0
LINE
  5
655
  8
LAYER_1
 10
79.78598599999999
 20
194.9413970389045
 30
0.0
 11
79.868889
 21
193.8614420389044
 31
0.0
  0
LINE
  5
656
  8
LAYER_1
 10
79.868889
 20
193.8614420389044
 30
0.0
 11
79.912463
 21
192.5895240389044
 31
0.0
  0
LINE
  5
657
  8
LAYER_1
 10
79.912463
 20
192.5895240389044
 30
0.0
 11
80.094193
 21
191.8562470389045
 31
0.0
  0
LINE
  5
658
  8
LAYER_1
 10
80.094193
 20
191.8562470389045
 30
0.0
 11
80.490593
 21
191.5200760389045
 31
0.0
  0
LINE
  5
659
  8
LAYER_1
 10
80.490593
 20
191.5200760389045
 30
0.0
 11
81.17817700000001
 21
191.4394710389045
 31
0.0
  0
LINE
  5
65A
  8
LAYER_1
 10
81.17817700000001
 20
191.4394710389045
 30
0.0
 11
81.98819399999999
 21
191.5724730389045
 31
0.0
  0
LINE
  5
65B
  8
LAYER_1
 10
81.98819399999999
 20
191.5724730389045
 30
0.0
 11
82.375889
 21
192.0640150389044
 31
0.0
  0
LINE
  5
65C
  8
LAYER_1
 10
82.375889
 20
192.0640150389044
 30
0.0
 11
82.60692400000001
 21
192.6885590389045
 31
0.0
  0
LINE
  5
65D
  8
LAYER_1
 10
82.60692400000001
 20
192.6885590389045
 30
0.0
 11
82.96037699999999
 21
192.0281240389045
 31
0.0
  0
LINE
  5
65E
  8
LAYER_1
 10
82.96037699999999
 20
192.0281240389045
 30
0.0
 11
83.17083599999999
 21
191.4490530389045
 31
0.0
  0
LINE
  5
65F
  8
LAYER_1
 10
83.17083599999999
 20
191.4490530389045
 30
0.0
 11
82.931917
 21
191.1256790389045
 31
0.0
  0
LINE
  5
660
  8
LAYER_1
 10
82.931917
 20
191.1256790389045
 30
0.0
 11
82.23145100000001
 21
190.9320890389045
 31
0.0
  0
LINE
  5
661
  8
LAYER_1
 10
82.23145100000001
 20
190.9320890389045
 30
0.0
 11
81.21862299999999
 21
190.8884150389044
 31
0.0
  0
LINE
  5
662
  8
LAYER_1
 10
81.21862299999999
 20
190.8884150389044
 30
0.0
 11
80.24024
 21
190.9853770389045
 31
0.0
  0
LINE
  5
663
  8
LAYER_1
 10
80.24024
 20
190.9853770389045
 30
0.0
 11
79.64311100000001
 21
191.2136930389044
 31
0.0
  0
LINE
  5
664
  8
LAYER_1
 10
79.64311100000001
 20
191.2136930389044
 30
0.0
 11
79.64311100000001
 21
191.2136930389044
 31
0.0
  0
LINE
  5
665
  8
LAYER_1
 10
90.02888900000001
 20
194.0497270389045
 30
0.0
 11
90.02888900000001
 21
197.2714650389044
 31
0.0
  0
LINE
  5
666
  8
LAYER_1
 10
90.02888900000001
 20
197.2714650389044
 30
0.0
 11
91.58111100000001
 21
197.1427430389045
 31
0.0
  0
LINE
  5
667
  8
LAYER_1
 10
91.58111100000001
 20
197.1427430389045
 30
0.0
 11
92.89521499999999
 21
197.1257170389044
 31
0.0
  0
LINE
  5
668
  8
LAYER_1
 10
92.89521499999999
 20
197.1257170389044
 30
0.0
 11
93.092546
 21
197.2894250389045
 31
0.0
  0
LINE
  5
669
  8
LAYER_1
 10
93.092546
 20
197.2894250389045
 30
0.0
 11
93.13333299999999
 21
197.6134130389044
 31
0.0
  0
LINE
  5
66A
  8
LAYER_1
 10
93.13333299999999
 20
197.6134130389044
 30
0.0
 11
93.080032
 21
197.9391680389045
 31
0.0
  0
LINE
  5
66B
  8
LAYER_1
 10
93.080032
 20
197.9391680389045
 30
0.0
 11
92.832446
 21
198.1263050389045
 31
0.0
  0
LINE
  5
66C
  8
LAYER_1
 10
92.832446
 20
198.1263050389045
 30
0.0
 11
91.22833300000001
 21
198.2645450389045
 31
0.0
  0
LINE
  5
66D
  8
LAYER_1
 10
91.22833300000001
 20
198.2645450389045
 30
0.0
 11
90.800425
 21
198.2980200389044
 31
0.0
  0
LINE
  5
66E
  8
LAYER_1
 10
90.800425
 20
198.2980200389044
 30
0.0
 11
91.043566
 21
198.3509140389045
 31
0.0
  0
LINE
  5
66F
  8
LAYER_1
 10
91.043566
 20
198.3509140389045
 30
0.0
 11
93.274444
 21
198.4859080389045
 31
0.0
  0
LINE
  5
670
  8
LAYER_1
 10
93.274444
 20
198.4859080389045
 30
0.0
 11
96.143674
 21
198.5406790389044
 31
0.0
  0
LINE
  5
671
  8
LAYER_1
 10
96.143674
 20
198.5406790389044
 30
0.0
 11
97.493667
 21
198.4341680389045
 31
0.0
  0
LINE
  5
672
  8
LAYER_1
 10
97.493667
 20
198.4341680389045
 30
0.0
 11
97.08611999999999
 21
198.2778300389045
 31
0.0
  0
LINE
  5
673
  8
LAYER_1
 10
97.08611999999999
 20
198.2778300389045
 30
0.0
 11
95.729778
 21
198.2128050389045
 31
0.0
  0
LINE
  5
674
  8
LAYER_1
 10
95.729778
 20
198.2128050389045
 30
0.0
 11
94.011171
 21
198.1217490389045
 31
0.0
  0
LINE
  5
675
  8
LAYER_1
 10
94.011171
 20
198.1217490389045
 30
0.0
 11
93.7518
 21
197.9443210389045
 31
0.0
  0
LINE
  5
676
  8
LAYER_1
 10
93.7518
 20
197.9443210389045
 30
0.0
 11
93.697778
 21
197.6224170389044
 31
0.0
  0
LINE
  5
677
  8
LAYER_1
 10
93.697778
 20
197.6224170389044
 30
0.0
 11
93.740011
 21
197.3066600389045
 31
0.0
  0
LINE
  5
678
  8
LAYER_1
 10
93.740011
 20
197.3066600389045
 30
0.0
 11
93.933871
 21
197.1414800389045
 31
0.0
  0
LINE
  5
679
  8
LAYER_1
 10
93.933871
 20
197.1414800389045
 30
0.0
 11
95.179444
 21
197.1285280389045
 31
0.0
  0
LINE
  5
67A
  8
LAYER_1
 10
95.179444
 20
197.1285280389045
 30
0.0
 11
96.66111100000001
 21
197.2250270389044
 31
0.0
  0
LINE
  5
67B
  8
LAYER_1
 10
96.66111100000001
 20
197.2250270389044
 30
0.0
 11
96.741073
 21
194.3746110389045
 31
0.0
  0
LINE
  5
67C
  8
LAYER_1
 10
96.741073
 20
194.3746110389045
 30
0.0
 11
96.719118
 21
192.0334530389044
 31
0.0
  0
LINE
  5
67D
  8
LAYER_1
 10
96.719118
 20
192.0334530389044
 30
0.0
 11
96.602789
 21
191.4746100389044
 31
0.0
  0
LINE
  5
67E
  8
LAYER_1
 10
96.602789
 20
191.4746100389044
 30
0.0
 11
96.400417
 21
191.1751160389045
 31
0.0
  0
LINE
  5
67F
  8
LAYER_1
 10
96.400417
 20
191.1751160389045
 30
0.0
 11
95.936348
 21
190.9843430389045
 31
0.0
  0
LINE
  5
680
  8
LAYER_1
 10
95.936348
 20
190.9843430389045
 30
0.0
 11
95.34043800000001
 21
191.2738650389045
 31
0.0
  0
LINE
  5
681
  8
LAYER_1
 10
95.34043800000001
 20
191.2738650389045
 30
0.0
 11
94.701075
 21
191.7216930389045
 31
0.0
  0
LINE
  5
682
  8
LAYER_1
 10
94.701075
 20
191.7216930389045
 30
0.0
 11
95.32831400000001
 21
191.7216930389045
 31
0.0
  0
LINE
  5
683
  8
LAYER_1
 10
95.32831400000001
 20
191.7216930389045
 30
0.0
 11
95.680168
 21
191.7759190389045
 31
0.0
  0
LINE
  5
684
  8
LAYER_1
 10
95.680168
 20
191.7759190389045
 30
0.0
 11
95.867577
 21
192.0779630389044
 31
0.0
  0
LINE
  5
685
  8
LAYER_1
 10
95.867577
 20
192.0779630389044
 30
0.0
 11
95.955556
 21
194.2616930389044
 31
0.0
  0
LINE
  5
686
  8
LAYER_1
 10
95.955556
 20
194.2616930389044
 30
0.0
 11
95.955556
 21
196.8016930389045
 31
0.0
  0
LINE
  5
687
  8
LAYER_1
 10
95.955556
 20
196.8016930389045
 30
0.0
 11
94.826667
 21
196.8016930389045
 31
0.0
  0
LINE
  5
688
  8
LAYER_1
 10
94.826667
 20
196.8016930389045
 30
0.0
 11
93.697778
 21
196.8016930389045
 31
0.0
  0
LINE
  5
689
  8
LAYER_1
 10
93.697778
 20
196.8016930389045
 30
0.0
 11
93.697778
 21
193.9961270389045
 31
0.0
  0
LINE
  5
68A
  8
LAYER_1
 10
93.697778
 20
193.9961270389045
 30
0.0
 11
93.61573900000001
 21
191.9554100389045
 31
0.0
  0
LINE
  5
68B
  8
LAYER_1
 10
93.61573900000001
 20
191.9554100389045
 30
0.0
 11
93.415556
 21
191.0161380389044
 31
0.0
  0
LINE
  5
68C
  8
LAYER_1
 10
93.415556
 20
191.0161380389044
 30
0.0
 11
93.294955
 21
191.1379580389045
 31
0.0
  0
LINE
  5
68D
  8
LAYER_1
 10
93.294955
 20
191.1379580389045
 30
0.0
 11
93.206441
 21
191.6588450389045
 31
0.0
  0
LINE
  5
68E
  8
LAYER_1
 10
93.206441
 20
191.6588450389045
 30
0.0
 11
93.13333299999999
 21
193.8217040389044
 31
0.0
  0
LINE
  5
68F
  8
LAYER_1
 10
93.13333299999999
 20
193.8217040389044
 30
0.0
 11
93.13333299999999
 21
196.8016930389045
 31
0.0
  0
LINE
  5
690
  8
LAYER_1
 10
93.13333299999999
 20
196.8016930389045
 30
0.0
 11
92.01431700000001
 21
196.8016930389045
 31
0.0
  0
LINE
  5
691
  8
LAYER_1
 10
92.01431700000001
 20
196.8016930389045
 30
0.0
 11
90.895303
 21
196.8016930389045
 31
0.0
  0
LINE
  5
692
  8
LAYER_1
 10
90.895303
 20
196.8016930389045
 30
0.0
 11
90.81487199999999
 21
193.9318360389045
 31
0.0
  0
LINE
  5
693
  8
LAYER_1
 10
90.81487199999999
 20
193.9318360389045
 30
0.0
 11
90.668924
 21
191.7242610389044
 31
0.0
  0
LINE
  5
694
  8
LAYER_1
 10
90.668924
 20
191.7242610389044
 30
0.0
 11
90.544489
 21
191.1666370389044
 31
0.0
  0
LINE
  5
695
  8
LAYER_1
 10
90.544489
 20
191.1666370389044
 30
0.0
 11
90.38166699999999
 21
190.9449850389045
 31
0.0
  0
LINE
  5
696
  8
LAYER_1
 10
90.38166699999999
 20
190.9449850389045
 30
0.0
 11
90.213292
 21
191.0477800389045
 31
0.0
  0
LINE
  5
697
  8
LAYER_1
 10
90.213292
 20
191.0477800389045
 30
0.0
 11
90.104608
 21
191.5446050389045
 31
0.0
  0
LINE
  5
698
  8
LAYER_1
 10
90.104608
 20
191.5446050389045
 30
0.0
 11
90.02888900000001
 21
194.0497270389045
 31
0.0
  0
LINE
  5
699
  8
LAYER_1
 10
90.02888900000001
 20
194.0497270389045
 30
0.0
 11
90.02888900000001
 21
194.0497270389045
 31
0.0
  0
LINE
  5
69A
  8
LAYER_1
 10
124.083705
 20
191.0631750389045
 30
0.0
 11
123.895556
 21
195.1789160389045
 31
0.0
  0
LINE
  5
69B
  8
LAYER_1
 10
123.895556
 20
195.1789160389045
 30
0.0
 11
123.970105
 21
198.2038190389044
 31
0.0
  0
LINE
  5
69C
  8
LAYER_1
 10
123.970105
 20
198.2038190389044
 30
0.0
 11
124.073235
 21
198.8408290389045
 31
0.0
  0
LINE
  5
69D
  8
LAYER_1
 10
124.073235
 20
198.8408290389045
 30
0.0
 11
124.229106
 21
198.9953250389044
 31
0.0
  0
LINE
  5
69E
  8
LAYER_1
 10
124.229106
 20
198.9953250389044
 30
0.0
 11
124.464068
 21
198.4498860389045
 31
0.0
  0
LINE
  5
69F
  8
LAYER_1
 10
124.464068
 20
198.4498860389045
 30
0.0
 11
124.50887
 21
197.0668070389044
 31
0.0
  0
LINE
  5
6A0
  8
LAYER_1
 10
124.50887
 20
197.0668070389044
 30
0.0
 11
124.455087
 21
195.2494710389045
 31
0.0
  0
LINE
  5
6A1
  8
LAYER_1
 10
124.455087
 20
195.2494710389045
 30
0.0
 11
125.550473
 21
196.4801490389044
 31
0.0
  0
LINE
  5
6A2
  8
LAYER_1
 10
125.550473
 20
196.4801490389044
 30
0.0
 11
126.385443
 21
197.2756800389045
 31
0.0
  0
LINE
  5
6A3
  8
LAYER_1
 10
126.385443
 20
197.2756800389045
 30
0.0
 11
126.828189
 21
197.4158140389044
 31
0.0
  0
LINE
  5
6A4
  8
LAYER_1
 10
126.828189
 20
197.4158140389044
 30
0.0
 11
126.578924
 21
196.8914630389045
 31
0.0
  0
LINE
  5
6A5
  8
LAYER_1
 10
126.578924
 20
196.8914630389045
 30
0.0
 11
125.723596
 21
196.0450670389045
 31
0.0
  0
LINE
  5
6A6
  8
LAYER_1
 10
125.723596
 20
196.0450670389045
 30
0.0
 11
124.436674
 21
194.9693350389045
 31
0.0
  0
LINE
  5
6A7
  8
LAYER_1
 10
124.436674
 20
194.9693350389045
 30
0.0
 11
124.518894
 21
193.2749580389045
 31
0.0
  0
LINE
  5
6A8
  8
LAYER_1
 10
124.518894
 20
193.2749580389045
 30
0.0
 11
124.601111
 21
191.5805820389045
 31
0.0
  0
LINE
  5
6A9
  8
LAYER_1
 10
124.601111
 20
191.5805820389045
 30
0.0
 11
125.588889
 21
191.5805820389045
 31
0.0
  0
LINE
  5
6AA
  8
LAYER_1
 10
125.588889
 20
191.5805820389045
 30
0.0
 11
126.123287
 21
191.6111290389044
 31
0.0
  0
LINE
  5
6AB
  8
LAYER_1
 10
126.123287
 20
191.6111290389044
 30
0.0
 11
126.464422
 21
191.7432950389045
 31
0.0
  0
LINE
  5
6AC
  8
LAYER_1
 10
126.464422
 20
191.7432950389045
 30
0.0
 11
126.891816
 21
192.5556360389045
 31
0.0
  0
LINE
  5
6AD
  8
LAYER_1
 10
126.891816
 20
192.5556360389045
 30
0.0
 11
127.206965
 21
193.5306890389045
 31
0.0
  0
LINE
  5
6AE
  8
LAYER_1
 10
127.206965
 20
193.5306890389045
 30
0.0
 11
127.346363
 21
192.4145240389045
 31
0.0
  0
LINE
  5
6AF
  8
LAYER_1
 10
127.346363
 20
192.4145240389045
 30
0.0
 11
127.367335
 21
191.0866930389045
 31
0.0
  0
LINE
  5
6B0
  8
LAYER_1
 10
127.367335
 20
191.0866930389045
 30
0.0
 11
126.828874
 21
190.9361220389044
 31
0.0
  0
LINE
  5
6B1
  8
LAYER_1
 10
126.828874
 20
190.9361220389044
 30
0.0
 11
125.76769
 21
190.8796160389045
 31
0.0
  0
LINE
  5
6B2
  8
LAYER_1
 10
125.76769
 20
190.8796160389045
 30
0.0
 11
124.685421
 21
190.9207690389044
 31
0.0
  0
LINE
  5
6B3
  8
LAYER_1
 10
124.685421
 20
190.9207690389044
 30
0.0
 11
124.083705
 21
191.0631750389045
 31
0.0
  0
LINE
  5
6B4
  8
LAYER_1
 10
124.083705
 20
191.0631750389045
 30
0.0
 11
124.083705
 21
191.0631750389045
 31
0.0
  0
LINE
  5
6B5
  8
LAYER_1
 10
20.037778
 20
194.9907670389044
 30
0.0
 11
20.112662
 21
197.9855840389045
 31
0.0
  0
LINE
  5
6B6
  8
LAYER_1
 10
20.112662
 20
197.9855840389045
 30
0.0
 11
20.221241
 21
198.5777760389045
 31
0.0
  0
LINE
  5
6B7
  8
LAYER_1
 10
20.221241
 20
198.5777760389045
 30
0.0
 11
20.390556
 21
198.7066930389045
 31
0.0
  0
LINE
  5
6B8
  8
LAYER_1
 10
20.390556
 20
198.7066930389045
 30
0.0
 11
20.672778
 21
198.4009530389045
 31
0.0
  0
LINE
  5
6B9
  8
LAYER_1
 10
20.672778
 20
198.4009530389045
 30
0.0
 11
20.602222
 21
194.6850270389045
 31
0.0
  0
LINE
  5
6BA
  8
LAYER_1
 10
20.602222
 20
194.6850270389045
 30
0.0
 11
20.526022
 21
192.1097490389045
 31
0.0
  0
LINE
  5
6BB
  8
LAYER_1
 10
20.526022
 20
192.1097490389045
 30
0.0
 11
20.32
 21
191.1572490389044
 31
0.0
  0
LINE
  5
6BC
  8
LAYER_1
 10
20.32
 20
191.1572490389044
 30
0.0
 11
20.113528
 21
192.1861840389045
 31
0.0
  0
LINE
  5
6BD
  8
LAYER_1
 10
20.113528
 20
192.1861840389045
 30
0.0
 11
20.037778
 21
194.9907670389044
 31
0.0
  0
LINE
  5
6BE
  8
LAYER_1
 10
20.037778
 20
194.9907670389044
 30
0.0
 11
20.037778
 21
194.9907670389044
 31
0.0
  0
LINE
  5
6BF
  8
LAYER_1
 10
91.788158
 20
193.2419060389045
 30
0.0
 11
91.61648
 21
193.7842640389044
 31
0.0
  0
LINE
  5
6C0
  8
LAYER_1
 10
91.61648
 20
193.7842640389044
 30
0.0
 11
91.737129
 21
193.9794710389045
 31
0.0
  0
LINE
  5
6C1
  8
LAYER_1
 10
91.737129
 20
193.9794710389045
 30
0.0
 11
91.980406
 21
193.8628080389045
 31
0.0
  0
LINE
  5
6C2
  8
LAYER_1
 10
91.980406
 20
193.8628080389045
 30
0.0
 11
92.169596
 21
193.5724040389044
 31
0.0
  0
LINE
  5
6C3
  8
LAYER_1
 10
92.169596
 20
193.5724040389044
 30
0.0
 11
92.232062
 21
192.8278830389045
 31
0.0
  0
LINE
  5
6C4
  8
LAYER_1
 10
92.232062
 20
192.8278830389045
 30
0.0
 11
92.05717900000001
 21
192.8160410389044
 31
0.0
  0
LINE
  5
6C5
  8
LAYER_1
 10
92.05717900000001
 20
192.8160410389044
 30
0.0
 11
91.788158
 21
193.2419060389045
 31
0.0
  0
LINE
  5
6C6
  8
LAYER_1
 10
91.788158
 20
193.2419060389045
 30
0.0
 11
91.788158
 21
193.2419060389045
 31
0.0
  0
LINE
  5
6C7
  8
LAYER_1
 10
94.641554
 20
193.2880750389045
 30
0.0
 11
94.48425899999999
 21
193.7480450389045
 31
0.0
  0
LINE
  5
6C8
  8
LAYER_1
 10
94.48425899999999
 20
193.7480450389045
 30
0.0
 11
94.53515400000001
 21
193.9568140389044
 31
0.0
  0
LINE
  5
6C9
  8
LAYER_1
 10
94.53515400000001
 20
193.9568140389044
 30
0.0
 11
94.758565
 21
193.8952390389045
 31
0.0
  0
LINE
  5
6CA
  8
LAYER_1
 10
94.758565
 20
193.8952390389045
 30
0.0
 11
95.118815
 21
193.5441770389045
 31
0.0
  0
LINE
  5
6CB
  8
LAYER_1
 10
95.118815
 20
193.5441770389045
 30
0.0
 11
95.31001000000001
 21
193.1582410389045
 31
0.0
  0
LINE
  5
6CC
  8
LAYER_1
 10
95.31001000000001
 20
193.1582410389045
 30
0.0
 11
95.223928
 21
192.8527800389045
 31
0.0
  0
LINE
  5
6CD
  8
LAYER_1
 10
95.223928
 20
192.8527800389045
 30
0.0
 11
94.948474
 21
192.8576910389045
 31
0.0
  0
LINE
  5
6CE
  8
LAYER_1
 10
94.948474
 20
192.8576910389045
 30
0.0
 11
94.641554
 21
193.2880750389045
 31
0.0
  0
LINE
  5
6CF
  8
LAYER_1
 10
94.641554
 20
193.2880750389045
 30
0.0
 11
94.641554
 21
193.2880750389045
 31
0.0
  0
LINE
  5
6D0
  8
LAYER_1
 10
107.526667
 20
194.6683710389044
 30
0.0
 11
107.607979
 21
195.9861410389045
 31
0.0
  0
LINE
  5
6D1
  8
LAYER_1
 10
107.607979
 20
195.9861410389045
 30
0.0
 11
107.808889
 21
196.5194710389044
 31
0.0
  0
LINE
  5
6D2
  8
LAYER_1
 10
107.808889
 20
196.5194710389044
 30
0.0
 11
108.008679
 21
196.0297460389045
 31
0.0
  0
LINE
  5
6D3
  8
LAYER_1
 10
108.008679
 20
196.0297460389045
 30
0.0
 11
108.091111
 21
194.8427940389045
 31
0.0
  0
LINE
  5
6D4
  8
LAYER_1
 10
108.091111
 20
194.8427940389045
 30
0.0
 11
108.008208
 21
193.6074040389045
 31
0.0
  0
LINE
  5
6D5
  8
LAYER_1
 10
108.008208
 20
193.6074040389045
 30
0.0
 11
107.808889
 21
192.9916930389045
 31
0.0
  0
LINE
  5
6D6
  8
LAYER_1
 10
107.808889
 20
192.9916930389045
 30
0.0
 11
107.690039
 21
193.0440400389045
 31
0.0
  0
LINE
  5
6D7
  8
LAYER_1
 10
107.690039
 20
193.0440400389045
 30
0.0
 11
107.601331
 21
193.3531410389045
 31
0.0
  0
LINE
  5
6D8
  8
LAYER_1
 10
107.601331
 20
193.3531410389045
 30
0.0
 11
107.526667
 21
194.6683710389044
 31
0.0
  0
LINE
  5
6D9
  8
LAYER_1
 10
107.526667
 20
194.6683710389044
 30
0.0
 11
107.526667
 21
194.6683710389044
 31
0.0
  0
LINE
  5
6DA
  8
LAYER_1
 10
109.275654
 20
194.8261380389045
 30
0.0
 11
109.41512
 21
196.1183250389045
 31
0.0
  0
LINE
  5
6DB
  8
LAYER_1
 10
109.41512
 20
196.1183250389045
 30
0.0
 11
109.643333
 21
196.5194710389044
 31
0.0
  0
LINE
  5
6DC
  8
LAYER_1
 10
109.643333
 20
196.5194710389044
 30
0.0
 11
109.81379
 21
195.9945550389045
 31
0.0
  0
LINE
  5
6DD
  8
LAYER_1
 10
109.81379
 20
195.9945550389045
 30
0.0
 11
109.823599
 21
194.9788120389044
 31
0.0
  0
LINE
  5
6DE
  8
LAYER_1
 10
109.823599
 20
194.9788120389044
 30
0.0
 11
109.697909
 21
193.9220100389045
 31
0.0
  0
LINE
  5
6DF
  8
LAYER_1
 10
109.697909
 20
193.9220100389045
 30
0.0
 11
109.461867
 21
193.2739160389045
 31
0.0
  0
LINE
  5
6E0
  8
LAYER_1
 10
109.461867
 20
193.2739160389045
 30
0.0
 11
109.351266
 21
193.2737750389045
 31
0.0
  0
LINE
  5
6E1
  8
LAYER_1
 10
109.351266
 20
193.2737750389045
 30
0.0
 11
109.282561
 21
193.5391310389045
 31
0.0
  0
LINE
  5
6E2
  8
LAYER_1
 10
109.282561
 20
193.5391310389045
 30
0.0
 11
109.275654
 21
194.8261380389045
 31
0.0
  0
LINE
  5
6E3
  8
LAYER_1
 10
109.275654
 20
194.8261380389045
 30
0.0
 11
109.275654
 21
194.8261380389045
 31
0.0
  0
LINE
  5
6E4
  8
LAYER_1
 10
60.677778
 20
194.5065660389045
 30
0.0
 11
60.979778
 21
194.9794720389045
 31
0.0
  0
LINE
  5
6E5
  8
LAYER_1
 10
60.979778
 20
194.9794720389045
 30
0.0
 11
61.538561
 21
195.7722390389044
 31
0.0
  0
LINE
  5
6E6
  8
LAYER_1
 10
61.538561
 20
195.7722390389044
 30
0.0
 11
61.734681
 21
196.0782120389044
 31
0.0
  0
LINE
  5
6E7
  8
LAYER_1
 10
61.734681
 20
196.0782120389044
 30
0.0
 11
61.73045
 21
195.3928930389045
 31
0.0
  0
LINE
  5
6E8
  8
LAYER_1
 10
61.73045
 20
195.3928930389045
 30
0.0
 11
61.562415
 21
194.6218610389045
 31
0.0
  0
LINE
  5
6E9
  8
LAYER_1
 10
61.562415
 20
194.6218610389045
 30
0.0
 11
61.171667
 21
194.3138660389045
 31
0.0
  0
LINE
  5
6EA
  8
LAYER_1
 10
61.171667
 20
194.3138660389045
 30
0.0
 11
60.822858
 21
194.3318780389045
 31
0.0
  0
LINE
  5
6EB
  8
LAYER_1
 10
60.822858
 20
194.3318780389045
 30
0.0
 11
60.677778
 21
194.5065660389045
 31
0.0
  0
LINE
  5
6EC
  8
LAYER_1
 10
60.677778
 20
194.5065660389045
 30
0.0
 11
60.677778
 21
194.5065660389045
 31
0.0
  0
LINE
  5
6ED
  8
LAYER_1
 10
48.941855
 20
194.8966930389045
 30
0.0
 11
49.280513
 21
195.7433600389045
 31
0.0
  0
LINE
  5
6EE
  8
LAYER_1
 10
49.280513
 20
195.7433600389045
 30
0.0
 11
49.4658
 21
196.0688690389044
 31
0.0
  0
LINE
  5
6EF
  8
LAYER_1
 10
49.4658
 20
196.0688690389044
 30
0.0
 11
49.688175
 21
196.2234710389045
 31
0.0
  0
LINE
  5
6F0
  8
LAYER_1
 10
49.688175
 20
196.2234710389045
 30
0.0
 11
49.874925
 21
196.1862960389045
 31
0.0
  0
LINE
  5
6F1
  8
LAYER_1
 10
49.874925
 20
196.1862960389045
 30
0.0
 11
49.953333
 21
195.9364730389044
 31
0.0
  0
LINE
  5
6F2
  8
LAYER_1
 10
49.953333
 20
195.9364730389044
 30
0.0
 11
49.631669
 21
195.0528670389045
 31
0.0
  0
LINE
  5
6F3
  8
LAYER_1
 10
49.631669
 20
195.0528670389045
 30
0.0
 11
49.343929
 21
194.6912550389044
 31
0.0
  0
LINE
  5
6F4
  8
LAYER_1
 10
49.343929
 20
194.6912550389044
 30
0.0
 11
49.073218
 21
194.5439160389045
 31
0.0
  0
LINE
  5
6F5
  8
LAYER_1
 10
49.073218
 20
194.5439160389045
 30
0.0
 11
48.912608
 21
194.6475440389044
 31
0.0
  0
LINE
  5
6F6
  8
LAYER_1
 10
48.912608
 20
194.6475440389044
 30
0.0
 11
48.941855
 21
194.8966930389045
 31
0.0
  0
LINE
  5
6F7
  8
LAYER_1
 10
48.941855
 20
194.8966930389045
 30
0.0
 11
48.941855
 21
194.8966930389045
 31
0.0
  0
LINE
  5
6F8
  8
LAYER_1
 10
91.773223
 20
195.1263460389044
 30
0.0
 11
91.50836
 21
195.7932590389044
 31
0.0
  0
LINE
  5
6F9
  8
LAYER_1
 10
91.50836
 20
195.7932590389044
 30
0.0
 11
91.64978000000001
 21
195.8437380389045
 31
0.0
  0
LINE
  5
6FA
  8
LAYER_1
 10
91.64978000000001
 20
195.8437380389045
 30
0.0
 11
91.96983
 21
195.6941970389045
 31
0.0
  0
LINE
  5
6FB
  8
LAYER_1
 10
91.96983
 20
195.6941970389045
 30
0.0
 11
92.203936
 21
195.3937260389045
 31
0.0
  0
LINE
  5
6FC
  8
LAYER_1
 10
92.203936
 20
195.3937260389045
 30
0.0
 11
92.24387900000001
 21
194.9944900389044
 31
0.0
  0
LINE
  5
6FD
  8
LAYER_1
 10
92.24387900000001
 20
194.9944900389044
 30
0.0
 11
92.09577
 21
194.7195140389045
 31
0.0
  0
LINE
  5
6FE
  8
LAYER_1
 10
92.09577
 20
194.7195140389045
 30
0.0
 11
91.773223
 21
195.1263460389044
 31
0.0
  0
LINE
  5
6FF
  8
LAYER_1
 10
91.773223
 20
195.1263460389044
 30
0.0
 11
91.773223
 21
195.1263460389044
 31
0.0
  0
LINE
  5
700
  8
LAYER_1
 10
94.587732
 20
195.2671700389045
 30
0.0
 11
94.40042
 21
195.8199460389045
 31
0.0
  0
LINE
  5
701
  8
LAYER_1
 10
94.40042
 20
195.8199460389045
 30
0.0
 11
94.82868499999999
 21
195.6717240389044
 31
0.0
  0
LINE
  5
702
  8
LAYER_1
 10
94.82868499999999
 20
195.6717240389044
 30
0.0
 11
95.362887
 21
195.1656380389045
 31
0.0
  0
LINE
  5
703
  8
LAYER_1
 10
95.362887
 20
195.1656380389045
 30
0.0
 11
95.353388
 21
194.9212510389044
 31
0.0
  0
LINE
  5
704
  8
LAYER_1
 10
95.353388
 20
194.9212510389044
 30
0.0
 11
95.15015800000001
 21
194.7105320389045
 31
0.0
  0
LINE
  5
705
  8
LAYER_1
 10
95.15015800000001
 20
194.7105320389045
 30
0.0
 11
94.88555100000001
 21
194.8126160389045
 31
0.0
  0
LINE
  5
706
  8
LAYER_1
 10
94.88555100000001
 20
194.8126160389045
 30
0.0
 11
94.587732
 21
195.2671700389045
 31
0.0
  0
LINE
  5
707
  8
LAYER_1
 10
94.587732
 20
195.2671700389045
 30
0.0
 11
94.587732
 21
195.2671700389045
 31
0.0
  0
LINE
  5
708
  8
LAYER_1
 10
78.45777800000001
 20
197.1921010389044
 30
0.0
 11
78.536661
 21
198.6346590389045
 31
0.0
  0
LINE
  5
709
  8
LAYER_1
 10
78.536661
 20
198.6346590389045
 30
0.0
 11
78.641847
 21
198.9378940389045
 31
0.0
  0
LINE
  5
70A
  8
LAYER_1
 10
78.641847
 20
198.9378940389045
 30
0.0
 11
78.796713
 21
198.9935300389045
 31
0.0
  0
LINE
  5
70B
  8
LAYER_1
 10
78.796713
 20
198.9935300389045
 30
0.0
 11
79.029518
 21
198.5188740389044
 31
0.0
  0
LINE
  5
70C
  8
LAYER_1
 10
79.029518
 20
198.5188740389044
 30
0.0
 11
79.057794
 21
197.3472330389045
 31
0.0
  0
LINE
  5
70D
  8
LAYER_1
 10
79.057794
 20
197.3472330389045
 30
0.0
 11
78.914711
 21
196.0319080389045
 31
0.0
  0
LINE
  5
70E
  8
LAYER_1
 10
78.914711
 20
196.0319080389045
 30
0.0
 11
78.713937
 21
195.5538870389045
 31
0.0
  0
LINE
  5
70F
  8
LAYER_1
 10
78.713937
 20
195.5538870389045
 30
0.0
 11
78.535087
 21
195.9337570389045
 31
0.0
  0
LINE
  5
710
  8
LAYER_1
 10
78.535087
 20
195.9337570389045
 30
0.0
 11
78.45777800000001
 21
197.1921010389044
 31
0.0
  0
LINE
  5
711
  8
LAYER_1
 10
78.45777800000001
 20
197.1921010389044
 30
0.0
 11
78.45777800000001
 21
197.1921010389044
 31
0.0
  0
LINE
  5
712
  8
LAYER_1
 10
81.844444
 20
195.5150380389045
 30
0.0
 11
81.931589
 21
195.7027300389045
 31
0.0
  0
LINE
  5
713
  8
LAYER_1
 10
81.931589
 20
195.7027300389045
 30
0.0
 11
82.135389
 21
195.8056730389044
 31
0.0
  0
LINE
  5
714
  8
LAYER_1
 10
82.135389
 20
195.8056730389044
 30
0.0
 11
82.369395
 21
195.8038910389045
 31
0.0
  0
LINE
  5
715
  8
LAYER_1
 10
82.369395
 20
195.8038910389045
 30
0.0
 11
82.547155
 21
195.6774080389045
 31
0.0
  0
LINE
  5
716
  8
LAYER_1
 10
82.547155
 20
195.6774080389045
 30
0.0
 11
82.543104
 21
195.4748370389044
 31
0.0
  0
LINE
  5
717
  8
LAYER_1
 10
82.543104
 20
195.4748370389044
 30
0.0
 11
82.284435
 21
195.3905820389045
 31
0.0
  0
LINE
  5
718
  8
LAYER_1
 10
82.284435
 20
195.3905820389045
 30
0.0
 11
81.844444
 21
195.5150380389045
 31
0.0
  0
LINE
  5
719
  8
LAYER_1
 10
81.844444
 20
195.5150380389045
 30
0.0
 11
81.844444
 21
195.5150380389045
 31
0.0
  0
LINE
  5
71A
  8
LAYER_1
 10
104.493308
 20
196.2426940389045
 30
0.0
 11
104.034577
 21
196.8928900389045
 31
0.0
  0
LINE
  5
71B
  8
LAYER_1
 10
104.034577
 20
196.8928900389045
 30
0.0
 11
104.413507
 21
196.8857460389044
 31
0.0
  0
LINE
  5
71C
  8
LAYER_1
 10
104.413507
 20
196.8857460389044
 30
0.0
 11
104.920734
 21
196.6614390389045
 31
0.0
  0
LINE
  5
71D
  8
LAYER_1
 10
104.920734
 20
196.6614390389045
 30
0.0
 11
105.29697
 21
196.3320180389044
 31
0.0
  0
LINE
  5
71E
  8
LAYER_1
 10
105.29697
 20
196.3320180389044
 30
0.0
 11
105.474079
 21
195.9812360389045
 31
0.0
  0
LINE
  5
71F
  8
LAYER_1
 10
105.474079
 20
195.9812360389045
 30
0.0
 11
105.383928
 21
195.6928490389045
 31
0.0
  0
LINE
  5
720
  8
LAYER_1
 10
105.383928
 20
195.6928490389045
 30
0.0
 11
105.018868
 21
195.7500610389045
 31
0.0
  0
LINE
  5
721
  8
LAYER_1
 10
105.018868
 20
195.7500610389045
 30
0.0
 11
104.493308
 21
196.2426940389045
 31
0.0
  0
LINE
  5
722
  8
LAYER_1
 10
104.493308
 20
196.2426940389045
 30
0.0
 11
104.493308
 21
196.2426940389045
 31
0.0
  0
LINE
  5
723
  8
LAYER_1
 10
80.623246
 20
197.1629690389045
 30
0.0
 11
81.264461
 21
198.0670020389045
 31
0.0
  0
LINE
  5
724
  8
LAYER_1
 10
81.264461
 20
198.0670020389045
 30
0.0
 11
81.685694
 21
198.3971550389045
 31
0.0
  0
LINE
  5
725
  8
LAYER_1
 10
81.685694
 20
198.3971550389045
 30
0.0
 11
81.96186
 21
198.2105140389045
 31
0.0
  0
LINE
  5
726
  8
LAYER_1
 10
81.96186
 20
198.2105140389045
 30
0.0
 11
81.935473
 21
197.8942410389045
 31
0.0
  0
LINE
  5
727
  8
LAYER_1
 10
81.935473
 20
197.8942410389045
 30
0.0
 11
80.95036399999999
 21
196.8198690389044
 31
0.0
  0
LINE
  5
728
  8
LAYER_1
 10
80.95036399999999
 20
196.8198690389044
 30
0.0
 11
79.825384
 21
195.8502660389044
 31
0.0
  0
LINE
  5
729
  8
LAYER_1
 10
79.825384
 20
195.8502660389044
 30
0.0
 11
80.623246
 21
197.1629690389045
 31
0.0
  0
LINE
  5
72A
  8
LAYER_1
 10
80.623246
 20
197.1629690389045
 30
0.0
 11
80.623246
 21
197.1629690389045
 31
0.0
  0
LINE
  5
72B
  8
LAYER_1
 10
76.228036
 20
197.2408880389044
 30
0.0
 11
75.635874
 21
198.2445280389045
 31
0.0
  0
LINE
  5
72C
  8
LAYER_1
 10
75.635874
 20
198.2445280389045
 30
0.0
 11
76.482383
 21
197.7444840389045
 31
0.0
  0
LINE
  5
72D
  8
LAYER_1
 10
76.482383
 20
197.7444840389045
 30
0.0
 11
77.08022699999999
 21
197.2433960389045
 31
0.0
  0
LINE
  5
72E
  8
LAYER_1
 10
77.08022699999999
 20
197.2433960389045
 30
0.0
 11
77.328889
 21
196.7408440389044
 31
0.0
  0
LINE
  5
72F
  8
LAYER_1
 10
77.328889
 20
196.7408440389044
 30
0.0
 11
77.24728500000001
 21
196.3292740389045
 31
0.0
  0
LINE
  5
730
  8
LAYER_1
 10
77.24728500000001
 20
196.3292740389045
 30
0.0
 11
77.019541
 21
196.2831780389045
 31
0.0
  0
LINE
  5
731
  8
LAYER_1
 10
77.019541
 20
196.2831780389045
 30
0.0
 11
76.228036
 21
197.2408880389044
 31
0.0
  0
LINE
  5
732
  8
LAYER_1
 10
76.228036
 20
197.2408880389044
 30
0.0
 11
76.228036
 21
197.2408880389044
 31
0.0
  0
LINE
  5
733
  8
LAYER_1
 10
105.438835
 20
198.3495160389045
 30
0.0
 11
105.127822
 21
198.9205970389045
 31
0.0
  0
LINE
  5
734
  8
LAYER_1
 10
105.127822
 20
198.9205970389045
 30
0.0
 11
105.688598
 21
198.7275480389044
 31
0.0
  0
LINE
  5
735
  8
LAYER_1
 10
105.688598
 20
198.7275480389044
 30
0.0
 11
106.189456
 21
198.3882950389045
 31
0.0
  0
LINE
  5
736
  8
LAYER_1
 10
106.189456
 20
198.3882950389045
 30
0.0
 11
106.397778
 21
198.0263930389044
 31
0.0
  0
LINE
  5
737
  8
LAYER_1
 10
106.397778
 20
198.0263930389044
 30
0.0
 11
106.318478
 21
197.7175820389045
 31
0.0
  0
LINE
  5
738
  8
LAYER_1
 10
106.318478
 20
197.7175820389045
 30
0.0
 11
106.1064
 21
197.6772000389045
 31
0.0
  0
LINE
  5
739
  8
LAYER_1
 10
106.1064
 20
197.6772000389045
 30
0.0
 11
105.438835
 21
198.3495160389045
 31
0.0
  0
LINE
  5
73A
  8
LAYER_1
 10
105.438835
 20
198.3495160389045
 30
0.0
 11
105.438835
 21
198.3495160389045
 31
0.0
  0
ENDSEC
  0
EOF
