999
DXF created by Inkscape
  0
SECTION
  2
HEADER
  9
$ACADVER
  1
AC1014
  9
$HANDSEED
  5
FFFF
  9
$MEASUREMENT
 70
     1
  0
ENDSEC
  0
SECTION
  2
TABLES
  0
TABLE
  2
VPORT
  5
8
330
0
100
AcDbSymbolTable
 70
     4
  0
VPORT
  5
2E
330
8
100
AcDbSymbolTableRecord
100
AcDbViewportTableRecord
  2
*ACTIVE
 70
     0
 10
0.0
 20
0.0
 11
1.0
 21
1.0
 12
210.0
 22
148.5
 13
0.0
 23
0.0
 14
10.0
 24
10.0
 15
10.0
 25
10.0
 16
0.0
 26
0.0
 36
1.0
 17
0.0
 27
0.0
 37
0.0
 40
341.0
 41
1.24
 42
50.0
 43
0.0
 44
0.0
 50
0.0
 51
0.0
 71
     0
 72
   100
 73
     1
 74
     3
 75
     0
 76
     0
 77
     0
 78
     0
  0
ENDTAB
  0
TABLE
  2
LTYPE
  5
5
330
0
100
AcDbSymbolTable
 70
     1
  0
LTYPE
  5
14
330
5
100
AcDbSymbolTableRecord
100
AcDbLinetypeTableRecord
  2
BYBLOCK
 70
     0
  3

 72
    65
 73
     0
 40
0.0
  0
LTYPE
  5
15
330
5
100
AcDbSymbolTableRecord
100
AcDbLinetypeTableRecord
  2
BYLAYER
 70
     0
  3

 72
    65
 73
     0
 40
0.0
  0
LTYPE
  5
16
330
5
100
AcDbSymbolTableRecord
100
AcDbLinetypeTableRecord
  2
CONTINUOUS
 70
     0
  3
Solid line
 72
    65
 73
     0
 40
0.0
  0
ENDTAB
  0
TABLE
  2
LAYER
  5
2
100
AcDbSymbolTable
 70
2
  0
LAYER
  5
50
100
AcDbSymbolTableRecord
100
AcDbLayerTableRecord
  2
0
 70
0
  6
CONTINUOUS
  0
LAYER
  5
51
100
AcDbSymbolTableRecord
100
AcDbLayerTableRecord
  2
Layer_1
 70
0
  6
CONTINUOUS
  0
ENDTAB
  0
TABLE
  2
STYLE
  5
3
330
0
100
AcDbSymbolTable
 70
     1
  0
STYLE
  5
11
330
3
100
AcDbSymbolTableRecord
100
AcDbTextStyleTableRecord
  2
STANDARD
 70
     0
 40
0.0
 41
1.0
 50
0.0
 71
     0
 42
2.5
  3
txt
  4

  0
ENDTAB
  0
TABLE
  2
VIEW
  5
6
330
0
100
AcDbSymbolTable
 70
     0
  0
ENDTAB
  0
TABLE
  2
UCS
  5
7
330
0
100
AcDbSymbolTable
 70
     0
  0
ENDTAB
  0
TABLE
  2
APPID
  5
9
330
0
100
AcDbSymbolTable
 70
     2
  0
APPID
  5
12
330
9
100
AcDbSymbolTableRecord
100
AcDbRegAppTableRecord
  2
ACAD
 70
     0
  0
ENDTAB
  0
TABLE
  2
DIMSTYLE
  5
A
330
0
100
AcDbSymbolTable
 70
     1
  0
DIMSTYLE
105
27
330
A
100
AcDbSymbolTableRecord
100
AcDbDimStyleTableRecord
  2
ISO-25
 70
     0
  3

  4

  5

  6

  7

 40
1.0
 41
2.5
 42
0.625
 43
3.75
 44
1.25
 45
0.0
 46
0.0
 47
0.0
 48
0.0
140
2.5
141
2.5
142
0.0
143
0.03937007874016
144
1.0
145
0.0
146
1.0
147
0.625
 71
     0
 72
     0
 73
     0
 74
     0
 75
     0
 76
     0
 77
     1
 78
     8
170
     0
171
     3
172
     1
173
     0
174
     0
175
     0
176
     0
177
     0
178
     0
270
     2
271
     2
272
     2
273
     2
274
     3
340
11
275
     0
280
     0
281
     0
282
     0
283
     0
284
     8
285
     0
286
     0
287
     3
288
     0
  0
ENDTAB
  0
TABLE
  2
BLOCK_RECORD
  5
1
330
0
100
AcDbSymbolTable
 70
     1
  0
BLOCK_RECORD
  5
1F
330
1
100
AcDbSymbolTableRecord
100
AcDbBlockTableRecord
  2
*MODEL_SPACE
  0
BLOCK_RECORD
  5
1B
330
1
100
AcDbSymbolTableRecord
100
AcDbBlockTableRecord
  2
*PAPER_SPACE
  0
ENDTAB
  0
ENDSEC
  0
SECTION
  2
BLOCKS
  0
BLOCK
  5
20
330
1F
100
AcDbEntity
  8
0
100
AcDbBlockBegin
  2
*MODEL_SPACE
 70
     0
 10
0.0
 20
0.0
 30
0.0
  3
*MODEL_SPACE
  1

  0
ENDBLK
  5
21
330
1F
100
AcDbEntity
  8
0
100
AcDbBlockEnd
  0
BLOCK
  5
1C
330
1B
100
AcDbEntity
 67
     1
  8
0
100
AcDbBlockBegin
  2
*PAPER_SPACE
  1

  0
ENDBLK
  5
1D
330
1B
100
AcDbEntity
 67
     1
  8
0
100
AcDbBlockEnd
  0
ENDSEC
  0
SECTION
  2
ENTITIES
  0
SPLINE
  5
100
100
AcDbEntity
  8
Layer_1
 62
7
100
AcDbSpline
 70
8
 71
3
 72
8
 73
4
 74
0
 40
0
 40
0
 40
0
 40
0
 40
1
 40
1
 40
1
 40
1
 10
98.777766
 20
205.199292
 30
0.0
 10
98.777766
 20
206.107345
 30
0.0
 10
103.579713
 20
210.176814
 30
0.0
 10
113.076626
 20
217.317036
 30
0.0
  0
SPLINE
  5
101
100
AcDbEntity
  8
Layer_1
 62
7
100
AcDbSpline
 70
8
 71
3
 72
8
 73
4
 74
0
 40
0
 40
0
 40
0
 40
0
 40
1
 40
1
 40
1
 40
1
 10
113.076626
 20
217.317036
 30
0.0
 10
118.113728
 20
221.104168
 30
0.0
 10
122.861623
 20
224.683234
 30
0.0
 10
123.627501
 20
225.270513
 30
0.0
  0
SPLINE
  5
102
100
AcDbEntity
  8
Layer_1
 62
7
100
AcDbSpline
 70
8
 71
3
 72
8
 73
4
 74
0
 40
0
 40
0
 40
0
 40
0
 40
1
 40
1
 40
1
 40
1
 10
123.627501
 20
225.270513
 30
0.0
 10
124.436276
 20
225.890691
 30
0.0
 10
124.806868
 20
226.671396
 30
0.0
 10
124.511579
 20
227.132931
 30
0.0
  0
SPLINE
  5
103
100
AcDbEntity
  8
Layer_1
 62
7
100
AcDbSpline
 70
8
 71
3
 72
8
 73
4
 74
0
 40
0
 40
0
 40
0
 40
0
 40
1
 40
1
 40
1
 40
1
 10
124.511579
 20
227.132931
 30
0.0
 10
123.850694
 20
228.165876
 30
0.0
 10
126.038452
 20
230.492423
 30
0.0
 10
127.670662
 20
230.492423
 30
0.0
  0
SPLINE
  5
104
100
AcDbEntity
  8
Layer_1
 62
7
100
AcDbSpline
 70
8
 71
3
 72
8
 73
4
 74
0
 40
0
 40
0
 40
0
 40
0
 40
1
 40
1
 40
1
 40
1
 10
127.670662
 20
230.492423
 30
0.0
 10
128.549013
 20
230.492423
 30
0.0
 10
128.935226
 20
230.006490
 30
0.0
 10
128.935226
 20
228.901344
 30
0.0
  0
SPLINE
  5
105
100
AcDbEntity
  8
Layer_1
 62
7
100
AcDbSpline
 70
8
 71
3
 72
8
 73
4
 74
0
 40
0
 40
0
 40
0
 40
0
 40
1
 40
1
 40
1
 40
1
 10
128.935226
 20
228.901344
 30
0.0
 10
128.935226
 20
227.272823
 30
0.0
 10
127.234961
 20
225.822520
 30
0.0
 10
109.516297
 20
212.337251
 30
0.0
  0
SPLINE
  5
106
100
AcDbEntity
  8
Layer_1
 62
7
100
AcDbSpline
 70
8
 71
3
 72
8
 73
4
 74
0
 40
0
 40
0
 40
0
 40
0
 40
1
 40
1
 40
1
 40
1
 10
109.516297
 20
212.337251
 30
0.0
 10
105.809802
 20
209.516318
 30
0.0
 10
102.945748
 20
207.045474
 30
0.0
 10
103.151742
 20
206.846490
 30
0.0
  0
SPLINE
  5
107
100
AcDbEntity
  8
Layer_1
 62
7
100
AcDbSpline
 70
8
 71
3
 72
8
 73
4
 74
0
 40
0
 40
0
 40
0
 40
0
 40
1
 40
1
 40
1
 40
1
 10
103.151742
 20
206.846490
 30
0.0
 10
103.357739
 20
206.647509
 30
0.0
 10
105.310833
 20
207.164998
 30
0.0
 10
107.491942
 20
207.996475
 30
0.0
  0
SPLINE
  5
108
100
AcDbEntity
  8
Layer_1
 62
7
100
AcDbSpline
 70
8
 71
3
 72
8
 73
4
 74
0
 40
0
 40
0
 40
0
 40
0
 40
1
 40
1
 40
1
 40
1
 10
107.491942
 20
207.996475
 30
0.0
 10
115.545540
 20
211.066641
 30
0.0
 10
123.779904
 20
215.609651
 30
0.0
 10
131.047504
 20
220.992394
 30
0.0
  0
SPLINE
  5
109
100
AcDbEntity
  8
Layer_1
 62
7
100
AcDbSpline
 70
8
 71
3
 72
8
 73
4
 74
0
 40
0
 40
0
 40
0
 40
0
 40
1
 40
1
 40
1
 40
1
 10
131.047504
 20
220.992394
 30
0.0
 10
136.599546
 20
225.104513
 30
0.0
 10
139.039786
 20
226.519987
 30
0.0
 10
140.576918
 20
226.519987
 30
0.0
  0
SPLINE
  5
10a
100
AcDbEntity
  8
Layer_1
 62
7
100
AcDbSpline
 70
8
 71
3
 72
8
 73
4
 74
0
 40
0
 40
0
 40
0
 40
0
 40
1
 40
1
 40
1
 40
1
 10
140.576918
 20
226.519987
 30
0.0
 10
141.713354
 20
226.519987
 30
0.0
 10
142.643163
 20
226.287097
 30
0.0
 10
142.643163
 20
226.002459
 30
0.0
  0
SPLINE
  5
10b
100
AcDbEntity
  8
Layer_1
 62
7
100
AcDbSpline
 70
8
 71
3
 72
8
 73
4
 74
0
 40
0
 40
0
 40
0
 40
0
 40
1
 40
1
 40
1
 40
1
 10
142.643163
 20
226.002459
 30
0.0
 10
142.643163
 20
225.717818
 30
0.0
 10
140.561269
 20
223.776138
 30
0.0
 10
138.016734
 20
221.687614
 30
0.0
  0
SPLINE
  5
10c
100
AcDbEntity
  8
Layer_1
 62
7
100
AcDbSpline
 70
8
 71
3
 72
8
 73
4
 74
0
 40
0
 40
0
 40
0
 40
0
 40
1
 40
1
 40
1
 40
1
 10
138.016734
 20
221.687614
 30
0.0
 10
132.855437
 20
217.451284
 30
0.0
 10
124.822845
 20
209.131263
 30
0.0
 10
124.822845
 20
208.021616
 30
0.0
  0
SPLINE
  5
10d
100
AcDbEntity
  8
Layer_1
 62
7
100
AcDbSpline
 70
8
 71
3
 72
8
 73
4
 74
0
 40
0
 40
0
 40
0
 40
0
 40
1
 40
1
 40
1
 40
1
 10
124.822845
 20
208.021616
 30
0.0
 10
124.822845
 20
207.558859
 30
0.0
 10
125.740025
 20
207.669670
 30
0.0
 10
127.393085
 20
208.332142
 30
0.0
  0
SPLINE
  5
10e
100
AcDbEntity
  8
Layer_1
 62
7
100
AcDbSpline
 70
8
 71
3
 72
8
 73
4
 74
0
 40
0
 40
0
 40
0
 40
0
 40
1
 40
1
 40
1
 40
1
 10
127.393085
 20
208.332142
 30
0.0
 10
132.749708
 20
210.478831
 30
0.0
 10
137.600507
 20
213.817969
 30
0.0
 10
144.426573
 20
220.057471
 30
0.0
  0
SPLINE
  5
10f
100
AcDbEntity
  8
Layer_1
 62
7
100
AcDbSpline
 70
8
 71
3
 72
8
 73
4
 74
0
 40
0
 40
0
 40
0
 40
0
 40
1
 40
1
 40
1
 40
1
 10
144.426573
 20
220.057471
 30
0.0
 10
149.189093
 20
224.410745
 30
0.0
 10
151.826426
 20
226.377197
 30
0.0
 10
152.545071
 20
226.110807
 30
0.0
  0
SPLINE
  5
110
100
AcDbEntity
  8
Layer_1
 62
7
100
AcDbSpline
 70
8
 71
3
 72
8
 73
4
 74
0
 40
0
 40
0
 40
0
 40
0
 40
1
 40
1
 40
1
 40
1
 10
152.545071
 20
226.110807
 30
0.0
 10
153.130515
 20
225.893798
 30
0.0
 10
153.609511
 20
225.465655
 30
0.0
 10
153.609511
 20
225.159379
 30
0.0
  0
SPLINE
  5
111
100
AcDbEntity
  8
Layer_1
 62
7
100
AcDbSpline
 70
8
 71
3
 72
8
 73
4
 74
0
 40
0
 40
0
 40
0
 40
0
 40
1
 40
1
 40
1
 40
1
 10
153.609511
 20
225.159379
 30
0.0
 10
153.609511
 20
224.388935
 30
0.0
 10
147.574751
 20
217.540009
 30
0.0
 10
143.748754
 20
213.968272
 30
0.0
  0
SPLINE
  5
112
100
AcDbEntity
  8
Layer_1
 62
7
100
AcDbSpline
 70
8
 71
3
 72
8
 73
4
 74
0
 40
0
 40
0
 40
0
 40
0
 40
1
 40
1
 40
1
 40
1
 10
143.748754
 20
213.968272
 30
0.0
 10
137.918153
 20
208.525162
 30
0.0
 10
140.067044
 20
208.537264
 30
0.0
 10
149.082972
 20
213.998332
 30
0.0
  0
SPLINE
  5
113
100
AcDbEntity
  8
Layer_1
 62
7
100
AcDbSpline
 70
8
 71
3
 72
8
 73
4
 74
0
 40
0
 40
0
 40
0
 40
0
 40
1
 40
1
 40
1
 40
1
 10
149.082972
 20
213.998332
 30
0.0
 10
155.123027
 20
217.656837
 30
0.0
 10
157.721893
 20
218.449354
 30
0.0
 10
157.721893
 20
216.632712
 30
0.0
  0
SPLINE
  5
114
100
AcDbEntity
  8
Layer_1
 62
7
100
AcDbSpline
 70
8
 71
3
 72
8
 73
4
 74
0
 40
0
 40
0
 40
0
 40
0
 40
1
 40
1
 40
1
 40
1
 10
157.721893
 20
216.632712
 30
0.0
 10
157.721893
 20
216.269817
 30
0.0
 10
156.796607
 20
214.954921
 30
0.0
 10
155.665703
 20
213.710719
 30
0.0
  0
SPLINE
  5
115
100
AcDbEntity
  8
Layer_1
 62
7
100
AcDbSpline
 70
8
 71
3
 72
8
 73
4
 74
0
 40
0
 40
0
 40
0
 40
0
 40
1
 40
1
 40
1
 40
1
 10
155.665703
 20
213.710719
 30
0.0
 10
154.534797
 20
212.466525
 30
0.0
 10
153.609511
 20
211.115460
 30
0.0
 10
153.609511
 20
210.708351
 30
0.0
  0
SPLINE
  5
116
100
AcDbEntity
  8
Layer_1
 62
7
100
AcDbSpline
 70
8
 71
3
 72
8
 73
4
 74
0
 40
0
 40
0
 40
0
 40
0
 40
1
 40
1
 40
1
 40
1
 10
153.609511
 20
210.708351
 30
0.0
 10
153.609511
 20
210.218247
 30
0.0
 10
155.751499
 20
209.958431
 30
0.0
 10
159.949433
 20
209.939335
 30
0.0
  0
SPLINE
  5
117
100
AcDbEntity
  8
Layer_1
 62
7
100
AcDbSpline
 70
8
 71
3
 72
8
 73
4
 74
0
 40
0
 40
0
 40
0
 40
0
 40
1
 40
1
 40
1
 40
1
 10
159.949433
 20
209.939335
 30
0.0
 10
163.436387
 20
209.923503
 30
0.0
 10
167.588960
 20
209.667527
 30
0.0
 10
169.177369
 20
209.370562
 30
0.0
  0
SPLINE
  5
118
100
AcDbEntity
  8
Layer_1
 62
7
100
AcDbSpline
 70
8
 71
3
 72
8
 73
4
 74
0
 40
0
 40
0
 40
0
 40
0
 40
1
 40
1
 40
1
 40
1
 10
169.177369
 20
209.370562
 30
0.0
 10
172.567690
 20
208.736713
 30
0.0
 10
173.230317
 20
209.509517
 30
0.0
 10
171.327479
 20
211.878157
 30
0.0
  0
SPLINE
  5
119
100
AcDbEntity
  8
Layer_1
 62
7
100
AcDbSpline
 70
8
 71
3
 72
8
 73
4
 74
0
 40
0
 40
0
 40
0
 40
0
 40
1
 40
1
 40
1
 40
1
 10
171.327479
 20
211.878157
 30
0.0
 10
170.629834
 20
212.746577
 30
0.0
 10
170.059034
 20
213.963136
 30
0.0
 10
170.059034
 20
214.581617
 30
0.0
  0
SPLINE
  5
11a
100
AcDbEntity
  8
Layer_1
 62
7
100
AcDbSpline
 70
8
 71
3
 72
8
 73
4
 74
0
 40
0
 40
0
 40
0
 40
0
 40
1
 40
1
 40
1
 40
1
 10
170.059034
 20
214.581617
 30
0.0
 10
170.059034
 20
215.200099
 30
0.0
 10
169.827713
 20
215.929062
 30
0.0
 10
169.544989
 20
216.201536
 30
0.0
  0
SPLINE
  5
11b
100
AcDbEntity
  8
Layer_1
 62
7
100
AcDbSpline
 70
8
 71
3
 72
8
 73
4
 74
0
 40
0
 40
0
 40
0
 40
0
 40
1
 40
1
 40
1
 40
1
 10
169.544989
 20
216.201536
 30
0.0
 10
169.262261
 20
216.474005
 30
0.0
 10
168.567763
 20
218.381762
 30
0.0
 10
168.001651
 20
220.440988
 30
0.0
  0
SPLINE
  5
11c
100
AcDbEntity
  8
Layer_1
 62
7
100
AcDbSpline
 70
8
 71
3
 72
8
 73
4
 74
0
 40
0
 40
0
 40
0
 40
0
 40
1
 40
1
 40
1
 40
1
 10
168.001651
 20
220.440988
 30
0.0
 10
167.305282
 20
222.974048
 30
0.0
 10
166.584799
 20
224.257140
 30
0.0
 10
165.774113
 20
224.407951
 30
0.0
  0
SPLINE
  5
11d
100
AcDbEntity
  8
Layer_1
 62
7
100
AcDbSpline
 70
8
 71
3
 72
8
 73
4
 74
0
 40
0
 40
0
 40
0
 40
0
 40
1
 40
1
 40
1
 40
1
 10
165.774113
 20
224.407951
 30
0.0
 10
164.916716
 20
224.567449
 30
0.0
 10
164.567608
 20
224.193299
 30
0.0
 10
164.546847
 20
223.092649
 30
0.0
  0
SPLINE
  5
11e
100
AcDbEntity
  8
Layer_1
 62
7
100
AcDbSpline
 70
8
 71
3
 72
8
 73
4
 74
0
 40
0
 40
0
 40
0
 40
0
 40
1
 40
1
 40
1
 40
1
 10
164.546847
 20
223.092649
 30
0.0
 10
164.502022
 20
220.717188
 30
0.0
 10
157.721893
 20
216.985908
 30
0.0
 10
157.721893
 20
219.336714
 30
0.0
  0
SPLINE
  5
11f
100
AcDbEntity
  8
Layer_1
 62
7
100
AcDbSpline
 70
8
 71
3
 72
8
 73
4
 74
0
 40
0
 40
0
 40
0
 40
0
 40
1
 40
1
 40
1
 40
1
 10
157.721893
 20
219.336714
 30
0.0
 10
157.721893
 20
219.755594
 30
0.0
 10
158.488070
 20
221.617674
 30
0.0
 10
159.424514
 20
223.474668
 30
0.0
  0
SPLINE
  5
120
100
AcDbEntity
  8
Layer_1
 62
7
100
AcDbSpline
 70
8
 71
3
 72
8
 73
4
 74
0
 40
0
 40
0
 40
0
 40
0
 40
1
 40
1
 40
1
 40
1
 10
159.424514
 20
223.474668
 30
0.0
 10
160.360958
 20
225.331662
 30
0.0
 10
161.339423
 20
227.893785
 30
0.0
 10
161.598887
 20
229.168276
 30
0.0
  0
SPLINE
  5
121
100
AcDbEntity
  8
Layer_1
 62
7
100
AcDbSpline
 70
8
 71
3
 72
8
 73
4
 74
0
 40
0
 40
0
 40
0
 40
0
 40
1
 40
1
 40
1
 40
1
 10
159.529715
 20
229.333796
 30
0.0
 10
156.822146
 20
227.040930
 30
0.0
 10
154.294908
 20
226.500708
 30
0.0
 10
154.294908
 20
228.214799
 30
0.0
  0
SPLINE
  5
122
100
AcDbEntity
  8
Layer_1
 62
7
100
AcDbSpline
 70
8
 71
3
 72
8
 73
4
 74
0
 40
0
 40
0
 40
0
 40
0
 40
1
 40
1
 40
1
 40
1
 10
154.294908
 20
228.214799
 30
0.0
 10
154.294908
 20
228.782808
 30
0.0
 10
155.775914
 20
230.793853
 30
0.0
 10
157.586039
 20
232.683791
 30
0.0
  0
SPLINE
  5
123
100
AcDbEntity
  8
Layer_1
 62
7
100
AcDbSpline
 70
8
 71
3
 72
8
 73
4
 74
0
 40
0
 40
0
 40
0
 40
0
 40
1
 40
1
 40
1
 40
1
 10
157.586039
 20
232.683791
 30
0.0
 10
159.396159
 20
234.573729
 30
0.0
 10
161.395557
 20
236.920928
 30
0.0
 10
162.029146
 20
237.899796
 30
0.0
  0
SPLINE
  5
124
100
AcDbEntity
  8
Layer_1
 62
7
100
AcDbSpline
 70
8
 71
3
 72
8
 73
4
 74
0
 40
0
 40
0
 40
0
 40
0
 40
1
 40
1
 40
1
 40
1
 10
162.029146
 20
237.899796
 30
0.0
 10
163.129934
 20
239.600465
 30
0.0
 10
163.120742
 20
239.698063
 30
0.0
 10
161.822299
 20
240.096146
 30
0.0
  0
SPLINE
  5
125
100
AcDbEntity
  8
Layer_1
 62
7
100
AcDbSpline
 70
8
 71
3
 72
8
 73
4
 74
0
 40
0
 40
0
 40
0
 40
0
 40
1
 40
1
 40
1
 40
1
 10
161.822299
 20
240.096146
 30
0.0
 10
159.977986
 20
240.661589
 30
0.0
 10
160.103352
 20
241.305378
 30
0.0
 10
162.590669
 20
244.041875
 30
0.0
  0
SPLINE
  5
126
100
AcDbEntity
  8
Layer_1
 62
7
100
AcDbSpline
 70
8
 71
3
 72
8
 73
4
 74
0
 40
0
 40
0
 40
0
 40
0
 40
1
 40
1
 40
1
 40
1
 10
162.590669
 20
244.041875
 30
0.0
 10
164.106233
 20
245.709264
 30
0.0
 10
165.288666
 20
246.382166
 30
0.0
 10
166.703050
 20
246.382166
 30
0.0
  0
SPLINE
  5
127
100
AcDbEntity
  8
Layer_1
 62
7
100
AcDbSpline
 70
8
 71
3
 72
8
 73
4
 74
0
 40
0
 40
0
 40
0
 40
0
 40
1
 40
1
 40
1
 40
1
 10
166.703050
 20
246.382166
 30
0.0
 10
168.010733
 20
246.382166
 30
0.0
 10
168.688241
 20
246.721095
 30
0.0
 10
168.688241
 20
247.375275
 30
0.0
  0
SPLINE
  5
128
100
AcDbEntity
  8
Layer_1
 62
7
100
AcDbSpline
 70
8
 71
3
 72
8
 73
4
 74
0
 40
0
 40
0
 40
0
 40
0
 40
1
 40
1
 40
1
 40
1
 10
168.688241
 20
247.375275
 30
0.0
 10
168.688241
 20
248.680062
 30
0.0
 10
164.197165
 20
248.680062
 30
0.0
 10
161.834274
 20
247.375275
 30
0.0
  0
SPLINE
  5
129
100
AcDbEntity
  8
Layer_1
 62
7
100
AcDbSpline
 70
8
 71
3
 72
8
 73
4
 74
0
 40
0
 40
0
 40
0
 40
0
 40
1
 40
1
 40
1
 40
1
 10
161.834274
 20
247.375275
 30
0.0
 10
159.370497
 20
246.014783
 30
0.0
 10
156.877921
 20
246.090949
 30
0.0
 10
157.162438
 20
247.518037
 30
0.0
  0
SPLINE
  5
12a
100
AcDbEntity
  8
Layer_1
 62
7
100
AcDbSpline
 70
8
 71
3
 72
8
 73
4
 74
0
 40
0
 40
0
 40
0
 40
0
 40
1
 40
1
 40
1
 40
1
 10
157.162438
 20
247.518037
 30
0.0
 10
157.395150
 20
248.685300
 30
0.0
 10
158.432579
 20
249.321067
 30
0.0
 10
164.061812
 20
251.746172
 30
0.0
  0
SPLINE
  5
12b
100
AcDbEntity
  8
Layer_1
 62
7
100
AcDbSpline
 70
8
 71
3
 72
8
 73
4
 74
0
 40
0
 40
0
 40
0
 40
0
 40
1
 40
1
 40
1
 40
1
 10
164.061812
 20
251.746172
 30
0.0
 10
165.852413
 20
252.517573
 30
0.0
 10
167.317448
 20
253.437513
 30
0.0
 10
167.317448
 20
253.790482
 30
0.0
  0
SPLINE
  5
12c
100
AcDbEntity
  8
Layer_1
 62
7
100
AcDbSpline
 70
8
 71
3
 72
8
 73
4
 74
0
 40
0
 40
0
 40
0
 40
0
 40
1
 40
1
 40
1
 40
1
 10
167.317448
 20
253.790482
 30
0.0
 10
167.317448
 20
254.591833
 30
0.0
 10
164.575038
 20
254.082111
 30
0.0
 10
157.065131
 20
251.884929
 30
0.0
  0
SPLINE
  5
12d
100
AcDbEntity
  8
Layer_1
 62
7
100
AcDbSpline
 70
8
 71
3
 72
8
 73
4
 74
0
 40
0
 40
0
 40
0
 40
0
 40
1
 40
1
 40
1
 40
1
 10
157.065131
 20
251.884929
 30
0.0
 10
150.480731
 20
249.958520
 30
0.0
 10
147.381996
 20
249.645375
 30
0.0
 10
146.939189
 20
250.861645
 30
0.0
  0
SPLINE
  5
12e
100
AcDbEntity
  8
Layer_1
 62
7
100
AcDbSpline
 70
8
 71
3
 72
8
 73
4
 74
0
 40
0
 40
0
 40
0
 40
0
 40
1
 40
1
 40
1
 40
1
 10
146.939189
 20
250.861645
 30
0.0
 10
146.494133
 20
252.084108
 30
0.0
 10
152.982230
 20
254.650103
 30
0.0
 10
159.796308
 20
255.946539
 30
0.0
  0
SPLINE
  5
12f
100
AcDbEntity
  8
Layer_1
 62
7
100
AcDbSpline
 70
8
 71
3
 72
8
 73
4
 74
0
 40
0
 40
0
 40
0
 40
0
 40
1
 40
1
 40
1
 40
1
 10
159.796308
 20
255.946539
 30
0.0
 10
162.990510
 20
256.554262
 30
0.0
 10
166.806403
 20
257.496560
 30
0.0
 10
168.276064
 20
258.040532
 30
0.0
  0
SPLINE
  5
130
100
AcDbEntity
  8
Layer_1
 62
7
100
AcDbSpline
 70
8
 71
3
 72
8
 73
4
 74
0
 40
0
 40
0
 40
0
 40
0
 40
1
 40
1
 40
1
 40
1
 10
168.276064
 20
258.040532
 30
0.0
 10
170.008460
 20
258.681752
 30
0.0
 10
171.182750
 20
258.802972
 30
0.0
 10
171.615216
 20
258.385224
 30
0.0
  0
SPLINE
  5
131
100
AcDbEntity
  8
Layer_1
 62
7
100
AcDbSpline
 70
8
 71
3
 72
8
 73
4
 74
0
 40
0
 40
0
 40
0
 40
0
 40
1
 40
1
 40
1
 40
1
 10
171.615216
 20
258.385224
 30
0.0
 10
172.606101
 20
257.428062
 30
0.0
 10
174.171415
 20
258.253708
 30
0.0
 10
174.171415
 20
259.733529
 30
0.0
  0
SPLINE
  5
132
100
AcDbEntity
  8
Layer_1
 62
7
100
AcDbSpline
 70
8
 71
3
 72
8
 73
4
 74
0
 40
0
 40
0
 40
0
 40
0
 40
1
 40
1
 40
1
 40
1
 10
174.171415
 20
259.733529
 30
0.0
 10
174.171415
 20
260.444340
 30
0.0
 10
173.886100
 20
260.855577
 30
0.0
 10
173.537383
 20
260.647393
 30
0.0
  0
SPLINE
  5
133
100
AcDbEntity
  8
Layer_1
 62
7
100
AcDbSpline
 70
8
 71
3
 72
8
 73
4
 74
0
 40
0
 40
0
 40
0
 40
0
 40
1
 40
1
 40
1
 40
1
 10
173.537383
 20
260.647393
 30
0.0
 10
172.598430
 20
260.086838
 30
0.0
 10
169.373637
 20
261.682237
 30
0.0
 10
169.373637
 20
262.707322
 30
0.0
  0
SPLINE
  5
134
100
AcDbEntity
  8
Layer_1
 62
7
100
AcDbSpline
 70
8
 71
3
 72
8
 73
4
 74
0
 40
0
 40
0
 40
0
 40
0
 40
1
 40
1
 40
1
 40
1
 10
169.373637
 20
262.707322
 30
0.0
 10
169.373637
 20
263.194037
 30
0.0
 10
170.376032
 20
263.998519
 30
0.0
 10
171.601178
 20
264.495061
 30
0.0
  0
SPLINE
  5
135
100
AcDbEntity
  8
Layer_1
 62
7
100
AcDbSpline
 70
8
 71
3
 72
8
 73
4
 74
0
 40
0
 40
0
 40
0
 40
0
 40
1
 40
1
 40
1
 40
1
 10
171.601178
 20
264.495061
 30
0.0
 10
174.224383
 20
265.558221
 30
0.0
 10
175.806622
 20
264.781728
 30
0.0
 10
175.141554
 20
262.757600
 30
0.0
  0
SPLINE
  5
136
100
AcDbEntity
  8
Layer_1
 62
7
100
AcDbSpline
 70
8
 71
3
 72
8
 73
4
 74
0
 40
0
 40
0
 40
0
 40
0
 40
1
 40
1
 40
1
 40
1
 10
175.141554
 20
262.757600
 30
0.0
 10
174.855694
 20
261.887579
 30
0.0
 10
174.966187
 20
261.596989
 30
0.0
 10
175.468782
 20
261.897036
 30
0.0
  0
SPLINE
  5
137
100
AcDbEntity
  8
Layer_1
 62
7
100
AcDbSpline
 70
8
 71
3
 72
8
 73
4
 74
0
 40
0
 40
0
 40
0
 40
0
 40
1
 40
1
 40
1
 40
1
 10
175.468782
 20
261.897036
 30
0.0
 10
175.886135
 20
262.146199
 30
0.0
 10
176.227607
 20
262.779373
 30
0.0
 10
176.227607
 20
263.304095
 30
0.0
  0
SPLINE
  5
138
100
AcDbEntity
  8
Layer_1
 62
7
100
AcDbSpline
 70
8
 71
3
 72
8
 73
4
 74
0
 40
0
 40
0
 40
0
 40
0
 40
1
 40
1
 40
1
 40
1
 10
176.227607
 20
263.304095
 30
0.0
 10
176.227607
 20
263.828814
 30
0.0
 10
176.536034
 20
264.258130
 30
0.0
 10
176.913004
 20
264.258130
 30
0.0
  0
SPLINE
  5
139
100
AcDbEntity
  8
Layer_1
 62
7
100
AcDbSpline
 70
8
 71
3
 72
8
 73
4
 74
0
 40
0
 40
0
 40
0
 40
0
 40
1
 40
1
 40
1
 40
1
 10
176.913004
 20
264.258130
 30
0.0
 10
177.289971
 20
264.258130
 30
0.0
 10
177.598400
 20
264.714379
 30
0.0
 10
177.598400
 20
265.272016
 30
0.0
  0
SPLINE
  5
13a
100
AcDbEntity
  8
Layer_1
 62
7
100
AcDbSpline
 70
8
 71
3
 72
8
 73
4
 74
0
 40
0
 40
0
 40
0
 40
0
 40
1
 40
1
 40
1
 40
1
 10
177.598400
 20
265.272016
 30
0.0
 10
177.598400
 20
265.829656
 30
0.0
 10
178.061041
 20
266.457397
 30
0.0
 10
178.626496
 20
266.666998
 30
0.0
  0
SPLINE
  5
13b
100
AcDbEntity
  8
Layer_1
 62
7
100
AcDbSpline
 70
8
 71
3
 72
8
 73
4
 74
0
 40
0
 40
0
 40
0
 40
0
 40
1
 40
1
 40
1
 40
1
 10
178.626496
 20
266.666998
 30
0.0
 10
179.191948
 20
266.876596
 30
0.0
 10
179.654589
 20
267.594496
 30
0.0
 10
179.654589
 20
268.262327
 30
0.0
  0
SPLINE
  5
13c
100
AcDbEntity
  8
Layer_1
 62
7
100
AcDbSpline
 70
8
 71
3
 72
8
 73
4
 74
0
 40
0
 40
0
 40
0
 40
0
 40
1
 40
1
 40
1
 40
1
 10
179.654589
 20
268.262327
 30
0.0
 10
179.654589
 20
268.930157
 30
0.0
 10
179.963019
 20
269.660695
 30
0.0
 10
180.339986
 20
269.885748
 30
0.0
  0
SPLINE
  5
13d
100
AcDbEntity
  8
Layer_1
 62
7
100
AcDbSpline
 70
8
 71
3
 72
8
 73
4
 74
0
 40
0
 40
0
 40
0
 40
0
 40
1
 40
1
 40
1
 40
1
 10
180.339986
 20
269.885748
 30
0.0
 10
182.081147
 20
270.925223
 30
0.0
 10
180.710177
 20
271.958785
 30
0.0
 10
176.588316
 20
272.714085
 30
0.0
  0
SPLINE
  5
13e
100
AcDbEntity
  8
Layer_1
 62
7
100
AcDbSpline
 70
8
 71
3
 72
8
 73
4
 74
0
 40
0
 40
0
 40
0
 40
0
 40
1
 40
1
 40
1
 40
1
 10
176.588316
 20
272.714085
 30
0.0
 10
169.458375
 20
274.020597
 30
0.0
 10
164.314635
 20
273.695206
 30
0.0
 10
153.496524
 20
271.253306
 30
0.0
  0
SPLINE
  5
13f
100
AcDbEntity
  8
Layer_1
 62
7
100
AcDbSpline
 70
8
 71
3
 72
8
 73
4
 74
0
 40
0
 40
0
 40
0
 40
0
 40
1
 40
1
 40
1
 40
1
 10
153.496524
 20
271.253306
 30
0.0
 10
134.817344
 20
267.036980
 30
0.0
 10
118.998303
 20
261.942499
 30
0.0
 10
98.880199
 20
253.664267
 30
0.0
  0
SPLINE
  5
140
100
AcDbEntity
  8
Layer_1
 62
7
100
AcDbSpline
 70
8
 71
3
 72
8
 73
4
 74
0
 40
0
 40
0
 40
0
 40
0
 40
1
 40
1
 40
1
 40
1
 10
98.880199
 20
253.664267
 30
0.0
 10
94.232174
 20
251.751689
 30
0.0
 10
92.121905
 20
251.473898
 30
0.0
 10
93.682987
 20
252.980112
 30
0.0
  0
SPLINE
  5
141
100
AcDbEntity
  8
Layer_1
 62
7
100
AcDbSpline
 70
8
 71
3
 72
8
 73
4
 74
0
 40
0
 40
0
 40
0
 40
0
 40
1
 40
1
 40
1
 40
1
 10
93.682987
 20
252.980112
 30
0.0
 10
94.786721
 20
254.045067
 30
0.0
 10
112.352653
 20
260.861693
 30
0.0
 10
123.794751
 20
264.665275
 30
0.0
  0
SPLINE
  5
142
100
AcDbEntity
  8
Layer_1
 62
7
100
AcDbSpline
 70
8
 71
3
 72
8
 73
4
 74
0
 40
0
 40
0
 40
0
 40
0
 40
1
 40
1
 40
1
 40
1
 10
123.794751
 20
264.665275
 30
0.0
 10
148.552086
 20
272.895108
 30
0.0
 10
169.849969
 20
276.833257
 30
0.0
 10
176.227607
 20
274.360525
 30
0.0
  0
SPLINE
  5
143
100
AcDbEntity
  8
Layer_1
 62
7
100
AcDbSpline
 70
8
 71
3
 72
8
 73
4
 74
0
 40
0
 40
0
 40
0
 40
0
 40
1
 40
1
 40
1
 40
1
 10
176.227607
 20
274.360525
 30
0.0
 10
177.170026
 20
273.995132
 30
0.0
 10
178.592951
 20
273.931426
 30
0.0
 10
179.389656
 20
274.218956
 30
0.0
  0
SPLINE
  5
144
100
AcDbEntity
  8
Layer_1
 62
7
100
AcDbSpline
 70
8
 71
3
 72
8
 73
4
 74
0
 40
0
 40
0
 40
0
 40
0
 40
1
 40
1
 40
1
 40
1
 10
179.389656
 20
274.218956
 30
0.0
 10
180.315387
 20
274.553051
 30
0.0
 10
182.869795
 20
274.187974
 30
0.0
 10
186.466858
 20
273.207475
 30
0.0
  0
SPLINE
  5
145
100
AcDbEntity
  8
Layer_1
 62
7
100
AcDbSpline
 70
8
 71
3
 72
8
 73
4
 74
0
 40
0
 40
0
 40
0
 40
0
 40
1
 40
1
 40
1
 40
1
 10
186.466858
 20
273.207475
 30
0.0
 10
191.317268
 20
271.885340
 30
0.0
 10
192.514759
 20
271.250529
 30
0.0
 10
195.127903
 20
268.616118
 30
0.0
  0
SPLINE
  5
146
100
AcDbEntity
  8
Layer_1
 62
7
100
AcDbSpline
 70
8
 71
3
 72
8
 73
4
 74
0
 40
0
 40
0
 40
0
 40
0
 40
1
 40
1
 40
1
 40
1
 10
195.127903
 20
268.616118
 30
0.0
 10
196.795720
 20
266.934717
 30
0.0
 10
198.160304
 20
264.968390
 30
0.0
 10
198.160304
 20
264.246505
 30
0.0
  0
SPLINE
  5
147
100
AcDbEntity
  8
Layer_1
 62
7
100
AcDbSpline
 70
8
 71
3
 72
8
 73
4
 74
0
 40
0
 40
0
 40
0
 40
0
 40
1
 40
1
 40
1
 40
1
 10
198.160304
 20
264.246505
 30
0.0
 10
198.160304
 20
263.524618
 30
0.0
 10
198.483420
 20
262.933983
 30
0.0
 10
198.878340
 20
262.933983
 30
0.0
  0
SPLINE
  5
148
100
AcDbEntity
  8
Layer_1
 62
7
100
AcDbSpline
 70
8
 71
3
 72
8
 73
4
 74
0
 40
0
 40
0
 40
0
 40
0
 40
1
 40
1
 40
1
 40
1
 10
198.878340
 20
262.933983
 30
0.0
 10
199.273259
 20
262.933983
 30
0.0
 10
201.123829
 20
261.458508
 30
0.0
 10
202.990721
 20
259.655148
 30
0.0
  0
SPLINE
  5
149
100
AcDbEntity
  8
Layer_1
 62
7
100
AcDbSpline
 70
8
 71
3
 72
8
 73
4
 74
0
 40
0
 40
0
 40
0
 40
0
 40
1
 40
1
 40
1
 40
1
 10
202.990721
 20
259.655148
 30
0.0
 10
206.309417
 20
256.449385
 30
0.0
 10
207.376240
 20
253.672773
 30
0.0
 10
205.678642
 20
252.659302
 30
0.0
  0
SPLINE
  5
14a
100
AcDbEntity
  8
Layer_1
 62
7
100
AcDbSpline
 70
8
 71
3
 72
8
 73
4
 74
0
 40
0
 40
0
 40
0
 40
0
 40
1
 40
1
 40
1
 40
1
 10
205.678642
 20
252.659302
 30
0.0
 10
204.754556
 20
252.107622
 30
0.0
 10
205.510226
 20
248.160883
 30
0.0
 10
207.222073
 20
244.598239
 30
0.0
  0
SPLINE
  5
14b
100
AcDbEntity
  8
Layer_1
 62
7
100
AcDbSpline
 70
8
 71
3
 72
8
 73
4
 74
0
 40
0
 40
0
 40
0
 40
0
 40
1
 40
1
 40
1
 40
1
 10
207.222073
 20
244.598239
 30
0.0
 10
209.337529
 20
240.195592
 30
0.0
 10
208.976084
 20
239.633200
 30
0.0
 10
202.188964
 20
236.766903
 30
0.0
  0
SPLINE
  5
14c
100
AcDbEntity
  8
Layer_1
 62
7
100
AcDbSpline
 70
8
 71
3
 72
8
 73
4
 74
0
 40
0
 40
0
 40
0
 40
0
 40
1
 40
1
 40
1
 40
1
 10
202.188964
 20
236.766903
 30
0.0
 10
200.413643
 20
236.017163
 30
0.0
 10
199.339674
 20
234.931567
 30
0.0
 10
198.419283
 20
232.956423
 30
0.0
  0
SPLINE
  5
14d
100
AcDbEntity
  8
Layer_1
 62
7
100
AcDbSpline
 70
8
 71
3
 72
8
 73
4
 74
0
 40
0
 40
0
 40
0
 40
0
 40
1
 40
1
 40
1
 40
1
 10
198.419283
 20
232.956423
 30
0.0
 10
197.711390
 20
231.437300
 30
0.0
 10
195.975602
 20
228.902623
 30
0.0
 10
194.561971
 20
227.323807
 30
0.0
  0
SPLINE
  5
14e
100
AcDbEntity
  8
Layer_1
 62
7
100
AcDbSpline
 70
8
 71
3
 72
8
 73
4
 74
0
 40
0
 40
0
 40
0
 40
0
 40
1
 40
1
 40
1
 40
1
 10
194.561971
 20
227.323807
 30
0.0
 10
193.148339
 20
225.744993
 30
0.0
 10
191.991734
 20
224.003025
 30
0.0
 10
191.991734
 20
223.452768
 30
0.0
  0
SPLINE
  5
14f
100
AcDbEntity
  8
Layer_1
 62
7
100
AcDbSpline
 70
8
 71
3
 72
8
 73
4
 74
0
 40
0
 40
0
 40
0
 40
0
 40
1
 40
1
 40
1
 40
1
 10
191.991734
 20
223.452768
 30
0.0
 10
191.991734
 20
222.902513
 30
0.0
 10
192.783584
 20
221.147085
 30
0.0
 10
193.751414
 20
219.551821
 30
0.0
  0
SPLINE
  5
150
100
AcDbEntity
  8
Layer_1
 62
7
100
AcDbSpline
 70
8
 71
3
 72
8
 73
4
 74
0
 40
0
 40
0
 40
0
 40
0
 40
1
 40
1
 40
1
 40
1
 10
193.751414
 20
219.551821
 30
0.0
 10
196.133325
 20
215.625712
 30
0.0
 10
196.783779
 20
209.862238
 30
0.0
 10
194.990350
 20
208.574023
 30
0.0
  0
SPLINE
  5
151
100
AcDbEntity
  8
Layer_1
 62
7
100
AcDbSpline
 70
8
 71
3
 72
8
 73
4
 74
0
 40
0
 40
0
 40
0
 40
0
 40
1
 40
1
 40
1
 40
1
 10
194.990350
 20
208.574023
 30
0.0
 10
194.283536
 20
208.066311
 30
0.0
 10
193.705226
 20
207.055050
 30
0.0
 10
193.705226
 20
206.326770
 30
0.0
  0
SPLINE
  5
152
100
AcDbEntity
  8
Layer_1
 62
7
100
AcDbSpline
 70
8
 71
3
 72
8
 73
4
 74
0
 40
0
 40
0
 40
0
 40
0
 40
1
 40
1
 40
1
 40
1
 10
193.705226
 20
206.326770
 30
0.0
 10
193.705226
 20
205.182965
 30
0.0
 10
193.285158
 20
205.017177
 30
0.0
 10
190.620938
 20
205.109463
 30
0.0
  0
SPLINE
  5
153
100
AcDbEntity
  8
Layer_1
 62
7
100
AcDbSpline
 70
8
 71
3
 72
8
 73
4
 74
0
 40
0
 40
0
 40
0
 40
0
 40
1
 40
1
 40
1
 40
1
 10
190.620938
 20
205.109463
 30
0.0
 10
188.924582
 20
205.168253
 30
0.0
 10
186.302941
 20
205.385203
 30
0.0
 10
184.795067
 20
205.591637
 30
0.0
  0
SPLINE
  5
154
100
AcDbEntity
  8
Layer_1
 62
7
100
AcDbSpline
 70
8
 71
3
 72
8
 73
4
 74
0
 40
0
 40
0
 40
0
 40
0
 40
1
 40
1
 40
1
 40
1
 10
184.795067
 20
205.591637
 30
0.0
 10
183.287193
 20
205.798063
 30
0.0
 10
180.357122
 20
206.140077
 30
0.0
 10
178.283797
 20
206.351656
 30
0.0
  0
SPLINE
  5
155
100
AcDbEntity
  8
Layer_1
 62
7
100
AcDbSpline
 70
8
 71
3
 72
8
 73
4
 74
0
 40
0
 40
0
 40
0
 40
0
 40
1
 40
1
 40
1
 40
1
 10
178.283797
 20
206.351656
 30
0.0
 10
176.210471
 20
206.563241
 30
0.0
 10
171.892471
 20
207.198308
 30
0.0
 10
168.688241
 20
207.762922
 30
0.0
  0
SPLINE
  5
156
100
AcDbEntity
  8
Layer_1
 62
7
100
AcDbSpline
 70
8
 71
3
 72
8
 73
4
 74
0
 40
0
 40
0
 40
0
 40
0
 40
1
 40
1
 40
1
 40
1
 10
168.688241
 20
207.762922
 30
0.0
 10
165.111094
 20
208.393249
 30
0.0
 10
160.653806
 20
208.678132
 30
0.0
 10
157.140540
 20
208.500995
 30
0.0
  0
SPLINE
  5
157
100
AcDbEntity
  8
Layer_1
 62
7
100
AcDbSpline
 70
8
 71
3
 72
8
 73
4
 74
0
 40
0
 40
0
 40
0
 40
0
 40
1
 40
1
 40
1
 40
1
 10
157.140540
 20
208.500995
 30
0.0
 10
150.757794
 20
208.179175
 30
0.0
 10
149.863660
 20
208.720048
 30
0.0
 10
151.875422
 20
211.685904
 30
0.0
  0
SPLINE
  5
158
100
AcDbEntity
  8
Layer_1
 62
7
100
AcDbSpline
 70
8
 71
3
 72
8
 73
4
 74
0
 40
0
 40
0
 40
0
 40
0
 40
1
 40
1
 40
1
 40
1
 10
151.875422
 20
211.685904
 30
0.0
 10
152.512446
 20
212.625041
 30
0.0
 10
152.918310
 20
213.504835
 30
0.0
 10
152.777337
 20
213.641004
 30
0.0
  0
SPLINE
  5
159
100
AcDbEntity
  8
Layer_1
 62
7
100
AcDbSpline
 70
8
 71
3
 72
8
 73
4
 74
0
 40
0
 40
0
 40
0
 40
0
 40
1
 40
1
 40
1
 40
1
 10
152.777337
 20
213.641004
 30
0.0
 10
152.636364
 20
213.777179
 30
0.0
 10
150.483192
 20
212.709685
 30
0.0
 10
147.992507
 20
211.268791
 30
0.0
  0
SPLINE
  5
15a
100
AcDbEntity
  8
Layer_1
 62
7
100
AcDbSpline
 70
8
 71
3
 72
8
 73
4
 74
0
 40
0
 40
0
 40
0
 40
0
 40
1
 40
1
 40
1
 40
1
 10
147.992507
 20
211.268791
 30
0.0
 10
141.796485
 20
207.684329
 30
0.0
 10
135.961950
 20
205.564027
 30
0.0
 10
134.959378
 20
206.532481
 30
0.0
  0
SPLINE
  5
15b
100
AcDbEntity
  8
Layer_1
 62
7
100
AcDbSpline
 70
8
 71
3
 72
8
 73
4
 74
0
 40
0
 40
0
 40
0
 40
0
 40
1
 40
1
 40
1
 40
1
 10
134.959378
 20
206.532481
 30
0.0
 10
134.390813
 20
207.081697
 30
0.0
 10
134.979585
 20
207.954579
 30
0.0
 10
137.217266
 20
209.879942
 30
0.0
  0
SPLINE
  5
15c
100
AcDbEntity
  8
Layer_1
 62
7
100
AcDbSpline
 70
8
 71
3
 72
8
 73
4
 74
0
 40
0
 40
0
 40
0
 40
0
 40
1
 40
1
 40
1
 40
1
 10
137.217266
 20
209.879942
 30
0.0
 10
138.882117
 20
211.312414
 30
0.0
 10
140.083865
 20
212.644272
 30
0.0
 10
139.887813
 20
212.839612
 30
0.0
  0
SPLINE
  5
15d
100
AcDbEntity
  8
Layer_1
 62
7
100
AcDbSpline
 70
8
 71
3
 72
8
 73
4
 74
0
 40
0
 40
0
 40
0
 40
0
 40
1
 40
1
 40
1
 40
1
 10
139.887813
 20
212.839612
 30
0.0
 10
139.691756
 20
213.034955
 30
0.0
 10
137.554070
 20
211.980406
 30
0.0
 10
135.137404
 20
210.496165
 30
0.0
  0
SPLINE
  5
15e
100
AcDbEntity
  8
Layer_1
 62
7
100
AcDbSpline
 70
8
 71
3
 72
8
 73
4
 74
0
 40
0
 40
0
 40
0
 40
0
 40
1
 40
1
 40
1
 40
1
 10
135.137404
 20
210.496165
 30
0.0
 10
130.899019
 20
207.893080
 30
0.0
 10
124.604540
 20
205.333661
 30
0.0
 10
122.441078
 20
205.333661
 30
0.0
  0
SPLINE
  5
15f
100
AcDbEntity
  8
Layer_1
 62
7
100
AcDbSpline
 70
8
 71
3
 72
8
 73
4
 74
0
 40
0
 40
0
 40
0
 40
0
 40
1
 40
1
 40
1
 40
1
 10
122.441078
 20
205.333661
 30
0.0
 10
121.866208
 20
205.333661
 30
0.0
 10
121.395863
 20
205.765094
 30
0.0
 10
121.395863
 20
206.292395
 30
0.0
  0
SPLINE
  5
160
100
AcDbEntity
  8
Layer_1
 62
7
100
AcDbSpline
 70
8
 71
3
 72
8
 73
4
 74
0
 40
0
 40
0
 40
0
 40
0
 40
1
 40
1
 40
1
 40
1
 10
121.395863
 20
206.292395
 30
0.0
 10
121.395863
 20
207.242250
 30
0.0
 10
126.969562
 20
214.093265
 30
0.0
 10
129.165322
 20
215.842369
 30
0.0
  0
SPLINE
  5
161
100
AcDbEntity
  8
Layer_1
 62
7
100
AcDbSpline
 70
8
 71
3
 72
8
 73
4
 74
0
 40
0
 40
0
 40
0
 40
0
 40
1
 40
1
 40
1
 40
1
 10
129.165322
 20
215.842369
 30
0.0
 10
129.792705
 20
216.342133
 30
0.0
 10
130.306019
 20
217.019707
 30
0.0
 10
130.306019
 20
217.348095
 30
0.0
  0
SPLINE
  5
162
100
AcDbEntity
  8
Layer_1
 62
7
100
AcDbSpline
 70
8
 71
3
 72
8
 73
4
 74
0
 40
0
 40
0
 40
0
 40
0
 40
1
 40
1
 40
1
 40
1
 10
130.306019
 20
217.348095
 30
0.0
 10
130.306019
 20
217.676483
 30
0.0
 10
128.378342
 20
216.724169
 30
0.0
 10
126.022289
 20
215.231846
 30
0.0
  0
SPLINE
  5
163
100
AcDbEntity
  8
Layer_1
 62
7
100
AcDbSpline
 70
8
 71
3
 72
8
 73
4
 74
0
 40
0
 40
0
 40
0
 40
0
 40
1
 40
1
 40
1
 40
1
 10
126.022289
 20
215.231846
 30
0.0
 10
116.132294
 20
208.967531
 30
0.0
 10
98.777766
 20
202.576883
 30
0.0
 10
98.777766
 20
205.199292
 30
0.0
  0
LWPOLYLINE
  5
164
100
AcDbEntity
  8
Layer_1
 62
7
100
AcDbPolyline
 90
3
 70
0
 10
161.598887
 20
229.168276
 30
0.0
 10
162.070638
 20
231.485532
 30
0.0
 10
159.529715
 20
229.333796
 30
0.0
  0
SPLINE
  5
165
100
AcDbEntity
  8
Layer_1
 62
7
100
AcDbSpline
 70
8
 71
3
 72
8
 73
4
 74
0
 40
0
 40
0
 40
0
 40
0
 40
1
 40
1
 40
1
 40
1
 10
190.975666
 20
206.676607
 30
0.0
 10
191.215261
 20
207.051090
 30
0.0
 10
189.845535
 20
208.717327
 30
0.0
 10
187.931834
 20
210.379362
 30
0.0
  0
SPLINE
  5
166
100
AcDbEntity
  8
Layer_1
 62
7
100
AcDbSpline
 70
8
 71
3
 72
8
 73
4
 74
0
 40
0
 40
0
 40
0
 40
0
 40
1
 40
1
 40
1
 40
1
 10
187.931834
 20
210.379362
 30
0.0
 10
185.330840
 20
212.638294
 30
0.0
 10
184.452367
 20
213.866889
 30
0.0
 10
184.452367
 20
215.245570
 30
0.0
  0
SPLINE
  5
167
100
AcDbEntity
  8
Layer_1
 62
7
100
AcDbSpline
 70
8
 71
3
 72
8
 73
4
 74
0
 40
0
 40
0
 40
0
 40
0
 40
1
 40
1
 40
1
 40
1
 10
184.452367
 20
215.245570
 30
0.0
 10
184.452367
 20
216.843874
 30
0.0
 10
184.086647
 20
217.179571
 30
0.0
 10
181.710782
 20
217.762109
 30
0.0
  0
SPLINE
  5
168
100
AcDbEntity
  8
Layer_1
 62
7
100
AcDbSpline
 70
8
 71
3
 72
8
 73
4
 74
0
 40
0
 40
0
 40
0
 40
0
 40
1
 40
1
 40
1
 40
1
 10
181.710782
 20
217.762109
 30
0.0
 10
179.264880
 20
218.361820
 30
0.0
 10
178.969193
 20
218.304921
 30
0.0
 10
178.969193
 20
217.234596
 30
0.0
  0
SPLINE
  5
169
100
AcDbEntity
  8
Layer_1
 62
7
100
AcDbSpline
 70
8
 71
3
 72
8
 73
4
 74
0
 40
0
 40
0
 40
0
 40
0
 40
1
 40
1
 40
1
 40
1
 10
178.969193
 20
217.234596
 30
0.0
 10
178.969193
 20
216.574747
 30
0.0
 10
180.213943
 20
214.783429
 30
0.0
 10
181.735298
 20
213.253883
 30
0.0
  0
SPLINE
  5
16a
100
AcDbEntity
  8
Layer_1
 62
7
100
AcDbSpline
 70
8
 71
3
 72
8
 73
4
 74
0
 40
0
 40
0
 40
0
 40
0
 40
1
 40
1
 40
1
 40
1
 10
181.735298
 20
213.253883
 30
0.0
 10
183.256651
 20
211.724343
 30
0.0
 10
184.948816
 20
209.637126
 30
0.0
 10
185.495667
 20
208.615634
 30
0.0
  0
SPLINE
  5
16b
100
AcDbEntity
  8
Layer_1
 62
7
100
AcDbSpline
 70
8
 71
3
 72
8
 73
4
 74
0
 40
0
 40
0
 40
0
 40
0
 40
1
 40
1
 40
1
 40
1
 10
185.495667
 20
208.615634
 30
0.0
 10
186.699113
 20
206.367613
 30
0.0
 10
190.025028
 20
205.190786
 30
0.0
 10
190.975666
 20
206.676607
 30
0.0
  0
LWPOLYLINE
  5
16c
100
AcDbEntity
  8
Layer_1
 62
7
100
AcDbPolyline
 90
2
 70
0
 10
98.777766
 20
205.199292
 30
0.0
 10
98.777766
 20
205.199292
 30
0.0
  0
SPLINE
  5
16d
100
AcDbEntity
  8
Layer_1
 62
7
100
AcDbSpline
 70
8
 71
3
 72
8
 73
4
 74
0
 40
0
 40
0
 40
0
 40
0
 40
1
 40
1
 40
1
 40
1
 10
181.310063
 20
207.891274
 30
0.0
 10
181.801378
 20
208.659178
 30
0.0
 10
177.186497
 20
213.738506
 30
0.0
 10
176.546516
 20
213.134240
 30
0.0
  0
SPLINE
  5
16e
100
AcDbEntity
  8
Layer_1
 62
7
100
AcDbSpline
 70
8
 71
3
 72
8
 73
4
 74
0
 40
0
 40
0
 40
0
 40
0
 40
1
 40
1
 40
1
 40
1
 10
176.546516
 20
213.134240
 30
0.0
 10
175.846051
 20
212.472870
 30
0.0
 10
177.540711
 20
208.746664
 30
0.0
 10
178.887727
 20
207.986394
 30
0.0
  0
SPLINE
  5
16f
100
AcDbEntity
  8
Layer_1
 62
7
100
AcDbSpline
 70
8
 71
3
 72
8
 73
4
 74
0
 40
0
 40
0
 40
0
 40
0
 40
1
 40
1
 40
1
 40
1
 10
178.887727
 20
207.986394
 30
0.0
 10
180.290303
 20
207.194767
 30
0.0
 10
180.850362
 20
207.172773
 30
0.0
 10
181.310063
 20
207.891274
 30
0.0
  0
LWPOLYLINE
  5
170
100
AcDbEntity
  8
Layer_1
 62
7
100
AcDbPolyline
 90
2
 70
0
 10
190.975666
 20
206.676607
 30
0.0
 10
190.975666
 20
206.676607
 30
0.0
  0
SPLINE
  5
171
100
AcDbEntity
  8
Layer_1
 62
7
100
AcDbSpline
 70
8
 71
3
 72
8
 73
4
 74
0
 40
0
 40
0
 40
0
 40
0
 40
1
 40
1
 40
1
 40
1
 10
175.413244
 20
216.099942
 30
0.0
 10
175.583218
 20
216.952493
 30
0.0
 10
175.185364
 20
217.250968
 30
0.0
 10
173.878971
 20
217.250968
 30
0.0
  0
SPLINE
  5
172
100
AcDbEntity
  8
Layer_1
 62
7
100
AcDbSpline
 70
8
 71
3
 72
8
 73
4
 74
0
 40
0
 40
0
 40
0
 40
0
 40
1
 40
1
 40
1
 40
1
 10
173.878971
 20
217.250968
 30
0.0
 10
171.954836
 20
217.250968
 30
0.0
 10
171.914733
 20
217.201909
 30
0.0
 10
172.544167
 20
215.617435
 30
0.0
  0
SPLINE
  5
173
100
AcDbEntity
  8
Layer_1
 62
7
100
AcDbSpline
 70
8
 71
3
 72
8
 73
4
 74
0
 40
0
 40
0
 40
0
 40
0
 40
1
 40
1
 40
1
 40
1
 10
172.544167
 20
215.617435
 30
0.0
 10
173.090202
 20
214.242908
 30
0.0
 10
175.110758
 20
214.582715
 30
0.0
 10
175.413244
 20
216.099942
 30
0.0
  0
LWPOLYLINE
  5
174
100
AcDbEntity
  8
Layer_1
 62
7
100
AcDbPolyline
 90
2
 70
0
 10
181.310063
 20
207.891274
 30
0.0
 10
181.310063
 20
207.891274
 30
0.0
  0
SPLINE
  5
175
100
AcDbEntity
  8
Layer_1
 62
7
100
AcDbSpline
 70
8
 71
3
 72
8
 73
4
 74
0
 40
0
 40
0
 40
0
 40
0
 40
1
 40
1
 40
1
 40
1
 10
173.368637
 20
219.301657
 30
0.0
 10
174.391729
 20
220.884136
 30
0.0
 10
174.035466
 20
221.568742
 30
0.0
 10
172.487486
 20
220.994939
 30
0.0
  0
SPLINE
  5
176
100
AcDbEntity
  8
Layer_1
 62
7
100
AcDbSpline
 70
8
 71
3
 72
8
 73
4
 74
0
 40
0
 40
0
 40
0
 40
0
 40
1
 40
1
 40
1
 40
1
 10
172.487486
 20
220.994939
 30
0.0
 10
171.432172
 20
220.603757
 30
0.0
 10
170.963217
 20
217.913042
 30
0.0
 10
171.950355
 20
217.913042
 30
0.0
  0
SPLINE
  5
177
100
AcDbEntity
  8
Layer_1
 62
7
100
AcDbSpline
 70
8
 71
3
 72
8
 73
4
 74
0
 40
0
 40
0
 40
0
 40
0
 40
1
 40
1
 40
1
 40
1
 10
171.950355
 20
217.913042
 30
0.0
 10
172.236644
 20
217.913042
 30
0.0
 10
172.874872
 20
218.537918
 30
0.0
 10
173.368637
 20
219.301657
 30
0.0
  0
LWPOLYLINE
  5
178
100
AcDbEntity
  8
Layer_1
 62
7
100
AcDbPolyline
 90
2
 70
0
 10
175.413244
 20
216.099942
 30
0.0
 10
175.413244
 20
216.099942
 30
0.0
  0
SPLINE
  5
179
100
AcDbEntity
  8
Layer_1
 62
7
100
AcDbSpline
 70
8
 71
3
 72
8
 73
4
 74
0
 40
0
 40
0
 40
0
 40
0
 40
1
 40
1
 40
1
 40
1
 10
190.620938
 20
221.244184
 30
0.0
 10
190.620938
 20
221.959318
 30
0.0
 10
190.122629
 20
222.179748
 30
0.0
 10
187.022607
 20
222.835900
 30
0.0
  0
SPLINE
  5
17a
100
AcDbEntity
  8
Layer_1
 62
7
100
AcDbSpline
 70
8
 71
3
 72
8
 73
4
 74
0
 40
0
 40
0
 40
0
 40
0
 40
1
 40
1
 40
1
 40
1
 10
187.022607
 20
222.835900
 30
0.0
 10
185.452396
 20
223.168254
 30
0.0
 10
185.137764
 20
223.011705
 30
0.0
 10
185.137764
 20
221.898090
 30
0.0
  0
SPLINE
  5
17b
100
AcDbEntity
  8
Layer_1
 62
7
100
AcDbSpline
 70
8
 71
3
 72
8
 73
4
 74
0
 40
0
 40
0
 40
0
 40
0
 40
1
 40
1
 40
1
 40
1
 10
185.137764
 20
221.898090
 30
0.0
 10
185.137764
 20
220.779920
 30
0.0
 10
185.586076
 20
220.561330
 30
0.0
 10
187.879352
 20
220.561330
 30
0.0
  0
SPLINE
  5
17c
100
AcDbEntity
  8
Layer_1
 62
7
100
AcDbSpline
 70
8
 71
3
 72
8
 73
4
 74
0
 40
0
 40
0
 40
0
 40
0
 40
1
 40
1
 40
1
 40
1
 10
187.879352
 20
220.561330
 30
0.0
 10
189.387226
 20
220.561330
 30
0.0
 10
190.620938
 20
220.868614
 30
0.0
 10
190.620938
 20
221.244184
 30
0.0
  0
LWPOLYLINE
  5
17d
100
AcDbEntity
  8
Layer_1
 62
7
100
AcDbPolyline
 90
2
 70
0
 10
173.368637
 20
219.301657
 30
0.0
 10
173.368637
 20
219.301657
 30
0.0
  0
SPLINE
  5
17e
100
AcDbEntity
  8
Layer_1
 62
7
100
AcDbSpline
 70
8
 71
3
 72
8
 73
4
 74
0
 40
0
 40
0
 40
0
 40
0
 40
1
 40
1
 40
1
 40
1
 10
174.852480
 20
225.405336
 30
0.0
 10
174.854455
 20
225.702626
 30
0.0
 10
174.008635
 20
225.851594
 30
0.0
 10
172.971971
 20
225.736371
 30
0.0
  0
SPLINE
  5
17f
100
AcDbEntity
  8
Layer_1
 62
7
100
AcDbSpline
 70
8
 71
3
 72
8
 73
4
 74
0
 40
0
 40
0
 40
0
 40
0
 40
1
 40
1
 40
1
 40
1
 10
172.971971
 20
225.736371
 30
0.0
 10
171.624453
 20
225.586599
 30
0.0
 10
171.024875
 20
225.103553
 30
0.0
 10
170.868749
 20
224.041935
 30
0.0
  0
SPLINE
  5
180
100
AcDbEntity
  8
Layer_1
 62
7
100
AcDbSpline
 70
8
 71
3
 72
8
 73
4
 74
0
 40
0
 40
0
 40
0
 40
0
 40
1
 40
1
 40
1
 40
1
 10
170.868749
 20
224.041935
 30
0.0
 10
170.652384
 20
222.570659
 30
0.0
 10
170.669695
 20
222.567611
 30
0.0
 10
172.749258
 20
223.710896
 30
0.0
  0
SPLINE
  5
181
100
AcDbEntity
  8
Layer_1
 62
7
100
AcDbSpline
 70
8
 71
3
 72
8
 73
4
 74
0
 40
0
 40
0
 40
0
 40
0
 40
1
 40
1
 40
1
 40
1
 10
172.749258
 20
223.710896
 30
0.0
 10
173.903646
 20
224.345546
 30
0.0
 10
174.850095
 20
225.108043
 30
0.0
 10
174.852480
 20
225.405336
 30
0.0
  0
LWPOLYLINE
  5
182
100
AcDbEntity
  8
Layer_1
 62
7
100
AcDbPolyline
 90
2
 70
0
 10
190.620938
 20
221.244184
 30
0.0
 10
190.620938
 20
221.244184
 30
0.0
  0
SPLINE
  5
183
100
AcDbEntity
  8
Layer_1
 62
7
100
AcDbSpline
 70
8
 71
3
 72
8
 73
4
 74
0
 40
0
 40
0
 40
0
 40
0
 40
1
 40
1
 40
1
 40
1
 10
182.396178
 20
224.427495
 30
0.0
 10
182.396178
 20
224.733184
 30
0.0
 10
181.625107
 20
225.322662
 30
0.0
 10
180.682686
 20
225.737447
 30
0.0
  0
SPLINE
  5
184
100
AcDbEntity
  8
Layer_1
 62
7
100
AcDbSpline
 70
8
 71
3
 72
8
 73
4
 74
0
 40
0
 40
0
 40
0
 40
0
 40
1
 40
1
 40
1
 40
1
 10
180.682686
 20
225.737447
 30
0.0
 10
178.792355
 20
226.569429
 30
0.0
 10
178.521752
 20
226.292933
 30
0.0
 10
179.825941
 20
224.862044
 30
0.0
  0
SPLINE
  5
185
100
AcDbEntity
  8
Layer_1
 62
7
100
AcDbSpline
 70
8
 71
3
 72
8
 73
4
 74
0
 40
0
 40
0
 40
0
 40
0
 40
1
 40
1
 40
1
 40
1
 10
179.825941
 20
224.862044
 30
0.0
 10
180.769621
 20
223.826678
 30
0.0
 10
182.396178
 20
223.551678
 30
0.0
 10
182.396178
 20
224.427495
 30
0.0
  0
LWPOLYLINE
  5
186
100
AcDbEntity
  8
Layer_1
 62
7
100
AcDbPolyline
 90
2
 70
0
 10
174.852480
 20
225.405336
 30
0.0
 10
174.852480
 20
225.405336
 30
0.0
  0
SPLINE
  5
187
100
AcDbEntity
  8
Layer_1
 62
7
100
AcDbSpline
 70
8
 71
3
 72
8
 73
4
 74
0
 40
0
 40
0
 40
0
 40
0
 40
1
 40
1
 40
1
 40
1
 10
191.975542
 20
226.685505
 30
0.0
 10
193.086914
 20
227.868958
 30
0.0
 10
194.963477
 20
230.572554
 30
0.0
 10
196.145675
 20
232.693491
 30
0.0
  0
SPLINE
  5
188
100
AcDbEntity
  8
Layer_1
 62
7
100
AcDbSpline
 70
8
 71
3
 72
8
 73
4
 74
0
 40
0
 40
0
 40
0
 40
0
 40
1
 40
1
 40
1
 40
1
 10
196.145675
 20
232.693491
 30
0.0
 10
198.211592
 20
236.399864
 30
0.0
 10
201.371141
 20
239.091477
 30
0.0
 10
203.662320
 20
239.096893
 30
0.0
  0
SPLINE
  5
189
100
AcDbEntity
  8
Layer_1
 62
7
100
AcDbSpline
 70
8
 71
3
 72
8
 73
4
 74
0
 40
0
 40
0
 40
0
 40
0
 40
1
 40
1
 40
1
 40
1
 10
203.662320
 20
239.096893
 30
0.0
 10
204.238143
 20
239.098304
 30
0.0
 10
205.377127
 20
239.551240
 30
0.0
 10
206.193407
 20
240.103529
 30
0.0
  0
LWPOLYLINE
  5
18a
100
AcDbEntity
  8
Layer_1
 62
7
100
AcDbPolyline
 90
2
 70
0
 10
182.396178
 20
224.427495
 30
0.0
 10
182.396178
 20
224.427495
 30
0.0
  0
SPLINE
  5
18b
100
AcDbEntity
  8
Layer_1
 62
7
100
AcDbSpline
 70
8
 71
3
 72
8
 73
4
 74
0
 40
0
 40
0
 40
0
 40
0
 40
1
 40
1
 40
1
 40
1
 10
206.174566
 20
243.385869
 30
0.0
 10
204.658936
 20
245.683203
 30
0.0
 10
203.395236
 20
246.276908
 30
0.0
 10
202.615382
 20
245.058022
 30
0.0
  0
SPLINE
  5
18c
100
AcDbEntity
  8
Layer_1
 62
7
100
AcDbSpline
 70
8
 71
3
 72
8
 73
4
 74
0
 40
0
 40
0
 40
0
 40
0
 40
1
 40
1
 40
1
 40
1
 10
202.615382
 20
245.058022
 30
0.0
 10
201.951666
 20
244.020649
 30
0.0
 10
200.216493
 20
244.283068
 30
0.0
 10
200.216493
 20
245.420815
 30
0.0
  0
SPLINE
  5
18d
100
AcDbEntity
  8
Layer_1
 62
7
100
AcDbSpline
 70
8
 71
3
 72
8
 73
4
 74
0
 40
0
 40
0
 40
0
 40
0
 40
1
 40
1
 40
1
 40
1
 10
200.216493
 20
245.420815
 30
0.0
 10
200.216493
 20
245.984489
 30
0.0
 10
201.013269
 20
247.107714
 30
0.0
 10
201.987102
 20
247.916865
 30
0.0
  0
SPLINE
  5
18e
100
AcDbEntity
  8
Layer_1
 62
7
100
AcDbSpline
 70
8
 71
3
 72
8
 73
4
 74
0
 40
0
 40
0
 40
0
 40
0
 40
1
 40
1
 40
1
 40
1
 10
201.987102
 20
247.916865
 30
0.0
 10
203.590497
 20
249.249115
 30
0.0
 10
203.677317
 20
249.558481
 30
0.0
 10
202.906452
 20
251.192782
 30
0.0
  0
SPLINE
  5
18f
100
AcDbEntity
  8
Layer_1
 62
7
100
AcDbSpline
 70
8
 71
3
 72
8
 73
4
 74
0
 40
0
 40
0
 40
0
 40
0
 40
1
 40
1
 40
1
 40
1
 10
202.906452
 20
251.192782
 30
0.0
 10
202.175257
 20
252.742969
 30
0.0
 10
202.232029
 20
253.186264
 30
0.0
 10
203.308949
 20
254.335758
 30
0.0
  0
SPLINE
  5
190
100
AcDbEntity
  8
Layer_1
 62
7
100
AcDbSpline
 70
8
 71
3
 72
8
 73
4
 74
0
 40
0
 40
0
 40
0
 40
0
 40
1
 40
1
 40
1
 40
1
 10
203.308949
 20
254.335758
 30
0.0
 10
204.532007
 20
255.641231
 30
0.0
 10
204.513685
 20
255.723843
 30
0.0
 10
202.560950
 20
257.709310
 30
0.0
  0
SPLINE
  5
191
100
AcDbEntity
  8
Layer_1
 62
7
100
AcDbSpline
 70
8
 71
3
 72
8
 73
4
 74
0
 40
0
 40
0
 40
0
 40
0
 40
1
 40
1
 40
1
 40
1
 10
202.560950
 20
257.709310
 30
0.0
 10
200.248557
 20
260.060455
 30
0.0
 10
196.835906
 20
262.537415
 30
0.0
 10
196.438232
 20
262.153274
 30
0.0
  0
SPLINE
  5
192
100
AcDbEntity
  8
Layer_1
 62
7
100
AcDbSpline
 70
8
 71
3
 72
8
 73
4
 74
0
 40
0
 40
0
 40
0
 40
0
 40
1
 40
1
 40
1
 40
1
 10
196.438232
 20
262.153274
 30
0.0
 10
195.950165
 20
261.681819
 30
0.0
 10
197.810388
 20
257.368843
 30
0.0
 10
199.670966
 20
254.658076
 30
0.0
  0
LWPOLYLINE
  5
193
100
AcDbEntity
  8
Layer_1
 62
7
100
AcDbPolyline
 90
3
 70
0
 10
206.193407
 20
240.103529
 30
0.0
 10
207.677552
 20
241.107689
 30
0.0
 10
206.174566
 20
243.385869
 30
0.0
  0
SPLINE
  5
194
100
AcDbEntity
  8
Layer_1
 62
7
100
AcDbSpline
 70
8
 71
3
 72
8
 73
4
 74
0
 40
0
 40
0
 40
0
 40
0
 40
1
 40
1
 40
1
 40
1
 10
199.798175
 20
250.640504
 30
0.0
 10
198.795798
 20
249.828588
 30
0.0
 10
198.269276
 20
248.864449
 30
0.0
 10
198.504669
 20
248.271903
 30
0.0
  0
SPLINE
  5
195
100
AcDbEntity
  8
Layer_1
 62
7
100
AcDbSpline
 70
8
 71
3
 72
8
 73
4
 74
0
 40
0
 40
0
 40
0
 40
0
 40
1
 40
1
 40
1
 40
1
 10
198.504669
 20
248.271903
 30
0.0
 10
199.100956
 20
246.770868
 30
0.0
 10
197.668800
 20
243.733874
 30
0.0
 10
196.364668
 20
243.733874
 30
0.0
  0
SPLINE
  5
196
100
AcDbEntity
  8
Layer_1
 62
7
100
AcDbSpline
 70
8
 71
3
 72
8
 73
4
 74
0
 40
0
 40
0
 40
0
 40
0
 40
1
 40
1
 40
1
 40
1
 10
196.364668
 20
243.733874
 30
0.0
 10
195.359923
 20
243.733874
 30
0.0
 10
195.281096
 20
244.278479
 30
0.0
 10
195.717770
 20
248.202866
 30
0.0
  0
SPLINE
  5
197
100
AcDbEntity
  8
Layer_1
 62
7
100
AcDbSpline
 70
8
 71
3
 72
8
 73
4
 74
0
 40
0
 40
0
 40
0
 40
0
 40
1
 40
1
 40
1
 40
1
 10
195.717770
 20
248.202866
 30
0.0
 10
195.991271
 20
250.660810
 30
0.0
 10
196.294017
 20
253.479807
 30
0.0
 10
196.390534
 20
254.467299
 30
0.0
  0
SPLINE
  5
198
100
AcDbEntity
  8
Layer_1
 62
7
100
AcDbSpline
 70
8
 71
3
 72
8
 73
4
 74
0
 40
0
 40
0
 40
0
 40
0
 40
1
 40
1
 40
1
 40
1
 10
196.390534
 20
254.467299
 30
0.0
 10
196.639045
 20
257.009794
 30
0.0
 10
192.896360
 20
260.472048
 30
0.0
 10
190.223848
 20
260.171930
 30
0.0
  0
SPLINE
  5
199
100
AcDbEntity
  8
Layer_1
 62
7
100
AcDbSpline
 70
8
 71
3
 72
8
 73
4
 74
0
 40
0
 40
0
 40
0
 40
0
 40
1
 40
1
 40
1
 40
1
 10
190.223848
 20
260.171930
 30
0.0
 10
187.350679
 20
259.849274
 30
0.0
 10
185.696225
 20
256.782004
 30
0.0
 10
186.533293
 20
253.329817
 30
0.0
  0
SPLINE
  5
19a
100
AcDbEntity
  8
Layer_1
 62
7
100
AcDbSpline
 70
8
 71
3
 72
8
 73
4
 74
0
 40
0
 40
0
 40
0
 40
0
 40
1
 40
1
 40
1
 40
1
 10
186.533293
 20
253.329817
 30
0.0
 10
186.885924
 20
251.875520
 30
0.0
 10
186.982072
 20
248.525627
 30
0.0
 10
186.746961
 20
245.885613
 30
0.0
  0
SPLINE
  5
19b
100
AcDbEntity
  8
Layer_1
 62
7
100
AcDbSpline
 70
8
 71
3
 72
8
 73
4
 74
0
 40
0
 40
0
 40
0
 40
0
 40
1
 40
1
 40
1
 40
1
 10
186.746961
 20
245.885613
 30
0.0
 10
186.375461
 20
241.714134
 30
0.0
 10
186.144956
 20
241.085586
 30
0.0
 10
184.986676
 20
241.085586
 30
0.0
  0
SPLINE
  5
19c
100
AcDbEntity
  8
Layer_1
 62
7
100
AcDbSpline
 70
8
 71
3
 72
8
 73
4
 74
0
 40
0
 40
0
 40
0
 40
0
 40
1
 40
1
 40
1
 40
1
 10
184.986676
 20
241.085586
 30
0.0
 10
183.848479
 20
241.085586
 30
0.0
 10
183.679109
 20
241.496451
 30
0.0
 10
183.826731
 20
243.899395
 30
0.0
  0
SPLINE
  5
19d
100
AcDbEntity
  8
Layer_1
 62
7
100
AcDbSpline
 70
8
 71
3
 72
8
 73
4
 74
0
 40
0
 40
0
 40
0
 40
0
 40
1
 40
1
 40
1
 40
1
 10
183.826731
 20
243.899395
 30
0.0
 10
184.067230
 20
247.814066
 30
0.0
 10
183.855860
 20
249.857075
 30
0.0
 10
183.090445
 20
251.016675
 30
0.0
  0
SPLINE
  5
19e
100
AcDbEntity
  8
Layer_1
 62
7
100
AcDbSpline
 70
8
 71
3
 72
8
 73
4
 74
0
 40
0
 40
0
 40
0
 40
0
 40
1
 40
1
 40
1
 40
1
 10
183.090445
 20
251.016675
 30
0.0
 10
182.551386
 20
251.833325
 30
0.0
 10
182.052121
 20
251.562631
 30
0.0
 10
180.280618
 20
249.493226
 30
0.0
  0
SPLINE
  5
19f
100
AcDbEntity
  8
Layer_1
 62
7
100
AcDbSpline
 70
8
 71
3
 72
8
 73
4
 74
0
 40
0
 40
0
 40
0
 40
0
 40
1
 40
1
 40
1
 40
1
 10
180.280618
 20
249.493226
 30
0.0
 10
178.304413
 20
247.184687
 30
0.0
 10
178.029232
 20
247.061548
 30
0.0
 10
176.951651
 20
248.003561
 30
0.0
  0
SPLINE
  5
1a0
100
AcDbEntity
  8
Layer_1
 62
7
100
AcDbSpline
 70
8
 71
3
 72
8
 73
4
 74
0
 40
0
 40
0
 40
0
 40
0
 40
1
 40
1
 40
1
 40
1
 10
176.951651
 20
248.003561
 30
0.0
 10
175.402203
 20
249.358078
 30
0.0
 10
174.856812
 20
249.299130
 30
0.0
 10
174.856812
 20
247.777145
 30
0.0
  0
SPLINE
  5
1a1
100
AcDbEntity
  8
Layer_1
 62
7
100
AcDbSpline
 70
8
 71
3
 72
8
 73
4
 74
0
 40
0
 40
0
 40
0
 40
0
 40
1
 40
1
 40
1
 40
1
 10
174.856812
 20
247.777145
 30
0.0
 10
174.856812
 20
247.087826
 30
0.0
 10
174.352190
 20
246.336782
 30
0.0
 10
173.735421
 20
246.108162
 30
0.0
  0
SPLINE
  5
1a2
100
AcDbEntity
  8
Layer_1
 62
7
100
AcDbSpline
 70
8
 71
3
 72
8
 73
4
 74
0
 40
0
 40
0
 40
0
 40
0
 40
1
 40
1
 40
1
 40
1
 10
173.735421
 20
246.108162
 30
0.0
 10
172.697163
 20
245.723301
 30
0.0
 10
172.697163
 20
245.603749
 30
0.0
 10
173.735421
 20
244.495530
 30
0.0
  0
SPLINE
  5
1a3
100
AcDbEntity
  8
Layer_1
 62
7
100
AcDbSpline
 70
8
 71
3
 72
8
 73
4
 74
0
 40
0
 40
0
 40
0
 40
0
 40
1
 40
1
 40
1
 40
1
 10
173.735421
 20
244.495530
 30
0.0
 10
175.068202
 20
243.072944
 30
0.0
 10
175.188649
 20
241.008886
 30
0.0
 10
174.005570
 20
239.866070
 30
0.0
  0
SPLINE
  5
1a4
100
AcDbEntity
  8
Layer_1
 62
7
100
AcDbSpline
 70
8
 71
3
 72
8
 73
4
 74
0
 40
0
 40
0
 40
0
 40
0
 40
1
 40
1
 40
1
 40
1
 10
174.005570
 20
239.866070
 30
0.0
 10
173.473310
 20
239.351920
 30
0.0
 10
173.150107
 20
237.082732
 30
0.0
 10
173.143054
 20
233.810394
 30
0.0
  0
SPLINE
  5
1a5
100
AcDbEntity
  8
Layer_1
 62
7
100
AcDbSpline
 70
8
 71
3
 72
8
 73
4
 74
0
 40
0
 40
0
 40
0
 40
0
 40
1
 40
1
 40
1
 40
1
 10
173.143054
 20
233.810394
 30
0.0
 10
173.130382
 20
227.928454
 30
0.0
 10
174.068969
 20
226.865181
 30
0.0
 10
177.184310
 20
229.232317
 30
0.0
  0
SPLINE
  5
1a6
100
AcDbEntity
  8
Layer_1
 62
7
100
AcDbSpline
 70
8
 71
3
 72
8
 73
4
 74
0
 40
0
 40
0
 40
0
 40
0
 40
1
 40
1
 40
1
 40
1
 10
177.184310
 20
229.232317
 30
0.0
 10
179.100886
 20
230.688593
 30
0.0
 10
180.110392
 20
230.826723
 30
0.0
 10
180.503853
 20
229.686529
 30
0.0
  0
SPLINE
  5
1a7
100
AcDbEntity
  8
Layer_1
 62
7
100
AcDbSpline
 70
8
 71
3
 72
8
 73
4
 74
0
 40
0
 40
0
 40
0
 40
0
 40
1
 40
1
 40
1
 40
1
 10
180.503853
 20
229.686529
 30
0.0
 10
180.746564
 20
228.983152
 30
0.0
 10
188.014568
 20
224.859761
 30
0.0
 10
189.431160
 20
224.621757
 30
0.0
  0
SPLINE
  5
1a8
100
AcDbEntity
  8
Layer_1
 62
7
100
AcDbSpline
 70
8
 71
3
 72
8
 73
4
 74
0
 40
0
 40
0
 40
0
 40
0
 40
1
 40
1
 40
1
 40
1
 10
189.431160
 20
224.621757
 30
0.0
 10
189.719196
 20
224.573359
 30
0.0
 10
190.864174
 20
225.502048
 30
0.0
 10
191.975542
 20
226.685505
 30
0.0
  0
LWPOLYLINE
  5
1a9
100
AcDbEntity
  8
Layer_1
 62
7
100
AcDbPolyline
 90
3
 70
0
 10
199.670966
 20
254.658076
 30
0.0
 10
201.488667
 20
252.009784
 30
0.0
 10
199.798175
 20
250.640504
 30
0.0
  0
SPLINE
  5
1aa
100
AcDbEntity
  8
Layer_1
 62
7
100
AcDbSpline
 70
8
 71
3
 72
8
 73
4
 74
0
 40
0
 40
0
 40
0
 40
0
 40
1
 40
1
 40
1
 40
1
 10
181.511679
 20
232.229582
 30
0.0
 10
181.161580
 20
232.567769
 30
0.0
 10
183.264471
 20
237.390320
 30
0.0
 10
184.194952
 20
238.383119
 30
0.0
  0
SPLINE
  5
1ab
100
AcDbEntity
  8
Layer_1
 62
7
100
AcDbSpline
 70
8
 71
3
 72
8
 73
4
 74
0
 40
0
 40
0
 40
0
 40
0
 40
1
 40
1
 40
1
 40
1
 10
184.194952
 20
238.383119
 30
0.0
 10
184.337666
 20
238.535392
 30
0.0
 10
185.221355
 20
238.263505
 30
0.0
 10
186.158697
 20
237.778924
 30
0.0
  0
SPLINE
  5
1ac
100
AcDbEntity
  8
Layer_1
 62
7
100
AcDbSpline
 70
8
 71
3
 72
8
 73
4
 74
0
 40
0
 40
0
 40
0
 40
0
 40
1
 40
1
 40
1
 40
1
 10
186.158697
 20
237.778924
 30
0.0
 10
187.565789
 20
237.051496
 30
0.0
 10
188.507689
 20
237.047268
 30
0.0
 10
191.560391
 20
237.754681
 30
0.0
  0
SPLINE
  5
1ad
100
AcDbEntity
  8
Layer_1
 62
7
100
AcDbSpline
 70
8
 71
3
 72
8
 73
4
 74
0
 40
0
 40
0
 40
0
 40
0
 40
1
 40
1
 40
1
 40
1
 10
191.560391
 20
237.754681
 30
0.0
 10
195.283850
 20
238.617530
 30
0.0
 10
196.789511
 20
238.370986
 30
0.0
 10
196.789511
 20
236.898444
 30
0.0
  0
SPLINE
  5
1ae
100
AcDbEntity
  8
Layer_1
 62
7
100
AcDbSpline
 70
8
 71
3
 72
8
 73
4
 74
0
 40
0
 40
0
 40
0
 40
0
 40
1
 40
1
 40
1
 40
1
 10
196.789511
 20
236.898444
 30
0.0
 10
196.789511
 20
235.937339
 30
0.0
 10
190.882357
 20
233.811237
 30
0.0
 10
188.130064
 20
233.781731
 30
0.0
  0
SPLINE
  5
1af
100
AcDbEntity
  8
Layer_1
 62
7
100
AcDbSpline
 70
8
 71
3
 72
8
 73
4
 74
0
 40
0
 40
0
 40
0
 40
0
 40
1
 40
1
 40
1
 40
1
 10
188.130064
 20
233.781731
 30
0.0
 10
187.049749
 20
233.770160
 30
0.0
 10
185.567159
 20
233.323253
 30
0.0
 10
184.835416
 20
232.788622
 30
0.0
  0
SPLINE
  5
1b0
100
AcDbEntity
  8
Layer_1
 62
7
100
AcDbSpline
 70
8
 71
3
 72
8
 73
4
 74
0
 40
0
 40
0
 40
0
 40
0
 40
1
 40
1
 40
1
 40
1
 10
184.835416
 20
232.788622
 30
0.0
 10
183.421813
 20
231.755813
 30
0.0
 10
182.212683
 20
231.552441
 30
0.0
 10
181.511679
 20
232.229585
 30
0.0
  0
LWPOLYLINE
  5
1b1
100
AcDbEntity
  8
Layer_1
 62
7
100
AcDbPolyline
 90
2
 70
0
 10
191.975542
 20
226.685505
 30
0.0
 10
191.975542
 20
226.685505
 30
0.0
  0
SPLINE
  5
1b2
100
AcDbEntity
  8
Layer_1
 62
7
100
AcDbSpline
 70
8
 71
3
 72
8
 73
4
 74
0
 40
0
 40
0
 40
0
 40
0
 40
1
 40
1
 40
1
 40
1
 10
167.306955
 20
233.968303
 30
0.0
 10
167.312713
 20
234.605549
 30
0.0
 10
166.854804
 20
235.126932
 30
0.0
 10
166.289352
 20
235.126932
 30
0.0
  0
SPLINE
  5
1b3
100
AcDbEntity
  8
Layer_1
 62
7
100
AcDbSpline
 70
8
 71
3
 72
8
 73
4
 74
0
 40
0
 40
0
 40
0
 40
0
 40
1
 40
1
 40
1
 40
1
 10
166.289352
 20
235.126932
 30
0.0
 10
165.245638
 20
235.126932
 30
0.0
 10
164.823275
 20
232.460336
 30
0.0
 10
165.728486
 20
231.585927
 30
0.0
  0
SPLINE
  5
1b4
100
AcDbEntity
  8
Layer_1
 62
7
100
AcDbSpline
 70
8
 71
3
 72
8
 73
4
 74
0
 40
0
 40
0
 40
0
 40
0
 40
1
 40
1
 40
1
 40
1
 10
165.728486
 20
231.585927
 30
0.0
 10
166.327729
 20
231.007080
 30
0.0
 10
167.293330
 20
232.464467
 30
0.0
 10
167.306955
 20
233.968303
 30
0.0
  0
LWPOLYLINE
  5
1b5
100
AcDbEntity
  8
Layer_1
 62
7
100
AcDbPolyline
 90
2
 70
0
 10
181.511679
 20
232.229585
 30
0.0
 10
181.511679
 20
232.229582
 30
0.0
  0
SPLINE
  5
1b6
100
AcDbEntity
  8
Layer_1
 62
7
100
AcDbSpline
 70
8
 71
3
 72
8
 73
4
 74
0
 40
0
 40
0
 40
0
 40
0
 40
1
 40
1
 40
1
 40
1
 10
171.429830
 20
253.389103
 30
0.0
 10
171.429830
 20
254.558274
 30
0.0
 10
169.954335
 20
254.354662
 30
0.0
 10
169.530711
 20
253.127032
 30
0.0
  0
SPLINE
  5
1b7
100
AcDbEntity
  8
Layer_1
 62
7
100
AcDbSpline
 70
8
 71
3
 72
8
 73
4
 74
0
 40
0
 40
0
 40
0
 40
0
 40
1
 40
1
 40
1
 40
1
 10
169.530711
 20
253.127032
 30
0.0
 10
169.381492
 20
252.694616
 30
0.0
 10
169.747748
 20
252.340820
 30
0.0
 10
170.344620
 20
252.340820
 30
0.0
  0
SPLINE
  5
1b8
100
AcDbEntity
  8
Layer_1
 62
7
100
AcDbSpline
 70
8
 71
3
 72
8
 73
4
 74
0
 40
0
 40
0
 40
0
 40
0
 40
1
 40
1
 40
1
 40
1
 10
170.344620
 20
252.340820
 30
0.0
 10
170.941484
 20
252.340820
 30
0.0
 10
171.429830
 20
252.812549
 30
0.0
 10
171.429830
 20
253.389103
 30
0.0
  0
LWPOLYLINE
  5
1b9
100
AcDbEntity
  8
Layer_1
 62
7
100
AcDbPolyline
 90
2
 70
0
 10
167.306955
 20
233.968303
 30
0.0
 10
167.306955
 20
233.968303
 30
0.0
  0
SPLINE
  5
1ba
100
AcDbEntity
  8
Layer_1
 62
7
100
AcDbSpline
 70
8
 71
3
 72
8
 73
4
 74
0
 40
0
 40
0
 40
0
 40
0
 40
1
 40
1
 40
1
 40
1
 10
172.800622
 20
256.352329
 30
0.0
 10
172.800622
 20
256.737960
 30
0.0
 10
172.492193
 20
256.869343
 30
0.0
 10
172.115226
 20
256.644294
 30
0.0
  0
SPLINE
  5
1bb
100
AcDbEntity
  8
Layer_1
 62
7
100
AcDbSpline
 70
8
 71
3
 72
8
 73
4
 74
0
 40
0
 40
0
 40
0
 40
0
 40
1
 40
1
 40
1
 40
1
 10
172.115226
 20
256.644294
 30
0.0
 10
171.738256
 20
256.419241
 30
0.0
 10
171.429830
 20
256.103728
 30
0.0
 10
171.429830
 20
255.943146
 30
0.0
  0
SPLINE
  5
1bc
100
AcDbEntity
  8
Layer_1
 62
7
100
AcDbSpline
 70
8
 71
3
 72
8
 73
4
 74
0
 40
0
 40
0
 40
0
 40
0
 40
1
 40
1
 40
1
 40
1
 10
171.429830
 20
255.943146
 30
0.0
 10
171.429830
 20
255.782568
 30
0.0
 10
171.738256
 20
255.651185
 30
0.0
 10
172.115226
 20
255.651185
 30
0.0
  0
SPLINE
  5
1bd
100
AcDbEntity
  8
Layer_1
 62
7
100
AcDbSpline
 70
8
 71
3
 72
8
 73
4
 74
0
 40
0
 40
0
 40
0
 40
0
 40
1
 40
1
 40
1
 40
1
 10
172.115226
 20
255.651185
 30
0.0
 10
172.492193
 20
255.651185
 30
0.0
 10
172.800622
 20
255.966701
 30
0.0
 10
172.800622
 20
256.352329
 30
0.0
  0
LWPOLYLINE
  5
1be
100
AcDbEntity
  8
Layer_1
 62
7
100
AcDbPolyline
 90
2
 70
0
 10
171.429830
 20
253.389103
 30
0.0
 10
171.429830
 20
253.389103
 30
0.0
  0
SPLINE
  5
1bf
100
AcDbEntity
  8
Layer_1
 62
7
100
AcDbSpline
 70
8
 71
3
 72
8
 73
4
 74
0
 40
0
 40
0
 40
0
 40
0
 40
1
 40
1
 40
1
 40
1
 10
193.743498
 20
264.258130
 30
0.0
 10
196.245313
 20
264.258130
 30
0.0
 10
196.194832
 20
265.076953
 30
0.0
 10
193.548675
 20
267.418257
 30
0.0
  0
LWPOLYLINE
  5
1c0
100
AcDbEntity
  8
Layer_1
 62
7
100
AcDbPolyline
 90
2
 70
0
 10
172.800622
 20
256.352329
 30
0.0
 10
172.800622
 20
256.352329
 30
0.0
  0
SPLINE
  5
1c1
100
AcDbEntity
  8
Layer_1
 62
7
100
AcDbSpline
 70
8
 71
3
 72
8
 73
4
 74
0
 40
0
 40
0
 40
0
 40
0
 40
1
 40
1
 40
1
 40
1
 10
189.089180
 20
267.494180
 30
0.0
 10
186.897165
 20
264.957846
 30
0.0
 10
186.728371
 20
263.913539
 30
0.0
 10
188.367258
 20
263.027585
 30
0.0
  0
SPLINE
  5
1c2
100
AcDbEntity
  8
Layer_1
 62
7
100
AcDbSpline
 70
8
 71
3
 72
8
 73
4
 74
0
 40
0
 40
0
 40
0
 40
0
 40
1
 40
1
 40
1
 40
1
 10
188.367258
 20
263.027585
 30
0.0
 10
189.179076
 20
262.588729
 30
0.0
 10
189.965130
 20
262.680581
 30
0.0
 10
190.918648
 20
263.325724
 30
0.0
  0
SPLINE
  5
1c3
100
AcDbEntity
  8
Layer_1
 62
7
100
AcDbSpline
 70
8
 71
3
 72
8
 73
4
 74
0
 40
0
 40
0
 40
0
 40
0
 40
1
 40
1
 40
1
 40
1
 10
190.918648
 20
263.325724
 30
0.0
 10
191.676601
 20
263.838547
 30
0.0
 10
192.947778
 20
264.258130
 30
0.0
 10
193.743498
 20
264.258130
 30
0.0
  0
LWPOLYLINE
  5
1c4
100
AcDbEntity
  8
Layer_1
 62
7
100
AcDbPolyline
 90
3
 70
0
 10
193.548675
 20
267.418257
 30
0.0
 10
190.984412
 20
269.687100
 30
0.0
 10
189.089180
 20
267.494180
 30
0.0
  0
SPLINE
  5
1c5
100
AcDbEntity
  8
Layer_1
 62
7
100
AcDbSpline
 70
8
 71
3
 72
8
 73
4
 74
0
 40
0
 40
0
 40
0
 40
0
 40
1
 40
1
 40
1
 40
1
 10
25.839619
 20
205.907246
 30
0.0
 10
25.637778
 20
206.222723
 30
0.0
 10
26.005110
 20
206.929162
 30
0.0
 10
26.655915
 20
207.477113
 30
0.0
  0
SPLINE
  5
1c6
100
AcDbEntity
  8
Layer_1
 62
7
100
AcDbSpline
 70
8
 71
3
 72
8
 73
4
 74
0
 40
0
 40
0
 40
0
 40
0
 40
1
 40
1
 40
1
 40
1
 10
26.655915
 20
207.477113
 30
0.0
 10
29.259471
 20
209.669195
 30
0.0
 10
62.360943
 20
226.828382
 30
0.0
 10
62.928494
 20
226.280143
 30
0.0
  0
SPLINE
  5
1c7
100
AcDbEntity
  8
Layer_1
 62
7
100
AcDbSpline
 70
8
 71
3
 72
8
 73
4
 74
0
 40
0
 40
0
 40
0
 40
0
 40
1
 40
1
 40
1
 40
1
 10
62.928494
 20
226.280143
 30
0.0
 10
63.696367
 20
225.538401
 30
0.0
 10
62.069602
 20
224.409876
 30
0.0
 10
55.057700
 20
220.819984
 30
0.0
  0
SPLINE
  5
1c8
100
AcDbEntity
  8
Layer_1
 62
7
100
AcDbSpline
 70
8
 71
3
 72
8
 73
4
 74
0
 40
0
 40
0
 40
0
 40
0
 40
1
 40
1
 40
1
 40
1
 10
55.057700
 20
220.819984
 30
0.0
 10
51.019603
 20
218.752596
 30
0.0
 10
43.706133
 20
214.943804
 30
0.0
 10
38.805547
 20
212.356007
 30
0.0
  0
SPLINE
  5
1c9
100
AcDbEntity
  8
Layer_1
 62
7
100
AcDbSpline
 70
8
 71
3
 72
8
 73
4
 74
0
 40
0
 40
0
 40
0
 40
0
 40
1
 40
1
 40
1
 40
1
 10
38.805547
 20
212.356007
 30
0.0
 10
30.649929
 20
208.049355
 30
0.0
 10
30.085318
 20
207.633250
 30
0.0
 10
32.138219
 20
207.442349
 30
0.0
  0
SPLINE
  5
1ca
100
AcDbEntity
  8
Layer_1
 62
7
100
AcDbSpline
 70
8
 71
3
 72
8
 73
4
 74
0
 40
0
 40
0
 40
0
 40
0
 40
1
 40
1
 40
1
 40
1
 10
32.138219
 20
207.442349
 30
0.0
 10
37.553130
 20
206.938797
 30
0.0
 10
52.394296
 20
212.239873
 30
0.0
 10
69.052152
 20
220.627528
 30
0.0
  0
SPLINE
  5
1cb
100
AcDbEntity
  8
Layer_1
 62
7
100
AcDbSpline
 70
8
 71
3
 72
8
 73
4
 74
0
 40
0
 40
0
 40
0
 40
0
 40
1
 40
1
 40
1
 40
1
 10
69.052152
 20
220.627528
 30
0.0
 10
76.123292
 20
224.188030
 30
0.0
 10
81.226632
 20
226.378647
 30
0.0
 10
81.883188
 20
226.135276
 30
0.0
  0
SPLINE
  5
1cc
100
AcDbEntity
  8
Layer_1
 62
7
100
AcDbSpline
 70
8
 71
3
 72
8
 73
4
 74
0
 40
0
 40
0
 40
0
 40
0
 40
1
 40
1
 40
1
 40
1
 10
81.883188
 20
226.135276
 30
0.0
 10
82.495542
 20
225.908290
 30
0.0
 10
83.773676
 20
226.339308
 30
0.0
 10
84.799416
 20
227.118693
 30
0.0
  0
SPLINE
  5
1cd
100
AcDbEntity
  8
Layer_1
 62
7
100
AcDbSpline
 70
8
 71
3
 72
8
 73
4
 74
0
 40
0
 40
0
 40
0
 40
0
 40
1
 40
1
 40
1
 40
1
 10
84.799416
 20
227.118693
 30
0.0
 10
86.711096
 20
228.571251
 30
0.0
 10
89.497563
 20
228.958130
 30
0.0
 10
90.195132
 20
227.867849
 30
0.0
  0
SPLINE
  5
1ce
100
AcDbEntity
  8
Layer_1
 62
7
100
AcDbSpline
 70
8
 71
3
 72
8
 73
4
 74
0
 40
0
 40
0
 40
0
 40
0
 40
1
 40
1
 40
1
 40
1
 10
90.195132
 20
227.867849
 30
0.0
 10
90.727479
 20
227.035799
 30
0.0
 10
87.407513
 20
225.056072
 30
0.0
 10
76.502370
 20
219.702734
 30
0.0
  0
SPLINE
  5
1cf
100
AcDbEntity
  8
Layer_1
 62
7
100
AcDbSpline
 70
8
 71
3
 72
8
 73
4
 74
0
 40
0
 40
0
 40
0
 40
0
 40
1
 40
1
 40
1
 40
1
 10
76.502370
 20
219.702734
 30
0.0
 10
68.272852
 20
215.662861
 30
0.0
 10
59.378003
 20
210.441677
 30
0.0
 10
57.009360
 20
208.260545
 30
0.0
  0
SPLINE
  5
1d0
100
AcDbEntity
  8
Layer_1
 62
7
100
AcDbSpline
 70
8
 71
3
 72
8
 73
4
 74
0
 40
0
 40
0
 40
0
 40
0
 40
1
 40
1
 40
1
 40
1
 10
57.009360
 20
208.260545
 30
0.0
 10
55.324256
 20
206.708836
 30
0.0
 10
56.700702
 20
206.489056
 30
0.0
 10
60.858770
 20
207.645896
 30
0.0
  0
SPLINE
  5
1d1
100
AcDbEntity
  8
Layer_1
 62
7
100
AcDbSpline
 70
8
 71
3
 72
8
 73
4
 74
0
 40
0
 40
0
 40
0
 40
0
 40
1
 40
1
 40
1
 40
1
 10
60.858770
 20
207.645896
 30
0.0
 10
69.390813
 20
210.019645
 30
0.0
 10
79.214094
 20
214.237233
 30
0.0
 10
89.459503
 20
219.925501
 30
0.0
  0
SPLINE
  5
1d2
100
AcDbEntity
  8
Layer_1
 62
7
100
AcDbSpline
 70
8
 71
3
 72
8
 73
4
 74
0
 40
0
 40
0
 40
0
 40
0
 40
1
 40
1
 40
1
 40
1
 10
89.459503
 20
219.925501
 30
0.0
 10
99.699967
 20
225.611025
 30
0.0
 10
102.204751
 20
226.646789
 30
0.0
 10
102.204751
 20
225.195840
 30
0.0
  0
SPLINE
  5
1d3
100
AcDbEntity
  8
Layer_1
 62
7
100
AcDbSpline
 70
8
 71
3
 72
8
 73
4
 74
0
 40
0
 40
0
 40
0
 40
0
 40
1
 40
1
 40
1
 40
1
 10
102.204751
 20
225.195840
 30
0.0
 10
102.204751
 20
224.831700
 30
0.0
 10
101.957590
 20
224.533769
 30
0.0
 10
101.655507
 20
224.533769
 30
0.0
  0
SPLINE
  5
1d4
100
AcDbEntity
  8
Layer_1
 62
7
100
AcDbSpline
 70
8
 71
3
 72
8
 73
4
 74
0
 40
0
 40
0
 40
0
 40
0
 40
1
 40
1
 40
1
 40
1
 10
101.655507
 20
224.533769
 30
0.0
 10
101.353425
 20
224.533769
 30
0.0
 10
98.192034
 20
222.860863
 30
0.0
 10
94.630192
 20
220.816202
 30
0.0
  0
SPLINE
  5
1d5
100
AcDbEntity
  8
Layer_1
 62
7
100
AcDbSpline
 70
8
 71
3
 72
8
 73
4
 74
0
 40
0
 40
0
 40
0
 40
0
 40
1
 40
1
 40
1
 40
1
 10
94.630192
 20
220.816202
 30
0.0
 10
79.017029
 20
211.853519
 30
0.0
 10
65.320003
 20
206.324015
 30
0.0
 10
56.847799
 20
205.563406
 30
0.0
  0
SPLINE
  5
1d6
100
AcDbEntity
  8
Layer_1
 62
7
100
AcDbSpline
 70
8
 71
3
 72
8
 73
4
 74
0
 40
0
 40
0
 40
0
 40
0
 40
1
 40
1
 40
1
 40
1
 10
56.847799
 20
205.563406
 30
0.0
 10
52.841358
 20
205.203714
 30
0.0
 10
52.038312
 20
205.290771
 30
0.0
 10
52.286919
 20
206.057848
 30
0.0
  0
SPLINE
  5
1d7
100
AcDbEntity
  8
Layer_1
 62
7
100
AcDbSpline
 70
8
 71
3
 72
8
 73
4
 74
0
 40
0
 40
0
 40
0
 40
0
 40
1
 40
1
 40
1
 40
1
 10
52.286919
 20
206.057848
 30
0.0
 10
52.540826
 20
206.841272
 30
0.0
 10
56.707284
 20
210.081502
 30
0.0
 10
65.229240
 20
216.123002
 30
0.0
  0
SPLINE
  5
1d8
100
AcDbEntity
  8
Layer_1
 62
7
100
AcDbSpline
 70
8
 71
3
 72
8
 73
4
 74
0
 40
0
 40
0
 40
0
 40
0
 40
1
 40
1
 40
1
 40
1
 10
65.229240
 20
216.123002
 30
0.0
 10
67.226778
 20
217.539123
 30
0.0
 10
67.048053
 20
217.475623
 30
0.0
 10
60.239252
 20
214.350076
 30
0.0
  0
SPLINE
  5
1d9
100
AcDbEntity
  8
Layer_1
 62
7
100
AcDbSpline
 70
8
 71
3
 72
8
 73
4
 74
0
 40
0
 40
0
 40
0
 40
0
 40
1
 40
1
 40
1
 40
1
 10
60.239252
 20
214.350076
 30
0.0
 10
47.764802
 20
208.623731
 30
0.0
 10
27.313123
 20
203.604206
 30
0.0
 10
25.839619
 20
205.907246
 30
0.0
  0
LWPOLYLINE
  5
1da
100
AcDbEntity
  8
Layer_1
 62
7
100
AcDbPolyline
 90
2
 70
0
 10
193.743498
 20
264.258130
 30
0.0
 10
193.743498
 20
264.258130
 30
0.0
  0
SPLINE
  5
1db
100
AcDbEntity
  8
Layer_1
 62
7
100
AcDbSpline
 70
8
 71
3
 72
8
 73
4
 74
0
 40
0
 40
0
 40
0
 40
0
 40
1
 40
1
 40
1
 40
1
 10
3.164049
 20
206.656453
 30
0.0
 10
5.248959
 20
209.915109
 30
0.0
 10
55.558111
 20
237.457868
 30
0.0
 10
56.561330
 20
235.889869
 30
0.0
  0
SPLINE
  5
1dc
100
AcDbEntity
  8
Layer_1
 62
7
100
AcDbSpline
 70
8
 71
3
 72
8
 73
4
 74
0
 40
0
 40
0
 40
0
 40
0
 40
1
 40
1
 40
1
 40
1
 10
56.561330
 20
235.889869
 30
0.0
 10
57.116571
 20
235.022041
 30
0.0
 10
56.100887
 20
234.362127
 30
0.0
 10
48.743799
 20
230.810640
 30
0.0
  0
SPLINE
  5
1dd
100
AcDbEntity
  8
Layer_1
 62
7
100
AcDbSpline
 70
8
 71
3
 72
8
 73
4
 74
0
 40
0
 40
0
 40
0
 40
0
 40
1
 40
1
 40
1
 40
1
 10
48.743799
 20
230.810640
 30
0.0
 10
37.261176
 20
225.267629
 30
0.0
 10
10.790159
 20
210.511583
 30
0.0
 10
9.936997
 20
209.178117
 30
0.0
  0
SPLINE
  5
1de
100
AcDbEntity
  8
Layer_1
 62
7
100
AcDbSpline
 70
8
 71
3
 72
8
 73
4
 74
0
 40
0
 40
0
 40
0
 40
0
 40
1
 40
1
 40
1
 40
1
 10
9.936997
 20
209.178117
 30
0.0
 10
9.147534
 20
207.944205
 30
0.0
 10
10.232748
 20
207.986538
 30
0.0
 10
14.883694
 20
209.371092
 30
0.0
  0
SPLINE
  5
1df
100
AcDbEntity
  8
Layer_1
 62
7
100
AcDbSpline
 70
8
 71
3
 72
8
 73
4
 74
0
 40
0
 40
0
 40
0
 40
0
 40
1
 40
1
 40
1
 40
1
 10
14.883694
 20
209.371092
 30
0.0
 10
21.963747
 20
211.478762
 30
0.0
 10
31.204662
 20
215.167446
 30
0.0
 10
45.262173
 20
221.497222
 30
0.0
  0
SPLINE
  5
1e0
100
AcDbEntity
  8
Layer_1
 62
7
100
AcDbSpline
 70
8
 71
3
 72
8
 73
4
 74
0
 40
0
 40
0
 40
0
 40
0
 40
1
 40
1
 40
1
 40
1
 10
45.262173
 20
221.497222
 30
0.0
 10
52.206034
 20
224.623883
 30
0.0
 10
57.989069
 20
227.182058
 30
0.0
 10
58.113366
 20
227.182058
 30
0.0
  0
SPLINE
  5
1e1
100
AcDbEntity
  8
Layer_1
 62
7
100
AcDbSpline
 70
8
 71
3
 72
8
 73
4
 74
0
 40
0
 40
0
 40
0
 40
0
 40
1
 40
1
 40
1
 40
1
 10
58.113366
 20
227.182058
 30
0.0
 10
58.237659
 20
227.182058
 30
0.0
 10
58.339355
 20
226.796003
 30
0.0
 10
58.339355
 20
226.324156
 30
0.0
  0
SPLINE
  5
1e2
100
AcDbEntity
  8
Layer_1
 62
7
100
AcDbSpline
 70
8
 71
3
 72
8
 73
4
 74
0
 40
0
 40
0
 40
0
 40
0
 40
1
 40
1
 40
1
 40
1
 10
58.339355
 20
226.324156
 30
0.0
 10
58.339355
 20
225.403699
 30
0.0
 10
35.005078
 20
214.740469
 30
0.0
 10
24.566919
 20
210.890918
 30
0.0
  0
SPLINE
  5
1e3
100
AcDbEntity
  8
Layer_1
 62
7
100
AcDbSpline
 70
8
 71
3
 72
8
 73
4
 74
0
 40
0
 40
0
 40
0
 40
0
 40
1
 40
1
 40
1
 40
1
 10
24.566919
 20
210.890918
 30
0.0
 10
21.089117
 20
209.608320
 30
0.0
 10
16.090842
 20
207.982209
 30
0.0
 10
13.459640
 20
207.277325
 30
0.0
  0
SPLINE
  5
1e4
100
AcDbEntity
  8
Layer_1
 62
7
100
AcDbSpline
 70
8
 71
3
 72
8
 73
4
 74
0
 40
0
 40
0
 40
0
 40
0
 40
1
 40
1
 40
1
 40
1
 10
13.459640
 20
207.277325
 30
0.0
 10
8.323109
 20
205.901294
 30
0.0
 10
2.454459
 20
205.547385
 30
0.0
 10
3.164049
 20
206.656453
 30
0.0
  0
LWPOLYLINE
  5
1e5
100
AcDbEntity
  8
Layer_1
 62
7
100
AcDbPolyline
 90
2
 70
0
 10
25.839619
 20
205.907246
 30
0.0
 10
25.839619
 20
205.907246
 30
0.0
  0
SPLINE
  5
1e6
100
AcDbEntity
  8
Layer_1
 62
7
100
AcDbSpline
 70
8
 71
3
 72
8
 73
4
 74
0
 40
0
 40
0
 40
0
 40
0
 40
1
 40
1
 40
1
 40
1
 10
77.530466
 20
206.591539
 30
0.0
 10
77.530466
 20
206.919239
 30
0.0
 10
80.037003
 20
208.724558
 30
0.0
 10
83.100556
 20
210.603368
 30
0.0
  0
SPLINE
  5
1e7
100
AcDbEntity
  8
Layer_1
 62
7
100
AcDbSpline
 70
8
 71
3
 72
8
 73
4
 74
0
 40
0
 40
0
 40
0
 40
0
 40
1
 40
1
 40
1
 40
1
 10
83.100556
 20
210.603368
 30
0.0
 10
86.164101
 20
212.482172
 30
0.0
 10
91.749908
 20
216.310632
 30
0.0
 10
95.513454
 20
219.111055
 30
0.0
  0
SPLINE
  5
1e8
100
AcDbEntity
  8
Layer_1
 62
7
100
AcDbSpline
 70
8
 71
3
 72
8
 73
4
 74
0
 40
0
 40
0
 40
0
 40
0
 40
1
 40
1
 40
1
 40
1
 10
95.513454
 20
219.111055
 30
0.0
 10
99.277003
 20
221.911479
 30
0.0
 10
103.170352
 20
224.719471
 30
0.0
 10
104.165349
 20
225.351039
 30
0.0
  0
SPLINE
  5
1e9
100
AcDbEntity
  8
Layer_1
 62
7
100
AcDbSpline
 70
8
 71
3
 72
8
 73
4
 74
0
 40
0
 40
0
 40
0
 40
0
 40
1
 40
1
 40
1
 40
1
 10
104.165349
 20
225.351039
 30
0.0
 10
105.160346
 20
225.982608
 30
0.0
 10
106.142556
 20
227.174339
 30
0.0
 10
106.348030
 20
227.999331
 30
0.0
  0
SPLINE
  5
1ea
100
AcDbEntity
  8
Layer_1
 62
7
100
AcDbSpline
 70
8
 71
3
 72
8
 73
4
 74
0
 40
0
 40
0
 40
0
 40
0
 40
1
 40
1
 40
1
 40
1
 10
106.348030
 20
227.999331
 30
0.0
 10
106.791063
 20
229.778070
 30
0.0
 10
109.270856
 20
230.060024
 30
0.0
 10
109.607799
 20
228.369968
 30
0.0
  0
SPLINE
  5
1eb
100
AcDbEntity
  8
Layer_1
 62
7
100
AcDbSpline
 70
8
 71
3
 72
8
 73
4
 74
0
 40
0
 40
0
 40
0
 40
0
 40
1
 40
1
 40
1
 40
1
 10
109.607799
 20
228.369968
 30
0.0
 10
109.766927
 20
227.571807
 30
0.0
 10
106.631757
 20
224.928987
 30
0.0
 10
98.916834
 20
219.357907
 30
0.0
  0
SPLINE
  5
1ec
100
AcDbEntity
  8
Layer_1
 62
7
100
AcDbSpline
 70
8
 71
3
 72
8
 73
4
 74
0
 40
0
 40
0
 40
0
 40
0
 40
1
 40
1
 40
1
 40
1
 10
98.916834
 20
219.357907
 30
0.0
 10
92.912963
 20
215.022412
 30
0.0
 10
87.032835
 20
210.922905
 30
0.0
 10
85.849875
 20
210.247895
 30
0.0
  0
SPLINE
  5
1ed
100
AcDbEntity
  8
Layer_1
 62
7
100
AcDbSpline
 70
8
 71
3
 72
8
 73
4
 74
0
 40
0
 40
0
 40
0
 40
0
 40
1
 40
1
 40
1
 40
1
 10
85.849875
 20
210.247895
 30
0.0
 10
83.831887
 20
209.096405
 30
0.0
 10
83.034559
 20
207.981949
 30
0.0
 10
84.228720
 20
207.981949
 30
0.0
  0
SPLINE
  5
1ee
100
AcDbEntity
  8
Layer_1
 62
7
100
AcDbSpline
 70
8
 71
3
 72
8
 73
4
 74
0
 40
0
 40
0
 40
0
 40
0
 40
1
 40
1
 40
1
 40
1
 10
84.228720
 20
207.981949
 30
0.0
 10
85.187623
 20
207.981949
 30
0.0
 10
95.191332
 20
211.854216
 30
0.0
 10
98.905853
 20
213.663215
 30
0.0
  0
SPLINE
  5
1ef
100
AcDbEntity
  8
Layer_1
 62
7
100
AcDbSpline
 70
8
 71
3
 72
8
 73
4
 74
0
 40
0
 40
0
 40
0
 40
0
 40
1
 40
1
 40
1
 40
1
 10
98.905853
 20
213.663215
 30
0.0
 10
100.908733
 20
214.638629
 30
0.0
 10
106.657589
 20
217.930441
 30
0.0
 10
111.681102
 20
220.978342
 30
0.0
  0
SPLINE
  5
1f0
100
AcDbEntity
  8
Layer_1
 62
7
100
AcDbSpline
 70
8
 71
3
 72
8
 73
4
 74
0
 40
0
 40
0
 40
0
 40
0
 40
1
 40
1
 40
1
 40
1
 10
111.681102
 20
220.978342
 30
0.0
 10
116.704610
 20
224.026246
 30
0.0
 10
121.125417
 20
226.519987
 30
0.0
 10
121.505122
 20
226.519987
 30
0.0
  0
SPLINE
  5
1f1
100
AcDbEntity
  8
Layer_1
 62
7
100
AcDbSpline
 70
8
 71
3
 72
8
 73
4
 74
0
 40
0
 40
0
 40
0
 40
0
 40
1
 40
1
 40
1
 40
1
 10
121.505122
 20
226.519987
 30
0.0
 10
123.431334
 20
226.519987
 30
0.0
 10
120.824679
 20
224.411903
 30
0.0
 10
113.120991
 20
219.739477
 30
0.0
  0
SPLINE
  5
1f2
100
AcDbEntity
  8
Layer_1
 62
7
100
AcDbSpline
 70
8
 71
3
 72
8
 73
4
 74
0
 40
0
 40
0
 40
0
 40
0
 40
1
 40
1
 40
1
 40
1
 10
113.120991
 20
219.739477
 30
0.0
 10
103.602048
 20
213.966068
 30
0.0
 10
96.083377
 20
210.275171
 30
0.0
 10
88.627314
 20
207.715599
 30
0.0
  0
SPLINE
  5
1f3
100
AcDbEntity
  8
Layer_1
 62
7
100
AcDbSpline
 70
8
 71
3
 72
8
 73
4
 74
0
 40
0
 40
0
 40
0
 40
0
 40
1
 40
1
 40
1
 40
1
 10
88.627314
 20
207.715599
 30
0.0
 10
83.728269
 20
206.033814
 30
0.0
 10
77.530466
 20
205.406005
 30
0.0
 10
77.530466
 20
206.591539
 30
0.0
  0
LWPOLYLINE
  5
1f4
100
AcDbEntity
  8
Layer_1
 62
7
100
AcDbPolyline
 90
2
 70
0
 10
3.164049
 20
206.656453
 30
0.0
 10
3.164049
 20
206.656453
 30
0.0
  0
SPLINE
  5
1f5
100
AcDbEntity
  8
Layer_1
 62
7
100
AcDbSpline
 70
8
 71
3
 72
8
 73
4
 74
0
 40
0
 40
0
 40
0
 40
0
 40
1
 40
1
 40
1
 40
1
 10
65.810181
 20
226.811949
 30
0.0
 10
65.148974
 20
230.382429
 30
0.0
 10
65.467478
 20
230.772579
 30
0.0
 10
71.380175
 20
233.634801
 30
0.0
  0
SPLINE
  5
1f6
100
AcDbEntity
  8
Layer_1
 62
7
100
AcDbSpline
 70
8
 71
3
 72
8
 73
4
 74
0
 40
0
 40
0
 40
0
 40
0
 40
1
 40
1
 40
1
 40
1
 10
71.380175
 20
233.634801
 30
0.0
 10
77.390097
 20
236.544086
 30
0.0
 10
80.272052
 20
237.150570
 30
0.0
 10
80.272052
 20
235.506021
 30
0.0
  0
SPLINE
  5
1f7
100
AcDbEntity
  8
Layer_1
 62
7
100
AcDbSpline
 70
8
 71
3
 72
8
 73
4
 74
0
 40
0
 40
0
 40
0
 40
0
 40
1
 40
1
 40
1
 40
1
 10
80.272052
 20
235.506021
 30
0.0
 10
80.272052
 20
233.774591
 30
0.0
 10
76.722444
 20
231.674739
 30
0.0
 10
74.516138
 20
232.100985
 30
0.0
  0
SPLINE
  5
1f8
100
AcDbEntity
  8
Layer_1
 62
7
100
AcDbSpline
 70
8
 71
3
 72
8
 73
4
 74
0
 40
0
 40
0
 40
0
 40
0
 40
1
 40
1
 40
1
 40
1
 10
74.516138
 20
232.100985
 30
0.0
 10
72.437213
 20
232.502621
 30
0.0
 10
68.945608
 20
230.928798
 30
0.0
 10
69.610399
 20
229.889748
 30
0.0
  0
SPLINE
  5
1f9
100
AcDbEntity
  8
Layer_1
 62
7
100
AcDbSpline
 70
8
 71
3
 72
8
 73
4
 74
0
 40
0
 40
0
 40
0
 40
0
 40
1
 40
1
 40
1
 40
1
 10
69.610399
 20
229.889748
 30
0.0
 10
69.802008
 20
229.590271
 30
0.0
 10
69.426300
 20
228.903845
 30
0.0
 10
68.775495
 20
228.364354
 30
0.0
  0
SPLINE
  5
1fa
100
AcDbEntity
  8
Layer_1
 62
7
100
AcDbSpline
 70
8
 71
3
 72
8
 73
4
 74
0
 40
0
 40
0
 40
0
 40
0
 40
1
 40
1
 40
1
 40
1
 10
68.775495
 20
228.364354
 30
0.0
 10
67.168254
 20
227.032023
 30
0.0
 10
65.893055
 20
226.364429
 30
0.0
 10
65.810181
 20
226.811949
 30
0.0
  0
LWPOLYLINE
  5
1fb
100
AcDbEntity
  8
Layer_1
 62
7
100
AcDbPolyline
 90
2
 70
0
 10
77.530466
 20
206.591539
 30
0.0
 10
77.530466
 20
206.591539
 30
0.0
  0
SPLINE
  5
1fc
100
AcDbEntity
  8
Layer_1
 62
7
100
AcDbSpline
 70
8
 71
3
 72
8
 73
4
 74
0
 40
0
 40
0
 40
0
 40
0
 40
1
 40
1
 40
1
 40
1
 10
142.909191
 20
228.195808
 30
0.0
 10
141.670481
 20
229.117035
 30
0.0
 10
141.717796
 20
229.242754
 30
0.0
 10
144.013956
 20
231.131670
 30
0.0
  0
SPLINE
  5
1fd
100
AcDbEntity
  8
Layer_1
 62
7
100
AcDbSpline
 70
8
 71
3
 72
8
 73
4
 74
0
 40
0
 40
0
 40
0
 40
0
 40
1
 40
1
 40
1
 40
1
 10
144.013956
 20
231.131670
 30
0.0
 10
146.341646
 20
233.046523
 30
0.0
 10
149.497130
 20
233.821683
 30
0.0
 10
149.497130
 20
232.478641
 30
0.0
  0
SPLINE
  5
1fe
100
AcDbEntity
  8
Layer_1
 62
7
100
AcDbSpline
 70
8
 71
3
 72
8
 73
4
 74
0
 40
0
 40
0
 40
0
 40
0
 40
1
 40
1
 40
1
 40
1
 10
149.497130
 20
232.478641
 30
0.0
 10
149.497130
 20
232.114501
 30
0.0
 10
149.181066
 20
231.816567
 30
0.0
 10
148.794769
 20
231.816567
 30
0.0
  0
SPLINE
  5
1ff
100
AcDbEntity
  8
Layer_1
 62
7
100
AcDbSpline
 70
8
 71
3
 72
8
 73
4
 74
0
 40
0
 40
0
 40
0
 40
0
 40
1
 40
1
 40
1
 40
1
 10
148.794769
 20
231.816567
 30
0.0
 10
148.408475
 20
231.816567
 30
0.0
 10
147.806379
 20
231.089850
 30
0.0
 10
147.456787
 20
230.201641
 30
0.0
  0
SPLINE
  5
200
100
AcDbEntity
  8
Layer_1
 62
7
100
AcDbSpline
 70
8
 71
3
 72
8
 73
4
 74
0
 40
0
 40
0
 40
0
 40
0
 40
1
 40
1
 40
1
 40
1
 10
147.456787
 20
230.201641
 30
0.0
 10
146.542596
 20
227.878969
 30
0.0
 10
144.529285
 20
226.990945
 30
0.0
 10
142.909191
 20
228.195808
 30
0.0
  0
LWPOLYLINE
  5
201
100
AcDbEntity
  8
Layer_1
 62
7
100
AcDbPolyline
 90
2
 70
0
 10
65.810181
 20
226.811949
 30
0.0
 10
65.810181
 20
226.811949
 30
0.0
  0
SPLINE
  5
202
100
AcDbEntity
  8
Layer_1
 62
7
100
AcDbSpline
 70
8
 71
3
 72
8
 73
4
 74
0
 40
0
 40
0
 40
0
 40
0
 40
1
 40
1
 40
1
 40
1
 10
64.593600
 20
239.678680
 30
0.0
 10
64.880267
 20
240.509407
 30
0.0
 10
65.878721
 20
240.702303
 30
0.0
 10
65.878721
 20
239.926959
 30
0.0
  0
SPLINE
  5
203
100
AcDbEntity
  8
Layer_1
 62
7
100
AcDbSpline
 70
8
 71
3
 72
8
 73
4
 74
0
 40
0
 40
0
 40
0
 40
0
 40
1
 40
1
 40
1
 40
1
 10
65.878721
 20
239.926959
 30
0.0
 10
65.878721
 20
239.653853
 30
0.0
 10
65.531738
 20
239.318677
 30
0.0
 10
65.107648
 20
239.182127
 30
0.0
  0
SPLINE
  5
204
100
AcDbEntity
  8
Layer_1
 62
7
100
AcDbSpline
 70
8
 71
3
 72
8
 73
4
 74
0
 40
0
 40
0
 40
0
 40
0
 40
1
 40
1
 40
1
 40
1
 10
65.107648
 20
239.182127
 30
0.0
 10
64.683558
 20
239.045574
 30
0.0
 10
64.452238
 20
239.269023
 30
0.0
 10
64.593600
 20
239.678680
 30
0.0
  0
LWPOLYLINE
  5
205
100
AcDbEntity
  8
Layer_1
 62
7
100
AcDbPolyline
 90
2
 70
0
 10
142.909191
 20
228.195808
 30
0.0
 10
142.909191
 20
228.195808
 30
0.0
  0
SPLINE
  5
206
100
AcDbEntity
  8
Layer_1
 62
7
100
AcDbSpline
 70
8
 71
3
 72
8
 73
4
 74
0
 40
0
 40
0
 40
0
 40
0
 40
1
 40
1
 40
1
 40
1
 10
71.529809
 20
243.237321
 30
0.0
 10
71.865196
 20
244.221052
 30
0.0
 10
74.788878
 20
244.771360
 30
0.0
 10
74.788878
 20
243.850757
 30
0.0
  0
SPLINE
  5
207
100
AcDbEntity
  8
Layer_1
 62
7
100
AcDbSpline
 70
8
 71
3
 72
8
 73
4
 74
0
 40
0
 40
0
 40
0
 40
0
 40
1
 40
1
 40
1
 40
1
 10
74.788878
 20
243.850757
 30
0.0
 10
74.788878
 20
243.208667
 30
0.0
 10
73.206139
 20
242.409730
 30
0.0
 10
71.934118
 20
242.409730
 30
0.0
  0
SPLINE
  5
208
100
AcDbEntity
  8
Layer_1
 62
7
100
AcDbSpline
 70
8
 71
3
 72
8
 73
4
 74
0
 40
0
 40
0
 40
0
 40
0
 40
1
 40
1
 40
1
 40
1
 10
71.934118
 20
242.409730
 30
0.0
 10
71.556567
 20
242.409730
 30
0.0
 10
71.374629
 20
242.782145
 30
0.0
 10
71.529809
 20
243.237321
 30
0.0
  0
LWPOLYLINE
  5
209
100
AcDbEntity
  8
Layer_1
 62
7
100
AcDbPolyline
 90
2
 70
0
 10
64.593600
 20
239.678680
 30
0.0
 10
64.593600
 20
239.678680
 30
0.0
  0
SPLINE
  5
20a
100
AcDbEntity
  8
Layer_1
 62
7
100
AcDbSpline
 70
8
 71
3
 72
8
 73
4
 74
0
 40
0
 40
0
 40
0
 40
0
 40
1
 40
1
 40
1
 40
1
 10
136.798736
 20
252.369824
 30
0.0
 10
136.078248
 20
253.495924
 30
0.0
 10
137.567614
 20
254.670065
 30
0.0
 10
142.471354
 20
256.841830
 30
0.0
  0
SPLINE
  5
20b
100
AcDbEntity
  8
Layer_1
 62
7
100
AcDbSpline
 70
8
 71
3
 72
8
 73
4
 74
0
 40
0
 40
0
 40
0
 40
0
 40
1
 40
1
 40
1
 40
1
 10
142.471354
 20
256.841830
 30
0.0
 10
152.401459
 20
261.239667
 30
0.0
 10
166.974749
 20
264.087710
 30
0.0
 10
166.974749
 20
261.630503
 30
0.0
  0
SPLINE
  5
20c
100
AcDbEntity
  8
Layer_1
 62
7
100
AcDbSpline
 70
8
 71
3
 72
8
 73
4
 74
0
 40
0
 40
0
 40
0
 40
0
 40
1
 40
1
 40
1
 40
1
 10
166.974749
 20
261.630503
 30
0.0
 10
166.974749
 20
260.948575
 30
0.0
 10
164.815777
 20
260.129812
 30
0.0
 10
159.748056
 20
258.889877
 30
0.0
  0
SPLINE
  5
20d
100
AcDbEntity
  8
Layer_1
 62
7
100
AcDbSpline
 70
8
 71
3
 72
8
 73
4
 74
0
 40
0
 40
0
 40
0
 40
0
 40
1
 40
1
 40
1
 40
1
 10
159.748056
 20
258.889877
 30
0.0
 10
155.773371
 20
257.917378
 30
0.0
 10
149.429600
 20
255.897034
 30
0.0
 10
145.650780
 20
254.400223
 30
0.0
  0
SPLINE
  5
20e
100
AcDbEntity
  8
Layer_1
 62
7
100
AcDbSpline
 70
8
 71
3
 72
8
 73
4
 74
0
 40
0
 40
0
 40
0
 40
0
 40
1
 40
1
 40
1
 40
1
 10
145.650780
 20
254.400223
 30
0.0
 10
138.291680
 20
251.485246
 30
0.0
 10
137.483325
 20
251.299832
 30
0.0
 10
136.798736
 20
252.369824
 30
0.0
  0
LWPOLYLINE
  5
20f
100
AcDbEntity
  8
Layer_1
 62
7
100
AcDbPolyline
 90
2
 70
0
 10
71.529809
 20
243.237321
 30
0.0
 10
71.529809
 20
243.237321
 30
0.0
  0
SPLINE
  5
210
100
AcDbEntity
  8
Layer_1
 62
7
100
AcDbSpline
 70
8
 71
3
 72
8
 73
4
 74
0
 40
0
 40
0
 40
0
 40
0
 40
1
 40
1
 40
1
 40
1
 10
125.336893
 20
255.483037
 30
0.0
 10
123.226043
 20
255.949821
 30
0.0
 10
124.048483
 20
257.459002
 30
0.0
 10
127.050385
 20
258.627300
 30
0.0
  0
SPLINE
  5
211
100
AcDbEntity
  8
Layer_1
 62
7
100
AcDbSpline
 70
8
 71
3
 72
8
 73
4
 74
0
 40
0
 40
0
 40
0
 40
0
 40
1
 40
1
 40
1
 40
1
 10
127.050385
 20
258.627300
 30
0.0
 10
142.446632
 20
264.619293
 30
0.0
 10
159.709344
 20
269.554709
 30
0.0
 10
165.271422
 20
269.554709
 30
0.0
  0
SPLINE
  5
212
100
AcDbEntity
  8
Layer_1
 62
7
100
AcDbSpline
 70
8
 71
3
 72
8
 73
4
 74
0
 40
0
 40
0
 40
0
 40
0
 40
1
 40
1
 40
1
 40
1
 10
165.271422
 20
269.554709
 30
0.0
 10
167.556047
 20
269.554709
 30
0.0
 10
168.060446
 20
269.339473
 30
0.0
 10
167.881323
 20
268.441010
 30
0.0
  0
SPLINE
  5
213
100
AcDbEntity
  8
Layer_1
 62
7
100
AcDbSpline
 70
8
 71
3
 72
8
 73
4
 74
0
 40
0
 40
0
 40
0
 40
0
 40
1
 40
1
 40
1
 40
1
 10
167.881323
 20
268.441010
 30
0.0
 10
167.716019
 20
267.611859
 30
0.0
 10
166.346028
 20
267.112054
 30
0.0
 10
162.519239
 20
266.484798
 30
0.0
  0
SPLINE
  5
214
100
AcDbEntity
  8
Layer_1
 62
7
100
AcDbSpline
 70
8
 71
3
 72
8
 73
4
 74
0
 40
0
 40
0
 40
0
 40
0
 40
1
 40
1
 40
1
 40
1
 10
162.519239
 20
266.484798
 30
0.0
 10
157.037292
 20
265.586240
 30
0.0
 10
147.201306
 20
262.802428
 30
0.0
 10
139.901574
 20
260.083473
 30
0.0
  0
SPLINE
  5
215
100
AcDbEntity
  8
Layer_1
 62
7
100
AcDbSpline
 70
8
 71
3
 72
8
 73
4
 74
0
 40
0
 40
0
 40
0
 40
0
 40
1
 40
1
 40
1
 40
1
 10
139.901574
 20
260.083473
 30
0.0
 10
129.202073
 20
256.098197
 30
0.0
 10
126.464845
 20
255.233609
 30
0.0
 10
125.336893
 20
255.483037
 30
0.0
  0
LWPOLYLINE
  5
216
100
AcDbEntity
  8
Layer_1
 62
7
100
AcDbPolyline
 90
2
 70
0
 10
136.798736
 20
252.369824
 30
0.0
 10
136.798736
 20
252.369824
 30
0.0
  0
LWPOLYLINE
  5
217
100
AcDbEntity
  8
Layer_1
 62
7
100
AcDbPolyline
 90
2
 70
0
 10
125.336893
 20
255.483037
 30
0.0
 10
125.336893
 20
255.483037
 30
0.0
  0
SPLINE
  5
218
100
AcDbEntity
  8
Layer_1
 62
7
100
AcDbSpline
 70
8
 71
3
 72
8
 73
4
 74
0
 40
0
 40
0
 40
0
 40
0
 40
1
 40
1
 40
1
 40
1
 10
173.635354
 20
269.187253
 30
0.0
 10
177.905670
 20
270.912543
 30
0.0
 10
179.179776
 20
270.171500
 30
0.0
 10
176.853915
 20
267.315274
 30
0.0
  0
SPLINE
  5
219
100
AcDbEntity
  8
Layer_1
 62
7
100
AcDbSpline
 70
8
 71
3
 72
8
 73
4
 74
0
 40
0
 40
0
 40
0
 40
0
 40
1
 40
1
 40
1
 40
1
 10
176.853915
 20
267.315274
 30
0.0
 10
175.178483
 20
265.257787
 30
0.0
 10
175.014029
 20
265.240317
 30
0.0
 10
172.800622
 20
266.884721
 30
0.0
  0
LWPOLYLINE
  5
21a
100
AcDbEntity
  8
Layer_1
 62
7
100
AcDbPolyline
 90
3
 70
0
 10
172.800622
 20
266.884721
 30
0.0
 10
171.087130
 20
268.157721
 30
0.0
 10
173.635354
 20
269.187253
 30
0.0
  0
LWPOLYLINE
  5
21b
100
AcDbEntity
  8
Layer_1
 62
7
100
AcDbPolyline
 90
2
 70
0
 10
172.800622
 20
266.884721
 30
0.0
 10
172.800622
 20
266.884721
 30
0.0
  0
ENDSEC
  0
SECTION
  2
OBJECTS
  0
DICTIONARY
  5
C
330
0
100
AcDbDictionary
  3
ACAD_GROUP
350
D
  3
ACAD_MLINESTYLE
350
17
  0
DICTIONARY
  5
D
330
C
100
AcDbDictionary
  0
DICTIONARY
  5
1A
330
C
100
AcDbDictionary
  0
DICTIONARY
  5
17
330
C
100
AcDbDictionary
  3
STANDARD
350
18
  0
DICTIONARY
  5
19
330
C
100
AcDbDictionary
  0
ENDSEC
  0
EOF
