  0
SECTION
  2
HEADER
  9
$ACADVER
  1
AC1009
  9
$INSBASE
 10
0.0
 20
0.0
 30
0.0
  9
$EXTMIN
10
352.8207
20
-534.838
30
0.0
  9
$EXTMAX
10
592.8207
20
-294.838
30
0.0
  9
$LIMMIN
 10
0.0
 20
0.0
  9
$LIMMAX
 10
12.0
 20
9.0
  9
$ORTHOMODE
 70
     0
  9
$REGENMODE
 70
     1
  9
$FILLMODE
 70
     1
  9
$QTEXTMODE
 70
     0
  9
$MIRRTEXT
 70
     1
  9
$DRAGMODE
 70
     2
  9
$LTSCALE
 40
1.0
  9
$OSMODE
 70
     0
  9
$ATTMODE
 70
     1
  9
$TEXTSIZE
 40
0.2
  9
$TRACEWID
 40
0.05
  9
$TEXTSTYLE
  7
STANDARD
  9
$CLAYER
  8
0
  9
$CELTYPE
  6
BYLAYER
  9
$CECOLOR
 62
   256
  9
$DIMSCALE
 40
1.0
  9
$DIMASZ
 40
0.18
  9
$DIMEXO
 40
0.0625
  9
$DIMDLI
 40
0.38
  9
$DIMRND
 40
0.0
  9
$DIMDLE
 40
0.0
  9
$DIMEXE
 40
0.18
  9
$DIMTP
 40
0.0
  9
$DIMTM
 40
0.0
  9
$DIMTXT
 40
0.18
  9
$DIMCEN
 40
0.09
  9
$DIMTSZ
 40
0.0
  9
$DIMTOL
 70
     0
  9
$DIMLIM
 70
     0
  9
$DIMTIH
 70
     1
  9
$DIMTOH
 70
     1
  9
$DIMSE1
 70
     0
  9
$DIMSE2
 70
     0
  9
$DIMTAD
 70
     0
  9
$DIMZIN
 70
     0
  9
$DIMBLK
  1

  9
$DIMASO
 70
     1
  9
$DIMSHO
 70
     1
  9
$DIMPOST
  1

  9
$DIMAPOST
  1

  9
$DIMALT
 70
     0
  9
$DIMALTD
 70
     2
  9
$DIMALTF
 40
25.4
  9
$DIMLFAC
 40
1.0
  9
$DIMTOFL
 70
     0
  9
$DIMTVP
 40
0.0
  9
$DIMTIX
 70
     0
  9
$DIMSOXD
 70
     0
  9
$DIMSAH
 70
     0
  9
$DIMBLK1
  1

  9
$DIMBLK2
  1

  9
$DIMSTYLE
  2
*UNNAMED
  9
$DIMCLRD
 70
     0
  9
$DIMCLRE
 70
     0
  9
$DIMCLRT
 70
     0
  9
$DIMTFAC
 40
1.0
  9
$DIMGAP
 40
0.09
  9
$LUNITS
 70
     2
  9
$LUPREC
 70
     4
  9
$AXISMODE
 70
     0
  9
$AXISUNIT
 10
0.0
 20
0.0
  9
$SKETCHINC
 40
0.1
  9
$FILLETRAD
 40
20.0
  9
$AUNITS
 70
     0
  9
$AUPREC
 70
     0
  9
$MENU
  1
acad
  9
$ELEVATION
 40
0.0
  9
$PELEVATION
 40
0.0
  9
$THICKNESS
 40
0.0
  9
$LIMCHECK
 70
     0
  9
$BLIPMODE
 70
     1
  9
$CHAMFERA
 40
0.0
  9
$CHAMFERB
 40
0.0
  9
$SKPOLY
 70
     0
  9
$TDCREATE
 40
2449065.363798726
  9
$TDUPDATE
 40
2449065.363798726
  9
$TDINDWG
 40
0.0000000000
  9
$TDUSRTIMER
 40
0.0000000000
  9
$USRTIMER
 70
     1
  9
$ANGBASE
 50
0.0
  9
$ANGDIR
 70
     0
  9
$PDMODE
 70
     0
  9
$PDSIZE
 40
0.0
  9
$PLINEWID
 40
0.0
  9
$COORDS
 70
     0
  9
$SPLFRAME
 70
     0
  9
$SPLINETYPE
 70
     6
  9
$SPLINESEGS
 70
     8
  9
$ATTDIA
 70
     0
  9
$ATTREQ
 70
     1
  9
$HANDLING
 70
     0
  9
$HANDSEED
  5
0
  9
$SURFTAB1
 70
     6
  9
$SURFTAB2
 70
     6
  9
$SURFTYPE
 70
     6
  9
$SURFU
 70
     6
  9
$SURFV
 70
     6
  9
$UCSNAME
  2

  9
$UCSORG
 10
0.0
 20
0.0
 30
0.0
  9
$UCSXDIR
 10
1.0
 20
0.0
 30
0.0
  9
$UCSYDIR
 10
0.0
 20
1.0
 30
0.0
  9
$PUCSNAME
  2

  9
$PUCSORG
 10
0.0
 20
0.0
 30
0.0
  9
$PUCSXDIR
 10
1.0
 20
0.0
 30
0.0
  9
$PUCSYDIR
 10
0.0
 20
1.0
 30
0.0
  9
$USERI1
 70
     0
  9
$USERI2
 70
     0
  9
$USERI3
 70
     0
  9
$USERI4
 70
     0
  9
$USERI5
 70
     0
  9
$USERR1
 40
0.0
  9
$USERR2
 40
0.0
  9
$USERR3
 40
0.0
  9
$USERR4
 40
0.0
  9
$USERR5
 40
0.0
  9
$WORLDVIEW
 70
     1
  9
$SHADEDGE
 70
     3
  9
$SHADEDIF
 70
    70
  9
$TILEMODE
 70
     1
  9
$MAXACTVP
 70
    16
  9
$PINSBASE
 10
0.0
 20
0.0
 30
0.0
  9
$PLIMCHECK
 70
     0
  9
$PEXTMIN
 10
1.0000000000E+20
 20
1.0000000000E+20
 30
1.0000000000E+20
  9
$PEXTMAX
 10
-1.0000000000E+20
 20
-1.0000000000E+20
 30
-1.0000000000E+20
  9
$PLIMMIN
 10
0.0
 20
0.0
  9
$PLIMMAX
 10
12.0
 20
9.0
  9
$UNITMODE
 70
     0
  9
$VISRETAIN
 70
     0
  0
ENDSEC
  0
SECTION
  2
TABLES
  0
TABLE
  2
VPORT
 70
     2
  0
VPORT
  2
*ACTIVE
 70
     0
 10
0.0
 20
0.0
 11
1.0
 21
1.0
 12
200.0
 22
144.8516579407
 13
0.0
 23
0.0
 14
1.0
 24
1.0
 15
0.0
 25
0.0
 16
0.0
 26
0.0
 36
1.0
 17
0.0
 27
0.0
 37
0.0
 40
289.7033158813
 41
1.3807228916
 42
50.0
 43
0.0
 44
0.0
 50
0.0
 51
0.0
 71
     0
 72
   100
 73
     1
 74
     1
 75
     0
 76
     0
 77
     0
 78
     0
  0
ENDTAB
  0
TABLE
  2
LTYPE
 70
     1
  0
LTYPE
  2
CONTINUOUS
 70
    64
  3
Solid line
 72
    65
 73
     0
 40
0.0
  0
ENDTAB
  0
TABLE
  2
LAYER
 70
     1
  0
LAYER
  2
0
 70
     0
 62
     7
  6
CONTINUOUS
  0
ENDTAB
  0
TABLE
  2
STYLE
 70
     1
  0
STYLE
  2
STANDARD
 70
     0
 40
0.0
 41
1.0
 50
0.0
 71
     0
 42
0.2
  3
txt
  4

  0
ENDTAB
  0
TABLE
  2
VIEW
 70
     0
  0
ENDTAB
  0
TABLE
  2
UCS
 70
     0
  0
ENDTAB
  0
TABLE
  2
APPID
 70
     1
  0
APPID
  2
ACAD
 70
    64
  0
ENDTAB
  0
TABLE
  2
DIMSTYLE
 70
     0
  0
ENDTAB
  0
ENDSEC
  0
SECTION
  2
BLOCKS
  0
ENDSEC
  0
SECTION
2
ENTITIES
0
LINE
8
1
62
2
10
572.8207
20
-324.838
30
0.0
11
572.8207
21
-504.838
31
0.0
  0
LINE
8
1
62
2
10
562.8207
20
-514.838
30
0.0
11
382.8207
21
-514.838
31
0.0
  0
LINE
8
1
62
2
10
372.8207
20
-504.838
30
0.0
11
372.8207
21
-324.838
31
0.0
  0
LINE
8
1
62
2
10
382.8207
20
-314.838
30
0.0
11
562.8207
21
-314.838
31
0.0
  0
LINE
8
1
62
2
10
378.7439
20
-345.3926
30
0.0
11
378.7439
21
-378.3926
31
0.0
  0
LINE
8
1
62
2
10
386.1439
20
-377.8935
30
0.0
11
386.1439
21
-364.6927
31
0.0
  0
LINE
8
1
62
2
10
386.1439
20
-364.6927
30
0.0
11
386.2439
21
-364.5926
31
0.0
  0
LINE
8
1
62
2
10
386.2439
20
-364.5926
30
0.0
11
386.2439
21
-361.9755
31
0.0
  0
LINE
8
1
62
2
10
386.2439
20
-361.9755
30
0.0
11
386.1025
21
-361.5512
31
0.0
  0
LINE
8
1
62
2
10
386.1025
20
-361.5512
30
0.0
11
386.5268
21
-361.6927
31
0.0
  0
LINE
8
1
62
2
10
386.5268
20
-361.6927
30
0.0
11
386.9611
21
-361.6927
31
0.0
  0
LINE
8
1
62
2
10
386.9611
20
-361.6927
30
0.0
11
387.3853
21
-361.5512
31
0.0
  0
LINE
8
1
62
2
10
387.3853
20
-361.5512
30
0.0
11
387.2439
21
-361.9755
31
0.0
  0
LINE
8
1
62
2
10
387.2439
20
-361.9755
30
0.0
11
387.2439
21
-364.5933
31
0.0
  0
LINE
8
1
62
2
10
387.2439
20
-364.5933
30
0.0
11
387.3439
21
-364.6933
31
0.0
  0
LINE
8
1
62
2
10
387.3439
20
-364.6933
30
0.0
11
387.3439
21
-377.8935
31
0.0
  0
LINE
8
1
62
2
10
394.7439
20
-378.3926
30
0.0
11
394.7439
21
-345.3926
31
0.0
  0
LINE
8
1
62
2
10
394.7439
20
-345.3926
30
0.0
11
392.1439
21
-345.3926
31
0.0
  0
LINE
8
1
62
2
10
392.1439
20
-345.3926
30
0.0
11
392.1439
21
-347.3926
31
0.0
  0
LINE
8
1
62
2
10
392.1439
20
-347.3926
30
0.0
11
389.5439
21
-347.3926
31
0.0
  0
LINE
8
1
62
2
10
389.5439
20
-347.3926
30
0.0
11
389.5439
21
-345.3926
31
0.0
  0
LINE
8
1
62
2
10
389.5439
20
-345.3926
30
0.0
11
383.9439
21
-345.3926
31
0.0
  0
LINE
8
1
62
2
10
383.9439
20
-345.3926
30
0.0
11
383.9439
21
-347.3926
31
0.0
  0
LINE
8
1
62
2
10
383.9439
20
-347.3926
30
0.0
11
381.3439
21
-347.3926
31
0.0
  0
LINE
8
1
62
2
10
381.3439
20
-347.3926
30
0.0
11
381.3439
21
-345.3926
31
0.0
  0
LINE
8
1
62
2
10
381.3439
20
-345.3926
30
0.0
11
378.7439
21
-345.3926
31
0.0
  0
LINE
8
1
62
2
10
399.7703
20
-345.4388
30
0.0
11
399.7703
21
-378.3925
31
0.0
  0
LINE
8
1
62
2
10
408.1703
20
-377.8931
30
0.0
11
408.1703
21
-371.1925
31
0.0
  0
LINE
8
1
62
2
10
408.1703
20
-371.1925
30
0.0
11
408.2703
21
-371.0924
31
0.0
  0
LINE
8
1
62
2
10
408.2703
20
-371.0924
30
0.0
11
408.2703
21
-368.4753
31
0.0
  0
LINE
8
1
62
2
10
408.2703
20
-368.4753
30
0.0
11
408.1289
21
-368.0511
31
0.0
  0
LINE
8
1
62
2
10
408.1289
20
-368.0511
30
0.0
11
408.5532
21
-368.1925
31
0.0
  0
LINE
8
1
62
2
10
408.5532
20
-368.1925
30
0.0
11
408.9875
21
-368.1925
31
0.0
  0
LINE
8
1
62
2
10
408.9875
20
-368.1925
30
0.0
11
409.4118
21
-368.0511
31
0.0
  0
LINE
8
1
62
2
10
409.4118
20
-368.0511
30
0.0
11
409.2703
21
-368.4753
31
0.0
  0
LINE
8
1
62
2
10
409.2703
20
-368.4753
30
0.0
11
409.2703
21
-371.0931
31
0.0
  0
LINE
8
1
62
2
10
409.2703
20
-371.0931
30
0.0
11
409.3704
21
-371.1931
31
0.0
  0
LINE
8
1
62
2
10
409.3704
20
-371.1931
30
0.0
11
409.3704
21
-377.8931
31
0.0
  0
LINE
8
1
62
2
10
417.7703
20
-378.3925
30
0.0
11
417.7703
21
-363.6387
31
0.0
  0
LINE
8
1
62
2
10
417.7703
20
-363.6387
30
0.0
11
410.7784
21
-357.7103
31
0.0
  0
LINE
8
1
62
2
10
410.7784
20
-357.7103
30
0.0
11
413.8709
21
-357.7103
31
0.0
  0
LINE
8
1
62
2
10
413.8709
20
-357.7103
30
0.0
11
415.1818
21
-358.8218
31
0.0
  0
LINE
8
1
62
2
10
415.1818
20
-358.8218
30
0.0
11
417.7703
21
-358.8218
31
0.0
  0
LINE
8
1
62
2
10
417.7703
20
-358.8218
30
0.0
11
417.7703
21
-344.9709
31
0.0
  0
LINE
8
1
62
2
10
417.7703
20
-344.9709
30
0.0
11
412.4251
21
-340.4388
31
0.0
  0
LINE
8
1
62
2
10
412.4251
20
-340.4388
30
0.0
11
404.7703
21
-340.4388
31
0.0
  0
LINE
8
1
62
2
10
422.7703
20
-376.4802
30
0.0
11
422.7703
21
-378.3926
31
0.0
  0
LINE
8
1
62
2
10
431.9453
20
-377.8936
30
0.0
11
431.9453
21
-360.8421
31
0.0
  0
LINE
8
1
62
2
10
431.9453
20
-360.8421
30
0.0
11
432.0453
21
-360.742
31
0.0
  0
LINE
8
1
62
2
10
432.0453
20
-360.742
30
0.0
11
432.0453
21
-358.1249
31
0.0
  0
LINE
8
1
62
2
10
432.0453
20
-358.1249
30
0.0
11
431.9039
21
-357.7007
31
0.0
  0
LINE
8
1
62
2
10
431.9039
20
-357.7007
30
0.0
11
432.3281
21
-357.8421
31
0.0
  0
LINE
8
1
62
2
10
432.3281
20
-357.8421
30
0.0
11
432.7625
21
-357.8421
31
0.0
  0
LINE
8
1
62
2
10
432.7625
20
-357.8421
30
0.0
11
433.1867
21
-357.7007
31
0.0
  0
LINE
8
1
62
2
10
433.1867
20
-357.7007
30
0.0
11
433.0453
21
-358.1249
31
0.0
  0
LINE
8
1
62
2
10
433.0453
20
-358.1249
30
0.0
11
433.0453
21
-360.7427
31
0.0
  0
LINE
8
1
62
2
10
433.0453
20
-360.7427
30
0.0
11
433.1453
21
-360.8427
31
0.0
  0
LINE
8
1
62
2
10
433.1453
20
-360.8427
30
0.0
11
433.1453
21
-377.8936
31
0.0
  0
LINE
8
1
62
2
10
442.3203
20
-378.3926
30
0.0
11
442.3203
21
-376.4802
31
0.0
  0
LINE
8
1
62
2
10
442.3203
20
-376.4802
30
0.0
11
435.3503
21
-358.5923
31
0.0
  0
LINE
8
1
62
2
10
435.3503
20
-358.5923
30
0.0
11
437.8153
21
-339.8582
31
0.0
  0
LINE
8
1
62
2
10
427.2753
20
-339.8582
30
0.0
11
429.7403
21
-358.5923
31
0.0
  0
LINE
8
1
62
2
10
429.7403
20
-358.5923
30
0.0
11
422.7703
21
-376.4802
31
0.0
  0
LINE
8
1
62
2
10
408.1618
20
-383.7275
30
0.0
11
399.7618
21
-404.1662
31
0.0
  0
LINE
8
1
62
2
10
417.7618
20
-404.1662
30
0.0
11
409.3618
21
-383.7271
31
0.0
  0
LINE
8
1
62
2
10
409.3618
20
-383.7271
30
0.0
11
409.3618
21
-391.1662
31
0.0
  0
LINE
8
1
62
2
10
409.3618
20
-391.1662
30
0.0
11
409.2618
21
-391.2662
31
0.0
  0
LINE
8
1
62
2
10
409.2618
20
-391.2662
30
0.0
11
409.2618
21
-393.9833
31
0.0
  0
LINE
8
1
62
2
10
409.2618
20
-393.9833
30
0.0
11
409.4032
21
-394.4076
31
0.0
  0
LINE
8
1
62
2
10
409.4032
20
-394.4076
30
0.0
11
408.979
21
-394.2662
31
0.0
  0
LINE
8
1
62
2
10
408.979
20
-394.2662
30
0.0
11
408.5446
21
-394.2662
31
0.0
  0
LINE
8
1
62
2
10
408.5446
20
-394.2662
30
0.0
11
408.1203
21
-394.4076
31
0.0
  0
LINE
8
1
62
2
10
408.1203
20
-394.4076
30
0.0
11
408.2618
21
-393.9833
31
0.0
  0
LINE
8
1
62
2
10
408.2618
20
-393.9833
30
0.0
11
408.2618
21
-391.2661
31
0.0
  0
LINE
8
1
62
2
10
408.2618
20
-391.2661
30
0.0
11
408.1618
21
-391.1661
31
0.0
  0
LINE
8
1
62
2
10
408.1618
20
-391.1661
30
0.0
11
408.1618
21
-383.7275
31
0.0
  0
LINE
8
1
62
2
10
394.7436
20
-416.3926
30
0.0
11
394.7436
21
-383.3926
31
0.0
  0
LINE
8
1
62
2
10
378.7436
20
-383.3926
30
0.0
11
378.7436
21
-416.3926
31
0.0
  0
LINE
8
1
62
2
10
378.7436
20
-416.3926
30
0.0
11
381.3436
21
-416.3926
31
0.0
  0
LINE
8
1
62
2
10
381.3436
20
-416.3926
30
0.0
11
381.3436
21
-414.3926
31
0.0
  0
LINE
8
1
62
2
10
381.3436
20
-414.3926
30
0.0
11
383.9436
21
-414.3926
31
0.0
  0
LINE
8
1
62
2
10
383.9436
20
-414.3926
30
0.0
11
383.9436
21
-416.3926
31
0.0
  0
LINE
8
1
62
2
10
383.9436
20
-416.3926
30
0.0
11
386.1436
21
-416.3926
31
0.0
  0
LINE
8
1
62
2
10
386.1436
20
-416.3926
30
0.0
11
386.1436
21
-402.8927
31
0.0
  0
LINE
8
1
62
2
10
386.1436
20
-402.8927
30
0.0
11
386.2436
21
-402.7927
31
0.0
  0
LINE
8
1
62
2
10
386.2436
20
-402.7927
30
0.0
11
386.2436
21
-400.0755
31
0.0
  0
LINE
8
1
62
2
10
386.2436
20
-400.0755
30
0.0
11
386.1022
21
-399.6512
31
0.0
  0
LINE
8
1
62
2
10
386.1022
20
-399.6512
30
0.0
11
386.5264
21
-399.7927
31
0.0
  0
LINE
8
1
62
2
10
386.5264
20
-399.7927
30
0.0
11
386.9607
21
-399.7927
31
0.0
  0
LINE
8
1
62
2
10
386.9607
20
-399.7927
30
0.0
11
387.385
21
-399.6512
31
0.0
  0
LINE
8
1
62
2
10
387.385
20
-399.6512
30
0.0
11
387.2436
21
-400.0755
31
0.0
  0
LINE
8
1
62
2
10
387.2436
20
-400.0755
30
0.0
11
387.2436
21
-402.7927
31
0.0
  0
LINE
8
1
62
2
10
387.2436
20
-402.7927
30
0.0
11
387.3436
21
-402.8927
31
0.0
  0
LINE
8
1
62
2
10
387.3436
20
-402.8927
30
0.0
11
387.3436
21
-416.3926
31
0.0
  0
LINE
8
1
62
2
10
387.3436
20
-416.3926
30
0.0
11
389.5436
21
-416.3926
31
0.0
  0
LINE
8
1
62
2
10
389.5436
20
-416.3926
30
0.0
11
389.5436
21
-414.3926
31
0.0
  0
LINE
8
1
62
2
10
389.5436
20
-414.3926
30
0.0
11
392.1436
21
-414.3926
31
0.0
  0
LINE
8
1
62
2
10
392.1436
20
-414.3926
30
0.0
11
392.1436
21
-416.3926
31
0.0
  0
LINE
8
1
62
2
10
392.1436
20
-416.3926
30
0.0
11
394.7436
21
-416.3926
31
0.0
  0
LINE
8
1
62
2
10
418.8386
20
-449.4071
30
0.0
11
418.8386
21
-448.1426
31
0.0
  0
LINE
8
1
62
2
10
405.9125
20
-448.1426
30
0.0
11
405.9125
21
-449.4071
31
0.0
  0
LINE
8
1
62
2
10
405.9125
20
-449.4071
30
0.0
11
410.521
21
-461.2341
31
0.0
  0
LINE
8
1
62
2
10
410.521
20
-461.2341
30
0.0
11
408.8911
21
-473.6208
31
0.0
  0
LINE
8
1
62
2
10
411.7755
20
-475.0363
30
0.0
11
411.7755
21
-464.5516
31
0.0
  0
LINE
8
1
62
2
10
411.7755
20
-464.5516
30
0.0
11
411.8755
21
-464.4517
31
0.0
  0
LINE
8
1
62
2
10
411.8755
20
-464.4517
30
0.0
11
411.8755
21
-461.6106
31
0.0
  0
LINE
8
1
62
2
10
411.8755
20
-461.6106
30
0.0
11
411.7961
21
-461.3722
31
0.0
  0
LINE
8
1
62
2
10
411.7961
20
-461.3722
30
0.0
11
412.0345
21
-461.4517
31
0.0
  0
LINE
8
1
62
2
10
412.0345
20
-461.4517
30
0.0
11
412.7112
21
-461.4517
31
0.0
  0
LINE
8
1
62
2
10
412.7112
20
-461.4517
30
0.0
11
412.9497
21
-461.3722
31
0.0
  0
LINE
8
1
62
2
10
412.9497
20
-461.3722
30
0.0
11
412.8755
21
-461.6106
31
0.0
  0
LINE
8
1
62
2
10
412.8755
20
-461.6106
30
0.0
11
412.8755
21
-464.457
31
0.0
  0
LINE
8
1
62
2
10
412.8755
20
-464.457
30
0.0
11
412.9755
21
-464.557
31
0.0
  0
LINE
8
1
62
2
10
412.9755
20
-464.557
30
0.0
11
412.9755
21
-475.0363
31
0.0
  0
LINE
8
1
62
2
10
415.8599
20
-473.6207
30
0.0
11
414.2302
21
-461.2341
31
0.0
  0
LINE
8
1
62
2
10
414.2302
20
-461.2341
30
0.0
11
418.8386
21
-449.4071
31
0.0
  0
LINE
8
1
62
2
10
411.8752
20
-492.6258
30
0.0
11
411.8752
21
-489.7847
31
0.0
  0
LINE
8
1
62
2
10
411.8752
20
-489.7847
30
0.0
11
411.7752
21
-489.6847
31
0.0
  0
LINE
8
1
62
2
10
411.7752
20
-489.6847
30
0.0
11
411.7752
21
-479.759
31
0.0
  0
LINE
8
1
62
2
10
405.9122
20
-479.2633
30
0.0
11
405.9122
21
-480.5278
31
0.0
  0
LINE
8
1
62
2
10
405.9122
20
-480.5278
30
0.0
11
410.5206
21
-492.3548
31
0.0
  0
LINE
8
1
62
2
10
410.5206
20
-492.3548
30
0.0
11
408.8908
21
-504.7414
31
0.0
  0
LINE
8
1
62
2
10
415.8596
20
-504.7414
30
0.0
11
414.2298
21
-492.3548
31
0.0
  0
LINE
8
1
62
2
10
414.2298
20
-492.3548
30
0.0
11
418.8382
21
-480.5278
31
0.0
  0
LINE
8
1
62
2
10
418.8382
20
-480.5278
30
0.0
11
418.8382
21
-479.2633
31
0.0
  0
LINE
8
1
62
2
10
412.9752
20
-479.759
30
0.0
11
412.9752
21
-489.6847
31
0.0
  0
LINE
8
1
62
2
10
412.9752
20
-489.6847
30
0.0
11
412.8752
21
-489.7847
31
0.0
  0
LINE
8
1
62
2
10
412.8752
20
-489.7847
30
0.0
11
412.8752
21
-492.6258
31
0.0
  0
LINE
8
1
62
2
10
412.8752
20
-492.6258
30
0.0
11
412.9547
21
-492.8642
31
0.0
  0
LINE
8
1
62
2
10
412.9547
20
-492.8642
30
0.0
11
412.7162
21
-492.7847
31
0.0
  0
LINE
8
1
62
2
10
412.7162
20
-492.7847
30
0.0
11
412.0342
21
-492.7847
31
0.0
  0
LINE
8
1
62
2
10
412.0342
20
-492.7847
30
0.0
11
411.7957
21
-492.8642
31
0.0
  0
LINE
8
1
62
2
10
411.7957
20
-492.8642
30
0.0
11
411.8752
21
-492.6258
31
0.0
  0
LINE
8
1
62
2
10
470.3203
20
-385.6426
30
0.0
11
470.3203
21
-383.3926
31
0.0
  0
LINE
8
1
62
2
10
447.3203
20
-383.3926
30
0.0
11
447.3203
21
-385.6426
31
0.0
  0
LINE
8
1
62
2
10
447.3203
20
-385.6426
30
0.0
11
455.5203
21
-406.6872
31
0.0
  0
LINE
8
1
62
2
10
455.5203
20
-406.6872
30
0.0
11
452.6203
21
-428.7274
31
0.0
  0
LINE
8
1
62
2
10
455.8203
20
-430.78
30
0.0
11
454.6662
21
-432.8115
31
0.0
  0
LINE
8
1
62
2
10
454.6662
20
-432.8115
30
0.0
11
458.2202
21
-432.8115
31
0.0
  0
LINE
8
1
62
2
10
458.2202
20
-432.8115
30
0.0
11
458.2202
21
-410.3522
31
0.0
  0
LINE
8
1
62
2
10
458.2202
20
-410.3522
30
0.0
11
458.3202
21
-410.2522
31
0.0
  0
LINE
8
1
62
2
10
458.3202
20
-410.2522
30
0.0
11
458.3202
21
-407.535
31
0.0
  0
LINE
8
1
62
2
10
458.3202
20
-407.535
30
0.0
11
458.1788
21
-407.1107
31
0.0
  0
LINE
8
1
62
2
10
458.1788
20
-407.1107
30
0.0
11
458.6031
21
-407.2522
31
0.0
  0
LINE
8
1
62
2
10
458.6031
20
-407.2522
30
0.0
11
459.0374
21
-407.2522
31
0.0
  0
LINE
8
1
62
2
10
459.0374
20
-407.2522
30
0.0
11
459.4617
21
-407.1107
31
0.0
  0
LINE
8
1
62
2
10
459.4617
20
-407.1107
30
0.0
11
459.3202
21
-407.535
31
0.0
  0
LINE
8
1
62
2
10
459.3202
20
-407.535
30
0.0
11
459.3202
21
-410.2522
31
0.0
  0
LINE
8
1
62
2
10
459.3202
20
-410.2522
30
0.0
11
459.4202
21
-410.3522
31
0.0
  0
LINE
8
1
62
2
10
459.4202
20
-410.3522
30
0.0
11
459.4202
21
-432.8115
31
0.0
  0
LINE
8
1
62
2
10
459.4202
20
-432.8115
30
0.0
11
462.9746
21
-432.8115
31
0.0
  0
LINE
8
1
62
2
10
462.9746
20
-432.8115
30
0.0
11
461.8205
21
-430.7799
31
0.0
  0
LINE
8
1
62
2
10
465.0203
20
-428.7274
30
0.0
11
462.1203
21
-406.6872
31
0.0
  0
LINE
8
1
62
2
10
462.1203
20
-406.6872
30
0.0
11
470.3203
21
-385.6426
31
0.0
  0
LINE
8
1
62
2
10
498.3198
20
-385.6426
30
0.0
11
498.3198
21
-383.3926
31
0.0
  0
LINE
8
1
62
2
10
475.3198
20
-383.3926
30
0.0
11
475.3198
21
-385.6426
31
0.0
  0
LINE
8
1
62
2
10
475.3198
20
-385.6426
30
0.0
11
483.5198
21
-406.4784
31
0.0
  0
LINE
8
1
62
2
10
483.5198
20
-406.4784
30
0.0
11
480.6198
21
-428.5186
31
0.0
  0
LINE
8
1
62
2
10
485.3198
20
-430.9731
30
0.0
11
485.3198
21
-433.8029
31
0.0
  0
LINE
8
1
62
2
10
485.3198
20
-433.8029
30
0.0
11
483.8198
21
-433.8029
31
0.0
  0
LINE
8
1
62
2
10
483.8198
20
-433.8029
30
0.0
11
483.8198
21
-436.8029
31
0.0
  0
LINE
8
1
62
2
10
483.8198
20
-436.8029
30
0.0
11
485.3198
21
-436.8029
31
0.0
  0
LINE
8
1
62
2
10
485.3198
20
-436.8029
30
0.0
11
485.3198
21
-438.3029
31
0.0
  0
LINE
8
1
62
2
10
485.3198
20
-438.3029
30
0.0
11
486.2198
21
-438.3029
31
0.0
  0
LINE
8
1
62
2
10
486.2198
20
-438.3029
30
0.0
11
486.2198
21
-413.8477
31
0.0
  0
LINE
8
1
62
2
10
486.2198
20
-413.8477
30
0.0
11
486.3198
21
-413.7477
31
0.0
  0
LINE
8
1
62
2
10
486.3198
20
-413.7477
30
0.0
11
486.3198
21
-411.0305
31
0.0
  0
LINE
8
1
62
2
10
486.3198
20
-411.0305
30
0.0
11
486.1784
21
-410.6062
31
0.0
  0
LINE
8
1
62
2
10
486.1784
20
-410.6062
30
0.0
11
486.6027
21
-410.7477
31
0.0
  0
LINE
8
1
62
2
10
486.6027
20
-410.7477
30
0.0
11
487.0369
21
-410.7477
31
0.0
  0
LINE
8
1
62
2
10
487.0369
20
-410.7477
30
0.0
11
487.4612
21
-410.6062
31
0.0
  0
LINE
8
1
62
2
10
487.4612
20
-410.6062
30
0.0
11
487.3198
21
-411.0305
31
0.0
  0
LINE
8
1
62
2
10
487.3198
20
-411.0305
30
0.0
11
487.3198
21
-413.7477
31
0.0
  0
LINE
8
1
62
2
10
487.3198
20
-413.7477
30
0.0
11
487.4198
21
-413.8477
31
0.0
  0
LINE
8
1
62
2
10
487.4198
20
-413.8477
30
0.0
11
487.4198
21
-438.3029
31
0.0
  0
LINE
8
1
62
2
10
487.4198
20
-438.3029
30
0.0
11
488.3198
21
-438.3029
31
0.0
  0
LINE
8
1
62
2
10
488.3198
20
-438.3029
30
0.0
11
488.3198
21
-436.8029
31
0.0
  0
LINE
8
1
62
2
10
488.3198
20
-436.8029
30
0.0
11
489.82
21
-436.8029
31
0.0
  0
LINE
8
1
62
2
10
489.82
20
-436.8029
30
0.0
11
489.82
21
-433.8029
31
0.0
  0
LINE
8
1
62
2
10
489.82
20
-433.8029
30
0.0
11
488.3198
21
-433.8029
31
0.0
  0
LINE
8
1
62
2
10
488.3198
20
-433.8029
30
0.0
11
488.3198
21
-430.9731
31
0.0
  0
LINE
8
1
62
2
10
493.0198
20
-428.5186
30
0.0
11
490.1198
21
-406.4784
31
0.0
  0
LINE
8
1
62
2
10
490.1198
20
-406.4784
30
0.0
11
498.3198
21
-385.6426
31
0.0
  0
LINE
8
1
62
2
10
447.3207
20
-376.1426
30
0.0
11
447.3207
21
-378.3926
31
0.0
  0
LINE
8
1
62
2
10
458.2207
20
-377.8931
30
0.0
11
458.2207
21
-357.2332
31
0.0
  0
LINE
8
1
62
2
10
458.2207
20
-357.2332
30
0.0
11
458.3207
21
-357.1331
31
0.0
  0
LINE
8
1
62
2
10
458.3207
20
-357.1331
30
0.0
11
458.3207
21
-354.516
31
0.0
  0
LINE
8
1
62
2
10
458.3207
20
-354.516
30
0.0
11
458.1793
21
-354.0917
31
0.0
  0
LINE
8
1
62
2
10
458.1793
20
-354.0917
30
0.0
11
458.6035
21
-354.2332
31
0.0
  0
LINE
8
1
62
2
10
458.6035
20
-354.2332
30
0.0
11
459.0379
21
-354.2332
31
0.0
  0
LINE
8
1
62
2
10
459.0379
20
-354.2332
30
0.0
11
459.4621
21
-354.0917
31
0.0
  0
LINE
8
1
62
2
10
459.4621
20
-354.0917
30
0.0
11
459.3207
21
-354.516
31
0.0
  0
LINE
8
1
62
2
10
459.3207
20
-354.516
30
0.0
11
459.3207
21
-357.1338
31
0.0
  0
LINE
8
1
62
2
10
459.3207
20
-357.1338
30
0.0
11
459.4207
21
-357.2338
31
0.0
  0
LINE
8
1
62
2
10
459.4207
20
-357.2338
30
0.0
11
459.4207
21
-377.8931
31
0.0
  0
LINE
8
1
62
2
10
470.3207
20
-378.3926
30
0.0
11
470.3207
21
-376.1426
31
0.0
  0
LINE
8
1
62
2
10
470.3207
20
-376.1426
30
0.0
11
462.1207
21
-355.0981
31
0.0
  0
LINE
8
1
62
2
10
462.1207
20
-355.0981
30
0.0
11
465.0207
21
-333.058
31
0.0
  0
LINE
8
1
62
2
10
461.8209
20
-331.0053
30
0.0
11
462.975
21
-328.9738
31
0.0
  0
LINE
8
1
62
2
10
462.975
20
-328.9738
30
0.0
11
454.6666
21
-328.9738
31
0.0
  0
LINE
8
1
62
2
10
454.6666
20
-328.9738
30
0.0
11
455.8207
21
-331.0053
31
0.0
  0
LINE
8
1
62
2
10
452.6207
20
-333.058
30
0.0
11
455.5207
21
-355.0981
31
0.0
  0
LINE
8
1
62
2
10
455.5207
20
-355.0981
30
0.0
11
447.3207
21
-376.1426
31
0.0
  0
LINE
8
1
62
2
10
475.3202
20
-376.1426
30
0.0
11
475.3202
21
-378.3926
31
0.0
  0
LINE
8
1
62
2
10
486.2202
20
-377.8931
30
0.0
11
486.2202
21
-353.7377
31
0.0
  0
LINE
8
1
62
2
10
486.2202
20
-353.7377
30
0.0
11
486.3202
21
-353.6376
31
0.0
  0
LINE
8
1
62
2
10
486.3202
20
-353.6376
30
0.0
11
486.3202
21
-351.0205
31
0.0
  0
LINE
8
1
62
2
10
486.3202
20
-351.0205
30
0.0
11
486.1788
21
-350.5962
31
0.0
  0
LINE
8
1
62
2
10
486.1788
20
-350.5962
30
0.0
11
486.6031
21
-350.7376
31
0.0
  0
LINE
8
1
62
2
10
486.6031
20
-350.7376
30
0.0
11
487.0374
21
-350.7376
31
0.0
  0
LINE
8
1
62
2
10
487.0374
20
-350.7376
30
0.0
11
487.4617
21
-350.5962
31
0.0
  0
LINE
8
1
62
2
10
487.4617
20
-350.5962
30
0.0
11
487.3202
21
-351.0205
31
0.0
  0
LINE
8
1
62
2
10
487.3202
20
-351.0205
30
0.0
11
487.3202
21
-353.6383
31
0.0
  0
LINE
8
1
62
2
10
487.3202
20
-353.6383
30
0.0
11
487.4202
21
-353.7383
31
0.0
  0
LINE
8
1
62
2
10
487.4202
20
-353.7383
30
0.0
11
487.4202
21
-377.8931
31
0.0
  0
LINE
8
1
62
2
10
498.3202
20
-378.3926
30
0.0
11
498.3202
21
-376.1426
31
0.0
  0
LINE
8
1
62
2
10
498.3202
20
-376.1426
30
0.0
11
490.1202
21
-355.3069
31
0.0
  0
LINE
8
1
62
2
10
490.1202
20
-355.3069
30
0.0
11
493.0203
21
-333.2667
31
0.0
  0
LINE
8
1
62
2
10
488.3202
20
-330.8122
30
0.0
11
488.3202
21
-327.9824
31
0.0
  0
LINE
8
1
62
2
10
488.3202
20
-327.9824
30
0.0
11
489.8205
21
-327.9824
31
0.0
  0
LINE
8
1
62
2
10
489.8205
20
-327.9824
30
0.0
11
489.8205
21
-324.9824
31
0.0
  0
LINE
8
1
62
2
10
489.8205
20
-324.9824
30
0.0
11
488.3202
21
-324.9824
31
0.0
  0
LINE
8
1
62
2
10
488.3202
20
-324.9824
30
0.0
11
488.3202
21
-323.4824
31
0.0
  0
LINE
8
1
62
2
10
488.3202
20
-323.4824
30
0.0
11
485.3202
21
-323.4824
31
0.0
  0
LINE
8
1
62
2
10
485.3202
20
-323.4824
30
0.0
11
485.3202
21
-324.9824
31
0.0
  0
LINE
8
1
62
2
10
485.3202
20
-324.9824
30
0.0
11
483.8202
21
-324.9824
31
0.0
  0
LINE
8
1
62
2
10
483.8202
20
-324.9824
30
0.0
11
483.8202
21
-327.9824
31
0.0
  0
LINE
8
1
62
2
10
483.8202
20
-327.9824
30
0.0
11
485.3202
21
-327.9824
31
0.0
  0
LINE
8
1
62
2
10
485.3202
20
-327.9824
30
0.0
11
485.3202
21
-330.8122
31
0.0
  0
LINE
8
1
62
2
10
480.6202
20
-333.2667
30
0.0
11
483.5202
21
-355.3069
31
0.0
  0
LINE
8
1
62
2
10
483.5202
20
-355.3069
30
0.0
11
475.3202
21
-376.1426
31
0.0
  0
LINE
8
1
62
2
10
442.3203
20
-385.3051
30
0.0
11
442.3203
21
-383.3926
31
0.0
  0
LINE
8
1
62
2
10
422.7703
20
-383.3926
30
0.0
11
422.7703
21
-385.3051
31
0.0
  0
LINE
8
1
62
2
10
422.7703
20
-385.3051
30
0.0
11
429.7403
21
-403.193
31
0.0
  0
LINE
8
1
62
2
10
429.7403
20
-403.193
30
0.0
11
427.2753
21
-421.9271
31
0.0
  0
LINE
8
1
62
2
10
431.9453
20
-424.0995
30
0.0
11
431.9453
21
-406.7732
31
0.0
  0
LINE
8
1
62
2
10
431.9453
20
-406.7732
30
0.0
11
432.0453
21
-406.6732
31
0.0
  0
LINE
8
1
62
2
10
432.0453
20
-406.6732
30
0.0
11
432.0453
21
-403.956
31
0.0
  0
LINE
8
1
62
2
10
432.0453
20
-403.956
30
0.0
11
431.9039
21
-403.5318
31
0.0
  0
LINE
8
1
62
2
10
431.9039
20
-403.5318
30
0.0
11
432.3281
21
-403.6732
31
0.0
  0
LINE
8
1
62
2
10
432.3281
20
-403.6732
30
0.0
11
432.7624
21
-403.6732
31
0.0
  0
LINE
8
1
62
2
10
432.7624
20
-403.6732
30
0.0
11
433.1867
21
-403.5318
31
0.0
  0
LINE
8
1
62
2
10
433.1867
20
-403.5318
30
0.0
11
433.0453
21
-403.956
31
0.0
  0
LINE
8
1
62
2
10
433.0453
20
-403.956
30
0.0
11
433.0453
21
-406.6732
31
0.0
  0
LINE
8
1
62
2
10
433.0453
20
-406.6732
30
0.0
11
433.1453
21
-406.7732
31
0.0
  0
LINE
8
1
62
2
10
433.1453
20
-406.7732
30
0.0
11
433.1453
21
-424.0995
31
0.0
  0
LINE
8
1
62
2
10
437.8153
20
-421.9271
30
0.0
11
435.3503
21
-403.193
31
0.0
  0
LINE
8
1
62
2
10
435.3503
20
-403.193
30
0.0
11
442.3203
21
-385.3051
31
0.0
  0
LINE
8
1
62
2
10
566.8975
20
-378.3926
30
0.0
11
566.8975
21
-345.3926
31
0.0
  0
LINE
8
1
62
2
10
566.8975
20
-345.3926
30
0.0
11
564.2975
21
-345.3926
31
0.0
  0
LINE
8
1
62
2
10
564.2975
20
-345.3926
30
0.0
11
564.2975
21
-347.3926
31
0.0
  0
LINE
8
1
62
2
10
564.2975
20
-347.3926
30
0.0
11
561.6975
21
-347.3926
31
0.0
  0
LINE
8
1
62
2
10
561.6975
20
-347.3926
30
0.0
11
561.6975
21
-345.3926
31
0.0
  0
LINE
8
1
62
2
10
561.6975
20
-345.3926
30
0.0
11
556.0975
21
-345.3926
31
0.0
  0
LINE
8
1
62
2
10
556.0975
20
-345.3926
30
0.0
11
556.0975
21
-347.3926
31
0.0
  0
LINE
8
1
62
2
10
556.0975
20
-347.3926
30
0.0
11
553.4975
21
-347.3926
31
0.0
  0
LINE
8
1
62
2
10
553.4975
20
-347.3926
30
0.0
11
553.4975
21
-345.3926
31
0.0
  0
LINE
8
1
62
2
10
553.4975
20
-345.3926
30
0.0
11
550.8975
21
-345.3926
31
0.0
  0
LINE
8
1
62
2
10
550.8975
20
-345.3926
30
0.0
11
550.8975
21
-378.3926
31
0.0
  0
LINE
8
1
62
2
10
558.2976
20
-377.8935
30
0.0
11
558.2976
21
-364.6927
31
0.0
  0
LINE
8
1
62
2
10
558.2976
20
-364.6927
30
0.0
11
558.3975
21
-364.5926
31
0.0
  0
LINE
8
1
62
2
10
558.3975
20
-364.5926
30
0.0
11
558.3975
21
-361.9755
31
0.0
  0
LINE
8
1
62
2
10
558.3975
20
-361.9755
30
0.0
11
558.2561
21
-361.5512
31
0.0
  0
LINE
8
1
62
2
10
558.2561
20
-361.5512
30
0.0
11
558.6804
21
-361.6927
31
0.0
  0
LINE
8
1
62
2
10
558.6804
20
-361.6927
30
0.0
11
559.1147
21
-361.6927
31
0.0
  0
LINE
8
1
62
2
10
559.1147
20
-361.6927
30
0.0
11
559.539
21
-361.5512
31
0.0
  0
LINE
8
1
62
2
10
559.539
20
-361.5512
30
0.0
11
559.3975
21
-361.9755
31
0.0
  0
LINE
8
1
62
2
10
559.3975
20
-361.9755
30
0.0
11
559.3975
21
-364.5933
31
0.0
  0
LINE
8
1
62
2
10
559.3975
20
-364.5933
30
0.0
11
559.4975
21
-364.6933
31
0.0
  0
LINE
8
1
62
2
10
559.4975
20
-364.6933
30
0.0
11
559.4975
21
-377.8935
31
0.0
  0
LINE
8
1
62
2
10
545.8711
20
-378.3925
30
0.0
11
545.8711
21
-345.4388
31
0.0
  0
LINE
8
1
62
2
10
540.8711
20
-340.4388
30
0.0
11
533.2163
21
-340.4388
31
0.0
  0
LINE
8
1
62
2
10
533.2163
20
-340.4388
30
0.0
11
527.8711
21
-344.9709
31
0.0
  0
LINE
8
1
62
2
10
527.8711
20
-344.9709
30
0.0
11
527.8711
21
-358.8218
31
0.0
  0
LINE
8
1
62
2
10
527.8711
20
-358.8218
30
0.0
11
530.4596
21
-358.8218
31
0.0
  0
LINE
8
1
62
2
10
530.4596
20
-358.8218
30
0.0
11
531.7705
21
-357.7103
31
0.0
  0
LINE
8
1
62
2
10
531.7705
20
-357.7103
30
0.0
11
534.863
21
-357.7103
31
0.0
  0
LINE
8
1
62
2
10
534.863
20
-357.7103
30
0.0
11
527.8711
21
-363.6387
31
0.0
  0
LINE
8
1
62
2
10
527.8711
20
-363.6387
30
0.0
11
527.8711
21
-378.3925
31
0.0
  0
LINE
8
1
62
2
10
536.271
20
-377.8931
30
0.0
11
536.271
21
-371.1925
31
0.0
  0
LINE
8
1
62
2
10
536.271
20
-371.1925
30
0.0
11
536.3711
21
-371.0924
31
0.0
  0
LINE
8
1
62
2
10
536.3711
20
-371.0924
30
0.0
11
536.3711
21
-368.4753
31
0.0
  0
LINE
8
1
62
2
10
536.3711
20
-368.4753
30
0.0
11
536.2296
21
-368.0511
31
0.0
  0
LINE
8
1
62
2
10
536.2296
20
-368.0511
30
0.0
11
536.6539
21
-368.1925
31
0.0
  0
LINE
8
1
62
2
10
536.6539
20
-368.1925
30
0.0
11
537.0882
21
-368.1925
31
0.0
  0
LINE
8
1
62
2
10
537.0882
20
-368.1925
30
0.0
11
537.5124
21
-368.0511
31
0.0
  0
LINE
8
1
62
2
10
537.5124
20
-368.0511
30
0.0
11
537.3711
21
-368.4753
31
0.0
  0
LINE
8
1
62
2
10
537.3711
20
-368.4753
30
0.0
11
537.3711
21
-371.0931
31
0.0
  0
LINE
8
1
62
2
10
537.3711
20
-371.0931
30
0.0
11
537.471
21
-371.1931
31
0.0
  0
LINE
8
1
62
2
10
537.471
20
-371.1931
30
0.0
11
537.471
21
-377.8931
31
0.0
  0
LINE
8
1
62
2
10
522.8711
20
-378.3926
30
0.0
11
522.8711
21
-376.4802
31
0.0
  0
LINE
8
1
62
2
10
522.8711
20
-376.4802
30
0.0
11
515.9011
21
-358.5923
31
0.0
  0
LINE
8
1
62
2
10
515.9011
20
-358.5923
30
0.0
11
518.3661
21
-339.8582
31
0.0
  0
LINE
8
1
62
2
10
507.8261
20
-339.8582
30
0.0
11
510.2911
21
-358.5923
31
0.0
  0
LINE
8
1
62
2
10
510.2911
20
-358.5923
30
0.0
11
503.3211
21
-376.4802
31
0.0
  0
LINE
8
1
62
2
10
503.3211
20
-376.4802
30
0.0
11
503.3211
21
-378.3926
31
0.0
  0
LINE
8
1
62
2
10
512.4962
20
-377.8936
30
0.0
11
512.4962
21
-360.8421
31
0.0
  0
LINE
8
1
62
2
10
512.4962
20
-360.8421
30
0.0
11
512.5962
21
-360.742
31
0.0
  0
LINE
8
1
62
2
10
512.5962
20
-360.742
30
0.0
11
512.5962
21
-358.1249
31
0.0
  0
LINE
8
1
62
2
10
512.5962
20
-358.1249
30
0.0
11
512.4547
21
-357.7007
31
0.0
  0
LINE
8
1
62
2
10
512.4547
20
-357.7007
30
0.0
11
512.879
21
-357.8421
31
0.0
  0
LINE
8
1
62
2
10
512.879
20
-357.8421
30
0.0
11
513.3133
21
-357.8421
31
0.0
  0
LINE
8
1
62
2
10
513.3133
20
-357.8421
30
0.0
11
513.7376
21
-357.7007
31
0.0
  0
LINE
8
1
62
2
10
513.7376
20
-357.7007
30
0.0
11
513.5962
21
-358.1249
31
0.0
  0
LINE
8
1
62
2
10
513.5962
20
-358.1249
30
0.0
11
513.5962
21
-360.7427
31
0.0
  0
LINE
8
1
62
2
10
513.5962
20
-360.7427
30
0.0
11
513.6961
21
-360.8427
31
0.0
  0
LINE
8
1
62
2
10
513.6961
20
-360.8427
30
0.0
11
513.6961
21
-377.8936
31
0.0
  0
LINE
8
1
62
2
10
545.8796
20
-404.1662
30
0.0
11
537.4796
21
-383.7272
31
0.0
  0
LINE
8
1
62
2
10
537.4796
20
-383.7272
30
0.0
11
537.4796
21
-391.1662
31
0.0
  0
LINE
8
1
62
2
10
537.4796
20
-391.1662
30
0.0
11
537.3796
21
-391.2662
31
0.0
  0
LINE
8
1
62
2
10
537.3796
20
-391.2662
30
0.0
11
537.3796
21
-393.9833
31
0.0
  0
LINE
8
1
62
2
10
537.3796
20
-393.9833
30
0.0
11
537.521
21
-394.4076
31
0.0
  0
LINE
8
1
62
2
10
537.521
20
-394.4076
30
0.0
11
537.0968
21
-394.2662
31
0.0
  0
LINE
8
1
62
2
10
537.0968
20
-394.2662
30
0.0
11
536.6624
21
-394.2662
31
0.0
  0
LINE
8
1
62
2
10
536.6624
20
-394.2662
30
0.0
11
536.2381
21
-394.4076
31
0.0
  0
LINE
8
1
62
2
10
536.2381
20
-394.4076
30
0.0
11
536.3796
21
-393.9833
31
0.0
  0
LINE
8
1
62
2
10
536.3796
20
-393.9833
30
0.0
11
536.3796
21
-391.2661
31
0.0
  0
LINE
8
1
62
2
10
536.3796
20
-391.2661
30
0.0
11
536.2796
21
-391.1661
31
0.0
  0
LINE
8
1
62
2
10
536.2796
20
-391.1661
30
0.0
11
536.2796
21
-383.7274
31
0.0
  0
LINE
8
1
62
2
10
536.2796
20
-383.7274
30
0.0
11
527.8796
21
-404.1662
31
0.0
  0
LINE
8
1
62
2
10
550.8978
20
-383.3926
30
0.0
11
550.8978
21
-416.3926
31
0.0
  0
LINE
8
1
62
2
10
550.8978
20
-416.3926
30
0.0
11
553.4978
21
-416.3926
31
0.0
  0
LINE
8
1
62
2
10
553.4978
20
-416.3926
30
0.0
11
553.4978
21
-414.3926
31
0.0
  0
LINE
8
1
62
2
10
553.4978
20
-414.3926
30
0.0
11
556.0979
21
-414.3926
31
0.0
  0
LINE
8
1
62
2
10
556.0979
20
-414.3926
30
0.0
11
556.0979
21
-416.3926
31
0.0
  0
LINE
8
1
62
2
10
556.0979
20
-416.3926
30
0.0
11
558.2978
21
-416.3926
31
0.0
  0
LINE
8
1
62
2
10
558.2978
20
-416.3926
30
0.0
11
558.2978
21
-402.8927
31
0.0
  0
LINE
8
1
62
2
10
558.2978
20
-402.8927
30
0.0
11
558.3978
21
-402.7927
31
0.0
  0
LINE
8
1
62
2
10
558.3978
20
-402.7927
30
0.0
11
558.3978
21
-400.0755
31
0.0
  0
LINE
8
1
62
2
10
558.3978
20
-400.0755
30
0.0
11
558.2563
21
-399.6512
31
0.0
  0
LINE
8
1
62
2
10
558.2563
20
-399.6512
30
0.0
11
558.6806
21
-399.7927
31
0.0
  0
LINE
8
1
62
2
10
558.6806
20
-399.7927
30
0.0
11
559.115
21
-399.7927
31
0.0
  0
LINE
8
1
62
2
10
559.115
20
-399.7927
30
0.0
11
559.5391
21
-399.6512
31
0.0
  0
LINE
8
1
62
2
10
559.5391
20
-399.6512
30
0.0
11
559.3978
21
-400.0755
31
0.0
  0
LINE
8
1
62
2
10
559.3978
20
-400.0755
30
0.0
11
559.3978
21
-402.7927
31
0.0
  0
LINE
8
1
62
2
10
559.3978
20
-402.7927
30
0.0
11
559.4978
21
-402.8927
31
0.0
  0
LINE
8
1
62
2
10
559.4978
20
-402.8927
30
0.0
11
559.4978
21
-416.3926
31
0.0
  0
LINE
8
1
62
2
10
559.4978
20
-416.3926
30
0.0
11
561.6978
21
-416.3926
31
0.0
  0
LINE
8
1
62
2
10
561.6978
20
-416.3926
30
0.0
11
561.6978
21
-414.3926
31
0.0
  0
LINE
8
1
62
2
10
561.6978
20
-414.3926
30
0.0
11
564.2978
21
-414.3926
31
0.0
  0
LINE
8
1
62
2
10
564.2978
20
-414.3926
30
0.0
11
564.2978
21
-416.3926
31
0.0
  0
LINE
8
1
62
2
10
564.2978
20
-416.3926
30
0.0
11
566.8978
21
-416.3926
31
0.0
  0
LINE
8
1
62
2
10
566.8978
20
-416.3926
30
0.0
11
566.8978
21
-383.3926
31
0.0
  0
LINE
8
1
62
2
10
503.3211
20
-383.3926
30
0.0
11
503.3211
21
-385.3051
31
0.0
  0
LINE
8
1
62
2
10
503.3211
20
-385.3051
30
0.0
11
510.2911
21
-403.193
31
0.0
  0
LINE
8
1
62
2
10
510.2911
20
-403.193
30
0.0
11
507.8261
21
-421.9271
31
0.0
  0
LINE
8
1
62
2
10
512.4961
20
-424.0995
30
0.0
11
512.4961
21
-406.7732
31
0.0
  0
LINE
8
1
62
2
10
512.4961
20
-406.7732
30
0.0
11
512.5962
21
-406.6732
31
0.0
  0
LINE
8
1
62
2
10
512.5962
20
-406.6732
30
0.0
11
512.5962
21
-403.956
31
0.0
  0
LINE
8
1
62
2
10
512.5962
20
-403.956
30
0.0
11
512.4547
21
-403.5318
31
0.0
  0
LINE
8
1
62
2
10
512.4547
20
-403.5318
30
0.0
11
512.879
21
-403.6732
31
0.0
  0
LINE
8
1
62
2
10
512.879
20
-403.6732
30
0.0
11
513.3133
21
-403.6732
31
0.0
  0
LINE
8
1
62
2
10
513.3133
20
-403.6732
30
0.0
11
513.7375
21
-403.5318
31
0.0
  0
LINE
8
1
62
2
10
513.7375
20
-403.5318
30
0.0
11
513.5962
21
-403.956
31
0.0
  0
LINE
8
1
62
2
10
513.5962
20
-403.956
30
0.0
11
513.5962
21
-406.6732
31
0.0
  0
LINE
8
1
62
2
10
513.5962
20
-406.6732
30
0.0
11
513.6961
21
-406.7732
31
0.0
  0
LINE
8
1
62
2
10
513.6961
20
-406.7732
30
0.0
11
513.6961
21
-424.0995
31
0.0
  0
LINE
8
1
62
2
10
518.3661
20
-421.9271
30
0.0
11
515.9011
21
-403.193
31
0.0
  0
LINE
8
1
62
2
10
515.9011
20
-403.193
30
0.0
11
522.8711
21
-385.3051
31
0.0
  0
LINE
8
1
62
2
10
522.8711
20
-385.3051
30
0.0
11
522.8711
21
-383.3926
31
0.0
  0
LINE
8
1
62
2
10
436.7385
20
-449.4071
30
0.0
11
436.7385
21
-448.1426
31
0.0
  0
LINE
8
1
62
2
10
423.8125
20
-448.1426
30
0.0
11
423.8125
21
-449.4071
31
0.0
  0
LINE
8
1
62
2
10
423.8125
20
-449.4071
30
0.0
11
428.4209
21
-461.2341
31
0.0
  0
LINE
8
1
62
2
10
428.4209
20
-461.2341
30
0.0
11
426.7911
21
-473.6208
31
0.0
  0
LINE
8
1
62
2
10
429.6755
20
-475.0363
30
0.0
11
429.6755
21
-464.5516
31
0.0
  0
LINE
8
1
62
2
10
429.6755
20
-464.5516
30
0.0
11
429.7755
21
-464.4517
31
0.0
  0
LINE
8
1
62
2
10
429.7755
20
-464.4517
30
0.0
11
429.7755
21
-461.6106
31
0.0
  0
LINE
8
1
62
2
10
429.7755
20
-461.6106
30
0.0
11
429.6961
21
-461.3722
31
0.0
  0
LINE
8
1
62
2
10
429.6961
20
-461.3722
30
0.0
11
429.9345
21
-461.4517
31
0.0
  0
LINE
8
1
62
2
10
429.9345
20
-461.4517
30
0.0
11
430.6112
21
-461.4517
31
0.0
  0
LINE
8
1
62
2
10
430.6112
20
-461.4517
30
0.0
11
430.8497
21
-461.3722
31
0.0
  0
LINE
8
1
62
2
10
430.8497
20
-461.3722
30
0.0
11
430.7755
21
-461.6106
31
0.0
  0
LINE
8
1
62
2
10
430.7755
20
-461.6106
30
0.0
11
430.7755
21
-464.457
31
0.0
  0
LINE
8
1
62
2
10
430.7755
20
-464.457
30
0.0
11
430.8755
21
-464.557
31
0.0
  0
LINE
8
1
62
2
10
430.8755
20
-464.557
30
0.0
11
430.8755
21
-475.0363
31
0.0
  0
LINE
8
1
62
2
10
433.7599
20
-473.6207
30
0.0
11
432.1301
21
-461.2341
31
0.0
  0
LINE
8
1
62
2
10
432.1301
20
-461.2341
30
0.0
11
436.7385
21
-449.4071
31
0.0
  0
LINE
8
1
62
2
10
429.7752
20
-492.6258
30
0.0
11
429.7752
21
-489.7847
31
0.0
  0
LINE
8
1
62
2
10
429.7752
20
-489.7847
30
0.0
11
429.6752
21
-489.6847
31
0.0
  0
LINE
8
1
62
2
10
429.6752
20
-489.6847
30
0.0
11
429.6752
21
-479.759
31
0.0
  0
LINE
8
1
62
2
10
423.8122
20
-479.2633
30
0.0
11
423.8122
21
-480.5278
31
0.0
  0
LINE
8
1
62
2
10
423.8122
20
-480.5278
30
0.0
11
428.4206
21
-492.3548
31
0.0
  0
LINE
8
1
62
2
10
428.4206
20
-492.3548
30
0.0
11
426.7908
21
-504.7414
31
0.0
  0
LINE
8
1
62
2
10
433.7596
20
-504.7414
30
0.0
11
432.1298
21
-492.3548
31
0.0
  0
LINE
8
1
62
2
10
432.1298
20
-492.3548
30
0.0
11
436.7382
21
-480.5278
31
0.0
  0
LINE
8
1
62
2
10
436.7382
20
-480.5278
30
0.0
11
436.7382
21
-479.2633
31
0.0
  0
LINE
8
1
62
2
10
430.8752
20
-479.759
30
0.0
11
430.8752
21
-489.6847
31
0.0
  0
LINE
8
1
62
2
10
430.8752
20
-489.6847
30
0.0
11
430.7752
21
-489.7847
31
0.0
  0
LINE
8
1
62
2
10
430.7752
20
-489.7847
30
0.0
11
430.7752
21
-492.6258
31
0.0
  0
LINE
8
1
62
2
10
430.7752
20
-492.6258
30
0.0
11
430.8547
21
-492.8642
31
0.0
  0
LINE
8
1
62
2
10
430.8547
20
-492.8642
30
0.0
11
430.6162
21
-492.7847
31
0.0
  0
LINE
8
1
62
2
10
430.6162
20
-492.7847
30
0.0
11
429.9342
21
-492.7847
31
0.0
  0
LINE
8
1
62
2
10
429.9342
20
-492.7847
30
0.0
11
429.6957
21
-492.8642
31
0.0
  0
LINE
8
1
62
2
10
429.6957
20
-492.8642
30
0.0
11
429.7752
21
-492.6258
31
0.0
  0
LINE
8
1
62
2
10
454.6385
20
-449.4071
30
0.0
11
454.6385
21
-448.1426
31
0.0
  0
LINE
8
1
62
2
10
441.7125
20
-448.1426
30
0.0
11
441.7125
21
-449.4071
31
0.0
  0
LINE
8
1
62
2
10
441.7125
20
-449.4071
30
0.0
11
446.3209
21
-461.2341
31
0.0
  0
LINE
8
1
62
2
10
446.3209
20
-461.2341
30
0.0
11
444.6911
21
-473.6208
31
0.0
  0
LINE
8
1
62
2
10
447.5755
20
-475.0363
30
0.0
11
447.5755
21
-464.5516
31
0.0
  0
LINE
8
1
62
2
10
447.5755
20
-464.5516
30
0.0
11
447.6755
21
-464.4517
31
0.0
  0
LINE
8
1
62
2
10
447.6755
20
-464.4517
30
0.0
11
447.6755
21
-461.6106
31
0.0
  0
LINE
8
1
62
2
10
447.6755
20
-461.6106
30
0.0
11
447.5961
21
-461.3722
31
0.0
  0
LINE
8
1
62
2
10
447.5961
20
-461.3722
30
0.0
11
447.8345
21
-461.4517
31
0.0
  0
LINE
8
1
62
2
10
447.8345
20
-461.4517
30
0.0
11
448.5112
21
-461.4517
31
0.0
  0
LINE
8
1
62
2
10
448.5112
20
-461.4517
30
0.0
11
448.7497
21
-461.3722
31
0.0
  0
LINE
8
1
62
2
10
448.7497
20
-461.3722
30
0.0
11
448.6755
21
-461.6106
31
0.0
  0
LINE
8
1
62
2
10
448.6755
20
-461.6106
30
0.0
11
448.6755
21
-464.457
31
0.0
  0
LINE
8
1
62
2
10
448.6755
20
-464.457
30
0.0
11
448.7755
21
-464.557
31
0.0
  0
LINE
8
1
62
2
10
448.7755
20
-464.557
30
0.0
11
448.7755
21
-475.0363
31
0.0
  0
LINE
8
1
62
2
10
451.6599
20
-473.6207
30
0.0
11
450.0301
21
-461.2341
31
0.0
  0
LINE
8
1
62
2
10
450.0301
20
-461.2341
30
0.0
11
454.6385
21
-449.4071
31
0.0
  0
LINE
8
1
62
2
10
447.6752
20
-492.6258
30
0.0
11
447.6752
21
-489.7847
31
0.0
  0
LINE
8
1
62
2
10
447.6752
20
-489.7847
30
0.0
11
447.5752
21
-489.6847
31
0.0
  0
LINE
8
1
62
2
10
447.5752
20
-489.6847
30
0.0
11
447.5752
21
-479.759
31
0.0
  0
LINE
8
1
62
2
10
441.7122
20
-479.2633
30
0.0
11
441.7122
21
-480.5278
31
0.0
  0
LINE
8
1
62
2
10
441.7122
20
-480.5278
30
0.0
11
446.3206
21
-492.3548
31
0.0
  0
LINE
8
1
62
2
10
446.3206
20
-492.3548
30
0.0
11
444.6908
21
-504.7414
31
0.0
  0
LINE
8
1
62
2
10
451.6596
20
-504.7414
30
0.0
11
450.0298
21
-492.3548
31
0.0
  0
LINE
8
1
62
2
10
450.0298
20
-492.3548
30
0.0
11
454.6382
21
-480.5278
31
0.0
  0
LINE
8
1
62
2
10
454.6382
20
-480.5278
30
0.0
11
454.6382
21
-479.2633
31
0.0
  0
LINE
8
1
62
2
10
448.7752
20
-479.759
30
0.0
11
448.7752
21
-489.6847
31
0.0
  0
LINE
8
1
62
2
10
448.7752
20
-489.6847
30
0.0
11
448.6752
21
-489.7847
31
0.0
  0
LINE
8
1
62
2
10
448.6752
20
-489.7847
30
0.0
11
448.6752
21
-492.6258
31
0.0
  0
LINE
8
1
62
2
10
448.6752
20
-492.6258
30
0.0
11
448.7547
21
-492.8642
31
0.0
  0
LINE
8
1
62
2
10
448.7547
20
-492.8642
30
0.0
11
448.5162
21
-492.7847
31
0.0
  0
LINE
8
1
62
2
10
448.5162
20
-492.7847
30
0.0
11
447.8342
21
-492.7847
31
0.0
  0
LINE
8
1
62
2
10
447.8342
20
-492.7847
30
0.0
11
447.5957
21
-492.8642
31
0.0
  0
LINE
8
1
62
2
10
447.5957
20
-492.8642
30
0.0
11
447.6752
21
-492.6258
31
0.0
  0
LINE
8
1
62
2
10
472.5386
20
-449.4071
30
0.0
11
472.5386
21
-448.1426
31
0.0
  0
LINE
8
1
62
2
10
459.6125
20
-448.1426
30
0.0
11
459.6125
21
-449.4071
31
0.0
  0
LINE
8
1
62
2
10
459.6125
20
-449.4071
30
0.0
11
464.221
21
-461.2341
31
0.0
  0
LINE
8
1
62
2
10
464.221
20
-461.2341
30
0.0
11
462.5911
21
-473.6208
31
0.0
  0
LINE
8
1
62
2
10
465.4755
20
-475.0363
30
0.0
11
465.4755
21
-464.5516
31
0.0
  0
LINE
8
1
62
2
10
465.4755
20
-464.5516
30
0.0
11
465.5756
21
-464.4517
31
0.0
  0
LINE
8
1
62
2
10
465.5756
20
-464.4517
30
0.0
11
465.5756
21
-461.6106
31
0.0
  0
LINE
8
1
62
2
10
465.5756
20
-461.6106
30
0.0
11
465.4961
21
-461.3722
31
0.0
  0
LINE
8
1
62
2
10
465.4961
20
-461.3722
30
0.0
11
465.7345
21
-461.4517
31
0.0
  0
LINE
8
1
62
2
10
465.7345
20
-461.4517
30
0.0
11
466.4112
21
-461.4517
31
0.0
  0
LINE
8
1
62
2
10
466.4112
20
-461.4517
30
0.0
11
466.6497
21
-461.3722
31
0.0
  0
LINE
8
1
62
2
10
466.6497
20
-461.3722
30
0.0
11
466.5756
21
-461.6106
31
0.0
  0
LINE
8
1
62
2
10
466.5756
20
-461.6106
30
0.0
11
466.5756
21
-464.457
31
0.0
  0
LINE
8
1
62
2
10
466.5756
20
-464.457
30
0.0
11
466.6756
21
-464.557
31
0.0
  0
LINE
8
1
62
2
10
466.6756
20
-464.557
30
0.0
11
466.6756
21
-475.0363
31
0.0
  0
LINE
8
1
62
2
10
469.56
20
-473.6207
30
0.0
11
467.9302
21
-461.2341
31
0.0
  0
LINE
8
1
62
2
10
467.9302
20
-461.2341
30
0.0
11
472.5386
21
-449.4071
31
0.0
  0
LINE
8
1
62
2
10
465.5752
20
-492.6258
30
0.0
11
465.5752
21
-489.7847
31
0.0
  0
LINE
8
1
62
2
10
465.5752
20
-489.7847
30
0.0
11
465.4752
21
-489.6847
31
0.0
  0
LINE
8
1
62
2
10
465.4752
20
-489.6847
30
0.0
11
465.4752
21
-479.759
31
0.0
  0
LINE
8
1
62
2
10
459.6122
20
-479.2633
30
0.0
11
459.6122
21
-480.5278
31
0.0
  0
LINE
8
1
62
2
10
459.6122
20
-480.5278
30
0.0
11
464.2206
21
-492.3548
31
0.0
  0
LINE
8
1
62
2
10
464.2206
20
-492.3548
30
0.0
11
462.5908
21
-504.7414
31
0.0
  0
LINE
8
1
62
2
10
469.5596
20
-504.7414
30
0.0
11
467.9298
21
-492.3548
31
0.0
  0
LINE
8
1
62
2
10
467.9298
20
-492.3548
30
0.0
11
472.5382
21
-480.5278
31
0.0
  0
LINE
8
1
62
2
10
472.5382
20
-480.5278
30
0.0
11
472.5382
21
-479.2633
31
0.0
  0
LINE
8
1
62
2
10
466.6752
20
-479.759
30
0.0
11
466.6752
21
-489.6847
31
0.0
  0
LINE
8
1
62
2
10
466.6752
20
-489.6847
30
0.0
11
466.5752
21
-489.7847
31
0.0
  0
LINE
8
1
62
2
10
466.5752
20
-489.7847
30
0.0
11
466.5752
21
-492.6258
31
0.0
  0
LINE
8
1
62
2
10
466.5752
20
-492.6258
30
0.0
11
466.6547
21
-492.8642
31
0.0
  0
LINE
8
1
62
2
10
466.6547
20
-492.8642
30
0.0
11
466.4163
21
-492.7847
31
0.0
  0
LINE
8
1
62
2
10
466.4163
20
-492.7847
30
0.0
11
465.7342
21
-492.7847
31
0.0
  0
LINE
8
1
62
2
10
465.7342
20
-492.7847
30
0.0
11
465.4957
21
-492.8642
31
0.0
  0
LINE
8
1
62
2
10
465.4957
20
-492.8642
30
0.0
11
465.5752
21
-492.6258
31
0.0
  0
LINE
8
1
62
2
10
490.4386
20
-449.4071
30
0.0
11
490.4386
21
-448.1426
31
0.0
  0
LINE
8
1
62
2
10
477.5125
20
-448.1426
30
0.0
11
477.5125
21
-449.4071
31
0.0
  0
LINE
8
1
62
2
10
477.5125
20
-449.4071
30
0.0
11
482.121
21
-461.2341
31
0.0
  0
LINE
8
1
62
2
10
482.121
20
-461.2341
30
0.0
11
480.4911
21
-473.6208
31
0.0
  0
LINE
8
1
62
2
10
483.3755
20
-475.0363
30
0.0
11
483.3755
21
-464.5516
31
0.0
  0
LINE
8
1
62
2
10
483.3755
20
-464.5516
30
0.0
11
483.4755
21
-464.4517
31
0.0
  0
LINE
8
1
62
2
10
483.4755
20
-464.4517
30
0.0
11
483.4755
21
-461.6106
31
0.0
  0
LINE
8
1
62
2
10
483.4755
20
-461.6106
30
0.0
11
483.3961
21
-461.3722
31
0.0
  0
LINE
8
1
62
2
10
483.3961
20
-461.3722
30
0.0
11
483.6345
21
-461.4517
31
0.0
  0
LINE
8
1
62
2
10
483.6345
20
-461.4517
30
0.0
11
484.3112
21
-461.4517
31
0.0
  0
LINE
8
1
62
2
10
484.3112
20
-461.4517
30
0.0
11
484.5497
21
-461.3722
31
0.0
  0
LINE
8
1
62
2
10
484.5497
20
-461.3722
30
0.0
11
484.4755
21
-461.6106
31
0.0
  0
LINE
8
1
62
2
10
484.4755
20
-461.6106
30
0.0
11
484.4755
21
-464.457
31
0.0
  0
LINE
8
1
62
2
10
484.4755
20
-464.457
30
0.0
11
484.5756
21
-464.557
31
0.0
  0
LINE
8
1
62
2
10
484.5756
20
-464.557
30
0.0
11
484.5756
21
-475.0363
31
0.0
  0
LINE
8
1
62
2
10
487.46
20
-473.6207
30
0.0
11
485.8302
21
-461.2341
31
0.0
  0
LINE
8
1
62
2
10
485.8302
20
-461.2341
30
0.0
11
490.4386
21
-449.4071
31
0.0
  0
LINE
8
1
62
2
10
483.4752
20
-492.6258
30
0.0
11
483.4752
21
-489.7847
31
0.0
  0
LINE
8
1
62
2
10
483.4752
20
-489.7847
30
0.0
11
483.3752
21
-489.6847
31
0.0
  0
LINE
8
1
62
2
10
483.3752
20
-489.6847
30
0.0
11
483.3752
21
-479.759
31
0.0
  0
LINE
8
1
62
2
10
477.5122
20
-479.2633
30
0.0
11
477.5122
21
-480.5278
31
0.0
  0
LINE
8
1
62
2
10
477.5122
20
-480.5278
30
0.0
11
482.1206
21
-492.3548
31
0.0
  0
LINE
8
1
62
2
10
482.1206
20
-492.3548
30
0.0
11
480.4908
21
-504.7414
31
0.0
  0
LINE
8
1
62
2
10
487.4596
20
-504.7414
30
0.0
11
485.8298
21
-492.3548
31
0.0
  0
LINE
8
1
62
2
10
485.8298
20
-492.3548
30
0.0
11
490.4382
21
-480.5278
31
0.0
  0
LINE
8
1
62
2
10
490.4382
20
-480.5278
30
0.0
11
490.4382
21
-479.2633
31
0.0
  0
LINE
8
1
62
2
10
484.5752
20
-479.759
30
0.0
11
484.5752
21
-489.6847
31
0.0
  0
LINE
8
1
62
2
10
484.5752
20
-489.6847
30
0.0
11
484.4752
21
-489.7847
31
0.0
  0
LINE
8
1
62
2
10
484.4752
20
-489.7847
30
0.0
11
484.4752
21
-492.6258
31
0.0
  0
LINE
8
1
62
2
10
484.4752
20
-492.6258
30
0.0
11
484.5547
21
-492.8642
31
0.0
  0
LINE
8
1
62
2
10
484.5547
20
-492.8642
30
0.0
11
484.3162
21
-492.7847
31
0.0
  0
LINE
8
1
62
2
10
484.3162
20
-492.7847
30
0.0
11
483.6342
21
-492.7847
31
0.0
  0
LINE
8
1
62
2
10
483.6342
20
-492.7847
30
0.0
11
483.3957
21
-492.8642
31
0.0
  0
LINE
8
1
62
2
10
483.3957
20
-492.8642
30
0.0
11
483.4752
21
-492.6258
31
0.0
  0
LINE
8
1
62
2
10
508.3386
20
-449.4071
30
0.0
11
508.3386
21
-448.1426
31
0.0
  0
LINE
8
1
62
2
10
495.4125
20
-448.1426
30
0.0
11
495.4125
21
-449.4071
31
0.0
  0
LINE
8
1
62
2
10
495.4125
20
-449.4071
30
0.0
11
500.021
21
-461.2341
31
0.0
  0
LINE
8
1
62
2
10
500.021
20
-461.2341
30
0.0
11
498.3911
21
-473.6208
31
0.0
  0
LINE
8
1
62
2
10
501.2755
20
-475.0363
30
0.0
11
501.2755
21
-464.5516
31
0.0
  0
LINE
8
1
62
2
10
501.2755
20
-464.5516
30
0.0
11
501.3755
21
-464.4517
31
0.0
  0
LINE
8
1
62
2
10
501.3755
20
-464.4517
30
0.0
11
501.3755
21
-461.6106
31
0.0
  0
LINE
8
1
62
2
10
501.3755
20
-461.6106
30
0.0
11
501.2961
21
-461.3722
31
0.0
  0
LINE
8
1
62
2
10
501.2961
20
-461.3722
30
0.0
11
501.5345
21
-461.4517
31
0.0
  0
LINE
8
1
62
2
10
501.5345
20
-461.4517
30
0.0
11
502.2112
21
-461.4517
31
0.0
  0
LINE
8
1
62
2
10
502.2112
20
-461.4517
30
0.0
11
502.4497
21
-461.3722
31
0.0
  0
LINE
8
1
62
2
10
502.4497
20
-461.3722
30
0.0
11
502.3755
21
-461.6106
31
0.0
  0
LINE
8
1
62
2
10
502.3755
20
-461.6106
30
0.0
11
502.3755
21
-464.457
31
0.0
  0
LINE
8
1
62
2
10
502.3755
20
-464.457
30
0.0
11
502.4755
21
-464.557
31
0.0
  0
LINE
8
1
62
2
10
502.4755
20
-464.557
30
0.0
11
502.4755
21
-475.0363
31
0.0
  0
LINE
8
1
62
2
10
505.3599
20
-473.6207
30
0.0
11
503.7302
21
-461.2341
31
0.0
  0
LINE
8
1
62
2
10
503.7302
20
-461.2341
30
0.0
11
508.3386
21
-449.4071
31
0.0
  0
LINE
8
1
62
2
10
501.3752
20
-492.6258
30
0.0
11
501.3752
21
-489.7847
31
0.0
  0
LINE
8
1
62
2
10
501.3752
20
-489.7847
30
0.0
11
501.2752
21
-489.6847
31
0.0
  0
LINE
8
1
62
2
10
501.2752
20
-489.6847
30
0.0
11
501.2752
21
-479.759
31
0.0
  0
LINE
8
1
62
2
10
495.4122
20
-479.2633
30
0.0
11
495.4122
21
-480.5278
31
0.0
  0
LINE
8
1
62
2
10
495.4122
20
-480.5278
30
0.0
11
500.0206
21
-492.3548
31
0.0
  0
LINE
8
1
62
2
10
500.0206
20
-492.3548
30
0.0
11
498.3908
21
-504.7414
31
0.0
  0
LINE
8
1
62
2
10
505.3596
20
-504.7414
30
0.0
11
503.7298
21
-492.3548
31
0.0
  0
LINE
8
1
62
2
10
503.7298
20
-492.3548
30
0.0
11
508.3382
21
-480.5278
31
0.0
  0
LINE
8
1
62
2
10
508.3382
20
-480.5278
30
0.0
11
508.3382
21
-479.2633
31
0.0
  0
LINE
8
1
62
2
10
502.4752
20
-479.759
30
0.0
11
502.4752
21
-489.6847
31
0.0
  0
LINE
8
1
62
2
10
502.4752
20
-489.6847
30
0.0
11
502.3752
21
-489.7847
31
0.0
  0
LINE
8
1
62
2
10
502.3752
20
-489.7847
30
0.0
11
502.3752
21
-492.6258
31
0.0
  0
LINE
8
1
62
2
10
502.3752
20
-492.6258
30
0.0
11
502.4547
21
-492.8642
31
0.0
  0
LINE
8
1
62
2
10
502.4547
20
-492.8642
30
0.0
11
502.2162
21
-492.7847
31
0.0
  0
LINE
8
1
62
2
10
502.2162
20
-492.7847
30
0.0
11
501.5342
21
-492.7847
31
0.0
  0
LINE
8
1
62
2
10
501.5342
20
-492.7847
30
0.0
11
501.2957
21
-492.8642
31
0.0
  0
LINE
8
1
62
2
10
501.2957
20
-492.8642
30
0.0
11
501.3752
21
-492.6258
31
0.0
  0
LINE
8
1
62
2
10
526.2385
20
-449.4071
30
0.0
11
526.2385
21
-448.1426
31
0.0
  0
LINE
8
1
62
2
10
513.3125
20
-448.1426
30
0.0
11
513.3125
21
-449.4071
31
0.0
  0
LINE
8
1
62
2
10
513.3125
20
-449.4071
30
0.0
11
517.921
21
-461.2341
31
0.0
  0
LINE
8
1
62
2
10
517.921
20
-461.2341
30
0.0
11
516.2912
21
-473.6208
31
0.0
  0
LINE
8
1
62
2
10
519.1756
20
-475.0363
30
0.0
11
519.1756
21
-464.5516
31
0.0
  0
LINE
8
1
62
2
10
519.1756
20
-464.5516
30
0.0
11
519.2755
21
-464.4517
31
0.0
  0
LINE
8
1
62
2
10
519.2755
20
-464.4517
30
0.0
11
519.2755
21
-461.6106
31
0.0
  0
LINE
8
1
62
2
10
519.2755
20
-461.6106
30
0.0
11
519.1961
21
-461.3722
31
0.0
  0
LINE
8
1
62
2
10
519.1961
20
-461.3722
30
0.0
11
519.4345
21
-461.4517
31
0.0
  0
LINE
8
1
62
2
10
519.4345
20
-461.4517
30
0.0
11
520.1112
21
-461.4517
31
0.0
  0
LINE
8
1
62
2
10
520.1112
20
-461.4517
30
0.0
11
520.3497
21
-461.3722
31
0.0
  0
LINE
8
1
62
2
10
520.3497
20
-461.3722
30
0.0
11
520.2755
21
-461.6106
31
0.0
  0
LINE
8
1
62
2
10
520.2755
20
-461.6106
30
0.0
11
520.2755
21
-464.457
31
0.0
  0
LINE
8
1
62
2
10
520.2755
20
-464.457
30
0.0
11
520.3756
21
-464.557
31
0.0
  0
LINE
8
1
62
2
10
520.3756
20
-464.557
30
0.0
11
520.3756
21
-475.0363
31
0.0
  0
LINE
8
1
62
2
10
523.26
20
-473.6207
30
0.0
11
521.6301
21
-461.2341
31
0.0
  0
LINE
8
1
62
2
10
521.6301
20
-461.2341
30
0.0
11
526.2385
21
-449.4071
31
0.0
  0
LINE
8
1
62
2
10
519.2752
20
-492.6258
30
0.0
11
519.2752
21
-489.7847
31
0.0
  0
LINE
8
1
62
2
10
519.2752
20
-489.7847
30
0.0
11
519.1752
21
-489.6847
31
0.0
  0
LINE
8
1
62
2
10
519.1752
20
-489.6847
30
0.0
11
519.1752
21
-479.759
31
0.0
  0
LINE
8
1
62
2
10
513.3122
20
-479.2633
30
0.0
11
513.3122
21
-480.5278
31
0.0
  0
LINE
8
1
62
2
10
513.3122
20
-480.5278
30
0.0
11
517.9206
21
-492.3548
31
0.0
  0
LINE
8
1
62
2
10
517.9206
20
-492.3548
30
0.0
11
516.2908
21
-504.7414
31
0.0
  0
LINE
8
1
62
2
10
523.2596
20
-504.7414
30
0.0
11
521.6298
21
-492.3548
31
0.0
  0
LINE
8
1
62
2
10
521.6298
20
-492.3548
30
0.0
11
526.2382
21
-480.5278
31
0.0
  0
LINE
8
1
62
2
10
526.2382
20
-480.5278
30
0.0
11
526.2382
21
-479.2633
31
0.0
  0
LINE
8
1
62
2
10
520.3752
20
-479.759
30
0.0
11
520.3752
21
-489.6847
31
0.0
  0
LINE
8
1
62
2
10
520.3752
20
-489.6847
30
0.0
11
520.2752
21
-489.7847
31
0.0
  0
LINE
8
1
62
2
10
520.2752
20
-489.7847
30
0.0
11
520.2752
21
-492.6258
31
0.0
  0
LINE
8
1
62
2
10
520.2752
20
-492.6258
30
0.0
11
520.3547
21
-492.8642
31
0.0
  0
LINE
8
1
62
2
10
520.3547
20
-492.8642
30
0.0
11
520.1162
21
-492.7847
31
0.0
  0
LINE
8
1
62
2
10
520.1162
20
-492.7847
30
0.0
11
519.4342
21
-492.7847
31
0.0
  0
LINE
8
1
62
2
10
519.4342
20
-492.7847
30
0.0
11
519.1958
21
-492.8642
31
0.0
  0
LINE
8
1
62
2
10
519.1958
20
-492.8642
30
0.0
11
519.2752
21
-492.6258
31
0.0
  0
LINE
8
1
62
2
10
544.1386
20
-449.4071
30
0.0
11
544.1386
21
-448.1426
31
0.0
  0
LINE
8
1
62
2
10
531.2125
20
-448.1426
30
0.0
11
531.2125
21
-449.4071
31
0.0
  0
LINE
8
1
62
2
10
531.2125
20
-449.4071
30
0.0
11
535.8209
21
-461.2341
31
0.0
  0
LINE
8
1
62
2
10
535.8209
20
-461.2341
30
0.0
11
534.1911
21
-473.6208
31
0.0
  0
LINE
8
1
62
2
10
537.0755
20
-475.0363
30
0.0
11
537.0755
21
-464.5516
31
0.0
  0
LINE
8
1
62
2
10
537.0755
20
-464.5516
30
0.0
11
537.1756
21
-464.4517
31
0.0
  0
LINE
8
1
62
2
10
537.1756
20
-464.4517
30
0.0
11
537.1756
21
-461.6106
31
0.0
  0
LINE
8
1
62
2
10
537.1756
20
-461.6106
30
0.0
11
537.0961
21
-461.3722
31
0.0
  0
LINE
8
1
62
2
10
537.0961
20
-461.3722
30
0.0
11
537.3345
21
-461.4517
31
0.0
  0
LINE
8
1
62
2
10
537.3345
20
-461.4517
30
0.0
11
538.0113
21
-461.4517
31
0.0
  0
LINE
8
1
62
2
10
538.0113
20
-461.4517
30
0.0
11
538.2497
21
-461.3722
31
0.0
  0
LINE
8
1
62
2
10
538.2497
20
-461.3722
30
0.0
11
538.1756
21
-461.6106
31
0.0
  0
LINE
8
1
62
2
10
538.1756
20
-461.6106
30
0.0
11
538.1756
21
-464.457
31
0.0
  0
LINE
8
1
62
2
10
538.1756
20
-464.457
30
0.0
11
538.2755
21
-464.557
31
0.0
  0
LINE
8
1
62
2
10
538.2755
20
-464.557
30
0.0
11
538.2755
21
-475.0363
31
0.0
  0
LINE
8
1
62
2
10
541.1599
20
-473.6207
30
0.0
11
539.5302
21
-461.2341
31
0.0
  0
LINE
8
1
62
2
10
539.5302
20
-461.2341
30
0.0
11
544.1386
21
-449.4071
31
0.0
  0
LINE
8
1
62
2
10
537.1752
20
-492.6258
30
0.0
11
537.1752
21
-489.7847
31
0.0
  0
LINE
8
1
62
2
10
537.1752
20
-489.7847
30
0.0
11
537.0752
21
-489.6847
31
0.0
  0
LINE
8
1
62
2
10
537.0752
20
-489.6847
30
0.0
11
537.0752
21
-479.759
31
0.0
  0
LINE
8
1
62
2
10
531.2122
20
-479.2633
30
0.0
11
531.2122
21
-480.5278
31
0.0
  0
LINE
8
1
62
2
10
531.2122
20
-480.5278
30
0.0
11
535.8206
21
-492.3548
31
0.0
  0
LINE
8
1
62
2
10
535.8206
20
-492.3548
30
0.0
11
534.1908
21
-504.7414
31
0.0
  0
LINE
8
1
62
2
10
541.1596
20
-504.7414
30
0.0
11
539.5298
21
-492.3548
31
0.0
  0
LINE
8
1
62
2
10
539.5298
20
-492.3548
30
0.0
11
544.1382
21
-480.5278
31
0.0
  0
LINE
8
1
62
2
10
544.1382
20
-480.5278
30
0.0
11
544.1382
21
-479.2633
31
0.0
  0
LINE
8
1
62
2
10
538.2752
20
-479.759
30
0.0
11
538.2752
21
-489.6847
31
0.0
  0
LINE
8
1
62
2
10
538.2752
20
-489.6847
30
0.0
11
538.1752
21
-489.7847
31
0.0
  0
LINE
8
1
62
2
10
538.1752
20
-489.7847
30
0.0
11
538.1752
21
-492.6258
31
0.0
  0
LINE
8
1
62
2
10
538.1752
20
-492.6258
30
0.0
11
538.2547
21
-492.8642
31
0.0
  0
LINE
8
1
62
2
10
538.2547
20
-492.8642
30
0.0
11
538.0163
21
-492.7847
31
0.0
  0
LINE
8
1
62
2
10
538.0163
20
-492.7847
30
0.0
11
537.3342
21
-492.7847
31
0.0
  0
LINE
8
1
62
2
10
537.3342
20
-492.7847
30
0.0
11
537.0957
21
-492.8642
31
0.0
  0
LINE
8
1
62
2
10
537.0957
20
-492.8642
30
0.0
11
537.1752
21
-492.6258
31
0.0
  0
ARC
8
1
62
2
10
562.8207
20
-504.838
30
0.0
40
10
50
270
51
0
  0
ARC
8
1
62
2
10
382.8207
20
-504.838
30
0.0
40
10
50
180
51
270
  0
ARC
8
1
62
2
10
382.8207
20
-324.838
30
0.0
40
10
50
90
51
180
  0
ARC
8
1
62
2
10
562.8207
20
-324.838
30
0.0
40
10
50
0
51
90
  0
ARC
8
1
62
2
10
386.7439
20
-441.8926
30
0.0
40
64.0019
50
90.5371
51
97.1805
  0
ARC
8
1
62
2
10
386.7439
20
-441.8926
30
0.0
40
64.0019
50
82.8194
51
89.4628
  0
ARC
8
1
62
2
10
408.7703
20
-458.8925
30
0.0
40
81.0015
50
90.4244
51
96.3792
  0
ARC
8
1
62
2
10
408.7703
20
-458.8925
30
0.0
40
81.0015
50
83.6207
51
89.5756
  0
ARC
8
1
62
2
10
404.7703
20
-345.4388
30
0.0
40
5
50
90
51
180
  0
ARC
8
1
62
2
10
432.5453
20
-473.5125
30
0.0
40
95.6208
50
90.3595
51
95.8674
  0
ARC
8
1
62
2
10
432.5453
20
-473.5125
30
0.0
40
95.6208
50
84.1326
51
89.6405
  0
ARC
8
1
62
2
10
432.5453
20
-345.0815
30
0.0
40
7.4199
50
44.7452
51
135.2548
  0
ARC
8
1
62
2
10
408.7618
20
-484.9162
30
0.0
40
81.25
50
83.6403
51
96.3596
  0
ARC
8
1
62
2
10
386.7436
20
-319.6426
30
0.0
40
64.25
50
262.8473
51
277.1527
  0
ARC
8
1
62
2
10
412.3755
20
-406.6221
30
0.0
40
42.0205
50
261.1525
51
278.8476
  0
ARC
8
1
62
2
10
412.3755
20
-470.1672
30
0.0
40
4.9059
50
224.7452
51
262.975
  0
ARC
8
1
62
2
10
412.3755
20
-470.1672
30
0.0
40
4.9059
50
277.025
51
315.2551
  0
ARC
8
1
62
2
10
412.3752
20
-437.743
30
0.0
40
42.0203
50
261.1524
51
269.1819
  0
ARC
8
1
62
2
10
412.3752
20
-501.2878
30
0.0
40
4.9059
50
224.7452
51
315.2548
  0
ARC
8
1
62
2
10
412.3752
20
-437.743
30
0.0
40
42.0203
50
270.8182
51
278.8476
  0
ARC
8
1
62
2
10
458.8203
20
-251.3926
30
0.0
40
132.5
50
265.0209
51
274.9791
  0
ARC
8
1
62
2
10
458.8203
20
-422.5822
30
0.0
40
8.7294
50
224.7453
51
249.8996
  0
ARC
8
1
62
2
10
458.8203
20
-422.5822
30
0.0
40
8.7294
50
290.1017
51
315.2547
  0
ARC
8
1
62
2
10
486.8198
20
-251.3926
30
0.0
40
132.5
50
265.0209
51
274.9791
  0
ARC
8
1
62
2
10
486.8198
20
-422.3735
30
0.0
40
8.7294
50
224.7453
51
260.1056
  0
ARC
8
1
62
2
10
486.8198
20
-422.3735
30
0.0
40
8.7294
50
279.8944
51
315.2547
  0
ARC
8
1
62
2
10
458.8207
20
-510.1426
30
0.0
40
132.2509
50
90.2599
51
94.9885
  0
ARC
8
1
62
2
10
458.8207
20
-510.1426
30
0.0
40
132.2509
50
85.0115
51
89.74
  0
ARC
8
1
62
2
10
458.8197
20
-339.2043
30
0.0
40
8.731
50
44.7463
51
69.8947
  0
ARC
8
1
62
2
10
458.8207
20
-339.203
30
0.0
40
8.7294
50
110.1004
51
135.2549
  0
ARC
8
1
62
2
10
486.8202
20
-510.1426
30
0.0
40
132.2509
50
90.2599
51
94.9885
  0
ARC
8
1
62
2
10
486.8202
20
-510.1426
30
0.0
40
132.2509
50
85.0115
51
89.74
  0
ARC
8
1
62
2
10
486.8202
20
-339.4118
30
0.0
40
8.7294
50
44.7452
51
80.1055
  0
ARC
8
1
62
2
10
486.8202
20
-339.4118
30
0.0
40
8.7294
50
99.8944
51
135.2548
  0
ARC
8
1
62
2
10
432.5453
20
-288.0921
30
0.0
40
95.8005
50
264.1437
51
275.8564
  0
ARC
8
1
62
2
10
432.5453
20
-416.7038
30
0.0
40
7.4199
50
224.7452
51
265.3616
  0
ARC
8
1
62
2
10
432.5453
20
-416.7038
30
0.0
40
7.4199
50
274.638
51
315.2548
  0
ARC
8
1
62
2
10
558.8975
20
-441.8926
30
0.0
40
64.0019
50
90.5371
51
97.1805
  0
ARC
8
1
62
2
10
558.8975
20
-441.8926
30
0.0
40
64.0019
50
82.8194
51
89.4629
  0
ARC
8
1
62
2
10
540.8711
20
-345.4388
30
0.0
40
5
50
0
51
90
  0
ARC
8
1
62
2
10
536.8711
20
-458.8925
30
0.0
40
81.0015
50
90.4244
51
96.3792
  0
ARC
8
1
62
2
10
536.8711
20
-458.8925
30
0.0
40
81.0015
50
83.6207
51
89.5756
  0
ARC
8
1
62
2
10
513.0962
20
-345.0815
30
0.0
40
7.4199
50
44.7454
51
135.2549
  0
ARC
8
1
62
2
10
513.0962
20
-473.5125
30
0.0
40
95.6208
50
90.3595
51
95.8674
  0
ARC
8
1
62
2
10
513.0962
20
-473.5125
30
0.0
40
95.6208
50
84.1326
51
89.6405
  0
ARC
8
1
62
2
10
536.8796
20
-484.9162
30
0.0
40
81.25
50
83.6403
51
96.3596
  0
ARC
8
1
62
2
10
558.8978
20
-319.6426
30
0.0
40
64.25
50
262.8473
51
277.1527
  0
ARC
8
1
62
2
10
513.0962
20
-416.7038
30
0.0
40
7.4199
50
224.7451
51
265.3616
  0
ARC
8
1
62
2
10
513.0962
20
-416.7038
30
0.0
40
7.4199
50
274.638
51
315.2546
  0
ARC
8
1
62
2
10
513.0962
20
-288.0921
30
0.0
40
95.8005
50
264.1436
51
275.8564
  0
ARC
8
1
62
2
10
430.2755
20
-406.6221
30
0.0
40
42.0205
50
261.1525
51
278.8476
  0
ARC
8
1
62
2
10
430.2755
20
-470.1672
30
0.0
40
4.9059
50
224.7452
51
262.975
  0
ARC
8
1
62
2
10
430.2755
20
-470.1672
30
0.0
40
4.9059
50
277.025
51
315.2551
  0
ARC
8
1
62
2
10
430.2752
20
-437.743
30
0.0
40
42.0203
50
261.1524
51
269.1819
  0
ARC
8
1
62
2
10
430.2752
20
-501.2878
30
0.0
40
4.9059
50
224.7452
51
315.2548
  0
ARC
8
1
62
2
10
430.2752
20
-437.743
30
0.0
40
42.0203
50
270.8182
51
278.8476
  0
ARC
8
1
62
2
10
448.1755
20
-406.6221
30
0.0
40
42.0205
50
261.1525
51
278.8476
  0
ARC
8
1
62
2
10
448.1755
20
-470.1672
30
0.0
40
4.9059
50
224.7452
51
262.975
  0
ARC
8
1
62
2
10
448.1755
20
-470.1672
30
0.0
40
4.9059
50
277.025
51
315.2551
  0
ARC
8
1
62
2
10
448.1752
20
-437.743
30
0.0
40
42.0203
50
261.1524
51
269.1819
  0
ARC
8
1
62
2
10
448.1752
20
-501.2878
30
0.0
40
4.9059
50
224.7452
51
315.2548
  0
ARC
8
1
62
2
10
448.1752
20
-437.743
30
0.0
40
42.0203
50
270.8182
51
278.8476
  0
ARC
8
1
62
2
10
466.0756
20
-406.6221
30
0.0
40
42.0205
50
261.1525
51
278.8476
  0
ARC
8
1
62
2
10
466.0756
20
-470.1672
30
0.0
40
4.9059
50
224.7452
51
262.975
  0
ARC
8
1
62
2
10
466.0756
20
-470.1672
30
0.0
40
4.9059
50
277.025
51
315.2551
  0
ARC
8
1
62
2
10
466.0752
20
-437.743
30
0.0
40
42.0203
50
261.1524
51
269.1819
  0
ARC
8
1
62
2
10
466.0752
20
-501.2878
30
0.0
40
4.9059
50
224.7452
51
315.2548
  0
ARC
8
1
62
2
10
466.0752
20
-437.743
30
0.0
40
42.0203
50
270.8182
51
278.8476
  0
ARC
8
1
62
2
10
483.9755
20
-406.6221
30
0.0
40
42.0205
50
261.1525
51
278.8476
  0
ARC
8
1
62
2
10
483.9755
20
-470.1672
30
0.0
40
4.9059
50
224.7452
51
262.975
  0
ARC
8
1
62
2
10
483.9755
20
-470.1672
30
0.0
40
4.9059
50
277.025
51
315.2551
  0
ARC
8
1
62
2
10
483.9752
20
-437.743
30
0.0
40
42.0203
50
261.1524
51
269.1819
  0
ARC
8
1
62
2
10
483.9752
20
-501.2878
30
0.0
40
4.9059
50
224.7452
51
315.2548
  0
ARC
8
1
62
2
10
483.9752
20
-437.743
30
0.0
40
42.0203
50
270.8182
51
278.8476
  0
ARC
8
1
62
2
10
501.8755
20
-406.6221
30
0.0
40
42.0205
50
261.1525
51
278.8476
  0
ARC
8
1
62
2
10
501.8755
20
-470.1672
30
0.0
40
4.9059
50
224.7452
51
262.975
  0
ARC
8
1
62
2
10
501.8755
20
-470.1672
30
0.0
40
4.9059
50
277.025
51
315.2551
  0
ARC
8
1
62
2
10
501.8752
20
-437.743
30
0.0
40
42.0203
50
261.1524
51
269.1819
  0
ARC
8
1
62
2
10
501.8752
20
-501.2878
30
0.0
40
4.9059
50
224.7452
51
315.2548
  0
ARC
8
1
62
2
10
501.8752
20
-437.743
30
0.0
40
42.0203
50
270.8182
51
278.8476
  0
ARC
8
1
62
2
10
519.7755
20
-406.6221
30
0.0
40
42.0205
50
261.1525
51
278.8476
  0
ARC
8
1
62
2
10
519.7755
20
-470.1672
30
0.0
40
4.9059
50
224.7455
51
262.9753
  0
ARC
8
1
62
2
10
519.7755
20
-470.1672
30
0.0
40
4.9059
50
277.0254
51
315.2553
  0
ARC
8
1
62
2
10
519.7752
20
-437.743
30
0.0
40
42.0203
50
261.1524
51
269.1818
  0
ARC
8
1
62
2
10
519.7752
20
-501.2878
30
0.0
40
4.9059
50
224.745
51
315.2546
  0
ARC
8
1
62
2
10
519.7752
20
-437.743
30
0.0
40
42.0203
50
270.8181
51
278.8475
  0
ARC
8
1
62
2
10
537.6756
20
-406.6221
30
0.0
40
42.0205
50
261.1525
51
278.8476
  0
ARC
8
1
62
2
10
537.6756
20
-470.1672
30
0.0
40
4.9059
50
224.745
51
262.9746
  0
ARC
8
1
62
2
10
537.6756
20
-470.1672
30
0.0
40
4.9059
50
277.0247
51
315.2548
  0
ARC
8
1
62
2
10
537.6752
20
-437.743
30
0.0
40
42.0203
50
261.1524
51
269.1819
  0
ARC
8
1
62
2
10
537.6752
20
-501.2878
30
0.0
40
4.9059
50
224.7455
51
315.2551
  0
ARC
8
1
62
2
10
537.6752
20
-437.743
30
0.0
40
42.0203
50
270.8182
51
278.8476
  0
CIRCLE
8
1
62
2
10
382.8207
20
-329.838
30
0.0
40
4
  0
CIRCLE
8
1
62
2
10
414.0766
20
-345.9549
30
0.0
40
0.7559
  0
CIRCLE
8
1
62
2
10
562.8207
20
-329.838
30
0.0
40
4
  0
CIRCLE
8
1
62
2
10
531.5648
20
-345.9549
30
0.0
40
0.7559
  0
ENDSEC
0
EOF
