  0
SECTION
  2
HEADER
  9
$ACADVER
  1
AC1009
  9
$DWGCODEPAGE
  3
ansi_1252
  9
$INSBASE
 10
0.0
 20
0.0
 30
0.0
  9
$EXTMIN
 10
24.354858
 20
57.988831
 30
0.0
  9
$EXTMAX
 10
133.483737
 20
172.019293
 30
0.0
  9
$LIMMIN
 10
0.0
 20
0.0
  9
$LIMMAX
 10
12.0
 20
9.0
  9
$ORTHOMODE
 70
     0
  9
$REGENMODE
 70
     1
  9
$FILLMODE
 70
     1
  9
$QTEXTMODE
 70
     0
  9
$MIRRTEXT
 70
     1
  9
$DRAGMODE
 70
     2
  9
$LTSCALE
 40
1.0
  9
$OSMODE
 70
    37
  9
$ATTMODE
 70
     1
  9
$TEXTSIZE
 40
0.2
  9
$TRACEWID
 40
0.05
  9
$TEXTSTYLE
  7
STANDARD
  9
$CLAYER
  8
0
  9
$CELTYPE
  6
BYBLOCK
  9
$CECOLOR
 62
   256
  9
$DIMSCALE
 40
1.0
  9
$DIMASZ
 40
0.18
  9
$DIMEXO
 40
0.0625
  9
$DIMDLI
 40
0.38
  9
$DIMRND
 40
0.0
  9
$DIMDLE
 40
0.0
  9
$DIMEXE
 40
0.18
  9
$DIMTP
 40
0.0
  9
$DIMTM
 40
0.0
  9
$DIMTXT
 40
0.18
  9
$DIMCEN
 40
0.09
  9
$DIMTSZ
 40
0.0
  9
$DIMTOL
 70
     0
  9
$DIMLIM
 70
     0
  9
$DIMTIH
 70
     1
  9
$DIMTOH
 70
     1
  9
$DIMSE1
 70
     0
  9
$DIMSE2
 70
     0
  9
$DIMTAD
 70
     0
  9
$DIMZIN
 70
     0
  9
$DIMBLK
  1

  9
$DIMASO
 70
     1
  9
$DIMSHO
 70
     1
  9
$DIMPOST
  1

  9
$DIMAPOST
  1

  9
$DIMALT
 70
     0
  9
$DIMALTD
 70
     2
  9
$DIMALTF
 40
25.4
  9
$DIMLFAC
 40
1.0
  9
$DIMTOFL
 70
     0
  9
$DIMTVP
 40
0.0
  9
$DIMTIX
 70
     0
  9
$DIMSOXD
 70
     0
  9
$DIMSAH
 70
     0
  9
$DIMBLK1
  1

  9
$DIMBLK2
  1

  9
$DIMSTYLE
  2
STANDARD
  9
$DIMCLRD
 70
     0
  9
$DIMCLRE
 70
     0
  9
$DIMCLRT
 70
     0
  9
$DIMTFAC
 40
1.0
  9
$DIMGAP
 40
0.09
  9
$LUNITS
 70
     2
  9
$LUPREC
 70
     4
  9
$SKETCHINC
 40
0.1
  9
$FILLETRAD
 40
0.5
  9
$AUNITS
 70
     0
  9
$AUPREC
 70
     0
  9
$MENU
  1
.
  9
$ELEVATION
 40
0.0
  9
$PELEVATION
 40
0.0
  9
$THICKNESS
 40
0.0
  9
$LIMCHECK
 70
     0
  9
$CHAMFERA
 40
0.5
  9
$CHAMFERB
 40
0.5
  9
$SKPOLY
 70
     0
  9
$TDCREATE
 40
2453353.508792488
  9
$TDUPDATE
 40
4910477.855715555
  9
$TDINDWG
 40
4895786.051922963
  9
$TDUSRTIMER
 40
4895786.051922963
  9
$USRTIMER
 70
     1
  9
$ANGBASE
 50
0.0
  9
$ANGDIR
 70
     0
  9
$PDMODE
 70
     0
  9
$PDSIZE
 40
0.0
  9
$PLINEWID
 40
0.0
  9
$COORDS
 70
     1
  9
$SPLFRAME
 70
     0
  9
$SPLINETYPE
 70
     6
  9
$SPLINESEGS
 70
     8
  9
$ATTDIA
 70
     0
  9
$ATTREQ
 70
     1
  9
$HANDLING
 70
     1
  9
$HANDSEED
  5
712
  9
$SURFTAB1
 70
     6
  9
$SURFTAB2
 70
     6
  9
$SURFTYPE
 70
     6
  9
$SURFU
 70
     6
  9
$SURFV
 70
     6
  9
$UCSNAME
  2

  9
$UCSORG
 10
0.0
 20
0.0
 30
0.0
  9
$UCSXDIR
 10
1.0
 20
0.0
 30
0.0
  9
$UCSYDIR
 10
0.0
 20
1.0
 30
0.0
  9
$PUCSNAME
  2

  9
$PUCSORG
 10
0.0
 20
0.0
 30
0.0
  9
$PUCSXDIR
 10
1.0
 20
0.0
 30
0.0
  9
$PUCSYDIR
 10
0.0
 20
1.0
 30
0.0
  9
$USERI1
 70
     0
  9
$USERI2
 70
     0
  9
$USERI3
 70
     0
  9
$USERI4
 70
     0
  9
$USERI5
 70
     0
  9
$USERR1
 40
0.0
  9
$USERR2
 40
0.0
  9
$USERR3
 40
0.0
  9
$USERR4
 40
0.0
  9
$USERR5
 40
0.0
  9
$WORLDVIEW
 70
     1
  9
$SHADEDGE
 70
     3
  9
$SHADEDIF
 70
    70
  9
$TILEMODE
 70
     1
  9
$MAXACTVP
 70
    64
  9
$PLIMCHECK
 70
     0
  9
$PEXTMIN
 10
0.0
 20
0.0
 30
0.0
  9
$PEXTMAX
 10
0.0
 20
0.0
 30
0.0
  9
$PLIMMIN
 10
0.0
 20
0.0
  9
$PLIMMAX
 10
0.0
 20
0.0
  9
$UNITMODE
 70
     0
  9
$VISRETAIN
 70
     1
  9
$PLINEGEN
 70
     0
  9
$PSLTSCALE
 70
     1
  0
ENDSEC
  0
SECTION
  2
TABLES
  0
TABLE
  2
VPORT
 70
     1
  0
VPORT
  2
*ACTIVE
 70
     0
 10
0.0
 20
0.0
 11
1.0
 21
1.0
 12
73.81877829891559
 22
116.4087489040853
 13
0.0
 23
0.0
 14
0.5
 24
0.5
 15
0.5
 25
0.5
 16
0.0
 26
0.0
 36
1.0
 17
0.0
 27
0.0
 37
0.0
 40
128.3429008410489
 41
1.972972972850329
 42
50.0
 43
0.0
 44
0.0
 50
0.0
 51
0.0
 71
    16
 72
   100
 73
     1
 74
     3
 75
     0
 76
     0
 77
     0
 78
     0
  0
ENDTAB
  0
TABLE
  2
LTYPE
 70
     1
  0
LTYPE
  2
CONTINUOUS
 70
     0
  3
Solid line
 72
    65
 73
     0
 40
0.0
  0
ENDTAB
  0
TABLE
  2
LAYER
 70
     2
  0
LAYER
  2
0
 70
     0
 62
     7
  6
CONTINUOUS
  0
LAYER
  2
LAYER_1
 70
     0
 62
     7
  6
CONTINUOUS
  0
ENDTAB
  0
TABLE
  2
STYLE
 70
     1
  0
STYLE
  2
STANDARD
 70
     0
 40
0.0
 41
1.0
 50
0.0
 71
     0
 42
0.2
  3
txt
  4

  0
ENDTAB
  0
TABLE
  2
VIEW
 70
     0
  0
ENDTAB
  0
TABLE
  2
UCS
 70
     0
  0
ENDTAB
  0
TABLE
  2
APPID
 70
     1
  0
APPID
  2
ACAD
 70
     0
  0
ENDTAB
  0
TABLE
  2
DIMSTYLE
 70
     1
  0
DIMSTYLE
  2
STANDARD
 70
     0
  3

  4

  5

  6

  7

 40
1.0
 41
0.18
 42
0.0625
 43
0.38
 44
0.18
 45
0.0
 46
0.0
 47
0.0
 48
0.0
140
0.18
141
0.09
142
0.0
143
25.4
144
1.0
145
0.0
146
1.0
147
0.09
 71
     0
 72
     0
 73
     1
 74
     1
 75
     0
 76
     0
 77
     0
 78
     0
170
     0
171
     2
172
     0
173
     0
174
     0
175
     0
176
     0
177
     0
178
     0
  0
ENDTAB
  0
ENDSEC
  0
SECTION
  2
BLOCKS
  0
BLOCK
  8
0
  2
$MODEL_SPACE
 70
     0
 10
0.0
 20
0.0
 30
0.0
  3
$MODEL_SPACE
  1

  0
ENDBLK
  5
21
  8
0
  0
BLOCK
 67
     1
  8
0
  2
$PAPER_SPACE
 70
     0
 10
0.0
 20
0.0
 30
0.0
  3
$PAPER_SPACE
  1

  0
ENDBLK
  5
76
 67
     1
  8
0
  0
ENDSEC
  0
SECTION
  2
ENTITIES
  0
LINE
  5
6FB
  8
LAYER_1
 10
90.871889
 20
58.248897
 30
0.0
 11
85.511768
 21
58.586076
 31
0.0
  0
LINE
  5
6FC
  8
LAYER_1
 10
85.511768
 20
58.586076
 30
0.0
 11
81.337898
 21
59.128829
 31
0.0
  0
LINE
  5
23
  8
LAYER_1
 10
81.337898
 20
59.128829
 30
0.0
 11
77.70929099999999
 21
59.992717
 31
0.0
  0
LINE
  5
24
  8
LAYER_1
 10
77.70929099999999
 20
59.992717
 30
0.0
 11
73.984959
 21
61.293299
 31
0.0
  0
LINE
  5
25
  8
LAYER_1
 10
73.984959
 20
61.293299
 30
0.0
 11
71.60030999999999
 21
62.30958
 31
0.0
  0
LINE
  5
26
  8
LAYER_1
 10
71.60030999999999
 20
62.30958
 30
0.0
 11
69.39945400000001
 21
63.434824
 31
0.0
  0
LINE
  5
6FD
  8
LAYER_1
 10
69.39945400000001
 20
63.434824
 30
0.0
 11
67.27753800000001
 21
64.72768600000001
 31
0.0
  0
LINE
  5
28
  8
LAYER_1
 10
67.27753800000001
 20
64.72768600000001
 30
0.0
 11
65.12970900000001
 21
66.24681800000001
 31
0.0
  0
LINE
  5
29
  8
LAYER_1
 10
65.12970900000001
 20
66.24681800000001
 30
0.0
 11
62.859725
 21
67.79197600000001
 31
0.0
  0
LINE
  5
2A
  8
LAYER_1
 10
62.859725
 20
67.79197600000001
 30
0.0
 11
60.036123
 21
67.209839
 31
0.0
  0
LINE
  5
2B
  8
LAYER_1
 10
60.036123
 20
67.209839
 30
0.0
 11
57.050163
 21
66.70300899999999
 31
0.0
  0
LINE
  5
2C
  8
LAYER_1
 10
57.050163
 20
66.70300899999999
 30
0.0
 11
53.679703
 21
66.38869200000001
 31
0.0
  0
LINE
  5
2D
  8
LAYER_1
 10
53.679703
 20
66.38869200000001
 30
0.0
 11
50.306208
 21
66.29023700000001
 31
0.0
  0
LINE
  5
2E
  8
LAYER_1
 10
50.306208
 20
66.29023700000001
 30
0.0
 11
47.311141
 21
66.43099100000001
 31
0.0
  0
LINE
  5
2F
  8
LAYER_1
 10
47.311141
 20
66.43099100000001
 30
0.0
 11
44.503442
 21
66.81267
 31
0.0
  0
LINE
  5
30
  8
LAYER_1
 10
44.503442
 20
66.81267
 30
0.0
 11
41.847641
 21
67.382437
 31
0.0
  0
LINE
  5
31
  8
LAYER_1
 10
41.847641
 20
67.382437
 30
0.0
 11
39.335149
 21
68.144216
 31
0.0
  0
LINE
  5
32
  8
LAYER_1
 10
39.335149
 20
68.144216
 30
0.0
 11
36.957376
 21
69.10193200000001
 31
0.0
  0
LINE
  5
33
  8
LAYER_1
 10
36.957376
 20
69.10193200000001
 30
0.0
 11
34.705736
 21
70.25950899999999
 31
0.0
  0
LINE
  5
34
  8
LAYER_1
 10
34.705736
 20
70.25950899999999
 30
0.0
 11
32.571638
 21
71.62087099999999
 31
0.0
  0
LINE
  5
35
  8
LAYER_1
 10
32.571638
 20
71.62087099999999
 30
0.0
 11
30.546494
 21
73.189943
 31
0.0
  0
LINE
  5
36
  8
LAYER_1
 10
30.546494
 20
73.189943
 30
0.0
 11
28.621716
 21
74.970648
 31
0.0
  0
LINE
  5
37
  8
LAYER_1
 10
28.621716
 20
74.970648
 30
0.0
 11
27.043574
 21
76.704904
 31
0.0
  0
LINE
  5
38
  8
LAYER_1
 10
27.043574
 20
76.704904
 30
0.0
 11
25.89873
 21
78.33621100000001
 31
0.0
  0
LINE
  5
39
  8
LAYER_1
 10
25.89873
 20
78.33621100000001
 30
0.0
 11
25.105451
 21
80.003681
 31
0.0
  0
LINE
  5
3A
  8
LAYER_1
 10
25.105451
 20
80.003681
 30
0.0
 11
24.582007
 21
81.846423
 31
0.0
  0
LINE
  5
3B
  8
LAYER_1
 10
24.582007
 20
81.846423
 30
0.0
 11
24.354858
 21
83.523225
 31
0.0
  0
LINE
  5
3C
  8
LAYER_1
 10
24.354858
 20
83.523225
 30
0.0
 11
24.357302
 21
85.247629
 31
0.0
  0
LINE
  5
3D
  8
LAYER_1
 10
24.357302
 20
85.247629
 30
0.0
 11
24.579066
 21
86.986772
 31
0.0
  0
LINE
  5
3E
  8
LAYER_1
 10
24.579066
 20
86.986772
 30
0.0
 11
25.009873
 21
88.707796
 31
0.0
  0
LINE
  5
3F
  8
LAYER_1
 10
25.009873
 20
88.707796
 30
0.0
 11
25.639449
 21
90.377838
 31
0.0
  0
LINE
  5
40
  8
LAYER_1
 10
25.639449
 20
90.377838
 30
0.0
 11
26.457517
 21
91.964039
 31
0.0
  0
LINE
  5
41
  8
LAYER_1
 10
26.457517
 20
91.964039
 30
0.0
 11
27.453803
 21
93.433539
 31
0.0
  0
LINE
  5
42
  8
LAYER_1
 10
27.453803
 20
93.433539
 30
0.0
 11
28.61803
 21
94.753475
 31
0.0
  0
LINE
  5
43
  8
LAYER_1
 10
28.61803
 20
94.753475
 30
0.0
 11
30.283569
 21
96.181386
 31
0.0
  0
LINE
  5
44
  8
LAYER_1
 10
30.283569
 20
96.181386
 30
0.0
 11
32.216888
 21
97.400492
 31
0.0
  0
LINE
  5
45
  8
LAYER_1
 10
32.216888
 20
97.400492
 30
0.0
 11
34.508688
 21
98.459699
 31
0.0
  0
LINE
  5
46
  8
LAYER_1
 10
34.508688
 20
98.459699
 30
0.0
 11
37.249667
 21
99.407915
 31
0.0
  0
LINE
  5
47
  8
LAYER_1
 10
37.249667
 20
99.407915
 30
0.0
 11
40.309625
 21
100.159558
 31
0.0
  0
LINE
  5
48
  8
LAYER_1
 10
40.309625
 20
100.159558
 30
0.0
 11
43.740778
 21
100.344453
 31
0.0
  0
LINE
  5
49
  8
LAYER_1
 10
43.740778
 20
100.344453
 30
0.0
 11
46.01183
 21
100.316623
 31
0.0
  0
LINE
  5
4A
  8
LAYER_1
 10
46.01183
 20
100.316623
 30
0.0
 11
47.887308
 21
100.14822
 31
0.0
  0
LINE
  5
4B
  8
LAYER_1
 10
47.887308
 20
100.14822
 30
0.0
 11
49.687286
 21
99.793707
 31
0.0
  0
LINE
  5
4C
  8
LAYER_1
 10
49.687286
 20
99.793707
 30
0.0
 11
51.731839
 21
99.20754599999999
 31
0.0
  0
LINE
  5
4D
  8
LAYER_1
 10
51.731839
 20
99.20754599999999
 30
0.0
 11
53.197768
 21
98.88600200000001
 31
0.0
  0
LINE
  5
4E
  8
LAYER_1
 10
53.197768
 20
98.88600200000001
 30
0.0
 11
53.608738
 21
101.438527
 31
0.0
  0
LINE
  5
4F
  8
LAYER_1
 10
53.608738
 20
101.438527
 30
0.0
 11
54.358967
 21
105.17241
 31
0.0
  0
LINE
  5
50
  8
LAYER_1
 10
54.358967
 20
105.17241
 30
0.0
 11
55.688284
 21
109.547689
 31
0.0
  0
LINE
  5
51
  8
LAYER_1
 10
55.688284
 20
109.547689
 30
0.0
 11
57.425254
 21
114.067065
 31
0.0
  0
LINE
  5
52
  8
LAYER_1
 10
57.425254
 20
114.067065
 30
0.0
 11
59.398439
 21
118.233235
 31
0.0
  0
LINE
  5
53
  8
LAYER_1
 10
59.398439
 20
118.233235
 30
0.0
 11
60.674112
 21
121.014473
 31
0.0
  0
LINE
  5
54
  8
LAYER_1
 10
60.674112
 20
121.014473
 30
0.0
 11
59.823985
 21
122.605391
 31
0.0
  0
LINE
  5
55
  8
LAYER_1
 10
59.823985
 20
122.605391
 30
0.0
 11
58.818903
 21
124.332197
 31
0.0
  0
LINE
  5
56
  8
LAYER_1
 10
58.818903
 20
124.332197
 30
0.0
 11
58.120737
 21
126.245332
 31
0.0
  0
LINE
  5
57
  8
LAYER_1
 10
58.120737
 20
126.245332
 30
0.0
 11
57.713329
 21
128.40431
 31
0.0
  0
LINE
  5
58
  8
LAYER_1
 10
57.713329
 20
128.40431
 30
0.0
 11
57.580522
 21
130.868643
 31
0.0
  0
LINE
  5
6FE
  8
LAYER_1
 10
57.580522
 20
130.868643
 30
0.0
 11
57.669501
 21
133.386787
 31
0.0
  0
LINE
  5
6FF
  8
LAYER_1
 10
57.669501
 20
133.386787
 30
0.0
 11
57.957573
 21
135.605972
 31
0.0
  0
LINE
  5
5B
  8
LAYER_1
 10
57.957573
 20
135.605972
 30
0.0
 11
58.473671
 21
137.680688
 31
0.0
  0
LINE
  5
5C
  8
LAYER_1
 10
58.473671
 20
137.680688
 30
0.0
 11
59.246728
 21
139.765422
 31
0.0
  0
LINE
  5
5D
  8
LAYER_1
 10
59.246728
 20
139.765422
 30
0.0
 11
60.560089
 21
143.646467
 31
0.0
  0
LINE
  5
700
  8
LAYER_1
 10
60.560089
 20
143.646467
 30
0.0
 11
61.572586
 21
148.149976
 31
0.0
  0
LINE
  5
5F
  8
LAYER_1
 10
61.572586
 20
148.149976
 30
0.0
 11
62.163716
 21
152.602938
 31
0.0
  0
LINE
  5
60
  8
LAYER_1
 10
62.163716
 20
152.602938
 30
0.0
 11
62.263614
 21
154.600148
 31
0.0
  0
LINE
  5
61
  8
LAYER_1
 10
62.263614
 20
154.600148
 30
0.0
 11
62.212982
 21
156.332343
 31
0.0
  0
LINE
  5
62
  8
LAYER_1
 10
62.212982
 20
156.332343
 30
0.0
 11
62.046803
 21
157.869247
 31
0.0
  0
LINE
  5
63
  8
LAYER_1
 10
62.046803
 20
157.869247
 30
0.0
 11
61.712198
 21
158.695536
 31
0.0
  0
LINE
  5
64
  8
LAYER_1
 10
61.712198
 20
158.695536
 30
0.0
 11
60.958747
 21
159.092821
 31
0.0
  0
LINE
  5
65
  8
LAYER_1
 10
60.958747
 20
159.092821
 30
0.0
 11
59.536031
 21
159.342712
 31
0.0
  0
LINE
  5
66
  8
LAYER_1
 10
59.536031
 20
159.342712
 30
0.0
 11
58.267061
 21
159.645927
 31
0.0
  0
LINE
  5
67
  8
LAYER_1
 10
58.267061
 20
159.645927
 30
0.0
 11
57.282795
 21
160.139925
 31
0.0
  0
LINE
  5
68
  8
LAYER_1
 10
57.282795
 20
160.139925
 30
0.0
 11
56.587416
 21
160.821776
 31
0.0
  0
LINE
  5
69
  8
LAYER_1
 10
56.587416
 20
160.821776
 30
0.0
 11
56.18511
 21
161.688549
 31
0.0
  0
LINE
  5
6A
  8
LAYER_1
 10
56.18511
 20
161.688549
 30
0.0
 11
55.895112
 21
163.645124
 31
0.0
  0
LINE
  5
701
  8
LAYER_1
 10
55.895112
 20
163.645124
 30
0.0
 11
55.939381
 21
165.694942
 31
0.0
  0
LINE
  5
702
  8
LAYER_1
 10
55.939381
 20
165.694942
 30
0.0
 11
56.276726
 21
167.429539
 31
0.0
  0
LINE
  5
6D
  8
LAYER_1
 10
56.276726
 20
167.429539
 30
0.0
 11
56.542432
 21
168.050984
 31
0.0
  0
LINE
  5
6E
  8
LAYER_1
 10
56.542432
 20
168.050984
 30
0.0
 11
56.86596
 21
168.44045
 31
0.0
  0
LINE
  5
6F
  8
LAYER_1
 10
56.86596
 20
168.44045
 30
0.0
 11
59.361519
 21
169.375715
 31
0.0
  0
LINE
  5
70
  8
LAYER_1
 10
59.361519
 20
169.375715
 30
0.0
 11
62.790778
 21
170.557526
 31
0.0
  0
LINE
  5
71
  8
LAYER_1
 10
62.790778
 20
170.557526
 30
0.0
 11
64.52940700000001
 21
171.222546
 31
0.0
  0
LINE
  5
72
  8
LAYER_1
 10
64.52940700000001
 20
171.222546
 30
0.0
 11
66.116851
 21
171.666365
 31
0.0
  0
LINE
  5
703
  8
LAYER_1
 10
66.116851
 20
171.666365
 30
0.0
 11
67.699313
 21
171.921205
 31
0.0
  0
LINE
  5
704
  8
LAYER_1
 10
67.699313
 20
171.921205
 30
0.0
 11
69.423001
 21
172.019293
 31
0.0
  0
LINE
  5
705
  8
LAYER_1
 10
69.423001
 20
172.019293
 30
0.0
 11
70.798525
 21
172.01303
 31
0.0
  0
LINE
  5
706
  8
LAYER_1
 10
70.798525
 20
172.01303
 30
0.0
 11
71.81867200000001
 21
171.887515
 31
0.0
  0
LINE
  5
77
  8
LAYER_1
 10
71.81867200000001
 20
171.887515
 30
0.0
 11
74.199583
 21
170.96957
 31
0.0
  0
LINE
  5
78
  8
LAYER_1
 10
74.199583
 20
170.96957
 30
0.0
 11
79.438531
 21
168.841572
 31
0.0
  0
LINE
  5
79
  8
LAYER_1
 10
79.438531
 20
168.841572
 30
0.0
 11
81.96651799999999
 21
167.759267
 31
0.0
  0
LINE
  5
7A
  8
LAYER_1
 10
81.96651799999999
 20
167.759267
 30
0.0
 11
84.482634
 21
166.349451
 31
0.0
  0
LINE
  5
7B
  8
LAYER_1
 10
84.482634
 20
166.349451
 30
0.0
 11
87.001256
 21
164.603112
 31
0.0
  0
LINE
  5
7C
  8
LAYER_1
 10
87.001256
 20
164.603112
 30
0.0
 11
89.53675800000001
 21
162.511238
 31
0.0
  0
LINE
  5
7D
  8
LAYER_1
 10
89.53675800000001
 20
162.511238
 30
0.0
 11
91.477981
 21
160.636174
 31
0.0
  0
LINE
  5
7E
  8
LAYER_1
 10
91.477981
 20
160.636174
 30
0.0
 11
93.129448
 21
158.715222
 31
0.0
  0
LINE
  5
7F
  8
LAYER_1
 10
93.129448
 20
158.715222
 30
0.0
 11
94.500146
 21
156.72865
 31
0.0
  0
LINE
  5
80
  8
LAYER_1
 10
94.500146
 20
156.72865
 30
0.0
 11
95.59905999999999
 21
154.656726
 31
0.0
  0
LINE
  5
81
  8
LAYER_1
 10
95.59905999999999
 20
154.656726
 30
0.0
 11
96.43517799999999
 21
152.479717
 31
0.0
  0
LINE
  5
82
  8
LAYER_1
 10
96.43517799999999
 20
152.479717
 30
0.0
 11
97.01748600000001
 21
150.177892
 31
0.0
  0
LINE
  5
83
  8
LAYER_1
 10
97.01748600000001
 20
150.177892
 30
0.0
 11
97.35496999999999
 21
147.731519
 31
0.0
  0
LINE
  5
84
  8
LAYER_1
 10
97.35496999999999
 20
147.731519
 30
0.0
 11
97.45661699999999
 21
145.120865
 31
0.0
  0
LINE
  5
85
  8
LAYER_1
 10
97.45661699999999
 20
145.120865
 30
0.0
 11
97.36022
 21
142.804513
 31
0.0
  0
LINE
  5
86
  8
LAYER_1
 10
97.36022
 20
142.804513
 30
0.0
 11
97.09055600000001
 21
140.595142
 31
0.0
  0
LINE
  5
87
  8
LAYER_1
 10
97.09055600000001
 20
140.595142
 30
0.0
 11
96.64186700000001
 21
138.476844
 31
0.0
  0
LINE
  5
88
  8
LAYER_1
 10
96.64186700000001
 20
138.476844
 30
0.0
 11
96.00839600000001
 21
136.433713
 31
0.0
  0
LINE
  5
89
  8
LAYER_1
 10
96.00839600000001
 20
136.433713
 30
0.0
 11
95.18438500000001
 21
134.44984
 31
0.0
  0
LINE
  5
8A
  8
LAYER_1
 10
95.18438500000001
 20
134.44984
 30
0.0
 11
94.164078
 21
132.509319
 31
0.0
  0
LINE
  5
8B
  8
LAYER_1
 10
94.164078
 20
132.509319
 30
0.0
 11
92.941718
 21
130.596242
 31
0.0
  0
LINE
  5
8C
  8
LAYER_1
 10
92.941718
 20
130.596242
 30
0.0
 11
91.511546
 21
128.694702
 31
0.0
  0
LINE
  5
8D
  8
LAYER_1
 10
91.511546
 20
128.694702
 30
0.0
 11
89.231899
 21
126.214427
 31
0.0
  0
LINE
  5
8E
  8
LAYER_1
 10
89.231899
 20
126.214427
 30
0.0
 11
86.138558
 21
123.263267
 31
0.0
  0
LINE
  5
8F
  8
LAYER_1
 10
86.138558
 20
123.263267
 30
0.0
 11
82.901546
 21
120.451218
 31
0.0
  0
LINE
  5
90
  8
LAYER_1
 10
82.901546
 20
120.451218
 30
0.0
 11
80.19088499999999
 21
118.388274
 31
0.0
  0
LINE
  5
91
  8
LAYER_1
 10
80.19088499999999
 20
118.388274
 30
0.0
 11
77.395685
 21
116.334199
 31
0.0
  0
LINE
  5
707
  8
LAYER_1
 10
77.395685
 20
116.334199
 30
0.0
 11
75.267439
 21
112.294113
 31
0.0
  0
LINE
  5
708
  8
LAYER_1
 10
75.267439
 20
112.294113
 30
0.0
 11
72.674328
 21
106.597532
 31
0.0
  0
LINE
  5
94
  8
LAYER_1
 10
72.674328
 20
106.597532
 30
0.0
 11
71.894234
 21
104.226789
 31
0.0
  0
LINE
  5
95
  8
LAYER_1
 10
71.894234
 20
104.226789
 30
0.0
 11
71.094951
 21
101.187044
 31
0.0
  0
LINE
  5
96
  8
LAYER_1
 10
71.094951
 20
101.187044
 30
0.0
 11
70.518951
 21
98.489772
 31
0.0
  0
LINE
  5
709
  8
LAYER_1
 10
70.518951
 20
98.489772
 30
0.0
 11
70.408704
 21
97.146446
 31
0.0
  0
LINE
  5
70A
  8
LAYER_1
 10
70.408704
 20
97.146446
 30
0.0
 11
71.083817
 21
97.00626200000001
 31
0.0
  0
LINE
  5
99
  8
LAYER_1
 10
71.083817
 20
97.00626200000001
 30
0.0
 11
72.579472
 21
97.10049600000001
 31
0.0
  0
LINE
  5
9A
  8
LAYER_1
 10
72.579472
 20
97.10049600000001
 30
0.0
 11
76.897716
 21
97.77459500000001
 31
0.0
  0
LINE
  5
9B
  8
LAYER_1
 10
76.897716
 20
97.77459500000001
 30
0.0
 11
81.094056
 21
98.733501
 31
0.0
  0
LINE
  5
9C
  8
LAYER_1
 10
81.094056
 20
98.733501
 30
0.0
 11
82.437331
 21
99.18374300000001
 31
0.0
  0
LINE
  5
9D
  8
LAYER_1
 10
82.437331
 20
99.18374300000001
 30
0.0
 11
82.899112
 21
99.541971
 31
0.0
  0
LINE
  5
9E
  8
LAYER_1
 10
82.899112
 20
99.541971
 30
0.0
 11
81.69966700000001
 21
100.683458
 31
0.0
  0
LINE
  5
9F
  8
LAYER_1
 10
81.69966700000001
 20
100.683458
 30
0.0
 11
80.73658399999999
 21
101.556701
 31
0.0
  0
LINE
  5
A0
  8
LAYER_1
 10
80.73658399999999
 20
101.556701
 30
0.0
 11
80.006334
 21
102.449559
 31
0.0
  0
LINE
  5
A1
  8
LAYER_1
 10
80.006334
 20
102.449559
 30
0.0
 11
78.39263800000001
 21
104.804091
 31
0.0
  0
LINE
  5
A2
  8
LAYER_1
 10
78.39263800000001
 20
104.804091
 30
0.0
 11
77.323106
 21
106.551384
 31
0.0
  0
LINE
  5
A3
  8
LAYER_1
 10
77.323106
 20
106.551384
 30
0.0
 11
76.85610200000001
 21
108.005745
 31
0.0
  0
LINE
  5
A4
  8
LAYER_1
 10
76.85610200000001
 20
108.005745
 30
0.0
 11
76.848895
 21
108.620342
 31
0.0
  0
LINE
  5
A5
  8
LAYER_1
 10
76.848895
 20
108.620342
 30
0.0
 11
76.992735
 21
109.158427
 31
0.0
  0
LINE
  5
A6
  8
LAYER_1
 10
76.992735
 20
109.158427
 30
0.0
 11
77.287761
 21
109.618906
 31
0.0
  0
LINE
  5
A7
  8
LAYER_1
 10
77.287761
 20
109.618906
 30
0.0
 11
77.734112
 21
110.000686
 31
0.0
  0
LINE
  5
A8
  8
LAYER_1
 10
77.734112
 20
110.000686
 30
0.0
 11
78.379732
 21
110.262936
 31
0.0
  0
LINE
  5
A9
  8
LAYER_1
 10
78.379732
 20
110.262936
 30
0.0
 11
79.041129
 21
110.088221
 31
0.0
  0
LINE
  5
AA
  8
LAYER_1
 10
79.041129
 20
110.088221
 30
0.0
 11
79.870085
 21
109.387374
 31
0.0
  0
LINE
  5
AB
  8
LAYER_1
 10
79.870085
 20
109.387374
 30
0.0
 11
81.01837999999999
 21
108.071223
 31
0.0
  0
LINE
  5
AC
  8
LAYER_1
 10
81.01837999999999
 20
108.071223
 30
0.0
 11
82.32686800000001
 21
106.598297
 31
0.0
  0
LINE
  5
AD
  8
LAYER_1
 10
82.32686800000001
 20
106.598297
 30
0.0
 11
83.524439
 21
105.535614
 31
0.0
  0
LINE
  5
AE
  8
LAYER_1
 10
83.524439
 20
105.535614
 30
0.0
 11
84.72666700000001
 21
104.796393
 31
0.0
  0
LINE
  5
AF
  8
LAYER_1
 10
84.72666700000001
 20
104.796393
 30
0.0
 11
86.049127
 21
104.293853
 31
0.0
  0
LINE
  5
B0
  8
LAYER_1
 10
86.049127
 20
104.293853
 30
0.0
 11
87.13958700000001
 21
104.056848
 31
0.0
  0
LINE
  5
B1
  8
LAYER_1
 10
87.13958700000001
 20
104.056848
 30
0.0
 11
88.272454
 21
103.973938
 31
0.0
  0
LINE
  5
B2
  8
LAYER_1
 10
88.272454
 20
103.973938
 30
0.0
 11
89.465749
 21
104.049523
 31
0.0
  0
LINE
  5
B3
  8
LAYER_1
 10
89.465749
 20
104.049523
 30
0.0
 11
90.73749100000001
 21
104.288
 31
0.0
  0
LINE
  5
B4
  8
LAYER_1
 10
90.73749100000001
 20
104.288
 30
0.0
 11
93.588398
 21
105.271217
 31
0.0
  0
LINE
  5
B5
  8
LAYER_1
 10
93.588398
 20
105.271217
 30
0.0
 11
96.969337
 21
106.958771
 31
0.0
  0
LINE
  5
B6
  8
LAYER_1
 10
96.969337
 20
106.958771
 30
0.0
 11
99.346414
 21
108.18211
 31
0.0
  0
LINE
  5
B7
  8
LAYER_1
 10
99.346414
 20
108.18211
 30
0.0
 11
101.380816
 21
108.916618
 31
0.0
  0
LINE
  5
B8
  8
LAYER_1
 10
101.380816
 20
108.916618
 30
0.0
 11
103.611447
 21
109.304057
 31
0.0
  0
LINE
  5
B9
  8
LAYER_1
 10
103.611447
 20
109.304057
 30
0.0
 11
106.577206
 21
109.486186
 31
0.0
  0
LINE
  5
BA
  8
LAYER_1
 10
106.577206
 20
109.486186
 30
0.0
 11
109.850936
 21
109.489069
 31
0.0
  0
LINE
  5
BB
  8
LAYER_1
 10
109.850936
 20
109.489069
 30
0.0
 11
112.527094
 21
109.186681
 31
0.0
  0
LINE
  5
BC
  8
LAYER_1
 10
112.527094
 20
109.186681
 30
0.0
 11
114.956992
 21
108.511784
 31
0.0
  0
LINE
  5
BD
  8
LAYER_1
 10
114.956992
 20
108.511784
 30
0.0
 11
117.491939
 21
107.397138
 31
0.0
  0
LINE
  5
BE
  8
LAYER_1
 10
117.491939
 20
107.397138
 30
0.0
 11
119.510919
 21
106.262496
 31
0.0
  0
LINE
  5
BF
  8
LAYER_1
 10
119.510919
 20
106.262496
 30
0.0
 11
121.076505
 21
105.088786
 31
0.0
  0
LINE
  5
C0
  8
LAYER_1
 10
121.076505
 20
105.088786
 30
0.0
 11
122.277945
 21
103.796468
 31
0.0
  0
LINE
  5
C1
  8
LAYER_1
 10
122.277945
 20
103.796468
 30
0.0
 11
123.204489
 21
102.306001
 31
0.0
  0
LINE
  5
C2
  8
LAYER_1
 10
123.204489
 20
102.306001
 30
0.0
 11
123.833579
 21
100.593151
 31
0.0
  0
LINE
  5
C3
  8
LAYER_1
 10
123.833579
 20
100.593151
 30
0.0
 11
124.075842
 21
98.790907
 31
0.0
  0
LINE
  5
C4
  8
LAYER_1
 10
124.075842
 20
98.790907
 30
0.0
 11
123.927522
 21
97.041313
 31
0.0
  0
LINE
  5
C5
  8
LAYER_1
 10
123.927522
 20
97.041313
 30
0.0
 11
123.38486
 21
95.486412
 31
0.0
  0
LINE
  5
C6
  8
LAYER_1
 10
123.38486
 20
95.486412
 30
0.0
 11
122.820416
 21
94.191751
 31
0.0
  0
LINE
  5
C7
  8
LAYER_1
 10
122.820416
 20
94.191751
 30
0.0
 11
124.174112
 21
93.64273300000001
 31
0.0
  0
LINE
  5
C8
  8
LAYER_1
 10
124.174112
 20
93.64273300000001
 30
0.0
 11
126.639923
 21
92.476052
 31
0.0
  0
LINE
  5
C9
  8
LAYER_1
 10
126.639923
 20
92.476052
 30
0.0
 11
128.805231
 21
91.016952
 31
0.0
  0
LINE
  5
CA
  8
LAYER_1
 10
128.805231
 20
91.016952
 30
0.0
 11
130.554677
 21
89.357337
 31
0.0
  0
LINE
  5
CB
  8
LAYER_1
 10
130.554677
 20
89.357337
 30
0.0
 11
131.7729
 21
87.58910899999999
 31
0.0
  0
LINE
  5
CC
  8
LAYER_1
 10
131.7729
 20
87.58910899999999
 30
0.0
 11
132.395801
 21
86.07831899999999
 31
0.0
  0
LINE
  5
CD
  8
LAYER_1
 10
132.395801
 20
86.07831899999999
 30
0.0
 11
132.945448
 21
84.241697
 31
0.0
  0
LINE
  5
CE
  8
LAYER_1
 10
132.945448
 20
84.241697
 30
0.0
 11
133.33653
 21
82.411749
 31
0.0
  0
LINE
  5
CF
  8
LAYER_1
 10
133.33653
 20
82.411749
 30
0.0
 11
133.483737
 21
80.920982
 31
0.0
  0
LINE
  5
D0
  8
LAYER_1
 10
133.483737
 20
80.920982
 30
0.0
 11
133.301737
 21
78.801984
 31
0.0
  0
LINE
  5
D1
  8
LAYER_1
 10
133.301737
 20
78.801984
 30
0.0
 11
132.817495
 21
76.378675
 31
0.0
  0
LINE
  5
D2
  8
LAYER_1
 10
132.817495
 20
76.378675
 30
0.0
 11
132.109033
 21
73.96732400000001
 31
0.0
  0
LINE
  5
D3
  8
LAYER_1
 10
132.109033
 20
73.96732400000001
 30
0.0
 11
131.254373
 21
71.884199
 31
0.0
  0
LINE
  5
D4
  8
LAYER_1
 10
131.254373
 20
71.884199
 30
0.0
 11
130.060013
 21
69.77228100000001
 31
0.0
  0
LINE
  5
D5
  8
LAYER_1
 10
130.060013
 20
69.77228100000001
 30
0.0
 11
128.673008
 21
67.871387
 31
0.0
  0
LINE
  5
D6
  8
LAYER_1
 10
128.673008
 20
67.871387
 30
0.0
 11
127.07204
 21
66.16584899999999
 31
0.0
  0
LINE
  5
D7
  8
LAYER_1
 10
127.07204
 20
66.16584899999999
 30
0.0
 11
125.23579
 21
64.64
 31
0.0
  0
LINE
  5
D8
  8
LAYER_1
 10
125.23579
 20
64.64
 30
0.0
 11
123.142939
 21
63.27817
 31
0.0
  0
LINE
  5
D9
  8
LAYER_1
 10
123.142939
 20
63.27817
 30
0.0
 11
120.77217
 21
62.064694
 31
0.0
  0
LINE
  5
DA
  8
LAYER_1
 10
120.77217
 20
62.064694
 30
0.0
 11
118.102165
 21
60.983902
 31
0.0
  0
LINE
  5
DB
  8
LAYER_1
 10
118.102165
 20
60.983902
 30
0.0
 11
115.111603
 21
60.020127
 31
0.0
  0
LINE
  5
DC
  8
LAYER_1
 10
115.111603
 20
60.020127
 30
0.0
 11
110.147932
 21
58.788448
 31
0.0
  0
LINE
  5
DD
  8
LAYER_1
 10
110.147932
 20
58.788448
 30
0.0
 11
107.759812
 21
58.396701
 31
0.0
  0
LINE
  5
DE
  8
LAYER_1
 10
107.759812
 20
58.396701
 30
0.0
 11
105.23802
 21
58.140015
 31
0.0
  0
LINE
  5
DF
  8
LAYER_1
 10
105.23802
 20
58.140015
 30
0.0
 11
99.20497
 21
57.988831
 31
0.0
  0
LINE
  5
E0
  8
LAYER_1
 10
99.20497
 20
57.988831
 30
0.0
 11
90.871889
 21
58.248897
 31
0.0
  0
LINE
  5
E1
  8
LAYER_1
 10
90.871889
 20
58.248897
 30
0.0
 11
90.871889
 21
58.248897
 31
0.0
  0
LINE
  5
E2
  8
LAYER_1
 10
102.738149
 20
59.752732
 30
0.0
 11
108.172248
 21
60.345216
 31
0.0
  0
LINE
  5
E3
  8
LAYER_1
 10
108.172248
 20
60.345216
 30
0.0
 11
112.452905
 21
61.145923
 31
0.0
  0
LINE
  5
E4
  8
LAYER_1
 10
112.452905
 20
61.145923
 30
0.0
 11
116.212119
 21
62.309243
 31
0.0
  0
LINE
  5
E5
  8
LAYER_1
 10
116.212119
 20
62.309243
 30
0.0
 11
120.081889
 21
63.989562
 31
0.0
  0
LINE
  5
E6
  8
LAYER_1
 10
120.081889
 20
63.989562
 30
0.0
 11
123.231693
 21
65.81303
 31
0.0
  0
LINE
  5
E7
  8
LAYER_1
 10
123.231693
 20
65.81303
 30
0.0
 11
124.608346
 21
66.869625
 31
0.0
  0
LINE
  5
E8
  8
LAYER_1
 10
124.608346
 20
66.869625
 30
0.0
 11
125.868569
 21
68.038839
 31
0.0
  0
LINE
  5
E9
  8
LAYER_1
 10
125.868569
 20
68.038839
 30
0.0
 11
127.024165
 21
69.332703
 31
0.0
  0
LINE
  5
EA
  8
LAYER_1
 10
127.024165
 20
69.332703
 30
0.0
 11
128.086937
 21
70.76325199999999
 31
0.0
  0
LINE
  5
EB
  8
LAYER_1
 10
128.086937
 20
70.76325199999999
 30
0.0
 11
129.981215
 21
74.082537
 31
0.0
  0
LINE
  5
EC
  8
LAYER_1
 10
129.981215
 20
74.082537
 30
0.0
 11
131.045488
 21
76.59941499999999
 31
0.0
  0
LINE
  5
ED
  8
LAYER_1
 10
131.045488
 20
76.59941499999999
 30
0.0
 11
131.700674
 21
78.917847
 31
0.0
  0
LINE
  5
EE
  8
LAYER_1
 10
131.700674
 20
78.917847
 30
0.0
 11
131.956082
 21
81.08368
 31
0.0
  0
LINE
  5
EF
  8
LAYER_1
 10
131.956082
 20
81.08368
 30
0.0
 11
131.821024
 21
83.142763
 31
0.0
  0
LINE
  5
F0
  8
LAYER_1
 10
131.821024
 20
83.142763
 30
0.0
 11
131.455663
 21
85.051762
 31
0.0
  0
LINE
  5
F1
  8
LAYER_1
 10
131.455663
 20
85.051762
 30
0.0
 11
130.990422
 21
86.622503
 31
0.0
  0
LINE
  5
F2
  8
LAYER_1
 10
130.990422
 20
86.622503
 30
0.0
 11
130.349865
 21
87.93149200000001
 31
0.0
  0
LINE
  5
F3
  8
LAYER_1
 10
130.349865
 20
87.93149200000001
 30
0.0
 11
129.458558
 21
89.05523700000001
 31
0.0
  0
LINE
  5
F4
  8
LAYER_1
 10
129.458558
 20
89.05523700000001
 30
0.0
 11
128.241065
 21
90.070244
 31
0.0
  0
LINE
  5
F5
  8
LAYER_1
 10
128.241065
 20
90.070244
 30
0.0
 11
126.621951
 21
91.05301900000001
 31
0.0
  0
LINE
  5
F6
  8
LAYER_1
 10
126.621951
 20
91.05301900000001
 30
0.0
 11
121.877119
 21
93.22790000000001
 31
0.0
  0
LINE
  5
F7
  8
LAYER_1
 10
121.877119
 20
93.22790000000001
 30
0.0
 11
118.740951
 21
94.482392
 31
0.0
  0
LINE
  5
F8
  8
LAYER_1
 10
118.740951
 20
94.482392
 30
0.0
 11
116.265245
 21
95.260864
 31
0.0
  0
LINE
  5
F9
  8
LAYER_1
 10
116.265245
 20
95.260864
 30
0.0
 11
113.677224
 21
95.757988
 31
0.0
  0
LINE
  5
FA
  8
LAYER_1
 10
113.677224
 20
95.757988
 30
0.0
 11
110.204112
 21
96.16843299999999
 31
0.0
  0
LINE
  5
FB
  8
LAYER_1
 10
110.204112
 20
96.16843299999999
 30
0.0
 11
107.115531
 21
96.436464
 31
0.0
  0
LINE
  5
FC
  8
LAYER_1
 10
107.115531
 20
96.436464
 30
0.0
 11
104.546189
 21
96.48880699999999
 31
0.0
  0
LINE
  5
FD
  8
LAYER_1
 10
104.546189
 20
96.48880699999999
 30
0.0
 11
101.807197
 21
96.308908
 31
0.0
  0
LINE
  5
FE
  8
LAYER_1
 10
101.807197
 20
96.308908
 30
0.0
 11
98.209667
 21
95.880211
 31
0.0
  0
LINE
  5
FF
  8
LAYER_1
 10
98.209667
 20
95.880211
 30
0.0
 11
93.246453
 21
94.92440000000001
 31
0.0
  0
LINE
  5
100
  8
LAYER_1
 10
93.246453
 20
94.92440000000001
 30
0.0
 11
87.646317
 21
93.279838
 31
0.0
  0
LINE
  5
101
  8
LAYER_1
 10
87.646317
 20
93.279838
 30
0.0
 11
81.43646699999999
 21
90.955669
 31
0.0
  0
LINE
  5
102
  8
LAYER_1
 10
81.43646699999999
 20
90.955669
 30
0.0
 11
74.64411200000001
 21
87.961035
 31
0.0
  0
LINE
  5
103
  8
LAYER_1
 10
74.64411200000001
 20
87.961035
 30
0.0
 11
71.73571
 21
86.55767400000001
 31
0.0
  0
LINE
  5
104
  8
LAYER_1
 10
71.73571
 20
86.55767400000001
 30
0.0
 11
72.511006
 21
84.247584
 31
0.0
  0
LINE
  5
105
  8
LAYER_1
 10
72.511006
 20
84.247584
 30
0.0
 11
73.322737
 21
82.368841
 31
0.0
  0
LINE
  5
106
  8
LAYER_1
 10
73.322737
 20
82.368841
 30
0.0
 11
74.257896
 21
80.57319200000001
 31
0.0
  0
LINE
  5
107
  8
LAYER_1
 10
74.257896
 20
80.57319200000001
 30
0.0
 11
75.22803999999999
 21
79.016261
 31
0.0
  0
LINE
  5
108
  8
LAYER_1
 10
75.22803999999999
 20
79.016261
 30
0.0
 11
76.144727
 21
77.85366999999999
 31
0.0
  0
LINE
  5
109
  8
LAYER_1
 10
76.144727
 20
77.85366999999999
 30
0.0
 11
76.614739
 21
77.404094
 31
0.0
  0
LINE
  5
10A
  8
LAYER_1
 10
76.614739
 20
77.404094
 30
0.0
 11
77.090434
 21
77.179862
 31
0.0
  0
LINE
  5
10B
  8
LAYER_1
 10
77.090434
 20
77.179862
 30
0.0
 11
79.018556
 21
77.183697
 31
0.0
  0
LINE
  5
10C
  8
LAYER_1
 10
79.018556
 20
77.183697
 30
0.0
 11
80.268781
 21
77.325434
 31
0.0
  0
LINE
  5
10D
  8
LAYER_1
 10
80.268781
 20
77.325434
 30
0.0
 11
81.63766099999999
 21
77.638075
 31
0.0
  0
LINE
  5
10E
  8
LAYER_1
 10
81.63766099999999
 20
77.638075
 30
0.0
 11
85.791889
 21
79.071665
 31
0.0
  0
LINE
  5
10F
  8
LAYER_1
 10
85.791889
 20
79.071665
 30
0.0
 11
93.163836
 21
81.68803800000001
 31
0.0
  0
LINE
  5
110
  8
LAYER_1
 10
93.163836
 20
81.68803800000001
 30
0.0
 11
95.992006
 21
82.467
 31
0.0
  0
LINE
  5
111
  8
LAYER_1
 10
95.992006
 20
82.467
 30
0.0
 11
99.338556
 21
83.227621
 31
0.0
  0
LINE
  5
112
  8
LAYER_1
 10
99.338556
 20
83.227621
 30
0.0
 11
104.028137
 21
84.077596
 31
0.0
  0
LINE
  5
113
  8
LAYER_1
 10
104.028137
 20
84.077596
 30
0.0
 11
108.864451
 21
84.246858
 31
0.0
  0
LINE
  5
114
  8
LAYER_1
 10
108.864451
 20
84.246858
 30
0.0
 11
113.733679
 21
84.26343
 31
0.0
  0
LINE
  5
115
  8
LAYER_1
 10
113.733679
 20
84.26343
 30
0.0
 11
114.013432
 21
85.270481
 31
0.0
  0
LINE
  5
116
  8
LAYER_1
 10
114.013432
 20
85.270481
 30
0.0
 11
114.277943
 21
87.06356700000001
 31
0.0
  0
LINE
  5
117
  8
LAYER_1
 10
114.277943
 20
87.06356700000001
 30
0.0
 11
114.014246
 21
88.718238
 31
0.0
  0
LINE
  5
118
  8
LAYER_1
 10
114.014246
 20
88.718238
 30
0.0
 11
113.203896
 21
90.28989900000001
 31
0.0
  0
LINE
  5
119
  8
LAYER_1
 10
113.203896
 20
90.28989900000001
 30
0.0
 11
111.82845
 21
91.83395400000001
 31
0.0
  0
LINE
  5
11A
  8
LAYER_1
 10
111.82845
 20
91.83395400000001
 30
0.0
 11
110.273812
 21
93.011426
 31
0.0
  0
LINE
  5
11B
  8
LAYER_1
 10
110.273812
 20
93.011426
 30
0.0
 11
108.329877
 21
93.762491
 31
0.0
  0
LINE
  5
11C
  8
LAYER_1
 10
108.329877
 20
93.762491
 30
0.0
 11
105.814651
 21
94.524562
 31
0.0
  0
LINE
  5
11D
  8
LAYER_1
 10
105.814651
 20
94.524562
 30
0.0
 11
105.567735
 21
94.668683
 31
0.0
  0
LINE
  5
11E
  8
LAYER_1
 10
105.567735
 20
94.668683
 30
0.0
 11
105.640474
 21
94.790189
 31
0.0
  0
LINE
  5
11F
  8
LAYER_1
 10
105.640474
 20
94.790189
 30
0.0
 11
106.307133
 21
94.77450500000001
 31
0.0
  0
LINE
  5
120
  8
LAYER_1
 10
106.307133
 20
94.77450500000001
 30
0.0
 11
107.666532
 21
94.440304
 31
0.0
  0
LINE
  5
121
  8
LAYER_1
 10
107.666532
 20
94.440304
 30
0.0
 11
110.818786
 21
93.29216200000001
 31
0.0
  0
LINE
  5
122
  8
LAYER_1
 10
110.818786
 20
93.29216200000001
 30
0.0
 11
112.375902
 21
92.301002
 31
0.0
  0
LINE
  5
123
  8
LAYER_1
 10
112.375902
 20
92.301002
 30
0.0
 11
113.87302
 21
90.878694
 31
0.0
  0
LINE
  5
124
  8
LAYER_1
 10
113.87302
 20
90.878694
 30
0.0
 11
115.170406
 21
89.18123799999999
 31
0.0
  0
LINE
  5
125
  8
LAYER_1
 10
115.170406
 20
89.18123799999999
 30
0.0
 11
116.128323
 21
87.36463500000001
 31
0.0
  0
LINE
  5
126
  8
LAYER_1
 10
116.128323
 20
87.36463500000001
 30
0.0
 11
116.766455
 21
85.151222
 31
0.0
  0
LINE
  5
127
  8
LAYER_1
 10
116.766455
 20
85.151222
 30
0.0
 11
117.092509
 21
82.675754
 31
0.0
  0
LINE
  5
128
  8
LAYER_1
 10
117.092509
 20
82.675754
 30
0.0
 11
117.07644
 21
80.398832
 31
0.0
  0
LINE
  5
129
  8
LAYER_1
 10
117.07644
 20
80.398832
 30
0.0
 11
116.93072
 21
79.478763
 31
0.0
  0
LINE
  5
12A
  8
LAYER_1
 10
116.93072
 20
79.478763
 30
0.0
 11
116.688204
 21
78.781055
 31
0.0
  0
LINE
  5
12B
  8
LAYER_1
 10
116.688204
 20
78.781055
 30
0.0
 11
115.902504
 21
77.48527300000001
 31
0.0
  0
LINE
  5
12C
  8
LAYER_1
 10
115.902504
 20
77.48527300000001
 30
0.0
 11
114.942212
 21
76.35274699999999
 31
0.0
  0
LINE
  5
12D
  8
LAYER_1
 10
114.942212
 20
76.35274699999999
 30
0.0
 11
113.762569
 21
75.36026200000001
 31
0.0
  0
LINE
  5
12E
  8
LAYER_1
 10
113.762569
 20
75.36026200000001
 30
0.0
 11
112.318812
 21
74.484607
 31
0.0
  0
LINE
  5
12F
  8
LAYER_1
 10
112.318812
 20
74.484607
 30
0.0
 11
110.566181
 21
73.702566
 31
0.0
  0
LINE
  5
130
  8
LAYER_1
 10
110.566181
 20
73.702566
 30
0.0
 11
108.459917
 21
72.990926
 31
0.0
  0
LINE
  5
131
  8
LAYER_1
 10
108.459917
 20
72.990926
 30
0.0
 11
103.007445
 21
71.685997
 31
0.0
  0
LINE
  5
132
  8
LAYER_1
 10
103.007445
 20
71.685997
 30
0.0
 11
99.352003
 21
71.15942699999999
 31
0.0
  0
LINE
  5
133
  8
LAYER_1
 10
99.352003
 20
71.15942699999999
 30
0.0
 11
94.258556
 21
71.060502
 31
0.0
  0
LINE
  5
134
  8
LAYER_1
 10
94.258556
 20
71.060502
 30
0.0
 11
89.068212
 21
71.20703500000001
 31
0.0
  0
LINE
  5
135
  8
LAYER_1
 10
89.068212
 20
71.20703500000001
 30
0.0
 11
87.402163
 21
71.47300900000001
 31
0.0
  0
LINE
  5
136
  8
LAYER_1
 10
87.402163
 20
71.47300900000001
 30
0.0
 11
85.421233
 21
71.96285399999999
 31
0.0
  0
LINE
  5
137
  8
LAYER_1
 10
85.421233
 20
71.96285399999999
 30
0.0
 11
82.09248
 21
73.074977
 31
0.0
  0
LINE
  5
138
  8
LAYER_1
 10
82.09248
 20
73.074977
 30
0.0
 11
78.960438
 21
74.569532
 31
0.0
  0
LINE
  5
139
  8
LAYER_1
 10
78.960438
 20
74.569532
 30
0.0
 11
76.199472
 21
76.349627
 31
0.0
  0
LINE
  5
13A
  8
LAYER_1
 10
76.199472
 20
76.349627
 30
0.0
 11
73.983949
 21
78.31836800000001
 31
0.0
  0
LINE
  5
13B
  8
LAYER_1
 10
73.983949
 20
78.31836800000001
 30
0.0
 11
73.323786
 21
79.029704
 31
0.0
  0
LINE
  5
13C
  8
LAYER_1
 10
73.323786
 20
79.029704
 30
0.0
 11
72.35187999999999
 21
78.37015100000001
 31
0.0
  0
LINE
  5
13D
  8
LAYER_1
 10
72.35187999999999
 20
78.37015100000001
 30
0.0
 11
71.06959500000001
 21
77.60713699999999
 31
0.0
  0
LINE
  5
13E
  8
LAYER_1
 10
71.06959500000001
 20
77.60713699999999
 30
0.0
 11
70.89413
 21
77.47344699999999
 31
0.0
  0
LINE
  5
13F
  8
LAYER_1
 10
70.89413
 20
77.47344699999999
 30
0.0
 11
70.86184400000001
 21
77.235162
 31
0.0
  0
LINE
  5
140
  8
LAYER_1
 10
70.86184400000001
 20
77.235162
 30
0.0
 11
71.23297599999999
 21
76.435351
 31
0.0
  0
LINE
  5
141
  8
LAYER_1
 10
71.23297599999999
 20
76.435351
 30
0.0
 11
72.195312
 21
75.18879200000001
 31
0.0
  0
LINE
  5
142
  8
LAYER_1
 10
72.195312
 20
75.18879200000001
 30
0.0
 11
73.761177
 21
73.476572
 31
0.0
  0
LINE
  5
143
  8
LAYER_1
 10
73.761177
 20
73.476572
 30
0.0
 11
75.32723
 21
71.75527099999999
 31
0.0
  0
LINE
  5
144
  8
LAYER_1
 10
75.32723
 20
71.75527099999999
 30
0.0
 11
75.606394
 21
71.36829400000001
 31
0.0
  0
LINE
  5
145
  8
LAYER_1
 10
75.606394
 20
71.36829400000001
 30
0.0
 11
75.474683
 21
71.388453
 31
0.0
  0
LINE
  5
146
  8
LAYER_1
 10
75.474683
 20
71.388453
 30
0.0
 11
74.088657
 21
72.580242
 31
0.0
  0
LINE
  5
147
  8
LAYER_1
 10
74.088657
 20
72.580242
 30
0.0
 11
72.40929199999999
 21
74.32998499999999
 31
0.0
  0
LINE
  5
148
  8
LAYER_1
 10
72.40929199999999
 20
74.32998499999999
 30
0.0
 11
70.825186
 21
76.20595400000001
 31
0.0
  0
LINE
  5
149
  8
LAYER_1
 10
70.825186
 20
76.20595400000001
 30
0.0
 11
69.72493299999999
 21
77.776417
 31
0.0
  0
LINE
  5
14A
  8
LAYER_1
 10
69.72493299999999
 20
77.776417
 30
0.0
 11
68.897665
 21
79.007015
 31
0.0
  0
LINE
  5
14B
  8
LAYER_1
 10
68.897665
 20
79.007015
 30
0.0
 11
68.599586
 21
79.222846
 31
0.0
  0
LINE
  5
14C
  8
LAYER_1
 10
68.599586
 20
79.222846
 30
0.0
 11
68.333518
 21
79.219047
 31
0.0
  0
LINE
  5
14D
  8
LAYER_1
 10
68.333518
 20
79.219047
 30
0.0
 11
66.24122199999999
 21
78.618306
 31
0.0
  0
LINE
  5
14E
  8
LAYER_1
 10
66.24122199999999
 20
78.618306
 30
0.0
 11
65.06893700000001
 21
78.408761
 31
0.0
  0
LINE
  5
14F
  8
LAYER_1
 10
65.06893700000001
 20
78.408761
 30
0.0
 11
63.910638
 21
78.44594100000001
 31
0.0
  0
LINE
  5
150
  8
LAYER_1
 10
63.910638
 20
78.44594100000001
 30
0.0
 11
62.548836
 21
78.76017400000001
 31
0.0
  0
LINE
  5
151
  8
LAYER_1
 10
62.548836
 20
78.76017400000001
 30
0.0
 11
60.76604
 21
79.381787
 31
0.0
  0
LINE
  5
152
  8
LAYER_1
 10
60.76604
 20
79.381787
 30
0.0
 11
60.176919
 21
79.664256
 31
0.0
  0
LINE
  5
153
  8
LAYER_1
 10
60.176919
 20
79.664256
 30
0.0
 11
60.121881
 21
79.747505
 31
0.0
  0
LINE
  5
154
  8
LAYER_1
 10
60.121881
 20
79.747505
 30
0.0
 11
60.207991
 21
79.789559
 31
0.0
  0
LINE
  5
155
  8
LAYER_1
 10
60.207991
 20
79.789559
 30
0.0
 11
61.685912
 21
79.507757
 31
0.0
  0
LINE
  5
156
  8
LAYER_1
 10
61.685912
 20
79.507757
 30
0.0
 11
63.783446
 21
79.141746
 31
0.0
  0
LINE
  5
157
  8
LAYER_1
 10
63.783446
 20
79.141746
 30
0.0
 11
65.93668099999999
 21
79.15871799999999
 31
0.0
  0
LINE
  5
158
  8
LAYER_1
 10
65.93668099999999
 20
79.15871799999999
 30
0.0
 11
67.616581
 21
79.50810900000001
 31
0.0
  0
LINE
  5
159
  8
LAYER_1
 10
67.616581
 20
79.50810900000001
 30
0.0
 11
68.113708
 21
79.79165999999999
 31
0.0
  0
LINE
  5
15A
  8
LAYER_1
 10
68.113708
 20
79.79165999999999
 30
0.0
 11
68.294112
 21
80.139354
 31
0.0
  0
LINE
  5
15B
  8
LAYER_1
 10
68.294112
 20
80.139354
 30
0.0
 11
67.855473
 21
81.36824
 31
0.0
  0
LINE
  5
15C
  8
LAYER_1
 10
67.855473
 20
81.36824
 30
0.0
 11
67.41683500000001
 21
82.21647299999999
 31
0.0
  0
LINE
  5
15D
  8
LAYER_1
 10
67.41683500000001
 20
82.21647299999999
 30
0.0
 11
65.49646799999999
 21
82.027243
 31
0.0
  0
LINE
  5
15E
  8
LAYER_1
 10
65.49646799999999
 20
82.027243
 30
0.0
 11
64.369192
 21
81.948697
 31
0.0
  0
LINE
  5
15F
  8
LAYER_1
 10
64.369192
 20
81.948697
 30
0.0
 11
63.469599
 21
82.029871
 31
0.0
  0
LINE
  5
160
  8
LAYER_1
 10
63.469599
 20
82.029871
 30
0.0
 11
60.925659
 21
82.963995
 31
0.0
  0
LINE
  5
161
  8
LAYER_1
 10
60.925659
 20
82.963995
 30
0.0
 11
57.640223
 21
84.285551
 31
0.0
  0
LINE
  5
162
  8
LAYER_1
 10
57.640223
 20
84.285551
 30
0.0
 11
57.191754
 21
84.50027799999999
 31
0.0
  0
LINE
  5
163
  8
LAYER_1
 10
57.191754
 20
84.50027799999999
 30
0.0
 11
57.005223
 21
84.741901
 31
0.0
  0
LINE
  5
164
  8
LAYER_1
 10
57.005223
 20
84.741901
 30
0.0
 11
57.564817
 21
84.710674
 31
0.0
  0
LINE
  5
165
  8
LAYER_1
 10
57.564817
 20
84.710674
 30
0.0
 11
58.910223
 21
84.26938800000001
 31
0.0
  0
LINE
  5
166
  8
LAYER_1
 10
58.910223
 20
84.26938800000001
 30
0.0
 11
63.270129
 21
82.70911200000001
 31
0.0
  0
LINE
  5
167
  8
LAYER_1
 10
63.270129
 20
82.70911200000001
 30
0.0
 11
64.38249
 21
82.510035
 31
0.0
  0
LINE
  5
168
  8
LAYER_1
 10
64.38249
 20
82.510035
 30
0.0
 11
65.40100700000001
 21
82.533044
 31
0.0
  0
LINE
  5
169
  8
LAYER_1
 10
65.40100700000001
 20
82.533044
 30
0.0
 11
67.038189
 21
82.810866
 31
0.0
  0
LINE
  5
16A
  8
LAYER_1
 10
67.038189
 20
82.810866
 30
0.0
 11
66.98447
 21
83.407207
 31
0.0
  0
LINE
  5
16B
  8
LAYER_1
 10
66.98447
 20
83.407207
 30
0.0
 11
66.636482
 21
84.62212100000001
 31
0.0
  0
LINE
  5
16C
  8
LAYER_1
 10
66.636482
 20
84.62212100000001
 30
0.0
 11
66.294121
 21
85.579971
 31
0.0
  0
LINE
  5
16D
  8
LAYER_1
 10
66.294121
 20
85.579971
 30
0.0
 11
65.986732
 21
86.088525
 31
0.0
  0
LINE
  5
16E
  8
LAYER_1
 10
65.986732
 20
86.088525
 30
0.0
 11
65.542326
 21
86.316215
 31
0.0
  0
LINE
  5
16F
  8
LAYER_1
 10
65.542326
 20
86.316215
 30
0.0
 11
64.788915
 21
86.431473
 31
0.0
  0
LINE
  5
170
  8
LAYER_1
 10
64.788915
 20
86.431473
 30
0.0
 11
63.780181
 21
86.637852
 31
0.0
  0
LINE
  5
171
  8
LAYER_1
 10
63.780181
 20
86.637852
 30
0.0
 11
63.166447
 21
86.917863
 31
0.0
  0
LINE
  5
172
  8
LAYER_1
 10
63.166447
 20
86.917863
 30
0.0
 11
63.07745
 21
87.069076
 31
0.0
  0
LINE
  5
173
  8
LAYER_1
 10
63.07745
 20
87.069076
 30
0.0
 11
63.214426
 21
87.14305400000001
 31
0.0
  0
LINE
  5
174
  8
LAYER_1
 10
63.214426
 20
87.14305400000001
 30
0.0
 11
64.29405800000001
 21
87.077386
 31
0.0
  0
LINE
  5
175
  8
LAYER_1
 10
64.29405800000001
 20
87.077386
 30
0.0
 11
65.234027
 21
87.00151099999999
 31
0.0
  0
LINE
  5
176
  8
LAYER_1
 10
65.234027
 20
87.00151099999999
 30
0.0
 11
65.672023
 21
87.15630899999999
 31
0.0
  0
LINE
  5
177
  8
LAYER_1
 10
65.672023
 20
87.15630899999999
 30
0.0
 11
65.704326
 21
87.680857
 31
0.0
  0
LINE
  5
178
  8
LAYER_1
 10
65.704326
 20
87.680857
 30
0.0
 11
65.427217
 21
88.71423299999999
 31
0.0
  0
LINE
  5
179
  8
LAYER_1
 10
65.427217
 20
88.71423299999999
 30
0.0
 11
65.021142
 21
89.601496
 31
0.0
  0
LINE
  5
17A
  8
LAYER_1
 10
65.021142
 20
89.601496
 30
0.0
 11
64.744077
 21
89.762976
 31
0.0
  0
LINE
  5
17B
  8
LAYER_1
 10
64.744077
 20
89.762976
 30
0.0
 11
64.34955100000001
 21
89.80531000000001
 31
0.0
  0
LINE
  5
17C
  8
LAYER_1
 10
64.34955100000001
 20
89.80531000000001
 30
0.0
 11
62.81832
 21
90.04187
 31
0.0
  0
LINE
  5
17D
  8
LAYER_1
 10
62.81832
 20
90.04187
 30
0.0
 11
60.952495
 21
90.63695199999999
 31
0.0
  0
LINE
  5
17E
  8
LAYER_1
 10
60.952495
 20
90.63695199999999
 30
0.0
 11
59.203421
 21
91.41865300000001
 31
0.0
  0
LINE
  5
17F
  8
LAYER_1
 10
59.203421
 20
91.41865300000001
 30
0.0
 11
58.022445
 21
92.215073
 31
0.0
  0
LINE
  5
180
  8
LAYER_1
 10
58.022445
 20
92.215073
 30
0.0
 11
57.593057
 21
92.72931800000001
 31
0.0
  0
LINE
  5
181
  8
LAYER_1
 10
57.593057
 20
92.72931800000001
 30
0.0
 11
57.642506
 21
92.899967
 31
0.0
  0
LINE
  5
182
  8
LAYER_1
 10
57.642506
 20
92.899967
 30
0.0
 11
58.970226
 21
92.211299
 31
0.0
  0
LINE
  5
183
  8
LAYER_1
 10
58.970226
 20
92.211299
 30
0.0
 11
60.988826
 21
91.114751
 31
0.0
  0
LINE
  5
184
  8
LAYER_1
 10
60.988826
 20
91.114751
 30
0.0
 11
62.874253
 21
90.50816
 31
0.0
  0
LINE
  5
185
  8
LAYER_1
 10
62.874253
 20
90.50816
 30
0.0
 11
64.23612
 21
90.46914099999999
 31
0.0
  0
LINE
  5
186
  8
LAYER_1
 10
64.23612
 20
90.46914099999999
 30
0.0
 11
64.598722
 21
90.68672599999999
 31
0.0
  0
LINE
  5
187
  8
LAYER_1
 10
64.598722
 20
90.68672599999999
 30
0.0
 11
64.684038
 21
91.07531
 31
0.0
  0
LINE
  5
188
  8
LAYER_1
 10
64.684038
 20
91.07531
 30
0.0
 11
64.43332
 21
92.860027
 31
0.0
  0
LINE
  5
189
  8
LAYER_1
 10
64.43332
 20
92.860027
 30
0.0
 11
64.30509000000001
 21
93.54888099999999
 31
0.0
  0
LINE
  5
18A
  8
LAYER_1
 10
64.30509000000001
 20
93.54888099999999
 30
0.0
 11
64.075463
 21
93.995233
 31
0.0
  0
LINE
  5
18B
  8
LAYER_1
 10
64.075463
 20
93.995233
 30
0.0
 11
63.622005
 21
94.34107
 31
0.0
  0
LINE
  5
18C
  8
LAYER_1
 10
63.622005
 20
94.34107
 30
0.0
 11
62.822283
 21
94.72838299999999
 31
0.0
  0
LINE
  5
18D
  8
LAYER_1
 10
62.822283
 20
94.72838299999999
 30
0.0
 11
61.223116
 21
95.60867399999999
 31
0.0
  0
LINE
  5
18E
  8
LAYER_1
 10
61.223116
 20
95.60867399999999
 30
0.0
 11
59.404112
 21
96.815044
 31
0.0
  0
LINE
  5
18F
  8
LAYER_1
 10
59.404112
 20
96.815044
 30
0.0
 11
56.774255
 21
98.713869
 31
0.0
  0
LINE
  5
190
  8
LAYER_1
 10
56.774255
 20
98.713869
 30
0.0
 11
56.360924
 21
99.087687
 31
0.0
  0
LINE
  5
191
  8
LAYER_1
 10
56.360924
 20
99.087687
 30
0.0
 11
56.285979
 21
99.34013899999999
 31
0.0
  0
LINE
  5
192
  8
LAYER_1
 10
56.285979
 20
99.34013899999999
 30
0.0
 11
57.126985
 21
98.95666300000001
 31
0.0
  0
LINE
  5
193
  8
LAYER_1
 10
57.126985
 20
98.95666300000001
 30
0.0
 11
58.915836
 21
97.801543
 31
0.0
  0
LINE
  5
194
  8
LAYER_1
 10
58.915836
 20
97.801543
 30
0.0
 11
61.966034
 21
95.821714
 31
0.0
  0
LINE
  5
195
  8
LAYER_1
 10
61.966034
 20
95.821714
 30
0.0
 11
62.913106
 21
95.33053700000001
 31
0.0
  0
LINE
  5
196
  8
LAYER_1
 10
62.913106
 20
95.33053700000001
 30
0.0
 11
63.482319
 21
95.16753199999999
 31
0.0
  0
LINE
  5
197
  8
LAYER_1
 10
63.482319
 20
95.16753199999999
 30
0.0
 11
63.696274
 21
95.66262399999999
 31
0.0
  0
LINE
  5
198
  8
LAYER_1
 10
63.696274
 20
95.66262399999999
 30
0.0
 11
63.778556
 21
96.950008
 31
0.0
  0
LINE
  5
199
  8
LAYER_1
 10
63.778556
 20
96.950008
 30
0.0
 11
63.760602
 21
97.983464
 31
0.0
  0
LINE
  5
19A
  8
LAYER_1
 10
63.760602
 20
97.983464
 30
0.0
 11
63.642484
 21
98.580044
 31
0.0
  0
LINE
  5
19B
  8
LAYER_1
 10
63.642484
 20
98.580044
 30
0.0
 11
63.327819
 21
98.956434
 31
0.0
  0
LINE
  5
19C
  8
LAYER_1
 10
63.327819
 20
98.956434
 30
0.0
 11
62.720223
 21
99.32932200000001
 31
0.0
  0
LINE
  5
19D
  8
LAYER_1
 10
62.720223
 20
99.32932200000001
 30
0.0
 11
60.478808
 21
100.951663
 31
0.0
  0
LINE
  5
19E
  8
LAYER_1
 10
60.478808
 20
100.951663
 30
0.0
 11
59.61089
 21
101.772469
 31
0.0
  0
LINE
  5
19F
  8
LAYER_1
 10
59.61089
 20
101.772469
 30
0.0
 11
59.263001
 21
102.297879
 31
0.0
  0
LINE
  5
1A0
  8
LAYER_1
 10
59.263001
 20
102.297879
 30
0.0
 11
59.490983
 21
102.308397
 31
0.0
  0
LINE
  5
1A1
  8
LAYER_1
 10
59.490983
 20
102.308397
 30
0.0
 11
60.039112
 21
101.894104
 31
0.0
  0
LINE
  5
1A2
  8
LAYER_1
 10
60.039112
 20
101.894104
 30
0.0
 11
62.126619
 21
100.295583
 31
0.0
  0
LINE
  5
1A3
  8
LAYER_1
 10
62.126619
 20
100.295583
 30
0.0
 11
63.020032
 21
99.767258
 31
0.0
  0
LINE
  5
1A4
  8
LAYER_1
 10
63.020032
 20
99.767258
 30
0.0
 11
63.582094
 21
99.692813
 31
0.0
  0
LINE
  5
1A5
  8
LAYER_1
 10
63.582094
 20
99.692813
 30
0.0
 11
63.935385
 21
100.119407
 31
0.0
  0
LINE
  5
1A6
  8
LAYER_1
 10
63.935385
 20
100.119407
 30
0.0
 11
64.202488
 21
101.094199
 31
0.0
  0
LINE
  5
1A7
  8
LAYER_1
 10
64.202488
 20
101.094199
 30
0.0
 11
64.53385400000001
 21
102.258184
 31
0.0
  0
LINE
  5
1A8
  8
LAYER_1
 10
64.53385400000001
 20
102.258184
 30
0.0
 11
64.70288100000001
 21
102.41759
 31
0.0
  0
LINE
  5
1A9
  8
LAYER_1
 10
64.70288100000001
 20
102.41759
 30
0.0
 11
64.911337
 21
102.361794
 31
0.0
  0
LINE
  5
1AA
  8
LAYER_1
 10
64.911337
 20
102.361794
 30
0.0
 11
64.96994599999999
 21
101.868775
 31
0.0
  0
LINE
  5
1AB
  8
LAYER_1
 10
64.96994599999999
 20
101.868775
 30
0.0
 11
64.763845
 21
100.897899
 31
0.0
  0
LINE
  5
1AC
  8
LAYER_1
 10
64.763845
 20
100.897899
 30
0.0
 11
64.51388900000001
 21
99.352687
 31
0.0
  0
LINE
  5
1AD
  8
LAYER_1
 10
64.51388900000001
 20
99.352687
 30
0.0
 11
64.807794
 21
99.159226
 31
0.0
  0
LINE
  5
1AE
  8
LAYER_1
 10
64.807794
 20
99.159226
 30
0.0
 11
65.305677
 21
99.141988
 31
0.0
  0
LINE
  5
1AF
  8
LAYER_1
 10
65.305677
 20
99.141988
 30
0.0
 11
66.713235
 21
99.612532
 31
0.0
  0
LINE
  5
1B0
  8
LAYER_1
 10
66.713235
 20
99.612532
 30
0.0
 11
67.259917
 21
99.94359
 31
0.0
  0
LINE
  5
1B1
  8
LAYER_1
 10
67.259917
 20
99.94359
 30
0.0
 11
67.63653100000001
 21
100.389035
 31
0.0
  0
LINE
  5
1B2
  8
LAYER_1
 10
67.63653100000001
 20
100.389035
 30
0.0
 11
68.309484
 21
102.364199
 31
0.0
  0
LINE
  5
1B3
  8
LAYER_1
 10
68.309484
 20
102.364199
 30
0.0
 11
68.94707200000001
 21
104.514291
 31
0.0
  0
LINE
  5
1B4
  8
LAYER_1
 10
68.94707200000001
 20
104.514291
 30
0.0
 11
69.746048
 21
106.528421
 31
0.0
  0
LINE
  5
1B5
  8
LAYER_1
 10
69.746048
 20
106.528421
 30
0.0
 11
73.22078000000001
 21
113.229754
 31
0.0
  0
LINE
  5
1B6
  8
LAYER_1
 10
73.22078000000001
 20
113.229754
 30
0.0
 11
75.48566099999999
 21
117.561673
 31
0.0
  0
LINE
  5
1B7
  8
LAYER_1
 10
75.48566099999999
 20
117.561673
 30
0.0
 11
77.085466
 21
121.028868
 31
0.0
  0
LINE
  5
1B8
  8
LAYER_1
 10
77.085466
 20
121.028868
 30
0.0
 11
78.226034
 21
124.124284
 31
0.0
  0
LINE
  5
1B9
  8
LAYER_1
 10
78.226034
 20
124.124284
 30
0.0
 11
79.113208
 21
127.340865
 31
0.0
  0
LINE
  5
1BA
  8
LAYER_1
 10
79.113208
 20
127.340865
 30
0.0
 11
82.059634
 21
139.37549
 31
0.0
  0
LINE
  5
1BB
  8
LAYER_1
 10
82.059634
 20
139.37549
 30
0.0
 11
83.518959
 21
144.697532
 31
0.0
  0
LINE
  5
1BC
  8
LAYER_1
 10
83.518959
 20
144.697532
 30
0.0
 11
84.26585900000001
 21
147.105329
 31
0.0
  0
LINE
  5
1BD
  8
LAYER_1
 10
84.26585900000001
 20
147.105329
 30
0.0
 11
84.50139
 21
148.252155
 31
0.0
  0
LINE
  5
1BE
  8
LAYER_1
 10
84.50139
 20
148.252155
 30
0.0
 11
84.423849
 21
148.44345
 31
0.0
  0
LINE
  5
1BF
  8
LAYER_1
 10
84.423849
 20
148.44345
 30
0.0
 11
84.21421599999999
 21
148.4284
 31
0.0
  0
LINE
  5
1C0
  8
LAYER_1
 10
84.21421599999999
 20
148.4284
 30
0.0
 11
83.393001
 21
147.924455
 31
0.0
  0
LINE
  5
1C1
  8
LAYER_1
 10
83.393001
 20
147.924455
 30
0.0
 11
81.94837800000001
 21
147.100716
 31
0.0
  0
LINE
  5
1C2
  8
LAYER_1
 10
81.94837800000001
 20
147.100716
 30
0.0
 11
81.642827
 21
146.885679
 31
0.0
  0
LINE
  5
1C3
  8
LAYER_1
 10
81.642827
 20
146.885679
 30
0.0
 11
81.374782
 21
146.481994
 31
0.0
  0
LINE
  5
1C4
  8
LAYER_1
 10
81.374782
 20
146.481994
 30
0.0
 11
80.861902
 21
144.930266
 31
0.0
  0
LINE
  5
1C5
  8
LAYER_1
 10
80.861902
 20
144.930266
 30
0.0
 11
78.35853899999999
 21
136.124101
 31
0.0
  0
LINE
  5
1C6
  8
LAYER_1
 10
78.35853899999999
 20
136.124101
 30
0.0
 11
75.45707
 21
127.778121
 31
0.0
  0
LINE
  5
1C7
  8
LAYER_1
 10
75.45707
 20
127.778121
 30
0.0
 11
75.50415200000001
 21
127.415495
 31
0.0
  0
LINE
  5
1C8
  8
LAYER_1
 10
75.50415200000001
 20
127.415495
 30
0.0
 11
75.953951
 21
127.349087
 31
0.0
  0
LINE
  5
1C9
  8
LAYER_1
 10
75.953951
 20
127.349087
 30
0.0
 11
76.67499599999999
 21
127.562402
 31
0.0
  0
LINE
  5
1CA
  8
LAYER_1
 10
76.67499599999999
 20
127.562402
 30
0.0
 11
77.53582
 21
128.038945
 31
0.0
  0
LINE
  5
1CB
  8
LAYER_1
 10
77.53582
 20
128.038945
 30
0.0
 11
78.306288
 21
128.487039
 31
0.0
  0
LINE
  5
1CC
  8
LAYER_1
 10
78.306288
 20
128.487039
 30
0.0
 11
78.71607299999999
 21
128.584088
 31
0.0
  0
LINE
  5
1CD
  8
LAYER_1
 10
78.71607299999999
 20
128.584088
 30
0.0
 11
78.620778
 21
128.2705
 31
0.0
  0
LINE
  5
1CE
  8
LAYER_1
 10
78.620778
 20
128.2705
 30
0.0
 11
78.048929
 21
127.816585
 31
0.0
  0
LINE
  5
1CF
  8
LAYER_1
 10
78.048929
 20
127.816585
 30
0.0
 11
76.20745100000001
 21
126.961237
 31
0.0
  0
LINE
  5
1D0
  8
LAYER_1
 10
76.20745100000001
 20
126.961237
 30
0.0
 11
75.130855
 21
126.478348
 31
0.0
  0
LINE
  5
1D1
  8
LAYER_1
 10
75.130855
 20
126.478348
 30
0.0
 11
74.87776599999999
 21
126.132259
 31
0.0
  0
LINE
  5
1D2
  8
LAYER_1
 10
74.87776599999999
 20
126.132259
 30
0.0
 11
74.708309
 21
125.621203
 31
0.0
  0
LINE
  5
1D3
  8
LAYER_1
 10
74.708309
 20
125.621203
 30
0.0
 11
73.89908699999999
 21
123.540033
 31
0.0
  0
LINE
  5
1D4
  8
LAYER_1
 10
73.89908699999999
 20
123.540033
 30
0.0
 11
72.439364
 21
120.308971
 31
0.0
  0
LINE
  5
1D5
  8
LAYER_1
 10
72.439364
 20
120.308971
 30
0.0
 11
71.019963
 21
117.401024
 31
0.0
  0
LINE
  5
1D6
  8
LAYER_1
 10
71.019963
 20
117.401024
 30
0.0
 11
70.331705
 21
116.289195
 31
0.0
  0
LINE
  5
1D7
  8
LAYER_1
 10
70.331705
 20
116.289195
 30
0.0
 11
70.810436
 21
117.671413
 31
0.0
  0
LINE
  5
1D8
  8
LAYER_1
 10
70.810436
 20
117.671413
 30
0.0
 11
72.103923
 21
120.567131
 31
0.0
  0
LINE
  5
1D9
  8
LAYER_1
 10
72.103923
 20
120.567131
 30
0.0
 11
73.473778
 21
123.660352
 31
0.0
  0
LINE
  5
1DA
  8
LAYER_1
 10
73.473778
 20
123.660352
 30
0.0
 11
74.136123
 21
125.517422
 31
0.0
  0
LINE
  5
1DB
  8
LAYER_1
 10
74.136123
 20
125.517422
 30
0.0
 11
74.157332
 21
126.346807
 31
0.0
  0
LINE
  5
1DC
  8
LAYER_1
 10
74.157332
 20
126.346807
 30
0.0
 11
73.951735
 21
126.469451
 31
0.0
  0
LINE
  5
1DD
  8
LAYER_1
 10
73.951735
 20
126.469451
 30
0.0
 11
73.54324699999999
 21
126.494199
 31
0.0
  0
LINE
  5
1DE
  8
LAYER_1
 10
73.54324699999999
 20
126.494199
 30
0.0
 11
72.455797
 21
126.666652
 31
0.0
  0
LINE
  5
1DF
  8
LAYER_1
 10
72.455797
 20
126.666652
 30
0.0
 11
70.998699
 21
127.109439
 31
0.0
  0
LINE
  5
1E0
  8
LAYER_1
 10
70.998699
 20
127.109439
 30
0.0
 11
69.489735
 21
127.710703
 31
0.0
  0
LINE
  5
1E1
  8
LAYER_1
 10
69.489735
 20
127.710703
 30
0.0
 11
68.246684
 21
128.358584
 31
0.0
  0
LINE
  5
1E2
  8
LAYER_1
 10
68.246684
 20
128.358584
 30
0.0
 11
67.218683
 21
128.899744
 31
0.0
  0
LINE
  5
1E3
  8
LAYER_1
 10
67.218683
 20
128.899744
 30
0.0
 11
66.965034
 21
128.831689
 31
0.0
  0
LINE
  5
1E4
  8
LAYER_1
 10
66.965034
 20
128.831689
 30
0.0
 11
66.718699
 21
128.559766
 31
0.0
  0
LINE
  5
1E5
  8
LAYER_1
 10
66.718699
 20
128.559766
 30
0.0
 11
66.30525400000001
 21
127.886494
 31
0.0
  0
LINE
  5
1E6
  8
LAYER_1
 10
66.30525400000001
 20
127.886494
 30
0.0
 11
66.129685
 21
127.253927
 31
0.0
  0
LINE
  5
1E7
  8
LAYER_1
 10
66.129685
 20
127.253927
 30
0.0
 11
66.193142
 21
126.674489
 31
0.0
  0
LINE
  5
1E8
  8
LAYER_1
 10
66.193142
 20
126.674489
 30
0.0
 11
66.496774
 21
126.160603
 31
0.0
  0
LINE
  5
1E9
  8
LAYER_1
 10
66.496774
 20
126.160603
 30
0.0
 11
67.24254999999999
 21
125.578734
 31
0.0
  0
LINE
  5
1EA
  8
LAYER_1
 10
67.24254999999999
 20
125.578734
 30
0.0
 11
68.359658
 21
124.950588
 31
0.0
  0
LINE
  5
1EB
  8
LAYER_1
 10
68.359658
 20
124.950588
 30
0.0
 11
69.506186
 21
124.447092
 31
0.0
  0
LINE
  5
1EC
  8
LAYER_1
 10
69.506186
 20
124.447092
 30
0.0
 11
70.340223
 21
124.239178
 31
0.0
  0
LINE
  5
1ED
  8
LAYER_1
 10
70.340223
 20
124.239178
 30
0.0
 11
70.689032
 21
124.147742
 31
0.0
  0
LINE
  5
1EE
  8
LAYER_1
 10
70.689032
 20
124.147742
 30
0.0
 11
70.83411200000001
 21
123.931773
 31
0.0
  0
LINE
  5
1EF
  8
LAYER_1
 10
70.83411200000001
 20
123.931773
 30
0.0
 11
70.68410900000001
 21
123.760693
 31
0.0
  0
LINE
  5
1F0
  8
LAYER_1
 10
70.68410900000001
 20
123.760693
 30
0.0
 11
70.277591
 21
123.752357
 31
0.0
  0
LINE
  5
1F1
  8
LAYER_1
 10
70.277591
 20
123.752357
 30
0.0
 11
68.955949
 21
124.124669
 31
0.0
  0
LINE
  5
1F2
  8
LAYER_1
 10
68.955949
 20
124.124669
 30
0.0
 11
67.391068
 21
124.850217
 31
0.0
  0
LINE
  5
1F3
  8
LAYER_1
 10
67.391068
 20
124.850217
 30
0.0
 11
66.104832
 21
125.730508
 31
0.0
  0
LINE
  5
1F4
  8
LAYER_1
 10
66.104832
 20
125.730508
 30
0.0
 11
65.49758799999999
 21
126.166795
 31
0.0
  0
LINE
  5
1F5
  8
LAYER_1
 10
65.49758799999999
 20
126.166795
 30
0.0
 11
65.058953
 21
125.769215
 31
0.0
  0
LINE
  5
1F6
  8
LAYER_1
 10
65.058953
 20
125.769215
 30
0.0
 11
61.556416
 21
119.017418
 31
0.0
  0
LINE
  5
1F7
  8
LAYER_1
 10
61.556416
 20
119.017418
 30
0.0
 11
57.89702
 21
111.234976
 31
0.0
  0
LINE
  5
1F8
  8
LAYER_1
 10
57.89702
 20
111.234976
 30
0.0
 11
56.190608
 21
106.01964
 31
0.0
  0
LINE
  5
1F9
  8
LAYER_1
 10
56.190608
 20
106.01964
 30
0.0
 11
55.54512
 21
103.501463
 31
0.0
  0
LINE
  5
1FA
  8
LAYER_1
 10
55.54512
 20
103.501463
 30
0.0
 11
55.206197
 21
101.642181
 31
0.0
  0
LINE
  5
1FB
  8
LAYER_1
 10
55.206197
 20
101.642181
 30
0.0
 11
54.728604
 21
97.250817
 31
0.0
  0
LINE
  5
1FC
  8
LAYER_1
 10
54.728604
 20
97.250817
 30
0.0
 11
54.582726
 21
94.431411
 31
0.0
  0
LINE
  5
1FD
  8
LAYER_1
 10
54.582726
 20
94.431411
 30
0.0
 11
54.696056
 21
91.25060499999999
 31
0.0
  0
LINE
  5
1FE
  8
LAYER_1
 10
54.696056
 20
91.25060499999999
 30
0.0
 11
55.047154
 21
88.005089
 31
0.0
  0
LINE
  5
1FF
  8
LAYER_1
 10
55.047154
 20
88.005089
 30
0.0
 11
55.614576
 21
84.99155500000001
 31
0.0
  0
LINE
  5
200
  8
LAYER_1
 10
55.614576
 20
84.99155500000001
 30
0.0
 11
56.570652
 21
81.936128
 31
0.0
  0
LINE
  5
201
  8
LAYER_1
 10
56.570652
 20
81.936128
 30
0.0
 11
58.028074
 21
78.308284
 31
0.0
  0
LINE
  5
202
  8
LAYER_1
 10
58.028074
 20
78.308284
 30
0.0
 11
59.695295
 21
74.776094
 31
0.0
  0
LINE
  5
203
  8
LAYER_1
 10
59.695295
 20
74.776094
 30
0.0
 11
61.280768
 21
72.007628
 31
0.0
  0
LINE
  5
204
  8
LAYER_1
 10
61.280768
 20
72.007628
 30
0.0
 11
62.594655
 21
70.173506
 31
0.0
  0
LINE
  5
205
  8
LAYER_1
 10
62.594655
 20
70.173506
 30
0.0
 11
63.897066
 21
68.733485
 31
0.0
  0
LINE
  5
206
  8
LAYER_1
 10
63.897066
 20
68.733485
 30
0.0
 11
65.51411
 21
67.374961
 31
0.0
  0
LINE
  5
207
  8
LAYER_1
 10
65.51411
 20
67.374961
 30
0.0
 11
67.771896
 21
65.785331
 31
0.0
  0
LINE
  5
208
  8
LAYER_1
 10
67.771896
 20
65.785331
 30
0.0
 11
71.603008
 21
63.565662
 31
0.0
  0
LINE
  5
209
  8
LAYER_1
 10
71.603008
 20
63.565662
 30
0.0
 11
75.776583
 21
61.800655
 31
0.0
  0
LINE
  5
20A
  8
LAYER_1
 10
75.776583
 20
61.800655
 30
0.0
 11
80.12706
 21
60.548906
 31
0.0
  0
LINE
  5
20B
  8
LAYER_1
 10
80.12706
 20
60.548906
 30
0.0
 11
84.488878
 21
59.869008
 31
0.0
  0
LINE
  5
20C
  8
LAYER_1
 10
84.488878
 20
59.869008
 30
0.0
 11
88.019808
 21
59.449242
 31
0.0
  0
LINE
  5
20D
  8
LAYER_1
 10
88.019808
 20
59.449242
 30
0.0
 11
89.807868
 21
59.318043
 31
0.0
  0
LINE
  5
20E
  8
LAYER_1
 10
89.807868
 20
59.318043
 30
0.0
 11
93.794932
 21
59.344232
 31
0.0
  0
LINE
  5
20F
  8
LAYER_1
 10
93.794932
 20
59.344232
 30
0.0
 11
102.738149
 21
59.752732
 31
0.0
  0
LINE
  5
210
  8
LAYER_1
 10
102.738149
 20
59.752732
 30
0.0
 11
102.738149
 21
59.752732
 31
0.0
  0
LINE
  5
211
  8
LAYER_1
 10
54.814764
 20
68.48329099999999
 30
0.0
 11
56.9226
 21
68.939865
 31
0.0
  0
LINE
  5
212
  8
LAYER_1
 10
56.9226
 20
68.939865
 30
0.0
 11
58.804272
 21
69.486054
 31
0.0
  0
LINE
  5
213
  8
LAYER_1
 10
58.804272
 20
69.486054
 30
0.0
 11
60.156026
 21
70.02035600000001
 31
0.0
  0
LINE
  5
214
  8
LAYER_1
 10
60.156026
 20
70.02035600000001
 30
0.0
 11
60.674112
 21
70.441267
 31
0.0
  0
LINE
  5
215
  8
LAYER_1
 10
60.674112
 20
70.441267
 30
0.0
 11
59.945705
 21
71.758813
 31
0.0
  0
LINE
  5
216
  8
LAYER_1
 10
59.945705
 20
71.758813
 30
0.0
 11
58.330009
 21
74.499725
 31
0.0
  0
LINE
  5
217
  8
LAYER_1
 10
58.330009
 20
74.499725
 30
0.0
 11
56.472548
 21
78.51642099999999
 31
0.0
  0
LINE
  5
218
  8
LAYER_1
 10
56.472548
 20
78.51642099999999
 30
0.0
 11
55.72377
 21
80.283619
 31
0.0
  0
LINE
  5
219
  8
LAYER_1
 10
55.72377
 20
80.283619
 30
0.0
 11
55.431888
 21
80.78609299999999
 31
0.0
  0
LINE
  5
21A
  8
LAYER_1
 10
55.431888
 20
80.78609299999999
 30
0.0
 11
55.113947
 21
81.081467
 31
0.0
  0
LINE
  5
21B
  8
LAYER_1
 10
55.113947
 20
81.081467
 30
0.0
 11
54.709152
 21
81.20497500000001
 31
0.0
  0
LINE
  5
21C
  8
LAYER_1
 10
54.709152
 20
81.20497500000001
 30
0.0
 11
54.156706
 21
81.191857
 31
0.0
  0
LINE
  5
21D
  8
LAYER_1
 10
54.156706
 20
81.191857
 30
0.0
 11
52.36567
 21
80.896683
 31
0.0
  0
LINE
  5
21E
  8
LAYER_1
 10
52.36567
 20
80.896683
 30
0.0
 11
49.642512
 21
80.57638300000001
 31
0.0
  0
LINE
  5
21F
  8
LAYER_1
 10
49.642512
 20
80.57638300000001
 30
0.0
 11
47.071808
 21
80.537127
 31
0.0
  0
LINE
  5
220
  8
LAYER_1
 10
47.071808
 20
80.537127
 30
0.0
 11
44.88598
 21
80.769479
 31
0.0
  0
LINE
  5
221
  8
LAYER_1
 10
44.88598
 20
80.769479
 30
0.0
 11
43.317445
 21
81.264004
 31
0.0
  0
LINE
  5
222
  8
LAYER_1
 10
43.317445
 20
81.264004
 30
0.0
 11
42.063899
 21
82.135389
 31
0.0
  0
LINE
  5
223
  8
LAYER_1
 10
42.063899
 20
82.135389
 30
0.0
 11
40.71426
 21
83.38844400000001
 31
0.0
  0
LINE
  5
224
  8
LAYER_1
 10
40.71426
 20
83.38844400000001
 30
0.0
 11
39.540506
 21
84.74220099999999
 31
0.0
  0
LINE
  5
225
  8
LAYER_1
 10
39.540506
 20
84.74220099999999
 30
0.0
 11
38.814615
 21
85.915689
 31
0.0
  0
LINE
  5
226
  8
LAYER_1
 10
38.814615
 20
85.915689
 30
0.0
 11
38.506648
 21
87.189848
 31
0.0
  0
LINE
  5
227
  8
LAYER_1
 10
38.506648
 20
87.189848
 30
0.0
 11
38.378556
 21
88.77981
 31
0.0
  0
LINE
  5
228
  8
LAYER_1
 10
38.378556
 20
88.77981
 30
0.0
 11
38.542522
 21
90.547074
 31
0.0
  0
LINE
  5
229
  8
LAYER_1
 10
38.542522
 20
90.547074
 30
0.0
 11
39.206782
 21
92.169141
 31
0.0
  0
LINE
  5
22A
  8
LAYER_1
 10
39.206782
 20
92.169141
 30
0.0
 11
40.065739
 21
93.63804
 31
0.0
  0
LINE
  5
22B
  8
LAYER_1
 10
40.065739
 20
93.63804
 30
0.0
 11
40.983594
 21
94.89540700000001
 31
0.0
  0
LINE
  5
22C
  8
LAYER_1
 10
40.983594
 20
94.89540700000001
 30
0.0
 11
41.950478
 21
95.929244
 31
0.0
  0
LINE
  5
22D
  8
LAYER_1
 10
41.950478
 20
95.929244
 30
0.0
 11
42.956522
 21
96.727555
 31
0.0
  0
LINE
  5
22E
  8
LAYER_1
 10
42.956522
 20
96.727555
 30
0.0
 11
43.784047
 21
97.181029
 31
0.0
  0
LINE
  5
22F
  8
LAYER_1
 10
43.784047
 20
97.181029
 30
0.0
 11
44.23651
 21
97.268901
 31
0.0
  0
LINE
  5
230
  8
LAYER_1
 10
44.23651
 20
97.268901
 30
0.0
 11
44.209636
 21
97.028533
 31
0.0
  0
LINE
  5
231
  8
LAYER_1
 10
44.209636
 20
97.028533
 30
0.0
 11
43.599151
 21
96.49729000000001
 31
0.0
  0
LINE
  5
232
  8
LAYER_1
 10
43.599151
 20
96.49729000000001
 30
0.0
 11
41.913305
 21
95.06576800000001
 31
0.0
  0
LINE
  5
233
  8
LAYER_1
 10
41.913305
 20
95.06576800000001
 30
0.0
 11
40.72957
 21
93.50463000000001
 31
0.0
  0
LINE
  5
234
  8
LAYER_1
 10
40.72957
 20
93.50463000000001
 30
0.0
 11
40.029803
 21
91.782252
 31
0.0
  0
LINE
  5
235
  8
LAYER_1
 10
40.029803
 20
91.782252
 30
0.0
 11
39.795865
 21
89.867009
 31
0.0
  0
LINE
  5
236
  8
LAYER_1
 10
39.795865
 20
89.867009
 30
0.0
 11
39.866904
 21
88.609447
 31
0.0
  0
LINE
  5
237
  8
LAYER_1
 10
39.866904
 20
88.609447
 30
0.0
 11
40.166624
 21
87.997308
 31
0.0
  0
LINE
  5
238
  8
LAYER_1
 10
40.166624
 20
87.997308
 30
0.0
 11
40.808073
 21
87.951571
 31
0.0
  0
LINE
  5
239
  8
LAYER_1
 10
40.808073
 20
87.951571
 30
0.0
 11
41.904299
 21
88.393214
 31
0.0
  0
LINE
  5
23A
  8
LAYER_1
 10
41.904299
 20
88.393214
 30
0.0
 11
43.418118
 21
88.881064
 31
0.0
  0
LINE
  5
23B
  8
LAYER_1
 10
43.418118
 20
88.881064
 30
0.0
 11
45.268015
 21
89.021636
 31
0.0
  0
LINE
  5
23C
  8
LAYER_1
 10
45.268015
 20
89.021636
 30
0.0
 11
47.513996
 21
88.813947
 31
0.0
  0
LINE
  5
23D
  8
LAYER_1
 10
47.513996
 20
88.813947
 30
0.0
 11
50.216065
 21
88.257013
 31
0.0
  0
LINE
  5
23E
  8
LAYER_1
 10
50.216065
 20
88.257013
 30
0.0
 11
53.461034
 21
87.582852
 31
0.0
  0
LINE
  5
23F
  8
LAYER_1
 10
53.461034
 20
87.582852
 30
0.0
 11
53.32334
 21
89.946421
 31
0.0
  0
LINE
  5
240
  8
LAYER_1
 10
53.32334
 20
89.946421
 30
0.0
 11
53.069329
 21
94.802802
 31
0.0
  0
LINE
  5
241
  8
LAYER_1
 10
53.069329
 20
94.802802
 30
0.0
 11
53.054112
 21
97.401408
 31
0.0
  0
LINE
  5
242
  8
LAYER_1
 10
53.054112
 20
97.401408
 30
0.0
 11
51.101941
 21
97.982789
 31
0.0
  0
LINE
  5
243
  8
LAYER_1
 10
51.101941
 20
97.982789
 30
0.0
 11
48.429801
 21
98.611115
 31
0.0
  0
LINE
  5
244
  8
LAYER_1
 10
48.429801
 20
98.611115
 30
0.0
 11
45.701885
 21
98.932855
 31
0.0
  0
LINE
  5
245
  8
LAYER_1
 10
45.701885
 20
98.932855
 30
0.0
 11
42.957093
 21
98.954041
 31
0.0
  0
LINE
  5
246
  8
LAYER_1
 10
42.957093
 20
98.954041
 30
0.0
 11
40.234323
 21
98.680706
 31
0.0
  0
LINE
  5
247
  8
LAYER_1
 10
40.234323
 20
98.680706
 30
0.0
 11
37.572475
 21
98.11888500000001
 31
0.0
  0
LINE
  5
248
  8
LAYER_1
 10
37.572475
 20
98.11888500000001
 30
0.0
 11
35.010447
 21
97.274609
 31
0.0
  0
LINE
  5
249
  8
LAYER_1
 10
35.010447
 20
97.274609
 30
0.0
 11
32.587139
 21
96.15391200000001
 31
0.0
  0
LINE
  5
24A
  8
LAYER_1
 10
32.587139
 20
96.15391200000001
 30
0.0
 11
30.341449
 21
94.762828
 31
0.0
  0
LINE
  5
24B
  8
LAYER_1
 10
30.341449
 20
94.762828
 30
0.0
 11
28.646763
 21
93.256258
 31
0.0
  0
LINE
  5
24C
  8
LAYER_1
 10
28.646763
 20
93.256258
 30
0.0
 11
27.295253
 21
91.43780700000001
 31
0.0
  0
LINE
  5
24D
  8
LAYER_1
 10
27.295253
 20
91.43780700000001
 30
0.0
 11
26.302573
 21
89.38987400000001
 31
0.0
  0
LINE
  5
24E
  8
LAYER_1
 10
26.302573
 20
89.38987400000001
 30
0.0
 11
25.684376
 21
87.194861
 31
0.0
  0
LINE
  5
24F
  8
LAYER_1
 10
25.684376
 20
87.194861
 30
0.0
 11
25.456315
 21
84.935168
 31
0.0
  0
LINE
  5
250
  8
LAYER_1
 10
25.456315
 20
84.935168
 30
0.0
 11
25.634045
 21
82.69319400000001
 31
0.0
  0
LINE
  5
251
  8
LAYER_1
 10
25.634045
 20
82.69319400000001
 30
0.0
 11
26.233218
 21
80.55134200000001
 31
0.0
  0
LINE
  5
252
  8
LAYER_1
 10
26.233218
 20
80.55134200000001
 30
0.0
 11
27.269488
 21
78.592011
 31
0.0
  0
LINE
  5
253
  8
LAYER_1
 10
27.269488
 20
78.592011
 30
0.0
 11
28.614439
 21
76.923107
 31
0.0
  0
LINE
  5
254
  8
LAYER_1
 10
28.614439
 20
76.923107
 30
0.0
 11
30.344809
 21
75.195093
 31
0.0
  0
LINE
  5
255
  8
LAYER_1
 10
30.344809
 20
75.195093
 30
0.0
 11
32.220356
 21
73.627534
 31
0.0
  0
LINE
  5
256
  8
LAYER_1
 10
32.220356
 20
73.627534
 30
0.0
 11
34.000835
 21
72.439998
 31
0.0
  0
LINE
  5
257
  8
LAYER_1
 10
34.000835
 20
72.439998
 30
0.0
 11
36.465095
 21
71.163866
 31
0.0
  0
LINE
  5
258
  8
LAYER_1
 10
36.465095
 20
71.163866
 30
0.0
 11
38.951563
 21
70.06430400000001
 31
0.0
  0
LINE
  5
259
  8
LAYER_1
 10
38.951563
 20
70.06430400000001
 30
0.0
 11
41.315089
 21
69.200084
 31
0.0
  0
LINE
  5
25A
  8
LAYER_1
 10
41.315089
 20
69.200084
 30
0.0
 11
43.410522
 21
68.62997900000001
 31
0.0
  0
LINE
  5
25B
  8
LAYER_1
 10
43.410522
 20
68.62997900000001
 30
0.0
 11
46.017554
 21
68.26364
 31
0.0
  0
LINE
  5
25C
  8
LAYER_1
 10
46.017554
 20
68.26364
 30
0.0
 11
49.072318
 21
68.11341299999999
 31
0.0
  0
LINE
  5
25D
  8
LAYER_1
 10
49.072318
 20
68.11341299999999
 30
0.0
 11
52.147244
 21
68.184797
 31
0.0
  0
LINE
  5
25E
  8
LAYER_1
 10
52.147244
 20
68.184797
 30
0.0
 11
54.814764
 21
68.48329099999999
 31
0.0
  0
LINE
  5
25F
  8
LAYER_1
 10
54.814764
 20
68.48329099999999
 30
0.0
 11
54.814764
 21
68.48329099999999
 31
0.0
  0
LINE
  5
260
  8
LAYER_1
 10
100.193404
 20
72.446797
 30
0.0
 11
103.587972
 21
72.94959299999999
 31
0.0
  0
LINE
  5
261
  8
LAYER_1
 10
103.587972
 20
72.94959299999999
 30
0.0
 11
106.581196
 21
73.60895100000001
 31
0.0
  0
LINE
  5
262
  8
LAYER_1
 10
106.581196
 20
73.60895100000001
 30
0.0
 11
109.164535
 21
74.420361
 31
0.0
  0
LINE
  5
263
  8
LAYER_1
 10
109.164535
 20
74.420361
 30
0.0
 11
111.329448
 21
75.379313
 31
0.0
  0
LINE
  5
264
  8
LAYER_1
 10
111.329448
 20
75.379313
 30
0.0
 11
113.067393
 21
76.481296
 31
0.0
  0
LINE
  5
265
  8
LAYER_1
 10
113.067393
 20
76.481296
 30
0.0
 11
114.36983
 21
77.721801
 31
0.0
  0
LINE
  5
266
  8
LAYER_1
 10
114.36983
 20
77.721801
 30
0.0
 11
115.228217
 21
79.096316
 31
0.0
  0
LINE
  5
267
  8
LAYER_1
 10
115.228217
 20
79.096316
 30
0.0
 11
115.634014
 21
80.60033300000001
 31
0.0
  0
LINE
  5
268
  8
LAYER_1
 10
115.634014
 20
80.60033300000001
 30
0.0
 11
115.699863
 21
81.35558
 31
0.0
  0
LINE
  5
269
  8
LAYER_1
 10
115.699863
 20
81.35558
 30
0.0
 11
115.621533
 21
81.79364800000001
 31
0.0
  0
LINE
  5
26A
  8
LAYER_1
 10
115.621533
 20
81.79364800000001
 30
0.0
 11
115.312369
 21
82.075541
 31
0.0
  0
LINE
  5
26B
  8
LAYER_1
 10
115.312369
 20
82.075541
 30
0.0
 11
114.685716
 21
82.362269
 31
0.0
  0
LINE
  5
26C
  8
LAYER_1
 10
114.685716
 20
82.362269
 30
0.0
 11
113.334061
 21
82.650049
 31
0.0
  0
LINE
  5
26D
  8
LAYER_1
 10
113.334061
 20
82.650049
 30
0.0
 11
111.258726
 21
82.74976700000001
 31
0.0
  0
LINE
  5
26E
  8
LAYER_1
 10
111.258726
 20
82.74976700000001
 30
0.0
 11
105.748063
 21
82.462363
 31
0.0
  0
LINE
  5
26F
  8
LAYER_1
 10
105.748063
 20
82.462363
 30
0.0
 11
99.775826
 21
81.65474
 31
0.0
  0
LINE
  5
270
  8
LAYER_1
 10
99.775826
 20
81.65474
 30
0.0
 11
97.12352199999999
 21
81.104186
 31
0.0
  0
LINE
  5
271
  8
LAYER_1
 10
97.12352199999999
 20
81.104186
 30
0.0
 11
94.964112
 21
80.481585
 31
0.0
  0
LINE
  5
272
  8
LAYER_1
 10
94.964112
 20
80.481585
 30
0.0
 11
88.19051
 21
77.685084
 31
0.0
  0
LINE
  5
273
  8
LAYER_1
 10
88.19051
 20
77.685084
 30
0.0
 11
82.450164
 21
75.285792
 31
0.0
  0
LINE
  5
274
  8
LAYER_1
 10
82.450164
 20
75.285792
 30
0.0
 11
81.45564899999999
 21
74.86731399999999
 31
0.0
  0
LINE
  5
275
  8
LAYER_1
 10
81.45564899999999
 20
74.86731399999999
 30
0.0
 11
81.180435
 21
74.563958
 31
0.0
  0
LINE
  5
276
  8
LAYER_1
 10
81.180435
 20
74.563958
 30
0.0
 11
82.136461
 21
74.088161
 31
0.0
  0
LINE
  5
277
  8
LAYER_1
 10
82.136461
 20
74.088161
 30
0.0
 11
83.90938300000001
 21
73.47459600000001
 31
0.0
  0
LINE
  5
278
  8
LAYER_1
 10
83.90938300000001
 20
73.47459600000001
 30
0.0
 11
87.88643
 21
72.465966
 31
0.0
  0
LINE
  5
279
  8
LAYER_1
 10
87.88643
 20
72.465966
 30
0.0
 11
90.502802
 21
72.173991
 31
0.0
  0
LINE
  5
27A
  8
LAYER_1
 10
90.502802
 20
72.173991
 30
0.0
 11
93.58381300000001
 21
72.07322600000001
 31
0.0
  0
LINE
  5
27B
  8
LAYER_1
 10
93.58381300000001
 20
72.07322600000001
 30
0.0
 11
96.892875
 21
72.16403800000001
 31
0.0
  0
LINE
  5
27C
  8
LAYER_1
 10
96.892875
 20
72.16403800000001
 30
0.0
 11
100.193404
 21
72.446797
 31
0.0
  0
LINE
  5
27D
  8
LAYER_1
 10
100.193404
 20
72.446797
 30
0.0
 11
100.193404
 21
72.446797
 31
0.0
  0
LINE
  5
27E
  8
LAYER_1
 10
71.892445
 20
78.513328
 30
0.0
 11
72.540233
 21
79.003353
 31
0.0
  0
LINE
  5
27F
  8
LAYER_1
 10
72.540233
 20
79.003353
 30
0.0
 11
72.80966700000001
 21
79.39618400000001
 31
0.0
  0
LINE
  5
280
  8
LAYER_1
 10
72.80966700000001
 20
79.39618400000001
 30
0.0
 11
72.22071
 21
80.66486399999999
 31
0.0
  0
LINE
  5
281
  8
LAYER_1
 10
72.22071
 20
80.66486399999999
 30
0.0
 11
71.76358500000001
 21
81.328512
 31
0.0
  0
LINE
  5
282
  8
LAYER_1
 10
71.76358500000001
 20
81.328512
 30
0.0
 11
71.446094
 21
81.609116
 31
0.0
  0
LINE
  5
283
  8
LAYER_1
 10
71.446094
 20
81.609116
 30
0.0
 11
70.218729
 21
80.678943
 31
0.0
  0
LINE
  5
284
  8
LAYER_1
 10
70.218729
 20
80.678943
 30
0.0
 11
69.18001
 21
79.760516
 31
0.0
  0
LINE
  5
285
  8
LAYER_1
 10
69.18001
 20
79.760516
 30
0.0
 11
69.752554
 21
78.856247
 31
0.0
  0
LINE
  5
286
  8
LAYER_1
 10
69.752554
 20
78.856247
 30
0.0
 11
70.19569799999999
 21
78.251437
 31
0.0
  0
LINE
  5
287
  8
LAYER_1
 10
70.19569799999999
 20
78.251437
 30
0.0
 11
70.611076
 21
78.006941
 31
0.0
  0
LINE
  5
288
  8
LAYER_1
 10
70.611076
 20
78.006941
 30
0.0
 11
71.132166
 21
78.10136799999999
 31
0.0
  0
LINE
  5
289
  8
LAYER_1
 10
71.132166
 20
78.10136799999999
 30
0.0
 11
71.892445
 21
78.513328
 31
0.0
  0
LINE
  5
28A
  8
LAYER_1
 10
71.892445
 20
78.513328
 30
0.0
 11
71.892445
 21
78.513328
 31
0.0
  0
LINE
  5
28B
  8
LAYER_1
 10
70.142032
 20
81.238742
 30
0.0
 11
70.60720600000001
 21
81.880653
 31
0.0
  0
LINE
  5
28C
  8
LAYER_1
 10
70.60720600000001
 20
81.880653
 30
0.0
 11
70.80211799999999
 21
82.518188
 31
0.0
  0
LINE
  5
28D
  8
LAYER_1
 10
70.80211799999999
 20
82.518188
 30
0.0
 11
70.72791100000001
 21
83.163504
 31
0.0
  0
LINE
  5
28E
  8
LAYER_1
 10
70.72791100000001
 20
83.163504
 30
0.0
 11
70.385728
 21
83.828763
 31
0.0
  0
LINE
  5
28F
  8
LAYER_1
 10
70.385728
 20
83.828763
 30
0.0
 11
69.93734499999999
 21
84.468919
 31
0.0
  0
LINE
  5
290
  8
LAYER_1
 10
69.93734499999999
 20
84.468919
 30
0.0
 11
68.98504
 21
83.459182
 31
0.0
  0
LINE
  5
291
  8
LAYER_1
 10
68.98504
 20
83.459182
 30
0.0
 11
68.24630000000001
 21
82.49667100000001
 31
0.0
  0
LINE
  5
292
  8
LAYER_1
 10
68.24630000000001
 20
82.49667100000001
 30
0.0
 11
68.198312
 21
82.132475
 31
0.0
  0
LINE
  5
293
  8
LAYER_1
 10
68.198312
 20
82.132475
 30
0.0
 11
68.31300899999999
 21
81.712271
 31
0.0
  0
LINE
  5
294
  8
LAYER_1
 10
68.31300899999999
 20
81.712271
 30
0.0
 11
68.69698699999999
 21
80.85417099999999
 31
0.0
  0
LINE
  5
295
  8
LAYER_1
 10
68.69698699999999
 20
80.85417099999999
 30
0.0
 11
69.06277300000001
 21
80.506574
 31
0.0
  0
LINE
  5
296
  8
LAYER_1
 10
69.06277300000001
 20
80.506574
 30
0.0
 11
69.51093299999999
 21
80.64344300000001
 31
0.0
  0
LINE
  5
297
  8
LAYER_1
 10
69.51093299999999
 20
80.64344300000001
 30
0.0
 11
70.142032
 21
81.238742
 31
0.0
  0
LINE
  5
298
  8
LAYER_1
 10
70.142032
 20
81.238742
 30
0.0
 11
70.142032
 21
81.238742
 31
0.0
  0
LINE
  5
299
  8
LAYER_1
 10
50.967157
 20
81.94196599999999
 30
0.0
 11
54.488726
 21
82.482058
 31
0.0
  0
LINE
  5
29A
  8
LAYER_1
 10
54.488726
 20
82.482058
 30
0.0
 11
54.703383
 21
82.86083100000001
 31
0.0
  0
LINE
  5
29B
  8
LAYER_1
 10
54.703383
 20
82.86083100000001
 30
0.0
 11
54.576596
 21
83.63017499999999
 31
0.0
  0
LINE
  5
29C
  8
LAYER_1
 10
54.576596
 20
83.63017499999999
 30
0.0
 11
54.348159
 21
84.15948
 31
0.0
  0
LINE
  5
29D
  8
LAYER_1
 10
54.348159
 20
84.15948
 30
0.0
 11
53.904092
 21
84.629797
 31
0.0
  0
LINE
  5
29E
  8
LAYER_1
 10
53.904092
 20
84.629797
 30
0.0
 11
51.752043
 21
85.886313
 31
0.0
  0
LINE
  5
29F
  8
LAYER_1
 10
51.752043
 20
85.886313
 30
0.0
 11
48.971757
 21
87.068471
 31
0.0
  0
LINE
  5
2A0
  8
LAYER_1
 10
48.971757
 20
87.068471
 30
0.0
 11
47.740902
 21
87.37393
 31
0.0
  0
LINE
  5
2A1
  8
LAYER_1
 10
47.740902
 20
87.37393
 30
0.0
 11
46.602211
 21
87.489234
 31
0.0
  0
LINE
  5
2A2
  8
LAYER_1
 10
46.602211
 20
87.489234
 30
0.0
 11
45.545161
 21
87.414579
 31
0.0
  0
LINE
  5
2A3
  8
LAYER_1
 10
45.545161
 20
87.414579
 30
0.0
 11
44.559231
 21
87.150159
 31
0.0
  0
LINE
  5
2A4
  8
LAYER_1
 10
44.559231
 20
87.150159
 30
0.0
 11
43.633899
 21
86.696169
 31
0.0
  0
LINE
  5
2A5
  8
LAYER_1
 10
43.633899
 20
86.696169
 30
0.0
 11
42.758642
 21
86.052804
 31
0.0
  0
LINE
  5
2A6
  8
LAYER_1
 10
42.758642
 20
86.052804
 30
0.0
 11
41.910508
 21
85.15146900000001
 31
0.0
  0
LINE
  5
2A7
  8
LAYER_1
 10
41.910508
 20
85.15146900000001
 30
0.0
 11
41.809389
 21
84.78626199999999
 31
0.0
  0
LINE
  5
2A8
  8
LAYER_1
 10
41.809389
 20
84.78626199999999
 30
0.0
 11
41.864763
 21
84.367136
 31
0.0
  0
LINE
  5
2A9
  8
LAYER_1
 10
41.864763
 20
84.367136
 30
0.0
 11
42.084855
 21
83.91411700000001
 31
0.0
  0
LINE
  5
2AA
  8
LAYER_1
 10
42.084855
 20
83.91411700000001
 30
0.0
 11
42.499457
 21
83.46410899999999
 31
0.0
  0
LINE
  5
2AB
  8
LAYER_1
 10
42.499457
 20
83.46410899999999
 30
0.0
 11
43.792286
 21
82.632019
 31
0.0
  0
LINE
  5
2AC
  8
LAYER_1
 10
43.792286
 20
82.632019
 30
0.0
 11
45.503445
 21
81.988651
 31
0.0
  0
LINE
  5
2AD
  8
LAYER_1
 10
45.503445
 20
81.988651
 30
0.0
 11
47.393129
 21
81.651788
 31
0.0
  0
LINE
  5
2AE
  8
LAYER_1
 10
47.393129
 20
81.651788
 30
0.0
 11
50.967157
 21
81.94196599999999
 31
0.0
  0
LINE
  5
2AF
  8
LAYER_1
 10
50.967157
 20
81.94196599999999
 30
0.0
 11
50.967157
 21
81.94196599999999
 31
0.0
  0
LINE
  5
2B0
  8
LAYER_1
 10
68.628418
 20
83.66697600000001
 30
0.0
 11
69.140744
 21
84.186488
 31
0.0
  0
LINE
  5
2B1
  8
LAYER_1
 10
69.140744
 20
84.186488
 30
0.0
 11
69.401279
 21
84.77294999999999
 31
0.0
  0
LINE
  5
2B2
  8
LAYER_1
 10
69.401279
 20
84.77294999999999
 30
0.0
 11
69.428257
 21
85.510328
 31
0.0
  0
LINE
  5
2B3
  8
LAYER_1
 10
69.428257
 20
85.510328
 30
0.0
 11
69.239915
 21
86.48258300000001
 31
0.0
  0
LINE
  5
2B4
  8
LAYER_1
 10
69.239915
 20
86.48258300000001
 30
0.0
 11
68.730193
 21
88.05219
 31
0.0
  0
LINE
  5
2B5
  8
LAYER_1
 10
68.730193
 20
88.05219
 30
0.0
 11
68.336545
 21
87.92435999999999
 31
0.0
  0
LINE
  5
2B6
  8
LAYER_1
 10
68.336545
 20
87.92435999999999
 30
0.0
 11
67.584597
 21
87.42253599999999
 31
0.0
  0
LINE
  5
2B7
  8
LAYER_1
 10
67.584597
 20
87.42253599999999
 30
0.0
 11
66.872011
 21
86.731116
 31
0.0
  0
LINE
  5
2B8
  8
LAYER_1
 10
66.872011
 20
86.731116
 30
0.0
 11
66.712253
 21
86.183735
 31
0.0
  0
LINE
  5
2B9
  8
LAYER_1
 10
66.712253
 20
86.183735
 30
0.0
 11
67.191901
 21
84.513643
 31
0.0
  0
LINE
  5
2BA
  8
LAYER_1
 10
67.191901
 20
84.513643
 30
0.0
 11
67.462681
 21
83.77091400000001
 31
0.0
  0
LINE
  5
2BB
  8
LAYER_1
 10
67.462681
 20
83.77091400000001
 30
0.0
 11
67.764504
 21
83.398644
 31
0.0
  0
LINE
  5
2BC
  8
LAYER_1
 10
67.764504
 20
83.398644
 30
0.0
 11
68.139156
 21
83.372207
 31
0.0
  0
LINE
  5
2BD
  8
LAYER_1
 10
68.139156
 20
83.372207
 30
0.0
 11
68.628418
 21
83.66697600000001
 31
0.0
  0
LINE
  5
2BE
  8
LAYER_1
 10
68.628418
 20
83.66697600000001
 30
0.0
 11
68.628418
 21
83.66697600000001
 31
0.0
  0
LINE
  5
2BF
  8
LAYER_1
 10
68.315803
 20
88.716951
 30
0.0
 11
68.46248300000001
 21
89.35256200000001
 31
0.0
  0
LINE
  5
2C0
  8
LAYER_1
 10
68.46248300000001
 20
89.35256200000001
 30
0.0
 11
68.46914700000001
 21
90.25607599999999
 31
0.0
  0
LINE
  5
2C1
  8
LAYER_1
 10
68.46914700000001
 20
90.25607599999999
 30
0.0
 11
68.351705
 21
91.1669
 31
0.0
  0
LINE
  5
2C2
  8
LAYER_1
 10
68.351705
 20
91.1669
 30
0.0
 11
68.126068
 21
91.824443
 31
0.0
  0
LINE
  5
2C3
  8
LAYER_1
 10
68.126068
 20
91.824443
 30
0.0
 11
67.953754
 21
91.872629
 31
0.0
  0
LINE
  5
2C4
  8
LAYER_1
 10
67.953754
 20
91.872629
 30
0.0
 11
67.65201399999999
 21
91.74760000000001
 31
0.0
  0
LINE
  5
2C5
  8
LAYER_1
 10
67.65201399999999
 20
91.74760000000001
 30
0.0
 11
66.848147
 21
91.145588
 31
0.0
  0
LINE
  5
2C6
  8
LAYER_1
 10
66.848147
 20
91.145588
 30
0.0
 11
66.090251
 21
90.353782
 31
0.0
  0
LINE
  5
2C7
  8
LAYER_1
 10
66.090251
 20
90.353782
 30
0.0
 11
65.75411200000001
 21
89.707556
 31
0.0
  0
LINE
  5
2C8
  8
LAYER_1
 10
65.75411200000001
 20
89.707556
 30
0.0
 11
66.086304
 21
88.22116200000001
 31
0.0
  0
LINE
  5
2C9
  8
LAYER_1
 10
66.086304
 20
88.22116200000001
 30
0.0
 11
66.47958
 21
87.48010600000001
 31
0.0
  0
LINE
  5
2CA
  8
LAYER_1
 10
66.47958
 20
87.48010600000001
 30
0.0
 11
66.75267700000001
 21
87.49598899999999
 31
0.0
  0
LINE
  5
2CB
  8
LAYER_1
 10
66.75267700000001
 20
87.49598899999999
 30
0.0
 11
67.206828
 21
87.710157
 31
0.0
  0
LINE
  5
2CC
  8
LAYER_1
 10
67.206828
 20
87.710157
 30
0.0
 11
67.857775
 21
88.174063
 31
0.0
  0
LINE
  5
2CD
  8
LAYER_1
 10
67.857775
 20
88.174063
 30
0.0
 11
68.315803
 21
88.716951
 31
0.0
  0
LINE
  5
2CE
  8
LAYER_1
 10
68.315803
 20
88.716951
 30
0.0
 11
68.315803
 21
88.716951
 31
0.0
  0
LINE
  5
2CF
  8
LAYER_1
 10
73.656334
 20
88.96391199999999
 30
0.0
 11
80.735986
 21
92.040206
 31
0.0
  0
LINE
  5
2D0
  8
LAYER_1
 10
80.735986
 20
92.040206
 30
0.0
 11
87.626334
 21
94.597649
 31
0.0
  0
LINE
  5
2D1
  8
LAYER_1
 10
87.626334
 20
94.597649
 30
0.0
 11
91.273308
 21
95.79779600000001
 31
0.0
  0
LINE
  5
2D2
  8
LAYER_1
 10
91.273308
 20
95.79779600000001
 30
0.0
 11
93.64822700000001
 21
96.34437800000001
 31
0.0
  0
LINE
  5
2D3
  8
LAYER_1
 10
93.64822700000001
 20
96.34437800000001
 30
0.0
 11
101.596334
 21
97.589292
 31
0.0
  0
LINE
  5
2D4
  8
LAYER_1
 10
101.596334
 20
97.589292
 30
0.0
 11
104.023485
 21
97.851966
 31
0.0
  0
LINE
  5
2D5
  8
LAYER_1
 10
104.023485
 20
97.851966
 30
0.0
 11
105.688556
 21
97.852227
 31
0.0
  0
LINE
  5
2D6
  8
LAYER_1
 10
105.688556
 20
97.852227
 30
0.0
 11
110.627445
 21
97.42881800000001
 31
0.0
  0
LINE
  5
2D7
  8
LAYER_1
 10
110.627445
 20
97.42881800000001
 30
0.0
 11
114.086142
 21
97.083747
 31
0.0
  0
LINE
  5
2D8
  8
LAYER_1
 10
114.086142
 20
97.083747
 30
0.0
 11
116.554112
 21
96.43966
 31
0.0
  0
LINE
  5
2D9
  8
LAYER_1
 10
116.554112
 20
96.43966
 30
0.0
 11
118.508541
 21
95.792895
 31
0.0
  0
LINE
  5
2DA
  8
LAYER_1
 10
118.508541
 20
95.792895
 30
0.0
 11
119.777299
 21
95.52648499999999
 31
0.0
  0
LINE
  5
2DB
  8
LAYER_1
 10
119.777299
 20
95.52648499999999
 30
0.0
 11
120.612059
 21
95.619711
 31
0.0
  0
LINE
  5
2DC
  8
LAYER_1
 10
120.612059
 20
95.619711
 30
0.0
 11
121.264494
 21
96.05185299999999
 31
0.0
  0
LINE
  5
2DD
  8
LAYER_1
 10
121.264494
 20
96.05185299999999
 30
0.0
 11
121.997401
 21
96.921378
 31
0.0
  0
LINE
  5
2DE
  8
LAYER_1
 10
121.997401
 20
96.921378
 30
0.0
 11
122.48179
 21
97.919686
 31
0.0
  0
LINE
  5
2DF
  8
LAYER_1
 10
122.48179
 20
97.919686
 30
0.0
 11
122.721927
 21
99.005647
 31
0.0
  0
LINE
  5
2E0
  8
LAYER_1
 10
122.721927
 20
99.005647
 30
0.0
 11
122.722076
 21
100.138127
 31
0.0
  0
LINE
  5
2E1
  8
LAYER_1
 10
122.722076
 20
100.138127
 30
0.0
 11
122.486503
 21
101.275997
 31
0.0
  0
LINE
  5
2E2
  8
LAYER_1
 10
122.486503
 20
101.275997
 30
0.0
 11
122.019472
 21
102.378123
 31
0.0
  0
LINE
  5
2E3
  8
LAYER_1
 10
122.019472
 20
102.378123
 30
0.0
 11
121.325249
 21
103.403375
 31
0.0
  0
LINE
  5
2E4
  8
LAYER_1
 10
121.325249
 20
103.403375
 30
0.0
 11
120.408099
 21
104.31062
 31
0.0
  0
LINE
  5
2E5
  8
LAYER_1
 10
120.408099
 20
104.31062
 30
0.0
 11
118.983116
 21
105.277321
 31
0.0
  0
LINE
  5
2E6
  8
LAYER_1
 10
118.983116
 20
105.277321
 30
0.0
 11
117.079671
 21
106.337224
 31
0.0
  0
LINE
  5
2E7
  8
LAYER_1
 10
117.079671
 20
106.337224
 30
0.0
 11
115.13611
 21
107.263963
 31
0.0
  0
LINE
  5
2E8
  8
LAYER_1
 10
115.13611
 20
107.263963
 30
0.0
 11
113.590778
 21
107.83117
 31
0.0
  0
LINE
  5
2E9
  8
LAYER_1
 10
113.590778
 20
107.83117
 30
0.0
 11
111.384204
 21
108.22343
 31
0.0
  0
LINE
  5
2EA
  8
LAYER_1
 10
111.384204
 20
108.22343
 30
0.0
 11
108.699616
 21
108.437497
 31
0.0
  0
LINE
  5
2EB
  8
LAYER_1
 10
108.699616
 20
108.437497
 30
0.0
 11
105.953324
 21
108.455576
 31
0.0
  0
LINE
  5
2EC
  8
LAYER_1
 10
105.953324
 20
108.455576
 30
0.0
 11
103.561636
 21
108.259872
 31
0.0
  0
LINE
  5
2ED
  8
LAYER_1
 10
103.561636
 20
108.259872
 30
0.0
 11
102.048204
 21
107.995115
 31
0.0
  0
LINE
  5
2EE
  8
LAYER_1
 10
102.048204
 20
107.995115
 30
0.0
 11
100.813506
 21
107.635617
 31
0.0
  0
LINE
  5
2EF
  8
LAYER_1
 10
100.813506
 20
107.635617
 30
0.0
 11
97.656475
 21
106.066359
 31
0.0
  0
LINE
  5
2F0
  8
LAYER_1
 10
97.656475
 20
106.066359
 30
0.0
 11
93.367221
 21
103.886999
 31
0.0
  0
LINE
  5
2F1
  8
LAYER_1
 10
93.367221
 20
103.886999
 30
0.0
 11
91.653504
 21
103.212912
 31
0.0
  0
LINE
  5
2F2
  8
LAYER_1
 10
91.653504
 20
103.212912
 30
0.0
 11
90.140591
 21
102.798463
 31
0.0
  0
LINE
  5
2F3
  8
LAYER_1
 10
90.140591
 20
102.798463
 30
0.0
 11
88.763631
 21
102.630583
 31
0.0
  0
LINE
  5
2F4
  8
LAYER_1
 10
88.763631
 20
102.630583
 30
0.0
 11
87.45777200000001
 21
102.696206
 31
0.0
  0
LINE
  5
2F5
  8
LAYER_1
 10
87.45777200000001
 20
102.696206
 30
0.0
 11
86.158162
 21
102.982261
 31
0.0
  0
LINE
  5
2F6
  8
LAYER_1
 10
86.158162
 20
102.982261
 30
0.0
 11
84.799949
 21
103.475683
 31
0.0
  0
LINE
  5
2F7
  8
LAYER_1
 10
84.799949
 20
103.475683
 30
0.0
 11
82.965091
 21
104.320862
 31
0.0
  0
LINE
  5
2F8
  8
LAYER_1
 10
82.965091
 20
104.320862
 30
0.0
 11
81.615735
 21
105.143432
 31
0.0
  0
LINE
  5
2F9
  8
LAYER_1
 10
81.615735
 20
105.143432
 30
0.0
 11
80.584276
 21
106.066267
 31
0.0
  0
LINE
  5
2FA
  8
LAYER_1
 10
80.584276
 20
106.066267
 30
0.0
 11
79.703103
 21
107.212243
 31
0.0
  0
LINE
  5
2FB
  8
LAYER_1
 10
79.703103
 20
107.212243
 30
0.0
 11
78.82404099999999
 21
108.333983
 31
0.0
  0
LINE
  5
2FC
  8
LAYER_1
 10
78.82404099999999
 20
108.333983
 30
0.0
 11
78.21689000000001
 21
108.649183
 31
0.0
  0
LINE
  5
2FD
  8
LAYER_1
 10
78.21689000000001
 20
108.649183
 30
0.0
 11
77.916787
 21
108.494544
 31
0.0
  0
LINE
  5
2FE
  8
LAYER_1
 10
77.916787
 20
108.494544
 30
0.0
 11
77.811077
 21
108.1939
 31
0.0
  0
LINE
  5
2FF
  8
LAYER_1
 10
77.811077
 20
108.1939
 30
0.0
 11
78.184533
 21
107.151618
 31
0.0
  0
LINE
  5
300
  8
LAYER_1
 10
78.184533
 20
107.151618
 30
0.0
 11
79.340655
 21
105.51639
 31
0.0
  0
LINE
  5
301
  8
LAYER_1
 10
79.340655
 20
105.51639
 30
0.0
 11
81.282842
 21
103.28227
 31
0.0
  0
LINE
  5
302
  8
LAYER_1
 10
81.282842
 20
103.28227
 30
0.0
 11
83.194942
 21
101.433937
 31
0.0
  0
LINE
  5
303
  8
LAYER_1
 10
83.194942
 20
101.433937
 30
0.0
 11
83.986237
 21
100.952804
 31
0.0
  0
LINE
  5
304
  8
LAYER_1
 10
83.986237
 20
100.952804
 30
0.0
 11
84.912245
 21
100.585307
 31
0.0
  0
LINE
  5
305
  8
LAYER_1
 10
84.912245
 20
100.585307
 30
0.0
 11
86.567787
 21
100.173585
 31
0.0
  0
LINE
  5
306
  8
LAYER_1
 10
86.567787
 20
100.173585
 30
0.0
 11
88.198808
 21
100.402102
 31
0.0
  0
LINE
  5
307
  8
LAYER_1
 10
88.198808
 20
100.402102
 30
0.0
 11
90.85130599999999
 21
100.876362
 31
0.0
  0
LINE
  5
308
  8
LAYER_1
 10
90.85130599999999
 20
100.876362
 30
0.0
 11
93.887187
 21
101.180423
 31
0.0
  0
LINE
  5
309
  8
LAYER_1
 10
93.887187
 20
101.180423
 30
0.0
 11
97.07548199999999
 21
101.298615
 31
0.0
  0
LINE
  5
30A
  8
LAYER_1
 10
97.07548199999999
 20
101.298615
 30
0.0
 11
100.185223
 21
101.215269
 31
0.0
  0
LINE
  5
30B
  8
LAYER_1
 10
100.185223
 20
101.215269
 30
0.0
 11
106.951592
 21
100.992988
 31
0.0
  0
LINE
  5
30C
  8
LAYER_1
 10
106.951592
 20
100.992988
 30
0.0
 11
112.310395
 21
101.252881
 31
0.0
  0
LINE
  5
30D
  8
LAYER_1
 10
112.310395
 20
101.252881
 30
0.0
 11
114.451877
 21
101.615925
 31
0.0
  0
LINE
  5
30E
  8
LAYER_1
 10
114.451877
 20
101.615925
 30
0.0
 11
114.931018
 21
101.93433
 31
0.0
  0
LINE
  5
30F
  8
LAYER_1
 10
114.931018
 20
101.93433
 30
0.0
 11
115.344284
 21
102.476489
 31
0.0
  0
LINE
  5
310
  8
LAYER_1
 10
115.344284
 20
102.476489
 30
0.0
 11
115.838168
 21
103.460546
 31
0.0
  0
LINE
  5
311
  8
LAYER_1
 10
115.838168
 20
103.460546
 30
0.0
 11
115.984494
 21
104.391011
 31
0.0
  0
LINE
  5
312
  8
LAYER_1
 10
115.984494
 20
104.391011
 30
0.0
 11
115.784901
 21
105.213954
 31
0.0
  0
LINE
  5
313
  8
LAYER_1
 10
115.784901
 20
105.213954
 30
0.0
 11
115.241028
 21
105.875444
 31
0.0
  0
LINE
  5
314
  8
LAYER_1
 10
115.241028
 20
105.875444
 30
0.0
 11
114.797269
 21
106.289485
 31
0.0
  0
LINE
  5
315
  8
LAYER_1
 10
114.797269
 20
106.289485
 30
0.0
 11
114.652057
 21
106.570746
 31
0.0
  0
LINE
  5
316
  8
LAYER_1
 10
114.652057
 20
106.570746
 30
0.0
 11
114.804613
 21
106.677989
 31
0.0
  0
LINE
  5
317
  8
LAYER_1
 10
114.804613
 20
106.677989
 30
0.0
 11
115.254157
 21
106.569976
 31
0.0
  0
LINE
  5
318
  8
LAYER_1
 10
115.254157
 20
106.569976
 30
0.0
 11
115.756076
 21
106.180299
 31
0.0
  0
LINE
  5
319
  8
LAYER_1
 10
115.756076
 20
106.180299
 30
0.0
 11
116.169736
 21
105.486874
 31
0.0
  0
LINE
  5
31A
  8
LAYER_1
 10
116.169736
 20
105.486874
 30
0.0
 11
116.450594
 21
104.591589
 31
0.0
  0
LINE
  5
31B
  8
LAYER_1
 10
116.450594
 20
104.591589
 30
0.0
 11
116.554112
 21
103.59633
 31
0.0
  0
LINE
  5
31C
  8
LAYER_1
 10
116.554112
 20
103.59633
 30
0.0
 11
116.510542
 21
102.919297
 31
0.0
  0
LINE
  5
31D
  8
LAYER_1
 10
116.510542
 20
102.919297
 30
0.0
 11
116.32142
 21
102.376117
 31
0.0
  0
LINE
  5
31E
  8
LAYER_1
 10
116.32142
 20
102.376117
 30
0.0
 11
115.156053
 21
101.053993
 31
0.0
  0
LINE
  5
31F
  8
LAYER_1
 10
115.156053
 20
101.053993
 30
0.0
 11
113.63925
 21
99.82127
 31
0.0
  0
LINE
  5
320
  8
LAYER_1
 10
113.63925
 20
99.82127
 30
0.0
 11
112.876335
 21
99.430724
 31
0.0
  0
LINE
  5
321
  8
LAYER_1
 10
112.876335
 20
99.430724
 30
0.0
 11
112.041354
 21
99.175898
 31
0.0
  0
LINE
  5
322
  8
LAYER_1
 10
112.041354
 20
99.175898
 30
0.0
 11
109.948029
 21
99.028937
 31
0.0
  0
LINE
  5
323
  8
LAYER_1
 10
109.948029
 20
99.028937
 30
0.0
 11
106.944939
 21
99.29145
 31
0.0
  0
LINE
  5
324
  8
LAYER_1
 10
106.944939
 20
99.29145
 30
0.0
 11
102.788124
 21
99.67643099999999
 31
0.0
  0
LINE
  5
325
  8
LAYER_1
 10
102.788124
 20
99.67643099999999
 30
0.0
 11
98.440016
 21
99.88211800000001
 31
0.0
  0
LINE
  5
326
  8
LAYER_1
 10
98.440016
 20
99.88211800000001
 30
0.0
 11
94.514948
 21
99.89247
 31
0.0
  0
LINE
  5
327
  8
LAYER_1
 10
94.514948
 20
99.89247
 30
0.0
 11
91.627252
 21
99.691444
 31
0.0
  0
LINE
  5
328
  8
LAYER_1
 10
91.627252
 20
99.691444
 30
0.0
 11
83.130667
 21
97.832652
 31
0.0
  0
LINE
  5
329
  8
LAYER_1
 10
83.130667
 20
97.832652
 30
0.0
 11
77.883364
 21
96.62052
 31
0.0
  0
LINE
  5
32A
  8
LAYER_1
 10
77.883364
 20
96.62052
 30
0.0
 11
73.958444
 21
95.849217
 31
0.0
  0
LINE
  5
32B
  8
LAYER_1
 10
73.958444
 20
95.849217
 30
0.0
 11
71.64014
 21
95.489018
 31
0.0
  0
LINE
  5
32C
  8
LAYER_1
 10
71.64014
 20
95.489018
 30
0.0
 11
70.558846
 21
95.156836
 31
0.0
  0
LINE
  5
32D
  8
LAYER_1
 10
70.558846
 20
95.156836
 30
0.0
 11
70.34860500000001
 21
94.909488
 31
0.0
  0
LINE
  5
32E
  8
LAYER_1
 10
70.34860500000001
 20
94.909488
 30
0.0
 11
70.287448
 21
94.559027
 31
0.0
  0
LINE
  5
32F
  8
LAYER_1
 10
70.287448
 20
94.559027
 30
0.0
 11
70.398832
 21
93.401944
 31
0.0
  0
LINE
  5
330
  8
LAYER_1
 10
70.398832
 20
93.401944
 30
0.0
 11
70.853779
 21
90.25834
 31
0.0
  0
LINE
  5
331
  8
LAYER_1
 10
70.853779
 20
90.25834
 30
0.0
 11
71.312538
 21
88.312162
 31
0.0
  0
LINE
  5
332
  8
LAYER_1
 10
71.312538
 20
88.312162
 30
0.0
 11
71.55336200000001
 21
88.20606600000001
 31
0.0
  0
LINE
  5
333
  8
LAYER_1
 10
71.55336200000001
 20
88.20606600000001
 30
0.0
 11
72.031678
 21
88.281385
 31
0.0
  0
LINE
  5
334
  8
LAYER_1
 10
72.031678
 20
88.281385
 30
0.0
 11
73.656334
 21
88.96391199999999
 31
0.0
  0
LINE
  5
335
  8
LAYER_1
 10
73.656334
 20
88.96391199999999
 30
0.0
 11
73.656334
 21
88.96391199999999
 31
0.0
  0
LINE
  5
336
  8
LAYER_1
 10
66.931901
 20
91.705769
 30
0.0
 11
67.677931
 21
92.346604
 31
0.0
  0
LINE
  5
337
  8
LAYER_1
 10
67.677931
 20
92.346604
 30
0.0
 11
68.043009
 21
92.80981900000001
 31
0.0
  0
LINE
  5
338
  8
LAYER_1
 10
68.043009
 20
92.80981900000001
 30
0.0
 11
68.117814
 21
93.28986
 31
0.0
  0
LINE
  5
339
  8
LAYER_1
 10
68.117814
 20
93.28986
 30
0.0
 11
67.993026
 21
93.981171
 31
0.0
  0
LINE
  5
33A
  8
LAYER_1
 10
67.993026
 20
93.981171
 30
0.0
 11
67.892704
 21
95.203007
 31
0.0
  0
LINE
  5
33B
  8
LAYER_1
 10
67.892704
 20
95.203007
 30
0.0
 11
67.929033
 21
95.479105
 31
0.0
  0
LINE
  5
33C
  8
LAYER_1
 10
67.929033
 20
95.479105
 30
0.0
 11
67.625075
 21
95.56643800000001
 31
0.0
  0
LINE
  5
33D
  8
LAYER_1
 10
67.625075
 20
95.56643800000001
 30
0.0
 11
66.268783
 21
95.17886
 31
0.0
  0
LINE
  5
33E
  8
LAYER_1
 10
66.268783
 20
95.17886
 30
0.0
 11
64.865106
 21
94.466672
 31
0.0
  0
LINE
  5
33F
  8
LAYER_1
 10
64.865106
 20
94.466672
 30
0.0
 11
64.92861600000001
 21
93.10844400000001
 31
0.0
  0
LINE
  5
340
  8
LAYER_1
 10
64.92861600000001
 20
93.10844400000001
 30
0.0
 11
65.32289
 21
91.286976
 31
0.0
  0
LINE
  5
341
  8
LAYER_1
 10
65.32289
 20
91.286976
 30
0.0
 11
65.511886
 21
91.00898700000001
 31
0.0
  0
LINE
  5
342
  8
LAYER_1
 10
65.511886
 20
91.00898700000001
 30
0.0
 11
65.812955
 21
90.978289
 31
0.0
  0
LINE
  5
343
  8
LAYER_1
 10
65.812955
 20
90.978289
 30
0.0
 11
66.931901
 21
91.705769
 31
0.0
  0
LINE
  5
344
  8
LAYER_1
 10
66.931901
 20
91.705769
 30
0.0
 11
66.931901
 21
91.705769
 31
0.0
  0
LINE
  5
345
  8
LAYER_1
 10
66.88300099999999
 20
95.984955
 30
0.0
 11
67.46581000000001
 21
96.68137
 31
0.0
  0
LINE
  5
346
  8
LAYER_1
 10
67.46581000000001
 20
96.68137
 30
0.0
 11
67.673861
 21
97.947774
 31
0.0
  0
LINE
  5
347
  8
LAYER_1
 10
67.673861
 20
97.947774
 30
0.0
 11
67.676755
 21
98.879231
 31
0.0
  0
LINE
  5
348
  8
LAYER_1
 10
67.676755
 20
98.879231
 30
0.0
 11
67.498676
 21
99.32575300000001
 31
0.0
  0
LINE
  5
349
  8
LAYER_1
 10
67.498676
 20
99.32575300000001
 30
0.0
 11
67.06936399999999
 21
99.34072500000001
 31
0.0
  0
LINE
  5
34A
  8
LAYER_1
 10
67.06936399999999
 20
99.34072500000001
 30
0.0
 11
66.318556
 21
98.977532
 31
0.0
  0
LINE
  5
34B
  8
LAYER_1
 10
66.318556
 20
98.977532
 30
0.0
 11
64.97800100000001
 21
98.5642
 31
0.0
  0
LINE
  5
34C
  8
LAYER_1
 10
64.97800100000001
 20
98.5642
 30
0.0
 11
64.634984
 21
98.516244
 31
0.0
  0
LINE
  5
34D
  8
LAYER_1
 10
64.634984
 20
98.516244
 30
0.0
 11
64.443791
 21
98.31687599999999
 31
0.0
  0
LINE
  5
34E
  8
LAYER_1
 10
64.443791
 20
98.31687599999999
 30
0.0
 11
64.343001
 21
97.049014
 31
0.0
  0
LINE
  5
34F
  8
LAYER_1
 10
64.343001
 20
97.049014
 30
0.0
 11
64.54617
 21
95.340661
 31
0.0
  0
LINE
  5
350
  8
LAYER_1
 10
64.54617
 20
95.340661
 30
0.0
 11
64.917181
 21
95.23504699999999
 31
0.0
  0
LINE
  5
351
  8
LAYER_1
 10
64.917181
 20
95.23504699999999
 30
0.0
 11
65.512974
 21
95.330012
 31
0.0
  0
LINE
  5
352
  8
LAYER_1
 10
65.512974
 20
95.330012
 30
0.0
 11
66.88300099999999
 21
95.984955
 31
0.0
  0
LINE
  5
353
  8
LAYER_1
 10
66.88300099999999
 20
95.984955
 30
0.0
 11
66.88300099999999
 21
95.984955
 31
0.0
  0
LINE
  5
354
  8
LAYER_1
 10
79.264623
 20
119.468327
 30
0.0
 11
79.89223699999999
 21
119.776801
 31
0.0
  0
LINE
  5
355
  8
LAYER_1
 10
79.89223699999999
 20
119.776801
 30
0.0
 11
80.34512599999999
 21
120.201335
 31
0.0
  0
LINE
  5
356
  8
LAYER_1
 10
80.34512599999999
 20
120.201335
 30
0.0
 11
80.61958
 21
120.73703
 31
0.0
  0
LINE
  5
357
  8
LAYER_1
 10
80.61958
 20
120.73703
 30
0.0
 11
80.711889
 21
121.378988
 31
0.0
  0
LINE
  5
358
  8
LAYER_1
 10
80.711889
 20
121.378988
 30
0.0
 11
80.647274
 21
121.812763
 31
0.0
  0
LINE
  5
359
  8
LAYER_1
 10
80.647274
 20
121.812763
 30
0.0
 11
80.470148
 21
122.091429
 31
0.0
  0
LINE
  5
35A
  8
LAYER_1
 10
80.470148
 20
122.091429
 30
0.0
 11
80.205597
 21
122.220956
 31
0.0
  0
LINE
  5
35B
  8
LAYER_1
 10
80.205597
 20
122.220956
 30
0.0
 11
79.878703
 21
122.207316
 31
0.0
  0
LINE
  5
35C
  8
LAYER_1
 10
79.878703
 20
122.207316
 30
0.0
 11
79.13822399999999
 21
121.774411
 31
0.0
  0
LINE
  5
35D
  8
LAYER_1
 10
79.13822399999999
 20
121.774411
 30
0.0
 11
78.44937899999999
 21
120.840477
 31
0.0
  0
LINE
  5
35E
  8
LAYER_1
 10
78.44937899999999
 20
120.840477
 30
0.0
 11
77.976715
 21
119.811663
 31
0.0
  0
LINE
  5
35F
  8
LAYER_1
 10
77.976715
 20
119.811663
 30
0.0
 11
77.924543
 21
119.291356
 31
0.0
  0
LINE
  5
360
  8
LAYER_1
 10
77.924543
 20
119.291356
 30
0.0
 11
78.338599
 21
119.202572
 31
0.0
  0
LINE
  5
361
  8
LAYER_1
 10
78.338599
 20
119.202572
 30
0.0
 11
79.264623
 21
119.468327
 31
0.0
  0
LINE
  5
362
  8
LAYER_1
 10
79.264623
 20
119.468327
 30
0.0
 11
79.264623
 21
119.468327
 31
0.0
  0
LINE
  5
363
  8
LAYER_1
 10
82.753547
 20
121.970371
 30
0.0
 11
83.30216
 21
122.564915
 31
0.0
  0
LINE
  5
364
  8
LAYER_1
 10
83.30216
 20
122.564915
 30
0.0
 11
83.326899
 21
122.817038
 31
0.0
  0
LINE
  5
365
  8
LAYER_1
 10
83.326899
 20
122.817038
 30
0.0
 11
82.81014999999999
 21
122.576601
 31
0.0
  0
LINE
  5
366
  8
LAYER_1
 10
82.81014999999999
 20
122.576601
 30
0.0
 11
82.056899
 21
121.986915
 31
0.0
  0
LINE
  5
367
  8
LAYER_1
 10
82.056899
 20
121.986915
 30
0.0
 11
81.508285
 21
121.392371
 31
0.0
  0
LINE
  5
368
  8
LAYER_1
 10
81.508285
 20
121.392371
 30
0.0
 11
81.483547
 21
121.140248
 31
0.0
  0
LINE
  5
369
  8
LAYER_1
 10
81.483547
 20
121.140248
 30
0.0
 11
82.00029499999999
 21
121.380685
 31
0.0
  0
LINE
  5
36A
  8
LAYER_1
 10
82.00029499999999
 20
121.380685
 30
0.0
 11
82.753547
 21
121.970371
 31
0.0
  0
LINE
  5
36B
  8
LAYER_1
 10
82.753547
 20
121.970371
 30
0.0
 11
82.753547
 21
121.970371
 31
0.0
  0
LINE
  5
36C
  8
LAYER_1
 10
82.383568
 20
122.991507
 30
0.0
 11
83.062082
 21
123.769234
 31
0.0
  0
LINE
  5
36D
  8
LAYER_1
 10
83.062082
 20
123.769234
 30
0.0
 11
83.25188900000001
 21
124.668187
 31
0.0
  0
LINE
  5
36E
  8
LAYER_1
 10
83.25188900000001
 20
124.668187
 30
0.0
 11
83.165982
 21
125.389416
 31
0.0
  0
LINE
  5
36F
  8
LAYER_1
 10
83.165982
 20
125.389416
 30
0.0
 11
82.95944
 21
125.794962
 31
0.0
  0
LINE
  5
370
  8
LAYER_1
 10
82.95944
 20
125.794962
 30
0.0
 11
82.392163
 21
125.588413
 31
0.0
  0
LINE
  5
371
  8
LAYER_1
 10
82.392163
 20
125.588413
 30
0.0
 11
81.541664
 21
124.837916
 31
0.0
  0
LINE
  5
372
  8
LAYER_1
 10
81.541664
 20
124.837916
 30
0.0
 11
80.767611
 21
123.914145
 31
0.0
  0
LINE
  5
373
  8
LAYER_1
 10
80.767611
 20
123.914145
 30
0.0
 11
80.429667
 21
123.18777
 31
0.0
  0
LINE
  5
374
  8
LAYER_1
 10
80.429667
 20
123.18777
 30
0.0
 11
80.563035
 21
122.52662
 31
0.0
  0
LINE
  5
375
  8
LAYER_1
 10
80.563035
 20
122.52662
 30
0.0
 11
80.94814
 21
122.272019
 31
0.0
  0
LINE
  5
376
  8
LAYER_1
 10
80.94814
 20
122.272019
 30
0.0
 11
81.562484
 21
122.426228
 31
0.0
  0
LINE
  5
377
  8
LAYER_1
 10
81.562484
 20
122.426228
 30
0.0
 11
82.383568
 21
122.991507
 31
0.0
  0
LINE
  5
378
  8
LAYER_1
 10
82.383568
 20
122.991507
 30
0.0
 11
82.383568
 21
122.991507
 31
0.0
  0
LINE
  5
379
  8
LAYER_1
 10
79.816311
 20
123.512106
 30
0.0
 11
79.799877
 21
124.020343
 31
0.0
  0
LINE
  5
37A
  8
LAYER_1
 10
79.799877
 20
124.020343
 30
0.0
 11
79.638177
 21
124.117642
 31
0.0
  0
LINE
  5
37B
  8
LAYER_1
 10
79.638177
 20
124.117642
 30
0.0
 11
79.419057
 21
123.844553
 31
0.0
  0
LINE
  5
37C
  8
LAYER_1
 10
79.419057
 20
123.844553
 30
0.0
 11
79.23036399999999
 21
123.241627
 31
0.0
  0
LINE
  5
37D
  8
LAYER_1
 10
79.23036399999999
 20
123.241627
 30
0.0
 11
79.211842
 21
122.737529
 31
0.0
  0
LINE
  5
37E
  8
LAYER_1
 10
79.211842
 20
122.737529
 30
0.0
 11
79.408333
 21
122.624221
 31
0.0
  0
LINE
  5
37F
  8
LAYER_1
 10
79.408333
 20
122.624221
 30
0.0
 11
79.658435
 21
122.927734
 31
0.0
  0
LINE
  5
380
  8
LAYER_1
 10
79.658435
 20
122.927734
 30
0.0
 11
79.816311
 21
123.512106
 31
0.0
  0
LINE
  5
381
  8
LAYER_1
 10
79.816311
 20
123.512106
 30
0.0
 11
79.816311
 21
123.512106
 31
0.0
  0
LINE
  5
382
  8
LAYER_1
 10
61.645904
 20
123.883643
 30
0.0
 11
61.404043
 21
125.012532
 31
0.0
  0
LINE
  5
383
  8
LAYER_1
 10
61.404043
 20
125.012532
 30
0.0
 11
61.236483
 21
125.599464
 31
0.0
  0
LINE
  5
384
  8
LAYER_1
 10
61.236483
 20
125.599464
 30
0.0
 11
60.556084
 21
125.476226
 31
0.0
  0
LINE
  5
385
  8
LAYER_1
 10
60.556084
 20
125.476226
 30
0.0
 11
60.222647
 21
125.262446
 31
0.0
  0
LINE
  5
386
  8
LAYER_1
 10
60.222647
 20
125.262446
 30
0.0
 11
60.138216
 21
124.962212
 31
0.0
  0
LINE
  5
387
  8
LAYER_1
 10
60.138216
 20
124.962212
 30
0.0
 11
60.304524
 21
124.560664
 31
0.0
  0
LINE
  5
388
  8
LAYER_1
 10
60.304524
 20
124.560664
 30
0.0
 11
60.723306
 21
124.042943
 31
0.0
  0
LINE
  5
389
  8
LAYER_1
 10
60.723306
 20
124.042943
 30
0.0
 11
61.572133
 21
123.411345
 31
0.0
  0
LINE
  5
38A
  8
LAYER_1
 10
61.572133
 20
123.411345
 30
0.0
 11
61.733758
 21
123.504697
 31
0.0
  0
LINE
  5
38B
  8
LAYER_1
 10
61.733758
 20
123.504697
 30
0.0
 11
61.645904
 21
123.883643
 31
0.0
  0
LINE
  5
38C
  8
LAYER_1
 10
61.645904
 20
123.883643
 30
0.0
 11
61.645904
 21
123.883643
 31
0.0
  0
LINE
  5
38D
  8
LAYER_1
 10
85.856405
 20
124.757375
 30
0.0
 11
86.655067
 21
125.611751
 31
0.0
  0
LINE
  5
38E
  8
LAYER_1
 10
86.655067
 20
125.611751
 30
0.0
 11
87.038121
 21
126.245921
 31
0.0
  0
LINE
  5
38F
  8
LAYER_1
 10
87.038121
 20
126.245921
 30
0.0
 11
86.99911299999999
 21
126.640578
 31
0.0
  0
LINE
  5
390
  8
LAYER_1
 10
86.99911299999999
 20
126.640578
 30
0.0
 11
86.531588
 21
126.776421
 31
0.0
  0
LINE
  5
391
  8
LAYER_1
 10
86.531588
 20
126.776421
 30
0.0
 11
85.808351
 21
126.453275
 31
0.0
  0
LINE
  5
392
  8
LAYER_1
 10
85.808351
 20
126.453275
 30
0.0
 11
84.908202
 21
125.689439
 31
0.0
  0
LINE
  5
393
  8
LAYER_1
 10
84.908202
 20
125.689439
 30
0.0
 11
84.140933
 21
124.793319
 31
0.0
  0
LINE
  5
394
  8
LAYER_1
 10
84.140933
 20
124.793319
 30
0.0
 11
83.816334
 21
124.073319
 31
0.0
  0
LINE
  5
395
  8
LAYER_1
 10
83.816334
 20
124.073319
 30
0.0
 11
83.908878
 21
123.544577
 31
0.0
  0
LINE
  5
396
  8
LAYER_1
 10
83.908878
 20
123.544577
 30
0.0
 11
84.233125
 21
123.466709
 31
0.0
  0
LINE
  5
397
  8
LAYER_1
 10
84.233125
 20
123.466709
 30
0.0
 11
84.858994
 21
123.86316
 31
0.0
  0
LINE
  5
398
  8
LAYER_1
 10
84.858994
 20
123.86316
 30
0.0
 11
85.856405
 21
124.757375
 31
0.0
  0
LINE
  5
399
  8
LAYER_1
 10
85.856405
 20
124.757375
 30
0.0
 11
85.856405
 21
124.757375
 31
0.0
  0
LINE
  5
39A
  8
LAYER_1
 10
63.742175
 20
125.336721
 30
0.0
 11
64.388792
 21
126.421713
 31
0.0
  0
LINE
  5
39B
  8
LAYER_1
 10
64.388792
 20
126.421713
 30
0.0
 11
64.41416
 21
126.737601
 31
0.0
  0
LINE
  5
39C
  8
LAYER_1
 10
64.41416
 20
126.737601
 30
0.0
 11
64.272171
 21
127.000587
 31
0.0
  0
LINE
  5
39D
  8
LAYER_1
 10
64.272171
 20
127.000587
 30
0.0
 11
63.611543
 21
128.158065
 31
0.0
  0
LINE
  5
39E
  8
LAYER_1
 10
63.611543
 20
128.158065
 30
0.0
 11
63.303415
 21
128.893087
 31
0.0
  0
LINE
  5
39F
  8
LAYER_1
 10
63.303415
 20
128.893087
 30
0.0
 11
62.727058
 21
127.955034
 31
0.0
  0
LINE
  5
3A0
  8
LAYER_1
 10
62.727058
 20
127.955034
 30
0.0
 11
62.263531
 21
126.972421
 31
0.0
  0
LINE
  5
3A1
  8
LAYER_1
 10
62.263531
 20
126.972421
 30
0.0
 11
61.988613
 21
125.915616
 31
0.0
  0
LINE
  5
3A2
  8
LAYER_1
 10
61.988613
 20
125.915616
 30
0.0
 11
61.927783
 21
124.93892
 31
0.0
  0
LINE
  5
3A3
  8
LAYER_1
 10
61.927783
 20
124.93892
 30
0.0
 11
62.106516
 21
124.196633
 31
0.0
  0
LINE
  5
3A4
  8
LAYER_1
 10
62.106516
 20
124.196633
 30
0.0
 11
62.332072
 21
123.853064
 31
0.0
  0
LINE
  5
3A5
  8
LAYER_1
 10
62.332072
 20
123.853064
 30
0.0
 11
62.584039
 21
123.861762
 31
0.0
  0
LINE
  5
3A6
  8
LAYER_1
 10
62.584039
 20
123.861762
 30
0.0
 11
63.742175
 21
125.336721
 31
0.0
  0
LINE
  5
3A7
  8
LAYER_1
 10
63.742175
 20
125.336721
 30
0.0
 11
63.742175
 21
125.336721
 31
0.0
  0
LINE
  5
3A8
  8
LAYER_1
 10
82.426
 20
126.898538
 30
0.0
 11
82.824726
 21
127.842647
 31
0.0
  0
LINE
  5
3A9
  8
LAYER_1
 10
82.824726
 20
127.842647
 30
0.0
 11
82.868433
 21
128.508957
 31
0.0
  0
LINE
  5
3AA
  8
LAYER_1
 10
82.868433
 20
128.508957
 30
0.0
 11
82.555472
 21
128.903972
 31
0.0
  0
LINE
  5
3AB
  8
LAYER_1
 10
82.555472
 20
128.903972
 30
0.0
 11
81.884193
 21
129.034199
 31
0.0
  0
LINE
  5
3AC
  8
LAYER_1
 10
81.884193
 20
129.034199
 30
0.0
 11
81.245948
 21
128.953979
 31
0.0
  0
LINE
  5
3AD
  8
LAYER_1
 10
81.245948
 20
128.953979
 30
0.0
 11
80.81093900000001
 21
128.634905
 31
0.0
  0
LINE
  5
3AE
  8
LAYER_1
 10
80.81093900000001
 20
128.634905
 30
0.0
 11
80.48973599999999
 21
127.959357
 31
0.0
  0
LINE
  5
3AF
  8
LAYER_1
 10
80.48973599999999
 20
127.959357
 30
0.0
 11
80.192914
 21
126.809714
 31
0.0
  0
LINE
  5
3B0
  8
LAYER_1
 10
80.192914
 20
126.809714
 30
0.0
 11
80.000417
 21
125.53212
 31
0.0
  0
LINE
  5
3B1
  8
LAYER_1
 10
80.000417
 20
125.53212
 30
0.0
 11
80.186172
 21
124.895314
 31
0.0
  0
LINE
  5
3B2
  8
LAYER_1
 10
80.186172
 20
124.895314
 30
0.0
 11
80.571161
 21
124.682569
 31
0.0
  0
LINE
  5
3B3
  8
LAYER_1
 10
80.571161
 20
124.682569
 30
0.0
 11
81.151425
 21
125.09831
 31
0.0
  0
LINE
  5
3B4
  8
LAYER_1
 10
81.151425
 20
125.09831
 30
0.0
 11
82.426
 21
126.898538
 31
0.0
  0
LINE
  5
3B5
  8
LAYER_1
 10
82.426
 20
126.898538
 30
0.0
 11
82.426
 21
126.898538
 31
0.0
  0
LINE
  5
3B6
  8
LAYER_1
 10
61.295159
 20
126.705865
 30
0.0
 11
61.895434
 21
127.463939
 31
0.0
  0
LINE
  5
3B7
  8
LAYER_1
 10
61.895434
 20
127.463939
 30
0.0
 11
62.20423
 21
128.151818
 31
0.0
  0
LINE
  5
3B8
  8
LAYER_1
 10
62.20423
 20
128.151818
 30
0.0
 11
62.225249
 21
128.784317
 31
0.0
  0
LINE
  5
3B9
  8
LAYER_1
 10
62.225249
 20
128.784317
 30
0.0
 11
61.962191
 21
129.376255
 31
0.0
  0
LINE
  5
3BA
  8
LAYER_1
 10
61.962191
 20
129.376255
 30
0.0
 11
61.650444
 21
130.051597
 31
0.0
  0
LINE
  5
3BB
  8
LAYER_1
 10
61.650444
 20
130.051597
 30
0.0
 11
61.520778
 21
130.790329
 31
0.0
  0
LINE
  5
3BC
  8
LAYER_1
 10
61.520778
 20
130.790329
 30
0.0
 11
61.400858
 21
131.4028
 31
0.0
  0
LINE
  5
3BD
  8
LAYER_1
 10
61.400858
 20
131.4028
 30
0.0
 11
60.972336
 21
131.574199
 31
0.0
  0
LINE
  5
3BE
  8
LAYER_1
 10
60.972336
 20
131.574199
 30
0.0
 11
60.550773
 21
131.688106
 31
0.0
  0
LINE
  5
3BF
  8
LAYER_1
 10
60.550773
 20
131.688106
 30
0.0
 11
60.184544
 21
131.998359
 31
0.0
  0
LINE
  5
3C0
  8
LAYER_1
 10
60.184544
 20
131.998359
 30
0.0
 11
59.671802
 21
133.019089
 31
0.0
  0
LINE
  5
3C1
  8
LAYER_1
 10
59.671802
 20
133.019089
 30
0.0
 11
59.541531
 21
134.258761
 31
0.0
  0
LINE
  5
3C2
  8
LAYER_1
 10
59.541531
 20
134.258761
 30
0.0
 11
59.653392
 21
134.842692
 31
0.0
  0
LINE
  5
3C3
  8
LAYER_1
 10
59.653392
 20
134.842692
 30
0.0
 11
59.901156
 21
135.339749
 31
0.0
  0
LINE
  5
3C4
  8
LAYER_1
 10
59.901156
 20
135.339749
 30
0.0
 11
60.083305
 21
135.522273
 31
0.0
  0
LINE
  5
3C5
  8
LAYER_1
 10
60.083305
 20
135.522273
 30
0.0
 11
60.191123
 21
135.411332
 31
0.0
  0
LINE
  5
3C6
  8
LAYER_1
 10
60.191123
 20
135.411332
 30
0.0
 11
60.253934
 21
134.053134
 31
0.0
  0
LINE
  5
3C7
  8
LAYER_1
 10
60.253934
 20
134.053134
 30
0.0
 11
60.34988
 21
132.547569
 31
0.0
  0
LINE
  5
3C8
  8
LAYER_1
 10
60.34988
 20
132.547569
 30
0.0
 11
60.53628
 21
132.289419
 31
0.0
  0
LINE
  5
3C9
  8
LAYER_1
 10
60.53628
 20
132.289419
 30
0.0
 11
60.871176
 21
132.191483
 31
0.0
  0
LINE
  5
3CA
  8
LAYER_1
 10
60.871176
 20
132.191483
 30
0.0
 11
61.206205
 21
132.212961
 31
0.0
  0
LINE
  5
3CB
  8
LAYER_1
 10
61.206205
 20
132.212961
 30
0.0
 11
61.545511
 21
132.389219
 31
0.0
  0
LINE
  5
3CC
  8
LAYER_1
 10
61.545511
 20
132.389219
 30
0.0
 11
62.352843
 21
133.292161
 31
0.0
  0
LINE
  5
3CD
  8
LAYER_1
 10
62.352843
 20
133.292161
 30
0.0
 11
62.961114
 21
134.314303
 31
0.0
  0
LINE
  5
3CE
  8
LAYER_1
 10
62.961114
 20
134.314303
 30
0.0
 11
63.214112
 21
135.102208
 31
0.0
  0
LINE
  5
3CF
  8
LAYER_1
 10
63.214112
 20
135.102208
 30
0.0
 11
63.540542
 21
136.635172
 31
0.0
  0
LINE
  5
3D0
  8
LAYER_1
 10
63.540542
 20
136.635172
 30
0.0
 11
63.835727
 21
137.251188
 31
0.0
  0
LINE
  5
3D1
  8
LAYER_1
 10
63.835727
 20
137.251188
 30
0.0
 11
64.11857999999999
 21
137.500865
 31
0.0
  0
LINE
  5
3D2
  8
LAYER_1
 10
64.11857999999999
 20
137.500865
 30
0.0
 11
64.262897
 21
137.356344
 31
0.0
  0
LINE
  5
3D3
  8
LAYER_1
 10
64.262897
 20
137.356344
 30
0.0
 11
64.208073
 21
137.006976
 31
0.0
  0
LINE
  5
3D4
  8
LAYER_1
 10
64.208073
 20
137.006976
 30
0.0
 11
63.883615
 21
135.743183
 31
0.0
  0
LINE
  5
3D5
  8
LAYER_1
 10
63.883615
 20
135.743183
 30
0.0
 11
63.906588
 21
134.635163
 31
0.0
  0
LINE
  5
3D6
  8
LAYER_1
 10
63.906588
 20
134.635163
 30
0.0
 11
64.24533
 21
133.848744
 31
0.0
  0
LINE
  5
3D7
  8
LAYER_1
 10
64.24533
 20
133.848744
 30
0.0
 11
64.52322100000001
 21
133.627956
 31
0.0
  0
LINE
  5
3D8
  8
LAYER_1
 10
64.52322100000001
 20
133.627956
 30
0.0
 11
64.868179
 21
133.549754
 31
0.0
  0
LINE
  5
3D9
  8
LAYER_1
 10
64.868179
 20
133.549754
 30
0.0
 11
65.327208
 21
133.701346
 31
0.0
  0
LINE
  5
3DA
  8
LAYER_1
 10
65.327208
 20
133.701346
 30
0.0
 11
65.857823
 21
134.10687
 31
0.0
  0
LINE
  5
3DB
  8
LAYER_1
 10
65.857823
 20
134.10687
 30
0.0
 11
66.819475
 21
135.384199
 31
0.0
  0
LINE
  5
3DC
  8
LAYER_1
 10
66.819475
 20
135.384199
 30
0.0
 11
67.069385
 21
136.437184
 31
0.0
  0
LINE
  5
3DD
  8
LAYER_1
 10
67.069385
 20
136.437184
 30
0.0
 11
67.171977
 21
138.012638
 31
0.0
  0
LINE
  5
3DE
  8
LAYER_1
 10
67.171977
 20
138.012638
 30
0.0
 11
67.11943700000001
 21
139.614429
 31
0.0
  0
LINE
  5
3DF
  8
LAYER_1
 10
67.11943700000001
 20
139.614429
 30
0.0
 11
66.903947
 21
140.746421
 31
0.0
  0
LINE
  5
3E0
  8
LAYER_1
 10
66.903947
 20
140.746421
 30
0.0
 11
66.751294
 21
141.568993
 31
0.0
  0
LINE
  5
3E1
  8
LAYER_1
 10
66.751294
 20
141.568993
 30
0.0
 11
66.82784599999999
 21
142.514177
 31
0.0
  0
LINE
  5
3E2
  8
LAYER_1
 10
66.82784599999999
 20
142.514177
 30
0.0
 11
67.091382
 21
143.359665
 31
0.0
  0
LINE
  5
3E3
  8
LAYER_1
 10
67.091382
 20
143.359665
 30
0.0
 11
67.49968200000001
 21
143.883149
 31
0.0
  0
LINE
  5
3E4
  8
LAYER_1
 10
67.49968200000001
 20
143.883149
 30
0.0
 11
67.69144799999999
 21
143.872607
 31
0.0
  0
LINE
  5
3E5
  8
LAYER_1
 10
67.69144799999999
 20
143.872607
 30
0.0
 11
67.60097399999999
 21
143.401107
 31
0.0
  0
LINE
  5
3E6
  8
LAYER_1
 10
67.60097399999999
 20
143.401107
 30
0.0
 11
67.244826
 21
141.665449
 31
0.0
  0
LINE
  5
3E7
  8
LAYER_1
 10
67.244826
 20
141.665449
 30
0.0
 11
67.247261
 21
140.750363
 31
0.0
  0
LINE
  5
3E8
  8
LAYER_1
 10
67.247261
 20
140.750363
 30
0.0
 11
67.429194
 21
140.525348
 31
0.0
  0
LINE
  5
3E9
  8
LAYER_1
 10
67.429194
 20
140.525348
 30
0.0
 11
67.770753
 21
140.358032
 31
0.0
  0
LINE
  5
3EA
  8
LAYER_1
 10
67.770753
 20
140.358032
 30
0.0
 11
68.31662799999999
 21
140.210528
 31
0.0
  0
LINE
  5
3EB
  8
LAYER_1
 10
68.31662799999999
 20
140.210528
 30
0.0
 11
68.71579800000001
 21
140.338188
 31
0.0
  0
LINE
  5
3EC
  8
LAYER_1
 10
68.71579800000001
 20
140.338188
 30
0.0
 11
69.097347
 21
140.846096
 31
0.0
  0
LINE
  5
3ED
  8
LAYER_1
 10
69.097347
 20
140.846096
 30
0.0
 11
69.590361
 21
141.839338
 31
0.0
  0
LINE
  5
3EE
  8
LAYER_1
 10
69.590361
 20
141.839338
 30
0.0
 11
70.059226
 21
143.026683
 31
0.0
  0
LINE
  5
3EF
  8
LAYER_1
 10
70.059226
 20
143.026683
 30
0.0
 11
70.23278999999999
 21
144.005132
 31
0.0
  0
LINE
  5
3F0
  8
LAYER_1
 10
70.23278999999999
 20
144.005132
 30
0.0
 11
70.11411800000001
 21
144.878111
 31
0.0
  0
LINE
  5
3F1
  8
LAYER_1
 10
70.11411800000001
 20
144.878111
 30
0.0
 11
69.706278
 21
145.749044
 31
0.0
  0
LINE
  5
3F2
  8
LAYER_1
 10
69.706278
 20
145.749044
 30
0.0
 11
69.355441
 21
146.562222
 31
0.0
  0
LINE
  5
3F3
  8
LAYER_1
 10
69.355441
 20
146.562222
 30
0.0
 11
69.170742
 21
147.505674
 31
0.0
  0
LINE
  5
3F4
  8
LAYER_1
 10
69.170742
 20
147.505674
 30
0.0
 11
69.165353
 21
148.44869
 31
0.0
  0
LINE
  5
3F5
  8
LAYER_1
 10
69.165353
 20
148.44869
 30
0.0
 11
69.352445
 21
149.26056
 31
0.0
  0
LINE
  5
3F6
  8
LAYER_1
 10
69.352445
 20
149.26056
 30
0.0
 11
69.45304400000001
 21
149.368285
 31
0.0
  0
LINE
  5
3F7
  8
LAYER_1
 10
69.45304400000001
 20
149.368285
 30
0.0
 11
69.546159
 21
149.18656
 31
0.0
  0
LINE
  5
3F8
  8
LAYER_1
 10
69.546159
 20
149.18656
 30
0.0
 11
69.705223
 21
147.971967
 31
0.0
  0
LINE
  5
3F9
  8
LAYER_1
 10
69.705223
 20
147.971967
 30
0.0
 11
69.903493
 21
146.647829
 31
0.0
  0
LINE
  5
3FA
  8
LAYER_1
 10
69.903493
 20
146.647829
 30
0.0
 11
70.24979500000001
 21
145.90204
 31
0.0
  0
LINE
  5
3FB
  8
LAYER_1
 10
70.24979500000001
 20
145.90204
 30
0.0
 11
70.75012700000001
 21
145.728084
 31
0.0
  0
LINE
  5
3FC
  8
LAYER_1
 10
70.75012700000001
 20
145.728084
 30
0.0
 11
71.410489
 21
146.119441
 31
0.0
  0
LINE
  5
3FD
  8
LAYER_1
 10
71.410489
 20
146.119441
 30
0.0
 11
71.72407200000001
 21
146.465513
 31
0.0
  0
LINE
  5
3FE
  8
LAYER_1
 10
71.72407200000001
 20
146.465513
 30
0.0
 11
71.891672
 21
146.871382
 31
0.0
  0
LINE
  5
3FF
  8
LAYER_1
 10
71.891672
 20
146.871382
 30
0.0
 11
71.898101
 21
148.365357
 31
0.0
  0
LINE
  5
400
  8
LAYER_1
 10
71.898101
 20
148.365357
 30
0.0
 11
71.62428800000001
 21
150.269561
 31
0.0
  0
LINE
  5
401
  8
LAYER_1
 10
71.62428800000001
 20
150.269561
 30
0.0
 11
71.11890800000001
 21
152.394516
 31
0.0
  0
LINE
  5
402
  8
LAYER_1
 10
71.11890800000001
 20
152.394516
 30
0.0
 11
70.49962600000001
 21
154.31679
 31
0.0
  0
LINE
  5
403
  8
LAYER_1
 10
70.49962600000001
 20
154.31679
 30
0.0
 11
69.884107
 21
155.61295
 31
0.0
  0
LINE
  5
404
  8
LAYER_1
 10
69.884107
 20
155.61295
 30
0.0
 11
69.12440100000001
 21
156.365154
 31
0.0
  0
LINE
  5
405
  8
LAYER_1
 10
69.12440100000001
 20
156.365154
 30
0.0
 11
68.011889
 21
156.82499
 31
0.0
  0
LINE
  5
406
  8
LAYER_1
 10
68.011889
 20
156.82499
 30
0.0
 11
65.61718000000001
 21
157.769814
 31
0.0
  0
LINE
  5
407
  8
LAYER_1
 10
65.61718000000001
 20
157.769814
 30
0.0
 11
64.304232
 21
158.38531
 31
0.0
  0
LINE
  5
408
  8
LAYER_1
 10
64.304232
 20
158.38531
 30
0.0
 11
64.01363499999999
 21
158.070806
 31
0.0
  0
LINE
  5
409
  8
LAYER_1
 10
64.01363499999999
 20
158.070806
 30
0.0
 11
63.754183
 21
157.250271
 31
0.0
  0
LINE
  5
40A
  8
LAYER_1
 10
63.754183
 20
157.250271
 30
0.0
 11
63.496334
 21
154.828974
 31
0.0
  0
LINE
  5
40B
  8
LAYER_1
 10
63.496334
 20
154.828974
 30
0.0
 11
62.959413
 21
149.425096
 31
0.0
  0
LINE
  5
40C
  8
LAYER_1
 10
62.959413
 20
149.425096
 30
0.0
 11
61.972266
 21
143.709754
 31
0.0
  0
LINE
  5
40D
  8
LAYER_1
 10
61.972266
 20
143.709754
 30
0.0
 11
60.432448
 21
139.166098
 31
0.0
  0
LINE
  5
40E
  8
LAYER_1
 10
60.432448
 20
139.166098
 30
0.0
 11
59.589214
 21
136.692721
 31
0.0
  0
LINE
  5
40F
  8
LAYER_1
 10
59.589214
 20
136.692721
 30
0.0
 11
59.036626
 21
134.389177
 31
0.0
  0
LINE
  5
410
  8
LAYER_1
 10
59.036626
 20
134.389177
 30
0.0
 11
58.763514
 21
132.194627
 31
0.0
  0
LINE
  5
411
  8
LAYER_1
 10
58.763514
 20
132.194627
 30
0.0
 11
58.758709
 21
130.048231
 31
0.0
  0
LINE
  5
412
  8
LAYER_1
 10
58.758709
 20
130.048231
 30
0.0
 11
58.947514
 21
128.493951
 31
0.0
  0
LINE
  5
413
  8
LAYER_1
 10
58.947514
 20
128.493951
 30
0.0
 11
59.285992
 21
127.179421
 31
0.0
  0
LINE
  5
414
  8
LAYER_1
 10
59.285992
 20
127.179421
 30
0.0
 11
59.717045
 21
126.269677
 31
0.0
  0
LINE
  5
415
  8
LAYER_1
 10
59.717045
 20
126.269677
 30
0.0
 11
60.183576
 21
125.929754
 31
0.0
  0
LINE
  5
416
  8
LAYER_1
 10
60.183576
 20
125.929754
 30
0.0
 11
60.668888
 21
126.157737
 31
0.0
  0
LINE
  5
417
  8
LAYER_1
 10
60.668888
 20
126.157737
 30
0.0
 11
61.295159
 21
126.705865
 31
0.0
  0
LINE
  5
418
  8
LAYER_1
 10
61.295159
 20
126.705865
 30
0.0
 11
61.295159
 21
126.705865
 31
0.0
  0
LINE
  5
419
  8
LAYER_1
 10
85.61793900000001
 20
127.059456
 30
0.0
 11
86.26840799999999
 21
127.876193
 31
0.0
  0
LINE
  5
41A
  8
LAYER_1
 10
86.26840799999999
 20
127.876193
 30
0.0
 11
86.57616899999999
 21
128.54592
 31
0.0
  0
LINE
  5
41B
  8
LAYER_1
 10
86.57616899999999
 20
128.54592
 30
0.0
 11
86.55906899999999
 21
129.146643
 31
0.0
  0
LINE
  5
41C
  8
LAYER_1
 10
86.55906899999999
 20
129.146643
 30
0.0
 11
86.234956
 21
129.756368
 31
0.0
  0
LINE
  5
41D
  8
LAYER_1
 10
86.234956
 20
129.756368
 30
0.0
 11
85.9855
 21
130.045731
 31
0.0
  0
LINE
  5
41E
  8
LAYER_1
 10
85.9855
 20
130.045731
 30
0.0
 11
85.739705
 21
130.093699
 31
0.0
  0
LINE
  5
41F
  8
LAYER_1
 10
85.739705
 20
130.093699
 30
0.0
 11
84.759151
 21
129.316421
 31
0.0
  0
LINE
  5
420
  8
LAYER_1
 10
84.759151
 20
129.316421
 30
0.0
 11
83.478363
 21
128.006202
 31
0.0
  0
LINE
  5
421
  8
LAYER_1
 10
83.478363
 20
128.006202
 30
0.0
 11
83.29397299999999
 21
127.56785
 31
0.0
  0
LINE
  5
422
  8
LAYER_1
 10
83.29397299999999
 20
127.56785
 30
0.0
 11
83.25621
 21
127.035125
 31
0.0
  0
LINE
  5
423
  8
LAYER_1
 10
83.25621
 20
127.035125
 30
0.0
 11
83.42805900000001
 21
126.188578
 31
0.0
  0
LINE
  5
424
  8
LAYER_1
 10
83.42805900000001
 20
126.188578
 30
0.0
 11
83.636921
 21
125.97865
 31
0.0
  0
LINE
  5
425
  8
LAYER_1
 10
83.636921
 20
125.97865
 30
0.0
 11
83.917986
 21
125.910852
 31
0.0
  0
LINE
  5
426
  8
LAYER_1
 10
83.917986
 20
125.910852
 30
0.0
 11
84.66745899999999
 21
126.201346
 31
0.0
  0
LINE
  5
427
  8
LAYER_1
 10
84.66745899999999
 20
126.201346
 30
0.0
 11
85.61793900000001
 21
127.059456
 31
0.0
  0
LINE
  5
428
  8
LAYER_1
 10
85.61793900000001
 20
127.059456
 30
0.0
 11
85.61793900000001
 21
127.059456
 31
0.0
  0
LINE
  5
429
  8
LAYER_1
 10
89.239417
 20
128.106368
 30
0.0
 11
90.19303100000001
 21
129.184968
 31
0.0
  0
LINE
  5
42A
  8
LAYER_1
 10
90.19303100000001
 20
129.184968
 30
0.0
 11
90.58966700000001
 21
129.910617
 31
0.0
  0
LINE
  5
42B
  8
LAYER_1
 10
90.58966700000001
 20
129.910617
 30
0.0
 11
90.462209
 21
130.359298
 31
0.0
  0
LINE
  5
42C
  8
LAYER_1
 10
90.462209
 20
130.359298
 30
0.0
 11
90.128809
 21
130.521715
 31
0.0
  0
LINE
  5
42D
  8
LAYER_1
 10
90.128809
 20
130.521715
 30
0.0
 11
89.662932
 21
130.394623
 31
0.0
  0
LINE
  5
42E
  8
LAYER_1
 10
89.662932
 20
130.394623
 30
0.0
 11
89.138043
 21
129.974775
 31
0.0
  0
LINE
  5
42F
  8
LAYER_1
 10
89.138043
 20
129.974775
 30
0.0
 11
87.696889
 21
128.859026
 31
0.0
  0
LINE
  5
430
  8
LAYER_1
 10
87.696889
 20
128.859026
 30
0.0
 11
87.119156
 21
128.391995
 31
0.0
  0
LINE
  5
431
  8
LAYER_1
 10
87.119156
 20
128.391995
 30
0.0
 11
86.920778
 21
127.803989
 31
0.0
  0
LINE
  5
432
  8
LAYER_1
 10
86.920778
 20
127.803989
 30
0.0
 11
87.045742
 21
127.009064
 31
0.0
  0
LINE
  5
433
  8
LAYER_1
 10
87.045742
 20
127.009064
 30
0.0
 11
87.209428
 21
126.827605
 31
0.0
  0
LINE
  5
434
  8
LAYER_1
 10
87.209428
 20
126.827605
 30
0.0
 11
87.44723500000001
 21
126.791016
 31
0.0
  0
LINE
  5
435
  8
LAYER_1
 10
87.44723500000001
 20
126.791016
 30
0.0
 11
88.165159
 21
127.155049
 31
0.0
  0
LINE
  5
436
  8
LAYER_1
 10
88.165159
 20
127.155049
 30
0.0
 11
89.239417
 21
128.106368
 31
0.0
  0
LINE
  5
437
  8
LAYER_1
 10
89.239417
 20
128.106368
 30
0.0
 11
89.239417
 21
128.106368
 31
0.0
  0
LINE
  5
438
  8
LAYER_1
 10
74.696083
 20
127.411421
 30
0.0
 11
75.797252
 21
130.069151
 31
0.0
  0
LINE
  5
439
  8
LAYER_1
 10
75.797252
 20
130.069151
 30
0.0
 11
77.754463
 21
135.666421
 31
0.0
  0
LINE
  5
43A
  8
LAYER_1
 10
77.754463
 20
135.666421
 30
0.0
 11
79.557969
 21
141.856948
 31
0.0
  0
LINE
  5
43B
  8
LAYER_1
 10
79.557969
 20
141.856948
 30
0.0
 11
80.711889
 21
146.557639
 31
0.0
  0
LINE
  5
43C
  8
LAYER_1
 10
80.711889
 20
146.557639
 30
0.0
 11
78.490174
 21
146.885824
 31
0.0
  0
LINE
  5
43D
  8
LAYER_1
 10
78.490174
 20
146.885824
 30
0.0
 11
77.153058
 21
147.030849
 31
0.0
  0
LINE
  5
43E
  8
LAYER_1
 10
77.153058
 20
147.030849
 30
0.0
 11
75.96874
 21
147.301384
 31
0.0
  0
LINE
  5
43F
  8
LAYER_1
 10
75.96874
 20
147.301384
 30
0.0
 11
73.303556
 21
148.446089
 31
0.0
  0
LINE
  5
440
  8
LAYER_1
 10
73.303556
 20
148.446089
 30
0.0
 11
73.154067
 21
148.188403
 31
0.0
  0
LINE
  5
441
  8
LAYER_1
 10
73.154067
 20
148.188403
 30
0.0
 11
73.091889
 21
147.416523
 31
0.0
  0
LINE
  5
442
  8
LAYER_1
 10
73.091889
 20
147.416523
 30
0.0
 11
73.262237
 21
146.361244
 31
0.0
  0
LINE
  5
443
  8
LAYER_1
 10
73.262237
 20
146.361244
 30
0.0
 11
74.009112
 21
145.586072
 31
0.0
  0
LINE
  5
444
  8
LAYER_1
 10
74.009112
 20
145.586072
 30
0.0
 11
75.029962
 21
144.992101
 31
0.0
  0
LINE
  5
445
  8
LAYER_1
 10
75.029962
 20
144.992101
 30
0.0
 11
76.19633399999999
 21
144.536358
 31
0.0
  0
LINE
  5
446
  8
LAYER_1
 10
76.19633399999999
 20
144.536358
 30
0.0
 11
77.739535
 21
143.91151
 31
0.0
  0
LINE
  5
447
  8
LAYER_1
 10
77.739535
 20
143.91151
 30
0.0
 11
77.775023
 21
143.819907
 31
0.0
  0
LINE
  5
448
  8
LAYER_1
 10
77.775023
 20
143.819907
 30
0.0
 11
77.65303
 21
143.771335
 31
0.0
  0
LINE
  5
449
  8
LAYER_1
 10
77.65303
 20
143.771335
 30
0.0
 11
76.901889
 21
143.837657
 31
0.0
  0
LINE
  5
44A
  8
LAYER_1
 10
76.901889
 20
143.837657
 30
0.0
 11
75.745766
 21
144.18473
 31
0.0
  0
LINE
  5
44B
  8
LAYER_1
 10
75.745766
 20
144.18473
 30
0.0
 11
74.551399
 21
144.743435
 31
0.0
  0
LINE
  5
44C
  8
LAYER_1
 10
74.551399
 20
144.743435
 30
0.0
 11
73.237146
 21
145.357413
 31
0.0
  0
LINE
  5
44D
  8
LAYER_1
 10
73.237146
 20
145.357413
 30
0.0
 11
73.047634
 21
144.133087
 31
0.0
  0
LINE
  5
44E
  8
LAYER_1
 10
73.047634
 20
144.133087
 30
0.0
 11
73.08584399999999
 21
143.161123
 31
0.0
  0
LINE
  5
44F
  8
LAYER_1
 10
73.08584399999999
 20
143.161123
 30
0.0
 11
73.264888
 21
142.910853
 31
0.0
  0
LINE
  5
450
  8
LAYER_1
 10
73.264888
 20
142.910853
 30
0.0
 11
73.58577800000001
 21
142.725608
 31
0.0
  0
LINE
  5
451
  8
LAYER_1
 10
73.58577800000001
 20
142.725608
 30
0.0
 11
74.05001900000001
 21
142.448167
 31
0.0
  0
LINE
  5
452
  8
LAYER_1
 10
74.05001900000001
 20
142.448167
 30
0.0
 11
74.203497
 21
142.206887
 31
0.0
  0
LINE
  5
453
  8
LAYER_1
 10
74.203497
 20
142.206887
 30
0.0
 11
74.04681600000001
 21
142.072543
 31
0.0
  0
LINE
  5
454
  8
LAYER_1
 10
74.04681600000001
 20
142.072543
 30
0.0
 11
73.58058
 21
142.11591
 31
0.0
  0
LINE
  5
455
  8
LAYER_1
 10
73.58058
 20
142.11591
 30
0.0
 11
73.213498
 21
142.143411
 31
0.0
  0
LINE
  5
456
  8
LAYER_1
 10
73.213498
 20
142.143411
 30
0.0
 11
72.94368
 21
141.891146
 31
0.0
  0
LINE
  5
457
  8
LAYER_1
 10
72.94368
 20
141.891146
 30
0.0
 11
72.322024
 21
139.884587
 31
0.0
  0
LINE
  5
458
  8
LAYER_1
 10
72.322024
 20
139.884587
 30
0.0
 11
71.544397
 21
137.497431
 31
0.0
  0
LINE
  5
459
  8
LAYER_1
 10
71.544397
 20
137.497431
 30
0.0
 11
70.54311
 21
135.117075
 31
0.0
  0
LINE
  5
45A
  8
LAYER_1
 10
70.54311
 20
135.117075
 30
0.0
 11
69.66825799999999
 21
133.09546
 31
0.0
  0
LINE
  5
45B
  8
LAYER_1
 10
69.66825799999999
 20
133.09546
 30
0.0
 11
69.582556
 21
132.558751
 31
0.0
  0
LINE
  5
45C
  8
LAYER_1
 10
69.582556
 20
132.558751
 30
0.0
 11
69.684423
 21
132.177508
 31
0.0
  0
LINE
  5
45D
  8
LAYER_1
 10
69.684423
 20
132.177508
 30
0.0
 11
70.170067
 21
131.558945
 31
0.0
  0
LINE
  5
45E
  8
LAYER_1
 10
70.170067
 20
131.558945
 30
0.0
 11
70.869985
 21
131.002158
 31
0.0
  0
LINE
  5
45F
  8
LAYER_1
 10
70.869985
 20
131.002158
 30
0.0
 11
71.641689
 21
130.599997
 31
0.0
  0
LINE
  5
460
  8
LAYER_1
 10
71.641689
 20
130.599997
 30
0.0
 11
72.342688
 21
130.44531
 31
0.0
  0
LINE
  5
461
  8
LAYER_1
 10
72.342688
 20
130.44531
 30
0.0
 11
72.89952200000001
 21
130.362407
 31
0.0
  0
LINE
  5
462
  8
LAYER_1
 10
72.89952200000001
 20
130.362407
 30
0.0
 11
73.233001
 21
130.163087
 31
0.0
  0
LINE
  5
463
  8
LAYER_1
 10
73.233001
 20
130.163087
 30
0.0
 11
73.132842
 21
129.961286
 31
0.0
  0
LINE
  5
464
  8
LAYER_1
 10
73.132842
 20
129.961286
 30
0.0
 11
72.61465699999999
 21
129.881921
 31
0.0
  0
LINE
  5
465
  8
LAYER_1
 10
72.61465699999999
 20
129.881921
 30
0.0
 11
71.849192
 21
130.032316
 31
0.0
  0
LINE
  5
466
  8
LAYER_1
 10
71.849192
 20
130.032316
 30
0.0
 11
70.951458
 21
130.419314
 31
0.0
  0
LINE
  5
467
  8
LAYER_1
 10
70.951458
 20
130.419314
 30
0.0
 11
70.100245
 21
130.949187
 31
0.0
  0
LINE
  5
468
  8
LAYER_1
 10
70.100245
 20
130.949187
 30
0.0
 11
69.47434
 21
131.528208
 31
0.0
  0
LINE
  5
469
  8
LAYER_1
 10
69.47434
 20
131.528208
 30
0.0
 11
69.254074
 21
131.757551
 31
0.0
  0
LINE
  5
46A
  8
LAYER_1
 10
69.254074
 20
131.757551
 30
0.0
 11
69.052583
 21
131.788276
 31
0.0
  0
LINE
  5
46B
  8
LAYER_1
 10
69.052583
 20
131.788276
 30
0.0
 11
68.417406
 21
131.150865
 31
0.0
  0
LINE
  5
46C
  8
LAYER_1
 10
68.417406
 20
131.150865
 30
0.0
 11
67.93326
 21
130.414588
 31
0.0
  0
LINE
  5
46D
  8
LAYER_1
 10
67.93326
 20
130.414588
 30
0.0
 11
67.73107
 21
129.833328
 31
0.0
  0
LINE
  5
46E
  8
LAYER_1
 10
67.73107
 20
129.833328
 30
0.0
 11
67.996745
 21
129.30127
 31
0.0
  0
LINE
  5
46F
  8
LAYER_1
 10
67.996745
 20
129.30127
 30
0.0
 11
68.706384
 21
128.740456
 31
0.0
  0
LINE
  5
470
  8
LAYER_1
 10
68.706384
 20
128.740456
 30
0.0
 11
70.91531500000001
 21
127.721113
 31
0.0
  0
LINE
  5
471
  8
LAYER_1
 10
70.91531500000001
 20
127.721113
 30
0.0
 11
73.273376
 21
127.152401
 31
0.0
  0
LINE
  5
472
  8
LAYER_1
 10
73.273376
 20
127.152401
 30
0.0
 11
74.16942899999999
 21
127.154875
 31
0.0
  0
LINE
  5
473
  8
LAYER_1
 10
74.16942899999999
 20
127.154875
 30
0.0
 11
74.696083
 21
127.411421
 31
0.0
  0
LINE
  5
474
  8
LAYER_1
 10
74.696083
 20
127.411421
 30
0.0
 11
74.696083
 21
127.411421
 31
0.0
  0
LINE
  5
475
  8
LAYER_1
 10
66.130534
 20
128.843185
 30
0.0
 11
67.165223
 21
130.515848
 31
0.0
  0
LINE
  5
476
  8
LAYER_1
 10
67.165223
 20
130.515848
 30
0.0
 11
66.281554
 21
131.123969
 31
0.0
  0
LINE
  5
477
  8
LAYER_1
 10
66.281554
 20
131.123969
 30
0.0
 11
65.319656
 21
131.504868
 31
0.0
  0
LINE
  5
478
  8
LAYER_1
 10
65.319656
 20
131.504868
 30
0.0
 11
64.56187300000001
 21
130.019681
 31
0.0
  0
LINE
  5
479
  8
LAYER_1
 10
64.56187300000001
 20
130.019681
 30
0.0
 11
64.060778
 21
128.537442
 31
0.0
  0
LINE
  5
47A
  8
LAYER_1
 10
64.060778
 20
128.537442
 30
0.0
 11
64.353448
 21
127.749882
 31
0.0
  0
LINE
  5
47B
  8
LAYER_1
 10
64.353448
 20
127.749882
 30
0.0
 11
64.630838
 21
127.456854
 31
0.0
  0
LINE
  5
47C
  8
LAYER_1
 10
64.630838
 20
127.456854
 30
0.0
 11
64.916979
 21
127.340865
 31
0.0
  0
LINE
  5
47D
  8
LAYER_1
 10
64.916979
 20
127.340865
 30
0.0
 11
66.130534
 21
128.843185
 31
0.0
  0
LINE
  5
47E
  8
LAYER_1
 10
66.130534
 20
128.843185
 30
0.0
 11
66.130534
 21
128.843185
 31
0.0
  0
LINE
  5
47F
  8
LAYER_1
 10
84.431607
 20
129.528087
 30
0.0
 11
85.49653000000001
 21
131.097116
 31
0.0
  0
LINE
  5
480
  8
LAYER_1
 10
85.49653000000001
 20
131.097116
 30
0.0
 11
86.140922
 21
132.172258
 31
0.0
  0
LINE
  5
481
  8
LAYER_1
 10
86.140922
 20
132.172258
 30
0.0
 11
85.505685
 21
132.848437
 31
0.0
  0
LINE
  5
482
  8
LAYER_1
 10
85.505685
 20
132.848437
 30
0.0
 11
84.870448
 21
133.524617
 31
0.0
  0
LINE
  5
483
  8
LAYER_1
 10
84.870448
 20
133.524617
 30
0.0
 11
83.637834
 21
132.256352
 31
0.0
  0
LINE
  5
484
  8
LAYER_1
 10
83.637834
 20
132.256352
 30
0.0
 11
82.88204399999999
 21
131.356494
 31
0.0
  0
LINE
  5
485
  8
LAYER_1
 10
82.88204399999999
 20
131.356494
 30
0.0
 11
82.481441
 21
130.576985
 31
0.0
  0
LINE
  5
486
  8
LAYER_1
 10
82.481441
 20
130.576985
 30
0.0
 11
82.435548
 21
129.916288
 31
0.0
  0
LINE
  5
487
  8
LAYER_1
 10
82.435548
 20
129.916288
 30
0.0
 11
82.743889
 21
129.372865
 31
0.0
  0
LINE
  5
488
  8
LAYER_1
 10
82.743889
 20
129.372865
 30
0.0
 11
83.143124
 21
129.112291
 31
0.0
  0
LINE
  5
489
  8
LAYER_1
 10
83.143124
 20
129.112291
 30
0.0
 11
83.58615399999999
 21
129.05394
 31
0.0
  0
LINE
  5
48A
  8
LAYER_1
 10
83.58615399999999
 20
129.05394
 30
0.0
 11
84.02998100000001
 21
129.193857
 31
0.0
  0
LINE
  5
48B
  8
LAYER_1
 10
84.02998100000001
 20
129.193857
 30
0.0
 11
84.431607
 21
129.528087
 31
0.0
  0
LINE
  5
48C
  8
LAYER_1
 10
84.431607
 20
129.528087
 30
0.0
 11
84.431607
 21
129.528087
 31
0.0
  0
LINE
  5
48D
  8
LAYER_1
 10
64.395624
 20
131.009754
 30
0.0
 11
65.153802
 21
132.561976
 31
0.0
  0
LINE
  5
48E
  8
LAYER_1
 10
65.153802
 20
132.561976
 30
0.0
 11
64.395624
 21
133.186156
 31
0.0
  0
LINE
  5
48F
  8
LAYER_1
 10
64.395624
 20
133.186156
 30
0.0
 11
63.784728
 21
133.605017
 31
0.0
  0
LINE
  5
490
  8
LAYER_1
 10
63.784728
 20
133.605017
 30
0.0
 11
63.380657
 21
133.735558
 31
0.0
  0
LINE
  5
491
  8
LAYER_1
 10
63.380657
 20
133.735558
 30
0.0
 11
63.070121
 21
133.508854
 31
0.0
  0
LINE
  5
492
  8
LAYER_1
 10
63.070121
 20
133.508854
 30
0.0
 11
62.773313
 21
133.056429
 31
0.0
  0
LINE
  5
493
  8
LAYER_1
 10
62.773313
 20
133.056429
 30
0.0
 11
62.292634
 21
131.752339
 31
0.0
  0
LINE
  5
494
  8
LAYER_1
 10
62.292634
 20
131.752339
 30
0.0
 11
62.082121
 21
130.379135
 31
0.0
  0
LINE
  5
495
  8
LAYER_1
 10
62.082121
 20
130.379135
 30
0.0
 11
62.123021
 21
129.840317
 31
0.0
  0
LINE
  5
496
  8
LAYER_1
 10
62.123021
 20
129.840317
 30
0.0
 11
62.285276
 21
129.492663
 31
0.0
  0
LINE
  5
497
  8
LAYER_1
 10
62.285276
 20
129.492663
 30
0.0
 11
62.748185
 21
129.288773
 31
0.0
  0
LINE
  5
498
  8
LAYER_1
 10
62.748185
 20
129.288773
 30
0.0
 11
63.27927
 21
129.491672
 31
0.0
  0
LINE
  5
499
  8
LAYER_1
 10
63.27927
 20
129.491672
 30
0.0
 11
63.840945
 21
130.07434
 31
0.0
  0
LINE
  5
49A
  8
LAYER_1
 10
63.840945
 20
130.07434
 30
0.0
 11
64.395624
 21
131.009754
 31
0.0
  0
LINE
  5
49B
  8
LAYER_1
 10
64.395624
 20
131.009754
 30
0.0
 11
64.395624
 21
131.009754
 31
0.0
  0
LINE
  5
49C
  8
LAYER_1
 10
81.891031
 20
130.019566
 30
0.0
 11
82.06742300000001
 21
130.70735
 31
0.0
  0
LINE
  5
49D
  8
LAYER_1
 10
82.06742300000001
 20
130.70735
 30
0.0
 11
81.915646
 21
131.360122
 31
0.0
  0
LINE
  5
49E
  8
LAYER_1
 10
81.915646
 20
131.360122
 30
0.0
 11
81.61988599999999
 21
131.997532
 31
0.0
  0
LINE
  5
49F
  8
LAYER_1
 10
81.61988599999999
 20
131.997532
 30
0.0
 11
81.306997
 21
131.203048
 31
0.0
  0
LINE
  5
4A0
  8
LAYER_1
 10
81.306997
 20
131.203048
 30
0.0
 11
81.033072
 21
130.124191
 31
0.0
  0
LINE
  5
4A1
  8
LAYER_1
 10
81.033072
 20
130.124191
 30
0.0
 11
81.102372
 21
129.439115
 31
0.0
  0
LINE
  5
4A2
  8
LAYER_1
 10
81.102372
 20
129.439115
 30
0.0
 11
81.236074
 21
129.304344
 31
0.0
  0
LINE
  5
4A3
  8
LAYER_1
 10
81.236074
 20
129.304344
 30
0.0
 11
81.41999300000001
 21
129.340135
 31
0.0
  0
LINE
  5
4A4
  8
LAYER_1
 10
81.41999300000001
 20
129.340135
 30
0.0
 11
81.891031
 21
130.019566
 31
0.0
  0
LINE
  5
4A5
  8
LAYER_1
 10
81.891031
 20
130.019566
 30
0.0
 11
81.891031
 21
130.019566
 31
0.0
  0
LINE
  5
4A6
  8
LAYER_1
 10
88.270707
 20
129.756885
 30
0.0
 11
88.797825
 21
130.261099
 31
0.0
  0
LINE
  5
4A7
  8
LAYER_1
 10
88.797825
 20
130.261099
 30
0.0
 11
89.270918
 21
130.943898
 31
0.0
  0
LINE
  5
4A8
  8
LAYER_1
 10
89.270918
 20
130.943898
 30
0.0
 11
89.61197900000001
 21
131.670264
 31
0.0
  0
LINE
  5
4A9
  8
LAYER_1
 10
89.61197900000001
 20
131.670264
 30
0.0
 11
89.74300100000001
 21
132.305182
 31
0.0
  0
LINE
  5
4AA
  8
LAYER_1
 10
89.74300100000001
 20
132.305182
 30
0.0
 11
89.610936
 21
132.727403
 31
0.0
  0
LINE
  5
4AB
  8
LAYER_1
 10
89.610936
 20
132.727403
 30
0.0
 11
89.27175699999999
 21
133.123378
 31
0.0
  0
LINE
  5
4AC
  8
LAYER_1
 10
89.27175699999999
 20
133.123378
 30
0.0
 11
88.81098299999999
 21
133.419155
 31
0.0
  0
LINE
  5
4AD
  8
LAYER_1
 10
88.81098299999999
 20
133.419155
 30
0.0
 11
88.31413499999999
 21
133.540779
 31
0.0
  0
LINE
  5
4AE
  8
LAYER_1
 10
88.31413499999999
 20
133.540779
 30
0.0
 11
87.779849
 21
133.314599
 31
0.0
  0
LINE
  5
4AF
  8
LAYER_1
 10
87.779849
 20
133.314599
 30
0.0
 11
87.11469
 21
132.7582
 31
0.0
  0
LINE
  5
4B0
  8
LAYER_1
 10
87.11469
 20
132.7582
 30
0.0
 11
86.601567
 21
132.006232
 31
0.0
  0
LINE
  5
4B1
  8
LAYER_1
 10
86.601567
 20
132.006232
 30
0.0
 11
86.37026
 21
131.181689
 31
0.0
  0
LINE
  5
4B2
  8
LAYER_1
 10
86.37026
 20
131.181689
 30
0.0
 11
86.432452
 21
130.39583
 31
0.0
  0
LINE
  5
4B3
  8
LAYER_1
 10
86.432452
 20
130.39583
 30
0.0
 11
86.799826
 21
129.759913
 31
0.0
  0
LINE
  5
4B4
  8
LAYER_1
 10
86.799826
 20
129.759913
 30
0.0
 11
87.152057
 21
129.449819
 31
0.0
  0
LINE
  5
4B5
  8
LAYER_1
 10
87.152057
 20
129.449819
 30
0.0
 11
87.448341
 21
129.346086
 31
0.0
  0
LINE
  5
4B6
  8
LAYER_1
 10
87.448341
 20
129.346086
 30
0.0
 11
88.270707
 21
129.756885
 31
0.0
  0
LINE
  5
4B7
  8
LAYER_1
 10
88.270707
 20
129.756885
 30
0.0
 11
88.270707
 21
129.756885
 31
0.0
  0
LINE
  5
4B8
  8
LAYER_1
 10
92.41528700000001
 20
132.203461
 30
0.0
 11
93.201683
 21
133.518856
 31
0.0
  0
LINE
  5
4B9
  8
LAYER_1
 10
93.201683
 20
133.518856
 30
0.0
 11
93.128812
 21
133.751746
 31
0.0
  0
LINE
  5
4BA
  8
LAYER_1
 10
93.128812
 20
133.751746
 30
0.0
 11
92.79076600000001
 21
133.908176
 31
0.0
  0
LINE
  5
4BB
  8
LAYER_1
 10
92.79076600000001
 20
133.908176
 30
0.0
 11
91.81552499999999
 21
134.433056
 31
0.0
  0
LINE
  5
4BC
  8
LAYER_1
 10
91.81552499999999
 20
134.433056
 30
0.0
 11
91.514527
 21
134.489636
 31
0.0
  0
LINE
  5
4BD
  8
LAYER_1
 10
91.514527
 20
134.489636
 30
0.0
 11
91.192959
 21
134.246064
 31
0.0
  0
LINE
  5
4BE
  8
LAYER_1
 10
91.192959
 20
134.246064
 30
0.0
 11
90.606973
 21
133.175195
 31
0.0
  0
LINE
  5
4BF
  8
LAYER_1
 10
90.606973
 20
133.175195
 30
0.0
 11
90.295281
 21
131.853913
 31
0.0
  0
LINE
  5
4C0
  8
LAYER_1
 10
90.295281
 20
131.853913
 30
0.0
 11
90.316579
 21
131.297324
 31
0.0
  0
LINE
  5
4C1
  8
LAYER_1
 10
90.316579
 20
131.297324
 30
0.0
 11
90.495594
 21
130.915681
 31
0.0
  0
LINE
  5
4C2
  8
LAYER_1
 10
90.495594
 20
130.915681
 30
0.0
 11
90.855812
 21
130.732281
 31
0.0
  0
LINE
  5
4C3
  8
LAYER_1
 10
90.855812
 20
130.732281
 30
0.0
 11
91.276962
 21
130.873118
 31
0.0
  0
LINE
  5
4C4
  8
LAYER_1
 10
91.276962
 20
130.873118
 30
0.0
 11
92.41528700000001
 21
132.203461
 31
0.0
  0
LINE
  5
4C5
  8
LAYER_1
 10
92.41528700000001
 20
132.203461
 30
0.0
 11
92.41528700000001
 21
132.203461
 31
0.0
  0
LINE
  5
4C6
  8
LAYER_1
 10
68.07654700000001
 20
132.068087
 30
0.0
 11
69.479736
 21
134.131112
 31
0.0
  0
LINE
  5
4C7
  8
LAYER_1
 10
69.479736
 20
134.131112
 30
0.0
 11
70.041978
 21
135.251116
 31
0.0
  0
LINE
  5
4C8
  8
LAYER_1
 10
70.041978
 20
135.251116
 30
0.0
 11
70.269667
 21
135.997182
 31
0.0
  0
LINE
  5
4C9
  8
LAYER_1
 10
70.269667
 20
135.997182
 30
0.0
 11
70.12759800000001
 21
136.213869
 31
0.0
  0
LINE
  5
4CA
  8
LAYER_1
 10
70.12759800000001
 20
136.213869
 30
0.0
 11
69.56361200000001
 21
135.922362
 31
0.0
  0
LINE
  5
4CB
  8
LAYER_1
 10
69.56361200000001
 20
135.922362
 30
0.0
 11
68.903328
 21
135.637903
 31
0.0
  0
LINE
  5
4CC
  8
LAYER_1
 10
68.903328
 20
135.637903
 30
0.0
 11
68.307317
 21
135.603629
 31
0.0
  0
LINE
  5
4CD
  8
LAYER_1
 10
68.307317
 20
135.603629
 30
0.0
 11
67.995193
 21
135.601261
 31
0.0
  0
LINE
  5
4CE
  8
LAYER_1
 10
67.995193
 20
135.601261
 30
0.0
 11
67.660574
 21
135.405781
 31
0.0
  0
LINE
  5
4CF
  8
LAYER_1
 10
67.660574
 20
135.405781
 30
0.0
 11
66.755591
 21
134.293415
 31
0.0
  0
LINE
  5
4D0
  8
LAYER_1
 10
66.755591
 20
134.293415
 30
0.0
 11
66.10487999999999
 21
133.293173
 31
0.0
  0
LINE
  5
4D1
  8
LAYER_1
 10
66.10487999999999
 20
133.293173
 30
0.0
 11
65.81787799999999
 21
132.638415
 31
0.0
  0
LINE
  5
4D2
  8
LAYER_1
 10
65.81787799999999
 20
132.638415
 30
0.0
 11
65.860237
 21
132.171671
 31
0.0
  0
LINE
  5
4D3
  8
LAYER_1
 10
65.860237
 20
132.171671
 30
0.0
 11
66.197604
 21
131.735469
 31
0.0
  0
LINE
  5
4D4
  8
LAYER_1
 10
66.197604
 20
131.735469
 30
0.0
 11
66.637863
 21
131.397772
 31
0.0
  0
LINE
  5
4D5
  8
LAYER_1
 10
66.637863
 20
131.397772
 30
0.0
 11
67.057378
 21
131.333492
 31
0.0
  0
LINE
  5
4D6
  8
LAYER_1
 10
67.057378
 20
131.333492
 30
0.0
 11
67.516741
 21
131.553355
 31
0.0
  0
LINE
  5
4D7
  8
LAYER_1
 10
67.516741
 20
131.553355
 30
0.0
 11
68.07654700000001
 21
132.068087
 31
0.0
  0
LINE
  5
4D8
  8
LAYER_1
 10
68.07654700000001
 20
132.068087
 30
0.0
 11
68.07654700000001
 21
132.068087
 31
0.0
  0
LINE
  5
4D9
  8
LAYER_1
 10
84.193549
 20
133.773616
 30
0.0
 11
84.767045
 21
135.052165
 31
0.0
  0
LINE
  5
4DA
  8
LAYER_1
 10
84.767045
 20
135.052165
 30
0.0
 11
84.787111
 21
135.410369
 31
0.0
  0
LINE
  5
4DB
  8
LAYER_1
 10
84.787111
 20
135.410369
 30
0.0
 11
84.65288
 21
135.678616
 31
0.0
  0
LINE
  5
4DC
  8
LAYER_1
 10
84.65288
 20
135.678616
 30
0.0
 11
84.23691700000001
 21
136.021377
 31
0.0
  0
LINE
  5
4DD
  8
LAYER_1
 10
84.23691700000001
 20
136.021377
 30
0.0
 11
83.812495
 21
135.994797
 31
0.0
  0
LINE
  5
4DE
  8
LAYER_1
 10
83.812495
 20
135.994797
 30
0.0
 11
83.324262
 21
135.571594
 31
0.0
  0
LINE
  5
4DF
  8
LAYER_1
 10
83.324262
 20
135.571594
 30
0.0
 11
82.71686699999999
 21
134.72449
 31
0.0
  0
LINE
  5
4E0
  8
LAYER_1
 10
82.71686699999999
 20
134.72449
 30
0.0
 11
82.056693
 21
133.525419
 31
0.0
  0
LINE
  5
4E1
  8
LAYER_1
 10
82.056693
 20
133.525419
 30
0.0
 11
81.853443
 21
132.701283
 31
0.0
  0
LINE
  5
4E2
  8
LAYER_1
 10
81.853443
 20
132.701283
 30
0.0
 11
82.10692400000001
 21
132.256952
 31
0.0
  0
LINE
  5
4E3
  8
LAYER_1
 10
82.10692400000001
 20
132.256952
 30
0.0
 11
82.816943
 21
132.197294
 31
0.0
  0
LINE
  5
4E4
  8
LAYER_1
 10
82.816943
 20
132.197294
 30
0.0
 11
83.45186699999999
 21
132.649854
 31
0.0
  0
LINE
  5
4E5
  8
LAYER_1
 10
83.45186699999999
 20
132.649854
 30
0.0
 11
84.193549
 21
133.773616
 31
0.0
  0
LINE
  5
4E6
  8
LAYER_1
 10
84.193549
 20
133.773616
 30
0.0
 11
84.193549
 21
133.773616
 31
0.0
  0
LINE
  5
4E7
  8
LAYER_1
 10
87.40971399999999
 20
133.831976
 30
0.0
 11
88.106219
 21
135.384199
 31
0.0
  0
LINE
  5
4E8
  8
LAYER_1
 10
88.106219
 20
135.384199
 30
0.0
 11
88.436035
 21
136.230865
 31
0.0
  0
LINE
  5
4E9
  8
LAYER_1
 10
88.436035
 20
136.230865
 30
0.0
 11
88.595629
 21
135.130794
 31
0.0
  0
LINE
  5
4EA
  8
LAYER_1
 10
88.595629
 20
135.130794
 30
0.0
 11
88.83460100000001
 21
134.248736
 31
0.0
  0
LINE
  5
4EB
  8
LAYER_1
 10
88.83460100000001
 20
134.248736
 30
0.0
 11
89.21973
 21
133.741825
 31
0.0
  0
LINE
  5
4EC
  8
LAYER_1
 10
89.21973
 20
133.741825
 30
0.0
 11
89.715253
 21
133.634986
 31
0.0
  0
LINE
  5
4ED
  8
LAYER_1
 10
89.715253
 20
133.634986
 30
0.0
 11
90.285406
 21
133.953143
 31
0.0
  0
LINE
  5
4EE
  8
LAYER_1
 10
90.285406
 20
133.953143
 30
0.0
 11
90.74428399999999
 21
134.60063
 31
0.0
  0
LINE
  5
4EF
  8
LAYER_1
 10
90.74428399999999
 20
134.60063
 30
0.0
 11
91.03947599999999
 21
135.426061
 31
0.0
  0
LINE
  5
4F0
  8
LAYER_1
 10
91.03947599999999
 20
135.426061
 30
0.0
 11
91.23211600000001
 21
136.116379
 31
0.0
  0
LINE
  5
4F1
  8
LAYER_1
 10
91.23211600000001
 20
136.116379
 30
0.0
 11
91.455935
 21
136.502028
 31
0.0
  0
LINE
  5
4F2
  8
LAYER_1
 10
91.455935
 20
136.502028
 30
0.0
 11
91.641294
 21
136.515143
 31
0.0
  0
LINE
  5
4F3
  8
LAYER_1
 10
91.641294
 20
136.515143
 30
0.0
 11
91.71855600000001
 21
136.087858
 31
0.0
  0
LINE
  5
4F4
  8
LAYER_1
 10
91.71855600000001
 20
136.087858
 30
0.0
 11
91.91493300000001
 21
135.123865
 31
0.0
  0
LINE
  5
4F5
  8
LAYER_1
 10
91.91493300000001
 20
135.123865
 30
0.0
 11
92.411322
 21
134.54821
 31
0.0
  0
LINE
  5
4F6
  8
LAYER_1
 10
92.411322
 20
134.54821
 30
0.0
 11
93.06861499999999
 21
134.442992
 31
0.0
  0
LINE
  5
4F7
  8
LAYER_1
 10
93.06861499999999
 20
134.442992
 30
0.0
 11
93.747703
 21
134.89031
 31
0.0
  0
LINE
  5
4F8
  8
LAYER_1
 10
93.747703
 20
134.89031
 30
0.0
 11
94.20277
 21
135.593129
 31
0.0
  0
LINE
  5
4F9
  8
LAYER_1
 10
94.20277
 20
135.593129
 30
0.0
 11
94.64662
 21
136.595873
 31
0.0
  0
LINE
  5
4FA
  8
LAYER_1
 10
94.64662
 20
136.595873
 30
0.0
 11
95.44022699999999
 21
139.246399
 31
0.0
  0
LINE
  5
4FB
  8
LAYER_1
 10
95.44022699999999
 20
139.246399
 30
0.0
 11
96.00764700000001
 21
142.33241
 31
0.0
  0
LINE
  5
4FC
  8
LAYER_1
 10
96.00764700000001
 20
142.33241
 30
0.0
 11
96.228004
 21
145.34443
 31
0.0
  0
LINE
  5
4FD
  8
LAYER_1
 10
96.228004
 20
145.34443
 30
0.0
 11
95.972335
 21
148.909381
 31
0.0
  0
LINE
  5
4FE
  8
LAYER_1
 10
95.972335
 20
148.909381
 30
0.0
 11
95.218474
 21
152.311371
 31
0.0
  0
LINE
  5
4FF
  8
LAYER_1
 10
95.218474
 20
152.311371
 30
0.0
 11
94.011278
 21
155.401894
 31
0.0
  0
LINE
  5
500
  8
LAYER_1
 10
94.011278
 20
155.401894
 30
0.0
 11
93.251696
 21
156.783947
 31
0.0
  0
LINE
  5
501
  8
LAYER_1
 10
93.251696
 20
156.783947
 30
0.0
 11
92.395602
 21
158.032444
 31
0.0
  0
LINE
  5
502
  8
LAYER_1
 10
92.395602
 20
158.032444
 30
0.0
 11
91.208902
 21
159.421811
 31
0.0
  0
LINE
  5
503
  8
LAYER_1
 10
91.208902
 20
159.421811
 30
0.0
 11
89.743117
 21
160.901921
 31
0.0
  0
LINE
  5
504
  8
LAYER_1
 10
89.743117
 20
160.901921
 30
0.0
 11
86.441261
 21
163.765941
 31
0.0
  0
LINE
  5
505
  8
LAYER_1
 10
86.441261
 20
163.765941
 30
0.0
 11
83.42397800000001
 21
165.887634
 31
0.0
  0
LINE
  5
506
  8
LAYER_1
 10
83.42397800000001
 20
165.887634
 30
0.0
 11
82.31391000000001
 21
166.439837
 31
0.0
  0
LINE
  5
507
  8
LAYER_1
 10
82.31391000000001
 20
166.439837
 30
0.0
 11
81.625214
 21
166.530133
 31
0.0
  0
LINE
  5
508
  8
LAYER_1
 10
81.625214
 20
166.530133
 30
0.0
 11
81.937063
 21
165.584515
 31
0.0
  0
LINE
  5
509
  8
LAYER_1
 10
81.937063
 20
165.584515
 30
0.0
 11
82.951662
 21
163.544379
 31
0.0
  0
LINE
  5
50A
  8
LAYER_1
 10
82.951662
 20
163.544379
 30
0.0
 11
84.16613
 21
161.362271
 31
0.0
  0
LINE
  5
50B
  8
LAYER_1
 10
84.16613
 20
161.362271
 30
0.0
 11
85.077585
 21
159.990736
 31
0.0
  0
LINE
  5
50C
  8
LAYER_1
 10
85.077585
 20
159.990736
 30
0.0
 11
85.55421800000001
 21
159.643903
 31
0.0
  0
LINE
  5
50D
  8
LAYER_1
 10
85.55421800000001
 20
159.643903
 30
0.0
 11
86.018096
 21
159.592256
 31
0.0
  0
LINE
  5
50E
  8
LAYER_1
 10
86.018096
 20
159.592256
 30
0.0
 11
86.389709
 21
159.819119
 31
0.0
  0
LINE
  5
50F
  8
LAYER_1
 10
86.389709
 20
159.819119
 30
0.0
 11
86.589545
 21
160.307819
 31
0.0
  0
LINE
  5
510
  8
LAYER_1
 10
86.589545
 20
160.307819
 30
0.0
 11
86.524151
 21
161.147407
 31
0.0
  0
LINE
  5
511
  8
LAYER_1
 10
86.524151
 20
161.147407
 30
0.0
 11
86.23759200000001
 21
162.257796
 31
0.0
  0
LINE
  5
512
  8
LAYER_1
 10
86.23759200000001
 20
162.257796
 30
0.0
 11
85.913014
 21
163.680507
 31
0.0
  0
LINE
  5
513
  8
LAYER_1
 10
85.913014
 20
163.680507
 30
0.0
 11
86.172549
 21
163.522438
 31
0.0
  0
LINE
  5
514
  8
LAYER_1
 10
86.172549
 20
163.522438
 30
0.0
 11
86.50880600000001
 21
162.818561
 31
0.0
  0
LINE
  5
515
  8
LAYER_1
 10
86.50880600000001
 20
162.818561
 30
0.0
 11
87.057746
 21
160.695727
 31
0.0
  0
LINE
  5
516
  8
LAYER_1
 10
87.057746
 20
160.695727
 30
0.0
 11
87.38117200000001
 21
159.391825
 31
0.0
  0
LINE
  5
517
  8
LAYER_1
 10
87.38117200000001
 20
159.391825
 30
0.0
 11
87.919746
 21
158.43795
 31
0.0
  0
LINE
  5
518
  8
LAYER_1
 10
87.919746
 20
158.43795
 30
0.0
 11
88.55041799999999
 21
157.864754
 31
0.0
  0
LINE
  5
519
  8
LAYER_1
 10
88.55041799999999
 20
157.864754
 30
0.0
 11
88.775133
 21
157.908919
 31
0.0
  0
LINE
  5
51A
  8
LAYER_1
 10
88.775133
 20
157.908919
 30
0.0
 11
89.05115000000001
 21
158.144631
 31
0.0
  0
LINE
  5
51B
  8
LAYER_1
 10
89.05115000000001
 20
158.144631
 30
0.0
 11
89.379127
 21
158.710844
 31
0.0
  0
LINE
  5
51C
  8
LAYER_1
 10
89.379127
 20
158.710844
 30
0.0
 11
89.18189200000001
 21
159.645206
 31
0.0
  0
LINE
  5
51D
  8
LAYER_1
 10
89.18189200000001
 20
159.645206
 30
0.0
 11
88.996025
 21
160.405503
 31
0.0
  0
LINE
  5
51E
  8
LAYER_1
 10
88.996025
 20
160.405503
 30
0.0
 11
89.006935
 21
160.819008
 31
0.0
  0
LINE
  5
51F
  8
LAYER_1
 10
89.006935
 20
160.819008
 30
0.0
 11
89.17307099999999
 21
160.794441
 31
0.0
  0
LINE
  5
520
  8
LAYER_1
 10
89.17307099999999
 20
160.794441
 30
0.0
 11
89.452882
 21
160.240523
 31
0.0
  0
LINE
  5
521
  8
LAYER_1
 10
89.452882
 20
160.240523
 30
0.0
 11
89.726846
 21
159.100183
 31
0.0
  0
LINE
  5
522
  8
LAYER_1
 10
89.726846
 20
159.100183
 30
0.0
 11
89.658101
 21
158.149295
 31
0.0
  0
LINE
  5
523
  8
LAYER_1
 10
89.658101
 20
158.149295
 30
0.0
 11
89.277534
 21
157.497996
 31
0.0
  0
LINE
  5
524
  8
LAYER_1
 10
89.277534
 20
157.497996
 30
0.0
 11
88.61603100000001
 21
157.256421
 31
0.0
  0
LINE
  5
525
  8
LAYER_1
 10
88.61603100000001
 20
157.256421
 30
0.0
 11
88.21669
 21
156.999566
 31
0.0
  0
LINE
  5
526
  8
LAYER_1
 10
88.21669
 20
156.999566
 30
0.0
 11
87.89636400000001
 21
156.339199
 31
0.0
  0
LINE
  5
527
  8
LAYER_1
 10
87.89636400000001
 20
156.339199
 30
0.0
 11
87.638555
 21
155.773712
 31
0.0
  0
LINE
  5
528
  8
LAYER_1
 10
87.638555
 20
155.773712
 30
0.0
 11
87.257446
 21
155.488498
 31
0.0
  0
LINE
  5
529
  8
LAYER_1
 10
87.257446
 20
155.488498
 30
0.0
 11
86.71459900000001
 21
155.470964
 31
0.0
  0
LINE
  5
52A
  8
LAYER_1
 10
86.71459900000001
 20
155.470964
 30
0.0
 11
85.971575
 21
155.708514
 31
0.0
  0
LINE
  5
52B
  8
LAYER_1
 10
85.971575
 20
155.708514
 30
0.0
 11
85.691429
 21
155.794851
 31
0.0
  0
LINE
  5
52C
  8
LAYER_1
 10
85.691429
 20
155.794851
 30
0.0
 11
85.558235
 21
155.701352
 31
0.0
  0
LINE
  5
52D
  8
LAYER_1
 10
85.558235
 20
155.701352
 30
0.0
 11
85.63941300000001
 21
154.688331
 31
0.0
  0
LINE
  5
52E
  8
LAYER_1
 10
85.63941300000001
 20
154.688331
 30
0.0
 11
86.013565
 21
152.885522
 31
0.0
  0
LINE
  5
52F
  8
LAYER_1
 10
86.013565
 20
152.885522
 30
0.0
 11
86.21422200000001
 21
152.549045
 31
0.0
  0
LINE
  5
530
  8
LAYER_1
 10
86.21422200000001
 20
152.549045
 30
0.0
 11
86.47272200000001
 21
152.458643
 31
0.0
  0
LINE
  5
531
  8
LAYER_1
 10
86.47272200000001
 20
152.458643
 30
0.0
 11
86.90619100000001
 21
152.616514
 31
0.0
  0
LINE
  5
532
  8
LAYER_1
 10
86.90619100000001
 20
152.616514
 30
0.0
 11
87.336879
 21
153.061901
 31
0.0
  0
LINE
  5
533
  8
LAYER_1
 10
87.336879
 20
153.061901
 30
0.0
 11
88.066502
 21
154.645865
 31
0.0
  0
LINE
  5
534
  8
LAYER_1
 10
88.066502
 20
154.645865
 30
0.0
 11
88.391704
 21
155.492973
 31
0.0
  0
LINE
  5
535
  8
LAYER_1
 10
88.391704
 20
155.492973
 30
0.0
 11
88.675439
 21
155.84531
 31
0.0
  0
LINE
  5
536
  8
LAYER_1
 10
88.675439
 20
155.84531
 30
0.0
 11
88.805633
 21
155.765476
 31
0.0
  0
LINE
  5
537
  8
LAYER_1
 10
88.805633
 20
155.765476
 30
0.0
 11
88.76168
 21
155.573535
 31
0.0
  0
LINE
  5
538
  8
LAYER_1
 10
88.76168
 20
155.573535
 30
0.0
 11
88.562236
 21
153.454585
 31
0.0
  0
LINE
  5
539
  8
LAYER_1
 10
88.562236
 20
153.454585
 30
0.0
 11
88.636661
 21
152.160704
 31
0.0
  0
LINE
  5
53A
  8
LAYER_1
 10
88.636661
 20
152.160704
 30
0.0
 11
88.908841
 21
151.231428
 31
0.0
  0
LINE
  5
53B
  8
LAYER_1
 10
88.908841
 20
151.231428
 30
0.0
 11
89.37674
 21
150.670856
 31
0.0
  0
LINE
  5
53C
  8
LAYER_1
 10
89.37674
 20
150.670856
 30
0.0
 11
90.038321
 21
150.483087
 31
0.0
  0
LINE
  5
53D
  8
LAYER_1
 10
90.038321
 20
150.483087
 30
0.0
 11
90.530286
 21
150.804749
 31
0.0
  0
LINE
  5
53E
  8
LAYER_1
 10
90.530286
 20
150.804749
 30
0.0
 11
90.98046100000001
 21
151.635309
 31
0.0
  0
LINE
  5
53F
  8
LAYER_1
 10
90.98046100000001
 20
151.635309
 30
0.0
 11
91.30907000000001
 21
152.773131
 31
0.0
  0
LINE
  5
540
  8
LAYER_1
 10
91.30907000000001
 20
152.773131
 30
0.0
 11
91.436334
 21
154.016577
 31
0.0
  0
LINE
  5
541
  8
LAYER_1
 10
91.436334
 20
154.016577
 30
0.0
 11
91.519237
 21
154.909481
 31
0.0
  0
LINE
  5
542
  8
LAYER_1
 10
91.519237
 20
154.909481
 30
0.0
 11
91.71855600000001
 21
155.280865
 31
0.0
  0
LINE
  5
543
  8
LAYER_1
 10
91.71855600000001
 20
155.280865
 30
0.0
 11
91.927757
 21
155.084188
 31
0.0
  0
LINE
  5
544
  8
LAYER_1
 10
91.927757
 20
155.084188
 30
0.0
 11
91.998085
 21
154.561566
 31
0.0
  0
LINE
  5
545
  8
LAYER_1
 10
91.998085
 20
154.561566
 30
0.0
 11
91.80584500000001
 21
152.94295
 31
0.0
  0
LINE
  5
546
  8
LAYER_1
 10
91.80584500000001
 20
152.94295
 30
0.0
 11
91.309279
 21
151.233945
 31
0.0
  0
LINE
  5
547
  8
LAYER_1
 10
91.309279
 20
151.233945
 30
0.0
 11
90.999201
 21
150.598335
 31
0.0
  0
LINE
  5
548
  8
LAYER_1
 10
90.999201
 20
150.598335
 30
0.0
 11
90.675833
 21
150.243475
 31
0.0
  0
LINE
  5
549
  8
LAYER_1
 10
90.675833
 20
150.243475
 30
0.0
 11
90.116575
 21
150.127086
 31
0.0
  0
LINE
  5
54A
  8
LAYER_1
 10
90.116575
 20
150.127086
 30
0.0
 11
89.41912499999999
 21
150.212812
 31
0.0
  0
LINE
  5
54B
  8
LAYER_1
 10
89.41912499999999
 20
150.212812
 30
0.0
 11
88.972954
 21
150.31258
 31
0.0
  0
LINE
  5
54C
  8
LAYER_1
 10
88.972954
 20
150.31258
 30
0.0
 11
88.69870899999999
 21
150.246917
 31
0.0
  0
LINE
  5
54D
  8
LAYER_1
 10
88.69870899999999
 20
150.246917
 30
0.0
 11
88.332508
 21
149.356493
 31
0.0
  0
LINE
  5
54E
  8
LAYER_1
 10
88.332508
 20
149.356493
 30
0.0
 11
87.652933
 21
147.525128
 31
0.0
  0
LINE
  5
54F
  8
LAYER_1
 10
87.652933
 20
147.525128
 30
0.0
 11
87.445482
 21
146.933403
 31
0.0
  0
LINE
  5
550
  8
LAYER_1
 10
87.445482
 20
146.933403
 30
0.0
 11
87.407499
 21
146.347092
 31
0.0
  0
LINE
  5
551
  8
LAYER_1
 10
87.407499
 20
146.347092
 30
0.0
 11
87.53248000000001
 21
145.847385
 31
0.0
  0
LINE
  5
552
  8
LAYER_1
 10
87.53248000000001
 20
145.847385
 30
0.0
 11
87.81392099999999
 21
145.515474
 31
0.0
  0
LINE
  5
553
  8
LAYER_1
 10
87.81392099999999
 20
145.515474
 30
0.0
 11
88.31054
 21
145.529701
 31
0.0
  0
LINE
  5
554
  8
LAYER_1
 10
88.31054
 20
145.529701
 30
0.0
 11
88.946399
 21
145.980311
 31
0.0
  0
LINE
  5
555
  8
LAYER_1
 10
88.946399
 20
145.980311
 30
0.0
 11
89.60668699999999
 21
146.758458
 31
0.0
  0
LINE
  5
556
  8
LAYER_1
 10
89.60668699999999
 20
146.758458
 30
0.0
 11
90.176587
 21
147.755297
 31
0.0
  0
LINE
  5
557
  8
LAYER_1
 10
90.176587
 20
147.755297
 30
0.0
 11
90.71863000000001
 21
148.800206
 31
0.0
  0
LINE
  5
558
  8
LAYER_1
 10
90.71863000000001
 20
148.800206
 30
0.0
 11
90.821656
 21
148.78655
 31
0.0
  0
LINE
  5
559
  8
LAYER_1
 10
90.821656
 20
148.78655
 30
0.0
 11
90.855631
 21
148.460059
 31
0.0
  0
LINE
  5
55A
  8
LAYER_1
 10
90.855631
 20
148.460059
 30
0.0
 11
91.08644099999999
 21
147.214527
 31
0.0
  0
LINE
  5
55B
  8
LAYER_1
 10
91.08644099999999
 20
147.214527
 30
0.0
 11
91.35423400000001
 21
146.912888
 31
0.0
  0
LINE
  5
55C
  8
LAYER_1
 10
91.35423400000001
 20
146.912888
 30
0.0
 11
91.72953200000001
 21
146.814199
 31
0.0
  0
LINE
  5
55D
  8
LAYER_1
 10
91.72953200000001
 20
146.814199
 30
0.0
 11
92.226865
 21
147.024237
 31
0.0
  0
LINE
  5
55E
  8
LAYER_1
 10
92.226865
 20
147.024237
 30
0.0
 11
92.764599
 21
147.569985
 31
0.0
  0
LINE
  5
55F
  8
LAYER_1
 10
92.764599
 20
147.569985
 30
0.0
 11
93.243792
 21
148.324893
 31
0.0
  0
LINE
  5
560
  8
LAYER_1
 10
93.243792
 20
148.324893
 30
0.0
 11
93.5655
 21
149.162412
 31
0.0
  0
LINE
  5
561
  8
LAYER_1
 10
93.5655
 20
149.162412
 30
0.0
 11
94.007599
 21
150.079078
 31
0.0
  0
LINE
  5
562
  8
LAYER_1
 10
94.007599
 20
150.079078
 30
0.0
 11
94.233521
 21
150.081936
 31
0.0
  0
LINE
  5
563
  8
LAYER_1
 10
94.233521
 20
150.081936
 30
0.0
 11
94.21904000000001
 21
149.701359
 31
0.0
  0
LINE
  5
564
  8
LAYER_1
 10
94.21904000000001
 20
149.701359
 30
0.0
 11
93.53277900000001
 21
148.061474
 31
0.0
  0
LINE
  5
565
  8
LAYER_1
 10
93.53277900000001
 20
148.061474
 30
0.0
 11
92.551326
 21
145.80293
 31
0.0
  0
LINE
  5
566
  8
LAYER_1
 10
92.551326
 20
145.80293
 30
0.0
 11
92.50093699999999
 21
145.141698
 31
0.0
  0
LINE
  5
567
  8
LAYER_1
 10
92.50093699999999
 20
145.141698
 30
0.0
 11
92.708851
 21
144.646368
 31
0.0
  0
LINE
  5
568
  8
LAYER_1
 10
92.708851
 20
144.646368
 30
0.0
 11
92.933925
 21
144.373591
 31
0.0
  0
LINE
  5
569
  8
LAYER_1
 10
92.933925
 20
144.373591
 30
0.0
 11
93.129142
 21
144.29811
 31
0.0
  0
LINE
  5
56A
  8
LAYER_1
 10
93.129142
 20
144.29811
 30
0.0
 11
93.776602
 21
144.783579
 31
0.0
  0
LINE
  5
56B
  8
LAYER_1
 10
93.776602
 20
144.783579
 30
0.0
 11
94.41310799999999
 21
145.570049
 31
0.0
  0
LINE
  5
56C
  8
LAYER_1
 10
94.41310799999999
 20
145.570049
 30
0.0
 11
94.971097
 21
146.547467
 31
0.0
  0
LINE
  5
56D
  8
LAYER_1
 10
94.971097
 20
146.547467
 30
0.0
 11
95.39599800000001
 21
147.333805
 31
0.0
  0
LINE
  5
56E
  8
LAYER_1
 10
95.39599800000001
 20
147.333805
 30
0.0
 11
95.71252800000001
 21
147.660865
 31
0.0
  0
LINE
  5
56F
  8
LAYER_1
 10
95.71252800000001
 20
147.660865
 30
0.0
 11
95.895492
 21
147.614753
 31
0.0
  0
LINE
  5
570
  8
LAYER_1
 10
95.895492
 20
147.614753
 30
0.0
 11
95.918342
 21
147.42525
 31
0.0
  0
LINE
  5
571
  8
LAYER_1
 10
95.918342
 20
147.42525
 30
0.0
 11
95.416466
 21
146.309066
 31
0.0
  0
LINE
  5
572
  8
LAYER_1
 10
95.416466
 20
146.309066
 30
0.0
 11
94.765095
 21
145.218415
 31
0.0
  0
LINE
  5
573
  8
LAYER_1
 10
94.765095
 20
145.218415
 30
0.0
 11
94.094082
 21
144.425142
 31
0.0
  0
LINE
  5
574
  8
LAYER_1
 10
94.094082
 20
144.425142
 30
0.0
 11
93.448911
 21
143.97231
 31
0.0
  0
LINE
  5
575
  8
LAYER_1
 10
93.448911
 20
143.97231
 30
0.0
 11
92.875063
 21
143.90298
 31
0.0
  0
LINE
  5
576
  8
LAYER_1
 10
92.875063
 20
143.90298
 30
0.0
 11
92.334835
 21
143.851109
 31
0.0
  0
LINE
  5
577
  8
LAYER_1
 10
92.334835
 20
143.851109
 30
0.0
 11
91.968153
 21
143.173038
 31
0.0
  0
LINE
  5
578
  8
LAYER_1
 10
91.968153
 20
143.173038
 30
0.0
 11
91.605214
 21
142.45319
 31
0.0
  0
LINE
  5
579
  8
LAYER_1
 10
91.605214
 20
142.45319
 30
0.0
 11
91.13171300000001
 21
142.015005
 31
0.0
  0
LINE
  5
57A
  8
LAYER_1
 10
91.13171300000001
 20
142.015005
 30
0.0
 11
90.576115
 21
141.874489
 31
0.0
  0
LINE
  5
57B
  8
LAYER_1
 10
90.576115
 20
141.874489
 30
0.0
 11
89.96687900000001
 21
142.047646
 31
0.0
  0
LINE
  5
57C
  8
LAYER_1
 10
89.96687900000001
 20
142.047646
 30
0.0
 11
89.405592
 21
142.2258
 31
0.0
  0
LINE
  5
57D
  8
LAYER_1
 10
89.405592
 20
142.2258
 30
0.0
 11
89.049657
 21
141.88589
 31
0.0
  0
LINE
  5
57E
  8
LAYER_1
 10
89.049657
 20
141.88589
 30
0.0
 11
88.424187
 21
140.920653
 31
0.0
  0
LINE
  5
57F
  8
LAYER_1
 10
88.424187
 20
140.920653
 30
0.0
 11
87.898833
 21
140.356367
 31
0.0
  0
LINE
  5
580
  8
LAYER_1
 10
87.898833
 20
140.356367
 30
0.0
 11
87.37572400000001
 21
140.118116
 31
0.0
  0
LINE
  5
581
  8
LAYER_1
 10
87.37572400000001
 20
140.118116
 30
0.0
 11
86.75698800000001
 21
140.130987
 31
0.0
  0
LINE
  5
582
  8
LAYER_1
 10
86.75698800000001
 20
140.130987
 30
0.0
 11
86.23178
 21
140.173564
 31
0.0
  0
LINE
  5
583
  8
LAYER_1
 10
86.23178
 20
140.173564
 30
0.0
 11
85.820441
 21
140.047655
 31
0.0
  0
LINE
  5
584
  8
LAYER_1
 10
85.820441
 20
140.047655
 30
0.0
 11
84.825357
 21
138.98558
 31
0.0
  0
LINE
  5
585
  8
LAYER_1
 10
84.825357
 20
138.98558
 30
0.0
 11
83.816334
 21
137.369883
 31
0.0
  0
LINE
  5
586
  8
LAYER_1
 10
83.816334
 20
137.369883
 30
0.0
 11
83.930937
 21
136.977902
 31
0.0
  0
LINE
  5
587
  8
LAYER_1
 10
83.930937
 20
136.977902
 30
0.0
 11
84.24533200000001
 21
136.6611
 31
0.0
  0
LINE
  5
588
  8
LAYER_1
 10
84.24533200000001
 20
136.6611
 30
0.0
 11
84.71539900000001
 21
136.449213
 31
0.0
  0
LINE
  5
589
  8
LAYER_1
 10
84.71539900000001
 20
136.449213
 30
0.0
 11
85.297016
 21
136.371976
 31
0.0
  0
LINE
  5
58A
  8
LAYER_1
 10
85.297016
 20
136.371976
 30
0.0
 11
86.028971
 21
136.558959
 31
0.0
  0
LINE
  5
58B
  8
LAYER_1
 10
86.028971
 20
136.558959
 30
0.0
 11
86.581127
 21
137.216859
 31
0.0
  0
LINE
  5
58C
  8
LAYER_1
 10
86.581127
 20
137.216859
 30
0.0
 11
87.21513899999999
 21
138.01895
 31
0.0
  0
LINE
  5
58D
  8
LAYER_1
 10
87.21513899999999
 20
138.01895
 30
0.0
 11
87.412195
 21
138.032395
 31
0.0
  0
LINE
  5
58E
  8
LAYER_1
 10
87.412195
 20
138.032395
 30
0.0
 11
87.48522300000001
 21
137.760924
 31
0.0
  0
LINE
  5
58F
  8
LAYER_1
 10
87.48522300000001
 20
137.760924
 30
0.0
 11
87.153612
 21
137.20766
 31
0.0
  0
LINE
  5
590
  8
LAYER_1
 10
87.153612
 20
137.20766
 30
0.0
 11
86.356334
 21
136.304903
 31
0.0
  0
LINE
  5
591
  8
LAYER_1
 10
86.356334
 20
136.304903
 30
0.0
 11
85.663093
 21
135.505532
 31
0.0
  0
LINE
  5
592
  8
LAYER_1
 10
85.663093
 20
135.505532
 30
0.0
 11
85.31080799999999
 21
134.830332
 31
0.0
  0
LINE
  5
593
  8
LAYER_1
 10
85.31080799999999
 20
134.830332
 30
0.0
 11
85.27439200000001
 21
134.19471
 31
0.0
  0
LINE
  5
594
  8
LAYER_1
 10
85.27439200000001
 20
134.19471
 30
0.0
 11
85.528762
 21
133.514073
 31
0.0
  0
LINE
  5
595
  8
LAYER_1
 10
85.528762
 20
133.514073
 30
0.0
 11
85.927044
 21
133.118804
 31
0.0
  0
LINE
  5
596
  8
LAYER_1
 10
85.927044
 20
133.118804
 30
0.0
 11
86.444885
 21
133.052131
 31
0.0
  0
LINE
  5
597
  8
LAYER_1
 10
86.444885
 20
133.052131
 30
0.0
 11
86.974902
 21
133.295905
 31
0.0
  0
LINE
  5
598
  8
LAYER_1
 10
86.974902
 20
133.295905
 30
0.0
 11
87.40971399999999
 21
133.831976
 31
0.0
  0
LINE
  5
599
  8
LAYER_1
 10
87.40971399999999
 20
133.831976
 30
0.0
 11
87.40971399999999
 21
133.831976
 31
0.0
  0
LINE
  5
59A
  8
LAYER_1
 10
83.127548
 20
136.404404
 30
0.0
 11
83.403138
 21
137.144335
 31
0.0
  0
LINE
  5
59B
  8
LAYER_1
 10
83.403138
 20
137.144335
 30
0.0
 11
83.286394
 21
137.57925
 31
0.0
  0
LINE
  5
59C
  8
LAYER_1
 10
83.286394
 20
137.57925
 30
0.0
 11
82.99136799999999
 21
137.620779
 31
0.0
  0
LINE
  5
59D
  8
LAYER_1
 10
82.99136799999999
 20
137.620779
 30
0.0
 11
82.69793199999999
 21
137.105116
 31
0.0
  0
LINE
  5
59E
  8
LAYER_1
 10
82.69793199999999
 20
137.105116
 30
0.0
 11
82.41822999999999
 21
136.011691
 31
0.0
  0
LINE
  5
59F
  8
LAYER_1
 10
82.41822999999999
 20
136.011691
 30
0.0
 11
82.425141
 21
135.658334
 31
0.0
  0
LINE
  5
5A0
  8
LAYER_1
 10
82.425141
 20
135.658334
 30
0.0
 11
82.539086
 21
135.52531
 31
0.0
  0
LINE
  5
5A1
  8
LAYER_1
 10
82.539086
 20
135.52531
 30
0.0
 11
83.127548
 21
136.404404
 31
0.0
  0
LINE
  5
5A2
  8
LAYER_1
 10
83.127548
 20
136.404404
 30
0.0
 11
83.127548
 21
136.404404
 31
0.0
  0
LINE
  5
5A3
  8
LAYER_1
 10
70.012292
 20
136.963017
 30
0.0
 11
70.85984500000001
 21
138.257108
 31
0.0
  0
LINE
  5
5A4
  8
LAYER_1
 10
70.85984500000001
 20
138.257108
 30
0.0
 11
71.43105199999999
 21
139.834525
 31
0.0
  0
LINE
  5
5A5
  8
LAYER_1
 10
71.43105199999999
 20
139.834525
 30
0.0
 11
71.625334
 21
141.295983
 31
0.0
  0
LINE
  5
5A6
  8
LAYER_1
 10
71.625334
 20
141.295983
 30
0.0
 11
71.549697
 21
141.858451
 31
0.0
  0
LINE
  5
5A7
  8
LAYER_1
 10
71.549697
 20
141.858451
 30
0.0
 11
71.342112
 21
142.242199
 31
0.0
  0
LINE
  5
5A8
  8
LAYER_1
 10
71.342112
 20
142.242199
 30
0.0
 11
70.94911500000001
 21
142.526012
 31
0.0
  0
LINE
  5
5A9
  8
LAYER_1
 10
70.94911500000001
 20
142.526012
 30
0.0
 11
70.61092600000001
 21
142.518516
 31
0.0
  0
LINE
  5
5AA
  8
LAYER_1
 10
70.61092600000001
 20
142.518516
 30
0.0
 11
70.309324
 21
142.210732
 31
0.0
  0
LINE
  5
5AB
  8
LAYER_1
 10
70.309324
 20
142.210732
 30
0.0
 11
70.026087
 21
141.59368
 31
0.0
  0
LINE
  5
5AC
  8
LAYER_1
 10
70.026087
 20
141.59368
 30
0.0
 11
69.48912
 21
140.679211
 31
0.0
  0
LINE
  5
5AD
  8
LAYER_1
 10
69.48912
 20
140.679211
 30
0.0
 11
68.69939100000001
 21
139.86685
 31
0.0
  0
LINE
  5
5AE
  8
LAYER_1
 10
68.69939100000001
 20
139.86685
 30
0.0
 11
67.90242600000001
 21
139.048745
 31
0.0
  0
LINE
  5
5AF
  8
LAYER_1
 10
67.90242600000001
 20
139.048745
 30
0.0
 11
67.72966700000001
 21
137.947146
 31
0.0
  0
LINE
  5
5B0
  8
LAYER_1
 10
67.72966700000001
 20
137.947146
 30
0.0
 11
67.898815
 21
136.747913
 31
0.0
  0
LINE
  5
5B1
  8
LAYER_1
 10
67.898815
 20
136.747913
 30
0.0
 11
68.100318
 21
136.37946
 31
0.0
  0
LINE
  5
5B2
  8
LAYER_1
 10
68.100318
 20
136.37946
 30
0.0
 11
68.370946
 21
136.168923
 31
0.0
  0
LINE
  5
5B3
  8
LAYER_1
 10
68.370946
 20
136.168923
 30
0.0
 11
68.704078
 21
136.119156
 31
0.0
  0
LINE
  5
5B4
  8
LAYER_1
 10
68.704078
 20
136.119156
 30
0.0
 11
69.09309399999999
 21
136.233013
 31
0.0
  0
LINE
  5
5B5
  8
LAYER_1
 10
69.09309399999999
 20
136.233013
 30
0.0
 11
70.012292
 21
136.963017
 31
0.0
  0
LINE
  5
5B6
  8
LAYER_1
 10
70.012292
 20
136.963017
 30
0.0
 11
70.012292
 21
136.963017
 31
0.0
  0
LINE
  5
5B7
  8
LAYER_1
 10
84.633765
 20
139.627353
 30
0.0
 11
85.2201
 21
140.383677
 31
0.0
  0
LINE
  5
5B8
  8
LAYER_1
 10
85.2201
 20
140.383677
 30
0.0
 11
85.46567899999999
 21
140.954343
 31
0.0
  0
LINE
  5
5B9
  8
LAYER_1
 10
85.46567899999999
 20
140.954343
 30
0.0
 11
85.377804
 21
141.385742
 31
0.0
  0
LINE
  5
5BA
  8
LAYER_1
 10
85.377804
 20
141.385742
 30
0.0
 11
84.963776
 21
141.72427
 31
0.0
  0
LINE
  5
5BB
  8
LAYER_1
 10
84.963776
 20
141.72427
 30
0.0
 11
84.36417400000001
 21
141.968459
 31
0.0
  0
LINE
  5
5BC
  8
LAYER_1
 10
84.36417400000001
 20
141.968459
 30
0.0
 11
83.91637
 21
141.971576
 31
0.0
  0
LINE
  5
5BD
  8
LAYER_1
 10
83.91637
 20
141.971576
 30
0.0
 11
83.609056
 21
141.73005
 31
0.0
  0
LINE
  5
5BE
  8
LAYER_1
 10
83.609056
 20
141.73005
 30
0.0
 11
83.43092
 21
141.24031
 31
0.0
  0
LINE
  5
5BF
  8
LAYER_1
 10
83.43092
 20
141.24031
 30
0.0
 11
83.10384999999999
 21
139.546976
 31
0.0
  0
LINE
  5
5C0
  8
LAYER_1
 10
83.10384999999999
 20
139.546976
 30
0.0
 11
83.0793
 21
138.84838
 31
0.0
  0
LINE
  5
5C1
  8
LAYER_1
 10
83.0793
 20
138.84838
 30
0.0
 11
83.34923000000001
 21
138.630126
 31
0.0
  0
LINE
  5
5C2
  8
LAYER_1
 10
83.34923000000001
 20
138.630126
 30
0.0
 11
83.87894900000001
 21
138.890391
 31
0.0
  0
LINE
  5
5C3
  8
LAYER_1
 10
83.87894900000001
 20
138.890391
 30
0.0
 11
84.633765
 21
139.627353
 31
0.0
  0
LINE
  5
5C4
  8
LAYER_1
 10
84.633765
 20
139.627353
 30
0.0
 11
84.633765
 21
139.627353
 31
0.0
  0
LINE
  5
5C5
  8
LAYER_1
 10
87.685942
 20
140.831189
 30
0.0
 11
88.09870700000001
 21
141.332391
 31
0.0
  0
LINE
  5
5C6
  8
LAYER_1
 10
88.09870700000001
 20
141.332391
 30
0.0
 11
88.48993
 21
142.189464
 31
0.0
  0
LINE
  5
5C7
  8
LAYER_1
 10
88.48993
 20
142.189464
 30
0.0
 11
88.781757
 21
143.190608
 31
0.0
  0
LINE
  5
5C8
  8
LAYER_1
 10
88.781757
 20
143.190608
 30
0.0
 11
88.896334
 21
144.124022
 31
0.0
  0
LINE
  5
5C9
  8
LAYER_1
 10
88.896334
 20
144.124022
 30
0.0
 11
88.77734100000001
 21
144.947537
 31
0.0
  0
LINE
  5
5CA
  8
LAYER_1
 10
88.77734100000001
 20
144.947537
 30
0.0
 11
88.569991
 21
145.087019
 31
0.0
  0
LINE
  5
5CB
  8
LAYER_1
 10
88.569991
 20
145.087019
 30
0.0
 11
88.21197600000001
 21
145.120865
 31
0.0
  0
LINE
  5
5CC
  8
LAYER_1
 10
88.21197600000001
 20
145.120865
 30
0.0
 11
87.836722
 21
145.048429
 31
0.0
  0
LINE
  5
5CD
  8
LAYER_1
 10
87.836722
 20
145.048429
 30
0.0
 11
87.488343
 21
144.792558
 31
0.0
  0
LINE
  5
5CE
  8
LAYER_1
 10
87.488343
 20
144.792558
 30
0.0
 11
86.649258
 21
143.499146
 31
0.0
  0
LINE
  5
5CF
  8
LAYER_1
 10
86.649258
 20
143.499146
 30
0.0
 11
85.98733799999999
 21
142.052469
 31
0.0
  0
LINE
  5
5D0
  8
LAYER_1
 10
85.98733799999999
 20
142.052469
 30
0.0
 11
85.965693
 21
141.628779
 31
0.0
  0
LINE
  5
5D1
  8
LAYER_1
 10
85.965693
 20
141.628779
 30
0.0
 11
86.111306
 21
141.241368
 31
0.0
  0
LINE
  5
5D2
  8
LAYER_1
 10
86.111306
 20
141.241368
 30
0.0
 11
86.415903
 21
140.849522
 31
0.0
  0
LINE
  5
5D3
  8
LAYER_1
 10
86.415903
 20
140.849522
 30
0.0
 11
86.795667
 21
140.64643
 31
0.0
  0
LINE
  5
5D4
  8
LAYER_1
 10
86.795667
 20
140.64643
 30
0.0
 11
87.22690900000001
 21
140.638262
 31
0.0
  0
LINE
  5
5D5
  8
LAYER_1
 10
87.22690900000001
 20
140.638262
 30
0.0
 11
87.685942
 21
140.831189
 31
0.0
  0
LINE
  5
5D6
  8
LAYER_1
 10
87.685942
 20
140.831189
 30
0.0
 11
87.685942
 21
140.831189
 31
0.0
  0
LINE
  5
5D7
  8
LAYER_1
 10
85.90553199999999
 20
143.225322
 30
0.0
 11
86.460616
 21
144.229348
 31
0.0
  0
LINE
  5
5D8
  8
LAYER_1
 10
86.460616
 20
144.229348
 30
0.0
 11
86.802632
 21
145.341989
 31
0.0
  0
LINE
  5
5D9
  8
LAYER_1
 10
86.802632
 20
145.341989
 30
0.0
 11
86.86937399999999
 21
146.331779
 31
0.0
  0
LINE
  5
5DA
  8
LAYER_1
 10
86.86937399999999
 20
146.331779
 30
0.0
 11
86.730868
 21
146.494089
 31
0.0
  0
LINE
  5
5DB
  8
LAYER_1
 10
86.730868
 20
146.494089
 30
0.0
 11
86.448849
 21
146.531976
 31
0.0
  0
LINE
  5
5DC
  8
LAYER_1
 10
86.448849
 20
146.531976
 30
0.0
 11
85.966497
 21
146.630078
 31
0.0
  0
LINE
  5
5DD
  8
LAYER_1
 10
85.966497
 20
146.630078
 30
0.0
 11
85.57081599999999
 21
146.865938
 31
0.0
  0
LINE
  5
5DE
  8
LAYER_1
 10
85.57081599999999
 20
146.865938
 30
0.0
 11
85.27914300000001
 21
147.072953
 31
0.0
  0
LINE
  5
5DF
  8
LAYER_1
 10
85.27914300000001
 20
147.072953
 30
0.0
 11
85.042197
 21
146.921138
 31
0.0
  0
LINE
  5
5E0
  8
LAYER_1
 10
85.042197
 20
146.921138
 30
0.0
 11
84.419099
 21
145.045726
 31
0.0
  0
LINE
  5
5E1
  8
LAYER_1
 10
84.419099
 20
145.045726
 30
0.0
 11
84.13212300000001
 21
143.351658
 31
0.0
  0
LINE
  5
5E2
  8
LAYER_1
 10
84.13212300000001
 20
143.351658
 30
0.0
 11
84.180493
 21
142.78104
 31
0.0
  0
LINE
  5
5E3
  8
LAYER_1
 10
84.180493
 20
142.78104
 30
0.0
 11
84.34225499999999
 21
142.412473
 31
0.0
  0
LINE
  5
5E4
  8
LAYER_1
 10
84.34225499999999
 20
142.412473
 30
0.0
 11
84.60652500000001
 21
142.259288
 31
0.0
  0
LINE
  5
5E5
  8
LAYER_1
 10
84.60652500000001
 20
142.259288
 30
0.0
 11
84.962417
 21
142.334814
 31
0.0
  0
LINE
  5
5E6
  8
LAYER_1
 10
84.962417
 20
142.334814
 30
0.0
 11
85.90553199999999
 21
143.225322
 31
0.0
  0
LINE
  5
5E7
  8
LAYER_1
 10
85.90553199999999
 20
143.225322
 30
0.0
 11
85.90553199999999
 21
143.225322
 31
0.0
  0
LINE
  5
5E8
  8
LAYER_1
 10
91.546801
 20
143.433244
 30
0.0
 11
91.881112
 21
144.413819
 31
0.0
  0
LINE
  5
5E9
  8
LAYER_1
 10
91.881112
 20
144.413819
 30
0.0
 11
91.966481
 21
145.154902
 31
0.0
  0
LINE
  5
5EA
  8
LAYER_1
 10
91.966481
 20
145.154902
 30
0.0
 11
91.795355
 21
145.776489
 31
0.0
  0
LINE
  5
5EB
  8
LAYER_1
 10
91.795355
 20
145.776489
 30
0.0
 11
91.360182
 21
146.398573
 31
0.0
  0
LINE
  5
5EC
  8
LAYER_1
 10
91.360182
 20
146.398573
 30
0.0
 11
90.719585
 21
147.143312
 31
0.0
  0
LINE
  5
5ED
  8
LAYER_1
 10
90.719585
 20
147.143312
 30
0.0
 11
90.195832
 21
146.564573
 31
0.0
  0
LINE
  5
5EE
  8
LAYER_1
 10
90.195832
 20
146.564573
 30
0.0
 11
89.818146
 21
145.813968
 31
0.0
  0
LINE
  5
5EF
  8
LAYER_1
 10
89.818146
 20
145.813968
 30
0.0
 11
89.59902700000001
 21
144.743017
 31
0.0
  0
LINE
  5
5F0
  8
LAYER_1
 10
89.59902700000001
 20
144.743017
 30
0.0
 11
89.57178500000001
 21
143.644988
 31
0.0
  0
LINE
  5
5F1
  8
LAYER_1
 10
89.57178500000001
 20
143.644988
 30
0.0
 11
89.76973
 21
142.813145
 31
0.0
  0
LINE
  5
5F2
  8
LAYER_1
 10
89.76973
 20
142.813145
 30
0.0
 11
90.180303
 21
142.357631
 31
0.0
  0
LINE
  5
5F3
  8
LAYER_1
 10
90.180303
 20
142.357631
 30
0.0
 11
90.652643
 21
142.322857
 31
0.0
  0
LINE
  5
5F4
  8
LAYER_1
 10
90.652643
 20
142.322857
 30
0.0
 11
91.12779399999999
 21
142.688252
 31
0.0
  0
LINE
  5
5F5
  8
LAYER_1
 10
91.12779399999999
 20
142.688252
 30
0.0
 11
91.546801
 21
143.433244
 31
0.0
  0
LINE
  5
5F6
  8
LAYER_1
 10
91.546801
 20
143.433244
 30
0.0
 11
91.546801
 21
143.433244
 31
0.0
  0
LINE
  5
5F7
  8
LAYER_1
 10
72.245223
 20
144.433211
 30
0.0
 11
72.17310500000001
 21
145.104753
 31
0.0
  0
LINE
  5
5F8
  8
LAYER_1
 10
72.17310500000001
 20
145.104753
 30
0.0
 11
71.96956400000001
 21
145.50083
 31
0.0
  0
LINE
  5
5F9
  8
LAYER_1
 10
71.96956400000001
 20
145.50083
 30
0.0
 11
71.653818
 21
145.603001
 31
0.0
  0
LINE
  5
5FA
  8
LAYER_1
 10
71.653818
 20
145.603001
 30
0.0
 11
71.24508400000001
 21
145.392829
 31
0.0
  0
LINE
  5
5FB
  8
LAYER_1
 10
71.24508400000001
 20
145.392829
 30
0.0
 11
70.959294
 21
144.943589
 31
0.0
  0
LINE
  5
5FC
  8
LAYER_1
 10
70.959294
 20
144.943589
 30
0.0
 11
70.846902
 21
144.32032
 31
0.0
  0
LINE
  5
5FD
  8
LAYER_1
 10
70.846902
 20
144.32032
 30
0.0
 11
70.913845
 21
143.687215
 31
0.0
  0
LINE
  5
5FE
  8
LAYER_1
 10
70.913845
 20
143.687215
 30
0.0
 11
71.16606400000001
 21
143.208468
 31
0.0
  0
LINE
  5
5FF
  8
LAYER_1
 10
71.16606400000001
 20
143.208468
 30
0.0
 11
71.551056
 21
143.029481
 31
0.0
  0
LINE
  5
600
  8
LAYER_1
 10
71.551056
 20
143.029481
 30
0.0
 11
71.897976
 21
143.217895
 31
0.0
  0
LINE
  5
601
  8
LAYER_1
 10
71.897976
 20
143.217895
 30
0.0
 11
72.148729
 21
143.707782
 31
0.0
  0
LINE
  5
602
  8
LAYER_1
 10
72.148729
 20
143.707782
 30
0.0
 11
72.245223
 21
144.433211
 31
0.0
  0
LINE
  5
603
  8
LAYER_1
 10
72.245223
 20
144.433211
 30
0.0
 11
72.245223
 21
144.433211
 31
0.0
  0
LINE
  5
604
  8
LAYER_1
 10
80.645838
 20
147.331848
 30
0.0
 11
80.918667
 21
147.933444
 31
0.0
  0
LINE
  5
605
  8
LAYER_1
 10
80.918667
 20
147.933444
 30
0.0
 11
81.069172
 21
149.077945
 31
0.0
  0
LINE
  5
606
  8
LAYER_1
 10
81.069172
 20
149.077945
 30
0.0
 11
81.135223
 21
150.59726
 31
0.0
  0
LINE
  5
607
  8
LAYER_1
 10
81.135223
 20
150.59726
 30
0.0
 11
80.14744500000001
 21
150.665468
 31
0.0
  0
LINE
  5
608
  8
LAYER_1
 10
80.14744500000001
 20
150.665468
 30
0.0
 11
76.35708800000001
 21
151.012853
 31
0.0
  0
LINE
  5
609
  8
LAYER_1
 10
76.35708800000001
 20
151.012853
 30
0.0
 11
74.10369
 21
151.472056
 31
0.0
  0
LINE
  5
60A
  8
LAYER_1
 10
74.10369
 20
151.472056
 30
0.0
 11
72.603476
 21
151.78208
 31
0.0
  0
LINE
  5
60B
  8
LAYER_1
 10
72.603476
 20
151.78208
 30
0.0
 11
72.803044
 21
150.507689
 31
0.0
  0
LINE
  5
60C
  8
LAYER_1
 10
72.803044
 20
150.507689
 30
0.0
 11
73.282106
 21
149.453121
 31
0.0
  0
LINE
  5
60D
  8
LAYER_1
 10
73.282106
 20
149.453121
 30
0.0
 11
74.162147
 21
148.655715
 31
0.0
  0
LINE
  5
60E
  8
LAYER_1
 10
74.162147
 20
148.655715
 30
0.0
 11
75.780399
 21
147.876062
 31
0.0
  0
LINE
  5
60F
  8
LAYER_1
 10
75.780399
 20
147.876062
 30
0.0
 11
77.703935
 21
147.333561
 31
0.0
  0
LINE
  5
610
  8
LAYER_1
 10
77.703935
 20
147.333561
 30
0.0
 11
79.477499
 21
147.121171
 31
0.0
  0
LINE
  5
611
  8
LAYER_1
 10
79.477499
 20
147.121171
 30
0.0
 11
80.165775
 21
147.167816
 31
0.0
  0
LINE
  5
612
  8
LAYER_1
 10
80.165775
 20
147.167816
 30
0.0
 11
80.645838
 21
147.331848
 31
0.0
  0
LINE
  5
613
  8
LAYER_1
 10
80.645838
 20
147.331848
 30
0.0
 11
80.645838
 21
147.331848
 31
0.0
  0
LINE
  5
614
  8
LAYER_1
 10
87.07889299999999
 20
147.78832
 30
0.0
 11
87.795795
 21
149.319095
 31
0.0
  0
LINE
  5
615
  8
LAYER_1
 10
87.795795
 20
149.319095
 30
0.0
 11
88.138773
 21
150.889575
 31
0.0
  0
LINE
  5
616
  8
LAYER_1
 10
88.138773
 20
150.889575
 30
0.0
 11
88.062327
 21
152.035961
 31
0.0
  0
LINE
  5
617
  8
LAYER_1
 10
88.062327
 20
152.035961
 30
0.0
 11
87.85260200000001
 21
152.305181
 31
0.0
  0
LINE
  5
618
  8
LAYER_1
 10
87.85260200000001
 20
152.305181
 30
0.0
 11
87.52095799999999
 21
152.294452
 31
0.0
  0
LINE
  5
619
  8
LAYER_1
 10
87.52095799999999
 20
152.294452
 30
0.0
 11
86.31916200000001
 21
151.968262
 31
0.0
  0
LINE
  5
61A
  8
LAYER_1
 10
86.31916200000001
 20
151.968262
 30
0.0
 11
85.913607
 21
151.852525
 31
0.0
  0
LINE
  5
61B
  8
LAYER_1
 10
85.913607
 20
151.852525
 30
0.0
 11
85.665786
 21
151.600938
 31
0.0
  0
LINE
  5
61C
  8
LAYER_1
 10
85.665786
 20
151.600938
 30
0.0
 11
85.392743
 21
150.2163
 31
0.0
  0
LINE
  5
61D
  8
LAYER_1
 10
85.392743
 20
150.2163
 30
0.0
 11
85.381325
 21
148.48471
 31
0.0
  0
LINE
  5
61E
  8
LAYER_1
 10
85.381325
 20
148.48471
 30
0.0
 11
85.729559
 21
147.400593
 31
0.0
  0
LINE
  5
61F
  8
LAYER_1
 10
85.729559
 20
147.400593
 30
0.0
 11
86.005257
 21
147.14927
 31
0.0
  0
LINE
  5
620
  8
LAYER_1
 10
86.005257
 20
147.14927
 30
0.0
 11
86.330922
 21
147.117334
 31
0.0
  0
LINE
  5
621
  8
LAYER_1
 10
86.330922
 20
147.117334
 30
0.0
 11
86.69323900000001
 21
147.32396
 31
0.0
  0
LINE
  5
622
  8
LAYER_1
 10
86.69323900000001
 20
147.32396
 30
0.0
 11
87.07889299999999
 21
147.78832
 31
0.0
  0
LINE
  5
623
  8
LAYER_1
 10
87.07889299999999
 20
147.78832
 30
0.0
 11
87.07889299999999
 21
147.78832
 31
0.0
  0
LINE
  5
624
  8
LAYER_1
 10
83.78039
 20
148.92456
 30
0.0
 11
84.740416
 21
150.190472
 31
0.0
  0
LINE
  5
625
  8
LAYER_1
 10
84.740416
 20
150.190472
 30
0.0
 11
84.904821
 21
150.755843
 31
0.0
  0
LINE
  5
626
  8
LAYER_1
 10
84.904821
 20
150.755843
 30
0.0
 11
84.945223
 21
151.46456
 31
0.0
  0
LINE
  5
627
  8
LAYER_1
 10
84.945223
 20
151.46456
 30
0.0
 11
84.89720300000001
 21
152.259493
 31
0.0
  0
LINE
  5
628
  8
LAYER_1
 10
84.89720300000001
 20
152.259493
 30
0.0
 11
84.746436
 21
152.659488
 31
0.0
  0
LINE
  5
629
  8
LAYER_1
 10
84.746436
 20
152.659488
 30
0.0
 11
84.482866
 21
152.674623
 31
0.0
  0
LINE
  5
62A
  8
LAYER_1
 10
84.482866
 20
152.674623
 30
0.0
 11
84.096434
 21
152.314975
 31
0.0
  0
LINE
  5
62B
  8
LAYER_1
 10
84.096434
 20
152.314975
 30
0.0
 11
82.650767
 21
151.275229
 31
0.0
  0
LINE
  5
62C
  8
LAYER_1
 10
82.650767
 20
151.275229
 30
0.0
 11
82.03538
 21
150.898573
 31
0.0
  0
LINE
  5
62D
  8
LAYER_1
 10
82.03538
 20
150.898573
 30
0.0
 11
81.70934699999999
 21
150.538997
 31
0.0
  0
LINE
  5
62E
  8
LAYER_1
 10
81.70934699999999
 20
150.538997
 30
0.0
 11
81.58097100000001
 21
150.019009
 31
0.0
  0
LINE
  5
62F
  8
LAYER_1
 10
81.58097100000001
 20
150.019009
 30
0.0
 11
81.558556
 21
149.161119
 31
0.0
  0
LINE
  5
630
  8
LAYER_1
 10
81.558556
 20
149.161119
 30
0.0
 11
81.653966
 21
147.931707
 31
0.0
  0
LINE
  5
631
  8
LAYER_1
 10
81.653966
 20
147.931707
 30
0.0
 11
81.814533
 21
147.715548
 31
0.0
  0
LINE
  5
632
  8
LAYER_1
 10
81.814533
 20
147.715548
 30
0.0
 11
82.087057
 21
147.660865
 31
0.0
  0
LINE
  5
633
  8
LAYER_1
 10
82.087057
 20
147.660865
 30
0.0
 11
82.80248
 21
148.032076
 31
0.0
  0
LINE
  5
634
  8
LAYER_1
 10
82.80248
 20
148.032076
 30
0.0
 11
83.78039
 21
148.92456
 31
0.0
  0
LINE
  5
635
  8
LAYER_1
 10
83.78039
 20
148.92456
 30
0.0
 11
83.78039
 21
148.92456
 31
0.0
  0
LINE
  5
636
  8
LAYER_1
 10
81.038423
 20
151.682532
 30
0.0
 11
81.00076900000001
 21
153.30531
 31
0.0
  0
LINE
  5
637
  8
LAYER_1
 10
81.00076900000001
 20
153.30531
 30
0.0
 11
80.85300100000001
 21
154.293087
 31
0.0
  0
LINE
  5
638
  8
LAYER_1
 10
80.85300100000001
 20
154.293087
 30
0.0
 11
77.043001
 21
154.294936
 31
0.0
  0
LINE
  5
639
  8
LAYER_1
 10
77.043001
 20
154.294936
 30
0.0
 11
74.124205
 21
154.366864
 31
0.0
  0
LINE
  5
63A
  8
LAYER_1
 10
74.124205
 20
154.366864
 30
0.0
 11
72.456889
 21
154.537198
 31
0.0
  0
LINE
  5
63B
  8
LAYER_1
 10
72.456889
 20
154.537198
 30
0.0
 11
71.894712
 21
154.609052
 31
0.0
  0
LINE
  5
63C
  8
LAYER_1
 10
71.894712
 20
154.609052
 30
0.0
 11
71.675881
 21
154.388847
 31
0.0
  0
LINE
  5
63D
  8
LAYER_1
 10
71.675881
 20
154.388847
 30
0.0
 11
71.80390300000001
 21
153.903814
 31
0.0
  0
LINE
  5
63E
  8
LAYER_1
 10
71.80390300000001
 20
153.903814
 30
0.0
 11
72.282284
 21
153.181183
 31
0.0
  0
LINE
  5
63F
  8
LAYER_1
 10
72.282284
 20
153.181183
 30
0.0
 11
73.317919
 21
152.350527
 31
0.0
  0
LINE
  5
640
  8
LAYER_1
 10
73.317919
 20
152.350527
 30
0.0
 11
74.903207
 21
151.686443
 31
0.0
  0
LINE
  5
641
  8
LAYER_1
 10
74.903207
 20
151.686443
 30
0.0
 11
76.87151400000001
 21
151.24096
 31
0.0
  0
LINE
  5
642
  8
LAYER_1
 10
76.87151400000001
 20
151.24096
 30
0.0
 11
79.05620999999999
 21
151.066105
 31
0.0
  0
LINE
  5
643
  8
LAYER_1
 10
79.05620999999999
 20
151.066105
 30
0.0
 11
80.657022
 21
151.14816
 31
0.0
  0
LINE
  5
644
  8
LAYER_1
 10
80.657022
 20
151.14816
 30
0.0
 11
80.928765
 21
151.336607
 31
0.0
  0
LINE
  5
645
  8
LAYER_1
 10
80.928765
 20
151.336607
 30
0.0
 11
81.038423
 21
151.682532
 31
0.0
  0
LINE
  5
646
  8
LAYER_1
 10
81.038423
 20
151.682532
 30
0.0
 11
81.038423
 21
151.682532
 31
0.0
  0
LINE
  5
647
  8
LAYER_1
 10
83.194875
 20
152.167565
 30
0.0
 11
84.098911
 21
152.922225
 31
0.0
  0
LINE
  5
648
  8
LAYER_1
 10
84.098911
 20
152.922225
 30
0.0
 11
84.648331
 21
153.560122
 31
0.0
  0
LINE
  5
649
  8
LAYER_1
 10
84.648331
 20
153.560122
 30
0.0
 11
84.85710400000001
 21
154.279756
 31
0.0
  0
LINE
  5
64A
  8
LAYER_1
 10
84.85710400000001
 20
154.279756
 30
0.0
 11
84.937101
 21
155.219283
 31
0.0
  0
LINE
  5
64B
  8
LAYER_1
 10
84.937101
 20
155.219283
 30
0.0
 11
84.883765
 21
156.072352
 31
0.0
  0
LINE
  5
64C
  8
LAYER_1
 10
84.883765
 20
156.072352
 30
0.0
 11
84.69254100000001
 21
156.532608
 31
0.0
  0
LINE
  5
64D
  8
LAYER_1
 10
84.69254100000001
 20
156.532608
 30
0.0
 11
84.042373
 21
156.336738
 31
0.0
  0
LINE
  5
64E
  8
LAYER_1
 10
84.042373
 20
156.336738
 30
0.0
 11
82.834034
 21
155.646518
 31
0.0
  0
LINE
  5
64F
  8
LAYER_1
 10
82.834034
 20
155.646518
 30
0.0
 11
81.504143
 21
154.637976
 31
0.0
  0
LINE
  5
650
  8
LAYER_1
 10
81.504143
 20
154.637976
 30
0.0
 11
81.34725899999999
 21
154.255552
 31
0.0
  0
LINE
  5
651
  8
LAYER_1
 10
81.34725899999999
 20
154.255552
 30
0.0
 11
81.393383
 21
153.778396
 31
0.0
  0
LINE
  5
652
  8
LAYER_1
 10
81.393383
 20
153.778396
 30
0.0
 11
81.558556
 21
152.141143
 31
0.0
  0
LINE
  5
653
  8
LAYER_1
 10
81.558556
 20
152.141143
 30
0.0
 11
81.612236
 21
151.569759
 31
0.0
  0
LINE
  5
654
  8
LAYER_1
 10
81.612236
 20
151.569759
 30
0.0
 11
81.83806300000001
 21
151.382655
 31
0.0
  0
LINE
  5
655
  8
LAYER_1
 10
81.83806300000001
 20
151.382655
 30
0.0
 11
82.33321599999999
 21
151.581401
 31
0.0
  0
LINE
  5
656
  8
LAYER_1
 10
82.33321599999999
 20
151.581401
 30
0.0
 11
83.194875
 21
152.167565
 31
0.0
  0
LINE
  5
657
  8
LAYER_1
 10
83.194875
 20
152.167565
 30
0.0
 11
83.194875
 21
152.167565
 31
0.0
  0
LINE
  5
658
  8
LAYER_1
 10
80.395462
 20
155.139754
 30
0.0
 11
80.48935899999999
 21
155.699647
 31
0.0
  0
LINE
  5
659
  8
LAYER_1
 10
80.48935899999999
 20
155.699647
 30
0.0
 11
80.42653799999999
 21
156.704327
 31
0.0
  0
LINE
  5
65A
  8
LAYER_1
 10
80.42653799999999
 20
156.704327
 30
0.0
 11
80.25686399999999
 21
157.720383
 31
0.0
  0
LINE
  5
65B
  8
LAYER_1
 10
80.25686399999999
 20
157.720383
 30
0.0
 11
80.030204
 21
158.314404
 31
0.0
  0
LINE
  5
65C
  8
LAYER_1
 10
80.030204
 20
158.314404
 30
0.0
 11
76.57330399999999
 21
158.076279
 31
0.0
  0
LINE
  5
65D
  8
LAYER_1
 10
76.57330399999999
 20
158.076279
 30
0.0
 11
73.047048
 21
157.496479
 31
0.0
  0
LINE
  5
65E
  8
LAYER_1
 10
73.047048
 20
157.496479
 30
0.0
 11
71.89755100000001
 21
157.13134
 31
0.0
  0
LINE
  5
65F
  8
LAYER_1
 10
71.89755100000001
 20
157.13134
 30
0.0
 11
71.174036
 21
156.729925
 31
0.0
  0
LINE
  5
660
  8
LAYER_1
 10
71.174036
 20
156.729925
 30
0.0
 11
70.88917100000001
 21
156.302645
 31
0.0
  0
LINE
  5
661
  8
LAYER_1
 10
70.88917100000001
 20
156.302645
 30
0.0
 11
71.055628
 21
155.859915
 31
0.0
  0
LINE
  5
662
  8
LAYER_1
 10
71.055628
 20
155.859915
 30
0.0
 11
71.686076
 21
155.412145
 31
0.0
  0
LINE
  5
663
  8
LAYER_1
 10
71.686076
 20
155.412145
 30
0.0
 11
72.79318499999999
 21
154.969749
 31
0.0
  0
LINE
  5
664
  8
LAYER_1
 10
72.79318499999999
 20
154.969749
 30
0.0
 11
74.350297
 21
154.812265
 31
0.0
  0
LINE
  5
665
  8
LAYER_1
 10
74.350297
 20
154.812265
 30
0.0
 11
76.837048
 21
154.803773
 31
0.0
  0
LINE
  5
666
  8
LAYER_1
 10
76.837048
 20
154.803773
 30
0.0
 11
79.202437
 21
154.92077
 31
0.0
  0
LINE
  5
667
  8
LAYER_1
 10
79.202437
 20
154.92077
 30
0.0
 11
80.395462
 21
155.139754
 31
0.0
  0
LINE
  5
668
  8
LAYER_1
 10
80.395462
 20
155.139754
 30
0.0
 11
80.395462
 21
155.139754
 31
0.0
  0
LINE
  5
669
  8
LAYER_1
 10
82.883779
 20
156.115114
 30
0.0
 11
83.652108
 21
156.703991
 31
0.0
  0
LINE
  5
66A
  8
LAYER_1
 10
83.652108
 20
156.703991
 30
0.0
 11
84.232891
 21
157.347581
 31
0.0
  0
LINE
  5
66B
  8
LAYER_1
 10
84.232891
 20
157.347581
 30
0.0
 11
84.462401
 21
157.756077
 31
0.0
  0
LINE
  5
66C
  8
LAYER_1
 10
84.462401
 20
157.756077
 30
0.0
 11
84.531261
 21
158.137984
 31
0.0
  0
LINE
  5
66D
  8
LAYER_1
 10
84.531261
 20
158.137984
 30
0.0
 11
84.168835
 21
159.407166
 31
0.0
  0
LINE
  5
66E
  8
LAYER_1
 10
84.168835
 20
159.407166
 30
0.0
 11
83.71050099999999
 21
160.379695
 31
0.0
  0
LINE
  5
66F
  8
LAYER_1
 10
83.71050099999999
 20
160.379695
 30
0.0
 11
83.32652
 21
160.784199
 31
0.0
  0
LINE
  5
670
  8
LAYER_1
 10
83.32652
 20
160.784199
 30
0.0
 11
82.718356
 21
160.471262
 31
0.0
  0
LINE
  5
671
  8
LAYER_1
 10
82.718356
 20
160.471262
 30
0.0
 11
81.721029
 21
159.718883
 31
0.0
  0
LINE
  5
672
  8
LAYER_1
 10
81.721029
 20
159.718883
 30
0.0
 11
80.68015699999999
 21
158.678565
 31
0.0
  0
LINE
  5
673
  8
LAYER_1
 10
80.68015699999999
 20
158.678565
 30
0.0
 11
80.564567
 21
158.263601
 31
0.0
  0
LINE
  5
674
  8
LAYER_1
 10
80.564567
 20
158.263601
 30
0.0
 11
80.62120299999999
 21
157.743327
 31
0.0
  0
LINE
  5
675
  8
LAYER_1
 10
80.62120299999999
 20
157.743327
 30
0.0
 11
80.950981
 21
156.381648
 31
0.0
  0
LINE
  5
676
  8
LAYER_1
 10
80.950981
 20
156.381648
 30
0.0
 11
81.355474
 21
155.715776
 31
0.0
  0
LINE
  5
677
  8
LAYER_1
 10
81.355474
 20
155.715776
 30
0.0
 11
81.95847600000001
 21
155.656626
 31
0.0
  0
LINE
  5
678
  8
LAYER_1
 10
81.95847600000001
 20
155.656626
 30
0.0
 11
82.883779
 21
156.115114
 31
0.0
  0
LINE
  5
679
  8
LAYER_1
 10
82.883779
 20
156.115114
 30
0.0
 11
82.883779
 21
156.115114
 31
0.0
  0
LINE
  5
67A
  8
LAYER_1
 10
87.428471
 20
156.851277
 30
0.0
 11
87.422738
 21
157.850488
 31
0.0
  0
LINE
  5
67B
  8
LAYER_1
 10
87.422738
 20
157.850488
 30
0.0
 11
87.18006699999999
 21
158.56839
 31
0.0
  0
LINE
  5
67C
  8
LAYER_1
 10
87.18006699999999
 20
158.56839
 30
0.0
 11
86.69797800000001
 21
159.008944
 31
0.0
  0
LINE
  5
67D
  8
LAYER_1
 10
86.69797800000001
 20
159.008944
 30
0.0
 11
85.97399299999999
 21
159.176113
 31
0.0
  0
LINE
  5
67E
  8
LAYER_1
 10
85.97399299999999
 20
159.176113
 30
0.0
 11
84.977763
 21
159.213564
 31
0.0
  0
LINE
  5
67F
  8
LAYER_1
 10
84.977763
 20
159.213564
 30
0.0
 11
85.36115100000001
 21
157.939658
 31
0.0
  0
LINE
  5
680
  8
LAYER_1
 10
85.36115100000001
 20
157.939658
 30
0.0
 11
86.095038
 21
156.243426
 31
0.0
  0
LINE
  5
681
  8
LAYER_1
 10
86.095038
 20
156.243426
 30
0.0
 11
86.523786
 21
155.921424
 31
0.0
  0
LINE
  5
682
  8
LAYER_1
 10
86.523786
 20
155.921424
 30
0.0
 11
86.934057
 21
155.935964
 31
0.0
  0
LINE
  5
683
  8
LAYER_1
 10
86.934057
 20
155.935964
 30
0.0
 11
87.25817600000001
 21
156.256198
 31
0.0
  0
LINE
  5
684
  8
LAYER_1
 10
87.25817600000001
 20
156.256198
 30
0.0
 11
87.428471
 21
156.851277
 31
0.0
  0
LINE
  5
685
  8
LAYER_1
 10
87.428471
 20
156.851277
 30
0.0
 11
87.428471
 21
156.851277
 31
0.0
  0
LINE
  5
686
  8
LAYER_1
 10
78.087525
 20
158.698125
 30
0.0
 11
79.212619
 21
158.918746
 31
0.0
  0
LINE
  5
687
  8
LAYER_1
 10
79.212619
 20
158.918746
 30
0.0
 11
79.689092
 21
159.233921
 31
0.0
  0
LINE
  5
688
  8
LAYER_1
 10
79.689092
 20
159.233921
 30
0.0
 11
79.624365
 21
159.899526
 31
0.0
  0
LINE
  5
689
  8
LAYER_1
 10
79.624365
 20
159.899526
 30
0.0
 11
79.12586
 21
161.171441
 31
0.0
  0
LINE
  5
68A
  8
LAYER_1
 10
79.12586
 20
161.171441
 30
0.0
 11
78.753856
 21
162.331332
 31
0.0
  0
LINE
  5
68B
  8
LAYER_1
 10
78.753856
 20
162.331332
 30
0.0
 11
78.79853199999999
 21
162.536084
 31
0.0
  0
LINE
  5
68C
  8
LAYER_1
 10
78.79853199999999
 20
162.536084
 30
0.0
 11
78.996977
 21
162.490867
 31
0.0
  0
LINE
  5
68D
  8
LAYER_1
 10
78.996977
 20
162.490867
 30
0.0
 11
79.72521500000001
 21
160.921991
 31
0.0
  0
LINE
  5
68E
  8
LAYER_1
 10
79.72521500000001
 20
160.921991
 30
0.0
 11
80.119771
 21
159.927738
 31
0.0
  0
LINE
  5
68F
  8
LAYER_1
 10
80.119771
 20
159.927738
 30
0.0
 11
80.41176299999999
 21
159.514199
 31
0.0
  0
LINE
  5
690
  8
LAYER_1
 10
80.41176299999999
 20
159.514199
 30
0.0
 11
81.949153
 21
160.525113
 31
0.0
  0
LINE
  5
691
  8
LAYER_1
 10
81.949153
 20
160.525113
 30
0.0
 11
83.25188900000001
 21
161.718117
 31
0.0
  0
LINE
  5
692
  8
LAYER_1
 10
83.25188900000001
 20
161.718117
 30
0.0
 11
83.023673
 21
162.294373
 31
0.0
  0
LINE
  5
693
  8
LAYER_1
 10
83.023673
 20
162.294373
 30
0.0
 11
82.408177
 21
163.182829
 31
0.0
  0
LINE
  5
694
  8
LAYER_1
 10
82.408177
 20
163.182829
 30
0.0
 11
80.430262
 21
165.459085
 31
0.0
  0
LINE
  5
695
  8
LAYER_1
 10
80.430262
 20
165.459085
 30
0.0
 11
78.147977
 21
167.672377
 31
0.0
  0
LINE
  5
696
  8
LAYER_1
 10
78.147977
 20
167.672377
 30
0.0
 11
76.391155
 21
168.948199
 31
0.0
  0
LINE
  5
697
  8
LAYER_1
 10
76.391155
 20
168.948199
 30
0.0
 11
74.36188900000001
 21
169.837521
 31
0.0
  0
LINE
  5
698
  8
LAYER_1
 10
74.36188900000001
 20
169.837521
 30
0.0
 11
72.020268
 21
170.705387
 31
0.0
  0
LINE
  5
699
  8
LAYER_1
 10
72.020268
 20
170.705387
 30
0.0
 11
69.78965
 21
170.854136
 31
0.0
  0
LINE
  5
69A
  8
LAYER_1
 10
69.78965
 20
170.854136
 30
0.0
 11
68.218504
 21
170.733533
 31
0.0
  0
LINE
  5
69B
  8
LAYER_1
 10
68.218504
 20
170.733533
 30
0.0
 11
66.425899
 21
170.387271
 31
0.0
  0
LINE
  5
69C
  8
LAYER_1
 10
66.425899
 20
170.387271
 30
0.0
 11
61.260174
 21
168.796795
 31
0.0
  0
LINE
  5
69D
  8
LAYER_1
 10
61.260174
 20
168.796795
 30
0.0
 11
59.056308
 21
168.009091
 31
0.0
  0
LINE
  5
69E
  8
LAYER_1
 10
59.056308
 20
168.009091
 30
0.0
 11
57.872759
 21
167.471294
 31
0.0
  0
LINE
  5
69F
  8
LAYER_1
 10
57.872759
 20
167.471294
 30
0.0
 11
57.463871
 21
167.032799
 31
0.0
  0
LINE
  5
6A0
  8
LAYER_1
 10
57.463871
 20
167.032799
 30
0.0
 11
57.583987
 21
166.542997
 31
0.0
  0
LINE
  5
6A1
  8
LAYER_1
 10
57.583987
 20
166.542997
 30
0.0
 11
57.699412
 21
165.967573
 31
0.0
  0
LINE
  5
6A2
  8
LAYER_1
 10
57.699412
 20
165.967573
 30
0.0
 11
57.391946
 21
165.28349
 31
0.0
  0
LINE
  5
6A3
  8
LAYER_1
 10
57.391946
 20
165.28349
 30
0.0
 11
57.137674
 21
164.857234
 31
0.0
  0
LINE
  5
6A4
  8
LAYER_1
 10
57.137674
 20
164.857234
 30
0.0
 11
57.083701
 21
164.5519
 31
0.0
  0
LINE
  5
6A5
  8
LAYER_1
 10
57.083701
 20
164.5519
 30
0.0
 11
57.671891
 21
163.798947
 31
0.0
  0
LINE
  5
6A6
  8
LAYER_1
 10
57.671891
 20
163.798947
 30
0.0
 11
58.151278
 21
163.387981
 31
0.0
  0
LINE
  5
6A7
  8
LAYER_1
 10
58.151278
 20
163.387981
 30
0.0
 11
58.70615
 21
163.147248
 31
0.0
  0
LINE
  5
6A8
  8
LAYER_1
 10
58.70615
 20
163.147248
 30
0.0
 11
60.924872
 21
162.944742
 31
0.0
  0
LINE
  5
6A9
  8
LAYER_1
 10
60.924872
 20
162.944742
 30
0.0
 11
63.116292
 21
162.968757
 31
0.0
  0
LINE
  5
6AA
  8
LAYER_1
 10
63.116292
 20
162.968757
 30
0.0
 11
64.375981
 21
163.363295
 31
0.0
  0
LINE
  5
6AB
  8
LAYER_1
 10
64.375981
 20
163.363295
 30
0.0
 11
65.624709
 21
163.759225
 31
0.0
  0
LINE
  5
6AC
  8
LAYER_1
 10
65.624709
 20
163.759225
 30
0.0
 11
67.68628099999999
 21
163.823701
 31
0.0
  0
LINE
  5
6AD
  8
LAYER_1
 10
67.68628099999999
 20
163.823701
 30
0.0
 11
70.46678
 21
163.595241
 31
0.0
  0
LINE
  5
6AE
  8
LAYER_1
 10
70.46678
 20
163.595241
 30
0.0
 11
70.979941
 21
163.320574
 31
0.0
  0
LINE
  5
6AF
  8
LAYER_1
 10
70.979941
 20
163.320574
 30
0.0
 11
71.116334
 21
162.881846
 31
0.0
  0
LINE
  5
6B0
  8
LAYER_1
 10
71.116334
 20
162.881846
 30
0.0
 11
71.024165
 21
162.492011
 31
0.0
  0
LINE
  5
6B1
  8
LAYER_1
 10
71.024165
 20
162.492011
 30
0.0
 11
70.741199
 21
162.365157
 31
0.0
  0
LINE
  5
6B2
  8
LAYER_1
 10
70.741199
 20
162.365157
 30
0.0
 11
70.257744
 21
162.501402
 31
0.0
  0
LINE
  5
6B3
  8
LAYER_1
 10
70.257744
 20
162.501402
 30
0.0
 11
69.56411199999999
 21
162.900865
 31
0.0
  0
LINE
  5
6B4
  8
LAYER_1
 10
69.56411199999999
 20
162.900865
 30
0.0
 11
68.639974
 21
163.316647
 31
0.0
  0
LINE
  5
6B5
  8
LAYER_1
 10
68.639974
 20
163.316647
 30
0.0
 11
67.566056
 21
163.432032
 31
0.0
  0
LINE
  5
6B6
  8
LAYER_1
 10
67.566056
 20
163.432032
 30
0.0
 11
66.326999
 21
163.246556
 31
0.0
  0
LINE
  5
6B7
  8
LAYER_1
 10
66.326999
 20
163.246556
 30
0.0
 11
64.907445
 21
162.759754
 31
0.0
  0
LINE
  5
6B8
  8
LAYER_1
 10
64.907445
 20
162.759754
 30
0.0
 11
63.607901
 21
162.300694
 31
0.0
  0
LINE
  5
6B9
  8
LAYER_1
 10
63.607901
 20
162.300694
 30
0.0
 11
62.376742
 21
162.104354
 31
0.0
  0
LINE
  5
6BA
  8
LAYER_1
 10
62.376742
 20
162.104354
 30
0.0
 11
60.97616
 21
162.157826
 31
0.0
  0
LINE
  5
6BB
  8
LAYER_1
 10
60.97616
 20
162.157826
 30
0.0
 11
59.168352
 21
162.4482
 31
0.0
  0
LINE
  5
6BC
  8
LAYER_1
 10
59.168352
 20
162.4482
 30
0.0
 11
57.553443
 21
162.683157
 31
0.0
  0
LINE
  5
6BD
  8
LAYER_1
 10
57.553443
 20
162.683157
 30
0.0
 11
57.232087
 21
162.612639
 31
0.0
  0
LINE
  5
6BE
  8
LAYER_1
 10
57.232087
 20
162.612639
 30
0.0
 11
57.083026
 21
162.414325
 31
0.0
  0
LINE
  5
6BF
  8
LAYER_1
 10
57.083026
 20
162.414325
 30
0.0
 11
57.131716
 21
161.925473
 31
0.0
  0
LINE
  5
6C0
  8
LAYER_1
 10
57.131716
 20
161.925473
 30
0.0
 11
57.556535
 21
161.408046
 31
0.0
  0
LINE
  5
6C1
  8
LAYER_1
 10
57.556535
 20
161.408046
 30
0.0
 11
58.261302
 21
160.945487
 31
0.0
  0
LINE
  5
6C2
  8
LAYER_1
 10
58.261302
 20
160.945487
 30
0.0
 11
59.149841
 21
160.621238
 31
0.0
  0
LINE
  5
6C3
  8
LAYER_1
 10
59.149841
 20
160.621238
 30
0.0
 11
62.481037
 21
160.062712
 31
0.0
  0
LINE
  5
6C4
  8
LAYER_1
 10
62.481037
 20
160.062712
 30
0.0
 11
64.3544
 21
159.719427
 31
0.0
  0
LINE
  5
6C5
  8
LAYER_1
 10
64.3544
 20
159.719427
 30
0.0
 11
65.726592
 21
159.307888
 31
0.0
  0
LINE
  5
6C6
  8
LAYER_1
 10
65.726592
 20
159.307888
 30
0.0
 11
67.960407
 21
158.788067
 31
0.0
  0
LINE
  5
6C7
  8
LAYER_1
 10
67.960407
 20
158.788067
 30
0.0
 11
71.361205
 21
158.483764
 31
0.0
  0
LINE
  5
6C8
  8
LAYER_1
 10
71.361205
 20
158.483764
 30
0.0
 11
75.03493
 21
158.439082
 31
0.0
  0
LINE
  5
6C9
  8
LAYER_1
 10
75.03493
 20
158.439082
 30
0.0
 11
78.087525
 21
158.698125
 31
0.0
  0
LINE
  5
6CA
  8
LAYER_1
 10
78.087525
 20
158.698125
 30
0.0
 11
78.087525
 21
158.698125
 31
0.0
  0
LINE
  5
6CB
  8
LAYER_1
 10
59.263001
 20
164.869916
 30
0.0
 11
59.47523
 21
165.203698
 31
0.0
  0
LINE
  5
6CC
  8
LAYER_1
 10
59.47523
 20
165.203698
 30
0.0
 11
59.985484
 21
165.619021
 31
0.0
  0
LINE
  5
6CD
  8
LAYER_1
 10
59.985484
 20
165.619021
 30
0.0
 11
60.662615
 21
165.945909
 31
0.0
  0
LINE
  5
6CE
  8
LAYER_1
 10
60.662615
 20
165.945909
 30
0.0
 11
61.147765
 21
165.652608
 31
0.0
  0
LINE
  5
6CF
  8
LAYER_1
 10
61.147765
 20
165.652608
 30
0.0
 11
61.402221
 21
165.251141
 31
0.0
  0
LINE
  5
6D0
  8
LAYER_1
 10
61.402221
 20
165.251141
 30
0.0
 11
61.396406
 21
164.903503
 31
0.0
  0
LINE
  5
6D1
  8
LAYER_1
 10
61.396406
 20
164.903503
 30
0.0
 11
60.963179
 21
164.683295
 31
0.0
  0
LINE
  5
6D2
  8
LAYER_1
 10
60.963179
 20
164.683295
 30
0.0
 11
60.240919
 21
164.600794
 31
0.0
  0
LINE
  5
6D3
  8
LAYER_1
 10
60.240919
 20
164.600794
 30
0.0
 11
59.563051
 21
164.661251
 31
0.0
  0
LINE
  5
6D4
  8
LAYER_1
 10
59.563051
 20
164.661251
 30
0.0
 11
59.263001
 21
164.869916
 31
0.0
  0
LINE
  5
6D5
  8
LAYER_1
 10
59.263001
 20
164.869916
 30
0.0
 11
59.263001
 21
164.869916
 31
0.0
  0
LINE
  5
6D6
  8
LAYER_1
 10
66.089843
 20
166.577027
 30
0.0
 11
65.476974
 21
167.099192
 31
0.0
  0
LINE
  5
6D7
  8
LAYER_1
 10
65.476974
 20
167.099192
 30
0.0
 11
65.31227199999999
 21
167.677029
 31
0.0
  0
LINE
  5
6D8
  8
LAYER_1
 10
65.31227199999999
 20
167.677029
 30
0.0
 11
65.600166
 21
168.355686
 31
0.0
  0
LINE
  5
6D9
  8
LAYER_1
 10
65.600166
 20
168.355686
 30
0.0
 11
66.34508200000001
 21
169.18031
 31
0.0
  0
LINE
  5
6DA
  8
LAYER_1
 10
66.34508200000001
 20
169.18031
 30
0.0
 11
66.871641
 21
169.572629
 31
0.0
  0
LINE
  5
6DB
  8
LAYER_1
 10
66.871641
 20
169.572629
 30
0.0
 11
67.443595
 21
169.822678
 31
0.0
  0
LINE
  5
6DC
  8
LAYER_1
 10
67.443595
 20
169.822678
 30
0.0
 11
68.633049
 21
169.909931
 31
0.0
  0
LINE
  5
6DD
  8
LAYER_1
 10
68.633049
 20
169.909931
 30
0.0
 11
69.732157
 21
169.470005
 31
0.0
  0
LINE
  5
6DE
  8
LAYER_1
 10
69.732157
 20
169.470005
 30
0.0
 11
70.191181
 21
169.06108
 31
0.0
  0
LINE
  5
6DF
  8
LAYER_1
 10
70.191181
 20
169.06108
 30
0.0
 11
70.559636
 21
168.530837
 31
0.0
  0
LINE
  5
6E0
  8
LAYER_1
 10
70.559636
 20
168.530837
 30
0.0
 11
70.69869199999999
 21
167.975232
 31
0.0
  0
LINE
  5
6E1
  8
LAYER_1
 10
70.69869199999999
 20
167.975232
 30
0.0
 11
70.54491400000001
 21
167.418561
 31
0.0
  0
LINE
  5
6E2
  8
LAYER_1
 10
70.54491400000001
 20
167.418561
 30
0.0
 11
70.115751
 21
166.89321
 31
0.0
  0
LINE
  5
6E3
  8
LAYER_1
 10
70.115751
 20
166.89321
 30
0.0
 11
69.428651
 21
166.431564
 31
0.0
  0
LINE
  5
6E4
  8
LAYER_1
 10
69.428651
 20
166.431564
 30
0.0
 11
68.589257
 21
166.113569
 31
0.0
  0
LINE
  5
6E5
  8
LAYER_1
 10
68.589257
 20
166.113569
 30
0.0
 11
67.75520400000001
 21
166.031718
 31
0.0
  0
LINE
  5
6E6
  8
LAYER_1
 10
67.75520400000001
 20
166.031718
 30
0.0
 11
66.92317199999999
 21
166.186156
 31
0.0
  0
LINE
  5
6E7
  8
LAYER_1
 10
66.92317199999999
 20
166.186156
 30
0.0
 11
66.089843
 21
166.577027
 31
0.0
  0
LINE
  5
6E8
  8
LAYER_1
 10
66.089843
 20
166.577027
 30
0.0
 11
66.089843
 21
166.577027
 31
0.0
  0
LINE
  5
6E9
  8
LAYER_1
 10
69.070223
 20
168.051421
 30
0.0
 11
68.920097
 21
168.26888
 31
0.0
  0
LINE
  5
6EA
  8
LAYER_1
 10
68.920097
 20
168.26888
 30
0.0
 11
68.70901600000001
 21
168.325782
 31
0.0
  0
LINE
  5
6EB
  8
LAYER_1
 10
68.70901600000001
 20
168.325782
 30
0.0
 11
68.496269
 21
168.227864
 31
0.0
  0
LINE
  5
6EC
  8
LAYER_1
 10
68.496269
 20
168.227864
 30
0.0
 11
68.34115
 21
167.980865
 31
0.0
  0
LINE
  5
6ED
  8
LAYER_1
 10
68.34115
 20
167.980865
 30
0.0
 11
68.41288
 21
167.781546
 31
0.0
  0
LINE
  5
6EE
  8
LAYER_1
 10
68.41288
 20
167.781546
 30
0.0
 11
68.717445
 21
167.698643
 31
0.0
  0
LINE
  5
6EF
  8
LAYER_1
 10
68.717445
 20
167.698643
 30
0.0
 11
69.015102
 21
167.802271
 31
0.0
  0
LINE
  5
6F0
  8
LAYER_1
 10
69.015102
 20
167.802271
 30
0.0
 11
69.070223
 21
168.051421
 31
0.0
  0
LINE
  5
6F1
  8
LAYER_1
 10
69.070223
 20
168.051421
 30
0.0
 11
69.070223
 21
168.051421
 31
0.0
  0
ENDSEC
  0
EOF
