  0
SECTION
  2
HEADER
  9
$ACADVER
  1
AC1015
  9
$ACADMAINTVER
 70
     6
  9
$DWGCODEPAGE
  3
ANSI_1252
  9
$INSBASE
 10
0.0
 20
0.0
 30
0.0
  9
$EXTMIN
 10
1.000000E+20
 20
1.000000E+20
 30
1.000000E+20
  9
$EXTMAX
 10
-1.000000E+20
 20
-1.000000E+20
 30
-1.000000E+20
  9
$LIMMIN
 10
0.0
 20
0.0
  9
$LIMMAX
 10
420.0
 20
297.0
  9
$ORTHOMODE
 70
     0
  9
$REGENMODE
 70
     1
  9
$FILLMODE
 70
     1
  9
$QTEXTMODE
 70
     0
  9
$MIRRTEXT
 70
     1
  9
$LTSCALE
 40
1.0
  9
$ATTMODE
 70
     1
  9
$TEXTSIZE
 40
2.5
  9
$TRACEWID
 40
1.0
  9
$TEXTSTYLE
  7
Standard
  9
$CLAYER
  8
0
  9
$CELTYPE
  6
ByLayer
  9
$CECOLOR
 62
   256
  9
$CELTSCALE
 40
1.0
  9
$DISPSILH
 70
     0
  9
$DIMSCALE
 40
1.0
  9
$DIMASZ
 40
2.5
  9
$DIMEXO
 40
0.625
  9
$DIMDLI
 40
3.75
  9
$DIMRND
 40
0.0
  9
$DIMDLE
 40
0.0
  9
$DIMEXE
 40
1.25
  9
$DIMTP
 40
0.0
  9
$DIMTM
 40
0.0
  9
$DIMTXT
 40
2.5
  9
$DIMCEN
 40
2.5
  9
$DIMTSZ
 40
0.0
  9
$DIMTOL
 70
     0
  9
$DIMLIM
 70
     0
  9
$DIMTIH
 70
     0
  9
$DIMTOH
 70
     0
  9
$DIMSE1
 70
     0
  9
$DIMSE2
 70
     0
  9
$DIMTAD
 70
     1
  9
$DIMZIN
 70
     8
  9
$DIMBLK
  1

  9
$DIMASO
 70
     1
  9
$DIMSHO
 70
     1
  9
$DIMPOST
  1

  9
$DIMAPOST
  1

  9
$DIMALT
 70
     0
  9
$DIMALTD
 70
     3
  9
$DIMALTF
 40
0.03937
  9
$DIMLFAC
 40
1.0
  9
$DIMTOFL
 70
     1
  9
$DIMTVP
 40
0.0
  9
$DIMTIX
 70
     0
  9
$DIMSOXD
 70
     0
  9
$DIMSAH
 70
     0
  9
$DIMBLK1
  1

  9
$DIMBLK2
  1

  9
$DIMSTYLE
  2
ISO-25
  9
$DIMCLRD
 70
     0
  9
$DIMCLRE
 70
     0
  9
$DIMCLRT
 70
     0
  9
$DIMTFAC
 40
1.0
  9
$DIMGAP
 40
0.625
  9
$DIMJUST
 70
     0
  9
$DIMSD1
 70
     0
  9
$DIMSD2
 70
     0
  9
$DIMTOLJ
 70
     0
  9
$DIMTZIN
 70
     8
  9
$DIMALTZ
 70
     0
  9
$DIMALTTZ
 70
     0
  9
$DIMUPT
 70
     0
  9
$DIMDEC
 70
     2
  9
$DIMTDEC
 70
     2
  9
$DIMALTU
 70
     2
  9
$DIMALTTD
 70
     3
  9
$DIMTXSTY
  7
Standard
  9
$DIMAUNIT
 70
     0
  9
$DIMADEC
 70
     0
  9
$DIMALTRND
 40
0.0
  9
$DIMAZIN
 70
     0
  9
$DIMDSEP
 70
    44
  9
$DIMATFIT
 70
     3
  9
$DIMFRAC
 70
     0
  9
$DIMLDRBLK
  1

  9
$DIMLUNIT
 70
     2
  9
$DIMLWD
 70
    -2
  9
$DIMLWE
 70
    -2
  9
$DIMTMOVE
 70
     0
  9
$LUNITS
 70
     2
  9
$LUPREC
 70
     4
  9
$SKETCHINC
 40
1.0
  9
$FILLETRAD
 40
10.0
  9
$AUNITS
 70
     0
  9
$AUPREC
 70
     0
  9
$MENU
  1
.
  9
$ELEVATION
 40
0.0
  9
$PELEVATION
 40
0.0
  9
$THICKNESS
 40
0.0
  9
$LIMCHECK
 70
     0
  9
$CHAMFERA
 40
10.0
  9
$CHAMFERB
 40
10.0
  9
$CHAMFERC
 40
20.0
  9
$CHAMFERD
 40
0.0
  9
$SKPOLY
 70
     0
  9
$TDCREATE
 40
2455182.653768866
  9
$TDUCREATE
 40
2455182.903768866
  9
$TDUPDATE
 40
2455182.653768878
  9
$TDUUPDATE
 40
2455182.903768878
  9
$TDINDWG
 40
0.0000000116
  9
$TDUSRTIMER
 40
0.0000000116
  9
$USRTIMER
 70
     1
  9
$ANGBASE
 50
0.0
  9
$ANGDIR
 70
     0
  9
$PDMODE
 70
     3
  9
$PDSIZE
 40
-0.7
  9
$PLINEWID
 40
0.0
  9
$SPLFRAME
 70
     0
  9
$SPLINETYPE
 70
     6
  9
$SPLINESEGS
 70
     8
  9
$HANDSEED
  5
57
  9
$SURFTAB1
 70
     6
  9
$SURFTAB2
 70
     6
  9
$SURFTYPE
 70
     6
  9
$SURFU
 70
     6
  9
$SURFV
 70
     6
  9
$UCSBASE
  2

  9
$UCSNAME
  2

  9
$UCSORG
 10
0.0
 20
0.0
 30
0.0
  9
$UCSXDIR
 10
1.0
 20
0.0
 30
0.0
  9
$UCSYDIR
 10
0.0
 20
1.0
 30
0.0
  9
$UCSORTHOREF
  2

  9
$UCSORTHOVIEW
 70
     0
  9
$UCSORGTOP
 10
0.0
 20
0.0
 30
0.0
  9
$UCSORGBOTTOM
 10
0.0
 20
0.0
 30
0.0
  9
$UCSORGLEFT
 10
0.0
 20
0.0
 30
0.0
  9
$UCSORGRIGHT
 10
0.0
 20
0.0
 30
0.0
  9
$UCSORGFRONT
 10
0.0
 20
0.0
 30
0.0
  9
$UCSORGBACK
 10
0.0
 20
0.0
 30
0.0
  9
$PUCSBASE
  2

  9
$PUCSNAME
  2

  9
$PUCSORG
 10
0.0
 20
0.0
 30
0.0
  9
$PUCSXDIR
 10
1.0
 20
0.0
 30
0.0
  9
$PUCSYDIR
 10
0.0
 20
1.0
 30
0.0
  9
$PUCSORTHOREF
  2

  9
$PUCSORTHOVIEW
 70
     0
  9
$PUCSORGTOP
 10
0.0
 20
0.0
 30
0.0
  9
$PUCSORGBOTTOM
 10
0.0
 20
0.0
 30
0.0
  9
$PUCSORGLEFT
 10
0.0
 20
0.0
 30
0.0
  9
$PUCSORGRIGHT
 10
0.0
 20
0.0
 30
0.0
  9
$PUCSORGFRONT
 10
0.0
 20
0.0
 30
0.0
  9
$PUCSORGBACK
 10
0.0
 20
0.0
 30
0.0
  9
$USERI1
 70
     0
  9
$USERI2
 70
     0
  9
$USERI3
 70
     0
  9
$USERI4
 70
     0
  9
$USERI5
 70
     0
  9
$USERR1
 40
0.0
  9
$USERR2
 40
0.0
  9
$USERR3
 40
0.0
  9
$USERR4
 40
0.0
  9
$USERR5
 40
0.0
  9
$WORLDVIEW
 70
     1
  9
$SHADEDGE
 70
     3
  9
$SHADEDIF
 70
    70
  9
$TILEMODE
 70
     1
  9
$MAXACTVP
 70
    64
  9
$PINSBASE
 10
0.0
 20
0.0
 30
0.0
  9
$PLIMCHECK
 70
     0
  9
$PEXTMIN
 10
1.000000E+20
 20
1.000000E+20
 30
1.000000E+20
  9
$PEXTMAX
 10
-1.000000E+20
 20
-1.000000E+20
 30
-1.000000E+20
  9
$PLIMMIN
 10
0.0
 20
0.0
  9
$PLIMMAX
 10
420.0
 20
297.0
  9
$UNITMODE
 70
     0
  9
$VISRETAIN
 70
     1
  9
$PLINEGEN
 70
     0
  9
$PSLTSCALE
 70
     1
  9
$TREEDEPTH
 70
  3020
  9
$CMLSTYLE
  2
Standard
  9
$CMLJUST
 70
     1
  9
$CMLSCALE
 40
1.0
  9
$PROXYGRAPHICS
 70
     1
  9
$MEASUREMENT
 70
     1
  9
$CELWEIGHT
370
    -1
  9
$ENDCAPS
280
     0
  9
$JOINSTYLE
280
     0
  9
$LWDISPLAY
290
     0
  9
$INSUNITS
 70
     4
  9
$HYPERLINKBASE
  1

  9
$STYLESHEET
  1

  9
$XEDIT
290
     1
  9
$CEPSNTYPE
380
     0
  9
$PSTYLEMODE
290
     1
  9
$FINGERPRINTGUID
  2
{FAEB1C30-E019-11D5-929B-00C0DF256EC4}
  9
$VERSIONGUID
  2
{FAEB1C32-E019-11D5-929B-00C0DF256EC4}
  9
$EXTNAMES
290
     1
  9
$PSVPSCALE
 40
0.0
  9
$OLESTARTUP
290
     0
  0
ENDSEC
  0
SECTION
  2
CLASSES
  0
CLASS
  1
ACDBDICTIONARYWDFLT
  2
AcDbDictionaryWithDefault
  3
ObjectDBX Classes
 90
        0
280
     0
281
     0
  0
CLASS
  1
ACDBPLACEHOLDER
  2
AcDbPlaceHolder
  3
ObjectDBX Classes
 90
        0
280
     0
281
     0
  0
CLASS
  1
LAYOUT
  2
AcDbLayout
  3
ObjectDBX Classes
 90
        0
280
     0
281
     0
  0
ENDSEC
  0
SECTION
  2
TABLES
  0
TABLE
  2
VPORT
  5
8
330
0
100
AcDbSymbolTable
 70
     2
  0
VPORT
  5
29
330
8
100
AcDbSymbolTableRecord
100
AcDbViewportTableRecord
  2
*Active
 70
     0
 10
0.0
 20
0.0
 11
1.0
 21
1.0
 12
50.0
 22
50.0
 13
0.0
 23
0.0
 14
10.0
 24
10.0
 15
10.0
 25
10.0
 16
0.0
 26
0.0
 36
1.0
 17
0.0
 27
0.0
 37
0.0
 40
103.921569
 41
1.0
 42
50.0
 43
0.0
 44
0.0
 50
0.0
 51
0.0
 71
     0
 72
   100
 73
     1
 74
     3
 75
     0
 76
     0
 77
     0
 78
     0
281
     0
 65
     1
110
0.0
120
0.0
130
0.0
111
1.0
121
0.0
131
0.0
112
0.0
122
1.0
132
0.0
 79
     0
146
0.0
  0
ENDTAB
  0
TABLE
  2
LTYPE
  5
5
330
0
100
AcDbSymbolTable
 70
     1
  0
LTYPE
  5
14
330
5
100
AcDbSymbolTableRecord
100
AcDbLinetypeTableRecord
  2
ByBlock
 70
     0
  3

 72
    65
 73
     0
 40
0.0
  0
LTYPE
  5
15
330
5
100
AcDbSymbolTableRecord
100
AcDbLinetypeTableRecord
  2
ByLayer
 70
     0
  3

 72
    65
 73
     0
 40
0.0
  0
LTYPE
  5
16
330
5
100
AcDbSymbolTableRecord
100
AcDbLinetypeTableRecord
  2
Continuous
 70
     0
  3

 72
    65
 73
     0
 40
0.0
  0
ENDTAB
  0
TABLE
  2
LAYER
  5
2
330
0
100
AcDbSymbolTable
 70
     1
  0
LAYER
  5
10
330
2
100
AcDbSymbolTableRecord
100
AcDbLayerTableRecord
  2
0
 70
     0
 62
     7
  6
Continuous
370
    -3
390
F
  0
ENDTAB
  0
TABLE
  2
STYLE
  5
3
330
0
100
AcDbSymbolTable
 70
     1
  0
STYLE
  5
11
330
3
100
AcDbSymbolTableRecord
100
AcDbTextStyleTableRecord
  2
Standard
 70
     0
 40
1.0
 41
1.0
 50
0.0
 71
     0
 42
2.5
  3
RomanS
  4

  0
ENDTAB
  0
TABLE
  2
VIEW
  5
6
330
0
100
AcDbSymbolTable
 70
     0
  0
ENDTAB
  0
TABLE
  2
UCS
  5
7
330
0
100
AcDbSymbolTable
 70
     0
  0
ENDTAB
  0
TABLE
  2
APPID
  5
9
330
0
100
AcDbSymbolTable
 70
     1
  0
APPID
  5
12
330
9
100
AcDbSymbolTableRecord
100
AcDbRegAppTableRecord
  2
ACAD
 70
     0
  0
ENDTAB
  0
TABLE
  2
DIMSTYLE
  5
A
330
0
100
AcDbSymbolTable
 70
     1
100
AcDbDimStyleTable
  0
DIMSTYLE
105
27
330
A
100
AcDbSymbolTableRecord
100
AcDbDimStyleTableRecord
  2
ISO-25
 70
     0
 41
2.5
 42
0.625
 44
1.25
 73
     0
 74
     0
 77
     1
 78
     8
 79
     2
140
2.5
141
2.5
146
0.0
147
0.625
271
     2
272
     0
273
     0
274
     0
278
    44
283
     0
289
     0
340
11
  0
ENDTAB
  0
TABLE
  2
BLOCK_RECORD
  5
1
330
0
100
AcDbSymbolTable
 70
     1
  0
BLOCK_RECORD
  5
1F
330
1
100
AcDbSymbolTableRecord
100
AcDbBlockTableRecord
  2
*Model_Space
340
22
  0
BLOCK_RECORD
  5
1B
330
1
100
AcDbSymbolTableRecord
100
AcDbBlockTableRecord
  2
*Paper_Space
340
1E
  0
BLOCK_RECORD
  5
23
330
1
100
AcDbSymbolTableRecord
100
AcDbBlockTableRecord
  2
*Paper_Space0
340
26
  0
ENDTAB
  0
ENDSEC
  0
SECTION
  2
BLOCKS
  0
BLOCK
  5
20
330
1F
100
AcDbEntity
  8
0
100
AcDbBlockBegin
  2
*Model_Space
 70
     0
 71
     0
 10
0.0
 20
0.0
 30
0.0
  3
*Model_Space
  1

  0
ENDBLK
  5
21
330
1F
100
AcDbEntity
  8
0
100
AcDbBlockEnd
  0
BLOCK
  5
1C
330
1B
100
AcDbEntity
 67
     1
  8
0
100
AcDbBlockBegin
  2
*Paper_Space
 70
     0
 71
     0
 10
0.0
 20
0.0
 30
0.0
  3
*Paper_Space
  1

  0
ENDBLK
  5
1D
330
1B
100
AcDbEntity
 67
     1
  8
0
100
AcDbBlockEnd
  0
BLOCK
  5
24
330
23
100
AcDbEntity
  8
0
100
AcDbBlockBegin
  2
*Paper_Space0
 70
     0
 71
     0
 10
0.0
 20
0.0
 30
0.0
  3
*Paper_Space0
  1

  0
ENDBLK
  5
25
330
23
100
AcDbEntity
  8
0
100
AcDbBlockEnd
  0
ENDSEC
  0
SECTION
  2
ENTITIES
  0
LWPOLYLINE
  5
2A
330
1F
100
AcDbEntity
  8
0
100
AcDbPolyline
 90
       59
 70
   128
 43
0.0
 10
2.014564
 20
1.334421
 10
2.002993
 20
1.348252
 10
1.992435
 20
1.360264
 10
1.982738
 20
1.370464
 10
1.97375
 20
1.378859
 10
1.965316
 20
1.385457
 10
1.961261
 20
1.388083
 10
1.957286
 20
1.390263
 10
1.953375
 20
1.391998
 10
1.949507
 20
1.393287
 10
1.945664
 20
1.394132
 10
1.941827
 20
1.394534
 10
1.937975
 20
1.394494
 10
1.934092
 20
1.394013
 10
1.930156
 20
1.393091
 10
1.92615
 20
1.391729
 10
1.922055
 20
1.389929
 10
1.91785
 20
1.387691
 10
1.909038
 20
1.381906
 10
1.899563
 20
1.37438
 10
1.889271
 20
1.365121
 10
1.87801
 20
1.354136
 10
1.865628
 20
1.341433
 10
1.84845
 20
1.32317
 10
1.834761
 20
1.307973
 10
1.825947
 20
1.297428
 10
1.823801
 20
1.294394
 10
1.823394
 20
1.293118
 10
1.86302
 20
1.26393
 10
1.873718
 20
1.2564
 10
1.883796
 20
1.25031
 10
1.893694
 20
1.245529
 10
1.898714
 20
1.24359
 10
1.903854
 20
1.24193
 10
1.914717
 20
1.239382
 10
1.926723
 20
1.237758
 10
1.940315
 20
1.236927
 10
1.955932
 20
1.236762
 10
1.967726
 20
1.237162
 10
1.979859
 20
1.238148
 10
1.991985
 20
1.239654
 10
2.003756
 20
1.241616
 10
2.014827
 20
1.243967
 10
2.02485
 20
1.246643
 10
2.033481
 20
1.249578
 10
2.040373
 20
1.252706
 10
2.049718
 20
1.257961
 10
2.05329
 20
1.260342
 10
2.056077
 20
1.262719
 10
2.058042
 20
1.265209
 10
2.059146
 20
1.267935
 10
2.059353
 20
1.271015
 10
2.058623
 20
1.274568
 10
2.05692
 20
1.278715
 10
2.054206
 20
1.283576
 10
2.050443
 20
1.289269
 10
2.045592
 20
1.295915
 10
2.032479
 20
1.312545
 10
2.014564
 20
1.334421
  0
LWPOLYLINE
  5
2B
330
1F
100
AcDbEntity
  8
0
100
AcDbPolyline
 90
      100
 70
   128
 43
0.0
 10
1.42926
 20
1.281652
 10
1.435169
 20
1.283342
 10
1.441771
 20
1.285928
 10
1.448841
 20
1.28928
 10
1.456159
 20
1.293269
 10
1.463502
 20
1.297768
 10
1.470648
 20
1.302648
 10
1.477375
 20
1.307779
 10
1.483459
 20
1.313033
 10
1.491008
 20
1.320503
 10
1.497121
 20
1.32774
 10
1.499679
 20
1.331381
 10
1.501928
 20
1.335095
 10
1.503884
 20
1.338926
 10
1.505564
 20
1.342919
 10
1.506984
 20
1.347115
 10
1.508161
 20
1.351561
 10
1.509851
 20
1.361373
 10
1.510768
 20
1.372706
 10
1.511044
 20
1.38591
 10
1.510774
 20
1.397067
 10
1.50996
 20
1.407598
 10
1.508595
 20
1.417512
 10
1.506673
 20
1.42682
 10
1.504186
 20
1.43553
 10
1.50113
 20
1.443653
 10
1.497496
 20
1.451198
 10
1.493278
 20
1.458175
 10
1.488471
 20
1.464594
 10
1.483066
 20
1.470465
 10
1.477059
 20
1.475797
 10
1.470441
 20
1.4806
 10
1.463208
 20
1.484884
 10
1.455351
 20
1.488658
 10
1.446865
 20
1.491932
 10
1.437742
 20
1.494717
 10
1.425716
 20
1.497735
 10
1.415635
 20
1.499637
 10
1.406975
 20
1.500332
 10
1.403014
 20
1.500199
 10
1.399212
 20
1.499731
 10
1.395502
 20
1.498916
 10
1.39182
 20
1.497743
 10
1.384276
 20
1.49428
 10
1.376055
 20
1.489251
 10
1.366631
 20
1.482568
 10
1.35826
 20
1.47699
 10
1.349093
 20
1.472066
 10
1.339063
 20
1.467776
 10
1.328104
 20
1.4641
 10
1.316148
 20
1.461018
 10
1.303129
 20
1.458512
 10
1.288979
 20
1.45656
 10
1.273631
 20
1.455144
 10
1.254836
 20
1.453649
 10
1.240243
 20
1.452057
 10
1.229331
 20
1.450131
 10
1.225091
 20
1.44897
 10
1.221575
 20
1.447637
 10
1.218718
 20
1.446103
 10
1.216453
 20
1.44434
 10
1.214717
 20
1.442316
 10
1.213442
 20
1.440003
 10
1.212565
 20
1.437372
 10
1.212019
 20
1.434393
 10
1.211661
 20
1.427274
 10
1.211988
 20
1.419691
 10
1.212948
 20
1.412036
 10
1.214513
 20
1.404333
 10
1.216654
 20
1.396608
 10
1.219342
 20
1.388886
 10
1.222547
 20
1.381191
 10
1.226241
 20
1.373549
 10
1.230394
 20
1.365983
 10
1.234978
 20
1.35852
 10
1.239963
 20
1.351184
 10
1.24532
 20
1.344
 10
1.25102
 20
1.336993
 10
1.257035
 20
1.330188
 10
1.263334
 20
1.32361
 10
1.26989
 20
1.317283
 10
1.276672
 20
1.311233
 10
1.283652
 20
1.305485
 10
1.290801
 20
1.300063
 10
1.298089
 20
1.294993
 10
1.305488
 20
1.290298
 10
1.312969
 20
1.286005
 10
1.320502
 20
1.282139
 10
1.328059
 20
1.278723
 10
1.335609
 20
1.275783
 10
1.343125
 20
1.273345
 10
1.350578
 20
1.271432
 10
1.357937
 20
1.27007
 10
1.365175
 20
1.269283
 10
1.372261
 20
1.269097
 10
1.379167
 20
1.269537
 10
1.385864
 20
1.270627
 10
1.392323
 20
1.272393
 10
1.407432
 20
1.276533
 10
1.42926
 20
1.281652
  0
LWPOLYLINE
  5
2C
330
1F
100
AcDbEntity
  8
0
100
AcDbPolyline
 90
      109
 70
   128
 43
0.0
 10
2.336465
 20
1.392607
 10
2.340706
 20
1.400843
 10
2.344662
 20
1.409869
 10
2.348247
 20
1.419393
 10
2.351375
 20
1.42912
 10
2.353958
 20
1.438758
 10
2.35591
 20
1.448012
 10
2.357145
 20
1.456588
 10
2.357576
 20
1.464194
 10
2.357319
 20
1.472496
 10
2.356562
 20
1.480788
 10
2.35532
 20
1.489054
 10
2.353612
 20
1.497275
 10
2.351456
 20
1.505433
 10
2.348868
 20
1.513511
 10
2.345867
 20
1.521491
 10
2.34247
 20
1.529354
 10
2.338695
 20
1.537084
 10
2.334559
 20
1.544661
 10
2.33008
 20
1.552069
 10
2.325274
 20
1.559289
 10
2.320161
 20
1.566303
 10
2.314757
 20
1.573095
 10
2.30908
 20
1.579645
 10
2.303148
 20
1.585936
 10
2.296978
 20
1.59195
 10
2.290587
 20
1.59767
 10
2.283993
 20
1.603077
 10
2.277215
 20
1.608153
 10
2.270268
 20
1.612881
 10
2.263172
 20
1.617243
 10
2.255943
 20
1.621222
 10
2.248599
 20
1.624798
 10
2.241157
 20
1.627954
 10
2.233636
 20
1.630673
 10
2.226052
 20
1.632937
 10
2.218424
 20
1.634727
 10
2.210768
 20
1.636026
 10
2.203103
 20
1.636816
 10
2.195446
 20
1.63708
 10
2.187814
 20
1.636798
 10
2.174676
 20
1.635634
 10
2.169201
 20
1.634865
 10
2.164339
 20
1.633856
 10
2.160006
 20
1.632522
 10
2.156114
 20
1.630777
 10
2.152577
 20
1.628536
 10
2.149309
 20
1.625712
 10
2.146224
 20
1.62222
 10
2.143236
 20
1.617974
 10
2.140257
 20
1.612889
 10
2.137203
 20
1.606878
 10
2.13052
 20
1.591736
 10
2.122498
 20
1.571864
 10
2.116661
 20
1.558399
 10
2.109636
 20
1.544259
 10
2.101673
 20
1.529838
 10
2.09302
 20
1.51553
 10
2.083926
 20
1.501729
 10
2.07464
 20
1.488828
 10
2.06541
 20
1.477223
 10
2.056484
 20
1.467305
 10
2.043064
 20
1.45337
 10
2.033132
 20
1.442429
 10
2.029385
 20
1.437827
 10
2.026403
 20
1.433668
 10
2.024152
 20
1.429852
 10
2.022594
 20
1.426277
 10
2.021695
 20
1.42284
 10
2.02142
 20
1.419441
 10
2.021732
 20
1.415978
 10
2.022596
 20
1.412349
 10
2.025837
 20
1.404189
 10
2.03086
 20
1.394149
 10
2.034768
 20
1.387453
 10
2.039837
 20
1.380121
 10
2.045853
 20
1.372392
 10
2.052604
 20
1.364503
 10
2.059877
 20
1.356693
 10
2.06746
 20
1.349199
 10
2.07514
 20
1.342259
 10
2.082704
 20
1.336112
 10
2.093342
 20
1.32842
 10
2.103302
 20
1.322261
 10
2.108195
 20
1.31971
 10
2.11312
 20
1.317485
 10
2.118142
 20
1.315568
 10
2.12333
 20
1.313941
 10
2.128749
 20
1.312584
 10
2.134468
 20
1.311478
 10
2.14707
 20
1.309946
 10
2.16167
 20
1.309193
 10
2.178806
 20
1.30907
 10
2.192306
 20
1.309502
 10
2.205346
 20
1.310586
 10
2.21792
 20
1.312319
 10
2.230022
 20
1.314698
 10
2.241647
 20
1.317721
 10
2.25279
 20
1.321385
 10
2.263445
 20
1.325686
 10
2.273606
 20
1.330622
 10
2.283268
 20
1.336189
 10
2.292425
 20
1.342386
 10
2.301073
 20
1.349208
 10
2.309204
 20
1.356654
 10
2.316815
 20
1.364719
 10
2.323899
 20
1.373402
 10
2.330451
 20
1.382699
 10
2.336465
 20
1.392607
  0
LWPOLYLINE
  5
2D
330
1F
100
AcDbEntity
  8
0
100
AcDbPolyline
 90
       82
 70
   128
 43
0.0
 10
1.82186
 20
1.366397
 10
1.830717
 20
1.374828
 10
1.83404
 20
1.378472
 10
1.836591
 20
1.38181
 10
1.838344
 20
1.384896
 10
1.839273
 20
1.387786
 10
1.839353
 20
1.390534
 10
1.838556
 20
1.393196
 10
1.836857
 20
1.395827
 10
1.83423
 20
1.398483
 10
1.830649
 20
1.401219
 10
1.826089
 20
1.404089
 10
1.813922
 20
1.410455
 10
1.797523
 20
1.418024
 10
1.787933
 20
1.422665
 10
1.777484
 20
1.428343
 10
1.766513
 20
1.434836
 10
1.755357
 20
1.441925
 10
1.74435
 20
1.449388
 10
1.733829
 20
1.457005
 10
1.72413
 20
1.464556
 10
1.71559
 20
1.471819
 10
1.702951
 20
1.483053
 10
1.692903
 20
1.491314
 10
1.688549
 20
1.494399
 10
1.684481
 20
1.496825
 10
1.680578
 20
1.498619
 10
1.67672
 20
1.49981
 10
1.672786
 20
1.500425
 10
1.668656
 20
1.500492
 10
1.664208
 20
1.50004
 10
1.659324
 20
1.499095
 10
1.647761
 20
1.495843
 10
1.633001
 20
1.490958
 10
1.623591
 20
1.487624
 10
1.615295
 20
1.484317
 10
1.608093
 20
1.480984
 10
1.60197
 20
1.477575
 10
1.596907
 20
1.474037
 10
1.592887
 20
1.47032
 10
1.589893
 20
1.46637
 10
1.587907
 20
1.462138
 10
1.586912
 20
1.45757
 10
1.58689
 20
1.452616
 10
1.587823
 20
1.447224
 10
1.589694
 20
1.441343
 10
1.592487
 20
1.43492
 10
1.596182
 20
1.427904
 10
1.600763
 20
1.420244
 10
1.606212
 20
1.411887
 10
1.611384
 20
1.404584
 10
1.616815
 20
1.397627
 10
1.62249
 20
1.39102
 10
1.628391
 20
1.384765
 10
1.634505
 20
1.378867
 10
1.640814
 20
1.373328
 10
1.647303
 20
1.368152
 10
1.653956
 20
1.363342
 10
1.660758
 20
1.358901
 10
1.667692
 20
1.354833
 10
1.674744
 20
1.351142
 10
1.681896
 20
1.34783
 10
1.689134
 20
1.3449
 10
1.696441
 20
1.342357
 10
1.703802
 20
1.340203
 10
1.711201
 20
1.338442
 10
1.718622
 20
1.337076
 10
1.72605
 20
1.336111
 10
1.733468
 20
1.335548
 10
1.74086
 20
1.335391
 10
1.748212
 20
1.335644
 10
1.755507
 20
1.336309
 10
1.76273
 20
1.337391
 10
1.769864
 20
1.338891
 10
1.776894
 20
1.340815
 10
1.783803
 20
1.343165
 10
1.790578
 20
1.345944
 10
1.7972
 20
1.349156
 10
1.803656
 20
1.352804
 10
1.809928
 20
1.356891
 10
1.816001
 20
1.361421
 10
1.82186
 20
1.366397
  0
LWPOLYLINE
  5
2E
330
1F
100
AcDbEntity
  8
0
100
AcDbPolyline
 90
      112
 70
   128
 43
0.0
 10
2.60018
 20
1.440139
 10
2.604959
 20
1.443058
 10
2.61064
 20
1.447065
 10
2.623859
 20
1.457626
 10
2.638143
 20
1.470384
 10
2.651797
 20
1.483903
 10
2.661071
 20
1.494056
 10
2.668308
 20
1.503234
 10
2.67124
 20
1.507699
 10
2.673755
 20
1.512211
 10
2.675884
 20
1.516867
 10
2.677657
 20
1.521763
 10
2.679107
 20
1.526997
 10
2.680263
 20
1.532666
 10
2.681819
 20
1.545695
 10
2.682572
 20
1.561626
 10
2.682768
 20
1.581234
 10
2.682565
 20
1.601379
 10
2.681726
 20
1.617775
 10
2.68096
 20
1.62488
 10
2.679906
 20
1.631421
 10
2.67852
 20
1.637525
 10
2.676759
 20
1.643315
 10
2.67458
 20
1.648917
 10
2.671941
 20
1.654455
 10
2.668797
 20
1.660054
 10
2.665106
 20
1.665839
 10
2.65591
 20
1.678464
 10
2.644007
 20
1.69333
 10
2.635569
 20
1.70318
 10
2.627053
 20
1.712219
 10
2.618431
 20
1.720459
 10
2.609674
 20
1.727911
 10
2.600757
 20
1.734587
 10
2.591651
 20
1.740497
 10
2.582329
 20
1.745653
 10
2.572765
 20
1.750068
 10
2.56293
 20
1.753751
 10
2.552797
 20
1.756715
 10
2.542339
 20
1.758971
 10
2.531529
 20
1.76053
 10
2.520339
 20
1.761404
 10
2.508742
 20
1.761604
 10
2.49671
 20
1.761141
 10
2.484217
 20
1.760028
 10
2.474315
 20
1.758662
 10
2.464755
 20
1.756832
 10
2.455532
 20
1.754535
 10
2.44664
 20
1.751767
 10
2.438073
 20
1.748523
 10
2.429824
 20
1.7448
 10
2.421887
 20
1.740593
 10
2.414257
 20
1.735898
 10
2.406928
 20
1.730713
 10
2.399892
 20
1.725032
 10
2.393145
 20
1.718851
 10
2.386681
 20
1.712167
 10
2.380492
 20
1.704975
 10
2.374574
 20
1.697272
 10
2.368919
 20
1.689054
 10
2.363523
 20
1.680316
 10
2.35706
 20
1.669098
 10
2.352466
 20
1.660107
 10
2.350877
 20
1.656173
 10
2.349763
 20
1.652469
 10
2.349126
 20
1.648883
 10
2.34897
 20
1.645309
 10
2.349297
 20
1.641635
 10
2.350109
 20
1.637753
 10
2.351409
 20
1.633553
 10
2.3532
 20
1.628927
 10
2.358263
 20
1.617957
 10
2.365319
 20
1.603969
 10
2.375231
 20
1.583856
 10
2.383336
 20
1.565764
 10
2.389748
 20
1.549285
 10
2.394578
 20
1.534014
 10
2.396435
 20
1.526705
 10
2.397939
 20
1.519545
 10
2.399102
 20
1.512484
 10
2.399941
 20
1.505472
 10
2.400696
 20
1.491388
 10
2.400317
 20
1.476889
 10
2.400118
 20
1.470039
 10
2.400418
 20
1.463742
 10
2.401256
 20
1.457969
 10
2.402666
 20
1.452692
 10
2.404686
 20
1.447884
 10
2.407352
 20
1.443517
 10
2.410701
 20
1.439562
 10
2.414769
 20
1.435993
 10
2.419592
 20
1.43278
 10
2.425208
 20
1.429897
 10
2.431653
 20
1.427315
 10
2.438963
 20
1.425007
 10
2.447174
 20
1.422945
 10
2.456324
 20
1.4211
 10
2.466449
 20
1.419445
 10
2.477585
 20
1.417953
 10
2.485476
 20
1.417152
 10
2.493438
 20
1.416662
 10
2.501449
 20
1.416477
 10
2.509487
 20
1.416594
 10
2.525557
 20
1.417719
 10
2.541476
 20
1.420006
 10
2.557071
 20
1.423422
 10
2.564693
 20
1.425544
 10
2.572168
 20
1.427937
 10
2.579477
 20
1.430597
 10
2.586596
 20
1.43352
 10
2.593504
 20
1.436702
 10
2.60018
 20
1.440139
  0
LWPOLYLINE
  5
2F
330
1F
100
AcDbEntity
  8
0
100
AcDbPolyline
 90
      103
 70
   128
 43
0.0
 10
3.344775
 20
1.48898
 10
3.350907
 20
1.496447
 10
3.356595
 20
1.504294
 10
3.361825
 20
1.512477
 10
3.366587
 20
1.520949
 10
3.370868
 20
1.529666
 10
3.374654
 20
1.538581
 10
3.377935
 20
1.547649
 10
3.380698
 20
1.556824
 10
3.382929
 20
1.566062
 10
3.384618
 20
1.575316
 10
3.385751
 20
1.584542
 10
3.386317
 20
1.593693
 10
3.386302
 20
1.602724
 10
3.385695
 20
1.61159
 10
3.384483
 20
1.620245
 10
3.382655
 20
1.628644
 10
3.378261
 20
1.643687
 10
3.373054
 20
1.65818
 10
3.367085
 20
1.672069
 10
3.36041
 20
1.685298
 10
3.353079
 20
1.697812
 10
3.345147
 20
1.709555
 10
3.336668
 20
1.720471
 10
3.327693
 20
1.730507
 10
3.318277
 20
1.739606
 10
3.308472
 20
1.747712
 10
3.298332
 20
1.754772
 10
3.287909
 20
1.760728
 10
3.277258
 20
1.765526
 10
3.271864
 20
1.767474
 10
3.266432
 20
1.769111
 10
3.260969
 20
1.770431
 10
3.255482
 20
1.771427
 10
3.249978
 20
1.772092
 10
3.244464
 20
1.772419
 10
3.236302
 20
1.772311
 10
3.232834
 20
1.771897
 10
3.22972
 20
1.771166
 10
3.226919
 20
1.770058
 10
3.224389
 20
1.768516
 10
3.22209
 20
1.766482
 10
3.219981
 20
1.763897
 10
3.21802
 20
1.760702
 10
3.216167
 20
1.756841
 10
3.212619
 20
1.746883
 10
3.20901
 20
1.733556
 10
3.20501
 20
1.716394
 10
3.199524
 20
1.694342
 10
3.193979
 20
1.676273
 10
3.191387
 20
1.669314
 10
3.189023
 20
1.664051
 10
3.186967
 20
1.660717
 10
3.18608
 20
1.659846
 10
3.185301
 20
1.659544
 10
3.183424
 20
1.658839
 10
3.180764
 20
1.656845
 10
3.177443
 20
1.653702
 10
3.173586
 20
1.649549
 10
3.164754
 20
1.63877
 10
3.155253
 20
1.625619
 10
3.148472
 20
1.615107
 10
3.143282
 20
1.605419
 10
3.141244
 20
1.600634
 10
3.139555
 20
1.595756
 10
3.138201
 20
1.590685
 10
3.137165
 20
1.58532
 10
3.136431
 20
1.579563
 10
3.135983
 20
1.573313
 10
3.135883
 20
1.558935
 10
3.136738
 20
1.541388
 10
3.13842
 20
1.519873
 10
3.140116
 20
1.503079
 10
3.142148
 20
1.487978
 10
3.144508
 20
1.474609
 10
3.147184
 20
1.463011
 10
3.150168
 20
1.45322
 10
3.153448
 20
1.445275
 10
3.155196
 20
1.442007
 10
3.157015
 20
1.439215
 10
3.158903
 20
1.436903
 10
3.160858
 20
1.435077
 10
3.164556
 20
1.432446
 10
3.168588
 20
1.430153
 10
3.172936
 20
1.428191
 10
3.177578
 20
1.426556
 10
3.182494
 20
1.425241
 10
3.187664
 20
1.42424
 10
3.193069
 20
1.423547
 10
3.198686
 20
1.423156
 10
3.21048
 20
1.423258
 10
3.222884
 20
1.424497
 10
3.235737
 20
1.426825
 10
3.248874
 20
1.430196
 10
3.262135
 20
1.434562
 10
3.275357
 20
1.439875
 10
3.288378
 20
1.446088
 10
3.301034
 20
1.453153
 10
3.313164
 20
1.461022
 10
3.324606
 20
1.469648
 10
3.335197
 20
1.478983
 10
3.340123
 20
1.483901
 10
3.344775
 20
1.48898
  0
LWPOLYLINE
  5
30
330
1F
100
AcDbEntity
  8
0
100
AcDbPolyline
 90
      110
 70
   128
 43
0.0
 10
1.983665
 20
1.482903
 10
1.988568
 20
1.48604
 10
1.994505
 20
1.490687
 10
2.001248
 20
1.49662
 10
2.008571
 20
1.503613
 10
2.016245
 20
1.511443
 10
2.024044
 20
1.519884
 10
2.03174
 20
1.528711
 10
2.039105
 20
1.537701
 10
2.048914
 20
1.550562
 10
2.056783
 20
1.56215
 10
2.060058
 20
1.567656
 10
2.06293
 20
1.573072
 10
2.065427
 20
1.578475
 10
2.067575
 20
1.58394
 10
2.069403
 20
1.589544
 10
2.070937
 20
1.595363
 10
2.073235
 20
1.607949
 10
2.074687
 20
1.62231
 10
2.075512
 20
1.639055
 10
2.075621
 20
1.648608
 10
2.075326
 20
1.657964
 10
2.074634
 20
1.667121
 10
2.073548
 20
1.676071
 10
2.072074
 20
1.68481
 10
2.070217
 20
1.693333
 10
2.067981
 20
1.701635
 10
2.065371
 20
1.70971
 10
2.062393
 20
1.717553
 10
2.059051
 20
1.725159
 10
2.05535
 20
1.732524
 10
2.051294
 20
1.73964
 10
2.04689
 20
1.746504
 10
2.042141
 20
1.753111
 10
2.037053
 20
1.759454
 10
2.03163
 20
1.76553
 10
2.025877
 20
1.771332
 10
2.0198
 20
1.776856
 10
2.013402
 20
1.782096
 10
2.00669
 20
1.787047
 10
1.999667
 20
1.791704
 10
1.992339
 20
1.796062
 10
1.98471
 20
1.800116
 10
1.976786
 20
1.80386
 10
1.968572
 20
1.807289
 10
1.960071
 20
1.810398
 10
1.95129
 20
1.813182
 10
1.942232
 20
1.815636
 10
1.932903
 20
1.817754
 10
1.923309
 20
1.819531
 10
1.913452
 20
1.820963
 10
1.903339
 20
1.822043
 10
1.892775
 20
1.822529
 10
1.881926
 20
1.822175
 10
1.870869
 20
1.821018
 10
1.859684
 20
1.819093
 10
1.848449
 20
1.816436
 10
1.837242
 20
1.813084
 10
1.826141
 20
1.809071
 10
1.815224
 20
1.804433
 10
1.80457
 20
1.799207
 10
1.794257
 20
1.793429
 10
1.784364
 20
1.787133
 10
1.774968
 20
1.780356
 10
1.766149
 20
1.773134
 10
1.757983
 20
1.765501
 10
1.750551
 20
1.757496
 10
1.743929
 20
1.749152
 10
1.741317
 20
1.745247
 10
1.738874
 20
1.740952
 10
1.734493
 20
1.73128
 10
1.730785
 20
1.720316
 10
1.727752
 20
1.708238
 10
1.725392
 20
1.695227
 10
1.723706
 20
1.681459
 10
1.722694
 20
1.667116
 10
1.722356
 20
1.652377
 10
1.722692
 20
1.637419
 10
1.723701
 20
1.622423
 10
1.725385
 20
1.607568
 10
1.727742
 20
1.593033
 10
1.730773
 20
1.578997
 10
1.734479
 20
1.565639
 10
1.738858
 20
1.553138
 10
1.743911
 20
1.541674
 10
1.747923
 20
1.534528
 10
1.752945
 20
1.527146
 10
1.758849
 20
1.519629
 10
1.765503
 20
1.512075
 10
1.77278
 20
1.504585
 10
1.78055
 20
1.497257
 10
1.788683
 20
1.490191
 10
1.79705
 20
1.483486
 10
1.805521
 20
1.477243
 10
1.813968
 20
1.47156
 10
1.822261
 20
1.466537
 10
1.83027
 20
1.462274
 10
1.837866
 20
1.458869
 10
1.84492
 20
1.456424
 10
1.851302
 20
1.455036
 10
1.856883
 20
1.454805
 10
1.872331
 20
1.456423
 10
1.889977
 20
1.459044
 10
1.908779
 20
1.462437
 10
1.927695
 20
1.466372
 10
1.945684
 20
1.470616
 10
1.961703
 20
1.47494
 10
1.974711
 20
1.479113
 10
1.97976
 20
1.48107
 10
1.983665
 20
1.482903
  0
LWPOLYLINE
  5
31
330
1F
100
AcDbEntity
  8
0
100
AcDbPolyline
 90
      110
 70
   128
 43
0.0
 10
1.345867
 20
1.564886
 10
1.345532
 20
1.568405
 10
1.344572
 20
1.572404
 10
1.343055
 20
1.576743
 10
1.341047
 20
1.581284
 10
1.338616
 20
1.585888
 10
1.335829
 20
1.590417
 10
1.332753
 20
1.594733
 10
1.329457
 20
1.598695
 10
1.327464
 20
1.601204
 10
1.32555
 20
1.604236
 10
1.321959
 20
1.611862
 10
1.318689
 20
1.621552
 10
1.315746
 20
1.633282
 10
1.313134
 20
1.647031
 10
1.310859
 20
1.662776
 10
1.308924
 20
1.680494
 10
1.307335
 20
1.700163
 10
1.305409
 20
1.727111
 10
1.30358
 20
1.747522
 10
1.301491
 20
1.762308
 10
1.300238
 20
1.767876
 10
1.298786
 20
1.772379
 10
1.297093
 20
1.775931
 10
1.295112
 20
1.778646
 10
1.292799
 20
1.780637
 10
1.290111
 20
1.782019
 10
1.287002
 20
1.782904
 10
1.283428
 20
1.783408
 10
1.274708
 20
1.783724
 10
1.268374
 20
1.78419
 10
1.260673
 20
1.785438
 10
1.251901
 20
1.787383
 10
1.242354
 20
1.789939
 10
1.232331
 20
1.79302
 10
1.222126
 20
1.796541
 10
1.212038
 20
1.800418
 10
1.202362
 20
1.804563
 10
1.188424
 20
1.81075
 10
1.177296
 20
1.815252
 10
1.168433
 20
1.818106
 10
1.16468
 20
1.818926
 10
1.16129
 20
1.819349
 10
1.158194
 20
1.819379
 10
1.155324
 20
1.81902
 10
1.152611
 20
1.818278
 10
1.149989
 20
1.817157
 10
1.144742
 20
1.813798
 10
1.139037
 20
1.808981
 10
1.135172
 20
1.804761
 10
1.131042
 20
1.798953
 10
1.126776
 20
1.791819
 10
1.122501
 20
1.78362
 10
1.118345
 20
1.774617
 10
1.114437
 20
1.76507
 10
1.110903
 20
1.755239
 10
1.107872
 20
1.745387
 10
1.10588
 20
1.737657
 10
1.104226
 20
1.72992
 10
1.102906
 20
1.722185
 10
1.101917
 20
1.714461
 10
1.101255
 20
1.706759
 10
1.100916
 20
1.699085
 10
1.100896
 20
1.691451
 10
1.101192
 20
1.683864
 10
1.101799
 20
1.676335
 10
1.102714
 20
1.668872
 10
1.103934
 20
1.661484
 10
1.105453
 20
1.65418
 10
1.107269
 20
1.64697
 10
1.109378
 20
1.639863
 10
1.111776
 20
1.632868
 10
1.114459
 20
1.625994
 10
1.117424
 20
1.61925
 10
1.120666
 20
1.612645
 10
1.124182
 20
1.606188
 10
1.127968
 20
1.599889
 10
1.13202
 20
1.593757
 10
1.136334
 20
1.587801
 10
1.140908
 20
1.582029
 10
1.145736
 20
1.576451
 10
1.150815
 20
1.571077
 10
1.156142
 20
1.565915
 10
1.161712
 20
1.560974
 10
1.167521
 20
1.556264
 10
1.173567
 20
1.551794
 10
1.179845
 20
1.547572
 10
1.186351
 20
1.543609
 10
1.193082
 20
1.539913
 10
1.198101
 20
1.5375
 10
1.203377
 20
1.535338
 10
1.214594
 20
1.531749
 10
1.226514
 20
1.529108
 10
1.238918
 20
1.527381
 10
1.251587
 20
1.526532
 10
1.264303
 20
1.526525
 10
1.276846
 20
1.527324
 10
1.288998
 20
1.528893
 10
1.300539
 20
1.531196
 10
1.311252
 20
1.534199
 10
1.320917
 20
1.537864
 10
1.329316
 20
1.542157
 10
1.332972
 20
1.544528
 10
1.336229
 20
1.547042
 10
1.33906
 20
1.549695
 10
1.341438
 20
1.552482
 10
1.343335
 20
1.555399
 10
1.344723
 20
1.558442
 10
1.345577
 20
1.561606
 10
1.345867
 20
1.564886
  0
LWPOLYLINE
  5
32
330
1F
100
AcDbEntity
  8
0
100
AcDbPolyline
 90
      104
 70
   128
 43
0.0
 10
1.64015
 20
1.645897
 10
1.640337
 20
1.660414
 10
1.640847
 20
1.674643
 10
1.641647
 20
1.688226
 10
1.6427
 20
1.7008
 10
1.643972
 20
1.712006
 10
1.645427
 20
1.721483
 10
1.64703
 20
1.728869
 10
1.648746
 20
1.733806
 10
1.649862
 20
1.736378
 10
1.650597
 20
1.73882
 10
1.650925
 20
1.741157
 10
1.650819
 20
1.743415
 10
1.650252
 20
1.745617
 10
1.649196
 20
1.74779
 10
1.647625
 20
1.749957
 10
1.645511
 20
1.752145
 10
1.642828
 20
1.754377
 10
1.639549
 20
1.756679
 10
1.631091
 20
1.761592
 10
1.619922
 20
1.767084
 10
1.605825
 20
1.773354
 10
1.59501
 20
1.77831
 10
1.583995
 20
1.783919
 10
1.573087
 20
1.789988
 10
1.562593
 20
1.796323
 10
1.552821
 20
1.802732
 10
1.544078
 20
1.80902
 10
1.536671
 20
1.814995
 10
1.530908
 20
1.820464
 10
1.526318
 20
1.824496
 10
1.521245
 20
1.827448
 10
1.515758
 20
1.829416
 10
1.509926
 20
1.830496
 10
1.503817
 20
1.830784
 10
1.497502
 20
1.830375
 10
1.491049
 20
1.829365
 10
1.484526
 20
1.82785
 10
1.471551
 20
1.823686
 10
1.459129
 20
1.81865
 10
1.447811
 20
1.813507
 10
1.438152
 20
1.809023
 10
1.42917
 20
1.804811
 10
1.421068
 20
1.800641
 10
1.413805
 20
1.796443
 10
1.40734
 20
1.792151
 10
1.40163
 20
1.787695
 10
1.396635
 20
1.783009
 10
1.392313
 20
1.778022
 10
1.388622
 20
1.772669
 10
1.385521
 20
1.766879
 10
1.382968
 20
1.760586
 10
1.380922
 20
1.753721
 10
1.379341
 20
1.746215
 10
1.378184
 20
1.738002
 10
1.377408
 20
1.729012
 10
1.376974
 20
1.719177
 10
1.376838
 20
1.70843
 10
1.377253
 20
1.695378
 10
1.378634
 20
1.683363
 10
1.379751
 20
1.677584
 10
1.381186
 20
1.671874
 10
1.382966
 20
1.666169
 10
1.385115
 20
1.660404
 10
1.38766
 20
1.654516
 10
1.390626
 20
1.648442
 10
1.397924
 20
1.63548
 10
1.407213
 20
1.621007
 10
1.4187
 20
1.604515
 10
1.432654
 20
1.585219
 10
1.438568
 20
1.577412
 10
1.443992
 20
1.570718
 10
1.449087
 20
1.565052
 10
1.454019
 20
1.560328
 10
1.458951
 20
1.55646
 10
1.464045
 20
1.553363
 10
1.469467
 20
1.550951
 10
1.475378
 20
1.549138
 10
1.481942
 20
1.547839
 10
1.489323
 20
1.546969
 10
1.50719
 20
1.546169
 10
1.530286
 20
1.546055
 10
1.547634
 20
1.546199
 10
1.56308
 20
1.546697
 10
1.576731
 20
1.547648
 10
1.588696
 20
1.549148
 10
1.599084
 20
1.551298
 10
1.603719
 20
1.552647
 10
1.608001
 20
1.554195
 10
1.611943
 20
1.555954
 10
1.615557
 20
1.557938
 10
1.618859
 20
1.560157
 10
1.62186
 20
1.562624
 10
1.624575
 20
1.565352
 10
1.627018
 20
1.568353
 10
1.629201
 20
1.571639
 10
1.631139
 20
1.575222
 10
1.632844
 20
1.579115
 10
1.634331
 20
1.58333
 10
1.636703
 20
1.592775
 10
1.638362
 20
1.603657
 10
1.639418
 20
1.616072
 10
1.639978
 20
1.630119
 10
1.64015
 20
1.645897
  0
LWPOLYLINE
  5
33
330
1F
100
AcDbEntity
  8
0
100
AcDbPolyline
 90
      114
 70
   128
 43
0.0
 10
2.333015
 20
1.758437
 10
2.338048
 20
1.76548
 10
2.34262
 20
1.772777
 10
2.346735
 20
1.780305
 10
2.350396
 20
1.788043
 10
2.353609
 20
1.795968
 10
2.356377
 20
1.804061
 10
2.358705
 20
1.812297
 10
2.360596
 20
1.820656
 10
2.362056
 20
1.829116
 10
2.363088
 20
1.837655
 10
2.363696
 20
1.846251
 10
2.363885
 20
1.854882
 10
2.363659
 20
1.863527
 10
2.363022
 20
1.872163
 10
2.361978
 20
1.88077
 10
2.360532
 20
1.889324
 10
2.358687
 20
1.897805
 10
2.356448
 20
1.90619
 10
2.35382
 20
1.914457
 10
2.350806
 20
1.922586
 10
2.347411
 20
1.930553
 10
2.343638
 20
1.938337
 10
2.339493
 20
1.945917
 10
2.334978
 20
1.95327
 10
2.330099
 20
1.960375
 10
2.32486
 20
1.96721
 10
2.319265
 20
1.973753
 10
2.313318
 20
1.979982
 10
2.307023
 20
1.985876
 10
2.300385
 20
1.991412
 10
2.293407
 20
1.996569
 10
2.286094
 20
2.001325
 10
2.276541
 20
2.006836
 10
2.267437
 20
2.011442
 10
2.258718
 20
2.015129
 10
2.250319
 20
2.017884
 10
2.242177
 20
2.019694
 10
2.234227
 20
2.020545
 10
2.226404
 20
2.020424
 10
2.218644
 20
2.019318
 10
2.210883
 20
2.017212
 10
2.203056
 20
2.014095
 10
2.195099
 20
2.009953
 10
2.186947
 20
2.004771
 10
2.178536
 20
1.998538
 10
2.169802
 20
1.99124
 10
2.160679
 20
1.982862
 10
2.151105
 20
1.973393
 10
2.141141
 20
1.963548
 10
2.130623
 20
1.953737
 10
2.119869
 20
1.944217
 10
2.109198
 20
1.935249
 10
2.098925
 20
1.927092
 10
2.089369
 20
1.920007
 10
2.080848
 20
1.914253
 10
2.073678
 20
1.910089
 10
2.051017
 20
1.897954
 10
2.040134
 20
1.891583
 10
2.03017
 20
1.885181
 10
2.021588
 20
1.878876
 10
2.01796
 20
1.875801
 10
2.014853
 20
1.872798
 10
2.012324
 20
1.869884
 10
2.010431
 20
1.867075
 10
2.009232
 20
1.864387
 10
2.008786
 20
1.861836
 10
2.009092
 20
1.859809
 10
2.010055
 20
1.857918
 10
2.011615
 20
1.856131
 10
2.013711
 20
1.854418
 10
2.019266
 20
1.851087
 10
2.026233
 20
1.847677
 10
2.034125
 20
1.843937
 10
2.042454
 20
1.839619
 10
2.050733
 20
1.834472
 10
2.054702
 20
1.83151
 10
2.058476
 20
1.828247
 10
2.065264
 20
1.821262
 10
2.072581
 20
1.812608
 10
2.080196
 20
1.802625
 10
2.08788
 20
1.791658
 10
2.095401
 20
1.780048
 10
2.102529
 20
1.768137
 10
2.109034
 20
1.756268
 10
2.114685
 20
1.744784
 10
2.123018
 20
1.726895
 10
2.129886
 20
1.713456
 10
2.133044
 20
1.708209
 10
2.136163
 20
1.703838
 10
2.139352
 20
1.700265
 10
2.142721
 20
1.69741
 10
2.146378
 20
1.695196
 10
2.150434
 20
1.693542
 10
2.154998
 20
1.69237
 10
2.160177
 20
1.691602
 10
2.172824
 20
1.690962
 10
2.189247
 20
1.690989
 10
2.201324
 20
1.691316
 10
2.212864
 20
1.692102
 10
2.223894
 20
1.693361
 10
2.234441
 20
1.695106
 10
2.24453
 20
1.697347
 10
2.25419
 20
1.7001
 10
2.263447
 20
1.703374
 10
2.272327
 20
1.707184
 10
2.280857
 20
1.711542
 10
2.289064
 20
1.71646
 10
2.296974
 20
1.721951
 10
2.304615
 20
1.728028
 10
2.312013
 20
1.734702
 10
2.319194
 20
1.741987
 10
2.326186
 20
1.749894
 10
2.333015
 20
1.758437
  0
LWPOLYLINE
  5
34
330
1F
100
AcDbEntity
  8
0
100
AcDbPolyline
 90
      109
 70
   128
 43
0.0
 10
1.856625
 20
1.892798
 10
1.858827
 20
1.896487
 10
1.860895
 20
1.900645
 10
1.864634
 20
1.910251
 10
1.867837
 20
1.921377
 10
1.870501
 20
1.933785
 10
1.872623
 20
1.947235
 10
1.8742
 20
1.961488
 10
1.87523
 20
1.976306
 10
1.875708
 20
1.99145
 10
1.875631
 20
2.00668
 10
1.874997
 20
2.021758
 10
1.873803
 20
2.036445
 10
1.872044
 20
2.050502
 10
1.869718
 20
2.06369
 10
1.866822
 20
2.07577
 10
1.863353
 20
2.086503
 10
1.861402
 20
2.091289
 10
1.859307
 20
2.09565
 10
1.854168
 20
2.104726
 10
1.848423
 20
2.113524
 10
1.842119
 20
2.12201
 10
1.835302
 20
2.130152
 10
1.828016
 20
2.137916
 10
1.820309
 20
2.145271
 10
1.812224
 20
2.152182
 10
1.803809
 20
2.158617
 10
1.795108
 20
2.164543
 10
1.786168
 20
2.169927
 10
1.777033
 20
2.174735
 10
1.76775
 20
2.178936
 10
1.758364
 20
2.182496
 10
1.748921
 20
2.185382
 10
1.739467
 20
2.187561
 10
1.730046
 20
2.189
 10
1.714925
 20
2.19052
 10
1.700783
 20
2.191548
 10
1.687567
 20
2.192069
 10
1.675226
 20
2.192068
 10
1.663707
 20
2.191531
 10
1.652958
 20
2.190444
 10
1.642926
 20
2.188791
 10
1.63356
 20
2.186558
 10
1.624808
 20
2.183731
 10
1.616616
 20
2.180295
 10
1.608933
 20
2.176235
 10
1.601707
 20
2.171537
 10
1.594885
 20
2.166186
 10
1.588415
 20
2.160168
 10
1.582245
 20
2.153468
 10
1.576322
 20
2.146071
 10
1.564594
 20
2.130989
 10
1.553401
 20
2.117559
 10
1.544009
 20
2.107242
 10
1.540385
 20
2.103708
 10
1.537687
 20
2.101501
 10
1.5363
 20
2.10011
 10
1.535009
 20
2.097924
 10
1.533816
 20
2.094993
 10
1.532719
 20
2.091369
 10
1.530811
 20
2.082248
 10
1.529283
 20
2.070972
 10
1.528132
 20
2.057954
 10
1.527353
 20
2.043605
 10
1.526943
 20
2.028336
 10
1.526899
 20
2.01256
 10
1.527217
 20
1.996687
 10
1.527893
 20
1.981129
 10
1.528924
 20
1.966299
 10
1.530307
 20
1.952608
 10
1.532037
 20
1.940466
 10
1.534111
 20
1.930287
 10
1.536526
 20
1.922481
 10
1.53786
 20
1.919597
 10
1.539278
 20
1.917461
 10
1.57833
 20
1.869355
 10
1.583314
 20
1.863439
 10
1.58851
 20
1.857902
 10
1.593959
 20
1.852727
 10
1.599703
 20
1.847894
 10
1.605786
 20
1.843381
 10
1.61225
 20
1.839171
 10
1.619137
 20
1.835242
 10
1.626491
 20
1.831575
 10
1.634352
 20
1.82815
 10
1.642765
 20
1.824947
 10
1.651771
 20
1.821947
 10
1.661413
 20
1.819129
 10
1.671734
 20
1.816475
 10
1.682775
 20
1.813963
 10
1.707192
 20
1.80929
 10
1.717498
 20
1.807906
 10
1.727057
 20
1.807544
 10
1.731675
 20
1.80778
 10
1.736249
 20
1.808312
 10
1.740828
 20
1.809153
 10
1.745457
 20
1.810318
 10
1.755063
 20
1.813672
 10
1.765446
 20
1.818482
 10
1.77699
 20
1.824856
 10
1.790075
 20
1.832904
 10
1.79987
 20
1.83951
 10
1.80979
 20
1.846858
 10
1.81956
 20
1.854704
 10
1.828909
 20
1.862802
 10
1.837562
 20
1.870905
 10
1.845248
 20
1.87877
 10
1.851693
 20
1.886149
 10
1.856625
 20
1.892798
  0
LWPOLYLINE
  5
35
330
1F
100
AcDbEntity
  8
0
100
AcDbPolyline
 90
      105
 70
   128
 43
0.0
 10
1.100869
 20
1.863305
 10
1.106523
 20
1.869956
 10
1.108751
 20
1.873042
 10
1.110584
 20
1.876108
 10
1.112022
 20
1.879258
 10
1.113067
 20
1.882597
 10
1.11372
 20
1.886228
 10
1.113985
 20
1.890257
 10
1.113862
 20
1.894787
 10
1.113352
 20
1.899924
 10
1.111183
 20
1.912433
 10
1.10749
 20
1.928619
 10
1.102288
 20
1.949318
 10
1.098481
 20
1.965439
 10
1.095382
 20
1.9813
 10
1.092994
 20
1.996869
 10
1.091321
 20
2.012114
 10
1.090364
 20
2.027003
 10
1.090127
 20
2.041504
 10
1.090612
 20
2.055585
 10
1.091823
 20
2.069214
 10
1.093587
 20
2.085502
 10
1.094533
 20
2.098447
 10
1.094536
 20
2.108574
 10
1.094144
 20
2.112744
 10
1.093469
 20
2.116406
 10
1.092495
 20
2.119625
 10
1.091207
 20
2.122468
 10
1.089588
 20
2.124999
 10
1.087624
 20
2.127285
 10
1.085298
 20
2.12939
 10
1.082595
 20
2.13138
 10
1.075994
 20
2.13528
 10
1.070461
 20
2.1376
 10
1.063355
 20
2.13956
 10
1.054951
 20
2.141135
 10
1.045524
 20
2.142297
 10
1.03535
 20
2.143019
 10
1.024705
 20
2.143276
 10
1.013864
 20
2.143041
 10
1.003101
 20
2.142288
 10
0.99207
 20
2.140773
 10
0.981191
 20
2.138384
 10
0.97051
 20
2.135158
 10
0.96007
 20
2.131133
 10
0.949918
 20
2.126343
 10
0.940099
 20
2.120828
 10
0.930657
 20
2.114622
 10
0.921638
 20
2.107764
 10
0.913087
 20
2.10029
 10
0.905048
 20
2.092236
 10
0.897569
 20
2.08364
 10
0.890692
 20
2.074539
 10
0.884464
 20
2.064968
 10
0.878929
 20
2.054966
 10
0.874134
 20
2.044569
 10
0.870122
 20
2.033813
 10
0.867624
 20
2.025034
 10
0.865718
 20
2.015716
 10
0.864389
 20
2.005955
 10
0.863622
 20
1.995846
 10
0.863404
 20
1.985485
 10
0.863719
 20
1.974966
 10
0.864554
 20
1.964386
 10
0.865894
 20
1.953839
 10
0.867725
 20
1.94342
 10
0.870032
 20
1.933225
 10
0.8728
 20
1.92335
 10
0.876016
 20
1.913888
 10
0.879665
 20
1.904936
 10
0.883733
 20
1.896589
 10
0.888204
 20
1.888943
 10
0.893066
 20
1.882091
 10
0.898187
 20
1.875932
 10
0.903579
 20
1.870116
 10
0.909225
 20
1.864644
 10
0.915105
 20
1.859519
 10
0.921202
 20
1.854742
 10
0.927497
 20
1.850314
 10
0.933972
 20
1.846238
 10
0.940609
 20
1.842514
 10
0.947389
 20
1.839145
 10
0.954294
 20
1.836132
 10
0.961306
 20
1.833477
 10
0.968407
 20
1.831181
 10
0.975578
 20
1.829247
 10
0.982801
 20
1.827675
 10
0.990058
 20
1.826468
 10
0.99733
 20
1.825627
 10
1.004599
 20
1.825153
 10
1.011848
 20
1.825049
 10
1.019056
 20
1.825316
 10
1.026208
 20
1.825956
 10
1.033283
 20
1.82697
 10
1.040264
 20
1.82836
 10
1.047132
 20
1.830128
 10
1.05387
 20
1.832275
 10
1.060459
 20
1.834803
 10
1.06688
 20
1.837714
 10
1.073116
 20
1.841009
 10
1.079147
 20
1.844689
 10
1.084957
 20
1.848758
 10
1.090526
 20
1.853215
 10
1.095836
 20
1.858064
 10
1.100869
 20
1.863305
  0
LWPOLYLINE
  5
36
330
1F
100
AcDbEntity
  8
0
100
AcDbPolyline
 90
      104
 70
   128
 43
0.0
 10
1.448559
 20
1.89604
 10
1.450678
 20
1.901711
 10
1.452752
 20
1.910496
 10
1.454729
 20
1.921952
 10
1.456557
 20
1.935637
 10
1.458184
 20
1.951109
 10
1.459556
 20
1.967925
 10
1.460623
 20
1.985645
 10
1.46133
 20
2.003825
 10
1.46196
 20
2.031197
 10
1.462002
 20
2.05281
 10
1.46125
 20
2.069699
 10
1.460512
 20
2.076697
 10
1.459498
 20
2.082903
 10
1.458183
 20
2.088446
 10
1.456542
 20
2.093457
 10
1.454547
 20
2.098066
 10
1.452175
 20
2.102401
 10
1.449398
 20
2.106592
 10
1.446192
 20
2.11077
 10
1.438388
 20
2.119602
 10
1.432014
 20
2.126036
 10
1.425027
 20
2.132369
 10
1.417512
 20
2.138556
 10
1.409551
 20
2.144555
 10
1.40123
 20
2.150322
 10
1.39263
 20
2.155814
 10
1.383837
 20
2.160988
 10
1.374932
 20
2.165801
 10
1.366
 20
2.17021
 10
1.357125
 20
2.17417
 10
1.34839
 20
2.17764
 10
1.339877
 20
2.180576
 10
1.331672
 20
2.182935
 10
1.323858
 20
2.184673
 10
1.316518
 20
2.185748
 10
1.309735
 20
2.186116
 10
1.304014
 20
2.185937
 10
1.298198
 20
2.185409
 10
1.292302
 20
2.184543
 10
1.286341
 20
2.183351
 10
1.274285
 20
2.180039
 10
1.262156
 20
2.175569
 10
1.250076
 20
2.170036
 10
1.23817
 20
2.163536
 10
1.226559
 20
2.156166
 10
1.215369
 20
2.148021
 10
1.204722
 20
2.139197
 10
1.194741
 20
2.129791
 10
1.185552
 20
2.119898
 10
1.177276
 20
2.109614
 10
1.170037
 20
2.099035
 10
1.163959
 20
2.088257
 10
1.161394
 20
2.082823
 10
1.159165
 20
2.077376
 10
1.157289
 20
2.071926
 10
1.155779
 20
2.066488
 10
1.149956
 20
2.04172
 10
1.145872
 20
2.021616
 10
1.144493
 20
2.012961
 10
1.143562
 20
2.00505
 10
1.143083
 20
1.997742
 10
1.143061
 20
1.990897
 10
1.1435
 20
1.984373
 10
1.144404
 20
1.97803
 10
1.145779
 20
1.971728
 10
1.147627
 20
1.965326
 10
1.149955
 20
1.958683
 10
1.152765
 20
1.951658
 10
1.159852
 20
1.935902
 10
1.165385
 20
1.925108
 10
1.171616
 20
1.914747
 10
1.178511
 20
1.904843
 10
1.186036
 20
1.895421
 10
1.194156
 20
1.886505
 10
1.202837
 20
1.878118
 10
1.212045
 20
1.870285
 10
1.221745
 20
1.863029
 10
1.231903
 20
1.856376
 10
1.242484
 20
1.850348
 10
1.253455
 20
1.84497
 10
1.26478
 20
1.840266
 10
1.276426
 20
1.83626
 10
1.288358
 20
1.832977
 10
1.300541
 20
1.83044
 10
1.312941
 20
1.828673
 10
1.326976
 20
1.827399
 10
1.339068
 20
1.826998
 10
1.349736
 20
1.827599
 10
1.354697
 20
1.828314
 10
1.359496
 20
1.829328
 10
1.364198
 20
1.830655
 10
1.368866
 20
1.832313
 10
1.378363
 20
1.836681
 10
1.388505
 20
1.84256
 10
1.399808
 20
1.850077
 10
1.407743
 20
1.855839
 10
1.415552
 20
1.861972
 10
1.423035
 20
1.86829
 10
1.429992
 20
1.874603
 10
1.436222
 20
1.880723
 10
1.441527
 20
1.886462
 10
1.445706
 20
1.89163
 10
1.448559
 20
1.89604
  0
LWPOLYLINE
  5
37
330
1F
100
AcDbEntity
  8
0
100
AcDbPolyline
 90
      112
 70
   128
 43
0.0
 10
2.491538
 20
1.895525
 10
2.506116
 20
1.926049
 10
2.523691
 20
1.961043
 10
2.527056
 20
1.967951
 10
2.530081
 20
1.974965
 10
2.532769
 20
1.982072
 10
2.535122
 20
1.989259
 10
2.537143
 20
1.996512
 10
2.538837
 20
2.003819
 10
2.540204
 20
2.011166
 10
2.541249
 20
2.018539
 10
2.541974
 20
2.025926
 10
2.542383
 20
2.033313
 10
2.542478
 20
2.040687
 10
2.542262
 20
2.048035
 10
2.541739
 20
2.055344
 10
2.540911
 20
2.062599
 10
2.53978
 20
2.069789
 10
2.538351
 20
2.076899
 10
2.536626
 20
2.083916
 10
2.534608
 20
2.090828
 10
2.5323
 20
2.097621
 10
2.529705
 20
2.104281
 10
2.526826
 20
2.110796
 10
2.523666
 20
2.117152
 10
2.520227
 20
2.123335
 10
2.516513
 20
2.129334
 10
2.512527
 20
2.135133
 10
2.508272
 20
2.140721
 10
2.503751
 20
2.146084
 10
2.498966
 20
2.151208
 10
2.49392
 20
2.156081
 10
2.488617
 20
2.160688
 10
2.48306
 20
2.165018
 10
2.477251
 20
2.169056
 10
2.471088
 20
2.17279
 10
2.464505
 20
2.176208
 10
2.457538
 20
2.179315
 10
2.450224
 20
2.182113
 10
2.4426
 20
2.184606
 10
2.434703
 20
2.186798
 10
2.42657
 20
2.188691
 10
2.418236
 20
2.190289
 10
2.40974
 20
2.191595
 10
2.401117
 20
2.192613
 10
2.383639
 20
2.193797
 10
2.366098
 20
2.193867
 10
2.348787
 20
2.192851
 10
2.332001
 20
2.190774
 10
2.316033
 20
2.187664
 10
2.308448
 20
2.185729
 10
2.301178
 20
2.183546
 10
2.294259
 20
2.181118
 10
2.287729
 20
2.178449
 10
2.281625
 20
2.175541
 10
2.275982
 20
2.172398
 10
2.270838
 20
2.169023
 10
2.26623
 20
2.16542
 10
2.262194
 20
2.161592
 10
2.258767
 20
2.157543
 10
2.255986
 20
2.153274
 10
2.253887
 20
2.148791
 10
2.248684
 20
2.133738
 10
2.246922
 20
2.127199
 10
2.245756
 20
2.12124
 10
2.245211
 20
2.115803
 10
2.245315
 20
2.110827
 10
2.246094
 20
2.106254
 10
2.247576
 20
2.102026
 10
2.249785
 20
2.098082
 10
2.25275
 20
2.094364
 10
2.256497
 20
2.090812
 10
2.261052
 20
2.087369
 10
2.266443
 20
2.083975
 10
2.272695
 20
2.08057
 10
2.287892
 20
2.073494
 10
2.298397
 20
2.068642
 10
2.3084
 20
2.063383
 10
2.317915
 20
2.057701
 10
2.326956
 20
2.051579
 10
2.335537
 20
2.045002
 10
2.343672
 20
2.037952
 10
2.351375
 20
2.030413
 10
2.35866
 20
2.022369
 10
2.365541
 20
2.013804
 10
2.372031
 20
2.004701
 10
2.378145
 20
1.995043
 10
2.383897
 20
1.984815
 10
2.389301
 20
1.974001
 10
2.39437
 20
1.962582
 10
2.399119
 20
1.950544
 10
2.403561
 20
1.93787
 10
2.413795
 20
1.906919
 10
2.421611
 20
1.884055
 10
2.427713
 20
1.868231
 10
2.430339
 20
1.862631
 10
2.4328
 20
1.858399
 10
2.435183
 20
1.855403
 10
2.437576
 20
1.853512
 10
2.440066
 20
1.852596
 10
2.442741
 20
1.852524
 10
2.445689
 20
1.853165
 10
2.448998
 20
1.854387
 10
2.457048
 20
1.858053
 10
2.46173
 20
1.860647
 10
2.46659
 20
1.864145
 10
2.471485
 20
1.868394
 10
2.476273
 20
1.87324
 10
2.480814
 20
1.87853
 10
2.484966
 20
1.88411
 10
2.488588
 20
1.889826
 10
2.491538
 20
1.895525
  0
LWPOLYLINE
  5
38
330
1F
100
AcDbEntity
  8
0
100
AcDbPolyline
 90
      108
 70
   128
 43
0.0
 10
2.148129
 20
2.067395
 10
2.153475
 20
2.077727
 10
2.158136
 20
2.088496
 10
2.162111
 20
2.099625
 10
2.165397
 20
2.111043
 10
2.167994
 20
2.122673
 10
2.169901
 20
2.134442
 10
2.171117
 20
2.146275
 10
2.171641
 20
2.158099
 10
2.171471
 20
2.169839
 10
2.170607
 20
2.181421
 10
2.169047
 20
2.192771
 10
2.16679
 20
2.203814
 10
2.163835
 20
2.214476
 10
2.160181
 20
2.224683
 10
2.155827
 20
2.23436
 10
2.150771
 20
2.243435
 10
2.144523
 20
2.252798
 10
2.13775
 20
2.261558
 10
2.130491
 20
2.269714
 10
2.122784
 20
2.277266
 10
2.114666
 20
2.284215
 10
2.106175
 20
2.290559
 10
2.097349
 20
2.296299
 10
2.088226
 20
2.301435
 10
2.078844
 20
2.305967
 10
2.06924
 20
2.309896
 10
2.059453
 20
2.31322
 10
2.04952
 20
2.31594
 10
2.039479
 20
2.318056
 10
2.029368
 20
2.319569
 10
2.019224
 20
2.320477
 10
2.009086
 20
2.320781
 10
1.998991
 20
2.320481
 10
1.988978
 20
2.319577
 10
1.979084
 20
2.318069
 10
1.969346
 20
2.315957
 10
1.959803
 20
2.313241
 10
1.950493
 20
2.309921
 10
1.941453
 20
2.305996
 10
1.932722
 20
2.301468
 10
1.924336
 20
2.296335
 10
1.916335
 20
2.290599
 10
1.908755
 20
2.284258
 10
1.901635
 20
2.277313
 10
1.895012
 20
2.269764
 10
1.888924
 20
2.261611
 10
1.883409
 20
2.252853
 10
1.878506
 20
2.243492
 10
1.872852
 20
2.231331
 10
1.868827
 20
2.221654
 10
1.866438
 20
2.213804
 10
1.865859
 20
2.210357
 10
1.865693
 20
2.20712
 10
1.86594
 20
2.20401
 10
1.866602
 20
2.200945
 10
1.867679
 20
2.197842
 10
1.869172
 20
2.19462
 10
1.873413
 20
2.187485
 10
1.879332
 20
2.178884
 10
1.886219
 20
2.168649
 10
1.892456
 20
2.158399
 10
1.898082
 20
2.148174
 10
1.903135
 20
2.138018
 10
1.907654
 20
2.127972
 10
1.911679
 20
2.118078
 10
1.918402
 20
2.098916
 10
1.923615
 20
2.080868
 10
1.927632
 20
2.064273
 10
1.933326
 20
2.036783
 10
1.934551
 20
2.026653
 10
1.935485
 20
2.013608
 10
1.936641
 20
2.001309
 10
1.937461
 20
1.996583
 10
1.93853
 20
1.993415
 10
1.940404
 20
1.989144
 10
1.941734
 20
1.984414
 10
1.942613
 20
1.979313
 10
1.943137
 20
1.973927
 10
1.943491
 20
1.96265
 10
1.94355
 20
1.951281
 10
1.944066
 20
1.940517
 10
1.94473
 20
1.935579
 10
1.94579
 20
1.931054
 10
1.947341
 20
1.927029
 10
1.949477
 20
1.92359
 10
1.952291
 20
1.920825
 10
1.955877
 20
1.918822
 10
1.958535
 20
1.918275
 10
1.961858
 20
1.918448
 10
1.9658
 20
1.919301
 10
1.970318
 20
1.920798
 10
1.975365
 20
1.922899
 10
1.980898
 20
1.925566
 10
1.993239
 20
1.932443
 10
2.006984
 20
1.941121
 10
2.021772
 20
1.951293
 10
2.037246
 20
1.96265
 10
2.053045
 20
1.974885
 10
2.068812
 20
1.987688
 10
2.084188
 20
2.000754
 10
2.098813
 20
2.013773
 10
2.11233
 20
2.026438
 10
2.124378
 20
2.03844
 10
2.1346
 20
2.049473
 10
2.142637
 20
2.059227
 10
2.145723
 20
2.063528
 10
2.148129
 20
2.067395
  0
LWPOLYLINE
  5
39
330
1F
100
AcDbEntity
  8
0
100
AcDbPolyline
 90
      113
 70
   128
 43
0.0
 10
1.562662
 20
2.227335
 10
1.562419
 20
2.231791
 10
1.5617
 20
2.236066
 10
1.560523
 20
2.240146
 10
1.558906
 20
2.244016
 10
1.556867
 20
2.247663
 10
1.554423
 20
2.251072
 10
1.551591
 20
2.254228
 10
1.548389
 20
2.257119
 10
1.544834
 20
2.259728
 10
1.540945
 20
2.262042
 10
1.536739
 20
2.264047
 10
1.532232
 20
2.265728
 10
1.527444
 20
2.267072
 10
1.522391
 20
2.268063
 10
1.51709
 20
2.268687
 10
1.51156
 20
2.268931
 10
1.506342
 20
2.269144
 10
1.500932
 20
2.269689
 10
1.4896
 20
2.271738
 10
1.477679
 20
2.275001
 10
1.465284
 20
2.279403
 10
1.452532
 20
2.284867
 10
1.439536
 20
2.29132
 10
1.426413
 20
2.298684
 10
1.413278
 20
2.306884
 10
1.400247
 20
2.315844
 10
1.387434
 20
2.325489
 10
1.374955
 20
2.335744
 10
1.362925
 20
2.346532
 10
1.351461
 20
2.357778
 10
1.340676
 20
2.369405
 10
1.330688
 20
2.38134
 10
1.32161
 20
2.393505
 10
1.317809
 20
2.398388
 10
1.313832
 20
2.402401
 10
1.30965
 20
2.405536
 10
1.305237
 20
2.407784
 10
1.300562
 20
2.409136
 10
1.295598
 20
2.409582
 10
1.290317
 20
2.409113
 10
1.284691
 20
2.407721
 10
1.278691
 20
2.405397
 10
1.272289
 20
2.402131
 10
1.265457
 20
2.397915
 10
1.258166
 20
2.392739
 10
1.250389
 20
2.386595
 10
1.242097
 20
2.379473
 10
1.233262
 20
2.371364
 10
1.223856
 20
2.36226
 10
1.21618
 20
2.354062
 10
1.208743
 20
2.344972
 10
1.20161
 20
2.335154
 10
1.194848
 20
2.324776
 10
1.188521
 20
2.314002
 10
1.182695
 20
2.303
 10
1.177436
 20
2.291935
 10
1.172809
 20
2.280972
 10
1.16888
 20
2.270279
 10
1.165714
 20
2.26002
 10
1.163378
 20
2.250363
 10
1.161936
 20
2.241472
 10
1.161454
 20
2.233515
 10
1.161998
 20
2.226656
 10
1.162675
 20
2.22369
 10
1.163633
 20
2.221062
 10
1.16488
 20
2.218791
 10
1.166425
 20
2.216899
 10
1.167649
 20
2.215934
 10
1.1692
 20
2.215149
 10
1.173224
 20
2.214113
 10
1.17838
 20
2.213777
 10
1.184548
 20
2.21413
 10
1.191609
 20
2.215158
 10
1.199444
 20
2.216849
 10
1.207935
 20
2.219191
 10
1.216962
 20
2.222172
 10
1.233469
 20
2.227435
 10
1.250169
 20
2.231561
 10
1.266988
 20
2.234564
 10
1.283852
 20
2.236458
 10
1.300686
 20
2.237256
 10
1.317418
 20
2.236971
 10
1.333972
 20
2.235618
 10
1.350275
 20
2.233208
 10
1.366254
 20
2.229757
 10
1.381833
 20
2.225276
 10
1.396939
 20
2.219781
 10
1.411498
 20
2.213283
 10
1.425436
 20
2.205797
 10
1.432149
 20
2.201687
 10
1.438679
 20
2.197335
 10
1.445016
 20
2.192743
 10
1.451153
 20
2.187913
 10
1.457078
 20
2.182845
 10
1.462783
 20
2.177541
 10
1.476345
 20
2.164837
 10
1.488316
 20
2.154433
 10
1.497398
 20
2.147403
 10
1.500451
 20
2.145489
 10
1.502296
 20
2.144822
 10
1.504905
 20
2.145572
 10
1.508254
 20
2.14771
 10
1.512218
 20
2.151064
 10
1.516672
 20
2.155462
 10
1.526546
 20
2.166706
 10
1.536874
 20
2.180071
 10
1.546652
 20
2.194188
 10
1.554878
 20
2.207685
 10
1.558095
 20
2.213772
 10
1.560549
 20
2.219191
 10
1.562113
 20
2.223769
 10
1.562662
 20
2.227335
  0
LWPOLYLINE
  5
3A
330
1F
100
AcDbEntity
  8
0
100
AcDbPolyline
 90
      113
 70
   128
 43
0.0
 10
1.860589
 20
2.329291
 10
1.868667
 20
2.33539
 10
1.877221
 20
2.341388
 10
1.885991
 20
2.347131
 10
1.894717
 20
2.352466
 10
1.90314
 20
2.35724
 10
1.910999
 20
2.3613
 10
1.918035
 20
2.364492
 10
1.923987
 20
2.366663
 10
1.934711
 20
2.370257
 10
1.944162
 20
2.37419
 10
1.952345
 20
2.378493
 10
1.959266
 20
2.383201
 10
1.964933
 20
2.388346
 10
1.967298
 20
2.391092
 10
1.969351
 20
2.39396
 10
1.971093
 20
2.396954
 10
1.972526
 20
2.400078
 10
1.97365
 20
2.403335
 10
1.974465
 20
2.406731
 10
1.974973
 20
2.410269
 10
1.975174
 20
2.413953
 10
1.974659
 20
2.421776
 10
1.972927
 20
2.430234
 10
1.969984
 20
2.439359
 10
1.965836
 20
2.449184
 10
1.960489
 20
2.459743
 10
1.95395
 20
2.471067
 10
1.946225
 20
2.483191
 10
1.937545
 20
2.495817
 10
1.928907
 20
2.507445
 10
1.920281
 20
2.518095
 10
1.911635
 20
2.527785
 10
1.902938
 20
2.536536
 10
1.894158
 20
2.544367
 10
1.885264
 20
2.551295
 10
1.876226
 20
2.557342
 10
1.867011
 20
2.562526
 10
1.857588
 20
2.566866
 10
1.847927
 20
2.570382
 10
1.837995
 20
2.573093
 10
1.827762
 20
2.575018
 10
1.817197
 20
2.576176
 10
1.806267
 20
2.576587
 10
1.794942
 20
2.57627
 10
1.777902
 20
2.575122
 10
1.771005
 20
2.574359
 10
1.765086
 20
2.573314
 10
1.760069
 20
2.571868
 10
1.755876
 20
2.569904
 10
1.752432
 20
2.567303
 10
1.749658
 20
2.563948
 10
1.747478
 20
2.559722
 10
1.745815
 20
2.554505
 10
1.744591
 20
2.548181
 10
1.74373
 20
2.540632
 10
1.742789
 20
2.521385
 10
1.742375
 20
2.495822
 10
1.741521
 20
2.465194
 10
1.740699
 20
2.451696
 10
1.739559
 20
2.439245
 10
1.73806
 20
2.427718
 10
1.73616
 20
2.41699
 10
1.733819
 20
2.40694
 10
1.730996
 20
2.397443
 10
1.727651
 20
2.388377
 10
1.723741
 20
2.379617
 10
1.719226
 20
2.371041
 10
1.714065
 20
2.362526
 10
1.708217
 20
2.353948
 10
1.701641
 20
2.345183
 10
1.694297
 20
2.336109
 10
1.686142
 20
2.326603
 10
1.67978
 20
2.319025
 10
1.674302
 20
2.311803
 10
1.669708
 20
2.304957
 10
1.665997
 20
2.298504
 10
1.663168
 20
2.292463
 10
1.661219
 20
2.286852
 10
1.660149
 20
2.281688
 10
1.659959
 20
2.276991
 10
1.660645
 20
2.272778
 10
1.662209
 20
2.269067
 10
1.664648
 20
2.265878
 10
1.667962
 20
2.263227
 10
1.672149
 20
2.261134
 10
1.677209
 20
2.259617
 10
1.68314
 20
2.258693
 10
1.689942
 20
2.258381
 10
1.703267
 20
2.257868
 10
1.721294
 20
2.256474
 10
1.74166
 20
2.254409
 10
1.762
 20
2.251888
 10
1.776932
 20
2.249959
 10
1.788467
 20
2.248912
 10
1.793128
 20
2.248784
 10
1.797139
 20
2.248952
 10
1.800568
 20
2.249443
 10
1.80348
 20
2.250282
 10
1.805943
 20
2.251493
 10
1.808022
 20
2.253104
 10
1.809785
 20
2.255138
 10
1.811299
 20
2.257622
 10
1.813842
 20
2.264039
 10
1.816184
 20
2.272559
 10
1.81832
 20
2.278619
 10
1.821797
 20
2.285439
 10
1.826431
 20
2.292787
 10
1.83204
 20
2.300429
 10
1.838443
 20
2.308133
 10
1.845457
 20
2.315666
 10
1.8529
 20
2.322797
 10
1.860589
 20
2.329291
  0
LWPOLYLINE
  5
3B
330
1F
100
AcDbEntity
  8
0
100
AcDbPolyline
 90
       99
 70
   128
 43
0.0
 10
2.264664
 20
2.360431
 10
2.264478
 20
2.367559
 10
2.263925
 20
2.374738
 10
2.263015
 20
2.381955
 10
2.261758
 20
2.389197
 10
2.260163
 20
2.396451
 10
2.258239
 20
2.403705
 10
2.255997
 20
2.410946
 10
2.253445
 20
2.41816
 10
2.247451
 20
2.432459
 10
2.240334
 20
2.4465
 10
2.23217
 20
2.46018
 10
2.223034
 20
2.473396
 10
2.213003
 20
2.486046
 10
2.202152
 20
2.498026
 10
2.190558
 20
2.509235
 10
2.178298
 20
2.51957
 10
2.165446
 20
2.528928
 10
2.158822
 20
2.533209
 10
2.152079
 20
2.537207
 10
2.145226
 20
2.540909
 10
2.138273
 20
2.544303
 10
2.131229
 20
2.547375
 10
2.124104
 20
2.550114
 10
2.104127
 20
2.556666
 10
2.085081
 20
2.561739
 10
2.067366
 20
2.565301
 10
2.059132
 20
2.566505
 10
2.051379
 20
2.567318
 10
2.044158
 20
2.567737
 10
2.037519
 20
2.567758
 10
2.03151
 20
2.567377
 10
2.026183
 20
2.566589
 10
2.021586
 20
2.56539
 10
2.01777
 20
2.563776
 10
2.014785
 20
2.561744
 10
2.012679
 20
2.559288
 10
2.01223
 20
2.558104
 10
2.012001
 20
2.556386
 10
2.01217
 20
2.551486
 10
2.013125
 20
2.544852
 10
2.014806
 20
2.536748
 10
2.01715
 20
2.527438
 10
2.020096
 20
2.517186
 10
2.023585
 20
2.506256
 10
2.027555
 20
2.494912
 10
2.031636
 20
2.483218
 10
2.035444
 20
2.471284
 10
2.038897
 20
2.459445
 10
2.041909
 20
2.448036
 10
2.044398
 20
2.43739
 10
2.046281
 20
2.427843
 10
2.047474
 20
2.419728
 10
2.047893
 20
2.41338
 10
2.048028
 20
2.409493
 10
2.048455
 20
2.405841
 10
2.049215
 20
2.402387
 10
2.050352
 20
2.399091
 10
2.051908
 20
2.395914
 10
2.053926
 20
2.392817
 10
2.056448
 20
2.389761
 10
2.059518
 20
2.386708
 10
2.063177
 20
2.383619
 10
2.067468
 20
2.380454
 10
2.078117
 20
2.373742
 10
2.091807
 20
2.366263
 10
2.108877
 20
2.357704
 10
2.12157
 20
2.351129
 10
2.134276
 20
2.343825
 10
2.146655
 20
2.336037
 10
2.158367
 20
2.328007
 10
2.169073
 20
2.319979
 10
2.178432
 20
2.312197
 10
2.186105
 20
2.304904
 10
2.191751
 20
2.298344
 10
2.196352
 20
2.29239
 10
2.201029
 20
2.286835
 10
2.205652
 20
2.281802
 10
2.210091
 20
2.277411
 10
2.214217
 20
2.273784
 10
2.217899
 20
2.271043
 10
2.221008
 20
2.269309
 10
2.223414
 20
2.268704
 10
2.226398
 20
2.269361
 10
2.229579
 20
2.27125
 10
2.232902
 20
2.274254
 10
2.236314
 20
2.278252
 10
2.23976
 20
2.283126
 10
2.243189
 20
2.288757
 10
2.246545
 20
2.295024
 10
2.249776
 20
2.30181
 10
2.252828
 20
2.308994
 10
2.255646
 20
2.316458
 10
2.258178
 20
2.324081
 10
2.26037
 20
2.331746
 10
2.262168
 20
2.339333
 10
2.263519
 20
2.346722
 10
2.264369
 20
2.353795
 10
2.264664
 20
2.360431
  0
LWPOLYLINE
  5
3C
330
1F
100
AcDbEntity
  8
0
100
AcDbPolyline
 90
      113
 70
   128
 43
0.0
 10
1.689126
 20
2.40557
 10
1.692603
 20
2.412466
 10
1.695659
 20
2.419597
 10
1.698302
 20
2.426942
 10
1.700537
 20
2.434477
 10
1.702371
 20
2.442179
 10
1.703811
 20
2.450026
 10
1.704863
 20
2.457995
 10
1.705534
 20
2.466063
 10
1.705831
 20
2.474207
 10
1.705759
 20
2.482405
 10
1.705326
 20
2.490634
 10
1.704539
 20
2.49887
 10
1.703403
 20
2.507091
 10
1.701925
 20
2.515275
 10
1.700112
 20
2.523398
 10
1.697971
 20
2.531438
 10
1.695507
 20
2.539372
 10
1.692729
 20
2.547177
 10
1.689641
 20
2.55483
 10
1.686251
 20
2.562308
 10
1.682566
 20
2.569589
 10
1.678591
 20
2.57665
 10
1.674334
 20
2.583468
 10
1.669801
 20
2.590021
 10
1.664998
 20
2.596285
 10
1.659933
 20
2.602237
 10
1.654611
 20
2.607856
 10
1.64904
 20
2.613117
 10
1.643225
 20
2.617999
 10
1.637174
 20
2.622478
 10
1.630893
 20
2.626532
 10
1.624389
 20
2.630138
 10
1.614575
 20
2.634919
 10
1.604813
 20
2.639226
 10
1.59511
 20
2.643062
 10
1.585474
 20
2.646427
 10
1.575912
 20
2.649325
 10
1.56643
 20
2.651757
 10
1.557037
 20
2.653725
 10
1.547739
 20
2.655231
 10
1.538543
 20
2.656278
 10
1.529457
 20
2.656867
 10
1.520488
 20
2.657
 10
1.511642
 20
2.65668
 10
1.502928
 20
2.655909
 10
1.494352
 20
2.654688
 10
1.485922
 20
2.65302
 10
1.477644
 20
2.650906
 10
1.469527
 20
2.648349
 10
1.461576
 20
2.645351
 10
1.453799
 20
2.641913
 10
1.446204
 20
2.638039
 10
1.438798
 20
2.633729
 10
1.431587
 20
2.628986
 10
1.424579
 20
2.623812
 10
1.417781
 20
2.61821
 10
1.411201
 20
2.61218
 10
1.404845
 20
2.605725
 10
1.398721
 20
2.598848
 10
1.392835
 20
2.591549
 10
1.387196
 20
2.583832
 10
1.38181
 20
2.575699
 10
1.376684
 20
2.56715
 10
1.371825
 20
2.558189
 10
1.366792
 20
2.547538
 10
1.362625
 20
2.536846
 10
1.359304
 20
2.526137
 10
1.356812
 20
2.515437
 10
1.355129
 20
2.504771
 10
1.354239
 20
2.494163
 10
1.354121
 20
2.483638
 10
1.354758
 20
2.473222
 10
1.356131
 20
2.462938
 10
1.358222
 20
2.452812
 10
1.361012
 20
2.44287
 10
1.364483
 20
2.433134
 10
1.368617
 20
2.423631
 10
1.373394
 20
2.414386
 10
1.378796
 20
2.405422
 10
1.384805
 20
2.396766
 10
1.391403
 20
2.388442
 10
1.398571
 20
2.380474
 10
1.406291
 20
2.372889
 10
1.414543
 20
2.365709
 10
1.42331
 20
2.358961
 10
1.432573
 20
2.35267
 10
1.442314
 20
2.34686
 10
1.452514
 20
2.341555
 10
1.463155
 20
2.336782
 10
1.474218
 20
2.332564
 10
1.485685
 20
2.328927
 10
1.497537
 20
2.325896
 10
1.509756
 20
2.323494
 10
1.522324
 20
2.321749
 10
1.535221
 20
2.320683
 10
1.54843
 20
2.320322
 10
1.559538
 20
2.320685
 10
1.57043
 20
2.321767
 10
1.581087
 20
2.323555
 10
1.591488
 20
2.326038
 10
1.601615
 20
2.329202
 10
1.611446
 20
2.333037
 10
1.620962
 20
2.33753
 10
1.630143
 20
2.342668
 10
1.638969
 20
2.34844
 10
1.64742
 20
2.354834
 10
1.655476
 20
2.361837
 10
1.663116
 20
2.369437
 10
1.670321
 20
2.377623
 10
1.677071
 20
2.386382
 10
1.683346
 20
2.395701
 10
1.689126
 20
2.40557
  0
LWPOLYLINE
  5
3D
330
1F
100
AcDbEntity
  8
0
100
AcDbPolyline
 90
      165
 70
   128
 43
0.0
 10
1.101724
 20
2.478687
 10
1.092595
 20
2.487181
 10
1.082836
 20
2.49709
 10
1.072614
 20
2.508183
 10
1.062098
 20
2.520227
 10
1.051456
 20
2.532991
 10
1.040856
 20
2.546242
 10
1.030467
 20
2.559749
 10
1.020457
 20
2.573278
 10
1.010995
 20
2.586599
 10
1.002248
 20
2.599479
 10
0.994385
 20
2.611686
 10
0.987574
 20
2.622988
 10
0.981984
 20
2.633152
 10
0.977782
 20
2.641948
 10
0.975138
 20
2.649142
 10
0.974452
 20
2.652066
 10
0.974219
 20
2.654503
 10
0.973978
 20
2.657294
 10
0.973286
 20
2.660364
 10
0.970746
 20
2.666939
 10
0.966986
 20
2.673426
 10
0.964769
 20
2.676384
 10
0.962394
 20
2.679019
 10
0.959361
 20
2.682721
 10
0.955936
 20
2.688082
 10
0.95218
 20
2.694937
 10
0.948155
 20
2.703119
 10
0.939544
 20
2.722801
 10
0.930594
 20
2.7458
 10
0.921795
 20
2.770787
 10
0.91364
 20
2.796433
 10
0.90662
 20
2.821411
 10
0.90369
 20
2.833233
 10
0.901227
 20
2.84439
 10
0.896885
 20
2.863047
 10
0.891735
 20
2.881304
 10
0.886423
 20
2.897064
 10
0.883907
 20
2.903354
 10
0.881591
 20
2.908234
 10
0.879461
 20
2.912756
 10
0.877473
 20
2.91802
 10
0.875671
 20
2.923835
 10
0.8741
 20
2.930013
 10
0.872802
 20
2.936362
 10
0.871821
 20
2.942693
 10
0.8712
 20
2.948817
 10
0.870984
 20
2.954542
 10
0.870832
 20
2.964781
 10
0.870083
 20
2.97225
 10
0.869347
 20
2.974979
 10
0.868296
 20
2.977055
 10
0.866875
 20
2.978491
 10
0.865029
 20
2.979301
 10
0.862703
 20
2.979499
 10
0.859842
 20
2.979098
 10
0.85639
 20
2.97811
 10
0.852292
 20
2.976549
 10
0.841938
 20
2.971763
 10
0.82834
 20
2.964847
 10
0.822146
 20
2.961347
 10
0.816547
 20
2.9576
 10
0.811652
 20
2.953723
 10
0.807572
 20
2.949831
 10
0.804415
 20
2.946043
 10
0.802292
 20
2.942473
 10
0.801312
 20
2.939239
 10
0.801285
 20
2.937784
 10
0.801585
 20
2.936457
 10
0.808687
 20
2.915706
 10
0.819386
 20
2.882956
 10
0.826138
 20
2.863823
 10
0.834258
 20
2.842122
 10
0.841953
 20
2.820298
 10
0.845082
 20
2.810104
 10
0.847431
 20
2.800797
 10
0.852052
 20
2.783251
 10
0.853889
 20
2.776852
 10
0.85498
 20
2.771571
 10
0.855145
 20
2.76924
 10
0.855003
 20
2.767057
 10
0.854513
 20
2.764979
 10
0.853636
 20
2.762962
 10
0.852331
 20
2.760963
 10
0.850557
 20
2.758937
 10
0.845443
 20
2.754631
 10
0.827411
 20
2.74272
 10
0.812231
 20
2.733264
 10
0.808627
 20
2.731339
 10
0.804602
 20
2.72978
 10
0.796399
 20
2.727233
 10
0.792777
 20
2.725983
 10
0.789846
 20
2.724573
 10
0.787884
 20
2.722873
 10
0.787352
 20
2.721872
 10
0.787168
 20
2.72075
 10
0.787396
 20
2.719547
 10
0.788054
 20
2.718474
 10
0.790494
 20
2.716717
 10
0.794159
 20
2.71547
 10
0.798721
 20
2.714723
 10
0.803852
 20
2.714469
 10
0.809221
 20
2.714699
 10
0.814502
 20
2.715404
 10
0.819366
 20
2.716575
 10
0.859937
 20
2.729117
 10
0.862912
 20
2.729902
 10
0.865714
 20
2.730331
 10
0.868372
 20
2.730369
 10
0.870915
 20
2.729983
 10
0.873375
 20
2.72914
 10
0.87578
 20
2.727805
 10
0.878159
 20
2.725947
 10
0.880544
 20
2.72353
 10
0.882963
 20
2.720521
 10
0.885445
 20
2.716888
 10
0.890722
 20
2.707611
 10
0.896612
 20
2.695431
 10
0.903351
 20
2.68008
 10
0.912522
 20
2.658923
 10
0.921839
 20
2.638205
 10
0.931268
 20
2.617984
 10
0.940778
 20
2.598317
 10
0.950336
 20
2.579261
 10
0.959908
 20
2.560871
 10
0.969464
 20
2.543205
 10
0.978969
 20
2.52632
 10
0.988391
 20
2.510272
 10
0.997698
 20
2.495117
 10
1.006858
 20
2.480914
 10
1.015837
 20
2.467717
 10
1.024603
 20
2.455585
 10
1.033124
 20
2.444573
 10
1.041366
 20
2.434739
 10
1.049298
 20
2.426138
 10
1.058115
 20
2.417325
 10
1.066772
 20
2.409103
 10
1.075049
 20
2.401652
 10
1.082726
 20
2.395152
 10
1.089582
 20
2.389783
 10
1.095397
 20
2.385725
 10
1.09995
 20
2.383159
 10
1.101685
 20
2.382491
 10
1.103022
 20
2.382263
 10
1.105566
 20
2.382833
 10
1.108608
 20
2.384466
 10
1.112033
 20
2.387048
 10
1.115727
 20
2.390463
 10
1.119576
 20
2.394599
 10
1.123464
 20
2.399339
 10
1.127279
 20
2.404571
 10
1.130904
 20
2.410178
 10
1.136357
 20
2.419426
 10
1.13838
 20
2.423339
 10
1.139879
 20
2.426907
 10
1.140812
 20
2.430231
 10
1.141136
 20
2.433407
 10
1.14081
 20
2.436535
 10
1.139792
 20
2.439711
 10
1.138041
 20
2.443036
 10
1.135514
 20
2.446606
 10
1.13217
 20
2.45052
 10
1.127966
 20
2.454876
 10
1.116815
 20
2.465308
 10
1.101724
 20
2.478687
  0
LWPOLYLINE
  5
3E
330
1F
100
AcDbEntity
  8
0
100
AcDbPolyline
 90
       52
 70
   128
 43
0.0
 10
0.798719
 20
2.502169
 10
0.798457
 20
2.507793
 10
0.797678
 20
2.512902
 10
0.796395
 20
2.517492
 10
0.794618
 20
2.521557
 10
0.792358
 20
2.525092
 10
0.789627
 20
2.528094
 10
0.786436
 20
2.530556
 10
0.782797
 20
2.532475
 10
0.77872
 20
2.533845
 10
0.774217
 20
2.534661
 10
0.7693
 20
2.534919
 10
0.763979
 20
2.534614
 10
0.758266
 20
2.533741
 10
0.752172
 20
2.532295
 10
0.745708
 20
2.530272
 10
0.738887
 20
2.527667
 10
0.734175
 20
2.525503
 10
0.729461
 20
2.522935
 10
0.724787
 20
2.520007
 10
0.720195
 20
2.516768
 10
0.711431
 20
2.509538
 10
0.703508
 20
2.501618
 10
0.696766
 20
2.493378
 10
0.693944
 20
2.489254
 10
0.691544
 20
2.48519
 10
0.68961
 20
2.481233
 10
0.688184
 20
2.477427
 10
0.687308
 20
2.473821
 10
0.687025
 20
2.470461
 10
0.687209
 20
2.469033
 10
0.687722
 20
2.467717
 10
0.68967
 20
2.46541
 10
0.692729
 20
2.463517
 10
0.69676
 20
2.462017
 10
0.701625
 20
2.460888
 10
0.707183
 20
2.460109
 10
0.713296
 20
2.459658
 10
0.719826
 20
2.459513
 10
0.733574
 20
2.460056
 10
0.747317
 20
2.461564
 10
0.759939
 20
2.463865
 10
0.765483
 20
2.465258
 10
0.770329
 20
2.466784
 10
0.777431
 20
2.469651
 10
0.783407
 20
2.472827
 10
0.788314
 20
2.476378
 10
0.792206
 20
2.480374
 10
0.795138
 20
2.484883
 10
0.797164
 20
2.489972
 10
0.798339
 20
2.495712
 10
0.798719
 20
2.502169
  0
LWPOLYLINE
  5
3F
330
1F
100
AcDbEntity
  8
0
100
AcDbPolyline
 90
      101
 70
   128
 43
0.0
 10
2.006575
 20
2.730046
 10
2.006174
 20
2.742764
 10
2.004971
 20
2.75504
 10
2.002968
 20
2.766869
 10
2.000168
 20
2.77825
 10
1.996573
 20
2.78918
 10
1.992184
 20
2.799656
 10
1.987003
 20
2.809674
 10
1.981032
 20
2.819232
 10
1.974273
 20
2.828328
 10
1.966728
 20
2.836958
 10
1.9584
 20
2.84512
 10
1.949289
 20
2.85281
 10
1.939398
 20
2.860027
 10
1.928729
 20
2.866766
 10
1.917284
 20
2.873026
 10
1.905064
 20
2.878802
 10
1.893249
 20
2.883634
 10
1.881434
 20
2.88777
 10
1.86964
 20
2.89122
 10
1.85789
 20
2.893996
 10
1.846206
 20
2.89611
 10
1.834611
 20
2.897572
 10
1.823127
 20
2.898394
 10
1.811776
 20
2.898586
 10
1.80058
 20
2.898161
 10
1.789563
 20
2.89713
 10
1.778745
 20
2.895503
 10
1.76815
 20
2.893292
 10
1.7578
 20
2.890508
 10
1.747716
 20
2.887163
 10
1.737922
 20
2.883267
 10
1.728439
 20
2.878833
 10
1.71929
 20
2.87387
 10
1.710497
 20
2.868391
 10
1.702083
 20
2.862407
 10
1.694069
 20
2.855928
 10
1.686478
 20
2.848967
 10
1.679333
 20
2.841534
 10
1.672655
 20
2.83364
 10
1.666467
 20
2.825298
 10
1.660791
 20
2.816518
 10
1.65565
 20
2.807311
 10
1.651066
 20
2.797688
 10
1.64706
 20
2.787662
 10
1.643656
 20
2.777242
 10
1.640875
 20
2.766441
 10
1.638741
 20
2.75527
 10
1.637274
 20
2.743739
 10
1.63598
 20
2.728309
 10
1.635519
 20
2.715839
 10
1.635665
 20
2.710518
 10
1.636094
 20
2.705702
 10
1.636832
 20
2.701314
 10
1.637905
 20
2.697273
 10
1.639337
 20
2.693503
 10
1.641153
 20
2.689925
 10
1.643378
 20
2.686461
 10
1.646038
 20
2.683031
 10
1.652762
 20
2.675965
 10
1.661526
 20
2.6681
 10
1.670606
 20
2.660682
 10
1.678961
 20
2.654979
 10
1.683089
 20
2.652722
 10
1.687304
 20
2.650837
 10
1.691694
 20
2.649303
 10
1.69635
 20
2.648101
 10
1.70136
 20
2.647213
 10
1.706814
 20
2.646618
 10
1.719411
 20
2.646232
 10
1.734854
 20
2.646788
 10
1.75386
 20
2.648133
 10
1.769448
 20
2.649043
 10
1.784968
 20
2.64927
 10
1.800385
 20
2.648815
 10
1.815664
 20
2.647684
 10
1.83077
 20
2.645879
 10
1.845668
 20
2.643404
 10
1.860324
 20
2.640262
 10
1.874703
 20
2.636457
 10
1.900397
 20
2.629211
 10
1.92073
 20
2.624222
 10
1.929193
 20
2.622604
 10
1.936685
 20
2.621584
 10
1.943328
 20
2.621176
 10
1.949245
 20
2.62139
 10
1.954558
 20
2.622238
 10
1.959391
 20
2.623732
 10
1.963867
 20
2.625883
 10
1.968107
 20
2.628704
 10
1.972236
 20
2.632204
 10
1.976376
 20
2.636397
 10
1.985179
 20
2.646906
 10
1.990596
 20
2.654517
 10
1.995131
 20
2.66254
 10
1.998833
 20
2.671165
 10
2.001752
 20
2.680585
 10
2.003936
 20
2.690992
 10
2.005435
 20
2.702577
 10
2.006298
 20
2.715531
 10
2.006575
 20
2.730046
  0
LWPOLYLINE
  5
40
330
1F
100
AcDbEntity
  8
0
100
AcDbPolyline
 90
      170
 70
   128
 43
0.0
 10
1.594813
 20
0.952468
 10
1.580255
 20
0.952468
 10
1.581266
 20
0.971407
 10
1.581603
 20
0.986168
 10
1.581357
 20
0.995311
 10
1.580617
 20
1.003734
 10
1.579385
 20
1.011436
 10
1.57766
 20
1.018418
 10
1.575442
 20
1.02468
 10
1.572732
 20
1.030222
 10
1.569528
 20
1.035043
 10
1.565831
 20
1.039144
 10
1.56176
 20
1.042651
 10
1.557432
 20
1.04569
 10
1.552846
 20
1.048262
 10
1.548004
 20
1.050366
 10
1.542905
 20
1.052002
 10
1.537549
 20
1.053171
 10
1.531936
 20
1.053873
 10
1.526066
 20
1.054106
 10
1.518007
 20
1.0537
 10
1.509873
 20
1.05248
 10
1.501663
 20
1.050448
 10
1.493377
 20
1.047602
 10
1.485015
 20
1.043944
 10
1.476577
 20
1.039472
 10
1.468064
 20
1.034188
 10
1.459475
 20
1.02809
 10
1.450999
 20
1.021131
 10
1.442827
 20
1.013262
 10
1.434958
 20
1.004483
 10
1.427393
 20
0.994795
 10
1.42013
 20
0.984196
 10
1.413171
 20
0.972688
 10
1.406515
 20
0.960269
 10
1.400163
 20
0.946941
 10
1.39435
 20
0.933109
 10
1.389312
 20
0.919181
 10
1.385049
 20
0.905155
 10
1.381561
 20
0.891033
 10
1.378848
 20
0.876814
 10
1.37691
 20
0.862498
 10
1.375748
 20
0.848085
 10
1.37536
 20
0.833575
 10
1.37572
 20
0.819899
 10
1.376801
 20
0.807045
 10
1.378601
 20
0.795012
 10
1.381123
 20
0.7838
 10
1.384364
 20
0.77341
 10
1.388326
 20
0.763841
 10
1.393008
 20
0.755094
 10
1.398411
 20
0.747168
 10
1.404357
 20
0.740123
 10
1.410669
 20
0.734017
 10
1.417348
 20
0.72885
 10
1.424393
 20
0.724623
 10
1.431805
 20
0.721335
 10
1.439583
 20
0.718987
 10
1.447728
 20
0.717578
 10
1.45624
 20
0.717108
 10
1.462107
 20
0.717329
 10
1.467912
 20
0.717993
 10
1.473657
 20
0.719099
 10
1.479341
 20
0.720647
 10
1.484963
 20
0.722637
 10
1.490525
 20
0.72507
 10
1.496025
 20
0.727945
 10
1.501465
 20
0.731262
 10
1.506843
 20
0.735022
 10
1.51216
 20
0.739224
 10
1.517416
 20
0.743868
 10
1.522611
 20
0.748954
 10
1.527745
 20
0.754483
 10
1.532818
 20
0.760455
 10
1.53783
 20
0.766868
 10
1.542781
 20
0.773724
 10
1.54482
 20
0.776201
 10
1.546892
 20
0.77797
 10
1.548998
 20
0.779032
 10
1.551138
 20
0.779385
 10
1.552823
 20
0.779242
 10
1.554374
 20
0.778813
 10
1.555789
 20
0.778096
 10
1.55707
 20
0.777094
 10
1.558889
 20
0.774634
 10
1.559344
 20
0.773277
 10
1.559496
 20
0.771837
 10
1.559216
 20
0.769798
 10
1.558375
 20
0.767321
 10
1.555014
 20
0.761053
 10
1.549411
 20
0.753032
 10
1.541568
 20
0.743259
 10
1.53694
 20
0.738046
 10
1.532022
 20
0.733057
 10
1.526813
 20
0.72829
 10
1.521314
 20
0.723747
 10
1.515524
 20
0.719427
 10
1.509443
 20
0.71533
 10
1.503072
 20
0.711457
 10
1.49641
 20
0.707807
 10
1.489615
 20
0.70449
 10
1.482846
 20
0.701615
 10
1.476101
 20
0.699182
 10
1.469383
 20
0.697192
 10
1.462689
 20
0.695643
 10
1.456021
 20
0.694538
 10
1.449377
 20
0.693874
 10
1.44276
 20
0.693653
 10
1.434878
 20
0.693912
 10
1.42714
 20
0.694689
 10
1.419545
 20
0.695985
 10
1.412093
 20
0.697798
 10
1.404784
 20
0.70013
 10
1.397619
 20
0.702979
 10
1.390597
 20
0.706347
 10
1.383718
 20
0.710233
 10
1.3771
 20
0.7146
 10
1.370861
 20
0.719408
 10
1.365001
 20
0.724659
 10
1.359521
 20
0.730352
 10
1.35442
 20
0.736488
 10
1.349698
 20
0.743065
 10
1.345354
 20
0.750086
 10
1.341391
 20
0.757548
 10
1.337852
 20
0.765413
 10
1.334785
 20
0.77364
 10
1.33219
 20
0.782229
 10
1.330067
 20
0.79118
 10
1.328416
 20
0.800494
 10
1.327237
 20
0.81017
 10
1.326529
 20
0.820209
 10
1.326293
 20
0.830609
 10
1.326775
 20
0.845361
 10
1.328222
 20
0.860097
 10
1.330634
 20
0.874815
 10
1.33401
 20
0.889516
 10
1.338351
 20
0.904201
 10
1.343657
 20
0.918869
 10
1.349927
 20
0.93352
 10
1.357162
 20
0.948154
 10
1.365122
 20
0.962363
 10
1.373565
 20
0.975738
 10
1.382494
 20
0.988278
 10
1.391907
 20
0.999985
 10
1.401804
 20
1.010857
 10
1.412185
 20
1.020895
 10
1.423052
 20
1.0301
 10
1.434402
 20
1.03847
 10
1.445961
 20
1.045926
 10
1.457453
 20
1.052388
 10
1.468877
 20
1.057856
 10
1.480234
 20
1.062329
 10
1.491523
 20
1.065809
 10
1.502745
 20
1.068294
 10
1.5139
 20
1.069785
 10
1.524987
 20
1.070282
 10
1.532924
 20
1.070063
 10
1.540826
 20
1.069406
 10
1.548695
 20
1.068311
 10
1.55653
 20
1.066778
 10
1.573785
 20
1.061318
 10
1.612068
 20
1.048175
 10
1.608436
 20
1.036536
 10
1.605227
 20
1.024804
 10
1.602438
 20
1.01298
 10
1.60007
 20
1.001063
 10
1.598124
 20
0.989053
 10
1.596599
 20
0.976951
 10
1.595496
 20
0.964756
 10
1.594813
 20
0.952468
  0
LWPOLYLINE
  5
41
330
1F
100
AcDbEntity
  8
0
100
AcDbPolyline
 90
      113
 70
   128
 43
0.0
 10
1.791351
 20
0.97781
 10
1.80914
 20
0.981584
 10
1.78892
 20
0.913376
 10
1.78294
 20
0.892246
 10
1.777128
 20
0.869566
 10
1.771484
 20
0.845336
 10
1.766008
 20
0.819556
 10
1.76156
 20
0.795831
 10
1.760448
 20
0.78781
 10
1.760077
 20
0.782351
 10
1.760499
 20
0.778695
 10
1.761025
 20
0.777258
 10
1.761762
 20
0.776083
 10
1.76271
 20
0.775169
 10
1.763869
 20
0.774516
 10
1.766817
 20
0.773993
 10
1.769294
 20
0.774347
 10
1.772411
 20
0.775409
 10
1.776169
 20
0.777178
 10
1.780567
 20
0.779655
 10
1.78884
 20
0.784946
 10
1.796945
 20
0.790843
 10
1.804881
 20
0.797347
 10
1.812649
 20
0.804458
 10
1.821276
 20
0.793944
 10
1.796069
 20
0.771432
 10
1.78761
 20
0.764322
 10
1.781915
 20
0.759974
 10
1.773389
 20
0.754431
 10
1.765065
 20
0.749662
 10
1.756943
 20
0.745669
 10
1.749024
 20
0.74245
 10
1.743935
 20
0.740799
 10
1.738914
 20
0.73962
 10
1.73396
 20
0.738912
 10
1.729073
 20
0.738676
 10
1.725788
 20
0.738878
 10
1.72294
 20
0.739485
 10
1.720531
 20
0.740496
 10
1.718559
 20
0.741911
 10
1.717026
 20
0.743714
 10
1.715931
 20
0.745888
 10
1.715273
 20
0.748432
 10
1.715054
 20
0.751347
 10
1.715594
 20
0.756133
 10
1.717211
 20
0.762401
 10
1.727995
 20
0.799066
 10
1.72206
 20
0.792246
 10
1.715846
 20
0.78567
 10
1.709355
 20
0.779339
 10
1.702585
 20
0.773252
 10
1.695538
 20
0.767409
 10
1.688212
 20
0.761811
 10
1.680609
 20
0.756457
 10
1.672727
 20
0.751347
 10
1.663089
 20
0.745921
 10
1.658422
 20
0.74379
 10
1.653855
 20
0.742046
 10
1.64939
 20
0.74069
 10
1.645026
 20
0.739721
 10
1.640763
 20
0.739139
 10
1.636601
 20
0.738946
 10
1.632806
 20
0.739118
 10
1.629238
 20
0.739636
 10
1.625897
 20
0.7405
 10
1.622784
 20
0.741709
 10
1.619899
 20
0.743263
 10
1.617241
 20
0.745163
 10
1.61481
 20
0.747408
 10
1.612607
 20
0.749999
 10
1.609953
 20
0.753849
 10
1.607653
 20
0.757986
 10
1.605707
 20
0.762409
 10
1.604114
 20
0.767119
 10
1.602876
 20
0.772115
 10
1.601991
 20
0.777397
 10
1.601461
 20
0.782966
 10
1.601284
 20
0.788821
 10
1.601522
 20
0.796067
 10
1.602236
 20
0.803514
 10
1.603426
 20
0.811164
 10
1.605092
 20
0.819016
 10
1.607234
 20
0.827071
 10
1.609852
 20
0.835327
 10
1.612946
 20
0.843786
 10
1.616516
 20
0.852447
 10
1.620486
 20
0.861108
 10
1.624781
 20
0.869566
 10
1.6294
 20
0.877823
 10
1.634343
 20
0.885877
 10
1.639611
 20
0.893729
 10
1.645203
 20
0.901379
 10
1.651119
 20
0.908826
 10
1.65736
 20
0.916072
 10
1.663805
 20
0.92298
 10
1.670335
 20
0.929417
 10
1.676948
 20
0.935382
 10
1.683646
 20
0.940875
 10
1.690428
 20
0.945896
 10
1.697295
 20
0.950446
 10
1.704245
 20
0.954523
 10
1.71128
 20
0.958129
 10
1.716933
 20
0.96053
 10
1.722974
 20
0.962611
 10
1.729402
 20
0.964372
 10
1.736218
 20
0.965813
 10
1.743421
 20
0.966933
 10
1.751012
 20
0.967734
 10
1.758991
 20
0.968214
 10
1.767356
 20
0.968374
 10
1.776051
 20
0.968104
 10
1.78488
 20
0.967296
 10
1.791351
 20
0.97781
  0
LWPOLYLINE
  5
42
330
1F
100
AcDbEntity
  8
0
100
AcDbPolyline
 90
       54
 70
   128
 43
0.0
 10
1.757921
 20
0.936561
 10
1.744508
 20
0.938786
 10
1.738661
 20
0.939342
 10
1.733387
 20
0.939527
 10
1.727418
 20
0.939319
 10
1.721643
 20
0.938693
 10
1.716061
 20
0.93765
 10
1.710673
 20
0.936191
 10
1.705479
 20
0.934314
 10
1.700479
 20
0.93202
 10
1.695673
 20
0.92931
 10
1.69106
 20
0.926182
 10
1.686584
 20
0.922513
 10
1.682189
 20
0.918178
 10
1.677873
 20
0.913178
 10
1.673637
 20
0.907512
 10
1.669482
 20
0.901181
 10
1.665406
 20
0.894184
 10
1.661411
 20
0.886521
 10
1.657495
 20
0.878193
 10
1.653862
 20
0.869535
 10
1.650713
 20
0.86088
 10
1.648049
 20
0.85223
 10
1.645869
 20
0.843584
 10
1.644173
 20
0.834942
 10
1.642962
 20
0.826304
 10
1.642235
 20
0.817671
 10
1.641993
 20
0.809041
 10
1.642381
 20
0.800515
 10
1.643543
 20
0.79327
 10
1.645481
 20
0.787305
 10
1.646741
 20
0.784803
 10
1.648194
 20
0.782621
 10
1.65153
 20
0.779082
 10
1.655338
 20
0.776555
 10
1.659618
 20
0.775038
 10
1.66437
 20
0.774533
 10
1.669062
 20
0.774846
 10
1.673839
 20
0.775788
 10
1.678701
 20
0.777357
 10
1.683646
 20
0.779554
 10
1.688676
 20
0.782378
 10
1.69379
 20
0.78583
 10
1.698988
 20
0.78991
 10
1.70427
 20
0.794618
 10
1.709418
 20
0.799915
 10
1.714212
 20
0.805764
 10
1.718652
 20
0.812165
 10
1.722738
 20
0.819118
 10
1.72647
 20
0.826622
 10
1.729849
 20
0.834678
 10
1.732873
 20
0.843287
 10
1.735544
 20
0.852447
 10
1.757921
 20
0.936561
  0
LWPOLYLINE
  5
43
330
1F
100
AcDbEntity
  8
0
100
AcDbPolyline
 90
      166
 70
   128
 43
0.0
 10
1.957693
 20
0.973227
 10
1.963521
 20
0.973082
 10
1.969008
 20
0.972646
 10
1.974153
 20
0.971919
 10
1.978958
 20
0.970902
 10
1.983421
 20
0.969594
 10
1.987543
 20
0.967995
 10
1.991323
 20
0.966106
 10
1.994763
 20
0.963926
 10
1.997828
 20
0.961556
 10
2.000484
 20
0.959098
 10
2.002731
 20
0.956552
 10
2.00457
 20
0.953917
 10
2.006
 20
0.951193
 10
2.007021
 20
0.948382
 10
2.007634
 20
0.945481
 10
2.007839
 20
0.942493
 10
2.007493
 20
0.938971
 10
2.006457
 20
0.935685
 10
2.00473
 20
0.932635
 10
2.002312
 20
0.929821
 10
1.999405
 20
0.927462
 10
1.996212
 20
0.925777
 10
1.992733
 20
0.924766
 10
1.988967
 20
0.924429
 10
1.98649
 20
0.924573
 10
1.984181
 20
0.925002
 10
1.982041
 20
0.925719
 10
1.98007
 20
0.926721
 10
1.97798
 20
0.928297
 10
1.975487
 20
0.930731
 10
1.969286
 20
0.938179
 10
1.965988
 20
0.942286
 10
1.962698
 20
0.945846
 10
1.959416
 20
0.948858
 10
1.956143
 20
0.951322
 10
1.952878
 20
0.953239
 10
1.949622
 20
0.954608
 10
1.946374
 20
0.955429
 10
1.943135
 20
0.955703
 10
1.937768
 20
0.955173
 10
1.932722
 20
0.953582
 10
1.927995
 20
0.950932
 10
1.923589
 20
0.947221
 10
1.919874
 20
0.942719
 10
1.91722
 20
0.937696
 10
1.915627
 20
0.932151
 10
1.915097
 20
0.926085
 10
1.915434
 20
0.920607
 10
1.916445
 20
0.915213
 10
1.91813
 20
0.909903
 10
1.920489
 20
0.904677
 10
1.924212
 20
0.898694
 10
1.929992
 20
0.891113
 10
1.937827
 20
0.881933
 10
1.947718
 20
0.871154
 10
1.954732
 20
0.863261
 10
1.96081
 20
0.855469
 10
1.965954
 20
0.847778
 10
1.970162
 20
0.840188
 10
1.973435
 20
0.8327
 10
1.975773
 20
0.825312
 10
1.977176
 20
0.818025
 10
1.977643
 20
0.81084
 10
1.977264
 20
0.803816
 10
1.976127
 20
0.797014
 10
1.974231
 20
0.790436
 10
1.971577
 20
0.784081
 10
1.968165
 20
0.777949
 10
1.963995
 20
0.772039
 10
1.959066
 20
0.766353
 10
1.95338
 20
0.760891
 10
1.947095
 20
0.755874
 10
1.940371
 20
0.751526
 10
1.93321
 20
0.747846
 10
1.925611
 20
0.744836
 10
1.917574
 20
0.742495
 10
1.909098
 20
0.740823
 10
1.900184
 20
0.739819
 10
1.890833
 20
0.739485
 10
1.883069
 20
0.739689
 10
1.875819
 20
0.740302
 10
1.869084
 20
0.741324
 10
1.862862
 20
0.742754
 10
1.857154
 20
0.744592
 10
1.85196
 20
0.74684
 10
1.84728
 20
0.749496
 10
1.843114
 20
0.75256
 10
1.839449
 20
0.755924
 10
1.836273
 20
0.759477
 10
1.833585
 20
0.76322
 10
1.831386
 20
0.767152
 10
1.829676
 20
0.771274
 10
1.828454
 20
0.775586
 10
1.827721
 20
0.780087
 10
1.827477
 20
0.784777
 10
1.827848
 20
0.789293
 10
1.82896
 20
0.793405
 10
1.830813
 20
0.797112
 10
1.833408
 20
0.800414
 10
1.836542
 20
0.803127
 10
1.840013
 20
0.805065
 10
1.843821
 20
0.806227
 10
1.847966
 20
0.806615
 10
1.851606
 20
0.806303
 10
1.854976
 20
0.805368
 10
1.858076
 20
0.803809
 10
1.860907
 20
0.801627
 10
1.863266
 20
0.799024
 10
1.864951
 20
0.796202
 10
1.865962
 20
0.79316
 10
1.866299
 20
0.7899
 10
1.865941
 20
0.78289
 10
1.86576
 20
0.776959
 10
1.86623
 20
0.772679
 10
1.867641
 20
0.768736
 10
1.869992
 20
0.76513
 10
1.873283
 20
0.761861
 10
1.877246
 20
0.759149
 10
1.88188
 20
0.757211
 10
1.887185
 20
0.756048
 10
1.893162
 20
0.755661
 10
1.900198
 20
0.755972
 10
1.906796
 20
0.756906
 10
1.912958
 20
0.758463
 10
1.918683
 20
0.760642
 10
1.923888
 20
0.763452
 10
1.928489
 20
0.766902
 10
1.932485
 20
0.770992
 10
1.935877
 20
0.775721
 10
1.93858
 20
0.780761
 10
1.940512
 20
0.785784
 10
1.94167
 20
0.790791
 10
1.942056
 20
0.79578
 10
1.941694
 20
0.800627
 10
1.940607
 20
0.805474
 10
1.938796
 20
0.810321
 10
1.93626
 20
0.815168
 10
1.93246
 20
0.820807
 10
1.926858
 20
0.828026
 10
1.919452
 20
0.836828
 10
1.910244
 20
0.847211
 10
1.903672
 20
0.854982
 10
1.897977
 20
0.862677
 10
1.893158
 20
0.870296
 10
1.889215
 20
0.877839
 10
1.886148
 20
0.885307
 10
1.883958
 20
0.892699
 10
1.882644
 20
0.900015
 10
1.882206
 20
0.907255
 10
1.882538
 20
0.91375
 10
1.883537
 20
0.920038
 10
1.885201
 20
0.92612
 10
1.88753
 20
0.931996
 10
1.890525
 20
0.937666
 10
1.894186
 20
0.943129
 10
1.898512
 20
0.948386
 10
1.903504
 20
0.953437
 10
1.90901
 20
0.958075
 10
1.914878
 20
0.962095
 10
1.921108
 20
0.965496
 10
1.9277
 20
0.968279
 10
1.934655
 20
0.970444
 10
1.941972
 20
0.97199
 10
1.949652
 20
0.972918
 10
1.957693
 20
0.973227
  0
LWPOLYLINE
  5
44
330
1F
100
AcDbEntity
  8
0
100
AcDbPolyline
 90
      113
 70
   128
 43
0.0
 10
2.199793
 20
0.97781
 10
2.217582
 20
0.981584
 10
2.197362
 20
0.913376
 10
2.191382
 20
0.892246
 10
2.18557
 20
0.869566
 10
2.179926
 20
0.845336
 10
2.174451
 20
0.819556
 10
2.170002
 20
0.795831
 10
2.16889
 20
0.78781
 10
2.168519
 20
0.782351
 10
2.168941
 20
0.778695
 10
2.169467
 20
0.777258
 10
2.170204
 20
0.776083
 10
2.171152
 20
0.775169
 10
2.172311
 20
0.774516
 10
2.175259
 20
0.773993
 10
2.177736
 20
0.774347
 10
2.180853
 20
0.775409
 10
2.184611
 20
0.777178
 10
2.189009
 20
0.779655
 10
2.197282
 20
0.784946
 10
2.205387
 20
0.790843
 10
2.213323
 20
0.797347
 10
2.221091
 20
0.804458
 10
2.229718
 20
0.793944
 10
2.204511
 20
0.771432
 10
2.196052
 20
0.764322
 10
2.190357
 20
0.759974
 10
2.181831
 20
0.754431
 10
2.173507
 20
0.749662
 10
2.165385
 20
0.745669
 10
2.157466
 20
0.74245
 10
2.152377
 20
0.740799
 10
2.147356
 20
0.73962
 10
2.142402
 20
0.738912
 10
2.137515
 20
0.738676
 10
2.13423
 20
0.738878
 10
2.131382
 20
0.739485
 10
2.128973
 20
0.740496
 10
2.127001
 20
0.741911
 10
2.125468
 20
0.743714
 10
2.124373
 20
0.745888
 10
2.123715
 20
0.748432
 10
2.123496
 20
0.751347
 10
2.124036
 20
0.756133
 10
2.125653
 20
0.762401
 10
2.136437
 20
0.799066
 10
2.130502
 20
0.792246
 10
2.124288
 20
0.78567
 10
2.117797
 20
0.779339
 10
2.111027
 20
0.773252
 10
2.10398
 20
0.767409
 10
2.096654
 20
0.761811
 10
2.089051
 20
0.756457
 10
2.081169
 20
0.751347
 10
2.071531
 20
0.745921
 10
2.066864
 20
0.74379
 10
2.062297
 20
0.742046
 10
2.057832
 20
0.74069
 10
2.053468
 20
0.739721
 10
2.049205
 20
0.739139
 10
2.045043
 20
0.738946
 10
2.041248
 20
0.739118
 10
2.03768
 20
0.739636
 10
2.034339
 20
0.7405
 10
2.031226
 20
0.741709
 10
2.028341
 20
0.743263
 10
2.025683
 20
0.745163
 10
2.023252
 20
0.747408
 10
2.021049
 20
0.749999
 10
2.018395
 20
0.753849
 10
2.016095
 20
0.757986
 10
2.014149
 20
0.762409
 10
2.012556
 20
0.767119
 10
2.011318
 20
0.772115
 10
2.010433
 20
0.777397
 10
2.009903
 20
0.782966
 10
2.009726
 20
0.788821
 10
2.009964
 20
0.796067
 10
2.010678
 20
0.803514
 10
2.011868
 20
0.811164
 10
2.013534
 20
0.819016
 10
2.015676
 20
0.827071
 10
2.018294
 20
0.835327
 10
2.021388
 20
0.843786
 10
2.024958
 20
0.852447
 10
2.028928
 20
0.861108
 10
2.033223
 20
0.869566
 10
2.037842
 20
0.877823
 10
2.042785
 20
0.885877
 10
2.048053
 20
0.893729
 10
2.053645
 20
0.901379
 10
2.059561
 20
0.908826
 10
2.065802
 20
0.916072
 10
2.072247
 20
0.92298
 10
2.078777
 20
0.929417
 10
2.08539
 20
0.935382
 10
2.092088
 20
0.940875
 10
2.09887
 20
0.945896
 10
2.105737
 20
0.950446
 10
2.112687
 20
0.954523
 10
2.119722
 20
0.958129
 10
2.125375
 20
0.96053
 10
2.131416
 20
0.962611
 10
2.137844
 20
0.964372
 10
2.14466
 20
0.965813
 10
2.151863
 20
0.966933
 10
2.159454
 20
0.967734
 10
2.167433
 20
0.968214
 10
2.175799
 20
0.968374
 10
2.184493
 20
0.968104
 10
2.193322
 20
0.967296
 10
2.199793
 20
0.97781
  0
LWPOLYLINE
  5
45
330
1F
100
AcDbEntity
  8
0
100
AcDbPolyline
 90
       54
 70
   128
 43
0.0
 10
2.166363
 20
0.936561
 10
2.15295
 20
0.938786
 10
2.147103
 20
0.939342
 10
2.141829
 20
0.939527
 10
2.13586
 20
0.939319
 10
2.130085
 20
0.938693
 10
2.124503
 20
0.93765
 10
2.119115
 20
0.936191
 10
2.113921
 20
0.934314
 10
2.108921
 20
0.93202
 10
2.104115
 20
0.92931
 10
2.099502
 20
0.926182
 10
2.095026
 20
0.922513
 10
2.090631
 20
0.918178
 10
2.086315
 20
0.913178
 10
2.082079
 20
0.907512
 10
2.077924
 20
0.901181
 10
2.073848
 20
0.894184
 10
2.069853
 20
0.886521
 10
2.065937
 20
0.878193
 10
2.062304
 20
0.869535
 10
2.059155
 20
0.86088
 10
2.056491
 20
0.85223
 10
2.054311
 20
0.843584
 10
2.052615
 20
0.834942
 10
2.051404
 20
0.826304
 10
2.050677
 20
0.817671
 10
2.050435
 20
0.809041
 10
2.050823
 20
0.800515
 10
2.051985
 20
0.79327
 10
2.053923
 20
0.787305
 10
2.055183
 20
0.784803
 10
2.056636
 20
0.782621
 10
2.059972
 20
0.779082
 10
2.06378
 20
0.776555
 10
2.06806
 20
0.775038
 10
2.072812
 20
0.774533
 10
2.077505
 20
0.774846
 10
2.082281
 20
0.775788
 10
2.087143
 20
0.777357
 10
2.092088
 20
0.779554
 10
2.097118
 20
0.782378
 10
2.102232
 20
0.78583
 10
2.10743
 20
0.78991
 10
2.112712
 20
0.794618
 10
2.11786
 20
0.799915
 10
2.122654
 20
0.805764
 10
2.127094
 20
0.812165
 10
2.13118
 20
0.819118
 10
2.134912
 20
0.826622
 10
2.138291
 20
0.834678
 10
2.141315
 20
0.843287
 10
2.143986
 20
0.852447
 10
2.166363
 20
0.936561
  0
LWPOLYLINE
  5
46
330
1F
100
AcDbEntity
  8
0
100
AcDbPolyline
 90
      199
 70
   128
 43
0.0
 10
2.599608
 20
0.965409
 10
2.585589
 20
0.965409
 10
2.587813
 20
0.990279
 10
2.588554
 20
1.008275
 10
2.58838
 20
1.013328
 10
2.587856
 20
1.018107
 10
2.586984
 20
1.022612
 10
2.585763
 20
1.026843
 10
2.584193
 20
1.030801
 10
2.582274
 20
1.034485
 10
2.580006
 20
1.037895
 10
2.577389
 20
1.041031
 10
2.574474
 20
1.043843
 10
2.571311
 20
1.04628
 10
2.5679
 20
1.048342
 10
2.564241
 20
1.050029
 10
2.560335
 20
1.051341
 10
2.556181
 20
1.052278
 10
2.551778
 20
1.052841
 10
2.547129
 20
1.053028
 10
2.53985
 20
1.052693
 10
2.532807
 20
1.051687
 10
2.525999
 20
1.050012
 10
2.519427
 20
1.047666
 10
2.51309
 20
1.044649
 10
2.506988
 20
1.040962
 10
2.501121
 20
1.036605
 10
2.49549
 20
1.031578
 10
2.490321
 20
1.026133
 10
2.485841
 20
1.020524
 10
2.48205
 20
1.014751
 10
2.478949
 20
1.008813
 10
2.476537
 20
1.00271
 10
2.474814
 20
0.996444
 10
2.47378
 20
0.990012
 10
2.473435
 20
0.983417
 10
2.473814
 20
0.976437
 10
2.474948
 20
0.969793
 10
2.476838
 20
0.963486
 10
2.479485
 20
0.957516
 10
2.483425
 20
0.951141
 10
2.489196
 20
0.94362
 10
2.496799
 20
0.934952
 10
2.506234
 20
0.925137
 10
2.523556
 20
0.907532
 10
2.537619
 20
0.891951
 10
2.543428
 20
0.884919
 10
2.548422
 20
0.878393
 10
2.552602
 20
0.872373
 10
2.555966
 20
0.86686
 10
2.558739
 20
0.861616
 10
2.561141
 20
0.856405
 10
2.563174
 20
0.851228
 10
2.564838
 20
0.846085
 10
2.566132
 20
0.840976
 10
2.567056
 20
0.8359
 10
2.56761
 20
0.830858
 10
2.567795
 20
0.825849
 10
2.567515
 20
0.818531
 10
2.566674
 20
0.81128
 10
2.565274
 20
0.804097
 10
2.563313
 20
0.796981
 10
2.560792
 20
0.789932
 10
2.55771
 20
0.782951
 10
2.554069
 20
0.776038
 10
2.549867
 20
0.769191
 10
2.545119
 20
0.762528
 10
2.539841
 20
0.756165
 10
2.534032
 20
0.7501
 10
2.527692
 20
0.744335
 10
2.520822
 20
0.738869
 10
2.51342
 20
0.733703
 10
2.505488
 20
0.728835
 10
2.497025
 20
0.724267
 10
2.488236
 20
0.720125
 10
2.479325
 20
0.716535
 10
2.470291
 20
0.713497
 10
2.461135
 20
0.711012
 10
2.451857
 20
0.709079
 10
2.442457
 20
0.707698
 10
2.432935
 20
0.70687
 10
2.42329
 20
0.706594
 10
2.413907
 20
0.706905
 10
2.404898
 20
0.707841
 10
2.396265
 20
0.709399
 10
2.388006
 20
0.711581
 10
2.380123
 20
0.714387
 10
2.372614
 20
0.717816
 10
2.36548
 20
0.721868
 10
2.358721
 20
0.726544
 10
2.35256
 20
0.731565
 10
2.347221
 20
0.736654
 10
2.342703
 20
0.74181
 10
2.339007
 20
0.747034
 10
2.336132
 20
0.752324
 10
2.334078
 20
0.757683
 10
2.332846
 20
0.763108
 10
2.332435
 20
0.768601
 10
2.332865
 20
0.77428
 10
2.334154
 20
0.779453
 10
2.336302
 20
0.78412
 10
2.33931
 20
0.788282
 10
2.342874
 20
0.791703
 10
2.34669
 20
0.794146
 10
2.35076
 20
0.795612
 10
2.355082
 20
0.796101
 10
2.359463
 20
0.795646
 10
2.363439
 20
0.794281
 10
2.367011
 20
0.792006
 10
2.370179
 20
0.788821
 10
2.372066
 20
0.785991
 10
2.373954
 20
0.781812
 10
2.375841
 20
0.776285
 10
2.377728
 20
0.76941
 10
2.380003
 20
0.760876
 10
2.382513
 20
0.753605
 10
2.38526
 20
0.747598
 10
2.388242
 20
0.742855
 10
2.391638
 20
0.738929
 10
2.395623
 20
0.735373
 10
2.400197
 20
0.732189
 10
2.405362
 20
0.729375
 10
2.410948
 20
0.727075
 10
2.416786
 20
0.725432
 10
2.422877
 20
0.724446
 10
2.429221
 20
0.724118
 10
2.438708
 20
0.724525
 10
2.447891
 20
0.725745
 10
2.456771
 20
0.727779
 10
2.465348
 20
0.730627
 10
2.473621
 20
0.734289
 10
2.481591
 20
0.738764
 10
2.489258
 20
0.744053
 10
2.496621
 20
0.750155
 10
2.503382
 20
0.756751
 10
2.509242
 20
0.763519
 10
2.5142
 20
0.770461
 10
2.518256
 20
0.777575
 10
2.521411
 20
0.784862
 10
2.523665
 20
0.792322
 10
2.525017
 20
0.799955
 10
2.525468
 20
0.807761
 10
2.525241
 20
0.813148
 10
2.524558
 20
0.818519
 10
2.523421
 20
0.823872
 10
2.521828
 20
0.829209
 10
2.51963
 20
0.834714
 10
2.516672
 20
0.840573
 10
2.512957
 20
0.846788
 10
2.508483
 20
0.853357
 10
2.504085
 20
0.858821
 10
2.497632
 20
0.866038
 10
2.478558
 20
0.885734
 10
2.459888
 20
0.904823
 10
2.453738
 20
0.911686
 10
2.449711
 20
0.916763
 10
2.445802
 20
0.922842
 10
2.442432
 20
0.928937
 10
2.439601
 20
0.93505
 10
2.437309
 20
0.94118
 10
2.43554
 20
0.947311
 10
2.434276
 20
0.953423
 10
2.433518
 20
0.959519
 10
2.433265
 20
0.965598
 10
2.433522
 20
0.97174
 10
2.434293
 20
0.97789
 10
2.435578
 20
0.984049
 10
2.437377
 20
0.990217
 10
2.439689
 20
0.996393
 10
2.442516
 20
1.002578
 10
2.445856
 20
1.008771
 10
2.449711
 20
1.014973
 10
2.453976
 20
1.02102
 10
2.458549
 20
1.026752
 10
2.463429
 20
1.032167
 10
2.468616
 20
1.037267
 10
2.474112
 20
1.042049
 10
2.479914
 20
1.046516
 10
2.486024
 20
1.050666
 10
2.492442
 20
1.0545
 10
2.499125
 20
1.057947
 10
2.506032
 20
1.060933
 10
2.513161
 20
1.06346
 10
2.520514
 20
1.065528
 10
2.52809
 20
1.067136
 10
2.53589
 20
1.068285
 10
2.543912
 20
1.068974
 10
2.552158
 20
1.069204
 10
2.561004
 20
1.068884
 10
2.570828
 20
1.067923
 10
2.581629
 20
1.066323
 10
2.593407
 20
1.064082
 10
2.606482
 20
1.061723
 10
2.617671
 20
1.060038
 10
2.612414
 20
1.043019
 10
2.608504
 20
1.027012
 10
2.606735
 20
1.017348
 10
2.604663
 20
1.00386
 10
2.599608
 20
0.965409
  0
LWPOLYLINE
  5
47
330
1F
100
AcDbEntity
  8
0
100
AcDbPolyline
 90
       88
 70
   128
 43
0.0
 10
2.756784
 20
0.973227
 10
2.76325
 20
0.972898
 10
2.769438
 20
0.971913
 10
2.775348
 20
0.97027
 10
2.78098
 20
0.96797
 10
2.786334
 20
0.965013
 10
2.79141
 20
0.961398
 10
2.796208
 20
0.957127
 10
2.800728
 20
0.952198
 10
2.804835
 20
0.946684
 10
2.808395
 20
0.940656
 10
2.811407
 20
0.934114
 10
2.813871
 20
0.927058
 10
2.815788
 20
0.919488
 10
2.817157
 20
0.911405
 10
2.817978
 20
0.902807
 10
2.818252
 20
0.893695
 10
2.818088
 20
0.886262
 10
2.817595
 20
0.878924
 10
2.816774
 20
0.871682
 10
2.815624
 20
0.864536
 10
2.814145
 20
0.857486
 10
2.812338
 20
0.850532
 10
2.810202
 20
0.843674
 10
2.807738
 20
0.836911
 10
2.804945
 20
0.830244
 10
2.801824
 20
0.823673
 10
2.798374
 20
0.817198
 10
2.794595
 20
0.810819
 10
2.790488
 20
0.804535
 10
2.786052
 20
0.798348
 10
2.781288
 20
0.792256
 10
2.776195
 20
0.78626
 10
2.765605
 20
0.775108
 10
2.760253
 20
0.770089
 10
2.754863
 20
0.765442
 10
2.749435
 20
0.761167
 10
2.743969
 20
0.757264
 10
2.738466
 20
0.753732
 10
2.732924
 20
0.750572
 10
2.727345
 20
0.747784
 10
2.721727
 20
0.745368
 10
2.716072
 20
0.743323
 10
2.710379
 20
0.74165
 10
2.704648
 20
0.740349
 10
2.698879
 20
0.73942
 10
2.693072
 20
0.738862
 10
2.687227
 20
0.738676
 10
2.68019
 20
0.738971
 10
2.673503
 20
0.739855
 10
2.667165
 20
0.74133
 10
2.661177
 20
0.743394
 10
2.655539
 20
0.746048
 10
2.65025
 20
0.749291
 10
2.645311
 20
0.753125
 10
2.640721
 20
0.757548
 10
2.636583
 20
0.762481
 10
2.632996
 20
0.767843
 10
2.629961
 20
0.773635
 10
2.627477
 20
0.779857
 10
2.625546
 20
0.786509
 10
2.624166
 20
0.79359
 10
2.623339
 20
0.801101
 10
2.623063
 20
0.809041
 10
2.623568
 20
0.82306
 10
2.625085
 20
0.83681
 10
2.627612
 20
0.85029
 10
2.631151
 20
0.8635
 10
2.6357
 20
0.876441
 10
2.641261
 20
0.889112
 10
2.647832
 20
0.901514
 10
2.655415
 20
0.913646
 10
2.660581
 20
0.92086
 10
2.665904
 20
0.92761
 10
2.671382
 20
0.933894
 10
2.677016
 20
0.939712
 10
2.682806
 20
0.945065
 10
2.688752
 20
0.949953
 10
2.694854
 20
0.954375
 10
2.701112
 20
0.958332
 10
2.707525
 20
0.961823
 10
2.714094
 20
0.964848
 10
2.72082
 20
0.967408
 10
2.727701
 20
0.969503
 10
2.734738
 20
0.971132
 10
2.74193
 20
0.972296
 10
2.749279
 20
0.972994
 10
2.756784
 20
0.973227
  0
LWPOLYLINE
  5
48
330
1F
100
AcDbEntity
  8
0
100
AcDbPolyline
 90
       65
 70
   128
 43
0.0
 10
2.733868
 20
0.953007
 10
2.728162
 20
0.952495
 10
2.722503
 20
0.95096
 10
2.716889
 20
0.948401
 10
2.711323
 20
0.944818
 10
2.705802
 20
0.940212
 10
2.700328
 20
0.934582
 10
2.6949
 20
0.927928
 10
2.689519
 20
0.920251
 10
2.684495
 20
0.911672
 10
2.680142
 20
0.902314
 10
2.676458
 20
0.892177
 10
2.673444
 20
0.88126
 10
2.6711
 20
0.869564
 10
2.669425
 20
0.857089
 10
2.668421
 20
0.843834
 10
2.668086
 20
0.8298
 10
2.668292
 20
0.82127
 10
2.668911
 20
0.813203
 10
2.669943
 20
0.8056
 10
2.671388
 20
0.79846
 10
2.673246
 20
0.791783
 10
2.675517
 20
0.785569
 10
2.6782
 20
0.779819
 10
2.681296
 20
0.774533
 10
2.683824
 20
0.771057
 10
2.686553
 20
0.768045
 10
2.689485
 20
0.765497
 10
2.692619
 20
0.763412
 10
2.695955
 20
0.76179
 10
2.699494
 20
0.760631
 10
2.703235
 20
0.759936
 10
2.707178
 20
0.759705
 10
2.712776
 20
0.760143
 10
2.718248
 20
0.761457
 10
2.723594
 20
0.763648
 10
2.728813
 20
0.766714
 10
2.733906
 20
0.770657
 10
2.738872
 20
0.775476
 10
2.743712
 20
0.781171
 10
2.748426
 20
0.787743
 10
2.753987
 20
0.797116
 10
2.758806
 20
0.807036
 10
2.762883
 20
0.817504
 10
2.76622
 20
0.82852
 10
2.768815
 20
0.840083
 10
2.770668
 20
0.852194
 10
2.77178
 20
0.864852
 10
2.772151
 20
0.878059
 10
2.77198
 20
0.887806
 10
2.771468
 20
0.896829
 10
2.770615
 20
0.905128
 10
2.769421
 20
0.912702
 10
2.767886
 20
0.919551
 10
2.766009
 20
0.925676
 10
2.763791
 20
0.931077
 10
2.761232
 20
0.935753
 10
2.758416
 20
0.939797
 10
2.755427
 20
0.943301
 10
2.752266
 20
0.946267
 10
2.748932
 20
0.948693
 10
2.745425
 20
0.950581
 10
2.741745
 20
0.951929
 10
2.737893
 20
0.952737
 10
2.733868
 20
0.953007
  0
LWPOLYLINE
  5
49
330
1F
100
AcDbEntity
  8
0
100
AcDbPolyline
 90
      142
 70
   128
 43
0.0
 10
2.851952
 20
0.909871
 10
2.842786
 20
0.919307
 10
2.859178
 20
0.934446
 10
2.873816
 20
0.946808
 10
2.8867
 20
0.956392
 10
2.892484
 20
0.960143
 10
2.89783
 20
0.963199
 10
2.907712
 20
0.96794
 10
2.916853
 20
0.971327
 10
2.925251
 20
0.973358
 10
2.929172
 20
0.973866
 10
2.932907
 20
0.974036
 10
2.935589
 20
0.973884
 10
2.937966
 20
0.973429
 10
2.94004
 20
0.972671
 10
2.941811
 20
0.971609
 10
2.943227
 20
0.970346
 10
2.944239
 20
0.968981
 10
2.944846
 20
0.967515
 10
2.945048
 20
0.965948
 10
2.944711
 20
0.962578
 10
2.9437
 20
0.957321
 10
2.931547
 20
0.903064
 10
2.938629
 20
0.910624
 10
2.946148
 20
0.918058
 10
2.954104
 20
0.925365
 10
2.962498
 20
0.932546
 10
2.971329
 20
0.9396
 10
2.980597
 20
0.946528
 10
2.990303
 20
0.953329
 10
3.000446
 20
0.960004
 10
3.010995
 20
0.966025
 10
3.020567
 20
0.970326
 10
3.024987
 20
0.971831
 10
3.029163
 20
0.972906
 10
3.033095
 20
0.973551
 10
3.036783
 20
0.973766
 10
3.041746
 20
0.973345
 10
3.046136
 20
0.972081
 10
3.049955
 20
0.969975
 10
3.053201
 20
0.967026
 10
3.055791
 20
0.963285
 10
3.057642
 20
0.958803
 10
3.058752
 20
0.95358
 10
3.059122
 20
0.947615
 10
3.058517
 20
0.938718
 10
3.056704
 20
0.928743
 10
3.048914
 20
0.900907
 10
3.034138
 20
0.852447
 10
3.026616
 20
0.827256
 10
3.021244
 20
0.806682
 10
3.018021
 20
0.790725
 10
3.017215
 20
0.784478
 10
3.016946
 20
0.779385
 10
3.017351
 20
0.774549
 10
3.017856
 20
0.77265
 10
3.018564
 20
0.771095
 10
3.019457
 20
0.769886
 10
3.020519
 20
0.769023
 10
3.021749
 20
0.768505
 10
3.023147
 20
0.768332
 10
3.025241
 20
0.768568
 10
3.027612
 20
0.769275
 10
3.03319
 20
0.772106
 10
3.039879
 20
0.776824
 10
3.047681
 20
0.783429
 10
3.059543
 20
0.793809
 10
3.071405
 20
0.80338
 10
3.078145
 20
0.793674
 10
3.065626
 20
0.780663
 10
3.05287
 20
0.768992
 10
3.039879
 20
0.758663
 10
3.033295
 20
0.754001
 10
3.026652
 20
0.749675
 10
3.01853
 20
0.744981
 10
3.01115
 20
0.741628
 10
3.004511
 20
0.739616
 10
3.00147
 20
0.739113
 10
2.998614
 20
0.738946
 10
2.993778
 20
0.739409
 10
2.989515
 20
0.740799
 10
2.985825
 20
0.743116
 10
2.982707
 20
0.74636
 10
2.98023
 20
0.750648
 10
2.978461
 20
0.756099
 10
2.9774
 20
0.762712
 10
2.977046
 20
0.770489
 10
2.977513
 20
0.777604
 10
2.978916
 20
0.786951
 10
2.981254
 20
0.798531
 10
2.984527
 20
0.812344
 10
2.988735
 20
0.828389
 10
2.993879
 20
0.846667
 10
3.006971
 20
0.889921
 10
3.013846
 20
0.916813
 10
3.015565
 20
0.924952
 10
3.016138
 20
0.929552
 10
3.015982
 20
0.931511
 10
3.015514
 20
0.933208
 10
3.014735
 20
0.934645
 10
3.013644
 20
0.93582
 10
3.012241
 20
0.936734
 10
3.010527
 20
0.937387
 10
3.006162
 20
0.937909
 10
3.00337
 20
0.937732
 10
3.000383
 20
0.937201
 10
2.993828
 20
0.935074
 10
2.986499
 20
0.931531
 10
2.978394
 20
0.926569
 10
2.972189
 20
0.922293
 10
2.966245
 20
0.91783
 10
2.960562
 20
0.913181
 10
2.955141
 20
0.908347
 10
2.949981
 20
0.903327
 10
2.945082
 20
0.898122
 10
2.940444
 20
0.89273
 10
2.936067
 20
0.887153
 10
2.933426
 20
0.883238
 10
2.930894
 20
0.878784
 10
2.928472
 20
0.873789
 10
2.926159
 20
0.868255
 10
2.921862
 20
0.855567
 10
2.918004
 20
0.840719
 10
2.896166
 20
0.746494
 10
2.855996
 20
0.746494
 10
2.866578
 20
0.786113
 10
2.875677
 20
0.823979
 10
2.899671
 20
0.926569
 10
2.900682
 20
0.9319
 10
2.901019
 20
0.935475
 10
2.900682
 20
0.938663
 10
2.899671
 20
0.94094
 10
2.897986
 20
0.942307
 10
2.895627
 20
0.942762
 10
2.893234
 20
0.942405
 10
2.89037
 20
0.941335
 10
2.887034
 20
0.939552
 10
2.883225
 20
0.937054
 10
2.875003
 20
0.931176
 10
2.86705
 20
0.924685
 10
2.859366
 20
0.917584
 10
2.851952
 20
0.909871
  0
LWPOLYLINE
  5
4A
330
1F
100
AcDbEntity
  8
0
100
AcDbPolyline
 90
       88
 70
   128
 43
0.0
 10
3.231547
 20
0.973227
 10
3.238013
 20
0.972898
 10
3.244201
 20
0.971913
 10
3.250111
 20
0.97027
 10
3.255743
 20
0.96797
 10
3.261098
 20
0.965013
 10
3.266174
 20
0.961398
 10
3.270972
 20
0.957127
 10
3.275492
 20
0.952198
 10
3.279599
 20
0.946684
 10
3.283158
 20
0.940656
 10
3.28617
 20
0.934114
 10
3.288635
 20
0.927058
 10
3.290551
 20
0.919488
 10
3.29192
 20
0.911405
 10
3.292742
 20
0.902807
 10
3.293015
 20
0.893695
 10
3.292851
 20
0.886262
 10
3.292358
 20
0.878924
 10
3.291537
 20
0.871682
 10
3.290387
 20
0.864536
 10
3.288908
 20
0.857486
 10
3.287101
 20
0.850532
 10
3.284965
 20
0.843674
 10
3.282501
 20
0.836911
 10
3.279708
 20
0.830244
 10
3.276587
 20
0.823673
 10
3.273137
 20
0.817198
 10
3.269358
 20
0.810819
 10
3.265251
 20
0.804535
 10
3.260815
 20
0.798348
 10
3.256051
 20
0.792256
 10
3.250958
 20
0.78626
 10
3.240368
 20
0.775108
 10
3.235016
 20
0.770089
 10
3.229626
 20
0.765442
 10
3.224198
 20
0.761167
 10
3.218733
 20
0.757264
 10
3.213229
 20
0.753732
 10
3.207688
 20
0.750572
 10
3.202108
 20
0.747784
 10
3.196491
 20
0.745368
 10
3.190835
 20
0.743323
 10
3.185142
 20
0.74165
 10
3.179411
 20
0.740349
 10
3.173642
 20
0.73942
 10
3.167835
 20
0.738862
 10
3.161991
 20
0.738676
 10
3.154954
 20
0.738971
 10
3.148266
 20
0.739855
 10
3.141929
 20
0.74133
 10
3.135941
 20
0.743394
 10
3.130302
 20
0.746048
 10
3.125013
 20
0.749291
 10
3.120074
 20
0.753125
 10
3.115485
 20
0.757548
 10
3.111346
 20
0.762481
 10
3.107759
 20
0.767843
 10
3.104724
 20
0.773635
 10
3.102241
 20
0.779857
 10
3.100309
 20
0.786509
 10
3.09893
 20
0.79359
 10
3.098102
 20
0.801101
 10
3.097826
 20
0.809041
 10
3.098332
 20
0.82306
 10
3.099848
 20
0.83681
 10
3.102376
 20
0.85029
 10
3.105914
 20
0.8635
 10
3.110463
 20
0.876441
 10
3.116024
 20
0.889112
 10
3.122595
 20
0.901514
 10
3.130178
 20
0.913646
 10
3.135344
 20
0.92086
 10
3.140667
 20
0.92761
 10
3.146145
 20
0.933894
 10
3.151779
 20
0.939712
 10
3.15757
 20
0.945065
 10
3.163515
 20
0.949953
 10
3.169617
 20
0.954375
 10
3.175875
 20
0.958332
 10
3.182288
 20
0.961823
 10
3.188858
 20
0.964848
 10
3.195583
 20
0.967408
 10
3.202464
 20
0.969503
 10
3.209501
 20
0.971132
 10
3.216694
 20
0.972296
 10
3.224042
 20
0.972994
 10
3.231547
 20
0.973227
  0
LWPOLYLINE
  5
4B
330
1F
100
AcDbEntity
  8
0
100
AcDbPolyline
 90
       65
 70
   128
 43
0.0
 10
3.208631
 20
0.953007
 10
3.202925
 20
0.952495
 10
3.197266
 20
0.95096
 10
3.191653
 20
0.948401
 10
3.186086
 20
0.944818
 10
3.180565
 20
0.940212
 10
3.175091
 20
0.934582
 10
3.169664
 20
0.927928
 10
3.164282
 20
0.920251
 10
3.159259
 20
0.911672
 10
3.154905
 20
0.902314
 10
3.151221
 20
0.892177
 10
3.148207
 20
0.88126
 10
3.145863
 20
0.869564
 10
3.144189
 20
0.857089
 10
3.143184
 20
0.843834
 10
3.142849
 20
0.8298
 10
3.143055
 20
0.82127
 10
3.143675
 20
0.813203
 10
3.144707
 20
0.8056
 10
3.146152
 20
0.79846
 10
3.148009
 20
0.791783
 10
3.15028
 20
0.785569
 10
3.152963
 20
0.779819
 10
3.156059
 20
0.774533
 10
3.158587
 20
0.771057
 10
3.161317
 20
0.768045
 10
3.164248
 20
0.765497
 10
3.167383
 20
0.763412
 10
3.170719
 20
0.76179
 10
3.174257
 20
0.760631
 10
3.177998
 20
0.759936
 10
3.181941
 20
0.759705
 10
3.187539
 20
0.760143
 10
3.193011
 20
0.761457
 10
3.198357
 20
0.763648
 10
3.203576
 20
0.766714
 10
3.208669
 20
0.770657
 10
3.213636
 20
0.775476
 10
3.218476
 20
0.781171
 10
3.223189
 20
0.787743
 10
3.22875
 20
0.797116
 10
3.233569
 20
0.807036
 10
3.237647
 20
0.817504
 10
3.240983
 20
0.82852
 10
3.243578
 20
0.840083
 10
3.245431
 20
0.852194
 10
3.246543
 20
0.864852
 10
3.246914
 20
0.878059
 10
3.246744
 20
0.887806
 10
3.246232
 20
0.896829
 10
3.245379
 20
0.905128
 10
3.244184
 20
0.912702
 10
3.242649
 20
0.919551
 10
3.240772
 20
0.925676
 10
3.238554
 20
0.931077
 10
3.235995
 20
0.935753
 10
3.233179
 20
0.939797
 10
3.230191
 20
0.943301
 10
3.227029
 20
0.946267
 10
3.223695
 20
0.948693
 10
3.220188
 20
0.950581
 10
3.216508
 20
0.951929
 10
3.212656
 20
0.952737
 10
3.208631
 20
0.953007
  0
LWPOLYLINE
  5
4C
330
1F
100
AcDbEntity
  8
0
100
AcDbPolyline
 90
      196
 70
   128
 43
0.0
 10
3.325907
 20
0.911219
 10
3.317819
 20
0.922003
 10
3.330999
 20
0.934472
 10
3.343848
 20
0.945189
 10
3.350149
 20
0.94989
 10
3.356367
 20
0.954153
 10
3.362503
 20
0.957978
 10
3.368556
 20
0.961365
 10
3.37994
 20
0.966908
 10
3.390047
 20
0.970868
 10
3.398877
 20
0.973244
 10
3.402812
 20
0.973838
 10
3.406428
 20
0.974036
 10
3.409095
 20
0.973884
 10
3.411405
 20
0.973429
 10
3.413358
 20
0.972671
 10
3.414954
 20
0.971609
 10
3.416194
 20
0.970278
 10
3.41708
 20
0.968711
 10
3.417612
 20
0.966908
 10
3.417789
 20
0.964869
 10
3.41752
 20
0.96155
 10
3.416711
 20
0.956984
 10
3.413476
 20
0.94411
 10
3.408214
 20
0.923823
 10
3.40484
 20
0.908254
 10
3.420498
 20
0.923671
 10
3.435206
 20
0.937033
 10
3.448965
 20
0.94834
 10
3.461775
 20
0.95759
 10
3.467823
 20
0.961445
 10
3.473635
 20
0.964785
 10
3.479209
 20
0.967612
 10
3.484545
 20
0.969924
 10
3.489644
 20
0.971723
 10
3.494506
 20
0.973008
 10
3.49913
 20
0.973779
 10
3.503517
 20
0.974036
 10
3.507686
 20
0.973732
 10
3.511317
 20
0.972822
 10
3.514409
 20
0.971306
 10
3.516964
 20
0.969183
 10
3.518963
 20
0.966403
 10
3.520391
 20
0.962915
 10
3.521248
 20
0.958719
 10
3.521534
 20
0.953816
 10
3.52103
 20
0.94716
 10
3.519516
 20
0.938516
 10
3.516994
 20
0.927884
 10
3.513463
 20
0.915263
 10
3.528335
 20
0.930133
 10
3.542196
 20
0.942661
 10
3.548747
 20
0.948047
 10
3.555045
 20
0.952847
 10
3.561091
 20
0.957061
 10
3.566884
 20
0.960691
 10
3.577592
 20
0.966529
 10
3.587052
 20
0.970699
 10
3.591314
 20
0.972159
 10
3.595264
 20
0.973202
 10
3.598902
 20
0.973827
 10
3.602228
 20
0.974036
 10
3.607574
 20
0.973631
 10
3.612278
 20
0.972418
 10
3.616342
 20
0.970396
 10
3.619765
 20
0.967565
 10
3.62248
 20
0.963892
 10
3.624419
 20
0.959343
 10
3.625582
 20
0.953917
 10
3.62597
 20
0.947615
 10
3.625801
 20
0.943386
 10
3.625296
 20
0.938786
 10
3.623274
 20
0.928473
 10
3.617006
 20
0.906097
 10
3.603593
 20
0.861074
 10
3.594275
 20
0.829682
 10
3.587619
 20
0.805334
 10
3.583626
 20
0.788029
 10
3.582628
 20
0.782018
 10
3.582295
 20
0.777768
 10
3.582767
 20
0.773758
 10
3.583356
 20
0.772182
 10
3.584182
 20
0.770893
 10
3.585244
 20
0.76989
 10
3.586541
 20
0.769174
 10
3.588074
 20
0.768745
 10
3.589844
 20
0.768601
 10
3.592388
 20
0.768804
 10
3.594899
 20
0.76941
 10
3.597376
 20
0.770421
 10
3.599819
 20
0.771837
 10
3.607823
 20
0.777835
 10
3.615927
 20
0.784508
 10
3.624133
 20
0.791854
 10
3.63244
 20
0.799875
 10
3.641337
 20
0.790169
 10
3.633182
 20
0.78316
 10
3.620039
 20
0.771297
 10
3.601841
 20
0.755526
 10
3.595269
 20
0.75037
 10
3.590383
 20
0.747034
 10
3.582868
 20
0.743023
 10
3.575959
 20
0.740159
 10
3.569657
 20
0.73844
 10
3.563962
 20
0.737867
 10
3.560036
 20
0.738364
 10
3.556346
 20
0.739855
 10
3.552892
 20
0.742341
 10
3.549673
 20
0.74582
 10
3.546961
 20
0.750176
 10
3.545023
 20
0.75529
 10
3.54386
 20
0.761162
 10
3.543473
 20
0.767793
 10
3.543709
 20
0.774541
 10
3.544416
 20
0.781845
 10
3.545596
 20
0.789706
 10
3.547247
 20
0.798123
 10
3.550044
 20
0.809521
 10
3.554661
 20
0.826329
 10
3.569354
 20
0.876171
 10
3.57537
 20
0.896711
 10
3.579666
 20
0.912769
 10
3.582244
 20
0.924345
 10
3.583104
 20
0.931439
 10
3.582598
 20
0.935449
 10
3.581966
 20
0.937025
 10
3.581082
 20
0.938314
 10
3.579944
 20
0.939316
 10
3.578554
 20
0.940033
 10
3.576911
 20
0.940462
 10
3.575016
 20
0.940605
 10
3.571359
 20
0.940184
 10
3.56713
 20
0.93892
 10
3.562328
 20
0.936814
 10
3.556953
 20
0.933865
 10
3.545832
 20
0.926468
 10
3.535654
 20
0.918296
 10
3.530919
 20
0.913919
 10
3.526421
 20
0.909349
 10
3.522158
 20
0.904585
 10
3.51813
 20
0.899626
 10
3.515477
 20
0.895865
 10
3.512907
 20
0.891589
 10
3.50802
 20
0.881496
 10
3.503471
 20
0.869347
 10
3.499258
 20
0.855143
 10
3.4908
 20
0.823381
 10
3.483487
 20
0.794685
 10
3.47732
 20
0.769056
 10
3.472299
 20
0.746494
 10
3.434016
 20
0.746494
 10
3.474186
 20
0.911219
 10
3.477421
 20
0.925238
 10
3.478499
 20
0.931709
 10
3.478365
 20
0.933739
 10
3.477961
 20
0.935517
 10
3.477289
 20
0.937042
 10
3.476347
 20
0.938314
 10
3.475153
 20
0.939316
 10
3.473722
 20
0.940033
 10
3.472056
 20
0.940462
 10
3.470154
 20
0.940605
 10
3.468212
 20
0.940428
 10
3.466017
 20
0.939898
 10
3.460869
 20
0.937775
 10
3.454712
 20
0.934236
 10
3.447546
 20
0.929282
 10
3.435158
 20
0.919787
 10
3.424636
 20
0.910444
 10
3.420075
 20
0.905829
 10
3.415981
 20
0.901252
 10
3.412354
 20
0.896713
 10
3.409194
 20
0.892212
 10
3.406319
 20
0.887438
 10
3.40355
 20
0.882077
 10
3.400886
 20
0.876131
 10
3.398327
 20
0.8696
 10
3.393525
 20
0.85478
 10
3.389144
 20
0.837619
 10
3.368419
 20
0.746494
 10
3.329681
 20
0.746494
 10
3.360146
 20
0.875093
 10
3.370256
 20
0.918161
 10
3.372783
 20
0.930142
 10
3.373626
 20
0.935753
 10
3.373322
 20
0.938465
 10
3.372412
 20
0.940403
 10
3.370896
 20
0.941566
 10
3.368773
 20
0.941953
 10
3.365803
 20
0.941473
 10
3.362151
 20
0.940033
 10
3.357816
 20
0.937631
 10
3.352799
 20
0.93427
 10
3.3471
 20
0.929948
 10
3.340718
 20
0.924665
 10
3.325907
 20
0.911219
  0
LWPOLYLINE
  5
4D
330
1F
100
AcDbEntity
  8
0
100
AcDbPolyline
 90
      113
 70
   128
 43
0.0
 10
3.844884
 20
0.97781
 10
3.862673
 20
0.981584
 10
3.842453
 20
0.913376
 10
3.836474
 20
0.892246
 10
3.830662
 20
0.869566
 10
3.825018
 20
0.845336
 10
3.819542
 20
0.819556
 10
3.815093
 20
0.795831
 10
3.813981
 20
0.78781
 10
3.813611
 20
0.782351
 10
3.814032
 20
0.778695
 10
3.814558
 20
0.777258
 10
3.815296
 20
0.776083
 10
3.816243
 20
0.775169
 10
3.817402
 20
0.774516
 10
3.820351
 20
0.773993
 10
3.822827
 20
0.774347
 10
3.825945
 20
0.775409
 10
3.829702
 20
0.777178
 10
3.8341
 20
0.779655
 10
3.842373
 20
0.784946
 10
3.850478
 20
0.790843
 10
3.858415
 20
0.797347
 10
3.866182
 20
0.804458
 10
3.874809
 20
0.793944
 10
3.849602
 20
0.771432
 10
3.841143
 20
0.764322
 10
3.835448
 20
0.759974
 10
3.826922
 20
0.754431
 10
3.818598
 20
0.749662
 10
3.810476
 20
0.745669
 10
3.802557
 20
0.74245
 10
3.797468
 20
0.740799
 10
3.792447
 20
0.73962
 10
3.787493
 20
0.738912
 10
3.782607
 20
0.738676
 10
3.779321
 20
0.738878
 10
3.776473
 20
0.739485
 10
3.774064
 20
0.740496
 10
3.772092
 20
0.741911
 10
3.770559
 20
0.743714
 10
3.769464
 20
0.745888
 10
3.768807
 20
0.748432
 10
3.768588
 20
0.751347
 10
3.769127
 20
0.756133
 10
3.770744
 20
0.762401
 10
3.781528
 20
0.799066
 10
3.775593
 20
0.792246
 10
3.76938
 20
0.78567
 10
3.762888
 20
0.779339
 10
3.756119
 20
0.773252
 10
3.749071
 20
0.767409
 10
3.741746
 20
0.761811
 10
3.734142
 20
0.756457
 10
3.726261
 20
0.751347
 10
3.716622
 20
0.745921
 10
3.711955
 20
0.74379
 10
3.707389
 20
0.742046
 10
3.702923
 20
0.74069
 10
3.698559
 20
0.739721
 10
3.694296
 20
0.739139
 10
3.690134
 20
0.738946
 10
3.686339
 20
0.739118
 10
3.682771
 20
0.739636
 10
3.67943
 20
0.7405
 10
3.676317
 20
0.741709
 10
3.673432
 20
0.743263
 10
3.670774
 20
0.745163
 10
3.668343
 20
0.747408
 10
3.66614
 20
0.749999
 10
3.663486
 20
0.753849
 10
3.661186
 20
0.757986
 10
3.65924
 20
0.762409
 10
3.657648
 20
0.767119
 10
3.656409
 20
0.772115
 10
3.655525
 20
0.777397
 10
3.654994
 20
0.782966
 10
3.654817
 20
0.788821
 10
3.655055
 20
0.796067
 10
3.655769
 20
0.803514
 10
3.656959
 20
0.811164
 10
3.658625
 20
0.819016
 10
3.660767
 20
0.827071
 10
3.663385
 20
0.835327
 10
3.666479
 20
0.843786
 10
3.670049
 20
0.852447
 10
3.67402
 20
0.861108
 10
3.678314
 20
0.869566
 10
3.682933
 20
0.877823
 10
3.687876
 20
0.885877
 10
3.693144
 20
0.893729
 10
3.698736
 20
0.901379
 10
3.704653
 20
0.908826
 10
3.710893
 20
0.916072
 10
3.717339
 20
0.92298
 10
3.723868
 20
0.929417
 10
3.730482
 20
0.935382
 10
3.737179
 20
0.940875
 10
3.743961
 20
0.945896
 10
3.750828
 20
0.950446
 10
3.757778
 20
0.954523
 10
3.764813
 20
0.958129
 10
3.770466
 20
0.96053
 10
3.776507
 20
0.962611
 10
3.782935
 20
0.964372
 10
3.789751
 20
0.965813
 10
3.796954
 20
0.966933
 10
3.804545
 20
0.967734
 10
3.812524
 20
0.968214
 10
3.82089
 20
0.968374
 10
3.829584
 20
0.968104
 10
3.838414
 20
0.967296
 10
3.844884
 20
0.97781
  0
LWPOLYLINE
  5
4E
330
1F
100
AcDbEntity
  8
0
100
AcDbPolyline
 90
       54
 70
   128
 43
0.0
 10
3.811454
 20
0.936561
 10
3.798041
 20
0.938786
 10
3.792194
 20
0.939342
 10
3.78692
 20
0.939527
 10
3.780951
 20
0.939319
 10
3.775176
 20
0.938693
 10
3.769594
 20
0.93765
 10
3.764207
 20
0.936191
 10
3.759013
 20
0.934314
 10
3.754012
 20
0.93202
 10
3.749206
 20
0.92931
 10
3.744593
 20
0.926182
 10
3.740118
 20
0.922513
 10
3.735722
 20
0.918178
 10
3.731406
 20
0.913178
 10
3.72717
 20
0.907512
 10
3.723015
 20
0.901181
 10
3.718939
 20
0.894184
 10
3.714944
 20
0.886521
 10
3.711028
 20
0.878193
 10
3.707395
 20
0.869535
 10
3.704246
 20
0.86088
 10
3.701582
 20
0.85223
 10
3.699402
 20
0.843584
 10
3.697706
 20
0.834942
 10
3.696495
 20
0.826304
 10
3.695769
 20
0.817671
 10
3.695526
 20
0.809041
 10
3.695914
 20
0.800515
 10
3.697077
 20
0.79327
 10
3.699014
 20
0.787305
 10
3.700274
 20
0.784803
 10
3.701727
 20
0.782621
 10
3.705063
 20
0.779082
 10
3.708871
 20
0.776555
 10
3.713151
 20
0.775038
 10
3.717903
 20
0.774533
 10
3.722596
 20
0.774846
 10
3.727373
 20
0.775788
 10
3.732234
 20
0.777357
 10
3.737179
 20
0.779554
 10
3.742209
 20
0.782378
 10
3.747323
 20
0.78583
 10
3.752521
 20
0.78991
 10
3.757804
 20
0.794618
 10
3.762951
 20
0.799915
 10
3.767745
 20
0.805764
 10
3.772185
 20
0.812165
 10
3.776271
 20
0.819118
 10
3.780003
 20
0.826622
 10
3.783382
 20
0.834678
 10
3.786406
 20
0.843287
 10
3.789077
 20
0.852447
 10
3.811454
 20
0.936561
  0
LWPOLYLINE
  5
4F
330
1F
100
AcDbEntity
  8
0
100
AcDbPolyline
 90
        9
 70
   128
 43
0.0
 10
0.420945
 20
0.804259
 42
-0.414214
 10
0.670945
 20
0.554259
 10
4.170945
 20
0.554259
 42
-0.414214
 10
4.420945
 20
0.804259
 10
4.420945
 20
4.304259
 42
-0.414214
 10
4.170945
 20
4.554259
 10
0.670945
 20
4.554259
 42
-0.414214
 10
0.420945
 20
4.304259
 10
0.420945
 20
0.804259
  0
LWPOLYLINE
  5
50
330
1F
100
AcDbEntity
  8
0
100
AcDbPolyline
 90
      104
 70
   128
 43
0.0
 10
2.85089
 20
1.715275
 10
2.853731
 20
1.719711
 10
2.856392
 20
1.724456
 10
2.861179
 20
1.734798
 10
2.865249
 20
1.746148
 10
2.868602
 20
1.758356
 10
2.871237
 20
1.77127
 10
2.873151
 20
1.784739
 10
2.874345
 20
1.798612
 10
2.874816
 20
1.812737
 10
2.874565
 20
1.826963
 10
2.873588
 20
1.841139
 10
2.871886
 20
1.855113
 10
2.869458
 20
1.868734
 10
2.866301
 20
1.881851
 10
2.862415
 20
1.894313
 10
2.857799
 20
1.905967
 10
2.852451
 20
1.916663
 10
2.846708
 20
1.926082
 10
2.84041
 20
1.934934
 10
2.83359
 20
1.943218
 10
2.826285
 20
1.950933
 10
2.818529
 20
1.958076
 10
2.810359
 20
1.964647
 10
2.80181
 20
1.970644
 10
2.792917
 20
1.976065
 10
2.783716
 20
1.980908
 10
2.774242
 20
1.985173
 10
2.764531
 20
1.988857
 10
2.754618
 20
1.991959
 10
2.744539
 20
1.994477
 10
2.734329
 20
1.99641
 10
2.724023
 20
1.997756
 10
2.713657
 20
1.998514
 10
2.703267
 20
1.998681
 10
2.692887
 20
1.998257
 10
2.682554
 20
1.99724
 10
2.672303
 20
1.995628
 10
2.662169
 20
1.99342
 10
2.652188
 20
1.990613
 10
2.642395
 20
1.987208
 10
2.632826
 20
1.983201
 10
2.623516
 20
1.978591
 10
2.6145
 20
1.973377
 10
2.605814
 20
1.967558
 10
2.597494
 20
1.961131
 10
2.589575
 20
1.954095
 10
2.582093
 20
1.946448
 10
2.575082
 20
1.938189
 10
2.568578
 20
1.929317
 10
2.562649
 20
1.920206
 10
2.557537
 20
1.911525
 10
2.553241
 20
1.903269
 10
2.549762
 20
1.895432
 10
2.5471
 20
1.888011
 10
2.545256
 20
1.881
 10
2.544228
 20
1.874396
 10
2.544019
 20
1.868193
 10
2.544627
 20
1.862388
 10
2.546052
 20
1.856975
 10
2.548296
 20
1.85195
 10
2.551358
 20
1.847309
 10
2.555238
 20
1.843046
 10
2.559937
 20
1.839158
 10
2.565454
 20
1.83564
 10
2.57179
 20
1.832487
 10
2.57924
 20
1.828955
 10
2.587536
 20
1.824581
 10
2.606074
 20
1.813724
 10
2.62623
 20
1.800756
 10
2.646828
 20
1.786517
 10
2.66669
 20
1.771847
 10
2.684643
 20
1.757586
 10
2.699508
 20
1.744575
 10
2.705416
 20
1.7388
 10
2.710112
 20
1.733653
 10
2.717242
 20
1.724162
 10
2.724073
 20
1.713262
 10
2.729831
 20
1.702299
 10
2.732065
 20
1.697215
 10
2.73374
 20
1.692621
 10
2.735322
 20
1.688234
 10
2.737292
 20
1.683746
 10
2.742079
 20
1.67497
 10
2.747475
 20
1.667306
 10
2.750205
 20
1.664208
 10
2.752852
 20
1.661767
 10
2.754678
 20
1.660506
 10
2.756692
 20
1.659494
 10
2.761241
 20
1.65819
 10
2.766413
 20
1.657809
 10
2.772121
 20
1.658303
 10
2.778279
 20
1.659625
 10
2.784799
 20
1.661727
 10
2.791596
 20
1.664563
 10
2.798582
 20
1.668084
 10
2.805671
 20
1.672245
 10
2.812775
 20
1.676996
 10
2.81981
 20
1.682292
 10
2.826687
 20
1.688084
 10
2.83332
 20
1.694326
 10
2.839623
 20
1.70097
 10
2.845509
 20
1.707969
 10
2.85089
 20
1.715275
  0
LWPOLYLINE
  5
51
330
1F
100
AcDbEntity
  8
0
100
AcDbPolyline
 90
      115
 70
   128
 43
0.0
 10
3.040691
 20
1.383743
 10
3.046871
 20
1.390155
 10
3.052534
 20
1.397392
 10
3.057666
 20
1.405379
 10
3.062253
 20
1.414038
 10
3.066281
 20
1.423295
 10
3.069737
 20
1.433071
 10
3.072606
 20
1.443292
 10
3.074874
 20
1.453881
 10
3.076528
 20
1.464763
 10
3.077554
 20
1.475859
 10
3.077937
 20
1.487095
 10
3.077665
 20
1.498395
 10
3.076722
 20
1.509681
 10
3.075095
 20
1.520878
 10
3.07277
 20
1.53191
 10
3.069733
 20
1.5427
 10
3.06674
 20
1.550936
 10
3.06295
 20
1.559498
 10
3.058444
 20
1.56829
 10
3.053303
 20
1.577213
 10
3.047609
 20
1.586172
 10
3.041444
 20
1.595068
 10
3.034889
 20
1.603805
 10
3.028026
 20
1.612285
 10
3.020937
 20
1.620412
 10
3.013703
 20
1.628088
 10
3.006405
 20
1.635216
 10
2.999126
 20
1.641699
 10
2.991948
 20
1.647439
 10
2.98495
 20
1.652341
 10
2.978217
 20
1.656305
 10
2.971828
 20
1.659236
 10
2.951775
 20
1.666756
 10
2.935907
 20
1.671995
 10
2.929267
 20
1.673735
 10
2.923341
 20
1.674877
 10
2.918019
 20
1.675411
 10
2.913191
 20
1.675326
 10
2.908745
 20
1.674615
 10
2.904572
 20
1.673267
 10
2.900561
 20
1.671273
 10
2.896601
 20
1.668624
 10
2.892582
 20
1.665309
 10
2.888392
 20
1.66132
 10
2.879061
 20
1.65128
 10
2.872866
 20
1.644849
 10
2.865501
 20
1.63808
 10
2.857239
 20
1.631174
 10
2.848356
 20
1.624335
 10
2.839127
 20
1.617768
 10
2.829825
 20
1.611674
 10
2.820726
 20
1.606257
 10
2.812104
 20
1.60172
 10
2.803364
 20
1.597082
 10
2.795191
 20
1.591955
 10
2.787587
 20
1.586368
 10
2.780551
 20
1.580349
 10
2.774083
 20
1.573926
 10
2.768182
 20
1.567126
 10
2.762849
 20
1.559977
 10
2.758084
 20
1.552508
 10
2.753885
 20
1.544747
 10
2.750254
 20
1.536721
 10
2.74719
 20
1.528459
 10
2.744692
 20
1.519988
 10
2.742761
 20
1.511336
 10
2.741397
 20
1.502532
 10
2.740598
 20
1.493604
 10
2.740366
 20
1.484578
 10
2.7407
 20
1.475484
 10
2.7416
 20
1.46635
 10
2.743066
 20
1.457202
 10
2.745097
 20
1.44807
 10
2.747693
 20
1.438981
 10
2.750854
 20
1.429963
 10
2.754581
 20
1.421045
 10
2.758872
 20
1.412254
 10
2.763729
 20
1.403617
 10
2.769149
 20
1.395164
 10
2.775135
 20
1.386922
 10
2.781684
 20
1.378919
 10
2.788798
 20
1.371183
 10
2.796475
 20
1.363742
 10
2.804716
 20
1.356624
 10
2.813521
 20
1.349857
 10
2.819978
 20
1.345389
 10
2.826511
 20
1.341282
 10
2.833116
 20
1.337537
 10
2.83979
 20
1.334153
 10
2.846529
 20
1.331129
 10
2.853331
 20
1.328464
 10
2.860191
 20
1.326159
 10
2.867106
 20
1.324212
 10
2.874074
 20
1.322623
 10
2.881089
 20
1.321392
 10
2.88815
 20
1.320518
 10
2.895251
 20
1.320001
 10
2.902391
 20
1.31984
 10
2.909566
 20
1.320034
 10
2.916771
 20
1.320583
 10
2.924004
 20
1.321487
 10
2.931262
 20
1.322745
 10
2.93854
 20
1.324356
 10
2.945835
 20
1.32632
 10
2.953145
 20
1.328637
 10
2.960465
 20
1.331305
 10
2.967792
 20
1.334326
 10
2.975122
 20
1.337697
 10
2.982453
 20
1.341418
 10
2.98978
 20
1.345489
 10
2.997101
 20
1.34991
 10
3.011709
 20
1.359798
 10
3.026248
 20
1.371076
 10
3.040691
 20
1.383743
  0
LWPOLYLINE
  5
52
330
1F
100
AcDbEntity
  8
0
100
AcDbPolyline
 90
      108
 70
   128
 43
0.0
 10
3.135683
 20
1.708651
 10
3.141824
 20
1.721679
 10
3.144075
 20
1.727377
 10
3.145727
 20
1.732347
 10
3.146738
 20
1.736452
 10
3.147069
 20
1.739555
 10
3.146679
 20
1.741518
 10
3.146202
 20
1.742029
 10
3.145528
 20
1.742203
 10
3.144276
 20
1.742456
 10
3.143597
 20
1.74318
 10
3.143471
 20
1.744326
 10
3.143877
 20
1.745842
 10
3.146206
 20
1.749781
 10
3.150425
 20
1.754591
 10
3.153743
 20
1.75839
 10
3.156509
 20
1.7626
 10
3.158723
 20
1.767223
 10
3.160385
 20
1.772261
 10
3.161494
 20
1.777716
 10
3.162051
 20
1.783589
 10
3.162055
 20
1.789883
 10
3.161506
 20
1.796599
 10
3.160404
 20
1.80374
 10
3.158748
 20
1.811305
 10
3.156538
 20
1.819299
 10
3.153775
 20
1.827722
 10
3.150457
 20
1.836576
 10
3.146585
 20
1.845863
 10
3.142159
 20
1.855585
 10
3.137178
 20
1.865743
 10
3.132428
 20
1.874768
 10
3.127463
 20
1.883529
 10
3.122296
 20
1.892019
 10
3.116937
 20
1.900232
 10
3.1114
 20
1.908159
 10
3.105696
 20
1.915793
 10
3.099837
 20
1.923128
 10
3.093835
 20
1.930155
 10
3.087703
 20
1.936868
 10
3.081451
 20
1.943258
 10
3.075092
 20
1.94932
 10
3.068638
 20
1.955044
 10
3.062102
 20
1.960425
 10
3.055494
 20
1.965455
 10
3.048827
 20
1.970126
 10
3.042113
 20
1.974431
 10
3.035364
 20
1.978363
 10
3.028591
 20
1.981914
 10
3.021808
 20
1.985077
 10
3.015025
 20
1.987845
 10
3.008255
 20
1.990211
 10
3.00151
 20
1.992166
 10
2.994801
 20
1.993705
 10
2.988142
 20
1.994819
 10
2.981543
 20
1.995501
 10
2.975016
 20
1.995744
 10
2.968575
 20
1.99554
 10
2.96223
 20
1.994882
 10
2.955993
 20
1.993764
 10
2.949877
 20
1.992176
 10
2.943894
 20
1.990113
 10
2.938055
 20
1.987567
 10
2.930134
 20
1.983406
 10
2.923847
 20
1.979241
 10
2.921269
 20
1.977068
 10
2.919042
 20
1.974785
 10
2.917148
 20
1.972358
 10
2.915568
 20
1.969751
 10
2.914282
 20
1.966927
 10
2.913271
 20
1.96385
 10
2.912002
 20
1.956795
 10
2.911607
 20
1.948298
 10
2.911935
 20
1.938073
 10
2.915845
 20
1.869984
 10
2.919053
 20
1.819237
 10
2.920559
 20
1.79952
 10
2.92209
 20
1.783123
 10
2.923711
 20
1.769707
 10
2.925488
 20
1.758934
 10
2.927489
 20
1.750465
 10
2.929779
 20
1.743961
 10
2.932426
 20
1.739085
 10
2.935495
 20
1.735496
 10
2.939054
 20
1.732858
 10
2.943168
 20
1.73083
 10
2.953329
 20
1.727255
 10
2.96012
 20
1.724594
 10
2.968391
 20
1.720766
 10
2.977823
 20
1.715952
 10
2.988096
 20
1.710331
 10
3.009888
 20
1.697389
 10
3.020768
 20
1.690428
 10
3.031212
 20
1.68338
 10
3.066612
 20
1.659401
 10
3.077966
 20
1.652181
 10
3.081315
 20
1.650249
 10
3.08283
 20
1.649619
 10
3.085208
 20
1.650229
 10
3.087899
 20
1.651461
 10
3.090862
 20
1.653269
 10
3.094056
 20
1.655609
 10
3.100978
 20
1.661702
 10
3.108338
 20
1.669378
 10
3.115814
 20
1.678273
 10
3.123079
 20
1.688025
 10
3.129811
 20
1.698272
 10
3.135683
 20
1.708651
  0
LWPOLYLINE
  5
53
330
1F
100
AcDbEntity
  8
0
100
AcDbPolyline
 90
       83
 70
   128
 43
0.0
 10
2.66897
 20
1.337151
 10
2.675081
 20
1.351089
 10
2.680093
 20
1.364587
 10
2.683926
 20
1.377207
 10
2.686501
 20
1.388513
 10
2.687736
 20
1.398067
 10
2.687827
 20
1.40205
 10
2.687553
 20
1.405432
 10
2.686904
 20
1.408158
 10
2.685871
 20
1.410172
 10
2.684444
 20
1.411421
 10
2.682612
 20
1.411849
 10
2.680382
 20
1.411193
 10
2.676056
 20
1.409315
 10
2.662138
 20
1.402414
 10
2.642899
 20
1.392201
 10
2.620381
 20
1.37973
 10
2.602677
 20
1.369986
 10
2.587679
 20
1.362516
 10
2.580858
 20
1.359561
 10
2.574309
 20
1.357086
 10
2.567897
 20
1.355063
 10
2.561486
 20
1.353462
 10
2.554943
 20
1.352253
 10
2.548131
 20
1.351409
 10
2.540917
 20
1.350898
 10
2.533164
 20
1.350693
 10
2.515505
 20
1.351079
 10
2.494074
 20
1.352335
 10
2.465704
 20
1.354789
 10
2.439757
 20
1.357979
 10
2.428589
 20
1.35972
 10
2.419103
 20
1.36149
 10
2.411658
 20
1.363238
 10
2.406613
 20
1.364912
 10
2.401516
 20
1.36684
 10
2.397442
 20
1.367624
 10
2.395755
 20
1.367541
 10
2.394284
 20
1.367118
 10
2.393016
 20
1.366336
 10
2.391937
 20
1.365178
 10
2.391035
 20
1.363626
 10
2.390295
 20
1.361661
 10
2.389253
 20
1.356421
 10
2.388706
 20
1.349314
 10
2.388547
 20
1.340196
 10
2.388761
 20
1.335076
 10
2.389397
 20
1.329996
 10
2.390441
 20
1.324964
 10
2.391882
 20
1.319988
 10
2.393708
 20
1.315076
 10
2.395905
 20
1.310236
 10
2.398462
 20
1.305477
 10
2.401366
 20
1.300807
 10
2.404606
 20
1.296234
 10
2.408168
 20
1.291766
 10
2.416213
 20
1.283179
 10
2.425402
 20
1.275111
 10
2.435637
 20
1.267628
 10
2.44682
 20
1.260795
 10
2.458853
 20
1.254679
 10
2.471637
 20
1.249344
 10
2.485076
 20
1.244857
 10
2.499069
 20
1.241283
 10
2.51352
 20
1.238687
 10
2.528329
 20
1.237135
 10
2.5434
 20
1.236693
 10
2.550521
 20
1.237369
 10
2.558268
 20
1.239216
 10
2.566529
 20
1.242143
 10
2.57519
 20
1.24606
 10
2.584137
 20
1.250875
 10
2.593257
 20
1.256497
 10
2.602436
 20
1.262836
 10
2.61156
 20
1.269801
 10
2.620517
 20
1.277301
 10
2.629192
 20
1.285246
 10
2.637472
 20
1.293543
 10
2.645243
 20
1.302103
 10
2.652392
 20
1.310835
 10
2.658805
 20
1.319647
 10
2.664369
 20
1.32845
 10
2.66897
 20
1.337151
  0
LWPOLYLINE
  5
54
330
1F
100
AcDbEntity
  8
0
100
AcDbPolyline
 90
     1101
 70
   128
 43
0.0
 10
2.527915
 20
1.125684
 10
2.542829
 20
1.12697
 10
2.558408
 20
1.12928
 10
2.574499
 20
1.132543
 10
2.590949
 20
1.136692
 10
2.607606
 20
1.141659
 10
2.624318
 20
1.147373
 10
2.640931
 20
1.153767
 10
2.657293
 20
1.160771
 10
2.673252
 20
1.168318
 10
2.688654
 20
1.176338
 10
2.703348
 20
1.184763
 10
2.717181
 20
1.193524
 10
2.729999
 20
1.202552
 10
2.741652
 20
1.211778
 10
2.751985
 20
1.221135
 10
2.760846
 20
1.230553
 10
2.766598
 20
1.237134
 10
2.771846
 20
1.242308
 10
2.774455
 20
1.244307
 10
2.777144
 20
1.245884
 10
2.779983
 20
1.247013
 10
2.78304
 20
1.247671
 10
2.786385
 20
1.247835
 10
2.790087
 20
1.24748
 10
2.794213
 20
1.246584
 10
2.798834
 20
1.245121
 10
2.804018
 20
1.243068
 10
2.809834
 20
1.240402
 10
2.823637
 20
1.233134
 10
2.83149
 20
1.228989
 10
2.839412
 20
1.225295
 10
2.8474
 20
1.222048
 10
2.855448
 20
1.21924
 10
2.863553
 20
1.216868
 10
2.871711
 20
1.214925
 10
2.879917
 20
1.213406
 10
2.888166
 20
1.212306
 10
2.896456
 20
1.211619
 10
2.904781
 20
1.21134
 10
2.913138
 20
1.211463
 10
2.921522
 20
1.211984
 10
2.929928
 20
1.212896
 10
2.938354
 20
1.214195
 10
2.946793
 20
1.215874
 10
2.955243
 20
1.217929
 10
2.963699
 20
1.220354
 10
2.972157
 20
1.223143
 10
2.980613
 20
1.226292
 10
2.989062
 20
1.229795
 10
2.9975
 20
1.233646
 10
3.005923
 20
1.23784
 10
3.014327
 20
1.242371
 10
3.022707
 20
1.247235
 10
3.03938
 20
1.257938
 10
3.055908
 20
1.269904
 10
3.072258
 20
1.283091
 10
3.088396
 20
1.297456
 10
3.102073
 20
1.310005
 10
3.113173
 20
1.319497
 10
3.117968
 20
1.323181
 10
3.122374
 20
1.326203
 10
3.126476
 20
1.328595
 10
3.130358
 20
1.330392
 10
3.134106
 20
1.331628
 10
3.137805
 20
1.332335
 10
3.141539
 20
1.33255
 10
3.145395
 20
1.332304
 10
3.149456
 20
1.331631
 10
3.153808
 20
1.330567
 10
3.163726
 20
1.327395
 10
3.168967
 20
1.32577
 10
3.174578
 20
1.324411
 10
3.186812
 20
1.322466
 10
3.20024
 20
1.32152
 10
3.214671
 20
1.321528
 10
3.229915
 20
1.322447
 10
3.245781
 20
1.324234
 10
3.26208
 20
1.326846
 10
3.278621
 20
1.33024
 10
3.295213
 20
1.334371
 10
3.311668
 20
1.339199
 10
3.327795
 20
1.344678
 10
3.343402
 20
1.350766
 10
3.358302
 20
1.35742
 10
3.372302
 20
1.364596
 10
3.385213
 20
1.372251
 10
3.396845
 20
1.380343
 10
3.409818
 20
1.390598
 10
3.421739
 20
1.400895
 10
3.432636
 20
1.411295
 10
3.442538
 20
1.421859
 10
3.451474
 20
1.432646
 10
3.459473
 20
1.443717
 10
3.466564
 20
1.455132
 10
3.472777
 20
1.466951
 10
3.478139
 20
1.479235
 10
3.48268
 20
1.492044
 10
3.486429
 20
1.505437
 10
3.489414
 20
1.519476
 10
3.491666
 20
1.53422
 10
3.493211
 20
1.549731
 10
3.494081
 20
1.566067
 10
3.494303
 20
1.58329
 10
3.49397
 20
1.599691
 10
3.493139
 20
1.615379
 10
3.491794
 20
1.630393
 10
3.489922
 20
1.644771
 10
3.487509
 20
1.658551
 10
3.484541
 20
1.671771
 10
3.481003
 20
1.68447
 10
3.476881
 20
1.696685
 10
3.472162
 20
1.708456
 10
3.466831
 20
1.71982
 10
3.460874
 20
1.730815
 10
3.454277
 20
1.74148
 10
3.447027
 20
1.751853
 10
3.439107
 20
1.761972
 10
3.430506
 20
1.771876
 10
3.421208
 20
1.781603
 10
3.413379
 20
1.789015
 10
3.40446
 20
1.796729
 10
3.394629
 20
1.804639
 10
3.384063
 20
1.812637
 10
3.37294
 20
1.820614
 10
3.361439
 20
1.828464
 10
3.349735
 20
1.83608
 10
3.338008
 20
1.843353
 10
3.326435
 20
1.850176
 10
3.315193
 20
1.856441
 10
3.30446
 20
1.862042
 10
3.294415
 20
1.866871
 10
3.285234
 20
1.87082
 10
3.277095
 20
1.873781
 10
3.270176
 20
1.875648
 10
3.264655
 20
1.876312
 10
3.260687
 20
1.876745
 10
3.25667
 20
1.877976
 10
3.252631
 20
1.879965
 10
3.248595
 20
1.882677
 10
3.244586
 20
1.886074
 10
3.24063
 20
1.89012
 10
3.236751
 20
1.894776
 10
3.232975
 20
1.900007
 10
3.229327
 20
1.905774
 10
3.225832
 20
1.912041
 10
3.222515
 20
1.91877
 10
3.219401
 20
1.925925
 10
3.216515
 20
1.933468
 10
3.213882
 20
1.941362
 10
3.211528
 20
1.949569
 10
3.209477
 20
1.958054
 10
3.208416
 20
1.962085
 10
3.20695
 20
1.966404
 10
3.202872
 20
1.975798
 10
3.197388
 20
1.98602
 10
3.190642
 20
1.99685
 10
3.182779
 20
2.008072
 10
3.173941
 20
2.019467
 10
3.164275
 20
2.030818
 10
3.153924
 20
2.041906
 10
3.139861
 20
2.055861
 10
3.127251
 20
2.067289
 10
3.121291
 20
2.07217
 10
3.115455
 20
2.076555
 10
3.109664
 20
2.08049
 10
3.103837
 20
2.084021
 10
3.097895
 20
2.087193
 10
3.091758
 20
2.090051
 10
3.085347
 20
2.092641
 10
3.078581
 20
2.095008
 10
3.063668
 20
2.099254
 10
3.046381
 20
2.103154
 10
3.034811
 20
2.105252
 10
3.022926
 20
2.106861
 10
3.010796
 20
2.10799
 10
2.998492
 20
2.108646
 10
2.986083
 20
2.108837
 10
2.973639
 20
2.108571
 10
2.961231
 20
2.107856
 10
2.948929
 20
2.106699
 10
2.936803
 20
2.105109
 10
2.924922
 20
2.103094
 10
2.913358
 20
2.10066
 10
2.90218
 20
2.097818
 10
2.891458
 20
2.094573
 10
2.881262
 20
2.090934
 10
2.871663
 20
2.086909
 10
2.862731
 20
2.082506
 10
2.857264
 20
2.080022
 10
2.851738
 20
2.078451
 10
2.846017
 20
2.077808
 10
2.839963
 20
2.078113
 10
2.833441
 20
2.07938
 10
2.826315
 20
2.081628
 10
2.818446
 20
2.084874
 10
2.809701
 20
2.089134
 10
2.800951
 20
2.093001
 10
2.790425
 20
2.096506
 10
2.778283
 20
2.099622
 10
2.764682
 20
2.102321
 10
2.749782
 20
2.104577
 10
2.733741
 20
2.10636
 10
2.716718
 20
2.107644
 10
2.698871
 20
2.108401
 10
2.673257
 20
2.109143
 10
2.65393
 20
2.110086
 10
2.646317
 20
2.110754
 10
2.639906
 20
2.11162
 10
2.634575
 20
2.112733
 10
2.6302
 20
2.114141
 10
2.626659
 20
2.115894
 10
2.623828
 20
2.118041
 10
2.621585
 20
2.120631
 10
2.619806
 20
2.123712
 10
2.618368
 20
2.127336
 10
2.617148
 20
2.131549
 10
2.614872
 20
2.141944
 10
2.613259
 20
2.148737
 10
2.611176
 20
2.155654
 10
2.608626
 20
2.162688
 10
2.605614
 20
2.169834
 10
2.602144
 20
2.177085
 10
2.598219
 20
2.184436
 10
2.593845
 20
2.19188
 10
2.589025
 20
2.19941
 10
2.583763
 20
2.207022
 10
2.578062
 20
2.214708
 10
2.565365
 20
2.230281
 10
2.550966
 20
2.246079
 10
2.534896
 20
2.262053
 10
2.525822
 20
2.270032
 10
2.516434
 20
2.276874
 10
2.511495
 20
2.279919
 10
2.506326
 20
2.282741
 10
2.500874
 20
2.285359
 10
2.495089
 20
2.287792
 10
2.482318
 20
2.292189
 10
2.467603
 20
2.296091
 10
2.450539
 20
2.299658
 10
2.430718
 20
2.303051
 10
2.406575
 20
2.306961
 10
2.396807
 20
2.308757
 10
2.388433
 20
2.310578
 10
2.381343
 20
2.312523
 10
2.375433
 20
2.314688
 10
2.370594
 20
2.317174
 10
2.366719
 20
2.320079
 10
2.363701
 20
2.323499
 10
2.361433
 20
2.327535
 10
2.359808
 20
2.332284
 10
2.358719
 20
2.337844
 10
2.358058
 20
2.344315
 10
2.357719
 20
2.351793
 10
2.357576
 20
2.370168
 10
2.357251
 20
2.381874
 10
2.356288
 20
2.393679
 10
2.354709
 20
2.405556
 10
2.352533
 20
2.417482
 10
2.349779
 20
2.429428
 10
2.346469
 20
2.441369
 10
2.342621
 20
2.453279
 10
2.338257
 20
2.465133
 10
2.333395
 20
2.476904
 10
2.328057
 20
2.488566
 10
2.322262
 20
2.500093
 10
2.316029
 20
2.51146
 10
2.30938
 20
2.522639
 10
2.302334
 20
2.533606
 10
2.294911
 20
2.544334
 10
2.287132
 20
2.554798
 10
2.279015
 20
2.564971
 10
2.270582
 20
2.574827
 10
2.261852
 20
2.58434
 10
2.252845
 20
2.593485
 10
2.243581
 20
2.602235
 10
2.23408
 20
2.610565
 10
2.224363
 20
2.618447
 10
2.214449
 20
2.625858
 10
2.204358
 20
2.632769
 10
2.194111
 20
2.639157
 10
2.183727
 20
2.644993
 10
2.173226
 20
2.650253
 10
2.162629
 20
2.654911
 10
2.151955
 20
2.65894
 10
2.141225
 20
2.662314
 10
2.130458
 20
2.665008
 10
2.122504
 20
2.667062
 10
2.119209
 20
2.668289
 10
2.116327
 20
2.669753
 10
2.113826
 20
2.67153
 10
2.111674
 20
2.673699
 10
2.109841
 20
2.676337
 10
2.108295
 20
2.67952
 10
2.107005
 20
2.683328
 10
2.105939
 20
2.687836
 10
2.104353
 20
2.699266
 10
2.103288
 20
2.714429
 10
2.102491
 20
2.733943
 10
2.101272
 20
2.753245
 10
2.09895
 20
2.77198
 10
2.095521
 20
2.790153
 10
2.093391
 20
2.79903
 10
2.090984
 20
2.807767
 10
2.0883
 20
2.816366
 10
2.085337
 20
2.824826
 10
2.082097
 20
2.833148
 10
2.078578
 20
2.841332
 10
2.07478
 20
2.849379
 10
2.070704
 20
2.85729
 10
2.066348
 20
2.865064
 10
2.061713
 20
2.872702
 10
2.056798
 20
2.880205
 10
2.051603
 20
2.887572
 10
2.046128
 20
2.894805
 10
2.040372
 20
2.901904
 10
2.028018
 20
2.915701
 10
2.014538
 20
2.928966
 10
1.999931
 20
2.941703
 10
1.984194
 20
2.953915
 10
1.967325
 20
2.965606
 10
1.949322
 20
2.976779
 10
1.934079
 20
2.985389
 10
1.920359
 20
2.992228
 10
1.913823
 20
2.995043
 10
1.907373
 20
2.997487
 10
1.900909
 20
2.999583
 10
1.894335
 20
3.001356
 10
1.88755
 20
3.00283
 10
1.880457
 20
3.004028
 10
1.864952
 20
3.005693
 10
1.847033
 20
3.006543
 10
1.825913
 20
3.006769
 10
1.804919
 20
3.006488
 10
1.786918
 20
3.005566
 10
1.771134
 20
3.003816
 10
1.763831
 20
3.002573
 10
1.756792
 20
3.001053
 10
1.74992
 20
2.999233
 10
1.743119
 20
2.99709
 10
1.729339
 20
2.991742
 10
1.714677
 20
2.984822
 10
1.698359
 20
2.976145
 10
1.687567
 20
2.969862
 10
1.676865
 20
2.963018
 10
1.666335
 20
2.955699
 10
1.656063
 20
2.947992
 10
1.646131
 20
2.939984
 10
1.636623
 20
2.931762
 10
1.627624
 20
2.923413
 10
1.619216
 20
2.915023
 10
1.611484
 20
2.906679
 10
1.604512
 20
2.898468
 10
1.598382
 20
2.890478
 10
1.593179
 20
2.882793
 10
1.588987
 20
2.875503
 10
1.585888
 20
2.868692
 10
1.583968
 20
2.862449
 10
1.583476
 20
2.859567
 10
1.583309
 20
2.85686
 10
1.583116
 20
2.853399
 10
1.582564
 20
2.849784
 10
1.580533
 20
2.842516
 10
1.579133
 20
2.839077
 10
1.577529
 20
2.835911
 10
1.575758
 20
2.833123
 10
1.57386
 20
2.830822
 10
1.571891
 20
2.828343
 10
1.569918
 20
2.825047
 10
1.567994
 20
2.821077
 10
1.566171
 20
2.816575
 10
1.563042
 20
2.806544
 10
1.561842
 20
2.8013
 10
1.560955
 20
2.796094
 10
1.559586
 20
2.788631
 10
1.558658
 20
2.785507
 10
1.557493
 20
2.782752
 10
1.556037
 20
2.780338
 10
1.554235
 20
2.778239
 10
1.552032
 20
2.776427
 10
1.549372
 20
2.774875
 10
1.5462
 20
2.773556
 10
1.542461
 20
2.772443
 10
1.533063
 20
2.770726
 10
1.520736
 20
2.769507
 10
1.505039
 20
2.768569
 10
1.493675
 20
2.767701
 10
1.481477
 20
2.766224
 10
1.468827
 20
2.764219
 10
1.456106
 20
2.761766
 10
1.443694
 20
2.758945
 10
1.431973
 20
2.755835
 10
1.421323
 20
2.752516
 10
1.412127
 20
2.74907
 10
1.404997
 20
2.745892
 10
1.397903
 20
2.742338
 10
1.390856
 20
2.738425
 10
1.383869
 20
2.734169
 10
1.370124
 20
2.724698
 10
1.35677
 20
2.714063
 10
1.343905
 20
2.7024
 10
1.33163
 20
2.689846
 10
1.320046
 20
2.676539
 10
1.309251
 20
2.662615
 10
1.299346
 20
2.648211
 10
1.290431
 20
2.633464
 10
1.282607
 20
2.618511
 10
1.275972
 20
2.603488
 10
1.273132
 20
2.595994
 10
1.270628
 20
2.588533
 10
1.268471
 20
2.581124
 10
1.266674
 20
2.573783
 10
1.265249
 20
2.566528
 10
1.26421
 20
2.559375
 10
1.263568
 20
2.552341
 10
1.263336
 20
2.545445
 10
1.262909
 20
2.541951
 10
1.2617
 20
2.538196
 10
1.259787
 20
2.534248
 10
1.257247
 20
2.530173
 10
1.254158
 20
2.526039
 10
1.250597
 20
2.521912
 10
1.246641
 20
2.51786
 10
1.242368
 20
2.51395
 10
1.237856
 20
2.510249
 10
1.233181
 20
2.506824
 10
1.228422
 20
2.503742
 10
1.223655
 20
2.50107
 10
1.218958
 20
2.498875
 10
1.214408
 20
2.497224
 10
1.210083
 20
2.496184
 10
1.20606
 20
2.495822
 10
1.203921
 20
2.496031
 10
1.201484
 20
2.496648
 10
1.195783
 20
2.499042
 10
1.189085
 20
2.502883
 10
1.181516
 20
2.508046
 10
1.173204
 20
2.514409
 10
1.164276
 20
2.521849
 10
1.154858
 20
2.530243
 10
1.145079
 20
2.539467
 10
1.135064
 20
2.5494
 10
1.124942
 20
2.559917
 10
1.114839
 20
2.570897
 10
1.104882
 20
2.582215
 10
1.095198
 20
2.593749
 10
1.085915
 20
2.605377
 10
1.077159
 20
2.616974
 10
1.069058
 20
2.628418
 10
1.054654
 20
2.650052
 10
1.041071
 20
2.671553
 10
1.028306
 20
2.692922
 10
1.016359
 20
2.714163
 10
1.005228
 20
2.735281
 10
0.994912
 20
2.756277
 10
0.98541
 20
2.777157
 10
0.976719
 20
2.797923
 10
0.968839
 20
2.818579
 10
0.961768
 20
2.839128
 10
0.955505
 20
2.859575
 10
0.950048
 20
2.879921
 10
0.945396
 20
2.900172
 10
0.941548
 20
2.92033
 10
0.938502
 20
2.940399
 10
0.936256
 20
2.960383
 10
0.934809
 20
2.974084
 10
0.933071
 20
2.987153
 10
0.931055
 20
2.999554
 10
0.928775
 20
3.011253
 10
0.926246
 20
3.022216
 10
0.923482
 20
3.032407
 10
0.920496
 20
3.041792
 10
0.917303
 20
3.050337
 10
0.913916
 20
3.058005
 10
0.910351
 20
3.064764
 10
0.90662
 20
3.070579
 10
0.902738
 20
3.075413
 10
0.89872
 20
3.079234
 10
0.894578
 20
3.082006
 10
0.890328
 20
3.083695
 10
0.885983
 20
3.084265
 10
0.881799
 20
3.08371
 10
0.876414
 20
3.082114
 10
0.869988
 20
3.079576
 10
0.86268
 20
3.0762
 10
0.84606
 20
3.067336
 10
0.827835
 20
3.056334
 10
0.809283
 20
3.044004
 10
0.791685
 20
3.031161
 10
0.783643
 20
3.024799
 10
0.776319
 20
3.018614
 10
0.769874
 20
3.012705
 10
0.764466
 20
3.007175
 10
0.760671
 20
3.00243
 10
0.757502
 20
2.997211
 10
0.754959
 20
2.991516
 10
0.753043
 20
2.985344
 10
0.751754
 20
2.978693
 10
0.751091
 20
2.971562
 10
0.751056
 20
2.963949
 10
0.751648
 20
2.955851
 10
0.752868
 20
2.947269
 10
0.754715
 20
2.938199
 10
0.75719
 20
2.92864
 10
0.760293
 20
2.918591
 10
0.764024
 20
2.90805
 10
0.768384
 20
2.897015
 10
0.773372
 20
2.885485
 10
0.778989
 20
2.873457
 10
0.783454
 20
2.863621
 10
0.787342
 20
2.853831
 10
0.790652
 20
2.844155
 10
0.793383
 20
2.834664
 10
0.795535
 20
2.825425
 10
0.797105
 20
2.816508
 10
0.798095
 20
2.80798
 10
0.798501
 20
2.799912
 10
0.798324
 20
2.792371
 10
0.797562
 20
2.785427
 10
0.796214
 20
2.779149
 10
0.794279
 20
2.773604
 10
0.791757
 20
2.768863
 10
0.788645
 20
2.764993
 10
0.784944
 20
2.762064
 10
0.782872
 20
2.760974
 10
0.780653
 20
2.760144
 10
0.767936
 20
2.757125
 10
0.746665
 20
2.752958
 10
0.719806
 20
2.748192
 10
0.690321
 20
2.743377
 10
0.671426
 20
2.740148
 10
0.654899
 20
2.736693
 10
0.640466
 20
2.732907
 10
0.627853
 20
2.728687
 10
0.616788
 20
2.72393
 10
0.606997
 20
2.718531
 10
0.598206
 20
2.712387
 10
0.590143
 20
2.705394
 10
0.584178
 20
2.699172
 10
0.578717
 20
2.692451
 10
0.573742
 20
2.6853
 10
0.569237
 20
2.677785
 10
0.565186
 20
2.669975
 10
0.561573
 20
2.661936
 10
0.558381
 20
2.653737
 10
0.555595
 20
2.645445
 10
0.553197
 20
2.637128
 10
0.551172
 20
2.628852
 10
0.548174
 20
2.612699
 10
0.546471
 20
2.597524
 10
0.545933
 20
2.58387
 10
0.546238
 20
2.571449
 10
0.547469
 20
2.555996
 10
0.548581
 20
2.5474
 10
0.550104
 20
2.538368
 10
0.552095
 20
2.529006
 10
0.554616
 20
2.519422
 10
0.557725
 20
2.509722
 10
0.561481
 20
2.500015
 10
0.565945
 20
2.490408
 10
0.571175
 20
2.481007
 10
0.577232
 20
2.471919
 10
0.584174
 20
2.463253
 10
0.592061
 20
2.455114
 10
0.596377
 20
2.451276
 10
0.600952
 20
2.447611
 10
0.608536
 20
2.441128
 10
0.614706
 20
2.434505
 10
0.619595
 20
2.427987
 10
0.623337
 20
2.421817
 10
0.626066
 20
2.416239
 10
0.627917
 20
2.411496
 10
0.629519
 20
2.405492
 10
0.631838
 20
2.39344
 10
0.63521
 20
2.381264
 10
0.639527
 20
2.369073
 10
0.644682
 20
2.356974
 10
0.650569
 20
2.345076
 10
0.657081
 20
2.333488
 10
0.664111
 20
2.322316
 10
0.671551
 20
2.31167
 10
0.679296
 20
2.301657
 10
0.687238
 20
2.292386
 10
0.695271
 20
2.283964
 10
0.703287
 20
2.276499
 10
0.711179
 20
2.270101
 10
0.718842
 20
2.264876
 10
0.726167
 20
2.260933
 10
0.733049
 20
2.258381
 10
0.736242
 20
2.257102
 10
0.739453
 20
2.255061
 10
0.742639
 20
2.252339
 10
0.745753
 20
2.249016
 10
0.74875
 20
2.245171
 10
0.751587
 20
2.240885
 10
0.754217
 20
2.236238
 10
0.756596
 20
2.231309
 10
0.758679
 20
2.22618
 10
0.760421
 20
2.220929
 10
0.761777
 20
2.215637
 10
0.762702
 20
2.210385
 10
0.763151
 20
2.205252
 10
0.763079
 20
2.200317
 10
0.762441
 20
2.195663
 10
0.761192
 20
2.191367
 10
0.75943
 20
2.187583
 10
0.757348
 20
2.184504
 10
0.754976
 20
2.182096
 10
0.752344
 20
2.180323
 10
0.749481
 20
2.179148
 10
0.746417
 20
2.178537
 10
0.743182
 20
2.178453
 10
0.739806
 20
2.17886
 10
0.736318
 20
2.179722
 10
0.732747
 20
2.181005
 10
0.725479
 20
2.184685
 10
0.718239
 20
2.189615
 10
0.711264
 20
2.195507
 10
0.701533
 20
2.205213
 10
0.692597
 20
2.215066
 10
0.684361
 20
2.224466
 10
0.676726
 20
2.232814
 10
0.669598
 20
2.239511
 10
0.666194
 20
2.242053
 10
0.66288
 20
2.243958
 10
0.659644
 20
2.245149
 10
0.656475
 20
2.245554
 10
0.65336
 20
2.245096
 10
0.650287
 20
2.243701
 10
0.648604
 20
2.242295
 10
0.647358
 20
2.240453
 10
0.646528
 20
2.238204
 10
0.646093
 20
2.235579
 10
0.646034
 20
2.232607
 10
0.646329
 20
2.229316
 10
0.647902
 20
2.221898
 10
0.650649
 20
2.213559
 10
0.654407
 20
2.204535
 10
0.659012
 20
2.19506
 10
0.664302
 20
2.185369
 10
0.670111
 20
2.175698
 10
0.676278
 20
2.166279
 10
0.68264
 20
2.15735
 10
0.689031
 20
2.149143
 10
0.695291
 20
2.141895
 10
0.701254
 20
2.135839
 10
0.706758
 20
2.131211
 10
0.711639
 20
2.128245
 10
0.714537
 20
2.12711
 10
0.717621
 20
2.126246
 10
0.724276
 20
2.125295
 10
0.731474
 20
2.125308
 10
0.739082
 20
2.126205
 10
0.746968
 20
2.127904
 10
0.754999
 20
2.130321
 10
0.763044
 20
2.133375
 10
0.77097
 20
2.136985
 10
0.778646
 20
2.141067
 10
0.785939
 20
2.14554
 10
0.792717
 20
2.150321
 10
0.798849
 20
2.155329
 10
0.804202
 20
2.160482
 10
0.808643
 20
2.165696
 10
0.812042
 20
2.170892
 10
0.814265
 20
2.175985
 10
0.815171
 20
2.180754
 10
0.815329
 20
2.186704
 10
0.814808
 20
2.193632
 10
0.813681
 20
2.20133
 10
0.812017
 20
2.209595
 10
0.80989
 20
2.218219
 10
0.807368
 20
2.226997
 10
0.804523
 20
2.235724
 10
0.801427
 20
2.244195
 10
0.798151
 20
2.252203
 10
0.794764
 20
2.259543
 10
0.791339
 20
2.266009
 10
0.787946
 20
2.271396
 10
0.784656
 20
2.275499
 10
0.781541
 20
2.278111
 10
0.780071
 20
2.278794
 10
0.778671
 20
2.279028
 10
0.776461
 20
2.279831
 10
0.772684
 20
2.282131
 10
0.761252
 20
2.290582
 10
0.746017
 20
2.303088
 10
0.728622
 20
2.31836
 10
0.717664
 20
2.328447
 10
0.707848
 20
2.337991
 10
0.699391
 20
2.347022
 10
0.692513
 20
2.355568
 10
0.689735
 20
2.359667
 10
0.687433
 20
2.363656
 10
0.685634
 20
2.367538
 10
0.684368
 20
2.371316
 10
0.683659
 20
2.374994
 10
0.683537
 20
2.378576
 10
0.684028
 20
2.382064
 10
0.68516
 20
2.385463
 10
0.68781
 20
2.392259
 10
0.689877
 20
2.398034
 10
0.692096
 20
2.402825
 10
0.693491
 20
2.404862
 10
0.695199
 20
2.406666
 10
0.697311
 20
2.408241
 10
0.69992
 20
2.409592
 10
0.703117
 20
2.410723
 10
0.706993
 20
2.411639
 10
0.711641
 20
2.412343
 10
0.717152
 20
2.412841
 10
0.73113
 20
2.413234
 10
0.74242
 20
2.413422
 10
0.752992
 20
2.413995
 10
0.762867
 20
2.414964
 10
0.772068
 20
2.416341
 10
0.780619
 20
2.418138
 10
0.788542
 20
2.420366
 10
0.795859
 20
2.423039
 10
0.802595
 20
2.426167
 10
0.80877
 20
2.429763
 10
0.814409
 20
2.433838
 10
0.819534
 20
2.438404
 10
0.824168
 20
2.443473
 10
0.828334
 20
2.449057
 10
0.832053
 20
2.455168
 10
0.83535
 20
2.461818
 10
0.838247
 20
2.469018
 10
0.843969
 20
2.486385
 10
0.846081
 20
2.494259
 10
0.847686
 20
2.501659
 10
0.848777
 20
2.508637
 10
0.849348
 20
2.515241
 10
0.849391
 20
2.521522
 10
0.848902
 20
2.52753
 10
0.847873
 20
2.533314
 10
0.846298
 20
2.538924
 10
0.844171
 20
2.544412
 10
0.841484
 20
2.549825
 10
0.838232
 20
2.555215
 10
0.834409
 20
2.560631
 10
0.830007
 20
2.566123
 10
0.825021
 20
2.571742
 10
0.817206
 20
2.579504
 10
0.809251
 20
2.586065
 10
0.801138
 20
2.591424
 10
0.79285
 20
2.595577
 10
0.788636
 20
2.597201
 10
0.784371
 20
2.598522
 10
0.780055
 20
2.599541
 10
0.775684
 20
2.600258
 10
0.771258
 20
2.600671
 10
0.766773
 20
2.60078
 10
0.75762
 20
2.600088
 10
0.748209
 20
2.598179
 10
0.738523
 20
2.59505
 10
0.728546
 20
2.5907
 10
0.71826
 20
2.585125
 10
0.707649
 20
2.578324
 10
0.696696
 20
2.570294
 10
0.685384
 20
2.561033
 10
0.673698
 20
2.550538
 10
0.666396
 20
2.543432
 10
0.660089
 20
2.536772
 10
0.650122
 20
2.524879
 10
0.643115
 20
2.515032
 10
0.638385
 20
2.507404
 10
0.635251
 20
2.50217
 10
0.634069
 20
2.500504
 10
0.63303
 20
2.499501
 10
0.63205
 20
2.499183
 10
0.631042
 20
2.499571
 10
0.629921
 20
2.500688
 10
0.628603
 20
2.502554
 10
0.625705
 20
2.507407
 10
0.623108
 20
2.512461
 10
0.62081
 20
2.517695
 10
0.618804
 20
2.523092
 10
0.617088
 20
2.52863
 10
0.615656
 20
2.534291
 10
0.613628
 20
2.545901
 10
0.612686
 20
2.557764
 10
0.612793
 20
2.569723
 10
0.613916
 20
2.581621
 10
0.616019
 20
2.5933
 10
0.619066
 20
2.604604
 10
0.623023
 20
2.615375
 10
0.627854
 20
2.625455
 10
0.633525
 20
2.634688
 10
0.636664
 20
2.638938
 10
0.64
 20
2.642916
 10
0.643528
 20
2.646605
 10
0.647244
 20
2.649983
 10
0.651144
 20
2.653031
 10
0.655222
 20
2.655729
 10
0.659475
 20
2.658059
 10
0.663899
 20
2.659999
 10
0.670885
 20
2.662112
 10
0.680647
 20
2.664208
 10
0.692738
 20
2.66623
 10
0.706714
 20
2.668126
 10
0.722129
 20
2.669839
 10
0.738537
 20
2.671316
 10
0.755492
 20
2.672502
 10
0.772549
 20
2.673341
 10
0.799711
 20
2.674308
 10
0.820254
 20
2.674593
 10
0.828383
 20
2.674358
 10
0.835265
 20
2.673807
 10
0.841037
 20
2.672892
 10
0.845834
 20
2.671564
 10
0.849792
 20
2.669775
 10
0.853049
 20
2.667475
 10
0.855739
 20
2.664618
 10
0.857999
 20
2.661154
 10
0.859965
 20
2.657035
 10
0.861774
 20
2.652212
 10
0.865461
 20
2.640261
 10
0.867917
 20
2.633098
 10
0.871611
 20
2.62391
 10
0.882086
 20
2.600654
 10
0.895635
 20
2.572875
 10
0.911006
 20
2.542955
 10
0.926947
 20
2.513277
 10
0.942207
 20
2.486223
 10
0.955534
 20
2.464174
 10
0.961082
 20
2.455772
 10
0.965677
 20
2.449514
 10
1.027331
 20
2.371646
 10
1.071232
 20
2.315395
 10
1.07296
 20
2.31235
 10
1.074315
 20
2.308485
 10
1.075286
 20
2.303959
 10
1.075861
 20
2.298928
 10
1.07603
 20
2.293552
 10
1.075781
 20
2.287988
 10
1.075102
 20
2.282393
 10
1.073983
 20
2.276926
 10
1.071673
 20
2.269259
 10
1.070302
 20
2.266011
 10
1.06871
 20
2.263114
 10
1.066842
 20
2.260539
 10
1.06464
 20
2.258258
 10
1.062049
 20
2.256241
 10
1.059011
 20
2.254461
 10
1.05547
 20
2.252887
 10
1.051369
 20
2.251491
 10
1.041262
 20
2.249118
 10
1.028237
 20
2.247111
 10
1.011839
 20
2.245239
 10
1.000671
 20
2.243839
 10
0.989422
 20
2.241949
 10
0.978153
 20
2.239598
 10
0.966931
 20
2.236812
 10
0.955817
 20
2.233619
 10
0.944877
 20
2.230046
 10
0.934173
 20
2.22612
 10
0.92377
 20
2.22187
 10
0.913731
 20
2.217323
 10
0.90412
 20
2.212506
 10
0.895002
 20
2.207446
 10
0.886439
 20
2.202172
 10
0.878495
 20
2.196709
 10
0.871234
 20
2.191087
 10
0.864721
 20
2.185332
 10
0.859018
 20
2.179472
 10
0.853728
 20
2.173115
 10
0.848165
 20
2.16562
 10
0.842401
 20
2.157134
 10
0.836508
 20
2.147803
 10
0.824623
 20
2.127192
 10
0.813089
 20
2.10496
 10
0.802484
 20
2.08228
 10
0.793386
 20
2.060324
 10
0.789582
 20
2.049985
 10
0.786373
 20
2.040265
 10
0.783828
 20
2.031314
 10
0.782022
 20
2.023276
 10
0.781008
 20
2.016863
 10
0.780313
 20
2.010178
 10
0.779928
 20
2.003242
 10
0.779845
 20
1.996078
 10
0.780554
 20
1.981153
 10
0.782373
 20
1.96558
 10
0.785238
 20
1.949537
 10
0.789083
 20
1.933201
 10
0.793843
 20
1.916748
 10
0.799453
 20
1.900357
 10
0.805846
 20
1.884204
 10
0.812959
 20
1.868467
 10
0.820724
 20
1.853323
 10
0.829078
 20
1.83895
 10
0.837954
 20
1.825523
 10
0.847287
 20
1.813222
 10
0.852105
 20
1.807548
 10
0.857012
 20
1.802222
 10
0.862001
 20
1.797266
 10
0.867064
 20
1.792702
 10
0.871762
 20
1.789009
 10
0.877178
 20
1.785328
 10
0.883225
 20
1.781691
 10
0.889815
 20
1.778127
 10
0.904274
 20
1.771347
 10
0.919857
 20
1.765239
 10
0.935864
 20
1.760052
 10
0.951594
 20
1.756038
 10
0.959138
 20
1.754549
 10
0.966349
 20
1.753446
 10
0.973142
 20
1.752761
 10
0.979429
 20
1.752526
 10
0.986335
 20
1.752121
 10
0.989244
 20
1.75151
 10
0.991828
 20
1.750534
 10
0.994119
 20
1.749124
 10
0.996147
 20
1.747212
 10
0.99794
 20
1.744727
 10
0.99953
 20
1.7416
 10
1.000946
 20
1.737763
 10
1.002217
 20
1.733145
 10
1.004447
 20
1.721291
 10
1.00646
 20
1.705485
 10
1.008494
 20
1.685172
 10
1.010041
 20
1.670423
 10
1.011868
 20
1.656546
 10
1.014012
 20
1.643455
 10
1.016512
 20
1.631064
 10
1.019405
 20
1.619286
 10
1.02273
 20
1.608037
 10
1.026525
 20
1.597229
 10
1.030828
 20
1.586777
 10
1.035678
 20
1.576595
 10
1.041111
 20
1.566597
 10
1.047167
 20
1.556696
 10
1.053884
 20
1.546808
 10
1.0613
 20
1.536845
 10
1.069452
 20
1.526722
 10
1.07838
 20
1.516353
 10
1.088121
 20
1.505652
 10
1.098435
 20
1.494163
 10
1.107091
 20
1.483549
 10
1.114177
 20
1.473644
 10
1.119781
 20
1.464287
 10
1.123991
 20
1.455313
 10
1.126894
 20
1.446557
 10
1.128578
 20
1.437858
 10
1.12913
 20
1.42905
 10
1.129369
 20
1.419663
 10
1.130042
 20
1.410036
 10
1.131134
 20
1.400216
 10
1.132632
 20
1.390251
 10
1.13452
 20
1.380187
 10
1.136784
 20
1.370071
 10
1.139408
 20
1.359951
 10
1.142379
 20
1.349873
 10
1.145682
 20
1.339884
 10
1.149301
 20
1.330032
 10
1.153222
 20
1.320364
 10
1.157431
 20
1.310926
 10
1.161912
 20
1.301766
 10
1.166652
 20
1.29293
 10
1.171635
 20
1.284467
 10
1.176846
 20
1.276421
 10
1.184102
 20
1.266479
 10
1.191836
 20
1.257315
 10
1.200095
 20
1.248911
 10
1.208925
 20
1.241249
 10
1.218374
 20
1.234311
 10
1.22849
 20
1.22808
 10
1.239318
 20
1.222538
 10
1.250908
 20
1.217666
 10
1.263304
 20
1.213448
 10
1.276556
 20
1.209864
 10
1.29071
 20
1.206897
 10
1.305812
 20
1.20453
 10
1.321911
 20
1.202744
 10
1.339054
 20
1.201522
 10
1.357287
 20
1.200845
 10
1.376658
 20
1.200696
 10
1.408188
 20
1.20124
 10
1.421826
 20
1.201863
 10
1.434278
 20
1.202797
 10
1.445717
 20
1.204097
 10
1.456316
 20
1.205821
 10
1.466248
 20
1.208026
 10
1.475688
 20
1.210767
 10
1.484809
 20
1.214103
 10
1.493783
 20
1.218089
 10
1.502786
 20
1.222782
 10
1.511989
 20
1.22824
 10
1.521567
 20
1.23452
 10
1.531692
 20
1.241677
 10
1.554281
 20
1.258851
 10
1.566926
 20
1.26866
 10
1.576906
 20
1.275774
 10
1.58118
 20
1.278353
 10
1.585128
 20
1.280298
 10
1.588862
 20
1.28162
 10
1.592497
 20
1.282334
 10
1.596145
 20
1.282453
 10
1.599919
 20
1.281988
 10
1.603932
 20
1.280953
 10
1.608298
 20
1.279361
 10
1.618542
 20
1.274558
 10
1.631555
 20
1.267681
 10
1.640211
 20
1.263461
 10
1.649797
 20
1.259524
 10
1.659995
 20
1.255956
 10
1.670487
 20
1.252843
 10
1.680956
 20
1.250273
 10
1.691084
 20
1.24833
 10
1.700553
 20
1.247101
 10
1.709045
 20
1.246672
 10
1.719678
 20
1.246261
 10
1.729436
 20
1.244933
 10
1.734083
 20
1.243879
 10
1.738624
 20
1.242541
 10
1.743099
 20
1.240901
 10
1.747544
 20
1.238941
 10
1.756501
 20
1.233987
 10
1.765798
 20
1.227535
 10
1.775738
 20
1.219438
 10
1.786625
 20
1.209551
 10
1.794568
 20
1.202252
 10
1.802544
 20
1.195334
 10
1.810554
 20
1.188796
 10
1.818598
 20
1.182638
 10
1.826676
 20
1.17686
 10
1.834789
 20
1.171462
 10
1.842937
 20
1.166444
 10
1.85112
 20
1.161806
 10
1.859339
 20
1.157549
 10
1.867593
 20
1.153671
 10
1.875883
 20
1.150173
 10
1.884209
 20
1.147054
 10
1.892572
 20
1.144316
 10
1.900972
 20
1.141957
 10
1.909409
 20
1.139978
 10
1.917883
 20
1.138379
 10
1.926395
 20
1.137159
 10
1.934944
 20
1.136318
 10
1.943532
 20
1.135858
 10
1.952159
 20
1.135776
 10
1.960824
 20
1.136074
 10
1.969528
 20
1.136752
 10
1.978271
 20
1.137809
 10
1.987054
 20
1.139245
 10
1.995877
 20
1.14106
 10
2.00474
 20
1.143254
 10
2.013643
 20
1.145828
 10
2.022587
 20
1.14878
 10
2.031572
 20
1.152112
 10
2.040598
 20
1.155823
 10
2.049666
 20
1.159912
 10
2.058775
 20
1.164381
 10
2.067902
 20
1.168704
 10
2.077249
 20
1.17252
 10
2.086552
 20
1.17576
 10
2.095548
 20
1.178356
 10
2.103971
 20
1.180241
 10
2.111559
 20
1.181346
 10
2.118047
 20
1.181604
 10
2.12317
 20
1.180946
 10
2.128746
 20
1.180149
 10
2.136497
 20
1.180015
 10
2.146126
 20
1.180487
 10
2.157333
 20
1.181508
 10
2.183289
 20
1.184971
 10
2.211976
 20
1.189946
 10
2.241008
 20
1.19598
 10
2.267994
 20
1.202616
 10
2.279973
 20
1.206017
 10
2.290546
 20
1.209398
 10
2.299414
 20
1.212702
 10
2.306277
 20
1.215872
 10
2.312096
 20
1.218437
 10
2.314911
 20
1.219198
 10
2.317715
 20
1.219586
 10
2.320548
 20
1.219584
 10
2.323449
 20
1.219173
 10
2.326457
 20
1.218334
 10
2.329612
 20
1.21705
 10
2.332952
 20
1.215301
 10
2.336518
 20
1.21307
 10
2.344482
 20
1.207088
 10
2.353819
 20
1.198955
 10
2.364843
 20
1.188526
 10
2.374841
 20
1.179071
 10
2.384482
 20
1.1705
 10
2.393849
 20
1.162781
 10
2.403025
 20
1.155884
 10
2.412089
 20
1.149776
 10
2.421126
 20
1.144426
 10
2.430215
 20
1.139803
 10
2.43944
 20
1.135874
 10
2.448881
 20
1.13261
 10
2.458621
 20
1.129977
 10
2.468742
 20
1.127944
 10
2.479324
 20
1.12648
 10
2.490451
 20
1.125554
 10
2.502204
 20
1.125134
 10
2.514665
 20
1.125187
 10
2.527915
 20
1.125684
  0
LWPOLYLINE
  5
55
330
1F
100
AcDbEntity
  8
0
100
AcDbPolyline
 90
       51
 70
   128
 43
0.0
 10
3.23451
 20
1.322592
 10
3.246412
 20
1.324189
 10
3.258107
 20
1.325764
 10
3.26846
 20
1.327668
 10
3.278712
 20
1.329954
 10
3.288136
 20
1.332314
 10
3.292735
 20
1.333666
 10
3.298037
 20
1.33496
 10
3.305458
 20
1.336896
 10
3.312938
 20
1.339151
 10
3.315285
 20
1.340124
 10
3.316246
 20
1.340421
 10
3.317199
 20
1.340315
 10
3.34562
 20
1.331901
 10
3.376404
 20
1.323335
 10
3.407161
 20
1.315277
 10
3.435498
 20
1.308384
 10
3.531445
 20
1.286033
 10
3.53691
 20
1.284434
 10
3.54202
 20
1.282351
 10
3.546752
 20
1.27983
 10
3.551082
 20
1.276914
 10
3.554986
 20
1.273648
 10
3.558441
 20
1.270076
 10
3.561421
 20
1.266244
 10
3.563904
 20
1.262195
 10
3.565865
 20
1.257975
 10
3.56728
 20
1.253627
 10
3.568126
 20
1.249197
 10
3.568378
 20
1.24473
 10
3.568012
 20
1.240268
 10
3.567005
 20
1.235858
 10
3.565333
 20
1.231544
 10
3.562971
 20
1.227371
 10
3.55272
 20
1.211932
 10
2.99273
 20
1.21015
 10
2.92106
 20
1.211027
 10
2.944053
 20
1.215034
 10
2.962033
 20
1.219259
 10
2.968974
 20
1.221347
 10
2.97603
 20
1.223851
 10
2.991799
 20
1.230234
 10
2.999869
 20
1.233914
 10
3.008346
 20
1.238261
 10
3.02453
 20
1.247592
 10
3.493125
 20
1.24769
 10
3.397081
 20
1.27312
 10
3.358694
 20
1.283788
 10
3.315068
 20
1.296713
 10
3.271806
 20
1.31021
 10
3.23451
 20
1.322592
  0
LWPOLYLINE
  5
56
330
1F
100
AcDbEntity
  8
0
100
AcDbPolyline
 90
      276
 70
   128
 43
0.0
 10
2.813083
 20
2.093689
 10
2.813116
 20
2.088428
 10
2.822643
 20
2.083464
 10
2.831519
 20
2.080262
 10
2.839232
 20
2.078661
 10
2.845926
 20
2.078225
 10
2.852474
 20
2.078953
 10
2.85844
 20
2.080844
 10
2.858277
 20
2.08624
 10
2.859804
 20
2.407325
 10
2.835829
 20
2.415683
 10
2.742499
 20
2.457796
 10
2.710474
 20
2.474044
 10
2.694774
 20
2.482511
 10
2.679283
 20
2.491207
 10
2.664
 20
2.500133
 10
2.648926
 20
2.509289
 10
2.634059
 20
2.518675
 10
2.619399
 20
2.528291
 10
2.604948
 20
2.538138
 10
2.590703
 20
2.548216
 10
2.576666
 20
2.558526
 10
2.562836
 20
2.569067
 10
2.549212
 20
2.579841
 10
2.535795
 20
2.590846
 10
2.522584
 20
2.602085
 10
2.50958
 20
2.613556
 10
2.496781
 20
2.62526
 10
2.484188
 20
2.637198
 10
2.471801
 20
2.649369
 10
2.459619
 20
2.661775
 10
2.447643
 20
2.674415
 10
2.435871
 20
2.68729
 10
2.424305
 20
2.7004
 10
2.412943
 20
2.713745
 10
2.401785
 20
2.727326
 10
2.390832
 20
2.741143
 10
2.380082
 20
2.755196
 10
2.369537
 20
2.769486
 10
2.359195
 20
2.784012
 10
2.349057
 20
2.798776
 10
2.329391
 20
2.829016
 10
2.310536
 20
2.860208
 10
2.292491
 20
2.892354
 10
2.275256
 20
2.925458
 10
2.258827
 20
2.959522
 10
2.243204
 20
2.994547
 10
2.228385
 20
3.030537
 10
2.214369
 20
3.067493
 10
2.201153
 20
3.105419
 10
2.188738
 20
3.144316
 10
2.17712
 20
3.184187
 10
2.166299
 20
3.225035
 10
2.156273
 20
3.266862
 10
2.147041
 20
3.30967
 10
2.1386
 20
3.353462
 10
2.13095
 20
3.39824
 10
2.124089
 20
3.444007
 10
2.110662
 20
3.540051
 10
2.110423
 20
3.939596
 10
2.120146
 20
4.024116
 10
2.125121
 20
4.064434
 10
2.131479
 20
4.111731
 10
2.138402
 20
4.160115
 10
2.145073
 20
4.203694
 10
2.160277
 20
4.298754
 10
2.168617
 20
4.312249
 10
3.703202
 20
4.312249
 10
3.707685
 20
4.291119
 10
3.727103
 20
4.170103
 10
3.733538
 20
4.124347
 10
3.740018
 20
4.073602
 10
3.745789
 20
4.024046
 10
3.750097
 20
3.981856
 10
3.758156
 20
3.893495
 10
3.758182
 20
3.742559
 10
3.757998
 20
3.703667
 10
3.757423
 20
3.666216
 10
3.756441
 20
3.63007
 10
3.755038
 20
3.595096
 10
3.753198
 20
3.561157
 10
3.750907
 20
3.528121
 10
3.74815
 20
3.495851
 10
3.744912
 20
3.464214
 10
3.741178
 20
3.433076
 10
3.736933
 20
3.402301
 10
3.732162
 20
3.371755
 10
3.726849
 20
3.341303
 10
3.720981
 20
3.310811
 10
3.714542
 20
3.280145
 10
3.707518
 20
3.249169
 10
3.699892
 20
3.21775
 10
3.692375
 20
3.188798
 10
3.684442
 20
3.160349
 10
3.676089
 20
3.1324
 10
3.667315
 20
3.104946
 10
3.658117
 20
3.077984
 10
3.648493
 20
3.05151
 10
3.63844
 20
3.02552
 10
3.627956
 20
3.000012
 10
3.617039
 20
2.97498
 10
3.605685
 20
2.950422
 10
3.593893
 20
2.926334
 10
3.581661
 20
2.902713
 10
3.568985
 20
2.879554
 10
3.555864
 20
2.856853
 10
3.542295
 20
2.834608
 10
3.528275
 20
2.812815
 10
3.513802
 20
2.79147
 10
3.498875
 20
2.770569
 10
3.483489
 20
2.750108
 10
3.467644
 20
2.730085
 10
3.451336
 20
2.710495
 10
3.434563
 20
2.691335
 10
3.417323
 20
2.6726
 10
3.399613
 20
2.654288
 10
3.381431
 20
2.636395
 10
3.362774
 20
2.618917
 10
3.343641
 20
2.60185
 10
3.324028
 20
2.585191
 10
3.303933
 20
2.568936
 10
3.283354
 20
2.553082
 10
3.262288
 20
2.537624
 10
3.240733
 20
2.52256
 10
3.203481
 20
2.497151
 10
3.012902
 20
2.405987
 10
3.01293
 20
2.120595
 10
3.013186
 20
2.108635
 10
3.029102
 20
2.106816
 10
3.04111
 20
2.105031
 10
3.051839
 20
2.10295
 10
3.051466
 20
2.118808
 10
3.05132
 20
2.380588
 10
3.080134
 20
2.390691
 10
3.090486
 20
2.394615
 10
3.102236
 20
2.399593
 10
3.115206
 20
2.405524
 10
3.129217
 20
2.412306
 10
3.159649
 20
2.428019
 10
3.192105
 20
2.445921
 10
3.225156
 20
2.465202
 10
3.257375
 20
2.485052
 10
3.287334
 20
2.504659
 10
3.301019
 20
2.514118
 10
3.313604
 20
2.523214
 10
3.330635
 20
2.536118
 10
3.347363
 20
2.549354
 10
3.36379
 20
2.562921
 10
3.379915
 20
2.576822
 10
3.39574
 20
2.591056
 10
3.411265
 20
2.605626
 10
3.426492
 20
2.620532
 10
3.441421
 20
2.635776
 10
3.456053
 20
2.651358
 10
3.470389
 20
2.667281
 10
3.484429
 20
2.683544
 10
3.498175
 20
2.70015
 10
3.511626
 20
2.717099
 10
3.524785
 20
2.734393
 10
3.537651
 20
2.752033
 10
3.550225
 20
2.770019
 10
3.562509
 20
2.788354
 10
3.574503
 20
2.807037
 10
3.586208
 20
2.826071
 10
3.597625
 20
2.845457
 10
3.608754
 20
2.865196
 10
3.619596
 20
2.885288
 10
3.630153
 20
2.905735
 10
3.640424
 20
2.926539
 10
3.650411
 20
2.9477
 10
3.660114
 20
2.969219
 10
3.669534
 20
2.991098
 10
3.678673
 20
3.013338
 10
3.68753
 20
3.03594
 10
3.696107
 20
3.058905
 10
3.704405
 20
3.082235
 10
3.712424
 20
3.10593
 10
3.718748
 20
3.125678
 10
3.724857
 20
3.145927
 10
3.730748
 20
3.166657
 10
3.736419
 20
3.187848
 10
3.741868
 20
3.20948
 10
3.747092
 20
3.231532
 10
3.75209
 20
3.253985
 10
3.756859
 20
3.276818
 10
3.765703
 20
3.323544
 10
3.773604
 20
3.371549
 10
3.780547
 20
3.42067
 10
3.786514
 20
3.470747
 10
3.791487
 20
3.521618
 10
3.795448
 20
3.573122
 10
3.798381
 20
3.625097
 10
3.800267
 20
3.677382
 10
3.801089
 20
3.729814
 10
3.80083
 20
3.782234
 10
3.799473
 20
3.834479
 10
3.796999
 20
3.886388
 10
3.78861
 20
4.02911
 10
3.776819
 20
4.118815
 10
3.771206
 20
4.159103
 10
3.764642
 20
4.202483
 10
3.757942
 20
4.243744
 10
3.751924
 20
4.277673
 10
3.738821
 20
4.346825
 10
2.130842
 20
4.350738
 10
2.122522
 20
4.314205
 10
2.115432
 20
4.281449
 10
2.108837
 20
4.247625
 10
2.10274
 20
4.212768
 10
2.097143
 20
4.176916
 10
2.09205
 20
4.140104
 10
2.087464
 20
4.102368
 10
2.083387
 20
4.063746
 10
2.079824
 20
4.024273
 10
2.076776
 20
3.983984
 10
2.074247
 20
3.942918
 10
2.072239
 20
3.901109
 10
2.070757
 20
3.858594
 10
2.069802
 20
3.815409
 10
2.069377
 20
3.77159
 10
2.069487
 20
3.727174
 10
2.070133
 20
3.682197
 10
2.074099
 20
3.486266
 10
2.08683
 20
3.405589
 10
2.092697
 20
3.369778
 10
2.098808
 20
3.335186
 10
2.105187
 20
3.301738
 10
2.111854
 20
3.26936
 10
2.11883
 20
3.237976
 10
2.126139
 20
3.207512
 10
2.1338
 20
3.177892
 10
2.141836
 20
3.149043
 10
2.150269
 20
3.120889
 10
2.159119
 20
3.093355
 10
2.168409
 20
3.066367
 10
2.17816
 20
3.039851
 10
2.188394
 20
3.01373
 10
2.199133
 20
2.987931
 10
2.210397
 20
2.962378
 10
2.222209
 20
2.936997
 10
2.260792
 20
2.856214
 10
2.285004
 20
2.817796
 10
2.296313
 20
2.800226
 10
2.307957
 20
2.782868
 10
2.319927
 20
2.76573
 10
2.332214
 20
2.748819
 10
2.344808
 20
2.732144
 10
2.357702
 20
2.715712
 10
2.370887
 20
2.699531
 10
2.384353
 20
2.683608
 10
2.398091
 20
2.667952
 10
2.412093
 20
2.652569
 10
2.426351
 20
2.637467
 10
2.440854
 20
2.622654
 10
2.455595
 20
2.608138
 10
2.470563
 20
2.593927
 10
2.485752
 20
2.580028
 10
2.501151
 20
2.566448
 10
2.516752
 20
2.553196
 10
2.532545
 20
2.540279
 10
2.548523
 20
2.527704
 10
2.564676
 20
2.51548
 10
2.580995
 20
2.503615
 10
2.597472
 20
2.492115
 10
2.614097
 20
2.480988
 10
2.630862
 20
2.470242
 10
2.647758
 20
2.459886
 10
2.664776
 20
2.449925
 10
2.681907
 20
2.440369
 10
2.699142
 20
2.431224
 10
2.716473
 20
2.422499
 10
2.73389
 20
2.414202
 10
2.751385
 20
2.406338
 10
2.768949
 20
2.398918
 10
2.81313
 20
2.380847
 10
2.813083
 20
2.093689
  0
ENDSEC
  0
SECTION
  2
OBJECTS
  0
DICTIONARY
  5
C
330
0
100
AcDbDictionary
281
     1
  3
ACAD_GROUP
350
D
  3
ACAD_LAYOUT
350
1A
  3
ACAD_MLINESTYLE
350
17
  3
ACAD_PLOTSETTINGS
350
19
  3
ACAD_PLOTSTYLENAME
350
E
  0
DICTIONARY
  5
D
102
{ACAD_REACTORS
330
C
102
}
330
C
100
AcDbDictionary
281
     1
  0
DICTIONARY
  5
1A
102
{ACAD_REACTORS
330
C
102
}
330
C
100
AcDbDictionary
281
     1
  3
Layout1
350
1E
  3
Layout2
350
26
  3
Model
350
22
  0
DICTIONARY
  5
17
102
{ACAD_REACTORS
330
C
102
}
330
C
100
AcDbDictionary
281
     1
  3
Standard
350
18
  0
DICTIONARY
  5
19
102
{ACAD_REACTORS
330
C
102
}
330
C
100
AcDbDictionary
281
     1
  0
ACDBDICTIONARYWDFLT
  5
E
102
{ACAD_REACTORS
330
C
102
}
330
C
100
AcDbDictionary
281
     1
  3
Normal
350
F
100
AcDbDictionaryWithDefault
340
F
  0
LAYOUT
  5
1E
102
{ACAD_REACTORS
330
1A
102
}
330
1A
100
AcDbPlotSettings
  1

  2

  4

  6

 40
0.0
 41
0.0
 42
0.0
 43
0.0
 44
0.0
 45
0.0
 46
0.0
 47
0.0
 48
0.0
 49
0.0
140
0.0
141
0.0
142
1.0
143
1.0
 70
   688
 72
     0
 73
     0
 74
     5
  7

 75
    16
147
1.0
148
0.0
149
0.0
100
AcDbLayout
  1
Layout1
 70
     1
 71
     1
 10
0.0
 20
0.0
 11
420.0
 21
297.0
 12
0.0
 22
0.0
 32
0.0
 14
1.000000E+20
 24
1.000000E+20
 34
1.000000E+20
 15
-1.000000E+20
 25
-1.000000E+20
 35
-1.000000E+20
146
0.0
 13
0.0
 23
0.0
 33
0.0
 16
1.0
 26
0.0
 36
0.0
 17
0.0
 27
1.0
 37
0.0
 76
     0
330
1B
  0
LAYOUT
  5
26
102
{ACAD_REACTORS
330
1A
102
}
330
1A
100
AcDbPlotSettings
  1

  2

  4

  6

 40
0.0
 41
0.0
 42
0.0
 43
0.0
 44
0.0
 45
0.0
 46
0.0
 47
0.0
 48
0.0
 49
0.0
140
0.0
141
0.0
142
1.0
143
1.0
 70
   688
 72
     0
 73
     0
 74
     5
  7

 75
    16
147
1.0
148
0.0
149
0.0
100
AcDbLayout
  1
Layout2
 70
     1
 71
     2
 10
0.0
 20
0.0
 11
0.0
 21
0.0
 12
0.0
 22
0.0
 32
0.0
 14
0.0
 24
0.0
 34
0.0
 15
0.0
 25
0.0
 35
0.0
146
0.0
 13
0.0
 23
0.0
 33
0.0
 16
1.0
 26
0.0
 36
0.0
 17
0.0
 27
1.0
 37
0.0
 76
     0
330
23
  0
LAYOUT
  5
22
102
{ACAD_REACTORS
330
1A
102
}
330
1A
100
AcDbPlotSettings
  1

  2

  4

  6

 40
0.0
 41
0.0
 42
0.0
 43
0.0
 44
0.0
 45
0.0
 46
0.0
 47
0.0
 48
0.0
 49
0.0
140
0.0
141
0.0
142
1.0
143
1.0
 70
  1712
 72
     0
 73
     0
 74
     0
  7

 75
     0
147
1.0
148
0.0
149
0.0
100
AcDbLayout
  1
Model
 70
     1
 71
     0
 10
0.0
 20
0.0
 11
0.0
 21
0.0
 12
0.0
 22
0.0
 32
0.0
 14
0.0
 24
0.0
 34
0.0
 15
0.0
 25
0.0
 35
0.0
146
0.0
 13
0.0
 23
0.0
 33
0.0
 16
1.0
 26
0.0
 36
0.0
 17
0.0
 27
1.0
 37
0.0
 76
     0
330
1F
  0
MLINESTYLE
  5
18
102
{ACAD_REACTORS
330
17
102
}
330
17
100
AcDbMlineStyle
  2
Standard
 70
     0
  3

 62
   256
 51
90.0
 52
90.0
 71
     2
 49
1.0
 62
   256
  6
BYLAYER
 49
-1.0
 62
   256
  6
BYLAYER
  0
ACDBPLACEHOLDER
  5
F
102
{ACAD_REACTORS
330
E
102
}
330
E
  0
ENDSEC
  0
EOF
