  0
SECTION
  2
HEADER
  9
$ACADVER
  1
AC1009
  9
$EXTMIN
 10
0.42799273
 20
0.41370727
 30
0.0
  9
$EXTMAX
 10
6.04505196
 20
6.04408222
 30
0.0
  0
ENDSEC
  0
SECTION
  2
TABLES
  0
TABLE
  2
LAYER
 70
6
 0
LAYER
 2
color#ffffffff
 70
0
 62
1
 6
CONTINUOUS
 0
LAYER
 2
color#fffefeff
 70
0
 62
1
 6
CONTINUOUS
 0
LAYER
 2
color#020202ff
 70
0
 62
1
 6
CONTINUOUS
 0
LAYER
 2
color#fcfcfcff
 70
0
 62
1
 6
CONTINUOUS
 0
LAYER
 2
color#fefefeff
 70
0
 62
1
 6
CONTINUOUS
 0
LAYER
 2
color#fff8f8ff
 70
0
 62
1
 6
CONTINUOUS
 0
ENDTAB
 0
ENDSEC
  0
SECTION
  2
ENTITIES
  0
POLYLINE
  8
color#ffffffff
 66
   1
 39
0.000000
 70
    1
  0
VERTEX
  8
0
 10
3.97404859
 20
2.96796483
  0
VERTEX
  8
0
 10
4.03204392
 20
3.00449413
  0
VERTEX
  8
0
 10
4.09704894
 20
3.01759979
  0
VERTEX
  8
0
 10
4.12931592
 20
2.97012371
  0
VERTEX
  8
0
 10
4.14671492
 20
2.91512948
  0
VERTEX
  8
0
 10
4.16627461
 20
2.80000883
  0
VERTEX
  8
0
 10
4.21904460
 20
2.63035416
  0
VERTEX
  8
0
 10
4.24914972
 20
2.54666821
  0
VERTEX
  8
0
 10
4.26619880
 20
2.45948499
  0
VERTEX
  8
0
 10
4.26631702
 20
2.33478294
  0
VERTEX
  8
0
 10
4.25325575
 20
2.21084945
  0
VERTEX
  8
0
 10
4.21705047
 20
2.12429207
  0
VERTEX
  8
0
 10
4.15898649
 20
2.05004225
  0
VERTEX
  8
0
 10
4.05975016
 20
1.97589042
  0
VERTEX
  8
0
 10
3.96204365
 20
1.89990264
  0
VERTEX
  8
0
 10
3.90118230
 20
1.79798382
  0
VERTEX
  8
0
 10
3.86652808
 20
1.68469582
  0
VERTEX
  8
0
 10
3.96244562
 20
1.66324744
  0
VERTEX
  8
0
 10
4.06040791
 20
1.65855088
  0
VERTEX
  8
0
 10
4.25741728
 20
1.66402825
  0
VERTEX
  8
0
 10
4.25779042
 20
1.76521183
  0
VERTEX
  8
0
 10
4.28458711
 20
1.75119215
  0
VERTEX
  8
0
 10
4.30288623
 20
1.76200635
  0
VERTEX
  8
0
 10
4.33605050
 20
1.72375958
  0
VERTEX
  8
0
 10
4.34694003
 20
1.79244069
  0
VERTEX
  8
0
 10
4.37528688
 20
1.77691203
  0
VERTEX
  8
0
 10
4.37141906
 20
1.86390640
  0
VERTEX
  8
0
 10
4.39578456
 20
1.88119862
  0
VERTEX
  8
0
 10
4.39892103
 20
2.13861900
  0
VERTEX
  8
0
 10
4.43531295
 20
2.27665936
  0
VERTEX
  8
0
 10
4.50291843
 20
2.40121924
  0
VERTEX
  8
0
 10
4.52167191
 20
2.43402124
  0
VERTEX
  8
0
 10
4.52448682
 20
2.47061071
  0
VERTEX
  8
0
 10
4.50188962
 20
2.54273784
  0
VERTEX
  8
0
 10
4.62689414
 20
2.39124848
  0
VERTEX
  8
0
 10
4.65419796
 20
2.33271965
  0
VERTEX
  8
0
 10
4.66477555
 20
2.26926118
  0
VERTEX
  8
0
 10
4.65886532
 20
2.13951648
  0
VERTEX
  8
0
 10
4.63071726
 20
2.08390264
  0
VERTEX
  8
0
 10
4.58296375
 20
2.04289056
  0
VERTEX
  8
0
 10
4.53506632
 20
2.00190951
  0
VERTEX
  8
0
 10
4.50648644
 20
1.94638871
  0
VERTEX
  8
0
 10
4.54522398
 20
1.95551465
  0
VERTEX
  8
0
 10
4.45995150
 20
1.77462586
  0
VERTEX
  8
0
 10
4.55543611
 20
1.75687740
  0
VERTEX
  8
0
 10
4.65262327
 20
1.75670404
  0
VERTEX
  8
0
 10
4.57553504
 20
1.68028558
  0
VERTEX
  8
0
 10
4.56054222
 20
1.66775685
  0
VERTEX
  8
0
 10
4.36029149
 20
1.51799805
  0
VERTEX
  8
0
 10
4.14437414
 20
1.39202286
  0
VERTEX
  8
0
 10
4.07412001
 20
1.35675373
  0
VERTEX
  8
0
 10
3.88878705
 20
1.28594211
  0
VERTEX
  8
0
 10
3.69806705
 20
1.23035773
  0
VERTEX
  8
0
 10
3.50309152
 20
1.19464950
  0
VERTEX
  8
0
 10
3.30499196
 20
1.18346635
  0
VERTEX
  8
0
 10
3.02821829
 20
1.18719987
  0
VERTEX
  8
0
 10
2.73105579
 20
1.23935914
  0
VERTEX
  8
0
 10
2.44499489
 20
1.33528505
  0
VERTEX
  8
0
 10
2.17626696
 20
1.47244272
  0
VERTEX
  8
0
 10
1.93110335
 20
1.64829722
  0
VERTEX
  8
0
 10
2.30926434
 20
1.64844938
  0
VERTEX
  8
0
 10
2.31050937
 20
1.75692784
  0
VERTEX
  8
0
 10
2.38161572
 20
1.73943145
  0
VERTEX
  8
0
 10
2.37659556
 20
1.77682190
  0
VERTEX
  8
0
 10
2.43056204
 20
1.75979841
  0
VERTEX
  8
0
 10
2.41269183
 20
1.83946674
  0
VERTEX
  8
0
 10
2.45589560
 20
1.79453044
  0
VERTEX
  8
0
 10
2.44677532
 20
1.89721716
  0
VERTEX
  8
0
 10
2.47338616
 20
1.89362511
  0
VERTEX
  8
0
 10
2.44823951
 20
2.18074804
  0
VERTEX
  8
0
 10
2.45231899
 20
2.24718574
  0
VERTEX
  8
0
 10
2.47202549
 20
2.31067719
  0
VERTEX
  8
0
 10
2.51076103
 20
2.43852524
  0
VERTEX
  8
0
 10
2.54540864
 20
2.62388102
  0
VERTEX
  8
0
 10
2.58556377
 20
2.80819630
  0
VERTEX
  8
0
 10
2.60918924
 20
2.86921279
  0
VERTEX
  8
0
 10
2.64669234
 20
2.92369892
  0
VERTEX
  8
0
 10
2.79692345
 20
2.87733605
  0
VERTEX
  8
0
 10
2.95116799
 20
2.84687572
  0
VERTEX
  8
0
 10
3.26447489
 20
2.81724878
  0
VERTEX
  8
0
 10
3.44821848
 20
2.82017523
  0
VERTEX
  8
0
 10
3.63219829
 20
2.83969935
  0
VERTEX
  8
0
 10
3.80970983
 20
2.88567719
  0
VERTEX
  8
0
 10
3.97404859
 20
2.96796483
  0
SEQEND
  0
POLYLINE
  8
color#ffffffff
 66
   1
 39
0.000000
 70
    1
  0
VERTEX
  8
0
 10
1.37280498
 20
4.08566748
  0
VERTEX
  8
0
 10
1.40611191
 20
4.10095172
  0
VERTEX
  8
0
 10
1.41869210
 20
4.04213550
  0
VERTEX
  8
0
 10
1.42347398
 20
3.63897602
  0
VERTEX
  8
0
 10
1.42993827
 20
3.52702959
  0
VERTEX
  8
0
 10
1.46259956
 20
3.42039322
  0
VERTEX
  8
0
 10
1.56645984
 20
3.36589110
  0
VERTEX
  8
0
 10
1.62316265
 20
3.35351631
  0
VERTEX
  8
0
 10
1.68131255
 20
3.35941685
  0
VERTEX
  8
0
 10
1.73077245
 20
3.38299917
  0
VERTEX
  8
0
 10
1.75705074
 20
3.42938681
  0
VERTEX
  8
0
 10
1.76730364
 20
3.52061072
  0
VERTEX
  8
0
 10
1.79260650
 20
3.60844556
  0
VERTEX
  8
0
 10
1.86952763
 20
3.73715141
  0
VERTEX
  8
0
 10
1.90987009
 20
3.80030060
  0
VERTEX
  8
0
 10
1.93900944
 20
3.86948313
  0
VERTEX
  8
0
 10
2.06597723
 20
3.69691570
  0
VERTEX
  8
0
 10
2.11447721
 20
3.60197244
  0
VERTEX
  8
0
 10
2.14438821
 20
3.49921434
  0
VERTEX
  8
0
 10
2.15744198
 20
3.33533165
  0
VERTEX
  8
0
 10
2.18751607
 20
3.17400783
  0
VERTEX
  8
0
 10
2.03054820
 20
3.12767500
  0
VERTEX
  8
0
 10
1.88270066
 20
3.05974039
  0
VERTEX
  8
0
 10
1.84566052
 20
3.02313532
  0
VERTEX
  8
0
 10
1.82280654
 20
2.97719187
  0
VERTEX
  8
0
 10
1.80851013
 20
2.87427491
  0
VERTEX
  8
0
 10
1.81404348
 20
2.51454804
  0
VERTEX
  8
0
 10
1.83525657
 20
2.43379799
  0
VERTEX
  8
0
 10
1.86854901
 20
2.35725112
  0
VERTEX
  8
0
 10
1.93417107
 20
2.20357669
  0
VERTEX
  8
0
 10
1.94592510
 20
2.23393071
  0
VERTEX
  8
0
 10
2.01005554
 20
2.19732057
  0
VERTEX
  8
0
 10
2.08119305
 20
2.18102667
  0
VERTEX
  8
0
 10
2.22916822
 20
2.17534135
  0
VERTEX
  8
0
 10
2.22538873
 20
2.37065442
  0
VERTEX
  8
0
 10
2.20715503
 20
2.46450632
  0
VERTEX
  8
0
 10
2.15559318
 20
2.54619159
  0
VERTEX
  8
0
 10
2.19546449
 20
2.58573143
  0
VERTEX
  8
0
 10
2.09780366
 20
2.59177740
  0
VERTEX
  8
0
 10
2.13067342
 20
2.60585250
  0
VERTEX
  8
0
 10
2.15571232
 20
2.62989775
  0
VERTEX
  8
0
 10
2.08545875
 20
2.64116356
  0
VERTEX
  8
0
 10
2.09007822
 20
2.68040605
  0
VERTEX
  8
0
 10
2.00699321
 20
2.69096254
  0
VERTEX
  8
0
 10
2.00716759
 20
2.88000705
  0
VERTEX
  8
0
 10
2.33094802
 20
2.89440344
  0
VERTEX
  8
0
 10
2.31628633
 20
2.80646094
  0
VERTEX
  8
0
 10
2.31982811
 20
2.71737590
  0
VERTEX
  8
0
 10
2.32491815
 20
2.62814210
  0
VERTEX
  8
0
 10
2.31490122
 20
2.53975333
  0
VERTEX
  8
0
 10
2.29642408
 20
2.43022220
  0
VERTEX
  8
0
 10
2.28873237
 20
2.31925076
  0
VERTEX
  8
0
 10
2.28257565
 20
2.18506790
  0
VERTEX
  8
0
 10
2.27153813
 20
2.11935572
  0
VERTEX
  8
0
 10
2.24665414
 20
2.05695523
  0
VERTEX
  8
0
 10
2.16616481
 20
1.93991272
  0
VERTEX
  8
0
 10
2.10989751
 20
1.89877227
  0
VERTEX
  8
0
 10
2.04127392
 20
1.88205763
  0
VERTEX
  8
0
 10
1.92257782
 20
1.65505577
  0
VERTEX
  8
0
 10
1.79015570
 20
1.77652685
  0
VERTEX
  8
0
 10
1.66865571
 20
1.90895056
  0
VERTEX
  8
0
 10
1.55907501
 20
2.05137944
  0
VERTEX
  8
0
 10
1.46241081
 20
2.20286602
  0
VERTEX
  8
0
 10
1.37635385
 20
2.36907399
  0
VERTEX
  8
0
 10
1.29434247
 20
2.57709581
  0
VERTEX
  8
0
 10
1.23577923
 20
2.79293886
  0
VERTEX
  8
0
 10
1.20265088
 20
3.01394991
  0
VERTEX
  8
0
 10
1.19694417
 20
3.23747573
  0
VERTEX
  8
0
 10
1.20060704
 20
3.42021326
  0
VERTEX
  8
0
 10
1.22423245
 20
3.60131655
  0
VERTEX
  8
0
 10
1.26577357
 20
3.77934596
  0
VERTEX
  8
0
 10
1.32318359
 20
3.95286182
  0
VERTEX
  8
0
 10
1.37280498
 20
4.08566748
  0
SEQEND
  0
POLYLINE
  8
color#ffffffff
 66
   1
 39
0.000000
 70
    1
  0
VERTEX
  8
0
 10
3.00582889
 20
6.03699292
  0
VERTEX
  8
0
 10
2.63695642
 20
5.98311006
  0
VERTEX
  8
0
 10
2.27910387
 20
5.87847459
  0
VERTEX
  8
0
 10
1.93789842
 20
5.72737129
  0
VERTEX
  8
0
 10
1.61896726
 20
5.53408495
  0
VERTEX
  8
0
 10
1.37762997
 20
5.34365242
  0
VERTEX
  8
0
 10
1.13558203
 20
5.10127484
  0
VERTEX
  8
0
 10
0.98353655
 20
4.90985880
  0
VERTEX
  8
0
 10
0.84529951
 20
4.70860904
  0
VERTEX
  8
0
 10
0.72641332
 20
4.49915971
  0
VERTEX
  8
0
 10
0.62669744
 20
4.27988769
  0
VERTEX
  8
0
 10
0.54637421
 20
4.05273882
  0
VERTEX
  8
0
 10
0.48566595
 20
3.81965899
  0
VERTEX
  8
0
 10
0.45675555
 20
3.67471850
  0
VERTEX
  8
0
 10
0.44066569
 20
3.52819503
  0
VERTEX
  8
0
 10
0.42799273
 20
3.38964590
  0
VERTEX
  8
0
 10
0.42964757
 20
3.24993062
  0
VERTEX
  8
0
 10
0.42876323
 20
3.14117735
  0
VERTEX
  8
0
 10
0.43621372
 20
3.03292945
  0
VERTEX
  8
0
 10
0.44233249
 20
2.89914236
  0
VERTEX
  8
0
 10
0.44474614
 20
2.83247572
  0
VERTEX
  8
0
 10
0.46203621
 20
2.76768956
  0
VERTEX
  8
0
 10
0.54860879
 20
2.40607668
  0
VERTEX
  8
0
 10
0.68269090
 20
2.05939171
  0
VERTEX
  8
0
 10
0.73058584
 20
1.95632304
  0
VERTEX
  8
0
 10
0.78642594
 20
1.85715451
  0
VERTEX
  8
0
 10
0.87395599
 20
1.70967031
  0
VERTEX
  8
0
 10
0.97011482
 20
1.56751433
  0
VERTEX
  8
0
 10
1.08596794
 20
1.41993790
  0
VERTEX
  8
0
 10
1.21168024
 20
1.28102468
  0
VERTEX
  8
0
 10
1.29483258
 20
1.19659151
  0
VERTEX
  8
0
 10
1.38332949
 20
1.11803479
  0
VERTEX
  8
0
 10
1.56598198
 20
0.96958324
  0
VERTEX
  8
0
 10
1.75982243
 20
0.83566070
  0
VERTEX
  8
0
 10
1.96445304
 20
0.71931914
  0
VERTEX
  8
0
 10
2.17947601
 20
0.62361049
  0
VERTEX
  8
0
 10
2.39776273
 20
0.54292048
  0
VERTEX
  8
0
 10
2.62251519
 20
0.48299991
  0
VERTEX
  8
0
 10
2.85151620
 20
0.44090882
  0
VERTEX
  8
0
 10
3.08254861
 20
0.41370727
  0
VERTEX
  8
0
 10
3.28468654
 20
0.41387626
  0
VERTEX
  8
0
 10
3.48584844
 20
0.42703587
  0
VERTEX
  8
0
 10
3.72430438
 20
0.45972109
  0
VERTEX
  8
0
 10
3.95996579
 20
0.50899794
  0
VERTEX
  8
0
 10
4.22504034
 20
0.59642369
  0
VERTEX
  8
0
 10
4.48012105
 20
0.70959919
  0
VERTEX
  8
0
 10
4.72334332
 20
0.84659411
  0
VERTEX
  8
0
 10
4.95284257
 20
1.00547816
  0
VERTEX
  8
0
 10
5.23793217
 20
1.26217383
  0
VERTEX
  8
0
 10
5.35705342
 20
1.39217436
  0
VERTEX
  8
0
 10
5.48620900
 20
1.55576571
  0
VERTEX
  8
0
 10
5.60561999
 20
1.72672188
  0
VERTEX
  8
0
 10
5.70743753
 20
1.89941727
  0
VERTEX
  8
0
 10
5.79748798
 20
2.07868665
  0
VERTEX
  8
0
 10
5.89941620
 20
2.33991826
  0
VERTEX
  8
0
 10
5.97277902
 20
2.61043923
  0
VERTEX
  8
0
 10
6.00429266
 20
2.76454677
  0
VERTEX
  8
0
 10
6.02210171
 20
2.92122096
  0
VERTEX
  8
0
 10
6.03853531
 20
2.99484813
  0
VERTEX
  8
0
 10
6.04505196
 20
3.06976197
  0
VERTEX
  8
0
 10
6.04404467
 20
3.41581293
  0
VERTEX
  8
0
 10
6.02185139
 20
3.59133799
  0
VERTEX
  8
0
 10
5.99076330
 20
3.76537610
  0
VERTEX
  8
0
 10
5.93042239
 20
4.01221407
  0
VERTEX
  8
0
 10
5.86211804
 20
4.22465580
  0
VERTEX
  8
0
 10
5.77467080
 20
4.42975775
  0
VERTEX
  8
0
 10
5.67099835
 20
4.62736341
  0
VERTEX
  8
0
 10
5.55401833
 20
4.81731630
  0
VERTEX
  8
0
 10
5.34057099
 20
5.08931830
  0
VERTEX
  8
0
 10
5.09683014
 20
5.33398817
  0
VERTEX
  8
0
 10
4.88787727
 20
5.50435855
  0
VERTEX
  8
0
 10
4.66340961
 20
5.65389537
  0
VERTEX
  8
0
 10
4.42546916
 20
5.78087127
  0
VERTEX
  8
0
 10
4.17609794
 20
5.88355890
  0
VERTEX
  8
0
 10
3.89631277
 20
5.96711090
  0
VERTEX
  8
0
 10
3.61053855
 20
6.02800020
  0
VERTEX
  8
0
 10
3.49945406
 20
6.03918173
  0
VERTEX
  8
0
 10
3.38815076
 20
6.04375568
  0
VERTEX
  8
0
 10
3.19665152
 20
6.04408222
  0
VERTEX
  8
0
 10
3.00582889
 20
6.03699292
  0
SEQEND
  0
POLYLINE
  8
color#ffffffff
 66
   1
 39
0.000000
 70
    1
  0
VERTEX
  8
0
 10
2.89332726
 20
5.24258269
  0
VERTEX
  8
0
 10
3.09217445
 20
5.26192559
  0
VERTEX
  8
0
 10
3.29241691
 20
5.26222083
  0
VERTEX
  8
0
 10
3.50808987
 20
5.25229320
  0
VERTEX
  8
0
 10
3.72045697
 20
5.21381450
  0
VERTEX
  8
0
 10
3.92715799
 20
5.15049380
  0
VERTEX
  8
0
 10
4.12583275
 20
5.06604021
  0
VERTEX
  8
0
 10
4.27389492
 20
4.98657510
  0
VERTEX
  8
0
 10
4.56472964
 20
4.77561798
  0
VERTEX
  8
0
 10
4.69582461
 20
4.65264642
  0
VERTEX
  8
0
 10
4.81520792
 20
4.51817938
  0
VERTEX
  8
0
 10
4.93262369
 20
4.34160631
  0
VERTEX
  8
0
 10
5.02646387
 20
4.19242446
  0
VERTEX
  8
0
 10
5.09742959
 20
4.05803511
  0
VERTEX
  8
0
 10
5.19076833
 20
3.82430844
  0
VERTEX
  8
0
 10
5.21822788
 20
3.68255399
  0
VERTEX
  8
0
 10
5.26031850
 20
3.44902419
  0
VERTEX
  8
0
 10
5.26148812
 20
3.28509512
  0
VERTEX
  8
0
 10
5.27814940
 20
3.12299357
  0
VERTEX
  8
0
 10
5.25738044
 20
3.09397878
  0
VERTEX
  8
0
 10
5.22142641
 20
3.08428599
  0
VERTEX
  8
0
 10
5.17540317
 20
3.12294545
  0
VERTEX
  8
0
 10
5.14300669
 20
3.17330058
  0
VERTEX
  8
0
 10
5.11348598
 20
3.26061989
  0
VERTEX
  8
0
 10
5.09651636
 20
3.35115847
  0
VERTEX
  8
0
 10
5.07002994
 20
3.53394768
  0
VERTEX
  8
0
 10
5.01510738
 20
3.64535782
  0
VERTEX
  8
0
 10
4.93704808
 20
3.74300660
  0
VERTEX
  8
0
 10
4.85819847
 20
3.81906946
  0
VERTEX
  8
0
 10
4.76774082
 20
3.88415256
  0
VERTEX
  8
0
 10
4.66705277
 20
3.92450283
  0
VERTEX
  8
0
 10
4.55751199
 20
3.92636714
  0
VERTEX
  8
0
 10
4.44880496
 20
4.01159991
  0
VERTEX
  8
0
 10
4.31789607
 20
4.05617813
  0
VERTEX
  8
0
 10
4.19121399
 20
4.06574132
  0
VERTEX
  8
0
 10
4.06494270
 20
4.05444537
  0
VERTEX
  8
0
 10
3.82084607
 20
3.98460302
  0
VERTEX
  8
0
 10
3.71168097
 20
3.95480930
  0
VERTEX
  8
0
 10
3.59940543
 20
3.94409659
  0
VERTEX
  8
0
 10
3.37289421
 20
3.94991490
  0
VERTEX
  8
0
 10
3.40313733
 20
3.99349391
  0
VERTEX
  8
0
 10
3.32821264
 20
3.98537838
  0
VERTEX
  8
0
 10
3.25380538
 20
3.99526227
  0
VERTEX
  8
0
 10
3.27621939
 20
4.03740763
  0
VERTEX
  8
0
 10
3.31779386
 20
4.05404395
  0
VERTEX
  8
0
 10
3.36580983
 20
4.06266441
  0
VERTEX
  8
0
 10
3.40754831
 20
4.08076221
  0
VERTEX
  8
0
 10
3.28356683
 20
4.13432453
  0
VERTEX
  8
0
 10
3.20998824
 20
4.18125638
  0
VERTEX
  8
0
 10
3.09196340
 20
4.20034801
  0
VERTEX
  8
0
 10
3.10299777
 20
4.24493465
  0
VERTEX
  8
0
 10
3.14418834
 20
4.26429958
  0
VERTEX
  8
0
 10
3.10057721
 20
4.28668714
  0
VERTEX
  8
0
 10
3.06977482
 20
4.32342357
  0
VERTEX
  8
0
 10
3.01412067
 20
4.40431736
  0
VERTEX
  8
0
 10
2.96534834
 20
4.42049333
  0
VERTEX
  8
0
 10
2.91067647
 20
4.41128146
  0
VERTEX
  8
0
 10
2.85743946
 20
4.40505702
  0
VERTEX
  8
0
 10
2.81297174
 20
4.43019533
  0
VERTEX
  8
0
 10
2.87377053
 20
4.44479593
  0
VERTEX
  8
0
 10
2.84793129
 20
4.45513754
  0
VERTEX
  8
0
 10
2.82054924
 20
4.50072667
  0
VERTEX
  8
0
 10
2.80320307
 20
4.51900784
  0
VERTEX
  8
0
 10
2.77833650
 20
4.52506410
  0
VERTEX
  8
0
 10
2.58642874
 20
4.51076738
  0
VERTEX
  8
0
 10
2.62032140
 20
4.54207008
  0
VERTEX
  8
0
 10
2.66787794
 20
4.54749035
  0
VERTEX
  8
0
 10
2.65647721
 20
4.58812903
  0
VERTEX
  8
0
 10
2.62548172
 20
4.61339439
  0
VERTEX
  8
0
 10
2.46432003
 20
4.61571513
  0
VERTEX
  8
0
 10
2.46571481
 20
4.68695677
  0
VERTEX
  8
0
 10
2.41002258
 20
4.65524751
  0
VERTEX
  8
0
 10
2.34870148
 20
4.64281495
  0
VERTEX
  8
0
 10
2.33562675
 20
4.68434923
  0
VERTEX
  8
0
 10
2.30125494
 20
4.70492514
  0
VERTEX
  8
0
 10
2.26312256
 20
4.71210883
  0
VERTEX
  8
0
 10
2.20269689
 20
4.68531714
  0
VERTEX
  8
0
 10
2.14479253
 20
4.65212917
  0
VERTEX
  8
0
 10
2.10910864
 20
4.73903800
  0
VERTEX
  8
0
 10
2.10090800
 20
4.66226498
  0
VERTEX
  8
0
 10
2.00112912
 20
4.65906680
  0
VERTEX
  8
0
 10
2.04075967
 20
4.70010926
  0
VERTEX
  8
0
 10
2.08341015
 20
4.68731535
  0
VERTEX
  8
0
 10
2.06784763
 20
4.73551460
  0
VERTEX
  8
0
 10
2.02982415
 20
4.76624798
  0
VERTEX
  8
0
 10
1.93875801
 20
4.74934790
  0
VERTEX
  8
0
 10
1.85536742
 20
4.70611436
  0
VERTEX
  8
0
 10
1.86933629
 20
4.74734099
  0
VERTEX
  8
0
 10
2.09608610
 20
4.92497381
  0
VERTEX
  8
0
 10
2.34569469
 20
5.06891458
  0
VERTEX
  8
0
 10
2.61312183
 20
5.17587898
  0
VERTEX
  8
0
 10
2.89332726
 20
5.24258269
  0
SEQEND
  0
POLYLINE
  8
color#fffefeff
 66
   1
 39
0.000000
 70
    1
  0
VERTEX
  8
0
 10
2.82926370
 20
5.89476817
  0
VERTEX
  8
0
 10
2.82996973
 20
5.85230865
  0
VERTEX
  8
0
 10
2.93717787
 20
5.85495910
  0
VERTEX
  8
0
 10
2.96352376
 20
5.47385389
  0
VERTEX
  8
0
 10
3.10121644
 20
5.48147916
  0
VERTEX
  8
0
 10
3.07475324
 20
5.86633216
  0
VERTEX
  8
0
 10
3.17584971
 20
5.87117202
  0
VERTEX
  8
0
 10
3.17527672
 20
5.92189791
  0
VERTEX
  8
0
 10
2.82926370
 20
5.89476817
  0
SEQEND
  0
POLYLINE
  8
color#fffefeff
 66
   1
 39
0.000000
 70
    1
  0
VERTEX
  8
0
 10
3.46070787
 20
5.91657032
  0
VERTEX
  8
0
 10
3.49483812
 20
5.47052964
  0
VERTEX
  8
0
 10
3.57894412
 20
5.46038704
  0
VERTEX
  8
0
 10
3.67145957
 20
5.66855948
  0
VERTEX
  8
0
 10
3.69159676
 20
5.43836519
  0
VERTEX
  8
0
 10
3.77753307
 20
5.42535371
  0
VERTEX
  8
0
 10
3.96637459
 20
5.82575241
  0
VERTEX
  8
0
 10
3.91412480
 20
5.83921475
  0
VERTEX
  8
0
 10
3.80774737
 20
5.60891006
  0
VERTEX
  8
0
 10
3.78554832
 20
5.86224074
  0
VERTEX
  8
0
 10
3.70622829
 20
5.86959309
  0
VERTEX
  8
0
 10
3.60616007
 20
5.63879674
  0
VERTEX
  8
0
 10
3.58713882
 20
5.89479555
  0
VERTEX
  8
0
 10
3.46070787
 20
5.91657032
  0
SEQEND
  0
POLYLINE
  8
color#fffefeff
 66
   1
 39
0.000000
 70
    1
  0
VERTEX
  8
0
 10
2.66271339
 20
5.84855811
  0
VERTEX
  8
0
 10
2.66471289
 20
5.78222503
  0
VERTEX
  8
0
 10
2.68523654
 20
5.75837211
  0
VERTEX
  8
0
 10
2.71914496
 20
5.75132311
  0
VERTEX
  8
0
 10
2.69759041
 20
5.71027376
  0
VERTEX
  8
0
 10
2.69457233
 20
5.66543380
  0
VERTEX
  8
0
 10
2.74313567
 20
5.69434892
  0
VERTEX
  8
0
 10
2.77027918
 20
5.74339806
  0
VERTEX
  8
0
 10
2.77456067
 20
5.80035604
  0
VERTEX
  8
0
 10
2.75453792
 20
5.85299771
  0
VERTEX
  8
0
 10
2.70943730
 20
5.86755917
  0
VERTEX
  8
0
 10
2.66271339
 20
5.84855811
  0
SEQEND
  0
POLYLINE
  8
color#fffefeff
 66
   1
 39
0.000000
 70
    1
  0
VERTEX
  8
0
 10
2.47910119
 20
5.81110260
  0
VERTEX
  8
0
 10
2.57088348
 20
5.54339597
  0
VERTEX
  8
0
 10
2.30352119
 20
5.74807941
  0
VERTEX
  8
0
 10
2.22352196
 20
5.72571509
  0
VERTEX
  8
0
 10
2.36033564
 20
5.32022968
  0
VERTEX
  8
0
 10
2.40259805
 20
5.32563282
  0
VERTEX
  8
0
 10
2.32123037
 20
5.58103328
  0
VERTEX
  8
0
 10
2.57051212
 20
5.39120951
  0
VERTEX
  8
0
 10
2.66218198
 20
5.41591395
  0
VERTEX
  8
0
 10
2.52666644
 20
5.82671671
  0
VERTEX
  8
0
 10
2.47910119
 20
5.81110260
  0
SEQEND
  0
POLYLINE
  8
color#fffefeff
 66
   1
 39
0.000000
 70
    1
  0
VERTEX
  8
0
 10
3.91746101
 20
5.38169402
  0
VERTEX
  8
0
 10
4.20085865
 20
5.27011513
  0
VERTEX
  8
0
 10
4.21985634
 20
5.31699727
  0
VERTEX
  8
0
 10
4.05599622
 20
5.37741131
  0
VERTEX
  8
0
 10
4.11256931
 20
5.53489094
  0
VERTEX
  8
0
 10
4.23302029
 20
5.48906500
  0
VERTEX
  8
0
 10
4.24833952
 20
5.53224943
  0
VERTEX
  8
0
 10
4.12876330
 20
5.57862292
  0
VERTEX
  8
0
 10
4.17143064
 20
5.69323955
  0
VERTEX
  8
0
 10
4.32153283
 20
5.64307116
  0
VERTEX
  8
0
 10
4.33091976
 20
5.68592560
  0
VERTEX
  8
0
 10
4.06951890
 20
5.78445021
  0
VERTEX
  8
0
 10
3.91746101
 20
5.38169402
  0
SEQEND
  0
POLYLINE
  8
color#fffefeff
 66
   1
 39
0.000000
 70
    1
  0
VERTEX
  8
0
 10
1.89075406
 20
5.48545251
  0
VERTEX
  8
0
 10
1.91361530
 20
5.41193438
  0
VERTEX
  8
0
 10
1.97447790
 20
5.36355312
  0
VERTEX
  8
0
 10
2.02644131
 20
5.35142214
  0
VERTEX
  8
0
 10
2.08016803
 20
5.35225001
  0
VERTEX
  8
0
 10
2.13381071
 20
5.35255039
  0
VERTEX
  8
0
 10
2.18552202
 20
5.33883691
  0
VERTEX
  8
0
 10
2.19766280
 20
5.30295997
  0
VERTEX
  8
0
 10
2.18811378
 20
5.26882279
  0
VERTEX
  8
0
 10
2.13810215
 20
5.23644060
  0
VERTEX
  8
0
 10
2.07954169
 20
5.23186871
  0
VERTEX
  8
0
 10
2.04086484
 20
5.26853019
  0
VERTEX
  8
0
 10
2.02004673
 20
5.31941883
  0
VERTEX
  8
0
 10
1.99418016
 20
5.29996642
  0
VERTEX
  8
0
 10
1.97493483
 20
5.27566929
  0
VERTEX
  8
0
 10
2.02002986
 20
5.20905358
  0
VERTEX
  8
0
 10
2.05570637
 20
5.19032403
  0
VERTEX
  8
0
 10
2.09629631
 20
5.18779488
  0
VERTEX
  8
0
 10
2.19954470
 20
5.22471629
  0
VERTEX
  8
0
 10
2.24178534
 20
5.25902196
  0
VERTEX
  8
0
 10
2.27051984
 20
5.30563015
  0
VERTEX
  8
0
 10
2.27811423
 20
5.36591949
  0
VERTEX
  8
0
 10
2.25540918
 20
5.42203378
  0
VERTEX
  8
0
 10
2.21072781
 20
5.46398160
  0
VERTEX
  8
0
 10
2.15239322
 20
5.48177154
  0
VERTEX
  8
0
 10
2.05713529
 20
5.48047298
  0
VERTEX
  8
0
 10
2.00997979
 20
5.48038469
  0
VERTEX
  8
0
 10
1.96525173
 20
5.49392172
  0
VERTEX
  8
0
 10
1.95210573
 20
5.52967748
  0
VERTEX
  8
0
 10
1.96925271
 20
5.56122393
  0
VERTEX
  8
0
 10
2.04036699
 20
5.59348749
  0
VERTEX
  8
0
 10
2.06975212
 20
5.59233250
  0
VERTEX
  8
0
 10
2.09245052
 20
5.57689140
  0
VERTEX
  8
0
 10
2.12182017
 20
5.52702707
  0
VERTEX
  8
0
 10
2.16648690
 20
5.55782715
  0
VERTEX
  8
0
 10
2.14914998
 20
5.59506273
  0
VERTEX
  8
0
 10
2.11914731
 20
5.62205214
  0
VERTEX
  8
0
 10
2.08121709
 20
5.63624000
  0
VERTEX
  8
0
 10
2.04009750
 20
5.63507090
  0
VERTEX
  8
0
 10
1.98615199
 20
5.61709112
  0
VERTEX
  8
0
 10
1.93742997
 20
5.58530854
  0
VERTEX
  8
0
 10
1.90270585
 20
5.54100254
  0
VERTEX
  8
0
 10
1.89075406
 20
5.48545251
  0
SEQEND
  0
POLYLINE
  8
color#fffefeff
 66
   1
 39
0.000000
 70
    1
  0
VERTEX
  8
0
 10
4.41883466
 20
5.63773665
  0
VERTEX
  8
0
 10
4.23096481
 20
5.25009797
  0
VERTEX
  8
0
 10
4.34658092
 20
5.19499509
  0
VERTEX
  8
0
 10
4.53635646
 20
5.58412075
  0
VERTEX
  8
0
 10
4.41883466
 20
5.63773665
  0
SEQEND
  0
POLYLINE
  8
color#fffefeff
 66
   1
 39
0.000000
 70
    1
  0
VERTEX
  8
0
 10
1.74414059
 20
5.46303528
  0
VERTEX
  8
0
 10
1.52878595
 20
5.31334880
  0
VERTEX
  8
0
 10
1.77410294
 20
4.96049275
  0
VERTEX
  8
0
 10
2.02677814
 20
5.13617778
  0
VERTEX
  8
0
 10
2.00118243
 20
5.17427140
  0
VERTEX
  8
0
 10
1.85425942
 20
5.07094311
  0
VERTEX
  8
0
 10
1.80584798
 20
5.13790613
  0
VERTEX
  8
0
 10
1.76493134
 20
5.20841736
  0
VERTEX
  8
0
 10
1.86440151
 20
5.27938204
  0
VERTEX
  8
0
 10
1.83752252
 20
5.31841681
  0
VERTEX
  8
0
 10
1.78455827
 20
5.28020764
  0
VERTEX
  8
0
 10
1.72739073
 20
5.25003691
  0
VERTEX
  8
0
 10
1.66616428
 20
5.34732151
  0
VERTEX
  8
0
 10
1.78661830
 20
5.43779159
  0
VERTEX
  8
0
 10
1.76856339
 20
5.46134493
  0
VERTEX
  8
0
 10
1.74414059
 20
5.46303528
  0
SEQEND
  0
POLYLINE
  8
color#fffefeff
 66
   1
 39
0.000000
 70
    1
  0
VERTEX
  8
0
 10
4.60410968
 20
5.42378463
  0
VERTEX
  8
0
 10
4.54045225
 20
5.37346727
  0
VERTEX
  8
0
 10
4.49180591
 20
5.30677301
  0
VERTEX
  8
0
 10
4.46600576
 20
5.22985744
  0
VERTEX
  8
0
 10
4.47088692
 20
5.14887617
  0
VERTEX
  8
0
 10
4.50104664
 20
5.09472363
  0
VERTEX
  8
0
 10
4.54555312
 20
5.05187396
  0
VERTEX
  8
0
 10
4.60016684
 20
5.02239926
  0
VERTEX
  8
0
 10
4.66064828
 20
5.00837162
  0
VERTEX
  8
0
 10
4.66474253
 20
4.97652535
  0
VERTEX
  8
0
 10
4.69243710
 20
4.95814493
  0
VERTEX
  8
0
 10
4.75999238
 20
5.05289587
  0
VERTEX
  8
0
 10
4.81888836
 20
5.15118387
  0
VERTEX
  8
0
 10
4.69175242
 20
5.24387107
  0
VERTEX
  8
0
 10
4.66781519
 20
5.23838846
  0
VERTEX
  8
0
 10
4.65368088
 20
5.21343360
  0
VERTEX
  8
0
 10
4.70331886
 20
5.17960048
  0
VERTEX
  8
0
 10
4.62599869
 20
5.07117078
  0
VERTEX
  8
0
 10
4.56169278
 20
5.08757900
  0
VERTEX
  8
0
 10
4.55893001
 20
5.12794173
  0
VERTEX
  8
0
 10
4.56905021
 20
5.16654244
  0
VERTEX
  8
0
 10
4.62970920
 20
5.26533681
  0
VERTEX
  8
0
 10
4.70327105
 20
5.35490310
  0
VERTEX
  8
0
 10
4.75801747
 20
5.38006070
  0
VERTEX
  8
0
 10
4.78753001
 20
5.37437646
  0
VERTEX
  8
0
 10
4.81194264
 20
5.35515158
  0
VERTEX
  8
0
 10
4.82680219
 20
5.32623824
  0
VERTEX
  8
0
 10
4.82317727
 20
5.29535329
  0
VERTEX
  8
0
 10
4.79408856
 20
5.23596468
  0
VERTEX
  8
0
 10
4.86152993
 20
5.22510031
  0
VERTEX
  8
0
 10
4.87309804
 20
5.28759678
  0
VERTEX
  8
0
 10
4.86458775
 20
5.34988143
  0
VERTEX
  8
0
 10
4.81563210
 20
5.40638172
  0
VERTEX
  8
0
 10
4.74900243
 20
5.44066824
  0
VERTEX
  8
0
 10
4.67504590
 20
5.44803716
  0
VERTEX
  8
0
 10
4.60410968
 20
5.42378463
  0
SEQEND
  0
POLYLINE
  8
color#fffefeff
 66
   1
 39
0.000000
 70
    1
  0
VERTEX
  8
0
 10
1.27938916
 20
4.14289615
  0
VERTEX
  8
0
 10
1.30024520
 20
4.20804748
  0
VERTEX
  8
0
 10
1.29980899
 20
4.27477576
  0
VERTEX
  8
0
 10
1.31232335
 20
4.30197082
  0
VERTEX
  8
0
 10
1.34285492
 20
4.31639868
  0
VERTEX
  8
0
 10
1.28933181
 20
4.34985048
  0
VERTEX
  8
0
 10
1.31652905
 20
4.36406599
  0
VERTEX
  8
0
 10
1.34870328
 20
4.36668449
  0
VERTEX
  8
0
 10
1.37986606
 20
4.37006459
  0
VERTEX
  8
0
 10
1.40402897
 20
4.38656494
  0
VERTEX
  8
0
 10
1.41231223
 20
4.49461444
  0
VERTEX
  8
0
 10
1.46612339
 20
4.57362514
  0
VERTEX
  8
0
 10
1.53715232
 20
4.61848683
  0
VERTEX
  8
0
 10
1.60651216
 20
4.66589583
  0
VERTEX
  8
0
 10
1.60524004
 20
4.68464333
  0
VERTEX
  8
0
 10
1.66646033
 20
4.69192434
  0
VERTEX
  8
0
 10
1.70996994
 20
4.74940212
  0
VERTEX
  8
0
 10
1.76391963
 20
4.79801517
  0
VERTEX
  8
0
 10
1.90525320
 20
4.92086202
  0
VERTEX
  8
0
 10
2.05700013
 20
5.03073164
  0
VERTEX
  8
0
 10
2.21793444
 20
5.12662248
  0
VERTEX
  8
0
 10
2.38683018
 20
5.20753300
  0
VERTEX
  8
0
 10
2.58128014
 20
5.28215920
  0
VERTEX
  8
0
 10
2.84548405
 20
5.34923432
  0
VERTEX
  8
0
 10
3.05410214
 20
5.37469187
  0
VERTEX
  8
0
 10
3.26415127
 20
5.38165778
  0
VERTEX
  8
0
 10
3.47384892
 20
5.36899787
  0
VERTEX
  8
0
 10
3.68141257
 20
5.33557802
  0
VERTEX
  8
0
 10
3.80430022
 20
5.30367394
  0
VERTEX
  8
0
 10
3.98397512
 20
5.24306821
  0
VERTEX
  8
0
 10
4.18780180
 20
5.15580032
  0
VERTEX
  8
0
 10
4.36314955
 20
5.06549259
  0
VERTEX
  8
0
 10
4.45738765
 20
4.99576732
  0
VERTEX
  8
0
 10
4.71022112
 20
4.79101747
  0
VERTEX
  8
0
 10
4.92940417
 20
4.55021361
  0
VERTEX
  8
0
 10
5.10990275
 20
4.27925552
  0
VERTEX
  8
0
 10
5.24668279
 20
3.98404298
  0
VERTEX
  8
0
 10
5.26648944
 20
3.93259715
  0
VERTEX
  8
0
 10
5.32174526
 20
3.75116137
  0
VERTEX
  8
0
 10
5.38843326
 20
3.42395065
  0
VERTEX
  8
0
 10
5.39030255
 20
3.02702039
  0
VERTEX
  8
0
 10
5.37619362
 20
2.95632342
  0
VERTEX
  8
0
 10
5.34196184
 20
2.78999312
  0
VERTEX
  8
0
 10
5.32455784
 20
2.69841509
  0
VERTEX
  8
0
 10
5.35757972
 20
2.66784533
  0
VERTEX
  8
0
 10
5.39871355
 20
2.64914166
  0
VERTEX
  8
0
 10
5.33530232
 20
2.60700195
  0
VERTEX
  8
0
 10
5.29811573
 20
2.60406131
  0
VERTEX
  8
0
 10
5.26236961
 20
2.61828441
  0
VERTEX
  8
0
 10
5.28257536
 20
2.59763778
  0
VERTEX
  8
0
 10
5.31084515
 20
2.54689762
  0
VERTEX
  8
0
 10
5.35167859
 20
2.50407722
  0
VERTEX
  8
0
 10
5.45688669
 20
2.41851954
  0
VERTEX
  8
0
 10
5.51890196
 20
2.39172619
  0
VERTEX
  8
0
 10
5.58601211
 20
2.38042851
  0
VERTEX
  8
0
 10
5.40555355
 20
2.35331993
  0
VERTEX
  8
0
 10
5.22381950
 20
2.35127257
  0
VERTEX
  8
0
 10
5.18849245
 20
2.32287478
  0
VERTEX
  8
0
 10
5.09236626
 20
2.13338679
  0
VERTEX
  8
0
 10
4.97788030
 20
1.93730658
  0
VERTEX
  8
0
 10
4.81270399
 20
1.75660156
  0
VERTEX
  8
0
 10
4.69304477
 20
1.64320829
  0
VERTEX
  8
0
 10
4.55745905
 20
1.52629754
  0
VERTEX
  8
0
 10
4.41487287
 20
1.41789946
  0
VERTEX
  8
0
 10
3.94906684
 20
1.20140625
  0
VERTEX
  8
0
 10
3.69768272
 20
1.13633040
  0
VERTEX
  8
0
 10
3.50907543
 20
1.09395841
  0
VERTEX
  8
0
 10
3.36150695
 20
1.07345284
  0
VERTEX
  8
0
 10
3.25031873
 20
1.06432815
  0
VERTEX
  8
0
 10
3.13919595
 20
1.07082268
  0
VERTEX
  8
0
 10
2.87330987
 20
1.09509548
  0
VERTEX
  8
0
 10
2.59478977
 20
1.16340746
  0
VERTEX
  8
0
 10
2.39099587
 20
1.23939972
  0
VERTEX
  8
0
 10
2.18862449
 20
1.33933986
  0
VERTEX
  8
0
 10
1.99767031
 20
1.45967946
  0
VERTEX
  8
0
 10
1.82025818
 20
1.59919176
  0
VERTEX
  8
0
 10
1.65851298
 20
1.75665001
  0
VERTEX
  8
0
 10
1.55799216
 20
1.86387398
  0
VERTEX
  8
0
 10
1.52489671
 20
1.91347277
  0
VERTEX
  8
0
 10
1.38010869
 20
2.12873623
  0
VERTEX
  8
0
 10
1.26057013
 20
2.35901229
  0
VERTEX
  8
0
 10
1.17327107
 20
2.59698177
  0
VERTEX
  8
0
 10
1.11421292
 20
2.84334588
  0
VERTEX
  8
0
 10
1.08345791
 20
3.09484700
  0
VERTEX
  8
0
 10
1.08106832
 20
3.34822749
  0
VERTEX
  8
0
 10
1.09312630
 20
3.47265045
  0
VERTEX
  8
0
 10
1.12346305
 20
3.65440705
  0
VERTEX
  8
0
 10
1.16798827
 20
3.83313068
  0
VERTEX
  8
0
 10
1.23215998
 20
4.02494640
  0
VERTEX
  8
0
 10
1.27938916
 20
4.14289615
  0
SEQEND
  0
POLYLINE
  8
color#fffefeff
 66
   1
 39
0.000000
 70
    1
  0
VERTEX
  8
0
 10
4.73347647
 20
4.92784744
  0
VERTEX
  8
0
 10
4.76868468
 20
4.88032282
  0
VERTEX
  8
0
 10
4.81159779
 20
4.83893714
  0
VERTEX
  8
0
 10
4.82738359
 20
4.83847485
  0
VERTEX
  8
0
 10
4.90105974
 20
4.90958079
  0
VERTEX
  8
0
 10
4.98047476
 20
4.97165371
  0
VERTEX
  8
0
 10
5.03907463
 20
4.90419063
  0
VERTEX
  8
0
 10
4.96152593
 20
4.83142362
  0
VERTEX
  8
0
 10
4.88915386
 20
4.75390446
  0
VERTEX
  8
0
 10
4.97692872
 20
4.66620884
  0
VERTEX
  8
0
 10
5.28468596
 20
4.96803497
  0
VERTEX
  8
0
 10
5.19375629
 20
5.05383410
  0
VERTEX
  8
0
 10
5.13387277
 20
4.99568519
  0
VERTEX
  8
0
 10
5.07023010
 20
4.94197163
  0
VERTEX
  8
0
 10
5.00516545
 20
5.00946420
  0
VERTEX
  8
0
 10
5.12363339
 20
5.12631739
  0
VERTEX
  8
0
 10
5.08527458
 20
5.17459626
  0
VERTEX
  8
0
 10
5.04080898
 20
5.21878558
  0
VERTEX
  8
0
 10
4.73347647
 20
4.92784744
  0
SEQEND
  0
POLYLINE
  8
color#fffefeff
 66
   1
 39
0.000000
 70
    1
  0
VERTEX
  8
0
 10
1.33522670
 20
5.12414760
  0
VERTEX
  8
0
 10
1.26288019
 20
5.05258188
  0
VERTEX
  8
0
 10
1.23867365
 20
5.00824133
  0
VERTEX
  8
0
 10
1.22818944
 20
4.95847189
  0
VERTEX
  8
0
 10
1.23758522
 20
4.90566312
  0
VERTEX
  8
0
 10
1.26128458
 20
4.85809448
  0
VERTEX
  8
0
 10
1.33289938
 20
4.77817415
  0
VERTEX
  8
0
 10
1.41570708
 20
4.72476203
  0
VERTEX
  8
0
 10
1.46286185
 20
4.71225209
  0
VERTEX
  8
0
 10
1.51222421
 20
4.71484748
  0
VERTEX
  8
0
 10
1.56504176
 20
4.73888727
  0
VERTEX
  8
0
 10
1.60971246
 20
4.77564559
  0
VERTEX
  8
0
 10
1.67037887
 20
4.87409648
  0
VERTEX
  8
0
 10
1.66349109
 20
4.94885890
  0
VERTEX
  8
0
 10
1.63033258
 20
5.01499286
  0
VERTEX
  8
0
 10
1.57985827
 20
5.07166744
  0
VERTEX
  8
0
 10
1.52102312
 20
5.11805172
  0
VERTEX
  8
0
 10
1.42870861
 20
5.15083086
  0
VERTEX
  8
0
 10
1.37981878
 20
5.14553425
  0
VERTEX
  8
0
 10
1.33522670
 20
5.12414760
  0
SEQEND
  0
POLYLINE
  8
color#fffefeff
 66
   1
 39
0.000000
 70
    1
  0
VERTEX
  8
0
 10
1.04827016
 20
4.75737742
  0
VERTEX
  8
0
 10
0.96206435
 20
4.65586511
  0
VERTEX
  8
0
 10
0.89051688
 20
4.54216433
  0
VERTEX
  8
0
 10
1.25251537
 20
4.30710192
  0
VERTEX
  8
0
 10
1.32497173
 20
4.41965608
  0
VERTEX
  8
0
 10
1.38228510
 20
4.53949979
  0
VERTEX
  8
0
 10
1.38204722
 20
4.60088453
  0
VERTEX
  8
0
 10
1.35684914
 20
4.65535545
  0
VERTEX
  8
0
 10
1.26644539
 20
4.73817985
  0
VERTEX
  8
0
 10
1.15847579
 20
4.78274312
  0
VERTEX
  8
0
 10
1.10125279
 20
4.78195987
  0
VERTEX
  8
0
 10
1.04827016
 20
4.75737742
  0
SEQEND
  0
POLYLINE
  8
color#fffefeff
 66
   1
 39
0.000000
 70
    1
  0
VERTEX
  8
0
 10
5.10916881
 20
4.48578967
  0
VERTEX
  8
0
 10
5.13283587
 20
4.43687145
  0
VERTEX
  8
0
 10
5.22247233
 20
4.45688423
  0
VERTEX
  8
0
 10
5.26035085
 20
4.40671864
  0
VERTEX
  8
0
 10
5.29071529
 20
4.35039878
  0
VERTEX
  8
0
 10
5.22644849
 20
4.28565166
  0
VERTEX
  8
0
 10
5.25482706
 20
4.23002965
  0
VERTEX
  8
0
 10
5.29218038
 20
4.18184212
  0
VERTEX
  8
0
 10
5.59551447
 20
4.49301167
  0
VERTEX
  8
0
 10
5.54331119
 20
4.59392105
  0
VERTEX
  8
0
 10
5.10916881
 20
4.48578967
  0
SEQEND
  0
POLYLINE
  8
color#fffefeff
 66
   1
 39
0.000000
 70
    1
  0
VERTEX
  8
0
 10
0.74341058
 20
4.24871463
  0
VERTEX
  8
0
 10
0.63104146
 20
3.92581935
  0
VERTEX
  8
0
 10
0.67384717
 20
3.90669315
  0
VERTEX
  8
0
 10
0.70792811
 20
4.00760853
  0
VERTEX
  8
0
 10
1.07302484
 20
3.88187072
  0
VERTEX
  8
0
 10
1.11614428
 20
4.01369551
  0
VERTEX
  8
0
 10
0.75483613
 20
4.13595943
  0
VERTEX
  8
0
 10
0.78690137
 20
4.23859617
  0
VERTEX
  8
0
 10
0.74341058
 20
4.24871463
  0
SEQEND
  0
POLYLINE
  8
color#fffefeff
 66
   1
 39
0.000000
 70
    1
  0
VERTEX
  8
0
 10
5.72621458
 20
4.11626373
  0
VERTEX
  8
0
 10
5.75510559
 20
4.01250255
  0
VERTEX
  8
0
 10
5.38894784
 20
3.90813292
  0
VERTEX
  8
0
 10
5.42349929
 20
3.77822617
  0
VERTEX
  8
0
 10
5.79091668
 20
3.88129878
  0
VERTEX
  8
0
 10
5.82049635
 20
3.78121531
  0
VERTEX
  8
0
 10
5.86787211
 20
3.79699851
  0
VERTEX
  8
0
 10
5.77143620
 20
4.12359090
  0
VERTEX
  8
0
 10
5.72621458
 20
4.11626373
  0
SEQEND
  0
POLYLINE
  8
color#fffefeff
 66
   1
 39
0.000000
 70
    1
  0
VERTEX
  8
0
 10
0.62350996
 20
3.85368673
  0
VERTEX
  8
0
 10
0.59181041
 20
3.73074372
  0
VERTEX
  8
0
 10
1.01418622
 20
3.62718541
  0
VERTEX
  8
0
 10
1.04034114
 20
3.75106852
  0
VERTEX
  8
0
 10
0.62350996
 20
3.85368673
  0
SEQEND
  0
POLYLINE
  8
color#fffefeff
 66
   1
 39
0.000000
 70
    1
  0
VERTEX
  8
0
 10
5.61750223
 20
3.68508692
  0
VERTEX
  8
0
 10
5.55532979
 20
3.66107999
  0
VERTEX
  8
0
 10
5.50388838
 20
3.61916729
  0
VERTEX
  8
0
 10
5.48025238
 20
3.58420653
  0
VERTEX
  8
0
 10
5.46923230
 20
3.54372592
  0
VERTEX
  8
0
 10
5.47130393
 20
3.45887369
  0
VERTEX
  8
0
 10
5.51021678
 20
3.36904275
  0
VERTEX
  8
0
 10
5.54617928
 20
3.33612638
  0
VERTEX
  8
0
 10
5.59181490
 20
3.31683824
  0
VERTEX
  8
0
 10
5.72434393
 20
3.31435130
  0
VERTEX
  8
0
 10
5.84837486
 20
3.35969789
  0
VERTEX
  8
0
 10
5.89887875
 20
3.42120596
  0
VERTEX
  8
0
 10
5.91437931
 20
3.49878096
  0
VERTEX
  8
0
 10
5.90011448
 20
3.57906565
  0
VERTEX
  8
0
 10
5.86132221
 20
3.64870280
  0
VERTEX
  8
0
 10
5.80786453
 20
3.68454725
  0
VERTEX
  8
0
 10
5.74589068
 20
3.69873592
  0
VERTEX
  8
0
 10
5.61750223
 20
3.68508692
  0
SEQEND
  0
POLYLINE
  8
color#fffefeff
 66
   1
 39
0.000000
 70
    1
  0
VERTEX
  8
0
 10
0.55013361
 20
3.41160326
  0
VERTEX
  8
0
 10
0.54272979
 20
3.12936074
  0
VERTEX
  8
0
 10
0.96122357
 20
3.10939771
  0
VERTEX
  8
0
 10
0.97500481
 20
3.11977391
  0
VERTEX
  8
0
 10
0.97832762
 20
3.23963678
  0
VERTEX
  8
0
 10
0.78029975
 20
3.24648333
  0
VERTEX
  8
0
 10
0.78331429
 20
3.37839138
  0
VERTEX
  8
0
 10
0.73469001
 20
3.37989362
  0
VERTEX
  8
0
 10
0.73156405
 20
3.24638723
  0
VERTEX
  8
0
 10
0.59141211
 20
3.25457464
  0
VERTEX
  8
0
 10
0.60110647
 20
3.40711703
  0
VERTEX
  8
0
 10
0.55013361
 20
3.41160326
  0
SEQEND
  0
POLYLINE
  8
color#fffefeff
 66
   1
 39
0.000000
 70
    1
  0
VERTEX
  8
0
 10
5.49431672
 20
3.23100066
  0
VERTEX
  8
0
 10
5.49250432
 20
3.18609707
  0
VERTEX
  8
0
 10
5.75137188
 20
3.16837901
  0
VERTEX
  8
0
 10
5.61754875
 20
3.08649378
  0
VERTEX
  8
0
 10
5.48039466
 20
3.00950905
  0
VERTEX
  8
0
 10
5.47422214
 20
2.91095920
  0
VERTEX
  8
0
 10
5.90457607
 20
2.88084807
  0
VERTEX
  8
0
 10
5.90738939
 20
2.92473570
  0
VERTEX
  8
0
 10
5.62269964
 20
2.95131506
  0
VERTEX
  8
0
 10
5.92169820
 20
3.12018278
  0
VERTEX
  8
0
 10
5.92652180
 20
3.20117274
  0
VERTEX
  8
0
 10
5.49431672
 20
3.23100066
  0
SEQEND
  0
POLYLINE
  8
color#fffefeff
 66
   1
 39
0.000000
 70
    1
  0
VERTEX
  8
0
 10
0.55794580
 20
2.99356882
  0
VERTEX
  8
0
 10
0.57446726
 20
2.86610273
  0
VERTEX
  8
0
 10
0.99697167
 20
2.91734586
  0
VERTEX
  8
0
 10
0.98701154
 20
3.04644468
  0
VERTEX
  8
0
 10
0.55794580
 20
2.99356882
  0
SEQEND
  0
POLYLINE
  8
color#fffefeff
 66
   1
 39
0.000000
 70
    1
  0
VERTEX
  8
0
 10
5.23907460
 20
2.18707477
  0
VERTEX
  8
0
 10
5.08551095
 20
1.95201430
  0
VERTEX
  8
0
 10
5.44341199
 20
1.71362679
  0
VERTEX
  8
0
 10
5.61205788
 20
1.97112749
  0
VERTEX
  8
0
 10
5.57175498
 20
1.99342992
  0
VERTEX
  8
0
 10
5.47876710
 20
1.84892788
  0
VERTEX
  8
0
 10
5.40625478
 20
1.89073839
  0
VERTEX
  8
0
 10
5.33761835
 20
1.93931000
  0
VERTEX
  8
0
 10
5.41099799
 20
2.04533392
  0
VERTEX
  8
0
 10
5.36626747
 20
2.06549675
  0
VERTEX
  8
0
 10
5.30393059
 20
1.97072369
  0
VERTEX
  8
0
 10
5.24731267
 20
1.99769510
  0
VERTEX
  8
0
 10
5.19551165
 20
2.03393413
  0
VERTEX
  8
0
 10
5.27844758
 20
2.16334671
  0
VERTEX
  8
0
 10
5.23907460
 20
2.18707477
  0
SEQEND
  0
POLYLINE
  8
color#fffefeff
 66
   1
 39
0.000000
 70
    1
  0
VERTEX
  8
0
 10
0.87931838
 20
1.93525363
  0
VERTEX
  8
0
 10
0.94635143
 20
1.82831196
  0
VERTEX
  8
0
 10
1.31285124
 20
2.05608425
  0
VERTEX
  8
0
 10
1.24454328
 20
2.16497038
  0
VERTEX
  8
0
 10
0.87931838
 20
1.93525363
  0
SEQEND
  0
POLYLINE
  8
color#fffefeff
 66
   1
 39
0.000000
 70
    1
  0
VERTEX
  8
0
 10
1.28241516
 20
1.99753881
  0
VERTEX
  8
0
 10
1.34734377
 20
1.91477861
  0
VERTEX
  8
0
 10
1.05442952
 20
1.67769913
  0
VERTEX
  8
0
 10
1.09045099
 20
1.61854941
  0
VERTEX
  8
0
 10
1.13942343
 20
1.57185417
  0
VERTEX
  8
0
 10
1.43206053
 20
1.80798468
  0
VERTEX
  8
0
 10
1.49946498
 20
1.72520226
  0
VERTEX
  8
0
 10
1.53483781
 20
1.75657271
  0
VERTEX
  8
0
 10
1.31968260
 20
2.02582574
  0
VERTEX
  8
0
 10
1.28241516
 20
1.99753881
  0
SEQEND
  0
POLYLINE
  8
color#fffefeff
 66
   1
 39
0.000000
 70
    1
  0
VERTEX
  8
0
 10
5.02100947
 20
1.83610026
  0
VERTEX
  8
0
 10
4.97314881
 20
1.80427526
  0
VERTEX
  8
0
 10
4.93480710
 20
1.76054787
  0
VERTEX
  8
0
 10
4.91128040
 20
1.70828302
  0
VERTEX
  8
0
 10
4.90786480
 20
1.65084562
  0
VERTEX
  8
0
 10
4.92501102
 20
1.60863871
  0
VERTEX
  8
0
 10
4.95643210
 20
1.57567122
  0
VERTEX
  8
0
 10
5.04195835
 20
1.54615138
  0
VERTEX
  8
0
 10
5.11921671
 20
1.56639694
  0
VERTEX
  8
0
 10
5.19245393
 20
1.60013384
  0
VERTEX
  8
0
 10
5.23852202
 20
1.60493795
  0
VERTEX
  8
0
 10
5.27241009
 20
1.57768906
  0
VERTEX
  8
0
 10
5.27324647
 20
1.54109032
  0
VERTEX
  8
0
 10
5.25661785
 20
1.50868686
  0
VERTEX
  8
0
 10
5.19538283
 20
1.46775803
  0
VERTEX
  8
0
 10
5.14299367
 20
1.48440090
  0
VERTEX
  8
0
 10
5.10304922
 20
1.52481998
  0
VERTEX
  8
0
 10
5.07292112
 20
1.46450137
  0
VERTEX
  8
0
 10
5.13796766
 20
1.42472911
  0
VERTEX
  8
0
 10
5.17496036
 20
1.41925636
  0
VERTEX
  8
0
 10
5.21296299
 20
1.42804120
  0
VERTEX
  8
0
 10
5.29076730
 20
1.49200700
  0
VERTEX
  8
0
 10
5.33660142
 20
1.58082254
  0
VERTEX
  8
0
 10
5.33352409
 20
1.64047347
  0
VERTEX
  8
0
 10
5.30221265
 20
1.69167825
  0
VERTEX
  8
0
 10
5.25213954
 20
1.72540291
  0
VERTEX
  8
0
 10
5.19277716
 20
1.73261346
  0
VERTEX
  8
0
 10
5.10164803
 20
1.70389559
  0
VERTEX
  8
0
 10
5.01423927
 20
1.66372799
  0
VERTEX
  8
0
 10
4.97232339
 20
1.67080011
  0
VERTEX
  8
0
 10
4.95349125
 20
1.70907719
  0
VERTEX
  8
0
 10
4.99129763
 20
1.76992981
  0
VERTEX
  8
0
 10
5.02111235
 20
1.78929831
  0
VERTEX
  8
0
 10
5.05644102
 20
1.79530269
  0
VERTEX
  8
0
 10
5.11276135
 20
1.75415574
  0
VERTEX
  8
0
 10
5.14605754
 20
1.80674272
  0
VERTEX
  8
0
 10
5.08704297
 20
1.83909675
  0
VERTEX
  8
0
 10
5.02100947
 20
1.83610026
  0
SEQEND
  0
POLYLINE
  8
color#fffefeff
 66
   1
 39
0.000000
 70
    1
  0
VERTEX
  8
0
 10
1.52804190
 20
1.69491896
  0
VERTEX
  8
0
 10
1.50396036
 20
1.65579179
  0
VERTEX
  8
0
 10
1.50927967
 20
1.60738461
  0
VERTEX
  8
0
 10
1.45871999
 20
1.60947821
  0
VERTEX
  8
0
 10
1.42955489
 20
1.57794119
  0
VERTEX
  8
0
 10
1.48302671
 20
1.56007138
  0
VERTEX
  8
0
 10
1.53796590
 20
1.56650343
  0
VERTEX
  8
0
 10
1.58613238
 20
1.59400127
  0
VERTEX
  8
0
 10
1.61928608
 20
1.63932886
  0
VERTEX
  8
0
 10
1.61480820
 20
1.67292072
  0
VERTEX
  8
0
 10
1.59172162
 20
1.69821695
  0
VERTEX
  8
0
 10
1.55960623
 20
1.70796666
  0
VERTEX
  8
0
 10
1.52804190
 20
1.69491896
  0
SEQEND
  0
POLYLINE
  8
color#fffefeff
 66
   1
 39
0.000000
 70
    1
  0
VERTEX
  8
0
 10
4.57270361
 20
1.41504678
  0
VERTEX
  8
0
 10
4.84721199
 20
1.08722602
  0
VERTEX
  8
0
 10
4.94242959
 20
1.16633119
  0
VERTEX
  8
0
 10
4.87845293
 20
1.24726540
  0
VERTEX
  8
0
 10
4.81798242
 20
1.33061818
  0
VERTEX
  8
0
 10
4.86093276
 20
1.35397640
  0
VERTEX
  8
0
 10
4.90553814
 20
1.33153048
  0
VERTEX
  8
0
 10
4.94118898
 20
1.29631735
  0
VERTEX
  8
0
 10
5.01413327
 20
1.22657530
  0
VERTEX
  8
0
 10
5.12112135
 20
1.31430868
  0
VERTEX
  8
0
 10
5.05132972
 20
1.36386074
  0
VERTEX
  8
0
 10
4.98528311
 20
1.41862543
  0
VERTEX
  8
0
 10
4.94742780
 20
1.42495727
  0
VERTEX
  8
0
 10
4.90851525
 20
1.41811453
  0
VERTEX
  8
0
 10
4.93310800
 20
1.47320327
  0
VERTEX
  8
0
 10
4.92130071
 20
1.53100733
  0
VERTEX
  8
0
 10
4.88165177
 20
1.57414990
  0
VERTEX
  8
0
 10
4.82271955
 20
1.58525420
  0
VERTEX
  8
0
 10
4.75156196
 20
1.55899097
  0
VERTEX
  8
0
 10
4.68983699
 20
1.51462544
  0
VERTEX
  8
0
 10
4.57270361
 20
1.41504678
  0
SEQEND
  0
POLYLINE
  8
color#fffefeff
 66
   1
 39
0.000000
 70
    1
  0
VERTEX
  8
0
 10
1.57029714
 20
1.37595007
  0
VERTEX
  8
0
 10
1.60365659
 20
1.29752519
  0
VERTEX
  8
0
 10
1.62854959
 20
1.21698344
  0
VERTEX
  8
0
 10
1.61482729
 20
1.19036287
  0
VERTEX
  8
0
 10
1.59391779
 20
1.17785047
  0
VERTEX
  8
0
 10
1.54297569
 20
1.18659120
  0
VERTEX
  8
0
 10
1.50060026
 20
1.22608763
  0
VERTEX
  8
0
 10
1.49166850
 20
1.27922179
  0
VERTEX
  8
0
 10
1.51484236
 20
1.31778987
  0
VERTEX
  8
0
 10
1.53708993
 20
1.35526294
  0
VERTEX
  8
0
 10
1.48684678
 20
1.37713484
  0
VERTEX
  8
0
 10
1.44489644
 20
1.31234749
  0
VERTEX
  8
0
 10
1.43917983
 20
1.27497513
  0
VERTEX
  8
0
 10
1.44977453
 20
1.23754625
  0
VERTEX
  8
0
 10
1.48552677
 20
1.18665077
  0
VERTEX
  8
0
 10
1.53296659
 20
1.14481464
  0
VERTEX
  8
0
 10
1.58919207
 20
1.11886107
  0
VERTEX
  8
0
 10
1.65130127
 20
1.11561328
  0
VERTEX
  8
0
 10
1.69898681
 20
1.13758193
  0
VERTEX
  8
0
 10
1.73360928
 20
1.17623796
  0
VERTEX
  8
0
 10
1.75259931
 20
1.22508909
  0
VERTEX
  8
0
 10
1.75338750
 20
1.27764302
  0
VERTEX
  8
0
 10
1.70576188
 20
1.38265128
  0
VERTEX
  8
0
 10
1.68573208
 20
1.43523024
  0
VERTEX
  8
0
 10
1.68835791
 20
1.49219296
  0
VERTEX
  8
0
 10
1.72703493
 20
1.49737505
  0
VERTEX
  8
0
 10
1.76285645
 20
1.48447753
  0
VERTEX
  8
0
 10
1.81066752
 20
1.42448826
  0
VERTEX
  8
0
 10
1.80342366
 20
1.37799365
  0
VERTEX
  8
0
 10
1.77694074
 20
1.33702500
  0
VERTEX
  8
0
 10
1.80405794
 20
1.32082253
  0
VERTEX
  8
0
 10
1.83235577
 20
1.31834965
  0
VERTEX
  8
0
 10
1.86009083
 20
1.39564656
  0
VERTEX
  8
0
 10
1.85320223
 20
1.43642450
  0
VERTEX
  8
0
 10
1.83131073
 20
1.47178442
  0
VERTEX
  8
0
 10
1.77601829
 20
1.52033574
  0
VERTEX
  8
0
 10
1.70827824
 20
1.54673490
  0
VERTEX
  8
0
 10
1.64479176
 20
1.53837978
  0
VERTEX
  8
0
 10
1.59478804
 20
1.49845362
  0
VERTEX
  8
0
 10
1.56703415
 20
1.43997189
  0
VERTEX
  8
0
 10
1.57029714
 20
1.37595007
  0
SEQEND
  0
POLYLINE
  8
color#fffefeff
 66
   1
 39
0.000000
 70
    1
  0
VERTEX
  8
0
 10
4.43843991
 20
1.32266391
  0
VERTEX
  8
0
 10
4.37862376
 20
1.29626042
  0
VERTEX
  8
0
 10
4.32580341
 20
1.25607148
  0
VERTEX
  8
0
 10
4.28884756
 20
1.20321679
  0
VERTEX
  8
0
 10
4.27662496
 20
1.13881604
  0
VERTEX
  8
0
 10
4.29253845
 20
1.06838437
  0
VERTEX
  8
0
 10
4.32392009
 20
1.00288025
  0
VERTEX
  8
0
 10
4.36836976
 20
0.94528691
  0
VERTEX
  8
0
 10
4.42348734
 20
0.89858757
  0
VERTEX
  8
0
 10
4.49877089
 20
0.87893217
  0
VERTEX
  8
0
 10
4.57420481
 20
0.89582309
  0
VERTEX
  8
0
 10
4.64051445
 20
0.93971202
  0
VERTEX
  8
0
 10
4.68842512
 20
1.00105067
  0
VERTEX
  8
0
 10
4.69941808
 20
1.06418668
  0
VERTEX
  8
0
 10
4.68848759
 20
1.12696712
  0
VERTEX
  8
0
 10
4.62662085
 20
1.24006884
  0
VERTEX
  8
0
 10
4.54495914
 20
1.31284757
  0
VERTEX
  8
0
 10
4.49319907
 20
1.32852197
  0
VERTEX
  8
0
 10
4.43843991
 20
1.32266391
  0
SEQEND
  0
POLYLINE
  8
color#fffefeff
 66
   1
 39
0.000000
 70
    1
  0
VERTEX
  8
0
 10
2.11695080
 20
1.26277887
  0
VERTEX
  8
0
 10
1.93748942
 20
0.95201181
  0
VERTEX
  8
0
 10
1.91384394
 20
0.93414734
  0
VERTEX
  8
0
 10
1.88338776
 20
0.93973096
  0
VERTEX
  8
0
 10
1.89969271
 20
1.00659305
  0
VERTEX
  8
0
 10
1.94386970
 20
1.06024407
  0
VERTEX
  8
0
 10
1.89701748
 20
1.07741009
  0
VERTEX
  8
0
 10
1.84376132
 20
1.00395968
  0
VERTEX
  8
0
 10
1.84969833
 20
0.94682169
  0
VERTEX
  8
0
 10
1.88135353
 20
0.89867782
  0
VERTEX
  8
0
 10
1.93012315
 20
0.86838150
  0
VERTEX
  8
0
 10
1.98740339
 20
0.86478618
  0
VERTEX
  8
0
 10
2.04287983
 20
0.89649655
  0
VERTEX
  8
0
 10
2.08345700
 20
0.94735965
  0
VERTEX
  8
0
 10
2.23125362
 20
1.19960890
  0
VERTEX
  8
0
 10
2.11695080
 20
1.26277887
  0
SEQEND
  0
POLYLINE
  8
color#fffefeff
 66
   1
 39
0.000000
 70
    1
  0
VERTEX
  8
0
 10
2.27307915
 20
1.17934014
  0
VERTEX
  8
0
 10
2.17813970
 20
0.91919895
  0
VERTEX
  8
0
 10
2.16203676
 20
0.85118507
  0
VERTEX
  8
0
 10
2.17723458
 20
0.78430667
  0
VERTEX
  8
0
 10
2.25821997
 20
0.71812324
  0
VERTEX
  8
0
 10
2.36118027
 20
0.69665381
  0
VERTEX
  8
0
 10
2.40049007
 20
0.70217921
  0
VERTEX
  8
0
 10
2.43475041
 20
0.72156705
  0
VERTEX
  8
0
 10
2.47994398
 20
0.78619628
  0
VERTEX
  8
0
 10
2.57572714
 20
1.04811795
  0
VERTEX
  8
0
 10
2.57862109
 20
1.06327611
  0
VERTEX
  8
0
 10
2.56893885
 20
1.07193955
  0
VERTEX
  8
0
 10
2.53873780
 20
1.08142436
  0
VERTEX
  8
0
 10
2.44049487
 20
0.80904283
  0
VERTEX
  8
0
 10
2.41193614
 20
0.75952206
  0
VERTEX
  8
0
 10
2.36072599
 20
0.73878078
  0
VERTEX
  8
0
 10
2.31648992
 20
0.75017242
  0
VERTEX
  8
0
 10
2.28277767
 20
0.77889475
  0
VERTEX
  8
0
 10
2.29045819
 20
0.85300801
  0
VERTEX
  8
0
 10
2.31631653
 20
0.92393089
  0
VERTEX
  8
0
 10
2.39488659
 20
1.13136836
  0
VERTEX
  8
0
 10
2.27307915
 20
1.17934014
  0
SEQEND
  0
POLYLINE
  8
color#fffefeff
 66
   1
 39
0.000000
 70
    1
  0
VERTEX
  8
0
 10
4.06179847
 20
1.12959485
  0
VERTEX
  8
0
 10
4.12276683
 20
0.97048271
  0
VERTEX
  8
0
 10
4.03599765
 20
0.93667630
  0
VERTEX
  8
0
 10
3.97475550
 20
1.09567455
  0
VERTEX
  8
0
 10
3.85184112
 20
1.04762557
  0
VERTEX
  8
0
 10
4.00459147
 20
0.65280920
  0
VERTEX
  8
0
 10
4.12295614
 20
0.69174795
  0
VERTEX
  8
0
 10
4.04998008
 20
0.89174767
  0
VERTEX
  8
0
 10
4.14146600
 20
0.92783262
  0
VERTEX
  8
0
 10
4.21771873
 20
0.72831442
  0
VERTEX
  8
0
 10
4.33356830
 20
0.77345371
  0
VERTEX
  8
0
 10
4.18384463
 20
1.17736407
  0
VERTEX
  8
0
 10
4.06179847
 20
1.12959485
  0
SEQEND
  0
POLYLINE
  8
color#fffefeff
 66
   1
 39
0.000000
 70
    1
  0
VERTEX
  8
0
 10
2.65871532
 20
1.00979556
  0
VERTEX
  8
0
 10
2.62124322
 20
0.97273757
  0
VERTEX
  8
0
 10
2.60272415
 20
0.92344988
  0
VERTEX
  8
0
 10
2.60395839
 20
0.87052370
  0
VERTEX
  8
0
 10
2.62574625
 20
0.82255029
  0
VERTEX
  8
0
 10
2.69020417
 20
0.76182724
  0
VERTEX
  8
0
 10
2.75543320
 20
0.70188634
  0
VERTEX
  8
0
 10
2.76091759
 20
0.66876820
  0
VERTEX
  8
0
 10
2.75370335
 20
0.63464767
  0
VERTEX
  8
0
 10
2.68743811
 20
0.62887481
  0
VERTEX
  8
0
 10
2.62629747
 20
0.65398983
  0
VERTEX
  8
0
 10
2.61169908
 20
0.68146860
  0
VERTEX
  8
0
 10
2.61026252
 20
0.71135358
  0
VERTEX
  8
0
 10
2.62579213
 20
0.77133133
  0
VERTEX
  8
0
 10
2.56354423
 20
0.77123508
  0
VERTEX
  8
0
 10
2.55317634
 20
0.71450797
  0
VERTEX
  8
0
 10
2.56667403
 20
0.65914619
  0
VERTEX
  8
0
 10
2.60570227
 20
0.62112795
  0
VERTEX
  8
0
 10
2.65455013
 20
0.59652632
  0
VERTEX
  8
0
 10
2.76292200
 20
0.58487673
  0
VERTEX
  8
0
 10
2.81705133
 20
0.60454042
  0
VERTEX
  8
0
 10
2.85711530
 20
0.64669187
  0
VERTEX
  8
0
 10
2.87621390
 20
0.70121293
  0
VERTEX
  8
0
 10
2.86744710
 20
0.75798545
  0
VERTEX
  8
0
 10
2.84140836
 20
0.80295722
  0
VERTEX
  8
0
 10
2.80463890
 20
0.83915386
  0
VERTEX
  8
0
 10
2.72117852
 20
0.90176673
  0
VERTEX
  8
0
 10
2.69742797
 20
0.93544212
  0
VERTEX
  8
0
 10
2.70320082
 20
0.97575386
  0
VERTEX
  8
0
 10
2.72929048
 20
0.99057953
  0
VERTEX
  8
0
 10
2.75916721
 20
0.99151153
  0
VERTEX
  8
0
 10
2.81685017
 20
0.97078191
  0
VERTEX
  8
0
 10
2.83761427
 20
0.95092819
  0
VERTEX
  8
0
 10
2.84410953
 20
0.92432731
  0
VERTEX
  8
0
 10
2.83544322
 20
0.86723948
  0
VERTEX
  8
0
 10
2.89640162
 20
0.86640615
  0
VERTEX
  8
0
 10
2.89795323
 20
0.92811908
  0
VERTEX
  8
0
 10
2.87092735
 20
0.98202882
  0
VERTEX
  8
0
 10
2.82318480
 20
1.01217020
  0
VERTEX
  8
0
 10
2.76845911
 20
1.02856715
  0
VERTEX
  8
0
 10
2.71191453
 20
1.02863663
  0
VERTEX
  8
0
 10
2.65871532
 20
1.00979556
  0
SEQEND
  0
POLYLINE
  8
color#fffefeff
 66
   1
 39
0.000000
 70
    1
  0
VERTEX
  8
0
 10
3.52013896
 20
0.99078365
  0
VERTEX
  8
0
 10
3.43521843
 20
0.54527835
  0
VERTEX
  8
0
 10
3.48861752
 20
0.55211137
  0
VERTEX
  8
0
 10
3.50581721
 20
0.64559427
  0
VERTEX
  8
0
 10
3.62918068
 20
0.65974738
  0
VERTEX
  8
0
 10
3.66270111
 20
0.57257863
  0
VERTEX
  8
0
 10
3.79035037
 20
0.58244083
  0
VERTEX
  8
0
 10
3.62714507
 20
0.99816383
  0
VERTEX
  8
0
 10
3.52013896
 20
0.99078365
  0
SEQEND
  0
POLYLINE
  8
color#fffefeff
 66
   1
 39
0.000000
 70
    1
  0
VERTEX
  8
0
 10
2.93810237
 20
0.99180652
  0
VERTEX
  8
0
 10
2.93863221
 20
0.94168335
  0
VERTEX
  8
0
 10
3.04057543
 20
0.93691465
  0
VERTEX
  8
0
 10
3.01778395
 20
0.55078525
  0
VERTEX
  8
0
 10
3.14865485
 20
0.54314572
  0
VERTEX
  8
0
 10
3.17619196
 20
0.92536204
  0
VERTEX
  8
0
 10
3.28413407
 20
0.92098643
  0
VERTEX
  8
0
 10
3.28392097
 20
0.96599967
  0
VERTEX
  8
0
 10
2.93810237
 20
0.99180652
  0
SEQEND
  0
POLYLINE
  8
color#020202ff
 66
   1
 39
0.000000
 70
    1
  0
VERTEX
  8
0
 10
1.31455783
 20
5.06227790
  0
VERTEX
  8
0
 10
1.30021750
 20
5.02828326
  0
VERTEX
  8
0
 10
1.38172651
 20
4.91489209
  0
VERTEX
  8
0
 10
1.48618982
 20
4.82031716
  0
VERTEX
  8
0
 10
1.52496763
 20
4.79391612
  0
VERTEX
  8
0
 10
1.56862205
 20
4.79170610
  0
VERTEX
  8
0
 10
1.59410967
 20
4.82741429
  0
VERTEX
  8
0
 10
1.58160143
 20
4.87210430
  0
VERTEX
  8
0
 10
1.43019697
 20
5.02811571
  0
VERTEX
  8
0
 10
1.37614449
 20
5.06579647
  0
VERTEX
  8
0
 10
1.34570076
 20
5.07267500
  0
VERTEX
  8
0
 10
1.31455783
 20
5.06227790
  0
SEQEND
  0
POLYLINE
  8
color#020202ff
 66
   1
 39
0.000000
 70
    1
  0
VERTEX
  8
0
 10
0.99221469
 20
4.62678709
  0
VERTEX
  8
0
 10
1.29056534
 20
4.43553508
  0
VERTEX
  8
0
 10
1.31197092
 20
4.47670135
  0
VERTEX
  8
0
 10
1.31156656
 20
4.52179267
  0
VERTEX
  8
0
 10
1.26722281
 20
4.57397451
  0
VERTEX
  8
0
 10
1.21138518
 20
4.61463352
  0
VERTEX
  8
0
 10
1.14337477
 20
4.65601778
  0
VERTEX
  8
0
 10
1.06959991
 20
4.68484241
  0
VERTEX
  8
0
 10
1.04321125
 20
4.68350610
  0
VERTEX
  8
0
 10
1.02212236
 20
4.66990112
  0
VERTEX
  8
0
 10
0.99221469
 20
4.62678709
  0
SEQEND
  0
POLYLINE
  8
color#020202ff
 66
   1
 39
0.000000
 70
    1
  0
VERTEX
  8
0
 10
5.78511914
 20
3.57239375
  0
VERTEX
  8
0
 10
5.65582994
 20
3.55798756
  0
VERTEX
  8
0
 10
5.53070306
 20
3.52491234
  0
VERTEX
  8
0
 10
5.51141340
 20
3.50850730
  0
VERTEX
  8
0
 10
5.50644886
 20
3.48620463
  0
VERTEX
  8
0
 10
5.52617627
 20
3.44138579
  0
VERTEX
  8
0
 10
5.63056128
 20
3.43832820
  0
VERTEX
  8
0
 10
5.73454441
 20
3.45203285
  0
VERTEX
  8
0
 10
5.80663235
 20
3.46715847
  0
VERTEX
  8
0
 10
5.87252985
 20
3.49901257
  0
VERTEX
  8
0
 10
5.86524307
 20
3.55856056
  0
VERTEX
  8
0
 10
5.78511914
 20
3.57239375
  0
SEQEND
  0
POLYLINE
  8
color#020202ff
 66
   1
 39
0.000000
 70
    1
  0
VERTEX
  8
0
 10
4.69683685
 20
1.46222386
  0
VERTEX
  8
0
 10
4.79087669
 20
1.35204685
  0
VERTEX
  8
0
 10
4.84076353
 20
1.41650329
  0
VERTEX
  8
0
 10
4.81658146
 20
1.46340494
  0
VERTEX
  8
0
 10
4.77688936
 20
1.49621108
  0
VERTEX
  8
0
 10
4.73308736
 20
1.48927830
  0
VERTEX
  8
0
 10
4.69683685
 20
1.46222386
  0
SEQEND
  0
POLYLINE
  8
color#020202ff
 66
   1
 39
0.000000
 70
    1
  0
VERTEX
  8
0
 10
4.39198647
 20
1.26106649
  0
VERTEX
  8
0
 10
4.37248981
 20
1.23313930
  0
VERTEX
  8
0
 10
4.37545438
 20
1.19850429
  0
VERTEX
  8
0
 10
4.46954801
 20
1.02287908
  0
VERTEX
  8
0
 10
4.50118105
 20
0.97778147
  0
VERTEX
  8
0
 10
4.54133100
 20
0.94066828
  0
VERTEX
  8
0
 10
4.56844601
 20
0.93679290
  0
VERTEX
  8
0
 10
4.59188189
 20
0.94926983
  0
VERTEX
  8
0
 10
4.60550734
 20
0.97210959
  0
VERTEX
  8
0
 10
4.60319105
 20
0.99932272
  0
VERTEX
  8
0
 10
4.55005281
 20
1.11370111
  0
VERTEX
  8
0
 10
4.48148316
 20
1.22008781
  0
VERTEX
  8
0
 10
4.44299010
 20
1.26012561
  0
VERTEX
  8
0
 10
4.41809648
 20
1.26866611
  0
VERTEX
  8
0
 10
4.39198647
 20
1.26106649
  0
SEQEND
  0
POLYLINE
  8
color#020202ff
 66
   1
 39
0.000000
 70
    1
  0
VERTEX
  8
0
 10
3.51516520
 20
0.69536218
  0
VERTEX
  8
0
 10
3.61023935
 20
0.70438889
  0
VERTEX
  8
0
 10
3.55070160
 20
0.87774374
  0
VERTEX
  8
0
 10
3.51516520
 20
0.69536218
  0
SEQEND
  0
POLYLINE
  8
color#fcfcfcff
 66
   1
 39
0.000000
 70
    1
  0
VERTEX
  8
0
 10
5.27838618
 20
4.47749544
  0
VERTEX
  8
0
 10
5.44406651
 20
4.52124180
  0
VERTEX
  8
0
 10
5.38815377
 20
4.45345822
  0
VERTEX
  8
0
 10
5.32503194
 20
4.39121824
  0
VERTEX
  8
0
 10
5.27838618
 20
4.47749544
  0
SEQEND
  0
POLYLINE
  8
color#fefefeff
 66
   1
 39
0.000000
 70
    1
  0
VERTEX
  8
0
 10
4.73341479
 20
3.43873931
  0
VERTEX
  8
0
 10
4.78374646
 20
3.32796405
  0
VERTEX
  8
0
 10
4.80960835
 20
3.20856975
  0
VERTEX
  8
0
 10
4.82917953
 20
2.98489500
  0
VERTEX
  8
0
 10
4.81654508
 20
2.76110474
  0
VERTEX
  8
0
 10
4.86193467
 20
2.82193896
  0
VERTEX
  8
0
 10
4.90482497
 20
2.64735981
  0
VERTEX
  8
0
 10
4.92806769
 20
2.56088642
  0
VERTEX
  8
0
 10
4.97007690
 20
2.48113587
  0
VERTEX
  8
0
 10
4.95438150
 20
2.54185883
  0
VERTEX
  8
0
 10
4.97265570
 20
2.60135062
  0
VERTEX
  8
0
 10
5.11195541
 20
2.44226239
  0
VERTEX
  8
0
 10
5.11690873
 20
2.42881456
  0
VERTEX
  8
0
 10
5.09838594
 20
2.38582712
  0
VERTEX
  8
0
 10
5.00432014
 20
2.20469416
  0
VERTEX
  8
0
 10
4.98004287
 20
2.16122101
  0
VERTEX
  8
0
 10
4.93615163
 20
2.09699607
  0
VERTEX
  8
0
 10
4.92686875
 20
2.10860776
  0
VERTEX
  8
0
 10
4.77686323
 20
2.59810038
  0
VERTEX
  8
0
 10
4.76009365
 20
2.63084373
  0
VERTEX
  8
0
 10
4.73190225
 20
2.65418275
  0
VERTEX
  8
0
 10
4.67548552
 20
2.70248606
  0
VERTEX
  8
0
 10
4.62107662
 20
2.81112497
  0
VERTEX
  8
0
 10
4.59296168
 20
2.92941829
  0
VERTEX
  8
0
 10
4.61870311
 20
3.00572432
  0
VERTEX
  8
0
 10
4.66283805
 20
3.07444435
  0
VERTEX
  8
0
 10
4.70621983
 20
3.14347510
  0
VERTEX
  8
0
 10
4.72970180
 20
3.22071331
  0
VERTEX
  8
0
 10
4.73341479
 20
3.43873931
  0
SEQEND
  0
POLYLINE
  8
color#fff8f8ff
 66
   1
 39
0.000000
 70
    1
  0
VERTEX
  8
0
 10
5.26058682
 20
3.05853276
  0
VERTEX
  8
0
 10
5.26956384
 20
3.05236021
  0
VERTEX
  8
0
 10
5.24071295
 20
2.85223663
  0
VERTEX
  8
0
 10
5.19255409
 20
2.93612873
  0
VERTEX
  8
0
 10
5.12368170
 20
3.00332565
  0
VERTEX
  8
0
 10
5.19574628
 20
3.02263211
  0
VERTEX
  8
0
 10
5.26058682
 20
3.05853276
  0
SEQEND
  0
ENDSEC
  0
EOF
