0
SECTION
2
HEADER
9
$ACADVER
1
AC1003
9
$INSBASE
10
0.0
20
0.0
30
0.0
9
$EXTMIN
10
0.000
20
0.000
30
0.0
9
$EXTMAX
10
747.000
20
770.000
30
0.0
9
$LIMMIN
10
0.000
20
0.000
9
$LIMMAX
10
747.000
20
770.000
9
$LTSCALE
40
1.0
9
$LUNITS
70
2
9
$LUPREC
70
3
9
$LIMCHECK
70
0
9
$UCSNAME
2

9
$UCSORG
10
0.0
20
0.0
30
0.0
9
$UCSXDIR
10
1.0
20
0.0
30
0.0
9
$UCSYDIR
10
0.0
20
1.0
30
0.0
9
$WORLDVIEW
70
1
9
$UNITMODE
70
0
0
ENDSEC
0
SECTION
2
TABLES
0
TABLE
2
VPORT
70
1
0
VPORT
2
*ACTIVE
70
0
10
0.0
20
0.0
11
1.0
21
1.0
12
373.500
22
385.000
13
0.0
23
0.0
14
1.0
24
1.0
15
0.0
25
0.0
16
0.0
26
0.0
36
1.0
17
0.0
27
0.0
37
0.0
40
500.0
41
1.031
42
50.0
43
0.0
44
0.0
50
0.0
51
0.0
71
0
72
100
73
1
74
1
75
0
76
0
77
0
78
0
0
ENDTAB
0
TABLE
2
LTYPE
70
1
0
LTYPE
2
CONTINUOUS
70
64
3
Solid line
72
65
73
0
40
0.000
0
ENDTAB
0
TABLE
2
LAYER
70
1
0
LAYER
2
0
70
64
62
7
6
CONTINUOUS
0
ENDTAB
0
ENDSEC
0
SECTION
2
BLOCKS
0
ENDSEC
0
SECTION
2
ENTITIES
0
POLYLINE
8
0
6
CONTINUOUS
66
1
62
7
10
0.0
20
0.0
30
0.000000
0
VERTEX
8
0
10
358.000000
20
711.000000
0
VERTEX
8
0
10
356.000000
20
712.000000
0
SEQEND
0
POLYLINE
8
0
6
CONTINUOUS
66
1
62
7
10
0.0
20
0.0
30
0.000000
0
VERTEX
8
0
10
259.000000
20
594.000000
0
VERTEX
8
0
10
259.000000
20
596.000000
0
SEQEND
0
POLYLINE
8
0
6
CONTINUOUS
66
1
62
7
10
0.0
20
0.0
30
0.000000
0
VERTEX
8
0
10
239.000000
20
475.000000
0
VERTEX
8
0
10
239.000000
20
483.000000
0
SEQEND
0
POLYLINE
8
0
6
CONTINUOUS
66
1
62
7
10
0.0
20
0.0
30
0.000000
0
VERTEX
8
0
10
237.000000
20
469.000000
0
VERTEX
8
0
10
237.000000
20
474.000000
0
VERTEX
8
0
10
239.000000
20
475.000000
0
SEQEND
0
POLYLINE
8
0
6
CONTINUOUS
66
1
62
7
10
0.0
20
0.0
30
0.000000
0
VERTEX
8
0
10
238.000000
20
468.000000
0
VERTEX
8
0
10
237.000000
20
469.000000
0
SEQEND
0
POLYLINE
8
0
6
CONTINUOUS
66
1
62
7
10
0.0
20
0.0
30
0.000000
0
VERTEX
8
0
10
238.000000
20
468.000000
0
VERTEX
8
0
10
239.000000
20
475.000000
0
SEQEND
0
POLYLINE
8
0
6
CONTINUOUS
66
1
62
7
10
0.0
20
0.0
30
0.000000
0
VERTEX
8
0
10
687.000000
20
466.000000
0
VERTEX
8
0
10
687.000000
20
468.000000
0
SEQEND
0
POLYLINE
8
0
6
CONTINUOUS
66
1
62
7
10
0.0
20
0.0
30
0.000000
0
VERTEX
8
0
10
184.000000
20
446.000000
0
VERTEX
8
0
10
184.000000
20
460.000000
0
SEQEND
0
POLYLINE
8
0
6
CONTINUOUS
66
1
62
7
10
0.0
20
0.0
30
0.000000
0
VERTEX
8
0
10
358.000000
20
711.000000
0
VERTEX
8
0
10
382.900000
20
698.800000
0
VERTEX
8
0
10
386.000000
20
697.000000
0
VERTEX
8
0
10
388.000000
20
699.000000
0
VERTEX
8
0
10
388.000000
20
702.000000
0
VERTEX
8
0
10
381.000000
20
712.000000
0
VERTEX
8
0
10
365.000000
20
728.000000
0
VERTEX
8
0
10
355.900000
20
731.700000
0
VERTEX
8
0
10
354.100000
20
732.300000
0
VERTEX
8
0
10
334.000000
20
736.000000
0
VERTEX
8
0
10
328.000000
20
736.000000
0
VERTEX
8
0
10
303.100000
20
730.700000
0
VERTEX
8
0
10
297.100000
20
728.700000
0
VERTEX
8
0
10
275.900000
20
720.200000
0
VERTEX
8
0
10
273.000000
20
719.000000
0
VERTEX
8
0
10
265.000000
20
711.000000
0
VERTEX
8
0
10
262.200000
20
705.900000
0
VERTEX
8
0
10
259.352941
20
698.911765
0
VERTEX
8
0
10
252.405405
20
652.932432
0
VERTEX
8
0
10
249.580000
20
634.060000
0
VERTEX
8
0
10
237.594595
20
565.067568
0
VERTEX
8
0
10
235.405405
20
553.932432
0
VERTEX
8
0
10
217.000000
20
445.000000
0
VERTEX
8
0
10
218.000000
20
444.000000
0
VERTEX
8
0
10
222.000000
20
447.000000
0
VERTEX
8
0
10
223.600000
20
450.200000
0
VERTEX
8
0
10
234.700000
20
486.100000
0
VERTEX
8
0
10
259.000000
20
594.000000
0
SEQEND
0
POLYLINE
8
0
6
CONTINUOUS
66
1
62
7
10
0.0
20
0.0
30
0.000000
0
VERTEX
8
0
10
142.000000
20
422.000000
0
VERTEX
8
0
10
142.000000
20
426.000000
0
SEQEND
0
POLYLINE
8
0
6
CONTINUOUS
66
1
62
7
10
0.0
20
0.0
30
0.000000
0
VERTEX
8
0
10
342.000000
20
421.000000
0
VERTEX
8
0
10
342.000000
20
424.000000
0
SEQEND
0
POLYLINE
8
0
6
CONTINUOUS
66
1
62
7
10
0.0
20
0.0
30
0.000000
0
VERTEX
8
0
10
202.000000
20
418.000000
0
VERTEX
8
0
10
201.000000
20
418.000000
0
SEQEND
0
POLYLINE
8
0
6
CONTINUOUS
66
1
62
7
10
0.0
20
0.0
30
0.000000
0
VERTEX
8
0
10
202.000000
20
418.000000
0
VERTEX
8
0
10
203.000000
20
419.000000
0
VERTEX
8
0
10
203.000000
20
421.000000
0
VERTEX
8
0
10
202.000000
20
422.000000
0
VERTEX
8
0
10
201.000000
20
421.000000
0
VERTEX
8
0
10
201.000000
20
418.000000
0
SEQEND
0
POLYLINE
8
0
6
CONTINUOUS
66
1
62
7
10
0.0
20
0.0
30
0.000000
0
VERTEX
8
0
10
340.000000
20
418.000000
0
VERTEX
8
0
10
340.000000
20
419.000000
0
VERTEX
8
0
10
341.000000
20
421.000000
0
VERTEX
8
0
10
342.000000
20
421.000000
0
SEQEND
0
POLYLINE
8
0
6
CONTINUOUS
66
1
62
7
10
0.0
20
0.0
30
0.000000
0
VERTEX
8
0
10
341.000000
20
418.000000
0
VERTEX
8
0
10
340.000000
20
418.000000
0
SEQEND
0
POLYLINE
8
0
6
CONTINUOUS
66
1
62
7
10
0.0
20
0.0
30
0.000000
0
VERTEX
8
0
10
341.000000
20
418.000000
0
VERTEX
8
0
10
342.000000
20
421.000000
0
SEQEND
0
POLYLINE
8
0
6
CONTINUOUS
66
1
62
7
10
0.0
20
0.0
30
0.000000
0
VERTEX
8
0
10
650.000000
20
400.000000
0
VERTEX
8
0
10
651.000000
20
409.000000
0
SEQEND
0
POLYLINE
8
0
6
CONTINUOUS
66
1
62
7
10
0.0
20
0.0
30
0.000000
0
VERTEX
8
0
10
94.000000
20
398.000000
0
VERTEX
8
0
10
94.000000
20
399.000000
0
SEQEND
0
POLYLINE
8
0
6
CONTINUOUS
66
1
62
7
10
0.0
20
0.0
30
0.000000
0
VERTEX
8
0
10
153.000000
20
397.000000
0
VERTEX
8
0
10
153.000000
20
399.000000
0
SEQEND
0
POLYLINE
8
0
6
CONTINUOUS
66
1
62
7
10
0.0
20
0.0
30
0.000000
0
VERTEX
8
0
10
648.000000
20
396.000000
0
VERTEX
8
0
10
648.000000
20
397.000000
0
VERTEX
8
0
10
648.000000
20
399.000000
0
VERTEX
8
0
10
650.000000
20
400.000000
0
SEQEND
0
POLYLINE
8
0
6
CONTINUOUS
66
1
62
7
10
0.0
20
0.0
30
0.000000
0
VERTEX
8
0
10
649.000000
20
396.000000
0
VERTEX
8
0
10
648.000000
20
396.000000
0
SEQEND
0
POLYLINE
8
0
6
CONTINUOUS
66
1
62
7
10
0.0
20
0.0
30
0.000000
0
VERTEX
8
0
10
649.000000
20
396.000000
0
VERTEX
8
0
10
650.000000
20
400.000000
0
SEQEND
0
POLYLINE
8
0
6
CONTINUOUS
66
1
62
7
10
0.0
20
0.0
30
0.000000
0
VERTEX
8
0
10
95.000000
20
394.000000
0
VERTEX
8
0
10
95.000000
20
397.000000
0
VERTEX
8
0
10
94.000000
20
398.000000
0
SEQEND
0
POLYLINE
8
0
6
CONTINUOUS
66
1
62
7
10
0.0
20
0.0
30
0.000000
0
VERTEX
8
0
10
94.000000
20
393.000000
0
VERTEX
8
0
10
93.000000
20
394.000000
0
VERTEX
8
0
10
93.000000
20
397.000000
0
VERTEX
8
0
10
94.000000
20
398.000000
0
SEQEND
0
POLYLINE
8
0
6
CONTINUOUS
66
1
62
7
10
0.0
20
0.0
30
0.000000
0
VERTEX
8
0
10
94.000000
20
393.000000
0
VERTEX
8
0
10
95.000000
20
394.000000
0
SEQEND
0
POLYLINE
8
0
6
CONTINUOUS
66
1
62
7
10
0.0
20
0.0
30
0.000000
0
VERTEX
8
0
10
460.000000
20
387.000000
0
VERTEX
8
0
10
459.000000
20
387.000000
0
VERTEX
8
0
10
456.000000
20
390.000000
0
SEQEND
0
POLYLINE
8
0
6
CONTINUOUS
66
1
62
7
10
0.0
20
0.0
30
0.000000
0
VERTEX
8
0
10
149.000000
20
386.000000
0
VERTEX
8
0
10
142.000000
20
422.000000
0
SEQEND
0
POLYLINE
8
0
6
CONTINUOUS
66
1
62
7
10
0.0
20
0.0
30
0.000000
0
VERTEX
8
0
10
149.000000
20
386.000000
0
VERTEX
8
0
10
152.000000
20
397.000000
0
VERTEX
8
0
10
153.000000
20
397.000000
0
SEQEND
0
POLYLINE
8
0
6
CONTINUOUS
66
1
62
7
10
0.0
20
0.0
30
0.000000
0
VERTEX
8
0
10
149.000000
20
383.000000
0
VERTEX
8
0
10
149.000000
20
386.000000
0
SEQEND
0
POLYLINE
8
0
6
CONTINUOUS
66
1
62
7
10
0.0
20
0.0
30
0.000000
0
VERTEX
8
0
10
239.000000
20
383.000000
0
VERTEX
8
0
10
239.000000
20
386.000000
0
SEQEND
0
POLYLINE
8
0
6
CONTINUOUS
66
1
62
7
10
0.0
20
0.0
30
0.000000
0
VERTEX
8
0
10
189.000000
20
374.000000
0
VERTEX
8
0
10
188.352941
20
375.088235
0
VERTEX
8
0
10
184.000000
20
446.000000
0
SEQEND
0
POLYLINE
8
0
6
CONTINUOUS
66
1
62
7
10
0.0
20
0.0
30
0.000000
0
VERTEX
8
0
10
189.000000
20
374.000000
0
VERTEX
8
0
10
201.000000
20
418.000000
0
SEQEND
0
POLYLINE
8
0
6
CONTINUOUS
66
1
62
7
10
0.0
20
0.0
30
0.000000
0
VERTEX
8
0
10
608.000000
20
371.000000
0
VERTEX
8
0
10
606.000000
20
372.000000
0
VERTEX
8
0
10
597.352941
20
399.088235
0
VERTEX
8
0
10
596.647059
20
401.911765
0
VERTEX
8
0
10
588.700000
20
424.900000
0
VERTEX
8
0
10
585.200000
20
432.100000
0
VERTEX
8
0
10
579.240000
20
442.180000
0
VERTEX
8
0
10
571.000000
20
453.000000
0
VERTEX
8
0
10
502.000000
20
522.000000
0
VERTEX
8
0
10
498.846154
20
523.769231
0
VERTEX
8
0
10
471.846154
20
540.769231
0
VERTEX
8
0
10
451.900000
20
549.800000
0
VERTEX
8
0
10
446.100000
20
552.200000
0
VERTEX
8
0
10
427.000000
20
557.000000
0
VERTEX
8
0
10
402.932432
20
554.405405
0
VERTEX
8
0
10
362.000000
20
546.000000
0
VERTEX
8
0
10
356.846154
20
548.769231
0
VERTEX
8
0
10
352.000000
20
553.000000
0
VERTEX
8
0
10
348.760000
20
557.820000
0
VERTEX
8
0
10
344.300000
20
565.100000
0
VERTEX
8
0
10
339.700000
20
578.900000
0
VERTEX
8
0
10
333.420000
20
613.060000
0
VERTEX
8
0
10
332.580000
20
618.940000
0
VERTEX
8
0
10
328.475113
20
658.022624
0
VERTEX
8
0
10
327.524887
20
677.977376
0
VERTEX
8
0
10
326.647059
20
681.911765
0
VERTEX
8
0
10
325.384615
20
688.076923
0
VERTEX
8
0
10
324.000000
20
697.000000
0
VERTEX
8
0
10
327.000000
20
702.000000
0
VERTEX
8
0
10
334.000000
20
702.000000
0
VERTEX
8
0
10
338.900000
20
699.700000
0
VERTEX
8
0
10
345.100000
20
697.200000
0
VERTEX
8
0
10
363.000000
20
688.000000
0
VERTEX
8
0
10
382.000000
20
667.000000
0
VERTEX
8
0
10
385.000000
20
666.000000
0
VERTEX
8
0
10
386.000000
20
667.000000
0
VERTEX
8
0
10
382.200000
20
677.100000
0
VERTEX
8
0
10
372.760000
20
690.820000
0
VERTEX
8
0
10
370.240000
20
694.180000
0
VERTEX
8
0
10
358.000000
20
710.000000
0
VERTEX
8
0
10
358.000000
20
711.000000
0
SEQEND
0
POLYLINE
8
0
6
CONTINUOUS
66
1
62
7
10
0.0
20
0.0
30
0.000000
0
VERTEX
8
0
10
296.000000
20
370.000000
0
VERTEX
8
0
10
297.000000
20
375.000000
0
SEQEND
0
POLYLINE
8
0
6
CONTINUOUS
66
1
62
7
10
0.0
20
0.0
30
0.000000
0
VERTEX
8
0
10
424.000000
20
370.000000
0
VERTEX
8
0
10
425.053846
20
370.569231
0
VERTEX
8
0
10
437.000000
20
372.000000
0
VERTEX
8
0
10
439.000000
20
374.000000
0
VERTEX
8
0
10
438.000000
20
377.000000
0
VERTEX
8
0
10
402.000000
20
411.000000
0
VERTEX
8
0
10
401.000000
20
410.000000
0
VERTEX
8
0
10
406.700000
20
387.900000
0
VERTEX
8
0
10
408.700000
20
381.900000
0
VERTEX
8
0
10
411.000000
20
373.000000
0
VERTEX
8
0
10
413.000000
20
371.000000
0
VERTEX
8
0
10
417.053846
20
370.430769
0
VERTEX
8
0
10
424.000000
20
370.000000
0
SEQEND
0
POLYLINE
8
0
6
CONTINUOUS
66
1
62
7
10
0.0
20
0.0
30
0.000000
0
VERTEX
8
0
10
188.000000
20
369.000000
0
VERTEX
8
0
10
189.000000
20
374.000000
0
SEQEND
0
POLYLINE
8
0
6
CONTINUOUS
66
1
62
7
10
0.0
20
0.0
30
0.000000
0
VERTEX
8
0
10
294.000000
20
368.000000
0
VERTEX
8
0
10
294.000000
20
369.000000
0
VERTEX
8
0
10
296.000000
20
370.000000
0
SEQEND
0
POLYLINE
8
0
6
CONTINUOUS
66
1
62
7
10
0.0
20
0.0
30
0.000000
0
VERTEX
8
0
10
295.000000
20
368.000000
0
VERTEX
8
0
10
294.000000
20
368.000000
0
SEQEND
0
POLYLINE
8
0
6
CONTINUOUS
66
1
62
7
10
0.0
20
0.0
30
0.000000
0
VERTEX
8
0
10
295.000000
20
368.000000
0
VERTEX
8
0
10
296.000000
20
370.000000
0
SEQEND
0
POLYLINE
8
0
6
CONTINUOUS
66
1
62
7
10
0.0
20
0.0
30
0.000000
0
VERTEX
8
0
10
293.000000
20
366.000000
0
VERTEX
8
0
10
294.000000
20
368.000000
0
SEQEND
0
POLYLINE
8
0
6
CONTINUOUS
66
1
62
7
10
0.0
20
0.0
30
0.000000
0
VERTEX
8
0
10
608.000000
20
366.000000
0
VERTEX
8
0
10
608.000000
20
371.000000
0
SEQEND
0
POLYLINE
8
0
6
CONTINUOUS
66
1
62
7
10
0.0
20
0.0
30
0.000000
0
VERTEX
8
0
10
294.000000
20
365.000000
0
VERTEX
8
0
10
293.000000
20
366.000000
0
SEQEND
0
POLYLINE
8
0
6
CONTINUOUS
66
1
62
7
10
0.0
20
0.0
30
0.000000
0
VERTEX
8
0
10
294.000000
20
365.000000
0
VERTEX
8
0
10
295.000000
20
368.000000
0
SEQEND
0
POLYLINE
8
0
6
CONTINUOUS
66
1
62
7
10
0.0
20
0.0
30
0.000000
0
VERTEX
8
0
10
160.000000
20
331.000000
0
VERTEX
8
0
10
158.000000
20
332.000000
0
VERTEX
8
0
10
153.476289
20
375.021649
0
VERTEX
8
0
10
153.000000
20
397.000000
0
SEQEND
0
POLYLINE
8
0
6
CONTINUOUS
66
1
62
7
10
0.0
20
0.0
30
0.000000
0
VERTEX
8
0
10
360.000000
20
325.000000
0
VERTEX
8
0
10
359.000000
20
326.000000
0
VERTEX
8
0
10
359.000000
20
329.000000
0
SEQEND
0
POLYLINE
8
0
6
CONTINUOUS
66
1
62
7
10
0.0
20
0.0
30
0.000000
0
VERTEX
8
0
10
360.000000
20
324.000000
0
VERTEX
8
0
10
360.000000
20
325.000000
0
SEQEND
0
POLYLINE
8
0
6
CONTINUOUS
66
1
62
7
10
0.0
20
0.0
30
0.000000
0
VERTEX
8
0
10
160.000000
20
323.000000
0
VERTEX
8
0
10
160.000000
20
331.000000
0
SEQEND
0
POLYLINE
8
0
6
CONTINUOUS
66
1
62
7
10
0.0
20
0.0
30
0.000000
0
VERTEX
8
0
10
118.000000
20
319.000000
0
VERTEX
8
0
10
95.000000
20
394.000000
0
SEQEND
0
POLYLINE
8
0
6
CONTINUOUS
66
1
62
7
10
0.0
20
0.0
30
0.000000
0
VERTEX
8
0
10
118.000000
20
316.000000
0
VERTEX
8
0
10
118.000000
20
319.000000
0
SEQEND
0
POLYLINE
8
0
6
CONTINUOUS
66
1
62
7
10
0.0
20
0.0
30
0.000000
0
VERTEX
8
0
10
167.000000
20
312.000000
0
VERTEX
8
0
10
164.420000
20
523.060000
0
VERTEX
8
0
10
163.580000
20
528.940000
0
VERTEX
8
0
10
160.700000
20
537.900000
0
VERTEX
8
0
10
160.000000
20
540.000000
0
VERTEX
8
0
10
159.000000
20
541.000000
0
VERTEX
8
0
10
157.000000
20
541.000000
0
VERTEX
8
0
10
154.800000
20
538.100000
0
VERTEX
8
0
10
152.000000
20
528.000000
0
VERTEX
8
0
10
152.000000
20
501.000000
0
VERTEX
8
0
10
155.445545
20
443.044554
0
VERTEX
8
0
10
157.300000
20
437.100000
0
VERTEX
8
0
10
158.300000
20
434.100000
0
VERTEX
8
0
10
159.505101
20
429.995001
0
VERTEX
8
0
10
160.000000
20
331.000000
0
SEQEND
0
POLYLINE
8
0
6
CONTINUOUS
66
1
62
7
10
0.0
20
0.0
30
0.000000
0
VERTEX
8
0
10
167.000000
20
312.000000
0
VERTEX
8
0
10
170.405405
20
327.932432
0
VERTEX
8
0
10
180.445545
20
424.955446
0
VERTEX
8
0
10
180.554455
20
426.044554
0
VERTEX
8
0
10
182.000000
20
445.000000
0
VERTEX
8
0
10
184.000000
20
446.000000
0
SEQEND
0
POLYLINE
8
0
6
CONTINUOUS
66
1
62
7
10
0.0
20
0.0
30
0.000000
0
VERTEX
8
0
10
166.000000
20
304.000000
0
VERTEX
8
0
10
167.000000
20
312.000000
0
SEQEND
0
POLYLINE
8
0
6
CONTINUOUS
66
1
62
7
10
0.0
20
0.0
30
0.000000
0
VERTEX
8
0
10
243.000000
20
304.000000
0
VERTEX
8
0
10
241.000000
20
305.000000
0
VERTEX
8
0
10
239.487196
20
343.012180
0
VERTEX
8
0
10
239.000000
20
383.000000
0
SEQEND
0
POLYLINE
8
0
6
CONTINUOUS
66
1
62
7
10
0.0
20
0.0
30
0.000000
0
VERTEX
8
0
10
151.000000
20
302.000000
0
VERTEX
8
0
10
151.000000
20
309.000000
0
SEQEND
0
POLYLINE
8
0
6
CONTINUOUS
66
1
62
7
10
0.0
20
0.0
30
0.000000
0
VERTEX
8
0
10
259.000000
20
594.000000
0
VERTEX
8
0
10
260.000000
20
593.000000
0
VERTEX
8
0
10
249.430769
20
504.946154
0
VERTEX
8
0
10
248.569231
20
498.053846
0
VERTEX
8
0
10
241.250000
20
436.250000
0
VERTEX
8
0
10
245.000000
20
436.000000
0
VERTEX
8
0
10
250.200000
20
441.900000
0
VERTEX
8
0
10
251.352941
20
445.911765
0
VERTEX
8
0
10
256.594595
20
472.067568
0
VERTEX
8
0
10
260.405405
20
494.932432
0
VERTEX
8
0
10
275.615385
20
589.076923
0
VERTEX
8
0
10
278.384615
20
602.923077
0
VERTEX
8
0
10
287.000000
20
646.000000
0
VERTEX
8
0
10
290.000000
20
646.000000
0
VERTEX
8
0
10
291.000000
20
645.000000
0
VERTEX
8
0
10
290.466926
20
616.970817
0
VERTEX
8
0
10
289.466926
20
600.970817
0
VERTEX
8
0
10
285.000000
20
545.000000
0
VERTEX
8
0
10
289.647059
20
520.911765
0
VERTEX
8
0
10
295.200000
20
503.100000
0
VERTEX
8
0
10
299.800000
20
493.900000
0
VERTEX
8
0
10
324.000000
20
456.000000
0
VERTEX
8
0
10
335.204918
20
446.245902
0
VERTEX
8
0
10
348.100000
20
437.300000
0
VERTEX
8
0
10
351.076923
20
436.384615
0
VERTEX
8
0
10
370.000000
20
432.000000
0
VERTEX
8
0
10
371.000000
20
431.000000
0
VERTEX
8
0
10
379.800000
20
415.900000
0
VERTEX
8
0
10
384.700000
20
402.900000
0
VERTEX
8
0
10
391.352941
20
378.088235
0
VERTEX
8
0
10
393.750000
20
367.250000
0
VERTEX
8
0
10
377.932432
20
367.594595
0
VERTEX
8
0
10
373.067568
20
368.405405
0
VERTEX
8
0
10
367.100000
20
371.200000
0
VERTEX
8
0
10
363.153846
20
373.230769
0
VERTEX
8
0
10
357.000000
20
377.000000
0
VERTEX
8
0
10
351.000000
20
375.000000
0
VERTEX
8
0
10
348.800000
20
372.100000
0
VERTEX
8
0
10
345.200000
20
365.900000
0
VERTEX
8
0
10
339.700000
20
351.100000
0
VERTEX
8
0
10
333.700000
20
331.100000
0
VERTEX
8
0
10
329.000000
20
317.000000
0
VERTEX
8
0
10
331.000000
20
316.000000
0
VERTEX
8
0
10
341.000000
20
324.000000
0
VERTEX
8
0
10
343.000000
20
324.000000
0
VERTEX
8
0
10
344.000000
20
323.000000
0
VERTEX
8
0
10
352.000000
20
303.000000
0
VERTEX
8
0
10
354.000000
20
301.000000
0
VERTEX
8
0
10
356.000000
20
303.000000
0
VERTEX
8
0
10
358.000000
20
323.000000
0
VERTEX
8
0
10
360.000000
20
324.000000
0
SEQEND
0
POLYLINE
8
0
6
CONTINUOUS
66
1
62
7
10
0.0
20
0.0
30
0.000000
0
VERTEX
8
0
10
242.000000
20
299.000000
0
VERTEX
8
0
10
243.000000
20
304.000000
0
SEQEND
0
POLYLINE
8
0
6
CONTINUOUS
66
1
62
7
10
0.0
20
0.0
30
0.000000
0
VERTEX
8
0
10
617.000000
20
282.000000
0
VERTEX
8
0
10
616.700000
20
283.900000
0
VERTEX
8
0
10
616.000000
20
285.000000
0
VERTEX
8
0
10
616.000000
20
294.000000
0
VERTEX
8
0
10
618.300000
20
299.900000
0
VERTEX
8
0
10
620.000000
20
305.000000
0
VERTEX
8
0
10
617.384615
20
319.076923
0
VERTEX
8
0
10
615.615385
20
327.923077
0
VERTEX
8
0
10
614.497059
20
335.002907
0
VERTEX
8
0
10
613.502941
20
504.997093
0
VERTEX
8
0
10
612.615385
20
509.923077
0
VERTEX
8
0
10
612.384615
20
511.076923
0
VERTEX
8
0
10
610.000000
20
524.000000
0
VERTEX
8
0
10
608.000000
20
526.000000
0
VERTEX
8
0
10
605.000000
20
526.000000
0
VERTEX
8
0
10
603.000000
20
524.000000
0
VERTEX
8
0
10
601.405405
20
518.932432
0
VERTEX
8
0
10
600.594595
20
514.067568
0
VERTEX
8
0
10
600.000000
20
513.000000
0
VERTEX
8
0
10
600.000000
20
497.000000
0
VERTEX
8
0
10
603.700000
20
428.900000
0
VERTEX
8
0
10
604.300000
20
427.100000
0
VERTEX
8
0
10
607.512485
20
411.988109
0
VERTEX
8
0
10
608.000000
20
371.000000
0
SEQEND
0
POLYLINE
8
0
6
CONTINUOUS
66
1
62
7
10
0.0
20
0.0
30
0.000000
0
VERTEX
8
0
10
618.000000
20
281.000000
0
VERTEX
8
0
10
617.000000
20
282.000000
0
SEQEND
0
POLYLINE
8
0
6
CONTINUOUS
66
1
62
7
10
0.0
20
0.0
30
0.000000
0
VERTEX
8
0
10
618.000000
20
281.000000
0
VERTEX
8
0
10
648.000000
20
396.000000
0
SEQEND
0
POLYLINE
8
0
6
CONTINUOUS
66
1
62
7
10
0.0
20
0.0
30
0.000000
0
VERTEX
8
0
10
131.000000
20
275.000000
0
VERTEX
8
0
10
129.660377
20
277.188679
0
VERTEX
8
0
10
128.594595
20
281.932432
0
VERTEX
8
0
10
124.554455
20
321.955446
0
VERTEX
8
0
10
123.554455
20
331.955446
0
VERTEX
8
0
10
106.352941
20
491.088235
0
VERTEX
8
0
10
100.000000
20
511.000000
0
VERTEX
8
0
10
99.000000
20
512.000000
0
VERTEX
8
0
10
96.000000
20
512.000000
0
VERTEX
8
0
10
95.000000
20
511.000000
0
VERTEX
8
0
10
93.000000
20
503.000000
0
VERTEX
8
0
10
93.000000
20
495.000000
0
VERTEX
8
0
10
96.430769
20
470.053846
0
VERTEX
8
0
10
99.430769
20
445.053846
0
VERTEX
8
0
10
110.405405
20
403.067568
0
VERTEX
8
0
10
110.554455
20
401.955446
0
VERTEX
8
0
10
119.000000
20
320.000000
0
VERTEX
8
0
10
118.000000
20
319.000000
0
SEQEND
0
POLYLINE
8
0
6
CONTINUOUS
66
1
62
7
10
0.0
20
0.0
30
0.000000
0
VERTEX
8
0
10
131.000000
20
275.000000
0
VERTEX
8
0
10
136.405405
20
302.932432
0
VERTEX
8
0
10
145.000000
20
356.000000
0
VERTEX
8
0
10
145.000000
20
373.000000
0
VERTEX
8
0
10
141.000000
20
421.000000
0
VERTEX
8
0
10
142.000000
20
422.000000
0
SEQEND
0
POLYLINE
8
0
6
CONTINUOUS
66
1
62
7
10
0.0
20
0.0
30
0.000000
0
VERTEX
8
0
10
131.000000
20
273.000000
0
VERTEX
8
0
10
131.000000
20
275.000000
0
SEQEND
0
POLYLINE
8
0
6
CONTINUOUS
66
1
62
7
10
0.0
20
0.0
30
0.000000
0
VERTEX
8
0
10
615.000000
20
270.000000
0
VERTEX
8
0
10
614.000000
20
271.000000
0
VERTEX
8
0
10
614.000000
20
280.000000
0
VERTEX
8
0
10
615.900000
20
281.200000
0
VERTEX
8
0
10
617.000000
20
282.000000
0
SEQEND
0
POLYLINE
8
0
6
CONTINUOUS
66
1
62
7
10
0.0
20
0.0
30
0.000000
0
VERTEX
8
0
10
615.000000
20
270.000000
0
VERTEX
8
0
10
617.647059
20
278.088235
0
VERTEX
8
0
10
618.000000
20
281.000000
0
SEQEND
0
POLYLINE
8
0
6
CONTINUOUS
66
1
62
7
10
0.0
20
0.0
30
0.000000
0
VERTEX
8
0
10
615.000000
20
267.000000
0
VERTEX
8
0
10
615.000000
20
270.000000
0
SEQEND
0
POLYLINE
8
0
6
CONTINUOUS
66
1
62
7
10
0.0
20
0.0
30
0.000000
0
VERTEX
8
0
10
242.000000
20
263.000000
0
VERTEX
8
0
10
242.384615
20
267.923077
0
VERTEX
8
0
10
270.580000
20
428.060000
0
VERTEX
8
0
10
271.594595
20
435.067568
0
VERTEX
8
0
10
276.384615
20
460.923077
0
VERTEX
8
0
10
277.000000
20
462.000000
0
VERTEX
8
0
10
277.000000
20
475.000000
0
VERTEX
8
0
10
276.000000
20
480.000000
0
VERTEX
8
0
10
274.100000
20
481.200000
0
VERTEX
8
0
10
273.000000
20
482.000000
0
VERTEX
8
0
10
272.000000
20
482.000000
0
VERTEX
8
0
10
267.800000
20
477.100000
0
VERTEX
8
0
10
264.405405
20
466.932432
0
VERTEX
8
0
10
258.594595
20
432.067568
0
VERTEX
8
0
10
256.486505
20
418.987197
0
VERTEX
8
0
10
255.513495
20
382.012803
0
VERTEX
8
0
10
243.000000
20
305.000000
0
VERTEX
8
0
10
243.000000
20
304.000000
0
SEQEND
0
POLYLINE
8
0
6
CONTINUOUS
66
1
62
7
10
0.0
20
0.0
30
0.000000
0
VERTEX
8
0
10
243.000000
20
263.000000
0
VERTEX
8
0
10
242.000000
20
263.000000
0
SEQEND
0
POLYLINE
8
0
6
CONTINUOUS
66
1
62
7
10
0.0
20
0.0
30
0.000000
0
VERTEX
8
0
10
243.000000
20
263.000000
0
VERTEX
8
0
10
293.000000
20
366.000000
0
SEQEND
0
POLYLINE
8
0
6
CONTINUOUS
66
1
62
7
10
0.0
20
0.0
30
0.000000
0
VERTEX
8
0
10
242.000000
20
261.000000
0
VERTEX
8
0
10
241.000000
20
262.000000
0
VERTEX
8
0
10
242.000000
20
263.000000
0
SEQEND
0
POLYLINE
8
0
6
CONTINUOUS
66
1
62
7
10
0.0
20
0.0
30
0.000000
0
VERTEX
8
0
10
242.000000
20
261.000000
0
VERTEX
8
0
10
243.000000
20
263.000000
0
SEQEND
0
POLYLINE
8
0
6
CONTINUOUS
66
1
62
7
10
0.0
20
0.0
30
0.000000
0
VERTEX
8
0
10
241.000000
20
258.000000
0
VERTEX
8
0
10
242.000000
20
261.000000
0
SEQEND
0
POLYLINE
8
0
6
CONTINUOUS
66
1
62
7
10
0.0
20
0.0
30
0.000000
0
VERTEX
8
0
10
649.000000
20
396.000000
0
VERTEX
8
0
10
646.420000
20
374.940000
0
VERTEX
8
0
10
627.000000
20
239.000000
0
VERTEX
8
0
10
631.000000
20
236.000000
0
VERTEX
8
0
10
633.100000
20
236.800000
0
VERTEX
8
0
10
636.000000
20
239.000000
0
VERTEX
8
0
10
660.615385
20
334.076923
0
VERTEX
8
0
10
687.000000
20
466.000000
0
SEQEND
0
POLYLINE
8
0
6
CONTINUOUS
66
1
62
7
10
0.0
20
0.0
30
0.000000
0
VERTEX
8
0
10
460.000000
20
387.000000
0
VERTEX
8
0
10
460.000000
20
386.000000
0
VERTEX
8
0
10
475.751724
20
367.779310
0
VERTEX
8
0
10
476.000000
20
367.000000
0
VERTEX
8
0
10
480.000000
20
363.000000
0
VERTEX
8
0
10
487.000000
20
361.000000
0
VERTEX
8
0
10
488.000000
20
360.000000
0
VERTEX
8
0
10
489.594595
20
354.932432
0
VERTEX
8
0
10
489.750000
20
349.250000
0
VERTEX
8
0
10
408.000000
20
349.000000
0
VERTEX
8
0
10
407.250000
20
348.750000
0
VERTEX
8
0
10
408.420000
20
338.060000
0
VERTEX
8
0
10
410.405405
20
326.067568
0
VERTEX
8
0
10
415.700000
20
296.900000
0
VERTEX
8
0
10
420.300000
20
284.100000
0
VERTEX
8
0
10
426.000000
20
267.000000
0
VERTEX
8
0
10
422.250000
20
235.250000
0
VERTEX
8
0
10
443.978351
20
235.476289
0
VERTEX
8
0
10
602.750000
20
238.250000
0
VERTEX
8
0
10
601.533074
20
260.970817
0
VERTEX
8
0
10
600.554455
20
270.955446
0
VERTEX
8
0
10
594.000000
20
280.000000
0
VERTEX
8
0
10
586.000000
20
288.000000
0
VERTEX
8
0
10
487.820000
20
367.760000
0
VERTEX
8
0
10
487.180000
20
368.240000
0
VERTEX
8
0
10
460.846154
20
386.769231
0
VERTEX
8
0
10
460.000000
20
387.000000
0
SEQEND
0
POLYLINE
8
0
6
CONTINUOUS
66
1
62
7
10
0.0
20
0.0
30
0.000000
0
VERTEX
8
0
10
341.000000
20
418.000000
0
VERTEX
8
0
10
330.384615
20
369.923077
0
VERTEX
8
0
10
317.300000
20
320.900000
0
VERTEX
8
0
10
314.300000
20
309.900000
0
VERTEX
8
0
10
309.800000
20
297.100000
0
VERTEX
8
0
10
306.200000
20
289.900000
0
VERTEX
8
0
10
278.000000
20
234.000000
0
VERTEX
8
0
10
279.000000
20
233.000000
0
VERTEX
8
0
10
290.000000
20
232.000000
0
VERTEX
8
0
10
383.029183
20
234.533074
0
VERTEX
8
0
10
398.750000
20
235.250000
0
VERTEX
8
0
10
401.000000
20
262.000000
0
VERTEX
8
0
10
395.420000
20
299.060000
0
VERTEX
8
0
10
388.000000
20
352.000000
0
VERTEX
8
0
10
384.000000
20
354.000000
0
VERTEX
8
0
10
379.000000
20
354.000000
0
VERTEX
8
0
10
371.250000
20
352.750000
0
VERTEX
8
0
10
369.352941
20
304.911765
0
VERTEX
8
0
10
368.000000
20
300.000000
0
VERTEX
8
0
10
366.000000
20
298.000000
0
VERTEX
8
0
10
360.000000
20
324.000000
0
SEQEND
0
POLYLINE
8
0
6
CONTINUOUS
66
1
62
7
10
0.0
20
0.0
30
0.000000
0
VERTEX
8
0
10
238.000000
20
468.000000
0
VERTEX
8
0
10
237.527624
20
450.024862
0
VERTEX
8
0
10
231.538071
20
353.032995
0
VERTEX
8
0
10
229.352941
20
329.911765
0
VERTEX
8
0
10
222.300000
20
301.900000
0
VERTEX
8
0
10
200.000000
20
232.000000
0
VERTEX
8
0
10
200.250000
20
231.250000
0
VERTEX
8
0
10
223.000000
20
232.000000
0
VERTEX
8
0
10
225.000000
20
234.000000
0
VERTEX
8
0
10
235.544828
20
364.037931
0
VERTEX
8
0
10
236.580000
20
376.060000
0
VERTEX
8
0
10
237.000000
20
382.000000
0
VERTEX
8
0
10
239.000000
20
383.000000
0
SEQEND
0
POLYLINE
8
0
6
CONTINUOUS
66
1
62
7
10
0.0
20
0.0
30
0.000000
0
VERTEX
8
0
10
294.000000
20
365.000000
0
VERTEX
8
0
10
292.800000
20
361.100000
0
VERTEX
8
0
10
248.000000
20
233.000000
0
VERTEX
8
0
10
252.000000
20
231.000000
0
VERTEX
8
0
10
255.000000
20
231.000000
0
VERTEX
8
0
10
292.200000
20
303.900000
0
VERTEX
8
0
10
295.800000
20
311.100000
0
VERTEX
8
0
10
336.800000
20
411.100000
0
VERTEX
8
0
10
340.000000
20
418.000000
0
SEQEND
0
POLYLINE
8
0
6
CONTINUOUS
66
1
62
7
10
0.0
20
0.0
30
0.000000
0
VERTEX
8
0
10
151.000000
20
302.000000
0
VERTEX
8
0
10
149.660377
20
299.811321
0
VERTEX
8
0
10
148.594595
20
295.067568
0
VERTEX
8
0
10
146.250000
20
229.250000
0
VERTEX
8
0
10
147.000000
20
229.000000
0
VERTEX
8
0
10
149.000000
20
229.000000
0
VERTEX
8
0
10
152.000000
20
232.000000
0
VERTEX
8
0
10
152.615385
20
235.076923
0
VERTEX
8
0
10
155.000000
20
246.000000
0
VERTEX
8
0
10
153.466926
20
271.029183
0
VERTEX
8
0
10
151.000000
20
302.000000
0
SEQEND
0
POLYLINE
8
0
6
CONTINUOUS
66
1
62
7
10
0.0
20
0.0
30
0.000000
0
VERTEX
8
0
10
202.000000
20
418.000000
0
VERTEX
8
0
10
191.470769
20
340.973846
0
VERTEX
8
0
10
190.529231
20
324.026154
0
VERTEX
8
0
10
185.647059
20
295.088235
0
VERTEX
8
0
10
184.405405
20
288.932432
0
VERTEX
8
0
10
176.000000
20
231.000000
0
VERTEX
8
0
10
178.000000
20
229.000000
0
VERTEX
8
0
10
179.000000
20
229.000000
0
VERTEX
8
0
10
182.000000
20
232.000000
0
VERTEX
8
0
10
208.647059
20
332.088235
0
VERTEX
8
0
10
212.615385
20
349.076923
0
VERTEX
8
0
10
232.615385
20
448.076923
0
VERTEX
8
0
10
237.000000
20
469.000000
0
SEQEND
0
POLYLINE
8
0
6
CONTINUOUS
66
1
62
7
10
0.0
20
0.0
30
0.000000
0
VERTEX
8
0
10
396.000000
20
118.000000
0
VERTEX
8
0
10
398.000000
20
119.000000
0
VERTEX
8
0
10
402.200000
20
124.900000
0
VERTEX
8
0
10
402.700000
20
126.100000
0
VERTEX
8
0
10
404.000000
20
131.000000
0
VERTEX
8
0
10
402.647059
20
134.911765
0
VERTEX
8
0
10
401.000000
20
138.000000
0
VERTEX
8
0
10
397.100000
20
140.200000
0
VERTEX
8
0
10
396.000000
20
141.000000
0
VERTEX
8
0
10
391.923077
20
140.384615
0
VERTEX
8
0
10
380.000000
20
138.000000
0
VERTEX
8
0
10
379.000000
20
137.000000
0
VERTEX
8
0
10
379.000000
20
134.000000
0
VERTEX
8
0
10
385.300000
20
126.100000
0
VERTEX
8
0
10
385.800000
20
124.900000
0
VERTEX
8
0
10
390.000000
20
118.000000
0
VERTEX
8
0
10
396.000000
20
118.000000
0
SEQEND
0
POLYLINE
8
0
6
CONTINUOUS
66
1
62
7
10
0.0
20
0.0
30
0.000000
0
VERTEX
8
0
10
222.000000
20
101.000000
0
VERTEX
8
0
10
222.000000
20
102.000000
0
SEQEND
0
POLYLINE
8
0
6
CONTINUOUS
66
1
62
7
10
0.0
20
0.0
30
0.000000
0
VERTEX
8
0
10
505.000000
20
80.000000
0
VERTEX
8
0
10
508.000000
20
81.000000
0
VERTEX
8
0
10
511.000000
20
85.000000
0
VERTEX
8
0
10
511.000000
20
132.000000
0
VERTEX
8
0
10
510.000000
20
136.000000
0
VERTEX
8
0
10
504.000000
20
141.000000
0
VERTEX
8
0
10
501.000000
20
141.000000
0
VERTEX
8
0
10
489.100000
20
133.700000
0
VERTEX
8
0
10
487.900000
20
133.200000
0
VERTEX
8
0
10
483.000000
20
129.000000
0
VERTEX
8
0
10
483.000000
20
126.000000
0
VERTEX
8
0
10
486.000000
20
123.000000
0
VERTEX
8
0
10
488.000000
20
123.000000
0
VERTEX
8
0
10
489.200000
20
121.100000
0
VERTEX
8
0
10
490.352941
20
117.088235
0
VERTEX
8
0
10
490.800000
20
83.900000
0
VERTEX
8
0
10
492.000000
20
82.000000
0
VERTEX
8
0
10
497.048780
20
80.439024
0
VERTEX
8
0
10
505.000000
20
80.000000
0
SEQEND
0
POLYLINE
8
0
6
CONTINUOUS
66
1
62
7
10
0.0
20
0.0
30
0.000000
0
VERTEX
8
0
10
540.000000
20
80.000000
0
VERTEX
8
0
10
541.100000
20
80.700000
0
VERTEX
8
0
10
543.000000
20
81.000000
0
VERTEX
8
0
10
546.000000
20
84.000000
0
VERTEX
8
0
10
547.000000
20
88.000000
0
VERTEX
8
0
10
547.000000
20
112.000000
0
VERTEX
8
0
10
545.531034
20
128.972414
0
VERTEX
8
0
10
542.000000
20
136.000000
0
VERTEX
8
0
10
540.000000
20
138.000000
0
VERTEX
8
0
10
532.000000
20
141.000000
0
VERTEX
8
0
10
528.000000
20
141.000000
0
VERTEX
8
0
10
524.088235
20
139.647059
0
VERTEX
8
0
10
518.000000
20
137.000000
0
VERTEX
8
0
10
514.000000
20
133.000000
0
VERTEX
8
0
10
513.000000
20
130.000000
0
VERTEX
8
0
10
513.000000
20
129.000000
0
VERTEX
8
0
10
515.000000
20
127.000000
0
VERTEX
8
0
10
523.000000
20
127.000000
0
VERTEX
8
0
10
525.200000
20
124.100000
0
VERTEX
8
0
10
526.000000
20
123.000000
0
VERTEX
8
0
10
526.000000
20
96.000000
0
VERTEX
8
0
10
525.000000
20
95.000000
0
VERTEX
8
0
10
525.000000
20
86.000000
0
VERTEX
8
0
10
526.000000
20
84.000000
0
VERTEX
8
0
10
529.000000
20
81.000000
0
VERTEX
8
0
10
532.048780
20
80.439024
0
VERTEX
8
0
10
540.000000
20
80.000000
0
SEQEND
0
POLYLINE
8
0
6
CONTINUOUS
66
1
62
7
10
0.0
20
0.0
30
0.000000
0
VERTEX
8
0
10
175.000000
20
79.000000
0
VERTEX
8
0
10
178.000000
20
80.000000
0
VERTEX
8
0
10
191.230769
20
96.846154
0
VERTEX
8
0
10
193.000000
20
99.000000
0
VERTEX
8
0
10
192.300000
20
101.100000
0
VERTEX
8
0
10
190.000000
20
108.000000
0
VERTEX
8
0
10
188.000000
20
109.000000
0
VERTEX
8
0
10
183.000000
20
103.000000
0
VERTEX
8
0
10
182.000000
20
103.000000
0
VERTEX
8
0
10
166.800000
20
133.900000
0
VERTEX
8
0
10
165.700000
20
136.900000
0
VERTEX
8
0
10
155.000000
20
160.000000
0
VERTEX
8
0
10
151.000000
20
164.000000
0
VERTEX
8
0
10
146.000000
20
165.000000
0
VERTEX
8
0
10
144.900000
20
164.200000
0
VERTEX
8
0
10
134.000000
20
159.000000
0
VERTEX
8
0
10
127.000000
20
152.000000
0
VERTEX
8
0
10
127.000000
20
149.000000
0
VERTEX
8
0
10
139.000000
20
142.000000
0
VERTEX
8
0
10
158.800000
20
102.900000
0
VERTEX
8
0
10
160.700000
20
97.900000
0
VERTEX
8
0
10
167.000000
20
85.000000
0
VERTEX
8
0
10
172.000000
20
80.000000
0
VERTEX
8
0
10
174.100000
20
79.200000
0
VERTEX
8
0
10
175.000000
20
79.000000
0
SEQEND
0
POLYLINE
8
0
6
CONTINUOUS
66
1
62
7
10
0.0
20
0.0
30
0.000000
0
VERTEX
8
0
10
222.000000
20
102.000000
0
VERTEX
8
0
10
215.200000
20
115.100000
0
VERTEX
8
0
10
199.000000
20
149.000000
0
VERTEX
8
0
10
197.000000
20
150.000000
0
VERTEX
8
0
10
196.000000
20
152.000000
0
VERTEX
8
0
10
193.000000
20
155.000000
0
VERTEX
8
0
10
188.000000
20
155.000000
0
VERTEX
8
0
10
182.900000
20
152.200000
0
VERTEX
8
0
10
171.000000
20
144.000000
0
VERTEX
8
0
10
170.000000
20
141.000000
0
VERTEX
8
0
10
170.800000
20
138.900000
0
VERTEX
8
0
10
171.000000
20
138.000000
0
VERTEX
8
0
10
174.088235
20
136.352941
0
VERTEX
8
0
10
181.000000
20
134.000000
0
VERTEX
8
0
10
184.000000
20
131.000000
0
VERTEX
8
0
10
195.800000
20
106.900000
0
VERTEX
8
0
10
196.200000
20
106.100000
0
VERTEX
8
0
10
201.647059
20
94.911765
0
VERTEX
8
0
10
202.800000
20
90.900000
0
VERTEX
8
0
10
210.000000
20
80.000000
0
VERTEX
8
0
10
212.000000
20
79.000000
0
VERTEX
8
0
10
214.100000
20
79.700000
0
VERTEX
8
0
10
216.000000
20
80.000000
0
VERTEX
8
0
10
220.000000
20
84.000000
0
VERTEX
8
0
10
228.800000
20
97.100000
0
VERTEX
8
0
10
232.230769
20
102.846154
0
VERTEX
8
0
10
240.647059
20
119.088235
0
VERTEX
8
0
10
241.352941
20
121.911765
0
VERTEX
8
0
10
244.580000
20
133.060000
0
VERTEX
8
0
10
245.420000
20
138.940000
0
VERTEX
8
0
10
246.000000
20
150.000000
0
VERTEX
8
0
10
241.700000
20
163.900000
0
VERTEX
8
0
10
238.000000
20
170.000000
0
VERTEX
8
0
10
237.000000
20
170.000000
0
VERTEX
8
0
10
235.000000
20
172.000000
0
VERTEX
8
0
10
235.000000
20
173.000000
0
VERTEX
8
0
10
227.100000
20
177.300000
0
VERTEX
8
0
10
223.000000
20
178.000000
0
VERTEX
8
0
10
218.180000
20
175.760000
0
VERTEX
8
0
10
211.180000
20
170.760000
0
VERTEX
8
0
10
205.000000
20
166.000000
0
VERTEX
8
0
10
204.000000
20
161.000000
0
VERTEX
8
0
10
206.000000
20
159.000000
0
VERTEX
8
0
10
210.067568
20
158.405405
0
VERTEX
8
0
10
214.932432
20
157.594595
0
VERTEX
8
0
10
220.000000
20
155.000000
0
VERTEX
8
0
10
224.200000
20
150.100000
0
VERTEX
8
0
10
226.200000
20
146.100000
0
VERTEX
8
0
10
228.000000
20
141.000000
0
VERTEX
8
0
10
228.000000
20
123.000000
0
VERTEX
8
0
10
222.700000
20
103.100000
0
VERTEX
8
0
10
222.000000
20
102.000000
0
SEQEND
0
POLYLINE
8
0
6
CONTINUOUS
66
1
62
7
10
0.0
20
0.0
30
0.000000
0
VERTEX
8
0
10
284.000000
20
79.000000
0
VERTEX
8
0
10
291.100000
20
81.700000
0
VERTEX
8
0
10
294.804878
20
83.243902
0
VERTEX
8
0
10
300.000000
20
87.000000
0
VERTEX
8
0
10
302.240000
20
89.820000
0
VERTEX
8
0
10
305.200000
20
93.900000
0
VERTEX
8
0
10
306.000000
20
95.000000
0
VERTEX
8
0
10
306.000000
20
102.000000
0
VERTEX
8
0
10
304.000000
20
104.000000
0
VERTEX
8
0
10
300.900000
20
103.200000
0
VERTEX
8
0
10
293.640000
20
97.480000
0
VERTEX
8
0
10
288.000000
20
95.000000
0
VERTEX
8
0
10
282.000000
20
95.000000
0
VERTEX
8
0
10
276.000000
20
97.000000
0
VERTEX
8
0
10
273.000000
20
100.000000
0
VERTEX
8
0
10
273.000000
20
101.000000
0
VERTEX
8
0
10
300.000000
20
122.000000
0
VERTEX
8
0
10
303.000000
20
125.000000
0
VERTEX
8
0
10
302.000000
20
131.000000
0
VERTEX
8
0
10
296.000000
20
137.000000
0
VERTEX
8
0
10
289.923077
20
139.615385
0
VERTEX
8
0
10
286.076923
20
140.384615
0
VERTEX
8
0
10
278.000000
20
141.000000
0
VERTEX
8
0
10
276.923077
20
140.384615
0
VERTEX
8
0
10
270.000000
20
139.000000
0
VERTEX
8
0
10
267.000000
20
136.000000
0
VERTEX
8
0
10
267.000000
20
133.000000
0
VERTEX
8
0
10
274.800000
20
129.600000
0
VERTEX
8
0
10
278.000000
20
128.000000
0
VERTEX
8
0
10
281.200000
20
124.100000
0
VERTEX
8
0
10
281.800000
20
122.900000
0
VERTEX
8
0
10
283.000000
20
120.000000
0
VERTEX
8
0
10
269.153846
20
108.769231
0
VERTEX
8
0
10
267.000000
20
107.000000
0
VERTEX
8
0
10
264.384615
20
113.076923
0
VERTEX
8
0
10
263.000000
20
122.000000
0
VERTEX
8
0
10
264.000000
20
123.000000
0
VERTEX
8
0
10
264.000000
20
129.000000
0
VERTEX
8
0
10
261.000000
20
132.000000
0
VERTEX
8
0
10
257.153846
20
130.769231
0
VERTEX
8
0
10
253.000000
20
128.000000
0
VERTEX
8
0
10
249.769231
20
123.153846
0
VERTEX
8
0
10
246.000000
20
115.000000
0
VERTEX
8
0
10
246.000000
20
105.000000
0
VERTEX
8
0
10
247.352941
20
101.088235
0
VERTEX
8
0
10
247.700000
20
99.900000
0
VERTEX
8
0
10
254.000000
20
90.000000
0
VERTEX
8
0
10
262.180000
20
83.240000
0
VERTEX
8
0
10
270.100000
20
80.300000
0
VERTEX
8
0
10
271.900000
20
79.700000
0
VERTEX
8
0
10
284.000000
20
79.000000
0
SEQEND
0
POLYLINE
8
0
6
CONTINUOUS
66
1
62
7
10
0.0
20
0.0
30
0.000000
0
VERTEX
8
0
10
330.000000
20
79.000000
0
VERTEX
8
0
10
331.100000
20
79.700000
0
VERTEX
8
0
10
335.000000
20
81.000000
0
VERTEX
8
0
10
339.000000
20
85.000000
0
VERTEX
8
0
10
342.538462
20
90.307692
0
VERTEX
8
0
10
344.000000
20
93.000000
0
VERTEX
8
0
10
344.000000
20
95.000000
0
VERTEX
8
0
10
338.692308
20
101.461538
0
VERTEX
8
0
10
337.647059
20
103.911765
0
VERTEX
8
0
10
337.000000
20
105.000000
0
VERTEX
8
0
10
337.000000
20
149.000000
0
VERTEX
8
0
10
338.000000
20
150.000000
0
VERTEX
8
0
10
337.405405
20
158.067568
0
VERTEX
8
0
10
335.230769
20
165.153846
0
VERTEX
8
0
10
333.000000
20
168.000000
0
VERTEX
8
0
10
330.000000
20
169.000000
0
VERTEX
8
0
10
327.911765
20
168.352941
0
VERTEX
8
0
10
325.206897
20
167.482759
0
VERTEX
8
0
10
310.000000
20
158.000000
0
VERTEX
8
0
10
309.000000
20
156.000000
0
VERTEX
8
0
10
309.000000
20
154.000000
0
VERTEX
8
0
10
311.846154
20
151.769231
0
VERTEX
8
0
10
317.000000
20
148.000000
0
VERTEX
8
0
10
318.000000
20
146.000000
0
VERTEX
8
0
10
318.000000
20
111.000000
0
VERTEX
8
0
10
317.000000
20
110.000000
0
VERTEX
8
0
10
317.000000
20
96.000000
0
VERTEX
8
0
10
318.384615
20
91.076923
0
VERTEX
8
0
10
320.800000
20
84.900000
0
VERTEX
8
0
10
324.000000
20
81.000000
0
VERTEX
8
0
10
330.000000
20
79.000000
0
SEQEND
0
POLYLINE
8
0
6
CONTINUOUS
66
1
62
7
10
0.0
20
0.0
30
0.000000
0
VERTEX
8
0
10
381.000000
20
79.000000
0
VERTEX
8
0
10
392.100000
20
82.800000
0
VERTEX
8
0
10
401.000000
20
90.000000
0
VERTEX
8
0
10
404.300000
20
95.900000
0
VERTEX
8
0
10
405.000000
20
97.000000
0
VERTEX
8
0
10
405.000000
20
103.000000
0
VERTEX
8
0
10
403.000000
20
105.000000
0
VERTEX
8
0
10
401.000000
20
105.000000
0
VERTEX
8
0
10
396.180000
20
100.760000
0
VERTEX
8
0
10
392.100000
20
97.800000
0
VERTEX
8
0
10
389.000000
20
96.000000
0
VERTEX
8
0
10
382.000000
20
96.000000
0
VERTEX
8
0
10
380.900000
20
96.700000
0
VERTEX
8
0
10
377.000000
20
98.000000
0
VERTEX
8
0
10
371.000000
20
104.000000
0
VERTEX
8
0
10
368.000000
20
112.000000
0
VERTEX
8
0
10
368.000000
20
121.000000
0
VERTEX
8
0
10
372.400000
20
131.800000
0
VERTEX
8
0
10
374.000000
20
134.000000
0
VERTEX
8
0
10
374.000000
20
136.000000
0
VERTEX
8
0
10
371.000000
20
138.000000
0
VERTEX
8
0
10
368.900000
20
137.300000
0
VERTEX
8
0
10
363.195122
20
134.756098
0
VERTEX
8
0
10
358.000000
20
131.000000
0
VERTEX
8
0
10
354.760000
20
126.180000
0
VERTEX
8
0
10
352.441176
20
122.735294
0
VERTEX
8
0
10
350.000000
20
116.000000
0
VERTEX
8
0
10
350.000000
20
103.000000
0
VERTEX
8
0
10
356.000000
20
90.000000
0
VERTEX
8
0
10
367.900000
20
81.800000
0
VERTEX
8
0
10
378.088235
20
79.352941
0
VERTEX
8
0
10
381.000000
20
79.000000
0
SEQEND
0
POLYLINE
8
0
6
CONTINUOUS
66
1
62
7
10
0.0
20
0.0
30
0.000000
0
VERTEX
8
0
10
452.000000
20
79.000000
0
VERTEX
8
0
10
457.100000
20
80.700000
0
VERTEX
8
0
10
468.000000
20
87.000000
0
VERTEX
8
0
10
473.300000
20
94.900000
0
VERTEX
8
0
10
476.569231
20
104.053846
0
VERTEX
8
0
10
477.430769
20
113.053846
0
VERTEX
8
0
10
476.569231
20
119.946154
0
VERTEX
8
0
10
473.600000
20
127.800000
0
VERTEX
8
0
10
472.230769
20
130.153846
0
VERTEX
8
0
10
462.000000
20
141.000000
0
VERTEX
8
0
10
453.000000
20
144.000000
0
VERTEX
8
0
10
447.000000
20
143.000000
0
VERTEX
8
0
10
445.000000
20
141.000000
0
VERTEX
8
0
10
441.300000
20
131.900000
0
VERTEX
8
0
10
439.800000
20
128.100000
0
VERTEX
8
0
10
439.000000
20
127.000000
0
VERTEX
8
0
10
439.000000
20
123.000000
0
VERTEX
8
0
10
440.000000
20
122.000000
0
VERTEX
8
0
10
450.000000
20
123.000000
0
VERTEX
8
0
10
452.000000
20
122.000000
0
VERTEX
8
0
10
456.200000
20
117.100000
0
VERTEX
8
0
10
459.000000
20
110.000000
0
VERTEX
8
0
10
459.000000
20
99.000000
0
VERTEX
8
0
10
457.700000
20
96.100000
0
VERTEX
8
0
10
457.200000
20
94.900000
0
VERTEX
8
0
10
453.000000
20
90.000000
0
VERTEX
8
0
10
445.000000
20
90.000000
0
VERTEX
8
0
10
440.000000
20
94.000000
0
VERTEX
8
0
10
435.800000
20
100.900000
0
VERTEX
8
0
10
433.405405
20
107.067568
0
VERTEX
8
0
10
432.594595
20
111.932432
0
VERTEX
8
0
10
432.000000
20
119.000000
0
VERTEX
8
0
10
432.615385
20
120.076923
0
VERTEX
8
0
10
435.200000
20
128.900000
0
VERTEX
8
0
10
436.000000
20
130.000000
0
VERTEX
8
0
10
436.000000
20
133.000000
0
VERTEX
8
0
10
434.000000
20
135.000000
0
VERTEX
8
0
10
430.000000
20
135.000000
0
VERTEX
8
0
10
420.000000
20
129.000000
0
VERTEX
8
0
10
415.800000
20
123.100000
0
VERTEX
8
0
10
412.000000
20
114.000000
0
VERTEX
8
0
10
412.000000
20
105.000000
0
VERTEX
8
0
10
413.352941
20
101.088235
0
VERTEX
8
0
10
413.700000
20
99.900000
0
VERTEX
8
0
10
417.000000
20
94.000000
0
VERTEX
8
0
10
424.000000
20
87.000000
0
VERTEX
8
0
10
427.153846
20
85.230769
0
VERTEX
8
0
10
437.076923
20
80.384615
0
VERTEX
8
0
10
440.923077
20
79.615385
0
VERTEX
8
0
10
452.000000
20
79.000000
0
SEQEND
0
POLYLINE
8
0
6
CONTINUOUS
66
1
62
7
10
0.0
20
0.0
30
0.000000
0
VERTEX
8
0
10
574.000000
20
79.000000
0
VERTEX
8
0
10
579.000000
20
81.000000
0
VERTEX
8
0
10
587.200000
20
90.900000
0
VERTEX
8
0
10
588.000000
20
92.000000
0
VERTEX
8
0
10
588.000000
20
96.000000
0
VERTEX
8
0
10
582.692308
20
102.461538
0
VERTEX
8
0
10
581.647059
20
104.911765
0
VERTEX
8
0
10
581.000000
20
109.000000
0
VERTEX
8
0
10
582.000000
20
110.000000
0
VERTEX
8
0
10
582.000000
20
128.000000
0
VERTEX
8
0
10
580.700000
20
130.900000
0
VERTEX
8
0
10
580.200000
20
132.100000
0
VERTEX
8
0
10
574.000000
20
139.000000
0
VERTEX
8
0
10
568.000000
20
141.000000
0
VERTEX
8
0
10
561.911765
20
140.352941
0
VERTEX
8
0
10
554.000000
20
138.000000
0
VERTEX
8
0
10
548.000000
20
132.000000
0
VERTEX
8
0
10
548.000000
20
128.000000
0
VERTEX
8
0
10
549.000000
20
127.000000
0
VERTEX
8
0
10
558.100000
20
126.200000
0
VERTEX
8
0
10
559.000000
20
126.000000
0
VERTEX
8
0
10
560.516632
20
122.984407
0
VERTEX
8
0
10
561.483368
20
93.015593
0
VERTEX
8
0
10
562.300000
20
90.100000
0
VERTEX
8
0
10
562.700000
20
88.900000
0
VERTEX
8
0
10
564.000000
20
85.000000
0
VERTEX
8
0
10
569.000000
20
80.000000
0
VERTEX
8
0
10
573.100000
20
79.200000
0
VERTEX
8
0
10
574.000000
20
79.000000
0
SEQEND
0
POLYLINE
8
0
6
CONTINUOUS
66
1
62
7
10
0.0
20
0.0
30
0.000000
0
VERTEX
8
0
10
632.000000
20
79.000000
0
VERTEX
8
0
10
636.100000
20
80.700000
0
VERTEX
8
0
10
641.804878
20
83.243902
0
VERTEX
8
0
10
651.000000
20
91.000000
0
VERTEX
8
0
10
651.230769
20
91.846154
0
VERTEX
8
0
10
654.000000
20
97.000000
0
VERTEX
8
0
10
654.000000
20
101.000000
0
VERTEX
8
0
10
651.000000
20
104.000000
0
VERTEX
8
0
10
650.000000
20
104.000000
0
VERTEX
8
0
10
638.911765
20
96.352941
0
VERTEX
8
0
10
636.088235
20
95.647059
0
VERTEX
8
0
10
630.000000
20
95.000000
0
VERTEX
8
0
10
622.000000
20
98.000000
0
VERTEX
8
0
10
620.000000
20
100.000000
0
VERTEX
8
0
10
647.000000
20
122.000000
0
VERTEX
8
0
10
651.000000
20
126.000000
0
VERTEX
8
0
10
649.200000
20
131.100000
0
VERTEX
8
0
10
645.000000
20
136.000000
0
VERTEX
8
0
10
633.000000
20
141.000000
0
VERTEX
8
0
10
626.000000
20
141.000000
0
VERTEX
8
0
10
618.100000
20
138.800000
0
VERTEX
8
0
10
616.000000
20
138.000000
0
VERTEX
8
0
10
614.800000
20
136.100000
0
VERTEX
8
0
10
614.000000
20
134.000000
0
VERTEX
8
0
10
616.900000
20
131.800000
0
VERTEX
8
0
10
618.100000
20
131.300000
0
VERTEX
8
0
10
623.000000
20
130.000000
0
VERTEX
8
0
10
629.000000
20
124.000000
0
VERTEX
8
0
10
630.000000
20
120.000000
0
VERTEX
8
0
10
615.000000
20
107.000000
0
VERTEX
8
0
10
613.000000
20
109.000000
0
VERTEX
8
0
10
612.300000
20
112.100000
0
VERTEX
8
0
10
611.466926
20
115.029183
0
VERTEX
8
0
10
611.000000
20
130.000000
0
VERTEX
8
0
10
609.000000
20
132.000000
0
VERTEX
8
0
10
606.000000
20
132.000000
0
VERTEX
8
0
10
598.000000
20
125.000000
0
VERTEX
8
0
10
596.769231
20
122.153846
0
VERTEX
8
0
10
593.000000
20
112.000000
0
VERTEX
8
0
10
594.700000
20
100.900000
0
VERTEX
8
0
10
601.000000
20
90.000000
0
VERTEX
8
0
10
608.195122
20
84.243902
0
VERTEX
8
0
10
617.100000
20
80.300000
0
VERTEX
8
0
10
618.900000
20
79.700000
0
VERTEX
8
0
10
632.000000
20
79.000000
0
SEQEND
0
POLYLINE
8
0
6
CONTINUOUS
66
1
62
7
10
0.0
20
0.0
30
0.000000
0
VERTEX
8
0
10
94.000000
20
393.000000
0
VERTEX
8
0
10
115.615385
20
279.923077
0
VERTEX
8
0
10
125.000000
20
231.000000
0
VERTEX
8
0
10
123.000000
20
229.000000
0
VERTEX
8
0
10
116.053846
20
228.569231
0
VERTEX
8
0
10
108.153846
20
225.769231
0
VERTEX
8
0
10
105.846154
20
224.230769
0
VERTEX
8
0
10
100.000000
20
219.000000
0
VERTEX
8
0
10
99.769231
20
218.153846
0
VERTEX
8
0
10
95.000000
20
208.000000
0
VERTEX
8
0
10
95.000000
20
33.000000
0
VERTEX
8
0
10
97.230769
20
27.153846
0
VERTEX
8
0
10
99.000000
20
24.000000
0
VERTEX
8
0
10
103.900000
20
20.800000
0
VERTEX
8
0
10
105.900000
20
19.800000
0
VERTEX
8
0
10
111.000000
20
18.000000
0
VERTEX
8
0
10
671.000000
20
18.000000
0
VERTEX
8
0
10
681.000000
20
22.000000
0
VERTEX
8
0
10
684.200000
20
25.900000
0
VERTEX
8
0
10
688.000000
20
35.000000
0
VERTEX
8
0
10
688.000000
20
209.000000
0
VERTEX
8
0
10
687.300000
20
210.100000
0
VERTEX
8
0
10
685.000000
20
219.000000
0
VERTEX
8
0
10
683.000000
20
221.000000
0
VERTEX
8
0
10
674.100000
20
228.200000
0
VERTEX
8
0
10
663.000000
20
232.000000
0
VERTEX
8
0
10
661.000000
20
232.000000
0
VERTEX
8
0
10
660.000000
20
231.000000
0
VERTEX
8
0
10
654.000000
20
234.000000
0
VERTEX
8
0
10
670.700000
20
289.100000
0
VERTEX
8
0
10
671.300000
20
290.900000
0
VERTEX
8
0
10
676.615385
20
313.076923
0
VERTEX
8
0
10
677.384615
20
316.923077
0
VERTEX
8
0
10
682.461929
20
382.967005
0
VERTEX
8
0
10
682.538071
20
384.032995
0
VERTEX
8
0
10
688.000000
20
465.000000
0
VERTEX
8
0
10
687.000000
20
466.000000
0
SEQEND
0
ENDSEC
0
EOF
