  0
SECTION
  2
HEADER
  9
$ACADVER
  1
AC1009
  9
$EXTMIN
 10
0.00495284
 20
1.53197873
 30
0.0
  9
$EXTMAX
 10
11.99504716
 20
10.46802127
 30
0.0
  0
ENDSEC
  0
SECTION
  2
TABLES
  0
TABLE
  2
LAYER
 70
1
 0
LAYER
 2
Default_Layer
 70
0
 62
1
 6
CONTINUOUS
 0
ENDTAB
 0
ENDSEC
  0
SECTION
  2
ENTITIES
  0
POLYLINE
  8
Default_Layer
 66
   1
 39
0.000000
 70
    1
  0
VERTEX
  8
0
 10
10.15551222
 20
7.98124721
  0
VERTEX
  8
0
 10
10.16656249
 20
7.96205241
  0
VERTEX
  8
0
 10
10.17916816
 20
7.94373758
  0
VERTEX
  8
0
 10
10.19307590
 20
7.92615124
  0
VERTEX
  8
0
 10
10.20803239
 20
7.90914191
  0
VERTEX
  8
0
 10
10.24007826
 20
7.87624829
  0
VERTEX
  8
0
 10
10.27327917
 20
7.84384483
  0
VERTEX
  8
0
 10
10.30560847
 20
7.81071962
  0
VERTEX
  8
0
 10
10.32081296
 20
7.79350765
  0
VERTEX
  8
0
 10
10.33503956
 20
7.77566077
  0
VERTEX
  8
0
 10
10.34803495
 20
7.75702751
  0
VERTEX
  8
0
 10
10.35954580
 20
7.73745638
  0
VERTEX
  8
0
 10
10.36931878
 20
7.71679588
  0
VERTEX
  8
0
 10
10.37710056
 20
7.69489454
  0
VERTEX
  8
0
 10
10.38459032
 20
7.66648505
  0
VERTEX
  8
0
 10
10.39039465
 20
7.63772202
  0
VERTEX
  8
0
 10
10.39482391
 20
7.60867916
  0
VERTEX
  8
0
 10
10.39818847
 20
7.57943020
  0
VERTEX
  8
0
 10
10.40296496
 20
7.52060886
  0
VERTEX
  8
0
 10
10.40720708
 20
7.46184778
  0
VERTEX
  8
0
 10
10.54026080
 20
7.48943260
  0
VERTEX
  8
0
 10
10.60701321
 20
7.50215932
  0
VERTEX
  8
0
 10
10.67390466
 20
7.51412184
  0
VERTEX
  8
0
 10
10.74092664
 20
7.52527984
  0
VERTEX
  8
0
 10
10.80807065
 20
7.53559299
  0
VERTEX
  8
0
 10
10.87532818
 20
7.54502099
  0
VERTEX
  8
0
 10
10.94269073
 20
7.55352352
  0
VERTEX
  8
0
 10
11.01014980
 20
7.56106027
  0
VERTEX
  8
0
 10
11.07769688
 20
7.56759091
  0
VERTEX
  8
0
 10
11.14532347
 20
7.57307513
  0
VERTEX
  8
0
 10
11.21302106
 20
7.57747262
  0
VERTEX
  8
0
 10
11.28078115
 20
7.58074306
  0
VERTEX
  8
0
 10
11.34859525
 20
7.58284613
  0
VERTEX
  8
0
 10
11.41645483
 20
7.58374152
  0
VERTEX
  8
0
 10
11.48435140
 20
7.58338891
  0
VERTEX
  8
0
 10
11.50441811
 20
7.58226622
  0
VERTEX
  8
0
 10
11.52442061
 20
7.58040833
  0
VERTEX
  8
0
 10
11.56420457
 20
7.57476700
  0
VERTEX
  8
0
 10
11.60364645
 20
7.56702506
  0
VERTEX
  8
0
 10
11.64268939
 20
7.55774262
  0
VERTEX
  8
0
 10
11.61278071
 20
7.55191576
  0
VERTEX
  8
0
 10
11.58278288
 20
7.54693969
  0
VERTEX
  8
0
 10
11.52255764
 20
7.53918189
  0
VERTEX
  8
0
 10
11.46208940
 20
7.53375318
  0
VERTEX
  8
0
 10
11.40145394
 20
7.52993756
  0
VERTEX
  8
0
 10
11.27998437
 20
7.52428150
  0
VERTEX
  8
0
 10
11.21930178
 20
7.52100901
  0
VERTEX
  8
0
 10
11.15875498
 20
7.51648554
  0
VERTEX
  8
0
 10
11.06028433
 20
7.50524052
  0
VERTEX
  8
0
 10
10.96201673
 20
7.49166511
  0
VERTEX
  8
0
 10
10.86413898
 20
7.47542470
  0
VERTEX
  8
0
 10
10.81540467
 20
7.46620056
  0
VERTEX
  8
0
 10
10.76683788
 20
7.45618469
  0
VERTEX
  8
0
 10
10.71846195
 20
7.44533528
  0
VERTEX
  8
0
 10
10.67030023
 20
7.43361049
  0
VERTEX
  8
0
 10
10.62237608
 20
7.42096851
  0
VERTEX
  8
0
 10
10.57471285
 20
7.40736750
  0
VERTEX
  8
0
 10
10.52733388
 20
7.39276565
  0
VERTEX
  8
0
 10
10.48026253
 20
7.37712113
  0
VERTEX
  8
0
 10
10.43352214
 20
7.36039211
  0
VERTEX
  8
0
 10
10.38713607
 20
7.34253677
  0
VERTEX
  8
0
 10
10.40217887
 20
7.30408447
  0
VERTEX
  8
0
 10
10.41739445
 20
7.26554658
  0
VERTEX
  8
0
 10
10.42594755
 20
7.24680298
  0
VERTEX
  8
0
 10
10.43560049
 20
7.22870692
  0
VERTEX
  8
0
 10
10.44670548
 20
7.21148138
  0
VERTEX
  8
0
 10
10.45961473
 20
7.19534934
  0
VERTEX
  8
0
 10
10.50240826
 20
7.19784306
  0
VERTEX
  8
0
 10
10.54492969
 20
7.20207866
  0
VERTEX
  8
0
 10
10.58721534
 20
7.20783267
  0
VERTEX
  8
0
 10
10.62930152
 20
7.21488159
  0
VERTEX
  8
0
 10
10.67122454
 20
7.22300193
  0
VERTEX
  8
0
 10
10.71302070
 20
7.23197020
  0
VERTEX
  8
0
 10
10.79637771
 20
7.25155654
  0
VERTEX
  8
0
 10
10.87966303
 20
7.27185268
  0
VERTEX
  8
0
 10
10.96316713
 20
7.29107070
  0
VERTEX
  8
0
 10
11.00509201
 20
7.29971667
  0
VERTEX
  8
0
 10
11.04718051
 20
7.30742264
  0
VERTEX
  8
0
 10
11.08946895
 20
7.31396511
  0
VERTEX
  8
0
 10
11.13199364
 20
7.31912058
  0
VERTEX
  8
0
 10
11.23334484
 20
7.32978586
  0
VERTEX
  8
0
 10
11.33528989
 20
7.33881664
  0
VERTEX
  8
0
 10
11.43758867
 20
7.34540700
  0
VERTEX
  8
0
 10
11.48879568
 20
7.34753517
  0
VERTEX
  8
0
 10
11.54000107
 20
7.34875102
  0
VERTEX
  8
0
 10
11.59117485
 20
7.34895380
  0
VERTEX
  8
0
 10
11.64228699
 20
7.34804278
  0
VERTEX
  8
0
 10
11.69330747
 20
7.34591721
  0
VERTEX
  8
0
 10
11.74420630
 20
7.34247636
  0
VERTEX
  8
0
 10
11.79495345
 20
7.33761948
  0
VERTEX
  8
0
 10
11.84551890
 20
7.33124584
  0
VERTEX
  8
0
 10
11.89587265
 20
7.32325469
  0
VERTEX
  8
0
 10
11.94598469
 20
7.31354530
  0
VERTEX
  8
0
 10
11.87837385
 20
7.30302182
  0
VERTEX
  8
0
 10
11.81052665
 20
7.29388020
  0
VERTEX
  8
0
 10
11.74248606
 20
7.28586414
  0
VERTEX
  8
0
 10
11.67429509
 20
7.27871737
  0
VERTEX
  8
0
 10
11.53763391
 20
7.26600654
  0
VERTEX
  8
0
 10
11.40088699
 20
7.25369745
  0
VERTEX
  8
0
 10
11.33258885
 20
7.24705284
  0
VERTEX
  8
0
 10
11.26439824
 20
7.23973981
  0
VERTEX
  8
0
 10
11.19635815
 20
7.23150208
  0
VERTEX
  8
0
 10
11.12851155
 20
7.22208336
  0
VERTEX
  8
0
 10
11.06090144
 20
7.21122737
  0
VERTEX
  8
0
 10
10.99357081
 20
7.19867783
  0
VERTEX
  8
0
 10
10.92656264
 20
7.18417844
  0
VERTEX
  8
0
 10
10.85991991
 20
7.16747294
  0
VERTEX
  8
0
 10
10.89403883
 20
7.15717080
  0
VERTEX
  8
0
 10
10.92840055
 20
7.14796103
  0
VERTEX
  8
0
 10
10.96297382
 20
7.13970078
  0
VERTEX
  8
0
 10
10.99772735
 20
7.13224724
  0
VERTEX
  8
0
 10
11.06765015
 20
7.11918893
  0
VERTEX
  8
0
 10
11.13791877
 20
7.10764347
  0
VERTEX
  8
0
 10
11.20828303
 20
7.09646820
  0
VERTEX
  8
0
 10
11.27849278
 20
7.08452049
  0
VERTEX
  8
0
 10
11.34829784
 20
7.07065771
  0
VERTEX
  8
0
 10
11.38297043
 20
7.06265108
  0
VERTEX
  8
0
 10
11.41744803
 20
7.05373720
  0
VERTEX
  8
0
 10
11.48548429
 20
7.03491690
  0
VERTEX
  8
0
 10
11.55328050
 20
7.01490883
  0
VERTEX
  8
0
 10
11.62065546
 20
6.99345119
  0
VERTEX
  8
0
 10
11.68742797
 20
6.97028221
  0
VERTEX
  8
0
 10
11.75341684
 20
6.94514010
  0
VERTEX
  8
0
 10
11.81844087
 20
6.91776309
  0
VERTEX
  8
0
 10
11.88231887
 20
6.88788938
  0
VERTEX
  8
0
 10
11.91377148
 20
6.87193445
  0
VERTEX
  8
0
 10
11.94486963
 20
6.85525719
  0
VERTEX
  8
0
 10
11.85769853
 20
6.86988736
  0
VERTEX
  8
0
 10
11.77056333
 20
6.88624285
  0
VERTEX
  8
0
 10
11.68343806
 20
6.90384062
  0
VERTEX
  8
0
 10
11.59629675
 20
6.92219758
  0
VERTEX
  8
0
 10
11.42186216
 20
6.95925680
  0
VERTEX
  8
0
 10
11.33451695
 20
6.97699292
  0
VERTEX
  8
0
 10
11.24705184
 20
6.99355596
  0
VERTEX
  8
0
 10
11.15944087
 20
7.00846284
  0
VERTEX
  8
0
 10
11.07165807
 20
7.02123050
  0
VERTEX
  8
0
 10
10.98367747
 20
7.03137586
  0
VERTEX
  8
0
 10
10.93960488
 20
7.03531422
  0
VERTEX
  8
0
 10
10.89547311
 20
7.03841586
  0
VERTEX
  8
0
 10
10.85127891
 20
7.04062038
  0
VERTEX
  8
0
 10
10.80701903
 20
7.04186742
  0
VERTEX
  8
0
 10
10.76269023
 20
7.04209658
  0
VERTEX
  8
0
 10
10.71828926
 20
7.04124748
  0
VERTEX
  8
0
 10
10.67381287
 20
7.03925973
  0
VERTEX
  8
0
 10
10.62925783
 20
7.03607296
  0
VERTEX
  8
0
 10
10.58462088
 20
7.03162677
  0
VERTEX
  8
0
 10
10.53989877
 20
7.02586080
  0
VERTEX
  8
0
 10
10.54856299
 20
7.00139174
  0
VERTEX
  8
0
 10
10.55648285
 20
6.97574504
  0
VERTEX
  8
0
 10
10.56466447
 20
6.94989886
  0
VERTEX
  8
0
 10
10.57411401
 20
6.92483139
  0
VERTEX
  8
0
 10
10.57962866
 20
6.91289535
  0
VERTEX
  8
0
 10
10.58583760
 20
6.90152079
  0
VERTEX
  8
0
 10
10.59286658
 20
6.89083000
  0
VERTEX
  8
0
 10
10.60084138
 20
6.88094525
  0
VERTEX
  8
0
 10
10.60988776
 20
6.87198880
  0
VERTEX
  8
0
 10
10.62013148
 20
6.86408293
  0
VERTEX
  8
0
 10
10.63169833
 20
6.85734992
  0
VERTEX
  8
0
 10
10.64471406
 20
6.85191202
  0
VERTEX
  8
0
 10
10.76498741
 20
6.79677789
  0
VERTEX
  8
0
 10
10.88606555
 20
6.74301006
  0
VERTEX
  8
0
 10
11.00730904
 20
6.68943875
  0
VERTEX
  8
0
 10
11.12807846
 20
6.63489420
  0
VERTEX
  8
0
 10
11.18808558
 20
6.60689142
  0
VERTEX
  8
0
 10
11.24773439
 20
6.57820666
  0
VERTEX
  8
0
 10
11.30694497
 20
6.54869371
  0
VERTEX
  8
0
 10
11.36563739
 20
6.51820636
  0
VERTEX
  8
0
 10
11.42373173
 20
6.48659837
  0
VERTEX
  8
0
 10
11.48114805
 20
6.45372352
  0
VERTEX
  8
0
 10
11.53780642
 20
6.41943561
  0
VERTEX
  8
0
 10
11.59362692
 20
6.38358840
  0
VERTEX
  8
0
 10
11.64001933
 20
6.35054789
  0
VERTEX
  8
0
 10
11.68726956
 20
6.31826423
  0
VERTEX
  8
0
 10
11.73465314
 20
6.28596175
  0
VERTEX
  8
0
 10
11.78144559
 20
6.25286479
  0
VERTEX
  8
0
 10
11.82692246
 20
6.21819769
  0
VERTEX
  8
0
 10
11.84894114
 20
6.20003294
  0
VERTEX
  8
0
 10
11.87035926
 20
6.18118479
  0
VERTEX
  8
0
 10
11.89108624
 20
6.16155627
  0
VERTEX
  8
0
 10
11.91103153
 20
6.14105043
  0
VERTEX
  8
0
 10
11.93010457
 20
6.11957031
  0
VERTEX
  8
0
 10
11.94821480
 20
6.09701895
  0
VERTEX
  8
0
 10
11.91301759
 20
6.11164848
  0
VERTEX
  8
0
 10
11.87826601
 20
6.12717610
  0
VERTEX
  8
0
 10
11.84390648
 20
6.14349515
  0
VERTEX
  8
0
 10
11.80988540
 20
6.16049896
  0
VERTEX
  8
0
 10
11.74264429
 20
6.19613417
  0
VERTEX
  8
0
 10
11.67611400
 20
6.23322838
  0
VERTEX
  8
0
 10
11.54347119
 20
6.30838040
  0
VERTEX
  8
0
 10
11.47650132
 20
6.34473150
  0
VERTEX
  8
0
 10
11.40852758
 20
6.37912818
  0
VERTEX
  8
0
 10
11.36046929
 20
6.40568389
  0
VERTEX
  8
0
 10
11.31196092
 20
6.43135370
  0
VERTEX
  8
0
 10
11.26303038
 20
6.45617998
  0
VERTEX
  8
0
 10
11.21370563
 20
6.48020514
  0
VERTEX
  8
0
 10
11.16401458
 20
6.50347157
  0
VERTEX
  8
0
 10
11.11398518
 20
6.52602166
  0
VERTEX
  8
0
 10
11.01302304
 20
6.56914239
  0
VERTEX
  8
0
 10
10.91104268
 20
6.60990649
  0
VERTEX
  8
0
 10
10.80826755
 20
6.64865310
  0
VERTEX
  8
0
 10
10.70492113
 20
6.68572137
  0
VERTEX
  8
0
 10
10.60122687
 20
6.72145044
  0
VERTEX
  8
0
 10
10.60292068
 20
6.71420080
  0
VERTEX
  8
0
 10
10.60389312
 20
6.70646088
  0
VERTEX
  8
0
 10
10.60429773
 20
6.68990675
  0
VERTEX
  8
0
 10
10.60331289
 20
6.65527717
  0
VERTEX
  8
0
 10
10.60441889
 20
6.63878791
  0
VERTEX
  8
0
 10
10.60591737
 20
6.63109664
  0
VERTEX
  8
0
 10
10.60825414
 20
6.62390647
  0
VERTEX
  8
0
 10
10.61158514
 20
6.61731652
  0
VERTEX
  8
0
 10
10.61606636
 20
6.61142594
  0
VERTEX
  8
0
 10
10.62185375
 20
6.60633386
  0
VERTEX
  8
0
 10
10.62910327
 20
6.60213943
  0
VERTEX
  8
0
 10
10.75085335
 20
6.54678575
  0
VERTEX
  8
0
 10
10.87153009
 20
6.48887841
  0
VERTEX
  8
0
 10
10.99098323
 20
6.42834296
  0
VERTEX
  8
0
 10
11.05020399
 20
6.39706643
  0
VERTEX
  8
0
 10
11.10906250
 20
6.36510495
  0
VERTEX
  8
0
 10
11.16753998
 20
6.33244922
  0
VERTEX
  8
0
 10
11.22561763
 20
6.29908993
  0
VERTEX
  8
0
 10
11.28327668
 20
6.26501777
  0
VERTEX
  8
0
 10
11.34049835
 20
6.23022344
  0
VERTEX
  8
0
 10
11.39726384
 20
6.19469764
  0
VERTEX
  8
0
 10
11.45355438
 20
6.15843104
  0
VERTEX
  8
0
 10
11.50935118
 20
6.12141436
  0
VERTEX
  8
0
 10
11.56463545
 20
6.08363828
  0
VERTEX
  8
0
 10
11.59256599
 20
6.06072448
  0
VERTEX
  8
0
 10
11.62112147
 20
6.03839280
  0
VERTEX
  8
0
 10
11.67945389
 20
5.99483975
  0
VERTEX
  8
0
 10
11.73832599
 20
5.95170710
  0
VERTEX
  8
0
 10
11.79643109
 20
5.90772282
  0
VERTEX
  8
0
 10
11.82478765
 20
5.88501381
  0
VERTEX
  8
0
 10
11.85246245
 20
5.86161489
  0
VERTEX
  8
0
 10
11.87929215
 20
5.83736703
  0
VERTEX
  8
0
 10
11.90511339
 20
5.81211126
  0
VERTEX
  8
0
 10
11.92976286
 20
5.78568855
  0
VERTEX
  8
0
 10
11.95307720
 20
5.75793991
  0
VERTEX
  8
0
 10
11.97489308
 20
5.72870634
  0
VERTEX
  8
0
 10
11.99504716
 20
5.69782882
  0
VERTEX
  8
0
 10
11.83007030
 20
5.81038920
  0
VERTEX
  8
0
 10
11.66429503
 20
5.92281096
  0
VERTEX
  8
0
 10
11.58083843
 20
5.97832218
  0
VERTEX
  8
0
 10
11.49685875
 20
6.03302156
  0
VERTEX
  8
0
 10
11.41224819
 20
6.08665000
  0
VERTEX
  8
0
 10
11.32689890
 20
6.13894845
  0
VERTEX
  8
0
 10
11.24070307
 20
6.18965785
  0
VERTEX
  8
0
 10
11.15355288
 20
6.23851911
  0
VERTEX
  8
0
 10
11.06534051
 20
6.28527317
  0
VERTEX
  8
0
 10
10.97595812
 20
6.32966098
  0
VERTEX
  8
0
 10
10.93079448
 20
6.35088657
  0
VERTEX
  8
0
 10
10.88529790
 20
6.37142345
  0
VERTEX
  8
0
 10
10.83945491
 20
6.39123922
  0
VERTEX
  8
0
 10
10.79325203
 20
6.41030152
  0
VERTEX
  8
0
 10
10.74667578
 20
6.42857794
  0
VERTEX
  8
0
 10
10.69971268
 20
6.44603612
  0
VERTEX
  8
0
 10
10.65234926
 20
6.46264366
  0
VERTEX
  8
0
 10
10.60457204
 20
6.47836818
  0
VERTEX
  8
0
 10
10.55662462
 20
6.39027874
  0
VERTEX
  8
0
 10
10.67387007
 20
6.31616734
  0
VERTEX
  8
0
 10
10.73192335
 20
6.27814125
  0
VERTEX
  8
0
 10
10.78953863
 20
6.23942746
  0
VERTEX
  8
0
 10
10.84667217
 20
6.19999542
  0
VERTEX
  8
0
 10
10.90328018
 20
6.15981454
  0
VERTEX
  8
0
 10
10.95931892
 20
6.11885426
  0
VERTEX
  8
0
 10
11.01474461
 20
6.07708400
  0
VERTEX
  8
0
 10
11.06951349
 20
6.03447321
  0
VERTEX
  8
0
 10
11.12358179
 20
5.99099129
  0
VERTEX
  8
0
 10
11.17690575
 20
5.94660769
  0
VERTEX
  8
0
 10
11.22944161
 20
5.90129184
  0
VERTEX
  8
0
 10
11.28114560
 20
5.85501316
  0
VERTEX
  8
0
 10
11.33197395
 20
5.80774108
  0
VERTEX
  8
0
 10
11.38188291
 20
5.75944503
  0
VERTEX
  8
0
 10
11.43082871
 20
5.71009444
  0
VERTEX
  8
0
 10
11.48963911
 20
5.65190214
  0
VERTEX
  8
0
 10
11.51825754
 20
5.62196517
  0
VERTEX
  8
0
 10
11.54599171
 20
5.59123781
  0
VERTEX
  8
0
 10
11.57257180
 20
5.55954766
  0
VERTEX
  8
0
 10
11.59772798
 20
5.52672235
  0
VERTEX
  8
0
 10
11.62119045
 20
5.49258948
  0
VERTEX
  8
0
 10
11.64268939
 20
5.45697667
  0
VERTEX
  8
0
 10
11.60818918
 20
5.47912557
  0
VERTEX
  8
0
 10
11.57449701
 20
5.50230645
  0
VERTEX
  8
0
 10
11.54151151
 20
5.52639013
  0
VERTEX
  8
0
 10
11.50913129
 20
5.55124743
  0
VERTEX
  8
0
 10
11.44578120
 20
5.60276621
  0
VERTEX
  8
0
 10
11.38363568
 20
5.65582936
  0
VERTEX
  8
0
 10
11.32188370
 20
5.70940345
  0
VERTEX
  8
0
 10
11.25971422
 20
5.76245506
  0
VERTEX
  8
0
 10
11.19631619
 20
5.81395077
  0
VERTEX
  8
0
 10
11.16390302
 20
5.83879221
  0
VERTEX
  8
0
 10
11.13087858
 20
5.86285714
  0
VERTEX
  8
0
 10
10.97675929
 20
5.96757867
  0
VERTEX
  8
0
 10
10.89924531
 20
6.01945085
  0
VERTEX
  8
0
 10
10.82095958
 20
6.07004382
  0
VERTEX
  8
0
 10
10.74155047
 20
6.11864247
  0
VERTEX
  8
0
 10
10.70131476
 20
6.14197046
  0
VERTEX
  8
0
 10
10.66066634
 20
6.16453170
  0
VERTEX
  8
0
 10
10.61956124
 20
6.18623681
  0
VERTEX
  8
0
 10
10.57795553
 20
6.20699639
  0
VERTEX
  8
0
 10
10.53580524
 20
6.22672106
  0
VERTEX
  8
0
 10
10.49306641
 20
6.24532143
  0
VERTEX
  8
0
 10
10.43305940
 20
6.13991377
  0
VERTEX
  8
0
 10
10.40409991
 20
6.08680133
  0
VERTEX
  8
0
 10
10.37598551
 20
6.03346075
  0
VERTEX
  8
0
 10
10.42592673
 20
6.00935580
  0
VERTEX
  8
0
 10
10.47502534
 20
5.98327307
  0
VERTEX
  8
0
 10
10.52315404
 20
5.95524388
  0
VERTEX
  8
0
 10
10.57018554
 20
5.92529955
  0
VERTEX
  8
0
 10
10.61599255
 20
5.89347138
  0
VERTEX
  8
0
 10
10.66044777
 20
5.85979071
  0
VERTEX
  8
0
 10
10.70342391
 20
5.82428883
  0
VERTEX
  8
0
 10
10.74479368
 20
5.78699708
  0
VERTEX
  8
0
 10
10.78442977
 20
5.74794676
  0
VERTEX
  8
0
 10
10.82220491
 20
5.70716919
  0
VERTEX
  8
0
 10
10.85799179
 20
5.66469569
  0
VERTEX
  8
0
 10
10.89166313
 20
5.62055756
  0
VERTEX
  8
0
 10
10.92309162
 20
5.57478614
  0
VERTEX
  8
0
 10
10.95214998
 20
5.52741273
  0
VERTEX
  8
0
 10
10.96575057
 20
5.50313506
  0
VERTEX
  8
0
 10
10.97871090
 20
5.47846865
  0
VERTEX
  8
0
 10
10.99101505
 20
5.45341739
  0
VERTEX
  8
0
 10
11.00264711
 20
5.42798521
  0
VERTEX
  8
0
 10
10.96613327
 20
5.46262374
  0
VERTEX
  8
0
 10
10.93007997
 20
5.49826334
  0
VERTEX
  8
0
 10
10.85856947
 20
5.57120958
  0
VERTEX
  8
0
 10
10.78654462
 20
5.64415157
  0
VERTEX
  8
0
 10
10.74984837
 20
5.67978586
  0
VERTEX
  8
0
 10
10.71243441
 20
5.71441694
  0
VERTEX
  8
0
 10
10.67410635
 20
5.74771078
  0
VERTEX
  8
0
 10
10.63466783
 20
5.77933332
  0
VERTEX
  8
0
 10
10.59392247
 20
5.80895052
  0
VERTEX
  8
0
 10
10.57299836
 20
5.82290272
  0
VERTEX
  8
0
 10
10.55167389
 20
5.83622833
  0
VERTEX
  8
0
 10
10.52992453
 20
5.84888558
  0
VERTEX
  8
0
 10
10.50772572
 20
5.86083271
  0
VERTEX
  8
0
 10
10.48505292
 20
5.87202797
  0
VERTEX
  8
0
 10
10.46188158
 20
5.88242961
  0
VERTEX
  8
0
 10
10.43818715
 20
5.89199587
  0
VERTEX
  8
0
 10
10.41394509
 20
5.90068498
  0
VERTEX
  8
0
 10
10.38913085
 20
5.90845521
  0
VERTEX
  8
0
 10
10.36371989
 20
5.91526479
  0
VERTEX
  8
0
 10
10.38717579
 20
5.87978652
  0
VERTEX
  8
0
 10
10.41255553
 20
5.84563133
  0
VERTEX
  8
0
 10
10.43947758
 20
5.81254373
  0
VERTEX
  8
0
 10
10.46756043
 20
5.78026824
  0
VERTEX
  8
0
 10
10.52568235
 20
5.71713166
  0
VERTEX
  8
0
 10
10.58386909
 20
5.65417776
  0
VERTEX
  8
0
 10
10.61203295
 20
5.62213060
  0
VERTEX
  8
0
 10
10.63906842
 20
5.58936268
  0
VERTEX
  8
0
 10
10.66459398
 20
5.55561849
  0
VERTEX
  8
0
 10
10.68822811
 20
5.52064258
  0
VERTEX
  8
0
 10
10.69921666
 20
5.50261288
  0
VERTEX
  8
0
 10
10.70958927
 20
5.48417945
  0
VERTEX
  8
0
 10
10.71929826
 20
5.46531034
  0
VERTEX
  8
0
 10
10.72829594
 20
5.44597362
  0
VERTEX
  8
0
 10
10.73653461
 20
5.42613735
  0
VERTEX
  8
0
 10
10.74396659
 20
5.40576961
  0
VERTEX
  8
0
 10
10.75054417
 20
5.38483846
  0
VERTEX
  8
0
 10
10.75621968
 20
5.36331195
  0
VERTEX
  8
0
 10
10.69752027
 20
5.43107503
  0
VERTEX
  8
0
 10
10.63680587
 20
5.49713615
  0
VERTEX
  8
0
 10
10.60564166
 20
5.52940757
  0
VERTEX
  8
0
 10
10.57391200
 20
5.56110841
  0
VERTEX
  8
0
 10
10.54159636
 20
5.59219032
  0
VERTEX
  8
0
 10
10.50867415
 20
5.62260494
  0
VERTEX
  8
0
 10
10.47512482
 20
5.65230389
  0
VERTEX
  8
0
 10
10.44092780
 20
5.68123883
  0
VERTEX
  8
0
 10
10.40606253
 20
5.70936138
  0
VERTEX
  8
0
 10
10.37050844
 20
5.73662320
  0
VERTEX
  8
0
 10
10.33424498
 20
5.76297590
  0
VERTEX
  8
0
 10
10.29725158
 20
5.78837115
  0
VERTEX
  8
0
 10
10.25950767
 20
5.81276056
  0
VERTEX
  8
0
 10
10.22099269
 20
5.83609579
  0
VERTEX
  8
0
 10
10.19782742
 20
5.81939331
  0
VERTEX
  8
0
 10
10.17426078
 20
5.80337002
  0
VERTEX
  8
0
 10
10.15030191
 20
5.78804301
  0
VERTEX
  8
0
 10
10.12595996
 20
5.77342933
  0
VERTEX
  8
0
 10
10.10124408
 20
5.75954605
  0
VERTEX
  8
0
 10
10.07616342
 20
5.74641024
  0
VERTEX
  8
0
 10
10.05072714
 20
5.73403895
  0
VERTEX
  8
0
 10
10.02494437
 20
5.72244926
  0
VERTEX
  8
0
 10
9.99882427
 20
5.71165823
  0
VERTEX
  8
0
 10
9.97237599
 20
5.70168292
  0
VERTEX
  8
0
 10
9.94560867
 20
5.69254040
  0
VERTEX
  8
0
 10
9.91853148
 20
5.68424774
  0
VERTEX
  8
0
 10
9.89115354
 20
5.67682199
  0
VERTEX
  8
0
 10
9.86348402
 20
5.67028022
  0
VERTEX
  8
0
 10
9.83553207
 20
5.66463951
  0
VERTEX
  8
0
 10
9.80730683
 20
5.65991691
  0
VERTEX
  8
0
 10
9.78583362
 20
5.61595037
  0
VERTEX
  8
0
 10
9.76296875
 20
5.57284194
  0
VERTEX
  8
0
 10
9.73878366
 20
5.53056280
  0
VERTEX
  8
0
 10
9.71334983
 20
5.48908414
  0
VERTEX
  8
0
 10
9.68673871
 20
5.44837716
  0
VERTEX
  8
0
 10
9.65902176
 20
5.40841303
  0
VERTEX
  8
0
 10
9.63027045
 20
5.36916296
  0
VERTEX
  8
0
 10
9.60055622
 20
5.33059812
  0
VERTEX
  8
0
 10
9.56995056
 20
5.29268972
  0
VERTEX
  8
0
 10
9.53852491
 20
5.25540893
  0
VERTEX
  8
0
 10
9.50635073
 20
5.21872695
  0
VERTEX
  8
0
 10
9.47349949
 20
5.18261497
  0
VERTEX
  8
0
 10
9.44004265
 20
5.14704418
  0
VERTEX
  8
0
 10
9.40605166
 20
5.11198576
  0
VERTEX
  8
0
 10
9.33675310
 20
5.04329081
  0
VERTEX
  8
0
 10
9.32800940
 20
5.10382503
  0
VERTEX
  8
0
 10
9.32030261
 20
5.16448495
  0
VERTEX
  8
0
 10
9.30709931
 20
5.28606557
  0
VERTEX
  8
0
 10
9.29534223
 20
5.40779993
  0
VERTEX
  8
0
 10
9.28323040
 20
5.52945533
  0
VERTEX
  8
0
 10
9.25768219
 20
5.51347642
  0
VERTEX
  8
0
 10
9.23263403
 20
5.49673864
  0
VERTEX
  8
0
 10
9.20810739
 20
5.47925781
  0
VERTEX
  8
0
 10
9.18412373
 20
5.46104977
  0
VERTEX
  8
0
 10
9.16070450
 20
5.44213034
  0
VERTEX
  8
0
 10
9.13787117
 20
5.42251537
  0
VERTEX
  8
0
 10
9.11564519
 20
5.40222068
  0
VERTEX
  8
0
 10
9.09404803
 20
5.38126210
  0
VERTEX
  8
0
 10
9.07310115
 20
5.35965546
  0
VERTEX
  8
0
 10
9.05282601
 20
5.33741660
  0
VERTEX
  8
0
 10
9.03324406
 20
5.31456135
  0
VERTEX
  8
0
 10
9.01437678
 20
5.29110554
  0
VERTEX
  8
0
 10
8.99624561
 20
5.26706499
  0
VERTEX
  8
0
 10
8.97887202
 20
5.24245555
  0
VERTEX
  8
0
 10
8.96227747
 20
5.21729304
  0
VERTEX
  8
0
 10
8.94648342
 20
5.19159329
  0
VERTEX
  8
0
 10
8.93165061
 20
5.16444514
  0
VERTEX
  8
0
 10
8.91817890
 20
5.13677120
  0
VERTEX
  8
0
 10
8.90597342
 20
5.10861753
  0
VERTEX
  8
0
 10
8.89493932
 20
5.08003020
  0
VERTEX
  8
0
 10
8.88498173
 20
5.05105528
  0
VERTEX
  8
0
 10
8.87600578
 20
5.02173882
  0
VERTEX
  8
0
 10
8.86791662
 20
4.99212690
  0
VERTEX
  8
0
 10
8.86061938
 20
4.96226558
  0
VERTEX
  8
0
 10
8.84802120
 20
4.90197901
  0
VERTEX
  8
0
 10
8.83745235
 20
4.84124763
  0
VERTEX
  8
0
 10
8.81936701
 20
4.71992450
  0
VERTEX
  8
0
 10
8.81319852
 20
4.66888628
  0
VERTEX
  8
0
 10
8.80935316
 20
4.61772487
  0
VERTEX
  8
0
 10
8.80774967
 20
4.56650537
  0
VERTEX
  8
0
 10
8.80830685
 20
4.51529284
  0
VERTEX
  8
0
 10
8.81094345
 20
4.46415236
  0
VERTEX
  8
0
 10
8.81557826
 20
4.41314899
  0
VERTEX
  8
0
 10
8.82213004
 20
4.36234782
  0
VERTEX
  8
0
 10
8.83051757
 20
4.31181392
  0
VERTEX
  8
0
 10
8.89551552
 20
4.36073064
  0
VERTEX
  8
0
 10
8.95986409
 20
4.41105393
  0
VERTEX
  8
0
 10
8.97852067
 20
4.37290777
  0
VERTEX
  8
0
 10
8.99499869
 20
4.33399307
  0
VERTEX
  8
0
 10
9.00934943
 20
4.29439162
  0
VERTEX
  8
0
 10
9.02162414
 20
4.25418518
  0
VERTEX
  8
0
 10
9.03187410
 20
4.21345553
  0
VERTEX
  8
0
 10
9.04015058
 20
4.17228445
  0
VERTEX
  8
0
 10
9.04650484
 20
4.13075372
  0
VERTEX
  8
0
 10
9.05098815
 20
4.08894511
  0
VERTEX
  8
0
 10
9.05365177
 20
4.04694040
  0
VERTEX
  8
0
 10
9.05454697
 20
4.00482136
  0
VERTEX
  8
0
 10
9.05372503
 20
3.96266978
  0
VERTEX
  8
0
 10
9.05123720
 20
3.92056742
  0
VERTEX
  8
0
 10
9.04713476
 20
3.87859607
  0
VERTEX
  8
0
 10
9.04146897
 20
3.83683750
  0
VERTEX
  8
0
 10
9.03429110
 20
3.79537348
  0
VERTEX
  8
0
 10
9.02565241
 20
3.75428580
  0
VERTEX
  8
0
 10
9.01745801
 20
3.72868563
  0
VERTEX
  8
0
 10
9.00714059
 20
3.70415309
  0
VERTEX
  8
0
 10
8.99503676
 20
3.68052180
  0
VERTEX
  8
0
 10
8.98148314
 20
3.65762539
  0
VERTEX
  8
0
 10
8.96681637
 20
3.63529747
  0
VERTEX
  8
0
 10
8.95137305
 20
3.61337168
  0
VERTEX
  8
0
 10
8.91950331
 20
3.57006092
  0
VERTEX
  8
0
 10
8.88856689
 20
3.52636210
  0
VERTEX
  8
0
 10
8.87429024
 20
3.50395122
  0
VERTEX
  8
0
 10
8.86125679
 20
3.48094418
  0
VERTEX
  8
0
 10
8.84980316
 20
3.45717461
  0
VERTEX
  8
0
 10
8.84026598
 20
3.43247612
  0
VERTEX
  8
0
 10
8.83298187
 20
3.40668235
  0
VERTEX
  8
0
 10
8.83028991
 20
3.39332274
  0
VERTEX
  8
0
 10
8.82828746
 20
3.37962691
  0
VERTEX
  8
0
 10
8.82258638
 20
3.35037976
  0
VERTEX
  8
0
 10
8.81607470
 20
3.32120291
  0
VERTEX
  8
0
 10
8.80215333
 20
3.26282669
  0
VERTEX
  8
0
 10
8.79551053
 20
3.23351060
  0
VERTEX
  8
0
 10
8.78959092
 20
3.20403136
  0
VERTEX
  8
0
 10
8.78477796
 20
3.17433063
  0
VERTEX
  8
0
 10
8.78145509
 20
3.14435004
  0
VERTEX
  8
0
 10
8.79516643
 20
3.10494608
  0
VERTEX
  8
0
 10
8.81075763
 20
3.06593593
  0
VERTEX
  8
0
 10
8.82780644
 20
3.02722608
  0
VERTEX
  8
0
 10
8.84589066
 20
2.98872299
  0
VERTEX
  8
0
 10
8.88347636
 20
2.91196296
  0
VERTEX
  8
0
 10
8.90213339
 20
2.87351896
  0
VERTEX
  8
0
 10
8.92013690
 20
2.83490760
  0
VERTEX
  8
0
 10
8.93706465
 20
2.79603534
  0
VERTEX
  8
0
 10
8.95249442
 20
2.75680867
  0
VERTEX
  8
0
 10
8.96600399
 20
2.71713404
  0
VERTEX
  8
0
 10
8.97717111
 20
2.67691792
  0
VERTEX
  8
0
 10
8.98174431
 20
2.65657758
  0
VERTEX
  8
0
 10
8.98557356
 20
2.63606679
  0
VERTEX
  8
0
 10
8.98860609
 20
2.61537386
  0
VERTEX
  8
0
 10
8.99078912
 20
2.59448711
  0
VERTEX
  8
0
 10
8.99206986
 20
2.57339484
  0
VERTEX
  8
0
 10
8.99239554
 20
2.55208535
  0
VERTEX
  8
0
 10
8.99171338
 20
2.53054697
  0
VERTEX
  8
0
 10
8.98997061
 20
2.50876799
  0
VERTEX
  8
0
 10
8.97824997
 20
2.46553222
  0
VERTEX
  8
0
 10
8.96380025
 20
2.42327661
  0
VERTEX
  8
0
 10
8.94673072
 20
2.38210651
  0
VERTEX
  8
0
 10
8.92715066
 20
2.34212726
  0
VERTEX
  8
0
 10
8.90516933
 20
2.30344423
  0
VERTEX
  8
0
 10
8.88089601
 20
2.26616277
  0
VERTEX
  8
0
 10
8.85443996
 20
2.23038822
  0
VERTEX
  8
0
 10
8.82591046
 20
2.19622595
  0
VERTEX
  8
0
 10
8.79541678
 20
2.16378131
  0
VERTEX
  8
0
 10
8.76306819
 20
2.13315964
  0
VERTEX
  8
0
 10
8.72897396
 20
2.10446631
  0
VERTEX
  8
0
 10
8.69324337
 20
2.07780667
  0
VERTEX
  8
0
 10
8.65598567
 20
2.05328606
  0
VERTEX
  8
0
 10
8.61731015
 20
2.03100985
  0
VERTEX
  8
0
 10
8.57732608
 20
2.01108338
  0
VERTEX
  8
0
 10
8.53614272
 20
1.99361201
  0
VERTEX
  8
0
 10
8.46014138
 20
1.96575108
  0
VERTEX
  8
0
 10
8.38350109
 20
1.93943245
  0
VERTEX
  8
0
 10
8.30626428
 20
1.91472542
  0
VERTEX
  8
0
 10
8.22847337
 20
1.89169928
  0
VERTEX
  8
0
 10
8.15017080
 20
1.87042331
  0
VERTEX
  8
0
 10
8.07139901
 20
1.85096681
  0
VERTEX
  8
0
 10
7.99220043
 20
1.83339906
  0
VERTEX
  8
0
 10
7.91261748
 20
1.81778934
  0
VERTEX
  8
0
 10
7.83269260
 20
1.80420696
  0
VERTEX
  8
0
 10
7.75246823
 20
1.79272120
  0
VERTEX
  8
0
 10
7.67198679
 20
1.78340135
  0
VERTEX
  8
0
 10
7.59129071
 20
1.77631669
  0
VERTEX
  8
0
 10
7.51042244
 20
1.77153652
  0
VERTEX
  8
0
 10
7.42942439
 20
1.76913013
  0
VERTEX
  8
0
 10
7.34833901
 20
1.76916680
  0
VERTEX
  8
0
 10
7.26720873
 20
1.77171582
  0
VERTEX
  8
0
 10
7.21986822
 20
1.77572191
  0
VERTEX
  8
0
 10
7.17189308
 20
1.78043364
  0
VERTEX
  8
0
 10
7.12393206
 20
1.78681750
  0
VERTEX
  8
0
 10
7.10015959
 20
1.79093851
  0
VERTEX
  8
0
 10
7.07663394
 20
1.79583999
  0
VERTEX
  8
0
 10
7.05343620
 20
1.80164275
  0
VERTEX
  8
0
 10
7.03064746
 20
1.80846761
  0
VERTEX
  8
0
 10
7.00834883
 20
1.81643537
  0
VERTEX
  8
0
 10
6.98662140
 20
1.82566684
  0
VERTEX
  8
0
 10
6.96554626
 20
1.83628285
  0
VERTEX
  8
0
 10
6.94520452
 20
1.84840420
  0
VERTEX
  8
0
 10
6.92567725
 20
1.86215170
  0
VERTEX
  8
0
 10
6.90704556
 20
1.87764616
  0
VERTEX
  8
0
 10
6.87688303
 20
1.90682264
  0
VERTEX
  8
0
 10
6.84857979
 20
1.93748696
  0
VERTEX
  8
0
 10
6.82186846
 20
1.96942253
  0
VERTEX
  8
0
 10
6.79648164
 20
2.00241277
  0
VERTEX
  8
0
 10
6.77215193
 20
2.03624109
  0
VERTEX
  8
0
 10
6.74861195
 20
2.07069091
  0
VERTEX
  8
0
 10
6.70283157
 20
2.14058870
  0
VERTEX
  8
0
 10
6.65700134
 20
2.21037345
  0
VERTEX
  8
0
 10
6.63339904
 20
2.24468197
  0
VERTEX
  8
0
 10
6.60898210
 20
2.27831247
  0
VERTEX
  8
0
 10
6.58348311
 20
2.31104837
  0
VERTEX
  8
0
 10
6.55663468
 20
2.34267308
  0
VERTEX
  8
0
 10
6.52816942
 20
2.37297002
  0
VERTEX
  8
0
 10
6.49781993
 20
2.40172259
  0
VERTEX
  8
0
 10
6.46867122
 20
2.42989942
  0
VERTEX
  8
0
 10
6.43829537
 20
2.45624525
  0
VERTEX
  8
0
 10
6.40677065
 20
2.48081133
  0
VERTEX
  8
0
 10
6.37417538
 20
2.50364891
  0
VERTEX
  8
0
 10
6.34058782
 20
2.52480924
  0
VERTEX
  8
0
 10
6.30608629
 20
2.54434356
  0
VERTEX
  8
0
 10
6.27074907
 20
2.56230312
  0
VERTEX
  8
0
 10
6.23465445
 20
2.57873916
  0
VERTEX
  8
0
 10
6.19788072
 20
2.59370294
  0
VERTEX
  8
0
 10
6.16050618
 20
2.60724570
  0
VERTEX
  8
0
 10
6.12260911
 20
2.61941869
  0
VERTEX
  8
0
 10
6.08426782
 20
2.63027315
  0
VERTEX
  8
0
 10
6.04556059
 20
2.63986034
  0
VERTEX
  8
0
 10
6.00656571
 20
2.64823149
  0
VERTEX
  8
0
 10
5.96736148
 20
2.65543786
  0
VERTEX
  8
0
 10
5.92802619
 20
2.66153070
  0
VERTEX
  8
0
 10
5.92325086
 20
2.61131842
  0
VERTEX
  8
0
 10
5.91881330
 20
2.56097293
  0
VERTEX
  8
0
 10
5.91596442
 20
2.53591065
  0
VERTEX
  8
0
 10
5.91229185
 20
2.51100756
  0
VERTEX
  8
0
 10
5.90749289
 20
2.48632783
  0
VERTEX
  8
0
 10
5.90126484
 20
2.46193563
  0
VERTEX
  8
0
 10
5.88682527
 20
2.44952977
  0
VERTEX
  8
0
 10
5.87186016
 20
2.43778960
  0
VERTEX
  8
0
 10
5.84071776
 20
2.41585531
  0
VERTEX
  8
0
 10
5.80856641
 20
2.39523071
  0
VERTEX
  8
0
 10
5.77613489
 20
2.37501375
  0
VERTEX
  8
0
 10
5.74415197
 20
2.35430239
  0
VERTEX
  8
0
 10
5.71334643
 20
2.33219458
  0
VERTEX
  8
0
 10
5.69861292
 20
2.32033513
  0
VERTEX
  8
0
 10
5.68444704
 20
2.30778829
  0
VERTEX
  8
0
 10
5.67093990
 20
2.29444132
  0
VERTEX
  8
0
 10
5.65818258
 20
2.28018146
  0
VERTEX
  8
0
 10
5.64745868
 20
2.26407196
  0
VERTEX
  8
0
 10
5.63751319
 20
2.24756978
  0
VERTEX
  8
0
 10
5.62829055
 20
2.23070759
  0
VERTEX
  8
0
 10
5.61973524
 20
2.21351810
  0
VERTEX
  8
0
 10
5.60440445
 20
2.17828792
  0
VERTEX
  8
0
 10
5.59107651
 20
2.14214075
  0
VERTEX
  8
0
 10
5.57930710
 20
2.10533807
  0
VERTEX
  8
0
 10
5.56865193
 20
2.06814140
  0
VERTEX
  8
0
 10
5.54890707
 20
1.99361201
  0
VERTEX
  8
0
 10
5.53437011
 20
1.93458314
  0
VERTEX
  8
0
 10
5.51822443
 20
1.87597575
  0
VERTEX
  8
0
 10
5.50060328
 20
1.81776834
  0
VERTEX
  8
0
 10
5.48163991
 20
1.75993943
  0
VERTEX
  8
0
 10
5.46146758
 20
1.70246751
  0
VERTEX
  8
0
 10
5.44021953
 20
1.64533109
  0
VERTEX
  8
0
 10
5.41802902
 20
1.58850866
  0
VERTEX
  8
0
 10
5.39502931
 20
1.53197873
  0
VERTEX
  8
0
 10
5.34178685
 20
1.57081201
  0
VERTEX
  8
0
 10
5.28908555
 20
1.61034413
  0
VERTEX
  8
0
 10
5.23690098
 20
1.65053641
  0
VERTEX
  8
0
 10
5.18520876
 20
1.69135016
  0
VERTEX
  8
0
 10
5.08320366
 20
1.77468732
  0
VERTEX
  8
0
 10
4.98287499
 20
1.86004613
  0
VERTEX
  8
0
 10
4.88402746
 20
1.94711711
  0
VERTEX
  8
0
 10
4.78646579
 20
2.03559077
  0
VERTEX
  8
0
 10
4.68999471
 20
2.12515763
  0
VERTEX
  8
0
 10
4.59441894
 20
2.21550820
  0
VERTEX
  8
0
 10
4.57027944
 20
2.23821444
  0
VERTEX
  8
0
 10
4.54492228
 20
2.25907096
  0
VERTEX
  8
0
 10
4.51851355
 20
2.27833114
  0
VERTEX
  8
0
 10
4.49121936
 20
2.29624835
  0
VERTEX
  8
0
 10
4.46320582
 20
2.31307598
  0
VERTEX
  8
0
 10
4.43463905
 20
2.32906739
  0
VERTEX
  8
0
 10
4.37651020
 20
2.35955508
  0
VERTEX
  8
0
 10
4.31816169
 20
2.38973843
  0
VERTEX
  8
0
 10
4.28932032
 20
2.40534942
  0
VERTEX
  8
0
 10
4.26092237
 20
2.42164444
  0
VERTEX
  8
0
 10
4.23313393
 20
2.43887689
  0
VERTEX
  8
0
 10
4.20612111
 20
2.45730013
  0
VERTEX
  8
0
 10
4.18005003
 20
2.47716753
  0
VERTEX
  8
0
 10
4.15508678
 20
2.49873249
  0
VERTEX
  8
0
 10
4.00901317
 20
2.63086954
  0
VERTEX
  8
0
 10
3.86395754
 20
2.76435481
  0
VERTEX
  8
0
 10
3.71895170
 20
2.89799938
  0
VERTEX
  8
0
 10
3.57302742
 20
3.03061431
  0
VERTEX
  8
0
 10
3.50225574
 20
3.08496242
  0
VERTEX
  8
0
 10
3.43089083
 20
3.13852719
  0
VERTEX
  8
0
 10
3.35892572
 20
3.19128369
  0
VERTEX
  8
0
 10
3.28635344
 20
3.24320701
  0
VERTEX
  8
0
 10
3.21316700
 20
3.29427223
  0
VERTEX
  8
0
 10
3.13935943
 20
3.34445442
  0
VERTEX
  8
0
 10
3.06492376
 20
3.39372867
  0
VERTEX
  8
0
 10
2.98985301
 20
3.44207006
  0
VERTEX
  8
0
 10
2.90859953
 20
3.50296828
  0
VERTEX
  8
0
 10
2.82617082
 20
3.56287827
  0
VERTEX
  8
0
 10
2.74367131
 20
3.62293298
  0
VERTEX
  8
0
 10
2.66220542
 20
3.68426539
  0
VERTEX
  8
0
 10
2.62220522
 20
3.71576478
  0
VERTEX
  8
0
 10
2.58287759
 20
3.74800847
  0
VERTEX
  8
0
 10
2.54436057
 20
3.78113806
  0
VERTEX
  8
0
 10
2.50679223
 20
3.81529519
  0
VERTEX
  8
0
 10
2.47031062
 20
3.85062147
  0
VERTEX
  8
0
 10
2.43505379
 20
3.88725852
  0
VERTEX
  8
0
 10
2.40115980
 20
3.92534797
  0
VERTEX
  8
0
 10
2.36876669
 20
3.96503143
  0
VERTEX
  8
0
 10
2.33226463
 20
4.00733327
  0
VERTEX
  8
0
 10
2.29718984
 20
4.05083262
  0
VERTEX
  8
0
 10
2.22909554
 20
4.13954689
  0
VERTEX
  8
0
 10
2.19496278
 20
4.18382332
  0
VERTEX
  8
0
 10
2.16003075
 20
4.22742029
  0
VERTEX
  8
0
 10
2.12374284
 20
4.26986856
  0
VERTEX
  8
0
 10
2.08554241
 20
4.31069887
  0
VERTEX
  8
0
 10
2.04580689
 20
4.34246302
  0
VERTEX
  8
0
 10
2.00748989
 20
4.37566987
  0
VERTEX
  8
0
 10
1.97041125
 20
4.41013815
  0
VERTEX
  8
0
 10
1.93439076
 20
4.44568655
  0
VERTEX
  8
0
 10
1.89924825
 20
4.48213379
  0
VERTEX
  8
0
 10
1.86480352
 20
4.51929858
  0
VERTEX
  8
0
 10
1.79728670
 20
4.59505566
  0
VERTEX
  8
0
 10
1.73039880
 20
4.67150746
  0
VERTEX
  8
0
 10
1.66269835
 20
4.74720368
  0
VERTEX
  8
0
 10
1.62809295
 20
4.78431522
  0
VERTEX
  8
0
 10
1.59274386
 20
4.82069400
  0
VERTEX
  8
0
 10
1.55647088
 20
4.85615872
  0
VERTEX
  8
0
 10
1.51909384
 20
4.89052811
  0
VERTEX
  8
0
 10
1.43417252
 20
4.96431874
  0
VERTEX
  8
0
 10
1.34819452
 20
5.03680312
  0
VERTEX
  8
0
 10
1.26131526
 20
5.10816820
  0
VERTEX
  8
0
 10
1.17369011
 20
5.17860089
  0
VERTEX
  8
0
 10
1.08547447
 20
5.24828814
  0
VERTEX
  8
0
 10
0.99682373
 20
5.31741688
  0
VERTEX
  8
0
 10
0.81883853
 20
5.45474656
  0
VERTEX
  8
0
 10
0.78186558
 20
5.48610135
  0
VERTEX
  8
0
 10
0.74388817
 20
5.51618989
  0
VERTEX
  8
0
 10
0.70507282
 20
5.54521999
  0
VERTEX
  8
0
 10
0.66558602
 20
5.57339945
  0
VERTEX
  8
0
 10
0.58526416
 20
5.62803759
  0
VERTEX
  8
0
 10
0.50425468
 20
5.68176670
  0
VERTEX
  8
0
 10
0.42388967
 20
5.73624913
  0
VERTEX
  8
0
 10
0.38436512
 20
5.76429234
  0
VERTEX
  8
0
 10
0.34550121
 20
5.79314726
  0
VERTEX
  8
0
 10
0.30746447
 20
5.82302170
  0
VERTEX
  8
0
 10
0.27042140
 20
5.85412345
  0
VERTEX
  8
0
 10
0.23453851
 20
5.88666031
  0
VERTEX
  8
0
 10
0.19998232
 20
5.92084007
  0
VERTEX
  8
0
 10
0.17449068
 20
5.96225758
  0
VERTEX
  8
0
 10
0.15070123
 20
6.00474300
  0
VERTEX
  8
0
 10
0.12863308
 20
6.04821224
  0
VERTEX
  8
0
 10
0.10830533
 20
6.09258123
  0
VERTEX
  8
0
 10
0.08973709
 20
6.13776587
  0
VERTEX
  8
0
 10
0.07294745
 20
6.18368210
  0
VERTEX
  8
0
 10
0.05795553
 20
6.23024581
  0
VERTEX
  8
0
 10
0.04478043
 20
6.27737293
  0
VERTEX
  8
0
 10
0.03344125
 20
6.32497937
  0
VERTEX
  8
0
 10
0.02395709
 20
6.37298106
  0
VERTEX
  8
0
 10
0.01634707
 20
6.42129391
  0
VERTEX
  8
0
 10
0.01063029
 20
6.46983382
  0
VERTEX
  8
0
 10
0.00682584
 20
6.51851673
  0
VERTEX
  8
0
 10
0.00495284
 20
6.56725855
  0
VERTEX
  8
0
 10
0.00503039
 20
6.61597519
  0
VERTEX
  8
0
 10
0.00707759
 20
6.66458258
  0
VERTEX
  8
0
 10
0.00873319
 20
6.68488490
  0
VERTEX
  8
0
 10
0.01182006
 20
6.70475959
  0
VERTEX
  8
0
 10
0.01626099
 20
6.72419810
  0
VERTEX
  8
0
 10
0.02197872
 20
6.74319185
  0
VERTEX
  8
0
 10
0.02889604
 20
6.76173230
  0
VERTEX
  8
0
 10
0.03693571
 20
6.77981088
  0
VERTEX
  8
0
 10
0.04602049
 20
6.79741904
  0
VERTEX
  8
0
 10
0.05607316
 20
6.81454822
  0
VERTEX
  8
0
 10
0.06701648
 20
6.83118985
  0
VERTEX
  8
0
 10
0.07877322
 20
6.84733538
  0
VERTEX
  8
0
 10
0.09126614
 20
6.86297625
  0
VERTEX
  8
0
 10
0.10441802
 20
6.87810390
  0
VERTEX
  8
0
 10
0.13238970
 20
6.90678531
  0
VERTEX
  8
0
 10
0.16207041
 20
6.93331113
  0
VERTEX
  8
0
 10
0.17837414
 20
6.94839056
  0
VERTEX
  8
0
 10
0.19569286
 20
6.96262693
  0
VERTEX
  8
0
 10
0.21378129
 20
6.97622004
  0
VERTEX
  8
0
 10
0.23239419
 20
6.98936973
  0
VERTEX
  8
0
 10
0.27021233
 20
7.01513812
  0
VERTEX
  8
0
 10
0.30718522
 20
7.04153065
  0
VERTEX
  8
0
 10
0.32474154
 20
7.05546053
  0
VERTEX
  8
0
 10
0.34135077
 20
7.07014592
  0
VERTEX
  8
0
 10
0.35676766
 20
7.08578663
  0
VERTEX
  8
0
 10
0.37074693
 20
7.10258249
  0
VERTEX
  8
0
 10
0.38304334
 20
7.12073331
  0
VERTEX
  8
0
 10
0.39341162
 20
7.14043893
  0
VERTEX
  8
0
 10
0.40160652
 20
7.16189917
  0
VERTEX
  8
0
 10
0.40481231
 20
7.17334971
  0
VERTEX
  8
0
 10
0.40738278
 20
7.18531384
  0
VERTEX
  8
0
 10
0.28956235
 20
7.21013393
  0
VERTEX
  8
0
 10
0.17099086
 20
7.23437631
  0
VERTEX
  8
0
 10
0.17641005
 20
7.26494335
  0
VERTEX
  8
0
 10
0.18153369
 20
7.29665591
  0
VERTEX
  8
0
 10
0.18752743
 20
7.32853695
  0
VERTEX
  8
0
 10
0.19121486
 20
7.34423531
  0
VERTEX
  8
0
 10
0.19555694
 20
7.35960941
  0
VERTEX
  8
0
 10
0.20069937
 20
7.37453709
  0
VERTEX
  8
0
 10
0.20678788
 20
7.38889624
  0
VERTEX
  8
0
 10
0.21396815
 20
7.40256472
  0
VERTEX
  8
0
 10
0.22238591
 20
7.41542040
  0
VERTEX
  8
0
 10
0.23218686
 20
7.42734115
  0
VERTEX
  8
0
 10
0.24351670
 20
7.43820484
  0
VERTEX
  8
0
 10
0.25652115
 20
7.44788933
  0
VERTEX
  8
0
 10
0.27134592
 20
7.45627250
  0
VERTEX
  8
0
 10
0.32665890
 20
7.48555537
  0
VERTEX
  8
0
 10
0.38302840
 20
7.51266639
  0
VERTEX
  8
0
 10
0.44016820
 20
7.53819191
  0
VERTEX
  8
0
 10
0.49779207
 20
7.56271822
  0
VERTEX
  8
0
 10
0.61334715
 20
7.61111854
  0
VERTEX
  8
0
 10
0.67070593
 20
7.63616518
  0
VERTEX
  8
0
 10
0.72740392
 20
7.66255790
  0
VERTEX
  8
0
 10
0.75793960
 20
7.67704898
  0
VERTEX
  8
0
 10
0.78881966
 20
7.69062210
  0
VERTEX
  8
0
 10
0.81999787
 20
7.70340044
  0
VERTEX
  8
0
 10
0.85142799
 20
7.71550715
  0
VERTEX
  8
0
 10
0.91485903
 20
7.73819836
  0
VERTEX
  8
0
 10
0.97874290
 20
7.75968103
  0
VERTEX
  8
0
 10
1.04270974
 20
7.78094048
  0
VERTEX
  8
0
 10
1.10638968
 20
7.80296200
  0
VERTEX
  8
0
 10
1.16941283
 20
7.82673092
  0
VERTEX
  8
0
 10
1.20056253
 20
7.83957855
  0
VERTEX
  8
0
 10
1.23140933
 20
7.85323252
  0
VERTEX
  8
0
 10
1.24415165
 20
7.85850539
  0
VERTEX
  8
0
 10
1.25605822
 20
7.86475828
  0
VERTEX
  8
0
 10
1.26719298
 20
7.87190733
  0
VERTEX
  8
0
 10
1.27761983
 20
7.87986863
  0
VERTEX
  8
0
 10
1.28740269
 20
7.88855830
  0
VERTEX
  8
0
 10
1.29660548
 20
7.89789245
  0
VERTEX
  8
0
 10
1.31352652
 20
7.91815866
  0
VERTEX
  8
0
 10
1.32889429
 20
7.93999616
  0
VERTEX
  8
0
 10
1.34322013
 20
7.96273383
  0
VERTEX
  8
0
 10
1.37079136
 20
8.00822534
  0
VERTEX
  8
0
 10
1.32653558
 20
8.03255822
  0
VERTEX
  8
0
 10
1.28161369
 20
8.05542520
  0
VERTEX
  8
0
 10
1.23613267
 20
8.07705647
  0
VERTEX
  8
0
 10
1.19019944
 20
8.09768222
  0
VERTEX
  8
0
 10
1.09740421
 20
8.13683786
  0
VERTEX
  8
0
 10
1.00408361
 20
8.17473363
  0
VERTEX
  8
0
 10
0.91109325
 20
8.21321100
  0
VERTEX
  8
0
 10
0.86498928
 20
8.23324326
  0
VERTEX
  8
0
 10
0.81928873
 20
8.25411147
  0
VERTEX
  8
0
 10
0.77409854
 20
8.27604582
  0
VERTEX
  8
0
 10
0.72952566
 20
8.29927650
  0
VERTEX
  8
0
 10
0.68567704
 20
8.32403370
  0
VERTEX
  8
0
 10
0.64265964
 20
8.35054760
  0
VERTEX
  8
0
 10
0.61745427
 20
8.36564945
  0
VERTEX
  8
0
 10
0.59326572
 20
8.38250008
  0
VERTEX
  8
0
 10
0.57019405
 20
8.40098819
  0
VERTEX
  8
0
 10
0.54833930
 20
8.42100248
  0
VERTEX
  8
0
 10
0.52780151
 20
8.44243165
  0
VERTEX
  8
0
 10
0.50868074
 20
8.46516440
  0
VERTEX
  8
0
 10
0.49107701
 20
8.48908942
  0
VERTEX
  8
0
 10
0.47509039
 20
8.51409542
  0
VERTEX
  8
0
 10
0.46082090
 20
8.54007109
  0
VERTEX
  8
0
 10
0.44836861
 20
8.56690513
  0
VERTEX
  8
0
 10
0.43783354
 20
8.59448624
  0
VERTEX
  8
0
 10
0.42931576
 20
8.62270311
  0
VERTEX
  8
0
 10
0.42291529
 20
8.65144445
  0
VERTEX
  8
0
 10
0.41873220
 20
8.68059895
  0
VERTEX
  8
0
 10
0.41686651
 20
8.71005531
  0
VERTEX
  8
0
 10
0.41741828
 20
8.73970223
  0
VERTEX
  8
0
 10
0.42010105
 20
8.75848296
  0
VERTEX
  8
0
 10
0.42506305
 20
8.77592449
  0
VERTEX
  8
0
 10
0.43211557
 20
8.79206194
  0
VERTEX
  8
0
 10
0.44106987
 20
8.80693041
  0
VERTEX
  8
0
 10
0.45173723
 20
8.82056503
  0
VERTEX
  8
0
 10
0.46392891
 20
8.83300092
  0
VERTEX
  8
0
 10
0.47745620
 20
8.84427318
  0
VERTEX
  8
0
 10
0.49213037
 20
8.85441695
  0
VERTEX
  8
0
 10
0.50776268
 20
8.86346734
  0
VERTEX
  8
0
 10
0.52416441
 20
8.87145947
  0
VERTEX
  8
0
 10
0.54114684
 20
8.87842844
  0
VERTEX
  8
0
 10
0.55852123
 20
8.88440940
  0
VERTEX
  8
0
 10
0.57609886
 20
8.88943743
  0
VERTEX
  8
0
 10
0.59369100
 20
8.89354768
  0
VERTEX
  8
0
 10
0.61110893
 20
8.89677525
  0
VERTEX
  8
0
 10
0.62816391
 20
8.89915527
  0
VERTEX
  8
0
 10
0.71804381
 20
8.90810347
  0
VERTEX
  8
0
 10
0.80802510
 20
8.91585950
  0
VERTEX
  8
0
 10
0.89809066
 20
8.92260835
  0
VERTEX
  8
0
 10
0.98822336
 20
8.92853499
  0
VERTEX
  8
0
 10
1.16862163
 20
8.93866157
  0
VERTEX
  8
0
 10
1.34908288
 20
8.94771909
  0
VERTEX
  8
0
 10
1.52947004
 20
8.95718740
  0
VERTEX
  8
0
 10
1.70964608
 20
8.96854634
  0
VERTEX
  8
0
 10
1.79961209
 20
8.97539725
  0
VERTEX
  8
0
 10
1.88947393
 20
8.98327576
  0
VERTEX
  8
0
 10
1.97921447
 20
8.99236685
  0
VERTEX
  8
0
 10
2.06881657
 20
9.00285550
  0
VERTEX
  8
0
 10
2.14920282
 20
9.02303507
  0
VERTEX
  8
0
 10
2.22923813
 20
9.04463780
  0
VERTEX
  8
0
 10
2.30890320
 20
9.06763837
  0
VERTEX
  8
0
 10
2.38817870
 20
9.09201146
  0
VERTEX
  8
0
 10
2.46704533
 20
9.11773176
  0
VERTEX
  8
0
 10
2.54548377
 20
9.14477394
  0
VERTEX
  8
0
 10
2.62347471
 20
9.17311269
  0
VERTEX
  8
0
 10
2.70099883
 20
9.20272269
  0
VERTEX
  8
0
 10
2.77803682
 20
9.23357863
  0
VERTEX
  8
0
 10
2.85456936
 20
9.26565518
  0
VERTEX
  8
0
 10
2.93057715
 20
9.29892704
  0
VERTEX
  8
0
 10
3.00604087
 20
9.33336887
  0
VERTEX
  8
0
 10
3.08094120
 20
9.36895537
  0
VERTEX
  8
0
 10
3.15525884
 20
9.40566122
  0
VERTEX
  8
0
 10
3.22897446
 20
9.44346109
  0
VERTEX
  8
0
 10
3.30206876
 20
9.48232968
  0
VERTEX
  8
0
 10
3.45076388
 20
9.57202558
  0
VERTEX
  8
0
 10
3.60045069
 20
9.66045531
  0
VERTEX
  8
0
 10
3.67577973
 20
9.70387969
  0
VERTEX
  8
0
 10
3.75149320
 20
9.74660872
  0
VERTEX
  8
0
 10
3.82763659
 20
9.78851615
  0
VERTEX
  8
0
 10
3.90425541
 20
9.82947569
  0
VERTEX
  8
0
 10
3.98139515
 20
9.86936108
  0
VERTEX
  8
0
 10
4.05910131
 20
9.90804606
  0
VERTEX
  8
0
 10
4.13741940
 20
9.94540436
  0
VERTEX
  8
0
 10
4.21639491
 20
9.98130970
  0
VERTEX
  8
0
 10
4.29607334
 20
10.01563583
  0
VERTEX
  8
0
 10
4.37650020
 20
10.04825647
  0
VERTEX
  8
0
 10
4.45772098
 20
10.07904536
  0
VERTEX
  8
0
 10
4.53978118
 20
10.10787623
  0
VERTEX
  8
0
 10
4.62710298
 20
10.13825329
  0
VERTEX
  8
0
 10
4.71489362
 20
10.16734483
  0
VERTEX
  8
0
 10
4.80313232
 20
10.19512390
  0
VERTEX
  8
0
 10
4.89179828
 20
10.22156353
  0
VERTEX
  8
0
 10
4.98087072
 20
10.24663677
  0
VERTEX
  8
0
 10
5.07032884
 20
10.27031668
  0
VERTEX
  8
0
 10
5.16015185
 20
10.29257629
  0
VERTEX
  8
0
 10
5.25031897
 20
10.31338866
  0
VERTEX
  8
0
 10
5.34080940
 20
10.33272682
  0
VERTEX
  8
0
 10
5.43160236
 20
10.35056383
  0
VERTEX
  8
0
 10
5.52267705
 20
10.36687273
  0
VERTEX
  8
0
 10
5.61401269
 20
10.38162656
  0
VERTEX
  8
0
 10
5.70558848
 20
10.39479838
  0
VERTEX
  8
0
 10
5.79738364
 20
10.40636123
  0
VERTEX
  8
0
 10
5.88937737
 20
10.41628815
  0
VERTEX
  8
0
 10
5.98154889
 20
10.42455220
  0
VERTEX
  8
0
 10
6.06076054
 20
10.43401410
  0
VERTEX
  8
0
 10
6.14011996
 20
10.44243594
  0
VERTEX
  8
0
 10
6.21960420
 20
10.44976227
  0
VERTEX
  8
0
 10
6.29919036
 20
10.45593767
  0
VERTEX
  8
0
 10
6.37885549
 20
10.46090670
  0
VERTEX
  8
0
 10
6.45857669
 20
10.46461394
  0
VERTEX
  8
0
 10
6.53833101
 20
10.46700394
  0
VERTEX
  8
0
 10
6.61809554
 20
10.46802127
  0
VERTEX
  8
0
 10
6.69784734
 20
10.46761050
  0
VERTEX
  8
0
 10
6.77756350
 20
10.46571620
  0
VERTEX
  8
0
 10
6.85722109
 20
10.46228294
  0
VERTEX
  8
0
 10
6.93679718
 20
10.45725528
  0
VERTEX
  8
0
 10
7.01626885
 20
10.45057778
  0
VERTEX
  8
0
 10
7.09561317
 20
10.44219502
  0
VERTEX
  8
0
 10
7.17480721
 20
10.43205156
  0
VERTEX
  8
0
 10
7.25382805
 20
10.42009197
  0
VERTEX
  8
0
 10
7.31657046
 20
10.41425513
  0
VERTEX
  8
0
 10
7.37924622
 20
10.40728312
  0
VERTEX
  8
0
 10
7.44182701
 20
10.39917379
  0
VERTEX
  8
0
 10
7.50428452
 20
10.38992499
  0
VERTEX
  8
0
 10
7.56659044
 20
10.37953458
  0
VERTEX
  8
0
 10
7.62871646
 20
10.36800041
  0
VERTEX
  8
0
 10
7.69063426
 20
10.35532035
  0
VERTEX
  8
0
 10
7.75231554
 20
10.34149223
  0
VERTEX
  8
0
 10
7.81373197
 20
10.32651392
  0
VERTEX
  8
0
 10
7.87485525
 20
10.31038327
  0
VERTEX
  8
0
 10
7.93565707
 20
10.29309813
  0
VERTEX
  8
0
 10
7.99610910
 20
10.27465636
  0
VERTEX
  8
0
 10
8.05618305
 20
10.25505581
  0
VERTEX
  8
0
 10
8.11585060
 20
10.23429434
  0
VERTEX
  8
0
 10
8.17508343
 20
10.21236980
  0
VERTEX
  8
0
 10
8.23385324
 20
10.18928004
  0
VERTEX
  8
0
 10
8.29213170
 20
10.16502292
  0
VERTEX
  8
0
 10
8.34989051
 20
10.13959630
  0
VERTEX
  8
0
 10
8.40710136
 20
10.11299802
  0
VERTEX
  8
0
 10
8.46373594
 20
10.08522594
  0
VERTEX
  8
0
 10
8.51976592
 20
10.05627792
  0
VERTEX
  8
0
 10
8.57516301
 20
10.02615181
  0
VERTEX
  8
0
 10
8.62989888
 20
9.99484546
  0
VERTEX
  8
0
 10
8.68394522
 20
9.96235673
  0
VERTEX
  8
0
 10
8.73727373
 20
9.92868347
  0
VERTEX
  8
0
 10
8.78985608
 20
9.89382354
  0
VERTEX
  8
0
 10
8.84166397
 20
9.85777479
  0
VERTEX
  8
0
 10
8.89266909
 20
9.82053507
  0
VERTEX
  8
0
 10
8.94284312
 20
9.78210224
  0
VERTEX
  8
0
 10
8.99215775
 20
9.74247415
  0
VERTEX
  8
0
 10
9.04058467
 20
9.70164866
  0
VERTEX
  8
0
 10
9.08809556
 20
9.65962362
  0
VERTEX
  8
0
 10
9.10325979
 20
9.64522870
  0
VERTEX
  8
0
 10
9.11885748
 20
9.63152551
  0
VERTEX
  8
0
 10
9.15123990
 20
9.60601306
  0
VERTEX
  8
0
 10
9.18501622
 20
9.58272371
  0
VERTEX
  8
0
 10
9.21995985
 20
9.56129490
  0
VERTEX
  8
0
 10
9.25584420
 20
9.54136408
  0
VERTEX
  8
0
 10
9.29244267
 20
9.52256869
  0
VERTEX
  8
0
 10
9.36687562
 20
9.48693400
  0
VERTEX
  8
0
 10
9.44144595
 20
9.45149036
  0
VERTEX
  8
0
 10
9.47821615
 20
9.43293380
  0
VERTEX
  8
0
 10
9.51434092
 20
9.41333734
  0
VERTEX
  8
0
 10
9.54959366
 20
9.39233842
  0
VERTEX
  8
0
 10
9.58374778
 20
9.36957449
  0
VERTEX
  8
0
 10
9.61657669
 20
9.34468298
  0
VERTEX
  8
0
 10
9.63242337
 20
9.33132610
  0
VERTEX
  8
0
 10
9.64785379
 20
9.31730136
  0
VERTEX
  8
0
 10
9.67038041
 20
9.29637044
  0
VERTEX
  8
0
 10
9.69258814
 20
9.27465074
  0
VERTEX
  8
0
 10
9.71431984
 20
9.25215267
  0
VERTEX
  8
0
 10
9.73541838
 20
9.22888663
  0
VERTEX
  8
0
 10
9.75572662
 20
9.20486303
  0
VERTEX
  8
0
 10
9.77508741
 20
9.18009227
  0
VERTEX
  8
0
 10
9.79334363
 20
9.15458476
  0
VERTEX
  8
0
 10
9.81033812
 20
9.12835090
  0
VERTEX
  8
0
 10
9.82591376
 20
9.10140109
  0
VERTEX
  8
0
 10
9.83991340
 20
9.07374574
  0
VERTEX
  8
0
 10
9.85217991
 20
9.04539526
  0
VERTEX
  8
0
 10
9.86255615
 20
9.01636005
  0
VERTEX
  8
0
 10
9.87088497
 20
8.98665051
  0
VERTEX
  8
0
 10
9.87700925
 20
8.95627705
  0
VERTEX
  8
0
 10
9.88077184
 20
8.92525007
  0
VERTEX
  8
0
 10
9.88201560
 20
8.89357999
  0
VERTEX
  8
0
 10
9.88360737
 20
8.84768726
  0
VERTEX
  8
0
 10
9.88657996
 20
8.80196288
  0
VERTEX
  8
0
 10
9.89065274
 20
8.75636765
  0
VERTEX
  8
0
 10
9.89554508
 20
8.71086236
  0
VERTEX
  8
0
 10
9.90666590
 20
8.61996480
  0
VERTEX
  8
0
 10
9.91769740
 20
8.52895660
  0
VERTEX
  8
0
 10
9.91920951
 20
8.51592500
  0
VERTEX
  8
0
 10
9.91924084
 20
8.50325856
  0
VERTEX
  8
0
 10
9.91792411
 20
8.49093277
  0
VERTEX
  8
0
 10
9.91539207
 20
8.47892313
  0
VERTEX
  8
0
 10
9.91177745
 20
8.46720513
  0
VERTEX
  8
0
 10
9.90721298
 20
8.45575428
  0
VERTEX
  8
0
 10
9.90183140
 20
8.44454606
  0
VERTEX
  8
0
 10
9.89576544
 20
8.43355597
  0
VERTEX
  8
0
 10
9.88211133
 20
8.41213218
  0
VERTEX
  8
0
 10
9.86731254
 20
8.39128688
  0
VERTEX
  8
0
 10
9.85243094
 20
8.37082403
  0
VERTEX
  8
0
 10
9.83852840
 20
8.35054760
  0
VERTEX
  8
0
 10
9.83261650
 20
8.34293294
  0
VERTEX
  8
0
 10
9.82568398
 20
8.33647252
  0
VERTEX
  8
0
 10
9.81794434
 20
8.33094648
  0
VERTEX
  8
0
 10
9.80961109
 20
8.32613497
  0
VERTEX
  8
0
 10
9.79201770
 20
8.31777620
  0
VERTEX
  8
0
 10
9.77461179
 20
8.30963743
  0
VERTEX
  8
0
 10
9.76467815
 20
8.30324326
  0
VERTEX
  8
0
 10
9.75603941
 20
8.29520972
  0
VERTEX
  8
0
 10
9.74849946
 20
8.28582592
  0
VERTEX
  8
0
 10
9.74186221
 20
8.27538099
  0
VERTEX
  8
0
 10
9.73593156
 20
8.26416403
  0
VERTEX
  8
0
 10
9.73051139
 20
8.25246414
  0
VERTEX
  8
0
 10
9.72041813
 20
8.22877207
  0
VERTEX
  8
0
 10
9.68130547
 20
8.13797843
  0
VERTEX
  8
0
 10
9.82054952
 20
8.12469499
  0
VERTEX
  8
0
 10
9.96006953
 20
8.11233213
  0
VERTEX
  8
0
 10
9.97557470
 20
8.11056396
  0
VERTEX
  8
0
 10
9.99081460
 20
8.10781127
  0
VERTEX
  8
0
 10
10.00575206
 20
8.10410148
  0
VERTEX
  8
0
 10
10.02034995
 20
8.09946200
  0
VERTEX
  8
0
 10
10.03457109
 20
8.09392022
  0
VERTEX
  8
0
 10
10.04837834
 20
8.08750355
  0
VERTEX
  8
0
 10
10.06173454
 20
8.08023940
  0
VERTEX
  8
0
 10
10.07460253
 20
8.07215517
  0
VERTEX
  8
0
 10
10.08694515
 20
8.06327828
  0
VERTEX
  8
0
 10
10.09872526
 20
8.05363611
  0
VERTEX
  8
0
 10
10.10990568
 20
8.04325608
  0
VERTEX
  8
0
 10
10.12044928
 20
8.03216560
  0
VERTEX
  8
0
 10
10.13031889
 20
8.02039207
  0
VERTEX
  8
0
 10
10.13947735
 20
8.00796289
  0
VERTEX
  8
0
 10
10.14788751
 20
7.99490547
  0
VERTEX
  8
0
 10
10.15551222
 20
7.98124721
  0
SEQEND
  0
POLYLINE
  8
Default_Layer
 66
   1
 39
0.000000
 70
    1
  0
VERTEX
  8
0
 10
5.16978795
 20
10.11345151
  0
VERTEX
  8
0
 10
5.10747659
 20
10.09805162
  0
VERTEX
  8
0
 10
5.04582114
 20
10.08077930
  0
VERTEX
  8
0
 10
4.98476490
 20
10.06180673
  0
VERTEX
  8
0
 10
4.92425117
 20
10.04130612
  0
VERTEX
  8
0
 10
4.86422324
 20
10.01944967
  0
VERTEX
  8
0
 10
4.80462439
 20
9.99640958
  0
VERTEX
  8
0
 10
4.74539793
 20
9.97235806
  0
VERTEX
  8
0
 10
4.68648714
 20
9.94746729
  0
VERTEX
  8
0
 10
4.56938573
 20
9.89585684
  0
VERTEX
  8
0
 10
4.45286653
 20
9.84295584
  0
VERTEX
  8
0
 10
4.33647585
 20
9.79014190
  0
VERTEX
  8
0
 10
4.21976004
 20
9.73879261
  0
VERTEX
  8
0
 10
4.11845091
 20
9.68374345
  0
VERTEX
  8
0
 10
4.01819103
 20
9.62688408
  0
VERTEX
  8
0
 10
3.91883100
 20
9.56850137
  0
VERTEX
  8
0
 10
3.82022145
 20
9.50888222
  0
VERTEX
  8
0
 10
3.72221299
 20
9.44831349
  0
VERTEX
  8
0
 10
3.62465622
 20
9.38708207
  0
VERTEX
  8
0
 10
3.43030023
 20
9.26377866
  0
VERTEX
  8
0
 10
3.40288351
 20
9.24785351
  0
VERTEX
  8
0
 10
3.37498452
 20
9.23309996
  0
VERTEX
  8
0
 10
3.34664169
 20
9.21944120
  0
VERTEX
  8
0
 10
3.31789347
 20
9.20680043
  0
VERTEX
  8
0
 10
3.28877830
 20
9.19510083
  0
VERTEX
  8
0
 10
3.25933462
 20
9.18426560
  0
VERTEX
  8
0
 10
3.22960086
 20
9.17421792
  0
VERTEX
  8
0
 10
3.19961547
 20
9.16488100
  0
VERTEX
  8
0
 10
3.13904354
 20
9.14803218
  0
VERTEX
  8
0
 10
3.07792635
 20
9.13310467
  0
VERTEX
  8
0
 10
3.01657143
 20
9.11948401
  0
VERTEX
  8
0
 10
2.95528627
 20
9.10655573
  0
VERTEX
  8
0
 10
2.91745169
 20
9.09826341
  0
VERTEX
  8
0
 10
2.88015546
 20
9.08840376
  0
VERTEX
  8
0
 10
2.84332581
 20
9.07718915
  0
VERTEX
  8
0
 10
2.80689098
 20
9.06483196
  0
VERTEX
  8
0
 10
2.77077918
 20
9.05154458
  0
VERTEX
  8
0
 10
2.73491863
 20
9.03753938
  0
VERTEX
  8
0
 10
2.66366422
 20
9.00822502
  0
VERTEX
  8
0
 10
2.59255355
 20
8.97858793
  0
VERTEX
  8
0
 10
2.52101241
 20
8.95032714
  0
VERTEX
  8
0
 10
2.48490099
 20
8.93724380
  0
VERTEX
  8
0
 10
2.44846662
 20
8.92514167
  0
VERTEX
  8
0
 10
2.41163754
 20
8.91423313
  0
VERTEX
  8
0
 10
2.37434197
 20
8.90473055
  0
VERTEX
  8
0
 10
2.32465660
 20
8.89263385
  0
VERTEX
  8
0
 10
2.27483113
 20
8.88171738
  0
VERTEX
  8
0
 10
2.22487415
 20
8.87190833
  0
VERTEX
  8
0
 10
2.17479425
 20
8.86313390
  0
VERTEX
  8
0
 10
2.12460002
 20
8.85532129
  0
VERTEX
  8
0
 10
2.07430004
 20
8.84839770
  0
VERTEX
  8
0
 10
2.02390290
 20
8.84229033
  0
VERTEX
  8
0
 10
1.97341718
 20
8.83692637
  0
VERTEX
  8
0
 10
1.87221436
 20
8.82813750
  0
VERTEX
  8
0
 10
1.77076026
 20
8.82144867
  0
VERTEX
  8
0
 10
1.66912358
 20
8.81627747
  0
VERTEX
  8
0
 10
1.56737299
 20
8.81204150
  0
VERTEX
  8
0
 10
1.36380487
 20
8.80404558
  0
VERTEX
  8
0
 10
1.26212471
 20
8.79912080
  0
VERTEX
  8
0
 10
1.16060540
 20
8.79280160
  0
VERTEX
  8
0
 10
1.05931563
 20
8.78450557
  0
VERTEX
  8
0
 10
0.95832409
 20
8.77365029
  0
VERTEX
  8
0
 10
0.90796162
 20
8.76708093
  0
VERTEX
  8
0
 10
0.85769946
 20
8.75965335
  0
VERTEX
  8
0
 10
0.80754620
 20
8.75129475
  0
VERTEX
  8
0
 10
0.75751043
 20
8.74193234
  0
VERTEX
  8
0
 10
0.74738089
 20
8.74065006
  0
VERTEX
  8
0
 10
0.73773541
 20
8.73837813
  0
VERTEX
  8
0
 10
0.72863227
 20
8.73517408
  0
VERTEX
  8
0
 10
0.72012969
 20
8.73109549
  0
VERTEX
  8
0
 10
0.71228595
 20
8.72619989
  0
VERTEX
  8
0
 10
0.70515928
 20
8.72054485
  0
VERTEX
  8
0
 10
0.69880793
 20
8.71418792
  0
VERTEX
  8
0
 10
0.69329016
 20
8.70718666
  0
VERTEX
  8
0
 10
0.68866422
 20
8.69959861
  0
VERTEX
  8
0
 10
0.68498836
 20
8.69148133
  0
VERTEX
  8
0
 10
0.68232083
 20
8.68289239
  0
VERTEX
  8
0
 10
0.68071987
 20
8.67388932
  0
VERTEX
  8
0
 10
0.68024374
 20
8.66452969
  0
VERTEX
  8
0
 10
0.68095069
 20
8.65487104
  0
VERTEX
  8
0
 10
0.68289897
 20
8.64497094
  0
VERTEX
  8
0
 10
0.68614684
 20
8.63488694
  0
VERTEX
  8
0
 10
0.70992628
 20
8.61151021
  0
VERTEX
  8
0
 10
0.73514471
 20
8.59055661
  0
VERTEX
  8
0
 10
0.76165067
 20
8.57177457
  0
VERTEX
  8
0
 10
0.78929267
 20
8.55491254
  0
VERTEX
  8
0
 10
0.81791924
 20
8.53971896
  0
VERTEX
  8
0
 10
0.84737889
 20
8.52594226
  0
VERTEX
  8
0
 10
0.87752016
 20
8.51333089
  0
VERTEX
  8
0
 10
0.90819157
 20
8.50163327
  0
VERTEX
  8
0
 10
0.97051887
 20
8.47997310
  0
VERTEX
  8
0
 10
1.03314900
 20
8.45894926
  0
VERTEX
  8
0
 10
1.06419893
 20
8.44804706
  0
VERTEX
  8
0
 10
1.09487013
 20
8.43654927
  0
VERTEX
  8
0
 10
1.12501113
 20
8.42420431
  0
VERTEX
  8
0
 10
1.15447045
 20
8.41076064
  0
VERTEX
  8
0
 10
1.23814417
 20
8.37259973
  0
VERTEX
  8
0
 10
1.32219007
 20
8.33494179
  0
VERTEX
  8
0
 10
1.40681395
 20
8.29866606
  0
VERTEX
  8
0
 10
1.49222159
 20
8.26465177
  0
VERTEX
  8
0
 10
1.53528362
 20
8.24876741
  0
VERTEX
  8
0
 10
1.57861876
 20
8.23377813
  0
VERTEX
  8
0
 10
1.62225273
 20
8.21979382
  0
VERTEX
  8
0
 10
1.66621125
 20
8.20692438
  0
VERTEX
  8
0
 10
1.71052005
 20
8.19527972
  0
VERTEX
  8
0
 10
1.75520484
 20
8.18496974
  0
VERTEX
  8
0
 10
1.80029136
 20
8.17610434
  0
VERTEX
  8
0
 10
1.84580532
 20
8.16879343
  0
VERTEX
  8
0
 10
1.89129498
 20
8.16094355
  0
VERTEX
  8
0
 10
1.93704021
 20
8.15394154
  0
VERTEX
  8
0
 10
1.98300859
 20
8.14780631
  0
VERTEX
  8
0
 10
2.02916772
 20
8.14255678
  0
VERTEX
  8
0
 10
2.07548520
 20
8.13821185
  0
VERTEX
  8
0
 10
2.12192862
 20
8.13479044
  0
VERTEX
  8
0
 10
2.16846557
 20
8.13231147
  0
VERTEX
  8
0
 10
2.21506366
 20
8.13079384
  0
VERTEX
  8
0
 10
2.26169047
 20
8.13025646
  0
VERTEX
  8
0
 10
2.30831359
 20
8.13071826
  0
VERTEX
  8
0
 10
2.35490063
 20
8.13219814
  0
VERTEX
  8
0
 10
2.40141917
 20
8.13471501
  0
VERTEX
  8
0
 10
2.44783682
 20
8.13828779
  0
VERTEX
  8
0
 10
2.49412116
 20
8.14293539
  0
VERTEX
  8
0
 10
2.54023980
 20
8.14867673
  0
VERTEX
  8
0
 10
2.58616031
 20
8.15553071
  0
VERTEX
  8
0
 10
2.63185031
 20
8.16351624
  0
VERTEX
  8
0
 10
2.67727738
 20
8.17265225
  0
VERTEX
  8
0
 10
2.72240912
 20
8.18295764
  0
VERTEX
  8
0
 10
2.76721312
 20
8.19445132
  0
VERTEX
  8
0
 10
2.81165698
 20
8.20715221
  0
VERTEX
  8
0
 10
2.85570829
 20
8.22107922
  0
VERTEX
  8
0
 10
2.89933465
 20
8.23625127
  0
VERTEX
  8
0
 10
2.94250365
 20
8.25268726
  0
VERTEX
  8
0
 10
2.98518288
 20
8.27040610
  0
VERTEX
  8
0
 10
3.02733994
 20
8.28942672
  0
VERTEX
  8
0
 10
3.06894243
 20
8.30976802
  0
VERTEX
  8
0
 10
3.10995793
 20
8.33144892
  0
VERTEX
  8
0
 10
3.15035405
 20
8.35448832
  0
VERTEX
  8
0
 10
3.19009837
 20
8.37890515
  0
VERTEX
  8
0
 10
3.22915850
 20
8.40471830
  0
VERTEX
  8
0
 10
3.26750202
 20
8.43194671
  0
VERTEX
  8
0
 10
3.30286403
 20
8.45336505
  0
VERTEX
  8
0
 10
3.33731755
 20
8.47593217
  0
VERTEX
  8
0
 10
3.37087524
 20
8.49960433
  0
VERTEX
  8
0
 10
3.40354975
 20
8.52433780
  0
VERTEX
  8
0
 10
3.43535376
 20
8.55008886
  0
VERTEX
  8
0
 10
3.46629991
 20
8.57681377
  0
VERTEX
  8
0
 10
3.49640088
 20
8.60446882
  0
VERTEX
  8
0
 10
3.52566933
 20
8.63301026
  0
VERTEX
  8
0
 10
3.55411791
 20
8.66239437
  0
VERTEX
  8
0
 10
3.58175929
 20
8.69257743
  0
VERTEX
  8
0
 10
3.60860613
 20
8.72351569
  0
VERTEX
  8
0
 10
3.63467109
 20
8.75516544
  0
VERTEX
  8
0
 10
3.65996684
 20
8.78748295
  0
VERTEX
  8
0
 10
3.68450604
 20
8.82042448
  0
VERTEX
  8
0
 10
3.70830134
 20
8.85394631
  0
VERTEX
  8
0
 10
3.73136541
 20
8.88800471
  0
VERTEX
  8
0
 10
3.66111409
 20
8.88115110
  0
VERTEX
  8
0
 10
3.59069143
 20
8.87617720
  0
VERTEX
  8
0
 10
3.44975603
 20
8.86812272
  0
VERTEX
  8
0
 10
3.37945524
 20
8.86316929
  0
VERTEX
  8
0
 10
3.30940700
 20
8.85634980
  0
VERTEX
  8
0
 10
3.27451071
 20
8.85194766
  0
VERTEX
  8
0
 10
3.23971731
 20
8.84672784
  0
VERTEX
  8
0
 10
3.20504003
 20
8.84057329
  0
VERTEX
  8
0
 10
3.17049212
 20
8.83336695
  0
VERTEX
  8
0
 10
3.13187659
 20
8.82512557
  0
VERTEX
  8
0
 10
3.09389418
 20
8.81497260
  0
VERTEX
  8
0
 10
3.05644925
 20
8.80320268
  0
VERTEX
  8
0
 10
3.01944613
 20
8.79011046
  0
VERTEX
  8
0
 10
2.98278918
 20
8.77599060
  0
VERTEX
  8
0
 10
2.94638273
 20
8.76113774
  0
VERTEX
  8
0
 10
2.87393874
 20
8.73041162
  0
VERTEX
  8
0
 10
2.80134892
 20
8.70028930
  0
VERTEX
  8
0
 10
2.76476018
 20
8.68619119
  0
VERTEX
  8
0
 10
2.72784803
 20
8.67312797
  0
VERTEX
  8
0
 10
2.69051680
 20
8.66139430
  0
VERTEX
  8
0
 10
2.65267083
 20
8.65128482
  0
VERTEX
  8
0
 10
2.61421449
 20
8.64309419
  0
VERTEX
  8
0
 10
2.57505210
 20
8.63711705
  0
VERTEX
  8
0
 10
2.51796902
 20
8.62939691
  0
VERTEX
  8
0
 10
2.46060588
 20
8.62239041
  0
VERTEX
  8
0
 10
2.40301093
 20
8.61620106
  0
VERTEX
  8
0
 10
2.34523241
 20
8.61093235
  0
VERTEX
  8
0
 10
2.28731855
 20
8.60668776
  0
VERTEX
  8
0
 10
2.22931760
 20
8.60357079
  0
VERTEX
  8
0
 10
2.17127779
 20
8.60168492
  0
VERTEX
  8
0
 10
2.11324737
 20
8.60113366
  0
VERTEX
  8
0
 10
2.05527458
 20
8.60202049
  0
VERTEX
  8
0
 10
1.99740765
 20
8.60444889
  0
VERTEX
  8
0
 10
1.93969483
 20
8.60852237
  0
VERTEX
  8
0
 10
1.88218435
 20
8.61434442
  0
VERTEX
  8
0
 10
1.82492446
 20
8.62201852
  0
VERTEX
  8
0
 10
1.76796340
 20
8.63164817
  0
VERTEX
  8
0
 10
1.71134940
 20
8.64333685
  0
VERTEX
  8
0
 10
1.65513070
 20
8.65718807
  0
VERTEX
  8
0
 10
1.78439618
 20
8.66135737
  0
VERTEX
  8
0
 10
1.91406876
 20
8.66527782
  0
VERTEX
  8
0
 10
2.04379718
 20
8.67058889
  0
VERTEX
  8
0
 10
2.10857256
 20
8.67427822
  0
VERTEX
  8
0
 10
2.17323017
 20
8.67893000
  0
VERTEX
  8
0
 10
2.23772610
 20
8.68474916
  0
VERTEX
  8
0
 10
2.30201645
 20
8.69194063
  0
VERTEX
  8
0
 10
2.36605731
 20
8.70070933
  0
VERTEX
  8
0
 10
2.42980477
 20
8.71126020
  0
VERTEX
  8
0
 10
2.49321492
 20
8.72379818
  0
VERTEX
  8
0
 10
2.55624386
 20
8.73852819
  0
VERTEX
  8
0
 10
2.61884766
 20
8.75565516
  0
VERTEX
  8
0
 10
2.68098244
 20
8.77538403
  0
VERTEX
  8
0
 10
2.73373072
 20
8.79291884
  0
VERTEX
  8
0
 10
2.78585554
 20
8.81225956
  0
VERTEX
  8
0
 10
2.88920744
 20
8.85355896
  0
VERTEX
  8
0
 10
2.94092082
 20
8.87411779
  0
VERTEX
  8
0
 10
2.99298336
 20
8.89368281
  0
VERTEX
  8
0
 10
3.04563821
 20
8.91155408
  0
VERTEX
  8
0
 10
3.07226374
 20
8.91963583
  0
VERTEX
  8
0
 10
3.09912853
 20
8.92703167
  0
VERTEX
  8
0
 10
3.17630894
 20
8.94674363
  0
VERTEX
  8
0
 10
3.25401360
 20
8.96401289
  0
VERTEX
  8
0
 10
3.33208526
 20
8.97957449
  0
VERTEX
  8
0
 10
3.41036667
 20
8.99416344
  0
VERTEX
  8
0
 10
3.48870060
 20
9.00851477
  0
VERTEX
  8
0
 10
3.56692979
 20
9.02336350
  0
VERTEX
  8
0
 10
3.64489699
 20
9.03944465
  0
VERTEX
  8
0
 10
3.72244496
 20
9.05749325
  0
VERTEX
  8
0
 10
3.75035408
 20
9.06443159
  0
VERTEX
  8
0
 10
3.77752823
 20
9.07285548
  0
VERTEX
  8
0
 10
3.80402002
 20
9.08265614
  0
VERTEX
  8
0
 10
3.82988205
 20
9.09372477
  0
VERTEX
  8
0
 10
3.85516692
 20
9.10595259
  0
VERTEX
  8
0
 10
3.87992724
 20
9.11923080
  0
VERTEX
  8
0
 10
3.90421561
 20
9.13345062
  0
VERTEX
  8
0
 10
3.92808463
 20
9.14850325
  0
VERTEX
  8
0
 10
3.97477503
 20
9.18067178
  0
VERTEX
  8
0
 10
4.02041929
 20
9.21486608
  0
VERTEX
  8
0
 10
4.11025263
 20
9.28585067
  0
VERTEX
  8
0
 10
4.15528336
 20
9.32090030
  0
VERTEX
  8
0
 10
4.20095125
 20
9.35449439
  0
VERTEX
  8
0
 10
4.22415562
 20
9.37047364
  0
VERTEX
  8
0
 10
4.24767710
 20
9.38576262
  0
VERTEX
  8
0
 10
4.27156827
 20
9.40025256
  0
VERTEX
  8
0
 10
4.29588174
 20
9.41383466
  0
VERTEX
  8
0
 10
4.32067012
 20
9.42640013
  0
VERTEX
  8
0
 10
4.34598601
 20
9.43784019
  0
VERTEX
  8
0
 10
4.37188201
 20
9.44804603
  0
VERTEX
  8
0
 10
4.39841072
 20
9.45690887
  0
VERTEX
  8
0
 10
4.42562475
 20
9.46431991
  0
VERTEX
  8
0
 10
4.45357670
 20
9.47017038
  0
VERTEX
  8
0
 10
4.48231917
 20
9.47435147
  0
VERTEX
  8
0
 10
4.51190477
 20
9.47675440
  0
VERTEX
  8
0
 10
4.51021275
 20
9.44868730
  0
VERTEX
  8
0
 10
4.50947649
 20
9.41963306
  0
VERTEX
  8
0
 10
4.50848416
 20
9.39023195
  0
VERTEX
  8
0
 10
4.50602391
 20
9.36112426
  0
VERTEX
  8
0
 10
4.50386462
 20
9.34688055
  0
VERTEX
  8
0
 10
4.50088392
 20
9.33295029
  0
VERTEX
  8
0
 10
4.49693031
 20
9.31941353
  0
VERTEX
  8
0
 10
4.49185233
 20
9.30635031
  0
VERTEX
  8
0
 10
4.48549849
 20
9.29384066
  0
VERTEX
  8
0
 10
4.47771731
 20
9.28196462
  0
VERTEX
  8
0
 10
4.46835731
 20
9.27080221
  0
VERTEX
  8
0
 10
4.45726702
 20
9.26043349
  0
VERTEX
  8
0
 10
4.43088773
 20
9.23769518
  0
VERTEX
  8
0
 10
4.40355844
 20
9.21643896
  0
VERTEX
  8
0
 10
4.37537822
 20
9.19651105
  0
VERTEX
  8
0
 10
4.34644613
 20
9.17775769
  0
VERTEX
  8
0
 10
4.31686126
 20
9.16002511
  0
VERTEX
  8
0
 10
4.28672267
 20
9.14315953
  0
VERTEX
  8
0
 10
4.22518061
 20
9.11141432
  0
VERTEX
  8
0
 10
4.16261252
 20
9.08129190
  0
VERTEX
  8
0
 10
4.09981098
 20
9.05156210
  0
VERTEX
  8
0
 10
4.03756854
 20
9.02099478
  0
VERTEX
  8
0
 10
4.00690467
 20
9.00501262
  0
VERTEX
  8
0
 10
3.97667778
 20
8.98835977
  0
VERTEX
  8
0
 10
3.96528670
 20
8.98204722
  0
VERTEX
  8
0
 10
3.95447242
 20
8.97521451
  0
VERTEX
  8
0
 10
3.93450352
 20
8.96007994
  0
VERTEX
  8
0
 10
3.91662959
 20
8.94313867
  0
VERTEX
  8
0
 10
3.90070915
 20
8.92457330
  0
VERTEX
  8
0
 10
3.88660070
 20
8.90456643
  0
VERTEX
  8
0
 10
3.87416276
 20
8.88330067
  0
VERTEX
  8
0
 10
3.86325385
 20
8.86095863
  0
VERTEX
  8
0
 10
3.85373248
 20
8.83772290
  0
VERTEX
  8
0
 10
3.84545715
 20
8.81377611
  0
VERTEX
  8
0
 10
3.83828639
 20
8.78930084
  0
VERTEX
  8
0
 10
3.83207871
 20
8.76447971
  0
VERTEX
  8
0
 10
3.82669261
 20
8.73949532
  0
VERTEX
  8
0
 10
3.81781925
 20
8.68976718
  0
VERTEX
  8
0
 10
3.81053440
 20
8.64157728
  0
VERTEX
  8
0
 10
3.80924482
 20
8.63373750
  0
VERTEX
  8
0
 10
3.80878923
 20
8.62619706
  0
VERTEX
  8
0
 10
3.80911054
 20
8.61893546
  0
VERTEX
  8
0
 10
3.81015165
 20
8.61193222
  0
VERTEX
  8
0
 10
3.81416493
 20
8.59861879
  0
VERTEX
  8
0
 10
3.82037229
 20
8.58609283
  0
VERTEX
  8
0
 10
3.82831697
 20
8.57419036
  0
VERTEX
  8
0
 10
3.83754222
 20
8.56274744
  0
VERTEX
  8
0
 10
3.85800739
 20
8.54058438
  0
VERTEX
  8
0
 10
3.87811372
 20
8.51829197
  0
VERTEX
  8
0
 10
3.88689042
 20
8.50668737
  0
VERTEX
  8
0
 10
3.89420713
 20
8.49455856
  0
VERTEX
  8
0
 10
3.89960709
 20
8.48174157
  0
VERTEX
  8
0
 10
3.90263355
 20
8.46807245
  0
VERTEX
  8
0
 10
3.90311397
 20
8.46086711
  0
VERTEX
  8
0
 10
3.90282974
 20
8.45338724
  0
VERTEX
  8
0
 10
3.90172374
 20
8.44561237
  0
VERTEX
  8
0
 10
3.89973890
 20
8.43752199
  0
VERTEX
  8
0
 10
3.89848916
 20
8.41901044
  0
VERTEX
  8
0
 10
3.89621275
 20
8.40102367
  0
VERTEX
  8
0
 10
3.89296352
 20
8.38353353
  0
VERTEX
  8
0
 10
3.88879532
 20
8.36651189
  0
VERTEX
  8
0
 10
3.88376201
 20
8.34993060
  0
VERTEX
  8
0
 10
3.87791743
 20
8.33376151
  0
VERTEX
  8
0
 10
3.87131545
 20
8.31797649
  0
VERTEX
  8
0
 10
3.86400991
 20
8.30254739
  0
VERTEX
  8
0
 10
3.84750359
 20
8.27264438
  0
VERTEX
  8
0
 10
3.82882929
 20
8.24382734
  0
VERTEX
  8
0
 10
3.80841784
 20
8.21587112
  0
VERTEX
  8
0
 10
3.78670008
 20
8.18855057
  0
VERTEX
  8
0
 10
3.74106889
 20
8.13491593
  0
VERTEX
  8
0
 10
3.69538235
 20
8.08112226
  0
VERTEX
  8
0
 10
3.67359539
 20
8.05360293
  0
VERTEX
  8
0
 10
3.65308707
 20
8.02536840
  0
VERTEX
  8
0
 10
3.63428822
 20
7.99619354
  0
VERTEX
  8
0
 10
3.61762967
 20
7.96585320
  0
VERTEX
  8
0
 10
3.59280134
 20
7.91575293
  0
VERTEX
  8
0
 10
3.56850393
 20
7.86515305
  0
VERTEX
  8
0
 10
3.54537064
 20
7.81395381
  0
VERTEX
  8
0
 10
3.52403464
 20
7.76205550
  0
VERTEX
  8
0
 10
3.50512912
 20
7.70935839
  0
VERTEX
  8
0
 10
3.49678565
 20
7.68267912
  0
VERTEX
  8
0
 10
3.48928725
 20
7.65576276
  0
VERTEX
  8
0
 10
3.48271305
 20
7.62859683
  0
VERTEX
  8
0
 10
3.47714221
 20
7.60116887
  0
VERTEX
  8
0
 10
3.47265388
 20
7.57346641
  0
VERTEX
  8
0
 10
3.46932720
 20
7.54547700
  0
VERTEX
  8
0
 10
3.49150400
 20
7.56426100
  0
VERTEX
  8
0
 10
3.51304771
 20
7.58377499
  0
VERTEX
  8
0
 10
3.55472895
 20
7.62442672
  0
VERTEX
  8
0
 10
3.63591885
 20
7.70826154
  0
VERTEX
  8
0
 10
3.67740011
 20
7.74917970
  0
VERTEX
  8
0
 10
3.69879382
 20
7.76889351
  0
VERTEX
  8
0
 10
3.72078731
 20
7.78792173
  0
VERTEX
  8
0
 10
3.74350386
 20
7.80612281
  0
VERTEX
  8
0
 10
3.76706675
 20
7.82335518
  0
VERTEX
  8
0
 10
3.79159928
 20
7.83947729
  0
VERTEX
  8
0
 10
3.81722474
 20
7.85434758
  0
VERTEX
  8
0
 10
3.81952505
 20
7.80265780
  0
VERTEX
  8
0
 10
3.81960901
 20
7.75115993
  0
VERTEX
  8
0
 10
3.81768474
 20
7.69983814
  0
VERTEX
  8
0
 10
3.81396031
 20
7.64867657
  0
VERTEX
  8
0
 10
3.80864384
 20
7.59765941
  0
VERTEX
  8
0
 10
3.80194343
 20
7.54677081
  0
VERTEX
  8
0
 10
3.79406717
 20
7.49599493
  0
VERTEX
  8
0
 10
3.78522316
 20
7.44531594
  0
VERTEX
  8
0
 10
3.76546429
 20
7.34418528
  0
VERTEX
  8
0
 10
3.74433162
 20
7.24325213
  0
VERTEX
  8
0
 10
3.72348995
 20
7.14238980
  0
VERTEX
  8
0
 10
3.71369848
 20
7.09194559
  0
VERTEX
  8
0
 10
3.70460406
 20
7.04147158
  0
VERTEX
  8
0
 10
3.69901589
 20
6.99843768
  0
VERTEX
  8
0
 10
3.69599597
 20
6.95552323
  0
VERTEX
  8
0
 10
3.69528106
 20
6.91271756
  0
VERTEX
  8
0
 10
3.69660791
 20
6.87001001
  0
VERTEX
  8
0
 10
3.69971329
 20
6.82738989
  0
VERTEX
  8
0
 10
3.70433394
 20
6.78484654
  0
VERTEX
  8
0
 10
3.71020664
 20
6.74236928
  0
VERTEX
  8
0
 10
3.71706813
 20
6.69994745
  0
VERTEX
  8
0
 10
3.73270453
 20
6.61522735
  0
VERTEX
  8
0
 10
3.74913721
 20
6.53060088
  0
VERTEX
  8
0
 10
3.76426024
 20
6.44598265
  0
VERTEX
  8
0
 10
3.77067252
 20
6.40364994
  0
VERTEX
  8
0
 10
3.77596766
 20
6.36128728
  0
VERTEX
  8
0
 10
3.77766336
 20
6.32736937
  0
VERTEX
  8
0
 10
3.77802715
 20
6.29364248
  0
VERTEX
  8
0
 10
3.77714485
 20
6.26009434
  0
VERTEX
  8
0
 10
3.77510231
 20
6.22671267
  0
VERTEX
  8
0
 10
3.77198535
 20
6.19348521
  0
VERTEX
  8
0
 10
3.76787980
 20
6.16039968
  0
VERTEX
  8
0
 10
3.76287150
 20
6.12744381
  0
VERTEX
  8
0
 10
3.75704628
 20
6.09460533
  0
VERTEX
  8
0
 10
3.74328840
 20
6.02923143
  0
VERTEX
  8
0
 10
3.72729283
 20
5.96417980
  0
VERTEX
  8
0
 10
3.70974622
 20
5.89935228
  0
VERTEX
  8
0
 10
3.69133523
 20
5.83465067
  0
VERTEX
  8
0
 10
3.65466673
 20
5.70523248
  0
VERTEX
  8
0
 10
3.63778255
 20
5.64031954
  0
VERTEX
  8
0
 10
3.62278061
 20
5.57513980
  0
VERTEX
  8
0
 10
3.61620007
 20
5.54241920
  0
VERTEX
  8
0
 10
3.61034759
 20
5.50959509
  0
VERTEX
  8
0
 10
3.60530900
 20
5.47665518
  0
VERTEX
  8
0
 10
3.60117013
 20
5.44358721
  0
VERTEX
  8
0
 10
3.59801682
 20
5.41037890
  0
VERTEX
  8
0
 10
3.59593490
 20
5.37701799
  0
VERTEX
  8
0
 10
3.59501020
 20
5.34349220
  0
VERTEX
  8
0
 10
3.59532855
 20
5.30978925
  0
VERTEX
  8
0
 10
3.63788359
 20
5.31151861
  0
VERTEX
  8
0
 10
3.68047820
 20
5.31505144
  0
VERTEX
  8
0
 10
3.76568213
 20
5.32348991
  0
VERTEX
  8
0
 10
3.80823944
 20
5.32637672
  0
VERTEX
  8
0
 10
3.85073231
 20
5.32702939
  0
VERTEX
  8
0
 10
3.87194645
 20
5.32620248
  0
VERTEX
  8
0
 10
3.89313473
 20
5.32443850
  0
VERTEX
  8
0
 10
3.91429390
 20
5.32161128
  0
VERTEX
  8
0
 10
3.93542070
 20
5.31759464
  0
VERTEX
  8
0
 10
3.97065773
 20
5.31078532
  0
VERTEX
  8
0
 10
4.00610484
 20
5.30547154
  0
VERTEX
  8
0
 10
4.04172052
 20
5.30144023
  0
VERTEX
  8
0
 10
4.07746327
 20
5.29847833
  0
VERTEX
  8
0
 10
4.14916401
 20
5.29491047
  0
VERTEX
  8
0
 10
4.22087510
 20
5.29306341
  0
VERTEX
  8
0
 10
4.22115372
 20
5.25802927
  0
VERTEX
  8
0
 10
4.22071294
 20
5.22303845
  0
VERTEX
  8
0
 10
4.21806682
 20
5.15316325
  0
VERTEX
  8
0
 10
4.21372400
 20
5.08339073
  0
VERTEX
  8
0
 10
4.20847175
 20
5.01367379
  0
VERTEX
  8
0
 10
4.20309734
 20
4.94396536
  0
VERTEX
  8
0
 10
4.19838802
 20
4.87421834
  0
VERTEX
  8
0
 10
4.19513107
 20
4.80438566
  0
VERTEX
  8
0
 10
4.19411375
 20
4.73442023
  0
VERTEX
  8
0
 10
4.19429203
 20
4.71557174
  0
VERTEX
  8
0
 10
4.19358024
 20
4.69692581
  0
VERTEX
  8
0
 10
4.19203881
 20
4.67846870
  0
VERTEX
  8
0
 10
4.18972817
 20
4.66018663
  0
VERTEX
  8
0
 10
4.18304096
 20
4.62409265
  0
VERTEX
  8
0
 10
4.17400207
 20
4.58853382
  0
VERTEX
  8
0
 10
4.16309493
 20
4.55340008
  0
VERTEX
  8
0
 10
4.15080299
 20
4.51858139
  0
VERTEX
  8
0
 10
4.12399848
 20
4.44944896
  0
VERTEX
  8
0
 10
4.09745608
 20
4.38025615
  0
VERTEX
  8
0
 10
4.08549177
 20
4.34536197
  0
VERTEX
  8
0
 10
4.07504331
 20
4.31012255
  0
VERTEX
  8
0
 10
4.06659416
 20
4.27442783
  0
VERTEX
  8
0
 10
4.06062774
 20
4.23816778
  0
VERTEX
  8
0
 10
4.05872663
 20
4.21979136
  0
VERTEX
  8
0
 10
4.05762750
 20
4.20123233
  0
VERTEX
  8
0
 10
4.05739078
 20
4.18247694
  0
VERTEX
  8
0
 10
4.05807689
 20
4.16351144
  0
VERTEX
  8
0
 10
4.05642263
 20
4.13569412
  0
VERTEX
  8
0
 10
4.05752632
 20
4.10866734
  0
VERTEX
  8
0
 10
4.06110907
 20
4.08235162
  0
VERTEX
  8
0
 10
4.06689198
 20
4.05666745
  0
VERTEX
  8
0
 10
4.07459614
 20
4.03153534
  0
VERTEX
  8
0
 10
4.08394266
 20
4.00687578
  0
VERTEX
  8
0
 10
4.09465263
 20
3.98260929
  0
VERTEX
  8
0
 10
4.10644716
 20
3.95865636
  0
VERTEX
  8
0
 10
4.13217429
 20
3.91137321
  0
VERTEX
  8
0
 10
4.15889283
 20
3.86439034
  0
VERTEX
  8
0
 10
4.18437159
 20
3.81707178
  0
VERTEX
  8
0
 10
4.19594880
 20
3.79308786
  0
VERTEX
  8
0
 10
4.20637937
 20
3.76878154
  0
VERTEX
  8
0
 10
4.17465889
 20
3.77629549
  0
VERTEX
  8
0
 10
4.14374524
 20
3.78590115
  0
VERTEX
  8
0
 10
4.11365501
 20
3.79748118
  0
VERTEX
  8
0
 10
4.08440478
 20
3.81091827
  0
VERTEX
  8
0
 10
4.05601114
 20
3.82609508
  0
VERTEX
  8
0
 10
4.02849067
 20
3.84289429
  0
VERTEX
  8
0
 10
4.00185996
 20
3.86119857
  0
VERTEX
  8
0
 10
3.97613559
 20
3.88089061
  0
VERTEX
  8
0
 10
3.95133414
 20
3.90185308
  0
VERTEX
  8
0
 10
3.92747221
 20
3.92396864
  0
VERTEX
  8
0
 10
3.90456637
 20
3.94711998
  0
VERTEX
  8
0
 10
3.88263322
 20
3.97118978
  0
VERTEX
  8
0
 10
3.86168933
 20
3.99606069
  0
VERTEX
  8
0
 10
3.84175130
 20
4.02161541
  0
VERTEX
  8
0
 10
3.82283570
 20
4.04773660
  0
VERTEX
  8
0
 10
3.80495912
 20
4.07430694
  0
VERTEX
  8
0
 10
3.77559522
 20
4.11934132
  0
VERTEX
  8
0
 10
3.74473216
 20
4.16321712
  0
VERTEX
  8
0
 10
3.71258832
 20
4.20610255
  0
VERTEX
  8
0
 10
3.67938211
 20
4.24816584
  0
VERTEX
  8
0
 10
3.64533192
 20
4.28957520
  0
VERTEX
  8
0
 10
3.61065614
 20
4.33049887
  0
VERTEX
  8
0
 10
3.54030139
 20
4.41156200
  0
VERTEX
  8
0
 10
3.47006500
 20
4.49270101
  0
VERTEX
  8
0
 10
3.43553718
 20
4.53371951
  0
VERTEX
  8
0
 10
3.40169413
 20
4.57526166
  0
VERTEX
  8
0
 10
3.36875425
 20
4.61749566
  0
VERTEX
  8
0
 10
3.33693592
 20
4.66058974
  0
VERTEX
  8
0
 10
3.30645755
 20
4.70471212
  0
VERTEX
  8
0
 10
3.27753752
 20
4.75003102
  0
VERTEX
  8
0
 10
3.22961213
 20
4.83159492
  0
VERTEX
  8
0
 10
3.18130293
 20
4.91297001
  0
VERTEX
  8
0
 10
3.13372113
 20
4.99483223
  0
VERTEX
  8
0
 10
3.11055027
 20
5.03615726
  0
VERTEX
  8
0
 10
3.08797796
 20
5.07785755
  0
VERTEX
  8
0
 10
3.11408331
 20
5.05690207
  0
VERTEX
  8
0
 10
3.13953246
 20
5.03522951
  0
VERTEX
  8
0
 10
3.18885269
 20
4.99016219
  0
VERTEX
  8
0
 10
3.23671970
 20
4.94351355
  0
VERTEX
  8
0
 10
3.28391452
 20
4.89614155
  0
VERTEX
  8
0
 10
3.33121819
 20
4.84890417
  0
VERTEX
  8
0
 10
3.37941177
 20
4.80265936
  0
VERTEX
  8
0
 10
3.40408635
 20
4.78017729
  0
VERTEX
  8
0
 10
3.42927630
 20
4.75826509
  0
VERTEX
  8
0
 10
3.45507924
 20
4.73703003
  0
VERTEX
  8
0
 10
3.48159281
 20
4.71657933
  0
VERTEX
  8
0
 10
3.58938906
 20
4.63475618
  0
VERTEX
  8
0
 10
3.64379039
 20
4.59442444
  0
VERTEX
  8
0
 10
3.69882773
 20
4.55500709
  0
VERTEX
  8
0
 10
3.75472650
 20
4.51690000
  0
VERTEX
  8
0
 10
3.81171210
 20
4.48049906
  0
VERTEX
  8
0
 10
3.87000994
 20
4.44620013
  0
VERTEX
  8
0
 10
3.89972139
 20
4.42996263
  0
VERTEX
  8
0
 10
3.92984542
 20
4.41439910
  0
VERTEX
  8
0
 10
3.93334829
 20
4.49587813
  0
VERTEX
  8
0
 10
3.93427179
 20
4.57741242
  0
VERTEX
  8
0
 10
3.93298705
 20
4.65898283
  0
VERTEX
  8
0
 10
3.92986520
 20
4.74057023
  0
VERTEX
  8
0
 10
3.92527736
 20
4.82215548
  0
VERTEX
  8
0
 10
3.91959467
 20
4.90371944
  0
VERTEX
  8
0
 10
3.90642924
 20
5.06670699
  0
VERTEX
  8
0
 10
3.90520169
 20
5.07990526
  0
VERTEX
  8
0
 10
3.90284334
 20
5.09287201
  0
VERTEX
  8
0
 10
3.89941795
 20
5.10556986
  0
VERTEX
  8
0
 10
3.89498929
 20
5.11796142
  0
VERTEX
  8
0
 10
3.88962113
 20
5.13000929
  0
VERTEX
  8
0
 10
3.88337724
 20
5.14167608
  0
VERTEX
  8
0
 10
3.87632138
 20
5.15292441
  0
VERTEX
  8
0
 10
3.86851733
 20
5.16371688
  0
VERTEX
  8
0
 10
3.84859031
 20
5.14341072
  0
VERTEX
  8
0
 10
3.82992446
 20
5.12222410
  0
VERTEX
  8
0
 10
3.81242063
 20
5.10023295
  0
VERTEX
  8
0
 10
3.79597968
 20
5.07751318
  0
VERTEX
  8
0
 10
3.78050248
 20
5.05414071
  0
VERTEX
  8
0
 10
3.76588987
 20
5.03019145
  0
VERTEX
  8
0
 10
3.75204273
 20
5.00574132
  0
VERTEX
  8
0
 10
3.73886191
 20
4.98086624
  0
VERTEX
  8
0
 10
3.71410266
 20
4.93014489
  0
VERTEX
  8
0
 10
3.69081903
 20
4.87863473
  0
VERTEX
  8
0
 10
3.64550608
 20
4.77567731
  0
VERTEX
  8
0
 10
3.63080797
 20
4.80608728
  0
VERTEX
  8
0
 10
3.61706082
 20
4.83676816
  0
VERTEX
  8
0
 10
3.60423130
 20
4.86770777
  0
VERTEX
  8
0
 10
3.59228611
 20
4.89889391
  0
VERTEX
  8
0
 10
3.58119192
 20
4.93031441
  0
VERTEX
  8
0
 10
3.57091543
 20
4.96195707
  0
VERTEX
  8
0
 10
3.56142331
 20
4.99380970
  0
VERTEX
  8
0
 10
3.55268225
 20
5.02586012
  0
VERTEX
  8
0
 10
3.53732005
 20
5.09050555
  0
VERTEX
  8
0
 10
3.52456229
 20
5.15579586
  0
VERTEX
  8
0
 10
3.51414244
 20
5.22163354
  0
VERTEX
  8
0
 10
3.50579398
 20
5.28792107
  0
VERTEX
  8
0
 10
3.49925038
 20
5.35456096
  0
VERTEX
  8
0
 10
3.49424511
 20
5.42145568
  0
VERTEX
  8
0
 10
3.49051164
 20
5.48850773
  0
VERTEX
  8
0
 10
3.48778344
 20
5.55561960
  0
VERTEX
  8
0
 10
3.48427675
 20
5.68963277
  0
VERTEX
  8
0
 10
3.48159281
 20
5.82271512
  0
VERTEX
  8
0
 10
3.48163654
 20
5.83754174
  0
VERTEX
  8
0
 10
3.48071170
 20
5.85202506
  0
VERTEX
  8
0
 10
3.47888070
 20
5.86618806
  0
VERTEX
  8
0
 10
3.47620593
 20
5.88005371
  0
VERTEX
  8
0
 10
3.47274980
 20
5.89364498
  0
VERTEX
  8
0
 10
3.46857472
 20
5.90698487
  0
VERTEX
  8
0
 10
3.45831731
 20
5.93300239
  0
VERTEX
  8
0
 10
3.44593292
 20
5.95829009
  0
VERTEX
  8
0
 10
3.43192079
 20
5.98303180
  0
VERTEX
  8
0
 10
3.41678015
 20
6.00741134
  0
VERTEX
  8
0
 10
3.40101022
 20
6.03161254
  0
VERTEX
  8
0
 10
3.36957944
 20
6.08021524
  0
VERTEX
  8
0
 10
3.35491705
 20
6.10498438
  0
VERTEX
  8
0
 10
3.34162229
 20
6.13031050
  0
VERTEX
  8
0
 10
3.33019441
 20
6.15637741
  0
VERTEX
  8
0
 10
3.32113262
 20
6.18336895
  0
VERTEX
  8
0
 10
3.31764502
 20
6.19726890
  0
VERTEX
  8
0
 10
3.31493616
 20
6.21146894
  0
VERTEX
  8
0
 10
3.31306844
 20
6.22599205
  0
VERTEX
  8
0
 10
3.31210427
 20
6.24086121
  0
VERTEX
  8
0
 10
3.31114606
 20
6.27467754
  0
VERTEX
  8
0
 10
3.31115236
 20
6.30834727
  0
VERTEX
  8
0
 10
3.31207763
 20
6.34187686
  0
VERTEX
  8
0
 10
3.31387634
 20
6.37527278
  0
VERTEX
  8
0
 10
3.31650295
 20
6.40854148
  0
VERTEX
  8
0
 10
3.31991194
 20
6.44168944
  0
VERTEX
  8
0
 10
3.32889492
 20
6.50764894
  0
VERTEX
  8
0
 10
3.34046104
 20
6.57320299
  0
VERTEX
  8
0
 10
3.35424605
 20
6.63840329
  0
VERTEX
  8
0
 10
3.36988570
 20
6.70330153
  0
VERTEX
  8
0
 10
3.38701574
 20
6.76794942
  0
VERTEX
  8
0
 10
3.40527192
 20
6.83239865
  0
VERTEX
  8
0
 10
3.42429000
 20
6.89670093
  0
VERTEX
  8
0
 10
3.46315486
 20
7.02507142
  0
VERTEX
  8
0
 10
3.48227315
 20
7.08924303
  0
VERTEX
  8
0
 10
3.50069634
 20
7.15347449
  0
VERTEX
  8
0
 10
3.51806019
 20
7.21781749
  0
VERTEX
  8
0
 10
3.53400046
 20
7.28232373
  0
VERTEX
  8
0
 10
3.50078543
 20
7.26218584
  0
VERTEX
  8
0
 10
3.46839816
 20
7.24071469
  0
VERTEX
  8
0
 10
3.43668838
 20
7.21815410
  0
VERTEX
  8
0
 10
3.40550578
 20
7.19474786
  0
VERTEX
  8
0
 10
3.34412099
 20
7.14637364
  0
VERTEX
  8
0
 10
3.28304145
 20
7.09754245
  0
VERTEX
  8
0
 10
3.25224043
 20
7.07356500
  0
VERTEX
  8
0
 10
3.22106486
 20
7.05020471
  0
VERTEX
  8
0
 10
3.18936443
 20
7.02770538
  0
VERTEX
  8
0
 10
3.15698887
 20
7.00631082
  0
VERTEX
  8
0
 10
3.12378788
 20
6.98626483
  0
VERTEX
  8
0
 10
3.08961116
 20
6.96781121
  0
VERTEX
  8
0
 10
3.05430844
 20
6.95119377
  0
VERTEX
  8
0
 10
3.01772942
 20
6.93665630
  0
VERTEX
  8
0
 10
2.99637211
 20
6.92961968
  0
VERTEX
  8
0
 10
2.97485613
 20
6.92453394
  0
VERTEX
  8
0
 10
2.95320048
 20
6.92116017
  0
VERTEX
  8
0
 10
2.93142412
 20
6.91925948
  0
VERTEX
  8
0
 10
2.90954604
 20
6.91859296
  0
VERTEX
  8
0
 10
2.88758521
 20
6.91892170
  0
VERTEX
  8
0
 10
2.84349126
 20
6.92160941
  0
VERTEX
  8
0
 10
2.79929410
 20
6.92541137
  0
VERTEX
  8
0
 10
2.75514557
 20
6.92841638
  0
VERTEX
  8
0
 10
2.73313699
 20
6.92902277
  0
VERTEX
  8
0
 10
2.71119751
 20
6.92871322
  0
VERTEX
  8
0
 10
2.68934611
 20
6.92724882
  0
VERTEX
  8
0
 10
2.66760176
 20
6.92439068
  0
VERTEX
  8
0
 10
2.65159737
 20
6.91750854
  0
VERTEX
  8
0
 10
2.63690546
 20
6.90910794
  0
VERTEX
  8
0
 10
2.62340737
 20
6.89933853
  0
VERTEX
  8
0
 10
2.61098441
 20
6.88835000
  0
VERTEX
  8
0
 10
2.59951792
 20
6.87629200
  0
VERTEX
  8
0
 10
2.58888923
 20
6.86331421
  0
VERTEX
  8
0
 10
2.57897967
 20
6.84956629
  0
VERTEX
  8
0
 10
2.56967056
 20
6.83519793
  0
VERTEX
  8
0
 10
2.55237901
 20
6.80519853
  0
VERTEX
  8
0
 10
2.53606522
 20
6.77451336
  0
VERTEX
  8
0
 10
2.51977982
 20
6.74433978
  0
VERTEX
  8
0
 10
2.50257344
 20
6.71587516
  0
VERTEX
  8
0
 10
2.44696538
 20
6.72889089
  0
VERTEX
  8
0
 10
2.39110408
 20
6.74031585
  0
VERTEX
  8
0
 10
2.33501377
 20
6.75021063
  0
VERTEX
  8
0
 10
2.27871871
 20
6.75863583
  0
VERTEX
  8
0
 10
2.22224314
 20
6.76565205
  0
VERTEX
  8
0
 10
2.16561130
 20
6.77131987
  0
VERTEX
  8
0
 10
2.10884745
 20
6.77569991
  0
VERTEX
  8
0
 10
2.05197583
 20
6.77885274
  0
VERTEX
  8
0
 10
1.99502069
 20
6.78083898
  0
VERTEX
  8
0
 10
1.93800626
 20
6.78171920
  0
VERTEX
  8
0
 10
1.88095681
 20
6.78155402
  0
VERTEX
  8
0
 10
1.82389658
 20
6.78040402
  0
VERTEX
  8
0
 10
1.76684980
 20
6.77832979
  0
VERTEX
  8
0
 10
1.70984074
 20
6.77539194
  0
VERTEX
  8
0
 10
1.65289363
 20
6.77165106
  0
VERTEX
  8
0
 10
1.59603272
 20
6.76716775
  0
VERTEX
  8
0
 10
1.57278972
 20
6.76453859
  0
VERTEX
  8
0
 10
1.54974010
 20
6.76105063
  0
VERTEX
  8
0
 10
1.50413101
 20
6.75188971
  0
VERTEX
  8
0
 10
1.45902552
 20
6.74046792
  0
VERTEX
  8
0
 10
1.41424371
 20
6.72756819
  0
VERTEX
  8
0
 10
1.32493136
 20
6.70046655
  0
VERTEX
  8
0
 10
1.28004096
 20
6.68783050
  0
VERTEX
  8
0
 10
1.23475450
 20
6.67684819
  0
VERTEX
  8
0
 10
1.23818747
 20
6.69176124
  0
VERTEX
  8
0
 10
1.24233661
 20
6.70628092
  0
VERTEX
  8
0
 10
1.25259536
 20
6.73424357
  0
VERTEX
  8
0
 10
1.26515472
 20
6.76094298
  0
VERTEX
  8
0
 10
1.27963865
 20
6.78658598
  0
VERTEX
  8
0
 10
1.29567112
 20
6.81137940
  0
VERTEX
  8
0
 10
1.31287611
 20
6.83553008
  0
VERTEX
  8
0
 10
1.34929945
 20
6.88273052
  0
VERTEX
  8
0
 10
1.38590040
 20
6.92984196
  0
VERTEX
  8
0
 10
1.40332740
 20
6.95388139
  0
VERTEX
  8
0
 10
1.41967070
 20
6.97851907
  0
VERTEX
  8
0
 10
1.43455426
 20
7.00396182
  0
VERTEX
  8
0
 10
1.44760205
 20
7.03041649
  0
VERTEX
  8
0
 10
1.45843805
 20
7.05808990
  0
VERTEX
  8
0
 10
1.46290910
 20
7.07244827
  0
VERTEX
  8
0
 10
1.46668620
 20
7.08718889
  0
VERTEX
  8
0
 10
1.47025393
 20
7.10732622
  0
VERTEX
  8
0
 10
1.47145069
 20
7.12720132
  0
VERTEX
  8
0
 10
1.47041779
 20
7.14674700
  0
VERTEX
  8
0
 10
1.46729652
 20
7.16589613
  0
VERTEX
  8
0
 10
1.46222819
 20
7.18458152
  0
VERTEX
  8
0
 10
1.45535411
 20
7.20273603
  0
VERTEX
  8
0
 10
1.44681558
 20
7.22029249
  0
VERTEX
  8
0
 10
1.43675391
 20
7.23718373
  0
VERTEX
  8
0
 10
1.42531039
 20
7.25334260
  0
VERTEX
  8
0
 10
1.41262633
 20
7.26870194
  0
VERTEX
  8
0
 10
1.39884304
 20
7.28319457
  0
VERTEX
  8
0
 10
1.38410182
 20
7.29675335
  0
VERTEX
  8
0
 10
1.36854398
 20
7.30931111
  0
VERTEX
  8
0
 10
1.35231081
 20
7.32080069
  0
VERTEX
  8
0
 10
1.33554362
 20
7.33115492
  0
VERTEX
  8
0
 10
1.31838372
 20
7.34030665
  0
VERTEX
  8
0
 10
1.29471716
 20
7.35102359
  0
VERTEX
  8
0
 10
1.27064094
 20
7.36052809
  0
VERTEX
  8
0
 10
1.24619424
 20
7.36887729
  0
VERTEX
  8
0
 10
1.22141626
 20
7.37612836
  0
VERTEX
  8
0
 10
1.19634618
 20
7.38233843
  0
VERTEX
  8
0
 10
1.17102317
 20
7.38756467
  0
VERTEX
  8
0
 10
1.14548643
 20
7.39186423
  0
VERTEX
  8
0
 10
1.11977514
 20
7.39529426
  0
VERTEX
  8
0
 10
1.09392849
 20
7.39791190
  0
VERTEX
  8
0
 10
1.06798566
 20
7.39977432
  0
VERTEX
  8
0
 10
1.01596820
 20
7.40146209
  0
VERTEX
  8
0
 10
0.96403623
 20
7.40081477
  0
VERTEX
  8
0
 10
0.91250325
 20
7.39828958
  0
VERTEX
  8
0
 10
0.88963552
 20
7.39607346
  0
VERTEX
  8
0
 10
0.86672927
 20
7.39287462
  0
VERTEX
  8
0
 10
0.84387865
 20
7.38867227
  0
VERTEX
  8
0
 10
0.82117778
 20
7.38344561
  0
VERTEX
  8
0
 10
0.79872080
 20
7.37717386
  0
VERTEX
  8
0
 10
0.77660184
 20
7.36983621
  0
VERTEX
  8
0
 10
0.75491503
 20
7.36141188
  0
VERTEX
  8
0
 10
0.73375450
 20
7.35188007
  0
VERTEX
  8
0
 10
0.71321438
 20
7.34121999
  0
VERTEX
  8
0
 10
0.69338881
 20
7.32941085
  0
VERTEX
  8
0
 10
0.67437191
 20
7.31643185
  0
VERTEX
  8
0
 10
0.65625783
 20
7.30226220
  0
VERTEX
  8
0
 10
0.63914069
 20
7.28688111
  0
VERTEX
  8
0
 10
0.62311462
 20
7.27026779
  0
VERTEX
  8
0
 10
0.60827375
 20
7.25240143
  0
VERTEX
  8
0
 10
0.59471222
 20
7.23326125
  0
VERTEX
  8
0
 10
0.59948259
 20
7.21358322
  0
VERTEX
  8
0
 10
0.60626053
 20
7.19420015
  0
VERTEX
  8
0
 10
0.61464285
 20
7.17505752
  0
VERTEX
  8
0
 10
0.62422632
 20
7.15610081
  0
VERTEX
  8
0
 10
0.64538385
 20
7.11852704
  0
VERTEX
  8
0
 10
0.66650738
 20
7.08104267
  0
VERTEX
  8
0
 10
0.67604835
 20
7.06219771
  0
VERTEX
  8
0
 10
0.68437118
 20
7.04321152
  0
VERTEX
  8
0
 10
0.69107264
 20
7.02402960
  0
VERTEX
  8
0
 10
0.69574951
 20
7.00459742
  0
VERTEX
  8
0
 10
0.69799859
 20
6.98486045
  0
VERTEX
  8
0
 10
0.69808669
 20
6.97486064
  0
VERTEX
  8
0
 10
0.69741664
 20
6.96476418
  0
VERTEX
  8
0
 10
0.69593803
 20
6.95456426
  0
VERTEX
  8
0
 10
0.69360046
 20
6.94425408
  0
VERTEX
  8
0
 10
0.69035353
 20
6.93382680
  0
VERTEX
  8
0
 10
0.68614684
 20
6.92327562
  0
VERTEX
  8
0
 10
0.66583057
 20
6.90717186
  0
VERTEX
  8
0
 10
0.64474471
 20
6.89214598
  0
VERTEX
  8
0
 10
0.62301338
 20
6.87802091
  0
VERTEX
  8
0
 10
0.60076071
 20
6.86461958
  0
VERTEX
  8
0
 10
0.55518790
 20
6.83927991
  0
VERTEX
  8
0
 10
0.50901936
 20
6.81471043
  0
VERTEX
  8
0
 10
0.46324815
 20
6.78949464
  0
VERTEX
  8
0
 10
0.44082189
 20
6.77620171
  0
VERTEX
  8
0
 10
0.41886736
 20
6.76221600
  0
VERTEX
  8
0
 10
0.39750870
 20
6.74736046
  0
VERTEX
  8
0
 10
0.37687005
 20
6.73145801
  0
VERTEX
  8
0
 10
0.35707553
 20
6.71433160
  0
VERTEX
  8
0
 10
0.33824929
 20
6.69580415
  0
VERTEX
  8
0
 10
0.32708456
 20
6.68389424
  0
VERTEX
  8
0
 10
0.31758461
 20
6.67074027
  0
VERTEX
  8
0
 10
0.30989475
 20
6.65655504
  0
VERTEX
  8
0
 10
0.30416029
 20
6.64155135
  0
VERTEX
  8
0
 10
0.30052654
 20
6.62594202
  0
VERTEX
  8
0
 10
0.29913879
 20
6.60993984
  0
VERTEX
  8
0
 10
0.30014236
 20
6.59375763
  0
VERTEX
  8
0
 10
0.30368255
 20
6.57760819
  0
VERTEX
  8
0
 10
0.31622901
 20
6.53010318
  0
VERTEX
  8
0
 10
0.33132669
 20
6.48355058
  0
VERTEX
  8
0
 10
0.34886691
 20
6.43799449
  0
VERTEX
  8
0
 10
0.36874095
 20
6.39347903
  0
VERTEX
  8
0
 10
0.39084014
 20
6.35004833
  0
VERTEX
  8
0
 10
0.41505579
 20
6.30774649
  0
VERTEX
  8
0
 10
0.44127920
 20
6.26661764
  0
VERTEX
  8
0
 10
0.46940167
 20
6.22670590
  0
VERTEX
  8
0
 10
0.49931453
 20
6.18805538
  0
VERTEX
  8
0
 10
0.53090907
 20
6.15071020
  0
VERTEX
  8
0
 10
0.56407661
 20
6.11471448
  0
VERTEX
  8
0
 10
0.59870846
 20
6.08011234
  0
VERTEX
  8
0
 10
0.63469591
 20
6.04694789
  0
VERTEX
  8
0
 10
0.67193029
 20
6.01526524
  0
VERTEX
  8
0
 10
0.71030290
 20
5.98510853
  0
VERTEX
  8
0
 10
0.74970504
 20
5.95652187
  0
VERTEX
  8
0
 10
0.81516004
 20
5.90802428
  0
VERTEX
  8
0
 10
0.87980684
 20
5.85846975
  0
VERTEX
  8
0
 10
0.94361709
 20
5.80786154
  0
VERTEX
  8
0
 10
1.00656243
 20
5.75620291
  0
VERTEX
  8
0
 10
1.06861450
 20
5.70349715
  0
VERTEX
  8
0
 10
1.12974495
 20
5.64974750
  0
VERTEX
  8
0
 10
1.18992543
 20
5.59495724
  0
VERTEX
  8
0
 10
1.24912758
 20
5.53912964
  0
VERTEX
  8
0
 10
1.30732304
 20
5.48226796
  0
VERTEX
  8
0
 10
1.36448345
 20
5.42437547
  0
VERTEX
  8
0
 10
1.42058047
 20
5.36545543
  0
VERTEX
  8
0
 10
1.47558574
 20
5.30551112
  0
VERTEX
  8
0
 10
1.52947090
 20
5.24454580
  0
VERTEX
  8
0
 10
1.58220759
 20
5.18256273
  0
VERTEX
  8
0
 10
1.63376747
 20
5.11956519
  0
VERTEX
  8
0
 10
1.68412216
 20
5.05555643
  0
VERTEX
  8
0
 10
1.75534019
 20
4.95693204
  0
VERTEX
  8
0
 10
1.82751873
 20
4.85907701
  0
VERTEX
  8
0
 10
1.90103518
 20
4.76217303
  0
VERTEX
  8
0
 10
1.97626690
 20
4.66640180
  0
VERTEX
  8
0
 10
1.99999948
 20
4.71648754
  0
VERTEX
  8
0
 10
2.02532937
 20
4.76564181
  0
VERTEX
  8
0
 10
2.04356698
 20
4.72262441
  0
VERTEX
  8
0
 10
2.06317001
 20
4.68038740
  0
VERTEX
  8
0
 10
2.08405357
 20
4.63889150
  0
VERTEX
  8
0
 10
2.10613277
 20
4.59809744
  0
VERTEX
  8
0
 10
2.12932270
 20
4.55796595
  0
VERTEX
  8
0
 10
2.15353847
 20
4.51845774
  0
VERTEX
  8
0
 10
2.17869518
 20
4.47953354
  0
VERTEX
  8
0
 10
2.20470794
 20
4.44115407
  0
VERTEX
  8
0
 10
2.23149184
 20
4.40328007
  0
VERTEX
  8
0
 10
2.25896200
 20
4.36587225
  0
VERTEX
  8
0
 10
2.31562147
 20
4.29229805
  0
VERTEX
  8
0
 10
2.37400718
 20
4.22011727
  0
VERTEX
  8
0
 10
2.43343995
 20
4.14901571
  0
VERTEX
  8
0
 10
2.49438660
 20
4.08473703
  0
VERTEX
  8
0
 10
2.55641744
 20
4.02152488
  0
VERTEX
  8
0
 10
2.61950817
 20
3.95938635
  0
VERTEX
  8
0
 10
2.68363448
 20
3.89832854
  0
VERTEX
  8
0
 10
2.74877207
 20
3.83835854
  0
VERTEX
  8
0
 10
2.81489665
 20
3.77948342
  0
VERTEX
  8
0
 10
2.88198390
 20
3.72171027
  0
VERTEX
  8
0
 10
2.95000953
 20
3.66504620
  0
VERTEX
  8
0
 10
3.01894924
 20
3.60949827
  0
VERTEX
  8
0
 10
3.08877872
 20
3.55507359
  0
VERTEX
  8
0
 10
3.15947368
 20
3.50177924
  0
VERTEX
  8
0
 10
3.23100981
 20
3.44962230
  0
VERTEX
  8
0
 10
3.30336281
 20
3.39860987
  0
VERTEX
  8
0
 10
3.37650838
 20
3.34874904
  0
VERTEX
  8
0
 10
3.45042221
 20
3.30004688
  0
VERTEX
  8
0
 10
3.52508001
 20
3.25251050
  0
VERTEX
  8
0
 10
3.56748770
 20
3.22179394
  0
VERTEX
  8
0
 10
3.61094692
 20
3.19284554
  0
VERTEX
  8
0
 10
3.65530300
 20
3.16540538
  0
VERTEX
  8
0
 10
3.70040130
 20
3.13921357
  0
VERTEX
  8
0
 10
3.74608713
 20
3.11401017
  0
VERTEX
  8
0
 10
3.79220585
 20
3.08953529
  0
VERTEX
  8
0
 10
3.88512330
 20
3.04173142
  0
VERTEX
  8
0
 10
3.97791635
 20
2.99372266
  0
VERTEX
  8
0
 10
4.02387957
 20
2.96899166
  0
VERTEX
  8
0
 10
4.06934771
 20
2.94342971
  0
VERTEX
  8
0
 10
4.11416611
 20
2.91677688
  0
VERTEX
  8
0
 10
4.15818010
 20
2.88877328
  0
VERTEX
  8
0
 10
4.20123503
 20
2.85915898
  0
VERTEX
  8
0
 10
4.24317622
 20
2.82767407
  0
VERTEX
  8
0
 10
4.29568937
 20
2.79500098
  0
VERTEX
  8
0
 10
4.34718062
 20
2.76097533
  0
VERTEX
  8
0
 10
4.39773452
 20
2.72571141
  0
VERTEX
  8
0
 10
4.44743561
 20
2.68932348
  0
VERTEX
  8
0
 10
4.49636844
 20
2.65192579
  0
VERTEX
  8
0
 10
4.54461755
 20
2.61363263
  0
VERTEX
  8
0
 10
4.59226750
 20
2.57455824
  0
VERTEX
  8
0
 10
4.63940283
 20
2.53481690
  0
VERTEX
  8
0
 10
4.73246781
 20
2.45379043
  0
VERTEX
  8
0
 10
4.82448889
 20
2.37146734
  0
VERTEX
  8
0
 10
4.91614242
 20
2.28876174
  0
VERTEX
  8
0
 10
5.00810480
 20
2.20658775
  0
VERTEX
  8
0
 10
5.03822983
 20
2.23327888
  0
VERTEX
  8
0
 10
5.06983794
 20
2.25780714
  0
VERTEX
  8
0
 10
5.10286196
 20
2.28008920
  0
VERTEX
  8
0
 10
5.13723468
 20
2.30004174
  0
VERTEX
  8
0
 10
5.17288892
 20
2.31758144
  0
VERTEX
  8
0
 10
5.20975749
 20
2.33262497
  0
VERTEX
  8
0
 10
5.24777320
 20
2.34508901
  0
VERTEX
  8
0
 10
5.28686886
 20
2.35489023
  0
VERTEX
  8
0
 10
5.29682666
 20
2.40507511
  0
VERTEX
  8
0
 10
5.30879903
 20
2.45514354
  0
VERTEX
  8
0
 10
5.31573960
 20
2.47994040
  0
VERTEX
  8
0
 10
5.32342254
 20
2.50447571
  0
VERTEX
  8
0
 10
5.33192741
 20
2.52867200
  0
VERTEX
  8
0
 10
5.34133378
 20
2.55245178
  0
VERTEX
  8
0
 10
5.35172122
 20
2.57573759
  0
VERTEX
  8
0
 10
5.36316932
 20
2.59845193
  0
VERTEX
  8
0
 10
5.37575763
 20
2.62051734
  0
VERTEX
  8
0
 10
5.38956573
 20
2.64185633
  0
VERTEX
  8
0
 10
5.40467320
 20
2.66239142
  0
VERTEX
  8
0
 10
5.42115961
 20
2.68204515
  0
VERTEX
  8
0
 10
5.43910452
 20
2.70074002
  0
VERTEX
  8
0
 10
5.45858752
 20
2.71839856
  0
VERTEX
  8
0
 10
5.47373649
 20
2.73126020
  0
VERTEX
  8
0
 10
5.48806420
 20
2.74477792
  0
VERTEX
  8
0
 10
5.50159456
 20
2.75891556
  0
VERTEX
  8
0
 10
5.51435148
 20
2.77363696
  0
VERTEX
  8
0
 10
5.52635887
 20
2.78890597
  0
VERTEX
  8
0
 10
5.53764065
 20
2.80468643
  0
VERTEX
  8
0
 10
5.54822072
 20
2.82094220
  0
VERTEX
  8
0
 10
5.55812301
 20
2.83763710
  0
VERTEX
  8
0
 10
5.57598987
 20
2.87219972
  0
VERTEX
  8
0
 10
5.59143253
 20
2.90808506
  0
VERTEX
  8
0
 10
5.60464229
 20
2.94500386
  0
VERTEX
  8
0
 10
5.61581045
 20
2.98266689
  0
VERTEX
  8
0
 10
5.57214430
 20
2.99081574
  0
VERTEX
  8
0
 10
5.52817912
 20
2.99814495
  0
VERTEX
  8
0
 10
5.43966825
 20
3.01130243
  0
VERTEX
  8
0
 10
5.35091101
 20
3.02405533
  0
VERTEX
  8
0
 10
5.26254059
 20
3.03831961
  0
VERTEX
  8
0
 10
5.21869830
 20
3.04661727
  0
VERTEX
  8
0
 10
5.17519016
 20
3.05601127
  0
VERTEX
  8
0
 10
5.13209531
 20
3.06674110
  0
VERTEX
  8
0
 10
5.08949290
 20
3.07904628
  0
VERTEX
  8
0
 10
5.04746208
 20
3.09316628
  0
VERTEX
  8
0
 10
5.00608200
 20
3.10934062
  0
VERTEX
  8
0
 10
4.96543180
 20
3.12780878
  0
VERTEX
  8
0
 10
4.92559064
 20
3.14881027
  0
VERTEX
  8
0
 10
4.90093085
 20
3.16243423
  0
VERTEX
  8
0
 10
4.87673040
 20
3.17684843
  0
VERTEX
  8
0
 10
4.85299807
 20
3.19202593
  0
VERTEX
  8
0
 10
4.82974264
 20
3.20793976
  0
VERTEX
  8
0
 10
4.80697291
 20
3.22456299
  0
VERTEX
  8
0
 10
4.78469765
 20
3.24186866
  0
VERTEX
  8
0
 10
4.76292565
 20
3.25982981
  0
VERTEX
  8
0
 10
4.74166569
 20
3.27841950
  0
VERTEX
  8
0
 10
4.72092657
 20
3.29761078
  0
VERTEX
  8
0
 10
4.70071705
 20
3.31737669
  0
VERTEX
  8
0
 10
4.68104593
 20
3.33769029
  0
VERTEX
  8
0
 10
4.66192200
 20
3.35852462
  0
VERTEX
  8
0
 10
4.62535081
 20
3.40164769
  0
VERTEX
  8
0
 10
4.59107377
 20
3.44653028
  0
VERTEX
  8
0
 10
4.56657284
 20
3.48940392
  0
VERTEX
  8
0
 10
4.54307515
 20
3.53418083
  0
VERTEX
  8
0
 10
4.53220399
 20
3.55717479
  0
VERTEX
  8
0
 10
4.52218540
 20
3.58051472
  0
VERTEX
  8
0
 10
4.51321996
 20
3.60415732
  0
VERTEX
  8
0
 10
4.50550827
 20
3.62805932
  0
VERTEX
  8
0
 10
4.49925090
 20
3.65217743
  0
VERTEX
  8
0
 10
4.49464845
 20
3.67646836
  0
VERTEX
  8
0
 10
4.49190151
 20
3.70088882
  0
VERTEX
  8
0
 10
4.49121065
 20
3.72539555
  0
VERTEX
  8
0
 10
4.49277647
 20
3.74994524
  0
VERTEX
  8
0
 10
4.49679954
 20
3.77449462
  0
VERTEX
  8
0
 10
4.50348047
 20
3.79900040
  0
VERTEX
  8
0
 10
4.51301983
 20
3.82341929
  0
VERTEX
  8
0
 10
4.62452545
 20
3.78439232
  0
VERTEX
  8
0
 10
4.59697830
 20
3.82437243
  0
VERTEX
  8
0
 10
4.56871388
 20
3.86383707
  0
VERTEX
  8
0
 10
4.51135926
 20
3.94210448
  0
VERTEX
  8
0
 10
4.48293209
 20
3.98134951
  0
VERTEX
  8
0
 10
4.45511369
 20
4.02096357
  0
VERTEX
  8
0
 10
4.42823558
 20
4.06116781
  0
VERTEX
  8
0
 10
4.40262926
 20
4.10218335
  0
VERTEX
  8
0
 10
4.39097538
 20
4.12457064
  0
VERTEX
  8
0
 10
4.38026666
 20
4.14726741
  0
VERTEX
  8
0
 10
4.37048894
 20
4.17025227
  0
VERTEX
  8
0
 10
4.36162806
 20
4.19350383
  0
VERTEX
  8
0
 10
4.35366986
 20
4.21700071
  0
VERTEX
  8
0
 10
4.34660019
 20
4.24072151
  0
VERTEX
  8
0
 10
4.34040488
 20
4.26464486
  0
VERTEX
  8
0
 10
4.33506977
 20
4.28874935
  0
VERTEX
  8
0
 10
4.33058072
 20
4.31301362
  0
VERTEX
  8
0
 10
4.32692355
 20
4.33741626
  0
VERTEX
  8
0
 10
4.32408411
 20
4.36193590
  0
VERTEX
  8
0
 10
4.32204824
 20
4.38655114
  0
VERTEX
  8
0
 10
4.32080177
 20
4.41124059
  0
VERTEX
  8
0
 10
4.32033057
 20
4.43598288
  0
VERTEX
  8
0
 10
4.32062045
 20
4.46075662
  0
VERTEX
  8
0
 10
4.32165727
 20
4.48554041
  0
VERTEX
  8
0
 10
4.32591506
 20
4.53505261
  0
VERTEX
  8
0
 10
4.33299069
 20
4.58434839
  0
VERTEX
  8
0
 10
4.34277087
 20
4.63325666
  0
VERTEX
  8
0
 10
4.35514233
 20
4.68160631
  0
VERTEX
  8
0
 10
4.36999180
 20
4.72922626
  0
VERTEX
  8
0
 10
4.38720601
 20
4.77594540
  0
VERTEX
  8
0
 10
4.40667169
 20
4.82159263
  0
VERTEX
  8
0
 10
4.42827556
 20
4.86599687
  0
VERTEX
  8
0
 10
4.45051896
 20
4.83406797
  0
VERTEX
  8
0
 10
4.47108019
 20
4.80155971
  0
VERTEX
  8
0
 10
4.49005342
 20
4.76850380
  0
VERTEX
  8
0
 10
4.50753284
 20
4.73493192
  0
VERTEX
  8
0
 10
4.52361262
 20
4.70087579
  0
VERTEX
  8
0
 10
4.53838694
 20
4.66636711
  0
VERTEX
  8
0
 10
4.55194997
 20
4.63143756
  0
VERTEX
  8
0
 10
4.56439590
 20
4.59611886
  0
VERTEX
  8
0
 10
4.57581890
 20
4.56044270
  0
VERTEX
  8
0
 10
4.58631314
 20
4.52444079
  0
VERTEX
  8
0
 10
4.59597282
 20
4.48814482
  0
VERTEX
  8
0
 10
4.60489209
 20
4.45158650
  0
VERTEX
  8
0
 10
4.62088617
 20
4.37780958
  0
VERTEX
  8
0
 10
4.63504880
 20
4.30336365
  0
VERTEX
  8
0
 10
4.66089337
 20
4.15347914
  0
VERTEX
  8
0
 10
4.67408216
 20
4.07854776
  0
VERTEX
  8
0
 10
4.68845317
 20
4.00396178
  0
VERTEX
  8
0
 10
4.70475984
 20
3.92997478
  0
VERTEX
  8
0
 10
4.71387448
 20
3.89328516
  0
VERTEX
  8
0
 10
4.72375557
 20
3.85684038
  0
VERTEX
  8
0
 10
4.73449728
 20
3.82067216
  0
VERTEX
  8
0
 10
4.74619380
 20
3.78481218
  0
VERTEX
  8
0
 10
4.75893929
 20
3.74929216
  0
VERTEX
  8
0
 10
4.77282793
 20
3.71414378
  0
VERTEX
  8
0
 10
4.79010702
 20
3.67151761
  0
VERTEX
  8
0
 10
4.80870143
 20
3.62905581
  0
VERTEX
  8
0
 10
4.82906917
 20
3.58732973
  0
VERTEX
  8
0
 10
4.84006117
 20
3.56692115
  0
VERTEX
  8
0
 10
4.85166825
 20
3.54691077
  0
VERTEX
  8
0
 10
4.86394766
 20
3.52737000
  0
VERTEX
  8
0
 10
4.87695667
 20
3.50837028
  0
VERTEX
  8
0
 10
4.89075251
 20
3.48998302
  0
VERTEX
  8
0
 10
4.90539244
 20
3.47227965
  0
VERTEX
  8
0
 10
4.92093370
 20
3.45533158
  0
VERTEX
  8
0
 10
4.93743356
 20
3.43921024
  0
VERTEX
  8
0
 10
4.95494926
 20
3.42398705
  0
VERTEX
  8
0
 10
4.97353805
 20
3.40973343
  0
VERTEX
  8
0
 10
5.02617046
 20
3.37151957
  0
VERTEX
  8
0
 10
5.07990319
 20
3.33415081
  0
VERTEX
  8
0
 10
5.13493054
 20
3.29854199
  0
VERTEX
  8
0
 10
5.16299041
 20
3.28168345
  0
VERTEX
  8
0
 10
5.19144679
 20
3.26560796
  0
VERTEX
  8
0
 10
5.22032396
 20
3.25042989
  0
VERTEX
  8
0
 10
5.24964622
 20
3.23626358
  0
VERTEX
  8
0
 10
5.27943783
 20
3.22322340
  0
VERTEX
  8
0
 10
5.30972310
 20
3.21142369
  0
VERTEX
  8
0
 10
5.34052631
 20
3.20097882
  0
VERTEX
  8
0
 10
5.37187173
 20
3.19200314
  0
VERTEX
  8
0
 10
5.40378367
 20
3.18461101
  0
VERTEX
  8
0
 10
5.43628639
 20
3.17891679
  0
VERTEX
  8
0
 10
5.49355016
 20
3.17084059
  0
VERTEX
  8
0
 10
5.55116650
 20
3.16491981
  0
VERTEX
  8
0
 10
5.60905651
 20
3.16070029
  0
VERTEX
  8
0
 10
5.66714131
 20
3.15772791
  0
VERTEX
  8
0
 10
5.78357964
 20
3.15370801
  0
VERTEX
  8
0
 10
5.89985031
 20
3.14922702
  0
VERTEX
  8
0
 10
5.95772552
 20
3.14567828
  0
VERTEX
  8
0
 10
6.01532212
 20
3.14065186
  0
VERTEX
  8
0
 10
6.07256120
 20
3.13369363
  0
VERTEX
  8
0
 10
6.12936388
 20
3.12434944
  0
VERTEX
  8
0
 10
6.15757691
 20
3.11864070
  0
VERTEX
  8
0
 10
6.18565124
 20
3.11216517
  0
VERTEX
  8
0
 10
6.21357703
 20
3.10486609
  0
VERTEX
  8
0
 10
6.24134440
 20
3.09668668
  0
VERTEX
  8
0
 10
6.26894350
 20
3.08757019
  0
VERTEX
  8
0
 10
6.29636446
 20
3.07745983
  0
VERTEX
  8
0
 10
6.32359741
 20
3.06629886
  0
VERTEX
  8
0
 10
6.35063250
 20
3.05403049
  0
VERTEX
  8
0
 10
6.34088047
 20
3.13379046
  0
VERTEX
  8
0
 10
6.33167655
 20
3.21348353
  0
VERTEX
  8
0
 10
6.38666692
 20
3.14554578
  0
VERTEX
  8
0
 10
6.44047022
 20
3.07675387
  0
VERTEX
  8
0
 10
6.49325129
 20
3.00722469
  0
VERTEX
  8
0
 10
6.54517497
 20
2.93707510
  0
VERTEX
  8
0
 10
6.64710950
 20
2.79538222
  0
VERTEX
  8
0
 10
6.74759252
 20
2.65261025
  0
VERTEX
  8
0
 10
6.79529934
 20
2.58765895
  0
VERTEX
  8
0
 10
6.84482744
 20
2.52317703
  0
VERTEX
  8
0
 10
6.87046732
 20
2.49149917
  0
VERTEX
  8
0
 10
6.89679394
 20
2.46040316
  0
VERTEX
  8
0
 10
6.92388443
 20
2.43004382
  0
VERTEX
  8
0
 10
6.95181594
 20
2.40057601
  0
VERTEX
  8
0
 10
6.98066559
 20
2.37215454
  0
VERTEX
  8
0
 10
7.01051054
 20
2.34493426
  0
VERTEX
  8
0
 10
7.04142792
 20
2.31907000
  0
VERTEX
  8
0
 10
7.07349486
 20
2.29471659
  0
VERTEX
  8
0
 10
7.10678851
 20
2.27202888
  0
VERTEX
  8
0
 10
7.14138601
 20
2.25116168
  0
VERTEX
  8
0
 10
7.17736449
 20
2.23226985
  0
VERTEX
  8
0
 10
7.21480109
 20
2.21550820
  0
VERTEX
  8
0
 10
7.23918338
 20
2.20501860
  0
VERTEX
  8
0
 10
7.26375053
 20
2.19536978
  0
VERTEX
  8
0
 10
7.28849245
 20
2.18653859
  0
VERTEX
  8
0
 10
7.31339902
 20
2.17850190
  0
VERTEX
  8
0
 10
7.33846013
 20
2.17123654
  0
VERTEX
  8
0
 10
7.36366569
 20
2.16471938
  0
VERTEX
  8
0
 10
7.41446968
 20
2.15383703
  0
VERTEX
  8
0
 10
7.46573014
 20
2.14566968
  0
VERTEX
  8
0
 10
7.51736621
 20
2.14003215
  0
VERTEX
  8
0
 10
7.56929705
 20
2.13673925
  0
VERTEX
  8
0
 10
7.62144179
 20
2.13560579
  0
VERTEX
  8
0
 10
7.67371957
 20
2.13644661
  0
VERTEX
  8
0
 10
7.72604955
 20
2.13907651
  0
VERTEX
  8
0
 10
7.77835086
 20
2.14331031
  0
VERTEX
  8
0
 10
7.83054266
 20
2.14896284
  0
VERTEX
  8
0
 10
7.88254407
 20
2.15584890
  0
VERTEX
  8
0
 10
7.93427426
 20
2.16378333
  0
VERTEX
  8
0
 10
7.98565237
 20
2.17258092
  0
VERTEX
  8
0
 10
8.03659753
 20
2.18205651
  0
VERTEX
  8
0
 10
8.13050838
 20
2.19862665
  0
VERTEX
  8
0
 10
8.22543041
 20
2.21608731
  0
VERTEX
  8
0
 10
8.27289630
 20
2.22572252
  0
VERTEX
  8
0
 10
8.32016579
 20
2.23626550
  0
VERTEX
  8
0
 10
8.36708916
 20
2.24794460
  0
VERTEX
  8
0
 10
8.41351667
 20
2.26098822
  0
VERTEX
  8
0
 10
8.45929860
 20
2.27562473
  0
VERTEX
  8
0
 10
8.50428522
 20
2.29208249
  0
VERTEX
  8
0
 10
8.54832679
 20
2.31058990
  0
VERTEX
  8
0
 10
8.59127359
 20
2.33137531
  0
VERTEX
  8
0
 10
8.63297589
 20
2.35466712
  0
VERTEX
  8
0
 10
8.65331356
 20
2.36732428
  0
VERTEX
  8
0
 10
8.67328396
 20
2.38069368
  0
VERTEX
  8
0
 10
8.69286836
 20
2.39480387
  0
VERTEX
  8
0
 10
8.71204806
 20
2.40968339
  0
VERTEX
  8
0
 10
8.73080433
 20
2.42536079
  0
VERTEX
  8
0
 10
8.74911846
 20
2.44186462
  0
VERTEX
  8
0
 10
8.76355808
 20
2.45550313
  0
VERTEX
  8
0
 10
8.77629822
 20
2.47023628
  0
VERTEX
  8
0
 10
8.78739802
 20
2.48595357
  0
VERTEX
  8
0
 10
8.79691662
 20
2.50254446
  0
VERTEX
  8
0
 10
8.80491316
 20
2.51989844
  0
VERTEX
  8
0
 10
8.81144677
 20
2.53790501
  0
VERTEX
  8
0
 10
8.81657658
 20
2.55645364
  0
VERTEX
  8
0
 10
8.82036173
 20
2.57543382
  0
VERTEX
  8
0
 10
8.82286136
 20
2.59473503
  0
VERTEX
  8
0
 10
8.82413461
 20
2.61424676
  0
VERTEX
  8
0
 10
8.82424060
 20
2.63385849
  0
VERTEX
  8
0
 10
8.82323847
 20
2.65345970
  0
VERTEX
  8
0
 10
8.82118736
 20
2.67293989
  0
VERTEX
  8
0
 10
8.81814641
 20
2.69218854
  0
VERTEX
  8
0
 10
8.81417474
 20
2.71109512
  0
VERTEX
  8
0
 10
8.80933150
 20
2.72954913
  0
VERTEX
  8
0
 10
8.79413362
 20
2.78143152
  0
VERTEX
  8
0
 10
8.77718351
 20
2.83277055
  0
VERTEX
  8
0
 10
8.75848190
 20
2.88349479
  0
VERTEX
  8
0
 10
8.73802956
 20
2.93353280
  0
VERTEX
  8
0
 10
8.71582724
 20
2.98281317
  0
VERTEX
  8
0
 10
8.69187569
 20
3.03126445
  0
VERTEX
  8
0
 10
8.66617565
 20
3.07881524
  0
VERTEX
  8
0
 10
8.63872790
 20
3.12539409
  0
VERTEX
  8
0
 10
8.62564046
 20
3.11622932
  0
VERTEX
  8
0
 10
8.61335829
 20
3.10638631
  0
VERTEX
  8
0
 10
8.60184582
 20
3.09590585
  0
VERTEX
  8
0
 10
8.59106745
 20
3.08482876
  0
VERTEX
  8
0
 10
8.58098762
 20
3.07319587
  0
VERTEX
  8
0
 10
8.57157074
 20
3.06104798
  0
VERTEX
  8
0
 10
8.56278122
 20
3.04842591
  0
VERTEX
  8
0
 10
8.55458349
 20
3.03537048
  0
VERTEX
  8
0
 10
8.53982107
 20
3.00812279
  0
VERTEX
  8
0
 10
8.52699881
 20
2.97963142
  0
VERTEX
  8
0
 10
8.51583207
 20
2.95022290
  0
VERTEX
  8
0
 10
8.50603620
 20
2.92022374
  0
VERTEX
  8
0
 10
8.46501153
 20
2.90726175
  0
VERTEX
  8
0
 10
8.42413507
 20
2.89281670
  0
VERTEX
  8
0
 10
8.34223829
 20
2.86308043
  0
VERTEX
  8
0
 10
8.30092369
 20
2.84959068
  0
VERTEX
  8
0
 10
8.25916878
 20
2.83822086
  0
VERTEX
  8
0
 10
8.23808022
 20
2.83361240
  0
VERTEX
  8
0
 10
8.21682641
 20
2.82987171
  0
VERTEX
  8
0
 10
8.19538895
 20
2.82711136
  0
VERTEX
  8
0
 10
8.17374945
 20
2.82544396
  0
VERTEX
  8
0
 10
8.15499660
 20
2.83305589
  0
VERTEX
  8
0
 10
8.13671172
 20
2.84155882
  0
VERTEX
  8
0
 10
8.11882856
 20
2.85082906
  0
VERTEX
  8
0
 10
8.10128085
 20
2.86074296
  0
VERTEX
  8
0
 10
8.06692675
 20
2.88200699
  0
VERTEX
  8
0
 10
8.03311935
 20
2.90436154
  0
VERTEX
  8
0
 10
7.99932858
 20
2.92681720
  0
VERTEX
  8
0
 10
7.96502436
 20
2.94838459
  0
VERTEX
  8
0
 10
7.92967662
 20
2.96807432
  0
VERTEX
  8
0
 10
7.91144577
 20
2.97690588
  0
VERTEX
  8
0
 10
7.89275528
 20
2.98489700
  0
VERTEX
  8
0
 10
7.86355255
 20
2.99562929
  0
VERTEX
  8
0
 10
7.83404391
 20
3.00514439
  0
VERTEX
  8
0
 10
7.80425914
 20
3.01355578
  0
VERTEX
  8
0
 10
7.77422801
 20
3.02097694
  0
VERTEX
  8
0
 10
7.74398028
 20
3.02752135
  0
VERTEX
  8
0
 10
7.71354574
 20
3.03330251
  0
VERTEX
  8
0
 10
7.65223532
 20
3.04302900
  0
VERTEX
  8
0
 10
7.59053491
 20
3.05106426
  0
VERTEX
  8
0
 10
7.52868272
 20
3.05831619
  0
VERTEX
  8
0
 10
7.46691692
 20
3.06569264
  0
VERTEX
  8
0
 10
7.40547570
 20
3.07410150
  0
VERTEX
  8
0
 10
7.43858792
 20
3.09223701
  0
VERTEX
  8
0
 10
7.47203249
 20
3.10841953
  0
VERTEX
  8
0
 10
7.50579252
 20
3.12275006
  0
VERTEX
  8
0
 10
7.53985113
 20
3.13532961
  0
VERTEX
  8
0
 10
7.57419145
 20
3.14625918
  0
VERTEX
  8
0
 10
7.60879659
 20
3.15563977
  0
VERTEX
  8
0
 10
7.64364966
 20
3.16357237
  0
VERTEX
  8
0
 10
7.67873379
 20
3.17015800
  0
VERTEX
  8
0
 10
7.71403210
 20
3.17549765
  0
VERTEX
  8
0
 10
7.74952770
 20
3.17969232
  0
VERTEX
  8
0
 10
7.78520372
 20
3.18284301
  0
VERTEX
  8
0
 10
7.82104326
 20
3.18505074
  0
VERTEX
  8
0
 10
7.85702946
 20
3.18641648
  0
VERTEX
  8
0
 10
7.89314543
 20
3.18704126
  0
VERTEX
  8
0
 10
7.96569913
 20
3.18647189
  0
VERTEX
  8
0
 10
8.03856933
 20
3.18415065
  0
VERTEX
  8
0
 10
8.11162098
 20
3.18088554
  0
VERTEX
  8
0
 10
8.18471901
 20
3.17748458
  0
VERTEX
  8
0
 10
8.25772839
 20
3.17475576
  0
VERTEX
  8
0
 10
8.33051405
 20
3.17350711
  0
VERTEX
  8
0
 10
8.40294094
 20
3.17454662
  0
VERTEX
  8
0
 10
8.43897765
 20
3.17617694
  0
VERTEX
  8
0
 10
8.47487402
 20
3.17868231
  0
VERTEX
  8
0
 10
8.51061317
 20
3.18216372
  0
VERTEX
  8
0
 10
8.54617823
 20
3.18672218
  0
VERTEX
  8
0
 10
8.56611013
 20
3.19005742
  0
VERTEX
  8
0
 10
8.58530643
 20
3.19491401
  0
VERTEX
  8
0
 10
8.60370374
 20
3.20123502
  0
VERTEX
  8
0
 10
8.62123866
 20
3.20896355
  0
VERTEX
  8
0
 10
8.63784779
 20
3.21804269
  0
VERTEX
  8
0
 10
8.65346772
 20
3.22841553
  0
VERTEX
  8
0
 10
8.66803505
 20
3.24002517
  0
VERTEX
  8
0
 10
8.68148639
 20
3.25281469
  0
VERTEX
  8
0
 10
8.69375832
 20
3.26672718
  0
VERTEX
  8
0
 10
8.70478746
 20
3.28170573
  0
VERTEX
  8
0
 10
8.71451040
 20
3.29769344
  0
VERTEX
  8
0
 10
8.72286374
 20
3.31463339
  0
VERTEX
  8
0
 10
8.72978408
 20
3.33246868
  0
VERTEX
  8
0
 10
8.73520801
 20
3.35114240
  0
VERTEX
  8
0
 10
8.73907214
 20
3.37059763
  0
VERTEX
  8
0
 10
8.74131307
 20
3.39077747
  0
VERTEX
  8
0
 10
8.58731507
 20
3.40302246
  0
VERTEX
  8
0
 10
8.43261764
 20
3.41350068
  0
VERTEX
  8
0
 10
8.35511507
 20
3.41756398
  0
VERTEX
  8
0
 10
8.27756777
 20
3.42056967
  0
VERTEX
  8
0
 10
8.20001909
 20
3.42231243
  0
VERTEX
  8
0
 10
8.12251242
 20
3.42258697
  0
VERTEX
  8
0
 10
8.04509112
 20
3.42118798
  0
VERTEX
  8
0
 10
7.96779858
 20
3.41791015
  0
VERTEX
  8
0
 10
7.89067816
 20
3.41254816
  0
VERTEX
  8
0
 10
7.81377323
 20
3.40489672
  0
VERTEX
  8
0
 10
7.73712717
 20
3.39475052
  0
VERTEX
  8
0
 10
7.66078336
 20
3.38190425
  0
VERTEX
  8
0
 10
7.62273834
 20
3.37440443
  0
VERTEX
  8
0
 10
7.58478515
 20
3.36615261
  0
VERTEX
  8
0
 10
7.54692921
 20
3.35712311
  0
VERTEX
  8
0
 10
7.50917593
 20
3.34729028
  0
VERTEX
  8
0
 10
7.46024215
 20
3.33216266
  0
VERTEX
  8
0
 10
7.41159346
 20
3.31561923
  0
VERTEX
  8
0
 10
7.31434833
 20
3.28187584
  0
VERTEX
  8
0
 10
7.26535039
 20
3.26647137
  0
VERTEX
  8
0
 10
7.21583453
 20
3.25324203
  0
VERTEX
  8
0
 10
7.19081964
 20
3.24772358
  0
VERTEX
  8
0
 10
7.16559999
 20
3.24308557
  0
VERTEX
  8
0
 10
7.14015048
 20
3.23944020
  0
VERTEX
  8
0
 10
7.11444602
 20
3.23689971
  0
VERTEX
  8
0
 10
7.08976316
 20
3.23512282
  0
VERTEX
  8
0
 10
7.06534595
 20
3.23563248
  0
VERTEX
  8
0
 10
7.04126129
 20
3.23830609
  0
VERTEX
  8
0
 10
7.01757604
 20
3.24302102
  0
VERTEX
  8
0
 10
6.99435707
 20
3.24965468
  0
VERTEX
  8
0
 10
6.97167127
 20
3.25808444
  0
VERTEX
  8
0
 10
6.94958551
 20
3.26818770
  0
VERTEX
  8
0
 10
6.92816665
 20
3.27984185
  0
VERTEX
  8
0
 10
6.90748159
 20
3.29292428
  0
VERTEX
  8
0
 10
6.88759718
 20
3.30731237
  0
VERTEX
  8
0
 10
6.86858031
 20
3.32288351
  0
VERTEX
  8
0
 10
6.85049785
 20
3.33951510
  0
VERTEX
  8
0
 10
6.83341667
 20
3.35708452
  0
VERTEX
  8
0
 10
6.81740366
 20
3.37546916
  0
VERTEX
  8
0
 10
6.80252568
 20
3.39454641
  0
VERTEX
  8
0
 10
6.78884960
 20
3.41419365
  0
VERTEX
  8
0
 10
6.77481041
 20
3.44204580
  0
VERTEX
  8
0
 10
6.76218516
 20
3.47040467
  0
VERTEX
  8
0
 10
6.75088682
 20
3.49922408
  0
VERTEX
  8
0
 10
6.74082834
 20
3.52845789
  0
VERTEX
  8
0
 10
6.73192266
 20
3.55805993
  0
VERTEX
  8
0
 10
6.72408274
 20
3.58798403
  0
VERTEX
  8
0
 10
6.71722153
 20
3.61818403
  0
VERTEX
  8
0
 10
6.71125198
 20
3.64861378
  0
VERTEX
  8
0
 10
6.70608703
 20
3.67922710
  0
VERTEX
  8
0
 10
6.70163965
 20
3.70997784
  0
VERTEX
  8
0
 10
6.69454937
 20
3.77170691
  0
VERTEX
  8
0
 10
6.68928474
 20
3.83343170
  0
VERTEX
  8
0
 10
6.68514937
 20
3.89478289
  0
VERTEX
  8
0
 10
6.68134723
 20
3.94953051
  0
VERTEX
  8
0
 10
6.67551639
 20
4.00389975
  0
VERTEX
  8
0
 10
6.66784976
 20
4.05792475
  0
VERTEX
  8
0
 10
6.65854025
 20
4.11163965
  0
VERTEX
  8
0
 10
6.64778076
 20
4.16507858
  0
VERTEX
  8
0
 10
6.63576421
 20
4.21827568
  0
VERTEX
  8
0
 10
6.62268349
 20
4.27126509
  0
VERTEX
  8
0
 10
6.60873152
 20
4.32408093
  0
VERTEX
  8
0
 10
6.57898544
 20
4.42932848
  0
VERTEX
  8
0
 10
6.54806924
 20
4.53429141
  0
VERTEX
  8
0
 10
6.51752616
 20
4.63924280
  0
VERTEX
  8
0
 10
6.48889948
 20
4.74445574
  0
VERTEX
  8
0
 10
6.46972428
 20
4.81769481
  0
VERTEX
  8
0
 10
6.44930502
 20
4.89093829
  0
VERTEX
  8
0
 10
6.42895214
 20
4.96433419
  0
VERTEX
  8
0
 10
6.40997606
 20
5.03803053
  0
VERTEX
  8
0
 10
6.40141384
 20
5.07503763
  0
VERTEX
  8
0
 10
6.39368724
 20
5.11217534
  0
VERTEX
  8
0
 10
6.38696006
 20
5.14946217
  0
VERTEX
  8
0
 10
6.38139611
 20
5.18691663
  0
VERTEX
  8
0
 10
6.37715919
 20
5.22455720
  0
VERTEX
  8
0
 10
6.37441311
 20
5.26240241
  0
VERTEX
  8
0
 10
6.37332167
 20
5.30047075
  0
VERTEX
  8
0
 10
6.37404868
 20
5.33878071
  0
VERTEX
  8
0
 10
6.37424231
 20
5.36319124
  0
VERTEX
  8
0
 10
6.37543034
 20
5.38746358
  0
VERTEX
  8
0
 10
6.37759100
 20
5.41157975
  0
VERTEX
  8
0
 10
6.38070250
 20
5.43552174
  0
VERTEX
  8
0
 10
6.38474306
 20
5.45927156
  0
VERTEX
  8
0
 10
6.38969090
 20
5.48281119
  0
VERTEX
  8
0
 10
6.39552424
 20
5.50612264
  0
VERTEX
  8
0
 10
6.40222130
 20
5.52918792
  0
VERTEX
  8
0
 10
6.40976029
 20
5.55198900
  0
VERTEX
  8
0
 10
6.41811944
 20
5.57450791
  0
VERTEX
  8
0
 10
6.42727695
 20
5.59672663
  0
VERTEX
  8
0
 10
6.43721106
 20
5.61862716
  0
VERTEX
  8
0
 10
6.44789998
 20
5.64019151
  0
VERTEX
  8
0
 10
6.45932192
 20
5.66140167
  0
VERTEX
  8
0
 10
6.47145511
 20
5.68223963
  0
VERTEX
  8
0
 10
6.48427776
 20
5.70268741
  0
VERTEX
  8
0
 10
6.49776810
 20
5.72272700
  0
VERTEX
  8
0
 10
6.51190433
 20
5.74234040
  0
VERTEX
  8
0
 10
6.52666469
 20
5.76150960
  0
VERTEX
  8
0
 10
6.54202738
 20
5.78021660
  0
VERTEX
  8
0
 10
6.57447264
 20
5.81617203
  0
VERTEX
  8
0
 10
6.60906587
 20
5.85006267
  0
VERTEX
  8
0
 10
6.64563282
 20
5.88174451
  0
VERTEX
  8
0
 10
6.68399923
 20
5.91107354
  0
VERTEX
  8
0
 10
6.72399085
 20
5.93790576
  0
VERTEX
  8
0
 10
6.74454166
 20
5.95034056
  0
VERTEX
  8
0
 10
6.76543342
 20
5.96209715
  0
VERTEX
  8
0
 10
6.79658105
 20
5.97943621
  0
VERTEX
  8
0
 10
6.82813603
 20
5.99601884
  0
VERTEX
  8
0
 10
6.86008286
 20
6.01182035
  0
VERTEX
  8
0
 10
6.89240607
 20
6.02681608
  0
VERTEX
  8
0
 10
6.92509018
 20
6.04098135
  0
VERTEX
  8
0
 10
6.95811969
 20
6.05429147
  0
VERTEX
  8
0
 10
6.99147912
 20
6.06672177
  0
VERTEX
  8
0
 10
7.02515299
 20
6.07824758
  0
VERTEX
  8
0
 10
7.05912581
 20
6.08884421
  0
VERTEX
  8
0
 10
7.09338211
 20
6.09848699
  0
VERTEX
  8
0
 10
7.12790638
 20
6.10715124
  0
VERTEX
  8
0
 10
7.16268316
 20
6.11481229
  0
VERTEX
  8
0
 10
7.19769695
 20
6.12144545
  0
VERTEX
  8
0
 10
7.23293228
 20
6.12702605
  0
VERTEX
  8
0
 10
7.26837365
 20
6.13152942
  0
VERTEX
  8
0
 10
7.30400558
 20
6.13493086
  0
VERTEX
  8
0
 10
7.42801661
 20
6.14703480
  0
VERTEX
  8
0
 10
7.55189062
 20
6.16062973
  0
VERTEX
  8
0
 10
7.67566187
 20
6.17539148
  0
VERTEX
  8
0
 10
7.79936460
 20
6.19099589
  0
VERTEX
  8
0
 10
8.04670156
 20
6.22343606
  0
VERTEX
  8
0
 10
8.29417552
 20
6.25535694
  0
VERTEX
  8
0
 10
8.39668642
 20
6.26453792
  0
VERTEX
  8
0
 10
8.49907300
 20
6.27573611
  0
VERTEX
  8
0
 10
8.60124874
 20
6.28904064
  0
VERTEX
  8
0
 10
8.70312710
 20
6.30454067
  0
VERTEX
  8
0
 10
8.80462158
 20
6.32232535
  0
VERTEX
  8
0
 10
8.90564565
 20
6.34248382
  0
VERTEX
  8
0
 10
9.00611278
 20
6.36510524
  0
VERTEX
  8
0
 10
9.10593646
 20
6.39027874
  0
VERTEX
  8
0
 10
9.12894796
 20
6.39765710
  0
VERTEX
  8
0
 10
9.15229129
 20
6.40630696
  0
VERTEX
  8
0
 10
9.17567792
 20
6.41623287
  0
VERTEX
  8
0
 10
9.19881933
 20
6.42743941
  0
VERTEX
  8
0
 10
9.22142698
 20
6.43993113
  0
VERTEX
  8
0
 10
9.24321234
 20
6.45371261
  0
VERTEX
  8
0
 10
9.26388689
 20
6.46878839
  0
VERTEX
  8
0
 10
9.28316210
 20
6.48516306
  0
VERTEX
  8
0
 10
9.30074944
 20
6.50284116
  0
VERTEX
  8
0
 10
9.31636037
 20
6.52182727
  0
VERTEX
  8
0
 10
9.32970637
 20
6.54212594
  0
VERTEX
  8
0
 10
9.33543986
 20
6.55276892
  0
VERTEX
  8
0
 10
9.34049891
 20
6.56374174
  0
VERTEX
  8
0
 10
9.34484747
 20
6.57504499
  0
VERTEX
  8
0
 10
9.34844946
 20
6.58667924
  0
VERTEX
  8
0
 10
9.35126883
 20
6.59864505
  0
VERTEX
  8
0
 10
9.35326950
 20
6.61094299
  0
VERTEX
  8
0
 10
9.35441540
 20
6.62357364
  0
VERTEX
  8
0
 10
9.35467048
 20
6.63653756
  0
VERTEX
  8
0
 10
9.35399866
 20
6.64983533
  0
VERTEX
  8
0
 10
9.35236389
 20
6.66346752
  0
VERTEX
  8
0
 10
9.34481852
 20
6.69916533
  0
VERTEX
  8
0
 10
9.33474423
 20
6.73374376
  0
VERTEX
  8
0
 10
9.32243058
 20
6.76733273
  0
VERTEX
  8
0
 10
9.30816714
 20
6.80006211
  0
VERTEX
  8
0
 10
9.29224348
 20
6.83206180
  0
VERTEX
  8
0
 10
9.27494918
 20
6.86346169
  0
VERTEX
  8
0
 10
9.25657379
 20
6.89439168
  0
VERTEX
  8
0
 10
9.23740690
 20
6.92498166
  0
VERTEX
  8
0
 10
9.19785685
 20
6.98566115
  0
VERTEX
  8
0
 10
9.15861560
 20
7.04653931
  0
VERTEX
  8
0
 10
9.13983469
 20
7.07737763
  0
VERTEX
  8
0
 10
9.12199969
 20
7.10865529
  0
VERTEX
  8
0
 10
9.10540016
 20
7.14050219
  0
VERTEX
  8
0
 10
9.09032567
 20
7.17304822
  0
VERTEX
  8
0
 10
9.16766540
 20
7.19505657
  0
VERTEX
  8
0
 10
9.20634919
 20
7.20621465
  0
VERTEX
  8
0
 10
9.24479554
 20
7.21806417
  0
VERTEX
  8
0
 10
9.28281943
 20
7.23104671
  0
VERTEX
  8
0
 10
9.32023581
 20
7.24560391
  0
VERTEX
  8
0
 10
9.35685965
 20
7.26217736
  0
VERTEX
  8
0
 10
9.39250591
 20
7.28120867
  0
VERTEX
  8
0
 10
9.36785250
 20
7.28498228
  0
VERTEX
  8
0
 10
9.34322736
 20
7.28762263
  0
VERTEX
  8
0
 10
9.31863788
 20
7.28918308
  0
VERTEX
  8
0
 10
9.29409144
 20
7.28971705
  0
VERTEX
  8
0
 10
9.26959544
 20
7.28927791
  0
VERTEX
  8
0
 10
9.24515726
 20
7.28791905
  0
VERTEX
  8
0
 10
9.22078429
 20
7.28569385
  0
VERTEX
  8
0
 10
9.19648393
 20
7.28265572
  0
VERTEX
  8
0
 10
9.14813057
 20
7.27435419
  0
VERTEX
  8
0
 10
9.10015628
 20
7.26344155
  0
VERTEX
  8
0
 10
9.05262019
 20
7.25034490
  0
VERTEX
  8
0
 10
9.00558140
 20
7.23549137
  0
VERTEX
  8
0
 10
8.99670132
 20
7.23158111
  0
VERTEX
  8
0
 10
8.98794449
 20
7.22857264
  0
VERTEX
  8
0
 10
8.97932014
 20
7.22643113
  0
VERTEX
  8
0
 10
8.97083749
 20
7.22512177
  0
VERTEX
  8
0
 10
8.96250575
 20
7.22460971
  0
VERTEX
  8
0
 10
8.95433415
 20
7.22486013
  0
VERTEX
  8
0
 10
8.93850825
 20
7.22750911
  0
VERTEX
  8
0
 10
8.92343355
 20
7.23279009
  0
VERTEX
  8
0
 10
8.90918380
 20
7.24042447
  0
VERTEX
  8
0
 10
8.89583279
 20
7.25013361
  0
VERTEX
  8
0
 10
8.88345426
 20
7.26163891
  0
VERTEX
  8
0
 10
8.87212199
 20
7.27466174
  0
VERTEX
  8
0
 10
8.86190974
 20
7.28892350
  0
VERTEX
  8
0
 10
8.85289128
 20
7.30414556
  0
VERTEX
  8
0
 10
8.84514036
 20
7.32004932
  0
VERTEX
  8
0
 10
8.83873075
 20
7.33635615
  0
VERTEX
  8
0
 10
8.83373622
 20
7.35278743
  0
VERTEX
  8
0
 10
8.83023054
 20
7.36906455
  0
VERTEX
  8
0
 10
8.82828746
 20
7.38490890
  0
VERTEX
  8
0
 10
8.82831287
 20
7.39689611
  0
VERTEX
  8
0
 10
8.82909629
 20
7.40854063
  0
VERTEX
  8
0
 10
8.83060921
 20
7.41984526
  0
VERTEX
  8
0
 10
8.83282307
 20
7.43081277
  0
VERTEX
  8
0
 10
8.83923955
 20
7.45174766
  0
VERTEX
  8
0
 10
8.84811748
 20
7.47136765
  0
VERTEX
  8
0
 10
8.85922862
 20
7.48969509
  0
VERTEX
  8
0
 10
8.87234471
 20
7.50675233
  0
VERTEX
  8
0
 10
8.88723752
 20
7.52256172
  0
VERTEX
  8
0
 10
8.90367879
 20
7.53714561
  0
VERTEX
  8
0
 10
8.92144029
 20
7.55052634
  0
VERTEX
  8
0
 10
8.94029376
 20
7.56272626
  0
VERTEX
  8
0
 10
8.96001096
 20
7.57376772
  0
VERTEX
  8
0
 10
8.98036365
 20
7.58367308
  0
VERTEX
  8
0
 10
9.00112357
 20
7.59246467
  0
VERTEX
  8
0
 10
9.02206249
 20
7.60016485
  0
VERTEX
  8
0
 10
9.04295216
 20
7.60679597
  0
VERTEX
  8
0
 10
9.06356432
 20
7.61238037
  0
VERTEX
  8
0
 10
9.07942476
 20
7.61599347
  0
VERTEX
  8
0
 10
9.09519169
 20
7.61861932
  0
VERTEX
  8
0
 10
9.11087150
 20
7.62032075
  0
VERTEX
  8
0
 10
9.12647058
 20
7.62116058
  0
VERTEX
  8
0
 10
9.14199532
 20
7.62120163
  0
VERTEX
  8
0
 10
9.15745211
 20
7.62050674
  0
VERTEX
  8
0
 10
9.18818743
 20
7.61716041
  0
VERTEX
  8
0
 10
9.21872767
 20
7.61162419
  0
VERTEX
  8
0
 10
9.24912396
 20
7.60440068
  0
VERTEX
  8
0
 10
9.27942743
 20
7.59599248
  0
VERTEX
  8
0
 10
9.30968922
 20
7.58690220
  0
VERTEX
  8
0
 10
9.37029230
 20
7.56868580
  0
VERTEX
  8
0
 10
9.40073586
 20
7.56056489
  0
VERTEX
  8
0
 10
9.43134227
 20
7.55377230
  0
VERTEX
  8
0
 10
9.46216268
 20
7.54881063
  0
VERTEX
  8
0
 10
9.49324821
 20
7.54618250
  0
VERTEX
  8
0
 10
9.50890637
 20
7.54590057
  0
VERTEX
  8
0
 10
9.52464999
 20
7.54639049
  0
VERTEX
  8
0
 10
9.54048547
 20
7.54771511
  0
VERTEX
  8
0
 10
9.55641918
 20
7.54993723
  0
VERTEX
  8
0
 10
9.59725239
 20
7.55325719
  0
VERTEX
  8
0
 10
9.63805081
 20
7.55493412
  0
VERTEX
  8
0
 10
9.67882008
 20
7.55518540
  0
VERTEX
  8
0
 10
9.71956582
 20
7.55422845
  0
VERTEX
  8
0
 10
9.76029365
 20
7.55228066
  0
VERTEX
  8
0
 10
9.80100921
 20
7.54955943
  0
VERTEX
  8
0
 10
9.88242598
 20
7.54266626
  0
VERTEX
  8
0
 10
9.96386115
 20
7.53528814
  0
VERTEX
  8
0
 10
10.04535971
 20
7.52916428
  0
VERTEX
  8
0
 10
10.08614684
 20
7.52711619
  0
VERTEX
  8
0
 10
10.12696669
 20
7.52603386
  0
VERTEX
  8
0
 10
10.16782489
 20
7.52613470
  0
VERTEX
  8
0
 10
10.20872707
 20
7.52763610
  0
VERTEX
  8
0
 10
10.21134208
 20
7.56650835
  0
VERTEX
  8
0
 10
10.21266588
 20
7.60600392
  0
VERTEX
  8
0
 10
10.21171609
 20
7.64549476
  0
VERTEX
  8
0
 10
10.21008158
 20
7.66504214
  0
VERTEX
  8
0
 10
10.20751027
 20
7.68435281
  0
VERTEX
  8
0
 10
10.20387935
 20
7.70334827
  0
VERTEX
  8
0
 10
10.19906602
 20
7.72195000
  0
VERTEX
  8
0
 10
10.19294747
 20
7.74007951
  0
VERTEX
  8
0
 10
10.18540092
 20
7.75765829
  0
VERTEX
  8
0
 10
10.17630355
 20
7.77460782
  0
VERTEX
  8
0
 10
10.16553256
 20
7.79084960
  0
VERTEX
  8
0
 10
10.15296516
 20
7.80630513
  0
VERTEX
  8
0
 10
10.13847853
 20
7.82089589
  0
VERTEX
  8
0
 10
10.11708535
 20
7.84492320
  0
VERTEX
  8
0
 10
10.09416719
 20
7.86644035
  0
VERTEX
  8
0
 10
10.06985165
 20
7.88557352
  0
VERTEX
  8
0
 10
10.04426636
 20
7.90244889
  0
VERTEX
  8
0
 10
10.01753890
 20
7.91719263
  0
VERTEX
  8
0
 10
9.98979690
 20
7.92993092
  0
VERTEX
  8
0
 10
9.96116796
 20
7.94078994
  0
VERTEX
  8
0
 10
9.93177969
 20
7.94989588
  0
VERTEX
  8
0
 10
9.90175970
 20
7.95737491
  0
VERTEX
  8
0
 10
9.87123559
 20
7.96335321
  0
VERTEX
  8
0
 10
9.84033498
 20
7.96795695
  0
VERTEX
  8
0
 10
9.80918548
 20
7.97131232
  0
VERTEX
  8
0
 10
9.77791468
 20
7.97354550
  0
VERTEX
  8
0
 10
9.74665020
 20
7.97478266
  0
VERTEX
  8
0
 10
9.71551965
 20
7.97514998
  0
VERTEX
  8
0
 10
9.68465064
 20
7.97477365
  0
VERTEX
  8
0
 10
9.63781002
 20
8.03345770
  0
VERTEX
  8
0
 10
9.61336018
 20
8.06235713
  0
VERTEX
  8
0
 10
9.58818110
 20
8.09077345
  0
VERTEX
  8
0
 10
9.56224061
 20
8.11856558
  0
VERTEX
  8
0
 10
9.53550655
 20
8.14559249
  0
VERTEX
  8
0
 10
9.50794674
 20
8.17171311
  0
VERTEX
  8
0
 10
9.47952901
 20
8.19678639
  0
VERTEX
  8
0
 10
9.45022120
 20
8.22067129
  0
VERTEX
  8
0
 10
9.41999114
 20
8.24322674
  0
VERTEX
  8
0
 10
9.38880666
 20
8.26431169
  0
VERTEX
  8
0
 10
9.35663559
 20
8.28378510
  0
VERTEX
  8
0
 10
9.32344577
 20
8.30150591
  0
VERTEX
  8
0
 10
9.28920502
 20
8.31733307
  0
VERTEX
  8
0
 10
9.25388118
 20
8.33112552
  0
VERTEX
  8
0
 10
9.21744208
 20
8.34274221
  0
VERTEX
  8
0
 10
9.15884564
 20
8.36122006
  0
VERTEX
  8
0
 10
9.10019658
 20
8.38176502
  0
VERTEX
  8
0
 10
9.07110572
 20
8.39300259
  0
VERTEX
  8
0
 10
9.04230578
 20
8.40498486
  0
VERTEX
  8
0
 10
9.01389812
 20
8.41778778
  0
VERTEX
  8
0
 10
8.98598409
 20
8.43148734
  0
VERTEX
  8
0
 10
8.95866505
 20
8.44615951
  0
VERTEX
  8
0
 10
8.93204237
 20
8.46188026
  0
VERTEX
  8
0
 10
8.90621739
 20
8.47872556
  0
VERTEX
  8
0
 10
8.88129148
 20
8.49677137
  0
VERTEX
  8
0
 10
8.85736600
 20
8.51609368
  0
VERTEX
  8
0
 10
8.83454229
 20
8.53676846
  0
VERTEX
  8
0
 10
8.81292173
 20
8.55887168
  0
VERTEX
  8
0
 10
8.79260566
 20
8.58247930
  0
VERTEX
  8
0
 10
8.78057687
 20
8.59862310
  0
VERTEX
  8
0
 10
8.77009822
 20
8.61540356
  0
VERTEX
  8
0
 10
8.76109559
 20
8.63275862
  0
VERTEX
  8
0
 10
8.75349486
 20
8.65062623
  0
VERTEX
  8
0
 10
8.74722193
 20
8.66894434
  0
VERTEX
  8
0
 10
8.74220269
 20
8.68765089
  0
VERTEX
  8
0
 10
8.73836302
 20
8.70668384
  0
VERTEX
  8
0
 10
8.73562881
 20
8.72598113
  0
VERTEX
  8
0
 10
8.73392594
 20
8.74548070
  0
VERTEX
  8
0
 10
8.73318031
 20
8.76512051
  0
VERTEX
  8
0
 10
8.73331781
 20
8.78483851
  0
VERTEX
  8
0
 10
8.73426432
 20
8.80457264
  0
VERTEX
  8
0
 10
8.73828793
 20
8.84384108
  0
VERTEX
  8
0
 10
8.74465824
 20
8.88242942
  0
VERTEX
  8
0
 10
8.75386266
 20
8.86409009
  0
VERTEX
  8
0
 10
8.76198434
 20
8.84510376
  0
VERTEX
  8
0
 10
8.76925316
 20
8.82561138
  0
VERTEX
  8
0
 10
8.77589898
 20
8.80575388
  0
VERTEX
  8
0
 10
8.78824117
 20
8.76550725
  0
VERTEX
  8
0
 10
8.80084991
 20
8.72549136
  0
VERTEX
  8
0
 10
8.80782893
 20
8.70592228
  0
VERTEX
  8
0
 10
8.81556421
 20
8.68683369
  0
VERTEX
  8
0
 10
8.82428564
 20
8.66836652
  0
VERTEX
  8
0
 10
8.83422309
 20
8.65066170
  0
VERTEX
  8
0
 10
8.84560644
 20
8.63386018
  0
VERTEX
  8
0
 10
8.85866555
 20
8.61810288
  0
VERTEX
  8
0
 10
8.87363032
 20
8.60353074
  0
VERTEX
  8
0
 10
8.89073060
 20
8.59028469
  0
VERTEX
  8
0
 10
8.91583242
 20
8.57236706
  0
VERTEX
  8
0
 10
8.94284778
 20
8.55556956
  0
VERTEX
  8
0
 10
8.97139549
 20
8.54081655
  0
VERTEX
  8
0
 10
8.98612485
 20
8.53449559
  0
VERTEX
  8
0
 10
9.00109435
 20
8.52903239
  0
VERTEX
  8
0
 10
9.01625634
 20
8.52454250
  0
VERTEX
  8
0
 10
9.03156317
 20
8.52114147
  0
VERTEX
  8
0
 10
9.04696719
 20
8.51894482
  0
VERTEX
  8
0
 10
9.06242074
 20
8.51806812
  0
VERTEX
  8
0
 10
9.07787618
 20
8.51862691
  0
VERTEX
  8
0
 10
9.09328587
 20
8.52073673
  0
VERTEX
  8
0
 10
9.10860214
 20
8.52451313
  0
VERTEX
  8
0
 10
9.12377736
 20
8.53007165
  0
VERTEX
  8
0
 10
9.14025875
 20
8.54206455
  0
VERTEX
  8
0
 10
9.15604296
 20
8.55481894
  0
VERTEX
  8
0
 10
9.17122862
 20
8.56822923
  0
VERTEX
  8
0
 10
9.18591436
 20
8.58218981
  0
VERTEX
  8
0
 10
9.21418067
 20
8.61133939
  0
VERTEX
  8
0
 10
9.24163097
 20
8.64142283
  0
VERTEX
  8
0
 10
9.26905437
 20
8.67159527
  0
VERTEX
  8
0
 10
9.29723998
 20
8.70101184
  0
VERTEX
  8
0
 10
9.32697690
 20
8.72882769
  0
VERTEX
  8
0
 10
9.34267369
 20
8.74187133
  0
VERTEX
  8
0
 10
9.35905422
 20
8.75419796
  0
VERTEX
  8
0
 10
9.38870115
 20
8.77405926
  0
VERTEX
  8
0
 10
9.41921437
 20
8.79258367
  0
VERTEX
  8
0
 10
9.45042551
 20
8.81003153
  0
VERTEX
  8
0
 10
9.48216619
 20
8.82666320
  0
VERTEX
  8
0
 10
9.54656270
 20
8.85851933
  0
VERTEX
  8
0
 10
9.61105693
 20
8.89023482
  0
VERTEX
  8
0
 10
9.60221005
 20
8.92904672
  0
VERTEX
  8
0
 10
9.59145599
 20
8.96739708
  0
VERTEX
  8
0
 10
9.57850330
 20
9.00493013
  0
VERTEX
  8
0
 10
9.57111139
 20
9.02327898
  0
VERTEX
  8
0
 10
9.56306053
 20
9.04129009
  0
VERTEX
  8
0
 10
9.55431430
 20
9.05891899
  0
VERTEX
  8
0
 10
9.54483625
 20
9.07612121
  0
VERTEX
  8
0
 10
9.53458997
 20
9.09285228
  0
VERTEX
  8
0
 10
9.52353901
 20
9.10906772
  0
VERTEX
  8
0
 10
9.51164695
 20
9.12472306
  0
VERTEX
  8
0
 10
9.49887735
 20
9.13977384
  0
VERTEX
  8
0
 10
9.48519380
 20
9.15417558
  0
VERTEX
  8
0
 10
9.47055985
 20
9.16788382
  0
VERTEX
  8
0
 10
9.45217201
 20
9.18601715
  0
VERTEX
  8
0
 10
9.43327587
 20
9.20326693
  0
VERTEX
  8
0
 10
9.41389542
 20
9.21967332
  0
VERTEX
  8
0
 10
9.39405468
 20
9.23527648
  0
VERTEX
  8
0
 10
9.37377766
 20
9.25011656
  0
VERTEX
  8
0
 10
9.35308837
 20
9.26423373
  0
VERTEX
  8
0
 10
9.33201081
 20
9.27766814
  0
VERTEX
  8
0
 10
9.31056901
 20
9.29045994
  0
VERTEX
  8
0
 10
9.26668870
 20
9.31427636
  0
VERTEX
  8
0
 10
9.22163952
 20
9.33600426
  0
VERTEX
  8
0
 10
9.17561355
 20
9.35596490
  0
VERTEX
  8
0
 10
9.12880287
 20
9.37447952
  0
VERTEX
  8
0
 10
9.08139959
 20
9.39186938
  0
VERTEX
  8
0
 10
9.03359577
 20
9.40845576
  0
VERTEX
  8
0
 10
8.93755488
 20
9.44050305
  0
VERTEX
  8
0
 10
8.84221688
 20
9.47319145
  0
VERTEX
  8
0
 10
8.79529168
 20
9.49057921
  0
VERTEX
  8
0
 10
8.74911846
 20
9.50909103
  0
VERTEX
  8
0
 10
8.80109688
 20
9.56980697
  0
VERTEX
  8
0
 10
8.85393375
 20
9.62951710
  0
VERTEX
  8
0
 10
8.82253545
 20
9.65292824
  0
VERTEX
  8
0
 10
8.79057743
 20
9.67543238
  0
VERTEX
  8
0
 10
8.75810703
 20
9.69710455
  0
VERTEX
  8
0
 10
8.72517159
 20
9.71801979
  0
VERTEX
  8
0
 10
8.65809488
 20
9.75787956
  0
VERTEX
  8
0
 10
8.58972596
 20
9.79561196
  0
VERTEX
  8
0
 10
8.52044349
 20
9.83181722
  0
VERTEX
  8
0
 10
8.45062612
 20
9.86709559
  0
VERTEX
  8
0
 10
8.31090136
 20
9.93727262
  0
VERTEX
  8
0
 10
8.27618239
 20
9.95477681
  0
VERTEX
  8
0
 10
8.24106381
 20
9.97131045
  0
VERTEX
  8
0
 10
8.20557390
 20
9.98692587
  0
VERTEX
  8
0
 10
8.16974089
 20
10.00167541
  0
VERTEX
  8
0
 10
8.13359304
 20
10.01561138
  0
VERTEX
  8
0
 10
8.09715860
 20
10.02878612
  0
VERTEX
  8
0
 10
8.02354294
 20
10.05306119
  0
VERTEX
  8
0
 10
7.94911992
 20
10.07491924
  0
VERTEX
  8
0
 10
7.87411554
 20
10.09477887
  0
VERTEX
  8
0
 10
7.79875581
 20
10.11305870
  0
VERTEX
  8
0
 10
7.72326673
 20
10.13017735
  0
VERTEX
  8
0
 10
7.61617956
 20
10.15825223
  0
VERTEX
  8
0
 10
7.50849474
 20
10.18344901
  0
VERTEX
  8
0
 10
7.40026786
 20
10.20584115
  0
VERTEX
  8
0
 10
7.29155452
 20
10.22550209
  0
VERTEX
  8
0
 10
7.18241028
 20
10.24250528
  0
VERTEX
  8
0
 10
7.07289075
 20
10.25692417
  0
VERTEX
  8
0
 10
6.96305151
 20
10.26883219
  0
VERTEX
  8
0
 10
6.85294815
 20
10.27830281
  0
VERTEX
  8
0
 10
6.74263625
 20
10.28540947
  0
VERTEX
  8
0
 10
6.63217140
 20
10.29022561
  0
VERTEX
  8
0
 10
6.52160920
 20
10.29282468
  0
VERTEX
  8
0
 10
6.41100521
 20
10.29328013
  0
VERTEX
  8
0
 10
6.30041504
 20
10.29166541
  0
VERTEX
  8
0
 10
6.18989427
 20
10.28805396
  0
VERTEX
  8
0
 10
6.07949848
 20
10.28251923
  0
VERTEX
  8
0
 10
5.96928327
 20
10.27513466
  0
VERTEX
  8
0
 10
5.91826204
 20
10.27135192
  0
VERTEX
  8
0
 10
5.86742567
 20
10.26630025
  0
VERTEX
  8
0
 10
5.81676462
 20
10.26007091
  0
VERTEX
  8
0
 10
5.76626936
 20
10.25275518
  0
VERTEX
  8
0
 10
5.71593036
 20
10.24444434
  0
VERTEX
  8
0
 10
5.66573808
 20
10.23522965
  0
VERTEX
  8
0
 10
5.61568300
 20
10.22520239
  0
VERTEX
  8
0
 10
5.56575557
 20
10.21445383
  0
VERTEX
  8
0
 10
5.46624556
 20
10.19115792
  0
VERTEX
  8
0
 10
5.36713180
 20
10.16607210
  0
VERTEX
  8
0
 10
5.16978795
 20
10.11345151
  0
SEQEND
  0
POLYLINE
  8
Default_Layer
 66
   1
 39
0.000000
 70
    1
  0
VERTEX
  8
0
 10
1.33287945
 20
7.75733768
  0
VERTEX
  8
0
 10
1.45244399
 20
7.72833881
  0
VERTEX
  8
0
 10
1.51233702
 20
7.71402500
  0
VERTEX
  8
0
 10
1.57239685
 20
7.70062898
  0
VERTEX
  8
0
 10
1.63269321
 20
7.68874626
  0
VERTEX
  8
0
 10
1.69329584
 20
7.67897238
  0
VERTEX
  8
0
 10
1.72373379
 20
7.67506235
  0
VERTEX
  8
0
 10
1.75427446
 20
7.67190284
  0
VERTEX
  8
0
 10
1.78492656
 20
7.66956831
  0
VERTEX
  8
0
 10
1.81569880
 20
7.66813319
  0
VERTEX
  8
0
 10
1.84686560
 20
7.66891835
  0
VERTEX
  8
0
 10
1.87750890
 20
7.67195809
  0
VERTEX
  8
0
 10
1.90763294
 20
7.67710127
  0
VERTEX
  8
0
 10
1.93724195
 20
7.68419677
  0
VERTEX
  8
0
 10
1.96634014
 20
7.69309345
  0
VERTEX
  8
0
 10
1.99493175
 20
7.70364020
  0
VERTEX
  8
0
 10
2.02302101
 20
7.71568588
  0
VERTEX
  8
0
 10
2.05061214
 20
7.72907937
  0
VERTEX
  8
0
 10
2.07770937
 20
7.74366955
  0
VERTEX
  8
0
 10
2.10431693
 20
7.75930527
  0
VERTEX
  8
0
 10
2.13043905
 20
7.77583543
  0
VERTEX
  8
0
 10
2.15607994
 20
7.79310889
  0
VERTEX
  8
0
 10
2.20593499
 20
7.82928120
  0
VERTEX
  8
0
 10
2.25391590
 20
7.86661320
  0
VERTEX
  8
0
 10
2.20696236
 20
7.86946440
  0
VERTEX
  8
0
 10
2.16011940
 20
7.87316986
  0
VERTEX
  8
0
 10
2.11338670
 20
7.87770000
  0
VERTEX
  8
0
 10
2.06676394
 20
7.88302528
  0
VERTEX
  8
0
 10
2.02025080
 20
7.88911613
  0
VERTEX
  8
0
 10
1.97384696
 20
7.89594300
  0
VERTEX
  8
0
 10
1.88136586
 20
7.91168656
  0
VERTEX
  8
0
 10
1.78931806
 20
7.93001948
  0
VERTEX
  8
0
 10
1.69770098
 20
7.95070531
  0
VERTEX
  8
0
 10
1.60651205
 20
7.97350758
  0
VERTEX
  8
0
 10
1.51574867
 20
7.99818983
  0
VERTEX
  8
0
 10
1.49485014
 20
7.96678607
  0
VERTEX
  8
0
 10
1.47327449
 20
7.93583098
  0
VERTEX
  8
0
 10
1.42832601
 20
7.87511079
  0
VERTEX
  8
0
 10
1.38137155
 20
7.81571708
  0
VERTEX
  8
0
 10
1.33287945
 20
7.75733768
  0
SEQEND
  0
POLYLINE
  8
Default_Layer
 66
   1
 39
0.000000
 70
    1
  0
VERTEX
  8
0
 10
2.76126649
 20
7.84877230
  0
VERTEX
  8
0
 10
2.73916346
 20
7.84460970
  0
VERTEX
  8
0
 10
2.71817714
 20
7.83844570
  0
VERTEX
  8
0
 10
2.69821789
 20
7.83045973
  0
VERTEX
  8
0
 10
2.67919606
 20
7.82083123
  0
VERTEX
  8
0
 10
2.66102200
 20
7.80973963
  0
VERTEX
  8
0
 10
2.64360609
 20
7.79736438
  0
VERTEX
  8
0
 10
2.62685866
 20
7.78388490
  0
VERTEX
  8
0
 10
2.61069009
 20
7.76948065
  0
VERTEX
  8
0
 10
2.57973091
 20
7.73861554
  0
VERTEX
  8
0
 10
2.55001142
 20
7.70620454
  0
VERTEX
  8
0
 10
2.52081445
 20
7.67368316
  0
VERTEX
  8
0
 10
2.49142288
 20
7.64248689
  0
VERTEX
  8
0
 10
2.46925414
 20
7.61929202
  0
VERTEX
  8
0
 10
2.44592675
 20
7.59765551
  0
VERTEX
  8
0
 10
2.42157570
 20
7.57739441
  0
VERTEX
  8
0
 10
2.39633596
 20
7.55832576
  0
VERTEX
  8
0
 10
2.37034253
 20
7.54026660
  0
VERTEX
  8
0
 10
2.34373038
 20
7.52303399
  0
VERTEX
  8
0
 10
2.28918991
 20
7.49031656
  0
VERTEX
  8
0
 10
2.23379443
 20
7.45870984
  0
VERTEX
  8
0
 10
2.17862382
 20
7.42675017
  0
VERTEX
  8
0
 10
2.15146031
 20
7.41018059
  0
VERTEX
  8
0
 10
2.12475798
 20
7.39297392
  0
VERTEX
  8
0
 10
2.09865181
 20
7.37494718
  0
VERTEX
  8
0
 10
2.07327679
 20
7.35591744
  0
VERTEX
  8
0
 10
2.12068797
 20
7.35235598
  0
VERTEX
  8
0
 10
2.16824931
 20
7.35003809
  0
VERTEX
  8
0
 10
2.21590811
 20
7.34899417
  0
VERTEX
  8
0
 10
2.26361166
 20
7.34925463
  0
VERTEX
  8
0
 10
2.31130729
 20
7.35084990
  0
VERTEX
  8
0
 10
2.35894228
 20
7.35381038
  0
VERTEX
  8
0
 10
2.40646395
 20
7.35816648
  0
VERTEX
  8
0
 10
2.45381960
 20
7.36394863
  0
VERTEX
  8
0
 10
2.50095653
 20
7.37118724
  0
VERTEX
  8
0
 10
2.54782204
 20
7.37991271
  0
VERTEX
  8
0
 10
2.59436345
 20
7.39015547
  0
VERTEX
  8
0
 10
2.64052805
 20
7.40194592
  0
VERTEX
  8
0
 10
2.68626315
 20
7.41531448
  0
VERTEX
  8
0
 10
2.73151605
 20
7.43029156
  0
VERTEX
  8
0
 10
2.77623405
 20
7.44690758
  0
VERTEX
  8
0
 10
2.82036447
 20
7.46519295
  0
VERTEX
  8
0
 10
2.83830267
 20
7.47342982
  0
VERTEX
  8
0
 10
2.85573070
 20
7.48231265
  0
VERTEX
  8
0
 10
2.87266185
 20
7.49181723
  0
VERTEX
  8
0
 10
2.88910943
 20
7.50191934
  0
VERTEX
  8
0
 10
2.92060702
 20
7.52381928
  0
VERTEX
  8
0
 10
2.95032985
 20
7.54781874
  0
VERTEX
  8
0
 10
2.97838427
 20
7.57372399
  0
VERTEX
  8
0
 10
3.00487666
 20
7.60134130
  0
VERTEX
  8
0
 10
3.02991337
 20
7.63047693
  0
VERTEX
  8
0
 10
3.05360078
 20
7.66093716
  0
VERTEX
  8
0
 10
3.07604525
 20
7.69252824
  0
VERTEX
  8
0
 10
3.09735315
 20
7.72505645
  0
VERTEX
  8
0
 10
3.11763084
 20
7.75832805
  0
VERTEX
  8
0
 10
3.13698468
 20
7.79214932
  0
VERTEX
  8
0
 10
3.15552106
 20
7.82632651
  0
VERTEX
  8
0
 10
3.17334632
 20
7.86066590
  0
VERTEX
  8
0
 10
3.20728898
 20
7.92905634
  0
VERTEX
  8
0
 10
3.09529343
 20
7.91016595
  0
VERTEX
  8
0
 10
2.98378353
 20
7.88975061
  0
VERTEX
  8
0
 10
2.87252073
 20
7.86891713
  0
VERTEX
  8
0
 10
2.76126649
 20
7.84877230
  0
SEQEND
  0
POLYLINE
  8
Default_Layer
 66
   1
 39
0.000000
 70
    1
  0
VERTEX
  8
0
 10
9.94445875
 20
7.17750844
  0
VERTEX
  8
0
 10
9.93358339
 20
7.15951091
  0
VERTEX
  8
0
 10
9.92337508
 20
7.14115290
  0
VERTEX
  8
0
 10
9.90454755
 20
7.10357083
  0
VERTEX
  8
0
 10
9.88715205
 20
7.06519299
  0
VERTEX
  8
0
 10
9.87036446
 20
7.02645012
  0
VERTEX
  8
0
 10
9.85336068
 20
6.98777296
  0
VERTEX
  8
0
 10
9.83531660
 20
6.94959227
  0
VERTEX
  8
0
 10
9.81540811
 20
6.91233879
  0
VERTEX
  8
0
 10
9.80449717
 20
6.89419436
  0
VERTEX
  8
0
 10
9.79281110
 20
6.87644326
  0
VERTEX
  8
0
 10
9.77493332
 20
6.84674514
  0
VERTEX
  8
0
 10
9.75563247
 20
6.81826503
  0
VERTEX
  8
0
 10
9.73501343
 20
6.79092741
  0
VERTEX
  8
0
 10
9.71318110
 20
6.76465671
  0
VERTEX
  8
0
 10
9.69024037
 20
6.73937739
  0
VERTEX
  8
0
 10
9.66629612
 20
6.71501390
  0
VERTEX
  8
0
 10
9.64145324
 20
6.69149070
  0
VERTEX
  8
0
 10
9.61581663
 20
6.66873224
  0
VERTEX
  8
0
 10
9.58949118
 20
6.64666298
  0
VERTEX
  8
0
 10
9.56258176
 20
6.62520735
  0
VERTEX
  8
0
 10
9.50743063
 20
6.58383486
  0
VERTEX
  8
0
 10
9.45120234
 20
6.54401038
  0
VERTEX
  8
0
 10
9.39473602
 20
6.50512953
  0
VERTEX
  8
0
 10
9.40742633
 20
6.46876817
  0
VERTEX
  8
0
 10
9.42135906
 20
6.43286826
  0
VERTEX
  8
0
 10
9.43651073
 20
6.39746782
  0
VERTEX
  8
0
 10
9.45285783
 20
6.36260486
  0
VERTEX
  8
0
 10
9.47037686
 20
6.32831739
  0
VERTEX
  8
0
 10
9.48904433
 20
6.29464343
  0
VERTEX
  8
0
 10
9.50883673
 20
6.26162098
  0
VERTEX
  8
0
 10
9.52973057
 20
6.22928805
  0
VERTEX
  8
0
 10
9.55170235
 20
6.19768267
  0
VERTEX
  8
0
 10
9.57472856
 20
6.16684283
  0
VERTEX
  8
0
 10
9.59878572
 20
6.13680656
  0
VERTEX
  8
0
 10
9.62385031
 20
6.10761186
  0
VERTEX
  8
0
 10
9.64989885
 20
6.07929675
  0
VERTEX
  8
0
 10
9.67690783
 20
6.05189924
  0
VERTEX
  8
0
 10
9.70485375
 20
6.02545734
  0
VERTEX
  8
0
 10
9.73371312
 20
6.00000906
  0
VERTEX
  8
0
 10
9.74428179
 20
5.99114636
  0
VERTEX
  8
0
 10
9.75531727
 20
5.98286330
  0
VERTEX
  8
0
 10
9.77865016
 20
5.96805272
  0
VERTEX
  8
0
 10
9.80343494
 20
5.95561062
  0
VERTEX
  8
0
 10
9.82939475
 20
5.94557027
  0
VERTEX
  8
0
 10
9.85625273
 20
5.93796497
  0
VERTEX
  8
0
 10
9.88373202
 20
5.93282801
  0
VERTEX
  8
0
 10
9.91155576
 20
5.93019267
  0
VERTEX
  8
0
 10
9.93944710
 20
5.93009225
  0
VERTEX
  8
0
 10
9.96712917
 20
5.93256002
  0
VERTEX
  8
0
 10
9.99432512
 20
5.93762929
  0
VERTEX
  8
0
 10
10.02075809
 20
5.94533333
  0
VERTEX
  8
0
 10
10.04615123
 20
5.95570544
  0
VERTEX
  8
0
 10
10.05837133
 20
5.96190242
  0
VERTEX
  8
0
 10
10.07022766
 20
5.96877890
  0
VERTEX
  8
0
 10
10.08168560
 20
5.97633904
  0
VERTEX
  8
0
 10
10.09271054
 20
5.98458700
  0
VERTEX
  8
0
 10
10.10326788
 20
5.99352695
  0
VERTEX
  8
0
 10
10.11332300
 20
6.00316304
  0
VERTEX
  8
0
 10
10.12284131
 20
6.01349944
  0
VERTEX
  8
0
 10
10.13178819
 20
6.02454030
  0
VERTEX
  8
0
 10
10.16074568
 20
6.05985574
  0
VERTEX
  8
0
 10
10.18874101
 20
6.09630038
  0
VERTEX
  8
0
 10
10.21562094
 20
6.13381994
  0
VERTEX
  8
0
 10
10.24123221
 20
6.17236012
  0
VERTEX
  8
0
 10
10.26542156
 20
6.21186663
  0
VERTEX
  8
0
 10
10.28803573
 20
6.25228518
  0
VERTEX
  8
0
 10
10.30892147
 20
6.29356149
  0
VERTEX
  8
0
 10
10.32792553
 20
6.33564125
  0
VERTEX
  8
0
 10
10.34489463
 20
6.37847019
  0
VERTEX
  8
0
 10
10.35967554
 20
6.42199400
  0
VERTEX
  8
0
 10
10.37211499
 20
6.46615841
  0
VERTEX
  8
0
 10
10.38205973
 20
6.51090911
  0
VERTEX
  8
0
 10
10.38935649
 20
6.55619182
  0
VERTEX
  8
0
 10
10.39385203
 20
6.60195225
  0
VERTEX
  8
0
 10
10.39500145
 20
6.62499464
  0
VERTEX
  8
0
 10
10.39539309
 20
6.64813610
  0
VERTEX
  8
0
 10
10.39500780
 20
6.67136985
  0
VERTEX
  8
0
 10
10.39382641
 20
6.69468909
  0
VERTEX
  8
0
 10
10.39388644
 20
6.72994938
  0
VERTEX
  8
0
 10
10.39161864
 20
6.76496149
  0
VERTEX
  8
0
 10
10.38710995
 20
6.79964927
  0
VERTEX
  8
0
 10
10.38044728
 20
6.83393657
  0
VERTEX
  8
0
 10
10.37171755
 20
6.86774724
  0
VERTEX
  8
0
 10
10.36100770
 20
6.90100514
  0
VERTEX
  8
0
 10
10.34840463
 20
6.93363412
  0
VERTEX
  8
0
 10
10.33399528
 20
6.96555802
  0
VERTEX
  8
0
 10
10.31786656
 20
6.99670071
  0
VERTEX
  8
0
 10
10.30010540
 20
7.02698603
  0
VERTEX
  8
0
 10
10.28079872
 20
7.05633783
  0
VERTEX
  8
0
 10
10.26003345
 20
7.08467996
  0
VERTEX
  8
0
 10
10.23789650
 20
7.11193629
  0
VERTEX
  8
0
 10
10.21447480
 20
7.13803065
  0
VERTEX
  8
0
 10
10.18985526
 20
7.16288690
  0
VERTEX
  8
0
 10
10.16412482
 20
7.18642889
  0
VERTEX
  8
0
 10
10.15238657
 20
7.19622152
  0
VERTEX
  8
0
 10
10.14001352
 20
7.20381239
  0
VERTEX
  8
0
 10
10.12708482
 20
7.20937757
  0
VERTEX
  8
0
 10
10.11367963
 20
7.21309317
  0
VERTEX
  8
0
 10
10.09987708
 20
7.21513527
  0
VERTEX
  8
0
 10
10.08575631
 20
7.21567995
  0
VERTEX
  8
0
 10
10.07139648
 20
7.21490331
  0
VERTEX
  8
0
 10
10.05687672
 20
7.21298143
  0
VERTEX
  8
0
 10
10.04227619
 20
7.21009041
  0
VERTEX
  8
0
 10
10.02767402
 20
7.20640632
  0
VERTEX
  8
0
 10
9.99878135
 20
7.19736331
  0
VERTEX
  8
0
 10
9.94445875
 20
7.17750844
  0
SEQEND
  0
POLYLINE
  8
Default_Layer
 66
   1
 39
0.000000
 70
    1
  0
VERTEX
  8
0
 10
8.46366407
 20
6.14831154
  0
VERTEX
  8
0
 10
8.47397065
 20
6.08863746
  0
VERTEX
  8
0
 10
8.48637226
 20
6.02927623
  0
VERTEX
  8
0
 10
8.50107921
 20
5.97033468
  0
VERTEX
  8
0
 10
8.51830182
 20
5.91191962
  0
VERTEX
  8
0
 10
8.64653329
 20
6.00112412
  0
VERTEX
  8
0
 10
8.74465824
 20
5.89853894
  0
VERTEX
  8
0
 10
8.80793297
 20
5.95032242
  0
VERTEX
  8
0
 10
8.87065959
 20
6.00335423
  0
VERTEX
  8
0
 10
8.98439533
 20
5.89853894
  0
VERTEX
  8
0
 10
9.10147623
 20
5.99889400
  0
VERTEX
  8
0
 10
9.14779089
 20
5.95302391
  0
VERTEX
  8
0
 10
9.19514096
 20
5.90745939
  0
VERTEX
  8
0
 10
9.21822410
 20
5.94257897
  0
VERTEX
  8
0
 10
9.22983910
 20
5.96178959
  0
VERTEX
  8
0
 10
9.24105419
 20
5.98184801
  0
VERTEX
  8
0
 10
9.25153272
 20
6.00256466
  0
VERTEX
  8
0
 10
9.26093805
 20
6.02374997
  0
VERTEX
  8
0
 10
9.26893352
 20
6.04521439
  0
VERTEX
  8
0
 10
9.27518248
 20
6.06676834
  0
VERTEX
  8
0
 10
9.27934829
 20
6.08822226
  0
VERTEX
  8
0
 10
9.28109431
 20
6.10938657
  0
VERTEX
  8
0
 10
9.28095469
 20
6.11980089
  0
VERTEX
  8
0
 10
9.28008387
 20
6.13007172
  0
VERTEX
  8
0
 10
9.27843979
 20
6.14017537
  0
VERTEX
  8
0
 10
9.27598035
 20
6.15008814
  0
VERTEX
  8
0
 10
9.27266347
 20
6.15978633
  0
VERTEX
  8
0
 10
9.26844707
 20
6.16924625
  0
VERTEX
  8
0
 10
9.26328908
 20
6.17844421
  0
VERTEX
  8
0
 10
9.25714741
 20
6.18735650
  0
VERTEX
  8
0
 10
9.24997997
 20
6.19595944
  0
VERTEX
  8
0
 10
9.24174470
 20
6.20422932
  0
VERTEX
  8
0
 10
9.23239950
 20
6.21214245
  0
VERTEX
  8
0
 10
9.22190231
 20
6.21967514
  0
VERTEX
  8
0
 10
9.12707348
 20
6.21158408
  0
VERTEX
  8
0
 10
9.03229076
 20
6.20279124
  0
VERTEX
  8
0
 10
8.84279945
 20
6.18402984
  0
VERTEX
  8
0
 10
8.65330002
 20
6.16525019
  0
VERTEX
  8
0
 10
8.55850713
 20
6.15643454
  0
VERTEX
  8
0
 10
8.46366407
 20
6.14831154
  0
SEQEND
  0
POLYLINE
  8
Default_Layer
 66
   1
 39
0.000000
 70
    1
  0
VERTEX
  8
0
 10
7.87937460
 20
6.07025760
  0
VERTEX
  8
0
 10
7.91154720
 20
5.96714133
  0
VERTEX
  8
0
 10
7.94215926
 20
5.86363203
  0
VERTEX
  8
0
 10
7.97125783
 20
5.75974324
  0
VERTEX
  8
0
 10
7.99888998
 20
5.65548848
  0
VERTEX
  8
0
 10
8.02510276
 20
5.55088129
  0
VERTEX
  8
0
 10
8.04994324
 20
5.44593520
  0
VERTEX
  8
0
 10
8.07345847
 20
5.34066376
  0
VERTEX
  8
0
 10
8.09569551
 20
5.23508048
  0
VERTEX
  8
0
 10
8.12790635
 20
5.27027021
  0
VERTEX
  8
0
 10
8.14348765
 20
5.28844921
  0
VERTEX
  8
0
 10
8.15838397
 20
5.30718055
  0
VERTEX
  8
0
 10
8.17234365
 20
5.32658643
  0
VERTEX
  8
0
 10
8.18511501
 20
5.34678906
  0
VERTEX
  8
0
 10
8.19644637
 20
5.36791061
  0
VERTEX
  8
0
 10
8.20608608
 20
5.39007330
  0
VERTEX
  8
0
 10
8.24010297
 20
5.48095785
  0
VERTEX
  8
0
 10
8.25605353
 20
5.52683465
  0
VERTEX
  8
0
 10
8.27123078
 20
5.57298842
  0
VERTEX
  8
0
 10
8.28558367
 20
5.61940963
  0
VERTEX
  8
0
 10
8.29906116
 20
5.66608873
  0
VERTEX
  8
0
 10
8.31161221
 20
5.71301620
  0
VERTEX
  8
0
 10
8.32318577
 20
5.76018250
  0
VERTEX
  8
0
 10
8.33373080
 20
5.80757809
  0
VERTEX
  8
0
 10
8.34319626
 20
5.85519343
  0
VERTEX
  8
0
 10
8.35153111
 20
5.90301900
  0
VERTEX
  8
0
 10
8.35868429
 20
5.95104525
  0
VERTEX
  8
0
 10
8.36460477
 20
5.99926265
  0
VERTEX
  8
0
 10
8.36924151
 20
6.04766166
  0
VERTEX
  8
0
 10
8.37254345
 20
6.09623274
  0
VERTEX
  8
0
 10
8.37445957
 20
6.14496637
  0
VERTEX
  8
0
 10
8.25022055
 20
6.12899010
  0
VERTEX
  8
0
 10
8.12641464
 20
6.11074503
  0
VERTEX
  8
0
 10
8.00285996
 20
6.09093343
  0
VERTEX
  8
0
 10
7.87937460
 20
6.07025760
  0
SEQEND
  0
POLYLINE
  8
Default_Layer
 66
   1
 39
0.000000
 70
    1
  0
VERTEX
  8
0
 10
9.42595760
 20
6.07137266
  0
VERTEX
  8
0
 10
9.41679128
 20
5.96576807
  0
VERTEX
  8
0
 10
9.40918237
 20
5.85994936
  0
VERTEX
  8
0
 10
9.40316385
 20
5.75397705
  0
VERTEX
  8
0
 10
9.39876868
 20
5.64791167
  0
VERTEX
  8
0
 10
9.39602985
 20
5.54181374
  0
VERTEX
  8
0
 10
9.39498034
 20
5.43574379
  0
VERTEX
  8
0
 10
9.39565313
 20
5.32976234
  0
VERTEX
  8
0
 10
9.39808119
 20
5.22392992
  0
VERTEX
  8
0
 10
9.42097465
 20
5.24324234
  0
VERTEX
  8
0
 10
9.44298871
 20
5.26337363
  0
VERTEX
  8
0
 10
9.46416546
 20
5.28427155
  0
VERTEX
  8
0
 10
9.48454701
 20
5.30588384
  0
VERTEX
  8
0
 10
9.50417543
 20
5.32815826
  0
VERTEX
  8
0
 10
9.52309282
 20
5.35104255
  0
VERTEX
  8
0
 10
9.54134128
 20
5.37448447
  0
VERTEX
  8
0
 10
9.55896290
 20
5.39843178
  0
VERTEX
  8
0
 10
9.59249397
 20
5.44763352
  0
VERTEX
  8
0
 10
9.62402277
 20
5.49822980
  0
VERTEX
  8
0
 10
9.65388605
 20
5.54980262
  0
VERTEX
  8
0
 10
9.68242053
 20
5.60193398
  0
VERTEX
  8
0
 10
9.69964997
 20
5.63814967
  0
VERTEX
  8
0
 10
9.70776042
 20
5.65669448
  0
VERTEX
  8
0
 10
9.71506745
 20
5.67556088
  0
VERTEX
  8
0
 10
9.72122065
 20
5.69477159
  0
VERTEX
  8
0
 10
9.72586957
 20
5.71434932
  0
VERTEX
  8
0
 10
9.72866379
 20
5.73431679
  0
VERTEX
  8
0
 10
9.72925289
 20
5.75469669
  0
VERTEX
  8
0
 10
9.71291792
 20
5.77668511
  0
VERTEX
  8
0
 10
9.69594807
 20
5.79813604
  0
VERTEX
  8
0
 10
9.66034837
 20
5.83963515
  0
VERTEX
  8
0
 10
9.62294306
 20
5.87961344
  0
VERTEX
  8
0
 10
9.58422144
 20
5.91849035
  0
VERTEX
  8
0
 10
9.50478642
 20
5.99461771
  0
VERTEX
  8
0
 10
9.46505159
 20
6.03270702
  0
VERTEX
  8
0
 10
9.42595760
 20
6.07137266
  0
SEQEND
  0
POLYLINE
  8
Default_Layer
 66
   1
 39
0.000000
 70
    1
  0
VERTEX
  8
0
 10
7.61733639
 20
5.89742389
  0
VERTEX
  8
0
 10
7.64611201
 20
5.85075173
  0
VERTEX
  8
0
 10
7.67630952
 20
5.80466876
  0
VERTEX
  8
0
 10
7.70685057
 20
5.75867827
  0
VERTEX
  8
0
 10
7.73665682
 20
5.71228360
  0
VERTEX
  8
0
 10
7.76464993
 20
5.66498807
  0
VERTEX
  8
0
 10
7.77762958
 20
5.64084726
  0
VERTEX
  8
0
 10
7.78975155
 20
5.61629499
  0
VERTEX
  8
0
 10
7.80088108
 20
5.59126916
  0
VERTEX
  8
0
 10
7.81088334
 20
5.56570769
  0
VERTEX
  8
0
 10
7.81962357
 20
5.53954849
  0
VERTEX
  8
0
 10
7.82696696
 20
5.51272949
  0
VERTEX
  8
0
 10
7.83648210
 20
5.47825897
  0
VERTEX
  8
0
 10
7.84423879
 20
5.44358189
  0
VERTEX
  8
0
 10
7.85040568
 20
5.40871985
  0
VERTEX
  8
0
 10
7.85515145
 20
5.37369444
  0
VERTEX
  8
0
 10
7.85864477
 20
5.33852728
  0
VERTEX
  8
0
 10
7.86105430
 20
5.30323996
  0
VERTEX
  8
0
 10
7.86254872
 20
5.26785409
  0
VERTEX
  8
0
 10
7.86329669
 20
5.23239127
  0
VERTEX
  8
0
 10
7.86322797
 20
5.16132121
  0
VERTEX
  8
0
 10
7.86219751
 20
5.09020260
  0
VERTEX
  8
0
 10
7.86155465
 20
5.01920826
  0
VERTEX
  8
0
 10
7.86264876
 20
4.94851103
  0
VERTEX
  8
0
 10
7.86205288
 20
4.90929918
  0
VERTEX
  8
0
 10
7.86251233
 20
4.87019663
  0
VERTEX
  8
0
 10
7.86394343
 20
4.83119520
  0
VERTEX
  8
0
 10
7.86626251
 20
4.79228670
  0
VERTEX
  8
0
 10
7.86938590
 20
4.75346295
  0
VERTEX
  8
0
 10
7.87322992
 20
4.71471577
  0
VERTEX
  8
0
 10
7.88274519
 20
4.63741837
  0
VERTEX
  8
0
 10
7.89413894
 20
4.56032904
  0
VERTEX
  8
0
 10
7.90674179
 20
4.48338232
  0
VERTEX
  8
0
 10
7.93289730
 20
4.32965482
  0
VERTEX
  8
0
 10
7.91545564
 20
4.35157487
  0
VERTEX
  8
0
 10
7.89869252
 20
4.37408138
  0
VERTEX
  8
0
 10
7.88264627
 20
4.39714718
  0
VERTEX
  8
0
 10
7.86735521
 20
4.42074511
  0
VERTEX
  8
0
 10
7.85285768
 20
4.44484799
  0
VERTEX
  8
0
 10
7.83919199
 20
4.46942864
  0
VERTEX
  8
0
 10
7.82639647
 20
4.49445991
  0
VERTEX
  8
0
 10
7.81450945
 20
4.51991461
  0
VERTEX
  8
0
 10
7.80356926
 20
4.54576557
  0
VERTEX
  8
0
 10
7.79361422
 20
4.57198563
  0
VERTEX
  8
0
 10
7.78468265
 20
4.59854760
  0
VERTEX
  8
0
 10
7.77681289
 20
4.62542433
  0
VERTEX
  8
0
 10
7.77004326
 20
4.65258863
  0
VERTEX
  8
0
 10
7.76441209
 20
4.68001334
  0
VERTEX
  8
0
 10
7.75995770
 20
4.70767129
  0
VERTEX
  8
0
 10
7.75671841
 20
4.73553529
  0
VERTEX
  8
0
 10
7.75424431
 20
4.81103026
  0
VERTEX
  8
0
 10
7.75378037
 20
4.88650096
  0
VERTEX
  8
0
 10
7.75475461
 20
4.96194677
  0
VERTEX
  8
0
 10
7.75659503
 20
5.03736707
  0
VERTEX
  8
0
 10
7.76058644
 20
5.18812865
  0
VERTEX
  8
0
 10
7.76159344
 20
5.26346868
  0
VERTEX
  8
0
 10
7.76117864
 20
5.33878071
  0
VERTEX
  8
0
 10
7.75944660
 20
5.37431364
  0
VERTEX
  8
0
 10
7.75609376
 20
5.40992221
  0
VERTEX
  8
0
 10
7.75111270
 20
5.44548496
  0
VERTEX
  8
0
 10
7.74449603
 20
5.48088042
  0
VERTEX
  8
0
 10
7.73623633
 20
5.51598711
  0
VERTEX
  8
0
 10
7.72632621
 20
5.55068357
  0
VERTEX
  8
0
 10
7.71475825
 20
5.58484832
  0
VERTEX
  8
0
 10
7.70152505
 20
5.61835989
  0
VERTEX
  8
0
 10
7.68661921
 20
5.65109681
  0
VERTEX
  8
0
 10
7.67003332
 20
5.68293761
  0
VERTEX
  8
0
 10
7.65175998
 20
5.71376081
  0
VERTEX
  8
0
 10
7.63179177
 20
5.74344495
  0
VERTEX
  8
0
 10
7.61012130
 20
5.77186855
  0
VERTEX
  8
0
 10
7.58674115
 20
5.79891014
  0
VERTEX
  8
0
 10
7.56164393
 20
5.82444825
  0
VERTEX
  8
0
 10
7.53482222
 20
5.84836141
  0
VERTEX
  8
0
 10
7.50423734
 20
5.86455139
  0
VERTEX
  8
0
 10
7.47286178
 20
5.87878858
  0
VERTEX
  8
0
 10
7.44078782
 20
5.89109684
  0
VERTEX
  8
0
 10
7.40810772
 20
5.90149999
  0
VERTEX
  8
0
 10
7.37491375
 20
5.91002186
  0
VERTEX
  8
0
 10
7.34129819
 20
5.91668629
  0
VERTEX
  8
0
 10
7.30735331
 20
5.92151711
  0
VERTEX
  8
0
 10
7.27317137
 20
5.92453815
  0
VERTEX
  8
0
 10
7.23884464
 20
5.92577324
  0
VERTEX
  8
0
 10
7.20446540
 20
5.92524622
  0
VERTEX
  8
0
 10
7.17012592
 20
5.92298092
  0
VERTEX
  8
0
 10
7.13591846
 20
5.91900117
  0
VERTEX
  8
0
 10
7.10193530
 20
5.91333081
  0
VERTEX
  8
0
 10
7.06826871
 20
5.90599367
  0
VERTEX
  8
0
 10
7.03501095
 20
5.89701357
  0
VERTEX
  8
0
 10
7.00225431
 20
5.88641436
  0
VERTEX
  8
0
 10
6.97009104
 20
5.87421987
  0
VERTEX
  8
0
 10
6.93861342
 20
5.86045393
  0
VERTEX
  8
0
 10
6.90791371
 20
5.84514036
  0
VERTEX
  8
0
 10
6.87808420
 20
5.82830301
  0
VERTEX
  8
0
 10
6.84921715
 20
5.80996571
  0
VERTEX
  8
0
 10
6.82140482
 20
5.79015229
  0
VERTEX
  8
0
 10
6.79473950
 20
5.76888658
  0
VERTEX
  8
0
 10
6.76931344
 20
5.74619242
  0
VERTEX
  8
0
 10
6.74521893
 20
5.72209363
  0
VERTEX
  8
0
 10
6.72254822
 20
5.69661406
  0
VERTEX
  8
0
 10
6.70139360
 20
5.66977752
  0
VERTEX
  8
0
 10
6.68184733
 20
5.64160787
  0
VERTEX
  8
0
 10
6.66400168
 20
5.61212892
  0
VERTEX
  8
0
 10
6.64794893
 20
5.58136451
  0
VERTEX
  8
0
 10
6.63378133
 20
5.54933848
  0
VERTEX
  8
0
 10
6.62159117
 20
5.51607465
  0
VERTEX
  8
0
 10
6.66469078
 20
5.51386848
  0
VERTEX
  8
0
 10
6.70810953
 20
5.51331910
  0
VERTEX
  8
0
 10
6.79524870
 20
5.51322628
  0
VERTEX
  8
0
 10
6.83864125
 20
5.51170063
  0
VERTEX
  8
0
 10
6.88169720
 20
5.50786732
  0
VERTEX
  8
0
 10
6.90304772
 20
5.50477557
  0
VERTEX
  8
0
 10
6.92425261
 20
5.50073525
  0
VERTEX
  8
0
 10
6.94529138
 20
5.49562246
  0
VERTEX
  8
0
 10
6.96614354
 20
5.48931330
  0
VERTEX
  8
0
 10
6.97787686
 20
5.48072276
  0
VERTEX
  8
0
 10
6.98901886
 20
5.47161740
  0
VERTEX
  8
0
 10
7.00957864
 20
5.45195532
  0
VERTEX
  8
0
 10
7.02792237
 20
5.43051326
  0
VERTEX
  8
0
 10
7.04414949
 20
5.40747743
  0
VERTEX
  8
0
 10
7.05835949
 20
5.38303404
  0
VERTEX
  8
0
 10
7.07065182
 20
5.35736929
  0
VERTEX
  8
0
 10
7.08112594
 20
5.33066939
  0
VERTEX
  8
0
 10
7.08988134
 20
5.30312055
  0
VERTEX
  8
0
 10
7.09701746
 20
5.27490896
  0
VERTEX
  8
0
 10
7.10263377
 20
5.24622084
  0
VERTEX
  8
0
 10
7.10682975
 20
5.21724238
  0
VERTEX
  8
0
 10
7.10970485
 20
5.18815981
  0
VERTEX
  8
0
 10
7.11135854
 20
5.15915932
  0
VERTEX
  8
0
 10
7.11189028
 20
5.13042711
  0
VERTEX
  8
0
 10
7.11139955
 20
5.10214940
  0
VERTEX
  8
0
 10
7.10998580
 20
5.07451239
  0
VERTEX
  8
0
 10
7.09066376
 20
4.95763403
  0
VERTEX
  8
0
 10
7.06993308
 20
4.84068701
  0
VERTEX
  8
0
 10
7.04930701
 20
4.72359708
  0
VERTEX
  8
0
 10
7.03029883
 20
4.60628999
  0
VERTEX
  8
0
 10
7.02187435
 20
4.54753180
  0
VERTEX
  8
0
 10
7.01442181
 20
4.48869148
  0
VERTEX
  8
0
 10
7.00813037
 20
4.42975974
  0
VERTEX
  8
0
 10
7.00318920
 20
4.37072730
  0
VERTEX
  8
0
 10
6.99978744
 20
4.31158488
  0
VERTEX
  8
0
 10
6.99811427
 20
4.25232320
  0
VERTEX
  8
0
 10
6.99835883
 20
4.19293297
  0
VERTEX
  8
0
 10
7.00071029
 20
4.13340492
  0
VERTEX
  8
0
 10
7.00315005
 20
4.10222129
  0
VERTEX
  8
0
 10
7.00724726
 20
4.07090824
  0
VERTEX
  8
0
 10
7.01301309
 20
4.03963777
  0
VERTEX
  8
0
 10
7.02045876
 20
4.00858189
  0
VERTEX
  8
0
 10
7.02959544
 20
3.97791261
  0
VERTEX
  8
0
 10
7.04043434
 20
3.94780191
  0
VERTEX
  8
0
 10
7.05298664
 20
3.91842182
  0
VERTEX
  8
0
 10
7.06726355
 20
3.88994434
  0
VERTEX
  8
0
 10
7.08327625
 20
3.86254147
  0
VERTEX
  8
0
 10
7.10103593
 20
3.83638521
  0
VERTEX
  8
0
 10
7.12055380
 20
3.81164757
  0
VERTEX
  8
0
 10
7.14184104
 20
3.78850056
  0
VERTEX
  8
0
 10
7.16490884
 20
3.76711617
  0
VERTEX
  8
0
 10
7.18976841
 20
3.74766642
  0
VERTEX
  8
0
 10
7.21643093
 20
3.73032331
  0
VERTEX
  8
0
 10
7.24490760
 20
3.71525884
  0
VERTEX
  8
0
 10
7.26717725
 20
3.70583245
  0
VERTEX
  8
0
 10
7.29095383
 20
3.69801507
  0
VERTEX
  8
0
 10
7.31552820
 20
3.69258775
  0
VERTEX
  8
0
 10
7.32789295
 20
3.69101444
  0
VERTEX
  8
0
 10
7.34019122
 20
3.69033156
  0
VERTEX
  8
0
 10
7.35233436
 20
3.69063672
  0
VERTEX
  8
0
 10
7.36423373
 20
3.69202757
  0
VERTEX
  8
0
 10
7.37580069
 20
3.69460174
  0
VERTEX
  8
0
 10
7.38694658
 20
3.69845686
  0
VERTEX
  8
0
 10
7.39758278
 20
3.70369056
  0
VERTEX
  8
0
 10
7.40762063
 20
3.71040048
  0
VERTEX
  8
0
 10
7.41697149
 20
3.71868425
  0
VERTEX
  8
0
 10
7.42554671
 20
3.72863951
  0
VERTEX
  8
0
 10
7.45127761
 20
3.75854699
  0
VERTEX
  8
0
 10
7.47544005
 20
3.78947292
  0
VERTEX
  8
0
 10
7.49815466
 20
3.82133018
  0
VERTEX
  8
0
 10
7.51954207
 20
3.85403167
  0
VERTEX
  8
0
 10
7.53972290
 20
3.88749028
  0
VERTEX
  8
0
 10
7.55881777
 20
3.92161891
  0
VERTEX
  8
0
 10
7.57694732
 20
3.95633045
  0
VERTEX
  8
0
 10
7.59423216
 20
3.99153778
  0
VERTEX
  8
0
 10
7.62675021
 20
4.06309142
  0
VERTEX
  8
0
 10
7.65733694
 20
4.13558297
  0
VERTEX
  8
0
 10
7.71657639
 20
4.28059235
  0
VERTEX
  8
0
 10
7.73404781
 20
4.24963728
  0
VERTEX
  8
0
 10
7.75080557
 20
4.21832065
  0
VERTEX
  8
0
 10
7.76683993
 20
4.18665456
  0
VERTEX
  8
0
 10
7.78214112
 20
4.15465115
  0
VERTEX
  8
0
 10
7.79669941
 20
4.12232253
  0
VERTEX
  8
0
 10
7.81050505
 20
4.08968083
  0
VERTEX
  8
0
 10
7.82354829
 20
4.05673816
  0
VERTEX
  8
0
 10
7.83581938
 20
4.02350664
  0
VERTEX
  8
0
 10
7.84730856
 20
3.98999840
  0
VERTEX
  8
0
 10
7.85800611
 20
3.95622555
  0
VERTEX
  8
0
 10
7.86790225
 20
3.92220022
  0
VERTEX
  8
0
 10
7.87698726
 20
3.88793453
  0
VERTEX
  8
0
 10
7.88525137
 20
3.85344059
  0
VERTEX
  8
0
 10
7.89268485
 20
3.81873053
  0
VERTEX
  8
0
 10
7.89927794
 20
3.78381647
  0
VERTEX
  8
0
 10
7.90502089
 20
3.74871052
  0
VERTEX
  8
0
 10
7.97435171
 20
3.75419976
  0
VERTEX
  8
0
 10
8.04371761
 20
3.75717955
  0
VERTEX
  8
0
 10
8.11309278
 20
3.75792132
  0
VERTEX
  8
0
 10
8.18245140
 20
3.75669651
  0
VERTEX
  8
0
 10
8.25176764
 20
3.75377655
  0
VERTEX
  8
0
 10
8.32101567
 20
3.74943284
  0
VERTEX
  8
0
 10
8.39016968
 20
3.74393684
  0
VERTEX
  8
0
 10
8.45920384
 20
3.73755996
  0
VERTEX
  8
0
 10
8.49453972
 20
3.75990855
  0
VERTEX
  8
0
 10
8.52994062
 20
3.78430160
  0
VERTEX
  8
0
 10
8.54729118
 20
3.79733524
  0
VERTEX
  8
0
 10
8.56420885
 20
3.81096452
  0
VERTEX
  8
0
 10
8.58054392
 20
3.82521764
  0
VERTEX
  8
0
 10
8.59614669
 20
3.84012276
  0
VERTEX
  8
0
 10
8.61086742
 20
3.85570807
  0
VERTEX
  8
0
 10
8.62455641
 20
3.87200175
  0
VERTEX
  8
0
 10
8.63706395
 20
3.88903197
  0
VERTEX
  8
0
 10
8.64824032
 20
3.90682691
  0
VERTEX
  8
0
 10
8.65793580
 20
3.92541476
  0
VERTEX
  8
0
 10
8.66600069
 20
3.94482369
  0
VERTEX
  8
0
 10
8.67228526
 20
3.96508187
  0
VERTEX
  8
0
 10
8.67663981
 20
3.98621750
  0
VERTEX
  8
0
 10
8.67246763
 20
4.01482574
  0
VERTEX
  8
0
 10
8.66602539
 20
4.04260983
  0
VERTEX
  8
0
 10
8.65759616
 20
4.06967570
  0
VERTEX
  8
0
 10
8.64746302
 20
4.09612924
  0
VERTEX
  8
0
 10
8.63590905
 20
4.12207639
  0
VERTEX
  8
0
 10
8.62321732
 20
4.14762304
  0
VERTEX
  8
0
 10
8.59555292
 20
4.19793854
  0
VERTEX
  8
0
 10
8.56673443
 20
4.24792303
  0
VERTEX
  8
0
 10
8.53902649
 20
4.29842384
  0
VERTEX
  8
0
 10
8.52629666
 20
4.32413264
  0
VERTEX
  8
0
 10
8.51469370
 20
4.35028825
  0
VERTEX
  8
0
 10
8.50450069
 20
4.37699660
  0
VERTEX
  8
0
 10
8.49600070
 20
4.40436359
  0
VERTEX
  8
0
 10
8.48454544
 20
4.43871344
  0
VERTEX
  8
0
 10
8.47479128
 20
4.47313100
  0
VERTEX
  8
0
 10
8.46664518
 20
4.50761292
  0
VERTEX
  8
0
 10
8.46001407
 20
4.54215586
  0
VERTEX
  8
0
 10
8.45480490
 20
4.57675646
  0
VERTEX
  8
0
 10
8.45092460
 20
4.61141138
  0
VERTEX
  8
0
 10
8.44828011
 20
4.64611727
  0
VERTEX
  8
0
 10
8.44677838
 20
4.68087078
  0
VERTEX
  8
0
 10
8.44632635
 20
4.71566856
  0
VERTEX
  8
0
 10
8.44683097
 20
4.75050726
  0
VERTEX
  8
0
 10
8.44819916
 20
4.78538354
  0
VERTEX
  8
0
 10
8.45033787
 20
4.82029405
  0
VERTEX
  8
0
 10
8.45655463
 20
4.89020434
  0
VERTEX
  8
0
 10
8.46473678
 20
4.96021136
  0
VERTEX
  8
0
 10
8.48401935
 20
5.10040840
  0
VERTEX
  8
0
 10
8.49363084
 20
5.17054485
  0
VERTEX
  8
0
 10
8.50222983
 20
5.24067088
  0
VERTEX
  8
0
 10
8.50907186
 20
5.31075968
  0
VERTEX
  8
0
 10
8.51341246
 20
5.38078447
  0
VERTEX
  8
0
 10
8.51441208
 20
5.41576449
  0
VERTEX
  8
0
 10
8.51450716
 20
5.45071847
  0
VERTEX
  8
0
 10
8.51360465
 20
5.48564305
  0
VERTEX
  8
0
 10
8.51161149
 20
5.52053488
  0
VERTEX
  8
0
 10
8.51066058
 20
5.53525009
  0
VERTEX
  8
0
 10
8.50896485
 20
5.54978153
  0
VERTEX
  8
0
 10
8.50355242
 20
5.57832994
  0
VERTEX
  8
0
 10
8.49580108
 20
5.60625383
  0
VERTEX
  8
0
 10
8.48613776
 20
5.63362693
  0
VERTEX
  8
0
 10
8.47498935
 20
5.66052297
  0
VERTEX
  8
0
 10
8.46278277
 20
5.68701566
  0
VERTEX
  8
0
 10
8.43690272
 20
5.73908590
  0
VERTEX
  8
0
 10
8.42361103
 20
5.71649755
  0
VERTEX
  8
0
 10
8.41118962
 20
5.69353650
  0
VERTEX
  8
0
 10
8.38852005
 20
5.64668131
  0
VERTEX
  8
0
 10
8.36801898
 20
5.59889040
  0
VERTEX
  8
0
 10
8.34881135
 20
5.55053381
  0
VERTEX
  8
0
 10
8.33002211
 20
5.50198159
  0
VERTEX
  8
0
 10
8.31077619
 20
5.45360380
  0
VERTEX
  8
0
 10
8.29019857
 20
5.40577050
  0
VERTEX
  8
0
 10
8.27913691
 20
5.38217367
  0
VERTEX
  8
0
 10
8.26741417
 20
5.35885173
  0
VERTEX
  8
0
 10
8.24539596
 20
5.31586686
  0
VERTEX
  8
0
 10
8.22188075
 20
5.27370663
  0
VERTEX
  8
0
 10
8.19703900
 20
5.23230510
  0
VERTEX
  8
0
 10
8.17104118
 20
5.19159634
  0
VERTEX
  8
0
 10
8.14405777
 20
5.15151442
  0
VERTEX
  8
0
 10
8.11625924
 20
5.11199341
  0
VERTEX
  8
0
 10
8.05889865
 20
5.03437036
  0
VERTEX
  8
0
 10
8.04208010
 20
5.09170002
  0
VERTEX
  8
0
 10
8.02627532
 20
5.14936773
  0
VERTEX
  8
0
 10
7.99678499
 20
5.26540662
  0
VERTEX
  8
0
 10
7.96858355
 20
5.38186569
  0
VERTEX
  8
0
 10
7.93982684
 20
5.49812357
  0
VERTEX
  8
0
 10
7.92466398
 20
5.55598291
  0
VERTEX
  8
0
 10
7.90867075
 20
5.61355894
  0
VERTEX
  8
0
 10
7.89161663
 20
5.67077401
  0
VERTEX
  8
0
 10
7.87327111
 20
5.72755044
  0
VERTEX
  8
0
 10
7.85340368
 20
5.78381058
  0
VERTEX
  8
0
 10
7.83178381
 20
5.83947674
  0
VERTEX
  8
0
 10
7.80818100
 20
5.89447126
  0
VERTEX
  8
0
 10
7.78236471
 20
5.94871647
  0
VERTEX
  8
0
 10
7.69947196
 20
5.92348527
  0
VERTEX
  8
0
 10
7.61733639
 20
5.89742389
  0
SEQEND
  0
POLYLINE
  8
Default_Layer
 66
   1
 39
0.000000
 70
    1
  0
VERTEX
  8
0
 10
8.81936701
 20
5.59078342
  0
VERTEX
  8
0
 10
8.80001968
 20
5.56263038
  0
VERTEX
  8
0
 10
8.78160235
 20
5.53400981
  0
VERTEX
  8
0
 10
8.76409556
 20
5.50494127
  0
VERTEX
  8
0
 10
8.74747990
 20
5.47544429
  0
VERTEX
  8
0
 10
8.73173593
 20
5.44553840
  0
VERTEX
  8
0
 10
8.71684421
 20
5.41524314
  0
VERTEX
  8
0
 10
8.70278531
 20
5.38457805
  0
VERTEX
  8
0
 10
8.68953979
 20
5.35356265
  0
VERTEX
  8
0
 10
8.67708822
 20
5.32221649
  0
VERTEX
  8
0
 10
8.66541117
 20
5.29055910
  0
VERTEX
  8
0
 10
8.65448920
 20
5.25861002
  0
VERTEX
  8
0
 10
8.64430288
 20
5.22638879
  0
VERTEX
  8
0
 10
8.62605945
 20
5.16120798
  0
VERTEX
  8
0
 10
8.61052541
 20
5.09517298
  0
VERTEX
  8
0
 10
8.59754527
 20
5.02844007
  0
VERTEX
  8
0
 10
8.58696358
 20
4.96116553
  0
VERTEX
  8
0
 10
8.57862485
 20
4.89350566
  0
VERTEX
  8
0
 10
8.57237362
 20
4.82561673
  0
VERTEX
  8
0
 10
8.56805441
 20
4.75765503
  0
VERTEX
  8
0
 10
8.56551174
 20
4.68977684
  0
VERTEX
  8
0
 10
8.56459016
 20
4.62213847
  0
VERTEX
  8
0
 10
8.56513418
 20
4.55489618
  0
VERTEX
  8
0
 10
8.56471333
 20
4.54020118
  0
VERTEX
  8
0
 10
8.56603239
 20
4.52625255
  0
VERTEX
  8
0
 10
8.56894161
 20
4.51299759
  0
VERTEX
  8
0
 10
8.57329124
 20
4.50038362
  0
VERTEX
  8
0
 10
8.57893154
 20
4.48835793
  0
VERTEX
  8
0
 10
8.58571274
 20
4.47686785
  0
VERTEX
  8
0
 10
8.59348511
 20
4.46586066
  0
VERTEX
  8
0
 10
8.60209890
 20
4.45528369
  0
VERTEX
  8
0
 10
8.62125171
 20
4.43520961
  0
VERTEX
  8
0
 10
8.64197319
 20
4.41622405
  0
VERTEX
  8
0
 10
8.68333015
 20
4.37983235
  0
VERTEX
  8
0
 10
8.68501384
 20
4.43950266
  0
VERTEX
  8
0
 10
8.68769936
 20
4.49931848
  0
VERTEX
  8
0
 10
8.69150426
 20
4.55919446
  0
VERTEX
  8
0
 10
8.69654605
 20
4.61904522
  0
VERTEX
  8
0
 10
8.70294226
 20
4.67878539
  0
VERTEX
  8
0
 10
8.71081043
 20
4.73832962
  0
VERTEX
  8
0
 10
8.72026808
 20
4.79759253
  0
VERTEX
  8
0
 10
8.73143274
 20
4.85648876
  0
VERTEX
  8
0
 10
8.74442194
 20
4.91493294
  0
VERTEX
  8
0
 10
8.75935321
 20
4.97283970
  0
VERTEX
  8
0
 10
8.77634407
 20
5.03012367
  0
VERTEX
  8
0
 10
8.79551207
 20
5.08669950
  0
VERTEX
  8
0
 10
8.81697471
 20
5.14248181
  0
VERTEX
  8
0
 10
8.84084955
 20
5.19738524
  0
VERTEX
  8
0
 10
8.86725410
 20
5.25132441
  0
VERTEX
  8
0
 10
8.89630589
 20
5.30421397
  0
VERTEX
  8
0
 10
8.91469664
 20
5.33224441
  0
VERTEX
  8
0
 10
8.93424326
 20
5.35933560
  0
VERTEX
  8
0
 10
8.95488945
 20
5.38549326
  0
VERTEX
  8
0
 10
8.97657888
 20
5.41072310
  0
VERTEX
  8
0
 10
8.99925524
 20
5.43503083
  0
VERTEX
  8
0
 10
9.02286221
 20
5.45842217
  0
VERTEX
  8
0
 10
9.04734348
 20
5.48090284
  0
VERTEX
  8
0
 10
9.07264273
 20
5.50247854
  0
VERTEX
  8
0
 10
9.09870365
 20
5.52315499
  0
VERTEX
  8
0
 10
9.12546991
 20
5.54293790
  0
VERTEX
  8
0
 10
9.15288521
 20
5.56183299
  0
VERTEX
  8
0
 10
9.18089322
 20
5.57984597
  0
VERTEX
  8
0
 10
9.20943764
 20
5.59698255
  0
VERTEX
  8
0
 10
9.23846214
 20
5.61324845
  0
VERTEX
  8
0
 10
9.26791041
 20
5.62864939
  0
VERTEX
  8
0
 10
9.29772613
 20
5.64319106
  0
VERTEX
  8
0
 10
9.29163261
 20
5.75589956
  0
VERTEX
  8
0
 10
9.28434546
 20
5.86843242
  0
VERTEX
  8
0
 10
9.25014881
 20
5.86189751
  0
VERTEX
  8
0
 10
9.21622252
 20
5.85394152
  0
VERTEX
  8
0
 10
9.18265538
 20
5.84455988
  0
VERTEX
  8
0
 10
9.14953618
 20
5.83374803
  0
VERTEX
  8
0
 10
9.11695371
 20
5.82150137
  0
VERTEX
  8
0
 10
9.08499678
 20
5.80781535
  0
VERTEX
  8
0
 10
9.05375418
 20
5.79268538
  0
VERTEX
  8
0
 10
9.02331471
 20
5.77610690
  0
VERTEX
  8
0
 10
8.99376716
 20
5.75807532
  0
VERTEX
  8
0
 10
8.96520032
 20
5.73858607
  0
VERTEX
  8
0
 10
8.93770301
 20
5.71763458
  0
VERTEX
  8
0
 10
8.91136400
 20
5.69521628
  0
VERTEX
  8
0
 10
8.88627210
 20
5.67132659
  0
VERTEX
  8
0
 10
8.86251610
 20
5.64596093
  0
VERTEX
  8
0
 10
8.84018481
 20
5.61911473
  0
VERTEX
  8
0
 10
8.81936701
 20
5.59078342
  0
SEQEND
  0
POLYLINE
  8
Default_Layer
 66
   1
 39
0.000000
 70
    1
  0
VERTEX
  8
0
 10
6.70968061
 20
5.26407195
  0
VERTEX
  8
0
 10
6.68884894
 20
5.24416176
  0
VERTEX
  8
0
 10
6.66934280
 20
5.22264198
  0
VERTEX
  8
0
 10
6.65136476
 20
5.19965726
  0
VERTEX
  8
0
 10
6.63511733
 20
5.17535223
  0
VERTEX
  8
0
 10
6.62080307
 20
5.14987155
  0
VERTEX
  8
0
 10
6.60862451
 20
5.12335986
  0
VERTEX
  8
0
 10
6.59878419
 20
5.09596181
  0
VERTEX
  8
0
 10
6.59148465
 20
5.06782205
  0
VERTEX
  8
0
 10
6.60089021
 20
5.02544270
  0
VERTEX
  8
0
 10
6.61204163
 20
4.98352763
  0
VERTEX
  8
0
 10
6.62433517
 20
4.94192539
  0
VERTEX
  8
0
 10
6.63716711
 20
4.90048450
  0
VERTEX
  8
0
 10
6.64993371
 20
4.85905350
  0
VERTEX
  8
0
 10
6.66203125
 20
4.81748092
  0
VERTEX
  8
0
 10
6.67285599
 20
4.77561530
  0
VERTEX
  8
0
 10
6.68180421
 20
4.73330518
  0
VERTEX
  8
0
 10
6.69300604
 20
4.67816870
  0
VERTEX
  8
0
 10
6.70281144
 20
4.62250933
  0
VERTEX
  8
0
 10
6.71238918
 20
4.56673941
  0
VERTEX
  8
0
 10
6.72290804
 20
4.51127126
  0
VERTEX
  8
0
 10
6.72888562
 20
4.48377922
  0
VERTEX
  8
0
 10
6.73553677
 20
4.45651725
  0
VERTEX
  8
0
 10
6.74300759
 20
4.42953689
  0
VERTEX
  8
0
 10
6.75144417
 20
4.40288970
  0
VERTEX
  8
0
 10
6.76099261
 20
4.37662721
  0
VERTEX
  8
0
 10
6.77179901
 20
4.35080096
  0
VERTEX
  8
0
 10
6.78400946
 20
4.32546249
  0
VERTEX
  8
0
 10
6.79777005
 20
4.30066336
  0
VERTEX
  8
0
 10
6.80453744
 20
4.33628749
  0
VERTEX
  8
0
 10
6.81022069
 20
4.37209633
  0
VERTEX
  8
0
 10
6.81501009
 20
4.40805793
  0
VERTEX
  8
0
 10
6.81909595
 20
4.44414033
  0
VERTEX
  8
0
 10
6.82591816
 20
4.51653968
  0
VERTEX
  8
0
 10
6.83220962
 20
4.58903867
  0
VERTEX
  8
0
 10
6.83949266
 20
4.66138162
  0
VERTEX
  8
0
 10
6.84398174
 20
4.69741468
  0
VERTEX
  8
0
 10
6.84928958
 20
4.73331284
  0
VERTEX
  8
0
 10
6.85560647
 20
4.76904415
  0
VERTEX
  8
0
 10
6.86312270
 20
4.80457664
  0
VERTEX
  8
0
 10
6.87202856
 20
4.83987835
  0
VERTEX
  8
0
 10
6.88251433
 20
4.87491732
  0
VERTEX
  8
0
 10
6.89383676
 20
4.91420111
  0
VERTEX
  8
0
 10
6.90701550
 20
4.95424715
  0
VERTEX
  8
0
 10
6.92004250
 20
4.99479691
  0
VERTEX
  8
0
 10
6.92587160
 20
5.01517990
  0
VERTEX
  8
0
 10
6.93090976
 20
5.03559188
  0
VERTEX
  8
0
 10
6.93490598
 20
5.05600053
  0
VERTEX
  8
0
 10
6.93760925
 20
5.07637354
  0
VERTEX
  8
0
 10
6.93876857
 20
5.09667859
  0
VERTEX
  8
0
 10
6.93813294
 20
5.11688338
  0
VERTEX
  8
0
 10
6.93545135
 20
5.13695557
  0
VERTEX
  8
0
 10
6.93047281
 20
5.15686287
  0
VERTEX
  8
0
 10
6.92294631
 20
5.17657296
  0
VERTEX
  8
0
 10
6.91262085
 20
5.19605352
  0
VERTEX
  8
0
 10
6.90513826
 20
5.20927631
  0
VERTEX
  8
0
 10
6.89641701
 20
5.22107248
  0
VERTEX
  8
0
 10
6.88657393
 20
5.23149139
  0
VERTEX
  8
0
 10
6.87572582
 20
5.24058242
  0
VERTEX
  8
0
 10
6.86398952
 20
5.24839493
  0
VERTEX
  8
0
 10
6.85148185
 20
5.25497831
  0
VERTEX
  8
0
 10
6.83831962
 20
5.26038193
  0
VERTEX
  8
0
 10
6.82461967
 20
5.26465516
  0
VERTEX
  8
0
 10
6.81049882
 20
5.26784738
  0
VERTEX
  8
0
 10
6.79607388
 20
5.27000796
  0
VERTEX
  8
0
 10
6.78146169
 20
5.27118627
  0
VERTEX
  8
0
 10
6.76677905
 20
5.27143169
  0
VERTEX
  8
0
 10
6.75214281
 20
5.27079360
  0
VERTEX
  8
0
 10
6.73766977
 20
5.26932136
  0
VERTEX
  8
0
 10
6.72347676
 20
5.26706435
  0
VERTEX
  8
0
 10
6.70968061
 20
5.26407195
  0
SEQEND
  0
POLYLINE
  8
Default_Layer
 66
   1
 39
0.000000
 70
    1
  0
VERTEX
  8
0
 10
8.78703037
 20
3.93715503
  0
VERTEX
  8
0
 10
8.77111124
 20
3.91156847
  0
VERTEX
  8
0
 10
8.75447534
 20
3.88644807
  0
VERTEX
  8
0
 10
8.72050367
 20
3.83671893
  0
VERTEX
  8
0
 10
8.70389312
 20
3.81166679
  0
VERTEX
  8
0
 10
8.68801625
 20
3.78619401
  0
VERTEX
  8
0
 10
8.67323566
 20
3.76007889
  0
VERTEX
  8
0
 10
8.65991396
 20
3.73309974
  0
VERTEX
  8
0
 10
8.65742923
 20
3.70873645
  0
VERTEX
  8
0
 10
8.65663911
 20
3.68434509
  0
VERTEX
  8
0
 10
8.65719065
 20
3.65993561
  0
VERTEX
  8
0
 10
8.65873088
 20
3.63551797
  0
VERTEX
  8
0
 10
8.66336554
 20
3.58669803
  0
VERTEX
  8
0
 10
8.66771936
 20
3.53796490
  0
VERTEX
  8
0
 10
8.68847448
 20
3.53800270
  0
VERTEX
  8
0
 10
8.71027411
 20
3.53599632
  0
VERTEX
  8
0
 10
8.73253808
 20
3.53336069
  0
VERTEX
  8
0
 10
8.75468625
 20
3.53151071
  0
VERTEX
  8
0
 10
8.76553560
 20
3.53132252
  0
VERTEX
  8
0
 10
8.77613843
 20
3.53186133
  0
VERTEX
  8
0
 10
8.78642224
 20
3.53330403
  0
VERTEX
  8
0
 10
8.79631449
 20
3.53582747
  0
VERTEX
  8
0
 10
8.80574267
 20
3.53960853
  0
VERTEX
  8
0
 10
8.81463425
 20
3.54482406
  0
VERTEX
  8
0
 10
8.82291673
 20
3.55165094
  0
VERTEX
  8
0
 10
8.83051757
 20
3.56026602
  0
VERTEX
  8
0
 10
8.84517956
 20
3.57964064
  0
VERTEX
  8
0
 10
8.85914674
 20
3.59945212
  0
VERTEX
  8
0
 10
8.87241894
 20
3.61967947
  0
VERTEX
  8
0
 10
8.88499600
 20
3.64030171
  0
VERTEX
  8
0
 10
8.89687777
 20
3.66129786
  0
VERTEX
  8
0
 10
8.90806409
 20
3.68264693
  0
VERTEX
  8
0
 10
8.91855480
 20
3.70432795
  0
VERTEX
  8
0
 10
8.92834974
 20
3.72631992
  0
VERTEX
  8
0
 10
8.94585170
 20
3.77115280
  0
VERTEX
  8
0
 10
8.96056870
 20
3.81697771
  0
VERTEX
  8
0
 10
8.97249949
 20
3.86362678
  0
VERTEX
  8
0
 10
8.98164280
 20
3.91093215
  0
VERTEX
  8
0
 10
8.98799737
 20
3.95872596
  0
VERTEX
  8
0
 10
8.99156194
 20
4.00684033
  0
VERTEX
  8
0
 10
8.99233526
 20
4.05510740
  0
VERTEX
  8
0
 10
8.99031605
 20
4.10335931
  0
VERTEX
  8
0
 10
8.98550307
 20
4.15142818
  0
VERTEX
  8
0
 10
8.97789504
 20
4.19914616
  0
VERTEX
  8
0
 10
8.96749070
 20
4.24634538
  0
VERTEX
  8
0
 10
8.95428881
 20
4.29285797
  0
VERTEX
  8
0
 10
8.93284719
 20
4.24851265
  0
VERTEX
  8
0
 10
8.91287567
 20
4.20349440
  0
VERTEX
  8
0
 10
8.87470804
 20
4.11271777
  0
VERTEX
  8
0
 10
8.85519450
 20
4.06759876
  0
VERTEX
  8
0
 10
8.83451619
 20
4.02308551
  0
VERTEX
  8
0
 10
8.81201439
 20
3.97949771
  0
VERTEX
  8
0
 10
8.79987383
 20
3.95815075
  0
VERTEX
  8
0
 10
8.78703037
 20
3.93715503
  0
SEQEND
  0
POLYLINE
  8
Default_Layer
 66
   1
 39
0.000000
 70
    1
  0
VERTEX
  8
0
 10
7.37871435
 20
3.45768085
  0
VERTEX
  8
0
 10
7.43214218
 20
3.46829634
  0
VERTEX
  8
0
 10
7.48543367
 20
3.47959932
  0
VERTEX
  8
0
 10
7.59185490
 20
3.50319850
  0
VERTEX
  8
0
 10
7.69847248
 20
3.52633998
  0
VERTEX
  8
0
 10
7.75200943
 20
3.53707083
  0
VERTEX
  8
0
 10
7.80578089
 20
3.54688535
  0
VERTEX
  8
0
 10
7.80695873
 20
3.61093028
  0
VERTEX
  8
0
 10
7.80696556
 20
3.67543946
  0
VERTEX
  8
0
 10
7.80472524
 20
3.73997184
  0
VERTEX
  8
0
 10
7.80242611
 20
3.77210892
  0
VERTEX
  8
0
 10
7.79916164
 20
3.80408640
  0
VERTEX
  8
0
 10
7.79479731
 20
3.83584917
  0
VERTEX
  8
0
 10
7.78919861
 20
3.86734210
  0
VERTEX
  8
0
 10
7.78223103
 20
3.89851004
  0
VERTEX
  8
0
 10
7.77376004
 20
3.92929789
  0
VERTEX
  8
0
 10
7.76365112
 20
3.95965049
  0
VERTEX
  8
0
 10
7.75176977
 20
3.98951273
  0
VERTEX
  8
0
 10
7.73798146
 20
4.01882948
  0
VERTEX
  8
0
 10
7.72215167
 20
4.04754559
  0
VERTEX
  8
0
 10
7.70374090
 20
4.00892015
  0
VERTEX
  8
0
 10
7.68464660
 20
3.97069665
  0
VERTEX
  8
0
 10
7.64464429
 20
3.89531197
  0
VERTEX
  8
0
 10
7.60261841
 20
3.82110454
  0
VERTEX
  8
0
 10
7.55904264
 20
3.74778735
  0
VERTEX
  8
0
 10
7.51439067
 20
3.67507340
  0
VERTEX
  8
0
 10
7.46913618
 20
3.60267567
  0
VERTEX
  8
0
 10
7.37871435
 20
3.45768085
  0
SEQEND
  0
POLYLINE
  8
Default_Layer
 66
   1
 39
0.000000
 70
    1
  0
VERTEX
  8
0
 10
6.89143478
 20
3.84906558
  0
VERTEX
  8
0
 10
6.89760828
 20
3.79416904
  0
VERTEX
  8
0
 10
6.90514584
 20
3.73900613
  0
VERTEX
  8
0
 10
6.91469369
 20
3.68402577
  0
VERTEX
  8
0
 10
6.92042343
 20
3.65674433
  0
VERTEX
  8
0
 10
6.92689808
 20
3.62967688
  0
VERTEX
  8
0
 10
6.93419843
 20
3.60287952
  0
VERTEX
  8
0
 10
6.94240526
 20
3.57640837
  0
VERTEX
  8
0
 10
6.95159935
 20
3.55031955
  0
VERTEX
  8
0
 10
6.96186148
 20
3.52466917
  0
VERTEX
  8
0
 10
6.97327243
 20
3.49951334
  0
VERTEX
  8
0
 10
6.98591298
 20
3.47490818
  0
VERTEX
  8
0
 10
6.99986392
 20
3.45090981
  0
VERTEX
  8
0
 10
7.01520602
 20
3.42757433
  0
VERTEX
  8
0
 10
7.03365972
 20
3.42028038
  0
VERTEX
  8
0
 10
7.05170816
 20
3.41584456
  0
VERTEX
  8
0
 10
7.06934499
 20
3.41404998
  0
VERTEX
  8
0
 10
7.08656390
 20
3.41467974
  0
VERTEX
  8
0
 10
7.10335854
 20
3.41751698
  0
VERTEX
  8
0
 10
7.11972260
 20
3.42234479
  0
VERTEX
  8
0
 10
7.13564974
 20
3.42894629
  0
VERTEX
  8
0
 10
7.15113363
 20
3.43710460
  0
VERTEX
  8
0
 10
7.16616795
 20
3.44660283
  0
VERTEX
  8
0
 10
7.18074635
 20
3.45722408
  0
VERTEX
  8
0
 10
7.19486252
 20
3.46875149
  0
VERTEX
  8
0
 10
7.20851013
 20
3.48096814
  0
VERTEX
  8
0
 10
7.23437431
 20
3.50660169
  0
VERTEX
  8
0
 10
7.25828828
 20
3.53238961
  0
VERTEX
  8
0
 10
7.20694231
 20
3.56550105
  0
VERTEX
  8
0
 10
7.15721050
 20
3.60064108
  0
VERTEX
  8
0
 10
7.10906994
 20
3.63772013
  0
VERTEX
  8
0
 10
7.06249774
 20
3.67664862
  0
VERTEX
  8
0
 10
7.01747102
 20
3.71733698
  0
VERTEX
  8
0
 10
6.97396688
 20
3.75969565
  0
VERTEX
  8
0
 10
6.93196243
 20
3.80363504
  0
VERTEX
  8
0
 10
6.89143478
 20
3.84906558
  0
SEQEND
  0
POLYLINE
  8
Default_Layer
 66
   1
 39
0.000000
 70
    1
  0
VERTEX
  8
0
 10
8.48038991
 20
3.52569928
  0
VERTEX
  8
0
 10
8.55346067
 20
3.52649767
  0
VERTEX
  8
0
 10
8.62646228
 20
3.52792939
  0
VERTEX
  8
0
 10
8.61348245
 20
3.58423630
  0
VERTEX
  8
0
 10
8.59926705
 20
3.64023175
  0
VERTEX
  8
0
 10
8.58331724
 20
3.69582883
  0
VERTEX
  8
0
 10
8.56513418
 20
3.75094064
  0
VERTEX
  8
0
 10
8.54966747
 20
3.72464278
  0
VERTEX
  8
0
 10
8.53569627
 20
3.69769578
  0
VERTEX
  8
0
 10
8.52316907
 20
3.67015887
  0
VERTEX
  8
0
 10
8.51203434
 20
3.64209130
  0
VERTEX
  8
0
 10
8.50224058
 20
3.61355231
  0
VERTEX
  8
0
 10
8.49373626
 20
3.58460115
  0
VERTEX
  8
0
 10
8.48646988
 20
3.55529706
  0
VERTEX
  8
0
 10
8.48038991
 20
3.52569928
  0
SEQEND
  0
POLYLINE
  8
Default_Layer
 66
   1
 39
0.000000
 70
    1
  0
VERTEX
  8
0
 10
7.90613595
 20
3.55357568
  0
VERTEX
  8
0
 10
8.00147021
 20
3.55224379
  0
VERTEX
  8
0
 10
8.09681057
 20
3.55246063
  0
VERTEX
  8
0
 10
8.07096628
 20
3.62388589
  0
VERTEX
  8
0
 10
8.05729992
 20
3.65931405
  0
VERTEX
  8
0
 10
8.04217281
 20
3.69407277
  0
VERTEX
  8
0
 10
8.02638586
 20
3.69946268
  0
VERTEX
  8
0
 10
8.01906675
 20
3.70084134
  0
VERTEX
  8
0
 10
8.01211123
 20
3.70139837
  0
VERTEX
  8
0
 10
8.00550480
 20
3.70117567
  0
VERTEX
  8
0
 10
7.99923297
 20
3.70021515
  0
VERTEX
  8
0
 10
7.98763516
 20
3.69624832
  0
VERTEX
  8
0
 10
7.97720186
 20
3.68983320
  0
VERTEX
  8
0
 10
7.96781713
 20
3.68130507
  0
VERTEX
  8
0
 10
7.95936504
 20
3.67099924
  0
VERTEX
  8
0
 10
7.95172967
 20
3.65925103
  0
VERTEX
  8
0
 10
7.94479506
 20
3.64639572
  0
VERTEX
  8
0
 10
7.93844529
 20
3.63276863
  0
VERTEX
  8
0
 10
7.92703653
 20
3.60454033
  0
VERTEX
  8
0
 10
7.91657591
 20
3.57724853
  0
VERTEX
  8
0
 10
7.90613595
 20
3.55357568
  0
SEQEND
  0
POLYLINE
  8
Default_Layer
 66
   1
 39
0.000000
 70
    1
  0
VERTEX
  8
0
 10
8.13249237
 20
3.54911546
  0
VERTEX
  8
0
 10
8.27967979
 20
3.53684984
  0
VERTEX
  8
0
 10
8.25417314
 20
3.61367450
  0
VERTEX
  8
0
 10
8.24001077
 20
3.65150846
  0
VERTEX
  8
0
 10
8.22392698
 20
3.68849749
  0
VERTEX
  8
0
 10
8.21122110
 20
3.68717256
  0
VERTEX
  8
0
 10
8.20014658
 20
3.68404353
  0
VERTEX
  8
0
 10
8.19055359
 20
3.67928595
  0
VERTEX
  8
0
 10
8.18229229
 20
3.67307536
  0
VERTEX
  8
0
 10
8.17521288
 20
3.66558733
  0
VERTEX
  8
0
 10
8.16916550
 20
3.65699740
  0
VERTEX
  8
0
 10
8.16400035
 20
3.64748112
  0
VERTEX
  8
0
 10
8.15956759
 20
3.63721406
  0
VERTEX
  8
0
 10
8.15229994
 20
3.61512977
  0
VERTEX
  8
0
 10
8.14616393
 20
3.59214896
  0
VERTEX
  8
0
 10
8.13996094
 20
3.56967605
  0
VERTEX
  8
0
 10
8.13249237
 20
3.54911546
  0
SEQEND
  0
POLYLINE
  8
Default_Layer
 66
   1
 39
0.000000
 70
    1
  0
VERTEX
  8
0
 10
8.35884878
 20
3.70076311
  0
VERTEX
  8
0
 10
8.32498339
 20
3.62601949
  0
VERTEX
  8
0
 10
8.29306046
 20
3.55023051
  0
VERTEX
  8
0
 10
8.37285031
 20
3.53468610
  0
VERTEX
  8
0
 10
8.45362856
 20
3.52012400
  0
VERTEX
  8
0
 10
8.44432030
 20
3.54420481
  0
VERTEX
  8
0
 10
8.43430621
 20
3.56792093
  0
VERTEX
  8
0
 10
8.42357644
 20
3.59124029
  0
VERTEX
  8
0
 10
8.41212119
 20
3.61413080
  0
VERTEX
  8
0
 10
8.39993062
 20
3.63656042
  0
VERTEX
  8
0
 10
8.38699492
 20
3.65849705
  0
VERTEX
  8
0
 10
8.37330424
 20
3.67990864
  0
VERTEX
  8
0
 10
8.35884878
 20
3.70076311
  0
SEQEND
  0
POLYLINE
  8
Default_Layer
 66
   1
 39
0.000000
 70
    1
  0
VERTEX
  8
0
 10
6.58256420
 20
9.53585238
  0
VERTEX
  8
0
 10
6.60651519
 20
9.53569970
  0
VERTEX
  8
0
 10
6.63008153
 20
9.53445763
  0
VERTEX
  8
0
 10
6.65327102
 20
9.53216459
  0
VERTEX
  8
0
 10
6.67609147
 20
9.52885902
  0
VERTEX
  8
0
 10
6.69855070
 20
9.52457936
  0
VERTEX
  8
0
 10
6.72065653
 20
9.51936404
  0
VERTEX
  8
0
 10
6.74241676
 20
9.51325150
  0
VERTEX
  8
0
 10
6.76383922
 20
9.50628017
  0
VERTEX
  8
0
 10
6.78493171
 20
9.49848848
  0
VERTEX
  8
0
 10
6.80570205
 20
9.48991489
  0
VERTEX
  8
0
 10
6.82615805
 20
9.48059781
  0
VERTEX
  8
0
 10
6.84630753
 20
9.47057568
  0
VERTEX
  8
0
 10
6.88571817
 20
9.44857004
  0
VERTEX
  8
0
 10
6.92399648
 20
9.42420545
  0
VERTEX
  8
0
 10
6.96120497
 20
9.39778939
  0
VERTEX
  8
0
 10
6.99740615
 20
9.36962934
  0
VERTEX
  8
0
 10
7.03266252
 20
9.34003279
  0
VERTEX
  8
0
 10
7.06703660
 20
9.30930723
  0
VERTEX
  8
0
 10
7.10059090
 20
9.27776013
  0
VERTEX
  8
0
 10
7.13338792
 20
9.24569899
  0
VERTEX
  8
0
 10
7.19696019
 20
9.18126450
  0
VERTEX
  8
0
 10
7.16386584
 20
9.17298207
  0
VERTEX
  8
0
 10
7.13032243
 20
9.16550888
  0
VERTEX
  8
0
 10
7.06298060
 20
9.15036994
  0
VERTEX
  8
0
 10
7.02972826
 20
9.14139410
  0
VERTEX
  8
0
 10
6.99711901
 20
9.13060727
  0
VERTEX
  8
0
 10
6.98114088
 20
9.12433003
  0
VERTEX
  8
0
 10
6.96542590
 20
9.11735440
  0
VERTEX
  8
0
 10
6.95000822
 20
9.10959850
  0
VERTEX
  8
0
 10
6.93492197
 20
9.10098045
  0
VERTEX
  8
0
 10
6.91898577
 20
9.08880048
  0
VERTEX
  8
0
 10
6.90351281
 20
9.07597008
  0
VERTEX
  8
0
 10
6.87358083
 20
9.04888181
  0
VERTEX
  8
0
 10
6.81514196
 20
8.99266223
  0
VERTEX
  8
0
 10
6.78513183
 20
8.96562623
  0
VERTEX
  8
0
 10
6.76960026
 20
8.95283504
  0
VERTEX
  8
0
 10
6.75359242
 20
8.94070299
  0
VERTEX
  8
0
 10
6.73701435
 20
8.92936104
  0
VERTEX
  8
0
 10
6.71977210
 20
8.91894015
  0
VERTEX
  8
0
 10
6.70177172
 20
8.90957128
  0
VERTEX
  8
0
 10
6.68291926
 20
8.90138538
  0
VERTEX
  8
0
 10
6.65101269
 20
8.88905386
  0
VERTEX
  8
0
 10
6.61875614
 20
8.87799445
  0
VERTEX
  8
0
 10
6.58618046
 20
8.86811563
  0
VERTEX
  8
0
 10
6.55331650
 20
8.85932591
  0
VERTEX
  8
0
 10
6.52019510
 20
8.85153377
  0
VERTEX
  8
0
 10
6.48684712
 20
8.84464772
  0
VERTEX
  8
0
 10
6.45330341
 20
8.83857624
  0
VERTEX
  8
0
 10
6.41959482
 20
8.83322783
  0
VERTEX
  8
0
 10
6.35180638
 20
8.82433422
  0
VERTEX
  8
0
 10
6.28372861
 20
8.81723482
  0
VERTEX
  8
0
 10
6.14769227
 20
8.80549054
  0
VERTEX
  8
0
 10
6.17884124
 20
8.83461216
  0
VERTEX
  8
0
 10
6.21026704
 20
8.86360787
  0
VERTEX
  8
0
 10
6.22641224
 20
8.87764130
  0
VERTEX
  8
0
 10
6.24302084
 20
8.89114257
  0
VERTEX
  8
0
 10
6.26022425
 20
8.90394481
  0
VERTEX
  8
0
 10
6.27815385
 20
8.91588111
  0
VERTEX
  8
0
 10
6.29493530
 20
8.92463159
  0
VERTEX
  8
0
 10
6.31209997
 20
8.93250258
  0
VERTEX
  8
0
 10
6.34734769
 20
8.94614040
  0
VERTEX
  8
0
 10
6.38343443
 20
8.95786326
  0
VERTEX
  8
0
 10
6.41989761
 20
8.96873982
  0
VERTEX
  8
0
 10
6.45627464
 20
8.97983877
  0
VERTEX
  8
0
 10
6.49210295
 20
8.99222876
  0
VERTEX
  8
0
 10
6.50966678
 20
8.99924187
  0
VERTEX
  8
0
 10
6.52691996
 20
9.00697849
  0
VERTEX
  8
0
 10
6.54380466
 20
9.01557221
  0
VERTEX
  8
0
 10
6.56026308
 20
9.02515662
  0
VERTEX
  8
0
 10
6.57289811
 20
9.03556736
  0
VERTEX
  8
0
 10
6.58482325
 20
9.04658882
  0
VERTEX
  8
0
 10
6.59610838
 20
9.05815906
  0
VERTEX
  8
0
 10
6.60682340
 20
9.07021615
  0
VERTEX
  8
0
 10
6.62682257
 20
9.09554306
  0
VERTEX
  8
0
 10
6.64537983
 20
9.12207399
  0
VERTEX
  8
0
 10
6.68040486
 20
9.17676574
  0
VERTEX
  8
0
 10
6.69799074
 20
9.20393545
  0
VERTEX
  8
0
 10
6.71637095
 20
9.23032697
  0
VERTEX
  8
0
 10
6.72410232
 20
9.24133675
  0
VERTEX
  8
0
 10
6.73257445
 20
9.25148452
  0
VERTEX
  8
0
 10
6.74171633
 20
9.26084752
  0
VERTEX
  8
0
 10
6.75145696
 20
9.26950298
  0
VERTEX
  8
0
 10
6.76172536
 20
9.27752812
  0
VERTEX
  8
0
 10
6.77245051
 20
9.28500019
  0
VERTEX
  8
0
 10
6.79498712
 20
9.29859403
  0
VERTEX
  8
0
 10
6.81849882
 20
9.31090235
  0
VERTEX
  8
0
 10
6.84241763
 20
9.32254302
  0
VERTEX
  8
0
 10
6.86617557
 20
9.33413388
  0
VERTEX
  8
0
 10
6.88920466
 20
9.34629282
  0
VERTEX
  8
0
 10
6.85184720
 20
9.37139220
  0
VERTEX
  8
0
 10
6.81377887
 20
9.39543671
  0
VERTEX
  8
0
 10
6.73637559
 20
9.44166829
  0
VERTEX
  8
0
 10
6.65872672
 20
9.48760203
  0
VERTEX
  8
0
 10
6.62035142
 20
9.51127422
  0
VERTEX
  8
0
 10
6.58256420
 20
9.53585238
  0
SEQEND
  0
POLYLINE
  8
Default_Layer
 66
   1
 39
0.000000
 70
    1
  0
VERTEX
  8
0
 10
5.83436147
 20
9.11993640
  0
VERTEX
  8
0
 10
5.84916977
 20
9.13513465
  0
VERTEX
  8
0
 10
5.86518302
 20
9.14824298
  0
VERTEX
  8
0
 10
5.88222768
 20
9.15927303
  0
VERTEX
  8
0
 10
5.90013020
 20
9.16823638
  0
VERTEX
  8
0
 10
5.91871702
 20
9.17514466
  0
VERTEX
  8
0
 10
5.93781459
 20
9.18000948
  0
VERTEX
  8
0
 10
5.95724937
 20
9.18284244
  0
VERTEX
  8
0
 10
5.97684780
 20
9.18365516
  0
VERTEX
  8
0
 10
5.99643634
 20
9.18245925
  0
VERTEX
  8
0
 10
6.01584143
 20
9.17926631
  0
VERTEX
  8
0
 10
6.03488952
 20
9.17408795
  0
VERTEX
  8
0
 10
6.05340707
 20
9.16693580
  0
VERTEX
  8
0
 10
6.07122052
 20
9.15782145
  0
VERTEX
  8
0
 10
6.08815633
 20
9.14675652
  0
VERTEX
  8
0
 10
6.10404094
 20
9.13375261
  0
VERTEX
  8
0
 10
6.11870081
 20
9.11882135
  0
VERTEX
  8
0
 10
6.03576823
 20
9.05222687
  0
VERTEX
  8
0
 10
5.95255743
 20
8.98612965
  0
VERTEX
  8
0
 10
5.95718158
 20
8.95349872
  0
VERTEX
  8
0
 10
5.96338127
 20
8.92046188
  0
VERTEX
  8
0
 10
5.96982759
 20
8.88718448
  0
VERTEX
  8
0
 10
5.97519168
 20
8.85383188
  0
VERTEX
  8
0
 10
5.97705260
 20
8.83717905
  0
VERTEX
  8
0
 10
5.97814462
 20
8.82056943
  0
VERTEX
  8
0
 10
5.97830164
 20
8.80402367
  0
VERTEX
  8
0
 10
5.97735755
 20
8.78756246
  0
VERTEX
  8
0
 10
5.97514622
 20
8.77120645
  0
VERTEX
  8
0
 10
5.97150156
 20
8.75497633
  0
VERTEX
  8
0
 10
5.96625744
 20
8.73889275
  0
VERTEX
  8
0
 10
5.95924777
 20
8.72297638
  0
VERTEX
  8
0
 10
5.93616997
 20
8.67269143
  0
VERTEX
  8
0
 10
5.91112913
 20
8.62334815
  0
VERTEX
  8
0
 10
5.88430178
 20
8.57490920
  0
VERTEX
  8
0
 10
5.85586446
 20
8.52733724
  0
VERTEX
  8
0
 10
5.82599371
 20
8.48059492
  0
VERTEX
  8
0
 10
5.79486605
 20
8.43464489
  0
VERTEX
  8
0
 10
5.76265803
 20
8.38944981
  0
VERTEX
  8
0
 10
5.72954618
 20
8.34497232
  0
VERTEX
  8
0
 10
5.73501594
 20
8.37458309
  0
VERTEX
  8
0
 10
5.74157786
 20
8.40406087
  0
VERTEX
  8
0
 10
5.75700631
 20
8.46273234
  0
VERTEX
  8
0
 10
5.77388779
 20
8.52121652
  0
VERTEX
  8
0
 10
5.79027858
 20
8.57974323
  0
VERTEX
  8
0
 10
5.79768256
 20
8.60909434
  0
VERTEX
  8
0
 10
5.80423496
 20
8.63854225
  0
VERTEX
  8
0
 10
5.80969283
 20
8.66811569
  0
VERTEX
  8
0
 10
5.81381320
 20
8.69784339
  0
VERTEX
  8
0
 10
5.81635310
 20
8.72775406
  0
VERTEX
  8
0
 10
5.81706957
 20
8.75787645
  0
VERTEX
  8
0
 10
5.81571964
 20
8.78823925
  0
VERTEX
  8
0
 10
5.81206034
 20
8.81887122
  0
VERTEX
  8
0
 10
5.80846890
 20
8.85665821
  0
VERTEX
  8
0
 10
5.80422986
 20
8.89526253
  0
VERTEX
  8
0
 10
5.80057831
 20
8.93425353
  0
VERTEX
  8
0
 10
5.79874936
 20
8.97320058
  0
VERTEX
  8
0
 10
5.79890432
 20
8.99252304
  0
VERTEX
  8
0
 10
5.79997810
 20
9.01167303
  0
VERTEX
  8
0
 10
5.80212507
 20
9.03059671
  0
VERTEX
  8
0
 10
5.80549963
 20
9.04924024
  0
VERTEX
  8
0
 10
5.81025616
 20
9.06754981
  0
VERTEX
  8
0
 10
5.81654905
 20
9.08547158
  0
VERTEX
  8
0
 10
5.82453269
 20
9.10295172
  0
VERTEX
  8
0
 10
5.83436147
 20
9.11993640
  0
SEQEND
  0
POLYLINE
  8
Default_Layer
 66
   1
 39
0.000000
 70
    1
  0
VERTEX
  8
0
 10
8.40345103
 20
8.96271347
  0
VERTEX
  8
0
 10
8.41120877
 20
8.99403087
  0
VERTEX
  8
0
 10
8.41996202
 20
9.02497493
  0
VERTEX
  8
0
 10
8.42969772
 20
9.05553942
  0
VERTEX
  8
0
 10
8.44040280
 20
9.08571811
  0
VERTEX
  8
0
 10
8.45206418
 20
9.11550480
  0
VERTEX
  8
0
 10
8.46466881
 20
9.14489325
  0
VERTEX
  8
0
 10
8.47820361
 20
9.17387725
  0
VERTEX
  8
0
 10
8.49265553
 20
9.20245056
  0
VERTEX
  8
0
 10
8.51033848
 20
9.17674498
  0
VERTEX
  8
0
 10
8.52725321
 20
9.15058555
  0
VERTEX
  8
0
 10
8.54339361
 20
9.12398959
  0
VERTEX
  8
0
 10
8.55875360
 20
9.09697441
  0
VERTEX
  8
0
 10
8.57332709
 20
9.06955731
  0
VERTEX
  8
0
 10
8.58710800
 20
9.04175559
  0
VERTEX
  8
0
 10
8.60009022
 20
9.01358657
  0
VERTEX
  8
0
 10
8.61226768
 20
8.98506756
  0
VERTEX
  8
0
 10
8.62363428
 20
8.95621586
  0
VERTEX
  8
0
 10
8.63418394
 20
8.92704879
  0
VERTEX
  8
0
 10
8.64391055
 20
8.89758363
  0
VERTEX
  8
0
 10
8.65280805
 20
8.86783772
  0
VERTEX
  8
0
 10
8.66087033
 20
8.83782835
  0
VERTEX
  8
0
 10
8.66809130
 20
8.80757282
  0
VERTEX
  8
0
 10
8.67446488
 20
8.77708846
  0
VERTEX
  8
0
 10
8.67998498
 20
8.74639256
  0
VERTEX
  8
0
 10
8.65841931
 20
8.75664304
  0
VERTEX
  8
0
 10
8.63655739
 20
8.76572283
  0
VERTEX
  8
0
 10
8.61442574
 20
8.77373527
  0
VERTEX
  8
0
 10
8.59205092
 20
8.78078371
  0
VERTEX
  8
0
 10
8.56945946
 20
8.78697151
  0
VERTEX
  8
0
 10
8.54667790
 20
8.79240200
  0
VERTEX
  8
0
 10
8.50065068
 20
8.80140446
  0
VERTEX
  8
0
 10
8.45418159
 20
8.80861788
  0
VERTEX
  8
0
 10
8.40748298
 20
8.81486904
  0
VERTEX
  8
0
 10
8.36076718
 20
8.82098471
  0
VERTEX
  8
0
 10
8.31424653
 20
8.82779167
  0
VERTEX
  8
0
 10
8.29836713
 20
8.85181157
  0
VERTEX
  8
0
 10
8.28364939
 20
8.87659211
  0
VERTEX
  8
0
 10
8.25626361
 20
8.92703167
  0
VERTEX
  8
0
 10
8.32968475
 20
8.94516641
  0
VERTEX
  8
0
 10
8.40345103
 20
8.96271347
  0
SEQEND
  0
POLYLINE
  8
Default_Layer
 66
   1
 39
0.000000
 70
    1
  0
VERTEX
  8
0
 10
7.70765594
 20
8.90138538
  0
VERTEX
  8
0
 10
7.74086568
 20
8.87079598
  0
VERTEX
  8
0
 10
7.77413924
 20
8.83983740
  0
VERTEX
  8
0
 10
7.79006163
 20
8.82367248
  0
VERTEX
  8
0
 10
7.80511397
 20
8.80675865
  0
VERTEX
  8
0
 10
7.81900093
 20
8.78887703
  0
VERTEX
  8
0
 10
7.83142718
 20
8.76980875
  0
VERTEX
  8
0
 10
7.83678076
 20
8.75429825
  0
VERTEX
  8
0
 10
7.84134595
 20
8.73862224
  0
VERTEX
  8
0
 10
7.84840610
 20
8.70684040
  0
VERTEX
  8
0
 10
7.85319741
 20
8.67459659
  0
VERTEX
  8
0
 10
7.85630966
 20
8.64202416
  0
VERTEX
  8
0
 10
7.85985614
 20
8.57642696
  0
VERTEX
  8
0
 10
7.86146994
 20
8.54366890
  0
VERTEX
  8
0
 10
7.86376381
 20
8.51111570
  0
VERTEX
  8
0
 10
7.91131573
 20
8.52136619
  0
VERTEX
  8
0
 10
7.95914263
 20
8.53009420
  0
VERTEX
  8
0
 10
8.00720335
 20
8.53713425
  0
VERTEX
  8
0
 10
8.05545671
 20
8.54232081
  0
VERTEX
  8
0
 10
8.10386155
 20
8.54548839
  0
VERTEX
  8
0
 10
8.15237671
 20
8.54647149
  0
VERTEX
  8
0
 10
8.20096100
 20
8.54510460
  0
VERTEX
  8
0
 10
8.24957327
 20
8.54122222
  0
VERTEX
  8
0
 10
8.22208288
 20
8.52199899
  0
VERTEX
  8
0
 10
8.19381941
 20
8.50409948
  0
VERTEX
  8
0
 10
8.16495497
 20
8.48723852
  0
VERTEX
  8
0
 10
8.13566165
 20
8.47113091
  0
VERTEX
  8
0
 10
8.07647677
 20
8.44003507
  0
VERTEX
  8
0
 10
8.01764157
 20
8.40853053
  0
VERTEX
  8
0
 10
8.00100145
 20
8.39885989
  0
VERTEX
  8
0
 10
7.98537831
 20
8.38811402
  0
VERTEX
  8
0
 10
7.97069315
 20
8.37638746
  0
VERTEX
  8
0
 10
7.95686698
 20
8.36377476
  0
VERTEX
  8
0
 10
7.94382078
 20
8.35037043
  0
VERTEX
  8
0
 10
7.93147557
 20
8.33626903
  0
VERTEX
  8
0
 10
7.91975234
 20
8.32156509
  0
VERTEX
  8
0
 10
7.90857208
 20
8.30635314
  0
VERTEX
  8
0
 10
7.88752450
 20
8.27478339
  0
VERTEX
  8
0
 10
7.86770081
 20
8.24231606
  0
VERTEX
  8
0
 10
7.82919707
 20
8.17771388
  0
VERTEX
  8
0
 10
7.71545477
 20
8.17797408
  0
VERTEX
  8
0
 10
7.65845409
 20
8.17802927
  0
VERTEX
  8
0
 10
7.60147418
 20
8.17725923
  0
VERTEX
  8
0
 10
7.54459539
 20
8.17508252
  0
VERTEX
  8
0
 10
7.48789807
 20
8.17091767
  0
VERTEX
  8
0
 10
7.43146255
 20
8.16418322
  0
VERTEX
  8
0
 10
7.40336808
 20
8.15967068
  0
VERTEX
  8
0
 10
7.37536918
 20
8.15429770
  0
VERTEX
  8
0
 10
7.35302279
 20
8.14931734
  0
VERTEX
  8
0
 10
7.33151685
 20
8.14261869
  0
VERTEX
  8
0
 10
7.31074625
 20
8.13441158
  0
VERTEX
  8
0
 10
7.29060584
 20
8.12490584
  0
VERTEX
  8
0
 10
7.27099050
 20
8.11431132
  0
VERTEX
  8
0
 10
7.25179510
 20
8.10283784
  0
VERTEX
  8
0
 10
7.21424356
 20
8.07809337
  0
VERTEX
  8
0
 10
7.17711016
 20
8.05235109
  0
VERTEX
  8
0
 10
7.13955386
 20
8.02728969
  0
VERTEX
  8
0
 10
7.12035428
 20
8.01553890
  0
VERTEX
  8
0
 10
7.10073358
 20
8.00458784
  0
VERTEX
  8
0
 10
7.08058662
 20
7.99464633
  0
VERTEX
  8
0
 10
7.05980827
 20
7.98592421
  0
VERTEX
  8
0
 10
7.04187041
 20
7.97862107
  0
VERTEX
  8
0
 10
7.02383323
 20
7.97212768
  0
VERTEX
  8
0
 10
6.98748244
 20
7.96143293
  0
VERTEX
  8
0
 10
6.95079900
 20
7.95356549
  0
VERTEX
  8
0
 10
6.91382600
 20
7.94825092
  0
VERTEX
  8
0
 10
6.87660656
 20
7.94521474
  0
VERTEX
  8
0
 10
6.83918375
 20
7.94418249
  0
VERTEX
  8
0
 10
6.80160070
 20
7.94487970
  0
VERTEX
  8
0
 10
6.76390049
 20
7.94703192
  0
VERTEX
  8
0
 10
6.72612622
 20
7.95036467
  0
VERTEX
  8
0
 10
6.68832100
 20
7.95460350
  0
VERTEX
  8
0
 10
6.61279009
 20
7.96470153
  0
VERTEX
  8
0
 10
6.53765255
 20
7.97513030
  0
VERTEX
  8
0
 10
6.50033905
 20
7.97978255
  0
VERTEX
  8
0
 10
6.46325318
 20
7.98369410
  0
VERTEX
  8
0
 10
6.46452502
 20
7.91872701
  0
VERTEX
  8
0
 10
6.46659835
 20
7.85434758
  0
VERTEX
  8
0
 10
6.38640262
 20
7.88947907
  0
VERTEX
  8
0
 10
6.36560538
 20
7.89923621
  0
VERTEX
  8
0
 10
6.34512623
 20
7.90964550
  0
VERTEX
  8
0
 10
6.32527390
 20
7.92083815
  0
VERTEX
  8
0
 10
6.30635708
 20
7.93294537
  0
VERTEX
  8
0
 10
6.28868448
 20
7.94609838
  0
VERTEX
  8
0
 10
6.27256482
 20
7.96042841
  0
VERTEX
  8
0
 10
6.25830680
 20
7.97606666
  0
VERTEX
  8
0
 10
6.24621914
 20
7.99314435
  0
VERTEX
  8
0
 10
6.24108566
 20
8.00226399
  0
VERTEX
  8
0
 10
6.23661054
 20
8.01179270
  0
VERTEX
  8
0
 10
6.23283236
 20
8.02174688
  0
VERTEX
  8
0
 10
6.22978971
 20
8.03214293
  0
VERTEX
  8
0
 10
6.22752118
 20
8.04299725
  0
VERTEX
  8
0
 10
6.22606536
 20
8.05432625
  0
VERTEX
  8
0
 10
6.22546084
 20
8.06614633
  0
VERTEX
  8
0
 10
6.22574621
 20
8.07847388
  0
VERTEX
  8
0
 10
6.22488202
 20
8.09448227
  0
VERTEX
  8
0
 10
6.22658621
 20
8.10944093
  0
VERTEX
  8
0
 10
6.23062979
 20
8.12338025
  0
VERTEX
  8
0
 10
6.23678377
 20
8.13633064
  0
VERTEX
  8
0
 10
6.24481914
 20
8.14832247
  0
VERTEX
  8
0
 10
6.25450694
 20
8.15938616
  0
VERTEX
  8
0
 10
6.26561815
 20
8.16955208
  0
VERTEX
  8
0
 10
6.27792380
 20
8.17885064
  0
VERTEX
  8
0
 10
6.29119489
 20
8.18731223
  0
VERTEX
  8
0
 10
6.30520242
 20
8.19496725
  0
VERTEX
  8
0
 10
6.31971742
 20
8.20184608
  0
VERTEX
  8
0
 10
6.33451088
 20
8.20797912
  0
VERTEX
  8
0
 10
6.36401724
 20
8.21812942
  0
VERTEX
  8
0
 10
6.39188958
 20
8.22566130
  0
VERTEX
  8
0
 10
6.42290200
 20
8.21261266
  0
VERTEX
  8
0
 10
6.45378892
 20
8.19859372
  0
VERTEX
  8
0
 10
6.51541335
 20
8.16882101
  0
VERTEX
  8
0
 10
6.57721696
 20
8.13869525
  0
VERTEX
  8
0
 10
6.60832786
 20
8.12423500
  0
VERTEX
  8
0
 10
6.63965383
 20
8.11056852
  0
VERTEX
  8
0
 10
6.67125163
 20
8.09798980
  0
VERTEX
  8
0
 10
6.70317803
 20
8.08679287
  0
VERTEX
  8
0
 10
6.73548978
 20
8.07727173
  0
VERTEX
  8
0
 10
6.76824364
 20
8.06972039
  0
VERTEX
  8
0
 10
6.80149638
 20
8.06443286
  0
VERTEX
  8
0
 10
6.83530476
 20
8.06170314
  0
VERTEX
  8
0
 10
6.85243505
 20
8.06138935
  0
VERTEX
  8
0
 10
6.86972553
 20
8.06182526
  0
VERTEX
  8
0
 10
6.88718330
 20
8.06304763
  0
VERTEX
  8
0
 10
6.90481545
 20
8.06509321
  0
VERTEX
  8
0
 10
6.93449647
 20
8.06731799
  0
VERTEX
  8
0
 10
6.96343213
 20
8.07193481
  0
VERTEX
  8
0
 10
6.99156929
 20
8.07882747
  0
VERTEX
  8
0
 10
7.01885484
 20
8.08787980
  0
VERTEX
  8
0
 10
7.04523565
 20
8.09897562
  0
VERTEX
  8
0
 10
7.07065860
 20
8.11199873
  0
VERTEX
  8
0
 10
7.09507056
 20
8.12683296
  0
VERTEX
  8
0
 10
7.11841841
 20
8.14336212
  0
VERTEX
  8
0
 10
7.14064903
 20
8.16147004
  0
VERTEX
  8
0
 10
7.16170929
 20
8.18104053
  0
VERTEX
  8
0
 10
7.18154606
 20
8.20195740
  0
VERTEX
  8
0
 10
7.20010624
 20
8.22410448
  0
VERTEX
  8
0
 10
7.21733668
 20
8.24736558
  0
VERTEX
  8
0
 10
7.23318427
 20
8.27162452
  0
VERTEX
  8
0
 10
7.24759588
 20
8.29676512
  0
VERTEX
  8
0
 10
7.26051839
 20
8.32267120
  0
VERTEX
  8
0
 10
7.18085851
 20
8.36706464
  0
VERTEX
  8
0
 10
7.09995029
 20
8.40964558
  0
VERTEX
  8
0
 10
7.07264575
 20
8.37056317
  0
VERTEX
  8
0
 10
7.04537869
 20
8.33030911
  0
VERTEX
  8
0
 10
7.01711284
 20
8.29059219
  0
VERTEX
  8
0
 10
7.00228153
 20
8.27146916
  0
VERTEX
  8
0
 10
6.98681191
 20
8.25312122
  0
VERTEX
  8
0
 10
6.97057444
 20
8.23576197
  0
VERTEX
  8
0
 10
6.95343959
 20
8.21960501
  0
VERTEX
  8
0
 10
6.93527782
 20
8.20486394
  0
VERTEX
  8
0
 10
6.91595959
 20
8.19175237
  0
VERTEX
  8
0
 10
6.89535537
 20
8.18048388
  0
VERTEX
  8
0
 10
6.87333563
 20
8.17127209
  0
VERTEX
  8
0
 10
6.84977082
 20
8.16433059
  0
VERTEX
  8
0
 10
6.82453140
 20
8.15987299
  0
VERTEX
  8
0
 10
6.80969179
 20
8.18218271
  0
VERTEX
  8
0
 10
6.79590408
 20
8.20498216
  0
VERTEX
  8
0
 10
6.78315978
 20
8.22824382
  0
VERTEX
  8
0
 10
6.77145037
 20
8.25194014
  0
VERTEX
  8
0
 10
6.76076737
 20
8.27604360
  0
VERTEX
  8
0
 10
6.75110226
 20
8.30052666
  0
VERTEX
  8
0
 10
6.74244656
 20
8.32536179
  0
VERTEX
  8
0
 10
6.73479175
 20
8.35052145
  0
VERTEX
  8
0
 10
6.72812934
 20
8.37597812
  0
VERTEX
  8
0
 10
6.72245082
 20
8.40170426
  0
VERTEX
  8
0
 10
6.71774771
 20
8.42767234
  0
VERTEX
  8
0
 10
6.71401149
 20
8.45385483
  0
VERTEX
  8
0
 10
6.71123366
 20
8.48022418
  0
VERTEX
  8
0
 10
6.70940573
 20
8.50675288
  0
VERTEX
  8
0
 10
6.70851920
 20
8.53341339
  0
VERTEX
  8
0
 10
6.70856555
 20
8.56017817
  0
VERTEX
  8
0
 10
6.64091081
 20
8.55635313
  0
VERTEX
  8
0
 10
6.60680298
 20
8.55417517
  0
VERTEX
  8
0
 10
6.57294379
 20
8.55068772
  0
VERTEX
  8
0
 10
6.53965992
 20
8.54504141
  0
VERTEX
  8
0
 10
6.52333584
 20
8.54114325
  0
VERTEX
  8
0
 10
6.50727809
 20
8.53638686
  0
VERTEX
  8
0
 10
6.49152753
 20
8.53066606
  0
VERTEX
  8
0
 10
6.47612500
 20
8.52387467
  0
VERTEX
  8
0
 10
6.46111132
 20
8.51590654
  0
VERTEX
  8
0
 10
6.44652734
 20
8.50665547
  0
VERTEX
  8
0
 10
6.43526733
 20
8.49853631
  0
VERTEX
  8
0
 10
6.42498791
 20
8.48960213
  0
VERTEX
  8
0
 10
6.41559955
 20
8.47993299
  0
VERTEX
  8
0
 10
6.40701273
 20
8.46960898
  0
VERTEX
  8
0
 10
6.39913795
 20
8.45871015
  0
VERTEX
  8
0
 10
6.39188567
 20
8.44731659
  0
VERTEX
  8
0
 10
6.37889055
 20
8.42336555
  0
VERTEX
  8
0
 10
6.36731124
 20
8.39839643
  0
VERTEX
  8
0
 10
6.35643159
 20
8.37304979
  0
VERTEX
  8
0
 10
6.34553545
 20
8.34796620
  0
VERTEX
  8
0
 10
6.33390666
 20
8.32378625
  0
VERTEX
  8
0
 10
6.32005671
 20
8.33227473
  0
VERTEX
  8
0
 10
6.30631791
 20
8.34153603
  0
VERTEX
  8
0
 10
6.27898081
 20
8.36152513
  0
VERTEX
  8
0
 10
6.25150940
 20
8.38204956
  0
VERTEX
  8
0
 10
6.22351775
 20
8.40140532
  0
VERTEX
  8
0
 10
6.20920623
 20
8.41011245
  0
VERTEX
  8
0
 10
6.19461991
 20
8.41788841
  0
VERTEX
  8
0
 10
6.17971056
 20
8.42452021
  0
VERTEX
  8
0
 10
6.16442993
 20
8.42979485
  0
VERTEX
  8
0
 10
6.14872979
 20
8.43349932
  0
VERTEX
  8
0
 10
6.13256188
 20
8.43542063
  0
VERTEX
  8
0
 10
6.11587796
 20
8.43534578
  0
VERTEX
  8
0
 10
6.09862979
 20
8.43306176
  0
VERTEX
  8
0
 10
6.08050792
 20
8.42756502
  0
VERTEX
  8
0
 10
6.06281995
 20
8.42115684
  0
VERTEX
  8
0
 10
6.04551874
 20
8.41393670
  0
VERTEX
  8
0
 10
6.02855720
 20
8.40600408
  0
VERTEX
  8
0
 10
5.99546462
 20
8.38839931
  0
VERTEX
  8
0
 10
5.96316526
 20
8.36913838
  0
VERTEX
  8
0
 10
5.89943852
 20
8.32883133
  0
VERTEX
  8
0
 10
5.86725725
 20
8.30937689
  0
VERTEX
  8
0
 10
5.83436147
 20
8.29144962
  0
VERTEX
  8
0
 10
5.84708697
 20
8.31978672
  0
VERTEX
  8
0
 10
5.86172210
 20
8.34664096
  0
VERTEX
  8
0
 10
5.87811333
 20
8.37210785
  0
VERTEX
  8
0
 10
5.89610711
 20
8.39628293
  0
VERTEX
  8
0
 10
5.91554991
 20
8.41926170
  0
VERTEX
  8
0
 10
5.93628818
 20
8.44113970
  0
VERTEX
  8
0
 10
5.95816840
 20
8.46201244
  0
VERTEX
  8
0
 10
5.98103702
 20
8.48197543
  0
VERTEX
  8
0
 10
6.00474051
 20
8.50112421
  0
VERTEX
  8
0
 10
6.02912533
 20
8.51955429
  0
VERTEX
  8
0
 10
6.07932478
 20
8.55464043
  0
VERTEX
  8
0
 10
6.13040710
 20
8.58799801
  0
VERTEX
  8
0
 10
6.18114396
 20
8.62039121
  0
VERTEX
  8
0
 10
6.22129449
 20
8.64382777
  0
VERTEX
  8
0
 10
6.26254997
 20
8.66532072
  0
VERTEX
  8
0
 10
6.30480082
 20
8.68481805
  0
VERTEX
  8
0
 10
6.34793746
 20
8.70226772
  0
VERTEX
  8
0
 10
6.39185029
 20
8.71761773
  0
VERTEX
  8
0
 10
6.43642974
 20
8.73081605
  0
VERTEX
  8
0
 10
6.48156622
 20
8.74181066
  0
VERTEX
  8
0
 10
6.52715016
 20
8.75054954
  0
VERTEX
  8
0
 10
6.57307196
 20
8.75698066
  0
VERTEX
  8
0
 10
6.61922205
 20
8.76105202
  0
VERTEX
  8
0
 10
6.66549084
 20
8.76271159
  0
VERTEX
  8
0
 10
6.71176875
 20
8.76190735
  0
VERTEX
  8
0
 10
6.75794620
 20
8.75858728
  0
VERTEX
  8
0
 10
6.80391361
 20
8.75269936
  0
VERTEX
  8
0
 10
6.84956138
 20
8.74419157
  0
VERTEX
  8
0
 10
6.89477995
 20
8.73301189
  0
VERTEX
  8
0
 10
6.91105416
 20
8.72807016
  0
VERTEX
  8
0
 10
6.92696196
 20
8.72242427
  0
VERTEX
  8
0
 10
6.95778170
 20
8.70922326
  0
VERTEX
  8
0
 10
6.98744590
 20
8.69381541
  0
VERTEX
  8
0
 10
7.01616128
 20
8.67660724
  0
VERTEX
  8
0
 10
7.04413459
 20
8.65800530
  0
VERTEX
  8
0
 10
7.07157255
 20
8.63841612
  0
VERTEX
  8
0
 10
7.12566933
 20
8.59790218
  0
VERTEX
  8
0
 10
7.15274162
 20
8.57779050
  0
VERTEX
  8
0
 10
7.18010548
 20
8.55831772
  0
VERTEX
  8
0
 10
7.20796763
 20
8.53989038
  0
VERTEX
  8
0
 10
7.23653483
 20
8.52291501
  0
VERTEX
  8
0
 10
7.26601378
 20
8.50779815
  0
VERTEX
  8
0
 10
7.29661122
 20
8.49494635
  0
VERTEX
  8
0
 10
7.31239398
 20
8.48949688
  0
VERTEX
  8
0
 10
7.32853389
 20
8.48476612
  0
VERTEX
  8
0
 10
7.34505678
 20
8.48080489
  0
VERTEX
  8
0
 10
7.36198851
 20
8.47766401
  0
VERTEX
  8
0
 10
7.40364846
 20
8.47208531
  0
VERTEX
  8
0
 10
7.44620004
 20
8.46854972
  0
VERTEX
  8
0
 10
7.48913989
 20
8.46760922
  0
VERTEX
  8
0
 10
7.51059811
 20
8.46828461
  0
VERTEX
  8
0
 10
7.53196463
 20
8.46981574
  0
VERTEX
  8
0
 10
7.55317653
 20
8.47227163
  0
VERTEX
  8
0
 10
7.57417089
 20
8.47572125
  0
VERTEX
  8
0
 10
7.59488479
 20
8.48023361
  0
VERTEX
  8
0
 10
7.61525531
 20
8.48587770
  0
VERTEX
  8
0
 10
7.63521953
 20
8.49272251
  0
VERTEX
  8
0
 10
7.65471452
 20
8.50083703
  0
VERTEX
  8
0
 10
7.67367737
 20
8.51029027
  0
VERTEX
  8
0
 10
7.69204515
 20
8.52115120
  0
VERTEX
  8
0
 10
7.70022222
 20
8.53128897
  0
VERTEX
  8
0
 10
7.70754547
 20
8.54167164
  0
VERTEX
  8
0
 10
7.71405067
 20
8.55228599
  0
VERTEX
  8
0
 10
7.71977360
 20
8.56311878
  0
VERTEX
  8
0
 10
7.72901574
 20
8.58538672
  0
VERTEX
  8
0
 10
7.73555808
 20
8.60836958
  0
VERTEX
  8
0
 10
7.73968682
 20
8.63196148
  0
VERTEX
  8
0
 10
7.74168815
 20
8.65605653
  0
VERTEX
  8
0
 10
7.74184825
 20
8.68054885
  0
VERTEX
  8
0
 10
7.74045333
 20
8.70533254
  0
VERTEX
  8
0
 10
7.73778957
 20
8.73030173
  0
VERTEX
  8
0
 10
7.73414316
 20
8.75535052
  0
VERTEX
  8
0
 10
7.72504718
 20
8.80526338
  0
VERTEX
  8
0
 10
7.71545493
 20
8.85422403
  0
VERTEX
  8
0
 10
7.70765594
 20
8.90138538
  0
SEQEND
  0
POLYLINE
  8
Default_Layer
 66
   1
 39
0.000000
 70
    1
  0
VERTEX
  8
0
 10
5.58235876
 20
8.86904875
  0
VERTEX
  8
0
 10
5.65386340
 20
8.83776950
  0
VERTEX
  8
0
 10
5.72508596
 20
8.80549054
  0
VERTEX
  8
0
 10
5.71221808
 20
8.77541362
  0
VERTEX
  8
0
 10
5.70068683
 20
8.74500968
  0
VERTEX
  8
0
 10
5.69038626
 20
8.71430614
  0
VERTEX
  8
0
 10
5.68121043
 20
8.68333041
  0
VERTEX
  8
0
 10
5.67305343
 20
8.65210991
  0
VERTEX
  8
0
 10
5.66580930
 20
8.62067206
  0
VERTEX
  8
0
 10
5.65937212
 20
8.58904426
  0
VERTEX
  8
0
 10
5.65363594
 20
8.55725394
  0
VERTEX
  8
0
 10
5.64384288
 20
8.49329536
  0
VERTEX
  8
0
 10
5.63558263
 20
8.42901565
  0
VERTEX
  8
0
 10
5.62027067
 20
8.30037007
  0
VERTEX
  8
0
 10
5.60426863
 20
8.32046045
  0
VERTEX
  8
0
 10
5.59049680
 20
8.34148881
  0
VERTEX
  8
0
 10
5.57877717
 20
8.36336311
  0
VERTEX
  8
0
 10
5.56893174
 20
8.38599133
  0
VERTEX
  8
0
 10
5.56078251
 20
8.40928143
  0
VERTEX
  8
0
 10
5.55415147
 20
8.43314136
  0
VERTEX
  8
0
 10
5.54886063
 20
8.45747911
  0
VERTEX
  8
0
 10
5.54473198
 20
8.48220263
  0
VERTEX
  8
0
 10
5.54158751
 20
8.50721988
  0
VERTEX
  8
0
 10
5.53924923
 20
8.53243883
  0
VERTEX
  8
0
 10
5.53627921
 20
8.58311371
  0
VERTEX
  8
0
 10
5.53439788
 20
8.63349098
  0
VERTEX
  8
0
 10
5.53218123
 20
8.68283436
  0
VERTEX
  8
0
 10
5.53144700
 20
8.69527124
  0
VERTEX
  8
0
 10
5.53153397
 20
8.70756355
  0
VERTEX
  8
0
 10
5.53390994
 20
8.73174709
  0
VERTEX
  8
0
 10
5.53878602
 20
8.75545034
  0
VERTEX
  8
0
 10
5.54563909
 20
8.77873862
  0
VERTEX
  8
0
 10
5.55394603
 20
8.80167726
  0
VERTEX
  8
0
 10
5.56318370
 20
8.82433161
  0
VERTEX
  8
0
 10
5.58235876
 20
8.86904875
  0
SEQEND
  0
POLYLINE
  8
Default_Layer
 66
   1
 39
0.000000
 70
    1
  0
VERTEX
  8
0
 10
8.08231484
 20
8.16321815
  0
VERTEX
  8
0
 10
8.11177924
 20
8.18144394
  0
VERTEX
  8
0
 10
8.14209495
 20
8.19780353
  0
VERTEX
  8
0
 10
8.17318152
 20
8.21233340
  0
VERTEX
  8
0
 10
8.20495850
 20
8.22507000
  0
VERTEX
  8
0
 10
8.23734544
 20
8.23604980
  0
VERTEX
  8
0
 10
8.27026190
 20
8.24530927
  0
VERTEX
  8
0
 10
8.30362743
 20
8.25288487
  0
VERTEX
  8
0
 10
8.33736158
 20
8.25881305
  0
VERTEX
  8
0
 10
8.37138390
 20
8.26313030
  0
VERTEX
  8
0
 10
8.40561395
 20
8.26587307
  0
VERTEX
  8
0
 10
8.43997128
 20
8.26707782
  0
VERTEX
  8
0
 10
8.47437545
 20
8.26678102
  0
VERTEX
  8
0
 10
8.50874600
 20
8.26501913
  0
VERTEX
  8
0
 10
8.54300249
 20
8.26182862
  0
VERTEX
  8
0
 10
8.57706447
 20
8.25724596
  0
VERTEX
  8
0
 10
8.61085149
 20
8.25130760
  0
VERTEX
  8
0
 10
8.59137596
 20
8.24138292
  0
VERTEX
  8
0
 10
8.57154592
 20
8.23251968
  0
VERTEX
  8
0
 10
8.55140440
 20
8.22458683
  0
VERTEX
  8
0
 10
8.53099442
 20
8.21745330
  0
VERTEX
  8
0
 10
8.48954117
 20
8.20505996
  0
VERTEX
  8
0
 10
8.44753033
 20
8.19429119
  0
VERTEX
  8
0
 10
8.40530610
 20
8.18409852
  0
VERTEX
  8
0
 10
8.36321266
 20
8.17343346
  0
VERTEX
  8
0
 10
8.32159418
 20
8.16124755
  0
VERTEX
  8
0
 10
8.30107061
 20
8.15425663
  0
VERTEX
  8
0
 10
8.28079484
 20
8.14649231
  0
VERTEX
  8
0
 10
8.25713526
 20
8.13417434
  0
VERTEX
  8
0
 10
8.23436297
 20
8.12062972
  0
VERTEX
  8
0
 10
8.21243219
 20
8.10594559
  0
VERTEX
  8
0
 10
8.19129712
 20
8.09020908
  0
VERTEX
  8
0
 10
8.17091199
 20
8.07350732
  0
VERTEX
  8
0
 10
8.15123099
 20
8.05592745
  0
VERTEX
  8
0
 10
8.13220834
 20
8.03755661
  0
VERTEX
  8
0
 10
8.11379825
 20
8.01848193
  0
VERTEX
  8
0
 10
8.09595493
 20
7.99879054
  0
VERTEX
  8
0
 10
8.07863259
 20
7.97856959
  0
VERTEX
  8
0
 10
8.04536767
 20
7.93688750
  0
VERTEX
  8
0
 10
8.01363719
 20
7.89413275
  0
VERTEX
  8
0
 10
7.98307483
 20
7.85100241
  0
VERTEX
  8
0
 10
7.90863504
 20
7.85556011
  0
VERTEX
  8
0
 10
7.83418794
 20
7.86116266
  0
VERTEX
  8
0
 10
7.68521238
 20
7.87264007
  0
VERTEX
  8
0
 10
7.61065420
 20
7.87708383
  0
VERTEX
  8
0
 10
7.53602927
 20
7.87971023
  0
VERTEX
  8
0
 10
7.49868713
 20
7.88011830
  0
VERTEX
  8
0
 10
7.46132274
 20
7.87980370
  0
VERTEX
  8
0
 10
7.42393423
 20
7.87867698
  0
VERTEX
  8
0
 10
7.38651975
 20
7.87664870
  0
VERTEX
  8
0
 10
7.33034807
 20
7.87336720
  0
VERTEX
  8
0
 10
7.27446988
 20
7.86779510
  0
VERTEX
  8
0
 10
7.21883809
 20
7.86039162
  0
VERTEX
  8
0
 10
7.16340562
 20
7.85161595
  0
VERTEX
  8
0
 10
7.05295033
 20
7.83178486
  0
VERTEX
  8
0
 10
6.94272736
 20
7.81197544
  0
VERTEX
  8
0
 10
6.97726446
 20
7.83502082
  0
VERTEX
  8
0
 10
7.01263594
 20
7.85671354
  0
VERTEX
  8
0
 10
7.04878732
 20
7.87705739
  0
VERTEX
  8
0
 10
7.08566408
 20
7.89605611
  0
VERTEX
  8
0
 10
7.12321174
 20
7.91371347
  0
VERTEX
  8
0
 10
7.16137580
 20
7.93003323
  0
VERTEX
  8
0
 10
7.20010175
 20
7.94501916
  0
VERTEX
  8
0
 10
7.23933511
 20
7.95867503
  0
VERTEX
  8
0
 10
7.27902137
 20
7.97100458
  0
VERTEX
  8
0
 10
7.31910604
 20
7.98201159
  0
VERTEX
  8
0
 10
7.35953462
 20
7.99169982
  0
VERTEX
  8
0
 10
7.40025261
 20
8.00007303
  0
VERTEX
  8
0
 10
7.44120552
 20
8.00713499
  0
VERTEX
  8
0
 10
7.48233884
 20
8.01288945
  0
VERTEX
  8
0
 10
7.52359808
 20
8.01734019
  0
VERTEX
  8
0
 10
7.56492874
 20
8.02049096
  0
VERTEX
  8
0
 10
7.60542695
 20
8.02295445
  0
VERTEX
  8
0
 10
7.64596687
 20
8.02420033
  0
VERTEX
  8
0
 10
7.72704418
 20
8.02502253
  0
VERTEX
  8
0
 10
7.76751773
 20
8.02559049
  0
VERTEX
  8
0
 10
7.80790534
 20
8.02692411
  0
VERTEX
  8
0
 10
7.84817509
 20
8.02951922
  0
VERTEX
  8
0
 10
7.88829505
 20
8.03387163
  0
VERTEX
  8
0
 10
7.90185621
 20
8.03938346
  0
VERTEX
  8
0
 10
7.91498023
 20
8.04566910
  0
VERTEX
  8
0
 10
7.94012752
 20
8.06019253
  0
VERTEX
  8
0
 10
7.96415834
 20
8.07670336
  0
VERTEX
  8
0
 10
7.98749410
 20
8.09446299
  0
VERTEX
  8
0
 10
8.03376611
 20
8.13077440
  0
VERTEX
  8
0
 10
8.05754518
 20
8.14784902
  0
VERTEX
  8
0
 10
8.08231484
 20
8.16321815
  0
SEQEND
  0
POLYLINE
  8
Default_Layer
 66
   1
 39
0.000000
 70
    1
  0
VERTEX
  8
0
 10
8.97993510
 20
8.02272107
  0
VERTEX
  8
0
 10
8.99683096
 20
8.03403196
  0
VERTEX
  8
0
 10
9.01388834
 20
8.04671205
  0
VERTEX
  8
0
 10
9.03128097
 20
8.05945648
  0
VERTEX
  8
0
 10
9.04918255
 20
8.07096039
  0
VERTEX
  8
0
 10
9.05837848
 20
8.07583939
  0
VERTEX
  8
0
 10
9.06776680
 20
8.07991894
  0
VERTEX
  8
0
 10
9.07736920
 20
8.08303594
  0
VERTEX
  8
0
 10
9.08720742
 20
8.08502728
  0
VERTEX
  8
0
 10
9.09730316
 20
8.08572984
  0
VERTEX
  8
0
 10
9.10767813
 20
8.08498054
  0
VERTEX
  8
0
 10
9.11835405
 20
8.08261625
  0
VERTEX
  8
0
 10
9.12935264
 20
8.07847388
  0
VERTEX
  8
0
 10
9.19456558
 20
8.05408397
  0
VERTEX
  8
0
 10
9.22753566
 20
8.04077768
  0
VERTEX
  8
0
 10
9.26043501
 20
8.02657857
  0
VERTEX
  8
0
 10
9.29302878
 20
8.01137268
  0
VERTEX
  8
0
 10
9.32508212
 20
7.99504608
  0
VERTEX
  8
0
 10
9.35636018
 20
7.97748482
  0
VERTEX
  8
0
 10
9.38662810
 20
7.95857494
  0
VERTEX
  8
0
 10
9.41565104
 20
7.93820249
  0
VERTEX
  8
0
 10
9.44319414
 20
7.91625354
  0
VERTEX
  8
0
 10
9.46902256
 20
7.89261414
  0
VERTEX
  8
0
 10
9.49290144
 20
7.86717032
  0
VERTEX
  8
0
 10
9.50403641
 20
7.85373616
  0
VERTEX
  8
0
 10
9.51459593
 20
7.83980816
  0
VERTEX
  8
0
 10
9.52455064
 20
7.82537209
  0
VERTEX
  8
0
 10
9.53387118
 20
7.81041369
  0
VERTEX
  8
0
 10
9.54252821
 20
7.79491874
  0
VERTEX
  8
0
 10
9.55049235
 20
7.77887298
  0
VERTEX
  8
0
 10
9.55773425
 20
7.76226217
  0
VERTEX
  8
0
 10
9.56422457
 20
7.74507207
  0
VERTEX
  8
0
 10
9.53123196
 20
7.76936665
  0
VERTEX
  8
0
 10
9.49746628
 20
7.79215306
  0
VERTEX
  8
0
 10
9.46299246
 20
7.81355614
  0
VERTEX
  8
0
 10
9.42787542
 20
7.83370074
  0
VERTEX
  8
0
 10
9.39218011
 20
7.85271173
  0
VERTEX
  8
0
 10
9.35597144
 20
7.87071394
  0
VERTEX
  8
0
 10
9.31931436
 20
7.88783223
  0
VERTEX
  8
0
 10
9.28227378
 20
7.90419145
  0
VERTEX
  8
0
 10
9.20730187
 20
7.93513211
  0
VERTEX
  8
0
 10
9.13157516
 20
7.96453472
  0
VERTEX
  8
0
 10
9.05561309
 20
7.99339810
  0
VERTEX
  8
0
 10
8.97993510
 20
8.02272107
  0
SEQEND
  0
POLYLINE
  8
Default_Layer
 66
   1
 39
0.000000
 70
    1
  0
VERTEX
  8
0
 10
5.72174079
 20
7.97477365
  0
VERTEX
  8
0
 10
5.75359027
 20
7.97166202
  0
VERTEX
  8
0
 10
5.78527955
 20
7.96774026
  0
VERTEX
  8
0
 10
5.84823511
 20
7.95776765
  0
VERTEX
  8
0
 10
5.91072263
 20
7.94545850
  0
VERTEX
  8
0
 10
5.97285729
 20
7.93141548
  0
VERTEX
  8
0
 10
6.09652876
 20
7.90053858
  0
VERTEX
  8
0
 10
6.15829592
 20
7.88491005
  0
VERTEX
  8
0
 10
6.22017092
 20
7.86995836
  0
VERTEX
  8
0
 10
6.28880888
 20
7.85385078
  0
VERTEX
  8
0
 10
6.35678490
 20
7.83573393
  0
VERTEX
  8
0
 10
6.42416539
 20
7.81581164
  0
VERTEX
  8
0
 10
6.49101674
 20
7.79428771
  0
VERTEX
  8
0
 10
6.55740535
 20
7.77136598
  0
VERTEX
  8
0
 10
6.62339763
 20
7.74725025
  0
VERTEX
  8
0
 10
6.68905996
 20
7.72214436
  0
VERTEX
  8
0
 10
6.75445875
 20
7.69625212
  0
VERTEX
  8
0
 10
6.88473128
 20
7.64292386
  0
VERTEX
  8
0
 10
7.01474641
 20
7.58889605
  0
VERTEX
  8
0
 10
7.14503531
 20
7.53579923
  0
VERTEX
  8
0
 10
7.21044843
 20
7.51010949
  0
VERTEX
  8
0
 10
7.27612918
 20
7.48526396
  0
VERTEX
  8
0
 10
7.43121812
 20
7.40972072
  0
VERTEX
  8
0
 10
7.50831248
 20
7.37110696
  0
VERTEX
  8
0
 10
7.58499949
 20
7.33178596
  0
VERTEX
  8
0
 10
7.66119870
 20
7.29164840
  0
VERTEX
  8
0
 10
7.73682964
 20
7.25058492
  0
VERTEX
  8
0
 10
7.81181188
 20
7.20848618
  0
VERTEX
  8
0
 10
7.88606494
 20
7.16524282
  0
VERTEX
  8
0
 10
7.79909055
 20
7.10837496
  0
VERTEX
  8
0
 10
7.60609957
 20
7.19901143
  0
VERTEX
  8
0
 10
7.41279908
 20
7.28894826
  0
VERTEX
  8
0
 10
7.21909732
 20
7.37797228
  0
VERTEX
  8
0
 10
7.02490249
 20
7.46587035
  0
VERTEX
  8
0
 10
6.83012283
 20
7.55242930
  0
VERTEX
  8
0
 10
6.63466654
 20
7.63743599
  0
VERTEX
  8
0
 10
6.43844186
 20
7.72067725
  0
VERTEX
  8
0
 10
6.24135699
 20
7.80193993
  0
VERTEX
  8
0
 10
6.17671331
 20
7.82430541
  0
VERTEX
  8
0
 10
6.11131002
 20
7.84449765
  0
VERTEX
  8
0
 10
5.97956767
 20
7.88227390
  0
VERTEX
  8
0
 10
5.91390010
 20
7.90181363
  0
VERTEX
  8
0
 10
5.84881593
 20
7.92309159
  0
VERTEX
  8
0
 10
5.81659754
 20
7.93468799
  0
VERTEX
  8
0
 10
5.78465091
 20
7.94708564
  0
VERTEX
  8
0
 10
5.75301800
 20
7.96040679
  0
VERTEX
  8
0
 10
5.72174079
 20
7.97477365
  0
SEQEND
  0
POLYLINE
  8
Default_Layer
 66
   1
 39
0.000000
 70
    1
  0
VERTEX
  8
0
 10
4.60445444
 20
7.68262892
  0
VERTEX
  8
0
 10
4.63771898
 20
7.69272875
  0
VERTEX
  8
0
 10
4.67124563
 20
7.70111168
  0
VERTEX
  8
0
 10
4.70500549
 20
7.70790882
  0
VERTEX
  8
0
 10
4.73896962
 20
7.71325127
  0
VERTEX
  8
0
 10
4.77310912
 20
7.71727016
  0
VERTEX
  8
0
 10
4.80739506
 20
7.72009660
  0
VERTEX
  8
0
 10
4.84179853
 20
7.72186168
  0
VERTEX
  8
0
 10
4.87629061
 20
7.72269654
  0
VERTEX
  8
0
 10
4.94542493
 20
7.72210000
  0
VERTEX
  8
0
 10
5.01456667
 20
7.71935586
  0
VERTEX
  8
0
 10
5.15194705
 20
7.71162038
  0
VERTEX
  8
0
 10
5.20884686
 20
7.70718763
  0
VERTEX
  8
0
 10
5.26560249
 20
7.70176637
  0
VERTEX
  8
0
 10
5.32222003
 20
7.69541631
  0
VERTEX
  8
0
 10
5.37870556
 20
7.68819715
  0
VERTEX
  8
0
 10
5.43506518
 20
7.68016862
  0
VERTEX
  8
0
 10
5.49130497
 20
7.67139042
  0
VERTEX
  8
0
 10
5.60344945
 20
7.65182383
  0
VERTEX
  8
0
 10
5.71518770
 20
7.62997507
  0
VERTEX
  8
0
 10
5.82656844
 20
7.60632181
  0
VERTEX
  8
0
 10
5.93764039
 20
7.58134173
  0
VERTEX
  8
0
 10
6.04845226
 20
7.55551251
  0
VERTEX
  8
0
 10
6.11840505
 20
7.54224567
  0
VERTEX
  8
0
 10
6.18799861
 20
7.52757037
  0
VERTEX
  8
0
 10
6.25725865
 20
7.51159600
  0
VERTEX
  8
0
 10
6.32621086
 20
7.49443196
  0
VERTEX
  8
0
 10
6.39488092
 20
7.47618766
  0
VERTEX
  8
0
 10
6.46329452
 20
7.45697249
  0
VERTEX
  8
0
 10
6.53147735
 20
7.43689585
  0
VERTEX
  8
0
 10
6.59945511
 20
7.41606716
  0
VERTEX
  8
0
 10
6.73489817
 20
7.37259117
  0
VERTEX
  8
0
 10
6.86982920
 20
7.32741974
  0
VERTEX
  8
0
 10
7.13897726
 20
7.23549137
  0
VERTEX
  8
0
 10
7.27665858
 20
7.19475077
  0
VERTEX
  8
0
 10
7.34536742
 20
7.17336073
  0
VERTEX
  8
0
 10
7.41365358
 20
7.15061362
  0
VERTEX
  8
0
 10
7.48126596
 20
7.12600154
  0
VERTEX
  8
0
 10
7.54795346
 20
7.09901658
  0
VERTEX
  8
0
 10
7.58087191
 20
7.08447553
  0
VERTEX
  8
0
 10
7.61346498
 20
7.06915080
  0
VERTEX
  8
0
 10
7.64570128
 20
7.05297889
  0
VERTEX
  8
0
 10
7.67754942
 20
7.03589630
  0
VERTEX
  8
0
 10
7.61510627
 20
6.96564776
  0
VERTEX
  8
0
 10
7.57984092
 20
6.97751806
  0
VERTEX
  8
0
 10
7.54482612
 20
6.99009407
  0
VERTEX
  8
0
 10
7.47538938
 20
7.01692297
  0
VERTEX
  8
0
 10
7.40647841
 20
7.04525397
  0
VERTEX
  8
0
 10
7.33777559
 20
7.07420658
  0
VERTEX
  8
0
 10
7.26896329
 20
7.10290032
  0
VERTEX
  8
0
 10
7.19972388
 20
7.13045471
  0
VERTEX
  8
0
 10
7.12973973
 20
7.15598927
  0
VERTEX
  8
0
 10
7.09436912
 20
7.16772395
  0
VERTEX
  8
0
 10
7.05869321
 20
7.17862350
  0
VERTEX
  8
0
 10
6.98756933
 20
7.19860074
  0
VERTEX
  8
0
 10
6.91665681
 20
7.21928021
  0
VERTEX
  8
0
 10
6.77532104
 20
7.26225018
  0
VERTEX
  8
0
 10
6.49359254
 20
7.35116504
  0
VERTEX
  8
0
 10
6.35262041
 20
7.39512750
  0
VERTEX
  8
0
 10
6.21119010
 20
7.43743835
  0
VERTEX
  8
0
 10
6.14021258
 20
7.45766467
  0
VERTEX
  8
0
 10
6.06901189
 20
7.47710638
  0
VERTEX
  8
0
 10
5.99755179
 20
7.49563958
  0
VERTEX
  8
0
 10
5.92579608
 20
7.51314037
  0
VERTEX
  8
0
 10
5.80037619
 20
7.53512235
  0
VERTEX
  8
0
 10
5.67512200
 20
7.55869953
  0
VERTEX
  8
0
 10
5.54988752
 20
7.58258227
  0
VERTEX
  8
0
 10
5.42452673
 20
7.60548096
  0
VERTEX
  8
0
 10
5.36175334
 20
7.61615829
  0
VERTEX
  8
0
 10
5.29889362
 20
7.62610599
  0
VERTEX
  8
0
 10
5.23592932
 20
7.63516287
  0
VERTEX
  8
0
 10
5.17284219
 20
7.64316772
  0
VERTEX
  8
0
 10
5.10961397
 20
7.64995935
  0
VERTEX
  8
0
 10
5.04622641
 20
7.65537655
  0
VERTEX
  8
0
 10
4.98266128
 20
7.65925812
  0
VERTEX
  8
0
 10
4.91890030
 20
7.66144285
  0
VERTEX
  8
0
 10
4.83995616
 20
7.66300323
  0
VERTEX
  8
0
 10
4.76112926
 20
7.66618184
  0
VERTEX
  8
0
 10
4.72180879
 20
7.66878697
  0
VERTEX
  8
0
 10
4.68257642
 20
7.67228747
  0
VERTEX
  8
0
 10
4.64345178
 20
7.67684691
  0
VERTEX
  8
0
 10
4.60445444
 20
7.68262892
  0
SEQEND
  0
POLYLINE
  8
Default_Layer
 66
   1
 39
0.000000
 70
    1
  0
VERTEX
  8
0
 10
7.95631348
 20
7.50868014
  0
VERTEX
  8
0
 10
8.09012023
 20
7.52317588
  0
VERTEX
  8
0
 10
8.09097863
 20
7.46580676
  0
VERTEX
  8
0
 10
8.09235034
 20
7.40832508
  0
VERTEX
  8
0
 10
7.99422539
 20
7.39382935
  0
VERTEX
  8
0
 10
7.95631348
 20
7.50868014
  0
SEQEND
  0
POLYLINE
  8
Default_Layer
 66
   1
 39
0.000000
 70
    1
  0
VERTEX
  8
0
 10
7.76006358
 20
7.43062621
  0
VERTEX
  8
0
 10
7.87937460
 20
7.43174126
  0
VERTEX
  8
0
 10
7.86974171
 20
7.38308917
  0
VERTEX
  8
0
 10
7.85818853
 20
7.33473137
  0
VERTEX
  8
0
 10
7.80470539
 20
7.32222183
  0
VERTEX
  8
0
 10
7.75114313
 20
7.31243025
  0
VERTEX
  8
0
 10
7.75608841
 20
7.37157841
  0
VERTEX
  8
0
 10
7.76006358
 20
7.43062621
  0
SEQEND
  0
POLYLINE
  8
Default_Layer
 66
   1
 39
0.000000
 70
    1
  0
VERTEX
  8
0
 10
8.40456609
 20
7.28901407
  0
VERTEX
  8
0
 10
8.42937705
 20
7.28713263
  0
VERTEX
  8
0
 10
8.44123787
 20
7.28515344
  0
VERTEX
  8
0
 10
8.45269104
 20
7.28246060
  0
VERTEX
  8
0
 10
8.46370319
 20
7.27903811
  0
VERTEX
  8
0
 10
8.47424091
 20
7.27486998
  0
VERTEX
  8
0
 10
8.48427081
 20
7.26994021
  0
VERTEX
  8
0
 10
8.49375950
 20
7.26423281
  0
VERTEX
  8
0
 10
8.50267359
 20
7.25773177
  0
VERTEX
  8
0
 10
8.51097968
 20
7.25042110
  0
VERTEX
  8
0
 10
8.51864438
 20
7.24228480
  0
VERTEX
  8
0
 10
8.52563429
 20
7.23330688
  0
VERTEX
  8
0
 10
8.53191603
 20
7.22347133
  0
VERTEX
  8
0
 10
8.53745619
 20
7.21276217
  0
VERTEX
  8
0
 10
8.54222139
 20
7.20116340
  0
VERTEX
  8
0
 10
8.54617823
 20
7.18865901
  0
VERTEX
  8
0
 10
8.46589418
 20
7.12064057
  0
VERTEX
  8
0
 10
8.42695104
 20
7.15377673
  0
VERTEX
  8
0
 10
8.38672519
 20
7.18419878
  0
VERTEX
  8
0
 10
8.40456609
 20
7.28901407
  0
SEQEND
  0
POLYLINE
  8
Default_Layer
 66
   1
 39
0.000000
 70
    1
  0
VERTEX
  8
0
 10
4.66801265
 20
7.19869451
  0
VERTEX
  8
0
 10
4.71407983
 20
7.20992743
  0
VERTEX
  8
0
 10
4.76028114
 20
7.22020268
  0
VERTEX
  8
0
 10
4.80660899
 20
7.22954916
  0
VERTEX
  8
0
 10
4.85305581
 20
7.23799581
  0
VERTEX
  8
0
 10
4.89961403
 20
7.24557153
  0
VERTEX
  8
0
 10
4.94627607
 20
7.25230524
  0
VERTEX
  8
0
 10
4.99303434
 20
7.25822587
  0
VERTEX
  8
0
 10
5.03988129
 20
7.26336232
  0
VERTEX
  8
0
 10
5.13381086
 20
7.27139838
  0
VERTEX
  8
0
 10
5.22800417
 20
7.27664477
  0
VERTEX
  8
0
 10
5.32240061
 20
7.27933281
  0
VERTEX
  8
0
 10
5.41693957
 20
7.27969385
  0
VERTEX
  8
0
 10
5.51156043
 20
7.27795924
  0
VERTEX
  8
0
 10
5.60620259
 20
7.27436030
  0
VERTEX
  8
0
 10
5.70080543
 20
7.26912838
  0
VERTEX
  8
0
 10
5.79530834
 20
7.26249482
  0
VERTEX
  8
0
 10
5.88965071
 20
7.25469095
  0
VERTEX
  8
0
 10
5.98377192
 20
7.24594812
  0
VERTEX
  8
0
 10
6.17110845
 20
7.22657092
  0
VERTEX
  8
0
 10
6.24206138
 20
7.22182340
  0
VERTEX
  8
0
 10
6.31287649
 20
7.21576264
  0
VERTEX
  8
0
 10
6.38354330
 20
7.20842139
  0
VERTEX
  8
0
 10
6.45405128
 20
7.19983242
  0
VERTEX
  8
0
 10
6.52438993
 20
7.19002847
  0
VERTEX
  8
0
 10
6.59454875
 20
7.17904230
  0
VERTEX
  8
0
 10
6.66451723
 20
7.16690667
  0
VERTEX
  8
0
 10
6.73428486
 20
7.15365434
  0
VERTEX
  8
0
 10
6.80384113
 20
7.13931806
  0
VERTEX
  8
0
 10
6.87317554
 20
7.12393058
  0
VERTEX
  8
0
 10
6.94227759
 20
7.10752467
  0
VERTEX
  8
0
 10
7.01113676
 20
7.09013308
  0
VERTEX
  8
0
 10
7.07974255
 20
7.07178857
  0
VERTEX
  8
0
 10
7.14808445
 20
7.05252389
  0
VERTEX
  8
0
 10
7.21615196
 20
7.03237181
  0
VERTEX
  8
0
 10
7.28393457
 20
7.01136506
  0
VERTEX
  8
0
 10
7.29905611
 20
7.00645255
  0
VERTEX
  8
0
 10
7.31364236
 20
7.00062051
  0
VERTEX
  8
0
 10
7.32772842
 20
6.99394152
  0
VERTEX
  8
0
 10
7.34134939
 20
6.98648816
  0
VERTEX
  8
0
 10
7.35454036
 20
6.97833299
  0
VERTEX
  8
0
 10
7.36733644
 20
6.96954859
  0
VERTEX
  8
0
 10
7.39188429
 20
6.95038237
  0
VERTEX
  8
0
 10
7.41527374
 20
6.92957009
  0
VERTEX
  8
0
 10
7.43778558
 20
6.90769231
  0
VERTEX
  8
0
 10
7.48129952
 20
6.86306258
  0
VERTEX
  8
0
 10
7.45512055
 20
6.85544399
  0
VERTEX
  8
0
 10
7.42883080
 20
6.84951274
  0
VERTEX
  8
0
 10
7.40244136
 20
6.84510105
  0
VERTEX
  8
0
 10
7.37596330
 20
6.84204111
  0
VERTEX
  8
0
 10
7.34940771
 20
6.84016514
  0
VERTEX
  8
0
 10
7.32278567
 20
6.83930534
  0
VERTEX
  8
0
 10
7.26938654
 20
6.83996307
  0
VERTEX
  8
0
 10
7.21585458
 20
6.84267194
  0
VERTEX
  8
0
 10
7.16227841
 20
6.84608961
  0
VERTEX
  8
0
 10
7.10874668
 20
6.84887372
  0
VERTEX
  8
0
 10
7.05534804
 20
6.84968191
  0
VERTEX
  8
0
 10
6.96397175
 20
6.84854980
  0
VERTEX
  8
0
 10
6.87262811
 20
6.84610704
  0
VERTEX
  8
0
 10
6.78133634
 20
6.84235221
  0
VERTEX
  8
0
 10
6.69011566
 20
6.83728393
  0
VERTEX
  8
0
 10
6.59898527
 20
6.83090077
  0
VERTEX
  8
0
 10
6.50796439
 20
6.82320135
  0
VERTEX
  8
0
 10
6.41707223
 20
6.81418424
  0
VERTEX
  8
0
 10
6.32632800
 20
6.80384805
  0
VERTEX
  8
0
 10
6.23575091
 20
6.79219138
  0
VERTEX
  8
0
 10
6.14536018
 20
6.77921281
  0
VERTEX
  8
0
 10
6.05517501
 20
6.76491095
  0
VERTEX
  8
0
 10
5.96521461
 20
6.74928439
  0
VERTEX
  8
0
 10
5.87549821
 20
6.73233172
  0
VERTEX
  8
0
 10
5.78604501
 20
6.71405154
  0
VERTEX
  8
0
 10
5.69687422
 20
6.69444244
  0
VERTEX
  8
0
 10
5.60800505
 20
6.67350303
  0
VERTEX
  8
0
 10
5.54736982
 20
6.65934383
  0
VERTEX
  8
0
 10
5.48696318
 20
6.64394054
  0
VERTEX
  8
0
 10
5.42663159
 20
6.62818573
  0
VERTEX
  8
0
 10
5.36622150
 20
6.61297193
  0
VERTEX
  8
0
 10
5.30557938
 20
6.59919172
  0
VERTEX
  8
0
 10
5.24455170
 20
6.58773763
  0
VERTEX
  8
0
 10
5.21384529
 20
6.58316181
  0
VERTEX
  8
0
 10
5.18298491
 20
6.57950223
  0
VERTEX
  8
0
 10
5.15195137
 20
6.57687046
  0
VERTEX
  8
0
 10
5.12072548
 20
6.57537808
  0
VERTEX
  8
0
 10
5.18999199
 20
6.60676533
  0
VERTEX
  8
0
 10
5.26001676
 20
6.63610596
  0
VERTEX
  8
0
 10
5.33074699
 20
6.66348934
  0
VERTEX
  8
0
 10
5.40212991
 20
6.68900482
  0
VERTEX
  8
0
 10
5.47411271
 20
6.71274175
  0
VERTEX
  8
0
 10
5.54664263
 20
6.73478947
  0
VERTEX
  8
0
 10
5.61966686
 20
6.75523736
  0
VERTEX
  8
0
 10
5.69313263
 20
6.77417475
  0
VERTEX
  8
0
 10
5.76698714
 20
6.79169100
  0
VERTEX
  8
0
 10
5.84117761
 20
6.80787547
  0
VERTEX
  8
0
 10
5.91565125
 20
6.82281750
  0
VERTEX
  8
0
 10
5.99035527
 20
6.83660646
  0
VERTEX
  8
0
 10
6.06523689
 20
6.84933168
  0
VERTEX
  8
0
 10
6.14024332
 20
6.86108254
  0
VERTEX
  8
0
 10
6.21532178
 20
6.87194837
  0
VERTEX
  8
0
 10
6.29041947
 20
6.88201854
  0
VERTEX
  8
0
 10
6.39932936
 20
6.89120479
  0
VERTEX
  8
0
 10
6.50839561
 20
6.89840852
  0
VERTEX
  8
0
 10
6.61757238
 20
6.90430426
  0
VERTEX
  8
0
 10
6.72681378
 20
6.90956653
  0
VERTEX
  8
0
 10
6.83607396
 20
6.91486986
  0
VERTEX
  8
0
 10
6.94530705
 20
6.92088875
  0
VERTEX
  8
0
 10
7.05446719
 20
6.92829774
  0
VERTEX
  8
0
 10
7.16350850
 20
6.93777135
  0
VERTEX
  8
0
 10
7.10514812
 20
6.96191895
  0
VERTEX
  8
0
 10
7.04607802
 20
6.98378887
  0
VERTEX
  8
0
 10
6.98636350
 20
7.00355159
  0
VERTEX
  8
0
 10
6.92606987
 20
7.02137762
  0
VERTEX
  8
0
 10
6.86526241
 20
7.03743745
  0
VERTEX
  8
0
 10
6.80400644
 20
7.05190156
  0
VERTEX
  8
0
 10
6.74236724
 20
7.06494045
  0
VERTEX
  8
0
 10
6.68041012
 20
7.07672461
  0
VERTEX
  8
0
 10
6.61820038
 20
7.08742455
  0
VERTEX
  8
0
 10
6.55580332
 20
7.09721073
  0
VERTEX
  8
0
 10
6.43070843
 20
7.11472386
  0
VERTEX
  8
0
 10
6.18114396
 20
7.14628687
  0
VERTEX
  8
0
 10
6.08712516
 20
7.15875346
  0
VERTEX
  8
0
 10
5.99296683
 20
7.16893839
  0
VERTEX
  8
0
 10
5.89868309
 20
7.17706797
  0
VERTEX
  8
0
 10
5.80428808
 20
7.18336854
  0
VERTEX
  8
0
 10
5.70979593
 20
7.18806641
  0
VERTEX
  8
0
 10
5.61522076
 20
7.19138792
  0
VERTEX
  8
0
 10
5.52057673
 20
7.19355939
  0
VERTEX
  8
0
 10
5.42587794
 20
7.19480715
  0
VERTEX
  8
0
 10
5.23637266
 20
7.19543681
  0
VERTEX
  8
0
 10
5.04681798
 20
7.19508753
  0
VERTEX
  8
0
 10
4.85732696
 20
7.19556989
  0
VERTEX
  8
0
 10
4.76264065
 20
7.19668876
  0
VERTEX
  8
0
 10
4.66801265
 20
7.19869451
  0
SEQEND
  0
POLYLINE
  8
Default_Layer
 66
   1
 39
0.000000
 70
    1
  0
VERTEX
  8
0
 10
8.09012023
 20
7.20203968
  0
VERTEX
  8
0
 10
8.09735568
 20
7.20783773
  0
VERTEX
  8
0
 10
8.10492325
 20
7.21263118
  0
VERTEX
  8
0
 10
8.11278796
 20
7.21651743
  0
VERTEX
  8
0
 10
8.12091485
 20
7.21959388
  0
VERTEX
  8
0
 10
8.13781524
 20
7.22370697
  0
VERTEX
  8
0
 10
8.15534465
 20
7.22574969
  0
VERTEX
  8
0
 10
8.17322331
 20
7.22650124
  0
VERTEX
  8
0
 10
8.19117146
 20
7.22674084
  0
VERTEX
  8
0
 10
8.20890931
 20
7.22724770
  0
VERTEX
  8
0
 10
8.22615709
 20
7.22880103
  0
VERTEX
  8
0
 10
8.22554014
 20
7.21484070
  0
VERTEX
  8
0
 10
8.22381280
 20
7.20170485
  0
VERTEX
  8
0
 10
8.22101559
 20
7.18938072
  0
VERTEX
  8
0
 10
8.21718905
 20
7.17785553
  0
VERTEX
  8
0
 10
8.21237368
 20
7.16711653
  0
VERTEX
  8
0
 10
8.20661000
 20
7.15715094
  0
VERTEX
  8
0
 10
8.19993854
 20
7.14794600
  0
VERTEX
  8
0
 10
8.19239982
 20
7.13948894
  0
VERTEX
  8
0
 10
8.18403436
 20
7.13176700
  0
VERTEX
  8
0
 10
8.17488267
 20
7.12476742
  0
VERTEX
  8
0
 10
8.16498528
 20
7.11847742
  0
VERTEX
  8
0
 10
8.15438271
 20
7.11288424
  0
VERTEX
  8
0
 10
8.14311548
 20
7.10797511
  0
VERTEX
  8
0
 10
8.13122411
 20
7.10373727
  0
VERTEX
  8
0
 10
8.11874911
 20
7.10015796
  0
VERTEX
  8
0
 10
8.10573102
 20
7.09722439
  0
VERTEX
  8
0
 10
8.09681833
 20
7.14980461
  0
VERTEX
  8
0
 10
8.09012023
 20
7.20203968
  0
SEQEND
  0
POLYLINE
  8
Default_Layer
 66
   1
 39
0.000000
 70
    1
  0
VERTEX
  8
0
 10
7.71323122
 20
6.93219607
  0
VERTEX
  8
0
 10
7.72945200
 20
6.94261492
  0
VERTEX
  8
0
 10
7.74643299
 20
6.95116669
  0
VERTEX
  8
0
 10
7.76402553
 20
6.95817264
  0
VERTEX
  8
0
 10
7.78208097
 20
6.96395400
  0
VERTEX
  8
0
 10
7.81898587
 20
6.97312797
  0
VERTEX
  8
0
 10
7.85595842
 20
6.98125855
  0
VERTEX
  8
0
 10
7.85595842
 20
6.85860236
  0
VERTEX
  8
0
 10
7.84573493
 20
6.86101108
  0
VERTEX
  8
0
 10
7.83484533
 20
6.86283832
  0
VERTEX
  8
0
 10
7.81178768
 20
6.86549717
  0
VERTEX
  8
0
 10
7.78822521
 20
6.86807650
  0
VERTEX
  8
0
 10
7.76559765
 20
6.87207390
  0
VERTEX
  8
0
 10
7.75508438
 20
6.87507237
  0
VERTEX
  8
0
 10
7.74534473
 20
6.87898697
  0
VERTEX
  8
0
 10
7.73655869
 20
6.88400487
  0
VERTEX
  8
0
 10
7.72890620
 20
6.89031329
  0
VERTEX
  8
0
 10
7.72256724
 20
6.89809942
  0
VERTEX
  8
0
 10
7.71772178
 20
6.90755046
  0
VERTEX
  8
0
 10
7.71454979
 20
6.91885361
  0
VERTEX
  8
0
 10
7.71323122
 20
6.93219607
  0
SEQEND
  0
POLYLINE
  8
Default_Layer
 66
   1
 39
0.000000
 70
    1
  0
VERTEX
  8
0
 10
8.47815980
 20
6.89316910
  0
VERTEX
  8
0
 10
8.50245165
 20
6.90782321
  0
VERTEX
  8
0
 10
8.52755188
 20
6.92133204
  0
VERTEX
  8
0
 10
8.57851486
 20
6.94669180
  0
VERTEX
  8
0
 10
8.57759427
 20
6.87282663
  0
VERTEX
  8
0
 10
8.57516969
 20
6.79950438
  0
VERTEX
  8
0
 10
8.56027858
 20
6.80853750
  0
VERTEX
  8
0
 10
8.54358274
 20
6.81688074
  0
VERTEX
  8
0
 10
8.52637951
 20
6.82526118
  0
VERTEX
  8
0
 10
8.50996625
 20
6.83440590
  0
VERTEX
  8
0
 10
8.50246127
 20
6.83949208
  0
VERTEX
  8
0
 10
8.49564030
 20
6.84504198
  0
VERTEX
  8
0
 10
8.48966549
 20
6.85114649
  0
VERTEX
  8
0
 10
8.48469901
 20
6.85789649
  0
VERTEX
  8
0
 10
8.48090303
 20
6.86538287
  0
VERTEX
  8
0
 10
8.47843972
 20
6.87369650
  0
VERTEX
  8
0
 10
8.47747126
 20
6.88292829
  0
VERTEX
  8
0
 10
8.47815980
 20
6.89316910
  0
SEQEND
  0
POLYLINE
  8
Default_Layer
 66
   1
 39
0.000000
 70
    1
  0
VERTEX
  8
0
 10
8.14810315
 20
6.83407112
  0
VERTEX
  8
0
 10
8.20261400
 20
6.83557539
  0
VERTEX
  8
0
 10
8.25737866
 20
6.83630124
  0
VERTEX
  8
0
 10
8.24399799
 20
6.70806977
  0
VERTEX
  8
0
 10
8.20060120
 20
6.70990788
  0
VERTEX
  8
0
 10
8.15702360
 20
6.71029988
  0
VERTEX
  8
0
 10
8.15292457
 20
6.77229004
  0
VERTEX
  8
0
 10
8.14810315
 20
6.83407112
  0
SEQEND
  0
POLYLINE
  8
Default_Layer
 66
   1
 39
0.000000
 70
    1
  0
VERTEX
  8
0
 10
6.28707430
 20
6.52966077
  0
VERTEX
  8
0
 10
6.38037433
 20
6.55960273
  0
VERTEX
  8
0
 10
6.47430823
 20
6.58846765
  0
VERTEX
  8
0
 10
6.56883223
 20
6.61601514
  0
VERTEX
  8
0
 10
6.66390255
 20
6.64200480
  0
VERTEX
  8
0
 10
6.75947542
 20
6.66619624
  0
VERTEX
  8
0
 10
6.85550708
 20
6.68834906
  0
VERTEX
  8
0
 10
6.95195375
 20
6.70822287
  0
VERTEX
  8
0
 10
7.04877166
 20
6.72557728
  0
VERTEX
  8
0
 10
7.14591705
 20
6.74017189
  0
VERTEX
  8
0
 10
7.19459886
 20
6.74635914
  0
VERTEX
  8
0
 10
7.24334613
 20
6.75176630
  0
VERTEX
  8
0
 10
7.29215338
 20
6.75636331
  0
VERTEX
  8
0
 10
7.34101515
 20
6.76012012
  0
VERTEX
  8
0
 10
7.38992595
 20
6.76300669
  0
VERTEX
  8
0
 10
7.43888032
 20
6.76499297
  0
VERTEX
  8
0
 10
7.48787279
 20
6.76604890
  0
VERTEX
  8
0
 10
7.53689788
 20
6.76614443
  0
VERTEX
  8
0
 10
7.58595013
 20
6.76524952
  0
VERTEX
  8
0
 10
7.63502406
 20
6.76333413
  0
VERTEX
  8
0
 10
7.68411420
 20
6.76036819
  0
VERTEX
  8
0
 10
7.73321508
 20
6.75632165
  0
VERTEX
  8
0
 10
7.78232123
 20
6.75116448
  0
VERTEX
  8
0
 10
7.83142718
 20
6.74486662
  0
VERTEX
  8
0
 10
7.84375956
 20
6.74089742
  0
VERTEX
  8
0
 10
7.85528132
 20
6.73537448
  0
VERTEX
  8
0
 10
7.86614930
 20
6.72862621
  0
VERTEX
  8
0
 10
7.87652032
 20
6.72098099
  0
VERTEX
  8
0
 10
7.89639882
 20
6.70431335
  0
VERTEX
  8
0
 10
7.91617146
 20
6.68799876
  0
VERTEX
  8
0
 10
7.87485629
 20
6.68359881
  0
VERTEX
  8
0
 10
7.83346751
 20
6.68006987
  0
VERTEX
  8
0
 10
7.75050698
 20
6.67511849
  0
VERTEX
  8
0
 10
7.66736562
 20
6.67213146
  0
VERTEX
  8
0
 10
7.58411919
 20
6.67009566
  0
VERTEX
  8
0
 10
7.50084346
 20
6.66799795
  0
VERTEX
  8
0
 10
7.41761416
 20
6.66482517
  0
VERTEX
  8
0
 10
7.33450707
 20
6.65956420
  0
VERTEX
  8
0
 10
7.29302303
 20
6.65583404
  0
VERTEX
  8
0
 10
7.25159794
 20
6.65120190
  0
VERTEX
  8
0
 10
7.12389740
 20
6.63479102
  0
VERTEX
  8
0
 10
6.99607591
 20
6.61790856
  0
VERTEX
  8
0
 10
6.86841679
 20
6.59957053
  0
VERTEX
  8
0
 10
6.80473664
 20
6.58954818
  0
VERTEX
  8
0
 10
6.74120332
 20
6.57879294
  0
VERTEX
  8
0
 10
6.67785224
 20
6.56718180
  0
VERTEX
  8
0
 10
6.61471881
 20
6.55459177
  0
VERTEX
  8
0
 10
6.55183845
 20
6.54089984
  0
VERTEX
  8
0
 10
6.48924656
 20
6.52598303
  0
VERTEX
  8
0
 10
6.42697857
 20
6.50971832
  0
VERTEX
  8
0
 10
6.36506988
 20
6.49198272
  0
VERTEX
  8
0
 10
6.30355590
 20
6.47265322
  0
VERTEX
  8
0
 10
6.24247205
 20
6.45160683
  0
VERTEX
  8
0
 10
6.20007637
 20
6.43802816
  0
VERTEX
  8
0
 10
6.15810172
 20
6.42317352
  0
VERTEX
  8
0
 10
6.07474622
 20
6.39150497
  0
VERTEX
  8
0
 10
6.03303070
 20
6.37562535
  0
VERTEX
  8
0
 10
5.99106689
 20
6.36033836
  0
VERTEX
  8
0
 10
5.94868746
 20
6.34611115
  0
VERTEX
  8
0
 10
5.90572507
 20
6.33341087
  0
VERTEX
  8
0
 10
5.92710325
 20
6.35016242
  0
VERTEX
  8
0
 10
5.94893127
 20
6.36618437
  0
VERTEX
  8
0
 10
5.97118292
 20
6.38150490
  0
VERTEX
  8
0
 10
5.99383198
 20
6.39615218
  0
VERTEX
  8
0
 10
6.04021743
 20
6.42353967
  0
VERTEX
  8
0
 10
6.08787787
 20
6.44857222
  0
VERTEX
  8
0
 10
6.13660353
 20
6.47147523
  0
VERTEX
  8
0
 10
6.18618466
 20
6.49247407
  0
VERTEX
  8
0
 10
6.23641150
 20
6.51179412
  0
VERTEX
  8
0
 10
6.28707430
 20
6.52966077
  0
SEQEND
  0
POLYLINE
  8
Default_Layer
 66
   1
 39
0.000000
 70
    1
  0
VERTEX
  8
0
 10
2.80698379
 20
6.27542795
  0
VERTEX
  8
0
 10
2.80505986
 20
6.28983548
  0
VERTEX
  8
0
 10
2.80394494
 20
6.30404711
  0
VERTEX
  8
0
 10
2.80361032
 20
6.31806437
  0
VERTEX
  8
0
 10
2.80402732
 20
6.33188873
  0
VERTEX
  8
0
 10
2.80700138
 20
6.35896477
  0
VERTEX
  8
0
 10
2.81263752
 20
6.38528725
  0
VERTEX
  8
0
 10
2.82070619
 20
6.41086813
  0
VERTEX
  8
0
 10
2.83097779
 20
6.43571941
  0
VERTEX
  8
0
 10
2.84322275
 20
6.45985309
  0
VERTEX
  8
0
 10
2.85721150
 20
6.48328114
  0
VERTEX
  8
0
 10
2.87271446
 20
6.50601555
  0
VERTEX
  8
0
 10
2.88950206
 20
6.52806832
  0
VERTEX
  8
0
 10
2.90734472
 20
6.54945143
  0
VERTEX
  8
0
 10
2.92601286
 20
6.57017686
  0
VERTEX
  8
0
 10
2.94527691
 20
6.59025662
  0
VERTEX
  8
0
 10
2.96490729
 20
6.60970268
  0
VERTEX
  8
0
 10
3.00434875
 20
6.64674168
  0
VERTEX
  8
0
 10
2.99506376
 20
6.60846508
  0
VERTEX
  8
0
 10
2.98489193
 20
6.57022027
  0
VERTEX
  8
0
 10
2.96450692
 20
6.49357258
  0
VERTEX
  8
0
 10
2.95560332
 20
6.45504299
  0
VERTEX
  8
0
 10
2.94843203
 20
6.41629179
  0
VERTEX
  8
0
 10
2.94364786
 20
6.37725560
  0
VERTEX
  8
0
 10
2.94235557
 20
6.35761085
  0
VERTEX
  8
0
 10
2.94190560
 20
6.33787110
  0
VERTEX
  8
0
 10
2.94620283
 20
6.31573823
  0
VERTEX
  8
0
 10
2.95131943
 20
6.29389119
  0
VERTEX
  8
0
 10
2.95719632
 20
6.27230975
  0
VERTEX
  8
0
 10
2.96377443
 20
6.25097368
  0
VERTEX
  8
0
 10
2.97879798
 20
6.20895677
  0
VERTEX
  8
0
 10
2.99591743
 20
6.16767865
  0
VERTEX
  8
0
 10
3.01466015
 20
6.12697749
  0
VERTEX
  8
0
 10
3.03455352
 20
6.08669150
  0
VERTEX
  8
0
 10
3.07590164
 20
6.00671778
  0
VERTEX
  8
0
 10
3.09641113
 20
5.96670643
  0
VERTEX
  8
0
 10
3.11618074
 20
5.92646300
  0
VERTEX
  8
0
 10
3.13473782
 20
5.88582568
  0
VERTEX
  8
0
 10
3.15160974
 20
5.84463267
  0
VERTEX
  8
0
 10
3.16632388
 20
5.80272215
  0
VERTEX
  8
0
 10
3.17272408
 20
5.78144726
  0
VERTEX
  8
0
 10
3.17840760
 20
5.75993232
  0
VERTEX
  8
0
 10
3.18331536
 20
5.73815710
  0
VERTEX
  8
0
 10
3.18738827
 20
5.71610136
  0
VERTEX
  8
0
 10
3.19056726
 20
5.69374490
  0
VERTEX
  8
0
 10
3.19279325
 20
5.67106747
  0
VERTEX
  8
0
 10
3.19432909
 20
5.65481629
  0
VERTEX
  8
0
 10
3.19495087
 20
5.63864595
  0
VERTEX
  8
0
 10
3.19472297
 20
5.62255542
  0
VERTEX
  8
0
 10
3.19370976
 20
5.60654370
  0
VERTEX
  8
0
 10
3.18958493
 20
5.57475259
  0
VERTEX
  8
0
 10
3.18309140
 20
5.54326451
  0
VERTEX
  8
0
 10
3.17474419
 20
5.51207131
  0
VERTEX
  8
0
 10
3.16505834
 20
5.48116488
  0
VERTEX
  8
0
 10
3.14373077
 20
5.42017982
  0
VERTEX
  8
0
 10
3.13014200
 20
5.47613080
  0
VERTEX
  8
0
 10
3.11621484
 20
5.53188509
  0
VERTEX
  8
0
 10
3.10830265
 20
5.55937029
  0
VERTEX
  8
0
 10
3.09931980
 20
5.58642450
  0
VERTEX
  8
0
 10
3.08893762
 20
5.61292044
  0
VERTEX
  8
0
 10
3.07682740
 20
5.63873084
  0
VERTEX
  8
0
 10
2.99503078
 20
5.79187035
  0
VERTEX
  8
0
 10
2.95535545
 20
5.86936723
  0
VERTEX
  8
0
 10
2.91775461
 20
5.94779237
  0
VERTEX
  8
0
 10
2.90002724
 20
5.98742573
  0
VERTEX
  8
0
 10
2.88317264
 20
6.02737839
  0
VERTEX
  8
0
 10
2.86730885
 20
6.06767942
  0
VERTEX
  8
0
 10
2.85255393
 20
6.10835790
  0
VERTEX
  8
0
 10
2.83902591
 20
6.14944292
  0
VERTEX
  8
0
 10
2.82684285
 20
6.19096355
  0
VERTEX
  8
0
 10
2.81612279
 20
6.23294887
  0
VERTEX
  8
0
 10
2.80698379
 20
6.27542795
  0
SEQEND
  0
POLYLINE
  8
Default_Layer
 66
   1
 39
0.000000
 70
    1
  0
VERTEX
  8
0
 10
7.81358628
 20
6.56199740
  0
VERTEX
  8
0
 10
7.94181775
 20
6.56534257
  0
VERTEX
  8
0
 10
7.93794968
 20
6.53178806
  0
VERTEX
  8
0
 10
7.93603901
 20
6.51482410
  0
VERTEX
  8
0
 10
7.93338348
 20
6.49810913
  0
VERTEX
  8
0
 10
7.92941273
 20
6.48192325
  0
VERTEX
  8
0
 10
7.92355644
 20
6.46654657
  0
VERTEX
  8
0
 10
7.91974298
 20
6.45924921
  0
VERTEX
  8
0
 10
7.91524425
 20
6.45225919
  0
VERTEX
  8
0
 10
7.90998897
 20
6.44561152
  0
VERTEX
  8
0
 10
7.90390584
 20
6.43934122
  0
VERTEX
  8
0
 10
7.81024111
 20
6.44603155
  0
VERTEX
  8
0
 10
7.81273586
 20
6.50383693
  0
VERTEX
  8
0
 10
7.81358628
 20
6.56199740
  0
SEQEND
  0
POLYLINE
  8
Default_Layer
 66
   1
 39
0.000000
 70
    1
  0
VERTEX
  8
0
 10
5.36380774
 20
6.01115962
  0
VERTEX
  8
0
 10
5.39241652
 20
5.99757413
  0
VERTEX
  8
0
 10
5.42208402
 20
5.98435197
  0
VERTEX
  8
0
 10
5.48334112
 20
5.95807242
  0
VERTEX
  8
0
 10
5.54507105
 20
5.93047061
  0
VERTEX
  8
0
 10
5.57532958
 20
5.91559561
  0
VERTEX
  8
0
 10
5.60476581
 20
5.89969615
  0
VERTEX
  8
0
 10
5.63306626
 20
5.88254093
  0
VERTEX
  8
0
 10
5.65991742
 20
5.86389867
  0
VERTEX
  8
0
 10
5.68500580
 20
5.84353805
  0
VERTEX
  8
0
 10
5.69679097
 20
5.83264108
  0
VERTEX
  8
0
 10
5.70801788
 20
5.82122779
  0
VERTEX
  8
0
 10
5.71864735
 20
5.80926926
  0
VERTEX
  8
0
 10
5.72864018
 20
5.79673658
  0
VERTEX
  8
0
 10
5.73795719
 20
5.78360085
  0
VERTEX
  8
0
 10
5.74655920
 20
5.76983314
  0
VERTEX
  8
0
 10
5.75440700
 20
5.75540454
  0
VERTEX
  8
0
 10
5.76146143
 20
5.74028615
  0
VERTEX
  8
0
 10
5.76768328
 20
5.72444905
  0
VERTEX
  8
0
 10
5.77303337
 20
5.70786433
  0
VERTEX
  8
0
 10
5.77580902
 20
5.68954293
  0
VERTEX
  8
0
 10
5.77782494
 20
5.67126093
  0
VERTEX
  8
0
 10
5.77975859
 20
5.63480459
  0
VERTEX
  8
0
 10
5.77919635
 20
5.59847420
  0
VERTEX
  8
0
 10
5.77650023
 20
5.56224863
  0
VERTEX
  8
0
 10
5.77203223
 20
5.52610680
  0
VERTEX
  8
0
 10
5.76615436
 20
5.49002757
  0
VERTEX
  8
0
 10
5.75922863
 20
5.45398986
  0
VERTEX
  8
0
 10
5.75161706
 20
5.41797254
  0
VERTEX
  8
0
 10
5.73578441
 20
5.34591464
  0
VERTEX
  8
0
 10
5.72828736
 20
5.30983185
  0
VERTEX
  8
0
 10
5.72155250
 20
5.27368502
  0
VERTEX
  8
0
 10
5.71594184
 20
5.23745304
  0
VERTEX
  8
0
 10
5.71181739
 20
5.20111480
  0
VERTEX
  8
0
 10
5.70954116
 20
5.16464918
  0
VERTEX
  8
0
 10
5.70947517
 20
5.12803508
  0
VERTEX
  8
0
 10
5.71465755
 20
5.06019617
  0
VERTEX
  8
0
 10
5.72087439
 20
4.99248445
  0
VERTEX
  8
0
 10
5.72809048
 20
4.92490136
  0
VERTEX
  8
0
 10
5.73627059
 20
4.85744840
  0
VERTEX
  8
0
 10
5.74537950
 20
4.79012702
  0
VERTEX
  8
0
 10
5.75538199
 20
4.72293869
  0
VERTEX
  8
0
 10
5.76624284
 20
4.65588488
  0
VERTEX
  8
0
 10
5.77792681
 20
4.58896706
  0
VERTEX
  8
0
 10
5.79039870
 20
4.52218669
  0
VERTEX
  8
0
 10
5.80362327
 20
4.45554525
  0
VERTEX
  8
0
 10
5.83218957
 20
4.32268500
  0
VERTEX
  8
0
 10
5.86334395
 20
4.19039805
  0
VERTEX
  8
0
 10
5.89680462
 20
4.05869616
  0
VERTEX
  8
0
 10
5.86659885
 20
4.10493776
  0
VERTEX
  8
0
 10
5.83763476
 20
4.15191381
  0
VERTEX
  8
0
 10
5.80966409
 20
4.19948087
  0
VERTEX
  8
0
 10
5.78243861
 20
4.24749548
  0
VERTEX
  8
0
 10
5.72923018
 20
4.34429357
  0
VERTEX
  8
0
 10
5.67602348
 20
4.44116044
  0
VERTEX
  8
0
 10
5.64086611
 20
4.50660742
  0
VERTEX
  8
0
 10
5.60639837
 20
4.57264489
  0
VERTEX
  8
0
 10
5.57329569
 20
4.63942460
  0
VERTEX
  8
0
 10
5.54223346
 20
4.70709830
  0
VERTEX
  8
0
 10
5.52767858
 20
4.74131783
  0
VERTEX
  8
0
 10
5.51388709
 20
4.77581776
  0
VERTEX
  8
0
 10
5.50094341
 20
4.81061706
  0
VERTEX
  8
0
 10
5.48893198
 20
4.84573471
  0
VERTEX
  8
0
 10
5.47793722
 20
4.88118967
  0
VERTEX
  8
0
 10
5.46804354
 20
4.91700091
  0
VERTEX
  8
0
 10
5.45933539
 20
4.95318740
  0
VERTEX
  8
0
 10
5.45189718
 20
4.98976811
  0
VERTEX
  8
0
 10
5.44629404
 20
5.03034837
  0
VERTEX
  8
0
 10
5.44186263
 20
5.07098801
  0
VERTEX
  8
0
 10
5.43853982
 20
5.11167773
  0
VERTEX
  8
0
 10
5.43626250
 20
5.15240819
  0
VERTEX
  8
0
 10
5.43496754
 20
5.19317010
  0
VERTEX
  8
0
 10
5.43459184
 20
5.23395411
  0
VERTEX
  8
0
 10
5.43507227
 20
5.27475093
  0
VERTEX
  8
0
 10
5.43634573
 20
5.31555123
  0
VERTEX
  8
0
 10
5.44101922
 20
5.39712502
  0
VERTEX
  8
0
 10
5.44810738
 20
5.47860092
  0
VERTEX
  8
0
 10
5.45710527
 20
5.55990441
  0
VERTEX
  8
0
 10
5.46750797
 20
5.64096095
  0
VERTEX
  8
0
 10
5.47009780
 20
5.66568378
  0
VERTEX
  8
0
 10
5.47072970
 20
5.69014030
  0
VERTEX
  8
0
 10
5.46956403
 20
5.71434227
  0
VERTEX
  8
0
 10
5.46676118
 20
5.73830146
  0
VERTEX
  8
0
 10
5.46248154
 20
5.76202964
  0
VERTEX
  8
0
 10
5.45688550
 20
5.78553859
  0
VERTEX
  8
0
 10
5.45013344
 20
5.80884007
  0
VERTEX
  8
0
 10
5.44238575
 20
5.83194586
  0
VERTEX
  8
0
 10
5.42454501
 20
5.87761744
  0
VERTEX
  8
0
 10
5.40464637
 20
5.92264748
  0
VERTEX
  8
0
 10
5.36380774
 20
6.01115962
  0
SEQEND
  0
POLYLINE
  8
Default_Layer
 66
   1
 39
0.000000
 70
    1
  0
VERTEX
  8
0
 10
4.96461760
 20
4.06538649
  0
VERTEX
  8
0
 10
5.00873423
 20
4.07022985
  0
VERTEX
  8
0
 10
5.05323189
 20
4.07367782
  0
VERTEX
  8
0
 10
5.09800100
 20
4.07566006
  0
VERTEX
  8
0
 10
5.14293197
 20
4.07610622
  0
VERTEX
  8
0
 10
5.18791520
 20
4.07494595
  0
VERTEX
  8
0
 10
5.23284111
 20
4.07210891
  0
VERTEX
  8
0
 10
5.27760011
 20
4.06752475
  0
VERTEX
  8
0
 10
5.32208260
 20
4.06112313
  0
VERTEX
  8
0
 10
5.36617899
 20
4.05283370
  0
VERTEX
  8
0
 10
5.40977969
 20
4.04258612
  0
VERTEX
  8
0
 10
5.45277512
 20
4.03031003
  0
VERTEX
  8
0
 10
5.49505568
 20
4.01593509
  0
VERTEX
  8
0
 10
5.53651178
 20
3.99939097
  0
VERTEX
  8
0
 10
5.57703383
 20
3.98060730
  0
VERTEX
  8
0
 10
5.61651224
 20
3.95951375
  0
VERTEX
  8
0
 10
5.65483741
 20
3.93603997
  0
VERTEX
  8
0
 10
5.68967636
 20
3.90476403
  0
VERTEX
  8
0
 10
5.72339690
 20
3.87240260
  0
VERTEX
  8
0
 10
5.75614330
 20
3.83909426
  0
VERTEX
  8
0
 10
5.78805983
 20
3.80497761
  0
VERTEX
  8
0
 10
5.81929076
 20
3.77019121
  0
VERTEX
  8
0
 10
5.84998036
 20
3.73487365
  0
VERTEX
  8
0
 10
5.91031266
 20
3.66319938
  0
VERTEX
  8
0
 10
5.97021089
 20
3.59106344
  0
VERTEX
  8
0
 10
6.03082922
 20
3.51957448
  0
VERTEX
  8
0
 10
6.06176910
 20
3.48441907
  0
VERTEX
  8
0
 10
6.09332181
 20
3.44984114
  0
VERTEX
  8
0
 10
6.12563163
 20
3.41597929
  0
VERTEX
  8
0
 10
6.15884283
 20
3.38297208
  0
VERTEX
  8
0
 10
6.08728141
 20
3.38504339
  0
VERTEX
  8
0
 10
6.01556184
 20
3.38914036
  0
VERTEX
  8
0
 10
5.97975096
 20
3.39216172
  0
VERTEX
  8
0
 10
5.94403039
 20
3.39594542
  0
VERTEX
  8
0
 10
5.90844343
 20
3.40057675
  0
VERTEX
  8
0
 10
5.87303335
 20
3.40614102
  0
VERTEX
  8
0
 10
5.83784343
 20
3.41272354
  0
VERTEX
  8
0
 10
5.80291698
 20
3.42040961
  0
VERTEX
  8
0
 10
5.76829726
 20
3.42928454
  0
VERTEX
  8
0
 10
5.73402756
 20
3.43943362
  0
VERTEX
  8
0
 10
5.70015118
 20
3.45094218
  0
VERTEX
  8
0
 10
5.66671138
 20
3.46389551
  0
VERTEX
  8
0
 10
5.63375147
 20
3.47837891
  0
VERTEX
  8
0
 10
5.60131471
 20
3.49447770
  0
VERTEX
  8
0
 10
5.57422745
 20
3.50754464
  0
VERTEX
  8
0
 10
5.54865658
 20
3.52245203
  0
VERTEX
  8
0
 10
5.52442985
 20
3.53899365
  0
VERTEX
  8
0
 10
5.50137499
 20
3.55696328
  0
VERTEX
  8
0
 10
5.47931972
 20
3.57615473
  0
VERTEX
  8
0
 10
5.45809179
 20
3.59636178
  0
VERTEX
  8
0
 10
5.43751893
 20
3.61737821
  0
VERTEX
  8
0
 10
5.41742887
 20
3.63899781
  0
VERTEX
  8
0
 10
5.37800808
 20
3.68322170
  0
VERTEX
  8
0
 10
5.33845128
 20
3.72738375
  0
VERTEX
  8
0
 10
5.31819122
 20
3.74892606
  0
VERTEX
  8
0
 10
5.29738036
 20
3.76983427
  0
VERTEX
  8
0
 10
5.27584643
 20
3.78990217
  0
VERTEX
  8
0
 10
5.25341717
 20
3.80892356
  0
VERTEX
  8
0
 10
5.23481139
 20
3.82469906
  0
VERTEX
  8
0
 10
5.21524099
 20
3.83948355
  0
VERTEX
  8
0
 10
5.19492856
 20
3.85349664
  0
VERTEX
  8
0
 10
5.17409667
 20
3.86695793
  0
VERTEX
  8
0
 10
5.13176489
 20
3.89310347
  0
VERTEX
  8
0
 10
5.09002632
 20
3.91967698
  0
VERTEX
  8
0
 10
5.06993595
 20
3.93367322
  0
VERTEX
  8
0
 10
5.05066163
 20
3.94843524
  0
VERTEX
  8
0
 10
5.03242596
 20
3.96418266
  0
VERTEX
  8
0
 10
5.01545150
 20
3.98113506
  0
VERTEX
  8
0
 10
4.99996085
 20
3.99951204
  0
VERTEX
  8
0
 10
4.98617660
 20
4.01953321
  0
VERTEX
  8
0
 10
4.97432132
 20
4.04141816
  0
VERTEX
  8
0
 10
4.96461760
 20
4.06538649
  0
SEQEND
  0
POLYLINE
  8
Default_Layer
 66
   1
 39
0.000000
 70
    1
  0
VERTEX
  8
0
 10
9.57748859
 20
8.80988215
  0
VERTEX
  8
0
 10
9.73471152
 20
8.81322732
  0
VERTEX
  8
0
 10
9.74246977
 20
8.79696305
  0
VERTEX
  8
0
 10
9.74944775
 20
8.78051984
  0
VERTEX
  8
0
 10
9.76121904
 20
8.74714431
  0
VERTEX
  8
0
 10
9.77033754
 20
8.71319627
  0
VERTEX
  8
0
 10
9.77711544
 20
8.67877124
  0
VERTEX
  8
0
 10
9.78186490
 20
8.64396475
  0
VERTEX
  8
0
 10
9.78489808
 20
8.60887233
  0
VERTEX
  8
0
 10
9.78652718
 20
8.57358951
  0
VERTEX
  8
0
 10
9.78706434
 20
8.53821181
  0
VERTEX
  8
0
 10
9.78645950
 20
8.52451018
  0
VERTEX
  8
0
 10
9.78460708
 20
8.51113937
  0
VERTEX
  8
0
 10
9.78156209
 20
8.49814537
  0
VERTEX
  8
0
 10
9.77737953
 20
8.48557419
  0
VERTEX
  8
0
 10
9.77211441
 20
8.47347185
  0
VERTEX
  8
0
 10
9.76582174
 20
8.46188433
  0
VERTEX
  8
0
 10
9.75855651
 20
8.45085765
  0
VERTEX
  8
0
 10
9.75037374
 20
8.44043782
  0
VERTEX
  8
0
 10
9.74132843
 20
8.43067083
  0
VERTEX
  8
0
 10
9.73147559
 20
8.42160269
  0
VERTEX
  8
0
 10
9.72087021
 20
8.41327940
  0
VERTEX
  8
0
 10
9.70956731
 20
8.40574698
  0
VERTEX
  8
0
 10
9.69762189
 20
8.39905141
  0
VERTEX
  8
0
 10
9.68508895
 20
8.39323872
  0
VERTEX
  8
0
 10
9.67202350
 20
8.38835490
  0
VERTEX
  8
0
 10
9.65848055
 20
8.38444595
  0
VERTEX
  8
0
 10
9.61216298
 20
8.37385068
  0
VERTEX
  8
0
 10
9.56543517
 20
8.36552294
  0
VERTEX
  8
0
 10
9.54189354
 20
8.36250075
  0
VERTEX
  8
0
 10
9.51822070
 20
8.36039507
  0
VERTEX
  8
0
 10
9.49440711
 20
8.35932245
  0
VERTEX
  8
0
 10
9.47044319
 20
8.35939943
  0
VERTEX
  8
0
 10
9.45119993
 20
8.36116830
  0
VERTEX
  8
0
 10
9.44179489
 20
8.36318608
  0
VERTEX
  8
0
 10
9.43264793
 20
8.36615839
  0
VERTEX
  8
0
 10
9.38655721
 20
8.38426578
  0
VERTEX
  8
0
 10
9.34080599
 20
8.40318217
  0
VERTEX
  8
0
 10
9.29581597
 20
8.42365768
  0
VERTEX
  8
0
 10
9.27373818
 20
8.43471452
  0
VERTEX
  8
0
 10
9.25200882
 20
8.44644244
  0
VERTEX
  8
0
 10
9.25535180
 20
8.45520247
  0
VERTEX
  8
0
 10
9.25948383
 20
8.46325081
  0
VERTEX
  8
0
 10
9.26433147
 20
8.47065094
  0
VERTEX
  8
0
 10
9.26982128
 20
8.47746639
  0
VERTEX
  8
0
 10
9.28243361
 20
8.48959723
  0
VERTEX
  8
0
 10
9.29673327
 20
8.50015138
  0
VERTEX
  8
0
 10
9.31213271
 20
8.50963688
  0
VERTEX
  8
0
 10
9.32804439
 20
8.51856179
  0
VERTEX
  8
0
 10
9.34388074
 20
8.52743414
  0
VERTEX
  8
0
 10
9.35905422
 20
8.53676199
  0
VERTEX
  8
0
 10
9.36918632
 20
8.54405973
  0
VERTEX
  8
0
 10
9.37868237
 20
8.55201795
  0
VERTEX
  8
0
 10
9.38758467
 20
8.56057860
  0
VERTEX
  8
0
 10
9.39593547
 20
8.56968359
  0
VERTEX
  8
0
 10
9.41115172
 20
8.58929437
  0
VERTEX
  8
0
 10
9.42466932
 20
8.61038576
  0
VERTEX
  8
0
 10
9.43682645
 20
8.63249324
  0
VERTEX
  8
0
 10
9.44796133
 20
8.65515228
  0
VERTEX
  8
0
 10
9.46851706
 20
8.70026693
  0
VERTEX
  8
0
 10
9.47861431
 20
8.72179347
  0
VERTEX
  8
0
 10
9.48904209
 20
8.74201346
  0
VERTEX
  8
0
 10
9.50013857
 20
8.76046237
  0
VERTEX
  8
0
 10
9.51224197
 20
8.77667566
  0
VERTEX
  8
0
 10
9.51877695
 20
8.78379879
  0
VERTEX
  8
0
 10
9.52569048
 20
8.79018882
  0
VERTEX
  8
0
 10
9.53302483
 20
8.79578767
  0
VERTEX
  8
0
 10
9.54082229
 20
8.80053730
  0
VERTEX
  8
0
 10
9.54912512
 20
8.80437963
  0
VERTEX
  8
0
 10
9.55797559
 20
8.80725659
  0
VERTEX
  8
0
 10
9.56741599
 20
8.80911012
  0
VERTEX
  8
0
 10
9.57748859
 20
8.80988215
  0
SEQEND
  0
ENDSEC
  0
EOF
