0
SECTION
2
HEADER
9
$ACADVER
1
AC1003
9
$INSBASE
10
0.0
20
0.0
30
0.0
9
$EXTMIN
10
0.000
20
0.000
30
0.0
9
$EXTMAX
10
18186.400
20
23342.600
30
0.0
9
$LIMMIN
10
0.000
20
0.000
9
$LIMMAX
10
18186.400
20
23342.600
9
$LTSCALE
40
1.0
9
$LUNITS
70
2
9
$LUPREC
70
3
9
$LIMCHECK
70
0
9
$UCSNAME
2

9
$UCSORG
10
0.0
20
0.0
30
0.0
9
$UCSXDIR
10
1.0
20
0.0
30
0.0
9
$UCSYDIR
10
0.0
20
1.0
30
0.0
9
$WORLDVIEW
70
1
9
$UNITMODE
70
0
0
ENDSEC
0
SECTION
2
TABLES
0
TABLE
2
VPORT
70
1
0
VPORT
2
*ACTIVE
70
0
10
0.0
20
0.0
11
1.0
21
1.0
12
9093.200
22
11671.300
13
0.0
23
0.0
14
1.0
24
1.0
15
0.0
25
0.0
16
0.0
26
0.0
36
1.0
17
0.0
27
0.0
37
0.0
40
500.0
41
1.284
42
50.0
43
0.0
44
0.0
50
0.0
51
0.0
71
0
72
100
73
1
74
1
75
0
76
0
77
0
78
0
0
ENDTAB
0
TABLE
2
LTYPE
70
1
0
LTYPE
2
CONTINUOUS
70
64
3
Solid line
72
65
73
0
40
0.000
0
ENDTAB
0
TABLE
2
LAYER
70
1
0
LAYER
2
0
70
64
62
7
6
CONTINUOUS
0
ENDTAB
0
ENDSEC
0
SECTION
2
BLOCKS
0
ENDSEC
0
SECTION
2
ENTITIES
0
POLYLINE
8
0
6
CONTINUOUS
66
1
62
252
10
0.0
20
0.0
30
0.000000
0
VERTEX
8
0
10
2921.000000
20
15951.200000
0
VERTEX
8
0
10
2921.000000
20
15976.600000
0
SEQEND
0
POLYLINE
8
0
6
CONTINUOUS
66
1
62
254
10
0.0
20
0.0
30
0.000000
0
VERTEX
8
0
10
2946.400000
20
15951.200000
0
VERTEX
8
0
10
2921.000000
20
15951.200000
0
SEQEND
0
POLYLINE
8
0
6
CONTINUOUS
66
1
62
250
10
0.0
20
0.0
30
0.000000
0
VERTEX
8
0
10
3479.800000
20
15265.400000
0
VERTEX
8
0
10
3459.480000
20
15344.140000
0
VERTEX
8
0
10
3302.000000
20
15621.000000
0
VERTEX
8
0
10
2946.400000
20
15951.200000
0
SEQEND
0
POLYLINE
8
0
6
CONTINUOUS
66
1
62
250
10
0.0
20
0.0
30
0.000000
0
VERTEX
8
0
10
2616.200000
20
14579.600000
0
VERTEX
8
0
10
2590.800000
20
14579.600000
0
SEQEND
0
POLYLINE
8
0
6
CONTINUOUS
66
1
62
250
10
0.0
20
0.0
30
0.000000
0
VERTEX
8
0
10
2616.200000
20
14579.600000
0
VERTEX
8
0
10
2667.000000
20
14605.000000
0
VERTEX
8
0
10
2692.400000
20
14655.800000
0
VERTEX
8
0
10
2616.200000
20
14732.000000
0
SEQEND
0
POLYLINE
8
0
6
CONTINUOUS
66
1
62
250
10
0.0
20
0.0
30
0.000000
0
VERTEX
8
0
10
2616.200000
20
14554.200000
0
VERTEX
8
0
10
2616.200000
20
14579.600000
0
SEQEND
0
POLYLINE
8
0
6
CONTINUOUS
66
1
62
250
10
0.0
20
0.0
30
0.000000
0
VERTEX
8
0
10
2921.000000
20
15951.200000
0
VERTEX
8
0
10
2895.600000
20
15925.800000
0
VERTEX
8
0
10
2817.876000
20
15940.532000
0
VERTEX
8
0
10
2668.524000
20
15961.868000
0
VERTEX
8
0
10
2362.200000
20
15976.600000
0
VERTEX
8
0
10
2181.860000
20
15933.420000
0
VERTEX
8
0
10
1930.400000
20
15824.200000
0
VERTEX
8
0
10
1727.200000
20
15621.000000
0
VERTEX
8
0
10
1625.600000
20
15392.400000
0
VERTEX
8
0
10
1625.600000
20
15138.400000
0
VERTEX
8
0
10
1643.380000
20
15110.460000
0
VERTEX
8
0
10
1758.696000
20
14863.572000
0
VERTEX
8
0
10
1828.800000
20
14757.400000
0
VERTEX
8
0
10
1950.843902
20
14649.604878
0
VERTEX
8
0
10
2062.356098
20
14560.395122
0
VERTEX
8
0
10
2209.800000
20
14503.400000
0
VERTEX
8
0
10
2438.400000
20
14503.400000
0
VERTEX
8
0
10
2590.800000
20
14579.600000
0
SEQEND
0
POLYLINE
8
0
6
CONTINUOUS
66
1
62
251
10
0.0
20
0.0
30
0.000000
0
VERTEX
8
0
10
3276.600000
20
14173.200000
0
VERTEX
8
0
10
3268.980000
20
14221.460000
0
VERTEX
8
0
10
3205.480000
20
14505.940000
0
VERTEX
8
0
10
3180.080000
20
14556.740000
0
VERTEX
8
0
10
3022.600000
20
14732.000000
0
VERTEX
8
0
10
2948.940000
20
14762.480000
0
VERTEX
8
0
10
2921.000000
20
14782.800000
0
VERTEX
8
0
10
2692.400000
20
14782.800000
0
VERTEX
8
0
10
2644.140000
20
14752.320000
0
VERTEX
8
0
10
2616.200000
20
14732.000000
0
SEQEND
0
POLYLINE
8
0
6
CONTINUOUS
66
1
62
252
10
0.0
20
0.0
30
0.000000
0
VERTEX
8
0
10
3276.600000
20
14147.800000
0
VERTEX
8
0
10
3276.600000
20
14173.200000
0
SEQEND
0
POLYLINE
8
0
6
CONTINUOUS
66
1
62
251
10
0.0
20
0.0
30
0.000000
0
VERTEX
8
0
10
3302.000000
20
14147.800000
0
VERTEX
8
0
10
3276.600000
20
14147.800000
0
SEQEND
0
POLYLINE
8
0
6
CONTINUOUS
66
1
62
250
10
0.0
20
0.0
30
0.000000
0
VERTEX
8
0
10
3302.000000
20
14147.800000
0
VERTEX
8
0
10
3403.600000
20
14452.600000
0
VERTEX
8
0
10
3403.600000
20
14833.600000
0
VERTEX
8
0
10
3322.320000
20
15059.660000
0
VERTEX
8
0
10
3257.061538
20
15167.707692
0
VERTEX
8
0
10
3022.600000
20
15417.800000
0
VERTEX
8
0
10
2942.492308
20
15462.738462
0
VERTEX
8
0
10
2743.200000
20
15544.800000
0
VERTEX
8
0
10
2667.000000
20
15544.800000
0
VERTEX
8
0
10
2438.400000
20
15417.800000
0
VERTEX
8
0
10
2432.538462
20
15396.307692
0
VERTEX
8
0
10
2362.200000
20
15265.400000
0
VERTEX
8
0
10
2362.200000
20
15062.200000
0
VERTEX
8
0
10
2379.980000
20
15034.260000
0
VERTEX
8
0
10
2463.800000
20
14859.000000
0
VERTEX
8
0
10
2590.800000
20
14732.000000
0
VERTEX
8
0
10
2616.200000
20
14732.000000
0
SEQEND
0
POLYLINE
8
0
6
CONTINUOUS
66
1
62
252
10
0.0
20
0.0
30
0.000000
0
VERTEX
8
0
10
3276.600000
20
14122.400000
0
VERTEX
8
0
10
3276.600000
20
14147.800000
0
SEQEND
0
POLYLINE
8
0
6
CONTINUOUS
66
1
62
251
10
0.0
20
0.0
30
0.000000
0
VERTEX
8
0
10
1651.000000
20
13690.600000
0
VERTEX
8
0
10
1625.600000
20
13690.600000
0
VERTEX
8
0
10
1625.600000
20
13716.000000
0
SEQEND
0
POLYLINE
8
0
6
CONTINUOUS
66
1
62
7
10
0.0
20
0.0
30
0.000000
0
VERTEX
8
0
10
3810.000000
20
13487.400000
0
VERTEX
8
0
10
3810.000000
20
13512.800000
0
SEQEND
0
POLYLINE
8
0
6
CONTINUOUS
66
1
62
251
10
0.0
20
0.0
30
0.000000
0
VERTEX
8
0
10
3810.000000
20
13462.000000
0
VERTEX
8
0
10
3784.600000
20
13462.000000
0
SEQEND
0
POLYLINE
8
0
6
CONTINUOUS
66
1
62
251
10
0.0
20
0.0
30
0.000000
0
VERTEX
8
0
10
3810.000000
20
13462.000000
0
VERTEX
8
0
10
3810.000000
20
13487.400000
0
SEQEND
0
POLYLINE
8
0
6
CONTINUOUS
66
1
62
251
10
0.0
20
0.0
30
0.000000
0
VERTEX
8
0
10
2870.200000
20
13335.000000
0
VERTEX
8
0
10
2895.600000
20
13335.000000
0
VERTEX
8
0
10
2946.400000
20
13385.800000
0
VERTEX
8
0
10
3256.280000
20
13967.460000
0
VERTEX
8
0
10
3276.600000
20
14122.400000
0
SEQEND
0
POLYLINE
8
0
6
CONTINUOUS
66
1
62
250
10
0.0
20
0.0
30
0.000000
0
VERTEX
8
0
10
3048.000000
20
13182.600000
0
VERTEX
8
0
10
3346.938462
20
13618.307692
0
VERTEX
8
0
10
3573.780000
20
14048.740000
0
VERTEX
8
0
10
3692.769231
20
14476.046154
0
VERTEX
8
0
10
3733.800000
20
14681.200000
0
VERTEX
8
0
10
3733.800000
20
14986.000000
0
VERTEX
8
0
10
3611.880000
20
15445.740000
0
VERTEX
8
0
10
3586.480000
20
15496.540000
0
VERTEX
8
0
10
3473.704000
20
15718.028000
0
VERTEX
8
0
10
3346.506195
20
15894.892920
0
VERTEX
8
0
10
3149.600000
20
16129.000000
0
VERTEX
8
0
10
3124.200000
20
16129.000000
0
VERTEX
8
0
10
2616.200000
20
16637.000000
0
VERTEX
8
0
10
2546.096000
20
16743.172000
0
VERTEX
8
0
10
2533.904000
20
16759.428000
0
VERTEX
8
0
10
2306.320000
20
17142.460000
0
VERTEX
8
0
10
2265.680000
20
17249.140000
0
VERTEX
8
0
10
2170.654118
20
17577.696471
0
VERTEX
8
0
10
2159.000000
20
17881.600000
0
VERTEX
8
0
10
2133.600000
20
17907.000000
0
VERTEX
8
0
10
2032.000000
20
17881.600000
0
VERTEX
8
0
10
1905.000000
20
17754.600000
0
VERTEX
8
0
10
1625.600000
20
17322.800000
0
VERTEX
8
0
10
1625.600000
20
17246.600000
0
VERTEX
8
0
10
1758.461538
20
16996.507692
0
VERTEX
8
0
10
1797.538462
20
16937.892308
0
VERTEX
8
0
10
2006.600000
20
16637.000000
0
VERTEX
8
0
10
2184.400000
20
16459.200000
0
VERTEX
8
0
10
2670.907692
20
16134.861538
0
VERTEX
8
0
10
2921.000000
20
15976.600000
0
SEQEND
0
POLYLINE
8
0
6
CONTINUOUS
66
1
62
250
10
0.0
20
0.0
30
0.000000
0
VERTEX
8
0
10
3048.000000
20
13157.200000
0
VERTEX
8
0
10
3022.600000
20
13157.200000
0
SEQEND
0
POLYLINE
8
0
6
CONTINUOUS
66
1
62
251
10
0.0
20
0.0
30
0.000000
0
VERTEX
8
0
10
3048.000000
20
13157.200000
0
VERTEX
8
0
10
3048.000000
20
13182.600000
0
SEQEND
0
POLYLINE
8
0
6
CONTINUOUS
66
1
62
250
10
0.0
20
0.0
30
0.000000
0
VERTEX
8
0
10
3073.400000
20
13157.200000
0
VERTEX
8
0
10
3048.000000
20
13157.200000
0
SEQEND
0
POLYLINE
8
0
6
CONTINUOUS
66
1
62
7
10
0.0
20
0.0
30
0.000000
0
VERTEX
8
0
10
3073.400000
20
13157.200000
0
VERTEX
8
0
10
3101.340000
20
13174.980000
0
VERTEX
8
0
10
3626.821176
20
13315.875294
0
VERTEX
8
0
10
3784.600000
20
13462.000000
0
SEQEND
0
POLYLINE
8
0
6
CONTINUOUS
66
1
62
250
10
0.0
20
0.0
30
0.000000
0
VERTEX
8
0
10
2489.200000
20
12954.000000
0
VERTEX
8
0
10
2471.420000
20
13388.340000
0
VERTEX
8
0
10
2381.738462
20
13635.892308
0
VERTEX
8
0
10
2342.661538
20
13694.507692
0
VERTEX
8
0
10
2209.800000
20
13843.000000
0
VERTEX
8
0
10
2080.260000
20
13911.580000
0
VERTEX
8
0
10
2034.540000
20
13926.820000
0
VERTEX
8
0
10
2006.600000
20
13944.600000
0
VERTEX
8
0
10
1879.600000
20
13944.600000
0
VERTEX
8
0
10
1701.800000
20
13868.400000
0
VERTEX
8
0
10
1625.600000
20
13792.200000
0
VERTEX
8
0
10
1625.600000
20
13716.000000
0
SEQEND
0
POLYLINE
8
0
6
CONTINUOUS
66
1
62
251
10
0.0
20
0.0
30
0.000000
0
VERTEX
8
0
10
2489.200000
20
12928.600000
0
VERTEX
8
0
10
2489.200000
20
12954.000000
0
SEQEND
0
POLYLINE
8
0
6
CONTINUOUS
66
1
62
250
10
0.0
20
0.0
30
0.000000
0
VERTEX
8
0
10
2514.600000
20
12928.600000
0
VERTEX
8
0
10
2489.200000
20
12928.600000
0
SEQEND
0
POLYLINE
8
0
6
CONTINUOUS
66
1
62
250
10
0.0
20
0.0
30
0.000000
0
VERTEX
8
0
10
2514.600000
20
12928.600000
0
VERTEX
8
0
10
2722.880000
20
13307.060000
0
VERTEX
8
0
10
2870.200000
20
13817.600000
0
VERTEX
8
0
10
2870.200000
20
14046.200000
0
VERTEX
8
0
10
2834.132000
20
14222.476000
0
VERTEX
8
0
10
2743.200000
20
14452.600000
0
VERTEX
8
0
10
2616.200000
20
14554.200000
0
SEQEND
0
POLYLINE
8
0
6
CONTINUOUS
66
1
62
250
10
0.0
20
0.0
30
0.000000
0
VERTEX
8
0
10
2489.200000
20
12903.200000
0
VERTEX
8
0
10
2489.200000
20
12928.600000
0
SEQEND
0
POLYLINE
8
0
6
CONTINUOUS
66
1
62
250
10
0.0
20
0.0
30
0.000000
0
VERTEX
8
0
10
2616.200000
20
12700.000000
0
VERTEX
8
0
10
2622.061538
20
12721.492308
0
VERTEX
8
0
10
2819.400000
20
12979.400000
0
VERTEX
8
0
10
3022.600000
20
13157.200000
0
SEQEND
0
POLYLINE
8
0
6
CONTINUOUS
66
1
62
7
10
0.0
20
0.0
30
0.000000
0
VERTEX
8
0
10
2971.800000
20
12649.200000
0
VERTEX
8
0
10
2997.200000
20
12700.000000
0
SEQEND
0
POLYLINE
8
0
6
CONTINUOUS
66
1
62
250
10
0.0
20
0.0
30
0.000000
0
VERTEX
8
0
10
3352.800000
20
12649.200000
0
VERTEX
8
0
10
3228.340000
20
12730.480000
0
VERTEX
8
0
10
3149.600000
20
12776.200000
0
VERTEX
8
0
10
3051.907692
20
12744.938462
0
VERTEX
8
0
10
2997.200000
20
12700.000000
0
SEQEND
0
POLYLINE
8
0
6
CONTINUOUS
66
1
62
7
10
0.0
20
0.0
30
0.000000
0
VERTEX
8
0
10
3352.800000
20
12623.800000
0
VERTEX
8
0
10
3327.400000
20
12623.800000
0
SEQEND
0
POLYLINE
8
0
6
CONTINUOUS
66
1
62
7
10
0.0
20
0.0
30
0.000000
0
VERTEX
8
0
10
3352.800000
20
12623.800000
0
VERTEX
8
0
10
3352.800000
20
12649.200000
0
SEQEND
0
POLYLINE
8
0
6
CONTINUOUS
66
1
62
7
10
0.0
20
0.0
30
0.000000
0
VERTEX
8
0
10
3378.200000
20
12623.800000
0
VERTEX
8
0
10
3352.800000
20
12623.800000
0
SEQEND
0
POLYLINE
8
0
6
CONTINUOUS
66
1
62
251
10
0.0
20
0.0
30
0.000000
0
VERTEX
8
0
10
3378.200000
20
12623.800000
0
VERTEX
8
0
10
3429.000000
20
12623.800000
0
VERTEX
8
0
10
3657.600000
20
12852.400000
0
VERTEX
8
0
10
3702.538462
20
12932.507692
0
VERTEX
8
0
10
3713.480000
20
12951.460000
0
VERTEX
8
0
10
3793.564706
20
13154.958824
0
VERTEX
8
0
10
3819.769231
20
13282.246154
0
VERTEX
8
0
10
3835.400000
20
13436.600000
0
VERTEX
8
0
10
3810.000000
20
13462.000000
0
SEQEND
0
POLYLINE
8
0
6
CONTINUOUS
66
1
62
251
10
0.0
20
0.0
30
0.000000
0
VERTEX
8
0
10
2794.000000
20
12598.400000
0
VERTEX
8
0
10
2865.120000
20
12753.340000
0
VERTEX
8
0
10
2921.000000
20
12827.000000
0
VERTEX
8
0
10
2946.400000
20
12827.000000
0
VERTEX
8
0
10
2971.800000
20
12801.600000
0
VERTEX
8
0
10
2997.200000
20
12700.000000
0
SEQEND
0
POLYLINE
8
0
6
CONTINUOUS
66
1
62
7
10
0.0
20
0.0
30
0.000000
0
VERTEX
8
0
10
3352.800000
20
12598.400000
0
VERTEX
8
0
10
3352.800000
20
12623.800000
0
SEQEND
0
POLYLINE
8
0
6
CONTINUOUS
66
1
62
7
10
0.0
20
0.0
30
0.000000
0
VERTEX
8
0
10
3073.400000
20
12496.800000
0
VERTEX
8
0
10
3073.400000
20
12522.200000
0
VERTEX
8
0
10
3124.200000
20
12573.000000
0
VERTEX
8
0
10
3253.441176
20
12614.835294
0
VERTEX
8
0
10
3327.400000
20
12623.800000
0
SEQEND
0
POLYLINE
8
0
6
CONTINUOUS
66
1
62
251
10
0.0
20
0.0
30
0.000000
0
VERTEX
8
0
10
3200.400000
20
12496.800000
0
VERTEX
8
0
10
3175.000000
20
12496.800000
0
SEQEND
0
POLYLINE
8
0
6
CONTINUOUS
66
1
62
250
10
0.0
20
0.0
30
0.000000
0
VERTEX
8
0
10
3200.400000
20
12496.800000
0
VERTEX
8
0
10
3352.800000
20
12598.400000
0
SEQEND
0
POLYLINE
8
0
6
CONTINUOUS
66
1
62
250
10
0.0
20
0.0
30
0.000000
0
VERTEX
8
0
10
3073.400000
20
12496.800000
0
VERTEX
8
0
10
3098.800000
20
12471.400000
0
VERTEX
8
0
10
3149.600000
20
12471.400000
0
VERTEX
8
0
10
3175.000000
20
12496.800000
0
SEQEND
0
POLYLINE
8
0
6
CONTINUOUS
66
1
62
252
10
0.0
20
0.0
30
0.000000
0
VERTEX
8
0
10
3200.400000
20
12471.400000
0
VERTEX
8
0
10
3200.400000
20
12496.800000
0
SEQEND
0
POLYLINE
8
0
6
CONTINUOUS
66
1
62
250
10
0.0
20
0.0
30
0.000000
0
VERTEX
8
0
10
2794.000000
20
12446.000000
0
VERTEX
8
0
10
2819.400000
20
12496.800000
0
VERTEX
8
0
10
2799.080000
20
12575.540000
0
VERTEX
8
0
10
2794.000000
20
12598.400000
0
SEQEND
0
POLYLINE
8
0
6
CONTINUOUS
66
1
62
251
10
0.0
20
0.0
30
0.000000
0
VERTEX
8
0
10
2641.600000
20
12395.200000
0
VERTEX
8
0
10
2659.380000
20
12524.740000
0
VERTEX
8
0
10
2717.800000
20
12649.200000
0
VERTEX
8
0
10
2743.200000
20
12649.200000
0
VERTEX
8
0
10
2794.000000
20
12598.400000
0
SEQEND
0
POLYLINE
8
0
6
CONTINUOUS
66
1
62
252
10
0.0
20
0.0
30
0.000000
0
VERTEX
8
0
10
2641.600000
20
12369.800000
0
VERTEX
8
0
10
2616.200000
20
12369.800000
0
SEQEND
0
POLYLINE
8
0
6
CONTINUOUS
66
1
62
7
10
0.0
20
0.0
30
0.000000
0
VERTEX
8
0
10
2641.600000
20
12369.800000
0
VERTEX
8
0
10
2641.600000
20
12395.200000
0
SEQEND
0
POLYLINE
8
0
6
CONTINUOUS
66
1
62
250
10
0.0
20
0.0
30
0.000000
0
VERTEX
8
0
10
2667.000000
20
12293.600000
0
VERTEX
8
0
10
2667.000000
20
12344.400000
0
VERTEX
8
0
10
2641.600000
20
12369.800000
0
SEQEND
0
POLYLINE
8
0
6
CONTINUOUS
66
1
62
251
10
0.0
20
0.0
30
0.000000
0
VERTEX
8
0
10
3022.600000
20
12192.000000
0
VERTEX
8
0
10
2997.200000
20
12217.400000
0
VERTEX
8
0
10
2997.200000
20
12344.400000
0
VERTEX
8
0
10
3053.080000
20
12468.860000
0
VERTEX
8
0
10
3073.400000
20
12496.800000
0
SEQEND
0
POLYLINE
8
0
6
CONTINUOUS
66
1
62
7
10
0.0
20
0.0
30
0.000000
0
VERTEX
8
0
10
2717.800000
20
12166.600000
0
VERTEX
8
0
10
2687.320000
20
12265.660000
0
VERTEX
8
0
10
2667.000000
20
12293.600000
0
SEQEND
0
POLYLINE
8
0
6
CONTINUOUS
66
1
62
250
10
0.0
20
0.0
30
0.000000
0
VERTEX
8
0
10
2717.800000
20
12141.200000
0
VERTEX
8
0
10
2717.800000
20
12166.600000
0
SEQEND
0
POLYLINE
8
0
6
CONTINUOUS
66
1
62
252
10
0.0
20
0.0
30
0.000000
0
VERTEX
8
0
10
2743.200000
20
12141.200000
0
VERTEX
8
0
10
2717.800000
20
12141.200000
0
SEQEND
0
POLYLINE
8
0
6
CONTINUOUS
66
1
62
250
10
0.0
20
0.0
30
0.000000
0
VERTEX
8
0
10
2209.800000
20
12065.000000
0
VERTEX
8
0
10
2362.200000
20
12242.800000
0
VERTEX
8
0
10
2517.140000
20
12339.320000
0
VERTEX
8
0
10
2616.200000
20
12369.800000
0
SEQEND
0
POLYLINE
8
0
6
CONTINUOUS
66
1
62
250
10
0.0
20
0.0
30
0.000000
0
VERTEX
8
0
10
2463.800000
20
12065.000000
0
VERTEX
8
0
10
2519.680000
20
12138.660000
0
VERTEX
8
0
10
2590.800000
20
12242.800000
0
VERTEX
8
0
10
2667.000000
20
12293.600000
0
SEQEND
0
POLYLINE
8
0
6
CONTINUOUS
66
1
62
251
10
0.0
20
0.0
30
0.000000
0
VERTEX
8
0
10
2463.800000
20
12039.600000
0
VERTEX
8
0
10
2438.400000
20
12039.600000
0
SEQEND
0
POLYLINE
8
0
6
CONTINUOUS
66
1
62
7
10
0.0
20
0.0
30
0.000000
0
VERTEX
8
0
10
2463.800000
20
12039.600000
0
VERTEX
8
0
10
2463.800000
20
12065.000000
0
SEQEND
0
POLYLINE
8
0
6
CONTINUOUS
66
1
62
251
10
0.0
20
0.0
30
0.000000
0
VERTEX
8
0
10
2006.600000
20
12014.200000
0
VERTEX
8
0
10
2087.880000
20
12189.460000
0
VERTEX
8
0
10
2356.338462
20
12678.507692
0
VERTEX
8
0
10
2489.200000
20
12903.200000
0
SEQEND
0
POLYLINE
8
0
6
CONTINUOUS
66
1
62
250
10
0.0
20
0.0
30
0.000000
0
VERTEX
8
0
10
2463.800000
20
12014.200000
0
VERTEX
8
0
10
2463.800000
20
12039.600000
0
SEQEND
0
POLYLINE
8
0
6
CONTINUOUS
66
1
62
250
10
0.0
20
0.0
30
0.000000
0
VERTEX
8
0
10
2311.400000
20
11963.400000
0
VERTEX
8
0
10
2415.540000
20
12034.520000
0
VERTEX
8
0
10
2438.400000
20
12039.600000
0
SEQEND
0
POLYLINE
8
0
6
CONTINUOUS
66
1
62
250
10
0.0
20
0.0
30
0.000000
0
VERTEX
8
0
10
2311.400000
20
11938.000000
0
VERTEX
8
0
10
2286.000000
20
11938.000000
0
SEQEND
0
POLYLINE
8
0
6
CONTINUOUS
66
1
62
251
10
0.0
20
0.0
30
0.000000
0
VERTEX
8
0
10
2311.400000
20
11938.000000
0
VERTEX
8
0
10
2311.400000
20
11963.400000
0
SEQEND
0
POLYLINE
8
0
6
CONTINUOUS
66
1
62
251
10
0.0
20
0.0
30
0.000000
0
VERTEX
8
0
10
2311.400000
20
11912.600000
0
VERTEX
8
0
10
2311.400000
20
11938.000000
0
SEQEND
0
POLYLINE
8
0
6
CONTINUOUS
66
1
62
250
10
0.0
20
0.0
30
0.000000
0
VERTEX
8
0
10
2235.200000
20
11861.800000
0
VERTEX
8
0
10
2235.200000
20
11887.200000
0
VERTEX
8
0
10
2286.000000
20
11938.000000
0
SEQEND
0
POLYLINE
8
0
6
CONTINUOUS
66
1
62
253
10
0.0
20
0.0
30
0.000000
0
VERTEX
8
0
10
2235.200000
20
11836.400000
0
VERTEX
8
0
10
2209.800000
20
11836.400000
0
SEQEND
0
POLYLINE
8
0
6
CONTINUOUS
66
1
62
252
10
0.0
20
0.0
30
0.000000
0
VERTEX
8
0
10
2235.200000
20
11836.400000
0
VERTEX
8
0
10
2235.200000
20
11861.800000
0
SEQEND
0
POLYLINE
8
0
6
CONTINUOUS
66
1
62
251
10
0.0
20
0.0
30
0.000000
0
VERTEX
8
0
10
2413.000000
20
11811.000000
0
VERTEX
8
0
10
2463.800000
20
12014.200000
0
SEQEND
0
POLYLINE
8
0
6
CONTINUOUS
66
1
62
250
10
0.0
20
0.0
30
0.000000
0
VERTEX
8
0
10
2387.600000
20
11785.600000
0
VERTEX
8
0
10
2311.400000
20
11912.600000
0
SEQEND
0
POLYLINE
8
0
6
CONTINUOUS
66
1
62
250
10
0.0
20
0.0
30
0.000000
0
VERTEX
8
0
10
2413.000000
20
11785.600000
0
VERTEX
8
0
10
2387.600000
20
11785.600000
0
SEQEND
0
POLYLINE
8
0
6
CONTINUOUS
66
1
62
7
10
0.0
20
0.0
30
0.000000
0
VERTEX
8
0
10
2413.000000
20
11785.600000
0
VERTEX
8
0
10
2413.000000
20
11811.000000
0
SEQEND
0
POLYLINE
8
0
6
CONTINUOUS
66
1
62
7
10
0.0
20
0.0
30
0.000000
0
VERTEX
8
0
10
2413.000000
20
11760.200000
0
VERTEX
8
0
10
2413.000000
20
11785.600000
0
SEQEND
0
POLYLINE
8
0
6
CONTINUOUS
66
1
62
251
10
0.0
20
0.0
30
0.000000
0
VERTEX
8
0
10
3124.200000
20
11734.800000
0
VERTEX
8
0
10
3022.600000
20
12192.000000
0
SEQEND
0
POLYLINE
8
0
6
CONTINUOUS
66
1
62
7
10
0.0
20
0.0
30
0.000000
0
VERTEX
8
0
10
2413.000000
20
11709.400000
0
VERTEX
8
0
10
2413.000000
20
11760.200000
0
SEQEND
0
POLYLINE
8
0
6
CONTINUOUS
66
1
62
253
10
0.0
20
0.0
30
0.000000
0
VERTEX
8
0
10
3124.200000
20
11709.400000
0
VERTEX
8
0
10
3124.200000
20
11734.800000
0
SEQEND
0
POLYLINE
8
0
6
CONTINUOUS
66
1
62
251
10
0.0
20
0.0
30
0.000000
0
VERTEX
8
0
10
3149.600000
20
11709.400000
0
VERTEX
8
0
10
3124.200000
20
11709.400000
0
SEQEND
0
POLYLINE
8
0
6
CONTINUOUS
66
1
62
252
10
0.0
20
0.0
30
0.000000
0
VERTEX
8
0
10
3124.200000
20
11684.000000
0
VERTEX
8
0
10
3124.200000
20
11709.400000
0
SEQEND
0
POLYLINE
8
0
6
CONTINUOUS
66
1
62
250
10
0.0
20
0.0
30
0.000000
0
VERTEX
8
0
10
2921.000000
20
11658.600000
0
VERTEX
8
0
10
2971.800000
20
11760.200000
0
VERTEX
8
0
10
2915.138462
20
11908.692308
0
VERTEX
8
0
10
2743.200000
20
12141.200000
0
SEQEND
0
POLYLINE
8
0
6
CONTINUOUS
66
1
62
252
10
0.0
20
0.0
30
0.000000
0
VERTEX
8
0
10
2082.800000
20
11607.800000
0
VERTEX
8
0
10
2139.696000
20
11755.628000
0
VERTEX
8
0
10
2209.800000
20
11836.400000
0
SEQEND
0
POLYLINE
8
0
6
CONTINUOUS
66
1
62
251
10
0.0
20
0.0
30
0.000000
0
VERTEX
8
0
10
2082.800000
20
11582.400000
0
VERTEX
8
0
10
2057.400000
20
11582.400000
0
SEQEND
0
POLYLINE
8
0
6
CONTINUOUS
66
1
62
253
10
0.0
20
0.0
30
0.000000
0
VERTEX
8
0
10
2082.800000
20
11582.400000
0
VERTEX
8
0
10
2082.800000
20
11607.800000
0
SEQEND
0
POLYLINE
8
0
6
CONTINUOUS
66
1
62
251
10
0.0
20
0.0
30
0.000000
0
VERTEX
8
0
10
3124.200000
20
11582.400000
0
VERTEX
8
0
10
3124.200000
20
11684.000000
0
SEQEND
0
POLYLINE
8
0
6
CONTINUOUS
66
1
62
251
10
0.0
20
0.0
30
0.000000
0
VERTEX
8
0
10
2311.400000
20
11531.600000
0
VERTEX
8
0
10
2235.200000
20
11836.400000
0
SEQEND
0
POLYLINE
8
0
6
CONTINUOUS
66
1
62
250
10
0.0
20
0.0
30
0.000000
0
VERTEX
8
0
10
2311.400000
20
11506.200000
0
VERTEX
8
0
10
2286.000000
20
11506.200000
0
SEQEND
0
POLYLINE
8
0
6
CONTINUOUS
66
1
62
250
10
0.0
20
0.0
30
0.000000
0
VERTEX
8
0
10
2311.400000
20
11506.200000
0
VERTEX
8
0
10
2311.400000
20
11531.600000
0
SEQEND
0
POLYLINE
8
0
6
CONTINUOUS
66
1
62
250
10
0.0
20
0.0
30
0.000000
0
VERTEX
8
0
10
2032.000000
20
11480.800000
0
VERTEX
8
0
10
2006.600000
20
11506.200000
0
VERTEX
8
0
10
2006.600000
20
11531.600000
0
VERTEX
8
0
10
2057.400000
20
11582.400000
0
SEQEND
0
POLYLINE
8
0
6
CONTINUOUS
66
1
62
251
10
0.0
20
0.0
30
0.000000
0
VERTEX
8
0
10
2082.800000
20
11582.400000
0
VERTEX
8
0
10
2265.680000
20
11496.040000
0
VERTEX
8
0
10
2286.000000
20
11506.200000
0
SEQEND
0
POLYLINE
8
0
6
CONTINUOUS
66
1
62
7
10
0.0
20
0.0
30
0.000000
0
VERTEX
8
0
10
2311.400000
20
11480.800000
0
VERTEX
8
0
10
2311.400000
20
11506.200000
0
SEQEND
0
POLYLINE
8
0
6
CONTINUOUS
66
1
62
251
10
0.0
20
0.0
30
0.000000
0
VERTEX
8
0
10
2032.000000
20
11455.400000
0
VERTEX
8
0
10
2032.000000
20
11480.800000
0
SEQEND
0
POLYLINE
8
0
6
CONTINUOUS
66
1
62
253
10
0.0
20
0.0
30
0.000000
0
VERTEX
8
0
10
2057.400000
20
11455.400000
0
VERTEX
8
0
10
2032.000000
20
11455.400000
0
SEQEND
0
POLYLINE
8
0
6
CONTINUOUS
66
1
62
250
10
0.0
20
0.0
30
0.000000
0
VERTEX
8
0
10
2336.800000
20
11455.400000
0
VERTEX
8
0
10
2311.400000
20
11480.800000
0
SEQEND
0
POLYLINE
8
0
6
CONTINUOUS
66
1
62
7
10
0.0
20
0.0
30
0.000000
0
VERTEX
8
0
10
3505.200000
20
11430.000000
0
VERTEX
8
0
10
3505.200000
20
11455.400000
0
SEQEND
0
POLYLINE
8
0
6
CONTINUOUS
66
1
62
250
10
0.0
20
0.0
30
0.000000
0
VERTEX
8
0
10
4216.400000
20
11430.000000
0
VERTEX
8
0
10
4159.738462
20
11553.092308
0
VERTEX
8
0
10
4120.661538
20
11611.707692
0
VERTEX
8
0
10
3810.000000
20
11938.000000
0
VERTEX
8
0
10
3712.307692
20
11994.661538
0
VERTEX
8
0
10
3502.660000
20
12108.180000
0
VERTEX
8
0
10
3456.940000
20
12123.420000
0
VERTEX
8
0
10
3048.000000
20
12217.400000
0
VERTEX
8
0
10
3022.600000
20
12192.000000
0
SEQEND
0
POLYLINE
8
0
6
CONTINUOUS
66
1
62
252
10
0.0
20
0.0
30
0.000000
0
VERTEX
8
0
10
3505.200000
20
11404.600000
0
VERTEX
8
0
10
3479.800000
20
11404.600000
0
SEQEND
0
POLYLINE
8
0
6
CONTINUOUS
66
1
62
251
10
0.0
20
0.0
30
0.000000
0
VERTEX
8
0
10
3505.200000
20
11404.600000
0
VERTEX
8
0
10
3505.200000
20
11430.000000
0
SEQEND
0
POLYLINE
8
0
6
CONTINUOUS
66
1
62
250
10
0.0
20
0.0
30
0.000000
0
VERTEX
8
0
10
4267.200000
20
11379.200000
0
VERTEX
8
0
10
4216.400000
20
11430.000000
0
SEQEND
0
POLYLINE
8
0
6
CONTINUOUS
66
1
62
251
10
0.0
20
0.0
30
0.000000
0
VERTEX
8
0
10
4267.200000
20
11353.800000
0
VERTEX
8
0
10
4241.800000
20
11353.800000
0
SEQEND
0
POLYLINE
8
0
6
CONTINUOUS
66
1
62
7
10
0.0
20
0.0
30
0.000000
0
VERTEX
8
0
10
4267.200000
20
11353.800000
0
VERTEX
8
0
10
4267.200000
20
11379.200000
0
SEQEND
0
POLYLINE
8
0
6
CONTINUOUS
66
1
62
250
10
0.0
20
0.0
30
0.000000
0
VERTEX
8
0
10
3352.800000
20
11328.400000
0
VERTEX
8
0
10
3336.364706
20
11381.441176
0
VERTEX
8
0
10
3225.800000
20
11734.800000
0
VERTEX
8
0
10
3200.400000
20
11760.200000
0
VERTEX
8
0
10
3149.600000
20
11709.400000
0
SEQEND
0
POLYLINE
8
0
6
CONTINUOUS
66
1
62
253
10
0.0
20
0.0
30
0.000000
0
VERTEX
8
0
10
3352.800000
20
11303.000000
0
VERTEX
8
0
10
3352.800000
20
11328.400000
0
SEQEND
0
POLYLINE
8
0
6
CONTINUOUS
66
1
62
251
10
0.0
20
0.0
30
0.000000
0
VERTEX
8
0
10
3378.200000
20
11303.000000
0
VERTEX
8
0
10
3352.800000
20
11303.000000
0
SEQEND
0
POLYLINE
8
0
6
CONTINUOUS
66
1
62
250
10
0.0
20
0.0
30
0.000000
0
VERTEX
8
0
10
3378.200000
20
11303.000000
0
VERTEX
8
0
10
3479.800000
20
11404.600000
0
SEQEND
0
POLYLINE
8
0
6
CONTINUOUS
66
1
62
251
10
0.0
20
0.0
30
0.000000
0
VERTEX
8
0
10
3352.800000
20
11277.600000
0
VERTEX
8
0
10
3352.800000
20
11303.000000
0
SEQEND
0
POLYLINE
8
0
6
CONTINUOUS
66
1
62
250
10
0.0
20
0.0
30
0.000000
0
VERTEX
8
0
10
3327.400000
20
11226.800000
0
VERTEX
8
0
10
3352.800000
20
11277.600000
0
SEQEND
0
POLYLINE
8
0
6
CONTINUOUS
66
1
62
252
10
0.0
20
0.0
30
0.000000
0
VERTEX
8
0
10
3530.600000
20
11226.800000
0
VERTEX
8
0
10
3530.600000
20
11379.200000
0
VERTEX
8
0
10
3505.200000
20
11404.600000
0
SEQEND
0
POLYLINE
8
0
6
CONTINUOUS
66
1
62
253
10
0.0
20
0.0
30
0.000000
0
VERTEX
8
0
10
3530.600000
20
11201.400000
0
VERTEX
8
0
10
3530.600000
20
11226.800000
0
SEQEND
0
POLYLINE
8
0
6
CONTINUOUS
66
1
62
251
10
0.0
20
0.0
30
0.000000
0
VERTEX
8
0
10
3556.000000
20
11201.400000
0
VERTEX
8
0
10
3530.600000
20
11201.400000
0
SEQEND
0
POLYLINE
8
0
6
CONTINUOUS
66
1
62
7
10
0.0
20
0.0
30
0.000000
0
VERTEX
8
0
10
3556.000000
20
11201.400000
0
VERTEX
8
0
10
3704.492308
20
11334.261538
0
VERTEX
8
0
10
3759.200000
20
11379.200000
0
VERTEX
8
0
10
3784.600000
20
11353.800000
0
VERTEX
8
0
10
3784.600000
20
11226.800000
0
SEQEND
0
POLYLINE
8
0
6
CONTINUOUS
66
1
62
7
10
0.0
20
0.0
30
0.000000
0
VERTEX
8
0
10
3784.600000
20
11201.400000
0
VERTEX
8
0
10
3784.600000
20
11226.800000
0
SEQEND
0
POLYLINE
8
0
6
CONTINUOUS
66
1
62
7
10
0.0
20
0.0
30
0.000000
0
VERTEX
8
0
10
3810.000000
20
11201.400000
0
VERTEX
8
0
10
3784.600000
20
11201.400000
0
SEQEND
0
POLYLINE
8
0
6
CONTINUOUS
66
1
62
7
10
0.0
20
0.0
30
0.000000
0
VERTEX
8
0
10
3810.000000
20
11201.400000
0
VERTEX
8
0
10
3864.707692
20
11246.338462
0
VERTEX
8
0
10
4216.400000
20
11430.000000
0
SEQEND
0
POLYLINE
8
0
6
CONTINUOUS
66
1
62
251
10
0.0
20
0.0
30
0.000000
0
VERTEX
8
0
10
3530.600000
20
11176.000000
0
VERTEX
8
0
10
3530.600000
20
11201.400000
0
SEQEND
0
POLYLINE
8
0
6
CONTINUOUS
66
1
62
7
10
0.0
20
0.0
30
0.000000
0
VERTEX
8
0
10
3784.600000
20
11176.000000
0
VERTEX
8
0
10
3784.600000
20
11201.400000
0
SEQEND
0
POLYLINE
8
0
6
CONTINUOUS
66
1
62
7
10
0.0
20
0.0
30
0.000000
0
VERTEX
8
0
10
3759.200000
20
11150.600000
0
VERTEX
8
0
10
3784.600000
20
11176.000000
0
SEQEND
0
POLYLINE
8
0
6
CONTINUOUS
66
1
62
250
10
0.0
20
0.0
30
0.000000
0
VERTEX
8
0
10
3505.200000
20
10896.600000
0
VERTEX
8
0
10
3479.800000
20
11074.400000
0
VERTEX
8
0
10
3500.120000
20
11127.740000
0
VERTEX
8
0
10
3530.600000
20
11176.000000
0
SEQEND
0
POLYLINE
8
0
6
CONTINUOUS
66
1
62
250
10
0.0
20
0.0
30
0.000000
0
VERTEX
8
0
10
2133.600000
20
10820.400000
0
VERTEX
8
0
10
2133.600000
20
10845.800000
0
VERTEX
8
0
10
2159.000000
20
10845.800000
0
SEQEND
0
POLYLINE
8
0
6
CONTINUOUS
66
1
62
252
10
0.0
20
0.0
30
0.000000
0
VERTEX
8
0
10
1930.400000
20
10744.200000
0
VERTEX
8
0
10
1941.961379
20
11022.636552
0
VERTEX
8
0
10
1998.980000
20
11381.740000
0
VERTEX
8
0
10
2032.000000
20
11455.400000
0
SEQEND
0
POLYLINE
8
0
6
CONTINUOUS
66
1
62
251
10
0.0
20
0.0
30
0.000000
0
VERTEX
8
0
10
1930.400000
20
10718.800000
0
VERTEX
8
0
10
1905.000000
20
10718.800000
0
SEQEND
0
POLYLINE
8
0
6
CONTINUOUS
66
1
62
250
10
0.0
20
0.0
30
0.000000
0
VERTEX
8
0
10
1930.400000
20
10718.800000
0
VERTEX
8
0
10
1930.400000
20
10744.200000
0
SEQEND
0
POLYLINE
8
0
6
CONTINUOUS
66
1
62
7
10
0.0
20
0.0
30
0.000000
0
VERTEX
8
0
10
1600.200000
20
10693.400000
0
VERTEX
8
0
10
1600.200000
20
10718.800000
0
VERTEX
8
0
10
1625.600000
20
10718.800000
0
SEQEND
0
POLYLINE
8
0
6
CONTINUOUS
66
1
62
251
10
0.0
20
0.0
30
0.000000
0
VERTEX
8
0
10
1625.600000
20
10718.800000
0
VERTEX
8
0
10
1879.600000
20
10693.400000
0
VERTEX
8
0
10
1905.000000
20
10718.800000
0
SEQEND
0
POLYLINE
8
0
6
CONTINUOUS
66
1
62
250
10
0.0
20
0.0
30
0.000000
0
VERTEX
8
0
10
1930.400000
20
10693.400000
0
VERTEX
8
0
10
1930.400000
20
10718.800000
0
SEQEND
0
POLYLINE
8
0
6
CONTINUOUS
66
1
62
252
10
0.0
20
0.0
30
0.000000
0
VERTEX
8
0
10
2133.600000
20
10591.800000
0
VERTEX
8
0
10
2133.600000
20
10820.400000
0
SEQEND
0
POLYLINE
8
0
6
CONTINUOUS
66
1
62
250
10
0.0
20
0.0
30
0.000000
0
VERTEX
8
0
10
2108.200000
20
10566.400000
0
VERTEX
8
0
10
1930.400000
20
10693.400000
0
SEQEND
0
POLYLINE
8
0
6
CONTINUOUS
66
1
62
251
10
0.0
20
0.0
30
0.000000
0
VERTEX
8
0
10
2133.600000
20
10566.400000
0
VERTEX
8
0
10
2108.200000
20
10566.400000
0
SEQEND
0
POLYLINE
8
0
6
CONTINUOUS
66
1
62
250
10
0.0
20
0.0
30
0.000000
0
VERTEX
8
0
10
2133.600000
20
10566.400000
0
VERTEX
8
0
10
2133.600000
20
10591.800000
0
SEQEND
0
POLYLINE
8
0
6
CONTINUOUS
66
1
62
251
10
0.0
20
0.0
30
0.000000
0
VERTEX
8
0
10
4165.600000
20
10541.000000
0
VERTEX
8
0
10
4191.000000
20
10668.000000
0
VERTEX
8
0
10
4175.897297
20
10822.116216
0
VERTEX
8
0
10
4155.302703
20
10945.683784
0
VERTEX
8
0
10
4140.200000
20
11176.000000
0
VERTEX
8
0
10
4241.800000
20
11353.800000
0
SEQEND
0
POLYLINE
8
0
6
CONTINUOUS
66
1
62
251
10
0.0
20
0.0
30
0.000000
0
VERTEX
8
0
10
4165.600000
20
10541.000000
0
VERTEX
8
0
10
4191.000000
20
10528.300000
0
VERTEX
8
0
10
4318.000000
20
10541.000000
0
SEQEND
0
POLYLINE
8
0
6
CONTINUOUS
66
1
62
7
10
0.0
20
0.0
30
0.000000
0
VERTEX
8
0
10
4343.400000
20
10515.600000
0
VERTEX
8
0
10
4343.400000
20
10541.000000
0
VERTEX
8
0
10
4318.000000
20
10541.000000
0
SEQEND
0
POLYLINE
8
0
6
CONTINUOUS
66
1
62
250
10
0.0
20
0.0
30
0.000000
0
VERTEX
8
0
10
2159.000000
20
10845.800000
0
VERTEX
8
0
10
2286.000000
20
10795.000000
0
VERTEX
8
0
10
2540.000000
20
10490.200000
0
VERTEX
8
0
10
2641.600000
20
10490.200000
0
VERTEX
8
0
10
2717.800000
20
10566.400000
0
VERTEX
8
0
10
2697.480000
20
10619.740000
0
VERTEX
8
0
10
2616.200000
20
10718.800000
0
VERTEX
8
0
10
2435.860000
20
10789.920000
0
VERTEX
8
0
10
2336.800000
20
10845.800000
0
VERTEX
8
0
10
2235.200000
20
10947.400000
0
VERTEX
8
0
10
2138.680000
20
11330.940000
0
VERTEX
8
0
10
2057.400000
20
11455.400000
0
SEQEND
0
POLYLINE
8
0
6
CONTINUOUS
66
1
62
250
10
0.0
20
0.0
30
0.000000
0
VERTEX
8
0
10
2209.800000
20
10464.800000
0
VERTEX
8
0
10
2209.800000
20
10490.200000
0
VERTEX
8
0
10
2133.600000
20
10566.400000
0
SEQEND
0
POLYLINE
8
0
6
CONTINUOUS
66
1
62
251
10
0.0
20
0.0
30
0.000000
0
VERTEX
8
0
10
4089.400000
20
10439.400000
0
VERTEX
8
0
10
4165.600000
20
10541.000000
0
SEQEND
0
POLYLINE
8
0
6
CONTINUOUS
66
1
62
250
10
0.0
20
0.0
30
0.000000
0
VERTEX
8
0
10
1955.800000
20
10210.800000
0
VERTEX
8
0
10
1884.680000
20
10416.540000
0
VERTEX
8
0
10
1701.800000
20
10617.200000
0
VERTEX
8
0
10
1678.940000
20
10622.280000
0
VERTEX
8
0
10
1600.200000
20
10668.000000
0
VERTEX
8
0
10
1600.200000
20
10693.400000
0
SEQEND
0
POLYLINE
8
0
6
CONTINUOUS
66
1
62
251
10
0.0
20
0.0
30
0.000000
0
VERTEX
8
0
10
4191.000000
20
10210.800000
0
VERTEX
8
0
10
4334.435294
20
10441.641176
0
VERTEX
8
0
10
4343.400000
20
10515.600000
0
SEQEND
0
POLYLINE
8
0
6
CONTINUOUS
66
1
62
252
10
0.0
20
0.0
30
0.000000
0
VERTEX
8
0
10
1955.800000
20
10185.400000
0
VERTEX
8
0
10
1930.400000
20
10185.400000
0
SEQEND
0
POLYLINE
8
0
6
CONTINUOUS
66
1
62
250
10
0.0
20
0.0
30
0.000000
0
VERTEX
8
0
10
1955.800000
20
10185.400000
0
VERTEX
8
0
10
1955.800000
20
10210.800000
0
SEQEND
0
POLYLINE
8
0
6
CONTINUOUS
66
1
62
250
10
0.0
20
0.0
30
0.000000
0
VERTEX
8
0
10
4191.000000
20
10185.400000
0
VERTEX
8
0
10
4165.600000
20
10185.400000
0
SEQEND
0
POLYLINE
8
0
6
CONTINUOUS
66
1
62
251
10
0.0
20
0.0
30
0.000000
0
VERTEX
8
0
10
4191.000000
20
10185.400000
0
VERTEX
8
0
10
4191.000000
20
10210.800000
0
SEQEND
0
POLYLINE
8
0
6
CONTINUOUS
66
1
62
250
10
0.0
20
0.0
30
0.000000
0
VERTEX
8
0
10
1828.800000
20
10160.000000
0
VERTEX
8
0
10
1803.400000
20
10185.400000
0
VERTEX
8
0
10
1828.800000
20
10210.800000
0
VERTEX
8
0
10
1854.200000
20
10185.400000
0
SEQEND
0
POLYLINE
8
0
6
CONTINUOUS
66
1
62
253
10
0.0
20
0.0
30
0.000000
0
VERTEX
8
0
10
1828.800000
20
10160.000000
0
VERTEX
8
0
10
1854.200000
20
10185.400000
0
SEQEND
0
POLYLINE
8
0
6
CONTINUOUS
66
1
62
253
10
0.0
20
0.0
30
0.000000
0
VERTEX
8
0
10
1854.200000
20
10185.400000
0
VERTEX
8
0
10
1930.400000
20
10185.400000
0
SEQEND
0
POLYLINE
8
0
6
CONTINUOUS
66
1
62
7
10
0.0
20
0.0
30
0.000000
0
VERTEX
8
0
10
4140.200000
20
10160.000000
0
VERTEX
8
0
10
4165.600000
20
10185.400000
0
SEQEND
0
POLYLINE
8
0
6
CONTINUOUS
66
1
62
251
10
0.0
20
0.0
30
0.000000
0
VERTEX
8
0
10
2032.000000
20
10134.600000
0
VERTEX
8
0
10
2006.600000
20
10134.600000
0
VERTEX
8
0
10
1955.800000
20
10185.400000
0
SEQEND
0
POLYLINE
8
0
6
CONTINUOUS
66
1
62
251
10
0.0
20
0.0
30
0.000000
0
VERTEX
8
0
10
3479.800000
20
10134.600000
0
VERTEX
8
0
10
3505.200000
20
10134.600000
0
VERTEX
8
0
10
3556.000000
20
10185.400000
0
VERTEX
8
0
10
3733.800000
20
10490.200000
0
VERTEX
8
0
10
3708.400000
20
10541.000000
0
VERTEX
8
0
10
3724.030769
20
10593.753846
0
VERTEX
8
0
10
3768.969231
20
10818.446154
0
VERTEX
8
0
10
3860.800000
20
10998.200000
0
VERTEX
8
0
10
3937.000000
20
11074.400000
0
VERTEX
8
0
10
3962.400000
20
11074.400000
0
SEQEND
0
POLYLINE
8
0
6
CONTINUOUS
66
1
62
7
10
0.0
20
0.0
30
0.000000
0
VERTEX
8
0
10
3454.400000
20
10109.200000
0
VERTEX
8
0
10
3454.400000
20
10134.600000
0
VERTEX
8
0
10
3479.800000
20
10134.600000
0
SEQEND
0
POLYLINE
8
0
6
CONTINUOUS
66
1
62
250
10
0.0
20
0.0
30
0.000000
0
VERTEX
8
0
10
3200.400000
20
9982.200000
0
VERTEX
8
0
10
3164.058462
20
10184.032308
0
VERTEX
8
0
10
3068.320000
20
10538.460000
0
VERTEX
8
0
10
3055.620000
20
10568.940000
0
VERTEX
8
0
10
2632.635294
20
11529.358824
0
VERTEX
8
0
10
2590.800000
20
11684.000000
0
VERTEX
8
0
10
2590.800000
20
11836.400000
0
VERTEX
8
0
10
2649.220000
20
12037.060000
0
VERTEX
8
0
10
2717.800000
20
12141.200000
0
SEQEND
0
POLYLINE
8
0
6
CONTINUOUS
66
1
62
7
10
0.0
20
0.0
30
0.000000
0
VERTEX
8
0
10
3200.400000
20
9956.800000
0
VERTEX
8
0
10
3175.000000
20
9956.800000
0
SEQEND
0
POLYLINE
8
0
6
CONTINUOUS
66
1
62
252
10
0.0
20
0.0
30
0.000000
0
VERTEX
8
0
10
3200.400000
20
9956.800000
0
VERTEX
8
0
10
3200.400000
20
9982.200000
0
SEQEND
0
POLYLINE
8
0
6
CONTINUOUS
66
1
62
7
10
0.0
20
0.0
30
0.000000
0
VERTEX
8
0
10
3225.800000
20
9956.800000
0
VERTEX
8
0
10
3200.400000
20
9956.800000
0
SEQEND
0
POLYLINE
8
0
6
CONTINUOUS
66
1
62
250
10
0.0
20
0.0
30
0.000000
0
VERTEX
8
0
10
3225.800000
20
9956.800000
0
VERTEX
8
0
10
3248.660000
20
9961.880000
0
VERTEX
8
0
10
3454.400000
20
10083.800000
0
VERTEX
8
0
10
3454.400000
20
10109.200000
0
SEQEND
0
POLYLINE
8
0
6
CONTINUOUS
66
1
62
252
10
0.0
20
0.0
30
0.000000
0
VERTEX
8
0
10
4114.800000
20
9956.800000
0
VERTEX
8
0
10
4038.600000
20
9956.800000
0
SEQEND
0
POLYLINE
8
0
6
CONTINUOUS
66
1
62
250
10
0.0
20
0.0
30
0.000000
0
VERTEX
8
0
10
4114.800000
20
9956.800000
0
VERTEX
8
0
10
4269.740000
20
10027.920000
0
VERTEX
8
0
10
4394.200000
20
10134.600000
0
VERTEX
8
0
10
4343.400000
20
10185.400000
0
VERTEX
8
0
10
4216.400000
20
10172.700000
0
VERTEX
8
0
10
4191.000000
20
10185.400000
0
SEQEND
0
POLYLINE
8
0
6
CONTINUOUS
66
1
62
250
10
0.0
20
0.0
30
0.000000
0
VERTEX
8
0
10
2006.600000
20
9906.000000
0
VERTEX
8
0
10
1840.005882
20
10115.923529
0
VERTEX
8
0
10
1828.800000
20
10160.000000
0
SEQEND
0
POLYLINE
8
0
6
CONTINUOUS
66
1
62
251
10
0.0
20
0.0
30
0.000000
0
VERTEX
8
0
10
2032.000000
20
9906.000000
0
VERTEX
8
0
10
2006.600000
20
9906.000000
0
SEQEND
0
POLYLINE
8
0
6
CONTINUOUS
66
1
62
252
10
0.0
20
0.0
30
0.000000
0
VERTEX
8
0
10
2032.000000
20
10388.600000
0
VERTEX
8
0
10
2230.628000
20
10306.304000
0
VERTEX
8
0
10
2315.972000
20
10242.296000
0
VERTEX
8
0
10
2745.740000
20
9964.420000
0
VERTEX
8
0
10
2821.116216
20
9941.697297
0
VERTEX
8
0
10
3022.600000
20
9906.000000
0
VERTEX
8
0
10
3175.000000
20
9956.800000
0
SEQEND
0
POLYLINE
8
0
6
CONTINUOUS
66
1
62
252
10
0.0
20
0.0
30
0.000000
0
VERTEX
8
0
10
2006.600000
20
9880.600000
0
VERTEX
8
0
10
2006.600000
20
9906.000000
0
SEQEND
0
POLYLINE
8
0
6
CONTINUOUS
66
1
62
251
10
0.0
20
0.0
30
0.000000
0
VERTEX
8
0
10
2260.600000
20
9728.200000
0
VERTEX
8
0
10
2032.000000
20
9906.000000
0
SEQEND
0
POLYLINE
8
0
6
CONTINUOUS
66
1
62
251
10
0.0
20
0.0
30
0.000000
0
VERTEX
8
0
10
2311.400000
20
9702.800000
0
VERTEX
8
0
10
2260.600000
20
9728.200000
0
SEQEND
0
POLYLINE
8
0
6
CONTINUOUS
66
1
62
7
10
0.0
20
0.0
30
0.000000
0
VERTEX
8
0
10
3581.400000
20
9702.800000
0
VERTEX
8
0
10
3862.753846
20
9743.830769
0
VERTEX
8
0
10
4165.600000
20
9829.800000
0
VERTEX
8
0
10
4191.000000
20
9855.200000
0
VERTEX
8
0
10
4191.000000
20
9880.600000
0
VERTEX
8
0
10
4114.800000
20
9956.800000
0
SEQEND
0
POLYLINE
8
0
6
CONTINUOUS
66
1
62
251
10
0.0
20
0.0
30
0.000000
0
VERTEX
8
0
10
2082.800000
20
9652.000000
0
VERTEX
8
0
10
2015.564706
20
9806.641176
0
VERTEX
8
0
10
2006.600000
20
9880.600000
0
SEQEND
0
POLYLINE
8
0
6
CONTINUOUS
66
1
62
250
10
0.0
20
0.0
30
0.000000
0
VERTEX
8
0
10
2082.800000
20
9652.000000
0
VERTEX
8
0
10
2260.600000
20
9728.200000
0
SEQEND
0
POLYLINE
8
0
6
CONTINUOUS
66
1
62
251
10
0.0
20
0.0
30
0.000000
0
VERTEX
8
0
10
2159.000000
20
9525.000000
0
VERTEX
8
0
10
2082.800000
20
9601.200000
0
VERTEX
8
0
10
2082.800000
20
9652.000000
0
SEQEND
0
POLYLINE
8
0
6
CONTINUOUS
66
1
62
253
10
0.0
20
0.0
30
0.000000
0
VERTEX
8
0
10
2184.400000
20
9525.000000
0
VERTEX
8
0
10
2159.000000
20
9525.000000
0
SEQEND
0
POLYLINE
8
0
6
CONTINUOUS
66
1
62
251
10
0.0
20
0.0
30
0.000000
0
VERTEX
8
0
10
2159.000000
20
9499.600000
0
VERTEX
8
0
10
2159.000000
20
9525.000000
0
SEQEND
0
POLYLINE
8
0
6
CONTINUOUS
66
1
62
250
10
0.0
20
0.0
30
0.000000
0
VERTEX
8
0
10
3022.600000
20
9448.800000
0
VERTEX
8
0
10
3231.405517
20
9645.693793
0
VERTEX
8
0
10
3279.140000
20
9669.780000
0
VERTEX
8
0
10
3530.600000
20
9715.500000
0
VERTEX
8
0
10
3581.400000
20
9702.800000
0
SEQEND
0
POLYLINE
8
0
6
CONTINUOUS
66
1
62
250
10
0.0
20
0.0
30
0.000000
0
VERTEX
8
0
10
3581.400000
20
9702.800000
0
VERTEX
8
0
10
3733.800000
20
9525.000000
0
VERTEX
8
0
10
3815.080000
20
9484.360000
0
VERTEX
8
0
10
3858.260000
20
9466.580000
0
VERTEX
8
0
10
3886.200000
20
9448.800000
0
VERTEX
8
0
10
4013.200000
20
9448.800000
0
VERTEX
8
0
10
4191.000000
20
9525.000000
0
VERTEX
8
0
10
4292.600000
20
9626.600000
0
VERTEX
8
0
10
4439.920000
20
9857.740000
0
VERTEX
8
0
10
4450.080000
20
9878.060000
0
VERTEX
8
0
10
4546.600000
20
10109.200000
0
VERTEX
8
0
10
4546.600000
20
10464.800000
0
VERTEX
8
0
10
4486.835294
20
10741.958824
0
VERTEX
8
0
10
4479.364706
20
10771.841176
0
VERTEX
8
0
10
4363.720000
20
11148.060000
0
VERTEX
8
0
10
4267.200000
20
11353.800000
0
SEQEND
0
POLYLINE
8
0
6
CONTINUOUS
66
1
62
252
10
0.0
20
0.0
30
0.000000
0
VERTEX
8
0
10
2667.000000
20
9423.400000
0
VERTEX
8
0
10
2439.531683
20
9434.716832
0
VERTEX
8
0
10
2184.400000
20
9525.000000
0
SEQEND
0
POLYLINE
8
0
6
CONTINUOUS
66
1
62
250
10
0.0
20
0.0
30
0.000000
0
VERTEX
8
0
10
3022.600000
20
9423.400000
0
VERTEX
8
0
10
2997.200000
20
9423.400000
0
SEQEND
0
POLYLINE
8
0
6
CONTINUOUS
66
1
62
250
10
0.0
20
0.0
30
0.000000
0
VERTEX
8
0
10
3022.600000
20
9423.400000
0
VERTEX
8
0
10
3022.600000
20
9448.800000
0
SEQEND
0
POLYLINE
8
0
6
CONTINUOUS
66
1
62
250
10
0.0
20
0.0
30
0.000000
0
VERTEX
8
0
10
2692.400000
20
9398.000000
0
VERTEX
8
0
10
2692.400000
20
9423.400000
0
VERTEX
8
0
10
2667.000000
20
9423.400000
0
SEQEND
0
POLYLINE
8
0
6
CONTINUOUS
66
1
62
251
10
0.0
20
0.0
30
0.000000
0
VERTEX
8
0
10
4343.400000
20
9372.600000
0
VERTEX
8
0
10
4476.261538
20
9546.492308
0
VERTEX
8
0
10
4589.780000
20
9756.140000
0
VERTEX
8
0
10
4648.200000
20
9906.000000
0
SEQEND
0
POLYLINE
8
0
6
CONTINUOUS
66
1
62
250
10
0.0
20
0.0
30
0.000000
0
VERTEX
8
0
10
4292.600000
20
9347.200000
0
VERTEX
8
0
10
4343.400000
20
9372.600000
0
SEQEND
0
POLYLINE
8
0
6
CONTINUOUS
66
1
62
251
10
0.0
20
0.0
30
0.000000
0
VERTEX
8
0
10
4318.000000
20
9321.800000
0
VERTEX
8
0
10
4292.600000
20
9347.200000
0
SEQEND
0
POLYLINE
8
0
6
CONTINUOUS
66
1
62
251
10
0.0
20
0.0
30
0.000000
0
VERTEX
8
0
10
4343.400000
20
9321.800000
0
VERTEX
8
0
10
4318.000000
20
9321.800000
0
SEQEND
0
POLYLINE
8
0
6
CONTINUOUS
66
1
62
252
10
0.0
20
0.0
30
0.000000
0
VERTEX
8
0
10
4343.400000
20
9321.800000
0
VERTEX
8
0
10
4368.800000
20
9347.200000
0
VERTEX
8
0
10
4343.400000
20
9372.600000
0
SEQEND
0
POLYLINE
8
0
6
CONTINUOUS
66
1
62
252
10
0.0
20
0.0
30
0.000000
0
VERTEX
8
0
10
4343.400000
20
9296.400000
0
VERTEX
8
0
10
4343.400000
20
9321.800000
0
SEQEND
0
POLYLINE
8
0
6
CONTINUOUS
66
1
62
250
10
0.0
20
0.0
30
0.000000
0
VERTEX
8
0
10
2692.400000
20
9398.000000
0
VERTEX
8
0
10
2686.538462
20
9376.507692
0
VERTEX
8
0
10
2641.600000
20
9321.800000
0
VERTEX
8
0
10
2692.400000
20
9271.000000
0
VERTEX
8
0
10
2865.628000
20
9327.896000
0
VERTEX
8
0
10
2997.200000
20
9423.400000
0
SEQEND
0
POLYLINE
8
0
6
CONTINUOUS
66
1
62
251
10
0.0
20
0.0
30
0.000000
0
VERTEX
8
0
10
3403.600000
20
9169.400000
0
VERTEX
8
0
10
3375.660000
20
9187.180000
0
VERTEX
8
0
10
3154.804918
20
9302.645902
0
VERTEX
8
0
10
3022.600000
20
9423.400000
0
SEQEND
0
POLYLINE
8
0
6
CONTINUOUS
66
1
62
253
10
0.0
20
0.0
30
0.000000
0
VERTEX
8
0
10
3429.000000
20
9169.400000
0
VERTEX
8
0
10
3403.600000
20
9169.400000
0
SEQEND
0
POLYLINE
8
0
6
CONTINUOUS
66
1
62
253
10
0.0
20
0.0
30
0.000000
0
VERTEX
8
0
10
3403.600000
20
9144.000000
0
VERTEX
8
0
10
3403.600000
20
9169.400000
0
SEQEND
0
POLYLINE
8
0
6
CONTINUOUS
66
1
62
251
10
0.0
20
0.0
30
0.000000
0
VERTEX
8
0
10
3606.800000
20
9118.600000
0
VERTEX
8
0
10
3429.000000
20
9169.400000
0
SEQEND
0
POLYLINE
8
0
6
CONTINUOUS
66
1
62
250
10
0.0
20
0.0
30
0.000000
0
VERTEX
8
0
10
3632.200000
20
9118.600000
0
VERTEX
8
0
10
3606.800000
20
9118.600000
0
SEQEND
0
POLYLINE
8
0
6
CONTINUOUS
66
1
62
7
10
0.0
20
0.0
30
0.000000
0
VERTEX
8
0
10
3632.200000
20
9118.600000
0
VERTEX
8
0
10
3884.483784
20
9154.297297
0
VERTEX
8
0
10
4161.692308
20
9251.461538
0
VERTEX
8
0
10
4292.600000
20
9347.200000
0
SEQEND
0
POLYLINE
8
0
6
CONTINUOUS
66
1
62
250
10
0.0
20
0.0
30
0.000000
0
VERTEX
8
0
10
3606.800000
20
9093.200000
0
VERTEX
8
0
10
3606.800000
20
9118.600000
0
SEQEND
0
POLYLINE
8
0
6
CONTINUOUS
66
1
62
250
10
0.0
20
0.0
30
0.000000
0
VERTEX
8
0
10
2438.400000
20
8813.800000
0
VERTEX
8
0
10
2012.845902
20
9276.204918
0
VERTEX
8
0
10
1833.880000
20
9552.940000
0
VERTEX
8
0
10
1797.538462
20
9622.692308
0
VERTEX
8
0
10
1658.620000
20
9933.940000
0
VERTEX
8
0
10
1591.235294
20
10157.758824
0
VERTEX
8
0
10
1524.000000
20
10414.000000
0
VERTEX
8
0
10
1524.000000
20
10693.400000
0
VERTEX
8
0
10
1585.468000
20
11072.876000
0
VERTEX
8
0
10
1785.620000
20
11808.460000
0
VERTEX
8
0
10
1821.180000
20
11915.140000
0
VERTEX
8
0
10
1971.430769
20
12473.353846
0
VERTEX
8
0
10
2016.897297
20
12723.683784
0
VERTEX
8
0
10
2032.000000
20
12750.800000
0
VERTEX
8
0
10
2032.000000
20
13131.800000
0
VERTEX
8
0
10
1976.120000
20
13307.060000
0
VERTEX
8
0
10
1963.420000
20
13337.540000
0
VERTEX
8
0
10
1854.200000
20
13563.600000
0
VERTEX
8
0
10
1778.000000
20
13639.800000
0
VERTEX
8
0
10
1673.860000
20
13685.520000
0
VERTEX
8
0
10
1651.000000
20
13690.600000
0
SEQEND
0
POLYLINE
8
0
6
CONTINUOUS
66
1
62
253
10
0.0
20
0.0
30
0.000000
0
VERTEX
8
0
10
2413.000000
20
8788.400000
0
VERTEX
8
0
10
2438.400000
20
8813.800000
0
SEQEND
0
POLYLINE
8
0
6
CONTINUOUS
66
1
62
251
10
0.0
20
0.0
30
0.000000
0
VERTEX
8
0
10
2489.200000
20
8788.400000
0
VERTEX
8
0
10
2438.400000
20
8813.800000
0
SEQEND
0
POLYLINE
8
0
6
CONTINUOUS
66
1
62
250
10
0.0
20
0.0
30
0.000000
0
VERTEX
8
0
10
2413.000000
20
8763.000000
0
VERTEX
8
0
10
2387.600000
20
8763.000000
0
SEQEND
0
POLYLINE
8
0
6
CONTINUOUS
66
1
62
252
10
0.0
20
0.0
30
0.000000
0
VERTEX
8
0
10
2413.000000
20
8763.000000
0
VERTEX
8
0
10
2413.000000
20
8788.400000
0
SEQEND
0
POLYLINE
8
0
6
CONTINUOUS
66
1
62
7
10
0.0
20
0.0
30
0.000000
0
VERTEX
8
0
10
2438.400000
20
8763.000000
0
VERTEX
8
0
10
2413.000000
20
8763.000000
0
SEQEND
0
POLYLINE
8
0
6
CONTINUOUS
66
1
62
7
10
0.0
20
0.0
30
0.000000
0
VERTEX
8
0
10
2463.800000
20
8763.000000
0
VERTEX
8
0
10
2438.400000
20
8763.000000
0
SEQEND
0
POLYLINE
8
0
6
CONTINUOUS
66
1
62
250
10
0.0
20
0.0
30
0.000000
0
VERTEX
8
0
10
2489.200000
20
8763.000000
0
VERTEX
8
0
10
2463.800000
20
8763.000000
0
SEQEND
0
POLYLINE
8
0
6
CONTINUOUS
66
1
62
250
10
0.0
20
0.0
30
0.000000
0
VERTEX
8
0
10
2489.200000
20
8763.000000
0
VERTEX
8
0
10
2489.200000
20
8788.400000
0
SEQEND
0
POLYLINE
8
0
6
CONTINUOUS
66
1
62
250
10
0.0
20
0.0
30
0.000000
0
VERTEX
8
0
10
2514.600000
20
8763.000000
0
VERTEX
8
0
10
2489.200000
20
8763.000000
0
SEQEND
0
POLYLINE
8
0
6
CONTINUOUS
66
1
62
250
10
0.0
20
0.0
30
0.000000
0
VERTEX
8
0
10
3429.000000
20
8483.600000
0
VERTEX
8
0
10
3346.938462
20
8606.692308
0
VERTEX
8
0
10
3251.200000
20
8763.000000
0
VERTEX
8
0
10
3251.200000
20
8966.200000
0
VERTEX
8
0
10
3282.845902
20
9011.795082
0
VERTEX
8
0
10
3403.600000
20
9144.000000
0
SEQEND
0
POLYLINE
8
0
6
CONTINUOUS
66
1
62
250
10
0.0
20
0.0
30
0.000000
0
VERTEX
8
0
10
3403.600000
20
8458.200000
0
VERTEX
8
0
10
3196.492308
20
8579.338462
0
VERTEX
8
0
10
2667.000000
20
8890.000000
0
VERTEX
8
0
10
2311.400000
20
9245.600000
0
VERTEX
8
0
10
2164.080000
20
9476.740000
0
VERTEX
8
0
10
2159.000000
20
9499.600000
0
SEQEND
0
POLYLINE
8
0
6
CONTINUOUS
66
1
62
250
10
0.0
20
0.0
30
0.000000
0
VERTEX
8
0
10
3429.000000
20
8458.200000
0
VERTEX
8
0
10
3403.600000
20
8458.200000
0
SEQEND
0
POLYLINE
8
0
6
CONTINUOUS
66
1
62
252
10
0.0
20
0.0
30
0.000000
0
VERTEX
8
0
10
3429.000000
20
8458.200000
0
VERTEX
8
0
10
3429.000000
20
8483.600000
0
SEQEND
0
POLYLINE
8
0
6
CONTINUOUS
66
1
62
250
10
0.0
20
0.0
30
0.000000
0
VERTEX
8
0
10
3454.400000
20
8458.200000
0
VERTEX
8
0
10
3429.000000
20
8458.200000
0
SEQEND
0
POLYLINE
8
0
6
CONTINUOUS
66
1
62
251
10
0.0
20
0.0
30
0.000000
0
VERTEX
8
0
10
4089.400000
20
8407.400000
0
VERTEX
8
0
10
4101.200885
20
8762.213274
0
VERTEX
8
0
10
4123.764706
20
8862.358824
0
VERTEX
8
0
10
4272.280000
20
9192.260000
0
VERTEX
8
0
10
4343.400000
20
9296.400000
0
SEQEND
0
POLYLINE
8
0
6
CONTINUOUS
66
1
62
250
10
0.0
20
0.0
30
0.000000
0
VERTEX
8
0
10
4038.600000
20
8382.000000
0
VERTEX
8
0
10
3816.195122
20
8640.956098
0
VERTEX
8
0
10
3652.520000
20
8887.460000
0
VERTEX
8
0
10
3616.569231
20
8993.553846
0
VERTEX
8
0
10
3606.800000
20
9093.200000
0
SEQEND
0
POLYLINE
8
0
6
CONTINUOUS
66
1
62
250
10
0.0
20
0.0
30
0.000000
0
VERTEX
8
0
10
4064.000000
20
8382.000000
0
VERTEX
8
0
10
4038.600000
20
8382.000000
0
SEQEND
0
POLYLINE
8
0
6
CONTINUOUS
66
1
62
252
10
0.0
20
0.0
30
0.000000
0
VERTEX
8
0
10
4064.000000
20
8382.000000
0
VERTEX
8
0
10
4089.400000
20
8407.400000
0
SEQEND
0
POLYLINE
8
0
6
CONTINUOUS
66
1
62
251
10
0.0
20
0.0
30
0.000000
0
VERTEX
8
0
10
4064.000000
20
8356.600000
0
VERTEX
8
0
10
4064.000000
20
8382.000000
0
SEQEND
0
POLYLINE
8
0
6
CONTINUOUS
66
1
62
251
10
0.0
20
0.0
30
0.000000
0
VERTEX
8
0
10
4114.800000
20
8356.600000
0
VERTEX
8
0
10
4089.400000
20
8407.400000
0
SEQEND
0
POLYLINE
8
0
6
CONTINUOUS
66
1
62
7
10
0.0
20
0.0
30
0.000000
0
VERTEX
8
0
10
4089.400000
20
8331.200000
0
VERTEX
8
0
10
4064.000000
20
8356.600000
0
SEQEND
0
POLYLINE
8
0
6
CONTINUOUS
66
1
62
250
10
0.0
20
0.0
30
0.000000
0
VERTEX
8
0
10
4114.800000
20
8331.200000
0
VERTEX
8
0
10
4089.400000
20
8331.200000
0
SEQEND
0
POLYLINE
8
0
6
CONTINUOUS
66
1
62
251
10
0.0
20
0.0
30
0.000000
0
VERTEX
8
0
10
4114.800000
20
8331.200000
0
VERTEX
8
0
10
4114.800000
20
8356.600000
0
SEQEND
0
POLYLINE
8
0
6
CONTINUOUS
66
1
62
251
10
0.0
20
0.0
30
0.000000
0
VERTEX
8
0
10
4114.800000
20
8305.800000
0
VERTEX
8
0
10
4114.800000
20
8331.200000
0
SEQEND
0
POLYLINE
8
0
6
CONTINUOUS
66
1
62
251
10
0.0
20
0.0
30
0.000000
0
VERTEX
8
0
10
3403.600000
20
8255.000000
0
VERTEX
8
0
10
3253.740000
20
8313.420000
0
VERTEX
8
0
10
2747.107692
20
8591.061538
0
VERTEX
8
0
10
2514.600000
20
8763.000000
0
SEQEND
0
POLYLINE
8
0
6
CONTINUOUS
66
1
62
250
10
0.0
20
0.0
30
0.000000
0
VERTEX
8
0
10
4851.400000
20
8204.200000
0
VERTEX
8
0
10
4597.400000
20
8407.400000
0
VERTEX
8
0
10
4556.760000
20
8488.680000
0
VERTEX
8
0
10
4538.980000
20
8531.860000
0
VERTEX
8
0
10
4495.800000
20
8661.400000
0
VERTEX
8
0
10
4495.800000
20
8839.200000
0
VERTEX
8
0
10
4733.364706
20
9624.358824
0
VERTEX
8
0
10
4800.600000
20
9982.200000
0
VERTEX
8
0
10
4800.600000
20
10414.000000
0
VERTEX
8
0
10
4733.364706
20
10771.841176
0
VERTEX
8
0
10
4617.720000
20
11148.060000
0
VERTEX
8
0
10
4577.080000
20
11254.740000
0
VERTEX
8
0
10
4349.261538
20
11687.907692
0
VERTEX
8
0
10
4298.461538
20
11764.107692
0
VERTEX
8
0
10
4241.800000
20
11861.800000
0
VERTEX
8
0
10
3911.600000
20
12192.000000
0
VERTEX
8
0
10
3780.692308
20
12262.338462
0
VERTEX
8
0
10
3763.107692
20
12274.061538
0
VERTEX
8
0
10
3528.060000
20
12387.580000
0
VERTEX
8
0
10
3200.400000
20
12471.400000
0
SEQEND
0
POLYLINE
8
0
6
CONTINUOUS
66
1
62
251
10
0.0
20
0.0
30
0.000000
0
VERTEX
8
0
10
4876.800000
20
8204.200000
0
VERTEX
8
0
10
4851.400000
20
8204.200000
0
SEQEND
0
POLYLINE
8
0
6
CONTINUOUS
66
1
62
250
10
0.0
20
0.0
30
0.000000
0
VERTEX
8
0
10
2641.600000
20
8128.000000
0
VERTEX
8
0
10
2414.953846
20
8188.569231
0
VERTEX
8
0
10
2186.940000
20
8285.480000
0
VERTEX
8
0
10
1975.821176
20
8451.924706
0
VERTEX
8
0
10
1549.400000
20
8559.800000
0
VERTEX
8
0
10
1724.660000
20
8691.880000
0
VERTEX
8
0
10
1906.524000
20
8752.332000
0
VERTEX
8
0
10
2082.800000
20
8788.400000
0
VERTEX
8
0
10
2287.953846
20
8772.769231
0
VERTEX
8
0
10
2387.600000
20
8763.000000
0
SEQEND
0
POLYLINE
8
0
6
CONTINUOUS
66
1
62
250
10
0.0
20
0.0
30
0.000000
0
VERTEX
8
0
10
3302.000000
20
8128.000000
0
VERTEX
8
0
10
3152.140000
20
8161.020000
0
VERTEX
8
0
10
3124.200000
20
8178.800000
0
VERTEX
8
0
10
2819.400000
20
8178.800000
0
VERTEX
8
0
10
2715.558824
20
8136.964706
0
VERTEX
8
0
10
2641.600000
20
8128.000000
0
SEQEND
0
POLYLINE
8
0
6
CONTINUOUS
66
1
62
251
10
0.0
20
0.0
30
0.000000
0
VERTEX
8
0
10
4038.600000
20
8128.000000
0
VERTEX
8
0
10
3933.092308
20
8172.938462
0
VERTEX
8
0
10
3585.972000
20
8362.696000
0
VERTEX
8
0
10
3454.400000
20
8458.200000
0
SEQEND
0
POLYLINE
8
0
6
CONTINUOUS
66
1
62
7
10
0.0
20
0.0
30
0.000000
0
VERTEX
8
0
10
4292.600000
20
8128.000000
0
VERTEX
8
0
10
4114.800000
20
8305.800000
0
SEQEND
0
POLYLINE
8
0
6
CONTINUOUS
66
1
62
251
10
0.0
20
0.0
30
0.000000
0
VERTEX
8
0
10
4318.000000
20
8128.000000
0
VERTEX
8
0
10
4292.600000
20
8128.000000
0
SEQEND
0
POLYLINE
8
0
6
CONTINUOUS
66
1
62
253
10
0.0
20
0.0
30
0.000000
0
VERTEX
8
0
10
4343.400000
20
8128.000000
0
VERTEX
8
0
10
4318.000000
20
8128.000000
0
SEQEND
0
POLYLINE
8
0
6
CONTINUOUS
66
1
62
252
10
0.0
20
0.0
30
0.000000
0
VERTEX
8
0
10
4318.000000
20
8102.600000
0
VERTEX
8
0
10
4318.000000
20
8128.000000
0
SEQEND
0
POLYLINE
8
0
6
CONTINUOUS
66
1
62
250
10
0.0
20
0.0
30
0.000000
0
VERTEX
8
0
10
4343.400000
20
8128.000000
0
VERTEX
8
0
10
4597.400000
20
8102.600000
0
VERTEX
8
0
10
4722.446154
20
8137.769231
0
VERTEX
8
0
10
4851.400000
20
8204.200000
0
SEQEND
0
POLYLINE
8
0
6
CONTINUOUS
66
1
62
251
10
0.0
20
0.0
30
0.000000
0
VERTEX
8
0
10
1879.600000
20
8051.800000
0
VERTEX
8
0
10
1879.600000
20
8077.200000
0
VERTEX
8
0
10
1905.000000
20
8077.200000
0
SEQEND
0
POLYLINE
8
0
6
CONTINUOUS
66
1
62
251
10
0.0
20
0.0
30
0.000000
0
VERTEX
8
0
10
2133.600000
20
8051.800000
0
VERTEX
8
0
10
2133.600000
20
8077.200000
0
VERTEX
8
0
10
2159.000000
20
8077.200000
0
SEQEND
0
POLYLINE
8
0
6
CONTINUOUS
66
1
62
250
10
0.0
20
0.0
30
0.000000
0
VERTEX
8
0
10
1905.000000
20
8001.000000
0
VERTEX
8
0
10
1879.600000
20
8051.800000
0
SEQEND
0
POLYLINE
8
0
6
CONTINUOUS
66
1
62
252
10
0.0
20
0.0
30
0.000000
0
VERTEX
8
0
10
2108.200000
20
8001.000000
0
VERTEX
8
0
10
2133.600000
20
8051.800000
0
SEQEND
0
POLYLINE
8
0
6
CONTINUOUS
66
1
62
7
10
0.0
20
0.0
30
0.000000
0
VERTEX
8
0
10
1905.000000
20
7975.600000
0
VERTEX
8
0
10
1905.000000
20
8001.000000
0
SEQEND
0
POLYLINE
8
0
6
CONTINUOUS
66
1
62
7
10
0.0
20
0.0
30
0.000000
0
VERTEX
8
0
10
1930.400000
20
7975.600000
0
VERTEX
8
0
10
1905.000000
20
7975.600000
0
SEQEND
0
POLYLINE
8
0
6
CONTINUOUS
66
1
62
251
10
0.0
20
0.0
30
0.000000
0
VERTEX
8
0
10
2082.800000
20
7975.600000
0
VERTEX
8
0
10
1953.260000
20
8069.580000
0
VERTEX
8
0
10
1905.000000
20
8077.200000
0
SEQEND
0
POLYLINE
8
0
6
CONTINUOUS
66
1
62
251
10
0.0
20
0.0
30
0.000000
0
VERTEX
8
0
10
2108.200000
20
7975.600000
0
VERTEX
8
0
10
2082.800000
20
7975.600000
0
SEQEND
0
POLYLINE
8
0
6
CONTINUOUS
66
1
62
250
10
0.0
20
0.0
30
0.000000
0
VERTEX
8
0
10
2108.200000
20
7975.600000
0
VERTEX
8
0
10
2108.200000
20
8001.000000
0
SEQEND
0
POLYLINE
8
0
6
CONTINUOUS
66
1
62
250
10
0.0
20
0.0
30
0.000000
0
VERTEX
8
0
10
2438.400000
20
7975.600000
0
VERTEX
8
0
10
2641.600000
20
8128.000000
0
SEQEND
0
POLYLINE
8
0
6
CONTINUOUS
66
1
62
250
10
0.0
20
0.0
30
0.000000
0
VERTEX
8
0
10
1981.200000
20
7950.200000
0
VERTEX
8
0
10
1930.400000
20
7975.600000
0
SEQEND
0
POLYLINE
8
0
6
CONTINUOUS
66
1
62
251
10
0.0
20
0.0
30
0.000000
0
VERTEX
8
0
10
2387.600000
20
7950.200000
0
VERTEX
8
0
10
2159.000000
20
8077.200000
0
SEQEND
0
POLYLINE
8
0
6
CONTINUOUS
66
1
62
7
10
0.0
20
0.0
30
0.000000
0
VERTEX
8
0
10
2413.000000
20
7950.200000
0
VERTEX
8
0
10
2387.600000
20
7950.200000
0
SEQEND
0
POLYLINE
8
0
6
CONTINUOUS
66
1
62
252
10
0.0
20
0.0
30
0.000000
0
VERTEX
8
0
10
2413.000000
20
7950.200000
0
VERTEX
8
0
10
2438.400000
20
7975.600000
0
SEQEND
0
POLYLINE
8
0
6
CONTINUOUS
66
1
62
250
10
0.0
20
0.0
30
0.000000
0
VERTEX
8
0
10
2159.000000
20
7924.800000
0
VERTEX
8
0
10
2108.200000
20
7975.600000
0
SEQEND
0
POLYLINE
8
0
6
CONTINUOUS
66
1
62
7
10
0.0
20
0.0
30
0.000000
0
VERTEX
8
0
10
2413.000000
20
7924.800000
0
VERTEX
8
0
10
2413.000000
20
7950.200000
0
SEQEND
0
POLYLINE
8
0
6
CONTINUOUS
66
1
62
252
10
0.0
20
0.0
30
0.000000
0
VERTEX
8
0
10
3149.600000
20
7924.800000
0
VERTEX
8
0
10
3124.200000
20
7924.800000
0
SEQEND
0
POLYLINE
8
0
6
CONTINUOUS
66
1
62
253
10
0.0
20
0.0
30
0.000000
0
VERTEX
8
0
10
3149.600000
20
7899.400000
0
VERTEX
8
0
10
3149.600000
20
7924.800000
0
SEQEND
0
POLYLINE
8
0
6
CONTINUOUS
66
1
62
251
10
0.0
20
0.0
30
0.000000
0
VERTEX
8
0
10
2438.400000
20
7975.600000
0
VERTEX
8
0
10
2669.540000
20
7907.020000
0
VERTEX
8
0
10
2974.340000
20
7777.480000
0
VERTEX
8
0
10
3022.600000
20
7747.000000
0
VERTEX
8
0
10
3073.400000
20
7797.800000
0
VERTEX
8
0
10
3086.537931
20
7868.744828
0
VERTEX
8
0
10
3124.200000
20
7924.800000
0
SEQEND
0
POLYLINE
8
0
6
CONTINUOUS
66
1
62
250
10
0.0
20
0.0
30
0.000000
0
VERTEX
8
0
10
2590.800000
20
7721.600000
0
VERTEX
8
0
10
2413.000000
20
7924.800000
0
SEQEND
0
POLYLINE
8
0
6
CONTINUOUS
66
1
62
252
10
0.0
20
0.0
30
0.000000
0
VERTEX
8
0
10
2616.200000
20
7721.600000
0
VERTEX
8
0
10
2590.800000
20
7721.600000
0
SEQEND
0
POLYLINE
8
0
6
CONTINUOUS
66
1
62
250
10
0.0
20
0.0
30
0.000000
0
VERTEX
8
0
10
2590.800000
20
7696.200000
0
VERTEX
8
0
10
2590.800000
20
7721.600000
0
SEQEND
0
POLYLINE
8
0
6
CONTINUOUS
66
1
62
250
10
0.0
20
0.0
30
0.000000
0
VERTEX
8
0
10
2057.400000
20
7645.400000
0
VERTEX
8
0
10
2032.000000
20
7645.400000
0
SEQEND
0
POLYLINE
8
0
6
CONTINUOUS
66
1
62
7
10
0.0
20
0.0
30
0.000000
0
VERTEX
8
0
10
2082.800000
20
7645.400000
0
VERTEX
8
0
10
2057.400000
20
7645.400000
0
SEQEND
0
POLYLINE
8
0
6
CONTINUOUS
66
1
62
251
10
0.0
20
0.0
30
0.000000
0
VERTEX
8
0
10
4394.200000
20
7645.400000
0
VERTEX
8
0
10
4313.428000
20
7715.504000
0
VERTEX
8
0
10
4213.860000
20
7767.320000
0
VERTEX
8
0
10
4193.540000
20
7777.480000
0
VERTEX
8
0
10
3883.958824
20
7890.435294
0
VERTEX
8
0
10
3812.241176
20
7908.364706
0
VERTEX
8
0
10
3632.200000
20
7950.200000
0
VERTEX
8
0
10
3175.000000
20
7950.200000
0
VERTEX
8
0
10
3149.600000
20
7924.800000
0
SEQEND
0
POLYLINE
8
0
6
CONTINUOUS
66
1
62
7
10
0.0
20
0.0
30
0.000000
0
VERTEX
8
0
10
2057.400000
20
7620.000000
0
VERTEX
8
0
10
2057.400000
20
7645.400000
0
SEQEND
0
POLYLINE
8
0
6
CONTINUOUS
66
1
62
250
10
0.0
20
0.0
30
0.000000
0
VERTEX
8
0
10
3454.400000
20
7569.200000
0
VERTEX
8
0
10
3149.600000
20
7899.400000
0
SEQEND
0
POLYLINE
8
0
6
CONTINUOUS
66
1
62
250
10
0.0
20
0.0
30
0.000000
0
VERTEX
8
0
10
3479.800000
20
7569.200000
0
VERTEX
8
0
10
3454.400000
20
7569.200000
0
SEQEND
0
POLYLINE
8
0
6
CONTINUOUS
66
1
62
252
10
0.0
20
0.0
30
0.000000
0
VERTEX
8
0
10
3479.800000
20
7569.200000
0
VERTEX
8
0
10
3479.800000
20
7594.600000
0
SEQEND
0
POLYLINE
8
0
6
CONTINUOUS
66
1
62
250
10
0.0
20
0.0
30
0.000000
0
VERTEX
8
0
10
4521.200000
20
7569.200000
0
VERTEX
8
0
10
4417.060000
20
7640.320000
0
VERTEX
8
0
10
4394.200000
20
7645.400000
0
SEQEND
0
POLYLINE
8
0
6
CONTINUOUS
66
1
62
7
10
0.0
20
0.0
30
0.000000
0
VERTEX
8
0
10
1905.000000
20
7975.600000
0
VERTEX
8
0
10
1701.800000
20
7950.200000
0
VERTEX
8
0
10
1625.600000
20
7874.000000
0
VERTEX
8
0
10
1574.800000
20
7747.000000
0
VERTEX
8
0
10
1625.600000
20
7670.800000
0
VERTEX
8
0
10
1752.600000
20
7543.800000
0
VERTEX
8
0
10
2032.000000
20
7645.400000
0
SEQEND
0
POLYLINE
8
0
6
CONTINUOUS
66
1
62
250
10
0.0
20
0.0
30
0.000000
0
VERTEX
8
0
10
3479.800000
20
7543.800000
0
VERTEX
8
0
10
3479.800000
20
7569.200000
0
SEQEND
0
POLYLINE
8
0
6
CONTINUOUS
66
1
62
252
10
0.0
20
0.0
30
0.000000
0
VERTEX
8
0
10
4521.200000
20
7543.800000
0
VERTEX
8
0
10
4521.200000
20
7569.200000
0
SEQEND
0
POLYLINE
8
0
6
CONTINUOUS
66
1
62
253
10
0.0
20
0.0
30
0.000000
0
VERTEX
8
0
10
4546.600000
20
7543.800000
0
VERTEX
8
0
10
4521.200000
20
7543.800000
0
SEQEND
0
POLYLINE
8
0
6
CONTINUOUS
66
1
62
252
10
0.0
20
0.0
30
0.000000
0
VERTEX
8
0
10
4521.200000
20
7518.400000
0
VERTEX
8
0
10
4521.200000
20
7543.800000
0
SEQEND
0
POLYLINE
8
0
6
CONTINUOUS
66
1
62
250
10
0.0
20
0.0
30
0.000000
0
VERTEX
8
0
10
2387.600000
20
7493.000000
0
VERTEX
8
0
10
2082.800000
20
7645.400000
0
SEQEND
0
POLYLINE
8
0
6
CONTINUOUS
66
1
62
251
10
0.0
20
0.0
30
0.000000
0
VERTEX
8
0
10
3505.200000
20
7493.000000
0
VERTEX
8
0
10
3479.800000
20
7543.800000
0
SEQEND
0
POLYLINE
8
0
6
CONTINUOUS
66
1
62
250
10
0.0
20
0.0
30
0.000000
0
VERTEX
8
0
10
2387.600000
20
7467.600000
0
VERTEX
8
0
10
2387.600000
20
7493.000000
0
SEQEND
0
POLYLINE
8
0
6
CONTINUOUS
66
1
62
252
10
0.0
20
0.0
30
0.000000
0
VERTEX
8
0
10
2413.000000
20
7467.600000
0
VERTEX
8
0
10
2387.600000
20
7467.600000
0
SEQEND
0
POLYLINE
8
0
6
CONTINUOUS
66
1
62
250
10
0.0
20
0.0
30
0.000000
0
VERTEX
8
0
10
2794.000000
20
7416.800000
0
VERTEX
8
0
10
2673.245902
20
7549.004918
0
VERTEX
8
0
10
2596.661538
20
7674.707692
0
VERTEX
8
0
10
2590.800000
20
7696.200000
0
SEQEND
0
POLYLINE
8
0
6
CONTINUOUS
66
1
62
250
10
0.0
20
0.0
30
0.000000
0
VERTEX
8
0
10
4775.200000
20
7315.200000
0
VERTEX
8
0
10
4775.200000
20
7340.600000
0
VERTEX
8
0
10
4572.000000
20
7543.800000
0
VERTEX
8
0
10
4546.600000
20
7543.800000
0
SEQEND
0
POLYLINE
8
0
6
CONTINUOUS
66
1
62
251
10
0.0
20
0.0
30
0.000000
0
VERTEX
8
0
10
2641.600000
20
7289.800000
0
VERTEX
8
0
10
2413.000000
20
7467.600000
0
SEQEND
0
POLYLINE
8
0
6
CONTINUOUS
66
1
62
250
10
0.0
20
0.0
30
0.000000
0
VERTEX
8
0
10
4775.200000
20
7289.800000
0
VERTEX
8
0
10
4775.200000
20
7315.200000
0
SEQEND
0
POLYLINE
8
0
6
CONTINUOUS
66
1
62
7
10
0.0
20
0.0
30
0.000000
0
VERTEX
8
0
10
4800.600000
20
7289.800000
0
VERTEX
8
0
10
4775.200000
20
7289.800000
0
SEQEND
0
POLYLINE
8
0
6
CONTINUOUS
66
1
62
252
10
0.0
20
0.0
30
0.000000
0
VERTEX
8
0
10
2641.600000
20
7264.400000
0
VERTEX
8
0
10
2641.600000
20
7289.800000
0
SEQEND
0
POLYLINE
8
0
6
CONTINUOUS
66
1
62
252
10
0.0
20
0.0
30
0.000000
0
VERTEX
8
0
10
2667.000000
20
7264.400000
0
VERTEX
8
0
10
2641.600000
20
7264.400000
0
SEQEND
0
POLYLINE
8
0
6
CONTINUOUS
66
1
62
250
10
0.0
20
0.0
30
0.000000
0
VERTEX
8
0
10
2743.200000
20
7213.600000
0
VERTEX
8
0
10
2717.800000
20
7213.600000
0
VERTEX
8
0
10
2667.000000
20
7264.400000
0
SEQEND
0
POLYLINE
8
0
6
CONTINUOUS
66
1
62
250
10
0.0
20
0.0
30
0.000000
0
VERTEX
8
0
10
3962.400000
20
7213.600000
0
VERTEX
8
0
10
3810.000000
20
7467.600000
0
VERTEX
8
0
10
3583.940000
20
7675.880000
0
VERTEX
8
0
10
3530.600000
20
7696.200000
0
VERTEX
8
0
10
3497.580000
20
7622.540000
0
VERTEX
8
0
10
3479.800000
20
7594.600000
0
SEQEND
0
POLYLINE
8
0
6
CONTINUOUS
66
1
62
250
10
0.0
20
0.0
30
0.000000
0
VERTEX
8
0
10
4826.000000
20
7213.600000
0
VERTEX
8
0
10
4826.000000
20
7264.400000
0
VERTEX
8
0
10
4800.600000
20
7289.800000
0
SEQEND
0
POLYLINE
8
0
6
CONTINUOUS
66
1
62
250
10
0.0
20
0.0
30
0.000000
0
VERTEX
8
0
10
3962.400000
20
7213.600000
0
VERTEX
8
0
10
4064.000000
20
7340.600000
0
VERTEX
8
0
10
4140.200000
20
7213.600000
0
VERTEX
8
0
10
4165.600000
20
7188.200000
0
VERTEX
8
0
10
4216.400000
20
7239.000000
0
VERTEX
8
0
10
4236.720000
20
7393.940000
0
VERTEX
8
0
10
4394.200000
20
7645.400000
0
SEQEND
0
POLYLINE
8
0
6
CONTINUOUS
66
1
62
251
10
0.0
20
0.0
30
0.000000
0
VERTEX
8
0
10
4597.400000
20
7188.200000
0
VERTEX
8
0
10
4521.200000
20
7518.400000
0
SEQEND
0
POLYLINE
8
0
6
CONTINUOUS
66
1
62
251
10
0.0
20
0.0
30
0.000000
0
VERTEX
8
0
10
4622.800000
20
7188.200000
0
VERTEX
8
0
10
4597.400000
20
7188.200000
0
SEQEND
0
POLYLINE
8
0
6
CONTINUOUS
66
1
62
250
10
0.0
20
0.0
30
0.000000
0
VERTEX
8
0
10
4622.800000
20
7188.200000
0
VERTEX
8
0
10
4775.200000
20
7289.800000
0
SEQEND
0
POLYLINE
8
0
6
CONTINUOUS
66
1
62
253
10
0.0
20
0.0
30
0.000000
0
VERTEX
8
0
10
4826.000000
20
7188.200000
0
VERTEX
8
0
10
4826.000000
20
7213.600000
0
SEQEND
0
POLYLINE
8
0
6
CONTINUOUS
66
1
62
253
10
0.0
20
0.0
30
0.000000
0
VERTEX
8
0
10
4851.400000
20
7188.200000
0
VERTEX
8
0
10
4826.000000
20
7188.200000
0
SEQEND
0
POLYLINE
8
0
6
CONTINUOUS
66
1
62
251
10
0.0
20
0.0
30
0.000000
0
VERTEX
8
0
10
4597.400000
20
7162.800000
0
VERTEX
8
0
10
4597.400000
20
7188.200000
0
SEQEND
0
POLYLINE
8
0
6
CONTINUOUS
66
1
62
254
10
0.0
20
0.0
30
0.000000
0
VERTEX
8
0
10
4826.000000
20
7162.800000
0
VERTEX
8
0
10
4826.000000
20
7188.200000
0
SEQEND
0
POLYLINE
8
0
6
CONTINUOUS
66
1
62
250
10
0.0
20
0.0
30
0.000000
0
VERTEX
8
0
10
4597.400000
20
7086.600000
0
VERTEX
8
0
10
4597.400000
20
7162.800000
0
SEQEND
0
POLYLINE
8
0
6
CONTINUOUS
66
1
62
250
10
0.0
20
0.0
30
0.000000
0
VERTEX
8
0
10
3937.000000
20
6985.000000
0
VERTEX
8
0
10
3962.400000
20
7010.400000
0
VERTEX
8
0
10
3962.400000
20
7213.600000
0
SEQEND
0
POLYLINE
8
0
6
CONTINUOUS
66
1
62
250
10
0.0
20
0.0
30
0.000000
0
VERTEX
8
0
10
5003.800000
20
6858.000000
0
VERTEX
8
0
10
4851.400000
20
7188.200000
0
SEQEND
0
POLYLINE
8
0
6
CONTINUOUS
66
1
62
250
10
0.0
20
0.0
30
0.000000
0
VERTEX
8
0
10
2819.400000
20
6832.600000
0
VERTEX
8
0
10
2711.704000
20
6955.028000
0
VERTEX
8
0
10
2590.800000
20
7137.400000
0
VERTEX
8
0
10
2590.800000
20
7213.600000
0
VERTEX
8
0
10
2641.600000
20
7264.400000
0
SEQEND
0
POLYLINE
8
0
6
CONTINUOUS
66
1
62
7
10
0.0
20
0.0
30
0.000000
0
VERTEX
8
0
10
5003.800000
20
6832.600000
0
VERTEX
8
0
10
4978.400000
20
6832.600000
0
SEQEND
0
POLYLINE
8
0
6
CONTINUOUS
66
1
62
250
10
0.0
20
0.0
30
0.000000
0
VERTEX
8
0
10
5003.800000
20
6832.600000
0
VERTEX
8
0
10
5003.800000
20
6858.000000
0
SEQEND
0
POLYLINE
8
0
6
CONTINUOUS
66
1
62
250
10
0.0
20
0.0
30
0.000000
0
VERTEX
8
0
10
2794.000000
20
6807.200000
0
VERTEX
8
0
10
2616.200000
20
6807.200000
0
SEQEND
0
POLYLINE
8
0
6
CONTINUOUS
66
1
62
7
10
0.0
20
0.0
30
0.000000
0
VERTEX
8
0
10
2819.400000
20
6807.200000
0
VERTEX
8
0
10
2794.000000
20
6807.200000
0
SEQEND
0
POLYLINE
8
0
6
CONTINUOUS
66
1
62
250
10
0.0
20
0.0
30
0.000000
0
VERTEX
8
0
10
2819.400000
20
6807.200000
0
VERTEX
8
0
10
2819.400000
20
6832.600000
0
SEQEND
0
POLYLINE
8
0
6
CONTINUOUS
66
1
62
7
10
0.0
20
0.0
30
0.000000
0
VERTEX
8
0
10
2844.800000
20
6807.200000
0
VERTEX
8
0
10
2819.400000
20
6807.200000
0
SEQEND
0
POLYLINE
8
0
6
CONTINUOUS
66
1
62
251
10
0.0
20
0.0
30
0.000000
0
VERTEX
8
0
10
2590.800000
20
6781.800000
0
VERTEX
8
0
10
2590.800000
20
6807.200000
0
VERTEX
8
0
10
2616.200000
20
6807.200000
0
SEQEND
0
POLYLINE
8
0
6
CONTINUOUS
66
1
62
251
10
0.0
20
0.0
30
0.000000
0
VERTEX
8
0
10
2870.200000
20
6781.800000
0
VERTEX
8
0
10
2844.800000
20
6807.200000
0
SEQEND
0
POLYLINE
8
0
6
CONTINUOUS
66
1
62
253
10
0.0
20
0.0
30
0.000000
0
VERTEX
8
0
10
4826.000000
20
6781.800000
0
VERTEX
8
0
10
4826.000000
20
7162.800000
0
SEQEND
0
POLYLINE
8
0
6
CONTINUOUS
66
1
62
251
10
0.0
20
0.0
30
0.000000
0
VERTEX
8
0
10
4826.000000
20
6756.400000
0
VERTEX
8
0
10
4826.000000
20
6781.800000
0
SEQEND
0
POLYLINE
8
0
6
CONTINUOUS
66
1
62
251
10
0.0
20
0.0
30
0.000000
0
VERTEX
8
0
10
4851.400000
20
6756.400000
0
VERTEX
8
0
10
4826.000000
20
6756.400000
0
SEQEND
0
POLYLINE
8
0
6
CONTINUOUS
66
1
62
250
10
0.0
20
0.0
30
0.000000
0
VERTEX
8
0
10
4851.400000
20
6756.400000
0
VERTEX
8
0
10
4978.400000
20
6832.600000
0
SEQEND
0
POLYLINE
8
0
6
CONTINUOUS
66
1
62
250
10
0.0
20
0.0
30
0.000000
0
VERTEX
8
0
10
4826.000000
20
6731.000000
0
VERTEX
8
0
10
4826.000000
20
6756.400000
0
SEQEND
0
POLYLINE
8
0
6
CONTINUOUS
66
1
62
7
10
0.0
20
0.0
30
0.000000
0
VERTEX
8
0
10
4826.000000
20
6705.600000
0
VERTEX
8
0
10
4826.000000
20
6731.000000
0
SEQEND
0
POLYLINE
8
0
6
CONTINUOUS
66
1
62
250
10
0.0
20
0.0
30
0.000000
0
VERTEX
8
0
10
5003.800000
20
6629.400000
0
VERTEX
8
0
10
5039.360000
20
6776.720000
0
VERTEX
8
0
10
5003.800000
20
6832.600000
0
SEQEND
0
POLYLINE
8
0
6
CONTINUOUS
66
1
62
250
10
0.0
20
0.0
30
0.000000
0
VERTEX
8
0
10
5003.800000
20
6604.000000
0
VERTEX
8
0
10
5003.800000
20
6629.400000
0
SEQEND
0
POLYLINE
8
0
6
CONTINUOUS
66
1
62
251
10
0.0
20
0.0
30
0.000000
0
VERTEX
8
0
10
5029.200000
20
6604.000000
0
VERTEX
8
0
10
5003.800000
20
6604.000000
0
SEQEND
0
POLYLINE
8
0
6
CONTINUOUS
66
1
62
251
10
0.0
20
0.0
30
0.000000
0
VERTEX
8
0
10
2692.400000
20
6578.600000
0
VERTEX
8
0
10
2598.420000
20
6733.540000
0
VERTEX
8
0
10
2590.800000
20
6781.800000
0
SEQEND
0
POLYLINE
8
0
6
CONTINUOUS
66
1
62
251
10
0.0
20
0.0
30
0.000000
0
VERTEX
8
0
10
2692.400000
20
6553.200000
0
VERTEX
8
0
10
2692.400000
20
6578.600000
0
SEQEND
0
POLYLINE
8
0
6
CONTINUOUS
66
1
62
253
10
0.0
20
0.0
30
0.000000
0
VERTEX
8
0
10
2717.800000
20
6553.200000
0
VERTEX
8
0
10
2692.400000
20
6553.200000
0
SEQEND
0
POLYLINE
8
0
6
CONTINUOUS
66
1
62
251
10
0.0
20
0.0
30
0.000000
0
VERTEX
8
0
10
2540.000000
20
6502.400000
0
VERTEX
8
0
10
2387.600000
20
6604.000000
0
VERTEX
8
0
10
2280.920000
20
6753.860000
0
VERTEX
8
0
10
2235.200000
20
6908.800000
0
VERTEX
8
0
10
2249.658462
20
6986.367692
0
VERTEX
8
0
10
2271.541538
20
7161.432308
0
VERTEX
8
0
10
2367.280000
20
7439.660000
0
VERTEX
8
0
10
2387.600000
20
7467.600000
0
SEQEND
0
POLYLINE
8
0
6
CONTINUOUS
66
1
62
250
10
0.0
20
0.0
30
0.000000
0
VERTEX
8
0
10
2565.400000
20
6502.400000
0
VERTEX
8
0
10
2540.000000
20
6502.400000
0
SEQEND
0
POLYLINE
8
0
6
CONTINUOUS
66
1
62
251
10
0.0
20
0.0
30
0.000000
0
VERTEX
8
0
10
2565.400000
20
6502.400000
0
VERTEX
8
0
10
2692.400000
20
6553.200000
0
SEQEND
0
POLYLINE
8
0
6
CONTINUOUS
66
1
62
252
10
0.0
20
0.0
30
0.000000
0
VERTEX
8
0
10
2565.400000
20
6477.000000
0
VERTEX
8
0
10
2565.400000
20
6502.400000
0
SEQEND
0
POLYLINE
8
0
6
CONTINUOUS
66
1
62
250
10
0.0
20
0.0
30
0.000000
0
VERTEX
8
0
10
2717.800000
20
6553.200000
0
VERTEX
8
0
10
2745.740000
20
6532.880000
0
VERTEX
8
0
10
2997.200000
20
6477.000000
0
VERTEX
8
0
10
3022.600000
20
6502.400000
0
SEQEND
0
POLYLINE
8
0
6
CONTINUOUS
66
1
62
7
10
0.0
20
0.0
30
0.000000
0
VERTEX
8
0
10
2565.400000
20
6451.600000
0
VERTEX
8
0
10
2565.400000
20
6477.000000
0
SEQEND
0
POLYLINE
8
0
6
CONTINUOUS
66
1
62
251
10
0.0
20
0.0
30
0.000000
0
VERTEX
8
0
10
1905.000000
20
6426.200000
0
VERTEX
8
0
10
1916.957538
20
6857.335692
0
VERTEX
8
0
10
2039.620000
20
7287.260000
0
VERTEX
8
0
10
2057.400000
20
7315.200000
0
SEQEND
0
POLYLINE
8
0
6
CONTINUOUS
66
1
62
250
10
0.0
20
0.0
30
0.000000
0
VERTEX
8
0
10
2565.400000
20
6426.200000
0
VERTEX
8
0
10
2565.400000
20
6451.600000
0
SEQEND
0
POLYLINE
8
0
6
CONTINUOUS
66
1
62
250
10
0.0
20
0.0
30
0.000000
0
VERTEX
8
0
10
2590.800000
20
6426.200000
0
VERTEX
8
0
10
2565.400000
20
6426.200000
0
SEQEND
0
POLYLINE
8
0
6
CONTINUOUS
66
1
62
251
10
0.0
20
0.0
30
0.000000
0
VERTEX
8
0
10
1905.000000
20
6400.800000
0
VERTEX
8
0
10
1905.000000
20
6426.200000
0
SEQEND
0
POLYLINE
8
0
6
CONTINUOUS
66
1
62
251
10
0.0
20
0.0
30
0.000000
0
VERTEX
8
0
10
1930.400000
20
6400.800000
0
VERTEX
8
0
10
1905.000000
20
6400.800000
0
SEQEND
0
POLYLINE
8
0
6
CONTINUOUS
66
1
62
251
10
0.0
20
0.0
30
0.000000
0
VERTEX
8
0
10
1905.000000
20
6375.400000
0
VERTEX
8
0
10
1905.000000
20
6400.800000
0
SEQEND
0
POLYLINE
8
0
6
CONTINUOUS
66
1
62
250
10
0.0
20
0.0
30
0.000000
0
VERTEX
8
0
10
4368.800000
20
6350.000000
0
VERTEX
8
0
10
4374.661538
20
6371.492308
0
VERTEX
8
0
10
4461.435294
20
6530.041176
0
VERTEX
8
0
10
4479.364706
20
6601.758824
0
VERTEX
8
0
10
4495.800000
20
6629.400000
0
VERTEX
8
0
10
4495.800000
20
6908.800000
0
VERTEX
8
0
10
4419.600000
20
7162.800000
0
SEQEND
0
POLYLINE
8
0
6
CONTINUOUS
66
1
62
251
10
0.0
20
0.0
30
0.000000
0
VERTEX
8
0
10
5029.200000
20
6350.000000
0
VERTEX
8
0
10
5054.600000
20
6375.400000
0
VERTEX
8
0
10
5054.600000
20
6578.600000
0
VERTEX
8
0
10
5029.200000
20
6604.000000
0
SEQEND
0
POLYLINE
8
0
6
CONTINUOUS
66
1
62
7
10
0.0
20
0.0
30
0.000000
0
VERTEX
8
0
10
4343.400000
20
6324.600000
0
VERTEX
8
0
10
4368.800000
20
6324.600000
0
VERTEX
8
0
10
4368.800000
20
6350.000000
0
SEQEND
0
POLYLINE
8
0
6
CONTINUOUS
66
1
62
251
10
0.0
20
0.0
30
0.000000
0
VERTEX
8
0
10
5003.800000
20
6324.600000
0
VERTEX
8
0
10
4902.200000
20
6350.000000
0
VERTEX
8
0
10
4876.800000
20
6375.400000
0
VERTEX
8
0
10
4958.080000
20
6499.860000
0
VERTEX
8
0
10
5003.800000
20
6604.000000
0
SEQEND
0
POLYLINE
8
0
6
CONTINUOUS
66
1
62
7
10
0.0
20
0.0
30
0.000000
0
VERTEX
8
0
10
5029.200000
20
6324.600000
0
VERTEX
8
0
10
5003.800000
20
6324.600000
0
SEQEND
0
POLYLINE
8
0
6
CONTINUOUS
66
1
62
251
10
0.0
20
0.0
30
0.000000
0
VERTEX
8
0
10
5029.200000
20
6324.600000
0
VERTEX
8
0
10
5029.200000
20
6350.000000
0
SEQEND
0
POLYLINE
8
0
6
CONTINUOUS
66
1
62
251
10
0.0
20
0.0
30
0.000000
0
VERTEX
8
0
10
2717.800000
20
6299.200000
0
VERTEX
8
0
10
2590.800000
20
6426.200000
0
SEQEND
0
POLYLINE
8
0
6
CONTINUOUS
66
1
62
7
10
0.0
20
0.0
30
0.000000
0
VERTEX
8
0
10
5029.200000
20
6299.200000
0
VERTEX
8
0
10
5029.200000
20
6324.600000
0
SEQEND
0
POLYLINE
8
0
6
CONTINUOUS
66
1
62
250
10
0.0
20
0.0
30
0.000000
0
VERTEX
8
0
10
2794.000000
20
6273.800000
0
VERTEX
8
0
10
2717.800000
20
6299.200000
0
SEQEND
0
POLYLINE
8
0
6
CONTINUOUS
66
1
62
251
10
0.0
20
0.0
30
0.000000
0
VERTEX
8
0
10
1930.400000
20
6400.800000
0
VERTEX
8
0
10
2133.600000
20
6248.400000
0
VERTEX
8
0
10
2336.800000
20
6248.400000
0
VERTEX
8
0
10
2565.400000
20
6426.200000
0
SEQEND
0
POLYLINE
8
0
6
CONTINUOUS
66
1
62
250
10
0.0
20
0.0
30
0.000000
0
VERTEX
8
0
10
5003.800000
20
6223.000000
0
VERTEX
8
0
10
5029.200000
20
6299.200000
0
SEQEND
0
POLYLINE
8
0
6
CONTINUOUS
66
1
62
251
10
0.0
20
0.0
30
0.000000
0
VERTEX
8
0
10
5003.800000
20
6197.600000
0
VERTEX
8
0
10
4978.400000
20
6197.600000
0
SEQEND
0
POLYLINE
8
0
6
CONTINUOUS
66
1
62
251
10
0.0
20
0.0
30
0.000000
0
VERTEX
8
0
10
5003.800000
20
6197.600000
0
VERTEX
8
0
10
5003.800000
20
6223.000000
0
SEQEND
0
POLYLINE
8
0
6
CONTINUOUS
66
1
62
250
10
0.0
20
0.0
30
0.000000
0
VERTEX
8
0
10
4953.000000
20
6172.200000
0
VERTEX
8
0
10
4978.400000
20
6197.600000
0
SEQEND
0
POLYLINE
8
0
6
CONTINUOUS
66
1
62
251
10
0.0
20
0.0
30
0.000000
0
VERTEX
8
0
10
4953.000000
20
6146.800000
0
VERTEX
8
0
10
4927.600000
20
6146.800000
0
SEQEND
0
POLYLINE
8
0
6
CONTINUOUS
66
1
62
251
10
0.0
20
0.0
30
0.000000
0
VERTEX
8
0
10
4953.000000
20
6146.800000
0
VERTEX
8
0
10
4953.000000
20
6172.200000
0
SEQEND
0
POLYLINE
8
0
6
CONTINUOUS
66
1
62
251
10
0.0
20
0.0
30
0.000000
0
VERTEX
8
0
10
5003.800000
20
6146.800000
0
VERTEX
8
0
10
5029.200000
20
6172.200000
0
VERTEX
8
0
10
5003.800000
20
6197.600000
0
SEQEND
0
POLYLINE
8
0
6
CONTINUOUS
66
1
62
250
10
0.0
20
0.0
30
0.000000
0
VERTEX
8
0
10
3962.400000
20
6121.400000
0
VERTEX
8
0
10
3753.338462
20
6371.492308
0
VERTEX
8
0
10
3589.020000
20
6657.340000
0
VERTEX
8
0
10
3535.680000
20
6784.340000
0
VERTEX
8
0
10
3346.938462
20
7184.292308
0
VERTEX
8
0
10
3124.200000
20
7467.600000
0
VERTEX
8
0
10
2816.860000
20
7663.180000
0
VERTEX
8
0
10
2616.200000
20
7721.600000
0
SEQEND
0
POLYLINE
8
0
6
CONTINUOUS
66
1
62
7
10
0.0
20
0.0
30
0.000000
0
VERTEX
8
0
10
3962.400000
20
6121.400000
0
VERTEX
8
0
10
4015.740000
20
6139.180000
0
VERTEX
8
0
10
4211.443902
20
6229.195122
0
VERTEX
8
0
10
4343.400000
20
6324.600000
0
SEQEND
0
POLYLINE
8
0
6
CONTINUOUS
66
1
62
254
10
0.0
20
0.0
30
0.000000
0
VERTEX
8
0
10
4978.400000
20
6121.400000
0
VERTEX
8
0
10
4953.000000
20
6146.800000
0
SEQEND
0
POLYLINE
8
0
6
CONTINUOUS
66
1
62
252
10
0.0
20
0.0
30
0.000000
0
VERTEX
8
0
10
5003.800000
20
6121.400000
0
VERTEX
8
0
10
4978.400000
20
6121.400000
0
SEQEND
0
POLYLINE
8
0
6
CONTINUOUS
66
1
62
7
10
0.0
20
0.0
30
0.000000
0
VERTEX
8
0
10
5003.800000
20
6121.400000
0
VERTEX
8
0
10
5003.800000
20
6146.800000
0
SEQEND
0
POLYLINE
8
0
6
CONTINUOUS
66
1
62
251
10
0.0
20
0.0
30
0.000000
0
VERTEX
8
0
10
5003.800000
20
6096.000000
0
VERTEX
8
0
10
5003.800000
20
6121.400000
0
SEQEND
0
POLYLINE
8
0
6
CONTINUOUS
66
1
62
251
10
0.0
20
0.0
30
0.000000
0
VERTEX
8
0
10
4495.800000
20
5969.000000
0
VERTEX
8
0
10
4470.400000
20
5969.000000
0
SEQEND
0
POLYLINE
8
0
6
CONTINUOUS
66
1
62
252
10
0.0
20
0.0
30
0.000000
0
VERTEX
8
0
10
4521.200000
20
5969.000000
0
VERTEX
8
0
10
4495.800000
20
5969.000000
0
SEQEND
0
POLYLINE
8
0
6
CONTINUOUS
66
1
62
251
10
0.0
20
0.0
30
0.000000
0
VERTEX
8
0
10
4521.200000
20
5969.000000
0
VERTEX
8
0
10
4646.483784
20
5979.297297
0
VERTEX
8
0
10
4795.395082
20
6026.045902
0
VERTEX
8
0
10
4927.600000
20
6146.800000
0
SEQEND
0
POLYLINE
8
0
6
CONTINUOUS
66
1
62
251
10
0.0
20
0.0
30
0.000000
0
VERTEX
8
0
10
4495.800000
20
5943.600000
0
VERTEX
8
0
10
4495.800000
20
5969.000000
0
SEQEND
0
POLYLINE
8
0
6
CONTINUOUS
66
1
62
250
10
0.0
20
0.0
30
0.000000
0
VERTEX
8
0
10
2794.000000
20
6070.600000
0
VERTEX
8
0
10
2872.740000
20
6024.880000
0
VERTEX
8
0
10
3121.958824
20
5934.635294
0
VERTEX
8
0
10
3378.200000
20
5892.800000
0
VERTEX
8
0
10
3583.641176
20
5934.635294
0
VERTEX
8
0
10
3655.358824
20
5952.564706
0
VERTEX
8
0
10
3934.460000
20
6101.080000
0
VERTEX
8
0
10
3962.400000
20
6121.400000
0
SEQEND
0
POLYLINE
8
0
6
CONTINUOUS
66
1
62
250
10
0.0
20
0.0
30
0.000000
0
VERTEX
8
0
10
3937.000000
20
5613.400000
0
VERTEX
8
0
10
3982.720000
20
5895.340000
0
VERTEX
8
0
10
4089.400000
20
6019.800000
0
VERTEX
8
0
10
4368.800000
20
6019.800000
0
VERTEX
8
0
10
4442.460000
20
5986.780000
0
VERTEX
8
0
10
4470.400000
20
5969.000000
0
SEQEND
0
POLYLINE
8
0
6
CONTINUOUS
66
1
62
250
10
0.0
20
0.0
30
0.000000
0
VERTEX
8
0
10
2794.000000
20
5486.400000
0
VERTEX
8
0
10
2794.000000
20
5537.200000
0
VERTEX
8
0
10
2844.800000
20
5588.000000
0
VERTEX
8
0
10
2870.200000
20
5588.000000
0
VERTEX
8
0
10
2921.000000
20
5638.800000
0
VERTEX
8
0
10
2764.692308
20
5734.538462
0
VERTEX
8
0
10
2616.200000
20
5867.400000
0
VERTEX
8
0
10
2595.880000
20
5920.740000
0
VERTEX
8
0
10
2590.800000
20
5943.600000
0
VERTEX
8
0
10
2466.340000
20
6024.880000
0
VERTEX
8
0
10
2362.200000
20
6045.200000
0
VERTEX
8
0
10
2336.800000
20
6096.000000
0
VERTEX
8
0
10
2438.400000
20
6197.600000
0
VERTEX
8
0
10
2491.740000
20
6215.380000
0
VERTEX
8
0
10
2717.800000
20
6299.200000
0
SEQEND
0
POLYLINE
8
0
6
CONTINUOUS
66
1
62
251
10
0.0
20
0.0
30
0.000000
0
VERTEX
8
0
10
2819.400000
20
5461.000000
0
VERTEX
8
0
10
2794.000000
20
5461.000000
0
VERTEX
8
0
10
2794.000000
20
5486.400000
0
SEQEND
0
POLYLINE
8
0
6
CONTINUOUS
66
1
62
250
10
0.0
20
0.0
30
0.000000
0
VERTEX
8
0
10
3530.600000
20
5359.400000
0
VERTEX
8
0
10
3571.240000
20
5440.680000
0
VERTEX
8
0
10
3606.800000
20
5537.200000
0
VERTEX
8
0
10
3581.400000
20
5562.600000
0
VERTEX
8
0
10
3556.000000
20
5562.600000
0
VERTEX
8
0
10
3475.228000
20
5492.496000
0
VERTEX
8
0
10
3375.958824
20
5444.564706
0
VERTEX
8
0
10
3304.241176
20
5426.635294
0
VERTEX
8
0
10
3276.600000
20
5410.200000
0
VERTEX
8
0
10
3098.800000
20
5410.200000
0
VERTEX
8
0
10
2948.116216
20
5445.897297
0
VERTEX
8
0
10
2819.400000
20
5461.000000
0
SEQEND
0
POLYLINE
8
0
6
CONTINUOUS
66
1
62
251
10
0.0
20
0.0
30
0.000000
0
VERTEX
8
0
10
4445.000000
20
5359.400000
0
VERTEX
8
0
10
4475.480000
20
5433.060000
0
VERTEX
8
0
10
4521.200000
20
5562.600000
0
VERTEX
8
0
10
4521.200000
20
5867.400000
0
VERTEX
8
0
10
4495.800000
20
5943.600000
0
SEQEND
0
POLYLINE
8
0
6
CONTINUOUS
66
1
62
250
10
0.0
20
0.0
30
0.000000
0
VERTEX
8
0
10
4724.400000
20
5359.400000
0
VERTEX
8
0
10
4972.538462
20
5693.507692
0
VERTEX
8
0
10
5148.580000
20
6022.340000
0
VERTEX
8
0
10
5232.400000
20
6299.200000
0
VERTEX
8
0
10
5232.400000
20
6731.000000
0
VERTEX
8
0
10
5123.180000
20
7109.460000
0
VERTEX
8
0
10
4997.938462
20
7336.692308
0
VERTEX
8
0
10
4958.861538
20
7395.307692
0
VERTEX
8
0
10
4768.859270
20
7639.392993
0
VERTEX
8
0
10
4318.000000
20
8102.600000
0
SEQEND
0
POLYLINE
8
0
6
CONTINUOUS
66
1
62
251
10
0.0
20
0.0
30
0.000000
0
VERTEX
8
0
10
3556.000000
20
5334.000000
0
VERTEX
8
0
10
3530.600000
20
5334.000000
0
VERTEX
8
0
10
3530.600000
20
5359.400000
0
SEQEND
0
POLYLINE
8
0
6
CONTINUOUS
66
1
62
250
10
0.0
20
0.0
30
0.000000
0
VERTEX
8
0
10
3556.000000
20
5334.000000
0
VERTEX
8
0
10
3681.283784
20
5344.297297
0
VERTEX
8
0
10
3784.600000
20
5384.800000
0
VERTEX
8
0
10
3865.880000
20
5483.860000
0
VERTEX
8
0
10
3937.000000
20
5613.400000
0
SEQEND
0
POLYLINE
8
0
6
CONTINUOUS
66
1
62
252
10
0.0
20
0.0
30
0.000000
0
VERTEX
8
0
10
4445.000000
20
5334.000000
0
VERTEX
8
0
10
4445.000000
20
5359.400000
0
SEQEND
0
POLYLINE
8
0
6
CONTINUOUS
66
1
62
251
10
0.0
20
0.0
30
0.000000
0
VERTEX
8
0
10
4470.400000
20
5334.000000
0
VERTEX
8
0
10
4445.000000
20
5334.000000
0
SEQEND
0
POLYLINE
8
0
6
CONTINUOUS
66
1
62
251
10
0.0
20
0.0
30
0.000000
0
VERTEX
8
0
10
4470.400000
20
5334.000000
0
VERTEX
8
0
10
4495.800000
20
5334.000000
0
VERTEX
8
0
10
4629.075294
20
5481.021176
0
VERTEX
8
0
10
4768.924706
20
5644.178824
0
VERTEX
8
0
10
4945.380000
20
5946.140000
0
VERTEX
8
0
10
5003.800000
20
6096.000000
0
SEQEND
0
POLYLINE
8
0
6
CONTINUOUS
66
1
62
7
10
0.0
20
0.0
30
0.000000
0
VERTEX
8
0
10
5791.200000
20
5080.000000
0
VERTEX
8
0
10
5791.200000
20
5105.400000
0
VERTEX
8
0
10
5765.800000
20
5105.400000
0
SEQEND
0
POLYLINE
8
0
6
CONTINUOUS
66
1
62
250
10
0.0
20
0.0
30
0.000000
0
VERTEX
8
0
10
4368.800000
20
5054.600000
0
VERTEX
8
0
10
4724.400000
20
5359.400000
0
SEQEND
0
POLYLINE
8
0
6
CONTINUOUS
66
1
62
250
10
0.0
20
0.0
30
0.000000
0
VERTEX
8
0
10
1905.000000
20
6375.400000
0
VERTEX
8
0
10
1964.764706
20
6072.841176
0
VERTEX
8
0
10
1976.120000
20
6042.660000
0
VERTEX
8
0
10
2088.661538
20
5795.107692
0
VERTEX
8
0
10
2127.738462
20
5736.492308
0
VERTEX
8
0
10
2286.000000
20
5511.800000
0
VERTEX
8
0
10
2413.000000
20
5384.800000
0
VERTEX
8
0
10
2771.140000
20
5135.880000
0
VERTEX
8
0
10
2791.460000
20
5125.720000
0
VERTEX
8
0
10
3073.400000
20
5029.200000
0
VERTEX
8
0
10
3530.600000
20
5029.200000
0
VERTEX
8
0
10
3680.460000
20
5087.620000
0
VERTEX
8
0
10
3710.940000
20
5100.320000
0
VERTEX
8
0
10
3911.600000
20
5283.200000
0
VERTEX
8
0
10
3962.400000
20
5384.800000
0
VERTEX
8
0
10
3962.400000
20
5588.000000
0
VERTEX
8
0
10
3937.000000
20
5613.400000
0
SEQEND
0
POLYLINE
8
0
6
CONTINUOUS
66
1
62
252
10
0.0
20
0.0
30
0.000000
0
VERTEX
8
0
10
5765.800000
20
5029.200000
0
VERTEX
8
0
10
5791.200000
20
5080.000000
0
SEQEND
0
POLYLINE
8
0
6
CONTINUOUS
66
1
62
250
10
0.0
20
0.0
30
0.000000
0
VERTEX
8
0
10
5435.600000
20
5029.200000
0
VERTEX
8
0
10
5461.000000
20
5003.800000
0
VERTEX
8
0
10
5742.940000
20
5100.320000
0
VERTEX
8
0
10
5765.800000
20
5105.400000
0
SEQEND
0
POLYLINE
8
0
6
CONTINUOUS
66
1
62
250
10
0.0
20
0.0
30
0.000000
0
VERTEX
8
0
10
5765.800000
20
5003.800000
0
VERTEX
8
0
10
5740.400000
20
5003.800000
0
SEQEND
0
POLYLINE
8
0
6
CONTINUOUS
66
1
62
253
10
0.0
20
0.0
30
0.000000
0
VERTEX
8
0
10
5765.800000
20
5003.800000
0
VERTEX
8
0
10
5765.800000
20
5029.200000
0
SEQEND
0
POLYLINE
8
0
6
CONTINUOUS
66
1
62
251
10
0.0
20
0.0
30
0.000000
0
VERTEX
8
0
10
5689.600000
20
4978.400000
0
VERTEX
8
0
10
5740.400000
20
5003.800000
0
SEQEND
0
POLYLINE
8
0
6
CONTINUOUS
66
1
62
250
10
0.0
20
0.0
30
0.000000
0
VERTEX
8
0
10
4927.600000
20
4927.600000
0
VERTEX
8
0
10
5083.907692
20
5023.338462
0
VERTEX
8
0
10
5181.600000
20
5080.000000
0
VERTEX
8
0
10
5410.200000
20
5308.600000
0
VERTEX
8
0
10
5461.000000
20
5435.600000
0
VERTEX
8
0
10
5461.000000
20
5461.000000
0
VERTEX
8
0
10
5410.200000
20
5486.400000
0
VERTEX
8
0
10
5332.959016
20
5447.050820
0
VERTEX
8
0
10
5081.040984
20
5424.149180
0
VERTEX
8
0
10
4803.140000
20
5351.780000
0
VERTEX
8
0
10
4775.200000
20
5334.000000
0
VERTEX
8
0
10
4724.400000
20
5359.400000
0
SEQEND
0
POLYLINE
8
0
6
CONTINUOUS
66
1
62
251
10
0.0
20
0.0
30
0.000000
0
VERTEX
8
0
10
4927.600000
20
4902.200000
0
VERTEX
8
0
10
4902.200000
20
4902.200000
0
SEQEND
0
POLYLINE
8
0
6
CONTINUOUS
66
1
62
252
10
0.0
20
0.0
30
0.000000
0
VERTEX
8
0
10
4927.600000
20
4902.200000
0
VERTEX
8
0
10
4927.600000
20
4927.600000
0
SEQEND
0
POLYLINE
8
0
6
CONTINUOUS
66
1
62
253
10
0.0
20
0.0
30
0.000000
0
VERTEX
8
0
10
5410.200000
20
4902.200000
0
VERTEX
8
0
10
5410.200000
20
5003.800000
0
VERTEX
8
0
10
5435.600000
20
5029.200000
0
SEQEND
0
POLYLINE
8
0
6
CONTINUOUS
66
1
62
251
10
0.0
20
0.0
30
0.000000
0
VERTEX
8
0
10
2971.800000
20
4876.800000
0
VERTEX
8
0
10
2771.140000
20
4960.620000
0
VERTEX
8
0
10
2493.772000
20
5111.496000
0
VERTEX
8
0
10
2235.200000
20
5308.600000
0
SEQEND
0
POLYLINE
8
0
6
CONTINUOUS
66
1
62
251
10
0.0
20
0.0
30
0.000000
0
VERTEX
8
0
10
2997.200000
20
4876.800000
0
VERTEX
8
0
10
2971.800000
20
4876.800000
0
SEQEND
0
POLYLINE
8
0
6
CONTINUOUS
66
1
62
251
10
0.0
20
0.0
30
0.000000
0
VERTEX
8
0
10
2971.800000
20
4851.400000
0
VERTEX
8
0
10
2971.800000
20
4876.800000
0
SEQEND
0
POLYLINE
8
0
6
CONTINUOUS
66
1
62
251
10
0.0
20
0.0
30
0.000000
0
VERTEX
8
0
10
3835.400000
20
4851.400000
0
VERTEX
8
0
10
3810.000000
20
4851.400000
0
SEQEND
0
POLYLINE
8
0
6
CONTINUOUS
66
1
62
252
10
0.0
20
0.0
30
0.000000
0
VERTEX
8
0
10
3860.800000
20
4851.400000
0
VERTEX
8
0
10
3835.400000
20
4851.400000
0
SEQEND
0
POLYLINE
8
0
6
CONTINUOUS
66
1
62
250
10
0.0
20
0.0
30
0.000000
0
VERTEX
8
0
10
3860.800000
20
4851.400000
0
VERTEX
8
0
10
3940.907692
20
4896.338462
0
VERTEX
8
0
10
4241.800000
20
5105.400000
0
VERTEX
8
0
10
4445.000000
20
5334.000000
0
SEQEND
0
POLYLINE
8
0
6
CONTINUOUS
66
1
62
251
10
0.0
20
0.0
30
0.000000
0
VERTEX
8
0
10
5232.400000
20
4851.400000
0
VERTEX
8
0
10
5278.120000
20
4930.140000
0
VERTEX
8
0
10
5384.800000
20
5054.600000
0
VERTEX
8
0
10
5435.600000
20
5029.200000
0
SEQEND
0
POLYLINE
8
0
6
CONTINUOUS
66
1
62
251
10
0.0
20
0.0
30
0.000000
0
VERTEX
8
0
10
3835.400000
20
4826.000000
0
VERTEX
8
0
10
3835.400000
20
4851.400000
0
SEQEND
0
POLYLINE
8
0
6
CONTINUOUS
66
1
62
251
10
0.0
20
0.0
30
0.000000
0
VERTEX
8
0
10
5207.000000
20
4826.000000
0
VERTEX
8
0
10
4927.600000
20
4902.200000
0
SEQEND
0
POLYLINE
8
0
6
CONTINUOUS
66
1
62
250
10
0.0
20
0.0
30
0.000000
0
VERTEX
8
0
10
5232.400000
20
4826.000000
0
VERTEX
8
0
10
5207.000000
20
4826.000000
0
SEQEND
0
POLYLINE
8
0
6
CONTINUOUS
66
1
62
250
10
0.0
20
0.0
30
0.000000
0
VERTEX
8
0
10
5232.400000
20
4826.000000
0
VERTEX
8
0
10
5232.400000
20
4851.400000
0
SEQEND
0
POLYLINE
8
0
6
CONTINUOUS
66
1
62
251
10
0.0
20
0.0
30
0.000000
0
VERTEX
8
0
10
2997.200000
20
4876.800000
0
VERTEX
8
0
10
3176.239024
20
4837.151220
0
VERTEX
8
0
10
3530.600000
20
4800.600000
0
VERTEX
8
0
10
3810.000000
20
4851.400000
0
SEQEND
0
POLYLINE
8
0
6
CONTINUOUS
66
1
62
250
10
0.0
20
0.0
30
0.000000
0
VERTEX
8
0
10
4064.000000
20
4800.600000
0
VERTEX
8
0
10
4117.041176
20
4817.035294
0
VERTEX
8
0
10
4572.838071
20
4890.467005
0
VERTEX
8
0
10
4902.200000
20
4902.200000
0
SEQEND
0
POLYLINE
8
0
6
CONTINUOUS
66
1
62
251
10
0.0
20
0.0
30
0.000000
0
VERTEX
8
0
10
5232.400000
20
4800.600000
0
VERTEX
8
0
10
5232.400000
20
4826.000000
0
SEQEND
0
POLYLINE
8
0
6
CONTINUOUS
66
1
62
251
10
0.0
20
0.0
30
0.000000
0
VERTEX
8
0
10
5181.600000
20
4724.400000
0
VERTEX
8
0
10
5232.400000
20
4800.600000
0
SEQEND
0
POLYLINE
8
0
6
CONTINUOUS
66
1
62
252
10
0.0
20
0.0
30
0.000000
0
VERTEX
8
0
10
5181.600000
20
4699.000000
0
VERTEX
8
0
10
5156.200000
20
4699.000000
0
SEQEND
0
POLYLINE
8
0
6
CONTINUOUS
66
1
62
250
10
0.0
20
0.0
30
0.000000
0
VERTEX
8
0
10
5181.600000
20
4699.000000
0
VERTEX
8
0
10
5181.600000
20
4724.400000
0
SEQEND
0
POLYLINE
8
0
6
CONTINUOUS
66
1
62
250
10
0.0
20
0.0
30
0.000000
0
VERTEX
8
0
10
5588.000000
20
4648.200000
0
VERTEX
8
0
10
5636.260000
20
4678.680000
0
VERTEX
8
0
10
5816.600000
20
4737.100000
0
VERTEX
8
0
10
5994.400000
20
4699.000000
0
VERTEX
8
0
10
6045.200000
20
4749.800000
0
VERTEX
8
0
10
5999.480000
20
4879.340000
0
VERTEX
8
0
10
5943.600000
20
4953.000000
0
VERTEX
8
0
10
5765.800000
20
5003.800000
0
SEQEND
0
POLYLINE
8
0
6
CONTINUOUS
66
1
62
250
10
0.0
20
0.0
30
0.000000
0
VERTEX
8
0
10
4648.200000
20
4622.800000
0
VERTEX
8
0
10
4648.200000
20
4648.200000
0
SEQEND
0
POLYLINE
8
0
6
CONTINUOUS
66
1
62
250
10
0.0
20
0.0
30
0.000000
0
VERTEX
8
0
10
4673.600000
20
4622.800000
0
VERTEX
8
0
10
4648.200000
20
4622.800000
0
SEQEND
0
POLYLINE
8
0
6
CONTINUOUS
66
1
62
7
10
0.0
20
0.0
30
0.000000
0
VERTEX
8
0
10
3784.600000
20
4572.000000
0
VERTEX
8
0
10
3858.260000
20
4605.020000
0
VERTEX
8
0
10
4140.200000
20
4673.600000
0
VERTEX
8
0
10
4622.800000
20
4673.600000
0
VERTEX
8
0
10
4648.200000
20
4648.200000
0
SEQEND
0
POLYLINE
8
0
6
CONTINUOUS
66
1
62
250
10
0.0
20
0.0
30
0.000000
0
VERTEX
8
0
10
3784.600000
20
4546.600000
0
VERTEX
8
0
10
3759.200000
20
4546.600000
0
SEQEND
0
POLYLINE
8
0
6
CONTINUOUS
66
1
62
251
10
0.0
20
0.0
30
0.000000
0
VERTEX
8
0
10
3784.600000
20
4546.600000
0
VERTEX
8
0
10
3784.600000
20
4572.000000
0
SEQEND
0
POLYLINE
8
0
6
CONTINUOUS
66
1
62
250
10
0.0
20
0.0
30
0.000000
0
VERTEX
8
0
10
2336.800000
20
4521.200000
0
VERTEX
8
0
10
2327.835294
20
4595.158824
0
VERTEX
8
0
10
1949.938462
20
5533.292308
0
VERTEX
8
0
10
1905.000000
20
5588.000000
0
SEQEND
0
POLYLINE
8
0
6
CONTINUOUS
66
1
62
251
10
0.0
20
0.0
30
0.000000
0
VERTEX
8
0
10
4699.000000
20
4521.200000
0
VERTEX
8
0
10
4699.000000
20
4597.400000
0
VERTEX
8
0
10
4673.600000
20
4622.800000
0
SEQEND
0
POLYLINE
8
0
6
CONTINUOUS
66
1
62
252
10
0.0
20
0.0
30
0.000000
0
VERTEX
8
0
10
2336.800000
20
4495.800000
0
VERTEX
8
0
10
2336.800000
20
4521.200000
0
SEQEND
0
POLYLINE
8
0
6
CONTINUOUS
66
1
62
252
10
0.0
20
0.0
30
0.000000
0
VERTEX
8
0
10
2362.200000
20
4495.800000
0
VERTEX
8
0
10
2336.800000
20
4495.800000
0
SEQEND
0
POLYLINE
8
0
6
CONTINUOUS
66
1
62
252
10
0.0
20
0.0
30
0.000000
0
VERTEX
8
0
10
4699.000000
20
4495.800000
0
VERTEX
8
0
10
4699.000000
20
4521.200000
0
SEQEND
0
POLYLINE
8
0
6
CONTINUOUS
66
1
62
250
10
0.0
20
0.0
30
0.000000
0
VERTEX
8
0
10
4724.400000
20
4495.800000
0
VERTEX
8
0
10
4699.000000
20
4495.800000
0
SEQEND
0
POLYLINE
8
0
6
CONTINUOUS
66
1
62
250
10
0.0
20
0.0
30
0.000000
0
VERTEX
8
0
10
4724.400000
20
4495.800000
0
VERTEX
8
0
10
4805.172000
20
4565.904000
0
VERTEX
8
0
10
5001.260000
20
4681.220000
0
VERTEX
8
0
10
5156.200000
20
4699.000000
0
SEQEND
0
POLYLINE
8
0
6
CONTINUOUS
66
1
62
252
10
0.0
20
0.0
30
0.000000
0
VERTEX
8
0
10
2336.800000
20
4470.400000
0
VERTEX
8
0
10
2336.800000
20
4495.800000
0
SEQEND
0
POLYLINE
8
0
6
CONTINUOUS
66
1
62
250
10
0.0
20
0.0
30
0.000000
0
VERTEX
8
0
10
4699.000000
20
4470.400000
0
VERTEX
8
0
10
4699.000000
20
4495.800000
0
SEQEND
0
POLYLINE
8
0
6
CONTINUOUS
66
1
62
250
10
0.0
20
0.0
30
0.000000
0
VERTEX
8
0
10
4673.600000
20
4445.000000
0
VERTEX
8
0
10
4699.000000
20
4470.400000
0
SEQEND
0
POLYLINE
8
0
6
CONTINUOUS
66
1
62
250
10
0.0
20
0.0
30
0.000000
0
VERTEX
8
0
10
2743.200000
20
4419.600000
0
VERTEX
8
0
10
2418.080000
20
4955.540000
0
VERTEX
8
0
10
2413.000000
20
4978.400000
0
SEQEND
0
POLYLINE
8
0
6
CONTINUOUS
66
1
62
250
10
0.0
20
0.0
30
0.000000
0
VERTEX
8
0
10
2794.000000
20
4419.600000
0
VERTEX
8
0
10
2768.600000
20
4445.000000
0
VERTEX
8
0
10
2743.200000
20
4419.600000
0
SEQEND
0
POLYLINE
8
0
6
CONTINUOUS
66
1
62
252
10
0.0
20
0.0
30
0.000000
0
VERTEX
8
0
10
2768.600000
20
4394.200000
0
VERTEX
8
0
10
2743.200000
20
4419.600000
0
SEQEND
0
POLYLINE
8
0
6
CONTINUOUS
66
1
62
252
10
0.0
20
0.0
30
0.000000
0
VERTEX
8
0
10
2768.600000
20
4394.200000
0
VERTEX
8
0
10
2794.000000
20
4419.600000
0
SEQEND
0
POLYLINE
8
0
6
CONTINUOUS
66
1
62
250
10
0.0
20
0.0
30
0.000000
0
VERTEX
8
0
10
3175.000000
20
4394.200000
0
VERTEX
8
0
10
3130.061538
20
4448.907692
0
VERTEX
8
0
10
2971.800000
20
4851.400000
0
SEQEND
0
POLYLINE
8
0
6
CONTINUOUS
66
1
62
7
10
0.0
20
0.0
30
0.000000
0
VERTEX
8
0
10
3175.000000
20
4394.200000
0
VERTEX
8
0
10
3754.628000
20
4755.896000
0
VERTEX
8
0
10
3835.400000
20
4826.000000
0
SEQEND
0
POLYLINE
8
0
6
CONTINUOUS
66
1
62
251
10
0.0
20
0.0
30
0.000000
0
VERTEX
8
0
10
5410.200000
20
4368.800000
0
VERTEX
8
0
10
5467.245902
20
4515.995082
0
VERTEX
8
0
10
5588.000000
20
4648.200000
0
SEQEND
0
POLYLINE
8
0
6
CONTINUOUS
66
1
62
251
10
0.0
20
0.0
30
0.000000
0
VERTEX
8
0
10
4216.400000
20
4343.400000
0
VERTEX
8
0
10
4091.940000
20
4450.080000
0
VERTEX
8
0
10
3935.283784
20
4510.902703
0
VERTEX
8
0
10
3784.600000
20
4546.600000
0
SEQEND
0
POLYLINE
8
0
6
CONTINUOUS
66
1
62
250
10
0.0
20
0.0
30
0.000000
0
VERTEX
8
0
10
4241.800000
20
4343.400000
0
VERTEX
8
0
10
4216.400000
20
4343.400000
0
SEQEND
0
POLYLINE
8
0
6
CONTINUOUS
66
1
62
7
10
0.0
20
0.0
30
0.000000
0
VERTEX
8
0
10
4241.800000
20
4343.400000
0
VERTEX
8
0
10
4241.800000
20
4368.800000
0
SEQEND
0
POLYLINE
8
0
6
CONTINUOUS
66
1
62
251
10
0.0
20
0.0
30
0.000000
0
VERTEX
8
0
10
3022.600000
20
4318.000000
0
VERTEX
8
0
10
2821.940000
20
4399.280000
0
VERTEX
8
0
10
2794.000000
20
4419.600000
0
SEQEND
0
POLYLINE
8
0
6
CONTINUOUS
66
1
62
251
10
0.0
20
0.0
30
0.000000
0
VERTEX
8
0
10
3048.000000
20
4318.000000
0
VERTEX
8
0
10
3022.600000
20
4318.000000
0
SEQEND
0
POLYLINE
8
0
6
CONTINUOUS
66
1
62
250
10
0.0
20
0.0
30
0.000000
0
VERTEX
8
0
10
3073.400000
20
4318.000000
0
VERTEX
8
0
10
3048.000000
20
4318.000000
0
SEQEND
0
POLYLINE
8
0
6
CONTINUOUS
66
1
62
7
10
0.0
20
0.0
30
0.000000
0
VERTEX
8
0
10
3073.400000
20
4318.000000
0
VERTEX
8
0
10
3098.800000
20
4318.000000
0
VERTEX
8
0
10
3175.000000
20
4394.200000
0
SEQEND
0
POLYLINE
8
0
6
CONTINUOUS
66
1
62
250
10
0.0
20
0.0
30
0.000000
0
VERTEX
8
0
10
4241.800000
20
4318.000000
0
VERTEX
8
0
10
4241.800000
20
4343.400000
0
SEQEND
0
POLYLINE
8
0
6
CONTINUOUS
66
1
62
250
10
0.0
20
0.0
30
0.000000
0
VERTEX
8
0
10
3048.000000
20
4292.600000
0
VERTEX
8
0
10
3048.000000
20
4318.000000
0
SEQEND
0
POLYLINE
8
0
6
CONTINUOUS
66
1
62
251
10
0.0
20
0.0
30
0.000000
0
VERTEX
8
0
10
4241.800000
20
4368.800000
0
VERTEX
8
0
10
4292.600000
20
4419.600000
0
VERTEX
8
0
10
4363.720000
20
4315.460000
0
VERTEX
8
0
10
4394.200000
20
4267.200000
0
VERTEX
8
0
10
4445.000000
20
4318.000000
0
VERTEX
8
0
10
4455.160000
20
4363.720000
0
VERTEX
8
0
10
4552.795122
20
4516.243902
0
VERTEX
8
0
10
4648.200000
20
4622.800000
0
SEQEND
0
POLYLINE
8
0
6
CONTINUOUS
66
1
62
7
10
0.0
20
0.0
30
0.000000
0
VERTEX
8
0
10
3073.400000
20
4191.000000
0
VERTEX
8
0
10
3272.692308
20
4323.861538
0
VERTEX
8
0
10
3558.540000
20
4488.180000
0
VERTEX
8
0
10
3759.200000
20
4546.600000
0
SEQEND
0
POLYLINE
8
0
6
CONTINUOUS
66
1
62
250
10
0.0
20
0.0
30
0.000000
0
VERTEX
8
0
10
4165.600000
20
4191.000000
0
VERTEX
8
0
10
4140.200000
20
4191.000000
0
SEQEND
0
POLYLINE
8
0
6
CONTINUOUS
66
1
62
251
10
0.0
20
0.0
30
0.000000
0
VERTEX
8
0
10
4165.600000
20
4191.000000
0
VERTEX
8
0
10
4236.720000
20
4295.140000
0
VERTEX
8
0
10
4241.800000
20
4318.000000
0
SEQEND
0
POLYLINE
8
0
6
CONTINUOUS
66
1
62
251
10
0.0
20
0.0
30
0.000000
0
VERTEX
8
0
10
5105.400000
20
4191.000000
0
VERTEX
8
0
10
5130.800000
20
4191.000000
0
VERTEX
8
0
10
5181.600000
20
4241.800000
0
VERTEX
8
0
10
5207.000000
20
4343.400000
0
VERTEX
8
0
10
5207.000000
20
4445.000000
0
VERTEX
8
0
10
5181.600000
20
4470.400000
0
VERTEX
8
0
10
5207.000000
20
4673.600000
0
VERTEX
8
0
10
5181.600000
20
4699.000000
0
SEQEND
0
POLYLINE
8
0
6
CONTINUOUS
66
1
62
250
10
0.0
20
0.0
30
0.000000
0
VERTEX
8
0
10
2895.600000
20
4165.600000
0
VERTEX
8
0
10
2825.496000
20
4246.372000
0
VERTEX
8
0
10
2776.220000
20
4345.940000
0
VERTEX
8
0
10
2768.600000
20
4394.200000
0
SEQEND
0
POLYLINE
8
0
6
CONTINUOUS
66
1
62
7
10
0.0
20
0.0
30
0.000000
0
VERTEX
8
0
10
2895.600000
20
4165.600000
0
VERTEX
8
0
10
3048.000000
20
4292.600000
0
SEQEND
0
POLYLINE
8
0
6
CONTINUOUS
66
1
62
7
10
0.0
20
0.0
30
0.000000
0
VERTEX
8
0
10
4165.600000
20
4165.600000
0
VERTEX
8
0
10
4165.600000
20
4191.000000
0
SEQEND
0
POLYLINE
8
0
6
CONTINUOUS
66
1
62
251
10
0.0
20
0.0
30
0.000000
0
VERTEX
8
0
10
5207.000000
20
3987.800000
0
VERTEX
8
0
10
5410.200000
20
4368.800000
0
SEQEND
0
POLYLINE
8
0
6
CONTINUOUS
66
1
62
253
10
0.0
20
0.0
30
0.000000
0
VERTEX
8
0
10
3429.000000
20
3937.000000
0
VERTEX
8
0
10
3429.000000
20
3962.400000
0
VERTEX
8
0
10
3454.400000
20
3962.400000
0
SEQEND
0
POLYLINE
8
0
6
CONTINUOUS
66
1
62
251
10
0.0
20
0.0
30
0.000000
0
VERTEX
8
0
10
5156.200000
20
3937.000000
0
VERTEX
8
0
10
5207.000000
20
3987.800000
0
SEQEND
0
POLYLINE
8
0
6
CONTINUOUS
66
1
62
250
10
0.0
20
0.0
30
0.000000
0
VERTEX
8
0
10
2667.000000
20
3886.200000
0
VERTEX
8
0
10
2362.200000
20
4495.800000
0
SEQEND
0
POLYLINE
8
0
6
CONTINUOUS
66
1
62
250
10
0.0
20
0.0
30
0.000000
0
VERTEX
8
0
10
2667.000000
20
3886.200000
0
VERTEX
8
0
10
2895.600000
20
4165.600000
0
SEQEND
0
POLYLINE
8
0
6
CONTINUOUS
66
1
62
250
10
0.0
20
0.0
30
0.000000
0
VERTEX
8
0
10
1549.400000
20
3860.800000
0
VERTEX
8
0
10
1752.600000
20
3911.600000
0
VERTEX
8
0
10
1879.600000
20
4038.600000
0
VERTEX
8
0
10
1921.435294
20
4142.441176
0
VERTEX
8
0
10
1981.200000
20
4394.200000
0
VERTEX
8
0
10
1966.741538
20
4624.167692
0
VERTEX
8
0
10
1944.858462
20
4799.232308
0
VERTEX
8
0
10
1821.180000
20
5255.260000
0
VERTEX
8
0
10
1600.200000
20
6070.600000
0
VERTEX
8
0
10
1600.200000
20
6578.600000
0
VERTEX
8
0
10
1684.020000
20
6982.460000
0
VERTEX
8
0
10
1696.720000
20
7012.940000
0
VERTEX
8
0
10
1809.261538
20
7260.492308
0
VERTEX
8
0
10
2057.400000
20
7620.000000
0
SEQEND
0
POLYLINE
8
0
6
CONTINUOUS
66
1
62
7
10
0.0
20
0.0
30
0.000000
0
VERTEX
8
0
10
1524.000000
20
3835.400000
0
VERTEX
8
0
10
1524.000000
20
3860.800000
0
VERTEX
8
0
10
1549.400000
20
3860.800000
0
SEQEND
0
POLYLINE
8
0
6
CONTINUOUS
66
1
62
7
10
0.0
20
0.0
30
0.000000
0
VERTEX
8
0
10
3048.000000
20
3835.400000
0
VERTEX
8
0
10
3280.507692
20
4007.338462
0
VERTEX
8
0
10
3609.041176
20
4131.235294
0
VERTEX
8
0
10
3680.758824
20
4149.164706
0
VERTEX
8
0
10
3861.763448
20
4179.438621
0
VERTEX
8
0
10
4140.200000
20
4191.000000
0
SEQEND
0
POLYLINE
8
0
6
CONTINUOUS
66
1
62
250
10
0.0
20
0.0
30
0.000000
0
VERTEX
8
0
10
3048.000000
20
3810.000000
0
VERTEX
8
0
10
3022.600000
20
3810.000000
0
SEQEND
0
POLYLINE
8
0
6
CONTINUOUS
66
1
62
250
10
0.0
20
0.0
30
0.000000
0
VERTEX
8
0
10
3048.000000
20
3810.000000
0
VERTEX
8
0
10
3048.000000
20
3835.400000
0
SEQEND
0
POLYLINE
8
0
6
CONTINUOUS
66
1
62
7
10
0.0
20
0.0
30
0.000000
0
VERTEX
8
0
10
3048.000000
20
3784.600000
0
VERTEX
8
0
10
3048.000000
20
3810.000000
0
SEQEND
0
POLYLINE
8
0
6
CONTINUOUS
66
1
62
251
10
0.0
20
0.0
30
0.000000
0
VERTEX
8
0
10
4064.000000
20
3784.600000
0
VERTEX
8
0
10
4165.600000
20
4165.600000
0
SEQEND
0
POLYLINE
8
0
6
CONTINUOUS
66
1
62
7
10
0.0
20
0.0
30
0.000000
0
VERTEX
8
0
10
4064.000000
20
3759.200000
0
VERTEX
8
0
10
4038.600000
20
3759.200000
0
SEQEND
0
POLYLINE
8
0
6
CONTINUOUS
66
1
62
7
10
0.0
20
0.0
30
0.000000
0
VERTEX
8
0
10
4064.000000
20
3759.200000
0
VERTEX
8
0
10
4064.000000
20
3784.600000
0
SEQEND
0
POLYLINE
8
0
6
CONTINUOUS
66
1
62
251
10
0.0
20
0.0
30
0.000000
0
VERTEX
8
0
10
3784.600000
20
3733.800000
0
VERTEX
8
0
10
3733.800000
20
3810.000000
0
VERTEX
8
0
10
3583.940000
20
3942.080000
0
VERTEX
8
0
10
3454.400000
20
3962.400000
0
SEQEND
0
POLYLINE
8
0
6
CONTINUOUS
66
1
62
251
10
0.0
20
0.0
30
0.000000
0
VERTEX
8
0
10
3784.600000
20
3733.800000
0
VERTEX
8
0
10
3835.400000
20
3810.000000
0
VERTEX
8
0
10
3886.200000
20
3860.800000
0
VERTEX
8
0
10
3937.000000
20
3860.800000
0
VERTEX
8
0
10
4038.600000
20
3759.200000
0
SEQEND
0
POLYLINE
8
0
6
CONTINUOUS
66
1
62
7
10
0.0
20
0.0
30
0.000000
0
VERTEX
8
0
10
4064.000000
20
3733.800000
0
VERTEX
8
0
10
4064.000000
20
3759.200000
0
SEQEND
0
POLYLINE
8
0
6
CONTINUOUS
66
1
62
7
10
0.0
20
0.0
30
0.000000
0
VERTEX
8
0
10
1651.000000
20
3683.000000
0
VERTEX
8
0
10
1524.000000
20
3835.400000
0
SEQEND
0
POLYLINE
8
0
6
CONTINUOUS
66
1
62
252
10
0.0
20
0.0
30
0.000000
0
VERTEX
8
0
10
1625.600000
20
3657.600000
0
VERTEX
8
0
10
1651.000000
20
3683.000000
0
SEQEND
0
POLYLINE
8
0
6
CONTINUOUS
66
1
62
250
10
0.0
20
0.0
30
0.000000
0
VERTEX
8
0
10
4089.400000
20
3657.600000
0
VERTEX
8
0
10
4089.400000
20
3708.400000
0
VERTEX
8
0
10
4064.000000
20
3733.800000
0
SEQEND
0
POLYLINE
8
0
6
CONTINUOUS
66
1
62
251
10
0.0
20
0.0
30
0.000000
0
VERTEX
8
0
10
2108.200000
20
3632.200000
0
VERTEX
8
0
10
2176.780000
20
3736.340000
0
VERTEX
8
0
10
2301.102703
20
4192.716216
0
VERTEX
8
0
10
2336.800000
20
4470.400000
0
SEQEND
0
POLYLINE
8
0
6
CONTINUOUS
66
1
62
251
10
0.0
20
0.0
30
0.000000
0
VERTEX
8
0
10
3810.000000
20
3632.200000
0
VERTEX
8
0
10
3784.600000
20
3733.800000
0
SEQEND
0
POLYLINE
8
0
6
CONTINUOUS
66
1
62
251
10
0.0
20
0.0
30
0.000000
0
VERTEX
8
0
10
4114.800000
20
3632.200000
0
VERTEX
8
0
10
4089.400000
20
3657.600000
0
SEQEND
0
POLYLINE
8
0
6
CONTINUOUS
66
1
62
7
10
0.0
20
0.0
30
0.000000
0
VERTEX
8
0
10
2108.200000
20
3606.800000
0
VERTEX
8
0
10
2082.800000
20
3606.800000
0
SEQEND
0
POLYLINE
8
0
6
CONTINUOUS
66
1
62
7
10
0.0
20
0.0
30
0.000000
0
VERTEX
8
0
10
2108.200000
20
3606.800000
0
VERTEX
8
0
10
2108.200000
20
3632.200000
0
SEQEND
0
POLYLINE
8
0
6
CONTINUOUS
66
1
62
251
10
0.0
20
0.0
30
0.000000
0
VERTEX
8
0
10
5257.800000
20
3606.800000
0
VERTEX
8
0
10
5367.020000
20
3832.860000
0
VERTEX
8
0
10
5384.800000
20
3860.800000
0
VERTEX
8
0
10
5384.800000
20
3987.800000
0
VERTEX
8
0
10
5359.400000
20
4013.200000
0
VERTEX
8
0
10
5232.400000
20
3975.100000
0
VERTEX
8
0
10
5207.000000
20
3987.800000
0
SEQEND
0
POLYLINE
8
0
6
CONTINUOUS
66
1
62
251
10
0.0
20
0.0
30
0.000000
0
VERTEX
8
0
10
1803.400000
20
3581.400000
0
VERTEX
8
0
10
1651.000000
20
3683.000000
0
SEQEND
0
POLYLINE
8
0
6
CONTINUOUS
66
1
62
7
10
0.0
20
0.0
30
0.000000
0
VERTEX
8
0
10
1803.400000
20
3581.400000
0
VERTEX
8
0
10
1902.460000
20
3614.420000
0
VERTEX
8
0
10
1930.400000
20
3632.200000
0
VERTEX
8
0
10
2082.800000
20
3606.800000
0
SEQEND
0
POLYLINE
8
0
6
CONTINUOUS
66
1
62
251
10
0.0
20
0.0
30
0.000000
0
VERTEX
8
0
10
2108.200000
20
3581.400000
0
VERTEX
8
0
10
2108.200000
20
3606.800000
0
SEQEND
0
POLYLINE
8
0
6
CONTINUOUS
66
1
62
250
10
0.0
20
0.0
30
0.000000
0
VERTEX
8
0
10
5257.800000
20
3581.400000
0
VERTEX
8
0
10
5232.400000
20
3581.400000
0
SEQEND
0
POLYLINE
8
0
6
CONTINUOUS
66
1
62
252
10
0.0
20
0.0
30
0.000000
0
VERTEX
8
0
10
5257.800000
20
3581.400000
0
VERTEX
8
0
10
5257.800000
20
3606.800000
0
SEQEND
0
POLYLINE
8
0
6
CONTINUOUS
66
1
62
252
10
0.0
20
0.0
30
0.000000
0
VERTEX
8
0
10
3403.600000
20
3530.600000
0
VERTEX
8
0
10
3429.000000
20
3937.000000
0
SEQEND
0
POLYLINE
8
0
6
CONTINUOUS
66
1
62
251
10
0.0
20
0.0
30
0.000000
0
VERTEX
8
0
10
5130.800000
20
3530.600000
0
VERTEX
8
0
10
5232.400000
20
3581.400000
0
SEQEND
0
POLYLINE
8
0
6
CONTINUOUS
66
1
62
252
10
0.0
20
0.0
30
0.000000
0
VERTEX
8
0
10
3403.600000
20
3505.200000
0
VERTEX
8
0
10
3378.200000
20
3505.200000
0
SEQEND
0
POLYLINE
8
0
6
CONTINUOUS
66
1
62
251
10
0.0
20
0.0
30
0.000000
0
VERTEX
8
0
10
3403.600000
20
3505.200000
0
VERTEX
8
0
10
3403.600000
20
3530.600000
0
SEQEND
0
POLYLINE
8
0
6
CONTINUOUS
66
1
62
250
10
0.0
20
0.0
30
0.000000
0
VERTEX
8
0
10
4064.000000
20
3505.200000
0
VERTEX
8
0
10
4064.000000
20
3632.200000
0
VERTEX
8
0
10
4089.400000
20
3657.600000
0
SEQEND
0
POLYLINE
8
0
6
CONTINUOUS
66
1
62
250
10
0.0
20
0.0
30
0.000000
0
VERTEX
8
0
10
6248.400000
20
3505.200000
0
VERTEX
8
0
10
6202.680000
20
3609.340000
0
VERTEX
8
0
10
6064.738462
20
3933.092308
0
VERTEX
8
0
10
5994.400000
20
4038.600000
0
SEQEND
0
POLYLINE
8
0
6
CONTINUOUS
66
1
62
254
10
0.0
20
0.0
30
0.000000
0
VERTEX
8
0
10
3403.600000
20
3479.800000
0
VERTEX
8
0
10
3403.600000
20
3505.200000
0
SEQEND
0
POLYLINE
8
0
6
CONTINUOUS
66
1
62
253
10
0.0
20
0.0
30
0.000000
0
VERTEX
8
0
10
6248.400000
20
3479.800000
0
VERTEX
8
0
10
6248.400000
20
3505.200000
0
SEQEND
0
POLYLINE
8
0
6
CONTINUOUS
66
1
62
253
10
0.0
20
0.0
30
0.000000
0
VERTEX
8
0
10
6273.800000
20
3479.800000
0
VERTEX
8
0
10
6248.400000
20
3479.800000
0
SEQEND
0
POLYLINE
8
0
6
CONTINUOUS
66
1
62
251
10
0.0
20
0.0
30
0.000000
0
VERTEX
8
0
10
2768.600000
20
3454.400000
0
VERTEX
8
0
10
2901.845902
20
3677.795082
0
VERTEX
8
0
10
3022.600000
20
3810.000000
0
SEQEND
0
POLYLINE
8
0
6
CONTINUOUS
66
1
62
250
10
0.0
20
0.0
30
0.000000
0
VERTEX
8
0
10
3175.000000
20
3454.400000
0
VERTEX
8
0
10
3048.000000
20
3784.600000
0
SEQEND
0
POLYLINE
8
0
6
CONTINUOUS
66
1
62
250
10
0.0
20
0.0
30
0.000000
0
VERTEX
8
0
10
3175.000000
20
3454.400000
0
VERTEX
8
0
10
3225.800000
20
3530.600000
0
VERTEX
8
0
10
3251.200000
20
3556.000000
0
VERTEX
8
0
10
3327.400000
20
3556.000000
0
VERTEX
8
0
10
3378.200000
20
3505.200000
0
SEQEND
0
POLYLINE
8
0
6
CONTINUOUS
66
1
62
251
10
0.0
20
0.0
30
0.000000
0
VERTEX
8
0
10
3683.000000
20
3454.400000
0
VERTEX
8
0
10
3581.400000
20
3708.400000
0
SEQEND
0
POLYLINE
8
0
6
CONTINUOUS
66
1
62
254
10
0.0
20
0.0
30
0.000000
0
VERTEX
8
0
10
6248.400000
20
3454.400000
0
VERTEX
8
0
10
6248.400000
20
3479.800000
0
SEQEND
0
POLYLINE
8
0
6
CONTINUOUS
66
1
62
250
10
0.0
20
0.0
30
0.000000
0
VERTEX
8
0
10
2768.600000
20
3429.000000
0
VERTEX
8
0
10
2743.200000
20
3429.000000
0
SEQEND
0
POLYLINE
8
0
6
CONTINUOUS
66
1
62
7
10
0.0
20
0.0
30
0.000000
0
VERTEX
8
0
10
2768.600000
20
3429.000000
0
VERTEX
8
0
10
2768.600000
20
3454.400000
0
SEQEND
0
POLYLINE
8
0
6
CONTINUOUS
66
1
62
250
10
0.0
20
0.0
30
0.000000
0
VERTEX
8
0
10
3708.400000
20
3429.000000
0
VERTEX
8
0
10
3683.000000
20
3429.000000
0
VERTEX
8
0
10
3683.000000
20
3454.400000
0
SEQEND
0
POLYLINE
8
0
6
CONTINUOUS
66
1
62
7
10
0.0
20
0.0
30
0.000000
0
VERTEX
8
0
10
2768.600000
20
3403.600000
0
VERTEX
8
0
10
2768.600000
20
3429.000000
0
SEQEND
0
POLYLINE
8
0
6
CONTINUOUS
66
1
62
7
10
0.0
20
0.0
30
0.000000
0
VERTEX
8
0
10
3733.800000
20
3403.600000
0
VERTEX
8
0
10
3733.800000
20
3429.000000
0
VERTEX
8
0
10
3708.400000
20
3429.000000
0
SEQEND
0
POLYLINE
8
0
6
CONTINUOUS
66
1
62
250
10
0.0
20
0.0
30
0.000000
0
VERTEX
8
0
10
5334.000000
20
3378.200000
0
VERTEX
8
0
10
5410.200000
20
3479.800000
0
VERTEX
8
0
10
5410.200000
20
3556.000000
0
VERTEX
8
0
10
5384.800000
20
3581.400000
0
VERTEX
8
0
10
5283.200000
20
3568.700000
0
VERTEX
8
0
10
5257.800000
20
3581.400000
0
SEQEND
0
POLYLINE
8
0
6
CONTINUOUS
66
1
62
252
10
0.0
20
0.0
30
0.000000
0
VERTEX
8
0
10
3429.000000
20
3352.800000
0
VERTEX
8
0
10
3403.600000
20
3479.800000
0
SEQEND
0
POLYLINE
8
0
6
CONTINUOUS
66
1
62
250
10
0.0
20
0.0
30
0.000000
0
VERTEX
8
0
10
5334.000000
20
3352.800000
0
VERTEX
8
0
10
5308.600000
20
3352.800000
0
SEQEND
0
POLYLINE
8
0
6
CONTINUOUS
66
1
62
251
10
0.0
20
0.0
30
0.000000
0
VERTEX
8
0
10
5334.000000
20
3352.800000
0
VERTEX
8
0
10
5334.000000
20
3378.200000
0
SEQEND
0
POLYLINE
8
0
6
CONTINUOUS
66
1
62
7
10
0.0
20
0.0
30
0.000000
0
VERTEX
8
0
10
5181.600000
20
3276.600000
0
VERTEX
8
0
10
5253.892308
20
3307.861538
0
VERTEX
8
0
10
5308.600000
20
3352.800000
0
SEQEND
0
POLYLINE
8
0
6
CONTINUOUS
66
1
62
251
10
0.0
20
0.0
30
0.000000
0
VERTEX
8
0
10
5511.800000
20
3251.200000
0
VERTEX
8
0
10
5588.000000
20
3327.400000
0
VERTEX
8
0
10
5562.600000
20
3352.800000
0
VERTEX
8
0
10
5410.200000
20
3352.800000
0
VERTEX
8
0
10
5384.800000
20
3327.400000
0
VERTEX
8
0
10
5334.000000
20
3352.800000
0
SEQEND
0
POLYLINE
8
0
6
CONTINUOUS
66
1
62
250
10
0.0
20
0.0
30
0.000000
0
VERTEX
8
0
10
3225.800000
20
3225.800000
0
VERTEX
8
0
10
3175.000000
20
3454.400000
0
SEQEND
0
POLYLINE
8
0
6
CONTINUOUS
66
1
62
7
10
0.0
20
0.0
30
0.000000
0
VERTEX
8
0
10
5486.400000
20
3225.800000
0
VERTEX
8
0
10
5435.600000
20
3225.800000
0
SEQEND
0
POLYLINE
8
0
6
CONTINUOUS
66
1
62
7
10
0.0
20
0.0
30
0.000000
0
VERTEX
8
0
10
5511.800000
20
3225.800000
0
VERTEX
8
0
10
5486.400000
20
3225.800000
0
SEQEND
0
POLYLINE
8
0
6
CONTINUOUS
66
1
62
250
10
0.0
20
0.0
30
0.000000
0
VERTEX
8
0
10
5511.800000
20
3225.800000
0
VERTEX
8
0
10
5511.800000
20
3251.200000
0
SEQEND
0
POLYLINE
8
0
6
CONTINUOUS
66
1
62
7
10
0.0
20
0.0
30
0.000000
0
VERTEX
8
0
10
5537.200000
20
3225.800000
0
VERTEX
8
0
10
5511.800000
20
3225.800000
0
SEQEND
0
POLYLINE
8
0
6
CONTINUOUS
66
1
62
251
10
0.0
20
0.0
30
0.000000
0
VERTEX
8
0
10
3225.800000
20
3200.400000
0
VERTEX
8
0
10
3225.800000
20
3225.800000
0
SEQEND
0
POLYLINE
8
0
6
CONTINUOUS
66
1
62
250
10
0.0
20
0.0
30
0.000000
0
VERTEX
8
0
10
3251.200000
20
3200.400000
0
VERTEX
8
0
10
3225.800000
20
3200.400000
0
SEQEND
0
POLYLINE
8
0
6
CONTINUOUS
66
1
62
251
10
0.0
20
0.0
30
0.000000
0
VERTEX
8
0
10
3225.800000
20
3175.000000
0
VERTEX
8
0
10
3225.800000
20
3200.400000
0
SEQEND
0
POLYLINE
8
0
6
CONTINUOUS
66
1
62
251
10
0.0
20
0.0
30
0.000000
0
VERTEX
8
0
10
5867.400000
20
3098.800000
0
VERTEX
8
0
10
5812.692308
20
3143.738462
0
VERTEX
8
0
10
5585.460000
20
3218.180000
0
VERTEX
8
0
10
5537.200000
20
3225.800000
0
SEQEND
0
POLYLINE
8
0
6
CONTINUOUS
66
1
62
7
10
0.0
20
0.0
30
0.000000
0
VERTEX
8
0
10
5867.400000
20
3073.400000
0
VERTEX
8
0
10
5842.000000
20
3073.400000
0
SEQEND
0
POLYLINE
8
0
6
CONTINUOUS
66
1
62
251
10
0.0
20
0.0
30
0.000000
0
VERTEX
8
0
10
5867.400000
20
3073.400000
0
VERTEX
8
0
10
5867.400000
20
3098.800000
0
SEQEND
0
POLYLINE
8
0
6
CONTINUOUS
66
1
62
250
10
0.0
20
0.0
30
0.000000
0
VERTEX
8
0
10
3225.800000
20
3022.600000
0
VERTEX
8
0
10
3225.800000
20
3175.000000
0
SEQEND
0
POLYLINE
8
0
6
CONTINUOUS
66
1
62
7
10
0.0
20
0.0
30
0.000000
0
VERTEX
8
0
10
3225.800000
20
2997.200000
0
VERTEX
8
0
10
3225.800000
20
3022.600000
0
SEQEND
0
POLYLINE
8
0
6
CONTINUOUS
66
1
62
250
10
0.0
20
0.0
30
0.000000
0
VERTEX
8
0
10
3251.200000
20
2997.200000
0
VERTEX
8
0
10
3225.800000
20
2997.200000
0
SEQEND
0
POLYLINE
8
0
6
CONTINUOUS
66
1
62
250
10
0.0
20
0.0
30
0.000000
0
VERTEX
8
0
10
5994.400000
20
2997.200000
0
VERTEX
8
0
10
5999.480000
20
3020.060000
0
VERTEX
8
0
10
6019.800000
20
3048.000000
0
VERTEX
8
0
10
6019.800000
20
3352.800000
0
VERTEX
8
0
10
5960.035294
20
3579.158824
0
VERTEX
8
0
10
5925.820000
20
3685.540000
0
VERTEX
8
0
10
5836.138462
20
3907.692308
0
VERTEX
8
0
10
5720.861538
20
4093.307692
0
VERTEX
8
0
10
5537.200000
20
4292.600000
0
VERTEX
8
0
10
5410.200000
20
4368.800000
0
SEQEND
0
POLYLINE
8
0
6
CONTINUOUS
66
1
62
250
10
0.0
20
0.0
30
0.000000
0
VERTEX
8
0
10
3378.200000
20
2971.800000
0
VERTEX
8
0
10
3251.200000
20
3200.400000
0
SEQEND
0
POLYLINE
8
0
6
CONTINUOUS
66
1
62
251
10
0.0
20
0.0
30
0.000000
0
VERTEX
8
0
10
5969.000000
20
2971.800000
0
VERTEX
8
0
10
5943.600000
20
2971.800000
0
VERTEX
8
0
10
5887.720000
20
3045.460000
0
VERTEX
8
0
10
5867.400000
20
3073.400000
0
SEQEND
0
POLYLINE
8
0
6
CONTINUOUS
66
1
62
7
10
0.0
20
0.0
30
0.000000
0
VERTEX
8
0
10
5994.400000
20
2971.800000
0
VERTEX
8
0
10
5969.000000
20
2971.800000
0
SEQEND
0
POLYLINE
8
0
6
CONTINUOUS
66
1
62
7
10
0.0
20
0.0
30
0.000000
0
VERTEX
8
0
10
5994.400000
20
2971.800000
0
VERTEX
8
0
10
5994.400000
20
2997.200000
0
SEQEND
0
POLYLINE
8
0
6
CONTINUOUS
66
1
62
252
10
0.0
20
0.0
30
0.000000
0
VERTEX
8
0
10
3251.200000
20
2997.200000
0
VERTEX
8
0
10
3274.060000
20
2992.120000
0
VERTEX
8
0
10
3352.800000
20
2959.100000
0
VERTEX
8
0
10
3378.200000
20
2971.800000
0
SEQEND
0
POLYLINE
8
0
6
CONTINUOUS
66
1
62
250
10
0.0
20
0.0
30
0.000000
0
VERTEX
8
0
10
5715.000000
20
2921.000000
0
VERTEX
8
0
10
5715.000000
20
2946.400000
0
VERTEX
8
0
10
5842.000000
20
3073.400000
0
SEQEND
0
POLYLINE
8
0
6
CONTINUOUS
66
1
62
252
10
0.0
20
0.0
30
0.000000
0
VERTEX
8
0
10
6248.400000
20
2921.000000
0
VERTEX
8
0
10
6273.800000
20
3124.200000
0
VERTEX
8
0
10
6259.716832
20
3226.931683
0
VERTEX
8
0
10
6248.400000
20
3454.400000
0
SEQEND
0
POLYLINE
8
0
6
CONTINUOUS
66
1
62
250
10
0.0
20
0.0
30
0.000000
0
VERTEX
8
0
10
7239.000000
20
2921.000000
0
VERTEX
8
0
10
7289.800000
20
2946.400000
0
VERTEX
8
0
10
7472.680000
20
3147.060000
0
VERTEX
8
0
10
7487.920000
20
3177.540000
0
VERTEX
8
0
10
7518.400000
20
3276.600000
0
VERTEX
8
0
10
7493.000000
20
3302.000000
0
VERTEX
8
0
10
7240.040984
20
3313.450820
0
VERTEX
8
0
10
7113.953846
20
3337.169231
0
VERTEX
8
0
10
7084.060000
20
3345.180000
0
VERTEX
8
0
10
6760.307692
20
3485.661538
0
VERTEX
8
0
10
6701.692308
20
3524.738462
0
VERTEX
8
0
10
6578.600000
20
3606.800000
0
VERTEX
8
0
10
6197.600000
20
3987.800000
0
VERTEX
8
0
10
5924.475294
20
4323.378824
0
VERTEX
8
0
10
5918.200000
20
4343.400000
0
VERTEX
8
0
10
5642.707692
20
4603.261538
0
VERTEX
8
0
10
5588.000000
20
4648.200000
0
SEQEND
0
POLYLINE
8
0
6
CONTINUOUS
66
1
62
250
10
0.0
20
0.0
30
0.000000
0
VERTEX
8
0
10
3479.800000
20
2895.600000
0
VERTEX
8
0
10
3378.200000
20
2971.800000
0
SEQEND
0
POLYLINE
8
0
6
CONTINUOUS
66
1
62
251
10
0.0
20
0.0
30
0.000000
0
VERTEX
8
0
10
5715.000000
20
2895.600000
0
VERTEX
8
0
10
5689.600000
20
2895.600000
0
SEQEND
0
POLYLINE
8
0
6
CONTINUOUS
66
1
62
252
10
0.0
20
0.0
30
0.000000
0
VERTEX
8
0
10
5715.000000
20
2895.600000
0
VERTEX
8
0
10
5715.000000
20
2921.000000
0
SEQEND
0
POLYLINE
8
0
6
CONTINUOUS
66
1
62
250
10
0.0
20
0.0
30
0.000000
0
VERTEX
8
0
10
6223.000000
20
2895.600000
0
VERTEX
8
0
10
6050.280000
20
2931.160000
0
VERTEX
8
0
10
5994.400000
20
2971.800000
0
SEQEND
0
POLYLINE
8
0
6
CONTINUOUS
66
1
62
250
10
0.0
20
0.0
30
0.000000
0
VERTEX
8
0
10
6248.400000
20
2895.600000
0
VERTEX
8
0
10
6223.000000
20
2895.600000
0
SEQEND
0
POLYLINE
8
0
6
CONTINUOUS
66
1
62
252
10
0.0
20
0.0
30
0.000000
0
VERTEX
8
0
10
6248.400000
20
2895.600000
0
VERTEX
8
0
10
6248.400000
20
2921.000000
0
SEQEND
0
POLYLINE
8
0
6
CONTINUOUS
66
1
62
250
10
0.0
20
0.0
30
0.000000
0
VERTEX
8
0
10
6807.200000
20
2895.600000
0
VERTEX
8
0
10
6629.400000
20
3022.600000
0
VERTEX
8
0
10
6344.138462
20
3374.292308
0
VERTEX
8
0
10
6273.800000
20
3479.800000
0
SEQEND
0
POLYLINE
8
0
6
CONTINUOUS
66
1
62
250
10
0.0
20
0.0
30
0.000000
0
VERTEX
8
0
10
7239.000000
20
2895.600000
0
VERTEX
8
0
10
7213.600000
20
2895.600000
0
SEQEND
0
POLYLINE
8
0
6
CONTINUOUS
66
1
62
250
10
0.0
20
0.0
30
0.000000
0
VERTEX
8
0
10
7239.000000
20
2895.600000
0
VERTEX
8
0
10
7239.000000
20
2921.000000
0
SEQEND
0
POLYLINE
8
0
6
CONTINUOUS
66
1
62
252
10
0.0
20
0.0
30
0.000000
0
VERTEX
8
0
10
7264.400000
20
2895.600000
0
VERTEX
8
0
10
7239.000000
20
2895.600000
0
SEQEND
0
POLYLINE
8
0
6
CONTINUOUS
66
1
62
254
10
0.0
20
0.0
30
0.000000
0
VERTEX
8
0
10
6807.200000
20
2870.200000
0
VERTEX
8
0
10
6807.200000
20
2895.600000
0
SEQEND
0
POLYLINE
8
0
6
CONTINUOUS
66
1
62
253
10
0.0
20
0.0
30
0.000000
0
VERTEX
8
0
10
6832.600000
20
2870.200000
0
VERTEX
8
0
10
6807.200000
20
2870.200000
0
SEQEND
0
POLYLINE
8
0
6
CONTINUOUS
66
1
62
251
10
0.0
20
0.0
30
0.000000
0
VERTEX
8
0
10
6248.400000
20
2895.600000
0
VERTEX
8
0
10
6322.060000
20
2862.580000
0
VERTEX
8
0
10
6350.000000
20
2844.800000
0
VERTEX
8
0
10
6781.800000
20
2844.800000
0
VERTEX
8
0
10
6807.200000
20
2870.200000
0
SEQEND
0
POLYLINE
8
0
6
CONTINUOUS
66
1
62
251
10
0.0
20
0.0
30
0.000000
0
VERTEX
8
0
10
6832.600000
20
2870.200000
0
VERTEX
8
0
10
6934.200000
20
2844.800000
0
VERTEX
8
0
10
7062.916216
20
2859.902703
0
VERTEX
8
0
10
7213.600000
20
2895.600000
0
SEQEND
0
POLYLINE
8
0
6
CONTINUOUS
66
1
62
250
10
0.0
20
0.0
30
0.000000
0
VERTEX
8
0
10
3200.400000
20
2819.400000
0
VERTEX
8
0
10
3225.800000
20
2844.800000
0
VERTEX
8
0
10
3200.400000
20
2971.800000
0
VERTEX
8
0
10
3225.800000
20
2997.200000
0
SEQEND
0
POLYLINE
8
0
6
CONTINUOUS
66
1
62
251
10
0.0
20
0.0
30
0.000000
0
VERTEX
8
0
10
3200.400000
20
2794.000000
0
VERTEX
8
0
10
3200.400000
20
2819.400000
0
SEQEND
0
POLYLINE
8
0
6
CONTINUOUS
66
1
62
252
10
0.0
20
0.0
30
0.000000
0
VERTEX
8
0
10
3225.800000
20
2794.000000
0
VERTEX
8
0
10
3200.400000
20
2794.000000
0
SEQEND
0
POLYLINE
8
0
6
CONTINUOUS
66
1
62
251
10
0.0
20
0.0
30
0.000000
0
VERTEX
8
0
10
8382.000000
20
2768.600000
0
VERTEX
8
0
10
8282.641176
20
2802.964706
0
VERTEX
8
0
10
8000.577672
20
2857.952494
0
VERTEX
8
0
10
7264.400000
20
2895.600000
0
SEQEND
0
POLYLINE
8
0
6
CONTINUOUS
66
1
62
251
10
0.0
20
0.0
30
0.000000
0
VERTEX
8
0
10
8407.400000
20
2768.600000
0
VERTEX
8
0
10
8382.000000
20
2768.600000
0
SEQEND
0
POLYLINE
8
0
6
CONTINUOUS
66
1
62
250
10
0.0
20
0.0
30
0.000000
0
VERTEX
8
0
10
8407.400000
20
2743.200000
0
VERTEX
8
0
10
8407.400000
20
2768.600000
0
SEQEND
0
POLYLINE
8
0
6
CONTINUOUS
66
1
62
7
10
0.0
20
0.0
30
0.000000
0
VERTEX
8
0
10
6985.000000
20
2717.800000
0
VERTEX
8
0
10
6985.000000
20
2743.200000
0
VERTEX
8
0
10
7010.400000
20
2743.200000
0
SEQEND
0
POLYLINE
8
0
6
CONTINUOUS
66
1
62
250
10
0.0
20
0.0
30
0.000000
0
VERTEX
8
0
10
8737.600000
20
2641.600000
0
VERTEX
8
0
10
8723.761379
20
2667.963448
0
VERTEX
8
0
10
8712.200000
20
2946.400000
0
VERTEX
8
0
10
8686.800000
20
2971.800000
0
VERTEX
8
0
10
8608.060000
20
2951.480000
0
VERTEX
8
0
10
8407.400000
20
2768.600000
0
SEQEND
0
POLYLINE
8
0
6
CONTINUOUS
66
1
62
251
10
0.0
20
0.0
30
0.000000
0
VERTEX
8
0
10
2260.600000
20
2616.200000
0
VERTEX
8
0
10
2268.220000
20
2664.460000
0
VERTEX
8
0
10
2396.564706
20
3223.558824
0
VERTEX
8
0
10
2519.680000
20
3553.460000
0
VERTEX
8
0
10
2667.000000
20
3886.200000
0
SEQEND
0
POLYLINE
8
0
6
CONTINUOUS
66
1
62
251
10
0.0
20
0.0
30
0.000000
0
VERTEX
8
0
10
2463.800000
20
2616.200000
0
VERTEX
8
0
10
2532.380000
20
2974.340000
0
VERTEX
8
0
10
2661.920000
20
3279.140000
0
VERTEX
8
0
10
2743.200000
20
3429.000000
0
SEQEND
0
POLYLINE
8
0
6
CONTINUOUS
66
1
62
250
10
0.0
20
0.0
30
0.000000
0
VERTEX
8
0
10
8737.600000
20
2616.200000
0
VERTEX
8
0
10
8737.600000
20
2641.600000
0
SEQEND
0
POLYLINE
8
0
6
CONTINUOUS
66
1
62
251
10
0.0
20
0.0
30
0.000000
0
VERTEX
8
0
10
8763.000000
20
2616.200000
0
VERTEX
8
0
10
8737.600000
20
2616.200000
0
SEQEND
0
POLYLINE
8
0
6
CONTINUOUS
66
1
62
251
10
0.0
20
0.0
30
0.000000
0
VERTEX
8
0
10
2260.600000
20
2590.800000
0
VERTEX
8
0
10
2235.200000
20
2590.800000
0
SEQEND
0
POLYLINE
8
0
6
CONTINUOUS
66
1
62
250
10
0.0
20
0.0
30
0.000000
0
VERTEX
8
0
10
2260.600000
20
2590.800000
0
VERTEX
8
0
10
2260.600000
20
2616.200000
0
SEQEND
0
POLYLINE
8
0
6
CONTINUOUS
66
1
62
7
10
0.0
20
0.0
30
0.000000
0
VERTEX
8
0
10
2463.800000
20
2590.800000
0
VERTEX
8
0
10
2438.400000
20
2590.800000
0
SEQEND
0
POLYLINE
8
0
6
CONTINUOUS
66
1
62
250
10
0.0
20
0.0
30
0.000000
0
VERTEX
8
0
10
2463.800000
20
2590.800000
0
VERTEX
8
0
10
2463.800000
20
2616.200000
0
SEQEND
0
POLYLINE
8
0
6
CONTINUOUS
66
1
62
251
10
0.0
20
0.0
30
0.000000
0
VERTEX
8
0
10
2489.200000
20
2590.800000
0
VERTEX
8
0
10
2463.800000
20
2590.800000
0
SEQEND
0
POLYLINE
8
0
6
CONTINUOUS
66
1
62
251
10
0.0
20
0.0
30
0.000000
0
VERTEX
8
0
10
2489.200000
20
2590.800000
0
VERTEX
8
0
10
2667.000000
20
2743.200000
0
VERTEX
8
0
10
2794.000000
20
3022.600000
0
VERTEX
8
0
10
2794.000000
20
3378.200000
0
VERTEX
8
0
10
2768.600000
20
3403.600000
0
SEQEND
0
POLYLINE
8
0
6
CONTINUOUS
66
1
62
252
10
0.0
20
0.0
30
0.000000
0
VERTEX
8
0
10
7594.600000
20
2590.800000
0
VERTEX
8
0
10
7569.200000
20
2590.800000
0
SEQEND
0
POLYLINE
8
0
6
CONTINUOUS
66
1
62
250
10
0.0
20
0.0
30
0.000000
0
VERTEX
8
0
10
7594.600000
20
2590.800000
0
VERTEX
8
0
10
7594.600000
20
2616.200000
0
SEQEND
0
POLYLINE
8
0
6
CONTINUOUS
66
1
62
251
10
0.0
20
0.0
30
0.000000
0
VERTEX
8
0
10
8737.600000
20
2590.800000
0
VERTEX
8
0
10
8737.600000
20
2616.200000
0
SEQEND
0
POLYLINE
8
0
6
CONTINUOUS
66
1
62
251
10
0.0
20
0.0
30
0.000000
0
VERTEX
8
0
10
2108.200000
20
3581.400000
0
VERTEX
8
0
10
2159.000000
20
3556.000000
0
VERTEX
8
0
10
2209.800000
20
3505.200000
0
VERTEX
8
0
10
2209.800000
20
3454.400000
0
VERTEX
8
0
10
2089.045902
20
3322.195082
0
VERTEX
8
0
10
2011.680000
20
3197.860000
0
VERTEX
8
0
10
1965.569231
20
3096.846154
0
VERTEX
8
0
10
1930.400000
20
2870.200000
0
VERTEX
8
0
10
2006.600000
20
2692.400000
0
VERTEX
8
0
10
2078.892308
20
2635.738462
0
VERTEX
8
0
10
2137.507692
20
2596.661538
0
VERTEX
8
0
10
2209.800000
20
2565.400000
0
VERTEX
8
0
10
2235.200000
20
2590.800000
0
SEQEND
0
POLYLINE
8
0
6
CONTINUOUS
66
1
62
250
10
0.0
20
0.0
30
0.000000
0
VERTEX
8
0
10
7086.600000
20
2565.400000
0
VERTEX
8
0
10
6985.000000
20
2717.800000
0
SEQEND
0
POLYLINE
8
0
6
CONTINUOUS
66
1
62
251
10
0.0
20
0.0
30
0.000000
0
VERTEX
8
0
10
7010.400000
20
2743.200000
0
VERTEX
8
0
10
7262.446154
20
2708.030769
0
VERTEX
8
0
10
7515.860000
20
2585.720000
0
VERTEX
8
0
10
7569.200000
20
2590.800000
0
SEQEND
0
POLYLINE
8
0
6
CONTINUOUS
66
1
62
250
10
0.0
20
0.0
30
0.000000
0
VERTEX
8
0
10
7594.600000
20
2565.400000
0
VERTEX
8
0
10
7594.600000
20
2590.800000
0
SEQEND
0
POLYLINE
8
0
6
CONTINUOUS
66
1
62
250
10
0.0
20
0.0
30
0.000000
0
VERTEX
8
0
10
2260.600000
20
2590.800000
0
VERTEX
8
0
10
2311.400000
20
2540.000000
0
VERTEX
8
0
10
2438.400000
20
2590.800000
0
SEQEND
0
POLYLINE
8
0
6
CONTINUOUS
66
1
62
251
10
0.0
20
0.0
30
0.000000
0
VERTEX
8
0
10
4267.200000
20
2540.000000
0
VERTEX
8
0
10
4400.061538
20
2713.892308
0
VERTEX
8
0
10
4538.980000
20
2974.340000
0
VERTEX
8
0
10
4606.364706
20
3198.158824
0
VERTEX
8
0
10
4662.149180
20
3455.440984
0
VERTEX
8
0
10
4685.050820
20
3707.359016
0
VERTEX
8
0
10
4733.364706
20
3985.558824
0
VERTEX
8
0
10
4845.538462
20
4245.707692
0
VERTEX
8
0
10
4896.338462
20
4321.907692
0
VERTEX
8
0
10
5080.000000
20
4521.200000
0
VERTEX
8
0
10
5130.800000
20
4546.600000
0
SEQEND
0
POLYLINE
8
0
6
CONTINUOUS
66
1
62
251
10
0.0
20
0.0
30
0.000000
0
VERTEX
8
0
10
5918.200000
20
2540.000000
0
VERTEX
8
0
10
5797.445902
20
2672.204918
0
VERTEX
8
0
10
5715.000000
20
2895.600000
0
SEQEND
0
POLYLINE
8
0
6
CONTINUOUS
66
1
62
251
10
0.0
20
0.0
30
0.000000
0
VERTEX
8
0
10
5943.600000
20
2540.000000
0
VERTEX
8
0
10
5918.200000
20
2540.000000
0
SEQEND
0
POLYLINE
8
0
6
CONTINUOUS
66
1
62
253
10
0.0
20
0.0
30
0.000000
0
VERTEX
8
0
10
7061.200000
20
2540.000000
0
VERTEX
8
0
10
7086.600000
20
2565.400000
0
SEQEND
0
POLYLINE
8
0
6
CONTINUOUS
66
1
62
251
10
0.0
20
0.0
30
0.000000
0
VERTEX
8
0
10
7137.400000
20
2540.000000
0
VERTEX
8
0
10
7086.600000
20
2565.400000
0
SEQEND
0
POLYLINE
8
0
6
CONTINUOUS
66
1
62
251
10
0.0
20
0.0
30
0.000000
0
VERTEX
8
0
10
8255.000000
20
2540.000000
0
VERTEX
8
0
10
8153.400000
20
2667.000000
0
VERTEX
8
0
10
8102.600000
20
2641.600000
0
VERTEX
8
0
10
8077.200000
20
2540.000000
0
SEQEND
0
POLYLINE
8
0
6
CONTINUOUS
66
1
62
251
10
0.0
20
0.0
30
0.000000
0
VERTEX
8
0
10
8255.000000
20
2540.000000
0
VERTEX
8
0
10
8407.400000
20
2743.200000
0
SEQEND
0
POLYLINE
8
0
6
CONTINUOUS
66
1
62
251
10
0.0
20
0.0
30
0.000000
0
VERTEX
8
0
10
5918.200000
20
2514.600000
0
VERTEX
8
0
10
5918.200000
20
2540.000000
0
SEQEND
0
POLYLINE
8
0
6
CONTINUOUS
66
1
62
251
10
0.0
20
0.0
30
0.000000
0
VERTEX
8
0
10
6553.200000
20
2514.600000
0
VERTEX
8
0
10
6527.800000
20
2514.600000
0
SEQEND
0
POLYLINE
8
0
6
CONTINUOUS
66
1
62
250
10
0.0
20
0.0
30
0.000000
0
VERTEX
8
0
10
6578.600000
20
2514.600000
0
VERTEX
8
0
10
6553.200000
20
2514.600000
0
SEQEND
0
POLYLINE
8
0
6
CONTINUOUS
66
1
62
250
10
0.0
20
0.0
30
0.000000
0
VERTEX
8
0
10
6578.600000
20
2514.600000
0
VERTEX
8
0
10
6626.860000
20
2522.220000
0
VERTEX
8
0
10
6880.860000
20
2646.680000
0
VERTEX
8
0
10
6908.800000
20
2667.000000
0
SEQEND
0
POLYLINE
8
0
6
CONTINUOUS
66
1
62
7
10
0.0
20
0.0
30
0.000000
0
VERTEX
8
0
10
7061.200000
20
2514.600000
0
VERTEX
8
0
10
7035.800000
20
2514.600000
0
SEQEND
0
POLYLINE
8
0
6
CONTINUOUS
66
1
62
252
10
0.0
20
0.0
30
0.000000
0
VERTEX
8
0
10
7061.200000
20
2514.600000
0
VERTEX
8
0
10
7061.200000
20
2540.000000
0
SEQEND
0
POLYLINE
8
0
6
CONTINUOUS
66
1
62
7
10
0.0
20
0.0
30
0.000000
0
VERTEX
8
0
10
7086.600000
20
2514.600000
0
VERTEX
8
0
10
7061.200000
20
2514.600000
0
SEQEND
0
POLYLINE
8
0
6
CONTINUOUS
66
1
62
7
10
0.0
20
0.0
30
0.000000
0
VERTEX
8
0
10
7112.000000
20
2514.600000
0
VERTEX
8
0
10
7086.600000
20
2514.600000
0
SEQEND
0
POLYLINE
8
0
6
CONTINUOUS
66
1
62
7
10
0.0
20
0.0
30
0.000000
0
VERTEX
8
0
10
7137.400000
20
2514.600000
0
VERTEX
8
0
10
7112.000000
20
2514.600000
0
SEQEND
0
POLYLINE
8
0
6
CONTINUOUS
66
1
62
7
10
0.0
20
0.0
30
0.000000
0
VERTEX
8
0
10
7137.400000
20
2514.600000
0
VERTEX
8
0
10
7137.400000
20
2540.000000
0
SEQEND
0
POLYLINE
8
0
6
CONTINUOUS
66
1
62
7
10
0.0
20
0.0
30
0.000000
0
VERTEX
8
0
10
7162.800000
20
2514.600000
0
VERTEX
8
0
10
7137.400000
20
2514.600000
0
SEQEND
0
POLYLINE
8
0
6
CONTINUOUS
66
1
62
250
10
0.0
20
0.0
30
0.000000
0
VERTEX
8
0
10
8051.800000
20
2514.600000
0
VERTEX
8
0
10
7894.320000
20
2631.440000
0
VERTEX
8
0
10
7649.307692
20
2723.661538
0
VERTEX
8
0
10
7594.600000
20
2768.600000
0
VERTEX
8
0
10
7569.200000
20
2743.200000
0
VERTEX
8
0
10
7569.200000
20
2641.600000
0
VERTEX
8
0
10
7594.600000
20
2616.200000
0
SEQEND
0
POLYLINE
8
0
6
CONTINUOUS
66
1
62
7
10
0.0
20
0.0
30
0.000000
0
VERTEX
8
0
10
8077.200000
20
2514.600000
0
VERTEX
8
0
10
8051.800000
20
2514.600000
0
SEQEND
0
POLYLINE
8
0
6
CONTINUOUS
66
1
62
7
10
0.0
20
0.0
30
0.000000
0
VERTEX
8
0
10
8077.200000
20
2514.600000
0
VERTEX
8
0
10
8077.200000
20
2540.000000
0
SEQEND
0
POLYLINE
8
0
6
CONTINUOUS
66
1
62
250
10
0.0
20
0.0
30
0.000000
0
VERTEX
8
0
10
3505.200000
20
2489.200000
0
VERTEX
8
0
10
3378.200000
20
2590.800000
0
VERTEX
8
0
10
3246.120000
20
2766.060000
0
VERTEX
8
0
10
3225.800000
20
2794.000000
0
SEQEND
0
POLYLINE
8
0
6
CONTINUOUS
66
1
62
252
10
0.0
20
0.0
30
0.000000
0
VERTEX
8
0
10
6096.000000
20
2489.200000
0
VERTEX
8
0
10
5943.600000
20
2540.000000
0
SEQEND
0
POLYLINE
8
0
6
CONTINUOUS
66
1
62
252
10
0.0
20
0.0
30
0.000000
0
VERTEX
8
0
10
6121.400000
20
2489.200000
0
VERTEX
8
0
10
6096.000000
20
2489.200000
0
SEQEND
0
POLYLINE
8
0
6
CONTINUOUS
66
1
62
250
10
0.0
20
0.0
30
0.000000
0
VERTEX
8
0
10
6146.800000
20
2489.200000
0
VERTEX
8
0
10
6121.400000
20
2489.200000
0
SEQEND
0
POLYLINE
8
0
6
CONTINUOUS
66
1
62
251
10
0.0
20
0.0
30
0.000000
0
VERTEX
8
0
10
6146.800000
20
2489.200000
0
VERTEX
8
0
10
6527.800000
20
2514.600000
0
SEQEND
0
POLYLINE
8
0
6
CONTINUOUS
66
1
62
250
10
0.0
20
0.0
30
0.000000
0
VERTEX
8
0
10
6553.200000
20
2489.200000
0
VERTEX
8
0
10
6553.200000
20
2514.600000
0
SEQEND
0
POLYLINE
8
0
6
CONTINUOUS
66
1
62
7
10
0.0
20
0.0
30
0.000000
0
VERTEX
8
0
10
7696.200000
20
2489.200000
0
VERTEX
8
0
10
7594.600000
20
2565.400000
0
SEQEND
0
POLYLINE
8
0
6
CONTINUOUS
66
1
62
7
10
0.0
20
0.0
30
0.000000
0
VERTEX
8
0
10
8077.200000
20
2489.200000
0
VERTEX
8
0
10
8077.200000
20
2514.600000
0
SEQEND
0
POLYLINE
8
0
6
CONTINUOUS
66
1
62
253
10
0.0
20
0.0
30
0.000000
0
VERTEX
8
0
10
3505.200000
20
2463.800000
0
VERTEX
8
0
10
3505.200000
20
2489.200000
0
SEQEND
0
POLYLINE
8
0
6
CONTINUOUS
66
1
62
251
10
0.0
20
0.0
30
0.000000
0
VERTEX
8
0
10
3530.600000
20
2463.800000
0
VERTEX
8
0
10
3505.200000
20
2463.800000
0
SEQEND
0
POLYLINE
8
0
6
CONTINUOUS
66
1
62
251
10
0.0
20
0.0
30
0.000000
0
VERTEX
8
0
10
3606.800000
20
2463.800000
0
VERTEX
8
0
10
3530.600000
20
2463.800000
0
SEQEND
0
POLYLINE
8
0
6
CONTINUOUS
66
1
62
250
10
0.0
20
0.0
30
0.000000
0
VERTEX
8
0
10
6121.400000
20
2463.800000
0
VERTEX
8
0
10
6121.400000
20
2489.200000
0
SEQEND
0
POLYLINE
8
0
6
CONTINUOUS
66
1
62
250
10
0.0
20
0.0
30
0.000000
0
VERTEX
8
0
10
7239.000000
20
2463.800000
0
VERTEX
8
0
10
7213.600000
20
2463.800000
0
VERTEX
8
0
10
7162.800000
20
2514.600000
0
SEQEND
0
POLYLINE
8
0
6
CONTINUOUS
66
1
62
250
10
0.0
20
0.0
30
0.000000
0
VERTEX
8
0
10
5359.400000
20
2438.400000
0
VERTEX
8
0
10
5334.000000
20
2438.400000
0
SEQEND
0
POLYLINE
8
0
6
CONTINUOUS
66
1
62
250
10
0.0
20
0.0
30
0.000000
0
VERTEX
8
0
10
5359.400000
20
2438.400000
0
VERTEX
8
0
10
5511.800000
20
2540.000000
0
VERTEX
8
0
10
5631.180000
20
2745.740000
0
VERTEX
8
0
10
5689.600000
20
2895.600000
0
SEQEND
0
POLYLINE
8
0
6
CONTINUOUS
66
1
62
7
10
0.0
20
0.0
30
0.000000
0
VERTEX
8
0
10
8077.200000
20
2438.400000
0
VERTEX
8
0
10
8077.200000
20
2489.200000
0
SEQEND
0
POLYLINE
8
0
6
CONTINUOUS
66
1
62
250
10
0.0
20
0.0
30
0.000000
0
VERTEX
8
0
10
5257.800000
20
2413.000000
0
VERTEX
8
0
10
5308.600000
20
2413.000000
0
VERTEX
8
0
10
5334.000000
20
2438.400000
0
SEQEND
0
POLYLINE
8
0
6
CONTINUOUS
66
1
62
251
10
0.0
20
0.0
30
0.000000
0
VERTEX
8
0
10
5359.400000
20
2413.000000
0
VERTEX
8
0
10
5359.400000
20
2438.400000
0
SEQEND
0
POLYLINE
8
0
6
CONTINUOUS
66
1
62
250
10
0.0
20
0.0
30
0.000000
0
VERTEX
8
0
10
6680.200000
20
2413.000000
0
VERTEX
8
0
10
7035.800000
20
2514.600000
0
SEQEND
0
POLYLINE
8
0
6
CONTINUOUS
66
1
62
251
10
0.0
20
0.0
30
0.000000
0
VERTEX
8
0
10
3378.200000
20
2387.600000
0
VERTEX
8
0
10
3505.200000
20
2463.800000
0
SEQEND
0
POLYLINE
8
0
6
CONTINUOUS
66
1
62
7
10
0.0
20
0.0
30
0.000000
0
VERTEX
8
0
10
3733.800000
20
3403.600000
0
VERTEX
8
0
10
3827.780000
20
2842.260000
0
VERTEX
8
0
10
3886.200000
20
2692.400000
0
VERTEX
8
0
10
4089.400000
20
2489.200000
0
VERTEX
8
0
10
4445.000000
20
2387.600000
0
VERTEX
8
0
10
4495.800000
20
2387.600000
0
VERTEX
8
0
10
4796.692308
20
2545.861538
0
VERTEX
8
0
10
5186.556098
20
2838.604878
0
VERTEX
8
0
10
5387.340000
20
2964.180000
0
VERTEX
8
0
10
5638.800000
20
3048.000000
0
SEQEND
0
POLYLINE
8
0
6
CONTINUOUS
66
1
62
250
10
0.0
20
0.0
30
0.000000
0
VERTEX
8
0
10
6654.800000
20
2387.600000
0
VERTEX
8
0
10
6654.800000
20
2413.000000
0
VERTEX
8
0
10
6680.200000
20
2413.000000
0
SEQEND
0
POLYLINE
8
0
6
CONTINUOUS
66
1
62
251
10
0.0
20
0.0
30
0.000000
0
VERTEX
8
0
10
3378.200000
20
2362.200000
0
VERTEX
8
0
10
3352.800000
20
2362.200000
0
SEQEND
0
POLYLINE
8
0
6
CONTINUOUS
66
1
62
252
10
0.0
20
0.0
30
0.000000
0
VERTEX
8
0
10
3378.200000
20
2362.200000
0
VERTEX
8
0
10
3378.200000
20
2387.600000
0
SEQEND
0
POLYLINE
8
0
6
CONTINUOUS
66
1
62
251
10
0.0
20
0.0
30
0.000000
0
VERTEX
8
0
10
8280.400000
20
2362.200000
0
VERTEX
8
0
10
8255.000000
20
2540.000000
0
SEQEND
0
POLYLINE
8
0
6
CONTINUOUS
66
1
62
251
10
0.0
20
0.0
30
0.000000
0
VERTEX
8
0
10
3378.200000
20
2336.800000
0
VERTEX
8
0
10
3378.200000
20
2362.200000
0
SEQEND
0
POLYLINE
8
0
6
CONTINUOUS
66
1
62
252
10
0.0
20
0.0
30
0.000000
0
VERTEX
8
0
10
8280.400000
20
2336.800000
0
VERTEX
8
0
10
8280.400000
20
2362.200000
0
SEQEND
0
POLYLINE
8
0
6
CONTINUOUS
66
1
62
252
10
0.0
20
0.0
30
0.000000
0
VERTEX
8
0
10
8305.800000
20
2336.800000
0
VERTEX
8
0
10
8280.400000
20
2336.800000
0
SEQEND
0
POLYLINE
8
0
6
CONTINUOUS
66
1
62
7
10
0.0
20
0.0
30
0.000000
0
VERTEX
8
0
10
6705.600000
20
2311.400000
0
VERTEX
8
0
10
6654.800000
20
2362.200000
0
VERTEX
8
0
10
6654.800000
20
2387.600000
0
SEQEND
0
POLYLINE
8
0
6
CONTINUOUS
66
1
62
250
10
0.0
20
0.0
30
0.000000
0
VERTEX
8
0
10
6705.600000
20
2286.000000
0
VERTEX
8
0
10
6680.200000
20
2286.000000
0
SEQEND
0
POLYLINE
8
0
6
CONTINUOUS
66
1
62
250
10
0.0
20
0.0
30
0.000000
0
VERTEX
8
0
10
6705.600000
20
2286.000000
0
VERTEX
8
0
10
6705.600000
20
2311.400000
0
SEQEND
0
POLYLINE
8
0
6
CONTINUOUS
66
1
62
250
10
0.0
20
0.0
30
0.000000
0
VERTEX
8
0
10
6731.000000
20
2286.000000
0
VERTEX
8
0
10
6705.600000
20
2286.000000
0
SEQEND
0
POLYLINE
8
0
6
CONTINUOUS
66
1
62
250
10
0.0
20
0.0
30
0.000000
0
VERTEX
8
0
10
8864.600000
20
2235.200000
0
VERTEX
8
0
10
8833.338462
20
2282.092308
0
VERTEX
8
0
10
8771.964706
20
2415.241176
0
VERTEX
8
0
10
8737.600000
20
2590.800000
0
SEQEND
0
POLYLINE
8
0
6
CONTINUOUS
66
1
62
7
10
0.0
20
0.0
30
0.000000
0
VERTEX
8
0
10
4013.200000
20
2209.800000
0
VERTEX
8
0
10
3987.800000
20
2209.800000
0
SEQEND
0
POLYLINE
8
0
6
CONTINUOUS
66
1
62
250
10
0.0
20
0.0
30
0.000000
0
VERTEX
8
0
10
4038.600000
20
2209.800000
0
VERTEX
8
0
10
4013.200000
20
2209.800000
0
SEQEND
0
POLYLINE
8
0
6
CONTINUOUS
66
1
62
251
10
0.0
20
0.0
30
0.000000
0
VERTEX
8
0
10
2489.200000
20
2184.400000
0
VERTEX
8
0
10
2463.800000
20
2184.400000
0
SEQEND
0
POLYLINE
8
0
6
CONTINUOUS
66
1
62
250
10
0.0
20
0.0
30
0.000000
0
VERTEX
8
0
10
2489.200000
20
2184.400000
0
VERTEX
8
0
10
2670.907692
20
2280.138462
0
VERTEX
8
0
10
2895.600000
20
2413.000000
0
VERTEX
8
0
10
3124.200000
20
2641.600000
0
VERTEX
8
0
10
3200.400000
20
2794.000000
0
SEQEND
0
POLYLINE
8
0
6
CONTINUOUS
66
1
62
7
10
0.0
20
0.0
30
0.000000
0
VERTEX
8
0
10
4013.200000
20
2184.400000
0
VERTEX
8
0
10
4013.200000
20
2209.800000
0
SEQEND
0
POLYLINE
8
0
6
CONTINUOUS
66
1
62
251
10
0.0
20
0.0
30
0.000000
0
VERTEX
8
0
10
6858.000000
20
2184.400000
0
VERTEX
8
0
10
6731.000000
20
2286.000000
0
SEQEND
0
POLYLINE
8
0
6
CONTINUOUS
66
1
62
252
10
0.0
20
0.0
30
0.000000
0
VERTEX
8
0
10
6883.400000
20
2184.400000
0
VERTEX
8
0
10
6858.000000
20
2184.400000
0
SEQEND
0
POLYLINE
8
0
6
CONTINUOUS
66
1
62
254
10
0.0
20
0.0
30
0.000000
0
VERTEX
8
0
10
2489.200000
20
2159.000000
0
VERTEX
8
0
10
2489.200000
20
2184.400000
0
SEQEND
0
POLYLINE
8
0
6
CONTINUOUS
66
1
62
250
10
0.0
20
0.0
30
0.000000
0
VERTEX
8
0
10
3784.600000
20
2159.000000
0
VERTEX
8
0
10
3736.340000
20
2166.620000
0
VERTEX
8
0
10
3484.756098
20
2241.395122
0
VERTEX
8
0
10
3378.200000
20
2336.800000
0
SEQEND
0
POLYLINE
8
0
6
CONTINUOUS
66
1
62
251
10
0.0
20
0.0
30
0.000000
0
VERTEX
8
0
10
3810.000000
20
2159.000000
0
VERTEX
8
0
10
3784.600000
20
2159.000000
0
SEQEND
0
POLYLINE
8
0
6
CONTINUOUS
66
1
62
250
10
0.0
20
0.0
30
0.000000
0
VERTEX
8
0
10
3810.000000
20
2159.000000
0
VERTEX
8
0
10
3987.800000
20
2209.800000
0
SEQEND
0
POLYLINE
8
0
6
CONTINUOUS
66
1
62
252
10
0.0
20
0.0
30
0.000000
0
VERTEX
8
0
10
6858.000000
20
2159.000000
0
VERTEX
8
0
10
6858.000000
20
2184.400000
0
SEQEND
0
POLYLINE
8
0
6
CONTINUOUS
66
1
62
250
10
0.0
20
0.0
30
0.000000
0
VERTEX
8
0
10
6959.600000
20
2159.000000
0
VERTEX
8
0
10
6908.800000
20
2159.000000
0
VERTEX
8
0
10
6883.400000
20
2184.400000
0
SEQEND
0
POLYLINE
8
0
6
CONTINUOUS
66
1
62
250
10
0.0
20
0.0
30
0.000000
0
VERTEX
8
0
10
2260.600000
20
2133.600000
0
VERTEX
8
0
10
2059.353846
20
2168.769231
0
VERTEX
8
0
10
1934.972000
20
2215.896000
0
VERTEX
8
0
10
1828.800000
20
2286.000000
0
VERTEX
8
0
10
1746.504000
20
2383.028000
0
VERTEX
8
0
10
1682.496000
20
2468.372000
0
VERTEX
8
0
10
1583.764706
20
2694.641176
0
VERTEX
8
0
10
1565.835294
20
2766.358824
0
VERTEX
8
0
10
1549.400000
20
2794.000000
0
VERTEX
8
0
10
1549.400000
20
3098.800000
0
VERTEX
8
0
10
1656.861538
20
3399.692308
0
VERTEX
8
0
10
1803.400000
20
3581.400000
0
SEQEND
0
POLYLINE
8
0
6
CONTINUOUS
66
1
62
251
10
0.0
20
0.0
30
0.000000
0
VERTEX
8
0
10
2286.000000
20
2133.600000
0
VERTEX
8
0
10
2260.600000
20
2133.600000
0
SEQEND
0
POLYLINE
8
0
6
CONTINUOUS
66
1
62
250
10
0.0
20
0.0
30
0.000000
0
VERTEX
8
0
10
2286.000000
20
2133.600000
0
VERTEX
8
0
10
2463.800000
20
2184.400000
0
SEQEND
0
POLYLINE
8
0
6
CONTINUOUS
66
1
62
252
10
0.0
20
0.0
30
0.000000
0
VERTEX
8
0
10
3810.000000
20
2133.600000
0
VERTEX
8
0
10
3810.000000
20
2159.000000
0
SEQEND
0
POLYLINE
8
0
6
CONTINUOUS
66
1
62
251
10
0.0
20
0.0
30
0.000000
0
VERTEX
8
0
10
5994.400000
20
2133.600000
0
VERTEX
8
0
10
6121.400000
20
2463.800000
0
SEQEND
0
POLYLINE
8
0
6
CONTINUOUS
66
1
62
250
10
0.0
20
0.0
30
0.000000
0
VERTEX
8
0
10
8509.000000
20
2133.600000
0
VERTEX
8
0
10
8458.200000
20
2159.000000
0
VERTEX
8
0
10
8326.120000
20
2308.860000
0
VERTEX
8
0
10
8305.800000
20
2336.800000
0
SEQEND
0
POLYLINE
8
0
6
CONTINUOUS
66
1
62
252
10
0.0
20
0.0
30
0.000000
0
VERTEX
8
0
10
2286.000000
20
2108.200000
0
VERTEX
8
0
10
2286.000000
20
2133.600000
0
SEQEND
0
POLYLINE
8
0
6
CONTINUOUS
66
1
62
250
10
0.0
20
0.0
30
0.000000
0
VERTEX
8
0
10
5994.400000
20
2108.200000
0
VERTEX
8
0
10
5969.000000
20
2108.200000
0
SEQEND
0
POLYLINE
8
0
6
CONTINUOUS
66
1
62
252
10
0.0
20
0.0
30
0.000000
0
VERTEX
8
0
10
5994.400000
20
2108.200000
0
VERTEX
8
0
10
5994.400000
20
2133.600000
0
SEQEND
0
POLYLINE
8
0
6
CONTINUOUS
66
1
62
250
10
0.0
20
0.0
30
0.000000
0
VERTEX
8
0
10
6019.800000
20
2108.200000
0
VERTEX
8
0
10
5994.400000
20
2108.200000
0
SEQEND
0
POLYLINE
8
0
6
CONTINUOUS
66
1
62
250
10
0.0
20
0.0
30
0.000000
0
VERTEX
8
0
10
6019.800000
20
2108.200000
0
VERTEX
8
0
10
6553.200000
20
2489.200000
0
SEQEND
0
POLYLINE
8
0
6
CONTINUOUS
66
1
62
251
10
0.0
20
0.0
30
0.000000
0
VERTEX
8
0
10
8509.000000
20
2108.200000
0
VERTEX
8
0
10
8509.000000
20
2133.600000
0
SEQEND
0
POLYLINE
8
0
6
CONTINUOUS
66
1
62
252
10
0.0
20
0.0
30
0.000000
0
VERTEX
8
0
10
8534.400000
20
2108.200000
0
VERTEX
8
0
10
8509.000000
20
2108.200000
0
SEQEND
0
POLYLINE
8
0
6
CONTINUOUS
66
1
62
251
10
0.0
20
0.0
30
0.000000
0
VERTEX
8
0
10
4572.000000
20
2057.400000
0
VERTEX
8
0
10
4371.340000
20
2217.420000
0
VERTEX
8
0
10
4343.400000
20
2235.200000
0
VERTEX
8
0
10
4089.400000
20
2235.200000
0
VERTEX
8
0
10
4038.600000
20
2209.800000
0
SEQEND
0
POLYLINE
8
0
6
CONTINUOUS
66
1
62
251
10
0.0
20
0.0
30
0.000000
0
VERTEX
8
0
10
9194.800000
20
2057.400000
0
VERTEX
8
0
10
8890.000000
20
2247.900000
0
VERTEX
8
0
10
8864.600000
20
2235.200000
0
SEQEND
0
POLYLINE
8
0
6
CONTINUOUS
66
1
62
7
10
0.0
20
0.0
30
0.000000
0
VERTEX
8
0
10
4572.000000
20
2032.000000
0
VERTEX
8
0
10
4572.000000
20
2057.400000
0
SEQEND
0
POLYLINE
8
0
6
CONTINUOUS
66
1
62
7
10
0.0
20
0.0
30
0.000000
0
VERTEX
8
0
10
4597.400000
20
2032.000000
0
VERTEX
8
0
10
4572.000000
20
2032.000000
0
SEQEND
0
POLYLINE
8
0
6
CONTINUOUS
66
1
62
251
10
0.0
20
0.0
30
0.000000
0
VERTEX
8
0
10
8178.800000
20
2032.000000
0
VERTEX
8
0
10
8280.400000
20
2336.800000
0
SEQEND
0
POLYLINE
8
0
6
CONTINUOUS
66
1
62
250
10
0.0
20
0.0
30
0.000000
0
VERTEX
8
0
10
9194.800000
20
2032.000000
0
VERTEX
8
0
10
9194.800000
20
2057.400000
0
SEQEND
0
POLYLINE
8
0
6
CONTINUOUS
66
1
62
250
10
0.0
20
0.0
30
0.000000
0
VERTEX
8
0
10
9220.200000
20
2032.000000
0
VERTEX
8
0
10
9194.800000
20
2032.000000
0
SEQEND
0
POLYLINE
8
0
6
CONTINUOUS
66
1
62
251
10
0.0
20
0.0
30
0.000000
0
VERTEX
8
0
10
9550.400000
20
2032.000000
0
VERTEX
8
0
10
9164.195082
20
2355.954098
0
VERTEX
8
0
10
8862.060000
20
2560.320000
0
VERTEX
8
0
10
8763.000000
20
2616.200000
0
SEQEND
0
POLYLINE
8
0
6
CONTINUOUS
66
1
62
7
10
0.0
20
0.0
30
0.000000
0
VERTEX
8
0
10
9575.800000
20
2032.000000
0
VERTEX
8
0
10
9550.400000
20
2032.000000
0
SEQEND
0
POLYLINE
8
0
6
CONTINUOUS
66
1
62
251
10
0.0
20
0.0
30
0.000000
0
VERTEX
8
0
10
4038.600000
20
2006.600000
0
VERTEX
8
0
10
4051.300000
20
2032.000000
0
VERTEX
8
0
10
4013.200000
20
2184.400000
0
SEQEND
0
POLYLINE
8
0
6
CONTINUOUS
66
1
62
7
10
0.0
20
0.0
30
0.000000
0
VERTEX
8
0
10
4572.000000
20
2006.600000
0
VERTEX
8
0
10
4572.000000
20
2032.000000
0
SEQEND
0
POLYLINE
8
0
6
CONTINUOUS
66
1
62
250
10
0.0
20
0.0
30
0.000000
0
VERTEX
8
0
10
8178.800000
20
2006.600000
0
VERTEX
8
0
10
8178.800000
20
2032.000000
0
SEQEND
0
POLYLINE
8
0
6
CONTINUOUS
66
1
62
250
10
0.0
20
0.0
30
0.000000
0
VERTEX
8
0
10
8204.200000
20
2006.600000
0
VERTEX
8
0
10
8178.800000
20
2006.600000
0
SEQEND
0
POLYLINE
8
0
6
CONTINUOUS
66
1
62
251
10
0.0
20
0.0
30
0.000000
0
VERTEX
8
0
10
8204.200000
20
2006.600000
0
VERTEX
8
0
10
8258.907692
20
2051.538462
0
VERTEX
8
0
10
8509.000000
20
2108.200000
0
SEQEND
0
POLYLINE
8
0
6
CONTINUOUS
66
1
62
250
10
0.0
20
0.0
30
0.000000
0
VERTEX
8
0
10
9575.800000
20
2006.600000
0
VERTEX
8
0
10
9575.800000
20
2032.000000
0
SEQEND
0
POLYLINE
8
0
6
CONTINUOUS
66
1
62
250
10
0.0
20
0.0
30
0.000000
0
VERTEX
8
0
10
4013.200000
20
1981.200000
0
VERTEX
8
0
10
3810.000000
20
2133.600000
0
SEQEND
0
POLYLINE
8
0
6
CONTINUOUS
66
1
62
250
10
0.0
20
0.0
30
0.000000
0
VERTEX
8
0
10
4038.600000
20
1981.200000
0
VERTEX
8
0
10
4013.200000
20
1981.200000
0
SEQEND
0
POLYLINE
8
0
6
CONTINUOUS
66
1
62
253
10
0.0
20
0.0
30
0.000000
0
VERTEX
8
0
10
4038.600000
20
1981.200000
0
VERTEX
8
0
10
4038.600000
20
2006.600000
0
SEQEND
0
POLYLINE
8
0
6
CONTINUOUS
66
1
62
250
10
0.0
20
0.0
30
0.000000
0
VERTEX
8
0
10
5029.200000
20
1981.200000
0
VERTEX
8
0
10
5257.800000
20
2006.600000
0
VERTEX
8
0
10
5283.200000
20
2032.000000
0
VERTEX
8
0
10
5257.800000
20
2082.800000
0
VERTEX
8
0
10
5232.400000
20
2082.800000
0
VERTEX
8
0
10
5181.600000
20
2133.600000
0
VERTEX
8
0
10
5207.000000
20
2159.000000
0
VERTEX
8
0
10
5361.940000
20
2202.180000
0
VERTEX
8
0
10
5488.940000
20
2255.520000
0
VERTEX
8
0
10
5588.000000
20
2336.800000
0
VERTEX
8
0
10
5537.200000
20
2387.600000
0
VERTEX
8
0
10
5359.400000
20
2413.000000
0
SEQEND
0
POLYLINE
8
0
6
CONTINUOUS
66
1
62
250
10
0.0
20
0.0
30
0.000000
0
VERTEX
8
0
10
5003.800000
20
1955.800000
0
VERTEX
8
0
10
5003.800000
20
1981.200000
0
VERTEX
8
0
10
5029.200000
20
1981.200000
0
SEQEND
0
POLYLINE
8
0
6
CONTINUOUS
66
1
62
250
10
0.0
20
0.0
30
0.000000
0
VERTEX
8
0
10
9321.800000
20
1955.800000
0
VERTEX
8
0
10
9245.600000
20
2032.000000
0
VERTEX
8
0
10
9220.200000
20
2032.000000
0
SEQEND
0
POLYLINE
8
0
6
CONTINUOUS
66
1
62
251
10
0.0
20
0.0
30
0.000000
0
VERTEX
8
0
10
9347.200000
20
1955.800000
0
VERTEX
8
0
10
9321.800000
20
1955.800000
0
SEQEND
0
POLYLINE
8
0
6
CONTINUOUS
66
1
62
252
10
0.0
20
0.0
30
0.000000
0
VERTEX
8
0
10
9321.800000
20
1930.400000
0
VERTEX
8
0
10
9321.800000
20
1955.800000
0
SEQEND
0
POLYLINE
8
0
6
CONTINUOUS
66
1
62
252
10
0.0
20
0.0
30
0.000000
0
VERTEX
8
0
10
2540.000000
20
1905.000000
0
VERTEX
8
0
10
2499.868000
20
2008.124000
0
VERTEX
8
0
10
2489.200000
20
2159.000000
0
SEQEND
0
POLYLINE
8
0
6
CONTINUOUS
66
1
62
251
10
0.0
20
0.0
30
0.000000
0
VERTEX
8
0
10
2565.400000
20
1905.000000
0
VERTEX
8
0
10
2540.000000
20
1905.000000
0
SEQEND
0
POLYLINE
8
0
6
CONTINUOUS
66
1
62
250
10
0.0
20
0.0
30
0.000000
0
VERTEX
8
0
10
2565.400000
20
1905.000000
0
VERTEX
8
0
10
2819.400000
20
2235.200000
0
VERTEX
8
0
10
3024.553846
20
2327.030769
0
VERTEX
8
0
10
3149.600000
20
2362.200000
0
VERTEX
8
0
10
3251.200000
20
2362.200000
0
VERTEX
8
0
10
3276.600000
20
2336.800000
0
VERTEX
8
0
10
3327.400000
20
2336.800000
0
VERTEX
8
0
10
3352.800000
20
2362.200000
0
SEQEND
0
POLYLINE
8
0
6
CONTINUOUS
66
1
62
251
10
0.0
20
0.0
30
0.000000
0
VERTEX
8
0
10
3098.800000
20
1905.000000
0
VERTEX
8
0
10
3073.400000
20
1905.000000
0
SEQEND
0
POLYLINE
8
0
6
CONTINUOUS
66
1
62
250
10
0.0
20
0.0
30
0.000000
0
VERTEX
8
0
10
3225.800000
20
1905.000000
0
VERTEX
8
0
10
3098.800000
20
1905.000000
0
SEQEND
0
POLYLINE
8
0
6
CONTINUOUS
66
1
62
251
10
0.0
20
0.0
30
0.000000
0
VERTEX
8
0
10
3251.200000
20
1905.000000
0
VERTEX
8
0
10
3225.800000
20
1905.000000
0
SEQEND
0
POLYLINE
8
0
6
CONTINUOUS
66
1
62
250
10
0.0
20
0.0
30
0.000000
0
VERTEX
8
0
10
3276.600000
20
1905.000000
0
VERTEX
8
0
10
3251.200000
20
1905.000000
0
SEQEND
0
POLYLINE
8
0
6
CONTINUOUS
66
1
62
250
10
0.0
20
0.0
30
0.000000
0
VERTEX
8
0
10
5029.200000
20
1905.000000
0
VERTEX
8
0
10
5003.800000
20
1955.800000
0
SEQEND
0
POLYLINE
8
0
6
CONTINUOUS
66
1
62
250
10
0.0
20
0.0
30
0.000000
0
VERTEX
8
0
10
6680.200000
20
1905.000000
0
VERTEX
8
0
10
6629.400000
20
1955.800000
0
VERTEX
8
0
10
6629.400000
20
2032.000000
0
VERTEX
8
0
10
6705.600000
20
2108.200000
0
VERTEX
8
0
10
6758.641176
20
2124.635294
0
VERTEX
8
0
10
6858.000000
20
2159.000000
0
SEQEND
0
POLYLINE
8
0
6
CONTINUOUS
66
1
62
251
10
0.0
20
0.0
30
0.000000
0
VERTEX
8
0
10
2540.000000
20
1879.600000
0
VERTEX
8
0
10
2540.000000
20
1905.000000
0
SEQEND
0
POLYLINE
8
0
6
CONTINUOUS
66
1
62
251
10
0.0
20
0.0
30
0.000000
0
VERTEX
8
0
10
3073.400000
20
1879.600000
0
VERTEX
8
0
10
3073.400000
20
1905.000000
0
SEQEND
0
POLYLINE
8
0
6
CONTINUOUS
66
1
62
250
10
0.0
20
0.0
30
0.000000
0
VERTEX
8
0
10
3251.200000
20
1879.600000
0
VERTEX
8
0
10
3251.200000
20
1905.000000
0
SEQEND
0
POLYLINE
8
0
6
CONTINUOUS
66
1
62
251
10
0.0
20
0.0
30
0.000000
0
VERTEX
8
0
10
5029.200000
20
1879.600000
0
VERTEX
8
0
10
5029.200000
20
1905.000000
0
SEQEND
0
POLYLINE
8
0
6
CONTINUOUS
66
1
62
251
10
0.0
20
0.0
30
0.000000
0
VERTEX
8
0
10
5054.600000
20
1879.600000
0
VERTEX
8
0
10
5029.200000
20
1879.600000
0
SEQEND
0
POLYLINE
8
0
6
CONTINUOUS
66
1
62
251
10
0.0
20
0.0
30
0.000000
0
VERTEX
8
0
10
5080.000000
20
1879.600000
0
VERTEX
8
0
10
5054.600000
20
1879.600000
0
SEQEND
0
POLYLINE
8
0
6
CONTINUOUS
66
1
62
251
10
0.0
20
0.0
30
0.000000
0
VERTEX
8
0
10
7010.400000
20
1879.600000
0
VERTEX
8
0
10
6680.200000
20
1905.000000
0
SEQEND
0
POLYLINE
8
0
6
CONTINUOUS
66
1
62
251
10
0.0
20
0.0
30
0.000000
0
VERTEX
8
0
10
4597.400000
20
2032.000000
0
VERTEX
8
0
10
4696.460000
20
1950.720000
0
VERTEX
8
0
10
4902.200000
20
1854.200000
0
VERTEX
8
0
10
5003.800000
20
1854.200000
0
VERTEX
8
0
10
5029.200000
20
1879.600000
0
SEQEND
0
POLYLINE
8
0
6
CONTINUOUS
66
1
62
250
10
0.0
20
0.0
30
0.000000
0
VERTEX
8
0
10
9042.400000
20
1803.400000
0
VERTEX
8
0
10
8864.600000
20
2235.200000
0
SEQEND
0
POLYLINE
8
0
6
CONTINUOUS
66
1
62
250
10
0.0
20
0.0
30
0.000000
0
VERTEX
8
0
10
9042.400000
20
1803.400000
0
VERTEX
8
0
10
9194.800000
20
2032.000000
0
SEQEND
0
POLYLINE
8
0
6
CONTINUOUS
66
1
62
251
10
0.0
20
0.0
30
0.000000
0
VERTEX
8
0
10
2336.800000
20
1752.600000
0
VERTEX
8
0
10
2286.000000
20
2108.200000
0
SEQEND
0
POLYLINE
8
0
6
CONTINUOUS
66
1
62
250
10
0.0
20
0.0
30
0.000000
0
VERTEX
8
0
10
7975.600000
20
1752.600000
0
VERTEX
8
0
10
7924.800000
20
1905.000000
0
VERTEX
8
0
10
7878.956098
20
1936.595122
0
VERTEX
8
0
10
7691.120000
20
2072.640000
0
VERTEX
8
0
10
7084.060000
20
2255.520000
0
VERTEX
8
0
10
6832.600000
20
2362.200000
0
SEQEND
0
POLYLINE
8
0
6
CONTINUOUS
66
1
62
250
10
0.0
20
0.0
30
0.000000
0
VERTEX
8
0
10
2336.800000
20
1727.200000
0
VERTEX
8
0
10
2311.400000
20
1727.200000
0
SEQEND
0
POLYLINE
8
0
6
CONTINUOUS
66
1
62
253
10
0.0
20
0.0
30
0.000000
0
VERTEX
8
0
10
2336.800000
20
1727.200000
0
VERTEX
8
0
10
2336.800000
20
1752.600000
0
SEQEND
0
POLYLINE
8
0
6
CONTINUOUS
66
1
62
250
10
0.0
20
0.0
30
0.000000
0
VERTEX
8
0
10
4572.000000
20
2006.600000
0
VERTEX
8
0
10
4589.780000
20
1927.860000
0
VERTEX
8
0
10
4597.400000
20
1879.600000
0
VERTEX
8
0
10
4721.860000
20
1772.920000
0
VERTEX
8
0
10
4826.000000
20
1727.200000
0
VERTEX
8
0
10
5105.400000
20
1727.200000
0
VERTEX
8
0
10
5306.358824
20
1786.964706
0
VERTEX
8
0
10
5336.540000
20
1798.320000
0
VERTEX
8
0
10
5537.200000
20
1905.000000
0
VERTEX
8
0
10
5689.600000
20
2057.400000
0
VERTEX
8
0
10
5734.538462
20
2137.507692
0
VERTEX
8
0
10
5746.261538
20
2155.092308
0
VERTEX
8
0
10
5859.780000
20
2364.740000
0
VERTEX
8
0
10
5918.200000
20
2514.600000
0
SEQEND
0
POLYLINE
8
0
6
CONTINUOUS
66
1
62
251
10
0.0
20
0.0
30
0.000000
0
VERTEX
8
0
10
5867.400000
20
1727.200000
0
VERTEX
8
0
10
6121.400000
20
2006.600000
0
SEQEND
0
POLYLINE
8
0
6
CONTINUOUS
66
1
62
250
10
0.0
20
0.0
30
0.000000
0
VERTEX
8
0
10
6121.400000
20
1727.200000
0
VERTEX
8
0
10
6242.538462
20
1934.307692
0
VERTEX
8
0
10
6477.000000
20
2184.400000
0
VERTEX
8
0
10
6680.200000
20
2286.000000
0
SEQEND
0
POLYLINE
8
0
6
CONTINUOUS
66
1
62
250
10
0.0
20
0.0
30
0.000000
0
VERTEX
8
0
10
9906.000000
20
1727.200000
0
VERTEX
8
0
10
9575.800000
20
2006.600000
0
SEQEND
0
POLYLINE
8
0
6
CONTINUOUS
66
1
62
250
10
0.0
20
0.0
30
0.000000
0
VERTEX
8
0
10
2641.600000
20
1701.800000
0
VERTEX
8
0
10
2743.200000
20
1828.800000
0
VERTEX
8
0
10
3022.600000
20
1930.400000
0
VERTEX
8
0
10
3073.400000
20
1905.000000
0
SEQEND
0
POLYLINE
8
0
6
CONTINUOUS
66
1
62
253
10
0.0
20
0.0
30
0.000000
0
VERTEX
8
0
10
5867.400000
20
1701.800000
0
VERTEX
8
0
10
5842.000000
20
1701.800000
0
SEQEND
0
POLYLINE
8
0
6
CONTINUOUS
66
1
62
254
10
0.0
20
0.0
30
0.000000
0
VERTEX
8
0
10
5867.400000
20
1701.800000
0
VERTEX
8
0
10
5867.400000
20
1727.200000
0
SEQEND
0
POLYLINE
8
0
6
CONTINUOUS
66
1
62
7
10
0.0
20
0.0
30
0.000000
0
VERTEX
8
0
10
6121.400000
20
1701.800000
0
VERTEX
8
0
10
6096.000000
20
1701.800000
0
SEQEND
0
POLYLINE
8
0
6
CONTINUOUS
66
1
62
251
10
0.0
20
0.0
30
0.000000
0
VERTEX
8
0
10
6121.400000
20
1701.800000
0
VERTEX
8
0
10
6121.400000
20
1727.200000
0
SEQEND
0
POLYLINE
8
0
6
CONTINUOUS
66
1
62
250
10
0.0
20
0.0
30
0.000000
0
VERTEX
8
0
10
2616.200000
20
1676.400000
0
VERTEX
8
0
10
2540.000000
20
1879.600000
0
SEQEND
0
POLYLINE
8
0
6
CONTINUOUS
66
1
62
250
10
0.0
20
0.0
30
0.000000
0
VERTEX
8
0
10
2641.600000
20
1676.400000
0
VERTEX
8
0
10
2616.200000
20
1676.400000
0
SEQEND
0
POLYLINE
8
0
6
CONTINUOUS
66
1
62
250
10
0.0
20
0.0
30
0.000000
0
VERTEX
8
0
10
2641.600000
20
1676.400000
0
VERTEX
8
0
10
2641.600000
20
1701.800000
0
SEQEND
0
POLYLINE
8
0
6
CONTINUOUS
66
1
62
250
10
0.0
20
0.0
30
0.000000
0
VERTEX
8
0
10
6121.400000
20
1701.800000
0
VERTEX
8
0
10
6146.800000
20
1676.400000
0
VERTEX
8
0
10
6197.600000
20
1676.400000
0
VERTEX
8
0
10
6624.320000
20
1864.360000
0
VERTEX
8
0
10
6680.200000
20
1905.000000
0
SEQEND
0
POLYLINE
8
0
6
CONTINUOUS
66
1
62
252
10
0.0
20
0.0
30
0.000000
0
VERTEX
8
0
10
2641.600000
20
1651.000000
0
VERTEX
8
0
10
2641.600000
20
1676.400000
0
SEQEND
0
POLYLINE
8
0
6
CONTINUOUS
66
1
62
250
10
0.0
20
0.0
30
0.000000
0
VERTEX
8
0
10
9702.800000
20
1651.000000
0
VERTEX
8
0
10
9347.200000
20
1955.800000
0
SEQEND
0
POLYLINE
8
0
6
CONTINUOUS
66
1
62
250
10
0.0
20
0.0
30
0.000000
0
VERTEX
8
0
10
6070.600000
20
1625.600000
0
VERTEX
8
0
10
6070.600000
20
1676.400000
0
VERTEX
8
0
10
6096.000000
20
1701.800000
0
SEQEND
0
POLYLINE
8
0
6
CONTINUOUS
66
1
62
250
10
0.0
20
0.0
30
0.000000
0
VERTEX
8
0
10
9702.800000
20
1625.600000
0
VERTEX
8
0
10
9702.800000
20
1651.000000
0
SEQEND
0
POLYLINE
8
0
6
CONTINUOUS
66
1
62
250
10
0.0
20
0.0
30
0.000000
0
VERTEX
8
0
10
9728.200000
20
1625.600000
0
VERTEX
8
0
10
9702.800000
20
1625.600000
0
SEQEND
0
POLYLINE
8
0
6
CONTINUOUS
66
1
62
251
10
0.0
20
0.0
30
0.000000
0
VERTEX
8
0
10
6070.600000
20
1600.200000
0
VERTEX
8
0
10
6070.600000
20
1625.600000
0
SEQEND
0
POLYLINE
8
0
6
CONTINUOUS
66
1
62
253
10
0.0
20
0.0
30
0.000000
0
VERTEX
8
0
10
6096.000000
20
1600.200000
0
VERTEX
8
0
10
6070.600000
20
1600.200000
0
SEQEND
0
POLYLINE
8
0
6
CONTINUOUS
66
1
62
250
10
0.0
20
0.0
30
0.000000
0
VERTEX
8
0
10
8432.800000
20
1600.200000
0
VERTEX
8
0
10
8335.107692
20
1631.461538
0
VERTEX
8
0
10
8178.800000
20
1752.600000
0
VERTEX
8
0
10
8173.720000
20
1775.460000
0
VERTEX
8
0
10
8153.400000
20
1803.400000
0
VERTEX
8
0
10
8153.400000
20
1981.200000
0
VERTEX
8
0
10
8178.800000
20
2006.600000
0
SEQEND
0
POLYLINE
8
0
6
CONTINUOUS
66
1
62
250
10
0.0
20
0.0
30
0.000000
0
VERTEX
8
0
10
8458.200000
20
1600.200000
0
VERTEX
8
0
10
8432.800000
20
1600.200000
0
SEQEND
0
POLYLINE
8
0
6
CONTINUOUS
66
1
62
251
10
0.0
20
0.0
30
0.000000
0
VERTEX
8
0
10
8458.200000
20
1574.800000
0
VERTEX
8
0
10
8458.200000
20
1600.200000
0
SEQEND
0
POLYLINE
8
0
6
CONTINUOUS
66
1
62
251
10
0.0
20
0.0
30
0.000000
0
VERTEX
8
0
10
4038.600000
20
1981.200000
0
VERTEX
8
0
10
4120.896000
20
1884.172000
0
VERTEX
8
0
10
4216.400000
20
1752.600000
0
VERTEX
8
0
10
4322.572000
20
1682.496000
0
VERTEX
8
0
10
4497.753846
20
1609.969231
0
VERTEX
8
0
10
4624.039024
20
1585.951220
0
VERTEX
8
0
10
4978.400000
20
1549.400000
0
VERTEX
8
0
10
5080.000000
20
1574.800000
0
SEQEND
0
POLYLINE
8
0
6
CONTINUOUS
66
1
62
251
10
0.0
20
0.0
30
0.000000
0
VERTEX
8
0
10
9804.400000
20
1549.400000
0
VERTEX
8
0
10
9728.200000
20
1625.600000
0
SEQEND
0
POLYLINE
8
0
6
CONTINUOUS
66
1
62
250
10
0.0
20
0.0
30
0.000000
0
VERTEX
8
0
10
11049.000000
20
1549.400000
0
VERTEX
8
0
10
11003.280000
20
1628.140000
0
VERTEX
8
0
10
10871.200000
20
1854.200000
0
VERTEX
8
0
10
10693.400000
20
2032.000000
0
VERTEX
8
0
10
10613.292308
20
2076.938462
0
VERTEX
8
0
10
10594.340000
20
2087.880000
0
VERTEX
8
0
10
10386.646154
20
2174.630769
0
VERTEX
8
0
10
10288.953846
20
2194.169231
0
VERTEX
8
0
10
10261.600000
20
2209.800000
0
VERTEX
8
0
10
9956.800000
20
2209.800000
0
VERTEX
8
0
10
9679.940000
20
2103.120000
0
VERTEX
8
0
10
9575.800000
20
2032.000000
0
SEQEND
0
POLYLINE
8
0
6
CONTINUOUS
66
1
62
251
10
0.0
20
0.0
30
0.000000
0
VERTEX
8
0
10
6223.000000
20
1524.000000
0
VERTEX
8
0
10
6096.000000
20
1600.200000
0
SEQEND
0
POLYLINE
8
0
6
CONTINUOUS
66
1
62
251
10
0.0
20
0.0
30
0.000000
0
VERTEX
8
0
10
6248.400000
20
1524.000000
0
VERTEX
8
0
10
6223.000000
20
1524.000000
0
SEQEND
0
POLYLINE
8
0
6
CONTINUOUS
66
1
62
251
10
0.0
20
0.0
30
0.000000
0
VERTEX
8
0
10
6324.600000
20
1524.000000
0
VERTEX
8
0
10
6248.400000
20
1524.000000
0
SEQEND
0
POLYLINE
8
0
6
CONTINUOUS
66
1
62
252
10
0.0
20
0.0
30
0.000000
0
VERTEX
8
0
10
9804.400000
20
1524.000000
0
VERTEX
8
0
10
9804.400000
20
1549.400000
0
SEQEND
0
POLYLINE
8
0
6
CONTINUOUS
66
1
62
250
10
0.0
20
0.0
30
0.000000
0
VERTEX
8
0
10
9829.800000
20
1524.000000
0
VERTEX
8
0
10
9804.400000
20
1524.000000
0
SEQEND
0
POLYLINE
8
0
6
CONTINUOUS
66
1
62
251
10
0.0
20
0.0
30
0.000000
0
VERTEX
8
0
10
4419.600000
20
1498.600000
0
VERTEX
8
0
10
4345.940000
20
1531.620000
0
VERTEX
8
0
10
3452.446154
20
1869.830769
0
VERTEX
8
0
10
3276.600000
20
1905.000000
0
SEQEND
0
POLYLINE
8
0
6
CONTINUOUS
66
1
62
251
10
0.0
20
0.0
30
0.000000
0
VERTEX
8
0
10
6223.000000
20
1498.600000
0
VERTEX
8
0
10
6223.000000
20
1524.000000
0
SEQEND
0
POLYLINE
8
0
6
CONTINUOUS
66
1
62
252
10
0.0
20
0.0
30
0.000000
0
VERTEX
8
0
10
4419.600000
20
1473.200000
0
VERTEX
8
0
10
4419.600000
20
1498.600000
0
SEQEND
0
POLYLINE
8
0
6
CONTINUOUS
66
1
62
253
10
0.0
20
0.0
30
0.000000
0
VERTEX
8
0
10
4445.000000
20
1473.200000
0
VERTEX
8
0
10
4419.600000
20
1473.200000
0
SEQEND
0
POLYLINE
8
0
6
CONTINUOUS
66
1
62
252
10
0.0
20
0.0
30
0.000000
0
VERTEX
8
0
10
4445.000000
20
1473.200000
0
VERTEX
8
0
10
4876.800000
20
1422.400000
0
VERTEX
8
0
10
4902.200000
20
1447.800000
0
SEQEND
0
POLYLINE
8
0
6
CONTINUOUS
66
1
62
250
10
0.0
20
0.0
30
0.000000
0
VERTEX
8
0
10
5130.800000
20
1422.400000
0
VERTEX
8
0
10
5105.400000
20
1422.400000
0
SEQEND
0
POLYLINE
8
0
6
CONTINUOUS
66
1
62
250
10
0.0
20
0.0
30
0.000000
0
VERTEX
8
0
10
5156.200000
20
1422.400000
0
VERTEX
8
0
10
5130.800000
20
1422.400000
0
SEQEND
0
POLYLINE
8
0
6
CONTINUOUS
66
1
62
250
10
0.0
20
0.0
30
0.000000
0
VERTEX
8
0
10
5156.200000
20
1422.400000
0
VERTEX
8
0
10
5414.107692
20
1543.538462
0
VERTEX
8
0
10
5588.000000
20
1651.000000
0
VERTEX
8
0
10
5791.200000
20
1854.200000
0
VERTEX
8
0
10
5969.000000
20
2108.200000
0
SEQEND
0
POLYLINE
8
0
6
CONTINUOUS
66
1
62
252
10
0.0
20
0.0
30
0.000000
0
VERTEX
8
0
10
5994.400000
20
1422.400000
0
VERTEX
8
0
10
6070.600000
20
1600.200000
0
SEQEND
0
POLYLINE
8
0
6
CONTINUOUS
66
1
62
250
10
0.0
20
0.0
30
0.000000
0
VERTEX
8
0
10
8915.400000
20
1422.400000
0
VERTEX
8
0
10
8940.800000
20
1498.600000
0
VERTEX
8
0
10
8924.364706
20
1653.241176
0
VERTEX
8
0
10
8895.080000
20
1755.140000
0
VERTEX
8
0
10
8839.200000
20
1879.600000
0
VERTEX
8
0
10
8737.600000
20
1981.200000
0
VERTEX
8
0
10
8534.400000
20
2108.200000
0
SEQEND
0
POLYLINE
8
0
6
CONTINUOUS
66
1
62
251
10
0.0
20
0.0
30
0.000000
0
VERTEX
8
0
10
9118.600000
20
1422.400000
0
VERTEX
8
0
10
9123.680000
20
1445.260000
0
VERTEX
8
0
10
9303.870588
20
1782.482353
0
VERTEX
8
0
10
9321.800000
20
1930.400000
0
SEQEND
0
POLYLINE
8
0
6
CONTINUOUS
66
1
62
250
10
0.0
20
0.0
30
0.000000
0
VERTEX
8
0
10
5130.800000
20
1397.000000
0
VERTEX
8
0
10
5130.800000
20
1422.400000
0
SEQEND
0
POLYLINE
8
0
6
CONTINUOUS
66
1
62
251
10
0.0
20
0.0
30
0.000000
0
VERTEX
8
0
10
5994.400000
20
1397.000000
0
VERTEX
8
0
10
5994.400000
20
1422.400000
0
SEQEND
0
POLYLINE
8
0
6
CONTINUOUS
66
1
62
250
10
0.0
20
0.0
30
0.000000
0
VERTEX
8
0
10
6019.800000
20
1397.000000
0
VERTEX
8
0
10
5994.400000
20
1397.000000
0
SEQEND
0
POLYLINE
8
0
6
CONTINUOUS
66
1
62
7
10
0.0
20
0.0
30
0.000000
0
VERTEX
8
0
10
6019.800000
20
1397.000000
0
VERTEX
8
0
10
6223.000000
20
1498.600000
0
SEQEND
0
POLYLINE
8
0
6
CONTINUOUS
66
1
62
251
10
0.0
20
0.0
30
0.000000
0
VERTEX
8
0
10
2870.200000
20
1320.800000
0
VERTEX
8
0
10
2895.600000
20
1346.200000
0
VERTEX
8
0
10
2870.200000
20
1397.000000
0
VERTEX
8
0
10
2870.200000
20
1574.800000
0
VERTEX
8
0
10
2904.564706
20
1674.158824
0
VERTEX
8
0
10
2915.920000
20
1704.340000
0
VERTEX
8
0
10
3073.400000
20
1879.600000
0
SEQEND
0
POLYLINE
8
0
6
CONTINUOUS
66
1
62
250
10
0.0
20
0.0
30
0.000000
0
VERTEX
8
0
10
2844.800000
20
1295.400000
0
VERTEX
8
0
10
2774.696000
20
1376.172000
0
VERTEX
8
0
10
2649.220000
20
1602.740000
0
VERTEX
8
0
10
2641.600000
20
1651.000000
0
SEQEND
0
POLYLINE
8
0
6
CONTINUOUS
66
1
62
250
10
0.0
20
0.0
30
0.000000
0
VERTEX
8
0
10
2870.200000
20
1295.400000
0
VERTEX
8
0
10
2844.800000
20
1295.400000
0
SEQEND
0
POLYLINE
8
0
6
CONTINUOUS
66
1
62
253
10
0.0
20
0.0
30
0.000000
0
VERTEX
8
0
10
2870.200000
20
1295.400000
0
VERTEX
8
0
10
2870.200000
20
1320.800000
0
SEQEND
0
POLYLINE
8
0
6
CONTINUOUS
66
1
62
250
10
0.0
20
0.0
30
0.000000
0
VERTEX
8
0
10
10083.800000
20
1295.400000
0
VERTEX
8
0
10
10134.600000
20
1371.600000
0
VERTEX
8
0
10
10134.600000
20
1422.400000
0
VERTEX
8
0
10
10060.940000
20
1478.280000
0
VERTEX
8
0
10
9955.083784
20
1513.702703
0
VERTEX
8
0
10
9829.800000
20
1524.000000
0
SEQEND
0
POLYLINE
8
0
6
CONTINUOUS
66
1
62
250
10
0.0
20
0.0
30
0.000000
0
VERTEX
8
0
10
10083.800000
20
1270.000000
0
VERTEX
8
0
10
10083.800000
20
1295.400000
0
SEQEND
0
POLYLINE
8
0
6
CONTINUOUS
66
1
62
252
10
0.0
20
0.0
30
0.000000
0
VERTEX
8
0
10
10109.200000
20
1270.000000
0
VERTEX
8
0
10
10083.800000
20
1270.000000
0
SEQEND
0
POLYLINE
8
0
6
CONTINUOUS
66
1
62
7
10
0.0
20
0.0
30
0.000000
0
VERTEX
8
0
10
5892.800000
20
1244.600000
0
VERTEX
8
0
10
5892.800000
20
1295.400000
0
VERTEX
8
0
10
5994.400000
20
1397.000000
0
SEQEND
0
POLYLINE
8
0
6
CONTINUOUS
66
1
62
250
10
0.0
20
0.0
30
0.000000
0
VERTEX
8
0
10
8737.600000
20
1244.600000
0
VERTEX
8
0
10
8731.738462
20
1266.092308
0
VERTEX
8
0
10
8534.400000
20
1524.000000
0
VERTEX
8
0
10
8458.200000
20
1574.800000
0
SEQEND
0
POLYLINE
8
0
6
CONTINUOUS
66
1
62
250
10
0.0
20
0.0
30
0.000000
0
VERTEX
8
0
10
8788.400000
20
1244.600000
0
VERTEX
8
0
10
8813.800000
20
1270.000000
0
VERTEX
8
0
10
8813.800000
20
1397.000000
0
VERTEX
8
0
10
8780.780000
20
1470.660000
0
VERTEX
8
0
10
8763.000000
20
1524.000000
0
VERTEX
8
0
10
8689.340000
20
1579.880000
0
VERTEX
8
0
10
8638.540000
20
1605.280000
0
VERTEX
8
0
10
8610.600000
20
1625.600000
0
VERTEX
8
0
10
8483.600000
20
1625.600000
0
VERTEX
8
0
10
8458.200000
20
1600.200000
0
SEQEND
0
POLYLINE
8
0
6
CONTINUOUS
66
1
62
251
10
0.0
20
0.0
30
0.000000
0
VERTEX
8
0
10
5918.200000
20
1219.200000
0
VERTEX
8
0
10
5892.800000
20
1219.200000
0
VERTEX
8
0
10
5892.800000
20
1244.600000
0
SEQEND
0
POLYLINE
8
0
6
CONTINUOUS
66
1
62
251
10
0.0
20
0.0
30
0.000000
0
VERTEX
8
0
10
8534.400000
20
1219.200000
0
VERTEX
8
0
10
8458.200000
20
1270.000000
0
SEQEND
0
POLYLINE
8
0
6
CONTINUOUS
66
1
62
252
10
0.0
20
0.0
30
0.000000
0
VERTEX
8
0
10
8559.800000
20
1219.200000
0
VERTEX
8
0
10
8534.400000
20
1219.200000
0
SEQEND
0
POLYLINE
8
0
6
CONTINUOUS
66
1
62
252
10
0.0
20
0.0
30
0.000000
0
VERTEX
8
0
10
8712.200000
20
1219.200000
0
VERTEX
8
0
10
8559.800000
20
1219.200000
0
SEQEND
0
POLYLINE
8
0
6
CONTINUOUS
66
1
62
7
10
0.0
20
0.0
30
0.000000
0
VERTEX
8
0
10
8737.600000
20
1219.200000
0
VERTEX
8
0
10
8712.200000
20
1219.200000
0
SEQEND
0
POLYLINE
8
0
6
CONTINUOUS
66
1
62
7
10
0.0
20
0.0
30
0.000000
0
VERTEX
8
0
10
8737.600000
20
1219.200000
0
VERTEX
8
0
10
8737.600000
20
1244.600000
0
SEQEND
0
POLYLINE
8
0
6
CONTINUOUS
66
1
62
250
10
0.0
20
0.0
30
0.000000
0
VERTEX
8
0
10
8763.000000
20
1219.200000
0
VERTEX
8
0
10
8737.600000
20
1219.200000
0
SEQEND
0
POLYLINE
8
0
6
CONTINUOUS
66
1
62
251
10
0.0
20
0.0
30
0.000000
0
VERTEX
8
0
10
8788.400000
20
1219.200000
0
VERTEX
8
0
10
8763.000000
20
1219.200000
0
SEQEND
0
POLYLINE
8
0
6
CONTINUOUS
66
1
62
7
10
0.0
20
0.0
30
0.000000
0
VERTEX
8
0
10
8788.400000
20
1219.200000
0
VERTEX
8
0
10
8788.400000
20
1244.600000
0
SEQEND
0
POLYLINE
8
0
6
CONTINUOUS
66
1
62
251
10
0.0
20
0.0
30
0.000000
0
VERTEX
8
0
10
8534.400000
20
1193.800000
0
VERTEX
8
0
10
8534.400000
20
1219.200000
0
SEQEND
0
POLYLINE
8
0
6
CONTINUOUS
66
1
62
251
10
0.0
20
0.0
30
0.000000
0
VERTEX
8
0
10
8788.400000
20
1193.800000
0
VERTEX
8
0
10
8788.400000
20
1219.200000
0
SEQEND
0
POLYLINE
8
0
6
CONTINUOUS
66
1
62
250
10
0.0
20
0.0
30
0.000000
0
VERTEX
8
0
10
2463.800000
20
1168.400000
0
VERTEX
8
0
10
2127.853394
20
1466.878733
0
VERTEX
8
0
10
1828.800000
20
1676.400000
0
VERTEX
8
0
10
1676.400000
20
1676.400000
0
VERTEX
8
0
10
1625.600000
20
1625.600000
0
VERTEX
8
0
10
1600.200000
20
1651.000000
0
VERTEX
8
0
10
1600.200000
20
1701.800000
0
VERTEX
8
0
10
1676.400000
20
1828.800000
0
VERTEX
8
0
10
1697.892308
20
1834.661538
0
VERTEX
8
0
10
1828.800000
20
1905.000000
0
VERTEX
8
0
10
2082.800000
20
1905.000000
0
VERTEX
8
0
10
2204.843902
20
1822.604878
0
VERTEX
8
0
10
2311.400000
20
1727.200000
0
SEQEND
0
POLYLINE
8
0
6
CONTINUOUS
66
1
62
251
10
0.0
20
0.0
30
0.000000
0
VERTEX
8
0
10
2438.400000
20
1143.000000
0
VERTEX
8
0
10
2463.800000
20
1168.400000
0
SEQEND
0
POLYLINE
8
0
6
CONTINUOUS
66
1
62
251
10
0.0
20
0.0
30
0.000000
0
VERTEX
8
0
10
2489.200000
20
1143.000000
0
VERTEX
8
0
10
2463.800000
20
1168.400000
0
SEQEND
0
POLYLINE
8
0
6
CONTINUOUS
66
1
62
250
10
0.0
20
0.0
30
0.000000
0
VERTEX
8
0
10
5156.200000
20
1143.000000
0
VERTEX
8
0
10
5130.800000
20
1143.000000
0
SEQEND
0
POLYLINE
8
0
6
CONTINUOUS
66
1
62
7
10
0.0
20
0.0
30
0.000000
0
VERTEX
8
0
10
5156.200000
20
1143.000000
0
VERTEX
8
0
10
5486.400000
20
1447.800000
0
SEQEND
0
POLYLINE
8
0
6
CONTINUOUS
66
1
62
251
10
0.0
20
0.0
30
0.000000
0
VERTEX
8
0
10
2438.400000
20
1117.600000
0
VERTEX
8
0
10
2413.000000
20
1117.600000
0
SEQEND
0
POLYLINE
8
0
6
CONTINUOUS
66
1
62
252
10
0.0
20
0.0
30
0.000000
0
VERTEX
8
0
10
2438.400000
20
1117.600000
0
VERTEX
8
0
10
2438.400000
20
1143.000000
0
SEQEND
0
POLYLINE
8
0
6
CONTINUOUS
66
1
62
7
10
0.0
20
0.0
30
0.000000
0
VERTEX
8
0
10
2463.800000
20
1117.600000
0
VERTEX
8
0
10
2438.400000
20
1117.600000
0
SEQEND
0
POLYLINE
8
0
6
CONTINUOUS
66
1
62
250
10
0.0
20
0.0
30
0.000000
0
VERTEX
8
0
10
2489.200000
20
1117.600000
0
VERTEX
8
0
10
2463.800000
20
1117.600000
0
SEQEND
0
POLYLINE
8
0
6
CONTINUOUS
66
1
62
251
10
0.0
20
0.0
30
0.000000
0
VERTEX
8
0
10
2489.200000
20
1117.600000
0
VERTEX
8
0
10
2489.200000
20
1143.000000
0
SEQEND
0
POLYLINE
8
0
6
CONTINUOUS
66
1
62
251
10
0.0
20
0.0
30
0.000000
0
VERTEX
8
0
10
2514.600000
20
1117.600000
0
VERTEX
8
0
10
2489.200000
20
1117.600000
0
SEQEND
0
POLYLINE
8
0
6
CONTINUOUS
66
1
62
250
10
0.0
20
0.0
30
0.000000
0
VERTEX
8
0
10
2768.600000
20
1117.600000
0
VERTEX
8
0
10
2743.200000
20
1117.600000
0
VERTEX
8
0
10
2610.104000
20
1265.428000
0
VERTEX
8
0
10
2546.096000
20
1350.772000
0
VERTEX
8
0
10
2420.620000
20
1577.340000
0
VERTEX
8
0
10
2336.800000
20
1727.200000
0
SEQEND
0
POLYLINE
8
0
6
CONTINUOUS
66
1
62
251
10
0.0
20
0.0
30
0.000000
0
VERTEX
8
0
10
5156.200000
20
1117.600000
0
VERTEX
8
0
10
5156.200000
20
1143.000000
0
SEQEND
0
POLYLINE
8
0
6
CONTINUOUS
66
1
62
250
10
0.0
20
0.0
30
0.000000
0
VERTEX
8
0
10
11099.800000
20
1117.600000
0
VERTEX
8
0
10
11088.483168
20
1345.068317
0
VERTEX
8
0
10
11049.000000
20
1549.400000
0
SEQEND
0
POLYLINE
8
0
6
CONTINUOUS
66
1
62
250
10
0.0
20
0.0
30
0.000000
0
VERTEX
8
0
10
10668.000000
20
1092.200000
0
VERTEX
8
0
10
10640.060000
20
1112.520000
0
VERTEX
8
0
10
10038.204918
20
1606.445902
0
VERTEX
8
0
10
9906.000000
20
1727.200000
0
SEQEND
0
POLYLINE
8
0
6
CONTINUOUS
66
1
62
250
10
0.0
20
0.0
30
0.000000
0
VERTEX
8
0
10
10668.000000
20
1092.200000
0
VERTEX
8
0
10
10718.800000
20
1168.400000
0
VERTEX
8
0
10
10718.800000
20
1295.400000
0
VERTEX
8
0
10
10662.920000
20
1445.260000
0
VERTEX
8
0
10
10566.400000
20
1600.200000
0
VERTEX
8
0
10
10391.140000
20
1732.280000
0
VERTEX
8
0
10
10236.200000
20
1803.400000
0
VERTEX
8
0
10
10083.800000
20
1803.400000
0
VERTEX
8
0
10
9906.000000
20
1727.200000
0
SEQEND
0
POLYLINE
8
0
6
CONTINUOUS
66
1
62
251
10
0.0
20
0.0
30
0.000000
0
VERTEX
8
0
10
4648.200000
20
1066.800000
0
VERTEX
8
0
10
4622.800000
20
1066.800000
0
SEQEND
0
POLYLINE
8
0
6
CONTINUOUS
66
1
62
250
10
0.0
20
0.0
30
0.000000
0
VERTEX
8
0
10
4648.200000
20
1066.800000
0
VERTEX
8
0
10
4702.907692
20
1111.738462
0
VERTEX
8
0
10
5024.243902
20
1301.595122
0
VERTEX
8
0
10
5130.800000
20
1397.000000
0
SEQEND
0
POLYLINE
8
0
6
CONTINUOUS
66
1
62
7
10
0.0
20
0.0
30
0.000000
0
VERTEX
8
0
10
3581.400000
20
1041.400000
0
VERTEX
8
0
10
3606.800000
20
1092.200000
0
VERTEX
8
0
10
3780.692308
20
1225.061538
0
VERTEX
8
0
10
3839.307692
20
1264.138462
0
VERTEX
8
0
10
4142.441176
20
1388.035294
0
VERTEX
8
0
10
4419.600000
20
1473.200000
0
SEQEND
0
POLYLINE
8
0
6
CONTINUOUS
66
1
62
252
10
0.0
20
0.0
30
0.000000
0
VERTEX
8
0
10
4648.200000
20
1041.400000
0
VERTEX
8
0
10
4648.200000
20
1066.800000
0
SEQEND
0
POLYLINE
8
0
6
CONTINUOUS
66
1
62
252
10
0.0
20
0.0
30
0.000000
0
VERTEX
8
0
10
5816.600000
20
1041.400000
0
VERTEX
8
0
10
5828.459922
20
1421.658755
0
VERTEX
8
0
10
5892.800000
20
1676.400000
0
VERTEX
8
0
10
5867.400000
20
1701.800000
0
SEQEND
0
POLYLINE
8
0
6
CONTINUOUS
66
1
62
251
10
0.0
20
0.0
30
0.000000
0
VERTEX
8
0
10
8864.600000
20
1041.400000
0
VERTEX
8
0
10
8895.080000
20
1089.660000
0
VERTEX
8
0
10
9008.035294
20
1323.041176
0
VERTEX
8
0
10
9025.964706
20
1394.758824
0
VERTEX
8
0
10
9042.400000
20
1803.400000
0
SEQEND
0
POLYLINE
8
0
6
CONTINUOUS
66
1
62
250
10
0.0
20
0.0
30
0.000000
0
VERTEX
8
0
10
3556.000000
20
1016.000000
0
VERTEX
8
0
10
3308.321267
20
1275.746606
0
VERTEX
8
0
10
3257.061538
20
1350.107692
0
VERTEX
8
0
10
3246.120000
20
1369.060000
0
VERTEX
8
0
10
3200.400000
20
1473.200000
0
VERTEX
8
0
10
3200.400000
20
1752.600000
0
VERTEX
8
0
10
3234.764706
20
1851.958824
0
VERTEX
8
0
10
3251.200000
20
1879.600000
0
SEQEND
0
POLYLINE
8
0
6
CONTINUOUS
66
1
62
250
10
0.0
20
0.0
30
0.000000
0
VERTEX
8
0
10
3581.400000
20
1016.000000
0
VERTEX
8
0
10
3556.000000
20
1016.000000
0
SEQEND
0
POLYLINE
8
0
6
CONTINUOUS
66
1
62
251
10
0.0
20
0.0
30
0.000000
0
VERTEX
8
0
10
3581.400000
20
1016.000000
0
VERTEX
8
0
10
3581.400000
20
1041.400000
0
SEQEND
0
POLYLINE
8
0
6
CONTINUOUS
66
1
62
252
10
0.0
20
0.0
30
0.000000
0
VERTEX
8
0
10
5816.600000
20
1016.000000
0
VERTEX
8
0
10
5791.200000
20
1016.000000
0
SEQEND
0
POLYLINE
8
0
6
CONTINUOUS
66
1
62
250
10
0.0
20
0.0
30
0.000000
0
VERTEX
8
0
10
5816.600000
20
1016.000000
0
VERTEX
8
0
10
5816.600000
20
1041.400000
0
SEQEND
0
POLYLINE
8
0
6
CONTINUOUS
66
1
62
251
10
0.0
20
0.0
30
0.000000
0
VERTEX
8
0
10
3581.400000
20
990.600000
0
VERTEX
8
0
10
3581.400000
20
1016.000000
0
SEQEND
0
POLYLINE
8
0
6
CONTINUOUS
66
1
62
251
10
0.0
20
0.0
30
0.000000
0
VERTEX
8
0
10
5435.600000
20
990.600000
0
VERTEX
8
0
10
5478.780000
20
1120.140000
0
VERTEX
8
0
10
5683.738462
20
1502.507692
0
VERTEX
8
0
10
5842.000000
20
1701.800000
0
SEQEND
0
POLYLINE
8
0
6
CONTINUOUS
66
1
62
250
10
0.0
20
0.0
30
0.000000
0
VERTEX
8
0
10
8636.000000
20
965.200000
0
VERTEX
8
0
10
8534.400000
20
1193.800000
0
SEQEND
0
POLYLINE
8
0
6
CONTINUOUS
66
1
62
251
10
0.0
20
0.0
30
0.000000
0
VERTEX
8
0
10
8636.000000
20
965.200000
0
VERTEX
8
0
10
8731.404878
20
1071.756098
0
VERTEX
8
0
10
8783.320000
20
1170.940000
0
VERTEX
8
0
10
8788.400000
20
1193.800000
0
SEQEND
0
POLYLINE
8
0
6
CONTINUOUS
66
1
62
7
10
0.0
20
0.0
30
0.000000
0
VERTEX
8
0
10
6070.600000
20
939.800000
0
VERTEX
8
0
10
6504.940000
20
1188.720000
0
VERTEX
8
0
10
7515.860000
20
1503.680000
0
VERTEX
8
0
10
7546.340000
20
1518.920000
0
VERTEX
8
0
10
7947.660000
20
1732.280000
0
VERTEX
8
0
10
7975.600000
20
1752.600000
0
SEQEND
0
POLYLINE
8
0
6
CONTINUOUS
66
1
62
7
10
0.0
20
0.0
30
0.000000
0
VERTEX
8
0
10
3886.200000
20
914.400000
0
VERTEX
8
0
10
3992.756098
20
1009.804878
0
VERTEX
8
0
10
4269.740000
20
1163.320000
0
VERTEX
8
0
10
4726.641176
20
1311.835294
0
VERTEX
8
0
10
5105.400000
20
1422.400000
0
SEQEND
0
POLYLINE
8
0
6
CONTINUOUS
66
1
62
250
10
0.0
20
0.0
30
0.000000
0
VERTEX
8
0
10
4191.000000
20
914.400000
0
VERTEX
8
0
10
4241.800000
20
990.600000
0
VERTEX
8
0
10
4264.660000
20
995.680000
0
VERTEX
8
0
10
4445.000000
20
1066.800000
0
VERTEX
8
0
10
4597.400000
20
1041.400000
0
VERTEX
8
0
10
4622.800000
20
1066.800000
0
SEQEND
0
POLYLINE
8
0
6
CONTINUOUS
66
1
62
250
10
0.0
20
0.0
30
0.000000
0
VERTEX
8
0
10
4800.600000
20
914.400000
0
VERTEX
8
0
10
4648.200000
20
1041.400000
0
SEQEND
0
POLYLINE
8
0
6
CONTINUOUS
66
1
62
250
10
0.0
20
0.0
30
0.000000
0
VERTEX
8
0
10
4826.000000
20
914.400000
0
VERTEX
8
0
10
4800.600000
20
914.400000
0
SEQEND
0
POLYLINE
8
0
6
CONTINUOUS
66
1
62
250
10
0.0
20
0.0
30
0.000000
0
VERTEX
8
0
10
4826.000000
20
914.400000
0
VERTEX
8
0
10
5130.800000
20
1143.000000
0
SEQEND
0
POLYLINE
8
0
6
CONTINUOUS
66
1
62
250
10
0.0
20
0.0
30
0.000000
0
VERTEX
8
0
10
10515.600000
20
914.400000
0
VERTEX
8
0
10
10109.200000
20
1270.000000
0
SEQEND
0
POLYLINE
8
0
6
CONTINUOUS
66
1
62
7
10
0.0
20
0.0
30
0.000000
0
VERTEX
8
0
10
10515.600000
20
914.400000
0
VERTEX
8
0
10
10541.000000
20
914.400000
0
VERTEX
8
0
10
10668.000000
20
1041.400000
0
VERTEX
8
0
10
10668.000000
20
1092.200000
0
SEQEND
0
POLYLINE
8
0
6
CONTINUOUS
66
1
62
251
10
0.0
20
0.0
30
0.000000
0
VERTEX
8
0
10
3886.200000
20
889.000000
0
VERTEX
8
0
10
3860.800000
20
889.000000
0
SEQEND
0
POLYLINE
8
0
6
CONTINUOUS
66
1
62
252
10
0.0
20
0.0
30
0.000000
0
VERTEX
8
0
10
3886.200000
20
889.000000
0
VERTEX
8
0
10
3886.200000
20
914.400000
0
SEQEND
0
POLYLINE
8
0
6
CONTINUOUS
66
1
62
7
10
0.0
20
0.0
30
0.000000
0
VERTEX
8
0
10
4191.000000
20
889.000000
0
VERTEX
8
0
10
4165.600000
20
889.000000
0
SEQEND
0
POLYLINE
8
0
6
CONTINUOUS
66
1
62
7
10
0.0
20
0.0
30
0.000000
0
VERTEX
8
0
10
4191.000000
20
889.000000
0
VERTEX
8
0
10
4191.000000
20
914.400000
0
SEQEND
0
POLYLINE
8
0
6
CONTINUOUS
66
1
62
253
10
0.0
20
0.0
30
0.000000
0
VERTEX
8
0
10
4826.000000
20
889.000000
0
VERTEX
8
0
10
4826.000000
20
914.400000
0
SEQEND
0
POLYLINE
8
0
6
CONTINUOUS
66
1
62
250
10
0.0
20
0.0
30
0.000000
0
VERTEX
8
0
10
5867.400000
20
889.000000
0
VERTEX
8
0
10
5816.600000
20
1016.000000
0
SEQEND
0
POLYLINE
8
0
6
CONTINUOUS
66
1
62
251
10
0.0
20
0.0
30
0.000000
0
VERTEX
8
0
10
5943.600000
20
889.000000
0
VERTEX
8
0
10
5961.380000
20
993.140000
0
VERTEX
8
0
10
6050.280000
20
1165.860000
0
VERTEX
8
0
10
6070.600000
20
1193.800000
0
VERTEX
8
0
10
6045.200000
20
1219.200000
0
VERTEX
8
0
10
5918.200000
20
1219.200000
0
SEQEND
0
POLYLINE
8
0
6
CONTINUOUS
66
1
62
251
10
0.0
20
0.0
30
0.000000
0
VERTEX
8
0
10
3581.400000
20
990.600000
0
VERTEX
8
0
10
3609.340000
20
970.280000
0
VERTEX
8
0
10
3807.460000
20
881.380000
0
VERTEX
8
0
10
3860.800000
20
889.000000
0
SEQEND
0
POLYLINE
8
0
6
CONTINUOUS
66
1
62
250
10
0.0
20
0.0
30
0.000000
0
VERTEX
8
0
10
3886.200000
20
889.000000
0
VERTEX
8
0
10
3911.600000
20
863.600000
0
VERTEX
8
0
10
4114.800000
20
863.600000
0
VERTEX
8
0
10
4165.600000
20
889.000000
0
SEQEND
0
POLYLINE
8
0
6
CONTINUOUS
66
1
62
251
10
0.0
20
0.0
30
0.000000
0
VERTEX
8
0
10
5867.400000
20
863.600000
0
VERTEX
8
0
10
5842.000000
20
863.600000
0
SEQEND
0
POLYLINE
8
0
6
CONTINUOUS
66
1
62
7
10
0.0
20
0.0
30
0.000000
0
VERTEX
8
0
10
5867.400000
20
863.600000
0
VERTEX
8
0
10
5867.400000
20
889.000000
0
SEQEND
0
POLYLINE
8
0
6
CONTINUOUS
66
1
62
250
10
0.0
20
0.0
30
0.000000
0
VERTEX
8
0
10
5943.600000
20
863.600000
0
VERTEX
8
0
10
5918.200000
20
863.600000
0
SEQEND
0
POLYLINE
8
0
6
CONTINUOUS
66
1
62
252
10
0.0
20
0.0
30
0.000000
0
VERTEX
8
0
10
5943.600000
20
863.600000
0
VERTEX
8
0
10
5943.600000
20
889.000000
0
SEQEND
0
POLYLINE
8
0
6
CONTINUOUS
66
1
62
251
10
0.0
20
0.0
30
0.000000
0
VERTEX
8
0
10
10998.200000
20
863.600000
0
VERTEX
8
0
10
11099.800000
20
1117.600000
0
SEQEND
0
POLYLINE
8
0
6
CONTINUOUS
66
1
62
7
10
0.0
20
0.0
30
0.000000
0
VERTEX
8
0
10
5867.400000
20
863.600000
0
VERTEX
8
0
10
5892.800000
20
838.200000
0
VERTEX
8
0
10
5918.200000
20
863.600000
0
SEQEND
0
POLYLINE
8
0
6
CONTINUOUS
66
1
62
250
10
0.0
20
0.0
30
0.000000
0
VERTEX
8
0
10
5943.600000
20
863.600000
0
VERTEX
8
0
10
5969.000000
20
838.200000
0
VERTEX
8
0
10
6019.800000
20
838.200000
0
VERTEX
8
0
10
6498.492308
20
920.261538
0
VERTEX
8
0
10
6553.200000
20
965.200000
0
SEQEND
0
POLYLINE
8
0
6
CONTINUOUS
66
1
62
250
10
0.0
20
0.0
30
0.000000
0
VERTEX
8
0
10
10083.800000
20
1270.000000
0
VERTEX
8
0
10
10033.000000
20
1193.800000
0
VERTEX
8
0
10
10033.000000
20
990.600000
0
VERTEX
8
0
10
10134.600000
20
863.600000
0
VERTEX
8
0
10
10210.800000
20
838.200000
0
VERTEX
8
0
10
10363.200000
20
838.200000
0
VERTEX
8
0
10
10487.660000
20
894.080000
0
VERTEX
8
0
10
10515.600000
20
914.400000
0
SEQEND
0
POLYLINE
8
0
6
CONTINUOUS
66
1
62
250
10
0.0
20
0.0
30
0.000000
0
VERTEX
8
0
10
10998.200000
20
838.200000
0
VERTEX
8
0
10
10998.200000
20
863.600000
0
SEQEND
0
POLYLINE
8
0
6
CONTINUOUS
66
1
62
250
10
0.0
20
0.0
30
0.000000
0
VERTEX
8
0
10
11023.600000
20
838.200000
0
VERTEX
8
0
10
10998.200000
20
838.200000
0
SEQEND
0
POLYLINE
8
0
6
CONTINUOUS
66
1
62
251
10
0.0
20
0.0
30
0.000000
0
VERTEX
8
0
10
5511.800000
20
787.400000
0
VERTEX
8
0
10
5435.600000
20
990.600000
0
SEQEND
0
POLYLINE
8
0
6
CONTINUOUS
66
1
62
250
10
0.0
20
0.0
30
0.000000
0
VERTEX
8
0
10
5537.200000
20
762.000000
0
VERTEX
8
0
10
5511.800000
20
762.000000
0
VERTEX
8
0
10
5511.800000
20
787.400000
0
SEQEND
0
POLYLINE
8
0
6
CONTINUOUS
66
1
62
250
10
0.0
20
0.0
30
0.000000
0
VERTEX
8
0
10
5537.200000
20
762.000000
0
VERTEX
8
0
10
5562.600000
20
762.000000
0
VERTEX
8
0
10
5746.261538
20
961.292308
0
VERTEX
8
0
10
5791.200000
20
1016.000000
0
SEQEND
0
POLYLINE
8
0
6
CONTINUOUS
66
1
62
252
10
0.0
20
0.0
30
0.000000
0
VERTEX
8
0
10
6959.600000
20
736.600000
0
VERTEX
8
0
10
6934.200000
20
736.600000
0
SEQEND
0
POLYLINE
8
0
6
CONTINUOUS
66
1
62
250
10
0.0
20
0.0
30
0.000000
0
VERTEX
8
0
10
6959.600000
20
736.600000
0
VERTEX
8
0
10
7010.400000
20
787.400000
0
SEQEND
0
POLYLINE
8
0
6
CONTINUOUS
66
1
62
251
10
0.0
20
0.0
30
0.000000
0
VERTEX
8
0
10
4876.800000
20
711.200000
0
VERTEX
8
0
10
4826.000000
20
889.000000
0
SEQEND
0
POLYLINE
8
0
6
CONTINUOUS
66
1
62
252
10
0.0
20
0.0
30
0.000000
0
VERTEX
8
0
10
4902.200000
20
711.200000
0
VERTEX
8
0
10
4876.800000
20
711.200000
0
SEQEND
0
POLYLINE
8
0
6
CONTINUOUS
66
1
62
250
10
0.0
20
0.0
30
0.000000
0
VERTEX
8
0
10
4902.200000
20
711.200000
0
VERTEX
8
0
10
4958.861538
20
808.892308
0
VERTEX
8
0
10
5105.400000
20
1016.000000
0
VERTEX
8
0
10
5130.800000
20
1016.000000
0
VERTEX
8
0
10
5168.900000
20
1092.200000
0
VERTEX
8
0
10
5156.200000
20
1117.600000
0
SEQEND
0
POLYLINE
8
0
6
CONTINUOUS
66
1
62
250
10
0.0
20
0.0
30
0.000000
0
VERTEX
8
0
10
5791.200000
20
711.200000
0
VERTEX
8
0
10
5740.400000
20
762.000000
0
VERTEX
8
0
10
5740.400000
20
787.400000
0
VERTEX
8
0
10
5814.060000
20
843.280000
0
VERTEX
8
0
10
5842.000000
20
863.600000
0
SEQEND
0
POLYLINE
8
0
6
CONTINUOUS
66
1
62
7
10
0.0
20
0.0
30
0.000000
0
VERTEX
8
0
10
6959.600000
20
711.200000
0
VERTEX
8
0
10
6959.600000
20
736.600000
0
SEQEND
0
POLYLINE
8
0
6
CONTINUOUS
66
1
62
250
10
0.0
20
0.0
30
0.000000
0
VERTEX
8
0
10
7162.800000
20
711.200000
0
VERTEX
8
0
10
7239.000000
20
812.800000
0
SEQEND
0
POLYLINE
8
0
6
CONTINUOUS
66
1
62
250
10
0.0
20
0.0
30
0.000000
0
VERTEX
8
0
10
4318.000000
20
685.800000
0
VERTEX
8
0
10
4191.000000
20
889.000000
0
SEQEND
0
POLYLINE
8
0
6
CONTINUOUS
66
1
62
252
10
0.0
20
0.0
30
0.000000
0
VERTEX
8
0
10
4876.800000
20
685.800000
0
VERTEX
8
0
10
4876.800000
20
711.200000
0
SEQEND
0
POLYLINE
8
0
6
CONTINUOUS
66
1
62
250
10
0.0
20
0.0
30
0.000000
0
VERTEX
8
0
10
5791.200000
20
711.200000
0
VERTEX
8
0
10
5867.400000
20
711.200000
0
SEQEND
0
POLYLINE
8
0
6
CONTINUOUS
66
1
62
250
10
0.0
20
0.0
30
0.000000
0
VERTEX
8
0
10
7162.800000
20
685.800000
0
VERTEX
8
0
10
7137.400000
20
685.800000
0
SEQEND
0
POLYLINE
8
0
6
CONTINUOUS
66
1
62
7
10
0.0
20
0.0
30
0.000000
0
VERTEX
8
0
10
7162.800000
20
685.800000
0
VERTEX
8
0
10
7162.800000
20
711.200000
0
SEQEND
0
POLYLINE
8
0
6
CONTINUOUS
66
1
62
251
10
0.0
20
0.0
30
0.000000
0
VERTEX
8
0
10
9652.000000
20
685.800000
0
VERTEX
8
0
10
9646.920000
20
708.660000
0
VERTEX
8
0
10
9586.097297
20
839.916216
0
VERTEX
8
0
10
9565.502703
20
963.483784
0
VERTEX
8
0
10
9550.400000
20
1143.000000
0
VERTEX
8
0
10
9593.580000
20
1297.940000
0
VERTEX
8
0
10
9601.200000
20
1346.200000
0
VERTEX
8
0
10
9804.400000
20
1524.000000
0
SEQEND
0
POLYLINE
8
0
6
CONTINUOUS
66
1
62
251
10
0.0
20
0.0
30
0.000000
0
VERTEX
8
0
10
3810.000000
20
660.400000
0
VERTEX
8
0
10
3528.060000
20
756.920000
0
VERTEX
8
0
10
3221.892308
20
933.938462
0
VERTEX
8
0
10
3098.800000
20
1016.000000
0
VERTEX
8
0
10
2940.538462
20
1189.892308
0
VERTEX
8
0
10
2870.200000
20
1295.400000
0
SEQEND
0
POLYLINE
8
0
6
CONTINUOUS
66
1
62
7
10
0.0
20
0.0
30
0.000000
0
VERTEX
8
0
10
4318.000000
20
660.400000
0
VERTEX
8
0
10
4292.600000
20
660.400000
0
SEQEND
0
POLYLINE
8
0
6
CONTINUOUS
66
1
62
250
10
0.0
20
0.0
30
0.000000
0
VERTEX
8
0
10
4318.000000
20
660.400000
0
VERTEX
8
0
10
4318.000000
20
685.800000
0
SEQEND
0
POLYLINE
8
0
6
CONTINUOUS
66
1
62
7
10
0.0
20
0.0
30
0.000000
0
VERTEX
8
0
10
7162.800000
20
660.400000
0
VERTEX
8
0
10
7162.800000
20
685.800000
0
SEQEND
0
POLYLINE
8
0
6
CONTINUOUS
66
1
62
250
10
0.0
20
0.0
30
0.000000
0
VERTEX
8
0
10
9652.000000
20
660.400000
0
VERTEX
8
0
10
9626.600000
20
660.400000
0
SEQEND
0
POLYLINE
8
0
6
CONTINUOUS
66
1
62
251
10
0.0
20
0.0
30
0.000000
0
VERTEX
8
0
10
9652.000000
20
660.400000
0
VERTEX
8
0
10
9652.000000
20
685.800000
0
SEQEND
0
POLYLINE
8
0
6
CONTINUOUS
66
1
62
250
10
0.0
20
0.0
30
0.000000
0
VERTEX
8
0
10
9677.400000
20
660.400000
0
VERTEX
8
0
10
9652.000000
20
660.400000
0
SEQEND
0
POLYLINE
8
0
6
CONTINUOUS
66
1
62
251
10
0.0
20
0.0
30
0.000000
0
VERTEX
8
0
10
10871.200000
20
660.400000
0
VERTEX
8
0
10
10998.200000
20
838.200000
0
SEQEND
0
POLYLINE
8
0
6
CONTINUOUS
66
1
62
7
10
0.0
20
0.0
30
0.000000
0
VERTEX
8
0
10
4318.000000
20
635.000000
0
VERTEX
8
0
10
4318.000000
20
660.400000
0
SEQEND
0
POLYLINE
8
0
6
CONTINUOUS
66
1
62
7
10
0.0
20
0.0
30
0.000000
0
VERTEX
8
0
10
6324.600000
20
660.400000
0
VERTEX
8
0
10
6372.860000
20
690.880000
0
VERTEX
8
0
10
6527.800000
20
762.000000
0
VERTEX
8
0
10
6553.200000
20
736.600000
0
VERTEX
8
0
10
6553.200000
20
660.400000
0
VERTEX
8
0
10
6578.600000
20
635.000000
0
VERTEX
8
0
10
6705.600000
20
635.000000
0
VERTEX
8
0
10
6934.200000
20
736.600000
0
SEQEND
0
POLYLINE
8
0
6
CONTINUOUS
66
1
62
7
10
0.0
20
0.0
30
0.000000
0
VERTEX
8
0
10
8661.400000
20
635.000000
0
VERTEX
8
0
10
9702.800000
20
1625.600000
0
SEQEND
0
POLYLINE
8
0
6
CONTINUOUS
66
1
62
250
10
0.0
20
0.0
30
0.000000
0
VERTEX
8
0
10
10871.200000
20
635.000000
0
VERTEX
8
0
10
10845.800000
20
635.000000
0
SEQEND
0
POLYLINE
8
0
6
CONTINUOUS
66
1
62
250
10
0.0
20
0.0
30
0.000000
0
VERTEX
8
0
10
10871.200000
20
635.000000
0
VERTEX
8
0
10
10871.200000
20
660.400000
0
SEQEND
0
POLYLINE
8
0
6
CONTINUOUS
66
1
62
251
10
0.0
20
0.0
30
0.000000
0
VERTEX
8
0
10
3352.800000
20
609.600000
0
VERTEX
8
0
10
3228.340000
20
665.480000
0
VERTEX
8
0
10
2696.972000
20
996.696000
0
VERTEX
8
0
10
2514.600000
20
1117.600000
0
SEQEND
0
POLYLINE
8
0
6
CONTINUOUS
66
1
62
250
10
0.0
20
0.0
30
0.000000
0
VERTEX
8
0
10
6959.600000
20
711.200000
0
VERTEX
8
0
10
6959.600000
20
635.000000
0
VERTEX
8
0
10
6985.000000
20
609.600000
0
VERTEX
8
0
10
7063.740000
20
629.920000
0
VERTEX
8
0
10
7137.400000
20
685.800000
0
SEQEND
0
POLYLINE
8
0
6
CONTINUOUS
66
1
62
251
10
0.0
20
0.0
30
0.000000
0
VERTEX
8
0
10
8661.400000
20
609.600000
0
VERTEX
8
0
10
8636.000000
20
609.600000
0
SEQEND
0
POLYLINE
8
0
6
CONTINUOUS
66
1
62
251
10
0.0
20
0.0
30
0.000000
0
VERTEX
8
0
10
8661.400000
20
609.600000
0
VERTEX
8
0
10
8661.400000
20
635.000000
0
SEQEND
0
POLYLINE
8
0
6
CONTINUOUS
66
1
62
250
10
0.0
20
0.0
30
0.000000
0
VERTEX
8
0
10
8661.400000
20
609.600000
0
VERTEX
8
0
10
8686.800000
20
596.900000
0
VERTEX
8
0
10
8836.660000
20
642.620000
0
VERTEX
8
0
10
9144.000000
20
711.200000
0
VERTEX
8
0
10
9423.400000
20
711.200000
0
VERTEX
8
0
10
9626.600000
20
660.400000
0
SEQEND
0
POLYLINE
8
0
6
CONTINUOUS
66
1
62
7
10
0.0
20
0.0
30
0.000000
0
VERTEX
8
0
10
7391.400000
20
558.800000
0
VERTEX
8
0
10
7416.800000
20
584.200000
0
SEQEND
0
POLYLINE
8
0
6
CONTINUOUS
66
1
62
250
10
0.0
20
0.0
30
0.000000
0
VERTEX
8
0
10
6121.400000
20
533.400000
0
VERTEX
8
0
10
6096.000000
20
533.400000
0
SEQEND
0
POLYLINE
8
0
6
CONTINUOUS
66
1
62
250
10
0.0
20
0.0
30
0.000000
0
VERTEX
8
0
10
6121.400000
20
533.400000
0
VERTEX
8
0
10
6324.600000
20
660.400000
0
SEQEND
0
POLYLINE
8
0
6
CONTINUOUS
66
1
62
252
10
0.0
20
0.0
30
0.000000
0
VERTEX
8
0
10
7391.400000
20
533.400000
0
VERTEX
8
0
10
7366.000000
20
533.400000
0
SEQEND
0
POLYLINE
8
0
6
CONTINUOUS
66
1
62
251
10
0.0
20
0.0
30
0.000000
0
VERTEX
8
0
10
7391.400000
20
533.400000
0
VERTEX
8
0
10
7391.400000
20
558.800000
0
SEQEND
0
POLYLINE
8
0
6
CONTINUOUS
66
1
62
251
10
0.0
20
0.0
30
0.000000
0
VERTEX
8
0
10
12293.600000
20
533.400000
0
VERTEX
8
0
10
12293.600000
20
558.800000
0
SEQEND
0
POLYLINE
8
0
6
CONTINUOUS
66
1
62
252
10
0.0
20
0.0
30
0.000000
0
VERTEX
8
0
10
12319.000000
20
533.400000
0
VERTEX
8
0
10
12293.600000
20
533.400000
0
SEQEND
0
POLYLINE
8
0
6
CONTINUOUS
66
1
62
252
10
0.0
20
0.0
30
0.000000
0
VERTEX
8
0
10
6121.400000
20
508.000000
0
VERTEX
8
0
10
6121.400000
20
533.400000
0
SEQEND
0
POLYLINE
8
0
6
CONTINUOUS
66
1
62
7
10
0.0
20
0.0
30
0.000000
0
VERTEX
8
0
10
9855.200000
20
508.000000
0
VERTEX
8
0
10
9677.400000
20
660.400000
0
SEQEND
0
POLYLINE
8
0
6
CONTINUOUS
66
1
62
250
10
0.0
20
0.0
30
0.000000
0
VERTEX
8
0
10
9880.600000
20
508.000000
0
VERTEX
8
0
10
9855.200000
20
508.000000
0
SEQEND
0
POLYLINE
8
0
6
CONTINUOUS
66
1
62
251
10
0.0
20
0.0
30
0.000000
0
VERTEX
8
0
10
9906.000000
20
508.000000
0
VERTEX
8
0
10
9880.600000
20
508.000000
0
SEQEND
0
POLYLINE
8
0
6
CONTINUOUS
66
1
62
250
10
0.0
20
0.0
30
0.000000
0
VERTEX
8
0
10
11049.000000
20
1549.400000
0
VERTEX
8
0
10
11224.260000
20
1706.880000
0
VERTEX
8
0
10
11303.000000
20
1752.600000
0
VERTEX
8
0
10
11455.400000
20
1752.600000
0
VERTEX
8
0
10
11483.340000
20
1734.820000
0
VERTEX
8
0
10
11531.600000
20
1727.200000
0
VERTEX
8
0
10
11607.800000
20
1651.000000
0
VERTEX
8
0
10
11607.800000
20
1625.600000
0
VERTEX
8
0
10
11557.000000
20
1498.600000
0
VERTEX
8
0
10
11557.000000
20
1320.800000
0
VERTEX
8
0
10
11592.169231
20
1195.753846
0
VERTEX
8
0
10
11690.096000
20
969.772000
0
VERTEX
8
0
10
11754.104000
20
884.428000
0
VERTEX
8
0
10
11887.200000
20
736.600000
0
VERTEX
8
0
10
12219.940000
20
538.480000
0
VERTEX
8
0
10
12240.260000
20
528.320000
0
VERTEX
8
0
10
12293.600000
20
533.400000
0
SEQEND
0
POLYLINE
8
0
6
CONTINUOUS
66
1
62
251
10
0.0
20
0.0
30
0.000000
0
VERTEX
8
0
10
3835.400000
20
482.600000
0
VERTEX
8
0
10
3810.000000
20
482.600000
0
SEQEND
0
POLYLINE
8
0
6
CONTINUOUS
66
1
62
250
10
0.0
20
0.0
30
0.000000
0
VERTEX
8
0
10
3835.400000
20
482.600000
0
VERTEX
8
0
10
4292.600000
20
660.400000
0
SEQEND
0
POLYLINE
8
0
6
CONTINUOUS
66
1
62
250
10
0.0
20
0.0
30
0.000000
0
VERTEX
8
0
10
4851.400000
20
482.600000
0
VERTEX
8
0
10
4876.800000
20
685.800000
0
SEQEND
0
POLYLINE
8
0
6
CONTINUOUS
66
1
62
251
10
0.0
20
0.0
30
0.000000
0
VERTEX
8
0
10
9880.600000
20
482.600000
0
VERTEX
8
0
10
9880.600000
20
508.000000
0
SEQEND
0
POLYLINE
8
0
6
CONTINUOUS
66
1
62
250
10
0.0
20
0.0
30
0.000000
0
VERTEX
8
0
10
11633.200000
20
482.600000
0
VERTEX
8
0
10
11633.200000
20
508.000000
0
VERTEX
8
0
10
11582.400000
20
533.400000
0
VERTEX
8
0
10
11277.600000
20
838.200000
0
VERTEX
8
0
10
11181.861538
20
994.507692
0
VERTEX
8
0
10
11099.800000
20
1117.600000
0
SEQEND
0
POLYLINE
8
0
6
CONTINUOUS
66
1
62
250
10
0.0
20
0.0
30
0.000000
0
VERTEX
8
0
10
14554.200000
20
482.600000
0
VERTEX
8
0
10
14542.883168
20
710.068317
0
VERTEX
8
0
10
14519.835294
20
810.558824
0
VERTEX
8
0
10
14503.400000
20
838.200000
0
VERTEX
8
0
10
14528.800000
20
1016.000000
0
VERTEX
8
0
10
14630.400000
20
1066.800000
0
SEQEND
0
POLYLINE
8
0
6
CONTINUOUS
66
1
62
251
10
0.0
20
0.0
30
0.000000
0
VERTEX
8
0
10
3530.600000
20
457.200000
0
VERTEX
8
0
10
3505.200000
20
457.200000
0
SEQEND
0
POLYLINE
8
0
6
CONTINUOUS
66
1
62
254
10
0.0
20
0.0
30
0.000000
0
VERTEX
8
0
10
3556.000000
20
457.200000
0
VERTEX
8
0
10
3530.600000
20
457.200000
0
SEQEND
0
POLYLINE
8
0
6
CONTINUOUS
66
1
62
250
10
0.0
20
0.0
30
0.000000
0
VERTEX
8
0
10
3556.000000
20
457.200000
0
VERTEX
8
0
10
3581.400000
20
482.600000
0
VERTEX
8
0
10
3810.000000
20
482.600000
0
SEQEND
0
POLYLINE
8
0
6
CONTINUOUS
66
1
62
252
10
0.0
20
0.0
30
0.000000
0
VERTEX
8
0
10
3835.400000
20
457.200000
0
VERTEX
8
0
10
3835.400000
20
482.600000
0
SEQEND
0
POLYLINE
8
0
6
CONTINUOUS
66
1
62
251
10
0.0
20
0.0
30
0.000000
0
VERTEX
8
0
10
4851.400000
20
457.200000
0
VERTEX
8
0
10
4826.000000
20
457.200000
0
SEQEND
0
POLYLINE
8
0
6
CONTINUOUS
66
1
62
7
10
0.0
20
0.0
30
0.000000
0
VERTEX
8
0
10
4851.400000
20
457.200000
0
VERTEX
8
0
10
4851.400000
20
482.600000
0
SEQEND
0
POLYLINE
8
0
6
CONTINUOUS
66
1
62
250
10
0.0
20
0.0
30
0.000000
0
VERTEX
8
0
10
8305.800000
20
457.200000
0
VERTEX
8
0
10
8364.220000
20
581.660000
0
VERTEX
8
0
10
8432.800000
20
812.800000
0
VERTEX
8
0
10
8534.400000
20
711.200000
0
VERTEX
8
0
10
8610.600000
20
787.400000
0
VERTEX
8
0
10
8628.380000
20
916.940000
0
VERTEX
8
0
10
8636.000000
20
965.200000
0
SEQEND
0
POLYLINE
8
0
6
CONTINUOUS
66
1
62
250
10
0.0
20
0.0
30
0.000000
0
VERTEX
8
0
10
9906.000000
20
508.000000
0
VERTEX
8
0
10
9928.860000
20
502.920000
0
VERTEX
8
0
10
10033.000000
20
457.200000
0
VERTEX
8
0
10
10439.400000
20
457.200000
0
VERTEX
8
0
10
10690.860000
20
541.020000
0
VERTEX
8
0
10
10845.800000
20
635.000000
0
SEQEND
0
POLYLINE
8
0
6
CONTINUOUS
66
1
62
251
10
0.0
20
0.0
30
0.000000
0
VERTEX
8
0
10
11023.600000
20
838.200000
0
VERTEX
8
0
10
11078.307692
20
793.261538
0
VERTEX
8
0
10
11579.860000
20
477.520000
0
VERTEX
8
0
10
11633.200000
20
482.600000
0
SEQEND
0
POLYLINE
8
0
6
CONTINUOUS
66
1
62
254
10
0.0
20
0.0
30
0.000000
0
VERTEX
8
0
10
3530.600000
20
431.800000
0
VERTEX
8
0
10
3530.600000
20
457.200000
0
SEQEND
0
POLYLINE
8
0
6
CONTINUOUS
66
1
62
7
10
0.0
20
0.0
30
0.000000
0
VERTEX
8
0
10
4851.400000
20
431.800000
0
VERTEX
8
0
10
4851.400000
20
457.200000
0
SEQEND
0
POLYLINE
8
0
6
CONTINUOUS
66
1
62
250
10
0.0
20
0.0
30
0.000000
0
VERTEX
8
0
10
5588.000000
20
431.800000
0
VERTEX
8
0
10
5537.200000
20
457.200000
0
VERTEX
8
0
10
5511.800000
20
508.000000
0
VERTEX
8
0
10
5613.400000
20
609.600000
0
VERTEX
8
0
10
5666.740000
20
629.920000
0
VERTEX
8
0
10
5791.200000
20
711.200000
0
SEQEND
0
POLYLINE
8
0
6
CONTINUOUS
66
1
62
251
10
0.0
20
0.0
30
0.000000
0
VERTEX
8
0
10
5613.400000
20
431.800000
0
VERTEX
8
0
10
5588.000000
20
431.800000
0
SEQEND
0
POLYLINE
8
0
6
CONTINUOUS
66
1
62
250
10
0.0
20
0.0
30
0.000000
0
VERTEX
8
0
10
5664.200000
20
431.800000
0
VERTEX
8
0
10
5613.400000
20
431.800000
0
SEQEND
0
POLYLINE
8
0
6
CONTINUOUS
66
1
62
250
10
0.0
20
0.0
30
0.000000
0
VERTEX
8
0
10
7162.800000
20
660.400000
0
VERTEX
8
0
10
7162.800000
20
482.600000
0
VERTEX
8
0
10
7213.600000
20
431.800000
0
VERTEX
8
0
10
7338.060000
20
513.080000
0
VERTEX
8
0
10
7366.000000
20
533.400000
0
SEQEND
0
POLYLINE
8
0
6
CONTINUOUS
66
1
62
251
10
0.0
20
0.0
30
0.000000
0
VERTEX
8
0
10
8331.200000
20
431.800000
0
VERTEX
8
0
10
8305.800000
20
457.200000
0
SEQEND
0
POLYLINE
8
0
6
CONTINUOUS
66
1
62
252
10
0.0
20
0.0
30
0.000000
0
VERTEX
8
0
10
5588.000000
20
406.400000
0
VERTEX
8
0
10
5588.000000
20
431.800000
0
SEQEND
0
POLYLINE
8
0
6
CONTINUOUS
66
1
62
250
10
0.0
20
0.0
30
0.000000
0
VERTEX
8
0
10
7645.400000
20
406.400000
0
VERTEX
8
0
10
7683.937931
20
604.344828
0
VERTEX
8
0
10
7874.000000
20
914.400000
0
VERTEX
8
0
10
7924.800000
20
939.800000
0
VERTEX
8
0
10
8034.020000
20
1140.460000
0
VERTEX
8
0
10
8102.600000
20
1346.200000
0
VERTEX
8
0
10
8059.420000
20
1602.740000
0
VERTEX
8
0
10
8020.538462
20
1697.892308
0
VERTEX
8
0
10
7975.600000
20
1752.600000
0
SEQEND
0
POLYLINE
8
0
6
CONTINUOUS
66
1
62
252
10
0.0
20
0.0
30
0.000000
0
VERTEX
8
0
10
8331.200000
20
406.400000
0
VERTEX
8
0
10
8331.200000
20
431.800000
0
SEQEND
0
POLYLINE
8
0
6
CONTINUOUS
66
1
62
250
10
0.0
20
0.0
30
0.000000
0
VERTEX
8
0
10
8356.600000
20
406.400000
0
VERTEX
8
0
10
8331.200000
20
406.400000
0
SEQEND
0
POLYLINE
8
0
6
CONTINUOUS
66
1
62
250
10
0.0
20
0.0
30
0.000000
0
VERTEX
8
0
10
8356.600000
20
406.400000
0
VERTEX
8
0
10
8636.000000
20
609.600000
0
SEQEND
0
POLYLINE
8
0
6
CONTINUOUS
66
1
62
250
10
0.0
20
0.0
30
0.000000
0
VERTEX
8
0
10
12319.000000
20
533.400000
0
VERTEX
8
0
10
12448.540000
20
462.280000
0
VERTEX
8
0
10
12701.524000
20
391.668000
0
VERTEX
8
0
10
12877.800000
20
355.600000
0
VERTEX
8
0
10
13031.567692
20
370.058462
0
VERTEX
8
0
10
13208.000000
20
381.000000
0
SEQEND
0
POLYLINE
8
0
6
CONTINUOUS
66
1
62
250
10
0.0
20
0.0
30
0.000000
0
VERTEX
8
0
10
3835.400000
20
457.200000
0
VERTEX
8
0
10
3855.720000
20
403.860000
0
VERTEX
8
0
10
3937.000000
20
304.800000
0
VERTEX
8
0
10
4140.200000
20
304.800000
0
VERTEX
8
0
10
4216.400000
20
355.600000
0
VERTEX
8
0
10
4292.600000
20
431.800000
0
VERTEX
8
0
10
4307.332000
20
484.124000
0
VERTEX
8
0
10
4318.000000
20
635.000000
0
SEQEND
0
POLYLINE
8
0
6
CONTINUOUS
66
1
62
252
10
0.0
20
0.0
30
0.000000
0
VERTEX
8
0
10
7391.400000
20
304.800000
0
VERTEX
8
0
10
7416.800000
20
330.200000
0
VERTEX
8
0
10
7416.800000
20
508.000000
0
VERTEX
8
0
10
7391.400000
20
533.400000
0
SEQEND
0
POLYLINE
8
0
6
CONTINUOUS
66
1
62
250
10
0.0
20
0.0
30
0.000000
0
VERTEX
8
0
10
5486.400000
20
279.400000
0
VERTEX
8
0
10
5588.000000
20
406.400000
0
SEQEND
0
POLYLINE
8
0
6
CONTINUOUS
66
1
62
251
10
0.0
20
0.0
30
0.000000
0
VERTEX
8
0
10
7366.000000
20
279.400000
0
VERTEX
8
0
10
7062.096471
20
291.054118
0
VERTEX
8
0
10
6809.153846
20
339.969231
0
VERTEX
8
0
10
6530.340000
20
462.280000
0
VERTEX
8
0
10
6477.000000
20
482.600000
0
VERTEX
8
0
10
6344.920000
20
632.460000
0
VERTEX
8
0
10
6324.600000
20
660.400000
0
SEQEND
0
POLYLINE
8
0
6
CONTINUOUS
66
1
62
250
10
0.0
20
0.0
30
0.000000
0
VERTEX
8
0
10
7391.400000
20
279.400000
0
VERTEX
8
0
10
7366.000000
20
279.400000
0
SEQEND
0
POLYLINE
8
0
6
CONTINUOUS
66
1
62
250
10
0.0
20
0.0
30
0.000000
0
VERTEX
8
0
10
7391.400000
20
279.400000
0
VERTEX
8
0
10
7391.400000
20
304.800000
0
SEQEND
0
POLYLINE
8
0
6
CONTINUOUS
66
1
62
251
10
0.0
20
0.0
30
0.000000
0
VERTEX
8
0
10
5461.000000
20
254.000000
0
VERTEX
8
0
10
5402.580000
20
403.860000
0
VERTEX
8
0
10
5384.800000
20
431.800000
0
VERTEX
8
0
10
5384.800000
20
863.600000
0
VERTEX
8
0
10
5419.164706
20
962.958824
0
VERTEX
8
0
10
5435.600000
20
990.600000
0
SEQEND
0
POLYLINE
8
0
6
CONTINUOUS
66
1
62
250
10
0.0
20
0.0
30
0.000000
0
VERTEX
8
0
10
5486.400000
20
254.000000
0
VERTEX
8
0
10
5461.000000
20
254.000000
0
SEQEND
0
POLYLINE
8
0
6
CONTINUOUS
66
1
62
250
10
0.0
20
0.0
30
0.000000
0
VERTEX
8
0
10
5486.400000
20
254.000000
0
VERTEX
8
0
10
5486.400000
20
279.400000
0
SEQEND
0
POLYLINE
8
0
6
CONTINUOUS
66
1
62
250
10
0.0
20
0.0
30
0.000000
0
VERTEX
8
0
10
12471.400000
20
254.000000
0
VERTEX
8
0
10
12167.496471
20
265.654118
0
VERTEX
8
0
10
12067.241176
20
288.364706
0
VERTEX
8
0
10
11711.940000
20
436.880000
0
VERTEX
8
0
10
11633.200000
20
482.600000
0
SEQEND
0
POLYLINE
8
0
6
CONTINUOUS
66
1
62
252
10
0.0
20
0.0
30
0.000000
0
VERTEX
8
0
10
5486.400000
20
228.600000
0
VERTEX
8
0
10
5486.400000
20
254.000000
0
SEQEND
0
POLYLINE
8
0
6
CONTINUOUS
66
1
62
251
10
0.0
20
0.0
30
0.000000
0
VERTEX
8
0
10
5461.000000
20
177.800000
0
VERTEX
8
0
10
5486.400000
20
228.600000
0
SEQEND
0
POLYLINE
8
0
6
CONTINUOUS
66
1
62
250
10
0.0
20
0.0
30
0.000000
0
VERTEX
8
0
10
7874.000000
20
177.800000
0
VERTEX
8
0
10
7973.060000
20
210.820000
0
VERTEX
8
0
10
8227.060000
20
335.280000
0
VERTEX
8
0
10
8331.200000
20
406.400000
0
SEQEND
0
POLYLINE
8
0
6
CONTINUOUS
66
1
62
251
10
0.0
20
0.0
30
0.000000
0
VERTEX
8
0
10
5461.000000
20
152.400000
0
VERTEX
8
0
10
5435.600000
20
152.400000
0
SEQEND
0
POLYLINE
8
0
6
CONTINUOUS
66
1
62
250
10
0.0
20
0.0
30
0.000000
0
VERTEX
8
0
10
5461.000000
20
152.400000
0
VERTEX
8
0
10
5461.000000
20
177.800000
0
SEQEND
0
POLYLINE
8
0
6
CONTINUOUS
66
1
62
251
10
0.0
20
0.0
30
0.000000
0
VERTEX
8
0
10
5486.400000
20
152.400000
0
VERTEX
8
0
10
5461.000000
20
152.400000
0
SEQEND
0
POLYLINE
8
0
6
CONTINUOUS
66
1
62
250
10
0.0
20
0.0
30
0.000000
0
VERTEX
8
0
10
7493.000000
20
76.200000
0
VERTEX
8
0
10
7391.400000
20
279.400000
0
SEQEND
0
POLYLINE
8
0
6
CONTINUOUS
66
1
62
253
10
0.0
20
0.0
30
0.000000
0
VERTEX
8
0
10
7493.000000
20
50.800000
0
VERTEX
8
0
10
7467.600000
20
50.800000
0
SEQEND
0
POLYLINE
8
0
6
CONTINUOUS
66
1
62
250
10
0.0
20
0.0
30
0.000000
0
VERTEX
8
0
10
7493.000000
20
50.800000
0
VERTEX
8
0
10
7493.000000
20
76.200000
0
SEQEND
0
POLYLINE
8
0
6
CONTINUOUS
66
1
62
250
10
0.0
20
0.0
30
0.000000
0
VERTEX
8
0
10
7594.600000
20
50.800000
0
VERTEX
8
0
10
7612.380000
20
129.540000
0
VERTEX
8
0
10
7670.800000
20
254.000000
0
VERTEX
8
0
10
7797.800000
20
381.000000
0
VERTEX
8
0
10
7851.140000
20
401.320000
0
VERTEX
8
0
10
7950.200000
20
431.800000
0
VERTEX
8
0
10
8128.000000
20
635.000000
0
VERTEX
8
0
10
8199.120000
20
530.860000
0
VERTEX
8
0
10
8204.200000
20
508.000000
0
VERTEX
8
0
10
8255.000000
20
457.200000
0
VERTEX
8
0
10
8305.800000
20
457.200000
0
SEQEND
0
POLYLINE
8
0
6
CONTINUOUS
66
1
62
7
10
0.0
20
0.0
30
0.000000
0
VERTEX
8
0
10
2413.000000
20
1117.600000
0
VERTEX
8
0
10
2133.600000
20
1168.400000
0
VERTEX
8
0
10
2106.246154
20
1152.769231
0
VERTEX
8
0
10
1828.800000
20
1066.800000
0
VERTEX
8
0
10
1625.600000
20
863.600000
0
VERTEX
8
0
10
1600.200000
20
762.000000
0
VERTEX
8
0
10
1600.200000
20
584.200000
0
VERTEX
8
0
10
1645.920000
20
480.060000
0
VERTEX
8
0
10
1778.000000
20
228.600000
0
VERTEX
8
0
10
2082.800000
20
25.400000
0
VERTEX
8
0
10
2514.600000
20
25.400000
0
VERTEX
8
0
10
2590.800000
20
50.800000
0
VERTEX
8
0
10
2717.800000
20
177.800000
0
VERTEX
8
0
10
2743.200000
20
254.000000
0
VERTEX
8
0
10
2697.480000
20
434.340000
0
VERTEX
8
0
10
2667.000000
20
482.600000
0
VERTEX
8
0
10
2616.200000
20
482.600000
0
VERTEX
8
0
10
2542.540000
20
426.720000
0
VERTEX
8
0
10
2463.800000
20
381.000000
0
VERTEX
8
0
10
2336.800000
20
381.000000
0
VERTEX
8
0
10
2288.540000
20
411.480000
0
VERTEX
8
0
10
2209.800000
20
457.200000
0
VERTEX
8
0
10
2204.720000
20
480.060000
0
VERTEX
8
0
10
2184.400000
20
508.000000
0
VERTEX
8
0
10
2184.400000
20
660.400000
0
VERTEX
8
0
10
2286.000000
20
787.400000
0
VERTEX
8
0
10
2413.000000
20
812.800000
0
VERTEX
8
0
10
2664.460000
20
706.120000
0
VERTEX
8
0
10
2766.060000
20
655.320000
0
VERTEX
8
0
10
3126.441176
20
516.964706
0
VERTEX
8
0
10
3505.200000
20
457.200000
0
SEQEND
0
POLYLINE
8
0
6
CONTINUOUS
66
1
62
250
10
0.0
20
0.0
30
0.000000
0
VERTEX
8
0
10
3530.600000
20
431.800000
0
VERTEX
8
0
10
3562.096000
20
334.772000
0
VERTEX
8
0
10
3626.104000
20
249.428000
0
VERTEX
8
0
10
3759.200000
20
101.600000
0
VERTEX
8
0
10
3858.260000
20
45.720000
0
VERTEX
8
0
10
3886.200000
20
25.400000
0
VERTEX
8
0
10
4394.200000
20
25.400000
0
VERTEX
8
0
10
4441.092308
20
56.661538
0
VERTEX
8
0
10
4499.707692
20
95.738462
0
VERTEX
8
0
10
4749.800000
20
330.200000
0
VERTEX
8
0
10
4826.000000
20
457.200000
0
SEQEND
0
POLYLINE
8
0
6
CONTINUOUS
66
1
62
250
10
0.0
20
0.0
30
0.000000
0
VERTEX
8
0
10
4851.400000
20
431.800000
0
VERTEX
8
0
10
4953.000000
20
152.400000
0
VERTEX
8
0
10
5105.400000
20
25.400000
0
VERTEX
8
0
10
5257.800000
20
25.400000
0
VERTEX
8
0
10
5380.892308
20
107.461538
0
VERTEX
8
0
10
5435.600000
20
152.400000
0
SEQEND
0
POLYLINE
8
0
6
CONTINUOUS
66
1
62
250
10
0.0
20
0.0
30
0.000000
0
VERTEX
8
0
10
5486.400000
20
152.400000
0
VERTEX
8
0
10
5613.400000
20
228.600000
0
VERTEX
8
0
10
5644.661538
20
181.707692
0
VERTEX
8
0
10
5689.600000
20
101.600000
0
VERTEX
8
0
10
5765.800000
20
25.400000
0
VERTEX
8
0
10
5791.200000
20
25.400000
0
VERTEX
8
0
10
5842.000000
20
76.200000
0
VERTEX
8
0
10
5872.480000
20
276.860000
0
VERTEX
8
0
10
6096.000000
20
533.400000
0
SEQEND
0
POLYLINE
8
0
6
CONTINUOUS
66
1
62
251
10
0.0
20
0.0
30
0.000000
0
VERTEX
8
0
10
6121.400000
20
508.000000
0
VERTEX
8
0
10
6121.400000
20
482.600000
0
VERTEX
8
0
10
6223.000000
20
381.000000
0
VERTEX
8
0
10
6379.307692
20
285.261538
0
VERTEX
8
0
10
6396.892308
20
273.538462
0
VERTEX
8
0
10
6758.940000
20
109.220000
0
VERTEX
8
0
10
6834.841176
20
85.164706
0
VERTEX
8
0
10
6957.060000
20
45.720000
0
VERTEX
8
0
10
6985.000000
20
25.400000
0
VERTEX
8
0
10
7442.200000
20
25.400000
0
VERTEX
8
0
10
7467.600000
20
50.800000
0
SEQEND
0
POLYLINE
8
0
6
CONTINUOUS
66
1
62
250
10
0.0
20
0.0
30
0.000000
0
VERTEX
8
0
10
7569.200000
20
25.400000
0
VERTEX
8
0
10
7518.400000
20
25.400000
0
VERTEX
8
0
10
7493.000000
20
50.800000
0
SEQEND
0
POLYLINE
8
0
6
CONTINUOUS
66
1
62
7
10
0.0
20
0.0
30
0.000000
0
VERTEX
8
0
10
7594.600000
20
25.400000
0
VERTEX
8
0
10
7569.200000
20
25.400000
0
SEQEND
0
POLYLINE
8
0
6
CONTINUOUS
66
1
62
7
10
0.0
20
0.0
30
0.000000
0
VERTEX
8
0
10
7594.600000
20
25.400000
0
VERTEX
8
0
10
7594.600000
20
50.800000
0
SEQEND
0
POLYLINE
8
0
6
CONTINUOUS
66
1
62
7
10
0.0
20
0.0
30
0.000000
0
VERTEX
8
0
10
7620.000000
20
25.400000
0
VERTEX
8
0
10
7594.600000
20
25.400000
0
SEQEND
0
POLYLINE
8
0
6
CONTINUOUS
66
1
62
250
10
0.0
20
0.0
30
0.000000
0
VERTEX
8
0
10
7620.000000
20
25.400000
0
VERTEX
8
0
10
8000.258755
20
37.259922
0
VERTEX
8
0
10
8125.460000
20
83.820000
0
VERTEX
8
0
10
8485.553846
20
193.430769
0
VERTEX
8
0
10
8583.246154
20
212.969231
0
VERTEX
8
0
10
8763.000000
20
254.000000
0
VERTEX
8
0
10
9245.600000
20
254.000000
0
VERTEX
8
0
10
9420.860000
20
195.580000
0
VERTEX
8
0
10
9451.340000
20
182.880000
0
VERTEX
8
0
10
9596.628000
20
95.504000
0
VERTEX
8
0
10
9677.400000
20
25.400000
0
VERTEX
8
0
10
9804.400000
20
25.400000
0
VERTEX
8
0
10
9911.080000
20
149.860000
0
VERTEX
8
0
10
9956.800000
20
254.000000
0
VERTEX
8
0
10
9939.020000
20
358.140000
0
VERTEX
8
0
10
9880.600000
20
482.600000
0
SEQEND
0
POLYLINE
8
0
6
CONTINUOUS
66
1
62
7
10
0.0
20
0.0
30
0.000000
0
VERTEX
8
0
10
10871.200000
20
635.000000
0
VERTEX
8
0
10
10951.972000
20
564.896000
0
VERTEX
8
0
10
11357.707692
20
310.661538
0
VERTEX
8
0
10
11635.740000
20
185.420000
0
VERTEX
8
0
10
11681.460000
20
170.180000
0
VERTEX
8
0
10
12115.800000
20
25.400000
0
VERTEX
8
0
10
13106.400000
20
25.400000
0
VERTEX
8
0
10
13408.660000
20
160.020000
0
VERTEX
8
0
10
13484.860000
20
185.420000
0
VERTEX
8
0
10
13945.967692
20
319.258462
0
VERTEX
8
0
10
14147.800000
20
355.600000
0
VERTEX
8
0
10
14630.400000
20
304.800000
0
VERTEX
8
0
10
14706.600000
20
381.000000
0
VERTEX
8
0
10
14717.541538
20
557.432308
0
VERTEX
8
0
10
14859.000000
20
990.600000
0
VERTEX
8
0
10
14841.220000
20
1018.540000
0
VERTEX
8
0
10
14833.600000
20
1066.800000
0
VERTEX
8
0
10
14734.540000
20
1148.080000
0
VERTEX
8
0
10
14706.600000
20
1168.400000
0
VERTEX
8
0
10
14503.400000
20
1168.400000
0
VERTEX
8
0
10
14475.460000
20
1148.080000
0
VERTEX
8
0
10
13667.740000
20
754.380000
0
VERTEX
8
0
10
13462.000000
20
685.800000
0
VERTEX
8
0
10
13030.200000
20
685.800000
0
VERTEX
8
0
10
12804.140000
20
767.080000
0
VERTEX
8
0
10
12773.660000
20
782.320000
0
VERTEX
8
0
10
12674.600000
20
838.200000
0
VERTEX
8
0
10
12496.800000
20
1016.000000
0
VERTEX
8
0
10
12369.800000
20
1295.400000
0
VERTEX
8
0
10
12369.800000
20
1346.200000
0
VERTEX
8
0
10
12395.200000
20
1371.600000
0
VERTEX
8
0
10
12395.200000
20
1422.400000
0
VERTEX
8
0
10
12369.800000
20
1447.800000
0
VERTEX
8
0
10
12293.600000
20
1447.800000
0
VERTEX
8
0
10
12219.940000
20
1414.780000
0
VERTEX
8
0
10
12141.200000
20
1397.000000
0
VERTEX
8
0
10
11988.800000
20
1244.600000
0
VERTEX
8
0
10
11963.400000
20
1066.800000
0
VERTEX
8
0
10
12044.680000
20
866.140000
0
VERTEX
8
0
10
12059.920000
20
835.660000
0
VERTEX
8
0
10
12096.706207
20
767.605517
0
VERTEX
8
0
10
12293.600000
20
558.800000
0
SEQEND
0
ENDSEC
0
EOF
